999
DXF file: RVGALAN-CKQ-M_assy_2.dxf
999
Pro/ENGINEER 2014200 by Parametric Technology Corporation
  0
SECTION
  2
HEADER
  9
$ACADVER
  1
AC1021
  9
$DWGCODEPAGE
  3
ANSI_1252
  9
$EXTMAX
 10
22.0
 20
17.0
 30
0.0
  9
$EXTMIN
 10
0.0
 20
0.0
 30
0.0
  9
$LIMMIN
 10
0.0
 20
0.0
  9
$LIMMAX
 10
22.0
 20
17.0
  9
$VIEWCTR
 10
11.0
 20
8.5
  9
$VIEWSIZE
 40
17.0
  9
$CLAYER
  8
0
  9
$LTSCALE
 40
1.21
  9
$CELTYPE
  6
BYLAYER
  9
$DIMSCALE
 40
1.0
  9
$DIMASZ
 40
0.1875
  9
$DIMEXO
 40
0.0625
  9
$DIMDLI
 40
0.836
  9
$DIMEXE
 40
0.125
  9
$DIMCEN
 40
0.198
  9
$DIMLFAC
 40
1.0
  9
$DIMBLK
  1
_FILLED
  9
$DIMTXT
 40
0.1
  9
$DIMTOL
 70
0
  9
$DIMLIM
 70
0
  9
$DIMTFAC
 40
1.0
  9
$DIMGAP
 40
0.09
  9
$DIMDSEP
 70
46
  9
$AUNITS
 70
0
  9
$PDMODE
 70
3
  9
$PDSIZE
 40
0.3125
  9
$HANDSEED
  5
36A
  9
$TILEMODE
 70
1
  9
$MEASUREMENT
 70
0
  9
$INSUNITS
 70
1
  0
ENDSEC
  0
SECTION
  2
CLASSES
  0
CLASS
  1
ACDBDICTIONARYWDFLT
  2
AcDbDictionaryWithDefault
  3
AutoCAD 2000
 90
0
 91
1
280
0
281
0
  0
CLASS
  1
ACDBPLACEHOLDER
  2
AcDbPlaceHolder
  3
AutoCAD 2000
 90
0
 91
1
280
0
281
0
  0
CLASS
  1
LAYOUT
  2
AcDbLayout
  3
AutoCAD 2000
 90
0
 91
0
280
0
281
0
  0
CLASS
  1
RASTERVARIABLES
  2
AcDbRasterVariables
  3
ISM
 90
0
 91
1
280
0
281
0
  0
CLASS
  1
IMAGEDEF
  2
AcDbRasterImageDef
  3
ISM
 90
0
 91
1
280
0
281
0
  0
CLASS
  1
IMAGEDEF_REACTOR
  2
AcDbRasterImageDefReactor
  3
ISM
 90
0
 91
1
280
0
281
0
  0
CLASS
  1
IMAGE
  2
AcDbRasterImage
  3
ISM
 90
127
 91
1
280
0
281
1
  0
CLASS
  1
TABLESTYLE
  2
AcDbTableStyle
  3
ObjectDBX Classes
 90
2047
 91
1
280
0
281
0
  0
CLASS
  1
ACAD_TABLE
  2
AcDbTable
  3
ObjectDBX Classes
 90
1025
 91
3
280
0
281
1
  0
ENDSEC
  0
SECTION
  2
TABLES
  0
TABLE
  2
VPORT
  5
8
100
AcDbSymbolTable
 70
2
  0
VPORT
  5
1F4
100
AcDbSymbolTableRecord
100
AcDbViewportTableRecord
  2
*ACTIVE
 70
0
 10
0.0
 20
0.0
 11
1.0
 21
1.0
 12
11.0
 22
8.5
 13
0.0
 23
0.0
 14
1.0
 24
1.0
 15
0.0
 25
0.0
 16
0.0
 26
0.0
 36
1.0
 17
0.0
 27
0.0
 37
0.0
 40
17.0
 41
1.2941176471
 42
50.0
 43
0.0
 44
0.0
 50
0.0
 51
0.0
 71
0
 72
100
 73
1
 74
1
 75
0
 76
0
 77
0
 78
0
  0
ENDTAB
  0
TABLE
  2
LTYPE
  5
5
100
AcDbSymbolTable
 70
6
  0
LTYPE
  5
14
100
AcDbSymbolTableRecord
100
AcDbLinetypeTableRecord
  2
BYBLOCK
 70
0
  3

 72
65
 73
0
 40
0.0
  0
LTYPE
  5
15
100
AcDbSymbolTableRecord
100
AcDbLinetypeTableRecord
  2
BYLAYER
 70
0
  3

 72
65
 73
0
 40
0.0
  0
LTYPE
  5
16
100
AcDbSymbolTableRecord
100
AcDbLinetypeTableRecord
  2
CONTINUOUS
 70
64
  3
Solid line
 72
65
 73
0
 40
0.0
  0
LTYPE
  5
1F5
100
AcDbSymbolTableRecord
100
AcDbLinetypeTableRecord
  2
CENTER
 70
64
  3
____ _ ____ _ ____ _ ____ _ ____ _ ____ _ ____
 72
65
 73
4
 40
0.6
 49
0.375
 74
0
 49
-0.075
 74
0
 49
0.075
 74
0
 49
-0.075
 74
0
  0
LTYPE
  5
1F6
100
AcDbSymbolTableRecord
100
AcDbLinetypeTableRecord
  2
HIDDEN
 70
64
  3
- - - - - - - - - - - - - - - - - - - -
 72
65
 73
2
 40
0.2
 49
0.1
 74
0
 49
-0.1
 74
0
  0
LTYPE
  5
1F7
100
AcDbSymbolTableRecord
100
AcDbLinetypeTableRecord
  2
PHANTOM
 70
64
  3
_____ _ _ _____ _ _ _____ _ _ _____
 72
65
 73
6
 40
0.8
 49
0.45
 74
0
 49
-0.05
 74
0
 49
0.1
 74
0
 49
-0.05
 74
0
 49
0.1
 74
0
 49
-0.05
 74
0
  0
LTYPE
  5
1F8
100
AcDbSymbolTableRecord
100
AcDbLinetypeTableRecord
  2
DOT
 70
64
  3
. . . . . . . . . . . . . . . . . . . .
 72
65
 73
2
 40
0.2
 49
0.1
 74
0
 49
-0.1
 74
0
  0
LTYPE
  5
1F9
100
AcDbSymbolTableRecord
100
AcDbLinetypeTableRecord
  2
DASHED
 70
64
  3
- - - - - - - - - - - - - - - - - - - -
 72
65
 73
2
 40
0.2
 49
0.1
 74
0
 49
-0.1
 74
0
  0
ENDTAB
  0
TABLE
  2
LAYER
  5
2
100
AcDbSymbolTable
 70
36
  0
LAYER
  5
10
100
AcDbSymbolTableRecord
100
AcDbLayerTableRecord
  2
0
 70
0
 62
7
  6
CONTINUOUS
370
-3
390
F
  0
LAYER
  5
1FA
100
AcDbSymbolTableRecord
100
AcDbLayerTableRecord
  2
DEFAULT_1
 70
0
 62
7
  6
CENTER
370
-3
390
F
  0
LAYER
  5
1FB
100
AcDbSymbolTableRecord
100
AcDbLayerTableRecord
  2
DEFAULT_2
 70
0
 62
8
  6
HIDDEN
370
-3
390
F
  0
LAYER
  5
1FC
100
AcDbSymbolTableRecord
100
AcDbLayerTableRecord
  2
DEFAULT_3
 70
0
 62
7
  6
PHANTOM
370
-3
390
F
  0
LAYER
  5
1FD
100
AcDbSymbolTableRecord
100
AcDbLayerTableRecord
  2
01___PRT_ALL_DTM_PLN
 70
0
 62
7
  6
CONTINUOUS
370
-3
390
F
  0
LAYER
  5
1FE
100
AcDbSymbolTableRecord
100
AcDbLayerTableRecord
  2
01___PRT_DEF_DTM_PLN
 70
0
 62
7
  6
CONTINUOUS
370
-3
390
F
  0
LAYER
  5
1FF
100
AcDbSymbolTableRecord
100
AcDbLayerTableRecord
  2
02___PRT_ALL_AXES
 70
0
 62
7
  6
CONTINUOUS
370
-3
390
F
  0
LAYER
  5
200
100
AcDbSymbolTableRecord
100
AcDbLayerTableRecord
  2
03___PRT_ALL_CURVES
 70
0
 62
7
  6
CONTINUOUS
370
-3
390
F
  0
LAYER
  5
201
100
AcDbSymbolTableRecord
100
AcDbLayerTableRecord
  2
04___PRT_ALL_DTM_PNT
 70
0
 62
7
  6
CONTINUOUS
370
-3
390
F
  0
LAYER
  5
202
100
AcDbSymbolTableRecord
100
AcDbLayerTableRecord
  2
05___PRT_ALL_DTM_CSYS
 70
0
 62
7
  6
CONTINUOUS
370
-3
390
F
  0
LAYER
  5
203
100
AcDbSymbolTableRecord
100
AcDbLayerTableRecord
  2
05___PRT_DEF_DTM_CSYS
 70
0
 62
7
  6
CONTINUOUS
370
-3
390
F
  0
LAYER
  5
204
100
AcDbSymbolTableRecord
100
AcDbLayerTableRecord
  2
06___PRT_ALL_SURFS
 70
0
 62
7
  6
CONTINUOUS
370
-3
390
F
  0
LAYER
  5
205
100
AcDbSymbolTableRecord
100
AcDbLayerTableRecord
  2
DATUM_PLANES
 70
0
 62
7
  6
CONTINUOUS
370
-3
390
F
  0
LAYER
  5
206
100
AcDbSymbolTableRecord
100
AcDbLayerTableRecord
  2
DIMENSIONS
 70
0
 62
7
  6
CONTINUOUS
370
-3
390
F
  0
LAYER
  5
207
100
AcDbSymbolTableRecord
100
AcDbLayerTableRecord
  2
PARAMETERDIMENSIONS
 70
0
 62
7
  6
CONTINUOUS
370
-3
390
F
  0
LAYER
  5
208
100
AcDbSymbolTableRecord
100
AcDbLayerTableRecord
  2
PLANE
 70
0
 62
7
  6
CONTINUOUS
370
-3
390
F
  0
LAYER
  5
209
100
AcDbSymbolTableRecord
100
AcDbLayerTableRecord
  2
PORT_AREAS
 70
0
 62
7
  6
CONTINUOUS
370
-3
390
F
  0
LAYER
  5
20A
100
AcDbSymbolTableRecord
100
AcDbLayerTableRecord
  2
SUNNBOMCOSMETIC
 70
0
 62
7
  6
CONTINUOUS
370
-3
390
F
  0
LAYER
  5
20B
100
AcDbSymbolTableRecord
100
AcDbLayerTableRecord
  2
SUNNBOMSTAMPING
 70
0
 62
7
  6
CONTINUOUS
370
-3
390
F
  0
LAYER
  5
20C
100
AcDbSymbolTableRecord
100
AcDbLayerTableRecord
  2
THREADS
 70
0
 62
7
  6
CONTINUOUS
370
-3
390
F
  0
ENDTAB
  0
TABLE
  2
STYLE
  5
3
100
AcDbSymbolTable
 70
1
  0
STYLE
  5
11
100
AcDbSymbolTableRecord
100
AcDbTextStyleTableRecord
  2
STANDARD
 70
0
 40
0.0
 41
0.8
 50
0.0
 71
0
 42
0.2
  3
txt
  4

  0
STYLE
  5
20D
100
AcDbSymbolTableRecord
100
AcDbTextStyleTableRecord
  2
TEXTSTYLE_1
 70
0
 40
0.0
 41
0.8
 50
0.0
 71
0
 42
0.2
  3
gdt
  4

  0
ENDTAB
  0
TABLE
  2
VIEW
  5
6
100
AcDbSymbolTable
 70
0
  0
ENDTAB
  0
TABLE
  2
UCS
  5
7
100
AcDbSymbolTable
 70
0
  0
ENDTAB
  0
TABLE
  2
APPID
  5
9
100
AcDbSymbolTable
 70
1
  0
APPID
  5
20E
100
AcDbSymbolTableRecord
100
AcDbRegAppTableRecord
  2
ACAD
 70
0
  0
ENDTAB
  0
TABLE
  2
BLOCK_RECORD
  5
1
100
AcDbSymbolTable
 70
0
  0
BLOCK_RECORD
  5
20F
100
AcDbSymbolTableRecord
100
AcDbBlockTableRecord
  2
*Model_Space
  0
BLOCK_RECORD
  5
210
100
AcDbSymbolTableRecord
100
AcDbBlockTableRecord
  2
*Paper_Space
  0
BLOCK_RECORD
  5
211
100
AcDbSymbolTableRecord
100
AcDbBlockTableRecord
  2
SUN_FIRST_THIRD_ANGLE_BL0
  0
BLOCK_RECORD
  5
212
100
AcDbSymbolTableRecord
100
AcDbBlockTableRecord
  2
*T1
  0
BLOCK_RECORD
  5
213
100
AcDbSymbolTableRecord
100
AcDbBlockTableRecord
  2
*T2
  0
BLOCK_RECORD
  5
214
100
AcDbSymbolTableRecord
100
AcDbBlockTableRecord
  2
*T3
  0
ENDTAB
  0
TABLE
  2
DIMSTYLE
  5
A
100
AcDbSymbolTable
 70
1
100
AcDbDimStyleTable
 71
0
  0
DIMSTYLE
105
215
100
AcDbSymbolTableRecord
100
AcDbDimStyleTableRecord
  2
STANDARD
 70
0
  3

  4

 40
1.0
 41
0.1875
 42
0.0625
 43
0.38
 44
0.125
 45
0.0
 46
0.0
 47
0.001
 48
0.001
140
0.1
141
0.09
142
0.0
143
25.4
144
1.0
145
0.0
146
1.0
147
0.09
 71
0.0
 72
0.0
 73
1
 74
1
 75
0
 76
0
 77
0
 78
4
170
0
171
2
172
0
173
0
174
0
175
0
176
0
177
0
178
0
270
2
271
3
272
3
273
2
274
2
275
0
280
0
281
0
282
0
283
1
284
4
285
0
286
0
287
3
288
0
340
11
278
46
  0
ENDTAB
  0
ENDSEC
  0
SECTION
  2
BLOCKS
  0
BLOCK
  5
20
100
AcDbEntity
  8
0
100
AcDbBlockBegin
  2
*Model_Space
 70
0
 10
0.0
 20
0.0
 30
0.0
  3
*Model_Space
  1

  0
ENDBLK
  5
21
100
AcDbEntity
  8
0
100
AcDbBlockEnd
  0
BLOCK
  5
1C
100
AcDbEntity
  8
0
100
AcDbBlockBegin
  2
*Paper_Space
 70
0
 10
0.0
 20
0.0
 30
0.0
  3
*Paper_Space
  1

  0
ENDBLK
  5
1D
100
AcDbEntity
  8
0
100
AcDbBlockEnd
  0
BLOCK
  5
216
100
AcDbEntity
  8
0
100
AcDbBlockBegin
 62
2
  6
CONTINUOUS
  2
SUN_FIRST_THIRD_ANGLE_BL0
 70
64
 10
20.4816717061
 20
1.2289683772
  3
SUN_FIRST_THIRD_ANGLE_BL0
  1

  0
TEXT
  5
217
100
AcDbEntity
  8
0
100
AcDbText
 62
2
  6
CONTINUOUS
 10
19.4750896608
 20
1.4136269581
  7
STANDARD
 40
0.08
  1
FIRST ANGLE
 41
0.8
 72
0
100
AcDbText
  0
TEXT
  5
218
100
AcDbEntity
  8
0
100
AcDbText
 62
2
  6
CONTINUOUS
 10
20.7842537513
 20
1.4047600029
  7
STANDARD
 40
0.08
  1
THIRD ANGLE
 41
0.8
 72
0
100
AcDbText
  0
LINE
  5
219
100
AcDbEntity
  8
0
100
AcDbLine
 62
7
  6
CONTINUOUS
 10
19.4767170086
 20
1.1727031207
 11
19.6334271527
 21
1.1717972817
  0
LINE
  5
21A
100
AcDbEntity
  8
0
100
AcDbLine
 62
7
  6
CONTINUOUS
 10
19.6596964832
 20
1.1717972817
 11
19.6950230232
 21
1.171593082
  0
LINE
  5
21B
100
AcDbEntity
  8
0
100
AcDbLine
 62
7
  6
CONTINUOUS
 10
19.7194818561
 20
1.1708914427
 11
19.8852396156
 21
1.1699333054
  0
LINE
  5
21C
100
AcDbEntity
  8
0
100
AcDbLine
 62
7
  6
CONTINUOUS
 10
19.4758111696
 20
1.2723454088
 11
19.88525039
 21
1.3511534004
  0
LINE
  5
21D
100
AcDbEntity
  8
0
100
AcDbLine
 62
7
  6
CONTINUOUS
 10
19.88525039
 20
1.3511534004
 11
19.8831348489
 21
0.9851647912
  0
LINE
  5
21E
100
AcDbEntity
  8
0
100
AcDbLine
 62
7
  6
CONTINUOUS
 10
19.8831348489
 20
0.9851647912
 11
19.4767170086
 21
1.0658141206
  0
LINE
  5
21F
100
AcDbEntity
  8
0
100
AcDbLine
 62
7
  6
CONTINUOUS
 10
19.4767170086
 20
1.0658141206
 11
19.4779056764
 21
1.2714536432
  0
CIRCLE
  5
220
100
AcDbEntity
  8
0
100
AcDbCircle
 62
7
  6
CONTINUOUS
 10
20.2068232291
 20
1.1717972817
 40
0.175742101
  0
CIRCLE
  5
221
100
AcDbEntity
  8
0
100
AcDbCircle
 62
7
  6
CONTINUOUS
 10
20.2068232291
 20
1.1717972817
 40
0.1005522074
  0
LINE
  5
222
100
AcDbEntity
  8
0
100
AcDbLine
 62
7
  6
CONTINUOUS
 10
20.2077290681
 20
1.3756110529
 11
20.2071171714
 21
1.2379342989
  0
LINE
  5
223
100
AcDbEntity
  8
0
100
AcDbLine
 62
7
  6
CONTINUOUS
 10
20.2077290681
 20
1.2016899681
 11
20.2074674401
 21
1.1428236749
  0
LINE
  5
224
100
AcDbEntity
  8
0
100
AcDbLine
 62
7
  6
CONTINUOUS
 10
20.208634907
 20
1.101141841
 11
20.2080230104
 21
0.963465087
  0
LINE
  5
225
100
AcDbEntity
  8
0
100
AcDbLine
 62
7
  6
CONTINUOUS
 10
20.0066328138
 20
1.1745147986
 11
20.1443095678
 21
1.1739029019
  0
LINE
  5
226
100
AcDbEntity
  8
0
100
AcDbLine
 62
7
  6
CONTINUOUS
 10
20.1832714155
 20
1.1727031207
 11
20.238153505
 21
1.172335442
  0
LINE
  5
227
100
AcDbEntity
  8
0
100
AcDbLine
 62
7
  6
CONTINUOUS
 10
20.2756669918
 20
1.1717972817
 11
20.407916871
 21
1.1712095044
  0
CIRCLE
  5
228
100
AcDbEntity
  8
0
100
AcDbCircle
 62
7
  6
CONTINUOUS
 10
20.7509457401
 20
1.1693297793
 40
0.1722024983
  0
CIRCLE
  5
229
100
AcDbEntity
  8
0
100
AcDbCircle
 62
7
  6
CONTINUOUS
 10
20.7509457401
 20
1.1693297793
 40
0.0985164967
  0
LINE
  5
22A
100
AcDbEntity
  8
0
100
AcDbLine
 62
7
  6
CONTINUOUS
 10
20.7169767782
 20
1.170462078
 11
20.7825395137
 21
1.1682766535
  0
LINE
  5
22B
100
AcDbEntity
  8
0
100
AcDbLine
 62
7
  6
CONTINUOUS
 10
20.8177513651
 20
1.1693297793
 11
20.947965719
 21
1.1693297793
  0
LINE
  5
22C
100
AcDbEntity
  8
0
100
AcDbLine
 62
7
  6
CONTINUOUS
 10
20.6875370113
 20
1.170462078
 11
20.5573226574
 21
1.170462078
  0
LINE
  5
22D
100
AcDbEntity
  8
0
100
AcDbLine
 62
7
  6
CONTINUOUS
 10
20.7486811426
 20
1.1987695462
 11
20.7486811426
 21
1.1432869085
  0
LINE
  5
22E
100
AcDbEntity
  8
0
100
AcDbLine
 62
7
  6
CONTINUOUS
 10
20.7498134414
 20
1.1059210505
 11
20.7498134414
 21
0.9757066966
  0
LINE
  5
22F
100
AcDbEntity
  8
0
100
AcDbLine
 62
7
  6
CONTINUOUS
 10
20.7486811426
 20
1.2338708068
 11
20.7486811426
 21
1.3640851607
  0
LINE
  5
230
100
AcDbEntity
  8
0
100
AcDbLine
 62
7
  6
CONTINUOUS
 10
21.0702539817
 20
1.2701043662
 11
21.4790138229
 21
1.3448360823
  0
LINE
  5
231
100
AcDbEntity
  8
0
100
AcDbLine
 62
7
  6
CONTINUOUS
 10
21.4790138229
 20
1.3448360823
 11
21.4790138229
 21
0.9779712941
  0
LINE
  5
232
100
AcDbEntity
  8
0
100
AcDbLine
 62
7
  6
CONTINUOUS
 10
21.4790138229
 20
0.9779712941
 11
21.069121683
 21
1.0617614
  0
LINE
  5
233
100
AcDbEntity
  8
0
100
AcDbLine
 62
7
  6
CONTINUOUS
 10
21.0702539817
 20
1.2701043662
 11
21.069121683
 21
1.0617614
  0
LINE
  5
234
100
AcDbEntity
  8
0
100
AcDbLine
 62
7
  6
CONTINUOUS
 10
21.4790138229
 20
1.1693297793
 11
21.3159628059
 21
1.1693297793
  0
LINE
  5
235
100
AcDbEntity
  8
0
100
AcDbLine
 62
7
  6
CONTINUOUS
 10
21.2876553377
 20
1.1693297793
 11
21.2502894796
 21
1.1693297793
  0
LINE
  5
236
100
AcDbEntity
  8
0
100
AcDbLine
 62
7
  6
CONTINUOUS
 10
21.2208497126
 20
1.1659328831
 11
21.0713862804
 21
1.1659328831
  0
LINE
  5
237
100
AcDbEntity
  8
0
100
AcDbLine
 62
7
  6
CONTINUOUS
 10
20.4796138713
 20
1.5284908897
 11
20.4766766948
 21
0.9294458646
  0
ENDBLK
  5
238
100
AcDbEntity
  8
0
  6
BYBLOCK
 62
0
100
AcDbBlockEnd
  0
BLOCK
  5
239
100
AcDbEntity
  8
0
100
AcDbBlockBegin
  2
*T1
 70
1
 10
0.0
 20
0.0
  3
*T1
  1

  0
LINE
  5
23A
100
AcDbEntity
  8
0
100
AcDbLine
 62
2
  6
CONTINUOUS
 10
9.275
 20
0.0
 11
-0.0
 21
0.0
  0
LINE
  5
23B
100
AcDbEntity
  8
0
100
AcDbLine
 62
2
  6
CONTINUOUS
 10
9.275
 20
0.0
 11
9.275
 21
1.25
  0
LINE
  5
23C
100
AcDbEntity
  8
0
100
AcDbLine
 62
2
  6
CONTINUOUS
 10
9.275
 20
0.625
 11
-0.0
 21
0.625
  0
LINE
  5
23D
100
AcDbEntity
  8
0
100
AcDbLine
 62
2
  6
CONTINUOUS
 10
9.275
 20
1.25
 11
-0.0
 21
1.25
  0
LINE
  5
23E
100
AcDbEntity
  8
0
100
AcDbLine
 62
2
  6
CONTINUOUS
 10
6.8
 20
0.0
 11
6.8
 21
1.25
  0
LINE
  5
23F
100
AcDbEntity
  8
0
100
AcDbLine
 62
2
  6
CONTINUOUS
 10
6.4
 20
0.0
 11
6.4
 21
0.625
  0
LINE
  5
240
100
AcDbEntity
  8
0
100
AcDbLine
 62
2
  6
CONTINUOUS
 10
5.9
 20
0.0
 11
5.9
 21
0.625
  0
LINE
  5
241
100
AcDbEntity
  8
0
100
AcDbLine
 62
2
  6
CONTINUOUS
 10
5.2
 20
0.0
 11
5.2
 21
0.625
  0
LINE
  5
242
100
AcDbEntity
  8
0
100
AcDbLine
 62
2
  6
CONTINUOUS
 10
4.1
 20
0.0
 11
4.1
 21
1.25
  0
LINE
  5
243
100
AcDbEntity
  8
0
100
AcDbLine
 62
2
  6
CONTINUOUS
 10
-0.0
 20
0.0
 11
-0.0
 21
1.25
  0
MTEXT
  5
244
100
AcDbEntity
  8
0
100
AcDbMText
 62
2
  6
CONTINUOUS
  7
STANDARD
 71
2
 72
1
 10
6.6
 20
0.325
 30
0.0
 11
1.0
 21
0.0
 31
0.0
 44
0.9
  1
2
 40
0.125
 41
0.2
  0
MTEXT
  5
245
100
AcDbEntity
  8
0
100
AcDbMText
 62
2
  6
CONTINUOUS
  7
STANDARD
 71
2
 72
1
 10
6.15
 20
0.325
 30
0.0
 11
1.0
 21
0.0
 31
0.0
 44
0.9
  1
C
 40
0.125
 41
0.2
  0
MTEXT
  5
246
100
AcDbEntity
  8
0
100
AcDbMText
 62
2
  6
CONTINUOUS
  7
STANDARD
 71
2
 72
1
 10
5.55
 20
0.325
 30
0.0
 11
1.0
 21
0.0
 31
0.0
 44
0.9
  1
1.000
 40
0.125
 41
1.0
  0
MTEXT
  5
247
100
AcDbEntity
  8
0
100
AcDbMText
 62
2
  6
CONTINUOUS
  7
STANDARD
 71
2
 72
1
 10
4.65
 20
0.325
 30
0.0
 11
1.0
 21
0.0
 31
0.0
 44
0.9
  1
Feb-06-24
 40
0.125
 41
1.8
  0
MTEXT
  5
248
100
AcDbEntity
  8
0
100
AcDbMText
 62
2
  6
CONTINUOUS
  7
STANDARD
 71
2
 72
1
 10
2.05
 20
0.4625
 30
0.0
 11
1.0
 21
0.0
 31
0.0
 44
0.9
  1
Relief manifold assembly
 40
0.125
 41
4.8
  0
MTEXT
  5
249
100
AcDbEntity
  8
0
100
AcDbMText
 62
2
  6
CONTINUOUS
  7
STANDARD
 71
1
 72
1
 10
6.45
 20
0.5625
 30
0.0
 11
1.0
 21
0.0
 31
0.0
 44
0.9
  1
SHEET
 40
0.06
 41
0.48
  0
MTEXT
  5
24A
100
AcDbEntity
  8
0
100
AcDbMText
 62
2
  6
CONTINUOUS
  7
STANDARD
 71
1
 72
1
 10
5.95
 20
0.5625
 30
0.0
 11
1.0
 21
0.0
 31
0.0
 44
0.9
  1
DWG SIZE
 40
0.06
 41
0.768
  0
MTEXT
  5
24B
100
AcDbEntity
  8
0
100
AcDbMText
 62
2
  6
CONTINUOUS
  7
STANDARD
 71
1
 72
1
 10
5.25
 20
0.5625
 30
0.0
 11
1.0
 21
0.0
 31
0.0
 44
0.9
  1
SCALE
 40
0.06
 41
0.48
  0
MTEXT
  5
24C
100
AcDbEntity
  8
0
100
AcDbMText
 62
2
  6
CONTINUOUS
  7
STANDARD
 71
1
 72
1
 10
4.15
 20
0.5625
 30
0.0
 11
1.0
 21
0.0
 31
0.0
 44
0.9
  1
DATE
 40
0.06
 41
0.384
  0
MTEXT
  5
24D
100
AcDbEntity
  8
0
100
AcDbMText
 62
2
  6
CONTINUOUS
  7
STANDARD
 71
1
 72
1
 10
0.05
 20
0.5625
 30
0.0
 11
1.0
 21
0.0
 31
0.0
 44
0.9
  1
DESCRIPTION
 40
0.06
 41
1.056
  0
MTEXT
  5
24E
100
AcDbEntity
  8
0
100
AcDbMText
 62
2
  6
CONTINUOUS
  7
STANDARD
 71
2
 72
1
 10
5.45
 20
1.0375
 30
0.0
 11
1.0
 21
0.0
 31
0.0
 44
0.9
  1
ALL DIMENSIONS IN INCH\PVIEWS ARE THIRD ANGLE
 40
0.12
 41
4.224
  0
MTEXT
  5
24F
100
AcDbEntity
  8
0
100
AcDbMText
 62
2
  6
CONTINUOUS
  7
STANDARD
 71
2
 72
1
 10
2.05
 20
0.95
 30
0.0
 11
1.0
 21
0.0
 31
0.0
 44
0.9
  1
RVGALAN-CKQ/M
 40
0.125
 41
2.6
  0
MTEXT
  5
250
100
AcDbEntity
  8
0
100
AcDbMText
 62
2
  6
CONTINUOUS
  7
STANDARD
 71
1
 72
1
 10
0.05
 20
1.1875
 30
0.0
 11
1.0
 21
0.0
 31
0.0
 44
0.9
  1
MODEL
 40
0.06
 41
0.48
  0
ENDBLK
  5
251
100
AcDbEntity
  8
0
  6
BYBLOCK
 62
0
100
AcDbBlockEnd
  0
BLOCK
  5
252
100
AcDbEntity
  8
0
100
AcDbBlockBegin
  2
*T2
 70
1
 10
0.0
 20
0.0
  3
*T2
  1

  0
LINE
  5
253
100
AcDbEntity
  8
0
100
AcDbLine
 62
2
  6
CONTINUOUS
 10
0.0
 20
0.0
 11
9.055
 21
0.0
  0
LINE
  5
254
100
AcDbEntity
  8
0
100
AcDbLine
 62
2
  6
CONTINUOUS
 10
0.0
 20
0.0
 11
0.0
 21
-2.344
  0
LINE
  5
255
100
AcDbEntity
  8
0
100
AcDbLine
 62
2
  6
CONTINUOUS
 10
0.0
 20
-0.344
 11
9.055
 21
-0.344
  0
LINE
  5
256
100
AcDbEntity
  8
0
100
AcDbLine
 62
2
  6
CONTINUOUS
 10
0.0
 20
-0.594
 11
9.055
 21
-0.594
  0
LINE
  5
257
100
AcDbEntity
  8
0
100
AcDbLine
 62
2
  6
CONTINUOUS
 10
0.0
 20
-0.844
 11
9.055
 21
-0.844
  0
LINE
  5
258
100
AcDbEntity
  8
0
100
AcDbLine
 62
2
  6
CONTINUOUS
 10
0.0
 20
-1.094
 11
9.055
 21
-1.094
  0
LINE
  5
259
100
AcDbEntity
  8
0
100
AcDbLine
 62
2
  6
CONTINUOUS
 10
0.0
 20
-1.344
 11
9.055
 21
-1.344
  0
LINE
  5
25A
100
AcDbEntity
  8
0
100
AcDbLine
 62
2
  6
CONTINUOUS
 10
0.0
 20
-1.594
 11
9.055
 21
-1.594
  0
LINE
  5
25B
100
AcDbEntity
  8
0
100
AcDbLine
 62
2
  6
CONTINUOUS
 10
0.0
 20
-1.844
 11
9.055
 21
-1.844
  0
LINE
  5
25C
100
AcDbEntity
  8
0
100
AcDbLine
 62
2
  6
CONTINUOUS
 10
0.0
 20
-2.094
 11
9.055
 21
-2.094
  0
LINE
  5
25D
100
AcDbEntity
  8
0
100
AcDbLine
 62
2
  6
CONTINUOUS
 10
0.0
 20
-2.344
 11
9.055
 21
-2.344
  0
LINE
  5
25E
100
AcDbEntity
  8
0
100
AcDbLine
 62
2
  6
CONTINUOUS
 10
3.055
 20
0.0
 11
3.055
 21
-2.344
  0
LINE
  5
25F
100
AcDbEntity
  8
0
100
AcDbLine
 62
2
  6
CONTINUOUS
 10
9.055
 20
0.0
 11
9.055
 21
-2.344
  0
MTEXT
  5
260
100
AcDbEntity
  8
0
100
AcDbMText
 62
2
  6
CONTINUOUS
  7
STANDARD
 71
2
 72
1
 10
1.5275
 20
-0.0995
 30
0.0
 11
1.0
 21
0.0
 31
0.0
 44
0.9
  1
Technical Data
 40
0.145
 41
3.248
  0
MTEXT
  5
261
100
AcDbEntity
  8
0
100
AcDbMText
 62
2
  6
CONTINUOUS
  7
STANDARD
 71
2
 72
1
 10
4.555
 20
-0.0995
 30
0.0
 11
1.0
 21
0.0
 31
0.0
 44
0.9
  1
U.S. Units
 40
0.145
 41
2.32
  0
MTEXT
  5
262
100
AcDbEntity
  8
0
100
AcDbMText
 62
2
  6
CONTINUOUS
  7
STANDARD
 71
2
 72
1
 10
7.555
 20
-0.0995
 30
0.0
 11
1.0
 21
0.0
 31
0.0
 44
0.9
  1
Metric Units
 40
0.145
 41
2.784
  0
MTEXT
  5
263
100
AcDbEntity
  8
0
100
AcDbMText
 62
2
  6
CONTINUOUS
  7
STANDARD
 71
2
 72
1
 10
1.5275
 20
-0.4065
 30
0.0
 11
1.0
 21
0.0
 31
0.0
 44
0.9
  1
Cavity
 40
0.125
 41
1.2
  0
MTEXT
  5
264
100
AcDbEntity
  8
0
100
AcDbMText
 62
2
  6
CONTINUOUS
  7
STANDARD
 71
2
 72
1
 10
6.055
 20
-0.4065
 30
0.0
 11
1.0
 21
0.0
 31
0.0
 44
0.9
  1
T-17A
 40
0.125
 41
1.0
  0
MTEXT
  5
265
100
AcDbEntity
  8
0
100
AcDbMText
 62
2
  6
CONTINUOUS
  7
STANDARD
 71
2
 72
1
 10
1.5275
 20
-0.6565
 30
0.0
 11
1.0
 21
0.0
 31
0.0
 44
0.9
  1
Body Features
 40
0.125
 41
2.6
  0
MTEXT
  5
266
100
AcDbEntity
  8
0
100
AcDbMText
 62
2
  6
CONTINUOUS
  7
STANDARD
 71
2
 72
1
 10
6.055
 20
-0.6565
 30
0.0
 11
1.0
 21
0.0
 31
0.0
 44
0.9
  1
P to T, port 3 external
 40
0.125
 41
4.6
  0
MTEXT
  5
267
100
AcDbEntity
  8
0
100
AcDbMText
 62
2
  6
CONTINUOUS
  7
STANDARD
 71
2
 72
1
 10
1.5275
 20
-0.9065
 30
0.0
 11
1.0
 21
0.0
 31
0.0
 44
0.9
  1
Body Type
 40
0.125
 41
1.8
  0
MTEXT
  5
268
100
AcDbEntity
  8
0
100
AcDbMText
 62
2
  6
CONTINUOUS
  7
STANDARD
 71
2
 72
1
 10
6.055
 20
-0.9065
 30
0.0
 11
1.0
 21
0.0
 31
0.0
 44
0.9
  1
Sandwich
 40
0.125
 41
1.6
  0
MTEXT
  5
269
100
AcDbEntity
  8
0
100
AcDbMText
 62
2
  6
CONTINUOUS
  7
STANDARD
 71
2
 72
1
 10
1.5275
 20
-1.1565
 30
0.0
 11
1.0
 21
0.0
 31
0.0
 44
0.9
  1
Interface
 40
0.125
 41
1.8
  0
MTEXT
  5
26A
100
AcDbEntity
  8
0
100
AcDbMText
 62
2
  6
CONTINUOUS
  7
STANDARD
 71
2
 72
1
 10
6.055
 20
-1.1565
 30
0.0
 11
1.0
 21
0.0
 31
0.0
 44
0.9
  1
ISO 07
 40
0.125
 41
1.2
  0
MTEXT
  5
26B
100
AcDbEntity
  8
0
100
AcDbMText
 62
2
  6
CONTINUOUS
  7
STANDARD
 71
2
 72
1
 10
1.5275
 20
-1.4065
 30
0.0
 11
1.0
 21
0.0
 31
0.0
 44
0.9
  1
Open Cavity Quantity
 40
0.125
 41
4.0
  0
MTEXT
  5
26C
100
AcDbEntity
  8
0
100
AcDbMText
 62
2
  6
CONTINUOUS
  7
STANDARD
 71
2
 72
1
 10
6.055
 20
-1.4065
 30
0.0
 11
1.0
 21
0.0
 31
0.0
 44
0.9
  1
1
 40
0.125
 41
0.2
  0
MTEXT
  5
26D
100
AcDbEntity
  8
0
100
AcDbMText
 62
2
  6
CONTINUOUS
  7
STANDARD
 71
2
 72
1
 10
1.5275
 20
-1.6565
 30
0.0
 11
1.0
 21
0.0
 31
0.0
 44
0.9
  1
Stack Height
 40
0.125
 41
2.4
  0
MTEXT
  5
26E
100
AcDbEntity
  8
0
100
AcDbMText
 62
2
  6
CONTINUOUS
  7
STANDARD
 71
2
 72
1
 10
4.555
 20
-1.6565
 30
0.0
 11
1.0
 21
0.0
 31
0.0
 44
0.9
  1
2.74 in.
 40
0.125
 41
1.6
  0
MTEXT
  5
26F
100
AcDbEntity
  8
0
100
AcDbMText
 62
2
  6
CONTINUOUS
  7
STANDARD
 71
2
 72
1
 10
7.555
 20
-1.6565
 30
0.0
 11
1.0
 21
0.0
 31
0.0
 44
0.9
  1
70 mm
 40
0.125
 41
1.0
  0
MTEXT
  5
270
100
AcDbEntity
  8
0
100
AcDbMText
 62
2
  6
CONTINUOUS
  7
STANDARD
 71
2
 72
1
 10
1.5275
 20
-1.9065
 30
0.0
 11
1.0
 21
0.0
 31
0.0
 44
0.9
  1
Weight
 40
0.125
 41
1.2
  0
MTEXT
  5
271
100
AcDbEntity
  8
0
100
AcDbMText
 62
2
  6
CONTINUOUS
  7
STANDARD
 71
2
 72
1
 10
4.555
 20
-1.9065
 30
0.0
 11
1.0
 21
0.0
 31
0.0
 44
0.9
  1
5.605 lb.
 40
0.125
 41
1.8
  0
MTEXT
  5
272
100
AcDbEntity
  8
0
100
AcDbMText
 62
2
  6
CONTINUOUS
  7
STANDARD
 71
2
 72
1
 10
7.555
 20
-1.9065
 30
0.0
 11
1.0
 21
0.0
 31
0.0
 44
0.9
  1
2,543 kg.
 40
0.125
 41
1.8
  0
MTEXT
  5
273
100
AcDbEntity
  8
0
100
AcDbMText
 62
2
  6
CONTINUOUS
  7
STANDARD
 71
2
 72
1
 10
1.5275
 20
-2.1565
 30
0.0
 11
1.0
 21
0.0
 31
0.0
 44
0.9
  1
Seal Plate Included (see notes)
 40
0.125
 41
6.2
  0
MTEXT
  5
274
100
AcDbEntity
  8
0
100
AcDbMText
 62
2
  6
CONTINUOUS
  7
STANDARD
 71
2
 72
1
 10
6.055
 20
-2.1565
 30
0.0
 11
1.0
 21
0.0
 31
0.0
 44
0.9
  1
Yes
 40
0.125
 41
0.6
  0
ENDBLK
  5
275
100
AcDbEntity
  8
0
  6
BYBLOCK
 62
0
100
AcDbBlockEnd
  0
BLOCK
  5
276
100
AcDbEntity
  8
0
100
AcDbBlockBegin
  2
*T3
 70
1
 10
0.0
 20
0.0
  3
*T3
  1

  0
LINE
  5
277
100
AcDbEntity
  8
0
100
AcDbLine
 62
2
  6
CONTINUOUS
 10
0.0
 20
0.0
 11
4.6
 21
0.0
  0
LINE
  5
278
100
AcDbEntity
  8
0
100
AcDbLine
 62
2
  6
CONTINUOUS
 10
0.0
 20
0.0
 11
0.0
 21
-1.18775
  0
LINE
  5
279
100
AcDbEntity
  8
0
100
AcDbLine
 62
2
  6
CONTINUOUS
 10
0.0
 20
-0.34375
 11
4.6
 21
-0.34375
  0
LINE
  5
27A
100
AcDbEntity
  8
0
100
AcDbLine
 62
2
  6
CONTINUOUS
 10
0.0
 20
-0.68775
 11
4.6
 21
-0.68775
  0
LINE
  5
27B
100
AcDbEntity
  8
0
100
AcDbLine
 62
2
  6
CONTINUOUS
 10
0.0
 20
-0.93775
 11
4.6
 21
-0.93775
  0
LINE
  5
27C
100
AcDbEntity
  8
0
100
AcDbLine
 62
2
  6
CONTINUOUS
 10
0.0
 20
-1.18775
 11
4.6
 21
-1.18775
  0
LINE
  5
27D
100
AcDbEntity
  8
0
100
AcDbLine
 62
2
  6
CONTINUOUS
 10
1.3
 20
-0.34375
 11
1.3
 21
-1.18775
  0
LINE
  5
27E
100
AcDbEntity
  8
0
100
AcDbLine
 62
2
  6
CONTINUOUS
 10
3.3
 20
-0.34375
 11
3.3
 21
-1.18775
  0
LINE
  5
27F
100
AcDbEntity
  8
0
100
AcDbLine
 62
2
  6
CONTINUOUS
 10
4.6
 20
0.0
 11
4.6
 21
-1.18775
  0
MTEXT
  5
280
100
AcDbEntity
  8
0
100
AcDbMText
 62
2
  6
CONTINUOUS
  7
STANDARD
 71
2
 72
1
 10
2.3
 20
-0.099375
 30
0.0
 11
1.0
 21
0.0
 31
0.0
 44
0.9
  1
Port Headings
 40
0.145
 41
3.016
  0
MTEXT
  5
281
100
AcDbEntity
  8
0
100
AcDbMText
 62
2
  6
CONTINUOUS
  7
STANDARD
 71
2
 72
1
 10
0.65
 20
-0.44325
 30
0.0
 11
1.0
 21
0.0
 31
0.0
 44
0.9
  1
Product
 40
0.145
 41
1.624
  0
MTEXT
  5
282
100
AcDbEntity
  8
0
100
AcDbMText
 62
2
  6
CONTINUOUS
  7
STANDARD
 71
2
 72
1
 10
2.3
 20
-0.44325
 30
0.0
 11
1.0
 21
0.0
 31
0.0
 44
0.9
  1
Port
 40
0.145
 41
0.928
  0
MTEXT
  5
283
100
AcDbEntity
  8
0
100
AcDbMText
 62
2
  6
CONTINUOUS
  7
STANDARD
 71
2
 72
1
 10
3.95
 20
-0.44325
 30
0.0
 11
1.0
 21
0.0
 31
0.0
 44
0.9
  1
Size
 40
0.145
 41
0.928
  0
MTEXT
  5
284
100
AcDbEntity
  8
0
100
AcDbMText
 62
2
  6
CONTINUOUS
  7
STANDARD
 71
2
 72
1
 10
0.65
 20
-0.75025
 30
0.0
 11
1.0
 21
0.0
 31
0.0
 44
0.9
  1
CKQ/M
 40
0.125
 41
1.0
  0
MTEXT
  5
285
100
AcDbEntity
  8
0
100
AcDbMText
 62
2
  6
CONTINUOUS
  7
STANDARD
 71
2
 72
1
 10
2.3
 20
-0.75025
 30
0.0
 11
1.0
 21
0.0
 31
0.0
 44
0.9
  1
Gage Port (Plugged)
 40
0.125
 41
3.8
  0
MTEXT
  5
286
100
AcDbEntity
  8
0
100
AcDbMText
 62
2
  6
CONTINUOUS
  7
STANDARD
 71
2
 72
1
 10
3.95
 20
-0.75025
 30
0.0
 11
1.0
 21
0.0
 31
0.0
 44
0.9
  1
1/4" BSPP
 40
0.125
 41
1.8
  0
MTEXT
  5
287
100
AcDbEntity
  8
0
100
AcDbMText
 62
2
  6
CONTINUOUS
  7
STANDARD
 71
2
 72
1
 10
0.65
 20
-1.00025
 30
0.0
 11
1.0
 21
0.0
 31
0.0
 44
0.9
  1
CKQ/M
 40
0.125
 41
1.0
  0
MTEXT
  5
288
100
AcDbEntity
  8
0
100
AcDbMText
 62
2
  6
CONTINUOUS
  7
STANDARD
 71
2
 72
1
 10
2.3
 20
-1.00025
 30
0.0
 11
1.0
 21
0.0
 31
0.0
 44
0.9
  1
Vent Port
 40
0.125
 41
1.8
  0
MTEXT
  5
289
100
AcDbEntity
  8
0
100
AcDbMText
 62
2
  6
CONTINUOUS
  7
STANDARD
 71
2
 72
1
 10
3.95
 20
-1.00025
 30
0.0
 11
1.0
 21
0.0
 31
0.0
 44
0.9
  1
1/4" BSPP
 40
0.125
 41
1.8
  0
ENDBLK
  5
28A
100
AcDbEntity
  8
0
  6
BYBLOCK
 62
0
100
AcDbBlockEnd
  0
ENDSEC
  0
SECTION
  2
ENTITIES
  0
IMAGE
  5
28B
100
AcDbEntity
  8
0
100
AcDbRasterImage
 62
7
  6
CONTINUOUS
 10
19.2297077316
 20
0.3094318264
 30
0.0
 11
0.0066666667
 21
0.0
 31
0.0
 12
0.0
 22
0.0066666667
 32
0.0
 13
369.0
 23
92.0
340
       367
 70
9
280
0
281
50
282
50
283
0
360
       361
 71
1
 91
2
 14
-0.5
 24
-0.5
 14
368.5
 24
91.5
  0
INSERT
  5
28C
100
AcDbEntity
  8
0
100
AcDbBlockReference
 62
2
  6
CONTINUOUS
  2
SUN_FIRST_THIRD_ANGLE_BL0
 10
20.4816717061
 20
1.2289683772
  0
ACAD_TABLE
  5
28D
100
AcDbEntity
  8
0
 62
2
  6
CONTINUOUS
100
AcDbBlockReference
  2
*T1
 10
12.42375
 20
0.30125
 30
0.0
100
AcDbTable
342
       369
343
212
 11
1.0
 21
0.0
 31
0.0
 90
6
 91
4
 92
6
 93
20
 94
0
 95
0
 96
0
 70
1
 41
0.0
141
0.525
141
0.1
141
0.525
141
0.1
142
4.1
142
1.1
142
0.7
142
0.5
142
0.4
142
2.475
171
1
172
0
173
0
174
0
175
1
176
1
 91
33
178
0
145
0.0
301
CELL_VALUE
 90
4
  1
Relief manifold assembly
304
ACVALUE_END
170
2
140
0.125
171
1
172
0
173
0
174
0
175
1
176
1
 91
33
178
0
145
0.0
301
CELL_VALUE
 90
4
  1
Feb-06-24
304
ACVALUE_END
170
5
140
0.125
171
1
172
0
173
0
174
0
175
1
176
1
 91
33
178
0
145
0.0
301
CELL_VALUE
 90
4
  1
1.000
304
ACVALUE_END
170
5
140
0.125
171
1
172
0
173
0
174
0
175
1
176
1
 91
33
178
0
145
0.0
301
CELL_VALUE
 90
4
  1
C
304
ACVALUE_END
170
5
140
0.125
171
1
172
0
173
0
174
0
175
1
176
1
 91
33
178
0
145
0.0
301
CELL_VALUE
 90
4
  1
2
304
ACVALUE_END
170
5
140
0.125
171
1
172
0
173
0
174
0
175
1
176
1
 91
33
178
0
145
0.0
301
CELL_VALUE
 90
4
  1
 
304
ACVALUE_END
170
1
140
0.125
171
1
172
0
173
0
174
0
175
1
176
1
 91
33
178
0
145
0.0
301
CELL_VALUE
 90
4
  1
DESCRIPTION
304
ACVALUE_END
170
1
140
0.06
171
1
172
0
173
0
174
0
175
1
176
1
 91
33
178
0
145
0.0
301
CELL_VALUE
 90
4
  1
DATE
304
ACVALUE_END
170
1
140
0.06
171
1
172
0
173
0
174
0
175
1
176
1
 91
33
178
0
145
0.0
301
CELL_VALUE
 90
4
  1
SCALE
304
ACVALUE_END
170
1
140
0.06
171
1
172
0
173
0
174
0
175
1
176
1
 91
33
178
0
145
0.0
301
CELL_VALUE
 90
4
  1
DWG SIZE
304
ACVALUE_END
170
1
140
0.06
171
1
172
0
173
0
174
0
175
1
176
1
 91
33
178
0
145
0.0
301
CELL_VALUE
 90
4
  1
SHEET
304
ACVALUE_END
170
1
140
0.06
171
1
172
0
173
0
174
0
175
1
176
1
 91
33
178
0
145
0.0
301
CELL_VALUE
 90
4
  1
 
304
ACVALUE_END
170
1
140
0.125
171
1
172
0
173
0
174
0
175
1
176
1
 91
33
178
0
145
0.0
301
CELL_VALUE
 90
4
  1
RVGALAN-CKQ/M
304
ACVALUE_END
170
5
140
0.125
171
1
172
0
173
0
174
0
175
4
176
1
 91
33
178
0
145
0.0
301
CELL_VALUE
 90
4
  1
ALL DIMENSIONS IN INCH\PVIEWS ARE THIRD ANGLE
304
ACVALUE_END
170
5
140
0.12
171
1
172
0
173
1
174
0
175
1
176
1
 91
1
178
0
145
0.0
170
1
171
1
172
0
173
1
174
0
175
1
176
1
 91
1
178
0
145
0.0
170
1
171
1
172
0
173
1
174
0
175
1
176
1
 91
1
178
0
145
0.0
170
5
171
1
172
0
173
0
174
0
175
1
176
1
 91
33
178
0
145
0.0
301
CELL_VALUE
 90
4
  1
 
304
ACVALUE_END
170
1
140
0.125
171
1
172
0
173
0
174
0
175
1
176
1
 91
33
178
0
145
0.0
301
CELL_VALUE
 90
4
  1
MODEL
304
ACVALUE_END
170
1
140
0.06
171
1
172
0
173
0
174
0
175
1
176
1
 91
33
178
0
145
0.0
301
CELL_VALUE
 90
4
  1
 
304
ACVALUE_END
170
1
140
0.125
171
1
172
0
173
0
174
0
175
1
176
1
 91
33
178
0
145
0.0
301
CELL_VALUE
 90
4
  1
 
304
ACVALUE_END
170
1
140
0.125
171
1
172
0
173
0
174
0
175
1
176
1
 91
33
178
0
145
0.0
301
CELL_VALUE
 90
4
  1
 
304
ACVALUE_END
170
1
140
0.125
171
1
172
0
173
0
174
0
175
1
176
1
 91
33
178
0
145
0.0
301
CELL_VALUE
 90
4
  1
 
304
ACVALUE_END
170
1
140
0.125
171
1
172
0
173
0
174
0
175
1
176
1
 91
33
178
0
145
0.0
301
CELL_VALUE
 90
4
  1
 
304
ACVALUE_END
170
1
140
0.125
  0
ACAD_TABLE
  5
28E
100
AcDbEntity
  8
0
 62
2
  6
CONTINUOUS
100
AcDbBlockReference
  2
*T2
 10
12.4237499994
 20
16.47875
 30
0.0
100
AcDbTable
342
       368
343
213
 11
1.0
 21
0.0
 31
0.0
 90
22
 91
9
 92
3
 93
16
 94
0
 95
0
 96
0
 41
0.028
141
0.344
141
0.25
141
0.25
141
0.25
141
0.25
141
0.25
141
0.25
141
0.25
141
0.25
142
3.055
142
3.0
142
3.0
171
1
172
0
173
0
174
0
175
1
176
1
 91
33
178
0
145
0.0
301
CELL_VALUE
 90
4
  1
Technical Data
304
ACVALUE_END
170
5
140
0.145
171
1
172
0
173
0
174
0
175
1
176
1
 91
33
178
0
145
0.0
301
CELL_VALUE
 90
4
  1
U.S. Units
304
ACVALUE_END
170
5
140
0.145
171
1
172
0
173
0
174
0
175
1
176
1
 91
33
178
0
145
0.0
301
CELL_VALUE
 90
4
  1
Metric Units
304
ACVALUE_END
170
5
140
0.145
171
1
172
0
173
0
174
0
175
1
176
1
 91
33
178
0
145
0.0
301
CELL_VALUE
 90
4
  1
Cavity
304
ACVALUE_END
170
5
140
0.125
171
1
172
0
173
0
174
0
175
2
176
1
 91
33
178
0
145
0.0
301
CELL_VALUE
 90
4
  1
T-17A
304
ACVALUE_END
170
5
140
0.125
171
1
172
0
173
1
174
0
175
1
176
1
 91
1
178
0
145
0.0
170
1
171
1
172
0
173
0
174
0
175
1
176
1
 91
33
178
0
145
0.0
301
CELL_VALUE
 90
4
  1
Body Features
304
ACVALUE_END
170
5
140
0.125
171
1
172
0
173
0
174
0
175
2
176
1
 91
33
178
0
145
0.0
301
CELL_VALUE
 90
4
  1
P to T, port 3 external
304
ACVALUE_END
170
5
140
0.125
171
1
172
0
173
1
174
0
175
1
176
1
 91
1
178
0
145
0.0
170
1
171
1
172
0
173
0
174
0
175
1
176
1
 91
33
178
0
145
0.0
301
CELL_VALUE
 90
4
  1
Body Type
304
ACVALUE_END
170
5
140
0.125
171
1
172
0
173
0
174
0
175
2
176
1
 91
33
178
0
145
0.0
301
CELL_VALUE
 90
4
  1
Sandwich
304
ACVALUE_END
170
5
140
0.125
171
1
172
0
173
1
174
0
175
1
176
1
 91
1
178
0
145
0.0
170
1
171
1
172
0
173
0
174
0
175
1
176
1
 91
33
178
0
145
0.0
301
CELL_VALUE
 90
4
  1
Interface
304
ACVALUE_END
170
5
140
0.125
171
1
172
0
173
0
174
0
175
2
176
1
 91
33
178
0
145
0.0
301
CELL_VALUE
 90
4
  1
ISO 07
304
ACVALUE_END
170
5
140
0.125
171
1
172
0
173
1
174
0
175
1
176
1
 91
1
178
0
145
0.0
170
1
171
1
172
0
173
0
174
0
175
1
176
1
 91
33
178
0
145
0.0
301
CELL_VALUE
 90
4
  1
Open Cavity Quantity
304
ACVALUE_END
170
5
140
0.125
171
1
172
0
173
0
174
0
175
2
176
1
 91
33
178
0
145
0.0
301
CELL_VALUE
 90
4
  1
1
304
ACVALUE_END
170
5
140
0.125
171
1
172
0
173
1
174
0
175
1
176
1
 91
1
178
0
145
0.0
170
1
171
1
172
0
173
0
174
0
175
1
176
1
 91
33
178
0
145
0.0
301
CELL_VALUE
 90
4
  1
Stack Height
304
ACVALUE_END
170
5
140
0.125
171
1
172
0
173
0
174
0
175
1
176
1
 91
33
178
0
145
0.0
301
CELL_VALUE
 90
4
  1
2.74 in.
304
ACVALUE_END
170
5
140
0.125
171
1
172
0
173
0
174
0
175
1
176
1
 91
33
178
0
145
0.0
301
CELL_VALUE
 90
4
  1
70 mm
304
ACVALUE_END
170
5
140
0.125
171
1
172
0
173
0
174
0
175
1
176
1
 91
33
178
0
145
0.0
301
CELL_VALUE
 90
4
  1
Weight
304
ACVALUE_END
170
5
140
0.125
171
1
172
0
173
0
174
0
175
1
176
1
 91
33
178
0
145
0.0
301
CELL_VALUE
 90
4
  1
5.605 lb.
304
ACVALUE_END
170
5
140
0.125
171
1
172
0
173
0
174
0
175
1
176
1
 91
33
178
0
145
0.0
301
CELL_VALUE
 90
4
  1
2,543 kg.
304
ACVALUE_END
170
5
140
0.125
171
1
172
0
173
0
174
0
175
1
176
1
 91
33
178
0
145
0.0
301
CELL_VALUE
 90
4
  1
Seal Plate Included (see notes)
304
ACVALUE_END
170
5
140
0.125
171
1
172
0
173
0
174
0
175
2
176
1
 91
33
178
0
145
0.0
301
CELL_VALUE
 90
4
  1
Yes
304
ACVALUE_END
170
5
140
0.125
171
1
172
0
173
1
174
0
175
1
176
1
 91
1
178
0
145
0.0
170
1
  0
ACAD_TABLE
  5
28F
100
AcDbEntity
  8
0
 62
2
  6
CONTINUOUS
100
AcDbBlockReference
  2
*T3
 10
0.52125
 20
1.709
 30
0.0
100
AcDbTable
342
       368
343
214
 11
1.0
 21
0.0
 31
0.0
 90
22
 91
4
 92
3
 93
16
 94
0
 95
0
 96
0
 41
0.05
141
0.34375
141
0.344
141
0.25
141
0.25
142
1.3
142
2.0
142
1.3
171
1
172
0
173
0
174
0
175
3
176
1
 91
33
178
0
145
0.0
301
CELL_VALUE
 90
4
  1
Port Headings
304
ACVALUE_END
170
5
140
0.145
171
1
172
0
173
1
174
0
175
1
176
1
 91
1
178
0
145
0.0
170
1
171
1
172
0
173
1
174
0
175
1
176
1
 91
1
178
0
145
0.0
170
1
171
1
172
0
173
0
174
0
175
1
176
1
 91
33
178
0
145
0.0
301
CELL_VALUE
 90
4
  1
Product
304
ACVALUE_END
170
5
140
0.145
171
1
172
0
173
0
174
0
175
1
176
1
 91
33
178
0
145
0.0
301
CELL_VALUE
 90
4
  1
Port
304
ACVALUE_END
170
5
140
0.145
171
1
172
0
173
0
174
0
175
1
176
1
 91
33
178
0
145
0.0
301
CELL_VALUE
 90
4
  1
Size
304
ACVALUE_END
170
5
140
0.145
171
1
172
0
173
0
174
0
175
1
176
1
 91
33
178
0
145
0.0
301
CELL_VALUE
 90
4
  1
CKQ/M
304
ACVALUE_END
170
5
140
0.125
171
1
172
0
173
0
174
0
175
1
176
1
 91
33
178
0
145
0.0
301
CELL_VALUE
 90
4
  1
Gage Port (Plugged)
304
ACVALUE_END
170
5
140
0.125
171
1
172
0
173
0
174
0
175
1
176
1
 91
33
178
0
145
0.0
301
CELL_VALUE
 90
4
  1
1/4" BSPP
304
ACVALUE_END
170
5
140
0.125
171
1
172
0
173
0
174
0
175
1
176
1
 91
33
178
0
145
0.0
301
CELL_VALUE
 90
4
  1
CKQ/M
304
ACVALUE_END
170
5
140
0.125
171
1
172
0
173
0
174
0
175
1
176
1
 91
33
178
0
145
0.0
301
CELL_VALUE
 90
4
  1
Vent Port
304
ACVALUE_END
170
5
140
0.125
171
1
172
0
173
0
174
0
175
1
176
1
 91
33
178
0
145
0.0
301
CELL_VALUE
 90
4
  1
1/4" BSPP
304
ACVALUE_END
170
5
140
0.125
  0
MTEXT
  5
290
100
AcDbEntity
  8
0
100
AcDbMText
 62
2
  6
CONTINUOUS
  7
STANDARD
 71
1
 72
1
 10
0.52125
 20
5.75995
 30
0.0
 11
1.0
 21
0.0
 31
0.0
 44
0.6
  3
Notes\P \P1. Stack height value in technical\P   data table includes seal retainer\P   plate.\P2. Important: Carefully consider\P   the maximum system pressure. The\P   pressure rating of the manifold is\P   dependent on the manifold material,\P   wi
  3
th the port type/size a secondary\P   consideration. Manifolds\P   constructed of aluminum are not\P   rated for pressures higher than\P   3000 psi (210 bar), regardless of\P   the port type/size specified.\P3. This drawing is for reference\P   only.
  1
 It is generated by an\P   automated process and does not fall\P   under Sun's document control\P   process.\P4. Items without balloons are\P   shipped loose.
 40
0.1
 41
3.04
  0
LINE
  5
291
100
AcDbEntity
  8
0
100
AcDbLine
 62
7
  6
CONTINUOUS
 10
0.30125
 20
0.30125
 11
0.30125
 21
16.69875
  0
LINE
  5
292
100
AcDbEntity
  8
0
100
AcDbLine
 62
7
  6
CONTINUOUS
 10
0.30125
 20
0.30125
 11
21.69875
 21
0.30125
  0
LINE
  5
293
100
AcDbEntity
  8
0
100
AcDbLine
 62
7
  6
CONTINUOUS
 10
0.30125
 20
16.69875
 11
21.69875
 21
16.69875
  0
LINE
  5
294
100
AcDbEntity
  8
0
100
AcDbLine
 62
7
  6
CONTINUOUS
 10
21.69875
 20
0.30125
 11
21.69875
 21
16.69875
  0
LINE
  5
295
100
AcDbEntity
  8
0
100
AcDbLine
 62
7
  6
CONTINUOUS
 10
6.9691250737
 20
9.3592995595
 11
6.968750845
 21
9.3589446845
  0
LINE
  5
296
100
AcDbEntity
  8
0
100
AcDbLine
 62
7
  6
CONTINUOUS
 10
6.999143878
 20
9.3872378929
 11
6.9986945474
 21
9.3868117841
  0
LINE
  5
297
100
AcDbEntity
  8
0
100
AcDbLine
 62
7
  6
CONTINUOUS
 10
6.9691246558
 20
9.3592991733
 11
6.9986905979
 21
9.3868160277
  0
LINE
  5
298
100
AcDbEntity
  8
0
100
AcDbLine
 62
7
  6
CONTINUOUS
 10
7.538812763
 20
9.4287374839
 11
7.5381641533
 21
9.4281223994
  0
LINE
  5
299
100
AcDbEntity
  8
0
100
AcDbLine
 62
7
  6
CONTINUOUS
 10
7.8144213329
 20
9.7277474477
 11
7.7543824492
 21
9.6718695995
  0
LINE
  5
29A
100
AcDbEntity
  8
0
100
AcDbLine
 62
7
  6
CONTINUOUS
 10
7.4517137868
 20
9.4168799233
 11
7.4544076081
 21
9.4192705426
  0
LINE
  5
29B
100
AcDbEntity
  8
0
100
AcDbLine
 62
7
  6
CONTINUOUS
 10
8.3655492779
 20
9.6854139875
 11
8.3569097384
 21
9.6707657799
  0
LINE
  5
29C
100
AcDbEntity
  8
0
100
AcDbLine
 62
7
  6
CONTINUOUS
 10
7.5943187307
 20
9.4803965729
 11
7.5388128251
 21
9.4287375416
  0
LINE
  5
29D
100
AcDbEntity
  8
0
100
AcDbLine
 62
7
  6
CONTINUOUS
 10
6.9486721783
 20
9.0643834118
 11
6.9745476541
 21
9.032568162
  0
LINE
  5
29E
100
AcDbEntity
  8
0
100
AcDbLine
 62
7
  6
CONTINUOUS
 10
9.4579742173
 20
10.4779143839
 11
9.0676754194
 21
10.1009146727
  0
LINE
  5
29F
100
AcDbEntity
  8
0
100
AcDbLine
 62
7
  6
CONTINUOUS
 10
9.4879179197
 20
10.5057814834
 11
9.0976191218
 21
10.1287817722
  0
LINE
  5
2A0
100
AcDbEntity
  8
0
100
AcDbLine
 62
7
  6
CONTINUOUS
 10
9.4892910027
 20
10.5070835924
 11
9.4879179197
 21
10.5057814834
  0
LINE
  5
2A1
100
AcDbEntity
  8
0
100
AcDbLine
 62
7
  6
CONTINUOUS
 10
9.459272787
 20
10.4791456344
 11
9.4579742173
 21
10.4779143839
  0
LINE
  5
2A2
100
AcDbEntity
  8
0
100
AcDbLine
 62
7
  6
CONTINUOUS
 10
9.4579742173
 20
10.4779143839
 11
9.4879058566
 21
10.5057944448
  0
LINE
  5
2A3
100
AcDbEntity
  8
0
100
AcDbLine
 62
7
  6
CONTINUOUS
 10
9.0676754194
 20
10.1009146727
 11
9.0976191218
 21
10.1287817722
  0
LINE
  5
2A4
100
AcDbEntity
  8
0
100
AcDbLine
 62
7
  6
CONTINUOUS
 10
9.0238661109
 20
6.933352702
 11
8.9979906351
 21
6.9651679518
  0
LINE
  5
2A5
100
AcDbEntity
  8
0
100
AcDbLine
 62
7
  6
CONTINUOUS
 10
7.7350175966
 20
8.5827803738
 11
7.683266645
 21
8.6464108734
  0
LINE
  5
2A6
100
AcDbEntity
  8
0
100
AcDbLine
 62
7
  6
CONTINUOUS
 10
7.5163386838
 20
8.9009669689
 11
7.5033217612
 21
8.9169719556
  0
LINE
  5
2A7
100
AcDbEntity
  8
0
100
AcDbLine
 62
7
  6
CONTINUOUS
 10
8.2943820438
 20
8.5302077482
 11
8.2801783863
 21
8.5643333137
  0
LINE
  5
2A8
100
AcDbEntity
  8
0
100
AcDbLine
 62
7
  6
CONTINUOUS
 10
8.9302426199
 20
9.4552581302
 11
8.9302426199
 21
7.341812297
  0
LINE
  5
2A9
100
AcDbEntity
  8
0
100
AcDbLine
 62
7
  6
CONTINUOUS
 10
8.9521629385
 20
9.4454315333
 11
8.9521629385
 21
7.3319857002
  0
LINE
  5
2AA
100
AcDbEntity
  8
0
100
AcDbLine
 62
7
  6
CONTINUOUS
 10
9.7932069983
 20
10.0164651214
 11
10.4827003743
 21
10.6824646198
  0
LINE
  5
2AB
100
AcDbEntity
  8
0
100
AcDbLine
 62
7
  6
CONTINUOUS
 10
14.3813550602
 20
6.3175353802
 11
9.7932069983
 21
6.635724529
  0
LINE
  5
2AC
100
AcDbEntity
  8
0
100
AcDbLine
 62
7
  6
CONTINUOUS
 10
8.9302426199
 20
7.341812297
 11
8.9521629385
 21
7.3319857002
  0
LINE
  5
2AD
100
AcDbEntity
  8
0
100
AcDbLine
 62
7
  6
CONTINUOUS
 10
9.7932069983
 20
6.8608965736
 11
9.0587376766
 21
6.9118321941
  0
LINE
  5
2AE
100
AcDbEntity
  8
0
100
AcDbLine
 62
7
  6
CONTINUOUS
 10
9.7932069983
 20
10.0164651214
 11
9.7932069983
 21
6.635724529
  0
LINE
  5
2AF
100
AcDbEntity
  8
0
100
AcDbLine
 62
7
  6
CONTINUOUS
 10
8.9521629385
 20
7.3319857002
 11
9.7932069983
 21
7.2736590965
  0
LINE
  5
2B0
100
AcDbEntity
  8
0
100
AcDbLine
 62
7
  6
CONTINUOUS
 10
8.9302426199
 20
8.3817242382
 11
8.3506953623
 21
8.4219159771
  0
LINE
  5
2B1
100
AcDbEntity
  8
0
100
AcDbLine
 62
7
  6
CONTINUOUS
 10
8.9302426199
 20
8.3930766755
 11
8.3405540631
 21
8.4339717158
  0
LINE
  5
2B2
100
AcDbEntity
  8
0
100
AcDbLine
 62
7
  6
CONTINUOUS
 10
8.2972141048
 20
8.5236020896
 11
7.7718747318
 21
8.5600344988
  0
LINE
  5
2B3
100
AcDbEntity
  8
0
100
AcDbLine
 62
7
  6
CONTINUOUS
 10
8.9302426199
 20
9.4552581302
 11
8.9521629385
 21
9.4454315333
  0
LINE
  5
2B4
100
AcDbEntity
  8
0
100
AcDbLine
 62
7
  6
CONTINUOUS
 10
7.6241124967
 20
8.8522937458
 11
7.595125625
 21
8.8543039921
  0
LINE
  5
2B5
100
AcDbEntity
  8
0
100
AcDbLine
 62
7
  6
CONTINUOUS
 10
7.4986478649
 20
8.9027586417
 11
7.4928523096
 21
8.9031605649
  0
LINE
  5
2B6
100
AcDbEntity
  8
0
100
AcDbLine
 62
7
  6
CONTINUOUS
 10
7.5110999233
 20
8.9074082987
 11
7.5043409696
 21
8.9078770337
  0
LINE
  5
2B7
100
AcDbEntity
  8
0
100
AcDbLine
 62
7
  6
CONTINUOUS
 10
7.617610303
 20
8.9341584148
 11
7.5223975333
 21
8.9407614428
  0
LINE
  5
2B8
100
AcDbEntity
  8
0
100
AcDbLine
 62
7
  6
CONTINUOUS
 10
8.9241883261
 20
8.8638174129
 11
8.2539201539
 21
8.9103006685
  0
LINE
  5
2B9
100
AcDbEntity
  8
0
100
AcDbLine
 62
7
  6
CONTINUOUS
 10
6.9859646792
 20
9.0255223018
 11
7.17818393
 21
9.0121918515
  0
LINE
  5
2BA
100
AcDbEntity
  8
0
100
AcDbLine
 62
7
  6
CONTINUOUS
 10
7.2148891136
 20
9.0096463383
 11
7.3976955862
 21
8.9969686664
  0
LINE
  5
2BB
100
AcDbEntity
  8
0
100
AcDbLine
 62
7
  6
CONTINUOUS
 10
8.9241883261
 20
8.907520377
 11
8.2539201539
 21
8.9540036326
  0
LINE
  5
2BC
100
AcDbEntity
  8
0
100
AcDbLine
 62
7
  6
CONTINUOUS
 10
7.620591374
 20
9.2473664705
 11
7.5223975333
 21
9.2541762365
  0
LINE
  5
2BD
100
AcDbEntity
  8
0
100
AcDbLine
 62
7
  6
CONTINUOUS
 10
7.0114244156
 20
9.3926405413
 11
7.2036436664
 21
9.379310091
  0
LINE
  5
2BE
100
AcDbEntity
  8
0
100
AcDbLine
 62
7
  6
CONTINUOUS
 10
7.24034885
 20
9.3767645779
 11
7.4231558864
 21
9.3640868669
  0
LINE
  5
2BF
100
AcDbEntity
  8
0
100
AcDbLine
 62
7
  6
CONTINUOUS
 10
7.5478366625
 20
9.4371359759
 11
7.5410777088
 21
9.4376047109
  0
LINE
  5
2C0
100
AcDbEntity
  8
0
100
AcDbLine
 62
7
  6
CONTINUOUS
 10
7.5361456288
 20
9.443459962
 11
7.5303500735
 21
9.4438618851
  0
LINE
  5
2C1
100
AcDbEntity
  8
0
100
AcDbLine
 62
7
  6
CONTINUOUS
 10
7.6674056684
 20
9.4761209415
 11
7.595125625
 21
9.4811335795
  0
LINE
  5
2C2
100
AcDbEntity
  8
0
100
AcDbLine
 62
7
  6
CONTINUOUS
 10
8.9521629385
 20
9.4454315333
 11
9.7932069983
 21
9.3871049297
  0
LINE
  5
2C3
100
AcDbEntity
  8
0
100
AcDbLine
 62
7
  6
CONTINUOUS
 10
8.9328606846
 20
9.5566198523
 11
8.3405540631
 21
9.597696456
  0
LINE
  5
2C4
100
AcDbEntity
  8
0
100
AcDbLine
 62
7
  6
CONTINUOUS
 10
8.9347223967
 20
9.588841269
 11
8.3506953623
 21
9.6293436814
  0
LINE
  5
2C5
100
AcDbEntity
  8
0
100
AcDbLine
 62
7
  6
CONTINUOUS
 10
8.3830255698
 20
9.7085044339
 11
7.8540654026
 21
9.7451879461
  0
LINE
  5
2C6
100
AcDbEntity
  8
0
100
AcDbLine
 62
7
  6
CONTINUOUS
 10
8.9540891611
 20
9.7668782141
 11
8.5239631808
 21
9.7967075521
  0
LINE
  5
2C7
100
AcDbEntity
  8
0
100
AcDbLine
 62
7
  6
CONTINUOUS
 10
14.3813550602
 20
9.6982759726
 11
15.0708484362
 21
10.364275471
  0
LINE
  5
2C8
100
AcDbEntity
  8
0
100
AcDbLine
 62
7
  6
CONTINUOUS
 10
9.7932069983
 20
10.0164651214
 11
14.3813550602
 21
9.6982759726
  0
LINE
  5
2C9
100
AcDbEntity
  8
0
100
AcDbLine
 62
7
  6
CONTINUOUS
 10
9.0976191218
 20
10.1287817722
 11
9.855101083
 21
10.0762502198
  0
LINE
  5
2CA
100
AcDbEntity
  8
0
100
AcDbLine
 62
7
  6
CONTINUOUS
 10
9.4879179197
 20
10.5057814834
 11
10.2453998809
 21
10.453249931
  0
LINE
  5
2CB
100
AcDbEntity
  8
0
100
AcDbLine
 62
7
  6
CONTINUOUS
 10
10.2652008682
 20
10.4723762172
 11
9.526799365
 21
10.5235845354
  0
LINE
  5
2CC
100
AcDbEntity
  8
0
100
AcDbLine
 62
7
  6
CONTINUOUS
 10
10.4827003743
 20
10.6824646198
 11
15.0708484362
 21
10.364275471
  0
LINE
  5
2CD
100
AcDbEntity
  8
0
100
AcDbLine
 62
7
  6
CONTINUOUS
 10
14.3813550602
 20
9.6982759726
 11
14.3813550602
 21
6.3175353802
  0
LINE
  5
2CE
100
AcDbEntity
  8
0
100
AcDbLine
 62
7
  6
CONTINUOUS
 10
14.3813550602
 20
6.3175353802
 11
15.0708484362
 21
6.9835348786
  0
LINE
  5
2CF
100
AcDbEntity
  8
0
100
AcDbLine
 62
7
  6
CONTINUOUS
 10
15.0708484362
 20
10.364275471
 11
15.0708484362
 21
6.9835348786
  0
ARC
  5
2D0
100
AcDbEntity
  8
0
100
AcDbCircle
 62
7
  6
CONTINUOUS
 10
11.6896308893
 20
8.8826531173
 40
2.7655569276
100
AcDbArc
 50
176.1825063177
 51
179.4848019468
  0
ARC
  5
2D1
100
AcDbEntity
  8
0
100
AcDbCircle
 62
7
  6
CONTINUOUS
 10
10.8353621867
 20
8.9320400827
 40
2.5815354668
100
AcDbArc
 50
179.5125250425
 51
179.99951577
  0
ARC
  5
2D2
100
AcDbEntity
  8
0
100
AcDbCircle
 62
7
  6
CONTINUOUS
 10
11.5056303584
 20
8.8855568271
 40
2.5815354663
100
AcDbArc
 50
179.5125250424
 51
179.99951577
  0
ARC
  5
2D3
100
AcDbEntity
  8
0
100
AcDbCircle
 62
7
  6
CONTINUOUS
 10
10.7825979947
 20
8.9320385999
 40
2.5287712748
100
AcDbArc
 50
179.9994720696
 51
180.492534488
  0
ARC
  5
2D4
100
AcDbEntity
  8
0
100
AcDbCircle
 62
7
  6
CONTINUOUS
 10
11.4528661666
 20
8.8855553443
 40
2.5287712745
100
AcDbArc
 50
179.9994720695
 51
180.4925344881
  0
ARC
  5
2D5
100
AcDbEntity
  8
0
100
AcDbCircle
 62
7
  6
CONTINUOUS
 10
9.4152859235
 20
9.2707489668
 40
1.1233624671
100
AcDbArc
 50
161.3845115437
 51
163.0795530927
  0
ARC
  5
2D6
100
AcDbEntity
  8
0
100
AcDbCircle
 62
7
  6
CONTINUOUS
 10
9.0748347409
 20
8.8552996941
 40
0.8454532399
100
AcDbArc
 50
200.1087206876
 51
202.6133105192
  0
ARC
  5
2D7
100
AcDbEntity
  8
0
100
AcDbCircle
 62
7
  6
CONTINUOUS
 10
6.8438261718
 20
9.0272528081
 40
0.8073501122
100
AcDbArc
 50
14.4241350359
 51
15.8212552123
  0
ARC
  5
2D8
100
AcDbEntity
  8
0
100
AcDbCircle
 62
7
  6
CONTINUOUS
 10
7.1186095404
 20
9.6186898724
 40
0.6243931694
100
AcDbArc
 50
323.5091183353
 51
324.8261396314
  0
ARC
  5
2D9
100
AcDbEntity
  8
0
100
AcDbCircle
 62
7
  6
CONTINUOUS
 10
12.3848116057
 20
9.1833064192
 40
0.295317781
100
AcDbArc
 50
271.1395415995
 51
276.3231863152
  0
ARC
  5
2DA
100
AcDbEntity
  8
0
100
AcDbCircle
 62
7
  6
CONTINUOUS
 10
12.5026390311
 20
8.7753285537
 40
0.184263612
100
AcDbArc
 50
116.9373844758
 51
117.7843820913
  0
ARC
  5
2DB
100
AcDbEntity
  8
0
100
AcDbCircle
 62
7
  6
CONTINUOUS
 10
7.2195563778
 20
9.3447068265
 40
0.0284301345
100
AcDbArc
 50
71.6370172926
 51
72.9911751895
  0
ARC
  5
2DC
100
AcDbEntity
  8
0
100
AcDbCircle
 62
7
  6
CONTINUOUS
 10
7.1989567838
 20
9.0441846752
 40
0.0283623637
100
AcDbArc
 50
251.4236132798
 51
253.0092242504
  0
ARC
  5
2DD
100
AcDbEntity
  8
0
100
AcDbCircle
 62
7
  6
CONTINUOUS
 10
7.1988025894
 20
9.0435798515
 40
0.027738784
100
AcDbArc
 50
252.9487533227
 51
280.3633676616
  0
ARC
  5
2DE
100
AcDbEntity
  8
0
100
AcDbCircle
 62
7
  6
CONTINUOUS
 10
14.6969075717
 20
8.8351008176
 40
0.0147833406
100
AcDbArc
 50
86.0442644351
 51
92.4343467444
  0
ARC
  5
2DF
100
AcDbEntity
  8
0
100
AcDbCircle
 62
7
  6
CONTINUOUS
 10
14.6664364943
 20
8.3957205206
 40
0.0147810292
100
AcDbArc
 50
259.9307993105
 51
266.0212937138
  0
SPLINE
  5
2E0
100
AcDbEntity
  8
0
100
AcDbSpline
 62
7
  6
CONTINUOUS
 70
0
 71
3
 72
16
 73
12
 74
0
 42
0.0000001
 43
0.0000001
 44
0.0000000001
 40
0.0
 40
0.0
 40
0.0
 40
0.0
 40
0.1081438774
 40
0.2181189623
 40
0.3316584607
 40
0.4503230796
 40
0.5120290762
 40
0.5755041453
 40
0.7082541584
 40
0.849522722
 40
1.0
 40
1.0
 40
1.0
 40
1.0
 10
7.2403490433
 20
9.376764553
 30
0.0
 10
7.2398305507
 20
9.376800516
 30
0.0
 10
7.2387784967
 20
9.3768017511
 30
0.0
 10
7.237194281
 20
9.376590072
 30
0.0
 10
7.235601067
 20
9.376166218
 30
0.0
 10
7.2342851384
 20
9.3756442729
 30
0.0
 10
7.2332327746
 20
9.3751276865
 30
0.0
 10
7.2321484469
 20
9.3745259788
 30
0.0
 10
7.2307886362
 20
9.3736373789
 30
0.0
 10
7.229178817
 20
9.3723809977
 30
0.0
 10
7.228139141
 20
9.3714382559
 30
0.0
 10
7.2276189818
 20
9.3709358207
 30
0.0
  0
SPLINE
  5
2E1
100
AcDbEntity
  8
0
100
AcDbSpline
 62
7
  6
CONTINUOUS
 70
0
 71
3
 72
33
 73
29
 74
0
 42
0.0000001
 43
0.0000001
 44
0.0000000001
 40
0.0
 40
0.0
 40
0.0
 40
0.0
 40
0.0712719954
 40
0.1436234445
 40
0.2165538657
 40
0.2895566146
 40
0.3621246289
 40
0.433754735
 40
0.4690635475
 40
0.5039532302
 40
0.5383639788
 40
0.5722370693
 40
0.6055150194
 40
0.6381417669
 40
0.6700627902
 40
0.7012252612
 40
0.7315782276
 40
0.7610728314
 40
0.7896624652
 40
0.8173029671
 40
0.8439528673
 40
0.8695737009
 40
0.8941302829
 40
0.9175910467
 40
0.9399284952
 40
0.9611197918
 40
0.9811474158
 40
1.0
 40
1.0
 40
1.0
 40
1.0
 10
8.2272282924
 20
8.9577539646
 30
0.0
 10
8.2272282924
 20
8.9751148646
 30
0.0
 10
8.227635049
 20
9.0101007755
 30
0.0
 10
8.2294169212
 20
9.0628242592
 30
0.0
 10
8.2323636292
 20
9.1159179128
 30
0.0
 10
8.2364534067
 20
9.1689886262
 30
0.0
 10
8.2416560247
 20
9.2216434879
 30
0.0
 10
8.2469112081
 20
9.2650560484
 30
0.0
 10
8.2516502758
 20
9.299277652
 30
0.0
 10
8.2554393823
 20
9.3244763819
 30
0.0
 10
8.2594730327
 20
9.3492828677
 30
0.0
 10
8.2637437651
 20
9.3736511918
 30
0.0
 10
8.2682436463
 20
9.3975362113
 30
0.0
 10
8.2729643099
 20
9.4208937024
 30
0.0
 10
8.2778969737
 20
9.4436804228
 30
0.0
 10
8.2830324657
 20
9.4658541876
 30
0.0
 10
8.2883612453
 20
9.4873739566
 30
0.0
 10
8.2938733956
 20
9.5081999224
 30
0.0
 10
8.2995586535
 20
9.5282935809
 30
0.0
 10
8.3054064384
 20
9.5476177932
 30
0.0
 10
8.3114058781
 20
9.566136866
 30
0.0
 10
8.3175458066
 20
9.5838166391
 30
0.0
 10
8.323814793
 20
9.6006245474
 30
0.0
 10
8.3302011878
 20
9.6165296887
 30
0.0
 10
8.3366931348
 20
9.63150285
 30
0.0
 10
8.3432786682
 20
9.6455167649
 30
0.0
 10
8.3499454672
 20
9.6585456028
 30
0.0
 10
8.3545767396
 20
9.666810222
 30
0.0
 10
8.3569097016
 20
9.6707657145
 30
0.0
  0
SPLINE
  5
2E2
100
AcDbEntity
  8
0
100
AcDbSpline
 62
7
  6
CONTINUOUS
 70
0
 71
3
 72
28
 73
24
 74
0
 42
0.0000001
 43
0.0000001
 44
0.0000000001
 40
0.0
 40
0.0
 40
0.0
 40
0.0
 40
0.077901424
 40
0.1545448946
 40
0.2297359641
 40
0.3032876923
 40
0.3750173184
 40
0.4447491359
 40
0.512314447
 40
0.5775527781
 40
0.6403126572
 40
0.7004526751
 40
0.7578427416
 40
0.7854699814
 40
0.8123669053
 40
0.8385209905
 40
0.8639209812
 40
0.8885565149
 40
0.9124186291
 40
0.9354995216
 40
0.9577929193
 40
0.9792940834
 40
1.0
 40
1.0
 40
1.0
 40
1.0
 10
8.2272282924
 20
8.9577539646
 30
0.0
 10
8.2272282924
 20
8.9473917543
 30
0.0
 10
8.2273711371
 20
8.9268343449
 30
0.0
 10
8.2280238995
 20
8.896281493
 30
0.0
 10
8.2291117867
 20
8.8663198698
 30
0.0
 10
8.230631722
 20
8.8370314773
 30
0.0
 10
8.2325795014
 20
8.8084961441
 30
0.0
 10
8.2349496937
 20
8.7807917955
 30
0.0
 10
8.237735722
 20
8.7539939846
 30
0.0
 10
8.2409298501
 20
8.7281757916
 30
0.0
 10
8.2445231995
 20
8.7034075076
 30
0.0
 10
8.2485058323
 20
8.6797567049
 30
0.0
 10
8.2521848841
 20
8.6607995673
 30
0.0
 10
8.2553251833
 20
8.6462476242
 30
0.0
 10
8.2577408122
 20
8.6357910382
 30
0.0
 10
8.2602451056
 20
8.6256602336
 30
0.0
 10
8.2628362999
 20
8.6158620934
 30
0.0
 10
8.2655126807
 20
8.6064032929
 30
0.0
 10
8.2682723629
 20
8.5972902557
 30
0.0
 10
8.2711134973
 20
8.5885291804
 30
0.0
 10
8.2740341325
 20
8.5801259877
 30
0.0
 10
8.2770322462
 20
8.5720864432
 30
0.0
 10
8.2791207563
 20
8.5668743473
 30
0.0
 10
8.2801791183
 20
8.5643315738
 30
0.0
  0
SPLINE
  5
2E3
100
AcDbEntity
  8
0
100
AcDbSpline
 62
7
  6
CONTINUOUS
 70
0
 71
3
 72
46
 73
42
 74
0
 42
0.0000001
 43
0.0000001
 44
0.0000000001
 40
0.0
 40
0.0
 40
0.0
 40
0.0
 40
0.0379401286
 40
0.0762770873
 40
0.114921923
 40
0.1537877559
 40
0.1927853774
 40
0.2318258397
 40
0.2708198564
 40
0.3096783258
 40
0.3483125647
 40
0.3866345194
 40
0.4245570345
 40
0.4619941447
 40
0.4988613407
 40
0.5350757961
 40
0.5705566658
 40
0.6052253911
 40
0.6390059613
 40
0.6718251897
 40
0.7036130718
 40
0.7343031664
 40
0.7638329229
 40
0.7921441102
 40
0.8191833382
 40
0.8449026439
 40
0.8692601789
 40
0.8809175372
 40
0.8922220519
 40
0.9031706857
 40
0.9137609383
 40
0.9239910832
 40
0.9338599939
 40
0.9433674655
 40
0.9525141327
 40
0.9613016426
 40
0.9697328548
 40
0.9778118135
 40
0.9855441698
 40
0.9929371565
 40
1.0
 40
1.0
 40
1.0
 40
1.0
 10
7.6153910441
 20
9.02376453
 30
0.0
 10
7.6153910441
 20
9.032274015
 30
0.0
 10
7.6155048363
 20
9.0493821882
 30
0.0
 10
7.6160091252
 20
9.0751534362
 30
0.0
 10
7.616846882
 20
9.101123763
 30
0.0
 10
7.6180160134
 20
9.1272295862
 30
0.0
 10
7.6195137245
 20
9.1534074973
 30
0.0
 10
7.621336349
 20
9.1795936111
 30
0.0
 10
7.6234794567
 20
9.205724134
 30
0.0
 10
7.6259378141
 20
9.2317353767
 30
0.0
 10
7.6287054203
 20
9.257563954
 30
0.0
 10
7.6317755164
 20
9.2831469253
 30
0.0
 10
7.6351406027
 20
9.3084219462
 30
0.0
 10
7.6387924575
 20
9.3333274303
 30
0.0
 10
7.6427221564
 20
9.3578026981
 30
0.0
 10
7.6469200862
 20
9.3817881245
 30
0.0
 10
7.6513759747
 20
9.4052252861
 30
0.0
 10
7.6560789183
 20
9.4280571108
 30
0.0
 10
7.6610174043
 20
9.4502280124
 30
0.0
 10
7.6661793404
 20
9.4716840251
 30
0.0
 10
7.671552084
 20
9.4923729494
 30
0.0
 10
7.6771224666
 20
9.5122444884
 30
0.0
 10
7.6828768336
 20
9.5312503791
 30
0.0
 10
7.6888010777
 20
9.5493444889
 30
0.0
 10
7.6948806809
 20
9.5664830332
 30
0.0
 10
7.7011007521
 20
9.5826243993
 30
0.0
 10
7.7064640637
 20
9.5953924665
 30
0.0
 10
7.7108224868
 20
9.605069904
 30
0.0
 10
7.7140690755
 20
9.6119483415
 30
0.0
 10
7.7173393172
 20
9.6185495225
 30
0.0
 10
7.7206313071
 20
9.6248694408
 30
0.0
 10
7.7239429711
 20
9.6309043
 30
0.0
 10
7.7272723752
 20
9.6366504337
 30
0.0
 10
7.730617461
 20
9.6421043992
 30
0.0
 10
7.7339762317
 20
9.6472629154
 30
0.0
 10
7.7373467042
 20
9.6521228732
 30
0.0
 10
7.7407268195
 20
9.6566814033
 30
0.0
 10
7.7441146582
 20
9.6609357296
 30
0.0
 10
7.7475082058
 20
9.6648833993
 30
0.0
 10
7.7509054448
 20
9.6685219116
 30
0.0
 10
7.7532234479
 20
9.6707909236
 30
0.0
 10
7.7543830485
 20
9.6718701439
 30
0.0
  0
SPLINE
  5
2E4
100
AcDbEntity
  8
0
100
AcDbSpline
 62
7
  6
CONTINUOUS
 70
0
 71
3
 72
11
 73
7
 74
0
 42
0.0000001
 43
0.0000001
 44
0.0000000001
 40
0.0
 40
0.0
 40
0.0
 40
0.0
 40
0.253282451
 40
0.50446899
 40
0.7534185088
 40
1.0
 40
1.0
 40
1.0
 40
1.0
 10
8.3405540631
 20
8.4339717158
 30
0.0
 10
8.3362818653
 20
8.4419110476
 30
0.0
 10
8.3279337271
 20
8.4578113525
 30
0.0
 10
8.31600381
 20
8.4818330829
 30
0.0
 10
8.3047717572
 20
8.5059263968
 30
0.0
 10
8.2977522919
 20
8.5221114033
 30
0.0
 10
8.2943791719
 20
8.5302146502
 30
0.0
  0
SPLINE
  5
2E5
100
AcDbEntity
  8
0
100
AcDbSpline
 62
7
  6
CONTINUOUS
 70
0
 71
3
 72
53
 73
49
 74
0
 42
0.0000001
 43
0.0000001
 44
0.0000000001
 40
0.0
 40
0.0
 40
0.0
 40
0.0
 40
0.0076527975
 40
0.0158948666
 40
0.0247438037
 40
0.0342114742
 40
0.0443042933
 40
0.055023122
 40
0.0663650574
 40
0.0783237317
 40
0.0908900898
 40
0.1040523768
 40
0.1177967968
 40
0.1321075186
 40
0.1469670316
 40
0.1623561922
 40
0.1946387782
 40
0.2287768784
 40
0.2645730785
 40
0.3018149116
 40
0.3402774991
 40
0.3797257553
 40
0.4199164423
 40
0.4606004509
 40
0.5015246929
 40
0.5424341372
 40
0.58307397
 40
0.6231914196
 40
0.6625379093
 40
0.7008711306
 40
0.7379569826
 40
0.7735719221
 40
0.8075051499
 40
0.8395610559
 40
0.8548293889
 40
0.8695635886
 40
0.8837447455
 40
0.8973558274
 40
0.9103813293
 40
0.9228080249
 40
0.934624684
 40
0.9458228834
 40
0.9563969447
 40
0.966344897
 40
0.975668753
 40
0.9843757334
 40
0.9924791259
 40
1.0
 40
1.0
 40
1.0
 40
1.0
 10
6.968750845
 20
9.3589446845
 30
0.0
 10
6.9681918983
 20
9.3584047835
 30
0.0
 10
6.9670763265
 20
9.3572358917
 30
0.0
 10
6.9654667988
 20
9.3553044642
 30
0.0
 10
6.9638630391
 20
9.353134471
 30
0.0
 10
6.9622675964
 20
9.3507296148
 30
0.0
 10
6.9606829367
 20
9.3480935934
 30
0.0
 10
6.9591115419
 20
9.345230645
 30
0.0
 10
6.9575560501
 20
9.3421453755
 30
0.0
 10
6.9560189631
 20
9.3388428309
 30
0.0
 10
6.9545028674
 20
9.3353284
 30
0.0
 10
6.9530102452
 20
9.3316078639
 30
0.0
 10
6.9515436107
 20
9.3276873464
 30
0.0
 10
6.9501053925
 20
9.323573323
 30
0.0
 10
6.9486979791
 20
9.3192725887
 30
0.0
 10
6.9468359023
 20
9.3132015599
 30
0.0
 10
6.9446105649
 20
9.3051958789
 30
0.0
 10
6.9421390849
 20
9.2951131361
 30
0.0
 10
6.9398423828
 20
9.284473476
 30
0.0
 10
6.9377358694
 20
9.2733474392
 30
0.0
 10
6.9358336987
 20
9.2618087197
 30
0.0
 10
6.9341486199
 20
9.2499338557
 30
0.0
 10
6.9326919141
 20
9.2378016404
 30
0.0
 10
6.9314733172
 20
9.2254926092
 30
0.0
 10
6.9305009568
 20
9.213088485
 30
0.0
 10
6.9297813009
 20
9.2006716299
 30
0.0
 10
6.9293191142
 20
9.1883244953
 30
0.0
 10
6.9291174243
 20
9.1761290601
 30
0.0
 10
6.9291775017
 20
9.1641662845
 30
0.0
 10
6.9294988451
 20
9.1525155591
 30
0.0
 10
6.9300791868
 20
9.1412541755
 30
0.0
 10
6.930914477
 20
9.1304567428
 30
0.0
 10
6.9319989953
 20
9.1201948683
 30
0.0
 10
6.9331215325
 20
9.1120184052
 30
0.0
 10
6.9341462949
 20
9.10580011
 30
0.0
 10
6.9349597135
 20
9.1013874336
 30
0.0
 10
6.9358291184
 20
9.0971570901
 30
0.0
 10
6.9367530072
 20
9.0931160688
 30
0.0
 10
6.9377298937
 20
9.0892710455
 30
0.0
 10
6.9387580768
 20
9.085628348
 30
0.0
 10
6.9398359084
 20
9.0821939637
 30
0.0
 10
6.9409615323
 20
9.0789735008
 30
0.0
 10
6.9421331553
 20
9.0759722099
 30
0.0
 10
6.9433488127
 20
9.0731949172
 30
0.0
 10
6.9446066047
 20
9.0706460899
 30
0.0
 10
6.945904582
 20
9.0683296749
 30
0.0
 10
6.9472407249
 20
9.0662494831
 30
0.0
 10
6.948190179
 20
9.0649760625
 30
0.0
 10
6.9486720647
 20
9.0643835602
 30
0.0
  0
SPLINE
  5
2E6
100
AcDbEntity
  8
0
100
AcDbSpline
 62
7
  6
CONTINUOUS
 70
0
 71
3
 72
61
 73
57
 74
0
 42
0.0000001
 43
0.0000001
 44
0.0000000001
 40
0.0
 40
0.0
 40
0.0
 40
0.0
 40
0.0081437098
 40
0.0169768275
 40
0.0265209143
 40
0.0367896015
 40
0.0477882621
 40
0.0595158071
 40
0.0719659358
 40
0.0851282107
 40
0.0989884265
 40
0.1135291697
 40
0.1287303834
 40
0.1445693552
 40
0.1610213162
 40
0.1780594546
 40
0.1956551042
 40
0.2137780553
 40
0.2514762554
 40
0.290885529
 40
0.3317181162
 40
0.3736718768
 40
0.4164335341
 40
0.4596820247
 40
0.5030915383
 40
0.5463347899
 40
0.5890860106
 40
0.6310242471
 40
0.6718363787
 40
0.711220476
 40
0.7302869813
 40
0.7488900532
 40
0.7669965786
 40
0.7845748293
 40
0.8015946281
 40
0.8180273289
 40
0.8338462633
 40
0.8490266269
 40
0.8635458694
 40
0.8773839814
 40
0.8905236118
 40
0.9029507675
 40
0.9146549878
 40
0.9256302228
 40
0.9358756721
 40
0.9453967348
 40
0.9542068877
 40
0.9623294253
 40
0.9698004495
 40
0.9766723192
 40
0.983017575
 40
0.9889330743
 40
0.9917694507
 40
0.9945466094
 40
0.9972834967
 40
1.0
 40
1.0
 40
1.0
 40
1.0
 10
7.2276189818
 20
9.3709358207
 30
0.0
 10
7.2268767277
 20
9.3702188583
 30
0.0
 10
7.2253960542
 20
9.3686543904
 30
0.0
 10
7.2232683847
 20
9.3660499478
 30
0.0
 10
7.2211498801
 20
9.3630996844
 30
0.0
 10
7.219044646
 20
9.3598095332
 30
0.0
 10
7.2169565018
 20
9.356185645
 30
0.0
 10
7.2148896107
 20
9.3522350076
 30
0.0
 10
7.2128479974
 20
9.34796537
 30
0.0
 10
7.2108357707
 20
9.3433851276
 30
0.0
 10
7.2088569671
 20
9.3385033503
 30
0.0
 10
7.2069155477
 20
9.3333297513
 30
0.0
 10
7.2050154743
 20
9.3278746405
 30
0.0
 10
7.2031605403
 20
9.3221489314
 30
0.0
 10
7.2013545218
 20
9.3161640803
 30
0.0
 10
7.1996010708
 20
9.3099320837
 30
0.0
 10
7.1979036857
 20
9.3034654359
 30
0.0
 10
7.1956908466
 20
9.2944286382
 30
0.0
 10
7.1930986399
 20
9.2826406454
 30
0.0
 10
7.1903015728
 20
9.2679574861
 30
0.0
 10
7.1878014748
 20
9.252674241
 30
0.0
 10
7.1856186202
 20
9.2369136405
 30
0.0
 10
7.1837707184
 20
9.2208021508
 30
0.0
 10
7.1822727188
 20
9.2044691617
 30
0.0
 10
7.1811367102
 20
9.1880458502
 30
0.0
 10
7.1803718211
 20
9.171664141
 30
0.0
 10
7.1799841395
 20
9.1554556201
 30
0.0
 10
7.1799766496
 20
9.1395504325
 30
0.0
 10
7.1803492784
 20
9.1240763667
 30
0.0
 10
7.1809803495
 20
9.1115118359
 30
0.0
 10
7.1816794494
 20
9.1017722982
 30
0.0
 10
7.1822903276
 20
9.0947304747
 30
0.0
 10
7.1829921366
 20
9.0878866745
 30
0.0
 10
7.1837834655
 20
9.0812546313
 30
0.0
 10
7.1846626758
 20
9.0748476651
 30
0.0
 10
7.1856280185
 20
9.0686786293
 30
0.0
 10
7.1866774874
 20
9.0627598902
 30
0.0
 10
7.1878089731
 20
9.057103301
 30
0.0
 10
7.1890201733
 20
9.0517201741
 30
0.0
 10
7.1903085992
 20
9.0466212493
 30
0.0
 10
7.1916716871
 20
9.041816677
 30
0.0
 10
7.1931066319
 20
9.0373159713
 30
0.0
 10
7.1946105863
 20
9.0331280054
 30
0.0
 10
7.1961805646
 20
9.0292609667
 30
0.0
 10
7.1978134727
 20
9.0257223154
 30
0.0
 10
7.1995062944
 20
9.0225188106
 30
0.0
 10
7.2012559311
 20
9.019656417
 30
0.0
 10
7.2030595776
 20
9.017140417
 30
0.0
 10
7.2049146304
 20
9.0149754913
 30
0.0
 10
7.206819084
 20
9.0131658862
 30
0.0
 10
7.2087707651
 20
9.0117162963
 30
0.0
 10
7.2104593743
 20
9.0107998311
 30
0.0
 10
7.2118201635
 20
9.0102641209
 30
0.0
 10
7.2128351626
 20
9.0099602115
 30
0.0
 10
7.2138578629
 20
9.0097490748
 30
0.0
 10
7.2145455081
 20
9.0096701825
 30
0.0
 10
7.2148889203
 20
9.0096463632
 30
0.0
  0
SPLINE
  5
2E7
100
AcDbEntity
  8
0
100
AcDbSpline
 62
7
  6
CONTINUOUS
 70
0
 71
3
 72
15
 73
11
 74
0
 42
0.0000001
 43
0.0000001
 44
0.0000000001
 40
0.0
 40
0.0
 40
0.0
 40
0.0
 40
0.1483123663
 40
0.2881088861
 40
0.4200973331
 40
0.5451551946
 40
0.6643426133
 40
0.778907023
 40
0.8902726746
 40
1.0
 40
1.0
 40
1.0
 40
1.0
 10
7.2147615406
 20
9.3726265993
 30
0.0
 10
7.214338286
 20
9.373131616
 30
0.0
 10
7.2134847498
 20
9.374087108
 30
0.0
 10
7.2121415123
 20
9.375385573
 30
0.0
 10
7.2107755197
 20
9.3765038537
 30
0.0
 10
7.2093878415
 20
9.3774404578
 30
0.0
 10
7.2079795719
 20
9.3781939586
 30
0.0
 10
7.2065519017
 20
9.3787627742
 30
0.0
 10
7.2051068799
 20
9.3791455818
 30
0.0
 10
7.2041301923
 20
9.3792763338
 30
0.0
 10
7.2036438597
 20
9.3793100661
 30
0.0
  0
SPLINE
  5
2E8
100
AcDbEntity
  8
0
100
AcDbSpline
 62
7
  6
CONTINUOUS
 70
0
 71
3
 72
22
 73
18
 74
0
 42
0.0000001
 43
0.0000001
 44
0.0000000001
 40
0.0
 40
0.0
 40
0.0
 40
0.0
 40
0.1567467198
 40
0.2326963912
 40
0.3068414184
 40
0.3790296771
 40
0.4491005507
 40
0.5168868238
 40
0.5822193257
 40
0.6449298447
 40
0.7048574121
 40
0.7618558673
 40
0.8158017796
 40
0.8666054203
 40
0.9142217071
 40
0.9586608551
 40
1.0
 40
1.0
 40
1.0
 40
1.0
 10
7.595125625
 20
8.8543039921
 30
0.0
 10
7.5906825895
 20
8.8561887009
 30
0.0
 10
7.5841111718
 20
8.8590452135
 30
0.0
 10
7.5755121939
 20
8.8629592645
 30
0.0
 10
7.5693193859
 20
8.8658737165
 30
0.0
 10
7.5633315171
 20
8.8687970436
 30
0.0
 10
7.5575661675
 20
8.8717281081
 30
0.0
 10
7.552041889
 20
8.8746654174
 30
0.0
 10
7.5467779708
 20
8.8776070777
 30
0.0
 10
7.5417941747
 20
8.8805508548
 30
0.0
 10
7.5371103079
 20
8.8834940736
 30
0.0
 10
7.5327457542
 20
8.8864336692
 30
0.0
 10
7.5287189308
 20
8.8893663175
 30
0.0
 10
7.5250466185
 20
8.892288353
 30
0.0
 10
7.52174326
 20
8.8951960941
 30
0.0
 10
7.5188208182
 20
8.8980855318
 30
0.0
 10
7.5170705247
 20
8.9000671957
 30
0.0
 10
7.5162673907
 20
8.9010546624
 30
0.0
  0
SPLINE
  5
2E9
100
AcDbEntity
  8
0
100
AcDbSpline
 62
7
  6
CONTINUOUS
 70
0
 71
3
 72
30
 73
26
 74
0
 42
0.0000001
 43
0.0000001
 44
0.0000000001
 40
0.0
 40
0.0
 40
0.0
 40
0.0
 40
0.0266552689
 40
0.0528604489
 40
0.078594794
 40
0.1038917862
 40
0.1288496427
 40
0.1535846887
 40
0.1782466706
 40
0.2029791903
 40
0.2531923987
 40
0.2789326429
 40
0.3052244118
 40
0.332153701
 40
0.3597874586
 40
0.3881787309
 40
0.4173740315
 40
0.4782889819
 40
0.5426982953
 40
0.6106487929
 40
0.6821006518
 40
0.756945826
 40
0.8350215577
 40
0.9161207473
 40
1.0
 40
1.0
 40
1.0
 40
1.0
 10
7.1899214231
 20
9.0172999968
 30
0.0
 10
7.1889461588
 20
9.0176277622
 30
0.0
 10
7.1870459753
 20
9.01838348
 30
0.0
 10
7.1843530839
 20
9.0197908006
 30
0.0
 10
7.1818528037
 20
9.0214224756
 30
0.0
 10
7.1795449934
 20
9.0232384246
 30
0.0
 10
7.1774207988
 20
9.0252088716
 30
0.0
 10
7.1754622799
 20
9.0273099082
 30
0.0
 10
7.1736528882
 20
9.0295289604
 30
0.0
 10
7.1714008976
 20
9.0326473194
 30
0.0
 10
7.1693813249
 20
9.0359760709
 30
0.0
 10
7.1675512045
 20
9.0394732752
 30
0.0
 10
7.1662440226
 20
9.0422274474
 30
0.0
 10
7.1650049238
 20
9.0450924353
 30
0.0
 10
7.1638277534
 20
9.0480706952
 30
0.0
 10
7.1627084125
 20
9.0511642755
 30
0.0
 10
7.1612669893
 20
9.0555057413
 30
0.0
 10
7.1595994115
 20
9.0612345896
 30
0.0
 10
7.157815792
 20
9.0684802976
 30
0.0
 10
7.1562151648
 20
9.076184277
 30
0.0
 10
7.1547943128
 20
9.0843323384
 30
0.0
 10
7.1535527019
 20
9.092904545
 30
0.0
 10
7.1524912125
 20
9.1018758631
 30
0.0
 10
7.1516114155
 20
9.1112169756
 30
0.0
 10
7.1511543824
 20
9.1175691363
 30
0.0
 10
7.1509548714
 20
9.1208006444
 30
0.0
  0
SPLINE
  5
2EA
100
AcDbEntity
  8
0
100
AcDbSpline
 62
7
  6
CONTINUOUS
 70
0
 71
3
 72
23
 73
19
 74
0
 42
0.0000001
 43
0.0000001
 44
0.0000000001
 40
0.0
 40
0.0
 40
0.0
 40
0.0
 40
0.0614921181
 40
0.124847167
 40
0.1897189729
 40
0.2557420392
 40
0.322536837
 40
0.3897147444
 40
0.4568826901
 40
0.5236477256
 40
0.5896215635
 40
0.654425276
 40
0.7176942084
 40
0.7790832977
 40
0.8382731782
 40
0.8949772008
 40
0.9489502183
 40
1.0
 40
1.0
 40
1.0
 40
1.0
 10
7.1509548714
 20
9.1208006444
 30
0.0
 10
7.1507018196
 20
9.1248993602
 30
0.0
 10
7.15029527
 20
9.1332278852
 30
0.0
 10
7.1499763193
 20
9.1458945777
 30
0.0
 10
7.149939222
 20
9.1588678227
 30
0.0
 10
7.1501836889
 20
9.1720684881
 30
0.0
 10
7.1507078899
 20
9.185415103
 30
0.0
 10
7.1515083864
 20
9.1988245741
 30
0.0
 10
7.1525801217
 20
9.2122131036
 30
0.0
 10
7.1539164582
 20
9.225497021
 30
0.0
 10
7.1555092597
 20
9.2385936328
 30
0.0
 10
7.1573490239
 20
9.251422078
 30
0.0
 10
7.1594250739
 20
9.2639042112
 30
0.0
 10
7.1617258346
 20
9.2759655512
 30
0.0
 10
7.1642392141
 20
9.2875362658
 30
0.0
 10
7.1669532041
 20
9.2985524302
 30
0.0
 10
7.1698566262
 20
9.3089569664
 30
0.0
 10
7.1719733502
 20
9.315645481
 30
0.0
 10
7.1730676691
 20
9.318874241
 30
0.0
  0
SPLINE
  5
2EB
100
AcDbEntity
  8
0
100
AcDbSpline
 62
7
  6
CONTINUOUS
 70
0
 71
3
 72
13
 73
9
 74
0
 42
0.0000001
 43
0.0000001
 44
0.0000000001
 40
0.0
 40
0.0
 40
0.0
 40
0.0
 40
0.2738323747
 40
0.5277597623
 40
0.6490755917
 40
0.7676246981
 40
0.8842896239
 40
1.0
 40
1.0
 40
1.0
 40
1.0
 10
7.5116261796
 20
8.9066568575
 30
0.0
 10
7.5105745556
 20
8.9059650621
 30
0.0
 10
7.5084660116
 20
8.9047490951
 30
0.0
 10
7.5056802421
 20
8.9036440992
 30
0.0
 10
7.5034788888
 20
8.9030802203
 30
0.0
 10
7.5018594549
 20
8.9028139027
 30
0.0
 10
7.5002482667
 20
8.9026982889
 30
0.0
 10
7.4991784639
 20
8.9027218451
 30
0.0
 10
7.4986478349
 20
8.902758644
 30
0.0
  0
SPLINE
  5
2EC
100
AcDbEntity
  8
0
100
AcDbSpline
 62
7
  6
CONTINUOUS
 70
0
 71
3
 72
16
 73
12
 74
0
 42
0.0000001
 43
0.0000001
 44
0.0000000001
 40
0.0
 40
0.0
 40
0.0
 40
0.0
 40
0.059386229
 40
0.1193173097
 40
0.240973493
 40
0.3646235457
 40
0.4898911294
 40
0.6163955922
 40
0.7437882008
 40
0.8717571663
 40
1.0
 40
1.0
 40
1.0
 40
1.0
 10
7.4544076088
 20
9.4192706038
 30
0.0
 10
7.455665247
 20
9.4202879582
 30
0.0
 10
7.4582336436
 20
9.4222813449
 30
0.0
 10
7.463582899
 20
9.4260877237
 30
0.0
 10
7.4706622304
 20
9.4304698013
 30
0.0
 10
7.4796979153
 20
9.4350000026
 30
0.0
 10
7.4892390008
 20
9.4387218527
 30
0.0
 10
7.4991902801
 20
9.4415450194
 30
0.0
 10
7.5094423482
 20
9.4434000581
 30
0.0
 10
7.519873956
 20
9.4442387915
 30
0.0
 10
7.5268652606
 20
9.4441035577
 30
0.0
 10
7.5303500735
 20
9.4438618851
 30
0.0
  0
SPLINE
  5
2ED
100
AcDbEntity
  8
0
100
AcDbSpline
 62
7
  6
CONTINUOUS
 70
0
 71
3
 72
56
 73
52
 74
0
 42
0.0000001
 43
0.0000001
 44
0.0000000001
 40
0.0
 40
0.0
 40
0.0
 40
0.0
 40
0.0071284313
 40
0.0148270246
 40
0.0231250461
 40
0.0320422711
 40
0.0415907002
 40
0.0517763423
 40
0.0626000835
 40
0.0740587192
 40
0.0861455915
 40
0.0988509676
 40
0.112162683
 40
0.1260661661
 40
0.1405449226
 40
0.1555806444
 40
0.1711533313
 40
0.1872416121
 40
0.2038226308
 40
0.2208723913
 40
0.2562755102
 40
0.2932385449
 40
0.3315340437
 40
0.3709229787
 40
0.4111571019
 40
0.4519811619
 40
0.4931350532
 40
0.5343560129
 40
0.5753807067
 40
0.6159474198
 40
0.6557981552
 40
0.6946808215
 40
0.7323514042
 40
0.7685762793
 40
0.8031345557
 40
0.8197243453
 40
0.8358217706
 40
0.8514040484
 40
0.8664497275
 40
0.8809387711
 40
0.8948528965
 40
0.9081754851
 40
0.9208920358
 40
0.9329902468
 40
0.9444603655
 40
0.9552957327
 40
0.9654929862
 40
0.9750529176
 40
0.9839814866
 40
0.9922910614
 40
1.0
 40
1.0
 40
1.0
 40
1.0
 10
7.4210313294
 20
8.9379992798
 30
0.0
 10
7.4202263235
 20
8.9388596896
 30
0.0
 10
7.4186377467
 20
8.9407307354
 30
0.0
 10
7.4164012825
 20
8.9438344523
 30
0.0
 10
7.4142256903
 20
8.9473342589
 30
0.0
 10
7.4121144566
 20
8.9512242989
 30
0.0
 10
7.4100706311
 20
8.9554984315
 30
0.0
 10
7.4080975809
 20
8.9601497245
 30
0.0
 10
7.4061985007
 20
8.96517054
 30
0.0
 10
7.4043765821
 20
8.9705525595
 30
0.0
 10
7.4026349386
 20
8.9762868031
 30
0.0
 10
7.4009764907
 20
8.9823636402
 30
0.0
 10
7.3994041346
 20
8.9887728388
 30
0.0
 10
7.3979205255
 20
8.9955035646
 30
0.0
 10
7.3965282327
 20
9.0025444221
 30
0.0
 10
7.3952296621
 20
9.0098834712
 30
0.0
 10
7.3940270132
 20
9.0175082533
 30
0.0
 10
7.3929224081
 20
9.0254058087
 30
0.0
 10
7.3919176816
 20
9.0335627227
 30
0.0
 10
7.3906983452
 20
9.0449085745
 30
0.0
 10
7.3894461839
 20
9.0596373934
 30
0.0
 10
7.3883823335
 20
9.0778999162
 30
0.0
 10
7.3877467413
 20
9.0968414716
 30
0.0
 10
7.3875439318
 20
9.1163331471
 30
0.0
 10
7.3877754888
 20
9.1362423922
 30
0.0
 10
7.3884399653
 20
9.1564337201
 30
0.0
 10
7.3895329229
 20
9.176769712
 30
0.0
 10
7.3910469565
 20
9.1971119439
 30
0.0
 10
7.392971746
 20
9.2173219546
 30
0.0
 10
7.3952941336
 20
9.2372621912
 30
0.0
 10
7.3979982105
 20
9.2567969699
 30
0.0
 10
7.4010654263
 20
9.2757933887
 30
0.0
 10
7.4044746939
 20
9.294122334
 30
0.0
 10
7.4082025829
 20
9.3116591264
 30
0.0
 10
7.4115977708
 20
9.3256988618
 30
0.0
 10
7.4144632794
 20
9.3364387695
 30
0.0
 10
7.4166463837
 20
9.3441132939
 30
0.0
 10
7.4188889555
 20
9.3515043501
 30
0.0
 10
7.4211871778
 20
9.3585993934
 30
0.0
 10
7.4235371436
 20
9.3653863737
 30
0.0
 10
7.4259347886
 20
9.371853795
 30
0.0
 10
7.4283760625
 20
9.3779907028
 30
0.0
 10
7.4308567656
 20
9.3837867391
 30
0.0
 10
7.4333726769
 20
9.3892321425
 30
0.0
 10
7.4359195517
 20
9.3943177748
 30
0.0
 10
7.438493046
 20
9.3990351689
 30
0.0
 10
7.4410889253
 20
9.403376476
 30
0.0
 10
7.4437028196
 20
9.4073345899
 30
0.0
 10
7.446330702
 20
9.4109032134
 30
0.0
 10
7.4489682336
 20
9.4140762119
 30
0.0
 10
7.4507972896
 20
9.415994655
 30
0.0
 10
7.4517137868
 20
9.4168799233
 30
0.0
  0
SPLINE
  5
2EE
100
AcDbEntity
  8
0
100
AcDbSpline
 62
7
  6
CONTINUOUS
 70
0
 71
3
 72
16
 73
12
 74
0
 42
0.0000001
 43
0.0000001
 44
0.0000000001
 40
0.0
 40
0.0
 40
0.0
 40
0.0
 40
0.1282422029
 40
0.2562109462
 40
0.3836034675
 40
0.5101080181
 40
0.6353757837
 40
0.7590262218
 40
0.8806823713
 40
0.9406144552
 40
1.0
 40
1.0
 40
1.0
 40
1.0
 10
7.4928523096
 20
8.9031605649
 30
0.0
 10
7.4893675138
 20
8.9034022363
 30
0.0
 10
7.4824244922
 20
8.9042333506
 30
0.0
 10
7.4722085443
 20
8.9065039855
 30
0.0
 10
7.4623106843
 20
8.9097564174
 30
0.0
 10
7.4528443603
 20
8.9139261941
 30
0.0
 10
7.4439083415
 20
8.9189294353
 30
0.0
 10
7.435584478
 20
8.924663536
 30
0.0
 10
7.4291777672
 20
8.9299808862
 30
0.0
 10
7.4244051416
 20
8.9344892341
 30
0.0
 10
7.422136483
 20
8.936818074
 30
0.0
 10
7.4210313289
 20
8.9379992759
 30
0.0
  0
SPLINE
  5
2EF
100
AcDbEntity
  8
0
100
AcDbSpline
 62
7
  6
CONTINUOUS
 70
0
 71
3
 72
13
 73
9
 74
0
 42
0.0000001
 43
0.0000001
 44
0.0000000001
 40
0.0
 40
0.0
 40
0.0
 40
0.0
 40
0.115726456
 40
0.2324056953
 40
0.3509651237
 40
0.4722859199
 40
0.7262063557
 40
1.0
 40
1.0
 40
1.0
 40
1.0
 10
7.5361456588
 20
9.4434599597
 30
0.0
 10
7.5366757399
 20
9.4434231989
 30
0.0
 10
7.5377374494
 20
9.4432990341
 30
0.0
 10
7.5393156281
 20
9.4429626925
 30
0.0
 10
7.5408812036
 20
9.4424762875
 30
0.0
 10
7.5429814857
 20
9.4416155922
 30
0.0
 10
7.5455854287
 20
9.4401395313
 30
0.0
 10
7.5475042406
 20
9.4386469618
 30
0.0
 10
7.548449486
 20
9.4378181986
 30
0.0
  0
SPLINE
  5
2F0
100
AcDbEntity
  8
0
100
AcDbSpline
 62
7
  6
CONTINUOUS
 70
0
 71
3
 72
9
 73
5
 74
0
 42
0.0000001
 43
0.0000001
 44
0.0000000001
 40
0.0
 40
0.0
 40
0.0
 40
0.0
 40
0.5149357862
 40
1.0
 40
1.0
 40
1.0
 40
1.0
 10
8.3405540631
 20
8.4339717158
 30
0.0
 10
8.3421640114
 20
8.4317972977
 30
0.0
 10
8.3454107133
 20
8.4276617292
 30
0.0
 10
8.3489225329
 20
8.4237469503
 30
0.0
 10
8.3506953623
 20
8.4219159771
 30
0.0
  0
SPLINE
  5
2F1
100
AcDbEntity
  8
0
100
AcDbSpline
 62
7
  6
CONTINUOUS
 70
0
 71
3
 72
15
 73
11
 74
0
 42
0.0000001
 43
0.0000001
 44
0.0000000001
 40
0.0
 40
0.0
 40
0.0
 40
0.0
 40
0.1492661416
 40
0.289700877
 40
0.4220192506
 40
0.5471141113
 40
0.6660754518
 40
0.7801950317
 40
0.890958096
 40
1.0
 40
1.0
 40
1.0
 40
1.0
 10
6.9745476319
 20
9.0325681919
 30
0.0
 10
6.97498082
 20
9.0320355576
 30
0.0
 10
6.9758545717
 20
9.0310279042
 30
0.0
 10
6.9772319209
 20
9.0296574687
 30
0.0
 10
6.9786335839
 20
9.0284773809
 30
0.0
 10
6.9800584669
 20
9.027489315
 30
0.0
 10
6.9815053929
 20
9.0266948198
 30
0.0
 10
6.9829731221
 20
9.0260956798
 30
0.0
 10
6.9844594373
 20
9.0256934006
 30
0.0
 10
6.9854646136
 20
9.0255569776
 30
0.0
 10
6.9859649516
 20
9.0255222942
 30
0.0
  0
SPLINE
  5
2F2
100
AcDbEntity
  8
0
100
AcDbSpline
 62
7
  6
CONTINUOUS
 70
0
 71
3
 72
15
 73
11
 74
0
 42
0.0000001
 43
0.0000001
 44
0.0000000001
 40
0.0
 40
0.0
 40
0.0
 40
0.0
 40
0.1090405473
 40
0.2198029275
 40
0.3339224007
 40
0.4528808073
 40
0.5779729623
 40
0.710293531
 40
0.8507394044
 40
1.0
 40
1.0
 40
1.0
 40
1.0
 10
7.0114241432
 20
9.3926405489
 30
0.0
 10
7.0109238214
 20
9.3926752312
 30
0.0
 10
7.0099094677
 20
9.3926788204
 30
0.0
 10
7.0083818953
 20
9.3924855222
 30
0.0
 10
7.006845587
 20
9.3920946344
 30
0.0
 10
7.0053028931
 20
9.391507513
 30
0.0
 10
7.0037553333
 20
9.3907255586
 30
0.0
 10
7.0022041856
 20
9.3897502388
 30
0.0
 10
7.0006508955
 20
9.3885829917
 30
0.0
 10
6.9996464176
 20
9.3877055955
 30
0.0
 10
6.999143878
 20
9.3872378872
 30
0.0
  0
SPLINE
  5
2F3
100
AcDbEntity
  8
0
100
AcDbSpline
 62
7
  6
CONTINUOUS
 70
0
 71
3
 72
15
 73
11
 74
0
 42
0.0000001
 43
0.0000001
 44
0.0000000001
 40
0.0
 40
0.0
 40
0.0
 40
0.0
 40
0.1099326879
 40
0.2214787174
 40
0.3361764184
 40
0.4554284799
 40
0.5804711791
 40
0.7123600082
 40
0.8519734798
 40
1.0
 40
1.0
 40
1.0
 40
1.0
 10
7.1781837367
 20
9.0121918763
 30
0.0
 10
7.1786658618
 20
9.0121584358
 30
0.0
 10
7.1796425418
 20
9.0121525893
 30
0.0
 10
7.1811134964
 20
9.0123281885
 30
0.0
 10
7.1825928288
 20
9.0126872641
 30
0.0
 10
7.1840784301
 20
9.0132286502
 30
0.0
 10
7.1855688848
 20
9.0139511801
 30
0.0
 10
7.1870630251
 20
9.0148535544
 30
0.0
 10
7.1885595401
 20
9.0159345464
 30
0.0
 10
7.1895286467
 20
9.0167486632
 30
0.0
 10
7.1900134699
 20
9.0171827402
 30
0.0
  0
SPLINE
  5
2F4
100
AcDbEntity
  8
0
100
AcDbSpline
 62
7
  6
CONTINUOUS
 70
0
 71
3
 72
18
 73
14
 74
0
 42
0.0000001
 43
0.0000001
 44
0.0000000001
 40
0.0
 40
0.0
 40
0.0
 40
0.0
 40
0.1492433953
 40
0.2896564392
 40
0.4219548375
 40
0.4853508103
 40
0.5470692898
 40
0.6660127937
 40
0.7801155506
 40
0.8358359877
 40
0.8909168788
 40
0.9455668433
 40
1.0
 40
1.0
 40
1.0
 40
1.0
 10
7.8144214547
 20
9.727747556
 30
0.0
 10
7.8160438341
 20
9.7292574814
 30
0.0
 10
7.8192864888
 20
9.7320899326
 30
0.0
 10
7.8243007018
 20
9.7358576716
 30
0.0
 10
7.8285322762
 20
9.7385183183
 30
0.0
 10
7.8319059648
 20
9.7403187458
 30
0.0
 10
7.8351849481
 20
9.7418656428
 30
0.0
 10
7.8392843659
 20
9.7434259953
 30
0.0
 10
7.8434510065
 20
9.7444857441
 30
0.0
 10
7.8467521633
 20
9.7450051009
 30
0.0
 10
7.8492002793
 20
9.7452333563
 30
0.0
 10
7.8516387674
 20
9.7453030854
 30
0.0
 10
7.8532589598
 20
9.7452438542
 30
0.0
 10
7.8540653689
 20
9.7451879339
 30
0.0
  0
SPLINE
  5
2F5
100
AcDbEntity
  8
0
100
AcDbSpline
 62
7
  6
CONTINUOUS
 70
0
 71
3
 72
33
 73
29
 74
0
 42
0.0000001
 43
0.0000001
 44
0.0000000001
 40
0.0
 40
0.0
 40
0.0
 40
0.0
 40
0.0162142668
 40
0.0334272809
 40
0.0516715604
 40
0.0709706216
 40
0.0913400703
 40
0.1127891198
 40
0.1353213724
 40
0.1589356732
 40
0.1836268295
 40
0.2093859192
 40
0.2362010379
 40
0.2640572099
 40
0.2929371492
 40
0.3228210274
 40
0.3536871159
 40
0.3855116149
 40
0.4182690296
 40
0.4519321782
 40
0.4864723107
 40
0.5218593341
 40
0.595045476
 40
0.6712258756
 40
0.7501166971
 40
0.8314193153
 40
0.9148210949
 40
1.0
 40
1.0
 40
1.0
 40
1.0
 10
7.6832671837
 20
8.6464102302
 30
0.0
 10
7.6819432302
 20
8.6480380718
 30
0.0
 10
7.6793251982
 20
8.6514857127
 30
0.0
 10
7.6755916304
 20
8.65703668
 30
0.0
 10
7.6719400916
 20
8.663112574
 30
0.0
 10
7.6683744231
 20
8.6697070027
 30
0.0
 10
7.6648980048
 20
8.6768133447
 30
0.0
 10
7.6615144106
 20
8.6844243372
 30
0.0
 10
7.6582270934
 20
8.6925321651
 30
0.0
 10
7.6550394502
 20
8.7011284509
 30
0.0
 10
7.6519548498
 20
8.7102042861
 30
0.0
 10
7.6489764735
 20
8.7197502183
 30
0.0
 10
7.646107531
 20
8.729756297
 30
0.0
 10
7.6433509749
 20
8.7402120514
 30
0.0
 10
7.640709799
 20
8.7511065344
 30
0.0
 10
7.6381867323
 20
8.7624283148
 30
0.0
 10
7.6357845031
 20
8.7741655087
 30
0.0
 10
7.6335056215
 20
8.7863057855
 30
0.0
 10
7.6313525195
 20
8.7988363848
 30
0.0
 10
7.6293274895
 20
8.8117441218
 30
0.0
 10
7.6274326354
 20
8.8250154298
 30
0.0
 10
7.6250558895
 20
8.8433828328
 30
0.0
 10
7.6224376406
 20
8.8671503053
 30
0.0
 10
7.6198771894
 20
8.8965799131
 30
0.0
 10
7.6178752229
 20
8.9271053342
 30
0.0
 10
7.6164403798
 20
8.9585979798
 30
0.0
 10
7.6155788757
 20
8.9909253148
 30
0.0
 10
7.6153910441
 20
9.0127416435
 30
0.0
 10
7.6153910441
 20
9.02376453
 30
0.0
  0
SPLINE
  5
2F6
100
AcDbEntity
  8
0
100
AcDbSpline
 62
7
  6
CONTINUOUS
 70
0
 71
3
 72
11
 73
7
 74
0
 42
0.0000001
 43
0.0000001
 44
0.0000000001
 40
0.0
 40
0.0
 40
0.0
 40
0.0
 40
0.2409247908
 40
0.4883861157
 40
0.7416597391
 40
1.0
 40
1.0
 40
1.0
 40
1.0
 10
8.9302081574
 20
8.7161871913
 30
0.0
 10
8.9293067922
 20
8.72802078
 30
0.0
 10
8.9277060743
 20
8.7520267535
 30
0.0
 10
8.925916031
 20
8.7885184625
 30
0.0
 10
8.9247084713
 20
8.82589235
 30
0.0
 10
8.9242980837
 20
8.8510921389
 30
0.0
 10
8.9241883261
 20
8.8638174129
 30
0.0
  0
SPLINE
  5
2F7
100
AcDbEntity
  8
0
100
AcDbSpline
 62
7
  6
CONTINUOUS
 70
0
 71
3
 72
19
 73
15
 74
0
 42
0.0000001
 43
0.0000001
 44
0.0000000001
 40
0.0
 40
0.0
 40
0.0
 40
0.0
 40
0.0544304915
 40
0.1090778252
 40
0.1641560328
 40
0.2198736291
 40
0.2764315511
 40
0.3340211546
 40
0.4529584752
 40
0.514674016
 40
0.5780669067
 40
0.7103582994
 40
0.8507643943
 40
1.0
 40
1.0
 40
1.0
 40
1.0
 10
7.7718747655
 20
8.560034511
 30
0.0
 10
7.7710683599
 20
8.5600904311
 30
0.0
 10
7.7694555074
 20
8.5602553903
 30
0.0
 10
7.7670499907
 20
8.560661089
 30
0.0
 10
7.7646568721
 20
8.5612250546
 30
0.0
 10
7.762277028
 20
8.5619470064
 30
0.0
 10
7.7599110379
 20
8.5628267509
 30
0.0
 10
7.7567424207
 20
8.5642243408
 30
0.0
 10
7.7536335758
 20
8.5659311354
 30
0.0
 10
7.7505997325
 20
8.5679157935
 30
0.0
 10
7.7475068337
 20
8.5701646801
 30
0.0
 10
7.7436830453
 20
8.5733838963
 30
0.0
 10
7.7392369582
 20
8.5778077027
 30
0.0
 10
7.7364163114
 20
8.5810605917
 30
0.0
 10
7.7350179033
 20
8.5827800014
 30
0.0
  0
SPLINE
  5
2F8
100
AcDbEntity
  8
0
100
AcDbSpline
 62
7
  6
CONTINUOUS
 70
0
 71
3
 72
23
 73
19
 74
0
 42
0.0000001
 43
0.0000001
 44
0.0000000001
 40
0.0
 40
0.0
 40
0.0
 40
0.0
 40
0.0444914888
 40
0.0909336919
 40
0.1395494697
 40
0.1905259409
 40
0.2440087221
 40
0.3000990176
 40
0.3588534841
 40
0.4202864229
 40
0.4843740247
 40
0.551059948
 40
0.6202614894
 40
0.6918756818
 40
0.7657851369
 40
0.8418633035
 40
0.9199789514
 40
1.0
 40
1.0
 40
1.0
 40
1.0
 10
8.3654306219
 20
9.6852127511
 30
0.0
 10
8.3669103114
 20
9.6877248769
 30
0.0
 10
8.3701260925
 20
9.692748609
 30
0.0
 10
8.375579784
 20
9.7000970414
 30
0.0
 10
8.3817710027
 20
9.7074022697
 30
0.0
 10
8.3887049079
 20
9.7146583119
 30
0.0
 10
8.3963805819
 20
9.7218604343
 30
0.0
 10
8.4047904564
 20
9.7290042723
 30
0.0
 10
8.4139207114
 20
9.736086158
 30
0.0
 10
8.423751736
 20
9.743103107
 30
0.0
 10
8.4342588846
 20
9.7500529015
 30
0.0
 10
8.4454134151
 20
9.75693409
 30
0.0
 10
8.4571834845
 20
9.7637459876
 30
0.0
 10
8.4695351453
 20
9.7704886376
 30
0.0
 10
8.4824332808
 20
9.7771627322
 30
0.0
 10
8.4958424525
 20
9.7837695334
 30
0.0
 10
8.5097275546
 20
9.7903107593
 30
0.0
 10
8.5191703242
 20
9.7945802037
 30
0.0
 10
8.5239631808
 20
9.7967075521
 30
0.0
  0
SPLINE
  5
2F9
100
AcDbEntity
  8
0
100
AcDbSpline
 62
7
  6
CONTINUOUS
 70
0
 71
3
 72
32
 73
28
 74
0
 42
0.0000001
 43
0.0000001
 44
0.0000000001
 40
0.0
 40
0.0
 40
0.0
 40
0.0
 40
0.0771843374
 40
0.1510786485
 40
0.2216978147
 40
0.2891180719
 40
0.3535009335
 40
0.4150985804
 40
0.4449707759
 40
0.4742972418
 40
0.5316016482
 40
0.5597583276
 40
0.5877076735
 40
0.6155597411
 40
0.6434272684
 40
0.6996156131
 40
0.7281621683
 40
0.7571076528
 40
0.7864872026
 40
0.8163077833
 40
0.8465260765
 40
0.8770691659
 40
0.9078212045
 40
0.9386528834
 40
0.9540580602
 40
0.9694288253
 40
1.0
 40
1.0
 40
1.0
 40
1.0
 10
7.1730676691
 20
9.318874241
 30
0.0
 10
7.1737645493
 20
9.3209303684
 30
0.0
 10
7.175180854
 20
9.3249375687
 30
0.0
 10
7.1774304683
 20
9.3307545148
 30
0.0
 10
7.179762038
 20
9.3362421269
 30
0.0
 10
7.1821809304
 20
9.3413980656
 30
0.0
 10
7.1846977231
 20
9.3462227322
 30
0.0
 10
7.1869123012
 20
9.3500085851
 30
0.0
 10
7.1887526553
 20
9.3528653237
 30
0.0
 10
7.1906106326
 20
9.3555650603
 30
0.0
 10
7.192573821
 20
9.3581326437
 30
0.0
 10
7.1946585622
 20
9.3605481659
 30
0.0
 10
7.1962783646
 20
9.3622677474
 30
0.0
 10
7.1979722399
 20
9.3639030801
 30
0.0
 10
7.2003465797
 20
9.3659710262
 30
0.0
 10
7.2029114598
 20
9.3678455346
 30
0.0
 10
7.2056696568
 20
9.3694674573
 30
0.0
 10
7.2078620651
 20
9.3705516711
 30
0.0
 10
7.2101650343
 20
9.371477105
 30
0.0
 10
7.2125711111
 20
9.3722199359
 30
0.0
 10
7.2150645941
 20
9.3727595215
 30
0.0
 10
7.2176229953
 20
9.3730742598
 30
0.0
 10
7.2202168453
 20
9.37315238
 30
0.0
 10
7.2223813304
 20
9.3730124348
 30
0.0
 10
7.2240990614
 20
9.3727795718
 30
0.0
 10
7.2257965816
 20
9.3724672086
 30
0.0
 10
7.2270504485
 20
9.3721449533
 30
0.0
 10
7.2278727321
 20
9.3718934188
 30
0.0
  0
SPLINE
  5
2FA
100
AcDbEntity
  8
0
100
AcDbSpline
 62
7
  6
CONTINUOUS
 70
0
 71
3
 72
61
 73
57
 74
0
 42
0.0000001
 43
0.0000001
 44
0.0000000001
 40
0.0
 40
0.0
 40
0.0
 40
0.0
 40
0.0081437098
 40
0.0169768275
 40
0.0265209143
 40
0.0367896015
 40
0.0477882621
 40
0.0595158071
 40
0.0719659358
 40
0.0851282107
 40
0.0989884265
 40
0.1135291697
 40
0.1287303834
 40
0.1445693552
 40
0.1610213162
 40
0.1780594546
 40
0.1956551042
 40
0.2137780553
 40
0.2514762554
 40
0.290885529
 40
0.3317181162
 40
0.3736718768
 40
0.4164335341
 40
0.4596820247
 40
0.5030915383
 40
0.5463347899
 40
0.5890860106
 40
0.6310242471
 40
0.6718363787
 40
0.711220476
 40
0.7302869813
 40
0.7488900532
 40
0.7669965786
 40
0.7845748293
 40
0.8015946281
 40
0.8180273289
 40
0.8338462633
 40
0.8490266269
 40
0.8635458694
 40
0.8773839814
 40
0.8905236118
 40
0.9029507675
 40
0.9146549878
 40
0.9256302228
 40
0.9358756721
 40
0.9453967348
 40
0.9542068877
 40
0.9623294253
 40
0.9698004495
 40
0.9766723192
 40
0.983017575
 40
0.9889330743
 40
0.9917694507
 40
0.9945466094
 40
0.9972834967
 40
1.0
 40
1.0
 40
1.0
 40
1.0
 10
7.1909137982
 20
9.3734813338
 30
0.0
 10
7.1901715442
 20
9.3727643714
 30
0.0
 10
7.1886908706
 20
9.3711999035
 30
0.0
 10
7.1865632011
 20
9.3685954609
 30
0.0
 10
7.1844446965
 20
9.3656451975
 30
0.0
 10
7.1823394624
 20
9.3623550463
 30
0.0
 10
7.1802513182
 20
9.3587311581
 30
0.0
 10
7.1781844271
 20
9.3547805208
 30
0.0
 10
7.1761428138
 20
9.3505108831
 30
0.0
 10
7.1741305872
 20
9.3459306407
 30
0.0
 10
7.1721517835
 20
9.3410488635
 30
0.0
 10
7.1702103641
 20
9.3358752644
 30
0.0
 10
7.1683102907
 20
9.3304201537
 30
0.0
 10
7.1664553568
 20
9.3246944445
 30
0.0
 10
7.1646493383
 20
9.3187095934
 30
0.0
 10
7.1628958873
 20
9.3124775968
 30
0.0
 10
7.1611985021
 20
9.306010949
 30
0.0
 10
7.158985663
 20
9.2969741513
 30
0.0
 10
7.1563934564
 20
9.2851861585
 30
0.0
 10
7.1535963892
 20
9.2705029992
 30
0.0
 10
7.1510962913
 20
9.2552197541
 30
0.0
 10
7.1489134366
 20
9.2394591537
 30
0.0
 10
7.1470655349
 20
9.2233476639
 30
0.0
 10
7.1455675352
 20
9.2070146748
 30
0.0
 10
7.1444315267
 20
9.1905913633
 30
0.0
 10
7.1436666376
 20
9.1742096541
 30
0.0
 10
7.1432789559
 20
9.1580011332
 30
0.0
 10
7.143271466
 20
9.1420959456
 30
0.0
 10
7.1436440948
 20
9.1266218798
 30
0.0
 10
7.1442751659
 20
9.114057349
 30
0.0
 10
7.1449742659
 20
9.1043178113
 30
0.0
 10
7.145585144
 20
9.0972759878
 30
0.0
 10
7.146286953
 20
9.0904321877
 30
0.0
 10
7.1470782819
 20
9.0838001444
 30
0.0
 10
7.1479574922
 20
9.0773931782
 30
0.0
 10
7.1489228349
 20
9.0712241424
 30
0.0
 10
7.1499723038
 20
9.0653054033
 30
0.0
 10
7.1511037896
 20
9.0596488141
 30
0.0
 10
7.1523149897
 20
9.0542656872
 30
0.0
 10
7.1536034156
 20
9.0491667624
 30
0.0
 10
7.1549665035
 20
9.0443621901
 30
0.0
 10
7.1564014483
 20
9.0398614845
 30
0.0
 10
7.1579054027
 20
9.0356735185
 30
0.0
 10
7.1594753811
 20
9.0318064798
 30
0.0
 10
7.1611082892
 20
9.0282678285
 30
0.0
 10
7.1628011108
 20
9.0250643237
 30
0.0
 10
7.1645507475
 20
9.0222019301
 30
0.0
 10
7.166354394
 20
9.0196859301
 30
0.0
 10
7.1682094468
 20
9.0175210044
 30
0.0
 10
7.1701139004
 20
9.0157113994
 30
0.0
 10
7.1720655815
 20
9.0142618095
 30
0.0
 10
7.1737541907
 20
9.0133453443
 30
0.0
 10
7.1751149799
 20
9.0128096341
 30
0.0
 10
7.176129979
 20
9.0125057246
 30
0.0
 10
7.1771526793
 20
9.0122945879
 30
0.0
 10
7.1778403245
 20
9.0122156956
 30
0.0
 10
7.1781837367
 20
9.0121918763
 30
0.0
  0
SPLINE
  5
2FB
100
AcDbEntity
  8
0
100
AcDbSpline
 62
7
  6
CONTINUOUS
 70
0
 71
3
 72
30
 73
26
 74
0
 42
0.0000001
 43
0.0000001
 44
0.0000000001
 40
0.0
 40
0.0
 40
0.0
 40
0.0
 40
0.0641873947
 40
0.1282571404
 40
0.1921801983
 40
0.2559219391
 40
0.3194442398
 40
0.35111495
 40
0.3827167627
 40
0.4142454031
 40
0.4456973862
 40
0.4770700415
 40
0.5083616138
 40
0.5395715566
 40
0.5707004548
 40
0.6017499176
 40
0.6327226987
 40
0.6636224043
 40
0.6944531523
 40
0.7252196611
 40
0.7559269779
 40
0.817177256
 40
0.8782507484
 40
0.9391818505
 40
1.0
 40
1.0
 40
1.0
 40
1.0
 10
7.5223975333
 20
8.9407614428
 30
0.0
 10
7.5193490828
 20
8.9470697545
 30
0.0
 10
7.5134656758
 20
8.9597769573
 30
0.0
 10
7.5053833128
 20
8.9791406158
 30
0.0
 10
7.4981755202
 20
8.9987971002
 30
0.0
 10
7.4919818628
 20
9.0187355505
 30
0.0
 10
7.487784038
 20
9.035580313
 30
0.0
 10
7.4850803643
 20
9.0491559028
 30
0.0
 10
7.4833972245
 20
9.0593680471
 30
0.0
 10
7.4820714094
 20
9.0696086905
 30
0.0
 10
7.4811149702
 20
9.0798654386
 30
0.0
 10
7.4805371607
 20
9.0901246394
 30
0.0
 10
7.4803435958
 20
9.1003719107
 30
0.0
 10
7.480536156
 20
9.1105926083
 30
0.0
 10
7.4811130124
 20
9.1207723403
 30
0.0
 10
7.4820685949
 20
9.1308974617
 30
0.0
 10
7.4833936923
 20
9.1409555471
 30
0.0
 10
7.4850762382
 20
9.1509357159
 30
0.0
 10
7.4871017751
 20
9.1608288102
 30
0.0
 10
7.4894538816
 20
9.1706277017
 30
0.0
 10
7.4929985294
 20
9.1835479539
 30
0.0
 10
7.4981561978
 20
9.1994465719
 30
0.0
 10
7.5053655014
 20
9.2181143138
 30
0.0
 10
7.5134499939
 20
9.236366397
 30
0.0
 10
7.5193443078
 20
9.2482815274
 30
0.0
 10
7.5223975333
 20
9.2541762365
 30
0.0
  0
SPLINE
  5
2FC
100
AcDbEntity
  8
0
100
AcDbSpline
 62
7
  6
CONTINUOUS
 70
0
 71
3
 72
31
 73
27
 74
0
 42
0.0000001
 43
0.0000001
 44
0.0000000001
 40
0.0
 40
0.0
 40
0.0
 40
0.0
 40
0.0575418233
 40
0.0862428791
 40
0.114908748
 40
0.1721837666
 40
0.2008389578
 40
0.2295341389
 40
0.258297569
 40
0.2871612273
 40
0.3161607118
 40
0.3453341652
 40
0.3747211339
 40
0.4043614669
 40
0.4342935677
 40
0.4645525326
 40
0.495168904
 40
0.5261673793
 40
0.5575658013
 40
0.5893749746
 40
0.6542229251
 40
0.7206857544
 40
0.7886512563
 40
0.8579678313
 40
0.9284705686
 40
1.0
 40
1.0
 40
1.0
 40
1.0
 10
7.5223975333
 20
9.2541762365
 30
0.0
 10
7.5207725964
 20
9.2587779736
 30
0.0
 10
7.5185077808
 20
9.2657377563
 30
0.0
 10
7.5158955876
 20
9.2751280446
 30
0.0
 10
7.5135809584
 20
9.2845726361
 30
0.0
 10
7.5117384346
 20
9.2941253981
 30
0.0
 10
7.510440846
 20
9.3037620156
 30
0.0
 10
7.5097567027
 20
9.3110354946
 30
0.0
 10
7.5093796549
 20
9.3183491653
 30
0.0
 10
7.509326673
 20
9.3256984109
 30
0.0
 10
7.5096138093
 20
9.3330772309
 30
0.0
 10
7.5102555213
 20
9.3404784216
 30
0.0
 10
7.5112638813
 20
9.3478936084
 30
0.0
 10
7.5126482645
 20
9.3553134166
 30
0.0
 10
7.514414883
 20
9.3627276761
 30
0.0
 10
7.5165660882
 20
9.3701258143
 30
0.0
 10
7.5191004783
 20
9.3774971969
 30
0.0
 10
7.5220129686
 20
9.384831429
 30
0.0
 10
7.5252949225
 20
9.3921189231
 30
0.0
 10
7.5301781968
 20
9.4018228885
 30
0.0
 10
7.537153931
 20
9.4137874965
 30
0.0
 10
7.5466990909
 20
9.4277494692
 30
0.0
 10
7.5573216802
 20
9.4413907816
 30
0.0
 10
7.5688728432
 20
9.4547087512
 30
0.0
 10
7.5812157509
 20
9.4677136217
 30
0.0
 10
7.5898357699
 20
9.4761319563
 30
0.0
 10
7.5942431158
 20
9.4803006373
 30
0.0
  0
LINE
  5
2FD
100
AcDbEntity
  8
0
100
AcDbLine
 62
7
  6
CONTINUOUS
 10
7.5942431158
 20
9.4803006373
 11
7.595125625
 21
9.4811335795
  0
SPLINE
  5
2FE
100
AcDbEntity
  8
0
100
AcDbSpline
 62
7
  6
CONTINUOUS
 70
0
 71
3
 72
16
 73
12
 74
0
 42
0.0000001
 43
0.0000001
 44
0.0000000001
 40
0.0
 40
0.0
 40
0.0
 40
0.0
 40
0.1081436914
 40
0.2181182203
 40
0.3316583768
 40
0.4503242654
 40
0.5120304557
 40
0.5755052524
 40
0.7082521668
 40
0.8495191761
 40
1.0
 40
1.0
 40
1.0
 40
1.0
 10
7.5410777616
 20
9.4376047071
 30
0.0
 10
7.5403296195
 20
9.4376565915
 30
0.0
 10
7.5388115973
 20
9.4376583013
 30
0.0
 10
7.5365256975
 20
9.4373529155
 30
0.0
 10
7.5342268242
 20
9.4367412567
 30
0.0
 10
7.5323280363
 20
9.4359881229
 30
0.0
 10
7.5308095543
 20
9.4352427226
 30
0.0
 10
7.5292449852
 20
9.434374502
 30
0.0
 10
7.5272829095
 20
9.4330923554
 30
0.0
 10
7.5249600754
 20
9.4312795031
 30
0.0
 10
7.5234599047
 20
9.429919185
 30
0.0
 10
7.5227093392
 20
9.4291941944
 30
0.0
  0
SPLINE
  5
2FF
100
AcDbEntity
  8
0
100
AcDbSpline
 62
7
  6
CONTINUOUS
 70
0
 71
3
 72
14
 73
10
 74
0
 42
0.0000001
 43
0.0000001
 44
0.0000000001
 40
0.0
 40
0.0
 40
0.0
 40
0.0
 40
0.1443875083
 40
0.2824924396
 40
0.5409516855
 40
0.6622010991
 40
0.7787330671
 40
0.8911180501
 40
1.0
 40
1.0
 40
1.0
 40
1.0
 10
7.5173967468
 20
9.4348752163
 30
0.0
 10
7.5179411422
 20
9.4354010619
 30
0.0
 10
7.5190296403
 20
9.4364062361
 30
0.0
 10
7.5212072698
 20
9.4382235462
 30
0.0
 10
7.5234304745
 20
9.4397946331
 30
0.0
 10
7.5256954979
 20
9.4410774823
 30
0.0
 10
7.5273544312
 20
9.4418672542
 30
0.0
 10
7.5290084654
 20
9.4425043838
 30
0.0
 10
7.530122971
 20
9.4428315924
 30
0.0
 10
7.5306771761
 20
9.4429680859
 30
0.0
  0
SPLINE
  5
300
100
AcDbEntity
  8
0
100
AcDbSpline
 62
7
  6
CONTINUOUS
 70
0
 71
3
 72
11
 73
7
 74
0
 42
0.0000001
 43
0.0000001
 44
0.0000000001
 40
0.0
 40
0.0
 40
0.0
 40
0.0
 40
0.2550658971
 40
0.505816593
 40
0.7536457876
 40
1.0
 40
1.0
 40
1.0
 40
1.0
 10
7.5306771761
 20
9.4429680859
 30
0.0
 10
7.5311321787
 20
9.4430801471
 30
0.0
 10
7.5320429281
 20
9.4432697819
 30
0.0
 10
7.5334173081
 20
9.4434482212
 30
0.0
 10
7.53478549
 20
9.4435177061
 30
0.0
 10
7.535694149
 20
9.4434912717
 30
0.0
 10
7.5361456588
 20
9.4434599597
 30
0.0
  0
SPLINE
  5
301
100
AcDbEntity
  8
0
100
AcDbSpline
 62
7
  6
CONTINUOUS
 70
0
 71
3
 72
16
 73
12
 74
0
 42
0.0000001
 43
0.0000001
 44
0.0000000001
 40
0.0
 40
0.0
 40
0.0
 40
0.0
 40
0.1504807822
 40
0.2917477769
 40
0.4244946892
 40
0.4879694907
 40
0.5496756925
 40
0.668341624
 40
0.7818818185
 40
0.8918563437
 40
1.0
 40
1.0
 40
1.0
 40
1.0
 10
7.5116011915
 20
9.4352771394
 30
0.0
 10
7.5123673033
 20
9.4360171466
 30
0.0
 10
7.5138985467
 20
9.4374056409
 30
0.0
 10
7.5162694928
 20
9.4392560433
 30
0.0
 10
7.518272208
 20
9.4405647484
 30
0.0
 10
7.5198691834
 20
9.4414509539
 30
0.0
 10
7.5214191173
 20
9.4422117957
 30
0.0
 10
7.5233572344
 20
9.4429805321
 30
0.0
 10
7.5257037235
 20
9.443604865
 30
0.0
 10
7.5280369704
 20
9.4439165823
 30
0.0
 10
7.5295864352
 20
9.4439148416
 30
0.0
 10
7.5303500735
 20
9.443861885
 30
0.0
  0
SPLINE
  5
302
100
AcDbEntity
  8
0
100
AcDbSpline
 62
7
  6
CONTINUOUS
 70
0
 71
3
 72
62
 73
58
 74
0
 42
0.0000001
 43
0.0000001
 44
0.0000000001
 40
0.0
 40
0.0
 40
0.0
 40
0.0
 40
0.0027165042
 40
0.0054533871
 40
0.008230529
 40
0.0110669064
 40
0.0169823641
 40
0.0233276125
 40
0.0301994107
 40
0.0376703957
 40
0.0457929056
 40
0.054602981
 40
0.0641240147
 40
0.0743694051
 40
0.0853445931
 40
0.0970487652
 40
0.1094758697
 40
0.1226154649
 40
0.1364535131
 40
0.1509727403
 40
0.1661530446
 40
0.1819719302
 40
0.1984046306
 40
0.2154243611
 40
0.2330025906
 40
0.2511090874
 40
0.2697121162
 40
0.2887786211
 40
0.328162651
 40
0.3689747504
 40
0.4109129495
 40
0.4536641523
 40
0.4969073812
 40
0.5403168934
 40
0.5835653687
 40
0.6263270322
 40
0.6682807774
 40
0.7091133798
 40
0.7485226592
 40
0.7676034818
 40
0.7862219139
 40
0.8043448623
 40
0.8219405315
 40
0.8389786511
 40
0.8554306329
 40
0.8712696219
 40
0.8864708
 40
0.901011585
 40
0.9148717854
 40
0.9280340566
 40
0.9404842242
 40
0.9522117163
 40
0.9632103949
 40
0.9734791504
 40
0.9830231788
 40
0.9918561628
 40
1.0
 40
1.0
 40
1.0
 40
1.0
 10
7.5043409168
 20
8.9078770375
 30
0.0
 10
7.5038453941
 20
8.9079114025
 30
0.0
 10
7.5028531683
 20
8.9080252597
 30
0.0
 10
7.5013774761
 20
8.9083298841
 30
0.0
 10
7.4999128795
 20
8.9087683438
 30
0.0
 10
7.4979493707
 20
8.9095413722
 30
0.0
 10
7.4955127746
 20
8.9108636777
 30
0.0
 10
7.4926966634
 20
8.9129553702
 30
0.0
 10
7.489948617
 20
8.9155664365
 30
0.0
 10
7.4872718987
 20
8.9186902642
 30
0.0
 10
7.4846693611
 20
8.9223206663
 30
0.0
 10
7.4821447144
 20
8.9264508722
 30
0.0
 10
7.4797020987
 20
8.931073304
 30
0.0
 10
7.4773458968
 20
8.9361793182
 30
0.0
 10
7.4750805158
 20
8.9417591806
 30
0.0
 10
7.4729103994
 20
8.9478021207
 30
0.0
 10
7.4708398551
 20
8.9542963262
 30
0.0
 10
7.4688730108
 20
8.9612289938
 30
0.0
 10
7.4670138696
 20
8.968586393
 30
0.0
 10
7.4652661957
 20
8.9763538822
 30
0.0
 10
7.4636335187
 20
8.9845159574
 30
0.0
 10
7.4621191879
 20
8.9930563021
 30
0.0
 10
7.4607262746
 20
9.001957812
 30
0.0
 10
7.459457599
 20
9.0112026391
 30
0.0
 10
7.4583157683
 20
9.0207722384
 30
0.0
 10
7.4573030997
 20
9.0306473926
 30
0.0
 10
7.4564216187
 20
9.0408082845
 30
0.0
 10
7.4554128757
 20
9.0548618035
 30
0.0
 10
7.4545022504
 20
9.0729916086
 30
0.0
 10
7.4539645658
 20
9.0953196843
 30
0.0
 10
7.4539753605
 20
9.1182698503
 30
0.0
 10
7.4545347481
 20
9.1416577092
 30
0.0
 10
7.4556384324
 20
9.1652954746
 30
0.0
 10
7.4572776098
 20
9.1889932694
 30
0.0
 10
7.4594391103
 20
9.2125607446
 30
0.0
 10
7.4621055133
 20
9.235808594
 30
0.0
 10
7.4652552248
 20
9.258550183
 30
0.0
 10
7.4688627335
 20
9.2806028154
 30
0.0
 10
7.4722615173
 20
9.2984456305
 30
0.0
 10
7.475196182
 20
9.3122365701
 30
0.0
 10
7.4774688139
 20
9.3221878585
 30
0.0
 10
7.4798320839
 20
9.3318386687
 30
0.0
 10
7.4822812667
 20
9.3411696298
 30
0.0
 10
7.4848114037
 20
9.3501620102
 30
0.0
 10
7.4874173649
 20
9.3587977782
 30
0.0
 10
7.4900939076
 20
9.3670596194
 30
0.0
 10
7.4928356155
 20
9.3749309966
 30
0.0
 10
7.4956369325
 20
9.3823961825
 30
0.0
 10
7.4984922345
 20
9.3894402786
 30
0.0
 10
7.5013957562
 20
9.3960492802
 30
0.0
 10
7.5043416513
 20
9.4022101063
 30
0.0
 10
7.5073240692
 20
9.4079106147
 30
0.0
 10
7.5103371102
 20
9.4131396745
 30
0.0
 10
7.5133748435
 20
9.4178871535
 30
0.0
 10
7.5164317044
 20
9.4221441737
 30
0.0
 10
7.5195017652
 20
9.4259022316
 30
0.0
 10
7.5216382967
 20
9.4281596467
 30
0.0
 10
7.5227093392
 20
9.4291941944
 30
0.0
  0
SPLINE
  5
303
100
AcDbEntity
  8
0
100
AcDbSpline
 62
7
  6
CONTINUOUS
 70
0
 71
3
 72
56
 73
52
 74
0
 42
0.0000001
 43
0.0000001
 44
0.0000000001
 40
0.0
 40
0.0
 40
0.0
 40
0.0
 40
0.0075208318
 40
0.0156241686
 40
0.0243311143
 40
0.0336549347
 40
0.0436028223
 40
0.054176862
 40
0.0653749592
 40
0.0771916155
 40
0.0896182184
 40
0.1026437109
 40
0.116254708
 40
0.1304358215
 40
0.1451699415
 40
0.1604382349
 40
0.1762205126
 40
0.1924951573
 40
0.209239347
 40
0.2264291847
 40
0.2620439991
 40
0.2991297326
 40
0.3374628132
 40
0.3768092002
 40
0.4169265273
 40
0.4575662322
 40
0.4984755732
 40
0.5393996934
 40
0.580083585
 40
0.6202741785
 40
0.6597223131
 40
0.6981848124
 40
0.7354265575
 40
0.7712226396
 40
0.8053606578
 40
0.8217460663
 40
0.8376442427
 40
0.8530333599
 40
0.8678928362
 40
0.8822035203
 40
0.8959479178
 40
0.9091101677
 40
0.9216764758
 40
0.9336351493
 40
0.9449770073
 40
0.9556958303
 40
0.9657886189
 40
0.9752563871
 40
0.9841051152
 40
0.992346999
 40
1.0
 40
1.0
 40
1.0
 40
1.0
 10
7.5033216454
 20
8.9169721056
 30
0.0
 10
7.5024854338
 20
8.918000269
 30
0.0
 10
7.5008378493
 20
8.9202100163
 30
0.0
 10
7.4985192406
 20
8.9238197455
 30
0.0
 10
7.4962668673
 20
8.9278393991
 30
0.0
 10
7.4940842302
 20
8.9322623569
 30
0.0
 10
7.4919746839
 20
8.9370817629
 30
0.0
 10
7.4899416028
 20
8.9422898811
 30
0.0
 10
7.4879882696
 20
8.9478783136
 30
0.0
 10
7.4861179558
 20
8.9538379793
 30
0.0
 10
7.4843337104
 20
8.9601591217
 30
0.0
 10
7.4826385547
 20
8.9668313663
 30
0.0
 10
7.4810353082
 20
8.9738437195
 30
0.0
 10
7.4795266441
 20
8.9811846036
 30
0.0
 10
7.4781151308
 20
8.9888418811
 30
0.0
 10
7.4768030918
 20
8.996802873
 30
0.0
 10
7.4755927652
 20
9.0050543873
 30
0.0
 10
7.4744861715
 20
9.0135827363
 30
0.0
 10
7.4734851387
 20
9.0223737841
 30
0.0
 10
7.4722793011
 20
9.0345702206
 30
0.0
 10
7.4710574876
 20
9.0503651685
 30
0.0
 10
7.4700503887
 20
9.0699069097
 30
0.0
 10
7.4694927655
 20
9.0901243694
 30
0.0
 10
7.4693885087
 20
9.110883304
 30
0.0
 10
7.4697384964
 20
9.1320459823
 30
0.0
 10
7.4705405209
 20
9.1534719025
 30
0.0
 10
7.4717893288
 20
9.1750188097
 30
0.0
 10
7.4734766567
 20
9.1965436266
 30
0.0
 10
7.4755912817
 20
9.2179034307
 30
0.0
 10
7.4781190943
 20
9.2389564051
 30
0.0
 10
7.4810431994
 20
9.2595628076
 30
0.0
 10
7.4843440254
 20
9.2795858854
 30
0.0
 10
7.4879994348
 20
9.2988928867
 30
0.0
 10
7.4919849268
 20
9.3173556994
 30
0.0
 10
7.4956065721
 20
9.3321315204
 30
0.0
 10
7.4986586501
 20
9.3434314961
 30
0.0
 10
7.5009818421
 20
9.3515049256
 30
0.0
 10
7.5033665328
 20
9.3592795978
 30
0.0
 10
7.5058087851
 20
9.3667426384
 30
0.0
 10
7.5083045291
 20
9.3738816871
 30
0.0
 10
7.5108495674
 20
9.3806849467
 30
0.0
 10
7.5134397057
 20
9.3871411761
 30
0.0
 10
7.5160705895
 20
9.3932397496
 30
0.0
 10
7.5187378682
 20
9.3989706441
 30
0.0
 10
7.5214371375
 20
9.4043244828
 30
0.0
 10
7.5241639194
 20
9.4092925676
 30
0.0
 10
7.5269138344
 20
9.4138668352
 30
0.0
 10
7.5296823669
 20
9.418039978
 30
0.0
 10
7.5324653561
 20
9.4218055125
 30
0.0
 10
7.5352583123
 20
9.4251571232
 30
0.0
 10
7.5371941873
 20
9.4271854841
 30
0.0
 10
7.5381641533
 20
9.4281223994
 30
0.0
  0
SPLINE
  5
304
100
AcDbEntity
  8
0
100
AcDbSpline
 62
7
  6
CONTINUOUS
 70
0
 71
3
 72
24
 73
20
 74
0
 42
0.0000001
 43
0.0000001
 44
0.0000000001
 40
0.0
 40
0.0
 40
0.0
 40
0.0
 40
0.0756819649
 40
0.1115466391
 40
0.146178175
 40
0.2120441248
 40
0.2740399652
 40
0.333023813
 40
0.3899240085
 40
0.4456793023
 40
0.5011737554
 40
0.5571823295
 40
0.6143392364
 40
0.6731300837
 40
0.7339003389
 40
0.7968763554
 40
0.8621896715
 40
0.9298970733
 40
1.0
 40
1.0
 40
1.0
 40
1.0
 10
7.5162673907
 20
8.9010546624
 30
0.0
 10
7.515540659
 20
8.9019481911
 30
0.0
 10
7.514517248
 20
8.9033057631
 30
0.0
 10
7.51329987
 20
8.905168483
 30
0.0
 10
7.5122470505
 20
8.9069575102
 30
0.0
 10
7.5111509156
 20
8.9091796253
 30
0.0
 10
7.5101821126
 20
8.9118597236
 30
0.0
 10
7.50957477
 20
8.9145049929
 30
0.0
 10
7.5093185386
 20
8.917111765
 30
0.0
 10
7.5093996855
 20
8.9196765041
 30
0.0
 10
7.5098016585
 20
8.922196489
 30
0.0
 10
7.5105062637
 20
8.9246704209
 30
0.0
 10
7.5114945967
 20
8.9270985199
 30
0.0
 10
7.5127481735
 20
8.9294820882
 30
0.0
 10
7.5142492854
 20
8.931823033
 30
0.0
 10
7.5159811624
 20
8.9341235074
 30
0.0
 10
7.5179281237
 20
8.9363856073
 30
0.0
 10
7.5200751832
 20
8.9386114181
 30
0.0
 10
7.5216045905
 20
8.9400477152
 30
0.0
 10
7.5223975333
 20
8.9407614428
 30
0.0
  0
SPLINE
  5
305
100
AcDbEntity
  8
0
100
AcDbSpline
 62
7
  6
CONTINUOUS
 70
0
 71
3
 72
62
 73
58
 74
0
 42
0.0000001
 43
0.0000001
 44
0.0000000001
 40
0.0
 40
0.0
 40
0.0
 40
0.0
 40
0.0027165047
 40
0.0054533875
 40
0.0082305285
 40
0.0110669038
 40
0.0169823553
 40
0.0233275977
 40
0.0301993881
 40
0.0376703631
 40
0.0457928646
 40
0.0546029311
 40
0.0641239546
 40
0.0743693359
 40
0.0853445157
 40
0.0970486793
 40
0.1094757748
 40
0.1226153626
 40
0.1364534053
 40
0.1509726246
 40
0.1661529224
 40
0.1819718056
 40
0.1984044999
 40
0.2154242247
 40
0.2330024542
 40
0.2511089473
 40
0.2697119716
 40
0.2887784778
 40
0.3281625041
 40
0.3689746064
 40
0.4109128061
 40
0.4536640159
 40
0.4969072489
 40
0.5403167688
 40
0.5835652566
 40
0.626326926
 40
0.6682806841
 40
0.7091132978
 40
0.748522587
 40
0.767603415
 40
0.7862218537
 40
0.8043448076
 40
0.8219404802
 40
0.8389786063
 40
0.8554305946
 40
0.8712695858
 40
0.8864707694
 40
0.9010115609
 40
0.914871763
 40
0.9280340381
 40
0.9404842113
 40
0.952211705
 40
0.9632103861
 40
0.9734791455
 40
0.9830231756
 40
0.991856161
 40
1.0
 40
1.0
 40
1.0
 40
1.0
 10
7.4928523096
 20
8.903160565
 30
0.0
 10
7.4923465217
 20
8.9031956403
 30
0.0
 10
7.4913337407
 20
8.9033118531
 30
0.0
 10
7.4898274776
 20
8.9036227833
 30
0.0
 10
7.48833254
 20
8.9040703213
 30
0.0
 10
7.486328355
 20
8.904859357
 30
0.0
 10
7.4838412818
 20
8.9062090475
 30
0.0
 10
7.4809668314
 20
8.9083440627
 30
0.0
 10
7.4781618552
 20
8.9110092106
 30
0.0
 10
7.4754296851
 20
8.914197743
 30
0.0
 10
7.4727732325
 20
8.9179033442
 30
0.0
 10
7.470196284
 20
8.9221191031
 30
0.0
 10
7.4677030661
 20
8.9268372851
 30
0.0
 10
7.465298052
 20
8.9320490677
 30
0.0
 10
7.4629857401
 20
8.937744515
 30
0.0
 10
7.4607706664
 20
8.9439126333
 30
0.0
 10
7.4586572273
 20
8.9505413656
 30
0.0
 10
7.4566496366
 20
8.9576176437
 30
0.0
 10
7.4547519801
 20
8.9651274523
 30
0.0
 10
7.4529680998
 20
8.9730558465
 30
0.0
 10
7.451301599
 20
8.9813870014
 30
0.0
 10
7.4497558959
 20
8.9901042625
 30
0.0
 10
7.4483341255
 20
8.9991901707
 30
0.0
 10
7.4470391666
 20
9.0086265086
 30
0.0
 10
7.4458736802
 20
9.0183943471
 30
0.0
 10
7.4448400316
 20
9.0284740707
 30
0.0
 10
7.4439402885
 20
9.0388454514
 30
0.0
 10
7.4429106464
 20
9.0531900979
 30
0.0
 10
7.4419811541
 20
9.0716954751
 30
0.0
 10
7.4414323281
 20
9.094486093
 30
0.0
 10
7.4414433436
 20
9.1179116905
 30
0.0
 10
7.442014317
 20
9.1417840482
 30
0.0
 10
7.4431408628
 20
9.1659114907
 30
0.0
 10
7.444813995
 20
9.1901002074
 30
0.0
 10
7.4470202711
 20
9.214155905
 30
0.0
 10
7.4497419094
 20
9.2378853566
 30
0.0
 10
7.4529568682
 20
9.26109806
 30
0.0
 10
7.4566391087
 20
9.2836075352
 30
0.0
 10
7.4601083003
 20
9.3018199824
 30
0.0
 10
7.4631037586
 20
9.3158966156
 30
0.0
 10
7.4654234697
 20
9.3260540555
 30
0.0
 10
7.4678356966
 20
9.3359047922
 30
0.0
 10
7.470335616
 20
9.345429054
 30
0.0
 10
7.472918167
 20
9.3546077212
 30
0.0
 10
7.4755781127
 20
9.3634223883
 30
0.0
 10
7.4783101022
 20
9.3718553823
 30
0.0
 10
7.481108607
 20
9.3798898235
 30
0.0
 10
7.4839679557
 20
9.3875096587
 30
0.0
 10
7.4868824076
 20
9.3946996808
 30
0.0
 10
7.4898460785
 20
9.4014455947
 30
0.0
 10
7.4928530004
 20
9.4077340489
 30
0.0
 10
7.4958972016
 20
9.4135526493
 30
0.0
 10
7.4989726606
 20
9.4188900343
 30
0.0
 10
7.5020733233
 20
9.4237358623
 30
0.0
 10
7.5051935099
 20
9.4280810709
 30
0.0
 10
7.5083271698
 20
9.4319169805
 30
0.0
 10
7.5105079614
 20
9.4342211601
 30
0.0
 10
7.5116011915
 20
9.4352771394
 30
0.0
  0
SPLINE
  5
306
100
AcDbEntity
  8
0
100
AcDbSpline
 62
7
  6
CONTINUOUS
 70
0
 71
3
 72
11
 73
7
 74
0
 42
0.0000001
 43
0.0000001
 44
0.0000000001
 40
0.0
 40
0.0
 40
0.0
 40
0.0
 40
0.2463634147
 40
0.4941983901
 40
0.7449473297
 40
1.0
 40
1.0
 40
1.0
 40
1.0
 10
7.4986478349
 20
8.902758644
 30
0.0
 10
7.4981968894
 20
8.9027899168
 30
0.0
 10
7.4972944135
 20
8.902888997
 30
0.0
 10
7.4959505956
 20
8.9031461598
 30
0.0
 10
7.4946156563
 20
8.9035118103
 30
0.0
 10
7.4937408512
 20
8.903824637
 30
0.0
 10
7.4933061919
 20
8.9039980405
 30
0.0
  0
SPLINE
  5
307
100
AcDbEntity
  8
0
100
AcDbSpline
 62
7
  6
CONTINUOUS
 70
0
 71
3
 72
59
 73
55
 74
0
 42
0.0000001
 43
0.0000001
 44
0.0000000001
 40
0.0
 40
0.0
 40
0.0
 40
0.0
 40
0.0057266732
 40
0.0118372266
 40
0.0184276498
 40
0.0255714442
 40
0.0333225879
 40
0.0417192967
 40
0.0507873149
 40
0.0605424055
 40
0.0709925994
 40
0.0821396423
 40
0.0939800596
 40
0.1065062158
 40
0.1197068072
 40
0.1335673907
 40
0.148070899
 40
0.1631977794
 40
0.1789263627
 40
0.1952330969
 40
0.2120925972
 40
0.229477952
 40
0.2473607921
 40
0.2657113714
 40
0.3036901667
 40
0.3431553432
 40
0.3838324687
 40
0.425435665
 40
0.4676704599
 40
0.5102366267
 40
0.5528309272
 40
0.5951498774
 40
0.636892483
 40
0.6777630041
 40
0.7174737463
 40
0.755747922
 40
0.7742640099
 40
0.7923236396
 40
0.809896654
 40
0.8269541911
 40
0.8434687129
 40
0.8594143108
 40
0.8747667356
 40
0.8895035329
 40
0.9036044187
 40
0.9170513354
 40
0.9298287973
 40
0.9419243536
 40
0.9533288788
 40
0.9640373195
 40
0.974049317
 40
0.9833703579
 40
0.9920137053
 40
1.0
 40
1.0
 40
1.0
 40
1.0
 10
7.4933061919
 20
8.9039980405
 30
0.0
 10
7.4923232183
 20
8.904390189
 30
0.0
 10
7.4903555441
 20
8.9053687081
 30
0.0
 10
7.4875449883
 20
8.907308124
 30
0.0
 10
7.4847986333
 20
8.9097507201
 30
0.0
 10
7.4821201126
 20
8.9126899732
 30
0.0
 10
7.479511844
 20
8.9161201227
 30
0.0
 10
7.4769772961
 20
8.9200350302
 30
0.0
 10
7.4745202821
 20
8.9244278916
 30
0.0
 10
7.4721448219
 20
8.9292909338
 30
0.0
 10
7.4698551151
 20
8.9346154582
 30
0.0
 10
7.4676553491
 20
8.9403917784
 30
0.0
 10
7.4655495815
 20
8.9466092466
 30
0.0
 10
7.4635418273
 20
8.9532563237
 30
0.0
 10
7.4616358978
 20
8.9603205803
 30
0.0
 10
7.4598354146
 20
8.9677887477
 30
0.0
 10
7.4581438681
 20
8.9756467626
 30
0.0
 10
7.4565644802
 20
8.9838797829
 30
0.0
 10
7.4551002817
 20
8.9924722365
 30
0.0
 10
7.4537541168
 20
9.0014078537
 30
0.0
 10
7.45252854
 20
9.0106696959
 30
0.0
 10
7.4514259257
 20
9.020240192
 30
0.0
 10
7.4504483828
 20
9.0301011971
 30
0.0
 10
7.449301199
 20
9.043768237
 30
0.0
 10
7.44820352
 20
9.0614398044
 30
0.0
 10
7.4474221132
 20
9.0832572384
 30
0.0
 10
7.4471684321
 20
9.1057569508
 30
0.0
 10
7.4474446208
 20
9.1287681008
 30
0.0
 10
7.4482487772
 20
9.1521160875
 30
0.0
 10
7.4495748991
 20
9.1756236569
 30
0.0
 10
7.4514129694
 20
9.1991123422
 30
0.0
 10
7.4537490066
 20
9.2224038225
 30
0.0
 10
7.4565651741
 20
9.2453212849
 30
0.0
 10
7.4598399163
 20
9.2676908531
 30
0.0
 10
7.4635481825
 20
9.2893426874
 30
0.0
 10
7.4670129709
 20
9.306839044
 30
0.0
 10
7.4699889058
 20
9.3203480736
 30
0.0
 10
7.4722861063
 20
9.3300881068
 30
0.0
 10
7.4746687385
 20
9.3395298551
 30
0.0
 10
7.4771322609
 20
9.3486554177
 30
0.0
 10
7.4796719948
 20
9.3574474768
 30
0.0
 10
7.4822830717
 20
9.3658893728
 30
0.0
 10
7.484960499
 20
9.37396512
 30
0.0
 10
7.4876991957
 20
9.3816594339
 30
0.0
 10
7.4904939027
 20
9.3889577917
 30
0.0
 10
7.4933393038
 20
9.3958464375
 30
0.0
 10
7.4962300065
 20
9.4023124178
 30
0.0
 10
7.4991604899
 20
9.4083436475
 30
0.0
 10
7.5021252589
 20
9.4139288962
 30
0.0
 10
7.5051187952
 20
9.4190578399
 30
0.0
 10
7.5081355083
 20
9.4237210962
 30
0.0
 10
7.5111701956
 20
9.4279104064
 30
0.0
 10
7.5142172801
 20
9.4316178276
 30
0.0
 10
7.5163352029
 20
9.4338498435
 30
0.0
 10
7.5173967468
 20
9.4348752163
 30
0.0
  0
SPLINE
  5
308
100
AcDbEntity
  8
0
100
AcDbSpline
 62
7
  6
CONTINUOUS
 70
0
 71
3
 72
16
 73
12
 74
0
 42
0.0000001
 43
0.0000001
 44
0.0000000001
 40
0.0
 40
0.0
 40
0.0
 40
0.0
 40
0.1081438774
 40
0.2181189623
 40
0.3316584607
 40
0.4503230796
 40
0.5120290762
 40
0.5755041453
 40
0.7082541584
 40
0.849522722
 40
1.0
 40
1.0
 40
1.0
 40
1.0
 10
7.2036438597
 20
9.3793100661
 30
0.0
 10
7.2031253672
 20
9.3793460291
 30
0.0
 10
7.2020733132
 20
9.3793472642
 30
0.0
 10
7.2004890974
 20
9.3791355851
 30
0.0
 10
7.1988958834
 20
9.3787117311
 30
0.0
 10
7.1975799549
 20
9.378189786
 30
0.0
 10
7.196527591
 20
9.3776731997
 30
0.0
 10
7.1954432633
 20
9.377071492
 30
0.0
 10
7.1940834526
 20
9.3761828921
 30
0.0
 10
7.1924736334
 20
9.3749265108
 30
0.0
 10
7.1914339574
 20
9.3739837691
 30
0.0
 10
7.1909137982
 20
9.3734813338
 30
0.0
  0
SPLINE
  5
309
100
AcDbEntity
  8
0
100
AcDbSpline
 62
7
  6
CONTINUOUS
 70
0
 71
3
 72
47
 73
43
 74
0
 42
0.0000001
 43
0.0000001
 44
0.0000000001
 40
0.0
 40
0.0
 40
0.0
 40
0.0
 40
0.0379401057
 40
0.076276901
 40
0.1149216947
 40
0.1537874381
 40
0.1927849796
 40
0.2318253635
 40
0.270819302
 40
0.3096776962
 40
0.3483118623
 40
0.3866337452
 40
0.4245561903
 40
0.4619932387
 40
0.4988603824
 40
0.5350747888
 40
0.5705556096
 40
0.6052242905
 40
0.639004819
 40
0.6718240176
 40
0.7036118909
 40
0.7343019833
 40
0.7638317336
 40
0.7921429142
 40
0.8191821422
 40
0.8449014607
 40
0.8572531905
 40
0.8692598003
 40
0.880917174
 40
0.8922217254
 40
0.9031703496
 40
0.9137606563
 40
0.9239907941
 40
0.933859749
 40
0.9433672452
 40
0.9525139267
 40
0.961301494
 40
0.9697327018
 40
0.9778117228
 40
0.9855440894
 40
0.9929371154
 40
1.0
 40
1.0
 40
1.0
 40
1.0
 10
7.6592316813
 20
9.0041113362
 30
0.0
 10
7.6592316813
 20
9.0136125203
 30
0.0
 10
7.659358733
 20
9.0327144524
 30
0.0
 10
7.6599217922
 20
9.0614890529
 30
0.0
 10
7.6608571757
 20
9.0904859168
 30
0.0
 10
7.6621625555
 20
9.1196340886
 30
0.0
 10
7.663834805
 20
9.1488627406
 30
0.0
 10
7.6658698313
 20
9.1781005543
 30
0.0
 10
7.6682626867
 20
9.2072763
 30
0.0
 10
7.6710075318
 20
9.2363188661
 30
0.0
 10
7.674097666
 20
9.2651574804
 30
0.0
 10
7.6775255423
 20
9.2937218668
 30
0.0
 10
7.6812827856
 20
9.321942417
 30
0.0
 10
7.6853602153
 20
9.3497503695
 30
0.0
 10
7.6897478642
 20
9.3770779743
 30
0.0
 10
7.6944350054
 20
9.4038586541
 30
0.0
 10
7.6994101701
 20
9.4300271757
 30
0.0
 10
7.7046611821
 20
9.4555198156
 30
0.0
 10
7.7101751866
 20
9.4802745129
 30
0.0
 10
7.7159386798
 20
9.5042310176
 30
0.0
 10
7.7219375435
 20
9.5273310471
 30
0.0
 10
7.7281570792
 20
9.5495184432
 30
0.0
 10
7.7345820453
 20
9.5707392928
 30
0.0
 10
7.7411966877
 20
9.590942152
 30
0.0
 10
7.7479847962
 20
9.6100779142
 30
0.0
 10
7.7538485128
 20
9.6252949896
 30
0.0
 10
7.7586227776
 20
9.6368918671
 30
0.0
 10
7.7621881889
 20
9.6451769387
 30
0.0
 10
7.7657844416
 20
9.6531619277
 30
0.0
 10
7.7694093391
 20
9.6608420093
 30
0.0
 10
7.7730607282
 20
9.6682125106
 30
0.0
 10
7.7767363184
 20
9.6752689958
 30
0.0
 10
7.7804339529
 20
9.6820071766
 30
0.0
 10
7.7841513383
 20
9.6884230065
 30
0.0
 10
7.7878862552
 20
9.6945126137
 30
0.0
 10
7.7916364724
 20
9.7002723295
 30
0.0
 10
7.7953996958
 20
9.7056987263
 30
0.0
 10
7.7991737718
 20
9.7107885198
 30
0.0
 10
7.80295638
 20
9.7155387137
 30
0.0
 10
7.8067454364
 20
9.719946469
 30
0.0
 10
7.8105385791
 20
9.7240090606
 30
0.0
 10
7.8131267074
 20
9.7265425532
 30
0.0
 10
7.8144214547
 20
9.727747556
 30
0.0
  0
SPLINE
  5
30A
100
AcDbEntity
  8
0
100
AcDbSpline
 62
7
  6
CONTINUOUS
 70
0
 71
3
 72
33
 73
29
 74
0
 42
0.0000001
 43
0.0000001
 44
0.0000000001
 40
0.0
 40
0.0
 40
0.0
 40
0.0
 40
0.016214358
 40
0.0334273842
 40
0.0516717301
 40
0.0709708299
 40
0.0913403075
 40
0.1127894188
 40
0.1353216704
 40
0.1589360438
 40
0.1836271882
 40
0.2093863406
 40
0.2362014457
 40
0.2640576537
 40
0.292937592
 40
0.3228214762
 40
0.3536875786
 40
0.3855120575
 40
0.4182694891
 40
0.4519326075
 40
0.4864727488
 40
0.5218597398
 40
0.5950458438
 40
0.6712261905
 40
0.7501169486
 40
0.8314194967
 40
0.9148211594
 40
1.0
 40
1.0
 40
1.0
 40
1.0
 10
7.7350179033
 20
8.5827800014
 30
0.0
 10
7.73353966
 20
8.5845975722
 30
0.0
 10
7.7306165493
 20
8.5884470404
 30
0.0
 10
7.7264478495
 20
8.5946449332
 30
0.0
 10
7.72237079
 20
8.6014289517
 30
0.0
 10
7.7183895822
 20
8.6087919199
 30
0.0
 10
7.7145080228
 20
8.6167264582
 30
0.0
 10
7.7107301342
 20
8.6252244645
 30
0.0
 10
7.7070596942
 20
8.6342771937
 30
0.0
 10
7.7035006042
 20
8.6438753169
 30
0.0
 10
7.7000565018
 20
8.6540088628
 30
0.0
 10
7.6967310628
 20
8.6646672973
 30
0.0
 10
7.6935277596
 20
8.6758394949
 30
0.0
 10
7.6904499783
 20
8.6875137747
 30
0.0
 10
7.6875010003
 20
8.6996779089
 30
0.0
 10
7.6846839024
 20
8.7123191362
 30
0.0
 10
7.682001732
 20
8.7254241878
 30
0.0
 10
7.6794572648
 20
8.7389792956
 30
0.0
 10
7.6770532619
 20
8.752970212
 30
0.0
 10
7.6747922265
 20
8.7673822172
 30
0.0
 10
7.6726765659
 20
8.7822001609
 30
0.0
 10
7.6700228292
 20
8.8027080948
 30
0.0
 10
7.6670994662
 20
8.8292454171
 30
0.0
 10
7.6642406267
 20
8.8621047349
 30
0.0
 10
7.6620053586
 20
8.8961875678
 30
0.0
 10
7.6604033039
 20
8.9313503361
 30
0.0
 10
7.659441402
 20
8.9674450684
 30
0.0
 10
7.6592316813
 20
8.9918038498
 30
0.0
 10
7.6592316813
 20
9.0041113362
 30
0.0
  0
SPLINE
  5
30B
100
AcDbEntity
  8
0
100
AcDbSpline
 62
7
  6
CONTINUOUS
 70
0
 71
3
 72
22
 73
18
 74
0
 42
0.0000001
 43
0.0000001
 44
0.0000000001
 40
0.0
 40
0.0
 40
0.0
 40
0.0
 40
0.1231154265
 40
0.1848373636
 40
0.2466810153
 40
0.3086581119
 40
0.3707788627
 40
0.4330510094
 40
0.4954792142
 40
0.5580647526
 40
0.6208051187
 40
0.6836940347
 40
0.7467223476
 40
0.8098791241
 40
0.873152492
 40
0.936530112
 40
1.0
 40
1.0
 40
1.0
 40
1.0
 10
8.2539201539
 20
8.9540036326
 30
0.0
 10
8.2502635004
 20
8.9807646897
 30
0.0
 10
8.2457704231
 20
9.0210927287
 30
0.0
 10
8.2421887473
 20
9.0750991755
 30
0.0
 10
8.2408090405
 20
9.1157891346
 30
0.0
 10
8.2408388316
 20
9.1565905191
 30
0.0
 10
8.2423642753
 20
9.1974584746
 30
0.0
 10
8.2454509054
 20
9.2383381
 30
0.0
 10
8.250137154
 20
9.2791683161
 30
0.0
 10
8.2564303688
 20
9.3198857558
 30
0.0
 10
8.2643061007
 20
9.3604294224
 30
0.0
 10
8.2737100982
 20
9.4007450653
 30
0.0
 10
8.2845633892
 20
9.4407885964
 30
0.0
 10
8.2967692726
 20
9.4805278725
 30
0.0
 10
8.3102202296
 20
9.5199430789
 30
0.0
 10
8.3248044578
 20
9.559025167
 30
0.0
 10
8.3352023433
 20
9.58484161
 30
0.0
 10
8.3405540631
 20
9.597696456
 30
0.0
  0
SPLINE
  5
30C
100
AcDbEntity
  8
0
100
AcDbSpline
 62
7
  6
CONTINUOUS
 70
0
 71
3
 72
22
 73
18
 74
0
 42
0.0000001
 43
0.0000001
 44
0.0000000001
 40
0.0
 40
0.0
 40
0.0
 40
0.0
 40
0.0665193381
 40
0.1323773995
 40
0.1975745026
 40
0.2621209306
 40
0.3260373254
 40
0.3893542838
 40
0.4521111535
 40
0.5143542391
 40
0.5761346629
 40
0.6375061996
 40
0.6985231439
 40
0.7592383724
 40
0.8197016644
 40
0.8799586104
 40
1.0
 40
1.0
 40
1.0
 40
1.0
 10
8.2809186949
 20
8.5646306508
 30
0.0
 10
8.2782453045
 20
8.5719479593
 30
0.0
 10
8.2731406771
 20
8.5865898299
 30
0.0
 10
8.2662179615
 20
8.6086729346
 30
0.0
 10
8.2600982028
 20
8.6307528311
 30
0.0
 10
8.2548060666
 20
8.6528120689
 30
0.0
 10
8.2503583797
 20
8.6748326208
 30
0.0
 10
8.2467633663
 20
8.6967961404
 30
0.0
 10
8.2440202142
 20
8.7186847858
 30
0.0
 10
8.2421191449
 20
8.7404818855
 30
0.0
 10
8.2410420041
 20
8.7621725885
 30
0.0
 10
8.2407632144
 20
8.7837443537
 30
0.0
 10
8.2412510672
 20
8.8051873128
 30
0.0
 10
8.2424691279
 20
8.8264942204
 30
0.0
 10
8.2443778226
 20
8.8476608965
 30
0.0
 10
8.2477833321
 20
8.875654453
 30
0.0
 10
8.2512545014
 20
8.8964971102
 30
0.0
 10
8.2539201539
 20
8.9103006685
 30
0.0
  0
SPLINE
  5
30D
100
AcDbEntity
  8
0
100
AcDbSpline
 62
7
  6
CONTINUOUS
 70
0
 71
3
 72
15
 73
11
 74
0
 42
0.0000001
 43
0.0000001
 44
0.0000000001
 40
0.0
 40
0.0
 40
0.0
 40
0.0
 40
0.1223981381
 40
0.2449436951
 40
0.3678957886
 40
0.4915467965
 40
0.6162194553
 40
0.7422650726
 40
0.870059901
 40
1.0
 40
1.0
 40
1.0
 40
1.0
 10
8.3506953623
 20
9.6293436814
 30
0.0
 10
8.3506668985
 20
9.6310526831
 30
0.0
 10
8.3506843395
 20
9.6344745037
 30
0.0
 10
8.3509447416
 20
9.6396071909
 30
0.0
 10
8.3514503721
 20
9.6447393827
 30
0.0
 10
8.3522123102
 20
9.6498699797
 30
0.0
 10
8.3532416351
 20
9.6549978854
 30
0.0
 10
8.354549307
 20
9.6601218613
 30
0.0
 10
8.3561459323
 20
9.6652403168
 30
0.0
 10
8.3573982934
 20
9.6686166719
 30
0.0
 10
8.3580734901
 20
9.6703009325
 30
0.0
  0
SPLINE
  5
30E
100
AcDbEntity
  8
0
100
AcDbSpline
 62
7
  6
CONTINUOUS
 70
0
 71
3
 72
9
 73
5
 74
0
 42
0.0000001
 43
0.0000001
 44
0.0000000001
 40
0.0
 40
0.0
 40
0.0
 40
0.0
 40
0.4914433904
 40
1.0
 40
1.0
 40
1.0
 40
1.0
 10
8.3580734901
 20
9.6703009325
 30
0.0
 10
8.3590877788
 20
9.6728310496
 30
0.0
 10
8.3613544614
 20
9.6779001402
 30
0.0
 10
8.3639990183
 20
9.6827822626
 30
0.0
 10
8.3654306219
 20
9.6852127511
 30
0.0
  0
SPLINE
  5
30F
100
AcDbEntity
  8
0
100
AcDbSpline
 62
7
  6
CONTINUOUS
 70
0
 71
3
 72
53
 73
49
 74
0
 42
0.0000001
 43
0.0000001
 44
0.0000000001
 40
0.0
 40
0.0
 40
0.0
 40
0.0
 40
0.0076528911
 40
0.0158949106
 40
0.0247437749
 40
0.0342114945
 40
0.0443043245
 40
0.055023182
 40
0.0663650896
 40
0.0783238174
 40
0.0908901462
 40
0.1040524803
 40
0.1177968772
 40
0.1321076555
 40
0.1469671605
 40
0.1623563553
 40
0.1946389542
 40
0.2287771017
 40
0.2645733221
 40
0.3018151844
 40
0.3402778332
 40
0.3797261019
 40
0.419916839
 40
0.4606008861
 40
0.5015251287
 40
0.5424346243
 40
0.5830744553
 40
0.623191911
 40
0.662538432
 40
0.7008716204
 40
0.7379574814
 40
0.7735724045
 40
0.8075055739
 40
0.8395614628
 40
0.8548298114
 40
0.8695639335
 40
0.8837451109
 40
0.8973561119
 40
0.91038166
 40
0.9228082696
 40
0.9346249482
 40
0.9458230571
 40
0.9563971265
 40
0.9663450173
 40
0.9756688636
 40
0.9843757993
 40
0.992479148
 40
1.0
 40
1.0
 40
1.0
 40
1.0
 10
6.9986945474
 20
9.3868117841
 30
0.0
 10
6.9980223415
 20
9.386162483
 30
0.0
 10
6.9966807287
 20
9.3847567575
 30
0.0
 10
6.9947450981
 20
9.3824339887
 30
0.0
 10
6.9928163948
 20
9.379824332
 30
0.0
 10
6.9908977011
 20
9.3769322115
 30
0.0
 10
6.9889919436
 20
9.3737620931
 30
0.0
 10
6.9871021798
 20
9.3703190562
 30
0.0
 10
6.9852315013
 20
9.3666086678
 30
0.0
 10
6.9833829987
 20
9.3626369687
 30
0.0
 10
6.9815596943
 20
9.3584104627
 30
0.0
 10
6.9797646679
 20
9.3539360814
 30
0.0
 10
6.9780008488
 20
9.3492212062
 30
0.0
 10
6.9762712437
 20
9.3442736104
 30
0.0
 10
6.9745786518
 20
9.3391014774
 30
0.0
 10
6.9723393026
 20
9.3318003582
 30
0.0
 10
6.9696630699
 20
9.3221725968
 30
0.0
 10
6.9666908325
 20
9.3100469284
 30
0.0
 10
6.9639287829
 20
9.2972515018
 30
0.0
 10
6.9613954592
 20
9.2838711491
 30
0.0
 10
6.959107882
 20
9.2699944989
 30
0.0
 10
6.9570813841
 20
9.2557135936
 30
0.0
 10
6.9553295323
 20
9.2411231966
 30
0.0
 10
6.9538640337
 20
9.2263201596
 30
0.0
 10
6.9526946637
 20
9.2114027624
 30
0.0
 10
6.9518292004
 20
9.1964700597
 30
0.0
 10
6.9512733729
 20
9.1816212035
 30
0.0
 10
6.9510308236
 20
9.1669547856
 30
0.0
 10
6.9511030798
 20
9.1525681718
 30
0.0
 10
6.9514895387
 20
9.1385568339
 30
0.0
 10
6.9521874736
 20
9.1250137303
 30
0.0
 10
6.9531920161
 20
9.1120285848
 30
0.0
 10
6.9544962795
 20
9.0996875121
 30
0.0
 10
6.9558462809
 20
9.0898543856
 30
0.0
 10
6.957078659
 20
9.0823761774
 30
0.0
 10
6.9580569178
 20
9.0770694374
 30
0.0
 10
6.9591024499
 20
9.0719819743
 30
0.0
 10
6.960213572
 20
9.0671221925
 30
0.0
 10
6.9613883578
 20
9.0624981165
 30
0.0
 10
6.962624909
 20
9.0581173686
 30
0.0
 10
6.9639210922
 20
9.0539871361
 30
0.0
 10
6.9652748228
 20
9.0501141806
 30
0.0
 10
6.9666838081
 20
9.046504792
 30
0.0
 10
6.9681458046
 20
9.043164799
 30
0.0
 10
6.9696584323
 20
9.040099551
 30
0.0
 10
6.9712194118
 20
9.0373138164
 30
0.0
 10
6.9728262767
 20
9.0348121616
 30
0.0
 10
6.973968116
 20
9.0332807463
 30
0.0
 10
6.9745476319
 20
9.0325681919
 30
0.0
  0
SPLINE
  5
310
100
AcDbEntity
  8
0
100
AcDbSpline
 62
7
  6
CONTINUOUS
 70
0
 71
3
 72
19
 73
15
 74
0
 42
0.0000001
 43
0.0000001
 44
0.0000000001
 40
0.0
 40
0.0
 40
0.0
 40
0.0
 40
0.12732766
 40
0.2538196711
 40
0.3795264658
 40
0.5045235362
 40
0.5668075958
 40
0.6289556124
 40
0.6909843715
 40
0.7529118454
 40
0.8147570127
 40
0.8765397119
 40
0.9382804145
 40
1.0
 40
1.0
 40
1.0
 40
1.0
 10
10.3592395661
 20
9.6149884231
 30
0.0
 10
10.3592395661
 20
9.6084900432
 30
0.0
 10
10.3586191138
 20
9.5955269929
 30
0.0
 10
10.3558130423
 20
9.5763314841
 30
0.0
 10
10.3511605999
 20
9.5576191942
 30
0.0
 10
10.3457711239
 20
9.5425509428
 30
0.0
 10
10.3405879234
 20
9.5309189917
 30
0.0
 10
10.3362777321
 20
9.5224299227
 30
0.0
 10
10.3315508135
 20
9.5141868629
 30
0.0
 10
10.3264179262
 20
9.5062085523
 30
0.0
 10
10.3208909125
 20
9.4985135137
 30
0.0
 10
10.3149825098
 20
9.4911193699
 30
0.0
 10
10.308706531
 20
9.484043448
 30
0.0
 10
10.3042862953
 20
9.4795483837
 30
0.0
 10
10.30202067
 20
9.4773599586
 30
0.0
  0
SPLINE
  5
311
100
AcDbEntity
  8
0
100
AcDbSpline
 62
7
  6
CONTINUOUS
 70
0
 71
3
 72
19
 73
15
 74
0
 42
0.0000001
 43
0.0000001
 44
0.0000000001
 40
0.0
 40
0.0
 40
0.0
 40
0.0
 40
0.12732766
 40
0.2538196711
 40
0.3795264658
 40
0.5045235362
 40
0.5668075958
 40
0.6289556124
 40
0.6909843715
 40
0.7529118454
 40
0.8147570127
 40
0.8765397119
 40
0.9382804145
 40
1.0
 40
1.0
 40
1.0
 40
1.0
 10
14.2229432153
 20
9.347039665
 30
0.0
 10
14.2229432153
 20
9.340541285
 30
0.0
 10
14.2223227631
 20
9.3275782347
 30
0.0
 10
14.2195166915
 20
9.308382726
 30
0.0
 10
14.2148642491
 20
9.289670436
 30
0.0
 10
14.2094747732
 20
9.2746021846
 30
0.0
 10
14.2042915727
 20
9.2629702335
 30
0.0
 10
14.1999813813
 20
9.2544811645
 30
0.0
 10
14.1952544627
 20
9.2462381048
 30
0.0
 10
14.1901215754
 20
9.2382597941
 30
0.0
 10
14.1845945618
 20
9.2305647556
 30
0.0
 10
14.1786861591
 20
9.2231706118
 30
0.0
 10
14.1724101802
 20
9.2160946898
 30
0.0
 10
14.1679899445
 20
9.2115996255
 30
0.0
 10
14.1657243193
 20
9.2094112004
 30
0.0
  0
SPLINE
  5
312
100
AcDbEntity
  8
0
100
AcDbSpline
 62
7
  6
CONTINUOUS
 70
0
 71
3
 72
19
 73
15
 74
0
 42
0.0000001
 43
0.0000001
 44
0.0000000001
 40
0.0
 40
0.0
 40
0.0
 40
0.0
 40
0.12732766
 40
0.2538196711
 40
0.3795264658
 40
0.5045235362
 40
0.5668075958
 40
0.6289556124
 40
0.6909843715
 40
0.7529118454
 40
0.8147570127
 40
0.8765397119
 40
0.9382804145
 40
1.0
 40
1.0
 40
1.0
 40
1.0
 10
14.2229432153
 20
6.6907434853
 30
0.0
 10
14.2229432153
 20
6.6842451053
 30
0.0
 10
14.2223227631
 20
6.671282055
 30
0.0
 10
14.2195166915
 20
6.6520865463
 30
0.0
 10
14.2148642491
 20
6.6333742563
 30
0.0
 10
14.2094747732
 20
6.6183060049
 30
0.0
 10
14.2042915727
 20
6.6066740538
 30
0.0
 10
14.1999813813
 20
6.5981849848
 30
0.0
 10
14.1952544627
 20
6.5899419251
 30
0.0
 10
14.1901215754
 20
6.5819636145
 30
0.0
 10
14.1845945618
 20
6.5742685759
 30
0.0
 10
14.1786861591
 20
6.5668744321
 30
0.0
 10
14.1724101802
 20
6.5597985101
 30
0.0
 10
14.1679899445
 20
6.5553034458
 30
0.0
 10
14.1657243193
 20
6.5531150207
 30
0.0
  0
SPLINE
  5
313
100
AcDbEntity
  8
0
100
AcDbSpline
 62
7
  6
CONTINUOUS
 70
0
 71
3
 72
19
 73
15
 74
0
 42
0.0000001
 43
0.0000001
 44
0.0000000001
 40
0.0
 40
0.0
 40
0.0
 40
0.0
 40
0.12732766
 40
0.2538196711
 40
0.3795264658
 40
0.5045235362
 40
0.5668075958
 40
0.6289556124
 40
0.6909843715
 40
0.7529118454
 40
0.8147570127
 40
0.8765397119
 40
0.9382804145
 40
1.0
 40
1.0
 40
1.0
 40
1.0
 10
10.3592395661
 20
6.9586922435
 30
0.0
 10
10.3592395661
 20
6.9521938635
 30
0.0
 10
10.3586191138
 20
6.9392308132
 30
0.0
 10
10.3558130423
 20
6.9200353044
 30
0.0
 10
10.3511605999
 20
6.9013230145
 30
0.0
 10
10.3457711239
 20
6.8862547631
 30
0.0
 10
10.3405879234
 20
6.874622812
 30
0.0
 10
10.3362777321
 20
6.866133743
 30
0.0
 10
10.3315508135
 20
6.8578906832
 30
0.0
 10
10.3264179262
 20
6.8499123726
 30
0.0
 10
10.3208909125
 20
6.842217334
 30
0.0
 10
10.3149825098
 20
6.8348231902
 30
0.0
 10
10.308706531
 20
6.8277472683
 30
0.0
 10
10.3042862953
 20
6.823252204
 30
0.0
 10
10.30202067
 20
6.8210637789
 30
0.0
  0
SPLINE
  5
314
100
AcDbEntity
  8
0
100
AcDbSpline
 62
7
  6
CONTINUOUS
 70
0
 71
3
 72
15
 73
11
 74
0
 42
0.0000001
 43
0.0000001
 44
0.0000000001
 40
0.0
 40
0.0
 40
0.0
 40
0.0
 40
0.127347711
 40
0.2538606874
 40
0.3795878987
 40
0.5046050998
 40
0.6290174656
 40
0.7529533976
 40
0.8765605982
 40
1.0
 40
1.0
 40
1.0
 40
1.0
 10
10.9252721163
 20
6.9194377528
 30
0.0
 10
10.9252721163
 20
6.9170355523
 30
0.0
 10
10.925042754
 20
6.9122435766
 30
0.0
 10
10.9240055122
 20
6.9051477758
 30
0.0
 10
10.9222855566
 20
6.8982302553
 30
0.0
 10
10.9198984518
 20
6.8915557258
 30
0.0
 10
10.9168660964
 20
6.8851857229
 30
0.0
 10
10.9132161282
 20
6.8791790675
 30
0.0
 10
10.9089828616
 20
6.873592046
 30
0.0
 10
10.9057954389
 20
6.8701791513
 30
0.0
 10
10.9041206805
 20
6.8685614404
 30
0.0
  0
SPLINE
  5
315
100
AcDbEntity
  8
0
100
AcDbSpline
 62
7
  6
CONTINUOUS
 70
0
 71
3
 72
15
 73
11
 74
0
 42
0.0000001
 43
0.0000001
 44
0.0000000001
 40
0.0
 40
0.0
 40
0.0
 40
0.0
 40
0.127347711
 40
0.2538606874
 40
0.3795878987
 40
0.5046050998
 40
0.6290174656
 40
0.7529533976
 40
0.8765605982
 40
1.0
 40
1.0
 40
1.0
 40
1.0
 10
13.1440038044
 20
9.4218643673
 30
0.0
 10
13.1440038044
 20
9.4194621668
 30
0.0
 10
13.1437744421
 20
9.4146701911
 30
0.0
 10
13.1427372003
 20
9.4075743903
 30
0.0
 10
13.1410172447
 20
9.4006568698
 30
0.0
 10
13.1386301399
 20
9.3939823403
 30
0.0
 10
13.1355977845
 20
9.3876123374
 30
0.0
 10
13.1319478163
 20
9.381605682
 30
0.0
 10
13.1277145497
 20
9.3760186605
 30
0.0
 10
13.1245271271
 20
9.3726057658
 30
0.0
 10
13.1228523686
 20
9.3709880549
 30
0.0
  0
SPLINE
  5
316
100
AcDbEntity
  8
0
100
AcDbSpline
 62
7
  6
CONTINUOUS
 70
0
 71
3
 72
15
 73
11
 74
0
 42
0.0000001
 43
0.0000001
 44
0.0000000001
 40
0.0
 40
0.0
 40
0.0
 40
0.0
 40
0.1273483281
 40
0.2538605602
 40
0.3795878981
 40
0.5046051042
 40
0.6290174419
 40
0.7529533761
 40
0.876560577
 40
1.0
 40
1.0
 40
1.0
 40
1.0
 10
11.5893461612
 20
9.5905335655
 30
0.0
 10
11.5893461612
 20
9.5862064365
 30
0.0
 10
11.5889330075
 20
9.5775746055
 30
0.0
 10
11.5870645542
 20
9.5647928764
 30
0.0
 10
11.5839663483
 20
9.5523323067
 30
0.0
 10
11.5796663731
 20
9.5403094259
 30
0.0
 10
11.57420409
 20
9.5288351086
 30
0.0
 10
11.5676292659
 20
9.5180153211
 30
0.0
 10
11.5600037375
 20
9.5079514359
 30
0.0
 10
11.5542620991
 20
9.5018038506
 30
0.0
 10
11.5512453204
 20
9.4988898707
 30
0.0
  0
SPLINE
  5
317
100
AcDbEntity
  8
0
100
AcDbSpline
 62
7
  6
CONTINUOUS
 70
0
 71
3
 72
15
 73
11
 74
0
 42
0.0000001
 43
0.0000001
 44
0.0000000001
 40
0.0
 40
0.0
 40
0.0
 40
0.0
 40
0.1273483281
 40
0.2538605602
 40
0.3795878981
 40
0.5046051042
 40
0.6290174419
 40
0.7529533761
 40
0.876560577
 40
1.0
 40
1.0
 40
1.0
 40
1.0
 10
12.1930498384
 20
6.7706637735
 30
0.0
 10
12.1930498384
 20
6.7663366445
 30
0.0
 10
12.1926366847
 20
6.7577048135
 30
0.0
 10
12.1907682314
 20
6.7449230844
 30
0.0
 10
12.1876700255
 20
6.7324625147
 30
0.0
 10
12.1833700503
 20
6.7204396339
 30
0.0
 10
12.1779077672
 20
6.7089653166
 30
0.0
 10
12.1713329431
 20
6.6981455291
 30
0.0
 10
12.1637074147
 20
6.6880816439
 30
0.0
 10
12.1579657763
 20
6.6819340586
 30
0.0
 10
12.1549489976
 20
6.6790200787
 30
0.0
  0
SPLINE
  5
318
100
AcDbEntity
  8
0
100
AcDbSpline
 62
7
  6
CONTINUOUS
 70
0
 71
3
 72
15
 73
11
 74
0
 42
0.0000001
 43
0.0000001
 44
0.0000000001
 40
0.0
 40
0.0
 40
0.0
 40
0.0
 40
0.1273482808
 40
0.2538605196
 40
0.3795878971
 40
0.5046050835
 40
0.6290174393
 40
0.7529533827
 40
0.8765605876
 40
1.0
 40
1.0
 40
1.0
 40
1.0
 10
13.6269668125
 20
7.215037531
 30
0.0
 10
13.6269668125
 20
7.2111878212
 30
0.0
 10
13.6265992481
 20
7.2035083528
 30
0.0
 10
13.6249369645
 20
7.1921368461
 30
0.0
 10
13.6221806211
 20
7.1810510587
 30
0.0
 10
13.6183551089
 20
7.1703546625
 30
0.0
 10
13.6134955443
 20
7.1601462953
 30
0.0
 10
13.6076462089
 20
7.1505202196
 30
0.0
 10
13.6008620878
 20
7.1415666429
 30
0.0
 10
13.5957539991
 20
7.1360972647
 30
0.0
 10
13.5930700792
 20
7.1335047744
 30
0.0
  0
SPLINE
  5
319
100
AcDbEntity
  8
0
100
AcDbSpline
 62
7
  6
CONTINUOUS
 70
0
 71
3
 72
15
 73
11
 74
0
 42
0.0000001
 43
0.0000001
 44
0.0000000001
 40
0.0
 40
0.0
 40
0.0
 40
0.0
 40
0.1273482808
 40
0.2538605196
 40
0.3795878971
 40
0.5046050835
 40
0.6290174393
 40
0.7529533827
 40
0.8765605876
 40
1.0
 40
1.0
 40
1.0
 40
1.0
 10
13.189402321
 20
8.8150122923
 30
0.0
 10
13.189402321
 20
8.8111625825
 30
0.0
 10
13.1890347566
 20
8.8034831141
 30
0.0
 10
13.187372473
 20
8.7921116074
 30
0.0
 10
13.1846161295
 20
8.7810258199
 30
0.0
 10
13.1807906173
 20
8.7703294238
 30
0.0
 10
13.1759310527
 20
8.7601210566
 30
0.0
 10
13.1700817174
 20
8.7504949809
 30
0.0
 10
13.1632975962
 20
8.7415414042
 30
0.0
 10
13.1581895076
 20
8.736072026
 30
0.0
 10
13.1555055877
 20
8.7334795357
 30
0.0
  0
SPLINE
  5
31A
100
AcDbEntity
  8
0
100
AcDbSpline
 62
7
  6
CONTINUOUS
 70
0
 71
3
 72
42
 73
38
 74
0
 42
0.0000001
 43
0.0000001
 44
0.0000000001
 40
0.0
 40
0.0
 40
0.0
 40
0.0
 40
0.0309828546
 40
0.0465296602
 40
0.0621107792
 40
0.093370298
 40
0.1247578393
 40
0.1562635857
 40
0.1878756416
 40
0.21958042
 40
0.2513628956
 40
0.2832069217
 40
0.3150955364
 40
0.3470112714
 40
0.3789364511
 40
0.4108534792
 40
0.4427451081
 40
0.4745946906
 40
0.5063864098
 40
0.5381054896
 40
0.5697383833
 40
0.6012729434
 40
0.6326985708
 40
0.664006346
 40
0.6951891421
 40
0.7262417206
 40
0.7571608088
 40
0.7879451595
 40
0.8185955912
 40
0.8491150077
 40
0.8643290676
 40
0.8795124204
 40
0.9097868141
 40
0.9399512479
 40
0.9549976788
 40
0.9700208829
 40
1.0
 40
1.0
 40
1.0
 40
1.0
 10
10.8499298974
 20
9.3768444415
 30
0.0
 10
10.8572440451
 20
9.3763372036
 30
0.0
 10
10.8682072484
 20
9.3752057578
 30
0.0
 10
10.8827360746
 20
9.3729713131
 30
0.0
 10
10.89724806
 20
9.3702460597
 30
0.0
 10
10.9152649178
 20
9.3659322733
 30
0.0
 10
10.9365636599
 20
9.3593409096
 30
0.0
 10
10.9574716571
 20
9.3513612756
 30
0.0
 10
10.977895816
 20
9.3420327104
 30
0.0
 10
10.9977469057
 20
9.3314007349
 30
0.0
 10
11.0169391118
 20
9.3195167464
 30
0.0
 10
11.0353906964
 20
9.3064375214
 30
0.0
 10
11.0530242749
 20
9.2922247324
 30
0.0
 10
11.0697671111
 20
9.2769444488
 30
0.0
 10
11.0855513249
 20
9.260666641
 30
0.0
 10
11.100314046
 20
9.2434646972
 30
0.0
 10
11.1139975125
 20
9.2254149604
 30
0.0
 10
11.126549122
 20
9.206596292
 30
0.0
 10
11.1379214441
 20
9.1870896678
 30
0.0
 10
11.1480722019
 20
9.1669778071
 30
0.0
 10
11.1569642302
 20
9.1463448379
 30
0.0
 10
11.1645654186
 20
9.1252759967
 30
0.0
 10
11.1708486468
 20
9.1038573615
 30
0.0
 10
11.1757917183
 20
9.0821756133
 30
0.0
 10
11.1793772991
 20
9.0603178302
 30
0.0
 10
11.1815928612
 20
9.0383712803
 30
0.0
 10
11.1824306571
 20
9.0164233153
 30
0.0
 10
11.1818876388
 20
8.9945609615
 30
0.0
 10
11.1799656624
 20
8.9728716801
 30
0.0
 10
11.1772169471
 20
8.9549927781
 30
0.0
 10
11.1743359492
 20
8.940866138
 30
0.0
 10
11.1710101935
 20
8.926897119
 30
0.0
 10
11.1660137652
 20
8.9096994811
 30
0.0
 10
11.1599034532
 20
8.8928995693
 30
0.0
 10
11.1543661613
 20
8.8797627841
 30
0.0
 10
11.1484105241
 20
8.8668592164
 30
0.0
 10
11.1434606966
 20
8.8574181574
 30
0.0
 10
11.1399548305
 20
8.8512507855
 30
0.0
  0
SPLINE
  5
31B
100
AcDbEntity
  8
0
100
AcDbSpline
 62
7
  6
CONTINUOUS
 70
0
 71
3
 72
23
 73
19
 74
0
 42
0.0000001
 43
0.0000001
 44
0.0000000001
 40
0.0
 40
0.0
 40
0.0
 40
0.0
 40
0.0637767638
 40
0.1273450118
 40
0.1907019674
 40
0.2538561101
 40
0.3168132145
 40
0.3795820843
 40
0.4421733868
 40
0.5045993403
 40
0.5668738673
 40
0.6290123789
 40
0.6910316481
 40
0.752949645
 40
0.8147853545
 40
0.8765586015
 40
0.9382898522
 40
1.0
 40
1.0
 40
1.0
 40
1.0
 10
12.4195594581
 20
8.9282884583
 30
0.0
 10
12.4195594581
 20
8.9225026995
 30
0.0
 10
12.4192825116
 20
8.9109481381
 30
0.0
 10
12.4180326027
 20
8.8936866009
 30
0.0
 10
12.4159514532
 20
8.8765618714
 30
0.0
 10
12.4130440769
 20
8.8596142035
 30
0.0
 10
12.4093169481
 20
8.8428823123
 30
0.0
 10
12.4047786985
 20
8.8264048772
 30
0.0
 10
12.3994397687
 20
8.8102198598
 30
0.0
 10
12.3933124052
 20
8.7943645858
 30
0.0
 10
12.3864106778
 20
8.7788756391
 30
0.0
 10
12.3787505042
 20
8.7637887307
 30
0.0
 10
12.370349534
 20
8.7491386584
 30
0.0
 10
12.3612270976
 20
8.7349592175
 30
0.0
 10
12.3514042186
 20
8.7212831722
 30
0.0
 10
12.3409034594
 20
8.7081419457
 30
0.0
 10
12.3297494596
 20
8.6955662518
 30
0.0
 10
12.3218936088
 20
8.6875773666
 30
0.0
 10
12.3178670202
 20
8.6836879839
 30
0.0
  0
SPLINE
  5
31C
100
AcDbEntity
  8
0
100
AcDbSpline
 62
7
  6
CONTINUOUS
 70
0
 71
3
 72
23
 73
19
 74
0
 42
0.0000001
 43
0.0000001
 44
0.0000000001
 40
0.0
 40
0.0
 40
0.0
 40
0.0
 40
0.0637767638
 40
0.1273450118
 40
0.1907019674
 40
0.2538561101
 40
0.3168132145
 40
0.3795820843
 40
0.4421733868
 40
0.5045993403
 40
0.5668738673
 40
0.6290123789
 40
0.6910316481
 40
0.752949645
 40
0.8147853545
 40
0.8765586015
 40
0.9382898522
 40
1.0
 40
1.0
 40
1.0
 40
1.0
 10
13.0232631353
 20
7.3177578188
 30
0.0
 10
13.0232631353
 20
7.31197206
 30
0.0
 10
13.0229861888
 20
7.3004174987
 30
0.0
 10
13.0217362799
 20
7.2831559614
 30
0.0
 10
13.0196551304
 20
7.2660312319
 30
0.0
 10
13.0167477541
 20
7.249083564
 30
0.0
 10
13.0130206253
 20
7.2323516728
 30
0.0
 10
13.0084823757
 20
7.2158742377
 30
0.0
 10
13.0031434459
 20
7.1996892203
 30
0.0
 10
12.9970160825
 20
7.1838339463
 30
0.0
 10
12.990114355
 20
7.1683449996
 30
0.0
 10
12.9824541814
 20
7.1532580913
 30
0.0
 10
12.9740532112
 20
7.1386080189
 30
0.0
 10
12.9649307748
 20
7.1244285781
 30
0.0
 10
12.9551078958
 20
7.1107525327
 30
0.0
 10
12.9446071366
 20
7.0976113062
 30
0.0
 10
12.9334531368
 20
7.0850356123
 30
0.0
 10
12.925597286
 20
7.0770467271
 30
0.0
 10
12.9215706974
 20
7.0731573444
 30
0.0
  0
SPLINE
  5
31D
100
AcDbEntity
  8
0
100
AcDbSpline
 62
7
  6
CONTINUOUS
 70
0
 71
3
 72
23
 73
19
 74
0
 42
0.0000001
 43
0.0000001
 44
0.0000000001
 40
0.0
 40
0.0
 40
0.0
 40
0.0
 40
0.0637767638
 40
0.1273450118
 40
0.1907019674
 40
0.2538561101
 40
0.3168132145
 40
0.3795820843
 40
0.4421733868
 40
0.5045993403
 40
0.5668738673
 40
0.6290123789
 40
0.6910316481
 40
0.752949645
 40
0.8147853545
 40
0.8765586015
 40
0.9382898522
 40
1.0
 40
1.0
 40
1.0
 40
1.0
 10
11.8158557809
 20
7.4014918033
 30
0.0
 10
11.8158557809
 20
7.3957060444
 30
0.0
 10
11.8155788344
 20
7.3841514831
 30
0.0
 10
11.8143289255
 20
7.3668899458
 30
0.0
 10
11.812247776
 20
7.3497652164
 30
0.0
 10
11.8093403997
 20
7.3328175484
 30
0.0
 10
11.8056132709
 20
7.3160856573
 30
0.0
 10
11.8010750213
 20
7.2996082222
 30
0.0
 10
11.7957360915
 20
7.2834232047
 30
0.0
 10
11.789608728
 20
7.2675679307
 30
0.0
 10
11.7827070006
 20
7.252078984
 30
0.0
 10
11.775046827
 20
7.2369920757
 30
0.0
 10
11.7666458568
 20
7.2223420033
 30
0.0
 10
11.7575234204
 20
7.2081625625
 30
0.0
 10
11.7477005414
 20
7.1944865171
 30
0.0
 10
11.7371997822
 20
7.1813452906
 30
0.0
 10
11.7260457824
 20
7.1687695968
 30
0.0
 10
11.7181899316
 20
7.1607807115
 30
0.0
 10
11.714163343
 20
7.1568913289
 30
0.0
  0
SPLINE
  5
31E
100
AcDbEntity
  8
0
100
AcDbSpline
 62
7
  6
CONTINUOUS
 70
0
 71
3
 72
50
 73
46
 74
0
 42
0.0000001
 43
0.0000001
 44
0.0000000001
 40
0.0
 40
0.0
 40
0.0
 40
0.0
 40
0.0417739931
 40
0.0840374042
 40
0.1266589793
 40
0.1695072033
 40
0.2124489683
 40
0.2553510983
 40
0.2980804619
 40
0.3405046467
 40
0.3824924349
 40
0.423914348
 40
0.464643176
 40
0.5045545191
 40
0.5435273386
 40
0.5814445246
 40
0.6181934862
 40
0.6536667754
 40
0.6877627611
 40
0.7203863704
 40
0.7514499327
 40
0.7808741714
 40
0.8085894115
 40
0.8217879909
 40
0.8345383689
 40
0.8468353776
 40
0.8586746849
 40
0.8700532123
 40
0.8809689414
 40
0.8914213868
 40
0.901411482
 40
0.9109420714
 40
0.9200179602
 40
0.9286464134
 40
0.9368374438
 40
0.9446043349
 40
0.9519642118
 40
0.9589386091
 40
0.9655542854
 40
0.9718437717
 40
0.9778461664
 40
0.9836073329
 40
0.9891800251
 40
0.9946230605
 40
1.0
 40
1.0
 40
1.0
 40
1.0
 10
14.6122214624
 20
8.5023307006
 30
0.0
 10
14.6122214624
 20
8.5105392631
 30
0.0
 10
14.6123495295
 20
8.5270528164
 30
0.0
 10
14.6129156643
 20
8.5519356479
 30
0.0
 10
14.6138553346
 20
8.5770184489
 30
0.0
 10
14.6151654242
 20
8.6022180785
 30
0.0
 10
14.6168416297
 20
8.627451255
 30
0.0
 10
14.6188783957
 20
8.6526344588
 30
0.0
 10
14.6212689823
 20
8.6776843882
 30
0.0
 10
14.6240054615
 20
8.7025181668
 30
0.0
 10
14.6270787554
 20
8.7270536443
 30
0.0
 10
14.6304786608
 20
8.7512096625
 30
0.0
 10
14.6341938844
 20
8.7749063287
 30
0.0
 10
14.6382120784
 20
8.7980652824
 30
0.0
 10
14.6425198815
 20
8.8206099587
 30
0.0
 10
14.6471029611
 20
8.8424658465
 30
0.0
 10
14.6519460609
 20
8.8635607427
 30
0.0
 10
14.65703305
 20
8.8838249972
 30
0.0
 10
14.6623469757
 20
8.9031917654
 30
0.0
 10
14.6678701226
 20
8.9215972139
 30
0.0
 10
14.673584071
 20
8.9389808654
 30
0.0
 10
14.6794697822
 20
8.9552854505
 30
0.0
 10
14.6845811651
 20
8.9681302636
 30
0.0
 10
14.6887525573
 20
8.9778157202
 30
0.0
 10
14.6918608259
 20
8.9846587098
 30
0.0
 10
14.6949972338
 20
8.9911938342
 30
0.0
 10
14.6981593081
 20
8.9974157155
 30
0.0
 10
14.7013443527
 20
9.0033192836
 30
0.0
 10
14.7045498409
 20
9.008899688
 30
0.0
 10
14.7077730727
 20
9.0141524136
 30
0.0
 10
14.7110115047
 20
9.019073167
 30
0.0
 10
14.7142624683
 20
9.023657997
 30
0.0
 10
14.7175234245
 20
9.0279031879
 30
0.0
 10
14.7207917885
 20
9.031805347
 30
0.0
 10
14.7240650646
 20
9.0353613404
 30
0.0
 10
14.7273408155
 20
9.0385682932
 30
0.0
 10
14.7306166436
 20
9.0414236092
 30
0.0
 10
14.7338903071
 20
9.0439248174
 30
0.0
 10
14.7371595309
 20
9.0460697189
 30
0.0
 10
14.7404221949
 20
9.0478560266
 30
0.0
 10
14.7436759903
 20
9.0492817077
 30
0.0
 10
14.746918488
 20
9.0503444771
 30
0.0
 10
14.7501469474
 20
9.0510424476
 30
0.0
 10
14.7533574985
 20
9.0513737618
 30
0.0
 10
14.7554890255
 20
9.0513494165
 30
0.0
 10
14.7565430586
 20
9.0512763129
 30
0.0
  0
SPLINE
  5
31F
100
AcDbEntity
  8
0
100
AcDbSpline
 62
7
  6
CONTINUOUS
 70
0
 71
3
 72
34
 73
30
 74
0
 42
0.0000001
 43
0.0000001
 44
0.0000000001
 40
0.0
 40
0.0
 40
0.0
 40
0.0
 40
0.0335205761
 40
0.0669744529
 40
0.1003637752
 40
0.1336909865
 40
0.166955342
 40
0.200154562
 40
0.2332841844
 40
0.2663378063
 40
0.299307056
 40
0.3321818027
 40
0.3649502679
 40
0.3975991742
 40
0.4301139966
 40
0.462479136
 40
0.4946780757
 40
0.5266936229
 40
0.558508246
 40
0.5901042914
 40
0.6214640462
 40
0.6525697528
 40
0.6834040184
 40
0.7139499295
 40
0.7740968244
 40
0.8328966433
 40
0.890225648
 40
0.9459650289
 40
1.0
 40
1.0
 40
1.0
 40
1.0
 10
11.034770094
 20
9.0226114263
 30
0.0
 10
11.0293515889
 20
9.0229872009
 30
0.0
 10
11.0185454495
 20
9.0240710285
 30
0.0
 10
11.0024853902
 20
9.0266909107
 30
0.0
 10
10.9866480335
 20
9.0302922744
 30
0.0
 10
10.9710937171
 20
9.0348587542
 30
0.0
 10
10.9558810525
 20
9.0403693936
 30
0.0
 10
10.9410679329
 20
9.0467979731
 30
0.0
 10
10.9267104203
 20
9.0541132164
 30
0.0
 10
10.9128621626
 20
9.0622785941
 30
0.0
 10
10.8995735765
 20
9.071252443
 30
0.0
 10
10.8868910194
 20
9.0809881101
 30
0.0
 10
10.874855953
 20
9.0914342923
 30
0.0
 10
10.8635041797
 20
9.102535559
 30
0.0
 10
10.8528651963
 20
9.1142330466
 30
0.0
 10
10.8429616956
 20
9.1264652786
 30
0.0
 10
10.8338092984
 20
9.1391691142
 30
0.0
 10
10.8254164839
 20
9.1522807546
 30
0.0
 10
10.8177846267
 20
9.1657367048
 30
0.0
 10
10.8109084728
 20
9.1794747914
 30
0.0
 10
10.8047767182
 20
9.1934350059
 30
0.0
 10
10.7993727545
 20
9.2075600797
 30
0.0
 10
10.7946751827
 20
9.2217964862
 30
0.0
 10
10.7893481199
 20
9.2407595385
 30
0.0
 10
10.7843017223
 20
9.2644822787
 30
0.0
 10
10.7805796867
 20
9.2928280968
 30
0.0
 10
10.7789580205
 20
9.3206522595
 30
0.0
 10
10.7791760784
 20
9.3477454351
 30
0.0
 10
10.7804024318
 20
9.3655023426
 30
0.0
 10
10.7812555173
 20
9.3742162614
 30
0.0
  0
SPLINE
  5
320
100
AcDbEntity
  8
0
100
AcDbSpline
 62
7
  6
CONTINUOUS
 70
0
 71
3
 72
19
 73
15
 74
0
 42
0.0000001
 43
0.0000001
 44
0.0000000001
 40
0.0
 40
0.0
 40
0.0
 40
0.0
 40
0.1232410606
 40
0.2453437931
 40
0.3665394435
 40
0.4874233725
 40
0.5481057039
 40
0.6091787844
 40
0.6708826307
 40
0.7335004832
 40
0.7973552476
 40
0.862802509
 40
0.9302211983
 40
1.0
 40
1.0
 40
1.0
 40
1.0
 10
12.3906847208
 20
8.8880470445
 30
0.0
 10
12.3901293444
 20
8.8891529566
 30
0.0
 10
12.3891079485
 20
8.8913984292
 30
0.0
 10
12.3878829956
 20
8.894874873
 30
0.0
 10
12.3870199058
 20
8.8984356039
 30
0.0
 10
12.3866492428
 20
8.9014617689
 30
0.0
 10
12.3865915299
 20
8.9038991698
 30
0.0
 10
12.3866750687
 20
8.9057410715
 30
0.0
 10
12.3868935756
 20
8.9075915325
 30
0.0
 10
12.3872549315
 20
8.9094480842
 30
0.0
 10
12.3877669151
 20
8.9113079664
 30
0.0
 10
12.3884368267
 20
8.9131683793
 30
0.0
 10
12.3892713417
 20
8.9150263025
 30
0.0
 10
12.3899290026
 20
8.9162385372
 30
0.0
 10
12.3902847231
 20
8.9168422142
 30
0.0
  0
SPLINE
  5
321
100
AcDbEntity
  8
0
100
AcDbSpline
 62
7
  6
CONTINUOUS
 70
0
 71
3
 72
32
 73
28
 74
0
 42
0.0000001
 43
0.0000001
 44
0.0000000001
 40
0.0
 40
0.0
 40
0.0
 40
0.0
 40
0.0851786848
 40
0.1685803226
 40
0.2498827917
 40
0.3287735031
 40
0.4049538093
 40
0.4781399203
 40
0.5480655658
 40
0.5817287479
 40
0.6144861685
 40
0.6463107472
 40
0.67717687
 40
0.7070608521
 40
0.7359408389
 40
0.7637971302
 40
0.7906123426
 40
0.8163715726
 40
0.8410628756
 40
0.8646773075
 40
0.8872097451
 40
0.908658924
 40
0.9290286029
 40
0.948327806
 40
0.9665723337
 40
0.9837854943
 40
1.0
 40
1.0
 40
1.0
 40
1.0
 10
8.9302426199
 20
7.341812297
 30
0.0
 10
8.9302426199
 20
7.330810218
 30
0.0
 10
8.9304300957
 20
7.309035061
 30
0.0
 10
8.9312899668
 20
7.2767687343
 30
0.0
 10
8.9327220884
 20
7.2453354961
 30
0.0
 10
8.9347202718
 20
7.2148676983
 30
0.0
 10
8.9372758338
 20
7.1854934684
 30
0.0
 10
8.9403777951
 20
7.1573364434
 30
0.0
 10
8.9434443417
 20
7.1347072737
 30
0.0
 10
8.9461738301
 20
7.1173084307
 30
0.0
 10
8.9483228859
 20
7.1048014263
 30
0.0
 10
8.9505974284
 20
7.0926840143
 30
0.0
 10
8.9529951285
 20
7.0809689163
 30
0.0
 10
8.9555133955
 20
7.0696684443
 30
0.0
 10
8.9581495883
 20
7.0587944612
 30
0.0
 10
8.9609009063
 20
7.0483583711
 30
0.0
 10
8.9637644277
 20
7.0383711034
 30
0.0
 10
8.9667371589
 20
7.0288431052
 30
0.0
 10
8.9698159157
 20
7.0197843116
 30
0.0
 10
8.9729975351
 20
7.0112041617
 30
0.0
 10
8.9762786066
 20
7.0031115354
 30
0.0
 10
8.9796558253
 20
6.9955148151
 30
0.0
 10
8.9831256253
 20
6.9884217648
 30
0.0
 10
8.9866845891
 20
6.9818396859
 30
0.0
 10
8.9903291696
 20
6.9757751191
 30
0.0
 10
8.9940557215
 20
6.9702345331
 30
0.0
 10
8.9966687607
 20
6.9667932855
 30
0.0
 10
8.9979902184
 20
6.9651684726
 30
0.0
  0
SPLINE
  5
322
100
AcDbEntity
  8
0
100
AcDbSpline
 62
7
  6
CONTINUOUS
 70
0
 71
3
 72
41
 73
37
 74
0
 42
0.0000001
 43
0.0000001
 44
0.0000000001
 40
0.0
 40
0.0
 40
0.0
 40
0.0
 40
0.0071626665
 40
0.0146567922
 40
0.0224900003
 40
0.030668562
 40
0.0391975872
 40
0.048080862
 40
0.0573206522
 40
0.0669182435
 40
0.0768739335
 40
0.0871871924
 40
0.097856799
 40
0.1088807011
 40
0.1319796455
 40
0.1564575358
 40
0.182279017
 40
0.2094019974
 40
0.2377784932
 40
0.2673552866
 40
0.2980744788
 40
0.329873988
 40
0.3626879607
 40
0.3964471366
 40
0.4310791754
 40
0.4665089551
 40
0.502658886
 40
0.5394491939
 40
0.57679819
 40
0.6146225315
 40
0.6528374746
 40
0.691357142
 40
0.7689615337
 40
0.8467371347
 40
0.923981719
 40
1.0
 40
1.0
 40
1.0
 40
1.0
 10
9.0676754194
 20
10.1009146727
 30
0.0
 10
9.066525192
 20
10.0998036382
 30
0.0
 10
9.0642262692
 20
10.0974729195
 30
0.0
 10
9.0608567945
 20
10.0937482196
 30
0.0
 10
9.0574916021
 20
10.0897193809
 30
0.0
 10
9.0541328603
 20
10.0853890113
 30
0.0
 10
9.0507824122
 20
10.0807596487
 30
0.0
 10
9.047442232
 20
10.0758339516
 30
0.0
 10
9.0441141964
 20
10.070614856
 30
0.0
 10
9.0408003584
 20
10.0651054364
 30
0.0
 10
9.03750267
 20
10.0593089893
 30
0.0
 10
9.0342230854
 20
10.053228973
 30
0.0
 10
9.0309635848
 20
10.0468689868
 30
0.0
 10
9.0265784955
 20
10.0378803167
 30
0.0
 10
9.02117343
 20
10.025962061
 30
0.0
 10
9.0148949332
 20
10.0108223301
 30
0.0
 10
9.0087421467
 20
9.9946660831
 30
0.0
 10
9.0027299442
 20
9.9775320233
 30
0.0
 10
8.9968728796
 20
9.959461025
 30
0.0
 10
8.9911851389
 20
9.9404963765
 30
0.0
 10
8.9856804917
 20
9.9206835569
 30
0.0
 10
8.980372268
 20
9.9000701348
 30
0.0
 10
8.9752733193
 20
9.8787056325
 30
0.0
 10
8.9703959889
 20
9.856641404
 30
0.0
 10
8.9657520823
 20
9.8339305108
 30
0.0
 10
8.9613528267
 20
9.8106275925
 30
0.0
 10
8.9572088564
 20
9.7867887272
 30
0.0
 10
8.9533301879
 20
9.7624712909
 30
0.0
 10
8.9497261917
 20
9.7377338136
 30
0.0
 10
8.9464055878
 20
9.7126358589
 30
0.0
 10
8.9433763556
 20
9.6872378102
 30
0.0
 10
8.9397269117
 20
9.6529719042
 30
0.0
 10
8.9359459875
 20
9.6098409577
 30
0.0
 10
8.9326769513
 20
9.5580011938
 30
0.0
 10
8.9306964793
 20
9.5064507118
 30
0.0
 10
8.9302426199
 20
9.4722305747
 30
0.0
 10
8.9302426199
 20
9.4552581302
 30
0.0
  0
SPLINE
  5
323
100
AcDbEntity
  8
0
100
AcDbSpline
 62
7
  6
CONTINUOUS
 70
0
 71
3
 72
32
 73
28
 74
0
 42
0.0000001
 43
0.0000001
 44
0.0000000001
 40
0.0
 40
0.0
 40
0.0
 40
0.0
 40
0.0762774562
 40
0.1537878541
 40
0.2318261971
 40
0.3096788829
 40
0.3866352099
 40
0.4619948605
 40
0.5350763666
 40
0.570558069
 40
0.6052276416
 40
0.6390090065
 40
0.6718290224
 40
0.7036177384
 40
0.7343086322
 40
0.7638391434
 40
0.7921511139
 40
0.8191911099
 40
0.8449111192
 40
0.8692693887
 40
0.8922310956
 40
0.9137695419
 40
0.9338678925
 40
0.9525209938
 40
0.9697381464
 40
0.9855472435
 40
1.0
 40
1.0
 40
1.0
 40
1.0
 10
14.642059943
 20
8.5471524622
 30
0.0
 10
14.642059943
 20
8.5556740982
 30
0.0
 10
14.6422891957
 20
8.5728558558
 30
0.0
 10
14.6432893985
 20
8.598738447
 30
0.0
 10
14.6449401656
 20
8.6247641829
 30
0.0
 10
14.6472255052
 20
8.6506797042
 30
0.0
 10
14.6501230245
 20
8.6762329266
 30
0.0
 10
14.6536043764
 20
8.7011751185
 30
0.0
 10
14.6569958222
 20
8.7214440122
 30
0.0
 10
14.6599845503
 20
8.7371647623
 30
0.0
 10
14.6623271696
 20
8.7485377325
 30
0.0
 10
14.6647871038
 20
8.7595814696
 30
0.0
 10
14.6673583485
 20
8.7702691178
 30
0.0
 10
14.6700345859
 20
8.7805746767
 30
0.0
 10
14.6728092783
 20
8.7904730856
 30
0.0
 10
14.6756756236
 20
8.7999402994
 30
0.0
 10
14.6786265774
 20
8.8089533546
 30
0.0
 10
14.6816549195
 20
8.81749041
 30
0.0
 10
14.684753246
 20
8.8255308238
 30
0.0
 10
14.6879139559
 20
8.8330552328
 30
0.0
 10
14.6911293489
 20
8.8400455874
 30
0.0
 10
14.6943916533
 20
8.8464852097
 30
0.0
 10
14.6976930351
 20
8.8523589259
 30
0.0
 10
14.701025667
 20
8.85765301
 30
0.0
 10
14.7043821666
 20
8.8623554902
 30
0.0
 10
14.7077547534
 20
8.8664552889
 30
0.0
 10
14.7101120874
 20
8.8688863831
 30
0.0
 10
14.7112940323
 20
8.8699864238
 30
0.0
  0
SPLINE
  5
324
100
AcDbEntity
  8
0
100
AcDbSpline
 62
7
  6
CONTINUOUS
 70
0
 71
3
 72
29
 73
25
 74
0
 42
0.0000001
 43
0.0000001
 44
0.0000000001
 40
0.0
 40
0.0
 40
0.0
 40
0.0
 40
0.0851786732
 40
0.1685822164
 40
0.2498847896
 40
0.3287763752
 40
0.4049572147
 40
0.4781439143
 40
0.5480700712
 40
0.6144893796
 40
0.6771783938
 40
0.7359401629
 40
0.7637965464
 40
0.7906119394
 40
0.8163712322
 40
0.8410626666
 40
0.8646771538
 40
0.8872096601
 40
0.9086589005
 40
0.9290285852
 40
0.9483278569
 40
0.9665723397
 40
0.983785567
 40
1.0
 40
1.0
 40
1.0
 40
1.0
 10
14.642059943
 20
8.5471524622
 30
0.0
 10
14.642059943
 20
8.5416618051
 30
0.0
 10
14.6421535116
 20
8.530794652
 30
0.0
 10
14.6425826273
 20
8.5146918059
 30
0.0
 10
14.6432973632
 20
8.499004664
 30
0.0
 10
14.644294572
 20
8.4837994126
 30
0.0
 10
14.6455699693
 20
8.4691399054
 30
0.0
 10
14.6471180237
 20
8.4550877982
 30
0.0
 10
14.6489320623
 20
8.4417020882
 30
0.0
 10
14.6510042311
 20
8.4290388298
 30
0.0
 10
14.6533256418
 20
8.4171511585
 30
0.0
 10
14.6554962918
 20
8.4077721708
 30
0.0
 10
14.6573603551
 20
8.4007013041
 30
0.0
 10
14.6587894354
 20
8.3957170676
 30
0.0
 10
14.6602730255
 20
8.3909620459
 30
0.0
 10
14.6618095076
 20
8.3864411824
 30
0.0
 10
14.6633973421
 20
8.3821591962
 30
0.0
 10
14.6650348018
 20
8.3781205147
 30
0.0
 10
14.6667202392
 20
8.3743293196
 30
0.0
 10
14.6684519
 20
8.3707894952
 30
0.0
 10
14.6702280249
 20
8.3675046646
 30
0.0
 10
14.6720469252
 20
8.3644781271
 30
0.0
 10
14.6739066741
 20
8.3617130584
 30
0.0
 10
14.67521077
 20
8.359995714
 30
0.0
 10
14.6758702531
 20
8.3591848477
 30
0.0
  0
SPLINE
  5
325
100
AcDbEntity
  8
0
100
AcDbSpline
 62
7
  6
CONTINUOUS
 70
0
 71
3
 72
42
 73
38
 74
0
 42
0.0000001
 43
0.0000001
 44
0.0000000001
 40
0.0
 40
0.0
 40
0.0
 40
0.0
 40
0.0299419644
 40
0.0449235317
 40
0.0599142035
 40
0.0899287023
 40
0.1200139727
 40
0.1350926544
 40
0.1501966973
 40
0.1804840373
 40
0.210897868
 40
0.2414513286
 40
0.2721543342
 40
0.3030133956
 40
0.3340315238
 40
0.3652082165
 40
0.3965395222
 40
0.4280181758
 40
0.459633799
 40
0.4913731572
 40
0.5232204671
 40
0.5551577446
 40
0.5871651885
 40
0.6192215901
 40
0.6513047644
 40
0.683391994
 40
0.715460481
 40
0.7474877999
 40
0.7794523452
 40
0.8113337678
 40
0.8431133918
 40
0.8747746145
 40
0.906303246
 40
0.9376878974
 40
0.9533257627
 40
0.9689252947
 40
1.0
 40
1.0
 40
1.0
 40
1.0
 10
10.0088377393
 20
9.7808854809
 30
0.0
 10
10.012338159
 20
9.7842666254
 30
0.0
 10
10.0177951136
 20
9.789133471
 30
0.0
 10
10.0254374275
 20
9.795172217
 30
0.0
 10
10.0333231779
 20
9.800910385
 30
0.0
 10
10.0436127291
 20
9.8074997462
 30
0.0
 10
10.0544026097
 20
9.8132634744
 30
0.0
 10
10.0633014252
 20
9.81736389
 30
0.0
 10
10.072384122
 20
9.8211256932
 30
0.0
 10
10.0840367671
 20
9.8251708006
 30
0.0
 10
10.0983969115
 20
9.8289407141
 30
0.0
 10
10.1130703967
 20
9.8316114348
 30
0.0
 10
10.1279759108
 20
9.8331682124
 30
0.0
 10
10.1430315727
 20
9.833602743
 30
0.0
 10
10.1581545418
 20
9.8329128139
 30
0.0
 10
10.1732616986
 20
9.8311024107
 30
0.0
 10
10.1882700356
 20
9.8281816586
 30
0.0
 10
10.2030971246
 20
9.8241667673
 30
0.0
 10
10.2176615595
 20
9.8190799349
 30
0.0
 10
10.2318833972
 20
9.8129492229
 30
0.0
 10
10.2456845908
 20
9.8058083996
 30
0.0
 10
10.2589894112
 20
9.7976967542
 30
0.0
 10
10.2717248578
 20
9.7886588813
 30
0.0
 10
10.2838210533
 20
9.778744437
 30
0.0
 10
10.2952116233
 20
9.7680078685
 30
0.0
 10
10.3058340556
 20
9.7565081177
 30
0.0
 10
10.3156300404
 20
9.7443083007
 30
0.0
 10
10.3245457867
 20
9.7314753642
 30
0.0
 10
10.3325323154
 20
9.7180797263
 30
0.0
 10
10.3395457262
 20
9.7041948787
 30
0.0
 10
10.3455474341
 20
9.6898970463
 30
0.0
 10
10.3505043988
 20
9.675264561
 30
0.0
 10
10.3543892285
 20
9.660378227
 30
0.0
 10
10.3567182763
 20
9.6478125506
 30
0.0
 10
10.3580247987
 20
9.6377161721
 30
0.0
 10
10.3589572322
 20
9.6276294573
 30
0.0
 10
10.3592395661
 20
9.6200392691
 30
0.0
 10
10.3592395661
 20
9.6149884231
 30
0.0
  0
SPLINE
  5
326
100
AcDbEntity
  8
0
100
AcDbSpline
 62
7
  6
CONTINUOUS
 70
0
 71
3
 72
42
 73
38
 74
0
 42
0.0000001
 43
0.0000001
 44
0.0000000001
 40
0.0
 40
0.0
 40
0.0
 40
0.0
 40
0.0299419644
 40
0.0449235317
 40
0.0599142035
 40
0.0899287023
 40
0.1200139727
 40
0.1350926544
 40
0.1501966973
 40
0.1804840373
 40
0.210897868
 40
0.2414513286
 40
0.2721543342
 40
0.3030133956
 40
0.3340315238
 40
0.3652082165
 40
0.3965395222
 40
0.4280181758
 40
0.459633799
 40
0.4913731572
 40
0.5232204671
 40
0.5551577446
 40
0.5871651885
 40
0.6192215901
 40
0.6513047644
 40
0.683391994
 40
0.715460481
 40
0.7474877999
 40
0.7794523452
 40
0.8113337678
 40
0.8431133918
 40
0.8747746145
 40
0.906303246
 40
0.9376878974
 40
0.9533257627
 40
0.9689252947
 40
1.0
 40
1.0
 40
1.0
 40
1.0
 10
13.8725413885
 20
9.5129367227
 30
0.0
 10
13.8760418082
 20
9.5163178672
 30
0.0
 10
13.8814987629
 20
9.5211847129
 30
0.0
 10
13.8891410767
 20
9.5272234589
 30
0.0
 10
13.8970268272
 20
9.5329616268
 30
0.0
 10
13.9073163783
 20
9.5395509881
 30
0.0
 10
13.9181062589
 20
9.5453147162
 30
0.0
 10
13.9270050745
 20
9.5494151319
 30
0.0
 10
13.9360877713
 20
9.553176935
 30
0.0
 10
13.9477404163
 20
9.5572220425
 30
0.0
 10
13.9621005608
 20
9.5609919559
 30
0.0
 10
13.9767740459
 20
9.5636626766
 30
0.0
 10
13.99167956
 20
9.5652194542
 30
0.0
 10
14.0067352219
 20
9.5656539849
 30
0.0
 10
14.0218581911
 20
9.5649640558
 30
0.0
 10
14.0369653478
 20
9.5631536526
 30
0.0
 10
14.0519736848
 20
9.5602329004
 30
0.0
 10
14.0668007739
 20
9.5562180091
 30
0.0
 10
14.0813652087
 20
9.5511311768
 30
0.0
 10
14.0955870464
 20
9.5450004647
 30
0.0
 10
14.10938824
 20
9.5378596415
 30
0.0
 10
14.1226930604
 20
9.5297479961
 30
0.0
 10
14.135428507
 20
9.5207101231
 30
0.0
 10
14.1475247026
 20
9.5107956788
 30
0.0
 10
14.1589152725
 20
9.5000591104
 30
0.0
 10
14.1695377048
 20
9.4885593595
 30
0.0
 10
14.1793336896
 20
9.4763595425
 30
0.0
 10
14.188249436
 20
9.4635266061
 30
0.0
 10
14.1962359646
 20
9.4501309682
 30
0.0
 10
14.2032493754
 20
9.4362461206
 30
0.0
 10
14.2092510833
 20
9.4219482881
 30
0.0
 10
14.2142080481
 20
9.4073158028
 30
0.0
 10
14.2180928777
 20
9.3924294688
 30
0.0
 10
14.2204219255
 20
9.3798637924
 30
0.0
 10
14.2217284479
 20
9.3697674139
 30
0.0
 10
14.2226608815
 20
9.3596806991
 30
0.0
 10
14.2229432153
 20
9.352090511
 30
0.0
 10
14.2229432153
 20
9.347039665
 30
0.0
  0
SPLINE
  5
327
100
AcDbEntity
  8
0
100
AcDbSpline
 62
7
  6
CONTINUOUS
 70
0
 71
3
 72
42
 73
38
 74
0
 42
0.0000001
 43
0.0000001
 44
0.0000000001
 40
0.0
 40
0.0
 40
0.0
 40
0.0
 40
0.0299419644
 40
0.0449235317
 40
0.0599142035
 40
0.0899287023
 40
0.1200139727
 40
0.1350926544
 40
0.1501966973
 40
0.1804840373
 40
0.210897868
 40
0.2414513286
 40
0.2721543342
 40
0.3030133956
 40
0.3340315238
 40
0.3652082165
 40
0.3965395222
 40
0.4280181758
 40
0.459633799
 40
0.4913731572
 40
0.5232204671
 40
0.5551577446
 40
0.5871651885
 40
0.6192215901
 40
0.6513047644
 40
0.683391994
 40
0.715460481
 40
0.7474877999
 40
0.7794523452
 40
0.8113337678
 40
0.8431133918
 40
0.8747746145
 40
0.906303246
 40
0.9376878974
 40
0.9533257627
 40
0.9689252947
 40
1.0
 40
1.0
 40
1.0
 40
1.0
 10
13.8725413885
 20
6.856640543
 30
0.0
 10
13.8760418082
 20
6.8600216875
 30
0.0
 10
13.8814987629
 20
6.8648885332
 30
0.0
 10
13.8891410767
 20
6.8709272792
 30
0.0
 10
13.8970268272
 20
6.8766654471
 30
0.0
 10
13.9073163783
 20
6.8832548084
 30
0.0
 10
13.9181062589
 20
6.8890185365
 30
0.0
 10
13.9270050745
 20
6.8931189522
 30
0.0
 10
13.9360877713
 20
6.8968807553
 30
0.0
 10
13.9477404163
 20
6.9009258628
 30
0.0
 10
13.9621005608
 20
6.9046957762
 30
0.0
 10
13.9767740459
 20
6.9073664969
 30
0.0
 10
13.99167956
 20
6.9089232745
 30
0.0
 10
14.0067352219
 20
6.9093578052
 30
0.0
 10
14.0218581911
 20
6.9086678761
 30
0.0
 10
14.0369653478
 20
6.9068574729
 30
0.0
 10
14.0519736848
 20
6.9039367207
 30
0.0
 10
14.0668007739
 20
6.8999218294
 30
0.0
 10
14.0813652087
 20
6.8948349971
 30
0.0
 10
14.0955870464
 20
6.8887042851
 30
0.0
 10
14.10938824
 20
6.8815634618
 30
0.0
 10
14.1226930604
 20
6.8734518164
 30
0.0
 10
14.135428507
 20
6.8644139435
 30
0.0
 10
14.1475247026
 20
6.8544994991
 30
0.0
 10
14.1589152725
 20
6.8437629307
 30
0.0
 10
14.1695377048
 20
6.8322631798
 30
0.0
 10
14.1793336896
 20
6.8200633628
 30
0.0
 10
14.188249436
 20
6.8072304264
 30
0.0
 10
14.1962359646
 20
6.7938347885
 30
0.0
 10
14.2032493754
 20
6.7799499409
 30
0.0
 10
14.2092510833
 20
6.7656521084
 30
0.0
 10
14.2142080481
 20
6.7510196232
 30
0.0
 10
14.2180928777
 20
6.7361332891
 30
0.0
 10
14.2204219255
 20
6.7235676128
 30
0.0
 10
14.2217284479
 20
6.7134712343
 30
0.0
 10
14.2226608815
 20
6.7033845195
 30
0.0
 10
14.2229432153
 20
6.6957943313
 30
0.0
 10
14.2229432153
 20
6.6907434853
 30
0.0
  0
SPLINE
  5
328
100
AcDbEntity
  8
0
100
AcDbSpline
 62
7
  6
CONTINUOUS
 70
0
 71
3
 72
42
 73
38
 74
0
 42
0.0000001
 43
0.0000001
 44
0.0000000001
 40
0.0
 40
0.0
 40
0.0
 40
0.0
 40
0.0299419644
 40
0.0449235317
 40
0.0599142035
 40
0.0899287023
 40
0.1200139727
 40
0.1350926544
 40
0.1501966973
 40
0.1804840373
 40
0.210897868
 40
0.2414513286
 40
0.2721543342
 40
0.3030133956
 40
0.3340315238
 40
0.3652082165
 40
0.3965395222
 40
0.4280181758
 40
0.459633799
 40
0.4913731572
 40
0.5232204671
 40
0.5551577446
 40
0.5871651885
 40
0.6192215901
 40
0.6513047644
 40
0.683391994
 40
0.715460481
 40
0.7474877999
 40
0.7794523452
 40
0.8113337678
 40
0.8431133918
 40
0.8747746145
 40
0.906303246
 40
0.9376878974
 40
0.9533257627
 40
0.9689252947
 40
1.0
 40
1.0
 40
1.0
 40
1.0
 10
10.0088377393
 20
7.1245893012
 30
0.0
 10
10.012338159
 20
7.1279704457
 30
0.0
 10
10.0177951136
 20
7.1328372913
 30
0.0
 10
10.0254374275
 20
7.1388760373
 30
0.0
 10
10.0333231779
 20
7.1446142053
 30
0.0
 10
10.0436127291
 20
7.1512035665
 30
0.0
 10
10.0544026097
 20
7.1569672947
 30
0.0
 10
10.0633014252
 20
7.1610677103
 30
0.0
 10
10.072384122
 20
7.1648295135
 30
0.0
 10
10.0840367671
 20
7.168874621
 30
0.0
 10
10.0983969115
 20
7.1726445344
 30
0.0
 10
10.1130703967
 20
7.1753152551
 30
0.0
 10
10.1279759108
 20
7.1768720327
 30
0.0
 10
10.1430315727
 20
7.1773065633
 30
0.0
 10
10.1581545418
 20
7.1766166343
 30
0.0
 10
10.1732616986
 20
7.174806231
 30
0.0
 10
10.1882700356
 20
7.1718854789
 30
0.0
 10
10.2030971246
 20
7.1678705876
 30
0.0
 10
10.2176615595
 20
7.1627837552
 30
0.0
 10
10.2318833972
 20
7.1566530432
 30
0.0
 10
10.2456845908
 20
7.1495122199
 30
0.0
 10
10.2589894112
 20
7.1414005746
 30
0.0
 10
10.2717248578
 20
7.1323627016
 30
0.0
 10
10.2838210533
 20
7.1224482573
 30
0.0
 10
10.2952116233
 20
7.1117116888
 30
0.0
 10
10.3058340556
 20
7.100211938
 30
0.0
 10
10.3156300404
 20
7.088012121
 30
0.0
 10
10.3245457867
 20
7.0751791846
 30
0.0
 10
10.3325323154
 20
7.0617835467
 30
0.0
 10
10.3395457262
 20
7.047898699
 30
0.0
 10
10.3455474341
 20
7.0336008666
 30
0.0
 10
10.3505043988
 20
7.0189683813
 30
0.0
 10
10.3543892285
 20
7.0040820473
 30
0.0
 10
10.3567182763
 20
6.9915163709
 30
0.0
 10
10.3580247987
 20
6.9814199924
 30
0.0
 10
10.3589572322
 20
6.9713332776
 30
0.0
 10
10.3592395661
 20
6.9637430894
 30
0.0
 10
10.3592395661
 20
6.9586922435
 30
0.0
  0
SPLINE
  5
329
100
AcDbEntity
  8
0
100
AcDbSpline
 62
7
  6
CONTINUOUS
 70
0
 71
3
 72
39
 73
35
 74
0
 42
0.0000001
 43
0.0000001
 44
0.0000000001
 40
0.0
 40
0.0
 40
0.0
 40
0.0
 40
0.0299424755
 40
0.0599093284
 40
0.0899243354
 40
0.1200101072
 40
0.150187554
 40
0.1804753955
 40
0.2108897349
 40
0.2414437065
 40
0.2721472191
 40
0.303006786
 40
0.3340254255
 40
0.36520264
 40
0.396534473
 40
0.4280136511
 40
0.4596297983
 40
0.4913696871
 40
0.5232175377
 40
0.5551553597
 40
0.5871633443
 40
0.6192202856
 40
0.6513040054
 40
0.6833917875
 40
0.7154608257
 40
0.7474886904
 40
0.7794537755
 40
0.8113357506
 40
0.8431159226
 40
0.8747776509
 40
0.9063070221
 40
0.937691541
 40
0.9689256808
 40
1.0
 40
1.0
 40
1.0
 40
1.0
 10
10.7957391143
 20
6.9807640664
 30
0.0
 10
10.7970331069
 20
6.9820139815
 30
0.0
 10
10.7997228116
 20
6.9844129734
 30
0.0
 10
10.8040321783
 20
6.9876811511
 30
0.0
 10
10.808594296
 20
6.9906026902
 30
0.0
 10
10.813383671
 20
6.9931612078
 30
0.0
 10
10.8183739689
 20
6.9953427328
 30
0.0
 10
10.8235376521
 20
6.9971352714
 30
0.0
 10
10.8288462705
 20
6.9985290016
 30
0.0
 10
10.8342705759
 20
6.9995163073
 30
0.0
 10
10.8397806979
 20
7.000091844
 30
0.0
 10
10.8453463162
 20
7.0002525219
 30
0.0
 10
10.8509368233
 20
6.9999975278
 30
0.0
 10
10.8565214882
 20
6.9993283192
 30
0.0
 10
10.8620696226
 20
6.998248631
 30
0.0
 10
10.8675507568
 20
6.9967644743
 30
0.0
 10
10.8729347996
 20
6.9948840592
 30
0.0
 10
10.8781921999
 20
6.9926177572
 30
0.0
 10
10.8832941014
 20
6.9899780401
 30
0.0
 10
10.888212502
 20
6.9869794231
 30
0.0
 10
10.8929204233
 20
6.9836384083
 30
0.0
 10
10.8973920378
 20
6.979973356
 30
0.0
 10
10.9016028098
 20
6.9760043918
 30
0.0
 10
10.905529623
 20
6.9717532966
 30
0.0
 10
10.9091509108
 20
6.9672433954
 30
0.0
 10
10.9124468003
 20
6.9624994494
 30
0.0
 10
10.915399193
 20
6.9575474923
 30
0.0
 10
10.9179918585
 20
6.9524146922
 30
0.0
 10
10.920210524
 20
6.9471292137
 30
0.0
 10
10.922042975
 20
6.9417200417
 30
0.0
 10
10.9234790544
 20
6.9362169395
 30
0.0
 10
10.9245109787
 20
6.9306499147
 30
0.0
 10
10.9251327957
 20
6.9250500623
 30
0.0
 10
10.9252721163
 20
6.9213048436
 30
0.0
 10
10.9252721163
 20
6.9194377528
 30
0.0
  0
SPLINE
  5
32A
100
AcDbEntity
  8
0
100
AcDbSpline
 62
7
  6
CONTINUOUS
 70
0
 71
3
 72
39
 73
35
 74
0
 42
0.0000001
 43
0.0000001
 44
0.0000000001
 40
0.0
 40
0.0
 40
0.0
 40
0.0
 40
0.0299424755
 40
0.0599093284
 40
0.0899243354
 40
0.1200101072
 40
0.150187554
 40
0.1804753955
 40
0.2108897349
 40
0.2414437065
 40
0.2721472191
 40
0.303006786
 40
0.3340254255
 40
0.36520264
 40
0.396534473
 40
0.4280136511
 40
0.4596297983
 40
0.4913696871
 40
0.5232175377
 40
0.5551553597
 40
0.5871633443
 40
0.6192202856
 40
0.6513040054
 40
0.6833917875
 40
0.7154608257
 40
0.7474886904
 40
0.7794537755
 40
0.8113357506
 40
0.8431159226
 40
0.8747776509
 40
0.9063070221
 40
0.937691541
 40
0.9689256808
 40
1.0
 40
1.0
 40
1.0
 40
1.0
 10
13.0144708024
 20
9.4831906809
 30
0.0
 10
13.015764795
 20
9.484440596
 30
0.0
 10
13.0184544997
 20
9.486839588
 30
0.0
 10
13.0227638664
 20
9.4901077656
 30
0.0
 10
13.0273259842
 20
9.4930293047
 30
0.0
 10
13.0321153592
 20
9.4955878223
 30
0.0
 10
13.037105657
 20
9.4977693473
 30
0.0
 10
13.0422693402
 20
9.4995618859
 30
0.0
 10
13.0475779587
 20
9.5009556161
 30
0.0
 10
13.0530022641
 20
9.5019429218
 30
0.0
 10
13.0585123861
 20
9.5025184585
 30
0.0
 10
13.0640780043
 20
9.5026791364
 30
0.0
 10
13.0696685114
 20
9.5024241423
 30
0.0
 10
13.0752531763
 20
9.5017549337
 30
0.0
 10
13.0808013107
 20
9.5006752455
 30
0.0
 10
13.0862824449
 20
9.4991910888
 30
0.0
 10
13.0916664878
 20
9.4973106737
 30
0.0
 10
13.096923888
 20
9.4950443717
 30
0.0
 10
13.1020257896
 20
9.4924046546
 30
0.0
 10
13.1069441901
 20
9.4894060376
 30
0.0
 10
13.1116521114
 20
9.4860650228
 30
0.0
 10
13.116123726
 20
9.4823999705
 30
0.0
 10
13.1203344979
 20
9.4784310063
 30
0.0
 10
13.1242613111
 20
9.4741799111
 30
0.0
 10
13.1278825989
 20
9.4696700099
 30
0.0
 10
13.1311784884
 20
9.4649260639
 30
0.0
 10
13.1341308811
 20
9.4599741068
 30
0.0
 10
13.1367235466
 20
9.4548413067
 30
0.0
 10
13.1389422122
 20
9.4495558282
 30
0.0
 10
13.1407746631
 20
9.4441466562
 30
0.0
 10
13.1422107426
 20
9.438643554
 30
0.0
 10
13.1432426668
 20
9.4330765292
 30
0.0
 10
13.1438644838
 20
9.4274766768
 30
0.0
 10
13.1440038044
 20
9.4237314581
 30
0.0
 10
13.1440038044
 20
9.4218643673
 30
0.0
  0
SPLINE
  5
32B
100
AcDbEntity
  8
0
100
AcDbSpline
 62
7
  6
CONTINUOUS
 70
0
 71
3
 72
40
 73
36
 74
0
 42
0.0000001
 43
0.0000001
 44
0.0000000001
 40
0.0
 40
0.0
 40
0.0
 40
0.0
 40
0.0299422956
 40
0.059908968
 40
0.0899238
 40
0.1200094056
 40
0.1350882594
 40
0.1501924656
 40
0.1804801452
 40
0.2108943177
 40
0.241448122
 40
0.2721514726
 40
0.3030108797
 40
0.334029354
 40
0.3652063934
 40
0.3965380465
 40
0.4280170486
 40
0.4596330217
 40
0.4913727316
 40
0.5232203951
 40
0.5551580282
 40
0.5871658292
 40
0.6192225887
 40
0.6513061205
 40
0.6833937063
 40
0.715462548
 40
0.7474902197
 40
0.779455117
 40
0.8113368874
 40
0.8431168691
 40
0.8747784143
 40
0.9063074703
 40
0.9376922765
 40
0.9689251917
 40
1.0
 40
1.0
 40
1.0
 40
1.0
 10
11.3560218288
 20
9.70100066
 30
0.0
 10
11.3583526771
 20
9.7032520831
 30
0.0
 10
11.3631976471
 20
9.7075732172
 30
0.0
 10
11.3709601124
 20
9.7134600362
 30
0.0
 10
11.3791775751
 20
9.7187223521
 30
0.0
 10
11.3863624328
 20
9.7225604013
 30
0.0
 10
11.3922879452
 20
9.7252907179
 30
0.0
 10
11.3983358901
 20
9.7277956504
 30
0.0
 10
11.4060951198
 20
9.7304891674
 30
0.0
 10
11.4156572037
 20
9.7329994626
 30
0.0
 10
11.425427936
 20
9.7347778204
 30
0.0
 10
11.4353531694
 20
9.7358144307
 30
0.0
 10
11.4453783816
 20
9.7361037625
 30
0.0
 10
11.4554484109
 20
9.7356443439
 30
0.0
 10
11.4655079101
 20
9.7344388294
 30
0.0
 10
11.4755016068
 20
9.7324939615
 30
0.0
 10
11.4853746146
 20
9.7298205342
 30
0.0
 10
11.4950727272
 20
9.7264333283
 30
0.0
 10
11.504542713
 20
9.7223510289
 30
0.0
 10
11.513732602
 20
9.717596121
 30
0.0
 10
11.5225919681
 20
9.7121947654
 30
0.0
 10
11.5310722011
 20
9.706176656
 30
0.0
 10
11.5391267704
 20
9.6995748566
 30
0.0
 10
11.5467114784
 20
9.6924256231
 30
0.0
 10
11.5537847006
 20
9.6847682046
 30
0.0
 10
11.5603076105
 20
9.6766446294
 30
0.0
 10
11.5662443909
 20
9.6680994766
 30
0.0
 10
11.5715624272
 20
9.6591796342
 30
0.0
 10
11.576232491
 20
9.6499340442
 30
0.0
 10
11.5802288822
 20
9.6404134429
 30
0.0
 10
11.583529614
 20
9.6306700591
 30
0.0
 10
11.5861164341
 20
9.6207574412
 30
0.0
 10
11.5879751226
 20
9.6107297701
 30
0.0
 10
11.589095253
 20
9.6006429036
 30
0.0
 10
11.5893461612
 20
9.5938967787
 30
0.0
 10
11.5893461612
 20
9.5905335655
 30
0.0
  0
SPLINE
  5
32C
100
AcDbEntity
  8
0
100
AcDbSpline
 62
7
  6
CONTINUOUS
 70
0
 71
3
 72
40
 73
36
 74
0
 42
0.0000001
 43
0.0000001
 44
0.0000000001
 40
0.0
 40
0.0
 40
0.0
 40
0.0
 40
0.0299422956
 40
0.059908968
 40
0.0899238
 40
0.1200094056
 40
0.1350882594
 40
0.1501924656
 40
0.1804801452
 40
0.2108943177
 40
0.241448122
 40
0.2721514726
 40
0.3030108797
 40
0.334029354
 40
0.3652063934
 40
0.3965380465
 40
0.4280170486
 40
0.4596330217
 40
0.4913727316
 40
0.5232203951
 40
0.5551580282
 40
0.5871658292
 40
0.6192225887
 40
0.6513061205
 40
0.6833937063
 40
0.715462548
 40
0.7474902197
 40
0.779455117
 40
0.8113368874
 40
0.8431168691
 40
0.8747784143
 40
0.9063074703
 40
0.9376922765
 40
0.9689251917
 40
1.0
 40
1.0
 40
1.0
 40
1.0
 10
11.959725506
 20
6.881130868
 30
0.0
 10
11.9620563543
 20
6.8833822911
 30
0.0
 10
11.9669013243
 20
6.8877034252
 30
0.0
 10
11.9746637896
 20
6.8935902442
 30
0.0
 10
11.9828812523
 20
6.8988525601
 30
0.0
 10
11.99006611
 20
6.9026906093
 30
0.0
 10
11.9959916224
 20
6.9054209259
 30
0.0
 10
12.0020395673
 20
6.9079258584
 30
0.0
 10
12.009798797
 20
6.9106193754
 30
0.0
 10
12.0193608809
 20
6.9131296706
 30
0.0
 10
12.0291316132
 20
6.9149080284
 30
0.0
 10
12.0390568466
 20
6.9159446387
 30
0.0
 10
12.0490820588
 20
6.9162339705
 30
0.0
 10
12.0591520881
 20
6.9157745519
 30
0.0
 10
12.0692115873
 20
6.9145690374
 30
0.0
 10
12.079205284
 20
6.9126241695
 30
0.0
 10
12.0890782918
 20
6.9099507422
 30
0.0
 10
12.0987764044
 20
6.9065635363
 30
0.0
 10
12.1082463902
 20
6.9024812369
 30
0.0
 10
12.1174362792
 20
6.897726329
 30
0.0
 10
12.1262956453
 20
6.8923249734
 30
0.0
 10
12.1347758783
 20
6.886306864
 30
0.0
 10
12.1428304476
 20
6.8797050646
 30
0.0
 10
12.1504151556
 20
6.8725558311
 30
0.0
 10
12.1574883778
 20
6.8648984126
 30
0.0
 10
12.1640112877
 20
6.8567748374
 30
0.0
 10
12.1699480681
 20
6.8482296846
 30
0.0
 10
12.1752661044
 20
6.8393098422
 30
0.0
 10
12.1799361682
 20
6.8300642522
 30
0.0
 10
12.1839325595
 20
6.8205436509
 30
0.0
 10
12.1872332912
 20
6.8108002671
 30
0.0
 10
12.1898201113
 20
6.8008876492
 30
0.0
 10
12.1916787998
 20
6.7908599781
 30
0.0
 10
12.1927989302
 20
6.7807731116
 30
0.0
 10
12.1930498384
 20
6.7740269867
 30
0.0
 10
12.1930498384
 20
6.7706637735
 30
0.0
  0
SPLINE
  5
32D
100
AcDbEntity
  8
0
100
AcDbSpline
 62
7
  6
CONTINUOUS
 70
0
 71
3
 72
39
 73
35
 74
0
 42
0.0000001
 43
0.0000001
 44
0.0000000001
 40
0.0
 40
0.0
 40
0.0
 40
0.0
 40
0.0063160434
 40
0.0126710029
 40
0.0191030045
 40
0.0256487356
 40
0.0323428089
 40
0.0392173377
 40
0.0536155953
 40
0.0690528149
 40
0.0856862522
 40
0.1036346846
 40
0.122984865
 40
0.1437978688
 40
0.1661140263
 40
0.1899570033
 40
0.2153371736
 40
0.2422537757
 40
0.2706968018
 40
0.3006486039
 40
0.3320847235
 40
0.3649748471
 40
0.3992836485
 40
0.4349710839
 40
0.4719929806
 40
0.5103015368
 40
0.5498454104
 40
0.5905701547
 40
0.6324185518
 40
0.675330643
 40
0.7192440403
 40
0.8098129706
 40
0.9035866016
 40
1.0
 40
1.0
 40
1.0
 40
1.0
 10
14.6956604378
 20
8.1733849198
 30
0.0
 10
14.6949167571
 20
8.1734364987
 30
0.0
 10
14.6934283299
 20
8.1736008684
 30
0.0
 10
14.6912123737
 20
8.1740292597
 30
0.0
 10
14.689011219
 20
8.1746394395
 30
0.0
 10
14.6868261704
 20
8.1754310119
 30
0.0
 10
14.6846581034
 20
8.1764034537
 30
0.0
 10
14.6817468269
 20
8.1779640575
 30
0.0
 10
14.6781444154
 20
8.1803941354
 30
0.0
 10
14.673977617
 20
8.1839761434
 30
0.0
 10
14.66990366
 20
8.1882607396
 30
0.0
 10
14.6659272678
 20
8.1932399842
 30
0.0
 10
14.6620526972
 20
8.198906058
 30
0.0
 10
14.6582850869
 20
8.2052502591
 30
0.0
 10
14.6546297675
 20
8.2122628304
 30
0.0
 10
14.6510922266
 20
8.2199328349
 30
0.0
 10
14.647678045
 20
8.2282481887
 30
0.0
 10
14.6443926921
 20
8.2371956165
 30
0.0
 10
14.6412414938
 20
8.2467607094
 30
0.0
 10
14.6382296676
 20
8.2569279824
 30
0.0
 10
14.6353621797
 20
8.2676808811
 30
0.0
 10
14.6326437693
 20
8.2790018375
 30
0.0
 10
14.630078989
 20
8.2908723199
 30
0.0
 10
14.6276720924
 20
8.3032728495
 30
0.0
 10
14.6254270746
 20
8.3161830515
 30
0.0
 10
14.6233477064
 20
8.3295816981
 30
0.0
 10
14.6214374356
 20
8.343446734
 30
0.0
 10
14.6196994337
 20
8.3577553256
 30
0.0
 10
14.6181366322
 20
8.3724838961
 30
0.0
 10
14.6167515873
 20
8.3876081907
 30
0.0
 10
14.6151283789
 20
8.4084831497
 30
0.0
 10
14.6135732234
 20
8.4353819239
 30
0.0
 10
14.6124625042
 20
8.4685030415
 30
0.0
 10
14.6122214624
 20
8.4909512615
 30
0.0
 10
14.6122214624
 20
8.5023307006
 30
0.0
  0
SPLINE
  5
32E
100
AcDbEntity
  8
0
100
AcDbSpline
 62
7
  6
CONTINUOUS
 70
0
 71
3
 72
39
 73
35
 74
0
 42
0.0000001
 43
0.0000001
 44
0.0000000001
 40
0.0
 40
0.0
 40
0.0
 40
0.0
 40
0.0299424738
 40
0.059909323
 40
0.08992433
 40
0.1200101081
 40
0.1501875632
 40
0.1804754089
 40
0.2108897447
 40
0.2414437113
 40
0.2721472249
 40
0.3030067977
 40
0.3340254418
 40
0.3652026556
 40
0.3965344874
 40
0.4280136709
 40
0.459629826
 40
0.4913697177
 40
0.5232175626
 40
0.5551553772
 40
0.5871633608
 40
0.6192203054
 40
0.6513040259
 40
0.6833918041
 40
0.7154608404
 40
0.747488707
 40
0.7794537981
 40
0.8113357603
 40
0.8431159345
 40
0.8747776602
 40
0.9063069325
 40
0.93769185
 40
0.9689251012
 40
1.0
 40
1.0
 40
1.0
 40
1.0
 10
13.419382075
 20
7.3133170844
 30
0.0
 10
13.4214557815
 20
7.3153201488
 30
0.0
 10
13.4257662236
 20
7.3191646585
 30
0.0
 10
13.4326722617
 20
7.324402104
 30
0.0
 10
13.4399833423
 20
7.3290840516
 30
0.0
 10
13.4476586236
 20
7.3331842248
 30
0.0
 10
13.4556559024
 20
7.3366802282
 30
0.0
 10
13.463931042
 20
7.3395528451
 30
0.0
 10
13.4724384406
 20
7.3417863598
 30
0.0
 10
13.4811312284
 20
7.343368579
 30
0.0
 10
13.4899615446
 20
7.3442909083
 30
0.0
 10
13.498880798
 20
7.3445483886
 30
0.0
 10
13.5078399352
 20
7.344139718
 30
0.0
 10
13.5167897079
 20
7.3430672527
 30
0.0
 10
13.5256809413
 20
7.3413369887
 30
0.0
 10
13.5344648018
 20
7.3389585286
 30
0.0
 10
13.5430930625
 20
7.3359450261
 30
0.0
 10
13.5515183636
 20
7.3323131068
 30
0.0
 10
13.559694469
 20
7.3280827768
 30
0.0
 10
13.5675765156
 20
7.3232773121
 30
0.0
 10
13.5751212566
 20
7.317923131
 30
0.0
 10
13.5822872951
 20
7.3120496499
 30
0.0
 10
13.5890353083
 20
7.3056891233
 30
0.0
 10
13.5953282614
 20
7.2988764683
 30
0.0
 10
13.6011316072
 20
7.2916490748
 30
0.0
 10
13.6064134794
 20
7.2840466055
 30
0.0
 10
13.6111448622
 20
7.2761107778
 30
0.0
 10
13.6152997532
 20
7.2678851359
 30
0.0
 10
13.6188552855
 20
7.25941482
 30
0.0
 10
13.6217919053
 20
7.2507462958
 30
0.0
 10
13.6240933577
 20
7.2419272109
 30
0.0
 10
13.6257470217
 20
7.2330057525
 30
0.0
 10
13.6267435774
 20
7.2240316366
 30
0.0
 10
13.6269668125
 20
7.2180297167
 30
0.0
 10
13.6269668125
 20
7.215037531
 30
0.0
  0
SPLINE
  5
32F
100
AcDbEntity
  8
0
100
AcDbSpline
 62
7
  6
CONTINUOUS
 70
0
 71
3
 72
39
 73
35
 74
0
 42
0.0000001
 43
0.0000001
 44
0.0000000001
 40
0.0
 40
0.0
 40
0.0
 40
0.0
 40
0.0299424738
 40
0.059909323
 40
0.08992433
 40
0.1200101081
 40
0.1501875632
 40
0.1804754089
 40
0.2108897447
 40
0.2414437113
 40
0.2721472249
 40
0.3030067977
 40
0.3340254418
 40
0.3652026556
 40
0.3965344874
 40
0.4280136709
 40
0.459629826
 40
0.4913697177
 40
0.5232175626
 40
0.5551553772
 40
0.5871633608
 40
0.6192203054
 40
0.6513040259
 40
0.6833918041
 40
0.7154608404
 40
0.747488707
 40
0.7794537981
 40
0.8113357603
 40
0.8431159345
 40
0.8747776602
 40
0.9063069325
 40
0.93769185
 40
0.9689251012
 40
1.0
 40
1.0
 40
1.0
 40
1.0
 10
12.9818175834
 20
8.9132918457
 30
0.0
 10
12.98389129
 20
8.91529491
 30
0.0
 10
12.9882017321
 20
8.9191394198
 30
0.0
 10
12.9951077701
 20
8.9243768653
 30
0.0
 10
13.0024188507
 20
8.9290588129
 30
0.0
 10
13.010094132
 20
8.9331589861
 30
0.0
 10
13.0180914109
 20
8.9366549895
 30
0.0
 10
13.0263665505
 20
8.9395276064
 30
0.0
 10
13.034873949
 20
8.9417611211
 30
0.0
 10
13.0435667368
 20
8.9433433403
 30
0.0
 10
13.052397053
 20
8.9442656696
 30
0.0
 10
13.0613163065
 20
8.9445231499
 30
0.0
 10
13.0702754436
 20
8.9441144792
 30
0.0
 10
13.0792252163
 20
8.943042014
 30
0.0
 10
13.0881164498
 20
8.94131175
 30
0.0
 10
13.0969003103
 20
8.9389332899
 30
0.0
 10
13.1055285709
 20
8.9359197874
 30
0.0
 10
13.1139538721
 20
8.9322878681
 30
0.0
 10
13.1221299774
 20
8.9280575381
 30
0.0
 10
13.1300120241
 20
8.9232520734
 30
0.0
 10
13.1375567651
 20
8.9178978923
 30
0.0
 10
13.1447228035
 20
8.9120244112
 30
0.0
 10
13.1514708168
 20
8.9056638846
 30
0.0
 10
13.1577637699
 20
8.8988512296
 30
0.0
 10
13.1635671156
 20
8.8916238361
 30
0.0
 10
13.1688489878
 20
8.8840213667
 30
0.0
 10
13.1735803707
 20
8.8760855391
 30
0.0
 10
13.1777352616
 20
8.8678598972
 30
0.0
 10
13.181290794
 20
8.8593895813
 30
0.0
 10
13.1842274137
 20
8.8507210571
 30
0.0
 10
13.1865288661
 20
8.8419019722
 30
0.0
 10
13.1881825301
 20
8.8329805137
 30
0.0
 10
13.1891790858
 20
8.8240063978
 30
0.0
 10
13.189402321
 20
8.818004478
 30
0.0
 10
13.189402321
 20
8.8150122923
 30
0.0
  0
SPLINE
  5
330
100
AcDbEntity
  8
0
100
AcDbSpline
 62
7
  6
CONTINUOUS
 70
0
 71
3
 72
25
 73
21
 74
0
 42
0.0000001
 43
0.0000001
 44
0.0000000001
 40
0.0
 40
0.0
 40
0.0
 40
0.0
 40
0.0620884911
 40
0.1240593102
 40
0.1859486795
 40
0.2477948078
 40
0.3096372245
 40
0.3715160483
 40
0.4334712071
 40
0.4955416271
 40
0.5577644121
 40
0.6201740425
 40
0.6828016069
 40
0.7142106106
 40
0.7456838588
 40
0.8088236308
 40
0.8722479764
 40
0.9040749066
 40
0.935977544
 40
1.0
 40
1.0
 40
1.0
 40
1.0
 10
10.5599049643
 20
9.2230344907
 30
0.0
 10
10.56344808
 20
9.2292673906
 30
0.0
 10
10.5709583504
 20
9.2414822759
 30
0.0
 10
10.5834556275
 20
9.2589631468
 30
0.0
 10
10.5971261483
 20
9.2755079843
 30
0.0
 10
10.6119153931
 20
9.2910403092
 30
0.0
 10
10.627764155
 20
9.3054884712
 30
0.0
 10
10.6446075378
 20
9.3187842503
 30
0.0
 10
10.6623753603
 20
9.3308638529
 30
0.0
 10
10.6809921734
 20
9.3416682665
 30
0.0
 10
10.7003777911
 20
9.3511438717
 30
0.0
 10
10.720446552
 20
9.3592426794
 30
0.0
 10
10.7376514524
 20
9.3648050802
 30
0.0
 10
10.7516604533
 20
9.3685293781
 30
0.0
 10
10.7658494703
 20
9.3717720607
 30
0.0
 10
10.7838448757
 20
9.3748984284
 30
0.0
 10
10.8020546015
 20
9.376768222
 30
0.0
 10
10.8167213893
 20
9.377510019
 30
0.0
 10
10.8314735213
 20
9.3777478749
 30
0.0
 10
10.8425547216
 20
9.3773559116
 30
0.0
 10
10.8499298974
 20
9.3768444415
 30
0.0
  0
SPLINE
  5
331
100
AcDbEntity
  8
0
100
AcDbSpline
 62
7
  6
CONTINUOUS
 70
0
 71
3
 72
18
 73
14
 74
0
 42
0.0000001
 43
0.0000001
 44
0.0000000001
 40
0.0
 40
0.0
 40
0.0
 40
0.0
 40
0.1492435137
 40
0.2896566257
 40
0.4219550777
 40
0.485351101
 40
0.547069549
 40
0.6660129848
 40
0.7801156501
 40
0.8358360225
 40
0.8909169124
 40
0.9455668623
 40
1.0
 40
1.0
 40
1.0
 40
1.0
 10
9.0238661119
 20
6.9333527096
 30
0.0
 10
9.0251892049
 20
6.9317259094
 30
0.0
 10
9.0278578889
 20
6.9286481883
 30
0.0
 10
9.0320645097
 20
6.9244626655
 30
0.0
 10
9.0356823298
 20
6.9214167899
 30
0.0
 10
9.0386085858
 20
6.9192890378
 30
0.0
 10
9.0414792133
 20
6.9174112428
 30
0.0
 10
9.0451168883
 20
6.9154136884
 30
0.0
 10
9.0488829334
 20
6.91387645
 30
0.0
 10
9.0519085379
 20
6.9129586532
 30
0.0
 10
9.0541727914
 20
6.9124250219
 30
0.0
 10
9.0564487308
 20
6.9120412112
 30
0.0
 10
9.0579747089
 20
6.9118851272
 30
0.0
 10
9.058737678
 20
6.9118322146
 30
0.0
  0
SPLINE
  5
332
100
AcDbEntity
  8
0
100
AcDbSpline
 62
7
  6
CONTINUOUS
 70
0
 71
3
 72
15
 73
11
 74
0
 42
0.0000001
 43
0.0000001
 44
0.0000000001
 40
0.0
 40
0.0
 40
0.0
 40
0.0
 40
0.1264838726
 40
0.2525365744
 40
0.3781419971
 40
0.5033039186
 40
0.6280407472
 40
0.7523805661
 40
0.8763559449
 40
1.0
 40
1.0
 40
1.0
 40
1.0
 10
11.1799507989
 20
9.0526860938
 30
0.0
 10
11.1742941597
 20
9.0498562573
 30
0.0
 10
11.1628245387
 20
9.0445490785
 30
0.0
 10
11.1451857379
 20
9.0377002264
 30
0.0
 10
11.1272029256
 20
9.032025341
 30
0.0
 10
11.1089481576
 20
9.0275662318
 30
0.0
 10
11.0904969546
 20
9.0243548778
 30
0.0
 10
11.0719282882
 20
9.0224143963
 30
0.0
 10
11.0533253915
 20
9.0217590494
 30
0.0
 10
11.0409382636
 20
9.0221836623
 30
0.0
 10
11.034770094
 20
9.0226114263
 30
0.0
  0
SPLINE
  5
333
100
AcDbEntity
  8
0
100
AcDbSpline
 62
7
  6
CONTINUOUS
 70
0
 71
3
 72
39
 73
35
 74
0
 42
0.0000001
 43
0.0000001
 44
0.0000000001
 40
0.0
 40
0.0
 40
0.0
 40
0.0
 40
0.029942471
 40
0.0599093185
 40
0.089924325
 40
0.1200101043
 40
0.1501875632
 40
0.1804754155
 40
0.2108897611
 40
0.2414437393
 40
0.2721472649
 40
0.3030068482
 40
0.3340255005
 40
0.3652027199
 40
0.3965345553
 40
0.4280137416
 40
0.4596298994
 40
0.4913697937
 40
0.523217641
 40
0.5551554573
 40
0.5871634413
 40
0.619220384
 40
0.6513040994
 40
0.6833918697
 40
0.715460897
 40
0.7474887556
 40
0.7794538398
 40
0.8113357995
 40
0.8431159588
 40
0.874777715
 40
0.9063068673
 40
0.9376920959
 40
0.968924654
 40
1.0
 40
1.0
 40
1.0
 40
1.0
 10
11.7968074834
 20
9.2231293234
 30
0.0
 10
11.8030286091
 20
9.2291384644
 30
0.0
 10
11.8159600526
 20
9.240671771
 30
0.0
 10
11.8366782301
 20
9.2563838617
 30
0.0
 10
11.858611527
 20
9.270429446
 30
0.0
 10
11.8816373868
 20
9.2827297373
 30
0.0
 10
11.905629217
 20
9.2932175354
 30
0.0
 10
11.9304546118
 20
9.3018351856
 30
0.0
 10
11.9559767717
 20
9.3085355268
 30
0.0
 10
11.9820550858
 20
9.3132819774
 30
0.0
 10
12.0085459691
 20
9.3160487654
 30
0.0
 10
12.0353036475
 20
9.3168210199
 30
0.0
 10
12.0621809614
 20
9.3155948408
 30
0.0
 10
12.0890301692
 20
9.3123772999
 30
0.0
 10
12.1157037502
 20
9.3071863874
 30
0.0
 10
12.1420552048
 20
9.3000509038
 30
0.0
 10
12.1679398554
 20
9.2910103119
 30
0.0
 10
12.1932156254
 20
9.2801144887
 30
0.0
 10
12.2177438073
 20
9.2674234509
 30
0.0
 10
12.2413898119
 20
9.2530070231
 30
0.0
 10
12.2640238968
 20
9.2369444567
 30
0.0
 10
12.2855218658
 20
9.2193239948
 30
0.0
 10
12.305765757
 20
9.2002424092
 30
0.0
 10
12.3246444763
 20
9.1798044603
 30
0.0
 10
12.3420543955
 20
9.1581223226
 30
0.0
 10
12.357899915
 20
9.1353149774
 30
0.0
 10
12.3720939844
 20
9.1115075686
 30
0.0
 10
12.3845585724
 20
9.0868307194
 30
0.0
 10
12.395225108
 20
9.0614198474
 30
0.0
 10
12.4040348479
 20
9.0354143723
 30
0.0
 10
12.4109392368
 20
9.0089571588
 30
0.0
 10
12.4159000287
 20
8.9821929944
 30
0.0
 10
12.4188898221
 20
8.955270742
 30
0.0
 10
12.4195594581
 20
8.9372651125
 30
0.0
 10
12.4195594581
 20
8.9282884583
 30
0.0
  0
SPLINE
  5
334
100
AcDbEntity
  8
0
100
AcDbSpline
 62
7
  6
CONTINUOUS
 70
0
 71
3
 72
18
 73
14
 74
0
 42
0.0000001
 43
0.0000001
 44
0.0000000001
 40
0.0
 40
0.0
 40
0.0
 40
0.0
 40
0.0544328977
 40
0.1090825819
 40
0.164163178
 40
0.2198832571
 40
0.3339856861
 40
0.4529288702
 40
0.5146466453
 40
0.5780414074
 40
0.7103382159
 40
0.8507568709
 40
1.0
 40
1.0
 40
1.0
 40
1.0
 10
9.5267993635
 20
10.5235845148
 30
0.0
 10
9.5260363978
 20
10.5236374272
 30
0.0
 10
9.5245034895
 20
10.5236934809
 30
0.0
 10
9.5221963686
 20
10.5236275034
 30
0.0
 10
9.5198801417
 20
10.5234115336
 30
0.0
 10
9.5167568206
 20
10.522920181
 30
0.0
 10
9.5128146448
 20
10.5219175024
 30
0.0
 10
9.5089360715
 20
10.5204412133
 30
0.0
 10
9.5058337417
 20
10.5189776707
 30
0.0
 10
9.5026418267
 20
10.5172742575
 30
0.0
 10
9.4986381473
 20
10.5147569378
 30
0.0
 10
9.4938940354
 20
10.5111920735
 30
0.0
 10
9.4908259888
 20
10.5085121646
 30
0.0
 10
9.4892910027
 20
10.5070835817
 30
0.0
  0
SPLINE
  5
335
100
AcDbEntity
  8
0
100
AcDbSpline
 62
7
  6
CONTINUOUS
 70
0
 71
3
 72
39
 73
35
 74
0
 42
0.0000001
 43
0.0000001
 44
0.0000000001
 40
0.0
 40
0.0
 40
0.0
 40
0.0
 40
0.029942471
 40
0.0599093185
 40
0.089924325
 40
0.1200101043
 40
0.1501875632
 40
0.1804754155
 40
0.2108897611
 40
0.2414437393
 40
0.2721472649
 40
0.3030068482
 40
0.3340255005
 40
0.3652027199
 40
0.3965345553
 40
0.4280137416
 40
0.4596298994
 40
0.4913697937
 40
0.523217641
 40
0.5551554573
 40
0.5871634413
 40
0.619220384
 40
0.6513040994
 40
0.6833918697
 40
0.715460897
 40
0.7474887556
 40
0.7794538398
 40
0.8113357995
 40
0.8431159588
 40
0.874777715
 40
0.9063068673
 40
0.9376920959
 40
0.968924654
 40
1.0
 40
1.0
 40
1.0
 40
1.0
 10
12.4005111606
 20
7.6125986839
 30
0.0
 10
12.4067322863
 20
7.6186078249
 30
0.0
 10
12.4196637298
 20
7.6301411315
 30
0.0
 10
12.4403819073
 20
7.6458532222
 30
0.0
 10
12.4623152042
 20
7.6598988065
 30
0.0
 10
12.485341064
 20
7.6721990978
 30
0.0
 10
12.5093328942
 20
7.6826868959
 30
0.0
 10
12.534158289
 20
7.6913045461
 30
0.0
 10
12.5596804489
 20
7.6980048873
 30
0.0
 10
12.585758763
 20
7.7027513379
 30
0.0
 10
12.6122496463
 20
7.7055181259
 30
0.0
 10
12.6390073247
 20
7.7062903804
 30
0.0
 10
12.6658846386
 20
7.7050642013
 30
0.0
 10
12.6927338464
 20
7.7018466604
 30
0.0
 10
12.7194074274
 20
7.6966557479
 30
0.0
 10
12.745758882
 20
7.6895202643
 30
0.0
 10
12.7716435326
 20
7.6804796724
 30
0.0
 10
12.7969193026
 20
7.6695838492
 30
0.0
 10
12.8214474845
 20
7.6568928114
 30
0.0
 10
12.8450934891
 20
7.6424763836
 30
0.0
 10
12.867727574
 20
7.6264138172
 30
0.0
 10
12.889225543
 20
7.6087933553
 30
0.0
 10
12.9094694342
 20
7.5897117697
 30
0.0
 10
12.9283481535
 20
7.5692738208
 30
0.0
 10
12.9457580727
 20
7.5475916831
 30
0.0
 10
12.9616035922
 20
7.5247843379
 30
0.0
 10
12.9757976616
 20
7.5009769291
 30
0.0
 10
12.9882622496
 20
7.4763000799
 30
0.0
 10
12.9989287852
 20
7.4508892079
 30
0.0
 10
13.0077385251
 20
7.4248837328
 30
0.0
 10
13.014642914
 20
7.3984265193
 30
0.0
 10
13.0196037059
 20
7.3716623549
 30
0.0
 10
13.0225934993
 20
7.3447401025
 30
0.0
 10
13.0232631353
 20
7.326734473
 30
0.0
 10
13.0232631353
 20
7.3177578188
 30
0.0
  0
SPLINE
  5
336
100
AcDbEntity
  8
0
100
AcDbSpline
 62
7
  6
CONTINUOUS
 70
0
 71
3
 72
39
 73
35
 74
0
 42
0.0000001
 43
0.0000001
 44
0.0000000001
 40
0.0
 40
0.0
 40
0.0
 40
0.0
 40
0.029942471
 40
0.0599093185
 40
0.089924325
 40
0.1200101043
 40
0.1501875632
 40
0.1804754155
 40
0.2108897611
 40
0.2414437393
 40
0.2721472649
 40
0.3030068482
 40
0.3340255005
 40
0.3652027199
 40
0.3965345553
 40
0.4280137416
 40
0.4596298994
 40
0.4913697937
 40
0.523217641
 40
0.5551554573
 40
0.5871634413
 40
0.619220384
 40
0.6513040994
 40
0.6833918697
 40
0.715460897
 40
0.7474887556
 40
0.7794538398
 40
0.8113357995
 40
0.8431159588
 40
0.874777715
 40
0.9063068673
 40
0.9376920959
 40
0.968924654
 40
1.0
 40
1.0
 40
1.0
 40
1.0
 10
11.1931038062
 20
7.6963326683
 30
0.0
 10
11.1993249319
 20
7.7023418093
 30
0.0
 10
11.2122563754
 20
7.713875116
 30
0.0
 10
11.2329745529
 20
7.7295872066
 30
0.0
 10
11.2549078498
 20
7.7436327909
 30
0.0
 10
11.2779337096
 20
7.7559330823
 30
0.0
 10
11.3019255398
 20
7.7664208804
 30
0.0
 10
11.3267509346
 20
7.7750385305
 30
0.0
 10
11.3522730945
 20
7.7817388717
 30
0.0
 10
11.3783514086
 20
7.7864853223
 30
0.0
 10
11.4048422919
 20
7.7892521103
 30
0.0
 10
11.4315999703
 20
7.7900243649
 30
0.0
 10
11.4584772842
 20
7.7887981857
 30
0.0
 10
11.485326492
 20
7.7855806449
 30
0.0
 10
11.512000073
 20
7.7803897323
 30
0.0
 10
11.5383515276
 20
7.7732542487
 30
0.0
 10
11.5642361782
 20
7.7642136568
 30
0.0
 10
11.5895119482
 20
7.7533178336
 30
0.0
 10
11.6140401301
 20
7.7406267958
 30
0.0
 10
11.6376861347
 20
7.726210368
 30
0.0
 10
11.6603202196
 20
7.7101478016
 30
0.0
 10
11.6818181886
 20
7.6925273398
 30
0.0
 10
11.7020620798
 20
7.6734457541
 30
0.0
 10
11.7209407991
 20
7.6530078052
 30
0.0
 10
11.7383507183
 20
7.6313256676
 30
0.0
 10
11.7541962378
 20
7.6085183223
 30
0.0
 10
11.7683903072
 20
7.5847109135
 30
0.0
 10
11.7808548952
 20
7.5600340644
 30
0.0
 10
11.7915214308
 20
7.5346231923
 30
0.0
 10
11.8003311707
 20
7.5086177172
 30
0.0
 10
11.8072355596
 20
7.4821605037
 30
0.0
 10
11.8121963515
 20
7.4553963394
 30
0.0
 10
11.8151861449
 20
7.4284740869
 30
0.0
 10
11.8158557809
 20
7.4104684574
 30
0.0
 10
11.8158557809
 20
7.4014918033
 30
0.0
  0
SPLINE
  5
337
100
AcDbEntity
  8
0
100
AcDbSpline
 62
7
  6
CONTINUOUS
 70
0
 71
3
 72
42
 73
38
 74
0
 42
0.0000001
 43
0.0000001
 44
0.0000000001
 40
0.0
 40
0.0
 40
0.0
 40
0.0
 40
0.0309828547
 40
0.0465296605
 40
0.0621107795
 40
0.0933702983
 40
0.1247578398
 40
0.1562635862
 40
0.1878756422
 40
0.2195804206
 40
0.2513628962
 40
0.2832069223
 40
0.3150955371
 40
0.3470112721
 40
0.3789364518
 40
0.4108534798
 40
0.4427451088
 40
0.4745946912
 40
0.5063864104
 40
0.5381054901
 40
0.5697383838
 40
0.6012729439
 40
0.6326985712
 40
0.6640063463
 40
0.6951891424
 40
0.7262417208
 40
0.757160809
 40
0.7879451596
 40
0.8185955914
 40
0.8491150078
 40
0.8643290677
 40
0.8795124205
 40
0.9097868142
 40
0.9399512479
 40
0.9549976788
 40
0.9700208829
 40
1.0
 40
1.0
 40
1.0
 40
1.0
 10
10.8499298788
 20
8.6974408354
 30
0.0
 10
10.8426157312
 20
8.6979480733
 30
0.0
 10
10.8316525284
 20
8.6990795208
 30
0.0
 10
10.8171237026
 20
8.7013139662
 30
0.0
 10
10.8026117177
 20
8.7040392201
 30
0.0
 10
10.7845948605
 20
8.7083530075
 30
0.0
 10
10.7632961193
 20
8.714944372
 30
0.0
 10
10.7423881229
 20
8.7229240068
 30
0.0
 10
10.7219639649
 20
8.7322525727
 30
0.0
 10
10.7021128761
 20
8.7428845488
 30
0.0
 10
10.6829206711
 20
8.7547685378
 30
0.0
 10
10.6644690874
 20
8.7678477631
 30
0.0
 10
10.6468355099
 20
8.7820605524
 30
0.0
 10
10.6300926746
 20
8.7973408362
 30
0.0
 10
10.6143084618
 20
8.8136186441
 30
0.0
 10
10.5995457416
 20
8.8308205879
 30
0.0
 10
10.585862276
 20
8.8488703246
 30
0.0
 10
10.5733106674
 20
8.8676889928
 30
0.0
 10
10.5619383462
 20
8.8871956168
 30
0.0
 10
10.5517875891
 20
8.9073074772
 30
0.0
 10
10.5428955616
 20
8.927940446
 30
0.0
 10
10.5352943739
 20
8.9490092868
 30
0.0
 10
10.5290111462
 20
8.9704279216
 30
0.0
 10
10.5240680753
 20
8.9921096693
 30
0.0
 10
10.5204824949
 20
9.0139674518
 30
0.0
 10
10.5182669333
 20
9.0359140011
 30
0.0
 10
10.5174291376
 20
9.0578619656
 30
0.0
 10
10.5179721563
 20
9.0797243188
 30
0.0
 10
10.5198941328
 20
9.1014135996
 30
0.0
 10
10.5226428482
 20
9.119292501
 30
0.0
 10
10.5255238461
 20
9.1334191407
 30
0.0
 10
10.5288496019
 20
9.1473881593
 30
0.0
 10
10.5338460301
 20
9.1645857967
 30
0.0
 10
10.539956342
 20
9.181385708
 30
0.0
 10
10.5454936339
 20
9.1945224928
 30
0.0
 10
10.5514492709
 20
9.2074260602
 30
0.0
 10
10.5563990983
 20
9.2168671189
 30
0.0
 10
10.5599049643
 20
9.2230344907
 30
0.0
  0
SPLINE
  5
338
100
AcDbEntity
  8
0
100
AcDbSpline
 62
7
  6
CONTINUOUS
 70
0
 71
3
 72
15
 73
11
 74
0
 42
0.0000001
 43
0.0000001
 44
0.0000000001
 40
0.0
 40
0.0
 40
0.0
 40
0.0
 40
0.127347711
 40
0.2538606874
 40
0.3795878987
 40
0.5046050998
 40
0.6290174656
 40
0.7529533976
 40
0.8765605982
 40
1.0
 40
1.0
 40
1.0
 40
1.0
 10
12.9933193666
 20
9.4323143685
 30
0.0
 10
12.9933193666
 20
9.4347165691
 30
0.0
 10
12.9935487289
 20
9.4395085447
 30
0.0
 10
12.9945859707
 20
9.4466043455
 30
0.0
 10
12.9963059263
 20
9.453521866
 30
0.0
 10
12.9986930312
 20
9.4601963955
 30
0.0
 10
13.0017253866
 20
9.4665663984
 30
0.0
 10
13.0053753547
 20
9.4725730538
 30
0.0
 10
13.0096086213
 20
9.4781600753
 30
0.0
 10
13.012796044
 20
9.48157297
 30
0.0
 10
13.0144708024
 20
9.4831906809
 30
0.0
  0
SPLINE
  5
339
100
AcDbEntity
  8
0
100
AcDbSpline
 62
7
  6
CONTINUOUS
 70
0
 71
3
 72
32
 73
28
 74
0
 42
0.0000001
 43
0.0000001
 44
0.0000000001
 40
0.0
 40
0.0
 40
0.0
 40
0.0
 40
0.0851788256
 40
0.1685805939
 40
0.2498831809
 40
0.3287739947
 40
0.4049543857
 40
0.4781405615
 40
0.5480662501
 40
0.581729445
 40
0.6144868725
 40
0.6463114519
 40
0.6771775691
 40
0.7070615392
 40
0.7359415075
 40
0.763797774
 40
0.790612955
 40
0.8163721473
 40
0.8410634064
 40
0.8646777882
 40
0.8872101701
 40
0.9086592878
 40
0.9290289006
 40
0.9483280334
 40
0.9665724873
 40
0.9837855716
 40
1.0
 40
1.0
 40
1.0
 40
1.0
 10
8.9521629385
 20
7.3319857002
 30
0.0
 10
8.9521629385
 20
7.3203412761
 30
0.0
 10
8.9523613605
 20
7.2972947999
 30
0.0
 10
8.9532714374
 20
7.2631446403
 30
0.0
 10
8.954787177
 20
7.2298762121
 30
0.0
 10
8.9569020293
 20
7.1976295954
 30
0.0
 10
8.9596068041
 20
7.1665403993
 30
0.0
 10
8.9628898809
 20
7.1367394798
 30
0.0
 10
8.9661354752
 20
7.1127891544
 30
0.0
 10
8.9690243314
 20
7.0943745218
 30
0.0
 10
8.9712988646
 20
7.0811373297
 30
0.0
 10
8.9737062114
 20
7.0683124781
 30
0.0
 10
8.9762439065
 20
7.0559134314
 30
0.0
 10
8.978909208
 20
7.0439532207
 30
0.0
 10
8.9816993203
 20
7.0324444012
 30
0.0
 10
8.9846112797
 20
7.0213990429
 30
0.0
 10
8.9876419934
 20
7.0108287136
 30
0.0
 10
8.9907882932
 20
7.0007444702
 30
0.0
 10
8.994046809
 20
6.9911568279
 30
0.0
 10
8.997414193
 20
6.982075777
 30
0.0
 10
9.0008868355
 20
6.9735107158
 30
0.0
 10
9.0044612386
 20
6.965470516
 30
0.0
 10
9.0081336284
 20
6.9579633951
 30
0.0
 10
9.0119003877
 20
6.9509970808
 30
0.0
 10
9.0157577622
 20
6.9445784953
 30
0.0
 10
9.0197018939
 20
6.9387144853
 30
0.0
 10
9.0224674992
 20
6.9350723646
 30
0.0
 10
9.0238661119
 20
6.9333527096
 30
0.0
  0
SPLINE
  5
33A
100
AcDbEntity
  8
0
100
AcDbSpline
 62
7
  6
CONTINUOUS
 70
0
 71
3
 72
23
 73
19
 74
0
 42
0.0000001
 43
0.0000001
 44
0.0000000001
 40
0.0
 40
0.0
 40
0.0
 40
0.0
 40
0.0637767638
 40
0.1273450118
 40
0.1907019674
 40
0.2538561101
 40
0.3168132145
 40
0.3795820843
 40
0.4421733868
 40
0.5045993403
 40
0.5668738673
 40
0.6290123789
 40
0.6910316481
 40
0.752949645
 40
0.8147853545
 40
0.8765586015
 40
0.9382898522
 40
1.0
 40
1.0
 40
1.0
 40
1.0
 10
11.6951150455
 20
8.978528849
 30
0.0
 10
11.6951150455
 20
8.9843146078
 30
0.0
 10
11.695391992
 20
8.9958691692
 30
0.0
 10
11.6966419009
 20
9.0131307065
 30
0.0
 10
11.6987230504
 20
9.0302554359
 30
0.0
 10
11.7016304267
 20
9.0472031039
 30
0.0
 10
11.7053575555
 20
9.063934995
 30
0.0
 10
11.7098958051
 20
9.0804124301
 30
0.0
 10
11.7152347349
 20
9.0965974476
 30
0.0
 10
11.7213620984
 20
9.1124527215
 30
0.0
 10
11.7282638258
 20
9.1279416683
 30
0.0
 10
11.7359239994
 20
9.1430285766
 30
0.0
 10
11.7443249696
 20
9.157678649
 30
0.0
 10
11.753447406
 20
9.1718580898
 30
0.0
 10
11.763270285
 20
9.1855341352
 30
0.0
 10
11.7737710442
 20
9.1986753617
 30
0.0
 10
11.784925044
 20
9.2112510555
 30
0.0
 10
11.7927808948
 20
9.2192399408
 30
0.0
 10
11.7968074834
 20
9.2231293234
 30
0.0
  0
SPLINE
  5
33B
100
AcDbEntity
  8
0
100
AcDbSpline
 62
7
  6
CONTINUOUS
 70
0
 71
3
 72
41
 73
37
 74
0
 42
0.0000001
 43
0.0000001
 44
0.0000000001
 40
0.0
 40
0.0
 40
0.0
 40
0.0
 40
0.0071626665
 40
0.0146567922
 40
0.0224900003
 40
0.030668562
 40
0.0391975872
 40
0.048080862
 40
0.0573206522
 40
0.0669182435
 40
0.0768739335
 40
0.0871871924
 40
0.097856799
 40
0.1088807011
 40
0.1319796455
 40
0.1564575358
 40
0.182279017
 40
0.2094019974
 40
0.2377784932
 40
0.2673552866
 40
0.2980744788
 40
0.329873988
 40
0.3626879607
 40
0.3964471366
 40
0.4310791754
 40
0.4665089551
 40
0.502658886
 40
0.5394491939
 40
0.57679819
 40
0.6146225315
 40
0.6528374746
 40
0.691357142
 40
0.7689615337
 40
0.8467371347
 40
0.923981719
 40
1.0
 40
1.0
 40
1.0
 40
1.0
 10
9.0976191218
 20
10.1287817722
 30
0.0
 10
9.0964017436
 20
10.1276058751
 30
0.0
 10
9.0939686087
 20
10.1251390881
 30
0.0
 10
9.0904024228
 20
10.1211969387
 30
0.0
 10
9.086840769
 20
10.1169328947
 30
0.0
 10
9.0832859424
 20
10.1123497163
 30
0.0
 10
9.0797398938
 20
10.1074500896
 30
0.0
 10
9.0762047125
 20
10.1022368283
 30
0.0
 10
9.0726823848
 20
10.0967130397
 30
0.0
 10
9.0691750836
 20
10.0908819779
 30
0.0
 10
9.0656848748
 20
10.0847471318
 30
0.0
 10
9.0622138267
 20
10.0783121617
 30
0.0
 10
9.058764035
 20
10.0715808769
 30
0.0
 10
9.0541229425
 20
10.0620674445
 30
0.0
 10
9.048402327
 20
10.049453396
 30
0.0
 10
9.041757289
 20
10.0334298014
 30
0.0
 10
9.0352453002
 20
10.016330346
 30
0.0
 10
9.0288821028
 20
9.9981959927
 30
0.0
 10
9.0226831004
 20
9.979070002
 30
0.0
 10
9.016663307
 20
9.9589981894
 30
0.0
 10
9.0108372963
 20
9.9380286892
 30
0.0
 10
9.0052191762
 20
9.916211847
 30
0.0
 10
8.9998225488
 20
9.8936000763
 30
0.0
 10
8.9946604778
 20
9.870247729
 30
0.0
 10
8.989745458
 20
9.8462109643
 30
0.0
 10
8.985089372
 20
9.8215476121
 30
0.0
 10
8.980703475
 20
9.7963170239
 30
0.0
 10
8.9765983683
 20
9.7705799256
 30
0.0
 10
8.9727839693
 20
9.7443982642
 30
0.0
 10
8.9692695072
 20
9.7178350805
 30
0.0
 10
8.9660634272
 20
9.6909542831
 30
0.0
 10
8.9622009272
 20
9.6546879194
 30
0.0
 10
8.9581992711
 20
9.6090389703
 30
0.0
 10
8.9547393871
 20
9.5541727795
 30
0.0
 10
8.9526432945
 20
9.4996127591
 30
0.0
 10
8.9521629385
 20
9.4633948362
 30
0.0
 10
8.9521629385
 20
9.4454315333
 30
0.0
  0
SPLINE
  5
33C
100
AcDbEntity
  8
0
100
AcDbSpline
 62
7
  6
CONTINUOUS
 70
0
 71
3
 72
19
 73
15
 74
0
 42
0.0000001
 43
0.0000001
 44
0.0000000001
 40
0.0
 40
0.0
 40
0.0
 40
0.0
 40
0.12732766
 40
0.2538196711
 40
0.3795264658
 40
0.5045235362
 40
0.5668075958
 40
0.6289556124
 40
0.6909843715
 40
0.7529118454
 40
0.8147570127
 40
0.8765397119
 40
0.9382804145
 40
1.0
 40
1.0
 40
1.0
 40
1.0
 10
13.8153224925
 20
9.3753082581
 30
0.0
 10
13.8153224925
 20
9.3818066381
 30
0.0
 10
13.8159429447
 20
9.3947696884
 30
0.0
 10
13.8187490162
 20
9.4139651972
 30
0.0
 10
13.8234014587
 20
9.4326774871
 30
0.0
 10
13.8287909346
 20
9.4477457385
 30
0.0
 10
13.8339741351
 20
9.4593776896
 30
0.0
 10
13.8382843265
 20
9.4678667586
 30
0.0
 10
13.8430112451
 20
9.4761098184
 30
0.0
 10
13.8481441324
 20
9.484088129
 30
0.0
 10
13.853671146
 20
9.4917831676
 30
0.0
 10
13.8595795487
 20
9.4991773113
 30
0.0
 10
13.8658555276
 20
9.5062532333
 30
0.0
 10
13.8702757633
 20
9.5107482976
 30
0.0
 10
13.8725413885
 20
9.5129367227
 30
0.0
  0
SPLINE
  5
33D
100
AcDbEntity
  8
0
100
AcDbSpline
 62
7
  6
CONTINUOUS
 70
0
 71
3
 72
9
 73
5
 74
0
 42
0.0000001
 43
0.0000001
 44
0.0000000001
 40
0.0
 40
0.0
 40
0.0
 40
0.0
 40
0.516547601
 40
1.0
 40
1.0
 40
1.0
 40
1.0
 10
12.4167453774
 20
8.9383480586
 30
0.0
 10
12.414895532
 20
8.9373728211
 30
0.0
 10
12.4113481656
 20
8.9354195261
 30
0.0
 10
12.407896833
 20
8.9332990414
 30
0.0
 10
12.4062617837
 20
8.9322232983
 30
0.0
  0
SPLINE
  5
33E
100
AcDbEntity
  8
0
100
AcDbSpline
 62
7
  6
CONTINUOUS
 70
0
 71
3
 72
23
 73
19
 74
0
 42
0.0000001
 43
0.0000001
 44
0.0000000001
 40
0.0
 40
0.0
 40
0.0
 40
0.0
 40
0.0637767638
 40
0.1273450118
 40
0.1907019674
 40
0.2538561101
 40
0.3168132145
 40
0.3795820843
 40
0.4421733868
 40
0.5045993403
 40
0.5668738673
 40
0.6290123789
 40
0.6910316481
 40
0.752949645
 40
0.8147853545
 40
0.8765586015
 40
0.9382898522
 40
1.0
 40
1.0
 40
1.0
 40
1.0
 10
12.2988187227
 20
7.3679982095
 30
0.0
 10
12.2988187227
 20
7.3737839683
 30
0.0
 10
12.2990956692
 20
7.3853385297
 30
0.0
 10
12.3003455781
 20
7.402600067
 30
0.0
 10
12.3024267276
 20
7.4197247964
 30
0.0
 10
12.3053341039
 20
7.4366724644
 30
0.0
 10
12.3090612327
 20
7.4534043555
 30
0.0
 10
12.3135994823
 20
7.4698817906
 30
0.0
 10
12.3189384121
 20
7.4860668081
 30
0.0
 10
12.3250657756
 20
7.501922082
 30
0.0
 10
12.331967503
 20
7.5174110288
 30
0.0
 10
12.3396276766
 20
7.5324979371
 30
0.0
 10
12.3480286468
 20
7.5471480095
 30
0.0
 10
12.3571510832
 20
7.5613274503
 30
0.0
 10
12.3669739622
 20
7.5750034957
 30
0.0
 10
12.3774747214
 20
7.5881447222
 30
0.0
 10
12.3886287212
 20
7.600720416
 30
0.0
 10
12.396484572
 20
7.6087093013
 30
0.0
 10
12.4005111606
 20
7.6125986839
 30
0.0
  0
SPLINE
  5
33F
100
AcDbEntity
  8
0
100
AcDbSpline
 62
7
  6
CONTINUOUS
 70
0
 71
3
 72
42
 73
38
 74
0
 42
0.0000001
 43
0.0000001
 44
0.0000000001
 40
0.0
 40
0.0
 40
0.0
 40
0.0
 40
0.0299419644
 40
0.0449235317
 40
0.0599142035
 40
0.0899287023
 40
0.1200139727
 40
0.1350926544
 40
0.1501966973
 40
0.1804840373
 40
0.210897868
 40
0.2414513286
 40
0.2721543342
 40
0.3030133956
 40
0.3340315238
 40
0.3652082165
 40
0.3965395222
 40
0.4280181758
 40
0.459633799
 40
0.4913731572
 40
0.5232204671
 40
0.5551577446
 40
0.5871651885
 40
0.6192215901
 40
0.6513047644
 40
0.683391994
 40
0.715460481
 40
0.7474877999
 40
0.7794523452
 40
0.8113337678
 40
0.8431133918
 40
0.8747746145
 40
0.906303246
 40
0.9376878974
 40
0.9533257627
 40
0.9689252947
 40
1.0
 40
1.0
 40
1.0
 40
1.0
 10
10.30202067
 20
9.4773599586
 30
0.0
 10
10.2985202503
 20
9.4739788141
 30
0.0
 10
10.2930632957
 20
9.4691119684
 30
0.0
 10
10.2854209818
 20
9.4630732224
 30
0.0
 10
10.2775352314
 20
9.4573350545
 30
0.0
 10
10.2672456802
 20
9.4507456932
 30
0.0
 10
10.2564557996
 20
9.4449819651
 30
0.0
 10
10.2475569841
 20
9.4408815494
 30
0.0
 10
10.2384742873
 20
9.4371197463
 30
0.0
 10
10.2268216422
 20
9.4330746388
 30
0.0
 10
10.2124614978
 20
9.4293047254
 30
0.0
 10
10.1977880126
 20
9.4266340047
 30
0.0
 10
10.1828824985
 20
9.4250772271
 30
0.0
 10
10.1678268366
 20
9.4246426964
 30
0.0
 10
10.1527038675
 20
9.4253326255
 30
0.0
 10
10.1375967107
 20
9.4271430287
 30
0.0
 10
10.1225883737
 20
9.4300637808
 30
0.0
 10
10.1077612847
 20
9.4340786721
 30
0.0
 10
10.0931968498
 20
9.4391655045
 30
0.0
 10
10.0789750121
 20
9.4452962165
 30
0.0
 10
10.0651738185
 20
9.4524370398
 30
0.0
 10
10.0518689981
 20
9.4605486852
 30
0.0
 10
10.0391335515
 20
9.4695865581
 30
0.0
 10
10.027037356
 20
9.4795010024
 30
0.0
 10
10.015646786
 20
9.4902375709
 30
0.0
 10
10.0050243537
 20
9.5017373218
 30
0.0
 10
9.9952283689
 20
9.5139371388
 30
0.0
 10
9.9863126226
 20
9.5267700752
 30
0.0
 10
9.9783260939
 20
9.5401657131
 30
0.0
 10
9.9713126831
 20
9.5540505607
 30
0.0
 10
9.9653109752
 20
9.5683483932
 30
0.0
 10
9.9603540105
 20
9.5829808784
 30
0.0
 10
9.9564691808
 20
9.5978672124
 30
0.0
 10
9.954140133
 20
9.6104328888
 30
0.0
 10
9.9528336106
 20
9.6205292673
 30
0.0
 10
9.9519011771
 20
9.6306159821
 30
0.0
 10
9.9516188432
 20
9.6382061703
 30
0.0
 10
9.9516188432
 20
9.6432570163
 30
0.0
  0
SPLINE
  5
340
100
AcDbEntity
  8
0
100
AcDbSpline
 62
7
  6
CONTINUOUS
 70
0
 71
3
 72
15
 73
11
 74
0
 42
0.0000001
 43
0.0000001
 44
0.0000000001
 40
0.0
 40
0.0
 40
0.0
 40
0.0
 40
0.1273483281
 40
0.2538605602
 40
0.3795878981
 40
0.5046051042
 40
0.6290174419
 40
0.7529533761
 40
0.876560577
 40
1.0
 40
1.0
 40
1.0
 40
1.0
 10
11.317920988
 20
9.6093569652
 30
0.0
 10
11.317920988
 20
9.6136840942
 30
0.0
 10
11.3183341417
 20
9.6223159251
 30
0.0
 10
11.320202595
 20
9.6350976542
 30
0.0
 10
11.3233008009
 20
9.6475582239
 30
0.0
 10
11.3276007761
 20
9.6595811047
 30
0.0
 10
11.3330630592
 20
9.6710554221
 30
0.0
 10
11.3396378833
 20
9.6818752095
 30
0.0
 10
11.3472634117
 20
9.6919390947
 30
0.0
 10
11.3530050501
 20
9.6980866801
 30
0.0
 10
11.3560218288
 20
9.70100066
 30
0.0
  0
SPLINE
  5
341
100
AcDbEntity
  8
0
100
AcDbSpline
 62
7
  6
CONTINUOUS
 70
0
 71
3
 72
42
 73
38
 74
0
 42
0.0000001
 43
0.0000001
 44
0.0000000001
 40
0.0
 40
0.0
 40
0.0
 40
0.0
 40
0.0299419644
 40
0.0449235317
 40
0.0599142035
 40
0.0899287023
 40
0.1200139727
 40
0.1350926544
 40
0.1501966973
 40
0.1804840373
 40
0.210897868
 40
0.2414513286
 40
0.2721543342
 40
0.3030133956
 40
0.3340315238
 40
0.3652082165
 40
0.3965395222
 40
0.4280181758
 40
0.459633799
 40
0.4913731572
 40
0.5232204671
 40
0.5551577446
 40
0.5871651885
 40
0.6192215901
 40
0.6513047644
 40
0.683391994
 40
0.715460481
 40
0.7474877999
 40
0.7794523452
 40
0.8113337678
 40
0.8431133918
 40
0.8747746145
 40
0.906303246
 40
0.9376878974
 40
0.9533257627
 40
0.9689252947
 40
1.0
 40
1.0
 40
1.0
 40
1.0
 10
14.1657243193
 20
9.2094112004
 30
0.0
 10
14.1622238995
 20
9.2060300559
 30
0.0
 10
14.1567669449
 20
9.2011632103
 30
0.0
 10
14.149124631
 20
9.1951244643
 30
0.0
 10
14.1412388806
 20
9.1893862963
 30
0.0
 10
14.1309493295
 20
9.182796935
 30
0.0
 10
14.1201594488
 20
9.1770332069
 30
0.0
 10
14.1112606333
 20
9.1729327913
 30
0.0
 10
14.1021779365
 20
9.1691709881
 30
0.0
 10
14.0905252915
 20
9.1651258806
 30
0.0
 10
14.076165147
 20
9.1613559672
 30
0.0
 10
14.0614916619
 20
9.1586852465
 30
0.0
 10
14.0465861477
 20
9.1571284689
 30
0.0
 10
14.0315304859
 20
9.1566939382
 30
0.0
 10
14.0164075167
 20
9.1573838673
 30
0.0
 10
14.0013003599
 20
9.1591942705
 30
0.0
 10
13.986292023
 20
9.1621150227
 30
0.0
 10
13.9714649339
 20
9.166129914
 30
0.0
 10
13.9569004991
 20
9.1712167464
 30
0.0
 10
13.9426786613
 20
9.1773474584
 30
0.0
 10
13.9288774678
 20
9.1844882817
 30
0.0
 10
13.9155726473
 20
9.192599927
 30
0.0
 10
13.9028372008
 20
9.2016378
 30
0.0
 10
13.8907410052
 20
9.2115522443
 30
0.0
 10
13.8793504353
 20
9.2222888128
 30
0.0
 10
13.868728003
 20
9.2337885636
 30
0.0
 10
13.8589320182
 20
9.2459883806
 30
0.0
 10
13.8500162718
 20
9.258821317
 30
0.0
 10
13.8420297432
 20
9.2722169549
 30
0.0
 10
13.8350163323
 20
9.2861018025
 30
0.0
 10
13.8290146244
 20
9.300399635
 30
0.0
 10
13.8240576597
 20
9.3150321203
 30
0.0
 10
13.82017283
 20
9.3299184543
 30
0.0
 10
13.8178437823
 20
9.3424841307
 30
0.0
 10
13.8165372598
 20
9.3525805092
 30
0.0
 10
13.8156048263
 20
9.362667224
 30
0.0
 10
13.8153224925
 20
9.3702574122
 30
0.0
 10
13.8153224925
 20
9.3753082581
 30
0.0
  0
SPLINE
  5
342
100
AcDbEntity
  8
0
100
AcDbSpline
 62
7
  6
CONTINUOUS
 70
0
 71
3
 72
23
 73
19
 74
0
 42
0.0000001
 43
0.0000001
 44
0.0000000001
 40
0.0
 40
0.0
 40
0.0
 40
0.0
 40
0.0637767638
 40
0.1273450118
 40
0.1907019674
 40
0.2538561101
 40
0.3168132145
 40
0.3795820843
 40
0.4421733868
 40
0.5045993403
 40
0.5668738673
 40
0.6290123789
 40
0.6910316481
 40
0.752949645
 40
0.8147853545
 40
0.8765586015
 40
0.9382898522
 40
1.0
 40
1.0
 40
1.0
 40
1.0
 10
11.0914113683
 20
7.4517321939
 30
0.0
 10
11.0914113683
 20
7.4575179528
 30
0.0
 10
11.0916883148
 20
7.4690725141
 30
0.0
 10
11.0929382237
 20
7.4863340514
 30
0.0
 10
11.0950193732
 20
7.5034587808
 30
0.0
 10
11.0979267495
 20
7.5204064488
 30
0.0
 10
11.1016538783
 20
7.5371383399
 30
0.0
 10
11.1061921279
 20
7.553615775
 30
0.0
 10
11.1115310577
 20
7.5698007925
 30
0.0
 10
11.1176584212
 20
7.5856560665
 30
0.0
 10
11.1245601486
 20
7.6011450132
 30
0.0
 10
11.1322203222
 20
7.6162319215
 30
0.0
 10
11.1406212924
 20
7.6308819939
 30
0.0
 10
11.1497437288
 20
7.6450614347
 30
0.0
 10
11.1595666078
 20
7.6587374801
 30
0.0
 10
11.170067367
 20
7.6718787066
 30
0.0
 10
11.1812213668
 20
7.6844544004
 30
0.0
 10
11.1890772176
 20
7.6924432857
 30
0.0
 10
11.1931038062
 20
7.6963326683
 30
0.0
  0
SPLINE
  5
343
100
AcDbEntity
  8
0
100
AcDbSpline
 62
7
  6
CONTINUOUS
 70
0
 71
3
 72
42
 73
38
 74
0
 42
0.0000001
 43
0.0000001
 44
0.0000000001
 40
0.0
 40
0.0
 40
0.0
 40
0.0
 40
0.0299419644
 40
0.0449235317
 40
0.0599142035
 40
0.0899287023
 40
0.1200139727
 40
0.1350926544
 40
0.1501966973
 40
0.1804840373
 40
0.210897868
 40
0.2414513286
 40
0.2721543342
 40
0.3030133956
 40
0.3340315238
 40
0.3652082165
 40
0.3965395222
 40
0.4280181758
 40
0.459633799
 40
0.4913731572
 40
0.5232204671
 40
0.5551577446
 40
0.5871651885
 40
0.6192215901
 40
0.6513047644
 40
0.683391994
 40
0.715460481
 40
0.7474877999
 40
0.7794523452
 40
0.8113337678
 40
0.8431133918
 40
0.8747746145
 40
0.906303246
 40
0.9376878974
 40
0.9533257627
 40
0.9689252947
 40
1.0
 40
1.0
 40
1.0
 40
1.0
 10
14.1657243193
 20
6.5531150207
 30
0.0
 10
14.1622238995
 20
6.5497338762
 30
0.0
 10
14.1567669449
 20
6.5448670306
 30
0.0
 10
14.149124631
 20
6.5388282846
 30
0.0
 10
14.1412388806
 20
6.5330901166
 30
0.0
 10
14.1309493295
 20
6.5265007554
 30
0.0
 10
14.1201594488
 20
6.5207370272
 30
0.0
 10
14.1112606333
 20
6.5166366116
 30
0.0
 10
14.1021779365
 20
6.5128748084
 30
0.0
 10
14.0905252915
 20
6.508829701
 30
0.0
 10
14.076165147
 20
6.5050597875
 30
0.0
 10
14.0614916619
 20
6.5023890668
 30
0.0
 10
14.0465861477
 20
6.5008322892
 30
0.0
 10
14.0315304859
 20
6.5003977586
 30
0.0
 10
14.0164075167
 20
6.5010876877
 30
0.0
 10
14.0013003599
 20
6.5028980909
 30
0.0
 10
13.986292023
 20
6.505818843
 30
0.0
 10
13.9714649339
 20
6.5098337343
 30
0.0
 10
13.9569004991
 20
6.5149205667
 30
0.0
 10
13.9426786613
 20
6.5210512787
 30
0.0
 10
13.9288774678
 20
6.528192102
 30
0.0
 10
13.9155726473
 20
6.5363037474
 30
0.0
 10
13.9028372008
 20
6.5453416203
 30
0.0
 10
13.8907410052
 20
6.5552560646
 30
0.0
 10
13.8793504353
 20
6.5659926331
 30
0.0
 10
13.868728003
 20
6.5774923839
 30
0.0
 10
13.8589320182
 20
6.5896922009
 30
0.0
 10
13.8500162718
 20
6.6025251374
 30
0.0
 10
13.8420297432
 20
6.6159207752
 30
0.0
 10
13.8350163323
 20
6.6298056229
 30
0.0
 10
13.8290146244
 20
6.6441034553
 30
0.0
 10
13.8240576597
 20
6.6587359406
 30
0.0
 10
13.82017283
 20
6.6736222746
 30
0.0
 10
13.8178437823
 20
6.686187951
 30
0.0
 10
13.8165372598
 20
6.6962843295
 30
0.0
 10
13.8156048263
 20
6.7063710443
 30
0.0
 10
13.8153224925
 20
6.7139612325
 30
0.0
 10
13.8153224925
 20
6.7190120784
 30
0.0
  0
SPLINE
  5
344
100
AcDbEntity
  8
0
100
AcDbSpline
 62
7
  6
CONTINUOUS
 70
0
 71
3
 72
19
 73
15
 74
0
 42
0.0000001
 43
0.0000001
 44
0.0000000001
 40
0.0
 40
0.0
 40
0.0
 40
0.0
 40
0.12732766
 40
0.2538196711
 40
0.3795264658
 40
0.5045235362
 40
0.5668075958
 40
0.6289556124
 40
0.6909843715
 40
0.7529118454
 40
0.8147570127
 40
0.8765397119
 40
0.9382804145
 40
1.0
 40
1.0
 40
1.0
 40
1.0
 10
9.9516188432
 20
6.9869608366
 30
0.0
 10
9.9516188432
 20
6.9934592166
 30
0.0
 10
9.9522392955
 20
7.0064222669
 30
0.0
 10
9.955045367
 20
7.0256177756
 30
0.0
 10
9.9596978094
 20
7.0443300656
 30
0.0
 10
9.9650872854
 20
7.059398317
 30
0.0
 10
9.9702704859
 20
7.0710302681
 30
0.0
 10
9.9745806772
 20
7.0795193371
 30
0.0
 10
9.9793075958
 20
7.0877623968
 30
0.0
 10
9.9844404831
 20
7.0957407075
 30
0.0
 10
9.9899674968
 20
7.103435746
 30
0.0
 10
9.9958758995
 20
7.1108298898
 30
0.0
 10
10.0021518783
 20
7.1179058118
 30
0.0
 10
10.006572114
 20
7.1224008761
 30
0.0
 10
10.0088377393
 20
7.1245893012
 30
0.0
  0
SPLINE
  5
345
100
AcDbEntity
  8
0
100
AcDbSpline
 62
7
  6
CONTINUOUS
 70
0
 71
3
 72
15
 73
11
 74
0
 42
0.0000001
 43
0.0000001
 44
0.0000000001
 40
0.0
 40
0.0
 40
0.0
 40
0.0
 40
0.1273483281
 40
0.2538605602
 40
0.3795878981
 40
0.5046051042
 40
0.6290174419
 40
0.7529533761
 40
0.876560577
 40
1.0
 40
1.0
 40
1.0
 40
1.0
 10
11.9216246652
 20
6.7894871732
 30
0.0
 10
11.9216246652
 20
6.7938143022
 30
0.0
 10
11.9220378189
 20
6.8024461331
 30
0.0
 10
11.9239062722
 20
6.8152278622
 30
0.0
 10
11.9270044781
 20
6.8276884319
 30
0.0
 10
11.9313044533
 20
6.8397113127
 30
0.0
 10
11.9367667364
 20
6.85118563
 30
0.0
 10
11.9433415605
 20
6.8620054175
 30
0.0
 10
11.9509670889
 20
6.8720693027
 30
0.0
 10
11.9567087273
 20
6.8782168881
 30
0.0
 10
11.959725506
 20
6.881130868
 30
0.0
  0
SPLINE
  5
346
100
AcDbEntity
  8
0
100
AcDbSpline
 62
7
  6
CONTINUOUS
 70
0
 71
3
 72
42
 73
38
 74
0
 42
0.0000001
 43
0.0000001
 44
0.0000000001
 40
0.0
 40
0.0
 40
0.0
 40
0.0
 40
0.0299419644
 40
0.0449235317
 40
0.0599142035
 40
0.0899287023
 40
0.1200139727
 40
0.1350926544
 40
0.1501966973
 40
0.1804840373
 40
0.210897868
 40
0.2414513286
 40
0.2721543342
 40
0.3030133956
 40
0.3340315238
 40
0.3652082165
 40
0.3965395222
 40
0.4280181758
 40
0.459633799
 40
0.4913731572
 40
0.5232204671
 40
0.5551577446
 40
0.5871651885
 40
0.6192215901
 40
0.6513047644
 40
0.683391994
 40
0.715460481
 40
0.7474877999
 40
0.7794523452
 40
0.8113337678
 40
0.8431133918
 40
0.8747746145
 40
0.906303246
 40
0.9376878974
 40
0.9533257627
 40
0.9689252947
 40
1.0
 40
1.0
 40
1.0
 40
1.0
 10
10.30202067
 20
6.8210637789
 30
0.0
 10
10.2985202503
 20
6.8176826344
 30
0.0
 10
10.2930632957
 20
6.8128157887
 30
0.0
 10
10.2854209818
 20
6.8067770427
 30
0.0
 10
10.2775352314
 20
6.8010388748
 30
0.0
 10
10.2672456802
 20
6.7944495135
 30
0.0
 10
10.2564557996
 20
6.7886857854
 30
0.0
 10
10.2475569841
 20
6.7845853697
 30
0.0
 10
10.2384742873
 20
6.7808235666
 30
0.0
 10
10.2268216422
 20
6.7767784591
 30
0.0
 10
10.2124614978
 20
6.7730085457
 30
0.0
 10
10.1977880126
 20
6.770337825
 30
0.0
 10
10.1828824985
 20
6.7687810474
 30
0.0
 10
10.1678268366
 20
6.7683465167
 30
0.0
 10
10.1527038675
 20
6.7690364458
 30
0.0
 10
10.1375967107
 20
6.770846849
 30
0.0
 10
10.1225883737
 20
6.7737676012
 30
0.0
 10
10.1077612847
 20
6.7777824925
 30
0.0
 10
10.0931968498
 20
6.7828693248
 30
0.0
 10
10.0789750121
 20
6.7890000368
 30
0.0
 10
10.0651738185
 20
6.7961408601
 30
0.0
 10
10.0518689981
 20
6.8042525055
 30
0.0
 10
10.0391335515
 20
6.8132903784
 30
0.0
 10
10.027037356
 20
6.8232048228
 30
0.0
 10
10.015646786
 20
6.8339413912
 30
0.0
 10
10.0050243537
 20
6.8454411421
 30
0.0
 10
9.9952283689
 20
6.8576409591
 30
0.0
 10
9.9863126226
 20
6.8704738955
 30
0.0
 10
9.9783260939
 20
6.8838695334
 30
0.0
 10
9.9713126831
 20
6.897754381
 30
0.0
 10
9.9653109752
 20
6.9120522135
 30
0.0
 10
9.9603540105
 20
6.9266846988
 30
0.0
 10
9.9564691808
 20
6.9415710328
 30
0.0
 10
9.954140133
 20
6.9541367092
 30
0.0
 10
9.9528336106
 20
6.9642330877
 30
0.0
 10
9.9519011771
 20
6.9743198025
 30
0.0
 10
9.9516188432
 20
6.9819099906
 30
0.0
 10
9.9516188432
 20
6.9869608366
 30
0.0
  0
SPLINE
  5
347
100
AcDbEntity
  8
0
100
AcDbSpline
 62
7
  6
CONTINUOUS
 70
0
 71
3
 72
39
 73
35
 74
0
 42
0.0000001
 43
0.0000001
 44
0.0000000001
 40
0.0
 40
0.0
 40
0.0
 40
0.0
 40
0.0299424755
 40
0.0599093284
 40
0.0899243354
 40
0.1200101072
 40
0.150187554
 40
0.1804753955
 40
0.2108897349
 40
0.2414437065
 40
0.2721472191
 40
0.303006786
 40
0.3340254255
 40
0.36520264
 40
0.396534473
 40
0.4280136511
 40
0.4596297983
 40
0.4913696871
 40
0.5232175377
 40
0.5551553597
 40
0.5871633443
 40
0.6192202856
 40
0.6513040054
 40
0.6833917875
 40
0.7154608257
 40
0.7474886904
 40
0.7794537755
 40
0.8113357506
 40
0.8431159226
 40
0.8747776509
 40
0.9063070221
 40
0.937691541
 40
0.9689256808
 40
1.0
 40
1.0
 40
1.0
 40
1.0
 10
10.9041206805
 20
6.8685614404
 30
0.0
 10
10.9028266879
 20
6.8673115253
 30
0.0
 10
10.9001369832
 20
6.8649125334
 30
0.0
 10
10.8958276166
 20
6.8616443557
 30
0.0
 10
10.8912654988
 20
6.8587228166
 30
0.0
 10
10.8864761238
 20
6.856164299
 30
0.0
 10
10.8814858259
 20
6.853982774
 30
0.0
 10
10.8763221427
 20
6.8521902354
 30
0.0
 10
10.8710135243
 20
6.8507965052
 30
0.0
 10
10.8655892189
 20
6.8498091995
 30
0.0
 10
10.8600790969
 20
6.8492336628
 30
0.0
 10
10.8545134786
 20
6.8490729849
 30
0.0
 10
10.8489229715
 20
6.849327979
 30
0.0
 10
10.8433383066
 20
6.8499971876
 30
0.0
 10
10.8377901722
 20
6.8510768758
 30
0.0
 10
10.832309038
 20
6.8525610325
 30
0.0
 10
10.8269249952
 20
6.8544414476
 30
0.0
 10
10.8216675949
 20
6.8567077496
 30
0.0
 10
10.8165656934
 20
6.8593474667
 30
0.0
 10
10.8116472928
 20
6.8623460837
 30
0.0
 10
10.8069393715
 20
6.8656870985
 30
0.0
 10
10.802467757
 20
6.8693521508
 30
0.0
 10
10.798256985
 20
6.873321115
 30
0.0
 10
10.7943301718
 20
6.8775722102
 30
0.0
 10
10.790708884
 20
6.8820821114
 30
0.0
 10
10.7874129945
 20
6.8868260574
 30
0.0
 10
10.7844606018
 20
6.8917780145
 30
0.0
 10
10.7818679363
 20
6.8969108146
 30
0.0
 10
10.7796492708
 20
6.9021962931
 30
0.0
 10
10.7778168198
 20
6.9076054651
 30
0.0
 10
10.7763807404
 20
6.9131085673
 30
0.0
 10
10.7753488162
 20
6.9186755921
 30
0.0
 10
10.7747269991
 20
6.9242754445
 30
0.0
 10
10.7745876785
 20
6.9280206632
 30
0.0
 10
10.7745876785
 20
6.929887754
 30
0.0
  0
SPLINE
  5
348
100
AcDbEntity
  8
0
100
AcDbSpline
 62
7
  6
CONTINUOUS
 70
0
 71
3
 72
15
 73
11
 74
0
 42
0.0000001
 43
0.0000001
 44
0.0000000001
 40
0.0
 40
0.0
 40
0.0
 40
0.0
 40
0.1050091716
 40
0.2148806785
 40
0.3301562787
 40
0.4512926029
 40
0.5786480401
 40
0.7124730644
 40
0.8529121074
 40
1.0
 40
1.0
 40
1.0
 40
1.0
 10
12.3902847231
 20
8.9168422142
 30
0.0
 10
12.3906821568
 20
8.9175166807
 30
0.0
 10
12.3915503345
 20
8.9188651378
 30
0.0
 10
12.3930320707
 20
8.9208329416
 30
0.0
 10
12.3947234424
 20
8.922785768
 30
0.0
 10
12.3966252575
 20
8.9247213192
 30
0.0
 10
12.3987366597
 20
8.9266379856
 30
0.0
 10
12.4010549018
 20
8.928534698
 30
0.0
 10
12.4035753332
 20
8.9304110142
 30
0.0
 10
12.4053457178
 20
8.9316205938
 30
0.0
 10
12.4062617837
 20
8.9322232983
 30
0.0
  0
SPLINE
  5
349
100
AcDbEntity
  8
0
100
AcDbSpline
 62
7
  6
CONTINUOUS
 70
0
 71
3
 72
39
 73
35
 74
0
 42
0.0000001
 43
0.0000001
 44
0.0000000001
 40
0.0
 40
0.0
 40
0.0
 40
0.0
 40
0.0299424755
 40
0.0599093284
 40
0.0899243354
 40
0.1200101072
 40
0.150187554
 40
0.1804753955
 40
0.2108897349
 40
0.2414437065
 40
0.2721472191
 40
0.303006786
 40
0.3340254255
 40
0.36520264
 40
0.396534473
 40
0.4280136511
 40
0.4596297983
 40
0.4913696871
 40
0.5232175377
 40
0.5551553597
 40
0.5871633443
 40
0.6192202856
 40
0.6513040054
 40
0.6833917875
 40
0.7154608257
 40
0.7474886904
 40
0.7794537755
 40
0.8113357506
 40
0.8431159226
 40
0.8747776509
 40
0.9063070221
 40
0.937691541
 40
0.9689256808
 40
1.0
 40
1.0
 40
1.0
 40
1.0
 10
13.1228523686
 20
9.3709880549
 30
0.0
 10
13.121558376
 20
9.3697381398
 30
0.0
 10
13.1188686713
 20
9.3673391479
 30
0.0
 10
13.1145593047
 20
9.3640709702
 30
0.0
 10
13.1099971869
 20
9.3611494311
 30
0.0
 10
13.1052078119
 20
9.3585909135
 30
0.0
 10
13.100217514
 20
9.3564093885
 30
0.0
 10
13.0950538308
 20
9.3546168499
 30
0.0
 10
13.0897452124
 20
9.3532231197
 30
0.0
 10
13.084320907
 20
9.352235814
 30
0.0
 10
13.078810785
 20
9.3516602773
 30
0.0
 10
13.0732451667
 20
9.3514995994
 30
0.0
 10
13.0676546597
 20
9.3517545935
 30
0.0
 10
13.0620699947
 20
9.3524238021
 30
0.0
 10
13.0565218603
 20
9.3535034903
 30
0.0
 10
13.0510407261
 20
9.354987647
 30
0.0
 10
13.0456566833
 20
9.3568680621
 30
0.0
 10
13.040399283
 20
9.3591343641
 30
0.0
 10
13.0352973815
 20
9.3617740812
 30
0.0
 10
13.0303789809
 20
9.3647726982
 30
0.0
 10
13.0256710597
 20
9.368113713
 30
0.0
 10
13.0211994451
 20
9.3717787653
 30
0.0
 10
13.0169886732
 20
9.3757477295
 30
0.0
 10
13.0130618599
 20
9.3799988247
 30
0.0
 10
13.0094405722
 20
9.3845087259
 30
0.0
 10
13.0061446827
 20
9.3892526719
 30
0.0
 10
13.0031922899
 20
9.394204629
 30
0.0
 10
13.0005996244
 20
9.3993374291
 30
0.0
 10
12.9983809589
 20
9.4046229076
 30
0.0
 10
12.996548508
 20
9.4100320796
 30
0.0
 10
12.9951124285
 20
9.4155351818
 30
0.0
 10
12.9940805043
 20
9.4211022066
 30
0.0
 10
12.9934586873
 20
9.426702059
 30
0.0
 10
12.9933193666
 20
9.4304472777
 30
0.0
 10
12.9933193666
 20
9.4323143685
 30
0.0
  0
SPLINE
  5
34A
100
AcDbEntity
  8
0
100
AcDbSpline
 62
7
  6
CONTINUOUS
 70
0
 71
3
 72
44
 73
40
 74
0
 42
0.0000001
 43
0.0000001
 44
0.0000000001
 40
0.0
 40
0.0
 40
0.0
 40
0.0
 40
0.0053769995
 40
0.0108201136
 40
0.0163928615
 40
0.0221541377
 40
0.0281566035
 40
0.0344461919
 40
0.0410619816
 40
0.0480364671
 40
0.0553964781
 40
0.0631634878
 40
0.0713546266
 40
0.07998324
 40
0.0890592355
 40
0.0985899803
 40
0.1085802347
 40
0.1190327882
 40
0.1299487275
 40
0.1413273587
 40
0.1654624638
 40
0.1914105147
 40
0.2191260989
 40
0.2485506949
 40
0.27961466
 40
0.3122386887
 40
0.3463350832
 40
0.3818087744
 40
0.4185581552
 40
0.4564757904
 40
0.4954490606
 40
0.5353608468
 40
0.5760901202
 40
0.6175124956
 40
0.6595007574
 40
0.7446529677
 40
0.8304955593
 40
0.9159636771
 40
1.0
 40
1.0
 40
1.0
 40
1.0
 10
14.6654109018
 20
8.3809751151
 30
0.0
 10
14.6659738502
 20
8.3809360674
 30
0.0
 10
14.6671122823
 20
8.380923072
 30
0.0
 10
14.6688269985
 20
8.3811000863
 30
0.0
 10
14.6705513022
 20
8.381472825
 30
0.0
 10
14.6722830702
 20
8.3820405137
 30
0.0
 10
14.6740209051
 20
8.3828019385
 30
0.0
 10
14.6757634566
 20
8.3837560179
 30
0.0
 10
14.6775095114
 20
8.3849016107
 30
0.0
 10
14.6792579547
 20
8.3862374842
 30
0.0
 10
14.6810075313
 20
8.3877625087
 30
0.0
 10
14.6827570789
 20
8.3894753238
 30
0.0
 10
14.6845053121
 20
8.3913745537
 30
0.0
 10
14.6862508965
 20
8.3934586843
 30
0.0
 10
14.6879925561
 20
8.3957260031
 30
0.0
 10
14.6897288554
 20
8.3981747353
 30
0.0
 10
14.6914584636
 20
8.4008028771
 30
0.0
 10
14.6931799745
 20
8.4036083105
 30
0.0
 10
14.694891984
 20
8.4065887733
 30
0.0
 10
14.6972057801
 20
8.410877584
 30
0.0
 10
14.7000548803
 20
8.4166672765
 30
0.0
 10
14.7033502051
 20
8.4241396375
 30
0.0
 10
14.7065749687
 20
8.4322431885
 30
0.0
 10
14.7097184664
 20
8.4409513834
 30
0.0
 10
14.7127702244
 20
8.4502358206
 30
0.0
 10
14.7157200759
 20
8.4600660127
 30
0.0
 10
14.7185581876
 20
8.4704096228
 30
0.0
 10
14.7212750975
 20
8.4812325677
 30
0.0
 10
14.7238617483
 20
8.4924991494
 30
0.0
 10
14.7263095193
 20
8.5041721717
 30
0.0
 10
14.728610269
 20
8.516213067
 30
0.0
 10
14.7307563461
 20
8.528582039
 30
0.0
 10
14.732740606
 20
8.5412381898
 30
0.0
 10
14.7345564798
 20
8.5541397003
 30
0.0
 10
14.7367551309
 20
8.571693302
 30
0.0
 10
14.7390372012
 20
8.5939319695
 30
0.0
 10
14.7410138123
 20
8.6207779981
 30
0.0
 10
14.7422148208
 20
8.6475525753
 30
0.0
 10
14.7424915822
 20
8.6653426049
 30
0.0
 10
14.7424915822
 20
8.674161982
 30
0.0
  0
SPLINE
  5
34B
100
AcDbEntity
  8
0
100
AcDbSpline
 62
7
  6
CONTINUOUS
 70
0
 71
3
 72
19
 73
15
 74
0
 42
0.0000001
 43
0.0000001
 44
0.0000000001
 40
0.0
 40
0.0
 40
0.0
 40
0.0
 40
0.12732766
 40
0.2538196711
 40
0.3795264658
 40
0.5045235362
 40
0.5668075958
 40
0.6289556124
 40
0.6909843715
 40
0.7529118454
 40
0.8147570127
 40
0.8765397119
 40
0.9382804145
 40
1.0
 40
1.0
 40
1.0
 40
1.0
 10
9.9516188432
 20
9.6432570163
 30
0.0
 10
9.9516188432
 20
9.6497553963
 30
0.0
 10
9.9522392955
 20
9.6627184466
 30
0.0
 10
9.955045367
 20
9.6819139553
 30
0.0
 10
9.9596978094
 20
9.7006262453
 30
0.0
 10
9.9650872854
 20
9.7156944967
 30
0.0
 10
9.9702704859
 20
9.7273264477
 30
0.0
 10
9.9745806772
 20
9.7358155168
 30
0.0
 10
9.9793075958
 20
9.7440585765
 30
0.0
 10
9.9844404831
 20
9.7520368871
 30
0.0
 10
9.9899674968
 20
9.7597319257
 30
0.0
 10
9.9958758995
 20
9.7671260695
 30
0.0
 10
10.0021518783
 20
9.7742019915
 30
0.0
 10
10.006572114
 20
9.7786970558
 30
0.0
 10
10.0088377393
 20
9.7808854809
 30
0.0
  0
SPLINE
  5
34C
100
AcDbEntity
  8
0
100
AcDbSpline
 62
7
  6
CONTINUOUS
 70
0
 71
3
 72
40
 73
36
 74
0
 42
0.0000001
 43
0.0000001
 44
0.0000000001
 40
0.0
 40
0.0
 40
0.0
 40
0.0
 40
0.0299422956
 40
0.059908968
 40
0.0899238
 40
0.1200094056
 40
0.1350882594
 40
0.1501924656
 40
0.1804801452
 40
0.2108943177
 40
0.241448122
 40
0.2721514726
 40
0.3030108797
 40
0.334029354
 40
0.3652063934
 40
0.3965380465
 40
0.4280170486
 40
0.4596330217
 40
0.4913727316
 40
0.5232203951
 40
0.5551580282
 40
0.5871658292
 40
0.6192225887
 40
0.6513061205
 40
0.6833937063
 40
0.715462548
 40
0.7474902197
 40
0.779455117
 40
0.8113368874
 40
0.8431168691
 40
0.8747784143
 40
0.9063074703
 40
0.9376922765
 40
0.9689251917
 40
1.0
 40
1.0
 40
1.0
 40
1.0
 10
11.5512453204
 20
9.4988898707
 30
0.0
 10
11.5489144721
 20
9.4966384476
 30
0.0
 10
11.5440695021
 20
9.4923173135
 30
0.0
 10
11.5363070368
 20
9.4864304944
 30
0.0
 10
11.5280895741
 20
9.4811681786
 30
0.0
 10
11.5209047164
 20
9.4773301293
 30
0.0
 10
11.514979204
 20
9.4745998128
 30
0.0
 10
11.5089312591
 20
9.4720948802
 30
0.0
 10
11.5011720294
 20
9.4694013632
 30
0.0
 10
11.4916099455
 20
9.466891068
 30
0.0
 10
11.4818392132
 20
9.4651127102
 30
0.0
 10
11.4719139798
 20
9.4640760999
 30
0.0
 10
11.4618887676
 20
9.4637867682
 30
0.0
 10
11.4518187383
 20
9.4642461868
 30
0.0
 10
11.4417592391
 20
9.4654517013
 30
0.0
 10
11.4317655424
 20
9.4673965691
 30
0.0
 10
11.4218925346
 20
9.4700699964
 30
0.0
 10
11.412194422
 20
9.4734572023
 30
0.0
 10
11.4027244362
 20
9.4775395017
 30
0.0
 10
11.3935345472
 20
9.4822944097
 30
0.0
 10
11.3846751811
 20
9.4876957652
 30
0.0
 10
11.3761949481
 20
9.4937138746
 30
0.0
 10
11.3681403788
 20
9.500315674
 30
0.0
 10
11.3605556708
 20
9.5074649075
 30
0.0
 10
11.3534824486
 20
9.515122326
 30
0.0
 10
11.3469595387
 20
9.5232459012
 30
0.0
 10
11.3410227583
 20
9.531791054
 30
0.0
 10
11.335704722
 20
9.5407108964
 30
0.0
 10
11.3310346582
 20
9.5499564865
 30
0.0
 10
11.327038267
 20
9.5594770878
 30
0.0
 10
11.3237375352
 20
9.5692204716
 30
0.0
 10
11.3211507151
 20
9.5791330895
 30
0.0
 10
11.3192920266
 20
9.5891607606
 30
0.0
 10
11.3181718962
 20
9.599247627
 30
0.0
 10
11.317920988
 20
9.6059937519
 30
0.0
 10
11.317920988
 20
9.6093569652
 30
0.0
  0
SPLINE
  5
34D
100
AcDbEntity
  8
0
100
AcDbSpline
 62
7
  6
CONTINUOUS
 70
0
 71
3
 72
53
 73
49
 74
0
 42
0.0000001
 43
0.0000001
 44
0.0000000001
 40
0.0
 40
0.0
 40
0.0
 40
0.0
 40
0.0079608286
 40
0.0154477076
 40
0.022499505
 40
0.0291645273
 40
0.0355019291
 40
0.0415818117
 40
0.0474847159
 40
0.053299285
 40
0.0591186027
 40
0.065035496
 40
0.0711379628
 40
0.0775055005
 40
0.0842072133
 40
0.0913009829
 40
0.0988342833
 40
0.1068448548
 40
0.115362416
 40
0.1244095086
 40
0.1340030061
 40
0.1441547828
 40
0.1548726964
 40
0.1661611664
 40
0.1780216275
 40
0.1904531402
 40
0.2034524126
 40
0.2170144844
 40
0.2311324613
 40
0.245798222
 40
0.2767318771
 40
0.3097261927
 40
0.3446738514
 40
0.3814535271
 40
0.4199317813
 40
0.4599646312
 40
0.5013989018
 40
0.5440734419
 40
0.5878202487
 40
0.6324655298
 40
0.6778307277
 40
0.7237335098
 40
0.7699887762
 40
0.8164095444
 40
0.8628081805
 40
0.9089966215
 40
0.954789154
 40
1.0
 40
1.0
 40
1.0
 40
1.0
 10
14.6758702531
 20
8.3591848477
 30
0.0
 10
14.6764979771
 20
8.3584130307
 30
0.0
 10
14.6777641267
 20
8.3569533522
 30
0.0
 10
14.6797607696
 20
8.3549696573
 30
0.0
 10
14.6817928212
 20
8.3532635471
 30
0.0
 10
14.6838587692
 20
8.351837572
 30
0.0
 10
14.6859568894
 20
8.3506939907
 30
0.0
 10
14.6880851989
 20
8.3498354023
 30
0.0
 10
14.6902409515
 20
8.3492641052
 30
0.0
 10
14.6924206764
 20
8.3489819912
 30
0.0
 10
14.694620297
 20
8.3489898982
 30
0.0
 10
14.6968357008
 20
8.3492873906
 30
0.0
 10
14.6990632184
 20
8.3498731167
 30
0.0
 10
14.7012999537
 20
8.3507449421
 30
0.0
 10
14.70354353
 20
8.3519008138
 30
0.0
 10
14.7057920802
 20
8.3533384489
 30
0.0
 10
14.708043684
 20
8.3550559021
 30
0.0
 10
14.7102965908
 20
8.3570509602
 30
0.0
 10
14.7125487558
 20
8.3593215156
 30
0.0
 10
14.7147982077
 20
8.3618650978
 30
0.0
 10
14.7170427283
 20
8.3646791184
 30
0.0
 10
14.7192801341
 20
8.3677606322
 30
0.0
 10
14.721508128
 20
8.3711064491
 30
0.0
 10
14.7237243908
 20
8.3747130704
 30
0.0
 10
14.7259266212
 20
8.3785766929
 30
0.0
 10
14.7281124313
 20
8.3826932492
 30
0.0
 10
14.7302795541
 20
8.3870583489
 30
0.0
 10
14.7324255796
 20
8.391667364
 30
0.0
 10
14.7345483121
 20
8.3965153543
 30
0.0
 10
14.7373951234
 20
8.4034143673
 30
0.0
 10
14.7408671
 20
8.4126046831
 30
0.0
 10
14.7448345088
 20
8.4243089647
 30
0.0
 10
14.7486564083
 20
8.4368273371
 30
0.0
 10
14.7523161679
 20
8.450106054
 30
0.0
 10
14.7557978421
 20
8.46408822
 30
0.0
 10
14.7590862771
 20
8.4787137435
 30
0.0
 10
14.7621671698
 20
8.4939197155
 30
0.0
 10
14.7650271314
 20
8.5096406716
 30
0.0
 10
14.7676537432
 20
8.5258088944
 30
0.0
 10
14.7700356088
 20
8.5423547126
 30
0.0
 10
14.7721624013
 20
8.5592068085
 30
0.0
 10
14.7740249091
 20
8.5762925322
 30
0.0
 10
14.7756150686
 20
8.5935382105
 30
0.0
 10
14.7769260132
 20
8.6108694948
 30
0.0
 10
14.7779520701
 20
8.6282116072
 30
0.0
 10
14.7786888482
 20
8.6454898609
 30
0.0
 10
14.7791331538
 20
8.6626295863
 30
0.0
 10
14.7792339237
 20
8.6740024097
 30
0.0
 10
14.7792339237
 20
8.6796523607
 30
0.0
  0
SPLINE
  5
34E
100
AcDbEntity
  8
0
100
AcDbSpline
 62
7
  6
CONTINUOUS
 70
0
 71
3
 72
49
 73
45
 74
0
 42
0.0000001
 43
0.0000001
 44
0.0000000001
 40
0.0
 40
0.0
 40
0.0
 40
0.0
 40
0.0054977758
 40
0.0111910115
 40
0.017125267
 40
0.02334016
 40
0.0298693205
 40
0.0367409825
 40
0.0439782764
 40
0.0516000856
 40
0.0596213929
 40
0.0680539682
 40
0.0769067684
 40
0.0861862801
 40
0.0958970166
 40
0.1060415371
 40
0.1166209962
 40
0.1276350027
 40
0.1390820795
 40
0.1509595733
 40
0.1632638854
 40
0.1759905659
 40
0.2026881094
 40
0.231002623
 40
0.2608733427
 40
0.2922308544
 40
0.324998166
 40
0.3590915831
 40
0.3944214477
 40
0.4308927943
 40
0.4684059364
 40
0.5068570053
 40
0.5461384562
 40
0.5861395518
 40
0.6267468299
 40
0.6678445608
 40
0.7093151957
 40
0.7510398109
 40
0.7928985704
 40
0.8347710897
 40
0.8765371356
 40
0.9180762787
 40
0.9592703302
 40
1.0
 40
1.0
 40
1.0
 40
1.0
 10
14.6878398192
 20
8.1749756176
 30
0.0
 10
14.6888847528
 20
8.1751877742
 30
0.0
 10
14.6909903754
 20
8.1757318447
 30
0.0
 10
14.6941142969
 20
8.1768732126
 30
0.0
 10
14.6972485285
 20
8.1783500957
 30
0.0
 10
14.7003904111
 20
8.1801606287
 30
0.0
 10
14.7035381443
 20
8.1823028403
 30
0.0
 10
14.7066896134
 20
8.1847749017
 30
0.0
 10
14.7098429065
 20
8.1875746716
 30
0.0
 10
14.7129958597
 20
8.1907000517
 30
0.0
 10
14.7161463886
 20
8.194148622
 30
0.0
 10
14.7192922649
 20
8.1979178292
 30
0.0
 10
14.7224312272
 20
8.202004868
 30
0.0
 10
14.7255610318
 20
8.2064066694
 30
0.0
 10
14.728679295
 20
8.2111199779
 30
0.0
 10
14.7317837749
 20
8.2161412164
 30
0.0
 10
14.7348720444
 20
8.2214666443
 30
0.0
 10
14.7379418462
 20
8.2270922065
 30
0.0
 10
14.7409907874
 20
8.2330136671
 30
0.0
 10
14.7440165693
 20
8.2392265177
 30
0.0
 10
14.747016906
 20
8.2457260443
 30
0.0
 10
14.7510447138
 20
8.2549149374
 30
0.0
 10
14.7559866033
 20
8.2670905069
 30
0.0
 10
14.7616889383
 20
8.2825362795
 30
0.0
 10
14.7672365453
 20
8.2989947892
 30
0.0
 10
14.7726123081
 20
8.3164157986
 30
0.0
 10
14.7777996247
 20
8.3347462833
 30
0.0
 10
14.7827824778
 20
8.3539302728
 30
0.0
 10
14.7875454883
 20
8.3739091416
 30
0.0
 10
14.7920739618
 20
8.3946217759
 30
0.0
 10
14.796353934
 20
8.4160047819
 30
0.0
 10
14.8003722133
 20
8.4379926851
 30
0.0
 10
14.8041164204
 20
8.4605181379
 30
0.0
 10
14.8075750257
 20
8.4835121297
 30
0.0
 10
14.8107373836
 20
8.5069042017
 30
0.0
 10
14.8135937644
 20
8.530622665
 30
0.0
 10
14.8161353849
 20
8.554594822
 30
0.0
 10
14.8183544378
 20
8.5787471943
 30
0.0
 10
14.8202441059
 20
8.603005739
 30
0.0
 10
14.821798602
 20
8.6272961174
 30
0.0
 10
14.8230131432
 20
8.651543802
 30
0.0
 10
14.8238840538
 20
8.6756746181
 30
0.0
 10
14.8244086292
 20
8.6996143657
 30
0.0
 10
14.8245272192
 20
8.7155031047
 30
0.0
 10
14.8245272192
 20
8.7234023272
 30
0.0
  0
SPLINE
  5
34F
100
AcDbEntity
  8
0
100
AcDbSpline
 62
7
  6
CONTINUOUS
 70
0
 71
3
 72
19
 73
15
 74
0
 42
0.0000001
 43
0.0000001
 44
0.0000000001
 40
0.0
 40
0.0
 40
0.0
 40
0.0
 40
0.12732766
 40
0.2538196711
 40
0.3795264658
 40
0.5045235362
 40
0.5668075958
 40
0.6289556124
 40
0.6909843715
 40
0.7529118454
 40
0.8147570127
 40
0.8765397119
 40
0.9382804145
 40
1.0
 40
1.0
 40
1.0
 40
1.0
 10
13.8153224925
 20
6.7190120784
 30
0.0
 10
13.8153224925
 20
6.7255104584
 30
0.0
 10
13.8159429447
 20
6.7384735087
 30
0.0
 10
13.8187490162
 20
6.7576690175
 30
0.0
 10
13.8234014587
 20
6.7763813074
 30
0.0
 10
13.8287909346
 20
6.7914495588
 30
0.0
 10
13.8339741351
 20
6.8030815099
 30
0.0
 10
13.8382843265
 20
6.8115705789
 30
0.0
 10
13.8430112451
 20
6.8198136387
 30
0.0
 10
13.8481441324
 20
6.8277919493
 30
0.0
 10
13.853671146
 20
6.8354869879
 30
0.0
 10
13.8595795487
 20
6.8428811317
 30
0.0
 10
13.8658555276
 20
6.8499570536
 30
0.0
 10
13.8702757633
 20
6.8544521179
 30
0.0
 10
13.8725413885
 20
6.856640543
 30
0.0
  0
SPLINE
  5
350
100
AcDbEntity
  8
0
100
AcDbSpline
 62
7
  6
CONTINUOUS
 70
0
 71
3
 72
50
 73
46
 74
0
 42
0.0000001
 43
0.0000001
 44
0.0000000001
 40
0.0
 40
0.0
 40
0.0
 40
0.0
 40
0.0417739931
 40
0.0840374042
 40
0.1266589793
 40
0.1695072033
 40
0.2124489683
 40
0.2553510983
 40
0.2980804619
 40
0.3405046467
 40
0.3824924349
 40
0.423914348
 40
0.464643176
 40
0.5045545191
 40
0.5435273386
 40
0.5814445246
 40
0.6181934862
 40
0.6536667754
 40
0.6877627611
 40
0.7203863704
 40
0.7514499327
 40
0.7808741714
 40
0.8085894115
 40
0.8217879909
 40
0.8345383689
 40
0.8468353776
 40
0.8586746849
 40
0.8700532123
 40
0.8809689414
 40
0.8914213868
 40
0.901411482
 40
0.9109420714
 40
0.9200179602
 40
0.9286464134
 40
0.9368374438
 40
0.9446043349
 40
0.9519642118
 40
0.9589386091
 40
0.9655542854
 40
0.9718437717
 40
0.9778461664
 40
0.9836073329
 40
0.9891800251
 40
0.9946230605
 40
1.0
 40
1.0
 40
1.0
 40
1.0
 10
14.8399820341
 20
8.7223305321
 30
0.0
 10
14.8399820341
 20
8.7141219696
 30
0.0
 10
14.8398539669
 20
8.6976084164
 30
0.0
 10
14.8392878321
 20
8.6727255849
 30
0.0
 10
14.8383481618
 20
8.6476427839
 30
0.0
 10
14.8370380723
 20
8.6224431542
 30
0.0
 10
14.8353618668
 20
8.5972099778
 30
0.0
 10
14.8333251007
 20
8.5720267739
 30
0.0
 10
14.8309345142
 20
8.5469768446
 30
0.0
 10
14.828198035
 20
8.522143066
 30
0.0
 10
14.825124741
 20
8.4976075885
 30
0.0
 10
14.8217248356
 20
8.4734515702
 30
0.0
 10
14.8180096121
 20
8.449754904
 30
0.0
 10
14.813991418
 20
8.4265959503
 30
0.0
 10
14.809683615
 20
8.4040512741
 30
0.0
 10
14.8051005353
 20
8.3821953862
 30
0.0
 10
14.8002574355
 20
8.36110049
 30
0.0
 10
14.7951704465
 20
8.3408362355
 30
0.0
 10
14.7898565208
 20
8.3214694674
 30
0.0
 10
14.7843333738
 20
8.3030640188
 30
0.0
 10
14.7786194255
 20
8.2856803673
 30
0.0
 10
14.7727337142
 20
8.2693757823
 30
0.0
 10
14.7676223313
 20
8.2565309692
 30
0.0
 10
14.7634509391
 20
8.2468455125
 30
0.0
 10
14.7603426705
 20
8.240002523
 30
0.0
 10
14.7572062626
 20
8.2334673985
 30
0.0
 10
14.7540441883
 20
8.2272455172
 30
0.0
 10
14.7508591437
 20
8.2213419491
 30
0.0
 10
14.7476536555
 20
8.2157615448
 30
0.0
 10
14.7444304238
 20
8.2105088192
 30
0.0
 10
14.7411919917
 20
8.2055880657
 30
0.0
 10
14.7379410281
 20
8.2010032358
 30
0.0
 10
14.734680072
 20
8.1967580449
 30
0.0
 10
14.7314117079
 20
8.1928558857
 30
0.0
 10
14.7281384318
 20
8.1892998924
 30
0.0
 10
14.724862681
 20
8.1860929396
 30
0.0
 10
14.7215868528
 20
8.1832376235
 30
0.0
 10
14.7183131893
 20
8.1807364153
 30
0.0
 10
14.7150439656
 20
8.1785915139
 30
0.0
 10
14.7117813016
 20
8.1768052061
 30
0.0
 10
14.7085275061
 20
8.175379525
 30
0.0
 10
14.7052850084
 20
8.1743167557
 30
0.0
 10
14.702056549
 20
8.1736187852
 30
0.0
 10
14.6988459979
 20
8.1732874709
 30
0.0
 10
14.6967144709
 20
8.1733118162
 30
0.0
 10
14.6956604378
 20
8.1733849198
 30
0.0
  0
SPLINE
  5
351
100
AcDbEntity
  8
0
100
AcDbSpline
 62
7
  6
CONTINUOUS
 70
0
 71
3
 72
40
 73
36
 74
0
 42
0.0000001
 43
0.0000001
 44
0.0000000001
 40
0.0
 40
0.0
 40
0.0
 40
0.0
 40
0.0299422956
 40
0.059908968
 40
0.0899238
 40
0.1200094056
 40
0.1350882594
 40
0.1501924656
 40
0.1804801452
 40
0.2108943177
 40
0.241448122
 40
0.2721514726
 40
0.3030108797
 40
0.334029354
 40
0.3652063934
 40
0.3965380465
 40
0.4280170486
 40
0.4596330217
 40
0.4913727316
 40
0.5232203951
 40
0.5551580282
 40
0.5871658292
 40
0.6192225887
 40
0.6513061205
 40
0.6833937063
 40
0.715462548
 40
0.7474902197
 40
0.779455117
 40
0.8113368874
 40
0.8431168691
 40
0.8747784143
 40
0.9063074703
 40
0.9376922765
 40
0.9689251917
 40
1.0
 40
1.0
 40
1.0
 40
1.0
 10
12.1549489976
 20
6.6790200787
 30
0.0
 10
12.1526181493
 20
6.6767686556
 30
0.0
 10
12.1477731793
 20
6.6724475215
 30
0.0
 10
12.140010714
 20
6.6665607024
 30
0.0
 10
12.1317932513
 20
6.6612983866
 30
0.0
 10
12.1246083936
 20
6.6574603373
 30
0.0
 10
12.1186828812
 20
6.6547300208
 30
0.0
 10
12.1126349363
 20
6.6522250882
 30
0.0
 10
12.1048757066
 20
6.6495315712
 30
0.0
 10
12.0953136227
 20
6.647021276
 30
0.0
 10
12.0855428904
 20
6.6452429182
 30
0.0
 10
12.075617657
 20
6.6442063079
 30
0.0
 10
12.0655924448
 20
6.6439169762
 30
0.0
 10
12.0555224155
 20
6.6443763948
 30
0.0
 10
12.0454629163
 20
6.6455819092
 30
0.0
 10
12.0354692196
 20
6.6475267771
 30
0.0
 10
12.0255962118
 20
6.6502002044
 30
0.0
 10
12.0158980992
 20
6.6535874103
 30
0.0
 10
12.0064281134
 20
6.6576697097
 30
0.0
 10
11.9972382244
 20
6.6624246177
 30
0.0
 10
11.9883788583
 20
6.6678259732
 30
0.0
 10
11.9798986253
 20
6.6738440826
 30
0.0
 10
11.971844056
 20
6.680445882
 30
0.0
 10
11.964259348
 20
6.6875951155
 30
0.0
 10
11.9571861258
 20
6.695252534
 30
0.0
 10
11.9506632159
 20
6.7033761092
 30
0.0
 10
11.9447264355
 20
6.711921262
 30
0.0
 10
11.9394083992
 20
6.7208411044
 30
0.0
 10
11.9347383354
 20
6.7300866945
 30
0.0
 10
11.9307419442
 20
6.7396072958
 30
0.0
 10
11.9274412124
 20
6.7493506796
 30
0.0
 10
11.9248543923
 20
6.7592632975
 30
0.0
 10
11.9229957038
 20
6.7692909686
 30
0.0
 10
11.9218755734
 20
6.779377835
 30
0.0
 10
11.9216246652
 20
6.7861239599
 30
0.0
 10
11.9216246652
 20
6.7894871732
 30
0.0
  0
SPLINE
  5
352
100
AcDbEntity
  8
0
100
AcDbSpline
 62
7
  6
CONTINUOUS
 70
0
 71
3
 72
15
 73
11
 74
0
 42
0.0000001
 43
0.0000001
 44
0.0000000001
 40
0.0
 40
0.0
 40
0.0
 40
0.0
 40
0.1273482808
 40
0.2538605196
 40
0.3795878971
 40
0.5046050835
 40
0.6290174393
 40
0.7529533827
 40
0.8765605876
 40
1.0
 40
1.0
 40
1.0
 40
1.0
 10
13.3854853416
 20
7.2317843279
 30
0.0
 10
13.3854853416
 20
7.2356340376
 30
0.0
 10
13.385852906
 20
7.243313506
 30
0.0
 10
13.3875151896
 20
7.2546850128
 30
0.0
 10
13.3902715331
 20
7.2657708002
 30
0.0
 10
13.3940970453
 20
7.2764671963
 30
0.0
 10
13.3989566099
 20
7.2866755635
 30
0.0
 10
13.4048059452
 20
7.2963016392
 30
0.0
 10
13.4115900664
 20
7.3052552159
 30
0.0
 10
13.4166981551
 20
7.3107245941
 30
0.0
 10
13.419382075
 20
7.3133170844
 30
0.0
  0
SPLINE
  5
353
100
AcDbEntity
  8
0
100
AcDbSpline
 62
7
  6
CONTINUOUS
 70
0
 71
3
 72
15
 73
11
 74
0
 42
0.0000001
 43
0.0000001
 44
0.0000000001
 40
0.0
 40
0.0
 40
0.0
 40
0.0
 40
0.127347711
 40
0.2538606874
 40
0.3795878987
 40
0.5046050998
 40
0.6290174656
 40
0.7529533976
 40
0.8765605982
 40
1.0
 40
1.0
 40
1.0
 40
1.0
 10
10.7745876785
 20
6.929887754
 30
0.0
 10
10.7745876785
 20
6.9322899545
 30
0.0
 10
10.7748170408
 20
6.9370819302
 30
0.0
 10
10.7758542826
 20
6.944177731
 30
0.0
 10
10.7775742382
 20
6.9510952515
 30
0.0
 10
10.779961343
 20
6.957769781
 30
0.0
 10
10.7829936984
 20
6.9641397839
 30
0.0
 10
10.7866436666
 20
6.9701464393
 30
0.0
 10
10.7908769332
 20
6.9757334608
 30
0.0
 10
10.7940643559
 20
6.9791463555
 30
0.0
 10
10.7957391143
 20
6.9807640664
 30
0.0
  0
SPLINE
  5
354
100
AcDbEntity
  8
0
100
AcDbSpline
 62
7
  6
CONTINUOUS
 70
0
 71
3
 72
36
 73
32
 74
0
 42
0.0000001
 43
0.0000001
 44
0.0000000001
 40
0.0
 40
0.0
 40
0.0
 40
0.0
 40
0.0063161323
 40
0.0126711664
 40
0.0191032436
 40
0.0256490635
 40
0.0392093976
 40
0.0536078134
 40
0.0690451502
 40
0.085678807
 40
0.1036273392
 40
0.1229777838
 40
0.1437909758
 40
0.1661073572
 40
0.1899506391
 40
0.2153310547
 40
0.2422480031
 40
0.2706913317
 40
0.3006435562
 40
0.3320799928
 40
0.3649706059
 40
0.3992798094
 40
0.4349677029
 40
0.4719901273
 40
0.5102991473
 40
0.549843581
 40
0.6324154961
 40
0.7192400619
 40
0.8098103882
 40
0.9035852733
 40
1.0
 40
1.0
 40
1.0
 40
1.0
 10
14.6979274119
 20
8.849848939
 30
0.0
 10
14.6983246057
 20
8.8498213885
 30
0.0
 10
14.6991195633
 20
8.8497336039
 30
0.0
 10
14.7003030851
 20
8.849504843
 30
0.0
 10
14.7014787343
 20
8.8491789424
 30
0.0
 10
14.7030529324
 20
8.8486087243
 30
0.0
 10
14.7050090162
 20
8.8476393906
 30
0.0
 10
14.7072823318
 20
8.8461055689
 30
0.0
 10
14.7095081351
 20
8.8441923624
 30
0.0
 10
14.7116838797
 20
8.8419040298
 30
0.0
 10
14.7138077049
 20
8.8392446878
 30
0.0
 10
14.7158770492
 20
8.8362184884
 30
0.0
 10
14.7178893188
 20
8.8328301258
 30
0.0
 10
14.7198416009
 20
8.8290847858
 30
0.0
 10
14.7217309647
 20
8.8249883097
 30
0.0
 10
14.7235544696
 20
8.8205471646
 30
0.0
 10
14.7253091404
 20
8.815768427
 30
0.0
 10
14.7269921881
 20
8.8106598015
 30
0.0
 10
14.7286007652
 20
8.8052295519
 30
0.0
 10
14.730132292
 20
8.7994865272
 30
0.0
 10
14.7315841573
 20
8.793440102
 30
0.0
 10
14.7329539988
 20
8.7871001813
 30
0.0
 10
14.7342395081
 20
8.7804771647
 30
0.0
 10
14.735438543
 20
8.7735819366
 30
0.0
 10
14.736549148
 20
8.7664258247
 30
0.0
 10
14.7379293632
 20
8.7564073585
 30
0.0
 10
14.7394090742
 20
8.7433175288
 30
0.0
 10
14.7407828105
 20
8.7269858109
 30
0.0
 10
14.7417696319
 20
8.7099188275
 30
0.0
 10
14.7423628403
 20
8.6922290453
 30
0.0
 10
14.7424915822
 20
8.6802396482
 30
0.0
 10
14.7424915822
 20
8.674161982
 30
0.0
  0
SPLINE
  5
355
100
AcDbEntity
  8
0
100
AcDbSpline
 62
7
  6
CONTINUOUS
 70
0
 71
3
 72
39
 73
35
 74
0
 42
0.0000001
 43
0.0000001
 44
0.0000000001
 40
0.0
 40
0.0
 40
0.0
 40
0.0
 40
0.0299424738
 40
0.059909323
 40
0.08992433
 40
0.1200101081
 40
0.1501875632
 40
0.1804754089
 40
0.2108897447
 40
0.2414437113
 40
0.2721472249
 40
0.3030067977
 40
0.3340254418
 40
0.3652026556
 40
0.3965344874
 40
0.4280136709
 40
0.459629826
 40
0.4913697177
 40
0.5232175626
 40
0.5551553772
 40
0.5871633608
 40
0.6192203054
 40
0.6513040259
 40
0.6833918041
 40
0.7154608404
 40
0.747488707
 40
0.7794537981
 40
0.8113357603
 40
0.8431159345
 40
0.8747776602
 40
0.9063069325
 40
0.93769185
 40
0.9689251012
 40
1.0
 40
1.0
 40
1.0
 40
1.0
 10
13.5930700792
 20
7.1335047744
 30
0.0
 10
13.5909963726
 20
7.1315017101
 30
0.0
 10
13.5866859305
 20
7.1276572003
 30
0.0
 10
13.5797798925
 20
7.1224197548
 30
0.0
 10
13.5724688119
 20
7.1177378072
 30
0.0
 10
13.5647935306
 20
7.1136376341
 30
0.0
 10
13.5567962517
 20
7.1101416307
 30
0.0
 10
13.5485211121
 20
7.1072690137
 30
0.0
 10
13.5400137136
 20
7.105035499
 30
0.0
 10
13.5313209258
 20
7.1034532798
 30
0.0
 10
13.5224906096
 20
7.1025309505
 30
0.0
 10
13.5135713562
 20
7.1022734702
 30
0.0
 10
13.504612219
 20
7.1026821409
 30
0.0
 10
13.4956624463
 20
7.1037546062
 30
0.0
 10
13.4867712128
 20
7.1054848701
 30
0.0
 10
13.4779873523
 20
7.1078633302
 30
0.0
 10
13.4693590917
 20
7.1108768327
 30
0.0
 10
13.4609337905
 20
7.1145087521
 30
0.0
 10
13.4527576852
 20
7.118739082
 30
0.0
 10
13.4448756385
 20
7.1235445467
 30
0.0
 10
13.4373308975
 20
7.1288987279
 30
0.0
 10
13.4301648591
 20
7.1347722089
 30
0.0
 10
13.4234168458
 20
7.1411327356
 30
0.0
 10
13.4171238928
 20
7.1479453905
 30
0.0
 10
13.411320547
 20
7.155172784
 30
0.0
 10
13.4060386748
 20
7.1627752534
 30
0.0
 10
13.4013072919
 20
7.170711081
 30
0.0
 10
13.397152401
 20
7.1789367229
 30
0.0
 10
13.3935968686
 20
7.1874070388
 30
0.0
 10
13.3906602489
 20
7.196075563
 30
0.0
 10
13.3883587965
 20
7.2048946479
 30
0.0
 10
13.3867051325
 20
7.2138161064
 30
0.0
 10
13.3857085768
 20
7.2227902223
 30
0.0
 10
13.3854853416
 20
7.2287921422
 30
0.0
 10
13.3854853416
 20
7.2317843279
 30
0.0
  0
SPLINE
  5
356
100
AcDbEntity
  8
0
100
AcDbSpline
 62
7
  6
CONTINUOUS
 70
0
 71
3
 72
46
 73
42
 74
0
 42
0.0000001
 43
0.0000001
 44
0.0000000001
 40
0.0
 40
0.0
 40
0.0
 40
0.0
 40
0.018731374
 40
0.0274816536
 40
0.0358548125
 40
0.0515939752
 40
0.0590521217
 40
0.0662952183
 40
0.073376722
 40
0.080354279
 40
0.0872883633
 40
0.094240676
 40
0.1012724054
 40
0.1084424913
 40
0.1158063099
 40
0.1234144937
 40
0.1395296046
 40
0.1481216664
 40
0.1571076477
 40
0.1665126827
 40
0.1763575546
 40
0.1866594738
 40
0.1974325994
 40
0.2204308561
 40
0.2454188669
 40
0.2724277875
 40
0.301465129
 40
0.3325196735
 40
0.3655646105
 40
0.4005603807
 40
0.4374567546
 40
0.4761939634
 40
0.5167040002
 40
0.5589117569
 40
0.6027355118
 40
0.6480876358
 40
0.6948753374
 40
0.743000981
 40
0.7923628582
 40
0.8943643951
 40
1.0
 40
1.0
 40
1.0
 40
1.0
 10
14.7112940323
 20
8.8699864238
 30
0.0
 10
14.7123595455
 20
8.8709781011
 30
0.0
 10
14.7139924075
 20
8.8723628799
 30
0.0
 10
14.7162712529
 20
8.8739688512
 30
0.0
 10
14.7184494013
 20
8.8753040672
 30
0.0
 10
14.720671403
 20
8.8763702577
 30
0.0
 10
14.7229170993
 20
8.8771212455
 30
0.0
 10
14.7245652828
 20
8.8775170224
 30
0.0
 10
14.7262059501
 20
8.8777545642
 30
0.0
 10
14.7278379334
 20
8.8778335358
 30
0.0
 10
14.7294598736
 20
8.8777537899
 30
0.0
 10
14.7310703981
 20
8.8775152782
 30
0.0
 10
14.7326681696
 20
8.8771183299
 30
0.0
 10
14.7342519563
 20
8.8765635058
 30
0.0
 10
14.7358207074
 20
8.8758513159
 30
0.0
 10
14.7379309511
 20
8.8746706947
 30
0.0
 10
14.7399693031
 20
8.8731860616
 30
0.0
 10
14.7419265668
 20
8.8714455809
 30
0.0
 10
14.7434071061
 20
8.8699588668
 30
0.0
 10
14.7448674869
 20
8.8683199778
 30
0.0
 10
14.7463072311
 20
8.8665297603
 30
0.0
 10
14.7477255516
 20
8.8645893113
 30
0.0
 10
14.7496285328
 20
8.8617407535
 30
0.0
 10
14.7519392232
 20
8.8577974741
 30
0.0
 10
14.7545559748
 20
8.852586599
 30
0.0
 10
14.7570686935
 20
8.8468095461
 30
0.0
 10
14.7594716236
 20
8.8404796317
 30
0.0
 10
14.7617591869
 20
8.8336112171
 30
0.0
 10
14.7639259912
 20
8.8262202381
 30
0.0
 10
14.7659668769
 20
8.8183239383
 30
0.0
 10
14.767876916
 20
8.809940845
 30
0.0
 10
14.7696515217
 20
8.8010907144
 30
0.0
 10
14.7712864321
 20
8.7917944625
 30
0.0
 10
14.7727776808
 20
8.7820740908
 30
0.0
 10
14.7741216702
 20
8.7719526411
 30
0.0
 10
14.7753151781
 20
8.7614541331
 30
0.0
 10
14.7763553006
 20
8.7506035018
 30
0.0
 10
14.7772395555
 20
8.7394264904
 30
0.0
 10
14.7782184548
 20
8.7239548543
 30
0.0
 10
14.7790265442
 20
8.7039972115
 30
0.0
 10
14.7792339237
 20
8.687861162
 30
0.0
 10
14.7792339237
 20
8.6796523607
 30
0.0
  0
SPLINE
  5
357
100
AcDbEntity
  8
0
100
AcDbSpline
 62
7
  6
CONTINUOUS
 70
0
 71
3
 72
15
 73
11
 74
0
 42
0.0000001
 43
0.0000001
 44
0.0000000001
 40
0.0
 40
0.0
 40
0.0
 40
0.0
 40
0.1273482808
 40
0.2538605196
 40
0.3795878971
 40
0.5046050835
 40
0.6290174393
 40
0.7529533827
 40
0.8765605876
 40
1.0
 40
1.0
 40
1.0
 40
1.0
 10
12.9479208501
 20
8.8317590891
 30
0.0
 10
12.9479208501
 20
8.8356087989
 30
0.0
 10
12.9482884145
 20
8.8432882673
 30
0.0
 10
12.9499506981
 20
8.854659774
 30
0.0
 10
12.9527070415
 20
8.8657455615
 30
0.0
 10
12.9565325537
 20
8.8764419576
 30
0.0
 10
12.9613921183
 20
8.8866503248
 30
0.0
 10
12.9672414537
 20
8.8962764005
 30
0.0
 10
12.9740255749
 20
8.9052299772
 30
0.0
 10
12.9791336635
 20
8.9106993554
 30
0.0
 10
12.9818175834
 20
8.9132918457
 30
0.0
  0
SPLINE
  5
358
100
AcDbEntity
  8
0
100
AcDbSpline
 62
7
  6
CONTINUOUS
 70
0
 71
3
 72
35
 73
31
 74
0
 42
0.0000001
 43
0.0000001
 44
0.0000000001
 40
0.0
 40
0.0
 40
0.0
 40
0.0
 40
0.0129151907
 40
0.0265264216
 40
0.0410221631
 40
0.0565540736
 40
0.0732400976
 40
0.0911691754
 40
0.1104065942
 40
0.13099806
 40
0.1529736421
 40
0.1763507089
 40
0.2011359116
 40
0.227327385
 40
0.2549157404
 40
0.2838852737
 40
0.3142149632
 40
0.3458787505
 40
0.378846503
 40
0.4130841968
 40
0.448554274
 40
0.4852162126
 40
0.5230264133
 40
0.561938753
 40
0.6019046786
 40
0.6428732866
 40
0.7276034095
 40
0.815685914
 40
0.9066484285
 40
1.0
 40
1.0
 40
1.0
 40
1.0
 10
14.7486589215
 20
9.0507514419
 30
0.0
 10
14.7500636897
 20
9.0502519234
 30
0.0
 10
14.7528765596
 20
9.0490125581
 30
0.0
 10
14.7569322135
 20
9.0465457329
 30
0.0
 10
14.7609110115
 20
9.0434392938
 30
0.0
 10
14.7648081552
 20
9.0397004352
 30
0.0
 10
14.7686205451
 20
9.0353354347
 30
0.0
 10
14.7723443479
 20
9.0303508517
 30
0.0
 10
14.7759753309
 20
9.0247536066
 30
0.0
 10
14.7795090521
 20
9.0185514845
 30
0.0
 10
14.7829408479
 20
9.0117531122
 30
0.0
 10
14.7862659405
 20
9.0043680463
 30
0.0
 10
14.7894796816
 20
8.9964068199
 30
0.0
 10
14.7925773676
 20
8.9878808492
 30
0.0
 10
14.7955544917
 20
8.9788024744
 30
0.0
 10
14.7984066865
 20
8.9691848988
 30
0.0
 10
14.8011296769
 20
8.9590421557
 30
0.0
 10
14.8037194755
 20
8.9483891056
 30
0.0
 10
14.8061721946
 20
8.9372413786
 30
0.0
 10
14.8084841798
 20
8.9256153624
 30
0.0
 10
14.8106520187
 20
8.9135281695
 30
0.0
 10
14.8126724301
 20
8.9009976051
 30
0.0
 10
14.8145424441
 20
8.8880421426
 30
0.0
 10
14.816259251
 20
8.8746808979
 30
0.0
 10
14.817820304
 20
8.8609335673
 30
0.0
 10
14.8197120702
 20
8.8419024221
 30
0.0
 10
14.821657196
 20
8.8172971919
 30
0.0
 10
14.8233147728
 20
8.7868892554
 30
0.0
 10
14.8243107863
 20
8.7554569386
 30
0.0
 10
14.8245272192
 20
8.7341788842
 30
0.0
 10
14.8245272192
 20
8.7234023272
 30
0.0
  0
SPLINE
  5
359
100
AcDbEntity
  8
0
100
AcDbSpline
 62
7
  6
CONTINUOUS
 70
0
 71
3
 72
39
 73
35
 74
0
 42
0.0000001
 43
0.0000001
 44
0.0000000001
 40
0.0
 40
0.0
 40
0.0
 40
0.0
 40
0.0299424738
 40
0.059909323
 40
0.08992433
 40
0.1200101081
 40
0.1501875632
 40
0.1804754089
 40
0.2108897447
 40
0.2414437113
 40
0.2721472249
 40
0.3030067977
 40
0.3340254418
 40
0.3652026556
 40
0.3965344874
 40
0.4280136709
 40
0.459629826
 40
0.4913697177
 40
0.5232175626
 40
0.5551553772
 40
0.5871633608
 40
0.6192203054
 40
0.6513040259
 40
0.6833918041
 40
0.7154608404
 40
0.747488707
 40
0.7794537981
 40
0.8113357603
 40
0.8431159345
 40
0.8747776602
 40
0.9063069325
 40
0.93769185
 40
0.9689251012
 40
1.0
 40
1.0
 40
1.0
 40
1.0
 10
13.1555055877
 20
8.7334795357
 30
0.0
 10
13.1534318811
 20
8.7314764714
 30
0.0
 10
13.149121439
 20
8.7276319616
 30
0.0
 10
13.1422154009
 20
8.7223945161
 30
0.0
 10
13.1349043203
 20
8.7177125685
 30
0.0
 10
13.127229039
 20
8.7136123953
 30
0.0
 10
13.1192317602
 20
8.7101163919
 30
0.0
 10
13.1109566206
 20
8.707243775
 30
0.0
 10
13.102449222
 20
8.7050102603
 30
0.0
 10
13.0937564343
 20
8.7034280411
 30
0.0
 10
13.084926118
 20
8.7025057118
 30
0.0
 10
13.0760068646
 20
8.7022482315
 30
0.0
 10
13.0670477275
 20
8.7026569022
 30
0.0
 10
13.0580979548
 20
8.7037293674
 30
0.0
 10
13.0492067213
 20
8.7054596314
 30
0.0
 10
13.0404228608
 20
8.7078380915
 30
0.0
 10
13.0317946001
 20
8.710851594
 30
0.0
 10
13.023369299
 20
8.7144835133
 30
0.0
 10
13.0151931936
 20
8.7187138433
 30
0.0
 10
13.007311147
 20
8.723519308
 30
0.0
 10
12.999766406
 20
8.7288734891
 30
0.0
 10
12.9926003675
 20
8.7347469702
 30
0.0
 10
12.9858523543
 20
8.7411074968
 30
0.0
 10
12.9795594012
 20
8.7479201518
 30
0.0
 10
12.9737560555
 20
8.7551475453
 30
0.0
 10
12.9684741832
 20
8.7627500147
 30
0.0
 10
12.9637428004
 20
8.7706858423
 30
0.0
 10
12.9595879095
 20
8.7789114842
 30
0.0
 10
12.9560323771
 20
8.7873818001
 30
0.0
 10
12.9530957573
 20
8.7960503243
 30
0.0
 10
12.9507943049
 20
8.8048694092
 30
0.0
 10
12.949140641
 20
8.8137908677
 30
0.0
 10
12.9481440853
 20
8.8227649836
 30
0.0
 10
12.9479208501
 20
8.8287669034
 30
0.0
 10
12.9479208501
 20
8.8317590891
 30
0.0
  0
SPLINE
  5
35A
100
AcDbEntity
  8
0
100
AcDbSpline
 62
7
  6
CONTINUOUS
 70
0
 71
3
 72
39
 73
35
 74
0
 42
0.0000001
 43
0.0000001
 44
0.0000000001
 40
0.0
 40
0.0
 40
0.0
 40
0.0
 40
0.0063160434
 40
0.0126710029
 40
0.0191030045
 40
0.0256487356
 40
0.0323428089
 40
0.0392173377
 40
0.0536155953
 40
0.0690528149
 40
0.0856862522
 40
0.1036346846
 40
0.122984865
 40
0.1437978688
 40
0.1661140263
 40
0.1899570033
 40
0.2153371736
 40
0.2422537757
 40
0.2706968018
 40
0.3006486039
 40
0.3320847235
 40
0.3649748471
 40
0.3992836485
 40
0.4349710839
 40
0.4719929806
 40
0.5103015368
 40
0.5498454104
 40
0.5905701547
 40
0.6324185518
 40
0.675330643
 40
0.7192440403
 40
0.8098129706
 40
0.9035866016
 40
1.0
 40
1.0
 40
1.0
 40
1.0
 10
14.7565430586
 20
9.0512763129
 30
0.0
 10
14.7572867394
 20
9.0512247341
 30
0.0
 10
14.7587751665
 20
9.0510603643
 30
0.0
 10
14.7609911227
 20
9.0506319731
 30
0.0
 10
14.7631922774
 20
9.0500217933
 30
0.0
 10
14.765377326
 20
9.0492302208
 30
0.0
 10
14.767545393
 20
9.048257779
 30
0.0
 10
14.7704566696
 20
9.0466971753
 30
0.0
 10
14.7740590811
 20
9.0442670973
 30
0.0
 10
14.7782258795
 20
9.0406850893
 30
0.0
 10
14.7822998365
 20
9.0364004932
 30
0.0
 10
14.7862762286
 20
9.0314212486
 30
0.0
 10
14.7901507992
 20
9.0257551747
 30
0.0
 10
14.7939184095
 20
9.0194109736
 30
0.0
 10
14.7975737289
 20
9.0123984023
 30
0.0
 10
14.8011112698
 20
9.0047283978
 30
0.0
 10
14.8045254514
 20
8.996413044
 30
0.0
 10
14.8078108044
 20
8.9874656162
 30
0.0
 10
14.8109620026
 20
8.9779005234
 30
0.0
 10
14.8139738289
 20
8.9677332503
 30
0.0
 10
14.8168413167
 20
8.9569803517
 30
0.0
 10
14.8195597272
 20
8.9456593952
 30
0.0
 10
14.8221245074
 20
8.9337889129
 30
0.0
 10
14.824531404
 20
8.9213883832
 30
0.0
 10
14.8267764218
 20
8.9084781813
 30
0.0
 10
14.8288557901
 20
8.8950795346
 30
0.0
 10
14.8307660608
 20
8.8812144987
 30
0.0
 10
14.8325040628
 20
8.8669059071
 30
0.0
 10
14.8340668643
 20
8.8521773366
 30
0.0
 10
14.8354519091
 20
8.837053042
 30
0.0
 10
14.8370751175
 20
8.8161780831
 30
0.0
 10
14.8386302731
 20
8.7892793088
 30
0.0
 10
14.8397409922
 20
8.7561581912
 30
0.0
 10
14.8399820341
 20
8.7337099712
 30
0.0
 10
14.8399820341
 20
8.7223305321
 30
0.0
  0
SPLINE
  5
35B
100
AcDbEntity
  8
0
100
AcDbSpline
 62
7
  6
CONTINUOUS
 70
0
 71
3
 72
25
 73
21
 74
0
 42
0.0000001
 43
0.0000001
 44
0.0000000001
 40
0.0
 40
0.0
 40
0.0
 40
0.0
 40
0.062088491
 40
0.12405931
 40
0.1859486792
 40
0.2477948075
 40
0.309637224
 40
0.3715160478
 40
0.4334712066
 40
0.4955416265
 40
0.5577644115
 40
0.6201740419
 40
0.6828016064
 40
0.7142106101
 40
0.7456838584
 40
0.8088236305
 40
0.8722479762
 40
0.9040749065
 40
0.9359775439
 40
1.0
 40
1.0
 40
1.0
 40
1.0
 10
11.1399548305
 20
8.8512507855
 30
0.0
 10
11.1364117146
 20
8.8450178853
 30
0.0
 10
11.1289014438
 20
8.8328029993
 30
0.0
 10
11.1164041659
 20
8.8153221276
 30
0.0
 10
11.1027336443
 20
8.7987772893
 30
0.0
 10
11.0879443985
 20
8.7832449638
 30
0.0
 10
11.0720956355
 20
8.7687968013
 30
0.0
 10
11.0552522516
 20
8.7555010219
 30
0.0
 10
11.0374844278
 20
8.7434214191
 30
0.0
 10
11.0188676134
 20
8.7326170054
 30
0.0
 10
10.9994819944
 20
8.7231414003
 30
0.0
 10
10.9794132322
 20
8.7150425929
 30
0.0
 10
10.9622083306
 20
8.7094801924
 30
0.0
 10
10.9481993288
 20
8.7057558949
 30
0.0
 10
10.9340103109
 20
8.7025132128
 30
0.0
 10
10.9160149043
 20
8.6993868457
 30
0.0
 10
10.8978051774
 20
8.6975170528
 30
0.0
 10
10.8831383887
 20
8.6967752566
 30
0.0
 10
10.8683862559
 20
8.6965374015
 30
0.0
 10
10.857305055
 20
8.6969293652
 30
0.0
 10
10.8499298788
 20
8.6974408354
 30
0.0
  0
SPLINE
  5
35C
100
AcDbEntity
  8
0
100
AcDbSpline
 62
7
  6
CONTINUOUS
 70
0
 71
3
 72
39
 73
35
 74
0
 42
0.0000001
 43
0.0000001
 44
0.0000000001
 40
0.0
 40
0.0
 40
0.0
 40
0.0
 40
0.029942471
 40
0.0599093185
 40
0.089924325
 40
0.1200101043
 40
0.1501875632
 40
0.1804754155
 40
0.2108897611
 40
0.2414437393
 40
0.2721472649
 40
0.3030068482
 40
0.3340255005
 40
0.3652027199
 40
0.3965345553
 40
0.4280137416
 40
0.4596298994
 40
0.4913697937
 40
0.523217641
 40
0.5551554573
 40
0.5871634413
 40
0.619220384
 40
0.6513040994
 40
0.6833918697
 40
0.715460897
 40
0.7474887556
 40
0.7794538398
 40
0.8113357995
 40
0.8431159588
 40
0.874777715
 40
0.9063068673
 40
0.9376920959
 40
0.968924654
 40
1.0
 40
1.0
 40
1.0
 40
1.0
 10
12.3178670202
 20
8.6836879839
 30
0.0
 10
12.3116458945
 20
8.677678843
 30
0.0
 10
12.298714451
 20
8.6661455363
 30
0.0
 10
12.2779962735
 20
8.6504334457
 30
0.0
 10
12.2560629766
 20
8.6363878614
 30
0.0
 10
12.2330371168
 20
8.62408757
 30
0.0
 10
12.2090452866
 20
8.6135997719
 30
0.0
 10
12.1842198918
 20
8.6049821217
 30
0.0
 10
12.1586977319
 20
8.5982817805
 30
0.0
 10
12.1326194178
 20
8.5935353299
 30
0.0
 10
12.1061285345
 20
8.590768542
 30
0.0
 10
12.0793708561
 20
8.5899962874
 30
0.0
 10
12.0524935422
 20
8.5912224666
 30
0.0
 10
12.0256443344
 20
8.5944400074
 30
0.0
 10
11.9989707534
 20
8.59963092
 30
0.0
 10
11.9726192988
 20
8.6067664036
 30
0.0
 10
11.9467346482
 20
8.6158069955
 30
0.0
 10
11.9214588782
 20
8.6267028187
 30
0.0
 10
11.8969306963
 20
8.6393938565
 30
0.0
 10
11.8732846917
 20
8.6538102843
 30
0.0
 10
11.8506506068
 20
8.6698728506
 30
0.0
 10
11.8291526378
 20
8.6874933125
 30
0.0
 10
11.8089087466
 20
8.7065748982
 30
0.0
 10
11.7900300273
 20
8.7270128471
 30
0.0
 10
11.7726201081
 20
8.7486949847
 30
0.0
 10
11.7567745886
 20
8.77150233
 30
0.0
 10
11.7425805192
 20
8.7953097388
 30
0.0
 10
11.7301159312
 20
8.8199865879
 30
0.0
 10
11.7194493956
 20
8.84539746
 30
0.0
 10
11.7106396558
 20
8.871402935
 30
0.0
 10
11.7037352668
 20
8.8978601486
 30
0.0
 10
11.698774475
 20
8.9246243129
 30
0.0
 10
11.6957846815
 20
8.9515465654
 30
0.0
 10
11.6951150455
 20
8.9695521949
 30
0.0
 10
11.6951150455
 20
8.978528849
 30
0.0
  0
SPLINE
  5
35D
100
AcDbEntity
  8
0
100
AcDbSpline
 62
7
  6
CONTINUOUS
 70
0
 71
3
 72
39
 73
35
 74
0
 42
0.0000001
 43
0.0000001
 44
0.0000000001
 40
0.0
 40
0.0
 40
0.0
 40
0.0
 40
0.029942471
 40
0.0599093185
 40
0.089924325
 40
0.1200101043
 40
0.1501875632
 40
0.1804754155
 40
0.2108897611
 40
0.2414437393
 40
0.2721472649
 40
0.3030068482
 40
0.3340255005
 40
0.3652027199
 40
0.3965345553
 40
0.4280137416
 40
0.4596298994
 40
0.4913697937
 40
0.523217641
 40
0.5551554573
 40
0.5871634413
 40
0.619220384
 40
0.6513040994
 40
0.6833918697
 40
0.715460897
 40
0.7474887556
 40
0.7794538398
 40
0.8113357995
 40
0.8431159588
 40
0.874777715
 40
0.9063068673
 40
0.9376920959
 40
0.968924654
 40
1.0
 40
1.0
 40
1.0
 40
1.0
 10
12.9215706974
 20
7.0731573444
 30
0.0
 10
12.9153495717
 20
7.0671482035
 30
0.0
 10
12.9024181282
 20
7.0556148968
 30
0.0
 10
12.8816999507
 20
7.0399028062
 30
0.0
 10
12.8597666538
 20
7.0258572219
 30
0.0
 10
12.836740794
 20
7.0135569305
 30
0.0
 10
12.8127489638
 20
7.0030691324
 30
0.0
 10
12.787923569
 20
6.9944514822
 30
0.0
 10
12.7624014091
 20
6.9877511411
 30
0.0
 10
12.736323095
 20
6.9830046905
 30
0.0
 10
12.7098322117
 20
6.9802379025
 30
0.0
 10
12.6830745333
 20
6.9794656479
 30
0.0
 10
12.6561972194
 20
6.9806918271
 30
0.0
 10
12.6293480116
 20
6.9839093679
 30
0.0
 10
12.6026744306
 20
6.9891002805
 30
0.0
 10
12.576322976
 20
6.9962357641
 30
0.0
 10
12.5504383254
 20
7.005276356
 30
0.0
 10
12.5251625554
 20
7.0161721792
 30
0.0
 10
12.5006343735
 20
7.028863217
 30
0.0
 10
12.4769883689
 20
7.0432796448
 30
0.0
 10
12.454354284
 20
7.0593422112
 30
0.0
 10
12.432856315
 20
7.076962673
 30
0.0
 10
12.4126124238
 20
7.0960442587
 30
0.0
 10
12.3937337045
 20
7.1164822076
 30
0.0
 10
12.3763237853
 20
7.1381643452
 30
0.0
 10
12.3604782658
 20
7.1609716905
 30
0.0
 10
12.3462841964
 20
7.1847790993
 30
0.0
 10
12.3338196084
 20
7.2094559484
 30
0.0
 10
12.3231530728
 20
7.2348668205
 30
0.0
 10
12.314343333
 20
7.2608722955
 30
0.0
 10
12.307438944
 20
7.2873295091
 30
0.0
 10
12.3024781522
 20
7.3140936734
 30
0.0
 10
12.2994883587
 20
7.3410159259
 30
0.0
 10
12.2988187227
 20
7.3590215554
 30
0.0
 10
12.2988187227
 20
7.3679982095
 30
0.0
  0
SPLINE
  5
35E
100
AcDbEntity
  8
0
100
AcDbSpline
 62
7
  6
CONTINUOUS
 70
0
 71
3
 72
39
 73
35
 74
0
 42
0.0000001
 43
0.0000001
 44
0.0000000001
 40
0.0
 40
0.0
 40
0.0
 40
0.0
 40
0.029942471
 40
0.0599093185
 40
0.089924325
 40
0.1200101043
 40
0.1501875632
 40
0.1804754155
 40
0.2108897611
 40
0.2414437393
 40
0.2721472649
 40
0.3030068482
 40
0.3340255005
 40
0.3652027199
 40
0.3965345553
 40
0.4280137416
 40
0.4596298994
 40
0.4913697937
 40
0.523217641
 40
0.5551554573
 40
0.5871634413
 40
0.619220384
 40
0.6513040994
 40
0.6833918697
 40
0.715460897
 40
0.7474887556
 40
0.7794538398
 40
0.8113357995
 40
0.8431159588
 40
0.874777715
 40
0.9063068673
 40
0.9376920959
 40
0.968924654
 40
1.0
 40
1.0
 40
1.0
 40
1.0
 10
11.714163343
 20
7.1568913289
 30
0.0
 10
11.7079422173
 20
7.1508821879
 30
0.0
 10
11.6950107738
 20
7.1393488812
 30
0.0
 10
11.6742925963
 20
7.1236367906
 30
0.0
 10
11.6523592994
 20
7.1095912063
 30
0.0
 10
11.6293334396
 20
7.0972909149
 30
0.0
 10
11.6053416094
 20
7.0868031169
 30
0.0
 10
11.5805162146
 20
7.0781854667
 30
0.0
 10
11.5549940547
 20
7.0714851255
 30
0.0
 10
11.5289157406
 20
7.0667386749
 30
0.0
 10
11.5024248573
 20
7.0639718869
 30
0.0
 10
11.4756671789
 20
7.0631996323
 30
0.0
 10
11.448789865
 20
7.0644258115
 30
0.0
 10
11.4219406572
 20
7.0676433524
 30
0.0
 10
11.3952670762
 20
7.0728342649
 30
0.0
 10
11.3689156216
 20
7.0799697485
 30
0.0
 10
11.343030971
 20
7.0890103404
 30
0.0
 10
11.317755201
 20
7.0999061636
 30
0.0
 10
11.2932270191
 20
7.1125972014
 30
0.0
 10
11.2695810145
 20
7.1270136292
 30
0.0
 10
11.2469469296
 20
7.1430761956
 30
0.0
 10
11.2254489606
 20
7.1606966574
 30
0.0
 10
11.2052050694
 20
7.1797782431
 30
0.0
 10
11.1863263501
 20
7.200216192
 30
0.0
 10
11.1689164309
 20
7.2218983296
 30
0.0
 10
11.1530709114
 20
7.2447056749
 30
0.0
 10
11.138876842
 20
7.2685130837
 30
0.0
 10
11.126412254
 20
7.2931899329
 30
0.0
 10
11.1157457184
 20
7.3186008049
 30
0.0
 10
11.1069359786
 20
7.34460628
 30
0.0
 10
11.1000315896
 20
7.3710634935
 30
0.0
 10
11.0950707978
 20
7.3978276578
 30
0.0
 10
11.0920810043
 20
7.4247499103
 30
0.0
 10
11.0914113683
 20
7.4427555398
 30
0.0
 10
11.0914113683
 20
7.4517321939
 30
0.0
  0
SPLINE
  5
35F
100
AcDbEntity
  8
0
100
AcDbSpline
 62
7
  6
CONTINUOUS
 70
0
 71
3
 72
23
 73
19
 74
0
 42
0.0000001
 43
0.0000001
 44
0.0000000001
 40
0.0
 40
0.0
 40
0.0
 40
0.0
 40
0.061575164
 40
0.1234919966
 40
0.1857213501
 40
0.2482256558
 40
0.3109597921
 40
0.3738720356
 40
0.4369058074
 40
0.500001157
 40
0.5630964554
 40
0.6261300723
 40
0.6890420674
 40
0.7517758457
 40
0.8142797481
 40
0.8765085434
 40
0.9384247862
 40
1.0
 40
1.0
 40
1.0
 40
1.0
 10
10.8552445553
 20
6.9993854643
 30
0.0
 10
10.8554766207
 20
6.9971886704
 30
0.0
 10
10.8561320945
 20
6.9928006919
 30
0.0
 10
10.8576731911
 20
6.9863108675
 30
0.0
 10
10.8597634917
 20
6.9799410628
 30
0.0
 10
10.8623870032
 20
6.9737401157
 30
0.0
 10
10.8655238045
 20
6.9677547275
 30
0.0
 10
10.8691501107
 20
6.9620301866
 30
0.0
 10
10.873238451
 20
6.9566097467
 30
0.0
 10
10.8777578866
 20
6.9515343841
 30
0.0
 10
10.8826742339
 20
6.9468424701
 30
0.0
 10
10.8879503247
 20
6.942569492
 30
0.0
 10
10.8935462757
 20
6.9387477871
 30
0.0
 10
10.8994198063
 20
6.9354062988
 30
0.0
 10
10.9055264771
 20
6.9325703686
 30
0.0
 10
10.9118202994
 20
6.930261513
 30
0.0
 10
10.9182530377
 20
6.9284973761
 30
0.0
 10
10.9226157721
 20
6.9276909211
 30
0.0
 10
10.9248032494
 20
6.927383173
 30
0.0
  0
SPLINE
  5
360
100
AcDbEntity
  8
0
100
AcDbSpline
 62
7
  6
CONTINUOUS
 70
0
 71
3
 72
23
 73
19
 74
0
 42
0.0000001
 43
0.0000001
 44
0.0000000001
 40
0.0
 40
0.0
 40
0.0
 40
0.0
 40
0.061575164
 40
0.1234919966
 40
0.1857213501
 40
0.2482256558
 40
0.3109597921
 40
0.3738720356
 40
0.4369058074
 40
0.500001157
 40
0.5630964554
 40
0.6261300723
 40
0.6890420674
 40
0.7517758457
 40
0.8142797481
 40
0.8765085434
 40
0.9384247862
 40
1.0
 40
1.0
 40
1.0
 40
1.0
 10
13.0739762435
 20
9.5018120788
 30
0.0
 10
13.0742083089
 20
9.4996152849
 30
0.0
 10
13.0748637826
 20
9.4952273064
 30
0.0
 10
13.0764048792
 20
9.488737482
 30
0.0
 10
13.0784951798
 20
9.4823676773
 30
0.0
 10
13.0811186914
 20
9.4761667302
 30
0.0
 10
13.0842554926
 20
9.470181342
 30
0.0
 10
13.0878817988
 20
9.4644568011
 30
0.0
 10
13.0919701391
 20
9.4590363612
 30
0.0
 10
13.0964895747
 20
9.4539609986
 30
0.0
 10
13.101405922
 20
9.4492690846
 30
0.0
 10
13.1066820128
 20
9.4449961065
 30
0.0
 10
13.1122779638
 20
9.4411744016
 30
0.0
 10
13.1181514944
 20
9.4378329133
 30
0.0
 10
13.1242581652
 20
9.4349969831
 30
0.0
 10
13.1305519875
 20
9.4326881275
 30
0.0
 10
13.1369847258
 20
9.4309239906
 30
0.0
 10
13.1413474602
 20
9.4301175356
 30
0.0
 10
13.1435349375
 20
9.4298097875
 30
0.0
  0
ENDSEC
  0
SECTION
  2
OBJECTS
  0
DICTIONARY
  5
C
100
AcDbDictionary
280
0
281
1
  3
ACAD_GROUP
350
D
  3
ACAD_MLINESTYLE
350
17
  3
ACAD_LAYOUT
350
1A
  3
ACAD_PLOTSETTINGS
350
19
  3
ACAD_PLOTSTYLENAME
350
E
  3
ACAD_IMAGE_DICT
350
       362
  3
ACAD_IMAGE_VARS
350
       363
  3
ACAD_TABLESTYLE
350
       364
  0
IMAGEDEF_REACTOR
  5
361
100
AcDbRasterImageDefReactor
 90
2
330
28B
  0
DICTIONARY
  5
D
102
{ACAD_REACTORS
330
C
102
}
100
AcDbDictionary
280
0
281
1
  0
ACDBDICTIONARYWDFLT
  5
E
102
{ACAD_REACTORS
330
C
102
}
100
AcDbDictionary
281
1
  3
Normal
350
F
100
AcDbDictionaryWithDefault
340
F
  0
DICTIONARY
  5
362
330
C
100
AcDbDictionary
281
1
  3
RVGALAN-CKQ-M_assy_2_img_1
350
       367
  0
RASTERVARIABLES
  5
363
330
C
100
AcDbRasterVariables
 90
0
 70
0
 71
1
 72
5
  0
DICTIONARY
  5
17
102
{ACAD_REACTORS
330
C
102
}
100
AcDbDictionary
280
0
281
1
  3
Standard
350
18
  0
DICTIONARY
  5
364
330
C
100
AcDbDictionary
281
1
  3
Standard
350
       368
  3
Standard1
350
       369
  0
DICTIONARY
  5
19
102
{ACAD_REACTORS
330
C
102
}
100
AcDbDictionary
281
1
  0
DICTIONARY
  5
1A
102
{ACAD_REACTORS
330
C
102
}
100
AcDbDictionary
281
1
  3
Model
350
365
  3
Layout1
350
366
  0
ACDBPLACEHOLDER
  5
F
102
{ACAD_REACTORS
330
E
102
}
  0
MLINESTYLE
  5
18
102
{ACAD_REACTORS
330
17
102
}
100
AcDbMlineStyle
  2
STANDARD
 70
0
  3

 62
256
 51
90.0
 52
90.0
 71
2
 49
0.5
 62
256
  6
BYLAYER
 49
-0.5
 62
256
  6
BYLAYER
  0
LAYOUT
  5
365
102
{ACAD_REACTORS
330
1A
102
}
100
AcDbPlotSettings
  1

  2
none_device
  4
ANSI_C_(22.00_x_17.00_Inches)
  6

 40
0.0
 41
0.0
 42
0.0
 43
0.0
 44
558.8
 45
431.8
 46
0.0
 47
0.0
 48
0.0
 49
0.0
140
0.0
141
0.0
142
1.0
143
1.0
 70
1024
 72
0
 73
0
 74
0
  7

 75
0
147
1.0
148
0.0
149
0.0
100
AcDbLayout
  1
Model
 70
0
 71
0
 10
0.0
 20
0.0
 11
22.0
 21
17.0
 12
0.0
 22
0.0
 32
0.0
 14
0.0
 24
0.0
 34
0.0
 15
0.0
 25
0.0
 35
0.0
146
0.0
 13
0.0
 23
0.0
 33
0.0
 16
1.0
 26
0.0
 36
0.0
 17
0.0
 27
1.0
 37
0.0
 76
0
330
20F
345
0
346
0
  0
LAYOUT
  5
366
102
{ACAD_REACTORS
330
1A
102
}
100
AcDbPlotSettings
  1

  2
none_device
  4
ANSI_C_(22.00_x_17.00_Inches)
  6

 40
0.0
 41
0.0
 42
0.0
 43
0.0
 44
558.8
 45
431.8
 46
0.0
 47
0.0
 48
0.0
 49
0.0
140
0.0
141
0.0
142
1.0
143
1.0
 70
0
 72
0
 73
0
 74
0
  7

 75
0
147
1.0
148
0.0
149
0.0
100
AcDbLayout
  1
Layout1
 70
0
 71
1
 10
0.0
 20
0.0
 11
22.0
 21
17.0
 12
0.0
 22
0.0
 32
0.0
 14
0.0
 24
0.0
 34
0.0
 15
0.0
 25
0.0
 35
0.0
146
0.0
 13
0.0
 23
0.0
 33
0.0
 16
1.0
 26
0.0
 36
0.0
 17
0.0
 27
1.0
 37
0.0
 76
0
330
210
345
0
346
0
  0
IMAGEDEF
  5
367
102
{ACAD_REACTORS
330
362
330
361
102
}
100
AcDbRasterImageDef
 90
0
  1
RVGALAN-CKQ-M_assy_2_img_1.png
 10
369.0
 20
92.0
 11
0.0066666667
 21
0.0066666667
280
1
281
0
  0
TABLESTYLE
  5
368
102
{ACAD_REACTORS
330
364
330
28E
330
28F
102
}
330
364
100
AcDbTableStyle
  3
Standard
 70
0
 71
0
 40
0.06
 41
0.06
280
1
281
1
  7
Standard
140
0.18
170
1
 62
0
 63
7
283
0
  7
Standard
140
0.18
170
1
 62
0
 63
7
283
0
  7
Standard
140
0.18
170
1
 62
0
 63
7
283
0
  0
TABLESTYLE
  5
369
102
{ACAD_REACTORS
330
364
330
28D
102
}
330
364
100
AcDbTableStyle
  3
Standard1
 70
1
 71
0
 40
0.06
 41
0.06
280
1
281
1
  7
Standard
140
0.18
170
1
 62
0
 63
7
283
0
  7
Standard
140
0.18
170
1
 62
0
 63
7
283
0
  7
Standard
140
0.18
170
1
 62
0
 63
7
283
0
  0
ENDSEC
  0
EOF
