999
DXF file: RVEALAN-BBE-M_assy_2.dxf
999
Pro/ENGINEER 2014200 by Parametric Technology Corporation
  0
SECTION
  2
HEADER
  9
$ACADVER
  1
AC1021
  9
$DWGCODEPAGE
  3
ANSI_1252
  9
$EXTMAX
 10
22.0
 20
17.0
 30
0.0
  9
$EXTMIN
 10
0.0
 20
0.0
 30
0.0
  9
$LIMMIN
 10
0.0
 20
0.0
  9
$LIMMAX
 10
22.0
 20
17.0
  9
$VIEWCTR
 10
11.0
 20
8.5
  9
$VIEWSIZE
 40
17.0
  9
$CLAYER
  8
0
  9
$LTSCALE
 40
1.21
  9
$CELTYPE
  6
BYLAYER
  9
$DIMSCALE
 40
1.0
  9
$DIMASZ
 40
0.1875
  9
$DIMEXO
 40
0.0625
  9
$DIMDLI
 40
0.836
  9
$DIMEXE
 40
0.125
  9
$DIMCEN
 40
0.198
  9
$DIMLFAC
 40
1.0
  9
$DIMBLK
  1
_FILLED
  9
$DIMTXT
 40
0.1
  9
$DIMTOL
 70
0
  9
$DIMLIM
 70
0
  9
$DIMTFAC
 40
1.0
  9
$DIMGAP
 40
0.09
  9
$DIMDSEP
 70
46
  9
$AUNITS
 70
0
  9
$PDMODE
 70
3
  9
$PDSIZE
 40
0.3125
  9
$HANDSEED
  5
395
  9
$TILEMODE
 70
1
  9
$MEASUREMENT
 70
0
  9
$INSUNITS
 70
1
  0
ENDSEC
  0
SECTION
  2
CLASSES
  0
CLASS
  1
ACDBDICTIONARYWDFLT
  2
AcDbDictionaryWithDefault
  3
AutoCAD 2000
 90
0
 91
1
280
0
281
0
  0
CLASS
  1
ACDBPLACEHOLDER
  2
AcDbPlaceHolder
  3
AutoCAD 2000
 90
0
 91
1
280
0
281
0
  0
CLASS
  1
LAYOUT
  2
AcDbLayout
  3
AutoCAD 2000
 90
0
 91
0
280
0
281
0
  0
CLASS
  1
RASTERVARIABLES
  2
AcDbRasterVariables
  3
ISM
 90
0
 91
1
280
0
281
0
  0
CLASS
  1
IMAGEDEF
  2
AcDbRasterImageDef
  3
ISM
 90
0
 91
1
280
0
281
0
  0
CLASS
  1
IMAGEDEF_REACTOR
  2
AcDbRasterImageDefReactor
  3
ISM
 90
0
 91
1
280
0
281
0
  0
CLASS
  1
IMAGE
  2
AcDbRasterImage
  3
ISM
 90
127
 91
1
280
0
281
1
  0
CLASS
  1
TABLESTYLE
  2
AcDbTableStyle
  3
ObjectDBX Classes
 90
2047
 91
1
280
0
281
0
  0
CLASS
  1
ACAD_TABLE
  2
AcDbTable
  3
ObjectDBX Classes
 90
1025
 91
3
280
0
281
1
  0
ENDSEC
  0
SECTION
  2
TABLES
  0
TABLE
  2
VPORT
  5
8
100
AcDbSymbolTable
 70
2
  0
VPORT
  5
1F4
100
AcDbSymbolTableRecord
100
AcDbViewportTableRecord
  2
*ACTIVE
 70
0
 10
0.0
 20
0.0
 11
1.0
 21
1.0
 12
11.0
 22
8.5
 13
0.0
 23
0.0
 14
1.0
 24
1.0
 15
0.0
 25
0.0
 16
0.0
 26
0.0
 36
1.0
 17
0.0
 27
0.0
 37
0.0
 40
17.0
 41
1.2941176471
 42
50.0
 43
0.0
 44
0.0
 50
0.0
 51
0.0
 71
0
 72
100
 73
1
 74
1
 75
0
 76
0
 77
0
 78
0
  0
ENDTAB
  0
TABLE
  2
LTYPE
  5
5
100
AcDbSymbolTable
 70
6
  0
LTYPE
  5
14
100
AcDbSymbolTableRecord
100
AcDbLinetypeTableRecord
  2
BYBLOCK
 70
0
  3

 72
65
 73
0
 40
0.0
  0
LTYPE
  5
15
100
AcDbSymbolTableRecord
100
AcDbLinetypeTableRecord
  2
BYLAYER
 70
0
  3

 72
65
 73
0
 40
0.0
  0
LTYPE
  5
16
100
AcDbSymbolTableRecord
100
AcDbLinetypeTableRecord
  2
CONTINUOUS
 70
64
  3
Solid line
 72
65
 73
0
 40
0.0
  0
LTYPE
  5
1F5
100
AcDbSymbolTableRecord
100
AcDbLinetypeTableRecord
  2
CENTER
 70
64
  3
____ _ ____ _ ____ _ ____ _ ____ _ ____ _ ____
 72
65
 73
4
 40
0.6
 49
0.375
 74
0
 49
-0.075
 74
0
 49
0.075
 74
0
 49
-0.075
 74
0
  0
LTYPE
  5
1F6
100
AcDbSymbolTableRecord
100
AcDbLinetypeTableRecord
  2
HIDDEN
 70
64
  3
- - - - - - - - - - - - - - - - - - - -
 72
65
 73
2
 40
0.2
 49
0.1
 74
0
 49
-0.1
 74
0
  0
LTYPE
  5
1F7
100
AcDbSymbolTableRecord
100
AcDbLinetypeTableRecord
  2
PHANTOM
 70
64
  3
_____ _ _ _____ _ _ _____ _ _ _____
 72
65
 73
6
 40
0.8
 49
0.45
 74
0
 49
-0.05
 74
0
 49
0.1
 74
0
 49
-0.05
 74
0
 49
0.1
 74
0
 49
-0.05
 74
0
  0
LTYPE
  5
1F8
100
AcDbSymbolTableRecord
100
AcDbLinetypeTableRecord
  2
DOT
 70
64
  3
. . . . . . . . . . . . . . . . . . . .
 72
65
 73
2
 40
0.2
 49
0.1
 74
0
 49
-0.1
 74
0
  0
LTYPE
  5
1F9
100
AcDbSymbolTableRecord
100
AcDbLinetypeTableRecord
  2
DASHED
 70
64
  3
- - - - - - - - - - - - - - - - - - - -
 72
65
 73
2
 40
0.2
 49
0.1
 74
0
 49
-0.1
 74
0
  0
ENDTAB
  0
TABLE
  2
LAYER
  5
2
100
AcDbSymbolTable
 70
36
  0
LAYER
  5
10
100
AcDbSymbolTableRecord
100
AcDbLayerTableRecord
  2
0
 70
0
 62
7
  6
CONTINUOUS
370
-3
390
F
  0
LAYER
  5
1FA
100
AcDbSymbolTableRecord
100
AcDbLayerTableRecord
  2
DEFAULT_1
 70
0
 62
7
  6
CENTER
370
-3
390
F
  0
LAYER
  5
1FB
100
AcDbSymbolTableRecord
100
AcDbLayerTableRecord
  2
DEFAULT_2
 70
0
 62
8
  6
HIDDEN
370
-3
390
F
  0
LAYER
  5
1FC
100
AcDbSymbolTableRecord
100
AcDbLayerTableRecord
  2
DEFAULT_3
 70
0
 62
7
  6
PHANTOM
370
-3
390
F
  0
LAYER
  5
1FD
100
AcDbSymbolTableRecord
100
AcDbLayerTableRecord
  2
DATUM_PLANES
 70
0
 62
7
  6
CONTINUOUS
370
-3
390
F
  0
LAYER
  5
1FE
100
AcDbSymbolTableRecord
100
AcDbLayerTableRecord
  2
DIMENSIONS
 70
0
 62
7
  6
CONTINUOUS
370
-3
390
F
  0
LAYER
  5
1FF
100
AcDbSymbolTableRecord
100
AcDbLayerTableRecord
  2
DTM_500001
 70
0
 62
7
  6
CONTINUOUS
370
-3
390
F
  0
LAYER
  5
200
100
AcDbSymbolTableRecord
100
AcDbLayerTableRecord
  2
PARAMETERDIMENSIONS
 70
0
 62
7
  6
CONTINUOUS
370
-3
390
F
  0
LAYER
  5
201
100
AcDbSymbolTableRecord
100
AcDbLayerTableRecord
  2
PORT_AREAS
 70
0
 62
7
  6
CONTINUOUS
370
-3
390
F
  0
LAYER
  5
202
100
AcDbSymbolTableRecord
100
AcDbLayerTableRecord
  2
SUNNBOMCOSMETIC
 70
0
 62
7
  6
CONTINUOUS
370
-3
390
F
  0
LAYER
  5
203
100
AcDbSymbolTableRecord
100
AcDbLayerTableRecord
  2
SUNNBOMSTAMPING
 70
0
 62
7
  6
CONTINUOUS
370
-3
390
F
  0
LAYER
  5
204
100
AcDbSymbolTableRecord
100
AcDbLayerTableRecord
  2
THREADS
 70
0
 62
7
  6
CONTINUOUS
370
-3
390
F
  0
ENDTAB
  0
TABLE
  2
STYLE
  5
3
100
AcDbSymbolTable
 70
1
  0
STYLE
  5
11
100
AcDbSymbolTableRecord
100
AcDbTextStyleTableRecord
  2
STANDARD
 70
0
 40
0.0
 41
0.8
 50
0.0
 71
0
 42
0.2
  3
txt
  4

  0
STYLE
  5
205
100
AcDbSymbolTableRecord
100
AcDbTextStyleTableRecord
  2
TEXTSTYLE_1
 70
0
 40
0.0
 41
0.8
 50
0.0
 71
0
 42
0.2
  3
gdt
  4

  0
ENDTAB
  0
TABLE
  2
VIEW
  5
6
100
AcDbSymbolTable
 70
0
  0
ENDTAB
  0
TABLE
  2
UCS
  5
7
100
AcDbSymbolTable
 70
0
  0
ENDTAB
  0
TABLE
  2
APPID
  5
9
100
AcDbSymbolTable
 70
1
  0
APPID
  5
206
100
AcDbSymbolTableRecord
100
AcDbRegAppTableRecord
  2
ACAD
 70
0
  0
ENDTAB
  0
TABLE
  2
BLOCK_RECORD
  5
1
100
AcDbSymbolTable
 70
0
  0
BLOCK_RECORD
  5
207
100
AcDbSymbolTableRecord
100
AcDbBlockTableRecord
  2
*Model_Space
  0
BLOCK_RECORD
  5
208
100
AcDbSymbolTableRecord
100
AcDbBlockTableRecord
  2
*Paper_Space
  0
BLOCK_RECORD
  5
209
100
AcDbSymbolTableRecord
100
AcDbBlockTableRecord
  2
SUN_FIRST_THIRD_ANGLE_BL0
  0
BLOCK_RECORD
  5
20A
100
AcDbSymbolTableRecord
100
AcDbBlockTableRecord
  2
*T1
  0
BLOCK_RECORD
  5
20B
100
AcDbSymbolTableRecord
100
AcDbBlockTableRecord
  2
*T2
  0
BLOCK_RECORD
  5
20C
100
AcDbSymbolTableRecord
100
AcDbBlockTableRecord
  2
*T3
  0
ENDTAB
  0
TABLE
  2
DIMSTYLE
  5
A
100
AcDbSymbolTable
 70
1
100
AcDbDimStyleTable
 71
0
  0
DIMSTYLE
105
20D
100
AcDbSymbolTableRecord
100
AcDbDimStyleTableRecord
  2
STANDARD
 70
0
  3

  4

 40
1.0
 41
0.1875
 42
0.0625
 43
0.38
 44
0.125
 45
0.0
 46
0.0
 47
0.001
 48
0.001
140
0.1
141
0.09
142
0.0
143
25.4
144
1.0
145
0.0
146
1.0
147
0.09
 71
0.0
 72
0.0
 73
1
 74
1
 75
0
 76
0
 77
0
 78
4
170
0
171
2
172
0
173
0
174
0
175
0
176
0
177
0
178
0
270
2
271
3
272
3
273
2
274
2
275
0
280
0
281
0
282
0
283
1
284
4
285
0
286
0
287
3
288
0
340
11
278
46
  0
ENDTAB
  0
ENDSEC
  0
SECTION
  2
BLOCKS
  0
BLOCK
  5
20
100
AcDbEntity
  8
0
100
AcDbBlockBegin
  2
*Model_Space
 70
0
 10
0.0
 20
0.0
 30
0.0
  3
*Model_Space
  1

  0
ENDBLK
  5
21
100
AcDbEntity
  8
0
100
AcDbBlockEnd
  0
BLOCK
  5
1C
100
AcDbEntity
  8
0
100
AcDbBlockBegin
  2
*Paper_Space
 70
0
 10
0.0
 20
0.0
 30
0.0
  3
*Paper_Space
  1

  0
ENDBLK
  5
1D
100
AcDbEntity
  8
0
100
AcDbBlockEnd
  0
BLOCK
  5
20E
100
AcDbEntity
  8
0
100
AcDbBlockBegin
 62
2
  6
CONTINUOUS
  2
SUN_FIRST_THIRD_ANGLE_BL0
 70
64
 10
20.4816717061
 20
1.2289683772
  3
SUN_FIRST_THIRD_ANGLE_BL0
  1

  0
TEXT
  5
20F
100
AcDbEntity
  8
0
100
AcDbText
 62
2
  6
CONTINUOUS
 10
19.4750896608
 20
1.4136269581
  7
STANDARD
 40
0.08
  1
FIRST ANGLE
 41
0.8
 72
0
100
AcDbText
  0
TEXT
  5
210
100
AcDbEntity
  8
0
100
AcDbText
 62
2
  6
CONTINUOUS
 10
20.7842537513
 20
1.4047600029
  7
STANDARD
 40
0.08
  1
THIRD ANGLE
 41
0.8
 72
0
100
AcDbText
  0
LINE
  5
211
100
AcDbEntity
  8
0
100
AcDbLine
 62
7
  6
CONTINUOUS
 10
19.4767170086
 20
1.1727031207
 11
19.6334271527
 21
1.1717972817
  0
LINE
  5
212
100
AcDbEntity
  8
0
100
AcDbLine
 62
7
  6
CONTINUOUS
 10
19.6596964832
 20
1.1717972817
 11
19.6950230232
 21
1.171593082
  0
LINE
  5
213
100
AcDbEntity
  8
0
100
AcDbLine
 62
7
  6
CONTINUOUS
 10
19.7194818561
 20
1.1708914427
 11
19.8852396156
 21
1.1699333054
  0
LINE
  5
214
100
AcDbEntity
  8
0
100
AcDbLine
 62
7
  6
CONTINUOUS
 10
19.4758111696
 20
1.2723454088
 11
19.88525039
 21
1.3511534004
  0
LINE
  5
215
100
AcDbEntity
  8
0
100
AcDbLine
 62
7
  6
CONTINUOUS
 10
19.88525039
 20
1.3511534004
 11
19.8831348489
 21
0.9851647912
  0
LINE
  5
216
100
AcDbEntity
  8
0
100
AcDbLine
 62
7
  6
CONTINUOUS
 10
19.8831348489
 20
0.9851647912
 11
19.4767170086
 21
1.0658141206
  0
LINE
  5
217
100
AcDbEntity
  8
0
100
AcDbLine
 62
7
  6
CONTINUOUS
 10
19.4767170086
 20
1.0658141206
 11
19.4779056764
 21
1.2714536432
  0
CIRCLE
  5
218
100
AcDbEntity
  8
0
100
AcDbCircle
 62
7
  6
CONTINUOUS
 10
20.2068232291
 20
1.1717972817
 40
0.175742101
  0
CIRCLE
  5
219
100
AcDbEntity
  8
0
100
AcDbCircle
 62
7
  6
CONTINUOUS
 10
20.2068232291
 20
1.1717972817
 40
0.1005522074
  0
LINE
  5
21A
100
AcDbEntity
  8
0
100
AcDbLine
 62
7
  6
CONTINUOUS
 10
20.2077290681
 20
1.3756110529
 11
20.2071171714
 21
1.2379342989
  0
LINE
  5
21B
100
AcDbEntity
  8
0
100
AcDbLine
 62
7
  6
CONTINUOUS
 10
20.2077290681
 20
1.2016899681
 11
20.2074674401
 21
1.1428236749
  0
LINE
  5
21C
100
AcDbEntity
  8
0
100
AcDbLine
 62
7
  6
CONTINUOUS
 10
20.208634907
 20
1.101141841
 11
20.2080230104
 21
0.963465087
  0
LINE
  5
21D
100
AcDbEntity
  8
0
100
AcDbLine
 62
7
  6
CONTINUOUS
 10
20.0066328138
 20
1.1745147986
 11
20.1443095678
 21
1.1739029019
  0
LINE
  5
21E
100
AcDbEntity
  8
0
100
AcDbLine
 62
7
  6
CONTINUOUS
 10
20.1832714155
 20
1.1727031207
 11
20.238153505
 21
1.172335442
  0
LINE
  5
21F
100
AcDbEntity
  8
0
100
AcDbLine
 62
7
  6
CONTINUOUS
 10
20.2756669918
 20
1.1717972817
 11
20.407916871
 21
1.1712095044
  0
CIRCLE
  5
220
100
AcDbEntity
  8
0
100
AcDbCircle
 62
7
  6
CONTINUOUS
 10
20.7509457401
 20
1.1693297793
 40
0.1722024983
  0
CIRCLE
  5
221
100
AcDbEntity
  8
0
100
AcDbCircle
 62
7
  6
CONTINUOUS
 10
20.7509457401
 20
1.1693297793
 40
0.0985164967
  0
LINE
  5
222
100
AcDbEntity
  8
0
100
AcDbLine
 62
7
  6
CONTINUOUS
 10
20.7169767782
 20
1.170462078
 11
20.7825395137
 21
1.1682766535
  0
LINE
  5
223
100
AcDbEntity
  8
0
100
AcDbLine
 62
7
  6
CONTINUOUS
 10
20.8177513651
 20
1.1693297793
 11
20.947965719
 21
1.1693297793
  0
LINE
  5
224
100
AcDbEntity
  8
0
100
AcDbLine
 62
7
  6
CONTINUOUS
 10
20.6875370113
 20
1.170462078
 11
20.5573226574
 21
1.170462078
  0
LINE
  5
225
100
AcDbEntity
  8
0
100
AcDbLine
 62
7
  6
CONTINUOUS
 10
20.7486811426
 20
1.1987695462
 11
20.7486811426
 21
1.1432869085
  0
LINE
  5
226
100
AcDbEntity
  8
0
100
AcDbLine
 62
7
  6
CONTINUOUS
 10
20.7498134414
 20
1.1059210505
 11
20.7498134414
 21
0.9757066966
  0
LINE
  5
227
100
AcDbEntity
  8
0
100
AcDbLine
 62
7
  6
CONTINUOUS
 10
20.7486811426
 20
1.2338708068
 11
20.7486811426
 21
1.3640851607
  0
LINE
  5
228
100
AcDbEntity
  8
0
100
AcDbLine
 62
7
  6
CONTINUOUS
 10
21.0702539817
 20
1.2701043662
 11
21.4790138229
 21
1.3448360823
  0
LINE
  5
229
100
AcDbEntity
  8
0
100
AcDbLine
 62
7
  6
CONTINUOUS
 10
21.4790138229
 20
1.3448360823
 11
21.4790138229
 21
0.9779712941
  0
LINE
  5
22A
100
AcDbEntity
  8
0
100
AcDbLine
 62
7
  6
CONTINUOUS
 10
21.4790138229
 20
0.9779712941
 11
21.069121683
 21
1.0617614
  0
LINE
  5
22B
100
AcDbEntity
  8
0
100
AcDbLine
 62
7
  6
CONTINUOUS
 10
21.0702539817
 20
1.2701043662
 11
21.069121683
 21
1.0617614
  0
LINE
  5
22C
100
AcDbEntity
  8
0
100
AcDbLine
 62
7
  6
CONTINUOUS
 10
21.4790138229
 20
1.1693297793
 11
21.3159628059
 21
1.1693297793
  0
LINE
  5
22D
100
AcDbEntity
  8
0
100
AcDbLine
 62
7
  6
CONTINUOUS
 10
21.2876553377
 20
1.1693297793
 11
21.2502894796
 21
1.1693297793
  0
LINE
  5
22E
100
AcDbEntity
  8
0
100
AcDbLine
 62
7
  6
CONTINUOUS
 10
21.2208497126
 20
1.1659328831
 11
21.0713862804
 21
1.1659328831
  0
LINE
  5
22F
100
AcDbEntity
  8
0
100
AcDbLine
 62
7
  6
CONTINUOUS
 10
20.4796138713
 20
1.5284908897
 11
20.4766766948
 21
0.9294458646
  0
ENDBLK
  5
230
100
AcDbEntity
  8
0
  6
BYBLOCK
 62
0
100
AcDbBlockEnd
  0
BLOCK
  5
231
100
AcDbEntity
  8
0
100
AcDbBlockBegin
  2
*T1
 70
1
 10
0.0
 20
0.0
  3
*T1
  1

  0
LINE
  5
232
100
AcDbEntity
  8
0
100
AcDbLine
 62
2
  6
CONTINUOUS
 10
9.275
 20
0.0
 11
-0.0
 21
0.0
  0
LINE
  5
233
100
AcDbEntity
  8
0
100
AcDbLine
 62
2
  6
CONTINUOUS
 10
9.275
 20
0.0
 11
9.275
 21
1.25
  0
LINE
  5
234
100
AcDbEntity
  8
0
100
AcDbLine
 62
2
  6
CONTINUOUS
 10
9.275
 20
0.625
 11
-0.0
 21
0.625
  0
LINE
  5
235
100
AcDbEntity
  8
0
100
AcDbLine
 62
2
  6
CONTINUOUS
 10
9.275
 20
1.25
 11
-0.0
 21
1.25
  0
LINE
  5
236
100
AcDbEntity
  8
0
100
AcDbLine
 62
2
  6
CONTINUOUS
 10
6.8
 20
0.0
 11
6.8
 21
1.25
  0
LINE
  5
237
100
AcDbEntity
  8
0
100
AcDbLine
 62
2
  6
CONTINUOUS
 10
6.4
 20
0.0
 11
6.4
 21
0.625
  0
LINE
  5
238
100
AcDbEntity
  8
0
100
AcDbLine
 62
2
  6
CONTINUOUS
 10
5.9
 20
0.0
 11
5.9
 21
0.625
  0
LINE
  5
239
100
AcDbEntity
  8
0
100
AcDbLine
 62
2
  6
CONTINUOUS
 10
5.2
 20
0.0
 11
5.2
 21
0.625
  0
LINE
  5
23A
100
AcDbEntity
  8
0
100
AcDbLine
 62
2
  6
CONTINUOUS
 10
4.1
 20
0.0
 11
4.1
 21
1.25
  0
LINE
  5
23B
100
AcDbEntity
  8
0
100
AcDbLine
 62
2
  6
CONTINUOUS
 10
-0.0
 20
0.0
 11
-0.0
 21
1.25
  0
MTEXT
  5
23C
100
AcDbEntity
  8
0
100
AcDbMText
 62
2
  6
CONTINUOUS
  7
STANDARD
 71
2
 72
1
 10
6.6
 20
0.325
 30
0.0
 11
1.0
 21
0.0
 31
0.0
 44
0.9
  1
2
 40
0.125
 41
0.2
  0
MTEXT
  5
23D
100
AcDbEntity
  8
0
100
AcDbMText
 62
2
  6
CONTINUOUS
  7
STANDARD
 71
2
 72
1
 10
6.15
 20
0.325
 30
0.0
 11
1.0
 21
0.0
 31
0.0
 44
0.9
  1
C
 40
0.125
 41
0.2
  0
MTEXT
  5
23E
100
AcDbEntity
  8
0
100
AcDbMText
 62
2
  6
CONTINUOUS
  7
STANDARD
 71
2
 72
1
 10
5.55
 20
0.325
 30
0.0
 11
1.0
 21
0.0
 31
0.0
 44
0.9
  1
1.000
 40
0.125
 41
1.0
  0
MTEXT
  5
23F
100
AcDbEntity
  8
0
100
AcDbMText
 62
2
  6
CONTINUOUS
  7
STANDARD
 71
2
 72
1
 10
4.65
 20
0.325
 30
0.0
 11
1.0
 21
0.0
 31
0.0
 44
0.9
  1
Apr-08-20
 40
0.125
 41
1.8
  0
MTEXT
  5
240
100
AcDbEntity
  8
0
100
AcDbMText
 62
2
  6
CONTINUOUS
  7
STANDARD
 71
2
 72
1
 10
2.05
 20
0.4625
 30
0.0
 11
1.0
 21
0.0
 31
0.0
 44
0.9
  1
Relief manifold assembly
 40
0.125
 41
4.8
  0
MTEXT
  5
241
100
AcDbEntity
  8
0
100
AcDbMText
 62
2
  6
CONTINUOUS
  7
STANDARD
 71
1
 72
1
 10
6.45
 20
0.5625
 30
0.0
 11
1.0
 21
0.0
 31
0.0
 44
0.9
  1
SHEET
 40
0.06
 41
0.48
  0
MTEXT
  5
242
100
AcDbEntity
  8
0
100
AcDbMText
 62
2
  6
CONTINUOUS
  7
STANDARD
 71
1
 72
1
 10
5.95
 20
0.5625
 30
0.0
 11
1.0
 21
0.0
 31
0.0
 44
0.9
  1
DWG SIZE
 40
0.06
 41
0.768
  0
MTEXT
  5
243
100
AcDbEntity
  8
0
100
AcDbMText
 62
2
  6
CONTINUOUS
  7
STANDARD
 71
1
 72
1
 10
5.25
 20
0.5625
 30
0.0
 11
1.0
 21
0.0
 31
0.0
 44
0.9
  1
SCALE
 40
0.06
 41
0.48
  0
MTEXT
  5
244
100
AcDbEntity
  8
0
100
AcDbMText
 62
2
  6
CONTINUOUS
  7
STANDARD
 71
1
 72
1
 10
4.15
 20
0.5625
 30
0.0
 11
1.0
 21
0.0
 31
0.0
 44
0.9
  1
DATE
 40
0.06
 41
0.384
  0
MTEXT
  5
245
100
AcDbEntity
  8
0
100
AcDbMText
 62
2
  6
CONTINUOUS
  7
STANDARD
 71
1
 72
1
 10
0.05
 20
0.5625
 30
0.0
 11
1.0
 21
0.0
 31
0.0
 44
0.9
  1
DESCRIPTION
 40
0.06
 41
1.056
  0
MTEXT
  5
246
100
AcDbEntity
  8
0
100
AcDbMText
 62
2
  6
CONTINUOUS
  7
STANDARD
 71
2
 72
1
 10
5.45
 20
1.0375
 30
0.0
 11
1.0
 21
0.0
 31
0.0
 44
0.9
  1
ALL DIMENSIONS IN INCH\PVIEWS ARE THIRD ANGLE
 40
0.12
 41
4.224
  0
MTEXT
  5
247
100
AcDbEntity
  8
0
100
AcDbMText
 62
2
  6
CONTINUOUS
  7
STANDARD
 71
2
 72
1
 10
2.05
 20
0.95
 30
0.0
 11
1.0
 21
0.0
 31
0.0
 44
0.9
  1
RVEALAN-BBE/M
 40
0.125
 41
2.6
  0
MTEXT
  5
248
100
AcDbEntity
  8
0
100
AcDbMText
 62
2
  6
CONTINUOUS
  7
STANDARD
 71
1
 72
1
 10
0.05
 20
1.1875
 30
0.0
 11
1.0
 21
0.0
 31
0.0
 44
0.9
  1
MODEL
 40
0.06
 41
0.48
  0
ENDBLK
  5
249
100
AcDbEntity
  8
0
  6
BYBLOCK
 62
0
100
AcDbBlockEnd
  0
BLOCK
  5
24A
100
AcDbEntity
  8
0
100
AcDbBlockBegin
  2
*T2
 70
1
 10
0.0
 20
0.0
  3
*T2
  1

  0
LINE
  5
24B
100
AcDbEntity
  8
0
100
AcDbLine
 62
2
  6
CONTINUOUS
 10
0.0
 20
0.0
 11
9.055
 21
0.0
  0
LINE
  5
24C
100
AcDbEntity
  8
0
100
AcDbLine
 62
2
  6
CONTINUOUS
 10
0.0
 20
0.0
 11
0.0
 21
-2.344
  0
LINE
  5
24D
100
AcDbEntity
  8
0
100
AcDbLine
 62
2
  6
CONTINUOUS
 10
0.0
 20
-0.344
 11
9.055
 21
-0.344
  0
LINE
  5
24E
100
AcDbEntity
  8
0
100
AcDbLine
 62
2
  6
CONTINUOUS
 10
0.0
 20
-0.594
 11
9.055
 21
-0.594
  0
LINE
  5
24F
100
AcDbEntity
  8
0
100
AcDbLine
 62
2
  6
CONTINUOUS
 10
0.0
 20
-0.844
 11
9.055
 21
-0.844
  0
LINE
  5
250
100
AcDbEntity
  8
0
100
AcDbLine
 62
2
  6
CONTINUOUS
 10
0.0
 20
-1.094
 11
9.055
 21
-1.094
  0
LINE
  5
251
100
AcDbEntity
  8
0
100
AcDbLine
 62
2
  6
CONTINUOUS
 10
0.0
 20
-1.344
 11
9.055
 21
-1.344
  0
LINE
  5
252
100
AcDbEntity
  8
0
100
AcDbLine
 62
2
  6
CONTINUOUS
 10
0.0
 20
-1.594
 11
9.055
 21
-1.594
  0
LINE
  5
253
100
AcDbEntity
  8
0
100
AcDbLine
 62
2
  6
CONTINUOUS
 10
0.0
 20
-1.844
 11
9.055
 21
-1.844
  0
LINE
  5
254
100
AcDbEntity
  8
0
100
AcDbLine
 62
2
  6
CONTINUOUS
 10
0.0
 20
-2.094
 11
9.055
 21
-2.094
  0
LINE
  5
255
100
AcDbEntity
  8
0
100
AcDbLine
 62
2
  6
CONTINUOUS
 10
0.0
 20
-2.344
 11
9.055
 21
-2.344
  0
LINE
  5
256
100
AcDbEntity
  8
0
100
AcDbLine
 62
2
  6
CONTINUOUS
 10
3.055
 20
0.0
 11
3.055
 21
-2.344
  0
LINE
  5
257
100
AcDbEntity
  8
0
100
AcDbLine
 62
2
  6
CONTINUOUS
 10
9.055
 20
0.0
 11
9.055
 21
-2.344
  0
MTEXT
  5
258
100
AcDbEntity
  8
0
100
AcDbMText
 62
2
  6
CONTINUOUS
  7
STANDARD
 71
2
 72
1
 10
1.5275
 20
-0.0995
 30
0.0
 11
1.0
 21
0.0
 31
0.0
 44
0.9
  1
Technical Data
 40
0.145
 41
3.248
  0
MTEXT
  5
259
100
AcDbEntity
  8
0
100
AcDbMText
 62
2
  6
CONTINUOUS
  7
STANDARD
 71
2
 72
1
 10
4.555
 20
-0.0995
 30
0.0
 11
1.0
 21
0.0
 31
0.0
 44
0.9
  1
U.S. Units
 40
0.145
 41
2.32
  0
MTEXT
  5
25A
100
AcDbEntity
  8
0
100
AcDbMText
 62
2
  6
CONTINUOUS
  7
STANDARD
 71
2
 72
1
 10
7.555
 20
-0.0995
 30
0.0
 11
1.0
 21
0.0
 31
0.0
 44
0.9
  1
Metric Units
 40
0.145
 41
2.784
  0
MTEXT
  5
25B
100
AcDbEntity
  8
0
100
AcDbMText
 62
2
  6
CONTINUOUS
  7
STANDARD
 71
2
 72
1
 10
1.5275
 20
-0.4065
 30
0.0
 11
1.0
 21
0.0
 31
0.0
 44
0.9
  1
Cavity
 40
0.125
 41
1.2
  0
MTEXT
  5
25C
100
AcDbEntity
  8
0
100
AcDbMText
 62
2
  6
CONTINUOUS
  7
STANDARD
 71
2
 72
1
 10
6.055
 20
-0.4065
 30
0.0
 11
1.0
 21
0.0
 31
0.0
 44
0.9
  1
T-2A
 40
0.125
 41
0.8
  0
MTEXT
  5
25D
100
AcDbEntity
  8
0
100
AcDbMText
 62
2
  6
CONTINUOUS
  7
STANDARD
 71
2
 72
1
 10
1.5275
 20
-0.6565
 30
0.0
 11
1.0
 21
0.0
 31
0.0
 44
0.9
  1
Body Features
 40
0.125
 41
2.6
  0
MTEXT
  5
25E
100
AcDbEntity
  8
0
100
AcDbMText
 62
2
  6
CONTINUOUS
  7
STANDARD
 71
2
 72
1
 10
6.055
 20
-0.6565
 30
0.0
 11
1.0
 21
0.0
 31
0.0
 44
0.9
  1
B to T, port 3 external
 40
0.125
 41
4.6
  0
MTEXT
  5
25F
100
AcDbEntity
  8
0
100
AcDbMText
 62
2
  6
CONTINUOUS
  7
STANDARD
 71
2
 72
1
 10
1.5275
 20
-0.9065
 30
0.0
 11
1.0
 21
0.0
 31
0.0
 44
0.9
  1
Body Type
 40
0.125
 41
1.8
  0
MTEXT
  5
260
100
AcDbEntity
  8
0
100
AcDbMText
 62
2
  6
CONTINUOUS
  7
STANDARD
 71
2
 72
1
 10
6.055
 20
-0.9065
 30
0.0
 11
1.0
 21
0.0
 31
0.0
 44
0.9
  1
Sandwich
 40
0.125
 41
1.6
  0
MTEXT
  5
261
100
AcDbEntity
  8
0
100
AcDbMText
 62
2
  6
CONTINUOUS
  7
STANDARD
 71
2
 72
1
 10
1.5275
 20
-1.1565
 30
0.0
 11
1.0
 21
0.0
 31
0.0
 44
0.9
  1
Interface
 40
0.125
 41
1.8
  0
MTEXT
  5
262
100
AcDbEntity
  8
0
100
AcDbMText
 62
2
  6
CONTINUOUS
  7
STANDARD
 71
2
 72
1
 10
6.055
 20
-1.1565
 30
0.0
 11
1.0
 21
0.0
 31
0.0
 44
0.9
  1
ISO 05
 40
0.125
 41
1.2
  0
MTEXT
  5
263
100
AcDbEntity
  8
0
100
AcDbMText
 62
2
  6
CONTINUOUS
  7
STANDARD
 71
2
 72
1
 10
1.5275
 20
-1.4065
 30
0.0
 11
1.0
 21
0.0
 31
0.0
 44
0.9
  1
Open Cavity Quantity
 40
0.125
 41
4.0
  0
MTEXT
  5
264
100
AcDbEntity
  8
0
100
AcDbMText
 62
2
  6
CONTINUOUS
  7
STANDARD
 71
2
 72
1
 10
6.055
 20
-1.4065
 30
0.0
 11
1.0
 21
0.0
 31
0.0
 44
0.9
  1
1
 40
0.125
 41
0.2
  0
MTEXT
  5
265
100
AcDbEntity
  8
0
100
AcDbMText
 62
2
  6
CONTINUOUS
  7
STANDARD
 71
2
 72
1
 10
1.5275
 20
-1.6565
 30
0.0
 11
1.0
 21
0.0
 31
0.0
 44
0.9
  1
Stack Height
 40
0.125
 41
2.4
  0
MTEXT
  5
266
100
AcDbEntity
  8
0
100
AcDbMText
 62
2
  6
CONTINUOUS
  7
STANDARD
 71
2
 72
1
 10
4.555
 20
-1.6565
 30
0.0
 11
1.0
 21
0.0
 31
0.0
 44
0.9
  1
2.44 in.
 40
0.125
 41
1.6
  0
MTEXT
  5
267
100
AcDbEntity
  8
0
100
AcDbMText
 62
2
  6
CONTINUOUS
  7
STANDARD
 71
2
 72
1
 10
7.555
 20
-1.6565
 30
0.0
 11
1.0
 21
0.0
 31
0.0
 44
0.9
  1
62 mm
 40
0.125
 41
1.0
  0
MTEXT
  5
268
100
AcDbEntity
  8
0
100
AcDbMText
 62
2
  6
CONTINUOUS
  7
STANDARD
 71
2
 72
1
 10
1.5275
 20
-1.9065
 30
0.0
 11
1.0
 21
0.0
 31
0.0
 44
0.9
  1
Weight
 40
0.125
 41
1.2
  0
MTEXT
  5
269
100
AcDbEntity
  8
0
100
AcDbMText
 62
2
  6
CONTINUOUS
  7
STANDARD
 71
2
 72
1
 10
4.555
 20
-1.9065
 30
0.0
 11
1.0
 21
0.0
 31
0.0
 44
0.9
  1
2.778 lb.
 40
0.125
 41
1.8
  0
MTEXT
  5
26A
100
AcDbEntity
  8
0
100
AcDbMText
 62
2
  6
CONTINUOUS
  7
STANDARD
 71
2
 72
1
 10
7.555
 20
-1.9065
 30
0.0
 11
1.0
 21
0.0
 31
0.0
 44
0.9
  1
1,260 kg.
 40
0.125
 41
1.8
  0
MTEXT
  5
26B
100
AcDbEntity
  8
0
100
AcDbMText
 62
2
  6
CONTINUOUS
  7
STANDARD
 71
2
 72
1
 10
1.5275
 20
-2.1565
 30
0.0
 11
1.0
 21
0.0
 31
0.0
 44
0.9
  1
Seal Plate Included (see notes)
 40
0.125
 41
6.2
  0
MTEXT
  5
26C
100
AcDbEntity
  8
0
100
AcDbMText
 62
2
  6
CONTINUOUS
  7
STANDARD
 71
2
 72
1
 10
6.055
 20
-2.1565
 30
0.0
 11
1.0
 21
0.0
 31
0.0
 44
0.9
  1
No
 40
0.125
 41
0.4
  0
ENDBLK
  5
26D
100
AcDbEntity
  8
0
  6
BYBLOCK
 62
0
100
AcDbBlockEnd
  0
BLOCK
  5
26E
100
AcDbEntity
  8
0
100
AcDbBlockBegin
  2
*T3
 70
1
 10
0.0
 20
0.0
  3
*T3
  1

  0
LINE
  5
26F
100
AcDbEntity
  8
0
100
AcDbLine
 62
2
  6
CONTINUOUS
 10
0.0
 20
0.0
 11
4.6
 21
0.0
  0
LINE
  5
270
100
AcDbEntity
  8
0
100
AcDbLine
 62
2
  6
CONTINUOUS
 10
0.0
 20
0.0
 11
0.0
 21
-1.18775
  0
LINE
  5
271
100
AcDbEntity
  8
0
100
AcDbLine
 62
2
  6
CONTINUOUS
 10
0.0
 20
-0.34375
 11
4.6
 21
-0.34375
  0
LINE
  5
272
100
AcDbEntity
  8
0
100
AcDbLine
 62
2
  6
CONTINUOUS
 10
0.0
 20
-0.68775
 11
4.6
 21
-0.68775
  0
LINE
  5
273
100
AcDbEntity
  8
0
100
AcDbLine
 62
2
  6
CONTINUOUS
 10
0.0
 20
-0.93775
 11
4.6
 21
-0.93775
  0
LINE
  5
274
100
AcDbEntity
  8
0
100
AcDbLine
 62
2
  6
CONTINUOUS
 10
0.0
 20
-1.18775
 11
4.6
 21
-1.18775
  0
LINE
  5
275
100
AcDbEntity
  8
0
100
AcDbLine
 62
2
  6
CONTINUOUS
 10
1.3
 20
-0.34375
 11
1.3
 21
-1.18775
  0
LINE
  5
276
100
AcDbEntity
  8
0
100
AcDbLine
 62
2
  6
CONTINUOUS
 10
3.3
 20
-0.34375
 11
3.3
 21
-1.18775
  0
LINE
  5
277
100
AcDbEntity
  8
0
100
AcDbLine
 62
2
  6
CONTINUOUS
 10
4.6
 20
0.0
 11
4.6
 21
-1.18775
  0
MTEXT
  5
278
100
AcDbEntity
  8
0
100
AcDbMText
 62
2
  6
CONTINUOUS
  7
STANDARD
 71
2
 72
1
 10
2.3
 20
-0.099375
 30
0.0
 11
1.0
 21
0.0
 31
0.0
 44
0.9
  1
Port Headings
 40
0.145
 41
3.016
  0
MTEXT
  5
279
100
AcDbEntity
  8
0
100
AcDbMText
 62
2
  6
CONTINUOUS
  7
STANDARD
 71
2
 72
1
 10
0.65
 20
-0.44325
 30
0.0
 11
1.0
 21
0.0
 31
0.0
 44
0.9
  1
Product
 40
0.145
 41
1.624
  0
MTEXT
  5
27A
100
AcDbEntity
  8
0
100
AcDbMText
 62
2
  6
CONTINUOUS
  7
STANDARD
 71
2
 72
1
 10
2.3
 20
-0.44325
 30
0.0
 11
1.0
 21
0.0
 31
0.0
 44
0.9
  1
Port
 40
0.145
 41
0.928
  0
MTEXT
  5
27B
100
AcDbEntity
  8
0
100
AcDbMText
 62
2
  6
CONTINUOUS
  7
STANDARD
 71
2
 72
1
 10
3.95
 20
-0.44325
 30
0.0
 11
1.0
 21
0.0
 31
0.0
 44
0.9
  1
Size
 40
0.145
 41
0.928
  0
MTEXT
  5
27C
100
AcDbEntity
  8
0
100
AcDbMText
 62
2
  6
CONTINUOUS
  7
STANDARD
 71
2
 72
1
 10
0.65
 20
-0.75025
 30
0.0
 11
1.0
 21
0.0
 31
0.0
 44
0.9
  1
BBE/M
 40
0.125
 41
1.0
  0
MTEXT
  5
27D
100
AcDbEntity
  8
0
100
AcDbMText
 62
2
  6
CONTINUOUS
  7
STANDARD
 71
2
 72
1
 10
2.3
 20
-0.75025
 30
0.0
 11
1.0
 21
0.0
 31
0.0
 44
0.9
  1
Gage Port (Plugged)
 40
0.125
 41
3.8
  0
MTEXT
  5
27E
100
AcDbEntity
  8
0
100
AcDbMText
 62
2
  6
CONTINUOUS
  7
STANDARD
 71
2
 72
1
 10
3.95
 20
-0.75025
 30
0.0
 11
1.0
 21
0.0
 31
0.0
 44
0.9
  1
1/4" BSPP
 40
0.125
 41
1.8
  0
MTEXT
  5
27F
100
AcDbEntity
  8
0
100
AcDbMText
 62
2
  6
CONTINUOUS
  7
STANDARD
 71
2
 72
1
 10
0.65
 20
-1.00025
 30
0.0
 11
1.0
 21
0.0
 31
0.0
 44
0.9
  1
BBE/M
 40
0.125
 41
1.0
  0
MTEXT
  5
280
100
AcDbEntity
  8
0
100
AcDbMText
 62
2
  6
CONTINUOUS
  7
STANDARD
 71
2
 72
1
 10
2.3
 20
-1.00025
 30
0.0
 11
1.0
 21
0.0
 31
0.0
 44
0.9
  1
Vent Port
 40
0.125
 41
1.8
  0
MTEXT
  5
281
100
AcDbEntity
  8
0
100
AcDbMText
 62
2
  6
CONTINUOUS
  7
STANDARD
 71
2
 72
1
 10
3.95
 20
-1.00025
 30
0.0
 11
1.0
 21
0.0
 31
0.0
 44
0.9
  1
1/4" BSPP
 40
0.125
 41
1.8
  0
ENDBLK
  5
282
100
AcDbEntity
  8
0
  6
BYBLOCK
 62
0
100
AcDbBlockEnd
  0
ENDSEC
  0
SECTION
  2
ENTITIES
  0
IMAGE
  5
283
100
AcDbEntity
  8
0
100
AcDbRasterImage
 62
7
  6
CONTINUOUS
 10
19.2297077316
 20
0.3094318264
 30
0.0
 11
0.0066666667
 21
0.0
 31
0.0
 12
0.0
 22
0.0066666667
 32
0.0
 13
369.0
 23
92.0
340
       392
 70
9
280
0
281
50
282
50
283
0
360
       38C
 71
1
 91
2
 14
-0.5
 24
-0.5
 14
368.5
 24
91.5
  0
INSERT
  5
284
100
AcDbEntity
  8
0
100
AcDbBlockReference
 62
2
  6
CONTINUOUS
  2
SUN_FIRST_THIRD_ANGLE_BL0
 10
20.4816717061
 20
1.2289683772
  0
ACAD_TABLE
  5
285
100
AcDbEntity
  8
0
 62
2
  6
CONTINUOUS
100
AcDbBlockReference
  2
*T1
 10
12.42375
 20
0.30125
 30
0.0
100
AcDbTable
342
       394
343
20A
 11
1.0
 21
0.0
 31
0.0
 90
6
 91
4
 92
6
 93
20
 94
0
 95
0
 96
0
 70
1
 41
0.0
141
0.525
141
0.1
141
0.525
141
0.1
142
4.1
142
1.1
142
0.7
142
0.5
142
0.4
142
2.475
171
1
172
0
173
0
174
0
175
1
176
1
 91
33
178
0
145
0.0
301
CELL_VALUE
 90
4
  1
Relief manifold assembly
304
ACVALUE_END
170
2
140
0.125
171
1
172
0
173
0
174
0
175
1
176
1
 91
33
178
0
145
0.0
301
CELL_VALUE
 90
4
  1
Apr-08-20
304
ACVALUE_END
170
5
140
0.125
171
1
172
0
173
0
174
0
175
1
176
1
 91
33
178
0
145
0.0
301
CELL_VALUE
 90
4
  1
1.000
304
ACVALUE_END
170
5
140
0.125
171
1
172
0
173
0
174
0
175
1
176
1
 91
33
178
0
145
0.0
301
CELL_VALUE
 90
4
  1
C
304
ACVALUE_END
170
5
140
0.125
171
1
172
0
173
0
174
0
175
1
176
1
 91
33
178
0
145
0.0
301
CELL_VALUE
 90
4
  1
2
304
ACVALUE_END
170
5
140
0.125
171
1
172
0
173
0
174
0
175
1
176
1
 91
33
178
0
145
0.0
301
CELL_VALUE
 90
4
  1
 
304
ACVALUE_END
170
1
140
0.125
171
1
172
0
173
0
174
0
175
1
176
1
 91
33
178
0
145
0.0
301
CELL_VALUE
 90
4
  1
DESCRIPTION
304
ACVALUE_END
170
1
140
0.06
171
1
172
0
173
0
174
0
175
1
176
1
 91
33
178
0
145
0.0
301
CELL_VALUE
 90
4
  1
DATE
304
ACVALUE_END
170
1
140
0.06
171
1
172
0
173
0
174
0
175
1
176
1
 91
33
178
0
145
0.0
301
CELL_VALUE
 90
4
  1
SCALE
304
ACVALUE_END
170
1
140
0.06
171
1
172
0
173
0
174
0
175
1
176
1
 91
33
178
0
145
0.0
301
CELL_VALUE
 90
4
  1
DWG SIZE
304
ACVALUE_END
170
1
140
0.06
171
1
172
0
173
0
174
0
175
1
176
1
 91
33
178
0
145
0.0
301
CELL_VALUE
 90
4
  1
SHEET
304
ACVALUE_END
170
1
140
0.06
171
1
172
0
173
0
174
0
175
1
176
1
 91
33
178
0
145
0.0
301
CELL_VALUE
 90
4
  1
 
304
ACVALUE_END
170
1
140
0.125
171
1
172
0
173
0
174
0
175
1
176
1
 91
33
178
0
145
0.0
301
CELL_VALUE
 90
4
  1
RVEALAN-BBE/M
304
ACVALUE_END
170
5
140
0.125
171
1
172
0
173
0
174
0
175
4
176
1
 91
33
178
0
145
0.0
301
CELL_VALUE
 90
4
  1
ALL DIMENSIONS IN INCH\PVIEWS ARE THIRD ANGLE
304
ACVALUE_END
170
5
140
0.12
171
1
172
0
173
1
174
0
175
1
176
1
 91
1
178
0
145
0.0
170
1
171
1
172
0
173
1
174
0
175
1
176
1
 91
1
178
0
145
0.0
170
1
171
1
172
0
173
1
174
0
175
1
176
1
 91
1
178
0
145
0.0
170
5
171
1
172
0
173
0
174
0
175
1
176
1
 91
33
178
0
145
0.0
301
CELL_VALUE
 90
4
  1
 
304
ACVALUE_END
170
1
140
0.125
171
1
172
0
173
0
174
0
175
1
176
1
 91
33
178
0
145
0.0
301
CELL_VALUE
 90
4
  1
MODEL
304
ACVALUE_END
170
1
140
0.06
171
1
172
0
173
0
174
0
175
1
176
1
 91
33
178
0
145
0.0
301
CELL_VALUE
 90
4
  1
 
304
ACVALUE_END
170
1
140
0.125
171
1
172
0
173
0
174
0
175
1
176
1
 91
33
178
0
145
0.0
301
CELL_VALUE
 90
4
  1
 
304
ACVALUE_END
170
1
140
0.125
171
1
172
0
173
0
174
0
175
1
176
1
 91
33
178
0
145
0.0
301
CELL_VALUE
 90
4
  1
 
304
ACVALUE_END
170
1
140
0.125
171
1
172
0
173
0
174
0
175
1
176
1
 91
33
178
0
145
0.0
301
CELL_VALUE
 90
4
  1
 
304
ACVALUE_END
170
1
140
0.125
171
1
172
0
173
0
174
0
175
1
176
1
 91
33
178
0
145
0.0
301
CELL_VALUE
 90
4
  1
 
304
ACVALUE_END
170
1
140
0.125
  0
ACAD_TABLE
  5
286
100
AcDbEntity
  8
0
 62
2
  6
CONTINUOUS
100
AcDbBlockReference
  2
*T2
 10
12.4237499994
 20
16.47875
 30
0.0
100
AcDbTable
342
       393
343
20B
 11
1.0
 21
0.0
 31
0.0
 90
22
 91
9
 92
3
 93
16
 94
0
 95
0
 96
0
 41
0.028
141
0.344
141
0.25
141
0.25
141
0.25
141
0.25
141
0.25
141
0.25
141
0.25
141
0.25
142
3.055
142
3.0
142
3.0
171
1
172
0
173
0
174
0
175
1
176
1
 91
33
178
0
145
0.0
301
CELL_VALUE
 90
4
  1
Technical Data
304
ACVALUE_END
170
5
140
0.145
171
1
172
0
173
0
174
0
175
1
176
1
 91
33
178
0
145
0.0
301
CELL_VALUE
 90
4
  1
U.S. Units
304
ACVALUE_END
170
5
140
0.145
171
1
172
0
173
0
174
0
175
1
176
1
 91
33
178
0
145
0.0
301
CELL_VALUE
 90
4
  1
Metric Units
304
ACVALUE_END
170
5
140
0.145
171
1
172
0
173
0
174
0
175
1
176
1
 91
33
178
0
145
0.0
301
CELL_VALUE
 90
4
  1
Cavity
304
ACVALUE_END
170
5
140
0.125
171
1
172
0
173
0
174
0
175
2
176
1
 91
33
178
0
145
0.0
301
CELL_VALUE
 90
4
  1
T-2A
304
ACVALUE_END
170
5
140
0.125
171
1
172
0
173
1
174
0
175
1
176
1
 91
1
178
0
145
0.0
170
1
171
1
172
0
173
0
174
0
175
1
176
1
 91
33
178
0
145
0.0
301
CELL_VALUE
 90
4
  1
Body Features
304
ACVALUE_END
170
5
140
0.125
171
1
172
0
173
0
174
0
175
2
176
1
 91
33
178
0
145
0.0
301
CELL_VALUE
 90
4
  1
B to T, port 3 external
304
ACVALUE_END
170
5
140
0.125
171
1
172
0
173
1
174
0
175
1
176
1
 91
1
178
0
145
0.0
170
1
171
1
172
0
173
0
174
0
175
1
176
1
 91
33
178
0
145
0.0
301
CELL_VALUE
 90
4
  1
Body Type
304
ACVALUE_END
170
5
140
0.125
171
1
172
0
173
0
174
0
175
2
176
1
 91
33
178
0
145
0.0
301
CELL_VALUE
 90
4
  1
Sandwich
304
ACVALUE_END
170
5
140
0.125
171
1
172
0
173
1
174
0
175
1
176
1
 91
1
178
0
145
0.0
170
1
171
1
172
0
173
0
174
0
175
1
176
1
 91
33
178
0
145
0.0
301
CELL_VALUE
 90
4
  1
Interface
304
ACVALUE_END
170
5
140
0.125
171
1
172
0
173
0
174
0
175
2
176
1
 91
33
178
0
145
0.0
301
CELL_VALUE
 90
4
  1
ISO 05
304
ACVALUE_END
170
5
140
0.125
171
1
172
0
173
1
174
0
175
1
176
1
 91
1
178
0
145
0.0
170
1
171
1
172
0
173
0
174
0
175
1
176
1
 91
33
178
0
145
0.0
301
CELL_VALUE
 90
4
  1
Open Cavity Quantity
304
ACVALUE_END
170
5
140
0.125
171
1
172
0
173
0
174
0
175
2
176
1
 91
33
178
0
145
0.0
301
CELL_VALUE
 90
4
  1
1
304
ACVALUE_END
170
5
140
0.125
171
1
172
0
173
1
174
0
175
1
176
1
 91
1
178
0
145
0.0
170
1
171
1
172
0
173
0
174
0
175
1
176
1
 91
33
178
0
145
0.0
301
CELL_VALUE
 90
4
  1
Stack Height
304
ACVALUE_END
170
5
140
0.125
171
1
172
0
173
0
174
0
175
1
176
1
 91
33
178
0
145
0.0
301
CELL_VALUE
 90
4
  1
2.44 in.
304
ACVALUE_END
170
5
140
0.125
171
1
172
0
173
0
174
0
175
1
176
1
 91
33
178
0
145
0.0
301
CELL_VALUE
 90
4
  1
62 mm
304
ACVALUE_END
170
5
140
0.125
171
1
172
0
173
0
174
0
175
1
176
1
 91
33
178
0
145
0.0
301
CELL_VALUE
 90
4
  1
Weight
304
ACVALUE_END
170
5
140
0.125
171
1
172
0
173
0
174
0
175
1
176
1
 91
33
178
0
145
0.0
301
CELL_VALUE
 90
4
  1
2.778 lb.
304
ACVALUE_END
170
5
140
0.125
171
1
172
0
173
0
174
0
175
1
176
1
 91
33
178
0
145
0.0
301
CELL_VALUE
 90
4
  1
1,260 kg.
304
ACVALUE_END
170
5
140
0.125
171
1
172
0
173
0
174
0
175
1
176
1
 91
33
178
0
145
0.0
301
CELL_VALUE
 90
4
  1
Seal Plate Included (see notes)
304
ACVALUE_END
170
5
140
0.125
171
1
172
0
173
0
174
0
175
2
176
1
 91
33
178
0
145
0.0
301
CELL_VALUE
 90
4
  1
No
304
ACVALUE_END
170
5
140
0.125
171
1
172
0
173
1
174
0
175
1
176
1
 91
1
178
0
145
0.0
170
1
  0
ACAD_TABLE
  5
287
100
AcDbEntity
  8
0
 62
2
  6
CONTINUOUS
100
AcDbBlockReference
  2
*T3
 10
0.52125
 20
1.709
 30
0.0
100
AcDbTable
342
       393
343
20C
 11
1.0
 21
0.0
 31
0.0
 90
22
 91
4
 92
3
 93
16
 94
0
 95
0
 96
0
 41
0.05
141
0.34375
141
0.344
141
0.25
141
0.25
142
1.3
142
2.0
142
1.3
171
1
172
0
173
0
174
0
175
3
176
1
 91
33
178
0
145
0.0
301
CELL_VALUE
 90
4
  1
Port Headings
304
ACVALUE_END
170
5
140
0.145
171
1
172
0
173
1
174
0
175
1
176
1
 91
1
178
0
145
0.0
170
1
171
1
172
0
173
1
174
0
175
1
176
1
 91
1
178
0
145
0.0
170
1
171
1
172
0
173
0
174
0
175
1
176
1
 91
33
178
0
145
0.0
301
CELL_VALUE
 90
4
  1
Product
304
ACVALUE_END
170
5
140
0.145
171
1
172
0
173
0
174
0
175
1
176
1
 91
33
178
0
145
0.0
301
CELL_VALUE
 90
4
  1
Port
304
ACVALUE_END
170
5
140
0.145
171
1
172
0
173
0
174
0
175
1
176
1
 91
33
178
0
145
0.0
301
CELL_VALUE
 90
4
  1
Size
304
ACVALUE_END
170
5
140
0.145
171
1
172
0
173
0
174
0
175
1
176
1
 91
33
178
0
145
0.0
301
CELL_VALUE
 90
4
  1
BBE/M
304
ACVALUE_END
170
5
140
0.125
171
1
172
0
173
0
174
0
175
1
176
1
 91
33
178
0
145
0.0
301
CELL_VALUE
 90
4
  1
Gage Port (Plugged)
304
ACVALUE_END
170
5
140
0.125
171
1
172
0
173
0
174
0
175
1
176
1
 91
33
178
0
145
0.0
301
CELL_VALUE
 90
4
  1
1/4" BSPP
304
ACVALUE_END
170
5
140
0.125
171
1
172
0
173
0
174
0
175
1
176
1
 91
33
178
0
145
0.0
301
CELL_VALUE
 90
4
  1
BBE/M
304
ACVALUE_END
170
5
140
0.125
171
1
172
0
173
0
174
0
175
1
176
1
 91
33
178
0
145
0.0
301
CELL_VALUE
 90
4
  1
Vent Port
304
ACVALUE_END
170
5
140
0.125
171
1
172
0
173
0
174
0
175
1
176
1
 91
33
178
0
145
0.0
301
CELL_VALUE
 90
4
  1
1/4" BSPP
304
ACVALUE_END
170
5
140
0.125
  0
MTEXT
  5
288
100
AcDbEntity
  8
0
100
AcDbMText
 62
2
  6
CONTINUOUS
  7
STANDARD
 71
1
 72
1
 10
0.52125
 20
5.75995
 30
0.0
 11
1.0
 21
0.0
 31
0.0
 44
0.6
  3
Notes\P \P1. Important: Carefully consider\P   the maximum system pressure. The\P   pressure rating of the manifold is\P   dependent on the manifold material,\P   with the port type/size a secondary\P   consideration. Manifolds\P   constructed of alu
  1
minum are not\P   rated for pressures higher than\P   3000 psi (210 bar), regardless of\P   the port type/size specified.\P2. Seal retainer plate is not\P   required for this model.\P3. Items without balloons are\P   shipped loose.
 40
0.1
 41
3.04
  0
LINE
  5
289
100
AcDbEntity
  8
0
100
AcDbLine
 62
7
  6
CONTINUOUS
 10
0.30125
 20
0.30125
 11
0.30125
 21
16.69875
  0
LINE
  5
28A
100
AcDbEntity
  8
0
100
AcDbLine
 62
7
  6
CONTINUOUS
 10
0.30125
 20
0.30125
 11
21.69875
 21
0.30125
  0
LINE
  5
28B
100
AcDbEntity
  8
0
100
AcDbLine
 62
7
  6
CONTINUOUS
 10
0.30125
 20
16.69875
 11
21.69875
 21
16.69875
  0
LINE
  5
28C
100
AcDbEntity
  8
0
100
AcDbLine
 62
7
  6
CONTINUOUS
 10
21.69875
 20
0.30125
 11
21.69875
 21
16.69875
  0
LINE
  5
28D
100
AcDbEntity
  8
0
100
AcDbLine
 62
7
  6
CONTINUOUS
 10
9.4770924947
 20
5.3619615184
 11
11.8919072035
 21
5.1944935495
  0
LINE
  5
28E
100
AcDbEntity
  8
0
100
AcDbLine
 62
7
  6
CONTINUOUS
 10
10.6448178694
 20
11.7765214976
 11
10.614951443
 21
11.7487276525
  0
LINE
  5
28F
100
AcDbEntity
  8
0
100
AcDbLine
 62
7
  6
CONTINUOUS
 10
10.6144927726
 20
11.7482928517
 11
10.6149512848
 21
11.7487275053
  0
LINE
  5
290
100
AcDbEntity
  8
0
100
AcDbLine
 62
7
  6
CONTINUOUS
 10
10.644436475
 20
11.7761599513
 11
10.644818508
 21
11.7765220341
  0
LINE
  5
291
100
AcDbEntity
  8
0
100
AcDbLine
 62
7
  6
CONTINUOUS
 10
10.5530076425
 20
11.2985716947
 11
10.5515124405
 21
11.2970532319
  0
LINE
  5
292
100
AcDbEntity
  8
0
100
AcDbLine
 62
7
  6
CONTINUOUS
 10
10.4788083415
 20
11.1603055955
 11
10.5256069816
 21
11.2038706796
  0
LINE
  5
293
100
AcDbEntity
  8
0
100
AcDbLine
 62
7
  6
CONTINUOUS
 10
10.3133968796
 20
10.9551928305
 11
10.3731297324
 21
11.0107805207
  0
LINE
  5
294
100
AcDbEntity
  8
0
100
AcDbLine
 62
7
  6
CONTINUOUS
 10
11.0322701062
 20
10.978004857
 11
11.0530121892
 21
10.9882510489
  0
LINE
  5
295
100
AcDbEntity
  8
0
100
AcDbLine
 62
7
  6
CONTINUOUS
 10
10.2814174222
 20
10.5548330353
 11
10.2952231352
 21
10.5616527932
  0
LINE
  5
296
100
AcDbEntity
  8
0
100
AcDbLine
 62
7
  6
CONTINUOUS
 10
11.053313508
 20
11.19750517
 11
11.0539890496
 21
11.198145556
  0
LINE
  5
297
100
AcDbEntity
  8
0
100
AcDbLine
 62
7
  6
CONTINUOUS
 10
10.9849088191
 20
11.2681112635
 11
10.9854083119
 21
11.2685846064
  0
LINE
  5
298
100
AcDbEntity
  8
0
100
AcDbLine
 62
7
  6
CONTINUOUS
 10
11.0480146259
 20
11.1925740039
 11
11.053313508
 21
11.19750517
  0
LINE
  5
299
100
AcDbEntity
  8
0
100
AcDbLine
 62
7
  6
CONTINUOUS
 10
9.6391439838
 20
9.6215294491
 11
10.0677479687
 21
10.035529132
  0
LINE
  5
29A
100
AcDbEntity
  8
0
100
AcDbLine
 62
7
  6
CONTINUOUS
 10
9.6690876862
 20
9.6493965487
 11
10.0976916711
 21
10.0633962316
  0
LINE
  5
29B
100
AcDbEntity
  8
0
100
AcDbLine
 62
7
  6
CONTINUOUS
 10
10.0677479687
 20
10.035529132
 11
10.0686827588
 21
10.036415275
  0
LINE
  5
29C
100
AcDbEntity
  8
0
100
AcDbLine
 62
7
  6
CONTINUOUS
 10
10.0976916711
 20
10.0633962316
 11
10.0985503217
 21
10.0642100282
  0
LINE
  5
29D
100
AcDbEntity
  8
0
100
AcDbLine
 62
7
  6
CONTINUOUS
 10
10.0976842495
 20
10.0634042066
 11
10.0677479687
 21
10.035529132
  0
LINE
  5
29E
100
AcDbEntity
  8
0
100
AcDbLine
 62
7
  6
CONTINUOUS
 10
9.6690876862
 20
9.6493965487
 11
9.6391439838
 21
9.6215294491
  0
LINE
  5
29F
100
AcDbEntity
  8
0
100
AcDbLine
 62
7
  6
CONTINUOUS
 10
9.4770924947
 20
5.3619615184
 11
9.4770924947
 21
8.2597390538
  0
LINE
  5
2A0
100
AcDbEntity
  8
0
100
AcDbLine
 62
7
  6
CONTINUOUS
 10
9.6263661901
 20
8.3281485862
 11
9.6263661901
 21
9.5964092538
  0
LINE
  5
2A1
100
AcDbEntity
  8
0
100
AcDbLine
 62
7
  6
CONTINUOUS
 10
9.9123325121
 20
9.5403530221
 11
9.9043091283
 21
9.5026593256
  0
LINE
  5
2A2
100
AcDbEntity
  8
0
100
AcDbLine
 62
7
  6
CONTINUOUS
 10
9.9043091283
 20
9.5026593256
 11
9.9043091283
 21
8.234398658
  0
LINE
  5
2A3
100
AcDbEntity
  8
0
100
AcDbLine
 62
7
  6
CONTINUOUS
 10
11.2687739485
 20
9.7684696639
 11
11.3030288482
 21
9.7853909285
  0
LINE
  5
2A4
100
AcDbEntity
  8
0
100
AcDbLine
 62
7
  6
CONTINUOUS
 10
10.1731959189
 20
9.8511793542
 11
10.1731959189
 21
10.4181427875
  0
LINE
  5
2A5
100
AcDbEntity
  8
0
100
AcDbLine
 62
7
  6
CONTINUOUS
 10
10.1876439671
 20
9.8372236352
 11
10.1876439671
 21
10.4041870685
  0
LINE
  5
2A6
100
AcDbEntity
  8
0
100
AcDbLine
 62
7
  6
CONTINUOUS
 10
10.2542231352
 20
9.6949231007
 11
10.2542231352
 21
9.7990463863
  0
LINE
  5
2A7
100
AcDbEntity
  8
0
100
AcDbLine
 62
7
  6
CONTINUOUS
 10
10.2952231352
 20
10.4976502265
 11
10.2952231352
 21
10.9207257635
  0
LINE
  5
2A8
100
AcDbEntity
  8
0
100
AcDbLine
 62
7
  6
CONTINUOUS
 10
9.6263661901
 20
8.4039263799
 11
9.4770924947
 21
8.2597390538
  0
LINE
  5
2A9
100
AcDbEntity
  8
0
100
AcDbLine
 62
7
  6
CONTINUOUS
 10
10.4788083415
 20
11.0621117548
 11
10.4788083415
 21
11.1603055955
  0
LINE
  5
2AA
100
AcDbEntity
  8
0
100
AcDbLine
 62
7
  6
CONTINUOUS
 10
10.5212231352
 20
10.9806131683
 11
10.5212231352
 21
10.9969283667
  0
LINE
  5
2AB
100
AcDbEntity
  8
0
100
AcDbLine
 62
7
  6
CONTINUOUS
 10
10.5212231352
 20
11.2162990838
 11
10.5212231352
 21
11.2220946391
  0
LINE
  5
2AC
100
AcDbEntity
  8
0
100
AcDbLine
 62
7
  6
CONTINUOUS
 10
10.5267231352
 20
11.1955316773
 11
10.5267231352
 21
11.2024622254
  0
LINE
  5
2AD
100
AcDbEntity
  8
0
100
AcDbLine
 62
7
  6
CONTINUOUS
 10
11.3437667972
 20
9.7050124286
 11
11.3423422292
 21
9.7036621457
  0
LINE
  5
2AE
100
AcDbEntity
  8
0
100
AcDbLine
 62
7
  6
CONTINUOUS
 10
10.5627876467
 20
10.9809941137
 11
10.5627876467
 21
11.0791879544
  0
LINE
  5
2AF
100
AcDbEntity
  8
0
100
AcDbLine
 62
7
  6
CONTINUOUS
 10
10.6013306852
 20
9.7301537696
 11
10.6013306852
 21
10.2971172029
  0
LINE
  5
2B0
100
AcDbEntity
  8
0
100
AcDbLine
 62
7
  6
CONTINUOUS
 10
10.6082231352
 20
11.7359672092
 11
10.6082231352
 21
11.5437479583
  0
LINE
  5
2B1
100
AcDbEntity
  8
0
100
AcDbLine
 62
7
  6
CONTINUOUS
 10
10.6082231352
 20
11.5070427748
 11
10.6082231352
 21
11.2665272298
  0
LINE
  5
2B2
100
AcDbEntity
  8
0
100
AcDbLine
 62
7
  6
CONTINUOUS
 10
10.6552514938
 20
9.7264143488
 11
10.6552514938
 21
10.2933777821
  0
LINE
  5
2B3
100
AcDbEntity
  8
0
100
AcDbLine
 62
7
  6
CONTINUOUS
 10
10.7293201519
 20
11.7458095652
 11
10.7293201519
 21
11.7462883045
  0
LINE
  5
2B4
100
AcDbEntity
  8
0
100
AcDbLine
 62
7
  6
CONTINUOUS
 10
10.7419890085
 20
11.7435615104
 11
10.7419890085
 21
11.7495672447
  0
LINE
  5
2B5
100
AcDbEntity
  8
0
100
AcDbLine
 62
7
  6
CONTINUOUS
 10
10.7683144362
 20
11.7762497726
 11
10.7683144362
 21
11.740801111
  0
LINE
  5
2B6
100
AcDbEntity
  8
0
100
AcDbLine
 62
7
  6
CONTINUOUS
 10
9.4770924947
 20
8.2597390538
 11
11.8919072035
 21
8.0922710849
  0
LINE
  5
2B7
100
AcDbEntity
  8
0
100
AcDbLine
 62
7
  6
CONTINUOUS
 10
11.473938689
 20
8.1255444783
 11
9.9043091283
 21
8.234398658
  0
LINE
  5
2B8
100
AcDbEntity
  8
0
100
AcDbLine
 62
7
  6
CONTINUOUS
 10
10.8042756493
 20
11.7402366448
 11
10.8042756493
 21
11.7538868455
  0
LINE
  5
2B9
100
AcDbEntity
  8
0
100
AcDbLine
 62
7
  6
CONTINUOUS
 10
10.8215816342
 20
11.741190563
 11
10.8215816342
 21
11.7526866714
  0
LINE
  5
2BA
100
AcDbEntity
  8
0
100
AcDbLine
 62
7
  6
CONTINUOUS
 10
10.8575428472
 20
11.7700617613
 11
10.8575428472
 21
11.7463450159
  0
LINE
  5
2BB
100
AcDbEntity
  8
0
100
AcDbLine
 62
7
  6
CONTINUOUS
 10
10.8762024404
 20
10.9592587239
 11
10.8762024404
 21
11.0574525646
  0
LINE
  5
2BC
100
AcDbEntity
  8
0
100
AcDbLine
 62
7
  6
CONTINUOUS
 10
10.9762231352
 20
11.7359672092
 11
10.9762231352
 21
11.5437479583
  0
LINE
  5
2BD
100
AcDbEntity
  8
0
100
AcDbLine
 62
7
  6
CONTINUOUS
 10
10.9762231352
 20
11.5070427748
 11
10.9762231352
 21
11.2665272298
  0
LINE
  5
2BE
100
AcDbEntity
  8
0
100
AcDbLine
 62
7
  6
CONTINUOUS
 10
12.3318782397
 20
9.9084548668
 11
11.9032742547
 21
9.4944551839
  0
LINE
  5
2BF
100
AcDbEntity
  8
0
100
AcDbLine
 62
7
  6
CONTINUOUS
 10
12.3618219421
 20
9.8764345616
 11
11.9332179571
 21
9.4624348787
  0
LINE
  5
2C0
100
AcDbEntity
  8
0
100
AcDbLine
 62
7
  6
CONTINUOUS
 10
11.0577231352
 20
11.1955316773
 11
11.0577231352
 21
11.2023469262
  0
LINE
  5
2C1
100
AcDbEntity
  8
0
100
AcDbLine
 62
7
  6
CONTINUOUS
 10
11.0632231352
 20
10.9806131683
 11
11.0632231352
 21
10.9935246009
  0
LINE
  5
2C2
100
AcDbEntity
  8
0
100
AcDbLine
 62
7
  6
CONTINUOUS
 10
11.0632231352
 20
11.2162990838
 11
11.0632231352
 21
11.2220946391
  0
LINE
  5
2C3
100
AcDbEntity
  8
0
100
AcDbLine
 62
7
  6
CONTINUOUS
 10
11.1056379289
 20
11.0186409752
 11
11.1056379289
 21
11.1168348159
  0
LINE
  5
2C4
100
AcDbEntity
  8
0
100
AcDbLine
 62
7
  6
CONTINUOUS
 10
11.2203579014
 20
9.7656046806
 11
11.2203579014
 21
10.3325681139
  0
LINE
  5
2C5
100
AcDbEntity
  8
0
100
AcDbLine
 62
7
  6
CONTINUOUS
 10
11.2598306619
 20
9.7758209788
 11
11.2598306619
 21
10.3427844122
  0
LINE
  5
2C6
100
AcDbEntity
  8
0
100
AcDbLine
 62
7
  6
CONTINUOUS
 10
11.2892231352
 20
10.4976502265
 11
11.2892231352
 21
10.9207257635
  0
LINE
  5
2C7
100
AcDbEntity
  8
0
100
AcDbLine
 62
7
  6
CONTINUOUS
 10
11.3302231352
 20
9.6949177395
 11
11.3302231352
 21
9.8042070432
  0
LINE
  5
2C8
100
AcDbEntity
  8
0
100
AcDbLine
 62
7
  6
CONTINUOUS
 10
11.4112503514
 20
9.9220811763
 11
11.4112503514
 21
10.4890446096
  0
LINE
  5
2C9
100
AcDbEntity
  8
0
100
AcDbLine
 62
7
  6
CONTINUOUS
 10
11.473938689
 20
9.3938051458
 11
11.473938689
 21
8.1255444783
  0
LINE
  5
2CA
100
AcDbEntity
  8
0
100
AcDbLine
 62
7
  6
CONTINUOUS
 10
11.4819620728
 20
9.4314988423
 11
11.473938689
 21
9.3938051458
  0
LINE
  5
2CB
100
AcDbEntity
  8
0
100
AcDbLine
 62
7
  6
CONTINUOUS
 10
12.5229075053
 20
8.701770609
 11
12.3745997358
 21
8.7120557877
  0
LINE
  5
2CC
100
AcDbEntity
  8
0
100
AcDbLine
 62
7
  6
CONTINUOUS
 10
11.8919072035
 20
5.1944935495
 11
11.8919072035
 21
8.0922710849
  0
LINE
  5
2CD
100
AcDbEntity
  8
0
100
AcDbLine
 62
7
  6
CONTINUOUS
 10
11.9332179571
 20
9.4624348787
 11
11.9332179571
 21
8.1941742111
  0
LINE
  5
2CE
100
AcDbEntity
  8
0
100
AcDbLine
 62
7
  6
CONTINUOUS
 10
12.3618219421
 20
8.608173894
 11
11.9332179571
 21
8.1941742111
  0
LINE
  5
2CF
100
AcDbEntity
  8
0
100
AcDbLine
 62
7
  6
CONTINUOUS
 10
11.8919072035
 20
8.0922710849
 11
12.5229075053
 21
8.701770609
  0
LINE
  5
2D0
100
AcDbEntity
  8
0
100
AcDbLine
 62
7
  6
CONTINUOUS
 10
11.473938689
 20
9.3938051458
 11
9.9043091283
 21
9.5026593256
  0
LINE
  5
2D1
100
AcDbEntity
  8
0
100
AcDbLine
 62
7
  6
CONTINUOUS
 10
11.4819620728
 20
9.4314988423
 11
9.9123325121
 21
9.5403530221
  0
LINE
  5
2D2
100
AcDbEntity
  8
0
100
AcDbLine
 62
7
  6
CONTINUOUS
 10
10.3156723219
 20
9.7684696639
 11
10.2700876033
 21
9.7909876421
  0
LINE
  5
2D3
100
AcDbEntity
  8
0
100
AcDbLine
 62
7
  6
CONTINUOUS
 10
12.3618219421
 20
9.8764345616
 11
12.3618219421
 21
8.608173894
  0
LINE
  5
2D4
100
AcDbEntity
  8
0
100
AcDbLine
 62
7
  6
CONTINUOUS
 10
12.3745997358
 20
8.6332940893
 11
12.3745997358
 21
9.9015547569
  0
LINE
  5
2D5
100
AcDbEntity
  8
0
100
AcDbLine
 62
7
  6
CONTINUOUS
 10
11.9032742547
 20
9.4944551839
 11
11.9332179571
 21
9.4624348787
  0
LINE
  5
2D6
100
AcDbEntity
  8
0
100
AcDbLine
 62
7
  6
CONTINUOUS
 10
12.5229075053
 20
5.8039930735
 11
12.5229075053
 21
8.701770609
  0
LINE
  5
2D7
100
AcDbEntity
  8
0
100
AcDbLine
 62
7
  6
CONTINUOUS
 10
11.4112503514
 20
10.0644750683
 11
12.0886334138
 21
10.0174983934
  0
LINE
  5
2D8
100
AcDbEntity
  8
0
100
AcDbLine
 62
7
  6
CONTINUOUS
 10
10.5364316445
 20
11.1925740039
 11
10.5311327624
 21
11.19750517
  0
LINE
  5
2D9
100
AcDbEntity
  8
0
100
AcDbLine
 62
7
  6
CONTINUOUS
 10
12.360887152
 20
9.9275610952
 11
12.3310207256
 21
9.9553549403
  0
LINE
  5
2DA
100
AcDbEntity
  8
0
100
AcDbLine
 62
7
  6
CONTINUOUS
 10
12.3318782397
 20
9.9084548668
 11
12.3618219421
 21
9.8764345616
  0
LINE
  5
2DB
100
AcDbEntity
  8
0
100
AcDbLine
 62
7
  6
CONTINUOUS
 10
11.3143586671
 20
10.5492363217
 11
11.2892231352
 21
10.5616527932
  0
LINE
  5
2DC
100
AcDbEntity
  8
0
100
AcDbLine
 62
7
  6
CONTINUOUS
 10
10.5521761642
 20
10.978004857
 11
10.5369997862
 21
10.9855016972
  0
LINE
  5
2DD
100
AcDbEntity
  8
0
100
AcDbLine
 62
7
  6
CONTINUOUS
 10
11.2710493908
 20
10.9551928305
 11
11.211316538
 21
11.0107805207
  0
LINE
  5
2DE
100
AcDbEntity
  8
0
100
AcDbLine
 62
7
  6
CONTINUOUS
 10
11.0630178004
 20
11.199982136
 11
11.0588367635
 21
11.2038730297
  0
LINE
  5
2DF
100
AcDbEntity
  8
0
100
AcDbLine
 62
7
  6
CONTINUOUS
 10
10.939628401
 20
11.7765214976
 11
10.9694948274
 21
11.7487276525
  0
LINE
  5
2E0
100
AcDbEntity
  8
0
100
AcDbLine
 62
7
  6
CONTINUOUS
 10
11.8919072035
 20
5.1944935495
 11
12.5229075053
 21
5.8039930735
  0
ARC
  5
2E1
100
AcDbEntity
  8
0
100
AcDbCircle
 62
7
  6
CONTINUOUS
 10
10.7839564679
 20
11.9755606488
 40
2.252825792
100
AcDbArc
 50
266.0337727607
 51
266.7248824997
  0
ARC
  5
2E2
100
AcDbEntity
  8
0
100
AcDbCircle
 62
7
  6
CONTINUOUS
 10
10.7839564679
 20
12.542524082
 40
2.2528257919
100
AcDbArc
 50
266.0337727607
 51
266.7248824997
  0
ARC
  5
2E3
100
AcDbEntity
  8
0
100
AcDbCircle
 62
7
  6
CONTINUOUS
 10
10.7797408941
 20
12.4817878752
 40
2.191943464
100
AcDbArc
 50
265.3313245689
 51
266.0338890315
  0
ARC
  5
2E4
100
AcDbEntity
  8
0
100
AcDbCircle
 62
7
  6
CONTINUOUS
 10
10.779740894
 20
11.9148244419
 40
2.1919434639
100
AcDbArc
 50
265.3313245689
 51
266.0338890315
  0
ARC
  5
2E5
100
AcDbEntity
  8
0
100
AcDbCircle
 62
7
  6
CONTINUOUS
 10
11.0011584636
 20
11.2608537267
 40
0.9538147475
100
AcDbArc
 50
283.286087793
 51
285.7355389587
  0
ARC
  5
2E6
100
AcDbEntity
  8
0
100
AcDbCircle
 62
7
  6
CONTINUOUS
 10
11.0011584636
 20
10.6938902934
 40
0.9538147475
100
AcDbArc
 50
283.286087793
 51
285.7355389587
  0
ARC
  5
2E7
100
AcDbEntity
  8
0
100
AcDbCircle
 62
7
  6
CONTINUOUS
 10
11.0439629711
 20
11.8404902184
 40
0.3504912092
100
AcDbArc
 50
193.386694666
 51
194.3607959311
  0
ARC
  5
2E8
100
AcDbEntity
  8
0
100
AcDbCircle
 62
7
  6
CONTINUOUS
 10
10.7934651933
 20
11.4726323626
 40
0.2814621647
100
AcDbArc
 50
84.2669212813
 51
87.7988306398
  0
ARC
  5
2E9
100
AcDbEntity
  8
0
100
AcDbCircle
 62
7
  6
CONTINUOUS
 10
10.1395352973
 20
7.0762386978
 40
0.1931741721
100
AcDbArc
 50
291.6255750441
 51
295.9229499528
  0
ARC
  5
2EA
100
AcDbEntity
  8
0
100
AcDbCircle
 62
7
  6
CONTINUOUS
 10
10.1555612163
 20
7.0499508994
 40
0.1625879408
100
AcDbArc
 50
289.7972556967
 51
294.8062538574
  0
ARC
  5
2EB
100
AcDbEntity
  8
0
100
AcDbCircle
 62
7
  6
CONTINUOUS
 10
10.5243375335
 20
11.1097588357
 40
0.06802854
100
AcDbArc
 50
129.2073090844
 51
132.0104432059
  0
ARC
  5
2EC
100
AcDbEntity
  8
0
100
AcDbCircle
 62
7
  6
CONTINUOUS
 10
10.9421441265
 20
11.5252871207
 40
0.0290871736
100
AcDbArc
 50
12.3903019221
 51
13.2752230746
  0
ARC
  5
2ED
100
AcDbEntity
  8
0
100
AcDbCircle
 62
7
  6
CONTINUOUS
 10
10.6416769124
 20
11.5253957866
 40
0.0284533689
100
AcDbArc
 50
166.585025965
 51
192.3950251058
  0
ARC
  5
2EE
100
AcDbEntity
  8
0
100
AcDbCircle
 62
7
  6
CONTINUOUS
 10
10.7294374388
 20
11.7710361068
 40
0.0247480802
100
AcDbArc
 50
262.3140356024
 51
269.7284609892
  0
SPLINE
  5
2EF
100
AcDbEntity
  8
0
100
AcDbSpline
 62
7
  6
CONTINUOUS
 70
0
 71
3
 72
56
 73
52
 74
0
 42
0.0000001
 43
0.0000001
 44
0.0000000001
 40
0.0
 40
0.0
 40
0.0
 40
0.0
 40
0.0310723444
 40
0.0465152282
 40
0.0618873079
 40
0.0924244521
 40
0.1227285817
 40
0.1378086463
 40
0.1528438045
 40
0.1678401149
 40
0.1828038444
 40
0.2126503405
 40
0.227557511
 40
0.2424602055
 40
0.2573657799
 40
0.272281562
 40
0.2872148089
 40
0.3021724291
 40
0.3171611937
 40
0.3321875071
 40
0.3472571476
 40
0.362375664
 40
0.3927682619
 40
0.4234071812
 40
0.4388308394
 40
0.454323239
 40
0.4855077933
 40
0.5169699546
 40
0.532806559
 40
0.5487076994
 40
0.5806824153
 40
0.6128739824
 40
0.6290441709
 40
0.6452543843
 40
0.6777639093
 40
0.7103643307
 40
0.7266873141
 40
0.7430142241
 40
0.7756456098
 40
0.7919458916
 40
0.8082247496
 40
0.8244760379
 40
0.8406940714
 40
0.8568734332
 40
0.8730088968
 40
0.8890954876
 40
0.905128265
 40
0.9370074719
 40
0.9528594107
 40
0.9686481654
 40
1.0
 40
1.0
 40
1.0
 40
1.0
 10
9.808650314
 20
6.7943031608
 30
0.0
 10
9.8086504487
 20
6.8023167909
 30
0.0
 10
9.8092385643
 20
6.8143245303
 30
0.0
 10
9.8112080396
 20
6.8301683119
 30
0.0
 10
9.8139468371
 20
6.8457584622
 30
0.0
 10
9.818808161
 20
6.8648402589
 30
0.0
 10
9.825569281
 20
6.8832556666
 30
0.0
 10
9.8320610351
 20
6.8974277882
 30
0.0
 10
9.8374524312
 20
6.9077436476
 30
0.0
 10
9.843359252
 20
6.9177386752
 30
0.0
 10
9.8518943486
 20
6.9305925794
 30
0.0
 10
9.8614190269
 20
6.9427389103
 30
0.0
 10
9.8718448511
 20
6.9540606557
 30
0.0
 10
9.8800980783
 20
6.962123418
 30
0.0
 10
9.8887664232
 20
6.9697407945
 30
0.0
 10
9.8978310754
 20
6.9768949306
 30
0.0
 10
9.9072712346
 20
6.9835688901
 30
0.0
 10
9.917064732
 20
6.9897479632
 30
0.0
 10
9.9271898332
 20
6.9954165291
 30
0.0
 10
9.9376231668
 20
7.0005608783
 30
0.0
 10
9.9483406591
 20
7.0051695299
 30
0.0
 10
9.9629997773
 20
7.010591693
 30
0.0
 10
9.9819263749
 20
7.0159706523
 30
0.0
 10
10.0013783018
 20
7.0194092517
 30
0.0
 10
10.017180067
 20
7.0209926343
 30
0.0
 10
10.0331818248
 20
7.0217926279
 30
0.0
 10
10.0533627601
 20
7.0212995209
 30
0.0
 10
10.0734862498
 20
7.0188290388
 30
0.0
 10
10.0894848771
 20
7.0156841356
 30
0.0
 10
10.1054431456
 20
7.0117456065
 30
0.0
 10
10.1251189494
 20
7.0053721732
 30
0.0
 10
10.1441730089
 20
6.9971538587
 30
0.0
 10
10.1589742918
 20
6.9895102013
 30
0.0
 10
10.1734768533
 20
6.9811483763
 30
0.0
 10
10.1909053232
 20
6.9694257666
 30
0.0
 10
10.2072095841
 20
6.9561386333
 30
0.0
 10
10.2195014786
 20
6.9446375924
 30
0.0
 10
10.2312606237
 20
6.9325821074
 30
0.0
 10
10.2421804971
 20
6.9197384586
 30
0.0
 10
10.2521721265
 20
6.9062048271
 30
0.0
 10
10.2591838976
 20
6.8957382597
 30
0.0
 10
10.2656964817
 20
6.8849791693
 30
0.0
 10
10.2716943613
 20
6.8739539836
 30
0.0
 10
10.2771641313
 20
6.8626906478
 30
0.0
 10
10.2820914489
 20
6.8512166114
 30
0.0
 10
10.2864651025
 20
6.8395602603
 30
0.0
 10
10.2915357462
 20
6.8238483307
 30
0.0
 10
10.2954760788
 20
6.8078522376
 30
0.0
 10
10.2982454276
 20
6.7917006841
 30
0.0
 10
10.3002178349
 20
6.7755704273
 30
0.0
 10
10.3008190055
 20
6.7634023549
 30
0.0
 10
10.3008191528
 20
6.7553166437
 30
0.0
  0
SPLINE
  5
2F0
100
AcDbEntity
  8
0
100
AcDbSpline
 62
7
  6
CONTINUOUS
 70
0
 71
3
 72
56
 73
52
 74
0
 42
0.0000001
 43
0.0000001
 44
0.0000000001
 40
0.0
 40
0.0
 40
0.0
 40
0.0
 40
0.031072346
 40
0.0465152317
 40
0.0618873124
 40
0.0924244558
 40
0.1227285839
 40
0.1378086476
 40
0.152843805
 40
0.1678401144
 40
0.1828038429
 40
0.2126503375
 40
0.2275575076
 40
0.2424602021
 40
0.2573657768
 40
0.2722815596
 40
0.2872148075
 40
0.3021724288
 40
0.3171611944
 40
0.3321875086
 40
0.3472571497
 40
0.3623756664
 40
0.3927682644
 40
0.4234071833
 40
0.4388308412
 40
0.4543232404
 40
0.485507794
 40
0.5169699549
 40
0.5328065592
 40
0.5487076996
 40
0.5806824155
 40
0.6128739827
 40
0.6290441713
 40
0.6452543848
 40
0.6777639099
 40
0.7103643313
 40
0.7266873147
 40
0.7430142246
 40
0.7756456102
 40
0.791945892
 40
0.80822475
 40
0.8244760382
 40
0.8406940716
 40
0.8568734333
 40
0.8730088969
 40
0.8890954876
 40
0.905128265
 40
0.9370074718
 40
0.9528594107
 40
0.9686481654
 40
1.0
 40
1.0
 40
1.0
 40
1.0
 10
10.3008191549
 20
6.7553167444
 30
0.0
 10
10.3008190203
 20
6.7473031139
 30
0.0
 10
10.3002309042
 20
6.7352953737
 30
0.0
 10
10.298261429
 20
6.7194515908
 30
0.0
 10
10.2955226314
 20
6.7038614401
 30
0.0
 10
10.2906613072
 20
6.6847796438
 30
0.0
 10
10.2839001872
 20
6.666364237
 30
0.0
 10
10.2774084334
 20
6.6521921161
 30
0.0
 10
10.2720170376
 20
6.6418762573
 30
0.0
 10
10.2661102172
 20
6.6318812304
 30
0.0
 10
10.257575121
 20
6.6190273269
 30
0.0
 10
10.2480504434
 20
6.6068809964
 30
0.0
 10
10.2376246195
 20
6.5955592513
 30
0.0
 10
10.2293713926
 20
6.587496489
 30
0.0
 10
10.2207030477
 20
6.5798791121
 30
0.0
 10
10.211638395
 20
6.5727249758
 30
0.0
 10
10.2021982353
 20
6.5660510158
 30
0.0
 10
10.1924047372
 20
6.5598719421
 30
0.0
 10
10.1822796354
 20
6.5542033759
 30
0.0
 10
10.1718463011
 20
6.5490590264
 30
0.0
 10
10.1611288084
 20
6.5444503747
 30
0.0
 10
10.14646969
 20
6.5390282116
 30
0.0
 10
10.1275430923
 20
6.5336492525
 30
0.0
 10
10.1080911655
 20
6.5302106532
 30
0.0
 10
10.0922894006
 20
6.5286272708
 30
0.0
 10
10.0762876432
 20
6.5278272772
 30
0.0
 10
10.0561067082
 20
6.5283203843
 30
0.0
 10
10.0359832189
 20
6.5307908664
 30
0.0
 10
10.0199845917
 20
6.5339357696
 30
0.0
 10
10.0040263232
 20
6.5378742987
 30
0.0
 10
9.9843505194
 20
6.544247732
 30
0.0
 10
9.9652964598
 20
6.5524660466
 30
0.0
 10
9.9504951768
 20
6.560109704
 30
0.0
 10
9.9359926154
 20
6.568471529
 30
0.0
 10
9.9185641454
 20
6.5801941388
 30
0.0
 10
9.9022598845
 20
6.5934812721
 30
0.0
 10
9.88996799
 20
6.604982313
 30
0.0
 10
9.878208845
 20
6.617037798
 30
0.0
 10
9.8672889716
 20
6.6298814468
 30
0.0
 10
9.8572973423
 20
6.6434150783
 30
0.0
 10
9.8502855712
 20
6.6538816456
 30
0.0
 10
9.8437729871
 20
6.6646407361
 30
0.0
 10
9.8377751076
 20
6.6756659217
 30
0.0
 10
9.8323053376
 20
6.6869292575
 30
0.0
 10
9.82737802
 20
6.6984032938
 30
0.0
 10
9.8230043664
 20
6.7100596449
 30
0.0
 10
9.8179337227
 20
6.7257715745
 30
0.0
 10
9.8139933902
 20
6.7417676675
 30
0.0
 10
9.8112240413
 20
6.757919221
 30
0.0
 10
9.809251634
 20
6.7740494778
 30
0.0
 10
9.8086504635
 20
6.7862175502
 30
0.0
 10
9.8086503161
 20
6.7943032615
 30
0.0
  0
SPLINE
  5
2F1
100
AcDbEntity
  8
0
100
AcDbSpline
 62
7
  6
CONTINUOUS
 70
0
 71
3
 72
56
 73
52
 74
0
 42
0.0000001
 43
0.0000001
 44
0.0000000001
 40
0.0
 40
0.0
 40
0.0
 40
0.0
 40
0.0310723444
 40
0.0465152282
 40
0.0618873079
 40
0.0924244521
 40
0.1227285817
 40
0.1378086463
 40
0.1528438045
 40
0.1678401149
 40
0.1828038444
 40
0.2126503405
 40
0.227557511
 40
0.2424602055
 40
0.2573657799
 40
0.272281562
 40
0.2872148089
 40
0.3021724291
 40
0.3171611937
 40
0.3321875071
 40
0.3472571476
 40
0.362375664
 40
0.3927682619
 40
0.4234071812
 40
0.4388308394
 40
0.454323239
 40
0.4855077933
 40
0.5169699546
 40
0.532806559
 40
0.5487076994
 40
0.5806824153
 40
0.6128739824
 40
0.6290441709
 40
0.6452543843
 40
0.6777639093
 40
0.7103643307
 40
0.7266873141
 40
0.7430142241
 40
0.7756456098
 40
0.7919458916
 40
0.8082247496
 40
0.8244760379
 40
0.8406940714
 40
0.8568734332
 40
0.8730088968
 40
0.8890954876
 40
0.905128265
 40
0.9370074719
 40
0.9528594107
 40
0.9686481654
 40
1.0
 40
1.0
 40
1.0
 40
1.0
 10
10.8045199174
 20
5.819200868
 30
0.0
 10
10.8045200521
 20
5.827214498
 30
0.0
 10
10.8051081677
 20
5.8392222374
 30
0.0
 10
10.807077643
 20
5.855066019
 30
0.0
 10
10.8098164405
 20
5.8706561693
 30
0.0
 10
10.8146777644
 20
5.889737966
 30
0.0
 10
10.8214388844
 20
5.9081533737
 30
0.0
 10
10.8279306385
 20
5.9223254953
 30
0.0
 10
10.8333220346
 20
5.9326413547
 30
0.0
 10
10.8392288554
 20
5.9426363823
 30
0.0
 10
10.847763952
 20
5.9554902866
 30
0.0
 10
10.8572886303
 20
5.9676366174
 30
0.0
 10
10.8677144546
 20
5.9789583629
 30
0.0
 10
10.8759676817
 20
5.9870211251
 30
0.0
 10
10.8846360266
 20
5.9946385016
 30
0.0
 10
10.8937006789
 20
6.0017926377
 30
0.0
 10
10.903140838
 20
6.0084665972
 30
0.0
 10
10.9129343355
 20
6.0146456704
 30
0.0
 10
10.9230594366
 20
6.0203142362
 30
0.0
 10
10.9334927702
 20
6.0254585854
 30
0.0
 10
10.9442102626
 20
6.0300672371
 30
0.0
 10
10.9588693807
 20
6.0354894001
 30
0.0
 10
10.9777959783
 20
6.0408683595
 30
0.0
 10
10.9972479052
 20
6.0443069588
 30
0.0
 10
11.0130496704
 20
6.0458903414
 30
0.0
 10
11.0290514282
 20
6.0466903351
 30
0.0
 10
11.0492323635
 20
6.046197228
 30
0.0
 10
11.0693558532
 20
6.0437267459
 30
0.0
 10
11.0853544805
 20
6.0405818427
 30
0.0
 10
11.101312749
 20
6.0366433136
 30
0.0
 10
11.1209885528
 20
6.0302698803
 30
0.0
 10
11.1400426123
 20
6.0220515658
 30
0.0
 10
11.1548438953
 20
6.0144079084
 30
0.0
 10
11.1693464567
 20
6.0060460834
 30
0.0
 10
11.1867749266
 20
5.9943234737
 30
0.0
 10
11.2030791876
 20
5.9810363404
 30
0.0
 10
11.215371082
 20
5.9695352996
 30
0.0
 10
11.2271302271
 20
5.9574798146
 30
0.0
 10
11.2380501005
 20
5.9446361657
 30
0.0
 10
11.2480417299
 20
5.9311025342
 30
0.0
 10
11.2550535011
 20
5.9206359669
 30
0.0
 10
11.2615660851
 20
5.9098768764
 30
0.0
 10
11.2675639647
 20
5.8988516907
 30
0.0
 10
11.2730337347
 20
5.8875883549
 30
0.0
 10
11.2779610523
 20
5.8761143185
 30
0.0
 10
11.2823347059
 20
5.8644579674
 30
0.0
 10
11.2874053496
 20
5.8487460378
 30
0.0
 10
11.2913456822
 20
5.8327499447
 30
0.0
 10
11.294115031
 20
5.8165983912
 30
0.0
 10
11.2960874383
 20
5.8004681344
 30
0.0
 10
11.2966886089
 20
5.788300062
 30
0.0
 10
11.2966887563
 20
5.7802143508
 30
0.0
  0
SPLINE
  5
2F2
100
AcDbEntity
  8
0
100
AcDbSpline
 62
7
  6
CONTINUOUS
 70
0
 71
3
 72
56
 73
52
 74
0
 42
0.0000001
 43
0.0000001
 44
0.0000000001
 40
0.0
 40
0.0
 40
0.0
 40
0.0
 40
0.031072346
 40
0.0465152317
 40
0.0618873124
 40
0.0924244558
 40
0.1227285839
 40
0.1378086476
 40
0.152843805
 40
0.1678401144
 40
0.1828038429
 40
0.2126503375
 40
0.2275575076
 40
0.2424602021
 40
0.2573657768
 40
0.2722815596
 40
0.2872148075
 40
0.3021724288
 40
0.3171611944
 40
0.3321875086
 40
0.3472571497
 40
0.3623756664
 40
0.3927682644
 40
0.4234071833
 40
0.4388308412
 40
0.4543232404
 40
0.485507794
 40
0.5169699549
 40
0.5328065592
 40
0.5487076996
 40
0.5806824155
 40
0.6128739827
 40
0.6290441713
 40
0.6452543848
 40
0.6777639099
 40
0.7103643313
 40
0.7266873147
 40
0.7430142246
 40
0.7756456102
 40
0.791945892
 40
0.80822475
 40
0.8244760382
 40
0.8406940716
 40
0.8568734333
 40
0.8730088969
 40
0.8890954876
 40
0.905128265
 40
0.9370074718
 40
0.9528594107
 40
0.9686481654
 40
1.0
 40
1.0
 40
1.0
 40
1.0
 10
11.2966887583
 20
5.7802144515
 30
0.0
 10
11.2966886237
 20
5.772200821
 30
0.0
 10
11.2961005076
 20
5.7601930808
 30
0.0
 10
11.2941310325
 20
5.744349298
 30
0.0
 10
11.2913922348
 20
5.7287591472
 30
0.0
 10
11.2865309106
 20
5.7096773509
 30
0.0
 10
11.2797697906
 20
5.6912619441
 30
0.0
 10
11.2732780369
 20
5.6770898232
 30
0.0
 10
11.267886641
 20
5.6667739644
 30
0.0
 10
11.2619798206
 20
5.6567789375
 30
0.0
 10
11.2534447245
 20
5.643925034
 30
0.0
 10
11.2439200469
 20
5.6317787035
 30
0.0
 10
11.2334942229
 20
5.6204569584
 30
0.0
 10
11.225240996
 20
5.6123941961
 30
0.0
 10
11.2165726511
 20
5.6047768192
 30
0.0
 10
11.2075079984
 20
5.5976226829
 30
0.0
 10
11.1980678387
 20
5.5909487229
 30
0.0
 10
11.1882743406
 20
5.5847696492
 30
0.0
 10
11.1781492388
 20
5.579101083
 30
0.0
 10
11.1677159046
 20
5.5739567336
 30
0.0
 10
11.1569984118
 20
5.5693480818
 30
0.0
 10
11.1423392934
 20
5.5639259187
 30
0.0
 10
11.1234126957
 20
5.5585469596
 30
0.0
 10
11.1039607689
 20
5.5551083603
 30
0.0
 10
11.088159004
 20
5.5535249779
 30
0.0
 10
11.0721572466
 20
5.5527249843
 30
0.0
 10
11.0519763117
 20
5.5532180914
 30
0.0
 10
11.0318528223
 20
5.5556885735
 30
0.0
 10
11.0158541951
 20
5.5588334767
 30
0.0
 10
10.9998959266
 20
5.5627720058
 30
0.0
 10
10.9802201228
 20
5.5691454392
 30
0.0
 10
10.9611660632
 20
5.5773637537
 30
0.0
 10
10.9463647803
 20
5.5850074111
 30
0.0
 10
10.9318622188
 20
5.5933692361
 30
0.0
 10
10.9144337488
 20
5.6050918459
 30
0.0
 10
10.8981294879
 20
5.6183789792
 30
0.0
 10
10.8858375934
 20
5.6298800201
 30
0.0
 10
10.8740784484
 20
5.6419355051
 30
0.0
 10
10.863158575
 20
5.654779154
 30
0.0
 10
10.8531669457
 20
5.6683127854
 30
0.0
 10
10.8461551746
 20
5.6787793528
 30
0.0
 10
10.8396425906
 20
5.6895384432
 30
0.0
 10
10.833644711
 20
5.7005636288
 30
0.0
 10
10.828174941
 20
5.7118269646
 30
0.0
 10
10.8232476234
 20
5.7233010009
 30
0.0
 10
10.8188739698
 20
5.734957352
 30
0.0
 10
10.8138033262
 20
5.7506692816
 30
0.0
 10
10.8098629936
 20
5.7666653746
 30
0.0
 10
10.8070936448
 20
5.7828169281
 30
0.0
 10
10.8051212374
 20
5.798947185
 30
0.0
 10
10.8045200669
 20
5.8111152573
 30
0.0
 10
10.8045199195
 20
5.8192009686
 30
0.0
  0
SPLINE
  5
2F3
100
AcDbEntity
  8
0
100
AcDbSpline
 62
7
  6
CONTINUOUS
 70
0
 71
3
 72
56
 73
52
 74
0
 42
0.0000001
 43
0.0000001
 44
0.0000000001
 40
0.0
 40
0.0
 40
0.0
 40
0.0
 40
0.0310723444
 40
0.0465152282
 40
0.0618873079
 40
0.0924244521
 40
0.1227285817
 40
0.1378086463
 40
0.1528438045
 40
0.1678401149
 40
0.1828038444
 40
0.2126503405
 40
0.227557511
 40
0.2424602055
 40
0.2573657799
 40
0.272281562
 40
0.2872148089
 40
0.3021724291
 40
0.3171611937
 40
0.3321875071
 40
0.3472571476
 40
0.362375664
 40
0.3927682619
 40
0.4234071812
 40
0.4388308394
 40
0.454323239
 40
0.4855077933
 40
0.5169699546
 40
0.532806559
 40
0.5487076994
 40
0.5806824153
 40
0.6128739824
 40
0.6290441709
 40
0.6452543843
 40
0.6777639093
 40
0.7103643307
 40
0.7266873141
 40
0.7430142241
 40
0.7756456098
 40
0.7919458916
 40
0.8082247496
 40
0.8244760379
 40
0.8406940714
 40
0.8568734332
 40
0.8730088968
 40
0.8890954876
 40
0.905128265
 40
0.9370074719
 40
0.9528594107
 40
0.9686481654
 40
1.0
 40
1.0
 40
1.0
 40
1.0
 10
10.3824102713
 20
6.3623468464
 30
0.0
 10
10.382410406
 20
6.3703604765
 30
0.0
 10
10.3829985216
 20
6.3823682159
 30
0.0
 10
10.3849679969
 20
6.3982119975
 30
0.0
 10
10.3877067944
 20
6.4138021478
 30
0.0
 10
10.3925681183
 20
6.4328839445
 30
0.0
 10
10.3993292383
 20
6.4512993522
 30
0.0
 10
10.4058209924
 20
6.4654714738
 30
0.0
 10
10.4112123885
 20
6.4757873332
 30
0.0
 10
10.4171192093
 20
6.4857823608
 30
0.0
 10
10.4256543059
 20
6.498636265
 30
0.0
 10
10.4351789842
 20
6.5107825959
 30
0.0
 10
10.4456048085
 20
6.5221043414
 30
0.0
 10
10.4538580356
 20
6.5301671036
 30
0.0
 10
10.4625263805
 20
6.5377844801
 30
0.0
 10
10.4715910328
 20
6.5449386162
 30
0.0
 10
10.4810311919
 20
6.5516125757
 30
0.0
 10
10.4908246894
 20
6.5577916488
 30
0.0
 10
10.5009497905
 20
6.5634602147
 30
0.0
 10
10.5113831241
 20
6.5686045639
 30
0.0
 10
10.5221006164
 20
6.5732132155
 30
0.0
 10
10.5367597346
 20
6.5786353786
 30
0.0
 10
10.5556863322
 20
6.5840143379
 30
0.0
 10
10.5751382591
 20
6.5874529373
 30
0.0
 10
10.5909400243
 20
6.5890363199
 30
0.0
 10
10.6069417821
 20
6.5898363135
 30
0.0
 10
10.6271227174
 20
6.5893432065
 30
0.0
 10
10.6472462071
 20
6.5868727244
 30
0.0
 10
10.6632448344
 20
6.5837278212
 30
0.0
 10
10.6792031029
 20
6.5797892921
 30
0.0
 10
10.6988789067
 20
6.5734158588
 30
0.0
 10
10.7179329662
 20
6.5651975443
 30
0.0
 10
10.7327342492
 20
6.5575538869
 30
0.0
 10
10.7472368106
 20
6.5491920619
 30
0.0
 10
10.7646652805
 20
6.5374694522
 30
0.0
 10
10.7809695414
 20
6.5241823189
 30
0.0
 10
10.7932614359
 20
6.512681278
 30
0.0
 10
10.805020581
 20
6.500625793
 30
0.0
 10
10.8159404544
 20
6.4877821442
 30
0.0
 10
10.8259320838
 20
6.4742485127
 30
0.0
 10
10.832943855
 20
6.4637819453
 30
0.0
 10
10.839456439
 20
6.4530228549
 30
0.0
 10
10.8454543186
 20
6.4419976692
 30
0.0
 10
10.8509240886
 20
6.4307343334
 30
0.0
 10
10.8558514062
 20
6.419260297
 30
0.0
 10
10.8602250598
 20
6.4076039459
 30
0.0
 10
10.8652957035
 20
6.3918920163
 30
0.0
 10
10.8692360361
 20
6.3758959232
 30
0.0
 10
10.8720053849
 20
6.3597443697
 30
0.0
 10
10.8739777922
 20
6.3436141129
 30
0.0
 10
10.8745789628
 20
6.3314460405
 30
0.0
 10
10.8745791101
 20
6.3233603293
 30
0.0
  0
SPLINE
  5
2F4
100
AcDbEntity
  8
0
100
AcDbSpline
 62
7
  6
CONTINUOUS
 70
0
 71
3
 72
56
 73
52
 74
0
 42
0.0000001
 43
0.0000001
 44
0.0000000001
 40
0.0
 40
0.0
 40
0.0
 40
0.0
 40
0.031072346
 40
0.0465152317
 40
0.0618873124
 40
0.0924244558
 40
0.1227285839
 40
0.1378086476
 40
0.152843805
 40
0.1678401144
 40
0.1828038429
 40
0.2126503375
 40
0.2275575076
 40
0.2424602021
 40
0.2573657768
 40
0.2722815596
 40
0.2872148075
 40
0.3021724288
 40
0.3171611944
 40
0.3321875086
 40
0.3472571497
 40
0.3623756664
 40
0.3927682644
 40
0.4234071833
 40
0.4388308412
 40
0.4543232404
 40
0.485507794
 40
0.5169699549
 40
0.5328065592
 40
0.5487076996
 40
0.5806824155
 40
0.6128739827
 40
0.6290441713
 40
0.6452543848
 40
0.6777639099
 40
0.7103643313
 40
0.7266873147
 40
0.7430142246
 40
0.7756456102
 40
0.791945892
 40
0.80822475
 40
0.8244760382
 40
0.8406940716
 40
0.8568734333
 40
0.8730088969
 40
0.8890954876
 40
0.905128265
 40
0.9370074718
 40
0.9528594107
 40
0.9686481654
 40
1.0
 40
1.0
 40
1.0
 40
1.0
 10
10.8745791122
 20
6.32336043
 30
0.0
 10
10.8745789776
 20
6.3153467995
 30
0.0
 10
10.8739908615
 20
6.3033390593
 30
0.0
 10
10.8720213863
 20
6.2874952764
 30
0.0
 10
10.8692825887
 20
6.2719051257
 30
0.0
 10
10.8644212645
 20
6.2528233294
 30
0.0
 10
10.8576601445
 20
6.2344079226
 30
0.0
 10
10.8511683908
 20
6.2202358017
 30
0.0
 10
10.8457769949
 20
6.2099199429
 30
0.0
 10
10.8398701745
 20
6.199924916
 30
0.0
 10
10.8313350784
 20
6.1870710125
 30
0.0
 10
10.8218104008
 20
6.174924682
 30
0.0
 10
10.8113845768
 20
6.1636029369
 30
0.0
 10
10.8031313499
 20
6.1555401746
 30
0.0
 10
10.794463005
 20
6.1479227977
 30
0.0
 10
10.7853983523
 20
6.1407686614
 30
0.0
 10
10.7759581926
 20
6.1340947014
 30
0.0
 10
10.7661646945
 20
6.1279156277
 30
0.0
 10
10.7560395927
 20
6.1222470615
 30
0.0
 10
10.7456062585
 20
6.117102712
 30
0.0
 10
10.7348887657
 20
6.1124940603
 30
0.0
 10
10.7202296473
 20
6.1070718972
 30
0.0
 10
10.7013030496
 20
6.1016929381
 30
0.0
 10
10.6818511228
 20
6.0982543388
 30
0.0
 10
10.6660493579
 20
6.0966709564
 30
0.0
 10
10.6500476005
 20
6.0958709628
 30
0.0
 10
10.6298666656
 20
6.0963640699
 30
0.0
 10
10.6097431762
 20
6.098834552
 30
0.0
 10
10.593744549
 20
6.1019794552
 30
0.0
 10
10.5777862805
 20
6.1059179843
 30
0.0
 10
10.5581104767
 20
6.1122914176
 30
0.0
 10
10.5390564171
 20
6.1205097322
 30
0.0
 10
10.5242551342
 20
6.1281533896
 30
0.0
 10
10.5097525727
 20
6.1365152146
 30
0.0
 10
10.4923241027
 20
6.1482378244
 30
0.0
 10
10.4760198418
 20
6.1615249577
 30
0.0
 10
10.4637279473
 20
6.1730259986
 30
0.0
 10
10.4519688023
 20
6.1850814836
 30
0.0
 10
10.4410489289
 20
6.1979251324
 30
0.0
 10
10.4310572996
 20
6.2114587639
 30
0.0
 10
10.4240455285
 20
6.2219253312
 30
0.0
 10
10.4175329445
 20
6.2326844217
 30
0.0
 10
10.4115350649
 20
6.2437096073
 30
0.0
 10
10.4060652949
 20
6.2549729431
 30
0.0
 10
10.4011379773
 20
6.2664469794
 30
0.0
 10
10.3967643237
 20
6.2781033305
 30
0.0
 10
10.3916936801
 20
6.2938152601
 30
0.0
 10
10.3877533475
 20
6.3098113531
 30
0.0
 10
10.3849839987
 20
6.3259629066
 30
0.0
 10
10.3830115913
 20
6.3420931634
 30
0.0
 10
10.3824104208
 20
6.3542612358
 30
0.0
 10
10.3824102734
 20
6.3623469471
 30
0.0
  0
SPLINE
  5
2F5
100
AcDbEntity
  8
0
100
AcDbSpline
 62
7
  6
CONTINUOUS
 70
0
 71
3
 72
56
 73
52
 74
0
 42
0.0000001
 43
0.0000001
 44
0.0000000001
 40
0.0
 40
0.0
 40
0.0
 40
0.0
 40
0.0310723444
 40
0.0465152282
 40
0.0618873079
 40
0.0924244521
 40
0.1227285817
 40
0.1378086463
 40
0.1528438045
 40
0.1678401149
 40
0.1828038444
 40
0.2126503405
 40
0.227557511
 40
0.2424602055
 40
0.2573657799
 40
0.272281562
 40
0.2872148089
 40
0.3021724291
 40
0.3171611937
 40
0.3321875071
 40
0.3472571476
 40
0.362375664
 40
0.3927682619
 40
0.4234071812
 40
0.4388308394
 40
0.454323239
 40
0.4855077933
 40
0.5169699546
 40
0.532806559
 40
0.5487076994
 40
0.5806824153
 40
0.6128739824
 40
0.6290441709
 40
0.6452543843
 40
0.6777639093
 40
0.7103643307
 40
0.7266873141
 40
0.7430142241
 40
0.7756456098
 40
0.7919458916
 40
0.8082247496
 40
0.8244760379
 40
0.8406940714
 40
0.8568734332
 40
0.8730088968
 40
0.8890954876
 40
0.905128265
 40
0.9370074719
 40
0.9528594107
 40
0.9686481654
 40
1.0
 40
1.0
 40
1.0
 40
1.0
 10
10.3824102713
 20
7.1466786989
 30
0.0
 10
10.382410406
 20
7.154692329
 30
0.0
 10
10.3829985216
 20
7.1667000683
 30
0.0
 10
10.3849679969
 20
7.1825438499
 30
0.0
 10
10.3877067944
 20
7.1981340002
 30
0.0
 10
10.3925681183
 20
7.2172157969
 30
0.0
 10
10.3993292383
 20
7.2356312046
 30
0.0
 10
10.4058209924
 20
7.2498033262
 30
0.0
 10
10.4112123885
 20
7.2601191856
 30
0.0
 10
10.4171192093
 20
7.2701142132
 30
0.0
 10
10.4256543059
 20
7.2829681175
 30
0.0
 10
10.4351789842
 20
7.2951144483
 30
0.0
 10
10.4456048085
 20
7.3064361938
 30
0.0
 10
10.4538580356
 20
7.314498956
 30
0.0
 10
10.4625263805
 20
7.3221163326
 30
0.0
 10
10.4715910328
 20
7.3292704686
 30
0.0
 10
10.4810311919
 20
7.3359444281
 30
0.0
 10
10.4908246894
 20
7.3421235013
 30
0.0
 10
10.5009497905
 20
7.3477920671
 30
0.0
 10
10.5113831241
 20
7.3529364163
 30
0.0
 10
10.5221006164
 20
7.357545068
 30
0.0
 10
10.5367597346
 20
7.362967231
 30
0.0
 10
10.5556863322
 20
7.3683461904
 30
0.0
 10
10.5751382591
 20
7.3717847897
 30
0.0
 10
10.5909400243
 20
7.3733681723
 30
0.0
 10
10.6069417821
 20
7.374168166
 30
0.0
 10
10.6271227174
 20
7.3736750589
 30
0.0
 10
10.6472462071
 20
7.3712045768
 30
0.0
 10
10.6632448344
 20
7.3680596736
 30
0.0
 10
10.6792031029
 20
7.3641211445
 30
0.0
 10
10.6988789067
 20
7.3577477112
 30
0.0
 10
10.7179329662
 20
7.3495293967
 30
0.0
 10
10.7327342492
 20
7.3418857394
 30
0.0
 10
10.7472368106
 20
7.3335239143
 30
0.0
 10
10.7646652805
 20
7.3218013046
 30
0.0
 10
10.7809695414
 20
7.3085141713
 30
0.0
 10
10.7932614359
 20
7.2970131305
 30
0.0
 10
10.805020581
 20
7.2849576455
 30
0.0
 10
10.8159404544
 20
7.2721139966
 30
0.0
 10
10.8259320838
 20
7.2585803651
 30
0.0
 10
10.832943855
 20
7.2481137978
 30
0.0
 10
10.839456439
 20
7.2373547073
 30
0.0
 10
10.8454543186
 20
7.2263295216
 30
0.0
 10
10.8509240886
 20
7.2150661858
 30
0.0
 10
10.8558514062
 20
7.2035921494
 30
0.0
 10
10.8602250598
 20
7.1919357983
 30
0.0
 10
10.8652957035
 20
7.1762238687
 30
0.0
 10
10.8692360361
 20
7.1602277756
 30
0.0
 10
10.8720053849
 20
7.1440762221
 30
0.0
 10
10.8739777922
 20
7.1279459653
 30
0.0
 10
10.8745789628
 20
7.115777893
 30
0.0
 10
10.8745791101
 20
7.1076921817
 30
0.0
  0
SPLINE
  5
2F6
100
AcDbEntity
  8
0
100
AcDbSpline
 62
7
  6
CONTINUOUS
 70
0
 71
3
 72
56
 73
52
 74
0
 42
0.0000001
 43
0.0000001
 44
0.0000000001
 40
0.0
 40
0.0
 40
0.0
 40
0.0
 40
0.031072346
 40
0.0465152317
 40
0.0618873124
 40
0.0924244558
 40
0.1227285839
 40
0.1378086476
 40
0.152843805
 40
0.1678401144
 40
0.1828038429
 40
0.2126503375
 40
0.2275575076
 40
0.2424602021
 40
0.2573657768
 40
0.2722815596
 40
0.2872148075
 40
0.3021724288
 40
0.3171611944
 40
0.3321875086
 40
0.3472571497
 40
0.3623756664
 40
0.3927682644
 40
0.4234071833
 40
0.4388308412
 40
0.4543232404
 40
0.485507794
 40
0.5169699549
 40
0.5328065592
 40
0.5487076996
 40
0.5806824155
 40
0.6128739827
 40
0.6290441713
 40
0.6452543848
 40
0.6777639099
 40
0.7103643313
 40
0.7266873147
 40
0.7430142246
 40
0.7756456102
 40
0.791945892
 40
0.80822475
 40
0.8244760382
 40
0.8406940716
 40
0.8568734333
 40
0.8730088969
 40
0.8890954876
 40
0.905128265
 40
0.9370074718
 40
0.9528594107
 40
0.9686481654
 40
1.0
 40
1.0
 40
1.0
 40
1.0
 10
10.8745791122
 20
7.1076922824
 30
0.0
 10
10.8745789776
 20
7.0996786519
 30
0.0
 10
10.8739908615
 20
7.0876709117
 30
0.0
 10
10.8720213863
 20
7.0718271289
 30
0.0
 10
10.8692825887
 20
7.0562369781
 30
0.0
 10
10.8644212645
 20
7.0371551818
 30
0.0
 10
10.8576601445
 20
7.018739775
 30
0.0
 10
10.8511683908
 20
7.0045676541
 30
0.0
 10
10.8457769949
 20
6.9942517953
 30
0.0
 10
10.8398701745
 20
6.9842567684
 30
0.0
 10
10.8313350784
 20
6.9714028649
 30
0.0
 10
10.8218104008
 20
6.9592565344
 30
0.0
 10
10.8113845768
 20
6.9479347893
 30
0.0
 10
10.8031313499
 20
6.939872027
 30
0.0
 10
10.794463005
 20
6.9322546501
 30
0.0
 10
10.7853983523
 20
6.9251005138
 30
0.0
 10
10.7759581926
 20
6.9184265538
 30
0.0
 10
10.7661646945
 20
6.9122474801
 30
0.0
 10
10.7560395927
 20
6.9065789139
 30
0.0
 10
10.7456062585
 20
6.9014345645
 30
0.0
 10
10.7348887657
 20
6.8968259127
 30
0.0
 10
10.7202296473
 20
6.8914037496
 30
0.0
 10
10.7013030496
 20
6.8860247905
 30
0.0
 10
10.6818511228
 20
6.8825861912
 30
0.0
 10
10.6660493579
 20
6.8810028088
 30
0.0
 10
10.6500476005
 20
6.8802028152
 30
0.0
 10
10.6298666656
 20
6.8806959223
 30
0.0
 10
10.6097431762
 20
6.8831664044
 30
0.0
 10
10.593744549
 20
6.8863113076
 30
0.0
 10
10.5777862805
 20
6.8902498368
 30
0.0
 10
10.5581104767
 20
6.8966232701
 30
0.0
 10
10.5390564171
 20
6.9048415846
 30
0.0
 10
10.5242551342
 20
6.912485242
 30
0.0
 10
10.5097525727
 20
6.9208470671
 30
0.0
 10
10.4923241027
 20
6.9325696768
 30
0.0
 10
10.4760198418
 20
6.9458568102
 30
0.0
 10
10.4637279473
 20
6.957357851
 30
0.0
 10
10.4519688023
 20
6.969413336
 30
0.0
 10
10.4410489289
 20
6.9822569849
 30
0.0
 10
10.4310572996
 20
6.9957906163
 30
0.0
 10
10.4240455285
 20
7.0062571837
 30
0.0
 10
10.4175329445
 20
7.0170162741
 30
0.0
 10
10.4115350649
 20
7.0280414597
 30
0.0
 10
10.4060652949
 20
7.0393047955
 30
0.0
 10
10.4011379773
 20
7.0507788318
 30
0.0
 10
10.3967643237
 20
7.0624351829
 30
0.0
 10
10.3916936801
 20
7.0781471125
 30
0.0
 10
10.3877533475
 20
7.0941432055
 30
0.0
 10
10.3849839987
 20
7.110294759
 30
0.0
 10
10.3830115913
 20
7.1264250159
 30
0.0
 10
10.3824104208
 20
7.1385930882
 30
0.0
 10
10.3824102734
 20
7.1466787995
 30
0.0
  0
SPLINE
  5
2F7
100
AcDbEntity
  8
0
100
AcDbSpline
 62
7
  6
CONTINUOUS
 70
0
 71
3
 72
56
 73
52
 74
0
 42
0.0000001
 43
0.0000001
 44
0.0000000001
 40
0.0
 40
0.0
 40
0.0
 40
0.0
 40
0.0310723444
 40
0.0465152282
 40
0.0618873079
 40
0.0924244521
 40
0.1227285817
 40
0.1378086463
 40
0.1528438045
 40
0.1678401149
 40
0.1828038444
 40
0.2126503405
 40
0.227557511
 40
0.2424602055
 40
0.2573657799
 40
0.272281562
 40
0.2872148089
 40
0.3021724291
 40
0.3171611937
 40
0.3321875071
 40
0.3472571476
 40
0.362375664
 40
0.3927682619
 40
0.4234071812
 40
0.4388308394
 40
0.454323239
 40
0.4855077933
 40
0.5169699546
 40
0.532806559
 40
0.5487076994
 40
0.5806824153
 40
0.6128739824
 40
0.6290441709
 40
0.6452543843
 40
0.6777639093
 40
0.7103643307
 40
0.7266873141
 40
0.7430142241
 40
0.7756456098
 40
0.7919458916
 40
0.8082247496
 40
0.8244760379
 40
0.8406940714
 40
0.8568734332
 40
0.8730088968
 40
0.8890954876
 40
0.905128265
 40
0.9370074719
 40
0.9528594107
 40
0.9686481654
 40
1.0
 40
1.0
 40
1.0
 40
1.0
 10
10.8045199174
 20
7.631277813
 30
0.0
 10
10.8045200521
 20
7.6392914431
 30
0.0
 10
10.8051081677
 20
7.6512991824
 30
0.0
 10
10.807077643
 20
7.6671429641
 30
0.0
 10
10.8098164405
 20
7.6827331143
 30
0.0
 10
10.8146777644
 20
7.7018149111
 30
0.0
 10
10.8214388844
 20
7.7202303188
 30
0.0
 10
10.8279306385
 20
7.7344024404
 30
0.0
 10
10.8333220346
 20
7.7447182998
 30
0.0
 10
10.8392288554
 20
7.7547133273
 30
0.0
 10
10.847763952
 20
7.7675672316
 30
0.0
 10
10.8572886303
 20
7.7797135625
 30
0.0
 10
10.8677144546
 20
7.7910353079
 30
0.0
 10
10.8759676817
 20
7.7990980702
 30
0.0
 10
10.8846360266
 20
7.8067154467
 30
0.0
 10
10.8937006789
 20
7.8138695827
 30
0.0
 10
10.903140838
 20
7.8205435422
 30
0.0
 10
10.9129343355
 20
7.8267226154
 30
0.0
 10
10.9230594366
 20
7.8323911812
 30
0.0
 10
10.9334927702
 20
7.8375355305
 30
0.0
 10
10.9442102626
 20
7.8421441821
 30
0.0
 10
10.9588693807
 20
7.8475663451
 30
0.0
 10
10.9777959783
 20
7.8529453045
 30
0.0
 10
10.9972479052
 20
7.8563839039
 30
0.0
 10
11.0130496704
 20
7.8579672865
 30
0.0
 10
11.0290514282
 20
7.8587672801
 30
0.0
 10
11.0492323635
 20
7.8582741731
 30
0.0
 10
11.0693558532
 20
7.855803691
 30
0.0
 10
11.0853544805
 20
7.8526587877
 30
0.0
 10
11.101312749
 20
7.8487202586
 30
0.0
 10
11.1209885528
 20
7.8423468253
 30
0.0
 10
11.1400426123
 20
7.8341285109
 30
0.0
 10
11.1548438953
 20
7.8264848535
 30
0.0
 10
11.1693464567
 20
7.8181230285
 30
0.0
 10
11.1867749266
 20
7.8064004188
 30
0.0
 10
11.2030791876
 20
7.7931132855
 30
0.0
 10
11.215371082
 20
7.7816122446
 30
0.0
 10
11.2271302271
 20
7.7695567596
 30
0.0
 10
11.2380501005
 20
7.7567131108
 30
0.0
 10
11.2480417299
 20
7.7431794793
 30
0.0
 10
11.2550535011
 20
7.7327129119
 30
0.0
 10
11.2615660851
 20
7.7219538214
 30
0.0
 10
11.2675639647
 20
7.7109286357
 30
0.0
 10
11.2730337347
 20
7.6996652999
 30
0.0
 10
11.2779610523
 20
7.6881912636
 30
0.0
 10
11.2823347059
 20
7.6765349125
 30
0.0
 10
11.2874053496
 20
7.6608229828
 30
0.0
 10
11.2913456822
 20
7.6448268898
 30
0.0
 10
11.294115031
 20
7.6286753363
 30
0.0
 10
11.2960874383
 20
7.6125450795
 30
0.0
 10
11.2966886089
 20
7.6003770071
 30
0.0
 10
11.2966887563
 20
7.5922912959
 30
0.0
  0
SPLINE
  5
2F8
100
AcDbEntity
  8
0
100
AcDbSpline
 62
7
  6
CONTINUOUS
 70
0
 71
3
 72
56
 73
52
 74
0
 42
0.0000001
 43
0.0000001
 44
0.0000000001
 40
0.0
 40
0.0
 40
0.0
 40
0.0
 40
0.031072346
 40
0.0465152317
 40
0.0618873124
 40
0.0924244558
 40
0.1227285839
 40
0.1378086476
 40
0.152843805
 40
0.1678401144
 40
0.1828038429
 40
0.2126503375
 40
0.2275575076
 40
0.2424602021
 40
0.2573657768
 40
0.2722815596
 40
0.2872148075
 40
0.3021724288
 40
0.3171611944
 40
0.3321875086
 40
0.3472571497
 40
0.3623756664
 40
0.3927682644
 40
0.4234071833
 40
0.4388308412
 40
0.4543232404
 40
0.485507794
 40
0.5169699549
 40
0.5328065592
 40
0.5487076996
 40
0.5806824155
 40
0.6128739827
 40
0.6290441713
 40
0.6452543848
 40
0.6777639099
 40
0.7103643313
 40
0.7266873147
 40
0.7430142246
 40
0.7756456102
 40
0.791945892
 40
0.80822475
 40
0.8244760382
 40
0.8406940716
 40
0.8568734333
 40
0.8730088969
 40
0.8890954876
 40
0.905128265
 40
0.9370074718
 40
0.9528594107
 40
0.9686481654
 40
1.0
 40
1.0
 40
1.0
 40
1.0
 10
11.2966887583
 20
7.5922913966
 30
0.0
 10
11.2966886237
 20
7.5842777661
 30
0.0
 10
11.2961005076
 20
7.5722700258
 30
0.0
 10
11.2941310325
 20
7.556426243
 30
0.0
 10
11.2913922348
 20
7.5408360922
 30
0.0
 10
11.2865309106
 20
7.5217542959
 30
0.0
 10
11.2797697906
 20
7.5033388891
 30
0.0
 10
11.2732780369
 20
7.4891667683
 30
0.0
 10
11.267886641
 20
7.4788509095
 30
0.0
 10
11.2619798206
 20
7.4688558825
 30
0.0
 10
11.2534447245
 20
7.456001979
 30
0.0
 10
11.2439200469
 20
7.4438556486
 30
0.0
 10
11.2334942229
 20
7.4325339035
 30
0.0
 10
11.225240996
 20
7.4244711411
 30
0.0
 10
11.2165726511
 20
7.4168537643
 30
0.0
 10
11.2075079984
 20
7.409699628
 30
0.0
 10
11.1980678387
 20
7.403025668
 30
0.0
 10
11.1882743406
 20
7.3968465943
 30
0.0
 10
11.1781492388
 20
7.391178028
 30
0.0
 10
11.1677159046
 20
7.3860336786
 30
0.0
 10
11.1569984118
 20
7.3814250269
 30
0.0
 10
11.1423392934
 20
7.3760028637
 30
0.0
 10
11.1234126957
 20
7.3706239047
 30
0.0
 10
11.1039607689
 20
7.3671853054
 30
0.0
 10
11.088159004
 20
7.3656019229
 30
0.0
 10
11.0721572466
 20
7.3648019293
 30
0.0
 10
11.0519763117
 20
7.3652950365
 30
0.0
 10
11.0318528223
 20
7.3677655186
 30
0.0
 10
11.0158541951
 20
7.3709104218
 30
0.0
 10
10.9998959266
 20
7.3748489509
 30
0.0
 10
10.9802201228
 20
7.3812223842
 30
0.0
 10
10.9611660632
 20
7.3894406987
 30
0.0
 10
10.9463647803
 20
7.3970843561
 30
0.0
 10
10.9318622188
 20
7.4054461812
 30
0.0
 10
10.9144337488
 20
7.417168791
 30
0.0
 10
10.8981294879
 20
7.4304559243
 30
0.0
 10
10.8858375934
 20
7.4419569652
 30
0.0
 10
10.8740784484
 20
7.4540124502
 30
0.0
 10
10.863158575
 20
7.466856099
 30
0.0
 10
10.8531669457
 20
7.4803897305
 30
0.0
 10
10.8461551746
 20
7.4908562978
 30
0.0
 10
10.8396425906
 20
7.5016153883
 30
0.0
 10
10.833644711
 20
7.5126405739
 30
0.0
 10
10.828174941
 20
7.5239039097
 30
0.0
 10
10.8232476234
 20
7.535377946
 30
0.0
 10
10.8188739698
 20
7.547034297
 30
0.0
 10
10.8138033262
 20
7.5627462266
 30
0.0
 10
10.8098629936
 20
7.5787423197
 30
0.0
 10
10.8070936448
 20
7.5948938732
 30
0.0
 10
10.8051212374
 20
7.61102413
 30
0.0
 10
10.8045200669
 20
7.6231922024
 30
0.0
 10
10.8045199195
 20
7.6312779136
 30
0.0
  0
SPLINE
  5
2F9
100
AcDbEntity
  8
0
100
AcDbSpline
 62
7
  6
CONTINUOUS
 70
0
 71
3
 72
15
 73
11
 74
0
 42
0.0000001
 43
0.0000001
 44
0.0000000001
 40
0.0
 40
0.0
 40
0.0
 40
0.0
 40
0.1109250405
 40
0.2233469299
 40
0.3386953783
 40
0.4582856549
 40
0.5832870145
 40
0.7147086212
 40
0.8533918606
 40
1.0
 40
1.0
 40
1.0
 40
1.0
 10
10.6082231468
 20
11.5070432296
 30
0.0
 10
10.6082231597
 20
11.5075406896
 30
0.0
 10
10.6082841776
 20
11.5085433533
 30
0.0
 10
10.6085578557
 20
11.5100408201
 30
0.0
 10
10.609012919
 20
11.5115340991
 30
0.0
 10
10.6096483472
 20
11.513021115
 30
0.0
 10
10.6104628504
 20
11.5145005314
 30
0.0
 10
10.6114551819
 20
11.5159711417
 30
0.0
 10
10.6126239807
 20
11.5174316218
 30
0.0
 10
10.6134946836
 20
11.5183706809
 30
0.0
 10
10.6139567232
 20
11.5188384496
 30
0.0
  0
SPLINE
  5
2FA
100
AcDbEntity
  8
0
100
AcDbSpline
 62
7
  6
CONTINUOUS
 70
0
 71
3
 72
11
 73
7
 74
0
 42
0.0000001
 43
0.0000001
 44
0.0000000001
 40
0.0
 40
0.0
 40
0.0
 40
0.0
 40
0.2650066933
 40
0.5197779513
 40
0.7646443457
 40
1.0
 40
1.0
 40
1.0
 40
1.0
 10
10.1876439671
 20
9.8372236352
 30
0.0
 10
10.1862699867
 20
9.8383498992
 30
0.0
 10
10.1836154218
 20
9.840608818
 30
0.0
 10
10.1798484282
 20
9.8440876822
 30
0.0
 10
10.1763778011
 20
9.8475876395
 30
0.0
 10
10.1742212112
 20
9.849980071
 30
0.0
 10
10.1731959189
 20
9.8511793542
 30
0.0
  0
SPLINE
  5
2FB
100
AcDbEntity
  8
0
100
AcDbSpline
 62
7
  6
CONTINUOUS
 70
0
 71
3
 72
23
 73
19
 74
0
 42
0.0000001
 43
0.0000001
 44
0.0000000001
 40
0.0
 40
0.0
 40
0.0
 40
0.0
 40
0.0815284905
 40
0.160682644
 40
0.2374079103
 40
0.311654719
 40
0.3833779941
 40
0.4525387604
 40
0.5191033469
 40
0.5830456532
 40
0.6443461373
 40
0.7029946426
 40
0.7589895566
 40
0.8123412508
 40
0.8630717483
 40
0.911218784
 40
0.9568364707
 40
1.0
 40
1.0
 40
1.0
 40
1.0
 10
10.4802338602
 20
11.0590688724
 30
0.0
 10
10.4771225305
 20
11.0582400626
 30
0.0
 10
10.4710028547
 20
11.0565596237
 30
0.0
 10
10.4620031393
 20
11.0539284734
 30
0.0
 10
10.4533252719
 20
11.0512259847
 30
0.0
 10
10.4449777027
 20
11.0484548525
 30
0.0
 10
10.4369685346
 20
11.0456177205
 30
0.0
 10
10.42930552
 20
11.0427174329
 30
0.0
 10
10.421996092
 20
11.0397567288
 30
0.0
 10
10.4150472879
 20
11.0367385836
 30
0.0
 10
10.40846583
 20
11.0336658154
 30
0.0
 10
10.4022580081
 20
11.0305415034
 30
0.0
 10
10.3964298079
 20
11.027368525
 30
0.0
 10
10.3909867371
 20
11.0241500158
 30
0.0
 10
10.3859340304
 20
11.0208888933
 30
0.0
 10
10.3812763479
 20
11.0175882315
 30
0.0
 10
10.3770183366
 20
11.0142510938
 30
0.0
 10
10.3743772341
 20
11.0119414534
 30
0.0
 10
10.3731293322
 20
11.0107801434
 30
0.0
  0
SPLINE
  5
2FC
100
AcDbEntity
  8
0
100
AcDbSpline
 62
7
  6
CONTINUOUS
 70
0
 71
3
 72
10
 73
6
 74
0
 42
0.0000001
 43
0.0000001
 44
0.0000000001
 40
0.0
 40
0.0
 40
0.0
 40
0.0
 40
0.253227347
 40
0.5043984707
 40
1.0
 40
1.0
 40
1.0
 40
1.0
 10
10.1876439671
 20
9.8372236352
 30
0.0
 10
10.1944271357
 20
9.8329997244
 30
0.0
 10
10.2080244677
 20
9.8247228278
 30
0.0
 10
10.2353400863
 20
9.8089207687
 30
0.0
 10
10.2561674427
 20
9.797865232
 30
0.0
 10
10.2701885709
 20
9.7909377732
 30
0.0
  0
SPLINE
  5
2FD
100
AcDbEntity
  8
0
100
AcDbSpline
 62
7
  6
CONTINUOUS
 70
0
 71
3
 72
10
 73
6
 74
0
 42
0.0000001
 43
0.0000001
 44
0.0000000001
 40
0.0
 40
0.0
 40
0.0
 40
0.0
 40
0.253227347
 40
0.5043984707
 40
1.0
 40
1.0
 40
1.0
 40
1.0
 10
11.3968023033
 20
10.5030003286
 30
0.0
 10
11.3900191347
 20
10.5072242394
 30
0.0
 10
11.3764218027
 20
10.515501136
 30
0.0
 10
11.3491061841
 20
10.5313031951
 30
0.0
 10
11.3282788277
 20
10.5423587318
 30
0.0
 10
11.3142576995
 20
10.5492861906
 30
0.0
  0
SPLINE
  5
2FE
100
AcDbEntity
  8
0
100
AcDbSpline
 62
7
  6
CONTINUOUS
 70
0
 71
3
 72
9
 73
5
 74
0
 42
0.0000001
 43
0.0000001
 44
0.0000000001
 40
0.0
 40
0.0
 40
0.0
 40
0.0
 40
0.5233671592
 40
1.0
 40
1.0
 40
1.0
 40
1.0
 10
10.8888157235
 20
11.7592121928
 30
0.0
 10
10.8892533713
 20
11.7596349281
 30
0.0
 10
10.8900498916
 20
11.7604855715
 30
0.0
 10
10.8907322107
 20
11.7614325146
 30
0.0
 10
10.8910190725
 20
11.7619066259
 30
0.0
  0
SPLINE
  5
2FF
100
AcDbEntity
  8
0
100
AcDbSpline
 62
7
  6
CONTINUOUS
 70
0
 71
3
 72
15
 73
11
 74
0
 42
0.0000001
 43
0.0000001
 44
0.0000000001
 40
0.0
 40
0.0
 40
0.0
 40
0.0
 40
0.1465169005
 40
0.2851222022
 40
0.416506154
 40
0.5415074283
 40
0.6611243084
 40
0.7765201511
 40
0.8890036236
 40
1.0
 40
1.0
 40
1.0
 40
1.0
 10
10.9705251754
 20
11.5188023123
 30
0.0
 10
10.9709844639
 20
11.5183358208
 30
0.0
 10
10.9718499414
 20
11.5173994135
 30
0.0
 10
10.9730114688
 20
11.5159431717
 30
0.0
 10
10.9739976283
 20
11.514476955
 30
0.0
 10
10.9748070939
 20
11.5130019661
 30
0.0
 10
10.9754385078
 20
11.5115194005
 30
0.0
 10
10.9758907403
 20
11.5100306815
 30
0.0
 10
10.9761625615
 20
11.5085377995
 30
0.0
 10
10.9762231365
 20
11.5075382575
 30
0.0
 10
10.9762231236
 20
11.50704232
 30
0.0
  0
SPLINE
  5
300
100
AcDbEntity
  8
0
100
AcDbSpline
 62
7
  6
CONTINUOUS
 70
0
 71
3
 72
60
 73
56
 74
0
 42
0.0000001
 43
0.0000001
 44
0.0000000001
 40
0.0
 40
0.0
 40
0.0
 40
0.0
 40
0.0081222414
 40
0.0169168816
 40
0.0264087866
 40
0.0366143821
 40
0.0475415905
 40
0.0591912493
 40
0.0715586647
 40
0.0846348479
 40
0.098406648
 40
0.1128577747
 40
0.127968871
 40
0.1437180406
 40
0.160081135
 40
0.1770317977
 40
0.1945419791
 40
0.2125817114
 40
0.250121824
 40
0.2893859917
 40
0.3300881417
 40
0.3719273433
 40
0.4145911502
 40
0.4577590001
 40
0.5011053144
 40
0.5443028585
 40
0.5870257719
 40
0.6289529119
 40
0.6697709467
 40
0.7091777726
 40
0.7468857915
 40
0.7650183901
 40
0.7826270107
 40
0.7996814573
 40
0.8161532565
 40
0.8320158302
 40
0.8472444911
 40
0.8618170191
 40
0.8757135005
 40
0.8889170941
 40
0.9014140802
 40
0.9131945391
 40
0.9242530793
 40
0.934589459
 40
0.9442101269
 40
0.9531292893
 40
0.9613714202
 40
0.9689735769
 40
0.9759888588
 40
0.9824901798
 40
0.9885734679
 40
0.9914974722
 40
0.9943641549
 40
0.9971919122
 40
1.0
 40
1.0
 40
1.0
 40
1.0
 10
10.9699534978
 20
11.5314223158
 30
0.0
 10
10.9692098528
 20
11.5307040099
 30
0.0
 10
10.9675908425
 20
11.529279652
 30
0.0
 10
10.9649034441
 20
11.5272558762
 30
0.0
 10
10.9618684935
 20
11.5252659772
 30
0.0
 10
10.958492183
 20
11.5233137658
 30
0.0
 10
10.954780837
 20
11.5214027624
 30
0.0
 10
10.9507416528
 20
11.5195367648
 30
0.0
 10
10.9463825885
 20
11.517719405
 30
0.0
 10
10.9417122564
 20
11.5159544003
 30
0.0
 10
10.9367399665
 20
11.5142452388
 30
0.0
 10
10.9314756517
 20
11.5125954446
 30
0.0
 10
10.9259298777
 20
11.5110083418
 30
0.0
 10
10.9201137944
 20
11.5094871583
 30
0.0
 10
10.9140391103
 20
11.5080350218
 30
0.0
 10
10.9077180775
 20
11.5066548452
 30
0.0
 10
10.9011634377
 20
11.5053494753
 30
0.0
 10
10.8920082894
 20
11.5036902405
 30
0.0
 10
10.8800769806
 20
11.5018316126
 30
0.0
 10
10.8652341292
 20
11.4999651844
 30
0.0
 10
10.8498014689
 20
11.4984496765
 30
0.0
 10
10.8339036861
 20
11.4972975352
 30
0.0
 10
10.8176691161
 20
11.4965182688
 30
0.0
 10
10.8012289286
 20
11.4961182906
 30
0.0
 10
10.7847159613
 20
11.4961008937
 30
0.0
 10
10.7682636637
 20
11.4964662181
 30
0.0
 10
10.7520049719
 20
11.4972112568
 30
0.0
 10
10.7360712536
 20
11.4983298793
 30
0.0
 10
10.7205911415
 20
11.4998128568
 30
0.0
 10
10.7056897145
 20
11.5016480104
 30
0.0
 10
10.6937025375
 20
11.5034811376
 30
0.0
 10
10.6844973885
 20
11.5051206163
 30
0.0
 10
10.6779017281
 20
11.5064121197
 30
0.0
 10
10.6715373047
 20
11.5077788995
 30
0.0
 10
10.6654169512
 20
11.509218198
 30
0.0
 10
10.6595530094
 20
11.5107270483
 30
0.0
 10
10.6539572951
 20
11.5123024315
 30
0.0
 10
10.6486410561
 20
11.5139410731
 30
0.0
 10
10.6436149695
 20
11.5156397091
 30
0.0
 10
10.6388890835
 20
11.5173948405
 30
0.0
 10
10.6344728196
 20
11.519202946
 30
0.0
 10
10.6303749345
 20
11.5210604025
 30
0.0
 10
10.6266034709
 20
11.5229634762
 30
0.0
 10
10.6231657965
 20
11.524908529
 30
0.0
 10
10.6200684748
 20
11.5268917842
 30
0.0
 10
10.6173174182
 20
11.5289097462
 30
0.0
 10
10.6149177641
 20
11.5309589844
 30
0.0
 10
10.6128741399
 20
11.5330364318
 30
0.0
 10
10.6111908687
 20
11.5351396016
 30
0.0
 10
10.6098724383
 20
11.5372655701
 30
0.0
 10
10.6090716641
 20
11.5390788327
 30
0.0
 10
10.6086292317
 20
11.5405256174
 30
0.0
 10
10.608394997
 20
11.5415987495
 30
0.0
 10
10.6082544178
 20
11.5426731648
 30
0.0
 10
10.6082231375
 20
11.5433909611
 30
0.0
 10
10.6082231468
 20
11.5437484132
 30
0.0
  0
SPLINE
  5
301
100
AcDbEntity
  8
0
100
AcDbSpline
 62
7
  6
CONTINUOUS
 70
0
 71
3
 72
23
 73
19
 74
0
 42
0.0000001
 43
0.0000001
 44
0.0000000001
 40
0.0
 40
0.0
 40
0.0
 40
0.0
 40
0.0814582479
 40
0.1609450245
 40
0.238299589
 40
0.3133607229
 40
0.3859682611
 40
0.45596991
 40
0.5232282153
 40
0.5876284739
 40
0.6490874229
 40
0.7075622014
 40
0.7630587504
 40
0.8156378559
 40
0.8654184908
 40
0.9125776431
 40
0.9573461344
 40
1.0
 40
1.0
 40
1.0
 40
1.0
 10
10.4788083415
 20
11.0621117548
 30
0.0
 10
10.4799761936
 20
11.0597255133
 30
0.0
 10
10.4823143046
 20
11.0550256957
 30
0.0
 10
10.4858792322
 20
11.0481192265
 30
0.0
 10
10.4894612446
 20
11.0414574677
 30
0.0
 10
10.4930600986
 20
11.0350609151
 30
0.0
 10
10.4966753029
 20
11.0289505025
 30
0.0
 10
10.5003060212
 20
11.0231472158
 30
0.0
 10
10.5039510667
 20
11.0176715012
 30
0.0
 10
10.5076089021
 20
11.0125426331
 30
0.0
 10
10.5112776618
 20
11.0077780204
 30
0.0
 10
10.5149551893
 20
11.0033924861
 30
0.0
 10
10.5186390576
 20
10.9993975832
 30
0.0
 10
10.5223266835
 20
10.9958010921
 30
0.0
 10
10.5260153376
 20
10.9926067174
 30
0.0
 10
10.5297023693
 20
10.9898138837
 30
0.0
 10
10.5333846309
 20
10.9874180632
 30
0.0
 10
10.5358899479
 20
10.9860495022
 30
0.0
 10
10.537137373
 20
10.9854337513
 30
0.0
  0
SPLINE
  5
302
100
AcDbEntity
  8
0
100
AcDbSpline
 62
7
  6
CONTINUOUS
 70
0
 71
3
 72
22
 73
18
 74
0
 42
0.0000001
 43
0.0000001
 44
0.0000000001
 40
0.0
 40
0.0
 40
0.0
 40
0.0
 40
0.1559281194
 40
0.2315366213
 40
0.3053894509
 40
0.3773385562
 40
0.4472261964
 40
0.5148887545
 40
0.5801606
 40
0.6428764659
 40
0.7028787796
 40
0.7600235424
 40
0.8141895539
 40
0.8652883424
 40
0.9132734774
 40
0.9581531097
 40
1.0
 40
1.0
 40
1.0
 40
1.0
 10
11.1056379289
 20
11.1168348159
 30
0.0
 10
11.1040074598
 20
11.12145222
 30
0.0
 10
11.1015248933
 20
11.1282872791
 30
0.0
 10
11.0980958544
 20
11.1372440691
 30
0.0
 10
11.0955267691
 20
11.1437055359
 30
0.0
 10
11.0929337652
 20
11.1499634412
 30
0.0
 10
11.0903167223
 20
11.1560000885
 30
0.0
 10
11.0876758852
 20
11.1617967784
 30
0.0
 10
11.0850118076
 20
11.1673340165
 30
0.0
 10
11.0823253983
 20
11.1725918207
 30
0.0
 10
11.079618047
 20
11.1775501185
 30
0.0
 10
11.0768914701
 20
11.1821891857
 30
0.0
 10
11.074147875
 20
11.1864903177
 30
0.0
 10
11.0713899065
 20
11.1904363944
 30
0.0
 10
11.0686202965
 20
11.1940125523
 30
0.0
 10
11.0658423905
 20
11.1972064705
 30
0.0
 10
11.0639214879
 20
11.1991412046
 30
0.0
 10
11.0629594161
 20
11.2000364541
 30
0.0
  0
LINE
  5
303
100
AcDbEntity
  8
0
100
AcDbLine
 62
7
  6
CONTINUOUS
 10
10.6138866331
 20
11.519288227
 11
10.6139091877
 21
11.5191860608
  0
SPLINE
  5
304
100
AcDbEntity
  8
0
100
AcDbSpline
 62
7
  6
CONTINUOUS
 70
0
 71
3
 72
49
 73
45
 74
0
 42
0.0000001
 43
0.0000001
 44
0.0000000001
 40
0.0
 40
0.0
 40
0.0
 40
0.0
 40
0.0108889259
 40
0.0162710086
 40
0.0216038408
 40
0.032125829
 40
0.042474991
 40
0.0527022663
 40
0.0628650199
 40
0.073037416
 40
0.0832864981
 40
0.0936792622
 40
0.1042739134
 40
0.1151187503
 40
0.1262560819
 40
0.1495308476
 40
0.161717453
 40
0.1742898042
 40
0.1872575277
 40
0.20062648
 40
0.2143977762
 40
0.2285707221
 40
0.2581003826
 40
0.2891566926
 40
0.3216491107
 40
0.3554629829
 40
0.3904643607
 40
0.4265037506
 40
0.4634192018
 40
0.5010389399
 40
0.5391836628
 40
0.5776686563
 40
0.6163057914
 40
0.654905424
 40
0.6932782793
 40
0.7312373415
 40
0.7685997797
 40
0.8051890061
 40
0.8408368388
 40
0.8753859198
 40
0.9086925214
 40
0.9406298495
 40
0.9710921459
 40
1.0
 40
1.0
 40
1.0
 40
1.0
 10
10.6139091877
 20
11.5191860608
 30
0.0
 10
10.6141619951
 20
11.5180507047
 30
0.0
 10
10.6146429543
 20
11.5163749755
 30
0.0
 10
10.6154680378
 20
11.5142189142
 30
0.0
 10
10.6163958424
 20
11.5121476083
 30
0.0
 10
10.6177419826
 20
11.5096873614
 30
0.0
 10
10.6196154791
 20
11.50693851
 30
0.0
 10
10.621699013
 20
11.5043956994
 30
0.0
 10
10.6239622442
 20
11.5020386545
 30
0.0
 10
10.6263873185
 20
11.4998459474
 30
0.0
 10
10.628962259
 20
11.4977924784
 30
0.0
 10
10.6316847152
 20
11.4958606336
 30
0.0
 10
10.634551822
 20
11.4940302729
 30
0.0
 10
10.637566068
 20
11.4922892431
 30
0.0
 10
10.6418458452
 20
11.4900388535
 30
0.0
 10
10.6463742608
 20
11.487962087
 30
0.0
 10
10.6511268241
 20
11.486027196
 30
0.0
 10
10.6548994196
 20
11.4846085744
 30
0.0
 10
10.6588251404
 20
11.4832423701
 30
0.0
 10
10.6629028728
 20
11.4819267696
 30
0.0
 10
10.6671308858
 20
11.4806610173
 30
0.0
 10
10.6730462762
 20
11.4790165042
 30
0.0
 10
10.6807988469
 20
11.477093207
 30
0.0
 10
10.6905231678
 20
11.475013701
 30
0.0
 10
10.7007541049
 20
11.4731366862
 30
0.0
 10
10.7114475663
 20
11.4714677376
 30
0.0
 10
10.7225543754
 20
11.4700128816
 30
0.0
 10
10.7340209757
 20
11.4687779922
 30
0.0
 10
10.7457902849
 20
11.4677684361
 30
0.0
 10
10.7578023821
 20
11.4669888183
 30
0.0
 10
10.769995157
 20
11.466442812
 30
0.0
 10
10.7823049112
 20
11.4661330446
 30
0.0
 10
10.7946669368
 20
11.4660610256
 30
0.0
 10
10.8070160791
 20
11.466227108
 30
0.0
 10
10.8192872924
 20
11.4666304801
 30
0.0
 10
10.8314161976
 20
11.467269185
 30
0.0
 10
10.8433396518
 20
11.4681401705
 30
0.0
 10
10.8549963353
 20
11.4692393775
 30
0.0
 10
10.8663273682
 20
11.4705618746
 30
0.0
 10
10.8772769835
 20
11.472102058
 30
0.0
 10
10.887793236
 20
11.4738539384
 30
0.0
 10
10.8978289345
 20
11.4758115989
 30
0.0
 10
10.9073422751
 20
11.477969763
 30
0.0
 10
10.9134773374
 20
11.4795830741
 30
0.0
 10
10.9164475335
 20
11.4804277034
 30
0.0
  0
SPLINE
  5
305
100
AcDbEntity
  8
0
100
AcDbSpline
 62
7
  6
CONTINUOUS
 70
0
 71
3
 72
16
 73
12
 74
0
 42
0.0000001
 43
0.0000001
 44
0.0000000001
 40
0.0
 40
0.0
 40
0.0
 40
0.0
 40
0.1480511837
 40
0.2876965988
 40
0.4196100259
 40
0.4829485653
 40
0.5446959392
 40
0.6639365434
 40
0.7786069088
 40
0.8901135234
 40
1.0
 40
1.0
 40
1.0
 40
1.0
 10
11.0539890496
 20
11.198145556
 30
0.0
 10
11.054731831
 20
11.1988630278
 30
0.0
 10
11.0561316767
 20
11.2003035929
 30
0.0
 10
11.0580138676
 20
11.2025486395
 30
0.0
 10
11.0593639289
 20
11.2044591102
 30
0.0
 10
11.0602936793
 20
11.2059925678
 30
0.0
 10
11.0611056647
 20
11.2074915895
 30
0.0
 10
11.0619494679
 20
11.2093779812
 30
0.0
 10
11.0626833258
 20
11.2116785867
 30
0.0
 10
11.0631247
 20
11.2139865597
 30
0.0
 10
11.0632231173
 20
11.2155325863
 30
0.0
 10
11.063223123
 20
11.2162990838
 30
0.0
  0
SPLINE
  5
306
100
AcDbEntity
  8
0
100
AcDbSpline
 62
7
  6
CONTINUOUS
 70
0
 71
3
 72
22
 73
18
 74
0
 42
0.0000001
 43
0.0000001
 44
0.0000000001
 40
0.0
 40
0.0
 40
0.0
 40
0.0
 40
0.0426104053
 40
0.0876595874
 40
0.1352518113
 40
0.1854671361
 40
0.2383633486
 40
0.2939817003
 40
0.3523466702
 40
0.4134705482
 40
0.4773538198
 40
0.543986699
 40
0.6133515537
 40
0.6854215615
 40
0.7601643885
 40
0.8375402065
 40
1.0
 40
1.0
 40
1.0
 40
1.0
 10
11.0329340205
 20
11.2970532438
 30
0.0
 10
11.032316272
 20
11.2977141763
 30
0.0
 10
11.030998005
 20
11.2990301014
 30
0.0
 10
11.0288460927
 20
11.3009336665
 30
0.0
 10
11.0264682477
 20
11.3028187202
 30
0.0
 10
11.0238667703
 20
11.3046834486
 30
0.0
 10
11.0210440793
 20
11.3065263268
 30
0.0
 10
11.0180027564
 20
11.3083455787
 30
0.0
 10
11.0147456725
 20
11.3101396128
 30
0.0
 10
11.0112758558
 20
11.3119067049
 30
0.0
 10
11.0075965741
 20
11.3136452015
 30
0.0
 10
11.0037113049
 20
11.3153534868
 30
0.0
 10
10.9996237074
 20
11.3170298753
 30
0.0
 10
10.9953376824
 20
11.318672838
 30
0.0
 10
10.9908572656
 20
11.3202807534
 30
0.0
 10
10.9845266615
 20
11.3224105659
 30
0.0
 10
10.9796548219
 20
11.3238966828
 30
0.0
 10
10.9763400336
 20
11.3248503705
 30
0.0
  0
SPLINE
  5
307
100
AcDbEntity
  8
0
100
AcDbSpline
 62
7
  6
CONTINUOUS
 70
0
 71
3
 72
21
 73
17
 74
0
 42
0.0000001
 43
0.0000001
 44
0.0000000001
 40
0.0
 40
0.0
 40
0.0
 40
0.0
 40
0.1600337168
 40
0.3104090263
 40
0.3818798878
 40
0.4508284956
 40
0.5172291954
 40
0.5810642218
 40
0.6423218963
 40
0.7009985755
 40
0.7570999505
 40
0.8106411719
 40
0.8616522698
 40
0.9101762643
 40
0.9562686826
 40
1.0
 40
1.0
 40
1.0
 40
1.0
 10
10.6081019236
 20
11.3248491291
 30
0.0
 10
10.6049461303
 20
11.3239411426
 30
0.0
 10
10.598851255
 20
11.3220867244
 30
0.0
 10
10.5914375404
 20
11.319542836
 30
0.0
 10
10.585855187
 20
11.3174340762
 30
0.0
 10
10.5819181457
 20
11.3158488023
 30
0.0
 10
10.5781629434
 20
11.3142342855
 30
0.0
 10
10.5745927748
 20
11.3125919513
 30
0.0
 10
10.5712106992
 20
11.3109231808
 30
0.0
 10
10.5680196142
 20
11.3092293913
 30
0.0
 10
10.5650222157
 20
11.3075120922
 30
0.0
 10
10.5622210576
 20
11.3057726407
 30
0.0
 10
10.5596184371
 20
11.3040125134
 30
0.0
 10
10.5572165339
 20
11.3022330536
 30
0.0
 10
10.5550175706
 20
11.3004358947
 30
0.0
 10
10.5536530633
 20
11.2991951234
 30
0.0
 10
10.5530076425
 20
11.2985716947
 30
0.0
  0
SPLINE
  5
308
100
AcDbEntity
  8
0
100
AcDbSpline
 62
7
  6
CONTINUOUS
 70
0
 71
3
 72
17
 73
13
 74
0
 42
0.0000001
 43
0.0000001
 44
0.0000000001
 40
0.0
 40
0.0
 40
0.0
 40
0.0
 40
0.1282950638
 40
0.2563077561
 40
0.3837262658
 40
0.5102327789
 40
0.6354761114
 40
0.7590804589
 40
0.8201785718
 40
0.8807125832
 40
0.9406229484
 40
1.0
 40
1.0
 40
1.0
 40
1.0
 10
11.0632231352
 20
11.2220946391
 30
0.0
 10
11.0632231352
 20
11.225634641
 30
0.0
 10
11.0628676275
 20
11.2327119796
 30
0.0
 10
11.0612794492
 20
11.2431971603
 30
0.0
 10
11.0586717321
 20
11.2534259987
 30
0.0
 10
11.0551032722
 20
11.2632783829
 30
0.0
 10
11.0506542237
 20
11.2726478879
 30
0.0
 10
11.0462773955
 20
11.2800103212
 30
0.0
 10
11.0424341244
 20
11.2855818369
 30
0.0
 10
11.039411682
 20
11.2895785716
 30
0.0
 10
11.0362522508
 20
11.2934061846
 30
0.0
 10
11.0340527739
 20
11.2958563057
 30
0.0
 10
11.0329340261
 20
11.2970532442
 30
0.0
  0
SPLINE
  5
309
100
AcDbEntity
  8
0
100
AcDbSpline
 62
7
  6
CONTINUOUS
 70
0
 71
3
 72
17
 73
13
 74
0
 42
0.0000001
 43
0.0000001
 44
0.0000000001
 40
0.0
 40
0.0
 40
0.0
 40
0.0
 40
0.0593778518
 40
0.1192871061
 40
0.1798210698
 40
0.2409192693
 40
0.3645232248
 40
0.489766381
 40
0.6162727947
 40
0.7436913884
 40
0.871704303
 40
1.0
 40
1.0
 40
1.0
 40
1.0
 10
10.5515122443
 20
11.2970532442
 30
0.0
 10
10.5503934814
 20
11.2958562895
 30
0.0
 10
10.5481940061
 20
11.2934061783
 30
0.0
 10
10.5450345897
 20
11.289578566
 30
0.0
 10
10.5420121608
 20
11.2855818584
 30
0.0
 10
10.538168893
 20
11.2800103521
 30
0.0
 10
10.5337920734
 20
11.2726479293
 30
0.0
 10
10.5293430247
 20
11.263278445
 30
0.0
 10
10.5257745599
 20
11.2534260681
 30
0.0
 10
10.5231668333
 20
11.2431972263
 30
0.0
 10
10.5215786436
 20
11.2327120209
 30
0.0
 10
10.5212231352
 20
11.2256346584
 30
0.0
 10
10.5212231352
 20
11.2220946391
 30
0.0
  0
SPLINE
  5
30A
100
AcDbEntity
  8
0
100
AcDbSpline
 62
7
  6
CONTINUOUS
 70
0
 71
3
 72
53
 73
49
 74
0
 42
0.0000001
 43
0.0000001
 44
0.0000000001
 40
0.0
 40
0.0
 40
0.0
 40
0.0
 40
0.0077403758
 40
0.01605376
 40
0.0249599533
 40
0.0344712958
 40
0.0445945107
 40
0.0553312676
 40
0.066679439
 40
0.0786333479
 40
0.0911845515
 40
0.1043219961
 40
0.1180324734
 40
0.1323008171
 40
0.147110054
 40
0.1624416954
 40
0.1945897315
 40
0.2285712957
 40
0.2641935835
 40
0.3012488277
 40
0.3395167901
 40
0.3787669889
 40
0.4187608922
 40
0.4592539134
 40
0.4999975196
 40
0.5407411353
 40
0.5812342388
 40
0.6212282437
 40
0.6604786094
 40
0.6987467608
 40
0.7358022486
 40
0.771424806
 40
0.8054066818
 40
0.8375550582
 40
0.8528868997
 40
0.8676963069
 40
0.8819648661
 40
0.8956755248
 40
0.9088132083
 40
0.921364592
 40
0.9333187412
 40
0.9446670953
 40
0.9554041303
 40
0.9655275514
 40
0.9750390162
 40
0.9839453768
 40
0.9922594995
 40
1.0
 40
1.0
 40
1.0
 40
1.0
 10
10.5995366303
 20
11.2681118883
 30
0.0
 10
10.6002888827
 20
11.2674118406
 30
0.0
 10
10.6019082734
 20
11.2660227659
 30
0.0
 10
10.6045648106
 20
11.264038785
 30
0.0
 10
10.6075293062
 20
11.2620847572
 30
0.0
 10
10.6107968612
 20
11.260163679
 30
0.0
 10
10.6143624399
 20
11.2582785646
 30
0.0
 10
10.6182203186
 20
11.2564323353
 30
0.0
 10
10.6223643381
 20
11.2546280383
 30
0.0
 10
10.62678779
 20
11.2528685602
 30
0.0
 10
10.6314835041
 20
11.2511568274
 30
0.0
 10
10.6364438244
 20
11.2494956392
 30
0.0
 10
10.6416606484
 20
11.2478877451
 30
0.0
 10
10.6471254338
 20
11.2463358216
 30
0.0
 10
10.6528292252
 20
11.244842389
 30
0.0
 10
10.6608680698
 20
11.2429018092
 30
0.0
 10
10.6714482629
 20
11.2406512607
 30
0.0
 10
10.6847453761
 20
11.2382607266
 30
0.0
 10
10.6987496449
 20
11.2361555394
 30
0.0
 10
10.7133689823
 20
11.2343497785
 30
0.0
 10
10.7285073569
 20
11.232855564
 30
0.0
 10
10.7440651862
 20
11.231682896
 30
0.0
 10
10.7599400888
 20
11.2308396226
 30
0.0
 10
10.7760275625
 20
11.2303313806
 30
0.0
 10
10.7922216804
 20
11.2301615679
 30
0.0
 10
10.8084158099
 20
11.2303313187
 30
0.0
 10
10.8245033112
 20
11.2308394991
 30
0.0
 10
10.8403782637
 20
11.2316827129
 30
0.0
 10
10.8559361583
 20
11.2328553219
 30
0.0
 10
10.8710746184
 20
11.2343494805
 30
0.0
 10
10.8856940565
 20
11.2361551862
 30
0.0
 10
10.8996984436
 20
11.2382603225
 30
0.0
 10
10.9129956904
 20
11.2406508052
 30
0.0
 10
10.9235760062
 20
11.2429013194
 30
0.0
 10
10.9316149575
 20
11.2448418595
 30
0.0
 10
10.9373188321
 20
11.2463352807
 30
0.0
 10
10.9427837056
 20
11.2478871702
 30
0.0
 10
10.9480006188
 20
11.2494950611
 30
0.0
 10
10.9529610358
 20
11.2511562119
 30
0.0
 10
10.9576568414
 20
11.2528679487
 30
0.0
 10
10.9620803957
 20
11.2546273863
 30
0.0
 10
10.9662245135
 20
11.25643169
 30
0.0
 10
10.9700825061
 20
11.2582778872
 30
0.0
 10
10.9736481699
 20
11.2601630118
 30
0.0
 10
10.9769158345
 20
11.2620840329
 30
0.0
 10
10.979880476
 20
11.2640380884
 30
0.0
 10
10.9825371557
 20
11.2660221079
 30
0.0
 10
10.9841566596
 20
11.2674112246
 30
0.0
 10
10.9849089518
 20
11.268111254
 30
0.0
  0
SPLINE
  5
30B
100
AcDbEntity
  8
0
100
AcDbSpline
 62
7
  6
CONTINUOUS
 70
0
 71
3
 72
11
 73
7
 74
0
 42
0.0000001
 43
0.0000001
 44
0.0000000001
 40
0.0
 40
0.0
 40
0.0
 40
0.0
 40
0.2353556543
 40
0.4802220487
 40
0.7349933067
 40
1.0
 40
1.0
 40
1.0
 40
1.0
 10
11.4112503514
 20
10.4890446096
 30
0.0
 10
11.4102250592
 20
10.4902438928
 30
0.0
 10
11.4080684693
 20
10.4926363243
 30
0.0
 10
11.4045978422
 20
10.4961362816
 30
0.0
 10
11.4008308486
 20
10.4996151458
 30
0.0
 10
11.3981762836
 20
10.5018740645
 30
0.0
 10
11.3968023033
 20
10.5030003286
 30
0.0
  0
SPLINE
  5
30C
100
AcDbEntity
  8
0
100
AcDbSpline
 62
7
  6
CONTINUOUS
 70
0
 71
3
 72
11
 73
7
 74
0
 42
0.0000001
 43
0.0000001
 44
0.0000000001
 40
0.0
 40
0.0
 40
0.0
 40
0.0
 40
0.245852917
 40
0.4946127303
 40
0.7460700602
 40
1.0
 40
1.0
 40
1.0
 40
1.0
 10
11.0529970959
 20
10.988243594
 30
0.0
 10
11.0574658865
 20
10.990451196
 30
0.0
 10
11.0663743754
 20
10.9950600182
 30
0.0
 10
11.0795718604
 20
11.0024546007
 30
0.0
 10
11.092683631
 20
11.0103225769
 30
0.0
 10
11.1013277768
 20
11.0158257708
 30
0.0
 10
11.1056379289
 20
11.0186409752
 30
0.0
  0
SPLINE
  5
30D
100
AcDbEntity
  8
0
100
AcDbSpline
 62
7
  6
CONTINUOUS
 70
0
 71
3
 72
16
 73
12
 74
0
 42
0.0000001
 43
0.0000001
 44
0.0000000001
 40
0.0
 40
0.0
 40
0.0
 40
0.0
 40
0.1090280875
 40
0.2197801533
 40
0.3338936721
 40
0.4528540158
 40
0.5145828286
 40
0.5779899551
 40
0.7103120523
 40
0.8507449858
 40
1.0
 40
1.0
 40
1.0
 40
1.0
 10
10.5212231474
 20
11.2162990838
 30
0.0
 10
10.5212231415
 20
11.2155047713
 30
0.0
 10
10.5213289521
 20
11.2139016627
 30
0.0
 10
10.521803268
 20
11.2115094382
 30
0.0
 10
10.5225916211
 20
11.2091255403
 30
0.0
 10
10.5234973002
 20
11.2071730372
 30
0.0
 10
10.5243683244
 20
11.2056219411
 30
0.0
 10
10.5253669761
 20
11.2040333901
 30
0.0
 10
10.5268169701
 20
11.2020552581
 30
0.0
 10
10.5288365931
 20
11.1997332761
 30
0.0
 10
10.5303367607
 20
11.1982459492
 30
0.0
 10
10.5311327799
 20
11.1975051713
 30
0.0
  0
SPLINE
  5
30E
100
AcDbEntity
  8
0
100
AcDbSpline
 62
7
  6
CONTINUOUS
 70
0
 71
3
 72
52
 73
48
 74
0
 42
0.0000001
 43
0.0000001
 44
0.0000000001
 40
0.0
 40
0.0
 40
0.0
 40
0.0
 40
0.0064798012
 40
0.0134582768
 40
0.0209915061
 40
0.0291208191
 40
0.0378748937
 40
0.0472730277
 40
0.0573261788
 40
0.068039422
 40
0.079412148
 40
0.091439864
 40
0.1041140436
 40
0.1174233794
 40
0.1313535406
 40
0.1458880077
 40
0.1766913377
 40
0.2096636319
 40
0.2446077945
 40
0.2813057886
 40
0.3195220379
 40
0.3590064277
 40
0.399497267
 40
0.4407236425
 40
0.4824082784
 40
0.5242697709
 40
0.5660252118
 40
0.6073926547
 40
0.6480934614
 40
0.6878549821
 40
0.7264129142
 40
0.763514005
 40
0.7989187961
 40
0.832404491
 40
0.8637684429
 40
0.8785987917
 40
0.8928339565
 40
0.9064562821
 40
0.919450333
 40
0.9318032055
 40
0.9435050248
 40
0.954549044
 40
0.9649326216
 40
0.9746577591
 40
0.9837330762
 40
0.9921732226
 40
1.0
 40
1.0
 40
1.0
 40
1.0
 10
10.6934270851
 20
11.7619068448
 30
0.0
 10
10.6936544014
 20
11.7615311176
 30
0.0
 10
10.6941766221
 20
11.7607803952
 30
0.0
 10
10.6951101424
 20
11.7597041134
 30
0.0
 10
10.6962184571
 20
11.7586402704
 30
0.0
 10
10.6974994783
 20
11.7575905789
 30
0.0
 10
10.6989509889
 20
11.7565563514
 30
0.0
 10
10.7005705716
 20
11.7555393276
 30
0.0
 10
10.7023554101
 20
11.754541073
 30
0.0
 10
10.7043024539
 20
11.7535634017
 30
0.0
 10
10.706408263
 20
11.7526079351
 30
0.0
 10
10.7086691438
 20
11.7516764602
 30
0.0
 10
10.7110810619
 20
11.7507705776
 30
0.0
 10
10.7136397228
 20
11.7498919915
 30
0.0
 10
10.7163405348
 20
11.7490422253
 30
0.0
 10
10.7201998871
 20
11.7479281441
 30
0.0
 10
10.725346645
 20
11.7466266865
 30
0.0
 10
10.7318911113
 20
11.7452311674
 30
0.0
 10
10.7388714536
 20
11.7439835298
 30
0.0
 10
10.7462373235
 20
11.7428929625
 30
0.0
 10
10.7539356529
 20
11.7419675327
 30
0.0
 10
10.7619108516
 20
11.7412140631
 30
0.0
 10
10.7701052883
 20
11.7406381063
 30
0.0
 10
10.7784597183
 20
11.7402439005
 30
0.0
 10
10.7869137137
 20
11.7400343458
 30
0.0
 10
10.7954061202
 20
11.7400109825
 30
0.0
 10
10.8038754992
 20
11.7401739824
 30
0.0
 10
10.8122605804
 20
11.7405221473
 30
0.0
 10
10.8205007164
 20
11.7410529157
 30
0.0
 10
10.8285363202
 20
11.7417623833
 30
0.0
 10
10.8363093199
 20
11.7426453219
 30
0.0
 10
10.8437635704
 20
11.743695226
 30
0.0
 10
10.8508453412
 20
11.7449043305
 30
0.0
 10
10.8575035314
 20
11.7462637345
 30
0.0
 10
10.8627530722
 20
11.7475359812
 30
0.0
 10
10.8667004972
 20
11.7486277885
 30
0.0
 10
10.8694707289
 20
11.7494625017
 30
0.0
 10
10.8721012032
 20
11.7503268372
 30
0.0
 10
10.8745872064
 20
11.7512192399
 30
0.0
 10
10.8769242878
 20
11.7521381065
 30
0.0
 10
10.8791082903
 20
11.7530817547
 30
0.0
 10
10.8811353205
 20
11.7540485333
 30
0.0
 10
10.8830018381
 20
11.7550366571
 30
0.0
 10
10.8847045832
 20
11.7560444926
 30
0.0
 10
10.8862407178
 20
11.7570703489
 30
0.0
 10
10.887607358
 20
11.7581124756
 30
0.0
 10
10.888434213
 20
11.7588436819
 30
0.0
 10
10.8888157235
 20
11.7592121928
 30
0.0
  0
SPLINE
  5
30F
100
AcDbEntity
  8
0
100
AcDbSpline
 62
7
  6
CONTINUOUS
 70
0
 71
3
 72
53
 73
49
 74
0
 42
0.0000001
 43
0.0000001
 44
0.0000000001
 40
0.0
 40
0.0
 40
0.0
 40
0.0
 40
0.0077404081
 40
0.0160546534
 40
0.02496114
 40
0.0344725259
 40
0.0445959496
 40
0.0553329577
 40
0.0666813921
 40
0.0786354922
 40
0.0911869507
 40
0.1043245783
 40
0.1180353158
 40
0.1323038219
 40
0.1471133231
 40
0.1624451199
 40
0.1945935261
 40
0.2285754572
 40
0.2641980716
 40
0.3012535934
 40
0.3395218169
 40
0.3787722072
 40
0.4187662689
 40
0.4592594138
 40
0.5000030545
 40
0.5407466997
 40
0.5812397391
 40
0.6212336555
 40
0.6604838817
 40
0.6987518266
 40
0.7358070755
 40
0.771429338
 40
0.805410867
 40
0.8375588722
 40
0.8528904896
 40
0.8676996831
 40
0.8819680068
 40
0.8956784422
 40
0.9088158876
 40
0.9213670115
 40
0.9333209218
 40
0.9446690024
 40
0.9554057789
 40
0.9655288878
 40
0.9750402553
 40
0.9839463296
 40
0.9922597344
 40
1.0
 40
1.0
 40
1.0
 40
1.0
 10
10.6448184563
 20
11.7765220378
 30
0.0
 10
10.645393954
 20
11.7770575537
 30
0.0
 10
10.6466328835
 20
11.7781202236
 30
0.0
 10
10.6486652438
 20
11.7796380277
 30
0.0
 10
10.6509332168
 20
11.7811328818
 30
0.0
 10
10.6534329777
 20
11.7826024817
 30
0.0
 10
10.6561607175
 20
11.7840445716
 30
0.0
 10
10.659112075
 20
11.7854569452
 30
0.0
 10
10.6622823401
 20
11.7868372114
 30
0.0
 10
10.6656663599
 20
11.7881832157
 30
0.0
 10
10.6692586634
 20
11.7894926607
 30
0.0
 10
10.6730533834
 20
11.7907634786
 30
0.0
 10
10.6770443328
 20
11.791993481
 30
0.0
 10
10.6812249666
 20
11.793180713
 30
0.0
 10
10.6855884423
 20
11.7943231487
 30
0.0
 10
10.6917382447
 20
11.7958076964
 30
0.0
 10
10.6998322013
 20
11.7975293223
 30
0.0
 10
10.7100046162
 20
11.7993580484
 30
0.0
 10
10.7207179962
 20
11.8009684755
 30
0.0
 10
10.7319018918
 20
11.8023498399
 30
0.0
 10
10.7434828364
 20
11.8034928685
 30
0.0
 10
10.7553846508
 20
11.8043899117
 30
0.0
 10
10.7675290115
 20
11.8050349664
 30
0.0
 10
10.7798359721
 20
11.8054237201
 30
0.0
 10
10.7922245014
 20
11.8055535748
 30
0.0
 10
10.8046130194
 20
11.8054236623
 30
0.0
 10
10.8169199532
 20
11.8050348515
 30
0.0
 10
10.8290642687
 20
11.8043897402
 30
0.0
 10
10.8409660191
 20
11.8034926419
 30
0.0
 10
10.8525468853
 20
11.8023495594
 30
0.0
 10
10.8637306822
 20
11.8009681435
 30
0.0
 10
10.8744439491
 20
11.7993576657
 30
0.0
 10
10.8846162376
 20
11.7975288977
 30
0.0
 10
10.8927100802
 20
11.7958072175
 30
0.0
 10
10.8988597899
 20
11.794322669
 30
0.0
 10
10.9032231825
 20
11.7931801848
 30
0.0
 10
10.9074037364
 20
11.7919929655
 30
0.0
 10
10.9113945983
 20
11.7907629097
 30
0.0
 10
10.9151892375
 20
11.7894921116
 30
0.0
 10
10.9187814441
 20
11.7881826107
 30
0.0
 10
10.9221653779
 20
11.7868366306
 30
0.0
 10
10.9253355322
 20
11.7854563082
 30
0.0
 10
10.9282868075
 20
11.7840439734
 30
0.0
 10
10.9310144461
 20
11.7826018154
 30
0.0
 10
10.9335141291
 20
11.7811322307
 30
0.0
 10
10.9357819265
 20
11.7796373472
 30
0.0
 10
10.9378141897
 20
11.7781196493
 30
0.0
 10
10.939052981
 20
11.7770569689
 30
0.0
 10
10.9396284452
 20
11.7765214384
 30
0.0
  0
SPLINE
  5
310
100
AcDbEntity
  8
0
100
AcDbSpline
 62
7
  6
CONTINUOUS
 70
0
 71
3
 72
16
 73
12
 74
0
 42
0.0000001
 43
0.0000001
 44
0.0000000001
 40
0.0
 40
0.0
 40
0.0
 40
0.0
 40
0.1492553419
 40
0.2896900313
 40
0.422011333
 40
0.4854188285
 40
0.5471480891
 40
0.6661074098
 40
0.780220804
 40
0.8909721616
 40
1.0
 40
1.0
 40
1.0
 40
1.0
 10
10.9694945281
 20
11.748727923
 30
0.0
 10
10.9700350253
 20
11.7482249374
 30
0.0
 10
10.9710536347
 20
11.7472150348
 30
0.0
 10
10.9724250141
 20
11.7456384594
 30
0.0
 10
10.9734095265
 20
11.7442952834
 30
0.0
 10
10.9740876244
 20
11.7432166736
 30
0.0
 10
10.9746790771
 20
11.7421635009
 30
0.0
 10
10.9752939734
 20
11.7408377348
 30
0.0
 10
10.9758292952
 20
11.7392190974
 30
0.0
 10
10.9761513124
 20
11.737594778
 30
0.0
 10
10.9762231294
 20
11.7365062769
 30
0.0
 10
10.9762231236
 20
11.7359669424
 30
0.0
  0
SPLINE
  5
311
100
AcDbEntity
  8
0
100
AcDbSpline
 62
7
  6
CONTINUOUS
 70
0
 71
3
 72
15
 73
11
 74
0
 42
0.0000001
 43
0.0000001
 44
0.0000000001
 40
0.0
 40
0.0
 40
0.0
 40
0.0
 40
0.1098906142
 40
0.2214018168
 40
0.3360754298
 40
0.4553198489
 40
0.5803745049
 40
0.7122969731
 40
0.8519482966
 40
1.0
 40
1.0
 40
1.0
 40
1.0
 10
10.9762231236
 20
11.5437475035
 30
0.0
 10
10.9762231101
 20
11.5432270935
 30
0.0
 10
10.9761562522
 20
11.5421774214
 30
0.0
 10
10.9758565077
 20
11.5406104683
 30
0.0
 10
10.9753582506
 20
11.5390484349
 30
0.0
 10
10.9746627361
 20
11.5374936872
 30
0.0
 10
10.9737715507
 20
11.5359476751
 30
0.0
 10
10.9726861295
 20
11.5344117888
 30
0.0
 10
10.9714081784
 20
11.5328874614
 30
0.0
 10
10.9704577886
 20
11.5319094234
 30
0.0
 10
10.9699534978
 20
11.5314223158
 30
0.0
  0
SPLINE
  5
312
100
AcDbEntity
  8
0
100
AcDbSpline
 62
7
  6
CONTINUOUS
 70
0
 71
3
 72
15
 73
11
 74
0
 42
0.0000001
 43
0.0000001
 44
0.0000000001
 40
0.0
 40
0.0
 40
0.0
 40
0.0
 40
0.1098907179
 40
0.2214018808
 40
0.3360753797
 40
0.4553196761
 40
0.5803742441
 40
0.7122966873
 40
0.8519480861
 40
1.0
 40
1.0
 40
1.0
 40
1.0
 10
10.6082231467
 20
11.735967476
 30
0.0
 10
10.6082231523
 20
11.7364878934
 30
0.0
 10
10.6082899961
 20
11.7375375807
 30
0.0
 10
10.6085897256
 20
11.7391045581
 30
0.0
 10
10.609087974
 20
11.7406666157
 30
0.0
 10
10.609783486
 20
11.7422213877
 30
0.0
 10
10.6106746747
 20
11.7437674239
 30
0.0
 10
10.6117601053
 20
11.745303334
 30
0.0
 10
10.6130380715
 20
11.7468276847
 30
0.0
 10
10.6139884744
 20
11.747805737
 30
0.0
 10
10.6144927726
 20
11.7482928517
 30
0.0
  0
SPLINE
  5
313
100
AcDbEntity
  8
0
100
AcDbSpline
 62
7
  6
CONTINUOUS
 70
0
 71
3
 72
23
 73
19
 74
0
 42
0.0000001
 43
0.0000001
 44
0.0000000001
 40
0.0
 40
0.0
 40
0.0
 40
0.0
 40
0.0432960378
 40
0.0890281073
 40
0.1372704495
 40
0.1880766731
 40
0.241484456
 40
0.2975160537
 40
0.3561823438
 40
0.4174824134
 40
0.4814069283
 40
0.5479374201
 40
0.6170488485
 40
0.688708931
 40
0.7628799266
 40
0.8395183569
 40
0.918575968
 40
1.0
 40
1.0
 40
1.0
 40
1.0
 10
11.2113173416
 20
11.0107797678
 30
0.0
 10
11.2100827378
 20
11.0119287179
 30
0.0
 10
11.2074713113
 20
11.0142139435
 30
0.0
 10
11.2032638017
 20
11.0175171166
 30
0.0
 10
11.1986647432
 20
11.0207846328
 30
0.0
 10
11.1936786382
 20
11.0240135273
 30
0.0
 10
11.1883099882
 20
11.0272008097
 30
0.0
 10
11.1825638545
 20
11.030343657
 30
0.0
 10
11.1764455537
 20
11.0334390241
 30
0.0
 10
11.1699608655
 20
11.0364841192
 30
0.0
 10
11.1631158614
 20
11.0394759583
 30
0.0
 10
11.1559170259
 20
11.0424117958
 30
0.0
 10
11.1483711494
 20
11.0452887585
 30
0.0
 10
11.1404853957
 20
11.048104165
 30
0.0
 10
11.1322672431
 20
11.050855278
 30
0.0
 10
11.1237245011
 20
11.0535394962
 30
0.0
 10
11.1148653226
 20
11.0561542328
 30
0.0
 10
11.1088411962
 20
11.0578251672
 30
0.0
 10
11.1057784803
 20
11.0586495281
 30
0.0
  0
SPLINE
  5
314
100
AcDbEntity
  8
0
100
AcDbSpline
 62
7
  6
CONTINUOUS
 70
0
 71
3
 72
18
 73
14
 74
0
 42
0.0000001
 43
0.0000001
 44
0.0000000001
 40
0.0
 40
0.0
 40
0.0
 40
0.0
 40
0.1492375037
 40
0.2896545881
 40
0.4219614439
 40
0.4853614374
 40
0.5470833384
 40
0.6660301833
 40
0.7801308948
 40
0.8358486565
 40
0.8909259069
 40
0.9455715286
 40
1.0
 40
1.0
 40
1.0
 40
1.0
 10
10.313396589
 20
10.9551925427
 30
0.0
 10
10.3119367615
 20
10.9538340001
 30
0.0
 10
10.3091855869
 20
10.9511063263
 30
0.0
 10
10.3054817376
 20
10.9468479853
 30
0.0
 10
10.3028225855
 20
10.9432201966
 30
0.0
 10
10.3009911356
 20
10.9403069097
 30
0.0
 10
10.2993937354
 20
10.9374622682
 30
0.0
 10
10.2977328365
 20
10.9338817468
 30
0.0
 10
10.2965183588
 20
10.9302087182
 30
0.0
 10
10.2958445116
 20
10.9272783415
 30
0.0
 10
10.2954860695
 20
10.9250953072
 30
0.0
 10
10.2952709955
 20
10.9229109522
 30
0.0
 10
10.2952231575
 20
10.9214530073
 30
0.0
 10
10.2952231561
 20
10.9207257109
 30
0.0
  0
SPLINE
  5
315
100
AcDbEntity
  8
0
100
AcDbSpline
 62
7
  6
CONTINUOUS
 70
0
 71
3
 72
23
 73
19
 74
0
 42
0.0000001
 43
0.0000001
 44
0.0000000001
 40
0.0
 40
0.0
 40
0.0
 40
0.0
 40
0.0436196083
 40
0.0892263522
 40
0.1370667843
 40
0.1873520219
 40
0.240250532
 40
0.2958839965
 40
0.3543261866
 40
0.4156045685
 40
0.4797041471
 40
0.5465729319
 40
0.6161283549
 40
0.6882640219
 40
0.7628563988
 40
0.8397705752
 40
0.9188661661
 40
1.0
 40
1.0
 40
1.0
 40
1.0
 10
10.2816039998
 20
10.5549251827
 30
0.0
 10
10.2792940801
 20
10.5537846862
 30
0.0
 10
10.2746569199
 20
10.5512697207
 30
0.0
 10
10.2678299208
 20
10.5469084522
 30
0.0
 10
10.260993343
 20
10.5418665413
 30
0.0
 10
10.2541522304
 20
10.536135369
 30
0.0
 10
10.247310899
 20
10.5297121219
 30
0.0
 10
10.240473831
 20
10.5226003871
 30
0.0
 10
10.233645326
 20
10.5148099479
 30
0.0
 10
10.2268294859
 20
10.5063564588
 30
0.0
 10
10.2200300911
 20
10.4972608207
 30
0.0
 10
10.2132505164
 20
10.4875483678
 30
0.0
 10
10.206493656
 20
10.4772479264
 30
0.0
 10
10.1997618728
 20
10.4663908226
 30
0.0
 10
10.1930570047
 20
10.455009922
 30
0.0
 10
10.1863803483
 20
10.4431387153
 30
0.0
 10
10.1797327581
 20
10.4308106718
 30
0.0
 10
10.1753735268
 20
10.4224110772
 30
0.0
 10
10.1731959189
 20
10.4181427875
 30
0.0
  0
SPLINE
  5
316
100
AcDbEntity
  8
0
100
AcDbSpline
 62
7
  6
CONTINUOUS
 70
0
 71
3
 72
23
 73
19
 74
0
 42
0.0000001
 43
0.0000001
 44
0.0000000001
 40
0.0
 40
0.0
 40
0.0
 40
0.0
 40
0.0436196083
 40
0.0892263522
 40
0.1370667843
 40
0.1873520219
 40
0.240250532
 40
0.2958839965
 40
0.3543261866
 40
0.4156045685
 40
0.4797041471
 40
0.5465729319
 40
0.6161283549
 40
0.6882640219
 40
0.7628563988
 40
0.8397705752
 40
0.9188661661
 40
1.0
 40
1.0
 40
1.0
 40
1.0
 10
11.3028422705
 20
9.7852987811
 30
0.0
 10
11.3051521903
 20
9.7864392776
 30
0.0
 10
11.3097893505
 20
9.7889542431
 30
0.0
 10
11.3166163496
 20
9.7933155116
 30
0.0
 10
11.3234529274
 20
9.7983574225
 30
0.0
 10
11.3302940399
 20
9.8040885948
 30
0.0
 10
11.3371353713
 20
9.8105118419
 30
0.0
 10
11.3439724394
 20
9.8176235767
 30
0.0
 10
11.3508009443
 20
9.8254140159
 30
0.0
 10
11.3576167845
 20
9.8338675049
 30
0.0
 10
11.3644161793
 20
9.8429631431
 30
0.0
 10
11.371195754
 20
9.852675596
 30
0.0
 10
11.3779526144
 20
9.8629760374
 30
0.0
 10
11.3846843976
 20
9.8738331412
 30
0.0
 10
11.3913892657
 20
9.8852140418
 30
0.0
 10
11.398065922
 20
9.8970852485
 30
0.0
 10
11.4047135123
 20
9.909413292
 30
0.0
 10
11.4090727436
 20
9.9178128866
 30
0.0
 10
11.4112503514
 20
9.9220811763
 30
0.0
  0
SPLINE
  5
317
100
AcDbEntity
  8
0
100
AcDbSpline
 62
7
  6
CONTINUOUS
 70
0
 71
3
 72
18
 73
14
 74
0
 42
0.0000001
 43
0.0000001
 44
0.0000000001
 40
0.0
 40
0.0
 40
0.0
 40
0.0
 40
0.0544284586
 40
0.1090741131
 40
0.1641514082
 40
0.2198691273
 40
0.333969962
 40
0.4529167319
 40
0.5146386222
 40
0.5780388623
 40
0.7103454994
 40
0.8507628585
 40
1.0
 40
1.0
 40
1.0
 40
1.0
 10
11.2892231143
 20
10.9207258161
 30
0.0
 10
11.2892231157
 20
10.9214531099
 30
0.0
 10
11.2891752858
 20
10.9229110509
 30
0.0
 10
11.2889601845
 20
10.9250953974
 30
0.0
 10
11.2886017275
 20
10.9272784214
 30
0.0
 10
11.2879279053
 20
10.9302087957
 30
0.0
 10
11.2867133929
 20
10.9338818006
 30
0.0
 10
11.2850525153
 20
10.9374623156
 30
0.0
 10
11.2834551241
 20
10.9403069534
 30
0.0
 10
11.2816236463
 20
10.9432202091
 30
0.0
 10
11.2789645389
 20
10.9468480164
 30
0.0
 10
11.2752606667
 20
10.9511063091
 30
0.0
 10
11.2725095233
 20
10.9538339927
 30
0.0
 10
11.2710497061
 20
10.9551925295
 30
0.0
  0
SPLINE
  5
318
100
AcDbEntity
  8
0
100
AcDbSpline
 62
7
  6
CONTINUOUS
 70
0
 71
3
 72
35
 73
31
 74
0
 42
0.0000001
 43
0.0000001
 44
0.0000000001
 40
0.0
 40
0.0
 40
0.0
 40
0.0
 40
0.0763430033
 40
0.149519294
 40
0.2195647403
 40
0.286578446
 40
0.3507399037
 40
0.4123135687
 40
0.4716880028
 40
0.5007068245
 40
0.5293762304
 40
0.5577827333
 40
0.5860194843
 40
0.6141776555
 40
0.6423602162
 40
0.6706705671
 40
0.6991860328
 40
0.7571160813
 40
0.7866461384
 40
0.8165515501
 40
0.8316349703
 40
0.8467985405
 40
0.8620309444
 40
0.877318592
 40
0.8926492819
 40
0.9080115494
 40
0.9387637856
 40
0.9541298991
 40
0.9694674332
 40
1.0
 40
1.0
 40
1.0
 40
1.0
 10
10.9164475335
 20
11.4804277034
 30
0.0
 10
10.9184567991
 20
11.4809990746
 30
0.0
 10
10.9223771533
 20
11.4821713538
 30
0.0
 10
10.9280789236
 20
11.4840675715
 30
0.0
 10
10.9334736798
 20
11.4860682558
 30
0.0
 10
10.9385603241
 20
11.488179525
 30
0.0
 10
10.9433401023
 20
11.4904133197
 30
0.0
 10
10.9478181721
 20
11.4927850469
 30
0.0
 10
10.9513286278
 20
11.4949157527
 30
0.0
 10
10.9539790202
 20
11.4967155183
 30
0.0
 10
10.9558779158
 20
11.4981107392
 30
0.0
 10
10.9577023452
 20
11.4995680681
 30
0.0
 10
10.9594517286
 20
11.5010936568
 30
0.0
 10
10.961122323
 20
11.502696558
 30
0.0
 10
10.9627092464
 20
11.5043852386
 30
0.0
 10
10.9642064978
 20
11.5061672085
 30
0.0
 10
10.9660777026
 20
11.5086904036
 30
0.0
 10
10.9677145524
 20
11.511423592
 30
0.0
 10
10.9690485766
 20
11.5143475837
 30
0.0
 10
10.9697471513
 20
11.5162658911
 30
0.0
 10
10.9702139504
 20
11.5178446292
 30
0.0
 10
10.9705159246
 20
11.519052268
 30
0.0
 10
10.9707670772
 20
11.5202771796
 30
0.0
 10
10.9709657883
 20
11.5215163228
 30
0.0
 10
10.9711103772
 20
11.5227665694
 30
0.0
 10
10.9712287414
 20
11.5244441058
 30
0.0
 10
10.9712353043
 20
11.5261289839
 30
0.0
 10
10.9711296899
 20
11.5278077087
 30
0.0
 10
10.9709497623
 20
11.5294740035
 30
0.0
 10
10.97073308
 20
11.5307123706
 30
0.0
 10
10.9705538194
 20
11.5315283558
 30
0.0
  0
SPLINE
  5
319
100
AcDbEntity
  8
0
100
AcDbSpline
 62
7
  6
CONTINUOUS
 70
0
 71
3
 72
11
 73
7
 74
0
 42
0.0000001
 43
0.0000001
 44
0.0000000001
 40
0.0
 40
0.0
 40
0.0
 40
0.0
 40
0.2314244497
 40
0.4756235138
 40
0.7320292778
 40
1.0
 40
1.0
 40
1.0
 40
1.0
 10
10.7293201519
 20
11.7462883045
 30
0.0
 10
10.7302809163
 20
11.7465996808
 30
0.0
 10
10.7322665795
 20
11.7472057205
 30
0.0
 10
10.7353489221
 20
11.7480468786
 30
0.0
 10
10.7386077226
 20
11.7488424769
 30
0.0
 10
10.7408437619
 20
11.7493305314
 30
0.0
 10
10.7419890085
 20
11.7495672447
 30
0.0
  0
SPLINE
  5
31A
100
AcDbEntity
  8
0
100
AcDbSpline
 62
7
  6
CONTINUOUS
 70
0
 71
3
 72
15
 73
11
 74
0
 42
0.0000001
 43
0.0000001
 44
0.0000000001
 40
0.0
 40
0.0
 40
0.0
 40
0.0
 40
0.1327561266
 40
0.2641562165
 40
0.3938657225
 40
0.5214843936
 40
0.6465070827
 40
0.7683424646
 40
0.8863569795
 40
1.0
 40
1.0
 40
1.0
 40
1.0
 10
10.7683144362
 20
11.7762497726
 30
0.0
 10
10.7673607342
 20
11.7748746945
 30
0.0
 10
10.7654285937
 20
11.772162228
 30
0.0
 10
10.7624275296
 20
11.7682060326
 30
0.0
 10
10.759326808
 20
11.7644101845
 30
0.0
 10
10.7561168303
 20
11.7608125413
 30
0.0
 10
10.7527891185
 20
11.7574608398
 30
0.0
 10
10.7493382376
 20
11.7544138843
 30
0.0
 10
10.7457658326
 20
11.751741534
 30
0.0
 10
10.7432588526
 20
11.7502302507
 30
0.0
 10
10.7419890085
 20
11.7495672447
 30
0.0
  0
SPLINE
  5
31B
100
AcDbEntity
  8
0
100
AcDbSpline
 62
7
  6
CONTINUOUS
 70
0
 71
3
 72
15
 73
11
 74
0
 42
0.0000001
 43
0.0000001
 44
0.0000000001
 40
0.0
 40
0.0
 40
0.0
 40
0.0
 40
0.1241555182
 40
0.2484038419
 40
0.3727815096
 40
0.4973621038
 40
0.6222366082
 40
0.7475285283
 40
0.8733900255
 40
1.0
 40
1.0
 40
1.0
 40
1.0
 10
10.8575428472
 20
11.7700617613
 30
0.0
 10
10.8562339677
 20
11.7690190095
 30
0.0
 10
10.8535785719
 20
11.7669780919
 30
0.0
 10
10.8494721915
 20
11.7640797429
 30
0.0
 10
10.8452271821
 20
11.7613765949
 30
0.0
 10
10.8408296951
 20
11.7589102648
 30
0.0
 10
10.8362675465
 20
11.7567323198
 30
0.0
 10
10.831533652
 20
11.7549049894
 30
0.0
 10
10.8266321374
 20
11.7534996136
 30
0.0
 10
10.8232753397
 20
11.7528956689
 30
0.0
 10
10.8215816342
 20
11.7526866714
 30
0.0
  0
SPLINE
  5
31C
100
AcDbEntity
  8
0
100
AcDbSpline
 62
7
  6
CONTINUOUS
 70
0
 71
3
 72
60
 73
56
 74
0
 42
0.0000001
 43
0.0000001
 44
0.0000000001
 40
0.0
 40
0.0
 40
0.0
 40
0.0
 40
0.0081222414
 40
0.0169168816
 40
0.0264087866
 40
0.0366143821
 40
0.0475415905
 40
0.0591912493
 40
0.0715586647
 40
0.0846348479
 40
0.098406648
 40
0.1128577747
 40
0.127968871
 40
0.1437180406
 40
0.160081135
 40
0.1770317977
 40
0.1945419791
 40
0.2125817114
 40
0.250121824
 40
0.2893859917
 40
0.3300881417
 40
0.3719273433
 40
0.4145911502
 40
0.4577590001
 40
0.5011053144
 40
0.5443028585
 40
0.5870257719
 40
0.6289529119
 40
0.6697709467
 40
0.7091777726
 40
0.7468857915
 40
0.7650183901
 40
0.7826270107
 40
0.7996814573
 40
0.8161532565
 40
0.8320158302
 40
0.8472444911
 40
0.8618170191
 40
0.8757135005
 40
0.8889170941
 40
0.9014140802
 40
0.9131945391
 40
0.9242530793
 40
0.934589459
 40
0.9442101269
 40
0.9531292893
 40
0.9613714202
 40
0.9689735769
 40
0.9759888588
 40
0.9824901798
 40
0.9885734679
 40
0.9914974722
 40
0.9943641549
 40
0.9971919122
 40
1.0
 40
1.0
 40
1.0
 40
1.0
 10
10.9699534978
 20
11.4947171323
 30
0.0
 10
10.9692098528
 20
11.4939988263
 30
0.0
 10
10.9675908425
 20
11.4925744684
 30
0.0
 10
10.9649034441
 20
11.4905506927
 30
0.0
 10
10.9618684935
 20
11.4885607936
 30
0.0
 10
10.958492183
 20
11.4866085823
 30
0.0
 10
10.954780837
 20
11.4846975788
 30
0.0
 10
10.9507416528
 20
11.4828315813
 30
0.0
 10
10.9463825885
 20
11.4810142214
 30
0.0
 10
10.9417122564
 20
11.4792492167
 30
0.0
 10
10.9367399665
 20
11.4775400552
 30
0.0
 10
10.9314756517
 20
11.475890261
 30
0.0
 10
10.9259298777
 20
11.4743031582
 30
0.0
 10
10.9201137944
 20
11.4727819747
 30
0.0
 10
10.9140391103
 20
11.4713298382
 30
0.0
 10
10.9077180775
 20
11.4699496616
 30
0.0
 10
10.9011634377
 20
11.4686442917
 30
0.0
 10
10.8920082894
 20
11.466985057
 30
0.0
 10
10.8800769806
 20
11.465126429
 30
0.0
 10
10.8652341292
 20
11.4632600008
 30
0.0
 10
10.8498014689
 20
11.4617444929
 30
0.0
 10
10.8339036861
 20
11.4605923516
 30
0.0
 10
10.8176691161
 20
11.4598130853
 30
0.0
 10
10.8012289286
 20
11.459413107
 30
0.0
 10
10.7847159613
 20
11.4593957101
 30
0.0
 10
10.7682636637
 20
11.4597610346
 30
0.0
 10
10.7520049719
 20
11.4605060732
 30
0.0
 10
10.7360712536
 20
11.4616246958
 30
0.0
 10
10.7205911415
 20
11.4631076732
 30
0.0
 10
10.7056897145
 20
11.4649428269
 30
0.0
 10
10.6937025375
 20
11.466775954
 30
0.0
 10
10.6844973885
 20
11.4684154327
 30
0.0
 10
10.6779017281
 20
11.4697069361
 30
0.0
 10
10.6715373047
 20
11.4710737159
 30
0.0
 10
10.6654169512
 20
11.4725130144
 30
0.0
 10
10.6595530094
 20
11.4740218647
 30
0.0
 10
10.6539572951
 20
11.4755972479
 30
0.0
 10
10.6486410561
 20
11.4772358895
 30
0.0
 10
10.6436149695
 20
11.4789345256
 30
0.0
 10
10.6388890835
 20
11.4806896569
 30
0.0
 10
10.6344728196
 20
11.4824977625
 30
0.0
 10
10.6303749345
 20
11.4843552189
 30
0.0
 10
10.6266034709
 20
11.4862582927
 30
0.0
 10
10.6231657965
 20
11.4882033454
 30
0.0
 10
10.6200684748
 20
11.4901866007
 30
0.0
 10
10.6173174182
 20
11.4922045627
 30
0.0
 10
10.6149177641
 20
11.4942538008
 30
0.0
 10
10.6128741399
 20
11.4963312482
 30
0.0
 10
10.6111908687
 20
11.498434418
 30
0.0
 10
10.6098724383
 20
11.5005603865
 30
0.0
 10
10.6090716641
 20
11.5023736491
 30
0.0
 10
10.6086292317
 20
11.5038204338
 30
0.0
 10
10.608394997
 20
11.5048935659
 30
0.0
 10
10.6082544178
 20
11.5059679812
 30
0.0
 10
10.6082231375
 20
11.5066857775
 30
0.0
 10
10.6082231468
 20
11.5070432296
 30
0.0
  0
SPLINE
  5
31D
100
AcDbEntity
  8
0
100
AcDbSpline
 62
7
  6
CONTINUOUS
 70
0
 71
3
 72
23
 73
19
 74
0
 42
0.0000001
 43
0.0000001
 44
0.0000000001
 40
0.0
 40
0.0
 40
0.0
 40
0.0
 40
0.0748354453
 40
0.1456129813
 40
0.2126358338
 40
0.2762904615
 40
0.3370479524
 40
0.3954590735
 40
0.4521506144
 40
0.5078137394
 40
0.5631835483
 40
0.6190077447
 40
0.676014299
 40
0.7348827741
 40
0.7962245295
 40
0.8605705049
 40
0.9283717522
 40
1.0
 40
1.0
 40
1.0
 40
1.0
 10
11.0314386279
 20
11.2653923931
 30
0.0
 10
11.032086613
 20
11.2660182988
 30
0.0
 10
11.0333110798
 20
11.2672747885
 30
0.0
 10
11.0349673151
 20
11.2692295291
 30
0.0
 10
11.0363881131
 20
11.2711983844
 30
0.0
 10
11.0375715532
 20
11.2731796317
 30
0.0
 10
11.0385159935
 20
11.2751717026
 30
0.0
 10
11.0392196942
 20
11.2771728403
 30
0.0
 10
11.0396811792
 20
11.2791808356
 30
0.0
 10
11.0398989764
 20
11.2811930844
 30
0.0
 10
11.0398725732
 20
11.2832065499
 30
0.0
 10
11.0396019347
 20
11.2852181152
 30
0.0
 10
11.0390879597
 20
11.2872248377
 30
0.0
 10
11.0383320208
 20
11.289224201
 30
0.0
 10
11.037335692
 20
11.2912140631
 30
0.0
 10
11.0361007885
 20
11.2931927673
 30
0.0
 10
11.0346290086
 20
11.295158558
 30
0.0
 10
11.0335228321
 20
11.2964232711
 30
0.0
 10
11.0329340205
 20
11.2970532438
 30
0.0
  0
SPLINE
  5
31E
100
AcDbEntity
  8
0
100
AcDbSpline
 62
7
  6
CONTINUOUS
 70
0
 71
3
 72
23
 73
19
 74
0
 42
0.0000001
 43
0.0000001
 44
0.0000000001
 40
0.0
 40
0.0
 40
0.0
 40
0.0
 40
0.0736871012
 40
0.143120122
 40
0.2086483171
 40
0.2707219031
 40
0.3298925613
 40
0.3868074295
 40
0.4422009342
 40
0.4968755521
 40
0.5516697084
 40
0.6074159907
 40
0.6649010551
 40
0.7248362101
 40
0.7878396386
 40
0.8544310844
 40
0.9250377407
 40
1.0
 40
1.0
 40
1.0
 40
1.0
 10
10.5990379585
 20
11.2953794814
 30
0.0
 10
10.5984801784
 20
11.2948407072
 30
0.0
 10
10.5974300776
 20
11.2937588658
 30
0.0
 10
10.5960213254
 20
11.2920715684
 30
0.0
 10
10.5948295572
 20
11.2903712325
 30
0.0
 10
10.5938566907
 20
11.2886595107
 30
0.0
 10
10.5931044482
 20
11.2869379296
 30
0.0
 10
10.5925746185
 20
11.2852083287
 30
0.0
 10
10.592268717
 20
11.2834730849
 30
0.0
 10
10.5921880521
 20
11.2817350785
 30
0.0
 10
10.5923327648
 20
11.2799975389
 30
0.0
 10
10.5927024409
 20
11.278263629
 30
0.0
 10
10.5932956502
 20
11.2765360787
 30
0.0
 10
10.59411078
 20
11.2748171161
 30
0.0
 10
10.5951460133
 20
11.2731085232
 30
0.0
 10
10.5963995533
 20
11.2714117515
 30
0.0
 10
10.5978696385
 20
11.2697283709
 30
0.0
 10
10.5989591019
 20
11.2686493375
 30
0.0
 10
10.5995366303
 20
11.2681118883
 30
0.0
  0
SPLINE
  5
31F
100
AcDbEntity
  8
0
100
AcDbSpline
 62
7
  6
CONTINUOUS
 70
0
 71
3
 72
27
 73
23
 74
0
 42
0.0000001
 43
0.0000001
 44
0.0000000001
 40
0.0
 40
0.0
 40
0.0
 40
0.0
 40
0.0679928633
 40
0.1311598062
 40
0.1900541609
 40
0.2454129588
 40
0.2981461796
 40
0.3238756532
 40
0.349358925
 40
0.3747457024
 40
0.4001874729
 40
0.4258346811
 40
0.4518339459
 40
0.5054053914
 40
0.5619531418
 40
0.5916263725
 40
0.6223451105
 40
0.6872053432
 40
0.7570717593
 40
0.8323267262
 40
0.913241187
 40
1.0
 40
1.0
 40
1.0
 40
1.0
 10
10.9854083119
 20
11.2685846064
 30
0.0
 10
10.9860969472
 20
11.2692497771
 30
0.0
 10
10.987375336
 20
11.270586644
 30
0.0
 10
10.9890344514
 20
11.2726923117
 30
0.0
 10
10.9903570456
 20
11.2748188388
 30
0.0
 10
10.9913389524
 20
11.2769629751
 30
0.0
 10
10.9918740175
 20
11.278777826
 30
0.0
 10
10.992121814
 20
11.2802217076
 30
0.0
 10
10.992219985
 20
11.2812970345
 30
0.0
 10
10.992231783
 20
11.282372686
 30
0.0
 10
10.9921572682
 20
11.2834481265
 30
0.0
 10
10.991996435
 20
11.2845228112
 30
0.0
 10
10.9916639415
 20
11.2859679394
 30
0.0
 10
10.9910220628
 20
11.2877817147
 30
0.0
 10
10.990114918
 20
11.2895350008
 30
0.0
 10
10.98923042
 20
11.2909247962
 30
0.0
 10
10.9882003143
 20
11.2923574899
 30
0.0
 10
10.9866901079
 20
11.2941368506
 30
0.0
 10
10.9845781772
 20
11.2962109875
 30
0.0
 10
10.9821381106
 20
11.298259132
 30
0.0
 10
10.9793742602
 20
11.3002783661
 30
0.0
 10
10.97738855
 20
11.3015582171
 30
0.0
 10
10.9763456971
 20
11.3021945789
 30
0.0
  0
SPLINE
  5
320
100
AcDbEntity
  8
0
100
AcDbSpline
 62
7
  6
CONTINUOUS
 70
0
 71
3
 72
11
 73
7
 74
0
 42
0.0000001
 43
0.0000001
 44
0.0000000001
 40
0.0
 40
0.0
 40
0.0
 40
0.0
 40
0.2728147899
 40
0.5301600517
 40
0.7723949234
 40
1.0
 40
1.0
 40
1.0
 40
1.0
 10
10.6081454751
 20
11.3022219675
 30
0.0
 10
10.607259145
 20
11.3016819846
 30
0.0
 10
10.6055583766
 20
11.3005964278
 30
0.0
 10
10.6031595986
 20
11.2988971442
 30
0.0
 10
10.6009912953
 20
11.2971768455
 30
0.0
 10
10.5996607423
 20
11.2959810444
 30
0.0
 10
10.5990379585
 20
11.2953794814
 30
0.0
  0
LINE
  5
321
100
AcDbEntity
  8
0
100
AcDbLine
 62
7
  6
CONTINUOUS
 10
10.481334778
 20
11.1624716925
 11
10.4814183144
 21
11.1625395679
  0
SPLINE
  5
322
100
AcDbEntity
  8
0
100
AcDbSpline
 62
7
  6
CONTINUOUS
 70
0
 71
3
 72
38
 73
34
 74
0
 42
0.0000001
 43
0.0000001
 44
0.0000000001
 40
0.0
 40
0.0
 40
0.0
 40
0.0
 40
0.0220666863
 40
0.0434204029
 40
0.0640867074
 40
0.0841150977
 40
0.1035837187
 40
0.1226065546
 40
0.1413381554
 40
0.1599751061
 40
0.1787532409
 40
0.1979378952
 40
0.2178091637
 40
0.2386449857
 40
0.2607033348
 40
0.2842096588
 40
0.3093491542
 40
0.3362613223
 40
0.3650414067
 40
0.3957432125
 40
0.4283817951
 40
0.4629405459
 40
0.4993765067
 40
0.5376253815
 40
0.5776082551
 40
0.6192354996
 40
0.6624116878
 40
0.7070385876
 40
0.7530182043
 40
0.800254905
 40
0.8486558961
 40
0.898135003
 40
1.0
 40
1.0
 40
1.0
 40
1.0
 10
10.4814183144
 20
11.1625395679
 30
0.0
 10
10.4822033321
 20
11.16317627
 30
0.0
 10
10.483779384
 20
11.1643912065
 30
0.0
 10
10.4862046026
 20
11.166048251
 30
0.0
 10
10.4886532132
 20
11.1674957268
 30
0.0
 10
10.491125985
 20
11.1687186873
 30
0.0
 10
10.4936237989
 20
11.1697011457
 30
0.0
 10
10.4961470761
 20
11.1704264564
 30
0.0
 10
10.4986956642
 20
11.1708772404
 30
0.0
 10
10.5012683986
 20
11.1710361421
 30
0.0
 10
10.5038629566
 20
11.1708863806
 30
0.0
 10
10.506475957
 20
11.1704127793
 30
0.0
 10
10.5091035579
 20
11.1696027098
 30
0.0
 10
10.5117418826
 20
11.1684459311
 30
0.0
 10
10.5143875421
 20
11.1669352203
 30
0.0
 10
10.5170375879
 20
11.1650659458
 30
0.0
 10
10.5196891217
 20
11.162835997
 30
0.0
 10
10.5223395074
 20
11.1602464025
 30
0.0
 10
10.5249859893
 20
11.1573010217
 30
0.0
 10
10.5276256593
 20
11.1540065879
 30
0.0
 10
10.5302558858
 20
11.1503728001
 30
0.0
 10
10.5328740446
 20
11.1464117141
 30
0.0
 10
10.5354776986
 20
11.1421373922
 30
0.0
 10
10.5380648755
 20
11.1375655287
 30
0.0
 10
10.5406337911
 20
11.1327127807
 30
0.0
 10
10.5431830834
 20
11.1275963769
 30
0.0
 10
10.5457117638
 20
11.1222337016
 30
0.0
 10
10.5482191145
 20
11.1166418788
 30
0.0
 10
10.5507047906
 20
11.1108375598
 30
0.0
 10
10.5531686168
 20
11.1048366796
 30
0.0
 10
10.5556107805
 20
11.0986543031
 30
0.0
 10
10.558869932
 20
11.0901049902
 30
0.0
 10
10.5612340592
 20
11.0835876336
 30
0.0
 10
10.5627876467
 20
11.0791879544
 30
0.0
  0
SPLINE
  5
323
100
AcDbEntity
  8
0
100
AcDbSpline
 62
7
  6
CONTINUOUS
 70
0
 71
3
 72
22
 73
18
 74
0
 42
0.0000001
 43
0.0000001
 44
0.0000000001
 40
0.0
 40
0.0
 40
0.0
 40
0.0
 40
0.0635932074
 40
0.1270873567
 40
0.1904679645
 40
0.2537196277
 40
0.3168270229
 40
0.379775884
 40
0.442554345
 40
0.5051542088
 40
0.5675719314
 40
0.6298090801
 40
0.6918720952
 40
0.7537714222
 40
0.8155202753
 40
0.8771333891
 40
1.0
 40
1.0
 40
1.0
 40
1.0
 10
10.5627876467
 20
10.9809941137
 30
0.0
 10
10.5691523116
 20
10.9787154022
 30
0.0
 10
10.5819255739
 20
10.9743099034
 30
0.0
 10
10.6012354304
 20
10.9682106752
 30
0.0
 10
10.6206805324
 20
10.9626863332
 30
0.0
 10
10.640253895
 20
10.9577998199
 30
0.0
 10
10.6599424035
 20
10.9536124227
 30
0.0
 10
10.6797259962
 20
10.9501797743
 30
0.0
 10
10.6995779247
 20
10.9475471902
 30
0.0
 10
10.7194660123
 20
10.9457452056
 30
0.0
 10
10.7393549714
 20
10.9447862067
 30
0.0
 10
10.7592093812
 20
10.9446629646
 30
0.0
 10
10.7789967557
 20
10.945349624
 30
0.0
 10
10.7986898203
 20
10.9468046901
 30
0.0
 10
10.8182683679
 20
10.9489753836
 30
0.0
 10
10.8441752414
 20
10.952740504
 30
0.0
 10
10.8634443333
 20
10.9564605534
 30
0.0
 10
10.8762024404
 20
10.9592587239
 30
0.0
  0
SPLINE
  5
324
100
AcDbEntity
  8
0
100
AcDbSpline
 62
7
  6
CONTINUOUS
 70
0
 71
3
 72
29
 73
25
 74
0
 42
0.0000001
 43
0.0000001
 44
0.0000000001
 40
0.0
 40
0.0
 40
0.0
 40
0.0
 40
0.0607935697
 40
0.1217090786
 40
0.1827762932
 40
0.2440295857
 40
0.3055070053
 40
0.336346416
 40
0.3672562015
 40
0.3982403776
 40
0.4293021842
 40
0.4604438139
 40
0.4916666069
 40
0.5229706945
 40
0.554355025
 40
0.585817582
 40
0.6173552372
 40
0.6489641531
 40
0.6806399908
 40
0.7441654148
 40
0.8079003261
 40
0.8718062843
 40
0.9358489904
 40
1.0
 40
1.0
 40
1.0
 40
1.0
 10
10.5627876467
 20
11.0791879544
 30
0.0
 10
10.5688945078
 20
11.0818178727
 30
0.0
 10
10.5812193357
 20
11.0868578499
 30
0.0
 10
10.6000319889
 20
11.0936376024
 30
0.0
 10
10.6192001343
 20
11.0995175906
 30
0.0
 10
10.6387221065
 20
11.1043576688
 30
0.0
 10
10.6552535725
 20
11.107399207
 30
0.0
 10
10.668616475
 20
11.1091699496
 30
0.0
 10
10.678713359
 20
11.1101523379
 30
0.0
 10
10.6888632842
 20
11.1107735731
 30
0.0
 10
10.6990546477
 20
11.1110222699
 30
0.0
 10
10.7092743451
 20
11.1108904167
 30
0.0
 10
10.7195083636
 20
11.1103733419
 30
0.0
 10
10.7297421673
 20
11.1094699683
 30
0.0
 10
10.7399612609
 20
11.1081834382
 30
0.0
 10
10.7501516706
 20
11.1065204083
 30
0.0
 10
10.7603003348
 20
11.1044907373
 30
0.0
 10
10.7703957245
 20
11.1021074513
 30
0.0
 10
10.7837833255
 20
11.0984755385
 30
0.0
 10
10.8003362556
 20
11.0931299497
 30
0.0
 10
10.8198451817
 20
11.0855834594
 30
0.0
 10
10.8390018566
 20
11.077047195
 30
0.0
 10
10.8578050768
 20
11.0676608629
 30
0.0
 10
10.870105148
 20
11.0609240595
 30
0.0
 10
10.8762024404
 20
11.0574525646
 30
0.0
  0
SPLINE
  5
325
100
AcDbEntity
  8
0
100
AcDbSpline
 62
7
  6
CONTINUOUS
 70
0
 71
3
 72
21
 73
17
 74
0
 42
0.0000001
 43
0.0000001
 44
0.0000000001
 40
0.0
 40
0.0
 40
0.0
 40
0.0
 40
0.1192817699
 40
0.1791777646
 40
0.2393027587
 40
0.2997125448
 40
0.3604690675
 40
0.4216385591
 40
0.4832891114
 40
0.5454874568
 40
0.6082953592
 40
0.6717659909
 40
0.7359408312
 40
0.8008475388
 40
0.8664990622
 40
1.0
 40
1.0
 40
1.0
 40
1.0
 10
10.8762024404
 20
10.9592587239
 30
0.0
 10
10.8833768805
 20
10.9582864529
 30
0.0
 10
10.8941980248
 20
10.9571191765
 30
0.0
 10
10.9086990213
 20
10.9562512956
 30
0.0
 10
10.9196493774
 20
10.9559704034
 30
0.0
 10
10.9306550777
 20
10.9560881783
 30
0.0
 10
10.9417118119
 20
10.9566309555
 30
0.0
 10
10.9528131915
 20
10.957622722
 30
0.0
 10
10.9639510613
 20
10.9590838141
 30
0.0
 10
10.9751156057
 20
10.9610297049
 30
0.0
 10
10.9862957308
 20
10.9634699701
 30
0.0
 10
10.9974796074
 20
10.9664076017
 30
0.0
 10
11.0086551927
 20
10.969838709
 30
0.0
 10
11.0198112148
 20
10.9737529386
 30
0.0
 10
11.0347269199
 20
10.9796260079
 30
0.0
 10
11.0457321425
 20
10.9846546754
 30
0.0
 10
11.0529970959
 20
10.988243594
 30
0.0
  0
SPLINE
  5
326
100
AcDbEntity
  8
0
100
AcDbSpline
 62
7
  6
CONTINUOUS
 70
0
 71
3
 72
31
 73
27
 74
0
 42
0.0000001
 43
0.0000001
 44
0.0000000001
 40
0.0
 40
0.0
 40
0.0
 40
0.0
 40
0.0719305415
 40
0.1428141093
 40
0.2124838369
 40
0.2807656023
 40
0.3474963193
 40
0.4125509865
 40
0.444436443
 40
0.4758911042
 40
0.506924625
 40
0.5375541288
 40
0.5678037101
 40
0.5977040291
 40
0.6272908827
 40
0.6566033962
 40
0.6856827664
 40
0.7145703471
 40
0.7433058534
 40
0.7719267289
 40
0.800466972
 40
0.8289564021
 40
0.885873862
 40
0.9143508768
 40
0.9428580262
 40
1.0
 40
1.0
 40
1.0
 40
1.0
 10
10.8762024404
 20
11.0574525646
 30
0.0
 10
10.8806400916
 20
11.0616320858
 30
0.0
 10
10.8895819978
 20
11.069792818
 30
0.0
 10
10.9033302782
 20
11.0814303493
 30
0.0
 10
10.9173354621
 20
11.0922621572
 30
0.0
 10
10.9315988968
 20
11.1021504711
 30
0.0
 10
10.9461083458
 20
11.1109459297
 30
0.0
 10
10.9584648377
 20
11.1172811156
 30
0.0
 10
10.9684361197
 20
11.1216441488
 30
0.0
 10
10.9758967806
 20
11.1245336483
 30
0.0
 10
10.9833792347
 20
11.1270502752
 30
0.0
 10
10.9908733542
 20
11.1291856012
 30
0.0
 10
10.9983684671
 20
11.1309345721
 30
0.0
 10
11.0058537625
 20
11.1322963532
 30
0.0
 10
11.0133187829
 20
11.1332738102
 30
0.0
 10
11.0207537555
 20
11.1338732904
 30
0.0
 10
11.0281498496
 20
11.1341047817
 30
0.0
 10
11.0354994558
 20
11.1339809345
 30
0.0
 10
11.0427962892
 20
11.1335164599
 30
0.0
 10
11.0500353895
 20
11.1327279599
 30
0.0
 10
11.0572132671
 20
11.1316328017
 30
0.0
 10
11.0666945035
 20
11.1297886333
 30
0.0
 10
11.0760563138
 20
11.127400929
 30
0.0
 10
11.085278189
 20
11.1245444503
 30
0.0
 10
11.0944235893
 20
11.1213925437
 30
0.0
 10
11.1011797612
 20
11.1187259437
 30
0.0
 10
11.1056379289
 20
11.1168348159
 30
0.0
  0
SPLINE
  5
327
100
AcDbEntity
  8
0
100
AcDbSpline
 62
7
  6
CONTINUOUS
 70
0
 71
3
 72
15
 73
11
 74
0
 42
0.0000001
 43
0.0000001
 44
0.0000000001
 40
0.0
 40
0.0
 40
0.0
 40
0.0
 40
0.1098906142
 40
0.2214018168
 40
0.3360754298
 40
0.4553198489
 40
0.5803745049
 40
0.7122969731
 40
0.8519482966
 40
1.0
 40
1.0
 40
1.0
 40
1.0
 10
10.9762231236
 20
11.50704232
 30
0.0
 10
10.9762231101
 20
11.50652191
 30
0.0
 10
10.9761562522
 20
11.5054722378
 30
0.0
 10
10.9758565077
 20
11.5039052847
 30
0.0
 10
10.9753582506
 20
11.5023432514
 30
0.0
 10
10.9746627361
 20
11.5007885036
 30
0.0
 10
10.9737715507
 20
11.4992424915
 30
0.0
 10
10.9726861295
 20
11.4977066052
 30
0.0
 10
10.9714081784
 20
11.4961822778
 30
0.0
 10
10.9704577886
 20
11.4952042398
 30
0.0
 10
10.9699534978
 20
11.4947171323
 30
0.0
  0
SPLINE
  5
328
100
AcDbEntity
  8
0
100
AcDbSpline
 62
7
  6
CONTINUOUS
 70
0
 71
3
 72
12
 73
8
 74
0
 42
0.0000001
 43
0.0000001
 44
0.0000000001
 40
0.0
 40
0.0
 40
0.0
 40
0.0
 40
0.2794888836
 40
0.5371450611
 40
0.7759349846
 40
0.8895394738
 40
1.0
 40
1.0
 40
1.0
 40
1.0
 10
11.0539890496
 20
11.2039411113
 30
0.0
 10
11.0550187199
 20
11.2049356965
 30
0.0
 10
11.0569158338
 20
11.2069357286
 30
0.0
 10
11.0593303729
 20
11.2101030659
 30
0.0
 10
11.0609009855
 20
11.2128171678
 30
0.0
 10
11.0618534081
 20
11.2149903388
 30
0.0
 10
11.0622315465
 20
11.2160755183
 30
0.0
 10
11.062395451
 20
11.2166170512
 30
0.0
  0
SPLINE
  5
329
100
AcDbEntity
  8
0
100
AcDbSpline
 62
7
  6
CONTINUOUS
 70
0
 71
3
 72
11
 73
7
 74
0
 42
0.0000001
 43
0.0000001
 44
0.0000000001
 40
0.0
 40
0.0
 40
0.0
 40
0.0
 40
0.2544991222
 40
0.505163903
 40
0.7532356335
 40
1.0
 40
1.0
 40
1.0
 40
1.0
 10
11.062395451
 20
11.2166170512
 30
0.0
 10
11.0625320562
 20
11.2170683888
 30
0.0
 10
11.062772389
 20
11.2179739715
 30
0.0
 10
11.0630323573
 20
11.219346437
 30
0.0
 10
11.0631884
 20
11.2207201685
 30
0.0
 10
11.0632231196
 20
11.2216374131
 30
0.0
 10
11.063223123
 20
11.2220946391
 30
0.0
  0
SPLINE
  5
32A
100
AcDbEntity
  8
0
100
AcDbSpline
 62
7
  6
CONTINUOUS
 70
0
 71
3
 72
16
 73
12
 74
0
 42
0.0000001
 43
0.0000001
 44
0.0000000001
 40
0.0
 40
0.0
 40
0.0
 40
0.0
 40
0.1098865282
 40
0.2213931333
 40
0.3360634494
 40
0.455304002
 40
0.5170513576
 40
0.5803898845
 40
0.7123033046
 40
0.8519487447
 40
1.0
 40
1.0
 40
1.0
 40
1.0
 10
11.0577231232
 20
11.1955317736
 30
0.0
 10
11.0577231216
 20
11.1947808284
 30
0.0
 10
11.057626709
 20
11.1932661708
 30
0.0
 10
11.0571943003
 20
11.1910050261
 30
0.0
 10
11.0564753406
 20
11.1887510994
 30
0.0
 10
11.0556486637
 20
11.1869029824
 30
0.0
 10
11.0548531571
 20
11.1854343757
 30
0.0
 10
11.0539422746
 20
11.1839320316
 30
0.0
 10
11.052619609
 20
11.1820603239
 30
0.0
 10
11.0507756098
 20
11.1798608291
 30
0.0
 10
11.0494041675
 20
11.1784494932
 30
0.0
 10
11.0486764573
 20
11.177746579
 30
0.0
  0
SPLINE
  5
32B
100
AcDbEntity
  8
0
100
AcDbSpline
 62
7
  6
CONTINUOUS
 70
0
 71
3
 72
62
 73
58
 74
0
 42
0.0000001
 43
0.0000001
 44
0.0000000001
 40
0.0
 40
0.0
 40
0.0
 40
0.0
 40
0.0028080748
 40
0.0056358414
 40
0.0085025355
 40
0.0114265436
 40
0.0175099176
 40
0.0240112857
 40
0.0310266716
 40
0.0386289395
 40
0.0468711498
 40
0.0557904563
 40
0.0654111975
 40
0.0757476937
 40
0.0868063249
 40
0.0985868781
 40
0.111083935
 40
0.1242876066
 40
0.1381841604
 40
0.1527567252
 40
0.167985463
 40
0.1838480257
 40
0.2003198859
 40
0.2173743466
 40
0.2349829505
 40
0.2531155759
 40
0.2717404933
 40
0.2908246785
 40
0.3302314145
 40
0.3710493553
 40
0.4129763569
 40
0.4556991149
 40
0.498896469
 40
0.5422425889
 40
0.5854102076
 40
0.6280738008
 40
0.6699127567
 40
0.7106146657
 40
0.7498785848
 40
0.7688817715
 40
0.7874195983
 40
0.8054592192
 40
0.8229692697
 40
0.8399198483
 40
0.8562828067
 40
0.872031911
 40
0.887142892
 40
0.9015939074
 40
0.9153656646
 40
0.9284417194
 40
0.9408091039
 40
0.9524586488
 40
0.9633857993
 40
0.9735914339
 40
0.9830831901
 40
0.9918776421
 40
1.0
 40
1.0
 40
1.0
 40
1.0
 10
10.5267231472
 20
11.1955315811
 30
0.0
 10
10.5267231462
 20
11.195015803
 30
0.0
 10
10.526768305
 20
11.193980069
 30
0.0
 10
10.5269712725
 20
11.1924297703
 30
0.0
 10
10.5273093097
 20
11.1908813188
 30
0.0
 10
10.5279477343
 20
11.1887936863
 30
0.0
 10
10.5291033959
 20
11.186177322
 30
0.0
 10
10.5310058464
 20
11.1831096662
 30
0.0
 10
10.5334348366
 20
11.1800749686
 30
0.0
 10
10.5363837592
 20
11.1770773763
 30
0.0
 10
10.5398463817
 20
11.1741204481
 30
0.0
 10
10.5438160949
 20
11.1712087217
 30
0.0
 10
10.5482853983
 20
11.1683470027
 30
0.0
 10
10.5532458286
 20
11.1655404615
 30
0.0
 10
10.5586878781
 20
11.1627944623
 30
0.0
 10
10.5646009313
 20
11.1601143044
 30
0.0
 10
10.5709733743
 20
11.1575053445
 30
0.0
 10
10.5777925802
 20
11.1549728317
 30
0.0
 10
10.5850449493
 20
11.1525218425
 30
0.0
 10
10.5927159809
 20
11.1501573957
 30
0.0
 10
10.6007902745
 20
11.1478842759
 30
0.0
 10
10.6092515906
 20
11.1457070965
 30
0.0
 10
10.6180828929
 20
11.143630332
 30
0.0
 10
10.627266367
 20
11.1416581735
 30
0.0
 10
10.636783481
 20
11.1397946508
 30
0.0
 10
10.6466150135
 20
11.1380435853
 30
0.0
 10
10.6567411143
 20
11.1364084779
 30
0.0
 10
10.6707578941
 20
11.1343657203
 30
0.0
 10
10.6888645312
 20
11.1321360477
 30
0.0
 10
10.7112011537
 20
11.1299962118
 30
0.0
 10
10.7341924598
 20
11.1283821664
 30
0.0
 10
10.757652615
 20
11.1273071564
 30
0.0
 10
10.7813921335
 20
11.1267800536
 30
0.0
 10
10.8052191751
 20
11.1268051953
 30
0.0
 10
10.8289411997
 20
11.1273823623
 30
0.0
 10
10.8523665081
 20
11.1285068098
 30
0.0
 10
10.8753059012
 20
11.1301692759
 30
0.0
 10
10.8975739682
 20
11.1323561191
 30
0.0
 10
10.915612944
 20
11.1346242748
 30
0.0
 10
10.9295675938
 20
11.136697042
 30
0.0
 10
10.9396416354
 20
11.1383534816
 30
0.0
 10
10.9494174477
 20
11.1401252883
 30
0.0
 10
10.958875301
 20
11.1420088419
 30
0.0
 10
10.9679960898
 20
11.1440003272
 30
0.0
 10
10.9767614105
 20
11.1460956897
 30
0.0
 10
10.9851535949
 20
11.1482906292
 30
0.0
 10
10.993155736
 20
11.15058072
 30
0.0
 10
11.0007517519
 20
11.1529612724
 30
0.0
 10
11.0079264088
 20
11.1554274397
 30
0.0
 10
11.0146653461
 20
11.1579742646
 30
0.0
 10
11.0209551622
 20
11.1605965517
 30
0.0
 10
11.0267834055
 20
11.1632890688
 30
0.0
 10
11.0321386163
 20
11.1660465173
 30
0.0
 10
11.0370103894
 20
11.1688634202
 30
0.0
 10
11.0413895715
 20
11.1717347033
 30
0.0
 10
11.0452673072
 20
11.1746548271
 30
0.0
 10
11.0476034097
 20
11.1767100946
 30
0.0
 10
11.0486764573
 20
11.177746579
 30
0.0
  0
SPLINE
  5
32C
100
AcDbEntity
  8
0
100
AcDbSpline
 62
7
  6
CONTINUOUS
 70
0
 71
3
 72
56
 73
52
 74
0
 42
0.0000001
 43
0.0000001
 44
0.0000000001
 40
0.0
 40
0.0
 40
0.0
 40
0.0
 40
0.0077402969
 40
0.0160537108
 40
0.0249598387
 40
0.0344712038
 40
0.0445943797
 40
0.0553311397
 40
0.0666793101
 40
0.0786332104
 40
0.0911844312
 40
0.1043218721
 40
0.118032378
 40
0.1323007298
 40
0.1471099874
 40
0.1624416526
 40
0.1782756943
 40
0.1945908915
 40
0.228572513
 40
0.2641948617
 40
0.3012501755
 40
0.3395182057
 40
0.3787684754
 40
0.4187624278
 40
0.4592554934
 40
0.4999991129
 40
0.540742736
 40
0.5812358109
 40
0.6212297738
 40
0.6604800535
 40
0.6987480982
 40
0.7358034384
 40
0.7714258249
 40
0.7886346525
 40
0.8054084647
 40
0.8217236544
 40
0.8375577489
 40
0.8528894005
 40
0.8676987087
 40
0.8819670629
 40
0.8956775928
 40
0.9088150684
 40
0.9213662854
 40
0.9333202482
 40
0.9446683932
 40
0.9554052234
 40
0.965528428
 40
0.9750397554
 40
0.9839458376
 40
0.9922596419
 40
1.0
 40
1.0
 40
1.0
 40
1.0
 10
10.5311327799
 20
11.1975051713
 30
0.0
 10
10.5321520776
 20
11.1965566097
 30
0.0
 10
10.534346313
 20
11.1946743524
 30
0.0
 10
10.5379459675
 20
11.1919861054
 30
0.0
 10
10.5419628418
 20
11.1893383223
 30
0.0
 10
10.5463904153
 20
11.1867352851
 30
0.0
 10
10.551221786
 20
11.1841809092
 30
0.0
 10
10.556449244
 20
11.1816792641
 30
0.0
 10
10.5620644236
 20
11.1792344237
 30
0.0
 10
10.5680582375
 20
11.1768503067
 30
0.0
 10
10.5744209759
 20
11.174530906
 30
0.0
 10
10.5811422569
 20
11.1722799687
 30
0.0
 10
10.588211108
 20
11.1701012712
 30
0.0
 10
10.5956159502
 20
11.1679983891
 30
0.0
 10
10.6033446414
 20
11.1659748039
 30
0.0
 10
10.6113844906
 20
11.1640339039
 30
0.0
 10
10.6197222957
 20
11.1621788279
 30
0.0
 10
10.6313769397
 20
11.1597916631
 30
0.0
 10
10.6465914999
 20
11.1570566255
 30
0.0
 10
10.6655672943
 20
11.1542040487
 30
0.0
 10
10.6853767031
 20
11.1517572555
 30
0.0
 10
10.7058893601
 20
11.1497326009
 30
0.0
 10
10.7269703928
 20
11.1481436548
 30
0.0
 10
10.7484810539
 20
11.1470010424
 30
0.0
 10
10.7702797407
 20
11.1463124039
 30
0.0
 10
10.7922229228
 20
11.1460823412
 30
0.0
 10
10.8141661069
 20
11.1463123919
 30
0.0
 10
10.8359647975
 20
11.1470010202
 30
0.0
 10
10.8574754669
 20
11.1481436249
 30
0.0
 10
10.8785564971
 20
11.1497325694
 30
0.0
 10
10.8990691968
 20
11.1517572091
 30
0.0
 10
10.9188785033
 20
11.1542040271
 30
0.0
 10
10.9348706051
 20
11.1566079105
 30
0.0
 10
10.947209508
 20
11.1587384705
 30
0.0
 10
10.9561016091
 20
11.1604126954
 30
0.0
 10
10.964723651
 20
11.1621787846
 30
0.0
 10
10.9730614613
 20
11.1640338119
 30
0.0
 10
10.981101323
 20
11.1659747419
 30
0.0
 10
10.9888300282
 20
11.1679982978
 30
0.0
 10
10.9962348815
 20
11.1701011932
 30
0.0
 10
11.0033037455
 20
11.1722798848
 30
0.0
 10
11.0100250421
 20
11.1745308079
 30
0.0
 10
11.0163877895
 20
11.1768502317
 30
0.0
 10
11.022381625
 20
11.1792343115
 30
0.0
 10
11.0279968108
 20
11.1816791853
 30
0.0
 10
11.0332243002
 20
11.1841807957
 30
0.0
 10
11.0380556684
 20
11.1867352006
 30
0.0
 10
11.0424832469
 20
11.1893382073
 30
0.0
 10
11.0465001913
 20
11.1919859877
 30
0.0
 10
11.0500998652
 20
11.1946743304
 30
0.0
 10
11.0522941858
 20
11.1965566109
 30
0.0
 10
11.0533135004
 20
11.1975051706
 30
0.0
  0
SPLINE
  5
32D
100
AcDbEntity
  8
0
100
AcDbSpline
 62
7
  6
CONTINUOUS
 70
0
 71
3
 72
56
 73
52
 74
0
 42
0.0000001
 43
0.0000001
 44
0.0000000001
 40
0.0
 40
0.0
 40
0.0
 40
0.0
 40
0.007740296
 40
0.0160537069
 40
0.0249598332
 40
0.0344711992
 40
0.0445943736
 40
0.055331131
 40
0.0666793025
 40
0.0786332044
 40
0.091184423
 40
0.1043218635
 40
0.1180323729
 40
0.1323007253
 40
0.1471099816
 40
0.1624416495
 40
0.178275695
 40
0.1945908922
 40
0.228572519
 40
0.2641948713
 40
0.3012501926
 40
0.3395182275
 40
0.3787685046
 40
0.4187624628
 40
0.4592555356
 40
0.4999991594
 40
0.5407427908
 40
0.5812358666
 40
0.621229838
 40
0.6604801167
 40
0.6987481663
 40
0.7358035059
 40
0.7714258913
 40
0.7886347168
 40
0.8054085312
 40
0.8217237193
 40
0.8375578088
 40
0.8528894593
 40
0.8676987672
 40
0.8819671164
 40
0.8956776416
 40
0.9088151154
 40
0.9213663287
 40
0.9333202852
 40
0.9446684257
 40
0.955405252
 40
0.9655284508
 40
0.9750397719
 40
0.983945849
 40
0.9922596478
 40
1.0
 40
1.0
 40
1.0
 40
1.0
 10
10.5364316476
 20
11.1925740184
 30
0.0
 10
10.5374302581
 20
11.1916447077
 30
0.0
 10
10.5395799601
 20
11.1898006506
 30
0.0
 10
10.5431065578
 20
11.1871669612
 30
0.0
 10
10.5470419083
 20
11.1845729147
 30
0.0
 10
10.5513796231
 20
11.1820227057
 30
0.0
 10
10.5561129396
 20
11.1795201704
 30
0.0
 10
10.5612343053
 20
11.177069296
 30
0.0
 10
10.5667355242
 20
11.1746740735
 30
0.0
 10
10.572607693
 20
11.1723383415
 30
0.0
 10
10.5788412988
 20
11.1700660128
 30
0.0
 10
10.5854261709
 20
11.1678607581
 30
0.0
 10
10.5923515597
 20
11.165726277
 30
0.0
 10
10.5996061203
 20
11.1636660725
 30
0.0
 10
10.6071779574
 20
11.1616835558
 30
0.0
 10
10.6150546382
 20
11.1597820462
 30
0.0
 10
10.6232232279
 20
11.1579646186
 30
0.0
 10
10.6346413416
 20
11.155625901
 30
0.0
 10
10.6495471226
 20
11.152946371
 30
0.0
 10
10.6681378047
 20
11.150151687
 30
0.0
 10
10.6875451828
 20
11.1477545516
 30
0.0
 10
10.7076415372
 20
11.1457709874
 30
0.0
 10
10.728294732
 20
11.1442142893
 30
0.0
 10
10.7493688361
 20
11.1430948666
 30
0.0
 10
10.77072512
 20
11.1424202047
 30
0.0
 10
10.7922229669
 20
11.1421948117
 30
0.0
 10
10.8137208148
 20
11.1424201946
 30
0.0
 10
10.8350771024
 20
11.1430948482
 30
0.0
 10
10.8561512125
 20
11.1442142649
 30
0.0
 10
10.8768044036
 20
11.1457709632
 30
0.0
 10
10.896900797
 20
11.147754514
 30
0.0
 10
10.9163080723
 20
11.1501516756
 30
0.0
 10
10.9319756124
 20
11.1525067731
 30
0.0
 10
10.9440640959
 20
11.1545940947
 30
0.0
 10
10.9527757306
 20
11.1562343422
 30
0.0
 10
10.9612227866
 20
11.1579645892
 30
0.0
 10
10.9693913787
 20
11.1597819696
 30
0.0
 10
10.9772680694
 20
11.1616835093
 30
0.0
 10
10.9848399185
 20
11.1636659979
 30
0.0
 10
10.9920944876
 20
11.1657262158
 30
0.0
 10
10.9990198861
 20
11.1678606917
 30
0.0
 10
11.0056047711
 20
11.1700659333
 30
0.0
 10
11.0118383836
 20
11.172338285
 30
0.0
 10
11.0177105706
 20
11.1746739807
 30
0.0
 10
11.0232117926
 20
11.1770692366
 30
0.0
 10
11.0283331864
 20
11.1795200776
 30
0.0
 10
11.033066498
 20
11.1820226414
 30
0.0
 10
11.0374042144
 20
11.1845728208
 30
0.0
 10
11.0413396304
 20
11.1871668652
 30
0.0
 10
11.0448662445
 20
11.1898006486
 30
0.0
 10
11.0470160281
 20
11.1916447286
 30
0.0
 10
11.0480146538
 20
11.1925740375
 30
0.0
  0
SPLINE
  5
32E
100
AcDbEntity
  8
0
100
AcDbSpline
 62
7
  6
CONTINUOUS
 70
0
 71
3
 72
71
 73
67
 74
0
 42
0.0000001
 43
0.0000001
 44
0.0000000001
 40
0.0
 40
0.0
 40
0.0
 40
0.0
 40
0.0074885549
 40
0.0110030462
 40
0.0143801565
 40
0.0176351669
 40
0.0207853695
 40
0.023850051
 40
0.0268503002
 40
0.0298087451
 40
0.0327491286
 40
0.0356956593
 40
0.0386723925
 40
0.0417025724
 40
0.044808124
 40
0.0513194889
 40
0.0583498677
 40
0.0660046437
 40
0.0700923415
 40
0.0743627428
 40
0.0834726881
 40
0.0933714289
 40
0.1040794158
 40
0.1156058248
 40
0.127951078
 40
0.1411085384
 40
0.1550655736
 40
0.1698046961
 40
0.1853042588
 40
0.2015388241
 40
0.2184798018
 40
0.2360957851
 40
0.2543526837
 40
0.273214165
 40
0.2926418557
 40
0.3125953995
 40
0.3330328086
 40
0.3539106113
 40
0.3751838967
 40
0.4187306751
 40
0.4632942084
 40
0.5084826074
 40
0.5538967515
 40
0.5991349676
 40
0.6437975895
 40
0.6874915591
 40
0.708855959
 40
0.7298362002
 40
0.7503870823
 40
0.7704647634
 40
0.7900268614
 40
0.8090326017
 40
0.8274431095
 40
0.8452215132
 40
0.8623331422
 40
0.8787459133
 40
0.8944304916
 40
0.9093606137
 40
0.9235136697
 40
0.9368710581
 40
0.9494188514
 40
0.9611488916
 40
0.9720596039
 40
0.9821577417
 40
0.9914613741
 40
1.0
 40
1.0
 40
1.0
 40
1.0
 10
10.5515122745
 20
11.2970532423
 30
0.0
 10
10.5506072237
 20
11.2960849126
 30
0.0
 10
10.5493470961
 20
11.2945923198
 30
0.0
 10
10.5478993429
 20
11.2924971621
 30
0.0
 10
10.5469811981
 20
11.2909518628
 30
0.0
 10
10.5462085841
 20
11.2894005025
 30
0.0
 10
10.5455821685
 20
11.287843805
 30
0.0
 10
10.5451025188
 20
11.2862827593
 30
0.0
 10
10.5447701846
 20
11.284718395
 30
0.0
 10
10.5445856938
 20
11.2831518491
 30
0.0
 10
10.5445492154
 20
11.2815843693
 30
0.0
 10
10.5446608018
 20
11.2800172044
 30
0.0
 10
10.5449203643
 20
11.2784516363
 30
0.0
 10
10.5453275137
 20
11.2768887778
 30
0.0
 10
10.5460780136
 20
11.2747773165
 30
0.0
 10
10.5474094214
 20
11.2721342238
 30
0.0
 10
10.5495622174
 20
11.2690493492
 30
0.0
 10
10.5517820324
 20
11.2665672563
 30
0.0
 10
10.5538234549
 20
11.2646001552
 30
0.0
 10
10.5561480034
 20
11.2625600928
 30
0.0
 10
10.5594186899
 20
11.2600465373
 30
0.0
 10
10.5638103277
 20
11.2571455731
 30
0.0
 10
10.5687403752
 20
11.2543037639
 30
0.0
 10
10.5741975293
 20
11.251527403
 30
0.0
 10
10.5801695477
 20
11.2488227429
 30
0.0
 10
10.586642727
 20
11.2461961058
 30
0.0
 10
10.5936020764
 20
11.2436536247
 30
0.0
 10
10.6010313769
 20
11.2412013297
 30
0.0
 10
10.6089132401
 20
11.2388450865
 30
0.0
 10
10.6172291345
 20
11.2365904815
 30
0.0
 10
10.6259594741
 20
11.2344429023
 30
0.0
 10
10.6350836663
 20
11.2324075068
 30
0.0
 10
10.6445801496
 20
11.2304891285
 30
0.0
 10
10.6544264702
 20
11.2286923529
 30
0.0
 10
10.6645993352
 20
11.2270214974
 30
0.0
 10
10.6750746604
 20
11.2254805228
 30
0.0
 10
10.6858276335
 20
11.2240731157
 30
0.0
 10
10.6968328072
 20
11.2228026358
 30
0.0
 10
10.7119250749
 20
11.2212835478
 30
0.0
 10
10.7312276539
 20
11.2197550181
 30
0.0
 10
10.754791021
 20
11.2185188784
 30
0.0
 10
10.7787087561
 20
11.2178790151
 30
0.0
 10
10.8027543573
 20
11.2178415459
 30
0.0
 10
10.8267003252
 20
11.2184068328
 30
0.0
 10
10.8503198884
 20
11.2195694781
 30
0.0
 10
10.8696870327
 20
11.2210373763
 30
0.0
 10
10.8848446162
 20
11.2225087365
 30
0.0
 10
10.895908392
 20
11.2237447316
 30
0.0
 10
10.906726388
 20
11.2251184379
 30
0.0
 10
10.9172730017
 20
11.2266265753
 30
0.0
 10
10.9275232496
 20
11.2282655371
 30
0.0
 10
10.937452862
 20
11.2300314379
 30
0.0
 10
10.9470383461
 20
11.2319200344
 30
0.0
 10
10.9562570328
 20
11.2339268132
 30
0.0
 10
10.9650871324
 20
11.2360470087
 30
0.0
 10
10.97350781
 20
11.2382755279
 30
0.0
 10
10.9814992223
 20
11.2406070454
 30
0.0
 10
10.9890425694
 20
11.2430360308
 30
0.0
 10
10.9961201767
 20
11.2455566702
 30
0.0
 10
11.0027155295
 20
11.2481629792
 30
0.0
 10
11.0088133207
 20
11.2508488469
 30
0.0
 10
11.0143995473
 20
11.253608009
 30
0.0
 10
11.0194614792
 20
11.2564340945
 30
0.0
 10
11.0239880359
 20
11.2593210878
 30
0.0
 10
11.0279686186
 20
11.2622625146
 30
0.0
 10
11.0303516237
 20
11.2643424276
 30
0.0
 10
11.0314386279
 20
11.2653923931
 30
0.0
  0
SPLINE
  5
32F
100
AcDbEntity
  8
0
100
AcDbSpline
 62
7
  6
CONTINUOUS
 70
0
 71
3
 72
11
 73
7
 74
0
 42
0.0000001
 43
0.0000001
 44
0.0000000001
 40
0.0
 40
0.0
 40
0.0
 40
0.0
 40
0.259809977
 40
0.5113166432
 40
0.7571130479
 40
1.0
 40
1.0
 40
1.0
 40
1.0
 10
10.6095001669
 20
11.2609262403
 30
0.0
 10
10.6092916383
 20
11.2613819627
 30
0.0
 10
10.6089229875
 20
11.2622988281
 30
0.0
 10
10.6085196034
 20
11.2637052497
 30
0.0
 10
10.6082771749
 20
11.265115196
 30
0.0
 10
10.6082231516
 20
11.2660587081
 30
0.0
 10
10.6082231465
 20
11.2665272298
 30
0.0
  0
SPLINE
  5
330
100
AcDbEntity
  8
0
100
AcDbSpline
 62
7
  6
CONTINUOUS
 70
0
 71
3
 72
63
 73
59
 74
0
 42
0.0000001
 43
0.0000001
 44
0.0000000001
 40
0.0
 40
0.0
 40
0.0
 40
0.0
 40
0.0028080624
 40
0.0056358196
 40
0.0085025067
 40
0.0114265098
 40
0.0144250775
 40
0.0175140353
 40
0.0240154024
 40
0.0310307909
 40
0.0386330598
 40
0.0468752703
 40
0.0557945774
 40
0.0654153137
 40
0.0757518004
 40
0.0868104217
 40
0.0985909587
 40
0.111087992
 40
0.1242916394
 40
0.1381881636
 40
0.1527606899
 40
0.1679893876
 40
0.1838519068
 40
0.2003237139
 40
0.2173781188
 40
0.2349866651
 40
0.2531192245
 40
0.2717440715
 40
0.2908281854
 40
0.3302347615
 40
0.3710525308
 40
0.4129793457
 40
0.4557019093
 40
0.4988990572
 40
0.5422449681
 40
0.5854123731
 40
0.6280757476
 40
0.6699144928
 40
0.7106161871
 40
0.7498798997
 40
0.7688829853
 40
0.7874207173
 40
0.8054602401
 40
0.8229701954
 40
0.8399206867
 40
0.856283557
 40
0.8720325749
 40
0.8871434775
 40
0.9015944165
 40
0.9153660985
 40
0.9284420852
 40
0.9408094058
 40
0.9524588886
 40
0.9633859827
 40
0.9735915659
 40
0.9830832737
 40
0.9918776816
 40
1.0
 40
1.0
 40
1.0
 40
1.0
 10
10.5212231474
 20
10.9806128529
 30
0.0
 10
10.5212231526
 20
10.9800863905
 30
0.0
 10
10.5212692579
 20
10.9790292036
 30
0.0
 10
10.5214764567
 20
10.9774467808
 30
0.0
 10
10.5218214844
 20
10.9758662933
 30
0.0
 10
10.522303975
 20
10.9742888528
 30
0.0
 10
10.522923593
 20
10.9727152751
 30
0.0
 10
10.5239491288
 20
10.9705874925
 30
0.0
 10
10.5255948419
 20
10.9679332402
 30
0.0
 10
10.5280740078
 20
10.9648361855
 30
0.0
 10
10.5310841012
 20
10.96177635
 30
0.0
 10
10.5346184669
 20
10.9587582191
 30
0.0
 10
10.5386704469
 20
10.9557861669
 30
0.0
 10
10.5432323583
 20
10.9528651758
 30
0.0
 10
10.5482955712
 20
10.9500005008
 30
0.0
 10
10.5538503783
 20
10.9471976236
 30
0.0
 10
10.5598859443
 20
10.9444619511
 30
0.0
 10
10.5663904151
 20
10.9417989521
 30
0.0
 10
10.5733509022
 20
10.9392139839
 30
0.0
 10
10.5807535239
 20
10.936712228
 30
0.0
 10
10.5885834792
 20
10.9342988075
 30
0.0
 10
10.5968250488
 20
10.9319786062
 30
0.0
 10
10.6054616565
 20
10.9297563324
 30
0.0
 10
10.6144759131
 20
10.9276365538
 30
0.0
 10
10.6238496353
 20
10.9256235483
 30
0.0
 10
10.6335639075
 20
10.9237214288
 30
0.0
 10
10.6435991098
 20
10.921934096
 30
0.0
 10
10.6539349809
 20
10.9202651236
 30
0.0
 10
10.6682421265
 20
10.9181800586
 30
0.0
 10
10.6867238501
 20
10.9159042085
 30
0.0
 10
10.7095231802
 20
10.9137200573
 30
0.0
 10
10.7329907518
 20
10.9120725879
 30
0.0
 10
10.7569368796
 20
10.9109753195
 30
0.0
 10
10.7811681545
 20
10.9104373074
 30
0.0
 10
10.8054887622
 20
10.9104629785
 30
0.0
 10
10.8297021744
 20
10.9110521097
 30
0.0
 10
10.8536127223
 20
10.9121998568
 30
0.0
 10
10.8770272867
 20
10.9138967668
 30
0.0
 10
10.8997566179
 20
10.9161289157
 30
0.0
 10
10.9181692541
 20
10.9184440592
 30
0.0
 10
10.9324129617
 20
10.9205597663
 30
0.0
 10
10.9426956774
 20
10.9222505204
 30
0.0
 10
10.9526739858
 20
10.9240590311
 30
0.0
 10
10.9623277488
 20
10.9259816035
 30
0.0
 10
10.9716374655
 20
10.9280143431
 30
0.0
 10
10.9805843508
 20
10.9301531113
 30
0.0
 10
10.9891503703
 20
10.9323935193
 30
0.0
 10
10.9973182676
 20
10.9347310494
 30
0.0
 10
11.0050716272
 20
10.9371609146
 30
0.0
 10
11.0123948997
 20
10.9396781682
 30
0.0
 10
11.0192734271
 20
10.9422777502
 30
0.0
 10
11.0256935307
 20
10.9449543572
 30
0.0
 10
11.0316425005
 20
10.9477026489
 30
0.0
 10
11.0371086395
 20
10.9505172171
 30
0.0
 10
11.0420813273
 20
10.953392471
 30
0.0
 10
11.0465512208
 20
10.9563232315
 30
0.0
 10
11.0505092809
 20
10.9593038444
 30
0.0
 10
11.0528937744
 20
10.9614016857
 30
0.0
 10
11.0539890496
 20
10.9624596404
 30
0.0
  0
SPLINE
  5
331
100
AcDbEntity
  8
0
100
AcDbSpline
 62
7
  6
CONTINUOUS
 70
0
 71
3
 72
15
 73
11
 74
0
 42
0.0000001
 43
0.0000001
 44
0.0000000001
 40
0.0
 40
0.0
 40
0.0
 40
0.0
 40
0.134983681
 40
0.2655173795
 40
0.3924559875
 40
0.5166294064
 40
0.6388132256
 40
0.7597087297
 40
0.8799312555
 40
1.0
 40
1.0
 40
1.0
 40
1.0
 10
10.537137373
 20
10.9854337513
 30
0.0
 10
10.5382024064
 20
10.984908032
 30
0.0
 10
10.5403348911
 20
10.9839476758
 30
0.0
 10
10.5435832975
 20
10.9827669661
 30
0.0
 10
10.5468201813
 20
10.981860761
 30
0.0
 10
10.5500439913
 20
10.9812157913
 30
0.0
 10
10.5532537527
 20
10.9808179773
 30
0.0
 10
10.5564488159
 20
10.9806528511
 30
0.0
 10
10.559628691
 20
10.9807058744
 30
0.0
 10
10.5617376617
 20
10.9808771188
 30
0.0
 10
10.5627876467
 20
10.9809941137
 30
0.0
  0
SPLINE
  5
332
100
AcDbEntity
  8
0
100
AcDbSpline
 62
7
  6
CONTINUOUS
 70
0
 71
3
 72
11
 73
7
 74
0
 42
0.0000001
 43
0.0000001
 44
0.0000000001
 40
0.0
 40
0.0
 40
0.0
 40
0.0
 40
0.2650066933
 40
0.5197779513
 40
0.7646443457
 40
1.0
 40
1.0
 40
1.0
 40
1.0
 10
10.1876439671
 20
10.4041870685
 30
0.0
 10
10.1862699867
 20
10.4053133326
 30
0.0
 10
10.1836154218
 20
10.4075722513
 30
0.0
 10
10.1798484282
 20
10.4110511155
 30
0.0
 10
10.1763778011
 20
10.4145510729
 30
0.0
 10
10.1742212112
 20
10.4169435043
 30
0.0
 10
10.1731959189
 20
10.4181427875
 30
0.0
  0
SPLINE
  5
333
100
AcDbEntity
  8
0
100
AcDbSpline
 62
7
  6
CONTINUOUS
 70
0
 71
3
 72
47
 73
43
 74
0
 42
0.0000001
 43
0.0000001
 44
0.0000000001
 40
0.0
 40
0.0
 40
0.0
 40
0.0
 40
0.0099875572
 40
0.0204479562
 40
0.0313775564
 40
0.0427712671
 40
0.0546224661
 40
0.0669233613
 40
0.079664951
 40
0.0928372272
 40
0.1204282083
 40
0.1495996799
 40
0.1802419582
 40
0.2122351141
 40
0.2454502975
 40
0.2797509948
 40
0.3149940799
 40
0.3510308701
 40
0.3877080829
 40
0.4248687831
 40
0.4623533214
 40
0.5000002226
 40
0.5376471259
 40
0.575131652
 40
0.612292342
 40
0.6489695358
 40
0.6850063034
 40
0.7202493663
 40
0.7545500316
 40
0.7877651921
 40
0.8197583109
 40
0.8504005655
 40
0.8795719969
 40
0.9071629503
 40
0.9203351845
 40
0.9330767728
 40
0.9453776146
 40
0.9572288312
 40
0.9686224801
 40
0.9795520948
 40
0.9900124138
 40
1.0
 40
1.0
 40
1.0
 40
1.0
 10
10.5521762944
 20
10.9780048024
 30
0.0
 10
10.5536365426
 20
10.9772834712
 30
0.0
 10
10.5566511029
 20
10.9758567173
 30
0.0
 10
10.5613398197
 20
10.9738062887
 30
0.0
 10
10.5662950999
 20
10.9717981185
 30
0.0
 10
10.5715112249
 20
10.9698346172
 30
0.0
 10
10.5769822295
 20
10.9679179903
 30
0.0
 10
10.5827018346
 20
10.9660505024
 30
0.0
 10
10.5886634707
 20
10.9642342638
 30
0.0
 10
10.5970560855
 20
10.9618468617
 30
0.0
 10
10.6081061895
 20
10.95901703
 30
0.0
 10
10.6220181099
 20
10.9559074173
 30
0.0
 10
10.6367155254
 20
10.9530482571
 30
0.0
 10
10.6521306818
 20
10.9504529182
 30
0.0
 10
10.6681926326
 20
10.9481335697
 30
0.0
 10
10.6848273116
 20
10.9461010666
 30
0.0
 10
10.7019579786
 20
10.9443649173
 30
0.0
 10
10.7195055605
 20
10.9429332379
 30
0.0
 10
10.7373890348
 20
10.9418127177
 30
0.0
 10
10.7555258098
 20
10.9410085899
 30
0.0
 10
10.7738321099
 20
10.9405246089
 30
0.0
 10
10.7922233709
 20
10.9403630335
 30
0.0
 10
10.8106146298
 20
10.9405246183
 30
0.0
 10
10.8289209263
 20
10.9410086084
 30
0.0
 10
10.8470576942
 20
10.9418127454
 30
0.0
 10
10.8649411595
 20
10.9429332739
 30
0.0
 10
10.8824887302
 20
10.9443649618
 30
0.0
 10
10.8996193839
 20
10.9461011184
 30
0.0
 10
10.9162540494
 20
10.948133629
 30
0.0
 10
10.9323159842
 20
10.9504529834
 30
0.0
 10
10.9477311256
 20
10.9530483289
 30
0.0
 10
10.9624285236
 20
10.9559074932
 30
0.0
 10
10.9763404265
 20
10.9590171147
 30
0.0
 10
10.9873905141
 20
10.9618469399
 30
0.0
 10
10.9957831102
 20
10.9642343644
 30
0.0
 10
11.0017447359
 20
10.9660505838
 30
0.0
 10
11.0074643247
 20
10.9679181014
 30
0.0
 10
11.0129353228
 20
10.9698346993
 30
0.0
 10
11.0181514278
 20
10.9717982394
 30
0.0
 10
11.0231067009
 20
10.973806372
 30
0.0
 10
11.0277953935
 20
10.9758568413
 30
0.0
 10
11.0308099553
 20
10.977283572
 30
0.0
 10
11.0322702068
 20
10.9780049071
 30
0.0
  0
SPLINE
  5
334
100
AcDbEntity
  8
0
100
AcDbSpline
 62
7
  6
CONTINUOUS
 70
0
 71
3
 72
52
 73
48
 74
0
 42
0.0000001
 43
0.0000001
 44
0.0000000001
 40
0.0
 40
0.0
 40
0.0
 40
0.0
 40
0.0417980112
 40
0.0840613185
 40
0.1266598642
 40
0.1694645303
 40
0.2123440439
 40
0.2551673655
 40
0.2978035072
 40
0.3401222952
 40
0.381994752
 40
0.4232937106
 40
0.4638943311
 40
0.5036745759
 40
0.542515833
 40
0.5803034532
 40
0.6169273062
 40
0.6522824541
 40
0.686269829
 40
0.7187969329
 40
0.7497787454
 40
0.764666314
 40
0.7791396677
 40
0.793190702
 40
0.8068121326
 40
0.8199973707
 40
0.8327406709
 40
0.8450372405
 40
0.8568831888
 40
0.8682758767
 40
0.8792137327
 40
0.8896967694
 40
0.8997264122
 40
0.9093060261
 40
0.9184409571
 40
0.9271389796
 40
0.9354106667
 40
0.9432697433
 40
0.9507338016
 40
0.95782462
 40
0.9645690732
 40
0.9709994556
 40
0.9771542272
 40
0.9830781044
 40
0.9888220321
 40
0.9944424586
 40
1.0
 40
1.0
 40
1.0
 40
1.0
 10
10.6635901759
 20
10.3734003217
 30
0.0
 10
10.6728148968
 20
10.3727605851
 30
0.0
 10
10.6913775631
 20
10.3716214646
 30
0.0
 10
10.7193697496
 20
10.3703358177
 30
0.0
 10
10.7476008058
 20
10.3694663125
 30
0.0
 10
10.7759779595
 20
10.3690157779
 30
0.0
 10
10.8044084003
 20
10.368985732
 30
0.0
 10
10.8327988915
 20
10.3693762547
 30
0.0
 10
10.861056433
 20
10.3701860671
 30
0.0
 10
10.8890884264
 20
10.3714124918
 30
0.0
 10
10.9168030272
 20
10.3730514826
 30
0.0
 10
10.9441094352
 20
10.3750976277
 30
0.0
 10
10.9709182
 20
10.3775441689
 30
0.0
 10
10.9971415177
 20
10.3803830215
 30
0.0
 10
11.0226935209
 20
10.3836048025
 30
0.0
 10
11.0474905672
 20
10.3871988594
 30
0.0
 10
11.0714515235
 20
10.3911533018
 30
0.0
 10
11.0944980216
 20
10.3954550466
 30
0.0
 10
11.1165548108
 20
10.4000898419
 30
0.0
 10
11.1375497302
 20
10.40504237
 30
0.0
 10
11.1543192439
 20
10.4094773893
 30
0.0
 10
11.1671447738
 20
10.4131823646
 30
0.0
 10
11.1763286094
 20
10.4159932198
 30
0.0
 10
11.1851977339
 20
10.4188708624
 30
0.0
 10
11.1937449205
 20
10.4218129132
 30
0.0
 10
11.2019631931
 20
10.4248169684
 30
0.0
 10
11.2098458511
 20
10.4278805824
 30
0.0
 10
11.2173864904
 20
10.4310012005
 30
0.0
 10
11.2245789632
 20
10.4341763497
 30
0.0
 10
11.2314174621
 20
10.4374033426
 30
0.0
 10
11.2378964183
 20
10.440679671
 30
0.0
 10
11.2440106404
 20
10.444002576
 30
0.0
 10
11.2497551761
 20
10.4473694891
 30
0.0
 10
11.2551254486
 20
10.4507776604
 30
0.0
 10
11.2601171536
 20
10.4542244494
 30
0.0
 10
11.2647263067
 20
10.4577071936
 30
0.0
 10
11.2689492694
 20
10.4612232095
 30
0.0
 10
11.2727825992
 20
10.4647699856
 30
0.0
 10
11.2762232742
 20
10.468344871
 30
0.0
 10
11.2792682887
 20
10.4719455156
 30
0.0
 10
11.281915059
 20
10.4755693603
 30
0.0
 10
11.2841608484
 20
10.479214082
 30
0.0
 10
11.2860032224
 20
10.4828770881
 30
0.0
 10
11.2874396206
 20
10.4865556269
 30
0.0
 10
11.2884677047
 20
10.4902466934
 30
0.0
 10
11.2890855152
 20
10.4939460077
 30
0.0
 10
11.2892231204
 20
10.4964210269
 30
0.0
 10
11.2892231143
 20
10.4976505089
 30
0.0
  0
SPLINE
  5
335
100
AcDbEntity
  8
0
100
AcDbSpline
 62
7
  6
CONTINUOUS
 70
0
 71
3
 72
41
 73
37
 74
0
 42
0.0000001
 43
0.0000001
 44
0.0000000001
 40
0.0
 40
0.0
 40
0.0
 40
0.0
 40
0.0958307027
 40
0.1890987263
 40
0.2345950386
 40
0.2792396831
 40
0.3229660345
 40
0.3657094429
 40
0.4074072781
 40
0.447999547
 40
0.4874289034
 40
0.5256407482
 40
0.5625838472
 40
0.5982103569
 40
0.6324761786
 40
0.6653415841
 40
0.6967713612
 40
0.726735607
 40
0.7552104892
 40
0.7821787957
 40
0.8076313934
 40
0.8315685426
 40
0.8540015412
 40
0.8749554748
 40
0.8944720203
 40
0.9126134225
 40
0.9294676749
 40
0.9374506297
 40
0.9451595761
 40
0.9598340293
 40
0.9668560442
 40
0.9737030598
 40
0.9804064212
 40
0.9869997951
 40
0.993518694
 40
1.0
 40
1.0
 40
1.0
 40
1.0
 10
10.6635901759
 20
10.3734003217
 30
0.0
 10
10.6506452997
 20
10.3742980519
 30
0.0
 10
10.6251204793
 20
10.3763542396
 30
0.0
 10
10.5935233594
 20
10.3796515848
 30
0.0
 10
10.568875769
 20
10.3826977606
 30
0.0
 10
10.5509162927
 20
10.3851555129
 30
0.0
 10
10.5333603749
 20
10.3878010193
 30
0.0
 10
10.5162373113
 20
10.3906298295
 30
0.0
 10
10.4995757198
 20
10.3936372252
 30
0.0
 10
10.4834034288
 20
10.3968181315
 30
0.0
 10
10.4677474374
 20
10.4001671793
 30
0.0
 10
10.4526338826
 20
10.4036787833
 30
0.0
 10
10.4380879672
 20
10.407346996
 30
0.0
 10
10.4241339305
 20
10.4111656537
 30
0.0
 10
10.4107950095
 20
10.4151283746
 30
0.0
 10
10.3980933688
 20
10.419228448
 30
0.0
 10
10.386050091
 20
10.4234590254
 30
0.0
 10
10.3746851126
 20
10.4278130378
 30
0.0
 10
10.364017161
 20
10.4322831692
 30
0.0
 10
10.3540637701
 20
10.4368620567
 30
0.0
 10
10.3448411769
 20
10.4415421513
 30
0.0
 10
10.3363642961
 20
10.4463158236
 30
0.0
 10
10.3286467402
 20
10.4511755808
 30
0.0
 10
10.321700765
 20
10.4561138759
 30
0.0
 10
10.315537176
 20
10.4611236394
 30
0.0
 10
10.3101662319
 20
10.4661977308
 30
0.0
 10
10.3062900958
 20
10.4705510627
 30
0.0
 10
10.3036183261
 20
10.4740582556
 30
0.0
 10
10.3013054891
 20
10.4774594553
 30
0.0
 10
10.2993488012
 20
10.4809410097
 30
0.0
 10
10.297798473
 20
10.4844840867
 30
0.0
 10
10.2968597685
 20
10.4871093247
 30
0.0
 10
10.2961290115
 20
10.4897397219
 30
0.0
 10
10.2956065738
 20
10.4923742082
 30
0.0
 10
10.2952929295
 20
10.4950112617
 30
0.0
 10
10.2952231605
 20
10.4967723421
 30
0.0
 10
10.2952231561
 20
10.4976499441
 30
0.0
  0
SPLINE
  5
336
100
AcDbEntity
  8
0
100
AcDbSpline
 62
7
  6
CONTINUOUS
 70
0
 71
3
 72
66
 73
62
 74
0
 42
0.0000001
 43
0.0000001
 44
0.0000000001
 40
0.0
 40
0.0
 40
0.0
 40
0.0
 40
0.0466983152
 40
0.093999684
 40
0.1416791413
 40
0.1895081037
 40
0.2372576595
 40
0.2846992378
 40
0.3316061973
 40
0.3777552013
 40
0.4229277315
 40
0.4669114464
 40
0.5095017888
 40
0.5302134207
 40
0.550504301
 40
0.570351785
 40
0.589733997
 40
0.6086299076
 40
0.6270194723
 40
0.644883554
 40
0.6622042317
 40
0.6789646448
 40
0.695149301
 40
0.7107440587
 40
0.7257363138
 40
0.7401152368
 40
0.7538717979
 40
0.7669992449
 40
0.7794931297
 40
0.7913519319
 40
0.8025773393
 40
0.8131748933
 40
0.8231547581
 40
0.8325324724
 40
0.8413303168
 40
0.8495784122
 40
0.8573165279
 40
0.8645956043
 40
0.8714793691
 40
0.8747981854
 40
0.8780484003
 40
0.8812417631
 40
0.884390759
 40
0.8875084571
 40
0.8906083538
 40
0.8937042086
 40
0.8968098381
 40
0.8999389143
 40
0.9031047867
 40
0.9063202894
 40
0.9095976049
 40
0.9163798346
 40
0.9235361478
 40
0.9311342715
 40
0.9392287012
 40
0.9478623293
 40
0.9570679088
 40
0.9668698586
 40
0.9772855838
 40
0.9883266773
 40
1.0
 40
1.0
 40
1.0
 40
1.0
 10
10.6485786837
 20
10.3589003328
 30
0.0
 10
10.6614880853
 20
10.3580050627
 30
0.0
 10
10.6874921996
 20
10.3564616633
 30
0.0
 10
10.7267230095
 20
10.3548861951
 30
0.0
 10
10.7662898095
 20
10.3540399412
 30
0.0
 10
10.8059896291
 20
10.3539273377
 30
0.0
 10
10.8456188388
 20
10.3545489443
 30
0.0
 10
10.8849742338
 20
10.3559015489
 30
0.0
 10
10.9238540095
 20
10.3579781305
 30
0.0
 10
10.9620588191
 20
10.3607679199
 30
0.0
 10
10.9993928747
 20
10.3642564193
 30
0.0
 10
11.0356647034
 20
10.3684255437
 30
0.0
 10
11.0651187521
 20
10.37248563
 30
0.0
 10
11.088004598
 20
10.3760686975
 30
0.0
 10
11.1046298463
 20
10.3788868659
 30
0.0
 10
11.1208542307
 20
10.3818571333
 30
0.0
 10
11.1366569741
 20
10.3849757082
 30
0.0
 10
11.1520178164
 20
10.3882385866
 30
0.0
 10
11.1669170765
 20
10.3916415136
 30
0.0
 10
11.1813356664
 20
10.3951801747
 30
0.0
 10
11.1952551352
 20
10.3988499303
 30
0.0
 10
11.2086576722
 20
10.4026461235
 30
0.0
 10
11.2215261498
 20
10.4065638147
 30
0.0
 10
11.2338441327
 20
10.4105979755
 30
0.0
 10
11.2455959078
 20
10.414743439
 30
0.0
 10
11.2567665284
 20
10.418994822
 30
0.0
 10
11.2673417895
 20
10.4233467657
 30
0.0
 10
11.277308324
 20
10.4277936115
 30
0.0
 10
11.2866535324
 20
10.4323298041
 30
0.0
 10
11.2953657014
 20
10.4369495578
 30
0.0
 10
11.3034339537
 20
10.4416471429
 30
0.0
 10
11.3108482738
 20
10.4464168302
 30
0.0
 10
11.3175995747
 20
10.4512528475
 30
0.0
 10
11.3236795096
 20
10.4561497203
 30
0.0
 10
11.329080682
 20
10.4611019565
 30
0.0
 10
11.3337961667
 20
10.4661045015
 30
0.0
 10
11.3378197303
 20
10.4711526354
 30
0.0
 10
11.3411449202
 20
10.4762410995
 30
0.0
 10
11.343355461
 20
10.4805643075
 30
0.0
 10
11.3447500952
 20
10.4840236114
 30
0.0
 10
11.3456059102
 20
10.4865918246
 30
0.0
 10
11.3462835803
 20
10.4891640867
 30
0.0
 10
11.346782853
 20
10.4917395458
 30
0.0
 10
11.3471034905
 20
10.4943172438
 30
0.0
 10
11.3472452728
 20
10.4968962251
 30
0.0
 10
11.3472080818
 20
10.499475496
 30
0.0
 10
11.3469920154
 20
10.502054062
 30
0.0
 10
11.3465971874
 20
10.5046309543
 30
0.0
 10
11.3460237525
 20
10.507205183
 30
0.0
 10
11.3452720068
 20
10.5097759001
 30
0.0
 10
11.344018511
 20
10.5132365429
 30
0.0
 10
11.3419841871
 20
10.5175647175
 30
0.0
 10
11.3388643171
 20
10.5226642399
 30
0.0
 10
11.3350441899
 20
10.5277247707
 30
0.0
 10
11.3305303593
 20
10.5327411045
 30
0.0
 10
11.3253289349
 20
10.537708565
 30
0.0
 10
11.3194466804
 20
10.5426221647
 30
0.0
 10
11.312890827
 20
10.5474765498
 30
0.0
 10
11.3056693892
 20
10.5522662064
 30
0.0
 10
11.2977914047
 20
10.55698544
 30
0.0
 10
11.2922621393
 20
10.5599968892
 30
0.0
 10
11.28939416
 20
10.5614929934
 30
0.0
  0
SPLINE
  5
337
100
AcDbEntity
  8
0
100
AcDbSpline
 62
7
  6
CONTINUOUS
 70
0
 71
3
 72
11
 73
7
 74
0
 42
0.0000001
 43
0.0000001
 44
0.0000000001
 40
0.0
 40
0.0
 40
0.0
 40
0.0
 40
0.2466535509
 40
0.4946601618
 40
0.7453484563
 40
1.0
 40
1.0
 40
1.0
 40
1.0
 10
10.5212231474
 20
11.2220946391
 30
0.0
 10
10.5212231439
 20
11.2216293693
 30
0.0
 10
10.5212590858
 20
11.2206958859
 30
0.0
 10
10.5214207257
 20
11.2192979224
 30
0.0
 10
10.5216899527
 20
11.2179013034
 30
0.0
 10
10.5219387326
 20
11.2169801015
 30
0.0
 10
10.522080123
 20
11.2165210249
 30
0.0
  0
SPLINE
  5
338
100
AcDbEntity
  8
0
100
AcDbSpline
 62
7
  6
CONTINUOUS
 70
0
 71
3
 72
60
 73
56
 74
0
 42
0.0000001
 43
0.0000001
 44
0.0000000001
 40
0.0
 40
0.0
 40
0.0
 40
0.0
 40
0.0029083125
 40
0.0058957076
 40
0.0121590036
 40
0.0188893484
 40
0.0261605298
 40
0.034027527
 40
0.0425297104
 40
0.0516938601
 40
0.0615369347
 40
0.0720678076
 40
0.0832889989
 40
0.0951978067
 40
0.107787025
 40
0.1210458794
 40
0.1349603007
 40
0.1495134458
 40
0.1646860925
 40
0.1804566906
 40
0.1968018321
 40
0.2136962738
 40
0.2311131172
 40
0.2490240787
 40
0.2673994177
 40
0.3054175507
 40
0.3449084405
 40
0.3855973185
 40
0.4271978853
 40
0.4694152289
 40
0.5119487028
 40
0.5544947496
 40
0.5967496918
 40
0.6384125333
 40
0.6791877927
 40
0.7187883473
 40
0.7569383487
 40
0.775387529
 40
0.7933773664
 40
0.8108779303
 40
0.8278606412
 40
0.8442984259
 40
0.8601657005
 40
0.8754387595
 40
0.8900957677
 40
0.9041170266
 40
0.9174853546
 40
0.9301861561
 40
0.9422080596
 40
0.9535433092
 40
0.964188337
 40
0.9741446628
 40
0.9834201045
 40
0.9920306307
 40
1.0
 40
1.0
 40
1.0
 40
1.0
 10
10.522080123
 20
11.2165210249
 30
0.0
 10
10.5222390022
 20
11.2160051644
 30
0.0
 10
10.5226023897
 20
11.2149716847
 30
0.0
 10
10.5235070932
 20
11.2129024999
 30
0.0
 10
10.5249819822
 20
11.2103181725
 30
0.0
 10
10.5272345201
 20
11.2072967527
 30
0.0
 10
10.5299910921
 20
11.2043090354
 30
0.0
 10
10.5332457303
 20
11.2013592439
 30
0.0
 10
10.5369924426
 20
11.1984512373
 30
0.0
 10
10.5412244678
 20
11.1955894983
 30
0.0
 10
10.5459342783
 20
11.1927788801
 30
0.0
 10
10.551113312
 20
11.1900242992
 30
0.0
 10
10.55675208
 20
11.1873308006
 30
0.0
 10
10.5628401388
 20
11.1847034483
 30
0.0
 10
10.5693660904
 20
11.1821471484
 30
0.0
 10
10.5763176758
 20
11.1796668282
 30
0.0
 10
10.5836817539
 20
11.1772672104
 30
0.0
 10
10.5914443652
 20
11.1749528877
 30
0.0
 10
10.5995907687
 20
11.1727283559
 30
0.0
 10
10.6081054518
 20
11.1705978438
 30
0.0
 10
10.6169721915
 20
11.1685654874
 30
0.0
 10
10.6261740751
 20
11.166635197
 30
0.0
 10
10.6356935308
 20
11.1648106666
 30
0.0
 10
10.6455123962
 20
11.1630954272
 30
0.0
 10
10.6591330913
 20
11.1609340954
 30
0.0
 10
10.6767697919
 20
11.1585399472
 30
0.0
 10
10.6985820456
 20
11.1561801041
 30
0.0
 10
10.7211097486
 20
11.1543203537
 30
0.0
 10
10.7441807402
 20
11.1529751287
 30
0.0
 10
10.7676188385
 20
11.1521549045
 30
0.0
 10
10.7912449491
 20
11.151866048
 30
0.0
 10
10.8148785344
 20
11.1521108059
 30
0.0
 10
10.8383389986
 20
11.1528872802
 30
0.0
 10
10.8614470745
 20
11.1541894429
 30
0.0
 10
10.8840262936
 20
11.1560071407
 30
0.0
 10
10.9059040957
 20
11.1583262766
 30
0.0
 10
10.9236043093
 20
11.1606871179
 30
0.0
 10
10.9372825451
 20
11.1628225382
 30
0.0
 10
10.9471491292
 20
11.1645193848
 30
0.0
 10
10.9567193684
 20
11.1663260647
 30
0.0
 10
10.9659749991
 20
11.1682391311
 30
0.0
 10
10.9748983491
 20
11.1702548608
 30
0.0
 10
10.9834723908
 20
11.172369423
 30
0.0
 10
10.9916807861
 20
11.1745787048
 30
0.0
 10
10.9995079078
 20
11.1768784656
 30
0.0
 10
11.0069388751
 20
11.1792643073
 30
0.0
 10
11.0139596066
 20
11.181731597
 30
0.0
 10
11.0205568165
 20
11.1842756628
 30
0.0
 10
11.0267180967
 20
11.1868916191
 30
0.0
 10
11.0324319237
 20
11.1895745026
 30
0.0
 10
11.0376876567
 20
11.1923193592
 30
0.0
 10
11.0424756458
 20
11.1951210148
 30
0.0
 10
11.0467873716
 20
11.1979747086
 30
0.0
 10
11.0506145485
 20
11.2008752249
 30
0.0
 10
11.0529252092
 20
11.2029135203
 30
0.0
 10
11.0539890496
 20
11.2039411113
 30
0.0
  0
SPLINE
  5
339
100
AcDbEntity
  8
0
100
AcDbSpline
 62
7
  6
CONTINUOUS
 70
0
 71
3
 72
32
 73
28
 74
0
 42
0.0000001
 43
0.0000001
 44
0.0000000001
 40
0.0
 40
0.0
 40
0.0
 40
0.0
 40
0.070986715
 40
0.1429800123
 40
0.2155046133
 40
0.2880787444
 40
0.3602208254
 40
0.4314529647
 40
0.5013050501
 40
0.5355705332
 40
0.5693204349
 40
0.6025001087
 40
0.6350562205
 40
0.6669368184
 40
0.6980915761
 40
0.728471942
 40
0.7580312226
 40
0.7867248714
 40
0.8145106392
 40
0.8413487032
 40
0.8672020746
 40
0.8920368069
 40
0.915822208
 40
0.9385313979
 40
0.9601417631
 40
0.9806354001
 40
1.0
 40
1.0
 40
1.0
 40
1.0
 10
10.6529786038
 20
9.6985933217
 30
0.0
 10
10.6677310929
 20
9.6975702331
 30
0.0
 10
10.6974704587
 20
9.695858093
 30
0.0
 10
10.7423401282
 20
9.6942832408
 30
0.0
 10
10.7875643988
 20
9.6936893163
 30
0.0
 10
10.8328217833
 20
9.6940806828
 30
0.0
 10
10.87779076
 20
9.6954544585
 30
0.0
 10
10.922151635
 20
9.6978007824
 30
0.0
 10
10.9585790612
 20
9.7005696489
 30
0.0
 10
10.9871731518
 20
9.7032677488
 30
0.0
 10
11.008135163
 20
9.7055090515
 30
0.0
 10
11.0287131145
 20
9.707976867
 30
0.0
 10
11.0488704538
 20
9.7106667996
 30
0.0
 10
11.068571334
 20
9.7135740634
 30
0.0
 10
11.0877807414
 20
9.7166934459
 30
0.0
 10
11.1064645421
 20
9.7200193514
 30
0.0
 10
11.124589542
 20
9.7235458621
 30
0.0
 10
11.1421235589
 20
9.7272666569
 30
0.0
 10
11.1590354745
 20
9.7311750562
 30
0.0
 10
11.1752952839
 20
9.7352640999
 30
0.0
 10
11.1908741773
 20
9.7395264628
 30
0.0
 10
11.2057445865
 20
9.7439544956
 30
0.0
 10
11.2198802244
 20
9.7485403224
 30
0.0
 10
11.2332561391
 20
9.753275741
 30
0.0
 10
11.2458489021
 20
9.7581523266
 30
0.0
 10
11.2576361638
 20
9.7631613456
 30
0.0
 10
11.2651580723
 20
9.7666834854
 30
0.0
 10
11.2687748734
 20
9.768470133
 30
0.0
  0
SPLINE
  5
33A
100
AcDbEntity
  8
0
100
AcDbSpline
 62
7
  6
CONTINUOUS
 70
0
 71
3
 72
60
 73
56
 74
0
 42
0.0000001
 43
0.0000001
 44
0.0000000001
 40
0.0
 40
0.0
 40
0.0
 40
0.0
 40
0.0540181726
 40
0.1071706226
 40
0.1593153522
 40
0.2103182027
 40
0.2600467884
 40
0.3083744367
 40
0.3551795812
 40
0.4003468516
 40
0.4437676416
 40
0.485340962
 40
0.5249744173
 40
0.5440379799
 40
0.5625864021
 40
0.5806110944
 40
0.598104294
 40
0.6150589792
 40
0.6314692546
 40
0.6473300288
 40
0.6626375296
 40
0.6773890851
 40
0.6915834502
 40
0.7052209809
 40
0.7183036213
 40
0.7308354852
 40
0.7428227039
 40
0.7542741548
 40
0.7652015413
 40
0.7756199736
 40
0.7855485298
 40
0.7950106085
 40
0.8040348634
 40
0.8126554747
 40
0.8209130138
 40
0.8288546508
 40
0.8365343418
 40
0.8440125427
 40
0.8513552225
 40
0.8586324835
 40
0.865916475
 40
0.8732791378
 40
0.8807899298
 40
0.8885139274
 40
0.8965103667
 40
0.9048320279
 40
0.9135247691
 40
0.922627969
 40
0.9321747504
 40
0.9421926767
 40
0.9527044072
 40
0.9637281108
 40
0.9752783549
 40
0.987366195
 40
1.0
 40
1.0
 40
1.0
 40
1.0
 10
10.6485786837
 20
10.3589003328
 30
0.0
 10
10.6390811561
 20
10.3595589886
 30
0.0
 10
10.6202475689
 20
10.361003898
 30
0.0
 10
10.592286392
 20
10.3635770543
 30
0.0
 10
10.5648974243
 20
10.366533082
 30
0.0
 10
10.5381593652
 20
10.3698633464
 30
0.0
 10
10.5121484737
 20
10.3735583138
 30
0.0
 10
10.4869392384
 20
10.3776072794
 30
0.0
 10
10.4626036866
 20
10.3819985681
 30
0.0
 10
10.439211361
 20
10.386719492
 30
0.0
 10
10.4168289761
 20
10.3917564007
 30
0.0
 10
10.3955205055
 20
10.3970947521
 30
0.0
 10
10.3784952178
 20
10.4018411095
 30
0.0
 10
10.3654652388
 20
10.4057873257
 30
0.0
 10
10.3561252174
 20
10.4087742796
 30
0.0
 10
10.3470973914
 20
10.4118247423
 30
0.0
 10
10.3383881819
 20
10.4149365136
 30
0.0
 10
10.3300038143
 20
10.4181074303
 30
0.0
 10
10.3219502383
 20
10.4213351324
 30
0.0
 10
10.3142332039
 20
10.4246174065
 30
0.0
 10
10.3068581754
 20
10.4279518357
 30
0.0
 10
10.2998303918
 20
10.4313360835
 30
0.0
 10
10.2931548334
 20
10.4347677584
 30
0.0
 10
10.2868361902
 20
10.4382443794
 30
0.0
 10
10.2808789508
 20
10.4417636003
 30
0.0
 10
10.2752872478
 20
10.4453228543
 30
0.0
 10
10.2700650478
 20
10.4489197947
 30
0.0
 10
10.2652159609
 20
10.4525518913
 30
0.0
 10
10.2607433867
 20
10.4562167423
 30
0.0
 10
10.2566504822
 20
10.4599119658
 30
0.0
 10
10.2529400799
 20
10.4636351191
 30
0.0
 10
10.2496149654
 20
10.467383988
 30
0.0
 10
10.2466775253
 20
10.4711561631
 30
0.0
 10
10.2441302472
 20
10.4749494796
 30
0.0
 10
10.2419753284
 20
10.4787615622
 30
0.0
 10
10.2402149903
 20
10.4825900151
 30
0.0
 10
10.2388514089
 20
10.4864322097
 30
0.0
 10
10.2378863774
 20
10.4902851216
 30
0.0
 10
10.2373216825
 20
10.4941454111
 30
0.0
 10
10.237158149
 20
10.4980092863
 30
0.0
 10
10.2373962798
 20
10.5018727941
 30
0.0
 10
10.2380354993
 20
10.5057319801
 30
0.0
 10
10.239074672
 20
10.5095831607
 30
0.0
 10
10.2405121984
 20
10.5134229908
 30
0.0
 10
10.2423459658
 20
10.517248623
 30
0.0
 10
10.2445740098
 20
10.5210573705
 30
0.0
 10
10.2471939477
 20
10.524846944
 30
0.0
 10
10.2502036107
 20
10.5286149636
 30
0.0
 10
10.2536005379
 20
10.5323592059
 30
0.0
 10
10.2573821999
 20
10.5360773817
 30
0.0
 10
10.2615459155
 20
10.5397671009
 30
0.0
 10
10.2660886723
 20
10.5434260853
 30
0.0
 10
10.2710073894
 20
10.5470518127
 30
0.0
 10
10.2762984851
 20
10.5506419162
 30
0.0
 10
10.2799898052
 20
10.5529584801
 30
0.0
 10
10.2818945134
 20
10.5541117091
 30
0.0
  0
SPLINE
  5
33B
100
AcDbEntity
  8
0
100
AcDbSpline
 62
7
  6
CONTINUOUS
 70
0
 71
3
 72
9
 73
5
 74
0
 42
0.0000001
 43
0.0000001
 44
0.0000000001
 40
0.0
 40
0.0
 40
0.0
 40
0.0
 40
0.4890348437
 40
1.0
 40
1.0
 40
1.0
 40
1.0
 10
10.2818945134
 20
10.5541117091
 30
0.0
 10
10.2840163359
 20
10.5553963927
 30
0.0
 10
10.2884022414
 20
10.5579461067
 30
0.0
 10
10.292867051
 20
10.5603545018
 30
0.0
 10
10.2951654268
 20
10.5615520805
 30
0.0
  0
SPLINE
  5
33C
100
AcDbEntity
  8
0
100
AcDbSpline
 62
7
  6
CONTINUOUS
 70
0
 71
3
 72
59
 73
55
 74
0
 42
0.0000001
 43
0.0000001
 44
0.0000000001
 40
0.0
 40
0.0
 40
0.0
 40
0.0
 40
0.0064532595
 40
0.0125272884
 40
0.0154725038
 40
0.0183829473
 40
0.0212809104
 40
0.0241890345
 40
0.0301188283
 40
0.0363456872
 40
0.0430120545
 40
0.0502310263
 40
0.0580872798
 40
0.0666418281
 40
0.0759360798
 40
0.0859968013
 40
0.0968385397
 40
0.1084670101
 40
0.1208800332
 40
0.1340697672
 40
0.1480229688
 40
0.1627223831
 40
0.1781467947
 40
0.1942719268
 40
0.2110705638
 40
0.2285129312
 40
0.265196956
 40
0.2843699867
 40
0.3040467117
 40
0.3447518798
 40
0.3869837896
 40
0.4303950958
 40
0.474625126
 40
0.5193043824
 40
0.5640583471
 40
0.6085117975
 40
0.6522927103
 40
0.6950364228
 40
0.7363897829
 40
0.7760153607
 40
0.8135960264
 40
0.8488397526
 40
0.8655033124
 40
0.8814875749
 40
0.8967659275
 40
0.9113146445
 40
0.9251133247
 40
0.9381454872
 40
0.9503989285
 40
0.9618667812
 40
0.9725481937
 40
0.982451109
 40
0.991592649
 40
1.0
 40
1.0
 40
1.0
 40
1.0
 10
10.8910190725
 20
11.7619066259
 30
0.0
 10
10.8912548917
 20
11.7622963763
 30
0.0
 10
10.891663435
 20
11.7630847217
 30
0.0
 10
10.8920080369
 20
11.7641269343
 30
0.0
 10
10.8921643527
 20
11.7649554429
 30
0.0
 10
10.8922239454
 20
11.765571357
 30
0.0
 10
10.8922268334
 20
11.7661875465
 30
0.0
 10
10.8921547754
 20
11.7670138503
 30
0.0
 10
10.8919171755
 20
11.7680566035
 30
0.0
 10
10.8914058753
 20
11.7692889255
 30
0.0
 10
10.8906707801
 20
11.7705088541
 30
0.0
 10
10.8897152719
 20
11.7717143577
 30
0.0
 10
10.8885424113
 20
11.7729042376
 30
0.0
 10
10.8871548725
 20
11.7740767897
 30
0.0
 10
10.8855556663
 20
11.7752302461
 30
0.0
 10
10.8837480419
 20
11.7763623781
 30
0.0
 10
10.881735834
 20
11.7774710264
 30
0.0
 10
10.8795232861
 20
11.7785537567
 30
0.0
 10
10.8771152066
 20
11.7796083051
 30
0.0
 10
10.8745168336
 20
11.7806322627
 30
0.0
 10
10.8717339006
 20
11.7816234027
 30
0.0
 10
10.8687725624
 20
11.782579448
 30
0.0
 10
10.865639409
 20
11.7834982758
 30
0.0
 10
10.8623414281
 20
11.7843777814
 30
0.0
 10
10.8588859786
 20
11.7852160063
 30
0.0
 10
10.8539965097
 20
11.7862941607
 30
0.0
 10
10.8489115187
 20
11.7872585711
 30
0.0
 10
10.8436493322
 20
11.7881193765
 30
0.0
 10
10.8380928981
 20
11.7889355753
 30
0.0
 10
10.8309023697
 20
11.7898201476
 30
0.0
 10
10.8220216641
 20
11.7906574305
 30
0.0
 10
10.8128735718
 20
11.7912743861
 30
0.0
 10
10.803540195
 20
11.7916653829
 30
0.0
 10
10.7941052588
 20
11.7918268337
 30
0.0
 10
10.7846534319
 20
11.7917572619
 30
0.0
 10
10.775269537
 20
11.7914573042
 30
0.0
 10
10.7660377745
 20
11.7909297077
 30
0.0
 10
10.7570409493
 20
11.7901793066
 30
0.0
 10
10.7483597264
 20
11.7892129821
 30
0.0
 10
10.7400718057
 20
11.7880396251
 30
0.0
 10
10.7322514335
 20
11.786669983
 30
0.0
 10
10.7260715135
 20
11.7853522151
 30
0.0
 10
10.7214188167
 20
11.7842016151
 30
0.0
 10
10.7181538792
 20
11.7833138965
 30
0.0
 10
10.7150552333
 20
11.7823873113
 30
0.0
 10
10.7121297818
 20
11.7814239229
 30
0.0
 10
10.709384025
 20
11.7804259055
 30
0.0
 10
10.7068240291
 20
11.7793955182
 30
0.0
 10
10.7044554401
 20
11.7783350207
 30
0.0
 10
10.7022834104
 20
11.7772468157
 30
0.0
 10
10.7003126307
 20
11.7761332101
 30
0.0
 10
10.6985471621
 20
11.7749964914
 30
0.0
 10
10.6969910252
 20
11.7738390295
 30
0.0
 10
10.6960574099
 20
11.7730219484
 30
0.0
 10
10.6956305468
 20
11.7726096303
 30
0.0
  0
SPLINE
  5
33D
100
AcDbEntity
  8
0
100
AcDbSpline
 62
7
  6
CONTINUOUS
 70
0
 71
3
 72
14
 73
10
 74
0
 42
0.0000001
 43
0.0000001
 44
0.0000000001
 40
0.0
 40
0.0
 40
0.0
 40
0.0
 40
0.1216397123
 40
0.2440052582
 40
0.3673110701
 40
0.491676262
 40
0.6171402273
 40
0.7437152185
 40
1.0
 40
1.0
 40
1.0
 40
1.0
 10
10.7209089528
 20
11.7477472582
 30
0.0
 10
10.7200834454
 20
11.7480262733
 30
0.0
 10
10.7184504693
 20
11.7486559549
 30
0.0
 10
10.7160709708
 20
11.7497838327
 30
0.0
 10
10.7137534511
 20
11.7510741432
 30
0.0
 10
10.7114953039
 20
11.7525067748
 30
0.0
 10
10.7092924983
 20
11.7540636498
 30
0.0
 10
10.706413166
 20
11.7562942911
 30
0.0
 10
10.7043430252
 20
11.7580977018
 30
0.0
 10
10.7029947242
 20
11.7593437936
 30
0.0
  0
SPLINE
  5
33E
100
AcDbEntity
  8
0
100
AcDbSpline
 62
7
  6
CONTINUOUS
 70
0
 71
3
 72
13
 73
9
 74
0
 42
0.0000001
 43
0.0000001
 44
0.0000000001
 40
0.0
 40
0.0
 40
0.0
 40
0.0
 40
0.110721776
 40
0.2268036192
 40
0.3474839409
 40
0.4721113184
 40
0.7310191685
 40
1.0
 40
1.0
 40
1.0
 40
1.0
 10
10.8639558981
 20
11.7478719167
 30
0.0
 10
10.8636534479
 20
11.7486695
 30
0.0
 10
10.8630598551
 20
11.7503131785
 30
0.0
 10
10.8622137505
 20
11.7528531899
 30
0.0
 10
10.861388117
 20
11.7555122857
 30
0.0
 10
10.8602998852
 20
11.7592413831
 30
0.0
 10
10.8589961633
 20
11.7640969755
 30
0.0
 10
10.858023039
 20
11.7680459296
 30
0.0
 10
10.8575428472
 20
11.7700617613
 30
0.0
  0
SPLINE
  5
33F
100
AcDbEntity
  8
0
100
AcDbSpline
 62
7
  6
CONTINUOUS
 70
0
 71
3
 72
15
 73
11
 74
0
 42
0.0000001
 43
0.0000001
 44
0.0000000001
 40
0.0
 40
0.0
 40
0.0
 40
0.0
 40
0.1236310914
 40
0.2479192664
 40
0.372701627
 40
0.4978315178
 40
0.6231966451
 40
0.7487136483
 40
0.8743315005
 40
1.0
 40
1.0
 40
1.0
 40
1.0
 10
10.8042756493
 20
11.7538868455
 30
0.0
 10
10.8025707563
 20
11.754333693
 30
0.0
 10
10.799197217
 20
11.755410897
 30
0.0
 10
10.7943031833
 20
11.7574954021
 30
0.0
 10
10.7895755748
 20
11.7599776431
 30
0.0
 10
10.78501815
 20
11.7627864489
 30
0.0
 10
10.7806239969
 20
11.7658609682
 30
0.0
 10
10.7763812664
 20
11.7691514788
 30
0.0
 10
10.7722764058
 20
11.7726183031
 30
0.0
 10
10.7696228058
 20
11.7750259555
 30
0.0
 10
10.7683144362
 20
11.7762497726
 30
0.0
  0
SPLINE
  5
340
100
AcDbEntity
  8
0
100
AcDbSpline
 62
7
  6
CONTINUOUS
 70
0
 71
3
 72
26
 73
22
 74
0
 42
0.0000001
 43
0.0000001
 44
0.0000000001
 40
0.0
 40
0.0
 40
0.0
 40
0.0
 40
0.0771685541
 40
0.1531515092
 40
0.2277586913
 40
0.3008119936
 40
0.3721344266
 40
0.4415565225
 40
0.5089151986
 40
0.5740551336
 40
0.6368294674
 40
0.6971007518
 40
0.7547421413
 40
0.8096386821
 40
0.8616888513
 40
0.8866199463
 40
0.9108085115
 40
0.9342467566
 40
0.9569278993
 40
0.9788468649
 40
1.0
 40
1.0
 40
1.0
 40
1.0
 10
10.6529786038
 20
9.6985933217
 30
0.0
 10
10.6440931871
 20
9.6992095274
 30
0.0
 10
10.6264672389
 20
9.7005572639
 30
0.0
 10
10.6002871954
 20
9.7029452667
 30
0.0
 10
10.5746185393
 20
9.7056793682
 30
0.0
 10
10.5495300139
 20
9.7087521123
 30
0.0
 10
10.5250881859
 20
9.7121553306
 30
0.0
 10
10.5013582529
 20
9.7158798488
 30
0.0
 10
10.4784033493
 20
9.7199156737
 30
0.0
 10
10.4562845475
 20
9.7242519502
 30
0.0
 10
10.4350606392
 20
9.7288770176
 30
0.0
 10
10.4147880103
 20
9.7337784397
 30
0.0
 10
10.3955203762
 20
9.7389430362
 30
0.0
 10
10.3773089408
 20
9.7443569402
 30
0.0
 10
10.362852445
 20
9.7491301745
 30
0.0
 10
10.3518606822
 20
9.7530728791
 30
0.0
 10
10.3440290641
 20
9.7560406684
 30
0.0
 10
10.3364960827
 20
9.7590596507
 30
0.0
 10
10.3292667216
 20
9.7621279374
 30
0.0
 10
10.3223458122
 20
9.7652433955
 30
0.0
 10
10.3178605351
 20
9.7673887188
 30
0.0
 10
10.3156715648
 20
9.7684700411
 30
0.0
  0
SPLINE
  5
341
100
AcDbEntity
  8
0
100
AcDbSpline
 62
7
  6
CONTINUOUS
 70
0
 71
3
 72
23
 73
19
 74
0
 42
0.0000001
 43
0.0000001
 44
0.0000000001
 40
0.0
 40
0.0
 40
0.0
 40
0.0
 40
0.074962741
 40
0.1455683901
 40
0.2121599089
 40
0.2751630704
 40
0.3350978843
 40
0.3925831321
 40
0.4483291745
 40
0.5031235135
 40
0.5577984138
 40
0.613191997
 40
0.670106373
 40
0.7292769068
 40
0.7913511952
 40
0.8568814472
 40
0.9263148428
 40
1.0
 40
1.0
 40
1.0
 40
1.0
 10
10.9396284452
 20
11.7765214384
 30
0.0
 10
10.9400702529
 20
11.7761102896
 30
0.0
 10
10.9409037045
 20
11.7752848596
 30
0.0
 10
10.9420282578
 20
11.7739970425
 30
0.0
 10
10.9429872161
 20
11.7726990429
 30
0.0
 10
10.9437791508
 20
11.7713919746
 30
0.0
 10
10.9444026766
 20
11.7700769654
 30
0.0
 10
10.9448565215
 20
11.7687554166
 30
0.0
 10
10.9451392491
 20
11.7674289702
 30
0.0
 10
10.9452499941
 20
11.7660997663
 30
0.0
 10
10.9451882404
 20
11.7647701975
 30
0.0
 10
10.9449542253
 20
11.7634427515
 30
0.0
 10
10.9445489307
 20
11.7621196141
 30
0.0
 10
10.9439734442
 20
11.7608026258
 30
0.0
 10
10.9432292094
 20
11.7594931443
 30
0.0
 10
10.9423174759
 20
11.7581923931
 30
0.0
 10
10.9412397909
 20
11.7569016162
 30
0.0
 10
10.9404364824
 20
11.7560740199
 30
0.0
 10
10.9400097954
 20
11.7556618719
 30
0.0
  0
SPLINE
  5
342
100
AcDbEntity
  8
0
100
AcDbSpline
 62
7
  6
CONTINUOUS
 70
0
 71
3
 72
57
 73
53
 74
0
 42
0.0000001
 43
0.0000001
 44
0.0000000001
 40
0.0
 40
0.0
 40
0.0
 40
0.0
 40
0.045292605
 40
0.0911390516
 40
0.1373552194
 40
0.1837550415
 40
0.2301515091
 40
0.2763575863
 40
0.3221873004
 40
0.3674565882
 40
0.4119843338
 40
0.4555934202
 40
0.4981116238
 40
0.5393727393
 40
0.5792176851
 40
0.617495565
 40
0.6360026681
 40
0.654065883
 40
0.6716691934
 40
0.688797502
 40
0.7054364095
 40
0.7215725844
 40
0.7371935264
 40
0.7522879581
 40
0.7668456103
 40
0.7808576525
 40
0.794316514
 40
0.8072163749
 40
0.8195530307
 40
0.8313244499
 40
0.8425307478
 40
0.8531748649
 40
0.8632626969
 40
0.8728039545
 40
0.881812526
 40
0.8903075783
 40
0.8983142448
 40
0.9058649867
 40
0.9130005123
 40
0.9197710897
 40
0.9262371019
 40
0.9324692671
 40
0.9385474695
 40
0.9445584551
 40
0.950592147
 40
0.9567373699
 40
0.9630778263
 40
0.9696889645
 40
0.976636391
 40
0.9839752878
 40
0.9917510374
 40
1.0
 40
1.0
 40
1.0
 40
1.0
 10
10.6796369435
 20
10.8718632516
 30
0.0
 10
10.6889142225
 20
10.8712198701
 30
0.0
 10
10.7075944474
 20
10.8700956898
 30
0.0
 10
10.7357723574
 20
10.8688974144
 30
0.0
 10
10.7641940778
 20
10.868179851
 30
0.0
 10
10.7927367865
 20
10.8679461356
 30
0.0
 10
10.8212772827
 20
10.8681972843
 30
0.0
 10
10.8496923411
 20
10.8689322034
 30
0.0
 10
10.8778592881
 20
10.8701476885
 30
0.0
 10
10.9056565319
 20
10.87183844
 30
0.0
 10
10.9329640913
 20
10.8739970839
 30
0.0
 10
10.9596641243
 20
10.8766142007
 30
0.0
 10
10.985641431
 20
10.8796783693
 30
0.0
 10
11.0107840258
 20
10.883176196
 30
0.0
 10
11.0349833988
 20
10.88709243
 30
0.0
 10
11.0544896803
 20
10.8907298893
 30
0.0
 10
11.0695389231
 20
10.8938455107
 30
0.0
 10
11.0803994404
 20
10.896249534
 30
0.0
 10
11.0909487374
 20
10.898744522
 30
0.0
 10
11.1011754541
 20
10.9013277162
 30
0.0
 10
11.1110685587
 20
10.9039963891
 30
0.0
 10
11.1206174018
 20
10.9067475687
 30
0.0
 10
11.1298116982
 20
10.9095783564
 30
0.0
 10
11.1386415693
 20
10.9124856021
 30
0.0
 10
11.1470975159
 20
10.9154662462
 30
0.0
 10
11.1551704783
 20
10.9185169764
 30
0.0
 10
11.1628517918
 20
10.921634592
 30
0.0
 10
11.1701332688
 20
10.9248156441
 30
0.0
 10
11.1770071262
 20
10.928056817
 30
0.0
 10
11.1834660922
 20
10.9313545554
 30
0.0
 10
11.1895033008
 20
10.9347054684
 30
0.0
 10
11.1951124379
 20
10.9381059432
 30
0.0
 10
11.2002875858
 20
10.9415525786
 30
0.0
 10
11.2050234086
 20
10.9450417908
 30
0.0
 10
11.2093149216
 20
10.9485702685
 30
0.0
 10
11.2131577112
 20
10.9521345777
 30
0.0
 10
11.2165475854
 20
10.9557316213
 30
0.0
 10
11.2194808202
 20
10.95935822
 30
0.0
 10
11.2219536423
 20
10.9630114853
 30
0.0
 10
11.2239625297
 20
10.9666882847
 30
0.0
 10
11.2255036408
 20
10.9703853344
 30
0.0
 10
11.226573465
 20
10.9740985113
 30
0.0
 10
11.2271686277
 20
10.977822791
 30
0.0
 10
11.2272871652
 20
10.9815520429
 30
0.0
 10
11.2269284524
 20
10.9852795986
 30
0.0
 10
11.2260940033
 20
10.9889990029
 30
0.0
 10
11.2247864272
 20
10.9927046093
 30
0.0
 10
11.2230093719
 20
10.9963919392
 30
0.0
 10
11.2207664315
 20
11.0000572556
 30
0.0
 10
11.2180613509
 20
11.0036975162
 30
0.0
 10
11.2148978459
 20
11.0073094789
 30
0.0
 10
11.2125571995
 20
11.0096259282
 30
0.0
 10
11.2113173416
 20
11.0107797678
 30
0.0
  0
SPLINE
  5
343
100
AcDbEntity
  8
0
100
AcDbSpline
 62
7
  6
CONTINUOUS
 70
0
 71
3
 72
52
 73
48
 74
0
 42
0.0000001
 43
0.0000001
 44
0.0000000001
 40
0.0
 40
0.0
 40
0.0
 40
0.0
 40
0.0417979847
 40
0.0840612649
 40
0.1266597831
 40
0.1694644218
 40
0.2123439084
 40
0.2551672037
 40
0.2978033202
 40
0.3401220844
 40
0.3819945192
 40
0.4232934576
 40
0.4638940605
 40
0.5036742901
 40
0.5425155349
 40
0.580303146
 40
0.6169269932
 40
0.6522821388
 40
0.6862695151
 40
0.7187966242
 40
0.7497784458
 40
0.7646660204
 40
0.7791393811
 40
0.7931904234
 40
0.8068118629
 40
0.819997111
 40
0.832740422
 40
0.8450370034
 40
0.8568829642
 40
0.8682756655
 40
0.8792135358
 40
0.8896965874
 40
0.8997262457
 40
0.9093058756
 40
0.918440823
 40
0.9271388621
 40
0.9354105659
 40
0.9432696591
 40
0.9507337335
 40
0.9578245673
 40
0.9645690349
 40
0.9709994301
 40
0.9771542126
 40
0.9830780982
 40
0.9888220315
 40
0.9944424602
 40
1.0
 40
1.0
 40
1.0
 40
1.0
 10
10.6635901759
 20
10.7964758587
 30
0.0
 10
10.6728148878
 20
10.7958361227
 30
0.0
 10
10.6913775358
 20
10.7946970032
 30
0.0
 10
10.7193696946
 20
10.793411357
 30
0.0
 10
10.7476007229
 20
10.7925418516
 30
0.0
 10
10.7759778487
 20
10.792091316
 30
0.0
 10
10.8044082618
 20
10.7920612682
 30
0.0
 10
10.8327987258
 20
10.7924517883
 30
0.0
 10
10.861056241
 20
10.7932615973
 30
0.0
 10
10.8890882091
 20
10.7944880178
 30
0.0
 10
10.9168027859
 20
10.7961270036
 30
0.0
 10
10.9441091716
 20
10.7981731429
 30
0.0
 10
10.9709179158
 20
10.8006196777
 30
0.0
 10
10.9971412151
 20
10.8034585232
 30
0.0
 10
11.0226932022
 20
10.8066802965
 30
0.0
 10
11.0474902347
 20
10.810274345
 30
0.0
 10
11.0714511801
 20
10.8142287786
 30
0.0
 10
11.0944976702
 20
10.8185305141
 30
0.0
 10
11.1165544544
 20
10.8231652997
 30
0.0
 10
11.1375493721
 20
10.8281178177
 30
0.0
 10
11.1543188866
 20
10.8325528281
 30
0.0
 10
11.1671444189
 20
10.8362577961
 30
0.0
 10
11.1763282575
 20
10.839068646
 30
0.0
 10
11.185197386
 20
10.8419462832
 30
0.0
 10
11.1937445774
 20
10.8448883286
 30
0.0
 10
11.2019628557
 20
10.8478923783
 30
0.0
 10
11.2098455204
 20
10.8509559868
 30
0.0
 10
11.2173861673
 20
10.8540765995
 30
0.0
 10
11.2245786488
 20
10.8572517433
 30
0.0
 10
11.2314171571
 20
10.8604787308
 30
0.0
 10
11.2378961237
 20
10.8637550537
 30
0.0
 10
11.2440103572
 20
10.8670779533
 30
0.0
 10
11.2497549053
 20
10.8704448611
 30
0.0
 10
11.255125191
 20
10.8738530271
 30
0.0
 10
11.2601169103
 20
10.8772998109
 30
0.0
 10
11.2647260786
 20
10.8807825499
 30
0.0
 10
11.2689490574
 20
10.8842985607
 30
0.0
 10
11.2727824043
 20
10.8878453318
 30
0.0
 10
11.2762230972
 20
10.8914202123
 30
0.0
 10
11.2792681305
 20
10.8950208521
 30
0.0
 10
11.2819149206
 20
10.898644692
 30
0.0
 10
11.2841607308
 20
10.9022894089
 30
0.0
 10
11.2860031264
 20
10.9059524105
 30
0.0
 10
11.2874395472
 20
10.9096309448
 30
0.0
 10
11.2884676548
 20
10.9133220071
 30
0.0
 10
11.2890854898
 20
10.9170213173
 30
0.0
 10
11.289223112
 20
10.9194963348
 30
0.0
 10
11.2892231143
 20
10.9207258161
 30
0.0
  0
SPLINE
  5
344
100
AcDbEntity
  8
0
100
AcDbSpline
 62
7
  6
CONTINUOUS
 70
0
 71
3
 72
15
 73
11
 74
0
 42
0.0000001
 43
0.0000001
 44
0.0000000001
 40
0.0
 40
0.0
 40
0.0
 40
0.0
 40
0.1098907179
 40
0.2214018808
 40
0.3360753797
 40
0.4553196761
 40
0.5803742441
 40
0.7122966873
 40
0.8519480861
 40
1.0
 40
1.0
 40
1.0
 40
1.0
 10
10.9762231236
 20
11.7359669424
 30
0.0
 10
10.9762231181
 20
11.735446525
 30
0.0
 10
10.9761562743
 20
11.7343968376
 30
0.0
 10
10.9758565448
 20
11.7328298603
 30
0.0
 10
10.9753582964
 20
11.7312678026
 30
0.0
 10
10.9746627844
 20
11.7297130306
 30
0.0
 10
10.9737715956
 20
11.7281669944
 30
0.0
 10
10.9726861651
 20
11.7266310843
 30
0.0
 10
10.9714081989
 20
11.7251067337
 30
0.0
 10
10.970457796
 20
11.7241286814
 30
0.0
 10
10.9699534978
 20
11.7236415667
 30
0.0
  0
SPLINE
  5
345
100
AcDbEntity
  8
0
100
AcDbSpline
 62
7
  6
CONTINUOUS
 70
0
 71
3
 72
23
 73
19
 74
0
 42
0.0000001
 43
0.0000001
 44
0.0000000001
 40
0.0
 40
0.0
 40
0.0
 40
0.0
 40
0.0584091334
 40
0.1170360585
 40
0.1759494809
 40
0.2352281827
 40
0.2949590518
 40
0.3552329693
 40
0.4161391798
 40
0.4777586721
 40
0.5401577323
 40
0.6033828175
 40
0.667457762
 40
0.732383724
 40
0.7981416066
 40
0.8646960886
 40
0.9320001623
 40
1.0
 40
1.0
 40
1.0
 40
1.0
 10
10.1876439671
 20
10.4041870685
 30
0.0
 10
10.1960912541
 20
10.4050746017
 30
0.0
 10
10.2130499729
 20
10.4065593455
 30
0.0
 10
10.2386114128
 20
10.4078246463
 30
0.0
 10
10.2643311086
 20
10.4080420975
 30
0.0
 10
10.2901969833
 20
10.4071244509
 30
0.0
 10
10.3161906005
 20
10.4049916047
 30
0.0
 10
10.3422863726
 20
10.4015759122
 30
0.0
 10
10.3684524327
 20
10.3968276504
 30
0.0
 10
10.3946522877
 20
10.3907196381
 30
0.0
 10
10.42084728
 20
10.3832498837
 30
0.0
 10
10.4469993906
 20
10.3744419249
 30
0.0
 10
10.473073858
 20
10.3643426966
 30
0.0
 10
10.4990412159
 20
10.3530184779
 30
0.0
 10
10.5248783916
 20
10.3405495389
 30
0.0
 10
10.5505690558
 20
10.3270245473
 30
0.0
 10
10.5761029373
 20
10.3125357572
 30
0.0
 10
10.5929366461
 20
10.3023442103
 30
0.0
 10
10.6013306852
 20
10.2971172029
 30
0.0
  0
SPLINE
  5
346
100
AcDbEntity
  8
0
100
AcDbSpline
 62
7
  6
CONTINUOUS
 70
0
 71
3
 72
22
 73
18
 74
0
 42
0.0000001
 43
0.0000001
 44
0.0000000001
 40
0.0
 40
0.0
 40
0.0
 40
0.0
 40
0.0635178603
 40
0.1269375164
 40
0.19024684
 40
0.2534332483
 40
0.316484635
 40
0.3793900304
 40
0.4421404753
 40
0.5047298524
 40
0.5671555099
 40
0.6294185112
 40
0.6915234843
 40
0.7534781381
 40
0.8152925059
 40
0.8769780899
 40
1.0
 40
1.0
 40
1.0
 40
1.0
 10
10.6552514938
 20
10.2933777821
 30
0.0
 10
10.6667652913
 20
10.297243349
 30
0.0
 10
10.6898651232
 20
10.304703948
 30
0.0
 10
10.7247586974
 20
10.315002468
 30
0.0
 10
10.7598650827
 20
10.3243099363
 30
0.0
 10
10.7951691023
 20
10.3325356077
 30
0.0
 10
10.8306471308
 20
10.3395934843
 30
0.0
 10
10.8662664231
 20
10.3454073378
 30
0.0
 10
10.9019858657
 20
10.3499162654
 30
0.0
 10
10.9377577781
 20
10.3530798015
 30
0.0
 10
10.9735308285
 20
10.3548814771
 30
0.0
 10
11.0092535418
 20
10.3553303328
 30
0.0
 10
11.0448779212
 20
10.3544599487
 30
0.0
 10
11.0803622044
 20
10.3523253794
 30
0.0
 10
11.1156736297
 20
10.3489981376
 30
0.0
 10
11.1624454085
 20
10.343088103
 30
0.0
 10
11.1972783696
 20
10.3371155371
 30
0.0
 10
11.2203579014
 20
10.3325681139
 30
0.0
  0
SPLINE
  5
347
100
AcDbEntity
  8
0
100
AcDbSpline
 62
7
  6
CONTINUOUS
 70
0
 71
3
 72
22
 73
18
 74
0
 42
0.0000001
 43
0.0000001
 44
0.0000000001
 40
0.0
 40
0.0
 40
0.0
 40
0.0
 40
0.1230219101
 40
0.1847074941
 40
0.2465218619
 40
0.3084765157
 40
0.3705814888
 40
0.4328444901
 40
0.4952701476
 40
0.5578595248
 40
0.6206099696
 40
0.683515365
 40
0.7465667517
 40
0.8097531601
 40
0.8730624836
 40
0.9364821397
 40
1.0
 40
1.0
 40
1.0
 40
1.0
 10
10.6552514938
 20
9.7264143488
 30
0.0
 10
10.6783310256
 20
9.7218669256
 30
0.0
 10
10.7131639867
 20
9.7158943597
 30
0.0
 10
10.7599357656
 20
9.7099843251
 30
0.0
 10
10.7952471909
 20
9.7066570833
 30
0.0
 10
10.8307314741
 20
9.704522514
 30
0.0
 10
10.8663558535
 20
9.7036521298
 30
0.0
 10
10.9020785668
 20
9.7041009855
 30
0.0
 10
10.9378516172
 20
9.7059026612
 30
0.0
 10
10.9736235296
 20
9.7090661973
 30
0.0
 10
11.0093429722
 20
9.7135751249
 30
0.0
 10
11.0449622645
 20
9.7193889784
 30
0.0
 10
11.080440293
 20
9.726446855
 30
0.0
 10
11.1157443125
 20
9.7346725264
 30
0.0
 10
11.1508506979
 20
9.7439799947
 30
0.0
 10
11.185744272
 20
9.7542785146
 30
0.0
 10
11.208844104
 20
9.7617391137
 30
0.0
 10
11.2203579014
 20
9.7656046806
 30
0.0
  0
SPLINE
  5
348
100
AcDbEntity
  8
0
100
AcDbSpline
 62
7
  6
CONTINUOUS
 70
0
 71
3
 72
34
 73
30
 74
0
 42
0.0000001
 43
0.0000001
 44
0.0000000001
 40
0.0
 40
0.0
 40
0.0
 40
0.0
 40
0.0904026509
 40
0.1775170673
 40
0.2197447405
 40
0.2610346622
 40
0.3013506512
 40
0.3406588451
 40
0.3789286232
 40
0.4161334214
 40
0.4522515156
 40
0.4872673823
 40
0.5211718483
 40
0.5539637319
 40
0.5856499892
 40
0.6162462189
 40
0.6742671163
 40
0.7283449912
 40
0.7789253319
 40
0.8030819149
 40
0.8265780498
 40
0.8494924699
 40
0.8719045788
 40
0.8938931168
 40
0.9155342498
 40
0.9369005378
 40
0.9580598063
 40
0.979074351
 40
1.0
 40
1.0
 40
1.0
 40
1.0
 10
11.2598306619
 20
10.3427844122
 30
0.0
 10
11.2628662753
 20
10.348734463
 30
0.0
 10
11.2689403797
 20
10.3603608706
 30
0.0
 10
11.2767909142
 20
10.3745754684
 30
0.0
 10
11.2831142692
 20
10.3854831891
 30
0.0
 10
11.2878213041
 20
10.3933298413
 30
0.0
 10
11.2925414129
 20
10.400915779
 30
0.0
 10
11.2972739801
 20
10.4082296126
 30
0.0
 10
11.3020181483
 20
10.415260343
 30
0.0
 10
11.3067729466
 20
10.4219974615
 30
0.0
 10
11.3115373289
 20
10.4284311077
 30
0.0
 10
11.3163099709
 20
10.4345523556
 30
0.0
 10
11.321089642
 20
10.4403531906
 30
0.0
 10
11.3258747925
 20
10.4458268322
 30
0.0
 10
11.3306640276
 20
10.4509679745
 30
0.0
 10
11.3369421208
 20
10.4572625914
 30
0.0
 10
11.344787975
 20
10.4643232079
 30
0.0
 10
11.3543757812
 20
10.4715976101
 30
0.0
 10
11.3624792747
 20
10.4766225448
 30
0.0
 10
11.3689298018
 20
10.4799564147
 30
0.0
 10
11.3736840747
 20
10.4821035366
 30
0.0
 10
11.3784272644
 20
10.4839438078
 30
0.0
 10
11.3831583956
 20
10.4854865224
 30
0.0
 10
11.3878764574
 20
10.4867417083
 30
0.0
 10
11.3925806776
 20
10.4877197943
 30
0.0
 10
11.397270384
 20
10.4884317177
 30
0.0
 10
11.4019451538
 20
10.4888885329
 30
0.0
 10
11.4066045099
 20
10.4891014761
 30
0.0
 10
11.409704812
 20
10.4890882403
 30
0.0
 10
11.4112503514
 20
10.4890446096
 30
0.0
  0
SPLINE
  5
349
100
AcDbEntity
  8
0
100
AcDbSpline
 62
7
  6
CONTINUOUS
 70
0
 71
3
 72
15
 73
11
 74
0
 42
0.0000001
 43
0.0000001
 44
0.0000000001
 40
0.0
 40
0.0
 40
0.0
 40
0.0
 40
0.1193921583
 40
0.2394157642
 40
0.3604988784
 40
0.4831231249
 40
0.607813813
 40
0.7351319858
 40
0.8656628636
 40
1.0
 40
1.0
 40
1.0
 40
1.0
 10
11.2598306619
 20
9.7758209788
 30
0.0
 10
11.2616004867
 20
9.7757710165
 30
0.0
 10
11.2651531012
 20
9.7757682207
 30
0.0
 10
11.2704934679
 20
9.7760714825
 30
0.0
 10
11.275854182
 20
9.7766989722
 30
0.0
 10
11.2812343889
 20
9.7776675366
 30
0.0
 10
11.2866332046
 20
9.778993703
 30
0.0
 10
11.2920494583
 20
9.780693455
 30
0.0
 10
11.2974813921
 20
9.7827818459
 30
0.0
 10
11.3010559798
 20
9.7844168204
 30
0.0
 10
11.3028422705
 20
9.7852987811
 30
0.0
  0
SPLINE
  5
34A
100
AcDbEntity
  8
0
100
AcDbSpline
 62
7
  6
CONTINUOUS
 70
0
 71
3
 72
11
 73
7
 74
0
 42
0.0000001
 43
0.0000001
 44
0.0000000001
 40
0.0
 40
0.0
 40
0.0
 40
0.0
 40
0.2428236665
 40
0.4885858541
 40
0.7401064131
 40
1.0
 40
1.0
 40
1.0
 40
1.0
 10
10.9762231239
 20
11.2665272298
 30
0.0
 10
10.976223129
 20
11.2660564455
 30
0.0
 10
10.9761685891
 20
11.2651083076
 30
0.0
 10
10.9759237298
 20
11.2636915292
 30
0.0
 10
10.9755164793
 20
11.2622783199
 30
0.0
 10
10.9751443156
 20
11.261357225
 30
0.0
 10
10.9749338106
 20
11.2608994237
 30
0.0
  0
SPLINE
  5
34B
100
AcDbEntity
  8
0
100
AcDbSpline
 62
7
  6
CONTINUOUS
 70
0
 71
3
 72
16
 73
12
 74
0
 42
0.0000001
 43
0.0000001
 44
0.0000000001
 40
0.0
 40
0.0
 40
0.0
 40
0.0
 40
0.1480514235
 40
0.2876969267
 40
0.4196103192
 40
0.4829488084
 40
0.5446961172
 40
0.6639365715
 40
0.7786068127
 40
0.8901133951
 40
1.0
 40
1.0
 40
1.0
 40
1.0
 10
11.0539890496
 20
10.9624596404
 30
0.0
 10
11.0547318434
 20
10.9631771242
 30
0.0
 10
11.056131711
 20
10.9646177134
 30
0.0
 10
11.0580139273
 20
10.9668627991
 30
0.0
 10
11.059364002
 20
10.9687733036
 30
0.0
 10
11.0602937578
 20
10.9703067883
 30
0.0
 10
11.061105745
 20
10.9718058361
 30
0.0
 10
11.0619495445
 20
10.9736922611
 30
0.0
 10
11.0626833878
 20
10.9759929075
 30
0.0
 10
11.063124737
 20
10.9783009213
 30
0.0
 10
11.0632231306
 20
10.9798469736
 30
0.0
 10
11.063223123
 20
10.9806134836
 30
0.0
  0
SPLINE
  5
34C
100
AcDbEntity
  8
0
100
AcDbSpline
 62
7
  6
CONTINUOUS
 70
0
 71
3
 72
56
 73
52
 74
0
 42
0.0000001
 43
0.0000001
 44
0.0000000001
 40
0.0
 40
0.0
 40
0.0
 40
0.0
 40
0.0098426114
 40
0.019257135
 40
0.0282658819
 40
0.0368952265
 40
0.045176346
 40
0.0531452816
 40
0.0608432715
 40
0.068316813
 40
0.0756171584
 40
0.0827997736
 40
0.0899231465
 40
0.0970473659
 40
0.1042324972
 40
0.111536965
 40
0.1190161306
 40
0.1267211184
 40
0.1346982854
 40
0.1429887168
 40
0.1516283131
 40
0.1606481132
 40
0.1700743678
 40
0.1799292844
 40
0.1902313036
 40
0.2009954306
 40
0.2122339554
 40
0.2239564281
 40
0.2361701944
 40
0.2488807407
 40
0.2620915791
 40
0.2758048649
 40
0.2900213146
 40
0.304740298
 40
0.3199602894
 40
0.3356785566
 40
0.3685935903
 40
0.4034487507
 40
0.4401944623
 40
0.4787713208
 40
0.5191113169
 40
0.5611388848
 40
0.6047717205
 40
0.6499214551
 40
0.6964942588
 40
0.7443913095
 40
0.7935095159
 40
0.8437418405
 40
0.8949766501
 40
0.9471031679
 40
1.0
 40
1.0
 40
1.0
 40
1.0
 10
10.3731293322
 20
11.0107801434
 30
0.0
 10
10.3721911214
 20
11.0099070349
 30
0.0
 10
10.3703949073
 20
11.0081556715
 30
0.0
 10
10.3678957622
 20
11.0054513128
 30
0.0
 10
10.3656546322
 20
11.0027309198
 30
0.0
 10
10.3636731577
 20
10.999995926
 30
0.0
 10
10.3619526292
 20
10.9972478262
 30
0.0
 10
10.3604944047
 20
10.9944880719
 30
0.0
 10
10.3592998187
 20
10.99171819
 30
0.0
 10
10.3583699449
 20
10.9889399105
 30
0.0
 10
10.3577059729
 20
10.9861550385
 30
0.0
 10
10.3573087195
 20
10.9833656506
 30
0.0
 10
10.3571786924
 20
10.9805739666
 30
0.0
 10
10.3573162302
 20
10.9777823162
 30
0.0
 10
10.35772098
 20
10.9749930258
 30
0.0
 10
10.3583924332
 20
10.9722083125
 30
0.0
 10
10.3593297558
 20
10.9694302452
 30
0.0
 10
10.3605317595
 20
10.9666606239
 30
0.0
 10
10.3619973702
 20
10.9639011767
 30
0.0
 10
10.3637252433
 20
10.9611534246
 30
0.0
 10
10.3657140307
 20
10.958418818
 30
0.0
 10
10.3679624164
 20
10.9556988675
 30
0.0
 10
10.3704688349
 20
10.9529949311
 30
0.0
 10
10.3732317662
 20
10.9503085029
 30
0.0
 10
10.3762495274
 20
10.9476410667
 30
0.0
 10
10.3795202546
 20
10.9449940439
 30
0.0
 10
10.3830420503
 20
10.9423690183
 30
0.0
 10
10.3868127755
 20
10.9397674528
 30
0.0
 10
10.3908301804
 20
10.9371908581
 30
0.0
 10
10.3950918944
 20
10.9346408154
 30
0.0
 10
10.3995953257
 20
10.9321187643
 30
0.0
 10
10.4043377944
 20
10.9296262642
 30
0.0
 10
10.4093164452
 20
10.9271648165
 30
0.0
 10
10.4145282558
 20
10.9247358631
 30
0.0
 10
10.4199701107
 20
10.9223409197
 30
0.0
 10
10.4276466052
 20
10.9191457248
 30
0.0
 10
10.4378014727
 20
10.9152576607
 30
0.0
 10
10.4506687322
 20
10.9108188866
 30
0.0
 10
10.4643670724
 20
10.9065489872
 30
0.0
 10
10.4788632747
 20
10.9024584304
 30
0.0
 10
10.4941223213
 20
10.8985572401
 30
0.0
 10
10.5101072113
 20
10.8948549965
 30
0.0
 10
10.5267791545
 20
10.8913608029
 30
0.0
 10
10.5440976459
 20
10.8880832513
 30
0.0
 10
10.5620205639
 20
10.8850303803
 30
0.0
 10
10.580504303
 20
10.882209678
 30
0.0
 10
10.5995038913
 20
10.8796280752
 30
0.0
 10
10.618972969
 20
10.8772919406
 30
0.0
 10
10.6388644108
 20
10.8752069165
 30
0.0
 10
10.659129364
 20
10.8733782374
 30
0.0
 10
10.6727656606
 20
10.8723397766
 30
0.0
 10
10.6796369435
 20
10.8718632516
 30
0.0
  0
SPLINE
  5
34D
100
AcDbEntity
  8
0
100
AcDbSpline
 62
7
  6
CONTINUOUS
 70
0
 71
3
 72
22
 73
18
 74
0
 42
0.0000001
 43
0.0000001
 44
0.0000000001
 40
0.0
 40
0.0
 40
0.0
 40
0.0
 40
0.1331592892
 40
0.1987168197
 40
0.26358006
 40
0.3277572958
 40
0.3912687957
 40
0.4541464321
 40
0.5164323953
 40
0.5781771175
 40
0.6394366542
 40
0.7002698804
 40
0.7607358128
 40
0.8208913513
 40
0.8807894567
 40
0.9404782662
 40
1.0
 40
1.0
 40
1.0
 40
1.0
 10
10.2701885709
 20
9.7909377732
 30
0.0
 10
10.2837819464
 20
9.7842216554
 30
0.0
 10
10.3043600522
 20
9.7747682902
 30
0.0
 10
10.3322228035
 20
9.7636030566
 30
0.0
 10
10.353069412
 20
9.7560798008
 30
0.0
 10
10.373954933
 20
9.7493935982
 30
0.0
 10
10.3948614084
 20
9.7435643248
 30
0.0
 10
10.4157693967
 20
9.7386022853
 30
0.0
 10
10.4366594327
 20
9.7345073465
 30
0.0
 10
10.4575127625
 20
9.7312690808
 30
0.0
 10
10.4783122003
 20
9.7288674489
 30
0.0
 10
10.49904276
 20
9.7272740415
 30
0.0
 10
10.5196920853
 20
9.7264536714
 30
0.0
 10
10.5402505936
 20
9.7263661422
 30
0.0
 10
10.5607115475
 20
9.7269679992
 30
0.0
 10
10.5810704799
 20
9.7282141093
 30
0.0
 10
10.5945904279
 20
9.7294455893
 30
0.0
 10
10.6013306852
 20
9.7301537696
 30
0.0
  0
SPLINE
  5
34E
100
AcDbEntity
  8
0
100
AcDbSpline
 62
7
  6
CONTINUOUS
 70
0
 71
3
 72
41
 73
37
 74
0
 42
0.0000001
 43
0.0000001
 44
0.0000000001
 40
0.0
 40
0.0
 40
0.0
 40
0.0
 40
0.0064813096
 40
0.0130002089
 40
0.0195935803
 40
0.0262969365
 40
0.0331439447
 40
0.04016595
 40
0.0548403791
 40
0.0625493117
 40
0.0705322518
 40
0.087386473
 40
0.1055278433
 40
0.1250443572
 40
0.1459982608
 40
0.1684312314
 40
0.1923683554
 40
0.217820931
 40
0.2447892187
 40
0.2732640858
 40
0.3032283203
 40
0.3346580899
 40
0.3675234916
 40
0.4017893134
 40
0.4374158269
 40
0.4743589334
 40
0.5125707892
 40
0.55200016
 40
0.5925924466
 40
0.6342903027
 40
0.6770337349
 40
0.7207601128
 40
0.7654047863
 40
0.81090113
 40
0.9041692223
 40
1.0
 40
1.0
 40
1.0
 40
1.0
 10
10.2952231561
 20
10.9207257109
 30
0.0
 10
10.2952231544
 20
10.9198481079
 30
0.0
 10
10.2952929115
 20
10.9180870255
 30
0.0
 10
10.2956065383
 20
10.9154499682
 30
0.0
 10
10.2961289592
 20
10.912815478
 30
0.0
 10
10.2968597001
 20
10.9101850768
 30
0.0
 10
10.297798389
 20
10.9075598347
 30
0.0
 10
10.2993486968
 20
10.9040167524
 30
0.0
 10
10.3013053661
 20
10.9005351922
 30
0.0
 10
10.3036181861
 20
10.8971339867
 30
0.0
 10
10.3062899388
 20
10.8936267879
 30
0.0
 10
10.3101660556
 20
10.8892734484
 30
0.0
 10
10.3155369794
 20
10.8841993479
 30
0.0
 10
10.3217005506
 20
10.8791895753
 30
0.0
 10
10.3286465104
 20
10.8742512711
 30
0.0
 10
10.3363640533
 20
10.8693915048
 30
0.0
 10
10.3448409236
 20
10.8646178233
 30
0.0
 10
10.3540635087
 20
10.8599377197
 30
0.0
 10
10.364016894
 20
10.8553588231
 30
0.0
 10
10.3746848423
 20
10.8508886828
 30
0.0
 10
10.3860498198
 20
10.8465346616
 30
0.0
 10
10.398093099
 20
10.8423040756
 30
0.0
 10
10.4107947433
 20
10.8382039938
 30
0.0
 10
10.4241336701
 20
10.8342412647
 30
0.0
 10
10.4380877148
 20
10.8304225992
 30
0.0
 10
10.4526336401
 20
10.8267543789
 30
0.0
 10
10.4677472068
 20
10.8232427675
 30
0.0
 10
10.483403212
 20
10.8198937128
 30
0.0
 10
10.4995755185
 20
10.8167128
 30
0.0
 10
10.5162371272
 20
10.8137053982
 30
0.0
 10
10.5333602095
 20
10.8108765823
 30
0.0
 10
10.5509161476
 20
10.8082310706
 30
0.0
 10
10.5688756454
 20
10.8057733135
 30
0.0
 10
10.5935232669
 20
10.802727132
 30
0.0
 10
10.6251204281
 20
10.7994297809
 30
0.0
 10
10.6506452823
 20
10.7973735901
 30
0.0
 10
10.6635901759
 20
10.7964758587
 30
0.0
  0
SPLINE
  5
34F
100
AcDbEntity
  8
0
100
AcDbSpline
 62
7
  6
CONTINUOUS
 70
0
 71
3
 72
20
 73
16
 74
0
 42
0.0000001
 43
0.0000001
 44
0.0000000001
 40
0.0
 40
0.0
 40
0.0
 40
0.0
 40
0.1497483318
 40
0.2196217368
 40
0.2864532
 40
0.4121308491
 40
0.4718309284
 40
0.5299810845
 40
0.5870653526
 40
0.6435969704
 40
0.7001059755
 40
0.7571237991
 40
0.8151661569
 40
0.8747200316
 40
1.0
 40
1.0
 40
1.0
 40
1.0
 10
10.6956305468
 20
11.7726096303
 30
0.0
 10
10.6952014334
 20
11.7721951385
 30
0.0
 10
10.6946010521
 20
11.7715551221
 30
0.0
 10
10.693903118
 20
11.7706511747
 30
0.0
 10
10.6933222808
 20
11.7697814006
 30
0.0
 10
10.6928572846
 20
11.7688846618
 30
0.0
 10
10.6925288408
 20
11.7679704906
 30
0.0
 10
10.6923547412
 20
11.7672945148
 30
0.0
 10
10.6922490105
 20
11.7666172843
 30
0.0
 10
10.6922117923
 20
11.7659393648
 30
0.0
 10
10.6922432293
 20
11.7652614135
 30
0.0
 10
10.6923432293
 20
11.7645841057
 30
0.0
 10
10.6925116252
 20
11.7639079774
 30
0.0
 10
10.6928321983
 20
11.762993864
 30
0.0
 10
10.6931687181
 20
11.7623338952
 30
0.0
 10
10.6934270851
 20
11.7619068448
 30
0.0
  0
SPLINE
  5
350
100
AcDbEntity
  8
0
100
AcDbSpline
 62
7
  6
CONTINUOUS
 70
0
 71
3
 72
64
 73
60
 74
0
 42
0.0000001
 43
0.0000001
 44
0.0000000001
 40
0.0
 40
0.0
 40
0.0
 40
0.0
 40
0.0085740661
 40
0.0179228093
 40
0.0280756
 40
0.039050547
 40
0.0508545586
 40
0.0634857952
 40
0.0769354215
 40
0.0911891779
 40
0.1062277806
 40
0.1220278378
 40
0.1385624825
 40
0.1558014128
 40
0.1737117311
 40
0.1922578534
 40
0.2114019538
 40
0.2311041805
 40
0.2720128669
 40
0.3146323687
 40
0.3585883126
 40
0.4034903453
 40
0.4489368326
 40
0.49451989
 40
0.539829996
 40
0.5844608404
 40
0.6280140072
 40
0.6701038818
 40
0.7103626661
 40
0.7296973478
 40
0.7484471122
 40
0.766573431
 40
0.7840400069
 40
0.8008128567
 40
0.8168609759
 40
0.8321561866
 40
0.846673905
 40
0.8603934769
 40
0.8732987219
 40
0.8853790705
 40
0.8966301422
 40
0.9070557045
 40
0.9166693529
 40
0.9254972701
 40
0.933582107
 40
0.9409872779
 40
0.94780292
 40
0.9541505794
 40
0.9571991012
 40
0.9601913016
 40
0.9631508049
 40
0.9661020755
 40
0.9690698153
 40
0.9720782451
 40
0.9751505153
 40
0.9783082704
 40
0.9849526843
 40
0.9921505632
 40
1.0
 40
1.0
 40
1.0
 40
1.0
 10
10.9400097954
 20
11.7556618719
 30
0.0
 10
10.9393327661
 20
11.7550079118
 30
0.0
 10
10.9378474231
 20
11.7537125807
 30
0.0
 10
10.935364763
 20
11.7518815387
 30
0.0
 10
10.9325395859
 20
11.750084752
 30
0.0
 10
10.9293786634
 20
11.7483263015
 30
0.0
 10
10.9258890151
 20
11.7466099367
 30
0.0
 10
10.9220786738
 20
11.7449397608
 30
0.0
 10
10.9179565682
 20
11.743319643
 30
0.0
 10
10.9135323961
 20
11.7417535182
 30
0.0
 10
10.9088166485
 20
11.7402451375
 30
0.0
 10
10.9038205546
 20
11.7387981375
 30
0.0
 10
10.8985560426
 20
11.73741607
 30
0.0
 10
10.8930357225
 20
11.7361022299
 30
0.0
 10
10.8872728251
 20
11.7348598571
 30
0.0
 10
10.8812811861
 20
11.7336919434
 30
0.0
 10
10.8750751862
 20
11.7326012977
 30
0.0
 10
10.8664260048
 20
11.7312366707
 30
0.0
 10
10.8551886659
 20
11.7297511293
 30
0.0
 10
10.8412630245
 20
11.7283340806
 30
0.0
 10
10.8268660259
 20
11.7272751245
 30
0.0
 10
10.8121360897
 20
11.7265846335
 30
0.0
 10
10.7972147273
 20
11.7262693995
 30
0.0
 10
10.7822453858
 20
11.7263325146
 30
0.0
 10
10.7673719558
 20
11.7267733578
 30
0.0
 10
10.7527374123
 20
11.7275876068
 30
0.0
 10
10.7384823309
 20
11.7287672473
 30
0.0
 10
10.7247437385
 20
11.7303007199
 30
0.0
 10
10.7136908084
 20
11.7318812939
 30
0.0
 10
10.7052107224
 20
11.7333196475
 30
0.0
 10
10.6991459958
 20
11.7344621247
 30
0.0
 10
10.6933052834
 20
11.735680011
 30
0.0
 10
10.6877025986
 20
11.7369703554
 30
0.0
 10
10.6823513867
 20
11.7383300658
 30
0.0
 10
10.6772644568
 20
11.7397557866
 30
0.0
 10
10.6724539745
 20
11.7412441111
 30
0.0
 10
10.6679314054
 20
11.7427914094
 30
0.0
 10
10.6637074863
 20
11.7443939347
 30
0.0
 10
10.6597922031
 20
11.7460478885
 30
0.0
 10
10.6561947056
 20
11.7477492665
 30
0.0
 10
10.6529233496
 20
11.7494941631
 30
0.0
 10
10.6499855835
 20
11.7512785717
 30
0.0
 10
10.6473879812
 20
11.7530986394
 30
0.0
 10
10.6451363128
 20
11.7549508293
 30
0.0
 10
10.6432355561
 20
11.7568318244
 30
0.0
 10
10.6416904878
 20
11.7587392719
 30
0.0
 10
10.6405061257
 20
11.7606703482
 30
0.0
 10
10.6398156821
 20
11.7623204538
 30
0.0
 10
10.6394605925
 20
11.7636349947
 30
0.0
 10
10.6392903151
 20
11.7646097553
 30
0.0
 10
10.6392128627
 20
11.7655855362
 30
0.0
 10
10.6392283347
 20
11.7665616033
 30
0.0
 10
10.639336777
 20
11.7675371294
 30
0.0
 10
10.6395379457
 20
11.7685113244
 30
0.0
 10
10.6398315926
 20
11.7694835032
 30
0.0
 10
10.6403547251
 20
11.7707981101
 30
0.0
 10
10.6412554102
 20
11.7724416984
 30
0.0
 10
10.6426807114
 20
11.77435679
 30
0.0
 10
10.6438166643
 20
11.77556126
 30
0.0
 10
10.644436475
 20
11.7761599513
 30
0.0
  0
SPLINE
  5
351
100
AcDbEntity
  8
0
100
AcDbSpline
 62
7
  6
CONTINUOUS
 70
0
 71
3
 72
60
 73
56
 74
0
 42
0.0000001
 43
0.0000001
 44
0.0000000001
 40
0.0
 40
0.0
 40
0.0
 40
0.0
 40
0.0081222334
 40
0.0169168644
 40
0.0264087596
 40
0.0366143427
 40
0.0475415359
 40
0.0591911777
 40
0.0715585766
 40
0.0846347449
 40
0.0984065245
 40
0.1128576243
 40
0.1279686992
 40
0.1437178507
 40
0.1600809185
 40
0.1770315499
 40
0.1945417038
 40
0.2125814141
 40
0.2501214723
 40
0.2893855858
 40
0.3300876804
 40
0.371926826
 40
0.4145905923
 40
0.4577583832
 40
0.5011046799
 40
0.5443021719
 40
0.5870250797
 40
0.6289521888
 40
0.6697702383
 40
0.7091770498
 40
0.7468851077
 40
0.7650177143
 40
0.7826263433
 40
0.7996808115
 40
0.81615264
 40
0.8320152423
 40
0.8472439236
 40
0.8618164771
 40
0.8757130013
 40
0.8889166366
 40
0.9014136554
 40
0.9131941536
 40
0.9242527414
 40
0.9345891681
 40
0.9442098802
 40
0.9531290855
 40
0.9613712609
 40
0.9689734633
 40
0.9759887842
 40
0.9824901361
 40
0.9885734498
 40
0.9914974637
 40
0.9943641529
 40
0.997191913
 40
1.0
 40
1.0
 40
1.0
 40
1.0
 10
10.9699534978
 20
11.7236415667
 30
0.0
 10
10.9692098539
 20
11.7229232618
 30
0.0
 10
10.9675908462
 20
11.7214989059
 30
0.0
 10
10.9649034521
 20
11.7194751328
 30
0.0
 10
10.9618685067
 20
11.7174852363
 30
0.0
 10
10.9584922026
 20
11.7155330274
 30
0.0
 10
10.954780864
 20
11.7136220265
 30
0.0
 10
10.950741688
 20
11.7117560312
 30
0.0
 10
10.9463826321
 20
11.7099386732
 30
0.0
 10
10.941712309
 20
11.7081736702
 30
0.0
 10
10.9367400297
 20
11.7064645104
 30
0.0
 10
10.9314757264
 20
11.7048147177
 30
0.0
 10
10.9259299637
 20
11.7032276163
 30
0.0
 10
10.920113892
 20
11.7017064336
 30
0.0
 10
10.9140392208
 20
11.7002542978
 30
0.0
 10
10.9077182022
 20
11.6988741221
 30
0.0
 10
10.9011635762
 20
11.6975687524
 30
0.0
 10
10.892008446
 20
11.6959095177
 30
0.0
 10
10.8800771602
 20
11.6940508886
 30
0.0
 10
10.8652343374
 20
11.692184459
 30
0.0
 10
10.8498017064
 20
11.6906689475
 30
0.0
 10
10.8339039511
 20
11.6895168023
 30
0.0
 10
10.8176694092
 20
11.6887375304
 30
0.0
 10
10.8012292449
 20
11.6883375456
 30
0.0
 10
10.7847163021
 20
11.6883201409
 30
0.0
 10
10.768264022
 20
11.6886854572
 30
0.0
 10
10.752005349
 20
11.6894304858
 30
0.0
 10
10.7360716407
 20
11.6905490982
 30
0.0
 10
10.7205915391
 20
11.6920320646
 30
0.0
 10
10.7056901131
 20
11.6938672064
 30
0.0
 10
10.6937029364
 20
11.6957003232
 30
0.0
 10
10.6844977833
 20
11.6973397932
 30
0.0
 10
10.6779021201
 20
11.6986312902
 30
0.0
 10
10.6715376909
 20
11.6999980635
 30
0.0
 10
10.6654173287
 20
11.7014373561
 30
0.0
 10
10.6595533781
 20
11.7029462001
 30
0.0
 10
10.653957655
 20
11.7045215761
 30
0.0
 10
10.648641405
 20
11.7061602114
 30
0.0
 10
10.6436153045
 20
11.7078588417
 30
0.0
 10
10.6388894029
 20
11.7096139667
 30
0.0
 10
10.6344731234
 20
11.7114220661
 30
0.0
 10
10.6303752212
 20
11.7132795166
 30
0.0
 10
10.626603738
 20
11.7151825845
 30
0.0
 10
10.6231660426
 20
11.717127632
 30
0.0
 10
10.6200686993
 20
11.7191108817
 30
0.0
 10
10.6173176197
 20
11.7211288378
 30
0.0
 10
10.6149179413
 20
11.7231780711
 30
0.0
 10
10.612874291
 20
11.7252555137
 30
0.0
 10
10.6111909921
 20
11.7273586783
 30
0.0
 10
10.6098725334
 20
11.729484642
 30
0.0
 10
10.6090717337
 20
11.7312979013
 30
0.0
 10
10.6086292801
 20
11.7327446842
 30
0.0
 10
10.6083950294
 20
11.7338178147
 30
0.0
 10
10.6082544341
 20
11.7348922284
 30
0.0
 10
10.6082231429
 20
11.7356100242
 30
0.0
 10
10.6082231467
 20
11.735967476
 30
0.0
  0
SPLINE
  5
352
100
AcDbEntity
  8
0
100
AcDbSpline
 62
7
  6
CONTINUOUS
 70
0
 71
3
 72
41
 73
37
 74
0
 42
0.0000001
 43
0.0000001
 44
0.0000000001
 40
0.0
 40
0.0
 40
0.0
 40
0.0
 40
0.0310747715
 40
0.0623072746
 40
0.0936920171
 40
0.1252208437
 40
0.1568822229
 40
0.1886620173
 40
0.2205436063
 40
0.2525083193
 40
0.2845358056
 40
0.31660446
 40
0.3486918566
 40
0.3807751976
 40
0.4128317654
 40
0.4448393749
 40
0.4767768174
 40
0.5086242916
 40
0.5403638134
 40
0.5719795993
 40
0.603458415
 40
0.634789882
 40
0.6659667353
 40
0.6969850234
 40
0.7278442442
 40
0.7585474087
 40
0.7891010278
 40
0.8195150166
 40
0.8498025147
 40
0.8649066337
 40
0.8799853952
 40
0.9100708238
 40
0.940085481
 40
0.9550762297
 40
0.9700578762
 40
1.0
 40
1.0
 40
1.0
 40
1.0
 10
11.6953411885
 20
7.6828275975
 30
0.0
 10
11.6953411885
 20
7.686190831
 30
0.0
 10
11.6950902885
 20
7.6929369565
 30
0.0
 10
11.6939701378
 20
7.7030238379
 30
0.0
 10
11.6921114681
 20
7.7130515093
 30
0.0
 10
11.6895246295
 20
7.7229641474
 30
0.0
 10
11.6862238973
 20
7.7327075423
 30
0.0
 10
11.6822274922
 20
7.7422281557
 30
0.0
 10
11.6775574159
 20
7.7514737557
 30
0.0
 10
11.6722393628
 20
7.7603936057
 30
0.0
 10
11.6663025642
 20
7.7689387635
 30
0.0
 10
11.6597796348
 20
7.7770623411
 30
0.0
 10
11.6527063928
 20
7.7847197596
 30
0.0
 10
11.6451216654
 20
7.7918689915
 30
0.0
 10
11.6370670781
 20
7.7984707888
 30
0.0
 10
11.6285868283
 20
7.8044888964
 30
0.0
 10
11.6197274458
 20
7.8098902492
 30
0.0
 10
11.61053754
 20
7.814645153
 30
0.0
 10
11.6010675372
 20
7.8187274458
 30
0.0
 10
11.5913694074
 20
7.8221146421
 30
0.0
 10
11.5814963827
 20
7.8247880565
 30
0.0
 10
11.5715026698
 20
7.8267329078
 30
0.0
 10
11.5614431557
 20
7.8279384022
 30
0.0
 10
11.5513731133
 20
7.8283977976
 30
0.0
 10
11.5413478902
 20
7.8281084404
 30
0.0
 10
11.5314226483
 20
7.8270718031
 30
0.0
 10
11.5216519092
 20
7.8252934182
 30
0.0
 10
11.5120898215
 20
7.8227830965
 30
0.0
 10
11.5043305851
 20
7.8200895595
 30
0.0
 10
11.4982826459
 20
7.8175846067
 30
0.0
 10
11.4923571115
 20
7.8148542654
 30
0.0
 10
11.4851723957
 20
7.8110162883
 30
0.0
 10
11.4783208051
 20
7.806628598
 30
0.0
 10
11.473069906
 20
7.8028076227
 30
0.0
 10
11.4679810331
 20
7.7987865959
 30
0.0
 10
11.4643473944
 20
7.7955458443
 30
0.0
 10
11.4620165465
 20
7.793294414
 30
0.0
  0
SPLINE
  5
353
100
AcDbEntity
  8
0
100
AcDbSpline
 62
7
  6
CONTINUOUS
 70
0
 71
3
 72
41
 73
37
 74
0
 42
0.0000001
 43
0.0000001
 44
0.0000000001
 40
0.0
 40
0.0
 40
0.0
 40
0.0
 40
0.0310747715
 40
0.0623072746
 40
0.0936920171
 40
0.1252208437
 40
0.1568822229
 40
0.1886620173
 40
0.2205436063
 40
0.2525083193
 40
0.2845358056
 40
0.31660446
 40
0.3486918566
 40
0.3807751976
 40
0.4128317654
 40
0.4448393749
 40
0.4767768174
 40
0.5086242916
 40
0.5403638134
 40
0.5719795993
 40
0.603458415
 40
0.634789882
 40
0.6659667353
 40
0.6969850234
 40
0.7278442442
 40
0.7585474087
 40
0.7891010278
 40
0.8195150166
 40
0.8498025147
 40
0.8649066337
 40
0.8799853952
 40
0.9100708238
 40
0.940085481
 40
0.9550762297
 40
0.9700578762
 40
1.0
 40
1.0
 40
1.0
 40
1.0
 10
9.9450835965
 20
7.8042083738
 30
0.0
 10
9.9450835965
 20
7.8075716073
 30
0.0
 10
9.9448326965
 20
7.8143177328
 30
0.0
 10
9.9437125458
 20
7.8244046142
 30
0.0
 10
9.941853876
 20
7.8344322856
 30
0.0
 10
9.9392670374
 20
7.8443449237
 30
0.0
 10
9.9359663053
 20
7.8540883186
 30
0.0
 10
9.9319699002
 20
7.863608932
 30
0.0
 10
9.9272998239
 20
7.872854532
 30
0.0
 10
9.9219817708
 20
7.881774382
 30
0.0
 10
9.9160449722
 20
7.8903195398
 30
0.0
 10
9.9095220428
 20
7.8984431173
 30
0.0
 10
9.9024488008
 20
7.9061005359
 30
0.0
 10
9.8948640734
 20
7.9132497678
 30
0.0
 10
9.8868094861
 20
7.9198515651
 30
0.0
 10
9.8783292363
 20
7.9258696726
 30
0.0
 10
9.8694698537
 20
7.9312710255
 30
0.0
 10
9.860279948
 20
7.9360259292
 30
0.0
 10
9.8508099452
 20
7.940108222
 30
0.0
 10
9.8411118154
 20
7.9434954184
 30
0.0
 10
9.8312387907
 20
7.9461688328
 30
0.0
 10
9.8212450778
 20
7.948113684
 30
0.0
 10
9.8111855637
 20
7.9493191785
 30
0.0
 10
9.8011155213
 20
7.9497785739
 30
0.0
 10
9.7910902982
 20
7.9494892167
 30
0.0
 10
9.7811650563
 20
7.9484525794
 30
0.0
 10
9.7713943172
 20
7.9466741944
 30
0.0
 10
9.7618322295
 20
7.9441638728
 30
0.0
 10
9.7540729931
 20
7.9414703357
 30
0.0
 10
9.7480250538
 20
7.938965383
 30
0.0
 10
9.7420995195
 20
7.9362350417
 30
0.0
 10
9.7349148037
 20
7.9323970646
 30
0.0
 10
9.7280632131
 20
7.9280093743
 30
0.0
 10
9.7228123139
 20
7.924188399
 30
0.0
 10
9.7177234411
 20
7.9201673722
 30
0.0
 10
9.7140898024
 20
7.9169266206
 30
0.0
 10
9.7117589545
 20
7.9146751903
 30
0.0
  0
SPLINE
  5
354
100
AcDbEntity
  8
0
100
AcDbSpline
 62
7
  6
CONTINUOUS
 70
0
 71
3
 72
41
 73
37
 74
0
 42
0.0000001
 43
0.0000001
 44
0.0000000001
 40
0.0
 40
0.0
 40
0.0
 40
0.0
 40
0.0310747715
 40
0.0623072746
 40
0.0936920171
 40
0.1252208437
 40
0.1568822229
 40
0.1886620173
 40
0.2205436063
 40
0.2525083193
 40
0.2845358056
 40
0.31660446
 40
0.3486918566
 40
0.3807751976
 40
0.4128317654
 40
0.4448393749
 40
0.4767768174
 40
0.5086242916
 40
0.5403638134
 40
0.5719795993
 40
0.603458415
 40
0.634789882
 40
0.6659667353
 40
0.6969850234
 40
0.7278442442
 40
0.7585474087
 40
0.7891010278
 40
0.8195150166
 40
0.8498025147
 40
0.8649066337
 40
0.8799853952
 40
0.9100708238
 40
0.940085481
 40
0.9550762297
 40
0.9700578762
 40
1.0
 40
1.0
 40
1.0
 40
1.0
 10
11.6953411885
 20
5.6312009797
 30
0.0
 10
11.6953411885
 20
5.6345642132
 30
0.0
 10
11.6950902885
 20
5.6413103387
 30
0.0
 10
11.6939701378
 20
5.6513972201
 30
0.0
 10
11.6921114681
 20
5.6614248915
 30
0.0
 10
11.6895246295
 20
5.6713375296
 30
0.0
 10
11.6862238973
 20
5.6810809245
 30
0.0
 10
11.6822274922
 20
5.6906015379
 30
0.0
 10
11.6775574159
 20
5.6998471379
 30
0.0
 10
11.6722393628
 20
5.7087669879
 30
0.0
 10
11.6663025642
 20
5.7173121457
 30
0.0
 10
11.6597796348
 20
5.7254357233
 30
0.0
 10
11.6527063928
 20
5.7330931418
 30
0.0
 10
11.6451216654
 20
5.7402423737
 30
0.0
 10
11.6370670781
 20
5.746844171
 30
0.0
 10
11.6285868283
 20
5.7528622786
 30
0.0
 10
11.6197274458
 20
5.7582636314
 30
0.0
 10
11.61053754
 20
5.7630185351
 30
0.0
 10
11.6010675372
 20
5.767100828
 30
0.0
 10
11.5913694074
 20
5.7704880243
 30
0.0
 10
11.5814963827
 20
5.7731614387
 30
0.0
 10
11.5715026698
 20
5.7751062899
 30
0.0
 10
11.5614431557
 20
5.7763117844
 30
0.0
 10
11.5513731133
 20
5.7767711798
 30
0.0
 10
11.5413478902
 20
5.7764818226
 30
0.0
 10
11.5314226483
 20
5.7754451853
 30
0.0
 10
11.5216519092
 20
5.7736668003
 30
0.0
 10
11.5120898215
 20
5.7711564787
 30
0.0
 10
11.5043305851
 20
5.7684629416
 30
0.0
 10
11.4982826459
 20
5.7659579889
 30
0.0
 10
11.4923571115
 20
5.7632276476
 30
0.0
 10
11.4851723957
 20
5.7593896705
 30
0.0
 10
11.4783208051
 20
5.7550019802
 30
0.0
 10
11.473069906
 20
5.7511810049
 30
0.0
 10
11.4679810331
 20
5.7471599781
 30
0.0
 10
11.4643473944
 20
5.7439192265
 30
0.0
 10
11.4620165465
 20
5.7416677962
 30
0.0
  0
SPLINE
  5
355
100
AcDbEntity
  8
0
100
AcDbSpline
 62
7
  6
CONTINUOUS
 70
0
 71
3
 72
41
 73
37
 74
0
 42
0.0000001
 43
0.0000001
 44
0.0000000001
 40
0.0
 40
0.0
 40
0.0
 40
0.0
 40
0.0310747715
 40
0.0623072746
 40
0.0936920171
 40
0.1252208437
 40
0.1568822229
 40
0.1886620173
 40
0.2205436063
 40
0.2525083193
 40
0.2845358056
 40
0.31660446
 40
0.3486918566
 40
0.3807751976
 40
0.4128317654
 40
0.4448393749
 40
0.4767768174
 40
0.5086242916
 40
0.5403638134
 40
0.5719795993
 40
0.603458415
 40
0.634789882
 40
0.6659667353
 40
0.6969850234
 40
0.7278442442
 40
0.7585474087
 40
0.7891010278
 40
0.8195150166
 40
0.8498025147
 40
0.8649066337
 40
0.8799853952
 40
0.9100708238
 40
0.940085481
 40
0.9550762297
 40
0.9700578762
 40
1.0
 40
1.0
 40
1.0
 40
1.0
 10
9.9450835965
 20
5.752581756
 30
0.0
 10
9.9450835965
 20
5.7559449894
 30
0.0
 10
9.9448326965
 20
5.7626911149
 30
0.0
 10
9.9437125458
 20
5.7727779963
 30
0.0
 10
9.941853876
 20
5.7828056678
 30
0.0
 10
9.9392670374
 20
5.7927183059
 30
0.0
 10
9.9359663053
 20
5.8024617008
 30
0.0
 10
9.9319699002
 20
5.8119823142
 30
0.0
 10
9.9272998239
 20
5.8212279142
 30
0.0
 10
9.9219817708
 20
5.8301477641
 30
0.0
 10
9.9160449722
 20
5.838692922
 30
0.0
 10
9.9095220428
 20
5.8468164995
 30
0.0
 10
9.9024488008
 20
5.854473918
 30
0.0
 10
9.8948640734
 20
5.86162315
 30
0.0
 10
9.8868094861
 20
5.8682249473
 30
0.0
 10
9.8783292363
 20
5.8742430548
 30
0.0
 10
9.8694698537
 20
5.8796444077
 30
0.0
 10
9.860279948
 20
5.8843993114
 30
0.0
 10
9.8508099452
 20
5.8884816042
 30
0.0
 10
9.8411118154
 20
5.8918688005
 30
0.0
 10
9.8312387907
 20
5.8945422149
 30
0.0
 10
9.8212450778
 20
5.8964870662
 30
0.0
 10
9.8111855637
 20
5.8976925606
 30
0.0
 10
9.8011155213
 20
5.8981519561
 30
0.0
 10
9.7910902982
 20
5.8978625988
 30
0.0
 10
9.7811650563
 20
5.8968259616
 30
0.0
 10
9.7713943172
 20
5.8950475766
 30
0.0
 10
9.7618322295
 20
5.8925372549
 30
0.0
 10
9.7540729931
 20
5.8898437179
 30
0.0
 10
9.7480250538
 20
5.8873387652
 30
0.0
 10
9.7420995195
 20
5.8846084239
 30
0.0
 10
9.7349148037
 20
5.8807704468
 30
0.0
 10
9.7280632131
 20
5.8763827565
 30
0.0
 10
9.7228123139
 20
5.8725617812
 30
0.0
 10
9.7177234411
 20
5.8685407543
 30
0.0
 10
9.7140898024
 20
5.8653000028
 30
0.0
 10
9.7117589545
 20
5.8630485725
 30
0.0
  0
SPLINE
  5
356
100
AcDbEntity
  8
0
100
AcDbSpline
 62
7
  6
CONTINUOUS
 70
0
 71
3
 72
31
 73
27
 74
0
 42
0.0000001
 43
0.0000001
 44
0.0000000001
 40
0.0
 40
0.0
 40
0.0
 40
0.0
 40
0.0845018864
 40
0.1673015137
 40
0.2480803514
 40
0.3265309791
 40
0.4023585407
 40
0.4752830689
 40
0.5450416236
 40
0.6113908386
 40
0.6432179316
 40
0.6741119642
 40
0.7040492763
 40
0.7330084091
 40
0.7609696608
 40
0.7879158976
 40
0.8138321693
 40
0.8387065946
 40
0.8625300827
 40
0.8852973281
 40
0.9070067049
 40
0.9276614334
 40
0.9472697474
 40
0.9658463297
 40
0.9834128909
 40
1.0
 40
1.0
 40
1.0
 40
1.0
 10
12.0886334138
 20
10.0174983934
 30
0.0
 10
12.0957544312
 20
10.0170045492
 30
0.0
 10
12.1098447118
 20
10.0159018234
 30
0.0
 10
12.1307042053
 20
10.0138797931
 30
0.0
 10
12.1510130283
 20
10.0115130611
 30
0.0
 10
12.1706858461
 20
10.008811694
 30
0.0
 10
12.1896401474
 20
10.0057871704
 30
0.0
 10
12.2077965166
 20
10.0024523717
 30
0.0
 10
12.2250787764
 20
9.9988214578
 30
0.0
 10
12.2388770299
 20
9.995517746
 30
0.0
 10
12.2494176969
 20
9.9927289068
 30
0.0
 10
12.2569507403
 20
9.9906021084
 30
0.0
 10
12.2642133607
 20
9.9884133308
 30
0.0
 10
12.2711979687
 20
9.9861649191
 30
0.0
 10
12.277897247
 20
9.9838591831
 30
0.0
 10
12.2843042057
 20
9.9814986146
 30
0.0
 10
12.2904121487
 20
9.9790856274
 30
0.0
 10
12.2962147295
 20
9.9766228205
 30
0.0
 10
12.3017059046
 20
9.9741126999
 30
0.0
 10
12.3068800065
 20
9.9715579479
 30
0.0
 10
12.3117316739
 20
9.9689611381
 30
0.0
 10
12.3162559532
 20
9.9663249989
 30
0.0
 10
12.3204481771
 20
9.9636521422
 30
0.0
 10
12.3243041677
 20
9.9609452458
 30
0.0
 10
12.3278198034
 20
9.9582070389
 30
0.0
 10
12.3299953829
 20
9.9563091331
 30
0.0
 10
12.3310211004
 20
9.9553545876
 30
0.0
  0
SPLINE
  5
357
100
AcDbEntity
  8
0
100
AcDbSpline
 62
7
  6
CONTINUOUS
 70
0
 71
3
 72
40
 73
36
 74
0
 42
0.0000001
 43
0.0000001
 44
0.0000000001
 40
0.0
 40
0.0
 40
0.0
 40
0.0
 40
0.0311448352
 40
0.0467776712
 40
0.0624478163
 40
0.0938928931
 40
0.1254753683
 40
0.1571831038
 40
0.1890013145
 40
0.2209130644
 40
0.2528995674
 40
0.2849405815
 40
0.3170148072
 40
0.349100303
 40
0.3811749104
 40
0.4132166804
 40
0.4452042987
 40
0.4771175008
 40
0.5089374741
 40
0.5406472387
 40
0.5722320012
 40
0.6036794751
 40
0.6349801612
 40
0.6661275796
 40
0.6971184487
 40
0.7279528012
 40
0.7586340346
 40
0.7891688873
 40
0.8195673392
 40
0.849842433
 40
0.8800100174
 40
0.9100884154
 40
0.9400980228
 40
0.9700608475
 40
1.0
 40
1.0
 40
1.0
 40
1.0
 10
11.0596629972
 20
6.0199954217
 30
0.0
 10
11.064828536
 20
6.0196371903
 30
0.0
 10
11.0725709834
 20
6.0188157658
 30
0.0
 10
11.0828226815
 20
6.0171650345
 30
0.0
 10
11.0930580995
 20
6.0151384391
 30
0.0
 10
11.1057498636
 20
6.0119109132
 30
0.0
 10
11.1207139438
 20
6.0069569051
 30
0.0
 10
11.1353519987
 20
6.0009435938
 30
0.0
 10
11.1495855451
 20
5.9939032189
 30
0.0
 10
11.163338867
 20
5.9858733872
 30
0.0
 10
11.1765386496
 20
5.9768969758
 30
0.0
 10
11.1891145732
 20
5.9670218816
 30
0.0
 10
11.200999626
 20
5.9563007722
 30
0.0
 10
11.2121304732
 20
5.9447908064
 30
0.0
 10
11.2224477864
 20
5.9325533329
 30
0.0
 10
11.2318965583
 20
5.919653566
 30
0.0
 10
11.2404263926
 20
5.9061602418
 30
0.0
 10
11.2479917704
 20
5.8921452563
 30
0.0
 10
11.2545522932
 20
5.877683287
 30
0.0
 10
11.2600728967
 20
5.8628513995
 30
0.0
 10
11.2645240371
 20
5.8477286417
 30
0.0
 10
11.2678818506
 20
5.8323956282
 30
0.0
 10
11.2701282822
 20
5.8169341168
 30
0.0
 10
11.2712511865
 20
5.8014265778
 30
0.0
 10
11.2712443979
 20
5.78595576
 30
0.0
 10
11.2701077697
 20
5.7706042538
 30
0.0
 10
11.2678471841
 20
5.7554540535
 30
0.0
 10
11.2644745302
 20
5.7405861218
 30
0.0
 10
11.2600076492
 20
5.7260799546
 30
0.0
 10
11.2544702569
 20
5.7120131606
 30
0.0
 10
11.2478918
 20
5.6984610137
 30
0.0
 10
11.240307406
 20
5.6854961405
 30
0.0
 10
11.2317573323
 20
5.673187755
 30
0.0
 10
11.2222881325
 20
5.6616026356
 30
0.0
 10
11.2153933134
 20
5.6543997244
 30
0.0
 10
11.2118132356
 20
5.6509416161
 30
0.0
  0
SPLINE
  5
358
100
AcDbEntity
  8
0
100
AcDbSpline
 62
7
  6
CONTINUOUS
 70
0
 71
3
 72
20
 73
16
 74
0
 42
0.0000001
 43
0.0000001
 44
0.0000000001
 40
0.0
 40
0.0
 40
0.0
 40
0.0
 40
0.1434716712
 40
0.2834686835
 40
0.3518834419
 40
0.419075557
 40
0.4849163333
 40
0.5492772158
 40
0.6120345986
 40
0.673075187
 40
0.7323033029
 40
0.7896484593
 40
0.8450722565
 40
0.8985745649
 40
1.0
 40
1.0
 40
1.0
 40
1.0
 10
10.6386261883
 20
6.4821149007
 30
0.0
 10
10.6406408922
 20
6.4849028397
 30
0.0
 10
10.6447076983
 20
6.4903495939
 30
0.0
 10
10.6499898301
 20
6.4969304164
 30
0.0
 10
10.6542798782
 20
6.5019564595
 30
0.0
 10
10.6574942274
 20
6.5055617015
 30
0.0
 10
10.6607255247
 20
6.5090199623
 30
0.0
 10
10.6639690649
 20
6.5123193382
 30
0.0
 10
10.6672198844
 20
6.5154478754
 30
0.0
 10
10.6704729185
 20
6.5183938842
 30
0.0
 10
10.6737231356
 20
6.5211464057
 30
0.0
 10
10.6769655984
 20
6.5236955936
 30
0.0
 10
10.680196105
 20
6.5260333918
 30
0.0
 10
10.6844066737
 20
6.5288106253
 30
0.0
 10
10.6876483353
 20
6.5306406452
 30
0.0
 10
10.6898285681
 20
6.5317174753
 30
0.0
  0
SPLINE
  5
359
100
AcDbEntity
  8
0
100
AcDbSpline
 62
7
  6
CONTINUOUS
 70
0
 71
3
 72
34
 73
30
 74
0
 42
0.0000001
 43
0.0000001
 44
0.0000000001
 40
0.0
 40
0.0
 40
0.0
 40
0.0
 40
0.0323690266
 40
0.0644118013
 40
0.0961135008
 40
0.1274715492
 40
0.1584951688
 40
0.1892048787
 40
0.2196308956
 40
0.2498111404
 40
0.279788842
 40
0.3096104264
 40
0.3393236648
 40
0.3689760872
 40
0.3986140495
 40
0.4282821917
 40
0.4580228995
 40
0.487876135
 40
0.5480549737
 40
0.6091228894
 40
0.6713403892
 40
0.7349340956
 40
0.8000421417
 40
0.8331486795
 40
0.8665547507
 40
0.9001501779
 40
0.9337603487
 40
0.9671414025
 40
1.0
 40
1.0
 40
1.0
 40
1.0
 10
10.7919096454
 20
6.2426489031
 30
0.0
 10
10.7884936312
 20
6.242825141
 30
0.0
 10
10.7817051098
 20
6.2433960308
 30
0.0
 10
10.7716567237
 20
6.2449260193
 30
0.0
 10
10.7618412681
 20
6.2471219004
 30
0.0
 10
10.7523075176
 20
6.2499712416
 30
0.0
 10
10.743098357
 20
6.2534538547
 30
0.0
 10
10.7342504637
 20
6.2575428995
 30
0.0
 10
10.7257933477
 20
6.2622064994
 30
0.0
 10
10.7177492371
 20
6.2674093867
 30
0.0
 10
10.7101333451
 20
6.2731145312
 30
0.0
 10
10.7029545118
 20
6.2792845794
 30
0.0
 10
10.6962160355
 20
6.2858830168
 30
0.0
 10
10.6899165996
 20
6.2928750474
 30
0.0
 10
10.6840511433
 20
6.3002282136
 30
0.0
 10
10.6786117692
 20
6.3079127164
 30
0.0
 10
10.6735883743
 20
6.3159019203
 30
0.0
 10
10.6674141539
 20
6.326956059
 30
0.0
 10
10.6606701351
 20
6.3414576547
 30
0.0
 10
10.6540658417
 20
6.3597081357
 30
0.0
 10
10.6488099795
 20
6.3787626494
 30
0.0
 10
10.6447863596
 20
6.3985461831
 30
0.0
 10
10.6423723125
 20
6.4154828223
 30
0.0
 10
10.6409218957
 20
6.4293167565
 30
0.0
 10
10.6400573191
 20
6.439861066
 30
0.0
 10
10.6394060839
 20
6.4504737715
 30
0.0
 10
10.6389533194
 20
6.4610940776
 30
0.0
 10
10.6386864722
 20
6.4716426834
 30
0.0
 10
10.6386261883
 20
6.4786426085
 30
0.0
 10
10.6386261883
 20
6.4821149007
 30
0.0
  0
SPLINE
  5
35A
100
AcDbEntity
  8
0
100
AcDbSpline
 62
7
  6
CONTINUOUS
 70
0
 71
3
 72
15
 73
11
 74
0
 42
0.0000001
 43
0.0000001
 44
0.0000000001
 40
0.0
 40
0.0
 40
0.0
 40
0.0
 40
0.0684863308
 40
0.1463961874
 40
0.236666659
 40
0.3425145047
 40
0.4679210409
 40
0.6173021736
 40
0.7941583557
 40
1.0
 40
1.0
 40
1.0
 40
1.0
 10
11.3322231352
 20
9.7009153389
 30
0.0
 10
11.3322231352
 20
9.7007248159
 30
0.0
 10
11.3322074477
 20
9.7003173724
 30
0.0
 10
11.3321276028
 20
9.699663094
 30
0.0
 10
11.3319736798
 20
9.6989156884
 30
0.0
 10
11.3317282508
 20
9.6980546947
 30
0.0
 10
11.3313602952
 20
9.6970607171
 30
0.0
 10
11.330841007
 20
9.6959155791
 30
0.0
 10
11.3301442629
 20
9.6946085738
 30
0.0
 10
11.3295860454
 20
9.6937011167
 30
0.0
 10
11.3292727595
 20
9.6932217826
 30
0.0
  0
SPLINE
  5
35B
100
AcDbEntity
  8
0
100
AcDbSpline
 62
7
  6
CONTINUOUS
 70
0
 71
3
 72
66
 73
62
 74
0
 42
0.0000001
 43
0.0000001
 44
0.0000000001
 40
0.0
 40
0.0
 40
0.0
 40
0.0
 40
0.0038007523
 40
0.0077417549
 40
0.0118260428
 40
0.0160562776
 40
0.0204347335
 40
0.0249632363
 40
0.0344746177
 40
0.0445977909
 40
0.0553345646
 40
0.0666827046
 40
0.0786366008
 40
0.0911877643
 40
0.1043251852
 40
0.1180356301
 40
0.1323039148
 40
0.1471131072
 40
0.1624446802
 40
0.1782786494
 40
0.1945937215
 40
0.2113674043
 40
0.228576092
 40
0.2461951505
 40
0.2641990212
 40
0.2825612979
 40
0.3012547903
 40
0.3202515922
 40
0.3395231664
 40
0.3787730767
 40
0.4187666455
 40
0.4592593129
 40
0.5000025183
 40
0.540745716
 40
0.5812383579
 40
0.621231886
 40
0.6604817384
 40
0.6797532816
 40
0.6987500423
 40
0.7174434884
 40
0.7358057231
 40
0.7538095491
 40
0.7714285506
 40
0.7886371769
 40
0.8054108054
 40
0.8217258208
 40
0.8375597193
 40
0.8528912182
 40
0.867700346
 40
0.8819685644
 40
0.8956789279
 40
0.9088162649
 40
0.9213673568
 40
0.9333211804
 40
0.9446692317
 40
0.9554059181
 40
0.9655290194
 40
0.97504031
 40
0.9839463862
 40
0.9922597232
 40
1.0
 40
1.0
 40
1.0
 40
1.0
 10
11.3423423493
 20
9.703662137
 30
0.0
 10
11.3412877441
 20
9.7026807526
 30
0.0
 10
11.3390995533
 20
9.7007244558
 30
0.0
 10
11.3356506734
 20
9.6978600321
 30
0.0
 10
11.3319780119
 20
9.6950144722
 30
0.0
 10
11.3280832128
 20
9.6921889946
 30
0.0
 10
11.3239678076
 20
9.6893846379
 30
0.0
 10
11.3180921525
 20
9.6856133856
 30
0.0
 10
11.3101935294
 20
9.6809698395
 30
0.0
 10
11.3000138269
 20
9.6755878306
 30
0.0
 10
11.2889993473
 20
9.6703168878
 30
0.0
 10
11.2771680267
 20
9.6651655868
 30
0.0
 10
11.264538894
 20
9.6601423042
 30
0.0
 10
11.2511324638
 20
9.6552552972
 30
0.0
 10
11.2369705697
 20
9.6505126227
 30
0.0
 10
11.2220763605
 20
9.645922107
 30
0.0
 10
11.2064742236
 20
9.6414913466
 30
0.0
 10
11.1901897396
 20
9.6372276866
 30
0.0
 10
11.1732496442
 20
9.6331381959
 30
0.0
 10
11.1556817815
 20
9.6292296429
 30
0.0
 10
11.1375150427
 20
9.6255085057
 30
0.0
 10
11.1187793135
 20
9.6219809574
 30
0.0
 10
11.0995054323
 20
9.6186528469
 30
0.0
 10
11.0797251386
 20
9.6155296798
 30
0.0
 10
11.059471011
 20
9.6126166299
 30
0.0
 10
11.0387764081
 20
9.609918526
 30
0.0
 10
11.0176754323
 20
9.6074398463
 30
0.0
 10
10.9962028258
 20
9.6051846611
 30
0.0
 10
10.966946827
 20
9.6024643263
 30
0.0
 10
10.9297089242
 20
9.599657742
 30
0.0
 10
10.8843859495
 20
9.597250265
 30
0.0
 10
10.8384559759
 20
9.5957993587
 30
0.0
 10
10.7922216005
 20
9.5953146534
 30
0.0
 10
10.7459872355
 20
9.5957994229
 30
0.0
 10
10.700057292
 20
9.5972503933
 30
0.0
 10
10.6547343675
 20
9.5996579322
 30
0.0
 10
10.6174965182
 20
9.6024645722
 30
0.0
 10
10.5882405721
 20
9.6051849406
 30
0.0
 10
10.5667680144
 20
9.6074401604
 30
0.0
 10
10.545667092
 20
9.6099188738
 30
0.0
 10
10.5249725431
 20
9.6126170021
 30
0.0
 10
10.504718474
 20
9.6155300756
 30
0.0
 10
10.4849382478
 20
9.6186532748
 30
0.0
 10
10.4656644386
 20
9.6219814168
 30
0.0
 10
10.4469287799
 20
9.6255089865
 30
0.0
 10
10.4287621155
 20
9.6292301442
 30
0.0
 10
10.4111943375
 20
9.6331387264
 30
0.0
 10
10.3942543306
 20
9.6372282457
 30
0.0
 10
10.3779699316
 20
9.6414919233
 30
0.0
 10
10.3623678831
 20
9.6459227001
 30
0.0
 10
10.3474737734
 20
9.6505132417
 30
0.0
 10
10.333311983
 20
9.6552559414
 30
0.0
 10
10.3199056484
 20
9.6601429618
 30
0.0
 10
10.3072766195
 20
9.665166255
 30
0.0
 10
10.2954453964
 20
9.6703175825
 30
0.0
 10
10.2844310809
 20
9.6755885302
 30
0.0
 10
10.2742513216
 20
9.6809706066
 30
0.0
 10
10.2649223729
 20
9.6864552271
 30
0.0
 10
10.2564587428
 20
9.6920340792
 30
0.0
 10
10.2488742481
 20
9.6976982813
 30
0.0
 10
10.2442509032
 20
9.7016641492
 30
0.0
 10
10.2421032197
 20
9.7036627848
 30
0.0
  0
SPLINE
  5
35C
100
AcDbEntity
  8
0
100
AcDbSpline
 62
7
  6
CONTINUOUS
 70
0
 71
3
 72
15
 73
11
 74
0
 42
0.0000001
 43
0.0000001
 44
0.0000000001
 40
0.0
 40
0.0
 40
0.0
 40
0.0
 40
0.2062535903
 40
0.3834186085
 40
0.5329267058
 40
0.6584696892
 40
0.764356494
 40
0.8544485936
 40
0.9319935007
 40
1.0
 40
1.0
 40
1.0
 40
1.0
 10
10.2552292331
 20
9.6931372561
 30
0.0
 10
10.2549100961
 20
9.6936224456
 30
0.0
 10
10.2543412635
 20
9.6945409105
 30
0.0
 10
10.2536305092
 20
9.6958635006
 30
0.0
 10
10.2531009769
 20
9.6970225372
 30
0.0
 10
10.2527264908
 20
9.6980287248
 30
0.0
 10
10.2524764545
 20
9.6988996816
 30
0.0
 10
10.2523197371
 20
9.6996545247
 30
0.0
 10
10.2522388974
 20
9.7003138479
 30
0.0
 10
10.2522231352
 20
9.7007238562
 30
0.0
 10
10.2522231352
 20
9.7009153389
 30
0.0
  0
SPLINE
  5
35D
100
AcDbEntity
  8
0
100
AcDbSpline
 62
7
  6
CONTINUOUS
 70
0
 71
3
 72
17
 73
13
 74
0
 42
0.0000001
 43
0.0000001
 44
0.0000000001
 40
0.0
 40
0.0
 40
0.0
 40
0.0
 40
0.0548654642
 40
0.1099349219
 40
0.2214349039
 40
0.3360992195
 40
0.4553348124
 40
0.517079118
 40
0.5804139608
 40
0.7123167483
 40
0.8519524535
 40
1.0
 40
1.0
 40
1.0
 40
1.0
 10
9.6263661954
 20
9.5964092538
 30
0.0
 10
9.6263661913
 20
9.5969388578
 30
0.0
 10
9.6263998184
 20
9.598000374
 30
0.0
 10
9.626602065
 20
9.6001293683
 30
0.0
 10
9.6271131131
 20
9.6028031991
 30
0.0
 10
9.6281286405
 20
9.6059863501
 30
0.0
 10
9.629296289
 20
9.6085967665
 30
0.0
 10
9.6304198769
 20
9.6106710684
 30
0.0
 10
9.6317064304
 20
9.6127929779
 30
0.0
 10
9.6335745418
 20
9.6154365855
 30
0.0
 10
9.6361790326
 20
9.6185432034
 30
0.0
 10
9.6381161188
 20
9.6205366077
 30
0.0
 10
9.6391439838
 20
9.6215294491
 30
0.0
  0
SPLINE
  5
35E
100
AcDbEntity
  8
0
100
AcDbSpline
 62
7
  6
CONTINUOUS
 70
0
 71
3
 72
18
 73
14
 74
0
 42
0.0000001
 43
0.0000001
 44
0.0000000001
 40
0.0
 40
0.0
 40
0.0
 40
0.0
 40
0.1492378719
 40
0.2896551254
 40
0.4219619721
 40
0.4853618993
 40
0.5470839706
 40
0.6660306019
 40
0.7801313525
 40
0.8358490322
 40
0.8909261152
 40
0.9455716555
 40
1.0
 40
1.0
 40
1.0
 40
1.0
 10
12.3608871374
 20
9.9275610942
 30
0.0
 10
12.3619886375
 20
9.9265360333
 30
0.0
 10
12.3640645042
 20
9.924477914
 30
0.0
 10
12.3668592021
 20
9.9212648589
 30
0.0
 10
12.3688656386
 20
9.9185275779
 30
0.0
 10
12.3702475276
 20
9.9163294014
 30
0.0
 10
12.3714528525
 20
9.9141830413
 30
0.0
 10
12.3727060387
 20
9.9114814066
 30
0.0
 10
12.3736224369
 20
9.9087099968
 30
0.0
 10
12.3741308884
 20
9.9064989311
 30
0.0
 10
12.3744013193
 20
9.9048517565
 30
0.0
 10
12.3745636171
 20
9.9032035925
 30
0.0
 10
12.3745997262
 20
9.9021035256
 30
0.0
 10
12.3745997305
 20
9.9015547569
 30
0.0
  0
SPLINE
  5
35F
100
AcDbEntity
  8
0
100
AcDbSpline
 62
7
  6
CONTINUOUS
 70
0
 71
3
 72
22
 73
18
 74
0
 42
0.0000001
 43
0.0000001
 44
0.0000000001
 40
0.0
 40
0.0
 40
0.0
 40
0.0
 40
0.0443044299
 40
0.0909119086
 40
0.1398848001
 40
0.1912734042
 40
0.2451158995
 40
0.3014361916
 40
0.3602473908
 40
0.4215535665
 40
0.4853505629
 40
0.5516277227
 40
0.6203668901
 40
0.6915451764
 40
0.7651335323
 40
0.8410988724
 40
1.0
 40
1.0
 40
1.0
 40
1.0
 10
10.0985501806
 20
10.0642100383
 30
0.0
 10
10.0994496695
 20
10.0650470586
 30
0.0
 10
10.1013441385
 20
10.0667127904
 30
0.0
 10
10.1043820951
 20
10.0691275512
 30
0.0
 10
10.1076845236
 20
10.0715185984
 30
0.0
 10
10.1112485737
 20
10.0738840467
 30
0.0
 10
10.115071533
 20
10.0762220784
 30
0.0
 10
10.1191503542
 20
10.0785309294
 30
0.0
 10
10.1234817976
 20
10.0808087283
 30
0.0
 10
10.1280623862
 20
10.0830536335
 30
0.0
 10
10.132888432
 20
10.0852638819
 30
0.0
 10
10.1379560709
 20
10.0874376297
 30
0.0
 10
10.1432612014
 20
10.0895731912
 30
0.0
 10
10.1487995486
 20
10.0916687491
 30
0.0
 10
10.1545666423
 20
10.0937226887
 30
0.0
 10
10.1626768588
 20
10.0964443294
 30
0.0
 10
10.168905628
 20
10.0983544953
 30
0.0
 10
10.1731375168
 20
10.0995837025
 30
0.0
  0
SPLINE
  5
360
100
AcDbEntity
  8
0
100
AcDbSpline
 62
7
  6
CONTINUOUS
 70
0
 71
3
 72
15
 73
11
 74
0
 42
0.0000001
 43
0.0000001
 44
0.0000000001
 40
0.0
 40
0.0
 40
0.0
 40
0.0
 40
0.1234394207
 40
0.2470466243
 40
0.3709825609
 40
0.4953948819
 40
0.6204121401
 40
0.7461393761
 40
0.872651685
 40
1.0
 40
1.0
 40
1.0
 40
1.0
 10
11.6572406573
 20
7.5911841807
 30
0.0
 10
11.6602574188
 20
7.5940981538
 30
0.0
 10
11.6659990017
 20
7.6002457455
 30
0.0
 10
11.6736244588
 20
7.6103096193
 30
0.0
 10
11.6801992297
 20
7.6211293772
 30
0.0
 10
11.6856614926
 20
7.6326036484
 30
0.0
 10
11.6899614247
 20
7.6446264877
 30
0.0
 10
11.6930596031
 20
7.6570870111
 30
0.0
 10
11.694928035
 20
7.6698686888
 30
0.0
 10
11.6953411885
 20
7.6785004866
 30
0.0
 10
11.6953411885
 20
7.6828275975
 30
0.0
  0
SPLINE
  5
361
100
AcDbEntity
  8
0
100
AcDbSpline
 62
7
  6
CONTINUOUS
 70
0
 71
3
 72
15
 73
11
 74
0
 42
0.0000001
 43
0.0000001
 44
0.0000000001
 40
0.0
 40
0.0
 40
0.0
 40
0.0
 40
0.1234394207
 40
0.2470466243
 40
0.3709825609
 40
0.4953948819
 40
0.6204121401
 40
0.7461393761
 40
0.872651685
 40
1.0
 40
1.0
 40
1.0
 40
1.0
 10
9.9069830653
 20
7.712564957
 30
0.0
 10
9.9099998268
 20
7.7154789301
 30
0.0
 10
9.9157414096
 20
7.7216265218
 30
0.0
 10
9.9233668668
 20
7.7316903955
 30
0.0
 10
9.9299416377
 20
7.7425101535
 30
0.0
 10
9.9354039006
 20
7.7539844247
 30
0.0
 10
9.9397038327
 20
7.766007264
 30
0.0
 10
9.9428020111
 20
7.7784677873
 30
0.0
 10
9.944670443
 20
7.791249465
 30
0.0
 10
9.9450835965
 20
7.7998812628
 30
0.0
 10
9.9450835965
 20
7.8042083738
 30
0.0
  0
SPLINE
  5
362
100
AcDbEntity
  8
0
100
AcDbSpline
 62
7
  6
CONTINUOUS
 70
0
 71
3
 72
15
 73
11
 74
0
 42
0.0000001
 43
0.0000001
 44
0.0000000001
 40
0.0
 40
0.0
 40
0.0
 40
0.0
 40
0.1234394207
 40
0.2470466243
 40
0.3709825609
 40
0.4953948819
 40
0.6204121401
 40
0.7461393761
 40
0.872651685
 40
1.0
 40
1.0
 40
1.0
 40
1.0
 10
11.6572406573
 20
5.5395575629
 30
0.0
 10
11.6602574188
 20
5.542471536
 30
0.0
 10
11.6659990017
 20
5.5486191277
 30
0.0
 10
11.6736244588
 20
5.5586830014
 30
0.0
 10
11.6801992297
 20
5.5695027594
 30
0.0
 10
11.6856614926
 20
5.5809770306
 30
0.0
 10
11.6899614247
 20
5.5929998699
 30
0.0
 10
11.6930596031
 20
5.6054603932
 30
0.0
 10
11.694928035
 20
5.6182420709
 30
0.0
 10
11.6953411885
 20
5.6268738687
 30
0.0
 10
11.6953411885
 20
5.6312009797
 30
0.0
  0
SPLINE
  5
363
100
AcDbEntity
  8
0
100
AcDbSpline
 62
7
  6
CONTINUOUS
 70
0
 71
3
 72
15
 73
11
 74
0
 42
0.0000001
 43
0.0000001
 44
0.0000000001
 40
0.0
 40
0.0
 40
0.0
 40
0.0
 40
0.1234394207
 40
0.2470466243
 40
0.3709825609
 40
0.4953948819
 40
0.6204121401
 40
0.7461393761
 40
0.872651685
 40
1.0
 40
1.0
 40
1.0
 40
1.0
 10
9.9069830653
 20
5.6609383392
 30
0.0
 10
9.9099998268
 20
5.6638523123
 30
0.0
 10
9.9157414096
 20
5.669999904
 30
0.0
 10
9.9233668668
 20
5.6800637777
 30
0.0
 10
9.9299416377
 20
5.6908835356
 30
0.0
 10
9.9354039006
 20
5.7023578069
 30
0.0
 10
9.9397038327
 20
5.7143806462
 30
0.0
 10
9.9428020111
 20
5.7268411695
 30
0.0
 10
9.944670443
 20
5.7396228472
 30
0.0
 10
9.9450835965
 20
5.748254645
 30
0.0
 10
9.9450835965
 20
5.752581756
 30
0.0
  0
SPLINE
  5
364
100
AcDbEntity
  8
0
100
AcDbSpline
 62
7
  6
CONTINUOUS
 70
0
 71
3
 72
21
 73
17
 74
0
 42
0.0000001
 43
0.0000001
 44
0.0000000001
 40
0.0
 40
0.0
 40
0.0
 40
0.0
 40
0.0616532342
 40
0.1233294953
 40
0.1850515501
 40
0.2468416649
 40
0.3087213494
 40
0.3707111104
 40
0.4328302434
 40
0.4950966323
 40
0.5575265657
 40
0.6201345673
 40
0.682933156
 40
0.7459330948
 40
0.8725263949
 40
1.0
 40
1.0
 40
1.0
 40
1.0
 10
10.9075127587
 20
5.9659736903
 30
0.0
 10
10.9099703989
 20
5.9683476013
 30
0.0
 10
10.9150153343
 20
5.9729650848
 30
0.0
 10
10.9229456193
 20
5.9794758723
 30
0.0
 10
10.9312202623
 20
5.9855563177
 30
0.0
 10
10.9398181337
 20
5.9911908366
 30
0.0
 10
10.9487176498
 20
5.9963653005
 30
0.0
 10
10.9578963673
 20
6.0010666524
 30
0.0
 10
10.9673311455
 20
6.005283101
 30
0.0
 10
10.9769982052
 20
6.0090040466
 30
0.0
 10
10.9868732229
 20
6.0122201137
 30
0.0
 10
10.9969312408
 20
6.0149232218
 30
0.0
 10
11.0071472048
 20
6.0171066392
 30
0.0
 10
11.0209642282
 20
6.0193209176
 30
0.0
 10
11.0385096427
 20
6.020759466
 30
0.0
 10
11.0526151036
 20
6.0204841948
 30
0.0
 10
11.0596629972
 20
6.0199954217
 30
0.0
  0
SPLINE
  5
365
100
AcDbEntity
  8
0
100
AcDbSpline
 62
7
  6
CONTINUOUS
 70
0
 71
3
 72
9
 73
5
 74
0
 42
0.0000001
 43
0.0000001
 44
0.0000000001
 40
0.0
 40
0.0
 40
0.0
 40
0.0
 40
0.5023740029
 40
1.0
 40
1.0
 40
1.0
 40
1.0
 10
10.816967871
 20
6.243264793
 30
0.0
 10
10.812787511
 20
6.2428550587
 30
0.0
 10
10.8044346054
 20
6.2423324436
 30
0.0
 10
10.7960648126
 20
6.2424345311
 30
0.0
 10
10.7919096454
 20
6.2426489031
 30
0.0
  0
SPLINE
  5
366
100
AcDbEntity
  8
0
100
AcDbSpline
 62
7
  6
CONTINUOUS
 70
0
 71
3
 72
40
 73
36
 74
0
 42
0.0000001
 43
0.0000001
 44
0.0000000001
 40
0.0
 40
0.0
 40
0.0
 40
0.0
 40
0.0958313936
 40
0.1891002636
 40
0.2345968559
 40
0.2792418231
 40
0.3229685191
 40
0.3657121987
 40
0.4074103657
 40
0.4480029213
 40
0.4874324913
 40
0.5256446262
 40
0.5625879545
 40
0.5982146421
 40
0.632480706
 40
0.6653462654
 40
0.6967761768
 40
0.726740613
 40
0.7552155871
 40
0.7821839784
 40
0.8076366943
 40
0.8315738914
 40
0.8540069425
 40
0.8749609194
 40
0.8944774765
 40
0.9126189061
 40
0.9294731629
 40
0.9451593854
 40
0.9598338584
 40
0.9668558876
 40
0.9737029112
 40
0.9804063068
 40
0.9869997133
 40
0.9935186461
 40
1.0
 40
1.0
 40
1.0
 40
1.0
 10
9.9043091283
 20
8.234398658
 30
0.0
 10
9.8945418375
 20
8.235076022
 30
0.0
 10
9.8752825906
 20
8.2366274819
 30
0.0
 10
9.8514416181
 20
8.2391154198
 30
0.0
 10
9.8328442734
 20
8.2414138657
 30
0.0
 10
9.8192933207
 20
8.2432683114
 30
0.0
 10
9.8060468636
 20
8.2452644235
 30
0.0
 10
9.7931270078
 20
8.2473988625
 30
0.0
 10
9.7805553462
 20
8.2496680263
 30
0.0
 10
9.7683528812
 20
8.2520681184
 30
0.0
 10
9.7565399851
 20
8.254595095
 30
0.0
 10
9.7451363701
 20
8.2572446947
 30
0.0
 10
9.734161061
 20
8.2600124793
 30
0.0
 10
9.7236323477
 20
8.2628937907
 30
0.0
 10
9.7135677531
 20
8.2658837696
 30
0.0
 10
9.7039840144
 20
8.2689774107
 30
0.0
 10
9.6948970346
 20
8.2721695241
 30
0.0
 10
9.686321845
 20
8.2754547457
 30
0.0
 10
9.678272596
 20
8.27882761
 30
0.0
 10
9.6707625069
 20
8.2822825273
 30
0.0
 10
9.6638038205
 20
8.2858137915
 30
0.0
 10
9.6574078084
 20
8.2894156888
 30
0.0
 10
9.6515847343
 20
8.2930825195
 30
0.0
 10
9.6463438198
 20
8.2968086252
 30
0.0
 10
9.6416933202
 20
8.3005886065
 30
0.0
 10
9.6376406549
 20
8.3044173174
 30
0.0
 10
9.6341924577
 20
8.3082902513
 30
0.0
 10
9.6313554344
 20
8.3122025003
 30
0.0
 10
9.6294789338
 20
8.3155413822
 30
0.0
 10
9.6283091624
 20
8.3182148236
 30
0.0
 10
9.6276009458
 20
8.3201956365
 30
0.0
 10
9.627049582
 20
8.3221803492
 30
0.0
 10
9.6266554172
 20
8.3241681485
 30
0.0
 10
9.6264188324
 20
8.3261578885
 30
0.0
 10
9.6263661977
 20
8.3274866738
 30
0.0
 10
9.6263662012
 20
8.3281488505
 30
0.0
  0
SPLINE
  5
367
100
AcDbEntity
  8
0
100
AcDbSpline
 62
7
  6
CONTINUOUS
 70
0
 71
3
 72
11
 73
7
 74
0
 42
0.0000001
 43
0.0000001
 44
0.0000000001
 40
0.0
 40
0.0
 40
0.0
 40
0.0
 40
0.2550159194
 40
0.50575942
 40
0.7536100395
 40
1.0
 40
1.0
 40
1.0
 40
1.0
 10
11.3303767248
 20
9.7124631436
 30
0.0
 10
11.3306811422
 20
9.711512843
 30
0.0
 10
11.3312169716
 20
9.7096055131
 30
0.0
 10
11.3317972133
 20
9.706711415
 30
0.0
 10
11.3321456241
 20
9.7038142759
 30
0.0
 10
11.3322231326
 20
9.7018794542
 30
0.0
 10
11.3322231275
 20
9.7009153389
 30
0.0
  0
SPLINE
  5
368
100
AcDbEntity
  8
0
100
AcDbSpline
 62
7
  6
CONTINUOUS
 70
0
 71
3
 72
11
 73
7
 74
0
 42
0.0000001
 43
0.0000001
 44
0.0000000001
 40
0.0
 40
0.0
 40
0.0
 40
0.0
 40
0.267940004
 40
0.5242597974
 40
0.7684334838
 40
1.0
 40
1.0
 40
1.0
 40
1.0
 10
10.7074993746
 20
6.5325317414
 30
0.0
 10
10.7048059918
 20
6.531921187
 30
0.0
 10
10.6995489874
 20
6.5306682956
 30
0.0
 10
10.6918908798
 20
6.5286434602
 30
0.0
 10
10.684649672
 20
6.5265188972
 30
0.0
 10
10.6799866852
 20
6.5249986972
 30
0.0
 10
10.6777304043
 20
6.5242202041
 30
0.0
  0
SPLINE
  5
369
100
AcDbEntity
  8
0
100
AcDbSpline
 62
7
  6
CONTINUOUS
 70
0
 71
3
 72
41
 73
37
 74
0
 42
0.0000001
 43
0.0000001
 44
0.0000000001
 40
0.0
 40
0.0
 40
0.0
 40
0.0
 40
0.0310747715
 40
0.0623072746
 40
0.0936920171
 40
0.1252208437
 40
0.1568822229
 40
0.1886620173
 40
0.2205436063
 40
0.2525083193
 40
0.2845358056
 40
0.31660446
 40
0.3486918566
 40
0.3807751976
 40
0.4128317654
 40
0.4448393749
 40
0.4767768174
 40
0.5086242916
 40
0.5403638134
 40
0.5719795993
 40
0.603458415
 40
0.634789882
 40
0.6659667353
 40
0.6969850234
 40
0.7278442442
 40
0.7585474087
 40
0.7891010278
 40
0.8195150166
 40
0.8498025147
 40
0.8649066337
 40
0.8799853952
 40
0.9100708238
 40
0.940085481
 40
0.9550762297
 40
0.9700578762
 40
1.0
 40
1.0
 40
1.0
 40
1.0
 10
11.4239160153
 20
5.6500243794
 30
0.0
 10
11.4239160153
 20
5.6466611459
 30
0.0
 10
11.4241669154
 20
5.6399150204
 30
0.0
 10
11.425287066
 20
5.629828139
 30
0.0
 10
11.4271457358
 20
5.6198004676
 30
0.0
 10
11.4297325744
 20
5.6098878295
 30
0.0
 10
11.4330333065
 20
5.6001444346
 30
0.0
 10
11.4370297116
 20
5.5906238212
 30
0.0
 10
11.4416997879
 20
5.5813782212
 30
0.0
 10
11.447017841
 20
5.5724583712
 30
0.0
 10
11.4529546396
 20
5.5639132134
 30
0.0
 10
11.459477569
 20
5.5557896359
 30
0.0
 10
11.466550811
 20
5.5481322173
 30
0.0
 10
11.4741355384
 20
5.5409829854
 30
0.0
 10
11.4821901257
 20
5.5343811881
 30
0.0
 10
11.4906703755
 20
5.5283630806
 30
0.0
 10
11.4995297581
 20
5.5229617277
 30
0.0
 10
11.5087196638
 20
5.518206824
 30
0.0
 10
11.5181896666
 20
5.5141245312
 30
0.0
 10
11.5278877964
 20
5.5107373348
 30
0.0
 10
11.5377608211
 20
5.5080639204
 30
0.0
 10
11.547754534
 20
5.5061190692
 30
0.0
 10
11.5578140481
 20
5.5049135747
 30
0.0
 10
11.5678840905
 20
5.5044541793
 30
0.0
 10
11.5779093136
 20
5.5047435365
 30
0.0
 10
11.5878345556
 20
5.5057801738
 30
0.0
 10
11.5976052946
 20
5.5075585588
 30
0.0
 10
11.6071673824
 20
5.5100688804
 30
0.0
 10
11.6149266187
 20
5.5127624175
 30
0.0
 10
11.620974558
 20
5.5152673702
 30
0.0
 10
11.6269000923
 20
5.5179977115
 30
0.0
 10
11.6340848081
 20
5.5218356886
 30
0.0
 10
11.6409363988
 20
5.5262233789
 30
0.0
 10
11.6461872979
 20
5.5300443542
 30
0.0
 10
11.6512761708
 20
5.534065381
 30
0.0
 10
11.6549098095
 20
5.5373061326
 30
0.0
 10
11.6572406573
 20
5.5395575629
 30
0.0
  0
SPLINE
  5
36A
100
AcDbEntity
  8
0
100
AcDbSpline
 62
7
  6
CONTINUOUS
 70
0
 71
3
 72
41
 73
37
 74
0
 42
0.0000001
 43
0.0000001
 44
0.0000000001
 40
0.0
 40
0.0
 40
0.0
 40
0.0
 40
0.0071758425
 40
0.0146741453
 40
0.0225035656
 40
0.0306713257
 40
0.0391834036
 40
0.0480443729
 40
0.0572572157
 40
0.0668238661
 40
0.0767452117
 40
0.087021259
 40
0.0976512753
 40
0.1086336553
 40
0.1316452786
 40
0.1560326285
 40
0.1817628121
 40
0.2087958578
 40
0.2370856249
 40
0.2665805114
 40
0.2972240455
 40
0.3289554128
 40
0.3617098907
 40
0.3954192316
 40
0.4300120033
 40
0.4654138991
 40
0.5015480605
 40
0.5383353682
 40
0.5756947176
 40
0.6135432851
 40
0.6517967846
 40
0.6903697386
 40
0.7681261117
 40
0.8461161118
 40
0.923638923
 40
1.0
 40
1.0
 40
1.0
 40
1.0
 10
11.9332179571
 20
8.1941742111
 30
0.0
 10
11.9324062531
 20
8.1933901652
 30
0.0
 10
11.9307060031
 20
8.1918282145
 30
0.0
 10
11.9279942866
 20
8.1895524664
 30
0.0
 10
11.9250678852
 20
8.187294778
 30
0.0
 10
11.9219287034
 20
8.1850566034
 30
0.0
 10
11.9185785801
 20
8.1828391562
 30
0.0
 10
11.9150194414
 20
8.1806437408
 30
0.0
 10
11.9112534067
 20
8.1784715783
 30
0.0
 10
11.9072826961
 20
8.176324011
 30
0.0
 10
11.9031096839
 20
8.1742022983
 30
0.0
 10
11.8987368591
 20
8.1721076934
 30
0.0
 10
11.8941668086
 20
8.1700414618
 30
0.0
 10
11.8877132788
 20
8.1672829156
 30
0.0
 10
11.8791658668
 20
8.1639236639
 30
0.0
 10
11.868322405
 20
8.1600851057
 30
0.0
 10
11.8567641718
 20
8.1563880847
 30
0.0
 10
11.8445188508
 20
8.1528415436
 30
0.0
 10
11.831615639
 20
8.1494540832
 30
0.0
 10
11.8180854375
 20
8.1462339236
 30
0.0
 10
11.8039606856
 20
8.1431888761
 30
0.0
 10
11.7892752902
 20
8.1403263307
 30
0.0
 10
11.7740645278
 20
8.1376532339
 30
0.0
 10
11.7583649575
 20
8.1351760728
 30
0.0
 10
11.7422143324
 20
8.1329008589
 30
0.0
 10
11.7256515068
 20
8.130833105
 30
0.0
 10
11.7087163371
 20
8.1289778215
 30
0.0
 10
11.691449582
 20
8.1273395047
 30
0.0
 10
11.6738927997
 20
8.125922123
 30
0.0
 10
11.656088264
 20
8.1247291203
 30
0.0
 10
11.6380788062
 20
8.1237633598
 30
0.0
 10
11.6137871264
 20
8.1227793206
 30
0.0
 10
11.5832299799
 20
8.1221338476
 30
0.0
 10
11.5465404962
 20
8.1222885167
 30
0.0
 10
11.5100862115
 20
8.1233690211
 30
0.0
 10
11.4859191184
 20
8.1247136327
 30
0.0
 10
11.473938689
 20
8.1255444783
 30
0.0
  0
SPLINE
  5
36B
100
AcDbEntity
  8
0
100
AcDbSpline
 62
7
  6
CONTINUOUS
 70
0
 71
3
 72
28
 73
24
 74
0
 42
0.0000001
 43
0.0000001
 44
0.0000000001
 40
0.0
 40
0.0
 40
0.0
 40
0.0
 40
0.0749524859
 40
0.1455492802
 40
0.2121320353
 40
0.2751267841
 40
0.3350538581
 40
0.392531217
 40
0.4205832565
 40
0.4482964977
 40
0.4757714291
 40
0.5031113638
 40
0.5304213313
 40
0.5578067258
 40
0.5853719828
 40
0.6132193785
 40
0.6414477519
 40
0.6701516201
 40
0.7293157367
 40
0.7913812992
 40
0.8568968395
 40
0.9263174188
 40
1.0
 40
1.0
 40
1.0
 40
1.0
 10
10.2421032197
 20
9.7036627848
 30
0.0
 10
10.2404543658
 20
9.7051972093
 30
0.0
 10
10.2373438925
 20
9.7082778001
 30
0.0
 10
10.2331468718
 20
9.7130839422
 30
0.0
 10
10.229567935
 20
9.7179281311
 30
0.0
 10
10.226612379
 20
9.7228063086
 30
0.0
 10
10.2242852152
 20
9.7277135817
 30
0.0
 10
10.2228622517
 20
9.7318580975
 30
0.0
 10
10.2220542054
 20
9.7351656707
 30
0.0
 10
10.2216115749
 20
9.7376293341
 30
0.0
 10
10.2213278347
 20
9.7400947455
 30
0.0
 10
10.2212030934
 20
9.7425612038
 30
0.0
 10
10.2212374502
 20
9.7450278856
 30
0.0
 10
10.2214308315
 20
9.7474939922
 30
0.0
 10
10.2217831625
 20
9.7499587355
 30
0.0
 10
10.2222943199
 20
9.752421309
 30
0.0
 10
10.2229640797
 20
9.7548810286
 30
0.0
 10
10.2240791328
 20
9.7581886329
 30
0.0
 10
10.2258870697
 20
9.7623265715
 30
0.0
 10
10.2286644804
 20
9.7672131586
 30
0.0
 10
10.2320668518
 20
9.7720675842
 30
0.0
 10
10.2360887388
 20
9.7768848209
 30
0.0
 10
10.2390868925
 20
9.7799734794
 30
0.0
 10
10.2406794732
 20
9.7815117943
 30
0.0
  0
SPLINE
  5
36C
100
AcDbEntity
  8
0
100
AcDbSpline
 62
7
  6
CONTINUOUS
 70
0
 71
3
 72
9
 73
5
 74
0
 42
0.0000001
 43
0.0000001
 44
0.0000000001
 40
0.0
 40
0.0
 40
0.0
 40
0.0
 40
0.4825437785
 40
1.0
 40
1.0
 40
1.0
 40
1.0
 10
10.2406794732
 20
9.7815117943
 30
0.0
 10
10.2426905783
 20
9.7834543728
 30
0.0
 10
10.2470227838
 20
9.7873116291
 30
0.0
 10
10.2516058763
 20
9.7908640263
 30
0.0
 10
10.2540273628
 20
9.7926322975
 30
0.0
  0
SPLINE
  5
36D
100
AcDbEntity
  8
0
100
AcDbSpline
 62
7
  6
CONTINUOUS
 70
0
 71
3
 72
29
 73
25
 74
0
 42
0.0000001
 43
0.0000001
 44
0.0000000001
 40
0.0
 40
0.0
 40
0.0
 40
0.0
 40
0.0815800907
 40
0.1578984385
 40
0.2292153941
 40
0.2958813917
 40
0.3583546804
 40
0.417217479
 40
0.4455277473
 40
0.4732160834
 40
0.5003928006
 40
0.5271752971
 40
0.5536868713
 40
0.5800549217
 40
0.6064091701
 40
0.6328795324
 40
0.6595940945
 40
0.6866771567
 40
0.7142474747
 40
0.7424171141
 40
0.8009366198
 40
0.8629965176
 40
0.9291960576
 40
1.0
 40
1.0
 40
1.0
 40
1.0
 10
11.3303135449
 20
9.7927091679
 30
0.0
 10
11.3326363075
 20
9.7910159618
 30
0.0
 10
11.3370436729
 20
9.7876144131
 30
0.0
 10
11.3431098795
 20
9.7822734277
 30
0.0
 10
11.3483984655
 20
9.7768731589
 30
0.0
 10
11.3529014619
 20
9.7714192172
 30
0.0
 10
11.356611147
 20
9.7659177234
 30
0.0
 10
11.359066696
 20
9.7612366785
 30
0.0
 10
11.3606045148
 20
9.7574906255
 30
0.0
 10
11.3615409616
 20
9.7547113612
 30
0.0
 10
11.3622746764
 20
9.7519274117
 30
0.0
 10
11.362805242
 20
9.7491397831
 30
0.0
 10
11.3631323912
 20
9.7463496505
 30
0.0
 10
11.3632558747
 20
9.7435581793
 30
0.0
 10
11.3631755876
 20
9.7407665818
 30
0.0
 10
11.3628916534
 20
9.7379760633
 30
0.0
 10
11.3624041953
 20
9.7351878086
 30
0.0
 10
11.3617135301
 20
9.7324029939
 30
0.0
 10
11.3608200611
 20
9.7296226211
 30
0.0
 10
11.3593405119
 20
9.7258759294
 30
0.0
 10
11.3569577836
 20
9.7211926095
 30
0.0
 10
11.3533325796
 20
9.7156862284
 30
0.0
 10
11.3489135179
 20
9.7102271862
 30
0.0
 10
11.3455611301
 20
9.7067456212
 30
0.0
 10
11.3437667972
 20
9.7050124286
 30
0.0
  0
SPLINE
  5
36E
100
AcDbEntity
  8
0
100
AcDbSpline
 62
7
  6
CONTINUOUS
 70
0
 71
3
 72
41
 73
37
 74
0
 42
0.0000001
 43
0.0000001
 44
0.0000000001
 40
0.0
 40
0.0
 40
0.0
 40
0.0
 40
0.0310747715
 40
0.0623072746
 40
0.0936920171
 40
0.1252208437
 40
0.1568822229
 40
0.1886620173
 40
0.2205436063
 40
0.2525083193
 40
0.2845358056
 40
0.31660446
 40
0.3486918566
 40
0.3807751976
 40
0.4128317654
 40
0.4448393749
 40
0.4767768174
 40
0.5086242916
 40
0.5403638134
 40
0.5719795993
 40
0.603458415
 40
0.634789882
 40
0.6659667353
 40
0.6969850234
 40
0.7278442442
 40
0.7585474087
 40
0.7891010278
 40
0.8195150166
 40
0.8498025147
 40
0.8649066337
 40
0.8799853952
 40
0.9100708238
 40
0.940085481
 40
0.9550762297
 40
0.9700578762
 40
1.0
 40
1.0
 40
1.0
 40
1.0
 10
9.6736584233
 20
5.7714051557
 30
0.0
 10
9.6736584233
 20
5.7680419222
 30
0.0
 10
9.6739093233
 20
5.7612957967
 30
0.0
 10
9.675029474
 20
5.7512089153
 30
0.0
 10
9.6768881438
 20
5.7411812439
 30
0.0
 10
9.6794749824
 20
5.7312686058
 30
0.0
 10
9.6827757145
 20
5.7215252109
 30
0.0
 10
9.6867721196
 20
5.7120045975
 30
0.0
 10
9.6914421959
 20
5.7027589975
 30
0.0
 10
9.696760249
 20
5.6938391475
 30
0.0
 10
9.7026970476
 20
5.6852939897
 30
0.0
 10
9.709219977
 20
5.6771704121
 30
0.0
 10
9.716293219
 20
5.6695129936
 30
0.0
 10
9.7238779464
 20
5.6623637617
 30
0.0
 10
9.7319325337
 20
5.6557619644
 30
0.0
 10
9.7404127835
 20
5.6497438568
 30
0.0
 10
9.7492721661
 20
5.644342504
 30
0.0
 10
9.7584620718
 20
5.6395876002
 30
0.0
 10
9.7679320746
 20
5.6355053074
 30
0.0
 10
9.7776302044
 20
5.6321181111
 30
0.0
 10
9.7875032291
 20
5.6294446967
 30
0.0
 10
9.797496942
 20
5.6274998454
 30
0.0
 10
9.8075564561
 20
5.626294351
 30
0.0
 10
9.8176264985
 20
5.6258349556
 30
0.0
 10
9.8276517216
 20
5.6261243128
 30
0.0
 10
9.8375769635
 20
5.6271609501
 30
0.0
 10
9.8473477026
 20
5.628939335
 30
0.0
 10
9.8569097903
 20
5.6314496567
 30
0.0
 10
9.8646690267
 20
5.6341431937
 30
0.0
 10
9.870716966
 20
5.6366481465
 30
0.0
 10
9.8766425003
 20
5.6393784878
 30
0.0
 10
9.8838272161
 20
5.6432164649
 30
0.0
 10
9.8906788067
 20
5.6476041552
 30
0.0
 10
9.8959297058
 20
5.6514251305
 30
0.0
 10
9.9010185787
 20
5.6554461573
 30
0.0
 10
9.9046522174
 20
5.6586869088
 30
0.0
 10
9.9069830653
 20
5.6609383392
 30
0.0
  0
SPLINE
  5
36F
100
AcDbEntity
  8
0
100
AcDbSpline
 62
7
  6
CONTINUOUS
 70
0
 71
3
 72
39
 73
35
 74
0
 42
0.0000001
 43
0.0000001
 44
0.0000000001
 40
0.0
 40
0.0
 40
0.0
 40
0.0
 40
0.007175745
 40
0.0146740737
 40
0.0225036116
 40
0.030671472
 40
0.0391835578
 40
0.0480444976
 40
0.0572573741
 40
0.0668240337
 40
0.0767454382
 40
0.0870215229
 40
0.1086328224
 40
0.1316444885
 40
0.1560318876
 40
0.1817621643
 40
0.2087953062
 40
0.2370851424
 40
0.2665800902
 40
0.2972237176
 40
0.3289551842
 40
0.3617097517
 40
0.3954191818
 40
0.4300120556
 40
0.4654140508
 40
0.5015483063
 40
0.5383357156
 40
0.5756951801
 40
0.6135438541
 40
0.6903688654
 40
0.7681254679
 40
0.8461157008
 40
0.9236385661
 40
1.0
 40
1.0
 40
1.0
 40
1.0
 10
11.9032742547
 20
9.4944551839
 30
0.0
 10
11.9025296638
 20
9.4937359642
 30
0.0
 10
11.9009699768
 20
9.4923031489
 30
0.0
 10
11.8984824282
 20
9.4902155343
 30
0.0
 10
11.8957979329
 20
9.4881444521
 30
0.0
 10
11.8929182344
 20
9.4860912921
 30
0.0
 10
11.8898450554
 20
9.484057151
 30
0.0
 10
11.8865801475
 20
9.4820432264
 30
0.0
 10
11.8831254364
 20
9.4800506503
 30
0.0
 10
11.879482981
 20
9.4780805962
 30
0.0
 10
11.8756549261
 20
9.4761342724
 30
0.0
 10
11.870214695
 20
9.4735284522
 30
0.0
 10
11.8629584543
 20
9.4703479336
 30
0.0
 10
11.8536905661
 20
9.4667053478
 30
0.0
 10
11.8437433785
 20
9.4631841051
 30
0.0
 10
11.8331406563
 20
9.459792711
 30
0.0
 10
11.8219075989
 20
9.4565393553
 30
0.0
 10
11.810071058
 20
9.4534319227
 30
0.0
 10
11.7976593576
 20
9.4504779561
 30
0.0
 10
11.7847022518
 20
9.4476846361
 30
0.0
 10
11.7712308464
 20
9.4450587305
 30
0.0
 10
11.7572775068
 20
9.4426066089
 30
0.0
 10
11.7428757685
 20
9.4403342239
 30
0.0
 10
11.7280602613
 20
9.4382470969
 30
0.0
 10
11.7128666299
 20
9.4363502782
 30
0.0
 10
11.6973314346
 20
9.434648361
 30
0.0
 10
11.6814920694
 20
9.4331454797
 30
0.0
 10
11.6653866278
 20
9.4318452592
 30
0.0
 10
11.6435017133
 20
9.430378923
 30
0.0
 10
11.6157672659
 20
9.4290789245
 30
0.0
 10
11.5822187139
 20
9.4283701379
 30
0.0
 10
11.54856212
 20
9.4285120433
 30
0.0
 10
11.5151214251
 20
9.4295032213
 30
0.0
 10
11.4929521405
 20
9.4307366785
 30
0.0
 10
11.4819620728
 20
9.4314988423
 30
0.0
  0
SPLINE
  5
370
100
AcDbEntity
  8
0
100
AcDbSpline
 62
7
  6
CONTINUOUS
 70
0
 71
3
 72
40
 73
36
 74
0
 42
0.0000001
 43
0.0000001
 44
0.0000000001
 40
0.0
 40
0.0
 40
0.0
 40
0.0
 40
0.0071757996
 40
0.0146741187
 40
0.022503598
 40
0.0306714055
 40
0.0391834843
 40
0.0480444471
 40
0.0572573092
 40
0.0668239668
 40
0.0767453474
 40
0.087021406
 40
0.0976514315
 40
0.1086338464
 40
0.1316455029
 40
0.1560328777
 40
0.1817630977
 40
0.2087962065
 40
0.2370860329
 40
0.2665809568
 40
0.2972245239
 40
0.3289559428
 40
0.3617104926
 40
0.3954198975
 40
0.4300127148
 40
0.4654146563
 40
0.5015488811
 40
0.5383362596
 40
0.575695673
 40
0.6135442961
 40
0.6903692276
 40
0.7681257327
 40
0.8461158642
 40
0.9236387286
 40
1.0
 40
1.0
 40
1.0
 40
1.0
 10
11.9332179571
 20
9.4624348787
 30
0.0
 10
11.9324062593
 20
9.4616508387
 30
0.0
 10
11.9307060136
 20
9.4600888951
 30
0.0
 10
11.9279942966
 20
9.457813149
 30
0.0
 10
11.9250678901
 20
9.4555554456
 30
0.0
 10
11.9219286972
 20
9.4533172682
 30
0.0
 10
11.9185785758
 20
9.4510998185
 30
0.0
 10
11.9150194402
 20
9.4489044068
 30
0.0
 10
11.9112534048
 20
9.4467322539
 30
0.0
 10
11.9072826989
 20
9.4445846731
 30
0.0
 10
11.9031096812
 20
9.4424629696
 30
0.0
 10
11.8987368579
 20
9.4403683601
 30
0.0
 10
11.8941668079
 20
9.438302126
 30
0.0
 10
11.8877132731
 20
9.43554359
 30
0.0
 10
11.8791658644
 20
9.4321843318
 30
0.0
 10
11.8683224073
 20
9.4283457722
 30
0.0
 10
11.8567641757
 20
9.4246487478
 30
0.0
 10
11.8445188489
 20
9.4211022124
 30
0.0
 10
11.831615633
 20
9.4177147555
 30
0.0
 10
11.8180854348
 20
9.414494593
 30
0.0
 10
11.8039606887
 20
9.4114495407
 30
0.0
 10
11.7892752935
 20
9.4085869942
 30
0.0
 10
11.7740645259
 20
9.4059139033
 30
0.0
 10
11.7583649528
 20
9.4034367455
 30
0.0
 10
11.7422143307
 20
9.4011615279
 30
0.0
 10
11.7256515093
 20
9.3990937688
 30
0.0
 10
11.7087163379
 20
9.3972384854
 30
0.0
 10
11.6914495849
 20
9.3956001776
 30
0.0
 10
11.6738927817
 20
9.3941827819
 30
0.0
 10
11.6500356815
 20
9.3925842966
 30
0.0
 10
11.6198019091
 20
9.3911671612
 30
0.0
 10
11.5832300881
 20
9.3903944893
 30
0.0
 10
11.546540476
 20
9.3905491896
 30
0.0
 10
11.5100862296
 20
9.3916296869
 30
0.0
 10
11.4859191291
 20
9.3929742995
 30
0.0
 10
11.473938689
 20
9.3938051458
 30
0.0
  0
SPLINE
  5
371
100
AcDbEntity
  8
0
100
AcDbSpline
 62
7
  6
CONTINUOUS
 70
0
 71
3
 72
40
 73
36
 74
0
 42
0.0000001
 43
0.0000001
 44
0.0000000001
 40
0.0
 40
0.0
 40
0.0
 40
0.0
 40
0.0311448352
 40
0.0467776712
 40
0.0624478163
 40
0.0938928931
 40
0.1254753683
 40
0.1571831038
 40
0.1890013145
 40
0.2209130644
 40
0.2528995674
 40
0.2849405815
 40
0.3170148072
 40
0.349100303
 40
0.3811749104
 40
0.4132166804
 40
0.4452042987
 40
0.4771175008
 40
0.5089374741
 40
0.5406472387
 40
0.5722320012
 40
0.6036794751
 40
0.6349801612
 40
0.6661275796
 40
0.6971184487
 40
0.7279528012
 40
0.7586340346
 40
0.7891688873
 40
0.8195673392
 40
0.849842433
 40
0.8800100174
 40
0.9100884154
 40
0.9400980228
 40
0.9700608475
 40
1.0
 40
1.0
 40
1.0
 40
1.0
 10
11.0596629972
 20
5.5969198847
 30
0.0
 10
11.0544974584
 20
5.597278116
 30
0.0
 10
11.046755011
 20
5.5980995406
 30
0.0
 10
11.0365033129
 20
5.5997502719
 30
0.0
 10
11.0262678949
 20
5.6017768672
 30
0.0
 10
11.0135761308
 20
5.6050043932
 30
0.0
 10
10.9986120506
 20
5.6099584013
 30
0.0
 10
10.9839739956
 20
5.6159717125
 30
0.0
 10
10.9697404492
 20
5.6230120874
 30
0.0
 10
10.9559871274
 20
5.6310419191
 30
0.0
 10
10.9427873447
 20
5.6400183305
 30
0.0
 10
10.9302114212
 20
5.6498934247
 30
0.0
 10
10.9183263684
 20
5.6606145342
 30
0.0
 10
10.9071955212
 20
5.6721244999
 30
0.0
 10
10.8968782079
 20
5.6843619734
 30
0.0
 10
10.887429436
 20
5.6972617404
 30
0.0
 10
10.8788996018
 20
5.7107550646
 30
0.0
 10
10.871334224
 20
5.7247700501
 30
0.0
 10
10.8647737012
 20
5.7392320193
 30
0.0
 10
10.8592530977
 20
5.7540639068
 30
0.0
 10
10.8548019572
 20
5.7691866647
 30
0.0
 10
10.8514441438
 20
5.7845196781
 30
0.0
 10
10.8491977122
 20
5.7999811896
 30
0.0
 10
10.8480748078
 20
5.8154887285
 30
0.0
 10
10.8480815965
 20
5.8309595463
 30
0.0
 10
10.8492182246
 20
5.8463110525
 30
0.0
 10
10.8514788102
 20
5.8614612528
 30
0.0
 10
10.8548514642
 20
5.8763291846
 30
0.0
 10
10.8593183452
 20
5.8908353518
 30
0.0
 10
10.8648557374
 20
5.9049021457
 30
0.0
 10
10.8714341944
 20
5.9184542926
 30
0.0
 10
10.8790185883
 20
5.9314191659
 30
0.0
 10
10.887568662
 20
5.9437275513
 30
0.0
 10
10.8970378618
 20
5.9553126708
 30
0.0
 10
10.903932681
 20
5.962515582
 30
0.0
 10
10.9075127587
 20
5.9659736903
 30
0.0
  0
SPLINE
  5
372
100
AcDbEntity
  8
0
100
AcDbSpline
 62
7
  6
CONTINUOUS
 70
0
 71
3
 72
23
 73
19
 74
0
 42
0.0000001
 43
0.0000001
 44
0.0000000001
 40
0.0
 40
0.0
 40
0.0
 40
0.0
 40
0.0701506786
 40
0.1374043996
 40
0.2020597049
 40
0.2644578918
 40
0.3249834656
 40
0.384063531
 40
0.4421606383
 40
0.4997636153
 40
0.5573749718
 40
0.6154970469
 40
0.6746178474
 40
0.7351989803
 40
0.7976658418
 40
0.8624026217
 40
0.929748654
 40
1.0
 40
1.0
 40
1.0
 40
1.0
 10
10.2541415558
 20
9.7503897461
 30
0.0
 10
10.2532459763
 20
9.7492491258
 30
0.0
 10
10.2515594278
 20
9.7469605805
 30
0.0
 10
10.2493140785
 20
9.7434342778
 30
0.0
 10
10.2474110008
 20
9.7398923383
 30
0.0
 10
10.2458519172
 20
9.7363370105
 30
0.0
 10
10.2446385531
 20
9.7327704161
 30
0.0
 10
10.2437722692
 20
9.7291950707
 30
0.0
 10
10.2432543269
 20
9.7256136711
 30
0.0
 10
10.243085444
 20
9.7220292053
 30
0.0
 10
10.2432659163
 20
9.7184447884
 30
0.0
 10
10.2437954713
 20
9.714863548
 30
0.0
 10
10.2446732641
 20
9.7112884399
 30
0.0
 10
10.2458981807
 20
9.7077222057
 30
0.0
 10
10.2474686507
 20
9.7041672596
 30
0.0
 10
10.2493831949
 20
9.700625822
 30
0.0
 10
10.2516398579
 20
9.6971000288
 30
0.0
 10
10.2533337425
 20
9.694811954
 30
0.0
 10
10.254232974
 20
9.6936715592
 30
0.0
  0
SPLINE
  5
373
100
AcDbEntity
  8
0
100
AcDbSpline
 62
7
  6
CONTINUOUS
 70
0
 71
3
 72
17
 73
13
 74
0
 42
0.0000001
 43
0.0000001
 44
0.0000000001
 40
0.0
 40
0.0
 40
0.0
 40
0.0
 40
0.0548654278
 40
0.1099348511
 40
0.2214348476
 40
0.336099037
 40
0.4553350807
 40
0.5170795749
 40
0.5804144754
 40
0.7123166389
 40
0.8519515296
 40
1.0
 40
1.0
 40
1.0
 40
1.0
 10
12.3745997247
 20
8.633293825
 30
0.0
 10
12.374599722
 20
8.6327642261
 30
0.0
 10
12.3745660925
 20
8.6317027206
 30
0.0
 10
12.3743638373
 20
8.6295737466
 30
0.0
 10
12.373852748
 20
8.6268999511
 30
0.0
 10
12.3728372372
 20
8.6237168237
 30
0.0
 10
12.371669561
 20
8.6211064421
 30
0.0
 10
12.3705459806
 20
8.6190321533
 30
0.0
 10
12.3692594315
 20
8.6169102715
 30
0.0
 10
12.3673913396
 20
8.6142667031
 30
0.0
 10
12.3647868785
 20
8.6111601147
 30
0.0
 10
12.3628498042
 20
8.6091667326
 30
0.0
 10
12.3618219421
 20
8.608173894
 30
0.0
  0
SPLINE
  5
374
100
AcDbEntity
  8
0
100
AcDbSpline
 62
7
  6
CONTINUOUS
 70
0
 71
3
 72
17
 73
13
 74
0
 42
0.0000001
 43
0.0000001
 44
0.0000000001
 40
0.0
 40
0.0
 40
0.0
 40
0.0
 40
0.0548654642
 40
0.1099349219
 40
0.2214349039
 40
0.3360992195
 40
0.4553348124
 40
0.517079118
 40
0.5804139608
 40
0.7123167483
 40
0.8519524535
 40
1.0
 40
1.0
 40
1.0
 40
1.0
 10
12.3745997305
 20
9.9015547569
 30
0.0
 10
12.3745997346
 20
9.9010251529
 30
0.0
 10
12.3745661075
 20
9.8999636366
 30
0.0
 10
12.3743638609
 20
9.8978346424
 30
0.0
 10
12.3738528128
 20
9.8951608115
 30
0.0
 10
12.3728372854
 20
9.8919776606
 30
0.0
 10
12.3716696369
 20
9.8893672442
 30
0.0
 10
12.370546049
 20
9.8872929423
 30
0.0
 10
12.3692594955
 20
9.8851710328
 30
0.0
 10
12.3673913841
 20
9.8825274252
 30
0.0
 10
12.3647868933
 20
9.8794208072
 30
0.0
 10
12.3628498071
 20
9.877427403
 30
0.0
 10
12.3618219421
 20
9.8764345616
 30
0.0
  0
SPLINE
  5
375
100
AcDbEntity
  8
0
100
AcDbSpline
 62
7
  6
CONTINUOUS
 70
0
 71
3
 72
23
 73
19
 74
0
 42
0.0000001
 43
0.0000001
 44
0.0000000001
 40
0.0
 40
0.0
 40
0.0
 40
0.0
 40
0.0749618611
 40
0.1455678041
 40
0.2121589218
 40
0.2751620139
 40
0.3350968437
 40
0.3925819213
 40
0.4483281136
 40
0.5031224735
 40
0.5577971527
 40
0.6131904492
 40
0.6701060365
 40
0.7292779135
 40
0.7913516063
 40
0.8568774527
 40
0.9263095509
 40
1.0
 40
1.0
 40
1.0
 40
1.0
 10
12.3310211004
 20
9.9553545876
 30
0.0
 10
12.3320144248
 20
9.9544301876
 30
0.0
 10
12.3338882481
 20
9.9525742769
 30
0.0
 10
12.3364166812
 20
9.9496788708
 30
0.0
 10
12.3385726974
 20
9.9467604669
 30
0.0
 10
12.3403532291
 20
9.9438217203
 30
0.0
 10
12.3417551501
 20
9.940865125
 30
0.0
 10
12.3427754794
 20
9.9378937925
 30
0.0
 10
12.3434111696
 20
9.9349114805
 30
0.0
 10
12.3436601442
 20
9.9319229566
 30
0.0
 10
12.3435212515
 20
9.928933635
 30
0.0
 10
12.3429952119
 20
9.9259490317
 30
0.0
 10
12.3420837845
 20
9.9229741637
 30
0.0
 10
12.3407899436
 20
9.9200130517
 30
0.0
 10
12.3391166108
 20
9.9170689673
 30
0.0
 10
12.3370668646
 20
9.9141444578
 30
0.0
 10
12.3346438477
 20
9.9112423413
 30
0.0
 10
12.3328376513
 20
9.9093815873
 30
0.0
 10
12.3318782397
 20
9.9084548668
 30
0.0
  0
SPLINE
  5
376
100
AcDbEntity
  8
0
100
AcDbSpline
 62
7
  6
CONTINUOUS
 70
0
 71
3
 72
11
 73
7
 74
0
 42
0.0000001
 43
0.0000001
 44
0.0000000001
 40
0.0
 40
0.0
 40
0.0
 40
0.0
 40
0.2550179138
 40
0.5057619463
 40
0.7536114508
 40
1.0
 40
1.0
 40
1.0
 40
1.0
 10
10.2540703532
 20
9.7124656714
 30
0.0
 10
10.2537658122
 20
9.7115151655
 30
0.0
 10
10.2532297597
 20
9.7096074238
 30
0.0
 10
10.2526492171
 20
9.7067126983
 30
0.0
 10
10.2523007009
 20
9.7038149137
 30
0.0
 10
10.252223148
 20
9.7018796665
 30
0.0
 10
10.2522231429
 20
9.7009153389
 30
0.0
  0
SPLINE
  5
377
100
AcDbEntity
  8
0
100
AcDbSpline
 62
7
  6
CONTINUOUS
 70
0
 71
3
 72
15
 73
11
 74
0
 42
0.0000001
 43
0.0000001
 44
0.0000000001
 40
0.0
 40
0.0
 40
0.0
 40
0.0
 40
0.1234394207
 40
0.2470466243
 40
0.3709825609
 40
0.4953948819
 40
0.6204121401
 40
0.7461393761
 40
0.872651685
 40
1.0
 40
1.0
 40
1.0
 40
1.0
 10
11.4620165465
 20
7.793294414
 30
0.0
 10
11.4589997851
 20
7.7903804409
 30
0.0
 10
11.4532582022
 20
7.7842328492
 30
0.0
 10
11.4456327451
 20
7.7741689755
 30
0.0
 10
11.4390579742
 20
7.7633492176
 30
0.0
 10
11.4335957112
 20
7.7518749463
 30
0.0
 10
11.4292957791
 20
7.739852107
 30
0.0
 10
11.4261976007
 20
7.7273915837
 30
0.0
 10
11.4243291688
 20
7.714609906
 30
0.0
 10
11.4239160153
 20
7.7059781082
 30
0.0
 10
11.4239160153
 20
7.7016509972
 30
0.0
  0
SPLINE
  5
378
100
AcDbEntity
  8
0
100
AcDbSpline
 62
7
  6
CONTINUOUS
 70
0
 71
3
 72
15
 73
11
 74
0
 42
0.0000001
 43
0.0000001
 44
0.0000000001
 40
0.0
 40
0.0
 40
0.0
 40
0.0
 40
0.1234394207
 40
0.2470466243
 40
0.3709825609
 40
0.4953948819
 40
0.6204121401
 40
0.7461393761
 40
0.872651685
 40
1.0
 40
1.0
 40
1.0
 40
1.0
 10
9.7117589545
 20
7.9146751903
 30
0.0
 10
9.708742193
 20
7.9117612172
 30
0.0
 10
9.7030006102
 20
7.9056136255
 30
0.0
 10
9.695375153
 20
7.8955497518
 30
0.0
 10
9.6888003821
 20
7.8847299938
 30
0.0
 10
9.6833381192
 20
7.8732557226
 30
0.0
 10
9.6790381871
 20
7.8612328833
 30
0.0
 10
9.6759400087
 20
7.84877236
 30
0.0
 10
9.6740715768
 20
7.8359906823
 30
0.0
 10
9.6736584233
 20
7.8273588845
 30
0.0
 10
9.6736584233
 20
7.8230317735
 30
0.0
  0
SPLINE
  5
379
100
AcDbEntity
  8
0
100
AcDbSpline
 62
7
  6
CONTINUOUS
 70
0
 71
3
 72
23
 73
19
 74
0
 42
0.0000001
 43
0.0000001
 44
0.0000000001
 40
0.0
 40
0.0
 40
0.0
 40
0.0
 40
0.0620085398
 40
0.1242143495
 40
0.1866014968
 40
0.2491478133
 40
0.3118257137
 40
0.37460317
 40
0.4374448165
 40
0.5003131435
 40
0.5631697478
 40
0.6259766172
 40
0.6886974045
 40
0.7512986424
 40
0.8137508867
 40
0.8760297462
 40
0.9381167419
 40
1.0
 40
1.0
 40
1.0
 40
1.0
 10
10.2249424917
 20
6.901175142
 30
0.0
 10
10.2190283427
 20
6.8979071735
 30
0.0
 10
10.2068673821
 20
6.8919115963
 30
0.0
 10
10.1878492264
 20
6.884638987
 30
0.0
 10
10.1681843641
 20
6.8791319142
 30
0.0
 10
10.1480478899
 20
6.8754397395
 30
0.0
 10
10.1276164068
 20
6.8735944454
 30
0.0
 10
10.1070697576
 20
6.8736121073
 30
0.0
 10
10.0865885664
 20
6.8754924983
 30
0.0
 10
10.0663529212
 20
6.8792190128
 30
0.0
 10
10.0465407161
 20
6.8847588263
 30
0.0
 10
10.0273261742
 20
6.8920633499
 30
0.0
 10
10.0088782753
 20
6.9010683956
 30
0.0
 10
9.9913592632
 20
6.9116949242
 30
0.0
 10
9.9749234576
 20
6.9238495681
 30
0.0
 10
9.9597151845
 20
6.9374260616
 30
0.0
 10
9.9458697837
 20
6.9523032361
 30
0.0
 10
9.9376124018
 20
6.963024002
 30
0.0
 10
9.9337528963
 20
6.9685536213
 30
0.0
  0
SPLINE
  5
37A
100
AcDbEntity
  8
0
100
AcDbSpline
 62
7
  6
CONTINUOUS
 70
0
 71
3
 72
15
 73
11
 74
0
 42
0.0000001
 43
0.0000001
 44
0.0000000001
 40
0.0
 40
0.0
 40
0.0
 40
0.0
 40
0.1234394207
 40
0.2470466243
 40
0.3709825609
 40
0.4953948819
 40
0.6204121401
 40
0.7461393761
 40
0.872651685
 40
1.0
 40
1.0
 40
1.0
 40
1.0
 10
11.4620165465
 20
5.7416677962
 30
0.0
 10
11.4589997851
 20
5.7387538231
 30
0.0
 10
11.4532582022
 20
5.7326062314
 30
0.0
 10
11.4456327451
 20
5.7225423577
 30
0.0
 10
11.4390579742
 20
5.7117225997
 30
0.0
 10
11.4335957112
 20
5.7002483285
 30
0.0
 10
11.4292957791
 20
5.6882254892
 30
0.0
 10
11.4261976007
 20
5.6757649659
 30
0.0
 10
11.4243291688
 20
5.6629832882
 30
0.0
 10
11.4239160153
 20
5.6543514904
 30
0.0
 10
11.4239160153
 20
5.6500243794
 30
0.0
  0
SPLINE
  5
37B
100
AcDbEntity
  8
0
100
AcDbSpline
 62
7
  6
CONTINUOUS
 70
0
 71
3
 72
54
 73
50
 74
0
 42
0.0000001
 43
0.0000001
 44
0.0000000001
 40
0.0
 40
0.0
 40
0.0
 40
0.0
 40
0.0527847386
 40
0.1048061926
 40
0.1559445043
 40
0.2060905059
 40
0.2551340377
 40
0.3029694515
 40
0.3494950042
 40
0.3946130788
 40
0.4382309075
 40
0.4802610986
 40
0.5206221614
 40
0.5592391363
 40
0.5960444043
 40
0.6309787598
 40
0.6639924918
 40
0.6950468398
 40
0.7098314536
 40
0.7241178442
 40
0.7379052084
 40
0.7511939297
 40
0.7639858682
 40
0.7762841453
 40
0.7880937132
 40
0.7994214014
 40
0.8102760294
 40
0.8206690739
 40
0.8306146272
 40
0.8401299339
 40
0.8492359273
 40
0.8579573481
 40
0.8663234795
 40
0.8743683741
 40
0.8821310353
 40
0.8896557105
 40
0.896991458
 40
0.9041916857
 40
0.9113132126
 40
0.9184149028
 40
0.9255561886
 40
0.9327954247
 40
0.9401884521
 40
0.9477872372
 40
0.9637757722
 40
0.9722568491
 40
0.981103958
 40
0.9903442314
 40
1.0
 40
1.0
 40
1.0
 40
1.0
 10
9.9123325121
 20
9.5403530221
 30
0.0
 10
9.9069309794
 20
9.5407276196
 30
0.0
 10
9.8962108727
 20
9.5415435676
 30
0.0
 10
9.8802785826
 20
9.5429792466
 30
0.0
 10
9.864637685
 20
9.544615276
 30
0.0
 10
9.8493261436
 20
9.5464475961
 30
0.0
 10
9.834380574
 20
9.5484718354
 30
0.0
 10
9.8198370105
 20
9.5506830589
 30
0.0
 10
9.8057304161
 20
9.5530758995
 30
0.0
 10
9.7920947035
 20
9.5556445595
 30
0.0
 10
9.7789626453
 20
9.5583828151
 30
0.0
 10
9.7663657653
 20
9.5612840106
 30
0.0
 10
9.754334274
 20
9.5643411005
 30
0.0
 10
9.7428969897
 20
9.5675466689
 30
0.0
 10
9.7320812747
 20
9.5708929548
 30
0.0
 10
9.7219128564
 20
9.5743718454
 30
0.0
 10
9.7124160478
 20
9.5779749343
 30
0.0
 10
9.7049628632
 20
9.5811232536
 30
0.0
 10
9.6993610926
 20
9.5837046206
 30
0.0
 10
9.6954105823
 20
9.5856344966
 30
0.0
 10
9.6916441484
 20
9.5875888395
 30
0.0
 10
9.6880640395
 20
9.5895665368
 30
0.0
 10
9.6846723575
 20
9.5915663568
 30
0.0
 10
9.6814711358
 20
9.5935871763
 30
0.0
 10
9.6784622585
 20
9.5956277935
 30
0.0
 10
9.6756474825
 20
9.5976870009
 30
0.0
 10
9.6730285079
 20
9.5997636814
 30
0.0
 10
9.6706068414
 20
9.6018566054
 30
0.0
 10
9.6683839313
 20
9.6039646355
 30
0.0
 10
9.6663611422
 20
9.6060866527
 30
0.0
 10
9.6645396583
 20
9.6082214667
 30
0.0
 10
9.6629207007
 20
9.6103680146
 30
0.0
 10
9.6615053475
 20
9.6125251527
 30
0.0
 10
9.6602946035
 20
9.6146917245
 30
0.0
 10
9.6592895581
 20
9.6168665953
 30
0.0
 10
9.65849107
 20
9.6190484495
 30
0.0
 10
9.657900034
 20
9.6212359195
 30
0.0
 10
9.6575172274
 20
9.623427469
 30
0.0
 10
9.6573430656
 20
9.6256213998
 30
0.0
 10
9.6573779056
 20
9.6278159386
 30
0.0
 10
9.6576216576
 20
9.630009273
 30
0.0
 10
9.6580739158
 20
9.6321996318
 30
0.0
 10
9.658734266
 20
9.6343854688
 30
0.0
 10
9.6599103935
 20
9.6373410885
 30
0.0
 10
9.661498269
 20
9.6402388003
 30
0.0
 10
9.6634376582
 20
9.6430544543
 30
0.0
 10
9.6651244609
 20
9.6451974968
 30
0.0
 10
9.667013117
 20
9.6473280701
 30
0.0
 10
9.6683752926
 20
9.6487084293
 30
0.0
 10
9.6690876862
 20
9.6493965487
 30
0.0
  0
SPLINE
  5
37C
100
AcDbEntity
  8
0
100
AcDbSpline
 62
7
  6
CONTINUOUS
 70
0
 71
3
 72
15
 73
11
 74
0
 42
0.0000001
 43
0.0000001
 44
0.0000000001
 40
0.0
 40
0.0
 40
0.0
 40
0.0
 40
0.1234394207
 40
0.2470466243
 40
0.3709825609
 40
0.4953948819
 40
0.6204121401
 40
0.7461393761
 40
0.872651685
 40
1.0
 40
1.0
 40
1.0
 40
1.0
 10
9.7117589545
 20
5.8630485725
 30
0.0
 10
9.708742193
 20
5.8601345994
 30
0.0
 10
9.7030006102
 20
5.8539870077
 30
0.0
 10
9.695375153
 20
5.8439231339
 30
0.0
 10
9.6888003821
 20
5.833103376
 30
0.0
 10
9.6833381192
 20
5.8216291048
 30
0.0
 10
9.6790381871
 20
5.8096062655
 30
0.0
 10
9.6759400087
 20
5.7971457421
 30
0.0
 10
9.6740715768
 20
5.7843640644
 30
0.0
 10
9.6736584233
 20
5.7757322666
 30
0.0
 10
9.6736584233
 20
5.7714051557
 30
0.0
  0
SPLINE
  5
37D
100
AcDbEntity
  8
0
100
AcDbSpline
 62
7
  6
CONTINUOUS
 70
0
 71
3
 72
39
 73
35
 74
0
 42
0.0000001
 43
0.0000001
 44
0.0000000001
 40
0.0
 40
0.0
 40
0.0
 40
0.0
 40
0.095831508
 40
0.1891003626
 40
0.2792401393
 40
0.322966854
 40
0.3657106043
 40
0.4074088094
 40
0.4480014003
 40
0.4874310569
 40
0.5256432279
 40
0.5625865995
 40
0.5982133935
 40
0.6324794928
 40
0.6653451047
 40
0.6967751404
 40
0.7267396127
 40
0.7552146497
 40
0.7821831777
 40
0.8076359328
 40
0.8315732026
 40
0.8540063928
 40
0.8749604139
 40
0.8944770491
 40
0.9126186046
 40
0.9294729087
 40
0.9451592017
 40
0.9598337631
 40
0.9668558019
 40
0.9737028514
 40
0.9804062781
 40
0.9869996942
 40
0.9935186393
 40
1.0
 40
1.0
 40
1.0
 40
1.0
 10
9.9043091283
 20
9.5026593256
 30
0.0
 10
9.894541853
 20
9.5033366884
 30
0.0
 10
9.8752825502
 20
9.5048881143
 30
0.0
 10
9.8469052026
 20
9.5078496208
 30
0.0
 10
9.8238897133
 20
9.5108364136
 30
0.0
 10
9.8060470639
 20
9.5135250522
 30
0.0
 10
9.7931272172
 20
9.5156594932
 30
0.0
 10
9.7805555793
 20
9.5179286497
 30
0.0
 10
9.7683531318
 20
9.5203287407
 30
0.0
 10
9.7565402497
 20
9.5228556977
 30
0.0
 10
9.7451366502
 20
9.5255052958
 30
0.0
 10
9.7341613535
 20
9.5282730775
 30
0.0
 10
9.7236326456
 20
9.5311543651
 30
0.0
 10
9.7135680606
 20
9.5341443443
 30
0.0
 10
9.7039843279
 20
9.5372379819
 30
0.0
 10
9.6948973435
 20
9.5404300674
 30
0.0
 10
9.6863221576
 20
9.5437152917
 30
0.0
 10
9.6782729076
 20
9.547088152
 30
0.0
 10
9.6707628025
 20
9.5505430379
 30
0.0
 10
9.6638041142
 20
9.5540743075
 30
0.0
 10
9.6574080943
 20
9.5576761999
 30
0.0
 10
9.6515849908
 20
9.5613429975
 30
0.0
 10
9.6463440701
 20
9.5650691107
 30
0.0
 10
9.6416935554
 20
9.5688490852
 30
0.0
 10
9.6376408463
 20
9.572677765
 30
0.0
 10
9.6341926391
 20
9.5765507057
 30
0.0
 10
9.6313555955
 20
9.5804629459
 30
0.0
 10
9.629479036
 20
9.5838018038
 30
0.0
 10
9.6283092677
 20
9.5864752521
 30
0.0
 10
9.6276010337
 20
9.5884560585
 30
0.0
 10
9.6270496273
 20
9.5904407612
 30
0.0
 10
9.626655468
 20
9.5924285618
 30
0.0
 10
9.6264188613
 20
9.5944182955
 30
0.0
 10
9.6263662006
 20
9.5957470782
 30
0.0
 10
9.6263661954
 20
9.5964092538
 30
0.0
  0
SPLINE
  5
37E
100
AcDbEntity
  8
0
100
AcDbSpline
 62
7
  6
CONTINUOUS
 70
0
 71
3
 72
25
 73
21
 74
0
 42
0.0000001
 43
0.0000001
 44
0.0000000001
 40
0.0
 40
0.0
 40
0.0
 40
0.0
 40
0.0318506689
 40
0.0634016224
 40
0.0946666111
 40
0.1256706557
 40
0.1870076472
 40
0.2477125496
 40
0.3080802646
 40
0.3683812462
 40
0.4288463623
 40
0.4896642066
 40
0.5509836591
 40
0.6129174122
 40
0.6755464411
 40
0.7389233676
 40
0.8030734413
 40
0.8679946943
 40
0.9336570189
 40
1.0
 40
1.0
 40
1.0
 40
1.0
 10
10.7288793125
 20
6.5224395136
 30
0.0
 10
10.7291017919
 20
6.5205502332
 30
0.0
 10
10.7296344924
 20
6.5167993974
 30
0.0
 10
10.7306941928
 20
6.5112434725
 30
0.0
 10
10.7319995664
 20
6.5057919498
 30
0.0
 10
10.7340424696
 20
6.4986954993
 30
0.0
 10
10.7371455825
 20
6.4900846563
 30
0.0
 10
10.7416600768
 20
6.4801578154
 30
0.0
 10
10.7468613899
 20
6.4706451996
 30
0.0
 10
10.7526750625
 20
6.4615130135
 30
0.0
 10
10.7590427655
 20
6.452726436
 30
0.0
 10
10.7659192823
 20
6.4442548559
 30
0.0
 10
10.7732696273
 20
6.4360736311
 30
0.0
 10
10.78106614
 20
6.4281645665
 30
0.0
 10
10.7892860397
 20
6.4205155535
 30
0.0
 10
10.7979097734
 20
6.4131203786
 30
0.0
 10
10.8069194377
 20
6.4059784393
 30
0.0
 10
10.8162972223
 20
6.3990941868
 30
0.0
 10
10.8260238811
 20
6.3924770544
 30
0.0
 10
10.8326956368
 20
6.3882724723
 30
0.0
 10
10.8360837617
 20
6.3862178219
 30
0.0
  0
SPLINE
  5
37F
100
AcDbEntity
  8
0
100
AcDbSpline
 62
7
  6
CONTINUOUS
 70
0
 71
3
 72
43
 73
39
 74
0
 42
0.0000001
 43
0.0000001
 44
0.0000000001
 40
0.0
 40
0.0
 40
0.0
 40
0.0
 40
0.0311049543
 40
0.0467162265
 40
0.0623636438
 40
0.093760765
 40
0.1252922406
 40
0.1569467941
 40
0.1887107605
 40
0.2205684369
 40
0.2525023705
 40
0.2844937019
 40
0.3165225173
 40
0.3485682179
 40
0.3806098969
 40
0.4126267208
 40
0.4445983098
 40
0.4765051121
 40
0.5083287677
 40
0.5400524567
 40
0.5716612263
 40
0.603142291
 40
0.6344853014
 40
0.6656825738
 40
0.6967292771
 40
0.7276235682
 40
0.7583666735
 40
0.7889629086
 40
0.8194196346
 40
0.8497471461
 40
0.8648690453
 40
0.8799637479
 40
0.9100744814
 40
0.9401023523
 40
0.9550939611
 40
0.970072321
 40
0.9850400938
 40
1.0
 40
1.0
 40
1.0
 40
1.0
 10
11.0790744093
 20
5.6156698701
 30
0.0
 10
11.0740522268
 20
5.6160181597
 30
0.0
 10
11.0665245656
 20
5.6168090951
 30
0.0
 10
11.0565541642
 20
5.6183890662
 30
0.0
 10
11.0465980245
 20
5.6203245029
 30
0.0
 10
11.0342470732
 20
5.6234006853
 30
0.0
 10
11.0196710886
 20
5.628115953
 30
0.0
 10
11.0053950103
 20
5.6338357257
 30
0.0
 10
10.9914912141
 20
5.6405309987
 30
0.0
 10
10.9780296327
 20
5.6481679622
 30
0.0
 10
10.9650781158
 20
5.6567080571
 30
0.0
 10
10.9527019014
 20
5.6661081965
 30
0.0
 10
10.9409633424
 20
5.6763209753
 30
0.0
 10
10.9299215817
 20
5.6872949091
 30
0.0
 10
10.9196322614
 20
5.6989746906
 30
0.0
 10
10.9101472433
 20
5.7113014666
 30
0.0
 10
10.9015143507
 20
5.7242131312
 30
0.0
 10
10.8937771292
 20
5.7376446358
 30
0.0
 10
10.886974628
 20
5.751528313
 30
0.0
 10
10.8811412047
 20
5.7657942139
 30
0.0
 10
10.8763063517
 20
5.7803704562
 30
0.0
 10
10.8724945472
 20
5.7951835819
 30
0.0
 10
10.8697251303
 20
5.8101589226
 30
0.0
 10
10.8680122011
 20
5.8252209719
 30
0.0
 10
10.8673645444
 20
5.8402937578
 30
0.0
 10
10.8677855868
 20
5.8553012364
 30
0.0
 10
10.8692733485
 20
5.8701676164
 30
0.0
 10
10.8718205379
 20
5.8848179464
 30
0.0
 10
10.8754142401
 20
5.8991777246
 30
0.0
 10
10.8792706211
 20
5.9108548236
 30
0.0
 10
10.8828583605
 20
5.9199753897
 30
0.0
 10
10.8867696819
 20
5.928923695
 30
0.0
 10
10.892269827
 20
5.9398005499
 30
0.0
 10
10.8985648461
 20
5.9502182983
 30
0.0
 10
10.9040516351
 20
5.9582324126
 30
0.0
 10
10.908386055
 20
5.9640750806
 30
0.0
 10
10.9129358282
 20
5.9697448223
 30
0.0
 10
10.9161097369
 20
5.9734055925
 30
0.0
 10
10.9177303385
 20
5.9752044645
 30
0.0
  0
SPLINE
  5
380
100
AcDbEntity
  8
0
100
AcDbSpline
 62
7
  6
CONTINUOUS
 70
0
 71
3
 72
21
 73
17
 74
0
 42
0.0000001
 43
0.0000001
 44
0.0000000001
 40
0.0
 40
0.0
 40
0.0
 40
0.0
 40
0.1273616153
 40
0.2539127614
 40
0.3169121053
 40
0.3797230557
 40
0.4423540601
 40
0.5048148695
 40
0.5671167205
 40
0.6292723404
 40
0.6912957975
 40
0.7532023713
 40
0.8150084064
 40
0.8767312042
 40
0.9383888447
 40
1.0
 40
1.0
 40
1.0
 40
1.0
 10
11.0790744093
 20
5.6156698701
 30
0.0
 10
11.0855537481
 20
5.6152205265
 30
0.0
 10
11.0985198079
 20
5.6149154607
 30
0.0
 10
11.1146665786
 20
5.6160391381
 30
0.0
 10
11.1274137807
 20
5.6178377032
 30
0.0
 10
11.1368587158
 20
5.6196298277
 30
0.0
 10
11.1461807456
 20
5.6218632809
 30
0.0
 10
11.1553602916
 20
5.6245332718
 30
0.0
 10
11.1643777641
 20
5.6276341602
 30
0.0
 10
11.1732139751
 20
5.6311594117
 30
0.0
 10
11.1818501458
 20
5.6351014738
 30
0.0
 10
11.1902678976
 20
5.6394520031
 30
0.0
 10
11.1984492772
 20
5.6442017792
 30
0.0
 10
11.2063769712
 20
5.6493406954
 30
0.0
 10
11.2140338642
 20
5.6548576579
 30
0.0
 10
11.2189489587
 20
5.6587814256
 30
0.0
 10
11.2213552469
 20
5.6608016625
 30
0.0
  0
SPLINE
  5
381
100
AcDbEntity
  8
0
100
AcDbSpline
 62
7
  6
CONTINUOUS
 70
0
 71
3
 72
41
 73
37
 74
0
 42
0.0000001
 43
0.0000001
 44
0.0000000001
 40
0.0
 40
0.0
 40
0.0
 40
0.0
 40
0.0310747715
 40
0.0623072746
 40
0.0936920171
 40
0.1252208437
 40
0.1568822229
 40
0.1886620173
 40
0.2205436063
 40
0.2525083193
 40
0.2845358056
 40
0.31660446
 40
0.3486918566
 40
0.3807751976
 40
0.4128317654
 40
0.4448393749
 40
0.4767768174
 40
0.5086242916
 40
0.5403638134
 40
0.5719795993
 40
0.603458415
 40
0.634789882
 40
0.6659667353
 40
0.6969850234
 40
0.7278442442
 40
0.7585474087
 40
0.7891010278
 40
0.8195150166
 40
0.8498025147
 40
0.8649066337
 40
0.8799853952
 40
0.9100708238
 40
0.940085481
 40
0.9550762297
 40
0.9700578762
 40
1.0
 40
1.0
 40
1.0
 40
1.0
 10
9.6736584233
 20
7.8230317735
 30
0.0
 10
9.6736584233
 20
7.81966854
 30
0.0
 10
9.6739093233
 20
7.8129224145
 30
0.0
 10
9.675029474
 20
7.8028355331
 30
0.0
 10
9.6768881438
 20
7.7928078617
 30
0.0
 10
9.6794749824
 20
7.7828952236
 30
0.0
 10
9.6827757145
 20
7.7731518287
 30
0.0
 10
9.6867721196
 20
7.7636312153
 30
0.0
 10
9.6914421959
 20
7.7543856153
 30
0.0
 10
9.696760249
 20
7.7454657653
 30
0.0
 10
9.7026970476
 20
7.7369206075
 30
0.0
 10
9.709219977
 20
7.7287970299
 30
0.0
 10
9.716293219
 20
7.7211396114
 30
0.0
 10
9.7238779464
 20
7.7139903795
 30
0.0
 10
9.7319325337
 20
7.7073885822
 30
0.0
 10
9.7404127835
 20
7.7013704746
 30
0.0
 10
9.7492721661
 20
7.6959691218
 30
0.0
 10
9.7584620718
 20
7.6912142181
 30
0.0
 10
9.7679320746
 20
7.6871319252
 30
0.0
 10
9.7776302044
 20
7.6837447289
 30
0.0
 10
9.7875032291
 20
7.6810713145
 30
0.0
 10
9.797496942
 20
7.6791264633
 30
0.0
 10
9.8075564561
 20
7.6779209688
 30
0.0
 10
9.8176264985
 20
7.6774615734
 30
0.0
 10
9.8276517216
 20
7.6777509306
 30
0.0
 10
9.8375769635
 20
7.6787875679
 30
0.0
 10
9.8473477026
 20
7.6805659529
 30
0.0
 10
9.8569097903
 20
7.6830762745
 30
0.0
 10
9.8646690267
 20
7.6857698116
 30
0.0
 10
9.870716966
 20
7.6882747643
 30
0.0
 10
9.8766425003
 20
7.6910051056
 30
0.0
 10
9.8838272161
 20
7.6948430827
 30
0.0
 10
9.8906788067
 20
7.699230773
 30
0.0
 10
9.8959297058
 20
7.7030517483
 30
0.0
 10
9.9010185787
 20
7.7070727751
 30
0.0
 10
9.9046522174
 20
7.7103135267
 30
0.0
 10
9.9069830653
 20
7.712564957
 30
0.0
  0
SPLINE
  5
382
100
AcDbEntity
  8
0
100
AcDbSpline
 62
7
  6
CONTINUOUS
 70
0
 71
3
 72
27
 73
23
 74
0
 42
0.0000001
 43
0.0000001
 44
0.0000000001
 40
0.0
 40
0.0
 40
0.0
 40
0.0
 40
0.0301046972
 40
0.0602776362
 40
0.0905238195
 40
0.1208477001
 40
0.1817287713
 40
0.2429589446
 40
0.2737164459
 40
0.3045651298
 40
0.3355049448
 40
0.3665351577
 40
0.4288470635
 40
0.4914962166
 40
0.5544547145
 40
0.6176861325
 40
0.6811466249
 40
0.7447861951
 40
0.8085500816
 40
0.8723802355
 40
0.9362168625
 40
1.0
 40
1.0
 40
1.0
 40
1.0
 10
10.2107276177
 20
6.896661655
 30
0.0
 10
10.2080230862
 20
6.8955891725
 30
0.0
 10
10.2025588447
 20
6.8935631806
 30
0.0
 10
10.1942257507
 20
6.8908903925
 30
0.0
 10
10.1857613029
 20
6.8885851591
 30
0.0
 10
10.174307883
 20
6.8860041531
 30
0.0
 10
10.159733954
 20
6.8837190314
 30
0.0
 10
10.1449752369
 20
6.8827076722
 30
0.0
 10
10.133100997
 20
6.8826604694
 30
0.0
 10
10.1241609692
 20
6.8830074036
 30
0.0
 10
10.1152175381
 20
6.8837362982
 30
0.0
 10
10.1032952035
 20
6.8852172659
 30
0.0
 10
10.0884628366
 20
6.888019292
 30
0.0
 10
10.0709394151
 20
6.8928660218
 30
0.0
 10
10.0537896528
 20
6.8991667498
 30
0.0
 10
10.0371389481
 20
6.9068753644
 30
0.0
 10
10.0211079445
 20
6.9159356525
 30
0.0
 10
10.0058130474
 20
6.9262816642
 30
0.0
 10
9.9913653243
 20
6.9378380702
 30
0.0
 10
9.9778694338
 20
6.9505212378
 30
0.0
 10
9.965424237
 20
6.964237748
 30
0.0
 10
9.9578804794
 20
6.9740148331
 30
0.0
 10
9.9543128724
 20
6.979041731
 30
0.0
  0
SPLINE
  5
383
100
AcDbEntity
  8
0
100
AcDbSpline
 62
7
  6
CONTINUOUS
 70
0
 71
3
 72
26
 73
22
 74
0
 42
0.0000001
 43
0.0000001
 44
0.0000000001
 40
0.0
 40
0.0
 40
0.0
 40
0.0
 40
0.0290079715
 40
0.0580767295
 40
0.0872222402
 40
0.1164598502
 40
0.1458041078
 40
0.1752687099
 40
0.2345933111
 40
0.2945378901
 40
0.3551716378
 40
0.4165430561
 40
0.4786792851
 40
0.5415861202
 40
0.6052486275
 40
0.6696322517
 40
0.734684338
 40
0.8003359753
 40
0.8665040701
 40
0.9330936009
 40
1.0
 40
1.0
 40
1.0
 40
1.0
 10
10.2106285901
 20
6.8969723949
 30
0.0
 10
10.2081853804
 20
6.8960927566
 30
0.0
 10
10.2032510014
 20
6.8944481285
 30
0.0
 10
10.1957319933
 20
6.8923333681
 30
0.0
 10
10.1881012002
 20
6.8905718559
 30
0.0
 10
10.1803718602
 20
6.8891667696
 30
0.0
 10
10.1725568864
 20
6.8881203623
 30
0.0
 10
10.1620184782
 20
6.8872037735
 30
0.0
 10
10.1486860289
 20
6.8869684219
 30
0.0
 10
10.132603083
 20
6.888137173
 30
0.0
 10
10.1165047284
 20
6.8907472077
 30
0.0
 10
10.1005012322
 20
6.8947801091
 30
0.0
 10
10.0847008423
 20
6.9002077151
 30
0.0
 10
10.069210589
 20
6.9069925509
 30
0.0
 10
10.0541352006
 20
6.9150880567
 30
0.0
 10
10.0395765415
 20
6.9244388972
 30
0.0
 10
10.0256329066
 20
6.9349813666
 30
0.0
 10
10.0123984781
 20
6.9466437194
 30
0.0
 10
9.9999624199
 20
6.959347054
 30
0.0
 10
9.9884093756
 20
6.9730042669
 30
0.0
 10
9.9813591468
 20
6.9826682201
 30
0.0
 10
9.9780035944
 20
6.9876293
 30
0.0
  0
SPLINE
  5
384
100
AcDbEntity
  8
0
100
AcDbSpline
 62
7
  6
CONTINUOUS
 70
0
 71
3
 72
23
 73
19
 74
0
 42
0.0000001
 43
0.0000001
 44
0.0000000001
 40
0.0
 40
0.0
 40
0.0
 40
0.0
 40
0.0701344277
 40
0.137402945
 40
0.2020993175
 40
0.2645595814
 40
0.3251634887
 40
0.3843307913
 40
0.4425163705
 40
0.5002006215
 40
0.5578777788
 40
0.6160422049
 40
0.675175008
 40
0.7357318184
 40
0.7981339174
 40
0.8627611435
 40
0.9299511883
 40
1.0
 40
1.0
 40
1.0
 40
1.0
 10
11.3304135424
 20
9.7502507666
 30
0.0
 10
11.3312970643
 20
9.7491197236
 30
0.0
 10
11.3329612814
 20
9.7468504546
 30
0.0
 10
11.3351776627
 20
9.7433548469
 30
0.0
 10
11.3370578326
 20
9.739844011
 30
0.0
 10
11.3385998965
 20
9.7363200388
 30
0.0
 10
11.3398024369
 20
9.7327851029
 30
0.0
 10
11.3406639344
 20
9.7292415566
 30
0.0
 10
11.3411833316
 20
9.7256920703
 30
0.0
 10
11.3413598145
 20
9.7221395118
 30
0.0
 10
11.341193127
 20
9.7185869134
 30
0.0
 10
11.3406835546
 20
9.715037293
 30
0.0
 10
11.339831779
 20
9.7114935514
 30
0.0
 10
11.3386390181
 20
9.7079583094
 30
0.0
 10
11.3371065711
 20
9.7044340224
 30
0.0
 10
11.335236108
 20
9.7009227634
 30
0.0
 10
11.3330292962
 20
9.697426734
 30
0.0
 10
11.3313712881
 20
9.6951570723
 30
0.0
 10
11.3304908585
 20
9.6940258398
 30
0.0
  0
SPLINE
  5
385
100
AcDbEntity
  8
0
100
AcDbSpline
 62
7
  6
CONTINUOUS
 70
0
 71
3
 72
9
 73
5
 74
0
 42
0.0000001
 43
0.0000001
 44
0.0000000001
 40
0.0
 40
0.0
 40
0.0
 40
0.0
 40
0.5115598568
 40
1.0
 40
1.0
 40
1.0
 40
1.0
 10
10.6898285681
 20
6.5317174753
 30
0.0
 10
10.6914254867
 20
6.5325062031
 30
0.0
 10
10.6946112708
 20
6.5339225346
 30
0.0
 10
10.6979104592
 20
6.535051486
 30
0.0
 10
10.6995431753
 20
6.5355271145
 30
0.0
  0
SPLINE
  5
386
100
AcDbEntity
  8
0
100
AcDbSpline
 62
7
  6
CONTINUOUS
 70
0
 71
3
 72
21
 73
17
 74
0
 42
0.0000001
 43
0.0000001
 44
0.0000000001
 40
0.0
 40
0.0
 40
0.0
 40
0.0
 40
0.0616532342
 40
0.1233294953
 40
0.1850515501
 40
0.2468416649
 40
0.3087213494
 40
0.3707111104
 40
0.4328302434
 40
0.4950966323
 40
0.5575265657
 40
0.6201345673
 40
0.682933156
 40
0.7459330948
 40
0.8725263949
 40
1.0
 40
1.0
 40
1.0
 40
1.0
 10
11.2118132356
 20
5.6509416161
 30
0.0
 10
11.2093555954
 20
5.6485677051
 30
0.0
 10
11.2043106601
 20
5.6439502216
 30
0.0
 10
11.1963803751
 20
5.637439434
 30
0.0
 10
11.1881057321
 20
5.6313589886
 30
0.0
 10
11.1795078607
 20
5.6257244697
 30
0.0
 10
11.1706083445
 20
5.6205500059
 30
0.0
 10
11.161429627
 20
5.6158486539
 30
0.0
 10
11.1519948489
 20
5.6116322054
 30
0.0
 10
11.1423277891
 20
5.6079112597
 30
0.0
 10
11.1324527714
 20
5.6046951926
 30
0.0
 10
11.1223947535
 20
5.6019920845
 30
0.0
 10
11.1121787896
 20
5.5998086671
 30
0.0
 10
11.0983617662
 20
5.5975943888
 30
0.0
 10
11.0808163516
 20
5.5961558404
 30
0.0
 10
11.0667108908
 20
5.5964311116
 30
0.0
 10
11.0596629972
 20
5.5969198847
 30
0.0
  0
SPLINE
  5
387
100
AcDbEntity
  8
0
100
AcDbSpline
 62
7
  6
CONTINUOUS
 70
0
 71
3
 72
41
 73
37
 74
0
 42
0.0000001
 43
0.0000001
 44
0.0000000001
 40
0.0
 40
0.0
 40
0.0
 40
0.0
 40
0.0310747715
 40
0.0623072746
 40
0.0936920171
 40
0.1252208437
 40
0.1568822229
 40
0.1886620173
 40
0.2205436063
 40
0.2525083193
 40
0.2845358056
 40
0.31660446
 40
0.3486918566
 40
0.3807751976
 40
0.4128317654
 40
0.4448393749
 40
0.4767768174
 40
0.5086242916
 40
0.5403638134
 40
0.5719795993
 40
0.603458415
 40
0.634789882
 40
0.6659667353
 40
0.6969850234
 40
0.7278442442
 40
0.7585474087
 40
0.7891010278
 40
0.8195150166
 40
0.8498025147
 40
0.8649066337
 40
0.8799853952
 40
0.9100708238
 40
0.940085481
 40
0.9550762297
 40
0.9700578762
 40
1.0
 40
1.0
 40
1.0
 40
1.0
 10
11.4239160153
 20
7.7016509972
 30
0.0
 10
11.4239160153
 20
7.6982877638
 30
0.0
 10
11.4241669154
 20
7.6915416383
 30
0.0
 10
11.425287066
 20
7.6814547569
 30
0.0
 10
11.4271457358
 20
7.6714270854
 30
0.0
 10
11.4297325744
 20
7.6615144473
 30
0.0
 10
11.4330333065
 20
7.6517710524
 30
0.0
 10
11.4370297116
 20
7.642250439
 30
0.0
 10
11.4416997879
 20
7.633004839
 30
0.0
 10
11.447017841
 20
7.6240849891
 30
0.0
 10
11.4529546396
 20
7.6155398312
 30
0.0
 10
11.459477569
 20
7.6074162537
 30
0.0
 10
11.466550811
 20
7.5997588352
 30
0.0
 10
11.4741355384
 20
7.5926096032
 30
0.0
 10
11.4821901257
 20
7.5860078059
 30
0.0
 10
11.4906703755
 20
7.5799896984
 30
0.0
 10
11.4995297581
 20
7.5745883455
 30
0.0
 10
11.5087196638
 20
7.5698334418
 30
0.0
 10
11.5181896666
 20
7.565751149
 30
0.0
 10
11.5278877964
 20
7.5623639527
 30
0.0
 10
11.5377608211
 20
7.5596905383
 30
0.0
 10
11.547754534
 20
7.557745687
 30
0.0
 10
11.5578140481
 20
7.5565401926
 30
0.0
 10
11.5678840905
 20
7.5560807971
 30
0.0
 10
11.5779093136
 20
7.5563701544
 30
0.0
 10
11.5878345556
 20
7.5574067916
 30
0.0
 10
11.5976052946
 20
7.5591851766
 30
0.0
 10
11.6071673824
 20
7.5616954983
 30
0.0
 10
11.6149266187
 20
7.5643890353
 30
0.0
 10
11.620974558
 20
7.566893988
 30
0.0
 10
11.6269000923
 20
7.5696243293
 30
0.0
 10
11.6340848081
 20
7.5734623064
 30
0.0
 10
11.6409363988
 20
7.5778499967
 30
0.0
 10
11.6461872979
 20
7.581670972
 30
0.0
 10
11.6512761708
 20
7.5856919989
 30
0.0
 10
11.6549098095
 20
7.5889327504
 30
0.0
 10
11.6572406573
 20
7.5911841807
 30
0.0
  0
ELLIPSE
  5
388
100
AcDbEntity
  8
0
100
AcDbEllipse
 62
7
  6
CONTINUOUS
 10
10.6443409527
 20
6.3511329099
 30
0.0
 11
0.1516664552
 21
-0.1365790199
 31
0.0
 40
0.932059612
 41
0.0
 42
6.2831853072
  0
ELLIPSE
  5
389
100
AcDbEntity
  8
0
100
AcDbEllipse
 62
7
  6
CONTINUOUS
 10
11.0596629972
 20
7.6209947807
 30
0.0
 11
-0.053095879
 21
0.2155295841
 31
0.0
 40
0.8757841375
 41
0.0
 42
6.2831853072
  0
ELLIPSE
  5
38A
100
AcDbEntity
  8
0
100
AcDbEllipse
 62
7
  6
CONTINUOUS
 10
10.0535276994
 20
6.7842718744
 30
0.0
 11
0.1766072761
 21
-0.1343393683
 31
0.0
 40
0.929133529
 41
0.0
 42
6.2831853072
  0
ELLIPSE
  5
38B
100
AcDbEntity
  8
0
100
AcDbEllipse
 62
7
  6
CONTINUOUS
 10
10.6380134184
 20
7.1359035783
 30
0.0
 11
0.2123866522
 21
-0.0660860982
 31
0.0
 40
0.8721856509
 41
0.0
 42
6.2831853072
  0
ENDSEC
  0
SECTION
  2
OBJECTS
  0
DICTIONARY
  5
C
100
AcDbDictionary
280
0
281
1
  3
ACAD_GROUP
350
D
  3
ACAD_MLINESTYLE
350
17
  3
ACAD_LAYOUT
350
1A
  3
ACAD_PLOTSETTINGS
350
19
  3
ACAD_PLOTSTYLENAME
350
E
  3
ACAD_IMAGE_DICT
350
       38D
  3
ACAD_IMAGE_VARS
350
       38E
  3
ACAD_TABLESTYLE
350
       38F
  0
IMAGEDEF_REACTOR
  5
38C
100
AcDbRasterImageDefReactor
 90
2
330
283
  0
DICTIONARY
  5
D
102
{ACAD_REACTORS
330
C
102
}
100
AcDbDictionary
280
0
281
1
  0
ACDBDICTIONARYWDFLT
  5
E
102
{ACAD_REACTORS
330
C
102
}
100
AcDbDictionary
281
1
  3
Normal
350
F
100
AcDbDictionaryWithDefault
340
F
  0
DICTIONARY
  5
38D
330
C
100
AcDbDictionary
281
1
  3
RVEALAN-BBE-M_assy_2_img_1
350
       392
  0
RASTERVARIABLES
  5
38E
330
C
100
AcDbRasterVariables
 90
0
 70
0
 71
1
 72
5
  0
DICTIONARY
  5
17
102
{ACAD_REACTORS
330
C
102
}
100
AcDbDictionary
280
0
281
1
  3
Standard
350
18
  0
DICTIONARY
  5
38F
330
C
100
AcDbDictionary
281
1
  3
Standard
350
       393
  3
Standard1
350
       394
  0
DICTIONARY
  5
19
102
{ACAD_REACTORS
330
C
102
}
100
AcDbDictionary
281
1
  0
DICTIONARY
  5
1A
102
{ACAD_REACTORS
330
C
102
}
100
AcDbDictionary
281
1
  3
Model
350
390
  3
Layout1
350
391
  0
ACDBPLACEHOLDER
  5
F
102
{ACAD_REACTORS
330
E
102
}
  0
MLINESTYLE
  5
18
102
{ACAD_REACTORS
330
17
102
}
100
AcDbMlineStyle
  2
STANDARD
 70
0
  3

 62
256
 51
90.0
 52
90.0
 71
2
 49
0.5
 62
256
  6
BYLAYER
 49
-0.5
 62
256
  6
BYLAYER
  0
LAYOUT
  5
390
102
{ACAD_REACTORS
330
1A
102
}
100
AcDbPlotSettings
  1

  2
none_device
  4
ANSI_C_(22.00_x_17.00_Inches)
  6

 40
0.0
 41
0.0
 42
0.0
 43
0.0
 44
558.8
 45
431.8
 46
0.0
 47
0.0
 48
0.0
 49
0.0
140
0.0
141
0.0
142
1.0
143
1.0
 70
1024
 72
0
 73
0
 74
0
  7

 75
0
147
1.0
148
0.0
149
0.0
100
AcDbLayout
  1
Model
 70
0
 71
0
 10
0.0
 20
0.0
 11
22.0
 21
17.0
 12
0.0
 22
0.0
 32
0.0
 14
0.0
 24
0.0
 34
0.0
 15
0.0
 25
0.0
 35
0.0
146
0.0
 13
0.0
 23
0.0
 33
0.0
 16
1.0
 26
0.0
 36
0.0
 17
0.0
 27
1.0
 37
0.0
 76
0
330
207
345
0
346
0
  0
LAYOUT
  5
391
102
{ACAD_REACTORS
330
1A
102
}
100
AcDbPlotSettings
  1

  2
none_device
  4
ANSI_C_(22.00_x_17.00_Inches)
  6

 40
0.0
 41
0.0
 42
0.0
 43
0.0
 44
558.8
 45
431.8
 46
0.0
 47
0.0
 48
0.0
 49
0.0
140
0.0
141
0.0
142
1.0
143
1.0
 70
0
 72
0
 73
0
 74
0
  7

 75
0
147
1.0
148
0.0
149
0.0
100
AcDbLayout
  1
Layout1
 70
0
 71
1
 10
0.0
 20
0.0
 11
22.0
 21
17.0
 12
0.0
 22
0.0
 32
0.0
 14
0.0
 24
0.0
 34
0.0
 15
0.0
 25
0.0
 35
0.0
146
0.0
 13
0.0
 23
0.0
 33
0.0
 16
1.0
 26
0.0
 36
0.0
 17
0.0
 27
1.0
 37
0.0
 76
0
330
208
345
0
346
0
  0
IMAGEDEF
  5
392
102
{ACAD_REACTORS
330
38D
330
38C
102
}
100
AcDbRasterImageDef
 90
0
  1
RVEALAN-BBE-M_assy_2_img_1.png
 10
369.0
 20
92.0
 11
0.0066666667
 21
0.0066666667
280
1
281
0
  0
TABLESTYLE
  5
393
102
{ACAD_REACTORS
330
38F
330
286
330
287
102
}
330
38F
100
AcDbTableStyle
  3
Standard
 70
0
 71
0
 40
0.06
 41
0.06
280
1
281
1
  7
Standard
140
0.18
170
1
 62
0
 63
7
283
0
  7
Standard
140
0.18
170
1
 62
0
 63
7
283
0
  7
Standard
140
0.18
170
1
 62
0
 63
7
283
0
  0
TABLESTYLE
  5
394
102
{ACAD_REACTORS
330
38F
330
285
102
}
330
38F
100
AcDbTableStyle
  3
Standard1
 70
1
 71
0
 40
0.06
 41
0.06
280
1
281
1
  7
Standard
140
0.18
170
1
 62
0
 63
7
283
0
  7
Standard
140
0.18
170
1
 62
0
 63
7
283
0
  7
Standard
140
0.18
170
1
 62
0
 63
7
283
0
  0
ENDSEC
  0
EOF
