999
DXF file: RPKCLAN-LA8_assy_2.dxf
999
Pro/ENGINEER 2014200 by Parametric Technology Corporation
  0
SECTION
  2
HEADER
  9
$ACADVER
  1
AC1021
  9
$DWGCODEPAGE
  3
ANSI_1252
  9
$EXTMAX
 10
22.0
 20
17.0
 30
0.0
  9
$EXTMIN
 10
0.0
 20
0.0
 30
0.0
  9
$LIMMIN
 10
0.0
 20
0.0
  9
$LIMMAX
 10
22.0
 20
17.0
  9
$VIEWCTR
 10
11.0
 20
8.5
  9
$VIEWSIZE
 40
17.0
  9
$CLAYER
  8
0
  9
$LTSCALE
 40
1.21
  9
$CELTYPE
  6
BYLAYER
  9
$DIMSCALE
 40
1.0
  9
$DIMASZ
 40
0.1875
  9
$DIMEXO
 40
0.0625
  9
$DIMDLI
 40
0.836
  9
$DIMEXE
 40
0.125
  9
$DIMCEN
 40
0.198
  9
$DIMLFAC
 40
1.0
  9
$DIMBLK
  1
_FILLED
  9
$DIMTXT
 40
0.1
  9
$DIMTOL
 70
0
  9
$DIMLIM
 70
0
  9
$DIMTFAC
 40
1.0
  9
$DIMGAP
 40
0.09
  9
$DIMDSEP
 70
46
  9
$AUNITS
 70
0
  9
$PDMODE
 70
3
  9
$PDSIZE
 40
0.3125
  9
$HANDSEED
  5
407
  9
$TILEMODE
 70
1
  9
$MEASUREMENT
 70
0
  9
$INSUNITS
 70
1
  0
ENDSEC
  0
SECTION
  2
CLASSES
  0
CLASS
  1
ACDBDICTIONARYWDFLT
  2
AcDbDictionaryWithDefault
  3
AutoCAD 2000
 90
0
 91
1
280
0
281
0
  0
CLASS
  1
ACDBPLACEHOLDER
  2
AcDbPlaceHolder
  3
AutoCAD 2000
 90
0
 91
1
280
0
281
0
  0
CLASS
  1
LAYOUT
  2
AcDbLayout
  3
AutoCAD 2000
 90
0
 91
0
280
0
281
0
  0
CLASS
  1
RASTERVARIABLES
  2
AcDbRasterVariables
  3
ISM
 90
0
 91
1
280
0
281
0
  0
CLASS
  1
IMAGEDEF
  2
AcDbRasterImageDef
  3
ISM
 90
0
 91
1
280
0
281
0
  0
CLASS
  1
IMAGEDEF_REACTOR
  2
AcDbRasterImageDefReactor
  3
ISM
 90
0
 91
1
280
0
281
0
  0
CLASS
  1
IMAGE
  2
AcDbRasterImage
  3
ISM
 90
127
 91
1
280
0
281
1
  0
CLASS
  1
TABLESTYLE
  2
AcDbTableStyle
  3
ObjectDBX Classes
 90
2047
 91
1
280
0
281
0
  0
CLASS
  1
ACAD_TABLE
  2
AcDbTable
  3
ObjectDBX Classes
 90
1025
 91
3
280
0
281
1
  0
ENDSEC
  0
SECTION
  2
TABLES
  0
TABLE
  2
VPORT
  5
8
100
AcDbSymbolTable
 70
2
  0
VPORT
  5
1F4
100
AcDbSymbolTableRecord
100
AcDbViewportTableRecord
  2
*ACTIVE
 70
0
 10
0.0
 20
0.0
 11
1.0
 21
1.0
 12
11.0
 22
8.5
 13
0.0
 23
0.0
 14
1.0
 24
1.0
 15
0.0
 25
0.0
 16
0.0
 26
0.0
 36
1.0
 17
0.0
 27
0.0
 37
0.0
 40
17.0
 41
1.2941176471
 42
50.0
 43
0.0
 44
0.0
 50
0.0
 51
0.0
 71
0
 72
100
 73
1
 74
1
 75
0
 76
0
 77
0
 78
0
  0
ENDTAB
  0
TABLE
  2
LTYPE
  5
5
100
AcDbSymbolTable
 70
6
  0
LTYPE
  5
14
100
AcDbSymbolTableRecord
100
AcDbLinetypeTableRecord
  2
BYBLOCK
 70
0
  3

 72
65
 73
0
 40
0.0
  0
LTYPE
  5
15
100
AcDbSymbolTableRecord
100
AcDbLinetypeTableRecord
  2
BYLAYER
 70
0
  3

 72
65
 73
0
 40
0.0
  0
LTYPE
  5
16
100
AcDbSymbolTableRecord
100
AcDbLinetypeTableRecord
  2
CONTINUOUS
 70
64
  3
Solid line
 72
65
 73
0
 40
0.0
  0
LTYPE
  5
1F5
100
AcDbSymbolTableRecord
100
AcDbLinetypeTableRecord
  2
CENTER
 70
64
  3
____ _ ____ _ ____ _ ____ _ ____ _ ____ _ ____
 72
65
 73
4
 40
0.6
 49
0.375
 74
0
 49
-0.075
 74
0
 49
0.075
 74
0
 49
-0.075
 74
0
  0
LTYPE
  5
1F6
100
AcDbSymbolTableRecord
100
AcDbLinetypeTableRecord
  2
HIDDEN
 70
64
  3
- - - - - - - - - - - - - - - - - - - -
 72
65
 73
2
 40
0.2
 49
0.1
 74
0
 49
-0.1
 74
0
  0
LTYPE
  5
1F7
100
AcDbSymbolTableRecord
100
AcDbLinetypeTableRecord
  2
PHANTOM
 70
64
  3
_____ _ _ _____ _ _ _____ _ _ _____
 72
65
 73
6
 40
0.8
 49
0.45
 74
0
 49
-0.05
 74
0
 49
0.1
 74
0
 49
-0.05
 74
0
 49
0.1
 74
0
 49
-0.05
 74
0
  0
LTYPE
  5
1F8
100
AcDbSymbolTableRecord
100
AcDbLinetypeTableRecord
  2
DOT
 70
64
  3
. . . . . . . . . . . . . . . . . . . .
 72
65
 73
2
 40
0.2
 49
0.1
 74
0
 49
-0.1
 74
0
  0
LTYPE
  5
1F9
100
AcDbSymbolTableRecord
100
AcDbLinetypeTableRecord
  2
DASHED
 70
64
  3
- - - - - - - - - - - - - - - - - - - -
 72
65
 73
2
 40
0.2
 49
0.1
 74
0
 49
-0.1
 74
0
  0
ENDTAB
  0
TABLE
  2
LAYER
  5
2
100
AcDbSymbolTable
 70
36
  0
LAYER
  5
10
100
AcDbSymbolTableRecord
100
AcDbLayerTableRecord
  2
0
 70
0
 62
7
  6
CONTINUOUS
370
-3
390
F
  0
LAYER
  5
1FA
100
AcDbSymbolTableRecord
100
AcDbLayerTableRecord
  2
DEFAULT_1
 70
0
 62
7
  6
CENTER
370
-3
390
F
  0
LAYER
  5
1FB
100
AcDbSymbolTableRecord
100
AcDbLayerTableRecord
  2
DEFAULT_2
 70
0
 62
8
  6
HIDDEN
370
-3
390
F
  0
LAYER
  5
1FC
100
AcDbSymbolTableRecord
100
AcDbLayerTableRecord
  2
DEFAULT_3
 70
0
 62
7
  6
PHANTOM
370
-3
390
F
  0
LAYER
  5
1FD
100
AcDbSymbolTableRecord
100
AcDbLayerTableRecord
  2
01___PRT_ALL_DTM_PLN
 70
0
 62
7
  6
CONTINUOUS
370
-3
390
F
  0
LAYER
  5
1FE
100
AcDbSymbolTableRecord
100
AcDbLayerTableRecord
  2
01___PRT_DEF_DTM_PLN
 70
0
 62
7
  6
CONTINUOUS
370
-3
390
F
  0
LAYER
  5
1FF
100
AcDbSymbolTableRecord
100
AcDbLayerTableRecord
  2
02___PRT_ALL_AXES
 70
0
 62
7
  6
CONTINUOUS
370
-3
390
F
  0
LAYER
  5
200
100
AcDbSymbolTableRecord
100
AcDbLayerTableRecord
  2
03___PRT_ALL_CURVES
 70
0
 62
7
  6
CONTINUOUS
370
-3
390
F
  0
LAYER
  5
201
100
AcDbSymbolTableRecord
100
AcDbLayerTableRecord
  2
04___PRT_ALL_DTM_PNT
 70
0
 62
7
  6
CONTINUOUS
370
-3
390
F
  0
LAYER
  5
202
100
AcDbSymbolTableRecord
100
AcDbLayerTableRecord
  2
05___PRT_ALL_DTM_CSYS
 70
0
 62
7
  6
CONTINUOUS
370
-3
390
F
  0
LAYER
  5
203
100
AcDbSymbolTableRecord
100
AcDbLayerTableRecord
  2
05___PRT_DEF_DTM_CSYS
 70
0
 62
7
  6
CONTINUOUS
370
-3
390
F
  0
LAYER
  5
204
100
AcDbSymbolTableRecord
100
AcDbLayerTableRecord
  2
06___PRT_ALL_SURFS
 70
0
 62
7
  6
CONTINUOUS
370
-3
390
F
  0
LAYER
  5
205
100
AcDbSymbolTableRecord
100
AcDbLayerTableRecord
  2
DATUM_PLANES
 70
0
 62
7
  6
CONTINUOUS
370
-3
390
F
  0
LAYER
  5
206
100
AcDbSymbolTableRecord
100
AcDbLayerTableRecord
  2
PORT_AREAS
 70
0
 62
7
  6
CONTINUOUS
370
-3
390
F
  0
LAYER
  5
207
100
AcDbSymbolTableRecord
100
AcDbLayerTableRecord
  2
SUNNBOMCOSMETIC
 70
0
 62
7
  6
CONTINUOUS
370
-3
390
F
  0
LAYER
  5
208
100
AcDbSymbolTableRecord
100
AcDbLayerTableRecord
  2
SUNNBOMSTAMPING
 70
0
 62
7
  6
CONTINUOUS
370
-3
390
F
  0
LAYER
  5
209
100
AcDbSymbolTableRecord
100
AcDbLayerTableRecord
  2
THREADS
 70
0
 62
7
  6
CONTINUOUS
370
-3
390
F
  0
ENDTAB
  0
TABLE
  2
STYLE
  5
3
100
AcDbSymbolTable
 70
1
  0
STYLE
  5
11
100
AcDbSymbolTableRecord
100
AcDbTextStyleTableRecord
  2
STANDARD
 70
0
 40
0.0
 41
0.8
 50
0.0
 71
0
 42
0.2
  3
txt
  4

  0
STYLE
  5
20A
100
AcDbSymbolTableRecord
100
AcDbTextStyleTableRecord
  2
TEXTSTYLE_1
 70
0
 40
0.0
 41
0.8
 50
0.0
 71
0
 42
0.2
  3
gdt
  4

  0
ENDTAB
  0
TABLE
  2
VIEW
  5
6
100
AcDbSymbolTable
 70
0
  0
ENDTAB
  0
TABLE
  2
UCS
  5
7
100
AcDbSymbolTable
 70
0
  0
ENDTAB
  0
TABLE
  2
APPID
  5
9
100
AcDbSymbolTable
 70
1
  0
APPID
  5
20B
100
AcDbSymbolTableRecord
100
AcDbRegAppTableRecord
  2
ACAD
 70
0
  0
ENDTAB
  0
TABLE
  2
BLOCK_RECORD
  5
1
100
AcDbSymbolTable
 70
0
  0
BLOCK_RECORD
  5
20C
100
AcDbSymbolTableRecord
100
AcDbBlockTableRecord
  2
*Model_Space
  0
BLOCK_RECORD
  5
20D
100
AcDbSymbolTableRecord
100
AcDbBlockTableRecord
  2
*Paper_Space
  0
BLOCK_RECORD
  5
20E
100
AcDbSymbolTableRecord
100
AcDbBlockTableRecord
  2
SUN_FIRST_THIRD_ANGLE_BL0
  0
BLOCK_RECORD
  5
20F
100
AcDbSymbolTableRecord
100
AcDbBlockTableRecord
  2
*T1
  0
BLOCK_RECORD
  5
210
100
AcDbSymbolTableRecord
100
AcDbBlockTableRecord
  2
*T2
  0
BLOCK_RECORD
  5
211
100
AcDbSymbolTableRecord
100
AcDbBlockTableRecord
  2
*T3
  0
ENDTAB
  0
TABLE
  2
DIMSTYLE
  5
A
100
AcDbSymbolTable
 70
1
100
AcDbDimStyleTable
 71
0
  0
DIMSTYLE
105
212
100
AcDbSymbolTableRecord
100
AcDbDimStyleTableRecord
  2
STANDARD
 70
0
  3

  4

 40
1.0
 41
0.1875
 42
0.0625
 43
0.38
 44
0.125
 45
0.0
 46
0.0
 47
0.001
 48
0.001
140
0.1
141
0.09
142
0.0
143
25.4
144
1.0
145
0.0
146
1.0
147
0.09
 71
0.0
 72
0.0
 73
1
 74
1
 75
0
 76
0
 77
0
 78
4
170
0
171
2
172
0
173
0
174
0
175
0
176
0
177
0
178
0
270
2
271
3
272
3
273
2
274
2
275
0
280
0
281
0
282
0
283
1
284
4
285
0
286
0
287
3
288
0
340
11
278
46
  0
ENDTAB
  0
ENDSEC
  0
SECTION
  2
BLOCKS
  0
BLOCK
  5
20
100
AcDbEntity
  8
0
100
AcDbBlockBegin
  2
*Model_Space
 70
0
 10
0.0
 20
0.0
 30
0.0
  3
*Model_Space
  1

  0
ENDBLK
  5
21
100
AcDbEntity
  8
0
100
AcDbBlockEnd
  0
BLOCK
  5
1C
100
AcDbEntity
  8
0
100
AcDbBlockBegin
  2
*Paper_Space
 70
0
 10
0.0
 20
0.0
 30
0.0
  3
*Paper_Space
  1

  0
ENDBLK
  5
1D
100
AcDbEntity
  8
0
100
AcDbBlockEnd
  0
BLOCK
  5
213
100
AcDbEntity
  8
0
100
AcDbBlockBegin
 62
2
  6
CONTINUOUS
  2
SUN_FIRST_THIRD_ANGLE_BL0
 70
64
 10
20.4816717061
 20
1.2289683772
  3
SUN_FIRST_THIRD_ANGLE_BL0
  1

  0
TEXT
  5
214
100
AcDbEntity
  8
0
100
AcDbText
 62
2
  6
CONTINUOUS
 10
19.4750896608
 20
1.4136269581
  7
STANDARD
 40
0.08
  1
FIRST ANGLE
 41
0.8
 72
0
100
AcDbText
  0
TEXT
  5
215
100
AcDbEntity
  8
0
100
AcDbText
 62
2
  6
CONTINUOUS
 10
20.7842537513
 20
1.4047600029
  7
STANDARD
 40
0.08
  1
THIRD ANGLE
 41
0.8
 72
0
100
AcDbText
  0
LINE
  5
216
100
AcDbEntity
  8
0
100
AcDbLine
 62
7
  6
CONTINUOUS
 10
19.4767170086
 20
1.1727031207
 11
19.6334271527
 21
1.1717972817
  0
LINE
  5
217
100
AcDbEntity
  8
0
100
AcDbLine
 62
7
  6
CONTINUOUS
 10
19.6596964832
 20
1.1717972817
 11
19.6950230232
 21
1.171593082
  0
LINE
  5
218
100
AcDbEntity
  8
0
100
AcDbLine
 62
7
  6
CONTINUOUS
 10
19.7194818561
 20
1.1708914427
 11
19.8852396156
 21
1.1699333054
  0
LINE
  5
219
100
AcDbEntity
  8
0
100
AcDbLine
 62
7
  6
CONTINUOUS
 10
19.4758111696
 20
1.2723454088
 11
19.88525039
 21
1.3511534004
  0
LINE
  5
21A
100
AcDbEntity
  8
0
100
AcDbLine
 62
7
  6
CONTINUOUS
 10
19.88525039
 20
1.3511534004
 11
19.8831348489
 21
0.9851647912
  0
LINE
  5
21B
100
AcDbEntity
  8
0
100
AcDbLine
 62
7
  6
CONTINUOUS
 10
19.8831348489
 20
0.9851647912
 11
19.4767170086
 21
1.0658141206
  0
LINE
  5
21C
100
AcDbEntity
  8
0
100
AcDbLine
 62
7
  6
CONTINUOUS
 10
19.4767170086
 20
1.0658141206
 11
19.4779056764
 21
1.2714536432
  0
CIRCLE
  5
21D
100
AcDbEntity
  8
0
100
AcDbCircle
 62
7
  6
CONTINUOUS
 10
20.2068232291
 20
1.1717972817
 40
0.175742101
  0
CIRCLE
  5
21E
100
AcDbEntity
  8
0
100
AcDbCircle
 62
7
  6
CONTINUOUS
 10
20.2068232291
 20
1.1717972817
 40
0.1005522074
  0
LINE
  5
21F
100
AcDbEntity
  8
0
100
AcDbLine
 62
7
  6
CONTINUOUS
 10
20.2077290681
 20
1.3756110529
 11
20.2071171714
 21
1.2379342989
  0
LINE
  5
220
100
AcDbEntity
  8
0
100
AcDbLine
 62
7
  6
CONTINUOUS
 10
20.2077290681
 20
1.2016899681
 11
20.2074674401
 21
1.1428236749
  0
LINE
  5
221
100
AcDbEntity
  8
0
100
AcDbLine
 62
7
  6
CONTINUOUS
 10
20.208634907
 20
1.101141841
 11
20.2080230104
 21
0.963465087
  0
LINE
  5
222
100
AcDbEntity
  8
0
100
AcDbLine
 62
7
  6
CONTINUOUS
 10
20.0066328138
 20
1.1745147986
 11
20.1443095678
 21
1.1739029019
  0
LINE
  5
223
100
AcDbEntity
  8
0
100
AcDbLine
 62
7
  6
CONTINUOUS
 10
20.1832714155
 20
1.1727031207
 11
20.238153505
 21
1.172335442
  0
LINE
  5
224
100
AcDbEntity
  8
0
100
AcDbLine
 62
7
  6
CONTINUOUS
 10
20.2756669918
 20
1.1717972817
 11
20.407916871
 21
1.1712095044
  0
CIRCLE
  5
225
100
AcDbEntity
  8
0
100
AcDbCircle
 62
7
  6
CONTINUOUS
 10
20.7509457401
 20
1.1693297793
 40
0.1722024983
  0
CIRCLE
  5
226
100
AcDbEntity
  8
0
100
AcDbCircle
 62
7
  6
CONTINUOUS
 10
20.7509457401
 20
1.1693297793
 40
0.0985164967
  0
LINE
  5
227
100
AcDbEntity
  8
0
100
AcDbLine
 62
7
  6
CONTINUOUS
 10
20.7169767782
 20
1.170462078
 11
20.7825395137
 21
1.1682766535
  0
LINE
  5
228
100
AcDbEntity
  8
0
100
AcDbLine
 62
7
  6
CONTINUOUS
 10
20.8177513651
 20
1.1693297793
 11
20.947965719
 21
1.1693297793
  0
LINE
  5
229
100
AcDbEntity
  8
0
100
AcDbLine
 62
7
  6
CONTINUOUS
 10
20.6875370113
 20
1.170462078
 11
20.5573226574
 21
1.170462078
  0
LINE
  5
22A
100
AcDbEntity
  8
0
100
AcDbLine
 62
7
  6
CONTINUOUS
 10
20.7486811426
 20
1.1987695462
 11
20.7486811426
 21
1.1432869085
  0
LINE
  5
22B
100
AcDbEntity
  8
0
100
AcDbLine
 62
7
  6
CONTINUOUS
 10
20.7498134414
 20
1.1059210505
 11
20.7498134414
 21
0.9757066966
  0
LINE
  5
22C
100
AcDbEntity
  8
0
100
AcDbLine
 62
7
  6
CONTINUOUS
 10
20.7486811426
 20
1.2338708068
 11
20.7486811426
 21
1.3640851607
  0
LINE
  5
22D
100
AcDbEntity
  8
0
100
AcDbLine
 62
7
  6
CONTINUOUS
 10
21.0702539817
 20
1.2701043662
 11
21.4790138229
 21
1.3448360823
  0
LINE
  5
22E
100
AcDbEntity
  8
0
100
AcDbLine
 62
7
  6
CONTINUOUS
 10
21.4790138229
 20
1.3448360823
 11
21.4790138229
 21
0.9779712941
  0
LINE
  5
22F
100
AcDbEntity
  8
0
100
AcDbLine
 62
7
  6
CONTINUOUS
 10
21.4790138229
 20
0.9779712941
 11
21.069121683
 21
1.0617614
  0
LINE
  5
230
100
AcDbEntity
  8
0
100
AcDbLine
 62
7
  6
CONTINUOUS
 10
21.0702539817
 20
1.2701043662
 11
21.069121683
 21
1.0617614
  0
LINE
  5
231
100
AcDbEntity
  8
0
100
AcDbLine
 62
7
  6
CONTINUOUS
 10
21.4790138229
 20
1.1693297793
 11
21.3159628059
 21
1.1693297793
  0
LINE
  5
232
100
AcDbEntity
  8
0
100
AcDbLine
 62
7
  6
CONTINUOUS
 10
21.2876553377
 20
1.1693297793
 11
21.2502894796
 21
1.1693297793
  0
LINE
  5
233
100
AcDbEntity
  8
0
100
AcDbLine
 62
7
  6
CONTINUOUS
 10
21.2208497126
 20
1.1659328831
 11
21.0713862804
 21
1.1659328831
  0
LINE
  5
234
100
AcDbEntity
  8
0
100
AcDbLine
 62
7
  6
CONTINUOUS
 10
20.4796138713
 20
1.5284908897
 11
20.4766766948
 21
0.9294458646
  0
ENDBLK
  5
235
100
AcDbEntity
  8
0
  6
BYBLOCK
 62
0
100
AcDbBlockEnd
  0
BLOCK
  5
236
100
AcDbEntity
  8
0
100
AcDbBlockBegin
  2
*T1
 70
1
 10
0.0
 20
0.0
  3
*T1
  1

  0
LINE
  5
237
100
AcDbEntity
  8
0
100
AcDbLine
 62
2
  6
CONTINUOUS
 10
9.275
 20
0.0
 11
-0.0
 21
0.0
  0
LINE
  5
238
100
AcDbEntity
  8
0
100
AcDbLine
 62
2
  6
CONTINUOUS
 10
9.275
 20
0.0
 11
9.275
 21
1.25
  0
LINE
  5
239
100
AcDbEntity
  8
0
100
AcDbLine
 62
2
  6
CONTINUOUS
 10
9.275
 20
0.625
 11
-0.0
 21
0.625
  0
LINE
  5
23A
100
AcDbEntity
  8
0
100
AcDbLine
 62
2
  6
CONTINUOUS
 10
9.275
 20
1.25
 11
-0.0
 21
1.25
  0
LINE
  5
23B
100
AcDbEntity
  8
0
100
AcDbLine
 62
2
  6
CONTINUOUS
 10
6.8
 20
0.0
 11
6.8
 21
1.25
  0
LINE
  5
23C
100
AcDbEntity
  8
0
100
AcDbLine
 62
2
  6
CONTINUOUS
 10
6.4
 20
0.0
 11
6.4
 21
0.625
  0
LINE
  5
23D
100
AcDbEntity
  8
0
100
AcDbLine
 62
2
  6
CONTINUOUS
 10
5.9
 20
0.0
 11
5.9
 21
0.625
  0
LINE
  5
23E
100
AcDbEntity
  8
0
100
AcDbLine
 62
2
  6
CONTINUOUS
 10
5.2
 20
0.0
 11
5.2
 21
0.625
  0
LINE
  5
23F
100
AcDbEntity
  8
0
100
AcDbLine
 62
2
  6
CONTINUOUS
 10
4.1
 20
0.0
 11
4.1
 21
1.25
  0
LINE
  5
240
100
AcDbEntity
  8
0
100
AcDbLine
 62
2
  6
CONTINUOUS
 10
-0.0
 20
0.0
 11
-0.0
 21
1.25
  0
MTEXT
  5
241
100
AcDbEntity
  8
0
100
AcDbMText
 62
2
  6
CONTINUOUS
  7
STANDARD
 71
2
 72
1
 10
6.6
 20
0.325
 30
0.0
 11
1.0
 21
0.0
 31
0.0
 44
0.9
  1
2
 40
0.125
 41
0.2
  0
MTEXT
  5
242
100
AcDbEntity
  8
0
100
AcDbMText
 62
2
  6
CONTINUOUS
  7
STANDARD
 71
2
 72
1
 10
6.15
 20
0.325
 30
0.0
 11
1.0
 21
0.0
 31
0.0
 44
0.9
  1
C
 40
0.125
 41
0.2
  0
MTEXT
  5
243
100
AcDbEntity
  8
0
100
AcDbMText
 62
2
  6
CONTINUOUS
  7
STANDARD
 71
2
 72
1
 10
5.55
 20
0.325
 30
0.0
 11
1.0
 21
0.0
 31
0.0
 44
0.9
  1
0.900
 40
0.125
 41
1.0
  0
MTEXT
  5
244
100
AcDbEntity
  8
0
100
AcDbMText
 62
2
  6
CONTINUOUS
  7
STANDARD
 71
2
 72
1
 10
4.65
 20
0.325
 30
0.0
 11
1.0
 21
0.0
 31
0.0
 44
0.9
  1
Jul-10-19
 40
0.125
 41
1.8
  0
MTEXT
  5
245
100
AcDbEntity
  8
0
100
AcDbMText
 62
2
  6
CONTINUOUS
  7
STANDARD
 71
2
 72
1
 10
2.05
 20
0.4625
 30
0.0
 11
1.0
 21
0.0
 31
0.0
 44
0.9
  1
Relief manifold assembly
 40
0.125
 41
4.8
  0
MTEXT
  5
246
100
AcDbEntity
  8
0
100
AcDbMText
 62
2
  6
CONTINUOUS
  7
STANDARD
 71
1
 72
1
 10
6.45
 20
0.5625
 30
0.0
 11
1.0
 21
0.0
 31
0.0
 44
0.9
  1
SHEET
 40
0.06
 41
0.48
  0
MTEXT
  5
247
100
AcDbEntity
  8
0
100
AcDbMText
 62
2
  6
CONTINUOUS
  7
STANDARD
 71
1
 72
1
 10
5.95
 20
0.5625
 30
0.0
 11
1.0
 21
0.0
 31
0.0
 44
0.9
  1
DWG SIZE
 40
0.06
 41
0.768
  0
MTEXT
  5
248
100
AcDbEntity
  8
0
100
AcDbMText
 62
2
  6
CONTINUOUS
  7
STANDARD
 71
1
 72
1
 10
5.25
 20
0.5625
 30
0.0
 11
1.0
 21
0.0
 31
0.0
 44
0.9
  1
SCALE
 40
0.06
 41
0.48
  0
MTEXT
  5
249
100
AcDbEntity
  8
0
100
AcDbMText
 62
2
  6
CONTINUOUS
  7
STANDARD
 71
1
 72
1
 10
4.15
 20
0.5625
 30
0.0
 11
1.0
 21
0.0
 31
0.0
 44
0.9
  1
DATE
 40
0.06
 41
0.384
  0
MTEXT
  5
24A
100
AcDbEntity
  8
0
100
AcDbMText
 62
2
  6
CONTINUOUS
  7
STANDARD
 71
1
 72
1
 10
0.05
 20
0.5625
 30
0.0
 11
1.0
 21
0.0
 31
0.0
 44
0.9
  1
DESCRIPTION
 40
0.06
 41
1.056
  0
MTEXT
  5
24B
100
AcDbEntity
  8
0
100
AcDbMText
 62
2
  6
CONTINUOUS
  7
STANDARD
 71
2
 72
1
 10
5.45
 20
1.0375
 30
0.0
 11
1.0
 21
0.0
 31
0.0
 44
0.9
  1
ALL DIMENSIONS IN INCH\PVIEWS ARE THIRD ANGLE
 40
0.12
 41
4.224
  0
MTEXT
  5
24C
100
AcDbEntity
  8
0
100
AcDbMText
 62
2
  6
CONTINUOUS
  7
STANDARD
 71
2
 72
1
 10
2.05
 20
0.95
 30
0.0
 11
1.0
 21
0.0
 31
0.0
 44
0.9
  1
RPKCLAN-LA8
 40
0.125
 41
2.2
  0
MTEXT
  5
24D
100
AcDbEntity
  8
0
100
AcDbMText
 62
2
  6
CONTINUOUS
  7
STANDARD
 71
1
 72
1
 10
0.05
 20
1.1875
 30
0.0
 11
1.0
 21
0.0
 31
0.0
 44
0.9
  1
MODEL
 40
0.06
 41
0.48
  0
ENDBLK
  5
24E
100
AcDbEntity
  8
0
  6
BYBLOCK
 62
0
100
AcDbBlockEnd
  0
BLOCK
  5
24F
100
AcDbEntity
  8
0
100
AcDbBlockBegin
  2
*T2
 70
1
 10
0.0
 20
0.0
  3
*T2
  1

  0
LINE
  5
250
100
AcDbEntity
  8
0
100
AcDbLine
 62
2
  6
CONTINUOUS
 10
0.0
 20
0.0
 11
9.055
 21
0.0
  0
LINE
  5
251
100
AcDbEntity
  8
0
100
AcDbLine
 62
2
  6
CONTINUOUS
 10
0.0
 20
0.0
 11
0.0
 21
-2.594
  0
LINE
  5
252
100
AcDbEntity
  8
0
100
AcDbLine
 62
2
  6
CONTINUOUS
 10
0.0
 20
-0.344
 11
9.055
 21
-0.344
  0
LINE
  5
253
100
AcDbEntity
  8
0
100
AcDbLine
 62
2
  6
CONTINUOUS
 10
0.0
 20
-0.594
 11
9.055
 21
-0.594
  0
LINE
  5
254
100
AcDbEntity
  8
0
100
AcDbLine
 62
2
  6
CONTINUOUS
 10
0.0
 20
-0.844
 11
9.055
 21
-0.844
  0
LINE
  5
255
100
AcDbEntity
  8
0
100
AcDbLine
 62
2
  6
CONTINUOUS
 10
0.0
 20
-1.094
 11
9.055
 21
-1.094
  0
LINE
  5
256
100
AcDbEntity
  8
0
100
AcDbLine
 62
2
  6
CONTINUOUS
 10
0.0
 20
-1.344
 11
9.055
 21
-1.344
  0
LINE
  5
257
100
AcDbEntity
  8
0
100
AcDbLine
 62
2
  6
CONTINUOUS
 10
0.0
 20
-1.594
 11
9.055
 21
-1.594
  0
LINE
  5
258
100
AcDbEntity
  8
0
100
AcDbLine
 62
2
  6
CONTINUOUS
 10
0.0
 20
-1.844
 11
9.055
 21
-1.844
  0
LINE
  5
259
100
AcDbEntity
  8
0
100
AcDbLine
 62
2
  6
CONTINUOUS
 10
0.0
 20
-2.094
 11
9.055
 21
-2.094
  0
LINE
  5
25A
100
AcDbEntity
  8
0
100
AcDbLine
 62
2
  6
CONTINUOUS
 10
0.0
 20
-2.344
 11
9.055
 21
-2.344
  0
LINE
  5
25B
100
AcDbEntity
  8
0
100
AcDbLine
 62
2
  6
CONTINUOUS
 10
0.0
 20
-2.594
 11
9.055
 21
-2.594
  0
LINE
  5
25C
100
AcDbEntity
  8
0
100
AcDbLine
 62
2
  6
CONTINUOUS
 10
3.055
 20
0.0
 11
3.055
 21
-2.594
  0
LINE
  5
25D
100
AcDbEntity
  8
0
100
AcDbLine
 62
2
  6
CONTINUOUS
 10
9.055
 20
0.0
 11
9.055
 21
-2.594
  0
MTEXT
  5
25E
100
AcDbEntity
  8
0
100
AcDbMText
 62
2
  6
CONTINUOUS
  7
STANDARD
 71
2
 72
1
 10
1.5275
 20
-0.0995
 30
0.0
 11
1.0
 21
0.0
 31
0.0
 44
0.9
  1
Technical Data
 40
0.145
 41
3.248
  0
MTEXT
  5
25F
100
AcDbEntity
  8
0
100
AcDbMText
 62
2
  6
CONTINUOUS
  7
STANDARD
 71
2
 72
1
 10
4.555
 20
-0.0995
 30
0.0
 11
1.0
 21
0.0
 31
0.0
 44
0.9
  1
U.S. Units
 40
0.145
 41
2.32
  0
MTEXT
  5
260
100
AcDbEntity
  8
0
100
AcDbMText
 62
2
  6
CONTINUOUS
  7
STANDARD
 71
2
 72
1
 10
7.555
 20
-0.0995
 30
0.0
 11
1.0
 21
0.0
 31
0.0
 44
0.9
  1
Metric Units
 40
0.145
 41
2.784
  0
MTEXT
  5
261
100
AcDbEntity
  8
0
100
AcDbMText
 62
2
  6
CONTINUOUS
  7
STANDARD
 71
2
 72
1
 10
1.5275
 20
-0.4065
 30
0.0
 11
1.0
 21
0.0
 31
0.0
 44
0.9
  1
Cavity
 40
0.125
 41
1.2
  0
MTEXT
  5
262
100
AcDbEntity
  8
0
100
AcDbMText
 62
2
  6
CONTINUOUS
  7
STANDARD
 71
2
 72
1
 10
6.055
 20
-0.4065
 30
0.0
 11
1.0
 21
0.0
 31
0.0
 44
0.9
  1
T-18A
 40
0.125
 41
1.0
  0
MTEXT
  5
263
100
AcDbEntity
  8
0
100
AcDbMText
 62
2
  6
CONTINUOUS
  7
STANDARD
 71
2
 72
1
 10
1.5275
 20
-0.6565
 30
0.0
 11
1.0
 21
0.0
 31
0.0
 44
0.9
  1
Body Features
 40
0.125
 41
2.6
  0
MTEXT
  5
264
100
AcDbEntity
  8
0
100
AcDbMText
 62
2
  6
CONTINUOUS
  7
STANDARD
 71
2
 72
1
 10
6.055
 20
-0.6565
 30
0.0
 11
1.0
 21
0.0
 31
0.0
 44
0.9
  1
Ninety degree with gauge port
 40
0.125
 41
5.8
  0
MTEXT
  5
265
100
AcDbEntity
  8
0
100
AcDbMText
 62
2
  6
CONTINUOUS
  7
STANDARD
 71
2
 72
1
 10
1.5275
 20
-0.9065
 30
0.0
 11
1.0
 21
0.0
 31
0.0
 44
0.9
  1
Body Type
 40
0.125
 41
1.8
  0
MTEXT
  5
266
100
AcDbEntity
  8
0
100
AcDbMText
 62
2
  6
CONTINUOUS
  7
STANDARD
 71
2
 72
1
 10
6.055
 20
-0.9065
 30
0.0
 11
1.0
 21
0.0
 31
0.0
 44
0.9
  1
Line mount
 40
0.125
 41
2.0
  0
MTEXT
  5
267
100
AcDbEntity
  8
0
100
AcDbMText
 62
2
  6
CONTINUOUS
  7
STANDARD
 71
2
 72
1
 10
1.5275
 20
-1.1565
 30
0.0
 11
1.0
 21
0.0
 31
0.0
 44
0.9
  1
Interface
 40
0.125
 41
1.8
  0
MTEXT
  5
268
100
AcDbEntity
  8
0
100
AcDbMText
 62
2
  6
CONTINUOUS
  7
STANDARD
 71
2
 72
1
 10
6.055
 20
-1.1565
 30
0.0
 11
1.0
 21
0.0
 31
0.0
 44
0.9
  1
None
 40
0.125
 41
0.8
  0
MTEXT
  5
269
100
AcDbEntity
  8
0
100
AcDbMText
 62
2
  6
CONTINUOUS
  7
STANDARD
 71
2
 72
1
 10
1.5275
 20
-1.4065
 30
0.0
 11
1.0
 21
0.0
 31
0.0
 44
0.9
  1
Open Cavity Quantity
 40
0.125
 41
4.0
  0
MTEXT
  5
26A
100
AcDbEntity
  8
0
100
AcDbMText
 62
2
  6
CONTINUOUS
  7
STANDARD
 71
2
 72
1
 10
6.055
 20
-1.4065
 30
0.0
 11
1.0
 21
0.0
 31
0.0
 44
0.9
  1
1
 40
0.125
 41
0.2
  0
MTEXT
  5
26B
100
AcDbEntity
  8
0
100
AcDbMText
 62
2
  6
CONTINUOUS
  7
STANDARD
 71
2
 72
1
 10
1.5275
 20
-1.6565
 30
0.0
 11
1.0
 21
0.0
 31
0.0
 44
0.9
  1
Weight
 40
0.125
 41
1.2
  0
MTEXT
  5
26C
100
AcDbEntity
  8
0
100
AcDbMText
 62
2
  6
CONTINUOUS
  7
STANDARD
 71
2
 72
1
 10
4.555
 20
-1.6565
 30
0.0
 11
1.0
 21
0.0
 31
0.0
 44
0.9
  1
18.868 lb.
 40
0.125
 41
2.0
  0
MTEXT
  5
26D
100
AcDbEntity
  8
0
100
AcDbMText
 62
2
  6
CONTINUOUS
  7
STANDARD
 71
2
 72
1
 10
7.555
 20
-1.6565
 30
0.0
 11
1.0
 21
0.0
 31
0.0
 44
0.9
  1
8,559 kg.
 40
0.125
 41
1.8
  0
MTEXT
  5
26E
100
AcDbEntity
  8
0
100
AcDbMText
 62
2
  6
CONTINUOUS
  7
STANDARD
 71
2
 72
1
 10
1.5275
 20
-1.9065
 30
0.0
 11
1.0
 21
0.0
 31
0.0
 44
0.9
  1
Mounting Hole Thread
 40
0.125
 41
4.0
  0
MTEXT
  5
26F
100
AcDbEntity
  8
0
100
AcDbMText
 62
2
  6
CONTINUOUS
  7
STANDARD
 71
2
 72
1
 10
6.055
 20
-1.9065
 30
0.0
 11
1.0
 21
0.0
 31
0.0
 44
0.9
  1
M10x1.5 - 6H
 40
0.125
 41
2.4
  0
MTEXT
  5
270
100
AcDbEntity
  8
0
100
AcDbMText
 62
2
  6
CONTINUOUS
  7
STANDARD
 71
2
 72
1
 10
1.5275
 20
-2.1565
 30
0.0
 11
1.0
 21
0.0
 31
0.0
 44
0.9
  1
Mounting Hole Depth
 40
0.125
 41
3.8
  0
MTEXT
  5
271
100
AcDbEntity
  8
0
100
AcDbMText
 62
2
  6
CONTINUOUS
  7
STANDARD
 71
2
 72
1
 10
4.555
 20
-2.1565
 30
0.0
 11
1.0
 21
0.0
 31
0.0
 44
0.9
  1
.62 in.
 40
0.125
 41
1.4
  0
MTEXT
  5
272
100
AcDbEntity
  8
0
100
AcDbMText
 62
2
  6
CONTINUOUS
  7
STANDARD
 71
2
 72
1
 10
7.555
 20
-2.1565
 30
0.0
 11
1.0
 21
0.0
 31
0.0
 44
0.9
  1
15,7 mm
 40
0.125
 41
1.4
  0
MTEXT
  5
273
100
AcDbEntity
  8
0
100
AcDbMText
 62
2
  6
CONTINUOUS
  7
STANDARD
 71
2
 72
1
 10
1.5275
 20
-2.4065
 30
0.0
 11
1.0
 21
0.0
 31
0.0
 44
0.9
  1
Mounting Hole Quantity
 40
0.125
 41
4.4
  0
MTEXT
  5
274
100
AcDbEntity
  8
0
100
AcDbMText
 62
2
  6
CONTINUOUS
  7
STANDARD
 71
2
 72
1
 10
6.055
 20
-2.4065
 30
0.0
 11
1.0
 21
0.0
 31
0.0
 44
0.9
  1
2
 40
0.125
 41
0.2
  0
ENDBLK
  5
275
100
AcDbEntity
  8
0
  6
BYBLOCK
 62
0
100
AcDbBlockEnd
  0
BLOCK
  5
276
100
AcDbEntity
  8
0
100
AcDbBlockBegin
  2
*T3
 70
1
 10
0.0
 20
0.0
  3
*T3
  1

  0
LINE
  5
277
100
AcDbEntity
  8
0
100
AcDbLine
 62
2
  6
CONTINUOUS
 10
0.0
 20
0.0
 11
4.6
 21
0.0
  0
LINE
  5
278
100
AcDbEntity
  8
0
100
AcDbLine
 62
2
  6
CONTINUOUS
 10
0.0
 20
0.0
 11
0.0
 21
-1.18775
  0
LINE
  5
279
100
AcDbEntity
  8
0
100
AcDbLine
 62
2
  6
CONTINUOUS
 10
0.0
 20
-0.34375
 11
4.6
 21
-0.34375
  0
LINE
  5
27A
100
AcDbEntity
  8
0
100
AcDbLine
 62
2
  6
CONTINUOUS
 10
0.0
 20
-0.68775
 11
4.6
 21
-0.68775
  0
LINE
  5
27B
100
AcDbEntity
  8
0
100
AcDbLine
 62
2
  6
CONTINUOUS
 10
0.0
 20
-0.93775
 11
4.6
 21
-0.93775
  0
LINE
  5
27C
100
AcDbEntity
  8
0
100
AcDbLine
 62
2
  6
CONTINUOUS
 10
0.0
 20
-1.18775
 11
4.6
 21
-1.18775
  0
LINE
  5
27D
100
AcDbEntity
  8
0
100
AcDbLine
 62
2
  6
CONTINUOUS
 10
1.3
 20
-0.34375
 11
1.3
 21
-1.18775
  0
LINE
  5
27E
100
AcDbEntity
  8
0
100
AcDbLine
 62
2
  6
CONTINUOUS
 10
3.3
 20
-0.34375
 11
3.3
 21
-1.18775
  0
LINE
  5
27F
100
AcDbEntity
  8
0
100
AcDbLine
 62
2
  6
CONTINUOUS
 10
4.6
 20
0.0
 11
4.6
 21
-1.18775
  0
MTEXT
  5
280
100
AcDbEntity
  8
0
100
AcDbMText
 62
2
  6
CONTINUOUS
  7
STANDARD
 71
2
 72
1
 10
2.3
 20
-0.099375
 30
0.0
 11
1.0
 21
0.0
 31
0.0
 44
0.9
  1
Port Headings
 40
0.145
 41
3.016
  0
MTEXT
  5
281
100
AcDbEntity
  8
0
100
AcDbMText
 62
2
  6
CONTINUOUS
  7
STANDARD
 71
2
 72
1
 10
0.65
 20
-0.44325
 30
0.0
 11
1.0
 21
0.0
 31
0.0
 44
0.9
  1
Product
 40
0.145
 41
1.624
  0
MTEXT
  5
282
100
AcDbEntity
  8
0
100
AcDbMText
 62
2
  6
CONTINUOUS
  7
STANDARD
 71
2
 72
1
 10
2.3
 20
-0.44325
 30
0.0
 11
1.0
 21
0.0
 31
0.0
 44
0.9
  1
Port
 40
0.145
 41
0.928
  0
MTEXT
  5
283
100
AcDbEntity
  8
0
100
AcDbMText
 62
2
  6
CONTINUOUS
  7
STANDARD
 71
2
 72
1
 10
3.95
 20
-0.44325
 30
0.0
 11
1.0
 21
0.0
 31
0.0
 44
0.9
  1
Size
 40
0.145
 41
0.928
  0
MTEXT
  5
284
100
AcDbEntity
  8
0
100
AcDbMText
 62
2
  6
CONTINUOUS
  7
STANDARD
 71
2
 72
1
 10
0.65
 20
-0.75025
 30
0.0
 11
1.0
 21
0.0
 31
0.0
 44
0.9
  1
LA8
 40
0.125
 41
0.6
  0
MTEXT
  5
285
100
AcDbEntity
  8
0
100
AcDbMText
 62
2
  6
CONTINUOUS
  7
STANDARD
 71
2
 72
1
 10
2.3
 20
-0.75025
 30
0.0
 11
1.0
 21
0.0
 31
0.0
 44
0.9
  1
Ports 1 &  2
 40
0.125
 41
2.4
  0
MTEXT
  5
286
100
AcDbEntity
  8
0
100
AcDbMText
 62
2
  6
CONTINUOUS
  7
STANDARD
 71
2
 72
1
 10
3.95
 20
-0.75025
 30
0.0
 11
1.0
 21
0.0
 31
0.0
 44
0.9
  1
2" Code 62
 40
0.125
 41
2.0
  0
MTEXT
  5
287
100
AcDbEntity
  8
0
100
AcDbMText
 62
2
  6
CONTINUOUS
  7
STANDARD
 71
2
 72
1
 10
0.65
 20
-1.00025
 30
0.0
 11
1.0
 21
0.0
 31
0.0
 44
0.9
  1
LA8
 40
0.125
 41
0.6
  0
MTEXT
  5
288
100
AcDbEntity
  8
0
100
AcDbMText
 62
2
  6
CONTINUOUS
  7
STANDARD
 71
2
 72
1
 10
2.3
 20
-1.00025
 30
0.0
 11
1.0
 21
0.0
 31
0.0
 44
0.9
  1
Gage Port
 40
0.125
 41
1.8
  0
MTEXT
  5
289
100
AcDbEntity
  8
0
100
AcDbMText
 62
2
  6
CONTINUOUS
  7
STANDARD
 71
2
 72
1
 10
3.95
 20
-1.00025
 30
0.0
 11
1.0
 21
0.0
 31
0.0
 44
0.9
  1
1/4" NPTF
 40
0.125
 41
1.8
  0
ENDBLK
  5
28A
100
AcDbEntity
  8
0
  6
BYBLOCK
 62
0
100
AcDbBlockEnd
  0
ENDSEC
  0
SECTION
  2
ENTITIES
  0
IMAGE
  5
28B
100
AcDbEntity
  8
0
100
AcDbRasterImage
 62
7
  6
CONTINUOUS
 10
19.2297077316
 20
0.3094318264
 30
0.0
 11
0.0066666667
 21
0.0
 31
0.0
 12
0.0
 22
0.0066666667
 32
0.0
 13
369.0
 23
92.0
340
       404
 70
9
280
0
281
50
282
50
283
0
360
       3FE
 71
1
 91
2
 14
-0.5
 24
-0.5
 14
368.5
 24
91.5
  0
INSERT
  5
28C
100
AcDbEntity
  8
0
100
AcDbBlockReference
 62
2
  6
CONTINUOUS
  2
SUN_FIRST_THIRD_ANGLE_BL0
 10
20.4816717061
 20
1.2289683772
  0
ACAD_TABLE
  5
28D
100
AcDbEntity
  8
0
 62
2
  6
CONTINUOUS
100
AcDbBlockReference
  2
*T1
 10
12.42375
 20
0.30125
 30
0.0
100
AcDbTable
342
       406
343
20F
 11
1.0
 21
0.0
 31
0.0
 90
6
 91
4
 92
6
 93
20
 94
0
 95
0
 96
0
 70
1
 41
0.0
141
0.525
141
0.1
141
0.525
141
0.1
142
4.1
142
1.1
142
0.7
142
0.5
142
0.4
142
2.475
171
1
172
0
173
0
174
0
175
1
176
1
 91
33
178
0
145
0.0
301
CELL_VALUE
 90
4
  1
Relief manifold assembly
304
ACVALUE_END
170
2
140
0.125
171
1
172
0
173
0
174
0
175
1
176
1
 91
33
178
0
145
0.0
301
CELL_VALUE
 90
4
  1
Jul-10-19
304
ACVALUE_END
170
5
140
0.125
171
1
172
0
173
0
174
0
175
1
176
1
 91
33
178
0
145
0.0
301
CELL_VALUE
 90
4
  1
0.900
304
ACVALUE_END
170
5
140
0.125
171
1
172
0
173
0
174
0
175
1
176
1
 91
33
178
0
145
0.0
301
CELL_VALUE
 90
4
  1
C
304
ACVALUE_END
170
5
140
0.125
171
1
172
0
173
0
174
0
175
1
176
1
 91
33
178
0
145
0.0
301
CELL_VALUE
 90
4
  1
2
304
ACVALUE_END
170
5
140
0.125
171
1
172
0
173
0
174
0
175
1
176
1
 91
33
178
0
145
0.0
301
CELL_VALUE
 90
4
  1
 
304
ACVALUE_END
170
1
140
0.125
171
1
172
0
173
0
174
0
175
1
176
1
 91
33
178
0
145
0.0
301
CELL_VALUE
 90
4
  1
DESCRIPTION
304
ACVALUE_END
170
1
140
0.06
171
1
172
0
173
0
174
0
175
1
176
1
 91
33
178
0
145
0.0
301
CELL_VALUE
 90
4
  1
DATE
304
ACVALUE_END
170
1
140
0.06
171
1
172
0
173
0
174
0
175
1
176
1
 91
33
178
0
145
0.0
301
CELL_VALUE
 90
4
  1
SCALE
304
ACVALUE_END
170
1
140
0.06
171
1
172
0
173
0
174
0
175
1
176
1
 91
33
178
0
145
0.0
301
CELL_VALUE
 90
4
  1
DWG SIZE
304
ACVALUE_END
170
1
140
0.06
171
1
172
0
173
0
174
0
175
1
176
1
 91
33
178
0
145
0.0
301
CELL_VALUE
 90
4
  1
SHEET
304
ACVALUE_END
170
1
140
0.06
171
1
172
0
173
0
174
0
175
1
176
1
 91
33
178
0
145
0.0
301
CELL_VALUE
 90
4
  1
 
304
ACVALUE_END
170
1
140
0.125
171
1
172
0
173
0
174
0
175
1
176
1
 91
33
178
0
145
0.0
301
CELL_VALUE
 90
4
  1
RPKCLAN-LA8
304
ACVALUE_END
170
5
140
0.125
171
1
172
0
173
0
174
0
175
4
176
1
 91
33
178
0
145
0.0
301
CELL_VALUE
 90
4
  1
ALL DIMENSIONS IN INCH\PVIEWS ARE THIRD ANGLE
304
ACVALUE_END
170
5
140
0.12
171
1
172
0
173
1
174
0
175
1
176
1
 91
1
178
0
145
0.0
170
1
171
1
172
0
173
1
174
0
175
1
176
1
 91
1
178
0
145
0.0
170
1
171
1
172
0
173
1
174
0
175
1
176
1
 91
1
178
0
145
0.0
170
5
171
1
172
0
173
0
174
0
175
1
176
1
 91
33
178
0
145
0.0
301
CELL_VALUE
 90
4
  1
 
304
ACVALUE_END
170
1
140
0.125
171
1
172
0
173
0
174
0
175
1
176
1
 91
33
178
0
145
0.0
301
CELL_VALUE
 90
4
  1
MODEL
304
ACVALUE_END
170
1
140
0.06
171
1
172
0
173
0
174
0
175
1
176
1
 91
33
178
0
145
0.0
301
CELL_VALUE
 90
4
  1
 
304
ACVALUE_END
170
1
140
0.125
171
1
172
0
173
0
174
0
175
1
176
1
 91
33
178
0
145
0.0
301
CELL_VALUE
 90
4
  1
 
304
ACVALUE_END
170
1
140
0.125
171
1
172
0
173
0
174
0
175
1
176
1
 91
33
178
0
145
0.0
301
CELL_VALUE
 90
4
  1
 
304
ACVALUE_END
170
1
140
0.125
171
1
172
0
173
0
174
0
175
1
176
1
 91
33
178
0
145
0.0
301
CELL_VALUE
 90
4
  1
 
304
ACVALUE_END
170
1
140
0.125
171
1
172
0
173
0
174
0
175
1
176
1
 91
33
178
0
145
0.0
301
CELL_VALUE
 90
4
  1
 
304
ACVALUE_END
170
1
140
0.125
  0
ACAD_TABLE
  5
28E
100
AcDbEntity
  8
0
 62
2
  6
CONTINUOUS
100
AcDbBlockReference
  2
*T2
 10
12.4237499994
 20
16.47875
 30
0.0
100
AcDbTable
342
       405
343
210
 11
1.0
 21
0.0
 31
0.0
 90
22
 91
10
 92
3
 93
16
 94
0
 95
0
 96
0
 41
0.028
141
0.344
141
0.25
141
0.25
141
0.25
141
0.25
141
0.25
141
0.25
141
0.25
141
0.25
141
0.25
142
3.055
142
3.0
142
3.0
171
1
172
0
173
0
174
0
175
1
176
1
 91
33
178
0
145
0.0
301
CELL_VALUE
 90
4
  1
Technical Data
304
ACVALUE_END
170
5
140
0.145
171
1
172
0
173
0
174
0
175
1
176
1
 91
33
178
0
145
0.0
301
CELL_VALUE
 90
4
  1
U.S. Units
304
ACVALUE_END
170
5
140
0.145
171
1
172
0
173
0
174
0
175
1
176
1
 91
33
178
0
145
0.0
301
CELL_VALUE
 90
4
  1
Metric Units
304
ACVALUE_END
170
5
140
0.145
171
1
172
0
173
0
174
0
175
1
176
1
 91
33
178
0
145
0.0
301
CELL_VALUE
 90
4
  1
Cavity
304
ACVALUE_END
170
5
140
0.125
171
1
172
0
173
0
174
0
175
2
176
1
 91
33
178
0
145
0.0
301
CELL_VALUE
 90
4
  1
T-18A
304
ACVALUE_END
170
5
140
0.125
171
1
172
0
173
1
174
0
175
1
176
1
 91
1
178
0
145
0.0
170
1
171
1
172
0
173
0
174
0
175
1
176
1
 91
33
178
0
145
0.0
301
CELL_VALUE
 90
4
  1
Body Features
304
ACVALUE_END
170
5
140
0.125
171
1
172
0
173
0
174
0
175
2
176
1
 91
33
178
0
145
0.0
301
CELL_VALUE
 90
4
  1
Ninety degree with gauge port
304
ACVALUE_END
170
5
140
0.125
171
1
172
0
173
1
174
0
175
1
176
1
 91
1
178
0
145
0.0
170
1
171
1
172
0
173
0
174
0
175
1
176
1
 91
33
178
0
145
0.0
301
CELL_VALUE
 90
4
  1
Body Type
304
ACVALUE_END
170
5
140
0.125
171
1
172
0
173
0
174
0
175
2
176
1
 91
33
178
0
145
0.0
301
CELL_VALUE
 90
4
  1
Line mount
304
ACVALUE_END
170
5
140
0.125
171
1
172
0
173
1
174
0
175
1
176
1
 91
1
178
0
145
0.0
170
1
171
1
172
0
173
0
174
0
175
1
176
1
 91
33
178
0
145
0.0
301
CELL_VALUE
 90
4
  1
Interface
304
ACVALUE_END
170
5
140
0.125
171
1
172
0
173
0
174
0
175
2
176
1
 91
33
178
0
145
0.0
301
CELL_VALUE
 90
4
  1
None
304
ACVALUE_END
170
5
140
0.125
171
1
172
0
173
1
174
0
175
1
176
1
 91
1
178
0
145
0.0
170
1
171
1
172
0
173
0
174
0
175
1
176
1
 91
33
178
0
145
0.0
301
CELL_VALUE
 90
4
  1
Open Cavity Quantity
304
ACVALUE_END
170
5
140
0.125
171
1
172
0
173
0
174
0
175
2
176
1
 91
33
178
0
145
0.0
301
CELL_VALUE
 90
4
  1
1
304
ACVALUE_END
170
5
140
0.125
171
1
172
0
173
1
174
0
175
1
176
1
 91
1
178
0
145
0.0
170
1
171
1
172
0
173
0
174
0
175
1
176
1
 91
33
178
0
145
0.0
301
CELL_VALUE
 90
4
  1
Weight
304
ACVALUE_END
170
5
140
0.125
171
1
172
0
173
0
174
0
175
1
176
1
 91
33
178
0
145
0.0
301
CELL_VALUE
 90
4
  1
18.868 lb.
304
ACVALUE_END
170
5
140
0.125
171
1
172
0
173
0
174
0
175
1
176
1
 91
33
178
0
145
0.0
301
CELL_VALUE
 90
4
  1
8,559 kg.
304
ACVALUE_END
170
5
140
0.125
171
1
172
0
173
0
174
0
175
1
176
1
 91
33
178
0
145
0.0
301
CELL_VALUE
 90
4
  1
Mounting Hole Thread
304
ACVALUE_END
170
5
140
0.125
171
1
172
0
173
0
174
0
175
2
176
1
 91
33
178
0
145
0.0
301
CELL_VALUE
 90
4
  1
M10x1.5 - 6H
304
ACVALUE_END
170
5
140
0.125
171
1
172
0
173
1
174
0
175
1
176
1
 91
1
178
0
145
0.0
170
1
171
1
172
0
173
0
174
0
175
1
176
1
 91
33
178
0
145
0.0
301
CELL_VALUE
 90
4
  1
Mounting Hole Depth
304
ACVALUE_END
170
5
140
0.125
171
1
172
0
173
0
174
0
175
1
176
1
 91
33
178
0
145
0.0
301
CELL_VALUE
 90
4
  1
.62 in.
304
ACVALUE_END
170
5
140
0.125
171
1
172
0
173
0
174
0
175
1
176
1
 91
33
178
0
145
0.0
301
CELL_VALUE
 90
4
  1
15,7 mm
304
ACVALUE_END
170
5
140
0.125
171
1
172
0
173
0
174
0
175
1
176
1
 91
33
178
0
145
0.0
301
CELL_VALUE
 90
4
  1
Mounting Hole Quantity
304
ACVALUE_END
170
5
140
0.125
171
1
172
0
173
0
174
0
175
2
176
1
 91
33
178
0
145
0.0
301
CELL_VALUE
 90
4
  1
2
304
ACVALUE_END
170
5
140
0.125
171
1
172
0
173
1
174
0
175
1
176
1
 91
1
178
0
145
0.0
170
1
  0
ACAD_TABLE
  5
28F
100
AcDbEntity
  8
0
 62
2
  6
CONTINUOUS
100
AcDbBlockReference
  2
*T3
 10
0.52125
 20
1.709
 30
0.0
100
AcDbTable
342
       405
343
211
 11
1.0
 21
0.0
 31
0.0
 90
22
 91
4
 92
3
 93
16
 94
0
 95
0
 96
0
 41
0.05
141
0.34375
141
0.344
141
0.25
141
0.25
142
1.3
142
2.0
142
1.3
171
1
172
0
173
0
174
0
175
3
176
1
 91
33
178
0
145
0.0
301
CELL_VALUE
 90
4
  1
Port Headings
304
ACVALUE_END
170
5
140
0.145
171
1
172
0
173
1
174
0
175
1
176
1
 91
1
178
0
145
0.0
170
1
171
1
172
0
173
1
174
0
175
1
176
1
 91
1
178
0
145
0.0
170
1
171
1
172
0
173
0
174
0
175
1
176
1
 91
33
178
0
145
0.0
301
CELL_VALUE
 90
4
  1
Product
304
ACVALUE_END
170
5
140
0.145
171
1
172
0
173
0
174
0
175
1
176
1
 91
33
178
0
145
0.0
301
CELL_VALUE
 90
4
  1
Port
304
ACVALUE_END
170
5
140
0.145
171
1
172
0
173
0
174
0
175
1
176
1
 91
33
178
0
145
0.0
301
CELL_VALUE
 90
4
  1
Size
304
ACVALUE_END
170
5
140
0.145
171
1
172
0
173
0
174
0
175
1
176
1
 91
33
178
0
145
0.0
301
CELL_VALUE
 90
4
  1
LA8
304
ACVALUE_END
170
5
140
0.125
171
1
172
0
173
0
174
0
175
1
176
1
 91
33
178
0
145
0.0
301
CELL_VALUE
 90
4
  1
Ports 1 &  2
304
ACVALUE_END
170
5
140
0.125
171
1
172
0
173
0
174
0
175
1
176
1
 91
33
178
0
145
0.0
301
CELL_VALUE
 90
4
  1
2" Code 62
304
ACVALUE_END
170
5
140
0.125
171
1
172
0
173
0
174
0
175
1
176
1
 91
33
178
0
145
0.0
301
CELL_VALUE
 90
4
  1
LA8
304
ACVALUE_END
170
5
140
0.125
171
1
172
0
173
0
174
0
175
1
176
1
 91
33
178
0
145
0.0
301
CELL_VALUE
 90
4
  1
Gage Port
304
ACVALUE_END
170
5
140
0.125
171
1
172
0
173
0
174
0
175
1
176
1
 91
33
178
0
145
0.0
301
CELL_VALUE
 90
4
  1
1/4" NPTF
304
ACVALUE_END
170
5
140
0.125
  0
MTEXT
  5
290
100
AcDbEntity
  8
0
100
AcDbMText
 62
2
  6
CONTINUOUS
  7
STANDARD
 71
1
 72
1
 10
0.52125
 20
5.75995
 30
0.0
 11
1.0
 21
0.0
 31
0.0
 44
0.6
  3
Notes\P \P1. Important: Carefully consider\P   the maximum system pressure. The\P   pressure rating of the manifold is\P   dependent on the manifold material,\P   with the port type/size a secondary\P   consideration. Manifolds\P   constructed of alu
  1
minum are not\P   rated for pressures higher than\P   3000 psi (210 bar), regardless of\P   the port type/size specified.
 40
0.1
 41
3.04
  0
LINE
  5
291
100
AcDbEntity
  8
0
100
AcDbLine
 62
7
  6
CONTINUOUS
 10
0.30125
 20
0.30125
 11
0.30125
 21
16.69875
  0
LINE
  5
292
100
AcDbEntity
  8
0
100
AcDbLine
 62
7
  6
CONTINUOUS
 10
0.30125
 20
0.30125
 11
21.69875
 21
0.30125
  0
LINE
  5
293
100
AcDbEntity
  8
0
100
AcDbLine
 62
7
  6
CONTINUOUS
 10
0.30125
 20
16.69875
 11
21.69875
 21
16.69875
  0
LINE
  5
294
100
AcDbEntity
  8
0
100
AcDbLine
 62
7
  6
CONTINUOUS
 10
21.69875
 20
0.30125
 11
21.69875
 21
16.69875
  0
LINE
  5
295
100
AcDbEntity
  8
0
100
AcDbLine
 62
7
  6
CONTINUOUS
 10
7.7004102913
 20
5.0921053404
 11
7.7004102913
 21
9.8195399753
  0
LINE
  5
296
100
AcDbEntity
  8
0
100
AcDbLine
 62
7
  6
CONTINUOUS
 10
7.7004102913
 20
5.0921053404
 11
12.9164100623
 21
4.7303745276
  0
LINE
  5
297
100
AcDbEntity
  8
0
100
AcDbLine
 62
7
  6
CONTINUOUS
 10
9.0835899377
 20
11.1555889973
 11
7.7004102913
 21
9.8195399753
  0
LINE
  5
298
100
AcDbEntity
  8
0
100
AcDbLine
 62
7
  6
CONTINUOUS
 10
10.8400426737
 20
12.2181547414
 11
10.8404552604
 21
12.2185458606
  0
LINE
  5
299
100
AcDbEntity
  8
0
100
AcDbLine
 62
7
  6
CONTINUOUS
 10
10.8669920058
 20
12.243235131
 11
10.867335566
 21
12.2435608209
  0
LINE
  5
29A
100
AcDbEntity
  8
0
100
AcDbLine
 62
7
  6
CONTINUOUS
 10
10.8673352608
 20
12.2435605228
 11
10.840455477
 21
12.2185460622
  0
LINE
  5
29B
100
AcDbEntity
  8
0
100
AcDbLine
 62
7
  6
CONTINUOUS
 10
10.322802867
 20
11.5238293092
 11
10.3765624346
 21
11.5738582304
  0
LINE
  5
29C
100
AcDbEntity
  8
0
100
AcDbLine
 62
7
  6
CONTINUOUS
 10
10.7847060565
 20
11.8151443667
 11
10.7833602793
 21
11.8137777562
  0
LINE
  5
29D
100
AcDbEntity
  8
0
100
AcDbLine
 62
7
  6
CONTINUOUS
 10
10.7179266857
 20
11.6907048774
 11
10.7600581905
 21
11.7299252987
  0
LINE
  5
29E
100
AcDbEntity
  8
0
100
AcDbLine
 62
7
  6
CONTINUOUS
 10
11.2160422739
 20
11.5266342128
 11
11.2347849952
 21
11.5358927583
  0
LINE
  5
29F
100
AcDbEntity
  8
0
100
AcDbLine
 62
7
  6
CONTINUOUS
 10
11.234981387
 20
11.7241845424
 11
11.235589323
 21
11.7247608419
  0
LINE
  5
2A0
100
AcDbEntity
  8
0
100
AcDbLine
 62
7
  6
CONTINUOUS
 10
11.1734173537
 20
11.7877301438
 11
11.173866659
 21
11.7881559873
  0
LINE
  5
2A1
100
AcDbEntity
  8
0
100
AcDbLine
 62
7
  6
CONTINUOUS
 10
11.2302123416
 20
11.7197464451
 11
11.2349813355
 21
11.7241844945
  0
LINE
  5
2A2
100
AcDbEntity
  8
0
100
AcDbLine
 62
7
  6
CONTINUOUS
 10
10.1916570616
 20
10.1371782359
 11
10.1916570616
 21
10.7144473493
  0
LINE
  5
2A3
100
AcDbEntity
  8
0
100
AcDbLine
 62
7
  6
CONTINUOUS
 10
10.2042412326
 20
10.1333647566
 11
10.2042412326
 21
10.7022919943
  0
LINE
  5
2A4
100
AcDbEntity
  8
0
100
AcDbLine
 62
7
  6
CONTINUOUS
 10
10.2971
 20
10.822213724
 11
10.2971
 21
11.4750830286
  0
LINE
  5
2A5
100
AcDbEntity
  8
0
100
AcDbLine
 62
7
  6
CONTINUOUS
 10
10.3538
 20
7.5330775888
 11
10.3538
 21
8.4651331944
  0
LINE
  5
2A6
100
AcDbEntity
  8
0
100
AcDbLine
 62
7
  6
CONTINUOUS
 10
10.7179266857
 20
11.6023304208
 11
10.7179266857
 21
11.6907048774
  0
LINE
  5
2A7
100
AcDbEntity
  8
0
100
AcDbLine
 62
7
  6
CONTINUOUS
 10
10.7561
 20
11.5289816929
 11
10.7561
 21
11.5436627841
  0
LINE
  5
2A8
100
AcDbEntity
  8
0
100
AcDbLine
 62
7
  6
CONTINUOUS
 10
10.7561
 20
11.741099017
 11
10.7561
 21
11.7463150167
  0
LINE
  5
2A9
100
AcDbEntity
  8
0
100
AcDbLine
 62
7
  6
CONTINUOUS
 10
10.76105
 20
11.7224083511
 11
10.76105
 21
11.7284913432
  0
LINE
  5
2AA
100
AcDbEntity
  8
0
100
AcDbLine
 62
7
  6
CONTINUOUS
 10
10.7616089216
 20
10.0446802428
 11
10.7616089216
 21
10.5580348041
  0
LINE
  5
2AB
100
AcDbEntity
  8
0
100
AcDbLine
 62
7
  6
CONTINUOUS
 10
10.7935080603
 20
11.5293245438
 11
10.7935080603
 21
11.6176990005
  0
LINE
  5
2AC
100
AcDbEntity
  8
0
100
AcDbLine
 62
7
  6
CONTINUOUS
 10
10.808573651
 20
10.0421145616
 11
10.808573651
 21
10.5547777891
  0
LINE
  5
2AD
100
AcDbEntity
  8
0
100
AcDbLine
 62
7
  6
CONTINUOUS
 10
10.8344
 20
12.2070616632
 11
10.8344
 21
12.0340643374
  0
LINE
  5
2AE
100
AcDbEntity
  8
0
100
AcDbLine
 62
7
  6
CONTINUOUS
 10
10.8344
 20
12.0010296722
 11
10.8344
 21
11.7863043483
  0
LINE
  5
2AF
100
AcDbEntity
  8
0
100
AcDbLine
 62
7
  6
CONTINUOUS
 10
10.943387315
 20
12.215909012
 11
10.943387315
 21
12.216350649
  0
LINE
  5
2B0
100
AcDbEntity
  8
0
100
AcDbLine
 62
7
  6
CONTINUOUS
 10
10.954789286
 20
12.2138845931
 11
10.954789286
 21
12.2193016951
  0
LINE
  5
2B1
100
AcDbEntity
  8
0
100
AcDbLine
 62
7
  6
CONTINUOUS
 10
10.9784821709
 20
12.2433159703
 11
10.9784821709
 21
12.2114080007
  0
LINE
  5
2B2
100
AcDbEntity
  8
0
100
AcDbLine
 62
7
  6
CONTINUOUS
 10
11.0108472627
 20
12.21090584
 11
11.0108472627
 21
12.2231893359
  0
LINE
  5
2B3
100
AcDbEntity
  8
0
100
AcDbLine
 62
7
  6
CONTINUOUS
 10
11.0264226491
 20
12.2117584165
 11
11.0264226491
 21
12.2221091792
  0
LINE
  5
2B4
100
AcDbEntity
  8
0
100
AcDbLine
 62
7
  6
CONTINUOUS
 10
11.0587877408
 20
12.2377467601
 11
11.0587877408
 21
12.2163911775
  0
LINE
  5
2B5
100
AcDbEntity
  8
0
100
AcDbLine
 62
7
  6
CONTINUOUS
 10
11.0755813747
 20
11.509762693
 11
11.0755813747
 21
11.5981371497
  0
LINE
  5
2B6
100
AcDbEntity
  8
0
100
AcDbLine
 62
7
  6
CONTINUOUS
 10
11.1656
 20
12.2070616632
 11
11.1656
 21
12.0340643374
  0
LINE
  5
2B7
100
AcDbEntity
  8
0
100
AcDbLine
 62
7
  6
CONTINUOUS
 10
11.1656
 20
12.0010296722
 11
11.1656
 21
11.7863043483
  0
LINE
  5
2B8
100
AcDbEntity
  8
0
100
AcDbLine
 62
7
  6
CONTINUOUS
 10
11.23895
 20
11.7224083511
 11
11.23895
 21
11.7284912211
  0
LINE
  5
2B9
100
AcDbEntity
  8
0
100
AcDbLine
 62
7
  6
CONTINUOUS
 10
11.2439
 20
11.5289816929
 11
11.2439
 21
11.5406022138
  0
LINE
  5
2BA
100
AcDbEntity
  8
0
100
AcDbLine
 62
7
  6
CONTINUOUS
 10
11.2439
 20
11.741099017
 11
11.2439
 21
11.7463150167
  0
LINE
  5
2BB
100
AcDbEntity
  8
0
100
AcDbLine
 62
7
  6
CONTINUOUS
 10
11.2820733143
 20
11.5632067192
 11
11.2820733143
 21
11.6515811759
  0
LINE
  5
2BC
100
AcDbEntity
  8
0
100
AcDbLine
 62
7
  6
CONTINUOUS
 10
11.56995186
 20
10.0814546486
 11
11.56995186
 21
10.6075796406
  0
LINE
  5
2BD
100
AcDbEntity
  8
0
100
AcDbLine
 62
7
  6
CONTINUOUS
 10
11.6043324184
 20
10.0875703084
 11
11.6043324184
 21
10.6164779805
  0
LINE
  5
2BE
100
AcDbEntity
  8
0
100
AcDbLine
 62
7
  6
CONTINUOUS
 10
11.7029
 20
10.822213724
 11
11.7029
 21
11.4750830286
  0
LINE
  5
2BF
100
AcDbEntity
  8
0
100
AcDbLine
 62
7
  6
CONTINUOUS
 10
12.9164100623
 20
9.4578091625
 11
14.2995897087
 21
10.7938581846
  0
LINE
  5
2C0
100
AcDbEntity
  8
0
100
AcDbLine
 62
4
  6
CONTINUOUS
 10
13.4337963085
 20
7.2462393651
 11
13.4497691288
 21
7.2318622109
  0
LINE
  5
2C1
100
AcDbEntity
  8
0
100
AcDbLine
 62
7
  6
CONTINUOUS
 10
11.8083429384
 20
10.1371782406
 11
11.8083429384
 21
10.8135370223
  0
LINE
  5
2C2
100
AcDbEntity
  8
0
100
AcDbLine
 62
4
  6
CONTINUOUS
 10
13.8011711597
 20
8.3842413833
 11
13.7891915504
 21
8.3801213967
  0
LINE
  5
2C3
100
AcDbEntity
  8
0
100
AcDbLine
 62
7
  6
CONTINUOUS
 10
7.7004102913
 20
9.8195399753
 11
12.9164100623
 21
9.4578091625
  0
LINE
  5
2C4
100
AcDbEntity
  8
0
100
AcDbLine
 62
4
  6
CONTINUOUS
 10
13.7662306152
 20
7.5971519835
 11
13.7822034342
 21
7.5827748258
  0
LINE
  5
2C5
100
AcDbEntity
  8
0
100
AcDbLine
 62
4
  6
CONTINUOUS
 10
12.9761001565
 20
7.6916040214
 11
12.9813412381
 21
7.6836265208
  0
LINE
  5
2C6
100
AcDbEntity
  8
0
100
AcDbLine
 62
4
  6
CONTINUOUS
 10
13.6055041219
 20
8.1430815257
 11
13.5995143173
 21
8.1484729617
  0
LINE
  5
2C7
100
AcDbEntity
  8
0
100
AcDbLine
 62
4
  6
CONTINUOUS
 10
13.6624072959
 20
8.1980457742
 11
13.6564174912
 21
8.2034372102
  0
LINE
  5
2C8
100
AcDbEntity
  8
0
100
AcDbLine
 62
4
  6
CONTINUOUS
 10
14.247004178
 20
6.5546164717
 11
14.2417630965
 21
6.5625939757
  0
LINE
  5
2C9
100
AcDbEntity
  8
0
100
AcDbLine
 62
7
  6
CONTINUOUS
 10
12.9164100623
 20
4.7303745276
 11
12.9164100623
 21
9.4578091625
  0
LINE
  5
2CA
100
AcDbEntity
  8
0
100
AcDbLine
 62
4
  6
CONTINUOUS
 10
12.9839617788
 20
7.6731177628
 11
12.9839617788
 21
7.6470377692
  0
LINE
  5
2CB
100
AcDbEntity
  8
0
100
AcDbLine
 62
4
  6
CONTINUOUS
 10
12.9656179934
 20
7.5641190292
 11
12.9629974527
 21
7.5224677812
  0
LINE
  5
2CC
100
AcDbEntity
  8
0
100
AcDbLine
 62
4
  6
CONTINUOUS
 10
12.970859075
 20
7.686541525
 11
12.9761001565
 21
7.6916040214
  0
LINE
  5
2CD
100
AcDbEntity
  8
0
100
AcDbLine
 62
4
  6
CONTINUOUS
 10
13.4178234868
 20
8.1182759417
 11
13.4298031017
 21
8.1298473618
  0
LINE
  5
2CE
100
AcDbEntity
  8
0
100
AcDbLine
 62
4
  6
CONTINUOUS
 10
13.7432696883
 20
8.4326328514
 11
13.7442679857
 21
8.4335971328
  0
LINE
  5
2CF
100
AcDbEntity
  8
0
100
AcDbLine
 62
4
  6
CONTINUOUS
 10
13.6713920128
 20
8.3184957756
 11
13.6564174912
 21
8.3040314977
  0
LINE
  5
2D0
100
AcDbEntity
  8
0
100
AcDbLine
 62
4
  6
CONTINUOUS
 10
13.5436094408
 20
8.1950672819
 11
13.5585839624
 21
8.2095315599
  0
LINE
  5
2D1
100
AcDbEntity
  8
0
100
AcDbLine
 62
4
  6
CONTINUOUS
 10
13.6055041219
 20
8.2548529564
 11
13.6174837312
 21
8.2664243711
  0
LINE
  5
2D2
100
AcDbEntity
  8
0
100
AcDbLine
 62
4
  6
CONTINUOUS
 10
13.6294633604
 20
8.277995805
 11
13.6414429697
 21
8.2895672197
  0
LINE
  5
2D3
100
AcDbEntity
  8
0
100
AcDbLine
 62
4
  6
CONTINUOUS
 10
13.7622373996
 20
8.4062456862
 11
13.7742170489
 21
8.4178171394
  0
LINE
  5
2D4
100
AcDbEntity
  8
0
100
AcDbLine
 62
4
  6
CONTINUOUS
 10
13.7891915504
 20
8.4322813981
 11
13.8011711597
 21
8.4438528127
  0
LINE
  5
2D5
100
AcDbEntity
  8
0
100
AcDbLine
 62
4
  6
CONTINUOUS
 10
13.6624072959
 20
8.2539314896
 11
13.6743869051
 21
8.2655029043
  0
LINE
  5
2D6
100
AcDbEntity
  8
0
100
AcDbLine
 62
4
  6
CONTINUOUS
 10
14.2522452596
 20
6.7161589673
 11
14.2574863411
 21
6.7081814668
  0
LINE
  5
2D7
100
AcDbEntity
  8
0
100
AcDbLine
 62
4
  6
CONTINUOUS
 10
13.6349540074
 20
7.8071530807
 11
13.6309608027
 21
7.8144730784
  0
LINE
  5
2D8
100
AcDbEntity
  8
0
100
AcDbLine
 62
4
  6
CONTINUOUS
 10
13.4327980053
 20
8.0209687906
 11
13.4118336791
 21
8.0677816628
  0
LINE
  5
2D9
100
AcDbEntity
  8
0
100
AcDbLine
 62
4
  6
CONTINUOUS
 10
13.4727300561
 20
7.3732636214
 11
13.4787198632
 21
7.3566950469
  0
LINE
  5
2DA
100
AcDbEntity
  8
0
100
AcDbLine
 62
4
  6
CONTINUOUS
 10
12.9813412381
 20
7.6836265208
 11
12.9839617788
 21
7.6731177628
  0
LINE
  5
2DB
100
AcDbEntity
  8
0
100
AcDbLine
 62
4
  6
CONTINUOUS
 10
12.9629974527
 20
7.6528677775
 11
12.9656179934
 21
7.6684390319
  0
LINE
  5
2DC
100
AcDbEntity
  8
0
100
AcDbLine
 62
4
  6
CONTINUOUS
 10
12.970859075
 20
7.5952615239
 11
12.9656179934
 21
7.5641190292
  0
LINE
  5
2DD
100
AcDbEntity
  8
0
100
AcDbLine
 62
4
  6
CONTINUOUS
 10
12.9839617788
 20
7.6470377692
 11
12.9813412381
 21
7.6314665148
  0
LINE
  5
2DE
100
AcDbEntity
  8
0
100
AcDbLine
 62
4
  6
CONTINUOUS
 10
12.9656179934
 20
7.6684390319
 11
12.970859075
 21
7.686541525
  0
LINE
  5
2DF
100
AcDbEntity
  8
0
100
AcDbLine
 62
4
  6
CONTINUOUS
 10
12.9813412381
 20
7.6314665148
 11
12.970859075
 21
7.5952615239
  0
LINE
  5
2E0
100
AcDbEntity
  8
0
100
AcDbLine
 62
4
  6
CONTINUOUS
 10
12.9629974527
 20
7.5224677812
 11
12.9839617788
 21
7.5427177665
  0
LINE
  5
2E1
100
AcDbEntity
  8
0
100
AcDbLine
 62
4
  6
CONTINUOUS
 10
13.7742170489
 20
8.3060457087
 11
13.7622373996
 21
8.2944742554
  0
LINE
  5
2E2
100
AcDbEntity
  8
0
100
AcDbLine
 62
4
  6
CONTINUOUS
 10
13.7253002744
 20
8.2587957301
 11
13.7193104698
 21
8.2530100228
  0
LINE
  5
2E3
100
AcDbEntity
  8
0
100
AcDbLine
 62
4
  6
CONTINUOUS
 10
13.6743869051
 20
8.2096171889
 11
13.6624072959
 21
8.1980457742
  0
LINE
  5
2E4
100
AcDbEntity
  8
0
100
AcDbLine
 62
4
  6
CONTINUOUS
 10
13.6174837312
 20
8.1546529403
 11
13.6055041219
 21
8.1430815257
  0
LINE
  5
2E5
100
AcDbEntity
  8
0
100
AcDbLine
 62
4
  6
CONTINUOUS
 10
13.414828583
 20
7.9589030872
 11
13.4268081981
 21
7.9704745076
  0
LINE
  5
2E6
100
AcDbEntity
  8
0
100
AcDbLine
 62
4
  6
CONTINUOUS
 10
13.4507674266
 20
7.9936173466
 11
13.4597521411
 21
8.0022959148
  0
LINE
  5
2E7
100
AcDbEntity
  8
0
100
AcDbLine
 62
4
  6
CONTINUOUS
 10
13.6893614267
 20
8.2240814668
 11
13.7043359482
 21
8.2385457448
  0
LINE
  5
2E8
100
AcDbEntity
  8
0
100
AcDbLine
 62
4
  6
CONTINUOUS
 10
13.7891915504
 20
8.3205099673
 11
13.8011711597
 21
8.332081382
  0
LINE
  5
2E9
100
AcDbEntity
  8
0
100
AcDbLine
 62
4
  6
CONTINUOUS
 10
13.5735584839
 20
8.0749672642
 11
13.5795482886
 21
8.0807529716
  0
LINE
  5
2EA
100
AcDbEntity
  8
0
100
AcDbLine
 62
4
  6
CONTINUOUS
 10
13.6349540074
 20
7.8742159336
 11
13.6439387144
 21
7.8828944946
  0
LINE
  5
2EB
100
AcDbEntity
  8
0
100
AcDbLine
 62
4
  6
CONTINUOUS
 10
13.6349540074
 20
7.8071530807
 11
13.6439387144
 21
7.8158316417
  0
LINE
  5
2EC
100
AcDbEntity
  8
0
100
AcDbLine
 62
4
  6
CONTINUOUS
 10
13.5970185573
 20
7.7258016743
 11
13.6129913788
 21
7.741230236
  0
LINE
  5
2ED
100
AcDbEntity
  8
0
100
AcDbLine
 62
7
  6
CONTINUOUS
 10
10.7697876584
 20
11.7197464451
 11
10.7650186645
 21
11.7241844945
  0
LINE
  5
2EE
100
AcDbEntity
  8
0
100
AcDbLine
 62
4
  6
CONTINUOUS
 10
13.7891915504
 20
8.3801213967
 11
13.7861966581
 21
8.3846799808
  0
LINE
  5
2EF
100
AcDbEntity
  8
0
100
AcDbLine
 62
4
  6
CONTINUOUS
 10
13.804166052
 20
8.3796827992
 11
13.8011711597
 21
8.3842413833
  0
LINE
  5
2F0
100
AcDbEntity
  8
0
100
AcDbLine
 62
4
  6
CONTINUOUS
 10
13.4118336791
 20
7.9671873754
 11
13.414828583
 21
7.9589030872
  0
LINE
  5
2F1
100
AcDbEntity
  8
0
100
AcDbLine
 62
4
  6
CONTINUOUS
 10
13.6364514683
 20
7.3749263719
 11
13.6304616637
 21
7.3914949512
  0
LINE
  5
2F2
100
AcDbEntity
  8
0
100
AcDbLine
 62
4
  6
CONTINUOUS
 10
13.4447776195
 20
8.0101859234
 11
13.4507674266
 21
7.9936173466
  0
LINE
  5
2F3
100
AcDbEntity
  8
0
100
AcDbLine
 62
4
  6
CONTINUOUS
 10
13.6713919986
 20
7.4086763345
 11
13.665402194
 21
7.4252449138
  0
LINE
  5
2F4
100
AcDbEntity
  8
0
100
AcDbLine
 62
4
  6
CONTINUOUS
 10
13.4298031017
 20
8.1298473618
 11
13.4327980053
 21
8.1215630699
  0
LINE
  5
2F5
100
AcDbEntity
  8
0
100
AcDbLine
 62
4
  6
CONTINUOUS
 10
13.6803767155
 20
7.5738349045
 11
13.6863665202
 21
7.5572663275
  0
LINE
  5
2F6
100
AcDbEntity
  8
0
100
AcDbLine
 62
4
  6
CONTINUOUS
 10
13.6349540074
 20
7.7177359342
 11
13.6289641978
 21
7.7343045087
  0
LINE
  5
2F7
100
AcDbEntity
  8
0
100
AcDbLine
 62
4
  6
CONTINUOUS
 10
13.713320651
 20
7.6056563044
 11
13.7193104556
 21
7.5890877274
  0
LINE
  5
2F8
100
AcDbEntity
  8
0
100
AcDbLine
 62
4
  6
CONTINUOUS
 10
13.6439387144
 20
7.8158316417
 11
13.649928524
 21
7.7992630649
  0
LINE
  5
2F9
100
AcDbEntity
  8
0
100
AcDbLine
 62
4
  6
CONTINUOUS
 10
13.5585839624
 20
8.2095315599
 11
13.5615788647
 21
8.2012472667
  0
LINE
  5
2FA
100
AcDbEntity
  8
0
100
AcDbLine
 62
4
  6
CONTINUOUS
 10
13.5735584839
 20
8.2239958378
 11
13.5825432009
 21
8.1209029777
  0
LINE
  5
2FB
100
AcDbEntity
  8
0
100
AcDbLine
 62
4
  6
CONTINUOUS
 10
13.5076705989
 20
7.4070135961
 11
13.5196502181
 21
7.2621050211
  0
LINE
  5
2FC
100
AcDbEntity
  8
0
100
AcDbLine
 62
4
  6
CONTINUOUS
 10
13.6050049668
 20
7.84528738
 11
13.6169845836
 21
7.7003788026
  0
LINE
  5
2FD
100
AcDbEntity
  8
0
100
AcDbLine
 62
4
  6
CONTINUOUS
 10
13.4118336791
 20
8.0677816628
 11
13.4118336791
 21
8.0901359471
  0
LINE
  5
2FE
100
AcDbEntity
  8
0
100
AcDbLine
 62
4
  6
CONTINUOUS
 10
13.4327980053
 20
7.998614504
 11
13.4327980053
 21
8.0209687906
  0
LINE
  5
2FF
100
AcDbEntity
  8
0
100
AcDbLine
 62
4
  6
CONTINUOUS
 10
13.4447776195
 20
8.1443116362
 11
13.4447776195
 21
8.0101859234
  0
LINE
  5
300
100
AcDbEntity
  8
0
100
AcDbLine
 62
4
  6
CONTINUOUS
 10
13.4577555395
 20
7.202319349
 11
13.4577555395
 21
7.3587993483
  0
LINE
  5
301
100
AcDbEntity
  8
0
100
AcDbLine
 62
4
  6
CONTINUOUS
 10
13.4657419457
 20
8.0304359087
 11
13.4657419457
 21
8.1645616215
  0
LINE
  5
302
100
AcDbEntity
  8
0
100
AcDbLine
 62
4
  6
CONTINUOUS
 10
13.47772156
 20
8.0196530416
 11
13.47772156
 21
8.1761330409
  0
LINE
  5
303
100
AcDbEntity
  8
0
100
AcDbLine
 62
4
  6
CONTINUOUS
 10
13.4787198632
 20
7.3566950469
 11
13.4787198632
 21
7.2449236185
  0
LINE
  5
304
100
AcDbEntity
  8
0
100
AcDbLine
 62
4
  6
CONTINUOUS
 10
13.4986858861
 20
8.0399030269
 11
13.4986858861
 21
8.1963830262
  0
LINE
  5
305
100
AcDbEntity
  8
0
100
AcDbLine
 62
4
  6
CONTINUOUS
 10
13.5436094466
 20
7.28524786
 11
13.5436094466
 21
7.4417278594
  0
LINE
  5
306
100
AcDbEntity
  8
0
100
AcDbLine
 62
4
  6
CONTINUOUS
 10
13.5436094408
 20
8.0832958511
 11
13.5436094408
 21
8.2397758505
  0
LINE
  5
307
100
AcDbEntity
  8
0
100
AcDbLine
 62
4
  6
CONTINUOUS
 10
13.5615788647
 20
8.2012472667
 11
13.5615788647
 21
8.1006529828
  0
LINE
  5
308
100
AcDbEntity
  8
0
100
AcDbLine
 62
4
  6
CONTINUOUS
 10
13.5660712193
 20
7.8076802655
 11
13.5660712193
 21
7.6512002662
  0
LINE
  5
309
100
AcDbEntity
  8
0
100
AcDbLine
 62
4
  6
CONTINUOUS
 10
13.5675686751
 20
7.308390699
 11
13.5675686751
 21
7.4648706983
  0
LINE
  5
30A
100
AcDbEntity
  8
0
100
AcDbLine
 62
4
  6
CONTINUOUS
 10
13.5995143173
 20
8.1484729617
 11
13.5995143173
 21
8.2378901023
  0
LINE
  5
30B
100
AcDbEntity
  8
0
100
AcDbLine
 62
4
  6
CONTINUOUS
 10
13.6174837312
 20
8.3111329397
 11
13.6174837312
 21
8.1546529403
  0
LINE
  5
30C
100
AcDbEntity
  8
0
100
AcDbLine
 62
4
  6
CONTINUOUS
 10
13.6289641978
 20
7.7343045087
 11
13.6289641978
 21
7.7790130796
  0
LINE
  5
30D
100
AcDbEntity
  8
0
100
AcDbLine
 62
4
  6
CONTINUOUS
 10
13.6294633604
 20
8.1662243743
 11
13.6294633604
 21
8.277995805
  0
LINE
  5
30E
100
AcDbEntity
  8
0
100
AcDbLine
 62
4
  6
CONTINUOUS
 10
13.6304616637
 20
7.3914949512
 11
13.6304616637
 21
7.5032663796
  0
LINE
  5
30F
100
AcDbEntity
  8
0
100
AcDbLine
 62
4
  6
CONTINUOUS
 10
13.6309608027
 20
7.8144730784
 11
13.6309608027
 21
7.8480045095
  0
LINE
  5
310
100
AcDbEntity
  8
0
100
AcDbLine
 62
4
  6
CONTINUOUS
 10
13.6434395646
 20
8.2803186356
 11
13.6434395646
 21
8.2579643513
  0
LINE
  5
311
100
AcDbEntity
  8
0
100
AcDbLine
 62
4
  6
CONTINUOUS
 10
13.6479319191
 20
7.8643973501
 11
13.6479319191
 21
7.830865919
  0
LINE
  5
312
100
AcDbEntity
  8
0
100
AcDbLine
 62
4
  6
CONTINUOUS
 10
13.649928524
 20
7.7992630649
 11
13.649928524
 21
7.754554494
  0
LINE
  5
313
100
AcDbEntity
  8
0
100
AcDbLine
 62
4
  6
CONTINUOUS
 10
13.6564174912
 20
8.2034372102
 11
13.6564174912
 21
8.2369686401
  0
LINE
  5
314
100
AcDbEntity
  8
0
100
AcDbLine
 62
4
  6
CONTINUOUS
 10
13.6653023521
 20
5.7840956353
 11
13.6653023521
 21
5.627615636
  0
LINE
  5
315
100
AcDbEntity
  8
0
100
AcDbLine
 62
4
  6
CONTINUOUS
 10
13.665402194
 20
7.4252449138
 11
13.665402194
 21
7.5370163422
  0
LINE
  5
316
100
AcDbEntity
  8
0
100
AcDbLine
 62
4
  6
CONTINUOUS
 10
13.6743869051
 20
8.2096171889
 11
13.6743869051
 21
8.2990343354
  0
LINE
  5
317
100
AcDbEntity
  8
0
100
AcDbLine
 62
4
  6
CONTINUOUS
 10
13.6863665144
 20
8.3329600343
 11
13.6863665144
 21
8.2323657468
  0
LINE
  5
318
100
AcDbEntity
  8
0
100
AcDbLine
 62
4
  6
CONTINUOUS
 10
13.6863665202
 20
7.5572663275
 11
13.6863665202
 21
7.4454948991
  0
LINE
  5
319
100
AcDbEntity
  8
0
100
AcDbLine
 62
4
  6
CONTINUOUS
 10
13.6983461294
 20
7.4347120271
 11
13.6983461294
 21
7.5911920264
  0
LINE
  5
31A
100
AcDbEntity
  8
0
100
AcDbLine
 62
4
  6
CONTINUOUS
 10
13.7043359482
 20
8.2385457448
 11
13.7043359482
 21
8.3503171756
  0
LINE
  5
31B
100
AcDbEntity
  8
0
100
AcDbLine
 62
4
  6
CONTINUOUS
 10
13.7163155575
 20
8.2612943028
 11
13.7163155575
 21
8.4065971588
  0
LINE
  5
31C
100
AcDbEntity
  8
0
100
AcDbLine
 62
4
  6
CONTINUOUS
 10
13.4956909846
 20
7.2389621773
 11
13.5076705989
 21
7.4070135961
  0
LINE
  5
31D
100
AcDbEntity
  8
0
100
AcDbLine
 62
4
  6
CONTINUOUS
 10
13.5930253526
 20
7.6772359612
 11
13.6050049668
 21
7.84528738
  0
LINE
  5
31E
100
AcDbEntity
  8
0
100
AcDbLine
 62
4
  6
CONTINUOUS
 10
13.5795482886
 20
8.0807529716
 11
13.5915278978
 21
8.2413529598
  0
LINE
  5
31F
100
AcDbEntity
  8
0
100
AcDbLine
 62
4
  6
CONTINUOUS
 10
13.6309608027
 20
7.8480045095
 11
13.6349540074
 21
7.8742159336
  0
LINE
  5
320
100
AcDbEntity
  8
0
100
AcDbLine
 62
4
  6
CONTINUOUS
 10
13.4118336791
 20
8.0901359471
 11
13.4178234868
 21
8.1182759417
  0
LINE
  5
321
100
AcDbEntity
  8
0
100
AcDbLine
 62
4
  6
CONTINUOUS
 10
13.4268081981
 20
7.9704745076
 11
13.4327980053
 21
7.998614504
  0
LINE
  5
322
100
AcDbEntity
  8
0
100
AcDbLine
 62
4
  6
CONTINUOUS
 10
13.4597521411
 20
8.0022959148
 11
13.4657419457
 21
8.0304359087
  0
LINE
  5
323
100
AcDbEntity
  8
0
100
AcDbLine
 62
4
  6
CONTINUOUS
 10
13.4787198632
 20
7.2449236185
 11
13.4727300561
 21
7.2167836221
  0
LINE
  5
324
100
AcDbEntity
  8
0
100
AcDbLine
 62
4
  6
CONTINUOUS
 10
13.5995143173
 20
8.2378901023
 11
13.6055041219
 21
8.2548529564
  0
LINE
  5
325
100
AcDbEntity
  8
0
100
AcDbLine
 62
4
  6
CONTINUOUS
 10
13.6564174912
 20
8.2369686401
 11
13.6624072959
 21
8.2539314896
  0
LINE
  5
326
100
AcDbEntity
  8
0
100
AcDbLine
 62
4
  6
CONTINUOUS
 10
13.4497691288
 20
7.2914736427
 11
13.4337963085
 21
7.2462393651
  0
LINE
  5
327
100
AcDbEntity
  8
0
100
AcDbLine
 62
4
  6
CONTINUOUS
 10
13.6439387144
 20
7.7264144952
 11
13.6349540074
 21
7.7177359342
  0
LINE
  5
328
100
AcDbEntity
  8
0
100
AcDbLine
 62
4
  6
CONTINUOUS
 10
13.5660712193
 20
7.6512002662
 11
13.5810457383
 21
7.6656645417
  0
LINE
  5
329
100
AcDbEntity
  8
0
100
AcDbLine
 62
4
  6
CONTINUOUS
 10
13.4577555395
 20
7.3587993483
 11
13.4727300561
 21
7.3732636214
  0
LINE
  5
32A
100
AcDbEntity
  8
0
100
AcDbLine
 62
4
  6
CONTINUOUS
 10
13.5316298274
 20
7.4301564351
 11
13.5555890559
 21
7.453299274
  0
LINE
  5
32B
100
AcDbEntity
  8
0
100
AcDbLine
 62
4
  6
CONTINUOUS
 10
13.5675686751
 20
7.4648706983
 11
13.585538099
 21
7.48222783
  0
LINE
  5
32C
100
AcDbEntity
  8
0
100
AcDbLine
 62
4
  6
CONTINUOUS
 10
13.6364514683
 20
7.5314063712
 11
13.6484310775
 21
7.5429777859
  0
LINE
  5
32D
100
AcDbEntity
  8
0
100
AcDbLine
 62
4
  6
CONTINUOUS
 10
13.6713919986
 20
7.5651563338
 11
13.6803767155
 21
7.5738349045
  0
LINE
  5
32E
100
AcDbEntity
  8
0
100
AcDbLine
 62
4
  6
CONTINUOUS
 10
13.6983461294
 20
7.5911920264
 11
13.713320651
 21
7.6056563044
  0
LINE
  5
32F
100
AcDbEntity
  8
0
100
AcDbLine
 62
4
  6
CONTINUOUS
 10
13.736281592
 20
7.6278348717
 11
13.7542510059
 21
7.6451919937
  0
LINE
  5
330
100
AcDbEntity
  8
0
100
AcDbLine
 62
4
  6
CONTINUOUS
 10
13.7482612013
 20
7.5723434335
 11
13.736281592
 21
7.5607720188
  0
LINE
  5
331
100
AcDbEntity
  8
0
100
AcDbLine
 62
4
  6
CONTINUOUS
 10
13.5795482944
 20
7.4093792698
 11
13.5675686751
 21
7.3978078455
  0
LINE
  5
332
100
AcDbEntity
  8
0
100
AcDbLine
 62
4
  6
CONTINUOUS
 10
13.4996841894
 20
7.2875278904
 11
13.5156570084
 21
7.3029564497
  0
LINE
  5
333
100
AcDbEntity
  8
0
100
AcDbLine
 62
4
  6
CONTINUOUS
 10
13.713320651
 20
7.4491763051
 11
13.6983461294
 21
7.4347120271
  0
LINE
  5
334
100
AcDbEntity
  8
0
100
AcDbLine
 62
4
  6
CONTINUOUS
 10
13.6803767155
 20
7.4173549051
 11
13.6713919986
 21
7.4086763345
  0
LINE
  5
335
100
AcDbEntity
  8
0
100
AcDbLine
 62
4
  6
CONTINUOUS
 10
13.6484310775
 20
7.3864977865
 11
13.6364514683
 21
7.3749263719
  0
LINE
  5
336
100
AcDbEntity
  8
0
100
AcDbLine
 62
4
  6
CONTINUOUS
 10
13.4727300561
 20
7.2167836221
 11
13.4577555395
 21
7.202319349
  0
LINE
  5
337
100
AcDbEntity
  8
0
100
AcDbLine
 62
4
  6
CONTINUOUS
 10
13.5675686751
 20
7.308390699
 11
13.585538099
 21
7.3257478306
  0
LINE
  5
338
100
AcDbEntity
  8
0
100
AcDbLine
 62
4
  6
CONTINUOUS
 10
13.736281592
 20
7.4713548723
 11
13.7542510059
 21
7.4887119943
  0
LINE
  5
339
100
AcDbEntity
  8
0
100
AcDbLine
 62
7
  6
CONTINUOUS
 10
14.2995897087
 20
10.7938581846
 11
11.7029
 21
10.9739392275
  0
LINE
  5
33A
100
AcDbEntity
  8
0
100
AcDbLine
 62
7
  6
CONTINUOUS
 10
10.2971
 20
11.0714317887
 11
9.0835899377
 21
11.1555889973
  0
LINE
  5
33B
100
AcDbEntity
  8
0
100
AcDbLine
 62
7
  6
CONTINUOUS
 10
10.7839577261
 20
11.5266342128
 11
10.7703971227
 21
11.5333328912
  0
LINE
  5
33C
100
AcDbEntity
  8
0
100
AcDbLine
 62
7
  6
CONTINUOUS
 10
11.2437094669
 20
11.726419098
 11
11.2399417315
 21
11.7299253712
  0
LINE
  5
33D
100
AcDbEntity
  8
0
100
AcDbLine
 62
7
  6
CONTINUOUS
 10
11.677197133
 20
11.5238293092
 11
11.6234375654
 21
11.5738582304
  0
LINE
  5
33E
100
AcDbEntity
  8
0
100
AcDbLine
 62
4
  6
CONTINUOUS
 10
13.6863665144
 20
8.2323657468
 11
13.6893614267
 21
8.2240814668
  0
LINE
  5
33F
100
AcDbEntity
  8
0
100
AcDbLine
 62
4
  6
CONTINUOUS
 10
13.7193104698
 20
8.2530100228
 11
13.7163155575
 21
8.2612943028
  0
LINE
  5
340
100
AcDbEntity
  8
0
100
AcDbLine
 62
4
  6
CONTINUOUS
 10
13.7622373996
 20
8.2944742554
 11
13.7592425073
 21
8.3027585547
  0
LINE
  5
341
100
AcDbEntity
  8
0
100
AcDbLine
 62
4
  6
CONTINUOUS
 10
13.7861966581
 20
8.3287942666
 11
13.7891915504
 21
8.3205099673
  0
LINE
  5
342
100
AcDbEntity
  8
0
100
AcDbLine
 62
4
  6
CONTINUOUS
 10
13.8011711597
 20
8.4438528127
 11
13.804166052
 21
8.4355685099
  0
LINE
  5
343
100
AcDbEntity
  8
0
100
AcDbLine
 62
4
  6
CONTINUOUS
 10
14.2417630965
 20
6.5625939757
 11
14.236522015
 21
6.5836114789
  0
LINE
  5
344
100
AcDbEntity
  8
0
100
AcDbLine
 62
4
  6
CONTINUOUS
 10
13.6439387144
 20
7.8828944946
 11
13.6479319191
 21
7.8643973501
  0
LINE
  5
345
100
AcDbEntity
  8
0
100
AcDbLine
 62
4
  6
CONTINUOUS
 10
13.6414429697
 20
8.2895672197
 11
13.6434395646
 21
8.2803186356
  0
LINE
  5
346
100
AcDbEntity
  8
0
100
AcDbLine
 62
4
  6
CONTINUOUS
 10
13.47772156
 20
8.1761330409
 11
13.4986858861
 21
8.0399030269
  0
LINE
  5
347
100
AcDbEntity
  8
0
100
AcDbLine
 62
4
  6
CONTINUOUS
 10
13.6743869051
 20
8.2990343354
 11
13.6713920128
 21
8.3184957756
  0
LINE
  5
348
100
AcDbEntity
  8
0
100
AcDbLine
 62
4
  6
CONTINUOUS
 10
13.7193104556
 20
7.5890877274
 11
13.7193104556
 21
7.477316299
  0
LINE
  5
349
100
AcDbEntity
  8
0
100
AcDbLine
 62
4
  6
CONTINUOUS
 10
13.736281592
 20
7.4713548723
 11
13.736281592
 21
7.6278348717
  0
LINE
  5
34A
100
AcDbEntity
  8
0
100
AcDbLine
 62
4
  6
CONTINUOUS
 10
13.7432696883
 20
8.2761528521
 11
13.7432696883
 21
8.3879242828
  0
LINE
  5
34B
100
AcDbEntity
  8
0
100
AcDbLine
 62
4
  6
CONTINUOUS
 10
13.7432696883
 20
8.4214557046
 11
13.7432696883
 21
8.4326328514
  0
LINE
  5
34C
100
AcDbEntity
  8
0
100
AcDbLine
 62
4
  6
CONTINUOUS
 10
13.7592425073
 20
8.3027585547
 11
13.7592425073
 21
8.3921756953
  0
LINE
  5
34D
100
AcDbEntity
  8
0
100
AcDbLine
 62
4
  6
CONTINUOUS
 10
13.7861966581
 20
8.3846799808
 11
13.7861966581
 21
8.4182114073
  0
LINE
  5
34E
100
AcDbEntity
  8
0
100
AcDbLine
 62
4
  6
CONTINUOUS
 10
13.804166052
 20
8.3461513693
 11
13.804166052
 21
8.3796827992
  0
LINE
  5
34F
100
AcDbEntity
  8
0
100
AcDbLine
 62
4
  6
CONTINUOUS
 10
13.7442679857
 20
8.4335971328
 11
13.7432696883
 21
8.4214557046
  0
LINE
  5
350
100
AcDbEntity
  8
0
100
AcDbLine
 62
4
  6
CONTINUOUS
 10
13.7592425073
 20
8.3921756953
 11
13.7622373996
 21
8.4062456862
  0
LINE
  5
351
100
AcDbEntity
  8
0
100
AcDbLine
 62
4
  6
CONTINUOUS
 10
13.6289641978
 20
7.7790130796
 11
13.6349540074
 21
7.8071530807
  0
LINE
  5
352
100
AcDbEntity
  8
0
100
AcDbLine
 62
4
  6
CONTINUOUS
 10
13.7861966581
 20
8.4182114073
 11
13.7891915504
 21
8.4322813981
  0
LINE
  5
353
100
AcDbEntity
  8
0
100
AcDbLine
 62
4
  6
CONTINUOUS
 10
13.649928524
 20
7.754554494
 11
13.6439387144
 21
7.7264144952
  0
LINE
  5
354
100
AcDbEntity
  8
0
100
AcDbLine
 62
4
  6
CONTINUOUS
 10
13.8011711597
 20
8.332081382
 11
13.804166052
 21
8.3461513693
  0
LINE
  5
355
100
AcDbEntity
  8
0
100
AcDbLine
 62
4
  6
CONTINUOUS
 10
13.6304616637
 20
7.5032663796
 11
13.6364514683
 21
7.5314063712
  0
LINE
  5
356
100
AcDbEntity
  8
0
100
AcDbLine
 62
4
  6
CONTINUOUS
 10
13.665402194
 20
7.5370163422
 11
13.6713919986
 21
7.5651563338
  0
LINE
  5
357
100
AcDbEntity
  8
0
100
AcDbLine
 62
4
  6
CONTINUOUS
 10
13.6863665202
 20
7.4454948991
 11
13.6803767155
 21
7.4173549051
  0
LINE
  5
358
100
AcDbEntity
  8
0
100
AcDbLine
 62
4
  6
CONTINUOUS
 10
13.7193104556
 20
7.477316299
 11
13.713320651
 21
7.4491763051
  0
LINE
  5
359
100
AcDbEntity
  8
0
100
AcDbLine
 62
4
  6
CONTINUOUS
 10
13.6479319191
 20
7.830865919
 11
13.6439387144
 21
7.8158316417
  0
LINE
  5
35A
100
AcDbEntity
  8
0
100
AcDbLine
 62
4
  6
CONTINUOUS
 10
13.7822034342
 20
7.5827748258
 11
13.7662306152
 21
7.5375405518
  0
LINE
  5
35B
100
AcDbEntity
  8
0
100
AcDbLine
 62
7
  6
CONTINUOUS
 10
11.1326647392
 20
12.2435605228
 11
11.159544523
 21
12.2185460622
  0
LINE
  5
35C
100
AcDbEntity
  8
0
100
AcDbLine
 62
4
  6
CONTINUOUS
 10
14.2574863411
 20
6.7081814668
 11
14.2601068819
 21
6.6976727088
  0
LINE
  5
35D
100
AcDbEntity
  8
0
100
AcDbLine
 62
4
  6
CONTINUOUS
 10
14.236522015
 20
6.5836114789
 11
14.2339014742
 21
6.6202002305
  0
LINE
  5
35E
100
AcDbEntity
  8
0
100
AcDbLine
 62
4
  6
CONTINUOUS
 10
14.2601068819
 20
6.6455127121
 11
14.2601068819
 21
6.5933527131
  0
LINE
  5
35F
100
AcDbEntity
  8
0
100
AcDbLine
 62
7
  6
CONTINUOUS
 10
14.2995897087
 20
6.0664235497
 11
14.2995897087
 21
10.7938581846
  0
LINE
  5
360
100
AcDbEntity
  8
0
100
AcDbLine
 62
4
  6
CONTINUOUS
 10
14.2339014742
 20
6.6202002305
 11
14.236522015
 21
6.6618514785
  0
LINE
  5
361
100
AcDbEntity
  8
0
100
AcDbLine
 62
4
  6
CONTINUOUS
 10
14.236522015
 20
6.6618514785
 11
14.2417630965
 21
6.6929939779
  0
LINE
  5
362
100
AcDbEntity
  8
0
100
AcDbLine
 62
4
  6
CONTINUOUS
 10
14.2601068819
 20
6.5933527131
 11
14.2574863411
 21
6.5777814646
  0
LINE
  5
363
100
AcDbEntity
  8
0
100
AcDbLine
 62
4
  6
CONTINUOUS
 10
14.2417630965
 20
6.6929939779
 11
14.247004178
 21
6.711096471
  0
LINE
  5
364
100
AcDbEntity
  8
0
100
AcDbLine
 62
4
  6
CONTINUOUS
 10
14.2574863411
 20
6.5777814646
 11
14.2522452596
 21
6.559678968
  0
LINE
  5
365
100
AcDbEntity
  8
0
100
AcDbLine
 62
4
  6
CONTINUOUS
 10
14.247004178
 20
6.711096471
 11
14.2522452596
 21
6.7161589673
  0
LINE
  5
366
100
AcDbEntity
  8
0
100
AcDbLine
 62
4
  6
CONTINUOUS
 10
14.2496247188
 20
6.6353877195
 11
14.2601068819
 21
6.6455127121
  0
LINE
  5
367
100
AcDbEntity
  8
0
100
AcDbLine
 62
4
  6
CONTINUOUS
 10
14.2522452596
 20
6.559678968
 11
14.247004178
 21
6.5546164717
  0
LINE
  5
368
100
AcDbEntity
  8
0
100
AcDbLine
 62
7
  6
CONTINUOUS
 10
12.9164100623
 20
4.7303745276
 11
14.2995897087
 21
6.0664235497
  0
ARC
  5
369
100
AcDbEntity
  8
0
100
AcDbCircle
 62
7
  6
CONTINUOUS
 10
10.988328852
 20
13.4885418302
 40
2.9392657894
100
AcDbArc
 50
266.0332805143
 51
266.4938028829
  0
ARC
  5
36A
100
AcDbEntity
  8
0
100
AcDbCircle
 62
7
  6
CONTINUOUS
 10
10.9846585774
 20
13.4356375159
 40
2.8862343141
100
AcDbArc
 50
265.5677337418
 51
266.0333146416
  0
ARC
  5
36B
100
AcDbEntity
  8
0
100
AcDbCircle
 62
7
  6
CONTINUOUS
 10
11.2739059666
 20
11.8222809095
 40
1.250256911
100
AcDbArc
 50
283.6970455503
 51
285.3245812014
  0
ARC
  5
36C
100
AcDbEntity
  8
0
100
AcDbCircle
 62
7
  6
CONTINUOUS
 10
10.8098786708
 20
8.10538986
 40
0.8058354853
100
AcDbArc
 50
284.0454525067
 51
289.7809997473
  0
ARC
  5
36D
100
AcDbEntity
  8
0
100
AcDbCircle
 62
7
  6
CONTINUOUS
 10
10.9906459333
 20
8.379573766
 40
0.8056459161
100
AcDbArc
 50
173.6045953082
 51
180.0123097687
  0
ARC
  5
36E
100
AcDbEntity
  8
0
100
AcDbCircle
 62
7
  6
CONTINUOUS
 10
10.5295384328
 20
7.1742684747
 40
0.4184887271
100
AcDbArc
 50
114.8616682689
 51
116.6430602034
  0
ARC
  5
36F
100
AcDbEntity
  8
0
100
AcDbCircle
 62
7
  6
CONTINUOUS
 10
10.5209060403
 20
7.2021867884
 40
0.3781271403
100
AcDbArc
 50
116.2563104913
 51
117.0654402776
  0
ARC
  5
370
100
AcDbEntity
  8
0
100
AcDbCircle
 62
7
  6
CONTINUOUS
 10
11.2265517598
 20
12.3011295254
 40
0.3154277196
100
AcDbArc
 50
193.3867843975
 51
194.3626690792
  0
ARC
  5
371
100
AcDbEntity
  8
0
100
AcDbCircle
 62
7
  6
CONTINUOUS
 10
11.0011178523
 20
11.9700603012
 40
0.2533159482
100
AcDbArc
 50
84.2669212813
 51
87.7988306398
  0
ARC
  5
372
100
AcDbEntity
  8
0
100
AcDbCircle
 62
7
  6
CONTINUOUS
 10
9.0578069948
 20
7.2277638078
 40
0.1728589691
100
AcDbArc
 50
187.4115031066
 51
194.1617888662
  0
ARC
  5
373
100
AcDbEntity
  8
0
100
AcDbCircle
 62
7
  6
CONTINUOUS
 10
12.3717056511
 20
6.9979441554
 40
0.1728589691
100
AcDbArc
 50
187.4115031066
 51
194.1617888662
  0
ARC
  5
374
100
AcDbEntity
  8
0
100
AcDbCircle
 62
7
  6
CONTINUOUS
 10
10.7588949538
 20
11.6452217358
 40
0.0612136845
100
AcDbArc
 50
129.2019555262
 51
132.0104778633
  0
ARC
  5
375
100
AcDbEntity
  8
0
100
AcDbCircle
 62
7
  6
CONTINUOUS
 10
11.1348052108
 20
12.0174174759
 40
0.0263060995
100
AcDbArc
 50
12.4596883596
 51
13.2149549042
  0
ARC
  5
376
100
AcDbEntity
  8
0
100
AcDbCircle
 62
7
  6
CONTINUOUS
 10
10.8645065082
 20
12.0175475883
 40
0.0256062079
100
AcDbArc
 50
166.6564597082
 51
192.3634137254
  0
ARC
  5
377
100
AcDbEntity
  8
0
100
AcDbCircle
 62
7
  6
CONTINUOUS
 10
10.9434933712
 20
12.2386463766
 40
0.0222959798
100
AcDbArc
 50
261.9141577599
 51
269.727457854
  0
SPLINE
  5
378
100
AcDbEntity
  8
0
100
AcDbSpline
 62
7
  6
CONTINUOUS
 70
0
 71
3
 72
15
 73
11
 74
0
 42
0.0000001
 43
0.0000001
 44
0.0000000001
 40
0.0
 40
0.0
 40
0.0
 40
0.0
 40
0.1109141597
 40
0.2233259531
 40
0.3386682446
 40
0.458255825
 40
0.5832573953
 40
0.7146811304
 40
0.8533726466
 40
1.0
 40
1.0
 40
1.0
 40
1.0
 10
10.8344000075
 20
12.0010296524
 30
0.0
 10
10.83440001
 20
12.0014776044
 30
0.0
 10
10.8344549541
 20
12.002380486
 30
0.0
 10
10.8347014396
 20
12.0037289444
 30
0.0
 10
10.8351114344
 20
12.0050736103
 30
0.0
 10
10.8356838631
 20
12.0064126518
 30
0.0
 10
10.8364176577
 20
12.007744812
 30
0.0
 10
10.8373116323
 20
12.0090690347
 30
0.0
 10
10.838364603
 20
12.0103841378
 30
0.0
 10
10.8391490273
 20
12.0112296988
 30
0.0
 10
10.8395652891
 20
12.0116509025
 30
0.0
  0
SPLINE
  5
379
100
AcDbEntity
  8
0
100
AcDbSpline
 62
7
  6
CONTINUOUS
 70
0
 71
3
 72
32
 73
28
 74
0
 42
0.0000001
 43
0.0000001
 44
0.0000000001
 40
0.0
 40
0.0
 40
0.0
 40
0.0
 40
0.0850320109
 40
0.1678189962
 40
0.2481551985
 40
0.3258443536
 40
0.4007007542
 40
0.4725504717
 40
0.5412328456
 40
0.5743409262
 40
0.6066038378
 40
0.6380060351
 40
0.6685331502
 40
0.6981721398
 40
0.7269113492
 40
0.7547406595
 40
0.7816516059
 40
0.8076375341
 40
0.8326938118
 40
0.8568180153
 40
0.8800102391
 40
0.9022733396
 40
0.9236133692
 40
0.9440399133
 40
0.9635667097
 40
0.9822121272
 40
1.0
 40
1.0
 40
1.0
 40
1.0
 10
10.7178354586
 20
11.6797026272
 30
0.0
 10
10.7076692094
 20
11.6784277139
 30
0.0
 10
10.687625359
 20
11.6757463929
 30
0.0
 10
10.658060493
 20
11.6712631951
 30
0.0
 10
10.6294556902
 20
11.6663818137
 30
0.0
 10
10.6018912703
 20
11.6611160906
 30
0.0
 10
10.575444383
 20
11.655480953
 30
0.0
 10
10.5501892317
 20
11.6494923574
 30
0.0
 10
10.529955158
 20
11.6441583719
 30
0.0
 10
10.5144247203
 20
11.6397165729
 30
0.0
 10
10.5032607067
 20
11.6363483065
 30
0.0
 10
10.492445594
 20
11.6329047711
 30
0.0
 10
10.4819869471
 20
11.6293883537
 30
0.0
 10
10.4718920891
 20
11.6258015428
 30
0.0
 10
10.4621680807
 20
11.6221468516
 30
0.0
 10
10.452821716
 20
11.6184268503
 30
0.0
 10
10.4438595193
 20
11.614644147
 30
0.0
 10
10.4352877394
 20
11.6108013889
 30
0.0
 10
10.4271123426
 20
11.6069012656
 30
0.0
 10
10.4193390109
 20
11.6029464872
 30
0.0
 10
10.4119731286
 20
11.5989398067
 30
0.0
 10
10.4050197939
 20
11.5948839763
 30
0.0
 10
10.3984837894
 20
11.5907817872
 30
0.0
 10
10.3923696337
 20
11.586636018
 30
0.0
 10
10.3866814587
 20
11.5824494239
 30
0.0
 10
10.3814233561
 20
11.5782249152
 30
0.0
 10
10.3781309637
 20
11.5753179171
 30
0.0
 10
10.3765619361
 20
11.5738577622
 30
0.0
  0
SPLINE
  5
37A
100
AcDbEntity
  8
0
100
AcDbSpline
 62
7
  6
CONTINUOUS
 70
0
 71
3
 72
10
 73
6
 74
0
 42
0.0000001
 43
0.0000001
 44
0.0000000001
 40
0.0
 40
0.0
 40
0.0
 40
0.0
 40
0.2526825874
 40
0.5036497772
 40
1.0
 40
1.0
 40
1.0
 40
1.0
 10
11.7957587674
 20
10.8256923772
 30
0.0
 10
11.7881141845
 20
10.8305313883
 30
0.0
 10
11.7727942657
 20
10.8400472002
 30
0.0
 10
11.7420330271
 20
10.8583733749
 30
0.0
 10
11.7186358922
 20
10.8713794679
 30
0.0
 10
11.7029041564
 20
10.8796473534
 30
0.0
  0
SPLINE
  5
37B
100
AcDbEntity
  8
0
100
AcDbSpline
 62
7
  6
CONTINUOUS
 70
0
 71
3
 72
9
 73
5
 74
0
 42
0.0000001
 43
0.0000001
 44
0.0000000001
 40
0.0
 40
0.0
 40
0.0
 40
0.0
 40
0.523381758
 40
1.0
 40
1.0
 40
1.0
 40
1.0
 10
11.0869333295
 20
12.2279821484
 30
0.0
 10
11.0873272317
 20
12.2283626287
 30
0.0
 10
11.0880441267
 20
12.2291282142
 30
0.0
 10
11.0886582066
 20
12.2299804959
 30
0.0
 10
11.0889163755
 20
12.2304071945
 30
0.0
  0
SPLINE
  5
37C
100
AcDbEntity
  8
0
100
AcDbSpline
 62
7
  6
CONTINUOUS
 70
0
 71
3
 72
15
 73
11
 74
0
 42
0.0000001
 43
0.0000001
 44
0.0000000001
 40
0.0
 40
0.0
 40
0.0
 40
0.0
 40
0.1467143026
 40
0.2854517986
 40
0.4169033329
 40
0.5419106391
 40
0.6614810085
 40
0.776784587
 40
0.8891445833
 40
1.0
 40
1.0
 40
1.0
 40
1.0
 10
11.1604074625
 20
12.0116784385
 30
0.0
 10
11.1608258907
 20
12.0112562243
 30
0.0
 10
11.1616143613
 20
12.0104086591
 30
0.0
 10
11.162672827
 20
12.0090902335
 30
0.0
 10
11.1635715418
 20
12.0077626655
 30
0.0
 10
11.1643092181
 20
12.006427021
 30
0.0
 10
11.1648847629
 20
12.0050844682
 30
0.0
 10
11.1652969166
 20
12.0037362127
 30
0.0
 10
11.1655447491
 20
12.0023841563
 30
0.0
 10
11.1655999951
 20
12.0014788356
 30
0.0
 10
11.1655999925
 20
12.001029692
 30
0.0
  0
SPLINE
  5
37D
100
AcDbEntity
  8
0
100
AcDbSpline
 62
7
  6
CONTINUOUS
 70
0
 71
3
 72
60
 73
56
 74
0
 42
0.0000001
 43
0.0000001
 44
0.0000000001
 40
0.0
 40
0.0
 40
0.0
 40
0.0
 40
0.0081223768
 40
0.0169168513
 40
0.026408634
 40
0.0366142931
 40
0.0475414683
 40
0.0591910424
 40
0.0715584639
 40
0.0846345549
 40
0.09840634
 40
0.1128573916
 40
0.1279684184
 40
0.143717565
 40
0.1600805628
 40
0.1770311827
 40
0.1945412796
 40
0.2125809506
 40
0.2501209261
 40
0.2893849519
 40
0.3300869565
 40
0.3719260259
 40
0.4145897252
 40
0.4577574474
 40
0.5011036828
 40
0.544301129
 40
0.5870239994
 40
0.6289510883
 40
0.6697691328
 40
0.7091759439
 40
0.7468840188
 40
0.7650166818
 40
0.7826253167
 40
0.7996798089
 40
0.8161517038
 40
0.8320143014
 40
0.8472430648
 40
0.8618156474
 40
0.8757122281
 40
0.8889159265
 40
0.9014129982
 40
0.9131935654
 40
0.9242522132
 40
0.9345887239
 40
0.944209476
 40
0.9531287903
 40
0.9613710073
 40
0.9689732834
 40
0.9759886788
 40
0.9824900522
 40
0.9885734309
 40
0.991497444
 40
0.9943641445
 40
0.9971919182
 40
1.0
 40
1.0
 40
1.0
 40
1.0
 10
11.1599573263
 20
12.0229712592
 30
0.0
 10
11.1592880355
 20
12.0223247738
 30
0.0
 10
11.1578309406
 20
12.0210428438
 30
0.0
 10
11.1554122839
 20
12.0192214779
 30
0.0
 10
11.1526808606
 20
12.0174305751
 30
0.0
 10
11.1496421942
 20
12.0156735912
 30
0.0
 10
11.1463019939
 20
12.013953691
 30
0.0
 10
11.1426667489
 20
12.0122742898
 30
0.0
 10
11.1387436067
 20
12.0106386932
 30
0.0
 10
11.1345403354
 20
12.0090501647
 30
0.0
 10
11.1300652937
 20
12.0075119448
 30
0.0
 10
11.1253274376
 20
12.0060271258
 30
0.0
 10
11.1203362685
 20
12.0045987295
 30
0.0
 10
11.1151018183
 20
12.0032296823
 30
0.0
 10
11.1096346327
 20
12.0019227435
 30
0.0
 10
11.1039457332
 20
12.0006806002
 30
0.0
 10
11.0980465886
 20
11.9995057597
 30
0.0
 10
11.089806998
 20
11.9980124515
 30
0.0
 10
11.0790688736
 20
11.9963396834
 30
0.0
 10
11.0657103737
 20
11.9946598938
 30
0.0
 10
11.051821046
 20
11.9932959263
 30
0.0
 10
11.0375131041
 20
11.9922589912
 30
0.0
 10
11.0229020517
 20
11.9915576442
 30
0.0
 10
11.0081059376
 20
11.9911976493
 30
0.0
 10
10.9932443203
 20
11.9911819694
 30
0.0
 10
10.9784372954
 20
11.991510741
 30
0.0
 10
10.9638045121
 20
11.9921812555
 30
0.0
 10
10.9494641915
 20
11.9931879918
 30
0.0
 10
10.9355321119
 20
11.994522645
 30
0.0
 10
10.9221208352
 20
11.9961742578
 30
0.0
 10
10.9113323756
 20
11.9978240593
 30
0.0
 10
10.9030477299
 20
11.9992995535
 30
0.0
 10
10.8971116273
 20
12.0004619003
 30
0.0
 10
10.8913836331
 20
12.0016919903
 30
0.0
 10
10.8858752958
 20
12.0029873305
 30
0.0
 10
10.8805977304
 20
12.0043453015
 30
0.0
 10
10.8755615634
 20
12.0057631128
 30
0.0
 10
10.870776923
 20
12.0072378876
 30
0.0
 10
10.8662534141
 20
12.0087666418
 30
0.0
 10
10.8620000813
 20
12.0103462443
 30
0.0
 10
10.8580254085
 20
12.0119735291
 30
0.0
 10
10.8543372711
 20
12.0136452219
 30
0.0
 10
10.8509429119
 20
12.0153579819
 30
0.0
 10
10.8478489526
 20
12.0171085039
 30
0.0
 10
10.8450613239
 20
12.0188934417
 30
0.0
 10
10.8425853046
 20
12.0207095703
 30
0.0
 10
10.8404255724
 20
12.0225538924
 30
0.0
 10
10.8385862498
 20
12.0244235785
 30
0.0
 10
10.8370712243
 20
12.0263164082
 30
0.0
 10
10.8358846168
 20
12.0282297941
 30
0.0
 10
10.8351638033
 20
12.0298616963
 30
0.0
 10
10.8347656041
 20
12.0311638132
 30
0.0
 10
10.8345547637
 20
12.0321296277
 30
0.0
 10
10.8344281702
 20
12.0330965943
 30
0.0
 10
10.8344000056
 20
12.0337426118
 30
0.0
 10
10.8344000075
 20
12.0340643176
 30
0.0
  0
SPLINE
  5
37E
100
AcDbEntity
  8
0
100
AcDbSpline
 62
7
  6
CONTINUOUS
 70
0
 71
3
 72
23
 73
19
 74
0
 42
0.0000001
 43
0.0000001
 44
0.0000000001
 40
0.0
 40
0.0
 40
0.0
 40
0.0
 40
0.0814533452
 40
0.1609354964
 40
0.2382862641
 40
0.3133441438
 40
0.3859491404
 40
0.4559491342
 40
0.5232066032
 40
0.5876067847
 40
0.6490664957
 40
0.7075429829
 40
0.7630419957
 40
0.81562407
 40
0.8654080131
 40
0.9125707354
 40
0.957342859
 40
1.0
 40
1.0
 40
1.0
 40
1.0
 10
10.7179266857
 20
11.6023304208
 30
0.0
 10
10.7189775484
 20
11.6001832207
 30
0.0
 10
10.7210814379
 20
11.5959542009
 30
0.0
 10
10.7242892331
 20
11.5897395446
 30
0.0
 10
10.7275123959
 20
11.5837450389
 30
0.0
 10
10.7307507145
 20
11.5779891157
 30
0.0
 10
10.734003737
 20
11.5724906035
 30
0.0
 10
10.737270711
 20
11.5672683742
 30
0.0
 10
10.7405505764
 20
11.5623408265
 30
0.0
 10
10.7438419545
 20
11.5577253051
 30
0.0
 10
10.7471431626
 20
11.5534374625
 30
0.0
 10
10.75045225
 20
11.5494906198
 30
0.0
 10
10.7537670456
 20
11.5458951843
 30
0.0
 10
10.7570852304
 20
11.5426581725
 30
0.0
 10
10.7604043494
 20
11.5397829237
 30
0.0
 10
10.7637220123
 20
11.5372689139
 30
0.0
 10
10.7670353827
 20
11.5351120666
 30
0.0
 10
10.7692897389
 20
11.5338798762
 30
0.0
 10
10.7704122118
 20
11.533325438
 30
0.0
  0
SPLINE
  5
37F
100
AcDbEntity
  8
0
100
AcDbSpline
 62
7
  6
CONTINUOUS
 70
0
 71
3
 72
22
 73
18
 74
0
 42
0.0000001
 43
0.0000001
 44
0.0000000001
 40
0.0
 40
0.0
 40
0.0
 40
0.0
 40
0.1559290731
 40
0.2315374586
 40
0.3053909137
 40
0.3773400448
 40
0.4472277381
 40
0.5148904851
 40
0.5801621194
 40
0.6428779796
 40
0.7028800529
 40
0.7600245942
 40
0.814190564
 40
0.8652889603
 40
0.9132738074
 40
0.958153373
 40
1.0
 40
1.0
 40
1.0
 40
1.0
 10
11.2820733143
 20
11.6515811759
 30
0.0
 10
11.2806058855
 20
11.6557368583
 30
0.0
 10
11.2783715778
 20
11.6618884265
 30
0.0
 10
11.2752854176
 20
11.6699495573
 30
0.0
 10
11.2729732512
 20
11.6757648871
 30
0.0
 10
11.2706395325
 20
11.6813970066
 30
0.0
 10
11.2682842008
 20
11.6868299901
 30
0.0
 10
11.265907446
 20
11.6920470014
 30
0.0
 10
11.2635097771
 20
11.6970305052
 30
0.0
 10
11.2610920328
 20
11.7017625174
 30
0.0
 10
11.2586554048
 20
11.7062249549
 30
0.0
 10
11.2562015021
 20
11.7104000989
 30
0.0
 10
11.2537323031
 20
11.7142711108
 30
0.0
 10
11.2512501283
 20
11.7178225449
 30
0.0
 10
11.2487574956
 20
11.7210410633
 30
0.0
 10
11.2462574209
 20
11.723915595
 30
0.0
 10
11.2445286059
 20
11.7256568342
 30
0.0
 10
11.2436627541
 20
11.7264625587
 30
0.0
  0
SPLINE
  5
380
100
AcDbEntity
  8
0
100
AcDbSpline
 62
7
  6
CONTINUOUS
 70
0
 71
3
 72
16
 73
12
 74
0
 42
0.0000001
 43
0.0000001
 44
0.0000000001
 40
0.0
 40
0.0
 40
0.0
 40
0.0
 40
0.1480543603
 40
0.2876984242
 40
0.4196092653
 40
0.4829475767
 40
0.544695118
 40
0.6639367471
 40
0.778607431
 40
0.8901135665
 40
1.0
 40
1.0
 40
1.0
 40
1.0
 10
11.235589323
 20
11.7247608419
 30
0.0
 10
11.2362578407
 20
11.7254065805
 30
0.0
 10
11.2375177163
 20
11.7267030913
 30
0.0
 10
11.2392116821
 20
11.7287236336
 30
0.0
 10
11.2404267099
 20
11.7304430442
 30
0.0
 10
11.2412634839
 20
11.7318231377
 30
0.0
 10
11.2419942696
 20
11.7331722653
 30
0.0
 10
11.2427536958
 20
11.7348700253
 30
0.0
 10
11.2434141989
 20
11.736940569
 30
0.0
 10
11.2438113859
 20
11.7390177517
 30
0.0
 10
11.2439000006
 20
11.7404091696
 30
0.0
 10
11.2439
 20
11.7410990172
 30
0.0
  0
SPLINE
  5
381
100
AcDbEntity
  8
0
100
AcDbSpline
 62
7
  6
CONTINUOUS
 70
0
 71
3
 72
9
 73
5
 74
0
 42
0.0000001
 43
0.0000001
 44
0.0000000001
 40
0.0
 40
0.0
 40
0.0
 40
0.0
 40
0.4868290762
 40
1.0
 40
1.0
 40
1.0
 40
1.0
 10
11.8083429384
 20
10.8135370223
 30
0.0
 10
11.8064255187
 20
10.8156326115
 30
0.0
 10
11.8023428785
 20
10.8198067976
 30
0.0
 10
11.7980244343
 20
10.8237349631
 30
0.0
 10
11.7957587674
 20
10.8256923772
 30
0.0
  0
LINE
  5
382
100
AcDbEntity
  8
0
100
AcDbLine
 62
7
  6
CONTINUOUS
 10
10.8394939997
 20
12.0120649731
 11
10.8395164166
 21
12.0119632618
  0
SPLINE
  5
383
100
AcDbEntity
  8
0
100
AcDbSpline
 62
7
  6
CONTINUOUS
 70
0
 71
3
 72
49
 73
45
 74
0
 42
0.0000001
 43
0.0000001
 44
0.0000000001
 40
0.0
 40
0.0
 40
0.0
 40
0.0
 40
0.0109013517
 40
0.0162881425
 40
0.0216260588
 40
0.0321549593
 40
0.0425124649
 40
0.0527457675
 40
0.0629208905
 40
0.0731076611
 40
0.083379254
 40
0.0938013317
 40
0.1044320202
 40
0.1153224548
 40
0.1265128648
 40
0.1380366823
 40
0.1499201582
 40
0.1621819233
 40
0.1748367174
 40
0.1878927943
 40
0.2013555983
 40
0.2295004675
 40
0.2592466466
 40
0.2905285853
 40
0.3232501652
 40
0.3572910585
 40
0.3925115927
 40
0.4287565113
 40
0.4658581636
 40
0.5036391454
 40
0.5419146932
 40
0.5804948712
 40
0.619186614
 40
0.6577957335
 40
0.6961288745
 40
0.7339955047
 40
0.7712099497
 40
0.8075935741
 40
0.8429770927
 40
0.8772032372
 40
0.910129777
 40
0.9416332177
 40
0.9716135034
 40
1.0
 40
1.0
 40
1.0
 40
1.0
 10
10.8395164166
 20
12.0119632618
 30
0.0
 10
10.8397462904
 20
12.0109301236
 30
0.0
 10
10.8401844814
 20
12.0094055068
 30
0.0
 10
10.8409381058
 20
12.0074449549
 30
0.0
 10
10.8417857501
 20
12.0055625156
 30
0.0
 10
10.8430160663
 20
12.0033277637
 30
0.0
 10
10.8447291764
 20
12.0008338164
 30
0.0
 10
10.8466334058
 20
11.9985278646
 30
0.0
 10
10.8487028964
 20
11.9963931177
 30
0.0
 10
10.850919023
 20
11.9944062922
 30
0.0
 10
10.8532743859
 20
11.9925484466
 30
0.0
 10
10.8557634178
 20
11.9907985014
 30
0.0
 10
10.8583870171
 20
11.9891425875
 30
0.0
 10
10.8611454123
 20
11.987566644
 30
0.0
 10
10.864040866
 20
11.9860612398
 30
0.0
 10
10.8670751941
 20
11.9846188669
 30
0.0
 10
10.870249602
 20
11.9832332922
 30
0.0
 10
10.8735652551
 20
11.9819008893
 30
0.0
 10
10.8770220798
 20
11.9806181926
 30
0.0
 10
10.8806197885
 20
11.9793834273
 30
0.0
 10
10.8856778989
 20
11.9777751596
 30
0.0
 10
10.8923456999
 20
11.9758880997
 30
0.0
 10
10.9007584775
 20
11.9738364192
 30
0.0
 10
10.909668086
 20
11.9719674382
 30
0.0
 10
10.9190385736
 20
11.9702853618
 30
0.0
 10
10.9288283727
 20
11.9687955007
 30
0.0
 10
10.9389910493
 20
11.9675034574
 30
0.0
 10
10.9494762306
 20
11.9664146434
 30
0.0
 10
10.9602303199
 20
11.9655339436
 30
0.0
 10
10.9711971651
 20
11.9648654942
 30
0.0
 10
10.9823186605
 20
11.9644125312
 30
0.0
 10
10.9935353168
 20
11.96417729
 30
0.0
 10
11.0047868074
 20
11.9641609446
 30
0.0
 10
11.0160125014
 20
11.9643635767
 30
0.0
 10
11.0271519934
 20
11.9647841743
 30
0.0
 10
11.0381456347
 20
11.9654206567
 30
0.0
 10
11.0489350782
 20
11.9662699321
 30
0.0
 10
11.0594638423
 20
11.9673279904
 30
0.0
 10
11.0696779099
 20
11.9685900456
 30
0.0
 10
11.0795263839
 20
11.9700507488
 30
0.0
 10
11.0889621858
 20
11.9717044928
 30
0.0
 10
11.0979429883
 20
11.9735459066
 30
0.0
 10
11.1064318458
 20
11.9755704781
 30
0.0
 10
11.1118948828
 20
11.9770826799
 30
0.0
 10
11.114534863
 20
11.9778739785
 30
0.0
  0
SPLINE
  5
384
100
AcDbEntity
  8
0
100
AcDbSpline
 62
7
  6
CONTINUOUS
 70
0
 71
3
 72
21
 73
17
 74
0
 42
0.0000001
 43
0.0000001
 44
0.0000000001
 40
0.0
 40
0.0
 40
0.0
 40
0.0
 40
0.0425985118
 40
0.0876376149
 40
0.1352214311
 40
0.1854299904
 40
0.2383215054
 40
0.2939366277
 40
0.3523004102
 40
0.4134246389
 40
0.47730996
 40
0.5439465037
 40
0.6133163427
 40
0.6853927941
 40
0.8375200537
 40
1.0
 40
1.0
 40
1.0
 40
1.0
 10
11.2166397906
 20
11.8137777606
 30
0.0
 10
11.2160832959
 20
11.8143731483
 30
0.0
 10
11.214895699
 20
11.8155585975
 30
0.0
 10
11.2129569209
 20
11.817273324
 30
0.0
 10
11.2108144508
 20
11.8189713693
 30
0.0
 10
11.208470358
 20
11.8206510957
 30
0.0
 10
11.2059268071
 20
11.8223110878
 30
0.0
 10
11.2031861589
 20
11.8239498046
 30
0.0
 10
11.2002509754
 20
11.8255657452
 30
0.0
 10
11.1971240114
 20
11.8271574047
 30
0.0
 10
11.193808206
 20
11.8287232639
 30
0.0
 10
11.1903067013
 20
11.8302618633
 30
0.0
 10
11.1866228048
 20
11.8317717207
 30
0.0
 10
11.181377548
 20
11.8337808895
 30
0.0
 10
11.1743843372
 20
11.8362004276
 30
0.0
 10
11.1686256873
 20
11.8379557054
 30
0.0
 10
11.1656381955
 20
11.8388144514
 30
0.0
  0
SPLINE
  5
385
100
AcDbEntity
  8
0
100
AcDbSpline
 62
7
  6
CONTINUOUS
 70
0
 71
3
 72
20
 73
16
 74
0
 42
0.0000001
 43
0.0000001
 44
0.0000000001
 40
0.0
 40
0.0
 40
0.0
 40
0.0
 40
0.1600610958
 40
0.3104581886
 40
0.450884514
 40
0.5172902543
 40
0.5811275712
 40
0.642385601
 40
0.7010603417
 40
0.7571575283
 40
0.8106924706
 40
0.8616939058
 40
0.9102054974
 40
0.9562838601
 40
1.0
 40
1.0
 40
1.0
 40
1.0
 10
10.8343816829
 20
11.8388201651
 30
0.0
 10
10.8315358976
 20
11.8380023766
 30
0.0
 10
10.8260396963
 20
11.8363320903
 30
0.0
 10
10.8181478613
 20
11.8336267586
 30
0.0
 10
10.8119852979
 20
11.831234284
 30
0.0
 10
10.8073843045
 20
11.8292578682
 30
0.0
 10
10.804165152
 20
11.8277780926
 30
0.0
 10
10.8011156869
 20
11.826274505
 30
0.0
 10
10.798238531
 20
11.8247483116
 30
0.0
 10
10.7955361292
 20
11.8232008726
 30
0.0
 10
10.7930107757
 20
11.8216334697
 30
0.0
 10
10.7906645865
 20
11.8200473904
 30
0.0
 10
10.7884994917
 20
11.8184438945
 30
0.0
 10
10.7865175007
 20
11.8168243911
 30
0.0
 10
10.7852877188
 20
11.8157062094
 30
0.0
 10
10.7847060565
 20
11.8151443667
 30
0.0
  0
SPLINE
  5
386
100
AcDbEntity
  8
0
100
AcDbSpline
 62
7
  6
CONTINUOUS
 70
0
 71
3
 72
16
 73
12
 74
0
 42
0.0000001
 43
0.0000001
 44
0.0000000001
 40
0.0
 40
0.0
 40
0.0
 40
0.0
 40
0.1282987826
 40
0.2563151855
 40
0.3837373887
 40
0.5102475687
 40
0.6354945316
 40
0.7591024619
 40
0.8807091254
 40
0.9406212273
 40
1.0
 40
1.0
 40
1.0
 40
1.0
 10
11.2439
 20
11.7463150167
 30
0.0
 10
11.2439
 20
11.7495010184
 30
0.0
 10
11.2435800421
 20
11.7558706246
 30
0.0
 10
11.2421506858
 20
11.7653072809
 30
0.0
 10
11.2398037255
 20
11.7745132583
 30
0.0
 10
11.2365921665
 20
11.7833803198
 30
0.0
 10
11.232587821
 20
11.7918131839
 30
0.0
 10
11.2278804469
 20
11.7997317512
 30
0.0
 10
11.2234351848
 20
11.8058808603
 30
0.0
 10
11.2196262402
 20
11.8104953664
 30
0.0
 10
11.2176466749
 20
11.8127005166
 30
0.0
 10
11.2166398018
 20
11.8137777613
 30
0.0
  0
SPLINE
  5
387
100
AcDbEntity
  8
0
100
AcDbSpline
 62
7
  6
CONTINUOUS
 70
0
 71
3
 72
16
 73
12
 74
0
 42
0.0000001
 43
0.0000001
 44
0.0000000001
 40
0.0
 40
0.0
 40
0.0
 40
0.0
 40
0.059379573
 40
0.1192905638
 40
0.2408972662
 40
0.3645048045
 40
0.4897515911
 40
0.6162616718
 40
0.7436839589
 40
0.8717005842
 40
1.0
 40
1.0
 40
1.0
 40
1.0
 10
10.7833601982
 20
11.8137777613
 30
0.0
 10
10.7823533116
 20
11.8127005021
 30
0.0
 10
10.7803737479
 20
11.8104953607
 30
0.0
 10
10.7765648169
 20
11.8058808521
 30
0.0
 10
10.7721195672
 20
11.7997317792
 30
0.0
 10
10.7674122033
 20
11.7918132209
 30
0.0
 10
10.7634078573
 20
11.7833803758
 30
0.0
 10
10.760196294
 20
11.7745133208
 30
0.0
 10
10.7578493251
 20
11.7653073403
 30
0.0
 10
10.7564199585
 20
11.7558706617
 30
0.0
 10
10.7561
 20
11.7495010341
 30
0.0
 10
10.7561
 20
11.7463150167
 30
0.0
  0
SPLINE
  5
388
100
AcDbEntity
  8
0
100
AcDbSpline
 62
7
  6
CONTINUOUS
 70
0
 71
3
 72
53
 73
49
 74
0
 42
0.0000001
 43
0.0000001
 44
0.0000000001
 40
0.0
 40
0.0
 40
0.0
 40
0.0
 40
0.0077403593
 40
0.0160537978
 40
0.0249599955
 40
0.0344713764
 40
0.0445946131
 40
0.0553314042
 40
0.0666795981
 40
0.0786335518
 40
0.0911847684
 40
0.1043222634
 40
0.1180327565
 40
0.132301146
 40
0.1471104157
 40
0.1624420763
 40
0.1945901727
 40
0.2285718039
 40
0.2641941631
 40
0.3012494761
 40
0.3395174947
 40
0.3787677448
 40
0.4187616918
 40
0.4592547541
 40
0.4999983889
 40
0.5407420303
 40
0.5812351421
 40
0.6212291561
 40
0.66047952
 40
0.6987476581
 40
0.7358031177
 40
0.7714256347
 40
0.8054074639
 40
0.8375557885
 40
0.8528875648
 40
0.8676969786
 40
0.8819654529
 40
0.8956761158
 40
0.9088137122
 40
0.9213650818
 40
0.9333191719
 40
0.9446674761
 40
0.9554044516
 40
0.9655278119
 40
0.9750393135
 40
0.9839455425
 40
0.9922594717
 40
1.0
 40
1.0
 40
1.0
 40
1.0
 10
10.8265822133
 20
11.7877304868
 30
0.0
 10
10.8272592404
 20
11.787100446
 30
0.0
 10
10.8287166837
 20
11.7858502604
 30
0.0
 10
10.8311075935
 20
11.7840647015
 30
0.0
 10
10.8337756422
 20
11.7823060578
 30
0.0
 10
10.8367164584
 20
11.7805770967
 30
0.0
 10
10.8399254901
 20
11.7788804871
 30
0.0
 10
10.8433975954
 20
11.7772188849
 30
0.0
 10
10.8471272256
 20
11.7755950115
 30
0.0
 10
10.8511083479
 20
11.7740114891
 30
0.0
 10
10.8553345027
 20
11.7724709193
 30
0.0
 10
10.859798807
 20
11.7709758608
 30
0.0
 10
10.8644939622
 20
11.7695287477
 30
0.0
 10
10.8694122849
 20
11.7681320219
 30
0.0
 10
10.8745457121
 20
11.7667879343
 30
0.0
 10
10.8817806887
 20
11.7650414088
 30
0.0
 10
10.8913028857
 20
11.7630159181
 30
0.0
 10
10.903270318
 20
11.7608644409
 30
0.0
 10
10.9158741918
 20
11.7589697788
 30
0.0
 10
10.9290316261
 20
11.7573446009
 30
0.0
 10
10.9426561914
 20
11.7559998145
 30
0.0
 10
10.9566582629
 20
11.7549444201
 30
0.0
 10
10.9709456985
 20
11.7541854812
 30
0.0
 10
10.9854244454
 20
11.7537280734
 30
0.0
 10
10.9999991697
 20
11.7535752538
 30
0.0
 10
11.0145739003
 20
11.7537280415
 30
0.0
 10
11.0290526629
 20
11.754185415
 30
0.0
 10
11.0433401281
 20
11.7549443172
 30
0.0
 10
11.0573422383
 20
11.7559996752
 30
0.0
 10
11.0709668524
 20
11.7573444289
 30
0.0
 10
11.0841243413
 20
11.7589695778
 30
0.0
 10
11.0967282799
 20
11.7608642128
 30
0.0
 10
11.1086957877
 20
11.7630156636
 30
0.0
 10
11.1182180573
 20
11.7650411246
 30
0.0
 10
11.1254530964
 20
11.766787639
 30
0.0
 10
11.1305865728
 20
11.7681317018
 30
0.0
 10
11.1355049427
 20
11.7695284351
 30
0.0
 10
11.1402001527
 20
11.7709755153
 30
0.0
 10
11.1446645078
 20
11.7724705818
 30
0.0
 10
11.1488907194
 20
11.7740111314
 30
0.0
 10
11.1528718978
 20
11.775594643
 30
0.0
 10
11.1566015819
 20
11.7772185202
 30
0.0
 10
11.1600737581
 20
11.7788800911
 30
0.0
 10
11.1632828343
 20
11.7805767255
 30
0.0
 10
11.1662237136
 20
11.7823056434
 30
0.0
 10
11.168891847
 20
11.7840642994
 30
0.0
 10
11.171282835
 20
11.7858498917
 30
0.0
 10
11.1727403584
 20
11.7871001036
 30
0.0
 10
11.1734174179
 20
11.7877301392
 30
0.0
  0
SPLINE
  5
389
100
AcDbEntity
  8
0
100
AcDbSpline
 62
7
  6
CONTINUOUS
 70
0
 71
3
 72
11
 73
7
 74
0
 42
0.0000001
 43
0.0000001
 44
0.0000000001
 40
0.0
 40
0.0
 40
0.0
 40
0.0
 40
0.2458552867
 40
0.4946158471
 40
0.7460721324
 40
1.0
 40
1.0
 40
1.0
 40
1.0
 10
11.2347226534
 20
11.5358619703
 30
0.0
 10
11.2387423027
 20
11.5378481052
 30
0.0
 10
11.24675546
 20
11.541994383
 30
0.0
 10
11.2586266309
 20
11.5486464906
 30
0.0
 10
11.2704207555
 20
11.5557241434
 30
0.0
 10
11.2781962711
 20
11.5606744028
 30
0.0
 10
11.2820733143
 20
11.5632067192
 30
0.0
  0
SPLINE
  5
38A
100
AcDbEntity
  8
0
100
AcDbSpline
 62
7
  6
CONTINUOUS
 70
0
 71
3
 72
16
 73
12
 74
0
 42
0.0000001
 43
0.0000001
 44
0.0000000001
 40
0.0
 40
0.0
 40
0.0
 40
0.0
 40
0.1090281061
 40
0.2197798662
 40
0.3338936735
 40
0.4528535063
 40
0.5145827285
 40
0.5779900829
 40
0.7103115881
 40
0.8507454924
 40
1.0
 40
1.0
 40
1.0
 40
1.0
 10
10.7561
 20
11.7410990167
 30
0.0
 10
10.7561000006
 20
11.7403841298
 30
0.0
 10
10.7561952615
 20
11.7389413273
 30
0.0
 10
10.7566220916
 20
11.7367882956
 30
0.0
 10
10.7573316843
 20
11.7346427973
 30
0.0
 10
10.7581467504
 20
11.7328855072
 30
0.0
 10
10.7589307132
 20
11.7314895273
 30
0.0
 10
10.7598295182
 20
11.7300598286
 30
0.0
 10
10.7611344954
 20
11.7282794696
 30
0.0
 10
10.7629522208
 20
11.7261897143
 30
0.0
 10
10.7643023596
 20
11.7248510842
 30
0.0
 10
10.7650187843
 20
11.7241843857
 30
0.0
  0
SPLINE
  5
38B
100
AcDbEntity
  8
0
100
AcDbSpline
 62
7
  6
CONTINUOUS
 70
0
 71
3
 72
51
 73
47
 74
0
 42
0.0000001
 43
0.0000001
 44
0.0000000001
 40
0.0
 40
0.0
 40
0.0
 40
0.0
 40
0.0064798113
 40
0.0134581597
 40
0.0209914151
 40
0.0291205887
 40
0.0378747016
 40
0.0472726891
 40
0.0573258698
 40
0.0680389756
 40
0.0794117349
 40
0.0914393533
 40
0.1041135515
 40
0.1174228038
 40
0.1313529584
 40
0.145887398
 40
0.1766907309
 40
0.2096630043
 40
0.244607215
 40
0.2813052449
 40
0.3195215333
 40
0.3590060302
 40
0.39949692
 40
0.4407234294
 40
0.4824081707
 40
0.5242697801
 40
0.5660253935
 40
0.6073929578
 40
0.6480939364
 40
0.6878556255
 40
0.726413702
 40
0.7635149721
 40
0.7989198986
 40
0.8324057394
 40
0.8637698365
 40
0.8928335479
 40
0.9064559112
 40
0.9194500572
 40
0.9318029602
 40
0.9435048033
 40
0.954548866
 40
0.9649325612
 40
0.9746577546
 40
0.9837329115
 40
0.9921729936
 40
1.0
 40
1.0
 40
1.0
 40
1.0
 10
10.9110834576
 20
12.2304074745
 30
0.0
 10
10.9112880422
 20
12.2300693197
 30
0.0
 10
10.9117580432
 20
12.2293936826
 30
0.0
 10
10.9125981607
 20
12.2284249934
 30
0.0
 10
10.9135956541
 20
12.2274675675
 30
0.0
 10
10.9147485297
 20
12.2265228027
 30
0.0
 10
10.9160548936
 20
12.2255920314
 30
0.0
 10
10.9175124846
 20
12.22467667
 30
0.0
 10
10.9191188364
 20
12.2237782702
 30
0.0
 10
10.920871151
 20
12.2228983317
 30
0.0
 10
10.9227663737
 20
12.2220384333
 30
0.0
 10
10.9248011496
 20
12.2212000788
 30
0.0
 10
10.9269718681
 20
12.2203847977
 30
0.0
 10
10.9292746494
 20
12.2195940519
 30
0.0
 10
10.9317053718
 20
12.2188292672
 30
0.0
 10
10.9351787791
 20
12.2178265802
 30
0.0
 10
10.9398108528
 20
12.2166552643
 30
0.0
 10
10.9457008662
 20
12.2153992872
 30
0.0
 10
10.9519831705
 20
12.214276405
 30
0.0
 10
10.9586124532
 20
12.2132948857
 30
0.0
 10
10.9655409531
 20
12.2124619907
 30
0.0
 10
10.9727186363
 20
12.2117838599
 30
0.0
 10
10.9800936393
 20
12.2112654905
 30
0.0
 10
10.9876126365
 20
12.2109106979
 30
0.0
 10
10.9952212466
 20
12.2107220912
 30
0.0
 10
11.0028644291
 20
12.2107010578
 30
0.0
 10
11.010486888
 20
12.2108477519
 30
0.0
 10
11.0180334826
 20
12.211161095
 30
0.0
 10
11.025449626
 20
12.2116387831
 30
0.0
 10
11.032681693
 20
12.2122773001
 30
0.0
 10
11.0396774141
 20
12.2130719439
 30
0.0
 10
11.0463862695
 20
12.2140168537
 30
0.0
 10
11.0527598575
 20
12.2151050562
 30
0.0
 10
11.0587523449
 20
12.2163284913
 30
0.0
 10
11.0643205805
 20
12.217678149
 30
0.0
 10
11.0686634475
 20
12.2189251092
 30
0.0
 10
11.0718902154
 20
12.2199853024
 30
0.0
 10
11.0741276283
 20
12.2207884773
 30
0.0
 10
11.0762310068
 20
12.2216154586
 30
0.0
 10
11.0781966148
 20
12.2224647394
 30
0.0
 10
11.0800209514
 20
12.2233348423
 30
0.0
 10
11.0817008239
 20
12.2242241654
 30
0.0
 10
11.0832332952
 20
12.2251312143
 30
0.0
 10
11.0846158082
 20
12.2260544753
 30
0.0
 10
11.0858457896
 20
12.2269923812
 30
0.0
 10
11.0865899603
 20
12.2276504792
 30
0.0
 10
11.0869333295
 20
12.2279821484
 30
0.0
  0
SPLINE
  5
38C
100
AcDbEntity
  8
0
100
AcDbSpline
 62
7
  6
CONTINUOUS
 70
0
 71
3
 72
51
 73
47
 74
0
 42
0.0000001
 43
0.0000001
 44
0.0000000001
 40
0.0
 40
0.0
 40
0.0
 40
0.0
 40
0.007740487
 40
0.0160545419
 40
0.0249608547
 40
0.0344723307
 40
0.0445957356
 40
0.0553327686
 40
0.0666811142
 40
0.0786352983
 40
0.0911867073
 40
0.1043244262
 40
0.1180351259
 40
0.1323037266
 40
0.1624437157
 40
0.1945922528
 40
0.2285743078
 40
0.2641971035
 40
0.301252823
 40
0.339521236
 40
0.3787718813
 40
0.418766154
 40
0.4592595275
 40
0.5000034278
 40
0.5407472726
 40
0.5812405592
 40
0.6212346889
 40
0.6604850893
 40
0.6987532451
 40
0.7358086313
 40
0.7714310177
 40
0.805412657
 40
0.837560699
 40
0.8677001516
 40
0.8819684871
 40
0.8956789074
 40
0.9088163288
 40
0.9213674269
 40
0.9333213055
 40
0.944669359
 40
0.95540607
 40
0.9655291412
 40
0.9750404078
 40
0.9839464599
 40
0.9922597506
 40
1.0
 40
1.0
 40
1.0
 40
1.0
 10
10.8673355843
 20
12.2435608195
 30
0.0
 10
10.8678535307
 20
12.2440427958
 30
0.0
 10
10.8689685421
 20
12.2449992129
 30
0.0
 10
10.8707976488
 20
12.2463652161
 30
0.0
 10
10.8728387859
 20
12.2477105969
 30
0.0
 10
10.8750885635
 20
12.2490332297
 30
0.0
 10
10.8775435143
 20
12.250331157
 30
0.0
 10
10.880199739
 20
12.251602269
 30
0.0
 10
10.8830529612
 20
12.2528445494
 30
0.0
 10
10.8860985824
 20
12.25405593
 30
0.0
 10
10.8893316507
 20
12.2552344768
 30
0.0
 10
10.8927469059
 20
12.2563781856
 30
0.0
 10
10.8963387645
 20
12.2574852424
 30
0.0
 10
10.9014493968
 20
12.2589364736
 30
0.0
 10
10.9082394008
 20
12.2606362917
 30
0.0
 10
10.9168478333
 20
12.2624675399
 30
0.0
 10
10.926003141
 20
12.2641133765
 30
0.0
 10
10.935645198
 20
12.2655627824
 30
0.0
 10
10.9457107617
 20
12.2668060175
 30
0.0
 10
10.9561336663
 20
12.2678347513
 30
0.0
 10
10.966845358
 20
12.2686420945
 30
0.0
 10
10.9777753442
 20
12.269222646
 30
0.0
 10
10.9888516711
 20
12.2695725242
 30
0.0
 10
11.0000014087
 20
12.269689391
 30
0.0
 10
11.0111511377
 20
12.2695724653
 30
0.0
 10
11.0222274366
 20
12.2692225284
 30
0.0
 10
11.0331573764
 20
12.2686419192
 30
0.0
 10
11.0438690047
 20
12.2678345193
 30
0.0
 10
11.0542918271
 20
12.2668057304
 30
0.0
 10
11.0643572922
 20
12.2655624422
 30
0.0
 10
11.0739992345
 20
12.2641129853
 30
0.0
 10
11.083154411
 20
12.2624671006
 30
0.0
 10
11.0917626987
 20
12.260635807
 30
0.0
 10
11.0985525714
 20
12.2589359522
 30
0.0
 10
11.103663093
 20
12.257484693
 30
0.0
 10
11.1072548651
 20
12.2563776166
 30
0.0
 10
11.1106700287
 20
12.2552338899
 30
0.0
 10
11.1139030024
 20
12.2540553273
 30
0.0
 10
11.1169485277
 20
12.2528439302
 30
0.0
 10
11.119801651
 20
12.251601633
 30
0.0
 10
11.1224577743
 20
12.2503305098
 30
0.0
 10
11.1249126296
 20
12.2490325708
 30
0.0
 10
11.1271623076
 20
12.2477099127
 30
0.0
 10
11.1292033084
 20
12.2463645311
 30
0.0
 10
11.1310322959
 20
12.2449985609
 30
0.0
 10
11.1321472001
 20
12.2440421585
 30
0.0
 10
11.1326651103
 20
12.2435601753
 30
0.0
  0
SPLINE
  5
38D
100
AcDbEntity
  8
0
100
AcDbSpline
 62
7
  6
CONTINUOUS
 70
0
 71
3
 72
15
 73
11
 74
0
 42
0.0000001
 43
0.0000001
 44
0.0000000001
 40
0.0
 40
0.0
 40
0.0
 40
0.0
 40
0.1492614431
 40
0.2897001063
 40
0.4220273111
 40
0.5471294412
 40
0.6660940337
 40
0.7802116312
 40
0.8909677518
 40
1.0
 40
1.0
 40
1.0
 40
1.0
 10
11.1595444066
 20
12.2185461597
 30
0.0
 10
11.1600308495
 20
12.2180934786
 30
0.0
 10
11.1609475816
 20
12.217184606
 30
0.0
 10
11.1621818005
 20
12.2157656004
 30
0.0
 10
11.1632303351
 20
12.2143351751
 30
0.0
 10
11.1640914879
 20
12.2128945518
 30
0.0
 10
11.164763791
 20
12.2114451134
 30
0.0
 10
11.1652455509
 20
12.2099882898
 30
0.0
 10
11.1655353682
 20
12.2085264374
 30
0.0
 10
11.1656000079
 20
12.2075467923
 30
0.0
 10
11.1655999926
 20
12.2070613969
 30
0.0
  0
SPLINE
  5
38E
100
AcDbEntity
  8
0
100
AcDbSpline
 62
7
  6
CONTINUOUS
 70
0
 71
3
 72
21
 73
17
 74
0
 42
0.0000001
 43
0.0000001
 44
0.0000000001
 40
0.0
 40
0.0
 40
0.0
 40
0.0
 40
0.0544224357
 40
0.1090620563
 40
0.1641332121
 40
0.2198447272
 40
0.2763977861
 40
0.3339836602
 40
0.4529171519
 40
0.5146324595
 40
0.5780254981
 40
0.6432257895
 40
0.7103501021
 40
0.779503182
 40
0.8507790982
 40
1.0
 40
1.0
 40
1.0
 40
1.0
 10
11.7028999878
 20
11.4750830286
 30
0.0
 10
11.7028999896
 20
11.4761116342
 30
0.0
 10
11.7028323417
 20
11.4781735849
 30
0.0
 10
11.7025281026
 20
11.4812629004
 30
0.0
 10
11.7020212046
 20
11.4843502795
 30
0.0
 10
11.7013119305
 20
11.4874345182
 30
0.0
 10
11.7004004664
 20
11.4905147888
 30
0.0
 10
11.6989004855
 20
11.4946589198
 30
0.0
 10
11.6970015173
 20
11.4987535691
 30
0.0
 10
11.6947423631
 20
11.5027763796
 30
0.0
 10
11.6928272185
 20
11.5058228646
 30
0.0
 10
11.6907130729
 20
11.5088598408
 30
0.0
 10
11.6884005269
 20
11.5118867136
 30
0.0
 10
11.6858902815
 20
11.5149026994
 30
0.0
 10
11.6822247589
 20
11.5189702924
 30
0.0
 10
11.6792620675
 20
11.5219076475
 30
0.0
 10
11.6771974499
 20
11.5238290111
 30
0.0
  0
SPLINE
  5
38F
100
AcDbEntity
  8
0
100
AcDbSpline
 62
7
  6
CONTINUOUS
 70
0
 71
3
 72
15
 73
11
 74
0
 42
0.0000001
 43
0.0000001
 44
0.0000000001
 40
0.0
 40
0.0
 40
0.0
 40
0.0
 40
0.1098905636
 40
0.2214012712
 40
0.3360758222
 40
0.4553208204
 40
0.5803744223
 40
0.7122927505
 40
0.8519433263
 40
1.0
 40
1.0
 40
1.0
 40
1.0
 10
11.1655999925
 20
12.0340643572
 30
0.0
 10
11.1655999899
 20
12.0335959727
 30
0.0
 10
11.1655398502
 20
12.0326512379
 30
0.0
 10
11.1652701471
 20
12.031240914
 30
0.0
 10
11.1648216877
 20
12.0298350356
 30
0.0
 10
11.1641957547
 20
12.0284356914
 30
0.0
 10
11.1633936708
 20
12.0270442495
 30
0.0
 10
11.1624168068
 20
12.0256619033
 30
0.0
 10
11.1612666142
 20
12.0242899585
 30
0.0
 10
11.1604112186
 20
12.0234096855
 30
0.0
 10
11.1599573263
 20
12.0229712592
 30
0.0
  0
SPLINE
  5
390
100
AcDbEntity
  8
0
100
AcDbSpline
 62
7
  6
CONTINUOUS
 70
0
 71
3
 72
15
 73
11
 74
0
 42
0.0000001
 43
0.0000001
 44
0.0000000001
 40
0.0
 40
0.0
 40
0.0
 40
0.0
 40
0.1098903506
 40
0.2214010987
 40
0.3360758439
 40
0.4553210788
 40
0.5803748644
 40
0.7122932442
 40
0.8519436842
 40
1.0
 40
1.0
 40
1.0
 40
1.0
 10
10.8344000074
 20
12.2070619295
 30
0.0
 10
10.8344000221
 20
12.2075303026
 30
0.0
 10
10.8344601833
 20
12.2084750139
 30
0.0
 10
10.8347299091
 20
12.2098853008
 30
0.0
 10
10.8351783817
 20
12.2112911422
 30
0.0
 10
10.8358043187
 20
12.2126904497
 30
0.0
 10
10.8366063975
 20
12.2140818553
 30
0.0
 10
10.8375832474
 20
12.2154641655
 30
0.0
 10
10.8387334169
 20
12.2168360748
 30
0.0
 10
10.8395887927
 20
12.217716326
 30
0.0
 10
10.8400426737
 20
12.2181547414
 30
0.0
  0
SPLINE
  5
391
100
AcDbEntity
  8
0
100
AcDbSpline
 62
7
  6
CONTINUOUS
 70
0
 71
3
 72
23
 73
19
 74
0
 42
0.0000001
 43
0.0000001
 44
0.0000000001
 40
0.0
 40
0.0
 40
0.0
 40
0.0
 40
0.0487707557
 40
0.0994185875
 40
0.1519805404
 40
0.2064756646
 40
0.2629059483
 40
0.3212578509
 40
0.3815040035
 40
0.4436050525
 40
0.5075115692
 40
0.5731660323
 40
0.6405047401
 40
0.7094595255
 40
0.7799592461
 40
0.8519311204
 40
0.9253024025
 40
1.0
 40
1.0
 40
1.0
 40
1.0
 10
10.297100271
 20
10.8716888902
 30
0.0
 10
10.2948319371
 20
10.8695866227
 30
0.0
 10
10.2902967398
 20
10.8652045365
 30
0.0
 10
10.2836229165
 20
10.8582488649
 30
0.0
 10
10.2769541317
 20
10.85079386
 30
0.0
 10
10.2702929994
 20
10.8428475894
 30
0.0
 10
10.2636417878
 20
10.8344202591
 30
0.0
 10
10.2570026743
 20
10.8255241977
 30
0.0
 10
10.250377631
 20
10.8161735078
 30
0.0
 10
10.2437684247
 20
10.8063837869
 30
0.0
 10
10.2371765853
 20
10.7961718175
 30
0.0
 10
10.2306034
 20
10.785555253
 30
0.0
 10
10.2240499257
 20
10.7745523058
 30
0.0
 10
10.2175169899
 20
10.7631814801
 30
0.0
 10
10.2110052006
 20
10.7514613372
 30
0.0
 10
10.2045149447
 20
10.7394102541
 30
0.0
 10
10.1980464585
 20
10.7270463126
 30
0.0
 10
10.193785466
 20
10.718679055
 30
0.0
 10
10.1916570616
 20
10.7144473493
 30
0.0
  0
SPLINE
  5
392
100
AcDbEntity
  8
0
100
AcDbSpline
 62
7
  6
CONTINUOUS
 70
0
 71
3
 72
21
 73
17
 74
0
 42
0.0000001
 43
0.0000001
 44
0.0000000001
 40
0.0
 40
0.0
 40
0.0
 40
0.0
 40
0.1492209638
 40
0.2204967394
 40
0.2896498837
 40
0.3567742131
 40
0.421974386
 40
0.4853674825
 40
0.5470828178
 40
0.6660162815
 40
0.723602189
 40
0.7801552024
 40
0.8358667526
 40
0.8909379325
 40
0.9455775463
 40
1.0
 40
1.0
 40
1.0
 40
1.0
 10
10.3228024822
 20
11.5238289418
 30
0.0
 10
10.3207378682
 20
11.5219075795
 30
0.0
 10
10.3177751725
 20
11.5189702402
 30
0.0
 10
10.3141096765
 20
11.5149026361
 30
0.0
 10
10.3115994296
 20
11.5118866623
 30
0.0
 10
10.3092868845
 20
11.5088597972
 30
0.0
 10
10.3071727613
 20
11.5058228143
 30
0.0
 10
10.3052576112
 20
11.5027763411
 30
0.0
 10
10.3029984578
 20
11.4987535373
 30
0.0
 10
10.3010995087
 20
11.4946588879
 30
0.0
 10
10.2995995152
 20
11.4905147699
 30
0.0
 10
10.2986880764
 20
11.487434497
 30
0.0
 10
10.2979787923
 20
11.4843502666
 30
0.0
 10
10.2974718846
 20
11.4812628927
 30
0.0
 10
10.2971676703
 20
11.4781735795
 30
0.0
 10
10.2971000141
 20
11.4761116328
 30
0.0
 10
10.2971000122
 20
11.4750830287
 30
0.0
  0
SPLINE
  5
393
100
AcDbEntity
  8
0
100
AcDbSpline
 62
7
  6
CONTINUOUS
 70
0
 71
3
 72
32
 73
28
 74
0
 42
0.0000001
 43
0.0000001
 44
0.0000000001
 40
0.0
 40
0.0
 40
0.0
 40
0.0
 40
0.0176465402
 40
0.0361633753
 40
0.055575015
 40
0.0759002387
 40
0.0971529124
 40
0.1193426087
 40
0.1424751347
 40
0.1665530483
 40
0.1915759327
 40
0.2175408645
 40
0.2444425055
 40
0.272273553
 40
0.3010246903
 40
0.3306850301
 40
0.3612419458
 40
0.3926815253
 40
0.4249883367
 40
0.4581458788
 40
0.5269394096
 40
0.5989091494
 40
0.6738850001
 40
0.7516832016
 40
0.8321078791
 40
0.9149523084
 40
1.0
 40
1.0
 40
1.0
 40
1.0
 10
11.6234380639
 20
11.5738577622
 30
0.0
 10
11.6218323434
 20
11.5753520639
 30
0.0
 10
11.6184592498
 20
11.578326664
 30
0.0
 10
11.6130655838
 20
11.5826462246
 30
0.0
 10
11.6072222165
 20
11.5869259724
 30
0.0
 10
11.6009335316
 20
11.5911627844
 30
0.0
 10
11.5942039814
 20
11.5953537392
 30
0.0
 10
11.5870384179
 20
11.5994958428
 30
0.0
 10
11.5794420067
 20
11.6035861438
 30
0.0
 10
11.5714202343
 20
11.6076216679
 30
0.0
 10
11.5629789247
 20
11.6115995136
 30
0.0
 10
11.5541242033
 20
11.615516747
 30
0.0
 10
11.5448625286
 20
11.619370543
 30
0.0
 10
11.535200646
 20
11.6231580334
 30
0.0
 10
11.5251456207
 20
11.6268764863
 30
0.0
 10
11.5147047945
 20
11.6305231177
 30
0.0
 10
11.5038858149
 20
11.6340953013
 30
0.0
 10
11.4926966021
 20
11.6375903448
 30
0.0
 10
11.4811453496
 20
11.6410057578
 30
0.0
 10
11.4650746317
 20
11.6455052473
 30
0.0
 10
11.4441370847
 20
11.6508988227
 30
0.0
 10
11.418007159
 20
11.6569382214
 30
0.0
 10
11.3906497108
 20
11.6626036183
 30
0.0
 10
11.3621450431
 20
11.6678782236
 30
0.0
 10
11.3325766305
 20
11.6727463898
 30
0.0
 10
11.3020313413
 20
11.6771936738
 30
0.0
 10
11.2813292272
 20
11.679836851
 30
0.0
 10
11.2708322151
 20
11.6810888651
 30
0.0
  0
SPLINE
  5
394
100
AcDbEntity
  8
0
100
AcDbSpline
 62
7
  6
CONTINUOUS
 70
0
 71
3
 72
31
 73
27
 74
0
 42
0.0000001
 43
0.0000001
 44
0.0000000001
 40
0.0
 40
0.0
 40
0.0
 40
0.0
 40
0.0753797731
 40
0.1476765418
 40
0.2169506593
 40
0.2833233919
 40
0.3469981255
 40
0.4082611818
 40
0.4381150247
 40
0.4675255853
 40
0.4965616328
 40
0.5253012301
 40
0.5822184743
 40
0.6105897452
 40
0.6390293167
 40
0.6964205978
 40
0.7255509409
 40
0.7550302931
 40
0.7848804096
 40
0.815089051
 40
0.8456176674
 40
0.876395324
 40
0.9073310861
 40
0.9383165996
 40
0.9692424929
 40
1.0
 40
1.0
 40
1.0
 40
1.0
 10
11.114534863
 20
11.9778739785
 30
0.0
 10
11.1162451139
 20
11.9783866033
 30
0.0
 10
11.1195820975
 20
11.9794370672
 30
0.0
 10
11.1244341193
 20
11.981131943
 30
0.0
 10
11.1290256668
 20
11.9829171987
 30
0.0
 10
11.1333569306
 20
11.9847991704
 30
0.0
 10
11.1374296822
 20
11.9867892131
 30
0.0
 10
11.1406394692
 20
11.9885653429
 30
0.0
 10
11.1430730076
 20
11.9900586577
 30
0.0
 10
11.1448203363
 20
11.9912087056
 30
0.0
 10
11.1465053933
 20
11.992403352
 30
0.0
 10
11.1486611522
 20
11.9940570577
 30
0.0
 10
11.1507044704
 20
11.9958295679
 30
0.0
 10
11.1526078046
 20
11.9977372397
 30
0.0
 10
11.1544182459
 20
11.9997481427
 30
0.0
 10
11.1560677086
 20
12.0019245538
 30
0.0
 10
11.1575094009
 20
12.0042655093
 30
0.0
 10
11.1584827631
 20
12.0061230119
 30
0.0
 10
11.1593276936
 20
12.008070384
 30
0.0
 10
11.1600273879
 20
12.0101010967
 30
0.0
 10
11.1605668133
 20
12.0122030308
 30
0.0
 10
11.1609314422
 20
12.0143598525
 30
0.0
 10
11.1611123422
 20
12.0165507472
 30
0.0
 10
11.1611028606
 20
12.0187526537
 30
0.0
 10
11.160904956
 20
12.0209412373
 30
0.0
 10
11.1606489267
 20
12.0223817304
 30
0.0
 10
11.1604917503
 20
12.023093087
 30
0.0
  0
SPLINE
  5
395
100
AcDbEntity
  8
0
100
AcDbSpline
 62
7
  6
CONTINUOUS
 70
0
 71
3
 72
29
 73
25
 74
0
 42
0.0000001
 43
0.0000001
 44
0.0000000001
 40
0.0
 40
0.0
 40
0.0
 40
0.0
 40
0.0607939923
 40
0.1217097741
 40
0.182777123
 40
0.2440304575
 40
0.3055079085
 40
0.3363471575
 40
0.3672568468
 40
0.3982409257
 40
0.4293025378
 40
0.4604439961
 40
0.4916666071
 40
0.5229705048
 40
0.554354665
 40
0.5858170315
 40
0.6173545702
 40
0.6489633882
 40
0.6806390671
 40
0.7441645092
 40
0.8078994592
 40
0.8718055532
 40
0.9358485443
 40
1.0
 40
1.0
 40
1.0
 40
1.0
 10
10.7935080603
 20
11.6176990005
 30
0.0
 10
10.7990042736
 20
11.6200659434
 30
0.0
 10
10.8100966815
 20
11.6246019505
 30
0.0
 10
10.8270281483
 20
11.6307037518
 30
0.0
 10
10.8442795268
 20
11.635995735
 30
0.0
 10
10.8618493219
 20
11.6403518152
 30
0.0
 10
10.8767276436
 20
11.6430891356
 30
0.0
 10
10.8887542286
 20
11.6446828355
 30
0.0
 10
10.8978413893
 20
11.6455669943
 30
0.0
 10
10.906976288
 20
11.6461260334
 30
0.0
 10
10.9161484678
 20
11.6463498965
 30
0.0
 10
10.9253461428
 20
11.6462312362
 30
0.0
 10
10.934556704
 20
11.6457658376
 30
0.0
 10
10.9437670768
 20
11.6449528401
 30
0.0
 10
10.9529642074
 20
11.6437949625
 30
0.0
 10
10.9621355231
 20
11.6422982074
 30
0.0
 10
10.9712692953
 20
11.6404715792
 30
0.0
 10
10.9803551084
 20
11.6383266177
 30
0.0
 10
10.9924039172
 20
11.6350578699
 30
0.0
 10
11.0073015632
 20
11.6302469018
 30
0.0
 10
11.0248596138
 20
11.6234550486
 30
0.0
 10
11.04210067
 20
11.6157724098
 30
0.0
 10
11.0590236469
 20
11.6073246759
 30
0.0
 10
11.0700937733
 20
11.6012615168
 30
0.0
 10
11.0755813747
 20
11.5981371497
 30
0.0
  0
SPLINE
  5
396
100
AcDbEntity
  8
0
100
AcDbSpline
 62
7
  6
CONTINUOUS
 70
0
 71
3
 72
21
 73
17
 74
0
 42
0.0000001
 43
0.0000001
 44
0.0000000001
 40
0.0
 40
0.0
 40
0.0
 40
0.0
 40
0.1192805952
 40
0.1791760833
 40
0.2393005448
 40
0.299709862
 40
0.3604659702
 40
0.4216351165
 40
0.4832854173
 40
0.5454836434
 40
0.6082915903
 40
0.6717624492
 40
0.7359377002
 40
0.8008449887
 40
0.8664972409
 40
1.0
 40
1.0
 40
1.0
 40
1.0
 10
11.0755813747
 20
11.509762693
 30
0.0
 10
11.0820394535
 20
11.5088875024
 30
0.0
 10
11.0917801289
 20
11.5078368258
 30
0.0
 10
11.104833233
 20
11.5070557733
 30
0.0
 10
11.1146902269
 20
11.5068031288
 30
0.0
 10
11.1245970364
 20
11.5069094244
 30
0.0
 10
11.1345497799
 20
11.5073983727
 30
0.0
 10
11.1445427015
 20
11.5082915614
 30
0.0
 10
11.1545684581
 20
11.5096072919
 30
0.0
 10
11.1646182123
 20
11.5113594931
 30
0.0
 10
11.1746819761
 20
11.5135567845
 30
0.0
 10
11.1847490989
 20
11.5162018551
 30
0.0
 10
11.1948087381
 20
11.5192911933
 30
0.0
 10
11.2048507468
 20
11.5228154627
 30
0.0
 10
11.2182769884
 20
11.5281033317
 30
0.0
 10
11.2281832107
 20
11.5326307891
 30
0.0
 10
11.2347226534
 20
11.5358619703
 30
0.0
  0
SPLINE
  5
397
100
AcDbEntity
  8
0
100
AcDbSpline
 62
7
  6
CONTINUOUS
 70
0
 71
3
 72
31
 73
27
 74
0
 42
0.0000001
 43
0.0000001
 44
0.0000000001
 40
0.0
 40
0.0
 40
0.0
 40
0.0
 40
0.071931042
 40
0.1428149177
 40
0.2124847765
 40
0.2807665675
 40
0.3474972622
 40
0.4125516842
 40
0.4444369808
 40
0.475891466
 40
0.5069248233
 40
0.5375541267
 40
0.5678035447
 40
0.5977036953
 40
0.6272903544
 40
0.656602797
 40
0.6856820761
 40
0.7145694993
 40
0.743305019
 40
0.7719259198
 40
0.8004660816
 40
0.8289556307
 40
0.8858732134
 40
0.9143504603
 40
0.942857629
 40
1.0
 40
1.0
 40
1.0
 40
1.0
 10
11.0755813747
 20
11.5981371497
 30
0.0
 10
11.0795752886
 20
11.601898745
 30
0.0
 10
11.0876230489
 20
11.6092434466
 30
0.0
 10
11.0999965584
 20
11.6197172692
 30
0.0
 10
11.112601262
 20
11.6294659042
 30
0.0
 10
11.1254383599
 20
11.6383653986
 30
0.0
 10
11.1384968822
 20
11.6462812409
 30
0.0
 10
11.1496176625
 20
11.6519829629
 30
0.0
 10
11.1585918104
 20
11.6559095967
 30
0.0
 10
11.1653063567
 20
11.6585101632
 30
0.0
 10
11.1720405251
 20
11.660775122
 30
0.0
 10
11.1787852027
 20
11.6626968723
 30
0.0
 10
11.1855307569
 20
11.6642709689
 30
0.0
 10
11.1922674857
 20
11.6654965588
 30
0.0
 10
11.198985975
 20
11.6663762289
 30
0.0
 10
11.2056774173
 20
11.666915828
 30
0.0
 10
11.2123338797
 20
11.6671241602
 30
0.0
 10
11.2189485056
 20
11.6670126603
 30
0.0
 10
11.2255156502
 20
11.6665946922
 30
0.0
 10
11.2320308372
 20
11.665885034
 30
0.0
 10
11.2384909311
 20
11.6648993884
 30
0.0
 10
11.2470240603
 20
11.6632396577
 30
0.0
 10
11.2554497308
 20
11.6610907332
 30
0.0
 10
11.2637494363
 20
11.658519864
 30
0.0
 10
11.2719803561
 20
11.6556831692
 30
0.0
 10
11.2780609355
 20
11.6532832027
 30
0.0
 10
11.2820733143
 20
11.6515811759
 30
0.0
  0
SPLINE
  5
398
100
AcDbEntity
  8
0
100
AcDbSpline
 62
7
  6
CONTINUOUS
 70
0
 71
3
 72
54
 73
50
 74
0
 42
0.0000001
 43
0.0000001
 44
0.0000000001
 40
0.0
 40
0.0
 40
0.0
 40
0.0
 40
0.0417982675
 40
0.0840609034
 40
0.1266596123
 40
0.16946407
 40
0.2123435052
 40
0.2551667081
 40
0.2978027535
 40
0.3401214331
 40
0.381993784
 40
0.4232926553
 40
0.4638931819
 40
0.5036733427
 40
0.5425145316
 40
0.5803020792
 40
0.6169258665
 40
0.6522809666
 40
0.6862682863
 40
0.7027201629
 40
0.7187960159
 40
0.7344854319
 40
0.7497785856
 40
0.7646661589
 40
0.7791394841
 40
0.7931905217
 40
0.8068119388
 40
0.8199971838
 40
0.8327404879
 40
0.8450370538
 40
0.8568830138
 40
0.8682756883
 40
0.8792135729
 40
0.8896966059
 40
0.8997262802
 40
0.9093058946
 40
0.918440846
 40
0.9271388802
 40
0.9354105802
 40
0.9432696855
 40
0.9507337498
 40
0.9578245991
 40
0.9645690507
 40
0.9709994569
 40
0.9771542299
 40
0.9830781201
 40
0.988822049
 40
0.994442471
 40
1.0
 40
1.0
 40
1.0
 40
1.0
 10
10.8180762433
 20
10.6464888586
 30
0.0
 10
10.8311227256
 20
10.645584082
 30
0.0
 10
10.8573755318
 20
10.6439730345
 30
0.0
 10
10.896964438
 20
10.6421547898
 30
0.0
 10
10.936891027
 20
10.6409250382
 30
0.0
 10
10.9770244265
 20
10.6402878643
 30
0.0
 10
11.0172331006
 20
10.6402453583
 30
0.0
 10
11.0573853098
 20
10.6407976666
 30
0.0
 10
11.0973494808
 20
10.641942964
 30
0.0
 10
11.1369946661
 20
10.6436774709
 30
0.0
 10
11.1761909702
 20
10.6459954612
 30
0.0
 10
11.2148099776
 20
10.6488892813
 30
0.0
 10
11.2527251821
 20
10.6523493724
 30
0.0
 10
11.2898124022
 20
10.6563643025
 30
0.0
 10
11.3259502009
 20
10.6609208008
 30
0.0
 10
11.3610202706
 20
10.6660038041
 30
0.0
 10
11.3949079096
 20
10.6715964894
 30
0.0
 10
11.42750213
 20
10.6776803809
 30
0.0
 10
11.4537744301
 20
10.6832008565
 30
0.0
 10
11.4740580981
 20
10.6878590057
 30
0.0
 10
11.4887172703
 20
10.6914247094
 30
0.0
 10
11.5029759352
 20
10.695097438
 30
0.0
 10
11.5168224449
 20
10.6988741532
 30
0.0
 10
11.5302454656
 20
10.7027517838
 30
0.0
 10
11.5432340266
 20
10.7067271178
 30
0.0
 10
11.5557775151
 20
10.7107969006
 30
0.0
 10
11.567865689
 20
10.7149577992
 30
0.0
 10
11.5794886918
 20
10.7192063734
 30
0.0
 10
11.5906370418
 20
10.723539184
 30
0.0
 10
11.6013016755
 20
10.727952628
 30
0.0
 10
11.6114739115
 20
10.7324431614
 30
0.0
 10
11.6211455154
 20
10.7370070654
 30
0.0
 10
11.6303086474
 20
10.7416406847
 30
0.0
 10
11.638955923
 20
10.7463402421
 30
0.0
 10
11.647080382
 20
10.7511019775
 30
0.0
 10
11.6546755042
 20
10.7559221152
 30
0.0
 10
11.6617352412
 20
10.7607968322
 30
0.0
 10
11.6682539366
 20
10.765722416
 30
0.0
 10
11.6742264433
 20
10.7706950652
 30
0.0
 10
11.6796479276
 20
10.7757111871
 30
0.0
 10
11.6845140402
 20
10.7807671172
 30
0.0
 10
11.6888206461
 20
10.7858594083
 30
0.0
 10
11.6925639383
 20
10.7909845845
 30
0.0
 10
11.6957402234
 20
10.7961392173
 30
0.0
 10
11.6983458793
 20
10.8013197676
 30
0.0
 10
11.7003774427
 20
10.8065222478
 30
0.0
 10
11.7018314923
 20
10.8117424676
 30
0.0
 10
11.7027053043
 20
10.8169743442
 30
0.0
 10
11.7028999788
 20
10.8204747231
 30
0.0
 10
11.7028999879
 20
10.8222135596
 30
0.0
  0
SPLINE
  5
399
100
AcDbEntity
  8
0
100
AcDbSpline
 62
7
  6
CONTINUOUS
 70
0
 71
3
 72
50
 73
46
 74
0
 42
0.0000001
 43
0.0000001
 44
0.0000000001
 40
0.0
 40
0.0
 40
0.0
 40
0.0
 40
0.0481981647
 40
0.0958300361
 40
0.1428202216
 40
0.1890983431
 40
0.2345935263
 40
0.2792372537
 40
0.3229627341
 40
0.3657052106
 40
0.4074021951
 40
0.4479936301
 40
0.4874221102
 40
0.5256331534
 40
0.5625754602
 40
0.5982011926
 40
0.6324662988
 40
0.6653309454
 40
0.6967600124
 40
0.7267236233
 40
0.7551978361
 40
0.7821655266
 40
0.7950818493
 40
0.8076188691
 40
0.819776928
 40
0.8315570211
 40
0.8429610012
 40
0.8539914641
 40
0.8646520145
 40
0.8749472807
 40
0.8848829954
 40
0.8944662686
 40
0.9037055466
 40
0.9126109279
 40
0.9211942709
 40
0.9294693371
 40
0.9374521139
 40
0.9451608409
 40
0.9598349532
 40
0.9668567778
 40
0.973703636
 40
0.980406853
 40
0.9870000732
 40
0.9935188307
 40
1.0
 40
1.0
 40
1.0
 40
1.0
 10
10.8180762433
 20
10.6464888586
 30
0.0
 10
10.808868127
 20
10.6471274436
 30
0.0
 10
10.7905670308
 20
10.6484999034
 30
0.0
 10
10.7633175185
 20
10.6508597906
 30
0.0
 10
10.7364637009
 20
10.6535058672
 30
0.0
 10
10.7100507662
 20
10.6564336107
 30
0.0
 10
10.6841226666
 20
10.6596381574
 30
0.0
 10
10.6587228291
 20
10.6631141053
 30
0.0
 10
10.6338936874
 20
10.6668556132
 30
0.0
 10
10.6096767371
 20
10.6708563907
 30
0.0
 10
10.5861124406
 20
10.6751097115
 30
0.0
 10
10.5632401591
 20
10.6796084284
 30
0.0
 10
10.5410980861
 20
10.6843449791
 30
0.0
 10
10.5197231731
 20
10.6893113915
 30
0.0
 10
10.4991510666
 20
10.6944993126
 30
0.0
 10
10.4794160503
 20
10.6999000185
 30
0.0
 10
10.4605509858
 20
10.7055044344
 30
0.0
 10
10.4425872322
 20
10.711303147
 30
0.0
 10
10.4255546079
 20
10.7172864191
 30
0.0
 10
10.4094812355
 20
10.7234442409
 30
0.0
 10
10.3943938458
 20
10.7297663088
 30
0.0
 10
10.3824979644
 20
10.7352386973
 30
0.0
 10
10.3735039577
 20
10.7396996211
 30
0.0
 10
10.3671175671
 20
10.7430316308
 30
0.0
 10
10.3609956753
 20
10.7463967026
 30
0.0
 10
10.3551408264
 20
10.7497935148
 30
0.0
 10
10.3495554205
 20
10.7532206047
 30
0.0
 10
10.3442417869
 20
10.756676615
 30
0.0
 10
10.339202109
 20
10.7601601109
 30
0.0
 10
10.3344384542
 20
10.7636696632
 30
0.0
 10
10.3299528157
 20
10.7672039026
 30
0.0
 10
10.3257470046
 20
10.770761356
 30
0.0
 10
10.3218227911
 20
10.7743406652
 30
0.0
 10
10.3181818001
 20
10.7779403991
 30
0.0
 10
10.314825523
 20
10.7815591734
 30
0.0
 10
10.3117555009
 20
10.7851955406
 30
0.0
 10
10.3089728051
 20
10.7888484384
 30
0.0
 10
10.305701913
 20
10.7936586949
 30
0.0
 10
10.3029345586
 20
10.7985826017
 30
0.0
 10
10.3007420674
 20
10.8035935649
 30
0.0
 10
10.2994145012
 20
10.8073064063
 30
0.0
 10
10.298381003
 20
10.811026542
 30
0.0
 10
10.2976422089
 20
10.8147524778
 30
0.0
 10
10.2971986634
 20
10.8184820308
 30
0.0
 10
10.2971000055
 20
10.8209727062
 30
0.0
 10
10.2971000121
 20
10.8222138883
 30
0.0
  0
SPLINE
  5
39A
100
AcDbEntity
  8
0
100
AcDbSpline
 62
7
  6
CONTINUOUS
 70
0
 71
3
 72
64
 73
60
 74
0
 42
0.0000001
 43
0.0000001
 44
0.0000000001
 40
0.0
 40
0.0
 40
0.0
 40
0.0
 40
0.0451140971
 40
0.0907764642
 40
0.1368073249
 40
0.1830241627
 40
0.2292438046
 40
0.2752830345
 40
0.3209595639
 40
0.3660929396
 40
0.4105055589
 40
0.4540235556
 40
0.4964778055
 40
0.5377049447
 40
0.5775483797
 40
0.5969047506
 40
0.6158601503
 40
0.634397403
 40
0.6525000219
 40
0.6701522033
 40
0.68733888
 40
0.7040458224
 40
0.7202596328
 40
0.73596785
 40
0.7511590624
 40
0.7658229239
 40
0.7799503173
 40
0.7935334758
 40
0.8065660735
 40
0.819043487
 40
0.8309629663
 40
0.8423238656
 40
0.8531280453
 40
0.8633801998
 40
0.8730883522
 40
0.8822645184
 40
0.8909253525
 40
0.8990930548
 40
0.9067964139
 40
0.9140718466
 40
0.9209645574
 40
0.9275294257
 40
0.9307100494
 40
0.9338339055
 40
0.9369105884
 40
0.9399501917
 40
0.9429632307
 40
0.9459605213
 40
0.9489530685
 40
0.9519519354
 40
0.9549681073
 40
0.958012369
 40
0.9610951735
 40
0.9642265492
 40
0.9706701753
 40
0.9774150403
 40
0.9845203259
 40
0.9920352981
 40
1.0
 40
1.0
 40
1.0
 40
1.0
 10
10.8120198827
 20
10.6406388631
 30
0.0
 10
10.8273805052
 20
10.6395736003
 30
0.0
 10
10.8583084919
 20
10.6377099848
 30
0.0
 10
10.9049606597
 20
10.6357159093
 30
0.0
 10
10.9520164756
 20
10.6345111188
 30
0.0
 10
10.9992760602
 20
10.6341008187
 30
0.0
 10
11.0465387175
 20
10.6344867569
 30
0.0
 10
11.0936037625
 20
10.6356672734
 30
0.0
 10
11.1402713579
 20
10.6376373094
 30
0.0
 10
11.1863433681
 20
10.640388429
 30
0.0
 10
11.2316242133
 20
10.6439088216
 30
0.0
 10
11.275921693
 20
10.6481833845
 30
0.0
 10
11.319047895
 20
10.6531937675
 30
0.0
 10
11.3608197004
 20
10.6589184962
 30
0.0
 10
11.3946715024
 20
10.664314381
 30
0.0
 10
11.420934938
 20
10.668982432
 30
0.0
 10
11.4399955682
 20
10.6726123394
 30
0.0
 10
11.4585888114
 20
10.6764009059
 30
0.0
 10
11.4766949599
 20
10.6803440994
 30
0.0
 10
11.4942947997
 20
10.6844377104
 30
0.0
 10
11.5113696644
 20
10.6886773964
 30
0.0
 10
11.5279014568
 20
10.6930586103
 30
0.0
 10
11.5438726557
 20
10.697576694
 30
0.0
 10
11.5592663443
 20
10.702226843
 30
0.0
 10
11.5740662404
 20
10.7070040766
 30
0.0
 10
11.5882566951
 20
10.7119033321
 30
0.0
 10
11.6018227262
 20
10.716919398
 30
0.0
 10
11.6147500392
 20
10.7220469232
 30
0.0
 10
11.6270250228
 20
10.727280506
 30
0.0
 10
11.638634801
 20
10.732614602
 30
0.0
 10
11.6495672361
 20
10.738043589
 30
0.0
 10
11.6598109201
 20
10.7435618323
 30
0.0
 10
11.6693552402
 20
10.7491635911
 30
0.0
 10
11.6781903487
 20
10.7548431454
 30
0.0
 10
11.6863071542
 20
10.7605948339
 30
0.0
 10
11.693697377
 20
10.7664130004
 30
0.0
 10
11.7003534325
 20
10.7722921646
 30
0.0
 10
11.7062683861
 20
10.7782270447
 30
0.0
 10
11.7114358751
 20
10.7842124373
 30
0.0
 10
11.7158498916
 20
10.7902436314
 30
0.0
 10
11.7195043367
 20
10.7963150804
 30
0.0
 10
11.7219375005
 20
10.8014588138
 30
0.0
 10
11.7234809605
 20
10.8055731579
 30
0.0
 10
11.7244340435
 20
10.8086317481
 30
0.0
 10
11.7251941825
 20
10.811694357
 30
0.0
 10
11.7257610864
 20
10.8147601817
 30
0.0
 10
11.7261345652
 20
10.8178282815
 30
0.0
 10
11.7263144508
 20
10.8208977369
 30
0.0
 10
11.7263006161
 20
10.8239676003
 30
0.0
 10
11.7260931254
 20
10.8270369185
 30
0.0
 10
11.7256920608
 20
10.8301047584
 30
0.0
 10
11.7250975533
 20
10.8331701594
 30
0.0
 10
11.7243098475
 20
10.8362323056
 30
0.0
 10
11.722990185
 20
10.8403481273
 30
0.0
 10
11.7208369672
 20
10.8454983219
 30
0.0
 10
11.7175098652
 20
10.8515856427
 30
0.0
 10
11.7134206321
 20
10.8576349714
 30
0.0
 10
11.7085756202
 20
10.8636403206
 30
0.0
 10
11.7049550586
 20
10.867495034
 30
0.0
 10
11.7030306946
 20
10.8694150177
 30
0.0
  0
SPLINE
  5
39B
100
AcDbEntity
  8
0
100
AcDbSpline
 62
7
  6
CONTINUOUS
 70
0
 71
3
 72
12
 73
8
 74
0
 42
0.0000001
 43
0.0000001
 44
0.0000000001
 40
0.0
 40
0.0
 40
0.0
 40
0.0
 40
0.2795422966
 40
0.53719784
 40
0.7759632764
 40
0.8895530137
 40
1.0
 40
1.0
 40
1.0
 40
1.0
 10
11.235589323
 20
11.7299768417
 30
0.0
 10
11.2365178352
 20
11.7308737157
 30
0.0
 10
11.2382282894
 20
11.7326772371
 30
0.0
 10
11.2404043234
 20
11.7355337398
 30
0.0
 10
11.2418186587
 20
11.7379815672
 30
0.0
 10
11.242675319
 20
11.7399414969
 30
0.0
 10
11.2430150382
 20
11.7409201664
 30
0.0
 10
11.2431621508
 20
11.7414085384
 30
0.0
  0
SPLINE
  5
39C
100
AcDbEntity
  8
0
100
AcDbSpline
 62
7
  6
CONTINUOUS
 70
0
 71
3
 72
9
 73
5
 74
0
 42
0.0000001
 43
0.0000001
 44
0.0000000001
 40
0.0
 40
0.0
 40
0.0
 40
0.0
 40
0.5051291962
 40
1.0
 40
1.0
 40
1.0
 40
1.0
 10
11.2431621508
 20
11.7414085384
 30
0.0
 10
11.2434037632
 20
11.7422106228
 30
0.0
 10
11.243773963
 20
11.7438336769
 30
0.0
 10
11.2439000008
 20
11.7454943439
 30
0.0
 10
11.2439
 20
11.7463150167
 30
0.0
  0
SPLINE
  5
39D
100
AcDbEntity
  8
0
100
AcDbSpline
 62
7
  6
CONTINUOUS
 70
0
 71
3
 72
58
 73
54
 74
0
 42
0.0000001
 43
0.0000001
 44
0.0000000001
 40
0.0
 40
0.0
 40
0.0
 40
0.0
 40
0.0526872237
 40
0.1046145464
 40
0.1556680903
 40
0.2057371128
 40
0.254713588
 40
0.302492986
 40
0.3489745241
 40
0.394061697
 40
0.4376626783
 40
0.4796908374
 40
0.5200653426
 40
0.558711794
 40
0.595562972
 40
0.6132970358
 40
0.6305608306
 40
0.6473484862
 40
0.66365469
 40
0.6794749569
 40
0.6948054767
 40
0.7096433984
 40
0.7239867094
 40
0.7378345231
 40
0.7511870127
 40
0.7640456989
 40
0.776413461
 40
0.7882948377
 40
0.7996961363
 40
0.8106257499
 40
0.8210943862
 40
0.8311154123
 40
0.8407052091
 40
0.8498835519
 40
0.8586740653
 40
0.8671045892
 40
0.8752076281
 40
0.8830205582
 40
0.890585828
 40
0.8979507447
 40
0.9051670878
 40
0.9122902112
 40
0.9193778983
 40
0.9264888735
 40
0.933681231
 40
0.941010959
 40
0.9485306307
 40
0.9562885652
 40
0.9643281991
 40
0.9726879989
 40
0.9814014177
 40
0.9904972752
 40
1.0
 40
1.0
 40
1.0
 40
1.0
 10
10.8120198827
 20
10.6406388631
 30
0.0
 10
10.8006723286
 20
10.6414258186
 30
0.0
 10
10.7781510237
 20
10.6431392139
 30
0.0
 10
10.7446776114
 20
10.6461520223
 30
0.0
 10
10.7118126837
 20
10.6495835763
 30
0.0
 10
10.6796346637
 20
10.653425626
 30
0.0
 10
10.6482201538
 20
10.6576689658
 30
0.0
 10
10.6176439942
 20
10.6623034059
 30
0.0
 10
10.5879789797
 20
10.6673178237
 30
0.0
 10
10.5592957157
 20
10.6727001777
 30
0.0
 10
10.5316624266
 20
10.6784375402
 30
0.0
 10
10.5051448138
 20
10.684516128
 30
0.0
 10
10.4798057932
 20
10.6909213348
 30
0.0
 10
10.4557056441
 20
10.6976377832
 30
0.0
 10
10.4364635987
 20
10.7035538945
 30
0.0
 10
10.4217414115
 20
10.7084412699
 30
0.0
 10
10.4111859799
 20
10.7121276121
 30
0.0
 10
10.4009814417
 20
10.7158794135
 30
0.0
 10
10.3911338525
 20
10.7196945275
 30
0.0
 10
10.3816490455
 20
10.7235706117
 30
0.0
 10
10.372532655
 20
10.7275054236
 30
0.0
 10
10.3637900639
 20
10.7314965643
 30
0.0
 10
10.3554264559
 20
10.7355417252
 30
0.0
 10
10.3474467513
 20
10.7396384597
 30
0.0
 10
10.3398556676
 20
10.7437844035
 30
0.0
 10
10.3326576526
 20
10.7479770776
 30
0.0
 10
10.325856946
 20
10.7522140741
 30
0.0
 10
10.3194575163
 20
10.7564929042
 30
0.0
 10
10.3134631151
 20
10.7608111351
 30
0.0
 10
10.3078772335
 20
10.7651662978
 30
0.0
 10
10.3027031384
 20
10.7695559617
 30
0.0
 10
10.2979438669
 20
10.7739777087
 30
0.0
 10
10.2936022312
 20
10.7784291377
 30
0.0
 10
10.2896808734
 20
10.7829079043
 30
0.0
 10
10.2861822184
 20
10.7874116448
 30
0.0
 10
10.2831086157
 20
10.7919380639
 30
0.0
 10
10.2804622066
 20
10.7964847691
 30
0.0
 10
10.2782451558
 20
10.8010493685
 30
0.0
 10
10.2764593725
 20
10.8056292319
 30
0.0
 10
10.2751067952
 20
10.810221578
 30
0.0
 10
10.2741889004
 20
10.8148232562
 30
0.0
 10
10.2737070198
 20
10.8194308721
 30
0.0
 10
10.2736617004
 20
10.8240407526
 30
0.0
 10
10.2740531494
 20
10.828649138
 30
0.0
 10
10.274880664
 20
10.8332523487
 30
0.0
 10
10.2761432769
 20
10.8378468805
 30
0.0
 10
10.2778393319
 20
10.8424295922
 30
0.0
 10
10.2799671557
 20
10.8469975554
 30
0.0
 10
10.2825246718
 20
10.8515481979
 30
0.0
 10
10.2855098926
 20
10.8560789924
 30
0.0
 10
10.2889205949
 20
10.8605876672
 30
0.0
 10
10.2927544292
 20
10.8650717017
 30
0.0
 10
10.2955283881
 20
10.8679777467
 30
0.0
 10
10.2969809048
 20
10.8694265899
 30
0.0
  0
SPLINE
  5
39E
100
AcDbEntity
  8
0
100
AcDbSpline
 62
7
  6
CONTINUOUS
 70
0
 71
3
 72
63
 73
59
 74
0
 42
0.0000001
 43
0.0000001
 44
0.0000000001
 40
0.0
 40
0.0
 40
0.0
 40
0.0
 40
0.0452921172
 40
0.0911377018
 40
0.137353254
 40
0.1837524074
 40
0.2301481985
 40
0.2763536146
 40
0.3221826651
 40
0.367451285
 40
0.4119783842
 40
0.4555868211
 40
0.4981043849
 40
0.5393648917
 40
0.5792092166
 40
0.5985531791
 40
0.6174872492
 40
0.63599409
 40
0.6540570075
 40
0.6716600455
 40
0.6887880623
 40
0.7054267143
 40
0.7215626078
 40
0.7371833228
 40
0.752277473
 40
0.7668348971
 40
0.7808466769
 40
0.7943053195
 40
0.8072049462
 40
0.8195413985
 40
0.8313125775
 40
0.8425186925
 40
0.8531625812
 40
0.8632502471
 40
0.8727913099
 40
0.881799714
 40
0.8902945858
 40
0.8983011041
 40
0.9058516796
 40
0.9129870869
 40
0.9197575202
 40
0.9262234196
 40
0.9293651988
 40
0.9324581818
 40
0.9355126205
 40
0.9385392111
 40
0.9415489751
 40
0.9445531338
 40
0.9475629807
 40
0.9505897362
 40
0.9536444196
 40
0.9567377245
 40
0.9630781027
 40
0.9696891926
 40
0.9766365514
 40
0.9839754013
 40
0.9917510901
 40
1.0
 40
1.0
 40
1.0
 40
1.0
 10
10.8325183341
 20
11.3672068169
 30
0.0
 10
10.8463191626
 20
11.3662497262
 30
0.0
 10
10.8741076486
 20
11.3645774068
 30
0.0
 10
10.9160248026
 20
11.3627948793
 30
0.0
 10
10.958304595
 20
11.3617274369
 30
0.0
 10
11.0007644278
 20
11.361379768
 30
0.0
 10
11.0432209551
 20
11.3617533834
 30
0.0
 10
11.0854908812
 20
11.36284665
 30
0.0
 10
11.1273917176
 20
11.3646547987
 30
0.0
 10
11.1687425832
 20
11.3671699499
 30
0.0
 10
11.2093649977
 20
11.370381139
 30
0.0
 10
11.2490836442
 20
11.3742743492
 30
0.0
 10
11.2877272209
 20
11.3788325743
 30
0.0
 10
11.3251288927
 20
11.3840359463
 30
0.0
 10
11.3554188304
 20
11.3889376842
 30
0.0
 10
11.3789014866
 20
11.3931763057
 30
0.0
 10
11.3959305918
 20
11.396470483
 30
0.0
 10
11.4125320676
 20
11.3999075184
 30
0.0
 10
11.4286880187
 20
11.4034837299
 30
0.0
 10
11.4443810117
 20
11.4071952378
 30
0.0
 10
11.45959413
 20
11.4110379957
 30
0.0
 10
11.4743109739
 20
11.4150078674
 30
0.0
 10
11.4885156946
 20
11.4191005335
 30
0.0
 10
11.5021930021
 20
11.4233115503
 30
0.0
 10
11.5153281777
 20
11.4276363873
 30
0.0
 10
11.5279071156
 20
11.4320703292
 30
0.0
 10
11.5399163177
 20
11.4366085994
 30
0.0
 10
11.5513429181
 20
11.4412463132
 30
0.0
 10
11.5621747157
 20
11.4459784442
 30
0.0
 10
11.5724001532
 20
11.4507999535
 30
0.0
 10
11.5820083746
 20
11.4557056808
 30
0.0
 10
11.5909892273
 20
11.4606904165
 30
0.0
 10
11.5993332411
 20
11.4657489829
 30
0.0
 10
11.6070317026
 20
11.4708761232
 30
0.0
 10
11.6140765871
 20
11.4760666767
 30
0.0
 10
11.6204605529
 20
11.4813155803
 30
0.0
 10
11.62617696
 20
11.4866178363
 30
0.0
 10
11.6312196715
 20
11.4919687363
 30
0.0
 10
11.6355829984
 20
11.4973636419
 30
0.0
 10
11.6392615643
 20
11.5027982647
 30
0.0
 10
11.6422497454
 20
11.5082675064
 30
0.0
 10
11.6441786154
 20
11.5128952801
 30
0.0
 10
11.6453565804
 20
11.5165933819
 30
0.0
 10
11.6460571053
 20
11.5193446361
 30
0.0
 10
11.6465825466
 20
11.5220988167
 30
0.0
 10
11.6469327538
 20
11.52485516
 30
0.0
 10
11.6471075948
 20
11.5276127947
 30
0.0
 10
11.6471069505
 20
11.5303708635
 30
0.0
 10
11.6469308168
 20
11.5331284961
 30
0.0
 10
11.6465793321
 20
11.5358848094
 30
0.0
 10
11.6460525617
 20
11.5386390368
 30
0.0
 10
11.64510936
 20
11.5423370598
 30
0.0
 10
11.6434749395
 20
11.5469696925
 30
0.0
 10
11.6408313116
 20
11.5524545011
 30
0.0
 10
11.6374946909
 20
11.5579071227
 30
0.0
 10
11.6334705375
 20
11.5633222772
 30
0.0
 10
11.6287644769
 20
11.5686954167
 30
0.0
 10
11.6252824879
 20
11.5721413203
 30
0.0
 10
11.6234380639
 20
11.5738577622
 30
0.0
  0
SPLINE
  5
39F
100
AcDbEntity
  8
0
100
AcDbSpline
 62
7
  6
CONTINUOUS
 70
0
 71
3
 72
9
 73
5
 74
0
 42
0.0000001
 43
0.0000001
 44
0.0000000001
 40
0.0
 40
0.0
 40
0.0
 40
0.0
 40
0.5131709238
 40
1.0
 40
1.0
 40
1.0
 40
1.0
 10
10.2042412326
 20
10.7022919943
 30
0.0
 10
10.2019755657
 20
10.7042494085
 30
0.0
 10
10.1976571215
 20
10.7081775739
 30
0.0
 10
10.1935744813
 20
10.71235176
 30
0.0
 10
10.1916570616
 20
10.7144473493
 30
0.0
  0
SPLINE
  5
3A0
100
AcDbEntity
  8
0
100
AcDbSpline
 62
7
  6
CONTINUOUS
 70
0
 71
3
 72
54
 73
50
 74
0
 42
0.0000001
 43
0.0000001
 44
0.0000000001
 40
0.0
 40
0.0
 40
0.0
 40
0.0
 40
0.0417982803
 40
0.0840609307
 40
0.1266596542
 40
0.1694641235
 40
0.2123435733
 40
0.2551667912
 40
0.2978028462
 40
0.3401215385
 40
0.3819939054
 40
0.42329278
 40
0.4638933181
 40
0.5036734905
 40
0.5425146788
 40
0.580302234
 40
0.6169260274
 40
0.6522811226
 40
0.6862684439
 40
0.702720323
 40
0.7187961757
 40
0.7344855859
 40
0.7497787331
 40
0.7646663034
 40
0.7791396283
 40
0.7931906656
 40
0.806812078
 40
0.8199973142
 40
0.8327406102
 40
0.8450371705
 40
0.8568831272
 40
0.8682757976
 40
0.8792136745
 40
0.8896966975
 40
0.8997263615
 40
0.9093059682
 40
0.9184409139
 40
0.9271389415
 40
0.9354106328
 40
0.9432697275
 40
0.9507337817
 40
0.9578246239
 40
0.9645690699
 40
0.9709994712
 40
0.9771542383
 40
0.9830781226
 40
0.9888220476
 40
0.9944424687
 40
1.0
 40
1.0
 40
1.0
 40
1.0
 10
10.8180762433
 20
11.2993581632
 30
0.0
 10
10.8311227319
 20
11.2984533862
 30
0.0
 10
10.8573755512
 20
11.296842338
 30
0.0
 10
10.8969644774
 20
11.2950240928
 30
0.0
 10
10.9368910861
 20
11.2937943414
 30
0.0
 10
10.9770245055
 20
11.2931571682
 30
0.0
 10
11.0172331995
 20
11.2931146635
 30
0.0
 10
11.057385428
 20
11.2936669737
 30
0.0
 10
11.0973496176
 20
11.2948122735
 30
0.0
 10
11.1369948217
 20
11.2965467834
 30
0.0
 10
11.1761911425
 20
11.2988647773
 30
0.0
 10
11.214810166
 20
11.3017586015
 30
0.0
 10
11.2527253851
 20
11.3052186973
 30
0.0
 10
11.2898126183
 20
11.3092336323
 30
0.0
 10
11.3259504286
 20
11.3137901361
 30
0.0
 10
11.3610205079
 20
11.3188731454
 30
0.0
 10
11.3949081547
 20
11.324465837
 30
0.0
 10
11.4275023807
 20
11.3305497351
 30
0.0
 10
11.4537746841
 20
11.3360702166
 30
0.0
 10
11.4740583558
 20
11.3407283713
 30
0.0
 10
11.4887175287
 20
11.3442940787
 30
0.0
 10
11.5029761914
 20
11.3479668104
 30
0.0
 10
11.5168226978
 20
11.3517435289
 30
0.0
 10
11.5302457168
 20
11.3556211631
 30
0.0
 10
11.5432342778
 20
11.3595965016
 30
0.0
 10
11.5557777654
 20
11.363666289
 30
0.0
 10
11.5678659359
 20
11.3678271913
 30
0.0
 10
11.5794889326
 20
11.3720757688
 30
0.0
 10
11.590637276
 20
11.3764085825
 30
0.0
 10
11.6013019046
 20
11.3808220305
 30
0.0
 10
11.6114741361
 20
11.3853125686
 30
0.0
 10
11.6211457348
 20
11.3898764771
 30
0.0
 10
11.6303088592
 20
11.3945101003
 30
0.0
 10
11.6389561252
 20
11.3992096607
 30
0.0
 10
11.6470805741
 20
11.4039713991
 30
0.0
 10
11.6546756869
 20
11.4087915408
 30
0.0
 10
11.661735415
 20
11.4136662622
 30
0.0
 10
11.6682541006
 20
11.4185918506
 30
0.0
 10
11.6742265955
 20
11.4235645034
 30
0.0
 10
11.6796480669
 20
11.4285806277
 30
0.0
 10
11.6845141657
 20
11.4336365608
 30
0.0
 10
11.6888207584
 20
11.4387288553
 30
0.0
 10
11.6925640371
 20
11.4438540359
 30
0.0
 10
11.6957403077
 20
11.4490086728
 30
0.0
 10
11.6983459483
 20
11.4541892261
 30
0.0
 10
11.700377495
 20
11.4593917087
 30
0.0
 10
11.7018315277
 20
11.4646119307
 30
0.0
 10
11.7027053225
 20
11.4698438104
 30
0.0
 10
11.7028999846
 20
11.4733441911
 30
0.0
 10
11.7028999878
 20
11.4750830286
 30
0.0
  0
SPLINE
  5
3A1
100
AcDbEntity
  8
0
100
AcDbSpline
 62
7
  6
CONTINUOUS
 70
0
 71
3
 72
16
 73
12
 74
0
 42
0.0000001
 43
0.0000001
 44
0.0000000001
 40
0.0
 40
0.0
 40
0.0
 40
0.0
 40
0.1098864376
 40
0.2213925756
 40
0.336063254
 40
0.4553048781
 40
0.51705242
 40
0.5803907336
 40
0.7123015786
 40
0.8519456414
 40
1.0
 40
1.0
 40
1.0
 40
1.0
 10
11.23895
 20
11.7224083514
 30
0.0
 10
11.2389500006
 20
11.7217325044
 30
0.0
 10
11.2388631843
 20
11.7203693256
 30
0.0
 10
11.2384740584
 20
11.7183342997
 30
0.0
 10
11.2378269603
 20
11.7163057781
 30
0.0
 10
11.2370829468
 20
11.7146424746
 30
0.0
 10
11.2363669925
 20
11.7133207278
 30
0.0
 10
11.235547201
 20
11.7119686436
 30
0.0
 10
11.2343568325
 20
11.7102841287
 30
0.0
 10
11.2326972461
 20
11.7083045936
 30
0.0
 10
11.2314629399
 20
11.7070343958
 30
0.0
 10
11.2308079899
 20
11.7064017626
 30
0.0
  0
SPLINE
  5
3A2
100
AcDbEntity
  8
0
100
AcDbSpline
 62
7
  6
CONTINUOUS
 70
0
 71
3
 72
62
 73
58
 74
0
 42
0.0000001
 43
0.0000001
 44
0.0000000001
 40
0.0
 40
0.0
 40
0.0
 40
0.0
 40
0.0028080789
 40
0.0056358436
 40
0.0085025312
 40
0.0114265491
 40
0.0175098958
 40
0.0240112676
 40
0.0310266458
 40
0.0386288747
 40
0.0468710923
 40
0.0557903795
 40
0.0654110914
 40
0.075747588
 40
0.0868061957
 40
0.098586738
 40
0.1110837782
 40
0.1242874335
 40
0.1381839924
 40
0.1527565244
 40
0.1679852587
 40
0.183847833
 40
0.2003196542
 40
0.2173741228
 40
0.2349827341
 40
0.2531153281
 40
0.2717402584
 40
0.2908244436
 40
0.3302311746
 40
0.3710491105
 40
0.4129761186
 40
0.4556988832
 40
0.4988962502
 40
0.5422423856
 40
0.5854100173
 40
0.6280736204
 40
0.669912602
 40
0.710614533
 40
0.7498784668
 40
0.7688816626
 40
0.7874194979
 40
0.805459135
 40
0.8229691799
 40
0.8399197796
 40
0.8562827525
 40
0.8720318383
 40
0.8871428541
 40
0.9015938768
 40
0.9153656107
 40
0.9284417039
 40
0.9408090923
 40
0.9524586178
 40
0.9633857834
 40
0.9735914578
 40
0.9830831996
 40
0.9918775335
 40
1.0
 40
1.0
 40
1.0
 40
1.0
 10
10.76105
 20
11.7224083508
 30
0.0
 10
10.7610500004
 20
11.7219441498
 30
0.0
 10
10.7610906664
 20
11.7210119899
 30
0.0
 10
10.7612733047
 20
11.719616719
 30
0.0
 10
10.7615775111
 20
11.7182231043
 30
0.0
 10
10.7621521377
 20
11.716344253
 30
0.0
 10
10.7631921608
 20
11.7139894983
 30
0.0
 10
10.7649043913
 20
11.7112286232
 30
0.0
 10
10.767090468
 20
11.7084973966
 30
0.0
 10
10.7697444687
 20
11.7057995407
 30
0.0
 10
10.7728608351
 20
11.7031383235
 30
0.0
 10
10.7764335618
 20
11.7005177609
 30
0.0
 10
10.7804559206
 20
11.6979422037
 30
0.0
 10
10.7849203044
 20
11.6954163262
 30
0.0
 10
10.7898181377
 20
11.6929449154
 30
0.0
 10
10.7951398785
 20
11.6905327751
 30
0.0
 10
10.800875069
 20
11.6881847074
 30
0.0
 10
10.8070123481
 20
11.6859054387
 30
0.0
 10
10.8135394766
 20
11.6836995564
 30
0.0
 10
10.8204433964
 20
11.6815715398
 30
0.0
 10
10.8277102579
 20
11.6795257312
 30
0.0
 10
10.8353254406
 20
11.6775662784
 30
0.0
 10
10.8432736064
 20
11.675697171
 30
0.0
 10
10.8515387317
 20
11.6739222329
 30
0.0
 10
10.8601041339
 20
11.672245067
 30
0.0
 10
10.8689525099
 20
11.6706690903
 30
0.0
 10
10.8780660005
 20
11.6691975011
 30
0.0
 10
10.8906811052
 20
11.6673590144
 30
0.0
 10
10.9069770794
 20
11.6653523047
 30
0.0
 10
10.927080042
 20
11.6634264442
 30
0.0
 10
10.9477722224
 20
11.6619738001
 30
0.0
 10
10.96888637
 20
11.6610062849
 30
0.0
 10
10.9902519464
 20
11.6605318958
 30
0.0
 10
11.0116962945
 20
11.6605545128
 30
0.0
 10
11.0330461272
 20
11.6610739574
 30
0.0
 10
11.0541289162
 20
11.6620859679
 30
0.0
 10
11.0747743837
 20
11.6635821798
 30
0.0
 10
11.0948156585
 20
11.6655503351
 30
0.0
 10
11.1110507471
 20
11.6675916772
 30
0.0
 10
11.1236099398
 20
11.6694571667
 30
0.0
 10
11.1326765843
 20
11.6709479644
 30
0.0
 10
11.1414748213
 20
11.6725425847
 30
0.0
 10
11.1499868945
 20
11.6742377918
 30
0.0
 10
11.1581956121
 20
11.6760301231
 30
0.0
 10
11.1660844063
 20
11.6779159449
 30
0.0
 10
11.1736373748
 20
11.679891406
 30
0.0
 10
11.1808393109
 20
11.6819524747
 30
0.0
 10
11.1876757302
 20
11.6840949716
 30
0.0
 10
11.1941329205
 20
11.6863145396
 30
0.0
 10
11.2001979754
 20
11.6886066638
 30
0.0
 10
11.2058588126
 20
11.6909667295
 30
0.0
 10
11.2111042269
 20
11.6933900063
 30
0.0
 10
11.2159239344
 20
11.6958716908
 30
0.0
 10
11.2203085272
 20
11.6984069246
 30
0.0
 10
11.2242497778
 20
11.7009910718
 30
0.0
 10
11.2277397517
 20
11.7036191631
 30
0.0
 10
11.229842234
 20
11.705468914
 30
0.0
 10
11.2308079899
 20
11.7064017626
 30
0.0
  0
SPLINE
  5
3A3
100
AcDbEntity
  8
0
100
AcDbSpline
 62
7
  6
CONTINUOUS
 70
0
 71
3
 72
30
 73
26
 74
0
 42
0.0000001
 43
0.0000001
 44
0.0000000001
 40
0.0
 40
0.0
 40
0.0
 40
0.0
 40
0.0583289089
 40
0.1168669173
 40
0.1756850272
 40
0.2052264416
 40
0.2348698208
 40
0.2646269584
 40
0.2945099772
 40
0.3245311666
 40
0.35470277
 40
0.3850367293
 40
0.4155444311
 40
0.4462364863
 40
0.4771224939
 40
0.50821082
 40
0.539508412
 40
0.5710206979
 40
0.6027515113
 40
0.6668719888
 40
0.7318734282
 40
0.7977328039
 40
0.8644097236
 40
0.931851801
 40
1.0
 40
1.0
 40
1.0
 40
1.0
 10
10.2042412326
 20
10.7022919943
 30
0.0
 10
10.2156090241
 20
10.7036033973
 30
0.0
 10
10.2384339
 20
10.7058323338
 30
0.0
 10
10.2728491806
 20
10.7078629479
 30
0.0
 10
10.3016739683
 20
10.7083561244
 30
0.0
 10
10.3248227352
 20
10.7079720261
 30
0.0
 10
10.3422595547
 20
10.7072777038
 30
0.0
 10
10.3597417308
 20
10.7061631773
 30
0.0
 10
10.3772653888
 20
10.7046152613
 30
0.0
 10
10.3948259018
 20
10.7026220794
 30
0.0
 10
10.4124180865
 20
10.7001733424
 30
0.0
 10
10.4300362115
 20
10.69726061
 30
0.0
 10
10.4476740966
 20
10.6938775484
 30
0.0
 10
10.4653252029
 20
10.6900200331
 30
0.0
 10
10.4829827468
 20
10.6856862691
 30
0.0
 10
10.5006398293
 20
10.6808768462
 30
0.0
 10
10.5182895515
 20
10.6755948379
 30
0.0
 10
10.5359252745
 20
10.6698455625
 30
0.0
 10
10.5594927606
 20
10.6615386633
 30
0.0
 10
10.5888837079
 20
10.6500179877
 30
0.0
 10
10.6238758354
 20
10.6345397424
 30
0.0
 10
10.6586820065
 20
10.6174784714
 30
0.0
 10
10.6932797047
 20
10.5989643023
 30
0.0
 10
10.7276560393
 20
10.5791311799
 30
0.0
 10
10.7503123461
 20
10.5651855219
 30
0.0
 10
10.7616089216
 20
10.5580348041
 30
0.0
  0
SPLINE
  5
3A4
100
AcDbEntity
  8
0
100
AcDbSpline
 62
7
  6
CONTINUOUS
 70
0
 71
3
 72
55
 73
51
 74
0
 42
0.0000001
 43
0.0000001
 44
0.0000000001
 40
0.0
 40
0.0
 40
0.0
 40
0.0
 40
0.0077403544
 40
0.0160537854
 40
0.0249599475
 40
0.034471355
 40
0.0445945565
 40
0.0553313598
 40
0.0666795606
 40
0.0786335054
 40
0.0911847464
 40
0.104322243
 40
0.1180327625
 40
0.1323011625
 40
0.1471104549
 40
0.1624421407
 40
0.1782762425
 40
0.1945914395
 40
0.2285731406
 40
0.2641955581
 40
0.3012509267
 40
0.3395190066
 40
0.3787693257
 40
0.4187633251
 40
0.4592564296
 40
0.5000000901
 40
0.5407437421
 40
0.5812368441
 40
0.621230833
 40
0.660481137
 40
0.6987492006
 40
0.7358045473
 40
0.7714269429
 40
0.8054086126
 40
0.8217237978
 40
0.8375578859
 40
0.8528895512
 40
0.8676988276
 40
0.8819672137
 40
0.8956777125
 40
0.908815189
 40
0.9213664142
 40
0.9333203411
 40
0.9446685175
 40
0.9554052981
 40
0.9655285052
 40
0.9750398751
 40
0.9839459223
 40
0.9922595961
 40
1.0
 40
1.0
 40
1.0
 40
1.0
 10
10.7650187843
 20
11.7241843857
 30
0.0
 10
10.7659361634
 20
11.7233306808
 30
0.0
 10
10.7679109979
 20
11.7216366621
 30
0.0
 10
10.7711506935
 20
11.7192172275
 30
0.0
 10
10.7747658966
 20
11.7168342276
 30
0.0
 10
10.7787507301
 20
11.7144915019
 30
0.0
 10
10.7830989751
 20
11.7121925585
 30
0.0
 10
10.7878037034
 20
11.7099410879
 30
0.0
 10
10.7928573772
 20
11.7077407274
 30
0.0
 10
10.7982518238
 20
11.7055950338
 30
0.0
 10
10.8039782985
 20
11.703507564
 30
0.0
 10
10.8100274652
 20
11.7014817387
 30
0.0
 10
10.8163894394
 20
11.6995208991
 30
0.0
 10
10.8230538093
 20
11.6976283178
 30
0.0
 10
10.8300096412
 20
11.6958070958
 30
0.0
 10
10.8372455142
 20
11.6940602773
 30
0.0
 10
10.8447495483
 20
11.6923907319
 30
0.0
 10
10.8552387346
 20
11.6902422647
 30
0.0
 10
10.8689318517
 20
11.6877807541
 30
0.0
 10
10.8860100807
 20
11.685213441
 30
0.0
 10
10.9038385575
 20
11.6830113351
 30
0.0
 10
10.922299953
 20
11.6811891504
 30
0.0
 10
10.9412728853
 20
11.6797591079
 30
0.0
 10
10.9606324806
 20
11.6787307642
 30
0.0
 10
10.9802512972
 20
11.6781109949
 30
0.0
 10
11.0000001564
 20
11.6779039442
 30
0.0
 10
11.0197490151
 20
11.6781110016
 30
0.0
 10
11.039367828
 20
11.6787307772
 30
0.0
 10
11.0587274184
 20
11.6797591274
 30
0.0
 10
11.0777003434
 20
11.6811891762
 30
0.0
 10
11.0961617297
 20
11.6830113669
 30
0.0
 10
11.1139901959
 20
11.6852134787
 30
0.0
 10
11.1310684118
 20
11.6877807976
 30
0.0
 10
11.1447615174
 20
11.6902423126
 30
0.0
 10
11.1552506935
 20
11.6923907836
 30
0.0
 10
11.1627547195
 20
11.6940603314
 30
0.0
 10
11.1699905835
 20
11.6958071523
 30
0.0
 10
11.1769464064
 20
11.6976283768
 30
0.0
 10
11.1836107671
 20
11.6995209602
 30
0.0
 10
11.1899727314
 20
11.7014818018
 30
0.0
 10
11.1960218877
 20
11.7035076292
 30
0.0
 10
11.2017483525
 20
11.7055951007
 30
0.0
 10
11.2071427881
 20
11.7077407965
 30
0.0
 10
11.21219645
 20
11.709941158
 30
0.0
 10
11.2169011707
 20
11.7121926293
 30
0.0
 10
11.2212494024
 20
11.7144915791
 30
0.0
 10
11.225234211
 20
11.7168342994
 30
0.0
 10
11.2288494336
 20
11.7192172969
 30
0.0
 10
11.2320891302
 20
11.721636779
 30
0.0
 10
11.2340639969
 20
11.7233308318
 30
0.0
 10
11.2349813814
 20
11.7241845428
 30
0.0
  0
SPLINE
  5
3A5
100
AcDbEntity
  8
0
100
AcDbSpline
 62
7
  6
CONTINUOUS
 70
0
 71
3
 72
55
 73
51
 74
0
 42
0.0000001
 43
0.0000001
 44
0.0000000001
 40
0.0
 40
0.0
 40
0.0
 40
0.0
 40
0.0077403374
 40
0.0160537487
 40
0.0249598908
 40
0.034471282
 40
0.044594466
 40
0.0553312502
 40
0.0666794355
 40
0.0786333665
 40
0.0911845924
 40
0.104322075
 40
0.1180325831
 40
0.1323009743
 40
0.1471102564
 40
0.1624419311
 40
0.1782760289
 40
0.1945912222
 40
0.2285729103
 40
0.2641953249
 40
0.3012506956
 40
0.3395187761
 40
0.3787691058
 40
0.4187631133
 40
0.4592562359
 40
0.4999999046
 40
0.5407435815
 40
0.5812366979
 40
0.6212307076
 40
0.6604810322
 40
0.6987491149
 40
0.7358044805
 40
0.7714268914
 40
0.8054085804
 40
0.8217237707
 40
0.8375578634
 40
0.8528895375
 40
0.8676988199
 40
0.881967209
 40
0.8956777122
 40
0.9088151928
 40
0.9213664203
 40
0.9333203485
 40
0.9446685258
 40
0.9554053072
 40
0.9655285136
 40
0.9750398818
 40
0.9839459274
 40
0.9922595991
 40
1.0
 40
1.0
 40
1.0
 40
1.0
 10
10.769787674
 20
11.7197464333
 30
0.0
 10
10.7706864305
 20
11.7189100533
 30
0.0
 10
10.772621177
 20
11.7172504128
 30
0.0
 10
10.7757951106
 20
11.7148800778
 30
0.0
 10
10.7793369316
 20
11.7125454383
 30
0.0
 10
10.7832408823
 20
11.7102502554
 30
0.0
 10
10.7875008695
 20
11.707997966
 30
0.0
 10
10.7921101058
 20
11.7057921862
 30
0.0
 10
10.7970612067
 20
11.7036364791
 30
0.0
 10
10.8023461652
 20
11.7015343292
 30
0.0
 10
10.8079564138
 20
11.6994892216
 30
0.0
 10
10.8138828059
 20
11.6975045074
 30
0.0
 10
10.8201156584
 20
11.6955834598
 30
0.0
 10
10.8266447701
 20
11.6937292854
 30
0.0
 10
10.8334594289
 20
11.6919450219
 30
0.0
 10
10.8405484462
 20
11.690233652
 30
0.0
 10
10.8479001835
 20
11.688597987
 30
0.0
 10
10.8581764893
 20
11.6864931184
 30
0.0
 10
10.8715917029
 20
11.6840815595
 30
0.0
 10
10.8883233291
 20
11.681566344
 30
0.0
 10
10.9057899792
 20
11.6794089247
 30
0.0
 10
10.9238767054
 20
11.6776237162
 30
0.0
 10
10.9424645879
 20
11.6762226919
 30
0.0
 10
10.961431289
 20
11.6752152142
 30
0.0
 10
10.9806519503
 20
11.6746080196
 30
0.0
 10
11.0000000177
 20
11.6744051678
 30
0.0
 10
11.0193480842
 20
11.6746080203
 30
0.0
 10
11.0385687461
 20
11.6752152157
 30
0.0
 10
11.0575354457
 20
11.676222694
 30
0.0
 10
11.0761233281
 20
11.6776237192
 30
0.0
 10
11.094210053
 20
11.6794089282
 30
0.0
 10
11.1116767019
 20
11.6815663484
 30
0.0
 10
11.1284083267
 20
11.6840815642
 30
0.0
 10
11.1418235393
 20
11.686493124
 30
0.0
 10
11.1520998439
 20
11.6885979927
 30
0.0
 10
11.1594515797
 20
11.690233658
 30
0.0
 10
11.166540596
 20
11.6919450282
 30
0.0
 10
11.1733552543
 20
11.6937292921
 30
0.0
 10
11.1798843649
 20
11.6955834667
 30
0.0
 10
11.1861172159
 20
11.6975045143
 30
0.0
 10
11.192043607
 20
11.6994892289
 30
0.0
 10
11.197653855
 20
11.7015343367
 30
0.0
 10
11.2029388117
 20
11.7036364871
 30
0.0
 10
11.2078899104
 20
11.7057921938
 30
0.0
 10
11.2124991491
 20
11.707997973
 30
0.0
 10
11.2167591333
 20
11.7102502673
 30
0.0
 10
11.2206630693
 20
11.7125454437
 30
0.0
 10
11.2242049197
 20
11.71488008
 30
0.0
 10
11.2273788649
 20
11.7172504604
 30
0.0
 10
11.2293136502
 20
11.7189101337
 30
0.0
 10
11.2302124154
 20
11.7197465192
 30
0.0
  0
SPLINE
  5
3A6
100
AcDbEntity
  8
0
100
AcDbSpline
 62
7
  6
CONTINUOUS
 70
0
 71
3
 72
23
 73
19
 74
0
 42
0.0000001
 43
0.0000001
 44
0.0000000001
 40
0.0
 40
0.0
 40
0.0
 40
0.0
 40
0.0635431454
 40
0.1269875422
 40
0.1903202629
 40
0.2535278206
 40
0.316597067
 40
0.3795159829
 40
0.442274734
 40
0.5048665881
 40
0.5672886519
 40
0.6295421875
 40
0.6916323989
 40
0.7535678798
 40
0.8153596489
 40
0.8770202399
 40
0.9385626847
 40
1.0
 40
1.0
 40
1.0
 40
1.0
 10
10.808573651
 20
10.5547777891
 30
0.0
 10
10.8240693889
 20
10.5600969987
 30
0.0
 10
10.8551614759
 20
10.5703688098
 30
0.0
 10
10.9021404361
 20
10.5845609701
 30
0.0
 10
10.9494201448
 20
10.5973956505
 30
0.0
 10
10.9969810582
 20
10.6087406895
 30
0.0
 10
11.0447911322
 20
10.6184696265
 30
0.0
 10
11.0928045622
 20
10.6264696837
 30
0.0
 10
11.1409628006
 20
10.6326500116
 30
0.0
 10
11.1891971354
 20
10.6369501837
 30
0.0
 10
11.2374331865
 20
10.6393454045
 30
0.0
 10
11.285596334
 20
10.6398496682
 30
0.0
 10
11.3336173142
 20
10.6385134656
 30
0.0
 10
11.3814367645
 20
10.6354192697
 30
0.0
 10
11.4290080495
 20
10.6306734183
 30
0.0
 10
11.4762983845
 20
10.6243979791
 30
0.0
 10
11.5232876075
 20
10.616722554
 30
0.0
 10
11.5544329164
 20
10.6107543274
 30
0.0
 10
11.56995186
 20
10.6075796406
 30
0.0
  0
SPLINE
  5
3A7
100
AcDbEntity
  8
0
100
AcDbSpline
 62
7
  6
CONTINUOUS
 70
0
 71
3
 72
12
 73
8
 74
0
 42
0.0000001
 43
0.0000001
 44
0.0000000001
 40
0.0
 40
0.0
 40
0.0
 40
0.0
 40
0.2439880186
 40
0.3673781085
 40
0.4918034011
 40
0.7438155254
 40
1.0
 40
1.0
 40
1.0
 40
1.0
 10
10.9353014257
 20
12.2178436286
 30
0.0
 10
10.9338632515
 20
12.2183608165
 30
0.0
 10
10.9317574891
 20
12.2193136472
 30
0.0
 10
10.9290799363
 20
12.2208385559
 30
0.0
 10
10.9264464267
 20
12.2225347009
 30
0.0
 10
10.9232733167
 20
12.224916902
 30
0.0
 10
10.9208729424
 20
12.227011415
 30
0.0
 10
10.9196944301
 20
12.2281005891
 30
0.0
  0
SPLINE
  5
3A8
100
AcDbEntity
  8
0
100
AcDbSpline
 62
7
  6
CONTINUOUS
 70
0
 71
3
 72
67
 73
63
 74
0
 42
0.0000001
 43
0.0000001
 44
0.0000000001
 40
0.0
 40
0.0
 40
0.0
 40
0.0
 40
0.0074885632
 40
0.0143761049
 40
0.0176311639
 40
0.0207814285
 40
0.0238461505
 40
0.0268464097
 40
0.0298048765
 40
0.0327452845
 40
0.0356918461
 40
0.038668601
 40
0.0416988032
 40
0.0448043952
 40
0.051315794
 40
0.0583462241
 40
0.0660010883
 40
0.0743569683
 40
0.0834669732
 40
0.0933658158
 40
0.1040738793
 40
0.1156003765
 40
0.1279457382
 40
0.1411032961
 40
0.1550604536
 40
0.169799708
 40
0.185299375
 40
0.2015340878
 40
0.218475228
 40
0.2360913315
 40
0.2543483872
 40
0.2732100543
 40
0.2926378914
 40
0.3125916011
 40
0.3330292035
 40
0.3751795151
 40
0.4187266727
 40
0.4632905969
 40
0.5084793887
 40
0.55389393
 40
0.5991325425
 40
0.6437955657
 40
0.6874899119
 40
0.7298338127
 40
0.7503848786
 40
0.7704627394
 40
0.7900250058
 40
0.8090309233
 40
0.8274415878
 40
0.8452201386
 40
0.8623319425
 40
0.8787448514
 40
0.8944295448
 40
0.9093598261
 40
0.9235130121
 40
0.936870488
 40
0.9494184126
 40
0.9611485509
 40
0.9720593702
 40
0.9821576157
 40
0.9914611903
 40
1.0
 40
1.0
 40
1.0
 40
1.0
 10
10.783360219
 20
11.81377776
 30
0.0
 10
10.7825456759
 20
11.8129062729
 30
0.0
 10
10.7810647055
 20
11.8111522915
 30
0.0
 10
10.7795317586
 20
11.8087875013
 30
0.0
 10
10.7785869411
 20
11.8068903477
 30
0.0
 10
10.7780231377
 20
11.8054892948
 30
0.0
 10
10.7775914262
 20
11.8040843612
 30
0.0
 10
10.7772923649
 20
11.8026764238
 30
0.0
 10
10.7771263039
 20
11.8012665405
 30
0.0
 10
10.7770934492
 20
11.7998558067
 30
0.0
 10
10.7771939202
 20
11.7984453617
 30
0.0
 10
10.7774274876
 20
11.7970363457
 30
0.0
 10
10.7777939127
 20
11.7956297679
 30
0.0
 10
10.7784694064
 20
11.793729468
 30
0.0
 10
10.7796676104
 20
11.7913506868
 30
0.0
 10
10.7816051818
 20
11.7885741997
 30
0.0
 10
10.78405703
 20
11.7858328572
 30
0.0
 10
10.7870161638
 20
11.7831307689
 30
0.0
 10
10.7904758257
 20
11.7804718036
 30
0.0
 10
10.7944284706
 20
11.7778608723
 30
0.0
 10
10.7988654562
 20
11.7753032576
 30
0.0
 10
10.8037769052
 20
11.7728045241
 30
0.0
 10
10.8091517152
 20
11.7703703365
 30
0.0
 10
10.8149775732
 20
11.7680063545
 30
0.0
 10
10.821240987
 20
11.7657181236
 30
0.0
 10
10.8279273558
 20
11.763511063
 30
0.0
 10
10.8350210262
 20
11.7613904305
 30
0.0
 10
10.8425053323
 20
11.7593612904
 30
0.0
 10
10.8503626389
 20
11.7574284767
 30
0.0
 10
10.8585744067
 20
11.7555966064
 30
0.0
 10
10.8671212409
 20
11.7538700662
 30
0.0
 10
10.8759829328
 20
11.7522529773
 30
0.0
 10
10.8851385069
 20
11.7507492011
 30
0.0
 10
10.8945663085
 20
11.7493623031
 30
0.0
 10
10.9076039647
 20
11.7476559545
 30
0.0
 10
10.9244163491
 20
11.7458476974
 30
0.0
 10
10.9451039132
 20
11.7442093326
 30
0.0
 10
10.9663110575
 20
11.7430968434
 30
0.0
 10
10.9878369908
 20
11.742520955
 30
0.0
 10
11.0094780519
 20
11.7424872235
 30
0.0
 10
11.0310293972
 20
11.7429960048
 30
0.0
 10
11.0522871178
 20
11.7440423338
 30
0.0
 10
11.0730499385
 20
11.7456161793
 30
0.0
 10
11.0899406469
 20
11.7473714597
 30
0.0
 10
11.1030528876
 20
11.7490364178
 30
0.0
 10
11.1125448534
 20
11.7503937563
 30
0.0
 10
11.121770077
 20
11.7518688216
 30
0.0
 10
11.1307067324
 20
11.7534581275
 30
0.0
 10
11.1393336689
 20
11.7551578669
 30
0.0
 10
11.147630489
 20
11.7569639748
 30
0.0
 10
11.155577585
 20
11.7588721386
 30
0.0
 10
11.1631561952
 20
11.7608778096
 30
0.0
 10
11.1703484643
 20
11.7629761871
 30
0.0
 10
11.1771374841
 20
11.7651622615
 30
0.0
 10
11.1835073345
 20
11.7674308338
 30
0.0
 10
11.1894431462
 20
11.7697765291
 30
0.0
 10
11.1949311606
 20
11.7721938016
 30
0.0
 10
11.1999587775
 20
11.7746770353
 30
0.0
 10
11.204514509
 20
11.7772205363
 30
0.0
 10
11.2085883975
 20
11.779818818
 30
0.0
 10
11.212170935
 20
11.782466084
 30
0.0
 10
11.214315627
 20
11.7843380141
 30
0.0
 10
11.2152939435
 20
11.7852829953
 30
0.0
  0
SPLINE
  5
3A9
100
AcDbEntity
  8
0
100
AcDbSpline
 62
7
  6
CONTINUOUS
 70
0
 71
3
 72
38
 73
34
 74
0
 42
0.0000001
 43
0.0000001
 44
0.0000000001
 40
0.0
 40
0.0
 40
0.0
 40
0.0
 40
0.0910207944
 40
0.1353089228
 40
0.1787259154
 40
0.22122982
 40
0.2627795121
 40
0.3033354079
 40
0.3428602076
 40
0.3813198443
 40
0.4186845095
 40
0.4549296607
 40
0.4900370442
 40
0.5239957734
 40
0.5568033477
 40
0.5884664013
 40
0.619001313
 40
0.6484346383
 40
0.67680333
 40
0.7041544289
 40
0.7305444746
 40
0.7560386248
 40
0.7807095038
 40
0.8046356259
 40
0.8278995966
 40
0.8505862463
 40
0.8727807467
 40
0.8945667377
 40
0.9160246232
 40
0.9372301533
 40
0.9582533362
 40
0.9791578026
 40
1.0
 40
1.0
 40
1.0
 40
1.0
 10
11.6043324184
 20
10.6164779805
 30
0.0
 10
11.6084180043
 20
10.6246009657
 30
0.0
 10
11.6146072291
 20
10.6366190079
 30
0.0
 10
11.6230574705
 20
10.6523469549
 30
0.0
 10
11.629357705
 20
10.663727078
 30
0.0
 10
11.635677791
 20
10.6747822033
 30
0.0
 10
11.6420172379
 20
10.6854955212
 30
0.0
 10
11.6483753173
 20
10.6958502225
 30
0.0
 10
11.6547511211
 20
10.7058297085
 30
0.0
 10
11.6611435262
 20
10.7154178209
 30
0.0
 10
11.6675511906
 20
10.7245991016
 30
0.0
 10
11.6739725696
 20
10.7333590432
 30
0.0
 10
11.6804059338
 20
10.7416843489
 30
0.0
 10
11.6868493794
 20
10.7495632084
 30
0.0
 10
11.6933008305
 20
10.7569855673
 30
0.0
 10
11.6997580981
 20
10.7639433163
 30
0.0
 10
11.706218908
 20
10.7704304606
 30
0.0
 10
11.7126809438
 20
10.7764432522
 30
0.0
 10
11.7191418396
 20
10.7819803137
 30
0.0
 10
11.7255992538
 20
10.7870426089
 30
0.0
 10
11.7320508912
 20
10.7916333893
 30
0.0
 10
11.7384945321
 20
10.7957580976
 30
0.0
 10
11.744928029
 20
10.7994242784
 30
0.0
 10
11.7513493493
 20
10.802641373
 30
0.0
 10
11.7577566035
 20
10.805420485
 30
0.0
 10
11.7641480611
 20
10.8077741638
 30
0.0
 10
11.7705221708
 20
10.8097161958
 30
0.0
 10
11.7768775938
 20
10.8112613451
 30
0.0
 10
11.7832132348
 20
10.8124250729
 30
0.0
 10
11.7895282229
 20
10.813223322
 30
0.0
 10
11.7958220129
 20
10.813672303
 30
0.0
 10
11.8020940458
 20
10.8137882601
 30
0.0
 10
11.8062641934
 20
10.8136541677
 30
0.0
 10
11.8083429384
 20
10.8135370223
 30
0.0
  0
SPLINE
  5
3AA
100
AcDbEntity
  8
0
100
AcDbSpline
 62
7
  6
CONTINUOUS
 70
0
 71
3
 72
16
 73
12
 74
0
 42
0.0000001
 43
0.0000001
 44
0.0000000001
 40
0.0
 40
0.0
 40
0.0
 40
0.0
 40
0.1480543646
 40
0.2876984311
 40
0.4196092656
 40
0.4829475736
 40
0.5446951146
 40
0.6639367557
 40
0.7786074495
 40
0.8901135749
 40
1.0
 40
1.0
 40
1.0
 40
1.0
 10
11.235589323
 20
11.5126435179
 30
0.0
 10
11.2362578407
 20
11.5132892565
 30
0.0
 10
11.2375177163
 20
11.5145857673
 30
0.0
 10
11.2392116821
 20
11.5166063096
 30
0.0
 10
11.2404267099
 20
11.5183257201
 30
0.0
 10
11.2412634838
 20
11.5197058135
 30
0.0
 10
11.2419942696
 20
11.5210549412
 30
0.0
 10
11.2427536957
 20
11.5227527013
 30
0.0
 10
11.2434141989
 20
11.524823245
 30
0.0
 10
11.243811386
 20
11.5269004277
 30
0.0
 10
11.2439000006
 20
11.5282918454
 30
0.0
 10
11.2439
 20
11.5289816929
 30
0.0
  0
SPLINE
  5
3AB
100
AcDbEntity
  8
0
100
AcDbSpline
 62
7
  6
CONTINUOUS
 70
0
 71
3
 72
13
 73
9
 74
0
 42
0.0000001
 43
0.0000001
 44
0.0000000001
 40
0.0
 40
0.0
 40
0.0
 40
0.0
 40
0.1107447573
 40
0.2268384849
 40
0.3475277654
 40
0.4721517819
 40
0.7310444112
 40
1.0
 40
1.0
 40
1.0
 40
1.0
 10
11.0645536266
 20
12.2177913548
 30
0.0
 10
11.0642817427
 20
12.2185088195
 30
0.0
 10
11.0637481506
 20
12.2199872886
 30
0.0
 10
11.0629874379
 20
12.2222718605
 30
0.0
 10
11.0622451804
 20
12.2246633407
 30
0.0
 10
11.0612667438
 20
12.2280168481
 30
0.0
 10
11.0600945631
 20
12.2323831574
 30
0.0
 10
11.0592195295
 20
12.2359341231
 30
0.0
 10
11.0587877408
 20
12.2377467601
 30
0.0
  0
SPLINE
  5
3AC
100
AcDbEntity
  8
0
100
AcDbSpline
 62
7
  6
CONTINUOUS
 70
0
 71
3
 72
15
 73
11
 74
0
 42
0.0000001
 43
0.0000001
 44
0.0000000001
 40
0.0
 40
0.0
 40
0.0
 40
0.0
 40
0.1236271322
 40
0.2479123241
 40
0.3726933401
 40
0.497822816
 40
0.6231891149
 40
0.7487089026
 40
0.8743276825
 40
1.0
 40
1.0
 40
1.0
 40
1.0
 10
11.0108472627
 20
12.2231893359
 30
0.0
 10
11.0093129082
 20
12.2235914857
 30
0.0
 10
11.0062768085
 20
12.2245609428
 30
0.0
 10
11.001872269
 20
12.2264369377
 30
0.0
 10
10.9976174646
 20
12.2286709056
 30
0.0
 10
10.9935157707
 20
12.2311987966
 30
0.0
 10
10.9895609754
 20
12.2339658622
 30
0.0
 10
10.9857424879
 20
12.2369273865
 30
0.0
 10
10.9820480566
 20
12.2400476089
 30
0.0
 10
10.9796597393
 20
12.2422145015
 30
0.0
 10
10.9784821709
 20
12.2433159703
 30
0.0
  0
SPLINE
  5
3AD
100
AcDbEntity
  8
0
100
AcDbSpline
 62
7
  6
CONTINUOUS
 70
0
 71
3
 72
11
 73
7
 74
0
 42
0.0000001
 43
0.0000001
 44
0.0000000001
 40
0.0
 40
0.0
 40
0.0
 40
0.0
 40
0.2597829358
 40
0.5112837318
 40
0.7570928246
 40
1.0
 40
1.0
 40
1.0
 40
1.0
 10
10.8355458012
 20
11.7812711785
 30
0.0
 10
10.8353586826
 20
11.7816807248
 30
0.0
 10
10.8350278829
 20
11.7825046765
 30
0.0
 10
10.8346660168
 20
11.7837685207
 30
0.0
 10
10.8344484677
 20
11.7850354939
 30
0.0
 10
10.8344000043
 20
11.78588333
 30
0.0
 10
10.8344000074
 20
11.7863043483
 30
0.0
  0
SPLINE
  5
3AE
100
AcDbEntity
  8
0
100
AcDbSpline
 62
7
  6
CONTINUOUS
 70
0
 71
3
 72
15
 73
11
 74
0
 42
0.0000001
 43
0.0000001
 44
0.0000000001
 40
0.0
 40
0.0
 40
0.0
 40
0.0
 40
0.1098905636
 40
0.2214012712
 40
0.3360758222
 40
0.4553208204
 40
0.5803744223
 40
0.7122927505
 40
0.8519433263
 40
1.0
 40
1.0
 40
1.0
 40
1.0
 10
11.1655999925
 20
12.001029692
 30
0.0
 10
11.1655999899
 20
12.0005613075
 30
0.0
 10
11.1655398502
 20
11.9996165727
 30
0.0
 10
11.1652701471
 20
11.9982062487
 30
0.0
 10
11.1648216877
 20
11.9968003704
 30
0.0
 10
11.1641957547
 20
11.9954010262
 30
0.0
 10
11.1633936708
 20
11.9940095843
 30
0.0
 10
11.1624168068
 20
11.9926272381
 30
0.0
 10
11.1612666142
 20
11.9912552933
 30
0.0
 10
11.1604112186
 20
11.9903750203
 30
0.0
 10
11.1599573263
 20
11.989936594
 30
0.0
  0
SPLINE
  5
3AF
100
AcDbEntity
  8
0
100
AcDbSpline
 62
7
  6
CONTINUOUS
 70
0
 71
3
 72
62
 73
58
 74
0
 42
0.0000001
 43
0.0000001
 44
0.0000000001
 40
0.0
 40
0.0
 40
0.0
 40
0.0
 40
0.0028080792
 40
0.0056358444
 40
0.0085025324
 40
0.0114265499
 40
0.017509896
 40
0.0240112684
 40
0.0310266468
 40
0.0386288751
 40
0.0468710922
 40
0.0557903803
 40
0.0654110922
 40
0.0757475873
 40
0.0868061966
 40
0.0985867393
 40
0.1110837776
 40
0.1242874343
 40
0.1381839939
 40
0.1527565243
 40
0.1679852586
 40
0.1838478341
 40
0.200319655
 40
0.2173741216
 40
0.2349827345
 40
0.2531153299
 40
0.2717402571
 40
0.290824444
 40
0.3302311739
 40
0.3710491122
 40
0.4129761175
 40
0.4556988848
 40
0.4988962497
 40
0.5422423847
 40
0.5854100195
 40
0.6280736196
 40
0.6699126031
 40
0.7106145321
 40
0.7498784661
 40
0.7688816616
 40
0.7874194999
 40
0.8054591349
 40
0.8229691791
 40
0.8399197807
 40
0.8562827531
 40
0.8720318376
 40
0.8871428535
 40
0.9015938777
 40
0.9153656104
 40
0.9284417028
 40
0.9408090933
 40
0.9524586179
 40
0.9633857826
 40
0.9735914587
 40
0.9830832
 40
0.9918775332
 40
1.0
 40
1.0
 40
1.0
 40
1.0
 10
10.7561
 20
11.5289816929
 30
0.0
 10
10.7561000004
 20
11.5285078756
 30
0.0
 10
10.756141509
 20
11.5275564053
 30
0.0
 10
10.7563279307
 20
11.5261322303
 30
0.0
 10
10.7566384389
 20
11.5247097459
 30
0.0
 10
10.7572249691
 20
11.5227919731
 30
0.0
 10
10.758286537
 20
11.5203884383
 30
0.0
 10
10.7600342375
 20
11.51757037
 30
0.0
 10
10.7622656001
 20
11.5147825642
 30
0.0
 10
10.76497458
 20
11.5120288206
 30
0.0
 10
10.7681555038
 20
11.5093124746
 30
0.0
 10
10.771802242
 20
11.5066376254
 30
0.0
 10
10.7759079264
 20
11.5040087138
 30
0.0
 10
10.7804647927
 20
11.5014305112
 30
0.0
 10
10.7854640879
 20
11.4989079037
 30
0.0
 10
10.7908960718
 20
11.4964457942
 30
0.0
 10
10.7967500704
 20
11.4940490849
 30
0.0
 10
10.8030144872
 20
11.4917225997
 30
0.0
 10
10.8096768293
 20
11.489471021
 30
0.0
 10
10.8167237681
 20
11.4872989214
 30
0.0
 10
10.8241411671
 20
11.4852107326
 30
0.0
 10
10.8319141033
 20
11.4832106884
 30
0.0
 10
10.8400269201
 20
11.4813028613
 30
0.0
 10
10.8484632627
 20
11.4794911542
 30
0.0
 10
10.8572061028
 20
11.4777792448
 30
0.0
 10
10.8662377783
 20
11.4761706206
 30
0.0
 10
10.8755400607
 20
11.4746685466
 30
0.0
 10
10.8884164948
 20
11.4727919746
 30
0.0
 10
10.9050500509
 20
11.4707436945
 30
0.0
 10
10.9255694588
 20
11.4687779387
 30
0.0
 10
10.9466902913
 20
11.467295202
 30
0.0
 10
10.9682418314
 20
11.4663076442
 30
0.0
 10
10.9900500092
 20
11.4658234279
 30
0.0
 10
11.0119385906
 20
11.4658465133
 30
0.0
 10
11.0337306985
 20
11.4663767186
 30
0.0
 10
11.0552502311
 20
11.4674096935
 30
0.0
 10
11.076323382
 20
11.4689369003
 30
0.0
 10
11.0967798245
 20
11.4709458273
 30
0.0
 10
11.1133512329
 20
11.4730294569
 30
0.0
 10
11.1261705977
 20
11.4749335914
 30
0.0
 10
11.1354250635
 20
11.4764552718
 30
0.0
 10
11.1444055616
 20
11.4780829257
 30
0.0
 10
11.1530939676
 20
11.4798132501
 30
0.0
 10
11.1614727341
 20
11.4816427107
 30
0.0
 10
11.1695249497
 20
11.4835675985
 30
0.0
 10
11.1772343825
 20
11.4855839825
 30
0.0
 10
11.1845855113
 20
11.4876877475
 30
0.0
 10
11.1915635513
 20
11.4898746277
 30
0.0
 10
11.1981545064
 20
11.4921401752
 30
0.0
 10
11.2043452027
 20
11.4944797823
 30
0.0
 10
11.2101233078
 20
11.4968887383
 30
0.0
 10
11.2154773842
 20
11.4993622147
 30
0.0
 10
11.2203969349
 20
11.501895309
 30
0.0
 10
11.2248723574
 20
11.5044830618
 30
0.0
 10
11.2288952536
 20
11.5071207412
 30
0.0
 10
11.2324575243
 20
11.5098032751
 30
0.0
 10
11.2346035608
 20
11.5116913447
 30
0.0
 10
11.235589323
 20
11.5126435179
 30
0.0
  0
SPLINE
  5
3B0
100
AcDbEntity
  8
0
100
AcDbSpline
 62
7
  6
CONTINUOUS
 70
0
 71
3
 72
35
 73
31
 74
0
 42
0.0000001
 43
0.0000001
 44
0.0000000001
 40
0.0
 40
0.0
 40
0.0
 40
0.0
 40
0.0152430061
 40
0.0312569535
 40
0.0481324717
 40
0.0659443713
 40
0.0847528824
 40
0.1046060791
 40
0.1255410395
 40
0.1475860218
 40
0.1707611633
 40
0.1950802611
 40
0.2205510421
 40
0.2471766124
 40
0.2749554283
 40
0.3038824824
 40
0.3339490602
 40
0.3651437801
 40
0.3974522424
 40
0.4308579285
 40
0.4653417696
 40
0.5008829683
 40
0.5374585337
 40
0.5750440395
 40
0.6136131594
 40
0.6531383434
 40
0.7349372745
 40
0.8201944326
 40
0.9086430571
 40
1.0
 40
1.0
 40
1.0
 40
1.0
 10
10.3595457423
 20
8.4643714951
 30
0.0
 10
10.3604321382
 20
8.4626626217
 30
0.0
 10
10.3624186023
 20
8.4592440243
 30
0.0
 10
10.3659127459
 20
8.4542622633
 30
0.0
 10
10.3699848692
 20
8.4493132145
 30
0.0
 10
10.3746306351
 20
8.4444013004
 30
0.0
 10
10.3798456161
 20
8.4395298827
 30
0.0
 10
10.3856251717
 20
8.4347029728
 30
0.0
 10
10.3919640686
 20
8.4299243247
 30
0.0
 10
10.3988567837
 20
8.4251980826
 30
0.0
 10
10.4062971443
 20
8.4205281556
 30
0.0
 10
10.4142786063
 20
8.4159187582
 30
0.0
 10
10.4227939983
 20
8.4113738365
 30
0.0
 10
10.4318357431
 20
8.4068975829
 30
0.0
 10
10.4413956784
 20
8.4024939025
 30
0.0
 10
10.4514652219
 20
8.3981669022
 30
0.0
 10
10.4620352461
 20
8.3939203963
 30
0.0
 10
10.4730962036
 20
8.3897583677
 30
0.0
 10
10.4846380435
 20
8.3856845048
 30
0.0
 10
10.4966503014
 20
8.3817026372
 30
0.0
 10
10.5091220437
 20
8.3778163036
 30
0.0
 10
10.5220419321
 20
8.3740291629
 30
0.0
 10
10.5353981936
 20
8.3703445835
 30
0.0
 10
10.5491786626
 20
8.3667660426
 30
0.0
 10
10.5633707916
 20
8.3632966982
 30
0.0
 10
10.583050599
 20
8.3587691405
 30
0.0
 10
10.6085891883
 20
8.3534202604
 30
0.0
 10
10.6403230556
 20
8.3475561181
 30
0.0
 10
10.6733693174
 20
8.3421970885
 30
0.0
 10
10.6958562001
 20
8.3390221264
 30
0.0
 10
10.7072954526
 20
8.3375178735
 30
0.0
  0
SPLINE
  5
3B1
100
AcDbEntity
  8
0
100
AcDbSpline
 62
7
  6
CONTINUOUS
 70
0
 71
3
 72
20
 73
16
 74
0
 42
0.0000001
 43
0.0000001
 44
0.0000000001
 40
0.0
 40
0.0
 40
0.0
 40
0.0
 40
0.1497526278
 40
0.219624857
 40
0.2864538704
 40
0.4121308924
 40
0.4718317173
 40
0.5299828716
 40
0.5870676302
 40
0.6435991026
 40
0.7001079055
 40
0.7571253386
 40
0.8151675857
 40
0.8747217004
 40
1.0
 40
1.0
 40
1.0
 40
1.0
 10
10.9130666705
 20
12.2400398422
 30
0.0
 10
10.9126804632
 20
12.2396667946
 30
0.0
 10
10.9121401143
 20
12.2390907868
 30
0.0
 10
10.911511982
 20
12.238277244
 30
0.0
 10
10.9109892594
 20
12.2374944633
 30
0.0
 10
10.9105707518
 20
12.2366874291
 30
0.0
 10
10.9102751666
 20
12.2358646799
 30
0.0
 10
10.9101184591
 20
12.2352563092
 30
0.0
 10
10.9100232751
 20
12.2346468098
 30
0.0
 10
10.9099897927
 20
12.2340366896
 30
0.0
 10
10.910018086
 20
12.2334265469
 30
0.0
 10
10.9101080496
 20
12.2328169769
 30
0.0
 10
10.9102595995
 20
12.2322084693
 30
0.0
 10
10.9105481238
 20
12.2313857921
 30
0.0
 10
10.9108509342
 20
12.2307918089
 30
0.0
 10
10.9110834576
 20
12.2304074745
 30
0.0
  0
SPLINE
  5
3B2
100
AcDbEntity
  8
0
100
AcDbSpline
 62
7
  6
CONTINUOUS
 70
0
 71
3
 72
11
 73
7
 74
0
 42
0.0000001
 43
0.0000001
 44
0.0000000001
 40
0.0
 40
0.0
 40
0.0
 40
0.0
 40
0.2430637164
 40
0.4889642296
 40
0.7404322727
 40
1.0
 40
1.0
 40
1.0
 40
1.0
 10
11.1655999926
 20
11.7863043483
 30
0.0
 10
11.1655999895
 20
11.785888293
 30
0.0
 10
11.1655526716
 20
11.7850505851
 30
0.0
 10
11.1653402869
 20
11.7837986137
 30
0.0
 10
11.1649868971
 20
11.7825496687
 30
0.0
 10
11.1646637697
 20
11.7817350234
 30
0.0
 10
11.1644809537
 20
11.781330072
 30
0.0
  0
SPLINE
  5
3B3
100
AcDbEntity
  8
0
100
AcDbSpline
 62
7
  6
CONTINUOUS
 70
0
 71
3
 72
15
 73
11
 74
0
 42
0.0000001
 43
0.0000001
 44
0.0000000001
 40
0.0
 40
0.0
 40
0.0
 40
0.0
 40
0.134993624
 40
0.2655329638
 40
0.3924739355
 40
0.5166466018
 40
0.6388275446
 40
0.7597188926
 40
0.8799362397
 40
1.0
 40
1.0
 40
1.0
 40
1.0
 10
10.7704122118
 20
11.533325438
 30
0.0
 10
10.771371165
 20
11.5328517693
 30
0.0
 10
10.7732912605
 20
11.5319865028
 30
0.0
 10
10.7762161804
 20
11.5309226424
 30
0.0
 10
10.7791307233
 20
11.5301060685
 30
0.0
 10
10.7820335003
 20
11.5295248704
 30
0.0
 10
10.7849236215
 20
11.5291663351
 30
0.0
 10
10.7878005018
 20
11.5290174188
 30
0.0
 10
10.7906637026
 20
11.5290650418
 30
0.0
 10
10.7925626433
 20
11.5292192005
 30
0.0
 10
10.7935080603
 20
11.5293245438
 30
0.0
  0
SPLINE
  5
3B4
100
AcDbEntity
  8
0
100
AcDbSpline
 62
7
  6
CONTINUOUS
 70
0
 71
3
 72
47
 73
43
 74
0
 42
0.0000001
 43
0.0000001
 44
0.0000000001
 40
0.0
 40
0.0
 40
0.0
 40
0.0
 40
0.0099875715
 40
0.0204479705
 40
0.0313775759
 40
0.0427712955
 40
0.0546224923
 40
0.0669234049
 40
0.079664983
 40
0.0928372836
 40
0.1204282783
 40
0.1495997598
 40
0.180242048
 40
0.2122352103
 40
0.2454503989
 40
0.2797510997
 40
0.3149941872
 40
0.3510309796
 40
0.3877081958
 40
0.4248688969
 40
0.46235344
 40
0.5000003412
 40
0.5376472494
 40
0.5751317745
 40
0.6122924672
 40
0.6489696587
 40
0.6850064243
 40
0.7202494821
 40
0.7545501403
 40
0.787765291
 40
0.8197583996
 40
0.8504006401
 40
0.8795720598
 40
0.9071629971
 40
0.9203352658
 40
0.9330768087
 40
0.9453776864
 40
0.9572288519
 40
0.9686225398
 40
0.9795521086
 40
0.9900124667
 40
1.0
 40
1.0
 40
1.0
 40
1.0
 10
10.7839578807
 20
11.5266341421
 30
0.0
 10
10.7852721064
 20
11.525984944
 30
0.0
 10
10.7879852146
 20
11.5247008688
 30
0.0
 10
10.7922050613
 20
11.5228554796
 30
0.0
 10
10.7966648163
 20
11.5210481276
 30
0.0
 10
10.8013593317
 20
11.5192809791
 30
0.0
 10
10.806283238
 20
11.5175560099
 30
0.0
 10
10.8114308859
 20
11.5158752792
 30
0.0
 10
10.8167963602
 20
11.5142406551
 30
0.0
 10
10.8243497211
 20
11.5120920053
 30
0.0
 10
10.8342948205
 20
11.5095451514
 30
0.0
 10
10.846815555
 20
11.5067465037
 30
0.0
 10
10.8600432331
 20
11.5041732603
 30
0.0
 10
10.8739168776
 20
11.5018374572
 30
0.0
 10
10.8883726359
 20
11.4997500446
 30
0.0
 10
10.903343849
 20
11.497920793
 30
0.0
 10
10.9187614507
 20
11.4963582594
 30
0.0
 10
10.9345542758
 20
11.4950697487
 30
0.0
 10
10.9506494039
 20
11.4940612813
 30
0.0
 10
10.9669725029
 20
11.493337567
 30
0.0
 10
10.9834481741
 20
11.4929019849
 30
0.0
 10
11.0000003106
 20
11.4927565683
 30
0.0
 10
11.0165524443
 20
11.4929019958
 30
0.0
 10
11.0330281123
 20
11.4933375888
 30
0.0
 10
11.0493512034
 20
11.4940613137
 30
0.0
 10
11.065446322
 20
11.4950697918
 30
0.0
 10
11.0812391342
 20
11.4963583129
 30
0.0
 10
11.0966567204
 20
11.4979208564
 30
0.0
 10
11.1116279159
 20
11.4997501182
 30
0.0
 10
11.126083653
 20
11.5018375399
 30
0.0
 10
11.1399572751
 20
11.5041733526
 30
0.0
 10
11.1531849272
 20
11.5067466042
 30
0.0
 10
11.1657056347
 20
11.5095452604
 30
0.0
 10
11.1756507096
 20
11.5120921208
 30
0.0
 10
11.18320405
 20
11.5142407758
 30
0.0
 10
11.1885695077
 20
11.5158754033
 30
0.0
 10
11.1937171389
 20
11.5175561374
 30
0.0
 10
11.1986410288
 20
11.51928111
 30
0.0
 10
11.2033355273
 20
11.5210482616
 30
0.0
 10
11.2077952637
 20
11.5228556167
 30
0.0
 10
11.2120150911
 20
11.5247010079
 30
0.0
 10
11.2147281862
 20
11.5259850835
 30
0.0
 10
11.2160424053
 20
11.5266342824
 30
0.0
  0
SPLINE
  5
3B5
100
AcDbEntity
  8
0
100
AcDbSpline
 62
7
  6
CONTINUOUS
 70
0
 71
3
 72
64
 73
60
 74
0
 42
0.0000001
 43
0.0000001
 44
0.0000000001
 40
0.0
 40
0.0
 40
0.0
 40
0.0
 40
0.0085742455
 40
0.017922807
 40
0.0280755125
 40
0.0390505592
 40
0.050854591
 40
0.0634857462
 40
0.0769354366
 40
0.0911891741
 40
0.1062277568
 40
0.12202786
 40
0.1385624513
 40
0.155801411
 40
0.1737117395
 40
0.1922578434
 40
0.2114019471
 40
0.231104165
 40
0.2720128629
 40
0.3146323494
 40
0.3585883325
 40
0.4034903291
 40
0.448936836
 40
0.4945198751
 40
0.5398299957
 40
0.584460833
 40
0.6280139893
 40
0.6701038893
 40
0.7103626733
 40
0.7296973368
 40
0.7484471166
 40
0.7665734442
 40
0.7840399631
 40
0.8008128669
 40
0.8168609787
 40
0.8321561767
 40
0.8466739074
 40
0.8603934592
 40
0.8732987273
 40
0.8853790606
 40
0.8966301482
 40
0.9070556878
 40
0.9166693434
 40
0.9254972891
 40
0.933582076
 40
0.9409872876
 40
0.9478029164
 40
0.9541505661
 40
0.9571990946
 40
0.9601913065
 40
0.9631508007
 40
0.9661020601
 40
0.9690697799
 40
0.972078221
 40
0.9751505341
 40
0.9783083233
 40
0.9849526932
 40
0.9921503555
 40
1.0
 40
1.0
 40
1.0
 40
1.0
 10
11.1330079942
 20
12.2247868596
 30
0.0
 10
11.1323986551
 20
12.2241982832
 30
0.0
 10
11.1310618569
 20
12.2230324728
 30
0.0
 10
11.1288274531
 20
12.2213845619
 30
0.0
 10
11.1262848129
 20
12.2197674562
 30
0.0
 10
11.1234399834
 20
12.2181848407
 30
0.0
 10
11.120299289
 20
12.2166401265
 30
0.0
 10
11.1168699906
 20
12.2151369475
 30
0.0
 10
11.1131600907
 20
12.2136788626
 30
0.0
 10
11.1091783373
 20
12.2122693394
 30
0.0
 10
11.1049341652
 20
12.2109117908
 30
0.0
 10
11.1004376782
 20
12.2096095092
 30
0.0
 10
11.0956996201
 20
12.2083656294
 30
0.0
 10
11.0907313306
 20
12.2071831841
 30
0.0
 10
11.0855447212
 20
12.2060650472
 30
0.0
 10
11.0801522474
 20
12.2050139195
 30
0.0
 10
11.0745668485
 20
12.2040323456
 30
0.0
 10
11.0667825855
 20
12.2028041751
 30
0.0
 10
11.0566689812
 20
12.2014671896
 30
0.0
 10
11.0441359001
 20
12.2001918464
 30
0.0
 10
11.0311786019
 20
12.1992387914
 30
0.0
 10
11.0179216572
 20
12.198617344
 30
0.0
 10
11.0044924343
 20
12.198333629
 30
0.0
 10
10.991020025
 20
12.1983904371
 30
0.0
 10
10.9776339389
 20
12.1987871982
 30
0.0
 10
10.9644628497
 20
12.1995200205
 30
0.0
 10
10.9516332755
 20
12.2005816983
 30
0.0
 10
10.9392685408
 20
12.201961824
 30
0.0
 10
10.929320901
 20
12.2033843296
 30
0.0
 10
10.9216888263
 20
12.2046788625
 30
0.0
 10
10.9162305709
 20
12.2057070875
 30
0.0
 10
10.910973931
 20
12.2068031765
 30
0.0
 10
10.9059315181
 20
12.2079645042
 30
0.0
 10
10.9011154239
 20
12.209188226
 30
0.0
 10
10.8965371862
 20
12.2104713848
 30
0.0
 10
10.8922077531
 20
12.2118108772
 30
0.0
 10
10.8881374401
 20
12.2132034377
 30
0.0
 10
10.8843359152
 20
12.2146457207
 30
0.0
 10
10.8808121574
 20
12.2161342697
 30
0.0
 10
10.877574412
 20
12.2176655204
 30
0.0
 10
10.8746301877
 20
12.2192359153
 30
0.0
 10
10.8719862024
 20
12.2208418912
 30
0.0
 10
10.8696483622
 20
12.2224799551
 30
0.0
 10
10.8676218457
 20
12.2241469082
 30
0.0
 10
10.8659111926
 20
12.2258398331
 30
0.0
 10
10.8645206016
 20
12.2275565087
 30
0.0
 10
10.8634546887
 20
12.229294489
 30
0.0
 10
10.8628332951
 20
12.230779585
 30
0.0
 10
10.8625137224
 20
12.2319626735
 30
0.0
 10
10.8623604381
 20
12.2328399533
 30
0.0
 10
10.8622907585
 20
12.2337181589
 30
0.0
 10
10.8623046924
 20
12.2345966131
 30
0.0
 10
10.8624022496
 20
12.2354745895
 30
0.0
 10
10.8625833204
 20
12.2363513663
 30
0.0
 10
10.8628476272
 20
12.2372263277
 30
0.0
 10
10.8633184264
 20
12.2384094854
 30
0.0
 10
10.8641290523
 20
12.2398886849
 30
0.0
 10
10.8654117877
 20
12.2416122858
 30
0.0
 10
10.8664341614
 20
12.2426962947
 30
0.0
 10
10.8669920058
 20
12.243235131
 30
0.0
  0
SPLINE
  5
3B6
100
AcDbEntity
  8
0
100
AcDbSpline
 62
7
  6
CONTINUOUS
 70
0
 71
3
 72
60
 73
56
 74
0
 42
0.0000001
 43
0.0000001
 44
0.0000000001
 40
0.0
 40
0.0
 40
0.0
 40
0.0
 40
0.0081223893
 40
0.016916879
 40
0.0264086804
 40
0.0366143618
 40
0.0475415605
 40
0.0591911586
 40
0.071558609
 40
0.0846347338
 40
0.0984065551
 40
0.1128576402
 40
0.1279687012
 40
0.1437178907
 40
0.1600809345
 40
0.1770315971
 40
0.1945417319
 40
0.2125814462
 40
0.2501215263
 40
0.28938563
 40
0.3300877452
 40
0.3719268859
 40
0.4145906767
 40
0.4577584725
 40
0.5011047646
 40
0.5443022819
 40
0.5870251693
 40
0.6289523045
 40
0.669770332
 40
0.7091771512
 40
0.7468851834
 40
0.7650178154
 40
0.7826264339
 40
0.799680901
 40
0.8161527522
 40
0.8320152966
 40
0.8472440114
 40
0.8618165512
 40
0.8757130753
 40
0.8889167053
 40
0.901413707
 40
0.9131942072
 40
0.9242527868
 40
0.9345892196
 40
0.9442098915
 40
0.953129129
 40
0.9613712724
 40
0.9689734771
 40
0.9759888044
 40
0.9824901209
 40
0.9885734581
 40
0.991497457
 40
0.9943641481
 40
0.9971919173
 40
1.0
 40
1.0
 40
1.0
 40
1.0
 10
11.1599573263
 20
12.1959685849
 30
0.0
 10
11.1592880339
 20
12.1953220981
 30
0.0
 10
11.1578309353
 20
12.194040165
 30
0.0
 10
11.1554122719
 20
12.192218795
 30
0.0
 10
11.1526808402
 20
12.1904278882
 30
0.0
 10
11.1496421642
 20
12.1886709004
 30
0.0
 10
11.1463019531
 20
12.1869509967
 30
0.0
 10
11.1426666963
 20
12.1852715923
 30
0.0
 10
11.1387435407
 20
12.1836359927
 30
0.0
 10
11.1345402545
 20
12.1820474611
 30
0.0
 10
11.130065197
 20
12.1805092388
 30
0.0
 10
11.1253273248
 20
12.1790244176
 30
0.0
 10
11.1203361384
 20
12.1775960195
 30
0.0
 10
11.1151016694
 20
12.1762269708
 30
0.0
 10
11.1096344639
 20
12.1749200305
 30
0.0
 10
11.1039455448
 20
12.1736778866
 30
0.0
 10
11.0980463807
 20
12.1725030458
 30
0.0
 10
11.0898067613
 20
12.1710097377
 30
0.0
 10
11.0790686015
 20
12.1693369706
 30
0.0
 10
11.065710056
 20
12.1676571837
 30
0.0
 10
11.0518206863
 20
12.1662932212
 30
0.0
 10
11.0375127005
 20
12.1652562923
 30
0.0
 10
11.0229016085
 20
12.1645549538
 30
0.0
 10
11.0081054564
 20
12.1641949686
 30
0.0
 10
10.9932438037
 20
12.1641793003
 30
0.0
 10
10.9784367502
 20
12.1645080849
 30
0.0
 10
10.9638039399
 20
12.1651786142
 30
0.0
 10
10.9494636031
 20
12.1661853661
 30
0.0
 10
10.9355315091
 20
12.1675200362
 30
0.0
 10
10.9221202292
 20
12.1691716667
 30
0.0
 10
10.9113317704
 20
12.1708214839
 30
0.0
 10
10.9030471304
 20
12.1722969912
 30
0.0
 10
10.897111033
 20
12.1734593479
 30
0.0
 10
10.891383046
 20
12.1746894479
 30
0.0
 10
10.8858747205
 20
12.1759847977
 30
0.0
 10
10.88059717
 20
12.1773427778
 30
0.0
 10
10.8755610184
 20
12.1787605991
 30
0.0
 10
10.8707763945
 20
12.1802353838
 30
0.0
 10
10.8662529049
 20
12.1817641477
 30
0.0
 10
10.8619995954
 20
12.1833437594
 30
0.0
 10
10.8580249477
 20
12.1849710529
 30
0.0
 10
10.8543368367
 20
12.1866427552
 30
0.0
 10
10.8509425058
 20
12.1883555242
 30
0.0
 10
10.8478485776
 20
12.1901060548
 30
0.0
 10
10.8450609827
 20
12.1918910007
 30
0.0
 10
10.8425849987
 20
12.1937071372
 30
0.0
 10
10.8404253037
 20
12.1955514676
 30
0.0
 10
10.8385860203
 20
12.1974211612
 30
0.0
 10
10.8370710364
 20
12.1993139982
 30
0.0
 10
10.8358844726
 20
12.2012273912
 30
0.0
 10
10.835163698
 20
12.2028592984
 30
0.0
 10
10.8347655308
 20
12.2041614184
 30
0.0
 10
10.8345547144
 20
12.2051272358
 30
0.0
 10
10.8344281453
 20
12.206094205
 30
0.0
 10
10.8343999973
 20
12.2067402233
 30
0.0
 10
10.8344000074
 20
12.2070619295
 30
0.0
  0
SPLINE
  5
3B7
100
AcDbEntity
  8
0
100
AcDbSpline
 62
7
  6
CONTINUOUS
 70
0
 71
3
 72
9
 73
5
 74
0
 42
0.0000001
 43
0.0000001
 44
0.0000000001
 40
0.0
 40
0.0
 40
0.0
 40
0.0
 40
0.4948716161
 40
1.0
 40
1.0
 40
1.0
 40
1.0
 10
10.7561
 20
11.7463150167
 30
0.0
 10
10.7561000008
 20
11.7454943427
 30
0.0
 10
10.7562260416
 20
11.7438336766
 30
0.0
 10
10.7565962371
 20
11.7422106222
 30
0.0
 10
10.7568378466
 20
11.7414085385
 30
0.0
  0
SPLINE
  5
3B8
100
AcDbEntity
  8
0
100
AcDbSpline
 62
7
  6
CONTINUOUS
 70
0
 71
3
 72
59
 73
55
 74
0
 42
0.0000001
 43
0.0000001
 44
0.0000000001
 40
0.0
 40
0.0
 40
0.0
 40
0.0
 40
0.0058815854
 40
0.0121309906
 40
0.0188446003
 40
0.0260971851
 40
0.0339444488
 40
0.0424262964
 40
0.0515700466
 40
0.0613929389
 40
0.0719041315
 40
0.0831063715
 40
0.0949970806
 40
0.1075692107
 40
0.1208120414
 40
0.1347116207
 40
0.1492511414
 40
0.1644113849
 40
0.1801709116
 40
0.1965062499
 40
0.2133921905
 40
0.2308018821
 40
0.2487069448
 40
0.2670776938
 40
0.3050904156
 40
0.3445807477
 40
0.3852736118
 40
0.4268823621
 40
0.4691116783
 40
0.5116604666
 40
0.5542246842
 40
0.5965001437
 40
0.6381853294
 40
0.6789842016
 40
0.7186090998
 40
0.75678365
 40
0.7752450204
 40
0.79324689
 40
0.8107592932
 40
0.8277535685
 40
0.8442025729
 40
0.8600807292
 40
0.8753641903
 40
0.8900311222
 40
0.9040618112
 40
0.9174389257
 40
0.9301479451
 40
0.9421774253
 40
0.953519509
 40
0.9641707222
 40
0.9741325568
 40
0.9834127063
 40
0.9920271551
 40
1.0
 40
1.0
 40
1.0
 40
1.0
 10
10.7568378466
 20
11.7414085385
 30
0.0
 10
10.7571212719
 20
11.740467637
 30
0.0
 10
10.7578625574
 20
11.7385716568
 30
0.0
 10
10.7594137168
 20
11.7358221015
 30
0.0
 10
10.7614249179
 20
11.7330994529
 30
0.0
 10
10.7638903615
 20
11.730407778
 30
0.0
 10
10.7668048726
 20
11.7277499576
 30
0.0
 10
10.770162965
 20
11.7251296775
 30
0.0
 10
10.773958642
 20
11.7225509618
 30
0.0
 10
10.7781851004
 20
11.7200181378
 30
0.0
 10
10.7828346673
 20
11.7175356532
 30
0.0
 10
10.7878988204
 20
11.7151080675
 30
0.0
 10
10.7933681641
 20
11.7127399196
 30
0.0
 10
10.7992324552
 20
11.7104356686
 30
0.0
 10
10.8054806594
 20
11.7081997262
 30
0.0
 10
10.8121009606
 20
11.7060363838
 30
0.0
 10
10.8190807893
 20
11.7039497791
 30
0.0
 10
10.8264068729
 20
11.7019439433
 30
0.0
 10
10.8340652529
 20
11.7000227476
 30
0.0
 10
10.842041312
 20
11.6981898773
 30
0.0
 10
10.8503198207
 20
11.6964488758
 30
0.0
 10
10.8588849545
 20
11.6948031132
 30
0.0
 10
10.8677203453
 20
11.6932557183
 30
0.0
 10
10.8799783211
 20
11.6913055764
 30
0.0
 10
10.8958524002
 20
11.6891448766
 30
0.0
 10
10.9154868405
 20
11.6870143425
 30
0.0
 10
10.9357677903
 20
11.6853342651
 30
0.0
 10
10.9565400666
 20
11.6841177106
 30
0.0
 10
10.9776448458
 20
11.6833741582
 30
0.0
 10
10.9989206628
 20
11.6831093861
 30
0.0
 10
11.0202047378
 20
11.683325472
 30
0.0
 10
11.0413342276
 20
11.6840207229
 30
0.0
 10
11.0621474751
 20
11.6851897249
 30
0.0
 10
11.0824853363
 20
11.6868233764
 30
0.0
 10
11.1021921868
 20
11.6889089803
 30
0.0
 10
11.1181364297
 20
11.6910329089
 30
0.0
 10
11.1304579759
 20
11.6929544459
 30
0.0
 10
11.1393460828
 20
11.6944815287
 30
0.0
 10
11.1479673153
 20
11.6961076049
 30
0.0
 10
11.1563051972
 20
11.6978295804
 30
0.0
 10
11.1643437907
 20
11.6996441113
 30
0.0
 10
11.1720677412
 20
11.7015477026
 30
0.0
 10
11.1794623035
 20
11.7035367014
 30
0.0
 10
11.186513388
 20
11.7056072558
 30
0.0
 10
11.1932075769
 20
11.7077553789
 30
0.0
 10
11.1995321537
 20
11.7099769599
 30
0.0
 10
11.2054751537
 20
11.7122677173
 30
0.0
 10
11.2110253769
 20
11.7146232755
 30
0.0
 10
11.2161724158
 20
11.7170391876
 30
0.0
 10
11.2209067113
 20
11.7195109204
 30
0.0
 10
11.2252195183
 20
11.7220338826
 30
0.0
 10
11.2291031573
 20
11.7246037243
 30
0.0
 10
11.2325501971
 20
11.7272157481
 30
0.0
 10
11.2346312338
 20
11.7290513986
 30
0.0
 10
11.235589323
 20
11.7299768417
 30
0.0
  0
SPLINE
  5
3B9
100
AcDbEntity
  8
0
100
AcDbSpline
 62
7
  6
CONTINUOUS
 70
0
 71
3
 72
11
 73
7
 74
0
 42
0.0000001
 43
0.0000001
 44
0.0000000001
 40
0.0
 40
0.0
 40
0.0
 40
0.0
 40
0.2314244497
 40
0.4756235138
 40
0.7320292778
 40
1.0
 40
1.0
 40
1.0
 40
1.0
 10
10.943387315
 20
12.216350649
 30
0.0
 10
10.944252003
 20
12.2166308876
 30
0.0
 10
10.9460390999
 20
12.2171763234
 30
0.0
 10
10.9488132082
 20
12.2179333656
 30
0.0
 10
10.9517461286
 20
12.2186494041
 30
0.0
 10
10.9537585641
 20
12.2190886532
 30
0.0
 10
10.954789286
 20
12.2193016951
 30
0.0
  0
SPLINE
  5
3BA
100
AcDbEntity
  8
0
100
AcDbSpline
 62
7
  6
CONTINUOUS
 70
0
 71
3
 72
57
 73
53
 74
0
 42
0.0000001
 43
0.0000001
 44
0.0000000001
 40
0.0
 40
0.0
 40
0.0
 40
0.0
 40
0.0064532291
 40
0.0125273542
 40
0.0183771654
 40
0.0212751361
 40
0.0241832711
 40
0.0301131132
 40
0.0363400385
 40
0.0430065053
 40
0.0502255009
 40
0.0580819132
 40
0.0666364714
 40
0.0759309225
 40
0.0859916657
 40
0.0968335784
 40
0.1084621144
 40
0.120875291
 40
0.1340651509
 40
0.1480184712
 40
0.1627180196
 40
0.1781425695
 40
0.1942678658
 40
0.2285072503
 40
0.2651915974
 40
0.2843647984
 40
0.3040416915
 40
0.3447471666
 40
0.386979438
 40
0.4303910316
 40
0.474621426
 40
0.519300975
 40
0.5640552853
 40
0.6085090581
 40
0.652290265
 40
0.6950343052
 40
0.7363879423
 40
0.7760138303
 40
0.8135947485
 40
0.8488387219
 40
0.8655023673
 40
0.8814867468
 40
0.8967652036
 40
0.9113139981
 40
0.9251128473
 40
0.9381450215
 40
0.950398582
 40
0.9618664987
 40
0.9725481069
 40
0.9824509232
 40
0.9915923905
 40
1.0
 40
1.0
 40
1.0
 40
1.0
 10
11.0889163755
 20
12.2304071945
 30
0.0
 10
11.0891286065
 20
12.2307579675
 30
0.0
 10
11.0894962871
 20
12.2314676544
 30
0.0
 10
11.0898646691
 20
12.2325809766
 30
0.0
 10
11.0899999637
 20
12.2335185801
 30
0.0
 10
11.0900032976
 20
12.2342599979
 30
0.0
 10
11.0899384836
 20
12.2350037093
 30
0.0
 10
11.0897246118
 20
12.2359421641
 30
0.0
 10
11.0892644519
 20
12.2370512674
 30
0.0
 10
11.0886028336
 20
12.2381491838
 30
0.0
 10
11.0877428967
 20
12.239234162
 30
0.0
 10
11.0866872837
 20
12.2403050168
 30
0.0
 10
11.0854385197
 20
12.2413603525
 30
0.0
 10
11.0839992028
 20
12.2423984223
 30
0.0
 10
11.0823723513
 20
12.2434173738
 30
0.0
 10
11.0805613476
 20
12.2444151285
 30
0.0
 10
11.0785700553
 20
12.245389602
 30
0.0
 10
11.0764027753
 20
12.2463386843
 30
0.0
 10
11.0740642353
 20
12.2472602473
 30
0.0
 10
11.0715595924
 20
12.2481522735
 30
0.0
 10
11.0688943846
 20
12.2490127055
 30
0.0
 10
11.0660745411
 20
12.2498396664
 30
0.0
 10
11.0620356604
 20
12.2509166678
 30
0.0
 10
11.0566443787
 20
12.2521569561
 30
0.0
 10
11.0510194666
 20
12.2532239214
 30
0.0
 10
11.0462834537
 20
12.2539986316
 30
0.0
 10
11.041282673
 20
12.2547332072
 30
0.0
 10
11.0348111912
 20
12.2555293176
 30
0.0
 10
11.0268185621
 20
12.2562828685
 30
0.0
 10
11.0185852809
 20
12.2568381263
 30
0.0
 10
11.0101852501
 20
12.2571900223
 30
0.0
 10
11.0016938127
 20
12.2573353274
 30
0.0
 10
10.9931871765
 20
12.2572727111
 30
0.0
 10
10.9847416785
 20
12.2570027467
 30
0.0
 10
10.9764331
 20
12.2565279071
 30
0.0
 10
10.9683359662
 20
12.2558525455
 30
0.0
 10
10.9605228714
 20
12.2549828526
 30
0.0
 10
10.9530637504
 20
12.2539268329
 30
0.0
 10
10.9460254222
 20
12.2526941541
 30
0.0
 10
10.9404635023
 20
12.2515081673
 30
0.0
 10
10.936276084
 20
12.2504726179
 30
0.0
 10
10.9333376445
 20
12.2496736761
 30
0.0
 10
10.9305488668
 20
12.248839753
 30
0.0
 10
10.9279159641
 20
12.2479726935
 30
0.0
 10
10.9254447822
 20
12.2470744936
 30
0.0
 10
10.9231407951
 20
12.2461471258
 30
0.0
 10
10.9210090603
 20
12.2451927042
 30
0.0
 10
10.9190542394
 20
12.244213294
 30
0.0
 10
10.917280537
 20
12.243211063
 30
0.0
 10
10.9156916316
 20
12.2421880166
 30
0.0
 10
10.9142911046
 20
12.2411463202
 30
0.0
 10
10.913450856
 20
12.2404109369
 30
0.0
 10
10.9130666705
 20
12.2400398422
 30
0.0
  0
SPLINE
  5
3BB
100
AcDbEntity
  8
0
100
AcDbSpline
 62
7
  6
CONTINUOUS
 70
0
 71
3
 72
15
 73
11
 74
0
 42
0.0000001
 43
0.0000001
 44
0.0000000001
 40
0.0
 40
0.0
 40
0.0
 40
0.0
 40
0.1327599785
 40
0.2641612309
 40
0.3938737325
 40
0.5214931918
 40
0.6465150471
 40
0.7683487863
 40
0.8863604641
 40
1.0
 40
1.0
 40
1.0
 40
1.0
 10
10.9784821709
 20
12.2433159703
 30
0.0
 10
10.9776238142
 20
12.2420783641
 30
0.0
 10
10.9758848235
 20
12.2396371203
 30
0.0
 10
10.9731838292
 20
12.2360764593
 30
0.0
 10
10.9703931634
 20
12.2326601362
 30
0.0
 10
10.9675041371
 20
12.2294222532
 30
0.0
 10
10.9645091903
 20
12.2264057558
 30
0.0
 10
10.9614034322
 20
12.2236635477
 30
0.0
 10
10.9581883299
 20
12.2212585011
 30
0.0
 10
10.9559321106
 20
12.2198983822
 30
0.0
 10
10.954789286
 20
12.2193016951
 30
0.0
  0
SPLINE
  5
3BC
100
AcDbEntity
  8
0
100
AcDbSpline
 62
7
  6
CONTINUOUS
 70
0
 71
3
 72
23
 73
19
 74
0
 42
0.0000001
 43
0.0000001
 44
0.0000000001
 40
0.0
 40
0.0
 40
0.0
 40
0.0
 40
0.0749612284
 40
0.1455666195
 40
0.2121574487
 40
0.2751600345
 40
0.3350949147
 40
0.3925797378
 40
0.4483260866
 40
0.5031204224
 40
0.5577953251
 40
0.6131892025
 40
0.6701047578
 40
0.7292761429
 40
0.7913502575
 40
0.8568785057
 40
0.9263118952
 40
1.0
 40
1.0
 40
1.0
 40
1.0
 10
11.1326651103
 20
12.2435601753
 30
0.0
 10
11.1330627162
 20
12.2431901509
 30
0.0
 10
11.1338127635
 20
12.242447253
 30
0.0
 10
11.1348248313
 20
12.2412882575
 30
0.0
 10
11.1356878437
 20
12.2401200685
 30
0.0
 10
11.1364005239
 20
12.2389437156
 30
0.0
 10
11.1369617041
 20
12.2377602447
 30
0.0
 10
11.1373700698
 20
12.2365708467
 30
0.0
 10
11.1376245573
 20
12.2353770786
 30
0.0
 10
11.1377241599
 20
12.2341808096
 30
0.0
 10
11.1376685904
 20
12.2329842223
 30
0.0
 10
11.1374579703
 20
12.2317895332
 30
0.0
 10
11.1370931597
 20
12.2305987333
 30
0.0
 10
11.1365752427
 20
12.2294134491
 30
0.0
 10
11.1359054251
 20
12.2282349614
 30
0.0
 10
11.1350849112
 20
12.2270643087
 30
0.0
 10
11.1341150024
 20
12.2259026323
 30
0.0
 10
11.1333920201
 20
12.2251578002
 30
0.0
 10
11.1330079942
 20
12.2247868596
 30
0.0
  0
SPLINE
  5
3BD
100
AcDbEntity
  8
0
100
AcDbSpline
 62
7
  6
CONTINUOUS
 70
0
 71
3
 72
15
 73
11
 74
0
 42
0.0000001
 43
0.0000001
 44
0.0000000001
 40
0.0
 40
0.0
 40
0.0
 40
0.0
 40
0.1241593692
 40
0.2484086933
 40
0.3727890695
 40
0.4973707034
 40
0.622244722
 40
0.7475352053
 40
0.8733938795
 40
1.0
 40
1.0
 40
1.0
 40
1.0
 10
11.0587877408
 20
12.2377467601
 30
0.0
 10
11.0576097128
 20
12.2368082544
 30
0.0
 10
11.0552197778
 20
12.2349714347
 30
0.0
 10
11.0515239799
 20
12.232362843
 30
0.0
 10
11.0477034395
 20
12.2299299509
 30
0.0
 10
11.0437456452
 20
12.2277102712
 30
0.0
 10
11.0396397065
 20
12.225750158
 30
0.0
 10
11.0353792483
 20
12.2241055999
 30
0.0
 10
11.0309679747
 20
12.222840809
 30
0.0
 10
11.0279469376
 20
12.2222972712
 30
0.0
 10
11.0264226491
 20
12.2221091792
 30
0.0
  0
SPLINE
  5
3BE
100
AcDbEntity
  8
0
100
AcDbSpline
 62
7
  6
CONTINUOUS
 70
0
 71
3
 72
60
 73
56
 74
0
 42
0.0000001
 43
0.0000001
 44
0.0000000001
 40
0.0
 40
0.0
 40
0.0
 40
0.0
 40
0.0081223768
 40
0.0169168513
 40
0.026408634
 40
0.0366142931
 40
0.0475414683
 40
0.0591910424
 40
0.0715584639
 40
0.0846345549
 40
0.09840634
 40
0.1128573916
 40
0.1279684184
 40
0.143717565
 40
0.1600805628
 40
0.1770311827
 40
0.1945412796
 40
0.2125809506
 40
0.2501209261
 40
0.2893849519
 40
0.3300869565
 40
0.3719260259
 40
0.4145897252
 40
0.4577574474
 40
0.5011036828
 40
0.544301129
 40
0.5870239994
 40
0.6289510883
 40
0.6697691328
 40
0.7091759439
 40
0.7468840188
 40
0.7650166818
 40
0.7826253167
 40
0.7996798089
 40
0.8161517038
 40
0.8320143014
 40
0.8472430648
 40
0.8618156474
 40
0.8757122281
 40
0.8889159265
 40
0.9014129982
 40
0.9131935654
 40
0.9242522132
 40
0.9345887239
 40
0.944209476
 40
0.9531287903
 40
0.9613710073
 40
0.9689732834
 40
0.9759886788
 40
0.9824900522
 40
0.9885734309
 40
0.991497444
 40
0.9943641445
 40
0.9971919182
 40
1.0
 40
1.0
 40
1.0
 40
1.0
 10
11.1599573263
 20
11.989936594
 30
0.0
 10
11.1592880355
 20
11.9892901086
 30
0.0
 10
11.1578309406
 20
11.9880081786
 30
0.0
 10
11.1554122839
 20
11.9861868127
 30
0.0
 10
11.1526808606
 20
11.9843959099
 30
0.0
 10
11.1496421942
 20
11.9826389259
 30
0.0
 10
11.1463019939
 20
11.9809190258
 30
0.0
 10
11.1426667489
 20
11.9792396246
 30
0.0
 10
11.1387436067
 20
11.977604028
 30
0.0
 10
11.1345403354
 20
11.9760154995
 30
0.0
 10
11.1300652937
 20
11.9744772796
 30
0.0
 10
11.1253274376
 20
11.9729924606
 30
0.0
 10
11.1203362685
 20
11.9715640643
 30
0.0
 10
11.1151018183
 20
11.9701950171
 30
0.0
 10
11.1096346327
 20
11.9688880782
 30
0.0
 10
11.1039457332
 20
11.967645935
 30
0.0
 10
11.0980465886
 20
11.9664710945
 30
0.0
 10
11.089806998
 20
11.9649777863
 30
0.0
 10
11.0790688736
 20
11.9633050182
 30
0.0
 10
11.0657103737
 20
11.9616252286
 30
0.0
 10
11.051821046
 20
11.9602612611
 30
0.0
 10
11.0375131041
 20
11.9592243259
 30
0.0
 10
11.0229020517
 20
11.958522979
 30
0.0
 10
11.0081059376
 20
11.9581629841
 30
0.0
 10
10.9932443203
 20
11.9581473042
 30
0.0
 10
10.9784372954
 20
11.9584760758
 30
0.0
 10
10.9638045121
 20
11.9591465903
 30
0.0
 10
10.9494641915
 20
11.9601533266
 30
0.0
 10
10.9355321119
 20
11.9614879798
 30
0.0
 10
10.9221208352
 20
11.9631395926
 30
0.0
 10
10.9113323756
 20
11.9647893941
 30
0.0
 10
10.9030477299
 20
11.9662648882
 30
0.0
 10
10.8971116273
 20
11.967427235
 30
0.0
 10
10.8913836331
 20
11.9686573251
 30
0.0
 10
10.8858752958
 20
11.9699526652
 30
0.0
 10
10.8805977304
 20
11.9713106362
 30
0.0
 10
10.8755615634
 20
11.9727284476
 30
0.0
 10
10.870776923
 20
11.9742032224
 30
0.0
 10
10.8662534141
 20
11.9757319766
 30
0.0
 10
10.8620000813
 20
11.9773115791
 30
0.0
 10
10.8580254085
 20
11.9789388638
 30
0.0
 10
10.8543372711
 20
11.9806105567
 30
0.0
 10
10.8509429119
 20
11.9823233167
 30
0.0
 10
10.8478489526
 20
11.9840738387
 30
0.0
 10
10.8450613239
 20
11.9858587765
 30
0.0
 10
10.8425853046
 20
11.9876749051
 30
0.0
 10
10.8404255724
 20
11.9895192272
 30
0.0
 10
10.8385862498
 20
11.9913889133
 30
0.0
 10
10.8370712243
 20
11.993281743
 30
0.0
 10
10.8358846168
 20
11.9951951289
 30
0.0
 10
10.8351638033
 20
11.9968270311
 30
0.0
 10
10.8347656041
 20
11.9981291479
 30
0.0
 10
10.8345547637
 20
11.9990949624
 30
0.0
 10
10.8344281702
 20
12.0000619291
 30
0.0
 10
10.8344000056
 20
12.0007079466
 30
0.0
 10
10.8344000075
 20
12.0010296524
 30
0.0
  0
SPLINE
  5
3BF
100
AcDbEntity
  8
0
100
AcDbSpline
 62
7
  6
CONTINUOUS
 70
0
 71
3
 72
15
 73
11
 74
0
 42
0.0000001
 43
0.0000001
 44
0.0000000001
 40
0.0
 40
0.0
 40
0.0
 40
0.0
 40
0.1098903506
 40
0.2214010987
 40
0.3360758439
 40
0.4553210788
 40
0.5803748644
 40
0.7122932442
 40
0.8519436842
 40
1.0
 40
1.0
 40
1.0
 40
1.0
 10
11.1655999926
 20
12.2070613969
 30
0.0
 10
11.1655999779
 20
12.2065930237
 30
0.0
 10
11.1655398167
 20
12.2056483124
 30
0.0
 10
11.1652700909
 20
12.2042380256
 30
0.0
 10
11.1648216183
 20
12.2028321842
 30
0.0
 10
11.1641956813
 20
12.2014328766
 30
0.0
 10
11.1633936025
 20
12.2000414711
 30
0.0
 10
11.1624167526
 20
12.1986591609
 30
0.0
 10
11.1612665831
 20
12.1972872515
 30
0.0
 10
11.1604112073
 20
12.1964070004
 30
0.0
 10
11.1599573263
 20
12.1959685849
 30
0.0
  0
SPLINE
  5
3C0
100
AcDbEntity
  8
0
100
AcDbSpline
 62
7
  6
CONTINUOUS
 70
0
 71
3
 72
50
 73
46
 74
0
 42
0.0000001
 43
0.0000001
 44
0.0000000001
 40
0.0
 40
0.0
 40
0.0
 40
0.0
 40
0.0064811692
 40
0.0129999268
 40
0.0195931475
 40
0.0262963654
 40
0.0331432254
 40
0.0401650539
 40
0.0548391815
 40
0.0625479174
 40
0.0705307026
 40
0.0788057759
 40
0.0873891245
 40
0.0962945112
 40
0.1055337964
 40
0.1151170787
 40
0.1250528033
 40
0.1353480795
 40
0.1460086387
 40
0.1570391085
 40
0.1684430936
 40
0.1802231909
 40
0.1923812545
 40
0.2049182798
 40
0.2178346092
 40
0.2448023139
 40
0.2732765342
 40
0.303240145
 40
0.3346692153
 40
0.3675338702
 40
0.4017989769
 40
0.4374247008
 40
0.4743670038
 40
0.5125780467
 40
0.5520065203
 40
0.5925979428
 40
0.6342949157
 40
0.6770373824
 40
0.7207628513
 40
0.7654065626
 40
0.8109017276
 40
0.8571798333
 40
0.9041700027
 40
0.9518018551
 40
1.0
 40
1.0
 40
1.0
 40
1.0
 10
10.2971000122
 20
11.4750830287
 30
0.0
 10
10.29710001
 20
11.4738418469
 30
0.0
 10
10.2971986764
 20
11.4713511726
 30
0.0
 10
10.2976422344
 20
11.467621622
 30
0.0
 10
10.2983810406
 20
11.4638956895
 30
0.0
 10
10.29941455
 20
11.4601755574
 30
0.0
 10
10.3007421269
 20
11.4564627198
 30
0.0
 10
10.3029346328
 20
11.4514517603
 30
0.0
 10
10.3057020009
 20
11.446527857
 30
0.0
 10
10.3089729056
 20
11.4417176035
 30
0.0
 10
10.3117556108
 20
11.4380647086
 30
0.0
 10
10.3148256411
 20
11.4344283449
 30
0.0
 10
10.3181819254
 20
11.4308095744
 30
0.0
 10
10.3218229231
 20
11.4272098445
 30
0.0
 10
10.3257471435
 20
11.423630539
 30
0.0
 10
10.3299529615
 20
11.4200730885
 30
0.0
 10
10.3344386069
 20
11.4165388516
 30
0.0
 10
10.3392022684
 20
11.4130293019
 30
0.0
 10
10.3442419522
 20
11.409545809
 30
0.0
 10
10.3495555906
 20
11.406089802
 30
0.0
 10
10.3551410001
 20
11.4026627157
 30
0.0
 10
10.3609958522
 20
11.3992659075
 30
0.0
 10
10.3671177469
 20
11.3959008393
 30
0.0
 10
10.3735041404
 20
11.3925688328
 30
0.0
 10
10.3824981516
 20
11.3881079131
 30
0.0
 10
10.3943940371
 20
11.3826355296
 30
0.0
 10
10.4094814289
 20
11.3763134683
 30
0.0
 10
10.4255548008
 20
11.370155653
 30
0.0
 10
10.4425874242
 20
11.3641723873
 30
0.0
 10
10.4605511764
 20
11.3583736802
 30
0.0
 10
10.4794162367
 20
11.3527692702
 30
0.0
 10
10.4991512462
 20
11.3473685701
 30
0.0
 10
10.5197233454
 20
11.3421806546
 30
0.0
 10
10.541098251
 20
11.337214247
 30
0.0
 10
10.5632403147
 20
11.3324777013
 30
0.0
 10
10.5861125843
 20
11.3279789892
 30
0.0
 10
10.6096768681
 20
11.3237256728
 30
0.0
 10
10.6338938056
 20
11.3197248993
 30
0.0
 10
10.6587229333
 20
11.3159833951
 30
0.0
 10
10.6841227551
 20
11.3125074507
 30
0.0
 10
10.7100508378
 20
11.309302907
 30
0.0
 10
10.7364637556
 20
11.3063751663
 30
0.0
 10
10.7633175558
 20
11.3037290919
 30
0.0
 10
10.7905670498
 20
11.3013692066
 30
0.0
 10
10.8088681334
 20
11.2999967478
 30
0.0
 10
10.8180762433
 20
11.2993581632
 30
0.0
  0
SPLINE
  5
3C1
100
AcDbEntity
  8
0
100
AcDbSpline
 62
7
  6
CONTINUOUS
 70
0
 71
3
 72
23
 73
19
 74
0
 42
0.0000001
 43
0.0000001
 44
0.0000000001
 40
0.0
 40
0.0
 40
0.0
 40
0.0
 40
0.0748372224
 40
0.1456142818
 40
0.2126355026
 40
0.2762898618
 40
0.3370477741
 40
0.3954593373
 40
0.4521506062
 40
0.5078136418
 40
0.5631834419
 40
0.6190076649
 40
0.6760141474
 40
0.7348827864
 40
0.7962242263
 40
0.8605705795
 40
0.9283713623
 40
1.0
 40
1.0
 40
1.0
 40
1.0
 10
11.2152939435
 20
11.7852829953
 30
0.0
 10
11.2158771441
 20
11.7858463239
 30
0.0
 10
11.216979179
 20
11.7869771702
 30
0.0
 10
11.2184697906
 20
11.7887364341
 30
0.0
 10
11.2197484745
 20
11.7905083963
 30
0.0
 10
11.2208135785
 20
11.7922914971
 30
0.0
 10
11.2216635533
 20
11.794084377
 30
0.0
 10
11.2222969354
 20
11.7958853914
 30
0.0
 10
11.2227122206
 20
11.7976926006
 30
0.0
 10
11.2229082735
 20
11.7995036158
 30
0.0
 10
11.2228844881
 20
11.801315736
 30
0.0
 10
11.2226409191
 20
11.803126143
 30
0.0
 10
11.222178361
 20
11.8049322024
 30
0.0
 10
11.2214979763
 20
11.8067316107
 30
0.0
 10
11.2206013302
 20
11.8085225151
 30
0.0
 10
11.2194898648
 20
11.8103033126
 30
0.0
 10
11.2181653097
 20
11.812072562
 30
0.0
 10
11.2171697283
 20
11.8132107859
 30
0.0
 10
11.2166397906
 20
11.8137777606
 30
0.0
  0
SPLINE
  5
3C2
100
AcDbEntity
  8
0
100
AcDbSpline
 62
7
  6
CONTINUOUS
 70
0
 71
3
 72
23
 73
19
 74
0
 42
0.0000001
 43
0.0000001
 44
0.0000000001
 40
0.0
 40
0.0
 40
0.0
 40
0.0
 40
0.0736890403
 40
0.1431213797
 40
0.2086477334
 40
0.2707210312
 40
0.3298921432
 40
0.3868073637
 40
0.4422005028
 40
0.4968749874
 40
0.5516691716
 40
0.607415378
 40
0.6649005073
 40
0.7248357064
 40
0.7878390187
 40
0.8544308156
 40
0.9250371323
 40
1.0
 40
1.0
 40
1.0
 40
1.0
 10
10.826133341
 20
11.8122713748
 30
0.0
 10
10.8256313241
 20
11.8117864637
 30
0.0
 10
10.8246862169
 20
11.8108128001
 30
0.0
 10
10.8234183393
 20
11.8092942306
 30
0.0
 10
10.822345779
 20
11.807763933
 30
0.0
 10
10.8214701908
 20
11.8062233989
 30
0.0
 10
10.8207931924
 20
11.804673958
 30
0.0
 10
10.8203162941
 20
11.8031173211
 30
0.0
 10
10.8200410469
 20
11.8015555872
 30
0.0
 10
10.8199683986
 20
11.7999913838
 30
0.0
 10
10.8200986927
 20
11.7984275981
 30
0.0
 10
10.8204313669
 20
11.7968670685
 30
0.0
 10
10.8209652809
 20
11.7953122738
 30
0.0
 10
10.8216989046
 20
11.7937652068
 30
0.0
 10
10.8226306079
 20
11.7922274579
 30
0.0
 10
10.8237588276
 20
11.7907003828
 30
0.0
 10
10.8250818835
 20
11.789185306
 30
0.0
 10
10.8260624311
 20
11.7882141958
 30
0.0
 10
10.8265822133
 20
11.7877304868
 30
0.0
  0
SPLINE
  5
3C3
100
AcDbEntity
  8
0
100
AcDbSpline
 62
7
  6
CONTINUOUS
 70
0
 71
3
 72
56
 73
52
 74
0
 42
0.0000001
 43
0.0000001
 44
0.0000000001
 40
0.0
 40
0.0
 40
0.0
 40
0.0
 40
0.0098428143
 40
0.0192575434
 40
0.0282664469
 40
0.0368959937
 40
0.0531354673
 40
0.0608336316
 40
0.0683073018
 40
0.0756077985
 40
0.0827905543
 40
0.0899140673
 40
0.0970384268
 40
0.1042236979
 40
0.1115283127
 40
0.1190075997
 40
0.1267127527
 40
0.1429697764
 40
0.1516095588
 40
0.1606295033
 40
0.1700559507
 40
0.1799110538
 40
0.1902132428
 40
0.2009775938
 40
0.2122163225
 40
0.2239390019
 40
0.2361530475
 40
0.2488637841
 40
0.2620749068
 40
0.2757884373
 40
0.2900051427
 40
0.3047244284
 40
0.3199447029
 40
0.3356632643
 40
0.3518765848
 40
0.3685802328
 40
0.3857690612
 40
0.4034371821
 40
0.440183613
 40
0.478761203
 40
0.5191019684
 40
0.5611303591
 40
0.604764052
 40
0.6499146532
 40
0.6964883322
 40
0.7443863534
 40
0.7935054976
 40
0.8437386778
 40
0.8949750579
 40
0.9471011934
 40
1.0
 40
1.0
 40
1.0
 40
1.0
 10
10.3765619361
 20
11.5738577622
 30
0.0
 10
10.3751662653
 20
11.5725589351
 30
0.0
 10
10.3724942177
 20
11.5699536035
 30
0.0
 10
10.3687765582
 20
11.5659307716
 30
0.0
 10
10.3654424882
 20
11.5618835247
 30
0.0
 10
10.3615908322
 20
11.5565676412
 30
0.0
 10
10.3584011113
 20
11.5510938401
 30
0.0
 10
10.3559892938
 20
11.5455015855
 30
0.0
 10
10.3546060114
 20
11.5413684842
 30
0.0
 10
10.3536182567
 20
11.5372258002
 30
0.0
 10
10.3530273033
 20
11.5330763291
 30
0.0
 10
10.3528338968
 20
11.5289234585
 30
0.0
 10
10.3530384599
 20
11.5247706371
 30
0.0
 10
10.3536405522
 20
11.5206213103
 30
0.0
 10
10.3546394174
 20
11.5164788607
 30
0.0
 10
10.3560337656
 20
11.5123460746
 30
0.0
 10
10.3584606937
 20
11.5067540085
 30
0.0
 10
10.3616650068
 20
11.5012810351
 30
0.0
 10
10.3655307235
 20
11.4959660704
 30
0.0
 10
10.3688755751
 20
11.4919194838
 30
0.0
 10
10.3726040413
 20
11.4878972757
 30
0.0
 10
10.3767141527
 20
11.4839009505
 30
0.0
 10
10.381203307
 20
11.4799328975
 30
0.0
 10
10.3860688107
 20
11.4759952422
 30
0.0
 10
10.3913077741
 20
11.472090281
 30
0.0
 10
10.3969170424
 20
11.4682202047
 30
0.0
 10
10.4028932996
 20
11.46438734
 30
0.0
 10
10.4092329396
 20
11.4605938772
 30
0.0
 10
10.4159321957
 20
11.4568421471
 30
0.0
 10
10.4229870168
 20
11.4531343204
 30
0.0
 10
10.4303931834
 20
11.4494727002
 30
0.0
 10
10.4381462082
 20
11.4458594291
 30
0.0
 10
10.4462414261
 20
11.4422967578
 30
0.0
 10
10.4546739252
 20
11.4387867956
 30
0.0
 10
10.4634386101
 20
11.4353317188
 30
0.0
 10
10.4725301575
 20
11.431933604
 30
0.0
 10
10.4819430683
 20
11.4285945169
 30
0.0
 10
10.4950868977
 20
11.4241658299
 30
0.0
 10
10.5122858258
 20
11.4188048782
 30
0.0
 10
10.5338500784
 20
11.4127198008
 30
0.0
 10
10.5565492549
 20
11.4069164404
 30
0.0
 10
10.5803281586
 20
11.4014090377
 30
0.0
 10
10.6051291238
 20
11.3962111262
 30
0.0
 10
10.6308918729
 20
11.3913354745
 30
0.0
 10
10.6575537665
 20
11.3867940567
 30
0.0
 10
10.6850499312
 20
11.3825980253
 30
0.0
 10
10.7133134482
 20
11.3787576755
 30
0.0
 10
10.7422754714
 20
11.3752824418
 30
0.0
 10
10.771865537
 20
11.3721808301
 30
0.0
 10
10.8020114334
 20
11.3694604753
 30
0.0
 10
10.8222965221
 20
11.3679157019
 30
0.0
 10
10.8325183341
 20
11.3672068169
 30
0.0
  0
SPLINE
  5
3C4
100
AcDbEntity
  8
0
100
AcDbSpline
 62
7
  6
CONTINUOUS
 70
0
 71
3
 72
27
 73
23
 74
0
 42
0.0000001
 43
0.0000001
 44
0.0000000001
 40
0.0
 40
0.0
 40
0.0
 40
0.0
 40
0.0679879735
 40
0.1311466342
 40
0.1900331583
 40
0.2453853226
 40
0.2981123047
 40
0.3238386744
 40
0.3493192458
 40
0.3747037158
 40
0.4001436305
 40
0.4257894847
 40
0.4517877165
 40
0.5053588324
 40
0.56190797
 40
0.5915828323
 40
0.6223038227
 40
0.6871690526
 40
0.7570428592
 40
0.8323060239
 40
0.9132303523
 40
1.0
 40
1.0
 40
1.0
 40
1.0
 10
11.173866659
 20
11.7881559873
 30
0.0
 10
11.1744865655
 20
11.788754771
 30
0.0
 10
11.1756373371
 20
11.7899581769
 30
0.0
 10
11.1771307294
 20
11.7918536799
 30
0.0
 10
11.1783211601
 20
11.7937679267
 30
0.0
 10
11.179204816
 20
11.7956980634
 30
0.0
 10
11.1796862913
 20
11.7973317613
 30
0.0
 10
11.1799090871
 20
11.798631526
 30
0.0
 10
11.1799972837
 20
11.7995995126
 30
0.0
 10
11.1800077315
 20
11.8005677946
 30
0.0
 10
11.17994043
 20
11.8015358871
 30
0.0
 10
11.1797954
 20
11.802503292
 30
0.0
 10
11.1794958093
 20
11.8038041889
 30
0.0
 10
11.1789174987
 20
11.8054369013
 30
0.0
 10
11.1781004624
 20
11.8070151588
 30
0.0
 10
11.1773038345
 20
11.8082661946
 30
0.0
 10
11.1763760768
 20
11.8095558458
 30
0.0
 10
11.1750160518
 20
11.8111575972
 30
0.0
 10
11.1731141473
 20
11.8130246052
 30
0.0
 10
11.1709168621
 20
11.8148682641
 30
0.0
 10
11.1684280362
 20
11.8166858444
 30
0.0
 10
11.1666399686
 20
11.817837888
 30
0.0
 10
11.1657009158
 20
11.8184106927
 30
0.0
  0
SPLINE
  5
3C5
100
AcDbEntity
  8
0
100
AcDbSpline
 62
7
  6
CONTINUOUS
 70
0
 71
3
 72
11
 73
7
 74
0
 42
0.0000001
 43
0.0000001
 44
0.0000000001
 40
0.0
 40
0.0
 40
0.0
 40
0.0
 40
0.2729512182
 40
0.5303356215
 40
0.7725220529
 40
1.0
 40
1.0
 40
1.0
 40
1.0
 10
10.8343932796
 20
11.8184680504
 30
0.0
 10
10.8335888969
 20
11.817979215
 30
0.0
 10
10.8320456582
 20
11.8169964458
 30
0.0
 10
10.8298695569
 20
11.8154576565
 30
0.0
 10
10.8279034927
 20
11.813899669
 30
0.0
 10
10.8266975651
 20
11.8128163735
 30
0.0
 10
10.826133341
 20
11.8122713748
 30
0.0
  0
SPLINE
  5
3C6
100
AcDbEntity
  8
0
100
AcDbSpline
 62
7
  6
CONTINUOUS
 70
0
 71
3
 72
8
 73
4
 74
0
 42
0.0000001
 43
0.0000001
 44
0.0000000001
 40
0.0
 40
0.0
 40
0.0
 40
0.0
 40
1.0
 40
1.0
 40
1.0
 40
1.0
 10
10.7202044925
 20
11.6926576227
 30
0.0
 10
10.7202268693
 20
11.6926758044
 30
0.0
 10
10.7202492461
 20
11.6926939861
 30
0.0
 10
10.7202716229
 20
11.6927121677
 30
0.0
  0
SPLINE
  5
3C7
100
AcDbEntity
  8
0
100
AcDbSpline
 62
7
  6
CONTINUOUS
 70
0
 71
3
 72
38
 73
34
 74
0
 42
0.0000001
 43
0.0000001
 44
0.0000000001
 40
0.0
 40
0.0
 40
0.0
 40
0.0
 40
0.0220685108
 40
0.0434238082
 40
0.064091827
 40
0.084121557
 40
0.1035914044
 40
0.122615178
 40
0.1413473542
 40
0.1599846494
 40
0.1787626911
 40
0.1979468302
 40
0.2178174707
 40
0.2386522104
 40
0.2607091933
 40
0.2842142355
 40
0.3093522032
 40
0.3362628783
 40
0.3650416011
 40
0.3957419381
 40
0.4283794419
 40
0.4629372407
 40
0.4993722664
 40
0.5376206515
 40
0.5776030935
 40
0.6192302372
 40
0.6624064675
 40
0.7070335639
 40
0.7530137527
 40
0.8002509084
 40
0.8486529342
 40
0.8981326737
 40
1.0
 40
1.0
 40
1.0
 40
1.0
 10
10.7202716229
 20
11.6927121677
 30
0.0
 10
10.7209781737
 20
11.6932853368
 30
0.0
 10
10.7223966692
 20
11.6943790703
 30
0.0
 10
10.7245794879
 20
11.6958708017
 30
0.0
 10
10.7267833192
 20
11.6971739784
 30
0.0
 10
10.7290089343
 20
11.6982750313
 30
0.0
 10
10.7312570581
 20
11.699159683
 30
0.0
 10
10.7335281185
 20
11.6998128434
 30
0.0
 10
10.7358219478
 20
11.7002189796
 30
0.0
 10
10.73813752
 20
11.7003623637
 30
0.0
 10
10.7404727279
 20
11.7002279414
 30
0.0
 10
10.7428245573
 20
11.6998021206
 30
0.0
 10
10.7451895006
 20
11.6990733375
 30
0.0
 10
10.7475641169
 20
11.6980325702
 30
0.0
 10
10.7499453525
 20
11.6966732493
 30
0.0
 10
10.752330494
 20
11.6949911274
 30
0.0
 10
10.7547170149
 20
11.6929844127
 30
0.0
 10
10.7571024936
 20
11.6906539667
 30
0.0
 10
10.7594844385
 20
11.6880032619
 30
0.0
 10
10.7618603034
 20
11.6850384023
 30
0.0
 10
10.7642276266
 20
11.6817680463
 30
0.0
 10
10.7665840931
 20
11.6782030821
 30
0.0
 10
10.7689275546
 20
11.67435619
 30
0.0
 10
10.7712561312
 20
11.6702414378
 30
0.0
 10
10.7735683001
 20
11.6658738538
 30
0.0
 10
10.7758628188
 20
11.6612689482
 30
0.0
 10
10.7781387616
 20
11.6564423472
 30
0.0
 10
10.7803955343
 20
11.6514094859
 30
0.0
 10
10.782632774
 20
11.6461853397
 30
0.0
 10
10.7848503774
 20
11.6407842556
 30
0.0
 10
10.7870484528
 20
11.6352198023
 30
0.0
 10
10.7899818973
 20
11.6275249528
 30
0.0
 10
10.7921097408
 20
11.621658969
 30
0.0
 10
10.7935080603
 20
11.6176990005
 30
0.0
  0
SPLINE
  5
3C8
100
AcDbEntity
  8
0
100
AcDbSpline
 62
7
  6
CONTINUOUS
 70
0
 71
3
 72
22
 73
18
 74
0
 42
0.0000001
 43
0.0000001
 44
0.0000000001
 40
0.0
 40
0.0
 40
0.0
 40
0.0
 40
0.0635934178
 40
0.1270876938
 40
0.1904683789
 40
0.2537200478
 40
0.3168274025
 40
0.3797761833
 40
0.4425545091
 40
0.5051542087
 40
0.5675717663
 40
0.6298087849
 40
0.6918717276
 40
0.7537710152
 40
0.8155198724
 40
0.8771330623
 40
1.0
 40
1.0
 40
1.0
 40
1.0
 10
10.7935080603
 20
11.5293245438
 30
0.0
 10
10.7992362778
 20
11.5272736967
 30
0.0
 10
10.8107322443
 20
11.523308737
 30
0.0
 10
10.8281111538
 20
11.5178194219
 30
0.0
 10
10.845611766
 20
11.5128475124
 30
0.0
 10
10.863227795
 20
11.5084496441
 30
0.0
 10
10.8809474417
 20
11.5046809864
 30
0.0
 10
10.8987526546
 20
11.5015916265
 30
0.0
 10
10.9166193552
 20
11.4992223149
 30
0.0
 10
10.9345185891
 20
11.497600524
 30
0.0
 10
10.952418609
 20
11.4967374359
 30
0.0
 10
10.9702875424
 20
11.4966265089
 30
0.0
 10
10.9880961572
 20
11.4972444814
 30
0.0
 10
11.0058199052
 20
11.4985540427
 30
0.0
 10
11.0234406013
 20
11.5005076729
 30
0.0
 10
11.0467568268
 20
11.5038962814
 30
0.0
 10
11.0640990477
 20
11.5072443328
 30
0.0
 10
11.0755813747
 20
11.509762693
 30
0.0
  0
SPLINE
  5
3C9
100
AcDbEntity
  8
0
100
AcDbSpline
 62
7
  6
CONTINUOUS
 70
0
 71
3
 72
86
 73
82
 74
0
 42
0.0000001
 43
0.0000001
 44
0.0000000001
 40
0.0
 40
0.0
 40
0.0
 40
0.0
 40
0.0039801948
 40
0.0081241378
 40
0.0124359992
 40
0.016919361
 40
0.0215772481
 40
0.0264120003
 40
0.0314252785
 40
0.0366182702
 40
0.0419916701
 40
0.0475458056
 40
0.0532805897
 40
0.0591956037
 40
0.0652901265
 40
0.071563125
 40
0.0846388291
 40
0.0984101769
 40
0.1128607866
 40
0.1279713532
 40
0.1437199865
 40
0.1600824891
 40
0.1770325869
 40
0.1945421276
 40
0.2125812507
 40
0.2311185447
 40
0.2501211893
 40
0.269555085
 40
0.2893849753
 40
0.3095745619
 40
0.3300866163
 40
0.3508830862
 40
0.3719252025
 40
0.3931735841
 40
0.4145883403
 40
0.4577547241
 40
0.5010996036
 40
0.5442957152
 40
0.5657364031
 40
0.5870180168
 40
0.6081005829
 40
0.6289446194
 40
0.6495112384
 40
0.6697622513
 40
0.6896602721
 40
0.7091688248
 40
0.7282524545
 40
0.7468768413
 40
0.7650089217
 40
0.7826170186
 40
0.7996709814
 40
0.8161423353
 40
0.8320044503
 40
0.8472327339
 40
0.8618048562
 40
0.8757010173
 40
0.888904276
 40
0.9014009575
 40
0.9073813527
 40
0.9131817373
 40
0.9188015984
 40
0.9242407059
 40
0.9294992433
 40
0.9345777543
 40
0.939477255
 40
0.9441992529
 40
0.9487457969
 40
0.9531195937
 40
0.9573240073
 40
0.9613632395
 40
0.9652423414
 40
0.9689673878
 40
0.972545561
 40
0.9759852688
 40
0.9824864469
 40
0.9855753093
 40
0.9885737833
 40
0.9914977107
 40
0.994364319
 40
0.9971920011
 40
1.0
 40
1.0
 40
1.0
 40
1.0
 10
12.0049492892
 20
10.23700561
 30
0.0
 10
12.0028887083
 20
10.2350152416
 30
0.0
 10
11.9985891969
 20
10.231048582
 30
0.0
 10
11.9917628949
 20
10.2252549771
 30
0.0
 10
11.9844353124
 20
10.2195029303
 30
0.0
 10
11.9766104689
 20
10.2137954959
 30
0.0
 10
11.9682921793
 20
10.2081353394
 30
0.0
 10
11.9594845196
 20
10.2025252144
 30
0.0
 10
11.9501918948
 20
10.1969678109
 30
0.0
 10
11.9404189156
 20
10.1914660128
 30
0.0
 10
11.9301705169
 20
10.1860224608
 30
0.0
 10
11.9194517936
 20
10.1806399562
 30
0.0
 10
11.9082681345
 20
10.1753211432
 30
0.0
 10
11.8966251526
 20
10.1700687213
 30
0.0
 10
11.8845286791
 20
10.1648853228
 30
0.0
 10
11.8675683629
 20
10.1579739395
 30
0.0
 10
11.8452641215
 20
10.1495448367
 30
0.0
 10
11.8171493695
 20
10.1398807542
 30
0.0
 10
11.7873832047
 20
10.1305522232
 30
0.0
 10
11.7560256458
 20
10.1215782048
 30
0.0
 10
11.7231396457
 20
10.1129769628
 30
0.0
 10
11.6887914502
 20
10.1047660148
 30
0.0
 10
11.6530502993
 20
10.0969620883
 30
0.0
 10
11.6159883163
 20
10.089581084
 30
0.0
 10
11.5776803409
 20
10.0826380343
 30
0.0
 10
11.53820377
 20
10.0761470767
 30
0.0
 10
11.4976383906
 20
10.0701214266
 30
0.0
 10
11.4560662126
 20
10.0645733494
 30
0.0
 10
11.4135712992
 20
10.0595141367
 30
0.0
 10
11.3702395939
 20
10.0549540833
 30
0.0
 10
11.3261587474
 20
10.0509024697
 30
0.0
 10
11.281417931
 20
10.047367532
 30
0.0
 10
11.2361076855
 20
10.0443564701
 30
0.0
 10
11.1903196092
 20
10.0418753562
 30
0.0
 10
11.1285944045
 20
10.0392739803
 30
0.0
 10
11.0509260108
 20
10.0373844631
 30
0.0
 10
10.9575567241
 20
10.0372859815
 30
0.0
 10
10.8798444564
 20
10.039011307
 30
0.0
 10
10.8180498384
 20
10.0414815906
 30
0.0
 10
10.7721848197
 20
10.0438657645
 30
0.0
 10
10.7267808544
 20
10.0467808857
 30
0.0
 10
10.6819297314
 20
10.0502210781
 30
0.0
 10
10.6377222153
 20
10.0541793331
 30
0.0
 10
10.5942477328
 20
10.0586476006
 30
0.0
 10
10.5515942249
 20
10.0636167893
 30
0.0
 10
10.5098479588
 20
10.0690767883
 30
0.0
 10
10.4690933542
 20
10.0750164868
 30
0.0
 10
10.4294128094
 20
10.0814237951
 30
0.0
 10
10.3908865296
 20
10.0882856705
 30
0.0
 10
10.3535923567
 20
10.0955881404
 30
0.0
 10
10.3176056039
 20
10.1033163279
 30
0.0
 10
10.2829988962
 20
10.1114544891
 30
0.0
 10
10.2498420185
 20
10.1199860448
 30
0.0
 10
10.2182017472
 20
10.1288936197
 30
0.0
 10
10.1881417458
 20
10.1381590803
 30
0.0
 10
10.1597222413
 20
10.1477635971
 30
0.0
 10
10.1330004577
 20
10.1576876618
 30
0.0
 10
10.1118926829
 20
10.1663292576
 30
0.0
 10
10.095912965
 20
10.1734032585
 30
0.0
 10
10.0845616064
 20
10.1786982875
 30
0.0
 10
10.0736731716
 20
10.1840579164
 30
0.0
 10
10.0632531388
 20
10.1894796027
 30
0.0
 10
10.053306699
 20
10.1949605246
 30
0.0
 10
10.0438388492
 20
10.200498018
 30
0.0
 10
10.0348543069
 20
10.2060893007
 30
0.0
 10
10.0263575389
 20
10.2117315935
 30
0.0
 10
10.018352808
 20
10.2174221886
 30
0.0
 10
10.0108440395
 20
10.2231582203
 30
0.0
 10
10.0038350343
 20
10.2289370434
 30
0.0
 10
9.9973292253
 20
10.2347557843
 30
0.0
 10
9.991329893
 20
10.2406118508
 30
0.0
 10
9.9858401839
 20
10.2465022936
 30
0.0
 10
9.980862468
 20
10.2524251282
 30
0.0
 10
9.9750231372
 20
10.2602129727
 30
0.0
 10
9.9700645945
 20
10.268210732
 30
0.0
 10
9.9661277272
 20
10.2763792634
 30
0.0
 10
9.9637490896
 20
10.2824205021
 30
0.0
 10
9.9618967579
 20
10.2884764401
 30
0.0
 10
9.9605722508
 20
10.2945441359
 30
0.0
 10
9.959777032
 20
10.3006192636
 30
0.0
 10
9.9595999997
 20
10.3046779249
 30
0.0
 10
9.9596
 20
10.3066990799
 30
0.0
  0
SPLINE
  5
3CA
100
AcDbEntity
  8
0
100
AcDbSpline
 62
7
  6
CONTINUOUS
 70
0
 71
3
 72
23
 73
19
 74
0
 42
0.0000001
 43
0.0000001
 44
0.0000000001
 40
0.0
 40
0.0
 40
0.0
 40
0.0
 40
0.0637776288
 40
0.1273446152
 40
0.1907020433
 40
0.2538561391
 40
0.3168131818
 40
0.3795820998
 40
0.442173387
 40
0.5045993408
 40
0.5668738683
 40
0.6290123813
 40
0.69103165
 40
0.7529496426
 40
0.8147853504
 40
0.8765585998
 40
0.9382898528
 40
1.0
 40
1.0
 40
1.0
 40
1.0
 10
11.123410141
 20
7.5983352862
 30
0.0
 10
11.123410141
 20
7.5853171416
 30
0.0
 10
11.1227870828
 20
7.5593194351
 30
0.0
 10
11.1199746708
 20
7.5204809373
 30
0.0
 10
11.1152921543
 20
7.4819504282
 30
0.0
 10
11.1087504764
 20
7.4438180808
 30
0.0
 10
11.1003644526
 20
7.4061713041
 30
0.0
 10
11.0901534178
 20
7.3690970403
 30
0.0
 10
11.0781407815
 20
7.3326807245
 30
0.0
 10
11.064354168
 20
7.2970063461
 30
0.0
 10
11.0488252826
 20
7.2621561812
 30
0.0
 10
11.0315898734
 20
7.2282106108
 30
0.0
 10
11.0126876355
 20
7.1952479437
 30
0.0
 10
10.9921620948
 20
7.1633442054
 30
0.0
 10
10.9700606181
 20
7.1325730662
 30
0.0
 10
10.946433893
 20
7.1030052785
 30
0.0
 10
10.9213373445
 20
7.0747099673
 30
0.0
 10
10.9036616346
 20
7.0567349914
 30
0.0
 10
10.8946018
 20
7.0479838765
 30
0.0
  0
SPLINE
  5
3CB
100
AcDbEntity
  8
0
100
AcDbSpline
 62
7
  6
CONTINUOUS
 70
0
 71
3
 72
15
 73
11
 74
0
 42
0.0000001
 43
0.0000001
 44
0.0000000001
 40
0.0
 40
0.0
 40
0.0
 40
0.0
 40
0.1267937994
 40
0.2529853315
 40
0.3786528539
 40
0.5038618475
 40
0.6286453126
 40
0.7529894818
 40
0.8768218007
 40
1.0
 40
1.0
 40
1.0
 40
1.0
 10
10.5864661646
 20
7.3527025293
 30
0.0
 10
10.6034861728
 20
7.3469996896
 30
0.0
 10
10.6377931477
 20
7.3366270032
 30
0.0
 10
10.6900013614
 20
7.3243188807
 30
0.0
 10
10.7426720251
 20
7.315410788
 30
0.0
 10
10.795613765
 20
7.3099771907
 30
0.0
 10
10.8486116362
 20
7.3080516096
 30
0.0
 10
10.9014264789
 20
7.3096283042
 30
0.0
 10
10.953793472
 20
7.3146610793
 30
0.0
 10
10.9883371088
 20
7.3202841514
 30
0.0
 10
11.0054481346
 20
7.3236460309
 30
0.0
  0
SPLINE
  5
3CC
100
AcDbEntity
  8
0
100
AcDbSpline
 62
7
  6
CONTINUOUS
 70
0
 71
3
 72
21
 73
17
 74
0
 42
0.0000001
 43
0.0000001
 44
0.0000000001
 40
0.0
 40
0.0
 40
0.0
 40
0.0
 40
0.12731758
 40
0.2538000122
 40
0.3167619425
 40
0.3795355005
 40
0.4421315041
 40
0.5045621466
 40
0.5668413435
 40
0.6289845285
 40
0.6910084568
 40
0.7529310961
 40
0.8147714484
 40
0.8765493394
 40
0.9382852242
 40
1.0
 40
1.0
 40
1.0
 40
1.0
 10
8.9650677748
 20
8.5170034933
 30
0.0
 10
8.9650677748
 20
8.5072605603
 30
0.0
 10
8.9641377426
 20
8.4878260637
 30
0.0
 10
8.9606253437
 20
8.4638008279
 30
0.0
 10
8.9564272204
 20
8.4449551294
 30
0.0
 10
8.9525987553
 20
8.4310545432
 30
0.0
 10
8.9480948542
 20
8.4174009353
 30
0.0
 10
8.9429257862
 20
8.4040254359
 30
0.0
 10
8.9371035165
 20
8.3909589704
 30
0.0
 10
8.9306414357
 20
8.3782316485
 30
0.0
 10
8.9235543669
 20
8.3658728702
 30
0.0
 10
8.9158586776
 20
8.353911115
 30
0.0
 10
8.9075721436
 20
8.3423739892
 30
0.0
 10
8.8987137262
 20
8.3312880495
 30
0.0
 10
8.8893041998
 20
8.3206792269
 30
0.0
 10
8.8826770388
 20
8.3139397838
 30
0.0
 10
8.8792802053
 20
8.310658712
 30
0.0
  0
SPLINE
  5
3CD
100
AcDbEntity
  8
0
100
AcDbSpline
 62
7
  6
CONTINUOUS
 70
0
 71
3
 72
23
 73
19
 74
0
 42
0.0000001
 43
0.0000001
 44
0.0000000001
 40
0.0
 40
0.0
 40
0.0
 40
0.0
 40
0.0614487347
 40
0.1232975786
 40
0.1855192697
 40
0.2480712745
 40
0.3108995318
 40
0.3739401518
 40
0.4371217402
 40
0.5003679844
 40
0.5636003165
 40
0.6267406518
 40
0.6897141171
 40
0.7524516766
 40
0.8148926592
 40
0.8769869963
 40
0.938696808
 40
1.0
 40
1.0
 40
1.0
 40
1.0
 10
8.6594971215
 20
8.8437655433
 30
0.0
 10
8.6695266391
 20
8.8430699939
 30
0.0
 10
8.6895957461
 20
8.8406859468
 30
0.0
 10
8.7192949611
 20
8.834211055
 30
0.0
 10
8.7484184923
 20
8.8248877536
 30
0.0
 10
8.7766830338
 20
8.8128066718
 30
0.0
 10
8.8038183158
 20
8.7980844368
 30
0.0
 10
8.8295637129
 20
8.7808628961
 30
0.0
 10
8.8536723874
 20
8.7613077821
 30
0.0
 10
8.8759129215
 20
8.7396068832
 30
0.0
 10
8.8960719833
 20
8.7159686731
 30
0.0
 10
8.913955843
 20
8.6906198761
 30
0.0
 10
8.9293927007
 20
8.6638037955
 30
0.0
 10
8.9422338773
 20
8.6357775626
 30
0.0
 10
8.9523555313
 20
8.6068103949
 30
0.0
 10
8.9596597113
 20
8.5771793637
 30
0.0
 10
8.9640753733
 20
8.5471727785
 30
0.0
 10
8.9650677748
 20
8.527033288
 30
0.0
 10
8.9650677748
 20
8.5170034933
 30
0.0
  0
SPLINE
  5
3CE
100
AcDbEntity
  8
0
100
AcDbSpline
 62
7
  6
CONTINUOUS
 70
0
 71
3
 72
11
 73
7
 74
0
 42
0.0000001
 43
0.0000001
 44
0.0000000001
 40
0.0
 40
0.0
 40
0.0
 40
0.0
 40
0.2522221375
 40
0.5028274552
 40
0.7520319713
 40
1.0
 40
1.0
 40
1.0
 40
1.0
 10
8.9248692456
 20
7.1493775152
 30
0.0
 10
8.9216552802
 20
7.1521034126
 30
0.0
 10
8.9153911283
 20
7.1577090475
 30
0.0
 10
8.9064703318
 20
7.1665656585
 30
0.0
 10
8.8980536755
 20
7.1758063863
 30
0.0
 10
8.8927629294
 20
7.1822154999
 30
0.0
 10
8.8902014289
 20
7.1854719944
 30
0.0
  0
SPLINE
  5
3CF
100
AcDbEntity
  8
0
100
AcDbSpline
 62
7
  6
CONTINUOUS
 70
0
 71
3
 72
21
 73
17
 74
0
 42
0.0000001
 43
0.0000001
 44
0.0000000001
 40
0.0
 40
0.0
 40
0.0
 40
0.0
 40
0.12731758
 40
0.2538000122
 40
0.3167619425
 40
0.3795355005
 40
0.4421315041
 40
0.5045621466
 40
0.5668413435
 40
0.6289845285
 40
0.6910084568
 40
0.7529310961
 40
0.8147714484
 40
0.8765493394
 40
0.9382852242
 40
1.0
 40
1.0
 40
1.0
 40
1.0
 10
8.9650677748
 20
6.9956700195
 30
0.0
 10
8.9650677748
 20
6.9859270865
 30
0.0
 10
8.9641377426
 20
6.9664925899
 30
0.0
 10
8.9606253437
 20
6.942467354
 30
0.0
 10
8.9564272204
 20
6.9236216556
 30
0.0
 10
8.9525987553
 20
6.9097210694
 30
0.0
 10
8.9480948542
 20
6.8960674615
 30
0.0
 10
8.9429257862
 20
6.8826919621
 30
0.0
 10
8.9371035165
 20
6.8696254966
 30
0.0
 10
8.9306414357
 20
6.8568981746
 30
0.0
 10
8.9235543669
 20
6.8445393964
 30
0.0
 10
8.9158586776
 20
6.8325776411
 30
0.0
 10
8.9075721436
 20
6.8210405154
 30
0.0
 10
8.8987137262
 20
6.8099545757
 30
0.0
 10
8.8893041998
 20
6.7993457531
 30
0.0
 10
8.8826770388
 20
6.79260631
 30
0.0
 10
8.8792802053
 20
6.7893252382
 30
0.0
  0
SPLINE
  5
3D0
100
AcDbEntity
  8
0
100
AcDbSpline
 62
7
  6
CONTINUOUS
 70
0
 71
3
 72
23
 73
19
 74
0
 42
0.0000001
 43
0.0000001
 44
0.0000000001
 40
0.0
 40
0.0
 40
0.0
 40
0.0
 40
0.0614487347
 40
0.1232975786
 40
0.1855192697
 40
0.2480712745
 40
0.3108995318
 40
0.3739401518
 40
0.4371217402
 40
0.5003679844
 40
0.5636003165
 40
0.6267406518
 40
0.6897141171
 40
0.7524516766
 40
0.8148926592
 40
0.8769869963
 40
0.938696808
 40
1.0
 40
1.0
 40
1.0
 40
1.0
 10
8.6594971215
 20
7.3224320695
 30
0.0
 10
8.6695266391
 20
7.3217365201
 30
0.0
 10
8.6895957461
 20
7.319352473
 30
0.0
 10
8.7192949611
 20
7.3128775812
 30
0.0
 10
8.7484184923
 20
7.3035542798
 30
0.0
 10
8.7766830338
 20
7.291473198
 30
0.0
 10
8.8038183158
 20
7.276750963
 30
0.0
 10
8.8295637129
 20
7.2595294223
 30
0.0
 10
8.8536723874
 20
7.2399743082
 30
0.0
 10
8.8759129215
 20
7.2182734094
 30
0.0
 10
8.8960719833
 20
7.1946351993
 30
0.0
 10
8.913955843
 20
7.1692864023
 30
0.0
 10
8.9293927007
 20
7.1424703217
 30
0.0
 10
8.9422338773
 20
7.1144440888
 30
0.0
 10
8.9523555313
 20
7.0854769211
 30
0.0
 10
8.9596597113
 20
7.0558458899
 30
0.0
 10
8.9640753733
 20
7.0258393047
 30
0.0
 10
8.9650677748
 20
7.0056998142
 30
0.0
 10
8.9650677748
 20
6.9956700195
 30
0.0
  0
SPLINE
  5
3D1
100
AcDbEntity
  8
0
100
AcDbSpline
 62
7
  6
CONTINUOUS
 70
0
 71
3
 72
21
 73
17
 74
0
 42
0.0000001
 43
0.0000001
 44
0.0000000001
 40
0.0
 40
0.0
 40
0.0
 40
0.0
 40
0.12731758
 40
0.2538000122
 40
0.3167619425
 40
0.3795355005
 40
0.4421315041
 40
0.5045621466
 40
0.5668413435
 40
0.6289845285
 40
0.6910084568
 40
0.7529310961
 40
0.8147714484
 40
0.8765493394
 40
0.9382852242
 40
1.0
 40
1.0
 40
1.0
 40
1.0
 10
12.2789664311
 20
8.2871838409
 30
0.0
 10
12.2789664311
 20
8.2774409079
 30
0.0
 10
12.2780363989
 20
8.2580064113
 30
0.0
 10
12.274524
 20
8.2339811755
 30
0.0
 10
12.2703258767
 20
8.2151354771
 30
0.0
 10
12.2664974116
 20
8.2012348908
 30
0.0
 10
12.2619935106
 20
8.1875812829
 30
0.0
 10
12.2568244425
 20
8.1742057835
 30
0.0
 10
12.2510021728
 20
8.161139318
 30
0.0
 10
12.244540092
 20
8.1484119961
 30
0.0
 10
12.2374530233
 20
8.1360532178
 30
0.0
 10
12.2297573339
 20
8.1240914626
 30
0.0
 10
12.2214707999
 20
8.1125543368
 30
0.0
 10
12.2126123826
 20
8.1014683971
 30
0.0
 10
12.2032028561
 20
8.0908595745
 30
0.0
 10
12.1965756951
 20
8.0841201314
 30
0.0
 10
12.1931788617
 20
8.0808390596
 30
0.0
  0
SPLINE
  5
3D2
100
AcDbEntity
  8
0
100
AcDbSpline
 62
7
  6
CONTINUOUS
 70
0
 71
3
 72
23
 73
19
 74
0
 42
0.0000001
 43
0.0000001
 44
0.0000000001
 40
0.0
 40
0.0
 40
0.0
 40
0.0
 40
0.0614487347
 40
0.1232975786
 40
0.1855192697
 40
0.2480712745
 40
0.3108995318
 40
0.3739401518
 40
0.4371217402
 40
0.5003679844
 40
0.5636003165
 40
0.6267406518
 40
0.6897141171
 40
0.7524516766
 40
0.8148926592
 40
0.8769869963
 40
0.938696808
 40
1.0
 40
1.0
 40
1.0
 40
1.0
 10
11.9733957779
 20
8.6139458909
 30
0.0
 10
11.9834252954
 20
8.6132503415
 30
0.0
 10
12.0034944025
 20
8.6108662944
 30
0.0
 10
12.0331936174
 20
8.6043914026
 30
0.0
 10
12.0623171486
 20
8.5950681012
 30
0.0
 10
12.0905816901
 20
8.5829870194
 30
0.0
 10
12.1177169722
 20
8.5682647844
 30
0.0
 10
12.1434623692
 20
8.5510432438
 30
0.0
 10
12.1675710437
 20
8.5314881297
 30
0.0
 10
12.1898115778
 20
8.5097872308
 30
0.0
 10
12.2099706397
 20
8.4861490207
 30
0.0
 10
12.2278544993
 20
8.4608002237
 30
0.0
 10
12.243291357
 20
8.4339841432
 30
0.0
 10
12.2561325336
 20
8.4059579103
 30
0.0
 10
12.2662541876
 20
8.3769907425
 30
0.0
 10
12.2735583676
 20
8.3473597113
 30
0.0
 10
12.2779740296
 20
8.3173531261
 30
0.0
 10
12.2789664311
 20
8.2972136356
 30
0.0
 10
12.2789664311
 20
8.2871838409
 30
0.0
  0
SPLINE
  5
3D3
100
AcDbEntity
  8
0
100
AcDbSpline
 62
7
  6
CONTINUOUS
 70
0
 71
3
 72
11
 73
7
 74
0
 42
0.0000001
 43
0.0000001
 44
0.0000000001
 40
0.0
 40
0.0
 40
0.0
 40
0.0
 40
0.2522221375
 40
0.5028274552
 40
0.7520319713
 40
1.0
 40
1.0
 40
1.0
 40
1.0
 10
12.2387679019
 20
6.9195578628
 30
0.0
 10
12.2355539365
 20
6.9222837602
 30
0.0
 10
12.2292897846
 20
6.9278893951
 30
0.0
 10
12.2203689881
 20
6.9367460061
 30
0.0
 10
12.2119523319
 20
6.9459867339
 30
0.0
 10
12.2066615857
 20
6.9523958475
 30
0.0
 10
12.2041000852
 20
6.955652342
 30
0.0
  0
SPLINE
  5
3D4
100
AcDbEntity
  8
0
100
AcDbSpline
 62
7
  6
CONTINUOUS
 70
0
 71
3
 72
21
 73
17
 74
0
 42
0.0000001
 43
0.0000001
 44
0.0000000001
 40
0.0
 40
0.0
 40
0.0
 40
0.0
 40
0.12731758
 40
0.2538000122
 40
0.3167619425
 40
0.3795355005
 40
0.4421315041
 40
0.5045621466
 40
0.5668413435
 40
0.6289845285
 40
0.6910084568
 40
0.7529310961
 40
0.8147714484
 40
0.8765493394
 40
0.9382852242
 40
1.0
 40
1.0
 40
1.0
 40
1.0
 10
12.2789664311
 20
6.7658503671
 30
0.0
 10
12.2789664311
 20
6.7561074341
 30
0.0
 10
12.2780363989
 20
6.7366729375
 30
0.0
 10
12.274524
 20
6.7126477017
 30
0.0
 10
12.2703258767
 20
6.6938020032
 30
0.0
 10
12.2664974116
 20
6.679901417
 30
0.0
 10
12.2619935106
 20
6.6662478091
 30
0.0
 10
12.2568244425
 20
6.6528723097
 30
0.0
 10
12.2510021728
 20
6.6398058442
 30
0.0
 10
12.244540092
 20
6.6270785223
 30
0.0
 10
12.2374530233
 20
6.614719744
 30
0.0
 10
12.2297573339
 20
6.6027579887
 30
0.0
 10
12.2214707999
 20
6.591220863
 30
0.0
 10
12.2126123826
 20
6.5801349233
 30
0.0
 10
12.2032028561
 20
6.5695261007
 30
0.0
 10
12.1965756951
 20
6.5627866576
 30
0.0
 10
12.1931788617
 20
6.5595055858
 30
0.0
  0
SPLINE
  5
3D5
100
AcDbEntity
  8
0
100
AcDbSpline
 62
7
  6
CONTINUOUS
 70
0
 71
3
 72
23
 73
19
 74
0
 42
0.0000001
 43
0.0000001
 44
0.0000000001
 40
0.0
 40
0.0
 40
0.0
 40
0.0
 40
0.0614487347
 40
0.1232975786
 40
0.1855192697
 40
0.2480712745
 40
0.3108995318
 40
0.3739401518
 40
0.4371217402
 40
0.5003679844
 40
0.5636003165
 40
0.6267406518
 40
0.6897141171
 40
0.7524516766
 40
0.8148926592
 40
0.8769869963
 40
0.938696808
 40
1.0
 40
1.0
 40
1.0
 40
1.0
 10
11.9733957779
 20
7.0926124171
 30
0.0
 10
11.9834252954
 20
7.0919168677
 30
0.0
 10
12.0034944025
 20
7.0895328206
 30
0.0
 10
12.0331936174
 20
7.0830579288
 30
0.0
 10
12.0623171486
 20
7.0737346274
 30
0.0
 10
12.0905816901
 20
7.0616535456
 30
0.0
 10
12.1177169722
 20
7.0469313106
 30
0.0
 10
12.1434623692
 20
7.0297097699
 30
0.0
 10
12.1675710437
 20
7.0101546559
 30
0.0
 10
12.1898115778
 20
6.988453757
 30
0.0
 10
12.2099706397
 20
6.9648155469
 30
0.0
 10
12.2278544993
 20
6.9394667499
 30
0.0
 10
12.243291357
 20
6.9126506693
 30
0.0
 10
12.2561325336
 20
6.8846244364
 30
0.0
 10
12.2662541876
 20
6.8556572687
 30
0.0
 10
12.2735583676
 20
6.8260262375
 30
0.0
 10
12.2779740296
 20
6.7960196523
 30
0.0
 10
12.2789664311
 20
6.7758801618
 30
0.0
 10
12.2789664311
 20
6.7658503671
 30
0.0
  0
SPLINE
  5
3D6
100
AcDbEntity
  8
0
100
AcDbSpline
 62
7
  6
CONTINUOUS
 70
0
 71
3
 72
32
 73
28
 74
0
 42
0.0000001
 43
0.0000001
 44
0.0000000001
 40
0.0
 40
0.0
 40
0.0
 40
0.0
 40
0.0287094419
 40
0.0578461257
 40
0.0873111839
 40
0.1170320989
 40
0.1469570679
 40
0.1770472778
 40
0.2376098493
 40
0.2985773774
 40
0.3598774339
 40
0.4214875829
 40
0.4834215406
 40
0.5457218155
 40
0.6084553689
 40
0.6400172568
 40
0.6717226007
 40
0.7035852241
 40
0.7356200284
 40
0.7678427526
 40
0.8002694388
 40
0.8329164528
 40
0.8658001867
 40
0.8989365012
 40
0.9323396781
 40
0.9660243491
 40
1.0
 40
1.0
 40
1.0
 40
1.0
 10
10.1823499995
 20
8.0361302067
 30
0.0
 10
10.1823496873
 20
8.0281059065
 30
0.0
 10
10.1826268042
 20
8.0119367978
 30
0.0
 10
10.1838181799
 20
7.9875587505
 30
0.0
 10
10.1857686701
 20
7.9629459833
 30
0.0
 10
10.1884645184
 20
7.9381823039
 30
0.0
 10
10.1918980969
 20
7.9133335053
 30
0.0
 10
10.1974667585
 20
7.8800914288
 30
0.0
 10
10.2062651861
 20
7.8386108009
 30
0.0
 10
10.2197619781
 20
7.7892944026
 30
0.0
 10
10.2362809969
 20
7.7405937747
 30
0.0
 10
10.2559007123
 20
7.6927625927
 30
0.0
 10
10.2787147439
 20
7.646054041
 30
0.0
 10
10.3048238875
 20
7.6007383905
 30
0.0
 10
10.3293701237
 20
7.5644477653
 30
0.0
 10
10.3507289436
 20
7.53643759
 30
0.0
 10
10.3676666178
 20
7.5159324032
 30
0.0
 10
10.3854982082
 20
7.4960217838
 30
0.0
 10
10.404231826
 20
7.4767544907
 30
0.0
 10
10.4238730266
 20
7.4581824535
 30
0.0
 10
10.4444244667
 20
7.440359992
 30
0.0
 10
10.465885135
 20
7.4233437824
 30
0.0
 10
10.4882498301
 20
7.4071925881
 30
0.0
 10
10.5115081154
 20
7.3919669624
 30
0.0
 10
10.5356441365
 20
7.3777279497
 30
0.0
 10
10.5606343017
 20
7.3645379858
 30
0.0
 10
10.5777705735
 20
7.356518896
 30
0.0
 10
10.5864661646
 20
7.3527025293
 30
0.0
  0
SPLINE
  5
3D7
100
AcDbEntity
  8
0
100
AcDbSpline
 62
7
  6
CONTINUOUS
 70
0
 71
3
 72
18
 73
14
 74
0
 42
0.0000001
 43
0.0000001
 44
0.0000000001
 40
0.0
 40
0.0
 40
0.0
 40
0.0
 40
0.0548620589
 40
0.1099280789
 40
0.165399508
 40
0.2214731255
 40
0.2783387361
 40
0.3361775086
 40
0.4554063416
 40
0.5804417492
 40
0.7123343341
 40
0.8519577333
 40
1.0
 40
1.0
 40
1.0
 40
1.0
 10
12.0404
 20
10.30669908
 30
0.0
 10
12.0403999998
 20
10.3052297449
 30
0.0
 10
12.0403067246
 20
10.3022847684
 30
0.0
 10
12.0398873934
 20
10.297872095
 30
0.0
 10
12.0391887466
 20
10.2934619645
 30
0.0
 10
12.0382110148
 20
10.2890559874
 30
0.0
 10
12.0369545768
 20
10.2846552763
 30
0.0
 10
12.0348880176
 20
10.2787374995
 30
0.0
 10
12.0315774249
 20
10.2713359452
 30
0.0
 10
12.0265384964
 20
10.2625946814
 30
0.0
 10
12.0204013544
 20
10.2539099974
 30
0.0
 10
12.0131753364
 20
10.2452906099
 30
0.0
 10
12.0078010764
 20
10.239760225
 30
0.0
 10
12.0049492892
 20
10.23700561
 30
0.0
  0
SPLINE
  5
3D8
100
AcDbEntity
  8
0
100
AcDbSpline
 62
7
  6
CONTINUOUS
 70
0
 71
3
 72
21
 73
17
 74
0
 42
0.0000001
 43
0.0000001
 44
0.0000000001
 40
0.0
 40
0.0
 40
0.0
 40
0.0
 40
0.06165323
 40
0.1233294888
 40
0.1850515432
 40
0.2468416588
 40
0.308721345
 40
0.3707111086
 40
0.4328302444
 40
0.4950966362
 40
0.5575265721
 40
0.6201345758
 40
0.6829331658
 40
0.7459331049
 40
0.8725264027
 40
1.0
 40
1.0
 40
1.0
 40
1.0
 10
8.4397140377
 20
8.7657310681
 30
0.0
 10
8.4432641458
 20
8.769160191
 30
0.0
 10
8.450551648
 20
8.7758301615
 30
0.0
 10
8.4620070825
 20
8.7852350141
 30
0.0
 10
8.4739599403
 20
8.7940182344
 30
0.0
 10
8.4863796999
 20
8.802157311
 30
0.0
 10
8.4992351837
 20
8.8096318354
 30
0.0
 10
8.5124939724
 20
8.8164229472
 30
0.0
 10
8.5261226391
 20
8.8225136139
 30
0.0
 10
8.5400868354
 20
8.8278885245
 30
0.0
 10
8.5543514255
 20
8.8325341362
 30
0.0
 10
8.5688803585
 20
8.8364387768
 30
0.0
 10
8.5836374434
 20
8.8395927226
 30
0.0
 10
8.6035962994
 20
8.8427912447
 30
0.0
 10
8.6289408562
 20
8.8448692205
 30
0.0
 10
8.6493163576
 20
8.8444715817
 30
0.0
 10
8.6594971215
 20
8.8437655433
 30
0.0
  0
SPLINE
  5
3D9
100
AcDbEntity
  8
0
100
AcDbSpline
 62
7
  6
CONTINUOUS
 70
0
 71
3
 72
21
 73
17
 74
0
 42
0.0000001
 43
0.0000001
 44
0.0000000001
 40
0.0
 40
0.0
 40
0.0
 40
0.0
 40
0.06165323
 40
0.1233294888
 40
0.1850515432
 40
0.2468416588
 40
0.308721345
 40
0.3707111086
 40
0.4328302444
 40
0.4950966362
 40
0.5575265721
 40
0.6201345758
 40
0.6829331658
 40
0.7459331049
 40
0.8725264027
 40
1.0
 40
1.0
 40
1.0
 40
1.0
 10
8.4397140377
 20
7.2443975943
 30
0.0
 10
8.4432641458
 20
7.2478267172
 30
0.0
 10
8.450551648
 20
7.2544966877
 30
0.0
 10
8.4620070825
 20
7.2639015403
 30
0.0
 10
8.4739599403
 20
7.2726847606
 30
0.0
 10
8.4863796999
 20
7.2808238372
 30
0.0
 10
8.4992351837
 20
7.2882983616
 30
0.0
 10
8.5124939724
 20
7.2950894734
 30
0.0
 10
8.5261226391
 20
7.3011801401
 30
0.0
 10
8.5400868354
 20
7.3065550507
 30
0.0
 10
8.5543514255
 20
7.3112006624
 30
0.0
 10
8.5688803585
 20
7.315105303
 30
0.0
 10
8.5836374434
 20
7.3182592488
 30
0.0
 10
8.6035962994
 20
7.3214577708
 30
0.0
 10
8.6289408562
 20
7.3235357467
 30
0.0
 10
8.6493163576
 20
7.3231381079
 30
0.0
 10
8.6594971215
 20
7.3224320695
 30
0.0
  0
SPLINE
  5
3DA
100
AcDbEntity
  8
0
100
AcDbSpline
 62
7
  6
CONTINUOUS
 70
0
 71
3
 72
21
 73
17
 74
0
 42
0.0000001
 43
0.0000001
 44
0.0000000001
 40
0.0
 40
0.0
 40
0.0
 40
0.0
 40
0.06165323
 40
0.1233294888
 40
0.1850515432
 40
0.2468416588
 40
0.308721345
 40
0.3707111086
 40
0.4328302444
 40
0.4950966362
 40
0.5575265721
 40
0.6201345758
 40
0.6829331658
 40
0.7459331049
 40
0.8725264027
 40
1.0
 40
1.0
 40
1.0
 40
1.0
 10
11.753612694
 20
8.5359114157
 30
0.0
 10
11.7571628021
 20
8.5393405386
 30
0.0
 10
11.7644503043
 20
8.5460105092
 30
0.0
 10
11.7759057388
 20
8.5554153617
 30
0.0
 10
11.7878585967
 20
8.564198582
 30
0.0
 10
11.8002783562
 20
8.5723376586
 30
0.0
 10
11.8131338401
 20
8.579812183
 30
0.0
 10
11.8263926287
 20
8.5866032948
 30
0.0
 10
11.8400212955
 20
8.5926939615
 30
0.0
 10
11.8539854917
 20
8.5980688721
 30
0.0
 10
11.8682500818
 20
8.6027144838
 30
0.0
 10
11.8827790148
 20
8.6066191244
 30
0.0
 10
11.8975360997
 20
8.6097730702
 30
0.0
 10
11.9174949558
 20
8.6129715923
 30
0.0
 10
11.9428395125
 20
8.6150495681
 30
0.0
 10
11.9632150139
 20
8.6146519293
 30
0.0
 10
11.9733957779
 20
8.6139458909
 30
0.0
  0
SPLINE
  5
3DB
100
AcDbEntity
  8
0
100
AcDbSpline
 62
7
  6
CONTINUOUS
 70
0
 71
3
 72
21
 73
17
 74
0
 42
0.0000001
 43
0.0000001
 44
0.0000000001
 40
0.0
 40
0.0
 40
0.0
 40
0.0
 40
0.06165323
 40
0.1233294888
 40
0.1850515432
 40
0.2468416588
 40
0.308721345
 40
0.3707111086
 40
0.4328302444
 40
0.4950966362
 40
0.5575265721
 40
0.6201345758
 40
0.6829331658
 40
0.7459331049
 40
0.8725264027
 40
1.0
 40
1.0
 40
1.0
 40
1.0
 10
11.753612694
 20
7.0145779419
 30
0.0
 10
11.7571628021
 20
7.0180070648
 30
0.0
 10
11.7644503043
 20
7.0246770353
 30
0.0
 10
11.7759057388
 20
7.0340818879
 30
0.0
 10
11.7878585967
 20
7.0428651082
 30
0.0
 10
11.8002783562
 20
7.0510041848
 30
0.0
 10
11.8131338401
 20
7.0584787092
 30
0.0
 10
11.8263926287
 20
7.065269821
 30
0.0
 10
11.8400212955
 20
7.0713604877
 30
0.0
 10
11.8539854917
 20
7.0767353983
 30
0.0
 10
11.8682500818
 20
7.08138101
 30
0.0
 10
11.8827790148
 20
7.0852856506
 30
0.0
 10
11.8975360997
 20
7.0884395964
 30
0.0
 10
11.9174949558
 20
7.0916381185
 30
0.0
 10
11.9428395125
 20
7.0937160943
 30
0.0
 10
11.9632150139
 20
7.0933184555
 30
0.0
 10
11.9733957779
 20
7.0926124171
 30
0.0
  0
SPLINE
  5
3DC
100
AcDbEntity
  8
0
100
AcDbSpline
 62
7
  6
CONTINUOUS
 70
0
 71
3
 72
39
 73
35
 74
0
 42
0.0000001
 43
0.0000001
 44
0.0000000001
 40
0.0
 40
0.0
 40
0.0
 40
0.0
 40
0.0299424704
 40
0.0599093179
 40
0.0899243243
 40
0.1200101043
 40
0.1501875642
 40
0.1804754168
 40
0.2108897632
 40
0.2414437415
 40
0.2721472667
 40
0.3030068514
 40
0.3340255047
 40
0.3652027247
 40
0.3965345612
 40
0.428013747
 40
0.4596299043
 40
0.4913697993
 40
0.5232176468
 40
0.5551554632
 40
0.5871634473
 40
0.6192203894
 40
0.6513041042
 40
0.6833918745
 40
0.7154609017
 40
0.7474887596
 40
0.7794538428
 40
0.8113358021
 40
0.8431159612
 40
0.8747777134
 40
0.9063068841
 40
0.9376920649
 40
0.9689246663
 40
1.0
 40
1.0
 40
1.0
 40
1.0
 10
9.7222185536
 20
8.2617275749
 30
0.0
 10
9.7362160873
 20
8.2752481338
 30
0.0
 10
9.7653118568
 20
8.3011980355
 30
0.0
 10
9.8119277573
 20
8.3365502106
 30
0.0
 10
9.8612776585
 20
8.3681527779
 30
0.0
 10
9.913085865
 20
8.3958283672
 30
0.0
 10
9.9670674901
 20
8.4194258604
 30
0.0
 10
10.022924623
 20
8.4388155512
 30
0.0
 10
10.0803494862
 20
8.4538912518
 30
0.0
 10
10.1390256779
 20
8.4645707594
 30
0.0
 10
10.1986301513
 20
8.4707960455
 30
0.0
 10
10.2588349168
 20
8.472533558
 30
0.0
 10
10.3193088582
 20
8.469774632
 30
0.0
 10
10.3797195612
 20
8.4625351431
 30
0.0
 10
10.4397350909
 20
8.4508555252
 30
0.0
 10
10.4990258516
 20
8.434800705
 30
0.0
 10
10.5572663056
 20
8.4144593863
 30
0.0
 10
10.6141367573
 20
8.3899437502
 30
0.0
 10
10.6693251536
 20
8.3613889229
 30
0.0
 10
10.7225286366
 20
8.3289519413
 30
0.0
 10
10.773455279
 20
8.2928111266
 30
0.0
 10
10.8218257105
 20
8.2531651156
 30
0.0
 10
10.8673744551
 20
8.2102315583
 30
0.0
 10
10.9098515456
 20
8.1642461696
 30
0.0
 10
10.9490238703
 20
8.1154613854
 30
0.0
 10
10.9846762502
 20
8.0641448494
 30
0.0
 10
11.0166128579
 20
8.0105781715
 30
0.0
 10
11.0446581952
 20
7.9550552866
 30
0.0
 10
11.0686578815
 20
7.8978808355
 30
0.0
 10
11.0884798041
 20
7.8393685261
 30
0.0
 10
11.1040146802
 20
7.7798398336
 30
0.0
 10
11.1151764582
 20
7.7196204679
 30
0.0
 10
11.1219034389
 20
7.6590454202
 30
0.0
 10
11.123410141
 20
7.618532745
 30
0.0
 10
11.123410141
 20
7.5983352862
 30
0.0
  0
SPLINE
  5
3DD
100
AcDbEntity
  8
0
100
AcDbSpline
 62
7
  6
CONTINUOUS
 70
0
 71
3
 72
21
 73
17
 74
0
 42
0.0000001
 43
0.0000001
 44
0.0000000001
 40
0.0
 40
0.0
 40
0.0
 40
0.0
 40
0.12731758
 40
0.2538000122
 40
0.3167619425
 40
0.3795355005
 40
0.4421315041
 40
0.5045621466
 40
0.5668413435
 40
0.6289845285
 40
0.6910084568
 40
0.7529310961
 40
0.8147714484
 40
0.8765493394
 40
0.9382852242
 40
1.0
 40
1.0
 40
1.0
 40
1.0
 10
8.3539264683
 20
8.5593862868
 30
0.0
 10
8.3539264683
 20
8.5691292199
 30
0.0
 10
8.3548565005
 20
8.5885637164
 30
0.0
 10
8.3583688994
 20
8.6125889523
 30
0.0
 10
8.3625670227
 20
8.6314346507
 30
0.0
 10
8.3663954878
 20
8.6453352369
 30
0.0
 10
8.3708993888
 20
8.6589888448
 30
0.0
 10
8.3760684568
 20
8.6723643443
 30
0.0
 10
8.3818907266
 20
8.6854308098
 30
0.0
 10
8.3883528074
 20
8.6981581317
 30
0.0
 10
8.3954398761
 20
8.7105169099
 30
0.0
 10
8.4031355655
 20
8.7224786652
 30
0.0
 10
8.4114220995
 20
8.7340157909
 30
0.0
 10
8.4202805168
 20
8.7451017306
 30
0.0
 10
8.4296900433
 20
8.7557105532
 30
0.0
 10
8.4363172042
 20
8.7624499964
 30
0.0
 10
8.4397140377
 20
8.7657310681
 30
0.0
  0
SPLINE
  5
3DE
100
AcDbEntity
  8
0
100
AcDbSpline
 62
7
  6
CONTINUOUS
 70
0
 71
3
 72
23
 73
19
 74
0
 42
0.0000001
 43
0.0000001
 44
0.0000000001
 40
0.0
 40
0.0
 40
0.0
 40
0.0
 40
0.0614487347
 40
0.1232975786
 40
0.1855192697
 40
0.2480712745
 40
0.3108995318
 40
0.3739401518
 40
0.4371217402
 40
0.5003679844
 40
0.5636003165
 40
0.6267406518
 40
0.6897141171
 40
0.7524516766
 40
0.8148926592
 40
0.8769869963
 40
0.938696808
 40
1.0
 40
1.0
 40
1.0
 40
1.0
 10
8.6594971215
 20
8.2326242368
 30
0.0
 10
8.649467604
 20
8.2333197862
 30
0.0
 10
8.6293984969
 20
8.2357038333
 30
0.0
 10
8.599699282
 20
8.2421787252
 30
0.0
 10
8.5705757508
 20
8.2515020265
 30
0.0
 10
8.5423112093
 20
8.2635831083
 30
0.0
 10
8.5151759272
 20
8.2783053433
 30
0.0
 10
8.4894305302
 20
8.295526884
 30
0.0
 10
8.4653218556
 20
8.3150819981
 30
0.0
 10
8.4430813215
 20
8.3367828969
 30
0.0
 10
8.4229222597
 20
8.3604211071
 30
0.0
 10
8.4050384
 20
8.385769904
 30
0.0
 10
8.3896015424
 20
8.4125859846
 30
0.0
 10
8.3767603658
 20
8.4406122175
 30
0.0
 10
8.3666387118
 20
8.4695793852
 30
0.0
 10
8.3593345318
 20
8.4992104165
 30
0.0
 10
8.3549188697
 20
8.5292170017
 30
0.0
 10
8.3539264683
 20
8.5493564921
 30
0.0
 10
8.3539264683
 20
8.5593862868
 30
0.0
  0
SPLINE
  5
3DF
100
AcDbEntity
  8
0
100
AcDbSpline
 62
7
  6
CONTINUOUS
 70
0
 71
3
 72
21
 73
17
 74
0
 42
0.0000001
 43
0.0000001
 44
0.0000000001
 40
0.0
 40
0.0
 40
0.0
 40
0.0
 40
0.12731758
 40
0.2538000122
 40
0.3167619425
 40
0.3795355005
 40
0.4421315041
 40
0.5045621466
 40
0.5668413435
 40
0.6289845285
 40
0.6910084568
 40
0.7529310961
 40
0.8147714484
 40
0.8765493394
 40
0.9382852242
 40
1.0
 40
1.0
 40
1.0
 40
1.0
 10
8.3539264683
 20
7.038052813
 30
0.0
 10
8.3539264683
 20
7.0477957461
 30
0.0
 10
8.3548565005
 20
7.0672302426
 30
0.0
 10
8.3583688994
 20
7.0912554785
 30
0.0
 10
8.3625670227
 20
7.1101011769
 30
0.0
 10
8.3663954878
 20
7.1240017631
 30
0.0
 10
8.3708993888
 20
7.137655371
 30
0.0
 10
8.3760684568
 20
7.1510308705
 30
0.0
 10
8.3818907266
 20
7.1640973359
 30
0.0
 10
8.3883528074
 20
7.1768246579
 30
0.0
 10
8.3954398761
 20
7.1891834361
 30
0.0
 10
8.4031355655
 20
7.2011451914
 30
0.0
 10
8.4114220995
 20
7.2126823171
 30
0.0
 10
8.4202805168
 20
7.2237682568
 30
0.0
 10
8.4296900433
 20
7.2343770794
 30
0.0
 10
8.4363172042
 20
7.2411165225
 30
0.0
 10
8.4397140377
 20
7.2443975943
 30
0.0
  0
SPLINE
  5
3E0
100
AcDbEntity
  8
0
100
AcDbSpline
 62
7
  6
CONTINUOUS
 70
0
 71
3
 72
23
 73
19
 74
0
 42
0.0000001
 43
0.0000001
 44
0.0000000001
 40
0.0
 40
0.0
 40
0.0
 40
0.0
 40
0.0614487347
 40
0.1232975786
 40
0.1855192697
 40
0.2480712745
 40
0.3108995318
 40
0.3739401518
 40
0.4371217402
 40
0.5003679844
 40
0.5636003165
 40
0.6267406518
 40
0.6897141171
 40
0.7524516766
 40
0.8148926592
 40
0.8769869963
 40
0.938696808
 40
1.0
 40
1.0
 40
1.0
 40
1.0
 10
8.6594971215
 20
6.711290763
 30
0.0
 10
8.649467604
 20
6.7119863124
 30
0.0
 10
8.6293984969
 20
6.7143703595
 30
0.0
 10
8.599699282
 20
6.7208452513
 30
0.0
 10
8.5705757508
 20
6.7301685527
 30
0.0
 10
8.5423112093
 20
6.7422496345
 30
0.0
 10
8.5151759272
 20
6.7569718695
 30
0.0
 10
8.4894305302
 20
6.7741934102
 30
0.0
 10
8.4653218556
 20
6.7937485243
 30
0.0
 10
8.4430813215
 20
6.8154494231
 30
0.0
 10
8.4229222597
 20
6.8390876333
 30
0.0
 10
8.4050384
 20
6.8644364302
 30
0.0
 10
8.3896015424
 20
6.8912525108
 30
0.0
 10
8.3767603658
 20
6.9192787437
 30
0.0
 10
8.3666387118
 20
6.9482459114
 30
0.0
 10
8.3593345318
 20
6.9778769426
 30
0.0
 10
8.3549188697
 20
7.0078835279
 30
0.0
 10
8.3539264683
 20
7.0280230183
 30
0.0
 10
8.3539264683
 20
7.038052813
 30
0.0
  0
SPLINE
  5
3E1
100
AcDbEntity
  8
0
100
AcDbSpline
 62
7
  6
CONTINUOUS
 70
0
 71
3
 72
18
 73
14
 74
0
 42
0.0000001
 43
0.0000001
 44
0.0000000001
 40
0.0
 40
0.0
 40
0.0
 40
0.0
 40
0.0548620589
 40
0.1099280789
 40
0.165399508
 40
0.2214731255
 40
0.2783387361
 40
0.3361775086
 40
0.4554063416
 40
0.5804417492
 40
0.7123343341
 40
0.8519577333
 40
1.0
 40
1.0
 40
1.0
 40
1.0
 10
9.9596
 20
10.3066990799
 30
0.0
 10
9.9596000002
 20
10.308168415
 30
0.0
 10
9.9596932754
 20
10.3111133915
 30
0.0
 10
9.9601126066
 20
10.3155260649
 30
0.0
 10
9.9608112534
 20
10.3199361954
 30
0.0
 10
9.9617889852
 20
10.3243421724
 30
0.0
 10
9.9630454232
 20
10.3287428836
 30
0.0
 10
9.9651119824
 20
10.3346606603
 30
0.0
 10
9.9684225751
 20
10.3420622146
 30
0.0
 10
9.9734615036
 20
10.3508034784
 30
0.0
 10
9.9795986456
 20
10.3594881624
 30
0.0
 10
9.9868246636
 20
10.3681075499
 30
0.0
 10
9.9921989236
 20
10.3736379348
 30
0.0
 10
9.9950507108
 20
10.3763925498
 30
0.0
  0
SPLINE
  5
3E2
100
AcDbEntity
  8
0
100
AcDbSpline
 62
7
  6
CONTINUOUS
 70
0
 71
3
 72
21
 73
17
 74
0
 42
0.0000001
 43
0.0000001
 44
0.0000000001
 40
0.0
 40
0.0
 40
0.0
 40
0.0
 40
0.12731758
 40
0.2538000122
 40
0.3167619425
 40
0.3795355005
 40
0.4421315041
 40
0.5045621466
 40
0.5668413435
 40
0.6289845285
 40
0.6910084568
 40
0.7529310961
 40
0.8147714484
 40
0.8765493394
 40
0.9382852242
 40
1.0
 40
1.0
 40
1.0
 40
1.0
 10
11.6678251246
 20
8.3295666345
 30
0.0
 10
11.6678251246
 20
8.3393095675
 30
0.0
 10
11.6687551568
 20
8.358744064
 30
0.0
 10
11.6722675557
 20
8.3827692999
 30
0.0
 10
11.676465679
 20
8.4016149983
 30
0.0
 10
11.6802941441
 20
8.4155155845
 30
0.0
 10
11.6847980451
 20
8.4291691924
 30
0.0
 10
11.6899671132
 20
8.4425446919
 30
0.0
 10
11.6957893829
 20
8.4556111574
 30
0.0
 10
11.7022514637
 20
8.4683384793
 30
0.0
 10
11.7093385325
 20
8.4806972575
 30
0.0
 10
11.7170342218
 20
8.4926590128
 30
0.0
 10
11.7253207558
 20
8.5041961385
 30
0.0
 10
11.7341791731
 20
8.5152820783
 30
0.0
 10
11.7435886996
 20
8.5258909009
 30
0.0
 10
11.7502158606
 20
8.532630344
 30
0.0
 10
11.753612694
 20
8.5359114157
 30
0.0
  0
SPLINE
  5
3E3
100
AcDbEntity
  8
0
100
AcDbSpline
 62
7
  6
CONTINUOUS
 70
0
 71
3
 72
23
 73
19
 74
0
 42
0.0000001
 43
0.0000001
 44
0.0000000001
 40
0.0
 40
0.0
 40
0.0
 40
0.0
 40
0.0614487347
 40
0.1232975786
 40
0.1855192697
 40
0.2480712745
 40
0.3108995318
 40
0.3739401518
 40
0.4371217402
 40
0.5003679844
 40
0.5636003165
 40
0.6267406518
 40
0.6897141171
 40
0.7524516766
 40
0.8148926592
 40
0.8769869963
 40
0.938696808
 40
1.0
 40
1.0
 40
1.0
 40
1.0
 10
11.9733957779
 20
8.0028045844
 30
0.0
 10
11.9633662603
 20
8.0035001338
 30
0.0
 10
11.9432971532
 20
8.0058841809
 30
0.0
 10
11.9135979383
 20
8.0123590728
 30
0.0
 10
11.8844744071
 20
8.0216823742
 30
0.0
 10
11.8562098656
 20
8.0337634559
 30
0.0
 10
11.8290745835
 20
8.0484856909
 30
0.0
 10
11.8033291865
 20
8.0657072316
 30
0.0
 10
11.779220512
 20
8.0852623457
 30
0.0
 10
11.7569799779
 20
8.1069632445
 30
0.0
 10
11.736820916
 20
8.1306014547
 30
0.0
 10
11.7189370564
 20
8.1559502516
 30
0.0
 10
11.7035001987
 20
8.1827663322
 30
0.0
 10
11.6906590221
 20
8.2107925651
 30
0.0
 10
11.6805373681
 20
8.2397597328
 30
0.0
 10
11.6732331881
 20
8.2693907641
 30
0.0
 10
11.6688175261
 20
8.2993973493
 30
0.0
 10
11.6678251246
 20
8.3195368398
 30
0.0
 10
11.6678251246
 20
8.3295666345
 30
0.0
  0
SPLINE
  5
3E4
100
AcDbEntity
  8
0
100
AcDbSpline
 62
7
  6
CONTINUOUS
 70
0
 71
3
 72
11
 73
7
 74
0
 42
0.0000001
 43
0.0000001
 44
0.0000000001
 40
0.0
 40
0.0
 40
0.0
 40
0.0
 40
0.2677622571
 40
0.5238028079
 40
0.7679301064
 40
1.0
 40
1.0
 40
1.0
 40
1.0
 10
10.3537201512
 20
7.6648999447
 30
0.0
 10
10.3473821653
 20
7.6627833428
 30
0.0
 10
10.3350316536
 20
7.6584968866
 30
0.0
 10
10.3170955989
 20
7.6517409656
 30
0.0
 10
10.3001847427
 20
7.6448108813
 30
0.0
 10
10.2893343455
 20
7.639957838
 30
0.0
 10
10.2840911876
 20
7.6374983386
 30
0.0
  0
SPLINE
  5
3E5
100
AcDbEntity
  8
0
100
AcDbSpline
 62
7
  6
CONTINUOUS
 70
0
 71
3
 72
11
 73
7
 74
0
 42
0.0000001
 43
0.0000001
 44
0.0000000001
 40
0.0
 40
0.0
 40
0.0
 40
0.0
 40
0.2294178281
 40
0.4727036125
 40
0.729655669
 40
1.0
 40
1.0
 40
1.0
 40
1.0
 10
11.9129360294
 20
10.1776522403
 30
0.0
 10
11.9051993022
 20
10.1813158591
 30
0.0
 10
11.8890963254
 20
10.1885259204
 30
0.0
 10
11.8638530757
 20
10.1987384805
 30
0.0
 10
11.8368568707
 20
10.2086478075
 30
0.0
 10
11.8181926465
 20
10.2148827362
 30
0.0
 10
11.8085841892
 20
10.2179541449
 30
0.0
  0
SPLINE
  5
3E6
100
AcDbEntity
  8
0
100
AcDbSpline
 62
7
  6
CONTINUOUS
 70
0
 71
3
 72
11
 73
7
 74
0
 42
0.0000001
 43
0.0000001
 44
0.0000000001
 40
0.0
 40
0.0
 40
0.0
 40
0.0
 40
0.2703645336
 40
0.5273237172
 40
0.7706029245
 40
1.0
 40
1.0
 40
1.0
 40
1.0
 10
10.1915262805
 20
10.2179894556
 30
0.0
 10
10.1819053118
 20
10.2149151083
 30
0.0
 10
10.163217241
 20
10.2086740916
 30
0.0
 10
10.1361873812
 20
10.1987544226
 30
0.0
 10
10.1109142928
 20
10.1885308166
 30
0.0
 10
10.0947930093
 20
10.1813125037
 30
0.0
 10
10.0870478471
 20
10.1776446012
 30
0.0
  0
SPLINE
  5
3E7
100
AcDbEntity
  8
0
100
AcDbSpline
 62
7
  6
CONTINUOUS
 70
0
 71
3
 72
39
 73
35
 74
0
 42
0.0000001
 43
0.0000001
 44
0.0000000001
 40
0.0
 40
0.0
 40
0.0
 40
0.0
 40
0.031402539
 40
0.0630095484
 40
0.0948070963
 40
0.1267734464
 40
0.1588809717
 40
0.191097022
 40
0.2233851123
 40
0.2557062441
 40
0.2880202663
 40
0.3202872747
 40
0.3524690066
 40
0.3845301824
 40
0.4164397923
 40
0.4481722496
 40
0.4797084073
 40
0.5110363798
 40
0.542152119
 40
0.5730597425
 40
0.6037715186
 40
0.6343075558
 40
0.664695111
 40
0.6949675894
 40
0.7251632179
 40
0.7553234775
 40
0.7854913542
 40
0.8157095096
 40
0.8460184684
 40
0.8764549219
 40
0.9070502465
 40
0.9378292715
 40
0.9688091882
 40
1.0
 40
1.0
 40
1.0
 40
1.0
 10
8.6514607968
 20
8.1948697441
 30
0.0
 10
8.6404468743
 20
8.1956335622
 30
0.0
 10
8.6184079686
 20
8.1982516054
 30
0.0
 10
8.5857937525
 20
8.2053620129
 30
0.0
 10
8.553811724
 20
8.2156004036
 30
0.0
 10
8.5227729956
 20
8.228867253
 30
0.0
 10
8.4929743644
 20
8.2450344869
 30
0.0
 10
8.4647020365
 20
8.2639463353
 30
0.0
 10
8.4382270767
 20
8.2854207992
 30
0.0
 10
8.4138036167
 20
8.3092516579
 30
0.0
 10
8.3916659272
 20
8.3352099779
 30
0.0
 10
8.3720267527
 20
8.3630467754
 30
0.0
 10
8.3550747554
 20
8.3924948893
 30
0.0
 10
8.3409732074
 20
8.4232718662
 30
0.0
 10
8.3298581089
 20
8.4550823718
 30
0.0
 10
8.3218369846
 20
8.487621064
 30
0.0
 10
8.316987987
 20
8.5205754516
 30
0.0
 10
8.3153586913
 20
8.5536287673
 30
0.0
 10
8.3169661917
 20
8.5864630064
 30
0.0
 10
8.3217961045
 20
8.618761905
 30
0.0
 10
8.3298033337
 20
8.6502139359
 30
0.0
 10
8.3409117513
 20
8.6805153763
 30
0.0
 10
8.3550152195
 20
8.7093732363
 30
0.0
 10
8.3719783501
 20
8.7365081765
 30
0.0
 10
8.3916376296
 20
8.7616574624
 30
0.0
 10
8.4138033194
 20
8.7845773864
 30
0.0
 10
8.4382608435
 20
8.8050462016
 30
0.0
 10
8.4647735114
 20
8.8228658509
 30
0.0
 10
8.4930844151
 20
8.8378645372
 30
0.0
 10
8.5229195813
 20
8.8498978759
 30
0.0
 10
8.5539900628
 20
8.8588506351
 30
0.0
 10
8.5859966105
 20
8.8646374846
 30
0.0
 10
8.6186263969
 20
8.8672041644
 30
0.0
 10
8.6405211341
 20
8.8667537161
 30
0.0
 10
8.6514607968
 20
8.865995048
 30
0.0
  0
SPLINE
  5
3E8
100
AcDbEntity
  8
0
100
AcDbSpline
 62
7
  6
CONTINUOUS
 70
0
 71
3
 72
39
 73
35
 74
0
 42
0.0000001
 43
0.0000001
 44
0.0000000001
 40
0.0
 40
0.0
 40
0.0
 40
0.0
 40
0.031402539
 40
0.0630095484
 40
0.0948070963
 40
0.1267734464
 40
0.1588809717
 40
0.191097022
 40
0.2233851123
 40
0.2557062441
 40
0.2880202663
 40
0.3202872747
 40
0.3524690066
 40
0.3845301824
 40
0.4164397923
 40
0.4481722496
 40
0.4797084073
 40
0.5110363798
 40
0.542152119
 40
0.5730597425
 40
0.6037715186
 40
0.6343075558
 40
0.664695111
 40
0.6949675894
 40
0.7251632179
 40
0.7553234775
 40
0.7854913542
 40
0.8157095096
 40
0.8460184684
 40
0.8764549219
 40
0.9070502465
 40
0.9378292715
 40
0.9688091882
 40
1.0
 40
1.0
 40
1.0
 40
1.0
 10
8.6514607968
 20
8.865995048
 30
0.0
 10
8.6624747194
 20
8.8652312298
 30
0.0
 10
8.684513625
 20
8.8626131866
 30
0.0
 10
8.7171278411
 20
8.8555027791
 30
0.0
 10
8.7491098696
 20
8.8452643884
 30
0.0
 10
8.7801485981
 20
8.831997539
 30
0.0
 10
8.8099472293
 20
8.8158303051
 30
0.0
 10
8.8382195572
 20
8.7969184568
 30
0.0
 10
8.864694517
 20
8.7754439928
 30
0.0
 10
8.8891179769
 20
8.7516131341
 30
0.0
 10
8.9112556664
 20
8.7256548141
 30
0.0
 10
8.9308948409
 20
8.6978180167
 30
0.0
 10
8.9478468382
 20
8.6683699027
 30
0.0
 10
8.9619483862
 20
8.6375929258
 30
0.0
 10
8.9730634847
 20
8.6057824202
 30
0.0
 10
8.981084609
 20
8.573243728
 30
0.0
 10
8.9859336066
 20
8.5402893404
 30
0.0
 10
8.9875629023
 20
8.5072360247
 30
0.0
 10
8.9859554019
 20
8.4744017856
 30
0.0
 10
8.9811254892
 20
8.4421028871
 30
0.0
 10
8.9731182599
 20
8.4106508561
 30
0.0
 10
8.9620098423
 20
8.3803494157
 30
0.0
 10
8.9479063741
 20
8.3514915558
 30
0.0
 10
8.9309432436
 20
8.3243566156
 30
0.0
 10
8.911283964
 20
8.2992073296
 30
0.0
 10
8.8891182742
 20
8.2762874057
 30
0.0
 10
8.8646607501
 20
8.2558185904
 30
0.0
 10
8.8381480822
 20
8.2379989411
 30
0.0
 10
8.8098371786
 20
8.2230002548
 30
0.0
 10
8.7800020123
 20
8.2109669161
 30
0.0
 10
8.7489315308
 20
8.2020141569
 30
0.0
 10
8.7169249831
 20
8.1962273074
 30
0.0
 10
8.6842951967
 20
8.1936606276
 30
0.0
 10
8.6624004595
 20
8.1941110759
 30
0.0
 10
8.6514607968
 20
8.1948697441
 30
0.0
  0
SPLINE
  5
3E9
100
AcDbEntity
  8
0
100
AcDbSpline
 62
7
  6
CONTINUOUS
 70
0
 71
3
 72
21
 73
17
 74
0
 42
0.0000001
 43
0.0000001
 44
0.0000000001
 40
0.0
 40
0.0
 40
0.0
 40
0.0
 40
0.12731758
 40
0.2538000122
 40
0.3167619425
 40
0.3795355005
 40
0.4421315041
 40
0.5045621466
 40
0.5668413435
 40
0.6289845285
 40
0.6910084568
 40
0.7529310961
 40
0.8147714484
 40
0.8765493394
 40
0.9382852242
 40
1.0
 40
1.0
 40
1.0
 40
1.0
 10
11.6678251246
 20
6.8082331606
 30
0.0
 10
11.6678251246
 20
6.8179760937
 30
0.0
 10
11.6687551568
 20
6.8374105902
 30
0.0
 10
11.6722675557
 20
6.8614358261
 30
0.0
 10
11.676465679
 20
6.8802815245
 30
0.0
 10
11.6802941441
 20
6.8941821107
 30
0.0
 10
11.6847980451
 20
6.9078357186
 30
0.0
 10
11.6899671132
 20
6.9212112181
 30
0.0
 10
11.6957893829
 20
6.9342776836
 30
0.0
 10
11.7022514637
 20
6.9470050055
 30
0.0
 10
11.7093385325
 20
6.9593637837
 30
0.0
 10
11.7170342218
 20
6.971325539
 30
0.0
 10
11.7253207558
 20
6.9828626647
 30
0.0
 10
11.7341791731
 20
6.9939486044
 30
0.0
 10
11.7435886996
 20
7.004557427
 30
0.0
 10
11.7502158606
 20
7.0112968701
 30
0.0
 10
11.753612694
 20
7.0145779419
 30
0.0
  0
SPLINE
  5
3EA
100
AcDbEntity
  8
0
100
AcDbSpline
 62
7
  6
CONTINUOUS
 70
0
 71
3
 72
23
 73
19
 74
0
 42
0.0000001
 43
0.0000001
 44
0.0000000001
 40
0.0
 40
0.0
 40
0.0
 40
0.0
 40
0.0614487347
 40
0.1232975786
 40
0.1855192697
 40
0.2480712745
 40
0.3108995318
 40
0.3739401518
 40
0.4371217402
 40
0.5003679844
 40
0.5636003165
 40
0.6267406518
 40
0.6897141171
 40
0.7524516766
 40
0.8148926592
 40
0.8769869963
 40
0.938696808
 40
1.0
 40
1.0
 40
1.0
 40
1.0
 10
11.9733957779
 20
6.4814711106
 30
0.0
 10
11.9633662603
 20
6.48216666
 30
0.0
 10
11.9432971532
 20
6.4845507071
 30
0.0
 10
11.9135979383
 20
6.491025599
 30
0.0
 10
11.8844744071
 20
6.5003489003
 30
0.0
 10
11.8562098656
 20
6.5124299821
 30
0.0
 10
11.8290745835
 20
6.5271522171
 30
0.0
 10
11.8033291865
 20
6.5443737578
 30
0.0
 10
11.779220512
 20
6.5639288719
 30
0.0
 10
11.7569799779
 20
6.5856297707
 30
0.0
 10
11.736820916
 20
6.6092679809
 30
0.0
 10
11.7189370564
 20
6.6346167778
 30
0.0
 10
11.7035001987
 20
6.6614328584
 30
0.0
 10
11.6906590221
 20
6.6894590913
 30
0.0
 10
11.6805373681
 20
6.718426259
 30
0.0
 10
11.6732331881
 20
6.7480572903
 30
0.0
 10
11.6688175261
 20
6.7780638755
 30
0.0
 10
11.6678251246
 20
6.7982033659
 30
0.0
 10
11.6678251246
 20
6.8082331606
 30
0.0
  0
SPLINE
  5
3EB
100
AcDbEntity
  8
0
100
AcDbSpline
 62
7
  6
CONTINUOUS
 70
0
 71
3
 72
39
 73
35
 74
0
 42
0.0000001
 43
0.0000001
 44
0.0000000001
 40
0.0
 40
0.0
 40
0.0
 40
0.0
 40
0.031402539
 40
0.0630095484
 40
0.0948070963
 40
0.1267734464
 40
0.1588809717
 40
0.191097022
 40
0.2233851123
 40
0.2557062441
 40
0.2880202663
 40
0.3202872747
 40
0.3524690066
 40
0.3845301824
 40
0.4164397923
 40
0.4481722496
 40
0.4797084073
 40
0.5110363798
 40
0.542152119
 40
0.5730597425
 40
0.6037715186
 40
0.6343075558
 40
0.664695111
 40
0.6949675894
 40
0.7251632179
 40
0.7553234775
 40
0.7854913542
 40
0.8157095096
 40
0.8460184684
 40
0.8764549219
 40
0.9070502465
 40
0.9378292715
 40
0.9688091882
 40
1.0
 40
1.0
 40
1.0
 40
1.0
 10
8.6514607968
 20
6.6735362703
 30
0.0
 10
8.6404468743
 20
6.6743000884
 30
0.0
 10
8.6184079686
 20
6.6769181316
 30
0.0
 10
8.5857937525
 20
6.6840285391
 30
0.0
 10
8.553811724
 20
6.6942669298
 30
0.0
 10
8.5227729956
 20
6.7075337792
 30
0.0
 10
8.4929743644
 20
6.7237010131
 30
0.0
 10
8.4647020365
 20
6.7426128615
 30
0.0
 10
8.4382270767
 20
6.7640873254
 30
0.0
 10
8.4138036167
 20
6.7879181841
 30
0.0
 10
8.3916659272
 20
6.8138765041
 30
0.0
 10
8.3720267527
 20
6.8417133016
 30
0.0
 10
8.3550747554
 20
6.8711614155
 30
0.0
 10
8.3409732074
 20
6.9019383924
 30
0.0
 10
8.3298581089
 20
6.933748898
 30
0.0
 10
8.3218369846
 20
6.9662875902
 30
0.0
 10
8.316987987
 20
6.9992419778
 30
0.0
 10
8.3153586913
 20
7.0322952935
 30
0.0
 10
8.3169661917
 20
7.0651295326
 30
0.0
 10
8.3217961045
 20
7.0974284311
 30
0.0
 10
8.3298033337
 20
7.1288804621
 30
0.0
 10
8.3409117513
 20
7.1591819025
 30
0.0
 10
8.3550152195
 20
7.1880397624
 30
0.0
 10
8.3719783501
 20
7.2151747026
 30
0.0
 10
8.3916376296
 20
7.2403239886
 30
0.0
 10
8.4138033194
 20
7.2632439125
 30
0.0
 10
8.4382608435
 20
7.2837127278
 30
0.0
 10
8.4647735114
 20
7.3015323771
 30
0.0
 10
8.4930844151
 20
7.3165310634
 30
0.0
 10
8.5229195813
 20
7.3285644021
 30
0.0
 10
8.5539900628
 20
7.3375171613
 30
0.0
 10
8.5859966105
 20
7.3433040108
 30
0.0
 10
8.6186263969
 20
7.3458706906
 30
0.0
 10
8.6405211341
 20
7.3454202423
 30
0.0
 10
8.6514607968
 20
7.3446615741
 30
0.0
  0
SPLINE
  5
3EC
100
AcDbEntity
  8
0
100
AcDbSpline
 62
7
  6
CONTINUOUS
 70
0
 71
3
 72
39
 73
35
 74
0
 42
0.0000001
 43
0.0000001
 44
0.0000000001
 40
0.0
 40
0.0
 40
0.0
 40
0.0
 40
0.031402539
 40
0.0630095484
 40
0.0948070963
 40
0.1267734464
 40
0.1588809717
 40
0.191097022
 40
0.2233851123
 40
0.2557062441
 40
0.2880202663
 40
0.3202872747
 40
0.3524690066
 40
0.3845301824
 40
0.4164397923
 40
0.4481722496
 40
0.4797084073
 40
0.5110363798
 40
0.542152119
 40
0.5730597425
 40
0.6037715186
 40
0.6343075558
 40
0.664695111
 40
0.6949675894
 40
0.7251632179
 40
0.7553234775
 40
0.7854913542
 40
0.8157095096
 40
0.8460184684
 40
0.8764549219
 40
0.9070502465
 40
0.9378292715
 40
0.9688091882
 40
1.0
 40
1.0
 40
1.0
 40
1.0
 10
8.6514607968
 20
7.3446615741
 30
0.0
 10
8.6624747194
 20
7.343897756
 30
0.0
 10
8.684513625
 20
7.3412797128
 30
0.0
 10
8.7171278411
 20
7.3341693053
 30
0.0
 10
8.7491098696
 20
7.3239309146
 30
0.0
 10
8.7801485981
 20
7.3106640652
 30
0.0
 10
8.8099472293
 20
7.2944968313
 30
0.0
 10
8.8382195572
 20
7.2755849829
 30
0.0
 10
8.864694517
 20
7.254110519
 30
0.0
 10
8.8891179769
 20
7.2302796603
 30
0.0
 10
8.9112556664
 20
7.2043213403
 30
0.0
 10
8.9308948409
 20
7.1764845428
 30
0.0
 10
8.9478468382
 20
7.1470364289
 30
0.0
 10
8.9619483862
 20
7.116259452
 30
0.0
 10
8.9730634847
 20
7.0844489464
 30
0.0
 10
8.981084609
 20
7.0519102542
 30
0.0
 10
8.9859336066
 20
7.0189558666
 30
0.0
 10
8.9875629023
 20
6.9859025509
 30
0.0
 10
8.9859554019
 20
6.9530683118
 30
0.0
 10
8.9811254892
 20
6.9207694133
 30
0.0
 10
8.9731182599
 20
6.8893173823
 30
0.0
 10
8.9620098423
 20
6.8590159419
 30
0.0
 10
8.9479063741
 20
6.830158082
 30
0.0
 10
8.9309432436
 20
6.8030231418
 30
0.0
 10
8.911283964
 20
6.7778738558
 30
0.0
 10
8.8891182742
 20
6.7549539319
 30
0.0
 10
8.8646607501
 20
6.7344851166
 30
0.0
 10
8.8381480822
 20
6.7166654673
 30
0.0
 10
8.8098371786
 20
6.701666781
 30
0.0
 10
8.7800020123
 20
6.6896334423
 30
0.0
 10
8.7489315308
 20
6.6806806831
 30
0.0
 10
8.7169249831
 20
6.6748938336
 30
0.0
 10
8.6842951967
 20
6.6723271538
 30
0.0
 10
8.6624004595
 20
6.6727776021
 30
0.0
 10
8.6514607968
 20
6.6735362703
 30
0.0
  0
SPLINE
  5
3ED
100
AcDbEntity
  8
0
100
AcDbSpline
 62
7
  6
CONTINUOUS
 70
0
 71
3
 72
11
 73
7
 74
0
 42
0.0000001
 43
0.0000001
 44
0.0000000001
 40
0.0
 40
0.0
 40
0.0
 40
0.0
 40
0.2515341658
 40
0.5020686857
 40
0.7515649551
 40
1.0
 40
1.0
 40
1.0
 40
1.0
 10
10.2102107013
 20
8.1765110533
 30
0.0
 10
10.2060393315
 20
8.1931793916
 30
0.0
 10
10.1987128976
 20
8.2267094263
 30
0.0
 10
10.1908165673
 20
8.2774693286
 30
0.0
 10
10.1860630465
 20
8.3284069939
 30
0.0
 10
10.1850000358
 20
8.3624300083
 30
0.0
 10
10.1850000358
 20
8.3794006762
 30
0.0
  0
SPLINE
  5
3EE
100
AcDbEntity
  8
0
100
AcDbSpline
 62
7
  6
CONTINUOUS
 70
0
 71
3
 72
14
 73
10
 74
0
 42
0.0000001
 43
0.0000001
 44
0.0000000001
 40
0.0
 40
0.0
 40
0.0
 40
0.0
 40
0.1221793415
 40
0.2453286004
 40
0.3693757208
 40
0.4942379801
 40
0.6198252671
 40
0.7460436933
 40
1.0
 40
1.0
 40
1.0
 40
1.0
 10
10.2134204719
 20
8.4705986665
 30
0.0
 10
10.2136474227
 20
8.4586213753
 30
0.0
 10
10.2140128904
 20
8.434569898
 30
0.0
 10
10.2142840219
 20
8.3983540114
 30
0.0
 10
10.2142737442
 20
8.3618740346
 30
0.0
 10
10.2139823401
 20
8.3251561951
 30
0.0
 10
10.2134169214
 20
8.2882286485
 30
0.0
 10
10.2123137789
 20
8.2386516586
 30
0.0
 10
10.211126944
 20
8.2013941002
 30
0.0
 10
10.2102107013
 20
8.1765110533
 30
0.0
  0
SPLINE
  5
3EF
100
AcDbEntity
  8
0
100
AcDbSpline
 62
7
  6
CONTINUOUS
 70
0
 71
3
 72
39
 73
35
 74
0
 42
0.0000001
 43
0.0000001
 44
0.0000000001
 40
0.0
 40
0.0
 40
0.0
 40
0.0
 40
0.031402539
 40
0.0630095484
 40
0.0948070963
 40
0.1267734464
 40
0.1588809717
 40
0.191097022
 40
0.2233851123
 40
0.2557062441
 40
0.2880202663
 40
0.3202872747
 40
0.3524690066
 40
0.3845301824
 40
0.4164397923
 40
0.4481722496
 40
0.4797084073
 40
0.5110363798
 40
0.542152119
 40
0.5730597425
 40
0.6037715186
 40
0.6343075558
 40
0.664695111
 40
0.6949675894
 40
0.7251632179
 40
0.7553234775
 40
0.7854913542
 40
0.8157095096
 40
0.8460184684
 40
0.8764549219
 40
0.9070502465
 40
0.9378292715
 40
0.9688091882
 40
1.0
 40
1.0
 40
1.0
 40
1.0
 10
11.9653594531
 20
7.9650500917
 30
0.0
 10
11.9543455306
 20
7.9658139098
 30
0.0
 10
11.932306625
 20
7.968431953
 30
0.0
 10
11.8996924088
 20
7.9755423605
 30
0.0
 10
11.8677103803
 20
7.9857807512
 30
0.0
 10
11.8366716519
 20
7.9990476006
 30
0.0
 10
11.8068730207
 20
8.0152148345
 30
0.0
 10
11.7786006928
 20
8.0341266829
 30
0.0
 10
11.752125733
 20
8.0556011468
 30
0.0
 10
11.7277022731
 20
8.0794320055
 30
0.0
 10
11.7055645836
 20
8.1053903255
 30
0.0
 10
11.685925409
 20
8.133227123
 30
0.0
 10
11.6689734118
 20
8.1626752369
 30
0.0
 10
11.6548718637
 20
8.1934522138
 30
0.0
 10
11.6437567652
 20
8.2252627194
 30
0.0
 10
11.6357356409
 20
8.2578014116
 30
0.0
 10
11.6308866433
 20
8.2907557992
 30
0.0
 10
11.6292573477
 20
8.3238091149
 30
0.0
 10
11.630864848
 20
8.356643354
 30
0.0
 10
11.6356947608
 20
8.3889422526
 30
0.0
 10
11.64370199
 20
8.4203942836
 30
0.0
 10
11.6548104076
 20
8.4506957239
 30
0.0
 10
11.6689138758
 20
8.4795535839
 30
0.0
 10
11.6858770064
 20
8.5066885241
 30
0.0
 10
11.705536286
 20
8.53183781
 30
0.0
 10
11.7277019758
 20
8.554757734
 30
0.0
 10
11.7521594998
 20
8.5752265493
 30
0.0
 10
11.7786721678
 20
8.5930461985
 30
0.0
 10
11.8069830714
 20
8.6080448848
 30
0.0
 10
11.8368182377
 20
8.6200782235
 30
0.0
 10
11.8678887191
 20
8.6290309828
 30
0.0
 10
11.8998952668
 20
8.6348178322
 30
0.0
 10
11.9325250532
 20
8.637384512
 30
0.0
 10
11.9544197904
 20
8.6369340637
 30
0.0
 10
11.9653594531
 20
8.6361753956
 30
0.0
  0
SPLINE
  5
3F0
100
AcDbEntity
  8
0
100
AcDbSpline
 62
7
  6
CONTINUOUS
 70
0
 71
3
 72
39
 73
35
 74
0
 42
0.0000001
 43
0.0000001
 44
0.0000000001
 40
0.0
 40
0.0
 40
0.0
 40
0.0
 40
0.031402539
 40
0.0630095484
 40
0.0948070963
 40
0.1267734464
 40
0.1588809717
 40
0.191097022
 40
0.2233851123
 40
0.2557062441
 40
0.2880202663
 40
0.3202872747
 40
0.3524690066
 40
0.3845301824
 40
0.4164397923
 40
0.4481722496
 40
0.4797084073
 40
0.5110363798
 40
0.542152119
 40
0.5730597425
 40
0.6037715186
 40
0.6343075558
 40
0.664695111
 40
0.6949675894
 40
0.7251632179
 40
0.7553234775
 40
0.7854913542
 40
0.8157095096
 40
0.8460184684
 40
0.8764549219
 40
0.9070502465
 40
0.9378292715
 40
0.9688091882
 40
1.0
 40
1.0
 40
1.0
 40
1.0
 10
11.9653594531
 20
8.6361753956
 30
0.0
 10
11.9763733757
 20
8.6354115774
 30
0.0
 10
11.9984122813
 20
8.6327935343
 30
0.0
 10
12.0310264974
 20
8.6256831267
 30
0.0
 10
12.063008526
 20
8.615444736
 30
0.0
 10
12.0940472544
 20
8.6021778866
 30
0.0
 10
12.1238458856
 20
8.5860106527
 30
0.0
 10
12.1521182135
 20
8.5670988044
 30
0.0
 10
12.1785931733
 20
8.5456243405
 30
0.0
 10
12.2030166332
 20
8.5217934817
 30
0.0
 10
12.2251543227
 20
8.4958351617
 30
0.0
 10
12.2447934973
 20
8.4679983643
 30
0.0
 10
12.2617454945
 20
8.4385502503
 30
0.0
 10
12.2758470425
 20
8.4077732734
 30
0.0
 10
12.2869621411
 20
8.3759627678
 30
0.0
 10
12.2949832653
 20
8.3434240756
 30
0.0
 10
12.299832263
 20
8.310469688
 30
0.0
 10
12.3014615586
 20
8.2774163723
 30
0.0
 10
12.2998540582
 20
8.2445821333
 30
0.0
 10
12.2950241455
 20
8.2122832347
 30
0.0
 10
12.2870169162
 20
8.1808312037
 30
0.0
 10
12.2759084986
 20
8.1505297633
 30
0.0
 10
12.2618050304
 20
8.1216719034
 30
0.0
 10
12.2448418999
 20
8.0945369632
 30
0.0
 10
12.2251826203
 20
8.0693876772
 30
0.0
 10
12.2030169305
 20
8.0464677533
 30
0.0
 10
12.1785594065
 20
8.025998938
 30
0.0
 10
12.1520467385
 20
8.0081792887
 30
0.0
 10
12.1237358349
 20
7.9931806024
 30
0.0
 10
12.0939006686
 20
7.9811472637
 30
0.0
 10
12.0628301871
 20
7.9721945045
 30
0.0
 10
12.0308236394
 20
7.9664076551
 30
0.0
 10
11.998193853
 20
7.9638409752
 30
0.0
 10
11.9762991158
 20
7.9642914235
 30
0.0
 10
11.9653594531
 20
7.9650500917
 30
0.0
  0
SPLINE
  5
3F1
100
AcDbEntity
  8
0
100
AcDbSpline
 62
7
  6
CONTINUOUS
 70
0
 71
3
 72
39
 73
35
 74
0
 42
0.0000001
 43
0.0000001
 44
0.0000000001
 40
0.0
 40
0.0
 40
0.0
 40
0.0
 40
0.031402539
 40
0.0630095484
 40
0.0948070963
 40
0.1267734464
 40
0.1588809717
 40
0.191097022
 40
0.2233851123
 40
0.2557062441
 40
0.2880202663
 40
0.3202872747
 40
0.3524690066
 40
0.3845301824
 40
0.4164397923
 40
0.4481722496
 40
0.4797084073
 40
0.5110363798
 40
0.542152119
 40
0.5730597425
 40
0.6037715186
 40
0.6343075558
 40
0.664695111
 40
0.6949675894
 40
0.7251632179
 40
0.7553234775
 40
0.7854913542
 40
0.8157095096
 40
0.8460184684
 40
0.8764549219
 40
0.9070502465
 40
0.9378292715
 40
0.9688091882
 40
1.0
 40
1.0
 40
1.0
 40
1.0
 10
11.9653594531
 20
6.4437166179
 30
0.0
 10
11.9543455306
 20
6.444480436
 30
0.0
 10
11.932306625
 20
6.4470984792
 30
0.0
 10
11.8996924088
 20
6.4542088867
 30
0.0
 10
11.8677103803
 20
6.4644472774
 30
0.0
 10
11.8366716519
 20
6.4777141268
 30
0.0
 10
11.8068730207
 20
6.4938813607
 30
0.0
 10
11.7786006928
 20
6.5127932091
 30
0.0
 10
11.752125733
 20
6.534267673
 30
0.0
 10
11.7277022731
 20
6.5580985317
 30
0.0
 10
11.7055645836
 20
6.5840568517
 30
0.0
 10
11.685925409
 20
6.6118936492
 30
0.0
 10
11.6689734118
 20
6.6413417631
 30
0.0
 10
11.6548718637
 20
6.67211874
 30
0.0
 10
11.6437567652
 20
6.7039292456
 30
0.0
 10
11.6357356409
 20
6.7364679378
 30
0.0
 10
11.6308866433
 20
6.7694223254
 30
0.0
 10
11.6292573477
 20
6.8024756411
 30
0.0
 10
11.630864848
 20
6.8353098802
 30
0.0
 10
11.6356947608
 20
6.8676087788
 30
0.0
 10
11.64370199
 20
6.8990608097
 30
0.0
 10
11.6548104076
 20
6.9293622501
 30
0.0
 10
11.6689138758
 20
6.95822011
 30
0.0
 10
11.6858770064
 20
6.9853550503
 30
0.0
 10
11.705536286
 20
7.0105043362
 30
0.0
 10
11.7277019758
 20
7.0334242602
 30
0.0
 10
11.7521594998
 20
7.0538930754
 30
0.0
 10
11.7786721678
 20
7.0717127247
 30
0.0
 10
11.8069830714
 20
7.086711411
 30
0.0
 10
11.8368182377
 20
7.0987447497
 30
0.0
 10
11.8678887191
 20
7.1076975089
 30
0.0
 10
11.8998952668
 20
7.1134843584
 30
0.0
 10
11.9325250532
 20
7.1160510382
 30
0.0
 10
11.9544197904
 20
7.1156005899
 30
0.0
 10
11.9653594531
 20
7.1148419217
 30
0.0
  0
SPLINE
  5
3F2
100
AcDbEntity
  8
0
100
AcDbSpline
 62
7
  6
CONTINUOUS
 70
0
 71
3
 72
39
 73
35
 74
0
 42
0.0000001
 43
0.0000001
 44
0.0000000001
 40
0.0
 40
0.0
 40
0.0
 40
0.0
 40
0.031402539
 40
0.0630095484
 40
0.0948070963
 40
0.1267734464
 40
0.1588809717
 40
0.191097022
 40
0.2233851123
 40
0.2557062441
 40
0.2880202663
 40
0.3202872747
 40
0.3524690066
 40
0.3845301824
 40
0.4164397923
 40
0.4481722496
 40
0.4797084073
 40
0.5110363798
 40
0.542152119
 40
0.5730597425
 40
0.6037715186
 40
0.6343075558
 40
0.664695111
 40
0.6949675894
 40
0.7251632179
 40
0.7553234775
 40
0.7854913542
 40
0.8157095096
 40
0.8460184684
 40
0.8764549219
 40
0.9070502465
 40
0.9378292715
 40
0.9688091882
 40
1.0
 40
1.0
 40
1.0
 40
1.0
 10
11.9653594531
 20
7.1148419217
 30
0.0
 10
11.9763733757
 20
7.1140781036
 30
0.0
 10
11.9984122813
 20
7.1114600604
 30
0.0
 10
12.0310264974
 20
7.1043496529
 30
0.0
 10
12.063008526
 20
7.0941112622
 30
0.0
 10
12.0940472544
 20
7.0808444128
 30
0.0
 10
12.1238458856
 20
7.0646771789
 30
0.0
 10
12.1521182135
 20
7.0457653306
 30
0.0
 10
12.1785931733
 20
7.0242908666
 30
0.0
 10
12.2030166332
 20
7.0004600079
 30
0.0
 10
12.2251543227
 20
6.9745016879
 30
0.0
 10
12.2447934973
 20
6.9466648905
 30
0.0
 10
12.2617454945
 20
6.9172167765
 30
0.0
 10
12.2758470425
 20
6.8864397996
 30
0.0
 10
12.2869621411
 20
6.854629294
 30
0.0
 10
12.2949832653
 20
6.8220906018
 30
0.0
 10
12.299832263
 20
6.7891362142
 30
0.0
 10
12.3014615586
 20
6.7560828985
 30
0.0
 10
12.2998540582
 20
6.7232486594
 30
0.0
 10
12.2950241455
 20
6.6909497609
 30
0.0
 10
12.2870169162
 20
6.6594977299
 30
0.0
 10
12.2759084986
 20
6.6291962895
 30
0.0
 10
12.2618050304
 20
6.6003384296
 30
0.0
 10
12.2448418999
 20
6.5732034894
 30
0.0
 10
12.2251826203
 20
6.5480542034
 30
0.0
 10
12.2030169305
 20
6.5251342795
 30
0.0
 10
12.1785594065
 20
6.5046654642
 30
0.0
 10
12.1520467385
 20
6.4868458149
 30
0.0
 10
12.1237358349
 20
6.4718471286
 30
0.0
 10
12.0939006686
 20
6.4598137899
 30
0.0
 10
12.0628301871
 20
6.4508610307
 30
0.0
 10
12.0308236394
 20
6.4450741812
 30
0.0
 10
11.998193853
 20
6.4425075014
 30
0.0
 10
11.9762991158
 20
6.4429579497
 30
0.0
 10
11.9653594531
 20
6.4437166179
 30
0.0
  0
SPLINE
  5
3F3
100
AcDbEntity
  8
0
100
AcDbSpline
 62
7
  6
CONTINUOUS
 70
0
 71
3
 72
21
 73
17
 74
0
 42
0.0000001
 43
0.0000001
 44
0.0000000001
 40
0.0
 40
0.0
 40
0.0
 40
0.0
 40
0.06165323
 40
0.1233294888
 40
0.1850515432
 40
0.2468416588
 40
0.308721345
 40
0.3707111086
 40
0.4328302444
 40
0.4950966362
 40
0.5575265721
 40
0.6201345758
 40
0.6829331658
 40
0.7459331049
 40
0.8725264027
 40
1.0
 40
1.0
 40
1.0
 40
1.0
 10
8.8792802053
 20
8.310658712
 30
0.0
 10
8.8757300972
 20
8.3072295892
 30
0.0
 10
8.868442595
 20
8.3005596186
 30
0.0
 10
8.8569871606
 20
8.291154766
 30
0.0
 10
8.8450343027
 20
8.2823715458
 30
0.0
 10
8.8326145432
 20
8.2742324692
 30
0.0
 10
8.8197590593
 20
8.2667579447
 30
0.0
 10
8.8065002707
 20
8.2599668329
 30
0.0
 10
8.7928716039
 20
8.2538761662
 30
0.0
 10
8.7789074077
 20
8.2485012556
 30
0.0
 10
8.7646428175
 20
8.2438556439
 30
0.0
 10
8.7501138846
 20
8.2399510033
 30
0.0
 10
8.7353567996
 20
8.2367970575
 30
0.0
 10
8.7153979436
 20
8.2335985355
 30
0.0
 10
8.6900533869
 20
8.2315205596
 30
0.0
 10
8.6696778855
 20
8.2319181984
 30
0.0
 10
8.6594971215
 20
8.2326242368
 30
0.0
  0
SPLINE
  5
3F4
100
AcDbEntity
  8
0
100
AcDbSpline
 62
7
  6
CONTINUOUS
 70
0
 71
3
 72
21
 73
17
 74
0
 42
0.0000001
 43
0.0000001
 44
0.0000000001
 40
0.0
 40
0.0
 40
0.0
 40
0.0
 40
0.06165323
 40
0.1233294888
 40
0.1850515432
 40
0.2468416588
 40
0.308721345
 40
0.3707111086
 40
0.4328302444
 40
0.4950966362
 40
0.5575265721
 40
0.6201345758
 40
0.6829331658
 40
0.7459331049
 40
0.8725264027
 40
1.0
 40
1.0
 40
1.0
 40
1.0
 10
8.8792802053
 20
6.7893252382
 30
0.0
 10
8.8757300972
 20
6.7858961153
 30
0.0
 10
8.868442595
 20
6.7792261448
 30
0.0
 10
8.8569871606
 20
6.7698212922
 30
0.0
 10
8.8450343027
 20
6.7610380719
 30
0.0
 10
8.8326145432
 20
6.7528989953
 30
0.0
 10
8.8197590593
 20
6.7454244709
 30
0.0
 10
8.8065002707
 20
6.7386333591
 30
0.0
 10
8.7928716039
 20
6.7325426924
 30
0.0
 10
8.7789074077
 20
6.7271677818
 30
0.0
 10
8.7646428175
 20
6.7225221701
 30
0.0
 10
8.7501138846
 20
6.7186175295
 30
0.0
 10
8.7353567996
 20
6.7154635837
 30
0.0
 10
8.7153979436
 20
6.7122650617
 30
0.0
 10
8.6900533869
 20
6.7101870858
 30
0.0
 10
8.6696778855
 20
6.7105847246
 30
0.0
 10
8.6594971215
 20
6.711290763
 30
0.0
  0
SPLINE
  5
3F5
100
AcDbEntity
  8
0
100
AcDbSpline
 62
7
  6
CONTINUOUS
 70
0
 71
3
 72
21
 73
17
 74
0
 42
0.0000001
 43
0.0000001
 44
0.0000000001
 40
0.0
 40
0.0
 40
0.0
 40
0.0
 40
0.06165323
 40
0.1233294888
 40
0.1850515432
 40
0.2468416588
 40
0.308721345
 40
0.3707111086
 40
0.4328302444
 40
0.4950966362
 40
0.5575265721
 40
0.6201345758
 40
0.6829331658
 40
0.7459331049
 40
0.8725264027
 40
1.0
 40
1.0
 40
1.0
 40
1.0
 10
12.1931788617
 20
8.0808390596
 30
0.0
 10
12.1896287536
 20
8.0774099368
 30
0.0
 10
12.1823412514
 20
8.0707399662
 30
0.0
 10
12.1708858169
 20
8.0613351136
 30
0.0
 10
12.158932959
 20
8.0525518934
 30
0.0
 10
12.1465131995
 20
8.0444128168
 30
0.0
 10
12.1336577157
 20
8.0369382924
 30
0.0
 10
12.120398927
 20
8.0301471805
 30
0.0
 10
12.1067702602
 20
8.0240565138
 30
0.0
 10
12.092806064
 20
8.0186816033
 30
0.0
 10
12.0785414739
 20
8.0140359915
 30
0.0
 10
12.0640125409
 20
8.0101313509
 30
0.0
 10
12.049255456
 20
8.0069774052
 30
0.0
 10
12.0292965999
 20
8.0037788831
 30
0.0
 10
12.0039520432
 20
8.0017009073
 30
0.0
 10
11.9835765418
 20
8.002098546
 30
0.0
 10
11.9733957779
 20
8.0028045844
 30
0.0
  0
SPLINE
  5
3F6
100
AcDbEntity
  8
0
100
AcDbSpline
 62
7
  6
CONTINUOUS
 70
0
 71
3
 72
23
 73
19
 74
0
 42
0.0000001
 43
0.0000001
 44
0.0000000001
 40
0.0
 40
0.0
 40
0.0
 40
0.0
 40
0.0637776288
 40
0.1273446152
 40
0.1907020433
 40
0.2538561391
 40
0.3168131818
 40
0.3795820998
 40
0.442173387
 40
0.5045993408
 40
0.5668738683
 40
0.6290123813
 40
0.69103165
 40
0.7529496426
 40
0.8147853504
 40
0.8765585998
 40
0.9382898528
 40
1.0
 40
1.0
 40
1.0
 40
1.0
 10
9.4934102126
 20
7.7113761652
 30
0.0
 10
9.4934102126
 20
7.7243943098
 30
0.0
 10
9.4940332708
 20
7.7503920163
 30
0.0
 10
9.4968456827
 20
7.7892305141
 30
0.0
 10
9.5015281993
 20
7.8277610232
 30
0.0
 10
9.5080698772
 20
7.8658933706
 30
0.0
 10
9.5164559009
 20
7.9035401472
 30
0.0
 10
9.5266669358
 20
7.9406144111
 30
0.0
 10
9.5386795721
 20
7.9770307269
 30
0.0
 10
9.5524661856
 20
8.0127051053
 30
0.0
 10
9.567995071
 20
8.0475552702
 30
0.0
 10
9.5852304802
 20
8.0815008405
 30
0.0
 10
9.604132718
 20
8.1144635077
 30
0.0
 10
9.6246582588
 20
8.146367246
 30
0.0
 10
9.6467597355
 20
8.1771383852
 30
0.0
 10
9.6703864605
 20
8.2067061729
 30
0.0
 10
9.6954830091
 20
8.2350014841
 30
0.0
 10
9.713158719
 20
8.25297646
 30
0.0
 10
9.7222185536
 20
8.2617275749
 30
0.0
  0
SPLINE
  5
3F7
100
AcDbEntity
  8
0
100
AcDbSpline
 62
7
  6
CONTINUOUS
 70
0
 71
3
 72
21
 73
17
 74
0
 42
0.0000001
 43
0.0000001
 44
0.0000000001
 40
0.0
 40
0.0
 40
0.0
 40
0.0
 40
0.06165323
 40
0.1233294888
 40
0.1850515432
 40
0.2468416588
 40
0.308721345
 40
0.3707111086
 40
0.4328302444
 40
0.4950966362
 40
0.5575265721
 40
0.6201345758
 40
0.6829331658
 40
0.7459331049
 40
0.8725264027
 40
1.0
 40
1.0
 40
1.0
 40
1.0
 10
12.1931788617
 20
6.5595055858
 30
0.0
 10
12.1896287536
 20
6.5560764629
 30
0.0
 10
12.1823412514
 20
6.5494064924
 30
0.0
 10
12.1708858169
 20
6.5400016398
 30
0.0
 10
12.158932959
 20
6.5312184196
 30
0.0
 10
12.1465131995
 20
6.523079343
 30
0.0
 10
12.1336577157
 20
6.5156048185
 30
0.0
 10
12.120398927
 20
6.5088137067
 30
0.0
 10
12.1067702602
 20
6.50272304
 30
0.0
 10
12.092806064
 20
6.4973481294
 30
0.0
 10
12.0785414739
 20
6.4927025177
 30
0.0
 10
12.0640125409
 20
6.4887978771
 30
0.0
 10
12.049255456
 20
6.4856439313
 30
0.0
 10
12.0292965999
 20
6.4824454093
 30
0.0
 10
12.0039520432
 20
6.4803674334
 30
0.0
 10
11.9835765418
 20
6.4807650722
 30
0.0
 10
11.9733957779
 20
6.4814711106
 30
0.0
  0
SPLINE
  5
3F8
100
AcDbEntity
  8
0
100
AcDbSpline
 62
7
  6
CONTINUOUS
 70
0
 71
3
 72
39
 73
35
 74
0
 42
0.0000001
 43
0.0000001
 44
0.0000000001
 40
0.0
 40
0.0
 40
0.0
 40
0.0
 40
0.0299424704
 40
0.0599093179
 40
0.0899243243
 40
0.1200101043
 40
0.1501875642
 40
0.1804754168
 40
0.2108897632
 40
0.2414437415
 40
0.2721472667
 40
0.3030068514
 40
0.3340255047
 40
0.3652027247
 40
0.3965345612
 40
0.428013747
 40
0.4596299043
 40
0.4913697993
 40
0.5232176468
 40
0.5551554632
 40
0.5871634473
 40
0.6192203894
 40
0.6513041042
 40
0.6833918745
 40
0.7154609017
 40
0.7474887596
 40
0.7794538428
 40
0.8113358021
 40
0.8431159612
 40
0.8747777134
 40
0.9063068841
 40
0.9376920649
 40
0.9689246663
 40
1.0
 40
1.0
 40
1.0
 40
1.0
 10
10.8946018
 20
7.0479838765
 30
0.0
 10
10.8806042662
 20
7.0344633175
 30
0.0
 10
10.8515084968
 20
7.0085134159
 30
0.0
 10
10.8048925963
 20
6.9731612408
 30
0.0
 10
10.755542695
 20
6.9415586735
 30
0.0
 10
10.7037344886
 20
6.9138830842
 30
0.0
 10
10.6497528635
 20
6.890285591
 30
0.0
 10
10.5938957306
 20
6.8708959002
 30
0.0
 10
10.5364708674
 20
6.8558201996
 30
0.0
 10
10.4777946756
 20
6.845140692
 30
0.0
 10
10.4181902022
 20
6.8389154058
 30
0.0
 10
10.3579854368
 20
6.8371778934
 30
0.0
 10
10.2975114954
 20
6.8399368194
 30
0.0
 10
10.2371007924
 20
6.8471763083
 30
0.0
 10
10.1770852627
 20
6.8588559262
 30
0.0
 10
10.117794502
 20
6.8749107464
 30
0.0
 10
10.059554048
 20
6.8952520651
 30
0.0
 10
10.0026835963
 20
6.9197677011
 30
0.0
 10
9.9474952
 20
6.9483225285
 30
0.0
 10
9.8942917169
 20
6.9807595101
 30
0.0
 10
9.8433650745
 20
7.0169003247
 30
0.0
 10
9.7949946431
 20
7.0565463357
 30
0.0
 10
9.7494458985
 20
7.0994798931
 30
0.0
 10
9.7069688079
 20
7.1454652817
 30
0.0
 10
9.6677964833
 20
7.194250066
 30
0.0
 10
9.6321441034
 20
7.245566602
 30
0.0
 10
9.6002074957
 20
7.2991332799
 30
0.0
 10
9.5721621584
 20
7.3546561648
 30
0.0
 10
9.548162472
 20
7.4118306158
 30
0.0
 10
9.5283405494
 20
7.4703429253
 30
0.0
 10
9.5128056733
 20
7.5298716178
 30
0.0
 10
9.5016438954
 20
7.5900909835
 30
0.0
 10
9.4949169146
 20
7.6506660312
 30
0.0
 10
9.4934102126
 20
7.6911787063
 30
0.0
 10
9.4934102126
 20
7.7113761652
 30
0.0
  0
SPLINE
  5
3F9
100
AcDbEntity
  8
0
100
AcDbSpline
 62
7
  6
CONTINUOUS
 70
0
 71
3
 72
27
 73
23
 74
0
 42
0.0000001
 43
0.0000001
 44
0.0000000001
 40
0.0
 40
0.0
 40
0.0
 40
0.0
 40
0.0186352361
 40
0.0382687959
 40
0.0589651441
 40
0.0807614619
 40
0.1036735189
 40
0.1276957948
 40
0.1528043417
 40
0.1789643294
 40
0.2061311449
 40
0.2342533891
 40
0.293144759
 40
0.355199753
 40
0.4199950394
 40
0.4871427991
 40
0.5563027048
 40
0.6271864099
 40
0.699542534
 40
0.7731655135
 40
0.8478787176
 40
1.0
 40
1.0
 40
1.0
 40
1.0
 10
10.2102107013
 20
8.1765110533
 30
0.0
 10
10.2095603933
 20
8.1758829039
 30
0.0
 10
10.2082815756
 20
8.1745333683
 30
0.0
 10
10.2064783022
 20
8.1723093525
 30
0.0
 10
10.2047447215
 20
8.1698408835
 30
0.0
 10
10.2030815739
 20
8.1671363262
 30
0.0
 10
10.2014896996
 20
8.1642045278
 30
0.0
 10
10.1999693535
 20
8.1610558408
 30
0.0
 10
10.1985202661
 20
8.1577015669
 30
0.0
 10
10.1971424547
 20
8.1541533935
 30
0.0
 10
10.195834923
 20
8.1504235449
 30
0.0
 10
10.1941585746
 20
8.1451427707
 30
0.0
 10
10.1922507445
 20
8.1381631392
 30
0.0
 10
10.1902548634
 20
8.1293728831
 30
0.0
 10
10.1885079366
 20
8.120122188
 30
0.0
 10
10.1869988967
 20
8.110481117
 30
0.0
 10
10.1857169358
 20
8.1005095897
 30
0.0
 10
10.1846527106
 20
8.0902585853
 30
0.0
 10
10.1837969257
 20
8.0797709588
 30
0.0
 10
10.183142205
 20
8.0690827602
 30
0.0
 10
10.1825244498
 20
8.0545177057
 30
0.0
 10
10.1823502866
 20
8.0435108046
 30
0.0
 10
10.1823499995
 20
8.0361302067
 30
0.0
  0
SPLINE
  5
3FA
100
AcDbEntity
  8
0
100
AcDbSpline
 62
7
  6
CONTINUOUS
 70
0
 71
3
 72
23
 73
19
 74
0
 42
0.0000001
 43
0.0000001
 44
0.0000000001
 40
0.0
 40
0.0
 40
0.0
 40
0.0
 40
0.0451918358
 40
0.092551048
 40
0.1421392087
 40
0.1940078781
 40
0.2481976038
 40
0.304736367
 40
0.3636430186
 40
0.4249278893
 40
0.4885945616
 40
0.5546394547
 40
0.623053672
 40
0.69382254
 40
0.766927166
 40
0.8423437841
 40
0.9200451876
 40
1.0
 40
1.0
 40
1.0
 40
1.0
 10
9.9950507108
 20
10.3763925498
 30
0.0
 10
9.9974581592
 20
10.3787179666
 30
0.0
 10
10.0025166681
 20
10.3833490277
 30
0.0
 10
10.0106133584
 20
10.3900828434
 30
0.0
 10
10.0193877098
 20
10.3967587826
 30
0.0
 10
10.0288333037
 20
10.4033722806
 30
0.0
 10
10.038944014
 20
10.4099190831
 30
0.0
 10
10.0497130218
 20
10.4163949983
 30
0.0
 10
10.0611331303
 20
10.422795551
 30
0.0
 10
10.0731965686
 20
10.4291165577
 30
0.0
 10
10.0858952222
 20
10.4353536319
 30
0.0
 10
10.0992204492
 20
10.4415026559
 30
0.0
 10
10.113163228
 20
10.4475593206
 30
0.0
 10
10.1277140431
 20
10.4535196006
 30
0.0
 10
10.1428629999
 20
10.4593793063
 30
0.0
 10
10.1585997561
 20
10.4651345316
 30
0.0
 10
10.174913532
 20
10.4707812073
 30
0.0
 10
10.186009758
 20
10.4744193418
 30
0.0
 10
10.1916508379
 20
10.4762212244
 30
0.0
  0
SPLINE
  5
3FB
100
AcDbEntity
  8
0
100
AcDbSpline
 62
7
  6
CONTINUOUS
 70
0
 71
3
 72
34
 73
30
 74
0
 42
0.0000001
 43
0.0000001
 44
0.0000000001
 40
0.0
 40
0.0
 40
0.0
 40
0.0
 40
0.0945559487
 40
0.1847060763
 40
0.2703633033
 40
0.3514613187
 40
0.3902882107
 40
0.4279618049
 40
0.4644811904
 40
0.49984788
 40
0.5340653946
 40
0.5671400575
 40
0.5990809772
 40
0.6299003083
 40
0.6596140045
 40
0.6882416542
 40
0.7158075205
 40
0.7423406831
 40
0.7678756803
 40
0.7924533788
 40
0.8161211611
 40
0.8389340835
 40
0.8822342545
 40
0.9028948756
 40
0.9230046971
 40
0.9426615869
 40
0.9619710384
 40
0.9810449912
 40
1.0
 40
1.0
 40
1.0
 40
1.0
 10
11.8083491531
 20
10.4762212273
 30
0.0
 10
11.8174327445
 20
10.4733197324
 30
0.0
 10
11.835108046
 20
10.467433477
 30
0.0
 10
11.8607329951
 20
10.4581076534
 30
0.0
 10
11.8848023076
 20
10.4485093168
 30
0.0
 10
11.9037941458
 20
10.4401816364
 30
0.0
 10
11.9181605857
 20
10.4333820042
 30
0.0
 10
11.928363174
 20
10.4282991189
 30
0.0
 10
11.9381457248
 20
10.4231612213
 30
0.0
 10
11.9475038991
 20
10.4179706574
 30
0.0
 10
11.9564334719
 20
10.4127296828
 30
0.0
 10
11.9649304647
 20
10.4074406673
 30
0.0
 10
11.9729910929
 20
10.4021059703
 30
0.0
 10
11.9806117235
 20
10.3967278779
 30
0.0
 10
11.9877890148
 20
10.3913088371
 30
0.0
 10
11.9945197119
 20
10.3858511079
 30
0.0
 10
12.000800849
 20
10.3803570904
 30
0.0
 10
12.0066296053
 20
10.374829127
 30
0.0
 10
12.0120033282
 20
10.3692694368
 30
0.0
 10
12.0169195366
 20
10.3636805899
 30
0.0
 10
12.0213761877
 20
10.3580641566
 30
0.0
 10
12.0266105261
 20
10.3506728763
 30
0.0
 10
12.0310456254
 20
10.3430968885
 30
0.0
 10
12.0345624619
 20
10.3353760175
 30
0.0
 10
12.0366899818
 20
10.329659534
 30
0.0
 10
12.0383465005
 20
10.323930805
 30
0.0
 10
12.0395307855
 20
10.3181922835
 30
0.0
 10
12.0402417533
 20
10.3124476249
 30
0.0
 10
12.0404000003
 20
10.3086106467
 30
0.0
 10
12.0404
 20
10.30669908
 30
0.0
  0
SPLINE
  5
3FC
100
AcDbEntity
  8
0
100
AcDbSpline
 62
4
  6
CONTINUOUS
 70
0
 71
3
 72
360
 73
356
 74
0
 42
0.0000001
 43
0.0000001
 44
0.0000000001
 40
0.0
 40
0.0
 40
0.0
 40
0.0
 40
0.015625
 40
0.0234375
 40
0.03125
 40
0.0390625
 40
0.046875
 40
0.05078125
 40
0.0546875
 40
0.056640625
 40
0.05859375
 40
0.060546875
 40
0.0615234375
 40
0.0620117188
 40
0.0625
 40
0.0629882812
 40
0.0634765625
 40
0.064453125
 40
0.06640625
 40
0.068359375
 40
0.0703125
 40
0.07421875
 40
0.078125
 40
0.0859375
 40
0.09375
 40
0.1015625
 40
0.10546875
 40
0.109375
 40
0.11328125
 40
0.1171875
 40
0.119140625
 40
0.12109375
 40
0.123046875
 40
0.1240234375
 40
0.1245117188
 40
0.125
 40
0.1254882812
 40
0.1259765625
 40
0.126953125
 40
0.12890625
 40
0.130859375
 40
0.1328125
 40
0.13671875
 40
0.140625
 40
0.14453125
 40
0.1484375
 40
0.15625
 40
0.1640625
 40
0.16796875
 40
0.171875
 40
0.17578125
 40
0.1796875
 40
0.181640625
 40
0.18359375
 40
0.1845703125
 40
0.185546875
 40
0.1865234375
 40
0.1870117188
 40
0.1872558594
 40
0.1875
 40
0.1877441406
 40
0.1879882812
 40
0.1884765625
 40
0.189453125
 40
0.1904296875
 40
0.19140625
 40
0.193359375
 40
0.1953125
 40
0.19921875
 40
0.203125
 40
0.20703125
 40
0.2109375
 40
0.21875
 40
0.2265625
 40
0.23046875
 40
0.234375
 40
0.23828125
 40
0.2421875
 40
0.244140625
 40
0.24609375
 40
0.2470703125
 40
0.248046875
 40
0.2490234375
 40
0.2495117188
 40
0.2497558594
 40
0.25
 40
0.2502441406
 40
0.2504882812
 40
0.2509765625
 40
0.251953125
 40
0.2529296875
 40
0.25390625
 40
0.255859375
 40
0.2578125
 40
0.26171875
 40
0.265625
 40
0.26953125
 40
0.2734375
 40
0.28125
 40
0.2890625
 40
0.29296875
 40
0.296875
 40
0.30078125
 40
0.3046875
 40
0.306640625
 40
0.30859375
 40
0.3095703125
 40
0.310546875
 40
0.3115234375
 40
0.3120117188
 40
0.3122558594
 40
0.3125
 40
0.3127441406
 40
0.3129882812
 40
0.3134765625
 40
0.314453125
 40
0.3154296875
 40
0.31640625
 40
0.318359375
 40
0.3203125
 40
0.32421875
 40
0.328125
 40
0.33203125
 40
0.3359375
 40
0.34375
 40
0.3515625
 40
0.35546875
 40
0.359375
 40
0.36328125
 40
0.3671875
 40
0.369140625
 40
0.37109375
 40
0.3720703125
 40
0.373046875
 40
0.3740234375
 40
0.3745117188
 40
0.3747558594
 40
0.375
 40
0.3752441406
 40
0.3754882812
 40
0.3759765625
 40
0.376953125
 40
0.3779296875
 40
0.37890625
 40
0.380859375
 40
0.3828125
 40
0.38671875
 40
0.390625
 40
0.39453125
 40
0.3984375
 40
0.40625
 40
0.4140625
 40
0.41796875
 40
0.421875
 40
0.42578125
 40
0.4296875
 40
0.431640625
 40
0.43359375
 40
0.4345703125
 40
0.435546875
 40
0.4365234375
 40
0.4370117188
 40
0.4372558594
 40
0.4375
 40
0.4377441406
 40
0.4379882812
 40
0.4384765625
 40
0.439453125
 40
0.4404296875
 40
0.44140625
 40
0.443359375
 40
0.4453125
 40
0.44921875
 40
0.453125
 40
0.45703125
 40
0.4609375
 40
0.46875
 40
0.4765625
 40
0.48046875
 40
0.484375
 40
0.48828125
 40
0.4921875
 40
0.494140625
 40
0.49609375
 40
0.4970703125
 40
0.498046875
 40
0.4990234375
 40
0.4995117188
 40
0.4997558594
 40
0.5
 40
0.5002441406
 40
0.5004882812
 40
0.5009765625
 40
0.501953125
 40
0.5029296875
 40
0.50390625
 40
0.505859375
 40
0.5078125
 40
0.51171875
 40
0.515625
 40
0.51953125
 40
0.5234375
 40
0.53125
 40
0.5390625
 40
0.54296875
 40
0.546875
 40
0.55078125
 40
0.5546875
 40
0.556640625
 40
0.55859375
 40
0.5595703125
 40
0.560546875
 40
0.5615234375
 40
0.5620117188
 40
0.5622558594
 40
0.5625
 40
0.5627441406
 40
0.5629882812
 40
0.5634765625
 40
0.564453125
 40
0.5654296875
 40
0.56640625
 40
0.568359375
 40
0.5703125
 40
0.57421875
 40
0.578125
 40
0.58203125
 40
0.5859375
 40
0.59375
 40
0.6015625
 40
0.60546875
 40
0.609375
 40
0.61328125
 40
0.6171875
 40
0.619140625
 40
0.62109375
 40
0.6220703125
 40
0.623046875
 40
0.6240234375
 40
0.6245117188
 40
0.6247558594
 40
0.625
 40
0.6252441406
 40
0.6254882812
 40
0.6259765625
 40
0.626953125
 40
0.6279296875
 40
0.62890625
 40
0.630859375
 40
0.6328125
 40
0.63671875
 40
0.640625
 40
0.64453125
 40
0.6484375
 40
0.65625
 40
0.6640625
 40
0.66796875
 40
0.671875
 40
0.67578125
 40
0.6796875
 40
0.681640625
 40
0.68359375
 40
0.6845703125
 40
0.685546875
 40
0.6865234375
 40
0.6870117188
 40
0.6872558594
 40
0.6875
 40
0.6877441406
 40
0.6879882812
 40
0.6884765625
 40
0.689453125
 40
0.6904296875
 40
0.69140625
 40
0.693359375
 40
0.6953125
 40
0.69921875
 40
0.703125
 40
0.70703125
 40
0.7109375
 40
0.71875
 40
0.7265625
 40
0.734375
 40
0.73828125
 40
0.7421875
 40
0.744140625
 40
0.74609375
 40
0.748046875
 40
0.7490234375
 40
0.7495117188
 40
0.75
 40
0.7504882812
 40
0.7509765625
 40
0.751953125
 40
0.75390625
 40
0.755859375
 40
0.7578125
 40
0.76171875
 40
0.765625
 40
0.7734375
 40
0.78125
 40
0.7890625
 40
0.796875
 40
0.80078125
 40
0.8046875
 40
0.806640625
 40
0.80859375
 40
0.810546875
 40
0.8115234375
 40
0.8120117188
 40
0.8125
 40
0.8129882812
 40
0.8134765625
 40
0.814453125
 40
0.81640625
 40
0.818359375
 40
0.8203125
 40
0.82421875
 40
0.828125
 40
0.8359375
 40
0.84375
 40
0.8515625
 40
0.859375
 40
0.86328125
 40
0.8671875
 40
0.87109375
 40
0.873046875
 40
0.8740234375
 40
0.875
 40
0.8759765625
 40
0.876953125
 40
0.87890625
 40
0.8828125
 40
0.88671875
 40
0.890625
 40
0.8984375
 40
0.90625
 40
0.9140625
 40
0.921875
 40
0.92578125
 40
0.9296875
 40
0.93359375
 40
0.935546875
 40
0.9365234375
 40
0.9375
 40
0.9384765625
 40
0.939453125
 40
0.94140625
 40
0.9453125
 40
0.94921875
 40
0.953125
 40
0.9609375
 40
0.96875
 40
0.984375
 40
1.0
 40
1.0
 40
1.0
 40
1.0
 10
13.3841008819
 20
8.007462405
 30
0.0
 10
13.3842120099
 20
8.0033399439
 30
0.0
 10
13.3843787018
 20
7.997156252
 30
0.0
 10
13.3846009581
 20
7.98891133
 30
0.0
 10
13.3847676494
 20
7.982727637
 30
0.0
 10
13.3849343441
 20
7.9765439498
 30
0.0
 10
13.3850732458
 20
7.9713908592
 30
0.0
 10
13.3851843907
 20
7.9672684269
 30
0.0
 10
13.3852538027
 20
7.9646918153
 30
0.0
 10
13.385309455
 20
7.9626307353
 30
0.0
 10
13.3853508582
 20
7.9610843523
 30
0.0
 10
13.3853864299
 20
7.9597975224
 30
0.0
 10
13.3854092322
 20
7.9588931648
 30
0.0
 10
13.3854255378
 20
7.9583819738
 30
0.0
 10
13.3854285392
 20
7.9579828481
 30
0.0
 10
13.385466814
 20
7.9576438597
 30
0.0
 10
13.3855055433
 20
7.9571708987
 30
0.0
 10
13.3855790521
 20
7.9563529903
 30
0.0
 10
13.3856810677
 20
7.9551794402
 30
0.0
 10
13.3858047692
 20
7.953773367
 30
0.0
 10
13.3859692565
 20
7.9518978389
 30
0.0
 10
13.386175019
 20
7.9495536904
 30
0.0
 10
13.3865041533
 20
7.9458029065
 30
0.0
 10
13.3869156006
 20
7.9411144767
 30
0.0
 10
13.3874093249
 20
7.93548834
 30
0.0
 10
13.387820764
 20
7.9307998959
 30
0.0
 10
13.3881499163
 20
7.9270491436
 30
0.0
 10
13.3883967763
 20
7.9242360685
 30
0.0
 10
13.3886436528
 20
7.9214230351
 30
0.0
 10
13.3888493315
 20
7.9190787109
 30
0.0
 10
13.3890139903
 20
7.917203542
 30
0.0
 10
13.3891371678
 20
7.915796372
 30
0.0
 10
13.3892408231
 20
7.9146262534
 30
0.0
 10
13.3893114046
 20
7.913802219
 30
0.0
 10
13.3893548243
 20
7.9133390735
 30
0.0
 10
13.3893786918
 20
7.9129699351
 30
0.0
 10
13.3894358044
 20
7.9126840479
 30
0.0
 10
13.3895003583
 20
7.9122738261
 30
0.0
 10
13.3896187306
 20
7.9115694677
 30
0.0
 10
13.389785009
 20
7.9105561678
 30
0.0
 10
13.3899857523
 20
7.9093432357
 30
0.0
 10
13.3902529876
 20
7.9077249352
 30
0.0
 10
13.3905871766
 20
7.9057024226
 30
0.0
 10
13.3909881414
 20
7.9032752519
 30
0.0
 10
13.3913891227
 20
7.9008481227
 30
0.0
 10
13.3919237587
 20
7.897611936
 30
0.0
 10
13.3925920558
 20
7.8935667077
 30
0.0
 10
13.393260352
 20
7.8895214773
 30
0.0
 10
13.3937949893
 20
7.8862852939
 30
0.0
 10
13.3941959668
 20
7.883858155
 30
0.0
 10
13.3945969459
 20
7.8814310208
 30
0.0
 10
13.3949310903
 20
7.8794083945
 30
0.0
 10
13.3951984166
 20
7.8777903258
 30
0.0
 10
13.395365471
 20
7.8767789593
 30
0.0
 10
13.3954991707
 20
7.8759700345
 30
0.0
 10
13.3955992918
 20
7.87536288
 30
0.0
 10
13.395683215
 20
7.8748583838
 30
0.0
 10
13.3957410015
 20
7.8745023599
 30
0.0
 10
13.395775521
 20
7.8743034091
 30
0.0
 10
13.3957971888
 20
7.8741415435
 30
0.0
 10
13.3958349948
 20
7.8740280425
 30
0.0
 10
13.3958797736
 20
7.8738598377
 30
0.0
 10
13.3959607592
 20
7.8735733394
 30
0.0
 10
13.3960750818
 20
7.8731599469
 30
0.0
 10
13.3962128558
 20
7.8726656347
 30
0.0
 10
13.3963963495
 20
7.8720059375
 30
0.0
 10
13.3966257867
 20
7.8711815263
 30
0.0
 10
13.3969928471
 20
7.8698623508
 30
0.0
 10
13.3974516861
 20
7.8682134217
 30
0.0
 10
13.3980022871
 20
7.8662346896
 30
0.0
 10
13.3985528896
 20
7.8642559621
 30
0.0
 10
13.3992870258
 20
7.8616176572
 30
0.0
 10
13.4002046962
 20
7.8583197766
 30
0.0
 10
13.4011223665
 20
7.8550218956
 30
0.0
 10
13.4018565028
 20
7.8523835914
 30
0.0
 10
13.4024071048
 20
7.8504048617
 30
0.0
 10
13.4029577079
 20
7.8484261381
 30
0.0
 10
13.4034165403
 20
7.8467771826
 30
0.0
 10
13.4037836141
 20
7.845458061
 30
0.0
 10
13.4040130173
 20
7.8446335128
 30
0.0
 10
13.4041965809
 20
7.8439740968
 30
0.0
 10
13.4043341412
 20
7.8434789254
 30
0.0
 10
13.4044491324
 20
7.843068221
 30
0.0
 10
13.4045289244
 20
7.8427769239
 30
0.0
 10
13.4045756157
 20
7.8426164081
 30
0.0
 10
13.4046075473
 20
7.842479289
 30
0.0
 10
13.404651278
 20
7.8424061289
 30
0.0
 10
13.4047054699
 20
7.8422862725
 30
0.0
 10
13.4048022233
 20
7.8420869183
 30
0.0
 10
13.40493944
 20
7.8417966921
 30
0.0
 10
13.4051045291
 20
7.8414507468
 30
0.0
 10
13.405324498
 20
7.840988674
 30
0.0
 10
13.4055995105
 20
7.8404113611
 30
0.0
 10
13.4060395017
 20
7.8394875051
 30
0.0
 10
13.4065895007
 20
7.8383327383
 30
0.0
 10
13.4072494951
 20
7.8369469954
 30
0.0
 10
13.4079094907
 20
7.8355612586
 30
0.0
 10
13.4087894845
 20
7.8337136073
 30
0.0
 10
13.4098894768
 20
7.8314040441
 30
0.0
 10
13.4109894691
 20
7.8290944803
 30
0.0
 10
13.411869463
 20
7.8272468299
 30
0.0
 10
13.4125294581
 20
7.8258610905
 30
0.0
 10
13.4131894543
 20
7.8244753573
 30
0.0
 10
13.413739448
 20
7.8233205602
 30
0.0
 10
13.4141794497
 20
7.8223967662
 30
0.0
 10
13.4144544356
 20
7.8218192955
 30
0.0
 10
13.4146744591
 20
7.8213575466
 30
0.0
 10
13.4148393815
 20
7.8210106116
 30
0.0
 10
13.4149771199
 20
7.8207234818
 30
0.0
 10
13.4150729419
 20
7.8205186001
 30
0.0
 10
13.4151286261
 20
7.8204076001
 30
0.0
 10
13.4151677728
 20
7.8203072359
 30
0.0
 10
13.4152169212
 20
7.8202722909
 30
0.0
 10
13.4152789637
 20
7.8202028786
 30
0.0
 10
13.4153891634
 20
7.8200920389
 30
0.0
 10
13.4155457418
 20
7.8199281379
 30
0.0
 10
13.4157339997
 20
7.819733836
 30
0.0
 10
13.4159848831
 20
7.8194739358
 30
0.0
 10
13.4162985309
 20
7.8191493451
 30
0.0
 10
13.4168003431
 20
7.8186298409
 30
0.0
 10
13.4174276166
 20
7.8179805152
 30
0.0
 10
13.4181803413
 20
7.8172013009
 30
0.0
 10
13.4189330669
 20
7.816422093
 30
0.0
 10
13.4199367007
 20
7.8153831468
 30
0.0
 10
13.4211912431
 20
7.814084465
 30
0.0
 10
13.4224457854
 20
7.8127857825
 30
0.0
 10
13.4234494193
 20
7.8117468373
 30
0.0
 10
13.4242021446
 20
7.8109676266
 30
0.0
 10
13.4249548705
 20
7.8101884225
 30
0.0
 10
13.4255821401
 20
7.8095390653
 30
0.0
 10
13.4260839604
 20
7.8090196254
 30
0.0
 10
13.4263975875
 20
7.8086948711
 30
0.0
 10
13.4266485133
 20
7.8084353065
 30
0.0
 10
13.4268366418
 20
7.8082399793
 30
0.0
 10
13.4269936249
 20
7.8080792863
 30
0.0
 10
13.4271031022
 20
7.8079627199
 30
0.0
 10
13.4271663023
 20
7.8079024831
 30
0.0
 10
13.4272118948
 20
7.8078393539
 30
0.0
 10
13.4272643967
 20
7.807844845
 30
0.0
 10
13.4273319891
 20
7.8078282309
 30
0.0
 10
13.4274513986
 20
7.8078103084
 30
0.0
 10
13.4276213967
 20
7.8077788743
 30
0.0
 10
13.4278256456
 20
7.8077436491
 30
0.0
 10
13.4280978898
 20
7.8076958104
 30
0.0
 10
13.428438225
 20
7.8076363105
 30
0.0
 10
13.4289827447
 20
7.8075409439
 30
0.0
 10
13.4296633999
 20
7.8074217928
 30
0.0
 10
13.4304801838
 20
7.807278787
 30
0.0
 10
13.4312969683
 20
7.8071357878
 30
0.0
 10
13.4323860141
 20
7.8069451198
 30
0.0
 10
13.4337473214
 20
7.8067067858
 30
0.0
 10
13.4351086287
 20
7.8064684511
 30
0.0
 10
13.4361976746
 20
7.8062777841
 30
0.0
 10
13.4370144588
 20
7.806134782
 30
0.0
 10
13.4378312436
 20
7.8059917868
 30
0.0
 10
13.438511896
 20
7.805872603
 30
0.0
 10
13.4390564215
 20
7.8057773031
 30
0.0
 10
13.4393967419
 20
7.8057176332
 30
0.0
 10
13.4396690164
 20
7.8056701436
 30
0.0
 10
13.4398731727
 20
7.8056338519
 30
0.0
 10
13.4400434606
 20
7.8056057543
 30
0.0
 10
13.4401623528
 20
7.8055818757
 30
0.0
 10
13.4402307742
 20
7.8055748047
 30
0.0
 10
13.4402807295
 20
7.8055509826
 30
0.0
 10
13.4403358863
 20
7.8055979491
 30
0.0
 10
13.4404076142
 20
7.8056358793
 30
0.0
 10
13.4405339835
 20
7.8057137615
 30
0.0
 10
13.4407140691
 20
7.8058190071
 30
0.0
 10
13.440930361
 20
7.8059478764
 30
0.0
 10
13.4412186841
 20
7.8061188028
 30
0.0
 10
13.4415791107
 20
7.8063327687
 30
0.0
 10
13.4421557805
 20
7.8066749422
 30
0.0
 10
13.442876622
 20
7.807102718
 30
0.0
 10
13.4437416301
 20
7.8076160236
 30
0.0
 10
13.4446066386
 20
7.8081293361
 30
0.0
 10
13.4457599831
 20
7.8088137503
 30
0.0
 10
13.4472016639
 20
7.809669269
 30
0.0
 10
13.4486433446
 20
7.8105247871
 30
0.0
 10
13.4497966892
 20
7.8112092022
 30
0.0
 10
13.4506616976
 20
7.8117225119
 30
0.0
 10
13.4515267059
 20
7.8122358279
 30
0.0
 10
13.4522475467
 20
7.8126635714
 30
0.0
 10
13.4528242182
 20
7.8130058108
 30
0.0
 10
13.4531846403
 20
7.8132196089
 30
0.0
 10
13.4534729724
 20
7.8133908797
 30
0.0
 10
13.4536892369
 20
7.8135186969
 30
0.0
 10
13.4538694083
 20
7.8136272341
 30
0.0
 10
13.4539956244
 20
7.8136992404
 30
0.0
 10
13.4540675978
 20
7.8137465852
 30
0.0
 10
13.4541220006
 20
7.8137646331
 30
0.0
 10
13.4541747876
 20
7.8138494244
 30
0.0
 10
13.4542457339
 20
7.8139391986
 30
0.0
 10
13.4543696274
 20
7.8141071504
 30
0.0
 10
13.4545467553
 20
7.8143414106
 30
0.0
 10
13.45475925
 20
7.8146249502
 30
0.0
 10
13.4550425969
 20
7.8150021552
 30
0.0
 10
13.4553967734
 20
7.8154739517
 30
0.0
 10
13.4559634598
 20
7.8162286639
 30
0.0
 10
13.4566718164
 20
7.8171721098
 30
0.0
 10
13.4575218449
 20
7.818304221
 30
0.0
 10
13.4583718733
 20
7.8194363386
 30
0.0
 10
13.4595052445
 20
7.8209458265
 30
0.0
 10
13.4609219584
 20
7.8228326872
 30
0.0
 10
13.4623386724
 20
7.8247195473
 30
0.0
 10
13.4634720436
 20
7.8262290361
 30
0.0
 10
13.4643220721
 20
7.8273611511
 30
0.0
 10
13.4651721002
 20
7.828493272
 30
0.0
 10
13.465880458
 20
7.8294366876
 30
0.0
 10
13.4664471419
 20
7.8301914617
 30
0.0
 10
13.4668013247
 20
7.8306631006
 30
0.0
 10
13.4670846587
 20
7.831040629
 30
0.0
 10
13.4672971926
 20
7.8313231804
 30
0.0
 10
13.4674741982
 20
7.8315605325
 30
0.0
 10
13.4675983099
 20
7.8317229648
 30
0.0
 10
13.4676689065
 20
7.8318215826
 30
0.0
 10
13.4677227676
 20
7.8318792091
 30
0.0
 10
13.4677731365
 20
7.8319992835
 30
0.0
 10
13.4678415131
 20
7.8321376002
 30
0.0
 10
13.4679606047
 20
7.8323898033
 30
0.0
 10
13.4681310323
 20
7.8327447875
 30
0.0
 10
13.4683354183
 20
7.8331730397
 30
0.0
 10
13.4686079774
 20
7.8337432493
 30
0.0
 10
13.4689486611
 20
7.834456283
 30
0.0
 10
13.4694937635
 20
7.835596985
 30
0.0
 10
13.4701751386
 20
7.8370229147
 30
0.0
 10
13.4709927899
 20
7.8387340079
 30
0.0
 10
13.4718104409
 20
7.8404451071
 30
0.0
 10
13.4729006424
 20
7.8427265706
 30
0.0
 10
13.4742633942
 20
7.8455784008
 30
0.0
 10
13.475626146
 20
7.8484302305
 30
0.0
 10
13.4767163474
 20
7.8507116948
 30
0.0
 10
13.4775339986
 20
7.8524227916
 30
0.0
 10
13.4783516491
 20
7.8541338938
 30
0.0
 10
13.4790330266
 20
7.8555597957
 30
0.0
 10
13.4795781241
 20
7.8567005542
 30
0.0
 10
13.4799188204
 20
7.8574134441
 30
0.0
 10
13.4801913536
 20
7.8579839489
 30
0.0
 10
13.4803958188
 20
7.8584112995
 30
0.0
 10
13.4805659988
 20
7.8587691045
 30
0.0
 10
13.4806855323
 20
7.8590162719
 30
0.0
 10
13.4807532008
 20
7.859162657
 30
0.0
 10
13.4808057447
 20
7.859257948
 30
0.0
 10
13.4808514371
 20
7.8594086572
 30
0.0
 10
13.4809147503
 20
7.8595902723
 30
0.0
 10
13.4810244348
 20
7.8599171052
 30
0.0
 10
13.4811817091
 20
7.8603793007
 30
0.0
 10
13.4813701892
 20
7.8609359507
 30
0.0
 10
13.4816215829
 20
7.8616774468
 30
0.0
 10
13.4819357952
 20
7.8626045579
 30
0.0
 10
13.4824385516
 20
7.864087801
 30
0.0
 10
13.4830669914
 20
7.865941901
 30
0.0
 10
13.4838211216
 20
7.8681668013
 30
0.0
 10
13.4845752511
 20
7.8703917069
 30
0.0
 10
13.4855807574
 20
7.8733582458
 30
0.0
 10
13.4868376402
 20
7.8770664202
 30
0.0
 10
13.488094523
 20
7.880774594
 30
0.0
 10
13.4891000292
 20
7.8837411337
 30
0.0
 10
13.4898541591
 20
7.8859660371
 30
0.0
 10
13.4906082881
 20
7.8881909455
 30
0.0
 10
13.4912367316
 20
7.8900450204
 30
0.0
 10
13.4917394805
 20
7.8915283148
 30
0.0
 10
13.4920537119
 20
7.8924552952
 30
0.0
 10
13.4923050665
 20
7.8931970596
 30
0.0
 10
13.4924936661
 20
7.8937528899
 30
0.0
 10
13.4926505662
 20
7.8942176501
 30
0.0
 10
13.4927609187
 20
7.8945399045
 30
0.0
 10
13.4928231616
 20
7.8947288554
 30
0.0
 10
13.4928721414
 20
7.8948570315
 30
0.0
 10
13.4929123388
 20
7.8950369532
 30
0.0
 10
13.4929689987
 20
7.8952587993
 30
0.0
 10
13.4930667262
 20
7.8956554397
 30
0.0
 10
13.4932070831
 20
7.8962176721
 30
0.0
 10
13.4933751921
 20
7.8968942328
 30
0.0
 10
13.4935994489
 20
7.8977956566
 30
0.0
 10
13.4938797317
 20
7.8989226613
 30
0.0
 10
13.4943282055
 20
7.9007257431
 30
0.0
 10
13.4948887905
 20
7.9029796385
 30
0.0
 10
13.4955614956
 20
7.9056842944
 30
0.0
 10
13.4962341999
 20
7.9083889553
 30
0.0
 10
13.4971311391
 20
7.9119951683
 30
0.0
 10
13.4982523137
 20
7.9165029338
 30
0.0
 10
13.4995977204
 20
7.9219122581
 30
0.0
 10
13.5007189011
 20
7.9264200102
 30
0.0
 10
13.5016158269
 20
7.9300262526
 30
0.0
 10
13.5021764483
 20
7.9322800616
 30
0.0
 10
13.5026248474
 20
7.9340833205
 30
0.0
 10
13.5029614151
 20
7.9354351849
 30
0.0
 10
13.5032410345
 20
7.9365635831
 30
0.0
 10
13.5034384434
 20
7.937349842
 30
0.0
 10
13.5035486326
 20
7.9378047848
 30
0.0
 10
13.5036386434
 20
7.9381300702
 30
0.0
 10
13.5037004864
 20
7.9385162163
 30
0.0
 10
13.503792769
 20
7.9390098489
 30
0.0
 10
13.5039496857
 20
7.9398835968
 30
0.0
 10
13.5041762458
 20
7.941126637
 30
0.0
 10
13.5044470935
 20
7.9426204987
 30
0.0
 10
13.5048085816
 20
7.9446115412
 30
0.0
 10
13.5052603192
 20
7.947100609
 30
0.0
 10
13.5059831678
 20
7.9510829695
 30
0.0
 10
13.5068867048
 20
7.9560609711
 30
0.0
 10
13.5079709602
 20
7.9620345501
 30
0.0
 10
13.50905521
 20
7.9680081394
 30
0.0
 10
13.509958761
 20
7.9729861154
 30
0.0
 10
13.5106815817
 20
7.9769685271
 30
0.0
 10
13.5111333901
 20
7.9794574648
 30
0.0
 10
13.5114947328
 20
7.9814487743
 30
0.0
 10
13.5117660245
 20
7.9829418201
 30
0.0
 10
13.5119911954
 20
7.9841874128
 30
0.0
 10
13.5121505922
 20
7.9850566042
 30
0.0
 10
13.5122389011
 20
7.9855575375
 30
0.0
 10
13.5123129499
 20
7.9859212581
 30
0.0
 10
13.5123571179
 20
7.9863307699
 30
0.0
 10
13.5124264313
 20
7.9868608132
 30
0.0
 10
13.5125428736
 20
7.9877958309
 30
0.0
 10
13.5127117587
 20
7.9891276796
 30
0.0
 10
13.512913334
 20
7.9907275635
 30
0.0
 10
13.5131824807
 20
7.9928601603
 30
0.0
 10
13.5135187841
 20
7.9955261056
 30
0.0
 10
13.5140569424
 20
7.9997915064
 30
0.0
 10
13.5147296134
 20
8.0051232969
 30
0.0
 10
13.5155368384
 20
8.0115214237
 30
0.0
 10
13.5163440272
 20
8.0179195745
 30
0.0
 10
13.5170167886
 20
8.023251305
 30
0.0
 10
13.517554766
 20
8.0275168257
 30
0.0
 10
13.5179588817
 20
8.0307155945
 30
0.0
 10
13.5182936326
 20
8.0333824175
 30
0.0
 10
13.5185319071
 20
8.0352468734
 30
0.0
 10
13.5186618981
 20
8.0363158996
 30
0.0
 10
13.5187767606
 20
8.0371074635
 30
0.0
 10
13.5188252291
 20
8.0379380391
 30
0.0
 10
13.5189130127
 20
8.0390318655
 30
0.0
 10
13.5190558438
 20
8.0409524018
 30
0.0
 10
13.5192655295
 20
8.0436927103
 30
0.0
 10
13.5195147376
 20
8.0469824995
 30
0.0
 10
13.5198478589
 20
8.0513683893
 30
0.0
 10
13.5202639689
 20
8.0568509219
 30
0.0
 10
13.5207634347
 20
8.0634298869
 30
0.0
 10
13.5212628319
 20
8.0700088762
 30
0.0
 10
13.5216791136
 20
8.0754913479
 30
0.0
 10
13.5220118916
 20
8.0798773596
 30
0.0
 10
13.5222621468
 20
8.0831667771
 30
0.0
 10
13.5224685566
 20
8.0859082482
 30
0.0
 10
13.5226172357
 20
8.0878267092
 30
0.0
 10
13.5226956494
 20
8.0889238607
 30
0.0
 10
13.5227728994
 20
8.0897442226
 30
0.0
 10
13.5227796632
 20
8.0905741477
 30
0.0
 10
13.522813268
 20
8.0916773787
 30
0.0
 10
13.5228606212
 20
8.0936095873
 30
0.0
 10
13.5229342575
 20
8.0963690726
 30
0.0
 10
13.5230200577
 20
8.0996808029
 30
0.0
 10
13.5231353533
 20
8.1040963217
 30
0.0
 10
13.5232791662
 20
8.1096157618
 30
0.0
 10
13.5235094382
 20
8.1184468427
 30
0.0
 10
13.523797219
 20
8.129485702
 30
0.0
 10
13.5240274617
 20
8.1383167869
 30
0.0
 10
13.5241425808
 20
8.1427323296
 30
0.0
  0
SPLINE
  5
3FD
100
AcDbEntity
  8
0
100
AcDbSpline
 62
4
  6
CONTINUOUS
 70
0
 71
3
 72
360
 73
356
 74
0
 42
0.0000001
 43
0.0000001
 44
0.0000000001
 40
0.0
 40
0.0
 40
0.0
 40
0.0
 40
0.015625
 40
0.0234375
 40
0.03125
 40
0.0390625
 40
0.046875
 40
0.05078125
 40
0.0546875
 40
0.056640625
 40
0.05859375
 40
0.060546875
 40
0.0615234375
 40
0.0620117188
 40
0.0625
 40
0.0629882812
 40
0.0634765625
 40
0.064453125
 40
0.06640625
 40
0.068359375
 40
0.0703125
 40
0.07421875
 40
0.078125
 40
0.0859375
 40
0.09375
 40
0.1015625
 40
0.10546875
 40
0.109375
 40
0.11328125
 40
0.1171875
 40
0.119140625
 40
0.12109375
 40
0.123046875
 40
0.1240234375
 40
0.1245117188
 40
0.125
 40
0.1254882812
 40
0.1259765625
 40
0.126953125
 40
0.12890625
 40
0.130859375
 40
0.1328125
 40
0.13671875
 40
0.140625
 40
0.14453125
 40
0.1484375
 40
0.15625
 40
0.1640625
 40
0.16796875
 40
0.171875
 40
0.17578125
 40
0.1796875
 40
0.181640625
 40
0.18359375
 40
0.1845703125
 40
0.185546875
 40
0.1865234375
 40
0.1870117188
 40
0.1872558594
 40
0.1875
 40
0.1877441406
 40
0.1879882812
 40
0.1884765625
 40
0.189453125
 40
0.1904296875
 40
0.19140625
 40
0.193359375
 40
0.1953125
 40
0.19921875
 40
0.203125
 40
0.20703125
 40
0.2109375
 40
0.21875
 40
0.2265625
 40
0.23046875
 40
0.234375
 40
0.23828125
 40
0.2421875
 40
0.244140625
 40
0.24609375
 40
0.2470703125
 40
0.248046875
 40
0.2490234375
 40
0.2495117188
 40
0.2497558594
 40
0.25
 40
0.2502441406
 40
0.2504882812
 40
0.2509765625
 40
0.251953125
 40
0.2529296875
 40
0.25390625
 40
0.255859375
 40
0.2578125
 40
0.26171875
 40
0.265625
 40
0.26953125
 40
0.2734375
 40
0.28125
 40
0.2890625
 40
0.29296875
 40
0.296875
 40
0.30078125
 40
0.3046875
 40
0.306640625
 40
0.30859375
 40
0.3095703125
 40
0.310546875
 40
0.3115234375
 40
0.3120117188
 40
0.3122558594
 40
0.3125
 40
0.3127441406
 40
0.3129882812
 40
0.3134765625
 40
0.314453125
 40
0.3154296875
 40
0.31640625
 40
0.318359375
 40
0.3203125
 40
0.32421875
 40
0.328125
 40
0.33203125
 40
0.3359375
 40
0.34375
 40
0.3515625
 40
0.35546875
 40
0.359375
 40
0.36328125
 40
0.3671875
 40
0.369140625
 40
0.37109375
 40
0.3720703125
 40
0.373046875
 40
0.3740234375
 40
0.3745117188
 40
0.3747558594
 40
0.375
 40
0.3752441406
 40
0.3754882812
 40
0.3759765625
 40
0.376953125
 40
0.3779296875
 40
0.37890625
 40
0.380859375
 40
0.3828125
 40
0.38671875
 40
0.390625
 40
0.39453125
 40
0.3984375
 40
0.40625
 40
0.4140625
 40
0.41796875
 40
0.421875
 40
0.42578125
 40
0.4296875
 40
0.431640625
 40
0.43359375
 40
0.4345703125
 40
0.435546875
 40
0.4365234375
 40
0.4370117188
 40
0.4372558594
 40
0.4375
 40
0.4377441406
 40
0.4379882812
 40
0.4384765625
 40
0.439453125
 40
0.4404296875
 40
0.44140625
 40
0.443359375
 40
0.4453125
 40
0.44921875
 40
0.453125
 40
0.45703125
 40
0.4609375
 40
0.46875
 40
0.4765625
 40
0.48046875
 40
0.484375
 40
0.48828125
 40
0.4921875
 40
0.494140625
 40
0.49609375
 40
0.4970703125
 40
0.498046875
 40
0.4990234375
 40
0.4995117188
 40
0.4997558594
 40
0.5
 40
0.5002441406
 40
0.5004882812
 40
0.5009765625
 40
0.501953125
 40
0.5029296875
 40
0.50390625
 40
0.505859375
 40
0.5078125
 40
0.51171875
 40
0.515625
 40
0.51953125
 40
0.5234375
 40
0.53125
 40
0.5390625
 40
0.54296875
 40
0.546875
 40
0.55078125
 40
0.5546875
 40
0.556640625
 40
0.55859375
 40
0.5595703125
 40
0.560546875
 40
0.5615234375
 40
0.5620117188
 40
0.5622558594
 40
0.5625
 40
0.5627441406
 40
0.5629882812
 40
0.5634765625
 40
0.564453125
 40
0.5654296875
 40
0.56640625
 40
0.568359375
 40
0.5703125
 40
0.57421875
 40
0.578125
 40
0.58203125
 40
0.5859375
 40
0.59375
 40
0.6015625
 40
0.60546875
 40
0.609375
 40
0.61328125
 40
0.6171875
 40
0.619140625
 40
0.62109375
 40
0.6220703125
 40
0.623046875
 40
0.6240234375
 40
0.6245117188
 40
0.6247558594
 40
0.625
 40
0.6252441406
 40
0.6254882812
 40
0.6259765625
 40
0.626953125
 40
0.6279296875
 40
0.62890625
 40
0.630859375
 40
0.6328125
 40
0.63671875
 40
0.640625
 40
0.64453125
 40
0.6484375
 40
0.65625
 40
0.6640625
 40
0.66796875
 40
0.671875
 40
0.67578125
 40
0.6796875
 40
0.681640625
 40
0.68359375
 40
0.6845703125
 40
0.685546875
 40
0.6865234375
 40
0.6870117188
 40
0.6872558594
 40
0.6875
 40
0.6877441406
 40
0.6879882812
 40
0.6884765625
 40
0.689453125
 40
0.6904296875
 40
0.69140625
 40
0.693359375
 40
0.6953125
 40
0.69921875
 40
0.703125
 40
0.70703125
 40
0.7109375
 40
0.71875
 40
0.7265625
 40
0.734375
 40
0.73828125
 40
0.7421875
 40
0.744140625
 40
0.74609375
 40
0.748046875
 40
0.7490234375
 40
0.7495117188
 40
0.75
 40
0.7504882812
 40
0.7509765625
 40
0.751953125
 40
0.75390625
 40
0.755859375
 40
0.7578125
 40
0.76171875
 40
0.765625
 40
0.7734375
 40
0.78125
 40
0.7890625
 40
0.796875
 40
0.80078125
 40
0.8046875
 40
0.806640625
 40
0.80859375
 40
0.810546875
 40
0.8115234375
 40
0.8120117188
 40
0.8125
 40
0.8129882812
 40
0.8134765625
 40
0.814453125
 40
0.81640625
 40
0.818359375
 40
0.8203125
 40
0.82421875
 40
0.828125
 40
0.8359375
 40
0.84375
 40
0.8515625
 40
0.859375
 40
0.86328125
 40
0.8671875
 40
0.87109375
 40
0.873046875
 40
0.8740234375
 40
0.875
 40
0.8759765625
 40
0.876953125
 40
0.87890625
 40
0.8828125
 40
0.88671875
 40
0.890625
 40
0.8984375
 40
0.90625
 40
0.9140625
 40
0.921875
 40
0.92578125
 40
0.9296875
 40
0.93359375
 40
0.935546875
 40
0.9365234375
 40
0.9375
 40
0.9384765625
 40
0.939453125
 40
0.94140625
 40
0.9453125
 40
0.94921875
 40
0.953125
 40
0.9609375
 40
0.96875
 40
0.984375
 40
1.0
 40
1.0
 40
1.0
 40
1.0
 10
13.5241425808
 20
8.1427323068
 30
0.0
 10
13.5240314528
 20
8.146854768
 30
0.0
 10
13.5238647608
 20
8.1530384599
 30
0.0
 10
13.5236425045
 20
8.1612833818
 30
0.0
 10
13.5234758132
 20
8.1674670748
 30
0.0
 10
13.5233091185
 20
8.173650762
 30
0.0
 10
13.5231702168
 20
8.1788038526
 30
0.0
 10
13.5230590719
 20
8.182926285
 30
0.0
 10
13.5229896599
 20
8.1855028966
 30
0.0
 10
13.5229340076
 20
8.1875639766
 30
0.0
 10
13.5228926044
 20
8.1891103595
 30
0.0
 10
13.5228570327
 20
8.1903971894
 30
0.0
 10
13.5228342305
 20
8.1913015471
 30
0.0
 10
13.5228179249
 20
8.1918127381
 30
0.0
 10
13.5228149235
 20
8.1922118638
 30
0.0
 10
13.5227766487
 20
8.1925508521
 30
0.0
 10
13.5227379194
 20
8.1930238131
 30
0.0
 10
13.5226644105
 20
8.1938417215
 30
0.0
 10
13.522562395
 20
8.1950152717
 30
0.0
 10
13.5224386934
 20
8.1964213448
 30
0.0
 10
13.5222742061
 20
8.1982968729
 30
0.0
 10
13.5220684436
 20
8.2006410215
 30
0.0
 10
13.5217393093
 20
8.2043918054
 30
0.0
 10
13.521327862
 20
8.2090802351
 30
0.0
 10
13.5208341377
 20
8.2147063718
 30
0.0
 10
13.5204226986
 20
8.219394816
 30
0.0
 10
13.5200935463
 20
8.2231455683
 30
0.0
 10
13.5198466864
 20
8.2259586433
 30
0.0
 10
13.5195998098
 20
8.2287716767
 30
0.0
 10
13.5193941312
 20
8.2311160009
 30
0.0
 10
13.5192294723
 20
8.2329911699
 30
0.0
 10
13.5191062949
 20
8.2343983399
 30
0.0
 10
13.5190026395
 20
8.2355684584
 30
0.0
 10
13.518932058
 20
8.2363924929
 30
0.0
 10
13.5188886383
 20
8.2368556384
 30
0.0
 10
13.5188647708
 20
8.2372247767
 30
0.0
 10
13.5188076582
 20
8.2375106639
 30
0.0
 10
13.5187431043
 20
8.2379208857
 30
0.0
 10
13.5186247321
 20
8.2386252442
 30
0.0
 10
13.5184584536
 20
8.239638544
 30
0.0
 10
13.5182577104
 20
8.2408514762
 30
0.0
 10
13.5179904751
 20
8.2424697766
 30
0.0
 10
13.517656286
 20
8.2444922892
 30
0.0
 10
13.5172553213
 20
8.24691946
 30
0.0
 10
13.5168543399
 20
8.2493465891
 30
0.0
 10
13.5163197039
 20
8.2525827758
 30
0.0
 10
13.5156514069
 20
8.2566280042
 30
0.0
 10
13.5149831107
 20
8.2606732345
 30
0.0
 10
13.5144484734
 20
8.263909418
 30
0.0
 10
13.5140474958
 20
8.2663365569
 30
0.0
 10
13.5136465167
 20
8.2687636911
 30
0.0
 10
13.5133123723
 20
8.2707863173
 30
0.0
 10
13.513045046
 20
8.2724043861
 30
0.0
 10
13.5128779916
 20
8.2734157525
 30
0.0
 10
13.5127442919
 20
8.2742246774
 30
0.0
 10
13.5126441709
 20
8.2748318318
 30
0.0
 10
13.5125602476
 20
8.2753363281
 30
0.0
 10
13.5125024611
 20
8.275692352
 30
0.0
 10
13.5124679416
 20
8.2758913027
 30
0.0
 10
13.5124462738
 20
8.2760531684
 30
0.0
 10
13.5124084678
 20
8.2761666694
 30
0.0
 10
13.512363689
 20
8.2763348741
 30
0.0
 10
13.5122827034
 20
8.2766213724
 30
0.0
 10
13.5121683808
 20
8.277034765
 30
0.0
 10
13.5120306068
 20
8.2775290771
 30
0.0
 10
13.5118471132
 20
8.2781887744
 30
0.0
 10
13.5116176759
 20
8.2790131856
 30
0.0
 10
13.5112506155
 20
8.2803323611
 30
0.0
 10
13.5107917765
 20
8.2819812901
 30
0.0
 10
13.5102411755
 20
8.2839600222
 30
0.0
 10
13.509690573
 20
8.2859387497
 30
0.0
 10
13.5089564368
 20
8.2885770546
 30
0.0
 10
13.5080387664
 20
8.2918749352
 30
0.0
 10
13.5071210961
 20
8.2951728162
 30
0.0
 10
13.5063869598
 20
8.2978111204
 30
0.0
 10
13.5058363578
 20
8.2997898502
 30
0.0
 10
13.5052857547
 20
8.3017685738
 30
0.0
 10
13.5048269223
 20
8.3034175292
 30
0.0
 10
13.5044598485
 20
8.3047366509
 30
0.0
 10
13.5042304453
 20
8.3055611991
 30
0.0
 10
13.5040468817
 20
8.3062206151
 30
0.0
 10
13.5039093214
 20
8.3067157864
 30
0.0
 10
13.5037943302
 20
8.3071264908
 30
0.0
 10
13.5037145382
 20
8.307417788
 30
0.0
 10
13.503667847
 20
8.3075783038
 30
0.0
 10
13.5036359153
 20
8.3077154228
 30
0.0
 10
13.5035921846
 20
8.3077885829
 30
0.0
 10
13.5035379927
 20
8.3079084393
 30
0.0
 10
13.5034412393
 20
8.3081077936
 30
0.0
 10
13.5033040226
 20
8.3083980197
 30
0.0
 10
13.5031389335
 20
8.308743965
 30
0.0
 10
13.5029189646
 20
8.3092060379
 30
0.0
 10
13.5026439521
 20
8.3097833507
 30
0.0
 10
13.5022039609
 20
8.3107072068
 30
0.0
 10
13.501653962
 20
8.3118619735
 30
0.0
 10
13.5009939675
 20
8.3132477165
 30
0.0
 10
13.5003339719
 20
8.3146334533
 30
0.0
 10
13.4994539781
 20
8.3164811045
 30
0.0
 10
13.4983539858
 20
8.3187906678
 30
0.0
 10
13.4972539936
 20
8.3211002315
 30
0.0
 10
13.4963739997
 20
8.3229478819
 30
0.0
 10
13.4957140045
 20
8.3243336213
 30
0.0
 10
13.4950540084
 20
8.3257193545
 30
0.0
 10
13.4945040146
 20
8.3268741516
 30
0.0
 10
13.4940640129
 20
8.3277979457
 30
0.0
 10
13.493789027
 20
8.3283754164
 30
0.0
 10
13.4935690035
 20
8.3288371653
 30
0.0
 10
13.4934040812
 20
8.3291841002
 30
0.0
 10
13.4932663428
 20
8.32947123
 30
0.0
 10
13.4931705208
 20
8.3296761117
 30
0.0
 10
13.4931148365
 20
8.3297871117
 30
0.0
 10
13.4930756898
 20
8.3298874759
 30
0.0
 10
13.4930265414
 20
8.3299224209
 30
0.0
 10
13.492964499
 20
8.3299918332
 30
0.0
 10
13.4928542992
 20
8.330102673
 30
0.0
 10
13.4926977208
 20
8.3302665739
 30
0.0
 10
13.4925094629
 20
8.3304608758
 30
0.0
 10
13.4922585795
 20
8.330720776
 30
0.0
 10
13.4919449317
 20
8.3310453668
 30
0.0
 10
13.4914431196
 20
8.331564871
 30
0.0
 10
13.490815846
 20
8.3322141967
 30
0.0
 10
13.4900631214
 20
8.3329934109
 30
0.0
 10
13.4893103958
 20
8.3337726189
 30
0.0
 10
13.4883067619
 20
8.334811565
 30
0.0
 10
13.4870522195
 20
8.3361102469
 30
0.0
 10
13.4857976772
 20
8.3374089293
 30
0.0
 10
13.4847940433
 20
8.3384478746
 30
0.0
 10
13.484041318
 20
8.3392270852
 30
0.0
 10
13.4832885921
 20
8.3400062893
 30
0.0
 10
13.4826613225
 20
8.3406556465
 30
0.0
 10
13.4821595023
 20
8.3411750865
 30
0.0
 10
13.4818458751
 20
8.3414998407
 30
0.0
 10
13.4815949493
 20
8.3417594053
 30
0.0
 10
13.4814068208
 20
8.3419547326
 30
0.0
 10
13.4812498377
 20
8.3421154256
 30
0.0
 10
13.4811403604
 20
8.342231992
 30
0.0
 10
13.4810771603
 20
8.3422922287
 30
0.0
 10
13.4810315678
 20
8.342355358
 30
0.0
 10
13.480979066
 20
8.3423498669
 30
0.0
 10
13.4809114736
 20
8.3423664809
 30
0.0
 10
13.480792064
 20
8.3423844035
 30
0.0
 10
13.4806220659
 20
8.3424158375
 30
0.0
 10
13.480417817
 20
8.3424510628
 30
0.0
 10
13.4801455728
 20
8.3424989014
 30
0.0
 10
13.4798052376
 20
8.3425584013
 30
0.0
 10
13.479260718
 20
8.342653768
 30
0.0
 10
13.4785800627
 20
8.342772919
 30
0.0
 10
13.4777632788
 20
8.3429159248
 30
0.0
 10
13.4769464943
 20
8.3430589241
 30
0.0
 10
13.4758574485
 20
8.343249592
 30
0.0
 10
13.4744961412
 20
8.3434879261
 30
0.0
 10
13.4731348339
 20
8.3437262607
 30
0.0
 10
13.4720457881
 20
8.3439169278
 30
0.0
 10
13.4712290038
 20
8.3440599298
 30
0.0
 10
13.470412219
 20
8.3442029251
 30
0.0
 10
13.4697315666
 20
8.3443221089
 30
0.0
 10
13.4691870412
 20
8.3444174087
 30
0.0
 10
13.4688467207
 20
8.3444770786
 30
0.0
 10
13.4685744462
 20
8.3445245683
 30
0.0
 10
13.4683702899
 20
8.3445608599
 30
0.0
 10
13.468200002
 20
8.3445889576
 30
0.0
 10
13.4680811098
 20
8.3446128362
 30
0.0
 10
13.4680126884
 20
8.3446199071
 30
0.0
 10
13.4679627331
 20
8.3446437293
 30
0.0
 10
13.4679075764
 20
8.3445967627
 30
0.0
 10
13.4678358484
 20
8.3445588326
 30
0.0
 10
13.4677094791
 20
8.3444809504
 30
0.0
 10
13.4675293935
 20
8.3443757047
 30
0.0
 10
13.4673131016
 20
8.3442468355
 30
0.0
 10
13.4670247785
 20
8.344075909
 30
0.0
 10
13.466664352
 20
8.3438619431
 30
0.0
 10
13.4660876822
 20
8.3435197697
 30
0.0
 10
13.4653668406
 20
8.3430919939
 30
0.0
 10
13.4645018326
 20
8.3425786882
 30
0.0
 10
13.463636824
 20
8.3420653758
 30
0.0
 10
13.4624834795
 20
8.3413809615
 30
0.0
 10
13.4610417987
 20
8.3405254429
 30
0.0
 10
13.459600118
 20
8.3396699248
 30
0.0
 10
13.4584467735
 20
8.3389855097
 30
0.0
 10
13.457581765
 20
8.3384722
 30
0.0
 10
13.4567167567
 20
8.3379588839
 30
0.0
 10
13.455995916
 20
8.3375311404
 30
0.0
 10
13.4554192444
 20
8.3371889011
 30
0.0
 10
13.4550588223
 20
8.3369751029
 30
0.0
 10
13.4547704902
 20
8.3368038321
 30
0.0
 10
13.4545542257
 20
8.3366760149
 30
0.0
 10
13.4543740543
 20
8.3365674778
 30
0.0
 10
13.4542478382
 20
8.3364954714
 30
0.0
 10
13.4541758648
 20
8.3364481267
 30
0.0
 10
13.454121462
 20
8.3364300787
 30
0.0
 10
13.454068675
 20
8.3363452875
 30
0.0
 10
13.4539977287
 20
8.3362555133
 30
0.0
 10
13.4538738352
 20
8.3360875615
 30
0.0
 10
13.4536967073
 20
8.3358533013
 30
0.0
 10
13.4534842126
 20
8.3355697617
 30
0.0
 10
13.4532008657
 20
8.3351925567
 30
0.0
 10
13.4528466892
 20
8.3347207602
 30
0.0
 10
13.4522800028
 20
8.333966048
 30
0.0
 10
13.4515716462
 20
8.3330226021
 30
0.0
 10
13.4507216177
 20
8.3318904909
 30
0.0
 10
13.4498715894
 20
8.3307583733
 30
0.0
 10
13.4487382182
 20
8.3292488854
 30
0.0
 10
13.4473215042
 20
8.3273620247
 30
0.0
 10
13.4459047902
 20
8.3254751645
 30
0.0
 10
13.444771419
 20
8.3239656758
 30
0.0
 10
13.4439213906
 20
8.3228335608
 30
0.0
 10
13.4430713624
 20
8.3217014398
 30
0.0
 10
13.4423630046
 20
8.3207580243
 30
0.0
 10
13.4417963207
 20
8.3200032502
 30
0.0
 10
13.4414421379
 20
8.3195316112
 30
0.0
 10
13.4411588039
 20
8.3191540828
 30
0.0
 10
13.4409462701
 20
8.3188715314
 30
0.0
 10
13.4407692644
 20
8.3186341793
 30
0.0
 10
13.4406451527
 20
8.318471747
 30
0.0
 10
13.4405745561
 20
8.3183731292
 30
0.0
 10
13.440520695
 20
8.3183155028
 30
0.0
 10
13.4404703261
 20
8.3181954283
 30
0.0
 10
13.4404019495
 20
8.3180571116
 30
0.0
 10
13.4402828579
 20
8.3178049085
 30
0.0
 10
13.4401124303
 20
8.3174499243
 30
0.0
 10
13.4399080443
 20
8.3170216722
 30
0.0
 10
13.4396354852
 20
8.3164514625
 30
0.0
 10
13.4392948015
 20
8.3157384289
 30
0.0
 10
13.4387496991
 20
8.3145977268
 30
0.0
 10
13.438068324
 20
8.3131717972
 30
0.0
 10
13.4372506727
 20
8.311460704
 30
0.0
 10
13.4364330217
 20
8.3097496047
 30
0.0
 10
13.4353428202
 20
8.3074681412
 30
0.0
 10
13.4339800685
 20
8.304616311
 30
0.0
 10
13.4326173166
 20
8.3017644814
 30
0.0
 10
13.4315271153
 20
8.299483017
 30
0.0
 10
13.430709464
 20
8.2977719202
 30
0.0
 10
13.4298918135
 20
8.2960608181
 30
0.0
 10
13.429210436
 20
8.2946349161
 30
0.0
 10
13.4286653386
 20
8.2934941576
 30
0.0
 10
13.4283246422
 20
8.2927812677
 30
0.0
 10
13.428052109
 20
8.292210763
 30
0.0
 10
13.4278476439
 20
8.2917834124
 30
0.0
 10
13.4276774639
 20
8.2914256074
 30
0.0
 10
13.4275579304
 20
8.2911784399
 30
0.0
 10
13.4274902618
 20
8.2910320548
 30
0.0
 10
13.427437718
 20
8.2909367639
 30
0.0
 10
13.4273920255
 20
8.2907860547
 30
0.0
 10
13.4273287123
 20
8.2906044396
 30
0.0
 10
13.4272190278
 20
8.2902776067
 30
0.0
 10
13.4270617535
 20
8.2898154112
 30
0.0
 10
13.4268732735
 20
8.2892587612
 30
0.0
 10
13.4266218798
 20
8.2885172651
 30
0.0
 10
13.4263076674
 20
8.287590154
 30
0.0
 10
13.425804911
 20
8.2861069109
 30
0.0
 10
13.4251764712
 20
8.2842528108
 30
0.0
 10
13.424422341
 20
8.2820279105
 30
0.0
 10
13.4236682115
 20
8.279803005
 30
0.0
 10
13.4226627052
 20
8.276836466
 30
0.0
 10
13.4214058224
 20
8.2731282917
 30
0.0
 10
13.4201489396
 20
8.2694201178
 30
0.0
 10
13.4191434334
 20
8.2664535782
 30
0.0
 10
13.4183893035
 20
8.2642286748
 30
0.0
 10
13.4176351745
 20
8.2620037664
 30
0.0
 10
13.4170067311
 20
8.2601496915
 30
0.0
 10
13.4165039821
 20
8.258666397
 30
0.0
 10
13.4161897507
 20
8.2577394166
 30
0.0
 10
13.4159383962
 20
8.2569976523
 30
0.0
 10
13.4157497966
 20
8.2564418219
 30
0.0
 10
13.4155928964
 20
8.2559770618
 30
0.0
 10
13.4154825439
 20
8.2556548073
 30
0.0
 10
13.415420301
 20
8.2554658564
 30
0.0
 10
13.4153713212
 20
8.2553376803
 30
0.0
 10
13.4153311238
 20
8.2551577586
 30
0.0
 10
13.415274464
 20
8.2549359125
 30
0.0
 10
13.4151767364
 20
8.2545392722
 30
0.0
 10
13.4150363795
 20
8.2539770398
 30
0.0
 10
13.4148682706
 20
8.253300479
 30
0.0
 10
13.4146440138
 20
8.2523990553
 30
0.0
 10
13.414363731
 20
8.2512720505
 30
0.0
 10
13.4139152571
 20
8.2494689688
 30
0.0
 10
13.4133546721
 20
8.2472150734
 30
0.0
 10
13.412681967
 20
8.2445104174
 30
0.0
 10
13.4120092628
 20
8.2418057565
 30
0.0
 10
13.4111123235
 20
8.2381995436
 30
0.0
 10
13.4099911489
 20
8.2336917781
 30
0.0
 10
13.4086457422
 20
8.2282824538
 30
0.0
 10
13.4075245615
 20
8.2237747016
 30
0.0
 10
13.4066276357
 20
8.2201684593
 30
0.0
 10
13.4060670143
 20
8.2179146503
 30
0.0
 10
13.4056186152
 20
8.2161113913
 30
0.0
 10
13.4052820475
 20
8.2147595269
 30
0.0
 10
13.4050024282
 20
8.2136311288
 30
0.0
 10
13.4048050193
 20
8.2128448698
 30
0.0
 10
13.4046948301
 20
8.212389927
 30
0.0
 10
13.4046048192
 20
8.2120646416
 30
0.0
 10
13.4045429762
 20
8.2116784955
 30
0.0
 10
13.4044506936
 20
8.211184863
 30
0.0
 10
13.4042937769
 20
8.210311115
 30
0.0
 10
13.4040672168
 20
8.2090680748
 30
0.0
 10
13.4037963691
 20
8.2075742131
 30
0.0
 10
13.403434881
 20
8.2055831707
 30
0.0
 10
13.4029831435
 20
8.2030941029
 30
0.0
 10
13.4022602949
 20
8.1991117424
 30
0.0
 10
13.4013567578
 20
8.1941337407
 30
0.0
 10
13.4002725024
 20
8.1881601617
 30
0.0
 10
13.3991882526
 20
8.1821865725
 30
0.0
 10
13.3982847016
 20
8.1772085964
 30
0.0
 10
13.3975618809
 20
8.1732261848
 30
0.0
 10
13.3971100725
 20
8.1707372471
 30
0.0
 10
13.3967487298
 20
8.1687459376
 30
0.0
 10
13.3964774381
 20
8.1672528917
 30
0.0
 10
13.3962522672
 20
8.166007299
 30
0.0
 10
13.3960928705
 20
8.1651381076
 30
0.0
 10
13.3960045615
 20
8.1646371743
 30
0.0
 10
13.3959305128
 20
8.1642734537
 30
0.0
 10
13.3958863448
 20
8.1638639419
 30
0.0
 10
13.3958170313
 20
8.1633338986
 30
0.0
 10
13.395700589
 20
8.162398881
 30
0.0
 10
13.3955317039
 20
8.1610670322
 30
0.0
 10
13.3953301286
 20
8.1594671483
 30
0.0
 10
13.3950609819
 20
8.1573345515
 30
0.0
 10
13.3947246785
 20
8.1546686063
 30
0.0
 10
13.3941865202
 20
8.1504032054
 30
0.0
 10
13.3935138492
 20
8.145071415
 30
0.0
 10
13.3927066243
 20
8.1386732881
 30
0.0
 10
13.3918994354
 20
8.1322751374
 30
0.0
 10
13.391226674
 20
8.1269434068
 30
0.0
 10
13.3906886966
 20
8.1226778861
 30
0.0
 10
13.3902845809
 20
8.1194791173
 30
0.0
 10
13.38994983
 20
8.1168122943
 30
0.0
 10
13.3897115555
 20
8.1149478385
 30
0.0
 10
13.3895815645
 20
8.1138788123
 30
0.0
 10
13.389466702
 20
8.1130872484
 30
0.0
 10
13.3894182335
 20
8.1122566728
 30
0.0
 10
13.3893304499
 20
8.1111628464
 30
0.0
 10
13.3891876188
 20
8.1092423101
 30
0.0
 10
13.3889779331
 20
8.1065020015
 30
0.0
 10
13.388728725
 20
8.1032122124
 30
0.0
 10
13.3883956037
 20
8.0988263226
 30
0.0
 10
13.3879794937
 20
8.0933437899
 30
0.0
 10
13.3874800279
 20
8.086764825
 30
0.0
 10
13.3869806307
 20
8.0801858357
 30
0.0
 10
13.386564349
 20
8.0747033639
 30
0.0
 10
13.3862315711
 20
8.0703173523
 30
0.0
 10
13.3859813158
 20
8.0670279348
 30
0.0
 10
13.385774906
 20
8.0642864636
 30
0.0
 10
13.3856262269
 20
8.0623680026
 30
0.0
 10
13.3855478133
 20
8.0612708511
 30
0.0
 10
13.3854705633
 20
8.0604504893
 30
0.0
 10
13.3854637994
 20
8.0596205642
 30
0.0
 10
13.3854301946
 20
8.0585173331
 30
0.0
 10
13.3853828414
 20
8.0565851246
 30
0.0
 10
13.3853092051
 20
8.0538256392
 30
0.0
 10
13.3852234049
 20
8.050513909
 30
0.0
 10
13.3851081094
 20
8.0460983902
 30
0.0
 10
13.3849642965
 20
8.04057895
 30
0.0
 10
13.3847340245
 20
8.0317478691
 30
0.0
 10
13.3844462436
 20
8.0207090099
 30
0.0
 10
13.3842160009
 20
8.011877925
 30
0.0
 10
13.3841008819
 20
8.0074623822
 30
0.0
  0
ENDSEC
  0
SECTION
  2
OBJECTS
  0
DICTIONARY
  5
C
100
AcDbDictionary
280
0
281
1
  3
ACAD_GROUP
350
D
  3
ACAD_MLINESTYLE
350
17
  3
ACAD_LAYOUT
350
1A
  3
ACAD_PLOTSETTINGS
350
19
  3
ACAD_PLOTSTYLENAME
350
E
  3
ACAD_IMAGE_DICT
350
       3FF
  3
ACAD_IMAGE_VARS
350
       400
  3
ACAD_TABLESTYLE
350
       401
  0
IMAGEDEF_REACTOR
  5
3FE
100
AcDbRasterImageDefReactor
 90
2
330
28B
  0
DICTIONARY
  5
D
102
{ACAD_REACTORS
330
C
102
}
100
AcDbDictionary
280
0
281
1
  0
ACDBDICTIONARYWDFLT
  5
E
102
{ACAD_REACTORS
330
C
102
}
100
AcDbDictionary
281
1
  3
Normal
350
F
100
AcDbDictionaryWithDefault
340
F
  0
DICTIONARY
  5
3FF
330
C
100
AcDbDictionary
281
1
  3
RPKCLAN-LA8_assy_2_img_1
350
       404
  0
RASTERVARIABLES
  5
400
330
C
100
AcDbRasterVariables
 90
0
 70
0
 71
1
 72
5
  0
DICTIONARY
  5
17
102
{ACAD_REACTORS
330
C
102
}
100
AcDbDictionary
280
0
281
1
  3
Standard
350
18
  0
DICTIONARY
  5
401
330
C
100
AcDbDictionary
281
1
  3
Standard
350
       405
  3
Standard1
350
       406
  0
DICTIONARY
  5
19
102
{ACAD_REACTORS
330
C
102
}
100
AcDbDictionary
281
1
  0
DICTIONARY
  5
1A
102
{ACAD_REACTORS
330
C
102
}
100
AcDbDictionary
281
1
  3
Model
350
402
  3
Layout1
350
403
  0
ACDBPLACEHOLDER
  5
F
102
{ACAD_REACTORS
330
E
102
}
  0
MLINESTYLE
  5
18
102
{ACAD_REACTORS
330
17
102
}
100
AcDbMlineStyle
  2
STANDARD
 70
0
  3

 62
256
 51
90.0
 52
90.0
 71
2
 49
0.5
 62
256
  6
BYLAYER
 49
-0.5
 62
256
  6
BYLAYER
  0
LAYOUT
  5
402
102
{ACAD_REACTORS
330
1A
102
}
100
AcDbPlotSettings
  1

  2
none_device
  4
ANSI_C_(22.00_x_17.00_Inches)
  6

 40
0.0
 41
0.0
 42
0.0
 43
0.0
 44
558.8
 45
431.8
 46
0.0
 47
0.0
 48
0.0
 49
0.0
140
0.0
141
0.0
142
1.0
143
1.0
 70
1024
 72
0
 73
0
 74
0
  7

 75
0
147
1.0
148
0.0
149
0.0
100
AcDbLayout
  1
Model
 70
0
 71
0
 10
0.0
 20
0.0
 11
22.0
 21
17.0
 12
0.0
 22
0.0
 32
0.0
 14
0.0
 24
0.0
 34
0.0
 15
0.0
 25
0.0
 35
0.0
146
0.0
 13
0.0
 23
0.0
 33
0.0
 16
1.0
 26
0.0
 36
0.0
 17
0.0
 27
1.0
 37
0.0
 76
0
330
20C
345
0
346
0
  0
LAYOUT
  5
403
102
{ACAD_REACTORS
330
1A
102
}
100
AcDbPlotSettings
  1

  2
none_device
  4
ANSI_C_(22.00_x_17.00_Inches)
  6

 40
0.0
 41
0.0
 42
0.0
 43
0.0
 44
558.8
 45
431.8
 46
0.0
 47
0.0
 48
0.0
 49
0.0
140
0.0
141
0.0
142
1.0
143
1.0
 70
0
 72
0
 73
0
 74
0
  7

 75
0
147
1.0
148
0.0
149
0.0
100
AcDbLayout
  1
Layout1
 70
0
 71
1
 10
0.0
 20
0.0
 11
22.0
 21
17.0
 12
0.0
 22
0.0
 32
0.0
 14
0.0
 24
0.0
 34
0.0
 15
0.0
 25
0.0
 35
0.0
146
0.0
 13
0.0
 23
0.0
 33
0.0
 16
1.0
 26
0.0
 36
0.0
 17
0.0
 27
1.0
 37
0.0
 76
0
330
20D
345
0
346
0
  0
IMAGEDEF
  5
404
102
{ACAD_REACTORS
330
3FF
330
3FE
102
}
100
AcDbRasterImageDef
 90
0
  1
RPKCLAN-LA8_assy_2_img_1.png
 10
369.0
 20
92.0
 11
0.0066666667
 21
0.0066666667
280
1
281
0
  0
TABLESTYLE
  5
405
102
{ACAD_REACTORS
330
401
330
28E
330
28F
102
}
330
401
100
AcDbTableStyle
  3
Standard
 70
0
 71
0
 40
0.06
 41
0.06
280
1
281
1
  7
Standard
140
0.18
170
1
 62
0
 63
7
283
0
  7
Standard
140
0.18
170
1
 62
0
 63
7
283
0
  7
Standard
140
0.18
170
1
 62
0
 63
7
283
0
  0
TABLESTYLE
  5
406
102
{ACAD_REACTORS
330
401
330
28D
102
}
330
401
100
AcDbTableStyle
  3
Standard1
 70
1
 71
0
 40
0.06
 41
0.06
280
1
281
1
  7
Standard
140
0.18
170
1
 62
0
 63
7
283
0
  7
Standard
140
0.18
170
1
 62
0
 63
7
283
0
  7
Standard
140
0.18
170
1
 62
0
 63
7
283
0
  0
ENDSEC
  0
EOF
