999
DXF file: RPKCLAN-DKV_assy_2.dxf
999
Pro/ENGINEER 2014200 by Parametric Technology Corporation
  0
SECTION
  2
HEADER
  9
$ACADVER
  1
AC1021
  9
$DWGCODEPAGE
  3
ANSI_1252
  9
$EXTMAX
 10
22.0
 20
17.0
 30
0.0
  9
$EXTMIN
 10
0.0
 20
0.0
 30
0.0
  9
$LIMMIN
 10
0.0
 20
0.0
  9
$LIMMAX
 10
22.0
 20
17.0
  9
$VIEWCTR
 10
11.0
 20
8.5
  9
$VIEWSIZE
 40
17.0
  9
$CLAYER
  8
0
  9
$LTSCALE
 40
1.21
  9
$CELTYPE
  6
BYLAYER
  9
$DIMSCALE
 40
1.0
  9
$DIMASZ
 40
0.1875
  9
$DIMEXO
 40
0.0625
  9
$DIMDLI
 40
0.836
  9
$DIMEXE
 40
0.125
  9
$DIMCEN
 40
0.198
  9
$DIMLFAC
 40
1.0
  9
$DIMBLK
  1
_FILLED
  9
$DIMTXT
 40
0.1
  9
$DIMTOL
 70
0
  9
$DIMLIM
 70
0
  9
$DIMTFAC
 40
1.0
  9
$DIMGAP
 40
0.09
  9
$DIMDSEP
 70
46
  9
$AUNITS
 70
0
  9
$PDMODE
 70
3
  9
$PDSIZE
 40
0.3125
  9
$HANDSEED
  5
341
  9
$TILEMODE
 70
1
  9
$MEASUREMENT
 70
0
  9
$INSUNITS
 70
1
  0
ENDSEC
  0
SECTION
  2
CLASSES
  0
CLASS
  1
ACDBDICTIONARYWDFLT
  2
AcDbDictionaryWithDefault
  3
AutoCAD 2000
 90
0
 91
1
280
0
281
0
  0
CLASS
  1
ACDBPLACEHOLDER
  2
AcDbPlaceHolder
  3
AutoCAD 2000
 90
0
 91
1
280
0
281
0
  0
CLASS
  1
LAYOUT
  2
AcDbLayout
  3
AutoCAD 2000
 90
0
 91
0
280
0
281
0
  0
CLASS
  1
RASTERVARIABLES
  2
AcDbRasterVariables
  3
ISM
 90
0
 91
1
280
0
281
0
  0
CLASS
  1
IMAGEDEF
  2
AcDbRasterImageDef
  3
ISM
 90
0
 91
1
280
0
281
0
  0
CLASS
  1
IMAGEDEF_REACTOR
  2
AcDbRasterImageDefReactor
  3
ISM
 90
0
 91
1
280
0
281
0
  0
CLASS
  1
IMAGE
  2
AcDbRasterImage
  3
ISM
 90
127
 91
1
280
0
281
1
  0
CLASS
  1
TABLESTYLE
  2
AcDbTableStyle
  3
ObjectDBX Classes
 90
2047
 91
1
280
0
281
0
  0
CLASS
  1
ACAD_TABLE
  2
AcDbTable
  3
ObjectDBX Classes
 90
1025
 91
2
280
0
281
1
  0
ENDSEC
  0
SECTION
  2
TABLES
  0
TABLE
  2
VPORT
  5
8
100
AcDbSymbolTable
 70
2
  0
VPORT
  5
1F4
100
AcDbSymbolTableRecord
100
AcDbViewportTableRecord
  2
*ACTIVE
 70
0
 10
0.0
 20
0.0
 11
1.0
 21
1.0
 12
11.0
 22
8.5
 13
0.0
 23
0.0
 14
1.0
 24
1.0
 15
0.0
 25
0.0
 16
0.0
 26
0.0
 36
1.0
 17
0.0
 27
0.0
 37
0.0
 40
17.0
 41
1.2941176471
 42
50.0
 43
0.0
 44
0.0
 50
0.0
 51
0.0
 71
0
 72
100
 73
1
 74
1
 75
0
 76
0
 77
0
 78
0
  0
ENDTAB
  0
TABLE
  2
LTYPE
  5
5
100
AcDbSymbolTable
 70
6
  0
LTYPE
  5
14
100
AcDbSymbolTableRecord
100
AcDbLinetypeTableRecord
  2
BYBLOCK
 70
0
  3

 72
65
 73
0
 40
0.0
  0
LTYPE
  5
15
100
AcDbSymbolTableRecord
100
AcDbLinetypeTableRecord
  2
BYLAYER
 70
0
  3

 72
65
 73
0
 40
0.0
  0
LTYPE
  5
16
100
AcDbSymbolTableRecord
100
AcDbLinetypeTableRecord
  2
CONTINUOUS
 70
64
  3
Solid line
 72
65
 73
0
 40
0.0
  0
LTYPE
  5
1F5
100
AcDbSymbolTableRecord
100
AcDbLinetypeTableRecord
  2
CENTER
 70
64
  3
____ _ ____ _ ____ _ ____ _ ____ _ ____ _ ____
 72
65
 73
4
 40
0.6
 49
0.375
 74
0
 49
-0.075
 74
0
 49
0.075
 74
0
 49
-0.075
 74
0
  0
LTYPE
  5
1F6
100
AcDbSymbolTableRecord
100
AcDbLinetypeTableRecord
  2
HIDDEN
 70
64
  3
- - - - - - - - - - - - - - - - - - - -
 72
65
 73
2
 40
0.2
 49
0.1
 74
0
 49
-0.1
 74
0
  0
LTYPE
  5
1F7
100
AcDbSymbolTableRecord
100
AcDbLinetypeTableRecord
  2
PHANTOM
 70
64
  3
_____ _ _ _____ _ _ _____ _ _ _____
 72
65
 73
6
 40
0.8
 49
0.45
 74
0
 49
-0.05
 74
0
 49
0.1
 74
0
 49
-0.05
 74
0
 49
0.1
 74
0
 49
-0.05
 74
0
  0
LTYPE
  5
1F8
100
AcDbSymbolTableRecord
100
AcDbLinetypeTableRecord
  2
DOT
 70
64
  3
. . . . . . . . . . . . . . . . . . . .
 72
65
 73
2
 40
0.2
 49
0.1
 74
0
 49
-0.1
 74
0
  0
LTYPE
  5
1F9
100
AcDbSymbolTableRecord
100
AcDbLinetypeTableRecord
  2
DASHED
 70
64
  3
- - - - - - - - - - - - - - - - - - - -
 72
65
 73
2
 40
0.2
 49
0.1
 74
0
 49
-0.1
 74
0
  0
ENDTAB
  0
TABLE
  2
LAYER
  5
2
100
AcDbSymbolTable
 70
36
  0
LAYER
  5
10
100
AcDbSymbolTableRecord
100
AcDbLayerTableRecord
  2
0
 70
0
 62
7
  6
CONTINUOUS
370
-3
390
F
  0
LAYER
  5
1FA
100
AcDbSymbolTableRecord
100
AcDbLayerTableRecord
  2
DEFAULT_1
 70
0
 62
7
  6
CENTER
370
-3
390
F
  0
LAYER
  5
1FB
100
AcDbSymbolTableRecord
100
AcDbLayerTableRecord
  2
DEFAULT_2
 70
0
 62
8
  6
HIDDEN
370
-3
390
F
  0
LAYER
  5
1FC
100
AcDbSymbolTableRecord
100
AcDbLayerTableRecord
  2
DEFAULT_3
 70
0
 62
7
  6
PHANTOM
370
-3
390
F
  0
LAYER
  5
1FD
100
AcDbSymbolTableRecord
100
AcDbLayerTableRecord
  2
01___PRT_ALL_DTM_PLN
 70
0
 62
7
  6
CONTINUOUS
370
-3
390
F
  0
LAYER
  5
1FE
100
AcDbSymbolTableRecord
100
AcDbLayerTableRecord
  2
01___PRT_DEF_DTM_PLN
 70
0
 62
7
  6
CONTINUOUS
370
-3
390
F
  0
LAYER
  5
1FF
100
AcDbSymbolTableRecord
100
AcDbLayerTableRecord
  2
02___PRT_ALL_AXES
 70
0
 62
7
  6
CONTINUOUS
370
-3
390
F
  0
LAYER
  5
200
100
AcDbSymbolTableRecord
100
AcDbLayerTableRecord
  2
03___PRT_ALL_CURVES
 70
0
 62
7
  6
CONTINUOUS
370
-3
390
F
  0
LAYER
  5
201
100
AcDbSymbolTableRecord
100
AcDbLayerTableRecord
  2
04___PRT_ALL_DTM_PNT
 70
0
 62
7
  6
CONTINUOUS
370
-3
390
F
  0
LAYER
  5
202
100
AcDbSymbolTableRecord
100
AcDbLayerTableRecord
  2
05___PRT_ALL_DTM_CSYS
 70
0
 62
7
  6
CONTINUOUS
370
-3
390
F
  0
LAYER
  5
203
100
AcDbSymbolTableRecord
100
AcDbLayerTableRecord
  2
05___PRT_DEF_DTM_CSYS
 70
0
 62
7
  6
CONTINUOUS
370
-3
390
F
  0
LAYER
  5
204
100
AcDbSymbolTableRecord
100
AcDbLayerTableRecord
  2
06___PRT_ALL_SURFS
 70
0
 62
7
  6
CONTINUOUS
370
-3
390
F
  0
LAYER
  5
205
100
AcDbSymbolTableRecord
100
AcDbLayerTableRecord
  2
DATUM_PLANES
 70
0
 62
7
  6
CONTINUOUS
370
-3
390
F
  0
LAYER
  5
206
100
AcDbSymbolTableRecord
100
AcDbLayerTableRecord
  2
DIMENSIONS
 70
0
 62
7
  6
CONTINUOUS
370
-3
390
F
  0
LAYER
  5
207
100
AcDbSymbolTableRecord
100
AcDbLayerTableRecord
  2
PARAMETERDIMENSIONS
 70
0
 62
7
  6
CONTINUOUS
370
-3
390
F
  0
LAYER
  5
208
100
AcDbSymbolTableRecord
100
AcDbLayerTableRecord
  2
PLANE
 70
0
 62
7
  6
CONTINUOUS
370
-3
390
F
  0
LAYER
  5
209
100
AcDbSymbolTableRecord
100
AcDbLayerTableRecord
  2
PORT_AREAS
 70
0
 62
7
  6
CONTINUOUS
370
-3
390
F
  0
LAYER
  5
20A
100
AcDbSymbolTableRecord
100
AcDbLayerTableRecord
  2
SUNNBOMCOSMETIC
 70
0
 62
7
  6
CONTINUOUS
370
-3
390
F
  0
LAYER
  5
20B
100
AcDbSymbolTableRecord
100
AcDbLayerTableRecord
  2
SUNNBOMSTAMPING
 70
0
 62
7
  6
CONTINUOUS
370
-3
390
F
  0
LAYER
  5
20C
100
AcDbSymbolTableRecord
100
AcDbLayerTableRecord
  2
THREADS
 70
0
 62
7
  6
CONTINUOUS
370
-3
390
F
  0
ENDTAB
  0
TABLE
  2
STYLE
  5
3
100
AcDbSymbolTable
 70
1
  0
STYLE
  5
11
100
AcDbSymbolTableRecord
100
AcDbTextStyleTableRecord
  2
STANDARD
 70
0
 40
0.0
 41
0.8
 50
0.0
 71
0
 42
0.2
  3
txt
  4

  0
STYLE
  5
20D
100
AcDbSymbolTableRecord
100
AcDbTextStyleTableRecord
  2
TEXTSTYLE_1
 70
0
 40
0.0
 41
0.8
 50
0.0
 71
0
 42
0.2
  3
gdt
  4

  0
ENDTAB
  0
TABLE
  2
VIEW
  5
6
100
AcDbSymbolTable
 70
0
  0
ENDTAB
  0
TABLE
  2
UCS
  5
7
100
AcDbSymbolTable
 70
0
  0
ENDTAB
  0
TABLE
  2
APPID
  5
9
100
AcDbSymbolTable
 70
1
  0
APPID
  5
20E
100
AcDbSymbolTableRecord
100
AcDbRegAppTableRecord
  2
ACAD
 70
0
  0
ENDTAB
  0
TABLE
  2
BLOCK_RECORD
  5
1
100
AcDbSymbolTable
 70
0
  0
BLOCK_RECORD
  5
20F
100
AcDbSymbolTableRecord
100
AcDbBlockTableRecord
  2
*Model_Space
  0
BLOCK_RECORD
  5
210
100
AcDbSymbolTableRecord
100
AcDbBlockTableRecord
  2
*Paper_Space
  0
BLOCK_RECORD
  5
211
100
AcDbSymbolTableRecord
100
AcDbBlockTableRecord
  2
SUN_FIRST_THIRD_ANGLE_BL0
  0
BLOCK_RECORD
  5
212
100
AcDbSymbolTableRecord
100
AcDbBlockTableRecord
  2
*T1
  0
BLOCK_RECORD
  5
213
100
AcDbSymbolTableRecord
100
AcDbBlockTableRecord
  2
*T2
  0
ENDTAB
  0
TABLE
  2
DIMSTYLE
  5
A
100
AcDbSymbolTable
 70
1
100
AcDbDimStyleTable
 71
0
  0
DIMSTYLE
105
214
100
AcDbSymbolTableRecord
100
AcDbDimStyleTableRecord
  2
STANDARD
 70
0
  3

  4

 40
1.0
 41
0.1875
 42
0.0625
 43
0.38
 44
0.125
 45
0.0
 46
0.0
 47
0.001
 48
0.001
140
0.1
141
0.09
142
0.0
143
25.4
144
1.0
145
0.0
146
1.0
147
0.09
 71
0.0
 72
0.0
 73
1
 74
1
 75
0
 76
0
 77
0
 78
4
170
0
171
2
172
0
173
0
174
0
175
0
176
0
177
0
178
0
270
2
271
3
272
3
273
2
274
2
275
0
280
0
281
0
282
0
283
1
284
4
285
0
286
0
287
3
288
0
340
11
278
46
  0
ENDTAB
  0
ENDSEC
  0
SECTION
  2
BLOCKS
  0
BLOCK
  5
20
100
AcDbEntity
  8
0
100
AcDbBlockBegin
  2
*Model_Space
 70
0
 10
0.0
 20
0.0
 30
0.0
  3
*Model_Space
  1

  0
ENDBLK
  5
21
100
AcDbEntity
  8
0
100
AcDbBlockEnd
  0
BLOCK
  5
1C
100
AcDbEntity
  8
0
100
AcDbBlockBegin
  2
*Paper_Space
 70
0
 10
0.0
 20
0.0
 30
0.0
  3
*Paper_Space
  1

  0
ENDBLK
  5
1D
100
AcDbEntity
  8
0
100
AcDbBlockEnd
  0
BLOCK
  5
215
100
AcDbEntity
  8
0
100
AcDbBlockBegin
 62
2
  6
CONTINUOUS
  2
SUN_FIRST_THIRD_ANGLE_BL0
 70
64
 10
20.4816717061
 20
1.2289683772
  3
SUN_FIRST_THIRD_ANGLE_BL0
  1

  0
TEXT
  5
216
100
AcDbEntity
  8
0
100
AcDbText
 62
2
  6
CONTINUOUS
 10
19.4750896608
 20
1.4136269581
  7
STANDARD
 40
0.08
  1
FIRST ANGLE
 41
0.8
 72
0
100
AcDbText
  0
TEXT
  5
217
100
AcDbEntity
  8
0
100
AcDbText
 62
2
  6
CONTINUOUS
 10
20.7842537513
 20
1.4047600029
  7
STANDARD
 40
0.08
  1
THIRD ANGLE
 41
0.8
 72
0
100
AcDbText
  0
LINE
  5
218
100
AcDbEntity
  8
0
100
AcDbLine
 62
7
  6
CONTINUOUS
 10
19.4767170086
 20
1.1727031207
 11
19.6334271527
 21
1.1717972817
  0
LINE
  5
219
100
AcDbEntity
  8
0
100
AcDbLine
 62
7
  6
CONTINUOUS
 10
19.6596964832
 20
1.1717972817
 11
19.6950230232
 21
1.171593082
  0
LINE
  5
21A
100
AcDbEntity
  8
0
100
AcDbLine
 62
7
  6
CONTINUOUS
 10
19.7194818561
 20
1.1708914427
 11
19.8852396156
 21
1.1699333054
  0
LINE
  5
21B
100
AcDbEntity
  8
0
100
AcDbLine
 62
7
  6
CONTINUOUS
 10
19.4758111696
 20
1.2723454088
 11
19.88525039
 21
1.3511534004
  0
LINE
  5
21C
100
AcDbEntity
  8
0
100
AcDbLine
 62
7
  6
CONTINUOUS
 10
19.88525039
 20
1.3511534004
 11
19.8831348489
 21
0.9851647912
  0
LINE
  5
21D
100
AcDbEntity
  8
0
100
AcDbLine
 62
7
  6
CONTINUOUS
 10
19.8831348489
 20
0.9851647912
 11
19.4767170086
 21
1.0658141206
  0
LINE
  5
21E
100
AcDbEntity
  8
0
100
AcDbLine
 62
7
  6
CONTINUOUS
 10
19.4767170086
 20
1.0658141206
 11
19.4779056764
 21
1.2714536432
  0
CIRCLE
  5
21F
100
AcDbEntity
  8
0
100
AcDbCircle
 62
7
  6
CONTINUOUS
 10
20.2068232291
 20
1.1717972817
 40
0.175742101
  0
CIRCLE
  5
220
100
AcDbEntity
  8
0
100
AcDbCircle
 62
7
  6
CONTINUOUS
 10
20.2068232291
 20
1.1717972817
 40
0.1005522074
  0
LINE
  5
221
100
AcDbEntity
  8
0
100
AcDbLine
 62
7
  6
CONTINUOUS
 10
20.2077290681
 20
1.3756110529
 11
20.2071171714
 21
1.2379342989
  0
LINE
  5
222
100
AcDbEntity
  8
0
100
AcDbLine
 62
7
  6
CONTINUOUS
 10
20.2077290681
 20
1.2016899681
 11
20.2074674401
 21
1.1428236749
  0
LINE
  5
223
100
AcDbEntity
  8
0
100
AcDbLine
 62
7
  6
CONTINUOUS
 10
20.208634907
 20
1.101141841
 11
20.2080230104
 21
0.963465087
  0
LINE
  5
224
100
AcDbEntity
  8
0
100
AcDbLine
 62
7
  6
CONTINUOUS
 10
20.0066328138
 20
1.1745147986
 11
20.1443095678
 21
1.1739029019
  0
LINE
  5
225
100
AcDbEntity
  8
0
100
AcDbLine
 62
7
  6
CONTINUOUS
 10
20.1832714155
 20
1.1727031207
 11
20.238153505
 21
1.172335442
  0
LINE
  5
226
100
AcDbEntity
  8
0
100
AcDbLine
 62
7
  6
CONTINUOUS
 10
20.2756669918
 20
1.1717972817
 11
20.407916871
 21
1.1712095044
  0
CIRCLE
  5
227
100
AcDbEntity
  8
0
100
AcDbCircle
 62
7
  6
CONTINUOUS
 10
20.7509457401
 20
1.1693297793
 40
0.1722024983
  0
CIRCLE
  5
228
100
AcDbEntity
  8
0
100
AcDbCircle
 62
7
  6
CONTINUOUS
 10
20.7509457401
 20
1.1693297793
 40
0.0985164967
  0
LINE
  5
229
100
AcDbEntity
  8
0
100
AcDbLine
 62
7
  6
CONTINUOUS
 10
20.7169767782
 20
1.170462078
 11
20.7825395137
 21
1.1682766535
  0
LINE
  5
22A
100
AcDbEntity
  8
0
100
AcDbLine
 62
7
  6
CONTINUOUS
 10
20.8177513651
 20
1.1693297793
 11
20.947965719
 21
1.1693297793
  0
LINE
  5
22B
100
AcDbEntity
  8
0
100
AcDbLine
 62
7
  6
CONTINUOUS
 10
20.6875370113
 20
1.170462078
 11
20.5573226574
 21
1.170462078
  0
LINE
  5
22C
100
AcDbEntity
  8
0
100
AcDbLine
 62
7
  6
CONTINUOUS
 10
20.7486811426
 20
1.1987695462
 11
20.7486811426
 21
1.1432869085
  0
LINE
  5
22D
100
AcDbEntity
  8
0
100
AcDbLine
 62
7
  6
CONTINUOUS
 10
20.7498134414
 20
1.1059210505
 11
20.7498134414
 21
0.9757066966
  0
LINE
  5
22E
100
AcDbEntity
  8
0
100
AcDbLine
 62
7
  6
CONTINUOUS
 10
20.7486811426
 20
1.2338708068
 11
20.7486811426
 21
1.3640851607
  0
LINE
  5
22F
100
AcDbEntity
  8
0
100
AcDbLine
 62
7
  6
CONTINUOUS
 10
21.0702539817
 20
1.2701043662
 11
21.4790138229
 21
1.3448360823
  0
LINE
  5
230
100
AcDbEntity
  8
0
100
AcDbLine
 62
7
  6
CONTINUOUS
 10
21.4790138229
 20
1.3448360823
 11
21.4790138229
 21
0.9779712941
  0
LINE
  5
231
100
AcDbEntity
  8
0
100
AcDbLine
 62
7
  6
CONTINUOUS
 10
21.4790138229
 20
0.9779712941
 11
21.069121683
 21
1.0617614
  0
LINE
  5
232
100
AcDbEntity
  8
0
100
AcDbLine
 62
7
  6
CONTINUOUS
 10
21.0702539817
 20
1.2701043662
 11
21.069121683
 21
1.0617614
  0
LINE
  5
233
100
AcDbEntity
  8
0
100
AcDbLine
 62
7
  6
CONTINUOUS
 10
21.4790138229
 20
1.1693297793
 11
21.3159628059
 21
1.1693297793
  0
LINE
  5
234
100
AcDbEntity
  8
0
100
AcDbLine
 62
7
  6
CONTINUOUS
 10
21.2876553377
 20
1.1693297793
 11
21.2502894796
 21
1.1693297793
  0
LINE
  5
235
100
AcDbEntity
  8
0
100
AcDbLine
 62
7
  6
CONTINUOUS
 10
21.2208497126
 20
1.1659328831
 11
21.0713862804
 21
1.1659328831
  0
LINE
  5
236
100
AcDbEntity
  8
0
100
AcDbLine
 62
7
  6
CONTINUOUS
 10
20.4796138713
 20
1.5284908897
 11
20.4766766948
 21
0.9294458646
  0
ENDBLK
  5
237
100
AcDbEntity
  8
0
  6
BYBLOCK
 62
0
100
AcDbBlockEnd
  0
BLOCK
  5
238
100
AcDbEntity
  8
0
100
AcDbBlockBegin
  2
*T1
 70
1
 10
0.0
 20
0.0
  3
*T1
  1

  0
LINE
  5
239
100
AcDbEntity
  8
0
100
AcDbLine
 62
2
  6
CONTINUOUS
 10
9.275
 20
0.0
 11
-0.0
 21
0.0
  0
LINE
  5
23A
100
AcDbEntity
  8
0
100
AcDbLine
 62
2
  6
CONTINUOUS
 10
9.275
 20
0.0
 11
9.275
 21
1.25
  0
LINE
  5
23B
100
AcDbEntity
  8
0
100
AcDbLine
 62
2
  6
CONTINUOUS
 10
9.275
 20
0.625
 11
-0.0
 21
0.625
  0
LINE
  5
23C
100
AcDbEntity
  8
0
100
AcDbLine
 62
2
  6
CONTINUOUS
 10
9.275
 20
1.25
 11
-0.0
 21
1.25
  0
LINE
  5
23D
100
AcDbEntity
  8
0
100
AcDbLine
 62
2
  6
CONTINUOUS
 10
6.8
 20
0.0
 11
6.8
 21
1.25
  0
LINE
  5
23E
100
AcDbEntity
  8
0
100
AcDbLine
 62
2
  6
CONTINUOUS
 10
6.4
 20
0.0
 11
6.4
 21
0.625
  0
LINE
  5
23F
100
AcDbEntity
  8
0
100
AcDbLine
 62
2
  6
CONTINUOUS
 10
5.9
 20
0.0
 11
5.9
 21
0.625
  0
LINE
  5
240
100
AcDbEntity
  8
0
100
AcDbLine
 62
2
  6
CONTINUOUS
 10
5.2
 20
0.0
 11
5.2
 21
0.625
  0
LINE
  5
241
100
AcDbEntity
  8
0
100
AcDbLine
 62
2
  6
CONTINUOUS
 10
4.1
 20
0.0
 11
4.1
 21
1.25
  0
LINE
  5
242
100
AcDbEntity
  8
0
100
AcDbLine
 62
2
  6
CONTINUOUS
 10
-0.0
 20
0.0
 11
-0.0
 21
1.25
  0
MTEXT
  5
243
100
AcDbEntity
  8
0
100
AcDbMText
 62
2
  6
CONTINUOUS
  7
STANDARD
 71
2
 72
1
 10
6.6
 20
0.325
 30
0.0
 11
1.0
 21
0.0
 31
0.0
 44
0.9
  1
2
 40
0.125
 41
0.2
  0
MTEXT
  5
244
100
AcDbEntity
  8
0
100
AcDbMText
 62
2
  6
CONTINUOUS
  7
STANDARD
 71
2
 72
1
 10
6.15
 20
0.325
 30
0.0
 11
1.0
 21
0.0
 31
0.0
 44
0.9
  1
C
 40
0.125
 41
0.2
  0
MTEXT
  5
245
100
AcDbEntity
  8
0
100
AcDbMText
 62
2
  6
CONTINUOUS
  7
STANDARD
 71
2
 72
1
 10
5.55
 20
0.325
 30
0.0
 11
1.0
 21
0.0
 31
0.0
 44
0.9
  1
1.000
 40
0.125
 41
1.0
  0
MTEXT
  5
246
100
AcDbEntity
  8
0
100
AcDbMText
 62
2
  6
CONTINUOUS
  7
STANDARD
 71
2
 72
1
 10
4.65
 20
0.325
 30
0.0
 11
1.0
 21
0.0
 31
0.0
 44
0.9
  1
May-17-22
 40
0.125
 41
1.8
  0
MTEXT
  5
247
100
AcDbEntity
  8
0
100
AcDbMText
 62
2
  6
CONTINUOUS
  7
STANDARD
 71
2
 72
1
 10
2.05
 20
0.4625
 30
0.0
 11
1.0
 21
0.0
 31
0.0
 44
0.9
  1
Relief manifold assembly
 40
0.125
 41
4.8
  0
MTEXT
  5
248
100
AcDbEntity
  8
0
100
AcDbMText
 62
2
  6
CONTINUOUS
  7
STANDARD
 71
1
 72
1
 10
6.45
 20
0.5625
 30
0.0
 11
1.0
 21
0.0
 31
0.0
 44
0.9
  1
SHEET
 40
0.06
 41
0.48
  0
MTEXT
  5
249
100
AcDbEntity
  8
0
100
AcDbMText
 62
2
  6
CONTINUOUS
  7
STANDARD
 71
1
 72
1
 10
5.95
 20
0.5625
 30
0.0
 11
1.0
 21
0.0
 31
0.0
 44
0.9
  1
DWG SIZE
 40
0.06
 41
0.768
  0
MTEXT
  5
24A
100
AcDbEntity
  8
0
100
AcDbMText
 62
2
  6
CONTINUOUS
  7
STANDARD
 71
1
 72
1
 10
5.25
 20
0.5625
 30
0.0
 11
1.0
 21
0.0
 31
0.0
 44
0.9
  1
SCALE
 40
0.06
 41
0.48
  0
MTEXT
  5
24B
100
AcDbEntity
  8
0
100
AcDbMText
 62
2
  6
CONTINUOUS
  7
STANDARD
 71
1
 72
1
 10
4.15
 20
0.5625
 30
0.0
 11
1.0
 21
0.0
 31
0.0
 44
0.9
  1
DATE
 40
0.06
 41
0.384
  0
MTEXT
  5
24C
100
AcDbEntity
  8
0
100
AcDbMText
 62
2
  6
CONTINUOUS
  7
STANDARD
 71
1
 72
1
 10
0.05
 20
0.5625
 30
0.0
 11
1.0
 21
0.0
 31
0.0
 44
0.9
  1
DESCRIPTION
 40
0.06
 41
1.056
  0
MTEXT
  5
24D
100
AcDbEntity
  8
0
100
AcDbMText
 62
2
  6
CONTINUOUS
  7
STANDARD
 71
2
 72
1
 10
5.45
 20
1.0375
 30
0.0
 11
1.0
 21
0.0
 31
0.0
 44
0.9
  1
ALL DIMENSIONS IN INCH\PVIEWS ARE THIRD ANGLE
 40
0.12
 41
4.224
  0
MTEXT
  5
24E
100
AcDbEntity
  8
0
100
AcDbMText
 62
2
  6
CONTINUOUS
  7
STANDARD
 71
2
 72
1
 10
2.05
 20
0.95
 30
0.0
 11
1.0
 21
0.0
 31
0.0
 44
0.9
  1
RPKCLAN-DKV
 40
0.125
 41
2.2
  0
MTEXT
  5
24F
100
AcDbEntity
  8
0
100
AcDbMText
 62
2
  6
CONTINUOUS
  7
STANDARD
 71
1
 72
1
 10
0.05
 20
1.1875
 30
0.0
 11
1.0
 21
0.0
 31
0.0
 44
0.9
  1
MODEL
 40
0.06
 41
0.48
  0
ENDBLK
  5
250
100
AcDbEntity
  8
0
  6
BYBLOCK
 62
0
100
AcDbBlockEnd
  0
BLOCK
  5
251
100
AcDbEntity
  8
0
100
AcDbBlockBegin
  2
*T2
 70
1
 10
0.0
 20
0.0
  3
*T2
  1

  0
LINE
  5
252
100
AcDbEntity
  8
0
100
AcDbLine
 62
2
  6
CONTINUOUS
 10
0.0
 20
0.0
 11
9.055
 21
0.0
  0
LINE
  5
253
100
AcDbEntity
  8
0
100
AcDbLine
 62
2
  6
CONTINUOUS
 10
0.0
 20
0.0
 11
0.0
 21
-2.594
  0
LINE
  5
254
100
AcDbEntity
  8
0
100
AcDbLine
 62
2
  6
CONTINUOUS
 10
0.0
 20
-0.344
 11
9.055
 21
-0.344
  0
LINE
  5
255
100
AcDbEntity
  8
0
100
AcDbLine
 62
2
  6
CONTINUOUS
 10
0.0
 20
-0.594
 11
9.055
 21
-0.594
  0
LINE
  5
256
100
AcDbEntity
  8
0
100
AcDbLine
 62
2
  6
CONTINUOUS
 10
0.0
 20
-0.844
 11
9.055
 21
-0.844
  0
LINE
  5
257
100
AcDbEntity
  8
0
100
AcDbLine
 62
2
  6
CONTINUOUS
 10
0.0
 20
-1.094
 11
9.055
 21
-1.094
  0
LINE
  5
258
100
AcDbEntity
  8
0
100
AcDbLine
 62
2
  6
CONTINUOUS
 10
0.0
 20
-1.344
 11
9.055
 21
-1.344
  0
LINE
  5
259
100
AcDbEntity
  8
0
100
AcDbLine
 62
2
  6
CONTINUOUS
 10
0.0
 20
-1.594
 11
9.055
 21
-1.594
  0
LINE
  5
25A
100
AcDbEntity
  8
0
100
AcDbLine
 62
2
  6
CONTINUOUS
 10
0.0
 20
-1.844
 11
9.055
 21
-1.844
  0
LINE
  5
25B
100
AcDbEntity
  8
0
100
AcDbLine
 62
2
  6
CONTINUOUS
 10
0.0
 20
-2.094
 11
9.055
 21
-2.094
  0
LINE
  5
25C
100
AcDbEntity
  8
0
100
AcDbLine
 62
2
  6
CONTINUOUS
 10
0.0
 20
-2.344
 11
9.055
 21
-2.344
  0
LINE
  5
25D
100
AcDbEntity
  8
0
100
AcDbLine
 62
2
  6
CONTINUOUS
 10
0.0
 20
-2.594
 11
9.055
 21
-2.594
  0
LINE
  5
25E
100
AcDbEntity
  8
0
100
AcDbLine
 62
2
  6
CONTINUOUS
 10
3.055
 20
0.0
 11
3.055
 21
-2.594
  0
LINE
  5
25F
100
AcDbEntity
  8
0
100
AcDbLine
 62
2
  6
CONTINUOUS
 10
9.055
 20
0.0
 11
9.055
 21
-2.594
  0
MTEXT
  5
260
100
AcDbEntity
  8
0
100
AcDbMText
 62
2
  6
CONTINUOUS
  7
STANDARD
 71
2
 72
1
 10
1.5275
 20
-0.0995
 30
0.0
 11
1.0
 21
0.0
 31
0.0
 44
0.9
  1
Technical Data
 40
0.145
 41
3.248
  0
MTEXT
  5
261
100
AcDbEntity
  8
0
100
AcDbMText
 62
2
  6
CONTINUOUS
  7
STANDARD
 71
2
 72
1
 10
4.555
 20
-0.0995
 30
0.0
 11
1.0
 21
0.0
 31
0.0
 44
0.9
  1
U.S. Units
 40
0.145
 41
2.32
  0
MTEXT
  5
262
100
AcDbEntity
  8
0
100
AcDbMText
 62
2
  6
CONTINUOUS
  7
STANDARD
 71
2
 72
1
 10
7.555
 20
-0.0995
 30
0.0
 11
1.0
 21
0.0
 31
0.0
 44
0.9
  1
Metric Units
 40
0.145
 41
2.784
  0
MTEXT
  5
263
100
AcDbEntity
  8
0
100
AcDbMText
 62
2
  6
CONTINUOUS
  7
STANDARD
 71
2
 72
1
 10
1.5275
 20
-0.4065
 30
0.0
 11
1.0
 21
0.0
 31
0.0
 44
0.9
  1
Cavity
 40
0.125
 41
1.2
  0
MTEXT
  5
264
100
AcDbEntity
  8
0
100
AcDbMText
 62
2
  6
CONTINUOUS
  7
STANDARD
 71
2
 72
1
 10
6.055
 20
-0.4065
 30
0.0
 11
1.0
 21
0.0
 31
0.0
 44
0.9
  1
T-18A
 40
0.125
 41
1.0
  0
MTEXT
  5
265
100
AcDbEntity
  8
0
100
AcDbMText
 62
2
  6
CONTINUOUS
  7
STANDARD
 71
2
 72
1
 10
1.5275
 20
-0.6565
 30
0.0
 11
1.0
 21
0.0
 31
0.0
 44
0.9
  1
Body Features
 40
0.125
 41
2.6
  0
MTEXT
  5
266
100
AcDbEntity
  8
0
100
AcDbMText
 62
2
  6
CONTINUOUS
  7
STANDARD
 71
2
 72
1
 10
6.055
 20
-0.6565
 30
0.0
 11
1.0
 21
0.0
 31
0.0
 44
0.9
  1
Out of T
 40
0.125
 41
1.6
  0
MTEXT
  5
267
100
AcDbEntity
  8
0
100
AcDbMText
 62
2
  6
CONTINUOUS
  7
STANDARD
 71
2
 72
1
 10
1.5275
 20
-0.9065
 30
0.0
 11
1.0
 21
0.0
 31
0.0
 44
0.9
  1
Body Type
 40
0.125
 41
1.8
  0
MTEXT
  5
268
100
AcDbEntity
  8
0
100
AcDbMText
 62
2
  6
CONTINUOUS
  7
STANDARD
 71
2
 72
1
 10
6.055
 20
-0.9065
 30
0.0
 11
1.0
 21
0.0
 31
0.0
 44
0.9
  1
Sandwich
 40
0.125
 41
1.6
  0
MTEXT
  5
269
100
AcDbEntity
  8
0
100
AcDbMText
 62
2
  6
CONTINUOUS
  7
STANDARD
 71
2
 72
1
 10
1.5275
 20
-1.1565
 30
0.0
 11
1.0
 21
0.0
 31
0.0
 44
0.9
  1
Interface
 40
0.125
 41
1.8
  0
MTEXT
  5
26A
100
AcDbEntity
  8
0
100
AcDbMText
 62
2
  6
CONTINUOUS
  7
STANDARD
 71
2
 72
1
 10
6.055
 20
-1.1565
 30
0.0
 11
1.0
 21
0.0
 31
0.0
 44
0.9
  1
ISO 07
 40
0.125
 41
1.2
  0
MTEXT
  5
26B
100
AcDbEntity
  8
0
100
AcDbMText
 62
2
  6
CONTINUOUS
  7
STANDARD
 71
2
 72
1
 10
1.5275
 20
-1.4065
 30
0.0
 11
1.0
 21
0.0
 31
0.0
 44
0.9
  1
Open Cavity Quantity
 40
0.125
 41
4.0
  0
MTEXT
  5
26C
100
AcDbEntity
  8
0
100
AcDbMText
 62
2
  6
CONTINUOUS
  7
STANDARD
 71
2
 72
1
 10
6.055
 20
-1.4065
 30
0.0
 11
1.0
 21
0.0
 31
0.0
 44
0.9
  1
1
 40
0.125
 41
0.2
  0
MTEXT
  5
26D
100
AcDbEntity
  8
0
100
AcDbMText
 62
2
  6
CONTINUOUS
  7
STANDARD
 71
2
 72
1
 10
1.5275
 20
-1.6565
 30
0.0
 11
1.0
 21
0.0
 31
0.0
 44
0.9
  1
Stack Height
 40
0.125
 41
2.4
  0
MTEXT
  5
26E
100
AcDbEntity
  8
0
100
AcDbMText
 62
2
  6
CONTINUOUS
  7
STANDARD
 71
2
 72
1
 10
4.555
 20
-1.6565
 30
0.0
 11
1.0
 21
0.0
 31
0.0
 44
0.9
  1
3.52 in.
 40
0.125
 41
1.6
  0
MTEXT
  5
26F
100
AcDbEntity
  8
0
100
AcDbMText
 62
2
  6
CONTINUOUS
  7
STANDARD
 71
2
 72
1
 10
7.555
 20
-1.6565
 30
0.0
 11
1.0
 21
0.0
 31
0.0
 44
0.9
  1
90 mm
 40
0.125
 41
1.0
  0
MTEXT
  5
270
100
AcDbEntity
  8
0
100
AcDbMText
 62
2
  6
CONTINUOUS
  7
STANDARD
 71
2
 72
1
 10
1.5275
 20
-1.9065
 30
0.0
 11
1.0
 21
0.0
 31
0.0
 44
0.9
  1
Weight
 40
0.125
 41
1.2
  0
MTEXT
  5
271
100
AcDbEntity
  8
0
100
AcDbMText
 62
2
  6
CONTINUOUS
  7
STANDARD
 71
2
 72
1
 10
4.555
 20
-1.9065
 30
0.0
 11
1.0
 21
0.0
 31
0.0
 44
0.9
  1
9.473 lb.
 40
0.125
 41
1.8
  0
MTEXT
  5
272
100
AcDbEntity
  8
0
100
AcDbMText
 62
2
  6
CONTINUOUS
  7
STANDARD
 71
2
 72
1
 10
7.555
 20
-1.9065
 30
0.0
 11
1.0
 21
0.0
 31
0.0
 44
0.9
  1
4,297 kg.
 40
0.125
 41
1.8
  0
MTEXT
  5
273
100
AcDbEntity
  8
0
100
AcDbMText
 62
2
  6
CONTINUOUS
  7
STANDARD
 71
2
 72
1
 10
1.5275
 20
-2.1565
 30
0.0
 11
1.0
 21
0.0
 31
0.0
 44
0.9
  1
Seal Plate Included (see notes)
 40
0.125
 41
6.2
  0
MTEXT
  5
274
100
AcDbEntity
  8
0
100
AcDbMText
 62
2
  6
CONTINUOUS
  7
STANDARD
 71
2
 72
1
 10
6.055
 20
-2.1565
 30
0.0
 11
1.0
 21
0.0
 31
0.0
 44
0.9
  1
Yes
 40
0.125
 41
0.6
  0
MTEXT
  5
275
100
AcDbEntity
  8
0
100
AcDbMText
 62
2
  6
CONTINUOUS
  7
STANDARD
 71
2
 72
1
 10
1.5275
 20
-2.4065
 30
0.0
 11
1.0
 21
0.0
 31
0.0
 44
0.9
  1
Seal Plate Included (see notes)
 40
0.125
 41
6.2
  0
MTEXT
  5
276
100
AcDbEntity
  8
0
100
AcDbMText
 62
2
  6
CONTINUOUS
  7
STANDARD
 71
2
 72
1
 10
6.055
 20
-2.4065
 30
0.0
 11
1.0
 21
0.0
 31
0.0
 44
0.9
  1
Yes
 40
0.125
 41
0.6
  0
ENDBLK
  5
277
100
AcDbEntity
  8
0
  6
BYBLOCK
 62
0
100
AcDbBlockEnd
  0
ENDSEC
  0
SECTION
  2
ENTITIES
  0
IMAGE
  5
278
100
AcDbEntity
  8
0
100
AcDbRasterImage
 62
7
  6
CONTINUOUS
 10
19.2297077316
 20
0.3094318264
 30
0.0
 11
0.0066666667
 21
0.0
 31
0.0
 12
0.0
 22
0.0066666667
 32
0.0
 13
369.0
 23
92.0
340
       33E
 70
9
280
0
281
50
282
50
283
0
360
       338
 71
1
 91
2
 14
-0.5
 24
-0.5
 14
368.5
 24
91.5
  0
INSERT
  5
279
100
AcDbEntity
  8
0
100
AcDbBlockReference
 62
2
  6
CONTINUOUS
  2
SUN_FIRST_THIRD_ANGLE_BL0
 10
20.4816717061
 20
1.2289683772
  0
ACAD_TABLE
  5
27A
100
AcDbEntity
  8
0
 62
2
  6
CONTINUOUS
100
AcDbBlockReference
  2
*T1
 10
12.42375
 20
0.30125
 30
0.0
100
AcDbTable
342
       340
343
212
 11
1.0
 21
0.0
 31
0.0
 90
6
 91
4
 92
6
 93
20
 94
0
 95
0
 96
0
 70
1
 41
0.0
141
0.525
141
0.1
141
0.525
141
0.1
142
4.1
142
1.1
142
0.7
142
0.5
142
0.4
142
2.475
171
1
172
0
173
0
174
0
175
1
176
1
 91
33
178
0
145
0.0
301
CELL_VALUE
 90
4
  1
Relief manifold assembly
304
ACVALUE_END
170
2
140
0.125
171
1
172
0
173
0
174
0
175
1
176
1
 91
33
178
0
145
0.0
301
CELL_VALUE
 90
4
  1
May-17-22
304
ACVALUE_END
170
5
140
0.125
171
1
172
0
173
0
174
0
175
1
176
1
 91
33
178
0
145
0.0
301
CELL_VALUE
 90
4
  1
1.000
304
ACVALUE_END
170
5
140
0.125
171
1
172
0
173
0
174
0
175
1
176
1
 91
33
178
0
145
0.0
301
CELL_VALUE
 90
4
  1
C
304
ACVALUE_END
170
5
140
0.125
171
1
172
0
173
0
174
0
175
1
176
1
 91
33
178
0
145
0.0
301
CELL_VALUE
 90
4
  1
2
304
ACVALUE_END
170
5
140
0.125
171
1
172
0
173
0
174
0
175
1
176
1
 91
33
178
0
145
0.0
301
CELL_VALUE
 90
4
  1
 
304
ACVALUE_END
170
1
140
0.125
171
1
172
0
173
0
174
0
175
1
176
1
 91
33
178
0
145
0.0
301
CELL_VALUE
 90
4
  1
DESCRIPTION
304
ACVALUE_END
170
1
140
0.06
171
1
172
0
173
0
174
0
175
1
176
1
 91
33
178
0
145
0.0
301
CELL_VALUE
 90
4
  1
DATE
304
ACVALUE_END
170
1
140
0.06
171
1
172
0
173
0
174
0
175
1
176
1
 91
33
178
0
145
0.0
301
CELL_VALUE
 90
4
  1
SCALE
304
ACVALUE_END
170
1
140
0.06
171
1
172
0
173
0
174
0
175
1
176
1
 91
33
178
0
145
0.0
301
CELL_VALUE
 90
4
  1
DWG SIZE
304
ACVALUE_END
170
1
140
0.06
171
1
172
0
173
0
174
0
175
1
176
1
 91
33
178
0
145
0.0
301
CELL_VALUE
 90
4
  1
SHEET
304
ACVALUE_END
170
1
140
0.06
171
1
172
0
173
0
174
0
175
1
176
1
 91
33
178
0
145
0.0
301
CELL_VALUE
 90
4
  1
 
304
ACVALUE_END
170
1
140
0.125
171
1
172
0
173
0
174
0
175
1
176
1
 91
33
178
0
145
0.0
301
CELL_VALUE
 90
4
  1
RPKCLAN-DKV
304
ACVALUE_END
170
5
140
0.125
171
1
172
0
173
0
174
0
175
4
176
1
 91
33
178
0
145
0.0
301
CELL_VALUE
 90
4
  1
ALL DIMENSIONS IN INCH\PVIEWS ARE THIRD ANGLE
304
ACVALUE_END
170
5
140
0.12
171
1
172
0
173
1
174
0
175
1
176
1
 91
1
178
0
145
0.0
170
1
171
1
172
0
173
1
174
0
175
1
176
1
 91
1
178
0
145
0.0
170
1
171
1
172
0
173
1
174
0
175
1
176
1
 91
1
178
0
145
0.0
170
5
171
1
172
0
173
0
174
0
175
1
176
1
 91
33
178
0
145
0.0
301
CELL_VALUE
 90
4
  1
 
304
ACVALUE_END
170
1
140
0.125
171
1
172
0
173
0
174
0
175
1
176
1
 91
33
178
0
145
0.0
301
CELL_VALUE
 90
4
  1
MODEL
304
ACVALUE_END
170
1
140
0.06
171
1
172
0
173
0
174
0
175
1
176
1
 91
33
178
0
145
0.0
301
CELL_VALUE
 90
4
  1
 
304
ACVALUE_END
170
1
140
0.125
171
1
172
0
173
0
174
0
175
1
176
1
 91
33
178
0
145
0.0
301
CELL_VALUE
 90
4
  1
 
304
ACVALUE_END
170
1
140
0.125
171
1
172
0
173
0
174
0
175
1
176
1
 91
33
178
0
145
0.0
301
CELL_VALUE
 90
4
  1
 
304
ACVALUE_END
170
1
140
0.125
171
1
172
0
173
0
174
0
175
1
176
1
 91
33
178
0
145
0.0
301
CELL_VALUE
 90
4
  1
 
304
ACVALUE_END
170
1
140
0.125
171
1
172
0
173
0
174
0
175
1
176
1
 91
33
178
0
145
0.0
301
CELL_VALUE
 90
4
  1
 
304
ACVALUE_END
170
1
140
0.125
  0
ACAD_TABLE
  5
27B
100
AcDbEntity
  8
0
 62
2
  6
CONTINUOUS
100
AcDbBlockReference
  2
*T2
 10
12.4237499994
 20
16.47875
 30
0.0
100
AcDbTable
342
       33F
343
213
 11
1.0
 21
0.0
 31
0.0
 90
22
 91
10
 92
3
 93
16
 94
0
 95
0
 96
0
 41
0.028
141
0.344
141
0.25
141
0.25
141
0.25
141
0.25
141
0.25
141
0.25
141
0.25
141
0.25
141
0.25
142
3.055
142
3.0
142
3.0
171
1
172
0
173
0
174
0
175
1
176
1
 91
33
178
0
145
0.0
301
CELL_VALUE
 90
4
  1
Technical Data
304
ACVALUE_END
170
5
140
0.145
171
1
172
0
173
0
174
0
175
1
176
1
 91
33
178
0
145
0.0
301
CELL_VALUE
 90
4
  1
U.S. Units
304
ACVALUE_END
170
5
140
0.145
171
1
172
0
173
0
174
0
175
1
176
1
 91
33
178
0
145
0.0
301
CELL_VALUE
 90
4
  1
Metric Units
304
ACVALUE_END
170
5
140
0.145
171
1
172
0
173
0
174
0
175
1
176
1
 91
33
178
0
145
0.0
301
CELL_VALUE
 90
4
  1
Cavity
304
ACVALUE_END
170
5
140
0.125
171
1
172
0
173
0
174
0
175
2
176
1
 91
33
178
0
145
0.0
301
CELL_VALUE
 90
4
  1
T-18A
304
ACVALUE_END
170
5
140
0.125
171
1
172
0
173
1
174
0
175
1
176
1
 91
1
178
0
145
0.0
170
1
171
1
172
0
173
0
174
0
175
1
176
1
 91
33
178
0
145
0.0
301
CELL_VALUE
 90
4
  1
Body Features
304
ACVALUE_END
170
5
140
0.125
171
1
172
0
173
0
174
0
175
2
176
1
 91
33
178
0
145
0.0
301
CELL_VALUE
 90
4
  1
Out of T
304
ACVALUE_END
170
5
140
0.125
171
1
172
0
173
1
174
0
175
1
176
1
 91
1
178
0
145
0.0
170
1
171
1
172
0
173
0
174
0
175
1
176
1
 91
33
178
0
145
0.0
301
CELL_VALUE
 90
4
  1
Body Type
304
ACVALUE_END
170
5
140
0.125
171
1
172
0
173
0
174
0
175
2
176
1
 91
33
178
0
145
0.0
301
CELL_VALUE
 90
4
  1
Sandwich
304
ACVALUE_END
170
5
140
0.125
171
1
172
0
173
1
174
0
175
1
176
1
 91
1
178
0
145
0.0
170
1
171
1
172
0
173
0
174
0
175
1
176
1
 91
33
178
0
145
0.0
301
CELL_VALUE
 90
4
  1
Interface
304
ACVALUE_END
170
5
140
0.125
171
1
172
0
173
0
174
0
175
2
176
1
 91
33
178
0
145
0.0
301
CELL_VALUE
 90
4
  1
ISO 07
304
ACVALUE_END
170
5
140
0.125
171
1
172
0
173
1
174
0
175
1
176
1
 91
1
178
0
145
0.0
170
1
171
1
172
0
173
0
174
0
175
1
176
1
 91
33
178
0
145
0.0
301
CELL_VALUE
 90
4
  1
Open Cavity Quantity
304
ACVALUE_END
170
5
140
0.125
171
1
172
0
173
0
174
0
175
2
176
1
 91
33
178
0
145
0.0
301
CELL_VALUE
 90
4
  1
1
304
ACVALUE_END
170
5
140
0.125
171
1
172
0
173
1
174
0
175
1
176
1
 91
1
178
0
145
0.0
170
1
171
1
172
0
173
0
174
0
175
1
176
1
 91
33
178
0
145
0.0
301
CELL_VALUE
 90
4
  1
Stack Height
304
ACVALUE_END
170
5
140
0.125
171
1
172
0
173
0
174
0
175
1
176
1
 91
33
178
0
145
0.0
301
CELL_VALUE
 90
4
  1
3.52 in.
304
ACVALUE_END
170
5
140
0.125
171
1
172
0
173
0
174
0
175
1
176
1
 91
33
178
0
145
0.0
301
CELL_VALUE
 90
4
  1
90 mm
304
ACVALUE_END
170
5
140
0.125
171
1
172
0
173
0
174
0
175
1
176
1
 91
33
178
0
145
0.0
301
CELL_VALUE
 90
4
  1
Weight
304
ACVALUE_END
170
5
140
0.125
171
1
172
0
173
0
174
0
175
1
176
1
 91
33
178
0
145
0.0
301
CELL_VALUE
 90
4
  1
9.473 lb.
304
ACVALUE_END
170
5
140
0.125
171
1
172
0
173
0
174
0
175
1
176
1
 91
33
178
0
145
0.0
301
CELL_VALUE
 90
4
  1
4,297 kg.
304
ACVALUE_END
170
5
140
0.125
171
1
172
0
173
0
174
0
175
1
176
1
 91
33
178
0
145
0.0
301
CELL_VALUE
 90
4
  1
Seal Plate Included (see notes)
304
ACVALUE_END
170
5
140
0.125
171
1
172
0
173
0
174
0
175
2
176
1
 91
33
178
0
145
0.0
301
CELL_VALUE
 90
4
  1
Yes
304
ACVALUE_END
170
5
140
0.125
171
1
172
0
173
1
174
0
175
1
176
1
 91
1
178
0
145
0.0
170
1
171
1
172
0
173
0
174
0
175
1
176
1
 91
33
178
0
145
0.0
301
CELL_VALUE
 90
4
  1
Seal Plate Included (see notes)
304
ACVALUE_END
170
5
140
0.125
171
1
172
0
173
0
174
0
175
2
176
1
 91
33
178
0
145
0.0
301
CELL_VALUE
 90
4
  1
Yes
304
ACVALUE_END
170
5
140
0.125
171
1
172
0
173
1
174
0
175
1
176
1
 91
1
178
0
145
0.0
170
1
  0
MTEXT
  5
27C
100
AcDbEntity
  8
0
100
AcDbMText
 62
2
  6
CONTINUOUS
  7
STANDARD
 71
1
 72
1
 10
0.52125
 20
5.75995
 30
0.0
 11
1.0
 21
0.0
 31
0.0
 44
0.6
  3
Notes\P \P1. Stack height value in technical\P   data table includes seal retainer\P   plate.\P2. Important: Carefully consider\P   the maximum system pressure. The\P   pressure rating of the manifold is\P   dependent on the manifold material,\P   wi
  3
th the port type/size a secondary\P   consideration. Manifolds\P   constructed of aluminum are not\P   rated for pressures higher than\P   3000 psi (210 bar), regardless of\P   the port type/size specified.\P3. Items without balloons are\P   shipped 
  1
loose.
 40
0.1
 41
3.04
  0
LINE
  5
27D
100
AcDbEntity
  8
0
100
AcDbLine
 62
7
  6
CONTINUOUS
 10
0.30125
 20
0.30125
 11
0.30125
 21
16.69875
  0
LINE
  5
27E
100
AcDbEntity
  8
0
100
AcDbLine
 62
7
  6
CONTINUOUS
 10
0.30125
 20
0.30125
 11
21.69875
 21
0.30125
  0
LINE
  5
27F
100
AcDbEntity
  8
0
100
AcDbLine
 62
7
  6
CONTINUOUS
 10
0.30125
 20
16.69875
 11
21.69875
 21
16.69875
  0
LINE
  5
280
100
AcDbEntity
  8
0
100
AcDbLine
 62
7
  6
CONTINUOUS
 10
21.69875
 20
0.30125
 11
21.69875
 21
16.69875
  0
LINE
  5
281
100
AcDbEntity
  8
0
100
AcDbLine
 62
7
  6
CONTINUOUS
 10
5.8982530598
 20
9.1766770989
 11
5.8978789069
 21
9.1763222764
  0
LINE
  5
282
100
AcDbEntity
  8
0
100
AcDbLine
 62
7
  6
CONTINUOUS
 10
5.9282719276
 20
9.2046154733
 11
5.9278226093
 21
9.204189376
  0
LINE
  5
283
100
AcDbEntity
  8
0
100
AcDbLine
 62
7
  6
CONTINUOUS
 10
5.8982527178
 20
9.1766767651
 11
5.9278186598
 21
9.2041936196
  0
LINE
  5
284
100
AcDbEntity
  8
0
100
AcDbLine
 62
7
  6
CONTINUOUS
 10
6.7430403488
 20
9.726253431
 11
6.6830014651
 21
9.6703755828
  0
LINE
  5
285
100
AcDbEntity
  8
0
100
AcDbLine
 62
7
  6
CONTINUOUS
 10
5.8778002402
 20
8.8817610037
 11
5.903675716
 21
8.8499457539
  0
LINE
  5
286
100
AcDbEntity
  8
0
100
AcDbLine
 62
7
  6
CONTINUOUS
 10
7.4371807226
 20
9.6642224877
 11
7.4264707882
 21
9.6460639571
  0
LINE
  5
287
100
AcDbEntity
  8
0
100
AcDbLine
 62
7
  6
CONTINUOUS
 10
6.4669748762
 20
9.2461820416
 11
6.4663262894
 21
9.2455669784
  0
LINE
  5
288
100
AcDbEntity
  8
0
100
AcDbLine
 62
7
  6
CONTINUOUS
 10
6.5224758897
 20
9.2978365198
 11
6.4669749611
 21
9.2461821207
  0
LINE
  5
289
100
AcDbEntity
  8
0
100
AcDbLine
 62
7
  6
CONTINUOUS
 10
6.3798759228
 20
9.2343245024
 11
6.3825697446
 21
9.2367151572
  0
LINE
  5
28A
100
AcDbEntity
  8
0
100
AcDbLine
 62
7
  6
CONTINUOUS
 10
6.63863914
 20
8.2208337597
 11
6.5868881884
 21
8.2844642593
  0
LINE
  5
28B
100
AcDbEntity
  8
0
100
AcDbLine
 62
7
  6
CONTINUOUS
 10
6.4444691134
 20
8.7184505326
 11
6.4314838972
 21
8.7344165346
  0
LINE
  5
28C
100
AcDbEntity
  8
0
100
AcDbLine
 62
7
  6
CONTINUOUS
 10
7.3447191185
 20
8.1623754084
 11
7.3265962702
 21
8.2059171826
  0
LINE
  5
28D
100
AcDbEntity
  8
0
100
AcDbLine
 62
7
  6
CONTINUOUS
 10
8.9594754481
 20
10.6846435054
 11
8.3670391427
 21
10.1123939437
  0
LINE
  5
28E
100
AcDbEntity
  8
0
100
AcDbLine
 62
7
  6
CONTINUOUS
 10
8.9894191505
 20
10.712510605
 11
8.3969828451
 21
10.1402610433
  0
LINE
  5
28F
100
AcDbEntity
  8
0
100
AcDbLine
 62
7
  6
CONTINUOUS
 10
8.9907922334
 20
10.713812714
 11
8.9894191505
 21
10.712510605
  0
LINE
  5
290
100
AcDbEntity
  8
0
100
AcDbLine
 62
7
  6
CONTINUOUS
 10
8.9607742602
 20
10.6858749262
 11
8.9594754481
 21
10.6846435054
  0
LINE
  5
291
100
AcDbEntity
  8
0
100
AcDbLine
 62
7
  6
CONTINUOUS
 10
8.9594754481
 20
10.6846435054
 11
8.9894070873
 21
10.7125235664
  0
LINE
  5
292
100
AcDbEntity
  8
0
100
AcDbLine
 62
7
  6
CONTINUOUS
 10
8.3670391427
 20
10.1123939437
 11
8.3969828451
 21
10.1402610433
  0
LINE
  5
293
100
AcDbEntity
  8
0
100
AcDbLine
 62
7
  6
CONTINUOUS
 10
8.3232298342
 20
6.9448319731
 11
8.2973543584
 21
6.9766472229
  0
LINE
  5
294
100
AcDbEntity
  8
0
100
AcDbLine
 62
7
  6
CONTINUOUS
 10
8.2296063432
 20
9.4667374013
 11
8.2296063432
 21
7.3532915681
  0
LINE
  5
295
100
AcDbEntity
  8
0
100
AcDbLine
 62
7
  6
CONTINUOUS
 10
8.2515266618
 20
9.4569108044
 11
8.2515266618
 21
7.3434649713
  0
LINE
  5
296
100
AcDbEntity
  8
0
100
AcDbLine
 62
7
  6
CONTINUOUS
 10
8.2296063432
 20
7.9983211611
 11
8.2120473741
 21
8.0405081648
  0
LINE
  5
297
100
AcDbEntity
  8
0
100
AcDbLine
 62
7
  6
CONTINUOUS
 10
15.250089517
 20
6.2199104637
 11
10.66194134
 21
6.5380996204
  0
LINE
  5
298
100
AcDbEntity
  8
0
100
AcDbLine
 62
7
  6
CONTINUOUS
 10
8.2296063432
 20
7.3532915681
 11
8.2515266618
 21
7.3434649713
  0
LINE
  5
299
100
AcDbEntity
  8
0
100
AcDbLine
 62
7
  6
CONTINUOUS
 10
10.66194134
 20
6.7635396227
 11
8.3581013999
 21
6.9233114652
  0
LINE
  5
29A
100
AcDbEntity
  8
0
100
AcDbLine
 62
7
  6
CONTINUOUS
 10
11.5535721973
 20
10.7800895363
 11
10.66194134
 21
9.9188402128
  0
LINE
  5
29B
100
AcDbEntity
  8
0
100
AcDbLine
 62
7
  6
CONTINUOUS
 10
8.2515266618
 20
7.3434649713
 11
10.66194134
 21
7.1763021456
  0
LINE
  5
29C
100
AcDbEntity
  8
0
100
AcDbLine
 62
7
  6
CONTINUOUS
 10
8.2296063432
 20
7.9646727825
 11
7.417893962
 21
8.0209652274
  0
LINE
  5
29D
100
AcDbEntity
  8
0
100
AcDbLine
 62
7
  6
CONTINUOUS
 10
8.2296063432
 20
7.9782280325
 11
7.4057848578
 21
8.0353602465
  0
LINE
  5
29E
100
AcDbEntity
  8
0
100
AcDbLine
 62
7
  6
CONTINUOUS
 10
10.66194134
 20
9.9188402128
 11
10.66194134
 21
6.5380996204
  0
LINE
  5
29F
100
AcDbEntity
  8
0
100
AcDbLine
 62
7
  6
CONTINUOUS
 10
7.3522113024
 20
8.1448014825
 11
6.6870994475
 21
8.1909271463
  0
LINE
  5
2A0
100
AcDbEntity
  8
0
100
AcDbLine
 62
7
  6
CONTINUOUS
 10
8.1333223786
 20
8.6002046141
 11
7.2924456801
 21
8.6585196112
  0
LINE
  5
2A1
100
AcDbEntity
  8
0
100
AcDbLine
 62
7
  6
CONTINUOUS
 10
6.4268100009
 20
8.7202032208
 11
6.4210144456
 21
8.7206051439
  0
LINE
  5
2A2
100
AcDbEntity
  8
0
100
AcDbLine
 62
7
  6
CONTINUOUS
 10
6.4392620594
 20
8.7248528777
 11
6.4325031056
 21
8.7253216127
  0
LINE
  5
2A3
100
AcDbEntity
  8
0
100
AcDbLine
 62
7
  6
CONTINUOUS
 10
6.4954795126
 20
8.7550908201
 11
6.4505596693
 21
8.7582060218
  0
LINE
  5
2A4
100
AcDbEntity
  8
0
100
AcDbLine
 62
7
  6
CONTINUOUS
 10
8.1333223786
 20
8.6523876467
 11
7.2924456801
 21
8.7107026438
  0
LINE
  5
2A5
100
AcDbEntity
  8
0
100
AcDbLine
 62
7
  6
CONTINUOUS
 10
5.9150927411
 20
8.8428998936
 11
6.1073119919
 21
8.8295694433
  0
LINE
  5
2A6
100
AcDbEntity
  8
0
100
AcDbLine
 62
7
  6
CONTINUOUS
 10
6.1440171755
 20
8.8270239302
 11
6.3258088946
 21
8.8144166316
  0
LINE
  5
2A7
100
AcDbEntity
  8
0
100
AcDbLine
 62
7
  6
CONTINUOUS
 10
8.2296063432
 20
9.4667374013
 11
8.2515266618
 21
9.4569108044
  0
LINE
  5
2A8
100
AcDbEntity
  8
0
100
AcDbLine
 62
7
  6
CONTINUOUS
 10
6.5087471964
 20
9.0675854968
 11
6.4505596693
 21
9.0716208155
  0
LINE
  5
2A9
100
AcDbEntity
  8
0
100
AcDbLine
 62
7
  6
CONTINUOUS
 10
5.9405524775
 20
9.2100181332
 11
6.1327717283
 21
9.1966876829
  0
LINE
  5
2AA
100
AcDbEntity
  8
0
100
AcDbLine
 62
7
  6
CONTINUOUS
 10
6.1694769119
 20
9.1941421697
 11
6.3512802166
 21
9.1815340677
  0
LINE
  5
2AB
100
AcDbEntity
  8
0
100
AcDbLine
 62
7
  6
CONTINUOUS
 10
6.4759987985
 20
9.2545805549
 11
6.4692398448
 21
9.2550492899
  0
LINE
  5
2AC
100
AcDbEntity
  8
0
100
AcDbLine
 62
7
  6
CONTINUOUS
 10
6.4643077648
 20
9.260904541
 11
6.4585122095
 21
9.2613064641
  0
LINE
  5
2AD
100
AcDbEntity
  8
0
100
AcDbLine
 62
7
  6
CONTINUOUS
 10
6.5414488693
 20
9.2973186814
 11
6.523287761
 21
9.2985781586
  0
LINE
  5
2AE
100
AcDbEntity
  8
0
100
AcDbLine
 62
7
  6
CONTINUOUS
 10
8.2515266618
 20
9.4569108044
 11
10.66194134
 21
9.2897479787
  0
LINE
  5
2AF
100
AcDbEntity
  8
0
100
AcDbLine
 62
7
  6
CONTINUOUS
 10
8.2298579727
 20
9.4956668346
 11
7.4057848578
 21
9.5528164992
  0
LINE
  5
2B0
100
AcDbEntity
  8
0
100
AcDbLine
 62
7
  6
CONTINUOUS
 10
8.2307669353
 20
9.5342315805
 11
7.417893962
 21
9.5906045127
  0
LINE
  5
2B1
100
AcDbEntity
  8
0
100
AcDbLine
 62
7
  6
CONTINUOUS
 10
7.4678244445
 20
9.7025353629
 11
6.795164959
 21
9.7491844567
  0
LINE
  5
2B2
100
AcDbEntity
  8
0
100
AcDbLine
 62
7
  6
CONTINUOUS
 10
8.2518179602
 20
9.7674463752
 11
7.6445723175
 21
9.8095590035
  0
LINE
  5
2B3
100
AcDbEntity
  8
0
100
AcDbLine
 62
7
  6
CONTINUOUS
 10
15.250089517
 20
9.600651056
 11
10.66194134
 21
9.9188402128
  0
LINE
  5
2B4
100
AcDbEntity
  8
0
100
AcDbLine
 62
7
  6
CONTINUOUS
 10
8.3969828451
 20
10.1402610433
 11
10.7240942519
 21
9.9788753191
  0
LINE
  5
2B5
100
AcDbEntity
  8
0
100
AcDbLine
 62
7
  6
CONTINUOUS
 10
16.1417203743
 20
10.4619003796
 11
15.250089517
 21
9.600651056
  0
LINE
  5
2B6
100
AcDbEntity
  8
0
100
AcDbLine
 62
7
  6
CONTINUOUS
 10
8.9894191505
 20
10.712510605
 11
11.3165305572
 21
10.5511248808
  0
LINE
  5
2B7
100
AcDbEntity
  8
0
100
AcDbLine
 62
7
  6
CONTINUOUS
 10
11.3363315446
 20
10.5702511669
 11
9.0283005957
 21
10.7303136569
  0
LINE
  5
2B8
100
AcDbEntity
  8
0
100
AcDbLine
 62
7
  6
CONTINUOUS
 10
11.5535721973
 20
10.7800895363
 11
16.1417203743
 21
10.4619003796
  0
LINE
  5
2B9
100
AcDbEntity
  8
0
100
AcDbLine
 62
7
  6
CONTINUOUS
 10
15.250089517
 20
9.600651056
 11
15.250089517
 21
6.2199104637
  0
LINE
  5
2BA
100
AcDbEntity
  8
0
100
AcDbLine
 62
7
  6
CONTINUOUS
 10
16.1417203743
 20
7.0811597872
 11
15.250089517
 21
6.2199104637
  0
LINE
  5
2BB
100
AcDbEntity
  8
0
100
AcDbLine
 62
7
  6
CONTINUOUS
 10
16.1417203743
 20
10.4619003796
 11
16.1417203743
 21
7.0811597872
  0
ARC
  5
2BC
100
AcDbEntity
  8
0
100
AcDbCircle
 62
7
  6
CONTINUOUS
 10
10.6503764962
 20
8.6844883313
 40
3.358033138
100
AcDbArc
 50
179.5527189095
 51
179.9995911722
  0
ARC
  5
2BD
100
AcDbEntity
  8
0
100
AcDbCircle
 62
7
  6
CONTINUOUS
 10
11.4912531945
 20
8.6261733342
 40
3.3580331378
100
AcDbArc
 50
179.5527189095
 51
179.9995911722
  0
ARC
  5
2BE
100
AcDbEntity
  8
0
100
AcDbCircle
 62
7
  6
CONTINUOUS
 10
11.4282501194
 20
8.6261718448
 40
3.2950300627
100
AcDbArc
 50
179.9995574573
 51
180.4515370429
  0
ARC
  5
2BF
100
AcDbEntity
  8
0
100
AcDbCircle
 62
7
  6
CONTINUOUS
 10
10.5873734209
 20
8.684486842
 40
3.2950300627
100
AcDbArc
 50
179.9995574573
 51
180.4515370429
  0
ARC
  5
2C0
100
AcDbEntity
  8
0
100
AcDbCircle
 62
7
  6
CONTINUOUS
 10
8.8044714286
 20
9.1254439621
 40
1.4625222763
100
AcDbArc
 50
161.4547412492
 51
163.0093233871
  0
ARC
  5
2C1
100
AcDbEntity
  8
0
100
AcDbCircle
 62
7
  6
CONTINUOUS
 10
8.3603517221
 20
8.5855481763
 40
1.1002657328
100
AcDbArc
 50
200.163709959
 51
202.6133523373
  0
ARC
  5
2C2
100
AcDbEntity
  8
0
100
AcDbCircle
 62
7
  6
CONTINUOUS
 10
6.1486529442
 20
9.1619916043
 40
0.0285280639
100
AcDbArc
 50
71.6820897922
 51
72.928913774
  0
SPLINE
  5
2C3
100
AcDbEntity
  8
0
100
AcDbSpline
 62
7
  6
CONTINUOUS
 70
0
 71
3
 72
16
 73
12
 74
0
 42
0.0000001
 43
0.0000001
 44
0.0000000001
 40
0.0
 40
0.0
 40
0.0
 40
0.0
 40
0.1081437866
 40
0.2181185162
 40
0.3316584434
 40
0.4503236725
 40
0.5120297428
 40
0.5755046288
 40
0.7082529062
 40
0.8495207503
 40
1.0
 40
1.0
 40
1.0
 40
1.0
 10
6.1694770604
 20
9.1941421549
 30
0.0
 10
6.1689585696
 20
9.1941781138
 30
0.0
 10
6.1679065221
 20
9.1941793254
 30
0.0
 10
6.1663223077
 20
9.1939676754
 30
0.0
 10
6.1647291018
 20
9.1935437929
 30
0.0
 10
6.1634131714
 20
9.1930218526
 30
0.0
 10
6.1623608093
 20
9.1925052648
 30
0.0
 10
6.1612764953
 20
9.1919035587
 30
0.0
 10
6.1599166953
 20
9.1910149751
 30
0.0
 10
6.1583068826
 20
9.1897585987
 30
0.0
 10
6.1572672082
 20
9.1888158528
 30
0.0
 10
6.1567470437
 20
9.1883134125
 30
0.0
  0
SPLINE
  5
2C4
100
AcDbEntity
  8
0
100
AcDbSpline
 62
7
  6
CONTINUOUS
 70
0
 71
3
 72
37
 73
33
 74
0
 42
0.0000001
 43
0.0000001
 44
0.0000000001
 40
0.0
 40
0.0
 40
0.0
 40
0.0
 40
0.0712714673
 40
0.1436226875
 40
0.2165527126
 40
0.2895550651
 40
0.3259253523
 40
0.3621237902
 40
0.3980876289
 40
0.4337546484
 40
0.4690632988
 40
0.5039528219
 40
0.5383634027
 40
0.5722363317
 40
0.6055141468
 40
0.6381407695
 40
0.6700616629
 40
0.701224009
 40
0.7315768786
 40
0.7610713941
 40
0.7896609329
 40
0.8173013505
 40
0.8439512033
 40
0.8695720034
 40
0.8941285412
 40
0.9175892641
 40
0.9399267031
 40
0.9611180084
 40
0.9712785425
 40
0.9811464412
 40
0.9907205182
 40
1.0
 40
1.0
 40
1.0
 40
1.0
 10
7.2576757447
 20
8.7179985782
 30
0.0
 10
7.2576757447
 20
8.7405956286
 30
0.0
 10
7.2582051791
 20
8.7861335878
 30
0.0
 10
7.260524474
 20
8.8547589641
 30
0.0
 10
7.264359929
 20
8.9238660418
 30
0.0
 10
7.2688012763
 20
8.9815001885
 30
0.0
 10
7.2730932885
 20
9.0274551341
 30
0.0
 10
7.2766664278
 20
9.0616807489
 30
0.0
 10
7.2805907949
 20
9.0956433957
 30
0.0
 10
7.2848591395
 20
9.1292802015
 30
0.0
 10
7.2894635297
 20
9.1625288404
 30
0.0
 10
7.2943954203
 20
9.1953277219
 30
0.0
 10
7.2996456494
 20
9.2276160869
 30
0.0
 10
7.3052044618
 20
9.2593341324
 30
0.0
 10
7.3110615285
 20
9.2904231196
 30
0.0
 10
7.3172059634
 20
9.3208254786
 30
0.0
 10
7.3236263443
 20
9.3504849168
 30
0.0
 10
7.330310734
 20
9.3793465308
 30
0.0
 10
7.3372467027
 20
9.4073569093
 30
0.0
 10
7.3444213455
 20
9.4344642342
 30
0.0
 10
7.3518213112
 20
9.4606183804
 30
0.0
 10
7.3594328295
 20
9.4857710161
 30
0.0
 10
7.3672417351
 20
9.5098756928
 30
0.0
 10
7.3752334975
 20
9.5328879437
 30
0.0
 10
7.3833932496
 20
9.5547653516
 30
0.0
 10
7.3917058329
 20
9.5754677496
 30
0.0
 10
7.4001557933
 20
9.5949569509
 30
0.0
 10
7.4073968104
 20
9.6103661575
 30
0.0
 10
7.4132565557
 20
9.62204847
 30
0.0
 10
7.4176142963
 20
9.630361774
 30
0.0
 10
7.4219945863
 20
9.6383459981
 30
0.0
 10
7.4249751661
 20
9.6435281259
 30
0.0
 10
7.426469817
 20
9.6460623052
 30
0.0
  0
SPLINE
  5
2C5
100
AcDbEntity
  8
0
100
AcDbSpline
 62
7
  6
CONTINUOUS
 70
0
 71
3
 72
29
 73
25
 74
0
 42
0.0000001
 43
0.0000001
 44
0.0000000001
 40
0.0
 40
0.0
 40
0.0
 40
0.0
 40
0.0779014681
 40
0.1545440669
 40
0.2297351468
 40
0.3032865103
 40
0.3750159543
 40
0.4447475596
 40
0.5123127136
 40
0.5775509265
 40
0.6403107113
 40
0.7004506811
 40
0.7294977117
 40
0.7578419891
 40
0.7854692892
 40
0.8123661996
 40
0.8385203699
 40
0.8639203741
 40
0.8885560193
 40
0.9124181862
 40
0.9354992024
 40
0.9577926809
 40
0.9792939678
 40
1.0
 40
1.0
 40
1.0
 40
1.0
 10
7.2576757447
 20
8.7179985782
 30
0.0
 10
7.2576757447
 20
8.7045110412
 30
0.0
 10
7.2578616636
 20
8.677753509
 30
0.0
 10
7.2587113076
 20
8.6379858335
 30
0.0
 10
7.2601272742
 20
8.5989877752
 30
0.0
 10
7.2621056184
 20
8.5608658798
 30
0.0
 10
7.2646408247
 20
8.52372421
 30
0.0
 10
7.2677258484
 20
8.4876641154
 30
0.0
 10
7.2713521214
 20
8.452783979
 30
0.0
 10
7.2755095643
 20
8.419178847
 30
0.0
 10
7.2801866709
 20
8.3869404455
 30
0.0
 10
7.2845554128
 20
8.3609954871
 30
0.0
 10
7.2883127714
 20
8.340996018
 30
0.0
 10
7.291219808
 20
8.326565699
 30
0.0
 10
7.2942464212
 20
8.3125405751
 30
0.0
 10
7.2973905998
 20
8.2989301918
 30
0.0
 10
7.3006501373
 20
8.2857438257
 30
0.0
 10
7.3040228513
 20
8.2729904567
 30
0.0
 10
7.307506376
 20
8.2606787596
 30
0.0
 10
7.311098389
 20
8.2488171083
 30
0.0
 10
7.3147963656
 20
8.2374135605
 30
0.0
 10
7.3185978625
 20
8.2264758347
 30
0.0
 10
7.3225001768
 20
8.216011426
 30
0.0
 10
7.3252185666
 20
8.2092272669
 30
0.0
 10
7.3265961259
 20
8.2059175473
 30
0.0
  0
SPLINE
  5
2C6
100
AcDbEntity
  8
0
100
AcDbSpline
 62
7
  6
CONTINUOUS
 70
0
 71
3
 72
47
 73
43
 74
0
 42
0.0000001
 43
0.0000001
 44
0.0000000001
 40
0.0
 40
0.0
 40
0.0
 40
0.0
 40
0.0379402837
 40
0.0762766679
 40
0.1149215869
 40
0.1537872174
 40
0.192784729
 40
0.231825057
 40
0.2708189387
 40
0.3096772915
 40
0.3483114173
 40
0.3866332534
 40
0.4245556574
 40
0.4619926766
 40
0.4988597878
 40
0.5350741631
 40
0.5705549705
 40
0.6052236499
 40
0.6390041689
 40
0.6718233548
 40
0.7036112329
 40
0.7343013375
 40
0.7638311022
 40
0.7921423103
 40
0.8191815805
 40
0.8449009382
 40
0.8572526868
 40
0.8692593094
 40
0.8809167236
 40
0.8922212808
 40
0.9031699664
 40
0.9137602801
 40
0.9239904746
 40
0.9338594443
 40
0.9433669788
 40
0.9525136961
 40
0.9613012926
 40
0.9697325543
 40
0.9778116049
 40
0.9855440212
 40
0.9929370803
 40
1.0
 40
1.0
 40
1.0
 40
1.0
 10
6.4951540586
 20
8.7944591448
 30
0.0
 10
6.4951540586
 20
8.8059597785
 30
0.0
 10
6.4953078387
 20
8.8290813831
 30
0.0
 10
6.4959893964
 20
8.8639111759
 30
0.0
 10
6.4971215982
 20
8.8990099171
 30
0.0
 10
6.4987016825
 20
8.9342919217
 30
0.0
 10
6.5007258255
 20
8.969671288
 30
0.0
 10
6.5031890915
 20
9.0050617609
 30
0.0
 10
6.506085481
 20
9.0403771014
 30
0.0
 10
6.5094079278
 20
9.0755312415
 30
0.0
 10
6.5131483236
 20
9.1104385143
 30
0.0
 10
6.5172975344
 20
9.145013852
 30
0.0
 10
6.5218454243
 20
9.1791730012
 30
0.0
 10
6.5267808792
 20
9.2128327316
 30
0.0
 10
6.5320918338
 20
9.245911035
 30
0.0
 10
6.5377652999
 20
9.2783273264
 30
0.0
 10
6.5437873986
 20
9.3100026491
 30
0.0
 10
6.5501433932
 20
9.3408598671
 30
0.0
 10
6.5568177243
 20
9.3708238527
 30
0.0
 10
6.563794047
 20
9.3998216789
 30
0.0
 10
6.5710552718
 20
9.4277828032
 30
0.0
 10
6.5785836055
 20
9.4546392516
 30
0.0
 10
6.586360595
 20
9.4803257661
 30
0.0
 10
6.5943671764
 20
9.504780078
 30
0.0
 10
6.6025837281
 20
9.5279427453
 30
0.0
 10
6.6096813719
 20
9.5463620856
 30
0.0
 10
6.6154602949
 20
9.5603994011
 30
0.0
 10
6.6197760013
 20
9.5704279763
 30
0.0
 10
6.6241290007
 20
9.5800933343
 30
0.0
 10
6.6285167356
 20
9.5893896084
 30
0.0
 10
6.6329364603
 20
9.5983111818
 30
0.0
 10
6.6373855623
 20
9.606852634
 30
0.0
 10
6.6418612692
 20
9.6150088253
 30
0.0
 10
6.6463609428
 20
9.62277481
 30
0.0
 10
6.6508818017
 20
9.6301459365
 30
0.0
 10
6.6554211894
 20
9.637117752
 30
0.0
 10
6.6599763395
 20
9.643686099
 30
0.0
 10
6.6645445914
 20
9.6498470337
 30
0.0
 10
6.6691232139
 20
9.6555968808
 30
0.0
 10
6.6737096027
 20
9.6609322532
 30
0.0
 10
6.6783009615
 20
9.6658498108
 30
0.0
 10
6.6814337211
 20
9.6689164772
 30
0.0
 10
6.6830009263
 20
9.6703750766
 30
0.0
  0
SPLINE
  5
2C7
100
AcDbEntity
  8
0
100
AcDbSpline
 62
7
  6
CONTINUOUS
 70
0
 71
3
 72
11
 73
7
 74
0
 42
0.0000001
 43
0.0000001
 44
0.0000000001
 40
0.0
 40
0.0
 40
0.0
 40
0.0
 40
0.2533265305
 40
0.5045308882
 40
0.7534672307
 40
1.0
 40
1.0
 40
1.0
 40
1.0
 10
7.4057848578
 20
8.0353602465
 30
0.0
 10
7.4001248034
 20
8.0458453587
 30
0.0
 10
7.3890666592
 20
8.0668445864
 30
0.0
 10
7.3732709968
 20
8.098572983
 30
0.0
 10
7.3584095854
 20
8.1303977707
 30
0.0
 10
7.3491300809
 20
8.1517792716
 30
0.0
 10
7.3446737202
 20
8.1624844942
 30
0.0
  0
SPLINE
  5
2C8
100
AcDbEntity
  8
0
100
AcDbSpline
 62
7
  6
CONTINUOUS
 70
0
 71
3
 72
52
 73
48
 74
0
 42
0.0000001
 43
0.0000001
 44
0.0000000001
 40
0.0
 40
0.0
 40
0.0
 40
0.0
 40
0.0076529174
 40
0.0158949673
 40
0.0247438671
 40
0.0342116282
 40
0.0443045045
 40
0.0550234094
 40
0.0663653666
 40
0.0783241505
 40
0.0908905429
 40
0.104052947
 40
0.1177974142
 40
0.1321082581
 40
0.1623557868
 40
0.1946385608
 40
0.2287768627
 40
0.2645732674
 40
0.3018153134
 40
0.3402781181
 40
0.3797265833
 40
0.4199174735
 40
0.4606016703
 40
0.5015260795
 40
0.5424356748
 40
0.5830756324
 40
0.6231931817
 40
0.6625397431
 40
0.7008730022
 40
0.7379588607
 40
0.7735737613
 40
0.8075069089
 40
0.8395627016
 40
0.8548310015
 40
0.8695650759
 40
0.883746198
 40
0.8973571239
 40
0.9103825839
 40
0.922809107
 40
0.9346256993
 40
0.9458237163
 40
0.9563976833
 40
0.9663454608
 40
0.975669193
 40
0.9843760189
 40
0.992479258
 40
1.0
 40
1.0
 40
1.0
 40
1.0
 10
5.8978789069
 20
9.1763222764
 30
0.0
 10
5.8973199509
 20
9.1757823663
 30
0.0
 10
5.8962043665
 20
9.1746134702
 30
0.0
 10
5.8945948416
 20
9.1726820287
 30
0.0
 10
5.8929910767
 20
9.1705120319
 30
0.0
 10
5.8913956352
 20
9.1681071584
 30
0.0
 10
5.8898109506
 20
9.1654711219
 30
0.0
 10
5.8882395653
 20
9.1626081468
 30
0.0
 10
5.8866840504
 20
9.1595228616
 30
0.0
 10
5.8851469754
 20
9.1562202892
 30
0.0
 10
5.8836308519
 20
9.1527058369
 30
0.0
 10
5.8821382476
 20
9.1489852699
 30
0.0
 10
5.8806715727
 20
9.1450647243
 30
0.0
 10
5.8787177567
 20
9.1394755045
 30
0.0
 10
5.8763681048
 20
9.1320325409
 30
0.0
 10
5.8737385055
 20
9.1225731718
 30
0.0
 10
5.871267046
 20
9.1124902533
 30
0.0
 10
5.8689703327
 20
9.1018505493
 30
0.0
 10
5.866863821
 20
9.0907244276
 30
0.0
 10
5.8649616522
 20
9.0791856331
 30
0.0
 10
5.8632765796
 20
9.0673106915
 30
0.0
 10
5.861819883
 20
9.0551784023
 30
0.0
 10
5.8606012979
 20
9.042869301
 30
0.0
 10
5.8596289522
 20
9.0304651124
 30
0.0
 10
5.8589093137
 20
9.0180481994
 30
0.0
 10
5.8584471467
 20
9.0057010142
 30
0.0
 10
5.858245479
 20
8.993505537
 30
0.0
 10
5.858305581
 20
8.9815427289
 30
0.0
 10
5.8586269514
 20
8.9698919815
 30
0.0
 10
5.8592073224
 20
8.958630588
 30
0.0
 10
5.8600426459
 20
8.9478331593
 30
0.0
 10
5.8611271948
 20
8.9375713016
 30
0.0
 10
5.8622497736
 20
8.9293948598
 30
0.0
 10
5.8632745415
 20
8.9231765873
 30
0.0
 10
5.8640879995
 20
8.918763934
 30
0.0
 10
5.8649573967
 20
8.9145336173
 30
0.0
 10
5.8658813328
 20
8.9104926272
 30
0.0
 10
5.866858207
 20
8.9066476355
 30
0.0
 10
5.8678864404
 20
8.9030049783
 30
0.0
 10
5.8689642595
 20
8.8995706312
 30
0.0
 10
5.8700899309
 20
8.8963502184
 30
0.0
 10
5.871261547
 20
8.8933489708
 30
0.0
 10
5.8724772427
 20
8.8905717352
 30
0.0
 10
5.8737350395
 20
8.8880229585
 30
0.0
 10
5.8750330419
 20
8.8857066048
 30
0.0
 10
5.8763691991
 20
8.883626472
 30
0.0
 10
5.8773186735
 20
8.8823531013
 30
0.0
 10
5.8778005584
 20
8.8817606147
 30
0.0
  0
SPLINE
  5
2C9
100
AcDbEntity
  8
0
100
AcDbSpline
 62
7
  6
CONTINUOUS
 70
0
 71
3
 72
61
 73
57
 74
0
 42
0.0000001
 43
0.0000001
 44
0.0000000001
 40
0.0
 40
0.0
 40
0.0
 40
0.0
 40
0.0081437817
 40
0.0169768329
 40
0.0265208852
 40
0.0367896169
 40
0.047788287
 40
0.0595158043
 40
0.0719659681
 40
0.0851282295
 40
0.0989884522
 40
0.1135292176
 40
0.1287304008
 40
0.1445694157
 40
0.1610213703
 40
0.1780595005
 40
0.1956551818
 40
0.2137781119
 40
0.251476343
 40
0.2908856373
 40
0.33171823
 40
0.3736719911
 40
0.4164336738
 40
0.4596821625
 40
0.5030917044
 40
0.5463349443
 40
0.5890861894
 40
0.631024412
 40
0.6718365631
 40
0.711220633
 40
0.7302871552
 40
0.748890218
 40
0.7669967549
 40
0.7845749878
 40
0.8015947599
 40
0.8180274983
 40
0.8338463988
 40
0.849026764
 40
0.8635460052
 40
0.8773840771
 40
0.8905237503
 40
0.9029508583
 40
0.9146550677
 40
0.9256303235
 40
0.9358757172
 40
0.9453968093
 40
0.9542069309
 40
0.9623294471
 40
0.969800494
 40
0.9766723208
 40
0.983017584
 40
0.9889330762
 40
0.9917694521
 40
0.9945466044
 40
0.997283495
 40
1.0
 40
1.0
 40
1.0
 40
1.0
 10
6.1567470437
 20
9.1883134125
 30
0.0
 10
6.156004783
 20
9.1875964437
 30
0.0
 10
6.1545241035
 20
9.18603198
 30
0.0
 10
6.1523964456
 20
9.1834275319
 30
0.0
 10
6.1502779417
 20
9.1804772767
 30
0.0
 10
6.1481727039
 20
9.177187124
 30
0.0
 10
6.1460845636
 20
9.1735632293
 30
0.0
 10
6.1440176621
 20
9.1696125942
 30
0.0
 10
6.1419760615
 20
9.1653429506
 30
0.0
 10
6.1399638227
 20
9.1607627092
 30
0.0
 10
6.1379850208
 20
9.1558809281
 30
0.0
 10
6.1360436112
 20
9.150707325
 30
0.0
 10
6.1341435196
 20
9.1452522151
 30
0.0
 10
6.1322886013
 20
9.1395264992
 30
0.0
 10
6.1304825747
 20
9.1335416461
 30
0.0
 10
6.1287291191
 20
9.1273096475
 30
0.0
 10
6.1270317482
 20
9.1208429949
 30
0.0
 10
6.1248188881
 20
9.1118061957
 30
0.0
 10
6.1222266972
 20
9.1000181936
 30
0.0
 10
6.1194296295
 20
9.0853350255
 30
0.0
 10
6.1169295274
 20
9.0700517756
 30
0.0
 10
6.1147466697
 20
9.0542911695
 30
0.0
 10
6.1128987723
 20
9.0381796741
 30
0.0
 10
6.1114007763
 20
9.021846676
 30
0.0
 10
6.1102647686
 20
9.0054233606
 30
0.0
 10
6.1094998784
 20
8.9890416441
 30
0.0
 10
6.1091121995
 20
8.9728331213
 30
0.0
 10
6.1091047124
 20
8.9569279279
 30
0.0
 10
6.1094773407
 20
8.9414538628
 30
0.0
 10
6.1101084216
 20
8.9288893299
 30
0.0
 10
6.1108075142
 20
8.9191497929
 30
0.0
 10
6.1114184034
 20
8.912107967
 30
0.0
 10
6.1121202059
 20
8.9052641674
 30
0.0
 10
6.1129115371
 20
8.8986321276
 30
0.0
 10
6.1137907585
 20
8.8922251631
 30
0.0
 10
6.1147560864
 20
8.8860561271
 30
0.0
 10
6.115805573
 20
8.8801373897
 30
0.0
 10
6.1169370527
 20
8.8744808031
 30
0.0
 10
6.1181482481
 20
8.8690976793
 30
0.0
 10
6.1194366958
 20
8.8639987594
 30
0.0
 10
6.1207997603
 20
8.8591941857
 30
0.0
 10
6.1222347244
 20
8.8546934873
 30
0.0
 10
6.1237386798
 20
8.8505055269
 30
0.0
 10
6.1253086411
 20
8.8466384862
 30
0.0
 10
6.1269415817
 20
8.8430998504
 30
0.0
 10
6.1286343774
 20
8.8398963401
 30
0.0
 10
6.1303840266
 20
8.8370339556
 30
0.0
 10
6.1321876849
 20
8.8345179705
 30
0.0
 10
6.1340427131
 20
8.832353028
 30
0.0
 10
6.1359471983
 20
8.830543459
 30
0.0
 10
6.1378988609
 20
8.8290938533
 30
0.0
 10
6.1395874785
 20
8.8281774028
 30
0.0
 10
6.1409482638
 20
8.8276416861
 30
0.0
 10
6.1419632703
 20
8.8273378019
 30
0.0
 10
6.1429859689
 20
8.8271266622
 30
0.0
 10
6.1436736143
 20
8.8270477617
 30
0.0
 10
6.144017027
 20
8.827023945
 30
0.0
  0
SPLINE
  5
2CA
100
AcDbEntity
  8
0
100
AcDbSpline
 62
7
  6
CONTINUOUS
 70
0
 71
3
 72
15
 73
11
 74
0
 42
0.0000001
 43
0.0000001
 44
0.0000000001
 40
0.0
 40
0.0
 40
0.0
 40
0.0
 40
0.1481882499
 40
0.2879001774
 40
0.419846154
 40
0.5448988292
 40
0.6641158939
 40
0.7787385988
 40
0.8901829558
 40
1.0
 40
1.0
 40
1.0
 40
1.0
 10
6.143850291
 20
9.1900509924
 30
0.0
 10
6.1434283436
 20
9.1905524507
 30
0.0
 10
6.1425774889
 20
9.191501231
 30
0.0
 10
6.1412386989
 20
9.1927903805
 30
0.0
 10
6.1398774141
 20
9.1939007133
 30
0.0
 10
6.1384945983
 20
9.1948306573
 30
0.0
 10
6.1370913961
 20
9.1955788663
 30
0.0
 10
6.135668971
 20
9.1961437761
 30
0.0
 10
6.1342293406
 20
9.1965240298
 30
0.0
 10
6.1332563789
 20
9.1966540664
 30
0.0
 10
6.1327718769
 20
9.1966876681
 30
0.0
  0
SPLINE
  5
2CB
100
AcDbEntity
  8
0
100
AcDbSpline
 62
7
  6
CONTINUOUS
 70
0
 71
3
 72
21
 73
17
 74
0
 42
0.0000001
 43
0.0000001
 44
0.0000000001
 40
0.0
 40
0.0
 40
0.0
 40
0.0
 40
0.1551059657
 40
0.3030680255
 40
0.3741149743
 40
0.4430668417
 40
0.5098226494
 40
0.5742864304
 40
0.6363697135
 40
0.6959945111
 40
0.7530968691
 40
0.8076309119
 40
0.8595715735
 40
0.9089209784
 40
0.9557087631
 40
1.0
 40
1.0
 40
1.0
 40
1.0
 10
6.4976339934
 20
8.6832631062
 30
0.0
 10
6.4946379722
 20
8.6846979681
 30
0.0
 10
6.4888130009
 20
8.6875629752
 30
0.0
 10
6.4817152968
 20
8.6912832105
 30
0.0
 10
6.4763223101
 20
8.6942754841
 30
0.0
 10
6.4724880594
 20
8.6964909635
 30
0.0
 10
6.4688178313
 20
8.6987069944
 30
0.0
 10
6.4653201208
 20
8.7009224272
 30
0.0
 10
6.4620031931
 20
8.7031358715
 30
0.0
 10
6.4588750545
 20
8.7053458983
 30
0.0
 10
6.4559432221
 20
8.7075509365
 30
0.0
 10
6.4532145797
 20
8.7097493117
 30
0.0
 10
6.4506953209
 20
8.7119394006
 30
0.0
 10
6.4483905446
 20
8.7141193997
 30
0.0
 10
6.4463046559
 20
8.7162876601
 30
0.0
 10
6.4450276263
 20
8.7177637852
 30
0.0
 10
6.4444291192
 20
8.7184997181
 30
0.0
  0
SPLINE
  5
2CC
100
AcDbEntity
  8
0
100
AcDbSpline
 62
7
  6
CONTINUOUS
 70
0
 71
3
 72
14
 73
10
 74
0
 42
0.0000001
 43
0.0000001
 44
0.0000000001
 40
0.0
 40
0.0
 40
0.0
 40
0.0
 40
0.1240656934
 40
0.2488434592
 40
0.3741450806
 40
0.4997247312
 40
0.7506618654
 40
0.8756568124
 40
1.0
 40
1.0
 40
1.0
 40
1.0
 10
6.1329780503
 20
8.8336814012
 30
0.0
 10
6.1324334799
 20
8.8335814606
 30
0.0
 10
6.1313351259
 20
8.8334125937
 30
0.0
 10
6.1296717497
 20
8.8332570889
 30
0.0
 10
6.1279951151
 20
8.8332019614
 30
0.0
 10
6.1257554662
 20
8.833263399
 30
0.0
 10
6.1235266982
 20
8.8335307117
 30
0.0
 10
6.1213421518
 20
8.8339957509
 30
0.0
 10
6.1202688636
 20
8.8342924442
 30
0.0
 10
6.1197385596
 20
8.8344558317
 30
0.0
  0
SPLINE
  5
2CD
100
AcDbEntity
  8
0
100
AcDbSpline
 62
7
  6
CONTINUOUS
 70
0
 71
3
 72
31
 73
27
 74
0
 42
0.0000001
 43
0.0000001
 44
0.0000000001
 40
0.0
 40
0.0
 40
0.0
 40
0.0
 40
0.0267730313
 40
0.0400015298
 40
0.0531142661
 40
0.0789665508
 40
0.1043734166
 40
0.1294075878
 40
0.1541989244
 40
0.1788828805
 40
0.2036153647
 40
0.2285354704
 40
0.2537789414
 40
0.3056855079
 40
0.3325457442
 40
0.3601091391
 40
0.3884302014
 40
0.4175566892
 40
0.478347709
 40
0.5426573521
 40
0.6105379992
 40
0.6819521396
 40
0.75679171
 40
0.8348922979
 40
0.9160440331
 40
1.0
 40
1.0
 40
1.0
 40
1.0
 10
6.1197385596
 20
8.8344558317
 30
0.0
 10
6.118744337
 20
8.8347621532
 30
0.0
 10
6.1172824444
 20
8.8353019941
 30
0.0
 10
6.1154089142
 20
8.8361692619
 30
0.0
 10
6.1136133791
 20
8.8371140403
 30
0.0
 10
6.1114881569
 20
8.8384410015
 30
0.0
 10
6.1091238529
 20
8.840235547
 30
0.0
 10
6.1069475733
 20
8.8421920347
 30
0.0
 10
6.1049442897
 20
8.8442857263
 30
0.0
 10
6.1030944045
 20
8.8465002706
 30
0.0
 10
6.1013801398
 20
8.8488270928
 30
0.0
 10
6.099781961
 20
8.8512608776
 30
0.0
 10
6.0977700768
 20
8.8546803977
 30
0.0
 10
6.095952027
 20
8.8582957112
 30
0.0
 10
6.0942945677
 20
8.8620809138
 30
0.0
 10
6.0931005631
 20
8.865066909
 30
0.0
 10
6.0919658197
 20
8.8681696945
 30
0.0
 10
6.0905052139
 20
8.8725263402
 30
0.0
 10
6.0888162219
 20
8.8782788306
 30
0.0
 10
6.0870109712
 20
8.8855590267
 30
0.0
 10
6.0853916664
 20
8.8933048068
 30
0.0
 10
6.0839549293
 20
8.901501943
 30
0.0
 10
6.0827001471
 20
8.910130209
 30
0.0
 10
6.0816281966
 20
8.9191640997
 30
0.0
 10
6.0807406742
 20
8.92857369
 30
0.0
 10
6.0802804386
 20
8.9349734695
 30
0.0
 10
6.0800797606
 20
8.9382296383
 30
0.0
  0
SPLINE
  5
2CE
100
AcDbEntity
  8
0
100
AcDbSpline
 62
7
  6
CONTINUOUS
 70
0
 71
3
 72
23
 73
19
 74
0
 42
0.0000001
 43
0.0000001
 44
0.0000000001
 40
0.0
 40
0.0
 40
0.0
 40
0.0
 40
0.0622067572
 40
0.1263690768
 40
0.1921003533
 40
0.2589920693
 40
0.3266202802
 40
0.3945515113
 40
0.4623484299
 40
0.5295754035
 40
0.5958041057
 40
0.6606193444
 40
0.7236252568
 40
0.7844521969
 40
0.8427647398
 40
0.8982713524
 40
0.9507370113
 40
1.0
 40
1.0
 40
1.0
 40
1.0
 10
6.0800797606
 20
8.9382296383
 30
0.0
 10
6.0798146029
 20
8.9425320418
 30
0.0
 10
6.0793940582
 20
8.9512797236
 30
0.0
 10
6.0790828744
 20
8.9645887124
 30
0.0
 10
6.0790815438
 20
8.9782259877
 30
0.0
 10
6.0793895218
 20
8.9920999202
 30
0.0
 10
6.0800043802
 20
9.0061162052
 30
0.0
 10
6.0809217391
 20
9.0201787885
 30
0.0
 10
6.0821352676
 20
9.0341910145
 30
0.0
 10
6.0836367471
 20
9.0480566854
 30
0.0
 10
6.0854161923
 20
9.0616811422
 30
0.0
 10
6.0874620478
 20
9.074972365
 30
0.0
 10
6.0897614721
 20
9.0878421195
 30
0.0
 10
6.0923007531
 20
9.1002072069
 30
0.0
 10
6.095065896
 20
9.1119907881
 30
0.0
 10
6.098043585
 20
9.1231241331
 30
0.0
 10
6.1012224394
 20
9.1335479475
 30
0.0
 10
6.1035455419
 20
9.1402061441
 30
0.0
 10
6.1047472272
 20
9.1434012781
 30
0.0
  0
SPLINE
  5
2CF
100
AcDbEntity
  8
0
100
AcDbSpline
 62
7
  6
CONTINUOUS
 70
0
 71
3
 72
13
 73
9
 74
0
 42
0.0000001
 43
0.0000001
 44
0.0000000001
 40
0.0
 40
0.0
 40
0.0
 40
0.0
 40
0.2738188542
 40
0.5277446832
 40
0.649062227
 40
0.7676146487
 40
0.8842843046
 40
1.0
 40
1.0
 40
1.0
 40
1.0
 10
6.43978396
 20
8.7240985729
 30
0.0
 10
6.438732665
 20
8.7234072411
 30
0.0
 10
6.4366247716
 20
8.7221921001
 30
0.0
 10
6.4338399563
 20
8.7210878992
 30
0.0
 10
6.431639346
 20
8.7205244592
 30
0.0
 10
6.4300204486
 20
8.7202583708
 30
0.0
 10
6.4284097943
 20
8.7201428572
 30
0.0
 10
6.4273403437
 20
8.7201664365
 30
0.0
 10
6.426809888
 20
8.7202032318
 30
0.0
  0
SPLINE
  5
2D0
100
AcDbEntity
  8
0
100
AcDbSpline
 62
7
  6
CONTINUOUS
 70
0
 71
3
 72
16
 73
12
 74
0
 42
0.0000001
 43
0.0000001
 44
0.0000000001
 40
0.0
 40
0.0
 40
0.0
 40
0.0
 40
0.059386229
 40
0.1193173097
 40
0.240973493
 40
0.3646235457
 40
0.4898911294
 40
0.6163955922
 40
0.7437882008
 40
0.8717571663
 40
1.0
 40
1.0
 40
1.0
 40
1.0
 10
6.3825697449
 20
9.2367151829
 30
0.0
 10
6.3838273831
 20
9.2377325373
 30
0.0
 10
6.3863957796
 20
9.2397259239
 30
0.0
 10
6.391745035
 20
9.2435323028
 30
0.0
 10
6.3988243665
 20
9.2479143804
 30
0.0
 10
6.4078600513
 20
9.2524445817
 30
0.0
 10
6.4174011369
 20
9.2561664318
 30
0.0
 10
6.4273524161
 20
9.2589895984
 30
0.0
 10
6.4376044843
 20
9.2608446371
 30
0.0
 10
6.4480360921
 20
9.2616833705
 30
0.0
 10
6.4550273966
 20
9.2615481367
 30
0.0
 10
6.4585122095
 20
9.2613064641
 30
0.0
  0
SPLINE
  5
2D1
100
AcDbEntity
  8
0
100
AcDbSpline
 62
7
  6
CONTINUOUS
 70
0
 71
3
 72
9
 73
5
 74
0
 42
0.0000001
 43
0.0000001
 44
0.0000000001
 40
0.0
 40
0.0
 40
0.0
 40
0.0
 40
0.5137008699
 40
1.0
 40
1.0
 40
1.0
 40
1.0
 10
7.4057848578
 20
8.0353602465
 30
0.0
 10
7.4077149941
 20
8.0327797114
 30
0.0
 10
7.411605068
 20
8.0278537075
 30
0.0
 10
7.4157853635
 20
8.0231697868
 30
0.0
 10
7.417893962
 20
8.0209652274
 30
0.0
  0
SPLINE
  5
2D2
100
AcDbEntity
  8
0
100
AcDbSpline
 62
7
  6
CONTINUOUS
 70
0
 71
3
 72
57
 73
53
 74
0
 42
0.0000001
 43
0.0000001
 44
0.0000000001
 40
0.0
 40
0.0
 40
0.0
 40
0.0
 40
0.0071284018
 40
0.0148269955
 40
0.0231250263
 40
0.0320422081
 40
0.0415906664
 40
0.0517762738
 40
0.0626000079
 40
0.0740586526
 40
0.08614548
 40
0.09885088
 40
0.11216256
 40
0.1260660318
 40
0.140544792
 40
0.1555804723
 40
0.1711531727
 40
0.1872414234
 40
0.2038224236
 40
0.220872182
 40
0.2562752659
 40
0.2932382605
 40
0.3315337241
 40
0.3709226237
 40
0.4111567097
 40
0.4519807321
 40
0.4931345877
 40
0.5343555086
 40
0.5753801668
 40
0.6159468471
 40
0.6557975378
 40
0.6946801596
 40
0.732350714
 40
0.7685755682
 40
0.7860766937
 40
0.8031347505
 40
0.8197245047
 40
0.8358219201
 40
0.8514041998
 40
0.8664498355
 40
0.8809388939
 40
0.8948529902
 40
0.908175567
 40
0.9208921208
 40
0.9329902995
 40
0.9444604276
 40
0.955295767
 40
0.9654930135
 40
0.9750529694
 40
0.9839814981
 40
0.9922910127
 40
1.0
 40
1.0
 40
1.0
 40
1.0
 10
6.3491934665
 20
8.7554438673
 30
0.0
 10
6.348388459
 20
8.7563042705
 30
0.0
 10
6.3467998763
 20
8.7581753083
 30
0.0
 10
6.3445634159
 20
8.761279029
 30
0.0
 10
6.3423878391
 20
8.7647788422
 30
0.0
 10
6.3402765749
 20
8.7686688697
 30
0.0
 10
6.3382327823
 20
8.7729430144
 30
0.0
 10
6.3362597096
 20
8.7775942999
 30
0.0
 10
6.3343606334
 20
8.7826151171
 30
0.0
 10
6.3325387291
 20
8.7879971391
 30
0.0
 10
6.3307970602
 20
8.7937313788
 30
0.0
 10
6.3291386379
 20
8.7998082194
 30
0.0
 10
6.3275662662
 20
8.8062174163
 30
0.0
 10
6.3260826579
 20
8.8129481417
 30
0.0
 10
6.3246903769
 20
8.8199889999
 30
0.0
 10
6.3233917882
 20
8.8273280488
 30
0.0
 10
6.3221891567
 20
8.8349528312
 30
0.0
 10
6.3210845415
 20
8.8428503866
 30
0.0
 10
6.3200798151
 20
8.8510072999
 30
0.0
 10
6.3188604856
 20
8.8623531538
 30
0.0
 10
6.3176083208
 20
8.8770819732
 30
0.0
 10
6.3165444679
 20
8.8953444945
 30
0.0
 10
6.3159088765
 20
8.9142860491
 30
0.0
 10
6.3157060673
 20
8.9337777249
 30
0.0
 10
6.3159376239
 20
8.9536869702
 30
0.0
 10
6.3166021002
 20
8.9738782984
 30
0.0
 10
6.3176950609
 20
8.9942142904
 30
0.0
 10
6.3192090939
 20
9.0145565231
 30
0.0
 10
6.3211338808
 20
9.0347665346
 30
0.0
 10
6.3234562649
 20
9.0547067736
 30
0.0
 10
6.3261603475
 20
9.0742415416
 30
0.0
 10
6.32922756
 20
9.0932379879
 30
0.0
 10
6.3326368543
 20
9.1115668288
 30
0.0
 10
6.3357783485
 20
9.1263458297
 30
0.0
 10
6.3384525698
 20
9.1377365745
 30
0.0
 10
6.3405055778
 20
9.1459384203
 30
0.0
 10
6.3426254327
 20
9.153883353
 30
0.0
 10
6.3448085183
 20
9.1615578724
 30
0.0
 10
6.3470510841
 20
9.1689489319
 30
0.0
 10
6.3493493235
 20
9.1760439714
 30
0.0
 10
6.3516992715
 20
9.182830955
 30
0.0
 10
6.354096928
 20
9.1892983744
 30
0.0
 10
6.3565382009
 20
9.1954352821
 30
0.0
 10
6.3590188942
 20
9.2012313219
 30
0.0
 10
6.361534821
 20
9.2066767205
 30
0.0
 10
6.3640816824
 20
9.211762356
 30
0.0
 10
6.3666551832
 20
9.2164797475
 30
0.0
 10
6.3692510618
 20
9.2208210584
 30
0.0
 10
6.3718649571
 20
9.2247791726
 30
0.0
 10
6.374492838
 20
9.2283477863
 30
0.0
 10
6.3771303575
 20
9.2315207888
 30
0.0
 10
6.378959419
 20
9.2334392276
 30
0.0
 10
6.3798759228
 20
9.2343245024
 30
0.0
  0
SPLINE
  5
2D3
100
AcDbEntity
  8
0
100
AcDbSpline
 62
7
  6
CONTINUOUS
 70
0
 71
3
 72
16
 73
12
 74
0
 42
0.0000001
 43
0.0000001
 44
0.0000000001
 40
0.0
 40
0.0
 40
0.0
 40
0.0
 40
0.1282422029
 40
0.2562109462
 40
0.3836034675
 40
0.5101080181
 40
0.6353757837
 40
0.7590262218
 40
0.8806823713
 40
0.9406144552
 40
1.0
 40
1.0
 40
1.0
 40
1.0
 10
6.4210144456
 20
8.7206051439
 30
0.0
 10
6.4175296499
 20
8.7208468153
 30
0.0
 10
6.4105866283
 20
8.7216779296
 30
0.0
 10
6.4003706803
 20
8.7239485645
 30
0.0
 10
6.3904728204
 20
8.7272009964
 30
0.0
 10
6.3810064964
 20
8.7313707732
 30
0.0
 10
6.3720704775
 20
8.7363740144
 30
0.0
 10
6.3637466141
 20
8.742108115
 30
0.0
 10
6.3573399032
 20
8.7474254652
 30
0.0
 10
6.3525672776
 20
8.7519338131
 30
0.0
 10
6.350298619
 20
8.754262653
 30
0.0
 10
6.3491934649
 20
8.7554438549
 30
0.0
  0
SPLINE
  5
2D4
100
AcDbEntity
  8
0
100
AcDbSpline
 62
7
  6
CONTINUOUS
 70
0
 71
3
 72
23
 73
19
 74
0
 42
0.0000001
 43
0.0000001
 44
0.0000000001
 40
0.0
 40
0.0
 40
0.0
 40
0.0
 40
0.0644622464
 40
0.129563496
 40
0.1951110711
 40
0.2609094918
 40
0.3267628585
 40
0.3924749162
 40
0.4578499801
 40
0.5226936149
 40
0.5868134428
 40
0.6500198255
 40
0.7121266717
 40
0.7729521911
 40
0.8323196521
 40
0.8900582495
 40
0.9460038912
 40
1.0
 40
1.0
 40
1.0
 40
1.0
 10
8.1333223786
 20
8.6523876467
 30
0.0
 10
8.1334545687
 20
8.6693655961
 30
0.0
 10
8.1339756814
 20
8.7034883097
 30
0.0
 10
8.1355073933
 20
8.7548567196
 30
0.0
 10
8.1377889345
 20
8.8065496493
 30
0.0
 10
8.1408131135
 20
8.8584028362
 30
0.0
 10
8.1445703185
 20
8.9102515087
 30
0.0
 10
8.1490486181
 20
8.9619309665
 30
0.0
 10
8.1542337628
 20
9.0132770287
 30
0.0
 10
8.1601092455
 20
9.0641265877
 30
0.0
 10
8.1666563437
 20
9.114318119
 30
0.0
 10
8.1738541844
 20
9.1636922092
 30
0.0
 10
8.181679808
 20
9.2120920566
 30
0.0
 10
8.1901082416
 20
9.2593639871
 30
0.0
 10
8.1991125701
 20
9.3053579186
 30
0.0
 10
8.2086640467
 20
9.3499279696
 30
0.0
 10
8.2187320806
 20
9.3929324467
 30
0.0
 10
8.225900683
 20
9.4209908413
 30
0.0
 10
8.2295735824
 20
9.4347302083
 30
0.0
  0
SPLINE
  5
2D5
100
AcDbEntity
  8
0
100
AcDbSpline
 62
7
  6
CONTINUOUS
 70
0
 71
3
 72
14
 73
10
 74
0
 42
0.0000001
 43
0.0000001
 44
0.0000000001
 40
0.0
 40
0.0
 40
0.0
 40
0.0
 40
0.1156281703
 40
0.2322171866
 40
0.3507026522
 40
0.4719719465
 40
0.5968466286
 40
0.7260733667
 40
1.0
 40
1.0
 40
1.0
 40
1.0
 10
6.4643078778
 20
9.2609045299
 30
0.0
 10
6.464840472
 20
9.2608675863
 30
0.0
 10
6.4659072436
 20
9.2607425874
 30
0.0
 10
6.4674928747
 20
9.2604035682
 30
0.0
 10
6.4690657132
 20
9.2599130395
 30
0.0
 10
6.470624484
 20
9.2592715974
 30
0.0
 10
6.4721684345
 20
9.2584798451
 30
0.0
 10
6.4742457752
 20
9.2572001844
 30
0.0
 10
6.4757186064
 20
9.256049581
 30
0.0
 10
6.4766676479
 20
9.2552135502
 30
0.0
  0
SPLINE
  5
2D6
100
AcDbEntity
  8
0
100
AcDbSpline
 62
7
  6
CONTINUOUS
 70
0
 71
3
 72
15
 73
11
 74
0
 42
0.0000001
 43
0.0000001
 44
0.0000000001
 40
0.0
 40
0.0
 40
0.0
 40
0.0
 40
0.1492672141
 40
0.2897012473
 40
0.4220200109
 40
0.5471147117
 40
0.666075858
 40
0.7801954611
 40
0.890958218
 40
1.0
 40
1.0
 40
1.0
 40
1.0
 10
5.9036756365
 20
8.8499458655
 30
0.0
 10
5.9041088302
 20
8.8494132252
 30
0.0
 10
5.9049825597
 20
8.8484055412
 30
0.0
 10
5.9063599394
 20
8.8470351179
 30
0.0
 10
5.9077615889
 20
8.8458550054
 30
0.0
 10
5.90918648
 20
8.8448669344
 30
0.0
 10
5.9106334121
 20
8.8440724406
 30
0.0
 10
5.9121011361
 20
8.8434732699
 30
0.0
 10
5.9135874639
 20
8.8430710198
 30
0.0
 10
5.9145926381
 20
8.8429345649
 30
0.0
 10
5.9150929779
 20
8.8428998817
 30
0.0
  0
SPLINE
  5
2D7
100
AcDbEntity
  8
0
100
AcDbSpline
 62
7
  6
CONTINUOUS
 70
0
 71
3
 72
15
 73
11
 74
0
 42
0.0000001
 43
0.0000001
 44
0.0000000001
 40
0.0
 40
0.0
 40
0.0
 40
0.0
 40
0.1090405687
 40
0.2198026389
 40
0.333922492
 40
0.452881593
 40
0.577973832
 40
0.7102931247
 40
0.8507377993
 40
1.0
 40
1.0
 40
1.0
 40
1.0
 10
5.9405522407
 20
9.2100181452
 30
0.0
 10
5.940051917
 20
9.2100528273
 30
0.0
 10
5.9390375616
 20
9.2100564002
 30
0.0
 10
5.9375099787
 20
9.2098631362
 30
0.0
 10
5.9359736647
 20
9.2094722267
 30
0.0
 10
5.9344309586
 20
9.2088851073
 30
0.0
 10
5.9328833954
 20
9.208103149
 30
0.0
 10
5.9313322501
 20
9.2071278335
 30
0.0
 10
5.929778953
 20
9.2059605896
 30
0.0
 10
5.9287744738
 20
9.2050831843
 30
0.0
 10
5.9282719276
 20
9.2046154682
 30
0.0
  0
SPLINE
  5
2D8
100
AcDbEntity
  8
0
100
AcDbSpline
 62
7
  6
CONTINUOUS
 70
0
 71
3
 72
15
 73
11
 74
0
 42
0.0000001
 43
0.0000001
 44
0.0000000001
 40
0.0
 40
0.0
 40
0.0
 40
0.0
 40
0.1097932702
 40
0.2212164118
 40
0.3358238187
 40
0.4550304101
 40
0.5800807709
 40
0.7120360647
 40
0.8517784839
 40
1.0
 40
1.0
 40
1.0
 40
1.0
 10
6.1073118434
 20
8.8295694581
 30
0.0
 10
6.1077968221
 20
8.8295358234
 30
0.0
 10
6.1087794022
 20
8.8295303348
 30
0.0
 10
6.1102592334
 20
8.8297086219
 30
0.0
 10
6.1117474971
 20
8.8300726125
 30
0.0
 10
6.1132420544
 20
8.8306210483
 30
0.0
 10
6.1147414662
 20
8.83135274
 30
0.0
 10
6.1162445391
 20
8.8322663646
 30
0.0
 10
6.1177499644
 20
8.8333606562
 30
0.0
 10
6.1187246217
 20
8.8341845493
 30
0.0
 10
6.1192122303
 20
8.8346238248
 30
0.0
  0
SPLINE
  5
2D9
100
AcDbEntity
  8
0
100
AcDbSpline
 62
7
  6
CONTINUOUS
 70
0
 71
3
 72
21
 73
17
 74
0
 42
0.0000001
 43
0.0000001
 44
0.0000000001
 40
0.0
 40
0.0
 40
0.0
 40
0.0
 40
0.1492275307
 40
0.2205022362
 40
0.2896525847
 40
0.3567727834
 40
0.4219687022
 40
0.4853578337
 40
0.5470696139
 40
0.6659997887
 40
0.7235857189
 40
0.7801401171
 40
0.8358542951
 40
0.8909290192
 40
0.9455728981
 40
1.0
 40
1.0
 40
1.0
 40
1.0
 10
6.7430399266
 20
9.7262530278
 30
0.0
 10
6.7451730794
 20
9.7282383647
 30
0.0
 10
6.7484194877
 20
9.7310741829
 30
0.0
 10
6.7528820543
 20
9.7345513857
 30
0.0
 10
6.7561751002
 20
9.736915969
 30
0.0
 10
6.7594645014
 20
9.7390763431
 30
0.0
 10
6.7627494258
 20
9.7410319434
 30
0.0
 10
6.7660292679
 20
9.7427822775
 30
0.0
 10
6.7703402691
 20
9.7448161664
 30
0.0
 10
6.774698558
 20
9.7464746788
 30
0.0
 10
6.7790785707
 20
9.7477195823
 30
0.0
 10
6.7823193613
 20
9.7484358225
 30
0.0
 10
6.7855495514
 20
9.7489440919
 30
0.0
 10
6.7887683618
 20
9.7492441635
 30
0.0
 10
6.7919745894
 20
9.7493358522
 30
0.0
 10
6.7941048735
 20
9.7492579659
 30
0.0
 10
6.795165169
 20
9.7491844342
 30
0.0
  0
SPLINE
  5
2DA
100
AcDbEntity
  8
0
100
AcDbSpline
 62
7
  6
CONTINUOUS
 70
0
 71
3
 72
34
 73
30
 74
0
 42
0.0000001
 43
0.0000001
 44
0.0000000001
 40
0.0
 40
0.0
 40
0.0
 40
0.0
 40
0.0162143145
 40
0.0334273218
 40
0.0516716281
 40
0.0709707033
 40
0.0913401666
 40
0.1127892015
 40
0.1353214596
 40
0.1589357539
 40
0.1836268961
 40
0.2093860081
 40
0.2362010564
 40
0.2640572467
 40
0.2929371163
 40
0.3228209849
 40
0.3536870387
 40
0.3855114877
 40
0.4182688608
 40
0.4519319443
 40
0.4864720243
 40
0.5218589894
 40
0.5580613132
 40
0.5950463136
 40
0.6712265437
 40
0.750117256
 40
0.8314196724
 40
0.9148212124
 40
1.0
 40
1.0
 40
1.0
 40
1.0
 10
6.5868886145
 20
8.2844637397
 30
0.0
 10
6.5850992922
 20
8.2866637909
 30
0.0
 10
6.5815610412
 20
8.2913233242
 30
0.0
 10
6.5765151
 20
8.298825489
 30
0.0
 10
6.5715800599
 20
8.3070371119
 30
0.0
 10
6.5667610514
 20
8.3159495261
 30
0.0
 10
6.5620626811
 20
8.3255537928
 30
0.0
 10
6.5574897463
 20
8.3358400866
 30
0.0
 10
6.553046947
 20
8.3467978584
 30
0.0
 10
6.548738849
 20
8.3584157787
 30
0.0
 10
6.5445699996
 20
8.3706818106
 30
0.0
 10
6.5405447531
 20
8.3835831811
 30
0.0
 10
6.5366673418
 20
8.397106428
 30
0.0
 10
6.5329418974
 20
8.4112374177
 30
0.0
 10
6.5293723199
 20
8.4259613437
 30
0.0
 10
6.525962414
 20
8.4412627656
 30
0.0
 10
6.5227157983
 20
8.4571256187
 30
0.0
 10
6.5196358865
 20
8.4735332349
 30
0.0
 10
6.5167259808
 20
8.490468369
 30
0.0
 10
6.513989143
 20
8.5079132076
 30
0.0
 10
6.511428274
 20
8.525849396
 30
0.0
 10
6.5090461218
 20
8.5442580486
 30
0.0
 10
6.5068451516
 20
8.5631198042
 30
0.0
 10
6.5041286068
 20
8.589102539
 30
0.0
 10
6.501217106
 20
8.6225690543
 30
0.0
 10
6.4985114143
 20
8.6638240657
 30
0.0
 10
6.4965722395
 20
8.7063864581
 30
0.0
 10
6.4954079128
 20
8.7500768829
 30
0.0
 10
6.4951540586
 20
8.7795616863
 30
0.0
 10
6.4951540586
 20
8.7944591448
 30
0.0
  0
SPLINE
  5
2DB
100
AcDbEntity
  8
0
100
AcDbSpline
 62
7
  6
CONTINUOUS
 70
0
 71
3
 72
29
 73
25
 74
0
 42
0.0000001
 43
0.0000001
 44
0.0000000001
 40
0.0
 40
0.0
 40
0.0
 40
0.0
 40
0.0208817866
 40
0.0425380993
 40
0.0649661837
 40
0.0881617519
 40
0.1121190313
 40
0.136830968
 40
0.1622892689
 40
0.1884845485
 40
0.2154063812
 40
0.2430433924
 40
0.2713833252
 40
0.3004130717
 40
0.3604847187
 40
0.4231398263
 40
0.4882482027
 40
0.5556701975
 40
0.625257669
 40
0.6968548726
 40
0.7702991393
 40
0.8454217425
 40
0.9220483199
 40
1.0
 40
1.0
 40
1.0
 40
1.0
 10
8.2120474275
 20
8.0405080488
 30
0.0
 10
8.2105279938
 20
8.0441586152
 30
0.0
 10
8.2075280849
 20
8.0516351299
 30
0.0
 10
8.2032148748
 20
8.0631571762
 30
0.0
 10
8.199008892
 20
8.0751839449
 30
0.0
 10
8.1949128691
 20
8.0877077478
 30
0.0
 10
8.1909293774
 20
8.1007206965
 30
0.0
 10
8.1870609708
 20
8.1142145524
 30
0.0
 10
8.1833101026
 20
8.1281807714
 30
0.0
 10
8.179679172
 20
8.1426105001
 30
0.0
 10
8.1761704917
 20
8.1574945877
 30
0.0
 10
8.1727863064
 20
8.1728235853
 30
0.0
 10
8.1695287541
 20
8.1885877801
 30
0.0
 10
8.1653089253
 20
8.2104228249
 30
0.0
 10
8.1603811928
 20
8.2387365836
 30
0.0
 10
8.1550693453
 20
8.2739086194
 30
0.0
 10
8.1503074357
 20
8.3105631751
 30
0.0
 10
8.1461077242
 20
8.3486070741
 30
0.0
 10
8.1424810694
 20
8.38794378
 30
0.0
 10
8.1394368392
 20
8.4284733506
 30
0.0
 10
8.1369829007
 20
8.4700927941
 30
0.0
 10
8.1351256088
 20
8.5126963206
 30
0.0
 10
8.1338697725
 20
8.5561755219
 30
0.0
 10
8.1334390577
 20
8.5854442333
 30
0.0
 10
8.1333223786
 20
8.6002046141
 30
0.0
  0
SPLINE
  5
2DC
100
AcDbEntity
  8
0
100
AcDbSpline
 62
7
  6
CONTINUOUS
 70
0
 71
3
 72
21
 73
17
 74
0
 42
0.0000001
 43
0.0000001
 44
0.0000000001
 40
0.0
 40
0.0
 40
0.0
 40
0.0
 40
0.0544272357
 40
0.1090713107
 40
0.1641461913
 40
0.2198604706
 40
0.2764151207
 40
0.3340012023
 40
0.4529315569
 40
0.5146434581
 40
0.5780323987
 40
0.6432283708
 40
0.7103486112
 40
0.7794985694
 40
0.8507730909
 40
1.0
 40
1.0
 40
1.0
 40
1.0
 10
6.6870992375
 20
8.1909271688
 30
0.0
 10
6.6860389662
 20
8.1910006989
 30
0.0
 10
6.6839183707
 20
8.1912176129
 30
0.0
 10
6.6807555735
 20
8.1917510513
 30
0.0
 10
6.6776090708
 20
8.1924925505
 30
0.0
 10
6.6744800248
 20
8.1934417953
 30
0.0
 10
6.6713692107
 20
8.1945985446
 30
0.0
 10
6.6672030629
 20
8.196436083
 30
0.0
 10
6.6631155158
 20
8.1986802529
 30
0.0
 10
6.6591266405
 20
8.2012896918
 30
0.0
 10
6.6561198499
 20
8.2034759075
 30
0.0
 10
6.6531363928
 20
8.2058661662
 30
0.0
 10
6.6501767707
 20
8.2084598461
 30
0.0
 10
6.6472416874
 20
8.211256232
 30
0.0
 10
6.6433019217
 20
8.2153160111
 30
0.0
 10
6.6404781004
 20
8.2185726931
 30
0.0
 10
6.6386394452
 20
8.2208333898
 30
0.0
  0
SPLINE
  5
2DD
100
AcDbEntity
  8
0
100
AcDbSpline
 62
7
  6
CONTINUOUS
 70
0
 71
3
 72
23
 73
19
 74
0
 42
0.0000001
 43
0.0000001
 44
0.0000000001
 40
0.0
 40
0.0
 40
0.0
 40
0.0
 40
0.0444388948
 40
0.0908365065
 40
0.1394169982
 40
0.1903681829
 40
0.2438357536
 40
0.2999204294
 40
0.3586779157
 40
0.420121313
 40
0.4842254183
 40
0.5509322865
 40
0.620157442
 40
0.6917961818
 40
0.7657295404
 40
0.8418296042
 40
0.9199641136
 40
1.0
 40
1.0
 40
1.0
 40
1.0
 10
7.4370701561
 20
9.6640349993
 30
0.0
 10
7.4390043104
 20
9.6673153242
 30
0.0
 10
7.4432090137
 20
9.6738753087
 30
0.0
 10
7.4503422809
 20
9.6834695366
 30
0.0
 10
7.4584429207
 20
9.6930069438
 30
0.0
 10
7.4675175745
 20
9.7024796725
 30
0.0
 10
7.477564833
 20
9.7118815055
 30
0.0
 10
7.4885744945
 20
9.7212067155
 30
0.0
 10
7.500528109
 20
9.7304505133
 30
0.0
 10
7.5133996145
 20
9.7396090243
 30
0.0
 10
7.527156353
 20
9.7486793761
 30
0.0
 10
7.5417602801
 20
9.7576597135
 30
0.0
 10
7.5571692903
 20
9.7665491845
 30
0.0
 10
7.5733385496
 20
9.7753478844
 30
0.0
 10
7.5902217405
 20
9.7840567639
 30
0.0
 10
7.607772192
 20
9.7926775274
 30
0.0
 10
7.6259437264
 20
9.8012124733
 30
0.0
 10
7.6383006405
 20
9.8067832539
 30
0.0
 10
7.6445723175
 20
9.8095590035
 30
0.0
  0
SPLINE
  5
2DE
100
AcDbEntity
  8
0
100
AcDbSpline
 62
7
  6
CONTINUOUS
 70
0
 71
3
 72
32
 73
28
 74
0
 42
0.0000001
 43
0.0000001
 44
0.0000000001
 40
0.0
 40
0.0
 40
0.0
 40
0.0
 40
0.074813162
 40
0.1465370566
 40
0.2152438475
 40
0.2810687114
 40
0.3442316116
 40
0.4050379939
 40
0.4346919065
 40
0.4639266077
 40
0.492814089
 40
0.5214366523
 40
0.5782351014
 40
0.6066132393
 40
0.6351105603
 40
0.663811128
 40
0.6928069058
 40
0.7221611137
 40
0.75191819
 40
0.7820946902
 40
0.8126712776
 40
0.8435980907
 40
0.8747933942
 40
0.9061520062
 40
0.9375536869
 40
0.9688756968
 40
1.0
 40
1.0
 40
1.0
 40
1.0
 10
6.1047472272
 20
9.1434012781
 30
0.0
 10
6.1054216274
 20
9.1451944255
 30
0.0
 10
6.1067902887
 20
9.1486890242
 30
0.0
 10
6.1089572859
 20
9.1537580363
 30
0.0
 10
6.1111997389
 20
9.1585413233
 30
0.0
 10
6.1135252022
 20
9.1630397152
 30
0.0
 10
6.1159472466
 20
9.167255324
 30
0.0
 10
6.118078485
 20
9.1705645298
 30
0.0
 10
6.1198525346
 20
9.1730645673
 30
0.0
 10
6.1212111119
 20
9.174855746
 30
0.0
 10
6.1226142411
 20
9.1765785034
 30
0.0
 10
6.124547604
 20
9.1787768788
 30
0.0
 10
6.1266041887
 20
9.1808479213
 30
0.0
 10
6.1288002906
 20
9.1827601204
 30
0.0
 10
6.1305261894
 20
9.1841122582
 30
0.0
 10
6.1323389591
 20
9.1853736828
 30
0.0
 10
6.1342442416
 20
9.1865336786
 30
0.0
 10
6.1362455105
 20
9.1875792332
 30
0.0
 10
6.1383432754
 20
9.1884937205
 30
0.0
 10
6.1405329779
 20
9.1892602884
 30
0.0
 10
6.1428053957
 20
9.1898599741
 30
0.0
 10
6.1451451106
 20
9.1902767325
 30
0.0
 10
6.1475318693
 20
9.1904952324
 30
0.0
 10
6.1499408466
 20
9.1905075507
 30
0.0
 10
6.152344924
 20
9.1903082766
 30
0.0
 10
6.1547165307
 20
9.1899023442
 30
0.0
 10
6.1562656846
 20
9.1894967253
 30
0.0
 10
6.1570275843
 20
9.1892627582
 30
0.0
  0
SPLINE
  5
2DF
100
AcDbEntity
  8
0
100
AcDbSpline
 62
7
  6
CONTINUOUS
 70
0
 71
3
 72
23
 73
19
 74
0
 42
0.0000001
 43
0.0000001
 44
0.0000000001
 40
0.0
 40
0.0
 40
0.0
 40
0.0
 40
0.0621202882
 40
0.1248372807
 40
0.1880349355
 40
0.251597118
 40
0.315406228
 40
0.3793443362
 40
0.4432930971
 40
0.5071341997
 40
0.5707495749
 40
0.6340216641
 40
0.696833726
 40
0.7590701257
 40
0.8206165837
 40
0.8813604629
 40
0.9411910814
 40
1.0
 40
1.0
 40
1.0
 40
1.0
 10
8.1650485124
 20
8.5954534204
 30
0.0
 10
8.1650485124
 20
8.6102615106
 30
0.0
 10
8.1652265188
 20
8.6400202149
 30
0.0
 10
8.1660166708
 20
8.6848375248
 30
0.0
 10
8.1673298907
 20
8.7299864645
 30
0.0
 10
8.1691635804
 20
8.7753777774
 30
0.0
 10
8.1715141508
 20
8.8209219978
 30
0.0
 10
8.1743769612
 20
8.8665292174
 30
0.0
 10
8.1777463698
 20
8.9121094576
 30
0.0
 10
8.1816157245
 20
8.9575727761
 30
0.0
 10
8.1859773849
 20
9.0028294693
 30
0.0
 10
8.1908227332
 20
9.0477902379
 30
0.0
 10
8.1961421933
 20
9.0923663694
 30
0.0
 10
8.2019252493
 20
9.1364699188
 30
0.0
 10
8.2081604639
 20
9.1800138662
 30
0.0
 10
8.2148355087
 20
9.2229123336
 30
0.0
 10
8.2219371576
 20
9.2650805976
 30
0.0
 10
8.2269932227
 20
9.292906967
 30
0.0
 10
8.2295924512
 20
9.3066826304
 30
0.0
  0
SPLINE
  5
2E0
100
AcDbEntity
  8
0
100
AcDbSpline
 62
7
  6
CONTINUOUS
 70
0
 71
3
 72
14
 73
10
 74
0
 42
0.0000001
 43
0.0000001
 44
0.0000000001
 40
0.0
 40
0.0
 40
0.0
 40
0.0
 40
0.1443989353
 40
0.2825116291
 40
0.4146261478
 40
0.5410943531
 40
0.7787301321
 40
0.8911167334
 40
1.0
 40
1.0
 40
1.0
 40
1.0
 10
6.4455588829
 20
9.2523197953
 30
0.0
 10
6.4461034384
 20
9.2528457956
 30
0.0
 10
6.4471921773
 20
9.2538511761
 30
0.0
 10
6.4488619753
 20
9.255244676
 30
0.0
 10
6.4505306558
 20
9.2564885358
 30
0.0
 10
6.4527068324
 20
9.2579161859
 30
0.0
 10
6.4549265104
 20
9.2590847995
 30
0.0
 10
6.4571738847
 20
9.25995009
 30
0.0
 10
6.4582887468
 20
9.2602771956
 30
0.0
 10
6.4588431057
 20
9.2604136064
 30
0.0
  0
SPLINE
  5
2E1
100
AcDbEntity
  8
0
100
AcDbSpline
 62
7
  6
CONTINUOUS
 70
0
 71
3
 72
11
 73
7
 74
0
 42
0.0000001
 43
0.0000001
 44
0.0000000001
 40
0.0
 40
0.0
 40
0.0
 40
0.0
 40
0.2550585775
 40
0.5058083475
 40
0.7536406733
 40
1.0
 40
1.0
 40
1.0
 40
1.0
 10
6.4588431057
 20
9.2604136064
 30
0.0
 10
6.4592978027
 20
9.2605254934
 30
0.0
 10
6.4602079417
 20
9.2607148144
 30
0.0
 10
6.46158138
 20
9.2608929502
 30
0.0
 10
6.4629486305
 20
9.2609622827
 30
0.0
 10
6.4638566722
 20
9.260935828
 30
0.0
 10
6.4643078778
 20
9.2609045299
 30
0.0
  0
SPLINE
  5
2E2
100
AcDbEntity
  8
0
100
AcDbSpline
 62
7
  6
CONTINUOUS
 70
0
 71
3
 72
16
 73
12
 74
0
 42
0.0000001
 43
0.0000001
 44
0.0000000001
 40
0.0
 40
0.0
 40
0.0
 40
0.0
 40
0.1504822394
 40
0.2917483897
 40
0.424494282
 40
0.487969059
 40
0.5496753903
 40
0.668341849
 40
0.7818819259
 40
0.8918563567
 40
1.0
 40
1.0
 40
1.0
 40
1.0
 10
6.4397633276
 20
9.2527217184
 30
0.0
 10
6.4405294468
 20
9.2534617328
 30
0.0
 10
6.4420606899
 20
9.2548502341
 30
0.0
 10
6.4444316376
 20
9.2567006305
 30
0.0
 10
6.4464343437
 20
9.2580093246
 30
0.0
 10
6.4480313114
 20
9.2588955311
 30
0.0
 10
6.4495812529
 20
9.2596563672
 30
0.0
 10
6.4515193674
 20
9.260425121
 30
0.0
 10
6.453865863
 20
9.2610494412
 30
0.0
 10
6.4561991064
 20
9.2613611648
 30
0.0
 10
6.4577485716
 20
9.2613594259
 30
0.0
 10
6.4585122093
 20
9.2613064609
 30
0.0
  0
SPLINE
  5
2E3
100
AcDbEntity
  8
0
100
AcDbSpline
 62
7
  6
CONTINUOUS
 70
0
 71
3
 72
23
 73
19
 74
0
 42
0.0000001
 43
0.0000001
 44
0.0000000001
 40
0.0
 40
0.0
 40
0.0
 40
0.0
 40
0.0741981839
 40
0.1474027615
 40
0.2194797109
 40
0.2902990365
 40
0.3597331286
 40
0.4276581751
 40
0.4939541058
 40
0.5585051967
 40
0.6212004159
 40
0.6819338757
 40
0.7406053612
 40
0.7971208955
 40
0.851393342
 40
0.903343143
 40
0.9528992148
 40
1.0
 40
1.0
 40
1.0
 40
1.0
 10
8.1650485124
 20
8.5954534204
 30
0.0
 10
8.1650485124
 20
8.5808146696
 30
0.0
 10
8.1652204747
 20
8.5517328786
 30
0.0
 10
8.1660045351
 20
8.5084372065
 30
0.0
 10
8.167311564
 20
8.465820982
 30
0.0
 10
8.1691389125
 20
8.4239684355
 30
0.0
 10
8.1714829386
 20
8.3829620172
 30
0.0
 10
8.1743389445
 20
8.3428826331
 30
0.0
 10
8.1777012284
 20
8.3038092925
 30
0.0
 10
8.1815630732
 20
8.2658190193
 30
0.0
 10
8.1859167685
 20
8.2289866712
 30
0.0
 10
8.1907536215
 20
8.1933847972
 30
0.0
 10
8.1960639746
 20
8.1590834852
 30
0.0
 10
8.2018372284
 20
8.1261501975
 30
0.0
 10
8.2080618506
 20
8.0946496828
 30
0.0
 10
8.2147254508
 20
8.064643642
 30
0.0
 10
8.2218146444
 20
8.0361912415
 30
0.0
 10
8.2269475174
 20
8.0178218096
 30
0.0
 10
8.2295924512
 20
8.0089135328
 30
0.0
  0
SPLINE
  5
2E4
100
AcDbEntity
  8
0
100
AcDbSpline
 62
7
  6
CONTINUOUS
 70
0
 71
3
 72
16
 73
12
 74
0
 42
0.0000001
 43
0.0000001
 44
0.0000000001
 40
0.0
 40
0.0
 40
0.0
 40
0.0
 40
0.1081437135
 40
0.2181181404
 40
0.3316581388
 40
0.4503244993
 40
0.5120307963
 40
0.5755055529
 40
0.7082514412
 40
0.8495176379
 40
1.0
 40
1.0
 40
1.0
 40
1.0
 10
6.4692399887
 20
9.2550492768
 30
0.0
 10
6.468491844
 20
9.2551011737
 30
0.0
 10
6.4669738144
 20
9.2551028897
 30
0.0
 10
6.4646879066
 20
9.2547975061
 30
0.0
 10
6.4623890155
 20
9.2541858652
 30
0.0
 10
6.4604902205
 20
9.2534327162
 30
0.0
 10
6.4589717235
 20
9.2526873214
 30
0.0
 10
6.4574071539
 20
9.2518190987
 30
0.0
 10
6.4554450771
 20
9.2505369593
 30
0.0
 10
6.4531222295
 20
9.2487241059
 30
0.0
 10
6.4516220517
 20
9.2473637747
 30
0.0
 10
6.4508714752
 20
9.2466387734
 30
0.0
  0
SPLINE
  5
2E5
100
AcDbEntity
  8
0
100
AcDbSpline
 62
7
  6
CONTINUOUS
 70
0
 71
3
 72
48
 73
44
 74
0
 42
0.0000001
 43
0.0000001
 44
0.0000000001
 40
0.0
 40
0.0
 40
0.0
 40
0.0
 40
0.0379402947
 40
0.0762766259
 40
0.1149215518
 40
0.1537871601
 40
0.1927846613
 40
0.231824974
 40
0.2708188419
 40
0.3096771805
 40
0.3483112908
 40
0.3866331116
 40
0.424555499
 40
0.4619925006
 40
0.4988595938
 40
0.5350739493
 40
0.5705547378
 40
0.6052233969
 40
0.6390038947
 40
0.6718230614
 40
0.7036109185
 40
0.7343010028
 40
0.7638307479
 40
0.7921419339
 40
0.8191811827
 40
0.8322089105
 40
0.8449011676
 40
0.8572528847
 40
0.8692595134
 40
0.8809168947
 40
0.8922214593
 40
0.9031701101
 40
0.91376043
 40
0.9239905919
 40
0.9338595652
 40
0.9433670718
 40
0.9525137869
 40
0.96130136
 40
0.9697326139
 40
0.9778116482
 40
0.9855440507
 40
0.9929371001
 40
1.0
 40
1.0
 40
1.0
 40
1.0
 10
6.5389946958
 20
8.7748059511
 30
0.0
 10
6.5389946958
 20
8.787298309
 30
0.0
 10
6.5391617359
 20
8.8124137179
 30
0.0
 10
6.5399020673
 20
8.8502469357
 30
0.0
 10
6.5411318988
 20
8.8883722829
 30
0.0
 10
6.542848238
 20
8.9266967106
 30
0.0
 10
6.5450469259
 20
8.9651268885
 30
0.0
 10
6.5477226044
 20
9.0035691333
 30
0.0
 10
6.5508687552
 20
9.0419297657
 30
0.0
 10
6.5544777033
 20
9.080115297
 30
0.0
 10
6.558540641
 20
9.1180326726
 30
0.0
 10
6.5630476468
 20
9.1555894889
 30
0.0
 10
6.5679877103
 20
9.1926942272
 30
0.0
 10
6.5733487595
 20
9.2292564801
 30
0.0
 10
6.5791176883
 20
9.2651871673
 30
0.0
 10
6.5852803885
 20
9.3003987555
 30
0.0
 10
6.5918217845
 20
9.3348054792
 30
0.0
 10
6.5987258685
 20
9.3683235509
 30
0.0
 10
6.6059757394
 20
9.4008713654
 30
0.0
 10
6.613553643
 20
9.4323697054
 30
0.0
 10
6.6214410157
 20
9.4627419514
 30
0.0
 10
6.629618531
 20
9.4919142477
 30
0.0
 10
6.6380661414
 20
9.5198157787
 30
0.0
 10
6.6467631514
 20
9.5463786601
 30
0.0
 10
6.6542909724
 20
9.5676002604
 30
0.0
 10
6.6604326404
 20
9.5838505724
 30
0.0
 10
6.665030784
 20
9.5955129243
 30
0.0
 10
6.6696751921
 20
9.6067941861
 30
0.0
 10
6.6743629971
 20
9.6176875305
 30
0.0
 10
6.6790914022
 20
9.6281863294
 30
0.0
 10
6.6838574622
 20
9.638284233
 30
0.0
 10
6.6886583429
 20
9.647975105
 30
0.0
 10
6.6934910631
 20
9.6572530982
 30
0.0
 10
6.6983527504
 20
9.6661125866
 30
0.0
 10
6.703240408
 20
9.6745482426
 30
0.0
 10
6.7081511343
 20
9.682554969
 30
0.0
 10
6.7130819381
 20
9.6901279712
 30
0.0
 10
6.7180299027
 20
9.6972626947
 30
0.0
 10
6.7229920708
 20
9.7039548875
 30
0.0
 10
6.727965519
 20
9.7102005367
 30
0.0
 10
6.7329474024
 20
9.7159959685
 30
0.0
 10
6.7379346683
 20
9.7213375706
 30
0.0
 10
6.741337587
 20
9.724668651
 30
0.0
 10
6.7430399266
 20
9.7262530278
 30
0.0
  0
SPLINE
  5
2E6
100
AcDbEntity
  8
0
100
AcDbSpline
 62
7
  6
CONTINUOUS
 70
0
 71
3
 72
63
 73
59
 74
0
 42
0.0000001
 43
0.0000001
 44
0.0000000001
 40
0.0
 40
0.0
 40
0.0
 40
0.0
 40
0.0027164938
 40
0.0054533638
 40
0.0082305006
 40
0.0110668694
 40
0.013980145
 40
0.0169865297
 40
0.02333175
 40
0.0302035505
 40
0.0376745195
 40
0.0457969889
 40
0.0546070673
 40
0.0641280781
 40
0.0743734142
 40
0.085348597
 40
0.0970527367
 40
0.1094797751
 40
0.1226193514
 40
0.1364573571
 40
0.1509765098
 40
0.1661567796
 40
0.1819756115
 40
0.1984082311
 40
0.2154279116
 40
0.2330060756
 40
0.2511124873
 40
0.2697154511
 40
0.2887818792
 40
0.3281657434
 40
0.3689776668
 40
0.4109156848
 40
0.4536666994
 40
0.4969097345
 40
0.5403190511
 40
0.5835673259
 40
0.6263287908
 40
0.6682823491
 40
0.7091147501
 40
0.7485238433
 40
0.7676045727
 40
0.7862229342
 40
0.8043457814
 40
0.8219413625
 40
0.838979422
 40
0.8554313094
 40
0.8712702184
 40
0.8864713455
 40
0.9010120458
 40
0.9148721762
 40
0.9280344021
 40
0.9404845006
 40
0.952211934
 40
0.9632105643
 40
0.9734792838
 40
0.9830232659
 40
0.9918561516
 40
1.0
 40
1.0
 40
1.0
 40
1.0
 10
6.4325029618
 20
8.7253216259
 30
0.0
 10
6.4320074396
 20
8.725355999
 30
0.0
 10
6.4310152172
 20
8.7254698563
 30
0.0
 10
6.4295395111
 20
8.7257744762
 30
0.0
 10
6.4280749572
 20
8.7262129348
 30
0.0
 10
6.4266226163
 20
8.7267847955
 30
0.0
 10
6.4251831732
 20
8.7274895348
 30
0.0
 10
6.4232476548
 20
8.7286259219
 30
0.0
 10
6.4208583295
 20
8.7304001646
 30
0.0
 10
6.4181107959
 20
8.7330110541
 30
0.0
 10
6.4154339324
 20
8.7361349559
 30
0.0
 10
6.4128314236
 20
8.7397653378
 30
0.0
 10
6.4103067863
 20
8.7438955743
 30
0.0
 10
6.4078641784
 20
8.7485180138
 30
0.0
 10
6.4055079594
 20
8.7536240301
 30
0.0
 10
6.4032426006
 20
8.7592039097
 30
0.0
 10
6.401072488
 20
8.7652468582
 30
0.0
 10
6.3990019302
 20
8.7717410662
 30
0.0
 10
6.397035105
 20
8.7786737455
 30
0.0
 10
6.395175968
 20
8.7860311515
 30
0.0
 10
6.3934282835
 20
8.7937986431
 30
0.0
 10
6.3917956222
 20
8.8019607256
 30
0.0
 10
6.3902812955
 20
8.8105010753
 30
0.0
 10
6.388888375
 20
8.8194025869
 30
0.0
 10
6.3876197115
 20
8.8286474177
 30
0.0
 10
6.3864778846
 20
8.8382170197
 30
0.0
 10
6.3854652118
 20
8.8480921744
 30
0.0
 10
6.3845837401
 20
8.8582530669
 30
0.0
 10
6.3835749999
 20
8.872306587
 30
0.0
 10
6.3826643792
 20
8.8904363894
 30
0.0
 10
6.3821266987
 20
8.9127644601
 30
0.0
 10
6.3821374981
 20
8.9357146195
 30
0.0
 10
6.3826968908
 20
8.9591024702
 30
0.0
 10
6.3838005802
 20
8.9827402256
 30
0.0
 10
6.3854397547
 20
9.006438009
 30
0.0
 10
6.387601263
 20
9.0300054707
 30
0.0
 10
6.3902676698
 20
9.0532533071
 30
0.0
 10
6.3934173717
 20
9.0759948831
 30
0.0
 10
6.3970248925
 20
9.0980474989
 30
0.0
 10
6.400423671
 20
9.1158903005
 30
0.0
 10
6.4033583409
 20
9.129681232
 30
0.0
 10
6.4056309599
 20
9.1396325161
 30
0.0
 10
6.4079942405
 20
9.1492833163
 30
0.0
 10
6.4104434237
 20
9.1586142704
 30
0.0
 10
6.4129735482
 20
9.1676066477
 30
0.0
 10
6.4155795191
 20
9.1762424062
 30
0.0
 10
6.4182560623
 20
9.1845042408
 30
0.0
 10
6.420997758
 20
9.1923756164
 30
0.0
 10
6.4237990835
 20
9.1998407935
 30
0.0
 10
6.4266543855
 20
9.2068848832
 30
0.0
 10
6.4295578961
 20
9.2134938849
 30
0.0
 10
6.4325037986
 20
9.2196547032
 30
0.0
 10
6.4354862153
 20
9.225355205
 30
0.0
 10
6.4384992463
 20
9.2305842688
 30
0.0
 10
6.4415369892
 20
9.2353317407
 30
0.0
 10
6.4445938428
 20
9.239588751
 30
0.0
 10
6.4476638927
 20
9.2433468121
 30
0.0
 10
6.4498004269
 20
9.2456042201
 30
0.0
 10
6.4508714752
 20
9.2466387734
 30
0.0
  0
SPLINE
  5
2E7
100
AcDbEntity
  8
0
100
AcDbSpline
 62
7
  6
CONTINUOUS
 70
0
 71
3
 72
29
 73
25
 74
0
 42
0.0000001
 43
0.0000001
 44
0.0000000001
 40
0.0
 40
0.0
 40
0.0
 40
0.0
 40
0.0615087884
 40
0.123115309
 40
0.1848317116
 40
0.2466701627
 40
0.3086423839
 40
0.339683298
 40
0.3707614336
 40
0.4018777091
 40
0.4330328369
 40
0.4642273184
 40
0.4954614237
 40
0.5267351738
 40
0.5580483414
 40
0.5894004667
 40
0.6207908638
 40
0.6522186327
 40
0.683682694
 40
0.7467123003
 40
0.8098711508
 40
0.8731470107
 40
0.9365273103
 40
1.0
 40
1.0
 40
1.0
 40
1.0
 10
7.2924456801
 20
8.7107026438
 30
0.0
 10
7.2900327179
 20
8.7281937699
 30
0.0
 10
7.2856379579
 20
8.7632657893
 30
0.0
 10
7.280483685
 20
8.8160798304
 30
0.0
 10
7.2769065584
 20
8.8691207513
 30
0.0
 10
7.2750490491
 20
8.9223556912
 30
0.0
 10
7.2750454573
 20
8.9668180369
 30
0.0
 10
7.276024301
 20
9.0024280891
 30
0.0
 10
7.2772621074
 20
9.029165356
 30
0.0
 10
7.279013124
 20
9.0559067503
 30
0.0
 10
7.2812849065
 20
9.0826425264
 30
0.0
 10
7.2840826282
 20
9.109362422
 30
0.0
 10
7.2874088945
 20
9.1360560066
 30
0.0
 10
7.2912636756
 20
9.1627128246
 30
0.0
 10
7.2956441978
 20
9.1893226189
 30
0.0
 10
7.3005451085
 20
9.2158755211
 30
0.0
 10
7.3059585845
 20
9.2423621895
 30
0.0
 10
7.3118745938
 20
9.2687741042
 30
0.0
 10
7.3204207199
 20
9.3038981794
 30
0.0
 10
7.3322965103
 20
9.3475784551
 30
0.0
 10
7.3483171692
 20
9.3995627424
 30
0.0
 10
7.3659728725
 20
9.4511200928
 30
0.0
 10
7.3851153014
 20
9.5022384642
 30
0.0
 10
7.3987616454
 20
9.5360039281
 30
0.0
 10
7.4057848578
 20
9.5528164992
 30
0.0
  0
SPLINE
  5
2E8
100
AcDbEntity
  8
0
100
AcDbSpline
 62
7
  6
CONTINUOUS
 70
0
 71
3
 72
15
 73
11
 74
0
 42
0.0000001
 43
0.0000001
 44
0.0000000001
 40
0.0
 40
0.0
 40
0.0
 40
0.0
 40
0.1197601607
 40
0.2398118665
 40
0.3606678697
 40
0.4829220429
 40
0.6072409866
 40
0.7343498656
 40
0.8650114166
 40
1.0
 40
1.0
 40
1.0
 40
1.0
 10
7.417893962
 20
9.5906045127
 30
0.0
 10
7.417828011
 20
9.5936736281
 30
0.0
 10
7.417879739
 20
9.5998251144
 30
0.0
 10
7.4185470087
 20
9.6090524138
 30
0.0
 10
7.4198421989
 20
9.6182783233
 30
0.0
 10
7.4218036369
 20
9.627498297
 30
0.0
 10
7.4244688681
 20
9.6367074242
 30
0.0
 10
7.4278738351
 20
9.6459000235
 30
0.0
 10
7.432051416
 20
9.655069195
 30
0.0
 10
7.4353127059
 20
9.6610543645
 30
0.0
 10
7.4370701561
 20
9.6640349993
 30
0.0
  0
SPLINE
  5
2E9
100
AcDbEntity
  8
0
100
AcDbSpline
 62
7
  6
CONTINUOUS
 70
0
 71
3
 72
57
 73
53
 74
0
 42
0.0000001
 43
0.0000001
 44
0.0000000001
 40
0.0
 40
0.0
 40
0.0
 40
0.0
 40
0.0075208019
 40
0.0156241312
 40
0.0243310098
 40
0.0336548296
 40
0.0436026751
 40
0.0541766698
 40
0.0653747682
 40
0.0771913587
 40
0.0896179531
 40
0.1026434145
 40
0.1162543646
 40
0.1304354781
 40
0.1451695467
 40
0.1604378251
 40
0.1762200789
 40
0.1924946848
 40
0.2092388693
 40
0.2264286693
 40
0.2620434473
 40
0.2991291395
 40
0.3374621798
 40
0.3768085335
 40
0.4169258293
 40
0.4575655073
 40
0.4984748238
 40
0.5393989211
 40
0.5800827969
 40
0.620273378
 40
0.6597214985
 40
0.6981839777
 40
0.7354257051
 40
0.7712217891
 40
0.7885112125
 40
0.8053607313
 40
0.8217461078
 40
0.8376442964
 40
0.8530334149
 40
0.8678928677
 40
0.8822035739
 40
0.8959479468
 40
0.9091102016
 40
0.9216765144
 40
0.9336351678
 40
0.9449770412
 40
0.9556958419
 40
0.9657886304
 40
0.9752564248
 40
0.9841051213
 40
0.9923469516
 40
1.0
 40
1.0
 40
1.0
 40
1.0
 10
6.4314838885
 20
8.734416548
 30
0.0
 10
6.4306476846
 20
8.7354447131
 30
0.0
 10
6.429000075
 20
8.7376544374
 30
0.0
 10
6.4266814922
 20
8.7412641684
 30
0.0
 10
6.4244290793
 20
8.7452837904
 30
0.0
 10
6.4222464663
 20
8.7497067464
 30
0.0
 10
6.4201369041
 20
8.7545261348
 30
0.0
 10
6.4181038093
 20
8.7597342396
 30
0.0
 10
6.4161504955
 20
8.7653226661
 30
0.0
 10
6.4142801502
 20
8.7712823163
 30
0.0
 10
6.4124959181
 20
8.7776034521
 30
0.0
 10
6.4108007555
 20
8.7842756877
 30
0.0
 10
6.4091974916
 20
8.7912880322
 30
0.0
 10
6.4076888434
 20
8.7986289115
 30
0.0
 10
6.4062773078
 20
8.8062861827
 30
0.0
 10
6.4049652726
 20
8.8142471695
 30
0.0
 10
6.403754944
 20
8.82249868
 30
0.0
 10
6.4026483354
 20
8.8310270259
 30
0.0
 10
6.4016473117
 20
8.8398180714
 30
0.0
 10
6.4004414562
 20
8.8520145074
 30
0.0
 10
6.3992196453
 20
8.8678094551
 30
0.0
 10
6.3982125365
 20
8.8873511993
 30
0.0
 10
6.3976549054
 20
8.9075686639
 30
0.0
 10
6.3975506429
 20
8.9283276059
 30
0.0
 10
6.3979006246
 20
8.9494902945
 30
0.0
 10
6.3987026427
 20
8.9709162272
 30
0.0
 10
6.3999514476
 20
8.9924631484
 30
0.0
 10
6.4016387755
 20
9.0139879814
 30
0.0
 10
6.4037533962
 20
9.0353478031
 30
0.0
 10
6.4062812025
 20
9.0564007998
 30
0.0
 10
6.4092053071
 20
9.0770072119
 30
0.0
 10
6.41250613
 20
9.0970303368
 30
0.0
 10
6.4161615711
 20
9.1163372442
 30
0.0
 10
6.4195204335
 20
9.1318979572
 30
0.0
 10
6.4223744474
 20
9.1438868942
 30
0.0
 10
6.4245630278
 20
9.1525171981
 30
0.0
 10
6.4268207841
 20
9.1608759933
 30
0.0
 10
6.4291439488
 20
9.1689494271
 30
0.0
 10
6.4315286436
 20
9.1767241099
 30
0.0
 10
6.4339709084
 20
9.1841871559
 30
0.0
 10
6.4364666366
 20
9.1913262155
 30
0.0
 10
6.4390116917
 20
9.1981294789
 30
0.0
 10
6.441601825
 20
9.2045857167
 30
0.0
 10
6.4442327051
 20
9.210684299
 30
0.0
 10
6.4468999983
 20
9.2164151953
 30
0.0
 10
6.4495992564
 20
9.2217690428
 30
0.0
 10
6.4523260482
 20
9.2267371289
 30
0.0
 10
6.4550759622
 20
9.2313114054
 30
0.0
 10
6.4578444987
 20
9.2354845521
 30
0.0
 10
6.4606274881
 20
9.2392500806
 30
0.0
 10
6.4634204345
 20
9.242601698
 30
0.0
 10
6.4653563161
 20
9.2446300562
 30
0.0
 10
6.4663262894
 20
9.2455669784
 30
0.0
  0
SPLINE
  5
2EA
100
AcDbEntity
  8
0
100
AcDbSpline
 62
7
  6
CONTINUOUS
 70
0
 71
3
 72
24
 73
20
 74
0
 42
0.0000001
 43
0.0000001
 44
0.0000000001
 40
0.0
 40
0.0
 40
0.0
 40
0.0
 40
0.0756812466
 40
0.1115451571
 40
0.1461760281
 40
0.2120415561
 40
0.2740374155
 40
0.3330208602
 40
0.3899208532
 40
0.4456763428
 40
0.5011709782
 40
0.5571796944
 40
0.6143369723
 40
0.673128151
 40
0.7338986848
 40
0.7968752633
 40
0.8621887724
 40
0.9298965818
 40
1.0
 40
1.0
 40
1.0
 40
1.0
 10
6.4444291192
 20
8.7184997181
 30
0.0
 10
6.4437024391
 20
8.7193932544
 30
0.0
 10
6.4426790319
 20
8.720750771
 30
0.0
 10
6.4414617448
 20
8.7226134765
 30
0.0
 10
6.4404090085
 20
8.7244024864
 30
0.0
 10
6.4393129136
 20
8.7266245625
 30
0.0
 10
6.4383441205
 20
8.7293046122
 30
0.0
 10
6.4377368638
 20
8.7319498559
 30
0.0
 10
6.4374806864
 20
8.7345565878
 30
0.0
 10
6.4375618259
 20
8.7371212951
 30
0.0
 10
6.4379638381
 20
8.7396412476
 30
0.0
 10
6.4386684546
 20
8.7421151492
 30
0.0
 10
6.4396567879
 20
8.7445432239
 30
0.0
 10
6.4409103741
 20
8.7469267621
 30
0.0
 10
6.4424114698
 20
8.7492676932
 30
0.0
 10
6.4441433512
 20
8.7515681347
 30
0.0
 10
6.4460902874
 20
8.7538302255
 30
0.0
 10
6.4482373406
 20
8.756056007
 30
0.0
 10
6.4497667319
 20
8.757492299
 30
0.0
 10
6.4505596693
 20
8.7582060218
 30
0.0
  0
SPLINE
  5
2EB
100
AcDbEntity
  8
0
100
AcDbSpline
 62
7
  6
CONTINUOUS
 70
0
 71
3
 72
63
 73
59
 74
0
 42
0.0000001
 43
0.0000001
 44
0.0000000001
 40
0.0
 40
0.0
 40
0.0
 40
0.0
 40
0.0027164946
 40
0.0054533636
 40
0.0082304971
 40
0.0110668604
 40
0.013980129
 40
0.0169865058
 40
0.0233317078
 40
0.0302034863
 40
0.0376744306
 40
0.0457968745
 40
0.0546069283
 40
0.0641279131
 40
0.074373223
 40
0.0853483836
 40
0.0970524999
 40
0.1094795149
 40
0.1226190725
 40
0.1364570593
 40
0.1509761931
 40
0.1661564474
 40
0.181975266
 40
0.1984078725
 40
0.2154275403
 40
0.2330056972
 40
0.251112102
 40
0.2697150568
 40
0.2887814831
 40
0.3281653418
 40
0.36897727
 40
0.410915293
 40
0.4536663233
 40
0.4969093742
 40
0.5403187111
 40
0.583567014
 40
0.6263285031
 40
0.6682820923
 40
0.7091145219
 40
0.7485236456
 40
0.7676043903
 40
0.78622277
 40
0.8043456299
 40
0.8219412251
 40
0.8389793007
 40
0.8554312013
 40
0.8712701223
 40
0.8864712622
 40
0.9010119761
 40
0.9148721165
 40
0.9280343521
 40
0.9404844625
 40
0.9522119037
 40
0.9632105409
 40
0.9734792691
 40
0.9830232568
 40
0.991856147
 40
1.0
 40
1.0
 40
1.0
 40
1.0
 10
6.4210144458
 20
8.7206051471
 30
0.0
 10
6.420508658
 20
8.720640228
 30
0.0
 10
6.4194958799
 20
8.7207564352
 30
0.0
 10
6.4179896012
 20
8.7210673527
 30
0.0
 10
6.4164947058
 20
8.7215148814
 30
0.0
 10
6.4150122766
 20
8.7220985762
 30
0.0
 10
6.4135430122
 20
8.7228179024
 30
0.0
 10
6.4115673954
 20
8.7239778145
 30
0.0
 10
6.4091285693
 20
8.7257887922
 30
0.0
 10
6.4063241134
 20
8.7284537462
 30
0.0
 10
6.4035917919
 20
8.731642341
 30
0.0
 10
6.4009353649
 20
8.735347909
 30
0.0
 10
6.3983584228
 20
8.7395636876
 30
0.0
 10
6.3958652092
 20
8.7442818664
 30
0.0
 10
6.3934601742
 20
8.7494936409
 30
0.0
 10
6.3911478815
 20
8.7551890963
 30
0.0
 10
6.3889328078
 20
8.7613572144
 30
0.0
 10
6.3868193517
 20
8.7679859413
 30
0.0
 10
6.3848117767
 20
8.775062224
 30
0.0
 10
6.3829141208
 20
8.7825720331
 30
0.0
 10
6.3811302265
 20
8.790500424
 30
0.0
 10
6.379463738
 20
8.7988315812
 30
0.0
 10
6.3779180356
 20
8.8075488431
 30
0.0
 10
6.3764962545
 20
8.8166347494
 30
0.0
 10
6.3752013045
 20
8.8260710882
 30
0.0
 10
6.3740358189
 20
8.8358389276
 30
0.0
 10
6.3730021628
 20
8.8459186502
 30
0.0
 10
6.3721024259
 20
8.8562900311
 30
0.0
 10
6.3710727827
 20
8.870634679
 30
0.0
 10
6.3701432903
 20
8.8891400557
 30
0.0
 10
6.3695944632
 20
8.911930673
 30
0.0
 10
6.3696054788
 20
8.9353562704
 30
0.0
 10
6.3701764531
 20
8.9592286284
 30
0.0
 10
6.3713030007
 20
8.9833560711
 30
0.0
 10
6.3729761269
 20
9.0075447879
 30
0.0
 10
6.3751824085
 20
9.0316004847
 30
0.0
 10
6.377904049
 20
9.055329937
 30
0.0
 10
6.3811189971
 20
9.0785426413
 30
0.0
 10
6.3848012492
 20
9.1010521141
 30
0.0
 10
6.3882704353
 20
9.1192645598
 30
0.0
 10
6.3912658994
 20
9.1333411951
 30
0.0
 10
6.3935855977
 20
9.1434986379
 30
0.0
 10
6.3959978359
 20
9.1533493716
 30
0.0
 10
6.3984977565
 20
9.1628736331
 30
0.0
 10
6.4010802952
 20
9.1720523038
 30
0.0
 10
6.4037402517
 20
9.1808669677
 30
0.0
 10
6.4064722426
 20
9.1892999609
 30
0.0
 10
6.4092707359
 20
9.1973344063
 30
0.0
 10
6.4121300944
 20
9.2049542382
 30
0.0
 10
6.4150445475
 20
9.2121442589
 30
0.0
 10
6.4180082083
 20
9.2188901778
 30
0.0
 10
6.4210151391
 20
9.2251786285
 30
0.0
 10
6.4240593405
 20
9.2309972263
 30
0.0
 10
6.4271347907
 20
9.236334619
 30
0.0
 10
6.4302354646
 20
9.2411804429
 30
0.0
 10
6.4333556451
 20
9.2455256442
 30
0.0
 10
6.4364892954
 20
9.2493615592
 30
0.0
 10
6.4386700909
 20
9.2516657328
 30
0.0
 10
6.4397633276
 20
9.2527217184
 30
0.0
  0
SPLINE
  5
2EC
100
AcDbEntity
  8
0
100
AcDbSpline
 62
7
  6
CONTINUOUS
 70
0
 71
3
 72
11
 73
7
 74
0
 42
0.0000001
 43
0.0000001
 44
0.0000000001
 40
0.0
 40
0.0
 40
0.0
 40
0.0
 40
0.2463178961
 40
0.4941256901
 40
0.7448842631
 40
1.0
 40
1.0
 40
1.0
 40
1.0
 10
6.426809888
 20
8.7202032318
 30
0.0
 10
6.4263560466
 20
8.7202347127
 30
0.0
 10
6.425447752
 20
8.7203346718
 30
0.0
 10
6.4240953468
 20
8.7205945405
 30
0.0
 10
6.4227519503
 20
8.72096432
 30
0.0
 10
6.4218717658
 20
8.7212807657
 30
0.0
 10
6.4214344535
 20
8.721456178
 30
0.0
  0
SPLINE
  5
2ED
100
AcDbEntity
  8
0
100
AcDbSpline
 62
7
  6
CONTINUOUS
 70
0
 71
3
 72
60
 73
56
 74
0
 42
0.0000001
 43
0.0000001
 44
0.0000000001
 40
0.0
 40
0.0
 40
0.0
 40
0.0
 40
0.0028258139
 40
0.0057338773
 40
0.0118487087
 40
0.0184442389
 40
0.0255936375
 40
0.0333507375
 40
0.0417535525
 40
0.0508276375
 40
0.0605887595
 40
0.0710448087
 40
0.0821974404
 40
0.0940432371
 40
0.1065744402
 40
0.1197797229
 40
0.1336447016
 40
0.1481521994
 40
0.1632826849
 40
0.1790145303
 40
0.1953240982
 40
0.2121860467
 40
0.229573483
 40
0.2474579885
 40
0.2658098592
 40
0.3037901169
 40
0.3432553145
 40
0.3839311045
 40
0.4255317179
 40
0.4677628014
 40
0.5103242674
 40
0.552913017
 40
0.595225722
 40
0.6369615468
 40
0.6778248937
 40
0.7175282583
 40
0.7557950105
 40
0.774307388
 40
0.7923633723
 40
0.8099328181
 40
0.8269868247
 40
0.8434979492
 40
0.8594402664
 40
0.8747895012
 40
0.8895232971
 40
0.9036213315
 40
0.9170655405
 40
0.9298405181
 40
0.9419337715
 40
0.9533361795
 40
0.964042735
 40
0.9740530755
 40
0.9833726469
 40
0.9920146944
 40
1.0
 40
1.0
 40
1.0
 40
1.0
 10
6.4214344535
 20
8.721456178
 30
0.0
 10
6.4209498007
 20
8.7216505792
 30
0.0
 10
6.4199818883
 20
8.7220848429
 30
0.0
 10
6.4180560087
 20
8.7231300251
 30
0.0
 10
6.4156749767
 20
8.7247779536
 30
0.0
 10
6.4129304711
 20
8.7272255377
 30
0.0
 10
6.4102530127
 20
8.7301697903
 30
0.0
 10
6.4076460754
 20
8.7336046397
 30
0.0
 10
6.4051128048
 20
8.7375240225
 30
0.0
 10
6.4026570607
 20
8.7419210779
 30
0.0
 10
6.4002829231
 20
8.7467880811
 30
0.0
 10
6.3979945395
 20
8.7521162936
 30
0.0
 10
6.3957960779
 20
8.7578960253
 30
0.0
 10
6.3936916627
 20
8.7641166456
 30
0.0
 10
6.3916852406
 20
8.7707665929
 30
0.0
 10
6.3897806289
 20
8.777833441
 30
0.0
 10
6.3879814924
 20
8.7853039298
 30
0.0
 10
6.3862912569
 20
8.7931639846
 30
0.0
 10
6.3847131661
 20
8.8013987694
 30
0.0
 10
6.3832502725
 20
8.8099927178
 30
0.0
 10
6.3819053675
 20
8.818929557
 30
0.0
 10
6.3806810334
 20
8.8281923548
 30
0.0
 10
6.3795796491
 20
8.8377635464
 30
0.0
 10
6.378603287
 20
8.8476249898
 30
0.0
 10
6.3774576783
 20
8.8612921323
 30
0.0
 10
6.3763618515
 20
8.8789632324
 30
0.0
 10
6.375582474
 20
8.9007794177
 30
0.0
 10
6.3753306404
 20
8.9232770418
 30
0.0
 10
6.3756084851
 20
8.9462853417
 30
0.0
 10
6.3764140887
 20
8.9696298033
 30
0.0
 10
6.3777414446
 20
8.9931332639
 30
0.0
 10
6.3795805349
 20
9.0166173538
 30
0.0
 10
6.3819173579
 20
9.039903854
 30
0.0
 10
6.3847340886
 20
9.0628160514
 30
0.0
 10
6.3880091889
 20
9.0851801737
 30
0.0
 10
6.3917175893
 20
9.1068264902
 30
0.0
 10
6.3951823135
 20
9.1243182509
 30
0.0
 10
6.3981581194
 20
9.1378236391
 30
0.0
 10
6.400455164
 20
9.1475610008
 30
0.0
 10
6.4028375839
 20
9.1570001358
 30
0.0
 10
6.4053008791
 20
9.166123147
 30
0.0
 10
6.4078403242
 20
9.1749127384
 30
0.0
 10
6.4104510715
 20
9.1833522574
 30
0.0
 10
6.4131281581
 20
9.1914257207
 30
0.0
 10
6.4158664559
 20
9.1991178681
 30
0.0
 10
6.4186607392
 20
9.2064141783
 30
0.0
 10
6.4215057063
 20
9.2133008977
 30
0.0
 10
6.4243959263
 20
9.2197650979
 30
0.0
 10
6.4273259179
 20
9.2257946884
 30
0.0
 10
6.430290182
 20
9.2313784438
 30
0.0
 10
6.4332831803
 20
9.2365060661
 30
0.0
 10
6.4362993626
 20
9.2411681543
 30
0.0
 10
6.4393334954
 20
9.2453564605
 30
0.0
 10
6.4423800125
 20
9.2490630647
 30
0.0
 10
6.4444975359
 20
9.2512946128
 30
0.0
 10
6.4455588829
 20
9.2523197953
 30
0.0
  0
SPLINE
  5
2EE
100
AcDbEntity
  8
0
100
AcDbSpline
 62
7
  6
CONTINUOUS
 70
0
 71
3
 72
53
 73
49
 74
0
 42
0.0000001
 43
0.0000001
 44
0.0000000001
 40
0.0
 40
0.0
 40
0.0
 40
0.0
 40
0.0076529624
 40
0.0158949244
 40
0.0247437255
 40
0.0342114861
 40
0.0443043076
 40
0.0550231671
 40
0.0663650492
 40
0.0783237856
 40
0.0908901093
 40
0.1040524236
 40
0.1177968417
 40
0.1321075764
 40
0.1469671123
 40
0.1623562575
 40
0.1946388511
 40
0.228776995
 40
0.2645732033
 40
0.3018150523
 40
0.3402776777
 40
0.3797259201
 40
0.419916641
 40
0.4606006761
 40
0.5015249061
 40
0.5424343922
 40
0.583074217
 40
0.6231916681
 40
0.6625381882
 40
0.7008713791
 40
0.7379572404
 40
0.7735721669
 40
0.8075053493
 40
0.8395612612
 40
0.8548296313
 40
0.8695637652
 40
0.8837449355
 40
0.8973559835
 40
0.9103815001
 40
0.9228081795
 40
0.9346248229
 40
0.9458229894
 40
0.9563970465
 40
0.966344967
 40
0.9756688383
 40
0.9843757715
 40
0.9924791729
 40
1.0
 40
1.0
 40
1.0
 40
1.0
 10
5.9278226093
 20
9.204189376
 30
0.0
 10
5.9271503973
 20
9.203540069
 30
0.0
 10
5.9258087789
 20
9.2021343472
 30
0.0
 10
5.9238731609
 20
9.1998115766
 30
0.0
 10
5.9219444594
 20
9.1972019319
 30
0.0
 10
5.9200257745
 20
9.1943098113
 30
0.0
 10
5.9181200023
 20
9.1911396979
 30
0.0
 10
5.9162302532
 20
9.1876966584
 30
0.0
 10
5.914359567
 20
9.1839862774
 30
0.0
 10
5.9125110694
 20
9.18001458
 30
0.0
 10
5.9106877674
 20
9.1757880767
 30
0.0
 10
5.9088927338
 20
9.1713137001
 30
0.0
 10
5.9071289302
 20
9.1665988262
 30
0.0
 10
5.905399306
 20
9.1616512373
 30
0.0
 10
5.903706736
 20
9.1564791067
 30
0.0
 10
5.9014673652
 20
9.1491779995
 30
0.0
 10
5.8987911475
 20
9.1395502437
 30
0.0
 10
5.8958189087
 20
9.127424582
 30
0.0
 10
5.8930568621
 20
9.1146291619
 30
0.0
 10
5.8905235385
 20
9.1012488191
 30
0.0
 10
5.8882359599
 20
9.0873721807
 30
0.0
 10
5.886209459
 20
9.0730912879
 30
0.0
 10
5.8844576039
 20
9.0585009019
 30
0.0
 10
5.8829921039
 20
9.0436978741
 30
0.0
 10
5.881822733
 20
9.0287804852
 30
0.0
 10
5.8809572682
 20
9.0138477901
 30
0.0
 10
5.8804014386
 20
8.9989989405
 30
0.0
 10
5.8801588862
 20
8.9843325281
 30
0.0
 10
5.8802311386
 20
8.9699459184
 30
0.0
 10
5.8806175936
 20
8.955934584
 30
0.0
 10
5.8813155259
 20
8.9423914831
 30
0.0
 10
5.8823200655
 20
8.9294063389
 30
0.0
 10
5.8836243242
 20
8.9170652642
 30
0.0
 10
5.8849743221
 20
8.9072321329
 30
0.0
 10
5.8862066936
 20
8.8997539188
 30
0.0
 10
5.8871849475
 20
8.894447176
 30
0.0
 10
5.8882304881
 20
8.8893597098
 30
0.0
 10
5.8893415882
 20
8.884499923
 30
0.0
 10
5.8905163982
 20
8.879875844
 30
0.0
 10
5.8917529159
 20
8.8754950874
 30
0.0
 10
5.8930491279
 20
8.8713648534
 30
0.0
 10
5.8944028286
 20
8.8674918874
 30
0.0
 10
5.8958118308
 20
8.8638824964
 30
0.0
 10
5.8972738164
 20
8.8605424946
 30
0.0
 10
5.8987864373
 20
8.8574772364
 30
0.0
 10
5.9003474317
 20
8.8546915014
 30
0.0
 10
5.901954267
 20
8.8521898245
 30
0.0
 10
5.9030961221
 20
8.8506584168
 30
0.0
 10
5.9036756365
 20
8.8499458655
 30
0.0
  0
SPLINE
  5
2EF
100
AcDbEntity
  8
0
100
AcDbSpline
 62
7
  6
CONTINUOUS
 70
0
 71
3
 72
16
 73
12
 74
0
 42
0.0000001
 43
0.0000001
 44
0.0000000001
 40
0.0
 40
0.0
 40
0.0
 40
0.0
 40
0.1081437866
 40
0.2181185162
 40
0.3316584434
 40
0.4503236725
 40
0.5120297428
 40
0.5755046288
 40
0.7082529062
 40
0.8495207503
 40
1.0
 40
1.0
 40
1.0
 40
1.0
 10
6.1327718769
 20
9.1966876681
 30
0.0
 10
6.1322533861
 20
9.196723627
 30
0.0
 10
6.1312013385
 20
9.1967248386
 30
0.0
 10
6.1296171241
 20
9.1965131885
 30
0.0
 10
6.1280239182
 20
9.196089306
 30
0.0
 10
6.1267079878
 20
9.1955673657
 30
0.0
 10
6.1256556257
 20
9.1950507779
 30
0.0
 10
6.1245713117
 20
9.1944490718
 30
0.0
 10
6.1232115118
 20
9.1935604882
 30
0.0
 10
6.1216016991
 20
9.1923041119
 30
0.0
 10
6.1205620246
 20
9.191361366
 30
0.0
 10
6.1200418601
 20
9.1908589256
 30
0.0
  0
SPLINE
  5
2F0
100
AcDbEntity
  8
0
100
AcDbSpline
 62
7
  6
CONTINUOUS
 70
0
 71
3
 72
35
 73
31
 74
0
 42
0.0000001
 43
0.0000001
 44
0.0000000001
 40
0.0
 40
0.0
 40
0.0
 40
0.0
 40
0.0162143227
 40
0.0334273061
 40
0.0516716382
 40
0.0709706937
 40
0.0913401416
 40
0.1127891926
 40
0.1353214145
 40
0.158935705
 40
0.183626835
 40
0.2093859086
 40
0.2362009558
 40
0.2640571079
 40
0.2929369421
 40
0.3228207961
 40
0.3536867997
 40
0.3855112179
 40
0.4182685546
 40
0.4519315852
 40
0.4864716323
 40
0.5218585428
 40
0.5580608142
 40
0.5950457709
 40
0.6327795051
 40
0.6712270531
 40
0.7501176495
 40
0.8314199298
 40
0.9148213523
 40
1.0
 40
1.0
 40
1.0
 40
1.0
 10
6.6386394452
 20
8.2208333898
 30
0.0
 10
6.6366958197
 20
8.2232231514
 30
0.0
 10
6.632852495
 20
8.2282845075
 30
0.0
 10
6.6273714121
 20
8.2364335834
 30
0.0
 10
6.6220108576
 20
8.2453533307
 30
0.0
 10
6.616776294
 20
8.2550342719
 30
0.0
 10
6.611672781
 20
8.26546673
 30
0.0
 10
6.6067055456
 20
8.2766400343
 30
0.0
 10
6.6018796264
 20
8.288542704
 30
0.0
 10
6.5972000551
 20
8.3011624546
 30
0.0
 10
6.5926717329
 20
8.3144862004
 30
0.0
 10
6.5882993783
 20
8.328500066
 30
0.0
 10
6.5840876376
 20
8.3431894373
 30
0.0
 10
6.5800409429
 20
8.3585389513
 30
0.0
 10
6.5761635601
 20
8.3745325301
 30
0.0
 10
6.5724596328
 20
8.3911534041
 30
0.0
 10
6.5689330528
 20
8.4083841183
 30
0.0
 10
6.5655875688
 20
8.4262065706
 30
0.0
 10
6.5624267466
 20
8.4446020278
 30
0.0
 10
6.5594539059
 20
8.4635511407
 30
0.0
 10
6.5566722256
 20
8.4830339709
 30
0.0
 10
6.5540846532
 20
8.5030300093
 30
0.0
 10
6.5516939122
 20
8.5235182033
 30
0.0
 10
6.5495025754
 20
8.5444769739
 30
0.0
 10
6.5475129195
 20
8.5658842714
 30
0.0
 10
6.5451113041
 20
8.5952469561
 30
0.0
 10
6.5426415847
 20
8.6329063169
 30
0.0
 10
6.5405351554
 20
8.6791387302
 30
0.0
 10
6.5392704427
 20
8.7265966169
 30
0.0
 10
6.5389946958
 20
8.7586238864
 30
0.0
 10
6.5389946958
 20
8.7748059511
 30
0.0
  0
SPLINE
  5
2F1
100
AcDbEntity
  8
0
100
AcDbSpline
 62
7
  6
CONTINUOUS
 70
0
 71
3
 72
61
 73
57
 74
0
 42
0.0000001
 43
0.0000001
 44
0.0000000001
 40
0.0
 40
0.0
 40
0.0
 40
0.0
 40
0.0081437817
 40
0.0169768329
 40
0.0265208852
 40
0.0367896169
 40
0.047788287
 40
0.0595158043
 40
0.0719659681
 40
0.0851282295
 40
0.0989884522
 40
0.1135292176
 40
0.1287304008
 40
0.1445694157
 40
0.1610213703
 40
0.1780595005
 40
0.1956551818
 40
0.2137781119
 40
0.251476343
 40
0.2908856373
 40
0.33171823
 40
0.3736719911
 40
0.4164336738
 40
0.4596821625
 40
0.5030917044
 40
0.5463349443
 40
0.5890861894
 40
0.631024412
 40
0.6718365631
 40
0.711220633
 40
0.7302871552
 40
0.748890218
 40
0.7669967549
 40
0.7845749878
 40
0.8015947599
 40
0.8180274983
 40
0.8338463988
 40
0.849026764
 40
0.8635460052
 40
0.8773840771
 40
0.8905237503
 40
0.9029508583
 40
0.9146550677
 40
0.9256303235
 40
0.9358757172
 40
0.9453968093
 40
0.9542069309
 40
0.9623294471
 40
0.969800494
 40
0.9766723208
 40
0.983017584
 40
0.9889330762
 40
0.9917694521
 40
0.9945466044
 40
0.997283495
 40
1.0
 40
1.0
 40
1.0
 40
1.0
 10
6.1200418601
 20
9.1908589256
 30
0.0
 10
6.1192995994
 20
9.1901419568
 30
0.0
 10
6.1178189199
 20
9.1885774931
 30
0.0
 10
6.115691262
 20
9.185973045
 30
0.0
 10
6.1135727581
 20
9.1830227898
 30
0.0
 10
6.1114675203
 20
9.1797326371
 30
0.0
 10
6.1093793801
 20
9.1761087424
 30
0.0
 10
6.1073124785
 20
9.1721581073
 30
0.0
 10
6.1052708779
 20
9.1678884637
 30
0.0
 10
6.1032586392
 20
9.1633082223
 30
0.0
 10
6.1012798372
 20
9.1584264412
 30
0.0
 10
6.0993384277
 20
9.1532528381
 30
0.0
 10
6.097438336
 20
9.1477977283
 30
0.0
 10
6.0955834178
 20
9.1420720123
 30
0.0
 10
6.0937773911
 20
9.1360871592
 30
0.0
 10
6.0920239355
 20
9.1298551606
 30
0.0
 10
6.0903265646
 20
9.123388508
 30
0.0
 10
6.0881137045
 20
9.1143517089
 30
0.0
 10
6.0855215136
 20
9.1025637067
 30
0.0
 10
6.0827244459
 20
9.0878805386
 30
0.0
 10
6.0802243438
 20
9.0725972887
 30
0.0
 10
6.0780414861
 20
9.0568366826
 30
0.0
 10
6.0761935887
 20
9.0407251872
 30
0.0
 10
6.0746955928
 20
9.0243921891
 30
0.0
 10
6.073559585
 20
9.0079688737
 30
0.0
 10
6.0727946948
 20
8.9915871573
 30
0.0
 10
6.0724070159
 20
8.9753786344
 30
0.0
 10
6.0723995288
 20
8.959473441
 30
0.0
 10
6.0727721571
 20
8.9439993759
 30
0.0
 10
6.073403238
 20
8.931434843
 30
0.0
 10
6.0741023306
 20
8.921695306
 30
0.0
 10
6.0747132199
 20
8.9146534802
 30
0.0
 10
6.0754150224
 20
8.9078096805
 30
0.0
 10
6.0762063536
 20
8.9011776407
 30
0.0
 10
6.0770855749
 20
8.8947706762
 30
0.0
 10
6.0780509028
 20
8.8886016402
 30
0.0
 10
6.0791003894
 20
8.8826829028
 30
0.0
 10
6.0802318691
 20
8.8770263162
 30
0.0
 10
6.0814430646
 20
8.8716431924
 30
0.0
 10
6.0827315123
 20
8.8665442725
 30
0.0
 10
6.0840945768
 20
8.8617396988
 30
0.0
 10
6.0855295408
 20
8.8572390004
 30
0.0
 10
6.0870334962
 20
8.85305104
 30
0.0
 10
6.0886034575
 20
8.8491839994
 30
0.0
 10
6.0902363981
 20
8.8456453636
 30
0.0
 10
6.0919291938
 20
8.8424418532
 30
0.0
 10
6.093678843
 20
8.8395794688
 30
0.0
 10
6.0954825014
 20
8.8370634837
 30
0.0
 10
6.0973375295
 20
8.8348985411
 30
0.0
 10
6.0992420147
 20
8.8330889721
 30
0.0
 10
6.1011936773
 20
8.8316393664
 30
0.0
 10
6.1028822949
 20
8.8307229159
 30
0.0
 10
6.1042430802
 20
8.8301871992
 30
0.0
 10
6.1052580868
 20
8.829883315
 30
0.0
 10
6.1062807853
 20
8.8296721754
 30
0.0
 10
6.1069684307
 20
8.8295932748
 30
0.0
 10
6.1073118434
 20
8.8295694581
 30
0.0
  0
SPLINE
  5
2F2
100
AcDbEntity
  8
0
100
AcDbSpline
 62
7
  6
CONTINUOUS
 70
0
 71
3
 72
22
 73
18
 74
0
 42
0.0000001
 43
0.0000001
 44
0.0000000001
 40
0.0
 40
0.0
 40
0.0
 40
0.0
 40
0.0665417738
 40
0.1324178031
 40
0.197628307
 40
0.2621836713
 40
0.3261047437
 40
0.3894224273
 40
0.4521765526
 40
0.51441412
 40
0.5761871208
 40
0.637550182
 40
0.6985582906
 40
0.7592648167
 40
0.8197199431
 40
0.8799695958
 40
1.0
 40
1.0
 40
1.0
 40
1.0
 10
7.327519582
 20
8.2062825002
 30
0.0
 10
7.3240109954
 20
8.2158564836
 30
0.0
 10
7.3173121524
 20
8.2350140912
 30
0.0
 10
7.3082296296
 20
8.2639093454
 30
0.0
 10
7.3002038821
 20
8.2928007886
 30
0.0
 10
7.2932677811
 20
8.3216653695
 30
0.0
 10
7.2874437336
 20
8.3504792129
 30
0.0
 10
7.2827427069
 20
8.3792179857
 30
0.0
 10
7.2791635892
 20
8.4078580195
 30
0.0
 10
7.2766933179
 20
8.4363772442
 30
0.0
 10
7.2753076472
 20
8.4647560513
 30
0.0
 10
7.2749724717
 20
8.4929779224
 30
0.0
 10
7.2756455595
 20
8.5210298721
 30
0.0
 10
7.2772784403
 20
8.5489023858
 30
0.0
 10
7.2798185086
 20
8.5765900174
 30
0.0
 10
7.2843348984
 20
8.6132062682
 30
0.0
 10
7.2889251356
 20
8.6404666338
 30
0.0
 10
7.2924456801
 20
8.6585196112
 30
0.0
  0
SPLINE
  5
2F3
100
AcDbEntity
  8
0
100
AcDbSpline
 62
7
  6
CONTINUOUS
 70
0
 71
3
 72
30
 73
26
 74
0
 42
0.0000001
 43
0.0000001
 44
0.0000000001
 40
0.0
 40
0.0
 40
0.0
 40
0.0
 40
0.0641875981
 40
0.1282574773
 40
0.1921805881
 40
0.2559223748
 40
0.3194446743
 40
0.3511153299
 40
0.3827170458
 40
0.414245655
 40
0.4456975711
 40
0.4770701144
 40
0.5083616209
 40
0.5395714828
 40
0.5707002591
 40
0.6017496728
 40
0.6327224293
 40
0.6636220281
 40
0.6944527273
 40
0.7252192713
 40
0.7559265572
 40
0.8171768826
 40
0.8782504278
 40
0.9391816579
 40
1.0
 40
1.0
 40
1.0
 40
1.0
 10
6.4505596693
 20
8.7582060218
 30
0.0
 10
6.4475112092
 20
8.7645143536
 30
0.0
 10
6.4416277853
 20
8.7772215891
 30
0.0
 10
6.4335454094
 20
8.7965852885
 30
0.0
 10
6.4263376134
 20
8.816241799
 30
0.0
 10
6.420143967
 20
8.8361802634
 30
0.0
 10
6.4159461359
 20
8.8530250243
 30
0.0
 10
6.413242504
 20
8.866600605
 30
0.0
 10
6.4115593106
 20
8.8768127199
 30
0.0
 10
6.4102335179
 20
8.8870533462
 30
0.0
 10
6.4092771464
 20
8.8973100771
 30
0.0
 10
6.4086992985
 20
8.9075692476
 30
0.0
 10
6.4085056757
 20
8.9178164907
 30
0.0
 10
6.4086982935
 20
8.9280371588
 30
0.0
 10
6.4092751891
 20
8.9382168599
 30
0.0
 10
6.4102307033
 20
8.9483419656
 30
0.0
 10
6.411555778
 20
8.9584000356
 30
0.0
 10
6.4132383775
 20
8.9683801753
 30
0.0
 10
6.4152638872
 20
8.9782732609
 30
0.0
 10
6.4176159672
 20
8.9880721544
 30
0.0
 10
6.4211606405
 20
9.0009924056
 30
0.0
 10
6.4263182882
 20
9.0168910375
 30
0.0
 10
6.4335275987
 20
9.0355588041
 30
0.0
 10
6.4416121029
 20
9.0538109267
 30
0.0
 10
6.4475064342
 20
9.0657260878
 30
0.0
 10
6.4505596693
 20
9.0716208155
 30
0.0
  0
SPLINE
  5
2F4
100
AcDbEntity
  8
0
100
AcDbSpline
 62
7
  6
CONTINUOUS
 70
0
 71
3
 72
31
 73
27
 74
0
 42
0.0000001
 43
0.0000001
 44
0.0000000001
 40
0.0
 40
0.0
 40
0.0
 40
0.0
 40
0.0575420155
 40
0.0862430883
 40
0.1149090682
 40
0.1721841456
 40
0.2008394102
 40
0.2295345642
 40
0.2582979781
 40
0.2871616778
 40
0.3161611098
 40
0.3453344636
 40
0.3747214281
 40
0.4043617263
 40
0.4342936868
 40
0.4645525643
 40
0.4951688995
 40
0.5261672715
 40
0.5575655953
 40
0.5893747226
 40
0.6542225359
 40
0.7206853223
 40
0.7886508788
 40
0.8579674949
 40
0.9284703732
 40
1.0
 40
1.0
 40
1.0
 40
1.0
 10
6.4505596693
 20
9.0716208155
 30
0.0
 10
6.4489347286
 20
9.0762225634
 30
0.0
 10
6.4466699013
 20
9.0831823537
 30
0.0
 10
6.4440577234
 20
9.0925726642
 30
0.0
 10
6.4417430753
 20
9.1020172574
 30
0.0
 10
6.4399005619
 20
9.1115700329
 30
0.0
 10
6.4386029747
 20
9.1212066498
 30
0.0
 10
6.4379188414
 20
9.1284801247
 30
0.0
 10
6.4375417716
 20
9.1357937869
 30
0.0
 10
6.4374888188
 20
9.1431430237
 30
0.0
 10
6.437775966
 20
9.1505218253
 30
0.0
 10
6.438417618
 20
9.1579230006
 30
0.0
 10
6.439426004
 20
9.1653381662
 30
0.0
 10
6.4408104377
 20
9.1727579405
 30
0.0
 10
6.4425769871
 20
9.1801721844
 30
0.0
 10
6.4447281423
 20
9.1875703076
 30
0.0
 10
6.4472625858
 20
9.194941644
 30
0.0
 10
6.4501750741
 20
9.2022758447
 30
0.0
 10
6.4534569476
 20
9.2095633435
 30
0.0
 10
6.458340216
 20
9.2192672742
 30
0.0
 10
6.4653159294
 20
9.231231855
 30
0.0
 10
6.4748610617
 20
9.2451938132
 30
0.0
 10
6.4854836247
 20
9.2588351298
 30
0.0
 10
6.4970347787
 20
9.2721531108
 30
0.0
 10
6.5093776857
 20
9.2851580015
 30
0.0
 10
6.5179977149
 20
9.2935763492
 30
0.0
 10
6.5224050658
 20
9.2977450403
 30
0.0
  0
LINE
  5
2F5
100
AcDbEntity
  8
0
100
AcDbLine
 62
7
  6
CONTINUOUS
 10
6.5224050658
 20
9.2977450403
 11
6.523287761
 21
9.2985781586
  0
SPLINE
  5
2F6
100
AcDbEntity
  8
0
100
AcDbSpline
 62
7
  6
CONTINUOUS
 70
0
 71
3
 72
15
 73
11
 74
0
 42
0.0000001
 43
0.0000001
 44
0.0000000001
 40
0.0
 40
0.0
 40
0.0
 40
0.0
 40
0.127348315
 40
0.2538606239
 40
0.3795878599
 40
0.5046051181
 40
0.6290174391
 40
0.7529533757
 40
0.8765605793
 40
1.0
 40
1.0
 40
1.0
 40
1.0
 10
11.2279739078
 20
9.5173635146
 30
0.0
 10
11.2279739078
 20
9.5108651486
 30
0.0
 10
11.2273534423
 20
9.4979020928
 30
0.0
 10
11.2245474699
 20
9.4787068331
 30
0.0
 10
11.2198946895
 20
9.4599938764
 30
0.0
 10
11.2134371402
 20
9.4419382244
 30
0.0
 10
11.2052340265
 20
9.4247064007
 30
0.0
 10
11.1953601712
 20
9.4084575116
 30
0.0
 10
11.1839084171
 20
9.3933437937
 30
0.0
 10
11.1752858265
 20
9.3841114675
 30
0.0
 10
11.1707553164
 20
9.3797353228
 30
0.0
  0
SPLINE
  5
2F7
100
AcDbEntity
  8
0
100
AcDbSpline
 62
7
  6
CONTINUOUS
 70
0
 71
3
 72
15
 73
11
 74
0
 42
0.0000001
 43
0.0000001
 44
0.0000000001
 40
0.0
 40
0.0
 40
0.0
 40
0.0
 40
0.127348315
 40
0.2538606239
 40
0.3795878599
 40
0.5046051181
 40
0.6290174391
 40
0.7529533757
 40
0.8765605793
 40
1.0
 40
1.0
 40
1.0
 40
1.0
 10
15.0916776722
 20
9.2494147484
 30
0.0
 10
15.0916776722
 20
9.2429163825
 30
0.0
 10
15.0910572067
 20
9.2299533267
 30
0.0
 10
15.0882512342
 20
9.210758067
 30
0.0
 10
15.0835984539
 20
9.1920451102
 30
0.0
 10
15.0771409046
 20
9.1739894583
 30
0.0
 10
15.0689377908
 20
9.1567576346
 30
0.0
 10
15.0590639356
 20
9.1405087455
 30
0.0
 10
15.0476121815
 20
9.1253950276
 30
0.0
 10
15.0389895909
 20
9.1161627013
 30
0.0
 10
15.0344590808
 20
9.1117865566
 30
0.0
  0
SPLINE
  5
2F8
100
AcDbEntity
  8
0
100
AcDbSpline
 62
7
  6
CONTINUOUS
 70
0
 71
3
 72
15
 73
11
 74
0
 42
0.0000001
 43
0.0000001
 44
0.0000000001
 40
0.0
 40
0.0
 40
0.0
 40
0.0
 40
0.127348315
 40
0.2538606239
 40
0.3795878599
 40
0.5046051181
 40
0.6290174391
 40
0.7529533757
 40
0.8765605793
 40
1.0
 40
1.0
 40
1.0
 40
1.0
 10
15.0916776722
 20
6.5931185687
 30
0.0
 10
15.0916776722
 20
6.5866202028
 30
0.0
 10
15.0910572067
 20
6.573657147
 30
0.0
 10
15.0882512342
 20
6.5544618873
 30
0.0
 10
15.0835984539
 20
6.5357489306
 30
0.0
 10
15.0771409046
 20
6.5176932786
 30
0.0
 10
15.0689377908
 20
6.5004614549
 30
0.0
 10
15.0590639356
 20
6.4842125658
 30
0.0
 10
15.0476121815
 20
6.4690988479
 30
0.0
 10
15.0389895909
 20
6.4598665216
 30
0.0
 10
15.0344590808
 20
6.4554903769
 30
0.0
  0
SPLINE
  5
2F9
100
AcDbEntity
  8
0
100
AcDbSpline
 62
7
  6
CONTINUOUS
 70
0
 71
3
 72
15
 73
11
 74
0
 42
0.0000001
 43
0.0000001
 44
0.0000000001
 40
0.0
 40
0.0
 40
0.0
 40
0.0
 40
0.127348315
 40
0.2538606239
 40
0.3795878599
 40
0.5046051181
 40
0.6290174391
 40
0.7529533757
 40
0.8765605793
 40
1.0
 40
1.0
 40
1.0
 40
1.0
 10
11.2279739078
 20
6.8610673349
 30
0.0
 10
11.2279739078
 20
6.8545689689
 30
0.0
 10
11.2273534423
 20
6.8416059132
 30
0.0
 10
11.2245474699
 20
6.8224106534
 30
0.0
 10
11.2198946895
 20
6.8036976967
 30
0.0
 10
11.2134371402
 20
6.7856420447
 30
0.0
 10
11.2052340265
 20
6.7684102211
 30
0.0
 10
11.1953601712
 20
6.7521613319
 30
0.0
 10
11.1839084171
 20
6.737047614
 30
0.0
 10
11.1752858265
 20
6.7278152878
 30
0.0
 10
11.1707553164
 20
6.7234391431
 30
0.0
  0
SPLINE
  5
2FA
100
AcDbEntity
  8
0
100
AcDbSpline
 62
7
  6
CONTINUOUS
 70
0
 71
3
 72
15
 73
11
 74
0
 42
0.0000001
 43
0.0000001
 44
0.0000000001
 40
0.0
 40
0.0
 40
0.0
 40
0.0
 40
0.1273482228
 40
0.253860527
 40
0.3795879206
 40
0.5046050801
 40
0.6290174363
 40
0.7529533709
 40
0.8765605784
 40
1.0
 40
1.0
 40
1.0
 40
1.0
 10
12.4580806181
 20
9.4929086489
 30
0.0
 10
12.4580806181
 20
9.4885815545
 30
0.0
 10
12.4576674716
 20
9.4799497865
 30
0.0
 10
12.4557990473
 20
9.4671681462
 30
0.0
 10
12.4527008832
 20
9.454707658
 30
0.0
 10
12.4484009566
 20
9.4426848561
 30
0.0
 10
12.4429387468
 20
9.4312106069
 30
0.0
 10
12.436364025
 20
9.4203908628
 30
0.0
 10
12.4287386105
 20
9.4103270061
 30
0.0
 10
12.4229970608
 20
9.4041794186
 30
0.0
 10
12.4199803125
 20
9.4012654506
 30
0.0
  0
SPLINE
  5
2FB
100
AcDbEntity
  8
0
100
AcDbSpline
 62
7
  6
CONTINUOUS
 70
0
 71
3
 72
15
 73
11
 74
0
 42
0.0000001
 43
0.0000001
 44
0.0000000001
 40
0.0
 40
0.0
 40
0.0
 40
0.0
 40
0.1273482228
 40
0.253860527
 40
0.3795879206
 40
0.5046050801
 40
0.6290174363
 40
0.7529533709
 40
0.8765605784
 40
1.0
 40
1.0
 40
1.0
 40
1.0
 10
13.0617842953
 20
6.6730388569
 30
0.0
 10
13.0617842953
 20
6.6687117625
 30
0.0
 10
13.0613711488
 20
6.6600799945
 30
0.0
 10
13.0595027245
 20
6.6472983542
 30
0.0
 10
13.0564045604
 20
6.634837866
 30
0.0
 10
13.0521046338
 20
6.6228150641
 30
0.0
 10
13.046642424
 20
6.6113408149
 30
0.0
 10
13.0400677022
 20
6.6005210708
 30
0.0
 10
13.0324422877
 20
6.5904572141
 30
0.0
 10
13.026700738
 20
6.5843096266
 30
0.0
 10
13.0236839897
 20
6.5813956586
 30
0.0
  0
SPLINE
  5
2FC
100
AcDbEntity
  8
0
100
AcDbSpline
 62
7
  6
CONTINUOUS
 70
0
 71
3
 72
15
 73
11
 74
0
 42
0.0000001
 43
0.0000001
 44
0.0000000001
 40
0.0
 40
0.0
 40
0.0
 40
0.0
 40
0.127347002
 40
0.2538611168
 40
0.379587791
 40
0.5046051628
 40
0.6290174373
 40
0.7529533687
 40
0.8765605638
 40
1.0
 40
1.0
 40
1.0
 40
1.0
 10
14.0127382613
 20
9.3242394507
 30
0.0
 10
14.0127382613
 20
9.321837185
 30
0.0
 10
14.012508875
 20
9.3170450454
 30
0.0
 10
14.0114715871
 20
9.3099490152
 30
0.0
 10
14.0097514972
 20
9.3030312718
 30
0.0
 10
14.0073642511
 20
9.2963565555
 30
0.0
 10
14.0043316955
 20
9.2899863889
 30
0.0
 10
14.0006814964
 20
9.2839796079
 30
0.0
 10
13.9964479796
 20
9.2783924829
 30
0.0
 10
13.9932603328
 20
9.2749795903
 30
0.0
 10
13.9915854971
 20
9.2733618488
 30
0.0
  0
SPLINE
  5
2FD
100
AcDbEntity
  8
0
100
AcDbSpline
 62
7
  6
CONTINUOUS
 70
0
 71
3
 72
15
 73
11
 74
0
 42
0.0000001
 43
0.0000001
 44
0.0000000001
 40
0.0
 40
0.0
 40
0.0
 40
0.0
 40
0.127347002
 40
0.2538611168
 40
0.379587791
 40
0.5046051628
 40
0.6290174373
 40
0.7529533687
 40
0.8765605638
 40
1.0
 40
1.0
 40
1.0
 40
1.0
 10
11.7940065732
 20
6.8218128362
 30
0.0
 10
11.7940065732
 20
6.8194105705
 30
0.0
 10
11.7937771868
 20
6.8146184309
 30
0.0
 10
11.792739899
 20
6.8075224007
 30
0.0
 10
11.7910198091
 20
6.8006046573
 30
0.0
 10
11.788632563
 20
6.793929941
 30
0.0
 10
11.7856000074
 20
6.7875597744
 30
0.0
 10
11.7819498083
 20
6.7815529934
 30
0.0
 10
11.7777162914
 20
6.7759658684
 30
0.0
 10
11.7745286446
 20
6.7725529758
 30
0.0
 10
11.7728538089
 20
6.7709352343
 30
0.0
  0
SPLINE
  5
2FE
100
AcDbEntity
  8
0
100
AcDbSpline
 62
7
  6
CONTINUOUS
 70
0
 71
3
 72
15
 73
11
 74
0
 42
0.0000001
 43
0.0000001
 44
0.0000000001
 40
0.0
 40
0.0
 40
0.0
 40
0.0
 40
0.1273481407
 40
0.2538605842
 40
0.3795879627
 40
0.5046050991
 40
0.6290174438
 40
0.7529533592
 40
0.8765605627
 40
1.0
 40
1.0
 40
1.0
 40
1.0
 10
14.0581367778
 20
8.7772747579
 30
0.0
 10
14.0581367778
 20
8.7734249597
 30
0.0
 10
14.0577691952
 20
8.7657453045
 30
0.0
 10
14.0561068374
 20
8.7543735262
 30
0.0
 10
14.0533503572
 20
8.7432874832
 30
0.0
 10
14.0495246532
 20
8.7325908664
 30
0.0
 10
14.0446648531
 20
8.7223823112
 30
0.0
 10
14.0388152356
 20
8.712756092
 30
0.0
 10
14.0320308256
 20
8.7038023907
 30
0.0
 10
14.0269224829
 20
8.6983330048
 30
0.0
 10
14.0242384718
 20
8.6957404785
 30
0.0
  0
SPLINE
  5
2FF
100
AcDbEntity
  8
0
100
AcDbSpline
 62
7
  6
CONTINUOUS
 70
0
 71
3
 72
15
 73
11
 74
0
 42
0.0000001
 43
0.0000001
 44
0.0000000001
 40
0.0
 40
0.0
 40
0.0
 40
0.0
 40
0.1273481407
 40
0.2538605842
 40
0.3795879627
 40
0.5046050991
 40
0.6290174438
 40
0.7529533592
 40
0.8765605627
 40
1.0
 40
1.0
 40
1.0
 40
1.0
 10
14.4957012694
 20
7.1174126144
 30
0.0
 10
14.4957012694
 20
7.1135628163
 30
0.0
 10
14.4953336867
 20
7.105883161
 30
0.0
 10
14.4936713289
 20
7.0945113827
 30
0.0
 10
14.4909148488
 20
7.0834253397
 30
0.0
 10
14.4870891447
 20
7.0727287229
 30
0.0
 10
14.4822293447
 20
7.0625201677
 30
0.0
 10
14.4763797271
 20
7.0528939485
 30
0.0
 10
14.4695953172
 20
7.0439402472
 30
0.0
 10
14.4644869745
 20
7.0384708613
 30
0.0
 10
14.4618029634
 20
7.035878335
 30
0.0
  0
SPLINE
  5
300
100
AcDbEntity
  8
0
100
AcDbSpline
 62
7
  6
CONTINUOUS
 70
0
 71
3
 72
11
 73
7
 74
0
 42
0.0000001
 43
0.0000001
 44
0.0000000001
 40
0.0
 40
0.0
 40
0.0
 40
0.0
 40
0.248112521
 40
0.4975302639
 40
0.7481926024
 40
1.0
 40
1.0
 40
1.0
 40
1.0
 10
11.7186643542
 20
8.5859143234
 30
0.0
 10
11.7104680045
 20
8.5864827422
 30
0.0
 10
11.6940699766
 20
8.588267808
 30
0.0
 10
11.6696972642
 20
8.5928471175
 30
0.0
 10
11.6456261761
 20
8.5993004305
 30
0.0
 10
11.6299064616
 20
8.6048090868
 30
0.0
 10
11.6221442921
 20
8.6078549782
 30
0.0
  0
SPLINE
  5
301
100
AcDbEntity
  8
0
100
AcDbSpline
 62
7
  6
CONTINUOUS
 70
0
 71
3
 72
21
 73
17
 74
0
 42
0.0000001
 43
0.0000001
 44
0.0000000001
 40
0.0
 40
0.0
 40
0.0
 40
0.0
 40
0.1273175203
 40
0.253800042
 40
0.3167619342
 40
0.3795354977
 40
0.4421315044
 40
0.5045621463
 40
0.5668413435
 40
0.6289845249
 40
0.6910084556
 40
0.7529310973
 40
0.8147714461
 40
0.8765493353
 40
0.9382852242
 40
1.0
 40
1.0
 40
1.0
 40
1.0
 10
13.288293915
 20
8.8306635418
 30
0.0
 10
13.288293915
 20
8.8191143175
 30
0.0
 10
13.2871914555
 20
8.7960767491
 30
0.0
 10
13.2830278868
 20
8.7675973396
 30
0.0
 10
13.2780514463
 20
8.7452577273
 30
0.0
 10
13.2735131914
 20
8.7287800394
 30
0.0
 10
13.268174298
 20
8.712595109
 30
0.0
 10
13.2620469181
 20
8.6967398465
 30
0.0
 10
13.2551452134
 20
8.6812509214
 30
0.0
 10
13.2474850855
 20
8.6661640142
 30
0.0
 10
13.2390841349
 20
8.6515139562
 30
0.0
 10
13.22996169
 20
8.637334549
 30
0.0
 10
13.220138853
 20
8.6236585038
 30
0.0
 10
13.209638147
 20
8.6105172631
 30
0.0
 10
13.1984841534
 20
8.5979415936
 30
0.0
 10
13.1906283131
 20
8.5899527204
 30
0.0
 10
13.1866017327
 20
8.5860633412
 30
0.0
  0
SPLINE
  5
302
100
AcDbEntity
  8
0
100
AcDbSpline
 62
7
  6
CONTINUOUS
 70
0
 71
3
 72
21
 73
17
 74
0
 42
0.0000001
 43
0.0000001
 44
0.0000000001
 40
0.0
 40
0.0
 40
0.0
 40
0.0
 40
0.1273175203
 40
0.253800042
 40
0.3167619342
 40
0.3795354977
 40
0.4421315044
 40
0.5045621463
 40
0.5668413435
 40
0.6289845249
 40
0.6910084556
 40
0.7529310973
 40
0.8147714461
 40
0.8765493353
 40
0.9382852242
 40
1.0
 40
1.0
 40
1.0
 40
1.0
 10
13.8919975922
 20
7.2201329023
 30
0.0
 10
13.8919975922
 20
7.208583678
 30
0.0
 10
13.8908951327
 20
7.1855461096
 30
0.0
 10
13.886731564
 20
7.1570667001
 30
0.0
 10
13.8817551235
 20
7.1347270878
 30
0.0
 10
13.8772168686
 20
7.1182493999
 30
0.0
 10
13.8718779752
 20
7.1020644695
 30
0.0
 10
13.8657505954
 20
7.086209207
 30
0.0
 10
13.8588488906
 20
7.0707202819
 30
0.0
 10
13.8511887627
 20
7.0556333748
 30
0.0
 10
13.8427878121
 20
7.0409833167
 30
0.0
 10
13.8336653672
 20
7.0268039095
 30
0.0
 10
13.8238425302
 20
7.0131278643
 30
0.0
 10
13.8133418242
 20
6.9999866236
 30
0.0
 10
13.8021878306
 20
6.9874109541
 30
0.0
 10
13.7943319903
 20
6.979422081
 30
0.0
 10
13.7903054099
 20
6.9755327017
 30
0.0
  0
SPLINE
  5
303
100
AcDbEntity
  8
0
100
AcDbSpline
 62
7
  6
CONTINUOUS
 70
0
 71
3
 72
21
 73
17
 74
0
 42
0.0000001
 43
0.0000001
 44
0.0000000001
 40
0.0
 40
0.0
 40
0.0
 40
0.0
 40
0.1273175203
 40
0.253800042
 40
0.3167619342
 40
0.3795354977
 40
0.4421315044
 40
0.5045621463
 40
0.5668413435
 40
0.6289845249
 40
0.6910084556
 40
0.7529310973
 40
0.8147714461
 40
0.8765493353
 40
0.9382852242
 40
1.0
 40
1.0
 40
1.0
 40
1.0
 10
12.6845902378
 20
7.3038668867
 30
0.0
 10
12.6845902378
 20
7.2923176624
 30
0.0
 10
12.6834877783
 20
7.269280094
 30
0.0
 10
12.6793242096
 20
7.2408006846
 30
0.0
 10
12.6743477691
 20
7.2184610722
 30
0.0
 10
12.6698095142
 20
7.2019833844
 30
0.0
 10
12.6644706208
 20
7.1857984539
 30
0.0
 10
12.6583432409
 20
7.1699431914
 30
0.0
 10
12.6514415362
 20
7.1544542664
 30
0.0
 10
12.6437814083
 20
7.1393673592
 30
0.0
 10
12.6353804577
 20
7.1247173012
 30
0.0
 10
12.6262580128
 20
7.110537894
 30
0.0
 10
12.6164351758
 20
7.0968618487
 30
0.0
 10
12.6059344698
 20
7.083720608
 30
0.0
 10
12.5947804762
 20
7.0711449385
 30
0.0
 10
12.5869246359
 20
7.0631560654
 30
0.0
 10
12.5828980555
 20
7.0592666861
 30
0.0
  0
SPLINE
  5
304
100
AcDbEntity
  8
0
100
AcDbSpline
 62
7
  6
CONTINUOUS
 70
0
 71
3
 72
23
 73
19
 74
0
 42
0.0000001
 43
0.0000001
 44
0.0000000001
 40
0.0
 40
0.0
 40
0.0
 40
0.0
 40
0.0694938171
 40
0.1389555444
 40
0.2081834984
 40
0.2769768571
 40
0.3451364053
 40
0.4124652837
 40
0.4787697425
 40
0.5438599043
 40
0.6075505401
 40
0.669661864
 40
0.7300203556
 40
0.7884596218
 40
0.8448213151
 40
0.8989561325
 40
0.9507249296
 40
1.0
 40
1.0
 40
1.0
 40
1.0
 10
11.7949553258
 20
8.5902524083
 30
0.0
 10
11.7958927941
 20
8.6018077881
 30
0.0
 10
11.7976062346
 20
8.6249266015
 30
0.0
 10
11.7996915899
 20
8.659595335
 30
0.0
 10
11.8012876277
 20
8.6941731418
 30
0.0
 10
11.802389413
 20
8.7285528797
 30
0.0
 10
11.802993567
 20
8.7626281352
 30
0.0
 10
11.8030982598
 20
8.7962934141
 30
0.0
 10
11.8027032215
 20
8.8294445078
 30
0.0
 10
11.8018097437
 20
8.8619788099
 30
0.0
 10
11.8004206763
 20
8.8937956394
 30
0.0
 10
11.7985404212
 20
8.9247965584
 30
0.0
 10
11.7961749203
 20
8.9548856797
 30
0.0
 10
11.7933316384
 20
8.9839699844
 30
0.0
 10
11.7900195466
 20
9.0119595803
 30
0.0
 10
11.7862490794
 20
9.0387681418
 30
0.0
 10
11.7820321632
 20
9.0643126871
 30
0.0
 10
11.7788511157
 20
9.0808691404
 30
0.0
 10
11.7771797154
 20
9.0889177696
 30
0.0
  0
SPLINE
  5
305
100
AcDbEntity
  8
0
100
AcDbSpline
 62
7
  6
CONTINUOUS
 70
0
 71
3
 72
39
 73
35
 74
0
 42
0.0000001
 43
0.0000001
 44
0.0000000001
 40
0.0
 40
0.0
 40
0.0
 40
0.0
 40
0.0328770581
 40
0.0652471434
 40
0.0970957158
 40
0.1284601118
 40
0.159400006
 40
0.1899820094
 40
0.2202724612
 40
0.2503344227
 40
0.2802269416
 40
0.3100052372
 40
0.339721235
 40
0.3694241126
 40
0.3991606625
 40
0.4289754021
 40
0.4589103984
 40
0.4890047437
 40
0.5192937327
 40
0.5498076449
 40
0.580570301
 40
0.6115976944
 40
0.6428969417
 40
0.674465601
 40
0.7062919411
 40
0.738356191
 40
0.7706324686
 40
0.8030909106
 40
0.8357001455
 40
0.868429249
 40
0.9012491543
 40
0.9341332728
 40
0.9670575396
 40
1.0
 40
1.0
 40
1.0
 40
1.0
 10
11.9658591149
 20
9.1584129997
 30
0.0
 10
11.9572292086
 20
9.1572215067
 30
0.0
 10
11.9401647402
 20
9.1543789393
 30
0.0
 10
11.9150407261
 20
9.1487812639
 30
0.0
 10
11.8906347158
 20
9.1419666445
 30
0.0
 10
11.8669807887
 20
9.1339979849
 30
0.0
 10
11.8440923059
 20
9.124915739
 30
0.0
 10
11.8219796436
 20
9.1147434379
 30
0.0
 10
11.8006581323
 20
9.1034923363
 30
0.0
 10
11.7801523498
 20
9.0911652031
 30
0.0
 10
11.7604980992
 20
9.0777594365
 30
0.0
 10
11.7417433594
 20
9.0632697128
 30
0.0
 10
11.7239487644
 20
9.0476904117
 30
0.0
 10
11.7071878457
 20
9.0310180539
 30
0.0
 10
11.6915470284
 20
9.0132539657
 30
0.0
 10
11.6771252747
 20
8.9944072744
 30
0.0
 10
11.6640331843
 20
8.9744982659
 30
0.0
 10
11.6523913078
 20
8.9535620419
 30
0.0
 10
11.6423274234
 20
8.9316523262
 30
0.0
 10
11.6339725613
 20
8.9088450962
 30
0.0
 10
11.6274556743
 20
8.8852415352
 30
0.0
 10
11.6228971114
 20
8.8609696471
 30
0.0
 10
11.6204014012
 20
8.8361839516
 30
0.0
 10
11.6200501279
 20
8.8110628197
 30
0.0
 10
11.6218959554
 20
8.7858034025
 30
0.0
 10
11.6259585594
 20
8.7606145626
 30
0.0
 10
11.6322236194
 20
8.735708884
 30
0.0
 10
11.6406445579
 20
8.7112949199
 30
0.0
 10
11.6511465586
 20
8.6875707784
 30
0.0
 10
11.6636320676
 20
8.6647196168
 30
0.0
 10
11.6779865068
 20
8.6429076606
 30
0.0
 10
11.6940844022
 20
8.6222835695
 30
0.0
 10
11.7117910293
 20
8.6029820302
 30
0.0
 10
11.7245793315
 20
8.5910733712
 30
0.0
 10
11.7311945742
 20
8.5853781313
 30
0.0
  0
SPLINE
  5
306
100
AcDbEntity
  8
0
100
AcDbSpline
 62
7
  6
CONTINUOUS
 70
0
 71
3
 72
32
 73
28
 74
0
 42
0.0000001
 43
0.0000001
 44
0.0000000001
 40
0.0
 40
0.0
 40
0.0
 40
0.0
 40
0.0851787336
 40
0.1685810096
 40
0.2498835716
 40
0.3287745562
 40
0.404955028
 40
0.4781412829
 40
0.5480670187
 40
0.5817301622
 40
0.6144876613
 40
0.6463121802
 40
0.6771783478
 40
0.7070622542
 40
0.7359422461
 40
0.7637984486
 40
0.7906136241
 40
0.816372753
 40
0.8410639787
 40
0.8646782957
 40
0.8872106222
 40
0.9086596695
 40
0.9290292143
 40
0.9483282651
 40
0.9665726485
 40
0.9837856363
 40
1.0
 40
1.0
 40
1.0
 40
1.0
 10
8.2296063432
 20
7.3532915681
 30
0.0
 10
8.2296063432
 20
7.3422894436
 30
0.0
 10
8.2297938251
 20
7.3205141203
 30
0.0
 10
8.2306536985
 20
7.2882475777
 30
0.0
 10
8.2320858476
 20
7.2568140986
 30
0.0
 10
8.2340840533
 20
7.2263461243
 30
0.0
 10
8.2366396506
 20
7.1969717163
 30
0.0
 10
8.23974166
 20
7.1688145433
 30
0.0
 10
8.2428082282
 20
7.1461852683
 30
0.0
 10
8.2455377931
 20
7.1287863569
 30
0.0
 10
8.2476868404
 20
7.1162793076
 30
0.0
 10
8.2499614512
 20
7.1041618555
 30
0.0
 10
8.2523591476
 20
7.0924467251
 30
0.0
 10
8.2548774803
 20
7.0811462289
 30
0.0
 10
8.2575136793
 20
7.0702722274
 30
0.0
 10
8.2602650574
 20
7.0598361293
 30
0.0
 10
8.2631285962
 20
7.0498488586
 30
0.0
 10
8.2661013806
 20
7.0403208688
 30
0.0
 10
8.2691801657
 20
7.0312620888
 30
0.0
 10
8.2723618324
 20
7.0226819633
 30
0.0
 10
8.2756429401
 20
7.014589368
 30
0.0
 10
8.2790202034
 20
7.0069926882
 30
0.0
 10
8.2824900424
 20
6.9998996856
 30
0.0
 10
8.2860490533
 20
6.9933176651
 30
0.0
 10
8.2896936708
 20
6.9872531618
 30
0.0
 10
8.2934202711
 20
6.9817126501
 30
0.0
 10
8.2960333497
 20
6.9782714649
 30
0.0
 10
8.2973548124
 20
6.9766466702
 30
0.0
  0
SPLINE
  5
307
100
AcDbEntity
  8
0
100
AcDbSpline
 62
7
  6
CONTINUOUS
 70
0
 71
3
 72
39
 73
35
 74
0
 42
0.0000001
 43
0.0000001
 44
0.0000000001
 40
0.0
 40
0.0
 40
0.0
 40
0.0
 40
0.0071625678
 40
0.0146567179
 40
0.0224900413
 40
0.0306687017
 40
0.0391977329
 40
0.0480809761
 40
0.0573207983
 40
0.0669183965
 40
0.0768741435
 40
0.0871874377
 40
0.1088799456
 40
0.131978928
 40
0.1564568622
 40
0.182278431
 40
0.2094015018
 40
0.2377780607
 40
0.2673549092
 40
0.2980741881
 40
0.3298737896
 40
0.3626878448
 40
0.3964471028
 40
0.4310792359
 40
0.4665091073
 40
0.5026591244
 40
0.5394495258
 40
0.5767986285
 40
0.6146230679
 40
0.6913563402
 40
0.7689609431
 40
0.8467367595
 40
0.9239813805
 40
1.0
 40
1.0
 40
1.0
 40
1.0
 10
8.3670391427
 20
10.1123939437
 30
0.0
 10
8.3658889341
 20
10.1112829275
 30
0.0
 10
8.3635900334
 20
10.108952222
 30
0.0
 10
8.3602205662
 20
10.1052275211
 30
0.0
 10
8.3568553287
 20
10.1011986683
 30
0.0
 10
8.3534965731
 20
10.0968682649
 30
0.0
 10
8.3501461208
 20
10.0922389036
 30
0.0
 10
8.346805946
 20
10.0873132196
 30
0.0
 10
8.3434779418
 20
10.0820941202
 30
0.0
 10
8.340164076
 20
10.0765847161
 30
0.0
 10
8.3368663779
 20
10.0707882526
 30
0.0
 10
8.3324184595
 20
10.0625420422
 30
0.0
 10
8.3269262337
 20
10.0515288828
 30
0.0
 10
8.3205371559
 20
10.0374414686
 30
0.0
 10
8.314258647
 20
10.0223015691
 30
0.0
 10
8.3081058709
 20
10.0061453645
 30
0.0
 10
8.3020936743
 20
9.9890112806
 30
0.0
 10
8.2962366068
 20
9.9709402903
 30
0.0
 10
8.2905488563
 20
9.9519756491
 30
0.0
 10
8.2850442144
 20
9.9321628293
 30
0.0
 10
8.2797359944
 20
9.9115494027
 30
0.0
 10
8.2746370445
 20
9.8901849003
 30
0.0
 10
8.2697597105
 20
9.8681206732
 30
0.0
 10
8.2651158077
 20
9.8454097791
 30
0.0
 10
8.2607165533
 20
9.8221068617
 30
0.0
 10
8.2565725774
 20
9.7982679975
 30
0.0
 10
8.2526939114
 20
9.773950568
 30
0.0
 10
8.2490899
 20
9.7492130627
 30
0.0
 10
8.2446414107
 20
9.7155894271
 30
0.0
 10
8.2398358799
 20
9.6729508064
 30
0.0
 10
8.2353096915
 20
9.6213203685
 30
0.0
 10
8.2320406783
 20
9.5694804514
 30
0.0
 10
8.2300602028
 20
9.5179300207
 30
0.0
 10
8.2296063432
 20
9.4837098775
 30
0.0
 10
8.2296063432
 20
9.4667374013
 30
0.0
  0
SPLINE
  5
308
100
AcDbEntity
  8
0
100
AcDbSpline
 62
7
  6
CONTINUOUS
 70
0
 71
3
 72
17
 73
13
 74
0
 42
0.0000001
 43
0.0000001
 44
0.0000000001
 40
0.0
 40
0.0
 40
0.0
 40
0.0
 40
0.0544358448
 40
0.1090885253
 40
0.2198402599
 40
0.3339491399
 40
0.4528985532
 40
0.5146194848
 40
0.5780176026
 40
0.7103219531
 40
0.8507493365
 40
1.0
 40
1.0
 40
1.0
 40
1.0
 10
9.0283005945
 20
10.7303136391
 30
0.0
 10
9.0275376297
 20
10.7303665562
 30
0.0
 10
9.0260046707
 20
10.7304225948
 30
0.0
 10
9.0229155541
 20
10.7303343441
 30
0.0
 10
9.0190080299
 20
10.7298403956
 30
0.0
 10
9.0143162394
 20
10.7286465995
 30
0.0
 10
9.0104372622
 20
10.7271703434
 30
0.0
 10
9.0073349958
 20
10.7257068041
 30
0.0
 10
9.0041430711
 20
10.7240033855
 30
0.0
 10
9.000139379
 20
10.7214860673
 30
0.0
 10
8.9953952692
 20
10.717921182
 30
0.0
 10
8.9923272137
 20
10.7152412776
 30
0.0
 10
8.9907922334
 20
10.7138127022
 30
0.0
  0
SPLINE
  5
309
100
AcDbEntity
  8
0
100
AcDbSpline
 62
7
  6
CONTINUOUS
 70
0
 71
3
 72
18
 73
14
 74
0
 42
0.0000001
 43
0.0000001
 44
0.0000000001
 40
0.0
 40
0.0
 40
0.0
 40
0.0
 40
0.1492438628
 40
0.2896566766
 40
0.4219552654
 40
0.4853510326
 40
0.5470696139
 40
0.6660130313
 40
0.7801157008
 40
0.8358361162
 40
0.8909169338
 40
0.9455668697
 40
1.0
 40
1.0
 40
1.0
 40
1.0
 10
8.3232298372
 20
6.9448319948
 30
0.0
 10
8.3245529265
 20
6.9432051848
 30
0.0
 10
8.3272215948
 20
6.9401274459
 30
0.0
 10
8.3314282498
 20
6.9359419547
 30
0.0
 10
8.3350460364
 20
6.9328960451
 30
0.0
 10
8.3379723211
 20
6.9307683309
 30
0.0
 10
8.3408429289
 20
6.9288905096
 30
0.0
 10
8.3444806128
 20
6.9268929613
 30
0.0
 10
8.3482466597
 20
6.9253557311
 30
0.0
 10
8.3512722564
 20
6.9244379051
 30
0.0
 10
8.3535365177
 20
6.9239043055
 30
0.0
 10
8.3558124557
 20
6.9235204975
 30
0.0
 10
8.3573384324
 20
6.9233644004
 30
0.0
 10
8.3581014011
 20
6.923311483
 30
0.0
  0
SPLINE
  5
30A
100
AcDbEntity
  8
0
100
AcDbSpline
 62
7
  6
CONTINUOUS
 70
0
 71
3
 72
41
 73
37
 74
0
 42
0.0000001
 43
0.0000001
 44
0.0000000001
 40
0.0
 40
0.0
 40
0.0
 40
0.0
 40
0.0299421701
 40
0.0599087164
 40
0.0899234211
 40
0.1200088983
 40
0.1501860543
 40
0.1804736026
 40
0.2108876422
 40
0.2414413123
 40
0.2721445279
 40
0.3030038001
 40
0.33402214
 40
0.3651990456
 40
0.3965305656
 40
0.428009435
 40
0.4596252751
 40
0.4913648511
 40
0.523212379
 40
0.5551498748
 40
0.5871575372
 40
0.6192141578
 40
0.6512975514
 40
0.6833850007
 40
0.7154537075
 40
0.7314764095
 40
0.7474860758
 40
0.7794508394
 40
0.8113324795
 40
0.8431123195
 40
0.8747737607
 40
0.9063025939
 40
0.9376875098
 40
0.9533255635
 40
0.9689249841
 40
1.0
 40
1.0
 40
1.0
 40
1.0
 10
12.0618380074
 20
7.5987074779
 30
0.0
 10
12.0680591323
 20
7.604716625
 30
0.0
 10
12.0809905605
 20
7.6162499588
 30
0.0
 10
12.1017087229
 20
7.6319620877
 30
0.0
 10
12.1236420074
 20
7.6460077117
 30
0.0
 10
12.1466678625
 20
7.6583080358
 30
0.0
 10
12.1706596955
 20
7.6687958564
 30
0.0
 10
12.1954850975
 20
7.6774135198
 30
0.0
 10
12.2210072632
 20
7.6841138797
 30
0.0
 10
12.2470855827
 20
7.6888603572
 30
0.0
 10
12.2735764734
 20
7.6916271717
 30
0.0
 10
12.3003341615
 20
7.6923994493
 30
0.0
 10
12.3272114869
 20
7.6911732883
 30
0.0
 10
12.3540607073
 20
7.6879557622
 30
0.0
 10
12.3807343024
 20
7.6827648659
 30
0.0
 10
12.4070857743
 20
7.6756294039
 30
0.0
 10
12.4329704422
 20
7.6665888256
 30
0.0
 10
12.4582462277
 20
7.6556930085
 30
0.0
 10
12.4827744231
 20
7.643001969
 30
0.0
 10
12.5064204375
 20
7.6285855391
 30
0.0
 10
12.5290545405
 20
7.6125229619
 30
0.0
 10
12.5505525078
 20
7.594902537
 30
0.0
 10
12.570796507
 20
7.5758208476
 30
0.0
 10
12.5896749432
 20
7.5553833261
 30
0.0
 10
12.604188844
 20
7.5373077496
 30
0.0
 10
12.6150175132
 20
7.5222832766
 30
0.0
 10
12.625301414
 20
7.5069169384
 30
0.0
 10
12.6371249398
 20
7.4870857321
 30
0.0
 10
12.6495892464
 20
7.4624092932
 30
0.0
 10
12.6602558683
 20
7.4369983319
 30
0.0
 10
12.6690656178
 20
7.4109927569
 30
0.0
 10
12.675969963
 20
7.3845359801
 30
0.0
 10
12.6801092542
 20
7.3622035767
 30
0.0
 10
12.6824312946
 20
7.3442597991
 30
0.0
 10
12.6840884632
 20
7.3263331794
 30
0.0
 10
12.6845902378
 20
7.3128435394
 30
0.0
 10
12.6845902378
 20
7.3038668867
 30
0.0
  0
SPLINE
  5
30B
100
AcDbEntity
  8
0
100
AcDbSpline
 62
7
  6
CONTINUOUS
 70
0
 71
3
 72
41
 73
37
 74
0
 42
0.0000001
 43
0.0000001
 44
0.0000000001
 40
0.0
 40
0.0
 40
0.0
 40
0.0
 40
0.0299421238
 40
0.0449237703
 40
0.059914519
 40
0.0899291762
 40
0.1200146048
 40
0.1350933663
 40
0.1501974853
 40
0.1804849834
 40
0.2108989722
 40
0.2414525913
 40
0.2721557558
 40
0.3030149766
 40
0.3340332647
 40
0.365210118
 40
0.396541585
 40
0.4280204007
 40
0.4596361866
 40
0.4913757084
 40
0.5232231826
 40
0.5551606251
 40
0.5871682346
 40
0.6192248024
 40
0.6513081434
 40
0.68339554
 40
0.7154641944
 40
0.7474916807
 40
0.7794563937
 40
0.8113379827
 40
0.8431177771
 40
0.8747791563
 40
0.9063079829
 40
0.9376927254
 40
0.9689252285
 40
1.0
 40
1.0
 40
1.0
 40
1.0
 10
10.8775717763
 20
9.6832602995
 30
0.0
 10
10.8810721955
 20
9.6866414511
 30
0.0
 10
10.8865291191
 20
9.6915083449
 30
0.0
 10
10.8941714834
 20
9.6975470399
 30
0.0
 10
10.9020571753
 20
9.7032853018
 30
0.0
 10
10.9123467527
 20
9.7098746445
 30
0.0
 10
10.9231366105
 20
9.7156384393
 30
0.0
 10
10.9320354558
 20
9.7197388095
 30
0.0
 10
10.941118126
 20
9.7235006958
 30
0.0
 10
10.9527707871
 20
9.7275457941
 30
0.0
 10
10.9671309331
 20
9.7313157434
 30
0.0
 10
10.9818044274
 20
9.7339864852
 30
0.0
 10
10.9967099508
 20
9.7355432857
 30
0.0
 10
11.011765624
 20
9.7359778364
 30
0.0
 10
11.0268886058
 20
9.7352879258
 30
0.0
 10
11.0419957764
 20
9.7334775392
 30
0.0
 10
11.0570041282
 20
9.7305568017
 30
0.0
 10
11.0718312329
 20
9.7265419231
 30
0.0
 10
11.0863956841
 20
9.7214551016
 30
0.0
 10
11.1006175387
 20
9.7153243985
 30
0.0
 10
11.1144187496
 20
9.7081835823
 30
0.0
 10
11.1277235875
 20
9.700071942
 30
0.0
 10
11.1404590515
 20
9.6910340723
 30
0.0
 10
11.1525552645
 20
9.6811196294
 30
0.0
 10
11.1639458515
 20
9.6703830604
 30
0.0
 10
11.1745683004
 20
9.6588833074
 30
0.0
 10
11.1843643011
 20
9.6466834863
 30
0.0
 10
11.1932800627
 20
9.6338505446
 30
0.0
 10
11.2012666051
 20
9.620454898
 30
0.0
 10
11.2082800292
 20
9.6065700468
 30
0.0
 10
11.214281748
 20
9.5922721861
 30
0.0
 10
11.2192387194
 20
9.5776397568
 30
0.0
 10
11.2231235802
 20
9.5627531614
 30
0.0
 10
11.2259148921
 20
9.5476938115
 30
0.0
 10
11.2275971112
 20
9.5325455412
 30
0.0
 10
11.2279739078
 20
9.5224143491
 30
0.0
 10
11.2279739078
 20
9.5173635146
 30
0.0
  0
SPLINE
  5
30C
100
AcDbEntity
  8
0
100
AcDbSpline
 62
7
  6
CONTINUOUS
 70
0
 71
3
 72
41
 73
37
 74
0
 42
0.0000001
 43
0.0000001
 44
0.0000000001
 40
0.0
 40
0.0
 40
0.0
 40
0.0
 40
0.0299421701
 40
0.0599087164
 40
0.0899234211
 40
0.1200088983
 40
0.1501860543
 40
0.1804736026
 40
0.2108876422
 40
0.2414413123
 40
0.2721445279
 40
0.3030038001
 40
0.33402214
 40
0.3651990456
 40
0.3965305656
 40
0.428009435
 40
0.4596252751
 40
0.4913648511
 40
0.523212379
 40
0.5551498748
 40
0.5871575372
 40
0.6192141578
 40
0.6512975514
 40
0.6833850007
 40
0.7154537075
 40
0.7314764095
 40
0.7474860758
 40
0.7794508394
 40
0.8113324795
 40
0.8431123195
 40
0.8747737607
 40
0.9063025939
 40
0.9376875098
 40
0.9533255635
 40
0.9689249841
 40
1.0
 40
1.0
 40
1.0
 40
1.0
 10
13.2692453618
 20
7.5149734935
 30
0.0
 10
13.2754664867
 20
7.5209826405
 30
0.0
 10
13.2883979149
 20
7.5325159744
 30
0.0
 10
13.3091160773
 20
7.5482281033
 30
0.0
 10
13.3310493618
 20
7.5622737273
 30
0.0
 10
13.3540752169
 20
7.5745740514
 30
0.0
 10
13.3780670499
 20
7.585061872
 30
0.0
 10
13.4028924519
 20
7.5936795354
 30
0.0
 10
13.4284146176
 20
7.6003798952
 30
0.0
 10
13.4544929371
 20
7.6051263728
 30
0.0
 10
13.4809838278
 20
7.6078931873
 30
0.0
 10
13.5077415159
 20
7.6086654649
 30
0.0
 10
13.5346188413
 20
7.6074393039
 30
0.0
 10
13.5614680617
 20
7.6042217778
 30
0.0
 10
13.5881416568
 20
7.5990308815
 30
0.0
 10
13.6144931287
 20
7.5918954194
 30
0.0
 10
13.6403777966
 20
7.5828548412
 30
0.0
 10
13.6656535821
 20
7.5719590241
 30
0.0
 10
13.6901817775
 20
7.5592679846
 30
0.0
 10
13.7138277919
 20
7.5448515547
 30
0.0
 10
13.7364618949
 20
7.5287889774
 30
0.0
 10
13.7579598622
 20
7.5111685526
 30
0.0
 10
13.7782038614
 20
7.4920868631
 30
0.0
 10
13.7970822976
 20
7.4716493417
 30
0.0
 10
13.8115961984
 20
7.4535737652
 30
0.0
 10
13.8224248676
 20
7.4385492922
 30
0.0
 10
13.8327087684
 20
7.423182954
 30
0.0
 10
13.8445322942
 20
7.4033517477
 30
0.0
 10
13.8569966008
 20
7.3786753088
 30
0.0
 10
13.8676632227
 20
7.3532643474
 30
0.0
 10
13.8764729722
 20
7.3272587725
 30
0.0
 10
13.8833773174
 20
7.3008019957
 30
0.0
 10
13.8875166086
 20
7.2784695922
 30
0.0
 10
13.889838649
 20
7.2605258146
 30
0.0
 10
13.8914958176
 20
7.242599195
 30
0.0
 10
13.8919975922
 20
7.229109555
 30
0.0
 10
13.8919975922
 20
7.2201329023
 30
0.0
  0
SPLINE
  5
30D
100
AcDbEntity
  8
0
100
AcDbSpline
 62
7
  6
CONTINUOUS
 70
0
 71
3
 72
41
 73
37
 74
0
 42
0.0000001
 43
0.0000001
 44
0.0000000001
 40
0.0
 40
0.0
 40
0.0
 40
0.0
 40
0.0299421238
 40
0.0449237703
 40
0.059914519
 40
0.0899291762
 40
0.1200146048
 40
0.1350933663
 40
0.1501974853
 40
0.1804849834
 40
0.2108989722
 40
0.2414525913
 40
0.2721557558
 40
0.3030149766
 40
0.3340332647
 40
0.365210118
 40
0.396541585
 40
0.4280204007
 40
0.4596361866
 40
0.4913757084
 40
0.5232231826
 40
0.5551606251
 40
0.5871682346
 40
0.6192248024
 40
0.6513081434
 40
0.68339554
 40
0.7154641944
 40
0.7474916807
 40
0.7794563937
 40
0.8113379827
 40
0.8431177771
 40
0.8747791563
 40
0.9063079829
 40
0.9376927254
 40
0.9689252285
 40
1.0
 40
1.0
 40
1.0
 40
1.0
 10
14.7412755406
 20
9.4153115333
 30
0.0
 10
14.7447759599
 20
9.4186926849
 30
0.0
 10
14.7502328835
 20
9.4235595787
 30
0.0
 10
14.7578752478
 20
9.4295982738
 30
0.0
 10
14.7657609397
 20
9.4353365356
 30
0.0
 10
14.776050517
 20
9.4419258784
 30
0.0
 10
14.7868403749
 20
9.4476896731
 30
0.0
 10
14.7957392201
 20
9.4517900434
 30
0.0
 10
14.8048218904
 20
9.4555519297
 30
0.0
 10
14.8164745515
 20
9.459597028
 30
0.0
 10
14.8308346975
 20
9.4633669773
 30
0.0
 10
14.8455081917
 20
9.4660377191
 30
0.0
 10
14.8604137152
 20
9.4675945196
 30
0.0
 10
14.8754693884
 20
9.4680290703
 30
0.0
 10
14.8905923702
 20
9.4673391597
 30
0.0
 10
14.9056995408
 20
9.465528773
 30
0.0
 10
14.9207078925
 20
9.4626080355
 30
0.0
 10
14.9355349973
 20
9.458593157
 30
0.0
 10
14.9500994485
 20
9.4535063355
 30
0.0
 10
14.9643213031
 20
9.4473756324
 30
0.0
 10
14.9781225139
 20
9.4402348161
 30
0.0
 10
14.9914273518
 20
9.4321231759
 30
0.0
 10
15.0041628159
 20
9.4230853062
 30
0.0
 10
15.0162590289
 20
9.4131708632
 30
0.0
 10
15.0276496159
 20
9.4024342943
 30
0.0
 10
15.0382720648
 20
9.3909345412
 30
0.0
 10
15.0480680655
 20
9.3787347201
 30
0.0
 10
15.0569838271
 20
9.3659017785
 30
0.0
 10
15.0649703694
 20
9.3525061319
 30
0.0
 10
15.0719837936
 20
9.3386212807
 30
0.0
 10
15.0779855124
 20
9.3243234199
 30
0.0
 10
15.0829424838
 20
9.3096909906
 30
0.0
 10
15.0868273446
 20
9.2948043953
 30
0.0
 10
15.0896186565
 20
9.2797450453
 30
0.0
 10
15.0913008756
 20
9.2645967751
 30
0.0
 10
15.0916776722
 20
9.254465583
 30
0.0
 10
15.0916776722
 20
9.2494147484
 30
0.0
  0
SPLINE
  5
30E
100
AcDbEntity
  8
0
100
AcDbSpline
 62
7
  6
CONTINUOUS
 70
0
 71
3
 72
41
 73
37
 74
0
 42
0.0000001
 43
0.0000001
 44
0.0000000001
 40
0.0
 40
0.0
 40
0.0
 40
0.0
 40
0.0299421701
 40
0.0599087164
 40
0.0899234211
 40
0.1200088983
 40
0.1501860543
 40
0.1804736026
 40
0.2108876422
 40
0.2414413123
 40
0.2721445279
 40
0.3030038001
 40
0.33402214
 40
0.3651990456
 40
0.3965305656
 40
0.428009435
 40
0.4596252751
 40
0.4913648511
 40
0.523212379
 40
0.5551498748
 40
0.5871575372
 40
0.6192141578
 40
0.6512975514
 40
0.6833850007
 40
0.7154537075
 40
0.7314764095
 40
0.7474860758
 40
0.7794508394
 40
0.8113324795
 40
0.8431123195
 40
0.8747737607
 40
0.9063025939
 40
0.9376875098
 40
0.9533255635
 40
0.9689249841
 40
1.0
 40
1.0
 40
1.0
 40
1.0
 10
12.6655416846
 20
9.125504133
 30
0.0
 10
12.6717628095
 20
9.13151328
 30
0.0
 10
12.6846942377
 20
9.1430466138
 30
0.0
 10
12.7054124001
 20
9.1587587428
 30
0.0
 10
12.7273456846
 20
9.1728043667
 30
0.0
 10
12.7503715397
 20
9.1851046909
 30
0.0
 10
12.7743633727
 20
9.1955925115
 30
0.0
 10
12.7991887747
 20
9.2042101749
 30
0.0
 10
12.8247109404
 20
9.2109105347
 30
0.0
 10
12.8507892599
 20
9.2156570123
 30
0.0
 10
12.8772801506
 20
9.2184238268
 30
0.0
 10
12.9040378387
 20
9.2191961044
 30
0.0
 10
12.9309151641
 20
9.2179699433
 30
0.0
 10
12.9577643845
 20
9.2147524172
 30
0.0
 10
12.9844379796
 20
9.209561521
 30
0.0
 10
13.0107894515
 20
9.2024260589
 30
0.0
 10
13.0366741194
 20
9.1933854807
 30
0.0
 10
13.0619499049
 20
9.1824896636
 30
0.0
 10
13.0864781003
 20
9.1697986241
 30
0.0
 10
13.1101241147
 20
9.1553821942
 30
0.0
 10
13.1327582177
 20
9.1393196169
 30
0.0
 10
13.154256185
 20
9.121699192
 30
0.0
 10
13.1745001842
 20
9.1026175026
 30
0.0
 10
13.1933786204
 20
9.0821799812
 30
0.0
 10
13.2078925212
 20
9.0641044046
 30
0.0
 10
13.2187211904
 20
9.0490799316
 30
0.0
 10
13.2290050912
 20
9.0337135935
 30
0.0
 10
13.240828617
 20
9.0138823872
 30
0.0
 10
13.2532929236
 20
8.9892059483
 30
0.0
 10
13.2639595455
 20
8.9637949869
 30
0.0
 10
13.272769295
 20
8.937789412
 30
0.0
 10
13.2796736402
 20
8.9113326352
 30
0.0
 10
13.2838129314
 20
8.8890002317
 30
0.0
 10
13.2861349718
 20
8.8710564541
 30
0.0
 10
13.2877921404
 20
8.8531298345
 30
0.0
 10
13.288293915
 20
8.8396401945
 30
0.0
 10
13.288293915
 20
8.8306635418
 30
0.0
  0
SPLINE
  5
30F
100
AcDbEntity
  8
0
100
AcDbSpline
 62
7
  6
CONTINUOUS
 70
0
 71
3
 72
41
 73
37
 74
0
 42
0.0000001
 43
0.0000001
 44
0.0000000001
 40
0.0
 40
0.0
 40
0.0
 40
0.0
 40
0.0299421238
 40
0.0449237703
 40
0.059914519
 40
0.0899291762
 40
0.1200146048
 40
0.1350933663
 40
0.1501974853
 40
0.1804849834
 40
0.2108989722
 40
0.2414525913
 40
0.2721557558
 40
0.3030149766
 40
0.3340332647
 40
0.365210118
 40
0.396541585
 40
0.4280204007
 40
0.4596361866
 40
0.4913757084
 40
0.5232231826
 40
0.5551606251
 40
0.5871682346
 40
0.6192248024
 40
0.6513081434
 40
0.68339554
 40
0.7154641944
 40
0.7474916807
 40
0.7794563937
 40
0.8113379827
 40
0.8431177771
 40
0.8747791563
 40
0.9063079829
 40
0.9376927254
 40
0.9689252285
 40
1.0
 40
1.0
 40
1.0
 40
1.0
 10
14.7412755406
 20
6.7590153537
 30
0.0
 10
14.7447759599
 20
6.7623965052
 30
0.0
 10
14.7502328835
 20
6.767263399
 30
0.0
 10
14.7578752478
 20
6.7733020941
 30
0.0
 10
14.7657609397
 20
6.7790403559
 30
0.0
 10
14.776050517
 20
6.7856296987
 30
0.0
 10
14.7868403749
 20
6.7913934934
 30
0.0
 10
14.7957392201
 20
6.7954938637
 30
0.0
 10
14.8048218904
 20
6.79925575
 30
0.0
 10
14.8164745515
 20
6.8033008483
 30
0.0
 10
14.8308346975
 20
6.8070707976
 30
0.0
 10
14.8455081917
 20
6.8097415394
 30
0.0
 10
14.8604137152
 20
6.8112983399
 30
0.0
 10
14.8754693884
 20
6.8117328906
 30
0.0
 10
14.8905923702
 20
6.81104298
 30
0.0
 10
14.9056995408
 20
6.8092325933
 30
0.0
 10
14.9207078925
 20
6.8063118559
 30
0.0
 10
14.9355349973
 20
6.8022969773
 30
0.0
 10
14.9500994485
 20
6.7972101558
 30
0.0
 10
14.9643213031
 20
6.7910794527
 30
0.0
 10
14.9781225139
 20
6.7839386364
 30
0.0
 10
14.9914273518
 20
6.7758269962
 30
0.0
 10
15.0041628159
 20
6.7667891265
 30
0.0
 10
15.0162590289
 20
6.7568746835
 30
0.0
 10
15.0276496159
 20
6.7461381146
 30
0.0
 10
15.0382720648
 20
6.7346383615
 30
0.0
 10
15.0480680655
 20
6.7224385404
 30
0.0
 10
15.0569838271
 20
6.7096055988
 30
0.0
 10
15.0649703694
 20
6.6962099522
 30
0.0
 10
15.0719837936
 20
6.682325101
 30
0.0
 10
15.0779855124
 20
6.6680272403
 30
0.0
 10
15.0829424838
 20
6.6533948109
 30
0.0
 10
15.0868273446
 20
6.6385082156
 30
0.0
 10
15.0896186565
 20
6.6234488656
 30
0.0
 10
15.0913008756
 20
6.6083005954
 30
0.0
 10
15.0916776722
 20
6.5981694033
 30
0.0
 10
15.0916776722
 20
6.5931185687
 30
0.0
  0
SPLINE
  5
310
100
AcDbEntity
  8
0
100
AcDbSpline
 62
7
  6
CONTINUOUS
 70
0
 71
3
 72
42
 73
38
 74
0
 42
0.0000001
 43
0.0000001
 44
0.0000000001
 40
0.0
 40
0.0
 40
0.0
 40
0.0
 40
0.0320305738
 40
0.0641939394
 40
0.0964576037
 40
0.1287870529
 40
0.1611471963
 40
0.1773315159
 40
0.1935106869
 40
0.2258310322
 40
0.258085148
 40
0.2741820626
 40
0.2902525576
 40
0.3062938219
 40
0.3223032444
 40
0.354211167
 40
0.3859668069
 40
0.4175582438
 40
0.4489776029
 40
0.4802211076
 40
0.5112891571
 40
0.5421864107
 40
0.572921859
 40
0.6035088834
 40
0.6339652829
 40
0.6643132201
 40
0.6945790055
 40
0.7247927307
 40
0.7549877079
 40
0.7851995911
 40
0.8154651624
 40
0.8458209648
 40
0.8763016246
 40
0.9069380155
 40
0.9377556039
 40
0.9687725946
 40
1.0
 40
1.0
 40
1.0
 40
1.0
 10
11.8151844163
 20
9.2711804649
 30
0.0
 10
11.8249135811
 20
9.2673627205
 30
0.0
 10
11.8440694039
 20
9.2588044191
 30
0.0
 10
11.8715638412
 20
9.2434048135
 30
0.0
 10
11.897671218
 20
9.2255794248
 30
0.0
 10
11.9221833428
 20
9.2055207253
 30
0.0
 10
11.9411355172
 20
9.1871094695
 30
0.0
 10
11.9553347257
 20
9.171469389
 30
0.0
 10
11.9688648201
 20
9.1552636942
 30
0.0
 10
11.9844901989
 20
9.1340082798
 30
0.0
 10
11.9983226193
 20
9.1115771835
 30
0.0
 10
12.008257707
 20
9.0930474952
 30
0.0
 10
12.0151309087
 20
9.0788934928
 30
0.0
 10
12.021421375
 20
9.0645022201
 30
0.0
 10
12.0290122769
 20
9.0450575064
 30
0.0
 10
12.0370145108
 20
9.0202914107
 30
0.0
 10
12.044196069
 20
8.9900182895
 30
0.0
 10
12.0489174588
 20
8.9594254921
 30
0.0
 10
12.0511584745
 20
8.9287192447
 30
0.0
 10
12.0509098047
 20
8.8981025503
 30
0.0
 10
12.0481718961
 20
8.8677778811
 30
0.0
 10
12.0429551961
 20
8.8379474709
 30
0.0
 10
12.0352806122
 20
8.8088141618
 30
0.0
 10
12.0251803654
 20
8.7805819124
 30
0.0
 10
12.0126992395
 20
8.7534560807
 30
0.0
 10
11.9978961921
 20
8.727643332
 30
0.0
 10
11.9808463663
 20
8.7033509984
 30
0.0
 10
11.9616432242
 20
8.6807858269
 30
0.0
 10
11.9404006873
 20
8.6601520557
 30
0.0
 10
11.9172552508
 20
8.6416486642
 30
0.0
 10
11.8923678154
 20
8.6254655799
 30
0.0
 10
11.8659245704
 20
8.6117794868
 30
0.0
 10
11.8381370008
 20
8.6007488854
 30
0.0
 10
11.8092412527
 20
8.5925084402
 30
0.0
 10
11.7794938421
 20
8.5871645323
 30
0.0
 10
11.7491735267
 20
8.5847897246
 30
0.0
 10
11.728829273
 20
8.5852093839
 30
0.0
 10
11.7186643542
 20
8.5859143234
 30
0.0
  0
SPLINE
  5
311
100
AcDbEntity
  8
0
100
AcDbSpline
 62
7
  6
CONTINUOUS
 70
0
 71
3
 72
41
 73
37
 74
0
 42
0.0000001
 43
0.0000001
 44
0.0000000001
 40
0.0
 40
0.0
 40
0.0
 40
0.0
 40
0.0299421238
 40
0.0449237703
 40
0.059914519
 40
0.0899291762
 40
0.1200146048
 40
0.1350933663
 40
0.1501974853
 40
0.1804849834
 40
0.2108989722
 40
0.2414525913
 40
0.2721557558
 40
0.3030149766
 40
0.3340332647
 40
0.365210118
 40
0.396541585
 40
0.4280204007
 40
0.4596361866
 40
0.4913757084
 40
0.5232231826
 40
0.5551606251
 40
0.5871682346
 40
0.6192248024
 40
0.6513081434
 40
0.68339554
 40
0.7154641944
 40
0.7474916807
 40
0.7794563937
 40
0.8113379827
 40
0.8431177771
 40
0.8747791563
 40
0.9063079829
 40
0.9376927254
 40
0.9689252285
 40
1.0
 40
1.0
 40
1.0
 40
1.0
 10
10.8775717763
 20
7.0269641198
 30
0.0
 10
10.8810721955
 20
7.0303452714
 30
0.0
 10
10.8865291191
 20
7.0352121652
 30
0.0
 10
10.8941714834
 20
7.0412508602
 30
0.0
 10
10.9020571753
 20
7.0469891221
 30
0.0
 10
10.9123467527
 20
7.0535784648
 30
0.0
 10
10.9231366105
 20
7.0593422596
 30
0.0
 10
10.9320354558
 20
7.0634426298
 30
0.0
 10
10.941118126
 20
7.0672045161
 30
0.0
 10
10.9527707871
 20
7.0712496144
 30
0.0
 10
10.9671309331
 20
7.0750195637
 30
0.0
 10
10.9818044274
 20
7.0776903056
 30
0.0
 10
10.9967099508
 20
7.079247106
 30
0.0
 10
11.011765624
 20
7.0796816568
 30
0.0
 10
11.0268886058
 20
7.0789917462
 30
0.0
 10
11.0419957764
 20
7.0771813595
 30
0.0
 10
11.0570041282
 20
7.074260622
 30
0.0
 10
11.0718312329
 20
7.0702457434
 30
0.0
 10
11.0863956841
 20
7.0651589219
 30
0.0
 10
11.1006175387
 20
7.0590282188
 30
0.0
 10
11.1144187496
 20
7.0518874026
 30
0.0
 10
11.1277235875
 20
7.0437757623
 30
0.0
 10
11.1404590515
 20
7.0347378926
 30
0.0
 10
11.1525552645
 20
7.0248234497
 30
0.0
 10
11.1639458515
 20
7.0140868807
 30
0.0
 10
11.1745683004
 20
7.0025871277
 30
0.0
 10
11.1843643011
 20
6.9903873066
 30
0.0
 10
11.1932800627
 20
6.9775543649
 30
0.0
 10
11.2012666051
 20
6.9641587184
 30
0.0
 10
11.2082800292
 20
6.9502738671
 30
0.0
 10
11.214281748
 20
6.9359760064
 30
0.0
 10
11.2192387194
 20
6.9213435771
 30
0.0
 10
11.2231235802
 20
6.9064569817
 30
0.0
 10
11.2259148921
 20
6.8913976318
 30
0.0
 10
11.2275971112
 20
6.8762493615
 30
0.0
 10
11.2279739078
 20
6.8661181695
 30
0.0
 10
11.2279739078
 20
6.8610673349
 30
0.0
  0
SPLINE
  5
312
100
AcDbEntity
  8
0
100
AcDbSpline
 62
7
  6
CONTINUOUS
 70
0
 71
3
 72
37
 73
33
 74
0
 42
0.0000001
 43
0.0000001
 44
0.0000000001
 40
0.0
 40
0.0
 40
0.0
 40
0.0
 40
0.0299447734
 40
0.0599139259
 40
0.0899312435
 40
0.1200193435
 40
0.1501991354
 40
0.1804893331
 40
0.2109060334
 40
0.241462374
 40
0.272168271
 40
0.3030302375
 40
0.3340512872
 40
0.3652309191
 40
0.3965651795
 40
0.4280467979
 40
0.4596653933
 40
0.4914077316
 40
0.5232580308
 40
0.5551983078
 40
0.6192295559
 40
0.6833675502
 40
0.7154390382
 40
0.747469357
 40
0.7794368985
 40
0.8113213087
 40
0.8431039189
 40
0.8747680563
 40
0.9062997989
 40
0.9376869363
 40
0.9689229623
 40
1.0
 40
1.0
 40
1.0
 40
1.0
 10
14.2881181045
 20
7.2156936907
 30
0.0
 10
14.2901918149
 20
7.2176967185
 30
0.0
 10
14.2945023396
 20
7.2215410707
 30
0.0
 10
14.3014084154
 20
7.2267783508
 30
0.0
 10
14.308719529
 20
7.2314601253
 30
0.0
 10
14.316394819
 20
7.2355601432
 30
0.0
 10
14.3243920944
 20
7.2390559978
 30
0.0
 10
14.332667222
 20
7.2419284622
 30
0.0
 10
14.341174598
 20
7.2441618228
 30
0.0
 10
14.3498673498
 20
7.2457438957
 30
0.0
 10
14.3586976172
 20
7.2466660912
 30
0.0
 10
14.3676168109
 20
7.2469234525
 30
0.0
 10
14.3765758796
 20
7.2465146763
 30
0.0
 10
14.3855255761
 20
7.245442115
 30
0.0
 10
14.3944167266
 20
7.2437117565
 30
0.0
 10
14.4032004918
 20
7.2413332202
 30
0.0
 10
14.411828676
 20
7.2383196398
 30
0.0
 10
14.4202538152
 20
7.23468773
 30
0.0
 10
14.4284300775
 20
7.2304571636
 30
0.0
 10
14.4389452616
 20
7.2240465129
 30
0.0
 10
14.4512405273
 20
7.2146603816
 30
0.0
 10
14.4621307406
 20
7.2036579296
 30
0.0
 10
14.469866257
 20
7.1940237998
 30
0.0
 10
14.4751482994
 20
7.1864211473
 30
0.0
 10
14.4798795597
 20
7.1784854308
 30
0.0
 10
14.4840344063
 20
7.1702598234
 30
0.0
 10
14.4875898711
 20
7.1617895662
 30
0.0
 10
14.4905264454
 20
7.153121098
 30
0.0
 10
14.4928278405
 20
7.1443020891
 30
0.0
 10
14.4944815076
 20
7.1353806804
 30
0.0
 10
14.4954780234
 20
7.126406637
 30
0.0
 10
14.4957012694
 20
7.1204047528
 30
0.0
 10
14.4957012694
 20
7.1174126144
 30
0.0
  0
SPLINE
  5
313
100
AcDbEntity
  8
0
100
AcDbSpline
 62
7
  6
CONTINUOUS
 70
0
 71
3
 72
39
 73
35
 74
0
 42
0.0000001
 43
0.0000001
 44
0.0000000001
 40
0.0
 40
0.0
 40
0.0
 40
0.0
 40
0.0299424756
 40
0.0599093253
 40
0.0899243308
 40
0.1200101061
 40
0.1501875593
 40
0.1804754054
 40
0.2108897454
 40
0.2414437198
 40
0.2721472437
 40
0.3030068255
 40
0.3340254745
 40
0.3652026886
 40
0.3965345175
 40
0.4280136976
 40
0.4596298523
 40
0.4913697474
 40
0.5232175981
 40
0.5551554173
 40
0.5871634018
 40
0.6192203434
 40
0.6513040581
 40
0.68339183
 40
0.7154608619
 40
0.7474887274
 40
0.7794538181
 40
0.8113357796
 40
0.8431159521
 40
0.8747776664
 40
0.9063069638
 40
0.937691791
 40
0.9689252156
 40
1.0
 40
1.0
 40
1.0
 40
1.0
 10
12.2247557504
 20
9.6033752469
 30
0.0
 10
12.2270865978
 20
9.6056266825
 30
0.0
 10
12.2319315567
 20
9.6099478719
 30
0.0
 10
12.2396939598
 20
9.6158347117
 30
0.0
 10
12.2479116272
 20
9.62109717
 30
0.0
 10
12.256538646
 20
9.6257057232
 30
0.0
 10
12.2655275839
 20
9.6296351968
 30
0.0
 10
12.2748288335
 20
9.6328639902
 30
0.0
 10
12.2843911406
 20
9.6353744353
 30
0.0
 10
12.2941618249
 20
9.6371528225
 30
0.0
 10
12.3040870907
 20
9.6381894843
 30
0.0
 10
12.3141123188
 20
9.6384788506
 30
0.0
 10
12.3241823719
 20
9.6380194655
 30
0.0
 10
12.3342418957
 20
9.6368139826
 30
0.0
 10
12.3442356202
 20
9.6348691461
 30
0.0
 10
12.3541086586
 20
9.6321957486
 30
0.0
 10
12.3638068044
 20
9.6288085687
 30
0.0
 10
12.3732768241
 20
9.6247262881
 30
0.0
 10
12.3824667436
 20
9.6199713866
 30
0.0
 10
12.3913261371
 20
9.6145700306
 30
0.0
 10
12.3998063969
 20
9.6085519195
 30
0.0
 10
12.4078609953
 20
9.6019501202
 30
0.0
 10
12.4154457361
 20
9.5948008885
 30
0.0
 10
12.4225189943
 20
9.587143471
 30
0.0
 10
12.4290419408
 20
9.5790198933
 30
0.0
 10
12.4349787543
 20
9.570474732
 30
0.0
 10
12.4402968131
 20
9.5615548726
 30
0.0
 10
12.4449668926
 20
9.5523092615
 30
0.0
 10
12.4489632922
 20
9.5427886388
 30
0.0
 10
12.4522640421
 20
9.5330452305
 30
0.0
 10
12.4548508552
 20
9.5231326005
 30
0.0
 10
12.4567095831
 20
9.5131048882
 30
0.0
 10
12.4578296953
 20
9.5030180003
 30
0.0
 10
12.4580806181
 20
9.4962718477
 30
0.0
 10
12.4580806181
 20
9.4929086489
 30
0.0
  0
SPLINE
  5
314
100
AcDbEntity
  8
0
100
AcDbSpline
 62
7
  6
CONTINUOUS
 70
0
 71
3
 72
37
 73
33
 74
0
 42
0.0000001
 43
0.0000001
 44
0.0000000001
 40
0.0
 40
0.0
 40
0.0
 40
0.0
 40
0.0299447734
 40
0.0599139259
 40
0.0899312435
 40
0.1200193435
 40
0.1501991354
 40
0.1804893331
 40
0.2109060334
 40
0.241462374
 40
0.272168271
 40
0.3030302375
 40
0.3340512872
 40
0.3652309191
 40
0.3965651795
 40
0.4280467979
 40
0.4596653933
 40
0.4914077316
 40
0.5232580308
 40
0.5551983078
 40
0.6192295559
 40
0.6833675502
 40
0.7154390382
 40
0.747469357
 40
0.7794368985
 40
0.8113213087
 40
0.8431039189
 40
0.8747680563
 40
0.9062997989
 40
0.9376869363
 40
0.9689229623
 40
1.0
 40
1.0
 40
1.0
 40
1.0
 10
13.8505536129
 20
8.8755558342
 30
0.0
 10
13.8526273234
 20
8.877558862
 30
0.0
 10
13.856937848
 20
8.8814032142
 30
0.0
 10
13.8638439238
 20
8.8866404943
 30
0.0
 10
13.8711550374
 20
8.8913222688
 30
0.0
 10
13.8788303275
 20
8.8954222867
 30
0.0
 10
13.8868276028
 20
8.8989181413
 30
0.0
 10
13.8951027304
 20
8.9017906057
 30
0.0
 10
13.9036101064
 20
8.9040239662
 30
0.0
 10
13.9123028582
 20
8.9056060392
 30
0.0
 10
13.9211331256
 20
8.9065282347
 30
0.0
 10
13.9300523193
 20
8.906785596
 30
0.0
 10
13.9390113881
 20
8.9063768198
 30
0.0
 10
13.9479610846
 20
8.9053042585
 30
0.0
 10
13.9568522351
 20
8.9035738999
 30
0.0
 10
13.9656360002
 20
8.9011953637
 30
0.0
 10
13.9742641845
 20
8.8981817833
 30
0.0
 10
13.9826893237
 20
8.8945498735
 30
0.0
 10
13.990865586
 20
8.8903193071
 30
0.0
 10
14.0013807701
 20
8.8839086564
 30
0.0
 10
14.0136760358
 20
8.8745225251
 30
0.0
 10
14.0245662491
 20
8.8635200731
 30
0.0
 10
14.0323017654
 20
8.8538859433
 30
0.0
 10
14.0375838079
 20
8.8462832908
 30
0.0
 10
14.0423150682
 20
8.8383475743
 30
0.0
 10
14.0464699148
 20
8.8301219669
 30
0.0
 10
14.0500253795
 20
8.8216517096
 30
0.0
 10
14.0529619538
 20
8.8129832415
 30
0.0
 10
14.055263349
 20
8.8041642326
 30
0.0
 10
14.056917016
 20
8.7952428239
 30
0.0
 10
14.0579135318
 20
8.7862687805
 30
0.0
 10
14.0581367778
 20
8.7802668963
 30
0.0
 10
14.0581367778
 20
8.7772747579
 30
0.0
  0
SPLINE
  5
315
100
AcDbEntity
  8
0
100
AcDbSpline
 62
7
  6
CONTINUOUS
 70
0
 71
3
 72
39
 73
35
 74
0
 42
0.0000001
 43
0.0000001
 44
0.0000000001
 40
0.0
 40
0.0
 40
0.0
 40
0.0
 40
0.0299424756
 40
0.0599093253
 40
0.0899243308
 40
0.1200101061
 40
0.1501875593
 40
0.1804754054
 40
0.2108897454
 40
0.2414437198
 40
0.2721472437
 40
0.3030068255
 40
0.3340254745
 40
0.3652026886
 40
0.3965345175
 40
0.4280136976
 40
0.4596298523
 40
0.4913697474
 40
0.5232175981
 40
0.5551554173
 40
0.5871634018
 40
0.6192203434
 40
0.6513040581
 40
0.68339183
 40
0.7154608619
 40
0.7474887274
 40
0.7794538181
 40
0.8113357796
 40
0.8431159521
 40
0.8747776664
 40
0.9063069638
 40
0.937691791
 40
0.9689252156
 40
1.0
 40
1.0
 40
1.0
 40
1.0
 10
12.8284594276
 20
6.7835054549
 30
0.0
 10
12.830790275
 20
6.7857568905
 30
0.0
 10
12.8356352339
 20
6.7900780799
 30
0.0
 10
12.843397637
 20
6.7959649197
 30
0.0
 10
12.8516153044
 20
6.801227378
 30
0.0
 10
12.8602423232
 20
6.8058359312
 30
0.0
 10
12.8692312611
 20
6.8097654048
 30
0.0
 10
12.8785325107
 20
6.8129941982
 30
0.0
 10
12.8880948178
 20
6.8155046433
 30
0.0
 10
12.8978655021
 20
6.8172830305
 30
0.0
 10
12.9077907679
 20
6.8183196923
 30
0.0
 10
12.917815996
 20
6.8186090586
 30
0.0
 10
12.9278860491
 20
6.8181496735
 30
0.0
 10
12.9379455729
 20
6.8169441906
 30
0.0
 10
12.9479392974
 20
6.8149993541
 30
0.0
 10
12.9578123358
 20
6.8123259566
 30
0.0
 10
12.9675104816
 20
6.8089387767
 30
0.0
 10
12.9769805013
 20
6.8048564961
 30
0.0
 10
12.9861704208
 20
6.8001015946
 30
0.0
 10
12.9950298143
 20
6.7947002386
 30
0.0
 10
13.0035100741
 20
6.7886821275
 30
0.0
 10
13.0115646725
 20
6.7820803282
 30
0.0
 10
13.0191494133
 20
6.7749310965
 30
0.0
 10
13.0262226715
 20
6.767273679
 30
0.0
 10
13.032745618
 20
6.7591501013
 30
0.0
 10
13.0386824315
 20
6.75060494
 30
0.0
 10
13.0440004903
 20
6.7416850806
 30
0.0
 10
13.0486705698
 20
6.7324394695
 30
0.0
 10
13.0526669694
 20
6.7229188468
 30
0.0
 10
13.0559677193
 20
6.7131754385
 30
0.0
 10
13.0585545324
 20
6.7032628085
 30
0.0
 10
13.0604132603
 20
6.6932350962
 30
0.0
 10
13.0615333725
 20
6.6831482083
 30
0.0
 10
13.0617842953
 20
6.6764020557
 30
0.0
 10
13.0617842953
 20
6.6730388569
 30
0.0
  0
SPLINE
  5
316
100
AcDbEntity
  8
0
100
AcDbSpline
 62
7
  6
CONTINUOUS
 70
0
 71
3
 72
34
 73
30
 74
0
 42
0.0000001
 43
0.0000001
 44
0.0000000001
 40
0.0
 40
0.0
 40
0.0
 40
0.0
 40
0.029948265
 40
0.059920911
 40
0.0899417355
 40
0.1200333579
 40
0.1502166746
 40
0.1805103996
 40
0.2109306468
 40
0.241490565
 40
0.2722000568
 40
0.303065626
 40
0.3340902961
 40
0.3652735746
 40
0.3966114954
 40
0.4280967817
 40
0.4597190652
 40
0.4914651189
 40
0.5552240134
 40
0.6192627273
 40
0.6834082032
 40
0.7474789322
 40
0.8112993139
 40
0.8430855846
 40
0.8747534858
 40
0.9062889405
 40
0.9376793031
 40
0.9689201346
 40
1.0
 40
1.0
 40
1.0
 40
1.0
 10
11.6644748995
 20
6.8831404393
 30
0.0
 10
11.6657688953
 20
6.8843903234
 30
0.0
 10
11.6684586794
 20
6.8867891708
 30
0.0
 10
11.6727680704
 20
6.8900572163
 30
0.0
 10
11.6773302014
 20
6.8929786342
 30
0.0
 10
11.6821195907
 20
6.8955370135
 30
0.0
 10
11.6871098995
 20
6.8977183828
 30
0.0
 10
11.6922735742
 20
6.8995107813
 30
0.0
 10
11.6975821661
 20
6.9009044018
 30
0.0
 10
11.7030064385
 20
6.9018915987
 30
0.0
 10
11.7085165209
 20
6.9024670132
 30
0.0
 10
11.7140820886
 20
6.9026275865
 30
0.0
 10
11.7196725389
 20
6.9023725064
 30
0.0
 10
11.7252571356
 20
6.9017032142
 30
0.0
 10
11.730805211
 20
6.9006234361
 30
0.0
 10
11.7362862208
 20
6.8991392531
 30
0.0
 10
11.7416703768
 20
6.8972586767
 30
0.0
 10
11.7486882563
 20
6.8942335809
 30
0.0
 10
11.7570695223
 20
6.8895145132
 30
0.0
 10
11.7662627525
 20
6.8824952871
 30
0.0
 10
11.7744140467
 20
6.8742609379
 30
0.0
 10
11.7813438531
 20
6.8649931695
 30
0.0
 10
11.7859838892
 20
6.856558845
 30
0.0
 10
11.7889449861
 20
6.8495041553
 30
0.0
 10
11.7907775351
 20
6.8440948522
 30
0.0
 10
11.792213539
 20
6.8385918633
 30
0.0
 10
11.7932454624
 20
6.8330248594
 30
0.0
 10
11.7938672374
 20
6.8274250691
 30
0.0
 10
11.7940065732
 20
6.8236798793
 30
0.0
 10
11.7940065732
 20
6.8218128362
 30
0.0
  0
SPLINE
  5
317
100
AcDbEntity
  8
0
100
AcDbSpline
 62
7
  6
CONTINUOUS
 70
0
 71
3
 72
34
 73
30
 74
0
 42
0.0000001
 43
0.0000001
 44
0.0000000001
 40
0.0
 40
0.0
 40
0.0
 40
0.0
 40
0.029948265
 40
0.059920911
 40
0.0899417355
 40
0.1200333579
 40
0.1502166746
 40
0.1805103996
 40
0.2109306468
 40
0.241490565
 40
0.2722000568
 40
0.303065626
 40
0.3340902961
 40
0.3652735746
 40
0.3966114954
 40
0.4280967817
 40
0.4597190652
 40
0.4914651189
 40
0.5552240134
 40
0.6192627273
 40
0.6834082032
 40
0.7474789322
 40
0.8112993139
 40
0.8430855846
 40
0.8747534858
 40
0.9062889405
 40
0.9376793031
 40
0.9689201346
 40
1.0
 40
1.0
 40
1.0
 40
1.0
 10
13.8832065877
 20
9.3855670538
 30
0.0
 10
13.8845005834
 20
9.3868169379
 30
0.0
 10
13.8871903676
 20
9.3892157853
 30
0.0
 10
13.8914997586
 20
9.3924838308
 30
0.0
 10
13.8960618895
 20
9.3954052487
 30
0.0
 10
13.9008512788
 20
9.397963628
 30
0.0
 10
13.9058415876
 20
9.4001449973
 30
0.0
 10
13.9110052624
 20
9.4019373958
 30
0.0
 10
13.9163138543
 20
9.4033310163
 30
0.0
 10
13.9217381266
 20
9.4043182132
 30
0.0
 10
13.927248209
 20
9.4048936277
 30
0.0
 10
13.9328137767
 20
9.405054201
 30
0.0
 10
13.9384042271
 20
9.4047991209
 30
0.0
 10
13.9439888238
 20
9.4041298287
 30
0.0
 10
13.9495368992
 20
9.4030500506
 30
0.0
 10
13.9550179089
 20
9.4015658676
 30
0.0
 10
13.9604020649
 20
9.3996852912
 30
0.0
 10
13.9674199444
 20
9.3966601954
 30
0.0
 10
13.9758012104
 20
9.3919411277
 30
0.0
 10
13.9849944406
 20
9.3849219016
 30
0.0
 10
13.9931457348
 20
9.3766875524
 30
0.0
 10
14.0000755413
 20
9.367419784
 30
0.0
 10
14.0047155774
 20
9.3589854595
 30
0.0
 10
14.0076766742
 20
9.3519307698
 30
0.0
 10
14.0095092232
 20
9.3465214667
 30
0.0
 10
14.0109452271
 20
9.3410184778
 30
0.0
 10
14.0119771506
 20
9.3354514739
 30
0.0
 10
14.0125989255
 20
9.3298516836
 30
0.0
 10
14.0127382613
 20
9.3261064938
 30
0.0
 10
14.0127382613
 20
9.3242394507
 30
0.0
  0
SPLINE
  5
318
100
AcDbEntity
  8
0
100
AcDbSpline
 62
7
  6
CONTINUOUS
 70
0
 71
3
 72
23
 73
19
 74
0
 42
0.0000001
 43
0.0000001
 44
0.0000000001
 40
0.0
 40
0.0
 40
0.0
 40
0.0
 40
0.0615923148
 40
0.1235204212
 40
0.185755608
 40
0.2482601229
 40
0.3109897846
 40
0.3738937397
 40
0.4369166002
 40
0.4999997136
 40
0.563082816
 40
0.6261056513
 40
0.6890095892
 40
0.7517392027
 40
0.8142437825
 40
0.8764787604
 40
0.9384070086
 40
1.0
 40
1.0
 40
1.0
 40
1.0
 10
11.7245608062
 20
6.9016746927
 30
0.0
 10
11.7248069861
 20
6.8995033666
 30
0.0
 10
11.725486221
 20
6.8951677097
 30
0.0
 10
11.7270496341
 20
6.8887579336
 30
0.0
 10
11.7291490398
 20
6.8824686528
 30
0.0
 10
11.7317687761
 20
6.876347016
 30
0.0
 10
11.7348893644
 20
6.8704380985
 30
0.0
 10
11.7384876933
 20
6.8647856132
 30
0.0
 10
11.7425371113
 20
6.8594313197
 30
0.0
 10
11.7470076689
 20
6.8544148015
 30
0.0
 10
11.7518663025
 20
6.8497731421
 30
0.0
 10
11.7570770893
 20
6.8455406583
 30
0.0
 10
11.7626015145
 20
6.8417486613
 30
0.0
 10
11.7683987679
 20
6.8384252245
 30
0.0
 10
11.7744259672
 20
6.8355949885
 30
0.0
 10
11.7806387367
 20
6.8332789478
 30
0.0
 10
11.7869905279
 20
6.8314944152
 30
0.0
 10
11.7913000866
 20
6.8306654248
 30
0.0
 10
11.7934616016
 20
6.8303441479
 30
0.0
  0
SPLINE
  5
319
100
AcDbEntity
  8
0
100
AcDbSpline
 62
7
  6
CONTINUOUS
 70
0
 71
3
 72
15
 73
11
 74
0
 42
0.0000001
 43
0.0000001
 44
0.0000000001
 40
0.0
 40
0.0
 40
0.0
 40
0.0
 40
0.127348315
 40
0.2538606239
 40
0.3795878599
 40
0.5046051181
 40
0.6290174391
 40
0.7529533757
 40
0.8765605793
 40
1.0
 40
1.0
 40
1.0
 40
1.0
 10
14.6840569493
 20
9.2776833416
 30
0.0
 10
14.6840569493
 20
9.2841817075
 30
0.0
 10
14.6846774147
 20
9.2971447633
 30
0.0
 10
14.6874833872
 20
9.316340023
 30
0.0
 10
14.6921361676
 20
9.3350529797
 30
0.0
 10
14.6985937168
 20
9.3531086317
 30
0.0
 10
14.7067968306
 20
9.3703404554
 30
0.0
 10
14.7166706858
 20
9.3865893445
 30
0.0
 10
14.7281224399
 20
9.4017030624
 30
0.0
 10
14.7367450306
 20
9.4109353887
 30
0.0
 10
14.7412755406
 20
9.4153115333
 30
0.0
  0
SPLINE
  5
31A
100
AcDbEntity
  8
0
100
AcDbSpline
 62
7
  6
CONTINUOUS
 70
0
 71
3
 72
15
 73
11
 74
0
 42
0.0000001
 43
0.0000001
 44
0.0000000001
 40
0.0
 40
0.0
 40
0.0
 40
0.0
 40
0.127348315
 40
0.2538606239
 40
0.3795878599
 40
0.5046051181
 40
0.6290174391
 40
0.7529533757
 40
0.8765605793
 40
1.0
 40
1.0
 40
1.0
 40
1.0
 10
14.6840569493
 20
6.6213871619
 30
0.0
 10
14.6840569493
 20
6.6278855278
 30
0.0
 10
14.6846774147
 20
6.6408485836
 30
0.0
 10
14.6874833872
 20
6.6600438433
 30
0.0
 10
14.6921361676
 20
6.6787568001
 30
0.0
 10
14.6985937168
 20
6.696812452
 30
0.0
 10
14.7067968306
 20
6.7140442757
 30
0.0
 10
14.7166706858
 20
6.7302931648
 30
0.0
 10
14.7281224399
 20
6.7454068827
 30
0.0
 10
14.7367450306
 20
6.754639209
 30
0.0
 10
14.7412755406
 20
6.7590153537
 30
0.0
  0
SPLINE
  5
31B
100
AcDbEntity
  8
0
100
AcDbSpline
 62
7
  6
CONTINUOUS
 70
0
 71
3
 72
31
 73
27
 74
0
 42
0.0000001
 43
0.0000001
 44
0.0000000001
 40
0.0
 40
0.0
 40
0.0
 40
0.0
 40
0.0851788813
 40
0.1685809389
 40
0.249883622
 40
0.3287745949
 40
0.4049551209
 40
0.4781414285
 40
0.5480672398
 40
0.6144862131
 40
0.6463108357
 40
0.6771770133
 40
0.7070610423
 40
0.7359410463
 40
0.7637973898
 40
0.7906125804
 40
0.8163718673
 40
0.8410631119
 40
0.8646776016
 40
0.887209952
 40
0.9086591826
 40
0.9290287577
 40
0.948327997
 40
0.9665724178
 40
0.9837855919
 40
1.0
 40
1.0
 40
1.0
 40
1.0
 10
8.2515266618
 20
7.3434649713
 30
0.0
 10
8.2515266618
 20
7.3318205604
 30
0.0
 10
8.2517250852
 20
7.3087740785
 30
0.0
 10
8.2526351576
 20
7.2746239184
 30
0.0
 10
8.2541509008
 20
7.241355479
 30
0.0
 10
8.2562657469
 20
7.2091088533
 30
0.0
 10
8.2589705358
 20
7.1780197016
 30
0.0
 10
8.2622535639
 20
7.1482186181
 30
0.0
 10
8.2661007228
 20
7.1198309729
 30
0.0
 10
8.2698136984
 20
7.0971394571
 30
0.0
 10
8.2730699192
 20
7.0797917595
 30
0.0
 10
8.2756076347
 20
7.0673927019
 30
0.0
 10
8.2782729272
 20
7.0554324938
 30
0.0
 10
8.2810630513
 20
7.0439236738
 30
0.0
 10
8.2839749921
 20
7.0328783145
 30
0.0
 10
8.2870057323
 20
7.0223079877
 30
0.0
 10
8.2901519973
 20
7.0122237401
 30
0.0
 10
8.293410556
 20
7.0026361048
 30
0.0
 10
8.2967778897
 20
6.9935550441
 30
0.0
 10
8.3002505888
 20
6.9849899963
 30
0.0
 10
8.3038249306
 20
6.9769497794
 30
0.0
 10
8.3074973844
 20
6.9694426794
 30
0.0
 10
8.3112640787
 20
6.9624763397
 30
0.0
 10
8.3151215173
 20
6.956057783
 30
0.0
 10
8.3190655855
 20
6.9501937388
 30
0.0
 10
8.3218312361
 20
6.9465516506
 30
0.0
 10
8.3232298372
 20
6.9448319948
 30
0.0
  0
SPLINE
  5
31C
100
AcDbEntity
  8
0
100
AcDbSpline
 62
7
  6
CONTINUOUS
 70
0
 71
3
 72
15
 73
11
 74
0
 42
0.0000001
 43
0.0000001
 44
0.0000000001
 40
0.0
 40
0.0
 40
0.0
 40
0.0
 40
0.127348315
 40
0.2538606239
 40
0.3795878599
 40
0.5046051181
 40
0.6290174391
 40
0.7529533757
 40
0.8765605793
 40
1.0
 40
1.0
 40
1.0
 40
1.0
 10
10.8203531849
 20
6.889335928
 30
0.0
 10
10.8203531849
 20
6.895834294
 30
0.0
 10
10.8209736504
 20
6.9087973497
 30
0.0
 10
10.8237796228
 20
6.9279926094
 30
0.0
 10
10.8284324032
 20
6.9467055662
 30
0.0
 10
10.8348899525
 20
6.9647612181
 30
0.0
 10
10.8430930662
 20
6.9819930418
 30
0.0
 10
10.8529669215
 20
6.998241931
 30
0.0
 10
10.8644186756
 20
7.0133556488
 30
0.0
 10
10.8730412662
 20
7.0225879751
 30
0.0
 10
10.8775717763
 20
7.0269641198
 30
0.0
  0
SPLINE
  5
31D
100
AcDbEntity
  8
0
100
AcDbSpline
 62
7
  6
CONTINUOUS
 70
0
 71
3
 72
15
 73
11
 74
0
 42
0.0000001
 43
0.0000001
 44
0.0000000001
 40
0.0
 40
0.0
 40
0.0
 40
0.0
 40
0.127348315
 40
0.2538606239
 40
0.3795878599
 40
0.5046051181
 40
0.6290174391
 40
0.7529533757
 40
0.8765605793
 40
1.0
 40
1.0
 40
1.0
 40
1.0
 10
10.8203531849
 20
9.5456321077
 30
0.0
 10
10.8203531849
 20
9.5521304736
 30
0.0
 10
10.8209736504
 20
9.5650935294
 30
0.0
 10
10.8237796228
 20
9.5842887891
 30
0.0
 10
10.8284324032
 20
9.6030017459
 30
0.0
 10
10.8348899525
 20
9.6210573978
 30
0.0
 10
10.8430930662
 20
9.6382892215
 30
0.0
 10
10.8529669215
 20
9.6545381107
 30
0.0
 10
10.8644186756
 20
9.6696518285
 30
0.0
 10
10.8730412662
 20
9.6788841548
 30
0.0
 10
10.8775717763
 20
9.6832602995
 30
0.0
  0
SPLINE
  5
31E
100
AcDbEntity
  8
0
100
AcDbSpline
 62
7
  6
CONTINUOUS
 70
0
 71
3
 72
15
 73
11
 74
0
 42
0.0000001
 43
0.0000001
 44
0.0000000001
 40
0.0
 40
0.0
 40
0.0
 40
0.0
 40
0.1273482228
 40
0.253860527
 40
0.3795879206
 40
0.5046050801
 40
0.6290174363
 40
0.7529533709
 40
0.8765605784
 40
1.0
 40
1.0
 40
1.0
 40
1.0
 10
12.1866554448
 20
9.5117320486
 30
0.0
 10
12.1866554448
 20
9.516059143
 30
0.0
 10
12.1870685913
 20
9.5246909109
 30
0.0
 10
12.1889370155
 20
9.5374725513
 30
0.0
 10
12.1920351797
 20
9.5499330395
 30
0.0
 10
12.1963351063
 20
9.5619558413
 30
0.0
 10
12.201797316
 20
9.5734300906
 30
0.0
 10
12.2083720379
 20
9.5842498347
 30
0.0
 10
12.2159974524
 20
9.5943136914
 30
0.0
 10
12.2217390021
 20
9.6004612789
 30
0.0
 10
12.2247557504
 20
9.6033752469
 30
0.0
  0
SPLINE
  5
31F
100
AcDbEntity
  8
0
100
AcDbSpline
 62
7
  6
CONTINUOUS
 70
0
 71
3
 72
39
 73
35
 74
0
 42
0.0000001
 43
0.0000001
 44
0.0000000001
 40
0.0
 40
0.0
 40
0.0
 40
0.0
 40
0.0071626305
 40
0.0146567796
 40
0.0224900537
 40
0.0306686706
 40
0.0391977046
 40
0.0480809813
 40
0.0573207996
 40
0.0669184069
 40
0.0768741415
 40
0.0871874214
 40
0.1088799375
 40
0.131978937
 40
0.1564568751
 40
0.182278417
 40
0.209401486
 40
0.2377780679
 40
0.2673549265
 40
0.2980741807
 40
0.3298737714
 40
0.3626878467
 40
0.3964471182
 40
0.4310792351
 40
0.466509094
 40
0.5026591221
 40
0.5394495351
 40
0.57679863
 40
0.6146230625
 40
0.6913563437
 40
0.7689609396
 40
0.8467367446
 40
0.9239814542
 40
1.0
 40
1.0
 40
1.0
 40
1.0
 10
8.3969828451
 20
10.1402610433
 30
0.0
 10
8.3957654762
 20
10.1390851552
 30
0.0
 10
8.393332352
 20
10.1366183743
 30
0.0
 10
8.3897661689
 20
10.1326762241
 30
0.0
 10
8.3862044928
 20
10.1284121729
 30
0.0
 10
8.3826496612
 20
10.1238289784
 30
0.0
 10
8.379103609
 20
10.1189293544
 30
0.0
 10
8.3755684337
 20
10.1137160977
 30
0.0
 10
8.3720461184
 20
10.1081923074
 30
0.0
 10
8.3685388043
 20
10.1023612539
 30
0.0
 10
8.365048583
 20
10.0962263967
 30
0.0
 10
8.3603409882
 20
10.0874987768
 30
0.0
 10
8.3545281245
 20
10.0758426612
 30
0.0
 10
8.3477660558
 20
10.0609328075
 30
0.0
 10
8.3411210095
 20
10.0449090342
 30
0.0
 10
8.334609018
 20
10.0278096352
 30
0.0
 10
8.3282458276
 20
10.0096752574
 30
0.0
 10
8.32204683
 20
9.9905492647
 30
0.0
 10
8.3160270327
 20
9.9704774561
 30
0.0
 10
8.3102010156
 20
9.9495079652
 30
0.0
 10
8.304582894
 20
9.9276911233
 30
0.0
 10
8.2991862745
 20
9.9050793445
 30
0.0
 10
8.2940242081
 20
9.8817269927
 30
0.0
 10
8.2891091834
 20
9.8576902327
 30
0.0
 10
8.2844530902
 20
9.8330268871
 30
0.0
 10
8.2800671932
 20
9.8077962966
 30
0.0
 10
8.2759620997
 20
9.7820592002
 30
0.0
 10
8.2721476787
 20
9.7558775107
 30
0.0
 10
8.2674394727
 20
9.7202909163
 30
0.0
 10
8.2623534135
 20
9.675163034
 30
0.0
 10
8.257562967
 20
9.6205183936
 30
0.0
 10
8.2541031163
 20
9.5656520233
 30
0.0
 10
8.2520070169
 20
9.5110920564
 30
0.0
 10
8.2515266618
 20
9.4748741234
 30
0.0
 10
8.2515266618
 20
9.4569108044
 30
0.0
  0
SPLINE
  5
320
100
AcDbEntity
  8
0
100
AcDbSpline
 62
7
  6
CONTINUOUS
 70
0
 71
3
 72
15
 73
11
 74
0
 42
0.0000001
 43
0.0000001
 44
0.0000000001
 40
0.0
 40
0.0
 40
0.0
 40
0.0
 40
0.1273482228
 40
0.253860527
 40
0.3795879206
 40
0.5046050801
 40
0.6290174363
 40
0.7529533709
 40
0.8765605784
 40
1.0
 40
1.0
 40
1.0
 40
1.0
 10
12.790359122
 20
6.6918622566
 30
0.0
 10
12.790359122
 20
6.696189351
 30
0.0
 10
12.7907722685
 20
6.7048211189
 30
0.0
 10
12.7926406927
 20
6.7176027593
 30
0.0
 10
12.7957388569
 20
6.7300632475
 30
0.0
 10
12.8000387835
 20
6.7420860493
 30
0.0
 10
12.8055009932
 20
6.7535602986
 30
0.0
 10
12.8120757151
 20
6.7643800427
 30
0.0
 10
12.8197011296
 20
6.7744438994
 30
0.0
 10
12.8254426793
 20
6.7805914869
 30
0.0
 10
12.8284594276
 20
6.7835054549
 30
0.0
  0
SPLINE
  5
321
100
AcDbEntity
  8
0
100
AcDbSpline
 62
7
  6
CONTINUOUS
 70
0
 71
3
 72
15
 73
11
 74
0
 42
0.0000001
 43
0.0000001
 44
0.0000000001
 40
0.0
 40
0.0
 40
0.0
 40
0.0
 40
0.127347002
 40
0.2538611168
 40
0.379587791
 40
0.5046051628
 40
0.6290174373
 40
0.7529533687
 40
0.8765605638
 40
1.0
 40
1.0
 40
1.0
 40
1.0
 10
13.8620538235
 20
9.334689452
 30
0.0
 10
13.8620538235
 20
9.3370917177
 30
0.0
 10
13.8622832098
 20
9.3418838573
 30
0.0
 10
13.8633204976
 20
9.3489798875
 30
0.0
 10
13.8650405875
 20
9.3558976308
 30
0.0
 10
13.8674278336
 20
9.3625723471
 30
0.0
 10
13.8704603892
 20
9.3689425138
 30
0.0
 10
13.8741105884
 20
9.3749492947
 30
0.0
 10
13.8783441052
 20
9.3805364197
 30
0.0
 10
13.881531752
 20
9.3839493124
 30
0.0
 10
13.8832065877
 20
9.3855670538
 30
0.0
  0
SPLINE
  5
322
100
AcDbEntity
  8
0
100
AcDbSpline
 62
7
  6
CONTINUOUS
 70
0
 71
3
 72
15
 73
11
 74
0
 42
0.0000001
 43
0.0000001
 44
0.0000000001
 40
0.0
 40
0.0
 40
0.0
 40
0.0
 40
0.127347002
 40
0.2538611168
 40
0.379587791
 40
0.5046051628
 40
0.6290174373
 40
0.7529533687
 40
0.8765605638
 40
1.0
 40
1.0
 40
1.0
 40
1.0
 10
11.6433221353
 20
6.8322628375
 30
0.0
 10
11.6433221353
 20
6.8346651032
 30
0.0
 10
11.6435515217
 20
6.8394572428
 30
0.0
 10
11.6445888095
 20
6.846553273
 30
0.0
 10
11.6463088994
 20
6.8534710163
 30
0.0
 10
11.6486961455
 20
6.8601457326
 30
0.0
 10
11.6517287011
 20
6.8665158992
 30
0.0
 10
11.6553789002
 20
6.8725226802
 30
0.0
 10
11.659612417
 20
6.8781098052
 30
0.0
 10
11.6628000638
 20
6.8815226979
 30
0.0
 10
11.6644748995
 20
6.8831404393
 30
0.0
  0
SPLINE
  5
323
100
AcDbEntity
  8
0
100
AcDbSpline
 62
7
  6
CONTINUOUS
 70
0
 71
3
 72
15
 73
11
 74
0
 42
0.0000001
 43
0.0000001
 44
0.0000000001
 40
0.0
 40
0.0
 40
0.0
 40
0.0
 40
0.1273481407
 40
0.2538605842
 40
0.3795879627
 40
0.5046050991
 40
0.6290174438
 40
0.7529533592
 40
0.8765605627
 40
1.0
 40
1.0
 40
1.0
 40
1.0
 10
13.8166553069
 20
8.7940215548
 30
0.0
 10
13.8166553069
 20
8.7978713529
 30
0.0
 10
13.8170228896
 20
8.8055510082
 30
0.0
 10
13.8186852474
 20
8.8169227865
 30
0.0
 10
13.8214417275
 20
8.8280088295
 30
0.0
 10
13.8252674316
 20
8.8387054463
 30
0.0
 10
13.8301272316
 20
8.8489140014
 30
0.0
 10
13.8359768492
 20
8.8585402207
 30
0.0
 10
13.8427612591
 20
8.867493922
 30
0.0
 10
13.8478696018
 20
8.8729633079
 30
0.0
 10
13.8505536129
 20
8.8755558342
 30
0.0
  0
SPLINE
  5
324
100
AcDbEntity
  8
0
100
AcDbSpline
 62
7
  6
CONTINUOUS
 70
0
 71
3
 72
15
 73
11
 74
0
 42
0.0000001
 43
0.0000001
 44
0.0000000001
 40
0.0
 40
0.0
 40
0.0
 40
0.0
 40
0.1273481407
 40
0.2538605842
 40
0.3795879627
 40
0.5046050991
 40
0.6290174438
 40
0.7529533592
 40
0.8765605627
 40
1.0
 40
1.0
 40
1.0
 40
1.0
 10
14.2542197985
 20
7.1341594113
 30
0.0
 10
14.2542197985
 20
7.1380092094
 30
0.0
 10
14.2545873811
 20
7.1456888647
 30
0.0
 10
14.2562497389
 20
7.157060643
 30
0.0
 10
14.2590062191
 20
7.168146686
 30
0.0
 10
14.2628319231
 20
7.1788433028
 30
0.0
 10
14.2676917232
 20
7.1890518579
 30
0.0
 10
14.2735413407
 20
7.1986780772
 30
0.0
 10
14.2803257507
 20
7.2076317785
 30
0.0
 10
14.2854340934
 20
7.2131011644
 30
0.0
 10
14.2881181045
 20
7.2156936907
 30
0.0
  0
SPLINE
  5
325
100
AcDbEntity
  8
0
100
AcDbSpline
 62
7
  6
CONTINUOUS
 70
0
 71
3
 72
11
 73
7
 74
0
 42
0.0000001
 43
0.0000001
 44
0.0000000001
 40
0.0
 40
0.0
 40
0.0
 40
0.0
 40
0.2481125221
 40
0.4975302647
 40
0.7481926031
 40
1.0
 40
1.0
 40
1.0
 40
1.0
 10
11.718664377
 20
9.2931211189
 30
0.0
 10
11.726860725
 20
9.2925527002
 30
0.0
 10
11.7432587488
 20
9.2907676315
 30
0.0
 10
11.7676314555
 20
9.2861883232
 30
0.0
 10
11.7917025379
 20
9.2797350106
 30
0.0
 10
11.8074222487
 20
9.2742263555
 30
0.0
 10
11.8151844163
 20
9.2711804649
 30
0.0
  0
SPLINE
  5
326
100
AcDbEntity
  8
0
100
AcDbSpline
 62
7
  6
CONTINUOUS
 70
0
 71
3
 72
41
 73
37
 74
0
 42
0.0000001
 43
0.0000001
 44
0.0000000001
 40
0.0
 40
0.0
 40
0.0
 40
0.0
 40
0.0299421701
 40
0.0599087164
 40
0.0899234211
 40
0.1200088983
 40
0.1501860543
 40
0.1804736026
 40
0.2108876422
 40
0.2414413123
 40
0.2721445279
 40
0.3030038001
 40
0.33402214
 40
0.3651990456
 40
0.3965305656
 40
0.428009435
 40
0.4596252751
 40
0.4913648511
 40
0.523212379
 40
0.5551498748
 40
0.5871575372
 40
0.6192141578
 40
0.6512975514
 40
0.6833850007
 40
0.7154537075
 40
0.7314764095
 40
0.7474860758
 40
0.7794508394
 40
0.8113324795
 40
0.8431123195
 40
0.8747737607
 40
0.9063025939
 40
0.9376875098
 40
0.9533255635
 40
0.9689249841
 40
1.0
 40
1.0
 40
1.0
 40
1.0
 10
12.5828980555
 20
7.0592666861
 30
0.0
 10
12.5766769306
 20
7.0532575391
 30
0.0
 10
12.5637455024
 20
7.0417242053
 30
0.0
 10
12.54302734
 20
7.0260120763
 30
0.0
 10
12.5210940555
 20
7.0119664524
 30
0.0
 10
12.4980682004
 20
6.9996661282
 30
0.0
 10
12.4740763674
 20
6.9891783077
 30
0.0
 10
12.4492509654
 20
6.9805606442
 30
0.0
 10
12.4237287997
 20
6.9738602844
 30
0.0
 10
12.3976504802
 20
6.9691138069
 30
0.0
 10
12.3711595895
 20
6.9663469923
 30
0.0
 10
12.3444019014
 20
6.9655747148
 30
0.0
 10
12.317524576
 20
6.9668008758
 30
0.0
 10
12.2906753555
 20
6.9700184019
 30
0.0
 10
12.2640017605
 20
6.9752092982
 30
0.0
 10
12.2376502886
 20
6.9823447602
 30
0.0
 10
12.2117656207
 20
6.9913853384
 30
0.0
 10
12.1864898352
 20
7.0022811556
 30
0.0
 10
12.1619616398
 20
7.014972195
 30
0.0
 10
12.1383156254
 20
7.0293886249
 30
0.0
 10
12.1156815224
 20
7.0454512022
 30
0.0
 10
12.094183555
 20
7.0630716271
 30
0.0
 10
12.0739395559
 20
7.0821533165
 30
0.0
 10
12.0550611197
 20
7.102590838
 30
0.0
 10
12.0405472189
 20
7.1206664145
 30
0.0
 10
12.0297185497
 20
7.1356908875
 30
0.0
 10
12.0194346489
 20
7.1510572256
 30
0.0
 10
12.0076111231
 20
7.170888432
 30
0.0
 10
11.9951468165
 20
7.1955648708
 30
0.0
 10
11.9844801946
 20
7.2209758322
 30
0.0
 10
11.9756704451
 20
7.2469814071
 30
0.0
 10
11.9687660999
 20
7.2734381839
 30
0.0
 10
11.9646268087
 20
7.2957705874
 30
0.0
 10
11.9623047683
 20
7.313714365
 30
0.0
 10
11.9606475996
 20
7.3316409846
 30
0.0
 10
11.9601458251
 20
7.3451306246
 30
0.0
 10
11.9601458251
 20
7.3541072774
 30
0.0
  0
SPLINE
  5
327
100
AcDbEntity
  8
0
100
AcDbSpline
 62
7
  6
CONTINUOUS
 70
0
 71
3
 72
21
 73
17
 74
0
 42
0.0000001
 43
0.0000001
 44
0.0000000001
 40
0.0
 40
0.0
 40
0.0
 40
0.0
 40
0.1273175203
 40
0.253800042
 40
0.3167619342
 40
0.3795354977
 40
0.4421315044
 40
0.5045621463
 40
0.5668413435
 40
0.6289845249
 40
0.6910084556
 40
0.7529310973
 40
0.8147714461
 40
0.8765493353
 40
0.9382852242
 40
1.0
 40
1.0
 40
1.0
 40
1.0
 10
12.5638495023
 20
8.8809039324
 30
0.0
 10
12.5638495023
 20
8.8924531567
 30
0.0
 10
12.5649519617
 20
8.9154907251
 30
0.0
 10
12.5691155305
 20
8.9439701346
 30
0.0
 10
12.574091971
 20
8.9663097469
 30
0.0
 10
12.5786302258
 20
8.9827874348
 30
0.0
 10
12.5839691193
 20
8.9989723652
 30
0.0
 10
12.5900964991
 20
9.0148276277
 30
0.0
 10
12.5969982038
 20
9.0303165528
 30
0.0
 10
12.6046583318
 20
9.0454034599
 30
0.0
 10
12.6130592823
 20
9.060053518
 30
0.0
 10
12.6221817273
 20
9.0742329252
 30
0.0
 10
12.6320045643
 20
9.0879089704
 30
0.0
 10
12.6425052703
 20
9.1010502111
 30
0.0
 10
12.6536592639
 20
9.1136258806
 30
0.0
 10
12.6615151042
 20
9.1216147537
 30
0.0
 10
12.6655416846
 20
9.125504133
 30
0.0
  0
SPLINE
  5
328
100
AcDbEntity
  8
0
100
AcDbSpline
 62
7
  6
CONTINUOUS
 70
0
 71
3
 72
21
 73
17
 74
0
 42
0.0000001
 43
0.0000001
 44
0.0000000001
 40
0.0
 40
0.0
 40
0.0
 40
0.0
 40
0.1273175203
 40
0.253800042
 40
0.3167619342
 40
0.3795354977
 40
0.4421315044
 40
0.5045621463
 40
0.5668413435
 40
0.6289845249
 40
0.6910084556
 40
0.7529310973
 40
0.8147714461
 40
0.8765493353
 40
0.9382852242
 40
1.0
 40
1.0
 40
1.0
 40
1.0
 10
13.1675531795
 20
7.2703732929
 30
0.0
 10
13.1675531795
 20
7.2819225172
 30
0.0
 10
13.1686556389
 20
7.3049600856
 30
0.0
 10
13.1728192077
 20
7.3334394951
 30
0.0
 10
13.1777956482
 20
7.3557791074
 30
0.0
 10
13.182333903
 20
7.3722567953
 30
0.0
 10
13.1876727965
 20
7.3884417257
 30
0.0
 10
13.1938001763
 20
7.4042969882
 30
0.0
 10
13.200701881
 20
7.4197859133
 30
0.0
 10
13.208362009
 20
7.4348728204
 30
0.0
 10
13.2167629595
 20
7.4495228785
 30
0.0
 10
13.2258854045
 20
7.4637022857
 30
0.0
 10
13.2357082415
 20
7.4773783309
 30
0.0
 10
13.2462089475
 20
7.4905195716
 30
0.0
 10
13.2573629411
 20
7.5030952411
 30
0.0
 10
13.2652187814
 20
7.5110841143
 30
0.0
 10
13.2692453618
 20
7.5149734935
 30
0.0
  0
SPLINE
  5
329
100
AcDbEntity
  8
0
100
AcDbSpline
 62
7
  6
CONTINUOUS
 70
0
 71
3
 72
21
 73
17
 74
0
 42
0.0000001
 43
0.0000001
 44
0.0000000001
 40
0.0
 40
0.0
 40
0.0
 40
0.0
 40
0.1273175203
 40
0.253800042
 40
0.3167619342
 40
0.3795354977
 40
0.4421315044
 40
0.5045621463
 40
0.5668413435
 40
0.6289845249
 40
0.6910084556
 40
0.7529310973
 40
0.8147714461
 40
0.8765493353
 40
0.9382852242
 40
1.0
 40
1.0
 40
1.0
 40
1.0
 10
11.9601458251
 20
7.3541072774
 30
0.0
 10
11.9601458251
 20
7.3656565016
 30
0.0
 10
11.9612482845
 20
7.38869407
 30
0.0
 10
11.9654118533
 20
7.4171734795
 30
0.0
 10
11.9703882937
 20
7.4395130918
 30
0.0
 10
11.9749265486
 20
7.4559907797
 30
0.0
 10
11.9802654421
 20
7.4721757101
 30
0.0
 10
11.9863928219
 20
7.4880309727
 30
0.0
 10
11.9932945266
 20
7.5035198977
 30
0.0
 10
12.0009546546
 20
7.5186068049
 30
0.0
 10
12.0093556051
 20
7.5332568629
 30
0.0
 10
12.0184780501
 20
7.5474362701
 30
0.0
 10
12.0283008871
 20
7.5611123153
 30
0.0
 10
12.0388015931
 20
7.574253556
 30
0.0
 10
12.0499555867
 20
7.5868292255
 30
0.0
 10
12.057811427
 20
7.5948180987
 30
0.0
 10
12.0618380074
 20
7.5987074779
 30
0.0
  0
SPLINE
  5
32A
100
AcDbEntity
  8
0
100
AcDbSpline
 62
7
  6
CONTINUOUS
 70
0
 71
3
 72
41
 73
37
 74
0
 42
0.0000001
 43
0.0000001
 44
0.0000000001
 40
0.0
 40
0.0
 40
0.0
 40
0.0
 40
0.0299421701
 40
0.0599087164
 40
0.0899234211
 40
0.1200088983
 40
0.1501860543
 40
0.1804736026
 40
0.2108876422
 40
0.2414413123
 40
0.2721445279
 40
0.3030038001
 40
0.33402214
 40
0.3651990456
 40
0.3965305656
 40
0.428009435
 40
0.4596252751
 40
0.4913648511
 40
0.523212379
 40
0.5551498748
 40
0.5871575372
 40
0.6192141578
 40
0.6512975514
 40
0.6833850007
 40
0.7154537075
 40
0.7314764095
 40
0.7474860758
 40
0.7794508394
 40
0.8113324795
 40
0.8431123195
 40
0.8747737607
 40
0.9063025939
 40
0.9376875098
 40
0.9533255635
 40
0.9689249841
 40
1.0
 40
1.0
 40
1.0
 40
1.0
 10
13.7903054099
 20
6.9755327017
 30
0.0
 10
13.784084285
 20
6.9695235547
 30
0.0
 10
13.7711528568
 20
6.9579902209
 30
0.0
 10
13.7504346944
 20
6.9422780919
 30
0.0
 10
13.7285014099
 20
6.9282324679
 30
0.0
 10
13.7054755548
 20
6.9159321438
 30
0.0
 10
13.6814837218
 20
6.9054443232
 30
0.0
 10
13.6566583198
 20
6.8968266598
 30
0.0
 10
13.6311361541
 20
6.8901263
 30
0.0
 10
13.6050578346
 20
6.8853798224
 30
0.0
 10
13.5785669439
 20
6.8826130079
 30
0.0
 10
13.5518092558
 20
6.8818407303
 30
0.0
 10
13.5249319304
 20
6.8830668914
 30
0.0
 10
13.49808271
 20
6.8862844175
 30
0.0
 10
13.4714091149
 20
6.8914753137
 30
0.0
 10
13.445057643
 20
6.8986107758
 30
0.0
 10
13.4191729751
 20
6.907651354
 30
0.0
 10
13.3938971896
 20
6.9185471711
 30
0.0
 10
13.3693689942
 20
6.9312382106
 30
0.0
 10
13.3457229798
 20
6.9456546405
 30
0.0
 10
13.3230888768
 20
6.9617172178
 30
0.0
 10
13.3015909094
 20
6.9793376427
 30
0.0
 10
13.2813469103
 20
6.9984193321
 30
0.0
 10
13.2624684741
 20
7.0188568535
 30
0.0
 10
13.2479545733
 20
7.03693243
 30
0.0
 10
13.2371259041
 20
7.0519569031
 30
0.0
 10
13.2268420033
 20
7.0673232412
 30
0.0
 10
13.2150184775
 20
7.0871544475
 30
0.0
 10
13.2025541709
 20
7.1118308864
 30
0.0
 10
13.191887549
 20
7.1372418478
 30
0.0
 10
13.1830777995
 20
7.1632474227
 30
0.0
 10
13.1761734543
 20
7.1897041995
 30
0.0
 10
13.1720341631
 20
7.212036603
 30
0.0
 10
13.1697121227
 20
7.2299803806
 30
0.0
 10
13.168054954
 20
7.2479070002
 30
0.0
 10
13.1675531795
 20
7.2613966402
 30
0.0
 10
13.1675531795
 20
7.2703732929
 30
0.0
  0
SPLINE
  5
32B
100
AcDbEntity
  8
0
100
AcDbSpline
 62
7
  6
CONTINUOUS
 70
0
 71
3
 72
41
 73
37
 74
0
 42
0.0000001
 43
0.0000001
 44
0.0000000001
 40
0.0
 40
0.0
 40
0.0
 40
0.0
 40
0.0299421238
 40
0.0449237703
 40
0.059914519
 40
0.0899291762
 40
0.1200146048
 40
0.1350933663
 40
0.1501974853
 40
0.1804849834
 40
0.2108989722
 40
0.2414525913
 40
0.2721557558
 40
0.3030149766
 40
0.3340332647
 40
0.365210118
 40
0.396541585
 40
0.4280204007
 40
0.4596361866
 40
0.4913757084
 40
0.5232231826
 40
0.5551606251
 40
0.5871682346
 40
0.6192248024
 40
0.6513081434
 40
0.68339554
 40
0.7154641944
 40
0.7474916807
 40
0.7794563937
 40
0.8113379827
 40
0.8431177771
 40
0.8747791563
 40
0.9063079829
 40
0.9376927254
 40
0.9689252285
 40
1.0
 40
1.0
 40
1.0
 40
1.0
 10
11.1707553164
 20
9.3797353228
 30
0.0
 10
11.1672548972
 20
9.3763541712
 30
0.0
 10
11.1617979736
 20
9.3714872774
 30
0.0
 10
11.1541556093
 20
9.3654485823
 30
0.0
 10
11.1462699174
 20
9.3597103205
 30
0.0
 10
11.13598034
 20
9.3531209778
 30
0.0
 10
11.1251904821
 20
9.347357183
 30
0.0
 10
11.1162916369
 20
9.3432568127
 30
0.0
 10
11.1072089666
 20
9.3394949264
 30
0.0
 10
11.0955563056
 20
9.3354498281
 30
0.0
 10
11.0811961596
 20
9.3316798788
 30
0.0
 10
11.0665226653
 20
9.329009137
 30
0.0
 10
11.0516171418
 20
9.3274523366
 30
0.0
 10
11.0365614687
 20
9.3270177858
 30
0.0
 10
11.0214384869
 20
9.3277076964
 30
0.0
 10
11.0063313163
 20
9.3295180831
 30
0.0
 10
10.9913229645
 20
9.3324388206
 30
0.0
 10
10.9764958598
 20
9.3364536991
 30
0.0
 10
10.9619314086
 20
9.3415405206
 30
0.0
 10
10.9477095539
 20
9.3476712237
 30
0.0
 10
10.9339083431
 20
9.35481204
 30
0.0
 10
10.9206035052
 20
9.3629236802
 30
0.0
 10
10.9078680412
 20
9.3719615499
 30
0.0
 10
10.8957718282
 20
9.3818759929
 30
0.0
 10
10.8843812412
 20
9.3926125618
 30
0.0
 10
10.8737587923
 20
9.4041123149
 30
0.0
 10
10.8639627916
 20
9.416312136
 30
0.0
 10
10.85504703
 20
9.4291450777
 30
0.0
 10
10.8470604876
 20
9.4425407242
 30
0.0
 10
10.8400470634
 20
9.4564255754
 30
0.0
 10
10.8340453447
 20
9.4707234362
 30
0.0
 10
10.8290883733
 20
9.4853558655
 30
0.0
 10
10.8252035125
 20
9.5002424608
 30
0.0
 10
10.8224122006
 20
9.5153018108
 30
0.0
 10
10.8207299815
 20
9.5304500811
 30
0.0
 10
10.8203531849
 20
9.5405812731
 30
0.0
 10
10.8203531849
 20
9.5456321077
 30
0.0
  0
SPLINE
  5
32C
100
AcDbEntity
  8
0
100
AcDbSpline
 62
7
  6
CONTINUOUS
 70
0
 71
3
 72
41
 73
37
 74
0
 42
0.0000001
 43
0.0000001
 44
0.0000000001
 40
0.0
 40
0.0
 40
0.0
 40
0.0
 40
0.0299421701
 40
0.0599087164
 40
0.0899234211
 40
0.1200088983
 40
0.1501860543
 40
0.1804736026
 40
0.2108876422
 40
0.2414413123
 40
0.2721445279
 40
0.3030038001
 40
0.33402214
 40
0.3651990456
 40
0.3965305656
 40
0.428009435
 40
0.4596252751
 40
0.4913648511
 40
0.523212379
 40
0.5551498748
 40
0.5871575372
 40
0.6192141578
 40
0.6512975514
 40
0.6833850007
 40
0.7154537075
 40
0.7314764095
 40
0.7474860758
 40
0.7794508394
 40
0.8113324795
 40
0.8431123195
 40
0.8747737607
 40
0.9063025939
 40
0.9376875098
 40
0.9533255635
 40
0.9689249841
 40
1.0
 40
1.0
 40
1.0
 40
1.0
 10
13.1866017327
 20
8.5860633412
 30
0.0
 10
13.1803806078
 20
8.5800541942
 30
0.0
 10
13.1674491796
 20
8.5685208603
 30
0.0
 10
13.1467310172
 20
8.5528087314
 30
0.0
 10
13.1247977327
 20
8.5387631074
 30
0.0
 10
13.1017718776
 20
8.5264627833
 30
0.0
 10
13.0777800446
 20
8.5159749627
 30
0.0
 10
13.0529546426
 20
8.5073572993
 30
0.0
 10
13.0274324769
 20
8.5006569394
 30
0.0
 10
13.0013541574
 20
8.4959104619
 30
0.0
 10
12.9748632667
 20
8.4931436474
 30
0.0
 10
12.9481055786
 20
8.4923713698
 30
0.0
 10
12.9212282532
 20
8.4935975308
 30
0.0
 10
12.8943790327
 20
8.4968150569
 30
0.0
 10
12.8677054377
 20
8.5020059532
 30
0.0
 10
12.8413539658
 20
8.5091414153
 30
0.0
 10
12.8154692979
 20
8.5181819935
 30
0.0
 10
12.7901935124
 20
8.5290778106
 30
0.0
 10
12.765665317
 20
8.5417688501
 30
0.0
 10
12.7420193026
 20
8.55618528
 30
0.0
 10
12.7193851996
 20
8.5722478573
 30
0.0
 10
12.6978872322
 20
8.5898682821
 30
0.0
 10
12.6776432331
 20
8.6089499716
 30
0.0
 10
12.6587647969
 20
8.629387493
 30
0.0
 10
12.6442508961
 20
8.6474630695
 30
0.0
 10
12.6334222269
 20
8.6624875425
 30
0.0
 10
12.6231383261
 20
8.6778538807
 30
0.0
 10
12.6113148003
 20
8.697685087
 30
0.0
 10
12.5988504937
 20
8.7223615259
 30
0.0
 10
12.5881838718
 20
8.7477724873
 30
0.0
 10
12.5793741223
 20
8.7737780622
 30
0.0
 10
12.5724697771
 20
8.800234839
 30
0.0
 10
12.5683304859
 20
8.8225672425
 30
0.0
 10
12.5660084455
 20
8.8405110201
 30
0.0
 10
12.5643512768
 20
8.8584376397
 30
0.0
 10
12.5638495023
 20
8.8719272797
 30
0.0
 10
12.5638495023
 20
8.8809039324
 30
0.0
  0
SPLINE
  5
32D
100
AcDbEntity
  8
0
100
AcDbSpline
 62
7
  6
CONTINUOUS
 70
0
 71
3
 72
41
 73
37
 74
0
 42
0.0000001
 43
0.0000001
 44
0.0000000001
 40
0.0
 40
0.0
 40
0.0
 40
0.0
 40
0.0299421238
 40
0.0449237703
 40
0.059914519
 40
0.0899291762
 40
0.1200146048
 40
0.1350933663
 40
0.1501974853
 40
0.1804849834
 40
0.2108989722
 40
0.2414525913
 40
0.2721557558
 40
0.3030149766
 40
0.3340332647
 40
0.365210118
 40
0.396541585
 40
0.4280204007
 40
0.4596361866
 40
0.4913757084
 40
0.5232231826
 40
0.5551606251
 40
0.5871682346
 40
0.6192248024
 40
0.6513081434
 40
0.68339554
 40
0.7154641944
 40
0.7474916807
 40
0.7794563937
 40
0.8113379827
 40
0.8431177771
 40
0.8747791563
 40
0.9063079829
 40
0.9376927254
 40
0.9689252285
 40
1.0
 40
1.0
 40
1.0
 40
1.0
 10
15.0344590808
 20
9.1117865566
 30
0.0
 10
15.0309586616
 20
9.1084054051
 30
0.0
 10
15.025501738
 20
9.1035385113
 30
0.0
 10
15.0178593737
 20
9.0974998162
 30
0.0
 10
15.0099736818
 20
9.0917615543
 30
0.0
 10
14.9996841044
 20
9.0851722116
 30
0.0
 10
14.9888942465
 20
9.0794084168
 30
0.0
 10
14.9799954013
 20
9.0753080466
 30
0.0
 10
14.970912731
 20
9.0715461603
 30
0.0
 10
14.95926007
 20
9.067501062
 30
0.0
 10
14.9448999239
 20
9.0637311127
 30
0.0
 10
14.9302264297
 20
9.0610603709
 30
0.0
 10
14.9153209062
 20
9.0595035704
 30
0.0
 10
14.9002652331
 20
9.0590690197
 30
0.0
 10
14.8851422513
 20
9.0597589303
 30
0.0
 10
14.8700350807
 20
9.0615693169
 30
0.0
 10
14.8550267289
 20
9.0644900544
 30
0.0
 10
14.8401996242
 20
9.068504933
 30
0.0
 10
14.825635173
 20
9.0735917545
 30
0.0
 10
14.8114133183
 20
9.0797224576
 30
0.0
 10
14.7976121075
 20
9.0868632739
 30
0.0
 10
14.7843072696
 20
9.0949749141
 30
0.0
 10
14.7715718055
 20
9.1040127838
 30
0.0
 10
14.7594755926
 20
9.1139272267
 30
0.0
 10
14.7480850056
 20
9.1246637957
 30
0.0
 10
14.7374625566
 20
9.1361635488
 30
0.0
 10
14.727666556
 20
9.1483633698
 30
0.0
 10
14.7187507944
 20
9.1611963115
 30
0.0
 10
14.710764252
 20
9.1745919581
 30
0.0
 10
14.7037508278
 20
9.1884768093
 30
0.0
 10
14.697749109
 20
9.20277467
 30
0.0
 10
14.6927921377
 20
9.2174070993
 30
0.0
 10
14.6889072769
 20
9.2322936947
 30
0.0
 10
14.686115965
 20
9.2473530447
 30
0.0
 10
14.6844337459
 20
9.2625013149
 30
0.0
 10
14.6840569493
 20
9.272632507
 30
0.0
 10
14.6840569493
 20
9.2776833416
 30
0.0
  0
SPLINE
  5
32E
100
AcDbEntity
  8
0
100
AcDbSpline
 62
7
  6
CONTINUOUS
 70
0
 71
3
 72
42
 73
38
 74
0
 42
0.0000001
 43
0.0000001
 44
0.0000000001
 40
0.0
 40
0.0
 40
0.0
 40
0.0
 40
0.0320305738
 40
0.0641939394
 40
0.0964576037
 40
0.1287870529
 40
0.1611471963
 40
0.1773315159
 40
0.1935106869
 40
0.2258310322
 40
0.258085148
 40
0.2741820626
 40
0.2902525575
 40
0.3062938219
 40
0.3223032444
 40
0.3542111669
 40
0.3859668067
 40
0.4175582436
 40
0.4489776026
 40
0.4802211073
 40
0.5112891567
 40
0.5421864102
 40
0.5729218585
 40
0.6035088828
 40
0.6339652823
 40
0.6643132195
 40
0.6945790048
 40
0.72479273
 40
0.7549877071
 40
0.7851995904
 40
0.8154651617
 40
0.8458209642
 40
0.8763016241
 40
0.9069380151
 40
0.9377556036
 40
0.9687725945
 40
1.0
 40
1.0
 40
1.0
 40
1.0
 10
11.6221442921
 20
8.6078549782
 30
0.0
 10
11.6124151271
 20
8.6116727227
 30
0.0
 10
11.5932593039
 20
8.6202310243
 30
0.0
 10
11.565764866
 20
8.6356306303
 30
0.0
 10
11.5396574887
 20
8.6534560196
 30
0.0
 10
11.5151453634
 20
8.6735147197
 30
0.0
 10
11.4961931888
 20
8.6919259761
 30
0.0
 10
11.4819939801
 20
8.7075660571
 30
0.0
 10
11.4684638856
 20
8.7237717525
 30
0.0
 10
11.4528385067
 20
8.7450271676
 30
0.0
 10
11.4390060863
 20
8.7674582645
 30
0.0
 10
11.4290709986
 20
8.7859879534
 30
0.0
 10
11.422197797
 20
8.8001419563
 30
0.0
 10
11.4159073308
 20
8.8145332293
 30
0.0
 10
11.4083164291
 20
8.8339779437
 30
0.0
 10
11.4003141956
 20
8.85874404
 30
0.0
 10
11.3931326378
 20
8.889017162
 30
0.0
 10
11.3884112486
 20
8.9196099602
 30
0.0
 10
11.3861702337
 20
8.9503162083
 30
0.0
 10
11.3864189043
 20
8.9809329034
 30
0.0
 10
11.3891568138
 20
9.0112575732
 30
0.0
 10
11.394373515
 20
9.0410879838
 30
0.0
 10
11.4020481
 20
9.0702212933
 30
0.0
 10
11.4121483481
 20
9.0984535429
 30
0.0
 10
11.4246294753
 20
9.1255793747
 30
0.0
 10
11.4394325241
 20
9.1513921233
 30
0.0
 10
11.4564823514
 20
9.1756844567
 30
0.0
 10
11.4756854951
 20
9.1982496278
 30
0.0
 10
11.4969280335
 20
9.2188833983
 30
0.0
 10
11.5200734717
 20
9.237386789
 30
0.0
 10
11.5449609087
 20
9.2535698722
 30
0.0
 10
11.5714041551
 20
9.267255964
 30
0.0
 10
11.5991917261
 20
9.278286564
 30
0.0
 10
11.6280874756
 20
9.2865270074
 30
0.0
 10
11.6578348874
 20
9.2918709135
 30
0.0
 10
11.6881552038
 20
9.294245719
 30
0.0
 10
11.708499458
 20
9.2938260584
 30
0.0
 10
11.718664377
 20
9.2931211189
 30
0.0
  0
SPLINE
  5
32F
100
AcDbEntity
  8
0
100
AcDbSpline
 62
7
  6
CONTINUOUS
 70
0
 71
3
 72
41
 73
37
 74
0
 42
0.0000001
 43
0.0000001
 44
0.0000000001
 40
0.0
 40
0.0
 40
0.0
 40
0.0
 40
0.0299421238
 40
0.0449237703
 40
0.059914519
 40
0.0899291762
 40
0.1200146048
 40
0.1350933663
 40
0.1501974853
 40
0.1804849834
 40
0.2108989722
 40
0.2414525913
 40
0.2721557558
 40
0.3030149766
 40
0.3340332647
 40
0.365210118
 40
0.396541585
 40
0.4280204007
 40
0.4596361866
 40
0.4913757084
 40
0.5232231826
 40
0.5551606251
 40
0.5871682346
 40
0.6192248024
 40
0.6513081434
 40
0.68339554
 40
0.7154641944
 40
0.7474916807
 40
0.7794563937
 40
0.8113379827
 40
0.8431177771
 40
0.8747791563
 40
0.9063079829
 40
0.9376927254
 40
0.9689252285
 40
1.0
 40
1.0
 40
1.0
 40
1.0
 10
15.0344590808
 20
6.4554903769
 30
0.0
 10
15.0309586616
 20
6.4521092254
 30
0.0
 10
15.025501738
 20
6.4472423316
 30
0.0
 10
15.0178593737
 20
6.4412036365
 30
0.0
 10
15.0099736818
 20
6.4354653747
 30
0.0
 10
14.9996841044
 20
6.4288760319
 30
0.0
 10
14.9888942465
 20
6.4231122372
 30
0.0
 10
14.9799954013
 20
6.4190118669
 30
0.0
 10
14.970912731
 20
6.4152499806
 30
0.0
 10
14.95926007
 20
6.4112048823
 30
0.0
 10
14.9448999239
 20
6.407434933
 30
0.0
 10
14.9302264297
 20
6.4047641912
 30
0.0
 10
14.9153209062
 20
6.4032073907
 30
0.0
 10
14.9002652331
 20
6.40277284
 30
0.0
 10
14.8851422513
 20
6.4034627506
 30
0.0
 10
14.8700350807
 20
6.4052731373
 30
0.0
 10
14.8550267289
 20
6.4081938748
 30
0.0
 10
14.8401996242
 20
6.4122087533
 30
0.0
 10
14.825635173
 20
6.4172955748
 30
0.0
 10
14.8114133183
 20
6.4234262779
 30
0.0
 10
14.7976121075
 20
6.4305670942
 30
0.0
 10
14.7843072696
 20
6.4386787344
 30
0.0
 10
14.7715718055
 20
6.4477166041
 30
0.0
 10
14.7594755926
 20
6.4576310471
 30
0.0
 10
14.7480850056
 20
6.468367616
 30
0.0
 10
14.7374625566
 20
6.4798673691
 30
0.0
 10
14.727666556
 20
6.4920671902
 30
0.0
 10
14.7187507944
 20
6.5049001318
 30
0.0
 10
14.710764252
 20
6.5182957784
 30
0.0
 10
14.7037508278
 20
6.5321806296
 30
0.0
 10
14.697749109
 20
6.5464784903
 30
0.0
 10
14.6927921377
 20
6.5611109197
 30
0.0
 10
14.6889072769
 20
6.575997515
 30
0.0
 10
14.686115965
 20
6.591056865
 30
0.0
 10
14.6844337459
 20
6.6062051352
 30
0.0
 10
14.6840569493
 20
6.6163363273
 30
0.0
 10
14.6840569493
 20
6.6213871619
 30
0.0
  0
SPLINE
  5
330
100
AcDbEntity
  8
0
100
AcDbSpline
 62
7
  6
CONTINUOUS
 70
0
 71
3
 72
37
 73
33
 74
0
 42
0.0000001
 43
0.0000001
 44
0.0000000001
 40
0.0
 40
0.0
 40
0.0
 40
0.0
 40
0.0299447734
 40
0.0599139259
 40
0.0899312435
 40
0.1200193435
 40
0.1501991354
 40
0.1804893331
 40
0.2109060334
 40
0.241462374
 40
0.272168271
 40
0.3030302375
 40
0.3340512872
 40
0.3652309191
 40
0.3965651795
 40
0.4280467979
 40
0.4596653933
 40
0.4914077316
 40
0.5232580308
 40
0.5551983078
 40
0.6192295559
 40
0.6833675502
 40
0.7154390382
 40
0.747469357
 40
0.7794368985
 40
0.8113213087
 40
0.8431039189
 40
0.8747680563
 40
0.9062997989
 40
0.9376869363
 40
0.9689229623
 40
1.0
 40
1.0
 40
1.0
 40
1.0
 10
14.4618029634
 20
7.035878335
 30
0.0
 10
14.4597292529
 20
7.0338753072
 30
0.0
 10
14.4554187283
 20
7.030030955
 30
0.0
 10
14.4485126525
 20
7.0247936749
 30
0.0
 10
14.4412015389
 20
7.0201119004
 30
0.0
 10
14.4335262488
 20
7.0160118825
 30
0.0
 10
14.4255289735
 20
7.0125160279
 30
0.0
 10
14.4172538459
 20
7.0096435635
 30
0.0
 10
14.4087464699
 20
7.0074102029
 30
0.0
 10
14.4000537181
 20
7.00582813
 30
0.0
 10
14.3912234507
 20
7.0049059345
 30
0.0
 10
14.382304257
 20
7.0046485732
 30
0.0
 10
14.3733451882
 20
7.0050573494
 30
0.0
 10
14.3643954917
 20
7.0061299107
 30
0.0
 10
14.3555043412
 20
7.0078602692
 30
0.0
 10
14.3467205761
 20
7.0102388055
 30
0.0
 10
14.3380923918
 20
7.0132523859
 30
0.0
 10
14.3296672526
 20
7.0168842957
 30
0.0
 10
14.3214909903
 20
7.0211148621
 30
0.0
 10
14.3109758062
 20
7.0275255128
 30
0.0
 10
14.2986805405
 20
7.0369116441
 30
0.0
 10
14.2877903272
 20
7.0479140961
 30
0.0
 10
14.2800548109
 20
7.0575482259
 30
0.0
 10
14.2747727684
 20
7.0651508784
 30
0.0
 10
14.2700415081
 20
7.0730865948
 30
0.0
 10
14.2658866615
 20
7.0813122023
 30
0.0
 10
14.2623311968
 20
7.0897824595
 30
0.0
 10
14.2593946225
 20
7.0984509277
 30
0.0
 10
14.2570932273
 20
7.1072699366
 30
0.0
 10
14.2554395603
 20
7.1161913453
 30
0.0
 10
14.2544430445
 20
7.1251653887
 30
0.0
 10
14.2542197985
 20
7.1311672729
 30
0.0
 10
14.2542197985
 20
7.1341594113
 30
0.0
  0
SPLINE
  5
331
100
AcDbEntity
  8
0
100
AcDbSpline
 62
7
  6
CONTINUOUS
 70
0
 71
3
 72
41
 73
37
 74
0
 42
0.0000001
 43
0.0000001
 44
0.0000000001
 40
0.0
 40
0.0
 40
0.0
 40
0.0
 40
0.0299421238
 40
0.0449237703
 40
0.059914519
 40
0.0899291762
 40
0.1200146048
 40
0.1350933663
 40
0.1501974853
 40
0.1804849834
 40
0.2108989722
 40
0.2414525913
 40
0.2721557558
 40
0.3030149766
 40
0.3340332647
 40
0.365210118
 40
0.396541585
 40
0.4280204007
 40
0.4596361866
 40
0.4913757084
 40
0.5232231826
 40
0.5551606251
 40
0.5871682346
 40
0.6192248024
 40
0.6513081434
 40
0.68339554
 40
0.7154641944
 40
0.7474916807
 40
0.7794563937
 40
0.8113379827
 40
0.8431177771
 40
0.8747791563
 40
0.9063079829
 40
0.9376927254
 40
0.9689252285
 40
1.0
 40
1.0
 40
1.0
 40
1.0
 10
11.1707553164
 20
6.7234391431
 30
0.0
 10
11.1672548972
 20
6.7200579915
 30
0.0
 10
11.1617979736
 20
6.7151910977
 30
0.0
 10
11.1541556093
 20
6.7091524027
 30
0.0
 10
11.1462699174
 20
6.7034141408
 30
0.0
 10
11.13598034
 20
6.6968247981
 30
0.0
 10
11.1251904821
 20
6.6910610033
 30
0.0
 10
11.1162916369
 20
6.6869606331
 30
0.0
 10
11.1072089666
 20
6.6831987467
 30
0.0
 10
11.0955563056
 20
6.6791536484
 30
0.0
 10
11.0811961596
 20
6.6753836992
 30
0.0
 10
11.0665226653
 20
6.6727129573
 30
0.0
 10
11.0516171418
 20
6.6711561569
 30
0.0
 10
11.0365614687
 20
6.6707216061
 30
0.0
 10
11.0214384869
 20
6.6714115167
 30
0.0
 10
11.0063313163
 20
6.6732219034
 30
0.0
 10
10.9913229645
 20
6.6761426409
 30
0.0
 10
10.9764958598
 20
6.6801575194
 30
0.0
 10
10.9619314086
 20
6.685244341
 30
0.0
 10
10.9477095539
 20
6.6913750441
 30
0.0
 10
10.9339083431
 20
6.6985158603
 30
0.0
 10
10.9206035052
 20
6.7066275006
 30
0.0
 10
10.9078680412
 20
6.7156653703
 30
0.0
 10
10.8957718282
 20
6.7255798132
 30
0.0
 10
10.8843812412
 20
6.7363163821
 30
0.0
 10
10.8737587923
 20
6.7478161352
 30
0.0
 10
10.8639627916
 20
6.7600159563
 30
0.0
 10
10.85504703
 20
6.772848898
 30
0.0
 10
10.8470604876
 20
6.7862445445
 30
0.0
 10
10.8400470634
 20
6.8001293957
 30
0.0
 10
10.8340453447
 20
6.8144272565
 30
0.0
 10
10.8290883733
 20
6.8290596858
 30
0.0
 10
10.8252035125
 20
6.8439462811
 30
0.0
 10
10.8224122006
 20
6.8590056311
 30
0.0
 10
10.8207299815
 20
6.8741539014
 30
0.0
 10
10.8203531849
 20
6.8842850934
 30
0.0
 10
10.8203531849
 20
6.889335928
 30
0.0
  0
SPLINE
  5
332
100
AcDbEntity
  8
0
100
AcDbSpline
 62
7
  6
CONTINUOUS
 70
0
 71
3
 72
23
 73
19
 74
0
 42
0.0000001
 43
0.0000001
 44
0.0000000001
 40
0.0
 40
0.0
 40
0.0
 40
0.0
 40
0.0615923148
 40
0.1235204212
 40
0.185755608
 40
0.2482601229
 40
0.3109897846
 40
0.3738937397
 40
0.4369166002
 40
0.4999997136
 40
0.563082816
 40
0.6261056513
 40
0.6890095892
 40
0.7517392027
 40
0.8142437825
 40
0.8764787604
 40
0.9384070086
 40
1.0
 40
1.0
 40
1.0
 40
1.0
 10
13.9432924943
 20
9.4041013072
 30
0.0
 10
13.9435386743
 20
9.4019299811
 30
0.0
 10
13.9442179091
 20
9.3975943242
 30
0.0
 10
13.9457813222
 20
9.3911845481
 30
0.0
 10
13.947880728
 20
9.3848952673
 30
0.0
 10
13.9505004642
 20
9.3787736305
 30
0.0
 10
13.9536210525
 20
9.372864713
 30
0.0
 10
13.9572193815
 20
9.3672122277
 30
0.0
 10
13.9612687995
 20
9.3618579342
 30
0.0
 10
13.965739357
 20
9.356841416
 30
0.0
 10
13.9705979907
 20
9.3521997566
 30
0.0
 10
13.9758087774
 20
9.3479672728
 30
0.0
 10
13.9813332026
 20
9.3441752758
 30
0.0
 10
13.987130456
 20
9.340851839
 30
0.0
 10
13.9931576553
 20
9.338021603
 30
0.0
 10
13.9993704248
 20
9.3357055623
 30
0.0
 10
14.005722216
 20
9.3339210297
 30
0.0
 10
14.0100317747
 20
9.3330920393
 30
0.0
 10
14.0121932898
 20
9.3327707624
 30
0.0
  0
SPLINE
  5
333
100
AcDbEntity
  8
0
100
AcDbSpline
 62
7
  6
CONTINUOUS
 70
0
 71
3
 72
37
 73
33
 74
0
 42
0.0000001
 43
0.0000001
 44
0.0000000001
 40
0.0
 40
0.0
 40
0.0
 40
0.0
 40
0.0299447734
 40
0.0599139259
 40
0.0899312435
 40
0.1200193435
 40
0.1501991354
 40
0.1804893331
 40
0.2109060334
 40
0.241462374
 40
0.272168271
 40
0.3030302375
 40
0.3340512872
 40
0.3652309191
 40
0.3965651795
 40
0.4280467979
 40
0.4596653933
 40
0.4914077316
 40
0.5232580308
 40
0.5551983078
 40
0.6192295559
 40
0.6833675502
 40
0.7154390382
 40
0.747469357
 40
0.7794368985
 40
0.8113213087
 40
0.8431039189
 40
0.8747680563
 40
0.9062997989
 40
0.9376869363
 40
0.9689229623
 40
1.0
 40
1.0
 40
1.0
 40
1.0
 10
14.0242384718
 20
8.6957404785
 30
0.0
 10
14.0221647614
 20
8.6937374507
 30
0.0
 10
14.0178542367
 20
8.6898930985
 30
0.0
 10
14.0109481609
 20
8.6846558184
 30
0.0
 10
14.0036370473
 20
8.6799740439
 30
0.0
 10
13.9959617573
 20
8.675874026
 30
0.0
 10
13.9879644819
 20
8.6723781714
 30
0.0
 10
13.9796893543
 20
8.669505707
 30
0.0
 10
13.9711819783
 20
8.6672723464
 30
0.0
 10
13.9624892265
 20
8.6656902735
 30
0.0
 10
13.9536589591
 20
8.664768078
 30
0.0
 10
13.9447397654
 20
8.6645107167
 30
0.0
 10
13.9357806967
 20
8.6649194929
 30
0.0
 10
13.9268310002
 20
8.6659920542
 30
0.0
 10
13.9179398497
 20
8.6677224127
 30
0.0
 10
13.9091560845
 20
8.670100949
 30
0.0
 10
13.9005279003
 20
8.6731145294
 30
0.0
 10
13.8921027611
 20
8.6767464392
 30
0.0
 10
13.8839264988
 20
8.6809770055
 30
0.0
 10
13.8734113147
 20
8.6873876563
 30
0.0
 10
13.861116049
 20
8.6967737876
 30
0.0
 10
13.8502258356
 20
8.7077762396
 30
0.0
 10
13.8424903193
 20
8.7174103693
 30
0.0
 10
13.8372082769
 20
8.7250130219
 30
0.0
 10
13.8324770166
 20
8.7329487383
 30
0.0
 10
13.82832217
 20
8.7411743458
 30
0.0
 10
13.8247667052
 20
8.749644603
 30
0.0
 10
13.8218301309
 20
8.7583130712
 30
0.0
 10
13.8195287358
 20
8.7671320801
 30
0.0
 10
13.8178750687
 20
8.7760534888
 30
0.0
 10
13.8168785529
 20
8.7850275322
 30
0.0
 10
13.8166553069
 20
8.7910294163
 30
0.0
 10
13.8166553069
 20
8.7940215548
 30
0.0
  0
SPLINE
  5
334
100
AcDbEntity
  8
0
100
AcDbSpline
 62
7
  6
CONTINUOUS
 70
0
 71
3
 72
39
 73
35
 74
0
 42
0.0000001
 43
0.0000001
 44
0.0000000001
 40
0.0
 40
0.0
 40
0.0
 40
0.0
 40
0.0299424756
 40
0.0599093253
 40
0.0899243308
 40
0.1200101061
 40
0.1501875593
 40
0.1804754054
 40
0.2108897454
 40
0.2414437198
 40
0.2721472437
 40
0.3030068255
 40
0.3340254745
 40
0.3652026886
 40
0.3965345175
 40
0.4280136976
 40
0.4596298523
 40
0.4913697474
 40
0.5232175981
 40
0.5551554173
 40
0.5871634018
 40
0.6192203434
 40
0.6513040581
 40
0.68339183
 40
0.7154608619
 40
0.7474887274
 40
0.7794538181
 40
0.8113357796
 40
0.8431159521
 40
0.8747776664
 40
0.9063069638
 40
0.937691791
 40
0.9689252156
 40
1.0
 40
1.0
 40
1.0
 40
1.0
 10
12.4199803125
 20
9.4012654506
 30
0.0
 10
12.4176494651
 20
9.399014015
 30
0.0
 10
12.4128045062
 20
9.3946928256
 30
0.0
 10
12.4050421031
 20
9.3888059858
 30
0.0
 10
12.3968244357
 20
9.3835435275
 30
0.0
 10
12.3881974169
 20
9.3789349743
 30
0.0
 10
12.3792084789
 20
9.3750055007
 30
0.0
 10
12.3699072294
 20
9.3717767073
 30
0.0
 10
12.3603449223
 20
9.3692662622
 30
0.0
 10
12.350574238
 20
9.367487875
 30
0.0
 10
12.3406489722
 20
9.3664512132
 30
0.0
 10
12.3306237441
 20
9.3661618469
 30
0.0
 10
12.320553691
 20
9.366621232
 30
0.0
 10
12.3104941672
 20
9.3678267149
 30
0.0
 10
12.3005004427
 20
9.3697715514
 30
0.0
 10
12.2906274043
 20
9.3724449489
 30
0.0
 10
12.2809292585
 20
9.3758321288
 30
0.0
 10
12.2714592388
 20
9.3799144094
 30
0.0
 10
12.2622693193
 20
9.3846693109
 30
0.0
 10
12.2534099258
 20
9.3900706669
 30
0.0
 10
12.244929666
 20
9.396088778
 30
0.0
 10
12.2368750676
 20
9.4026905773
 30
0.0
 10
12.2292903268
 20
9.409839809
 30
0.0
 10
12.2222170686
 20
9.4174972265
 30
0.0
 10
12.2156941221
 20
9.4256208041
 30
0.0
 10
12.2097573085
 20
9.4341659655
 30
0.0
 10
12.2044392498
 20
9.4430858249
 30
0.0
 10
12.1997691702
 20
9.452331436
 30
0.0
 10
12.1957727707
 20
9.4618520586
 30
0.0
 10
12.1924720208
 20
9.4715954669
 30
0.0
 10
12.1898852077
 20
9.481508097
 30
0.0
 10
12.1880264798
 20
9.4915358093
 30
0.0
 10
12.1869063676
 20
9.5016226972
 30
0.0
 10
12.1866554448
 20
9.5083688498
 30
0.0
 10
12.1866554448
 20
9.5117320486
 30
0.0
  0
SPLINE
  5
335
100
AcDbEntity
  8
0
100
AcDbSpline
 62
7
  6
CONTINUOUS
 70
0
 71
3
 72
34
 73
30
 74
0
 42
0.0000001
 43
0.0000001
 44
0.0000000001
 40
0.0
 40
0.0
 40
0.0
 40
0.0
 40
0.029948265
 40
0.059920911
 40
0.0899417355
 40
0.1200333579
 40
0.1502166746
 40
0.1805103996
 40
0.2109306468
 40
0.241490565
 40
0.2722000568
 40
0.303065626
 40
0.3340902961
 40
0.3652735746
 40
0.3966114954
 40
0.4280967817
 40
0.4597190652
 40
0.4914651189
 40
0.5552240134
 40
0.6192627273
 40
0.6834082032
 40
0.7474789322
 40
0.8112993139
 40
0.8430855846
 40
0.8747534858
 40
0.9062889405
 40
0.9376793031
 40
0.9689201346
 40
1.0
 40
1.0
 40
1.0
 40
1.0
 10
11.7728538089
 20
6.7709352343
 30
0.0
 10
11.7715598132
 20
6.7696853502
 30
0.0
 10
11.7688700291
 20
6.7672865029
 30
0.0
 10
11.764560638
 20
6.7640184574
 30
0.0
 10
11.7599985071
 20
6.7610970394
 30
0.0
 10
11.7552091178
 20
6.7585386602
 30
0.0
 10
11.750218809
 20
6.7563572908
 30
0.0
 10
11.7450551342
 20
6.7545648923
 30
0.0
 10
11.7397465424
 20
6.7531712719
 30
0.0
 10
11.73432227
 20
6.752184075
 30
0.0
 10
11.7288121876
 20
6.7516086605
 30
0.0
 10
11.7232466199
 20
6.7514480872
 30
0.0
 10
11.7176561696
 20
6.7517031673
 30
0.0
 10
11.7120715728
 20
6.7523724595
 30
0.0
 10
11.7065234975
 20
6.7534522376
 30
0.0
 10
11.7010424877
 20
6.7549364205
 30
0.0
 10
11.6956583317
 20
6.7568169969
 30
0.0
 10
11.6886404522
 20
6.7598420928
 30
0.0
 10
11.6802591862
 20
6.7645611604
 30
0.0
 10
11.671065956
 20
6.7715803866
 30
0.0
 10
11.6629146618
 20
6.7798147358
 30
0.0
 10
11.6559848554
 20
6.7890825042
 30
0.0
 10
11.6513448193
 20
6.7975168286
 30
0.0
 10
11.6483837224
 20
6.8045715183
 30
0.0
 10
11.6465511734
 20
6.8099808214
 30
0.0
 10
11.6451151695
 20
6.8154838104
 30
0.0
 10
11.6440832461
 20
6.8210508143
 30
0.0
 10
11.6434614711
 20
6.8266506046
 30
0.0
 10
11.6433221353
 20
6.8303957943
 30
0.0
 10
11.6433221353
 20
6.8322628375
 30
0.0
  0
SPLINE
  5
336
100
AcDbEntity
  8
0
100
AcDbSpline
 62
7
  6
CONTINUOUS
 70
0
 71
3
 72
39
 73
35
 74
0
 42
0.0000001
 43
0.0000001
 44
0.0000000001
 40
0.0
 40
0.0
 40
0.0
 40
0.0
 40
0.0299424756
 40
0.0599093253
 40
0.0899243308
 40
0.1200101061
 40
0.1501875593
 40
0.1804754054
 40
0.2108897454
 40
0.2414437198
 40
0.2721472437
 40
0.3030068255
 40
0.3340254745
 40
0.3652026886
 40
0.3965345175
 40
0.4280136976
 40
0.4596298523
 40
0.4913697474
 40
0.5232175981
 40
0.5551554173
 40
0.5871634018
 40
0.6192203434
 40
0.6513040581
 40
0.68339183
 40
0.7154608619
 40
0.7474887274
 40
0.7794538181
 40
0.8113357796
 40
0.8431159521
 40
0.8747776664
 40
0.9063069638
 40
0.937691791
 40
0.9689252156
 40
1.0
 40
1.0
 40
1.0
 40
1.0
 10
13.0236839897
 20
6.5813956586
 30
0.0
 10
13.0213531423
 20
6.579144223
 30
0.0
 10
13.0165081834
 20
6.5748230336
 30
0.0
 10
13.0087457803
 20
6.5689361938
 30
0.0
 10
13.0005281129
 20
6.5636737355
 30
0.0
 10
12.9919010941
 20
6.5590651823
 30
0.0
 10
12.9829121561
 20
6.5551357087
 30
0.0
 10
12.9736109066
 20
6.5519069153
 30
0.0
 10
12.9640485995
 20
6.5493964702
 30
0.0
 10
12.9542779152
 20
6.547618083
 30
0.0
 10
12.9443526494
 20
6.5465814212
 30
0.0
 10
12.9343274213
 20
6.5462920549
 30
0.0
 10
12.9242573682
 20
6.54675144
 30
0.0
 10
12.9141978444
 20
6.5479569229
 30
0.0
 10
12.9042041199
 20
6.5499017594
 30
0.0
 10
12.8943310815
 20
6.5525751569
 30
0.0
 10
12.8846329357
 20
6.5559623368
 30
0.0
 10
12.875162916
 20
6.5600446174
 30
0.0
 10
12.8659729965
 20
6.5647995189
 30
0.0
 10
12.857113603
 20
6.5702008749
 30
0.0
 10
12.8486333432
 20
6.576218986
 30
0.0
 10
12.8405787448
 20
6.5828207853
 30
0.0
 10
12.832994004
 20
6.589970017
 30
0.0
 10
12.8259207458
 20
6.5976274345
 30
0.0
 10
12.8193977993
 20
6.6057510121
 30
0.0
 10
12.8134609857
 20
6.6142961735
 30
0.0
 10
12.808142927
 20
6.6232160329
 30
0.0
 10
12.8034728474
 20
6.632461644
 30
0.0
 10
12.7994764479
 20
6.6419822666
 30
0.0
 10
12.796175698
 20
6.6517256749
 30
0.0
 10
12.7935888849
 20
6.661638305
 30
0.0
 10
12.791730157
 20
6.6716660173
 30
0.0
 10
12.7906100448
 20
6.6817529052
 30
0.0
 10
12.790359122
 20
6.6884990578
 30
0.0
 10
12.790359122
 20
6.6918622566
 30
0.0
  0
SPLINE
  5
337
100
AcDbEntity
  8
0
100
AcDbSpline
 62
7
  6
CONTINUOUS
 70
0
 71
3
 72
34
 73
30
 74
0
 42
0.0000001
 43
0.0000001
 44
0.0000000001
 40
0.0
 40
0.0
 40
0.0
 40
0.0
 40
0.029948265
 40
0.059920911
 40
0.0899417355
 40
0.1200333579
 40
0.1502166746
 40
0.1805103996
 40
0.2109306468
 40
0.241490565
 40
0.2722000568
 40
0.303065626
 40
0.3340902961
 40
0.3652735746
 40
0.3966114954
 40
0.4280967817
 40
0.4597190652
 40
0.4914651189
 40
0.5552240134
 40
0.6192627273
 40
0.6834082032
 40
0.7474789322
 40
0.8112993139
 40
0.8430855846
 40
0.8747534858
 40
0.9062889405
 40
0.9376793031
 40
0.9689201346
 40
1.0
 40
1.0
 40
1.0
 40
1.0
 10
13.9915854971
 20
9.2733618488
 30
0.0
 10
13.9902915013
 20
9.2721119647
 30
0.0
 10
13.9876017172
 20
9.2697131174
 30
0.0
 10
13.9832923262
 20
9.2664450719
 30
0.0
 10
13.9787301952
 20
9.2635236539
 30
0.0
 10
13.9739408059
 20
9.2609652747
 30
0.0
 10
13.9689504971
 20
9.2587839053
 30
0.0
 10
13.9637868224
 20
9.2569915068
 30
0.0
 10
13.9584782305
 20
9.2555978864
 30
0.0
 10
13.9530539581
 20
9.2546106895
 30
0.0
 10
13.9475438757
 20
9.254035275
 30
0.0
 10
13.9419783081
 20
9.2538747017
 30
0.0
 10
13.9363878577
 20
9.2541297818
 30
0.0
 10
13.930803261
 20
9.254799074
 30
0.0
 10
13.9252551856
 20
9.2558788521
 30
0.0
 10
13.9197741758
 20
9.257363035
 30
0.0
 10
13.9143900198
 20
9.2592436114
 30
0.0
 10
13.9073721403
 20
9.2622687073
 30
0.0
 10
13.8989908744
 20
9.2669877749
 30
0.0
 10
13.8897976441
 20
9.2740070011
 30
0.0
 10
13.8816463499
 20
9.2822413503
 30
0.0
 10
13.8747165435
 20
9.2915091187
 30
0.0
 10
13.8700765074
 20
9.2999434431
 30
0.0
 10
13.8671154105
 20
9.3069981328
 30
0.0
 10
13.8652828615
 20
9.3124074359
 30
0.0
 10
13.8638468576
 20
9.3179104249
 30
0.0
 10
13.8628149342
 20
9.3234774288
 30
0.0
 10
13.8621931592
 20
9.3290772191
 30
0.0
 10
13.8620538235
 20
9.3328224088
 30
0.0
 10
13.8620538235
 20
9.334689452
 30
0.0
  0
ENDSEC
  0
SECTION
  2
OBJECTS
  0
DICTIONARY
  5
C
100
AcDbDictionary
280
0
281
1
  3
ACAD_GROUP
350
D
  3
ACAD_MLINESTYLE
350
17
  3
ACAD_LAYOUT
350
1A
  3
ACAD_PLOTSETTINGS
350
19
  3
ACAD_PLOTSTYLENAME
350
E
  3
ACAD_IMAGE_DICT
350
       339
  3
ACAD_IMAGE_VARS
350
       33A
  3
ACAD_TABLESTYLE
350
       33B
  0
IMAGEDEF_REACTOR
  5
338
100
AcDbRasterImageDefReactor
 90
2
330
278
  0
DICTIONARY
  5
D
102
{ACAD_REACTORS
330
C
102
}
100
AcDbDictionary
280
0
281
1
  0
ACDBDICTIONARYWDFLT
  5
E
102
{ACAD_REACTORS
330
C
102
}
100
AcDbDictionary
281
1
  3
Normal
350
F
100
AcDbDictionaryWithDefault
340
F
  0
DICTIONARY
  5
339
330
C
100
AcDbDictionary
281
1
  3
RPKCLAN-DKV_assy_2_img_1
350
       33E
  0
RASTERVARIABLES
  5
33A
330
C
100
AcDbRasterVariables
 90
0
 70
0
 71
1
 72
5
  0
DICTIONARY
  5
17
102
{ACAD_REACTORS
330
C
102
}
100
AcDbDictionary
280
0
281
1
  3
Standard
350
18
  0
DICTIONARY
  5
33B
330
C
100
AcDbDictionary
281
1
  3
Standard
350
       33F
  3
Standard1
350
       340
  0
DICTIONARY
  5
19
102
{ACAD_REACTORS
330
C
102
}
100
AcDbDictionary
281
1
  0
DICTIONARY
  5
1A
102
{ACAD_REACTORS
330
C
102
}
100
AcDbDictionary
281
1
  3
Model
350
33C
  3
Layout1
350
33D
  0
ACDBPLACEHOLDER
  5
F
102
{ACAD_REACTORS
330
E
102
}
  0
MLINESTYLE
  5
18
102
{ACAD_REACTORS
330
17
102
}
100
AcDbMlineStyle
  2
STANDARD
 70
0
  3

 62
256
 51
90.0
 52
90.0
 71
2
 49
0.5
 62
256
  6
BYLAYER
 49
-0.5
 62
256
  6
BYLAYER
  0
LAYOUT
  5
33C
102
{ACAD_REACTORS
330
1A
102
}
100
AcDbPlotSettings
  1

  2
none_device
  4
ANSI_C_(22.00_x_17.00_Inches)
  6

 40
0.0
 41
0.0
 42
0.0
 43
0.0
 44
558.8
 45
431.8
 46
0.0
 47
0.0
 48
0.0
 49
0.0
140
0.0
141
0.0
142
1.0
143
1.0
 70
1024
 72
0
 73
0
 74
0
  7

 75
0
147
1.0
148
0.0
149
0.0
100
AcDbLayout
  1
Model
 70
0
 71
0
 10
0.0
 20
0.0
 11
22.0
 21
17.0
 12
0.0
 22
0.0
 32
0.0
 14
0.0
 24
0.0
 34
0.0
 15
0.0
 25
0.0
 35
0.0
146
0.0
 13
0.0
 23
0.0
 33
0.0
 16
1.0
 26
0.0
 36
0.0
 17
0.0
 27
1.0
 37
0.0
 76
0
330
20F
345
0
346
0
  0
LAYOUT
  5
33D
102
{ACAD_REACTORS
330
1A
102
}
100
AcDbPlotSettings
  1

  2
none_device
  4
ANSI_C_(22.00_x_17.00_Inches)
  6

 40
0.0
 41
0.0
 42
0.0
 43
0.0
 44
558.8
 45
431.8
 46
0.0
 47
0.0
 48
0.0
 49
0.0
140
0.0
141
0.0
142
1.0
143
1.0
 70
0
 72
0
 73
0
 74
0
  7

 75
0
147
1.0
148
0.0
149
0.0
100
AcDbLayout
  1
Layout1
 70
0
 71
1
 10
0.0
 20
0.0
 11
22.0
 21
17.0
 12
0.0
 22
0.0
 32
0.0
 14
0.0
 24
0.0
 34
0.0
 15
0.0
 25
0.0
 35
0.0
146
0.0
 13
0.0
 23
0.0
 33
0.0
 16
1.0
 26
0.0
 36
0.0
 17
0.0
 27
1.0
 37
0.0
 76
0
330
210
345
0
346
0
  0
IMAGEDEF
  5
33E
102
{ACAD_REACTORS
330
339
330
338
102
}
100
AcDbRasterImageDef
 90
0
  1
RPKCLAN-DKV_assy_2_img_1.png
 10
369.0
 20
92.0
 11
0.0066666667
 21
0.0066666667
280
1
281
0
  0
TABLESTYLE
  5
33F
102
{ACAD_REACTORS
330
33B
330
27B
102
}
330
33B
100
AcDbTableStyle
  3
Standard
 70
0
 71
0
 40
0.06
 41
0.06
280
1
281
1
  7
Standard
140
0.18
170
1
 62
0
 63
7
283
0
  7
Standard
140
0.18
170
1
 62
0
 63
7
283
0
  7
Standard
140
0.18
170
1
 62
0
 63
7
283
0
  0
TABLESTYLE
  5
340
102
{ACAD_REACTORS
330
33B
330
27A
102
}
330
33B
100
AcDbTableStyle
  3
Standard1
 70
1
 71
0
 40
0.06
 41
0.06
280
1
281
1
  7
Standard
140
0.18
170
1
 62
0
 63
7
283
0
  7
Standard
140
0.18
170
1
 62
0
 63
7
283
0
  7
Standard
140
0.18
170
1
 62
0
 63
7
283
0
  0
ENDSEC
  0
EOF
