999
DXF file: RPICLWN-IAN-S_assy_2.dxf
999
Pro/ENGINEER 2014200 by Parametric Technology Corporation
  0
SECTION
  2
HEADER
  9
$ACADVER
  1
AC1021
  9
$DWGCODEPAGE
  3
ANSI_1252
  9
$EXTMAX
 10
22.0
 20
17.0
 30
0.0
  9
$EXTMIN
 10
0.0
 20
0.0
 30
0.0
  9
$LIMMIN
 10
0.0
 20
0.0
  9
$LIMMAX
 10
22.0
 20
17.0
  9
$VIEWCTR
 10
11.0
 20
8.5
  9
$VIEWSIZE
 40
17.0
  9
$CLAYER
  8
0
  9
$LTSCALE
 40
1.21
  9
$CELTYPE
  6
BYLAYER
  9
$DIMSCALE
 40
1.0
  9
$DIMASZ
 40
0.1875
  9
$DIMEXO
 40
0.0625
  9
$DIMDLI
 40
0.836
  9
$DIMEXE
 40
0.125
  9
$DIMCEN
 40
0.198
  9
$DIMLFAC
 40
1.0
  9
$DIMBLK
  1
_FILLED
  9
$DIMTXT
 40
0.1
  9
$DIMTOL
 70
0
  9
$DIMLIM
 70
0
  9
$DIMTFAC
 40
1.0
  9
$DIMGAP
 40
0.09
  9
$DIMDSEP
 70
46
  9
$AUNITS
 70
0
  9
$PDMODE
 70
3
  9
$PDSIZE
 40
0.3125
  9
$HANDSEED
  5
3DE
  9
$TILEMODE
 70
1
  9
$MEASUREMENT
 70
0
  9
$INSUNITS
 70
1
  0
ENDSEC
  0
SECTION
  2
CLASSES
  0
CLASS
  1
ACDBDICTIONARYWDFLT
  2
AcDbDictionaryWithDefault
  3
AutoCAD 2000
 90
0
 91
1
280
0
281
0
  0
CLASS
  1
ACDBPLACEHOLDER
  2
AcDbPlaceHolder
  3
AutoCAD 2000
 90
0
 91
1
280
0
281
0
  0
CLASS
  1
LAYOUT
  2
AcDbLayout
  3
AutoCAD 2000
 90
0
 91
0
280
0
281
0
  0
CLASS
  1
RASTERVARIABLES
  2
AcDbRasterVariables
  3
ISM
 90
0
 91
1
280
0
281
0
  0
CLASS
  1
IMAGEDEF
  2
AcDbRasterImageDef
  3
ISM
 90
0
 91
1
280
0
281
0
  0
CLASS
  1
IMAGEDEF_REACTOR
  2
AcDbRasterImageDefReactor
  3
ISM
 90
0
 91
1
280
0
281
0
  0
CLASS
  1
IMAGE
  2
AcDbRasterImage
  3
ISM
 90
127
 91
1
280
0
281
1
  0
CLASS
  1
TABLESTYLE
  2
AcDbTableStyle
  3
ObjectDBX Classes
 90
2047
 91
1
280
0
281
0
  0
CLASS
  1
ACAD_TABLE
  2
AcDbTable
  3
ObjectDBX Classes
 90
1025
 91
3
280
0
281
1
  0
ENDSEC
  0
SECTION
  2
TABLES
  0
TABLE
  2
VPORT
  5
8
100
AcDbSymbolTable
 70
2
  0
VPORT
  5
1F4
100
AcDbSymbolTableRecord
100
AcDbViewportTableRecord
  2
*ACTIVE
 70
0
 10
0.0
 20
0.0
 11
1.0
 21
1.0
 12
11.0
 22
8.5
 13
0.0
 23
0.0
 14
1.0
 24
1.0
 15
0.0
 25
0.0
 16
0.0
 26
0.0
 36
1.0
 17
0.0
 27
0.0
 37
0.0
 40
17.0
 41
1.2941176471
 42
50.0
 43
0.0
 44
0.0
 50
0.0
 51
0.0
 71
0
 72
100
 73
1
 74
1
 75
0
 76
0
 77
0
 78
0
  0
ENDTAB
  0
TABLE
  2
LTYPE
  5
5
100
AcDbSymbolTable
 70
6
  0
LTYPE
  5
14
100
AcDbSymbolTableRecord
100
AcDbLinetypeTableRecord
  2
BYBLOCK
 70
0
  3

 72
65
 73
0
 40
0.0
  0
LTYPE
  5
15
100
AcDbSymbolTableRecord
100
AcDbLinetypeTableRecord
  2
BYLAYER
 70
0
  3

 72
65
 73
0
 40
0.0
  0
LTYPE
  5
16
100
AcDbSymbolTableRecord
100
AcDbLinetypeTableRecord
  2
CONTINUOUS
 70
64
  3
Solid line
 72
65
 73
0
 40
0.0
  0
LTYPE
  5
1F5
100
AcDbSymbolTableRecord
100
AcDbLinetypeTableRecord
  2
CENTER
 70
64
  3
____ _ ____ _ ____ _ ____ _ ____ _ ____ _ ____
 72
65
 73
4
 40
0.6
 49
0.375
 74
0
 49
-0.075
 74
0
 49
0.075
 74
0
 49
-0.075
 74
0
  0
LTYPE
  5
1F6
100
AcDbSymbolTableRecord
100
AcDbLinetypeTableRecord
  2
HIDDEN
 70
64
  3
- - - - - - - - - - - - - - - - - - - -
 72
65
 73
2
 40
0.2
 49
0.1
 74
0
 49
-0.1
 74
0
  0
LTYPE
  5
1F7
100
AcDbSymbolTableRecord
100
AcDbLinetypeTableRecord
  2
PHANTOM
 70
64
  3
_____ _ _ _____ _ _ _____ _ _ _____
 72
65
 73
6
 40
0.8
 49
0.45
 74
0
 49
-0.05
 74
0
 49
0.1
 74
0
 49
-0.05
 74
0
 49
0.1
 74
0
 49
-0.05
 74
0
  0
LTYPE
  5
1F8
100
AcDbSymbolTableRecord
100
AcDbLinetypeTableRecord
  2
DOT
 70
64
  3
. . . . . . . . . . . . . . . . . . . .
 72
65
 73
2
 40
0.2
 49
0.1
 74
0
 49
-0.1
 74
0
  0
LTYPE
  5
1F9
100
AcDbSymbolTableRecord
100
AcDbLinetypeTableRecord
  2
DASHED
 70
64
  3
- - - - - - - - - - - - - - - - - - - -
 72
65
 73
2
 40
0.2
 49
0.1
 74
0
 49
-0.1
 74
0
  0
ENDTAB
  0
TABLE
  2
LAYER
  5
2
100
AcDbSymbolTable
 70
36
  0
LAYER
  5
10
100
AcDbSymbolTableRecord
100
AcDbLayerTableRecord
  2
0
 70
0
 62
7
  6
CONTINUOUS
370
-3
390
F
  0
LAYER
  5
1FA
100
AcDbSymbolTableRecord
100
AcDbLayerTableRecord
  2
DEFAULT_1
 70
0
 62
7
  6
CENTER
370
-3
390
F
  0
LAYER
  5
1FB
100
AcDbSymbolTableRecord
100
AcDbLayerTableRecord
  2
DEFAULT_2
 70
0
 62
8
  6
HIDDEN
370
-3
390
F
  0
LAYER
  5
1FC
100
AcDbSymbolTableRecord
100
AcDbLayerTableRecord
  2
DEFAULT_3
 70
0
 62
7
  6
PHANTOM
370
-3
390
F
  0
LAYER
  5
1FD
100
AcDbSymbolTableRecord
100
AcDbLayerTableRecord
  2
01___PRT_ALL_DTM_PLN
 70
0
 62
7
  6
CONTINUOUS
370
-3
390
F
  0
LAYER
  5
1FE
100
AcDbSymbolTableRecord
100
AcDbLayerTableRecord
  2
01___PRT_DEF_DTM_PLN
 70
0
 62
7
  6
CONTINUOUS
370
-3
390
F
  0
LAYER
  5
1FF
100
AcDbSymbolTableRecord
100
AcDbLayerTableRecord
  2
02___PRT_ALL_AXES
 70
0
 62
7
  6
CONTINUOUS
370
-3
390
F
  0
LAYER
  5
200
100
AcDbSymbolTableRecord
100
AcDbLayerTableRecord
  2
03___PRT_ALL_CURVES
 70
0
 62
7
  6
CONTINUOUS
370
-3
390
F
  0
LAYER
  5
201
100
AcDbSymbolTableRecord
100
AcDbLayerTableRecord
  2
04___PRT_ALL_DTM_PNT
 70
0
 62
7
  6
CONTINUOUS
370
-3
390
F
  0
LAYER
  5
202
100
AcDbSymbolTableRecord
100
AcDbLayerTableRecord
  2
05___PRT_ALL_DTM_CSYS
 70
0
 62
7
  6
CONTINUOUS
370
-3
390
F
  0
LAYER
  5
203
100
AcDbSymbolTableRecord
100
AcDbLayerTableRecord
  2
05___PRT_DEF_DTM_CSYS
 70
0
 62
7
  6
CONTINUOUS
370
-3
390
F
  0
LAYER
  5
204
100
AcDbSymbolTableRecord
100
AcDbLayerTableRecord
  2
06___PRT_ALL_SURFS
 70
0
 62
7
  6
CONTINUOUS
370
-3
390
F
  0
LAYER
  5
205
100
AcDbSymbolTableRecord
100
AcDbLayerTableRecord
  2
DATUM_PLANES
 70
0
 62
7
  6
CONTINUOUS
370
-3
390
F
  0
LAYER
  5
206
100
AcDbSymbolTableRecord
100
AcDbLayerTableRecord
  2
PORT_AREAS
 70
0
 62
7
  6
CONTINUOUS
370
-3
390
F
  0
LAYER
  5
207
100
AcDbSymbolTableRecord
100
AcDbLayerTableRecord
  2
SUNNBOMCOSMETIC
 70
0
 62
7
  6
CONTINUOUS
370
-3
390
F
  0
LAYER
  5
208
100
AcDbSymbolTableRecord
100
AcDbLayerTableRecord
  2
SUNNBOMSTAMPING
 70
0
 62
7
  6
CONTINUOUS
370
-3
390
F
  0
LAYER
  5
209
100
AcDbSymbolTableRecord
100
AcDbLayerTableRecord
  2
THREADS
 70
0
 62
7
  6
CONTINUOUS
370
-3
390
F
  0
ENDTAB
  0
TABLE
  2
STYLE
  5
3
100
AcDbSymbolTable
 70
1
  0
STYLE
  5
11
100
AcDbSymbolTableRecord
100
AcDbTextStyleTableRecord
  2
STANDARD
 70
0
 40
0.0
 41
0.8
 50
0.0
 71
0
 42
0.2
  3
txt
  4

  0
STYLE
  5
20A
100
AcDbSymbolTableRecord
100
AcDbTextStyleTableRecord
  2
TEXTSTYLE_1
 70
0
 40
0.0
 41
0.8
 50
0.0
 71
0
 42
0.2
  3
gdt
  4

  0
ENDTAB
  0
TABLE
  2
VIEW
  5
6
100
AcDbSymbolTable
 70
0
  0
ENDTAB
  0
TABLE
  2
UCS
  5
7
100
AcDbSymbolTable
 70
0
  0
ENDTAB
  0
TABLE
  2
APPID
  5
9
100
AcDbSymbolTable
 70
1
  0
APPID
  5
20B
100
AcDbSymbolTableRecord
100
AcDbRegAppTableRecord
  2
ACAD
 70
0
  0
ENDTAB
  0
TABLE
  2
BLOCK_RECORD
  5
1
100
AcDbSymbolTable
 70
0
  0
BLOCK_RECORD
  5
20C
100
AcDbSymbolTableRecord
100
AcDbBlockTableRecord
  2
*Model_Space
  0
BLOCK_RECORD
  5
20D
100
AcDbSymbolTableRecord
100
AcDbBlockTableRecord
  2
*Paper_Space
  0
BLOCK_RECORD
  5
20E
100
AcDbSymbolTableRecord
100
AcDbBlockTableRecord
  2
SUN_FIRST_THIRD_ANGLE_BL0
  0
BLOCK_RECORD
  5
20F
100
AcDbSymbolTableRecord
100
AcDbBlockTableRecord
  2
*T1
  0
BLOCK_RECORD
  5
210
100
AcDbSymbolTableRecord
100
AcDbBlockTableRecord
  2
*T2
  0
BLOCK_RECORD
  5
211
100
AcDbSymbolTableRecord
100
AcDbBlockTableRecord
  2
*T3
  0
ENDTAB
  0
TABLE
  2
DIMSTYLE
  5
A
100
AcDbSymbolTable
 70
1
100
AcDbDimStyleTable
 71
0
  0
DIMSTYLE
105
212
100
AcDbSymbolTableRecord
100
AcDbDimStyleTableRecord
  2
STANDARD
 70
0
  3

  4

 40
1.0
 41
0.1875
 42
0.0625
 43
0.38
 44
0.125
 45
0.0
 46
0.0
 47
0.001
 48
0.001
140
0.1
141
0.09
142
0.0
143
25.4
144
1.0
145
0.0
146
1.0
147
0.09
 71
0.0
 72
0.0
 73
1
 74
1
 75
0
 76
0
 77
0
 78
4
170
0
171
2
172
0
173
0
174
0
175
0
176
0
177
0
178
0
270
2
271
3
272
3
273
2
274
2
275
0
280
0
281
0
282
0
283
1
284
4
285
0
286
0
287
3
288
0
340
11
278
46
  0
ENDTAB
  0
ENDSEC
  0
SECTION
  2
BLOCKS
  0
BLOCK
  5
20
100
AcDbEntity
  8
0
100
AcDbBlockBegin
  2
*Model_Space
 70
0
 10
0.0
 20
0.0
 30
0.0
  3
*Model_Space
  1

  0
ENDBLK
  5
21
100
AcDbEntity
  8
0
100
AcDbBlockEnd
  0
BLOCK
  5
1C
100
AcDbEntity
  8
0
100
AcDbBlockBegin
  2
*Paper_Space
 70
0
 10
0.0
 20
0.0
 30
0.0
  3
*Paper_Space
  1

  0
ENDBLK
  5
1D
100
AcDbEntity
  8
0
100
AcDbBlockEnd
  0
BLOCK
  5
213
100
AcDbEntity
  8
0
100
AcDbBlockBegin
 62
2
  6
CONTINUOUS
  2
SUN_FIRST_THIRD_ANGLE_BL0
 70
64
 10
20.4816717061
 20
1.2289683772
  3
SUN_FIRST_THIRD_ANGLE_BL0
  1

  0
TEXT
  5
214
100
AcDbEntity
  8
0
100
AcDbText
 62
2
  6
CONTINUOUS
 10
19.4750896608
 20
1.4136269581
  7
STANDARD
 40
0.08
  1
FIRST ANGLE
 41
0.8
 72
0
100
AcDbText
  0
TEXT
  5
215
100
AcDbEntity
  8
0
100
AcDbText
 62
2
  6
CONTINUOUS
 10
20.7842537513
 20
1.4047600029
  7
STANDARD
 40
0.08
  1
THIRD ANGLE
 41
0.8
 72
0
100
AcDbText
  0
LINE
  5
216
100
AcDbEntity
  8
0
100
AcDbLine
 62
7
  6
CONTINUOUS
 10
19.4767170086
 20
1.1727031207
 11
19.6334271527
 21
1.1717972817
  0
LINE
  5
217
100
AcDbEntity
  8
0
100
AcDbLine
 62
7
  6
CONTINUOUS
 10
19.6596964832
 20
1.1717972817
 11
19.6950230232
 21
1.171593082
  0
LINE
  5
218
100
AcDbEntity
  8
0
100
AcDbLine
 62
7
  6
CONTINUOUS
 10
19.7194818561
 20
1.1708914427
 11
19.8852396156
 21
1.1699333054
  0
LINE
  5
219
100
AcDbEntity
  8
0
100
AcDbLine
 62
7
  6
CONTINUOUS
 10
19.4758111696
 20
1.2723454088
 11
19.88525039
 21
1.3511534004
  0
LINE
  5
21A
100
AcDbEntity
  8
0
100
AcDbLine
 62
7
  6
CONTINUOUS
 10
19.88525039
 20
1.3511534004
 11
19.8831348489
 21
0.9851647912
  0
LINE
  5
21B
100
AcDbEntity
  8
0
100
AcDbLine
 62
7
  6
CONTINUOUS
 10
19.8831348489
 20
0.9851647912
 11
19.4767170086
 21
1.0658141206
  0
LINE
  5
21C
100
AcDbEntity
  8
0
100
AcDbLine
 62
7
  6
CONTINUOUS
 10
19.4767170086
 20
1.0658141206
 11
19.4779056764
 21
1.2714536432
  0
CIRCLE
  5
21D
100
AcDbEntity
  8
0
100
AcDbCircle
 62
7
  6
CONTINUOUS
 10
20.2068232291
 20
1.1717972817
 40
0.175742101
  0
CIRCLE
  5
21E
100
AcDbEntity
  8
0
100
AcDbCircle
 62
7
  6
CONTINUOUS
 10
20.2068232291
 20
1.1717972817
 40
0.1005522074
  0
LINE
  5
21F
100
AcDbEntity
  8
0
100
AcDbLine
 62
7
  6
CONTINUOUS
 10
20.2077290681
 20
1.3756110529
 11
20.2071171714
 21
1.2379342989
  0
LINE
  5
220
100
AcDbEntity
  8
0
100
AcDbLine
 62
7
  6
CONTINUOUS
 10
20.2077290681
 20
1.2016899681
 11
20.2074674401
 21
1.1428236749
  0
LINE
  5
221
100
AcDbEntity
  8
0
100
AcDbLine
 62
7
  6
CONTINUOUS
 10
20.208634907
 20
1.101141841
 11
20.2080230104
 21
0.963465087
  0
LINE
  5
222
100
AcDbEntity
  8
0
100
AcDbLine
 62
7
  6
CONTINUOUS
 10
20.0066328138
 20
1.1745147986
 11
20.1443095678
 21
1.1739029019
  0
LINE
  5
223
100
AcDbEntity
  8
0
100
AcDbLine
 62
7
  6
CONTINUOUS
 10
20.1832714155
 20
1.1727031207
 11
20.238153505
 21
1.172335442
  0
LINE
  5
224
100
AcDbEntity
  8
0
100
AcDbLine
 62
7
  6
CONTINUOUS
 10
20.2756669918
 20
1.1717972817
 11
20.407916871
 21
1.1712095044
  0
CIRCLE
  5
225
100
AcDbEntity
  8
0
100
AcDbCircle
 62
7
  6
CONTINUOUS
 10
20.7509457401
 20
1.1693297793
 40
0.1722024983
  0
CIRCLE
  5
226
100
AcDbEntity
  8
0
100
AcDbCircle
 62
7
  6
CONTINUOUS
 10
20.7509457401
 20
1.1693297793
 40
0.0985164967
  0
LINE
  5
227
100
AcDbEntity
  8
0
100
AcDbLine
 62
7
  6
CONTINUOUS
 10
20.7169767782
 20
1.170462078
 11
20.7825395137
 21
1.1682766535
  0
LINE
  5
228
100
AcDbEntity
  8
0
100
AcDbLine
 62
7
  6
CONTINUOUS
 10
20.8177513651
 20
1.1693297793
 11
20.947965719
 21
1.1693297793
  0
LINE
  5
229
100
AcDbEntity
  8
0
100
AcDbLine
 62
7
  6
CONTINUOUS
 10
20.6875370113
 20
1.170462078
 11
20.5573226574
 21
1.170462078
  0
LINE
  5
22A
100
AcDbEntity
  8
0
100
AcDbLine
 62
7
  6
CONTINUOUS
 10
20.7486811426
 20
1.1987695462
 11
20.7486811426
 21
1.1432869085
  0
LINE
  5
22B
100
AcDbEntity
  8
0
100
AcDbLine
 62
7
  6
CONTINUOUS
 10
20.7498134414
 20
1.1059210505
 11
20.7498134414
 21
0.9757066966
  0
LINE
  5
22C
100
AcDbEntity
  8
0
100
AcDbLine
 62
7
  6
CONTINUOUS
 10
20.7486811426
 20
1.2338708068
 11
20.7486811426
 21
1.3640851607
  0
LINE
  5
22D
100
AcDbEntity
  8
0
100
AcDbLine
 62
7
  6
CONTINUOUS
 10
21.0702539817
 20
1.2701043662
 11
21.4790138229
 21
1.3448360823
  0
LINE
  5
22E
100
AcDbEntity
  8
0
100
AcDbLine
 62
7
  6
CONTINUOUS
 10
21.4790138229
 20
1.3448360823
 11
21.4790138229
 21
0.9779712941
  0
LINE
  5
22F
100
AcDbEntity
  8
0
100
AcDbLine
 62
7
  6
CONTINUOUS
 10
21.4790138229
 20
0.9779712941
 11
21.069121683
 21
1.0617614
  0
LINE
  5
230
100
AcDbEntity
  8
0
100
AcDbLine
 62
7
  6
CONTINUOUS
 10
21.0702539817
 20
1.2701043662
 11
21.069121683
 21
1.0617614
  0
LINE
  5
231
100
AcDbEntity
  8
0
100
AcDbLine
 62
7
  6
CONTINUOUS
 10
21.4790138229
 20
1.1693297793
 11
21.3159628059
 21
1.1693297793
  0
LINE
  5
232
100
AcDbEntity
  8
0
100
AcDbLine
 62
7
  6
CONTINUOUS
 10
21.2876553377
 20
1.1693297793
 11
21.2502894796
 21
1.1693297793
  0
LINE
  5
233
100
AcDbEntity
  8
0
100
AcDbLine
 62
7
  6
CONTINUOUS
 10
21.2208497126
 20
1.1659328831
 11
21.0713862804
 21
1.1659328831
  0
LINE
  5
234
100
AcDbEntity
  8
0
100
AcDbLine
 62
7
  6
CONTINUOUS
 10
20.4796138713
 20
1.5284908897
 11
20.4766766948
 21
0.9294458646
  0
ENDBLK
  5
235
100
AcDbEntity
  8
0
  6
BYBLOCK
 62
0
100
AcDbBlockEnd
  0
BLOCK
  5
236
100
AcDbEntity
  8
0
100
AcDbBlockBegin
  2
*T1
 70
1
 10
0.0
 20
0.0
  3
*T1
  1

  0
LINE
  5
237
100
AcDbEntity
  8
0
100
AcDbLine
 62
2
  6
CONTINUOUS
 10
9.275
 20
0.0
 11
-0.0
 21
0.0
  0
LINE
  5
238
100
AcDbEntity
  8
0
100
AcDbLine
 62
2
  6
CONTINUOUS
 10
9.275
 20
0.0
 11
9.275
 21
1.25
  0
LINE
  5
239
100
AcDbEntity
  8
0
100
AcDbLine
 62
2
  6
CONTINUOUS
 10
9.275
 20
0.625
 11
-0.0
 21
0.625
  0
LINE
  5
23A
100
AcDbEntity
  8
0
100
AcDbLine
 62
2
  6
CONTINUOUS
 10
9.275
 20
1.25
 11
-0.0
 21
1.25
  0
LINE
  5
23B
100
AcDbEntity
  8
0
100
AcDbLine
 62
2
  6
CONTINUOUS
 10
6.8
 20
0.0
 11
6.8
 21
1.25
  0
LINE
  5
23C
100
AcDbEntity
  8
0
100
AcDbLine
 62
2
  6
CONTINUOUS
 10
6.4
 20
0.0
 11
6.4
 21
0.625
  0
LINE
  5
23D
100
AcDbEntity
  8
0
100
AcDbLine
 62
2
  6
CONTINUOUS
 10
5.9
 20
0.0
 11
5.9
 21
0.625
  0
LINE
  5
23E
100
AcDbEntity
  8
0
100
AcDbLine
 62
2
  6
CONTINUOUS
 10
5.2
 20
0.0
 11
5.2
 21
0.625
  0
LINE
  5
23F
100
AcDbEntity
  8
0
100
AcDbLine
 62
2
  6
CONTINUOUS
 10
4.1
 20
0.0
 11
4.1
 21
1.25
  0
LINE
  5
240
100
AcDbEntity
  8
0
100
AcDbLine
 62
2
  6
CONTINUOUS
 10
-0.0
 20
0.0
 11
-0.0
 21
1.25
  0
MTEXT
  5
241
100
AcDbEntity
  8
0
100
AcDbMText
 62
2
  6
CONTINUOUS
  7
STANDARD
 71
2
 72
1
 10
6.6
 20
0.325
 30
0.0
 11
1.0
 21
0.0
 31
0.0
 44
0.9
  1
2
 40
0.125
 41
0.2
  0
MTEXT
  5
242
100
AcDbEntity
  8
0
100
AcDbMText
 62
2
  6
CONTINUOUS
  7
STANDARD
 71
2
 72
1
 10
6.15
 20
0.325
 30
0.0
 11
1.0
 21
0.0
 31
0.0
 44
0.9
  1
C
 40
0.125
 41
0.2
  0
MTEXT
  5
243
100
AcDbEntity
  8
0
100
AcDbMText
 62
2
  6
CONTINUOUS
  7
STANDARD
 71
2
 72
1
 10
5.55
 20
0.325
 30
0.0
 11
1.0
 21
0.0
 31
0.0
 44
0.9
  1
1.000
 40
0.125
 41
1.0
  0
MTEXT
  5
244
100
AcDbEntity
  8
0
100
AcDbMText
 62
2
  6
CONTINUOUS
  7
STANDARD
 71
2
 72
1
 10
4.65
 20
0.325
 30
0.0
 11
1.0
 21
0.0
 31
0.0
 44
0.9
  1
Jun-27-24
 40
0.125
 41
1.8
  0
MTEXT
  5
245
100
AcDbEntity
  8
0
100
AcDbMText
 62
2
  6
CONTINUOUS
  7
STANDARD
 71
2
 72
1
 10
2.05
 20
0.4625
 30
0.0
 11
1.0
 21
0.0
 31
0.0
 44
0.9
  1
Relief manifold assembly
 40
0.125
 41
4.8
  0
MTEXT
  5
246
100
AcDbEntity
  8
0
100
AcDbMText
 62
2
  6
CONTINUOUS
  7
STANDARD
 71
1
 72
1
 10
6.45
 20
0.5625
 30
0.0
 11
1.0
 21
0.0
 31
0.0
 44
0.9
  1
SHEET
 40
0.06
 41
0.48
  0
MTEXT
  5
247
100
AcDbEntity
  8
0
100
AcDbMText
 62
2
  6
CONTINUOUS
  7
STANDARD
 71
1
 72
1
 10
5.95
 20
0.5625
 30
0.0
 11
1.0
 21
0.0
 31
0.0
 44
0.9
  1
DWG SIZE
 40
0.06
 41
0.768
  0
MTEXT
  5
248
100
AcDbEntity
  8
0
100
AcDbMText
 62
2
  6
CONTINUOUS
  7
STANDARD
 71
1
 72
1
 10
5.25
 20
0.5625
 30
0.0
 11
1.0
 21
0.0
 31
0.0
 44
0.9
  1
SCALE
 40
0.06
 41
0.48
  0
MTEXT
  5
249
100
AcDbEntity
  8
0
100
AcDbMText
 62
2
  6
CONTINUOUS
  7
STANDARD
 71
1
 72
1
 10
4.15
 20
0.5625
 30
0.0
 11
1.0
 21
0.0
 31
0.0
 44
0.9
  1
DATE
 40
0.06
 41
0.384
  0
MTEXT
  5
24A
100
AcDbEntity
  8
0
100
AcDbMText
 62
2
  6
CONTINUOUS
  7
STANDARD
 71
1
 72
1
 10
0.05
 20
0.5625
 30
0.0
 11
1.0
 21
0.0
 31
0.0
 44
0.9
  1
DESCRIPTION
 40
0.06
 41
1.056
  0
MTEXT
  5
24B
100
AcDbEntity
  8
0
100
AcDbMText
 62
2
  6
CONTINUOUS
  7
STANDARD
 71
2
 72
1
 10
5.45
 20
1.0375
 30
0.0
 11
1.0
 21
0.0
 31
0.0
 44
0.9
  1
ALL DIMENSIONS IN INCH\PVIEWS ARE THIRD ANGLE
 40
0.12
 41
4.224
  0
MTEXT
  5
24C
100
AcDbEntity
  8
0
100
AcDbMText
 62
2
  6
CONTINUOUS
  7
STANDARD
 71
2
 72
1
 10
2.05
 20
0.95
 30
0.0
 11
1.0
 21
0.0
 31
0.0
 44
0.9
  1
RPICLWN-IAN/S
 40
0.125
 41
2.6
  0
MTEXT
  5
24D
100
AcDbEntity
  8
0
100
AcDbMText
 62
2
  6
CONTINUOUS
  7
STANDARD
 71
1
 72
1
 10
0.05
 20
1.1875
 30
0.0
 11
1.0
 21
0.0
 31
0.0
 44
0.9
  1
MODEL
 40
0.06
 41
0.48
  0
ENDBLK
  5
24E
100
AcDbEntity
  8
0
  6
BYBLOCK
 62
0
100
AcDbBlockEnd
  0
BLOCK
  5
24F
100
AcDbEntity
  8
0
100
AcDbBlockBegin
  2
*T2
 70
1
 10
0.0
 20
0.0
  3
*T2
  1

  0
LINE
  5
250
100
AcDbEntity
  8
0
100
AcDbLine
 62
2
  6
CONTINUOUS
 10
0.0
 20
0.0
 11
9.055
 21
0.0
  0
LINE
  5
251
100
AcDbEntity
  8
0
100
AcDbLine
 62
2
  6
CONTINUOUS
 10
0.0
 20
0.0
 11
0.0
 21
-2.594
  0
LINE
  5
252
100
AcDbEntity
  8
0
100
AcDbLine
 62
2
  6
CONTINUOUS
 10
0.0
 20
-0.344
 11
9.055
 21
-0.344
  0
LINE
  5
253
100
AcDbEntity
  8
0
100
AcDbLine
 62
2
  6
CONTINUOUS
 10
0.0
 20
-0.594
 11
9.055
 21
-0.594
  0
LINE
  5
254
100
AcDbEntity
  8
0
100
AcDbLine
 62
2
  6
CONTINUOUS
 10
0.0
 20
-0.844
 11
9.055
 21
-0.844
  0
LINE
  5
255
100
AcDbEntity
  8
0
100
AcDbLine
 62
2
  6
CONTINUOUS
 10
0.0
 20
-1.094
 11
9.055
 21
-1.094
  0
LINE
  5
256
100
AcDbEntity
  8
0
100
AcDbLine
 62
2
  6
CONTINUOUS
 10
0.0
 20
-1.344
 11
9.055
 21
-1.344
  0
LINE
  5
257
100
AcDbEntity
  8
0
100
AcDbLine
 62
2
  6
CONTINUOUS
 10
0.0
 20
-1.594
 11
9.055
 21
-1.594
  0
LINE
  5
258
100
AcDbEntity
  8
0
100
AcDbLine
 62
2
  6
CONTINUOUS
 10
0.0
 20
-1.844
 11
9.055
 21
-1.844
  0
LINE
  5
259
100
AcDbEntity
  8
0
100
AcDbLine
 62
2
  6
CONTINUOUS
 10
0.0
 20
-2.094
 11
9.055
 21
-2.094
  0
LINE
  5
25A
100
AcDbEntity
  8
0
100
AcDbLine
 62
2
  6
CONTINUOUS
 10
0.0
 20
-2.344
 11
9.055
 21
-2.344
  0
LINE
  5
25B
100
AcDbEntity
  8
0
100
AcDbLine
 62
2
  6
CONTINUOUS
 10
0.0
 20
-2.594
 11
9.055
 21
-2.594
  0
LINE
  5
25C
100
AcDbEntity
  8
0
100
AcDbLine
 62
2
  6
CONTINUOUS
 10
3.055
 20
0.0
 11
3.055
 21
-2.594
  0
LINE
  5
25D
100
AcDbEntity
  8
0
100
AcDbLine
 62
2
  6
CONTINUOUS
 10
9.055
 20
0.0
 11
9.055
 21
-2.594
  0
MTEXT
  5
25E
100
AcDbEntity
  8
0
100
AcDbMText
 62
2
  6
CONTINUOUS
  7
STANDARD
 71
2
 72
1
 10
1.5275
 20
-0.0995
 30
0.0
 11
1.0
 21
0.0
 31
0.0
 44
0.9
  1
Technical Data
 40
0.145
 41
3.248
  0
MTEXT
  5
25F
100
AcDbEntity
  8
0
100
AcDbMText
 62
2
  6
CONTINUOUS
  7
STANDARD
 71
2
 72
1
 10
4.555
 20
-0.0995
 30
0.0
 11
1.0
 21
0.0
 31
0.0
 44
0.9
  1
U.S. Units
 40
0.145
 41
2.32
  0
MTEXT
  5
260
100
AcDbEntity
  8
0
100
AcDbMText
 62
2
  6
CONTINUOUS
  7
STANDARD
 71
2
 72
1
 10
7.555
 20
-0.0995
 30
0.0
 11
1.0
 21
0.0
 31
0.0
 44
0.9
  1
Metric Units
 40
0.145
 41
2.784
  0
MTEXT
  5
261
100
AcDbEntity
  8
0
100
AcDbMText
 62
2
  6
CONTINUOUS
  7
STANDARD
 71
2
 72
1
 10
1.5275
 20
-0.4065
 30
0.0
 11
1.0
 21
0.0
 31
0.0
 44
0.9
  1
Cavity
 40
0.125
 41
1.2
  0
MTEXT
  5
262
100
AcDbEntity
  8
0
100
AcDbMText
 62
2
  6
CONTINUOUS
  7
STANDARD
 71
2
 72
1
 10
6.055
 20
-0.4065
 30
0.0
 11
1.0
 21
0.0
 31
0.0
 44
0.9
  1
T-16A
 40
0.125
 41
1.0
  0
MTEXT
  5
263
100
AcDbEntity
  8
0
100
AcDbMText
 62
2
  6
CONTINUOUS
  7
STANDARD
 71
2
 72
1
 10
1.5275
 20
-0.6565
 30
0.0
 11
1.0
 21
0.0
 31
0.0
 44
0.9
  1
Body Features
 40
0.125
 41
2.6
  0
MTEXT
  5
264
100
AcDbEntity
  8
0
100
AcDbMText
 62
2
  6
CONTINUOUS
  7
STANDARD
 71
2
 72
1
 10
6.055
 20
-0.6565
 30
0.0
 11
1.0
 21
0.0
 31
0.0
 44
0.9
  1
Ninety degree with gauge port
 40
0.125
 41
5.8
  0
MTEXT
  5
265
100
AcDbEntity
  8
0
100
AcDbMText
 62
2
  6
CONTINUOUS
  7
STANDARD
 71
2
 72
1
 10
1.5275
 20
-0.9065
 30
0.0
 11
1.0
 21
0.0
 31
0.0
 44
0.9
  1
Body Type
 40
0.125
 41
1.8
  0
MTEXT
  5
266
100
AcDbEntity
  8
0
100
AcDbMText
 62
2
  6
CONTINUOUS
  7
STANDARD
 71
2
 72
1
 10
6.055
 20
-0.9065
 30
0.0
 11
1.0
 21
0.0
 31
0.0
 44
0.9
  1
Line mount
 40
0.125
 41
2.0
  0
MTEXT
  5
267
100
AcDbEntity
  8
0
100
AcDbMText
 62
2
  6
CONTINUOUS
  7
STANDARD
 71
2
 72
1
 10
1.5275
 20
-1.1565
 30
0.0
 11
1.0
 21
0.0
 31
0.0
 44
0.9
  1
Interface
 40
0.125
 41
1.8
  0
MTEXT
  5
268
100
AcDbEntity
  8
0
100
AcDbMText
 62
2
  6
CONTINUOUS
  7
STANDARD
 71
2
 72
1
 10
6.055
 20
-1.1565
 30
0.0
 11
1.0
 21
0.0
 31
0.0
 44
0.9
  1
None
 40
0.125
 41
0.8
  0
MTEXT
  5
269
100
AcDbEntity
  8
0
100
AcDbMText
 62
2
  6
CONTINUOUS
  7
STANDARD
 71
2
 72
1
 10
1.5275
 20
-1.4065
 30
0.0
 11
1.0
 21
0.0
 31
0.0
 44
0.9
  1
Open Cavity Quantity
 40
0.125
 41
4.0
  0
MTEXT
  5
26A
100
AcDbEntity
  8
0
100
AcDbMText
 62
2
  6
CONTINUOUS
  7
STANDARD
 71
2
 72
1
 10
6.055
 20
-1.4065
 30
0.0
 11
1.0
 21
0.0
 31
0.0
 44
0.9
  1
1
 40
0.125
 41
0.2
  0
MTEXT
  5
26B
100
AcDbEntity
  8
0
100
AcDbMText
 62
2
  6
CONTINUOUS
  7
STANDARD
 71
2
 72
1
 10
1.5275
 20
-1.6565
 30
0.0
 11
1.0
 21
0.0
 31
0.0
 44
0.9
  1
Weight
 40
0.125
 41
1.2
  0
MTEXT
  5
26C
100
AcDbEntity
  8
0
100
AcDbMText
 62
2
  6
CONTINUOUS
  7
STANDARD
 71
2
 72
1
 10
4.555
 20
-1.6565
 30
0.0
 11
1.0
 21
0.0
 31
0.0
 44
0.9
  1
5.784 lb.
 40
0.125
 41
1.8
  0
MTEXT
  5
26D
100
AcDbEntity
  8
0
100
AcDbMText
 62
2
  6
CONTINUOUS
  7
STANDARD
 71
2
 72
1
 10
7.555
 20
-1.6565
 30
0.0
 11
1.0
 21
0.0
 31
0.0
 44
0.9
  1
2,623 kg.
 40
0.125
 41
1.8
  0
MTEXT
  5
26E
100
AcDbEntity
  8
0
100
AcDbMText
 62
2
  6
CONTINUOUS
  7
STANDARD
 71
2
 72
1
 10
1.5275
 20
-1.9065
 30
0.0
 11
1.0
 21
0.0
 31
0.0
 44
0.9
  1
Mounting Hole Diameter
 40
0.125
 41
4.4
  0
MTEXT
  5
26F
100
AcDbEntity
  8
0
100
AcDbMText
 62
2
  6
CONTINUOUS
  7
STANDARD
 71
2
 72
1
 10
4.555
 20
-1.9065
 30
0.0
 11
1.0
 21
0.0
 31
0.0
 44
0.9
  1
.41 in.
 40
0.125
 41
1.4
  0
MTEXT
  5
270
100
AcDbEntity
  8
0
100
AcDbMText
 62
2
  6
CONTINUOUS
  7
STANDARD
 71
2
 72
1
 10
7.555
 20
-1.9065
 30
0.0
 11
1.0
 21
0.0
 31
0.0
 44
0.9
  1
10,4 mm
 40
0.125
 41
1.4
  0
MTEXT
  5
271
100
AcDbEntity
  8
0
100
AcDbMText
 62
2
  6
CONTINUOUS
  7
STANDARD
 71
2
 72
1
 10
1.5275
 20
-2.1565
 30
0.0
 11
1.0
 21
0.0
 31
0.0
 44
0.9
  1
Mounting Hole Depth
 40
0.125
 41
3.8
  0
MTEXT
  5
272
100
AcDbEntity
  8
0
100
AcDbMText
 62
2
  6
CONTINUOUS
  7
STANDARD
 71
2
 72
1
 10
6.055
 20
-2.1565
 30
0.0
 11
1.0
 21
0.0
 31
0.0
 44
0.9
  1
Through
 40
0.125
 41
1.4
  0
MTEXT
  5
273
100
AcDbEntity
  8
0
100
AcDbMText
 62
2
  6
CONTINUOUS
  7
STANDARD
 71
2
 72
1
 10
1.5275
 20
-2.4065
 30
0.0
 11
1.0
 21
0.0
 31
0.0
 44
0.9
  1
Mounting Hole Quantity
 40
0.125
 41
4.4
  0
MTEXT
  5
274
100
AcDbEntity
  8
0
100
AcDbMText
 62
2
  6
CONTINUOUS
  7
STANDARD
 71
2
 72
1
 10
6.055
 20
-2.4065
 30
0.0
 11
1.0
 21
0.0
 31
0.0
 44
0.9
  1
1
 40
0.125
 41
0.2
  0
ENDBLK
  5
275
100
AcDbEntity
  8
0
  6
BYBLOCK
 62
0
100
AcDbBlockEnd
  0
BLOCK
  5
276
100
AcDbEntity
  8
0
100
AcDbBlockBegin
  2
*T3
 70
1
 10
0.0
 20
0.0
  3
*T3
  1

  0
LINE
  5
277
100
AcDbEntity
  8
0
100
AcDbLine
 62
2
  6
CONTINUOUS
 10
0.0
 20
0.0
 11
4.6
 21
0.0
  0
LINE
  5
278
100
AcDbEntity
  8
0
100
AcDbLine
 62
2
  6
CONTINUOUS
 10
0.0
 20
0.0
 11
0.0
 21
-1.18775
  0
LINE
  5
279
100
AcDbEntity
  8
0
100
AcDbLine
 62
2
  6
CONTINUOUS
 10
0.0
 20
-0.34375
 11
4.6
 21
-0.34375
  0
LINE
  5
27A
100
AcDbEntity
  8
0
100
AcDbLine
 62
2
  6
CONTINUOUS
 10
0.0
 20
-0.68775
 11
4.6
 21
-0.68775
  0
LINE
  5
27B
100
AcDbEntity
  8
0
100
AcDbLine
 62
2
  6
CONTINUOUS
 10
0.0
 20
-0.93775
 11
4.6
 21
-0.93775
  0
LINE
  5
27C
100
AcDbEntity
  8
0
100
AcDbLine
 62
2
  6
CONTINUOUS
 10
0.0
 20
-1.18775
 11
4.6
 21
-1.18775
  0
LINE
  5
27D
100
AcDbEntity
  8
0
100
AcDbLine
 62
2
  6
CONTINUOUS
 10
1.3
 20
-0.34375
 11
1.3
 21
-1.18775
  0
LINE
  5
27E
100
AcDbEntity
  8
0
100
AcDbLine
 62
2
  6
CONTINUOUS
 10
3.3
 20
-0.34375
 11
3.3
 21
-1.18775
  0
LINE
  5
27F
100
AcDbEntity
  8
0
100
AcDbLine
 62
2
  6
CONTINUOUS
 10
4.6
 20
0.0
 11
4.6
 21
-1.18775
  0
MTEXT
  5
280
100
AcDbEntity
  8
0
100
AcDbMText
 62
2
  6
CONTINUOUS
  7
STANDARD
 71
2
 72
1
 10
2.3
 20
-0.099375
 30
0.0
 11
1.0
 21
0.0
 31
0.0
 44
0.9
  1
Port Headings
 40
0.145
 41
3.016
  0
MTEXT
  5
281
100
AcDbEntity
  8
0
100
AcDbMText
 62
2
  6
CONTINUOUS
  7
STANDARD
 71
2
 72
1
 10
0.65
 20
-0.44325
 30
0.0
 11
1.0
 21
0.0
 31
0.0
 44
0.9
  1
Product
 40
0.145
 41
1.624
  0
MTEXT
  5
282
100
AcDbEntity
  8
0
100
AcDbMText
 62
2
  6
CONTINUOUS
  7
STANDARD
 71
2
 72
1
 10
2.3
 20
-0.44325
 30
0.0
 11
1.0
 21
0.0
 31
0.0
 44
0.9
  1
Port
 40
0.145
 41
0.928
  0
MTEXT
  5
283
100
AcDbEntity
  8
0
100
AcDbMText
 62
2
  6
CONTINUOUS
  7
STANDARD
 71
2
 72
1
 10
3.95
 20
-0.44325
 30
0.0
 11
1.0
 21
0.0
 31
0.0
 44
0.9
  1
Size
 40
0.145
 41
0.928
  0
MTEXT
  5
284
100
AcDbEntity
  8
0
100
AcDbMText
 62
2
  6
CONTINUOUS
  7
STANDARD
 71
2
 72
1
 10
0.65
 20
-0.75025
 30
0.0
 11
1.0
 21
0.0
 31
0.0
 44
0.9
  1
IAN/S
 40
0.125
 41
1.0
  0
MTEXT
  5
285
100
AcDbEntity
  8
0
100
AcDbMText
 62
2
  6
CONTINUOUS
  7
STANDARD
 71
2
 72
1
 10
2.3
 20
-0.75025
 30
0.0
 11
1.0
 21
0.0
 31
0.0
 44
0.9
  1
Ports 1 &  2
 40
0.125
 41
2.4
  0
MTEXT
  5
286
100
AcDbEntity
  8
0
100
AcDbMText
 62
2
  6
CONTINUOUS
  7
STANDARD
 71
2
 72
1
 10
3.95
 20
-0.75025
 30
0.0
 11
1.0
 21
0.0
 31
0.0
 44
0.9
  1
SAE 20
 40
0.125
 41
1.2
  0
MTEXT
  5
287
100
AcDbEntity
  8
0
100
AcDbMText
 62
2
  6
CONTINUOUS
  7
STANDARD
 71
2
 72
1
 10
0.65
 20
-1.00025
 30
0.0
 11
1.0
 21
0.0
 31
0.0
 44
0.9
  1
IAN/S
 40
0.125
 41
1.0
  0
MTEXT
  5
288
100
AcDbEntity
  8
0
100
AcDbMText
 62
2
  6
CONTINUOUS
  7
STANDARD
 71
2
 72
1
 10
2.3
 20
-1.00025
 30
0.0
 11
1.0
 21
0.0
 31
0.0
 44
0.9
  1
Gage Port
 40
0.125
 41
1.8
  0
MTEXT
  5
289
100
AcDbEntity
  8
0
100
AcDbMText
 62
2
  6
CONTINUOUS
  7
STANDARD
 71
2
 72
1
 10
3.95
 20
-1.00025
 30
0.0
 11
1.0
 21
0.0
 31
0.0
 44
0.9
  1
1/4" NPTF
 40
0.125
 41
1.8
  0
ENDBLK
  5
28A
100
AcDbEntity
  8
0
  6
BYBLOCK
 62
0
100
AcDbBlockEnd
  0
ENDSEC
  0
SECTION
  2
ENTITIES
  0
IMAGE
  5
28B
100
AcDbEntity
  8
0
100
AcDbRasterImage
 62
7
  6
CONTINUOUS
 10
19.2297077316
 20
0.3094318264
 30
0.0
 11
0.0066666667
 21
0.0
 31
0.0
 12
0.0
 22
0.0066666667
 32
0.0
 13
369.0
 23
92.0
340
       3DB
 70
9
280
0
281
50
282
50
283
0
360
       3D5
 71
1
 91
2
 14
-0.5
 24
-0.5
 14
368.5
 24
91.5
  0
INSERT
  5
28C
100
AcDbEntity
  8
0
100
AcDbBlockReference
 62
2
  6
CONTINUOUS
  2
SUN_FIRST_THIRD_ANGLE_BL0
 10
20.4816717061
 20
1.2289683772
  0
ACAD_TABLE
  5
28D
100
AcDbEntity
  8
0
 62
2
  6
CONTINUOUS
100
AcDbBlockReference
  2
*T1
 10
12.42375
 20
0.30125
 30
0.0
100
AcDbTable
342
       3DD
343
20F
 11
1.0
 21
0.0
 31
0.0
 90
6
 91
4
 92
6
 93
20
 94
0
 95
0
 96
0
 70
1
 41
0.0
141
0.525
141
0.1
141
0.525
141
0.1
142
4.1
142
1.1
142
0.7
142
0.5
142
0.4
142
2.475
171
1
172
0
173
0
174
0
175
1
176
1
 91
33
178
0
145
0.0
301
CELL_VALUE
 90
4
  1
Relief manifold assembly
304
ACVALUE_END
170
2
140
0.125
171
1
172
0
173
0
174
0
175
1
176
1
 91
33
178
0
145
0.0
301
CELL_VALUE
 90
4
  1
Jun-27-24
304
ACVALUE_END
170
5
140
0.125
171
1
172
0
173
0
174
0
175
1
176
1
 91
33
178
0
145
0.0
301
CELL_VALUE
 90
4
  1
1.000
304
ACVALUE_END
170
5
140
0.125
171
1
172
0
173
0
174
0
175
1
176
1
 91
33
178
0
145
0.0
301
CELL_VALUE
 90
4
  1
C
304
ACVALUE_END
170
5
140
0.125
171
1
172
0
173
0
174
0
175
1
176
1
 91
33
178
0
145
0.0
301
CELL_VALUE
 90
4
  1
2
304
ACVALUE_END
170
5
140
0.125
171
1
172
0
173
0
174
0
175
1
176
1
 91
33
178
0
145
0.0
301
CELL_VALUE
 90
4
  1
 
304
ACVALUE_END
170
1
140
0.125
171
1
172
0
173
0
174
0
175
1
176
1
 91
33
178
0
145
0.0
301
CELL_VALUE
 90
4
  1
DESCRIPTION
304
ACVALUE_END
170
1
140
0.06
171
1
172
0
173
0
174
0
175
1
176
1
 91
33
178
0
145
0.0
301
CELL_VALUE
 90
4
  1
DATE
304
ACVALUE_END
170
1
140
0.06
171
1
172
0
173
0
174
0
175
1
176
1
 91
33
178
0
145
0.0
301
CELL_VALUE
 90
4
  1
SCALE
304
ACVALUE_END
170
1
140
0.06
171
1
172
0
173
0
174
0
175
1
176
1
 91
33
178
0
145
0.0
301
CELL_VALUE
 90
4
  1
DWG SIZE
304
ACVALUE_END
170
1
140
0.06
171
1
172
0
173
0
174
0
175
1
176
1
 91
33
178
0
145
0.0
301
CELL_VALUE
 90
4
  1
SHEET
304
ACVALUE_END
170
1
140
0.06
171
1
172
0
173
0
174
0
175
1
176
1
 91
33
178
0
145
0.0
301
CELL_VALUE
 90
4
  1
 
304
ACVALUE_END
170
1
140
0.125
171
1
172
0
173
0
174
0
175
1
176
1
 91
33
178
0
145
0.0
301
CELL_VALUE
 90
4
  1
RPICLWN-IAN/S
304
ACVALUE_END
170
5
140
0.125
171
1
172
0
173
0
174
0
175
4
176
1
 91
33
178
0
145
0.0
301
CELL_VALUE
 90
4
  1
ALL DIMENSIONS IN INCH\PVIEWS ARE THIRD ANGLE
304
ACVALUE_END
170
5
140
0.12
171
1
172
0
173
1
174
0
175
1
176
1
 91
1
178
0
145
0.0
170
1
171
1
172
0
173
1
174
0
175
1
176
1
 91
1
178
0
145
0.0
170
1
171
1
172
0
173
1
174
0
175
1
176
1
 91
1
178
0
145
0.0
170
5
171
1
172
0
173
0
174
0
175
1
176
1
 91
33
178
0
145
0.0
301
CELL_VALUE
 90
4
  1
 
304
ACVALUE_END
170
1
140
0.125
171
1
172
0
173
0
174
0
175
1
176
1
 91
33
178
0
145
0.0
301
CELL_VALUE
 90
4
  1
MODEL
304
ACVALUE_END
170
1
140
0.06
171
1
172
0
173
0
174
0
175
1
176
1
 91
33
178
0
145
0.0
301
CELL_VALUE
 90
4
  1
 
304
ACVALUE_END
170
1
140
0.125
171
1
172
0
173
0
174
0
175
1
176
1
 91
33
178
0
145
0.0
301
CELL_VALUE
 90
4
  1
 
304
ACVALUE_END
170
1
140
0.125
171
1
172
0
173
0
174
0
175
1
176
1
 91
33
178
0
145
0.0
301
CELL_VALUE
 90
4
  1
 
304
ACVALUE_END
170
1
140
0.125
171
1
172
0
173
0
174
0
175
1
176
1
 91
33
178
0
145
0.0
301
CELL_VALUE
 90
4
  1
 
304
ACVALUE_END
170
1
140
0.125
171
1
172
0
173
0
174
0
175
1
176
1
 91
33
178
0
145
0.0
301
CELL_VALUE
 90
4
  1
 
304
ACVALUE_END
170
1
140
0.125
  0
ACAD_TABLE
  5
28E
100
AcDbEntity
  8
0
 62
2
  6
CONTINUOUS
100
AcDbBlockReference
  2
*T2
 10
12.4237499994
 20
16.47875
 30
0.0
100
AcDbTable
342
       3DC
343
210
 11
1.0
 21
0.0
 31
0.0
 90
22
 91
10
 92
3
 93
16
 94
0
 95
0
 96
0
 41
0.028
141
0.344
141
0.25
141
0.25
141
0.25
141
0.25
141
0.25
141
0.25
141
0.25
141
0.25
141
0.25
142
3.055
142
3.0
142
3.0
171
1
172
0
173
0
174
0
175
1
176
1
 91
33
178
0
145
0.0
301
CELL_VALUE
 90
4
  1
Technical Data
304
ACVALUE_END
170
5
140
0.145
171
1
172
0
173
0
174
0
175
1
176
1
 91
33
178
0
145
0.0
301
CELL_VALUE
 90
4
  1
U.S. Units
304
ACVALUE_END
170
5
140
0.145
171
1
172
0
173
0
174
0
175
1
176
1
 91
33
178
0
145
0.0
301
CELL_VALUE
 90
4
  1
Metric Units
304
ACVALUE_END
170
5
140
0.145
171
1
172
0
173
0
174
0
175
1
176
1
 91
33
178
0
145
0.0
301
CELL_VALUE
 90
4
  1
Cavity
304
ACVALUE_END
170
5
140
0.125
171
1
172
0
173
0
174
0
175
2
176
1
 91
33
178
0
145
0.0
301
CELL_VALUE
 90
4
  1
T-16A
304
ACVALUE_END
170
5
140
0.125
171
1
172
0
173
1
174
0
175
1
176
1
 91
1
178
0
145
0.0
170
1
171
1
172
0
173
0
174
0
175
1
176
1
 91
33
178
0
145
0.0
301
CELL_VALUE
 90
4
  1
Body Features
304
ACVALUE_END
170
5
140
0.125
171
1
172
0
173
0
174
0
175
2
176
1
 91
33
178
0
145
0.0
301
CELL_VALUE
 90
4
  1
Ninety degree with gauge port
304
ACVALUE_END
170
5
140
0.125
171
1
172
0
173
1
174
0
175
1
176
1
 91
1
178
0
145
0.0
170
1
171
1
172
0
173
0
174
0
175
1
176
1
 91
33
178
0
145
0.0
301
CELL_VALUE
 90
4
  1
Body Type
304
ACVALUE_END
170
5
140
0.125
171
1
172
0
173
0
174
0
175
2
176
1
 91
33
178
0
145
0.0
301
CELL_VALUE
 90
4
  1
Line mount
304
ACVALUE_END
170
5
140
0.125
171
1
172
0
173
1
174
0
175
1
176
1
 91
1
178
0
145
0.0
170
1
171
1
172
0
173
0
174
0
175
1
176
1
 91
33
178
0
145
0.0
301
CELL_VALUE
 90
4
  1
Interface
304
ACVALUE_END
170
5
140
0.125
171
1
172
0
173
0
174
0
175
2
176
1
 91
33
178
0
145
0.0
301
CELL_VALUE
 90
4
  1
None
304
ACVALUE_END
170
5
140
0.125
171
1
172
0
173
1
174
0
175
1
176
1
 91
1
178
0
145
0.0
170
1
171
1
172
0
173
0
174
0
175
1
176
1
 91
33
178
0
145
0.0
301
CELL_VALUE
 90
4
  1
Open Cavity Quantity
304
ACVALUE_END
170
5
140
0.125
171
1
172
0
173
0
174
0
175
2
176
1
 91
33
178
0
145
0.0
301
CELL_VALUE
 90
4
  1
1
304
ACVALUE_END
170
5
140
0.125
171
1
172
0
173
1
174
0
175
1
176
1
 91
1
178
0
145
0.0
170
1
171
1
172
0
173
0
174
0
175
1
176
1
 91
33
178
0
145
0.0
301
CELL_VALUE
 90
4
  1
Weight
304
ACVALUE_END
170
5
140
0.125
171
1
172
0
173
0
174
0
175
1
176
1
 91
33
178
0
145
0.0
301
CELL_VALUE
 90
4
  1
5.784 lb.
304
ACVALUE_END
170
5
140
0.125
171
1
172
0
173
0
174
0
175
1
176
1
 91
33
178
0
145
0.0
301
CELL_VALUE
 90
4
  1
2,623 kg.
304
ACVALUE_END
170
5
140
0.125
171
1
172
0
173
0
174
0
175
1
176
1
 91
33
178
0
145
0.0
301
CELL_VALUE
 90
4
  1
Mounting Hole Diameter
304
ACVALUE_END
170
5
140
0.125
171
1
172
0
173
0
174
0
175
1
176
1
 91
33
178
0
145
0.0
301
CELL_VALUE
 90
4
  1
.41 in.
304
ACVALUE_END
170
5
140
0.125
171
1
172
0
173
0
174
0
175
1
176
1
 91
33
178
0
145
0.0
301
CELL_VALUE
 90
4
  1
10,4 mm
304
ACVALUE_END
170
5
140
0.125
171
1
172
0
173
0
174
0
175
1
176
1
 91
33
178
0
145
0.0
301
CELL_VALUE
 90
4
  1
Mounting Hole Depth
304
ACVALUE_END
170
5
140
0.125
171
1
172
0
173
0
174
0
175
2
176
1
 91
33
178
0
145
0.0
301
CELL_VALUE
 90
4
  1
Through
304
ACVALUE_END
170
5
140
0.125
171
1
172
0
173
1
174
0
175
1
176
1
 91
1
178
0
145
0.0
170
1
171
1
172
0
173
0
174
0
175
1
176
1
 91
33
178
0
145
0.0
301
CELL_VALUE
 90
4
  1
Mounting Hole Quantity
304
ACVALUE_END
170
5
140
0.125
171
1
172
0
173
0
174
0
175
2
176
1
 91
33
178
0
145
0.0
301
CELL_VALUE
 90
4
  1
1
304
ACVALUE_END
170
5
140
0.125
171
1
172
0
173
1
174
0
175
1
176
1
 91
1
178
0
145
0.0
170
1
  0
ACAD_TABLE
  5
28F
100
AcDbEntity
  8
0
 62
2
  6
CONTINUOUS
100
AcDbBlockReference
  2
*T3
 10
0.52125
 20
1.709
 30
0.0
100
AcDbTable
342
       3DC
343
211
 11
1.0
 21
0.0
 31
0.0
 90
22
 91
4
 92
3
 93
16
 94
0
 95
0
 96
0
 41
0.05
141
0.34375
141
0.344
141
0.25
141
0.25
142
1.3
142
2.0
142
1.3
171
1
172
0
173
0
174
0
175
3
176
1
 91
33
178
0
145
0.0
301
CELL_VALUE
 90
4
  1
Port Headings
304
ACVALUE_END
170
5
140
0.145
171
1
172
0
173
1
174
0
175
1
176
1
 91
1
178
0
145
0.0
170
1
171
1
172
0
173
1
174
0
175
1
176
1
 91
1
178
0
145
0.0
170
1
171
1
172
0
173
0
174
0
175
1
176
1
 91
33
178
0
145
0.0
301
CELL_VALUE
 90
4
  1
Product
304
ACVALUE_END
170
5
140
0.145
171
1
172
0
173
0
174
0
175
1
176
1
 91
33
178
0
145
0.0
301
CELL_VALUE
 90
4
  1
Port
304
ACVALUE_END
170
5
140
0.145
171
1
172
0
173
0
174
0
175
1
176
1
 91
33
178
0
145
0.0
301
CELL_VALUE
 90
4
  1
Size
304
ACVALUE_END
170
5
140
0.145
171
1
172
0
173
0
174
0
175
1
176
1
 91
33
178
0
145
0.0
301
CELL_VALUE
 90
4
  1
IAN/S
304
ACVALUE_END
170
5
140
0.125
171
1
172
0
173
0
174
0
175
1
176
1
 91
33
178
0
145
0.0
301
CELL_VALUE
 90
4
  1
Ports 1 &  2
304
ACVALUE_END
170
5
140
0.125
171
1
172
0
173
0
174
0
175
1
176
1
 91
33
178
0
145
0.0
301
CELL_VALUE
 90
4
  1
SAE 20
304
ACVALUE_END
170
5
140
0.125
171
1
172
0
173
0
174
0
175
1
176
1
 91
33
178
0
145
0.0
301
CELL_VALUE
 90
4
  1
IAN/S
304
ACVALUE_END
170
5
140
0.125
171
1
172
0
173
0
174
0
175
1
176
1
 91
33
178
0
145
0.0
301
CELL_VALUE
 90
4
  1
Gage Port
304
ACVALUE_END
170
5
140
0.125
171
1
172
0
173
0
174
0
175
1
176
1
 91
33
178
0
145
0.0
301
CELL_VALUE
 90
4
  1
1/4" NPTF
304
ACVALUE_END
170
5
140
0.125
  0
MTEXT
  5
290
100
AcDbEntity
  8
0
100
AcDbMText
 62
2
  6
CONTINUOUS
  7
STANDARD
 71
1
 72
1
 10
0.52125
 20
5.75995
 30
0.0
 11
1.0
 21
0.0
 31
0.0
 44
0.6
  3
Notes\P \P1. Important: Carefully consider\P   the maximum system pressure. The\P   pressure rating of the manifold is\P   dependent on the manifold material,\P   with the port type/size a secondary\P   consideration. Manifolds\P   constructed of alu
  3
minum are not\P   rated for pressures higher than\P   3000 psi (210 bar), regardless of\P   the port type/size specified.\P2. This drawing is for reference\P   only. It is generated by an\P   automated process and does not fall\P   under Sun's docume
  1
nt control\P   process.
 40
0.1
 41
3.04
  0
LINE
  5
291
100
AcDbEntity
  8
0
100
AcDbLine
 62
7
  6
CONTINUOUS
 10
0.30125
 20
0.30125
 11
0.30125
 21
16.69875
  0
LINE
  5
292
100
AcDbEntity
  8
0
100
AcDbLine
 62
7
  6
CONTINUOUS
 10
0.30125
 20
0.30125
 11
21.69875
 21
0.30125
  0
LINE
  5
293
100
AcDbEntity
  8
0
100
AcDbLine
 62
7
  6
CONTINUOUS
 10
0.30125
 20
16.69875
 11
21.69875
 21
16.69875
  0
LINE
  5
294
100
AcDbEntity
  8
0
100
AcDbLine
 62
7
  6
CONTINUOUS
 10
21.69875
 20
0.30125
 11
21.69875
 21
16.69875
  0
LINE
  5
295
100
AcDbEntity
  8
0
100
AcDbLine
 62
7
  6
CONTINUOUS
 10
9.2599399893
 20
5.4239747782
 11
10.881426706
 21
5.3115242924
  0
LINE
  5
296
100
AcDbEntity
  8
0
100
AcDbLine
 62
7
  6
CONTINUOUS
 10
11.2606753357
 20
5.2852233106
 11
12.1577176398
 21
5.2230132156
  0
LINE
  5
297
100
AcDbEntity
  8
0
100
AcDbLine
 62
7
  6
CONTINUOUS
 10
11.2606753357
 20
5.3161329397
 11
10.881426706
 21
5.3424339215
  0
LINE
  5
298
100
AcDbEntity
  8
0
100
AcDbLine
 62
7
  6
CONTINUOUS
 10
11.2148169405
 20
11.7480116796
 11
11.1849505141
 21
11.7202178345
  0
LINE
  5
299
100
AcDbEntity
  8
0
100
AcDbLine
 62
4
  6
CONTINUOUS
 10
11.9978569101
 20
6.315936589
 11
11.9833680221
 21
6.3169413968
  0
LINE
  5
29A
100
AcDbEntity
  8
0
100
AcDbLine
 62
4
  6
CONTINUOUS
 10
11.9906124661
 20
6.3743945446
 11
12.0195902419
 21
6.372384929
  0
LINE
  5
29B
100
AcDbEntity
  8
0
100
AcDbLine
 62
4
  6
CONTINUOUS
 10
11.9833680221
 20
6.4328525002
 11
11.9978569101
 21
6.4318476924
  0
LINE
  5
29C
100
AcDbEntity
  8
0
100
AcDbLine
 62
7
  6
CONTINUOUS
 10
9.2599399893
 20
5.4239747782
 11
9.2599399893
 21
7.7699059076
  0
LINE
  5
29D
100
AcDbEntity
  8
0
100
AcDbLine
 62
7
  6
CONTINUOUS
 10
9.2599399893
 20
8.1491545373
 11
9.2599399893
 21
9.2876783123
  0
LINE
  5
29E
100
AcDbEntity
  8
0
100
AcDbLine
 62
7
  6
CONTINUOUS
 10
9.2908496183
 20
8.1470109472
 11
9.2908496183
 21
7.7677623175
  0
LINE
  5
29F
100
AcDbEntity
  8
0
100
AcDbLine
 62
7
  6
CONTINUOUS
 10
9.8422823602
 20
9.8501778814
 11
9.2599399893
 21
9.2876783123
  0
LINE
  5
2A0
100
AcDbEntity
  8
0
100
AcDbLine
 62
7
  6
CONTINUOUS
 10
10.7899424055
 20
10.9343754147
 11
10.7884622315
 21
10.9329722608
  0
LINE
  5
2A1
100
AcDbEntity
  8
0
100
AcDbLine
 62
7
  6
CONTINUOUS
 10
10.849676596
 20
10.9899643597
 11
10.8483496363
 21
10.9887064599
  0
LINE
  5
2A2
100
AcDbEntity
  8
0
100
AcDbLine
 62
7
  6
CONTINUOUS
 10
10.789942939
 20
10.9343759113
 11
10.8496757918
 21
10.9899636014
  0
LINE
  5
2A3
100
AcDbEntity
  8
0
100
AcDbLine
 62
7
  6
CONTINUOUS
 10
11.0914061054
 20
11.1724182957
 11
11.0956438724
 21
11.1763619827
  0
LINE
  5
2A4
100
AcDbEntity
  8
0
100
AcDbLine
 62
7
  6
CONTINUOUS
 10
11.6022691773
 20
10.9504609649
 11
11.6174097706
 21
10.9579401281
  0
LINE
  5
2A5
100
AcDbEntity
  8
0
100
AcDbLine
 62
7
  6
CONTINUOUS
 10
11.618013697
 20
11.1650301118
 11
11.6233125791
 21
11.1699612779
  0
LINE
  5
2A6
100
AcDbEntity
  8
0
100
AcDbLine
 62
4
  6
CONTINUOUS
 10
10.9999864408
 20
6.9482739411
 11
10.9585896103
 21
6.951144821
  0
LINE
  5
2A7
100
AcDbEntity
  8
0
100
AcDbLine
 62
4
  6
CONTINUOUS
 10
10.9089134468
 20
6.9545898746
 11
10.8840753374
 21
6.9563124034
  0
LINE
  5
2A8
100
AcDbEntity
  8
0
100
AcDbLine
 62
4
  6
CONTINUOUS
 10
10.8206002304
 20
6.960714417
 11
10.7874827881
 21
6.9630111194
  0
LINE
  5
2A9
100
AcDbEntity
  8
0
100
AcDbLine
 62
4
  6
CONTINUOUS
 10
10.3348775057
 20
6.9943994024
 11
10.2934806889
 21
6.9972702814
  0
LINE
  5
2AA
100
AcDbEntity
  8
0
100
AcDbLine
 62
4
  6
CONTINUOUS
 10
10.5970573841
 20
6.976217166
 11
10.6467335752
 21
6.9727721105
  0
LINE
  5
2AB
100
AcDbEntity
  8
0
100
AcDbLine
 62
4
  6
CONTINUOUS
 10
11.0634616031
 20
6.9438719236
 11
11.1131377666
 21
6.94042687
  0
LINE
  5
2AC
100
AcDbEntity
  8
0
100
AcDbLine
 62
4
  6
CONTINUOUS
 10
10.4093917854
 20
7.0223492791
 11
10.4535483936
 21
7.0192870079
  0
LINE
  5
2AD
100
AcDbEntity
  8
0
100
AcDbLine
 62
4
  6
CONTINUOUS
 10
11.0965790455
 20
7.0078101404
 11
11.0634616031
 21
7.0101068428
  0
LINE
  5
2AE
100
AcDbEntity
  8
0
100
AcDbLine
 62
4
  6
CONTINUOUS
 10
10.6301748541
 20
7.0401553809
 11
10.5970573841
 21
7.0424520853
  0
LINE
  5
2AF
100
AcDbEntity
  8
0
100
AcDbLine
 62
4
  6
CONTINUOUS
 10
10.2272457697
 20
7.0515398763
 11
10.2714023814
 21
7.026399299
  0
LINE
  5
2B0
100
AcDbEntity
  8
0
100
AcDbLine
 62
4
  6
CONTINUOUS
 10
9.5593770119
 20
8.0305270383
 11
9.5593770119
 21
8.0112085257
  0
LINE
  5
2B1
100
AcDbEntity
  8
0
100
AcDbLine
 62
4
  6
CONTINUOUS
 10
9.5086659041
 20
7.9664290575
 11
9.5014214602
 21
7.9379536856
  0
LINE
  5
2B2
100
AcDbEntity
  8
0
100
AcDbLine
 62
4
  6
CONTINUOUS
 10
10.2934806889
 20
7.1131813848
 11
10.3348775057
 21
7.1103105058
  0
LINE
  5
2B3
100
AcDbEntity
  8
0
100
AcDbLine
 62
4
  6
CONTINUOUS
 10
10.4977050018
 20
7.0990183806
 11
10.5639399141
 21
7.0944249738
  0
LINE
  5
2B4
100
AcDbEntity
  8
0
100
AcDbLine
 62
4
  6
CONTINUOUS
 10
10.5970573841
 20
7.0921282695
 11
10.6467335752
 21
7.0886832139
  0
LINE
  5
2B5
100
AcDbEntity
  8
0
100
AcDbLine
 62
4
  6
CONTINUOUS
 10
10.7874827881
 20
7.0789222229
 11
10.8206002304
 21
7.0766255204
  0
LINE
  5
2B6
100
AcDbEntity
  8
0
100
AcDbLine
 62
4
  6
CONTINUOUS
 10
10.8840753374
 20
7.0722235068
 11
10.9089134468
 21
7.0705009781
  0
LINE
  5
2B7
100
AcDbEntity
  8
0
100
AcDbLine
 62
4
  6
CONTINUOUS
 10
10.9585896103
 20
7.0670559244
 11
10.9999864408
 21
7.0641850445
  0
LINE
  5
2B8
100
AcDbEntity
  8
0
100
AcDbLine
 62
4
  6
CONTINUOUS
 10
11.0634616031
 20
7.059783027
 11
11.1131377666
 21
7.0563379734
  0
LINE
  5
2B9
100
AcDbEntity
  8
0
100
AcDbLine
 62
4
  6
CONTINUOUS
 10
10.8537176925
 20
7.2134221408
 11
10.8868351348
 21
7.2111254383
  0
LINE
  5
2BA
100
AcDbEntity
  8
0
100
AcDbLine
 62
4
  6
CONTINUOUS
 10
10.5777388705
 20
7.2656787967
 11
10.6218954856
 21
7.262616525
  0
LINE
  5
2BB
100
AcDbEntity
  8
0
100
AcDbLine
 62
4
  6
CONTINUOUS
 10
11.1462552089
 20
7.0098846628
 11
11.1904118171
 21
6.984744084
  0
LINE
  5
2BC
100
AcDbEntity
  8
0
100
AcDbLine
 62
4
  6
CONTINUOUS
 10
9.53764368
 20
8.0513527695
 11
9.5521325679
 21
8.0406887054
  0
LINE
  5
2BD
100
AcDbEntity
  8
0
100
AcDbLine
 62
4
  6
CONTINUOUS
 10
10.3348775057
 20
7.1103105058
 11
10.3514362337
 21
7.092603426
  0
LINE
  5
2BE
100
AcDbEntity
  8
0
100
AcDbLine
 62
4
  6
CONTINUOUS
 10
10.7874827881
 20
6.9630111194
 11
10.7709240669
 21
6.9807182004
  0
LINE
  5
2BF
100
AcDbEntity
  8
0
100
AcDbLine
 62
4
  6
CONTINUOUS
 10
9.5521325679
 20
8.0406887054
 11
9.5593770119
 21
8.0305270383
  0
LINE
  5
2C0
100
AcDbEntity
  8
0
100
AcDbLine
 62
7
  6
CONTINUOUS
 10
10.6717549964
 20
9.6538362356
 11
10.6718743734
 21
9.6538952056
  0
LINE
  5
2C1
100
AcDbEntity
  8
0
100
AcDbLine
 62
4
  6
CONTINUOUS
 10
10.8619970531
 20
7.3287590686
 11
10.895114523
 21
7.3264623642
  0
LINE
  5
2C2
100
AcDbEntity
  8
0
100
AcDbLine
 62
4
  6
CONTINUOUS
 10
10.6701917801
 20
7.5043363542
 11
10.6315547456
 21
7.5070158417
  0
LINE
  5
2C3
100
AcDbEntity
  8
0
100
AcDbLine
 62
4
  6
CONTINUOUS
 10
11.3270213662
 20
7.5167406195
 11
11.2690658145
 21
7.5207598506
  0
LINE
  5
2C4
100
AcDbEntity
  8
0
100
AcDbLine
 62
4
  6
CONTINUOUS
 10
10.9599695387
 20
7.5421957502
 11
10.9020139869
 21
7.5462149813
  0
LINE
  5
2C5
100
AcDbEntity
  8
0
100
AcDbLine
 62
4
  6
CONTINUOUS
 10
10.7667843663
 20
7.5555931874
 11
10.7088288146
 21
7.5596124185
  0
LINE
  5
2C6
100
AcDbEntity
  8
0
100
AcDbLine
 62
4
  6
CONTINUOUS
 10
10.6701917801
 20
7.562291906
 11
10.6122362284
 21
7.5663111371
  0
LINE
  5
2C7
100
AcDbEntity
  8
0
100
AcDbLine
 62
4
  6
CONTINUOUS
 10
10.3041058773
 20
7.5876800495
 11
10.2461503256
 21
7.5916992807
  0
LINE
  5
2C8
100
AcDbEntity
  8
0
100
AcDbLine
 62
4
  6
CONTINUOUS
 10
10.2171725498
 20
7.5937088963
 11
10.1592169981
 21
7.5977281275
  0
LINE
  5
2C9
100
AcDbEntity
  8
0
100
AcDbLine
 62
4
  6
CONTINUOUS
 10
10.9986065731
 20
7.5395162627
 11
11.0565621249
 21
7.5354970315
  0
LINE
  5
2CA
100
AcDbEntity
  8
0
100
AcDbLine
 62
4
  6
CONTINUOUS
 10
11.1724732283
 20
7.5274585692
 11
11.23042878
 21
7.5234393381
  0
LINE
  5
2CB
100
AcDbEntity
  8
0
100
AcDbLine
 62
4
  6
CONTINUOUS
 10
11.9833680221
 20
6.3169413968
 11
11.9688791342
 21
6.3276054635
  0
LINE
  5
2CC
100
AcDbEntity
  8
0
100
AcDbLine
 62
4
  6
CONTINUOUS
 10
11.9978569101
 20
6.4318476924
 11
12.012345798
 21
6.4211836283
  0
LINE
  5
2CD
100
AcDbEntity
  8
0
100
AcDbLine
 62
4
  6
CONTINUOUS
 10
10.9033938836
 20
7.2430945448
 11
10.8454383319
 21
7.2967899636
  0
LINE
  5
2CE
100
AcDbEntity
  8
0
100
AcDbLine
 62
4
  6
CONTINUOUS
 10
10.8840753374
 20
6.9563124034
 11
10.8675166162
 21
6.9740194844
  0
LINE
  5
2CF
100
AcDbEntity
  8
0
100
AcDbLine
 62
4
  6
CONTINUOUS
 10
10.9089134468
 20
7.0705009781
 11
10.925472168
 21
7.0527938988
  0
LINE
  5
2D0
100
AcDbEntity
  8
0
100
AcDbLine
 62
4
  6
CONTINUOUS
 10
10.8454383319
 20
7.2222756813
 11
10.8537176925
 21
7.2134221408
  0
LINE
  5
2D1
100
AcDbEntity
  8
0
100
AcDbLine
 62
4
  6
CONTINUOUS
 10
10.9999864408
 20
7.0641850445
 11
11.016545162
 21
7.0464779652
  0
LINE
  5
2D2
100
AcDbEntity
  8
0
100
AcDbLine
 62
4
  6
CONTINUOUS
 10
10.1592169981
 20
7.7136392309
 11
10.1592169981
 21
7.6556836792
  0
LINE
  5
2D3
100
AcDbEntity
  8
0
100
AcDbLine
 62
4
  6
CONTINUOUS
 10
10.2171725498
 20
7.651664448
 11
10.2171725498
 21
7.5937088963
  0
LINE
  5
2D4
100
AcDbEntity
  8
0
100
AcDbLine
 62
4
  6
CONTINUOUS
 10
10.2461503256
 20
7.5916992807
 11
10.2461503256
 21
7.7076103841
  0
LINE
  5
2D5
100
AcDbEntity
  8
0
100
AcDbLine
 62
4
  6
CONTINUOUS
 10
9.5014214602
 20
8.0345462695
 11
9.5086659041
 21
8.0437031288
  0
LINE
  5
2D6
100
AcDbEntity
  8
0
100
AcDbLine
 62
4
  6
CONTINUOUS
 10
9.523154792
 20
7.9847427658
 11
9.5086659041
 21
7.9664290575
  0
LINE
  5
2D7
100
AcDbEntity
  8
0
100
AcDbLine
 62
4
  6
CONTINUOUS
 10
9.5593770119
 20
8.0112085257
 11
9.5521325679
 21
8.0020516664
  0
LINE
  5
2D8
100
AcDbEntity
  8
0
100
AcDbLine
 62
4
  6
CONTINUOUS
 10
11.2690658145
 20
7.5497376265
 11
11.3270213662
 21
7.5457183953
  0
LINE
  5
2D9
100
AcDbEntity
  8
0
100
AcDbLine
 62
4
  6
CONTINUOUS
 10
10.9020139869
 20
7.5848520158
 11
10.9599695387
 21
7.5808327846
  0
LINE
  5
2DA
100
AcDbEntity
  8
0
100
AcDbLine
 62
4
  6
CONTINUOUS
 10
10.9599695387
 20
7.6001513019
 11
10.9213325042
 21
7.6028307893
  0
LINE
  5
2DB
100
AcDbEntity
  8
0
100
AcDbLine
 62
4
  6
CONTINUOUS
 10
10.5649058601
 20
7.627549061
 11
10.5069503084
 21
7.6315682922
  0
LINE
  5
2DC
100
AcDbEntity
  8
0
100
AcDbLine
 62
4
  6
CONTINUOUS
 10
10.1592169981
 20
7.6556836792
 11
10.2171725498
 21
7.651664448
  0
LINE
  5
2DD
100
AcDbEntity
  8
0
100
AcDbLine
 62
4
  6
CONTINUOUS
 10
10.7088288146
 20
7.6175679702
 11
10.7667843663
 21
7.6135487391
  0
LINE
  5
2DE
100
AcDbEntity
  8
0
100
AcDbLine
 62
4
  6
CONTINUOUS
 10
10.8054214008
 20
7.6108692516
 11
10.8633769525
 21
7.6068500205
  0
LINE
  5
2DF
100
AcDbEntity
  8
0
100
AcDbLine
 62
4
  6
CONTINUOUS
 10
11.1724732283
 20
7.5854141209
 11
11.23042878
 21
7.5813948898
  0
LINE
  5
2E0
100
AcDbEntity
  8
0
100
AcDbLine
 62
4
  6
CONTINUOUS
 10
11.2690658145
 20
7.5787154023
 11
11.3270213662
 21
7.5746961712
  0
LINE
  5
2E1
100
AcDbEntity
  8
0
100
AcDbLine
 62
4
  6
CONTINUOUS
 10
11.1265917498
 20
7.6175737881
 11
11.1410806378
 21
7.6165689803
  0
LINE
  5
2E2
100
AcDbEntity
  8
0
100
AcDbLine
 62
7
  6
CONTINUOUS
 10
9.2599399893
 20
7.7699059076
 11
9.2908496183
 21
7.7677623175
  0
LINE
  5
2E3
100
AcDbEntity
  8
0
100
AcDbLine
 62
4
  6
CONTINUOUS
 10
10.2171725498
 20
7.7096199997
 11
10.1592169981
 21
7.7136392309
  0
LINE
  5
2E4
100
AcDbEntity
  8
0
100
AcDbLine
 62
4
  6
CONTINUOUS
 10
10.3330836532
 20
7.7015815374
 11
10.3910392049
 21
7.6975623062
  0
LINE
  5
2E5
100
AcDbEntity
  8
0
100
AcDbLine
 62
4
  6
CONTINUOUS
 10
10.895114523
 20
7.3264623642
 11
10.9033938836
 21
7.3176088211
  0
LINE
  5
2E6
100
AcDbEntity
  8
0
100
AcDbLine
 62
4
  6
CONTINUOUS
 10
10.6660520938
 20
7.3423478977
 11
10.7240076455
 21
7.2224175631
  0
LINE
  5
2E7
100
AcDbEntity
  8
0
100
AcDbLine
 62
4
  6
CONTINUOUS
 10
10.4314700895
 20
7.1036117874
 11
10.4645875595
 21
6.9854039796
  0
LINE
  5
2E8
100
AcDbEntity
  8
0
100
AcDbLine
 62
4
  6
CONTINUOUS
 10
10.2934806889
 20
6.9972702814
 11
10.2934806889
 21
7.1131813848
  0
LINE
  5
2E9
100
AcDbEntity
  8
0
100
AcDbLine
 62
4
  6
CONTINUOUS
 10
10.3041058773
 20
7.703591153
 11
10.3041058773
 21
7.5876800495
  0
LINE
  5
2EA
100
AcDbEntity
  8
0
100
AcDbLine
 62
4
  6
CONTINUOUS
 10
10.3330836532
 20
7.7015815374
 11
10.3330836532
 21
7.585670434
  0
LINE
  5
2EB
100
AcDbEntity
  8
0
100
AcDbLine
 62
4
  6
CONTINUOUS
 10
10.3514362337
 20
7.092603426
 11
10.3514362337
 21
7.0098097805
  0
LINE
  5
2EC
100
AcDbEntity
  8
0
100
AcDbLine
 62
4
  6
CONTINUOUS
 10
10.3910392049
 20
7.6975623062
 11
10.3910392049
 21
7.5816512028
  0
LINE
  5
2ED
100
AcDbEntity
  8
0
100
AcDbLine
 62
4
  6
CONTINUOUS
 10
10.5069503084
 20
7.5736127405
 11
10.5069503084
 21
7.6895238439
  0
LINE
  5
2EE
100
AcDbEntity
  8
0
100
AcDbLine
 62
4
  6
CONTINUOUS
 10
10.5142637445
 20
7.236963352
 11
10.5142637445
 21
7.3528744554
  0
LINE
  5
2EF
100
AcDbEntity
  8
0
100
AcDbLine
 62
4
  6
CONTINUOUS
 10
10.5308224718
 20
6.9808105728
 11
10.5308224718
 21
7.0967216763
  0
LINE
  5
2F0
100
AcDbEntity
  8
0
100
AcDbLine
 62
4
  6
CONTINUOUS
 10
9.5014214602
 20
7.9379536856
 11
9.5593770119
 21
7.9339344544
  0
LINE
  5
2F1
100
AcDbEntity
  8
0
100
AcDbLine
 62
4
  6
CONTINUOUS
 10
9.523154792
 20
8.0523575773
 11
9.53764368
 21
8.0513527695
  0
LINE
  5
2F2
100
AcDbEntity
  8
0
100
AcDbLine
 62
7
  6
CONTINUOUS
 10
9.2599399893
 20
8.1491545373
 11
9.2908496183
 21
8.1470109472
  0
LINE
  5
2F3
100
AcDbEntity
  8
0
100
AcDbLine
 62
4
  6
CONTINUOUS
 10
11.9688791342
 20
6.3276054635
 11
11.9543902463
 21
6.3479287882
  0
LINE
  5
2F4
100
AcDbEntity
  8
0
100
AcDbLine
 62
4
  6
CONTINUOUS
 10
10.5998171746
 20
7.3469413049
 11
10.6329346377
 21
7.2287334976
  0
LINE
  5
2F5
100
AcDbEntity
  8
0
100
AcDbLine
 62
4
  6
CONTINUOUS
 10
10.5649058601
 20
7.5695935093
 11
10.5649058601
 21
7.627549061
  0
LINE
  5
2F6
100
AcDbEntity
  8
0
100
AcDbLine
 62
7
  6
CONTINUOUS
 10
10.5827222063
 20
9.4278163116
 11
10.5827222063
 21
9.5602041521
  0
LINE
  5
2F7
100
AcDbEntity
  8
0
100
AcDbLine
 62
4
  6
CONTINUOUS
 10
10.5970573841
 20
6.976217166
 11
10.5970573841
 21
7.0921282695
  0
LINE
  5
2F8
100
AcDbEntity
  8
0
100
AcDbLine
 62
4
  6
CONTINUOUS
 10
10.6122362284
 20
7.5663111371
 11
10.6122362284
 21
7.6242666888
  0
LINE
  5
2F9
100
AcDbEntity
  8
0
100
AcDbLine
 62
4
  6
CONTINUOUS
 10
10.6660520938
 20
7.2264367942
 11
10.6660520938
 21
7.3423478977
  0
LINE
  5
2FA
100
AcDbEntity
  8
0
100
AcDbLine
 62
4
  6
CONTINUOUS
 10
10.6701917801
 20
7.6202474577
 11
10.6701917801
 21
7.5043363542
  0
LINE
  5
2FB
100
AcDbEntity
  8
0
100
AcDbLine
 62
7
  6
CONTINUOUS
 10
10.6718743734
 20
9.6413345792
 11
10.6718743734
 21
10.3116027514
  0
LINE
  5
2FC
100
AcDbEntity
  8
0
100
AcDbLine
 62
4
  6
CONTINUOUS
 10
10.7088288146
 20
7.5596124185
 11
10.7088288146
 21
7.6175679702
  0
LINE
  5
2FD
100
AcDbEntity
  8
0
100
AcDbLine
 62
4
  6
CONTINUOUS
 10
10.7240076455
 20
7.2224175631
 11
10.7240076455
 21
7.3383286665
  0
LINE
  5
2FE
100
AcDbEntity
  8
0
100
AcDbLine
 62
4
  6
CONTINUOUS
 10
10.7667843663
 20
7.6715042908
 11
10.7667843663
 21
7.5555931874
  0
LINE
  5
2FF
100
AcDbEntity
  8
0
100
AcDbLine
 62
7
  6
CONTINUOUS
 10
10.7682222063
 20
10.3194218965
 11
10.7682222063
 21
10.8931818714
  0
LINE
  5
300
100
AcDbEntity
  8
0
100
AcDbLine
 62
4
  6
CONTINUOUS
 10
10.7709240669
 20
6.9807182004
 11
10.7709240669
 21
7.063511846
  0
LINE
  5
301
100
AcDbEntity
  8
0
100
AcDbLine
 62
4
  6
CONTINUOUS
 10
9.5086659041
 20
8.0437031288
 11
9.523154792
 21
8.0523575773
  0
LINE
  5
302
100
AcDbEntity
  8
0
100
AcDbLine
 62
4
  6
CONTINUOUS
 10
9.5521325679
 20
8.0020516664
 11
9.523154792
 21
7.9847427658
  0
LINE
  5
303
100
AcDbEntity
  8
0
100
AcDbLine
 62
4
  6
CONTINUOUS
 10
12.012345798
 20
6.4211836283
 11
12.0195902419
 21
6.4110219612
  0
LINE
  5
304
100
AcDbEntity
  8
0
100
AcDbLine
 62
4
  6
CONTINUOUS
 10
10.8054214008
 20
7.6108692516
 11
10.8054214008
 21
7.5529136999
  0
LINE
  5
305
100
AcDbEntity
  8
0
100
AcDbLine
 62
7
  6
CONTINUOUS
 10
10.8451424779
 20
9.4739707283
 11
10.8451424779
 21
10.1442389005
  0
LINE
  5
306
100
AcDbEntity
  8
0
100
AcDbLine
 62
4
  6
CONTINUOUS
 10
10.8454383319
 20
7.2967899636
 11
10.8454383319
 21
7.3133486917
  0
LINE
  5
307
100
AcDbEntity
  8
0
100
AcDbLine
 62
4
  6
CONTINUOUS
 10
10.8675166162
 20
6.9740194844
 11
10.8675166162
 21
7.05681313
  0
LINE
  5
308
100
AcDbEntity
  8
0
100
AcDbLine
 62
7
  6
CONTINUOUS
 10
10.8771352733
 20
9.4656903941
 11
10.8771352733
 21
10.1359585663
  0
LINE
  5
309
100
AcDbEntity
  8
0
100
AcDbLine
 62
7
  6
CONTINUOUS
 10
10.881426706
 20
5.3115242924
 11
10.881426706
 21
5.3424339215
  0
LINE
  5
30A
100
AcDbEntity
  8
0
100
AcDbLine
 62
4
  6
CONTINUOUS
 10
10.9020139869
 20
7.5462149813
 11
10.9020139869
 21
7.5848520158
  0
LINE
  5
30B
100
AcDbEntity
  8
0
100
AcDbLine
 62
4
  6
CONTINUOUS
 10
10.9033938836
 20
7.226535815
 11
10.9033938836
 21
7.2430945448
  0
LINE
  5
30C
100
AcDbEntity
  8
0
100
AcDbLine
 62
4
  6
CONTINUOUS
 10
10.925472168
 20
7.0527938988
 11
10.925472168
 21
6.9700002532
  0
LINE
  5
30D
100
AcDbEntity
  8
0
100
AcDbLine
 62
4
  6
CONTINUOUS
 10
10.9585896103
 20
6.951144821
 11
10.9585896103
 21
7.0670559244
  0
LINE
  5
30E
100
AcDbEntity
  8
0
100
AcDbLine
 62
4
  6
CONTINUOUS
 10
10.9599695387
 20
7.6001513019
 11
10.9599695387
 21
7.5421957502
  0
LINE
  5
30F
100
AcDbEntity
  8
0
100
AcDbLine
 62
4
  6
CONTINUOUS
 10
10.9986065731
 20
7.5974718144
 11
10.9986065731
 21
7.5395162627
  0
LINE
  5
310
100
AcDbEntity
  8
0
100
AcDbLine
 62
4
  6
CONTINUOUS
 10
11.016545162
 20
7.0464779652
 11
11.016545162
 21
6.9636843196
  0
LINE
  5
311
100
AcDbEntity
  8
0
100
AcDbLine
 62
4
  6
CONTINUOUS
 10
10.3983526334
 20
6.9899973873
 11
10.4314700895
 21
7.1036117874
  0
LINE
  5
312
100
AcDbEntity
  8
0
100
AcDbLine
 62
4
  6
CONTINUOUS
 10
10.5666997185
 20
7.2333269049
 11
10.5998171746
 21
7.3469413049
  0
LINE
  5
313
100
AcDbEntity
  8
0
100
AcDbLine
 62
7
  6
CONTINUOUS
 10
11.0488074498
 20
10.9910970472
 11
11.0488074498
 21
11.0892908879
  0
LINE
  5
314
100
AcDbEntity
  8
0
100
AcDbLine
 62
4
  6
CONTINUOUS
 10
11.0565621249
 20
7.5354970315
 11
11.0565621249
 21
7.5934525833
  0
LINE
  5
315
100
AcDbEntity
  8
0
100
AcDbLine
 62
4
  6
CONTINUOUS
 10
11.0634616031
 20
6.9438719236
 11
11.0634616031
 21
7.059783027
  0
LINE
  5
316
100
AcDbEntity
  8
0
100
AcDbLine
 62
7
  6
CONTINUOUS
 10
11.0912222063
 20
10.9530692761
 11
11.0912222063
 21
10.9659874484
  0
LINE
  5
317
100
AcDbEntity
  8
0
100
AcDbLine
 62
7
  6
CONTINUOUS
 10
11.0912222063
 20
11.1887551917
 11
11.0912222063
 21
11.194550747
  0
LINE
  5
318
100
AcDbEntity
  8
0
100
AcDbLine
 62
4
  6
CONTINUOUS
 10
11.0951991593
 20
7.5328175441
 11
11.0951991593
 21
7.6487286475
  0
LINE
  5
319
100
AcDbEntity
  8
0
100
AcDbLine
 62
7
  6
CONTINUOUS
 10
11.0967222063
 20
11.1679877852
 11
11.0967222063
 21
11.1748465155
  0
LINE
  5
31A
100
AcDbEntity
  8
0
100
AcDbLine
 62
4
  6
CONTINUOUS
 10
11.1338361938
 20
7.5301380567
 11
11.1338361938
 21
7.5880936084
  0
LINE
  5
31B
100
AcDbEntity
  8
0
100
AcDbLine
 62
4
  6
CONTINUOUS
 10
11.1338361974
 20
5.6205025757
 11
11.1338361974
 21
5.5045914723
  0
LINE
  5
31C
100
AcDbEntity
  8
0
100
AcDbLine
 62
4
  6
CONTINUOUS
 10
11.1724732283
 20
7.5854141209
 11
11.1724732283
 21
7.5274585692
  0
LINE
  5
31D
100
AcDbEntity
  8
0
100
AcDbLine
 62
7
  6
CONTINUOUS
 10
11.1782222063
 20
11.7074573912
 11
11.1782222063
 21
11.5152381403
  0
LINE
  5
31E
100
AcDbEntity
  8
0
100
AcDbLine
 62
7
  6
CONTINUOUS
 10
11.1782222063
 20
11.4785329568
 11
11.1782222063
 21
11.2389833377
  0
LINE
  5
31F
100
AcDbEntity
  8
0
100
AcDbLine
 62
7
  6
CONTINUOUS
 10
11.2112222063
 20
11.4880801872
 11
11.2112222063
 21
11.4785329568
  0
LINE
  5
320
100
AcDbEntity
  8
0
100
AcDbLine
 62
7
  6
CONTINUOUS
 10
11.2606753357
 20
5.2852233106
 11
11.2606753357
 21
5.3161329397
  0
LINE
  5
321
100
AcDbEntity
  8
0
100
AcDbLine
 62
4
  6
CONTINUOUS
 10
11.2690658145
 20
7.5787154023
 11
11.2690658145
 21
7.5497376265
  0
LINE
  5
322
100
AcDbEntity
  8
0
100
AcDbLine
 62
7
  6
CONTINUOUS
 10
11.2782430397
 20
10.9317148222
 11
11.2782430397
 21
11.0299086629
  0
LINE
  5
323
100
AcDbEntity
  8
0
100
AcDbLine
 62
7
  6
CONTINUOUS
 10
11.2969024654
 20
11.7415519358
 11
11.2969024654
 21
11.7178212669
  0
LINE
  5
324
100
AcDbEntity
  8
0
100
AcDbLine
 62
4
  6
CONTINUOUS
 10
11.3270213662
 20
7.5457183953
 11
11.3270213662
 21
7.5167406195
  0
LINE
  5
325
100
AcDbEntity
  8
0
100
AcDbLine
 62
7
  6
CONTINUOUS
 10
11.3328636742
 20
11.712684813
 11
11.3328636742
 21
11.72417685
  0
LINE
  5
326
100
AcDbEntity
  8
0
100
AcDbLine
 62
7
  6
CONTINUOUS
 10
11.350169657
 20
11.7117314461
 11
11.350169657
 21
11.7253770261
  0
LINE
  5
327
100
AcDbEntity
  8
0
100
AcDbLine
 62
7
  6
CONTINUOUS
 10
11.3861308658
 20
11.7477399573
 11
11.3861308658
 21
11.712287855
  0
LINE
  5
328
100
AcDbEntity
  8
0
100
AcDbLine
 62
7
  6
CONTINUOUS
 10
11.4124563052
 20
11.7150253261
 11
11.4124563052
 21
11.7210574324
  0
LINE
  5
329
100
AcDbEntity
  8
0
100
AcDbLine
 62
7
  6
CONTINUOUS
 10
11.4251251674
 20
11.7173011307
 11
11.4251251674
 21
11.7177784937
  0
LINE
  5
32A
100
AcDbEntity
  8
0
100
AcDbLine
 62
7
  6
CONTINUOUS
 10
11.5237801473
 20
9.4208454198
 11
11.5237801473
 21
10.091113592
  0
LINE
  5
32B
100
AcDbEntity
  8
0
100
AcDbLine
 62
4
  6
CONTINUOUS
 10
10.8233600278
 20
7.3203994033
 11
10.7571251155
 21
7.222880647
  0
LINE
  5
32C
100
AcDbEntity
  8
0
100
AcDbLine
 62
7
  6
CONTINUOUS
 10
12.1577176398
 20
9.0867167497
 11
12.7400600107
 21
9.6492163188
  0
LINE
  5
32D
100
AcDbEntity
  8
0
100
AcDbLine
 62
4
  6
CONTINUOUS
 10
11.9543902463
 20
6.3479287882
 11
11.9471458023
 21
6.377408968
  0
LINE
  5
32E
100
AcDbEntity
  8
0
100
AcDbLine
 62
7
  6
CONTINUOUS
 10
11.5462222063
 20
11.7074573912
 11
11.5462222063
 21
11.5152381403
  0
LINE
  5
32F
100
AcDbEntity
  8
0
100
AcDbLine
 62
7
  6
CONTINUOUS
 10
11.5462222063
 20
11.4785329568
 11
11.5462222063
 21
11.2389833377
  0
LINE
  5
330
100
AcDbEntity
  8
0
100
AcDbLine
 62
7
  6
CONTINUOUS
 10
11.5674831061
 20
9.4238762356
 11
11.5674831061
 21
10.0941444078
  0
LINE
  5
331
100
AcDbEntity
  8
0
100
AcDbLine
 62
7
  6
CONTINUOUS
 10
11.5916577963
 20
10.9534502478
 11
11.5916577963
 21
11.0516440885
  0
LINE
  5
332
100
AcDbEntity
  8
0
100
AcDbLine
 62
7
  6
CONTINUOUS
 10
11.6277222063
 20
11.1679877852
 11
11.6277222063
 21
11.1747733723
  0
LINE
  5
333
100
AcDbEntity
  8
0
100
AcDbLine
 62
7
  6
CONTINUOUS
 10
11.6332222063
 20
10.9530692761
 11
11.6332222063
 21
10.9694253458
  0
LINE
  5
334
100
AcDbEntity
  8
0
100
AcDbLine
 62
7
  6
CONTINUOUS
 10
11.6332222063
 20
11.1887551917
 11
11.6332222063
 21
11.194550747
  0
LINE
  5
335
100
AcDbEntity
  8
0
100
AcDbLine
 62
7
  6
CONTINUOUS
 10
11.6756369629
 20
11.0345678985
 11
11.6756369629
 21
11.1327617392
  0
LINE
  5
336
100
AcDbEntity
  8
0
100
AcDbLine
 62
4
  6
CONTINUOUS
 10
10.3514362337
 20
7.0098097805
 11
10.3348775057
 21
6.9943994024
  0
LINE
  5
337
100
AcDbEntity
  8
0
100
AcDbLine
 62
4
  6
CONTINUOUS
 10
10.8454383319
 20
7.3133486917
 11
10.8619970531
 21
7.3287590686
  0
LINE
  5
338
100
AcDbEntity
  8
0
100
AcDbLine
 62
7
  6
CONTINUOUS
 10
11.5674831061
 20
9.4238762356
 11
12.0408598756
 21
9.5463951121
  0
LINE
  5
339
100
AcDbEntity
  8
0
100
AcDbLine
 62
7
  6
CONTINUOUS
 10
9.2599399893
 20
9.2876783123
 11
12.1577176398
 21
9.0867167497
  0
LINE
  5
33A
100
AcDbEntity
  8
0
100
AcDbLine
 62
7
  6
CONTINUOUS
 10
10.6718743734
 20
9.6413345792
 11
10.8451424779
 21
9.4739707283
  0
LINE
  5
33B
100
AcDbEntity
  8
0
100
AcDbLine
 62
7
  6
CONTINUOUS
 10
11.9562222063
 20
10.3194218965
 11
11.9562222063
 21
10.8931818714
  0
LINE
  5
33C
100
AcDbEntity
  8
0
100
AcDbLine
 62
4
  6
CONTINUOUS
 10
12.0195902419
 20
6.372384929
 11
12.0195902419
 21
6.3337478951
  0
LINE
  5
33D
100
AcDbEntity
  8
0
100
AcDbLine
 62
4
  6
CONTINUOUS
 10
10.8868351348
 20
7.2111254383
 11
10.9033938836
 21
7.226535815
  0
LINE
  5
33E
100
AcDbEntity
  8
0
100
AcDbLine
 62
4
  6
CONTINUOUS
 10
10.7709240669
 20
7.063511846
 11
10.7874827881
 21
7.0789222229
  0
LINE
  5
33F
100
AcDbEntity
  8
0
100
AcDbLine
 62
4
  6
CONTINUOUS
 10
10.8675166162
 20
7.05681313
 11
10.8840753374
 21
7.0722235068
  0
LINE
  5
340
100
AcDbEntity
  8
0
100
AcDbLine
 62
7
  6
CONTINUOUS
 10
10.8771352733
 20
9.4656903941
 11
11.5237801473
 21
9.4208454198
  0
LINE
  5
341
100
AcDbEntity
  8
0
100
AcDbLine
 62
7
  6
CONTINUOUS
 10
12.0408598756
 20
9.5463951121
 11
12.0408598756
 21
10.2166632844
  0
LINE
  5
342
100
AcDbEntity
  8
0
100
AcDbLine
 62
7
  6
CONTINUOUS
 10
12.0525700392
 20
9.5577062622
 11
12.0525700392
 21
10.2279744344
  0
LINE
  5
343
100
AcDbEntity
  8
0
100
AcDbLine
 62
7
  6
CONTINUOUS
 10
12.1417222063
 20
9.4276599331
 11
12.1417222063
 21
9.5602041521
  0
LINE
  5
344
100
AcDbEntity
  8
0
100
AcDbLine
 62
7
  6
CONTINUOUS
 10
12.1577176398
 20
5.2230132156
 11
12.1577176398
 21
9.0867167497
  0
LINE
  5
345
100
AcDbEntity
  8
0
100
AcDbLine
 62
4
  6
CONTINUOUS
 10
10.925472168
 20
6.9700002532
 11
10.9089134468
 21
6.9545898746
  0
LINE
  5
346
100
AcDbEntity
  8
0
100
AcDbLine
 62
4
  6
CONTINUOUS
 10
11.016545162
 20
6.9636843196
 11
10.9999864408
 21
6.9482739411
  0
LINE
  5
347
100
AcDbEntity
  8
0
100
AcDbLine
 62
4
  6
CONTINUOUS
 10
10.2714023814
 20
7.0705559124
 11
10.2272457697
 21
7.0515398763
  0
LINE
  5
348
100
AcDbEntity
  8
0
100
AcDbLine
 62
7
  6
CONTINUOUS
 10
12.7400600107
 20
9.6492163188
 11
12.0525700392
 21
9.6968939102
  0
LINE
  5
349
100
AcDbEntity
  8
0
100
AcDbLine
 62
7
  6
CONTINUOUS
 10
10.6718743734
 20
9.7926454799
 11
9.8422823602
 21
9.8501778814
  0
LINE
  5
34A
100
AcDbEntity
  8
0
100
AcDbLine
 62
7
  6
CONTINUOUS
 10
12.3980791882
 20
5.4551846565
 11
12.3980791882
 21
5.4860942855
  0
LINE
  5
34B
100
AcDbEntity
  8
0
100
AcDbLine
 62
7
  6
CONTINUOUS
 10
12.4996984624
 20
5.5533413437
 11
12.4996984624
 21
5.5842509727
  0
LINE
  5
34C
100
AcDbEntity
  8
0
100
AcDbLine
 62
4
  6
CONTINUOUS
 10
11.9471458023
 20
6.377408968
 11
11.9543902463
 21
6.4058843399
  0
LINE
  5
34D
100
AcDbEntity
  8
0
100
AcDbLine
 62
4
  6
CONTINUOUS
 10
11.1904118171
 20
6.984744084
 11
11.1462552089
 21
6.9657280494
  0
LINE
  5
34E
100
AcDbEntity
  8
0
100
AcDbLine
 62
7
  6
CONTINUOUS
 10
12.0526894163
 20
9.6538362356
 11
12.0525700392
 21
9.6538952056
  0
LINE
  5
34F
100
AcDbEntity
  8
0
100
AcDbLine
 62
7
  6
CONTINUOUS
 10
12.7400600107
 20
5.7855127847
 11
12.7400600107
 21
9.6492163188
  0
LINE
  5
350
100
AcDbEntity
  8
0
100
AcDbLine
 62
4
  6
CONTINUOUS
 10
11.9543902463
 20
6.4058843399
 11
11.9688791342
 21
6.4241980517
  0
LINE
  5
351
100
AcDbEntity
  8
0
100
AcDbLine
 62
4
  6
CONTINUOUS
 10
12.0195902419
 20
6.3337478951
 11
12.012345798
 21
6.3245910401
  0
LINE
  5
352
100
AcDbEntity
  8
0
100
AcDbLine
 62
7
  6
CONTINUOUS
 10
11.1221752353
 20
10.9504609649
 11
11.1013637426
 21
10.9607414438
  0
LINE
  5
353
100
AcDbEntity
  8
0
100
AcDbLine
 62
7
  6
CONTINUOUS
 10
11.1064307156
 20
11.1650301118
 11
11.1011318335
 21
11.1699612779
  0
LINE
  5
354
100
AcDbEntity
  8
0
100
AcDbLine
 62
4
  6
CONTINUOUS
 10
11.9688791342
 20
6.4241980517
 11
11.9833680221
 21
6.4328525002
  0
LINE
  5
355
100
AcDbEntity
  8
0
100
AcDbLine
 62
4
  6
CONTINUOUS
 10
12.012345798
 20
6.3245910401
 11
11.9978569101
 21
6.315936589
  0
LINE
  5
356
100
AcDbEntity
  8
0
100
AcDbLine
 62
7
  6
CONTINUOUS
 10
11.9345014736
 20
10.9343759113
 11
11.8747686208
 21
10.9899636014
  0
LINE
  5
357
100
AcDbEntity
  8
0
100
AcDbLine
 62
7
  6
CONTINUOUS
 10
11.6756369629
 20
11.1327617392
 11
11.628828135
 21
11.1763363029
  0
LINE
  5
358
100
AcDbEntity
  8
0
100
AcDbLine
 62
7
  6
CONTINUOUS
 10
11.5096274721
 20
11.7480116796
 11
11.5394938985
 21
11.7202178345
  0
LINE
  5
359
100
AcDbEntity
  8
0
100
AcDbLine
 62
7
  6
CONTINUOUS
 10
12.4996984624
 20
5.5842509727
 11
12.3980791882
 21
5.4860942855
  0
LINE
  5
35A
100
AcDbEntity
  8
0
100
AcDbLine
 62
7
  6
CONTINUOUS
 10
12.1577176398
 20
5.2230132156
 11
12.3980791882
 21
5.4551846565
  0
LINE
  5
35B
100
AcDbEntity
  8
0
100
AcDbLine
 62
7
  6
CONTINUOUS
 10
12.4996984624
 20
5.5533413437
 11
12.7400600107
 21
5.7855127847
  0
ARC
  5
35C
100
AcDbEntity
  8
0
100
AcDbCircle
 62
7
  6
CONTINUOUS
 10
11.3743394936
 20
12.5625821111
 40
2.4759824616
100
AcDbArc
 50
273.460253038
 51
274.4740090323
  0
ARC
  5
35D
100
AcDbEntity
  8
0
100
AcDbCircle
 62
7
  6
CONTINUOUS
 10
11.3743394936
 20
11.8923139389
 40
2.4759824616
100
AcDbArc
 50
273.460253038
 51
274.4740090323
  0
ARC
  5
35E
100
AcDbEntity
  8
0
100
AcDbCircle
 62
7
  6
CONTINUOUS
 10
11.1284634458
 20
10.5026946958
 40
1.0670256661
100
AcDbArc
 50
254.6019062196
 51
256.3764916154
  0
ARC
  5
35F
100
AcDbEntity
  8
0
100
AcDbCircle
 62
7
  6
CONTINUOUS
 10
11.1284634458
 20
11.172962868
 40
1.0670256661
100
AcDbArc
 50
254.6019062196
 51
256.3764916154
  0
ARC
  5
360
100
AcDbEntity
  8
0
100
AcDbCircle
 62
7
  6
CONTINUOUS
 10
11.1272780805
 20
11.8078321152
 40
0.3331914446
100
AcDbArc
 50
345.6118968365
 51
346.6385845785
  0
ARC
  5
361
100
AcDbEntity
  8
0
100
AcDbCircle
 62
7
  6
CONTINUOUS
 10
11.3609801419
 20
11.4441226374
 40
0.2814620716
100
AcDbArc
 50
92.2011759661
 51
95.7330861042
  0
ARC
  5
362
100
AcDbEntity
  8
0
100
AcDbCircle
 62
7
  6
CONTINUOUS
 10
10.7752857566
 20
10.2156590579
 40
0.1411124202
100
AcDbArc
 50
130.5299266376
 51
133.932348809
  0
ARC
  5
363
100
AcDbEntity
  8
0
100
AcDbCircle
 62
7
  6
CONTINUOUS
 10
11.9518352548
 20
10.3209694726
 40
0.137131922
100
AcDbArc
 50
310.4805308012
 51
313.9817446454
  0
ARC
  5
364
100
AcDbEntity
  8
0
100
AcDbCircle
 62
7
  6
CONTINUOUS
 10
11.9518352548
 20
9.6507013004
 40
0.137131922
100
AcDbArc
 50
310.4805308011
 51
313.9817446455
  0
ARC
  5
365
100
AcDbEntity
  8
0
100
AcDbCircle
 62
7
  6
CONTINUOUS
 10
10.8477988017
 20
10.273353381
 40
0.1216789682
100
AcDbArc
 50
130.9990025054
 51
133.9511410627
  0
ARC
  5
366
100
AcDbEntity
  8
0
100
AcDbCircle
 62
7
  6
CONTINUOUS
 10
11.6313768886
 20
11.0836951324
 40
0.0660793922
100
AcDbArc
 50
47.9482557631
 51
50.8365735536
  0
ARC
  5
367
100
AcDbEntity
  8
0
100
AcDbCircle
 62
7
  6
CONTINUOUS
 10
11.4249926255
 20
11.742746394
 40
0.024968252
100
AcDbArc
 50
270.3041513177
 51
277.6929856419
  0
SPLINE
  5
368
100
AcDbEntity
  8
0
100
AcDbSpline
 62
7
  6
CONTINUOUS
 70
0
 71
3
 72
17
 73
13
 74
0
 42
0.0000001
 43
0.0000001
 44
0.0000000001
 40
0.0
 40
0.0
 40
0.0
 40
0.0
 40
0.048716881
 40
0.0978461719
 40
0.1477891712
 40
0.1989256712
 40
0.3060693872
 40
0.4217766022
 40
0.5478866446
 40
0.6857333511
 40
0.8362376816
 40
1.0
 40
1.0
 40
1.0
 40
1.0
 10
11.1782222211
 20
11.4785328966
 30
0.0
 10
11.1782222192
 20
11.4789260009
 30
0.0
 10
11.1782601135
 20
11.4797160525
 30
0.0
 10
11.178430372
 20
11.4808980518
 30
0.0
 10
11.1787139233
 20
11.4820782577
 30
0.0
 10
11.1792505343
 20
11.4836724509
 30
0.0
 10
11.1802231948
 20
11.4856693057
 30
0.0
 10
11.1818177584
 20
11.4879999695
 30
0.0
 10
11.1838506997
 20
11.490300638
 30
0.0
 10
11.1863159501
 20
11.4925678699
 30
0.0
 10
11.1892074949
 20
11.4947983599
 30
0.0
 10
11.1913246386
 20
11.4961981814
 30
0.0
 10
11.1924480234
 20
11.496894004
 30
0.0
  0
SPLINE
  5
369
100
AcDbEntity
  8
0
100
AcDbSpline
 62
7
  6
CONTINUOUS
 70
0
 71
3
 72
19
 73
15
 74
0
 42
0.0000001
 43
0.0000001
 44
0.0000000001
 40
0.0
 40
0.0
 40
0.0
 40
0.0
 40
0.1480347086
 40
0.2876549285
 40
0.4195434151
 40
0.4828720137
 40
0.5446104533
 40
0.6638347161
 40
0.7216716022
 40
0.7785350988
 40
0.8346066359
 40
0.8900760447
 40
0.9451399785
 40
1.0
 40
1.0
 40
1.0
 40
1.0
 10
10.7884622315
 20
10.9329722608
 30
0.0
 10
10.7868340715
 20
10.9313995789
 30
0.0
 10
10.7837657087
 20
10.9282420354
 30
0.0
 10
10.7796402205
 20
10.923321135
 30
0.0
 10
10.7766811576
 20
10.9191337128
 30
0.0
 10
10.7746432486
 20
10.9157725827
 30
0.0
 10
10.7728635371
 20
10.912487002
 30
0.0
 10
10.7713691762
 20
10.9091460187
 30
0.0
 10
10.7701893061
 20
10.9057674547
 30
0.0
 10
10.7694719804
 20
10.9032549097
 30
0.0
 10
10.7689137713
 20
10.9007393899
 30
0.0
 10
10.7685148513
 20
10.8982215006
 30
0.0
 10
10.7682754582
 20
10.8957021521
 30
0.0
 10
10.7682222253
 20
10.8940207649
 30
0.0
 10
10.7682222252
 20
10.8931818714
 30
0.0
  0
SPLINE
  5
36A
100
AcDbEntity
  8
0
100
AcDbSpline
 62
7
  6
CONTINUOUS
 70
0
 71
3
 72
23
 73
19
 74
0
 42
0.0000001
 43
0.0000001
 44
0.0000000001
 40
0.0
 40
0.0
 40
0.0
 40
0.0
 40
0.0759416999
 40
0.1504269049
 40
0.2233702942
 40
0.2946874424
 40
0.3642942045
 40
0.4321091043
 40
0.4980552028
 40
0.5620620635
 40
0.6240683753
 40
0.6840244613
 40
0.7418947127
 40
0.7976601746
 40
0.8513211319
 40
0.9028987512
 40
0.9524363031
 40
1.0
 40
1.0
 40
1.0
 40
1.0
 10
12.0525700392
 20
10.2279744344
 30
0.0
 10
12.0506278386
 20
10.231826178
 30
0.0
 10
12.0467395917
 20
10.2394351726
 30
0.0
 10
12.0408316772
 20
10.2506642362
 30
0.0
 10
12.03490261
 20
10.2615842268
 30
0.0
 10
12.028952684
 20
10.272176216
 30
0.0
 10
12.0229823621
 20
10.2824210111
 30
0.0
 10
12.0169923688
 20
10.2922993045
 30
0.0
 10
12.0109836704
 20
10.3017919624
 30
0.0
 10
12.0049574692
 20
10.3108803172
 30
0.0
 10
11.9989152562
 20
10.319546538
 30
0.0
 10
11.9928587787
 20
10.3277739821
 30
0.0
 10
11.9867900109
 20
10.3355475434
 30
0.0
 10
11.9807111179
 20
10.3428540282
 30
0.0
 10
11.9746245129
 20
10.3496825293
 30
0.0
 10
11.9685326546
 20
10.3560247289
 30
0.0
 10
11.9624383504
 20
10.3618748436
 30
0.0
 10
11.9582933889
 20
10.3655172094
 30
0.0
 10
11.9562213457
 20
10.3672510253
 30
0.0
  0
SPLINE
  5
36B
100
AcDbEntity
  8
0
100
AcDbSpline
 62
7
  6
CONTINUOUS
 70
0
 71
3
 72
31
 73
27
 74
0
 42
0.0000001
 43
0.0000001
 44
0.0000000001
 40
0.0
 40
0.0
 40
0.0
 40
0.0
 40
0.079387875
 40
0.1600113053
 40
0.2410488385
 40
0.3216689273
 40
0.4010474649
 40
0.4783765812
 40
0.5528760034
 40
0.6238050137
 40
0.6577143743
 40
0.6904774907
 40
0.7220185264
 40
0.7522668613
 40
0.7811571105
 40
0.8086308339
 40
0.8346365007
 40
0.8591309729
 40
0.8820810886
 40
0.9034647907
 40
0.9232747076
 40
0.9415205859
 40
0.9582345551
 40
0.97347802
 40
0.9873500696
 40
1.0
 40
1.0
 40
1.0
 40
1.0
 10
11.3363403232
 20
11.7124011127
 30
0.0
 10
11.339753723
 20
11.7121643926
 30
0.0
 10
11.346640963
 20
11.7117876139
 30
0.0
 10
11.3570275368
 20
11.7115069776
 30
0.0
 10
11.3674710823
 20
11.7115077024
 30
0.0
 10
11.3778571393
 20
11.7117898106
 30
0.0
 10
11.3880718979
 20
11.7123501263
 30
0.0
 10
11.3980035392
 20
11.7131823489
 30
0.0
 10
11.4075432726
 20
11.7142771597
 30
0.0
 10
11.4151903996
 20
11.7154143071
 30
0.0
 10
11.4210296516
 20
11.7164530239
 30
0.0
 10
11.4251818439
 20
11.7172776667
 30
0.0
 10
11.4291613153
 20
11.7181572784
 30
0.0
 10
11.4329571944
 20
11.7190894131
 30
0.0
 10
11.4365591092
 20
11.7200715287
 30
0.0
 10
11.4399572527
 20
11.7211008659
 30
0.0
 10
11.443142395
 20
11.7221746011
 30
0.0
 10
11.4461059209
 20
11.7232897866
 30
0.0
 10
11.4488398789
 20
11.7244433284
 30
0.0
 10
11.45133698
 20
11.7256321641
 30
0.0
 10
11.4535906882
 20
11.7268530874
 30
0.0
 10
11.4555952066
 20
11.7281030256
 30
0.0
 10
11.4573454487
 20
11.729378965
 30
0.0
 10
11.4588371953
 20
11.7306783309
 30
0.0
 10
11.4600662422
 20
11.7319984285
 30
0.0
 10
11.4607358923
 20
11.7329303235
 30
0.0
 10
11.4610181248
 20
11.7333967971
 30
0.0
  0
SPLINE
  5
36C
100
AcDbEntity
  8
0
100
AcDbSpline
 62
7
  6
CONTINUOUS
 70
0
 71
3
 72
28
 73
24
 74
0
 42
0.0000001
 43
0.0000001
 44
0.0000000001
 40
0.0
 40
0.0
 40
0.0
 40
0.0
 40
0.0845007573
 40
0.1673030585
 40
0.2480811468
 40
0.3265325295
 40
0.4023604629
 40
0.47528549
 40
0.545044445
 40
0.6113940892
 40
0.6741136016
 40
0.7330080245
 40
0.7879128903
 40
0.8138294029
 40
0.8387041852
 40
0.8625279522
 40
0.8852954876
 40
0.9070052326
 40
0.9276601517
 40
0.9472688886
 40
0.9658456617
 40
0.9834126152
 40
1.0
 40
1.0
 40
1.0
 40
1.0
 10
11.4018214875
 20
11.7756510643
 30
0.0
 10
11.4049886043
 20
11.775431424
 30
0.0
 10
11.4112554853
 20
11.7749409613
 30
0.0
 10
11.42053303
 20
11.774041652
 30
0.0
 10
11.429565725
 20
11.7729889957
 30
0.0
 10
11.438315465
 20
11.7717875421
 30
0.0
 10
11.446745686
 20
11.7704423454
 30
0.0
 10
11.4548209881
 20
11.768959152
 30
0.0
 10
11.4625075789
 20
11.7673442661
 30
0.0
 10
11.469773316
 20
11.7656045698
 30
0.0
 10
11.4765879571
 20
11.7637474806
 30
0.0
 10
11.48292305
 20
11.7617808777
 30
0.0
 10
11.4878719974
 20
11.7600256271
 30
0.0
 10
11.4915656321
 20
11.7585665117
 30
0.0
 10
11.4941464406
 20
11.7574711406
 30
0.0
 10
11.4965887433
 20
11.7563547327
 30
0.0
 10
11.4988900236
 20
11.7552184678
 30
0.0
 10
11.5010479059
 20
11.7540635196
 30
0.0
 10
11.5030601623
 20
11.7528910403
 30
0.0
 10
11.5049247576
 20
11.751702281
 30
0.0
 10
11.5066397835
 20
11.7504983285
 30
0.0
 10
11.5082034558
 20
11.7492804913
 30
0.0
 10
11.5091711034
 20
11.7484363723
 30
0.0
 10
11.5096273129
 20
11.7480118212
 30
0.0
  0
SPLINE
  5
36D
100
AcDbEntity
  8
0
100
AcDbSpline
 62
7
  6
CONTINUOUS
 70
0
 71
3
 72
15
 73
11
 74
0
 42
0.0000001
 43
0.0000001
 44
0.0000000001
 40
0.0
 40
0.0
 40
0.0
 40
0.0
 40
0.1467700192
 40
0.2855454447
 40
0.4170152785
 40
0.5420251351
 40
0.6615817521
 40
0.7768594671
 40
0.8891843578
 40
1.0
 40
1.0
 40
1.0
 40
1.0
 10
11.5404324086
 20
11.4903853972
 30
0.0
 10
11.5408989241
 20
11.4899155161
 30
0.0
 10
11.5417780196
 20
11.4889722644
 30
0.0
 10
11.5429582532
 20
11.4875049021
 30
0.0
 10
11.5439603126
 20
11.4860272809
 30
0.0
 10
11.5447828933
 20
11.4845406865
 30
0.0
 10
11.5454246317
 20
11.4830463341
 30
0.0
 10
11.5458842362
 20
11.4815456327
 30
0.0
 10
11.5461605963
 20
11.4800406704
 30
0.0
 10
11.546222189
 20
11.4790329494
 30
0.0
 10
11.5462221915
 20
11.478533017
 30
0.0
  0
SPLINE
  5
36E
100
AcDbEntity
  8
0
100
AcDbSpline
 62
7
  6
CONTINUOUS
 70
0
 71
3
 72
33
 73
29
 74
0
 42
0.0000001
 43
0.0000001
 44
0.0000000001
 40
0.0
 40
0.0
 40
0.0
 40
0.0
 40
0.0958347465
 40
0.1891068835
 40
0.2792498886
 40
0.365721138
 40
0.4480123107
 40
0.5256538489
 40
0.5625985949
 40
0.5982265653
 40
0.6324939043
 40
0.6653607009
 40
0.6967918132
 40
0.726757398
 40
0.7552334088
 40
0.7822029384
 40
0.8076565723
 40
0.8315947811
 40
0.8540286813
 40
0.8749835432
 40
0.8945008503
 40
0.9126430726
 40
0.9294980147
 40
0.9451848544
 40
0.9598599695
 40
0.9737213021
 40
0.9870092681
 40
1.0
 40
1.0
 40
1.0
 40
1.0
 10
11.3145995413
 20
11.4692381756
 30
0.0
 10
11.3098070744
 20
11.4695705343
 30
0.0
 10
11.3003572015
 20
11.470331769
 30
0.0
 10
11.2864333382
 20
11.4717848634
 30
0.0
 10
11.2730155441
 20
11.4735262191
 30
0.0
 10
11.2601932532
 20
11.4755439975
 30
0.0
 10
11.2480520025
 20
11.4778244802
 30
0.0
 10
11.2384155157
 20
11.4799646877
 30
0.0
 10
11.2311137708
 20
11.481805951
 30
0.0
 10
11.2259476846
 20
11.4832197327
 30
0.0
 10
11.2210093306
 20
11.4846868013
 30
0.0
 10
11.2163069122
 20
11.4862047441
 30
0.0
 10
11.2118482342
 20
11.4877710001
 30
0.0
 10
11.2076406735
 20
11.4893829361
 30
0.0
 10
11.2036911768
 20
11.4910378949
 30
0.0
 10
11.2000062142
 20
11.4927330786
 30
0.0
 10
11.1965918199
 20
11.494465768
 30
0.0
 10
11.1934534941
 20
11.4962330721
 30
0.0
 10
11.1905963023
 20
11.4980322713
 30
0.0
 10
11.1880247392
 20
11.4998605253
 30
0.0
 10
11.1857428926
 20
11.5017152401
 30
0.0
 10
11.1837543523
 20
11.503593859
 30
0.0
 10
11.1820624378
 20
11.5054941124
 30
0.0
 10
11.1806703336
 20
11.507413928
 30
0.0
 10
11.1795813309
 20
11.5093511987
 30
0.0
 10
11.178799185
 20
11.5113037274
 30
0.0
 10
11.1783276598
 20
11.5132673193
 30
0.0
 10
11.1782222243
 20
11.5145868843
 30
0.0
 10
11.1782222211
 20
11.5152380801
 30
0.0
  0
SPLINE
  5
36F
100
AcDbEntity
  8
0
100
AcDbSpline
 62
7
  6
CONTINUOUS
 70
0
 71
3
 72
21
 73
17
 74
0
 42
0.0000001
 43
0.0000001
 44
0.0000000001
 40
0.0
 40
0.0
 40
0.0
 40
0.0
 40
0.162469456
 40
0.3145883599
 40
0.3866619002
 40
0.456028958
 40
0.5226640503
 40
0.5865483497
 40
0.647672683
 40
0.7060374241
 40
0.7616543703
 40
0.8145489553
 40
0.8647611469
 40
0.9123500434
 40
0.9573946445
 40
1.0
 40
1.0
 40
1.0
 40
1.0
 10
11.1781388985
 20
11.2973161438
 30
0.0
 10
11.1748220136
 20
11.2963622506
 30
0.0
 10
11.1684284213
 20
11.2944125086
 30
0.0
 10
11.1606641597
 20
11.2917250532
 30
0.0
 10
11.1548405342
 20
11.2894935244
 30
0.0
 10
11.1507504082
 20
11.2878165375
 30
0.0
 10
11.1468627447
 20
11.2861077098
 30
0.0
 10
11.1431812355
 20
11.2843685872
 30
0.0
 10
11.139709349
 20
11.2826008591
 30
0.0
 10
11.1364503513
 20
11.2808061794
 30
0.0
 10
11.133407307
 20
11.2789862055
 30
0.0
 10
11.1305830289
 20
11.2771426596
 30
0.0
 10
11.1279801886
 20
11.2752771542
 30
0.0
 10
11.1256011119
 20
11.2733913883
 30
0.0
 10
11.1234481886
 20
11.2714870324
 30
0.0
 10
11.1221293369
 20
11.270170556
 30
0.0
 10
11.1215113194
 20
11.2695093518
 30
0.0
  0
SPLINE
  5
370
100
AcDbEntity
  8
0
100
AcDbSpline
 62
7
  6
CONTINUOUS
 70
0
 71
3
 72
32
 73
28
 74
0
 42
0.0000001
 43
0.0000001
 44
0.0000000001
 40
0.0
 40
0.0
 40
0.0
 40
0.0
 40
0.0761061715
 40
0.1533666318
 40
0.2310988674
 40
0.3086120625
 40
0.3852189122
 40
0.460242447
 40
0.533024057
 40
0.5683764836
 40
0.6029340374
 40
0.6366233739
 40
0.6693738724
 40
0.701117879
 40
0.7317913222
 40
0.7613338704
 40
0.7896892732
 40
0.8168061379
 40
0.8426382742
 40
0.8671453018
 40
0.8902938116
 40
0.9120582267
 40
0.9324221458
 40
0.9513805452
 40
0.9689421006
 40
0.9851326018
 40
1.0
 40
1.0
 40
1.0
 40
1.0
 10
11.31045844
 20
11.2044381901
 30
0.0
 10
11.3168091757
 20
11.2039977651
 30
0.0
 10
11.329619596
 20
11.2032839528
 30
0.0
 10
11.3489434834
 20
11.2027066991
 30
0.0
 10
11.3683935919
 20
11.2026172592
 30
0.0
 10
11.3877850924
 20
11.2030165524
 30
0.0
 10
11.4069338447
 20
11.2039006647
 30
0.0
 10
11.4256578899
 20
11.2052610618
 30
0.0
 10
11.440903688
 20
11.2067949894
 30
0.0
 10
11.4527497313
 20
11.208257676
 30
0.0
 10
11.4613328655
 20
11.2094537097
 30
0.0
 10
11.4696802621
 20
11.2107564248
 30
0.0
 10
11.4777721042
 20
11.2121627187
 30
0.0
 10
11.4855891653
 20
11.2136692381
 30
0.0
 10
11.493112895
 20
11.2152723541
 30
0.0
 10
11.5003254498
 20
11.2169682174
 30
0.0
 10
11.5072097351
 20
11.2187527872
 30
0.0
 10
11.5137494691
 20
11.2206217654
 30
0.0
 10
11.5199292147
 20
11.2225706691
 30
0.0
 10
11.5257344148
 20
11.2245948667
 30
0.0
 10
11.5311514676
 20
11.2266895127
 30
0.0
 10
11.5361677491
 20
11.228849634
 30
0.0
 10
11.5407716622
 20
11.2310702091
 30
0.0
 10
11.5449526638
 20
11.2333460699
 30
0.0
 10
11.5487014817
 20
11.23567224
 30
0.0
 10
11.552009406
 20
11.2380434832
 30
0.0
 10
11.5539983231
 20
11.2397207969
 30
0.0
 10
11.5549087023
 20
11.2405679998
 30
0.0
  0
SPLINE
  5
371
100
AcDbEntity
  8
0
100
AcDbSpline
 62
7
  6
CONTINUOUS
 70
0
 71
3
 72
11
 73
7
 74
0
 42
0.0000001
 43
0.0000001
 44
0.0000000001
 40
0.0
 40
0.0
 40
0.0
 40
0.0
 40
0.25392815
 40
0.5053846224
 40
0.754145062
 40
1.0
 40
1.0
 40
1.0
 40
1.0
 10
11.0488074498
 20
10.9910970472
 30
0.0
 10
11.0531157152
 20
10.9882830769
 30
0.0
 10
11.061756064
 20
10.9827822422
 30
0.0
 10
11.0748620082
 20
10.9749174449
 30
0.0
 10
11.0880535852
 20
10.9675255841
 30
0.0
 10
11.0969580362
 20
10.9629182518
 30
0.0
 10
11.1014247948
 20
10.9607112929
 30
0.0
  0
LINE
  5
372
100
AcDbEntity
  8
0
100
AcDbLine
 62
7
  6
CONTINUOUS
 10
10.6718743734
 20
10.3116027514
 11
10.6773807549
 21
10.3172825089
  0
SPLINE
  5
373
100
AcDbEntity
  8
0
100
AcDbSpline
 62
7
  6
CONTINUOUS
 70
0
 71
3
 72
25
 73
21
 74
0
 42
0.0000001
 43
0.0000001
 44
0.0000000001
 40
0.0
 40
0.0
 40
0.0
 40
0.0
 40
0.0236136237
 40
0.0473700767
 40
0.0714068721
 40
0.0958519244
 40
0.1463538444
 40
0.1996410551
 40
0.2561243145
 40
0.3159293703
 40
0.3789328091
 40
0.4448060604
 40
0.5130591218
 40
0.583081228
 40
0.6541783198
 40
0.7256081019
 40
0.7966136891
 40
0.8664568265
 40
0.9344516529
 40
1.0
 40
1.0
 40
1.0
 40
1.0
 10
11.2477054847
 20
11.4493688617
 30
0.0
 10
11.2474483438
 20
11.4494311925
 30
0.0
 10
11.2469386223
 20
11.4495832189
 30
0.0
 10
11.2461984657
 20
11.4498905762
 30
0.0
 10
11.2454850516
 20
11.4502759278
 30
0.0
 10
11.2445646997
 20
11.4508975839
 30
0.0
 10
11.2434955348
 20
11.4518705883
 30
0.0
 10
11.2423900672
 20
11.4532955249
 30
0.0
 10
11.2414650085
 20
11.4549628419
 30
0.0
 10
11.2407360846
 20
11.4568408001
 30
0.0
 10
11.2402153484
 20
11.4588947079
 30
0.0
 10
11.2399117012
 20
11.4610867297
 30
0.0
 10
11.2398303337
 20
11.4633764662
 30
0.0
 10
11.2399725449
 20
11.4657215997
 30
0.0
 10
11.2403355943
 20
11.4680786866
 30
0.0
 10
11.24091271
 20
11.4704040025
 30
0.0
 10
11.2416931612
 20
11.472654357
 30
0.0
 10
11.2426625852
 20
11.4747880675
 30
0.0
 10
11.2438028696
 20
11.4767652632
 30
0.0
 10
11.2446818474
 20
11.4779804753
 30
0.0
 10
11.2451455956
 20
11.4785500104
 30
0.0
  0
SPLINE
  5
374
100
AcDbEntity
  8
0
100
AcDbSpline
 62
7
  6
CONTINUOUS
 70
0
 71
3
 72
53
 73
49
 74
0
 42
0.0000001
 43
0.0000001
 44
0.0000000001
 40
0.0
 40
0.0
 40
0.0
 40
0.0
 40
0.0310312148
 40
0.0635832801
 40
0.0975390763
 40
0.1327627538
 40
0.1690986465
 40
0.2063776938
 40
0.2444193237
 40
0.2830344591
 40
0.322027792
 40
0.3612000258
 40
0.4003500041
 40
0.4392768003
 40
0.4777818171
 40
0.5156709225
 40
0.5527567057
 40
0.5888609172
 40
0.6238171349
 40
0.6574739015
 40
0.6896984644
 40
0.7203814019
 40
0.7494427677
 40
0.7768402521
 40
0.8025804873
 40
0.8148497415
 40
0.8267379332
 40
0.8382681666
 40
0.8494691012
 40
0.8603799326
 40
0.8710462512
 40
0.8815238688
 40
0.8867129059
 40
0.8918799051
 40
0.9021814168
 40
0.9125073257
 40
0.9229265277
 40
0.9335013647
 40
0.9442663454
 40
0.9497249514
 40
0.9552304702
 40
0.9663538039
 40
0.9719607436
 40
0.9775828373
 40
0.9832085312
 40
0.9888272087
 40
0.9944280353
 40
1.0
 40
1.0
 40
1.0
 40
1.0
 10
11.2477054814
 20
11.449368848
 30
0.0
 10
11.250955339
 20
11.4485811271
 30
0.0
 10
11.2576433039
 20
11.4470849714
 30
0.0
 10
11.2679678217
 20
11.4451068109
 30
0.0
 10
11.2787893382
 20
11.4433447
 30
0.0
 10
11.2900562271
 20
11.4418050083
 30
0.0
 10
11.3017123716
 20
11.4404941253
 30
0.0
 10
11.3136973553
 20
11.4394179179
 30
0.0
 10
11.3259475955
 20
11.4385814948
 30
0.0
 10
11.3383969557
 20
11.4379889579
 30
0.0
 10
11.3509774705
 20
11.4376432861
 30
0.0
 10
11.3636199844
 20
11.4375462394
 30
0.0
 10
11.3762547869
 20
11.4376983156
 30
0.0
 10
11.3888122369
 20
11.4380987355
 30
0.0
 10
11.4012233866
 20
11.4387454643
 30
0.0
 10
11.4134206175
 20
11.439635266
 30
0.0
 10
11.4253382983
 20
11.440763801
 30
0.0
 10
11.4369134766
 20
11.4421257758
 30
0.0
 10
11.4480866293
 20
11.4437151686
 30
0.0
 10
11.4588024888
 20
11.4455255624
 30
0.0
 10
11.4690110009
 20
11.4475506458
 30
0.0
 10
11.4786683989
 20
11.449784977
 30
0.0
 10
11.4877386631
 20
11.4522251887
 30
0.0
 10
11.4961946413
 20
11.4548718688
 30
0.0
 10
11.5028178788
 20
11.4572928617
 30
0.0
 10
11.5077854785
 20
11.4593527184
 30
0.0
 10
11.5112914382
 20
11.4609348994
 30
0.0
 10
11.5146383717
 20
11.4625845737
 30
0.0
 10
11.517828659
 20
11.4643084648
 30
0.0
 10
11.5208635633
 20
11.4661178974
 30
0.0
 10
11.5237461494
 20
11.4680236725
 30
0.0
 10
11.5260284137
 20
11.4697127625
 30
0.0
 10
11.5277719325
 20
11.4711276436
 30
0.0
 10
11.529456049
 20
11.4725838566
 30
0.0
 10
11.5314659896
 20
11.4745075022
 30
0.0
 10
11.5337046464
 20
11.476998487
 30
0.0
 10
11.5357420114
 20
11.4796949953
 30
0.0
 10
11.5375412193
 20
11.4826127344
 30
0.0
 10
11.5387943146
 20
11.4852215051
 30
0.0
 10
11.5396267428
 20
11.4874113863
 30
0.0
 10
11.5403402753
 20
11.4896832055
 30
0.0
 10
11.5408493414
 20
11.4920321782
 30
0.0
 10
11.5411342936
 20
11.4944252524
 30
0.0
 10
11.5412342023
 20
11.4962400963
 30
0.0
 10
11.541217403
 20
11.4980588128
 30
0.0
 10
11.5410836042
 20
11.4998703909
 30
0.0
 10
11.5408364567
 20
11.5016640601
 30
0.0
 10
11.5405969392
 20
11.502844936
 30
0.0
 10
11.5404594527
 20
11.5034294253
 30
0.0
  0
SPLINE
  5
375
100
AcDbEntity
  8
0
100
AcDbSpline
 62
7
  6
CONTINUOUS
 70
0
 71
3
 72
16
 73
12
 74
0
 42
0.0000001
 43
0.0000001
 44
0.0000000001
 40
0.0
 40
0.0
 40
0.0
 40
0.0
 40
0.1492543013
 40
0.2896880554
 40
0.4220095142
 40
0.4854167823
 40
0.5471460214
 40
0.6661059158
 40
0.7802197192
 40
0.8909716447
 40
1.0
 40
1.0
 40
1.0
 40
1.0
 10
11.6233125801
 20
11.1699612822
 30
0.0
 10
11.6241086007
 20
11.1707020565
 30
0.0
 10
11.62560874
 20
11.1721894217
 30
0.0
 10
11.6276284137
 20
11.1745113684
 30
0.0
 10
11.629078376
 20
11.1764895387
 30
0.0
 10
11.6300770308
 20
11.1780780932
 30
0.0
 10
11.630948091
 20
11.1796291781
 30
0.0
 10
11.6318537127
 20
11.1815817173
 30
0.0
 10
11.6326421214
 20
11.1839656026
 30
0.0
 10
11.6331163821
 20
11.1863578524
 30
0.0
 10
11.6332221979
 20
11.1879609639
 30
0.0
 10
11.6332222015
 20
11.1887552811
 30
0.0
  0
SPLINE
  5
376
100
AcDbEntity
  8
0
100
AcDbSpline
 62
7
  6
CONTINUOUS
 70
0
 71
3
 72
17
 73
13
 74
0
 42
0.0000001
 43
0.0000001
 44
0.0000000001
 40
0.0
 40
0.0
 40
0.0
 40
0.0
 40
0.0593778518
 40
0.1192871061
 40
0.1798210698
 40
0.2409192693
 40
0.3645232248
 40
0.489766381
 40
0.6162727947
 40
0.7436913884
 40
0.871704303
 40
1.0
 40
1.0
 40
1.0
 40
1.0
 10
11.1215113154
 20
11.2695093521
 30
0.0
 10
11.1203925525
 20
11.2683123974
 30
0.0
 10
11.1181930773
 20
11.2658622862
 30
0.0
 10
11.1150336608
 20
11.2620346739
 30
0.0
 10
11.1120112319
 20
11.2580379662
 30
0.0
 10
11.1081679641
 20
11.2524664599
 30
0.0
 10
11.1037911445
 20
11.2451040372
 30
0.0
 10
11.0993420958
 20
11.2357345529
 30
0.0
 10
11.095773631
 20
11.225882176
 30
0.0
 10
11.0931659045
 20
11.2156533342
 30
0.0
 10
11.0915777148
 20
11.2051681288
 30
0.0
 10
11.0912222063
 20
11.1980907663
 30
0.0
 10
11.0912222063
 20
11.194550747
 30
0.0
  0
SPLINE
  5
377
100
AcDbEntity
  8
0
100
AcDbSpline
 62
7
  6
CONTINUOUS
 70
0
 71
3
 72
22
 73
18
 74
0
 42
0.0000001
 43
0.0000001
 44
0.0000000001
 40
0.0
 40
0.0
 40
0.0
 40
0.0
 40
0.0426050524
 40
0.0876498135
 40
0.1352382123
 40
0.1854504991
 40
0.2383445276
 40
0.2939612819
 40
0.3523255541
 40
0.4134493812
 40
0.4773333514
 40
0.5439676048
 40
0.6133343526
 40
0.685406886
 40
0.7601527946
 40
0.8375320835
 40
1.0
 40
1.0
 40
1.0
 40
1.0
 10
11.6029330849
 20
11.2695093513
 30
0.0
 10
11.6023150889
 20
11.2701705454
 30
0.0
 10
11.6009962759
 20
11.2714870118
 30
0.0
 10
11.5988433715
 20
11.2733912924
 30
0.0
 10
11.5964643787
 20
11.2752770706
 30
0.0
 10
11.5938615758
 20
11.2771424987
 30
0.0
 10
11.5910373877
 20
11.2789860487
 30
0.0
 10
11.5879944113
 20
11.280805967
 30
0.0
 10
11.584735505
 20
11.2826006262
 30
0.0
 10
11.5812637127
 20
11.2843683305
 30
0.0
 10
11.5775823001
 20
11.2861074069
 30
0.0
 10
11.573694752
 20
11.2878162407
 30
0.0
 10
11.5696047349
 20
11.289493152
 30
0.0
 10
11.5653161505
 20
11.2911365996
 30
0.0
 10
11.560833042
 20
11.2927449656
 30
0.0
 10
11.5544986106
 20
11.2948753501
 30
0.0
 10
11.5496238295
 20
11.2963618112
 30
0.0
 10
11.5463070411
 20
11.2973157046
 30
0.0
  0
SPLINE
  5
378
100
AcDbEntity
  8
0
100
AcDbSpline
 62
7
  6
CONTINUOUS
 70
0
 71
3
 72
17
 73
13
 74
0
 42
0.0000001
 43
0.0000001
 44
0.0000000001
 40
0.0
 40
0.0
 40
0.0
 40
0.0
 40
0.1282950638
 40
0.2563077561
 40
0.3837262658
 40
0.5102327789
 40
0.6354761114
 40
0.7590804589
 40
0.8201785718
 40
0.8807125832
 40
0.9406229484
 40
1.0
 40
1.0
 40
1.0
 40
1.0
 10
11.6332222063
 20
11.194550747
 30
0.0
 10
11.6332222063
 20
11.1980907488
 30
0.0
 10
11.6328666986
 20
11.2051680875
 30
0.0
 10
11.6312785204
 20
11.2156532682
 30
0.0
 10
11.6286708032
 20
11.2258821066
 30
0.0
 10
11.6251023433
 20
11.2357344908
 30
0.0
 10
11.6206532948
 20
11.2451039958
 30
0.0
 10
11.6162764666
 20
11.2524664291
 30
0.0
 10
11.6124331955
 20
11.2580379447
 30
0.0
 10
11.6094107532
 20
11.2620346795
 30
0.0
 10
11.606251322
 20
11.2658622925
 30
0.0
 10
11.6040518451
 20
11.2683124135
 30
0.0
 10
11.6029330972
 20
11.2695093521
 30
0.0
  0
SPLINE
  5
379
100
AcDbEntity
  8
0
100
AcDbSpline
 62
7
  6
CONTINUOUS
 70
0
 71
3
 72
29
 73
25
 74
0
 42
0.0000001
 43
0.0000001
 44
0.0000000001
 40
0.0
 40
0.0
 40
0.0
 40
0.0
 40
0.0165873793
 40
0.0341542792
 40
0.052731078
 40
0.0723397637
 40
0.0929946643
 40
0.1147044225
 40
0.1374718304
 40
0.1612956515
 40
0.1861702458
 40
0.2120867859
 40
0.2390332236
 40
0.2669946715
 40
0.3258888678
 40
0.3886081842
 40
0.4549576693
 40
0.5247164573
 40
0.5976411783
 40
0.673468788
 40
0.7519197265
 40
0.8326980275
 40
0.9154988054
 40
1.0
 40
1.0
 40
1.0
 40
1.0
 10
11.1695358991
 20
11.2405678178
 30
0.0
 10
11.1701322555
 20
11.2400128512
 30
0.0
 10
11.1713971605
 20
11.2389094341
 30
0.0
 10
11.1734411782
 20
11.2373174852
 30
0.0
 10
11.1756830563
 20
11.2357437074
 30
0.0
 10
11.1781204371
 20
11.2341897684
 30
0.0
 10
11.1807508446
 20
11.2326571193
 30
0.0
 10
11.1835716138
 20
11.2311473972
 30
0.0
 10
11.18657982
 20
11.229662068
 30
0.0
 10
11.1897723827
 20
11.2282027399
 30
0.0
 10
11.1931459796
 20
11.2267708764
 30
0.0
 10
11.1966971153
 20
11.2253680124
 30
0.0
 10
11.2004220927
 20
11.2239955868
 30
0.0
 10
11.2057072253
 20
11.2221766693
 30
0.0
 10
11.2127247283
 20
11.2199983972
 30
0.0
 10
11.2216326253
 20
11.2175708177
 30
0.0
 10
11.2311303554
 20
11.2152967213
 30
0.0
 10
11.2411781695
 20
11.2131857676
 30
0.0
 10
11.251734108
 20
11.2112469578
 30
0.0
 10
11.262753976
 20
11.2094885351
 30
0.0
 10
11.2741915423
 20
11.2079180022
 30
0.0
 10
11.2859989283
 20
11.2065419977
 30
0.0
 10
11.298126421
 20
11.205366423
 30
0.0
 10
11.3063183875
 20
11.2047253037
 30
0.0
 10
11.31045844
 20
11.2044381901
 30
0.0
  0
SPLINE
  5
37A
100
AcDbEntity
  8
0
100
AcDbSpline
 62
7
  6
CONTINUOUS
 70
0
 71
3
 72
23
 73
19
 74
0
 42
0.0000001
 43
0.0000001
 44
0.0000000001
 40
0.0
 40
0.0
 40
0.0
 40
0.0
 40
0.0426548202
 40
0.0874243476
 40
0.1345843655
 40
0.1843657174
 40
0.2369455686
 40
0.2924428986
 40
0.3509182458
 40
0.4123773515
 40
0.4767774932
 40
0.5440355405
 40
0.6140367699
 40
0.6866436272
 40
0.7617038877
 40
0.8390574769
 40
0.9185430042
 40
1.0
 40
1.0
 40
1.0
 40
1.0
 10
11.6173113208
 20
10.957891504
 30
0.0
 10
11.6185586868
 20
10.9585073254
 30
0.0
 10
11.6210638555
 20
10.959876068
 30
0.0
 10
11.6247459015
 20
10.9622720801
 30
0.0
 10
11.6284327195
 20
10.9650650443
 30
0.0
 10
11.6321211653
 20
10.9682594909
 30
0.0
 10
11.6358085752
 20
10.9718560276
 30
0.0
 10
11.6394922158
 20
10.9758509517
 30
0.0
 10
11.6431695154
 20
10.9802364564
 30
0.0
 10
11.6468380613
 20
10.9850009693
 30
0.0
 10
11.6504956855
 20
10.9901296849
 30
0.0
 10
11.6541405163
 20
10.9956052105
 30
0.0
 10
11.6577710185
 20
11.001408273
 30
0.0
 10
11.6613860107
 20
11.0075184224
 30
0.0
 10
11.6649846604
 20
11.0139146748
 30
0.0
 10
11.6685664673
 20
11.0205761028
 30
0.0
 10
11.6721311926
 20
11.0274822161
 30
0.0
 10
11.6744691747
 20
11.0321817837
 30
0.0
 10
11.6756369629
 20
11.0345678985
 30
0.0
  0
SPLINE
  5
37B
100
AcDbEntity
  8
0
100
AcDbSpline
 62
7
  6
CONTINUOUS
 70
0
 71
3
 72
22
 73
18
 74
0
 42
0.0000001
 43
0.0000001
 44
0.0000000001
 40
0.0
 40
0.0
 40
0.0
 40
0.0
 40
0.0418467589
 40
0.0867269453
 40
0.1347124225
 40
0.1858110053
 40
0.2399771553
 40
0.2971220535
 40
0.3571242356
 40
0.4198401442
 40
0.4851118166
 40
0.5527743447
 40
0.6226619396
 40
0.6946108216
 40
0.7684637798
 40
0.8440719523
 40
1.0
 40
1.0
 40
1.0
 40
1.0
 10
11.0914852953
 20
11.1724919624
 30
0.0
 10
11.0905232786
 20
11.1715966772
 30
0.0
 10
11.088602325
 20
11.1696620132
 30
0.0
 10
11.0858245311
 20
11.1664680096
 30
0.0
 10
11.0830549822
 20
11.1628918332
 30
0.0
 10
11.0802970262
 20
11.1589457898
 30
0.0
 10
11.0775534884
 20
11.1546446727
 30
0.0
 10
11.0748269825
 20
11.1500056156
 30
0.0
 10
11.0721196521
 20
11.1450473631
 30
0.0
 10
11.0694332934
 20
11.139789602
 30
0.0
 10
11.0667692612
 20
11.1342524095
 30
0.0
 10
11.0641284566
 20
11.1284557767
 30
0.0
 10
11.0615114583
 20
11.1224191851
 30
0.0
 10
11.0589184797
 20
11.1161613404
 30
0.0
 10
11.0563494381
 20
11.1096999382
 30
0.0
 10
11.0529204323
 20
11.1007432376
 30
0.0
 10
11.050437901
 20
11.093908249
 30
0.0
 10
11.0488074498
 20
11.0892908879
 30
0.0
  0
SPLINE
  5
37C
100
AcDbEntity
  8
0
100
AcDbSpline
 62
7
  6
CONTINUOUS
 70
0
 71
3
 72
16
 73
12
 74
0
 42
0.0000001
 43
0.0000001
 44
0.0000000001
 40
0.0
 40
0.0
 40
0.0
 40
0.0
 40
0.1090280546
 40
0.2197798291
 40
0.3338935537
 40
0.4528535304
 40
0.5145824887
 40
0.5779900438
 40
0.7103116704
 40
0.8507454244
 40
1.0
 40
1.0
 40
1.0
 40
1.0
 10
11.0912222111
 20
11.1887551023
 30
0.0
 10
11.0912222074
 20
11.1879607863
 30
0.0
 10
11.0913280597
 20
11.1863576767
 30
0.0
 10
11.0918023369
 20
11.1839654332
 30
0.0
 10
11.0925907618
 20
11.181581549
 30
0.0
 10
11.0934964137
 20
11.1796290246
 30
0.0
 10
11.0943674584
 20
11.1780779273
 30
0.0
 10
11.0953661493
 20
11.1764893904
 30
0.0
 10
11.0968161195
 20
11.1745112198
 30
0.0
 10
11.0988358041
 20
11.172189271
 30
0.0
 10
11.1003359665
 20
11.1707019232
 30
0.0
 10
11.1011319857
 20
11.1699611422
 30
0.0
  0
SPLINE
  5
37D
100
AcDbEntity
  8
0
100
AcDbSpline
 62
7
  6
CONTINUOUS
 70
0
 71
3
 72
28
 73
24
 74
0
 42
0.0000001
 43
0.0000001
 44
0.0000000001
 40
0.0
 40
0.0
 40
0.0
 40
0.0
 40
0.0295256316
 40
0.0457792095
 40
0.0631224013
 40
0.0816106081
 40
0.1012848614
 40
0.1221731658
 40
0.1442931387
 40
0.1676541827
 40
0.1922575068
 40
0.2180990536
 40
0.2451685782
 40
0.3029252564
 40
0.3653692727
 40
0.4322838407
 40
0.5034086612
 40
0.5784470322
 40
0.657070716
 40
0.7389255132
 40
0.823631153
 40
0.9107970402
 40
1.0
 40
1.0
 40
1.0
 40
1.0
 10
11.263426317
 20
11.7333967486
 30
0.0
 10
11.2638211472
 20
11.7327441823
 30
0.0
 10
11.2645458776
 20
11.7317985494
 30
0.0
 10
11.2656831688
 20
11.7306294133
 30
0.0
 10
11.2666886475
 20
11.7297334845
 30
0.0
 10
11.2678174086
 20
11.7288480818
 30
0.0
 10
11.2690683824
 20
11.7279739457
 30
0.0
 10
11.2704399103
 20
11.7271121702
 30
0.0
 10
11.2719303059
 20
11.7262637649
 30
0.0
 10
11.2735377064
 20
11.725429838
 30
0.0
 10
11.2752600573
 20
11.7246113829
 30
0.0
 10
11.2770951889
 20
11.7238094903
 30
0.0
 10
11.2797469758
 20
11.7227405428
 30
0.0
 10
11.2833311749
 20
11.721460259
 30
0.0
 10
11.287951768
 20
11.720036792
 30
0.0
 10
11.2929569942
 20
11.7187023013
 30
0.0
 10
11.2983210742
 20
11.7174638027
 30
0.0
 10
11.3040164426
 20
11.7163278469
 30
0.0
 10
11.3100136957
 20
11.7153004174
 30
0.0
 10
11.3162817589
 20
11.7143869559
 30
0.0
 10
11.3227882897
 20
11.7135922235
 30
0.0
 10
11.3294993894
 20
11.7129204791
 30
0.0
 10
11.3340415278
 20
11.7125605347
 30
0.0
 10
11.3363403232
 20
11.7124011127
 30
0.0
  0
SPLINE
  5
37E
100
AcDbEntity
  8
0
100
AcDbSpline
 62
7
  6
CONTINUOUS
 70
0
 71
3
 72
16
 73
12
 74
0
 42
0.0000001
 43
0.0000001
 44
0.0000000001
 40
0.0
 40
0.0
 40
0.0
 40
0.0
 40
0.1492536813
 40
0.2896871711
 40
0.4220088966
 40
0.48541608
 40
0.5471453813
 40
0.6661059503
 40
0.7802196838
 40
0.8909719095
 40
1.0
 40
1.0
 40
1.0
 40
1.0
 10
11.5394939246
 20
11.7202178075
 30
0.0
 10
11.540034379
 20
11.7197148623
 30
0.0
 10
11.5410528911
 20
11.7187050202
 30
0.0
 10
11.5424241419
 20
11.7171285417
 30
0.0
 10
11.5434086073
 20
11.7157854794
 30
0.0
 10
11.5440866434
 20
11.7147069326
 30
0.0
 10
11.5446780538
 20
11.713653827
 30
0.0
 10
11.545292971
 20
11.7123281713
 30
0.0
 10
11.545828248
 20
11.71070963
 30
0.0
 10
11.5461503331
 20
11.7090854347
 30
0.0
 10
11.5462221775
 20
11.7079970036
 30
0.0
 10
11.5462221913
 20
11.7074577049
 30
0.0
  0
SPLINE
  5
37F
100
AcDbEntity
  8
0
100
AcDbSpline
 62
7
  6
CONTINUOUS
 70
0
 71
3
 72
31
 73
27
 74
0
 42
0.0000001
 43
0.0000001
 44
0.0000000001
 40
0.0
 40
0.0
 40
0.0
 40
0.0
 40
0.0148672624
 40
0.0310576496
 40
0.0486189818
 40
0.0675773011
 40
0.0879410899
 40
0.1097053562
 40
0.1328538431
 40
0.1573607872
 40
0.1831928638
 40
0.210309707
 40
0.2386651021
 40
0.2682076951
 40
0.2988811526
 40
0.3306252191
 40
0.3633757789
 40
0.397065194
 40
0.4669732947
 40
0.539755208
 40
0.6147790787
 40
0.6913862655
 40
0.7688998767
 40
0.8466326052
 40
0.9238933613
 40
1.0
 40
1.0
 40
1.0
 40
1.0
 10
11.2148166501
 20
11.7480114067
 30
0.0
 10
11.2155130791
 20
11.7486595168
 30
0.0
 10
11.2170345622
 20
11.7499426844
 30
0.0
 10
11.2195650907
 20
11.751756684
 30
0.0
 10
11.22243288
 20
11.7535362475
 30
0.0
 10
11.2256313192
 20
11.755277279
 30
0.0
 10
11.22915328
 20
11.7569760378
 30
0.0
 10
11.2329907053
 20
11.7586285587
 30
0.0
 10
11.2371347341
 20
11.7602309679
 30
0.0
 10
11.2415756951
 20
11.7617795036
 30
0.0
 10
11.2463031878
 20
11.7632704306
 30
0.0
 10
11.2513060775
 20
11.7647002131
 30
0.0
 10
11.2565725548
 20
11.7660654295
 30
0.0
 10
11.2620901633
 20
11.7673627762
 30
0.0
 10
11.2678458237
 20
11.7685891826
 30
0.0
 10
11.2738258843
 20
11.7697416761
 30
0.0
 10
11.2800161648
 20
11.7708175185
 30
0.0
 10
11.2886370048
 20
11.7721628657
 30
0.0
 10
11.2998301473
 20
11.7736265773
 30
0.0
 10
11.3136933419
 20
11.7750215416
 30
0.0
 10
11.3280173932
 20
11.7760622415
 30
0.0
 10
11.3426662423
 20
11.7767386118
 30
0.0
 10
11.3575008353
 20
11.7770440714
 30
0.0
 10
11.3723802524
 20
11.7769756555
 30
0.0
 10
11.3871631161
 20
11.776534062
 30
0.0
 10
11.396963142
 20
11.7759879917
 30
0.0
 10
11.4018214875
 20
11.7756510643
 30
0.0
  0
SPLINE
  5
380
100
AcDbEntity
  8
0
100
AcDbSpline
 62
7
  6
CONTINUOUS
 70
0
 71
3
 72
16
 73
12
 74
0
 42
0.0000001
 43
0.0000001
 44
0.0000000001
 40
0.0
 40
0.0
 40
0.0
 40
0.0
 40
0.109028367
 40
0.2197804668
 40
0.3338938052
 40
0.4528538126
 40
0.5145828484
 40
0.5779898257
 40
0.7103114452
 40
0.8507453433
 40
1.0
 40
1.0
 40
1.0
 40
1.0
 10
11.1782222214
 20
11.7074570775
 30
0.0
 10
11.1782222076
 20
11.7079964036
 30
0.0
 10
11.1782940038
 20
11.7090848917
 30
0.0
 10
11.1786160414
 20
11.710709177
 30
0.0
 10
11.1791512937
 20
11.7123278078
 30
0.0
 10
11.1797662087
 20
11.713653536
 30
0.0
 10
11.180357628
 20
11.7147066976
 30
0.0
 10
11.1810356815
 20
11.7157853026
 30
0.0
 10
11.1820201842
 20
11.7171284379
 30
0.0
 10
11.1833915003
 20
11.7187050016
 30
0.0
 10
11.1844100674
 20
11.7197148963
 30
0.0
 10
11.1849505527
 20
11.7202178676
 30
0.0
  0
SPLINE
  5
381
100
AcDbEntity
  8
0
100
AcDbSpline
 62
7
  6
CONTINUOUS
 70
0
 71
3
 72
42
 73
38
 74
0
 42
0.0000001
 43
0.0000001
 44
0.0000000001
 40
0.0
 40
0.0
 40
0.0
 40
0.0
 40
0.0055576439
 40
0.0111781823
 40
0.0169222325
 40
0.0228462152
 40
0.0290011274
 40
0.0354316343
 40
0.0421762041
 40
0.0492672095
 40
0.0567313683
 40
0.0645906554
 40
0.0728624956
 40
0.0815606736
 40
0.0906958242
 40
0.1002755871
 40
0.1103054627
 40
0.1207887128
 40
0.1431176143
 40
0.1672589275
 40
0.193186654
 40
0.2208586064
 40
0.250219186
 40
0.2812015833
 40
0.3137293045
 40
0.3477173355
 40
0.3830731799
 40
0.4196977335
 40
0.4574860579
 40
0.4963280695
 40
0.5361091027
 40
0.5767104867
 40
0.6598809029
 40
0.7448350332
 40
0.8305371445
 40
0.9159392132
 40
1.0
 40
1.0
 40
1.0
 40
1.0
 10
11.5462221915
 20
11.5152382006
 30
0.0
 10
11.5462221937
 20
11.5147830206
 30
0.0
 10
11.5461712535
 20
11.5138667157
 30
0.0
 10
11.5459425179
 20
11.5124971508
 30
0.0
 10
11.5455618836
 20
11.5111306444
 30
0.0
 10
11.5450301164
 20
11.5097687618
 30
0.0
 10
11.5443480063
 20
11.5084126491
 30
0.0
 10
11.5435165683
 20
11.5070632958
 30
0.0
 10
11.5425366857
 20
11.5057216606
 30
0.0
 10
11.5414093286
 20
11.5043886506
 30
0.0
 10
11.5401355414
 20
11.503065122
 30
0.0
 10
11.5387163358
 20
11.5017520555
 30
0.0
 10
11.5371529107
 20
11.5004503414
 30
0.0
 10
11.5354465044
 20
11.4991609513
 30
0.0
 10
11.5335984578
 20
11.4978848932
 30
0.0
 10
11.5316102756
 20
11.4966231026
 30
0.0
 10
11.5294835158
 20
11.4953765967
 30
0.0
 10
11.526400078
 20
11.4937009218
 30
0.0
 10
11.5222027805
 20
11.4916600005
 30
0.0
 10
11.5167453976
 20
11.4893362747
 30
0.0
 10
11.5107833696
 20
11.4870964872
 30
0.0
 10
11.504335948
 20
11.4849479736
 30
0.0
 10
11.4974238362
 20
11.4828977905
 30
0.0
 10
11.4900694341
 20
11.4809527153
 30
0.0
 10
11.4822966315
 20
11.4791191889
 30
0.0
 10
11.4741307495
 20
11.4774032922
 30
0.0
 10
11.4655984417
 20
11.4758106987
 30
0.0
 10
11.4567275893
 20
11.4743466794
 30
0.0
 10
11.4475471971
 20
11.4730160797
 30
0.0
 10
11.438087306
 20
11.4718233168
 30
0.0
 10
11.4283788603
 20
11.4707722998
 30
0.0
 10
11.4150385272
 20
11.469554963
 30
0.0
 10
11.39797827
 20
11.4684179771
 30
0.0
 10
11.3771999174
 20
11.4676697784
 30
0.0
 10
11.3562256243
 20
11.4675373266
 30
0.0
 10
11.3353299375
 20
11.4680223593
 30
0.0
 10
11.3214677586
 20
11.4687618631
 30
0.0
 10
11.3145995413
 20
11.4692381756
 30
0.0
  0
SPLINE
  5
382
100
AcDbEntity
  8
0
100
AcDbSpline
 62
7
  6
CONTINUOUS
 70
0
 71
3
 72
19
 73
15
 74
0
 42
0.0000001
 43
0.0000001
 44
0.0000000001
 40
0.0
 40
0.0
 40
0.0
 40
0.0
 40
0.0544256394
 40
0.1090684529
 40
0.1641428696
 40
0.219857691
 40
0.2764139835
 40
0.3340032841
 40
0.4529438432
 40
0.5146627471
 40
0.5780597989
 40
0.7103596
 40
0.8507702011
 40
1.0
 40
1.0
 40
1.0
 40
1.0
 10
11.9562221874
 20
10.8931818713
 30
0.0
 10
11.9562221875
 20
10.8940511194
 30
0.0
 10
11.9561650189
 20
10.89579362
 30
0.0
 10
11.9559079344
 20
10.898404323
 30
0.0
 10
11.955479551
 20
10.9010133858
 30
0.0
 10
11.9548801448
 20
10.9036197909
 30
0.0
 10
11.9541099179
 20
10.9062228554
 30
0.0
 10
11.9528422997
 20
10.9097249495
 30
0.0
 10
11.9512375309
 20
10.9131852107
 30
0.0
 10
11.9493283693
 20
10.9165848377
 30
0.0
 10
11.9471393995
 20
10.9200667623
 30
0.0
 10
11.943961292
 20
10.9244026359
 30
0.0
 10
11.9395344362
 20
10.9294920497
 30
0.0
 10
11.9362463233
 20
10.9327521464
 30
0.0
 10
11.9345015554
 20
10.9343758301
 30
0.0
  0
SPLINE
  5
383
100
AcDbEntity
  8
0
100
AcDbSpline
 62
7
  6
CONTINUOUS
 70
0
 71
3
 72
10
 73
6
 74
0
 42
0.0000001
 43
0.0000001
 44
0.0000000001
 40
0.0
 40
0.0
 40
0.0
 40
0.0
 40
0.4960600757
 40
0.747107117
 40
1.0
 40
1.0
 40
1.0
 40
1.0
 10
10.7682110462
 20
10.3716010512
 30
0.0
 10
10.7538573722
 20
10.3642029357
 30
0.0
 10
10.7325217187
 20
10.3525048362
 30
0.0
 10
10.7044991457
 20
10.3359374485
 30
0.0
 10
10.6905461903
 20
10.3273078374
 30
0.0
 10
10.683584537
 20
10.3229139015
 30
0.0
  0
SPLINE
  5
384
100
AcDbEntity
  8
0
100
AcDbSpline
 62
7
  6
CONTINUOUS
 70
0
 71
3
 72
15
 73
11
 74
0
 42
0.0000001
 43
0.0000001
 44
0.0000000001
 40
0.0
 40
0.0
 40
0.0
 40
0.0
 40
0.1451058255
 40
0.2843651823
 40
0.4177980792
 40
0.5454467427
 40
0.6673773125
 40
0.7836889916
 40
0.894511023
 40
1.0
 40
1.0
 40
1.0
 40
1.0
 10
10.6717547148
 20
9.6538360955
 30
0.0
 10
10.6684920457
 20
9.6522243999
 30
0.0
 10
10.6621389552
 20
9.6489823289
 30
0.0
 10
10.6529460663
 20
9.6439518555
 30
0.0
 10
10.6442924907
 20
9.638857511
 30
0.0
 10
10.6361847314
 20
9.6337032337
 30
0.0
 10
10.628628824
 20
9.6284926861
 30
0.0
 10
10.6216302055
 20
9.623229576
 30
0.0
 10
10.615194532
 20
9.6179178727
 30
0.0
 10
10.6111857709
 20
9.6142586197
 30
0.0
 10
10.6092829801
 20
9.6124206648
 30
0.0
  0
SPLINE
  5
385
100
AcDbEntity
  8
0
100
AcDbSpline
 62
7
  6
CONTINUOUS
 70
0
 71
3
 72
25
 73
21
 74
0
 42
0.0000001
 43
0.0000001
 44
0.0000000001
 40
0.0
 40
0.0
 40
0.0
 40
0.0
 40
0.0224754723
 40
0.0450219838
 40
0.067709811
 40
0.0906078129
 40
0.1372820545
 40
0.1855638233
 40
0.2359007554
 40
0.2886809173
 40
0.3442332559
 40
0.4028305475
 40
0.4646951354
 40
0.5300051747
 40
0.5989001987
 40
0.6714875089
 40
0.7478458166
 40
0.8280306259
 40
0.9120762994
 40
1.0
 40
1.0
 40
1.0
 40
1.0
 10
12.1417222005
 20
9.5602046365
 30
0.0
 10
12.1417221961
 20
9.5612192822
 30
0.0
 10
12.1416628552
 20
9.5632522795
 30
0.0
 10
12.1413960358
 20
9.5662989589
 30
0.0
 10
12.1409514512
 20
9.5693442436
 30
0.0
 10
12.1401168646
 20
9.5734267182
 30
0.0
 10
12.1386147083
 20
9.5785426733
 30
0.0
 10
12.1361134332
 20
9.584617924
 30
0.0
 10
12.1329062576
 20
9.590664794
 30
0.0
 10
12.1289981441
 20
9.5966778984
 30
0.0
 10
12.1243938112
 20
9.6026529008
 30
0.0
 10
12.1190982129
 20
9.608585445
 30
0.0
 10
12.1131164698
 20
9.614471164
 30
0.0
 10
12.1064540333
 20
9.6203055017
 30
0.0
 10
12.099116891
 20
9.6260838858
 30
0.0
 10
12.0911114574
 20
9.6318014694
 30
0.0
 10
12.0824448466
 20
9.6374535175
 30
0.0
 10
12.0731246325
 20
9.6430350684
 30
0.0
 10
12.0631592271
 20
9.648541261
 30
0.0
 10
12.0562470061
 20
9.6520788571
 30
0.0
 10
12.0526882451
 20
9.6538368084
 30
0.0
  0
SPLINE
  5
386
100
AcDbEntity
  8
0
100
AcDbSpline
 62
7
  6
CONTINUOUS
 70
0
 71
3
 72
18
 73
14
 74
0
 42
0.0000001
 43
0.0000001
 44
0.0000000001
 40
0.0
 40
0.0
 40
0.0
 40
0.0
 40
0.0548621148
 40
0.109928141
 40
0.1653995718
 40
0.22147319
 40
0.2783387543
 40
0.3361775231
 40
0.4554063036
 40
0.5804414032
 40
0.7123341497
 40
0.8519582094
 40
1.0
 40
1.0
 40
1.0
 40
1.0
 10
10.5827222122
 20
9.5602036677
 30
0.0
 10
10.5827222074
 20
9.5613045492
 30
0.0
 10
10.5827920706
 20
9.5635110362
 30
0.0
 10
10.5831062038
 20
9.5668171806
 30
0.0
 10
10.5836296391
 20
9.5701214173
 30
0.0
 10
10.5843621788
 20
9.5734225403
 30
0.0
 10
10.5853035144
 20
9.576719725
 30
0.0
 10
10.5868518363
 20
9.5811535483
 30
0.0
 10
10.5893322317
 20
9.5866990696
 30
0.0
 10
10.5931075581
 20
9.5932483588
 30
0.0
 10
10.5977057231
 20
9.599755266
 30
0.0
 10
10.6031197315
 20
9.6062132333
 30
0.0
 10
10.6071463223
 20
9.6103568117
 30
0.0
 10
10.6092829801
 20
9.6124206648
 30
0.0
  0
SPLINE
  5
387
100
AcDbEntity
  8
0
100
AcDbSpline
 62
7
  6
CONTINUOUS
 70
0
 71
3
 72
23
 73
19
 74
0
 42
0.0000001
 43
0.0000001
 44
0.0000000001
 40
0.0
 40
0.0
 40
0.0
 40
0.0
 40
0.0393930026
 40
0.0817911442
 40
0.1272987858
 40
0.1759806303
 40
0.2278692071
 40
0.2829710478
 40
0.3412710269
 40
0.402735494
 40
0.4673153538
 40
0.5349481332
 40
0.6055592138
 40
0.6790634706
 40
0.7553665244
 40
0.834365359
 40
0.9159491084
 40
1.0
 40
1.0
 40
1.0
 40
1.0
 10
11.8747684398
 20
10.9899637639
 30
0.0
 10
11.8727046106
 20
10.9918843773
 30
0.0
 10
11.8682518835
 20
10.9956941857
 30
0.0
 10
11.8609315901
 20
11.0011272037
 30
0.0
 10
11.8527428783
 20
11.0064752308
 30
0.0
 10
11.8436999104
 20
11.0117292538
 30
0.0
 10
11.8338176029
 20
11.016880854
 30
0.0
 10
11.8231126702
 20
11.0219212863
 30
0.0
 10
11.8116033041
 20
11.0268418994
 30
0.0
 10
11.7993092541
 20
11.0316341969
 30
0.0
 10
11.7862516977
 20
11.0362898222
 30
0.0
 10
11.772453207
 20
11.0408005976
 30
0.0
 10
11.7579377256
 20
11.0451586262
 30
0.0
 10
11.7427304912
 20
11.0493562575
 30
0.0
 10
11.7268579725
 20
11.0533860847
 30
0.0
 10
11.7103478212
 20
11.0572410239
 30
0.0
 10
11.6932289045
 20
11.0609143031
 30
0.0
 10
11.6815976525
 20
11.0632047731
 30
0.0
 10
11.6756867344
 20
11.0643204328
 30
0.0
  0
SPLINE
  5
388
100
AcDbEntity
  8
0
100
AcDbSpline
 62
7
  6
CONTINUOUS
 70
0
 71
3
 72
23
 73
19
 74
0
 42
0.0000001
 43
0.0000001
 44
0.0000000001
 40
0.0
 40
0.0
 40
0.0
 40
0.0
 40
0.0840492958
 40
0.1656315171
 40
0.2446287687
 40
0.3209303208
 40
0.3944333329
 40
0.4650433064
 40
0.5326751338
 40
0.597254471
 40
0.6587187207
 40
0.7170187101
 40
0.7721210426
 40
0.8240106243
 40
0.8726937944
 40
0.9182027722
 40
0.9606038956
 40
1.0
 40
1.0
 40
1.0
 40
1.0
 10
11.0487047049
 20
11.0643104308
 30
0.0
 10
11.0427954584
 20
11.0631948049
 30
0.0
 10
11.0311675039
 20
11.0609044019
 30
0.0
 10
11.014053451
 20
11.0572313545
 30
0.0
 10
10.9975480126
 20
11.0533767065
 30
0.0
 10
10.9816800297
 20
11.0493472533
 30
0.0
 10
10.9664771256
 20
11.0451500987
 30
0.0
 10
10.9519657658
 20
11.0407926115
 30
0.0
 10
10.938171172
 20
11.0362824309
 30
0.0
 10
10.9251172531
 20
11.0316274977
 30
0.0
 10
10.912826578
 20
11.0268359551
 30
0.0
 10
10.9013203293
 20
11.0219161235
 30
0.0
 10
10.890618207
 20
11.0168765588
 30
0.0
 10
10.8807383976
 20
11.0117258807
 30
0.0
 10
10.8716976706
 20
11.006472792
 30
0.0
 10
10.8635108056
 20
11.0011257672
 30
0.0
 10
10.8561920076
 20
10.9956937439
 30
0.0
 10
10.851740117
 20
10.9918845942
 30
0.0
 10
10.849676616
 20
10.9899643582
 30
0.0
  0
SPLINE
  5
389
100
AcDbEntity
  8
0
100
AcDbSpline
 62
7
  6
CONTINUOUS
 70
0
 71
3
 72
31
 73
27
 74
0
 42
0.0000001
 43
0.0000001
 44
0.0000000001
 40
0.0
 40
0.0
 40
0.0
 40
0.0
 40
0.0571421947
 40
0.0856493527
 40
0.1141264979
 40
0.1710440383
 40
0.199533522
 40
0.2280737112
 40
0.2566946451
 40
0.2854301309
 40
0.3143175993
 40
0.3433969943
 40
0.3727094555
 40
0.4022961401
 40
0.4321964269
 40
0.4624459518
 40
0.4930752916
 40
0.5241087381
 40
0.5555633283
 40
0.5874486708
 40
0.6525032241
 40
0.7192339278
 40
0.787515674
 40
0.8571854753
 40
0.9280691974
 40
1.0
 40
1.0
 40
1.0
 40
1.0
 10
11.0488074498
 20
11.0892908879
 30
0.0
 10
11.0532656363
 20
11.0911820234
 30
0.0
 10
11.0600218261
 20
11.0938486392
 30
0.0
 10
11.0691672657
 20
11.0970005354
 30
0.0
 10
11.0783891565
 20
11.0998570374
 30
0.0
 10
11.0877509944
 20
11.1022447423
 30
0.0
 10
11.0972322451
 20
11.1040888886
 30
0.0
 10
11.1044101272
 20
11.1051840649
 30
0.0
 10
11.1116492308
 20
11.1059725534
 30
0.0
 10
11.1189460618
 20
11.1064369907
 30
0.0
 10
11.1262956601
 20
11.1065609052
 30
0.0
 10
11.1336917455
 20
11.1063293675
 30
0.0
 10
11.1411266975
 20
11.1057298339
 30
0.0
 10
11.1485917127
 20
11.1047524866
 30
0.0
 10
11.1560769864
 20
11.1033906762
 30
0.0
 10
11.1635720585
 20
11.1016416215
 30
0.0
 10
11.1710661811
 20
11.0995063939
 30
0.0
 10
11.1785486257
 20
11.0969898032
 30
0.0
 10
11.1860092316
 20
11.0941002173
 30
0.0
 10
11.1959805286
 20
11.0897372748
 30
0.0
 10
11.2083369869
 20
11.083402052
 30
0.0
 10
11.2228464588
 20
11.0746066479
 30
0.0
 10
11.237109899
 20
11.0647183226
 30
0.0
 10
11.2511151116
 20
11.0538865138
 30
0.0
 10
11.2648634323
 20
11.0422489558
 30
0.0
 10
11.2738053697
 20
11.0340881994
 30
0.0
 10
11.2782430397
 20
11.0299086629
 30
0.0
  0
SPLINE
  5
38A
100
AcDbEntity
  8
0
100
AcDbSpline
 62
7
  6
CONTINUOUS
 70
0
 71
3
 72
22
 73
18
 74
0
 42
0.0000001
 43
0.0000001
 44
0.0000000001
 40
0.0
 40
0.0
 40
0.0
 40
0.0
 40
0.1228667838
 40
0.1844799434
 40
0.2462287983
 40
0.3081280891
 40
0.3701910546
 40
0.4324281476
 40
0.4948457867
 40
0.5574455597
 40
0.6202239553
 40
0.6831727677
 40
0.7462801314
 40
0.8095317998
 40
0.8729124571
 40
0.9364066745
 40
1.0
 40
1.0
 40
1.0
 40
1.0
 10
11.2782430397
 20
10.9317148222
 30
0.0
 10
11.2910011637
 20
10.9289166491
 30
0.0
 10
11.3102702769
 20
10.9251965977
 30
0.0
 10
11.3361771718
 20
10.9214314807
 30
0.0
 10
11.3557557187
 20
10.9192607887
 30
0.0
 10
11.3754487716
 20
10.9178057159
 30
0.0
 10
11.3952361293
 20
10.9171190541
 30
0.0
 10
11.4150905171
 20
10.9172423298
 30
0.0
 10
11.434979448
 20
10.9182013524
 30
0.0
 10
11.4548675095
 20
10.9200033142
 30
0.0
 10
11.4747194183
 20
10.922635867
 30
0.0
 10
11.4945029927
 20
10.9260685202
 30
0.0
 10
11.5141914887
 20
10.9302559271
 30
0.0
 10
11.5337648509
 20
10.9351424437
 30
0.0
 10
11.5532099634
 20
10.9406667885
 30
0.0
 10
11.5725198415
 20
10.9467660249
 30
0.0
 10
11.5852931205
 20
10.9511715314
 30
0.0
 10
11.5916577963
 20
10.9534502478
 30
0.0
  0
SPLINE
  5
38B
100
AcDbEntity
  8
0
100
AcDbSpline
 62
7
  6
CONTINUOUS
 70
0
 71
3
 72
30
 73
26
 74
0
 42
0.0000001
 43
0.0000001
 44
0.0000000001
 40
0.0
 40
0.0
 40
0.0
 40
0.0
 40
0.0641507504
 40
0.1281931064
 40
0.1920986465
 40
0.2558330504
 40
0.3193579946
 40
0.3510334789
 40
0.3826421451
 40
0.4141794666
 40
0.445641652
 40
0.4770256768
 40
0.5083293935
 40
0.5395518388
 40
0.5706931731
 40
0.6017545888
 40
0.6327384473
 40
0.6636479989
 40
0.6944870526
 40
0.7252600703
 40
0.7559718967
 40
0.8172246986
 40
0.8782915108
 40
0.9392066819
 40
1.0
 40
1.0
 40
1.0
 40
1.0
 10
11.2782430397
 20
11.0299086629
 30
0.0
 10
11.2843403545
 20
11.0333801716
 30
0.0
 10
11.2966404619
 20
11.0401169973
 30
0.0
 10
11.3154437272
 20
11.0495033549
 30
0.0
 10
11.3346004282
 20
11.0580396172
 30
0.0
 10
11.3541093562
 20
11.0655861329
 30
0.0
 10
11.3706622962
 20
11.0709316488
 30
0.0
 10
11.3840498664
 20
11.0745636345
 30
0.0
 10
11.394145246
 20
11.076946875
 30
0.0
 10
11.4042938962
 20
11.0789764866
 30
0.0
 10
11.4144842584
 20
11.0806396175
 30
0.0
 10
11.424703324
 20
11.0819261131
 30
0.0
 10
11.4349371027
 20
11.0828293892
 30
0.0
 10
11.4451710834
 20
11.0833465595
 30
0.0
 10
11.4553907506
 20
11.0834784461
 30
0.0
 10
11.4655820758
 20
11.0832296457
 30
0.0
 10
11.4757319973
 20
11.0826084628
 30
0.0
 10
11.4858287993
 20
11.0816261502
 30
0.0
 10
11.4958623227
 20
11.0802964595
 30
0.0
 10
11.5058242999
 20
11.0786352377
 30
0.0
 10
11.5189898853
 20
11.0760037738
 30
0.0
 10
11.5352455315
 20
11.0719737215
 30
0.0
 10
11.5544132554
 20
11.0660937831
 30
0.0
 10
11.5732260753
 20
11.0593140053
 30
0.0
 10
11.5855509127
 20
11.0542740161
 30
0.0
 10
11.5916577963
 20
11.0516440885
 30
0.0
  0
SPLINE
  5
38C
100
AcDbEntity
  8
0
100
AcDbSpline
 62
7
  6
CONTINUOUS
 70
0
 71
3
 72
15
 73
11
 74
0
 42
0.0000001
 43
0.0000001
 44
0.0000000001
 40
0.0
 40
0.0
 40
0.0
 40
0.0
 40
0.1200674563
 40
0.2402885166
 40
0.3611828788
 40
0.4833659028
 40
0.6075391507
 40
0.7344784704
 40
0.8650135054
 40
1.0
 40
1.0
 40
1.0
 40
1.0
 10
11.5916577963
 20
10.9534502478
 30
0.0
 10
11.5927079142
 20
10.9533332381
 30
0.0
 10
11.5948171517
 20
10.9531619838
 30
0.0
 10
11.5979974305
 20
10.9531089881
 30
0.0
 10
11.6011928995
 20
10.9532742119
 30
0.0
 10
11.6044030712
 20
10.9536721799
 30
0.0
 10
11.607627296
 20
10.9543173747
 30
0.0
 10
11.6108645874
 20
10.9552238983
 30
0.0
 10
11.6141134163
 20
10.9564049636
 30
0.0
 10
11.6162461526
 20
10.9573656332
 30
0.0
 10
11.6173113208
 20
10.957891504
 30
0.0
  0
SPLINE
  5
38D
100
AcDbEntity
  8
0
100
AcDbSpline
 62
7
  6
CONTINUOUS
 70
0
 71
3
 72
38
 73
34
 74
0
 42
0.0000001
 43
0.0000001
 44
0.0000000001
 40
0.0
 40
0.0
 40
0.0
 40
0.0
 40
0.1018939453
 40
0.1513851106
 40
0.1997966879
 40
0.2470417496
 40
0.2930276745
 40
0.3376582067
 40
0.3808354233
 40
0.4224606873
 40
0.4624384166
 40
0.5006789125
 40
0.5371029775
 40
0.5716469179
 40
0.6042674039
 40
0.6349482528
 40
0.6637058761
 40
0.6905939658
 40
0.7157088548
 40
0.7391920294
 40
0.7612292029
 40
0.7820471864
 40
0.8019056671
 40
0.8210830771
 40
0.8398600956
 40
0.8585022767
 40
0.8772449493
 40
0.8962840904
 40
0.9157734953
 40
0.9358261884
 40
0.956519691
 40
0.977902579
 40
1.0
 40
1.0
 40
1.0
 40
1.0
 10
11.5916577963
 20
11.0516440885
 30
0.0
 10
11.5932130062
 20
11.0560483698
 30
0.0
 10
11.5955796257
 20
11.0625724391
 30
0.0
 10
11.5988423574
 20
11.0711303744
 30
0.0
 10
11.6012871812
 20
11.0773186708
 30
0.0
 10
11.603753731
 20
11.0833250244
 30
0.0
 10
11.6062421566
 20
11.0891343098
 30
0.0
 10
11.6087523173
 20
11.0947305387
 30
0.0
 10
11.6112838251
 20
11.1000970095
 30
0.0
 10
11.6138360088
 20
11.1052165257
 30
0.0
 10
11.6164078125
 20
11.1100716739
 30
0.0
 10
11.6189979051
 20
11.1146451494
 30
0.0
 10
11.6216045306
 20
11.118920245
 30
0.0
 10
11.624225579
 20
11.1228812995
 30
0.0
 10
11.6268587374
 20
11.1265141455
 30
0.0
 10
11.6295013637
 20
11.1298067268
 30
0.0
 10
11.6321506642
 20
11.1327494838
 30
0.0
 10
11.6348039006
 20
11.1353355588
 30
0.0
 10
11.6374582884
 20
11.1375611206
 30
0.0
 10
11.6401110354
 20
11.1394253989
 30
0.0
 10
11.6427594005
 20
11.1409303572
 30
0.0
 10
11.6454003756
 20
11.1420806782
 30
0.0
 10
11.6480304771
 20
11.1428838927
 30
0.0
 10
11.6506458984
 20
11.1433500901
 30
0.0
 10
11.6532427349
 20
11.1434920919
 30
0.0
 10
11.655817629
 20
11.1433252341
 30
0.0
 10
11.6583682689
 20
11.1428662644
 30
0.0
 10
11.6608935304
 20
11.1421327114
 30
0.0
 10
11.6633932618
 20
11.1411419156
 30
0.0
 10
11.6658679308
 20
11.139910625
 30
0.0
 10
11.6683183903
 20
11.1384547885
 30
0.0
 10
11.6707454564
 20
11.1367894328
 30
0.0
 10
11.6723226865
 20
11.1355690596
 30
0.0
 10
11.6731083049
 20
11.134929642
 30
0.0
  0
SPLINE
  5
38E
100
AcDbEntity
  8
0
100
AcDbSpline
 62
7
  6
CONTINUOUS
 70
0
 71
3
 72
33
 73
29
 74
0
 42
0.0000001
 43
0.0000001
 44
0.0000000001
 40
0.0
 40
0.0
 40
0.0
 40
0.0
 40
0.0761059805
 40
0.1533665224
 40
0.2310985893
 40
0.3086117116
 40
0.3852184646
 40
0.4602418738
 40
0.4969540111
 40
0.5330253093
 40
0.568377637
 40
0.602935149
 40
0.6366244509
 40
0.6693748538
 40
0.7011188057
 40
0.7317921988
 40
0.7613346619
 40
0.7896900058
 40
0.8168067974
 40
0.8426388463
 40
0.8671458301
 40
0.890294248
 40
0.9120585592
 40
0.9324224521
 40
0.9513807601
 40
0.9689421932
 40
0.9851326665
 40
1.0
 40
1.0
 40
1.0
 40
1.0
 10
11.292082303
 20
11.1210052436
 30
0.0
 10
11.3006875502
 20
11.1204084677
 30
0.0
 10
11.3180457012
 20
11.119441254
 30
0.0
 10
11.3442296065
 20
11.1186590619
 30
0.0
 10
11.3705845434
 20
11.1185378925
 30
0.0
 10
11.3968600905
 20
11.1190789178
 30
0.0
 10
11.4228065543
 20
11.1202769323
 30
0.0
 10
11.4441001897
 20
11.12182389
 30
0.0
 10
11.4607800054
 20
11.1233884074
 30
0.0
 10
11.4729653545
 20
11.1247085627
 30
0.0
 10
11.4848872599
 20
11.1261807004
 30
0.0
 10
11.4965174039
 20
11.1278013071
 30
0.0
 10
11.5078281398
 20
11.1295664895
 30
0.0
 10
11.5187925899
 20
11.1314720325
 30
0.0
 10
11.5293847121
 20
11.1335133699
 30
0.0
 10
11.5395793705
 20
11.1356855946
 30
0.0
 10
11.5493523832
 20
11.1379835016
 30
0.0
 10
11.558680589
 20
11.1404015969
 30
0.0
 10
11.5675419253
 20
11.1429340693
 30
0.0
 10
11.5759154753
 20
11.1455748478
 30
0.0
 10
11.5837815185
 20
11.1483176316
 30
0.0
 10
11.5911216136
 20
11.1511558877
 30
0.0
 10
11.5979186592
 20
11.1540828724
 30
0.0
 10
11.6041569588
 20
11.1570917393
 30
0.0
 10
11.6098222001
 20
11.1601755401
 30
0.0
 10
11.6149018135
 20
11.1633275312
 30
0.0
 10
11.6193840563
 20
11.1665405423
 30
0.0
 10
11.6220790139
 20
11.1688133293
 30
0.0
 10
11.6233125801
 20
11.1699612822
 30
0.0
  0
SPLINE
  5
38F
100
AcDbEntity
  8
0
100
AcDbSpline
 62
7
  6
CONTINUOUS
 70
0
 71
3
 72
43
 73
39
 74
0
 42
0.0000001
 43
0.0000001
 44
0.0000000001
 40
0.0
 40
0.0
 40
0.0
 40
0.0
 40
0.0817014135
 40
0.1646929441
 40
0.2480466347
 40
0.3308280372
 40
0.3717152049
 40
0.4121135214
 40
0.4519107805
 40
0.490997021
 40
0.529264966
 40
0.5666104635
 40
0.6029329499
 40
0.6381359423
 40
0.6721276034
 40
0.704821301
 40
0.736136223
 40
0.7659981006
 40
0.7943400702
 40
0.821103771
 40
0.8462406512
 40
0.8697136559
 40
0.8808191713
 40
0.8915013663
 40
0.9017599521
 40
0.9115961526
 40
0.9210124944
 40
0.9300133693
 40
0.9386050967
 40
0.94679618
 40
0.9545979082
 40
0.9620244039
 40
0.9690934076
 40
0.9758265903
 40
0.9822500501
 40
0.9883949619
 40
0.9942976635
 40
1.0
 40
1.0
 40
1.0
 40
1.0
 10
11.292082303
 20
11.1268007989
 30
0.0
 10
11.3017636533
 20
11.126129395
 30
0.0
 10
11.3213009764
 20
11.1250738183
 30
0.0
 10
11.3507587904
 20
11.1243338099
 30
0.0
 10
11.3803541235
 20
11.1244280498
 30
0.0
 10
11.4049359666
 20
11.1252038085
 30
0.0
 10
11.4243967736
 20
11.1262456952
 30
0.0
 10
11.438746082
 20
11.1272286981
 30
0.0
 10
11.4528654866
 20
11.1284134022
 30
0.0
 10
11.466712619
 20
11.129796247
 30
0.0
 10
11.480245895
 20
11.1313730353
 30
0.0
 10
11.4934246925
 20
11.1331389934
 30
0.0
 10
11.5062094592
 20
11.1350887719
 30
0.0
 10
11.5185618417
 20
11.137216467
 30
0.0
 10
11.5304448094
 20
11.1395156242
 30
0.0
 10
11.5418227721
 20
11.1419792661
 30
0.0
 10
11.5526616873
 20
11.1445999179
 30
0.0
 10
11.5629291795
 20
11.1473696298
 30
0.0
 10
11.5725946274
 20
11.1502800109
 30
0.0
 10
11.5816293881
 20
11.1533222498
 30
0.0
 10
11.5900065635
 20
11.1564871676
 30
0.0
 10
11.5965347111
 20
11.1592679378
 30
0.0
 10
11.6014008214
 20
11.1615546704
 30
0.0
 10
11.6048031325
 20
11.163262689
 30
0.0
 10
11.6080233874
 20
11.1649941951
 30
0.0
 10
11.6110592365
 20
11.1667478742
 30
0.0
 10
11.6139084187
 20
11.1685224925
 30
0.0
 10
11.6165688523
 20
11.1703167369
 30
0.0
 10
11.6190385995
 20
11.1721293095
 30
0.0
 10
11.6213158181
 20
11.173958987
 30
0.0
 10
11.6233988869
 20
11.175804437
 30
0.0
 10
11.6252862179
 20
11.1776644849
 30
0.0
 10
11.6269764073
 20
11.1795378785
 30
0.0
 10
11.628468143
 20
11.1814234235
 30
0.0
 10
11.6297600997
 20
11.1833199633
 30
0.0
 10
11.6308511761
 20
11.1852263128
 30
0.0
 10
11.6317400375
 20
11.1871410114
 30
0.0
 10
11.6322040058
 20
11.188441666
 30
0.0
 10
11.6323996624
 20
11.1890901226
 30
0.0
  0
SPLINE
  5
390
100
AcDbEntity
  8
0
100
AcDbSpline
 62
7
  6
CONTINUOUS
 70
0
 71
3
 72
11
 73
7
 74
0
 42
0.0000001
 43
0.0000001
 44
0.0000000001
 40
0.0
 40
0.0
 40
0.0
 40
0.0
 40
0.2544713629
 40
0.5051312816
 40
0.7532151558
 40
1.0
 40
1.0
 40
1.0
 40
1.0
 10
11.6323996624
 20
11.1890901226
 30
0.0
 10
11.6325354296
 20
11.1895400901
 30
0.0
 10
11.6327742765
 20
11.1904429108
 30
0.0
 10
11.6330326025
 20
11.1918111106
 30
0.0
 10
11.6331876857
 20
11.1931805605
 30
0.0
 10
11.6332221972
 20
11.1940949402
 30
0.0
 10
11.6332222016
 20
11.194550747
 30
0.0
  0
SPLINE
  5
391
100
AcDbEntity
  8
0
100
AcDbSpline
 62
7
  6
CONTINUOUS
 70
0
 71
3
 72
49
 73
45
 74
0
 42
0.0000001
 43
0.0000001
 44
0.0000000001
 40
0.0
 40
0.0
 40
0.0
 40
0.0
 40
0.0417978496
 40
0.0840616001
 40
0.1266600445
 40
0.1694648426
 40
0.2123444194
 40
0.2551678165
 40
0.2978040553
 40
0.3401229061
 40
0.3819954446
 40
0.4232944985
 40
0.4638952061
 40
0.5036755644
 40
0.5425169282
 40
0.5803046397
 40
0.616928595
 40
0.6522838555
 40
0.6862713427
 40
0.7187985766
 40
0.7497805175
 40
0.7791406442
 40
0.8068121395
 40
0.8327394906
 40
0.8450361404
 40
0.8568821625
 40
0.8682748938
 40
0.8792128603
 40
0.8896959282
 40
0.8997256909
 40
0.9093053404
 40
0.9184403561
 40
0.9271384503
 40
0.935410183
 40
0.9432693683
 40
0.9507334486
 40
0.9578243693
 40
0.9645688484
 40
0.9709992976
 40
0.9771541159
 40
0.9830780278
 40
0.9888220014
 40
0.9944424432
 40
1.0
 40
1.0
 40
1.0
 40
1.0
 10
11.2935058066
 20
11.1016128361
 30
0.0
 10
11.2984336609
 20
11.1012710882
 30
0.0
 10
11.308349926
 20
11.1006625679
 30
0.0
 10
11.3233034566
 20
11.0999757638
 30
0.0
 10
11.3383846272
 20
11.0995112744
 30
0.0
 10
11.3535437983
 20
11.0992705909
 30
0.0
 10
11.3687314566
 20
11.0992545367
 30
0.0
 10
11.3838977697
 20
11.099463151
 30
0.0
 10
11.3989930606
 20
11.0998957542
 30
0.0
 10
11.4139678636
 20
11.1005509145
 30
0.0
 10
11.4287731145
 20
11.1014264674
 30
0.0
 10
11.4433603107
 20
11.1025195206
 30
0.0
 10
11.4576816684
 20
11.1038264647
 30
0.0
 10
11.4716902802
 20
11.105342982
 30
0.0
 10
11.485340274
 20
11.1070640638
 30
0.0
 10
11.4985869665
 20
11.1089840185
 30
0.0
 10
11.5113870163
 20
11.1110964929
 30
0.0
 10
11.523698569
 20
11.1133944948
 30
0.0
 10
11.5354813979
 20
11.1158704164
 30
0.0
 10
11.5466970521
 20
11.1185160576
 30
0.0
 10
11.5573089739
 20
11.1213226596
 30
0.0
 10
11.5672827277
 20
11.124280931
 30
0.0
 10
11.5765858426
 20
11.1273810986
 30
0.0
 10
11.5838782207
 20
11.1301205363
 30
0.0
 10
11.5893462643
 20
11.1323833329
 30
0.0
 10
11.5931885367
 20
11.1340795167
 30
0.0
 10
11.5968417041
 20
11.1358033982
 30
0.0
 10
11.6003028195
 20
11.1375535984
 30
0.0
 10
11.6035690734
 20
11.1393287348
 30
0.0
 10
11.6066378641
 20
11.1411273208
 30
0.0
 10
11.6095066987
 20
11.1429479995
 30
0.0
 10
11.6121733159
 20
11.1447892749
 30
0.0
 10
11.6146355738
 20
11.1466497626
 30
0.0
 10
11.6168915081
 20
11.1485280508
 30
0.0
 10
11.618939343
 20
11.1504227178
 30
0.0
 10
11.6207773582
 20
11.152332473
 30
0.0
 10
11.6224040832
 20
11.1542559129
 30
0.0
 10
11.6238179957
 20
11.156191811
 30
0.0
 10
11.6250177532
 20
11.1581388188
 30
0.0
 10
11.6260019898
 20
11.1600956118
 30
0.0
 10
11.6267693282
 20
11.1620607082
 30
0.0
 10
11.6273186089
 20
11.164032479
 30
0.0
 10
11.6276486284
 20
11.1660086758
 30
0.0
 10
11.6277221899
 20
11.1673308376
 30
0.0
 10
11.6277222017
 20
11.1679876324
 30
0.0
  0
SPLINE
  5
392
100
AcDbEntity
  8
0
100
AcDbSpline
 62
7
  6
CONTINUOUS
 70
0
 71
3
 72
19
 73
15
 74
0
 42
0.0000001
 43
0.0000001
 44
0.0000000001
 40
0.0
 40
0.0
 40
0.0
 40
0.0
 40
0.1480347086
 40
0.2876549285
 40
0.4195434151
 40
0.4828720138
 40
0.5446104534
 40
0.6638347161
 40
0.7216716022
 40
0.7785350987
 40
0.8346066359
 40
0.8900760447
 40
0.9451399785
 40
1.0
 40
1.0
 40
1.0
 40
1.0
 10
11.9359821811
 20
10.2796315071
 30
0.0
 10
11.9376103411
 20
10.281204189
 30
0.0
 10
11.9406787039
 20
10.2843617325
 30
0.0
 10
11.9448041921
 20
10.2892826329
 30
0.0
 10
11.947763255
 20
10.2934700551
 30
0.0
 10
11.949801164
 20
10.2968311852
 30
0.0
 10
11.9515808755
 20
10.3001167659
 30
0.0
 10
11.9530752364
 20
10.3034577492
 30
0.0
 10
11.9542551066
 20
10.3068363132
 30
0.0
 10
11.9549724323
 20
10.3093488582
 30
0.0
 10
11.9555306414
 20
10.311864378
 30
0.0
 10
11.9559295613
 20
10.3143822673
 30
0.0
 10
11.9561689545
 20
10.3169016158
 30
0.0
 10
11.9562221873
 20
10.318583003
 30
0.0
 10
11.9562221874
 20
10.3194218965
 30
0.0
  0
SPLINE
  5
393
100
AcDbEntity
  8
0
100
AcDbSpline
 62
7
  6
CONTINUOUS
 70
0
 71
3
 72
37
 73
33
 74
0
 42
0.0000001
 43
0.0000001
 44
0.0000000001
 40
0.0
 40
0.0
 40
0.0
 40
0.0
 40
0.0958326366
 40
0.1891024335
 40
0.2792433184
 40
0.3657125497
 40
0.4074112017
 40
0.4480043003
 40
0.4874343221
 40
0.5256469253
 40
0.5625907171
 40
0.5982178384
 40
0.6324843431
 40
0.6653502663
 40
0.6967806197
 40
0.7267454051
 40
0.7552207048
 40
0.7821895055
 40
0.8076424797
 40
0.8315799984
 40
0.8540133514
 40
0.8749675641
 40
0.8944844006
 40
0.9126260414
 40
0.9294805329
 40
0.9451669396
 40
0.9598416035
 40
0.9737025969
 40
0.9804060671
 40
0.9869995464
 40
0.9935185688
 40
1.0
 40
1.0
 40
1.0
 40
1.0
 10
11.2935058066
 20
11.1016128361
 30
0.0
 10
11.2865905615
 20
11.1020924099
 30
0.0
 10
11.2729549824
 20
11.1031908269
 30
0.0
 10
11.2528636829
 20
11.1052875496
 30
0.0
 10
11.2335027224
 20
11.1078002457
 30
0.0
 10
11.2179014417
 20
11.1102552248
 30
0.0
 10
11.2058881678
 20
11.1124235379
 30
0.0
 10
11.1972488149
 20
11.1141228054
 30
0.0
 10
11.1888852894
 20
11.1159119082
 30
0.0
 10
11.1808115323
 20
11.1177878219
 30
0.0
 10
11.1730410147
 20
11.1197474116
 30
0.0
 10
11.1655866863
 20
11.1217873821
 30
0.0
 10
11.1584609539
 20
11.1239042774
 30
0.0
 10
11.1516756701
 20
11.1260945879
 30
0.0
 10
11.1452420851
 20
11.1283545892
 30
0.0
 10
11.1391708525
 20
11.1306805297
 30
0.0
 10
11.1334719871
 20
11.1330685263
 30
0.0
 10
11.1281548348
 20
11.1355145848
 30
0.0
 10
11.1232280916
 20
11.138014739
 30
0.0
 10
11.1186997117
 20
11.1405648731
 30
0.0
 10
11.114576969
 20
11.1431609813
 30
0.0
 10
11.1108664067
 20
11.1457990786
 30
0.0
 10
11.1075738441
 20
11.1484752806
 30
0.0
 10
11.1047045535
 20
11.1511860517
 30
0.0
 10
11.102263248
 20
11.1539279647
 30
0.0
 10
11.1002545357
 20
11.1566982194
 30
0.0
 10
11.0986832849
 20
11.1594933319
 30
0.0
 10
11.0977322227
 20
11.1618679431
 30
0.0
 10
11.0972060744
 20
11.1637622147
 30
0.0
 10
11.0969270035
 20
11.1651696123
 30
0.0
 10
11.0967594714
 20
11.1665783339
 30
0.0
 10
11.0967222024
 20
11.1675191172
 30
0.0
 10
11.0967222109
 20
11.167987938
 30
0.0
  0
SPLINE
  5
394
100
AcDbEntity
  8
0
100
AcDbSpline
 62
7
  6
CONTINUOUS
 70
0
 71
3
 72
29
 73
25
 74
0
 42
0.0000001
 43
0.0000001
 44
0.0000000001
 40
0.0
 40
0.0
 40
0.0
 40
0.0
 40
0.0709869626
 40
0.1429803425
 40
0.2155052336
 40
0.2880795351
 40
0.360221842
 40
0.4314541843
 40
0.5013065256
 40
0.5693208469
 40
0.6350554428
 40
0.6980894263
 40
0.7284699578
 40
0.7580293746
 40
0.7867232034
 40
0.8145091271
 40
0.8413473514
 40
0.8672009407
 40
0.8920358138
 40
0.9158214033
 40
0.9385308198
 40
0.9601413349
 40
0.9806351968
 40
1.0
 40
1.0
 40
1.0
 40
1.0
 10
11.292082303
 20
10.9152630304
 30
0.0
 10
11.2995133642
 20
10.9147476846
 30
0.0
 10
11.3144935333
 20
10.9138852509
 30
0.0
 10
11.3370950794
 20
10.9130919763
 30
0.0
 10
11.3598752331
 20
10.9127928021
 30
0.0
 10
11.382672088
 20
10.9129899242
 30
0.0
 10
11.4053236369
 20
10.9136819135
 30
0.0
 10
11.427668966
 20
10.914863774
 30
0.0
 10
11.4495493472
 20
10.9165269663
 30
0.0
 10
11.4708094713
 20
10.9186594562
 30
0.0
 10
11.4912983062
 20
10.9212458705
 30
0.0
 10
11.5078054497
 20
10.9237940488
 30
0.0
 10
11.5205102863
 20
10.9260555306
 30
0.0
 10
11.5296401623
 20
10.9278319058
 30
0.0
 10
11.538472343
 20
10.9297061044
 30
0.0
 10
11.5469911657
 20
10.9316748216
 30
0.0
 10
11.5551815157
 20
10.9337345337
 30
0.0
 10
11.5630288843
 20
10.9358815264
 30
0.0
 10
11.5705193739
 20
10.9381120008
 30
0.0
 10
11.5776397549
 20
10.940421942
 30
0.0
 10
11.5843774593
 20
10.9428072221
 30
0.0
 10
11.5907206699
 20
10.9452636469
 30
0.0
 10
11.596658152
 20
10.9477867422
 30
0.0
 10
11.6004470883
 20
10.9495609015
 30
0.0
 10
11.6022689479
 20
10.9504608559
 30
0.0
  0
SPLINE
  5
395
100
AcDbEntity
  8
0
100
AcDbSpline
 62
7
  6
CONTINUOUS
 70
0
 71
3
 72
23
 73
19
 74
0
 42
0.0000001
 43
0.0000001
 44
0.0000000001
 40
0.0
 40
0.0
 40
0.0
 40
0.0
 40
0.0771682723
 40
0.1531527378
 40
0.2277600156
 40
0.3008137982
 40
0.3721367308
 40
0.4415591837
 40
0.5089183639
 40
0.5740588082
 40
0.6368335546
 40
0.6971052472
 40
0.7547470922
 40
0.8096441137
 40
0.8616947445
 40
0.9108128781
 40
0.9569303426
 40
1.0
 40
1.0
 40
1.0
 40
1.0
 10
11.292082303
 20
10.9152630304
 30
0.0
 10
11.2876066236
 20
10.9155734198
 30
0.0
 10
11.278728142
 20
10.916252302
 30
0.0
 10
11.2655408488
 20
10.9174551666
 30
0.0
 10
11.2526111048
 20
10.9188323819
 30
0.0
 10
11.2399736375
 20
10.9203801622
 30
0.0
 10
11.2276619058
 20
10.9220944169
 30
0.0
 10
11.2157087634
 20
10.9239705161
 30
0.0
 10
11.204146011
 20
10.9260034156
 30
0.0
 10
11.1930044091
 20
10.9281876551
 30
0.0
 10
11.1823135856
 20
10.930517371
 30
0.0
 10
11.1721019305
 20
10.9329862932
 30
0.0
 10
11.1623965225
 20
10.9355877764
 30
0.0
 10
11.1532230475
 20
10.9383148318
 30
0.0
 10
11.1446057521
 20
10.9411601416
 30
0.0
 10
11.1365672106
 20
10.9441161175
 30
0.0
 10
11.1291286986
 20
10.9471747728
 30
0.0
 10
11.1244202809
 20
10.9493519518
 30
0.0
 10
11.1221752624
 20
10.9504609526
 30
0.0
  0
SPLINE
  5
396
100
AcDbEntity
  8
0
100
AcDbSpline
 62
7
  6
CONTINUOUS
 70
0
 71
3
 72
33
 73
29
 74
0
 42
0.0000001
 43
0.0000001
 44
0.0000000001
 40
0.0
 40
0.0
 40
0.0
 40
0.0
 40
0.0761059758
 40
0.1533665104
 40
0.2310985743
 40
0.3086116908
 40
0.3852184375
 40
0.4602418449
 40
0.4969539793
 40
0.5330252753
 40
0.5683776059
 40
0.6029351147
 40
0.6366244141
 40
0.6693748241
 40
0.7011187709
 40
0.7317921631
 40
0.761334635
 40
0.7896899726
 40
0.8168067668
 40
0.8426388235
 40
0.8671458023
 40
0.8902942258
 40
0.912058543
 40
0.9324224341
 40
0.9513807485
 40
0.9689421866
 40
0.9851326617
 40
1.0
 40
1.0
 40
1.0
 40
1.0
 10
11.2935058066
 20
11.1170676502
 30
0.0
 10
11.3019364076
 20
11.116482986
 30
0.0
 10
11.318942269
 20
11.1155354023
 30
0.0
 10
11.3445947635
 20
11.1147690848
 30
0.0
 10
11.3704148184
 20
11.1146503744
 30
0.0
 10
11.3961570947
 20
11.1151804192
 30
0.0
 10
11.4215769668
 20
11.1163541192
 30
0.0
 10
11.4424384412
 20
11.1178696805
 30
0.0
 10
11.458779735
 20
11.1194024452
 30
0.0
 10
11.470717779
 20
11.1206958072
 30
0.0
 10
11.482397726
 20
11.1221380673
 30
0.0
 10
11.493791833
 20
11.1237257828
 30
0.0
 10
11.5048730148
 20
11.1254551401
 30
0.0
 10
11.5156149385
 20
11.1273220093
 30
0.0
 10
11.5259920912
 20
11.1293219165
 30
0.0
 10
11.5359798467
 20
11.1314500553
 30
0.0
 10
11.5455545139
 20
11.133701325
 30
0.0
 10
11.554693402
 20
11.1360703438
 30
0.0
 10
11.5633748957
 20
11.1385514189
 30
0.0
 10
11.5715785033
 20
11.1411386013
 30
0.0
 10
11.5792849043
 20
11.1438257191
 30
0.0
 10
11.5864760311
 20
11.1466063719
 30
0.0
 10
11.5931351304
 20
11.1494739518
 30
0.0
 10
11.5992468236
 20
11.1524217528
 30
0.0
 10
11.6047970887
 20
11.1554429666
 30
0.0
 10
11.6097736121
 20
11.1585309866
 30
0.0
 10
11.6141648885
 20
11.1616787885
 30
0.0
 10
11.6168051526
 20
11.1639054483
 30
0.0
 10
11.618013684
 20
11.165030103
 30
0.0
  0
SPLINE
  5
397
100
AcDbEntity
  8
0
100
AcDbSpline
 62
7
  6
CONTINUOUS
 70
0
 71
3
 72
30
 73
26
 74
0
 42
0.0000001
 43
0.0000001
 44
0.0000000001
 40
0.0
 40
0.0
 40
0.0
 40
0.0
 40
0.0845017696
 40
0.1673018444
 40
0.2480805995
 40
0.3265314116
 40
0.4023590458
 40
0.4752837006
 40
0.5450423654
 40
0.6113917071
 40
0.6741108219
 40
0.7040482901
 40
0.7330074063
 40
0.7609688284
 40
0.7879150493
 40
0.8138314852
 40
0.8387059031
 40
0.8625295506
 40
0.8852968062
 40
0.9070063295
 40
0.9276610846
 40
0.947269524
 40
0.9658461543
 40
0.983412825
 40
1.0
 40
1.0
 40
1.0
 40
1.0
 10
11.2935058066
 20
11.1170676502
 30
0.0
 10
11.288009814
 20
11.1174487986
 30
0.0
 10
11.277134916
 20
11.1182998855
 30
0.0
 10
11.2610355454
 20
11.1198604849
 30
0.0
 10
11.2453611628
 20
11.1216871353
 30
0.0
 10
11.2301776753
 20
11.123772048
 30
0.0
 10
11.2155487151
 20
11.126106376
 30
0.0
 10
11.2015356403
 20
11.1286801794
 30
0.0
 10
11.1881970697
 20
11.1314824976
 30
0.0
 10
11.175588913
 20
11.134501417
 30
0.0
 10
11.1655850186
 20
11.1372275427
 30
0.0
 10
11.1579930085
 20
11.1395154778
 30
0.0
 10
11.1526022733
 20
11.1412508462
 30
0.0
 10
11.1474317522
 20
11.1430303788
 30
0.0
 10
11.1424868517
 20
11.1448522977
 30
0.0
 10
11.1377727202
 20
11.1467146102
 30
0.0
 10
11.1332942797
 20
11.1486154346
 30
0.0
 10
11.1290561671
 20
11.1505527174
 30
0.0
 10
11.1250627866
 20
11.1525245019
 30
0.0
 10
11.1213182442
 20
11.154528696
 30
0.0
 10
11.1178263963
 20
11.1565632897
 30
0.0
 10
11.1145908124
 20
11.1586261832
 30
0.0
 10
11.1116147465
 20
11.1607153798
 30
0.0
 10
11.1089013578
 20
11.1628287223
 30
0.0
 10
11.1072222258
 20
11.1642935212
 30
0.0
 10
11.1064305776
 20
11.1650302459
 30
0.0
  0
SPLINE
  5
398
100
AcDbEntity
  8
0
100
AcDbSpline
 62
7
  6
CONTINUOUS
 70
0
 71
3
 72
86
 73
82
 74
0
 42
0.0000001
 43
0.0000001
 44
0.0000000001
 40
0.0
 40
0.0
 40
0.0
 40
0.0
 40
0.0039801178
 40
0.008124055
 40
0.0124359605
 40
0.0169193467
 40
0.0215772004
 40
0.0264119189
 40
0.0314251844
 40
0.0366181561
 40
0.0419915588
 40
0.0475456648
 40
0.0532804342
 40
0.0591954374
 40
0.0715624321
 40
0.0846380885
 40
0.0984093891
 40
0.1128599632
 40
0.1279704894
 40
0.1437190727
 40
0.160081524
 40
0.1770315797
 40
0.1945410729
 40
0.2125801378
 40
0.2311173716
 40
0.2501199634
 40
0.2695538069
 40
0.289383639
 40
0.3095731655
 40
0.330085161
 40
0.3508815699
 40
0.3719236226
 40
0.3931719426
 40
0.4145866387
 40
0.4577528938
 40
0.5010976506
 40
0.5442936325
 40
0.5657342592
 40
0.5870158128
 40
0.6080983161
 40
0.6289422892
 40
0.6495088492
 40
0.6697598053
 40
0.6896577695
 40
0.7091662658
 40
0.7282498375
 40
0.7468741662
 40
0.7650061932
 40
0.7826142444
 40
0.7996681599
 40
0.8161394624
 40
0.8320015292
 40
0.8472297723
 40
0.861801853
 40
0.8756979657
 40
0.8889011836
 40
0.901397837
 40
0.9073782075
 40
0.9131785914
 40
0.9187984199
 40
0.9242375215
 40
0.9294960408
 40
0.9345745312
 40
0.9394740277
 40
0.9441960018
 40
0.9487425393
 40
0.9531163235
 40
0.957320722
 40
0.961359945
 40
0.9652390342
 40
0.9689640671
 40
0.9725422345
 40
0.9759819293
 40
0.9792929472
 40
0.9824865007
 40
0.9855753478
 40
0.9885738184
 40
0.9914977336
 40
0.9943643333
 40
0.9971920092
 40
1.0
 40
1.0
 40
1.0
 40
1.0
 10
11.9359821811
 20
10.2796315071
 30
0.0
 10
11.9348057443
 20
10.2784951563
 30
0.0
 10
11.9323510193
 20
10.2762304756
 30
0.0
 10
11.9284536479
 20
10.2729227124
 30
0.0
 10
11.9242700624
 20
10.2696386273
 30
0.0
 10
11.9198025586
 20
10.2663800502
 30
0.0
 10
11.9150533702
 20
10.2631484628
 30
0.0
 10
11.9100247819
 20
10.2599454686
 30
0.0
 10
11.9047193049
 20
10.2567725739
 30
0.0
 10
11.8991395868
 20
10.2536313775
 30
0.0
 10
11.8932884098
 20
10.2505234935
 30
0.0
 10
11.8871687338
 20
10.2474504181
 30
0.0
 10
11.8807835907
 20
10.2444137194
 30
0.0
 10
11.8717864289
 20
10.2403549798
 30
0.0
 10
11.8598893903
 20
10.235395102
 30
0.0
 10
11.8448125565
 20
10.2296971581
 30
0.0
 10
11.8287607444
 20
10.2241795954
 30
0.0
 10
11.8117662598
 20
10.2188536227
 30
0.0
 10
11.7938631405
 20
10.2137300496
 30
0.0
 10
11.775087402
 20
10.2088193049
 30
0.0
 10
11.7554768407
 20
10.2041313899
 30
0.0
 10
11.7350709898
 20
10.1996758646
 30
0.0
 10
11.7139110314
 20
10.1954617996
 30
0.0
 10
11.6920396998
 20
10.1914977731
 30
0.0
 10
11.669501178
 20
10.187791858
 30
0.0
 10
11.6463410134
 20
10.1843516063
 30
0.0
 10
11.6226060295
 20
10.1811840242
 30
0.0
 10
11.5983442265
 20
10.1782955491
 30
0.0
 10
11.5736046722
 20
10.1756920572
 30
0.0
 10
11.5484374078
 20
10.1733788477
 30
0.0
 10
11.5228933437
 20
10.1713606327
 30
0.0
 10
11.4970241734
 20
10.1696415162
 30
0.0
 10
11.4708821922
 20
10.1682249621
 30
0.0
 10
11.4356411589
 20
10.1667397419
 30
0.0
 10
11.3912976111
 20
10.1656609633
 30
0.0
 10
11.3379898886
 20
10.1656047293
 30
0.0
 10
11.2936212924
 20
10.1665897747
 30
0.0
 10
11.2583406288
 20
10.1680001492
 30
0.0
 10
11.232154718
 20
10.1693613552
 30
0.0
 10
11.2062320396
 20
10.1710256948
 30
0.0
 10
11.1806249986
 20
10.1729898199
 30
0.0
 10
11.1553854134
 20
10.175249726
 30
0.0
 10
11.1305643403
 20
10.1778008118
 30
0.0
 10
11.1062119895
 20
10.1806378874
 30
0.0
 10
11.0823776162
 20
10.1837551861
 30
0.0
 10
11.0591094197
 20
10.1871463692
 30
0.0
 10
11.0364544408
 20
10.1908045241
 30
0.0
 10
11.0144584672
 20
10.1947222019
 30
0.0
 10
10.9931659422
 20
10.198891426
 30
0.0
 10
10.9726198708
 20
10.203303715
 30
0.0
 10
10.952861718
 20
10.2079500729
 30
0.0
 10
10.9339313214
 20
10.21282103
 30
0.0
 10
10.9158668045
 20
10.2179066656
 30
0.0
 10
10.8987045217
 20
10.2231966354
 30
0.0
 10
10.8824788585
 20
10.2286801875
 30
0.0
 10
10.8672224801
 20
10.2343461809
 30
0.0
 10
10.85517132
 20
10.2392799433
 30
0.0
 10
10.8460479559
 20
10.2433187591
 30
0.0
 10
10.8395670655
 20
10.2463418422
 30
0.0
 10
10.8333504963
 20
10.24940187
 30
0.0
 10
10.8274013359
 20
10.2524972746
 30
0.0
 10
10.8217225738
 20
10.2556265247
 30
0.0
 10
10.8163170605
 20
10.2587880809
 30
0.0
 10
10.8111874661
 20
10.2619803133
 30
0.0
 10
10.8063363823
 20
10.2652017148
 30
0.0
 10
10.8017661994
 20
10.2684506566
 30
0.0
 10
10.7974791858
 20
10.2717255571
 30
0.0
 10
10.7934775099
 20
10.2750248884
 30
0.0
 10
10.7897631125
 20
10.2783470063
 30
0.0
 10
10.7863379018
 20
10.2816904156
 30
0.0
 10
10.7832036011
 20
10.2850535475
 30
0.0
 10
10.7803617974
 20
10.28843484
 30
0.0
 10
10.777814087
 20
10.2918328359
 30
0.0
 10
10.7755618161
 20
10.2952459381
 30
0.0
 10
10.7736063837
 20
10.2986726445
 30
0.0
 10
10.7719490913
 20
10.302111364
 30
0.0
 10
10.7705910579
 20
10.3055603954
 30
0.0
 10
10.7695335104
 20
10.3090179739
 30
0.0
 10
10.768777315
 20
10.312482221
 30
0.0
 10
10.7683232538
 20
10.3159507182
 30
0.0
 10
10.7682222251
 20
10.3182679499
 30
0.0
 10
10.7682222252
 20
10.3194218966
 30
0.0
  0
SPLINE
  5
399
100
AcDbEntity
  8
0
100
AcDbSpline
 62
7
  6
CONTINUOUS
 70
0
 71
3
 72
30
 73
26
 74
0
 42
0.0000001
 43
0.0000001
 44
0.0000000001
 40
0.0
 40
0.0
 40
0.0
 40
0.0
 40
0.0729981949
 40
0.1416397727
 40
0.2063064358
 40
0.2674886663
 40
0.3257803821
 40
0.3540695847
 40
0.3819066281
 40
0.4093936086
 40
0.4366368906
 40
0.4637460539
 40
0.4908324367
 40
0.5180076606
 40
0.5453822119
 40
0.5730638862
 40
0.6011566008
 40
0.658940911
 40
0.7194823242
 40
0.7509929139
 40
0.7834140385
 40
0.8512077829
 40
0.8866980036
 40
0.923304067
 40
1.0
 40
1.0
 40
1.0
 40
1.0
 10
11.9610962541
 20
10.2778898403
 30
0.0
 10
11.9628818992
 20
10.2796146411
 30
0.0
 10
11.9662369473
 20
10.2830781968
 30
0.0
 10
11.97071775
 20
10.288487402
 30
0.0
 10
11.9744795722
 20
10.2939398802
 30
0.0
 10
11.9775158019
 20
10.2994296323
 30
0.0
 10
11.9794557539
 20
10.3040787801
 30
0.0
 10
11.9806228364
 20
10.3077931538
 30
0.0
 10
11.9813058255
 20
10.3105555592
 30
0.0
 10
11.9818046755
 20
10.3133209416
 30
0.0
 10
11.9821191463
 20
10.3160884672
 30
0.0
 10
11.9822490651
 20
10.3188571563
 30
0.0
 10
11.9821944283
 20
10.321626043
 30
0.0
 10
11.9819552326
 20
10.3243941646
 30
0.0
 10
11.9815315582
 20
10.3271605289
 30
0.0
 10
11.980923628
 20
10.3299242828
 30
0.0
 10
11.9798581238
 20
10.3336387278
 30
0.0
 10
11.9780455497
 20
10.3382901081
 30
0.0
 10
11.9756711164
 20
10.3428101551
 30
0.0
 10
11.9734273765
 20
10.3464014877
 30
0.0
 10
11.9708741425
 20
10.3500844018
 30
0.0
 10
11.9679869773
 20
10.3536935526
 30
0.0
 10
11.9648009756
 20
10.3572278828
 30
0.0
 10
11.9612734127
 20
10.3608574119
 30
0.0
 10
11.9584406842
 20
10.3634752074
 30
0.0
 10
11.9564726193
 20
10.3651870558
 30
0.0
  0
LINE
  5
39A
100
AcDbEntity
  8
0
100
AcDbLine
 62
7
  6
CONTINUOUS
 10
12.0470636577
 20
10.2222946769
 11
12.0525700392
 21
10.2279744344
  0
LINE
  5
39B
100
AcDbEntity
  8
0
100
AcDbLine
 62
7
  6
CONTINUOUS
 10
12.0470636577
 20
9.5520265047
 11
12.0525700392
 21
9.5577062622
  0
SPLINE
  5
39C
100
AcDbEntity
  8
0
100
AcDbSpline
 62
7
  6
CONTINUOUS
 70
0
 71
3
 72
18
 73
14
 74
0
 42
0.0000001
 43
0.0000001
 44
0.0000000001
 40
0.0
 40
0.0
 40
0.0
 40
0.0
 40
0.1480417906
 40
0.2876658503
 40
0.4195585968
 40
0.5445936964
 40
0.6638224769
 40
0.7216612457
 40
0.77852681
 40
0.8346004282
 40
0.890071859
 40
0.9451378852
 40
1.0
 40
1.0
 40
1.0
 40
1.0
 10
12.1151614325
 20
9.5079876394
 30
0.0
 10
12.1172980903
 20
9.5100514925
 30
0.0
 10
12.1213246811
 20
9.5141950709
 30
0.0
 10
12.1267386895
 20
9.5206530382
 30
0.0
 10
12.1313368546
 20
9.5271599454
 30
0.0
 10
12.1351121809
 20
9.5337092346
 30
0.0
 10
12.1375925763
 20
9.5392547559
 30
0.0
 10
12.1391408982
 20
9.5436885792
 30
0.0
 10
12.1400822338
 20
9.5469857639
 30
0.0
 10
12.1408147736
 20
9.5502868869
 30
0.0
 10
12.1413382089
 20
9.5535911236
 30
0.0
 10
12.141652342
 20
9.556897268
 30
0.0
 10
12.1417222052
 20
9.559103755
 30
0.0
 10
12.1417222005
 20
9.5602046365
 30
0.0
  0
SPLINE
  5
39D
100
AcDbEntity
  8
0
100
AcDbSpline
 62
7
  6
CONTINUOUS
 70
0
 71
3
 72
97
 73
93
 74
0
 42
0.0000001
 43
0.0000001
 44
0.0000000001
 40
0.0
 40
0.0
 40
0.0
 40
0.0
 40
0.0041938995
 40
0.0085762271
 40
0.0131520539
 40
0.0179256311
 40
0.0229004689
 40
0.0280792076
 40
0.0334635888
 40
0.0390547525
 40
0.0448532051
 40
0.0508589817
 40
0.0570716169
 40
0.0634901956
 40
0.0701134602
 40
0.0769397345
 40
0.0839670859
 40
0.0911932252
 40
0.1062310633
 40
0.1220303485
 40
0.1385641046
 40
0.1558021794
 40
0.1737115814
 40
0.192256765
 40
0.2113999002
 40
0.2311010987
 40
0.2513186043
 40
0.2720089915
 40
0.2931273519
 40
0.3146274493
 40
0.3364618684
 40
0.3585822008
 40
0.3809391957
 40
0.4034828958
 40
0.4261627943
 40
0.4489280005
 40
0.471727373
 40
0.4945096582
 40
0.5172236627
 40
0.5398183981
 40
0.5622432137
 40
0.5844479467
 40
0.6063830939
 40
0.6279999523
 40
0.6492507598
 40
0.6700888697
 40
0.6904689127
 40
0.7103469479
 40
0.7296806347
 40
0.7484294435
 40
0.7665548423
 40
0.7840204991
 40
0.8007925374
 40
0.8168398202
 40
0.8321342657
 40
0.8394915352
 40
0.8466516895
 40
0.8536122534
 40
0.8603710644
 40
0.8669262726
 40
0.8732763258
 40
0.8794200987
 40
0.8853567966
 40
0.891086134
 40
0.896608277
 40
0.9019239491
 40
0.9070345147
 40
0.9119419776
 40
0.9166491946
 40
0.9211598452
 40
0.925478671
 40
0.9296115445
 40
0.9335656355
 40
0.9373496291
 40
0.9409738145
 40
0.9477891092
 40
0.9510148903
 40
0.9541417697
 40
0.9571901347
 40
0.9601821943
 40
0.9631415446
 40
0.9660926564
 40
0.9690602179
 40
0.9720684804
 40
0.9751406344
 40
0.9782983257
 40
0.9815612482
 40
0.9849470535
 40
0.9884713265
 40
0.9921476472
 40
0.9959874398
 40
1.0
 40
1.0
 40
1.0
 40
1.0
 10
11.9610962541
 20
10.2778898403
 30
0.0
 10
11.9597542279
 20
10.2765935424
 30
0.0
 10
11.9569431427
 20
10.2740111078
 30
0.0
 10
11.9524597726
 20
10.2702485362
 30
0.0
 10
11.9476214633
 20
10.266515846
 30
0.0
 10
11.9424313634
 20
10.262815398
 30
0.0
 10
11.9368924867
 20
10.2591492246
 30
0.0
 10
11.9310080429
 20
10.2555194594
 30
0.0
 10
11.9247815322
 20
10.2519281463
 30
0.0
 10
11.9182166211
 20
10.2483775172
 30
0.0
 10
11.9113172491
 20
10.2448696035
 30
0.0
 10
11.9040875028
 20
10.2414065365
 30
0.0
 10
11.8965316958
 20
10.2379903757
 30
0.0
 10
11.8886543489
 20
10.2346231378
 30
0.0
 10
11.8804601584
 20
10.2313069071
 30
0.0
 10
11.8719540517
 20
10.2280436066
 30
0.0
 10
11.8631410989
 20
10.2248352453
 30
0.0
 10
11.8508244295
 20
10.2205766041
 30
0.0
 10
11.834692587
 20
10.2154167844
 30
0.0
 10
11.8144470788
 20
10.2095531658
 30
0.0
 10
11.7931137446
 20
10.2039525667
 30
0.0
 10
11.770743828
 20
10.1986285621
 30
0.0
 10
11.7473909069
 20
10.19359408
 30
0.0
 10
11.72311105
 20
10.1888613412
 30
0.0
 10
11.6979625822
 20
10.1844418268
 30
0.0
 10
11.6720059554
 20
10.1803462578
 30
0.0
 10
11.6453035918
 20
10.1765845664
 30
0.0
 10
11.6179197269
 20
10.1731658746
 30
0.0
 10
11.5899202483
 20
10.1700984699
 30
0.0
 10
11.5613725417
 20
10.1673897893
 30
0.0
 10
11.5323453272
 20
10.1650463932
 30
0.0
 10
11.5029084856
 20
10.1630739557
 30
0.0
 10
11.4731328866
 20
10.1614772531
 30
0.0
 10
11.4430902223
 20
10.1602601515
 30
0.0
 10
11.4128528316
 20
10.1594255997
 30
0.0
 10
11.3824935219
 20
10.1589756204
 30
0.0
 10
11.3520853977
 20
10.1589113042
 30
0.0
 10
11.3217016841
 20
10.1592328033
 30
0.0
 10
11.291415545
 20
10.1599393382
 30
0.0
 10
11.2612999043
 20
10.161029198
 30
0.0
 10
11.2314272777
 20
10.1624997446
 30
0.0
 10
11.2018695948
 20
10.164347419
 30
0.0
 10
11.1726980198
 20
10.1665677494
 30
0.0
 10
11.1439827799
 20
10.1691553552
 30
0.0
 10
11.1157929979
 20
10.1721039654
 30
0.0
 10
11.0881965218
 20
10.1754064345
 30
0.0
 10
11.0612597577
 20
10.1790547588
 30
0.0
 10
11.035047514
 20
10.1830400941
 30
0.0
 10
11.0096228381
 20
10.1873527789
 30
0.0
 10
10.9850468546
 20
10.1919823505
 30
0.0
 10
10.9613786058
 20
10.1969175727
 30
0.0
 10
10.9386749309
 20
10.2021464674
 30
0.0
 10
10.9169902377
 20
10.207656339
 30
0.0
 10
10.8963766357
 20
10.2134338331
 30
0.0
 10
10.8799262953
 20
10.2185232872
 30
0.0
 10
10.8673466329
 20
10.222727756
 30
0.0
 10
10.8583320477
 20
10.2258984259
 30
0.0
 10
10.8496208
 20
10.2291253065
 30
0.0
 10
10.8412181021
 20
10.2324064742
 30
0.0
 10
10.8331289827
 20
10.2357399199
 30
0.0
 10
10.8253582992
 20
10.2391237029
 30
0.0
 10
10.8179106761
 20
10.2425557126
 30
0.0
 10
10.8107905835
 20
10.2460339743
 30
0.0
 10
10.804002247
 20
10.2495563498
 30
0.0
 10
10.7975497111
 20
10.2531207696
 30
0.0
 10
10.7914368159
 20
10.2567251391
 30
0.0
 10
10.7856671551
 20
10.2603672793
 30
0.0
 10
10.7802441828
 20
10.2640451487
 30
0.0
 10
10.7751710493
 20
10.2677565212
 30
0.0
 10
10.7704507886
 20
10.2714993594
 30
0.0
 10
10.7660861699
 20
10.2752714924
 30
0.0
 10
10.7620797483
 20
10.2790708797
 30
0.0
 10
10.7584340767
 20
10.2828953358
 30
0.0
 10
10.7551509527
 20
10.2867433186
 30
0.0
 10
10.751339071
 20
10.29179721
 30
0.0
 10
10.7481485788
 20
10.2970013901
 30
0.0
 10
10.745688785
 20
10.3023242781
 30
0.0
 10
10.7442495649
 20
10.3062568184
 30
0.0
 10
10.74318441
 20
10.3101993321
 30
0.0
 10
10.742494361
 20
10.314149209
 30
0.0
 10
10.7421805607
 20
10.3181033964
 30
0.0
 10
10.7422433158
 20
10.3220586704
 30
0.0
 10
10.742682608
 20
10.3260117704
 30
0.0
 10
10.7434978162
 20
10.3299595195
 30
0.0
 10
10.7446877881
 20
10.333898997
 30
0.0
 10
10.7462512497
 20
10.3378274615
 30
0.0
 10
10.7481864064
 20
10.3417425409
 30
0.0
 10
10.7504916462
 20
10.3456419603
 30
0.0
 10
10.7531651173
 20
10.3495237037
 30
0.0
 10
10.7562050067
 20
10.3533857579
 30
0.0
 10
10.7596090512
 20
10.3572258506
 30
0.0
 10
10.76206416
 20
10.3597137054
 30
0.0
 10
10.7633481585
 20
10.3609539528
 30
0.0
  0
SPLINE
  5
39E
100
AcDbEntity
  8
0
100
AcDbSpline
 62
7
  6
CONTINUOUS
 70
0
 71
3
 72
39
 73
35
 74
0
 42
0.0000001
 43
0.0000001
 44
0.0000000001
 40
0.0
 40
0.0
 40
0.0
 40
0.0
 40
0.0249843252
 40
0.0486651786
 40
0.0711730582
 40
0.0926686569
 40
0.1133399196
 40
0.1334004909
 40
0.1530865387
 40
0.1726493108
 40
0.1923451949
 40
0.2124250029
 40
0.2331241613
 40
0.2546556416
 40
0.2772058535
 40
0.3009336379
 40
0.3259714111
 40
0.3524272129
 40
0.3803879387
 40
0.4099217183
 40
0.4410811292
 40
0.4739050836
 40
0.508421137
 40
0.5446470359
 40
0.5825920207
 40
0.6222582661
 40
0.6636412736
 40
0.7067313061
 40
0.7515135277
 40
0.7979686252
 40
0.846072798
 40
0.8958002064
 40
0.947122286
 40
1.0
 40
1.0
 40
1.0
 40
1.0
 10
10.6718743734
 20
9.6413345792
 30
0.0
 10
10.6702643679
 20
9.6395539901
 30
0.0
 10
10.6672429445
 20
9.6359791553
 30
0.0
 10
10.6632376319
 20
9.630427562
 30
0.0
 10
10.6598912467
 20
9.6248411457
 30
0.0
 10
10.6572087418
 20
9.619224792
 30
0.0
 10
10.6551945875
 20
9.6135833015
 30
0.0
 10
10.6538532101
 20
9.6079225555
 30
0.0
 10
10.6531880268
 20
9.6022496618
 30
0.0
 10
10.6532011298
 20
9.5965726959
 30
0.0
 10
10.6538923146
 20
9.5909001202
 30
0.0
 10
10.6552597092
 20
9.5852400066
 30
0.0
 10
10.6572996363
 20
9.5795993585
 30
0.0
 10
10.6600078271
 20
9.5739840598
 30
0.0
 10
10.6633796053
 20
9.5683990218
 30
0.0
 10
10.6674102801
 20
9.562848588
 30
0.0
 10
10.6720951926
 20
9.5573369542
 30
0.0
 10
10.6774294114
 20
9.5518681955
 30
0.0
 10
10.683407869
 20
9.5464466697
 30
0.0
 10
10.6900249278
 20
9.5410766832
 30
0.0
 10
10.6972745814
 20
9.5357628416
 30
0.0
 10
10.7051501763
 20
9.5305097068
 30
0.0
 10
10.7136445237
 20
9.5253219726
 30
0.0
 10
10.7227498276
 20
9.5202043499
 30
0.0
 10
10.732457677
 20
9.5151614886
 30
0.0
 10
10.7427591045
 20
9.5101981276
 30
0.0
 10
10.7536445095
 20
9.505318813
 30
0.0
 10
10.7651037771
 20
9.5005281902
 30
0.0
 10
10.7771261859
 20
9.4958307048
 30
0.0
 10
10.7897004412
 20
9.4912308395
 30
0.0
 10
10.8028147717
 20
9.4867328895
 30
0.0
 10
10.8164570696
 20
9.4823410612
 30
0.0
 10
10.8306141806
 20
9.4780596647
 30
0.0
 10
10.8402448518
 20
9.4753219271
 30
0.0
 10
10.8451424779
 20
9.4739707283
 30
0.0
  0
SPLINE
  5
39F
100
AcDbEntity
  8
0
100
AcDbSpline
 62
7
  6
CONTINUOUS
 70
0
 71
3
 72
25
 73
21
 74
0
 42
0.0000001
 43
0.0000001
 44
0.0000000001
 40
0.0
 40
0.0
 40
0.0
 40
0.0
 40
0.0254588324
 40
0.0515387783
 40
0.078217059
 40
0.1054733543
 40
0.1616323925
 40
0.2198332982
 40
0.2798823036
 40
0.341576205
 40
0.4047037601
 40
0.46904688
 40
0.5343817369
 40
0.6004798945
 40
0.6671094237
 40
0.7340359537
 40
0.8010237403
 40
0.8678369402
 40
0.9342398629
 40
1.0
 40
1.0
 40
1.0
 40
1.0
 10
10.8771352733
 20
9.4656903941
 30
0.0
 10
10.882498354
 20
9.4643882109
 30
0.0
 10
10.893374323
 20
9.4618296103
 30
0.0
 10
10.9099305248
 20
9.4581685156
 30
0.0
 10
10.9269138121
 20
9.4546406361
 30
0.0
 10
10.950339081
 20
9.4500735429
 30
0.0
 10
10.9805735869
 20
9.4447353907
 30
0.0
 10
11.0179424892
 20
9.4389726255
 30
0.0
 10
11.0566101176
 20
9.4338129325
 30
0.0
 10
11.096430601
 20
9.4292759613
 30
0.0
 10
11.1372538583
 20
9.4253790117
 30
0.0
 10
11.1789259213
 20
9.4221369303
 30
0.0
 10
11.2212896019
 20
9.4195620659
 30
0.0
 10
11.2641850726
 20
9.4176642205
 30
0.0
 10
11.3074504825
 20
9.416450616
 30
0.0
 10
11.3509225727
 20
9.4159258736
 30
0.0
 10
11.3944373144
 20
9.4160919821
 30
0.0
 10
11.4378304662
 20
9.4169483266
 30
0.0
 10
11.4809382311
 20
9.4184916159
 30
0.0
 10
11.5095508983
 20
9.4199835567
 30
0.0
 10
11.5237801473
 20
9.4208454198
 30
0.0
  0
SPLINE
  5
3A0
100
AcDbEntity
  8
0
100
AcDbSpline
 62
7
  6
CONTINUOUS
 70
0
 71
3
 72
23
 73
19
 74
0
 42
0.0000001
 43
0.0000001
 44
0.0000000001
 40
0.0
 40
0.0
 40
0.0
 40
0.0
 40
0.0720621432
 40
0.1406054127
 40
0.2059483016
 40
0.2684806254
 40
0.3286564979
 40
0.3869911505
 40
0.4440557716
 40
0.500465138
 40
0.5568574923
 40
0.6138715958
 40
0.6721238246
 40
0.732188572
 40
0.7945845064
 40
0.8597676019
 40
0.9281293543
 40
1.0
 40
1.0
 40
1.0
 40
1.0
 10
12.0525700392
 20
9.5577062622
 30
0.0
 10
12.0540733571
 20
9.5593688599
 30
0.0
 10
12.0569063619
 20
9.5627058329
 30
0.0
 10
12.0606988945
 20
9.5678755853
 30
0.0
 10
12.0639194635
 20
9.5730754891
 30
0.0
 10
12.0665642415
 20
9.5783014781
 30
0.0
 10
12.0686297116
 20
9.5835498025
 30
0.0
 10
12.0701126102
 20
9.5888159524
 30
0.0
 10
12.0710099013
 20
9.5940947249
 30
0.0
 10
12.0713196783
 20
9.5993801132
 30
0.0
 10
12.0710411254
 20
9.6046656772
 30
0.0
 10
12.0701749631
 20
9.6099449479
 30
0.0
 10
12.0687231204
 20
9.6152119149
 30
0.0
 10
12.0666884505
 20
9.6204613067
 30
0.0
 10
12.0640743432
 20
9.625688603
 30
0.0
 10
12.0608842516
 20
9.6308898961
 30
0.0
 10
12.0571220886
 20
9.6360613668
 30
0.0
 10
12.0543084886
 20
9.6393996022
 30
0.0
 10
12.0528148394
 20
9.6410628943
 30
0.0
  0
SPLINE
  5
3A1
100
AcDbEntity
  8
0
100
AcDbSpline
 62
7
  6
CONTINUOUS
 70
0
 71
3
 72
33
 73
29
 74
0
 42
0.0000001
 43
0.0000001
 44
0.0000000001
 40
0.0
 40
0.0
 40
0.0
 40
0.0
 40
0.0838179084
 40
0.1658868028
 40
0.2459254477
 40
0.3236607314
 40
0.3988318039
 40
0.4711907101
 40
0.5062428541
 40
0.5405059503
 40
0.5739535363
 40
0.6065604652
 40
0.6383027439
 40
0.6691579313
 40
0.6991049446
 40
0.7281244357
 40
0.7561987503
 40
0.7833121328
 40
0.8094510039
 40
0.8346039718
 40
0.8587623615
 40
0.8819201991
 40
0.904074955
 40
0.9252275731
 40
0.9453831633
 40
0.9645521977
 40
0.9827509017
 40
1.0
 40
1.0
 40
1.0
 40
1.0
 10
11.5674831061
 20
9.4238762356
 30
0.0
 10
11.5812583109
 20
9.4249545919
 30
0.0
 10
11.6085037074
 20
9.42732163
 30
0.0
 10
11.6488251769
 20
9.4315529211
 30
0.0
 10
11.6880654837
 20
9.4364155415
 30
0.0
 10
11.7260767172
 20
9.4418909732
 30
0.0
 10
11.7627154504
 20
9.4479583431
 30
0.0
 10
11.7922940028
 20
9.453545864
 30
0.0
 10
11.815159029
 20
9.4583069637
 30
0.0
 10
11.8316984972
 20
9.4619730961
 30
0.0
 10
11.8477948422
 20
9.4657688478
 30
0.0
 10
11.863432914
 20
9.4696906034
 30
0.0
 10
11.8785979678
 20
9.4737347017
 30
0.0
 10
11.8932757261
 20
9.4778972537
 30
0.0
 10
11.9074523675
 20
9.48217437
 30
0.0
 10
11.9211145606
 20
9.4865619693
 30
0.0
 10
11.9342494623
 20
9.4910559116
 30
0.0
 10
11.9468447352
 20
9.495651965
 30
0.0
 10
11.9588885752
 20
9.5003457495
 30
0.0
 10
11.9703696907
 20
9.5051329052
 30
0.0
 10
11.9812773711
 20
9.5100088531
 30
0.0
 10
11.9916014332
 20
9.5149691031
 30
0.0
 10
12.001332295
 20
9.5200089703
 30
0.0
 10
12.0104609155
 20
9.5251238199
 30
0.0
 10
12.0189788859
 20
9.5303089091
 30
0.0
 10
12.0268785495
 20
9.5355596808
 30
0.0
 10
12.0341521974
 20
9.5408712044
 30
0.0
 10
12.0386993988
 20
9.5445463635
 30
0.0
 10
12.0408598756
 20
9.5463951121
 30
0.0
  0
SPLINE
  5
3A2
100
AcDbEntity
  8
0
100
AcDbSpline
 62
7
  6
CONTINUOUS
 70
0
 71
3
 72
92
 73
88
 74
0
 42
0.0000001
 43
0.0000001
 44
0.0000000001
 40
0.0
 40
0.0
 40
0.0
 40
0.0
 40
0.0039801474
 40
0.0081240637
 40
0.0124359118
 40
0.0169192512
 40
0.0215770963
 40
0.0264118101
 40
0.0314250513
 40
0.0366180058
 40
0.0419913711
 40
0.0475454595
 40
0.0532802077
 40
0.0591951737
 40
0.065289654
 40
0.0715626077
 40
0.0780127754
 40
0.0846386352
 40
0.0984098807
 40
0.1128603789
 40
0.1279708275
 40
0.1437193449
 40
0.1600817327
 40
0.177031707
 40
0.1945411159
 40
0.2125801029
 40
0.2311172559
 40
0.2501197564
 40
0.2695535128
 40
0.2893832622
 40
0.3095726997
 40
0.3300846002
 40
0.3508809182
 40
0.3719228816
 40
0.3931711077
 40
0.4145857114
 40
0.4361263901
 40
0.4577525313
 40
0.4794233216
 40
0.5010978403
 40
0.5227351451
 40
0.5442943916
 40
0.5657349322
 40
0.5870164026
 40
0.6080988248
 40
0.6289427204
 40
0.6495092049
 40
0.6697600848
 40
0.6896579757
 40
0.7091664065
 40
0.7282499191
 40
0.7468741866
 40
0.765006153
 40
0.7826141465
 40
0.7996680123
 40
0.8161392748
 40
0.8320013057
 40
0.8472295059
 40
0.8618015442
 40
0.8756976312
 40
0.8889008304
 40
0.8952384126
 40
0.9013979406
 40
0.9073783006
 40
0.9131786719
 40
0.918798495
 40
0.9242375934
 40
0.9294961028
 40
0.9345745963
 40
0.9394740837
 40
0.9441960539
 40
0.948742594
 40
0.9531163637
 40
0.9573207727
 40
0.9613599893
 40
0.9652390777
 40
0.9689641188
 40
0.9725422717
 40
0.975981976
 40
0.9792929864
 40
0.9824865367
 40
0.9855753878
 40
0.9885738474
 40
0.9914977635
 40
0.9943643539
 40
0.9971920201
 40
1.0
 40
1.0
 40
1.0
 40
1.0
 10
12.1151614325
 20
9.5079876394
 30
0.0
 10
12.1136175901
 20
9.5064964021
 30
0.0
 10
12.1103962701
 20
9.5035244679
 30
0.0
 10
12.1052817965
 20
9.4991837231
 30
0.0
 10
12.0997917418
 20
9.4948740976
 30
0.0
 10
12.0939291203
 20
9.4905979128
 30
0.0
 10
12.0876968111
 20
9.4863571455
 30
0.0
 10
12.0810978464
 20
9.4821538809
 30
0.0
 10
12.0741355337
 20
9.4779901042
 30
0.0
 10
12.0668133235
 20
9.4738679821
 30
0.0
 10
12.0591349088
 20
9.4697895179
 30
0.0
 10
12.051104123
 20
9.4657567649
 30
0.0
 10
12.0427249832
 20
9.4617717665
 30
0.0
 10
12.0340017124
 20
9.4578364722
 30
0.0
 10
12.024938674
 20
9.4539529389
 30
0.0
 10
12.0155404507
 20
9.4501230636
 30
0.0
 10
12.0058117494
 20
9.4463488001
 30
0.0
 10
11.9922310035
 20
9.4413285327
 30
0.0
 10
11.9744559359
 20
9.4352187369
 30
0.0
 10
11.9521543904
 20
9.4282295118
 30
0.0
 10
11.928660324
 20
9.4215058994
 30
0.0
 10
11.9040211536
 20
9.4150615835
 30
0.0
 10
11.8782864404
 20
9.4089096926
 30
0.0
 10
11.8515080894
 20
9.4030627535
 30
0.0
 10
11.8237401355
 20
9.3975326763
 30
0.0
 10
11.7950386505
 20
9.3923307243
 30
0.0
 10
11.765461619
 20
9.3874674926
 30
0.0
 10
11.7350688149
 20
9.3829528857
 30
0.0
 10
11.7039216809
 20
9.3787960953
 30
0.0
 10
11.6720832036
 20
9.3750055769
 30
0.0
 10
11.6396177805
 20
9.3715890417
 30
0.0
 10
11.6065910799
 20
9.3685534401
 30
0.0
 10
11.5730699118
 20
9.3659049468
 30
0.0
 10
11.5391220954
 20
9.3636489516
 30
0.0
 10
11.5048163182
 20
9.3617900428
 30
0.0
 10
11.4702219944
 20
9.360331996
 30
0.0
 10
11.4354091258
 20
9.3592777741
 30
0.0
 10
11.400448159
 20
9.3586295201
 30
0.0
 10
11.3654098379
 20
9.358388553
 30
0.0
 10
11.3303650651
 20
9.358555366
 30
0.0
 10
11.2953847589
 20
9.3591296205
 30
0.0
 10
11.2605397055
 20
9.3601101451
 30
0.0
 10
11.2259004126
 20
9.3614949459
 30
0.0
 10
11.1915369726
 20
9.3632812071
 30
0.0
 10
11.1575189191
 20
9.3654652984
 30
0.0
 10
11.1239150823
 20
9.3680427824
 30
0.0
 10
11.0907934492
 20
9.3710084174
 30
0.0
 10
11.0582210256
 20
9.3743561676
 30
0.0
 10
11.0262636977
 20
9.3780792221
 30
0.0
 10
10.9949860986
 20
9.3821700062
 30
0.0
 10
10.9644514814
 20
9.3866201958
 30
0.0
 10
10.9347215838
 20
9.3914207367
 30
0.0
 10
10.9058564948
 20
9.3965618539
 30
0.0
 10
10.8779145309
 20
9.402033075
 30
0.0
 10
10.8509521189
 20
9.4078232547
 30
0.0
 10
10.8250236757
 20
9.4139205985
 30
0.0
 10
10.8001814831
 20
9.4203126862
 30
0.0
 10
10.7764756013
 20
9.4269865036
 30
0.0
 10
10.7539536417
 20
9.4339284641
 30
0.0
 10
10.7326610173
 20
9.441124447
 30
0.0
 10
10.7157538519
 20
9.4474033049
 30
0.0
 10
10.7028857476
 20
9.4525535095
 30
0.0
 10
10.6937002442
 20
9.4564177765
 30
0.0
 10
10.6848528732
 20
9.4603344707
 30
0.0
 10
10.6763480563
 20
9.4643016045
 30
0.0
 10
10.6681900903
 20
9.4683172437
 30
0.0
 10
10.6603830405
 20
9.4723792955
 30
0.0
 10
10.6529308395
 20
9.4764857877
 30
0.0
 10
10.6458372047
 20
9.48063464
 30
0.0
 10
10.6391056694
 20
9.4848237779
 30
0.0
 10
10.6327396167
 20
9.4890511851
 30
0.0
 10
10.6267421711
 20
9.4933147063
 30
0.0
 10
10.6211163628
 20
9.4976123543
 30
0.0
 10
10.6158649491
 20
9.5019419903
 30
0.0
 10
10.6109905636
 20
9.5063015846
 30
0.0
 10
10.6064956691
 20
9.5106891074
 30
0.0
 10
10.6023824907
 20
9.5151024706
 30
0.0
 10
10.5986532401
 20
9.5195397478
 30
0.0
 10
10.5953098208
 20
9.5239988519
 30
0.0
 10
10.5923541787
 20
9.5284778463
 30
0.0
 10
10.5897880627
 20
9.5329746769
 30
0.0
 10
10.5876131202
 20
9.5374872416
 30
0.0
 10
10.5858310294
 20
9.5420133991
 30
0.0
 10
10.584443106
 20
9.5465507122
 30
0.0
 10
10.5834507553
 20
9.5510968157
 30
0.0
 10
10.5828548714
 20
9.5556484809
 30
0.0
 10
10.5827222186
 20
9.5586893564
 30
0.0
 10
10.5827222122
 20
9.5602036677
 30
0.0
  0
SPLINE
  5
3A3
100
AcDbEntity
  8
0
100
AcDbSpline
 62
7
  6
CONTINUOUS
 70
0
 71
3
 72
95
 73
91
 74
0
 42
0.0000001
 43
0.0000001
 44
0.0000000001
 40
0.0
 40
0.0
 40
0.0
 40
0.0
 40
0.0040125336
 40
0.0078523331
 40
0.0115286854
 40
0.0150529708
 40
0.0184387747
 40
0.0217016901
 40
0.0248593828
 40
0.0279315451
 40
0.03093981
 40
0.0339073747
 40
0.0368584883
 40
0.0398178414
 40
0.0428099029
 40
0.0458582739
 40
0.0489851499
 40
0.0522109407
 40
0.0590262372
 40
0.0626504327
 40
0.0664344173
 40
0.070388526
 40
0.0745213896
 40
0.0788402271
 40
0.0833508844
 40
0.0880580943
 40
0.0929655799
 40
0.0980761302
 40
0.1033918222
 40
0.1089139638
 40
0.1146433018
 40
0.1205800201
 40
0.126723778
 40
0.1330738575
 40
0.1396290586
 40
0.1463878791
 40
0.1533484555
 40
0.1678654509
 40
0.1831599038
 40
0.1992071926
 40
0.2159792444
 40
0.2334449238
 40
0.2515703448
 40
0.2703191713
 40
0.2896528707
 40
0.309530921
 40
0.3299109847
 40
0.3507491153
 40
0.3719999427
 40
0.3936168204
 40
0.4155519871
 40
0.437756741
 40
0.4601815775
 40
0.482776333
 40
0.5054903575
 40
0.5282726645
 40
0.5510720587
 40
0.5738372838
 40
0.5965172028
 40
0.6190609251
 40
0.6414179435
 40
0.663538295
 40
0.6853727312
 40
0.7068728449
 40
0.7279912261
 40
0.7486816368
 40
0.7688991666
 40
0.7886003805
 40
0.8077435249
 40
0.826288721
 40
0.8441981444
 40
0.8614362448
 40
0.877970017
 40
0.8937693112
 40
0.9088071568
 40
0.9230601879
 40
0.929886478
 40
0.9365097445
 40
0.9429283282
 40
0.9491409754
 40
0.955146747
 40
0.9609452144
 40
0.966536382
 40
0.9719207689
 40
0.977099506
 40
0.9820743368
 40
0.9868479336
 40
0.9914237892
 40
0.9958061245
 40
1.0
 40
1.0
 40
1.0
 40
1.0
 10
10.8483496363
 20
10.9887064599
 30
0.0
 10
10.847247891
 20
10.9876422556
 30
0.0
 10
10.8451412583
 20
10.9855075212
 30
0.0
 10
10.8422203707
 20
10.9822124717
 30
0.0
 10
10.8396119291
 20
10.978898576
 30
0.0
 10
10.8373179184
 20
10.9755677745
 30
0.0
 10
10.835339866
 20
10.9722218283
 30
0.0
 10
10.8336793894
 20
10.9688624374
 30
0.0
 10
10.8323378472
 20
10.9654915617
 30
0.0
 10
10.8313167497
 20
10.9621112409
 30
0.0
 10
10.8306172786
 20
10.9587238096
 30
0.0
 10
10.8302403021
 20
10.9553317993
 30
0.0
 10
10.8301864827
 20
10.9519379175
 30
0.0
 10
10.8304557376
 20
10.9485449715
 30
0.0
 10
10.8310478265
 20
10.9451557166
 30
0.0
 10
10.8319618354
 20
10.9417727982
 30
0.0
 10
10.8331967316
 20
10.9383984059
 30
0.0
 10
10.8353074458
 20
10.9338310497
 30
0.0
 10
10.838045051
 20
10.9293654992
 30
0.0
 10
10.8413159228
 20
10.9250289624
 30
0.0
 10
10.8441330197
 20
10.9217271107
 30
0.0
 10
10.8472612768
 20
10.9184455205
 30
0.0
 10
10.8506990151
 20
10.9151853663
 30
0.0
 10
10.854444156
 20
10.9119486522
 30
0.0
 10
10.8584944449
 20
10.9087370586
 30
0.0
 10
10.8628475077
 20
10.9055524366
 30
0.0
 10
10.8675007883
 20
10.902396627
 30
0.0
 10
10.8724515079
 20
10.8992713926
 30
0.0
 10
10.8776967817
 20
10.8961786446
 30
0.0
 10
10.8832334668
 20
10.893120128
 30
0.0
 10
10.889058296
 20
10.8900976954
 30
0.0
 10
10.895167803
 20
10.887113149
 30
0.0
 10
10.9015583326
 20
10.8841682252
 30
0.0
 10
10.9082260919
 20
10.881264758
 30
0.0
 10
10.9151670698
 20
10.8784044237
 30
0.0
 10
10.9223771348
 20
10.8755889642
 30
0.0
 10
10.9324856479
 20
10.8718445789
 30
0.0
 10
10.945770026
 20
10.8672997439
 30
0.0
 10
10.9624965644
 20
10.8621246746
 30
0.0
 10
10.980184475
 20
10.8571672154
 30
0.0
 10
10.9987913053
 20
10.8524393875
 30
0.0
 10
11.0182725375
 20
10.8479526629
 30
0.0
 10
11.0385814247
 20
10.8437179265
 30
0.0
 10
11.0596692053
 20
10.8397454561
 30
0.0
 10
11.0814852137
 20
10.8360448914
 30
0.0
 10
11.103977007
 20
10.8326252134
 30
0.0
 10
11.1270904889
 20
10.8294947175
 30
0.0
 10
11.1507700474
 20
10.8266609875
 30
0.0
 10
11.1749586997
 20
10.8241308905
 30
0.0
 10
11.1995982277
 20
10.821910557
 30
0.0
 10
11.2246293207
 20
10.8200053693
 30
0.0
 10
11.2499917196
 20
10.8184199464
 30
0.0
 10
11.2756243606
 20
10.8171581234
 30
0.0
 10
11.3014655227
 20
10.8162229525
 30
0.0
 10
11.3274529837
 20
10.8156166984
 30
0.0
 10
11.3535241705
 20
10.8153408299
 30
0.0
 10
11.3796163027
 20
10.8153960206
 30
0.0
 10
11.4056665484
 20
10.8157821347
 30
0.0
 10
11.4316121801
 20
10.8164982333
 30
0.0
 10
11.4573907259
 20
10.8175425818
 30
0.0
 10
11.4829401123
 20
10.8189126522
 30
0.0
 10
11.5081988209
 20
10.8206051312
 30
0.0
 10
11.5331060404
 20
10.8226159217
 30
0.0
 10
11.5576018121
 20
10.8249401478
 30
0.0
 10
11.5816271723
 20
10.8275721764
 30
0.0
 10
11.6051243001
 20
10.8305056299
 30
0.0
 10
11.6280366542
 20
10.8337334
 30
0.0
 10
11.650309112
 20
10.8372476662
 30
0.0
 10
11.6718881128
 20
10.8410398992
 30
0.0
 10
11.6927217935
 20
10.8451008971
 30
0.0
 10
11.7127601081
 20
10.8494208046
 30
0.0
 10
11.7319549577
 20
10.8539891376
 30
0.0
 10
11.7502603007
 20
10.8587948149
 30
0.0
 10
11.7676323738
 20
10.8638261732
 30
0.0
 10
11.7840295008
 20
10.8690710186
 30
0.0
 10
11.7970295119
 20
10.8736728175
 30
0.0
 10
11.8069037992
 20
10.8774609112
 30
0.0
 10
11.8139349477
 20
10.8803064752
 30
0.0
 10
11.820694217
 20
10.8831957816
 30
0.0
 10
11.8271775915
 20
10.8861270553
 30
0.0
 10
11.8333811741
 20
10.889098607
 30
0.0
 10
11.8393012868
 20
10.8921086087
 30
0.0
 10
11.844934401
 20
10.8951552907
 30
0.0
 10
11.8502771481
 20
10.8982368647
 30
0.0
 10
11.8553263794
 20
10.9013514272
 30
0.0
 10
11.8600790879
 20
10.904497246
 30
0.0
 10
11.8645325411
 20
10.9076724701
 30
0.0
 10
11.8686841296
 20
10.9108753775
 30
0.0
 10
11.8725311513
 20
10.9141039054
 30
0.0
 10
11.8749432389
 20
10.9163197926
 30
0.0
 10
11.8760947764
 20
10.9174320924
 30
0.0
  0
SPLINE
  5
3A4
100
AcDbEntity
  8
0
100
AcDbSpline
 62
7
  6
CONTINUOUS
 70
0
 71
3
 72
28
 73
24
 74
0
 42
0.0000001
 43
0.0000001
 44
0.0000000001
 40
0.0
 40
0.0
 40
0.0
 40
0.0
 40
0.0736814442
 40
0.1431031499
 40
0.2086192292
 40
0.270684472
 40
0.3298484805
 40
0.3585525326
 40
0.3867809465
 40
0.4146283556
 40
0.4421936513
 40
0.4695790451
 40
0.4968890206
 40
0.5242289714
 40
0.5517038943
 40
0.5794171751
 40
0.6074692345
 40
0.664946489
 40
0.7248735774
 40
0.7878682755
 40
0.8544509392
 40
0.9250476645
 40
1.0
 40
1.0
 40
1.0
 40
1.0
 10
11.8760947764
 20
10.9174320924
 30
0.0
 10
11.8775785548
 20
10.9188653124
 30
0.0
 10
11.8803719069
 20
10.9217430181
 30
0.0
 10
11.8841191242
 20
10.9262312054
 30
0.0
 10
11.8872891081
 20
10.9307540954
 30
0.0
 10
11.8898768393
 20
10.9353069
 30
0.0
 10
11.891561239
 20
10.939162213
 30
0.0
 10
11.8926001869
 20
10.9422438793
 30
0.0
 10
11.8932241841
 20
10.944535603
 30
0.0
 10
11.8937004115
 20
10.9468299783
 30
0.0
 10
11.8940287161
 20
10.9491263657
 30
0.0
 10
11.8942088959
 20
10.95142403
 30
0.0
 10
11.8942408709
 20
10.953722229
 30
0.0
 10
11.89412467
 20
10.9560202189
 30
0.0
 10
11.8938603496
 20
10.9583172401
 30
0.0
 10
11.8934479261
 20
10.9606126233
 30
0.0
 10
11.8926950716
 20
10.963694274
 30
0.0
 10
11.8913693475
 20
10.9675557176
 30
0.0
 10
11.889201126
 20
10.972127797
 30
0.0
 10
11.8864474662
 20
10.9766727831
 30
0.0
 10
11.8831130036
 20
10.9811861031
 30
0.0
 10
11.8792026667
 20
10.9856639659
 30
0.0
 10
11.876304663
 20
10.9885341443
 30
0.0
 10
11.8747684398
 20
10.9899637639
 30
0.0
  0
SPLINE
  5
3A5
100
AcDbEntity
  8
0
100
AcDbSpline
 62
7
  6
CONTINUOUS
 70
0
 71
3
 72
19
 73
15
 74
0
 42
0.0000001
 43
0.0000001
 44
0.0000000001
 40
0.0
 40
0.0
 40
0.0
 40
0.0
 40
0.1480347086
 40
0.2876549285
 40
0.4195434151
 40
0.4828720137
 40
0.5446104533
 40
0.6638347161
 40
0.7216716022
 40
0.7785350988
 40
0.8346066359
 40
0.8900760447
 40
0.9451399785
 40
1.0
 40
1.0
 40
1.0
 40
1.0
 10
11.9359821811
 20
10.853391482
 30
0.0
 10
11.9376103411
 20
10.8549641638
 30
0.0
 10
11.9406787039
 20
10.8581217073
 30
0.0
 10
11.9448041921
 20
10.8630426077
 30
0.0
 10
11.947763255
 20
10.8672300299
 30
0.0
 10
11.949801164
 20
10.87059116
 30
0.0
 10
11.9515808755
 20
10.8738767407
 30
0.0
 10
11.9530752365
 20
10.877217724
 30
0.0
 10
11.9542551066
 20
10.8805962881
 30
0.0
 10
11.9549724323
 20
10.883108833
 30
0.0
 10
11.9555306414
 20
10.8856243528
 30
0.0
 10
11.9559295613
 20
10.8881422421
 30
0.0
 10
11.9561689545
 20
10.8906615906
 30
0.0
 10
11.9562221873
 20
10.8923429778
 30
0.0
 10
11.9562221874
 20
10.8931818713
 30
0.0
  0
SPLINE
  5
3A6
100
AcDbEntity
  8
0
100
AcDbSpline
 62
7
  6
CONTINUOUS
 70
0
 71
3
 72
30
 73
26
 74
0
 42
0.0000001
 43
0.0000001
 44
0.0000000001
 40
0.0
 40
0.0
 40
0.0
 40
0.0
 40
0.0165872598
 40
0.0341540099
 40
0.0527307228
 40
0.072339246
 40
0.0929940755
 40
0.1147036616
 40
0.1374709769
 40
0.1612946834
 40
0.1861691526
 40
0.212085628
 40
0.2390318811
 40
0.2669933313
 40
0.2959524697
 40
0.3258899517
 40
0.3886090701
 40
0.454958391
 40
0.5247170086
 40
0.59764159
 40
0.6734691338
 40
0.7519198287
 40
0.8326984578
 40
0.915498385
 40
1.0
 40
1.0
 40
1.0
 40
1.0
 10
11.1011319857
 20
11.1699611422
 30
0.0
 10
11.1019400418
 20
11.1692091596
 30
0.0
 10
11.1036539733
 20
11.1677140245
 30
0.0
 10
11.1064235924
 20
11.1655569142
 30
0.0
 10
11.1094613283
 20
11.1634244501
 30
0.0
 10
11.112763956
 20
11.1613188334
 30
0.0
 10
11.1163281536
 20
11.1592421028
 30
0.0
 10
11.1201502776
 20
11.157196402
 30
0.0
 10
11.1242263924
 20
11.1551837821
 30
0.0
 10
11.1285523072
 20
11.1532063783
 30
0.0
 10
11.133123526
 20
11.1512661879
 30
0.0
 10
11.1379353156
 20
11.1493653073
 30
0.0
 10
11.1429826525
 20
11.1475056571
 30
0.0
 10
11.1482602818
 20
11.145689271
 30
0.0
 10
11.1537626851
 20
11.1439179636
 30
0.0
 10
11.1615119584
 20
11.1415826464
 30
0.0
 10
11.1717230721
 20
11.138800064
 30
0.0
 10
11.1845923874
 20
11.1357186239
 30
0.0
 10
11.1982072403
 20
11.1328582705
 30
0.0
 10
11.2125105636
 20
11.1302311644
 30
0.0
 10
11.2274425244
 20
11.1278484928
 30
0.0
 10
11.242940495
 20
11.1257204016
 30
0.0
 10
11.2589395248
 20
11.1238559207
 30
0.0
 10
11.2753723428
 20
11.1222630003
 30
0.0
 10
11.2864724789
 20
11.1213942862
 30
0.0
 10
11.292082303
 20
11.1210052436
 30
0.0
  0
SPLINE
  5
3A7
100
AcDbEntity
  8
0
100
AcDbSpline
 62
7
  6
CONTINUOUS
 70
0
 71
3
 72
22
 73
18
 74
0
 42
0.0000001
 43
0.0000001
 44
0.0000000001
 40
0.0
 40
0.0
 40
0.0
 40
0.0
 40
0.1229787758
 40
0.184644372
 40
0.2464407667
 40
0.3083803053
 40
0.3704738055
 40
0.4327296973
 40
0.495153085
 40
0.5577451646
 40
0.6205030791
 40
0.6834202048
 40
0.7464868686
 40
0.809691226
 40
0.8730203186
 40
0.9364608349
 40
1.0
 40
1.0
 40
1.0
 40
1.0
 10
10.8771352733
 20
10.1359585663
 30
0.0
 10
10.903521227
 20
10.1413208316
 30
0.0
 10
10.9433526137
 20
10.1483880499
 30
0.0
 10
10.99685486
 20
10.1554269393
 30
0.0
 10
11.0372585653
 20
10.1594175911
 30
0.0
 10
11.0778703123
 20
10.1620121629
 30
0.0
 10
11.1186513668
 20
10.1631220046
 30
0.0
 10
11.15955165
 20
10.1626783887
 30
0.0
 10
11.200513071
 20
10.1606391081
 30
0.0
 10
11.2414730715
 20
10.1569928126
 30
0.0
 10
11.2823692643
 20
10.1517599028
 30
0.0
 10
11.323143994
 20
10.1449909288
 30
0.0
 10
11.3637480105
 20
10.1367616315
 30
0.0
 10
11.4041426551
 20
10.1271662135
 30
0.0
 10
11.4443007281
 20
10.1163104265
 30
0.0
 10
11.4842054905
 20
10.1043050175
 30
0.0
 10
11.510616916
 20
10.095614426
 30
0.0
 10
11.5237801473
 20
10.091113592
 30
0.0
  0
SPLINE
  5
3A8
100
AcDbEntity
  8
0
100
AcDbSpline
 62
7
  6
CONTINUOUS
 70
0
 71
3
 72
48
 73
44
 74
0
 42
0.0000001
 43
0.0000001
 44
0.0000000001
 40
0.0
 40
0.0
 40
0.0
 40
0.0
 40
0.0179858469
 40
0.0345390743
 40
0.0423645486
 40
0.0499385989
 40
0.0573064915
 40
0.0645179882
 40
0.0716264697
 40
0.0786878773
 40
0.0857594079
 40
0.0928979678
 40
0.1001587769
 40
0.1075939925
 40
0.1152518495
 40
0.1231760866
 40
0.1399649138
 40
0.1489021733
 40
0.1582331163
 40
0.1679790142
 40
0.1781576283
 40
0.1887834394
 40
0.1998683921
 40
0.2114219399
 40
0.2234512684
 40
0.2489550137
 40
0.2764071733
 40
0.3058109461
 40
0.3371524063
 40
0.370403408
 40
0.4055241195
 40
0.4424646661
 40
0.4811662486
 40
0.5215624239
 40
0.563579996
 40
0.6071395162
 40
0.6521560204
 40
0.6985396495
 40
0.7461959462
 40
0.7950266351
 40
0.8449293065
 40
0.8957980151
 40
1.0
 40
1.0
 40
1.0
 40
1.0
 10
11.1215113194
 20
11.2695093518
 30
0.0
 10
11.1206130972
 20
11.2685483625
 30
0.0
 10
11.1189788933
 20
11.2666142506
 30
0.0
 10
11.1172838414
 20
11.2640082157
 30
0.0
 10
11.1162355175
 20
11.2619173246
 30
0.0
 10
11.1156077172
 20
11.2603730895
 30
0.0
 10
11.1151244461
 20
11.258824555
 30
0.0
 10
11.1147861767
 20
11.2572727086
 30
0.0
 10
11.1145933047
 20
11.2557186641
 30
0.0
 10
11.1145461772
 20
11.2541636
 30
0.0
 10
11.1146447898
 20
11.2526087586
 30
0.0
 10
11.1148889978
 20
11.251055352
 30
0.0
 10
11.1152785586
 20
11.249504557
 30
0.0
 10
11.1158129143
 20
11.2479574484
 30
0.0
 10
11.116491549
 20
11.2464149232
 30
0.0
 10
11.1176093016
 20
11.2443257778
 30
0.0
 10
11.1190042602
 20
11.2422878143
 30
0.0
 10
11.1206354317
 20
11.2403086773
 30
0.0
 10
11.1220252319
 20
11.2388017777
 30
0.0
 10
11.1235548177
 20
11.2373045075
 30
0.0
 10
11.1252234516
 20
11.2358174804
 30
0.0
 10
11.1270300927
 20
11.234341501
 30
0.0
 10
11.128973746
 20
11.2328773983
 30
0.0
 10
11.1310532975
 20
11.2314259619
 30
0.0
 10
11.1340646155
 20
11.2294704534
 30
0.0
 10
11.1381704148
 20
11.2270707265
 30
0.0
 10
11.1435256357
 20
11.2243083228
 30
0.0
 10
11.1493893737
 20
11.2216157572
 30
0.0
 10
11.1557481918
 20
11.2189992286
 30
0.0
 10
11.1625876644
 20
11.2164647457
 30
0.0
 10
11.169892093
 20
11.2140182256
 30
0.0
 10
11.1776446588
 20
11.2116654153
 30
0.0
 10
11.1858274245
 20
11.2094118155
 30
0.0
 10
11.1944214206
 20
11.20726272
 30
0.0
 10
11.2034066966
 20
11.2052232029
 30
0.0
 10
11.212762357
 20
11.2032980476
 30
0.0
 10
11.2224666247
 20
11.2014917721
 30
0.0
 10
11.2324968989
 20
11.1998086406
 30
0.0
 10
11.242829823
 20
11.1982526008
 30
0.0
 10
11.2534412872
 20
11.1968273103
 30
0.0
 10
11.2643065403
 20
11.1955361025
 30
0.0
 10
11.2792173516
 20
11.1939850065
 30
0.0
 10
11.2905220257
 20
11.1930519223
 30
0.0
 10
11.2981246649
 20
11.1925246775
 30
0.0
  0
SPLINE
  5
3A9
100
AcDbEntity
  8
0
100
AcDbSpline
 62
7
  6
CONTINUOUS
 70
0
 71
3
 72
23
 73
19
 74
0
 42
0.0000001
 43
0.0000001
 44
0.0000000001
 40
0.0
 40
0.0
 40
0.0
 40
0.0
 40
0.0681235519
 40
0.1355427531
 40
0.2021995233
 40
0.2680424628
 40
0.3330321147
 40
0.3971461738
 40
0.4603841582
 40
0.5227702532
 40
0.5843534353
 40
0.6452043066
 40
0.7054093882
 40
0.765063767
 40
0.8242636257
 40
0.8831002091
 40
0.9416554622
 40
1.0
 40
1.0
 40
1.0
 40
1.0
 10
11.5674831061
 20
10.0941444078
 30
0.0
 10
11.577079317
 20
10.1002011782
 30
0.0
 10
11.5963251326
 20
10.1120128504
 30
0.0
 10
11.6255251658
 20
10.128809895
 30
0.0
 10
11.6549116979
 20
10.1444897702
 30
0.0
 10
11.6844735313
 20
10.1589401515
 30
0.0
 10
11.7141920048
 20
10.1720522792
 30
0.0
 10
11.7440399768
 20
10.1837271994
 30
0.0
 10
11.7739822486
 20
10.1938827279
 30
0.0
 10
11.8039768463
 20
10.2024604497
 30
0.0
 10
11.8339775187
 20
10.209431301
 30
0.0
 10
11.8639372246
 20
10.2147980092
 30
0.0
 10
11.8938116656
 20
10.2185949989
 30
0.0
 10
11.9235625068
 20
10.2208846146
 30
0.0
 10
11.9531594276
 20
10.2217509699
 30
0.0
 10
11.9825811032
 20
10.2212931012
 30
0.0
 10
12.0118141595
 20
10.2196180014
 30
0.0
 10
12.0312030921
 20
10.2177595689
 30
0.0
 10
12.0408598756
 20
10.2166632844
 30
0.0
  0
SPLINE
  5
3AA
100
AcDbEntity
  8
0
100
AcDbSpline
 62
7
  6
CONTINUOUS
 70
0
 71
3
 72
15
 73
11
 74
0
 42
0.0000001
 43
0.0000001
 44
0.0000000001
 40
0.0
 40
0.0
 40
0.0
 40
0.0
 40
0.1136439455
 40
0.2316591051
 40
0.3534946236
 40
0.4785171426
 40
0.6061354147
 40
0.735844626
 40
0.8672442308
 40
1.0
 40
1.0
 40
1.0
 40
1.0
 10
11.4124563052
 20
11.7210574324
 30
0.0
 10
11.4111864504
 20
11.7217204436
 30
0.0
 10
11.4086794532
 20
11.7232317379
 30
0.0
 10
11.4051070319
 20
11.7259041035
 30
0.0
 10
11.4016561482
 20
11.7289510687
 30
0.0
 10
11.3983284418
 20
11.7323027688
 30
0.0
 10
11.3951184682
 20
11.735900402
 30
0.0
 10
11.3920177566
 20
11.7396962402
 30
0.0
 10
11.3890167048
 20
11.7436524278
 30
0.0
 10
11.3870845658
 20
11.746364883
 30
0.0
 10
11.3861308658
 20
11.7477399573
 30
0.0
  0
SPLINE
  5
3AB
100
AcDbEntity
  8
0
100
AcDbSpline
 62
7
  6
CONTINUOUS
 70
0
 71
3
 72
15
 73
11
 74
0
 42
0.0000001
 43
0.0000001
 44
0.0000000001
 40
0.0
 40
0.0
 40
0.0
 40
0.0
 40
0.1266109703
 40
0.2524730951
 40
0.3777650789
 40
0.5026393708
 40
0.6272195813
 40
0.7515969466
 40
0.8758447857
 40
1.0
 40
1.0
 40
1.0
 40
1.0
 10
11.3328636742
 20
11.72417685
 30
0.0
 10
11.3311699555
 20
11.724385849
 30
0.0
 10
11.3278131369
 20
11.7249897985
 30
0.0
 10
11.3229116021
 20
11.7263951844
 30
0.0
 10
11.3181777052
 20
11.7282225245
 30
0.0
 10
11.3136155661
 20
11.7304004707
 30
0.0
 10
11.3092180888
 20
11.7328667918
 30
0.0
 10
11.3049730951
 20
11.7355699339
 30
0.0
 10
11.3008667323
 20
11.738468281
 30
0.0
 10
11.2982113415
 20
11.7405091867
 30
0.0
 10
11.2969024654
 20
11.7415519358
 30
0.0
  0
SPLINE
  5
3AC
100
AcDbEntity
  8
0
100
AcDbSpline
 62
7
  6
CONTINUOUS
 70
0
 71
3
 72
11
 73
7
 74
0
 42
0.0000001
 43
0.0000001
 44
0.0000000001
 40
0.0
 40
0.0
 40
0.0
 40
0.0
 40
0.2596033211
 40
0.5110754811
 40
0.7569610501
 40
1.0
 40
1.0
 40
1.0
 40
1.0
 10
11.1794703231
 20
11.2334458912
 30
0.0
 10
11.1792664262
 20
11.2338966544
 30
0.0
 10
11.1789060404
 20
11.2348034737
 30
0.0
 10
11.1785118992
 20
11.2361938419
 30
0.0
 10
11.1782749866
 20
11.2375875834
 30
0.0
 10
11.1782222213
 20
11.2385201712
 30
0.0
 10
11.1782222213
 20
11.2389833377
 30
0.0
  0
SPLINE
  5
3AD
100
AcDbEntity
  8
0
100
AcDbSpline
 62
7
  6
CONTINUOUS
 70
0
 71
3
 72
28
 73
24
 74
0
 42
0.0000001
 43
0.0000001
 44
0.0000000001
 40
0.0
 40
0.0
 40
0.0
 40
0.0
 40
0.0689923154
 40
0.1329846471
 40
0.1925298783
 40
0.2483465879
 40
0.2751488401
 40
0.3013716092
 40
0.327153924
 40
0.3526426821
 40
0.3779903068
 40
0.4033521338
 40
0.4288831513
 40
0.4547350106
 40
0.5079394845
 40
0.564061557
 40
0.5935134543
 40
0.6240103083
 40
0.6884380922
 40
0.7579083065
 40
0.832818984
 40
0.9134524175
 40
1.0
 40
1.0
 40
1.0
 40
1.0
 10
11.5549087023
 20
11.2405679998
 30
0.0
 10
11.5556315262
 20
11.2412406628
 30
0.0
 10
11.5569753795
 20
11.2425923134
 30
0.0
 10
11.5587288165
 20
11.2447238178
 30
0.0
 10
11.5601368911
 20
11.2468767774
 30
0.0
 10
11.561030806
 20
11.2487120427
 30
0.0
 10
11.5615588078
 20
11.2501788341
 30
0.0
 10
11.5618612358
 20
11.2512665493
 30
0.0
 10
11.5620751041
 20
11.2523559546
 30
0.0
 10
11.5622002838
 20
11.2534465181
 30
0.0
 10
11.5622366182
 20
11.2545376415
 30
0.0
 10
11.5621840711
 20
11.2556286972
 30
0.0
 10
11.5620427019
 20
11.2567191243
 30
0.0
 10
11.5617331998
 20
11.2581849735
 30
0.0
 10
11.5611134535
 20
11.260025782
 30
0.0
 10
11.5602191737
 20
11.2618058752
 30
0.0
 10
11.5593403167
 20
11.2632164134
 30
0.0
 10
11.5583124627
 20
11.2646708182
 30
0.0
 10
11.5567982637
 20
11.2664773212
 30
0.0
 10
11.554672206
 20
11.2685823714
 30
0.0
 10
11.5522084736
 20
11.2706607807
 30
0.0
 10
11.5494115454
 20
11.2727094742
 30
0.0
 10
11.5473996246
 20
11.2740070606
 30
0.0
 10
11.5463422657
 20
11.2746522142
 30
0.0
  0
SPLINE
  5
3AE
100
AcDbEntity
  8
0
100
AcDbSpline
 62
7
  6
CONTINUOUS
 70
0
 71
3
 72
37
 73
33
 74
0
 42
0.0000001
 43
0.0000001
 44
0.0000000001
 40
0.0
 40
0.0
 40
0.0
 40
0.0
 40
0.0064814169
 40
0.0130004366
 40
0.0195939246
 40
0.026297415
 40
0.0401584794
 40
0.0548332396
 40
0.0705197578
 40
0.0873743753
 40
0.1055161462
 40
0.1250331062
 40
0.1459874383
 40
0.1684209054
 40
0.192358525
 40
0.2178115857
 40
0.2447804602
 40
0.2732558216
 40
0.303220654
 40
0.3346510346
 40
0.3675169707
 40
0.4017834804
 40
0.4374105866
 40
0.4743543422
 40
0.5125669051
 40
0.5519968748
 40
0.5925898958
 40
0.6342884627
 40
0.7207574992
 40
0.8108981413
 40
0.904167663
 40
1.0
 40
1.0
 40
1.0
 40
1.0
 10
11.0912222111
 20
10.9530689313
 30
0.0
 10
11.0912222156
 20
10.9525904007
 30
0.0
 10
11.0912602827
 20
10.9516301329
 30
0.0
 10
11.091431323
 20
10.9501922372
 30
0.0
 10
11.0917162116
 20
10.9487556931
 30
0.0
 10
11.0922533076
 20
10.946822191
 30
0.0
 10
11.0932241286
 20
10.9443984028
 30
0.0
 10
11.0948279892
 20
10.9415454071
 30
0.0
 10
11.0968783685
 20
10.9387177845
 30
0.0
 10
11.099370297
 20
10.9359190909
 30
0.0
 10
11.102299071
 20
10.9331521839
 30
0.0
 10
11.1056598799
 20
10.9304205625
 30
0.0
 10
11.1094473424
 20
10.9277278354
 30
0.0
 10
11.1136555186
 20
10.9250779669
 30
0.0
 10
11.1182777297
 20
10.922475025
 30
0.0
 10
11.1233065508
 20
10.9199230985
 30
0.0
 10
11.1287338634
 20
10.9174263879
 30
0.0
 10
11.1345507918
 20
10.9149889419
 30
0.0
 10
11.1407477957
 20
10.9126148372
 30
0.0
 10
11.1473146532
 20
10.9103080373
 30
0.0
 10
11.1542404906
 20
10.9080723715
 30
0.0
 10
11.1615138246
 20
10.9059116412
 30
0.0
 10
11.1691225569
 20
10.9038294285
 30
0.0
 10
11.1770540238
 20
10.9018292614
 30
0.0
 10
11.1852950082
 20
10.8999145028
 30
0.0
 10
11.1938317596
 20
10.8980883526
 30
0.0
 10
11.2026500481
 20
10.8963538979
 30
0.0
 10
11.2149121324
 20
10.8941406854
 30
0.0
 10
11.2308365307
 20
10.8916348696
 30
0.0
 10
11.2505984697
 20
10.8890701412
 30
0.0
 10
11.2711058673
 20
10.8869299985
 30
0.0
 10
11.2850238423
 20
10.8858088339
 30
0.0
 10
11.292082303
 20
10.885319328
 30
0.0
  0
SPLINE
  5
3AF
100
AcDbEntity
  8
0
100
AcDbSpline
 62
7
  6
CONTINUOUS
 70
0
 71
3
 72
37
 73
33
 74
0
 42
0.0000001
 43
0.0000001
 44
0.0000000001
 40
0.0
 40
0.0
 40
0.0
 40
0.0
 40
0.0208562321
 40
0.0417795776
 40
0.0628263331
 40
0.0840599482
 40
0.1055500564
 40
0.127371863
 40
0.1496050553
 40
0.1723323203
 40
0.1956378567
 40
0.219605404
 40
0.2443163407
 40
0.2698481024
 40
0.3236384454
 40
0.3520312326
 40
0.3814826119
 40
0.4120288688
 40
0.4436964484
 40
0.4765016399
 40
0.5104509953
 40
0.545542322
 40
0.5817651069
 40
0.6191014995
 40
0.6575275703
 40
0.6970140642
 40
0.7375275215
 40
0.7790313267
 40
0.8214864652
 40
0.8648524029
 40
0.9090878063
 40
1.0
 40
1.0
 40
1.0
 40
1.0
 10
10.6718743734
 20
10.3116027514
 30
0.0
 10
10.6736404142
 20
10.3116934143
 30
0.0
 10
10.6771832191
 20
10.3117897048
 30
0.0
 10
10.6825109707
 20
10.3116652974
 30
0.0
 10
10.6878570542
 20
10.3112587085
 30
0.0
 10
10.6932209756
 20
10.3105562893
 30
0.0
 10
10.6986022705
 20
10.3095444914
 30
0.0
 10
10.7040001994
 20
10.3082099658
 30
0.0
 10
10.7094138215
 20
10.3065397556
 30
0.0
 10
10.7148420229
 20
10.304521587
 30
0.0
 10
10.7202834975
 20
10.3021439091
 30
0.0
 10
10.7257367442
 20
10.2993962596
 30
0.0
 10
10.7312003423
 20
10.2962693431
 30
0.0
 10
10.7386251395
 20
10.2915013711
 30
0.0
 10
10.7459351703
 20
10.2860005714
 30
0.0
 10
10.7531210043
 20
10.2798371871
 30
0.0
 10
10.7586086582
 20
10.2747298169
 30
0.0
 10
10.7640950925
 20
10.2692224674
 30
0.0
 10
10.7695786099
 20
10.263317954
 30
0.0
 10
10.7750572137
 20
10.2570213526
 30
0.0
 10
10.7805291382
 20
10.2503394595
 30
0.0
 10
10.7859925951
 20
10.2432806481
 30
0.0
 10
10.7914459818
 20
10.2358547742
 30
0.0
 10
10.7968878709
 20
10.2280729642
 30
0.0
 10
10.8023169256
 20
10.2199473216
 30
0.0
 10
10.8077320253
 20
10.2114907813
 30
0.0
 10
10.8131322337
 20
10.2027168731
 30
0.0
 10
10.8185167496
 20
10.193639479
 30
0.0
 10
10.8238849671
 20
10.184272694
 30
0.0
 10
10.8292364655
 20
10.1746306146
 30
0.0
 10
10.8364143692
 20
10.1613046547
 30
0.0
 10
10.8416718988
 20
10.1511217015
 30
0.0
 10
10.8451424779
 20
10.1442389005
 30
0.0
  0
SPLINE
  5
3B0
100
AcDbEntity
  8
0
100
AcDbSpline
 62
7
  6
CONTINUOUS
 70
0
 71
3
 72
49
 73
45
 74
0
 42
0.0000001
 43
0.0000001
 44
0.0000000001
 40
0.0
 40
0.0
 40
0.0
 40
0.0
 40
0.0417979565
 40
0.0840618121
 40
0.126660369
 40
0.1694652763
 40
0.2123449576
 40
0.2551684661
 40
0.2978047987
 40
0.34012375
 40
0.3819963751
 40
0.4232955074
 40
0.4638962899
 40
0.5036767046
 40
0.5425181191
 40
0.5803058677
 40
0.6169298438
 40
0.6522851147
 40
0.6862725972
 40
0.7187998069
 40
0.7497817162
 40
0.7791417868
 40
0.8068132165
 40
0.8327404853
 40
0.8450370859
 40
0.8568830575
 40
0.8682757373
 40
0.8792136481
 40
0.8896966555
 40
0.8997263549
 40
0.9093059403
 40
0.9184408914
 40
0.9271389197
 40
0.9354105853
 40
0.9432697039
 40
0.9507337194
 40
0.9578245785
 40
0.9645690008
 40
0.9709993992
 40
0.977154174
 40
0.9830780514
 40
0.9888220024
 40
0.9944424362
 40
1.0
 40
1.0
 40
1.0
 40
1.0
 10
11.292082303
 20
10.885319328
 30
0.0
 10
11.2971122608
 20
10.8849704993
 30
0.0
 10
11.3072339871
 20
10.884349371
 30
0.0
 10
11.3224973498
 20
10.8836483378
 30
0.0
 10
11.3378909971
 20
10.8831742267
 30
0.0
 10
11.3533642608
 20
10.8829285594
 30
0.0
 10
11.3688666017
 20
10.8829121767
 30
0.0
 10
11.3843471532
 20
10.8831251182
 30
0.0
 10
11.3997552106
 20
10.8835666905
 30
0.0
 10
11.4150402808
 20
10.8842354322
 30
0.0
 10
11.4301522842
 20
10.8851291335
 30
0.0
 10
11.4450417122
 20
10.8862448426
 30
0.0
 10
11.4596597904
 20
10.8875788747
 30
0.0
 10
11.4739586398
 20
10.8891268232
 30
0.0
 10
11.4878914369
 20
10.890883575
 30
0.0
 10
11.5014125727
 20
10.892843321
 30
0.0
 10
11.5144778073
 20
10.8949995757
 30
0.0
 10
11.527044419
 20
10.8973452026
 30
0.0
 10
11.5390713474
 20
10.8998724355
 30
0.0
 10
11.5505193449
 20
10.9025729049
 30
0.0
 10
11.5613510955
 20
10.90543767
 30
0.0
 10
11.5715314512
 20
10.9084572468
 30
0.0
 10
11.5810272668
 20
10.91162166
 30
0.0
 10
11.5884706899
 20
10.9144178671
 30
0.0
 10
11.594051986
 20
10.9167275555
 30
0.0
 10
11.5979738348
 20
10.9184588888
 30
0.0
 10
11.6017026594
 20
10.9202184936
 30
0.0
 10
11.6052354516
 20
10.9220049621
 30
0.0
 10
11.608569343
 20
10.9238168831
 30
0.0
 10
11.6117016784
 20
10.9256527396
 30
0.0
 10
11.6146299138
 20
10.9275111463
 30
0.0
 10
11.6173517408
 20
10.9293905763
 30
0.0
 10
11.619864973
 20
10.9312896165
 30
0.0
 10
11.6221676052
 20
10.9332068258
 30
0.0
 10
11.6242578252
 20
10.9351407528
 30
0.0
 10
11.6261338769
 20
10.9370900804
 30
0.0
 10
11.6277942594
 20
10.9390533762
 30
0.0
 10
11.6292374188
 20
10.9410293881
 30
0.0
 10
11.630461985
 20
10.9430167398
 30
0.0
 10
11.6314665635
 20
10.9450140788
 30
0.0
 10
11.6322497487
 20
10.9470198929
 30
0.0
 10
11.6328103568
 20
10.9490325195
 30
0.0
 10
11.6331471595
 20
10.9510496635
 30
0.0
 10
11.6332222079
 20
10.9523992185
 30
0.0
 10
11.6332222016
 20
10.953069621
 30
0.0
  0
SPLINE
  5
3B1
100
AcDbEntity
  8
0
100
AcDbSpline
 62
7
  6
CONTINUOUS
 70
0
 71
3
 72
21
 73
17
 74
0
 42
0.0000001
 43
0.0000001
 44
0.0000000001
 40
0.0
 40
0.0
 40
0.0
 40
0.0
 40
0.1335024027
 40
0.1991545413
 40
0.2640617592
 40
0.328236976
 40
0.3917078315
 40
0.4545157983
 40
0.5167140638
 40
0.5783644178
 40
0.6395336281
 40
0.7002898067
 40
0.7606991948
 40
0.8208237359
 40
0.8807192725
 40
1.0
 40
1.0
 40
1.0
 40
1.0
 10
11.1014247948
 20
10.9607112929
 30
0.0
 10
11.1086906441
 20
10.9571213449
 30
0.0
 10
11.1196972363
 20
10.9520911679
 30
0.0
 10
11.1346148491
 20
10.9462161952
 30
0.0
 10
11.145772313
 20
10.9423006413
 30
0.0
 10
11.1569493639
 20
10.9388683235
 30
0.0
 10
11.168134726
 20
10.9359296122
 30
0.0
 10
11.179316351
 20
10.933488406
 30
0.0
 10
11.1904824047
 20
10.9315417137
 30
0.0
 10
11.2016217899
 20
10.9300799555
 30
0.0
 10
11.2127246883
 20
10.9290876535
 30
0.0
 10
11.223782942
 20
10.9285444736
 30
0.0
 10
11.2347901574
 20
10.9284264305
 30
0.0
 10
11.2457420209
 20
10.9287071805
 30
0.0
 10
11.2602450031
 20
10.9295750253
 30
0.0
 10
11.2710676263
 20
10.9307424189
 30
0.0
 10
11.2782430397
 20
10.9317148222
 30
0.0
  0
SPLINE
  5
3B2
100
AcDbEntity
  8
0
100
AcDbSpline
 62
7
  6
CONTINUOUS
 70
0
 71
3
 72
11
 73
7
 74
0
 42
0.0000001
 43
0.0000001
 44
0.0000000001
 40
0.0
 40
0.0
 40
0.0
 40
0.0
 40
0.246643255
 40
0.4946437925
 40
0.7453338963
 40
1.0
 40
1.0
 40
1.0
 40
1.0
 10
11.0912222111
 20
11.194550747
 30
0.0
 10
11.0912222066
 20
11.1940847142
 30
0.0
 10
11.091258281
 20
11.1931496909
 30
0.0
 10
11.0914204561
 20
11.1917494313
 30
0.0
 10
11.0916905491
 20
11.1903505197
 30
0.0
 10
11.091940137
 20
11.1894278384
 30
0.0
 10
11.0920819908
 20
11.1889680305
 30
0.0
  0
SPLINE
  5
3B3
100
AcDbEntity
  8
0
100
AcDbSpline
 62
7
  6
CONTINUOUS
 70
0
 71
3
 72
34
 73
30
 74
0
 42
0.0000001
 43
0.0000001
 44
0.0000000001
 40
0.0
 40
0.0
 40
0.0
 40
0.0
 40
0.0133042491
 40
0.0273224423
 40
0.0422282434
 40
0.0581614234
 40
0.0752311591
 40
0.0935202471
 40
0.1130894004
 40
0.1339815665
 40
0.1562246228
 40
0.1798347294
 40
0.2048176674
 40
0.2311711
 40
0.2588854089
 40
0.2879448667
 40
0.3183285435
 40
0.3500105689
 40
0.3829612277
 40
0.4171466982
 40
0.4525300974
 40
0.4890712067
 40
0.5267271246
 40
0.5654523327
 40
0.6459146092
 40
0.7300514812
 40
0.8174244944
 40
0.9075684044
 40
1.0
 40
1.0
 40
1.0
 40
1.0
 10
11.0920819908
 20
11.1889680305
 30
0.0
 10
11.0923641519
 20
11.1880534275
 30
0.0
 10
11.0930756622
 20
11.1862138871
 30
0.0
 10
11.0945187355
 20
11.1835330571
 30
0.0
 10
11.0963566218
 20
11.1808732132
 30
0.0
 10
11.0985850941
 20
11.1782377448
 30
0.0
 10
11.1012004196
 20
11.1756291071
 30
0.0
 10
11.1041986514
 20
11.173050223
 30
0.0
 10
11.1075755031
 20
11.1705040888
 30
0.0
 10
11.1113262859
 20
11.1679940232
 30
0.0
 10
11.1154456961
 20
11.1655233036
 30
0.0
 10
11.1199279474
 20
11.1630954401
 30
0.0
 10
11.1247666202
 20
11.1607138111
 30
0.0
 10
11.129954779
 20
11.1583818973
 30
0.0
 10
11.135484917
 20
11.1561030779
 30
0.0
 10
11.1413490004
 20
11.1538806847
 30
0.0
 10
11.1475384866
 20
11.1517180259
 30
0.0
 10
11.1540443193
 20
11.1496182425
 30
0.0
 10
11.160856977
 20
11.1475845028
 30
0.0
 10
11.1679664565
 20
11.1456197579
 30
0.0
 10
11.17536232
 20
11.1437269682
 30
0.0
 10
11.1830336875
 20
11.1419089118
 30
0.0
 10
11.1909692838
 20
11.1401682731
 30
0.0
 10
11.2020282279
 20
11.1379255253
 30
0.0
 10
11.2164285872
 20
11.1353445037
 30
0.0
 10
11.2343538552
 20
11.1326315169
 30
0.0
 10
11.2530323824
 20
11.130280972
 30
0.0
 10
11.2723541017
 20
11.1283068749
 30
0.0
 10
11.285448495
 20
11.1272608551
 30
0.0
 10
11.292082303
 20
11.1268007989
 30
0.0
  0
SPLINE
  5
3B4
100
AcDbEntity
  8
0
100
AcDbSpline
 62
7
  6
CONTINUOUS
 70
0
 71
3
 72
23
 73
19
 74
0
 42
0.0000001
 43
0.0000001
 44
0.0000000001
 40
0.0
 40
0.0
 40
0.0
 40
0.0
 40
0.0391833167
 40
0.0792326229
 40
0.1209545224
 40
0.1650543905
 40
0.2121161115
 40
0.2626045815
 40
0.3168757789
 40
0.3751958765
 40
0.4377543613
 40
0.5046816548
 40
0.5760568734
 40
0.6519209045
 40
0.7322793775
 40
0.8171122833
 40
0.9063737945
 40
1.0
 40
1.0
 40
1.0
 40
1.0
 10
11.2112222181
 20
11.4785329573
 30
0.0
 10
11.2112222241
 20
11.4780079289
 30
0.0
 10
11.2113056703
 20
11.4769444964
 30
0.0
 10
11.2116789912
 20
11.4753615354
 30
0.0
 10
11.2122983984
 20
11.473787087
 30
0.0
 10
11.2131610526
 20
11.4722244671
 30
0.0
 10
11.2142640279
 20
11.4706754133
 30
0.0
 10
11.2156048311
 20
11.469141657
 30
0.0
 10
11.2171809202
 20
11.4676247506
 30
0.0
 10
11.2189898141
 20
11.4661265684
 30
0.0
 10
11.2210286692
 20
11.4646489704
 30
0.0
 10
11.22329443
 20
11.4631941163
 30
0.0
 10
11.2257835802
 20
11.4617640632
 30
0.0
 10
11.2284923056
 20
11.4603610834
 30
0.0
 10
11.2314163444
 20
11.4589872817
 30
0.0
 10
11.234551126
 20
11.4576449177
 30
0.0
 10
11.2378916342
 20
11.4563360649
 30
0.0
 10
11.2401979965
 20
11.45550681
 30
0.0
 10
11.2413837814
 20
11.455097243
 30
0.0
  0
SPLINE
  5
3B5
100
AcDbEntity
  8
0
100
AcDbSpline
 62
7
  6
CONTINUOUS
 70
0
 71
3
 72
42
 73
38
 74
0
 42
0.0000001
 43
0.0000001
 44
0.0000000001
 40
0.0
 40
0.0
 40
0.0
 40
0.0
 40
0.0884609881
 40
0.1783507206
 40
0.268380419
 40
0.3572546881
 40
0.4437009354
 40
0.4856294574
 40
0.5264960162
 40
0.5661587034
 40
0.6044815796
 40
0.6413356977
 40
0.6766004236
 40
0.7101641625
 40
0.7419255821
 40
0.7717956837
 40
0.799699626
 40
0.8255790925
 40
0.8493961298
 40
0.8711387013
 40
0.8812390678
 40
0.8908321497
 40
0.8999275258
 40
0.90853889
 40
0.9166840107
 40
0.9243859851
 40
0.9316741655
 40
0.9385845683
 40
0.9451612407
 40
0.9514566135
 40
0.9575313743
 40
0.9634540848
 40
0.9692991779
 40
0.9751443577
 40
0.9810673194
 40
0.9871424796
 40
1.0
 40
1.0
 40
1.0
 40
1.0
 10
11.3881040895
 20
11.7624010744
 30
0.0
 10
11.3840515877
 20
11.7626821164
 30
0.0
 10
11.3758707507
 20
11.7631074252
 30
0.0
 10
11.3635467277
 20
11.7633467468
 30
0.0
 10
11.3512022001
 20
11.7631917831
 30
0.0
 10
11.3390271685
 20
11.7626449337
 30
0.0
 10
11.3290793247
 20
11.7618623172
 30
0.0
 10
11.3213507217
 20
11.761040713
 30
0.0
 10
11.3157707769
 20
11.7603399383
 30
0.0
 10
11.3103698527
 20
11.7595511532
 30
0.0
 10
11.3051687241
 20
11.7586774034
 30
0.0
 10
11.3001873991
 20
11.757722091
 30
0.0
 10
11.2954450047
 20
11.7566889565
 30
0.0
 10
11.2909597241
 20
11.7555820384
 30
0.0
 10
11.2867487238
 20
11.7544056407
 30
0.0
 10
11.2828280437
 20
11.7531643532
 30
0.0
 10
11.2792125461
 20
11.7518630133
 30
0.0
 10
11.2759157451
 20
11.7505066226
 30
0.0
 10
11.2729500552
 20
11.749100339
 30
0.0
 10
11.2707112005
 20
11.747862487
 30
0.0
 10
11.2691018478
 20
11.7468464267
 30
0.0
 10
11.2680142917
 20
11.746094023
 30
0.0
 10
11.267017338
 20
11.7453331282
 30
0.0
 10
11.2661118838
 20
11.7445644353
 30
0.0
 10
11.2652987984
 20
11.7437885689
 30
0.0
 10
11.2645788804
 20
11.7430061477
 30
0.0
 10
11.263952812
 20
11.742217824
 30
0.0
 10
11.2634213382
 20
11.741424152
 30
0.0
 10
11.262985138
 20
11.7406257572
 30
0.0
 10
11.2626448467
 20
11.7398233243
 30
0.0
 10
11.2624012167
 20
11.7390175936
 30
0.0
 10
11.2622547907
 20
11.7382095336
 30
0.0
 10
11.2622059728
 20
11.7374002394
 30
0.0
 10
11.2622549881
 20
11.7365909703
 30
0.0
 10
11.2624016625
 20
11.7357828394
 30
0.0
 10
11.2627327185
 20
11.7346885031
 30
0.0
 10
11.263120671
 20
11.7339019134
 30
0.0
 10
11.263426317
 20
11.7333967486
 30
0.0
  0
SPLINE
  5
3B6
100
AcDbEntity
  8
0
100
AcDbSpline
 62
7
  6
CONTINUOUS
 70
0
 71
3
 72
41
 73
37
 74
0
 42
0.0000001
 43
0.0000001
 44
0.0000000001
 40
0.0
 40
0.0
 40
0.0
 40
0.0
 40
0.1050292792
 40
0.2065008034
 40
0.3035206385
 40
0.3500969942
 40
0.3952503414
 40
0.4388865308
 40
0.4809173833
 40
0.5212605996
 40
0.5598404375
 40
0.5965891044
 40
0.6314470176
 40
0.6643646131
 40
0.6953038345
 40
0.7242396199
 40
0.7511635306
 40
0.7760868857
 40
0.7990458001
 40
0.8201087207
 40
0.8393849856
 40
0.8570372891
 40
0.8732953732
 40
0.8810009699
 40
0.8884807387
 40
0.8957858127
 40
0.9029715054
 40
0.9100962814
 40
0.9172201955
 40
0.9244033626
 40
0.9317042607
 40
0.9391783118
 40
0.9468768985
 40
0.9631172113
 40
0.980748089
 40
1.0
 40
1.0
 40
1.0
 40
1.0
 10
11.3226229251
 20
11.6991511229
 30
0.0
 10
11.3178246401
 20
11.6994838851
 30
0.0
 10
11.3083987606
 20
11.7002646223
 30
0.0
 10
11.2945833653
 20
11.7018103379
 30
0.0
 10
11.2834720415
 20
11.7034046476
 30
0.0
 10
11.2749505907
 20
11.704856063
 30
0.0
 10
11.2688592623
 20
11.7060088606
 30
0.0
 10
11.2629953492
 20
11.7072378513
 30
0.0
 10
11.2573730848
 20
11.7085400134
 30
0.0
 10
11.2520061159
 20
11.7099121442
 30
0.0
 10
11.246907455
 20
11.7113509013
 30
0.0
 10
11.2420894302
 20
11.7128527131
 30
0.0
 10
11.2375636662
 20
11.7144139285
 30
0.0
 10
11.2333410332
 20
11.7160307358
 30
0.0
 10
11.2294316029
 20
11.7176991765
 30
0.0
 10
11.2258446492
 20
11.7194152879
 30
0.0
 10
11.2225885551
 20
11.7211749888
 30
0.0
 10
11.2196708124
 20
11.7229742468
 30
0.0
 10
11.2170980375
 20
11.724809228
 30
0.0
 10
11.2148759521
 20
11.7266762119
 30
0.0
 10
11.2130095802
 20
11.7285722335
 30
0.0
 10
11.211503915
 20
11.7304942168
 30
0.0
 10
11.2105370496
 20
11.7321454066
 30
0.0
 10
11.2099632166
 20
11.7334676613
 30
0.0
 10
11.2096335196
 20
11.7344447961
 30
0.0
 10
11.2093973238
 20
11.7354242341
 30
0.0
 10
11.2092549675
 20
11.7364052982
 30
0.0
 10
11.2092065959
 20
11.7373871849
 30
0.0
 10
11.20925228
 20
11.7383690869
 30
0.0
 10
11.2093920177
 20
11.7393501795
 30
0.0
 10
11.2096255463
 20
11.7403296723
 30
0.0
 10
11.2099525734
 20
11.7413068935
 30
0.0
 10
11.2105228386
 20
11.7426291688
 30
0.0
 10
11.2114852033
 20
11.7442806094
 30
0.0
 10
11.2129856328
 20
11.7462027841
 30
0.0
 10
11.2141712493
 20
11.7474107844
 30
0.0
 10
11.2148166501
 20
11.7480114067
 30
0.0
  0
SPLINE
  5
3B7
100
AcDbEntity
  8
0
100
AcDbSpline
 62
7
  6
CONTINUOUS
 70
0
 71
3
 72
33
 73
29
 74
0
 42
0.0000001
 43
0.0000001
 44
0.0000000001
 40
0.0
 40
0.0
 40
0.0
 40
0.0
 40
0.0958345178
 40
0.1891064633
 40
0.2792492778
 40
0.3657203813
 40
0.4480114523
 40
0.525652885
 40
0.5625976218
 40
0.5982256047
 40
0.6324929438
 40
0.6653597233
 40
0.6967908501
 40
0.7267564893
 40
0.7552325581
 40
0.7822021381
 40
0.8076558217
 40
0.831594097
 40
0.8540280948
 40
0.8749830591
 40
0.894500451
 40
0.9126427587
 40
0.9294977953
 40
0.9451847263
 40
0.9598599171
 40
0.973721296
 40
0.9870092776
 40
1.0
 40
1.0
 40
1.0
 40
1.0
 10
11.3145995413
 20
11.6614574264
 30
0.0
 10
11.3098070939
 20
11.6617897838
 30
0.0
 10
11.3003572579
 20
11.662551015
 30
0.0
 10
11.2864334483
 20
11.6640041018
 30
0.0
 10
11.2730157025
 20
11.6657454476
 30
0.0
 10
11.2601934542
 20
11.6677632144
 30
0.0
 10
11.24805224
 20
11.6700436829
 30
0.0
 10
11.2384157784
 20
11.6721838771
 30
0.0
 10
11.231114049
 20
11.6740251289
 30
0.0
 10
11.2259479698
 20
11.6754389026
 30
0.0
 10
11.2210096223
 20
11.6769059618
 30
0.0
 10
11.2163072095
 20
11.6784238948
 30
0.0
 10
11.2118485339
 20
11.6799901414
 30
0.0
 10
11.207640971
 20
11.681602068
 30
0.0
 10
11.2036914694
 20
11.6832570175
 30
0.0
 10
11.200006501
 20
11.6849521913
 30
0.0
 10
11.1965920991
 20
11.6866848697
 30
0.0
 10
11.1934537622
 20
11.6884521636
 30
0.0
 10
11.1905965556
 20
11.6902513536
 30
0.0
 10
11.1880249745
 20
11.6920795977
 30
0.0
 10
11.1857431085
 20
11.6939343023
 30
0.0
 10
11.1837545467
 20
11.695812911
 30
0.0
 10
11.1820626069
 20
11.6977131542
 30
0.0
 10
11.1806704747
 20
11.6996329605
 30
0.0
 10
11.1795814413
 20
11.7015702217
 30
0.0
 10
11.1787992613
 20
11.7035227401
 30
0.0
 10
11.1783276999
 20
11.7054863223
 30
0.0
 10
11.178222238
 20
11.7068058832
 30
0.0
 10
11.1782222214
 20
11.7074570775
 30
0.0
  0
SPLINE
  5
3B8
100
AcDbEntity
  8
0
100
AcDbSpline
 62
7
  6
CONTINUOUS
 70
0
 71
3
 72
36
 73
32
 74
0
 42
0.0000001
 43
0.0000001
 44
0.0000000001
 40
0.0
 40
0.0
 40
0.0
 40
0.0
 40
0.015359656
 40
0.0298381654
 40
0.0437749483
 40
0.0506660039
 40
0.0575676469
 40
0.0715877994
 40
0.0862257821
 40
0.10180884
 40
0.1186022801
 40
0.1368091516
 40
0.1565791563
 40
0.178016955
 40
0.2011930407
 40
0.2261493452
 40
0.2529069453
 40
0.2814683644
 40
0.3118227827
 40
0.3439466108
 40
0.3778070401
 40
0.4133620029
 40
0.4505624213
 40
0.4893521023
 40
0.5296692745
 40
0.6146088122
 40
0.6590864474
 40
0.7047957168
 40
0.7995678501
 40
0.8982189396
 40
1.0
 40
1.0
 40
1.0
 40
1.0
 10
11.4610181248
 20
11.7333967971
 30
0.0
 10
11.4612459479
 20
11.7337733428
 30
0.0
 10
11.4616425024
 20
11.7345345891
 30
0.0
 10
11.4620483351
 20
11.7357267989
 30
0.0
 10
11.4622094771
 20
11.7367312052
 30
0.0
 10
11.4622297765
 20
11.7375263978
 30
0.0
 10
11.4621796416
 20
11.7383226739
 30
0.0
 10
11.4619804262
 20
11.7393275032
 30
0.0
 10
11.4615299542
 20
11.7405178549
 30
0.0
 10
11.4608704274
 20
11.7416974189
 30
0.0
 10
11.4600048855
 20
11.7428641671
 30
0.0
 10
11.4589361233
 20
11.744016931
 30
0.0
 10
11.45766653
 20
11.7451541849
 30
0.0
 10
11.4561987432
 20
11.7462743737
 30
0.0
 10
11.4545355541
 20
11.7473755275
 30
0.0
 10
11.4526802532
 20
11.7484557295
 30
0.0
 10
11.4506364663
 20
11.749512798
 30
0.0
 10
11.44840832
 20
11.750544699
 30
0.0
 10
11.4460003106
 20
11.7515492435
 30
0.0
 10
11.44341738
 20
11.752524416
 30
0.0
 10
11.440664833
 20
11.7534681241
 30
0.0
 10
11.4377483651
 20
11.7543784349
 30
0.0
 10
11.4346740241
 20
11.7552533948
 30
0.0
 10
11.4314481959
 20
11.7560912087
 30
0.0
 10
11.4268741652
 20
11.7571752149
 30
0.0
 10
11.4221088043
 20
11.7581536477
 30
0.0
 10
11.4171690243
 20
11.7590365928
 30
0.0
 10
11.4119371593
 20
11.759882948
 30
0.0
 10
11.4051480755
 20
11.7608168938
 30
0.0
 10
11.396738069
 20
11.7617306938
 30
0.0
 10
11.391013448
 20
11.7621993097
 30
0.0
 10
11.3881040895
 20
11.7624010744
 30
0.0
  0
SPLINE
  5
3B9
100
AcDbEntity
  8
0
100
AcDbSpline
 62
7
  6
CONTINUOUS
 70
0
 71
3
 72
11
 73
7
 74
0
 42
0.0000001
 43
0.0000001
 44
0.0000000001
 40
0.0
 40
0.0
 40
0.0
 40
0.0
 40
0.2314244637
 40
0.4756235326
 40
0.732029292
 40
1.0
 40
1.0
 40
1.0
 40
1.0
 10
11.4251251674
 20
11.7177784937
 30
0.0
 10
11.4241644025
 20
11.7180898698
 30
0.0
 10
11.4221787383
 20
11.7186959094
 30
0.0
 10
11.4190963942
 20
11.7195370671
 30
0.0
 10
11.4158375924
 20
11.720332665
 30
0.0
 10
11.4136015522
 20
11.7208207193
 30
0.0
 10
11.4124563052
 20
11.7210574324
 30
0.0
  0
SPLINE
  5
3BA
100
AcDbEntity
  8
0
100
AcDbSpline
 62
7
  6
CONTINUOUS
 70
0
 71
3
 72
52
 73
48
 74
0
 42
0.0000001
 43
0.0000001
 44
0.0000000001
 40
0.0
 40
0.0
 40
0.0
 40
0.0
 40
0.0082491877
 40
0.0160251708
 40
0.0233642332
 40
0.0303118458
 40
0.0369231245
 40
0.0432637028
 40
0.0494090371
 40
0.0554427963
 40
0.0614538241
 40
0.0675320565
 40
0.0737642029
 40
0.0802302103
 40
0.087000763
 40
0.0941362396
 40
0.1016869601
 40
0.1096935522
 40
0.1181885642
 40
0.1271970953
 40
0.1367382826
 40
0.1468261384
 40
0.1574701586
 40
0.1686764948
 40
0.1804478353
 40
0.1927845108
 40
0.2056843631
 40
0.2191432253
 40
0.2477111656
 40
0.2784251746
 40
0.3111991946
 40
0.3459299696
 40
0.382499602
 40
0.4207776622
 40
0.4606228582
 40
0.5018842913
 40
0.5444027847
 40
0.5880121841
 40
0.632540304
 40
0.6778099391
 40
0.7236400035
 40
0.7698465158
 40
0.8162433268
 40
0.8626437264
 40
0.9088597293
 40
0.9547077405
 40
1.0
 40
1.0
 40
1.0
 40
1.0
 10
11.5096273129
 20
11.7480118212
 30
0.0
 10
11.5100634149
 20
11.7476059823
 30
0.0
 10
11.5108867169
 20
11.7467912317
 30
0.0
 10
11.511999465
 20
11.7455208229
 30
0.0
 10
11.5129509469
 20
11.7442404399
 30
0.0
 10
11.5137399102
 20
11.7429512659
 30
0.0
 10
11.5143649915
 20
11.7416543345
 30
0.0
 10
11.5148249378
 20
11.7403509762
 30
0.0
 10
11.5151185139
 20
11.7390427706
 30
0.0
 10
11.515244686
 20
11.7377316897
 30
0.0
 10
11.5152030932
 20
11.7364200129
 30
0.0
 10
11.5149937556
 20
11.7351100944
 30
0.0
 10
11.5146175529
 20
11.7338040636
 30
0.0
 10
11.514075527
 20
11.7325037206
 30
0.0
 10
11.5133689964
 20
11.7312104918
 30
0.0
 10
11.5124992898
 20
11.7299255338
 30
0.0
 10
11.5114676233
 20
11.7286499739
 30
0.0
 10
11.5102753671
 20
11.7273847874
 30
0.0
 10
11.5089237914
 20
11.7261311308
 30
0.0
 10
11.507414391
 20
11.7248900747
 30
0.0
 10
11.505748722
 20
11.7236628104
 30
0.0
 10
11.503928511
 20
11.7224505584
 30
0.0
 10
11.5019556781
 20
11.7212544907
 30
0.0
 10
11.4998322567
 20
11.7200759127
 30
0.0
 10
11.497560511
 20
11.7189159854
 30
0.0
 10
11.4951428229
 20
11.7177759959
 30
0.0
 10
11.4925817678
 20
11.7166571109
 30
0.0
 10
11.4889059783
 20
11.7151652794
 30
0.0
 10
11.4839669825
 20
11.7133702885
 30
0.0
 10
11.4776288355
 20
11.7113593732
 30
0.0
 10
11.4707935348
 20
11.7094596207
 30
0.0
 10
11.4634903835
 20
11.7076793151
 30
0.0
 10
11.4557505997
 20
11.7060262564
 30
0.0
 10
11.4476074219
 20
11.7045076815
 30
0.0
 10
11.4390958662
 20
11.7031302384
 30
0.0
 10
11.430252589
 20
11.7018999535
 30
0.0
 10
11.4211157084
 20
11.7008222001
 30
0.0
 10
11.4117246271
 20
11.6999016852
 30
0.0
 10
11.4021198597
 20
11.699142426
 30
0.0
 10
11.3923428565
 20
11.6985477364
 30
0.0
 10
11.3824358153
 20
11.6981202118
 30
0.0
 10
11.3724415077
 20
11.6978617203
 30
0.0
 10
11.3624030642
 20
11.6977733792
 30
0.0
 10
11.352363886
 20
11.6978555884
 30
0.0
 10
11.3423671735
 20
11.6981079589
 30
0.0
 10
11.3324562823
 20
11.6985294349
 30
0.0
 10
11.3258859315
 20
11.6989248326
 30
0.0
 10
11.3226229251
 20
11.6991511229
 30
0.0
  0
SPLINE
  5
3BB
100
AcDbEntity
  8
0
100
AcDbSpline
 62
7
  6
CONTINUOUS
 70
0
 71
3
 72
11
 73
7
 74
0
 42
0.0000001
 43
0.0000001
 44
0.0000000001
 40
0.0
 40
0.0
 40
0.0
 40
0.0
 40
0.2431313031
 40
0.4890706339
 40
0.7405222741
 40
1.0
 40
1.0
 40
1.0
 40
1.0
 10
11.5462221913
 20
11.2389833377
 30
0.0
 10
11.5462221913
 20
11.238523448
 30
0.0
 10
11.5461701779
 20
11.2375975447
 30
0.0
 10
11.5459366314
 20
11.2362137139
 30
0.0
 10
11.5455480739
 20
11.234833174
 30
0.0
 10
11.5451927002
 20
11.2339325093
 30
0.0
 10
11.5449916185
 20
11.2334847818
 30
0.0
  0
SPLINE
  5
3BC
100
AcDbEntity
  8
0
100
AcDbSpline
 62
7
  6
CONTINUOUS
 70
0
 71
3
 72
13
 73
9
 74
0
 42
0.0000001
 43
0.0000001
 44
0.0000000001
 40
0.0
 40
0.0
 40
0.0
 40
0.0
 40
0.25641475
 40
0.5084196785
 40
0.6327646266
 40
0.756035915
 40
0.8783670189
 40
1.0
 40
1.0
 40
1.0
 40
1.0
 10
11.4514506068
 20
11.7308339858
 30
0.0
 10
11.4500735061
 20
11.7295612779
 30
0.0
 10
11.447266227
 20
11.7271188149
 30
0.0
 10
11.4435426875
 20
11.7243596623
 30
0.0
 10
11.4404459713
 20
11.7224173416
 30
0.0
 10
11.4380710898
 20
11.7211175838
 30
0.0
 10
11.4356311581
 20
11.719990289
 30
0.0
 10
11.4339561114
 20
11.7193690396
 30
0.0
 10
11.4331093676
 20
11.7190965872
 30
0.0
  0
SPLINE
  5
3BD
100
AcDbEntity
  8
0
100
AcDbSpline
 62
7
  6
CONTINUOUS
 70
0
 71
3
 72
15
 73
11
 74
0
 42
0.0000001
 43
0.0000001
 44
0.0000000001
 40
0.0
 40
0.0
 40
0.0
 40
0.0
 40
0.1256689335
 40
0.2512874317
 40
0.376804792
 40
0.5021703391
 40
0.627300353
 40
0.7520824767
 40
0.8763698618
 40
1.0
 40
1.0
 40
1.0
 40
1.0
 10
11.3861308658
 20
11.7477399573
 30
0.0
 10
11.3848224919
 20
11.7465161359
 30
0.0
 10
11.3821688866
 20
11.7441084664
 30
0.0
 10
11.3780640027
 20
11.7406416379
 30
0.0
 10
11.3738212549
 20
11.7373511173
 30
0.0
 10
11.3694270937
 20
11.7342765871
 30
0.0
 10
11.364869662
 20
11.7314677843
 30
0.0
 10
11.3601420612
 20
11.7289855567
 30
0.0
 10
11.3552480525
 20
11.7269010658
 30
0.0
 10
11.3518745367
 20
11.7258238704
 30
0.0
 10
11.350169657
 20
11.7253770261
 30
0.0
  0
SPLINE
  5
3BE
100
AcDbEntity
  8
0
100
AcDbSpline
 62
7
  6
CONTINUOUS
 70
0
 71
3
 72
13
 73
9
 74
0
 42
0.0000001
 43
0.0000001
 44
0.0000000001
 40
0.0
 40
0.0
 40
0.0
 40
0.0
 40
0.269000228
 40
0.527919109
 40
0.6525468262
 40
0.7732229479
 40
0.8892952882
 40
1.0
 40
1.0
 40
1.0
 40
1.0
 10
11.2969024654
 20
11.7415519358
 30
0.0
 10
11.2964219985
 20
11.7395349457
 30
0.0
 10
11.2954483141
 20
11.7355837835
 30
0.0
 10
11.2941437834
 20
11.7307255464
 30
0.0
 10
11.2930548383
 20
11.7269945663
 30
0.0
 10
11.2922286634
 20
11.7243342814
 30
0.0
 10
11.2913819961
 20
11.7217932893
 30
0.0
 10
11.2907879774
 20
11.720149048
 30
0.0
 10
11.2904853059
 20
11.719351231
 30
0.0
  0
SPLINE
  5
3BF
100
AcDbEntity
  8
0
100
AcDbSpline
 62
7
  6
CONTINUOUS
 70
0
 71
3
 72
33
 73
29
 74
0
 42
0.0000001
 43
0.0000001
 44
0.0000000001
 40
0.0
 40
0.0
 40
0.0
 40
0.0
 40
0.0958347465
 40
0.1891068835
 40
0.2792498886
 40
0.365721138
 40
0.4480123107
 40
0.5256538489
 40
0.5625985949
 40
0.5982265653
 40
0.6324939043
 40
0.6653607009
 40
0.6967918132
 40
0.726757398
 40
0.7552334088
 40
0.7822029384
 40
0.8076565723
 40
0.8315947811
 40
0.8540286813
 40
0.8749835432
 40
0.8945008503
 40
0.9126430726
 40
0.9294980147
 40
0.9451848544
 40
0.9598599695
 40
0.9737213021
 40
0.9870092681
 40
1.0
 40
1.0
 40
1.0
 40
1.0
 10
11.3145995413
 20
11.432532992
 30
0.0
 10
11.3098070744
 20
11.4328653507
 30
0.0
 10
11.3003572015
 20
11.4336265854
 30
0.0
 10
11.2864333382
 20
11.4350796798
 30
0.0
 10
11.2730155441
 20
11.4368210355
 30
0.0
 10
11.2601932532
 20
11.4388388139
 30
0.0
 10
11.2480520025
 20
11.4411192966
 30
0.0
 10
11.2384155157
 20
11.4432595041
 30
0.0
 10
11.2311137708
 20
11.4451007675
 30
0.0
 10
11.2259476846
 20
11.4465145491
 30
0.0
 10
11.2210093306
 20
11.4479816177
 30
0.0
 10
11.2163069122
 20
11.4494995606
 30
0.0
 10
11.2118482342
 20
11.4510658166
 30
0.0
 10
11.2076406735
 20
11.4526777526
 30
0.0
 10
11.2036911768
 20
11.4543327114
 30
0.0
 10
11.2000062142
 20
11.4560278951
 30
0.0
 10
11.1965918199
 20
11.4577605844
 30
0.0
 10
11.1934534941
 20
11.4595278885
 30
0.0
 10
11.1905963023
 20
11.4613270877
 30
0.0
 10
11.1880247392
 20
11.4631553418
 30
0.0
 10
11.1857428926
 20
11.4650100565
 30
0.0
 10
11.1837543523
 20
11.4668886754
 30
0.0
 10
11.1820624378
 20
11.4687889288
 30
0.0
 10
11.1806703336
 20
11.4707087445
 30
0.0
 10
11.1795813309
 20
11.4726460152
 30
0.0
 10
11.178799185
 20
11.4745985438
 30
0.0
 10
11.1783276598
 20
11.4765621357
 30
0.0
 10
11.1782222243
 20
11.4778817007
 30
0.0
 10
11.1782222211
 20
11.4785328966
 30
0.0
  0
SPLINE
  5
3C0
100
AcDbEntity
  8
0
100
AcDbSpline
 62
7
  6
CONTINUOUS
 70
0
 71
3
 72
42
 73
38
 74
0
 42
0.0000001
 43
0.0000001
 44
0.0000000001
 40
0.0
 40
0.0
 40
0.0
 40
0.0
 40
0.005557651
 40
0.0111781846
 40
0.0169222187
 40
0.0228461754
 40
0.0290010539
 40
0.0354315214
 40
0.0421760481
 40
0.0492670082
 40
0.0567311201
 40
0.0645903594
 40
0.0728621509
 40
0.0815602792
 40
0.0906953794
 40
0.1002750926
 40
0.1103049202
 40
0.1207881255
 40
0.143116953
 40
0.1672581964
 40
0.193185847
 40
0.2208577536
 40
0.2502183049
 40
0.2812006669
 40
0.3137283593
 40
0.3477164109
 40
0.3830722582
 40
0.4196968079
 40
0.4574851671
 40
0.4963272389
 40
0.5361082938
 40
0.5767097203
 40
0.6598802884
 40
0.7448345465
 40
0.8305368221
 40
0.9159390551
 40
1.0
 40
1.0
 40
1.0
 40
1.0
 10
11.5462221913
 20
11.7074577049
 30
0.0
 10
11.5462222029
 20
11.7070025238
 30
0.0
 10
11.5461712815
 20
11.7060862168
 30
0.0
 10
11.5459425728
 20
11.704716647
 30
0.0
 10
11.5455619643
 20
11.7033501358
 30
0.0
 10
11.5450302218
 20
11.7019882485
 30
0.0
 10
11.5443481358
 20
11.700632131
 30
0.0
 10
11.5435167208
 20
11.6992827728
 30
0.0
 10
11.5425368599
 20
11.6979411324
 30
0.0
 10
11.5414095235
 20
11.6966081169
 30
0.0
 10
11.540135756
 20
11.6952845827
 30
0.0
 10
11.5387165689
 20
11.6939715105
 30
0.0
 10
11.5371531613
 20
11.6926697908
 30
0.0
 10
11.5354467718
 20
11.691380395
 30
0.0
 10
11.5335987411
 20
11.6901043313
 30
0.0
 10
11.531610574
 20
11.6888425352
 30
0.0
 10
11.5294838281
 20
11.6875960236
 30
0.0
 10
11.5264004064
 20
11.68592034
 30
0.0
 10
11.5222031257
 20
11.6838794081
 30
0.0
 10
11.5167457609
 20
11.6815556703
 30
0.0
 10
11.510783747
 20
11.6793158712
 30
0.0
 10
11.5043363348
 20
11.6771673458
 30
0.0
 10
11.497424228
 20
11.6751171509
 30
0.0
 10
11.4900698287
 20
11.6731720644
 30
0.0
 10
11.4822970239
 20
11.6713385269
 30
0.0
 10
11.4741311358
 20
11.6696226196
 30
0.0
 10
11.4655988192
 20
11.6680300154
 30
0.0
 10
11.4567279561
 20
11.6665659869
 30
0.0
 10
11.4475475481
 20
11.6652353778
 30
0.0
 10
11.4380876385
 20
11.6640426065
 30
0.0
 10
11.4283791733
 20
11.6629915815
 30
0.0
 10
11.4150388094
 20
11.6617742356
 30
0.0
 10
11.3979785087
 20
11.6606372394
 30
0.0
 10
11.3772000985
 20
11.6598890326
 30
0.0
 10
11.3562257464
 20
11.6597565758
 30
0.0
 10
11.3353299982
 20
11.6602416072
 30
0.0
 10
11.3214677786
 20
11.6609811125
 30
0.0
 10
11.3145995413
 20
11.6614574264
 30
0.0
  0
SPLINE
  5
3C1
100
AcDbEntity
  8
0
100
AcDbSpline
 62
7
  6
CONTINUOUS
 70
0
 71
3
 72
86
 73
82
 74
0
 42
0.0000001
 43
0.0000001
 44
0.0000000001
 40
0.0
 40
0.0
 40
0.0
 40
0.0
 40
0.0028079908
 40
0.0056356667
 40
0.0085022664
 40
0.0114261816
 40
0.0144246522
 40
0.0175134993
 40
0.0207070528
 40
0.0240180707
 40
0.0274577655
 40
0.0310359329
 40
0.0347609658
 40
0.038640055
 40
0.042679278
 40
0.0468836766
 40
0.0512574608
 40
0.0558039982
 40
0.0605259723
 40
0.0654254688
 40
0.0705039592
 40
0.0757624785
 40
0.0812015801
 40
0.0868214086
 40
0.0926217925
 40
0.098602163
 40
0.1110988164
 40
0.1243020343
 40
0.138198147
 40
0.1527702277
 40
0.1679984708
 40
0.1838605376
 40
0.2003318401
 40
0.2173857556
 40
0.2349938068
 40
0.2531258338
 40
0.2717501625
 40
0.2908337342
 40
0.3103422305
 40
0.3302401947
 40
0.3504911508
 40
0.3710577108
 40
0.3919016839
 40
0.4129841872
 40
0.4342657408
 40
0.4557063675
 40
0.4989023494
 40
0.5422471062
 40
0.5854133613
 40
0.6068280574
 40
0.6280763774
 40
0.6491184301
 40
0.6699148391
 40
0.6904268345
 40
0.710616361
 40
0.7304461931
 40
0.7498800367
 40
0.7688826284
 40
0.7874198622
 40
0.8054589271
 40
0.8229684203
 40
0.839918476
 40
0.8562809273
 40
0.8720295107
 40
0.8871400368
 40
0.9015906109
 40
0.9153619115
 40
0.9284375679
 40
0.9408045626
 40
0.9467195658
 40
0.9524543352
 40
0.9580084412
 40
0.9633818439
 40
0.9685748156
 40
0.9735880811
 40
0.9784227996
 40
0.9830806533
 40
0.9875640395
 40
0.991875945
 40
0.9960198822
 40
1.0
 40
1.0
 40
1.0
 40
1.0
 10
10.7682222252
 20
10.8931818714
 30
0.0
 10
10.7682222251
 20
10.8920279247
 30
0.0
 10
10.7683232538
 20
10.889710693
 30
0.0
 10
10.768777315
 20
10.8862421958
 30
0.0
 10
10.7695335104
 20
10.8827779487
 30
0.0
 10
10.7705910579
 20
10.8793203702
 30
0.0
 10
10.7719490913
 20
10.8758713388
 30
0.0
 10
10.7736063837
 20
10.8724326193
 30
0.0
 10
10.7755618161
 20
10.8690059129
 30
0.0
 10
10.777814087
 20
10.8655928107
 30
0.0
 10
10.7803617974
 20
10.8621948148
 30
0.0
 10
10.7832036011
 20
10.8588135223
 30
0.0
 10
10.7863379018
 20
10.8554503904
 30
0.0
 10
10.7897631125
 20
10.8521069811
 30
0.0
 10
10.7934775099
 20
10.8487848632
 30
0.0
 10
10.7974791858
 20
10.8454855319
 30
0.0
 10
10.8017661995
 20
10.8422106314
 30
0.0
 10
10.8063363823
 20
10.8389616896
 30
0.0
 10
10.8111874661
 20
10.8357402881
 30
0.0
 10
10.8163170605
 20
10.8325480557
 30
0.0
 10
10.8217225739
 20
10.8293864995
 30
0.0
 10
10.8274013359
 20
10.8262572494
 30
0.0
 10
10.8333504963
 20
10.8231618448
 30
0.0
 10
10.8395670655
 20
10.820101817
 30
0.0
 10
10.846047956
 20
10.8170787339
 30
0.0
 10
10.85517132
 20
10.8130399181
 30
0.0
 10
10.8672224801
 20
10.8081061557
 30
0.0
 10
10.8824788585
 20
10.8024401623
 30
0.0
 10
10.8987045217
 20
10.7969566102
 30
0.0
 10
10.9158668045
 20
10.7916666404
 30
0.0
 10
10.9339313214
 20
10.7865810048
 30
0.0
 10
10.952861718
 20
10.7817100477
 30
0.0
 10
10.9726198709
 20
10.7770636898
 30
0.0
 10
10.9931659422
 20
10.7726514008
 30
0.0
 10
11.0144584673
 20
10.7684821767
 30
0.0
 10
11.0364544408
 20
10.7645644989
 30
0.0
 10
11.0591094197
 20
10.760906344
 30
0.0
 10
11.0823776162
 20
10.7575151609
 30
0.0
 10
11.1062119895
 20
10.7543978622
 30
0.0
 10
11.1305643403
 20
10.7515607866
 30
0.0
 10
11.1553854135
 20
10.7490097008
 30
0.0
 10
11.1806249986
 20
10.7467497948
 30
0.0
 10
11.2062320396
 20
10.7447856696
 30
0.0
 10
11.232154718
 20
10.74312133
 30
0.0
 10
11.2583406289
 20
10.7417601241
 30
0.0
 10
11.2936212925
 20
10.7403497495
 30
0.0
 10
11.3379898886
 20
10.7393647041
 30
0.0
 10
11.3912976111
 20
10.7394209381
 30
0.0
 10
11.4356411589
 20
10.7404997167
 30
0.0
 10
11.4708821922
 20
10.7419849369
 30
0.0
 10
11.4970241734
 20
10.743401491
 30
0.0
 10
11.5228933437
 20
10.7451206076
 30
0.0
 10
11.5484374078
 20
10.7471388225
 30
0.0
 10
11.5736046722
 20
10.749452032
 30
0.0
 10
11.5983442265
 20
10.7520555239
 30
0.0
 10
11.6226060296
 20
10.754943999
 30
0.0
 10
11.6463410134
 20
10.7581115811
 30
0.0
 10
11.669501178
 20
10.7615518328
 30
0.0
 10
11.6920396998
 20
10.765257748
 30
0.0
 10
11.7139110314
 20
10.7692217744
 30
0.0
 10
11.7350709898
 20
10.7734358395
 30
0.0
 10
11.7554768407
 20
10.7778913647
 30
0.0
 10
11.775087402
 20
10.7825792798
 30
0.0
 10
11.7938631405
 20
10.7874900245
 30
0.0
 10
11.8117662598
 20
10.7926135975
 30
0.0
 10
11.8287607444
 20
10.7979395702
 30
0.0
 10
11.8448125565
 20
10.8034571329
 30
0.0
 10
11.8598893903
 20
10.8091550768
 30
0.0
 10
11.8717864289
 20
10.8141149546
 30
0.0
 10
11.8807835907
 20
10.8181736942
 30
0.0
 10
11.8871687338
 20
10.821210393
 30
0.0
 10
11.8932884098
 20
10.8242834683
 30
0.0
 10
11.8991395868
 20
10.8273913523
 30
0.0
 10
11.9047193049
 20
10.8305325487
 30
0.0
 10
11.9100247819
 20
10.8337054434
 30
0.0
 10
11.9150533702
 20
10.8369084377
 30
0.0
 10
11.9198025586
 20
10.840140025
 30
0.0
 10
11.9242700624
 20
10.8433986021
 30
0.0
 10
11.9284536479
 20
10.8466826872
 30
0.0
 10
11.9323510193
 20
10.8499904504
 30
0.0
 10
11.9348057443
 20
10.8522551311
 30
0.0
 10
11.9359821811
 20
10.853391482
 30
0.0
  0
SPLINE
  5
3C2
100
AcDbEntity
  8
0
100
AcDbSpline
 62
7
  6
CONTINUOUS
 70
0
 71
3
 72
42
 73
38
 74
0
 42
0.0000001
 43
0.0000001
 44
0.0000000001
 40
0.0
 40
0.0
 40
0.0
 40
0.0
 40
0.0055576439
 40
0.0111781823
 40
0.0169222325
 40
0.0228462152
 40
0.0290011274
 40
0.0354316343
 40
0.0421762041
 40
0.0492672095
 40
0.0567313683
 40
0.0645906554
 40
0.0728624956
 40
0.0815606736
 40
0.0906958242
 40
0.1002755871
 40
0.1103054627
 40
0.1207887128
 40
0.1431176143
 40
0.1672589275
 40
0.193186654
 40
0.2208586064
 40
0.250219186
 40
0.2812015833
 40
0.3137293045
 40
0.3477173355
 40
0.3830731799
 40
0.4196977335
 40
0.4574860579
 40
0.4963280695
 40
0.5361091027
 40
0.5767104867
 40
0.6598809029
 40
0.7448350332
 40
0.8305371445
 40
0.9159392132
 40
1.0
 40
1.0
 40
1.0
 40
1.0
 10
11.5462221915
 20
11.478533017
 30
0.0
 10
11.5462221937
 20
11.478077837
 30
0.0
 10
11.5461712535
 20
11.4771615322
 30
0.0
 10
11.5459425179
 20
11.4757919672
 30
0.0
 10
11.5455618836
 20
11.4744254608
 30
0.0
 10
11.5450301164
 20
11.4730635782
 30
0.0
 10
11.5443480063
 20
11.4717074656
 30
0.0
 10
11.5435165683
 20
11.4703581122
 30
0.0
 10
11.5425366857
 20
11.469016477
 30
0.0
 10
11.5414093286
 20
11.467683467
 30
0.0
 10
11.5401355414
 20
11.4663599384
 30
0.0
 10
11.5387163358
 20
11.4650468719
 30
0.0
 10
11.5371529107
 20
11.4637451579
 30
0.0
 10
11.5354465044
 20
11.4624557677
 30
0.0
 10
11.5335984578
 20
11.4611797096
 30
0.0
 10
11.5316102756
 20
11.459917919
 30
0.0
 10
11.5294835158
 20
11.4586714131
 30
0.0
 10
11.526400078
 20
11.4569957382
 30
0.0
 10
11.5222027805
 20
11.4549548169
 30
0.0
 10
11.5167453976
 20
11.4526310912
 30
0.0
 10
11.5107833696
 20
11.4503913036
 30
0.0
 10
11.504335948
 20
11.44824279
 30
0.0
 10
11.4974238362
 20
11.446192607
 30
0.0
 10
11.4900694341
 20
11.4442475317
 30
0.0
 10
11.4822966315
 20
11.4424140054
 30
0.0
 10
11.4741307495
 20
11.4406981087
 30
0.0
 10
11.4655984417
 20
11.4391055151
 30
0.0
 10
11.4567275893
 20
11.4376414958
 30
0.0
 10
11.4475471971
 20
11.4363108962
 30
0.0
 10
11.438087306
 20
11.4351181332
 30
0.0
 10
11.4283788603
 20
11.4340671163
 30
0.0
 10
11.4150385272
 20
11.4328497794
 30
0.0
 10
11.39797827
 20
11.4317127935
 30
0.0
 10
11.3771999174
 20
11.4309645948
 30
0.0
 10
11.3562256243
 20
11.4308321431
 30
0.0
 10
11.3353299375
 20
11.4313171757
 30
0.0
 10
11.3214677586
 20
11.4320566795
 30
0.0
 10
11.3145995413
 20
11.432532992
 30
0.0
  0
SPLINE
  5
3C3
100
AcDbEntity
  8
0
100
AcDbSpline
 62
7
  6
CONTINUOUS
 70
0
 71
3
 72
53
 73
49
 74
0
 42
0.0000001
 43
0.0000001
 44
0.0000000001
 40
0.0
 40
0.0
 40
0.0
 40
0.0
 40
0.0449396823
 40
0.0904235449
 40
0.1362736882
 40
0.1823122045
 40
0.2283591096
 40
0.2742348778
 40
0.3197606481
 40
0.364759399
 40
0.4090567737
 40
0.4524820092
 40
0.4948689126
 40
0.5360567623
 40
0.5758913887
 40
0.6142261559
 40
0.6509231839
 40
0.6858545784
 40
0.7189039376
 40
0.7499681276
 40
0.7647285006
 40
0.7789611284
 40
0.7926580633
 40
0.8058125676
 40
0.8184196808
 40
0.8304759531
 40
0.841980185
 40
0.8529332157
 40
0.8633387427
 40
0.8732033517
 40
0.8825373937
 40
0.8913554031
 40
0.8996770178
 40
0.9075278748
 40
0.9149405896
 40
0.9219559909
 40
0.9286238823
 40
0.9350039039
 40
0.9411652111
 40
0.9471855611
 40
0.9531487637
 40
0.9591412918
 40
0.9652482569
 40
0.9715496516
 40
0.9781176339
 40
0.9850149375
 40
0.9922945129
 40
1.0
 40
1.0
 40
1.0
 40
1.0
 10
11.2981246649
 20
11.1925246775
 30
0.0
 10
11.3033206914
 20
11.1921643318
 30
0.0
 10
11.3137823957
 20
11.1915331956
 30
0.0
 10
11.3295626918
 20
11.1908554271
 30
0.0
 10
11.3454795721
 20
11.190442558
 30
0.0
 10
11.3614663703
 20
11.1902963105
 30
0.0
 10
11.3774563531
 20
11.1904173167
 30
0.0
 10
11.3933826544
 20
11.1908050569
 30
0.0
 10
11.4091787266
 20
11.1914578995
 30
0.0
 10
11.4247785528
 20
11.1923730883
 30
0.0
 10
11.4401169495
 20
11.1935467606
 30
0.0
 10
11.4551298366
 20
11.1949739618
 30
0.0
 10
11.4697545075
 20
11.1966486625
 30
0.0
 10
11.4839299031
 20
11.1985637862
 30
0.0
 10
11.4975968651
 20
11.2007112336
 30
0.0
 10
11.5106984082
 20
11.203081918
 30
0.0
 10
11.5231799427
 20
11.2056658029
 30
0.0
 10
11.5349896125
 20
11.2084519347
 30
0.0
 10
11.5460782475
 20
11.2114285343
 30
0.0
 10
11.5548228487
 20
11.2141007723
 30
0.0
 10
11.5614162403
 20
11.2163331448
 30
0.0
 10
11.5660685108
 20
11.2180185868
 30
0.0
 10
11.5705078231
 20
11.2197419328
 30
0.0
 10
11.5747295688
 20
11.2215014764
 30
0.0
 10
11.5787293988
 20
11.2232953037
 30
0.0
 10
11.5825031672
 20
11.2251216378
 30
0.0
 10
11.5860470224
 20
11.226978513
 30
0.0
 10
11.5893573121
 20
11.2288641106
 30
0.0
 10
11.5924306939
 20
11.2307764529
 30
0.0
 10
11.5952640295
 20
11.2327136967
 30
0.0
 10
11.5978544807
 20
11.234673916
 30
0.0
 10
11.6001994263
 20
11.2366552843
 30
0.0
 10
11.6022964807
 20
11.2386560014
 30
0.0
 10
11.6041434767
 20
11.240674314
 30
0.0
 10
11.6057383265
 20
11.2427085927
 30
0.0
 10
11.60707913
 20
11.2447571487
 30
0.0
 10
11.6081638288
 20
11.2468183649
 30
0.0
 10
11.608990562
 20
11.2488902973
 30
0.0
 10
11.6095572513
 20
11.250970742
 30
0.0
 10
11.6098623993
 20
11.2530568519
 30
0.0
 10
11.6099047983
 20
11.2551453335
 30
0.0
 10
11.6096844428
 20
11.2572325989
 30
0.0
 10
11.6092019868
 20
11.2593151953
 30
0.0
 10
11.6084590239
 20
11.2613901596
 30
0.0
 10
11.6074573724
 20
11.2634550409
 30
0.0
 10
11.6061990174
 20
11.2655078964
 30
0.0
 10
11.6046860395
 20
11.2675468904
 30
0.0
 10
11.6035429045
 20
11.2688569051
 30
0.0
 10
11.6029330849
 20
11.2695093513
 30
0.0
  0
SPLINE
  5
3C4
100
AcDbEntity
  8
0
100
AcDbSpline
 62
7
  6
CONTINUOUS
 70
0
 71
3
 72
27
 73
23
 74
0
 42
0.0000001
 43
0.0000001
 44
0.0000000001
 40
0.0
 40
0.0
 40
0.0
 40
0.0
 40
0.08655214
 40
0.1671900088
 40
0.242104307
 40
0.3115781172
 40
0.3760087216
 40
0.4065070281
 40
0.4359601011
 40
0.4920842705
 40
0.5452904197
 40
0.5711430455
 40
0.5966747799
 40
0.6220372295
 40
0.6473854407
 40
0.6728747227
 40
0.6986575473
 40
0.7516472373
 40
0.8074651331
 40
0.8670117513
 40
0.9310058662
 40
1.0
 40
1.0
 40
1.0
 40
1.0
 10
11.1781036324
 20
11.2746531208
 30
0.0
 10
11.1770461898
 20
11.274007955
 30
0.0
 10
11.1750341172
 20
11.2727103225
 30
0.0
 10
11.1722369489
 20
11.2706615911
 30
0.0
 10
11.1697730249
 20
11.2685831009
 30
0.0
 10
11.16764676
 20
11.2664780117
 30
0.0
 10
11.1661324415
 20
11.2646714313
 30
0.0
 10
11.1651044694
 20
11.2632169925
 30
0.0
 10
11.1642255327
 20
11.2618064042
 30
0.0
 10
11.1633311504
 20
11.2600262606
 30
0.0
 10
11.1627113321
 20
11.258185386
 30
0.0
 10
11.1624017785
 20
11.2567194864
 30
0.0
 10
11.1622603593
 20
11.2556290246
 30
0.0
 10
11.1622077941
 20
11.2545379281
 30
0.0
 10
11.162244116
 20
11.2534467774
 30
0.0
 10
11.1623692896
 20
11.2523561447
 30
0.0
 10
11.162656882
 20
11.2508905765
 30
0.0
 10
11.1632490599
 20
11.2490493365
 30
0.0
 10
11.1643074571
 20
11.2468770563
 30
0.0
 10
11.1657156357
 20
11.244723692
 30
0.0
 10
11.1674691396
 20
11.2425922278
 30
0.0
 10
11.1688130456
 20
11.241240502
 30
0.0
 10
11.1695358991
 20
11.2405678178
 30
0.0
  0
SPLINE
  5
3C5
100
AcDbEntity
  8
0
100
AcDbSpline
 62
7
  6
CONTINUOUS
 70
0
 71
3
 72
51
 73
47
 74
0
 42
0.0000001
 43
0.0000001
 44
0.0000000001
 40
0.0
 40
0.0
 40
0.0
 40
0.0
 40
0.0481981543
 40
0.0958297627
 40
0.1428198924
 40
0.1890979021
 40
0.2345929845
 40
0.2792366232
 40
0.3229620059
 40
0.3657043955
 40
0.407401299
 40
0.4479926583
 40
0.487421079
 40
0.5256320682
 40
0.5625743167
 40
0.5981999883
 40
0.632465054
 40
0.6653296887
 40
0.6967587434
 40
0.7267223259
 40
0.7551965116
 40
0.7688699941
 40
0.7821653239
 40
0.7950816676
 40
0.8076186919
 40
0.8197767408
 40
0.831556867
 40
0.8429608276
 40
0.853991318
 40
0.8646518761
 40
0.8749471432
 40
0.8848828957
 40
0.8944661615
 40
0.9037054719
 40
0.9126108622
 40
0.9211942109
 40
0.9294693075
 40
0.9374520821
 40
0.9451608359
 40
0.9598349633
 40
0.9668568031
 40
0.9737036573
 40
0.9804068794
 40
0.9870000935
 40
0.9935188424
 40
1.0
 40
1.0
 40
1.0
 40
1.0
 10
11.1598258801
 20
9.2478272699
 30
0.0
 10
11.1495815394
 20
9.2485377174
 30
0.0
 10
11.1292210049
 20
9.250064619
 30
0.0
 10
11.0989050651
 20
9.2526900698
 30
0.0
 10
11.06902937
 20
9.2556339074
 30
0.0
 10
11.0396441379
 20
9.2588911148
 30
0.0
 10
11.0107983079
 20
9.2624562707
 30
0.0
 10
10.9825401837
 20
9.2663233644
 30
0.0
 10
10.9549169752
 20
9.2704859057
 30
0.0
 10
10.9279748489
 20
9.2749368933
 30
0.0
 10
10.9017588172
 20
9.2796688439
 30
0.0
 10
10.8763126691
 20
9.2846738019
 30
0.0
 10
10.8516788953
 20
9.2899433516
 30
0.0
 10
10.8278986101
 20
9.2954686349
 30
0.0
 10
10.8050114748
 20
9.3012403564
 30
0.0
 10
10.783055629
 20
9.3072488082
 30
0.0
 10
10.7620676176
 20
9.3134838899
 30
0.0
 10
10.7420823491
 20
9.3199351254
 30
0.0
 10
10.7231329313
 20
9.3265916995
 30
0.0
 10
10.7052509268
 20
9.3334424467
 30
0.0
 10
10.6910780127
 20
9.3393811655
 30
0.0
 10
10.680305869
 20
9.344229793
 30
0.0
 10
10.6726212256
 20
9.3478585145
 30
0.0
 10
10.6652248283
 20
9.3515270772
 30
0.0
 10
10.6581197466
 20
9.3552340178
 30
0.0
 10
10.6513089293
 20
9.3589777866
 30
0.0
 10
10.6447951851
 20
9.3627568115
 30
0.0
 10
10.6385812316
 20
9.3665695842
 30
0.0
 10
10.6326696083
 20
9.3704144801
 30
0.0
 10
10.6270627784
 20
9.3742899782
 30
0.0
 10
10.621763042
 20
9.3781944791
 30
0.0
 10
10.6167725754
 20
9.3821263997
 30
0.0
 10
10.6120934662
 20
9.3860842071
 30
0.0
 10
10.6077276045
 20
9.3900662758
 30
0.0
 10
10.6036768568
 20
9.3940710961
 30
0.0
 10
10.5999428712
 20
9.3980971054
 30
0.0
 10
10.5965273119
 20
9.4021426513
 30
0.0
 10
10.5934314681
 20
9.4062066388
 30
0.0
 10
10.5897924129
 20
9.4115581715
 30
0.0
 10
10.5867136316
 20
9.4170361951
 30
0.0
 10
10.5842743208
 20
9.4226110294
 30
0.0
 10
10.5827973553
 20
9.4267416943
 30
0.0
 10
10.5816474821
 20
9.4308804502
 30
0.0
 10
10.5808255209
 20
9.4350256743
 30
0.0
 10
10.580332028
 20
9.439174918
 30
0.0
 10
10.5802222186
 20
9.4419458731
 30
0.0
 10
10.5802222134
 20
9.443326728
 30
0.0
  0
SPLINE
  5
3C6
100
AcDbEntity
  8
0
100
AcDbSpline
 62
7
  6
CONTINUOUS
 70
0
 71
3
 72
21
 73
17
 74
0
 42
0.0000001
 43
0.0000001
 44
0.0000000001
 40
0.0
 40
0.0
 40
0.0
 40
0.0
 40
0.1274736051
 40
0.2540669052
 40
0.317066844
 40
0.3798654327
 40
0.4424734343
 40
0.5049033677
 40
0.5671697566
 40
0.6292888896
 40
0.6912786506
 40
0.7531583351
 40
0.8149484499
 40
0.8766705047
 40
0.9383467658
 40
1.0
 40
1.0
 40
1.0
 40
1.0
 10
9.742902931
 20
6.5602174294
 30
0.0
 10
9.7361124947
 20
6.5606883477
 30
0.0
 10
9.7225223019
 20
6.5609535634
 30
0.0
 10
9.7056178157
 20
6.5595675647
 30
0.0
 10
9.6923055238
 20
6.5574341732
 30
0.0
 10
9.6824627457
 20
6.5553305153
 30
0.0
 10
9.672772144
 20
6.5527261509
 30
0.0
 10
9.6632578575
 20
6.5496275657
 30
0.0
 10
9.6539439324
 20
6.5460425451
 30
0.0
 10
9.6448538036
 20
6.541980122
 30
0.0
 10
9.6360103818
 20
6.5374505089
 30
0.0
 10
9.6274359621
 20
6.5324650666
 30
0.0
 10
9.6191521682
 20
6.5270363749
 30
0.0
 10
9.6111797953
 20
6.5211780462
 30
0.0
 10
9.603539201
 20
6.5149050956
 30
0.0
 10
9.5986785555
 20
6.5104562873
 30
0.0
 10
9.5963106922
 20
6.5081690945
 30
0.0
  0
SPLINE
  5
3C7
100
AcDbEntity
  8
0
100
AcDbSpline
 62
7
  6
CONTINUOUS
 70
0
 71
3
 72
37
 73
33
 74
0
 42
0.0000001
 43
0.0000001
 44
0.0000000001
 40
0.0
 40
0.0
 40
0.0
 40
0.0
 40
0.0762765593
 40
0.1537865078
 40
0.2318240563
 40
0.3096760074
 40
0.3866315849
 40
0.4619904899
 40
0.4988581466
 40
0.5350730456
 40
0.5705543585
 40
0.6052235241
 40
0.6390045187
 40
0.6718241542
 40
0.7036124407
 40
0.7343029346
 40
0.763833083
 40
0.7921446442
 40
0.8191842117
 40
0.8449038424
 40
0.869261715
 40
0.8922230124
 40
0.9137610846
 40
0.9338590359
 40
0.9433666598
 40
0.9525134308
 40
0.9613010843
 40
0.9697324143
 40
0.9778114875
 40
0.9855439661
 40
0.9929370544
 40
1.0
 40
1.0
 40
1.0
 40
1.0
 10
12.3764195525
 20
6.5209296727
 30
0.0
 10
12.3764195525
 20
6.5299336893
 30
0.0
 10
12.3766617869
 20
6.5480881011
 30
0.0
 10
12.3777186038
 20
6.575435889
 30
0.0
 10
12.3794628464
 20
6.6029349317
 30
0.0
 10
12.3818775438
 20
6.630317532
 30
0.0
 10
12.3849391526
 20
6.6573171556
 30
0.0
 10
12.3880264878
 20
6.6794375012
 30
0.0
 10
12.3908043088
 20
6.6967390779
 30
0.0
 10
12.3930137599
 20
6.7093629915
 30
0.0
 10
12.3953589579
 20
6.7216983288
 30
0.0
 10
12.3978341885
 20
6.733715074
 30
0.0
 10
12.4004333853
 20
6.7453839642
 30
0.0
 10
12.4031501909
 20
6.7566765969
 30
0.0
 10
12.4059779485
 20
6.7675655004
 30
0.0
 10
12.4089097238
 20
6.7780242058
 30
0.0
 10
12.4119383306
 20
6.7880273077
 30
0.0
 10
12.4150563481
 20
6.7975505296
 30
0.0
 10
12.4182561389
 20
6.8065707958
 30
0.0
 10
12.4215298597
 20
6.8150663117
 30
0.0
 10
12.4248695016
 20
6.8230165941
 30
0.0
 10
12.4282669332
 20
6.8304026223
 30
0.0
 10
12.4317138952
 20
6.8372066028
 30
0.0
 10
12.4346730913
 20
6.8424716484
 30
0.0
 10
12.4370649264
 20
6.8463715696
 30
0.0
 10
12.4388327279
 20
6.8490865772
 30
0.0
 10
12.4406066449
 20
6.8516444605
 30
0.0
 10
12.4423856562
 20
6.854043692
 30
0.0
 10
12.4441687293
 20
6.8562828162
 30
0.0
 10
12.4459548007
 20
6.858360548
 30
0.0
 10
12.4477428229
 20
6.8602755588
 30
0.0
 10
12.4489628226
 20
6.8614697799
 30
0.0
 10
12.4495731376
 20
6.8620377933
 30
0.0
  0
SPLINE
  5
3C8
100
AcDbEntity
  8
0
100
AcDbSpline
 62
7
  6
CONTINUOUS
 70
0
 71
3
 72
57
 73
53
 74
0
 42
0.0000001
 43
0.0000001
 44
0.0000000001
 40
0.0
 40
0.0
 40
0.0
 40
0.0
 40
0.0027758556
 40
0.0055596162
 40
0.0083591163
 40
0.0111820474
 40
0.0169259367
 40
0.0228497814
 40
0.0290045027
 40
0.035434857
 40
0.0387662474
 40
0.0421804316
 40
0.0492712204
 40
0.0567352172
 40
0.0645942543
 40
0.0728658822
 40
0.0815638466
 40
0.0906987208
 40
0.1002782631
 40
0.1103078527
 40
0.1207908096
 40
0.1317286097
 40
0.1431212046
 40
0.1549670863
 40
0.1672635606
 40
0.1800067873
 40
0.1931919329
 40
0.2068132748
 40
0.2208642175
 40
0.2353374611
 40
0.2502249441
 40
0.2655180013
 40
0.2812073357
 40
0.2972830868
 40
0.3137348879
 40
0.3477220191
 40
0.3830769267
 40
0.4197005279
 40
0.4574878865
 40
0.4963288883
 40
0.5361088686
 40
0.5767092055
 40
0.6180078859
 40
0.6598800522
 40
0.7021985379
 40
0.7448343954
 40
0.7876574166
 40
0.8305366596
 40
0.8733409362
 40
0.9159394633
 40
0.9582018992
 40
1.0
 40
1.0
 40
1.0
 40
1.0
 10
12.1442221992
 20
9.4433275124
 30
0.0
 10
12.1442222028
 20
9.4423612621
 30
0.0
 10
12.1441685997
 20
9.4404255815
 30
0.0
 10
12.1439275322
 20
9.4375244652
 30
0.0
 10
12.1435257631
 20
9.4346245275
 30
0.0
 10
12.1427718777
 20
9.4307388684
 30
0.0
 10
12.1414159476
 20
9.4258701712
 30
0.0
 10
12.1391558224
 20
9.4200824618
 30
0.0
 10
12.1362570675
 20
9.4143189452
 30
0.0
 10
12.1333470985
 20
9.4095964671
 30
0.0
 10
12.130717415
 20
9.4058377439
 30
0.0
 10
12.1278099749
 20
9.4019967169
 30
0.0
 10
12.1237675557
 20
9.3972167514
 30
0.0
 10
12.1183540061
 20
9.3915919836
 30
0.0
 10
12.1123224284
 20
9.386011329
 30
0.0
 10
12.1056778655
 20
9.3804790838
 30
0.0
 10
12.0984256279
 20
9.3749991945
 30
0.0
 10
12.0905714719
 20
9.3695758867
 30
0.0
 10
12.0821216704
 20
9.3642133168
 30
0.0
 10
12.0730829715
 20
9.3589157019
 30
0.0
 10
12.063462611
 20
9.3536872817
 30
0.0
 10
12.0532683453
 20
9.348532204
 30
0.0
 10
12.042508381
 20
9.3434546933
 30
0.0
 10
12.0311914436
 20
9.3384588155
 30
0.0
 10
12.0193267003
 20
9.3335486838
 30
0.0
 10
12.0069237988
 20
9.3287282898
 30
0.0
 10
11.9939928347
 20
9.3240015743
 30
0.0
 10
11.9805443414
 20
9.3193724391
 30
0.0
 10
11.9665892975
 20
9.3148446391
 30
0.0
 10
11.9521390899
 20
9.3104219407
 30
0.0
 10
11.9372055317
 20
9.3061079327
 30
0.0
 10
11.9218008268
 20
9.3019061882
 30
0.0
 10
11.9059375807
 20
9.2978201565
 30
0.0
 10
11.8896287552
 20
9.2938531578
 30
0.0
 10
11.8670624788
 20
9.2886708142
 30
0.0
 10
11.8378336474
 20
9.2825290643
 30
0.0
 10
11.8015714594
 20
9.2757605076
 30
0.0
 10
11.7638702925
 20
9.2695384307
 30
0.0
 10
11.7248536209
 20
9.2638833973
 30
0.0
 10
11.6846490556
 20
9.2588141218
 30
0.0
 10
11.643388221
 20
9.2543473613
 30
0.0
 10
11.6012062218
 20
9.2504978786
 30
0.0
 10
11.558241215
 20
9.2472783916
 30
0.0
 10
11.514633944
 20
9.2446995345
 30
0.0
 10
11.4705272734
 20
9.2427698237
 30
0.0
 10
11.4260657172
 20
9.2414956324
 30
0.0
 10
11.3813949603
 20
9.2408811651
 30
0.0
 10
11.3366613813
 20
9.2409284509
 30
0.0
 10
11.2920115485
 20
9.2416373271
 30
0.0
 10
11.2475918033
 20
9.2430054669
 30
0.0
 10
11.2035477387
 20
9.2450283263
 30
0.0
 10
11.17434056
 20
9.2468206735
 30
0.0
 10
11.1598258801
 20
9.2478272699
 30
0.0
  0
SPLINE
  5
3C9
100
AcDbEntity
  8
0
100
AcDbSpline
 62
7
  6
CONTINUOUS
 70
0
 71
3
 72
31
 73
27
 74
0
 42
0.0000001
 43
0.0000001
 44
0.0000000001
 40
0.0
 40
0.0
 40
0.0
 40
0.0
 40
0.0162145479
 40
0.0334277613
 40
0.0516723247
 40
0.0709715908
 40
0.0913413027
 40
0.1127905469
 40
0.1353230222
 40
0.1589375129
 40
0.1836288659
 40
0.2093881424
 40
0.2362034219
 40
0.2640597448
 40
0.2929398167
 40
0.3228238158
 40
0.3536900395
 40
0.3855146238
 40
0.4519335759
 40
0.5218593373
 40
0.5950455704
 40
0.6712259912
 40
0.7501168579
 40
0.8314193553
 40
0.9148213554
 40
1.0
 40
1.0
 40
1.0
 40
1.0
 10
12.4121432897
 20
6.3223228146
 30
0.0
 10
12.4114464761
 20
6.3231795907
 30
0.0
 10
12.4100686036
 20
6.3249941877
 30
0.0
 10
12.4081035719
 20
6.3279157824
 30
0.0
 10
12.4061817566
 20
6.3311136721
 30
0.0
 10
12.4043050983
 20
6.3345844533
 30
0.0
 10
12.4024754445
 20
6.3383246685
 30
0.0
 10
12.4006946214
 20
6.3423304757
 30
0.0
 10
12.3989644871
 20
6.3465977743
 30
0.0
 10
12.3972868014
 20
6.3511221486
 30
0.0
 10
12.3956633535
 20
6.3558989142
 30
0.0
 10
12.3940958108
 20
6.3609230938
 30
0.0
 10
12.3925858634
 20
6.3661894501
 30
0.0
 10
12.3911350678
 20
6.3716924719
 30
0.0
 10
12.3897449969
 20
6.3774263989
 30
0.0
 10
12.3884170887
 20
6.3833852136
 30
0.0
 10
12.3871527689
 20
6.3895626701
 30
0.0
 10
12.3855304531
 20
6.398205632
 30
0.0
 10
12.3836805934
 20
6.4095109862
 30
0.0
 10
12.3817638724
 20
6.4236542593
 30
0.0
 10
12.380128214
 20
6.4385017296
 30
0.0
 10
12.3787806427
 20
6.4539909364
 30
0.0
 10
12.3777269922
 20
6.4700568117
 30
0.0
 10
12.3769718226
 20
6.4866317775
 30
0.0
 10
12.3765184108
 20
6.5036460251
 30
0.0
 10
12.3764195525
 20
6.5151282147
 30
0.0
 10
12.3764195525
 20
6.5209296727
 30
0.0
  0
SPLINE
  5
3CA
100
AcDbEntity
  8
0
100
AcDbSpline
 62
7
  6
CONTINUOUS
 70
0
 71
3
 72
40
 73
36
 74
0
 42
0.0000001
 43
0.0000001
 44
0.0000000001
 40
0.0
 40
0.0
 40
0.0
 40
0.0
 40
0.0299391525
 40
0.0599019772
 40
0.0899115846
 40
0.1199899826
 40
0.150157567
 40
0.1804326608
 40
0.2108311127
 40
0.2413659654
 40
0.2720471988
 40
0.3028815513
 40
0.3338724204
 40
0.3650198388
 40
0.3963205249
 40
0.4277679988
 40
0.4593527613
 40
0.4910625259
 40
0.5228824992
 40
0.5547957013
 40
0.5867833196
 40
0.6188250896
 40
0.650899697
 40
0.6829851928
 40
0.7150594185
 40
0.7471004326
 40
0.7790869356
 40
0.8109986855
 40
0.8428168962
 40
0.8745246317
 40
0.9061071069
 40
0.9375521837
 40
0.9532223288
 40
0.9688551648
 40
1.0
 40
1.0
 40
1.0
 40
1.0
 10
9.8894951699
 20
6.2046450413
 30
0.0
 10
9.8929444686
 20
6.207976826
 30
0.0
 10
9.8995874222
 20
6.2149166172
 30
0.0
 10
9.9087107151
 20
6.2260785359
 30
0.0
 10
9.9169484574
 20
6.2379373
 30
0.0
 10
9.9242557958
 20
6.2504285706
 30
0.0
 10
9.9305939439
 20
6.2634856619
 30
0.0
 10
9.9359290569
 20
6.2770386004
 30
0.0
 10
9.9402327642
 20
6.2910148619
 30
0.0
 10
9.9434822162
 20
6.3053396728
 30
0.0
 10
9.9456602233
 20
6.3199364412
 30
0.0
 10
9.9467553308
 20
6.3347271618
 30
0.0
 10
9.9467618715
 20
6.3496328355
 30
0.0
 10
9.9456799864
 20
6.3645738891
 30
0.0
 10
9.9435156163
 20
6.3794705964
 30
0.0
 10
9.9402804627
 20
6.3942434998
 30
0.0
 10
9.9359919209
 20
6.4088138281
 30
0.0
 10
9.9306729834
 20
6.4231039115
 30
0.0
 10
9.9243521143
 20
6.4370375897
 30
0.0
 10
9.9170630974
 20
6.4505406122
 30
0.0
 10
9.9088448553
 20
6.4635410296
 30
0.0
 10
9.899741244
 20
6.4759695722
 30
0.0
 10
9.8898008189
 20
6.4877600147
 30
0.0
 10
9.879076578
 20
6.4988495251
 30
0.0
 10
9.8676256824
 20
6.5091789958
 30
0.0
 10
9.8555091533
 20
6.518693356
 30
0.0
 10
9.8427915544
 20
6.5273418619
 30
0.0
 10
9.8295406371
 20
6.5350783664
 30
0.0
 10
9.8158270376
 20
6.5418615587
 30
0.0
 10
9.8017237061
 20
6.5476552056
 30
0.0
 10
9.787306259
 20
6.5524282454
 30
0.0
 10
9.7750781209
 20
6.5555378708
 30
0.0
 10
9.7652165995
 20
6.5574904353
 30
0.0
 10
9.7553393926
 20
6.5590808659
 30
0.0
 10
9.7478797743
 20
6.5598722841
 30
0.0
 10
9.742902931
 20
6.5602174294
 30
0.0
  0
SPLINE
  5
3CB
100
AcDbEntity
  8
0
100
AcDbSpline
 62
7
  6
CONTINUOUS
 70
0
 71
3
 72
54
 73
50
 74
0
 42
0.0000001
 43
0.0000001
 44
0.0000000001
 40
0.0
 40
0.0
 40
0.0
 40
0.0
 40
0.0452111406
 40
0.0910032105
 40
0.1371918895
 40
0.1835904337
 40
0.2300112363
 40
0.2762664907
 40
0.32216927
 40
0.3675344543
 40
0.4121797147
 40
0.4559264912
 40
0.4986009918
 40
0.5400352146
 40
0.5800680103
 40
0.6185462049
 40
0.6553258142
 40
0.6902733978
 40
0.7232676278
 40
0.7389987382
 40
0.7542025105
 40
0.7688682056
 40
0.7829861377
 40
0.796548139
 40
0.8095473588
 40
0.821978805
 40
0.8338391982
 40
0.8451276118
 40
0.8558454391
 40
0.8659971723
 40
0.8755905675
 40
0.8846376286
 40
0.8931550794
 40
0.9011656275
 40
0.9086988233
 40
0.9157925719
 40
0.9224942026
 40
0.9288617192
 40
0.9349641388
 40
0.9408810175
 40
0.9467003256
 40
0.952514901
 40
0.9584178254
 40
0.9644977489
 40
0.9708351877
 40
0.9775002889
 40
0.9845521311
 40
0.9920391196
 40
1.0
 40
1.0
 40
1.0
 40
1.0
 10
12.5213580981
 20
6.6609295655
 30
0.0
 10
12.5213580981
 20
6.6549597505
 30
0.0
 10
12.5212516286
 20
6.6429431712
 30
0.0
 10
12.5207821605
 20
6.6248332137
 30
0.0
 10
12.5200036867
 20
6.6065769365
 30
0.0
 10
12.5189195383
 20
6.588253121
 30
0.0
 10
12.5175343865
 20
6.5699407792
 30
0.0
 10
12.5158542071
 20
6.5517188779
 30
0.0
 10
12.5138862641
 20
6.5336659921
 30
0.0
 10
12.5116390741
 20
6.5158599605
 30
0.0
 10
12.5091223719
 20
6.4983775478
 30
0.0
 10
12.5063470684
 20
6.4812941088
 30
0.0
 10
12.5033252058
 20
6.4646832582
 30
0.0
 10
12.500069906
 20
6.4486165479
 30
0.0
 10
12.4965953167
 20
6.4331631422
 30
0.0
 10
12.4929165484
 20
6.4183895293
 30
0.0
 10
12.4890496203
 20
6.4043591386
 30
0.0
 10
12.4850113531
 20
6.3911323096
 30
0.0
 10
12.4814639386
 20
6.3806665752
 30
0.0
 10
12.4785448929
 20
6.3727455247
 30
0.0
 10
12.4763586015
 20
6.3671348246
 30
0.0
 10
12.4741428661
 20
6.3617653973
 30
0.0
 10
12.471899997
 20
6.3566430046
 30
0.0
 10
12.4696324778
 20
6.3517731165
 30
0.0
 10
12.467342685
 20
6.3471609499
 30
0.0
 10
12.46503314
 20
6.3428113984
 30
0.0
 10
12.4627062431
 20
6.3387291014
 30
0.0
 10
12.4603645329
 20
6.3349183485
 30
0.0
 10
12.4580104025
 20
6.3313831775
 30
0.0
 10
12.4556463659
 20
6.3281272509
 30
0.0
 10
12.4532747606
 20
6.3251539925
 30
0.0
 10
12.4508980089
 20
6.3224664381
 30
0.0
 10
12.4485183168
 20
6.3200674252
 30
0.0
 10
12.4461379219
 20
6.3179594322
 30
0.0
 10
12.4437588213
 20
6.3161448475
 30
0.0
 10
12.4413830267
 20
6.3146258213
 30
0.0
 10
12.4390124179
 20
6.3134046165
 30
0.0
 10
12.4366490934
 20
6.3124834301
 30
0.0
 10
12.4342954699
 20
6.3118646398
 30
0.0
 10
12.4319546688
 20
6.3115503156
 30
0.0
 10
12.4296305355
 20
6.3115420321
 30
0.0
 10
12.4273274279
 20
6.3118401537
 30
0.0
 10
12.4250496461
 20
6.3124438341
 30
0.0
 10
12.422800874
 20
6.31335109
 30
0.0
 10
12.420583975
 20
6.3145594297
 30
0.0
 10
12.4184011105
 20
6.3160662051
 30
0.0
 10
12.4162540071
 20
6.317868911
 30
0.0
 10
12.4141443805
 20
6.3199649761
 30
0.0
 10
12.4128065467
 20
6.3215072984
 30
0.0
 10
12.4121432897
 20
6.3223228146
 30
0.0
  0
SPLINE
  5
3CC
100
AcDbEntity
  8
0
100
AcDbSpline
 62
7
  6
CONTINUOUS
 70
0
 71
3
 72
31
 73
27
 74
0
 42
0.0000001
 43
0.0000001
 44
0.0000000001
 40
0.0
 40
0.0
 40
0.0
 40
0.0
 40
0.0742143573
 40
0.1496016433
 40
0.2255425907
 40
0.3014096205
 40
0.3765767484
 40
0.4504252809
 40
0.5223504772
 40
0.5917683892
 40
0.6253629089
 40
0.6581246446
 40
0.6899895413
 40
0.7208963083
 40
0.7507866471
 40
0.779605415
 40
0.8073011628
 40
0.8338264827
 40
0.859138293
 40
0.883198601
 40
0.9059751547
 40
0.9274420955
 40
0.9475812827
 40
0.9663837464
 40
0.9838514184
 40
1.0
 40
1.0
 40
1.0
 40
1.0
 10
12.4368507128
 20
6.6483016946
 30
0.0
 10
12.4368507128
 20
6.6418551139
 30
0.0
 10
12.4366859254
 20
6.6288595558
 30
0.0
 10
12.4359658312
 20
6.6092794453
 30
0.0
 10
12.43477644
 20
6.5895783176
 30
0.0
 10
12.4331281457
 20
6.5699294865
 30
0.0
 10
12.4310355155
 20
6.5505057459
 30
0.0
 10
12.4285170887
 20
6.5314778222
 30
0.0
 10
12.425595174
 20
6.513013063
 30
0.0
 10
12.42281633
 20
6.4980712097
 30
0.0
 10
12.4204033513
 20
6.4865263645
 30
0.0
 10
12.4185295807
 20
6.4782023767
 30
0.0
 10
12.4165762067
 20
6.4701367186
 30
0.0
 10
12.4145475334
 20
6.462347108
 30
0.0
 10
12.4124480685
 20
6.454850661
 30
0.0
 10
12.4102824399
 20
6.4476638428
 30
0.0
 10
12.4080554467
 20
6.4408024172
 30
0.0
 10
12.4057720329
 20
6.4342814109
 30
0.0
 10
12.4034372318
 20
6.4281150909
 30
0.0
 10
12.4010562045
 20
6.4223169066
 30
0.0
 10
12.3986342202
 20
6.4168994546
 30
0.0
 10
12.396176572
 20
6.4118744521
 30
0.0
 10
12.393688633
 20
6.4072527143
 30
0.0
 10
12.3911757168
 20
6.4030439731
 30
0.0
 10
12.3886432947
 20
6.3992573332
 30
0.0
 10
12.386876816
 20
6.3969290914
 30
0.0
 10
12.3859887693
 20
6.395843255
 30
0.0
  0
SPLINE
  5
3CD
100
AcDbEntity
  8
0
100
AcDbSpline
 62
7
  6
CONTINUOUS
 70
0
 71
3
 72
53
 73
49
 74
0
 42
0.0000001
 43
0.0000001
 44
0.0000000001
 40
0.0
 40
0.0
 40
0.0
 40
0.0
 40
0.0095825272
 40
0.0187370121
 40
0.0274868135
 40
0.0358595416
 40
0.0438877111
 40
0.0516091237
 40
0.0590668922
 40
0.0663096145
 40
0.0733907943
 40
0.0803680381
 40
0.0873018289
 40
0.0942538631
 40
0.101285326
 40
0.1084551609
 40
0.1158187298
 40
0.1234266479
 40
0.1313243316
 40
0.1395517792
 40
0.1481435384
 40
0.1571292898
 40
0.1665340036
 40
0.1763785284
 40
0.1866801924
 40
0.1974529105
 40
0.2087079479
 40
0.2204540837
 40
0.2326978282
 40
0.2454440112
 40
0.2586956076
 40
0.272454187
 40
0.3014905479
 40
0.3325439476
 40
0.3655876259
 40
0.400582089
 40
0.4374770311
 40
0.4762127234
 40
0.5167211965
 40
0.5589272509
 40
0.6027492146
 40
0.6480995324
 40
0.6948853501
 40
0.7430090134
 40
0.792368708
 40
0.8428587851
 40
0.8943690529
 40
1.0
 40
1.0
 40
1.0
 40
1.0
 10
12.4495731376
 20
6.8620377933
 30
0.0
 10
12.4501491086
 20
6.8625738431
 30
0.0
 10
12.4513005183
 20
6.8635954306
 30
0.0
 10
12.4530671749
 20
6.8650017879
 30
0.0
 10
12.4548319718
 20
6.8662454232
 30
0.0
 10
12.4565939792
 20
6.8673254375
 30
0.0
 10
12.4583523067
 20
6.8682410408
 30
0.0
 10
12.4601059935
 20
6.8689915343
 30
0.0
 10
12.461854091
 20
6.8695761234
 30
0.0
 10
12.4635954999
 20
6.86999419
 30
0.0
 10
12.465329035
 20
6.8702451625
 30
0.0
 10
12.4670533808
 20
6.8703285499
 30
0.0
 10
12.4687671164
 20
6.8702442323
 30
0.0
 10
12.4704687918
 20
6.869992185
 30
0.0
 10
12.4721569884
 20
6.8695727308
 30
0.0
 10
12.4738304228
 20
6.8689864452
 30
0.0
 10
12.4754879014
 20
6.8682339364
 30
0.0
 10
12.4771284324
 20
6.8673160642
 30
0.0
 10
12.478751098
 20
6.8662336371
 30
0.0
 10
12.4803550377
 20
6.8649874971
 30
0.0
 10
12.4819395007
 20
6.8635785868
 30
0.0
 10
12.4835036557
 20
6.8620077795
 30
0.0
 10
12.4850467399
 20
6.8602760758
 30
0.0
 10
12.4865679752
 20
6.8583845184
 30
0.0
 10
12.4880665118
 20
6.8563341863
 30
0.0
 10
12.4895415911
 20
6.8541263063
 30
0.0
 10
12.4909923685
 20
6.8517621392
 30
0.0
 10
12.4924180208
 20
6.8492430557
 30
0.0
 10
12.4938177743
 20
6.8465705356
 30
0.0
 10
12.4951907677
 20
6.8437461175
 30
0.0
 10
12.4965362595
 20
6.8407714626
 30
0.0
 10
12.4983246863
 20
6.8365307326
 30
0.0
 10
12.5004773764
 20
6.8308596091
 30
0.0
 10
12.5028944059
 20
6.8236025165
 30
0.0
 10
12.5051838436
 20
6.8157931507
 30
0.0
 10
12.507340224
 20
6.8074499061
 30
0.0
 10
12.5093583623
 20
6.798592309
 30
0.0
 10
12.511233402
 20
6.7892412471
 30
0.0
 10
12.5129608293
 20
6.7794188155
 30
0.0
 10
12.5145364762
 20
6.7691482677
 30
0.0
 10
12.5159565347
 20
6.7584539452
 30
0.0
 10
12.5172175768
 20
6.7473612219
 30
0.0
 10
12.5183165647
 20
6.7358964442
 30
0.0
 10
12.5192508501
 20
6.7240868444
 30
0.0
 10
12.5200181666
 20
6.7119604877
 30
0.0
 10
12.5206166694
 20
6.6995462152
 30
0.0
 10
12.5211923976
 20
6.6825068677
 30
0.0
 10
12.5213580981
 20
6.669602951
 30
0.0
 10
12.5213580981
 20
6.6609295655
 30
0.0
  0
SPLINE
  5
3CE
100
AcDbEntity
  8
0
100
AcDbSpline
 62
7
  6
CONTINUOUS
 70
0
 71
3
 72
11
 73
7
 74
0
 42
0.0000001
 43
0.0000001
 44
0.0000000001
 40
0.0
 40
0.0
 40
0.0
 40
0.0
 40
0.254338627
 40
0.5049786155
 40
0.7531194294
 40
1.0
 40
1.0
 40
1.0
 40
1.0
 10
12.1419212775
 20
9.4588418901
 30
0.0
 10
12.1423011568
 20
9.4575630566
 30
0.0
 10
12.1429693482
 20
9.4549973926
 30
0.0
 10
12.1436918859
 20
9.4511103931
 30
0.0
 10
12.1441256902
 20
9.4472199651
 30
0.0
 10
12.1442221944
 20
9.4446224559
 30
0.0
 10
12.1442221992
 20
9.4433275124
 30
0.0
  0
SPLINE
  5
3CF
100
AcDbEntity
  8
0
100
AcDbSpline
 62
7
  6
CONTINUOUS
 70
0
 71
3
 72
40
 73
36
 74
0
 42
0.0000001
 43
0.0000001
 44
0.0000000001
 40
0.0
 40
0.0
 40
0.0
 40
0.0
 40
0.0299391525
 40
0.0599019772
 40
0.0899115846
 40
0.1199899826
 40
0.150157567
 40
0.1804326608
 40
0.2108311127
 40
0.2413659654
 40
0.2720471988
 40
0.3028815513
 40
0.3338724204
 40
0.3650198388
 40
0.3963205249
 40
0.4277679988
 40
0.4593527613
 40
0.4910625259
 40
0.5228824992
 40
0.5547957013
 40
0.5867833196
 40
0.6188250896
 40
0.650899697
 40
0.6829851928
 40
0.7150594185
 40
0.7471004326
 40
0.7790869356
 40
0.8109986855
 40
0.8428168962
 40
0.8745246317
 40
0.9061071069
 40
0.9375521837
 40
0.9532223288
 40
0.9688551648
 40
1.0
 40
1.0
 40
1.0
 40
1.0
 10
9.5963106922
 20
6.5081690945
 30
0.0
 10
9.5928613935
 20
6.5048373098
 30
0.0
 10
9.5862184399
 20
6.4978975187
 30
0.0
 10
9.5770951469
 20
6.4867355999
 30
0.0
 10
9.5688574047
 20
6.4748768359
 30
0.0
 10
9.5615500663
 20
6.4623855653
 30
0.0
 10
9.5552119182
 20
6.449328474
 30
0.0
 10
9.5498768051
 20
6.4357755355
 30
0.0
 10
9.5455730979
 20
6.421799274
 30
0.0
 10
9.5423236459
 20
6.407474463
 30
0.0
 10
9.5401456387
 20
6.3928776947
 30
0.0
 10
9.5390505313
 20
6.3780869741
 30
0.0
 10
9.5390439906
 20
6.3631813004
 30
0.0
 10
9.5401258756
 20
6.3482402468
 30
0.0
 10
9.5422902458
 20
6.3333435395
 30
0.0
 10
9.5455253994
 20
6.3185706361
 30
0.0
 10
9.5498139411
 20
6.3040003078
 30
0.0
 10
9.5551328787
 20
6.2897102244
 30
0.0
 10
9.5614537477
 20
6.2757765462
 30
0.0
 10
9.5687427647
 20
6.2622735236
 30
0.0
 10
9.5769610068
 20
6.2492731063
 30
0.0
 10
9.5860646181
 20
6.2368445637
 30
0.0
 10
9.5960050432
 20
6.2250541212
 30
0.0
 10
9.6067292841
 20
6.2139646108
 30
0.0
 10
9.6181801797
 20
6.2036351401
 30
0.0
 10
9.6302967088
 20
6.1941207799
 30
0.0
 10
9.6430143076
 20
6.185472274
 30
0.0
 10
9.656265225
 20
6.1777357694
 30
0.0
 10
9.6699788245
 20
6.1709525772
 30
0.0
 10
9.684082156
 20
6.1651589303
 30
0.0
 10
9.6984996031
 20
6.1603858905
 30
0.0
 10
9.7107277412
 20
6.1572762651
 30
0.0
 10
9.7205892626
 20
6.1553237006
 30
0.0
 10
9.7304664695
 20
6.15373327
 30
0.0
 10
9.7379260877
 20
6.1529418518
 30
0.0
 10
9.742902931
 20
6.1525967065
 30
0.0
  0
SPLINE
  5
3D0
100
AcDbEntity
  8
0
100
AcDbSpline
 62
7
  6
CONTINUOUS
 70
0
 71
3
 72
27
 73
23
 74
0
 42
0.0000001
 43
0.0000001
 44
0.0000000001
 40
0.0
 40
0.0
 40
0.0
 40
0.0
 40
0.0821559024
 40
0.1627535523
 40
0.2415216538
 40
0.3182045018
 40
0.3925516761
 40
0.4643255287
 40
0.5333004282
 40
0.5992651596
 40
0.6620246939
 40
0.7214024385
 40
0.7772429466
 40
0.8294153645
 40
0.8540945451
 40
0.8778213525
 40
0.900588644
 40
0.9223922194
 40
0.9432306256
 40
0.9631064203
 40
0.98202578
 40
1.0
 40
1.0
 40
1.0
 40
1.0
 10
12.4368507128
 20
6.6483016946
 30
0.0
 10
12.4368507128
 20
6.6523453524
 30
0.0
 10
12.4367869001
 20
6.660356137
 30
0.0
 10
12.4364946709
 20
6.6722406211
 30
0.0
 10
12.4360077925
 20
6.6838491835
 30
0.0
 10
12.4353281118
 20
6.6951399106
 30
0.0
 10
12.434458101
 20
6.7060723271
 30
0.0
 10
12.4334009792
 20
6.7166071005
 30
0.0
 10
12.4321606254
 20
6.7267064196
 30
0.0
 10
12.4307416016
 20
6.7363340598
 30
0.0
 10
12.429149123
 20
6.745455534
 30
0.0
 10
12.4273890519
 20
6.7540383063
 30
0.0
 10
12.4254678196
 20
6.7620516719
 30
0.0
 10
12.4237073064
 20
6.7683430097
 30
0.0
 10
12.4222159124
 20
6.7730638127
 30
0.0
 10
12.4210822429
 20
6.7763787796
 30
0.0
 10
12.4199136953
 20
6.7795311203
 30
0.0
 10
12.4187113307
 20
6.7825180515
 30
0.0
 10
12.4174761682
 20
6.7853369073
 30
0.0
 10
12.4162093488
 20
6.7879852417
 30
0.0
 10
12.4149119589
 20
6.7904606451
 30
0.0
 10
12.4140043459
 20
6.7920341911
 30
0.0
 10
12.4135447953
 20
6.7927901475
 30
0.0
  0
SPLINE
  5
3D1
100
AcDbEntity
  8
0
100
AcDbSpline
 62
7
  6
CONTINUOUS
 70
0
 71
3
 72
11
 73
7
 74
0
 42
0.0000001
 43
0.0000001
 44
0.0000000001
 40
0.0
 40
0.0
 40
0.0
 40
0.0
 40
0.2468193818
 40
0.4949237227
 40
0.7455768076
 40
1.0
 40
1.0
 40
1.0
 40
1.0
 10
10.5802222134
 20
9.443326728
 30
0.0
 10
10.5802222085
 20
9.4446347568
 30
0.0
 10
10.5803206505
 20
9.4472586665
 30
0.0
 10
10.5807631933
 20
9.4511885233
 30
0.0
 10
10.5815004429
 20
9.4551148192
 30
0.0
 10
10.5821820665
 20
9.4577059276
 30
0.0
 10
10.5825695511
 20
9.4589973754
 30
0.0
  0
SPLINE
  5
3D2
100
AcDbEntity
  8
0
100
AcDbSpline
 62
7
  6
CONTINUOUS
 70
0
 71
3
 72
21
 73
17
 74
0
 42
0.0000001
 43
0.0000001
 44
0.0000000001
 40
0.0
 40
0.0
 40
0.0
 40
0.0
 40
0.1274736051
 40
0.2540669052
 40
0.317066844
 40
0.3798654327
 40
0.4424734343
 40
0.5049033677
 40
0.5671697566
 40
0.6292888896
 40
0.6912786506
 40
0.7531583351
 40
0.8149484499
 40
0.8766705047
 40
0.9383467658
 40
1.0
 40
1.0
 40
1.0
 40
1.0
 10
9.742902931
 20
6.1525967065
 30
0.0
 10
9.7496933673
 20
6.1521257882
 30
0.0
 10
9.7632835602
 20
6.1518605725
 30
0.0
 10
9.7801880464
 20
6.1532465712
 30
0.0
 10
9.7935003383
 20
6.1553799627
 30
0.0
 10
9.8033431164
 20
6.1574836205
 30
0.0
 10
9.8130337181
 20
6.1600879849
 30
0.0
 10
9.8225480045
 20
6.1631865702
 30
0.0
 10
9.8318619297
 20
6.1667715908
 30
0.0
 10
9.8409520584
 20
6.1708340139
 30
0.0
 10
9.8497954803
 20
6.1753636269
 30
0.0
 10
9.8583699
 20
6.1803490693
 30
0.0
 10
9.8666536939
 20
6.185777761
 30
0.0
 10
9.8746260668
 20
6.1916360897
 30
0.0
 10
9.8822666611
 20
6.1979090402
 30
0.0
 10
9.8871273065
 20
6.2023578485
 30
0.0
 10
9.8894951699
 20
6.2046450413
 30
0.0
  0
SPLINE
  5
3D3
100
AcDbEntity
  8
0
100
AcDbSpline
 62
4
  6
CONTINUOUS
 70
0
 71
3
 72
339
 73
335
 74
0
 42
0.0000001
 43
0.0000001
 44
0.0000000001
 40
0.0
 40
0.0
 40
0.0
 40
0.0
 40
0.015625
 40
0.0234375
 40
0.03125
 40
0.0390625
 40
0.04296875
 40
0.046875
 40
0.05078125
 40
0.0546875
 40
0.056640625
 40
0.05859375
 40
0.060546875
 40
0.0615234375
 40
0.0620117188
 40
0.0625
 40
0.0629882812
 40
0.0634765625
 40
0.064453125
 40
0.06640625
 40
0.068359375
 40
0.0703125
 40
0.07421875
 40
0.078125
 40
0.08203125
 40
0.0859375
 40
0.09375
 40
0.1015625
 40
0.10546875
 40
0.109375
 40
0.11328125
 40
0.1171875
 40
0.119140625
 40
0.12109375
 40
0.123046875
 40
0.1240234375
 40
0.1245117188
 40
0.125
 40
0.1254882812
 40
0.1259765625
 40
0.126953125
 40
0.12890625
 40
0.130859375
 40
0.1328125
 40
0.13671875
 40
0.140625
 40
0.14453125
 40
0.1484375
 40
0.15625
 40
0.1640625
 40
0.16796875
 40
0.171875
 40
0.17578125
 40
0.1796875
 40
0.181640625
 40
0.18359375
 40
0.1845703125
 40
0.185546875
 40
0.1865234375
 40
0.1870117188
 40
0.1875
 40
0.1879882812
 40
0.1884765625
 40
0.189453125
 40
0.1904296875
 40
0.19140625
 40
0.193359375
 40
0.1953125
 40
0.19921875
 40
0.203125
 40
0.20703125
 40
0.2109375
 40
0.21875
 40
0.2265625
 40
0.23046875
 40
0.234375
 40
0.23828125
 40
0.2421875
 40
0.244140625
 40
0.24609375
 40
0.2470703125
 40
0.248046875
 40
0.2490234375
 40
0.2495117188
 40
0.25
 40
0.2504882812
 40
0.2509765625
 40
0.251953125
 40
0.2529296875
 40
0.25390625
 40
0.255859375
 40
0.2578125
 40
0.26171875
 40
0.265625
 40
0.26953125
 40
0.2734375
 40
0.28125
 40
0.2890625
 40
0.29296875
 40
0.296875
 40
0.30078125
 40
0.3046875
 40
0.306640625
 40
0.30859375
 40
0.310546875
 40
0.3115234375
 40
0.3120117188
 40
0.3125
 40
0.3129882812
 40
0.3134765625
 40
0.314453125
 40
0.31640625
 40
0.318359375
 40
0.3203125
 40
0.32421875
 40
0.328125
 40
0.33203125
 40
0.3359375
 40
0.34375
 40
0.3515625
 40
0.35546875
 40
0.359375
 40
0.36328125
 40
0.3671875
 40
0.369140625
 40
0.37109375
 40
0.373046875
 40
0.3740234375
 40
0.3745117188
 40
0.375
 40
0.3754882812
 40
0.3759765625
 40
0.376953125
 40
0.37890625
 40
0.380859375
 40
0.3828125
 40
0.38671875
 40
0.390625
 40
0.39453125
 40
0.3984375
 40
0.40625
 40
0.4140625
 40
0.41796875
 40
0.421875
 40
0.42578125
 40
0.4296875
 40
0.431640625
 40
0.43359375
 40
0.4345703125
 40
0.435546875
 40
0.4365234375
 40
0.4370117188
 40
0.4375
 40
0.4379882812
 40
0.4384765625
 40
0.439453125
 40
0.4404296875
 40
0.44140625
 40
0.443359375
 40
0.4453125
 40
0.44921875
 40
0.453125
 40
0.45703125
 40
0.4609375
 40
0.46875
 40
0.4765625
 40
0.48046875
 40
0.484375
 40
0.48828125
 40
0.4921875
 40
0.494140625
 40
0.49609375
 40
0.498046875
 40
0.4990234375
 40
0.4995117188
 40
0.5
 40
0.5004882812
 40
0.5009765625
 40
0.501953125
 40
0.50390625
 40
0.505859375
 40
0.5078125
 40
0.51171875
 40
0.515625
 40
0.51953125
 40
0.5234375
 40
0.53125
 40
0.5390625
 40
0.546875
 40
0.55078125
 40
0.5546875
 40
0.556640625
 40
0.55859375
 40
0.560546875
 40
0.5615234375
 40
0.5620117188
 40
0.5625
 40
0.5629882812
 40
0.5634765625
 40
0.564453125
 40
0.56640625
 40
0.568359375
 40
0.5703125
 40
0.57421875
 40
0.578125
 40
0.5859375
 40
0.59375
 40
0.6015625
 40
0.609375
 40
0.61328125
 40
0.6171875
 40
0.619140625
 40
0.62109375
 40
0.623046875
 40
0.6240234375
 40
0.6245117188
 40
0.625
 40
0.6254882812
 40
0.6259765625
 40
0.626953125
 40
0.62890625
 40
0.630859375
 40
0.6328125
 40
0.63671875
 40
0.640625
 40
0.6484375
 40
0.65625
 40
0.6640625
 40
0.66796875
 40
0.671875
 40
0.67578125
 40
0.6796875
 40
0.681640625
 40
0.68359375
 40
0.685546875
 40
0.6865234375
 40
0.6870117188
 40
0.6875
 40
0.6879882812
 40
0.6884765625
 40
0.689453125
 40
0.69140625
 40
0.693359375
 40
0.6953125
 40
0.69921875
 40
0.703125
 40
0.70703125
 40
0.7109375
 40
0.71875
 40
0.7265625
 40
0.734375
 40
0.73828125
 40
0.7421875
 40
0.744140625
 40
0.74609375
 40
0.748046875
 40
0.7490234375
 40
0.7495117188
 40
0.75
 40
0.7504882812
 40
0.7509765625
 40
0.751953125
 40
0.75390625
 40
0.755859375
 40
0.7578125
 40
0.76171875
 40
0.765625
 40
0.7734375
 40
0.78125
 40
0.7890625
 40
0.796875
 40
0.80078125
 40
0.8046875
 40
0.806640625
 40
0.80859375
 40
0.810546875
 40
0.8115234375
 40
0.8120117188
 40
0.8125
 40
0.8129882812
 40
0.8134765625
 40
0.814453125
 40
0.81640625
 40
0.818359375
 40
0.8203125
 40
0.82421875
 40
0.828125
 40
0.8359375
 40
0.84375
 40
0.8515625
 40
0.859375
 40
0.86328125
 40
0.8671875
 40
0.869140625
 40
0.87109375
 40
0.873046875
 40
0.8740234375
 40
0.8745117188
 40
0.875
 40
0.8754882812
 40
0.8759765625
 40
0.876953125
 40
0.87890625
 40
0.880859375
 40
0.8828125
 40
0.88671875
 40
0.890625
 40
0.8984375
 40
0.90625
 40
0.9140625
 40
0.91796875
 40
0.921875
 40
0.92578125
 40
0.9296875
 40
0.931640625
 40
0.93359375
 40
0.935546875
 40
0.9365234375
 40
0.9370117188
 40
0.9375
 40
0.9379882812
 40
0.9384765625
 40
0.939453125
 40
0.94140625
 40
0.943359375
 40
0.9453125
 40
0.94921875
 40
0.953125
 40
0.95703125
 40
0.9609375
 40
0.96875
 40
0.9765625
 40
0.984375
 40
1.0
 40
1.0
 40
1.0
 40
1.0
 10
10.2751281015
 20
7.4737785617
 30
0.0
 10
10.2779423412
 20
7.4738593321
 30
0.0
 10
10.2821637008
 20
7.4739804878
 30
0.0
 10
10.2877921804
 20
7.4741420285
 30
0.0
 10
10.2920135399
 20
7.4742631847
 30
0.0
 10
10.2955313399
 20
7.4743641462
 30
0.0
 10
10.298345579
 20
7.4744449197
 30
0.0
 10
10.3004562607
 20
7.4745054882
 30
0.0
 10
10.3025669336
 20
7.474566101
 30
0.0
 10
10.3043258548
 20
7.4746164735
 30
0.0
 10
10.3057329312
 20
7.4746570811
 30
0.0
 10
10.3067884038
 20
7.4746866909
 30
0.0
 10
10.3076674386
 20
7.4747140566
 30
0.0
 10
10.3082837945
 20
7.4747279317
 30
0.0
 10
10.3086343873
 20
7.474744106
 30
0.0
 10
10.3089018689
 20
7.4747330087
 30
0.0
 10
10.3091520079
 20
7.4748107005
 30
0.0
 10
10.3094915758
 20
7.4748833189
 30
0.0
 10
10.3100830012
 20
7.475024831
 30
0.0
 10
10.3109293682
 20
7.475219447
 30
0.0
 10
10.3119443779
 20
7.4754562154
 30
0.0
 10
10.3132979445
 20
7.4757707786
 30
0.0
 10
10.3149898271
 20
7.4761643696
 30
0.0
 10
10.3170201186
 20
7.4766365129
 30
0.0
 10
10.3190504014
 20
7.4771087006
 30
0.0
 10
10.3217574483
 20
7.4777382687
 30
0.0
 10
10.3251412556
 20
7.4785252345
 30
0.0
 10
10.3285250641
 20
7.4793121966
 30
0.0
 10
10.3312321091
 20
7.4799417707
 30
0.0
 10
10.3332623974
 20
7.4804139401
 30
0.0
 10
10.3352926686
 20
7.480886152
 30
0.0
 10
10.3369846143
 20
7.4812795297
 30
0.0
 10
10.3383380522
 20
7.481594528
 30
0.0
 10
10.3393534548
 20
7.4818299676
 30
0.0
 10
10.3401985924
 20
7.4820287407
 30
0.0
 10
10.3407922124
 20
7.4821628318
 30
0.0
 10
10.3411282641
 20
7.4822473405
 30
0.0
 10
10.341389204
 20
7.4822885091
 30
0.0
 10
10.3416161193
 20
7.482414587
 30
0.0
 10
10.3419305411
 20
7.4825530736
 30
0.0
 10
10.3424752498
 20
7.4828092245
 30
0.0
 10
10.3432562961
 20
7.4831679398
 30
0.0
 10
10.3441923141
 20
7.4836014862
 30
0.0
 10
10.3454407704
 20
7.4841784693
 30
0.0
 10
10.3470011925
 20
7.4849000684
 30
0.0
 10
10.3488737625
 20
7.4857658287
 30
0.0
 10
10.3507463156
 20
7.4866316314
 30
0.0
 10
10.3532430589
 20
7.4877860202
 30
0.0
 10
10.3563639861
 20
7.4892290111
 30
0.0
 10
10.3594849137
 20
7.4906720007
 30
0.0
 10
10.3619816563
 20
7.4918263917
 30
0.0
 10
10.3638542117
 20
7.4926921878
 30
0.0
 10
10.3657267729
 20
7.4935579727
 30
0.0
 10
10.3672872223
 20
7.4942794951
 30
0.0
 10
10.3685356229
 20
7.4948566347
 30
0.0
 10
10.3693157798
 20
7.4952175253
 30
0.0
 10
10.3699401194
 20
7.4955058294
 30
0.0
 10
10.3704077879
 20
7.4957231754
 30
0.0
 10
10.3707993765
 20
7.4959007409
 30
0.0
 10
10.3711084648
 20
7.4960507691
 30
0.0
 10
10.3713517098
 20
7.4961414965
 30
0.0
 10
10.3715513309
 20
7.4963154112
 30
0.0
 10
10.3718327307
 20
7.4965182391
 30
0.0
 10
10.3721792522
 20
7.4967817438
 30
0.0
 10
10.3725973159
 20
7.497093682
 30
0.0
 10
10.3731539525
 20
7.4975110901
 30
0.0
 10
10.373850016
 20
7.4980323399
 30
0.0
 10
10.3749635678
 20
7.4988666248
 30
0.0
 10
10.376355559
 20
7.4999093831
 30
0.0
 10
10.3780259265
 20
7.5011607349
 30
0.0
 10
10.3796962998
 20
7.5024120756
 30
0.0
 10
10.3819234621
 20
7.5040805337
 30
0.0
 10
10.3847074159
 20
7.5061661049
 30
0.0
 10
10.387491369
 20
7.508251677
 30
0.0
 10
10.3897185324
 20
7.5099201337
 30
0.0
 10
10.3913889025
 20
7.5111714785
 30
0.0
 10
10.393059282
 20
7.5124228148
 30
0.0
 10
10.3944512356
 20
7.5134656217
 30
0.0
 10
10.3955648642
 20
7.5142998074
 30
0.0
 10
10.3962607322
 20
7.5148213095
 30
0.0
 10
10.39681777
 20
7.5152381998
 30
0.0
 10
10.3972346082
 20
7.5155517202
 30
0.0
 10
10.397584964
 20
7.5158102744
 30
0.0
 10
10.3978585412
 20
7.5160232022
 30
0.0
 10
10.398082052
 20
7.5161662725
 30
0.0
 10
10.3982356049
 20
7.5163728025
 30
0.0
 10
10.3984647793
 20
7.5166260085
 30
0.0
 10
10.398742863
 20
7.5169501215
 30
0.0
 10
10.3990801521
 20
7.5173358017
 30
0.0
 10
10.3995286176
 20
7.517851179
 30
0.0
 10
10.4000896285
 20
7.5184950114
 30
0.0
 10
10.4009870062
 20
7.5195253607
 30
0.0
 10
10.4021088106
 20
7.5208132226
 30
0.0
 10
10.4034549406
 20
7.522358689
 30
0.0
 10
10.40480108
 20
7.5239041468
 30
0.0
 10
10.4065959294
 20
7.5259647602
 30
0.0
 10
10.4088394918
 20
7.5285405262
 30
0.0
 10
10.4110830554
 20
7.5311162913
 30
0.0
 10
10.4128779028
 20
7.533176906
 30
0.0
 10
10.414224048
 20
7.5347223599
 30
0.0
 10
10.4155701562
 20
7.5362678411
 30
0.0
 10
10.4166920285
 20
7.5375556568
 30
0.0
 10
10.4175892676
 20
7.5385861005
 30
0.0
 10
10.4182629039
 20
7.539358411
 30
0.0
 10
10.4188220188
 20
7.5400036644
 30
0.0
 10
10.4192178122
 20
7.5404520815
 30
0.0
 10
10.4194370894
 20
7.5407134105
 30
0.0
 10
10.4196209576
 20
7.540895067
 30
0.0
 10
10.4197306299
 20
7.5411315389
 30
0.0
 10
10.41990274
 20
7.5414277145
 30
0.0
 10
10.4201918744
 20
7.5419549304
 30
0.0
 10
10.4206112278
 20
7.5427034385
 30
0.0
 10
10.4211117534
 20
7.5436036417
 30
0.0
 10
10.4217800635
 20
7.5448032163
 30
0.0
 10
10.4226151277
 20
7.5463029235
 30
0.0
 10
10.4236173434
 20
7.5481024698
 30
0.0
 10
10.424619522
 20
7.5499020434
 30
0.0
 10
10.4259557731
 20
7.5523014653
 30
0.0
 10
10.4276260821
 20
7.5553007462
 30
0.0
 10
10.4292963945
 20
7.558300025
 30
0.0
 10
10.4306326402
 20
7.5606994502
 30
0.0
 10
10.4316348352
 20
7.5624990139
 30
0.0
 10
10.4326369891
 20
7.5642985976
 30
0.0
 10
10.4334722457
 20
7.5657981883
 30
0.0
 10
10.4341401634
 20
7.5669980005
 30
0.0
 10
10.4346418872
 20
7.5678974782
 30
0.0
 10
10.4350574921
 20
7.5686482561
 30
0.0
 10
10.4353533182
 20
7.5691714199
 30
0.0
 10
10.4355147066
 20
7.569474088
 30
0.0
 10
10.4356573124
 20
7.5696906172
 30
0.0
 10
10.4357174876
 20
7.5699471754
 30
0.0
 10
10.4358264741
 20
7.5702752904
 30
0.0
 10
10.4360038039
 20
7.5708559972
 30
0.0
 10
10.4362641359
 20
7.5716821772
 30
0.0
 10
10.4365735366
 20
7.572675049
 30
0.0
 10
10.436987118
 20
7.5739983694
 30
0.0
 10
10.4375037354
 20
7.5756526946
 30
0.0
 10
10.4381238303
 20
7.5776378099
 30
0.0
 10
10.438743884
 20
7.5796229452
 30
0.0
 10
10.4395706366
 20
7.5822697854
 30
0.0
 10
10.4406040726
 20
7.5855783379
 30
0.0
 10
10.4416375099
 20
7.5888868897
 30
0.0
 10
10.4424642604
 20
7.591533731
 30
0.0
 10
10.4430843203
 20
7.593518863
 30
0.0
 10
10.443704392
 20
7.5955039908
 30
0.0
 10
10.4442210816
 20
7.5971582773
 30
0.0
 10
10.4446345157
 20
7.5984816765
 30
0.0
 10
10.4448927245
 20
7.5993088693
 30
0.0
 10
10.445099721
 20
7.599970467
 30
0.0
 10
10.4452537922
 20
7.6004670941
 30
0.0
 10
10.4453859267
 20
7.600879586
 30
0.0
 10
10.445483242
 20
7.6012126386
 30
0.0
 10
10.4455791601
 20
7.6014540691
 30
0.0
 10
10.4455875482
 20
7.6017274061
 30
0.0
 10
10.4456293076
 20
7.60208071
 30
0.0
 10
10.4456710167
 20
7.6025261639
 30
0.0
 10
10.4457255577
 20
7.6030590718
 30
0.0
 10
10.4457967108
 20
7.6037701873
 30
0.0
 10
10.4458861891
 20
7.604658886
 30
0.0
 10
10.4460290543
 20
7.6060809132
 30
0.0
 10
10.4462077388
 20
7.6078584098
 30
0.0
 10
10.446422116
 20
7.6099914217
 30
0.0
 10
10.446636505
 20
7.6121244293
 30
0.0
 10
10.446922353
 20
7.614968441
 30
0.0
 10
10.4472796639
 20
7.6185234551
 30
0.0
 10
10.4476369763
 20
7.6220784694
 30
0.0
 10
10.4479228219
 20
7.6249224807
 30
0.0
 10
10.448137218
 20
7.6270554894
 30
0.0
 10
10.4483515687
 20
7.6291884972
 30
0.0
 10
10.4485303358
 20
7.6309660065
 30
0.0
 10
10.4486730325
 20
7.6323880078
 30
0.0
 10
10.448780921
 20
7.6334545253
 30
0.0
 10
10.4488680735
 20
7.6343432376
 30
0.0
 10
10.4489344861
 20
7.6349654386
 30
0.0
 10
10.4489639954
 20
7.6353208223
 30
0.0
 10
10.449009905
 20
7.6355878101
 30
0.0
 10
10.4489649245
 20
7.6358530774
 30
0.0
 10
10.4489366539
 20
7.6362073672
 30
0.0
 10
10.4488724092
 20
7.6368270947
 30
0.0
 10
10.4487883536
 20
7.6377125659
 30
0.0
 10
10.4486841814
 20
7.6387750688
 30
0.0
 10
10.4485464397
 20
7.6401917612
 30
0.0
 10
10.4483738664
 20
7.6419626192
 30
0.0
 10
10.4481669483
 20
7.644087652
 30
0.0
 10
10.4479599849
 20
7.6462126839
 30
0.0
 10
10.4476840492
 20
7.6490460601
 30
0.0
 10
10.447339126
 20
7.6525877805
 30
0.0
 10
10.4469252119
 20
7.6568378439
 30
0.0
 10
10.4465803091
 20
7.6603795667
 30
0.0
 10
10.4463043285
 20
7.6632129374
 30
0.0
 10
10.4461319737
 20
7.6649838113
 30
0.0
 10
10.4459937851
 20
7.6664004712
 30
0.0
 10
10.4458909781
 20
7.6674630734
 30
0.0
 10
10.4458026511
 20
7.6683482338
 30
0.0
 10
10.4457460315
 20
7.6689685162
 30
0.0
 10
10.4457055436
 20
7.6693219169
 30
0.0
 10
10.4456980909
 20
7.6695899153
 30
0.0
 10
10.4456030519
 20
7.6698466453
 30
0.0
 10
10.4455068844
 20
7.6701928824
 30
0.0
 10
10.4453243568
 20
7.6707969662
 30
0.0
 10
10.445071045
 20
7.6716609004
 30
0.0
 10
10.4447638855
 20
7.6726972117
 30
0.0
 10
10.4443554521
 20
7.6740791032
 30
0.0
 10
10.4438445293
 20
7.6758064185
 30
0.0
 10
10.4430272659
 20
7.6785701505
 30
0.0
 10
10.4420056131
 20
7.6820248059
 30
0.0
 10
10.4407796633
 20
7.6861703972
 30
0.0
 10
10.4395536971
 20
7.6903159846
 30
0.0
 10
10.4385320851
 20
7.6937706495
 30
0.0
 10
10.43771474
 20
7.6965343625
 30
0.0
 10
10.4372040248
 20
7.6982617261
 30
0.0
 10
10.4367951654
 20
7.6996435186
 30
0.0
 10
10.4364893073
 20
7.7006801325
 30
0.0
 10
10.4362319238
 20
7.7015431198
 30
0.0
 10
10.436056665
 20
7.702148894
 30
0.0
 10
10.435948851
 20
7.7024924226
 30
0.0
 10
10.4358895862
 20
7.7027574725
 30
0.0
 10
10.4357477716
 20
7.7029942227
 30
0.0
 10
10.4355874798
 20
7.7033197608
 30
0.0
 10
10.4352935533
 20
7.7038848534
 30
0.0
 10
10.4348806722
 20
7.704694533
 30
0.0
 10
10.4343822128
 20
7.7056651193
 30
0.0
 10
10.4337186488
 20
7.7069595939
 30
0.0
 10
10.4328888348
 20
7.7085775641
 30
0.0
 10
10.431561333
 20
7.7111663851
 30
0.0
 10
10.4299018869
 20
7.7144023878
 30
0.0
 10
10.4279105808
 20
7.718285601
 30
0.0
 10
10.4262511539
 20
7.7215216104
 30
0.0
 10
10.42492361
 20
7.7241104167
 30
0.0
 10
10.4239279624
 20
7.7260520262
 30
0.0
 10
10.4229322747
 20
7.7279936168
 30
0.0
 10
10.4221026598
 20
7.7296116682
 30
0.0
 10
10.4214386884
 20
7.7309059766
 30
0.0
 10
10.4209414734
 20
7.7318770706
 30
0.0
 10
10.4205246987
 20
7.7326851621
 30
0.0
 10
10.4202377231
 20
7.7332530896
 30
0.0
 10
10.4200662942
 20
7.7335740855
 30
0.0
 10
10.4199586891
 20
7.7338247882
 30
0.0
 10
10.4197709392
 20
7.7340374345
 30
0.0
 10
10.4195485615
 20
7.7343342374
 30
0.0
 10
10.4191463755
 20
7.7348474575
 30
0.0
 10
10.4185786337
 20
7.7355838627
 30
0.0
 10
10.4178944288
 20
7.7364661649
 30
0.0
 10
10.4169831737
 20
7.7376430513
 30
0.0
 10
10.4158437555
 20
7.7391139934
 30
0.0
 10
10.4144766035
 20
7.740879195
 30
0.0
 10
10.4131094114
 20
7.7426443776
 30
0.0
 10
10.4112865024
 20
7.7449979609
 30
0.0
 10
10.4090078626
 20
7.7479399391
 30
0.0
 10
10.4062734912
 20
7.7514703075
 30
0.0
 10
10.4039948654
 20
7.7544123006
 30
0.0
 10
10.4021719257
 20
7.7567658511
 30
0.0
 10
10.4010326774
 20
7.7582369203
 30
0.0
 10
10.4001210749
 20
7.7594135464
 30
0.0
 10
10.3994379312
 20
7.7602966436
 30
0.0
 10
10.398866869
 20
7.7610305614
 30
0.0
 10
10.3984706105
 20
7.7615482221
 30
0.0
 10
10.3982387355
 20
7.7618379101
 30
0.0
 10
10.3980801583
 20
7.7620724108
 30
0.0
 10
10.3978629857
 20
7.7622410322
 30
0.0
 10
10.397593861
 20
7.7624888401
 30
0.0
 10
10.39711337
 20
7.7629117975
 30
0.0
 10
10.396431933
 20
7.7635216198
 30
0.0
 10
10.3956120775
 20
7.7642510107
 30
0.0
 10
10.3945196812
 20
7.7652243688
 30
0.0
 10
10.3931539309
 20
7.7664407798
 30
0.0
 10
10.3909688729
 20
7.7683871976
 30
0.0
 10
10.3882375013
 20
7.7708201644
 30
0.0
 10
10.3849598776
 20
7.7737397501
 30
0.0
 10
10.3816822436
 20
7.7766593227
 30
0.0
 10
10.3789508979
 20
7.7790923224
 30
0.0
 10
10.376765788
 20
7.7810386746
 30
0.0
 10
10.3754001698
 20
7.7822552522
 30
0.0
 10
10.3743075024
 20
7.7832282682
 30
0.0
 10
10.3734884751
 20
7.7839587042
 30
0.0
 10
10.3728044469
 20
7.7845652566
 30
0.0
 10
10.3723285814
 20
7.7849940513
 30
0.0
 10
10.3720520456
 20
7.7852325064
 30
0.0
 10
10.3718576377
 20
7.7854298569
 30
0.0
 10
10.37161356
 20
7.785556456
 30
0.0
 10
10.3713054485
 20
7.7857499336
 30
0.0
 10
10.3707581811
 20
7.7860770212
 30
0.0
 10
10.3699805908
 20
7.7865503006
 30
0.0
 10
10.369045676
 20
7.7871156629
 30
0.0
 10
10.3677997539
 20
7.7878703779
 30
0.0
 10
10.3662421352
 20
7.7888134639
 30
0.0
 10
10.363750066
 20
7.7903225737
 30
0.0
 10
10.360634938
 20
7.7922089013
 30
0.0
 10
10.356896803
 20
7.7944725219
 30
0.0
 10
10.3531586599
 20
7.7967361281
 30
0.0
 10
10.350043552
 20
7.798622492
 30
0.0
 10
10.3475514426
 20
7.8001315293
 30
0.0
 10
10.3459939263
 20
7.8010747993
 30
0.0
 10
10.3447477939
 20
7.8018291367
 30
0.0
 10
10.3438135215
 20
7.8023956525
 30
0.0
 10
10.3430339213
 20
7.8028653228
 30
0.0
 10
10.3424902419
 20
7.8031988532
 30
0.0
 10
10.3421763815
 20
7.8033820079
 30
0.0
 10
10.3419499626
 20
7.8035403159
 30
0.0
 10
10.3416892312
 20
7.803618573
 30
0.0
 10
10.3413535579
 20
7.8037508384
 30
0.0
 10
10.3407605533
 20
7.8039692932
 30
0.0
 10
10.3399163192
 20
7.8042881731
 30
0.0
 10
10.3389019904
 20
7.8046679177
 30
0.0
 10
10.3375499879
 20
7.8051752607
 30
0.0
 10
10.3358598356
 20
7.8058090913
 30
0.0
 10
10.3331556752
 20
7.8068234147
 30
0.0
 10
10.3297754462
 20
7.8080912524
 30
0.0
 10
10.3257191834
 20
7.8096126857
 30
0.0
 10
10.3223389622
 20
7.8108805421
 30
0.0
 10
10.3196347846
 20
7.8118948245
 30
0.0
 10
10.3176066547
 20
7.8126555473
 30
0.0
 10
10.3155785119
 20
7.8134162273
 30
0.0
 10
10.3138884331
 20
7.8140502608
 30
0.0
 10
10.31253628
 20
7.8145571886
 30
0.0
 10
10.3115224113
 20
7.8149382012
 30
0.0
 10
10.3106767379
 20
7.8152531138
 30
0.0
 10
10.3100863028
 20
7.815478651
 30
0.0
 10
10.3097465124
 20
7.8155995688
 30
0.0
 10
10.3094984273
 20
7.8157126821
 30
0.0
 10
10.3092245112
 20
7.8157400758
 30
0.0
 10
10.3088682999
 20
7.8158065007
 30
0.0
 10
10.3082407321
 20
7.8159088133
 30
0.0
 10
10.3073464015
 20
7.8160622574
 30
0.0
 10
10.3062722652
 20
7.8162432729
 30
0.0
 10
10.3048404118
 20
7.8164857158
 30
0.0
 10
10.3030504824
 20
7.8167883958
 30
0.0
 10
10.3009026153
 20
7.817151772
 30
0.0
 10
10.2987547354
 20
7.8175151054
 30
0.0
 10
10.2958908999
 20
7.8179995648
 30
0.0
 10
10.2923111041
 20
7.8186051339
 30
0.0
 10
10.2880153498
 20
7.8193318191
 30
0.0
 10
10.2822876771
 20
7.8203007318
 30
0.0
 10
10.2779919226
 20
7.8210274166
 30
0.0
 10
10.2751280863
 20
7.821511873
 30
0.0
  0
SPLINE
  5
3D4
100
AcDbEntity
  8
0
100
AcDbSpline
 62
4
  6
CONTINUOUS
 70
0
 71
3
 72
339
 73
335
 74
0
 42
0.0000001
 43
0.0000001
 44
0.0000000001
 40
0.0
 40
0.0
 40
0.0
 40
0.0
 40
0.015625
 40
0.0234375
 40
0.03125
 40
0.0390625
 40
0.04296875
 40
0.046875
 40
0.05078125
 40
0.0546875
 40
0.056640625
 40
0.05859375
 40
0.060546875
 40
0.0615234375
 40
0.0620117188
 40
0.0625
 40
0.0629882812
 40
0.0634765625
 40
0.064453125
 40
0.06640625
 40
0.068359375
 40
0.0703125
 40
0.07421875
 40
0.078125
 40
0.08203125
 40
0.0859375
 40
0.09375
 40
0.1015625
 40
0.10546875
 40
0.109375
 40
0.11328125
 40
0.1171875
 40
0.119140625
 40
0.12109375
 40
0.123046875
 40
0.1240234375
 40
0.1245117188
 40
0.125
 40
0.1254882812
 40
0.1259765625
 40
0.126953125
 40
0.12890625
 40
0.130859375
 40
0.1328125
 40
0.13671875
 40
0.140625
 40
0.14453125
 40
0.1484375
 40
0.15625
 40
0.1640625
 40
0.16796875
 40
0.171875
 40
0.17578125
 40
0.1796875
 40
0.181640625
 40
0.18359375
 40
0.1845703125
 40
0.185546875
 40
0.1865234375
 40
0.1870117188
 40
0.1875
 40
0.1879882812
 40
0.1884765625
 40
0.189453125
 40
0.1904296875
 40
0.19140625
 40
0.193359375
 40
0.1953125
 40
0.19921875
 40
0.203125
 40
0.20703125
 40
0.2109375
 40
0.21875
 40
0.2265625
 40
0.23046875
 40
0.234375
 40
0.23828125
 40
0.2421875
 40
0.244140625
 40
0.24609375
 40
0.2470703125
 40
0.248046875
 40
0.2490234375
 40
0.2495117188
 40
0.25
 40
0.2504882812
 40
0.2509765625
 40
0.251953125
 40
0.2529296875
 40
0.25390625
 40
0.255859375
 40
0.2578125
 40
0.26171875
 40
0.265625
 40
0.26953125
 40
0.2734375
 40
0.28125
 40
0.2890625
 40
0.29296875
 40
0.296875
 40
0.30078125
 40
0.3046875
 40
0.306640625
 40
0.30859375
 40
0.310546875
 40
0.3115234375
 40
0.3120117188
 40
0.3125
 40
0.3129882812
 40
0.3134765625
 40
0.314453125
 40
0.31640625
 40
0.318359375
 40
0.3203125
 40
0.32421875
 40
0.328125
 40
0.33203125
 40
0.3359375
 40
0.34375
 40
0.3515625
 40
0.35546875
 40
0.359375
 40
0.36328125
 40
0.3671875
 40
0.369140625
 40
0.37109375
 40
0.373046875
 40
0.3740234375
 40
0.3745117188
 40
0.375
 40
0.3754882812
 40
0.3759765625
 40
0.376953125
 40
0.37890625
 40
0.380859375
 40
0.3828125
 40
0.38671875
 40
0.390625
 40
0.39453125
 40
0.3984375
 40
0.40625
 40
0.4140625
 40
0.41796875
 40
0.421875
 40
0.42578125
 40
0.4296875
 40
0.431640625
 40
0.43359375
 40
0.4345703125
 40
0.435546875
 40
0.4365234375
 40
0.4370117188
 40
0.4375
 40
0.4379882812
 40
0.4384765625
 40
0.439453125
 40
0.4404296875
 40
0.44140625
 40
0.443359375
 40
0.4453125
 40
0.44921875
 40
0.453125
 40
0.45703125
 40
0.4609375
 40
0.46875
 40
0.4765625
 40
0.48046875
 40
0.484375
 40
0.48828125
 40
0.4921875
 40
0.494140625
 40
0.49609375
 40
0.498046875
 40
0.4990234375
 40
0.4995117188
 40
0.5
 40
0.5004882812
 40
0.5009765625
 40
0.501953125
 40
0.50390625
 40
0.505859375
 40
0.5078125
 40
0.51171875
 40
0.515625
 40
0.51953125
 40
0.5234375
 40
0.53125
 40
0.5390625
 40
0.546875
 40
0.55078125
 40
0.5546875
 40
0.556640625
 40
0.55859375
 40
0.560546875
 40
0.5615234375
 40
0.5620117188
 40
0.5625
 40
0.5629882812
 40
0.5634765625
 40
0.564453125
 40
0.56640625
 40
0.568359375
 40
0.5703125
 40
0.57421875
 40
0.578125
 40
0.5859375
 40
0.59375
 40
0.6015625
 40
0.609375
 40
0.61328125
 40
0.6171875
 40
0.619140625
 40
0.62109375
 40
0.623046875
 40
0.6240234375
 40
0.6245117188
 40
0.625
 40
0.6254882812
 40
0.6259765625
 40
0.626953125
 40
0.62890625
 40
0.630859375
 40
0.6328125
 40
0.63671875
 40
0.640625
 40
0.6484375
 40
0.65625
 40
0.6640625
 40
0.66796875
 40
0.671875
 40
0.67578125
 40
0.6796875
 40
0.681640625
 40
0.68359375
 40
0.685546875
 40
0.6865234375
 40
0.6870117188
 40
0.6875
 40
0.6879882812
 40
0.6884765625
 40
0.689453125
 40
0.69140625
 40
0.693359375
 40
0.6953125
 40
0.69921875
 40
0.703125
 40
0.70703125
 40
0.7109375
 40
0.71875
 40
0.7265625
 40
0.734375
 40
0.73828125
 40
0.7421875
 40
0.744140625
 40
0.74609375
 40
0.748046875
 40
0.7490234375
 40
0.7495117188
 40
0.75
 40
0.7504882812
 40
0.7509765625
 40
0.751953125
 40
0.75390625
 40
0.755859375
 40
0.7578125
 40
0.76171875
 40
0.765625
 40
0.7734375
 40
0.78125
 40
0.7890625
 40
0.796875
 40
0.80078125
 40
0.8046875
 40
0.806640625
 40
0.80859375
 40
0.810546875
 40
0.8115234375
 40
0.8120117188
 40
0.8125
 40
0.8129882812
 40
0.8134765625
 40
0.814453125
 40
0.81640625
 40
0.818359375
 40
0.8203125
 40
0.82421875
 40
0.828125
 40
0.8359375
 40
0.84375
 40
0.8515625
 40
0.859375
 40
0.86328125
 40
0.8671875
 40
0.869140625
 40
0.87109375
 40
0.873046875
 40
0.8740234375
 40
0.8745117188
 40
0.875
 40
0.8754882812
 40
0.8759765625
 40
0.876953125
 40
0.87890625
 40
0.880859375
 40
0.8828125
 40
0.88671875
 40
0.890625
 40
0.8984375
 40
0.90625
 40
0.9140625
 40
0.91796875
 40
0.921875
 40
0.92578125
 40
0.9296875
 40
0.931640625
 40
0.93359375
 40
0.935546875
 40
0.9365234375
 40
0.9370117188
 40
0.9375
 40
0.9379882812
 40
0.9384765625
 40
0.939453125
 40
0.94140625
 40
0.943359375
 40
0.9453125
 40
0.94921875
 40
0.953125
 40
0.95703125
 40
0.9609375
 40
0.96875
 40
0.9765625
 40
0.984375
 40
1.0
 40
1.0
 40
1.0
 40
1.0
 10
10.2751281015
 20
7.821511872
 30
0.0
 10
10.2723138617
 20
7.8214311016
 30
0.0
 10
10.2680925021
 20
7.8213099459
 30
0.0
 10
10.2624640226
 20
7.8211484052
 30
0.0
 10
10.2582426631
 20
7.821027249
 30
0.0
 10
10.2547248631
 20
7.8209262875
 30
0.0
 10
10.251910624
 20
7.820845514
 30
0.0
 10
10.2497999423
 20
7.8207849455
 30
0.0
 10
10.2476892694
 20
7.8207243326
 30
0.0
 10
10.2459303482
 20
7.8206739602
 30
0.0
 10
10.2445232718
 20
7.8206333526
 30
0.0
 10
10.2434677992
 20
7.8206037428
 30
0.0
 10
10.2425887644
 20
7.8205763771
 30
0.0
 10
10.2419724085
 20
7.820562502
 30
0.0
 10
10.2416218157
 20
7.8205463277
 30
0.0
 10
10.2413543341
 20
7.820557425
 30
0.0
 10
10.2411041951
 20
7.8204797332
 30
0.0
 10
10.2407646272
 20
7.8204071148
 30
0.0
 10
10.2401732017
 20
7.8202656027
 30
0.0
 10
10.2393268347
 20
7.8200709867
 30
0.0
 10
10.2383118251
 20
7.8198342183
 30
0.0
 10
10.2369582585
 20
7.8195196551
 30
0.0
 10
10.2352663759
 20
7.8191260641
 30
0.0
 10
10.2332360844
 20
7.8186539208
 30
0.0
 10
10.2312058016
 20
7.8181817331
 30
0.0
 10
10.2284987547
 20
7.817552165
 30
0.0
 10
10.2251149474
 20
7.8167651992
 30
0.0
 10
10.2217311389
 20
7.8159782371
 30
0.0
 10
10.2190240939
 20
7.815348663
 30
0.0
 10
10.2169938056
 20
7.8148764936
 30
0.0
 10
10.2149635344
 20
7.8144042817
 30
0.0
 10
10.2132715887
 20
7.814010904
 30
0.0
 10
10.2119181508
 20
7.8136959057
 30
0.0
 10
10.2109027482
 20
7.8134604661
 30
0.0
 10
10.2100576106
 20
7.813261693
 30
0.0
 10
10.2094639906
 20
7.8131276019
 30
0.0
 10
10.2091279389
 20
7.8130430932
 30
0.0
 10
10.208866999
 20
7.8130019246
 30
0.0
 10
10.2086400837
 20
7.8128758466
 30
0.0
 10
10.2083256618
 20
7.8127373601
 30
0.0
 10
10.2077809531
 20
7.8124812092
 30
0.0
 10
10.2069999069
 20
7.8121224939
 30
0.0
 10
10.2060638889
 20
7.8116889475
 30
0.0
 10
10.2048154326
 20
7.8111119644
 30
0.0
 10
10.2032550105
 20
7.8103903653
 30
0.0
 10
10.2013824405
 20
7.809524605
 30
0.0
 10
10.1995098874
 20
7.8086588023
 30
0.0
 10
10.1970131441
 20
7.8075044135
 30
0.0
 10
10.1938922169
 20
7.8060614226
 30
0.0
 10
10.1907712892
 20
7.804618433
 30
0.0
 10
10.1882745467
 20
7.803464042
 30
0.0
 10
10.1864019913
 20
7.8025982459
 30
0.0
 10
10.18452943
 20
7.801732461
 30
0.0
 10
10.1829689806
 20
7.8010109386
 30
0.0
 10
10.1817205801
 20
7.800433799
 30
0.0
 10
10.1809404232
 20
7.8000729084
 30
0.0
 10
10.1803160836
 20
7.7997846043
 30
0.0
 10
10.1798484151
 20
7.7995672583
 30
0.0
 10
10.1794568265
 20
7.7993896928
 30
0.0
 10
10.1791477382
 20
7.7992396646
 30
0.0
 10
10.1789044932
 20
7.7991489372
 30
0.0
 10
10.1787048721
 20
7.7989750225
 30
0.0
 10
10.1784234723
 20
7.7987721946
 30
0.0
 10
10.1780769508
 20
7.7985086899
 30
0.0
 10
10.1776588871
 20
7.7981967517
 30
0.0
 10
10.1771022504
 20
7.7977793436
 30
0.0
 10
10.176406187
 20
7.7972580938
 30
0.0
 10
10.1752926351
 20
7.7964238089
 30
0.0
 10
10.1739006439
 20
7.7953810506
 30
0.0
 10
10.1722302765
 20
7.7941296988
 30
0.0
 10
10.1705599032
 20
7.7928783581
 30
0.0
 10
10.1683327408
 20
7.7912099
 30
0.0
 10
10.1655487871
 20
7.7891243288
 30
0.0
 10
10.162764834
 20
7.7870387567
 30
0.0
 10
10.1605376706
 20
7.7853703
 30
0.0
 10
10.1588673005
 20
7.7841189552
 30
0.0
 10
10.157196921
 20
7.7828676189
 30
0.0
 10
10.1558049674
 20
7.781824812
 30
0.0
 10
10.1546913387
 20
7.7809906263
 30
0.0
 10
10.1539954707
 20
7.7804691242
 30
0.0
 10
10.153438433
 20
7.7800522339
 30
0.0
 10
10.1530215948
 20
7.7797387135
 30
0.0
 10
10.152671239
 20
7.7794801593
 30
0.0
 10
10.1523976618
 20
7.7792672315
 30
0.0
 10
10.152174151
 20
7.7791241612
 30
0.0
 10
10.1520205981
 20
7.7789176312
 30
0.0
 10
10.1517914237
 20
7.7786644252
 30
0.0
 10
10.15151334
 20
7.7783403122
 30
0.0
 10
10.1511760508
 20
7.777954632
 30
0.0
 10
10.1507275854
 20
7.7774392547
 30
0.0
 10
10.1501665744
 20
7.7767954223
 30
0.0
 10
10.1492691968
 20
7.775765073
 30
0.0
 10
10.1481473924
 20
7.7744772111
 30
0.0
 10
10.1468012624
 20
7.7729317447
 30
0.0
 10
10.1454551229
 20
7.7713862869
 30
0.0
 10
10.1436602736
 20
7.7693256735
 30
0.0
 10
10.1414167112
 20
7.7667499075
 30
0.0
 10
10.1391731476
 20
7.7641741423
 30
0.0
 10
10.1373783002
 20
7.7621135277
 30
0.0
 10
10.136032155
 20
7.7605680738
 30
0.0
 10
10.1346860468
 20
7.7590225926
 30
0.0
 10
10.1335641745
 20
7.7577347769
 30
0.0
 10
10.1326669353
 20
7.7567043332
 30
0.0
 10
10.1319932991
 20
7.7559320227
 30
0.0
 10
10.1314341842
 20
7.7552867693
 30
0.0
 10
10.1310383908
 20
7.7548383522
 30
0.0
 10
10.1308191136
 20
7.7545770232
 30
0.0
 10
10.1306352453
 20
7.7543953667
 30
0.0
 10
10.1305255731
 20
7.7541588948
 30
0.0
 10
10.130353463
 20
7.7538627191
 30
0.0
 10
10.1300643286
 20
7.7533355033
 30
0.0
 10
10.1296449752
 20
7.7525869952
 30
0.0
 10
10.1291444496
 20
7.751686792
 30
0.0
 10
10.1284761395
 20
7.7504872174
 30
0.0
 10
10.1276410753
 20
7.7489875101
 30
0.0
 10
10.1266388596
 20
7.7471879639
 30
0.0
 10
10.125636681
 20
7.7453883903
 30
0.0
 10
10.1243004299
 20
7.7429889684
 30
0.0
 10
10.1226301209
 20
7.7399896875
 30
0.0
 10
10.1209598085
 20
7.7369904087
 30
0.0
 10
10.1196235628
 20
7.7345909834
 30
0.0
 10
10.1186213677
 20
7.7327914198
 30
0.0
 10
10.1176192139
 20
7.7309918361
 30
0.0
 10
10.1167839573
 20
7.7294922454
 30
0.0
 10
10.1161160395
 20
7.7282924332
 30
0.0
 10
10.1156143158
 20
7.7273929555
 30
0.0
 10
10.1151987109
 20
7.7266421776
 30
0.0
 10
10.1149028848
 20
7.7261190138
 30
0.0
 10
10.1147414964
 20
7.7258163457
 30
0.0
 10
10.1145988906
 20
7.7255998165
 30
0.0
 10
10.1145387153
 20
7.7253432583
 30
0.0
 10
10.1144297289
 20
7.7250151432
 30
0.0
 10
10.1142523991
 20
7.7244344365
 30
0.0
 10
10.113992067
 20
7.7236082565
 30
0.0
 10
10.1136826664
 20
7.7226153847
 30
0.0
 10
10.113269085
 20
7.7212920642
 30
0.0
 10
10.1127524676
 20
7.7196377391
 30
0.0
 10
10.1121323727
 20
7.7176526238
 30
0.0
 10
10.111512319
 20
7.7156674885
 30
0.0
 10
10.1106855664
 20
7.7130206483
 30
0.0
 10
10.1096521304
 20
7.7097120958
 30
0.0
 10
10.1086186931
 20
7.7064035439
 30
0.0
 10
10.1077919425
 20
7.7037567027
 30
0.0
 10
10.1071718826
 20
7.7017715707
 30
0.0
 10
10.106551811
 20
7.6997864429
 30
0.0
 10
10.1060351213
 20
7.6981321564
 30
0.0
 10
10.1056216873
 20
7.6968087572
 30
0.0
 10
10.1053634785
 20
7.6959815644
 30
0.0
 10
10.105156482
 20
7.6953199667
 30
0.0
 10
10.1050024108
 20
7.6948233396
 30
0.0
 10
10.1048702763
 20
7.6944108477
 30
0.0
 10
10.1047729609
 20
7.6940777951
 30
0.0
 10
10.1046770429
 20
7.6938363646
 30
0.0
 10
10.1046686548
 20
7.6935630276
 30
0.0
 10
10.1046268954
 20
7.6932097236
 30
0.0
 10
10.1045851863
 20
7.6927642698
 30
0.0
 10
10.1045306453
 20
7.6922313619
 30
0.0
 10
10.1044594922
 20
7.6915202464
 30
0.0
 10
10.1043700139
 20
7.6906315477
 30
0.0
 10
10.1042271487
 20
7.6892095205
 30
0.0
 10
10.1040484642
 20
7.6874320239
 30
0.0
 10
10.103834087
 20
7.685299012
 30
0.0
 10
10.1036196979
 20
7.6831660044
 30
0.0
 10
10.10333385
 20
7.6803219927
 30
0.0
 10
10.1029765391
 20
7.6767669786
 30
0.0
 10
10.1026192267
 20
7.6732119643
 30
0.0
 10
10.1023333811
 20
7.670367953
 30
0.0
 10
10.102118985
 20
7.6682349443
 30
0.0
 10
10.1019046343
 20
7.6661019365
 30
0.0
 10
10.1017258672
 20
7.6643244272
 30
0.0
 10
10.1015831705
 20
7.6629024259
 30
0.0
 10
10.101475282
 20
7.6618359084
 30
0.0
 10
10.1013881295
 20
7.6609471961
 30
0.0
 10
10.1013217169
 20
7.6603249951
 30
0.0
 10
10.1012922076
 20
7.6599696114
 30
0.0
 10
10.101246298
 20
7.6597026236
 30
0.0
 10
10.1012912785
 20
7.6594373563
 30
0.0
 10
10.1013195491
 20
7.6590830665
 30
0.0
 10
10.1013837938
 20
7.658463339
 30
0.0
 10
10.1014678494
 20
7.6575778678
 30
0.0
 10
10.1015720216
 20
7.6565153649
 30
0.0
 10
10.1017097633
 20
7.6550986725
 30
0.0
 10
10.1018823365
 20
7.6533278145
 30
0.0
 10
10.1020892546
 20
7.6512027817
 30
0.0
 10
10.1022962181
 20
7.6490777498
 30
0.0
 10
10.1025721538
 20
7.6462443736
 30
0.0
 10
10.102917077
 20
7.6427026532
 30
0.0
 10
10.1033309911
 20
7.6384525898
 30
0.0
 10
10.1036758939
 20
7.634910867
 30
0.0
 10
10.1039518745
 20
7.6320774962
 30
0.0
 10
10.1041242293
 20
7.6303066224
 30
0.0
 10
10.1042624179
 20
7.6288899625
 30
0.0
 10
10.1043652249
 20
7.6278273603
 30
0.0
 10
10.1044535519
 20
7.6269421999
 30
0.0
 10
10.1045101715
 20
7.6263219175
 30
0.0
 10
10.1045506594
 20
7.6259685168
 30
0.0
 10
10.1045581121
 20
7.6257005184
 30
0.0
 10
10.1046531511
 20
7.6254437884
 30
0.0
 10
10.1047493186
 20
7.6250975512
 30
0.0
 10
10.1049318462
 20
7.6244934675
 30
0.0
 10
10.105185158
 20
7.6236295333
 30
0.0
 10
10.1054923175
 20
7.622593222
 30
0.0
 10
10.1059007509
 20
7.6212113305
 30
0.0
 10
10.1064116737
 20
7.6194840152
 30
0.0
 10
10.1072289371
 20
7.6167202832
 30
0.0
 10
10.1082505899
 20
7.6132656278
 30
0.0
 10
10.1094765397
 20
7.6091200365
 30
0.0
 10
10.1107025059
 20
7.6049744491
 30
0.0
 10
10.1117241179
 20
7.6015197842
 30
0.0
 10
10.1125414629
 20
7.5987560712
 30
0.0
 10
10.1130521781
 20
7.5970287076
 30
0.0
 10
10.1134610375
 20
7.5956469151
 30
0.0
 10
10.1137668957
 20
7.5946103012
 30
0.0
 10
10.1140242792
 20
7.5937473139
 30
0.0
 10
10.114199538
 20
7.5931415397
 30
0.0
 10
10.114307352
 20
7.5927980111
 30
0.0
 10
10.1143666168
 20
7.5925329612
 30
0.0
 10
10.1145084314
 20
7.592296211
 30
0.0
 10
10.1146687232
 20
7.5919706729
 30
0.0
 10
10.1149626497
 20
7.5914055803
 30
0.0
 10
10.1153755308
 20
7.5905959007
 30
0.0
 10
10.1158739902
 20
7.5896253144
 30
0.0
 10
10.1165375542
 20
7.5883308398
 30
0.0
 10
10.1173673682
 20
7.5867128696
 30
0.0
 10
10.11869487
 20
7.5841240486
 30
0.0
 10
10.120354316
 20
7.5808880459
 30
0.0
 10
10.1223456222
 20
7.5770048327
 30
0.0
 10
10.1240050491
 20
7.5737688233
 30
0.0
 10
10.125332593
 20
7.571180017
 30
0.0
 10
10.1263282406
 20
7.5692384074
 30
0.0
 10
10.1273239283
 20
7.5672968169
 30
0.0
 10
10.1281535432
 20
7.5656787655
 30
0.0
 10
10.1288175146
 20
7.564384457
 30
0.0
 10
10.1293147296
 20
7.5634133631
 30
0.0
 10
10.1297315043
 20
7.5626052716
 30
0.0
 10
10.1300184799
 20
7.5620373441
 30
0.0
 10
10.1301899088
 20
7.5617163482
 30
0.0
 10
10.1302975139
 20
7.5614656455
 30
0.0
 10
10.1304852638
 20
7.5612529992
 30
0.0
 10
10.1307076415
 20
7.5609561963
 30
0.0
 10
10.1311098275
 20
7.5604429761
 30
0.0
 10
10.1316775693
 20
7.5597065709
 30
0.0
 10
10.1323617742
 20
7.5588242688
 30
0.0
 10
10.1332730292
 20
7.5576473824
 30
0.0
 10
10.1344124474
 20
7.5561764403
 30
0.0
 10
10.1357795995
 20
7.5544112387
 30
0.0
 10
10.1371467916
 20
7.5526460561
 30
0.0
 10
10.1389697006
 20
7.5502924728
 30
0.0
 10
10.1412483404
 20
7.5473504946
 30
0.0
 10
10.1439827118
 20
7.5438201262
 30
0.0
 10
10.1462613376
 20
7.5408781331
 30
0.0
 10
10.1480842773
 20
7.5385245826
 30
0.0
 10
10.1492235256
 20
7.5370535134
 30
0.0
 10
10.1501351281
 20
7.5358768873
 30
0.0
 10
10.1508182717
 20
7.5349937901
 30
0.0
 10
10.151389334
 20
7.5342598723
 30
0.0
 10
10.1517855925
 20
7.5337422116
 30
0.0
 10
10.1520174675
 20
7.5334525235
 30
0.0
 10
10.1521760447
 20
7.5332180229
 30
0.0
 10
10.1523932173
 20
7.5330494015
 30
0.0
 10
10.152662342
 20
7.5328015936
 30
0.0
 10
10.1531428329
 20
7.5323786362
 30
0.0
 10
10.15382427
 20
7.5317688139
 30
0.0
 10
10.1546441255
 20
7.531039423
 30
0.0
 10
10.1557365218
 20
7.5300660649
 30
0.0
 10
10.1571022721
 20
7.5288496539
 30
0.0
 10
10.1592873301
 20
7.5269032361
 30
0.0
 10
10.1620187017
 20
7.5244702693
 30
0.0
 10
10.1652963254
 20
7.5215506836
 30
0.0
 10
10.1685739594
 20
7.518631111
 30
0.0
 10
10.1713053051
 20
7.5161981113
 30
0.0
 10
10.173490415
 20
7.5142517591
 30
0.0
 10
10.1748560332
 20
7.5130351814
 30
0.0
 10
10.1759487006
 20
7.5120621655
 30
0.0
 10
10.1767677279
 20
7.5113317295
 30
0.0
 10
10.177451756
 20
7.5107251771
 30
0.0
 10
10.1779276216
 20
7.5102963824
 30
0.0
 10
10.1782041574
 20
7.5100579273
 30
0.0
 10
10.1783985652
 20
7.5098605768
 30
0.0
 10
10.1786426429
 20
7.5097339777
 30
0.0
 10
10.1789507545
 20
7.5095405001
 30
0.0
 10
10.1794980219
 20
7.5092134125
 30
0.0
 10
10.1802756122
 20
7.508740133
 30
0.0
 10
10.181210527
 20
7.5081747708
 30
0.0
 10
10.1824564491
 20
7.5074200558
 30
0.0
 10
10.1840140678
 20
7.5064769698
 30
0.0
 10
10.186506137
 20
7.50496786
 30
0.0
 10
10.189621265
 20
7.5030815324
 30
0.0
 10
10.1933594
 20
7.5008179117
 30
0.0
 10
10.1970975431
 20
7.4985543056
 30
0.0
 10
10.200212651
 20
7.4966679417
 30
0.0
 10
10.2027047604
 20
7.4951589044
 30
0.0
 10
10.2042622767
 20
7.4942156344
 30
0.0
 10
10.205508409
 20
7.4934612969
 30
0.0
 10
10.2064426814
 20
7.4928947812
 30
0.0
 10
10.2072222817
 20
7.4924251109
 30
0.0
 10
10.2077659611
 20
7.4920915805
 30
0.0
 10
10.2080798215
 20
7.4919084258
 30
0.0
 10
10.2083062404
 20
7.4917501178
 30
0.0
 10
10.2085669718
 20
7.4916718607
 30
0.0
 10
10.2089026451
 20
7.4915395953
 30
0.0
 10
10.2094956497
 20
7.4913211405
 30
0.0
 10
10.2103398838
 20
7.4910022606
 30
0.0
 10
10.2113542125
 20
7.490622516
 30
0.0
 10
10.212706215
 20
7.490115173
 30
0.0
 10
10.2143963674
 20
7.4894813424
 30
0.0
 10
10.2171005278
 20
7.4884670189
 30
0.0
 10
10.2204807568
 20
7.4871991813
 30
0.0
 10
10.2245370196
 20
7.485677748
 30
0.0
 10
10.2279172408
 20
7.4844098916
 30
0.0
 10
10.2306214184
 20
7.4833956092
 30
0.0
 10
10.2326495483
 20
7.4826348864
 30
0.0
 10
10.2346776911
 20
7.4818742064
 30
0.0
 10
10.2363677699
 20
7.4812401729
 30
0.0
 10
10.237719923
 20
7.4807332451
 30
0.0
 10
10.2387337917
 20
7.4803522325
 30
0.0
 10
10.2395794651
 20
7.4800373198
 30
0.0
 10
10.2401699002
 20
7.4798117827
 30
0.0
 10
10.2405096905
 20
7.4796908649
 30
0.0
 10
10.2407577757
 20
7.4795777516
 30
0.0
 10
10.2410316918
 20
7.4795503579
 30
0.0
 10
10.2413879031
 20
7.479483933
 30
0.0
 10
10.2420154709
 20
7.4793816204
 30
0.0
 10
10.2429098015
 20
7.4792281763
 30
0.0
 10
10.2439839377
 20
7.4790471608
 30
0.0
 10
10.2454157912
 20
7.4788047179
 30
0.0
 10
10.2472057206
 20
7.4785020379
 30
0.0
 10
10.2493535877
 20
7.4781386617
 30
0.0
 10
10.2515014676
 20
7.4777753283
 30
0.0
 10
10.254365303
 20
7.4772908689
 30
0.0
 10
10.2579450989
 20
7.4766852998
 30
0.0
 10
10.2622408532
 20
7.4759586146
 30
0.0
 10
10.2679685259
 20
7.4749897019
 30
0.0
 10
10.2722642804
 20
7.4742630171
 30
0.0
 10
10.2751281167
 20
7.4737785606
 30
0.0
  0
ENDSEC
  0
SECTION
  2
OBJECTS
  0
DICTIONARY
  5
C
100
AcDbDictionary
280
0
281
1
  3
ACAD_GROUP
350
D
  3
ACAD_MLINESTYLE
350
17
  3
ACAD_LAYOUT
350
1A
  3
ACAD_PLOTSETTINGS
350
19
  3
ACAD_PLOTSTYLENAME
350
E
  3
ACAD_IMAGE_DICT
350
       3D6
  3
ACAD_IMAGE_VARS
350
       3D7
  3
ACAD_TABLESTYLE
350
       3D8
  0
IMAGEDEF_REACTOR
  5
3D5
100
AcDbRasterImageDefReactor
 90
2
330
28B
  0
DICTIONARY
  5
D
102
{ACAD_REACTORS
330
C
102
}
100
AcDbDictionary
280
0
281
1
  0
ACDBDICTIONARYWDFLT
  5
E
102
{ACAD_REACTORS
330
C
102
}
100
AcDbDictionary
281
1
  3
Normal
350
F
100
AcDbDictionaryWithDefault
340
F
  0
DICTIONARY
  5
3D6
330
C
100
AcDbDictionary
281
1
  3
RPICLWN-IAN-S_assy_2_img_1
350
       3DB
  0
RASTERVARIABLES
  5
3D7
330
C
100
AcDbRasterVariables
 90
0
 70
0
 71
1
 72
5
  0
DICTIONARY
  5
17
102
{ACAD_REACTORS
330
C
102
}
100
AcDbDictionary
280
0
281
1
  3
Standard
350
18
  0
DICTIONARY
  5
3D8
330
C
100
AcDbDictionary
281
1
  3
Standard
350
       3DC
  3
Standard1
350
       3DD
  0
DICTIONARY
  5
19
102
{ACAD_REACTORS
330
C
102
}
100
AcDbDictionary
281
1
  0
DICTIONARY
  5
1A
102
{ACAD_REACTORS
330
C
102
}
100
AcDbDictionary
281
1
  3
Model
350
3D9
  3
Layout1
350
3DA
  0
ACDBPLACEHOLDER
  5
F
102
{ACAD_REACTORS
330
E
102
}
  0
MLINESTYLE
  5
18
102
{ACAD_REACTORS
330
17
102
}
100
AcDbMlineStyle
  2
STANDARD
 70
0
  3

 62
256
 51
90.0
 52
90.0
 71
2
 49
0.5
 62
256
  6
BYLAYER
 49
-0.5
 62
256
  6
BYLAYER
  0
LAYOUT
  5
3D9
102
{ACAD_REACTORS
330
1A
102
}
100
AcDbPlotSettings
  1

  2
none_device
  4
ANSI_C_(22.00_x_17.00_Inches)
  6

 40
0.0
 41
0.0
 42
0.0
 43
0.0
 44
558.8
 45
431.8
 46
0.0
 47
0.0
 48
0.0
 49
0.0
140
0.0
141
0.0
142
1.0
143
1.0
 70
1024
 72
0
 73
0
 74
0
  7

 75
0
147
1.0
148
0.0
149
0.0
100
AcDbLayout
  1
Model
 70
0
 71
0
 10
0.0
 20
0.0
 11
22.0
 21
17.0
 12
0.0
 22
0.0
 32
0.0
 14
0.0
 24
0.0
 34
0.0
 15
0.0
 25
0.0
 35
0.0
146
0.0
 13
0.0
 23
0.0
 33
0.0
 16
1.0
 26
0.0
 36
0.0
 17
0.0
 27
1.0
 37
0.0
 76
0
330
20C
345
0
346
0
  0
LAYOUT
  5
3DA
102
{ACAD_REACTORS
330
1A
102
}
100
AcDbPlotSettings
  1

  2
none_device
  4
ANSI_C_(22.00_x_17.00_Inches)
  6

 40
0.0
 41
0.0
 42
0.0
 43
0.0
 44
558.8
 45
431.8
 46
0.0
 47
0.0
 48
0.0
 49
0.0
140
0.0
141
0.0
142
1.0
143
1.0
 70
0
 72
0
 73
0
 74
0
  7

 75
0
147
1.0
148
0.0
149
0.0
100
AcDbLayout
  1
Layout1
 70
0
 71
1
 10
0.0
 20
0.0
 11
22.0
 21
17.0
 12
0.0
 22
0.0
 32
0.0
 14
0.0
 24
0.0
 34
0.0
 15
0.0
 25
0.0
 35
0.0
146
0.0
 13
0.0
 23
0.0
 33
0.0
 16
1.0
 26
0.0
 36
0.0
 17
0.0
 27
1.0
 37
0.0
 76
0
330
20D
345
0
346
0
  0
IMAGEDEF
  5
3DB
102
{ACAD_REACTORS
330
3D6
330
3D5
102
}
100
AcDbRasterImageDef
 90
0
  1
RPICLWN-IAN-S_assy_2_img_1.png
 10
369.0
 20
92.0
 11
0.0066666667
 21
0.0066666667
280
1
281
0
  0
TABLESTYLE
  5
3DC
102
{ACAD_REACTORS
330
3D8
330
28E
330
28F
102
}
330
3D8
100
AcDbTableStyle
  3
Standard
 70
0
 71
0
 40
0.06
 41
0.06
280
1
281
1
  7
Standard
140
0.18
170
1
 62
0
 63
7
283
0
  7
Standard
140
0.18
170
1
 62
0
 63
7
283
0
  7
Standard
140
0.18
170
1
 62
0
 63
7
283
0
  0
TABLESTYLE
  5
3DD
102
{ACAD_REACTORS
330
3D8
330
28D
102
}
330
3D8
100
AcDbTableStyle
  3
Standard1
 70
1
 71
0
 40
0.06
 41
0.06
280
1
281
1
  7
Standard
140
0.18
170
1
 62
0
 63
7
283
0
  7
Standard
140
0.18
170
1
 62
0
 63
7
283
0
  7
Standard
140
0.18
170
1
 62
0
 63
7
283
0
  0
ENDSEC
  0
EOF
