999
DXF file: RPGCLCN-CAL-S_assy_2.dxf
999
Pro/ENGINEER 2014200 by Parametric Technology Corporation
  0
SECTION
  2
HEADER
  9
$ACADVER
  1
AC1021
  9
$DWGCODEPAGE
  3
ANSI_1252
  9
$EXTMAX
 10
22.0
 20
17.0
 30
0.0
  9
$EXTMIN
 10
0.0
 20
0.0
 30
0.0
  9
$LIMMIN
 10
0.0
 20
0.0
  9
$LIMMAX
 10
22.0
 20
17.0
  9
$VIEWCTR
 10
11.0
 20
8.5
  9
$VIEWSIZE
 40
17.0
  9
$CLAYER
  8
0
  9
$LTSCALE
 40
1.21
  9
$CELTYPE
  6
BYLAYER
  9
$DIMSCALE
 40
1.0
  9
$DIMASZ
 40
0.1875
  9
$DIMEXO
 40
0.0625
  9
$DIMDLI
 40
0.836
  9
$DIMEXE
 40
0.125
  9
$DIMCEN
 40
0.198
  9
$DIMLFAC
 40
1.0
  9
$DIMBLK
  1
_FILLED
  9
$DIMTXT
 40
0.1
  9
$DIMTOL
 70
0
  9
$DIMLIM
 70
0
  9
$DIMTFAC
 40
1.0
  9
$DIMGAP
 40
0.09
  9
$DIMDSEP
 70
46
  9
$AUNITS
 70
0
  9
$PDMODE
 70
3
  9
$PDSIZE
 40
0.3125
  9
$HANDSEED
  5
3D6
  9
$TILEMODE
 70
1
  9
$MEASUREMENT
 70
0
  9
$INSUNITS
 70
1
  0
ENDSEC
  0
SECTION
  2
CLASSES
  0
CLASS
  1
ACDBDICTIONARYWDFLT
  2
AcDbDictionaryWithDefault
  3
AutoCAD 2000
 90
0
 91
1
280
0
281
0
  0
CLASS
  1
ACDBPLACEHOLDER
  2
AcDbPlaceHolder
  3
AutoCAD 2000
 90
0
 91
1
280
0
281
0
  0
CLASS
  1
LAYOUT
  2
AcDbLayout
  3
AutoCAD 2000
 90
0
 91
0
280
0
281
0
  0
CLASS
  1
RASTERVARIABLES
  2
AcDbRasterVariables
  3
ISM
 90
0
 91
1
280
0
281
0
  0
CLASS
  1
IMAGEDEF
  2
AcDbRasterImageDef
  3
ISM
 90
0
 91
1
280
0
281
0
  0
CLASS
  1
IMAGEDEF_REACTOR
  2
AcDbRasterImageDefReactor
  3
ISM
 90
0
 91
1
280
0
281
0
  0
CLASS
  1
IMAGE
  2
AcDbRasterImage
  3
ISM
 90
127
 91
1
280
0
281
1
  0
CLASS
  1
TABLESTYLE
  2
AcDbTableStyle
  3
ObjectDBX Classes
 90
2047
 91
1
280
0
281
0
  0
CLASS
  1
ACAD_TABLE
  2
AcDbTable
  3
ObjectDBX Classes
 90
1025
 91
3
280
0
281
1
  0
ENDSEC
  0
SECTION
  2
TABLES
  0
TABLE
  2
VPORT
  5
8
100
AcDbSymbolTable
 70
2
  0
VPORT
  5
1F4
100
AcDbSymbolTableRecord
100
AcDbViewportTableRecord
  2
*ACTIVE
 70
0
 10
0.0
 20
0.0
 11
1.0
 21
1.0
 12
11.0
 22
8.5
 13
0.0
 23
0.0
 14
1.0
 24
1.0
 15
0.0
 25
0.0
 16
0.0
 26
0.0
 36
1.0
 17
0.0
 27
0.0
 37
0.0
 40
17.0
 41
1.2941176471
 42
50.0
 43
0.0
 44
0.0
 50
0.0
 51
0.0
 71
0
 72
100
 73
1
 74
1
 75
0
 76
0
 77
0
 78
0
  0
ENDTAB
  0
TABLE
  2
LTYPE
  5
5
100
AcDbSymbolTable
 70
6
  0
LTYPE
  5
14
100
AcDbSymbolTableRecord
100
AcDbLinetypeTableRecord
  2
BYBLOCK
 70
0
  3

 72
65
 73
0
 40
0.0
  0
LTYPE
  5
15
100
AcDbSymbolTableRecord
100
AcDbLinetypeTableRecord
  2
BYLAYER
 70
0
  3

 72
65
 73
0
 40
0.0
  0
LTYPE
  5
16
100
AcDbSymbolTableRecord
100
AcDbLinetypeTableRecord
  2
CONTINUOUS
 70
64
  3
Solid line
 72
65
 73
0
 40
0.0
  0
LTYPE
  5
1F5
100
AcDbSymbolTableRecord
100
AcDbLinetypeTableRecord
  2
CENTER
 70
64
  3
____ _ ____ _ ____ _ ____ _ ____ _ ____ _ ____
 72
65
 73
4
 40
0.6
 49
0.375
 74
0
 49
-0.075
 74
0
 49
0.075
 74
0
 49
-0.075
 74
0
  0
LTYPE
  5
1F6
100
AcDbSymbolTableRecord
100
AcDbLinetypeTableRecord
  2
HIDDEN
 70
64
  3
- - - - - - - - - - - - - - - - - - - -
 72
65
 73
2
 40
0.2
 49
0.1
 74
0
 49
-0.1
 74
0
  0
LTYPE
  5
1F7
100
AcDbSymbolTableRecord
100
AcDbLinetypeTableRecord
  2
PHANTOM
 70
64
  3
_____ _ _ _____ _ _ _____ _ _ _____
 72
65
 73
6
 40
0.8
 49
0.45
 74
0
 49
-0.05
 74
0
 49
0.1
 74
0
 49
-0.05
 74
0
 49
0.1
 74
0
 49
-0.05
 74
0
  0
LTYPE
  5
1F8
100
AcDbSymbolTableRecord
100
AcDbLinetypeTableRecord
  2
DOT
 70
64
  3
. . . . . . . . . . . . . . . . . . . .
 72
65
 73
2
 40
0.2
 49
0.1
 74
0
 49
-0.1
 74
0
  0
LTYPE
  5
1F9
100
AcDbSymbolTableRecord
100
AcDbLinetypeTableRecord
  2
DASHED
 70
64
  3
- - - - - - - - - - - - - - - - - - - -
 72
65
 73
2
 40
0.2
 49
0.1
 74
0
 49
-0.1
 74
0
  0
ENDTAB
  0
TABLE
  2
LAYER
  5
2
100
AcDbSymbolTable
 70
36
  0
LAYER
  5
10
100
AcDbSymbolTableRecord
100
AcDbLayerTableRecord
  2
0
 70
0
 62
7
  6
CONTINUOUS
370
-3
390
F
  0
LAYER
  5
1FA
100
AcDbSymbolTableRecord
100
AcDbLayerTableRecord
  2
DEFAULT_1
 70
0
 62
7
  6
CENTER
370
-3
390
F
  0
LAYER
  5
1FB
100
AcDbSymbolTableRecord
100
AcDbLayerTableRecord
  2
DEFAULT_2
 70
0
 62
8
  6
HIDDEN
370
-3
390
F
  0
LAYER
  5
1FC
100
AcDbSymbolTableRecord
100
AcDbLayerTableRecord
  2
DEFAULT_3
 70
0
 62
7
  6
PHANTOM
370
-3
390
F
  0
LAYER
  5
1FD
100
AcDbSymbolTableRecord
100
AcDbLayerTableRecord
  2
DATUM_PLANES
 70
0
 62
7
  6
CONTINUOUS
370
-3
390
F
  0
LAYER
  5
1FE
100
AcDbSymbolTableRecord
100
AcDbLayerTableRecord
  2
PORT_AREAS
 70
0
 62
7
  6
CONTINUOUS
370
-3
390
F
  0
LAYER
  5
1FF
100
AcDbSymbolTableRecord
100
AcDbLayerTableRecord
  2
SUNNBOMCOSMETIC
 70
0
 62
7
  6
CONTINUOUS
370
-3
390
F
  0
LAYER
  5
200
100
AcDbSymbolTableRecord
100
AcDbLayerTableRecord
  2
SUNNBOMSTAMPING
 70
0
 62
7
  6
CONTINUOUS
370
-3
390
F
  0
LAYER
  5
201
100
AcDbSymbolTableRecord
100
AcDbLayerTableRecord
  2
THREADS
 70
0
 62
7
  6
CONTINUOUS
370
-3
390
F
  0
ENDTAB
  0
TABLE
  2
STYLE
  5
3
100
AcDbSymbolTable
 70
1
  0
STYLE
  5
11
100
AcDbSymbolTableRecord
100
AcDbTextStyleTableRecord
  2
STANDARD
 70
0
 40
0.0
 41
0.8
 50
0.0
 71
0
 42
0.2
  3
txt
  4

  0
STYLE
  5
202
100
AcDbSymbolTableRecord
100
AcDbTextStyleTableRecord
  2
TEXTSTYLE_1
 70
0
 40
0.0
 41
0.8
 50
0.0
 71
0
 42
0.2
  3
gdt
  4

  0
ENDTAB
  0
TABLE
  2
VIEW
  5
6
100
AcDbSymbolTable
 70
0
  0
ENDTAB
  0
TABLE
  2
UCS
  5
7
100
AcDbSymbolTable
 70
0
  0
ENDTAB
  0
TABLE
  2
APPID
  5
9
100
AcDbSymbolTable
 70
1
  0
APPID
  5
203
100
AcDbSymbolTableRecord
100
AcDbRegAppTableRecord
  2
ACAD
 70
0
  0
ENDTAB
  0
TABLE
  2
BLOCK_RECORD
  5
1
100
AcDbSymbolTable
 70
0
  0
BLOCK_RECORD
  5
204
100
AcDbSymbolTableRecord
100
AcDbBlockTableRecord
  2
*Model_Space
  0
BLOCK_RECORD
  5
205
100
AcDbSymbolTableRecord
100
AcDbBlockTableRecord
  2
*Paper_Space
  0
BLOCK_RECORD
  5
206
100
AcDbSymbolTableRecord
100
AcDbBlockTableRecord
  2
SUN_FIRST_THIRD_ANGLE_BL0
  0
BLOCK_RECORD
  5
207
100
AcDbSymbolTableRecord
100
AcDbBlockTableRecord
  2
*T1
  0
BLOCK_RECORD
  5
208
100
AcDbSymbolTableRecord
100
AcDbBlockTableRecord
  2
*T2
  0
BLOCK_RECORD
  5
209
100
AcDbSymbolTableRecord
100
AcDbBlockTableRecord
  2
*T3
  0
ENDTAB
  0
TABLE
  2
DIMSTYLE
  5
A
100
AcDbSymbolTable
 70
1
100
AcDbDimStyleTable
 71
0
  0
DIMSTYLE
105
20A
100
AcDbSymbolTableRecord
100
AcDbDimStyleTableRecord
  2
STANDARD
 70
0
  3

  4

 40
1.0
 41
0.1875
 42
0.0625
 43
0.38
 44
0.125
 45
0.0
 46
0.0
 47
0.001
 48
0.001
140
0.1
141
0.09
142
0.0
143
25.4
144
1.0
145
0.0
146
1.0
147
0.09
 71
0.0
 72
0.0
 73
1
 74
1
 75
0
 76
0
 77
0
 78
4
170
0
171
2
172
0
173
0
174
0
175
0
176
0
177
0
178
0
270
2
271
3
272
3
273
2
274
2
275
0
280
0
281
0
282
0
283
1
284
4
285
0
286
0
287
3
288
0
340
11
278
46
  0
ENDTAB
  0
ENDSEC
  0
SECTION
  2
BLOCKS
  0
BLOCK
  5
20
100
AcDbEntity
  8
0
100
AcDbBlockBegin
  2
*Model_Space
 70
0
 10
0.0
 20
0.0
 30
0.0
  3
*Model_Space
  1

  0
ENDBLK
  5
21
100
AcDbEntity
  8
0
100
AcDbBlockEnd
  0
BLOCK
  5
1C
100
AcDbEntity
  8
0
100
AcDbBlockBegin
  2
*Paper_Space
 70
0
 10
0.0
 20
0.0
 30
0.0
  3
*Paper_Space
  1

  0
ENDBLK
  5
1D
100
AcDbEntity
  8
0
100
AcDbBlockEnd
  0
BLOCK
  5
20B
100
AcDbEntity
  8
0
100
AcDbBlockBegin
 62
2
  6
CONTINUOUS
  2
SUN_FIRST_THIRD_ANGLE_BL0
 70
64
 10
20.4816717061
 20
1.2289683772
  3
SUN_FIRST_THIRD_ANGLE_BL0
  1

  0
TEXT
  5
20C
100
AcDbEntity
  8
0
100
AcDbText
 62
2
  6
CONTINUOUS
 10
19.4750896608
 20
1.4136269581
  7
STANDARD
 40
0.08
  1
FIRST ANGLE
 41
0.8
 72
0
100
AcDbText
  0
TEXT
  5
20D
100
AcDbEntity
  8
0
100
AcDbText
 62
2
  6
CONTINUOUS
 10
20.7842537513
 20
1.4047600029
  7
STANDARD
 40
0.08
  1
THIRD ANGLE
 41
0.8
 72
0
100
AcDbText
  0
LINE
  5
20E
100
AcDbEntity
  8
0
100
AcDbLine
 62
7
  6
CONTINUOUS
 10
19.4767170086
 20
1.1727031207
 11
19.6334271527
 21
1.1717972817
  0
LINE
  5
20F
100
AcDbEntity
  8
0
100
AcDbLine
 62
7
  6
CONTINUOUS
 10
19.6596964832
 20
1.1717972817
 11
19.6950230232
 21
1.171593082
  0
LINE
  5
210
100
AcDbEntity
  8
0
100
AcDbLine
 62
7
  6
CONTINUOUS
 10
19.7194818561
 20
1.1708914427
 11
19.8852396156
 21
1.1699333054
  0
LINE
  5
211
100
AcDbEntity
  8
0
100
AcDbLine
 62
7
  6
CONTINUOUS
 10
19.4758111696
 20
1.2723454088
 11
19.88525039
 21
1.3511534004
  0
LINE
  5
212
100
AcDbEntity
  8
0
100
AcDbLine
 62
7
  6
CONTINUOUS
 10
19.88525039
 20
1.3511534004
 11
19.8831348489
 21
0.9851647912
  0
LINE
  5
213
100
AcDbEntity
  8
0
100
AcDbLine
 62
7
  6
CONTINUOUS
 10
19.8831348489
 20
0.9851647912
 11
19.4767170086
 21
1.0658141206
  0
LINE
  5
214
100
AcDbEntity
  8
0
100
AcDbLine
 62
7
  6
CONTINUOUS
 10
19.4767170086
 20
1.0658141206
 11
19.4779056764
 21
1.2714536432
  0
CIRCLE
  5
215
100
AcDbEntity
  8
0
100
AcDbCircle
 62
7
  6
CONTINUOUS
 10
20.2068232291
 20
1.1717972817
 40
0.175742101
  0
CIRCLE
  5
216
100
AcDbEntity
  8
0
100
AcDbCircle
 62
7
  6
CONTINUOUS
 10
20.2068232291
 20
1.1717972817
 40
0.1005522074
  0
LINE
  5
217
100
AcDbEntity
  8
0
100
AcDbLine
 62
7
  6
CONTINUOUS
 10
20.2077290681
 20
1.3756110529
 11
20.2071171714
 21
1.2379342989
  0
LINE
  5
218
100
AcDbEntity
  8
0
100
AcDbLine
 62
7
  6
CONTINUOUS
 10
20.2077290681
 20
1.2016899681
 11
20.2074674401
 21
1.1428236749
  0
LINE
  5
219
100
AcDbEntity
  8
0
100
AcDbLine
 62
7
  6
CONTINUOUS
 10
20.208634907
 20
1.101141841
 11
20.2080230104
 21
0.963465087
  0
LINE
  5
21A
100
AcDbEntity
  8
0
100
AcDbLine
 62
7
  6
CONTINUOUS
 10
20.0066328138
 20
1.1745147986
 11
20.1443095678
 21
1.1739029019
  0
LINE
  5
21B
100
AcDbEntity
  8
0
100
AcDbLine
 62
7
  6
CONTINUOUS
 10
20.1832714155
 20
1.1727031207
 11
20.238153505
 21
1.172335442
  0
LINE
  5
21C
100
AcDbEntity
  8
0
100
AcDbLine
 62
7
  6
CONTINUOUS
 10
20.2756669918
 20
1.1717972817
 11
20.407916871
 21
1.1712095044
  0
CIRCLE
  5
21D
100
AcDbEntity
  8
0
100
AcDbCircle
 62
7
  6
CONTINUOUS
 10
20.7509457401
 20
1.1693297793
 40
0.1722024983
  0
CIRCLE
  5
21E
100
AcDbEntity
  8
0
100
AcDbCircle
 62
7
  6
CONTINUOUS
 10
20.7509457401
 20
1.1693297793
 40
0.0985164967
  0
LINE
  5
21F
100
AcDbEntity
  8
0
100
AcDbLine
 62
7
  6
CONTINUOUS
 10
20.7169767782
 20
1.170462078
 11
20.7825395137
 21
1.1682766535
  0
LINE
  5
220
100
AcDbEntity
  8
0
100
AcDbLine
 62
7
  6
CONTINUOUS
 10
20.8177513651
 20
1.1693297793
 11
20.947965719
 21
1.1693297793
  0
LINE
  5
221
100
AcDbEntity
  8
0
100
AcDbLine
 62
7
  6
CONTINUOUS
 10
20.6875370113
 20
1.170462078
 11
20.5573226574
 21
1.170462078
  0
LINE
  5
222
100
AcDbEntity
  8
0
100
AcDbLine
 62
7
  6
CONTINUOUS
 10
20.7486811426
 20
1.1987695462
 11
20.7486811426
 21
1.1432869085
  0
LINE
  5
223
100
AcDbEntity
  8
0
100
AcDbLine
 62
7
  6
CONTINUOUS
 10
20.7498134414
 20
1.1059210505
 11
20.7498134414
 21
0.9757066966
  0
LINE
  5
224
100
AcDbEntity
  8
0
100
AcDbLine
 62
7
  6
CONTINUOUS
 10
20.7486811426
 20
1.2338708068
 11
20.7486811426
 21
1.3640851607
  0
LINE
  5
225
100
AcDbEntity
  8
0
100
AcDbLine
 62
7
  6
CONTINUOUS
 10
21.0702539817
 20
1.2701043662
 11
21.4790138229
 21
1.3448360823
  0
LINE
  5
226
100
AcDbEntity
  8
0
100
AcDbLine
 62
7
  6
CONTINUOUS
 10
21.4790138229
 20
1.3448360823
 11
21.4790138229
 21
0.9779712941
  0
LINE
  5
227
100
AcDbEntity
  8
0
100
AcDbLine
 62
7
  6
CONTINUOUS
 10
21.4790138229
 20
0.9779712941
 11
21.069121683
 21
1.0617614
  0
LINE
  5
228
100
AcDbEntity
  8
0
100
AcDbLine
 62
7
  6
CONTINUOUS
 10
21.0702539817
 20
1.2701043662
 11
21.069121683
 21
1.0617614
  0
LINE
  5
229
100
AcDbEntity
  8
0
100
AcDbLine
 62
7
  6
CONTINUOUS
 10
21.4790138229
 20
1.1693297793
 11
21.3159628059
 21
1.1693297793
  0
LINE
  5
22A
100
AcDbEntity
  8
0
100
AcDbLine
 62
7
  6
CONTINUOUS
 10
21.2876553377
 20
1.1693297793
 11
21.2502894796
 21
1.1693297793
  0
LINE
  5
22B
100
AcDbEntity
  8
0
100
AcDbLine
 62
7
  6
CONTINUOUS
 10
21.2208497126
 20
1.1659328831
 11
21.0713862804
 21
1.1659328831
  0
LINE
  5
22C
100
AcDbEntity
  8
0
100
AcDbLine
 62
7
  6
CONTINUOUS
 10
20.4796138713
 20
1.5284908897
 11
20.4766766948
 21
0.9294458646
  0
ENDBLK
  5
22D
100
AcDbEntity
  8
0
  6
BYBLOCK
 62
0
100
AcDbBlockEnd
  0
BLOCK
  5
22E
100
AcDbEntity
  8
0
100
AcDbBlockBegin
  2
*T1
 70
1
 10
0.0
 20
0.0
  3
*T1
  1

  0
LINE
  5
22F
100
AcDbEntity
  8
0
100
AcDbLine
 62
2
  6
CONTINUOUS
 10
9.275
 20
0.0
 11
-0.0
 21
0.0
  0
LINE
  5
230
100
AcDbEntity
  8
0
100
AcDbLine
 62
2
  6
CONTINUOUS
 10
9.275
 20
0.0
 11
9.275
 21
1.25
  0
LINE
  5
231
100
AcDbEntity
  8
0
100
AcDbLine
 62
2
  6
CONTINUOUS
 10
9.275
 20
0.625
 11
-0.0
 21
0.625
  0
LINE
  5
232
100
AcDbEntity
  8
0
100
AcDbLine
 62
2
  6
CONTINUOUS
 10
9.275
 20
1.25
 11
-0.0
 21
1.25
  0
LINE
  5
233
100
AcDbEntity
  8
0
100
AcDbLine
 62
2
  6
CONTINUOUS
 10
6.8
 20
0.0
 11
6.8
 21
1.25
  0
LINE
  5
234
100
AcDbEntity
  8
0
100
AcDbLine
 62
2
  6
CONTINUOUS
 10
6.4
 20
0.0
 11
6.4
 21
0.625
  0
LINE
  5
235
100
AcDbEntity
  8
0
100
AcDbLine
 62
2
  6
CONTINUOUS
 10
5.9
 20
0.0
 11
5.9
 21
0.625
  0
LINE
  5
236
100
AcDbEntity
  8
0
100
AcDbLine
 62
2
  6
CONTINUOUS
 10
5.2
 20
0.0
 11
5.2
 21
0.625
  0
LINE
  5
237
100
AcDbEntity
  8
0
100
AcDbLine
 62
2
  6
CONTINUOUS
 10
4.1
 20
0.0
 11
4.1
 21
1.25
  0
LINE
  5
238
100
AcDbEntity
  8
0
100
AcDbLine
 62
2
  6
CONTINUOUS
 10
-0.0
 20
0.0
 11
-0.0
 21
1.25
  0
MTEXT
  5
239
100
AcDbEntity
  8
0
100
AcDbMText
 62
2
  6
CONTINUOUS
  7
STANDARD
 71
2
 72
1
 10
6.6
 20
0.325
 30
0.0
 11
1.0
 21
0.0
 31
0.0
 44
0.9
  1
2
 40
0.125
 41
0.2
  0
MTEXT
  5
23A
100
AcDbEntity
  8
0
100
AcDbMText
 62
2
  6
CONTINUOUS
  7
STANDARD
 71
2
 72
1
 10
6.15
 20
0.325
 30
0.0
 11
1.0
 21
0.0
 31
0.0
 44
0.9
  1
C
 40
0.125
 41
0.2
  0
MTEXT
  5
23B
100
AcDbEntity
  8
0
100
AcDbMText
 62
2
  6
CONTINUOUS
  7
STANDARD
 71
2
 72
1
 10
5.55
 20
0.325
 30
0.0
 11
1.0
 21
0.0
 31
0.0
 44
0.9
  1
1.000
 40
0.125
 41
1.0
  0
MTEXT
  5
23C
100
AcDbEntity
  8
0
100
AcDbMText
 62
2
  6
CONTINUOUS
  7
STANDARD
 71
2
 72
1
 10
4.65
 20
0.325
 30
0.0
 11
1.0
 21
0.0
 31
0.0
 44
0.9
  1
Jan-16-24
 40
0.125
 41
1.8
  0
MTEXT
  5
23D
100
AcDbEntity
  8
0
100
AcDbMText
 62
2
  6
CONTINUOUS
  7
STANDARD
 71
2
 72
1
 10
2.05
 20
0.4625
 30
0.0
 11
1.0
 21
0.0
 31
0.0
 44
0.9
  1
Relief manifold assembly
 40
0.125
 41
4.8
  0
MTEXT
  5
23E
100
AcDbEntity
  8
0
100
AcDbMText
 62
2
  6
CONTINUOUS
  7
STANDARD
 71
1
 72
1
 10
6.45
 20
0.5625
 30
0.0
 11
1.0
 21
0.0
 31
0.0
 44
0.9
  1
SHEET
 40
0.06
 41
0.48
  0
MTEXT
  5
23F
100
AcDbEntity
  8
0
100
AcDbMText
 62
2
  6
CONTINUOUS
  7
STANDARD
 71
1
 72
1
 10
5.95
 20
0.5625
 30
0.0
 11
1.0
 21
0.0
 31
0.0
 44
0.9
  1
DWG SIZE
 40
0.06
 41
0.768
  0
MTEXT
  5
240
100
AcDbEntity
  8
0
100
AcDbMText
 62
2
  6
CONTINUOUS
  7
STANDARD
 71
1
 72
1
 10
5.25
 20
0.5625
 30
0.0
 11
1.0
 21
0.0
 31
0.0
 44
0.9
  1
SCALE
 40
0.06
 41
0.48
  0
MTEXT
  5
241
100
AcDbEntity
  8
0
100
AcDbMText
 62
2
  6
CONTINUOUS
  7
STANDARD
 71
1
 72
1
 10
4.15
 20
0.5625
 30
0.0
 11
1.0
 21
0.0
 31
0.0
 44
0.9
  1
DATE
 40
0.06
 41
0.384
  0
MTEXT
  5
242
100
AcDbEntity
  8
0
100
AcDbMText
 62
2
  6
CONTINUOUS
  7
STANDARD
 71
1
 72
1
 10
0.05
 20
0.5625
 30
0.0
 11
1.0
 21
0.0
 31
0.0
 44
0.9
  1
DESCRIPTION
 40
0.06
 41
1.056
  0
MTEXT
  5
243
100
AcDbEntity
  8
0
100
AcDbMText
 62
2
  6
CONTINUOUS
  7
STANDARD
 71
2
 72
1
 10
5.45
 20
1.0375
 30
0.0
 11
1.0
 21
0.0
 31
0.0
 44
0.9
  1
ALL DIMENSIONS IN INCH\PVIEWS ARE THIRD ANGLE
 40
0.12
 41
4.224
  0
MTEXT
  5
244
100
AcDbEntity
  8
0
100
AcDbMText
 62
2
  6
CONTINUOUS
  7
STANDARD
 71
2
 72
1
 10
2.05
 20
0.95
 30
0.0
 11
1.0
 21
0.0
 31
0.0
 44
0.9
  1
RPGCLCN-CAL/S
 40
0.125
 41
2.6
  0
MTEXT
  5
245
100
AcDbEntity
  8
0
100
AcDbMText
 62
2
  6
CONTINUOUS
  7
STANDARD
 71
1
 72
1
 10
0.05
 20
1.1875
 30
0.0
 11
1.0
 21
0.0
 31
0.0
 44
0.9
  1
MODEL
 40
0.06
 41
0.48
  0
ENDBLK
  5
246
100
AcDbEntity
  8
0
  6
BYBLOCK
 62
0
100
AcDbBlockEnd
  0
BLOCK
  5
247
100
AcDbEntity
  8
0
100
AcDbBlockBegin
  2
*T2
 70
1
 10
0.0
 20
0.0
  3
*T2
  1

  0
LINE
  5
248
100
AcDbEntity
  8
0
100
AcDbLine
 62
2
  6
CONTINUOUS
 10
0.0
 20
0.0
 11
9.055
 21
0.0
  0
LINE
  5
249
100
AcDbEntity
  8
0
100
AcDbLine
 62
2
  6
CONTINUOUS
 10
0.0
 20
0.0
 11
0.0
 21
-2.594
  0
LINE
  5
24A
100
AcDbEntity
  8
0
100
AcDbLine
 62
2
  6
CONTINUOUS
 10
0.0
 20
-0.344
 11
9.055
 21
-0.344
  0
LINE
  5
24B
100
AcDbEntity
  8
0
100
AcDbLine
 62
2
  6
CONTINUOUS
 10
0.0
 20
-0.594
 11
9.055
 21
-0.594
  0
LINE
  5
24C
100
AcDbEntity
  8
0
100
AcDbLine
 62
2
  6
CONTINUOUS
 10
0.0
 20
-0.844
 11
9.055
 21
-0.844
  0
LINE
  5
24D
100
AcDbEntity
  8
0
100
AcDbLine
 62
2
  6
CONTINUOUS
 10
0.0
 20
-1.094
 11
9.055
 21
-1.094
  0
LINE
  5
24E
100
AcDbEntity
  8
0
100
AcDbLine
 62
2
  6
CONTINUOUS
 10
0.0
 20
-1.344
 11
9.055
 21
-1.344
  0
LINE
  5
24F
100
AcDbEntity
  8
0
100
AcDbLine
 62
2
  6
CONTINUOUS
 10
0.0
 20
-1.594
 11
9.055
 21
-1.594
  0
LINE
  5
250
100
AcDbEntity
  8
0
100
AcDbLine
 62
2
  6
CONTINUOUS
 10
0.0
 20
-1.844
 11
9.055
 21
-1.844
  0
LINE
  5
251
100
AcDbEntity
  8
0
100
AcDbLine
 62
2
  6
CONTINUOUS
 10
0.0
 20
-2.094
 11
9.055
 21
-2.094
  0
LINE
  5
252
100
AcDbEntity
  8
0
100
AcDbLine
 62
2
  6
CONTINUOUS
 10
0.0
 20
-2.344
 11
9.055
 21
-2.344
  0
LINE
  5
253
100
AcDbEntity
  8
0
100
AcDbLine
 62
2
  6
CONTINUOUS
 10
0.0
 20
-2.594
 11
9.055
 21
-2.594
  0
LINE
  5
254
100
AcDbEntity
  8
0
100
AcDbLine
 62
2
  6
CONTINUOUS
 10
3.055
 20
0.0
 11
3.055
 21
-2.594
  0
LINE
  5
255
100
AcDbEntity
  8
0
100
AcDbLine
 62
2
  6
CONTINUOUS
 10
9.055
 20
0.0
 11
9.055
 21
-2.594
  0
MTEXT
  5
256
100
AcDbEntity
  8
0
100
AcDbMText
 62
2
  6
CONTINUOUS
  7
STANDARD
 71
2
 72
1
 10
1.5275
 20
-0.0995
 30
0.0
 11
1.0
 21
0.0
 31
0.0
 44
0.9
  1
Technical Data
 40
0.145
 41
3.248
  0
MTEXT
  5
257
100
AcDbEntity
  8
0
100
AcDbMText
 62
2
  6
CONTINUOUS
  7
STANDARD
 71
2
 72
1
 10
4.555
 20
-0.0995
 30
0.0
 11
1.0
 21
0.0
 31
0.0
 44
0.9
  1
U.S. Units
 40
0.145
 41
2.32
  0
MTEXT
  5
258
100
AcDbEntity
  8
0
100
AcDbMText
 62
2
  6
CONTINUOUS
  7
STANDARD
 71
2
 72
1
 10
7.555
 20
-0.0995
 30
0.0
 11
1.0
 21
0.0
 31
0.0
 44
0.9
  1
Metric Units
 40
0.145
 41
2.784
  0
MTEXT
  5
259
100
AcDbEntity
  8
0
100
AcDbMText
 62
2
  6
CONTINUOUS
  7
STANDARD
 71
2
 72
1
 10
1.5275
 20
-0.4065
 30
0.0
 11
1.0
 21
0.0
 31
0.0
 44
0.9
  1
Cavity
 40
0.125
 41
1.2
  0
MTEXT
  5
25A
100
AcDbEntity
  8
0
100
AcDbMText
 62
2
  6
CONTINUOUS
  7
STANDARD
 71
2
 72
1
 10
6.055
 20
-0.4065
 30
0.0
 11
1.0
 21
0.0
 31
0.0
 44
0.9
  1
T-3A
 40
0.125
 41
0.8
  0
MTEXT
  5
25B
100
AcDbEntity
  8
0
100
AcDbMText
 62
2
  6
CONTINUOUS
  7
STANDARD
 71
2
 72
1
 10
1.5275
 20
-0.6565
 30
0.0
 11
1.0
 21
0.0
 31
0.0
 44
0.9
  1
Body Features
 40
0.125
 41
2.6
  0
MTEXT
  5
25C
100
AcDbEntity
  8
0
100
AcDbMText
 62
2
  6
CONTINUOUS
  7
STANDARD
 71
2
 72
1
 10
6.055
 20
-0.6565
 30
0.0
 11
1.0
 21
0.0
 31
0.0
 44
0.9
  1
Ninety degree
 40
0.125
 41
2.6
  0
MTEXT
  5
25D
100
AcDbEntity
  8
0
100
AcDbMText
 62
2
  6
CONTINUOUS
  7
STANDARD
 71
2
 72
1
 10
1.5275
 20
-0.9065
 30
0.0
 11
1.0
 21
0.0
 31
0.0
 44
0.9
  1
Body Type
 40
0.125
 41
1.8
  0
MTEXT
  5
25E
100
AcDbEntity
  8
0
100
AcDbMText
 62
2
  6
CONTINUOUS
  7
STANDARD
 71
2
 72
1
 10
6.055
 20
-0.9065
 30
0.0
 11
1.0
 21
0.0
 31
0.0
 44
0.9
  1
Line mount
 40
0.125
 41
2.0
  0
MTEXT
  5
25F
100
AcDbEntity
  8
0
100
AcDbMText
 62
2
  6
CONTINUOUS
  7
STANDARD
 71
2
 72
1
 10
1.5275
 20
-1.1565
 30
0.0
 11
1.0
 21
0.0
 31
0.0
 44
0.9
  1
Interface
 40
0.125
 41
1.8
  0
MTEXT
  5
260
100
AcDbEntity
  8
0
100
AcDbMText
 62
2
  6
CONTINUOUS
  7
STANDARD
 71
2
 72
1
 10
6.055
 20
-1.1565
 30
0.0
 11
1.0
 21
0.0
 31
0.0
 44
0.9
  1
None
 40
0.125
 41
0.8
  0
MTEXT
  5
261
100
AcDbEntity
  8
0
100
AcDbMText
 62
2
  6
CONTINUOUS
  7
STANDARD
 71
2
 72
1
 10
1.5275
 20
-1.4065
 30
0.0
 11
1.0
 21
0.0
 31
0.0
 44
0.9
  1
Open Cavity Quantity
 40
0.125
 41
4.0
  0
MTEXT
  5
262
100
AcDbEntity
  8
0
100
AcDbMText
 62
2
  6
CONTINUOUS
  7
STANDARD
 71
2
 72
1
 10
6.055
 20
-1.4065
 30
0.0
 11
1.0
 21
0.0
 31
0.0
 44
0.9
  1
1
 40
0.125
 41
0.2
  0
MTEXT
  5
263
100
AcDbEntity
  8
0
100
AcDbMText
 62
2
  6
CONTINUOUS
  7
STANDARD
 71
2
 72
1
 10
1.5275
 20
-1.6565
 30
0.0
 11
1.0
 21
0.0
 31
0.0
 44
0.9
  1
Weight
 40
0.125
 41
1.2
  0
MTEXT
  5
264
100
AcDbEntity
  8
0
100
AcDbMText
 62
2
  6
CONTINUOUS
  7
STANDARD
 71
2
 72
1
 10
4.555
 20
-1.6565
 30
0.0
 11
1.0
 21
0.0
 31
0.0
 44
0.9
  1
2.080 lb.
 40
0.125
 41
1.8
  0
MTEXT
  5
265
100
AcDbEntity
  8
0
100
AcDbMText
 62
2
  6
CONTINUOUS
  7
STANDARD
 71
2
 72
1
 10
7.555
 20
-1.6565
 30
0.0
 11
1.0
 21
0.0
 31
0.0
 44
0.9
  1
0,943 kg.
 40
0.125
 41
1.8
  0
MTEXT
  5
266
100
AcDbEntity
  8
0
100
AcDbMText
 62
2
  6
CONTINUOUS
  7
STANDARD
 71
2
 72
1
 10
1.5275
 20
-1.9065
 30
0.0
 11
1.0
 21
0.0
 31
0.0
 44
0.9
  1
Mounting Hole Diameter
 40
0.125
 41
4.4
  0
MTEXT
  5
267
100
AcDbEntity
  8
0
100
AcDbMText
 62
2
  6
CONTINUOUS
  7
STANDARD
 71
2
 72
1
 10
4.555
 20
-1.9065
 30
0.0
 11
1.0
 21
0.0
 31
0.0
 44
0.9
  1
.42 in.
 40
0.125
 41
1.4
  0
MTEXT
  5
268
100
AcDbEntity
  8
0
100
AcDbMText
 62
2
  6
CONTINUOUS
  7
STANDARD
 71
2
 72
1
 10
7.555
 20
-1.9065
 30
0.0
 11
1.0
 21
0.0
 31
0.0
 44
0.9
  1
10,7 mm
 40
0.125
 41
1.4
  0
MTEXT
  5
269
100
AcDbEntity
  8
0
100
AcDbMText
 62
2
  6
CONTINUOUS
  7
STANDARD
 71
2
 72
1
 10
1.5275
 20
-2.1565
 30
0.0
 11
1.0
 21
0.0
 31
0.0
 44
0.9
  1
Mounting Hole Depth
 40
0.125
 41
3.8
  0
MTEXT
  5
26A
100
AcDbEntity
  8
0
100
AcDbMText
 62
2
  6
CONTINUOUS
  7
STANDARD
 71
2
 72
1
 10
6.055
 20
-2.1565
 30
0.0
 11
1.0
 21
0.0
 31
0.0
 44
0.9
  1
Through
 40
0.125
 41
1.4
  0
MTEXT
  5
26B
100
AcDbEntity
  8
0
100
AcDbMText
 62
2
  6
CONTINUOUS
  7
STANDARD
 71
2
 72
1
 10
1.5275
 20
-2.4065
 30
0.0
 11
1.0
 21
0.0
 31
0.0
 44
0.9
  1
Mounting Hole Quantity
 40
0.125
 41
4.4
  0
MTEXT
  5
26C
100
AcDbEntity
  8
0
100
AcDbMText
 62
2
  6
CONTINUOUS
  7
STANDARD
 71
2
 72
1
 10
6.055
 20
-2.4065
 30
0.0
 11
1.0
 21
0.0
 31
0.0
 44
0.9
  1
1
 40
0.125
 41
0.2
  0
ENDBLK
  5
26D
100
AcDbEntity
  8
0
  6
BYBLOCK
 62
0
100
AcDbBlockEnd
  0
BLOCK
  5
26E
100
AcDbEntity
  8
0
100
AcDbBlockBegin
  2
*T3
 70
1
 10
0.0
 20
0.0
  3
*T3
  1

  0
LINE
  5
26F
100
AcDbEntity
  8
0
100
AcDbLine
 62
2
  6
CONTINUOUS
 10
0.0
 20
0.0
 11
4.6
 21
0.0
  0
LINE
  5
270
100
AcDbEntity
  8
0
100
AcDbLine
 62
2
  6
CONTINUOUS
 10
0.0
 20
0.0
 11
0.0
 21
-0.93775
  0
LINE
  5
271
100
AcDbEntity
  8
0
100
AcDbLine
 62
2
  6
CONTINUOUS
 10
0.0
 20
-0.34375
 11
4.6
 21
-0.34375
  0
LINE
  5
272
100
AcDbEntity
  8
0
100
AcDbLine
 62
2
  6
CONTINUOUS
 10
0.0
 20
-0.68775
 11
4.6
 21
-0.68775
  0
LINE
  5
273
100
AcDbEntity
  8
0
100
AcDbLine
 62
2
  6
CONTINUOUS
 10
0.0
 20
-0.93775
 11
4.6
 21
-0.93775
  0
LINE
  5
274
100
AcDbEntity
  8
0
100
AcDbLine
 62
2
  6
CONTINUOUS
 10
1.3
 20
-0.34375
 11
1.3
 21
-0.93775
  0
LINE
  5
275
100
AcDbEntity
  8
0
100
AcDbLine
 62
2
  6
CONTINUOUS
 10
3.3
 20
-0.34375
 11
3.3
 21
-0.93775
  0
LINE
  5
276
100
AcDbEntity
  8
0
100
AcDbLine
 62
2
  6
CONTINUOUS
 10
4.6
 20
0.0
 11
4.6
 21
-0.93775
  0
MTEXT
  5
277
100
AcDbEntity
  8
0
100
AcDbMText
 62
2
  6
CONTINUOUS
  7
STANDARD
 71
2
 72
1
 10
2.3
 20
-0.099375
 30
0.0
 11
1.0
 21
0.0
 31
0.0
 44
0.9
  1
Port Headings
 40
0.145
 41
3.016
  0
MTEXT
  5
278
100
AcDbEntity
  8
0
100
AcDbMText
 62
2
  6
CONTINUOUS
  7
STANDARD
 71
2
 72
1
 10
0.65
 20
-0.44325
 30
0.0
 11
1.0
 21
0.0
 31
0.0
 44
0.9
  1
Product
 40
0.145
 41
1.624
  0
MTEXT
  5
279
100
AcDbEntity
  8
0
100
AcDbMText
 62
2
  6
CONTINUOUS
  7
STANDARD
 71
2
 72
1
 10
2.3
 20
-0.44325
 30
0.0
 11
1.0
 21
0.0
 31
0.0
 44
0.9
  1
Port
 40
0.145
 41
0.928
  0
MTEXT
  5
27A
100
AcDbEntity
  8
0
100
AcDbMText
 62
2
  6
CONTINUOUS
  7
STANDARD
 71
2
 72
1
 10
3.95
 20
-0.44325
 30
0.0
 11
1.0
 21
0.0
 31
0.0
 44
0.9
  1
Size
 40
0.145
 41
0.928
  0
MTEXT
  5
27B
100
AcDbEntity
  8
0
100
AcDbMText
 62
2
  6
CONTINUOUS
  7
STANDARD
 71
2
 72
1
 10
0.65
 20
-0.75025
 30
0.0
 11
1.0
 21
0.0
 31
0.0
 44
0.9
  1
CAL/S
 40
0.125
 41
1.0
  0
MTEXT
  5
27C
100
AcDbEntity
  8
0
100
AcDbMText
 62
2
  6
CONTINUOUS
  7
STANDARD
 71
2
 72
1
 10
2.3
 20
-0.75025
 30
0.0
 11
1.0
 21
0.0
 31
0.0
 44
0.9
  1
Ports 1 &  2
 40
0.125
 41
2.4
  0
MTEXT
  5
27D
100
AcDbEntity
  8
0
100
AcDbMText
 62
2
  6
CONTINUOUS
  7
STANDARD
 71
2
 72
1
 10
3.95
 20
-0.75025
 30
0.0
 11
1.0
 21
0.0
 31
0.0
 44
0.9
  1
SAE 12
 40
0.125
 41
1.2
  0
ENDBLK
  5
27E
100
AcDbEntity
  8
0
  6
BYBLOCK
 62
0
100
AcDbBlockEnd
  0
ENDSEC
  0
SECTION
  2
ENTITIES
  0
IMAGE
  5
27F
100
AcDbEntity
  8
0
100
AcDbRasterImage
 62
7
  6
CONTINUOUS
 10
19.2297077316
 20
0.3094318264
 30
0.0
 11
0.0066666667
 21
0.0
 31
0.0
 12
0.0
 22
0.0066666667
 32
0.0
 13
369.0
 23
92.0
340
       3D3
 70
9
280
0
281
50
282
50
283
0
360
       3CD
 71
1
 91
2
 14
-0.5
 24
-0.5
 14
368.5
 24
91.5
  0
INSERT
  5
280
100
AcDbEntity
  8
0
100
AcDbBlockReference
 62
2
  6
CONTINUOUS
  2
SUN_FIRST_THIRD_ANGLE_BL0
 10
20.4816717061
 20
1.2289683772
  0
ACAD_TABLE
  5
281
100
AcDbEntity
  8
0
 62
2
  6
CONTINUOUS
100
AcDbBlockReference
  2
*T1
 10
12.42375
 20
0.30125
 30
0.0
100
AcDbTable
342
       3D5
343
207
 11
1.0
 21
0.0
 31
0.0
 90
6
 91
4
 92
6
 93
20
 94
0
 95
0
 96
0
 70
1
 41
0.0
141
0.525
141
0.1
141
0.525
141
0.1
142
4.1
142
1.1
142
0.7
142
0.5
142
0.4
142
2.475
171
1
172
0
173
0
174
0
175
1
176
1
 91
33
178
0
145
0.0
301
CELL_VALUE
 90
4
  1
Relief manifold assembly
304
ACVALUE_END
170
2
140
0.125
171
1
172
0
173
0
174
0
175
1
176
1
 91
33
178
0
145
0.0
301
CELL_VALUE
 90
4
  1
Jan-16-24
304
ACVALUE_END
170
5
140
0.125
171
1
172
0
173
0
174
0
175
1
176
1
 91
33
178
0
145
0.0
301
CELL_VALUE
 90
4
  1
1.000
304
ACVALUE_END
170
5
140
0.125
171
1
172
0
173
0
174
0
175
1
176
1
 91
33
178
0
145
0.0
301
CELL_VALUE
 90
4
  1
C
304
ACVALUE_END
170
5
140
0.125
171
1
172
0
173
0
174
0
175
1
176
1
 91
33
178
0
145
0.0
301
CELL_VALUE
 90
4
  1
2
304
ACVALUE_END
170
5
140
0.125
171
1
172
0
173
0
174
0
175
1
176
1
 91
33
178
0
145
0.0
301
CELL_VALUE
 90
4
  1
 
304
ACVALUE_END
170
1
140
0.125
171
1
172
0
173
0
174
0
175
1
176
1
 91
33
178
0
145
0.0
301
CELL_VALUE
 90
4
  1
DESCRIPTION
304
ACVALUE_END
170
1
140
0.06
171
1
172
0
173
0
174
0
175
1
176
1
 91
33
178
0
145
0.0
301
CELL_VALUE
 90
4
  1
DATE
304
ACVALUE_END
170
1
140
0.06
171
1
172
0
173
0
174
0
175
1
176
1
 91
33
178
0
145
0.0
301
CELL_VALUE
 90
4
  1
SCALE
304
ACVALUE_END
170
1
140
0.06
171
1
172
0
173
0
174
0
175
1
176
1
 91
33
178
0
145
0.0
301
CELL_VALUE
 90
4
  1
DWG SIZE
304
ACVALUE_END
170
1
140
0.06
171
1
172
0
173
0
174
0
175
1
176
1
 91
33
178
0
145
0.0
301
CELL_VALUE
 90
4
  1
SHEET
304
ACVALUE_END
170
1
140
0.06
171
1
172
0
173
0
174
0
175
1
176
1
 91
33
178
0
145
0.0
301
CELL_VALUE
 90
4
  1
 
304
ACVALUE_END
170
1
140
0.125
171
1
172
0
173
0
174
0
175
1
176
1
 91
33
178
0
145
0.0
301
CELL_VALUE
 90
4
  1
RPGCLCN-CAL/S
304
ACVALUE_END
170
5
140
0.125
171
1
172
0
173
0
174
0
175
4
176
1
 91
33
178
0
145
0.0
301
CELL_VALUE
 90
4
  1
ALL DIMENSIONS IN INCH\PVIEWS ARE THIRD ANGLE
304
ACVALUE_END
170
5
140
0.12
171
1
172
0
173
1
174
0
175
1
176
1
 91
1
178
0
145
0.0
170
1
171
1
172
0
173
1
174
0
175
1
176
1
 91
1
178
0
145
0.0
170
1
171
1
172
0
173
1
174
0
175
1
176
1
 91
1
178
0
145
0.0
170
5
171
1
172
0
173
0
174
0
175
1
176
1
 91
33
178
0
145
0.0
301
CELL_VALUE
 90
4
  1
 
304
ACVALUE_END
170
1
140
0.125
171
1
172
0
173
0
174
0
175
1
176
1
 91
33
178
0
145
0.0
301
CELL_VALUE
 90
4
  1
MODEL
304
ACVALUE_END
170
1
140
0.06
171
1
172
0
173
0
174
0
175
1
176
1
 91
33
178
0
145
0.0
301
CELL_VALUE
 90
4
  1
 
304
ACVALUE_END
170
1
140
0.125
171
1
172
0
173
0
174
0
175
1
176
1
 91
33
178
0
145
0.0
301
CELL_VALUE
 90
4
  1
 
304
ACVALUE_END
170
1
140
0.125
171
1
172
0
173
0
174
0
175
1
176
1
 91
33
178
0
145
0.0
301
CELL_VALUE
 90
4
  1
 
304
ACVALUE_END
170
1
140
0.125
171
1
172
0
173
0
174
0
175
1
176
1
 91
33
178
0
145
0.0
301
CELL_VALUE
 90
4
  1
 
304
ACVALUE_END
170
1
140
0.125
171
1
172
0
173
0
174
0
175
1
176
1
 91
33
178
0
145
0.0
301
CELL_VALUE
 90
4
  1
 
304
ACVALUE_END
170
1
140
0.125
  0
ACAD_TABLE
  5
282
100
AcDbEntity
  8
0
 62
2
  6
CONTINUOUS
100
AcDbBlockReference
  2
*T2
 10
12.4237499994
 20
16.47875
 30
0.0
100
AcDbTable
342
       3D4
343
208
 11
1.0
 21
0.0
 31
0.0
 90
22
 91
10
 92
3
 93
16
 94
0
 95
0
 96
0
 41
0.028
141
0.344
141
0.25
141
0.25
141
0.25
141
0.25
141
0.25
141
0.25
141
0.25
141
0.25
141
0.25
142
3.055
142
3.0
142
3.0
171
1
172
0
173
0
174
0
175
1
176
1
 91
33
178
0
145
0.0
301
CELL_VALUE
 90
4
  1
Technical Data
304
ACVALUE_END
170
5
140
0.145
171
1
172
0
173
0
174
0
175
1
176
1
 91
33
178
0
145
0.0
301
CELL_VALUE
 90
4
  1
U.S. Units
304
ACVALUE_END
170
5
140
0.145
171
1
172
0
173
0
174
0
175
1
176
1
 91
33
178
0
145
0.0
301
CELL_VALUE
 90
4
  1
Metric Units
304
ACVALUE_END
170
5
140
0.145
171
1
172
0
173
0
174
0
175
1
176
1
 91
33
178
0
145
0.0
301
CELL_VALUE
 90
4
  1
Cavity
304
ACVALUE_END
170
5
140
0.125
171
1
172
0
173
0
174
0
175
2
176
1
 91
33
178
0
145
0.0
301
CELL_VALUE
 90
4
  1
T-3A
304
ACVALUE_END
170
5
140
0.125
171
1
172
0
173
1
174
0
175
1
176
1
 91
1
178
0
145
0.0
170
1
171
1
172
0
173
0
174
0
175
1
176
1
 91
33
178
0
145
0.0
301
CELL_VALUE
 90
4
  1
Body Features
304
ACVALUE_END
170
5
140
0.125
171
1
172
0
173
0
174
0
175
2
176
1
 91
33
178
0
145
0.0
301
CELL_VALUE
 90
4
  1
Ninety degree
304
ACVALUE_END
170
5
140
0.125
171
1
172
0
173
1
174
0
175
1
176
1
 91
1
178
0
145
0.0
170
1
171
1
172
0
173
0
174
0
175
1
176
1
 91
33
178
0
145
0.0
301
CELL_VALUE
 90
4
  1
Body Type
304
ACVALUE_END
170
5
140
0.125
171
1
172
0
173
0
174
0
175
2
176
1
 91
33
178
0
145
0.0
301
CELL_VALUE
 90
4
  1
Line mount
304
ACVALUE_END
170
5
140
0.125
171
1
172
0
173
1
174
0
175
1
176
1
 91
1
178
0
145
0.0
170
1
171
1
172
0
173
0
174
0
175
1
176
1
 91
33
178
0
145
0.0
301
CELL_VALUE
 90
4
  1
Interface
304
ACVALUE_END
170
5
140
0.125
171
1
172
0
173
0
174
0
175
2
176
1
 91
33
178
0
145
0.0
301
CELL_VALUE
 90
4
  1
None
304
ACVALUE_END
170
5
140
0.125
171
1
172
0
173
1
174
0
175
1
176
1
 91
1
178
0
145
0.0
170
1
171
1
172
0
173
0
174
0
175
1
176
1
 91
33
178
0
145
0.0
301
CELL_VALUE
 90
4
  1
Open Cavity Quantity
304
ACVALUE_END
170
5
140
0.125
171
1
172
0
173
0
174
0
175
2
176
1
 91
33
178
0
145
0.0
301
CELL_VALUE
 90
4
  1
1
304
ACVALUE_END
170
5
140
0.125
171
1
172
0
173
1
174
0
175
1
176
1
 91
1
178
0
145
0.0
170
1
171
1
172
0
173
0
174
0
175
1
176
1
 91
33
178
0
145
0.0
301
CELL_VALUE
 90
4
  1
Weight
304
ACVALUE_END
170
5
140
0.125
171
1
172
0
173
0
174
0
175
1
176
1
 91
33
178
0
145
0.0
301
CELL_VALUE
 90
4
  1
2.080 lb.
304
ACVALUE_END
170
5
140
0.125
171
1
172
0
173
0
174
0
175
1
176
1
 91
33
178
0
145
0.0
301
CELL_VALUE
 90
4
  1
0,943 kg.
304
ACVALUE_END
170
5
140
0.125
171
1
172
0
173
0
174
0
175
1
176
1
 91
33
178
0
145
0.0
301
CELL_VALUE
 90
4
  1
Mounting Hole Diameter
304
ACVALUE_END
170
5
140
0.125
171
1
172
0
173
0
174
0
175
1
176
1
 91
33
178
0
145
0.0
301
CELL_VALUE
 90
4
  1
.42 in.
304
ACVALUE_END
170
5
140
0.125
171
1
172
0
173
0
174
0
175
1
176
1
 91
33
178
0
145
0.0
301
CELL_VALUE
 90
4
  1
10,7 mm
304
ACVALUE_END
170
5
140
0.125
171
1
172
0
173
0
174
0
175
1
176
1
 91
33
178
0
145
0.0
301
CELL_VALUE
 90
4
  1
Mounting Hole Depth
304
ACVALUE_END
170
5
140
0.125
171
1
172
0
173
0
174
0
175
2
176
1
 91
33
178
0
145
0.0
301
CELL_VALUE
 90
4
  1
Through
304
ACVALUE_END
170
5
140
0.125
171
1
172
0
173
1
174
0
175
1
176
1
 91
1
178
0
145
0.0
170
1
171
1
172
0
173
0
174
0
175
1
176
1
 91
33
178
0
145
0.0
301
CELL_VALUE
 90
4
  1
Mounting Hole Quantity
304
ACVALUE_END
170
5
140
0.125
171
1
172
0
173
0
174
0
175
2
176
1
 91
33
178
0
145
0.0
301
CELL_VALUE
 90
4
  1
1
304
ACVALUE_END
170
5
140
0.125
171
1
172
0
173
1
174
0
175
1
176
1
 91
1
178
0
145
0.0
170
1
  0
ACAD_TABLE
  5
283
100
AcDbEntity
  8
0
 62
2
  6
CONTINUOUS
100
AcDbBlockReference
  2
*T3
 10
0.52125
 20
1.459
 30
0.0
100
AcDbTable
342
       3D4
343
209
 11
1.0
 21
0.0
 31
0.0
 90
22
 91
3
 92
3
 93
16
 94
0
 95
0
 96
0
 41
0.05
141
0.34375
141
0.344
141
0.25
142
1.3
142
2.0
142
1.3
171
1
172
0
173
0
174
0
175
3
176
1
 91
33
178
0
145
0.0
301
CELL_VALUE
 90
4
  1
Port Headings
304
ACVALUE_END
170
5
140
0.145
171
1
172
0
173
1
174
0
175
1
176
1
 91
1
178
0
145
0.0
170
1
171
1
172
0
173
1
174
0
175
1
176
1
 91
1
178
0
145
0.0
170
1
171
1
172
0
173
0
174
0
175
1
176
1
 91
33
178
0
145
0.0
301
CELL_VALUE
 90
4
  1
Product
304
ACVALUE_END
170
5
140
0.145
171
1
172
0
173
0
174
0
175
1
176
1
 91
33
178
0
145
0.0
301
CELL_VALUE
 90
4
  1
Port
304
ACVALUE_END
170
5
140
0.145
171
1
172
0
173
0
174
0
175
1
176
1
 91
33
178
0
145
0.0
301
CELL_VALUE
 90
4
  1
Size
304
ACVALUE_END
170
5
140
0.145
171
1
172
0
173
0
174
0
175
1
176
1
 91
33
178
0
145
0.0
301
CELL_VALUE
 90
4
  1
CAL/S
304
ACVALUE_END
170
5
140
0.125
171
1
172
0
173
0
174
0
175
1
176
1
 91
33
178
0
145
0.0
301
CELL_VALUE
 90
4
  1
Ports 1 &  2
304
ACVALUE_END
170
5
140
0.125
171
1
172
0
173
0
174
0
175
1
176
1
 91
33
178
0
145
0.0
301
CELL_VALUE
 90
4
  1
SAE 12
304
ACVALUE_END
170
5
140
0.125
  0
MTEXT
  5
284
100
AcDbEntity
  8
0
100
AcDbMText
 62
2
  6
CONTINUOUS
  7
STANDARD
 71
1
 72
1
 10
0.52125
 20
5.75995
 30
0.0
 11
1.0
 21
0.0
 31
0.0
 44
0.6
  3
Notes\P \P1. Important: Carefully consider\P   the maximum system pressure. The\P   pressure rating of the manifold is\P   dependent on the manifold material,\P   with the port type/size a secondary\P   consideration. Manifolds\P   constructed of alu
  3
minum are not\P   rated for pressures higher than\P   3000 psi (210 bar), regardless of\P   the port type/size specified.\P2. This drawing is for reference\P   only. It is generated by an\P   automated process and does not fall\P   under Sun's docume
  1
nt control\P   process.
 40
0.1
 41
3.04
  0
LINE
  5
285
100
AcDbEntity
  8
0
100
AcDbLine
 62
7
  6
CONTINUOUS
 10
0.30125
 20
0.30125
 11
0.30125
 21
16.69875
  0
LINE
  5
286
100
AcDbEntity
  8
0
100
AcDbLine
 62
7
  6
CONTINUOUS
 10
0.30125
 20
0.30125
 11
21.69875
 21
0.30125
  0
LINE
  5
287
100
AcDbEntity
  8
0
100
AcDbLine
 62
7
  6
CONTINUOUS
 10
0.30125
 20
16.69875
 11
21.69875
 21
16.69875
  0
LINE
  5
288
100
AcDbEntity
  8
0
100
AcDbLine
 62
7
  6
CONTINUOUS
 10
21.69875
 20
0.30125
 11
21.69875
 21
16.69875
  0
LINE
  5
289
100
AcDbEntity
  8
0
100
AcDbLine
 62
7
  6
CONTINUOUS
 10
9.8399599928
 20
6.0511034279
 11
10.7596105852
 21
5.9873254427
  0
LINE
  5
28A
100
AcDbEntity
  8
0
100
AcDbLine
 62
7
  6
CONTINUOUS
 10
11.3351241093
 20
5.9474134442
 11
11.7718117599
 21
5.9171290528
  0
LINE
  5
28B
100
AcDbEntity
  8
0
100
AcDbLine
 62
7
  6
CONTINUOUS
 10
11.3351241093
 20
5.9783230732
 11
10.7596105852
 21
6.0182350717
  0
LINE
  5
28C
100
AcDbEntity
  8
0
100
AcDbLine
 62
7
  6
CONTINUOUS
 10
11.124019925
 20
11.0538860301
 11
11.0941534985
 21
11.026092185
  0
LINE
  5
28D
100
AcDbEntity
  8
0
100
AcDbLine
 62
7
  6
CONTINUOUS
 10
10.7925985365
 20
10.233522918
 11
10.7913600267
 21
10.2323488541
  0
LINE
  5
28E
100
AcDbEntity
  8
0
100
AcDbLine
 62
7
  6
CONTINUOUS
 10
10.8523327153
 20
10.2891118203
 11
10.8512474314
 21
10.2880830532
  0
LINE
  5
28F
100
AcDbEntity
  8
0
100
AcDbLine
 62
7
  6
CONTINUOUS
 10
11.0006305201
 20
10.4783125893
 11
11.0048090371
 21
10.482201138
  0
LINE
  5
290
100
AcDbEntity
  8
0
100
AcDbLine
 62
7
  6
CONTINUOUS
 10
10.7925989351
 20
10.2335232889
 11
10.852331788
 21
10.2891109791
  0
LINE
  5
291
100
AcDbEntity
  8
0
100
AcDbLine
 62
7
  6
CONTINUOUS
 10
11.5114721618
 20
10.2563353154
 11
11.5266485644
 21
10.2638321677
  0
LINE
  5
292
100
AcDbEntity
  8
0
100
AcDbLine
 62
7
  6
CONTINUOUS
 10
10.7492897472
 20
9.8275668237
 11
10.7744251908
 21
9.8399832516
  0
LINE
  5
293
100
AcDbEntity
  8
0
100
AcDbLine
 62
7
  6
CONTINUOUS
 10
9.8399599928
 20
6.0511034279
 11
9.8399599928
 21
7.6353109931
  0
LINE
  5
294
100
AcDbEntity
  8
0
100
AcDbLine
 62
7
  6
CONTINUOUS
 10
9.8399599928
 20
8.2108245172
 11
9.8399599928
 21
8.9488810785
  0
LINE
  5
295
100
AcDbEntity
  8
0
100
AcDbLine
 62
7
  6
CONTINUOUS
 10
9.8708696219
 20
8.2086809271
 11
9.8708696219
 21
7.6331674031
  0
LINE
  5
296
100
AcDbEntity
  8
0
100
AcDbLine
 62
7
  6
CONTINUOUS
 10
10.2281882401
 20
9.3238807912
 11
9.8399599928
 21
8.9488810785
  0
LINE
  5
297
100
AcDbEntity
  8
0
100
AcDbLine
 62
4
  6
CONTINUOUS
 10
10.3243028315
 20
7.5914213709
 11
10.3684594442
 21
7.5662807931
  0
LINE
  5
298
100
AcDbEntity
  8
0
100
AcDbLine
 62
4
  6
CONTINUOUS
 10
10.01865628
 20
8.0091996515
 11
10.01865628
 21
7.9898811388
  0
LINE
  5
299
100
AcDbEntity
  8
0
100
AcDbLine
 62
7
  6
CONTINUOUS
 10
11.5272166815
 20
10.4709044623
 11
11.5325155636
 21
10.4758356284
  0
LINE
  5
29A
100
AcDbEntity
  8
0
100
AcDbLine
 62
4
  6
CONTINUOUS
 10
11.0970435199
 20
7.4881554334
 11
11.0556466884
 21
7.4910263134
  0
LINE
  5
29B
100
AcDbEntity
  8
0
100
AcDbLine
 62
4
  6
CONTINUOUS
 10
11.0059705238
 20
7.4944713671
 11
10.9811324139
 21
7.4961938959
  0
LINE
  5
29C
100
AcDbEntity
  8
0
100
AcDbLine
 62
4
  6
CONTINUOUS
 10
10.9176573055
 20
7.5005959096
 11
10.8845398624
 21
7.5028926121
  0
LINE
  5
29D
100
AcDbEntity
  8
0
100
AcDbLine
 62
4
  6
CONTINUOUS
 10
10.4319345699
 20
7.5342808957
 11
10.3905377522
 21
7.5371517748
  0
LINE
  5
29E
100
AcDbEntity
  8
0
100
AcDbLine
 62
4
  6
CONTINUOUS
 10
10.6941144542
 20
7.516098659
 11
10.7437906464
 21
7.5126536034
  0
LINE
  5
29F
100
AcDbEntity
  8
0
100
AcDbLine
 62
4
  6
CONTINUOUS
 10
11.1605186836
 20
7.4837534158
 11
11.2101948482
 21
7.4803083621
  0
LINE
  5
2A0
100
AcDbEntity
  8
0
100
AcDbLine
 62
4
  6
CONTINUOUS
 10
10.5064488513
 20
7.5622307731
 11
10.5506054605
 21
7.5591685019
  0
LINE
  5
2A1
100
AcDbEntity
  8
0
100
AcDbLine
 62
7
  6
CONTINUOUS
 10
9.8399599928
 20
7.6353109931
 11
9.8708696219
 21
7.6331674031
  0
LINE
  5
2A2
100
AcDbEntity
  8
0
100
AcDbLine
 62
4
  6
CONTINUOUS
 10
11.1936361267
 20
7.547691634
 11
11.1605186836
 21
7.5499883365
  0
LINE
  5
2A3
100
AcDbEntity
  8
0
100
AcDbLine
 62
4
  6
CONTINUOUS
 10
10.7272319249
 20
7.5800368753
 11
10.6941144542
 21
7.5823335797
  0
LINE
  5
2A4
100
AcDbEntity
  8
0
100
AcDbLine
 62
4
  6
CONTINUOUS
 10
9.9969229481
 20
8.0300253827
 11
10.011411836
 21
8.0193613186
  0
LINE
  5
2A5
100
AcDbEntity
  8
0
100
AcDbLine
 62
4
  6
CONTINUOUS
 10
10.4319345699
 20
7.6501920018
 11
10.4484932983
 21
7.6324849216
  0
LINE
  5
2A6
100
AcDbEntity
  8
0
100
AcDbLine
 62
4
  6
CONTINUOUS
 10
10.011411836
 20
8.0193613186
 11
10.01865628
 21
8.0091996515
  0
LINE
  5
2A7
100
AcDbEntity
  8
0
100
AcDbLine
 62
4
  6
CONTINUOUS
 10
10.2562740486
 20
8.253520741
 11
10.2562740486
 21
8.195565188
  0
LINE
  5
2A8
100
AcDbEntity
  8
0
100
AcDbLine
 62
4
  6
CONTINUOUS
 10
9.9679451723
 20
7.9451016707
 11
9.9607007283
 21
7.9166262987
  0
LINE
  5
2A9
100
AcDbEntity
  8
0
100
AcDbLine
 62
4
  6
CONTINUOUS
 10
10.3905377522
 20
7.6530628808
 11
10.4319345699
 21
7.6501920018
  0
LINE
  5
2AA
100
AcDbEntity
  8
0
100
AcDbLine
 62
4
  6
CONTINUOUS
 10
10.5947620697
 20
7.6388998763
 11
10.6609969835
 21
7.6343064694
  0
LINE
  5
2AB
100
AcDbEntity
  8
0
100
AcDbLine
 62
4
  6
CONTINUOUS
 10
10.6941144542
 20
7.632009765
 11
10.7437906464
 21
7.6285647094
  0
LINE
  5
2AC
100
AcDbEntity
  8
0
100
AcDbLine
 62
4
  6
CONTINUOUS
 10
10.8845398624
 20
7.6188037181
 11
10.9176573055
 21
7.6165070156
  0
LINE
  5
2AD
100
AcDbEntity
  8
0
100
AcDbLine
 62
4
  6
CONTINUOUS
 10
10.9811324139
 20
7.6121050019
 11
11.0059705238
 21
7.6103824731
  0
LINE
  5
2AE
100
AcDbEntity
  8
0
100
AcDbLine
 62
4
  6
CONTINUOUS
 10
11.0556466884
 20
7.6069374194
 11
11.0970435199
 21
7.6040665394
  0
LINE
  5
2AF
100
AcDbEntity
  8
0
100
AcDbLine
 62
4
  6
CONTINUOUS
 10
11.1605186836
 20
7.5996645219
 11
11.2101948482
 21
7.5962194681
  0
LINE
  5
2B0
100
AcDbEntity
  8
0
100
AcDbLine
 62
4
  6
CONTINUOUS
 10
10.6471980483
 20
7.7743567561
 11
10.6140805897
 21
7.7766534596
  0
LINE
  5
2B1
100
AcDbEntity
  8
0
100
AcDbLine
 62
4
  6
CONTINUOUS
 10
10.7934668231
 20
7.7642129821
 11
10.8348636546
 21
7.761342102
  0
LINE
  5
2B2
100
AcDbEntity
  8
0
100
AcDbLine
 62
4
  6
CONTINUOUS
 10
10.9645737045
 20
7.7523466795
 11
10.9976911475
 21
7.7500499771
  0
LINE
  5
2B3
100
AcDbEntity
  8
0
100
AcDbLine
 62
4
  6
CONTINUOUS
 10
10.6140805897
 20
7.7766534596
 11
10.5975218595
 21
7.7943605416
  0
LINE
  5
2B4
100
AcDbEntity
  8
0
100
AcDbLine
 62
4
  6
CONTINUOUS
 10
10.8845398624
 20
7.5028926121
 11
10.8679811409
 21
7.5205996935
  0
LINE
  5
2B5
100
AcDbEntity
  8
0
100
AcDbLine
 62
4
  6
CONTINUOUS
 10
10.3142296017
 20
8.1915459567
 11
10.3142296017
 21
8.1335904037
  0
LINE
  5
2B6
100
AcDbEntity
  8
0
100
AcDbLine
 62
4
  6
CONTINUOUS
 10
10.3432073782
 20
8.1315807881
 11
10.3432073782
 21
8.2474918941
  0
LINE
  5
2B7
100
AcDbEntity
  8
0
100
AcDbLine
 62
4
  6
CONTINUOUS
 10
10.3905377522
 20
7.5371517748
 11
10.3905377522
 21
7.6530628808
  0
LINE
  5
2B8
100
AcDbEntity
  8
0
100
AcDbLine
 62
4
  6
CONTINUOUS
 10
10.4011629312
 20
8.2434726629
 11
10.4011629312
 21
8.1275615568
  0
LINE
  5
2B9
100
AcDbEntity
  8
0
100
AcDbLine
 62
4
  6
CONTINUOUS
 10
10.4301407077
 20
8.2414630472
 11
10.4301407077
 21
8.1255519412
  0
LINE
  5
2BA
100
AcDbEntity
  8
0
100
AcDbLine
 62
4
  6
CONTINUOUS
 10
10.4484932983
 20
7.6324849216
 11
10.4484932983
 21
7.5496912742
  0
LINE
  5
2BB
100
AcDbEntity
  8
0
100
AcDbLine
 62
4
  6
CONTINUOUS
 10
10.7051535978
 20
7.8034549854
 11
10.7493102139
 21
7.8003927137
  0
LINE
  5
2BC
100
AcDbEntity
  8
0
100
AcDbLine
 62
4
  6
CONTINUOUS
 10
9.9607007283
 20
7.9166262987
 11
10.01865628
 21
7.9126070676
  0
LINE
  5
2BD
100
AcDbEntity
  8
0
100
AcDbLine
 62
4
  6
CONTINUOUS
 10
10.6140805897
 20
7.8925645656
 11
10.6471980483
 21
7.8902678621
  0
LINE
  5
2BE
100
AcDbEntity
  8
0
100
AcDbLine
 62
4
  6
CONTINUOUS
 10
10.9728530652
 20
7.8676836099
 11
11.0059705083
 21
7.8653869075
  0
LINE
  5
2BF
100
AcDbEntity
  8
0
100
AcDbLine
 62
4
  6
CONTINUOUS
 10
11.2433122913
 20
7.5497661565
 11
11.2874689005
 21
7.5246255772
  0
LINE
  5
2C0
100
AcDbEntity
  8
0
100
AcDbLine
 62
4
  6
CONTINUOUS
 10
10.9811324139
 20
7.4961938959
 11
10.9645736924
 21
7.5139009773
  0
LINE
  5
2C1
100
AcDbEntity
  8
0
100
AcDbLine
 62
4
  6
CONTINUOUS
 10
11.0059705238
 20
7.6103824731
 11
11.0225292454
 21
7.5926753935
  0
LINE
  5
2C2
100
AcDbEntity
  8
0
100
AcDbLine
 62
4
  6
CONTINUOUS
 10
11.0970435199
 20
7.6040665394
 11
11.1136022415
 21
7.5863594597
  0
LINE
  5
2C3
100
AcDbEntity
  8
0
100
AcDbLine
 62
4
  6
CONTINUOUS
 10
10.5285271559
 20
7.6434932832
 11
10.5616446266
 21
7.5252854727
  0
LINE
  5
2C4
100
AcDbEntity
  8
0
100
AcDbLine
 62
4
  6
CONTINUOUS
 10
10.4880962607
 20
8.237443816
 11
10.4880962607
 21
8.12153271
  0
LINE
  5
2C5
100
AcDbEntity
  8
0
100
AcDbLine
 62
4
  6
CONTINUOUS
 10
10.5975218595
 20
7.7943605416
 11
10.5975218595
 21
7.877154189
  0
LINE
  5
2C6
100
AcDbEntity
  8
0
100
AcDbLine
 62
4
  6
CONTINUOUS
 10
10.6040073667
 20
8.1134942475
 11
10.6040073667
 21
8.2294053535
  0
LINE
  5
2C7
100
AcDbEntity
  8
0
100
AcDbLine
 62
4
  6
CONTINUOUS
 10
10.6278795404
 20
7.5206920659
 11
10.6278795404
 21
7.6366031719
  0
LINE
  5
2C8
100
AcDbEntity
  8
0
100
AcDbLine
 62
4
  6
CONTINUOUS
 10
9.9607007283
 20
8.0132188826
 11
9.9679451723
 21
8.022375742
  0
LINE
  5
2C9
100
AcDbEntity
  8
0
100
AcDbLine
 62
4
  6
CONTINUOUS
 10
9.9824340602
 20
7.963415379
 11
9.9679451723
 21
7.9451016707
  0
LINE
  5
2CA
100
AcDbEntity
  8
0
100
AcDbLine
 62
4
  6
CONTINUOUS
 10
10.01865628
 20
7.9898811388
 11
10.011411836
 21
7.9807242795
  0
LINE
  5
2CB
100
AcDbEntity
  8
0
100
AcDbLine
 62
4
  6
CONTINUOUS
 10
9.9824340602
 20
8.0310301905
 11
9.9969229481
 21
8.0300253827
  0
LINE
  5
2CC
100
AcDbEntity
  8
0
100
AcDbLine
 62
4
  6
CONTINUOUS
 10
10.767248841
 20
8.0442178598
 11
10.7286118057
 21
8.0468973473
  0
LINE
  5
2CD
100
AcDbEntity
  8
0
100
AcDbLine
 62
4
  6
CONTINUOUS
 10
11.4240784418
 20
8.0566221252
 11
11.3661228888
 21
8.0606413565
  0
LINE
  5
2CE
100
AcDbEntity
  8
0
100
AcDbLine
 62
4
  6
CONTINUOUS
 10
11.0570266061
 20
8.0820772565
 11
10.9990710531
 21
8.0860964878
  0
LINE
  5
2CF
100
AcDbEntity
  8
0
100
AcDbLine
 62
4
  6
CONTINUOUS
 10
10.8638414294
 20
8.095474694
 11
10.8058858764
 21
8.0994939253
  0
LINE
  5
2D0
100
AcDbEntity
  8
0
100
AcDbLine
 62
4
  6
CONTINUOUS
 10
10.767248841
 20
8.1021734128
 11
10.709293288
 21
8.106192644
  0
LINE
  5
2D1
100
AcDbEntity
  8
0
100
AcDbLine
 62
4
  6
CONTINUOUS
 10
10.4011629312
 20
8.1275615568
 11
10.3432073782
 21
8.1315807881
  0
LINE
  5
2D2
100
AcDbEntity
  8
0
100
AcDbLine
 62
4
  6
CONTINUOUS
 10
10.3142296017
 20
8.1335904037
 11
10.2562740486
 21
8.137609635
  0
LINE
  5
2D3
100
AcDbEntity
  8
0
100
AcDbLine
 62
4
  6
CONTINUOUS
 10
11.0956636414
 20
8.079397769
 11
11.1536191944
 21
8.0753785377
  0
LINE
  5
2D4
100
AcDbEntity
  8
0
100
AcDbLine
 62
4
  6
CONTINUOUS
 10
11.2695303005
 20
8.0673400752
 11
11.3274858535
 21
8.063320844
  0
LINE
  5
2D5
100
AcDbEntity
  8
0
100
AcDbLine
 62
4
  6
CONTINUOUS
 10
11.3661228888
 20
8.089619133
 11
11.4240784418
 21
8.0855999017
  0
LINE
  5
2D6
100
AcDbEntity
  8
0
100
AcDbLine
 62
4
  6
CONTINUOUS
 10
10.9990710531
 20
8.1247335231
 11
11.0570266061
 21
8.1207142918
  0
LINE
  5
2D7
100
AcDbEntity
  8
0
100
AcDbLine
 62
7
  6
CONTINUOUS
 10
9.8399599928
 20
8.2108245172
 11
9.8708696219
 21
8.2086809271
  0
LINE
  5
2D8
100
AcDbEntity
  8
0
100
AcDbLine
 62
4
  6
CONTINUOUS
 10
11.0570266061
 20
8.1400328095
 11
11.0183895707
 21
8.142712297
  0
LINE
  5
2D9
100
AcDbEntity
  8
0
100
AcDbLine
 62
4
  6
CONTINUOUS
 10
10.6619629197
 20
8.1674305692
 11
10.6040073667
 21
8.1714498005
  0
LINE
  5
2DA
100
AcDbEntity
  8
0
100
AcDbLine
 62
4
  6
CONTINUOUS
 10
10.2562740486
 20
8.195565188
 11
10.3142296017
 21
8.1915459567
  0
LINE
  5
2DB
100
AcDbEntity
  8
0
100
AcDbLine
 62
4
  6
CONTINUOUS
 10
10.8058858764
 20
8.1574494783
 11
10.8638414294
 21
8.153430247
  0
LINE
  5
2DC
100
AcDbEntity
  8
0
100
AcDbLine
 62
4
  6
CONTINUOUS
 10
10.9024784647
 20
8.1507507595
 11
10.9604340177
 21
8.1467315283
  0
LINE
  5
2DD
100
AcDbEntity
  8
0
100
AcDbLine
 62
4
  6
CONTINUOUS
 10
11.2695303005
 20
8.1252956283
 11
11.3274858535
 21
8.121276397
  0
LINE
  5
2DE
100
AcDbEntity
  8
0
100
AcDbLine
 62
4
  6
CONTINUOUS
 10
11.3661228888
 20
8.1185969095
 11
11.4240784418
 21
8.1145776782
  0
LINE
  5
2DF
100
AcDbEntity
  8
0
100
AcDbLine
 62
4
  6
CONTINUOUS
 10
11.0142498967
 20
7.7820190843
 11
10.9562943437
 21
7.8357145043
  0
LINE
  5
2E0
100
AcDbEntity
  8
0
100
AcDbLine
 62
4
  6
CONTINUOUS
 10
10.9562943437
 20
7.7612002202
 11
10.9645737045
 21
7.7523466795
  0
LINE
  5
2E1
100
AcDbEntity
  8
0
100
AcDbLine
 62
4
  6
CONTINUOUS
 10
11.0059705083
 20
7.8653869075
 11
11.0142498967
 21
7.8565333623
  0
LINE
  5
2E2
100
AcDbEntity
  8
0
100
AcDbLine
 62
4
  6
CONTINUOUS
 10
10.7272319093
 20
7.884717495
 11
10.7603493662
 21
7.7665096855
  0
LINE
  5
2E3
100
AcDbEntity
  8
0
100
AcDbLine
 62
7
  6
CONTINUOUS
 10
10.6523979139
 20
9.2612648945
 11
10.6523979139
 21
9.7673749971
  0
LINE
  5
2E4
100
AcDbEntity
  8
0
100
AcDbLine
 62
4
  6
CONTINUOUS
 10
10.6619629197
 20
8.1094750162
 11
10.6619629197
 21
8.1674305692
  0
LINE
  5
2E5
100
AcDbEntity
  8
0
100
AcDbLine
 62
4
  6
CONTINUOUS
 10
10.6941144542
 20
7.516098659
 11
10.6941144542
 21
7.632009765
  0
LINE
  5
2E6
100
AcDbEntity
  8
0
100
AcDbLine
 62
4
  6
CONTINUOUS
 10
10.709293288
 20
8.106192644
 11
10.709293288
 21
8.164148197
  0
LINE
  5
2E7
100
AcDbEntity
  8
0
100
AcDbLine
 62
7
  6
CONTINUOUS
 10
10.7334251908
 20
9.039049996
 11
10.7334251908
 21
9.1433908959
  0
LINE
  5
2E8
100
AcDbEntity
  8
0
100
AcDbLine
 62
7
  6
CONTINUOUS
 10
10.7596105852
 20
5.9873254427
 11
10.7596105852
 21
6.0182350717
  0
LINE
  5
2E9
100
AcDbEntity
  8
0
100
AcDbLine
 62
4
  6
CONTINUOUS
 10
10.767248841
 20
8.1601289658
 11
10.767248841
 21
8.0442178598
  0
LINE
  5
2EA
100
AcDbEntity
  8
0
100
AcDbLine
 62
7
  6
CONTINUOUS
 10
10.7744251908
 20
9.7759806849
 11
10.7744251908
 21
10.1990562219
  0
LINE
  5
2EB
100
AcDbEntity
  8
0
100
AcDbLine
 62
4
  6
CONTINUOUS
 10
10.7934668231
 20
7.8801240881
 11
10.7934668231
 21
7.7642129821
  0
LINE
  5
2EC
100
AcDbEntity
  8
0
100
AcDbLine
 62
7
  6
CONTINUOUS
 10
10.8038178534
 20
9.1150047144
 11
10.8038178534
 21
9.621114817
  0
LINE
  5
2ED
100
AcDbEntity
  8
0
100
AcDbLine
 62
4
  6
CONTINUOUS
 10
10.8058858764
 20
8.0994939253
 11
10.8058858764
 21
8.1574494783
  0
LINE
  5
2EE
100
AcDbEntity
  8
0
100
AcDbLine
 62
4
  6
CONTINUOUS
 10
10.495409699
 20
7.5298788806
 11
10.5285271559
 21
7.6434932832
  0
LINE
  5
2EF
100
AcDbEntity
  8
0
100
AcDbLine
 62
7
  6
CONTINUOUS
 10
11.7479760041
 20
9.107653453
 11
11.7935606343
 21
9.1301713875
  0
LINE
  5
2F0
100
AcDbEntity
  8
0
100
AcDbLine
 62
4
  6
CONTINUOUS
 10
11.223648821
 20
8.1574552962
 11
11.2381377092
 21
8.1564504884
  0
LINE
  5
2F1
100
AcDbEntity
  8
0
100
AcDbLine
 62
4
  6
CONTINUOUS
 10
10.3142296017
 20
8.2495015097
 11
10.2562740486
 21
8.253520741
  0
LINE
  5
2F2
100
AcDbEntity
  8
0
100
AcDbLine
 62
4
  6
CONTINUOUS
 10
10.4301407077
 20
8.2414630472
 11
10.4880962607
 21
8.237443816
  0
LINE
  5
2F3
100
AcDbEntity
  8
0
100
AcDbLine
 62
4
  6
CONTINUOUS
 10
10.8421080966
 20
8.7344930047
 11
10.8421080966
 21
8.6185819013
  0
LINE
  5
2F4
100
AcDbEntity
  8
0
100
AcDbLine
 62
7
  6
CONTINUOUS
 10
10.8432906313
 20
9.1047884206
 11
10.8432906313
 21
9.6108985233
  0
LINE
  5
2F5
100
AcDbEntity
  8
0
100
AcDbLine
 62
4
  6
CONTINUOUS
 10
10.8638414294
 20
8.2113858
 11
10.8638414294
 21
8.095474694
  0
LINE
  5
2F6
100
AcDbEntity
  8
0
100
AcDbLine
 62
4
  6
CONTINUOUS
 10
10.8679811409
 20
7.5205996935
 11
10.8679811409
 21
7.6033933409
  0
LINE
  5
2F7
100
AcDbEntity
  8
0
100
AcDbLine
 62
4
  6
CONTINUOUS
 10
10.9024784647
 20
8.1507507595
 11
10.9024784647
 21
8.0927952065
  0
LINE
  5
2F8
100
AcDbEntity
  8
0
100
AcDbLine
 62
4
  6
CONTINUOUS
 10
10.9562943437
 20
7.8357145043
 11
10.9562943437
 21
7.8522732327
  0
LINE
  5
2F9
100
AcDbEntity
  8
0
100
AcDbLine
 62
7
  6
CONTINUOUS
 10
10.9580104342
 20
10.2969713978
 11
10.9580104342
 21
10.3951652385
  0
LINE
  5
2FA
100
AcDbEntity
  8
0
100
AcDbLine
 62
4
  6
CONTINUOUS
 10
10.9645736924
 20
7.5139009773
 11
10.9645736924
 21
7.5966946247
  0
LINE
  5
2FB
100
AcDbEntity
  8
0
100
AcDbLine
 62
4
  6
CONTINUOUS
 10
10.9990710531
 20
8.0860964878
 11
10.9990710531
 21
8.1247335231
  0
LINE
  5
2FC
100
AcDbEntity
  8
0
100
AcDbLine
 62
7
  6
CONTINUOUS
 10
11.0004251908
 20
10.2589436267
 11
11.0004251908
 21
10.2718550558
  0
LINE
  5
2FD
100
AcDbEntity
  8
0
100
AcDbLine
 62
7
  6
CONTINUOUS
 10
11.0004251908
 20
10.4946295422
 11
11.0004251908
 21
10.5004250975
  0
LINE
  5
2FE
100
AcDbEntity
  8
0
100
AcDbLine
 62
7
  6
CONTINUOUS
 10
11.0059251908
 20
10.4738621357
 11
11.0059251908
 21
10.4807926838
  0
LINE
  5
2FF
100
AcDbEntity
  8
0
100
AcDbLine
 62
4
  6
CONTINUOUS
 10
11.0142498967
 20
7.7654603541
 11
11.0142498967
 21
7.7820190843
  0
LINE
  5
300
100
AcDbEntity
  8
0
100
AcDbLine
 62
4
  6
CONTINUOUS
 10
11.0225292454
 20
7.5926753935
 11
11.0225292454
 21
7.509881746
  0
LINE
  5
301
100
AcDbEntity
  8
0
100
AcDbLine
 62
4
  6
CONTINUOUS
 10
10.6941144456
 20
7.7711030928
 11
10.7272319093
 21
7.884717495
  0
LINE
  5
302
100
AcDbEntity
  8
0
100
AcDbLine
 62
4
  6
CONTINUOUS
 10
11.1029080794
 20
8.6874286886
 11
11.0956636354
 21
8.6782718362
  0
LINE
  5
303
100
AcDbEntity
  8
0
100
AcDbLine
 62
4
  6
CONTINUOUS
 10
11.1101525233
 20
8.628970733
 11
11.0956636354
 21
8.6106570238
  0
LINE
  5
304
100
AcDbEntity
  8
0
100
AcDbLine
 62
4
  6
CONTINUOUS
 10
11.0521969716
 20
8.7102640354
 11
11.0666858595
 21
8.718918484
  0
LINE
  5
305
100
AcDbEntity
  8
0
100
AcDbLine
 62
4
  6
CONTINUOUS
 10
9.9679451723
 20
8.022375742
 11
9.9824340602
 21
8.0310301905
  0
LINE
  5
306
100
AcDbEntity
  8
0
100
AcDbLine
 62
4
  6
CONTINUOUS
 10
11.0956636354
 20
8.6782718362
 11
11.0811747475
 21
8.6696173808
  0
LINE
  5
307
100
AcDbEntity
  8
0
100
AcDbLine
 62
4
  6
CONTINUOUS
 10
10.011411836
 20
7.9807242795
 11
9.9824340602
 21
7.963415379
  0
LINE
  5
308
100
AcDbEntity
  8
0
100
AcDbLine
 62
4
  6
CONTINUOUS
 10
11.0956636354
 20
8.6106570238
 11
11.0811747475
 21
8.6020025727
  0
LINE
  5
309
100
AcDbEntity
  8
0
100
AcDbLine
 62
4
  6
CONTINUOUS
 10
11.0556466884
 20
7.4910263134
 11
11.0556466884
 21
7.6069374194
  0
LINE
  5
30A
100
AcDbEntity
  8
0
100
AcDbLine
 62
4
  6
CONTINUOUS
 10
11.0570266061
 20
8.1400328095
 11
11.0570266061
 21
8.0820772565
  0
LINE
  5
30B
100
AcDbEntity
  8
0
100
AcDbLine
 62
7
  6
CONTINUOUS
 10
11.0874251908
 20
11.0133317417
 11
11.0874251908
 21
10.8211124909
  0
LINE
  5
30C
100
AcDbEntity
  8
0
100
AcDbLine
 62
7
  6
CONTINUOUS
 10
11.0874251908
 20
10.7844073073
 11
11.0874251908
 21
10.5448576882
  0
LINE
  5
30D
100
AcDbEntity
  8
0
100
AcDbLine
 62
4
  6
CONTINUOUS
 10
11.0956636414
 20
8.137353322
 11
11.0956636414
 21
8.079397769
  0
LINE
  5
30E
100
AcDbEntity
  8
0
100
AcDbLine
 62
4
  6
CONTINUOUS
 10
11.1029080794
 20
8.6970879449
 11
11.1029080794
 21
8.6874286886
  0
LINE
  5
30F
100
AcDbEntity
  8
0
100
AcDbLine
 62
4
  6
CONTINUOUS
 10
11.105322899
 20
6.2000020512
 11
11.105322899
 21
6.0840909477
  0
LINE
  5
310
100
AcDbEntity
  8
0
100
AcDbLine
 62
4
  6
CONTINUOUS
 10
11.1101525233
 20
8.6386299928
 11
11.1101525233
 21
8.628970733
  0
LINE
  5
311
100
AcDbEntity
  8
0
100
AcDbLine
 62
4
  6
CONTINUOUS
 10
11.1136022415
 20
7.5863594597
 11
11.1136022415
 21
7.5035658123
  0
LINE
  5
312
100
AcDbEntity
  8
0
100
AcDbLine
 62
4
  6
CONTINUOUS
 10
11.1536191944
 20
8.0753785377
 11
11.1536191944
 21
8.1333340908
  0
LINE
  5
313
100
AcDbEntity
  8
0
100
AcDbLine
 62
4
  6
CONTINUOUS
 10
11.1605186836
 20
7.4837534158
 11
11.1605186836
 21
7.5996645219
  0
LINE
  5
314
100
AcDbEntity
  8
0
100
AcDbLine
 62
7
  6
CONTINUOUS
 10
11.1874460242
 20
10.2375891727
 11
11.1874460242
 21
10.3357830134
  0
LINE
  5
315
100
AcDbEntity
  8
0
100
AcDbLine
 62
4
  6
CONTINUOUS
 10
11.1922562298
 20
8.0726990502
 11
11.1922562298
 21
8.1886101563
  0
LINE
  5
316
100
AcDbEntity
  8
0
100
AcDbLine
 62
7
  6
CONTINUOUS
 10
11.2061054499
 20
11.0474262863
 11
11.2061054499
 21
11.0236939844
  0
LINE
  5
317
100
AcDbEntity
  8
0
100
AcDbLine
 62
4
  6
CONTINUOUS
 10
11.1536191871
 20
8.5969785338
 11
11.1898414069
 21
8.7103776177
  0
LINE
  5
318
100
AcDbEntity
  8
0
100
AcDbLine
 62
4
  6
CONTINUOUS
 10
10.5975218595
 20
7.877154189
 11
10.6140805897
 21
7.8925645656
  0
LINE
  5
319
100
AcDbEntity
  8
0
100
AcDbLine
 62
4
  6
CONTINUOUS
 10
11.0811747475
 20
8.6020025727
 11
11.0666858595
 21
8.6030073805
  0
LINE
  5
31A
100
AcDbEntity
  8
0
100
AcDbLine
 62
4
  6
CONTINUOUS
 10
11.168108075
 20
8.6346107616
 11
11.2115747388
 21
8.6315963382
  0
LINE
  5
31B
100
AcDbEntity
  8
0
100
AcDbLine
 62
4
  6
CONTINUOUS
 10
10.9362858682
 20
8.6700062024
 11
10.979752532
 21
8.666991779
  0
LINE
  5
31C
100
AcDbEntity
  8
0
100
AcDbLine
 62
4
  6
CONTINUOUS
 10
11.0666858595
 20
8.6706221886
 11
11.0811747475
 21
8.6696173808
  0
LINE
  5
31D
100
AcDbEntity
  8
0
100
AcDbLine
 62
4
  6
CONTINUOUS
 10
11.0666858595
 20
8.6030073805
 11
11.0521969716
 21
8.6136714472
  0
LINE
  5
31E
100
AcDbEntity
  8
0
100
AcDbLine
 62
4
  6
CONTINUOUS
 10
11.0811747475
 20
8.6696173808
 11
11.0956636354
 21
8.6589533167
  0
LINE
  5
31F
100
AcDbEntity
  8
0
100
AcDbLine
 62
4
  6
CONTINUOUS
 10
11.0521969716
 20
8.6136714472
 11
11.0449525276
 21
8.62383311
  0
LINE
  5
320
100
AcDbEntity
  8
0
100
AcDbLine
 62
4
  6
CONTINUOUS
 10
11.0956636354
 20
8.6589533167
 11
11.1101525233
 21
8.6386299928
  0
LINE
  5
321
100
AcDbEntity
  8
0
100
AcDbLine
 62
4
  6
CONTINUOUS
 10
11.0956636354
 20
8.7072496121
 11
11.1029080794
 21
8.6970879449
  0
LINE
  5
322
100
AcDbEntity
  8
0
100
AcDbLine
 62
4
  6
CONTINUOUS
 10
11.2308932651
 20
8.0700195627
 11
11.2308932651
 21
8.1279751158
  0
LINE
  5
323
100
AcDbEntity
  8
0
100
AcDbLine
 62
7
  6
CONTINUOUS
 10
11.2420666587
 20
11.018561707
 11
11.2420666587
 21
11.0300512006
  0
LINE
  5
324
100
AcDbEntity
  8
0
100
AcDbLine
 62
7
  6
CONTINUOUS
 10
11.2593726415
 20
11.0176100271
 11
11.2593726415
 21
11.0312513767
  0
LINE
  5
325
100
AcDbEntity
  8
0
100
AcDbLine
 62
4
  6
CONTINUOUS
 10
11.2695303005
 20
8.1252956283
 11
11.2695303005
 21
8.0673400752
  0
LINE
  5
326
100
AcDbEntity
  8
0
100
AcDbLine
 62
7
  6
CONTINUOUS
 10
11.2953338503
 20
11.0536143079
 11
11.2953338503
 21
11.0181723391
  0
LINE
  5
327
100
AcDbEntity
  8
0
100
AcDbLine
 62
7
  6
CONTINUOUS
 10
11.3216592896
 20
11.0209280017
 11
11.3216592896
 21
11.0269317829
  0
LINE
  5
328
100
AcDbEntity
  8
0
100
AcDbLine
 62
7
  6
CONTINUOUS
 10
11.3343281519
 20
11.0231783171
 11
11.3343281519
 21
11.0236528443
  0
LINE
  5
329
100
AcDbEntity
  8
0
100
AcDbLine
 62
7
  6
CONTINUOUS
 10
11.3351241093
 20
5.9474134442
 11
11.3351241093
 21
5.9783230732
  0
LINE
  5
32A
100
AcDbEntity
  8
0
100
AcDbLine
 62
4
  6
CONTINUOUS
 10
11.3661228888
 20
8.1185969095
 11
11.3661228888
 21
8.089619133
  0
LINE
  5
32B
100
AcDbEntity
  8
0
100
AcDbLine
 62
4
  6
CONTINUOUS
 10
10.9342160115
 20
7.8593239464
 11
10.8679810977
 21
7.7618051879
  0
LINE
  5
32C
100
AcDbEntity
  8
0
100
AcDbLine
 62
7
  6
CONTINUOUS
 10
11.7718117599
 20
8.8149067034
 11
12.1600400072
 21
9.1899064161
  0
LINE
  5
32D
100
AcDbEntity
  8
0
100
AcDbLine
 62
4
  6
CONTINUOUS
 10
10.4484932983
 20
7.5496912742
 11
10.4319345699
 21
7.5342808957
  0
LINE
  5
32E
100
AcDbEntity
  8
0
100
AcDbLine
 62
4
  6
CONTINUOUS
 10
10.8058858768
 20
8.7370050242
 11
10.8783303165
 21
8.7319809852
  0
LINE
  5
32F
100
AcDbEntity
  8
0
100
AcDbLine
 62
4
  6
CONTINUOUS
 10
11.0666858595
 20
8.718918484
 11
11.0811747475
 21
8.7179136762
  0
LINE
  5
330
100
AcDbEntity
  8
0
100
AcDbLine
 62
7
  6
CONTINUOUS
 10
9.8399599928
 20
8.9488810785
 11
11.7718117599
 21
8.8149067034
  0
LINE
  5
331
100
AcDbEntity
  8
0
100
AcDbLine
 62
4
  6
CONTINUOUS
 10
11.0811747475
 20
8.7179136762
 11
11.0956636354
 21
8.7072496121
  0
LINE
  5
332
100
AcDbEntity
  8
0
100
AcDbLine
 62
4
  6
CONTINUOUS
 10
11.1898414069
 20
8.7103776177
 11
11.2260636268
 21
8.5919544948
  0
LINE
  5
333
100
AcDbEntity
  8
0
100
AcDbLine
 62
7
  6
CONTINUOUS
 10
11.4083971059
 20
9.0655981535
 11
11.4083971059
 21
9.5717082562
  0
LINE
  5
334
100
AcDbEntity
  8
0
100
AcDbLine
 62
7
  6
CONTINUOUS
 10
11.4224251908
 20
10.7939612373
 11
11.4224251908
 21
10.7844073073
  0
LINE
  5
335
100
AcDbEntity
  8
0
100
AcDbLine
 62
4
  6
CONTINUOUS
 10
11.4240784418
 20
8.0855999017
 11
11.4240784418
 21
8.0566221252
  0
LINE
  5
336
100
AcDbEntity
  8
0
100
AcDbLine
 62
7
  6
CONTINUOUS
 10
11.4554251908
 20
11.0133317417
 11
11.4554251908
 21
10.8211124909
  0
LINE
  5
337
100
AcDbEntity
  8
0
100
AcDbLine
 62
7
  6
CONTINUOUS
 10
11.4554251908
 20
10.7844073073
 11
11.4554251908
 21
10.5448576882
  0
LINE
  5
338
100
AcDbEntity
  8
0
100
AcDbLine
 62
7
  6
CONTINUOUS
 10
11.4623179082
 20
9.0693375805
 11
11.4623179082
 21
9.5754476831
  0
LINE
  5
339
100
AcDbEntity
  8
0
100
AcDbLine
 62
7
  6
CONTINUOUS
 10
11.5008607807
 20
10.2593245984
 11
11.5008607807
 21
10.3575184391
  0
LINE
  5
33A
100
AcDbEntity
  8
0
100
AcDbLine
 62
7
  6
CONTINUOUS
 10
11.5369251908
 20
10.4738621357
 11
11.5369251908
 21
10.4806773846
  0
LINE
  5
33B
100
AcDbEntity
  8
0
100
AcDbLine
 62
7
  6
CONTINUOUS
 10
11.5424251908
 20
10.2589436267
 11
11.5424251908
 21
10.2752588281
  0
LINE
  5
33C
100
AcDbEntity
  8
0
100
AcDbLine
 62
7
  6
CONTINUOUS
 10
11.5424251908
 20
10.4946295422
 11
11.5424251908
 21
10.5004250975
  0
LINE
  5
33D
100
AcDbEntity
  8
0
100
AcDbLine
 62
7
  6
CONTINUOUS
 10
11.5848399473
 20
10.340442249
 11
11.5848399473
 21
10.4386360898
  0
LINE
  5
33E
100
AcDbEntity
  8
0
100
AcDbLine
 62
4
  6
CONTINUOUS
 10
10.9562943437
 20
7.8522732327
 11
10.9728530652
 21
7.8676836099
  0
LINE
  5
33F
100
AcDbEntity
  8
0
100
AcDbLine
 62
4
  6
CONTINUOUS
 10
10.9976911475
 20
7.7500499771
 11
11.0142498967
 21
7.7654603541
  0
LINE
  5
340
100
AcDbEntity
  8
0
100
AcDbLine
 62
4
  6
CONTINUOUS
 10
10.8679811409
 20
7.6033933409
 11
10.8845398624
 21
7.6188037181
  0
LINE
  5
341
100
AcDbEntity
  8
0
100
AcDbLine
 62
4
  6
CONTINUOUS
 10
10.3684594442
 20
7.6104374075
 11
10.3243028315
 21
7.5914213709
  0
LINE
  5
342
100
AcDbEntity
  8
0
100
AcDbLine
 62
7
  6
CONTINUOUS
 10
10.7948743775
 20
9.107653453
 11
10.7606194702
 21
9.1245747213
  0
LINE
  5
343
100
AcDbEntity
  8
0
100
AcDbLine
 62
7
  6
CONTINUOUS
 10
11.7684251908
 20
9.7759806849
 11
11.7684251908
 21
10.1990562219
  0
LINE
  5
344
100
AcDbEntity
  8
0
100
AcDbLine
 62
7
  6
CONTINUOUS
 10
11.7718117599
 20
5.9171290528
 11
11.7718117599
 21
8.8149067034
  0
LINE
  5
345
100
AcDbEntity
  8
0
100
AcDbLine
 62
4
  6
CONTINUOUS
 10
10.9645736924
 20
7.5966946247
 11
10.9811324139
 21
7.6121050019
  0
LINE
  5
346
100
AcDbEntity
  8
0
100
AcDbLine
 62
4
  6
CONTINUOUS
 10
11.0225292454
 20
7.509881746
 11
11.0059705238
 21
7.4944713671
  0
LINE
  5
347
100
AcDbEntity
  8
0
100
AcDbLine
 62
7
  6
CONTINUOUS
 10
12.1600400072
 20
9.1899064161
 11
11.8904524676
 21
9.2086023755
  0
LINE
  5
348
100
AcDbEntity
  8
0
100
AcDbLine
 62
7
  6
CONTINUOUS
 10
10.6523979139
 20
9.2944617504
 11
10.2281882401
 21
9.3238807912
  0
LINE
  5
349
100
AcDbEntity
  8
0
100
AcDbLine
 62
7
  6
CONTINUOUS
 10
11.8094251908
 20
9.0386167654
 11
11.8094251908
 21
9.1382304164
  0
LINE
  5
34A
100
AcDbEntity
  8
0
100
AcDbLine
 62
7
  6
CONTINUOUS
 10
11.8760044433
 20
9.1764074935
 11
11.8760044433
 21
9.6825175961
  0
LINE
  5
34B
100
AcDbEntity
  8
0
100
AcDbLine
 62
7
  6
CONTINUOUS
 10
11.8888217597
 20
6.0301520403
 11
11.8888217597
 21
6.0610616693
  0
LINE
  5
34C
100
AcDbEntity
  8
0
100
AcDbLine
 62
7
  6
CONTINUOUS
 10
11.8904524676
 20
9.1903632141
 11
11.8904524676
 21
9.6964733168
  0
LINE
  5
34D
100
AcDbEntity
  8
0
100
AcDbLine
 62
4
  6
CONTINUOUS
 10
11.1136022415
 20
7.5035658123
 11
11.0970435199
 21
7.4881554334
  0
LINE
  5
34E
100
AcDbEntity
  8
0
100
AcDbLine
 62
7
  6
CONTINUOUS
 10
12.0430300073
 20
6.1791057781
 11
12.0430300073
 21
6.2100154071
  0
LINE
  5
34F
100
AcDbEntity
  8
0
100
AcDbLine
 62
4
  6
CONTINUOUS
 10
11.2874689005
 20
7.5246255772
 11
11.2433122913
 21
7.5056095421
  0
LINE
  5
350
100
AcDbEntity
  8
0
100
AcDbLine
 62
7
  6
CONTINUOUS
 10
12.1600400072
 20
6.2921287655
 11
12.1600400072
 21
9.1899064161
  0
LINE
  5
351
100
AcDbEntity
  8
0
100
AcDbLine
 62
7
  6
CONTINUOUS
 10
11.0156337001
 20
10.4709044623
 11
11.010334818
 21
10.4758356284
  0
LINE
  5
352
100
AcDbEntity
  8
0
100
AcDbLine
 62
7
  6
CONTINUOUS
 10
11.7822309113
 20
9.83316349
 11
11.7684251908
 21
9.8399832516
  0
LINE
  5
353
100
AcDbEntity
  8
0
100
AcDbLine
 62
7
  6
CONTINUOUS
 10
11.0313782198
 20
10.2563353154
 11
11.010636107
 21
10.266581522
  0
LINE
  5
354
100
AcDbEntity
  8
0
100
AcDbLine
 62
7
  6
CONTINUOUS
 10
11.7502514464
 20
10.2335232889
 11
11.6905185936
 21
10.2891109791
  0
LINE
  5
355
100
AcDbEntity
  8
0
100
AcDbLine
 62
7
  6
CONTINUOUS
 10
11.5848399473
 20
10.4386360898
 11
11.5380388191
 21
10.4822034881
  0
LINE
  5
356
100
AcDbEntity
  8
0
100
AcDbLine
 62
7
  6
CONTINUOUS
 10
11.4188304566
 20
11.0538860301
 11
11.448696883
 21
11.026092185
  0
LINE
  5
357
100
AcDbEntity
  8
0
100
AcDbLine
 62
7
  6
CONTINUOUS
 10
11.8888217597
 20
6.0610616693
 11
12.0430300073
 21
6.2100154071
  0
LINE
  5
358
100
AcDbEntity
  8
0
100
AcDbLine
 62
7
  6
CONTINUOUS
 10
11.7718117599
 20
5.9171290528
 11
11.8888217597
 21
6.0301520403
  0
LINE
  5
359
100
AcDbEntity
  8
0
100
AcDbLine
 62
7
  6
CONTINUOUS
 10
12.0430300073
 20
6.1791057781
 11
12.1600400072
 21
6.2921287655
  0
ARC
  5
35A
100
AcDbEntity
  8
0
100
AcDbCircle
 62
7
  6
CONTINUOUS
 10
11.2807792707
 20
11.2964143397
 40
2.234463508
100
AcDbArc
 50
273.2741391254
 51
274.6601229449
  0
ARC
  5
35B
100
AcDbEntity
  8
0
100
AcDbCircle
 62
7
  6
CONTINUOUS
 10
11.2807792707
 20
11.8025244424
 40
2.234463508
100
AcDbArc
 50
273.2741391254
 51
274.6601229449
  0
ARC
  5
35C
100
AcDbEntity
  8
0
100
AcDbCircle
 62
7
  6
CONTINUOUS
 10
11.0624901398
 20
10.0330751543
 40
0.9538158545
100
AcDbArc
 50
254.2644742826
 51
256.7139235525
  0
ARC
  5
35D
100
AcDbEntity
  8
0
100
AcDbCircle
 62
7
  6
CONTINUOUS
 10
11.0624901398
 20
10.5391852569
 40
0.9538158545
100
AcDbArc
 50
254.2644742826
 51
256.7139235525
  0
ARC
  5
35E
100
AcDbEntity
  8
0
100
AcDbCircle
 62
7
  6
CONTINUOUS
 10
11.0363165539
 20
11.1137468821
 40
0.3333608425
100
AcDbArc
 50
345.6150522856
 51
346.6383602658
  0
ARC
  5
35F
100
AcDbEntity
  8
0
100
AcDbCircle
 62
7
  6
CONTINUOUS
 10
11.2701831264
 20
10.749996988
 40
0.2814620716
100
AcDbArc
 50
92.2011759661
 51
95.7330861042
  0
ARC
  5
360
100
AcDbEntity
  8
0
100
AcDbCircle
 62
7
  6
CONTINUOUS
 10
11.5405753969
 20
10.3895644254
 40
0.0660861458
100
AcDbArc
 50
47.9483111157
 51
50.8337198104
  0
ARC
  5
361
100
AcDbEntity
  8
0
100
AcDbCircle
 62
7
  6
CONTINUOUS
 10
11.3341962525
 20
11.0486100963
 40
0.0249576005
100
AcDbArc
 50
270.3028060247
 51
277.5984562597
  0
SPLINE
  5
362
100
AcDbEntity
  8
0
100
AcDbSpline
 62
7
  6
CONTINUOUS
 70
0
 71
3
 72
15
 73
11
 74
0
 42
0.0000001
 43
0.0000001
 44
0.0000000001
 40
0.0
 40
0.0
 40
0.0
 40
0.0
 40
0.1107952994
 40
0.2231024181
 40
0.33836668
 40
0.4579167107
 40
0.5829273154
 40
0.7144068748
 40
0.8532014788
 40
1.0
 40
1.0
 40
1.0
 40
1.0
 10
11.0874252049
 20
10.7844074222
 30
0.0
 10
11.0874252039
 20
10.7849078041
 30
0.0
 10
11.0874869193
 20
10.7859164463
 30
0.0
 10
11.0877637995
 20
10.7874227648
 30
0.0
 10
11.0882242196
 20
10.7889248204
 30
0.0
 10
11.088867142
 20
10.7904204903
 30
0.0
 10
11.0896911921
 20
10.7919083962
 30
0.0
 10
11.0906950535
 20
10.7933872959
 30
0.0
 10
11.0918773986
 20
10.79485591
 30
0.0
 10
11.0927580328
 20
10.7957999311
 30
0.0
 10
11.0932253646
 20
10.7962701933
 30
0.0
  0
SPLINE
  5
363
100
AcDbEntity
  8
0
100
AcDbSpline
 62
7
  6
CONTINUOUS
 70
0
 71
3
 72
9
 73
5
 74
0
 42
0.0000001
 43
0.0000001
 44
0.0000000001
 40
0.0
 40
0.0
 40
0.0
 40
0.0
 40
0.49015204
 40
1.0
 40
1.0
 40
1.0
 40
1.0
 10
10.6590281806
 20
9.7743940339
 30
0.0
 10
10.6602566455
 20
9.7755806398
 30
0.0
 10
10.6628174358
 20
9.7779455755
 30
0.0
 10
10.6654719546
 20
9.7802044493
 30
0.0
 10
10.6668459383
 20
9.7813307178
 30
0.0
  0
SPLINE
  5
364
100
AcDbEntity
  8
0
100
AcDbSpline
 62
7
  6
CONTINUOUS
 70
0
 71
3
 72
9
 73
5
 74
0
 42
0.0000001
 43
0.0000001
 44
0.0000000001
 40
0.0
 40
0.0
 40
0.0
 40
0.0
 40
0.2575156145
 40
1.0
 40
1.0
 40
1.0
 40
1.0
 10
10.6590281806
 20
9.7743940339
 30
0.0
 10
10.6584319323
 20
9.7738181022
 30
0.0
 10
10.6561410449
 20
9.7715565051
 30
0.0
 10
10.6539510839
 20
9.7691917422
 30
0.0
 10
10.6523979139
 20
9.7673749971
 30
0.0
  0
SPLINE
  5
365
100
AcDbEntity
  8
0
100
AcDbSpline
 62
7
  6
CONTINUOUS
 70
0
 71
3
 72
9
 73
5
 74
0
 42
0.0000001
 43
0.0000001
 44
0.0000000001
 40
0.0
 40
0.0
 40
0.0
 40
0.0
 40
0.50984796
 40
1.0
 40
1.0
 40
1.0
 40
1.0
 10
11.8760044433
 20
9.1764074935
 30
0.0
 10
11.877378427
 20
9.177533762
 30
0.0
 10
11.8800329458
 20
9.1797926357
 30
0.0
 10
11.8825937361
 20
9.1821575714
 30
0.0
 10
11.8838222009
 20
9.1833441774
 30
0.0
  0
SPLINE
  5
366
100
AcDbEntity
  8
0
100
AcDbSpline
 62
7
  6
CONTINUOUS
 70
0
 71
3
 72
9
 73
5
 74
0
 42
0.0000001
 43
0.0000001
 44
0.0000000001
 40
0.0
 40
0.0
 40
0.0
 40
0.0
 40
0.2426666479
 40
1.0
 40
1.0
 40
1.0
 40
1.0
 10
11.8904524676
 20
9.1903632141
 30
0.0
 10
11.8899448398
 20
9.1897694412
 30
0.0
 10
11.887821144
 20
9.1873498567
 30
0.0
 10
11.8855757356
 20
9.1850379619
 30
0.0
 10
11.8838222009
 20
9.1833441774
 30
0.0
  0
SPLINE
  5
367
100
AcDbEntity
  8
0
100
AcDbSpline
 62
7
  6
CONTINUOUS
 70
0
 71
3
 72
18
 73
14
 74
0
 42
0.0000001
 43
0.0000001
 44
0.0000000001
 40
0.0
 40
0.0
 40
0.0
 40
0.0
 40
0.1480392107
 40
0.2876680063
 40
0.4195643421
 40
0.4828959003
 40
0.5446369283
 40
0.6638660762
 40
0.7785244741
 40
0.8345987409
 40
0.8900707994
 40
0.9451373938
 40
1.0
 40
1.0
 40
1.0
 40
1.0
 10
10.7913600267
 20
10.2323488541
 30
0.0
 10
10.7899977694
 20
10.2310330146
 30
0.0
 10
10.7874304912
 20
10.2283910901
 30
0.0
 10
10.7839786694
 20
10.2242737925
 30
0.0
 10
10.7815027921
 20
10.2207701196
 30
0.0
 10
10.7797976813
 20
10.217957891
 30
0.0
 10
10.7783085452
 20
10.2152087108
 30
0.0
 10
10.7767610572
 20
10.2117493793
 30
0.0
 10
10.7756310311
 20
10.2082064593
 30
0.0
 10
10.775003847
 20
10.2053796463
 30
0.0
 10
10.7746700701
 20
10.2032728888
 30
0.0
 10
10.774469746
 20
10.2011649645
 30
0.0
 10
10.7744251896
 20
10.199758146
 30
0.0
 10
10.7744251934
 20
10.1990562445
 30
0.0
  0
SPLINE
  5
368
100
AcDbEntity
  8
0
100
AcDbSpline
 62
7
  6
CONTINUOUS
 70
0
 71
3
 72
23
 73
19
 74
0
 42
0.0000001
 43
0.0000001
 44
0.0000000001
 40
0.0
 40
0.0
 40
0.0
 40
0.0
 40
0.0811338099
 40
0.1602293787
 40
0.2371435331
 40
0.3117358907
 40
0.3838715414
 40
0.453426953
 40
0.5202957322
 40
0.5843953066
 40
0.6456736884
 40
0.7041158843
 40
0.7597493586
 40
0.8126478808
 40
0.8629331376
 40
0.9107735923
 40
0.9563803616
 40
1.0
 40
1.0
 40
1.0
 40
1.0
 10
10.6523979139
 20
9.2612648945
 30
0.0
 10
10.6545755252
 20
9.2569966054
 30
0.0
 10
10.6589347633
 20
9.2485970121
 30
0.0
 10
10.6655823638
 20
9.2362689707
 30
0.0
 10
10.6722590303
 20
9.2243977661
 30
0.0
 10
10.6789639085
 20
9.2130168677
 30
0.0
 10
10.6856957018
 20
9.202159766
 30
0.0
 10
10.6924525725
 20
9.1918593262
 30
0.0
 10
10.6992321576
 20
9.1821468749
 30
0.0
 10
10.7060315626
 20
9.173051238
 30
0.0
 10
10.7128474132
 20
9.1645977502
 30
0.0
 10
10.7196759286
 20
9.156807312
 30
0.0
 10
10.7265130068
 20
9.1496955778
 30
0.0
 10
10.7333543488
 20
9.1432723315
 30
0.0
 10
10.7401954716
 20
9.1375411596
 30
0.0
 10
10.7470320599
 20
9.132499249
 30
0.0
 10
10.7538590692
 20
9.1281379805
 30
0.0
 10
10.7584962364
 20
9.1256230153
 30
0.0
 10
10.7608061595
 20
9.1244825188
 30
0.0
  0
SPLINE
  5
369
100
AcDbEntity
  8
0
100
AcDbSpline
 62
7
  6
CONTINUOUS
 70
0
 71
3
 72
23
 73
19
 74
0
 42
0.0000001
 43
0.0000001
 44
0.0000000001
 40
0.0
 40
0.0
 40
0.0
 40
0.0
 40
0.0811338099
 40
0.1602293787
 40
0.2371435331
 40
0.3117358907
 40
0.3838715414
 40
0.453426953
 40
0.5202957322
 40
0.5843953066
 40
0.6456736884
 40
0.7041158843
 40
0.7597493586
 40
0.8126478808
 40
0.8629331376
 40
0.9107735923
 40
0.9563803616
 40
1.0
 40
1.0
 40
1.0
 40
1.0
 10
11.8904524676
 20
9.6964733168
 30
0.0
 10
11.8882748563
 20
9.7007416059
 30
0.0
 10
11.8839156183
 20
9.7091411992
 30
0.0
 10
11.8772680178
 20
9.7214692406
 30
0.0
 10
11.8705913512
 20
9.7333404451
 30
0.0
 10
11.8638864731
 20
9.7447213435
 30
0.0
 10
11.8571546798
 20
9.7555784453
 30
0.0
 10
11.8503978091
 20
9.765878885
 30
0.0
 10
11.8436182239
 20
9.7755913364
 30
0.0
 10
11.8368188189
 20
9.7846869733
 30
0.0
 10
11.8300029684
 20
9.7931404611
 30
0.0
 10
11.823174453
 20
9.8009308993
 30
0.0
 10
11.8163373747
 20
9.8080426334
 30
0.0
 10
11.8094960328
 20
9.8144658797
 30
0.0
 10
11.8026549099
 20
9.8201970517
 30
0.0
 10
11.7958183216
 20
9.8252389623
 30
0.0
 10
11.7889913123
 20
9.8296002308
 30
0.0
 10
11.7843541452
 20
9.8321151959
 30
0.0
 10
11.782044222
 20
9.8332556925
 30
0.0
  0
SPLINE
  5
36A
100
AcDbEntity
  8
0
100
AcDbSpline
 62
7
  6
CONTINUOUS
 70
0
 71
3
 72
30
 73
26
 74
0
 42
0.0000001
 43
0.0000001
 44
0.0000000001
 40
0.0
 40
0.0
 40
0.0
 40
0.0
 40
0.0640679642
 40
0.1349814334
 40
0.2113465048
 40
0.2916226872
 40
0.3741689171
 40
0.4572871151
 40
0.5392649724
 40
0.6184186045
 40
0.6931354931
 40
0.7619185839
 40
0.7936636823
 40
0.8234406055
 40
0.8511193045
 40
0.8765851291
 40
0.899749549
 40
0.9205486425
 40
0.9389594788
 40
0.9550075977
 40
0.9688002686
 40
0.9805648023
 40
0.9907253334
 40
0.9954227518
 40
1.0
 40
1.0
 40
1.0
 40
1.0
 10
11.3100534364
 20
10.7745685276
 30
0.0
 10
11.3102337747
 20
10.7739322069
 30
0.0
 10
11.3105707667
 20
10.7725792851
 30
0.0
 10
11.3109966049
 20
10.7704388713
 30
0.0
 10
11.3113617174
 20
10.7681177525
 30
0.0
 10
11.3116579294
 20
10.7656659409
 30
0.0
 10
11.3118786651
 20
10.7631362278
 30
0.0
 10
11.3120190851
 20
10.7605832047
 30
0.0
 10
11.3120761687
 20
10.7580619776
 30
0.0
 10
11.3120488153
 20
10.7556269214
 30
0.0
 10
11.3119377823
 20
10.7533305711
 30
0.0
 10
11.3117739055
 20
10.751528173
 30
0.0
 10
11.3115990013
 20
10.7501942772
 30
0.0
 10
11.3114524945
 20
10.7492850225
 30
0.0
 10
11.3112880708
 20
10.7484447651
 30
0.0
 10
11.3111065661
 20
10.7476779707
 30
0.0
 10
11.3109090903
 20
10.7469886587
 30
0.0
 10
11.3106966455
 20
10.7463803654
 30
0.0
 10
11.3104704371
 20
10.7458560292
 30
0.0
 10
11.3102314178
 20
10.7454179905
 30
0.0
 10
11.3099801875
 20
10.7450678152
 30
0.0
 10
11.3097166709
 20
10.7448067865
 30
0.0
 10
11.3094784934
 20
10.7446621186
 30
0.0
 10
11.3092866769
 20
10.7446006728
 30
0.0
 10
11.3091914133
 20
10.7445867472
 30
0.0
 10
11.3091442477
 20
10.7445838985
 30
0.0
  0
SPLINE
  5
36B
100
AcDbEntity
  8
0
100
AcDbSpline
 62
7
  6
CONTINUOUS
 70
0
 71
3
 72
34
 73
30
 74
0
 42
0.0000001
 43
0.0000001
 44
0.0000000001
 40
0.0
 40
0.0
 40
0.0
 40
0.0
 40
0.0292428433
 40
0.0586745517
 40
0.0734211008
 40
0.0881599701
 40
0.1028707342
 40
0.1175334336
 40
0.1321342033
 40
0.1466598294
 40
0.1610946411
 40
0.1754286981
 40
0.2037826881
 40
0.2317100698
 40
0.2864793458
 40
0.3135421278
 40
0.3405407836
 40
0.367599576
 40
0.3948527397
 40
0.4503854229
 40
0.478880038
 40
0.5079739411
 40
0.5682106114
 40
0.631532202
 40
0.6982045541
 40
0.7683765331
 40
0.8420966268
 40
0.9193346372
 40
1.0
 40
1.0
 40
1.0
 40
1.0
 10
11.0932070262
 20
10.8093847866
 30
0.0
 10
11.0929810644
 20
10.8084362566
 30
0.0
 10
11.0926238337
 20
10.8065087936
 30
0.0
 10
11.0924251679
 20
10.8040641101
 30
0.0
 10
11.0924203999
 20
10.8020988121
 30
0.0
 10
11.0924932127
 20
10.8006262562
 30
0.0
 10
11.092641547
 20
10.7991622187
 30
0.0
 10
11.0928648297
 20
10.7977123842
 30
0.0
 10
11.0931603034
 20
10.7962818613
 30
0.0
 10
11.0935245644
 20
10.7948751724
 30
0.0
 10
11.0939546313
 20
10.7934964847
 30
0.0
 10
11.0946088433
 20
10.791707037
 30
0.0
 10
11.0955702194
 20
10.7895536563
 30
0.0
 10
11.0973707485
 20
10.7863139152
 30
0.0
 10
11.0995311064
 20
10.7833395341
 30
0.0
 10
11.101955314
 20
10.7806371462
 30
0.0
 10
11.1038835325
 20
10.7787377442
 30
0.0
 10
11.1059196197
 20
10.7769455195
 30
0.0
 10
11.1087907467
 20
10.7746693521
 30
0.0
 10
11.1118550411
 20
10.7725676523
 30
0.0
 10
11.1150830692
 20
10.7706155177
 30
0.0
 10
11.1185139421
 20
10.768699749
 30
0.0
 10
11.1230761149
 20
10.7664352148
 30
0.0
 10
11.128903375
 20
10.7639235149
 30
0.0
 10
11.1351500877
 20
10.7615670139
 30
0.0
 10
11.1418148075
 20
10.7593535051
 30
0.0
 10
11.1488912584
 20
10.7572773409
 30
0.0
 10
11.1563677999
 20
10.755336509
 30
0.0
 10
11.1615000945
 20
10.7541579563
 30
0.0
 10
11.164128947
 20
10.7535890529
 30
0.0
  0
SPLINE
  5
36C
100
AcDbEntity
  8
0
100
AcDbSpline
 62
7
  6
CONTINUOUS
 70
0
 71
3
 72
31
 73
27
 74
0
 42
0.0000001
 43
0.0000001
 44
0.0000000001
 40
0.0
 40
0.0
 40
0.0
 40
0.0
 40
0.0793877752
 40
0.1600112276
 40
0.2410487762
 40
0.3216687831
 40
0.4010473174
 40
0.4783764389
 40
0.5528758843
 40
0.6238048917
 40
0.6577141592
 40
0.6904772975
 40
0.7220183895
 40
0.7522666152
 40
0.7811570185
 40
0.8086306267
 40
0.83463638
 40
0.8591308293
 40
0.8820809317
 40
0.9034647012
 40
0.9232745775
 40
0.9415205272
 40
0.958234478
 40
0.9734779829
 40
0.9873500283
 40
1.0
 40
1.0
 40
1.0
 40
1.0
 10
11.2455433076
 20
11.0182754632
 30
0.0
 10
11.2489567024
 20
11.0180387435
 30
0.0
 10
11.2558439376
 20
11.0176619645
 30
0.0
 10
11.2662305065
 20
11.0173813278
 30
0.0
 10
11.2766740479
 20
11.017382053
 30
0.0
 10
11.2870600996
 20
11.0176641641
 30
0.0
 10
11.2972748525
 20
11.0182244796
 30
0.0
 10
11.3072064933
 20
11.0190566966
 30
0.0
 10
11.3167462261
 20
11.0201515031
 30
0.0
 10
11.3243933497
 20
11.021288643
 30
0.0
 10
11.330232595
 20
11.0223273719
 30
0.0
 10
11.3343847864
 20
11.0231520106
 30
0.0
 10
11.3383642579
 20
11.0240316123
 30
0.0
 10
11.3421601357
 20
11.0249637661
 30
0.0
 10
11.3457620541
 20
11.0259458548
 30
0.0
 10
11.3491601954
 20
11.0269752153
 30
0.0
 10
11.3523453409
 20
11.0280489314
 30
0.0
 10
11.3553088662
 20
11.0291641236
 30
0.0
 10
11.3580428236
 20
11.0303176675
 30
0.0
 10
11.360539931
 20
11.0315064909
 30
0.0
 10
11.362793636
 20
11.0327274272
 30
0.0
 10
11.3647981639
 20
11.0339773508
 30
0.0
 10
11.3665484028
 20
11.0352533
 30
0.0
 10
11.3680401589
 20
11.0365526561
 30
0.0
 10
11.3692692012
 20
11.0378727613
 30
0.0
 10
11.3699388633
 20
11.0388046493
 30
0.0
 10
11.3702210971
 20
11.039271124
 30
0.0
  0
SPLINE
  5
36D
100
AcDbEntity
  8
0
100
AcDbSpline
 62
7
  6
CONTINUOUS
 70
0
 71
3
 72
27
 73
23
 74
0
 42
0.0000001
 43
0.0000001
 44
0.0000000001
 40
0.0
 40
0.0
 40
0.0
 40
0.0
 40
0.0845008867
 40
0.1673050483
 40
0.2480835028
 40
0.3265356451
 40
0.4023642351
 40
0.4752896878
 40
0.5450491046
 40
0.6113991442
 40
0.6741189794
 40
0.7330134833
 40
0.7879182585
 40
0.8387054027
 40
0.8625292284
 40
0.8852966305
 40
0.9070061435
 40
0.9276610908
 40
0.9472694592
 40
0.9658461763
 40
0.9834128971
 40
1.0
 40
1.0
 40
1.0
 40
1.0
 10
11.311024472
 20
11.0815254148
 30
0.0
 10
11.3141916012
 20
11.0813057736
 30
0.0
 10
11.3204585713
 20
11.0808152992
 30
0.0
 10
11.3297362268
 20
11.0799159824
 30
0.0
 10
11.3387690539
 20
11.0788633014
 30
0.0
 10
11.3475188807
 20
11.0776618321
 30
0.0
 10
11.3559491884
 20
11.0763166101
 30
0.0
 10
11.3640245639
 20
11.0748333815
 30
0.0
 10
11.371711214
 20
11.0732184664
 30
0.0
 10
11.3789770186
 20
11.071478741
 30
0.0
 10
11.3857916634
 20
11.0696216178
 30
0.0
 10
11.3921268987
 20
11.0676549892
 30
0.0
 10
11.397956378
 20
11.0655871911
 30
0.0
 10
11.4024646364
 20
11.0637498635
 30
0.0
 10
11.4057924752
 20
11.0622287472
 30
0.0
 10
11.4080937405
 20
11.0610924449
 30
0.0
 10
11.4102515919
 20
11.0599374591
 30
0.0
 10
11.4122638399
 20
11.058764995
 30
0.0
 10
11.4141283855
 20
11.0575761756
 30
0.0
 10
11.4158433909
 20
11.0563722292
 30
0.0
 10
11.417407025
 20
11.0551543679
 30
0.0
 10
11.4183746274
 20
11.0543102226
 30
0.0
 10
11.4188308236
 20
11.0538856707
 30
0.0
  0
SPLINE
  5
36E
100
AcDbEntity
  8
0
100
AcDbSpline
 62
7
  6
CONTINUOUS
 70
0
 71
3
 72
16
 73
12
 74
0
 42
0.0000001
 43
0.0000001
 44
0.0000000001
 40
0.0
 40
0.0
 40
0.0
 40
0.0
 40
0.1492542042
 40
0.289687925
 40
0.422009468
 40
0.4854166569
 40
0.5471458938
 40
0.6661059773
 40
0.7802196932
 40
0.8909717295
 40
1.0
 40
1.0
 40
1.0
 40
1.0
 10
11.5325155598
 20
10.4758356287
 30
0.0
 10
11.5333115773
 20
10.4765763991
 30
0.0
 10
11.5348117096
 20
10.4780637587
 30
0.0
 10
11.5368313743
 20
10.4803856965
 30
0.0
 10
11.5382813391
 20
10.4823638531
 30
0.0
 10
11.5392799868
 20
10.4839524038
 30
0.0
 10
11.5401510442
 20
10.4855034827
 30
0.0
 10
11.541056684
 20
10.4874560063
 30
0.0
 10
11.5418450695
 20
10.4898398896
 30
0.0
 10
11.5423193734
 20
10.492232121
 30
0.0
 10
11.5424251694
 20
10.4938352287
 30
0.0
 10
11.5424251763
 20
10.4946295422
 30
0.0
  0
SPLINE
  5
36F
100
AcDbEntity
  8
0
100
AcDbSpline
 62
7
  6
CONTINUOUS
 70
0
 71
3
 72
17
 73
13
 74
0
 42
0.0000001
 43
0.0000001
 44
0.0000000001
 40
0.0
 40
0.0
 40
0.0
 40
0.0
 40
0.1637613736
 40
0.3142655937
 40
0.4521111654
 40
0.5782212838
 40
0.6939288037
 40
0.8010726756
 40
0.852209679
 40
0.9021530374
 40
0.9512826531
 40
1.0
 40
1.0
 40
1.0
 40
1.0
 10
11.4412000638
 20
10.8027679208
 30
0.0
 10
11.4423234031
 20
10.8020721183
 30
0.0
 10
11.4444404439
 20
10.8006723018
 30
0.0
 10
11.4473318773
 20
10.7984418836
 30
0.0
 10
11.449796986
 20
10.7961746663
 30
0.0
 10
11.4518298376
 20
10.7938740591
 30
0.0
 10
11.4534243393
 20
10.7915434508
 30
0.0
 10
11.4543969088
 20
10.7895466231
 30
0.0
 10
11.4549335173
 20
10.7879524772
 30
0.0
 10
11.4552170542
 20
10.7867722959
 30
0.0
 10
11.4553872721
 20
10.7855903199
 30
0.0
 10
11.4554251758
 20
10.7848002881
 30
0.0
 10
11.4554251766
 20
10.7844071924
 30
0.0
  0
SPLINE
  5
370
100
AcDbEntity
  8
0
100
AcDbSpline
 62
7
  6
CONTINUOUS
 70
0
 71
3
 72
34
 73
30
 74
0
 42
0.0000001
 43
0.0000001
 44
0.0000000001
 40
0.0
 40
0.0
 40
0.0
 40
0.0
 40
0.0958344275
 40
0.1891066978
 40
0.2792494728
 40
0.3657205993
 40
0.4480115938
 40
0.4874425238
 40
0.5256559504
 40
0.5626005565
 40
0.5982284574
 40
0.6324956998
 40
0.6653623521
 40
0.6967934219
 40
0.7267588051
 40
0.7552348081
 40
0.7822040799
 40
0.8076577476
 40
0.8315956711
 40
0.8540296001
 40
0.8749842029
 40
0.8945015074
 40
0.9126435124
 40
0.9294984119
 40
0.9451851014
 40
0.959860139
 40
0.9737213911
 40
0.9870092968
 40
1.0
 40
1.0
 40
1.0
 40
1.0
 10
11.2238025258
 20
10.7751125261
 30
0.0
 10
11.2190100548
 20
10.7754448851
 30
0.0
 10
11.20956015
 20
10.7762061229
 30
0.0
 10
11.1956362583
 20
10.7776592215
 30
0.0
 10
11.1822183884
 20
10.7794005772
 30
0.0
 10
11.1693961806
 20
10.7814183955
 30
0.0
 10
11.1591373625
 20
10.7833451485
 30
0.0
 10
11.1512971556
 20
10.7850222302
 30
0.0
 10
11.1457017774
 20
10.786322317
 30
0.0
 10
11.1403165612
 20
10.7876803702
 30
0.0
 10
11.1351504727
 20
10.7890941353
 30
0.0
 10
11.1302121128
 20
10.7905612137
 30
0.0
 10
11.1255096928
 20
10.7920791697
 30
0.0
 10
11.1210510111
 20
10.7936454171
 30
0.0
 10
11.1168434559
 20
10.7952573831
 30
0.0
 10
11.1128939543
 20
10.7969123171
 30
0.0
 10
11.1092090076
 20
10.7986075467
 30
0.0
 10
11.1057946043
 20
10.8003401982
 30
0.0
 10
11.1026563057
 20
10.8021075572
 30
0.0
 10
11.0997991005
 20
10.8039067143
 30
0.0
 10
11.0972275752
 20
10.8057350229
 30
0.0
 10
11.0949457132
 20
10.8075897009
 30
0.0
 10
11.0929572174
 20
10.8094683641
 30
0.0
 10
11.0912652934
 20
10.8113685957
 30
0.0
 10
11.0898732308
 20
10.8132884375
 30
0.0
 10
11.0887842349
 20
10.8152257042
 30
0.0
 10
11.0880021199
 20
10.8171782437
 30
0.0
 10
11.0875306192
 20
10.8191418415
 30
0.0
 10
11.0874252063
 20
10.8204614087
 30
0.0
 10
11.0874252049
 20
10.8211126058
 30
0.0
  0
SPLINE
  5
371
100
AcDbEntity
  8
0
100
AcDbSpline
 62
7
  6
CONTINUOUS
 70
0
 71
3
 72
21
 73
17
 74
0
 42
0.0000001
 43
0.0000001
 44
0.0000000001
 40
0.0
 40
0.0
 40
0.0
 40
0.0
 40
0.042599876
 40
0.0876399556
 40
0.1352249436
 40
0.1854340103
 40
0.238326331
 40
0.2939416423
 40
0.3523056997
 40
0.4134299979
 40
0.4773149967
 40
0.5439514651
 40
0.6133204752
 40
0.6853966413
 40
0.8375222287
 40
1.0
 40
1.0
 40
1.0
 40
1.0
 10
11.5121360678
 20
10.5753837017
 30
0.0
 10
11.5115177985
 20
10.5760451756
 30
0.0
 10
11.5101983837
 20
10.577362203
 30
0.0
 10
11.508044445
 20
10.5792672931
 30
0.0
 10
11.5056641924
 20
10.5811538011
 30
0.0
 10
11.5030599955
 20
10.5830200239
 30
0.0
 10
11.5002341847
 20
10.5848642578
 30
0.0
 10
11.4971894459
 20
10.5866849137
 30
0.0
 10
11.4939285798
 20
10.5884802335
 30
0.0
 10
11.4904546688
 20
10.5902485892
 30
0.0
 10
11.486770977
 20
10.5919883053
 30
0.0
 10
11.4828809794
 20
10.5936976949
 30
0.0
 10
11.4787883738
 20
10.5953752169
 30
0.0
 10
11.4729611707
 20
10.597607425
 30
0.0
 10
11.4651921114
 20
10.6002956356
 30
0.0
 10
11.4587945794
 20
10.6022458406
 30
0.0
 10
11.4554756449
 20
10.6031999429
 30
0.0
  0
SPLINE
  5
372
100
AcDbEntity
  8
0
100
AcDbSpline
 62
7
  6
CONTINUOUS
 70
0
 71
3
 72
17
 73
13
 74
0
 42
0.0000001
 43
0.0000001
 44
0.0000000001
 40
0.0
 40
0.0
 40
0.0
 40
0.0
 40
0.1282950638
 40
0.2563077561
 40
0.3837262658
 40
0.5102327789
 40
0.6354761114
 40
0.7590804589
 40
0.8201785718
 40
0.8807125832
 40
0.9406229484
 40
1.0
 40
1.0
 40
1.0
 40
1.0
 10
11.5424251908
 20
10.5004250975
 30
0.0
 10
11.5424251908
 20
10.5039650994
 30
0.0
 10
11.542069683
 20
10.511042438
 30
0.0
 10
11.5404815048
 20
10.5215276187
 30
0.0
 10
11.5378737877
 20
10.5317564571
 30
0.0
 10
11.5343053278
 20
10.5416088413
 30
0.0
 10
11.5298562793
 20
10.5509783463
 30
0.0
 10
11.5254794511
 20
10.5583407796
 30
0.0
 10
11.52163618
 20
10.5639122953
 30
0.0
 10
11.5186137376
 20
10.56790903
 30
0.0
 10
11.5154543064
 20
10.571736643
 30
0.0
 10
11.5132548295
 20
10.5741867641
 30
0.0
 10
11.5121360817
 20
10.5753837026
 30
0.0
  0
SPLINE
  5
373
100
AcDbEntity
  8
0
100
AcDbSpline
 62
7
  6
CONTINUOUS
 70
0
 71
3
 72
17
 73
13
 74
0
 42
0.0000001
 43
0.0000001
 44
0.0000000001
 40
0.0
 40
0.0
 40
0.0
 40
0.0
 40
0.0593778518
 40
0.1192871061
 40
0.1798210698
 40
0.2409192693
 40
0.3645232248
 40
0.489766381
 40
0.6162727947
 40
0.7436913884
 40
0.871704303
 40
1.0
 40
1.0
 40
1.0
 40
1.0
 10
11.0307142999
 20
10.5753837026
 30
0.0
 10
11.029595537
 20
10.5741867479
 30
0.0
 10
11.0273960617
 20
10.5717366367
 30
0.0
 10
11.0242366452
 20
10.5679090244
 30
0.0
 10
11.0212142164
 20
10.5639123168
 30
0.0
 10
11.0173709486
 20
10.5583408105
 30
0.0
 10
11.0129941289
 20
10.5509783877
 30
0.0
 10
11.0085450803
 20
10.5416089034
 30
0.0
 10
11.0049766155
 20
10.5317565265
 30
0.0
 10
11.0023688889
 20
10.5215276847
 30
0.0
 10
11.0007806992
 20
10.5110424793
 30
0.0
 10
11.0004251908
 20
10.5039651168
 30
0.0
 10
11.0004251908
 20
10.5004250975
 30
0.0
  0
SPLINE
  5
374
100
AcDbEntity
  8
0
100
AcDbSpline
 62
7
  6
CONTINUOUS
 70
0
 71
3
 72
28
 73
24
 74
0
 42
0.0000001
 43
0.0000001
 44
0.0000000001
 40
0.0
 40
0.0
 40
0.0
 40
0.0
 40
0.0165871909
 40
0.0341540016
 40
0.0527307288
 40
0.0723392316
 40
0.0929941929
 40
0.1147037242
 40
0.1374712248
 40
0.1612949025
 40
0.1861695388
 40
0.2120860932
 40
0.2669908687
 40
0.3258851964
 40
0.3886046535
 40
0.4549543502
 40
0.5247134512
 40
0.597638573
 40
0.673466625
 40
0.7519181613
 40
0.8326966374
 40
0.915498694
 40
1.0
 40
1.0
 40
1.0
 40
1.0
 10
11.0787384625
 20
10.5464425714
 30
0.0
 10
11.0793348081
 20
10.545887606
 30
0.0
 10
11.0805996703
 20
10.5447841589
 30
0.0
 10
11.0826436662
 20
10.5431922049
 30
0.0
 10
11.0848855194
 20
10.5416184189
 30
0.0
 10
11.0873228655
 20
10.5400644381
 30
0.0
 10
11.0899532677
 20
10.5385318097
 30
0.0
 10
11.0927740034
 20
10.5370220282
 30
0.0
 10
11.0957822096
 20
10.5355367217
 30
0.0
 10
11.0989747525
 20
10.5340773515
 30
0.0
 10
11.1023483502
 20
10.5326454707
 30
0.0
 10
11.1071766384
 20
10.5307381335
 30
0.0
 10
11.1136458522
 20
10.5284436541
 30
0.0
 10
11.1219270276
 20
10.5258729102
 30
0.0
 10
11.1308350719
 20
10.523445319
 30
0.0
 10
11.1403327999
 20
10.5211711867
 30
0.0
 10
11.1503806734
 20
10.5190602088
 30
0.0
 10
11.1609366711
 20
10.5171213783
 30
0.0
 10
11.171956617
 20
10.5153629355
 30
0.0
 10
11.1833942505
 20
10.5137923915
 30
0.0
 10
11.1952017443
 20
10.5124163636
 30
0.0
 10
11.2073293229
 20
10.5112407839
 30
0.0
 10
11.2155213634
 20
10.5105996548
 30
0.0
 10
11.2196614245
 20
10.5103125406
 30
0.0
  0
SPLINE
  5
375
100
AcDbEntity
  8
0
100
AcDbSpline
 62
7
  6
CONTINUOUS
 70
0
 71
3
 72
22
 73
18
 74
0
 42
0.0000001
 43
0.0000001
 44
0.0000000001
 40
0.0
 40
0.0
 40
0.0
 40
0.0
 40
0.1624836776
 40
0.2398697041
 40
0.314621344
 40
0.3866989658
 40
0.4560692185
 40
0.522706381
 40
0.5865913344
 40
0.6477152837
 40
0.7060780214
 40
0.7616917903
 40
0.8145816326
 40
0.8647877039
 40
0.912369095
 40
0.9574047747
 40
1.0
 40
1.0
 40
1.0
 40
1.0
 10
11.0874025211
 20
10.6032079298
 30
0.0
 10
11.0840818522
 20
10.6022536431
 30
0.0
 10
11.0792013705
 20
10.6007665015
 30
0.0
 10
11.0728595163
 20
10.5986350259
 30
0.0
 10
11.0683711945
 20
10.5970257702
 30
0.0
 10
11.0640776435
 20
10.5953814043
 30
0.0
 10
11.0599829391
 20
10.5937034542
 30
0.0
 10
11.0560909644
 20
10.5919935886
 30
0.0
 10
11.0524054322
 20
10.5902533573
 30
0.0
 10
11.0489298018
 20
10.5884844965
 30
0.0
 10
11.0456673693
 20
10.5866886046
 30
0.0
 10
11.0426211848
 20
10.5848674003
 30
0.0
 10
11.0397940857
 20
10.5830225653
 30
0.0
 10
11.0371887406
 20
10.5811557402
 30
0.0
 10
11.0348074811
 20
10.5792686223
 30
0.0
 10
11.0326527101
 20
10.5773628775
 30
0.0
 10
11.0313327931
 20
10.5760454081
 30
0.0
 10
11.0307143054
 20
10.5753837022
 30
0.0
  0
SPLINE
  5
376
100
AcDbEntity
  8
0
100
AcDbSpline
 62
7
  6
CONTINUOUS
 70
0
 71
3
 72
32
 73
28
 74
0
 42
0.0000001
 43
0.0000001
 44
0.0000000001
 40
0.0
 40
0.0
 40
0.0
 40
0.0
 40
0.0761062088
 40
0.1533665567
 40
0.231098846
 40
0.3086120179
 40
0.385218852
 40
0.4602423615
 40
0.533024002
 40
0.5683763775
 40
0.6029339716
 40
0.6366233117
 40
0.6693737556
 40
0.7011178248
 40
0.7317912536
 40
0.761333757
 40
0.7896892345
 40
0.8168060681
 40
0.8426381804
 40
0.867145276
 40
0.8902937518
 40
0.9120581668
 40
0.9324221307
 40
0.9513805095
 40
0.9689420818
 40
0.9851325994
 40
1.0
 40
1.0
 40
1.0
 40
1.0
 10
11.2196614245
 20
10.5103125406
 30
0.0
 10
11.2260121623
 20
10.5098721155
 30
0.0
 10
11.2388225743
 20
10.509158302
 30
0.0
 10
11.2581464573
 20
10.5085810532
 30
0.0
 10
11.277596556
 20
10.5084916118
 30
0.0
 10
11.2969880551
 20
10.5088908977
 30
0.0
 10
11.3161367991
 20
10.5097750136
 30
0.0
 10
11.3348608396
 20
10.5111354198
 30
0.0
 10
11.3501066343
 20
10.5126693237
 30
0.0
 10
11.3619526749
 20
10.5141320312
 30
0.0
 10
11.370535809
 20
10.5153280512
 30
0.0
 10
11.378883204
 20
10.516630763
 30
0.0
 10
11.3869750432
 20
10.5180370723
 30
0.0
 10
11.394792106
 20
10.5195435733
 30
0.0
 10
11.4023158344
 20
10.5211466921
 30
0.0
 10
11.4095283864
 20
10.5228425675
 30
0.0
 10
11.4164126758
 20
10.5246271168
 30
0.0
 10
11.4229524084
 20
10.5264961033
 30
0.0
 10
11.4291321517
 20
10.5284450137
 30
0.0
 10
11.4349373583
 20
10.5304691927
 30
0.0
 10
11.4403544091
 20
10.5325638497
 30
0.0
 10
11.4453706902
 20
10.5347239712
 30
0.0
 10
11.4499746109
 20
10.536944534
 30
0.0
 10
11.4541556104
 20
10.5392204046
 30
0.0
 10
11.4579044319
 20
10.541546569
 30
0.0
 10
11.4612123609
 20
10.5439178101
 30
0.0
 10
11.463201279
 20
10.5455951245
 30
0.0
 10
11.4641116587
 20
10.5464423269
 30
0.0
  0
SPLINE
  5
377
100
AcDbEntity
  8
0
100
AcDbSpline
 62
7
  6
CONTINUOUS
 70
0
 71
3
 72
23
 73
19
 74
0
 42
0.0000001
 43
0.0000001
 44
0.0000000001
 40
0.0
 40
0.0
 40
0.0
 40
0.0
 40
0.042653828
 40
0.0874222846
 40
0.134581406
 40
0.1843620146
 40
0.2369410992
 40
0.2924376332
 40
0.3509124028
 40
0.4123713491
 40
0.4767716113
 40
0.5440299262
 40
0.6140315905
 40
0.6866391493
 40
0.7617003088
 40
0.8390549034
 40
0.9185417142
 40
1.0
 40
1.0
 40
1.0
 40
1.0
 10
11.5265109785
 20
10.2637642223
 30
0.0
 10
11.5277584022
 20
10.2643799726
 30
0.0
 10
11.5302637167
 20
10.2657485324
 30
0.0
 10
11.5339459742
 20
10.2681443515
 30
0.0
 10
11.5376330019
 20
10.2709371841
 30
0.0
 10
11.541321652
 20
10.2741315582
 30
0.0
 10
11.545009274
 20
10.2777280492
 30
0.0
 10
11.5486931383
 20
10.2817229524
 30
0.0
 10
11.5523706619
 20
10.2861084875
 30
0.0
 10
11.5560394177
 20
10.2908731015
 30
0.0
 10
11.5596972492
 20
10.2960019715
 30
0.0
 10
11.5633422907
 20
10.3014776883
 30
0.0
 10
11.5669730051
 20
10.3072809778
 30
0.0
 10
11.5705882056
 20
10.3133913936
 30
0.0
 10
11.5741870557
 20
10.3197879496
 30
0.0
 10
11.5777690643
 20
10.3264497124
 30
0.0
 10
11.581333988
 20
10.3333561857
 30
0.0
 10
11.5836720965
 20
10.3380560061
 30
0.0
 10
11.5848399473
 20
10.340442249
 30
0.0
  0
SPLINE
  5
378
100
AcDbEntity
  8
0
100
AcDbSpline
 62
7
  6
CONTINUOUS
 70
0
 71
3
 72
11
 73
7
 74
0
 42
0.0000001
 43
0.0000001
 44
0.0000000001
 40
0.0
 40
0.0
 40
0.0
 40
0.0
 40
0.2539299269
 40
0.5053872519
 40
0.7541470692
 40
1.0
 40
1.0
 40
1.0
 40
1.0
 10
10.9580104342
 20
10.2969713978
 30
0.0
 10
10.9623205807
 20
10.2941561988
 30
0.0
 10
10.9709647151
 20
10.2886530152
 30
0.0
 10
10.9840764682
 20
10.2807850532
 30
0.0
 10
10.9972739354
 20
10.2733904832
 30
0.0
 10
11.006182412
 20
10.2687816679
 30
0.0
 10
11.0106511964
 20
10.266574069
 30
0.0
  0
SPLINE
  5
379
100
AcDbEntity
  8
0
100
AcDbSpline
 62
7
  6
CONTINUOUS
 70
0
 71
3
 72
22
 73
18
 74
0
 42
0.0000001
 43
0.0000001
 44
0.0000000001
 40
0.0
 40
0.0
 40
0.0
 40
0.0
 40
0.0418468491
 40
0.0867264455
 40
0.1347115505
 40
0.1858103152
 40
0.2399763094
 40
0.2971210611
 40
0.3571233698
 40
0.4198392365
 40
0.4851110882
 40
0.5527736574
 40
0.6226613133
 40
0.6946104382
 40
0.7684632911
 40
0.8440718194
 40
1.0
 40
1.0
 40
1.0
 40
1.0
 10
11.0006889081
 20
10.4783669109
 30
0.0
 10
10.9997268372
 20
10.4774716621
 30
0.0
 10
10.9978059362
 20
10.4755369293
 30
0.0
 10
10.9950280328
 20
10.4723430124
 30
0.0
 10
10.9922584253
 20
10.4687668552
 30
0.0
 10
10.9895004593
 20
10.4648207787
 30
0.0
 10
10.9867568667
 20
10.4605196461
 30
0.0
 10
10.9840302923
 20
10.4558805778
 30
0.0
 10
10.9813229434
 20
10.4509222783
 30
0.0
 10
10.9786365365
 20
10.4456644718
 30
0.0
 10
10.9759724613
 20
10.440127231
 30
0.0
 10
10.9733316266
 20
10.4343305378
 30
0.0
 10
10.9707145861
 20
10.4282938868
 30
0.0
 10
10.9681215846
 20
10.4220359775
 30
0.0
 10
10.9655525016
 20
10.4155745063
 30
0.0
 10
10.9621234659
 20
10.4066177099
 30
0.0
 10
10.9596409018
 20
10.3997826459
 30
0.0
 10
10.9580104342
 20
10.3951652385
 30
0.0
  0
SPLINE
  5
37A
100
AcDbEntity
  8
0
100
AcDbSpline
 62
7
  6
CONTINUOUS
 70
0
 71
3
 72
16
 73
12
 74
0
 42
0.0000001
 43
0.0000001
 44
0.0000000001
 40
0.0
 40
0.0
 40
0.0
 40
0.0
 40
0.1090281956
 40
0.2197802541
 40
0.3338937393
 40
0.4528540698
 40
0.5145828786
 40
0.5779900004
 40
0.7103120846
 40
0.8507450029
 40
1.0
 40
1.0
 40
1.0
 40
1.0
 10
11.0004252053
 20
10.4946295422
 30
0.0
 10
11.0004251984
 20
10.4938352289
 30
0.0
 10
11.0005310064
 20
10.4922321194
 30
0.0
 10
11.0010053232
 20
10.4898398943
 30
0.0
 10
11.0017936777
 20
10.4874559974
 30
0.0
 10
11.0026993567
 20
10.4855034946
 30
0.0
 10
11.0035703806
 20
10.4839523987
 30
0.0
 10
11.0045690321
 20
10.4823638477
 30
0.0
 10
11.006019026
 20
10.4803857159
 30
0.0
 10
11.008038649
 20
10.4780637343
 30
0.0
 10
11.0095388164
 20
10.4765764076
 30
0.0
 10
11.0103348355
 20
10.4758356297
 30
0.0
  0
SPLINE
  5
37B
100
AcDbEntity
  8
0
100
AcDbSpline
 62
7
  6
CONTINUOUS
 70
0
 71
3
 72
28
 73
24
 74
0
 42
0.0000001
 43
0.0000001
 44
0.0000000001
 40
0.0
 40
0.0
 40
0.0
 40
0.0
 40
0.0295251388
 40
0.0457786228
 40
0.0631213501
 40
0.0816095878
 40
0.1012834734
 40
0.1221716034
 40
0.1442915498
 40
0.1676521366
 40
0.192255623
 40
0.2180968671
 40
0.2451662947
 40
0.3029227305
 40
0.365366832
 40
0.4322815684
 40
0.5034065625
 40
0.578444956
 40
0.6570689819
 40
0.738924235
 40
0.8236297305
 40
0.9107976103
 40
1.0
 40
1.0
 40
1.0
 40
1.0
 10
11.1726291334
 20
11.0392713964
 30
0.0
 10
11.173023946
 20
11.0386188304
 30
0.0
 10
11.1737486145
 20
11.0376731616
 30
0.0
 10
11.1748858947
 20
11.0365040424
 30
0.0
 10
11.1758913184
 20
11.0356080637
 30
0.0
 10
11.1770200841
 20
11.0347226889
 30
0.0
 10
11.1782710214
 20
11.0338485137
 30
0.0
 10
11.1796425372
 20
11.0329867311
 30
0.0
 10
11.181132925
 20
11.0321383328
 30
0.0
 10
11.182740301
 20
11.031304359
 30
0.0
 10
11.1844626567
 20
11.0304859299
 30
0.0
 10
11.1862977741
 20
11.0296839993
 30
0.0
 10
11.1889495563
 20
11.02861505
 30
0.0
 10
11.1925337536
 20
11.0273347321
 30
0.0
 10
11.1971543658
 20
11.0259112523
 30
0.0
 10
11.2021596221
 20
11.0245767446
 30
0.0
 10
11.2075237326
 20
11.0233382291
 30
0.0
 10
11.2132191363
 20
11.0222022489
 30
0.0
 10
11.2192164351
 20
11.0211748031
 30
0.0
 10
11.2254845424
 20
11.0202613349
 30
0.0
 10
11.23199116
 20
11.0194665843
 30
0.0
 10
11.2387023224
 20
11.0187948389
 30
0.0
 10
11.2432445169
 20
11.0184348849
 30
0.0
 10
11.2455433076
 20
11.0182754632
 30
0.0
  0
SPLINE
  5
37C
100
AcDbEntity
  8
0
100
AcDbSpline
 62
7
  6
CONTINUOUS
 70
0
 71
3
 72
31
 73
27
 74
0
 42
0.0000001
 43
0.0000001
 44
0.0000000001
 40
0.0
 40
0.0
 40
0.0
 40
0.0
 40
0.0148672588
 40
0.0310576139
 40
0.0486189451
 40
0.0675772523
 40
0.0879409838
 40
0.1097053059
 40
0.1328537188
 40
0.1573606931
 40
0.1831927699
 40
0.2103095358
 40
0.238665022
 40
0.2682075304
 40
0.2988810233
 40
0.3306251114
 40
0.3633756006
 40
0.3970650988
 40
0.4669731602
 40
0.5397550686
 40
0.6147789661
 40
0.6913861913
 40
0.7688997913
 40
0.8466326014
 40
0.923893348
 40
1.0
 40
1.0
 40
1.0
 40
1.0
 10
11.1240196025
 20
11.0538857271
 30
0.0
 10
11.1247160311
 20
11.0545338377
 30
0.0
 10
11.1262375132
 20
11.0558170034
 30
0.0
 10
11.1287680348
 20
11.0576310098
 30
0.0
 10
11.1316358229
 20
11.0594105717
 30
0.0
 10
11.1348342587
 20
11.061151601
 30
0.0
 10
11.1383562128
 20
11.0628503743
 30
0.0
 10
11.1421936416
 20
11.0645028772
 30
0.0
 10
11.1463376645
 20
11.066105306
 30
0.0
 10
11.1507786269
 20
11.0676538336
 30
0.0
 10
11.1555061179
 20
11.0691447585
 30
0.0
 10
11.1605090045
 20
11.0705745598
 30
0.0
 10
11.1657754846
 20
11.0719397526
 30
0.0
 10
11.1712930916
 20
11.0732371219
 30
0.0
 10
11.1770487535
 20
11.0744635205
 30
0.0
 10
11.1830288153
 20
11.0756160094
 30
0.0
 10
11.1892190962
 20
11.0766918711
 30
0.0
 10
11.1978399403
 20
11.0780371937
 30
0.0
 10
11.2090330848
 20
11.0795009264
 30
0.0
 10
11.2228962815
 20
11.0808958923
 30
0.0
 10
11.2372203399
 20
11.081936592
 30
0.0
 10
11.2518691961
 20
11.0826129562
 30
0.0
 10
11.2667037992
 20
11.0829184204
 30
0.0
 10
11.2815832236
 20
11.0828500056
 30
0.0
 10
11.2963660962
 20
11.0824084136
 30
0.0
 10
11.3061661246
 20
11.0818623423
 30
0.0
 10
11.311024472
 20
11.0815254148
 30
0.0
  0
SPLINE
  5
37D
100
AcDbEntity
  8
0
100
AcDbSpline
 62
7
  6
CONTINUOUS
 70
0
 71
3
 72
16
 73
12
 74
0
 42
0.0000001
 43
0.0000001
 44
0.0000000001
 40
0.0
 40
0.0
 40
0.0
 40
0.0
 40
0.1492532965
 40
0.28968679
 40
0.4220077794
 40
0.4854153826
 40
0.5471448797
 40
0.666104923
 40
0.7802192266
 40
0.8909715353
 40
1.0
 40
1.0
 40
1.0
 40
1.0
 10
11.4486970856
 20
11.0260919887
 30
0.0
 10
11.4492375206
 20
11.0255890414
 30
0.0
 10
11.4502560154
 20
11.0245792157
 30
0.0
 10
11.4516272456
 20
11.0230027649
 30
0.0
 10
11.4526116591
 20
11.0216596973
 30
0.0
 10
11.4532896966
 20
11.0205811748
 30
0.0
 10
11.453881103
 20
11.0195280855
 30
0.0
 10
11.4544959612
 20
11.0182024262
 30
0.0
 10
11.4550312694
 20
11.016583921
 30
0.0
 10
11.4553533048
 20
11.0149597339
 30
0.0
 10
11.4554251578
 20
11.0138713191
 30
0.0
 10
11.4554251765
 20
11.0133320264
 30
0.0
  0
SPLINE
  5
37E
100
AcDbEntity
  8
0
100
AcDbSpline
 62
7
  6
CONTINUOUS
 70
0
 71
3
 72
43
 73
39
 74
0
 42
0.0000001
 43
0.0000001
 44
0.0000000001
 40
0.0
 40
0.0
 40
0.0
 40
0.0
 40
0.0055576256
 40
0.0111781612
 40
0.0169221976
 40
0.0228461897
 40
0.0290011102
 40
0.0354316155
 40
0.0421762086
 40
0.0492672263
 40
0.0567313921
 40
0.0645906973
 40
0.0728625563
 40
0.081560732
 40
0.0906959024
 40
0.1002756844
 40
0.110305536
 40
0.1207888172
 40
0.143117691
 40
0.167258994
 40
0.1931867444
 40
0.2208586364
 40
0.2502191235
 40
0.2812014841
 40
0.3137291785
 40
0.3477171004
 40
0.3830728013
 40
0.4196972828
 40
0.4574855172
 40
0.496327378
 40
0.5361082555
 40
0.5767095182
 40
0.6180091187
 40
0.6598822089
 40
0.7448360285
 40
0.8305378422
 40
0.9159394086
 40
1.0
 40
1.0
 40
1.0
 40
1.0
 10
11.4554251766
 20
10.8211123759
 30
0.0
 10
11.4554251776
 20
10.8206571966
 30
0.0
 10
11.4553742238
 20
10.8197408915
 30
0.0
 10
11.4551454498
 20
10.8183713342
 30
0.0
 10
11.4547648207
 20
10.8170048245
 30
0.0
 10
11.454233022
 20
10.81564295
 30
0.0
 10
11.4535508965
 20
10.8142868416
 30
0.0
 10
11.4527194506
 20
10.8129374863
 30
0.0
 10
11.4517395452
 20
10.8115958604
 30
0.0
 10
11.4506121758
 20
10.8102628523
 30
0.0
 10
11.449338377
 20
10.8089393258
 30
0.0
 10
11.4479191569
 20
10.8076262643
 30
0.0
 10
11.4463557179
 20
10.8063245568
 30
0.0
 10
11.4446493039
 20
10.8050351653
 30
0.0
 10
11.4428012438
 20
10.8037591139
 30
0.0
 10
11.4408130498
 20
10.8024973319
 30
0.0
 10
11.438686286
 20
10.8012508194
 30
0.0
 10
11.4356028317
 20
10.7995751645
 30
0.0
 10
11.4314055285
 20
10.7975342374
 30
0.0
 10
11.42594813
 20
10.7952105217
 30
0.0
 10
11.4199860871
 20
10.7929707518
 30
0.0
 10
11.4135386621
 20
10.7908222422
 30
0.0
 10
11.4066265522
 20
10.7887720601
 30
0.0
 10
11.3992721458
 20
10.7868269953
 30
0.0
 10
11.3914993384
 20
10.7849934865
 30
0.0
 10
11.3833334636
 20
10.7832775916
 30
0.0
 10
11.3748011667
 20
10.7816849968
 30
0.0
 10
11.3659303203
 20
10.7802209898
 30
0.0
 10
11.3567499355
 20
10.7788904053
 30
0.0
 10
11.3472900556
 20
10.7776976385
 30
0.0
 10
11.3375816414
 20
10.7766466364
 30
0.0
 10
11.327656487
 20
10.775740891
 30
0.0
 10
11.3175470776
 20
10.7749833573
 30
0.0
 10
11.303800767
 20
10.7741704927
 30
0.0
 10
11.2864026781
 20
10.7735441606
 30
0.0
 10
11.2654285571
 20
10.7734116706
 30
0.0
 10
11.2445328803
 20
10.7738967134
 30
0.0
 10
11.2306707399
 20
10.7746362138
 30
0.0
 10
11.2238025258
 20
10.7751125261
 30
0.0
  0
SPLINE
  5
37F
100
AcDbEntity
  8
0
100
AcDbSpline
 62
7
  6
CONTINUOUS
 70
0
 71
3
 72
16
 73
12
 74
0
 42
0.0000001
 43
0.0000001
 44
0.0000000001
 40
0.0
 40
0.0
 40
0.0
 40
0.0
 40
0.1090283551
 40
0.2197805195
 40
0.3338937378
 40
0.4528539964
 40
0.5145829306
 40
0.5779898064
 40
0.7103116252
 40
0.8507454446
 40
1.0
 40
1.0
 40
1.0
 40
1.0
 10
11.0874252051
 20
11.013331457
 30
0.0
 10
11.0874251864
 20
11.0138707817
 30
0.0
 10
11.087496996
 20
11.0149592675
 30
0.0
 10
11.0878190384
 20
11.0165835458
 30
0.0
 10
11.0883542765
 20
11.0182021788
 30
0.0
 10
11.0889692076
 20
11.0195278959
 30
0.0
 10
11.0895606196
 20
11.020581058
 30
0.0
 10
11.0902386683
 20
11.0216596626
 30
0.0
 10
11.0912231765
 20
11.0230027891
 30
0.0
 10
11.0925944856
 20
11.0245793517
 30
0.0
 10
11.0936130489
 20
11.0255892443
 30
0.0
 10
11.0941535328
 20
11.0260922137
 30
0.0
  0
SPLINE
  5
380
100
AcDbEntity
  8
0
100
AcDbSpline
 62
7
  6
CONTINUOUS
 70
0
 71
3
 72
22
 73
18
 74
0
 42
0.0000001
 43
0.0000001
 44
0.0000000001
 40
0.0
 40
0.0
 40
0.0
 40
0.0
 40
0.043167796
 40
0.0887891754
 40
0.1369393947
 40
0.1876725426
 40
0.2410261859
 40
0.2970226183
 40
0.3556718554
 40
0.4169728147
 40
0.4809147921
 40
0.5474789253
 40
0.6166383682
 40
0.6883602623
 40
0.7626049256
 40
0.8393281155
 40
1.0
 40
1.0
 40
1.0
 40
1.0
 10
11.6905183729
 20
10.2891111842
 30
0.0
 10
11.6892708451
 20
10.2902721341
 30
0.0
 10
11.6866305572
 20
10.2925810323
 30
0.0
 10
11.682373978
 20
10.2959171704
 30
0.0
 10
11.6777179582
 20
10.2992168458
 30
0.0
 10
11.6726671511
 20
10.3024770033
 30
0.0
 10
11.6672262221
 20
10.3056945975
 30
0.0
 10
11.6614003803
 20
10.3088666556
 30
0.0
 10
11.6551951556
 20
10.3119901314
 30
0.0
 10
11.6486164924
 20
10.3150620416
 30
0.0
 10
11.6416707081
 20
10.3180794382
 30
0.0
 10
11.6343644858
 20
10.321039361
 30
0.0
 10
11.6267048883
 20
10.3239389931
 30
0.0
 10
11.6186993201
 20
10.3267754272
 30
0.0
 10
11.6103555121
 20
10.3295460223
 30
0.0
 10
11.5986089519
 20
10.3332049529
 30
0.0
 10
11.5895882472
 20
10.3357542523
 30
0.0
 10
11.5834592
 20
10.3373874079
 30
0.0
  0
SPLINE
  5
381
100
AcDbEntity
  8
0
100
AcDbSpline
 62
7
  6
CONTINUOUS
 70
0
 71
3
 72
22
 73
18
 74
0
 42
0.0000001
 43
0.0000001
 44
0.0000000001
 40
0.0
 40
0.0
 40
0.0
 40
0.0
 40
0.1604709395
 40
0.2371072381
 40
0.3112762206
 40
0.3829348568
 40
0.45204512
 40
0.5185750611
 40
0.5824993302
 40
0.6437996815
 40
0.702466801
 40
0.7584998449
 40
0.8119092472
 40
0.8627171473
 40
0.9109627775
 40
0.9567006135
 40
1.0
 40
1.0
 40
1.0
 40
1.0
 10
10.9578362893
 20
10.3369709505
 30
0.0
 10
10.9518023099
 20
10.335346487
 30
0.0
 10
10.942921519
 20
10.3328121923
 30
0.0
 10
10.9313573442
 20
10.3291780457
 30
0.0
 10
10.9231421773
 20
10.3264274205
 30
0.0
 10
10.9152592812
 20
10.3236126089
 30
0.0
 10
10.9077161002
 20
10.3207362354
 30
0.0
 10
10.9005197912
 20
10.3178010541
 30
0.0
 10
10.893677149
 20
10.3148098835
 30
0.0
 10
10.8871946419
 20
10.3117655069
 30
0.0
 10
10.8810783414
 20
10.3086708694
 30
0.0
 10
10.8753340299
 20
10.3055287822
 30
0.0
 10
10.8699670283
 20
10.3023423115
 30
0.0
 10
10.8649823609
 20
10.2991142551
 30
0.0
 10
10.8603844673
 20
10.2958475226
 30
0.0
 10
10.8561779484
 20
10.292545104
 30
0.0
 10
10.8535670427
 20
10.2902604482
 30
0.0
 10
10.8523327041
 20
10.2891118211
 30
0.0
  0
SPLINE
  5
382
100
AcDbEntity
  8
0
100
AcDbSpline
 62
7
  6
CONTINUOUS
 70
0
 71
3
 72
10
 73
6
 74
0
 42
0.0000001
 43
0.0000001
 44
0.0000000001
 40
0.0
 40
0.0
 40
0.0
 40
0.0
 40
0.4956015258
 40
0.7467726507
 40
1.0
 40
1.0
 40
1.0
 40
1.0
 10
10.7493903024
 20
9.8276164888
 30
0.0
 10
10.7353692156
 20
9.820689041
 30
0.0
 10
10.7145419203
 20
9.8096335244
 30
0.0
 10
10.6872263806
 20
9.7938314978
 30
0.0
 10
10.6736290875
 20
9.7855546192
 30
0.0
 10
10.6668459383
 20
9.7813307178
 30
0.0
  0
SPLINE
  5
383
100
AcDbEntity
  8
0
100
AcDbSpline
 62
7
  6
CONTINUOUS
 70
0
 71
3
 72
18
 73
14
 74
0
 42
0.0000001
 43
0.0000001
 44
0.0000000001
 40
0.0
 40
0.0
 40
0.0
 40
0.0
 40
0.0544283453
 40
0.1090739046
 40
0.1641509815
 40
0.2198685999
 40
0.3339694142
 40
0.4529158906
 40
0.5146380798
 40
0.5780381071
 40
0.7103447894
 40
0.8507623131
 40
1.0
 40
1.0
 40
1.0
 40
1.0
 10
11.7684251882
 20
10.1990561992
 30
0.0
 10
11.7684251843
 20
10.1997835018
 30
0.0
 10
11.7683773249
 20
10.2012414598
 30
0.0
 10
11.7681622167
 20
10.2034258292
 30
0.0
 10
11.7678038075
 20
10.2056088872
 30
0.0
 10
11.7671299617
 20
10.2085392967
 30
0.0
 10
11.7659153919
 20
10.2122123306
 30
0.0
 10
11.764254533
 20
10.2157929174
 30
0.0
 10
11.7626570561
 20
10.2186375566
 30
0.0
 10
11.7608255814
 20
10.2215508726
 30
0.0
 10
11.758166401
 20
10.2251787077
 30
0.0
 10
11.7544624596
 20
10.2294370563
 30
0.0
 10
11.751711259
 20
10.232164775
 30
0.0
 10
11.7502513988
 20
10.2335233176
 30
0.0
  0
SPLINE
  5
384
100
AcDbEntity
  8
0
100
AcDbSpline
 62
7
  6
CONTINUOUS
 70
0
 71
3
 72
10
 73
6
 74
0
 42
0.0000001
 43
0.0000001
 44
0.0000000001
 40
0.0
 40
0.0
 40
0.0
 40
0.0
 40
0.4956015258
 40
0.7467726507
 40
1.0
 40
1.0
 40
1.0
 40
1.0
 10
11.7934600792
 20
9.1301217224
 30
0.0
 10
11.8074811659
 20
9.1370491703
 30
0.0
 10
11.8283084612
 20
9.1481046868
 30
0.0
 10
11.8556240009
 20
9.1639067135
 30
0.0
 10
11.869221294
 20
9.172183592
 30
0.0
 10
11.8760044433
 20
9.1764074935
 30
0.0
  0
SPLINE
  5
385
100
AcDbEntity
  8
0
100
AcDbSpline
 62
7
  6
CONTINUOUS
 70
0
 71
3
 72
18
 73
14
 74
0
 42
0.0000001
 43
0.0000001
 44
0.0000000001
 40
0.0
 40
0.0
 40
0.0
 40
0.0
 40
0.0538950834
 40
0.1096647813
 40
0.167188459
 40
0.2263302362
 40
0.2869406174
 40
0.348859427
 40
0.4759332105
 40
0.6061172615
 40
0.7378941892
 40
0.8697061209
 40
1.0
 40
1.0
 40
1.0
 40
1.0
 10
11.164128947
 20
10.7535890529
 30
0.0
 10
11.1666872657
 20
10.7530354136
 30
0.0
 10
11.171906873
 20
10.7519727021
 30
0.0
 10
11.1798981621
 20
10.750529994
 30
0.0
 10
11.1881692529
 20
10.7492130146
 30
0.0
 10
11.1966971636
 20
10.7480246337
 30
0.0
 10
11.2054573823
 20
10.7469676129
 30
0.0
 10
11.2175167275
 20
10.7457263904
 30
0.0
 10
11.2329750762
 20
10.7445302532
 30
0.0
 10
11.2518524389
 20
10.743664053
 30
0.0
 10
11.2709775283
 20
10.7433652946
 30
0.0
 10
11.2901081078
 20
10.743637416
 30
0.0
 10
11.3028277124
 20
10.7442027749
 30
0.0
 10
11.3091442488
 20
10.7445838814
 30
0.0
  0
SPLINE
  5
386
100
AcDbEntity
  8
0
100
AcDbSpline
 62
7
  6
CONTINUOUS
 70
0
 71
3
 72
49
 73
45
 74
0
 42
0.0000001
 43
0.0000001
 44
0.0000000001
 40
0.0
 40
0.0
 40
0.0
 40
0.0
 40
0.0417977349
 40
0.08406191
 40
0.1266603237
 40
0.1694652488
 40
0.2123449338
 40
0.2551684251
 40
0.2978047525
 40
0.3401236965
 40
0.3819963247
 40
0.4232954608
 40
0.4638962311
 40
0.5036766243
 40
0.5425180315
 40
0.5803057957
 40
0.6169297924
 40
0.6522850581
 40
0.6862725163
 40
0.7187997093
 40
0.7497816313
 40
0.779141735
 40
0.8068131739
 40
0.8327404303
 40
0.8450370385
 40
0.8568829929
 40
0.8682757031
 40
0.8792135901
 40
0.8896966165
 40
0.8997263182
 40
0.9093058999
 40
0.9184408666
 40
0.9271388891
 40
0.9354105614
 40
0.9432696872
 40
0.9507337017
 40
0.9578245655
 40
0.9645689953
 40
0.9709993886
 40
0.9771541761
 40
0.9830780489
 40
0.9888220012
 40
0.9944424382
 40
1.0
 40
1.0
 40
1.0
 40
1.0
 10
11.2012852874
 20
10.1911936786
 30
0.0
 10
11.2063152181
 20
10.1908448517
 30
0.0
 10
11.2164369556
 20
10.1902237261
 30
0.0
 10
11.2317003112
 20
10.1895226877
 30
0.0
 10
11.2470939807
 20
10.1890485795
 30
0.0
 10
11.2625672283
 20
10.1888029083
 30
0.0
 10
11.2780695685
 20
10.1887865244
 30
0.0
 10
11.2935501163
 20
10.1889994707
 30
0.0
 10
11.3089581687
 20
10.1894410441
 30
0.0
 10
11.3242432366
 20
10.1901097835
 30
0.0
 10
11.3393552388
 20
10.1910034801
 30
0.0
 10
11.3542446652
 20
10.1921191856
 30
0.0
 10
11.3688627382
 20
10.193453221
 30
0.0
 10
11.383161581
 20
10.1950011739
 30
0.0
 10
11.3970943753
 20
10.1967579249
 30
0.0
 10
11.4106155142
 20
10.1987176651
 30
0.0
 10
11.4236807526
 20
10.2008739135
 30
0.0
 10
11.4362473619
 20
10.2032195413
 30
0.0
 10
11.4482742827
 20
10.2057467777
 30
0.0
 10
11.4597222753
 20
10.2084472489
 30
0.0
 10
11.4705540293
 20
10.2113120107
 30
0.0
 10
11.4807343931
 20
10.2143315802
 30
0.0
 10
11.4902302128
 20
10.2174959904
 30
0.0
 10
11.4976736327
 20
10.2202922052
 30
0.0
 10
11.5032549295
 20
10.2226018837
 30
0.0
 10
11.5071767752
 20
10.224333229
 30
0.0
 10
11.5109056064
 20
10.2260928162
 30
0.0
 10
11.514438394
 20
10.2278793
 30
0.0
 10
11.5177722901
 20
10.2296912106
 30
0.0
 10
11.5209046274
 20
10.2315270679
 30
0.0
 10
11.5238328617
 20
10.2333854787
 30
0.0
 10
11.526554695
 20
10.2352649004
 30
0.0
 10
11.5290679251
 20
10.2371639462
 30
0.0
 10
11.5313705606
 20
10.2390811526
 30
0.0
 10
11.5334607844
 20
10.2410150774
 30
0.0
 10
11.5353368361
 20
10.2429644068
 30
0.0
 10
11.5369972203
 20
10.2449277021
 30
0.0
 10
11.5384403885
 20
10.246903709
 30
0.0
 10
11.539664945
 20
10.2488910681
 30
0.0
 10
11.5406695429
 20
10.2508883975
 30
0.0
 10
11.5414527191
 20
10.252894217
 30
0.0
 10
11.5420133271
 20
10.2549068421
 30
0.0
 10
11.5423501523
 20
10.2569239834
 30
0.0
 10
11.5424251821
 20
10.2582735398
 30
0.0
 10
11.5424251763
 20
10.258943942
 30
0.0
  0
SPLINE
  5
387
100
AcDbEntity
  8
0
100
AcDbSpline
 62
7
  6
CONTINUOUS
 70
0
 71
3
 72
42
 73
38
 74
0
 42
0.0000001
 43
0.0000001
 44
0.0000000001
 40
0.0
 40
0.0
 40
0.0
 40
0.0
 40
0.0884608535
 40
0.1783500145
 40
0.2683795487
 40
0.3572535208
 40
0.443699559
 40
0.4856279922
 40
0.5264945542
 40
0.5661571668
 40
0.6044799512
 40
0.6413341793
 40
0.6765989314
 40
0.710162627
 40
0.7419242267
 40
0.7717944508
 40
0.7996984386
 40
0.8255781037
 40
0.849395356
 40
0.871138079
 40
0.881238589
 40
0.8908317542
 40
0.8999272318
 40
0.9085387206
 40
0.9166839499
 40
0.9243860132
 40
0.9316742925
 40
0.9385848035
 40
0.9451615303
 40
0.951456963
 40
0.9575317853
 40
0.9634545014
 40
0.9692995887
 40
0.9751447282
 40
0.9810676486
 40
0.9871427154
 40
1.0
 40
1.0
 40
1.0
 40
1.0
 10
11.2973070739
 20
11.0682754249
 30
0.0
 10
11.2932545885
 20
11.0685564657
 30
0.0
 10
11.2850738045
 20
11.0689817754
 30
0.0
 10
11.2727498524
 20
11.0692210883
 30
0.0
 10
11.260405403
 20
11.069066146
 30
0.0
 10
11.2482304329
 20
11.0685192964
 30
0.0
 10
11.2382826402
 20
11.067736697
 30
0.0
 10
11.23055407
 20
11.0669150986
 30
0.0
 10
11.2249741437
 20
11.0662143483
 30
0.0
 10
11.2195732404
 20
11.0654255661
 30
0.0
 10
11.2143721275
 20
11.0645518193
 30
0.0
 10
11.2093908082
 20
11.0635965342
 30
0.0
 10
11.2046484194
 20
11.0625634098
 30
0.0
 10
11.2001631431
 20
11.0614564922
 30
0.0
 10
11.1959521348
 20
11.0602801206
 30
0.0
 10
11.1920314435
 20
11.0590388489
 30
0.0
 10
11.1884159374
 20
11.0577375115
 30
0.0
 10
11.1851191155
 20
11.056381141
 30
0.0
 10
11.1821533955
 20
11.0549748782
 30
0.0
 10
11.1799145224
 20
11.0537370256
 30
0.0
 10
11.1783051419
 20
11.0527209856
 30
0.0
 10
11.17721757
 20
11.0519685839
 30
0.0
 10
11.1762205978
 20
11.0512076955
 30
0.0
 10
11.1753151198
 20
11.0504390114
 30
0.0
 10
11.1745020113
 20
11.0496631519
 30
0.0
 10
11.1737820723
 20
11.0488807351
 30
0.0
 10
11.17315598
 20
11.0480924168
 30
0.0
 10
11.1726244712
 20
11.0472987565
 30
0.0
 10
11.1721882518
 20
11.0465003626
 30
0.0
 10
11.1718479361
 20
11.0456979349
 30
0.0
 10
11.1716042552
 20
11.0448922153
 30
0.0
 10
11.1714578176
 20
11.0440841558
 30
0.0
 10
11.1714089676
 20
11.0432748694
 30
0.0
 10
11.171457922
 20
11.0424656014
 30
0.0
 10
11.1716045945
 20
11.0416574799
 30
0.0
 10
11.1719355812
 20
11.0405631453
 30
0.0
 10
11.1723235035
 20
11.0397765565
 30
0.0
 10
11.1726291334
 20
11.0392713964
 30
0.0
  0
SPLINE
  5
388
100
AcDbEntity
  8
0
100
AcDbSpline
 62
7
  6
CONTINUOUS
 70
0
 71
3
 72
41
 73
37
 74
0
 42
0.0000001
 43
0.0000001
 44
0.0000000001
 40
0.0
 40
0.0
 40
0.0
 40
0.0
 40
0.1050292755
 40
0.2065007053
 40
0.3035205981
 40
0.3500969836
 40
0.3952502603
 40
0.4388864784
 40
0.4809173904
 40
0.5212604807
 40
0.5598404466
 40
0.5965890575
 40
0.6314469502
 40
0.6643646793
 40
0.6953037408
 40
0.7242396614
 40
0.7511635588
 40
0.7760868446
 40
0.7990459244
 40
0.8201087336
 40
0.839385068
 40
0.8570373992
 40
0.8732954382
 40
0.8810010722
 40
0.8884808667
 40
0.8957859143
 40
0.902971613
 40
0.9100963929
 40
0.9172203067
 40
0.9244034737
 40
0.9317043509
 40
0.9391783963
 40
0.946876996
 40
0.9631172608
 40
0.9807481338
 40
1.0
 40
1.0
 40
1.0
 40
1.0
 10
11.2318259096
 20
11.0050254734
 30
0.0
 10
11.2270276263
 20
11.0053582354
 30
0.0
 10
11.2176017546
 20
11.0061389715
 30
0.0
 10
11.2037863656
 20
11.0076846855
 30
0.0
 10
11.1926750474
 20
11.009279003
 30
0.0
 10
11.1841535963
 20
11.0107304037
 30
0.0
 10
11.1780622725
 20
11.0118832112
 30
0.0
 10
11.1721983604
 20
11.0131121993
 30
0.0
 10
11.1665760963
 20
11.0144143474
 30
0.0
 10
11.1612091323
 20
11.0157865005
 30
0.0
 10
11.1561104691
 20
11.0172252335
 30
0.0
 10
11.1512924465
 20
11.0187270555
 30
0.0
 10
11.1467666844
 20
11.0202882777
 30
0.0
 10
11.1425440442
 20
11.0219050572
 30
0.0
 10
11.1386346242
 20
11.0235735309
 30
0.0
 10
11.1350476618
 20
11.0252896154
 30
0.0
 10
11.1317915661
 20
11.0270493185
 30
0.0
 10
11.128873835
 20
11.0288485972
 30
0.0
 10
11.1263010337
 20
11.0306835398
 30
0.0
 10
11.1240789698
 20
11.0325505573
 30
0.0
 10
11.1222125838
 20
11.0344465601
 30
0.0
 10
11.1207069055
 20
11.0363685383
 30
0.0
 10
11.1197400643
 20
11.0380197416
 30
0.0
 10
11.1191662141
 20
11.0393419878
 30
0.0
 10
11.1188364941
 20
11.0403191175
 30
0.0
 10
11.1186003285
 20
11.041298563
 30
0.0
 10
11.118457963
 20
11.0422796231
 30
0.0
 10
11.1184095678
 20
11.0432615095
 30
0.0
 10
11.1184552678
 20
11.0442434113
 30
0.0
 10
11.1185950076
 20
11.0452245014
 30
0.0
 10
11.1188285179
 20
11.0462039969
 30
0.0
 10
11.1191555454
 20
11.0471812176
 30
0.0
 10
11.1197258197
 20
11.0485034859
 30
0.0
 10
11.1206881617
 20
11.0501549363
 30
0.0
 10
11.1221885973
 20
11.0520771008
 30
0.0
 10
11.1233742039
 20
11.053285106
 30
0.0
 10
11.1240196025
 20
11.0538857271
 30
0.0
  0
SPLINE
  5
389
100
AcDbEntity
  8
0
100
AcDbSpline
 62
7
  6
CONTINUOUS
 70
0
 71
3
 72
34
 73
30
 74
0
 42
0.0000001
 43
0.0000001
 44
0.0000000001
 40
0.0
 40
0.0
 40
0.0
 40
0.0
 40
0.095834069
 40
0.1891060315
 40
0.279248508
 40
0.3657194005
 40
0.4480102411
 40
0.4874410728
 40
0.5256544356
 40
0.5625990257
 40
0.5982269242
 40
0.6324941629
 40
0.6653608163
 40
0.6967919092
 40
0.7267573604
 40
0.7552334576
 40
0.7822028083
 40
0.8076565552
 40
0.8315945984
 40
0.854028676
 40
0.8749834269
 40
0.8945008745
 40
0.912643019
 40
0.9294980595
 40
0.9451848923
 40
0.9598600503
 40
0.9737213768
 40
0.9870093128
 40
1.0
 40
1.0
 40
1.0
 40
1.0
 10
11.2238025258
 20
10.9673317769
 30
0.0
 10
11.2190100855
 20
10.9676641338
 30
0.0
 10
11.209560239
 20
10.9684253662
 30
0.0
 10
11.195636432
 20
10.9698784528
 30
0.0
 10
11.1822186388
 20
10.9716197929
 30
0.0
 10
11.1693964978
 20
10.9736375926
 30
0.0
 10
11.1591377292
 20
10.9755643268
 30
0.0
 10
11.1512975567
 20
10.9772413917
 30
0.0
 10
11.1457022004
 20
10.9785414658
 30
0.0
 10
11.1403170003
 20
10.979899506
 30
0.0
 10
11.135150924
 20
10.9813132576
 30
0.0
 10
11.1302125745
 20
10.9827803219
 30
0.0
 10
11.1255101622
 20
10.9842982626
 30
0.0
 10
11.1210514836
 20
10.9858644947
 30
0.0
 10
11.1168439257
 20
10.9874764464
 30
0.0
 10
11.1128944171
 20
10.9891313653
 30
0.0
 10
11.1092094608
 20
10.9908265786
 30
0.0
 10
11.1057950451
 20
10.9925592139
 30
0.0
 10
11.1026567287
 20
10.9943265572
 30
0.0
 10
11.0997994997
 20
10.9961256987
 30
0.0
 10
11.0972279469
 20
10.9979539922
 30
0.0
 10
11.0949460544
 20
10.9998086542
 30
0.0
 10
11.0929575237
 20
11.0016873006
 30
0.0
 10
11.0912655606
 20
11.0035875165
 30
0.0
 10
11.089873454
 20
11.0055073434
 30
0.0
 10
11.0887844087
 20
11.0074445947
 30
0.0
 10
11.0880022405
 20
11.0093971187
 30
0.0
 10
11.0875306826
 20
11.0113607016
 30
0.0
 10
11.0874252277
 20
11.0126802624
 30
0.0
 10
11.0874252051
 20
11.013331457
 30
0.0
  0
SPLINE
  5
38A
100
AcDbEntity
  8
0
100
AcDbSpline
 62
7
  6
CONTINUOUS
 70
0
 71
3
 72
11
 73
7
 74
0
 42
0.0000001
 43
0.0000001
 44
0.0000000001
 40
0.0
 40
0.0
 40
0.0
 40
0.0
 40
0.267970708
 40
0.5243764674
 40
0.7685755363
 40
1.0
 40
1.0
 40
1.0
 40
1.0
 10
11.3216592896
 20
11.0269317829
 30
0.0
 10
11.3228045366
 20
11.0266950698
 30
0.0
 10
11.3250405769
 20
11.0262070156
 30
0.0
 10
11.3282993787
 20
11.0254114176
 30
0.0
 10
11.3313817227
 20
11.0245702599
 30
0.0
 10
11.3333673869
 20
11.0239642204
 30
0.0
 10
11.3343281519
 20
11.0236528443
 30
0.0
  0
SPLINE
  5
38B
100
AcDbEntity
  8
0
100
AcDbSpline
 62
7
  6
CONTINUOUS
 70
0
 71
3
 72
14
 73
10
 74
0
 42
0.0000001
 43
0.0000001
 44
0.0000000001
 40
0.0
 40
0.0
 40
0.0
 40
0.0
 40
0.2562757855
 40
0.3828493888
 40
0.5083137721
 40
0.632681229
 40
0.7559902088
 40
0.878359306
 40
1.0
 40
1.0
 40
1.0
 40
1.0
 10
11.3606535912
 20
11.0367083363
 30
0.0
 10
11.3593075657
 20
11.0354643479
 30
0.0
 10
11.3572409992
 20
11.0336638722
 30
0.0
 10
11.3543668656
 20
11.0314364729
 30
0.0
 10
11.3521681254
 20
11.0298815631
 30
0.0
 10
11.349914262
 20
11.0284503644
 30
0.0
 10
11.3476012543
 20
11.0271608518
 30
0.0
 10
11.3452265203
 20
11.0260329853
 30
0.0
 10
11.3435968579
 20
11.0254027016
 30
0.0
 10
11.3427730276
 20
11.0251232024
 30
0.0
  0
SPLINE
  5
38C
100
AcDbEntity
  8
0
100
AcDbSpline
 62
7
  6
CONTINUOUS
 70
0
 71
3
 72
15
 73
11
 74
0
 42
0.0000001
 43
0.0000001
 44
0.0000000001
 40
0.0
 40
0.0
 40
0.0
 40
0.0
 40
0.1256687859
 40
0.2512870891
 40
0.3768043812
 40
0.5021698844
 40
0.627299989
 40
0.7520822986
 40
0.8763698797
 40
1.0
 40
1.0
 40
1.0
 40
1.0
 10
11.2953338503
 20
11.0536143079
 30
0.0
 10
11.2940254779
 20
11.0523904879
 30
0.0
 10
11.291371874
 20
11.0499828242
 30
0.0
 10
11.287266998
 20
11.0465159955
 30
0.0
 10
11.2830242537
 20
11.0432254773
 30
0.0
 10
11.2786300922
 20
11.0401509482
 30
0.0
 10
11.2740726587
 20
11.0373421419
 30
0.0
 10
11.2693450526
 20
11.0348599099
 30
0.0
 10
11.264451039
 20
11.0327754172
 30
0.0
 10
11.2610775209
 20
11.0316982208
 30
0.0
 10
11.2593726415
 20
11.0312513767
 30
0.0
  0
SPLINE
  5
38D
100
AcDbEntity
  8
0
100
AcDbSpline
 62
7
  6
CONTINUOUS
 70
0
 71
3
 72
13
 73
9
 74
0
 42
0.0000001
 43
0.0000001
 44
0.0000000001
 40
0.0
 40
0.0
 40
0.0
 40
0.0
 40
0.2689979188
 40
0.5279154477
 40
0.6525431987
 40
0.7732198397
 40
0.8892932943
 40
1.0
 40
1.0
 40
1.0
 40
1.0
 10
11.2061054499
 20
11.0474262863
 30
0.0
 10
11.2056250131
 20
11.0454094225
 30
0.0
 10
11.2046513895
 20
11.0414585006
 30
0.0
 10
11.2033469465
 20
11.0366005502
 30
0.0
 10
11.2022580793
 20
11.0328697724
 30
0.0
 10
11.2014319621
 20
11.0302096137
 30
0.0
 10
11.2005853548
 20
11.0276687245
 30
0.0
 10
11.1999913813
 20
11.0260245419
 30
0.0
 10
11.1996887332
 20
11.0252267488
 30
0.0
  0
SPLINE
  5
38E
100
AcDbEntity
  8
0
100
AcDbSpline
 62
7
  6
CONTINUOUS
 70
0
 71
3
 72
49
 73
45
 74
0
 42
0.0000001
 43
0.0000001
 44
0.0000000001
 40
0.0
 40
0.0
 40
0.0
 40
0.0
 40
0.0055575561
 40
0.011178
 40
0.0169219709
 40
0.0228458719
 40
0.0290006951
 40
0.0354311301
 40
0.0421756067
 40
0.0492665211
 40
0.0567305888
 40
0.0645897693
 40
0.0728614966
 40
0.0815595734
 40
0.0906945933
 40
0.1002742275
 40
0.110303981
 40
0.1207870571
 40
0.1317249904
 40
0.1431177433
 40
0.1549637383
 40
0.1672603865
 40
0.1931877124
 40
0.2208592034
 40
0.2502193543
 40
0.2812013029
 40
0.3137285133
 40
0.3477159793
 40
0.3830712314
 40
0.4196952153
 40
0.4574829455
 40
0.4963243121
 40
0.5361046599
 40
0.5767053652
 40
0.6180044416
 40
0.6598769941
 40
0.702195859
 40
0.7448321077
 40
0.7876555078
 40
0.830535108
 40
0.8733399423
 40
0.9159382647
 40
0.9582023528
 40
1.0
 40
1.0
 40
1.0
 40
1.0
 10
11.5369251767
 20
10.4738620417
 30
0.0
 10
11.5369251675
 20
10.4732052469
 30
0.0
 10
11.5368516308
 20
10.471883083
 30
0.0
 10
11.5365215985
 20
10.4699068872
 30
0.0
 10
11.5359723268
 20
10.4679351162
 30
0.0
 10
11.5352050058
 20
10.4659700129
 30
0.0
 10
11.5342207585
 20
10.4640132277
 30
0.0
 10
11.5330210184
 20
10.4620662107
 30
0.0
 10
11.5316071048
 20
10.4601303157
 30
0.0
 10
11.5299803854
 20
10.4582068744
 30
0.0
 10
11.5281423771
 20
10.4562971156
 30
0.0
 10
11.5260945448
 20
10.4544024489
 30
0.0
 10
11.5238386136
 20
10.4525241616
 30
0.0
 10
11.5213763634
 20
10.4506636664
 30
0.0
 10
11.5187097454
 20
10.4488223971
 30
0.0
 10
11.515840917
 20
10.4470017124
 30
0.0
 10
11.5127721292
 20
10.4452031235
 30
0.0
 10
11.5095058751
 20
10.4434279953
 30
0.0
 10
11.5060447679
 20
10.4416777781
 30
0.0
 10
11.5023915977
 20
10.4399539116
 30
0.0
 10
11.4985493317
 20
10.438257714
 30
0.0
 10
11.493081291
 20
10.4359949242
 30
0.0
 10
11.4857889198
 20
10.4332554756
 30
0.0
 10
11.4764858042
 20
10.4301553065
 30
0.0
 10
11.4665120442
 20
10.4271970386
 30
0.0
 10
11.4559001199
 20
10.4243904355
 30
0.0
 10
11.4446844696
 20
10.421744789
 30
0.0
 10
11.4329016466
 20
10.4192688602
 30
0.0
 10
11.4205900928
 20
10.4169708537
 30
0.0
 10
11.4077900357
 20
10.4148583824
 30
0.0
 10
11.3945433348
 20
10.4129384299
 30
0.0
 10
11.3808933377
 20
10.4112173464
 30
0.0
 10
11.3668847256
 20
10.4097008217
 30
0.0
 10
11.3525633649
 20
10.4083938721
 30
0.0
 10
11.3379761621
 20
10.4073008202
 30
0.0
 10
11.3231709027
 20
10.4064252699
 30
0.0
 10
11.3081960927
 20
10.4057701104
 30
0.0
 10
11.2931007963
 20
10.4053375047
 30
0.0
 10
11.2779344766
 20
10.4051288848
 30
0.0
 10
11.2627468084
 20
10.4051449394
 30
0.0
 10
11.2475876423
 20
10.4053856263
 30
0.0
 10
11.2325064394
 20
10.4058501128
 30
0.0
 10
11.2175529052
 20
10.4065369223
 30
0.0
 10
11.2076366223
 20
10.4071454403
 30
0.0
 10
11.202708791
 20
10.4074871866
 30
0.0
  0
SPLINE
  5
38F
100
AcDbEntity
  8
0
100
AcDbSpline
 62
7
  6
CONTINUOUS
 70
0
 71
3
 72
33
 73
29
 74
0
 42
0.0000001
 43
0.0000001
 44
0.0000000001
 40
0.0
 40
0.0
 40
0.0
 40
0.0
 40
0.0148673416
 40
0.0310578171
 40
0.0486192383
 40
0.067577568
 40
0.0879414662
 40
0.1097057525
 40
0.1328541851
 40
0.1573611941
 40
0.1831932138
 40
0.2103099991
 40
0.2386653826
 40
0.2682078282
 40
0.2988811949
 40
0.3306251789
 40
0.3633755891
 40
0.3970648556
 40
0.4316223812
 40
0.4669747324
 40
0.503046001
 40
0.5397581358
 40
0.6147815518
 40
0.6913883059
 40
0.7689014148
 40
0.8466335252
 40
0.9238939513
 40
1.0
 40
1.0
 40
1.0
 40
1.0
 10
11.5272166729
 20
10.470904458
 30
0.0
 10
11.5260081407
 20
10.4697798035
 30
0.0
 10
11.5233678762
 20
10.4675531435
 30
0.0
 10
11.5189766
 20
10.464405344
 30
0.0
 10
11.5140000813
 20
10.4613173165
 30
0.0
 10
11.5084498118
 20
10.4582961086
 30
0.0
 10
11.5023381185
 20
10.4553483102
 30
0.0
 10
11.4956790248
 20
10.4524807212
 30
0.0
 10
11.4884878959
 20
10.4497000703
 30
0.0
 10
11.4807814912
 20
10.4470129621
 30
0.0
 10
11.4725778887
 20
10.4444257696
 30
0.0
 10
11.4638963959
 20
10.4419446899
 30
0.0
 10
11.4547575026
 20
10.4395756859
 30
0.0
 10
11.4451828377
 20
10.437324409
 30
0.0
 10
11.4351950857
 20
10.4351962603
 30
0.0
 10
11.424817929
 20
10.4331963659
 30
0.0
 10
11.4140760045
 20
10.4313294978
 30
0.0
 10
11.4029948264
 20
10.429600127
 30
0.0
 10
11.3916007176
 20
10.4280124186
 30
0.0
 10
11.3799207683
 20
10.426570167
 30
0.0
 10
11.3679827263
 20
10.4252767916
 30
0.0
 10
11.3516414337
 20
10.4237440313
 30
0.0
 10
11.3307799572
 20
10.4222284698
 30
0.0
 10
11.3053600836
 20
10.4210547743
 30
0.0
 10
11.2796178018
 20
10.4205247191
 30
0.0
 10
11.2537977543
 20
10.4206434413
 30
0.0
 10
11.228145258
 20
10.4214097504
 30
0.0
 10
11.2111394002
 20
10.422357336
 30
0.0
 10
11.202708791
 20
10.4229420007
 30
0.0
  0
SPLINE
  5
390
100
AcDbEntity
  8
0
100
AcDbSpline
 62
7
  6
CONTINUOUS
 70
0
 71
3
 72
37
 73
33
 74
0
 42
0.0000001
 43
0.0000001
 44
0.0000000001
 40
0.0
 40
0.0
 40
0.0
 40
0.0
 40
0.0064814274
 40
0.0130004472
 40
0.0195939388
 40
0.0262974101
 40
0.0401584064
 40
0.0548330609
 40
0.0705195294
 40
0.0873739694
 40
0.105515702
 40
0.1250324965
 40
0.145986736
 40
0.1684201415
 40
0.1923575842
 40
0.2178106798
 40
0.2447793933
 40
0.2732547555
 40
0.303219541
 40
0.3346498594
 40
0.367515858
 40
0.4017822691
 40
0.4374094691
 40
0.4743532132
 40
0.5125658152
 40
0.5519958627
 40
0.5925889066
 40
0.6342875977
 40
0.7207567698
 40
0.8108976487
 40
0.9041674324
 40
1.0
 40
1.0
 40
1.0
 40
1.0
 10
11.0059252049
 20
10.4738622298
 30
0.0
 10
11.0059251984
 20
10.4733934094
 30
0.0
 10
11.0059624542
 20
10.4724526266
 30
0.0
 10
11.0061299879
 20
10.471043904
 30
0.0
 10
11.0064090857
 20
10.4696365117
 30
0.0
 10
11.0069352283
 20
10.4677422382
 30
0.0
 10
11.0078863021
 20
10.4653676331
 30
0.0
 10
11.0094575393
 20
10.4625725083
 30
0.0
 10
11.0114662914
 20
10.4598022841
 30
0.0
 10
11.0139075664
 20
10.4570603364
 30
0.0
 10
11.0167768942
 20
10.4543496044
 30
0.0
 10
11.0200694417
 20
10.4516733796
 30
0.0
 10
11.023780013
 20
10.44903529
 30
0.0
 10
11.0279027646
 20
10.4464391998
 30
0.0
 10
11.0324311344
 20
10.4438890355
 30
0.0
 10
11.0373578941
 20
10.4413889238
 30
0.0
 10
11.0426750365
 20
10.4389428319
 30
0.0
 10
11.0483739088
 20
10.4365548593
 30
0.0
 10
11.0544451406
 20
10.4342289178
 30
0.0
 10
11.060878723
 20
10.431968905
 30
0.0
 10
11.0676640094
 20
10.4297786222
 30
0.0
 10
11.0747897361
 20
10.4276616996
 30
0.0
 10
11.082244065
 20
10.4256217555
 30
0.0
 10
11.0900145792
 20
10.4236621538
 30
0.0
 10
11.0980883333
 20
10.4217862439
 30
0.0
 10
11.1064518564
 20
10.419997152
 30
0.0
 10
11.1150912049
 20
10.4182978709
 30
0.0
 10
11.1271044734
 20
10.4161295779
 30
0.0
 10
11.1427057459
 20
10.4136745883
 30
0.0
 10
11.162066696
 20
10.4111618973
 30
0.0
 10
11.1821579835
 20
10.4090651754
 30
0.0
 10
11.1957935529
 20
10.40796676
 30
0.0
 10
11.202708791
 20
10.4074871866
 30
0.0
  0
SPLINE
  5
391
100
AcDbEntity
  8
0
100
AcDbSpline
 62
7
  6
CONTINUOUS
 70
0
 71
3
 72
30
 73
26
 74
0
 42
0.0000001
 43
0.0000001
 44
0.0000000001
 40
0.0
 40
0.0
 40
0.0
 40
0.0
 40
0.0165871508
 40
0.0341539163
 40
0.0527305569
 40
0.072339047
 40
0.0929938597
 40
0.1147033716
 40
0.1374707268
 40
0.1612943109
 40
0.1861688613
 40
0.2120852048
 40
0.2390315627
 40
0.2669928853
 40
0.2959521118
 40
0.32588951
 40
0.3886086511
 40
0.4549580014
 40
0.524716658
 40
0.5976412865
 40
0.6734688494
 40
0.75191969
 40
0.8326981344
 40
0.9154986062
 40
1.0
 40
1.0
 40
1.0
 40
1.0
 10
11.0103348355
 20
10.4758356297
 30
0.0
 10
11.0111428886
 20
10.4750836529
 30
0.0
 10
11.0128567888
 20
10.4735884881
 30
0.0
 10
11.0156264167
 20
10.4714314004
 30
0.0
 10
11.0186641329
 20
10.4692989138
 30
0.0
 10
11.0219667563
 20
10.4671932973
 30
0.0
 10
11.0255309484
 20
10.4651165666
 30
0.0
 10
11.029353062
 20
10.4630708443
 30
0.0
 10
11.0334291794
 20
10.4610582436
 30
0.0
 10
11.0377550819
 20
10.4590808021
 30
0.0
 10
11.0423263071
 20
10.4571406438
 30
0.0
 10
11.0471380877
 20
10.4552397174
 30
0.0
 10
11.0521854321
 20
10.4533801023
 30
0.0
 10
11.0574630566
 20
10.4515636729
 30
0.0
 10
11.0629654663
 20
10.4497923935
 30
0.0
 10
11.0707147382
 20
10.4474570394
 30
0.0
 10
11.0809258636
 20
10.444674467
 30
0.0
 10
11.0937951946
 20
10.4415930139
 30
0.0
 10
11.1074100678
 20
10.4387326541
 30
0.0
 10
11.1217134112
 20
10.4361055418
 30
0.0
 10
11.1366453995
 20
10.4337228608
 30
0.0
 10
11.1521433838
 20
10.4315947688
 30
0.0
 10
11.1681424614
 20
10.4297302739
 30
0.0
 10
11.1845753048
 20
10.4281373556
 30
0.0
 10
11.1956754727
 20
10.4272686361
 30
0.0
 10
11.2012852874
 20
10.4268795941
 30
0.0
  0
SPLINE
  5
392
100
AcDbEntity
  8
0
100
AcDbSpline
 62
7
  6
CONTINUOUS
 70
0
 71
3
 72
30
 73
26
 74
0
 42
0.0000001
 43
0.0000001
 44
0.0000000001
 40
0.0
 40
0.0
 40
0.0
 40
0.0
 40
0.0165871532
 40
0.0341539258
 40
0.0527305741
 40
0.0723390666
 40
0.0929938789
 40
0.1147033948
 40
0.1374707583
 40
0.1612943465
 40
0.1861688944
 40
0.212085237
 40
0.2390316012
 40
0.2669929299
 40
0.295952154
 40
0.3258895472
 40
0.388608696
 40
0.4549580398
 40
0.524716696
 40
0.5976413212
 40
0.6734688758
 40
0.7519197151
 40
0.8326981475
 40
0.9154986155
 40
1.0
 40
1.0
 40
1.0
 40
1.0
 10
11.0156337325
 20
10.4709044492
 30
0.0
 10
11.0164253863
 20
10.4701677343
 30
0.0
 10
11.0181045035
 20
10.4687029146
 30
0.0
 10
11.0208179227
 20
10.466589606
 30
0.0
 10
11.023793989
 20
10.464500399
 30
0.0
 10
11.0270295855
 20
10.462437517
 30
0.0
 10
11.030521442
 20
10.4604029348
 30
0.0
 10
11.0342659859
 20
10.4583987316
 30
0.0
 10
11.0382593784
 20
10.4564269774
 30
0.0
 10
11.0424974863
 20
10.4544896689
 30
0.0
 10
11.0469759372
 20
10.4525888872
 30
0.0
 10
11.0516900618
 20
10.4507265413
 30
0.0
 10
11.0566349697
 20
10.4489046679
 30
0.0
 10
11.0618054839
 20
10.4471251037
 30
0.0
 10
11.0671962205
 20
10.4453897733
 30
0.0
 10
11.0747882188
 20
10.4431018165
 30
0.0
 10
11.0847921061
 20
10.440375718
 30
0.0
 10
11.0974002503
 20
10.4373568043
 30
0.0
 10
11.1107388049
 20
10.4345544973
 30
0.0
 10
11.1247518568
 20
10.4319807033
 30
0.0
 10
11.1393807951
 20
10.4296463802
 30
0.0
 10
11.1545642416
 20
10.4275614788
 30
0.0
 10
11.1702386119
 20
10.4257348248
 30
0.0
 10
11.1863379441
 20
10.4241742354
 30
0.0
 10
11.1972128298
 20
10.4233231469
 30
0.0
 10
11.202708791
 20
10.4229420007
 30
0.0
  0
SPLINE
  5
393
100
AcDbEntity
  8
0
100
AcDbSpline
 62
7
  6
CONTINUOUS
 70
0
 71
3
 72
34
 73
30
 74
0
 42
0.0000001
 43
0.0000001
 44
0.0000000001
 40
0.0
 40
0.0
 40
0.0
 40
0.0
 40
0.0958344275
 40
0.1891066978
 40
0.2792494728
 40
0.3657205993
 40
0.4480115938
 40
0.4874425238
 40
0.5256559504
 40
0.5626005565
 40
0.5982284574
 40
0.6324956998
 40
0.6653623521
 40
0.6967934219
 40
0.7267588051
 40
0.7552348081
 40
0.7822040799
 40
0.8076577476
 40
0.8315956711
 40
0.8540296001
 40
0.8749842029
 40
0.8945015074
 40
0.9126435124
 40
0.9294984119
 40
0.9451851014
 40
0.959860139
 40
0.9737213911
 40
0.9870092968
 40
1.0
 40
1.0
 40
1.0
 40
1.0
 10
11.2238025258
 20
10.7384073425
 30
0.0
 10
11.2190100548
 20
10.7387397015
 30
0.0
 10
11.20956015
 20
10.7395009393
 30
0.0
 10
11.1956362583
 20
10.7409540379
 30
0.0
 10
11.1822183884
 20
10.7426953936
 30
0.0
 10
11.1693961806
 20
10.7447132119
 30
0.0
 10
11.1591373625
 20
10.746639965
 30
0.0
 10
11.1512971556
 20
10.7483170467
 30
0.0
 10
11.1457017774
 20
10.7496171334
 30
0.0
 10
11.1403165612
 20
10.7509751867
 30
0.0
 10
11.1351504727
 20
10.7523889517
 30
0.0
 10
11.1302121128
 20
10.7538560301
 30
0.0
 10
11.1255096928
 20
10.7553739861
 30
0.0
 10
11.1210510111
 20
10.7569402335
 30
0.0
 10
11.1168434559
 20
10.7585521996
 30
0.0
 10
11.1128939543
 20
10.7602071335
 30
0.0
 10
11.1092090076
 20
10.7619023631
 30
0.0
 10
11.1057946043
 20
10.7636350146
 30
0.0
 10
11.1026563057
 20
10.7654023736
 30
0.0
 10
11.0997991005
 20
10.7672015307
 30
0.0
 10
11.0972275752
 20
10.7690298394
 30
0.0
 10
11.0949457132
 20
10.7708845173
 30
0.0
 10
11.0929572174
 20
10.7727631805
 30
0.0
 10
11.0912652934
 20
10.7746634121
 30
0.0
 10
11.0898732308
 20
10.7765832539
 30
0.0
 10
11.0887842349
 20
10.7785205206
 30
0.0
 10
11.0880021199
 20
10.7804730601
 30
0.0
 10
11.0875306192
 20
10.782436658
 30
0.0
 10
11.0874252063
 20
10.7837562251
 30
0.0
 10
11.0874252049
 20
10.7844074222
 30
0.0
  0
SPLINE
  5
394
100
AcDbEntity
  8
0
100
AcDbSpline
 62
7
  6
CONTINUOUS
 70
0
 71
3
 72
45
 73
41
 74
0
 42
0.0000001
 43
0.0000001
 44
0.0000000001
 40
0.0
 40
0.0
 40
0.0
 40
0.0
 40
0.0179860398
 40
0.0345394621
 40
0.0423650097
 40
0.0499391415
 40
0.0573071281
 40
0.064518695
 40
0.0716272536
 40
0.0786887396
 40
0.0857603511
 40
0.0928989918
 40
0.1001598639
 40
0.1075951821
 40
0.1152531235
 40
0.1231774116
 40
0.1314069296
 40
0.1399756054
 40
0.1582369108
 40
0.1781560967
 40
0.1998629276
 40
0.2234427855
 40
0.2489467216
 40
0.2763992411
 40
0.3058033747
 40
0.3371450858
 40
0.3703964991
 40
0.4055176415
 40
0.4424585117
 40
0.4811605501
 40
0.5215572102
 40
0.5635751831
 40
0.6071351986
 40
0.6521522336
 40
0.6985363188
 40
0.7461931507
 40
0.7950244642
 40
0.8449275078
 40
0.8957967846
 40
1.0
 40
1.0
 40
1.0
 40
1.0
 10
11.0307143054
 20
10.5753837022
 30
0.0
 10
11.0298160825
 20
10.5744227141
 30
0.0
 10
11.0281818844
 20
10.5724885972
 30
0.0
 10
11.02648682
 20
10.5698825704
 30
0.0
 10
11.0254385057
 20
10.5677916741
 30
0.0
 10
11.024810711
 20
10.5662474376
 30
0.0
 10
11.02432742
 20
10.5646989089
 30
0.0
 10
11.0239891675
 20
10.5631470576
 30
0.0
 10
11.0237963013
 20
10.5615930145
 30
0.0
 10
11.0237491459
 20
10.5600379504
 30
0.0
 10
11.0238477838
 20
10.5584831093
 30
0.0
 10
11.0240919954
 20
10.5569297051
 30
0.0
 10
11.024481524
 20
10.5553789039
 30
0.0
 10
11.0250159149
 20
10.5538317929
 30
0.0
 10
11.0256945266
 20
10.5522893143
 30
0.0
 10
11.026516783
 20
10.5507523858
 30
0.0
 10
11.0274820308
 20
10.5492218063
 30
0.0
 10
11.0289906966
 20
10.5471465994
 30
0.0
 10
11.0312539561
 20
10.5445732884
 30
0.0
 10
11.0344696801
 20
10.5415909753
 30
0.0
 10
11.0382339393
 20
10.5386550853
 30
0.0
 10
11.0425381923
 20
10.5357712641
 30
0.0
 10
11.0473732923
 20
10.532945085
 30
0.0
 10
11.0527286523
 20
10.5301826688
 30
0.0
 10
11.0585923557
 20
10.5274901211
 30
0.0
 10
11.0649511753
 20
10.5248735677
 30
0.0
 10
11.0717906489
 20
10.5223390962
 30
0.0
 10
11.0790950825
 20
10.5198925871
 30
0.0
 10
11.0868476417
 20
10.5175397574
 30
0.0
 10
11.095030409
 20
10.5152861648
 30
0.0
 10
11.1036244083
 20
10.5131370795
 30
0.0
 10
11.1126096808
 20
10.5110975477
 30
0.0
 10
11.1219653417
 20
10.5091723965
 30
0.0
 10
11.1316696109
 20
10.5073661294
 30
0.0
 10
11.141699883
 20
10.5056829876
 30
0.0
 10
11.1520328109
 20
10.5041269493
 30
0.0
 10
11.1626442705
 20
10.5027016668
 30
0.0
 10
11.1735095169
 20
10.5014104507
 30
0.0
 10
11.1884203229
 20
10.4998593594
 30
0.0
 10
11.1997250038
 20
10.4989262733
 30
0.0
 10
11.2073276494
 20
10.498399028
 30
0.0
  0
SPLINE
  5
395
100
AcDbEntity
  8
0
100
AcDbSpline
 62
7
  6
CONTINUOUS
 70
0
 71
3
 72
33
 73
29
 74
0
 42
0.0000001
 43
0.0000001
 44
0.0000000001
 40
0.0
 40
0.0
 40
0.0
 40
0.0
 40
0.0958636214
 40
0.1891530493
 40
0.279301936
 40
0.3657706659
 40
0.448052582
 40
0.5256801658
 40
0.5626167084
 40
0.5982360829
 40
0.6324945795
 40
0.6653525045
 40
0.6967749849
 40
0.7267323007
 40
0.7552007638
 40
0.7821634825
 40
0.80761149
 40
0.8315451787
 40
0.8539760956
 40
0.8749294894
 40
0.8944471481
 40
0.9125916108
 40
0.9294507593
 40
0.9451438699
 40
0.9598270913
 40
0.9736983231
 40
0.9869974097
 40
1.0
 40
1.0
 40
1.0
 40
1.0
 10
11.3108256116
 20
10.7466795445
 30
0.0
 10
11.3147493925
 20
10.746954044
 30
0.0
 10
11.3224858844
 20
10.7475819003
 30
0.0
 10
11.3338843659
 20
10.7487782317
 30
0.0
 10
11.3448671953
 20
10.7502101429
 30
0.0
 10
11.3553613727
 20
10.7518679114
 30
0.0
 10
11.3652971564
 20
10.7537403213
 30
0.0
 10
11.3731825469
 20
10.7554967117
 30
0.0
 10
11.3791570438
 20
10.7570073139
 30
0.0
 10
11.3833838646
 20
10.7581669795
 30
0.0
 10
11.3874242132
 20
10.7593701764
 30
0.0
 10
11.3912714008
 20
10.7606149248
 30
0.0
 10
11.3949190625
 20
10.7618991286
 30
0.0
 10
11.3983611823
 20
10.7632206514
 30
0.0
 10
11.401592102
 20
10.7645772938
 30
0.0
 10
11.4046065374
 20
10.7659668119
 30
0.0
 10
11.4073995837
 20
10.767386933
 30
0.0
 10
11.409966738
 20
10.7688353522
 30
0.0
 10
11.4123038913
 20
10.7703097936
 30
0.0
 10
11.4144073588
 20
10.7718079859
 30
0.0
 10
11.4162738236
 20
10.7733277775
 30
0.0
 10
11.4179003531
 20
10.7748670961
 30
0.0
 10
11.4192842239
 20
10.7764240963
 30
0.0
 10
11.4204228794
 20
10.7779970513
 30
0.0
 10
11.4213135537
 20
10.7795842887
 30
0.0
 10
11.4219533069
 20
10.7811839472
 30
0.0
 10
11.4223389012
 20
10.7827926589
 30
0.0
 10
11.4224251885
 20
10.7838736921
 30
0.0
 10
11.4224251852
 20
10.7844072001
 30
0.0
  0
SPLINE
  5
396
100
AcDbEntity
  8
0
100
AcDbSpline
 62
7
  6
CONTINUOUS
 70
0
 71
3
 72
27
 73
23
 74
0
 42
0.0000001
 43
0.0000001
 44
0.0000000001
 40
0.0
 40
0.0
 40
0.0
 40
0.0
 40
0.0689657602
 40
0.1329291697
 40
0.1924442818
 40
0.2482308931
 40
0.3011914622
 40
0.3269612087
 40
0.3524387366
 40
0.3777767448
 40
0.4031307638
 40
0.428656038
 40
0.4545043152
 40
0.5077084529
 40
0.563839756
 40
0.5932995938
 40
0.623806933
 40
0.6882614287
 40
0.7577666569
 40
0.8327184627
 40
0.9133999776
 40
1.0
 40
1.0
 40
1.0
 40
1.0
 10
11.4641116587
 20
10.5464423269
 30
0.0
 10
11.4648351094
 20
10.5471155727
 30
0.0
 10
11.4661800518
 20
10.5484684193
 30
0.0
 10
11.4679346117
 20
10.5506017825
 30
0.0
 10
11.4693432738
 20
10.5527570608
 30
0.0
 10
11.4704015165
 20
10.5549313051
 30
0.0
 10
11.4709930309
 20
10.556774191
 30
0.0
 10
11.4712797628
 20
10.5582410326
 30
0.0
 10
11.4714041505
 20
10.559332624
 30
0.0
 10
11.4714395306
 20
10.5604247285
 30
0.0
 10
11.4713858654
 20
10.5615167714
 30
0.0
 10
11.4712431905
 20
10.5626081701
 30
0.0
 10
11.4709317315
 20
10.5640753817
 30
0.0
 10
11.4703091027
 20
10.5659178705
 30
0.0
 10
11.4694115491
 20
10.567699376
 30
0.0
 10
11.4685298417
 20
10.5691110555
 30
0.0
 10
11.4674987201
 20
10.570566672
 30
0.0
 10
11.4659801178
 20
10.5723746782
 30
0.0
 10
11.463848272
 20
10.574481295
 30
0.0
 10
11.4613782613
 20
10.5765612728
 30
0.0
 10
11.4585744515
 20
10.5786113465
 30
0.0
 10
11.456557822
 20
10.5799098139
 30
0.0
 10
11.4554980114
 20
10.5805553692
 30
0.0
  0
SPLINE
  5
397
100
AcDbEntity
  8
0
100
AcDbSpline
 62
7
  6
CONTINUOUS
 70
0
 71
3
 72
11
 73
7
 74
0
 42
0.0000001
 43
0.0000001
 44
0.0000000001
 40
0.0
 40
0.0
 40
0.0
 40
0.0
 40
0.2596089239
 40
0.5110825559
 40
0.7569651394
 40
1.0
 40
1.0
 40
1.0
 40
1.0
 10
11.0886741018
 20
10.5393184991
 30
0.0
 10
11.0884700863
 20
10.539769402
 30
0.0
 10
11.0881094711
 20
10.5406764949
 30
0.0
 10
11.0877150494
 20
10.5420672974
 30
0.0
 10
11.0874780258
 20
10.5434614904
 30
0.0
 10
11.0874252106
 20
10.5443943746
 30
0.0
 10
11.0874252052
 20
10.5448576882
 30
0.0
  0
SPLINE
  5
398
100
AcDbEntity
  8
0
100
AcDbSpline
 62
7
  6
CONTINUOUS
 70
0
 71
3
 72
54
 73
50
 74
0
 42
0.0000001
 43
0.0000001
 44
0.0000000001
 40
0.0
 40
0.0
 40
0.0
 40
0.0
 40
0.0449394393
 40
0.0904235351
 40
0.1362734697
 40
0.1823119765
 40
0.2283588065
 40
0.2742345164
 40
0.3197602336
 40
0.3647589289
 40
0.4090562502
 40
0.4524814241
 40
0.4948682605
 40
0.5360560462
 40
0.575890607
 40
0.6142253265
 40
0.6509223101
 40
0.6858536787
 40
0.7189030072
 40
0.7346896952
 40
0.7499684829
 40
0.7647287882
 40
0.7789614381
 40
0.7926583176
 40
0.8058128336
 40
0.8184199131
 40
0.8304761754
 40
0.8419803977
 40
0.8529334035
 40
0.8633389317
 40
0.8732035129
 40
0.8825375523
 40
0.8913555449
 40
0.8996771483
 40
0.9075280007
 40
0.914940698
 40
0.9219560982
 40
0.9286239745
 40
0.9350039895
 40
0.94116529
 40
0.9471856292
 40
0.9531488238
 40
0.9591413491
 40
0.9652482946
 40
0.9715496985
 40
0.9781176483
 40
0.9850149666
 40
0.9922945171
 40
1.0
 40
1.0
 40
1.0
 40
1.0
 10
11.2073276494
 20
10.498399028
 30
0.0
 10
11.2125236546
 20
10.4980386838
 30
0.0
 10
11.2229853715
 20
10.4974075497
 30
0.0
 10
11.2387656628
 20
10.4967297762
 30
0.0
 10
11.2546825659
 20
10.4963169128
 30
0.0
 10
11.270669351
 20
10.4961706619
 30
0.0
 10
11.2866593382
 20
10.496291669
 30
0.0
 10
11.3025856388
 20
10.4966794069
 30
0.0
 10
11.3183817125
 20
10.4973322481
 30
0.0
 10
11.3339815404
 20
10.4982474353
 30
0.0
 10
11.3493199375
 20
10.4994211079
 30
0.0
 10
11.364332823
 20
10.5008483109
 30
0.0
 10
11.3789574908
 20
10.5025230145
 30
0.0
 10
11.3931328814
 20
10.50443814
 30
0.0
 10
11.4067998434
 20
10.5065855883
 30
0.0
 10
11.4199013763
 20
10.5089562739
 30
0.0
 10
11.4323829472
 20
10.5115401507
 30
0.0
 10
11.4441925071
 20
10.5143263035
 30
0.0
 10
11.4535710805
 20
10.5168436985
 30
0.0
 10
11.4606953485
 20
10.5189575673
 30
0.0
 10
11.4657588297
 20
10.5205618154
 30
0.0
 10
11.4706192245
 20
10.5222075218
 30
0.0
 10
11.475271495
 20
10.5238929223
 30
0.0
 10
11.4797108037
 20
10.5256162943
 30
0.0
 10
11.4839325527
 20
10.5273758205
 30
0.0
 10
11.4879323807
 20
10.5291696579
 30
0.0
 10
11.4917061497
 20
10.5309959887
 30
0.0
 10
11.4952500069
 20
10.5328528607
 30
0.0
 10
11.4985602933
 20
10.5347384661
 30
0.0
 10
11.5016336801
 20
10.5366507983
 30
0.0
 10
11.5044670103
 20
10.5385880519
 30
0.0
 10
11.5070574654
 20
10.5405482638
 30
0.0
 10
11.5094024088
 20
10.5425296358
 30
0.0
 10
11.5114994621
 20
10.5445303536
 30
0.0
 10
11.5133464632
 20
10.5465486616
 30
0.0
 10
11.5149413049
 20
10.5485829471
 30
0.0
 10
11.5162821184
 20
10.5506314959
 30
0.0
 10
11.5173668089
 20
10.5526927173
 30
0.0
 10
11.518193543
 20
10.554764648
 30
0.0
 10
11.518760241
 20
10.5568450917
 30
0.0
 10
11.5190653671
 20
10.5589312031
 30
0.0
 10
11.5191078009
 20
10.5610196856
 30
0.0
 10
11.5188874002
 20
10.5631069445
 30
0.0
 10
11.5184049964
 20
10.5651895544
 30
0.0
 10
11.5176619824
 20
10.5672644989
 30
0.0
 10
11.5166603774
 20
10.5693294037
 30
0.0
 10
11.5154019864
 20
10.571382237
 30
0.0
 10
11.5138890285
 20
10.5734212454
 30
0.0
 10
11.512745894
 20
10.5747312608
 30
0.0
 10
11.5121360678
 20
10.5753837017
 30
0.0
  0
SPLINE
  5
399
100
AcDbEntity
  8
0
100
AcDbSpline
 62
7
  6
CONTINUOUS
 70
0
 71
3
 72
28
 73
24
 74
0
 42
0.0000001
 43
0.0000001
 44
0.0000000001
 40
0.0
 40
0.0
 40
0.0
 40
0.0
 40
0.0865503259
 40
0.1671866873
 40
0.2420994696
 40
0.311571906
 40
0.3760011215
 40
0.406498705
 40
0.4359511224
 40
0.49207373
 40
0.5452782478
 40
0.5711299134
 40
0.5966606187
 40
0.6220219969
 40
0.6473690367
 40
0.672857096
 40
0.698638613
 40
0.7248604807
 40
0.7516617944
 40
0.8074765481
 40
0.867019563
 40
0.9310097297
 40
1.0
 40
1.0
 40
1.0
 40
1.0
 10
11.087307802
 20
10.5805281946
 30
0.0
 10
11.08625031
 20
10.5798830285
 30
0.0
 10
11.0842381455
 20
10.5785853825
 30
0.0
 10
11.0814408286
 20
10.5765366479
 30
0.0
 10
11.0789767688
 20
10.5744581405
 30
0.0
 10
11.0768503702
 20
10.5723530396
 30
0.0
 10
11.0753359421
 20
10.5705464462
 30
0.0
 10
11.074307892
 20
10.5690919911
 30
0.0
 10
11.0734288685
 20
10.5676813982
 30
0.0
 10
11.0725344071
 20
10.5659012338
 30
0.0
 10
11.0719144788
 20
10.5640603468
 30
0.0
 10
11.0716048614
 20
10.5625944285
 30
0.0
 10
11.0714634081
 20
10.5615039539
 30
0.0
 10
11.0714107842
 20
10.5604128496
 30
0.0
 10
11.0714470518
 20
10.5593216773
 30
0.0
 10
11.071572176
 20
10.5582310651
 30
0.0
 10
11.0717859962
 20
10.5571416114
 30
0.0
 10
11.0720883757
 20
10.5560538454
 30
0.0
 10
11.0726163319
 20
10.5545869867
 30
0.0
 10
11.0735102178
 20
10.5527516399
 30
0.0
 10
11.0749182722
 20
10.5505985742
 30
0.0
 10
11.0766717341
 20
10.548466975
 30
0.0
 10
11.078015615
 20
10.5471152608
 30
0.0
 10
11.0787384625
 20
10.5464425714
 30
0.0
  0
SPLINE
  5
39A
100
AcDbEntity
  8
0
100
AcDbSpline
 62
7
  6
CONTINUOUS
 70
0
 71
3
 72
29
 73
25
 74
0
 42
0.0000001
 43
0.0000001
 44
0.0000000001
 40
0.0
 40
0.0
 40
0.0
 40
0.0
 40
0.0193648206
 40
0.0398586298
 40
0.0614691439
 40
0.0841785556
 40
0.1079640887
 40
0.132799005
 40
0.1586525415
 40
0.1854907709
 40
0.2132766996
 40
0.2419704824
 40
0.2715299471
 40
0.3019104309
 40
0.3649444428
 40
0.4306790445
 40
0.4986933493
 40
0.568545698
 40
0.6397780576
 40
0.7119203909
 40
0.784494694
 40
0.8570196422
 40
0.929013024
 40
1.0
 40
1.0
 40
1.0
 40
1.0
 10
11.5114720571
 20
10.2563352649
 30
0.0
 10
11.5096501963
 20
10.2554353068
 30
0.0
 10
11.505861257
 20
10.2536611586
 30
0.0
 10
11.4999237844
 20
10.2511380438
 30
0.0
 10
11.4935805754
 20
10.248681623
 30
0.0
 10
11.486842874
 20
10.2462963452
 30
0.0
 10
11.4797224982
 20
10.2439863829
 30
0.0
 10
11.472232006
 20
10.2417559295
 30
0.0
 10
11.4643846407
 20
10.2396089142
 30
0.0
 10
11.4561942901
 20
10.2375492063
 30
0.0
 10
11.4476754665
 20
10.235580494
 30
0.0
 10
11.4388432857
 20
10.2337062723
 30
0.0
 10
11.4297134063
 20
10.2319299188
 30
0.0
 10
11.4170085659
 20
10.2296684095
 30
0.0
 10
11.4005014138
 20
10.2271202467
 30
0.0
 10
11.3800125693
 20
10.2245338239
 30
0.0
 10
11.358752437
 20
10.2224013254
 30
0.0
 10
11.3368720458
 20
10.2207381259
 30
0.0
 10
11.3145267014
 20
10.219556266
 30
0.0
 10
11.2918751379
 20
10.2188642803
 30
0.0
 10
11.2690782642
 20
10.2186671536
 30
0.0
 10
11.2462980942
 20
10.2189663266
 30
0.0
 10
11.2236965305
 20
10.2197596
 30
0.0
 10
11.2087163532
 20
10.2206220348
 30
0.0
 10
11.2012852874
 20
10.2211373809
 30
0.0
  0
SPLINE
  5
39B
100
AcDbEntity
  8
0
100
AcDbSpline
 62
7
  6
CONTINUOUS
 70
0
 71
3
 72
37
 73
33
 74
0
 42
0.0000001
 43
0.0000001
 44
0.0000000001
 40
0.0
 40
0.0
 40
0.0
 40
0.0
 40
0.0064814161
 40
0.013000434
 40
0.0195939328
 40
0.0262974202
 40
0.0401584739
 40
0.054833209
 40
0.0705197689
 40
0.0873743102
 40
0.1055161513
 40
0.1250330488
 40
0.1459873831
 40
0.1684208829
 40
0.192358412
 40
0.2178115757
 40
0.2447803486
 40
0.2732557662
 40
0.3032205887
 40
0.3346509258
 40
0.3675169398
 40
0.401783356
 40
0.4374105384
 40
0.4743542549
 40
0.5125668271
 40
0.5519968276
 40
0.5925898072
 40
0.6342884319
 40
0.7207574404
 40
0.8108981216
 40
0.9041676784
 40
1.0
 40
1.0
 40
1.0
 40
1.0
 10
11.0004252053
 20
10.2589433113
 30
0.0
 10
11.0004252094
 20
10.2584647807
 30
0.0
 10
11.0004632585
 20
10.2575045127
 30
0.0
 10
11.0006342938
 20
10.2560666144
 30
0.0
 10
11.0009192032
 20
10.2546300741
 30
0.0
 10
11.0014562845
 20
10.2526965683
 30
0.0
 10
11.0024271074
 20
10.2502727837
 30
0.0
 10
11.0040309435
 20
10.2474197721
 30
0.0
 10
11.0060813532
 20
10.244592177
 30
0.0
 10
11.0085732418
 20
10.2417934444
 30
0.0
 10
11.0115020461
 20
10.239026574
 30
0.0
 10
11.0148628325
 20
10.2362949257
 30
0.0
 10
11.018650298
 20
10.2336022028
 30
0.0
 10
11.0228584785
 20
10.2309523495
 30
0.0
 10
11.0274806752
 20
10.228349373
 30
0.0
 10
11.03250951
 20
10.2257974861
 30
0.0
 10
11.0379368104
 20
10.2233007382
 30
0.0
 10
11.0437537445
 20
10.2208633131
 30
0.0
 10
11.0499507473
 20
10.2184892039
 30
0.0
 10
11.0565176027
 20
10.2161823889
 30
0.0
 10
11.0634434444
 20
10.2139467482
 30
0.0
 10
11.0707167747
 20
10.2117859866
 30
0.0
 10
11.0783255104
 20
10.209703798
 30
0.0
 10
11.0862569779
 20
10.2077036156
 30
0.0
 10
11.0944979639
 20
10.2057888581
 30
0.0
 10
11.103034718
 20
10.2039627163
 30
0.0
 10
11.111853008
 20
10.2022282453
 30
0.0
 10
11.1241150961
 20
10.2000150499
 30
0.0
 10
11.1400394991
 20
10.19750922
 30
0.0
 10
11.1598014445
 20
10.1949444931
 30
0.0
 10
11.1803088487
 20
10.1928043486
 30
0.0
 10
11.194226827
 20
10.1916831845
 30
0.0
 10
11.2012852874
 20
10.1911936786
 30
0.0
  0
SPLINE
  5
39C
100
AcDbEntity
  8
0
100
AcDbSpline
 62
7
  6
CONTINUOUS
 70
0
 71
3
 72
21
 73
17
 74
0
 42
0.0000001
 43
0.0000001
 44
0.0000000001
 40
0.0
 40
0.0
 40
0.0
 40
0.0
 40
0.1335009335
 40
0.1991524559
 40
0.2640591629
 40
0.3282340031
 40
0.391704635
 40
0.4545125379
 40
0.5167108839
 40
0.5783614368
 40
0.6395309291
 40
0.7002874525
 40
0.7606972392
 40
0.8208222339
 40
0.8807182292
 40
1.0
 40
1.0
 40
1.0
 40
1.0
 10
11.0106511964
 20
10.266574069
 30
0.0
 10
11.0179161567
 20
10.2629851471
 30
0.0
 10
11.0289213898
 20
10.2579564748
 30
0.0
 10
11.0438371089
 20
10.2520833997
 30
0.0
 10
11.0549931418
 20
10.248169166
 30
0.0
 10
11.0661687379
 20
10.2447380552
 30
0.0
 10
11.0773526254
 20
10.2418004205
 30
0.0
 10
11.0885327615
 20
10.2393601528
 30
0.0
 10
11.0996973169
 20
10.2374142601
 30
0.0
 10
11.1108351977
 20
10.2359531665
 30
0.0
 10
11.1219365882
 20
10.2349613992
 30
0.0
 10
11.1329933333
 20
10.2344186216
 30
0.0
 10
11.1439990446
 20
10.234300847
 30
0.0
 10
11.1549494115
 20
10.2345817399
 30
0.0
 10
11.1694504222
 20
10.2354496222
 30
0.0
 10
11.1802715771
 20
10.2366169004
 30
0.0
 10
11.1874460242
 20
10.2375891727
 30
0.0
  0
SPLINE
  5
39D
100
AcDbEntity
  8
0
100
AcDbSpline
 62
7
  6
CONTINUOUS
 70
0
 71
3
 72
23
 73
19
 74
0
 42
0.0000001
 43
0.0000001
 44
0.0000000001
 40
0.0
 40
0.0
 40
0.0
 40
0.0
 40
0.0430695177
 40
0.0891869333
 40
0.1383051397
 40
0.1903557398
 40
0.2452526538
 40
0.3028945229
 40
0.3631662686
 40
0.4259410008
 40
0.4910814069
 40
0.5584406328
 40
0.627863103
 40
0.6991861284
 40
0.7722398441
 40
0.8468470126
 40
0.9228321976
 40
1.0
 40
1.0
 40
1.0
 40
1.0
 10
11.0313781211
 20
10.2563353741
 30
0.0
 10
11.0336231363
 20
10.2552263801
 30
0.0
 10
11.0383315342
 20
10.2530491753
 30
0.0
 10
11.0457700468
 20
10.2499905194
 30
0.0
 10
11.053808597
 20
10.2470345485
 30
0.0
 10
11.0624258941
 20
10.2441892327
 30
0.0
 10
11.071599365
 20
10.2414621591
 30
0.0
 10
11.0813047799
 20
10.2388606755
 30
0.0
 10
11.0915164482
 20
10.2363917556
 30
0.0
 10
11.1022072793
 20
10.2340620327
 30
0.0
 10
11.1133488879
 20
10.2318777804
 30
0.0
 10
11.124911652
 20
10.2298448832
 30
0.0
 10
11.1368648133
 20
10.2279687815
 30
0.0
 10
11.1491765574
 20
10.226254523
 30
0.0
 10
11.1618140298
 20
10.2247067372
 30
0.0
 10
11.1747438159
 20
10.2233295178
 30
0.0
 10
11.1879311285
 20
10.2221266562
 30
0.0
 10
11.1968096317
 20
10.2214477687
 30
0.0
 10
11.2012852874
 20
10.2211373809
 30
0.0
  0
SPLINE
  5
39E
100
AcDbEntity
  8
0
100
AcDbSpline
 62
7
  6
CONTINUOUS
 70
0
 71
3
 72
31
 73
27
 74
0
 42
0.0000001
 43
0.0000001
 44
0.0000000001
 40
0.0
 40
0.0
 40
0.0
 40
0.0
 40
0.0571419784
 40
0.0856491303
 40
0.1141261478
 40
0.1710436133
 40
0.1995330465
 40
0.2280732926
 40
0.2566941713
 40
0.2854296806
 40
0.3143172642
 40
0.3433966372
 40
0.3727091533
 40
0.4022960092
 40
0.4321963301
 40
0.4624459131
 40
0.493075418
 40
0.5241089394
 40
0.5555636008
 40
0.5874490569
 40
0.6525037216
 40
0.719234434
 40
0.7875161928
 40
0.857185912
 40
0.9280694698
 40
1.0
 40
1.0
 40
1.0
 40
1.0
 10
10.9580104342
 20
10.3951652385
 30
0.0
 10
10.9624686039
 20
10.3970563667
 30
0.0
 10
10.9692247789
 20
10.3997229675
 30
0.0
 10
10.9783701831
 20
10.4028748751
 30
0.0
 10
10.9875920625
 20
10.405731355
 30
0.0
 10
10.9969538769
 20
10.4081190602
 30
0.0
 10
11.0064351174
 20
10.4099632298
 30
0.0
 10
11.0136129982
 20
10.4110583888
 30
0.0
 10
11.0208521017
 20
10.4118468897
 30
0.0
 10
11.0281489383
 20
10.412311365
 30
0.0
 10
11.0354985478
 20
10.4124352131
 30
0.0
 10
11.0428946451
 20
10.4122037226
 30
0.0
 10
11.0503296211
 20
10.4116042433
 30
0.0
 10
11.0577946447
 20
10.4106267872
 30
0.0
 10
11.0652799434
 20
10.4092650069
 30
0.0
 10
11.0727750596
 20
10.4075160369
 30
0.0
 10
11.0802691824
 20
10.4053807118
 30
0.0
 10
11.0877516398
 20
10.4028640857
 30
0.0
 10
11.095212304
 20
10.399974587
 30
0.0
 10
11.1051835904
 20
10.395611555
 30
0.0
 10
11.1175400877
 20
10.3892763706
 30
0.0
 10
11.1320495431
 20
10.3804809136
 30
0.0
 10
11.1463129841
 20
10.3705926014
 30
0.0
 10
11.1603181742
 20
10.3597607951
 30
0.0
 10
11.1740664607
 20
10.3481232653
 30
0.0
 10
11.183008371
 20
10.3399625341
 30
0.0
 10
11.1874460242
 20
10.3357830134
 30
0.0
  0
SPLINE
  5
39F
100
AcDbEntity
  8
0
100
AcDbSpline
 62
7
  6
CONTINUOUS
 70
0
 71
3
 72
22
 73
18
 74
0
 42
0.0000001
 43
0.0000001
 44
0.0000000001
 40
0.0
 40
0.0
 40
0.0
 40
0.0
 40
0.1228666074
 40
0.1844797197
 40
0.2462285714
 40
0.3081278972
 40
0.3701909113
 40
0.4324280594
 40
0.4948457817
 40
0.5574456454
 40
0.6202241068
 40
0.6831729686
 40
0.7462803648
 40
0.8095320295
 40
0.8729126389
 40
0.9364067903
 40
1.0
 40
1.0
 40
1.0
 40
1.0
 10
11.1874460242
 20
10.2375891727
 30
0.0
 10
11.2002041298
 20
10.2347910036
 30
0.0
 10
11.2194732195
 20
10.2310709565
 30
0.0
 10
11.2453800899
 20
10.227305839
 30
0.0
 10
11.2649586351
 20
10.2251351478
 30
0.0
 10
11.2846516974
 20
10.2236800839
 30
0.0
 10
11.3044390695
 20
10.2229934268
 30
0.0
 10
11.324293477
 20
10.2231166711
 30
0.0
 10
11.3441824338
 20
10.2240756724
 30
0.0
 10
11.364070519
 20
10.2258776592
 30
0.0
 10
11.3839224452
 20
10.2285102456
 30
0.0
 10
11.4037060355
 20
10.2319428962
 30
0.0
 10
11.4233945416
 20
10.2361302957
 30
0.0
 10
11.4429679019
 20
10.2410168113
 30
0.0
 10
11.4624130016
 20
10.2465411555
 30
0.0
 10
11.4817228559
 20
10.2526403859
 30
0.0
 10
11.4944961166
 20
10.2570458861
 30
0.0
 10
11.5008607807
 20
10.2593245984
 30
0.0
  0
SPLINE
  5
3A0
100
AcDbEntity
  8
0
100
AcDbSpline
 62
7
  6
CONTINUOUS
 70
0
 71
3
 72
29
 73
25
 74
0
 42
0.0000001
 43
0.0000001
 44
0.0000000001
 40
0.0
 40
0.0
 40
0.0
 40
0.0
 40
0.0641510134
 40
0.1281937228
 40
0.1920996839
 40
0.2558345976
 40
0.3193600233
 40
0.3510358617
 40
0.3826447781
 40
0.4141824336
 40
0.4456449907
 40
0.4770293211
 40
0.5083334086
 40
0.5395562013
 40
0.5706978305
 40
0.6017596365
 40
0.6327438118
 40
0.6636535965
 40
0.6944930063
 40
0.7559704238
 40
0.817223714
 40
0.8782909263
 40
0.9392064328
 40
1.0
 40
1.0
 40
1.0
 40
1.0
 10
11.1874460242
 20
10.3357830134
 30
0.0
 10
11.1935433159
 20
10.339254509
 30
0.0
 10
11.2058433855
 20
10.3459913137
 30
0.0
 10
11.2246466035
 20
10.355377648
 30
0.0
 10
11.2438032762
 20
10.3639139146
 30
0.0
 10
11.2633121999
 20
10.3714604072
 30
0.0
 10
11.2798651281
 20
10.3768059979
 30
0.0
 10
11.2932527275
 20
10.3804379122
 30
0.0
 10
11.3033481161
 20
10.3828211993
 30
0.0
 10
11.3134967791
 20
10.3848508715
 30
0.0
 10
11.3236871875
 20
10.3865139026
 30
0.0
 10
11.3339062799
 20
10.3878004339
 30
0.0
 10
11.3441400824
 20
10.3887038086
 30
0.0
 10
11.3543740997
 20
10.3892208846
 30
0.0
 10
11.3645937959
 20
10.389352739
 30
0.0
 10
11.3747851581
 20
10.3891040433
 30
0.0
 10
11.3849350822
 20
10.3884828093
 30
0.0
 10
11.395031965
 20
10.3875004221
 30
0.0
 10
11.4083948659
 20
10.385729681
 30
0.0
 10
11.4249263299
 20
10.3826881447
 30
0.0
 10
11.4444482999
 20
10.3778480688
 30
0.0
 10
11.4636164429
 20
10.3719680828
 30
0.0
 10
11.4824290939
 20
10.3651883324
 30
0.0
 10
11.4947539203
 20
10.3601483567
 30
0.0
 10
11.5008607807
 20
10.3575184391
 30
0.0
  0
SPLINE
  5
3A1
100
AcDbEntity
  8
0
100
AcDbSpline
 62
7
  6
CONTINUOUS
 70
0
 71
3
 72
15
 73
11
 74
0
 42
0.0000001
 43
0.0000001
 44
0.0000000001
 40
0.0
 40
0.0
 40
0.0
 40
0.0
 40
0.1200687471
 40
0.2402912743
 40
0.3611867789
 40
0.4833705981
 40
0.6075440162
 40
0.7344826232
 40
0.8650163204
 40
1.0
 40
1.0
 40
1.0
 40
1.0
 10
11.5008607807
 20
10.2593245984
 30
0.0
 10
11.5019107626
 20
10.2592076038
 30
0.0
 10
11.5040197271
 20
10.2590363597
 30
0.0
 10
11.5071995929
 20
10.2589833364
 30
0.0
 10
11.5103946466
 20
10.2591484621
 30
0.0
 10
11.5136043985
 20
10.2595462748
 30
0.0
 10
11.5168281989
 20
10.2601912426
 30
0.0
 10
11.5200650731
 20
10.2610974451
 30
0.0
 10
11.5233134699
 20
10.2622781512
 30
0.0
 10
11.5254459482
 20
10.2632385046
 30
0.0
 10
11.5265109785
 20
10.2637642223
 30
0.0
  0
SPLINE
  5
3A2
100
AcDbEntity
  8
0
100
AcDbSpline
 62
7
  6
CONTINUOUS
 70
0
 71
3
 72
38
 73
34
 74
0
 42
0.0000001
 43
0.0000001
 44
0.0000000001
 40
0.0
 40
0.0
 40
0.0
 40
0.0
 40
0.1018943567
 40
0.1513858875
 40
0.199797517
 40
0.2470428259
 40
0.2930287771
 40
0.3376594712
 40
0.3808366716
 40
0.422461902
 40
0.4624395427
 40
0.5006798227
 40
0.5371037804
 40
0.5716471905
 40
0.6042672936
 40
0.6349479032
 40
0.6637046587
 40
0.6905921615
 40
0.7157067233
 40
0.7391890349
 40
0.7612256214
 40
0.7820433287
 40
0.8019013419
 40
0.8210785552
 40
0.8398556164
 40
0.8584979058
 40
0.8772408982
 40
0.8962805153
 40
0.915770456
 40
0.9358238574
 40
0.9565180228
 40
0.9779017689
 40
1.0
 40
1.0
 40
1.0
 40
1.0
 10
11.5008607807
 20
10.3575184391
 30
0.0
 10
11.502416031
 20
10.3619228346
 30
0.0
 10
11.5047827187
 20
10.3684470786
 30
0.0
 10
11.5080455354
 20
10.3770052368
 30
0.0
 10
11.5104904383
 20
10.3831936914
 30
0.0
 10
11.5129570511
 20
10.389200189
 30
0.0
 10
11.5154455605
 20
10.3950096107
 30
0.0
 10
11.5179557895
 20
10.4006059649
 30
0.0
 10
11.5204873895
 20
10.4059725416
 30
0.0
 10
11.5230396389
 20
10.4110921579
 30
0.0
 10
11.5256115407
 20
10.4159473731
 30
0.0
 10
11.5282017276
 20
10.4205209051
 30
0.0
 10
11.5308084038
 20
10.4247960532
 30
0.0
 10
11.5334295861
 20
10.4287570886
 30
0.0
 10
11.5360628308
 20
10.4323899261
 30
0.0
 10
11.5387054975
 20
10.4356825082
 30
0.0
 10
11.5413549478
 20
10.4386251451
 30
0.0
 10
11.54400827
 20
10.4412111264
 30
0.0
 10
11.5466626932
 20
10.443436642
 30
0.0
 10
11.54931558
 20
10.4453007092
 30
0.0
 10
11.5519640235
 20
10.4468054942
 30
0.0
 10
11.5546050508
 20
10.4479557108
 30
0.0
 10
11.5572352569
 20
10.44875865
 30
0.0
 10
11.5598507397
 20
10.4492246495
 30
0.0
 10
11.5624476451
 20
10.4493664528
 30
0.0
 10
11.5650225993
 20
10.4491993248
 30
0.0
 10
11.5675733007
 20
10.4487401467
 30
0.0
 10
11.5700986101
 20
10.4480063329
 30
0.0
 10
11.5725984009
 20
10.4470153152
 30
0.0
 10
11.5750731076
 20
10.4457837684
 30
0.0
 10
11.5775236266
 20
10.4443277112
 30
0.0
 10
11.579950728
 20
10.4426621041
 30
0.0
 10
11.5815279981
 20
10.441441587
 30
0.0
 10
11.5823136303
 20
10.4408020926
 30
0.0
  0
SPLINE
  5
3A3
100
AcDbEntity
  8
0
100
AcDbSpline
 62
7
  6
CONTINUOUS
 70
0
 71
3
 72
33
 73
29
 74
0
 42
0.0000001
 43
0.0000001
 44
0.0000000001
 40
0.0
 40
0.0
 40
0.0
 40
0.0
 40
0.0761060498
 40
0.1533664798
 40
0.2310985879
 40
0.3086117008
 40
0.3852184599
 40
0.460241871
 40
0.4969540133
 40
0.533025278
 40
0.5683776275
 40
0.60293516
 40
0.636624422
 40
0.6693748308
 40
0.7011188206
 40
0.7317921827
 40
0.7613346273
 40
0.7896900149
 40
0.8168067959
 40
0.8426388146
 40
0.8671458259
 40
0.8902942548
 40
0.91205854
 40
0.9324224388
 40
0.9513807657
 40
0.9689421853
 40
0.9851326602
 40
1.0
 40
1.0
 40
1.0
 40
1.0
 10
11.2012852874
 20
10.4268795941
 30
0.0
 10
11.2098905424
 20
10.4262828177
 30
0.0
 10
11.2272486881
 20
10.4253156022
 30
0.0
 10
11.2534325928
 20
10.4245334186
 30
0.0
 10
11.2797875201
 20
10.424412237
 30
0.0
 10
11.3060630708
 20
10.4249532727
 30
0.0
 10
11.3320095342
 20
10.4261512823
 30
0.0
 10
11.3533031706
 20
10.4276982398
 30
0.0
 10
11.3699829835
 20
10.4292627524
 30
0.0
 10
11.3821683301
 20
10.4305829209
 30
0.0
 10
11.3940902372
 20
10.43205505
 30
0.0
 10
11.4057203824
 20
10.4336756489
 30
0.0
 10
11.4170311145
 20
10.4354408448
 30
0.0
 10
11.4279955649
 20
10.4373463866
 30
0.0
 10
11.4385876911
 20
10.4393877102
 30
0.0
 10
11.448782346
 20
10.441559945
 30
0.0
 10
11.4585553559
 20
10.4438578589
 30
0.0
 10
11.4678835673
 20
10.4462759384
 30
0.0
 10
11.4767449026
 20
10.4488084154
 30
0.0
 10
11.4851184477
 20
10.4514492037
 30
0.0
 10
11.4929844952
 20
10.4541919771
 30
0.0
 10
11.5003245927
 20
10.4570302311
 30
0.0
 10
11.5071216333
 20
10.4599572244
 30
0.0
 10
11.5133599338
 20
10.4629660884
 30
0.0
 10
11.5190251801
 20
10.4660498827
 30
0.0
 10
11.5241047899
 20
10.4692018809
 30
0.0
 10
11.5285870336
 20
10.4724148893
 30
0.0
 10
11.5312819924
 20
10.4746876761
 30
0.0
 10
11.5325155598
 20
10.4758356287
 30
0.0
  0
SPLINE
  5
3A4
100
AcDbEntity
  8
0
100
AcDbSpline
 62
7
  6
CONTINUOUS
 70
0
 71
3
 72
43
 73
39
 74
0
 42
0.0000001
 43
0.0000001
 44
0.0000000001
 40
0.0
 40
0.0
 40
0.0
 40
0.0
 40
0.081694174
 40
0.1646780759
 40
0.2480244391
 40
0.3307990351
 40
0.3716830913
 40
0.412078534
 40
0.451873219
 40
0.4909572315
 40
0.5292233078
 40
0.5665672979
 40
0.6028886938
 40
0.6380910791
 40
0.6720826267
 40
0.7047766682
 40
0.7360924123
 40
0.7659556424
 40
0.7942995239
 40
0.821065644
 40
0.8462054059
 40
0.8696817656
 40
0.8807891601
 40
0.8914732841
 40
0.9017339253
 40
0.9115722643
 40
0.9209907898
 40
0.9299939317
 40
0.9385879474
 40
0.9467813377
 40
0.9545853707
 40
0.9620141248
 40
0.9690853084
 40
0.9758205648
 40
0.9822459193
 40
0.9883925063
 40
0.9942966155
 40
1.0
 40
1.0
 40
1.0
 40
1.0
 10
11.2012852874
 20
10.4326751494
 30
0.0
 10
11.2109652987
 20
10.4320038384
 30
0.0
 10
11.230499884
 20
10.4309483696
 30
0.0
 10
11.2599535927
 20
10.4302082847
 30
0.0
 10
11.2895448694
 20
10.4303022338
 30
0.0
 10
11.314123453
 20
10.4310775394
 30
0.0
 10
11.3335817933
 20
10.4321189578
 30
0.0
 10
11.3479293929
 20
10.433101566
 30
0.0
 10
11.3620472137
 20
10.4342858163
 30
0.0
 10
11.3758929051
 20
10.4356681532
 30
0.0
 10
11.3894248933
 20
10.4372443892
 30
0.0
 10
11.4026025668
 20
10.4390097625
 30
0.0
 10
11.4153863931
 20
10.4409589159
 30
0.0
 10
11.4277380401
 20
10.4430859408
 30
0.0
 10
11.4396204858
 20
10.4453843905
 30
0.0
 10
11.4509981409
 20
10.4478473065
 30
0.0
 10
11.4618369731
 20
10.4504672125
 30
0.0
 10
11.4721046265
 20
10.4532361566
 30
0.0
 10
11.4817704927
 20
10.456145745
 30
0.0
 10
11.4908059248
 20
10.4591871846
 30
0.0
 10
11.4991840238
 20
10.4623513028
 30
0.0
 10
11.5057131252
 20
10.465131385
 30
0.0
 10
11.510580153
 20
10.4674175358
 30
0.0
 10
11.513983226
 20
10.469125166
 30
0.0
 10
11.517204316
 20
10.470856269
 30
0.0
 10
11.5202410691
 20
10.472609548
 30
0.0
 10
11.523091214
 20
10.4743837834
 30
0.0
 10
11.5257526861
 20
10.4761776319
 30
0.0
 10
11.528223533
 20
10.4779898243
 30
0.0
 10
11.5305019181
 20
10.4798191237
 30
0.0
 10
11.5325862226
 20
10.4816641978
 30
0.0
 10
11.5344748526
 20
10.4835238779
 30
0.0
 10
11.5361664029
 20
10.4853969126
 30
0.0
 10
11.5376595746
 20
10.487282096
 30
0.0
 10
11.5389530233
 20
10.4891782885
 30
0.0
 10
11.5400456533
 20
10.4910842987
 30
0.0
 10
11.5409361582
 20
10.4929986553
 30
0.0
 10
11.5414012735
 20
10.4942991345
 30
0.0
 10
11.5415975142
 20
10.4949475095
 30
0.0
  0
SPLINE
  5
3A5
100
AcDbEntity
  8
0
100
AcDbSpline
 62
7
  6
CONTINUOUS
 70
0
 71
3
 72
11
 73
7
 74
0
 42
0.0000001
 43
0.0000001
 44
0.0000000001
 40
0.0
 40
0.0
 40
0.0
 40
0.0
 40
0.2544983331
 40
0.5051626354
 40
0.7532347538
 40
1.0
 40
1.0
 40
1.0
 40
1.0
 10
11.5415975142
 20
10.4949475095
 30
0.0
 10
11.541734118
 20
10.4953988458
 30
0.0
 10
11.5419744468
 20
10.4963044268
 30
0.0
 10
11.5422344098
 20
10.497676891
 30
0.0
 10
11.5423904518
 20
10.4990506235
 30
0.0
 10
11.5424251723
 20
10.4999678701
 30
0.0
 10
11.5424251763
 20
10.5004250975
 30
0.0
  0
SPLINE
  5
3A6
100
AcDbEntity
  8
0
100
AcDbSpline
 62
7
  6
CONTINUOUS
 70
0
 71
3
 72
43
 73
39
 74
0
 42
0.0000001
 43
0.0000001
 44
0.0000000001
 40
0.0
 40
0.0
 40
0.0
 40
0.0
 40
0.0055576256
 40
0.0111781612
 40
0.0169221976
 40
0.0228461897
 40
0.0290011102
 40
0.0354316155
 40
0.0421762086
 40
0.0492672263
 40
0.0567313921
 40
0.0645906973
 40
0.0728625563
 40
0.081560732
 40
0.0906959024
 40
0.1002756844
 40
0.110305536
 40
0.1207888172
 40
0.143117691
 40
0.167258994
 40
0.1931867444
 40
0.2208586364
 40
0.2502191235
 40
0.2812014841
 40
0.3137291785
 40
0.3477171004
 40
0.3830728013
 40
0.4196972828
 40
0.4574855172
 40
0.496327378
 40
0.5361082555
 40
0.5767095182
 40
0.6180091187
 40
0.6598822089
 40
0.7448360285
 40
0.8305378422
 40
0.9159394086
 40
1.0
 40
1.0
 40
1.0
 40
1.0
 10
11.4554251766
 20
10.7844071924
 30
0.0
 10
11.4554251776
 20
10.783952013
 30
0.0
 10
11.4553742238
 20
10.7830357079
 30
0.0
 10
11.4551454498
 20
10.7816661507
 30
0.0
 10
11.4547648207
 20
10.7802996409
 30
0.0
 10
11.454233022
 20
10.7789377665
 30
0.0
 10
11.4535508965
 20
10.777581658
 30
0.0
 10
11.4527194506
 20
10.7762323028
 30
0.0
 10
11.4517395452
 20
10.7748906768
 30
0.0
 10
11.4506121758
 20
10.7735576688
 30
0.0
 10
11.449338377
 20
10.7722341423
 30
0.0
 10
11.4479191569
 20
10.7709210808
 30
0.0
 10
11.4463557179
 20
10.7696193732
 30
0.0
 10
11.4446493039
 20
10.7683299818
 30
0.0
 10
11.4428012438
 20
10.7670539303
 30
0.0
 10
11.4408130498
 20
10.7657921483
 30
0.0
 10
11.438686286
 20
10.7645456359
 30
0.0
 10
11.4356028317
 20
10.7628699809
 30
0.0
 10
11.4314055285
 20
10.7608290538
 30
0.0
 10
11.42594813
 20
10.7585053382
 30
0.0
 10
11.4199860871
 20
10.7562655682
 30
0.0
 10
11.4135386621
 20
10.7541170586
 30
0.0
 10
11.4066265522
 20
10.7520668765
 30
0.0
 10
11.3992721458
 20
10.7501218117
 30
0.0
 10
11.3914993384
 20
10.7482883029
 30
0.0
 10
11.3833334636
 20
10.7465724081
 30
0.0
 10
11.3748011667
 20
10.7449798132
 30
0.0
 10
11.3659303203
 20
10.7435158063
 30
0.0
 10
11.3567499355
 20
10.7421852217
 30
0.0
 10
11.3472900556
 20
10.7409924549
 30
0.0
 10
11.3375816414
 20
10.7399414528
 30
0.0
 10
11.327656487
 20
10.7390357075
 30
0.0
 10
11.3175470776
 20
10.7382781737
 30
0.0
 10
11.303800767
 20
10.7374653091
 30
0.0
 10
11.2864026781
 20
10.7368389771
 30
0.0
 10
11.2654285571
 20
10.736706487
 30
0.0
 10
11.2445328803
 20
10.7371915299
 30
0.0
 10
11.2306707399
 20
10.7379310303
 30
0.0
 10
11.2238025258
 20
10.7384073425
 30
0.0
  0
SPLINE
  5
3A7
100
AcDbEntity
  8
0
100
AcDbSpline
 62
7
  6
CONTINUOUS
 70
0
 71
3
 72
11
 73
7
 74
0
 42
0.0000001
 43
0.0000001
 44
0.0000000001
 40
0.0
 40
0.0
 40
0.0
 40
0.0
 40
0.2466537676
 40
0.4946604354
 40
0.7453486271
 40
1.0
 40
1.0
 40
1.0
 40
1.0
 10
11.0004252053
 20
10.5004250975
 30
0.0
 10
11.0004252012
 20
10.4999598273
 30
0.0
 10
11.0004611416
 20
10.4990263433
 30
0.0
 10
11.0006227803
 20
10.4976283793
 30
0.0
 10
11.0008920074
 20
10.4962317608
 30
0.0
 10
11.0011407876
 20
10.4953105595
 30
0.0
 10
11.0012821781
 20
10.4948514833
 30
0.0
  0
SPLINE
  5
3A8
100
AcDbEntity
  8
0
100
AcDbSpline
 62
7
  6
CONTINUOUS
 70
0
 71
3
 72
34
 73
30
 74
0
 42
0.0000001
 43
0.0000001
 44
0.0000000001
 40
0.0
 40
0.0
 40
0.0
 40
0.0
 40
0.0133030023
 40
0.0273194643
 40
0.0422231869
 40
0.0581540387
 40
0.0752214453
 40
0.093508067
 40
0.1130750074
 40
0.1339648869
 40
0.1562060312
 40
0.1798142464
 40
0.2047956584
 40
0.2311477274
 40
0.2588609455
 40
0.2879196229
 40
0.3183026807
 40
0.3499845044
 40
0.3829350505
 40
0.4171208533
 40
0.4525046754
 40
0.489046601
 40
0.5267034734
 40
0.5654299344
 40
0.6458953218
 40
0.730036103
 40
0.8174136933
 40
0.9075629009
 40
1.0
 40
1.0
 40
1.0
 40
1.0
 10
11.0012821781
 20
10.4948514833
 30
0.0
 10
11.0015638929
 20
10.4939367924
 30
0.0
 10
11.0022745558
 20
10.4920970548
 30
0.0
 10
11.0037165049
 20
10.4894158741
 30
0.0
 10
11.0055533708
 20
10.4867556835
 30
0.0
 10
11.0077808901
 20
10.4841198385
 30
0.0
 10
11.0103954002
 20
10.4815108743
 30
0.0
 10
11.0133928543
 20
10.4789315883
 30
0.0
 10
11.016769078
 20
10.47638514
 30
0.0
 10
11.0205192712
 20
10.4738746636
 30
0.0
 10
11.0246382282
 20
10.4714036247
 30
0.0
 10
11.029120084
 20
10.4689753641
 30
0.0
 10
11.0339584738
 20
10.4665933976
 30
0.0
 10
11.0391464284
 20
10.4642611163
 30
0.0
 10
11.0446764537
 20
10.4619819403
 30
0.0
 10
11.0505405148
 20
10.4597592136
 30
0.0
 10
11.0567300577
 20
10.457596189
 30
0.0
 10
11.0632360385
 20
10.4554961015
 30
0.0
 10
11.0700489177
 20
10.4534620036
 30
0.0
 10
11.0771587042
 20
10.4514969744
 30
0.0
 10
11.0845549466
 20
10.4496038524
 30
0.0
 10
11.0922267694
 20
10.4477855249
 30
0.0
 10
11.1001628904
 20
10.4460445922
 30
0.0
 10
11.1112226607
 20
10.4438014899
 30
0.0
 10
11.1256242052
 20
10.4412200499
 30
0.0
 10
11.1435510632
 20
10.4385066493
 30
0.0
 10
11.1622313829
 20
10.4361557581
 30
0.0
 10
11.1815550481
 20
10.4341813959
 30
0.0
 10
11.1946507921
 20
10.4331352532
 30
0.0
 10
11.2012852874
 20
10.4326751494
 30
0.0
  0
SPLINE
  5
3A9
100
AcDbEntity
  8
0
100
AcDbSpline
 62
7
  6
CONTINUOUS
 70
0
 71
3
 72
36
 73
32
 74
0
 42
0.0000001
 43
0.0000001
 44
0.0000000001
 40
0.0
 40
0.0
 40
0.0
 40
0.0
 40
0.0153596364
 40
0.0298382079
 40
0.043774977
 40
0.0506660372
 40
0.057567672
 40
0.0715878651
 40
0.0862257561
 40
0.1018089209
 40
0.1186021857
 40
0.1368092452
 40
0.1565790043
 40
0.178017036
 40
0.2011928576
 40
0.2261494051
 40
0.25290672
 40
0.2814683965
 40
0.3118225503
 40
0.3439465925
 40
0.3778068047
 40
0.4133619776
 40
0.4505622009
 40
0.4893520496
 40
0.5296691105
 40
0.614608623
 40
0.6590863422
 40
0.7047956881
 40
0.799567532
 40
0.8982193698
 40
1.0
 40
1.0
 40
1.0
 40
1.0
 10
11.3702210971
 20
11.039271124
 30
0.0
 10
11.3704489204
 20
11.0396476691
 30
0.0
 10
11.3708454612
 20
11.0404089224
 30
0.0
 10
11.37125133
 20
11.0416011224
 30
0.0
 10
11.3714124437
 20
11.0426055358
 30
0.0
 10
11.3714327582
 20
11.0434007264
 30
0.0
 10
11.3713826462
 20
11.0441970067
 30
0.0
 10
11.3711833859
 20
11.0452018243
 30
0.0
 10
11.3707329735
 20
11.0463922
 30
0.0
 10
11.3700733964
 20
11.0475717327
 30
0.0
 10
11.3692079052
 20
11.0487385212
 30
0.0
 10
11.3681391024
 20
11.0498912412
 30
0.0
 10
11.366869548
 20
11.0510285446
 30
0.0
 10
11.3654017317
 20
11.0521486846
 30
0.0
 10
11.3637385691
 20
11.0532498885
 30
0.0
 10
11.3618832498
 20
11.0543300443
 30
0.0
 10
11.3598394796
 20
11.0553871585
 30
0.0
 10
11.357611322
 20
11.0564190178
 30
0.0
 10
11.3552033226
 20
11.0574236028
 30
0.0
 10
11.3526203859
 20
11.0583987403
 30
0.0
 10
11.3498678433
 20
11.0593424813
 30
0.0
 10
11.3469513717
 20
11.0602527642
 30
0.0
 10
11.3438770322
 20
11.0611277507
 30
0.0
 10
11.3406512016
 20
11.0619655438
 30
0.0
 10
11.3360771736
 20
11.0630495701
 30
0.0
 10
11.3313118113
 20
11.0640279978
 30
0.0
 10
11.3263720251
 20
11.064910937
 30
0.0
 10
11.3211401633
 20
11.0657572982
 30
0.0
 10
11.3143510624
 20
11.0666912463
 30
0.0
 10
11.3059410525
 20
11.0676050424
 30
0.0
 10
11.300216421
 20
11.068073661
 30
0.0
 10
11.2973070739
 20
11.0682754249
 30
0.0
  0
SPLINE
  5
3AA
100
AcDbEntity
  8
0
100
AcDbSpline
 62
7
  6
CONTINUOUS
 70
0
 71
3
 72
52
 73
48
 74
0
 42
0.0000001
 43
0.0000001
 44
0.0000000001
 40
0.0
 40
0.0
 40
0.0
 40
0.0
 40
0.0082490415
 40
0.0160247478
 40
0.0233636771
 40
0.0303111169
 40
0.0369222564
 40
0.0432627534
 40
0.0494079961
 40
0.0554417212
 40
0.0614527394
 40
0.0675309924
 40
0.0737631751
 40
0.0802292704
 40
0.0869998984
 40
0.0941354832
 40
0.1016863204
 40
0.1096930232
 40
0.1181881642
 40
0.1271968278
 40
0.1367381215
 40
0.1468261225
 40
0.1574702592
 40
0.1686766985
 40
0.1804481848
 40
0.1927849134
 40
0.2056849136
 40
0.219143853
 40
0.2477120018
 40
0.2784261436
 40
0.3112002308
 40
0.3459310614
 40
0.3825007783
 40
0.4207789121
 40
0.460624113
 40
0.5018854868
 40
0.5444039095
 40
0.5880132583
 40
0.6325413181
 40
0.6778108479
 40
0.7236408011
 40
0.7698471692
 40
0.8162438743
 40
0.8626441704
 40
0.9088598123
 40
0.9547082348
 40
1.0
 40
1.0
 40
1.0
 40
1.0
 10
11.4188308236
 20
11.0538856707
 30
0.0
 10
11.4192669101
 20
11.0534798335
 30
0.0
 10
11.4200901866
 20
11.0526651042
 30
0.0
 10
11.4212028279
 20
11.0513946633
 30
0.0
 10
11.4221542702
 20
11.0501143111
 30
0.0
 10
11.4229431576
 20
11.0488251318
 30
0.0
 10
11.4235681598
 20
11.0475282018
 30
0.0
 10
11.4240280803
 20
11.0462248612
 30
0.0
 10
11.4243215474
 20
11.0449166514
 30
0.0
 10
11.4244476976
 20
11.0436055839
 30
0.0
 10
11.4244060274
 20
11.0422939137
 30
0.0
 10
11.4241966342
 20
11.0409840072
 30
0.0
 10
11.4238203952
 20
11.0396779797
 30
0.0
 10
11.4232782973
 20
11.0383776564
 30
0.0
 10
11.4225717337
 20
11.0370844299
 30
0.0
 10
11.4217019748
 20
11.0357994868
 30
0.0
 10
11.4206702651
 20
11.0345239385
 30
0.0
 10
11.4194779712
 20
11.0332587602
 30
0.0
 10
11.4181263553
 20
11.0320051165
 30
0.0
 10
11.4166169173
 20
11.030764075
 30
0.0
 10
11.4149512192
 20
11.0295368152
 30
0.0
 10
11.4131309723
 20
11.0283245823
 30
0.0
 10
11.4111581121
 20
11.0271285242
 30
0.0
 10
11.4090346659
 20
11.0259499531
 30
0.0
 10
11.4067628926
 20
11.0247900512
 30
0.0
 10
11.4043451893
 20
11.0236500562
 30
0.0
 10
11.4017841101
 20
11.0225311996
 30
0.0
 10
11.3981082998
 20
11.0210393722
 30
0.0
 10
11.393169278
 20
11.0192444154
 30
0.0
 10
11.3868311177
 20
11.0172335197
 30
0.0
 10
11.3799958167
 20
11.0153337884
 30
0.0
 10
11.3726926717
 20
11.0135535008
 30
0.0
 10
11.3649528939
 20
11.0119004673
 30
0.0
 10
11.3568097276
 20
11.010381919
 30
0.0
 10
11.3482981965
 20
11.0090044978
 30
0.0
 10
11.339454957
 20
11.0077742262
 30
0.0
 10
11.3303181193
 20
11.0066964845
 30
0.0
 10
11.3209270815
 20
11.0057759858
 30
0.0
 10
11.3113223609
 20
11.0050167451
 30
0.0
 10
11.3015454098
 20
11.0044220691
 30
0.0
 10
11.2916384278
 20
11.0039945534
 30
0.0
 10
11.28164418
 20
11.0037360629
 30
0.0
 10
11.2716057958
 20
11.003647728
 30
0.0
 10
11.2615666927
 20
11.0037299445
 30
0.0
 10
11.2515700177
 20
11.0039823129
 30
0.0
 10
11.2416591922
 20
11.0044037938
 30
0.0
 10
11.2350888694
 20
11.0047991863
 30
0.0
 10
11.2318259096
 20
11.0050254734
 30
0.0
  0
SPLINE
  5
3AB
100
AcDbEntity
  8
0
100
AcDbSpline
 62
7
  6
CONTINUOUS
 70
0
 71
3
 72
43
 73
39
 74
0
 42
0.0000001
 43
0.0000001
 44
0.0000000001
 40
0.0
 40
0.0
 40
0.0
 40
0.0
 40
0.0055576347
 40
0.0111781613
 40
0.0169221723
 40
0.022846124
 40
0.0290009918
 40
0.0354314355
 40
0.0421759609
 40
0.0492669068
 40
0.0567309982
 40
0.0645902274
 40
0.0728620091
 40
0.0815601065
 40
0.0906951978
 40
0.1002749022
 40
0.1103046794
 40
0.1207878907
 40
0.1431166407
 40
0.1672578332
 40
0.1931854721
 40
0.2208572924
 40
0.2502177305
 40
0.2812000311
 40
0.3137276933
 40
0.3477156272
 40
0.3830713482
 40
0.4196958246
 40
0.4574841162
 40
0.4963260543
 40
0.5361069818
 40
0.5767083205
 40
0.6180080347
 40
0.6598812319
 40
0.7448352651
 40
0.8305373348
 40
0.9159391574
 40
1.0
 40
1.0
 40
1.0
 40
1.0
 10
11.4554251765
 20
11.0133320264
 30
0.0
 10
11.4554251922
 20
11.0128768456
 30
0.0
 10
11.455374268
 20
11.0119605373
 30
0.0
 10
11.4551455364
 20
11.0105909727
 30
0.0
 10
11.454764948
 20
11.0092244555
 30
0.0
 10
11.4542331887
 20
11.0078625734
 30
0.0
 10
11.4535511009
 20
11.0065064572
 30
0.0
 10
11.4527196912
 20
11.0051570941
 30
0.0
 10
11.4517398202
 20
11.00381546
 30
0.0
 10
11.4506124835
 20
11.0024824434
 30
0.0
 10
11.4493387158
 20
11.0011589081
 30
0.0
 10
11.4479195249
 20
10.9998458377
 30
0.0
 10
11.4463561138
 20
10.9985441211
 30
0.0
 10
11.4446497262
 20
10.9972547208
 30
0.0
 10
11.4428016912
 20
10.9959786604
 30
0.0
 10
11.4408135207
 20
10.9947168695
 30
0.0
 10
11.4386867786
 20
10.993470348
 30
0.0
 10
11.4356033501
 20
10.9917946796
 30
0.0
 10
11.4314060742
 20
10.9897537358
 30
0.0
 10
11.4259487039
 20
10.9874300016
 30
0.0
 10
11.4199866827
 20
10.9851902125
 30
0.0
 10
11.4135392721
 20
10.9830416847
 30
0.0
 10
11.406627171
 20
10.9809914837
 30
0.0
 10
11.3992727684
 20
10.9790464013
 30
0.0
 10
11.3914999585
 20
10.977212875
 30
0.0
 10
11.3833340735
 20
10.9754969631
 30
0.0
 10
11.3748017629
 20
10.973904352
 30
0.0
 10
11.3659308983
 20
10.9724403296
 30
0.0
 10
11.3567504896
 20
10.9711097312
 30
0.0
 10
11.3472905806
 20
10.9699169503
 30
0.0
 10
11.3375821349
 20
10.9688659362
 30
0.0
 10
11.3276569456
 20
10.9679601796
 30
0.0
 10
11.3175474961
 20
10.967202636
 30
0.0
 10
11.3038011281
 20
10.9663897594
 30
0.0
 10
11.286402964
 20
10.9657634168
 30
0.0
 10
11.2654287495
 20
10.9656309187
 30
0.0
 10
11.2445329761
 20
10.9661159597
 30
0.0
 10
11.2306707715
 20
10.9668554625
 30
0.0
 10
11.2238025258
 20
10.9673317769
 30
0.0
  0
SPLINE
  5
3AC
100
AcDbEntity
  8
0
100
AcDbSpline
 62
7
  6
CONTINUOUS
 70
0
 71
3
 72
95
 73
91
 74
0
 42
0.0000001
 43
0.0000001
 44
0.0000000001
 40
0.0
 40
0.0
 40
0.0
 40
0.0
 40
0.004012499
 40
0.0078522999
 40
0.0115286844
 40
0.0150529826
 40
0.0184387833
 40
0.0217016875
 40
0.0248593748
 40
0.0279315443
 40
0.0309398097
 40
0.033907375
 40
0.0368584873
 40
0.039817841
 40
0.0428098995
 40
0.0458582743
 40
0.0489851492
 40
0.052210937
 40
0.059026231
 40
0.0626504359
 40
0.0664344182
 40
0.0703885194
 40
0.0745214
 40
0.0788402181
 40
0.08335089
 40
0.0880580986
 40
0.0929655712
 40
0.0980761412
 40
0.1033918102
 40
0.1089139678
 40
0.1146433073
 40
0.1205800118
 40
0.1267237922
 40
0.1330738477
 40
0.1396290601
 40
0.1463878815
 40
0.1533484445
 40
0.1678654462
 40
0.1831599074
 40
0.1992071994
 40
0.215979248
 40
0.2334449186
 40
0.2515703376
 40
0.2703191736
 40
0.2896528792
 40
0.3095309195
 40
0.3299109782
 40
0.3507491181
 40
0.3719999455
 40
0.3936168158
 40
0.4155519867
 40
0.4377567462
 40
0.4601815756
 40
0.4827763291
 40
0.5054903609
 40
0.5282726659
 40
0.5510720535
 40
0.573837284
 40
0.5965172074
 40
0.6190609239
 40
0.6414179401
 40
0.6635382951
 40
0.68537273
 40
0.7068728438
 40
0.7279912324
 40
0.7486816375
 40
0.768899156
 40
0.7886003747
 40
0.8077435347
 40
0.8262887276
 40
0.8441981384
 40
0.8614362343
 40
0.8779700161
 40
0.8937693182
 40
0.9088071606
 40
0.9230601836
 40
0.9298864852
 40
0.9365097376
 40
0.9429283306
 40
0.9491409726
 40
0.9551467412
 40
0.9609452202
 40
0.966536383
 40
0.971920772
 40
0.9770994965
 40
0.9820743195
 40
0.9868479362
 40
0.9914238188
 40
0.9958061564
 40
1.0
 40
1.0
 40
1.0
 40
1.0
 10
10.7353363254
 20
9.813158574
 30
0.0
 10
10.7341869582
 20
9.8120483704
 30
0.0
 10
10.7319892605
 20
9.8098213521
 30
0.0
 10
10.728942098
 20
9.806383845
 30
0.0
 10
10.7262208609
 20
9.802926675
 30
0.0
 10
10.7238276698
 20
9.7994518544
 30
0.0
 10
10.7217640957
 20
9.7959612564
 30
0.0
 10
10.7200318355
 20
9.7924566345
 30
0.0
 10
10.7186323188
 20
9.788940021
 30
0.0
 10
10.7175670391
 20
9.7854135685
 30
0.0
 10
10.7168373552
 20
9.7818796781
 30
0.0
 10
10.7164440696
 20
9.7783410238
 30
0.0
 10
10.7163879101
 20
9.7748004123
 30
0.0
 10
10.7166688482
 20
9.7712607852
 30
0.0
 10
10.7172864782
 20
9.7677249918
 30
0.0
 10
10.718240047
 20
9.7641958301
 30
0.0
 10
10.7195283142
 20
9.7606755479
 30
0.0
 10
10.7217302736
 20
9.7559107297
 30
0.0
 10
10.7245862193
 20
9.7512521074
 30
0.0
 10
10.7279985329
 20
9.7467281101
 30
0.0
 10
10.7309374159
 20
9.743283506
 30
0.0
 10
10.7342009009
 20
9.7398600214
 30
0.0
 10
10.7377872962
 20
9.7364589619
 30
0.0
 10
10.7416943149
 20
9.733082266
 30
0.0
 10
10.7459197354
 20
9.7297318595
 30
0.0
 10
10.7504609891
 20
9.7264095509
 30
0.0
 10
10.755315433
 20
9.7231172823
 30
0.0
 10
10.7604802079
 20
9.7198569793
 30
0.0
 10
10.7659522287
 20
9.7166304749
 30
0.0
 10
10.771728297
 20
9.7134397601
 30
0.0
 10
10.7778049504
 20
9.7102866545
 30
0.0
 10
10.7841785829
 20
9.7071730518
 30
0.0
 10
10.7908454077
 20
9.7041008524
 30
0.0
 10
10.7978014206
 20
9.7010718176
 30
0.0
 10
10.8050424847
 20
9.698087849
 30
0.0
 10
10.8125642611
 20
9.6951506659
 30
0.0
 10
10.8231097876
 20
9.6912443822
 30
0.0
 10
10.8369684939
 20
9.6865030686
 30
0.0
 10
10.8544181811
 20
9.6811042707
 30
0.0
 10
10.8728707993
 20
9.6759324898
 30
0.0
 10
10.8922820548
 20
9.6710002569
 30
0.0
 10
10.9126055135
 20
9.6663195504
 30
0.0
 10
10.9337924169
 20
9.6619017377
 30
0.0
 10
10.9557918936
 20
9.6577575297
 30
0.0
 10
10.9785510777
 20
9.6538969794
 30
0.0
 10
11.0020152564
 20
9.650329454
 30
0.0
 10
11.0261280026
 20
9.6470636144
 30
0.0
 10
11.0508313035
 20
9.6441073766
 30
0.0
 10
11.0760657066
 20
9.6414678967
 30
0.0
 10
11.101770476
 20
9.6391515712
 30
0.0
 10
11.1278837411
 20
9.6371640145
 30
0.0
 10
11.1543426359
 20
9.6355100507
 30
0.0
 10
11.1810834535
 20
9.6341936754
 30
0.0
 10
11.2080418079
 20
9.6332180732
 30
0.0
 10
11.2351527882
 20
9.6325856058
 30
0.0
 10
11.2623511122
 20
9.6322978136
 30
0.0
 10
11.2895712864
 20
9.6323553944
 30
0.0
 10
11.3167477657
 20
9.6327581998
 30
0.0
 10
11.3438151087
 20
9.633505253
 30
0.0
 10
11.3707081393
 20
9.6345947484
 30
0.0
 10
11.3973621022
 20
9.636024058
 30
0.0
 10
11.4237128223
 20
9.6377897134
 30
0.0
 10
11.4496968588
 20
9.6398874327
 30
0.0
 10
11.4752516613
 20
9.6423121353
 30
0.0
 10
11.5003157129
 20
9.6450579528
 30
0.0
 10
11.524828689
 20
9.6481182367
 30
0.0
 10
11.5487316091
 20
9.6514855586
 30
0.0
 10
11.5719669783
 20
9.6551517523
 30
0.0
 10
11.5944789142
 20
9.6591079268
 30
0.0
 10
11.6162132989
 20
9.6633444954
 30
0.0
 10
11.6371179218
 20
9.667851173
 30
0.0
 10
11.6571426196
 20
9.6726170135
 30
0.0
 10
11.6762393658
 20
9.6776304496
 30
0.0
 10
11.694362495
 20
9.6828793222
 30
0.0
 10
11.7114685195
 20
9.6883509179
 30
0.0
 10
11.7250305539
 20
9.693151686
 30
0.0
 10
11.7353317423
 20
9.6971035254
 30
0.0
 10
11.7426668618
 20
9.7000721365
 30
0.0
 10
11.749718359
 20
9.7030863373
 30
0.0
 10
11.7564820281
 20
9.7061443442
 30
0.0
 10
11.7629538088
 20
9.7092443718
 30
0.0
 10
11.7691298749
 20
9.7123844918
 30
0.0
 10
11.7750065192
 20
9.7155629113
 30
0.0
 10
11.7805802507
 20
9.7187776969
 30
0.0
 10
11.7858477708
 20
9.7220269061
 30
0.0
 10
11.7908059508
 20
9.725308732
 30
0.0
 10
11.7954519569
 20
9.7286212349
 30
0.0
 10
11.799783039
 20
9.731962636
 30
0.0
 10
11.8037963801
 20
9.7353307402
 30
0.0
 10
11.8063127433
 20
9.7376424167
 30
0.0
 10
11.8075140561
 20
9.7388027958
 30
0.0
  0
SPLINE
  5
3AD
100
AcDbEntity
  8
0
100
AcDbSpline
 62
7
  6
CONTINUOUS
 70
0
 71
3
 72
9
 73
5
 74
0
 42
0.0000001
 43
0.0000001
 44
0.0000000001
 40
0.0
 40
0.0
 40
0.0
 40
0.0
 40
0.50984796
 40
1.0
 40
1.0
 40
1.0
 40
1.0
 10
11.8760044433
 20
9.6825175961
 30
0.0
 10
11.877378427
 20
9.6836438646
 30
0.0
 10
11.8800329458
 20
9.6859027384
 30
0.0
 10
11.8825937361
 20
9.6882676741
 30
0.0
 10
11.8838222009
 20
9.6894542801
 30
0.0
  0
SPLINE
  5
3AE
100
AcDbEntity
  8
0
100
AcDbSpline
 62
7
  6
CONTINUOUS
 70
0
 71
3
 72
9
 73
5
 74
0
 42
0.0000001
 43
0.0000001
 44
0.0000000001
 40
0.0
 40
0.0
 40
0.0
 40
0.0
 40
0.2426666479
 40
1.0
 40
1.0
 40
1.0
 40
1.0
 10
11.8904524676
 20
9.6964733168
 30
0.0
 10
11.8899448398
 20
9.6958795438
 30
0.0
 10
11.887821144
 20
9.6934599594
 30
0.0
 10
11.8855757356
 20
9.6911480645
 30
0.0
 10
11.8838222009
 20
9.6894542801
 30
0.0
  0
SPLINE
  5
3AF
100
AcDbEntity
  8
0
100
AcDbSpline
 62
7
  6
CONTINUOUS
 70
0
 71
3
 72
15
 73
11
 74
0
 42
0.0000001
 43
0.0000001
 44
0.0000000001
 40
0.0
 40
0.0
 40
0.0
 40
0.0
 40
0.1071574903
 40
0.219202129
 40
0.3362661595
 40
0.4584590648
 40
0.5858711306
 40
0.7185716899
 40
0.8566053569
 40
1.0
 40
1.0
 40
1.0
 40
1.0
 10
10.7353363254
 20
9.813158574
 30
0.0
 10
10.7365555934
 20
9.8143362964
 30
0.0
 10
10.7391112996
 20
9.8166823597
 30
0.0
 10
10.7431905772
 20
9.8200990829
 30
0.0
 10
10.747596857
 20
9.8234882399
 30
0.0
 10
10.7523271908
 20
9.826847558
 30
0.0
 10
10.7573787056
 20
9.8301751754
 30
0.0
 10
10.7627484373
 20
9.8334690752
 30
0.0
 10
10.7684330506
 20
9.8367273497
 30
0.0
 10
10.7723556983
 20
9.8388342903
 30
0.0
 10
10.7743674252
 20
9.8398825106
 30
0.0
  0
SPLINE
  5
3B0
100
AcDbEntity
  8
0
100
AcDbSpline
 62
7
  6
CONTINUOUS
 70
0
 71
3
 72
15
 73
11
 74
0
 42
0.0000001
 43
0.0000001
 44
0.0000000001
 40
0.0
 40
0.0
 40
0.0
 40
0.0
 40
0.1136439434
 40
0.231659128
 40
0.3534946718
 40
0.4785172038
 40
0.60613547
 40
0.7358446736
 40
0.8672442533
 40
1.0
 40
1.0
 40
1.0
 40
1.0
 10
11.3216592896
 20
11.0269317829
 30
0.0
 10
11.3203894349
 20
11.0275947941
 30
0.0
 10
11.3178824374
 20
11.0291060885
 30
0.0
 10
11.3143100156
 20
11.0317784545
 30
0.0
 10
11.3108591315
 20
11.0348254204
 30
0.0
 10
11.3075314249
 20
11.0381771209
 30
0.0
 10
11.3043214512
 20
11.041774754
 30
0.0
 10
11.30122074
 20
11.0455705919
 30
0.0
 10
11.298219689
 20
11.0495267793
 30
0.0
 10
11.2962875501
 20
11.0522392337
 30
0.0
 10
11.2953338503
 20
11.0536143079
 30
0.0
  0
SPLINE
  5
3B1
100
AcDbEntity
  8
0
100
AcDbSpline
 62
7
  6
CONTINUOUS
 70
0
 71
3
 72
15
 73
11
 74
0
 42
0.0000001
 43
0.0000001
 44
0.0000000001
 40
0.0
 40
0.0
 40
0.0
 40
0.0
 40
0.126610968
 40
0.2524731195
 40
0.3777651277
 40
0.502639431
 40
0.627219636
 40
0.7515969928
 40
0.8758448054
 40
1.0
 40
1.0
 40
1.0
 40
1.0
 10
11.2420666587
 20
11.0300512006
 30
0.0
 10
11.24037294
 20
11.0302601995
 30
0.0
 10
11.2370161211
 20
11.0308641491
 30
0.0
 10
11.2321145856
 20
11.0322695352
 30
0.0
 10
11.227380688
 20
11.0340968757
 30
0.0
 10
11.2228185487
 20
11.0362748223
 30
0.0
 10
11.2184210713
 20
11.0387411433
 30
0.0
 10
11.2141760781
 20
11.0414442852
 30
0.0
 10
11.2100697163
 20
11.0443426324
 30
0.0
 10
11.2074143258
 20
11.0463835374
 30
0.0
 10
11.2061054499
 20
11.0474262863
 30
0.0
  0
SPLINE
  5
3B2
100
AcDbEntity
  8
0
100
AcDbSpline
 62
7
  6
CONTINUOUS
 70
0
 71
3
 72
23
 73
19
 74
0
 42
0.0000001
 43
0.0000001
 44
0.0000000001
 40
0.0
 40
0.0
 40
0.0
 40
0.0
 40
0.0736898817
 40
0.1431219204
 40
0.2086477515
 40
0.2707211483
 40
0.3298926064
 40
0.386807933
 40
0.4422010258
 40
0.4968755482
 40
0.5516698256
 40
0.6074160113
 40
0.6649011962
 40
0.7248361784
 40
0.7878396251
 40
0.8544311049
 40
0.9250376347
 40
1.0
 40
1.0
 40
1.0
 40
1.0
 10
11.6916029501
 20
10.2298042001
 30
0.0
 10
11.692816167
 20
10.2309760777
 30
0.0
 10
11.6951001831
 20
10.233329092
 30
0.0
 10
11.6981642049
 20
10.2369989597
 30
0.0
 10
11.7007562024
 20
10.2406971546
 30
0.0
 10
11.7028722018
 20
10.244420095
 30
0.0
 10
11.7045082911
 20
10.2481645694
 30
0.0
 10
11.705660814
 20
10.2519264326
 30
0.0
 10
11.7063259745
 20
10.2557006131
 30
0.0
 10
11.7065015811
 20
10.2594807587
 30
0.0
 10
11.7061866793
 20
10.2632598931
 30
0.0
 10
11.7053827798
 20
10.2670311757
 30
0.0
 10
11.7040924522
 20
10.2707885643
 30
0.0
 10
11.7023196066
 20
10.274527329
 30
0.0
 10
11.7000679544
 20
10.2782435052
 30
0.0
 10
11.6973415077
 20
10.2819339784
 30
0.0
 10
11.6941440915
 20
10.2855953462
 30
0.0
 10
11.6917744996
 20
10.2879422323
 30
0.0
 10
11.6905183729
 20
10.2891111842
 30
0.0
  0
SPLINE
  5
3B3
100
AcDbEntity
  8
0
100
AcDbSpline
 62
7
  6
CONTINUOUS
 70
0
 71
3
 72
18
 73
14
 74
0
 42
0.0000001
 43
0.0000001
 44
0.0000000001
 40
0.0
 40
0.0
 40
0.0
 40
0.0
 40
0.1480392107
 40
0.2876680063
 40
0.4195643421
 40
0.4828959003
 40
0.5446369283
 40
0.6638660762
 40
0.7785244741
 40
0.8345987409
 40
0.8900707994
 40
0.9451373938
 40
1.0
 40
1.0
 40
1.0
 40
1.0
 10
11.7514903549
 20
10.1657635897
 30
0.0
 10
11.7528526121
 20
10.1670794292
 30
0.0
 10
11.7554198904
 20
10.1697213537
 30
0.0
 10
11.7588717122
 20
10.1738386512
 30
0.0
 10
11.7613475894
 20
10.1773423242
 30
0.0
 10
11.7630527003
 20
10.1801545528
 30
0.0
 10
11.7645418363
 20
10.1829037329
 30
0.0
 10
11.7660893243
 20
10.1863630644
 30
0.0
 10
11.7672193505
 20
10.1899059845
 30
0.0
 10
11.7678465345
 20
10.1927327974
 30
0.0
 10
11.7681803114
 20
10.194839555
 30
0.0
 10
11.7683806355
 20
10.1969474793
 30
0.0
 10
11.768425192
 20
10.1983542977
 30
0.0
 10
11.7684251882
 20
10.1990561992
 30
0.0
  0
SPLINE
  5
3B4
100
AcDbEntity
  8
0
100
AcDbSpline
 62
7
  6
CONTINUOUS
 70
0
 71
3
 72
89
 73
85
 74
0
 42
0.0000001
 43
0.0000001
 44
0.0000000001
 40
0.0
 40
0.0
 40
0.0
 40
0.0
 40
0.0040124552
 40
0.0078522709
 40
0.0115287273
 40
0.0150530713
 40
0.0216971411
 40
0.0248548274
 40
0.0279270181
 40
0.0309353025
 40
0.0339028811
 40
0.0368540057
 40
0.0398133737
 40
0.0428054473
 40
0.045853831
 40
0.0489807304
 40
0.052206522
 40
0.0555495918
 40
0.0590261663
 40
0.0626503672
 40
0.066434386
 40
0.0703885042
 40
0.0745213874
 40
0.0788402501
 40
0.0833509192
 40
0.0880581526
 40
0.092965664
 40
0.0980762345
 40
0.103391952
 40
0.1089141283
 40
0.1146434787
 40
0.1205802312
 40
0.1267240209
 40
0.1396287295
 40
0.15334765
 40
0.167864702
 40
0.1831592381
 40
0.1992066119
 40
0.215978733
 40
0.2334444792
 40
0.2515699895
 40
0.2703189102
 40
0.2896526965
 40
0.3095308322
 40
0.3299109934
 40
0.3507492219
 40
0.3720001404
 40
0.3936171165
 40
0.415552393
 40
0.4377572493
 40
0.460182178
 40
0.4827770378
 40
0.5054911758
 40
0.5510721557
 40
0.5965165902
 40
0.619060416
 40
0.6414175268
 40
0.6635379809
 40
0.6853725245
 40
0.70687274
 40
0.7279912114
 40
0.7486817146
 40
0.7688993387
 40
0.7886006464
 40
0.8077438768
 40
0.8262891589
 40
0.8441986679
 40
0.8614368421
 40
0.8779706833
 40
0.8937700561
 40
0.9088079842
 40
0.9230610753
 40
0.9365101183
 40
0.9491407254
 40
0.9551465367
 40
0.9609450486
 40
0.96653623
 40
0.971920646
 40
0.9770993633
 40
0.9820742101
 40
0.9868478894
 40
0.991423837
 40
0.9958061945
 40
1.0
 40
1.0
 40
1.0
 40
1.0
 10
10.8512474314
 20
10.2880830532
 30
0.0
 10
10.85034659
 20
10.2872129072
 30
0.0
 10
10.8486240776
 20
10.2854673994
 30
0.0
 10
10.8462358095
 20
10.2827732145
 30
0.0
 10
10.8441027765
 20
10.2800632603
 30
0.0
 10
10.8416503495
 20
10.2765027587
 30
0.0
 10
10.839642416
 20
10.2728385051
 30
0.0
 10
10.8381551775
 20
10.269101018
 30
0.0
 10
10.837320139
 20
10.2663369536
 30
0.0
 10
10.8367482317
 20
10.263567169
 30
0.0
 10
10.8364400169
 20
10.2607936185
 30
0.0
 10
10.8363959406
 20
10.258018548
 30
0.0
 10
10.8366161822
 20
10.2552442447
 30
0.0
 10
10.8371002698
 20
10.2524729582
 30
0.0
 10
10.8378476267
 20
10.2497068178
 30
0.0
 10
10.8388573643
 20
10.2469477946
 30
0.0
 10
10.8401282772
 20
10.2441975963
 30
0.0
 10
10.8416592884
 20
10.2414578795
 30
0.0
 10
10.8434490764
 20
10.2387301205
 30
0.0
 10
10.8454962856
 20
10.2360157207
 30
0.0
 10
10.8477996195
 20
10.2333161739
 30
0.0
 10
10.8503575219
 20
10.2306328261
 30
0.0
 10
10.8531684465
 20
10.2279671233
 30
0.0
 10
10.856230742
 20
10.225320565
 30
0.0
 10
10.8595425282
 20
10.2226945349
 30
0.0
 10
10.863101897
 20
10.2200905733
 30
0.0
 10
10.866906743
 20
10.2175101674
 30
0.0
 10
10.8709547912
 20
10.2149547549
 30
0.0
 10
10.8752436908
 20
10.2124259074
 30
0.0
 10
10.8797708732
 20
10.2099250639
 30
0.0
 10
10.8845336468
 20
10.2074537008
 30
0.0
 10
10.8895292115
 20
10.2050133217
 30
0.0
 10
10.896612852
 20
10.2017490945
 30
0.0
 10
10.906037662
 20
10.1977679356
 30
0.0
 10
10.9180466977
 20
10.1932116932
 30
0.0
 10
10.9309050179
 20
10.188812514
 30
0.0
 10
10.944581876
 20
10.184581034
 30
0.0
 10
10.9590447199
 20
10.1805274755
 30
0.0
 10
10.974258952
 20
10.1766616682
 30
0.0
 10
10.9901881477
 20
10.1729930081
 30
0.0
 10
11.0067941007
 20
10.1695304017
 30
0.0
 10
11.0240369324
 20
10.1662822353
 30
0.0
 10
11.0418752092
 20
10.1632563928
 30
0.0
 10
11.0602660545
 20
10.1604602311
 30
0.0
 10
11.0791652364
 20
10.1579005244
 30
0.0
 10
11.0985272806
 20
10.1555834663
 30
0.0
 10
11.1183055934
 20
10.1535146775
 30
0.0
 10
11.1384525772
 20
10.1516991871
 30
0.0
 10
11.1589197328
 20
10.1501413802
 30
0.0
 10
11.1796577853
 20
10.1488450213
 30
0.0
 10
11.2006167956
 20
10.1478132644
 30
0.0
 10
11.2217463414
 20
10.1470485948
 30
0.0
 10
11.2501100713
 20
10.1463869866
 30
0.0
 10
11.2856169712
 20
10.1462374024
 30
0.0
 10
11.3210631781
 20
10.1469861283
 30
0.0
 10
11.3492415378
 20
10.1481276094
 30
0.0
 10
11.3701325036
 20
10.1492478947
 30
0.0
 10
11.3907857636
 20
10.1506317852
 30
0.0
 10
11.4111516344
 20
10.1522759436
 30
0.0
 10
11.4311810731
 20
10.1541763821
 30
0.0
 10
11.4508258671
 20
10.1563285155
 30
0.0
 10
11.4700387406
 20
10.1587271174
 30
0.0
 10
11.4887734669
 20
10.1613663641
 30
0.0
 10
11.5069849712
 20
10.1642398624
 30
0.0
 10
11.5246294548
 20
10.1673406591
 30
0.0
 10
11.5416645131
 20
10.1706612149
 30
0.0
 10
11.5580492262
 20
10.1741934656
 30
0.0
 10
11.5737442584
 20
10.1779288495
 30
0.0
 10
11.5887119756
 20
10.1818583111
 30
0.0
 10
11.6029165651
 20
10.1859722979
 30
0.0
 10
11.6163240786
 20
10.1902608322
 30
0.0
 10
11.6289026479
 20
10.19471356
 30
0.0
 10
11.6406222135
 20
10.1993197405
 30
0.0
 10
11.6497979805
 20
10.2033416229
 30
0.0
 10
11.6566773474
 20
10.2066367661
 30
0.0
 10
11.6615180558
 20
10.209097965
 30
0.0
 10
11.6661240649
 20
10.2115891692
 30
0.0
 10
11.6704926674
 20
10.2141088417
 30
0.0
 10
11.6746212524
 20
10.2166555216
 30
0.0
 10
11.6785073969
 20
10.2192277641
 30
0.0
 10
11.6821488858
 20
10.221824062
 30
0.0
 10
11.6855435275
 20
10.2244430284
 30
0.0
 10
11.688689119
 20
10.227082887
 30
0.0
 10
11.6906613935
 20
10.2288947262
 30
0.0
 10
11.6916029501
 20
10.2298042001
 30
0.0
  0
SPLINE
  5
3B5
100
AcDbEntity
  8
0
100
AcDbSpline
 62
7
  6
CONTINUOUS
 70
0
 71
3
 72
34
 73
30
 74
0
 42
0.0000001
 43
0.0000001
 44
0.0000000001
 40
0.0
 40
0.0
 40
0.0
 40
0.0
 40
0.0209256678
 40
0.0419402314
 40
0.0630995181
 40
0.0844658234
 40
0.1061069731
 40
0.1280955268
 40
0.1505076505
 40
0.1734220844
 40
0.1969182328
 40
0.2210748281
 40
0.2716551862
 40
0.3257330732
 40
0.3837539745
 40
0.4143502034
 40
0.4460364588
 40
0.478828339
 40
0.5127327991
 40
0.5477486573
 40
0.5838667424
 40
0.6210715311
 40
0.6593412976
 40
0.6986494776
 40
0.7389654509
 40
0.7802553555
 40
0.8224830108
 40
0.9095973888
 40
1.0
 40
1.0
 40
1.0
 40
1.0
 10
10.6523979139
 20
9.7673749971
 30
0.0
 10
10.653943456
 20
9.767418628
 30
0.0
 10
10.6570437632
 20
9.7674318642
 30
0.0
 10
10.6617031271
 20
9.7672189215
 30
0.0
 10
10.6663779047
 20
9.7667621068
 30
0.0
 10
10.6710676188
 20
9.7660501839
 30
0.0
 10
10.6757718467
 20
9.7650720985
 30
0.0
 10
10.6804899162
 20
9.7638169132
 30
0.0
 10
10.6852210551
 20
9.7622741991
 30
0.0
 10
10.6899642526
 20
9.7604339285
 30
0.0
 10
10.6947185334
 20
9.7582868071
 30
0.0
 10
10.7011690709
 20
9.7549529381
 30
0.0
 10
10.7092725775
 20
9.7499280046
 30
0.0
 10
10.7188603994
 20
9.7426536035
 30
0.0
 10
10.726706267
 20
9.7355929879
 30
0.0
 10
10.7329843706
 20
9.7292983714
 30
0.0
 10
10.7377736136
 20
9.7241572297
 30
0.0
 10
10.7425587721
 20
9.7186835886
 30
0.0
 10
10.747338451
 20
9.7128827543
 30
0.0
 10
10.7521111009
 20
9.706761507
 30
0.0
 10
10.756875491
 20
9.7003278613
 30
0.0
 10
10.7616302972
 20
9.6935907433
 30
0.0
 10
10.7663744733
 20
9.6865600134
 30
0.0
 10
10.7711070483
 20
9.6792461803
 30
0.0
 10
10.7758271649
 20
9.6716602434
 30
0.0
 10
10.7805342073
 20
9.6638135918
 30
0.0
 10
10.7868575727
 20
9.6529058721
 30
0.0
 10
10.7947081202
 20
9.638691275
 30
0.0
 10
10.8007822348
 20
9.6270648678
 30
0.0
 10
10.8038178534
 20
9.621114817
 30
0.0
  0
SPLINE
  5
3B6
100
AcDbEntity
  8
0
100
AcDbSpline
 62
7
  6
CONTINUOUS
 70
0
 71
3
 72
22
 73
18
 74
0
 42
0.0000001
 43
0.0000001
 44
0.0000000001
 40
0.0
 40
0.0
 40
0.0
 40
0.0
 40
0.1230219154
 40
0.1847074999
 40
0.2465218679
 40
0.3084765242
 40
0.3705814969
 40
0.4328444992
 40
0.4952701564
 40
0.557859533
 40
0.6206099778
 40
0.6835153714
 40
0.7465667585
 40
0.8097531646
 40
0.8730624855
 40
0.9364821398
 40
1.0
 40
1.0
 40
1.0
 40
1.0
 10
10.8432906313
 20
9.6108985233
 30
0.0
 10
10.8663701662
 20
9.6154459492
 30
0.0
 10
10.9012031316
 20
9.6214185191
 30
0.0
 10
10.9479749161
 20
9.627328559
 30
0.0
 10
10.9832863454
 20
9.6306558049
 30
0.0
 10
11.0187706327
 20
9.6327903781
 30
0.0
 10
11.0543950163
 20
9.6336607665
 30
0.0
 10
11.0901177336
 20
9.6332119147
 30
0.0
 10
11.1258907881
 20
9.6314102434
 30
0.0
 10
11.1616627046
 20
9.6282467111
 30
0.0
 10
11.1973821511
 20
9.6237377878
 30
0.0
 10
11.2330014477
 20
9.6179239383
 30
0.0
 10
11.2684794803
 20
9.610866066
 30
0.0
 10
11.3037835039
 20
9.6026403986
 30
0.0
 10
11.3388898931
 20
9.5933329344
 30
0.0
 10
11.3737834716
 20
9.5830344184
 30
0.0
 10
11.3968833067
 20
9.5755738219
 30
0.0
 10
11.4083971059
 20
9.5717082562
 30
0.0
  0
SPLINE
  5
3B7
100
AcDbEntity
  8
0
100
AcDbSpline
 62
7
  6
CONTINUOUS
 70
0
 71
3
 72
22
 73
18
 74
0
 42
0.0000001
 43
0.0000001
 44
0.0000000001
 40
0.0
 40
0.0
 40
0.0
 40
0.0
 40
0.0635178602
 40
0.1269375145
 40
0.1902468354
 40
0.2534332415
 40
0.3164846287
 40
0.3793900222
 40
0.442140467
 40
0.5047298436
 40
0.5671555009
 40
0.6294185031
 40
0.6915234758
 40
0.7534781321
 40
0.8152925001
 40
0.8769780846
 40
1.0
 40
1.0
 40
1.0
 40
1.0
 10
10.8432906313
 20
9.1047884206
 30
0.0
 10
10.8548044305
 20
9.1009228549
 30
0.0
 10
10.8779042657
 20
9.0934622584
 30
0.0
 10
10.9127978442
 20
9.0831637424
 30
0.0
 10
10.9479042333
 20
9.0738562783
 30
0.0
 10
10.983208257
 20
9.0656306109
 30
0.0
 10
11.0186862895
 20
9.0585727386
 30
0.0
 10
11.0543055861
 20
9.052758889
 30
0.0
 10
11.0900250327
 20
9.0482499657
 30
0.0
 10
11.1257969492
 20
9.0450864334
 30
0.0
 10
11.1615700037
 20
9.0432847621
 30
0.0
 10
11.1972927209
 20
9.0428359104
 30
0.0
 10
11.2329171046
 20
9.0437062987
 30
0.0
 10
11.2684013919
 20
9.0458408719
 30
0.0
 10
11.3037128212
 20
9.0491681178
 30
0.0
 10
11.3504846056
 20
9.0550781577
 30
0.0
 10
11.385317571
 20
9.0610507277
 30
0.0
 10
11.4083971059
 20
9.0655981535
 30
0.0
  0
SPLINE
  5
3B8
100
AcDbEntity
  8
0
100
AcDbSpline
 62
7
  6
CONTINUOUS
 70
0
 71
3
 72
23
 73
19
 74
0
 42
0.0000001
 43
0.0000001
 44
0.0000000001
 40
0.0
 40
0.0
 40
0.0
 40
0.0
 40
0.0679998467
 40
0.1353039263
 40
0.2018584121
 40
0.2676162976
 40
0.3325422638
 40
0.3966172088
 40
0.4598422949
 40
0.5222413543
 40
0.5838608447
 40
0.6447670533
 40
0.7050409669
 40
0.764771834
 40
0.8240505309
 40
0.8829639483
 40
0.9415908691
 40
1.0
 40
1.0
 40
1.0
 40
1.0
 10
11.4623179082
 20
9.5754476831
 30
0.0
 10
11.4707119437
 20
9.5806746916
 30
0.0
 10
11.4875456453
 20
9.5908662406
 30
0.0
 10
11.5130795156
 20
9.6053550336
 30
0.0
 10
11.5387701682
 20
9.6188800281
 30
0.0
 10
11.5646073324
 20
9.63134897
 30
0.0
 10
11.5905746787
 20
9.6426731914
 30
0.0
 10
11.6166491345
 20
9.6527724229
 30
0.0
 10
11.6428012335
 20
9.6615803845
 30
0.0
 10
11.668996214
 20
9.6690501421
 30
0.0
 10
11.6951960574
 20
9.6751581572
 30
0.0
 10
11.7213621057
 20
9.6799064221
 30
0.0
 10
11.7474578664
 20
9.6833221175
 30
0.0
 10
11.773451472
 20
9.6854549668
 30
0.0
 10
11.7993173352
 20
9.6863726163
 30
0.0
 10
11.8250370194
 20
9.6861551681
 30
0.0
 10
11.8505984482
 20
9.6848898702
 30
0.0
 10
11.8675571597
 20
9.6834051283
 30
0.0
 10
11.8760044433
 20
9.6825175961
 30
0.0
  0
SPLINE
  5
3B9
100
AcDbEntity
  8
0
100
AcDbSpline
 62
7
  6
CONTINUOUS
 70
0
 71
3
 72
22
 73
18
 74
0
 42
0.0000001
 43
0.0000001
 44
0.0000000001
 40
0.0
 40
0.0
 40
0.0
 40
0.0
 40
0.0595217299
 40
0.1192105349
 40
0.1791086343
 40
0.2392641667
 40
0.2997300939
 40
0.360563318
 40
0.4218228517
 40
0.4835675714
 40
0.5458535351
 40
0.6087311714
 40
0.6722426728
 40
0.7364199131
 40
0.8012831575
 40
0.8668406939
 40
1.0
 40
1.0
 40
1.0
 40
1.0
 10
11.4623179082
 20
9.0693375805
 30
0.0
 10
11.4690581669
 20
9.0686294005
 30
0.0
 10
11.4825781176
 20
9.0673979213
 30
0.0
 10
11.502937054
 20
9.0661518134
 30
0.0
 10
11.5233980115
 20
9.0655499595
 30
0.0
 10
11.5439565233
 20
9.0656374927
 30
0.0
 10
11.5646058524
 20
9.0664578676
 30
0.0
 10
11.5853364161
 20
9.0680512813
 30
0.0
 10
11.6061358578
 20
9.0704529201
 30
0.0
 10
11.6269891914
 20
9.0736911942
 30
0.0
 10
11.647879231
 20
9.0777861426
 30
0.0
 10
11.6687872231
 20
9.0827481923
 30
0.0
 10
11.6896937018
 20
9.0885774776
 30
0.0
 10
11.7105792262
 20
9.0952636926
 30
0.0
 10
11.731425838
 20
9.1027869617
 30
0.0
 10
11.7592885935
 20
9.1139522146
 30
0.0
 10
11.779866702
 20
9.1234055946
 30
0.0
 10
11.7934600792
 20
9.1301217224
 30
0.0
  0
SPLINE
  5
3BA
100
AcDbEntity
  8
0
100
AcDbSpline
 62
7
  6
CONTINUOUS
 70
0
 71
3
 72
9
 73
5
 74
0
 42
0.0000001
 43
0.0000001
 44
0.0000000001
 40
0.0
 40
0.0
 40
0.0
 40
0.0
 40
0.5108918688
 40
1.0
 40
1.0
 40
1.0
 40
1.0
 10
11.7685965052
 20
9.8398233005
 30
0.0
 10
11.7708766459
 20
9.8386338435
 30
0.0
 10
11.7753068326
 20
9.8362419118
 30
0.0
 10
11.7796591421
 20
9.8337106002
 30
0.0
 10
11.7817651842
 20
9.832435277
 30
0.0
  0
SPLINE
  5
3BB
100
AcDbEntity
  8
0
100
AcDbSpline
 62
7
  6
CONTINUOUS
 70
0
 71
3
 72
36
 73
32
 74
0
 42
0.0000001
 43
0.0000001
 44
0.0000000001
 40
0.0
 40
0.0
 40
0.0
 40
0.0
 40
0.0869651141
 40
0.1282432753
 40
0.1680746379
 40
0.2064839933
 40
0.243501519
 40
0.2791640506
 40
0.3135147869
 40
0.3466043834
 40
0.3784923422
 40
0.4092469179
 40
0.4389461684
 40
0.4955160629
 40
0.5226265711
 40
0.5491031874
 40
0.575077684
 40
0.6006904587
 40
0.6260886776
 40
0.651423507
 40
0.6768474122
 40
0.702511107
 40
0.7285607622
 40
0.7551356187
 40
0.7823656079
 40
0.8103705087
 40
0.8691046235
 40
0.900046075
 40
0.9321344979
 40
0.965434161
 40
1.0
 40
1.0
 40
1.0
 40
1.0
 10
11.7817651842
 20
9.832435277
 30
0.0
 10
11.7846899709
 20
9.8306641594
 30
0.0
 10
11.7889405937
 20
9.8279457112
 30
0.0
 10
11.7943446027
 20
9.8241409449
 30
0.0
 10
11.7981010092
 20
9.8213160922
 30
0.0
 10
11.801629826
 20
9.8184715144
 30
0.0
 10
11.8049295481
 20
9.8156082861
 30
0.0
 10
11.8079988032
 20
9.812727645
 30
0.0
 10
11.8108362573
 20
9.8098307398
 30
0.0
 10
11.8134406352
 20
9.806918656
 30
0.0
 10
11.8158107938
 20
9.8039926951
 30
0.0
 10
11.8179457971
 20
9.8010536478
 30
0.0
 10
11.8204364473
 20
9.797183124
 30
0.0
 10
11.8225116503
 20
9.7932210362
 30
0.0
 10
11.8241126146
 20
9.7891934419
 30
0.0
 10
11.8250568936
 20
9.7862081363
 30
0.0
 10
11.8257606303
 20
9.7832175734
 30
0.0
 10
11.826223265
 20
9.7802230878
 30
0.0
 10
11.8264444973
 20
9.7772263092
 30
0.0
 10
11.8264241236
 20
9.774228841
 30
0.0
 10
11.8261620655
 20
9.7712323382
 30
0.0
 10
11.825658661
 20
9.768238415
 30
0.0
 10
11.824914301
 20
9.7652486089
 30
0.0
 10
11.8239294908
 20
9.7622644593
 30
0.0
 10
11.8227049833
 20
9.7592872052
 30
0.0
 10
11.8207227237
 20
9.7552654444
 30
0.0
 10
11.8182769543
 20
9.7513221648
 30
0.0
 10
11.8154270831
 20
9.7474736939
 30
0.0
 10
11.8130169999
 20
9.7445496928
 30
0.0
 10
11.8103732401
 20
9.7416402102
 30
0.0
 10
11.8084915518
 20
9.7397469842
 30
0.0
 10
11.8075140561
 20
9.7388027958
 30
0.0
  0
SPLINE
  5
3BC
100
AcDbEntity
  8
0
100
AcDbSpline
 62
7
  6
CONTINUOUS
 70
0
 71
3
 72
18
 73
14
 74
0
 42
0.0000001
 43
0.0000001
 44
0.0000000001
 40
0.0
 40
0.0
 40
0.0
 40
0.0
 40
0.0548625507
 40
0.1099291197
 40
0.1654011778
 40
0.2214754639
 40
0.3361339395
 40
0.4553631811
 40
0.5171042498
 40
0.5804358395
 40
0.7123321971
 40
0.8519609383
 40
1.0
 40
1.0
 40
1.0
 40
1.0
 10
11.7684251882
 20
9.7759803019
 30
0.0
 10
11.7684251844
 20
9.7752784077
 30
0.0
 10
11.7683806136
 20
9.773871604
 30
0.0
 10
11.7681802709
 20
9.7717637025
 30
0.0
 10
11.7678464784
 20
9.7696569678
 30
0.0
 10
11.7672192771
 20
9.7668301852
 30
0.0
 10
11.7660892368
 20
9.763287304
 30
0.0
 10
11.7645417446
 20
9.7598280106
 30
0.0
 10
11.7630526106
 20
9.7570788604
 30
0.0
 10
11.7613475059
 20
9.7542666627
 30
0.0
 10
11.7588716439
 20
9.7507630284
 30
0.0
 10
11.7554198511
 20
9.7466457755
 30
0.0
 10
11.752852598
 20
9.7440038785
 30
0.0
 10
11.7514903549
 20
9.7426880527
 30
0.0
  0
SPLINE
  5
3BD
100
AcDbEntity
  8
0
100
AcDbSpline
 62
7
  6
CONTINUOUS
 70
0
 71
3
 72
15
 73
11
 74
0
 42
0.0000001
 43
0.0000001
 44
0.0000000001
 40
0.0
 40
0.0
 40
0.0
 40
0.0
 40
0.1343371185
 40
0.264867982
 40
0.3921861468
 40
0.5168768329
 40
0.639501083
 40
0.760584206
 40
0.8806078268
 40
1.0
 40
1.0
 40
1.0
 40
1.0
 10
10.7608061595
 20
9.1244825188
 30
0.0
 10
10.7625924539
 20
9.1236005576
 30
0.0
 10
10.7661670487
 20
9.1219655822
 30
0.0
 10
10.7715989934
 20
9.1198771905
 30
0.0
 10
10.7770152577
 20
9.1181774378
 30
0.0
 10
10.7824140839
 20
9.1168512712
 30
0.0
 10
10.7877943014
 20
9.1158827066
 30
0.0
 10
10.7931550261
 20
9.1152552172
 30
0.0
 10
10.7984954035
 20
9.1149519556
 30
0.0
 10
10.8020480251
 20
9.1149547518
 30
0.0
 10
10.8038178534
 20
9.1150047144
 30
0.0
  0
SPLINE
  5
3BE
100
AcDbEntity
  8
0
100
AcDbSpline
 62
7
  6
CONTINUOUS
 70
0
 71
3
 72
53
 73
49
 74
0
 42
0.0000001
 43
0.0000001
 44
0.0000000001
 40
0.0
 40
0.0
 40
0.0
 40
0.0
 40
0.0099875438
 40
0.0204478565
 40
0.0313774323
 40
0.0427710597
 40
0.0546222335
 40
0.066923053
 40
0.0796645943
 40
0.0928368027
 40
0.1064287549
 40
0.1204286021
 40
0.134823718
 40
0.1496007335
 40
0.1647455707
 40
0.1802435614
 40
0.2122365809
 40
0.2454516198
 40
0.2797521695
 40
0.3149950989
 40
0.3510317326
 40
0.3877087897
 40
0.4248693257
 40
0.4623537063
 40
0.5000004436
 40
0.5376471814
 40
0.5751315452
 40
0.6122920624
 40
0.6489690938
 40
0.68500569
 40
0.7202485858
 40
0.7545490853
 40
0.7877640748
 40
0.8197570358
 40
0.8352549701
 40
0.8503997928
 40
0.8651767577
 40
0.8795718513
 40
0.8935716483
 40
0.9071635622
 40
0.9203357321
 40
0.9330772244
 40
0.9453780174
 40
0.9572291241
 40
0.9686227308
 40
0.9795522376
 40
0.9900125341
 40
1.0
 40
1.0
 40
1.0
 40
1.0
 10
10.7948745048
 20
9.1076533933
 30
0.0
 10
10.7977734551
 20
9.1062213626
 30
0.0
 10
10.8037581066
 20
9.1033889605
 30
0.0
 10
10.8130663193
 20
9.0993182963
 30
0.0
 10
10.8229037564
 20
9.0953316514
 30
0.0
 10
10.8332590125
 20
9.0914335724
 30
0.0
 10
10.8441202858
 20
9.0876286495
 30
0.0
 10
10.8554750809
 20
9.0839211893
 30
0.0
 10
10.8673103608
 20
9.0803155748
 30
0.0
 10
10.8796124977
 20
9.0768159138
 30
0.0
 10
10.8923673283
 20
9.0734263167
 30
0.0
 10
10.9055601486
 20
9.0701506869
 30
0.0
 10
10.919175743
 20
9.0669928319
 30
0.0
 10
10.933198397
 20
9.0639564366
 30
0.0
 10
10.9476119437
 20
9.0610449651
 30
0.0
 10
10.9675402851
 20
9.0572944948
 30
0.0
 10
10.9933082463
 20
9.0529562566
 30
0.0
 10
11.0251949972
 20
9.0483517667
 30
0.0
 10
11.0582188934
 20
9.0443167642
 30
0.0
 10
11.0922274057
 20
9.0408700868
 30
0.0
 10
11.1270636068
 20
9.0380278587
 30
0.0
 10
11.1625666327
 20
9.035803357
 30
0.0
 10
11.1985725243
 20
9.0342069721
 30
0.0
 10
11.2349149626
 20
9.0332461579
 30
0.0
 10
11.2714260691
 20
9.0329253988
 30
0.0
 10
11.3079371698
 20
9.0332461916
 30
0.0
 10
11.344279596
 20
9.0342070382
 30
0.0
 10
11.3802854663
 20
9.035803454
 30
0.0
 10
11.4157884638
 20
9.0380279847
 30
0.0
 10
11.4506246311
 20
9.0408702404
 30
0.0
 10
11.4846331012
 20
9.0443169448
 30
0.0
 10
11.5176569511
 20
9.0483519716
 30
0.0
 10
11.5495436456
 20
9.0529564924
 30
0.0
 10
11.5753115527
 20
9.0572947341
 30
0.0
 10
11.595239842
 20
9.061045254
 30
0.0
 10
11.6096533523
 20
9.0639567069
 30
0.0
 10
11.6236759686
 20
9.0669931432
 30
0.0
 10
11.6372915248
 20
9.0701509862
 30
0.0
 10
11.6504843015
 20
9.0734266431
 30
0.0
 10
11.6632390884
 20
9.0768162439
 30
0.0
 10
11.6755411811
 20
9.080315912
 30
0.0
 10
11.6873764147
 20
9.0839215512
 30
0.0
 10
11.6987311664
 20
9.0876289966
 30
0.0
 10
11.7095923853
 20
9.0914339621
 30
0.0
 10
11.7199476001
 20
9.0953320077
 30
0.0
 10
11.7297849767
 20
9.0993187096
 30
0.0
 10
11.7390931515
 20
9.1033893291
 30
0.0
 10
11.7450777505
 20
9.1062217716
 30
0.0
 10
11.7479766761
 20
9.1076537951
 30
0.0
  0
SPLINE
  5
3BF
100
AcDbEntity
  8
0
100
AcDbSpline
 62
7
  6
CONTINUOUS
 70
0
 71
3
 72
82
 73
78
 74
0
 42
0.0000001
 43
0.0000001
 44
0.0000000001
 40
0.0
 40
0.0
 40
0.0
 40
0.0
 40
0.0028079985
 40
0.0056356805
 40
0.0085022865
 40
0.0114262166
 40
0.014424685
 40
0.0175135437
 40
0.0207071109
 40
0.0240181244
 40
0.0274578394
 40
0.0310360137
 40
0.0347610468
 40
0.038640157
 40
0.0426793845
 40
0.0468837899
 40
0.0512575911
 40
0.0558041381
 40
0.0605261205
 40
0.0654256331
 40
0.0705041381
 40
0.0757626611
 40
0.0812017858
 40
0.0868216291
 40
0.0986018452
 40
0.1110985164
 40
0.124301765
 40
0.1381979328
 40
0.1527700477
 40
0.1679983155
 40
0.1838604311
 40
0.2003317855
 40
0.2173857397
 40
0.2349938358
 40
0.2531259149
 40
0.27175029
 40
0.2908339146
 40
0.3103424673
 40
0.3302404801
 40
0.350491487
 40
0.3710581112
 40
0.3919021415
 40
0.4129846947
 40
0.4557062294
 40
0.4989023262
 40
0.542247203
 40
0.585413576
 40
0.6280759424
 40
0.6491180507
 40
0.6699145112
 40
0.6904265676
 40
0.7106161586
 40
0.7304460368
 40
0.7498799283
 40
0.768882582
 40
0.7874198681
 40
0.8054589773
 40
0.8229685213
 40
0.8399186244
 40
0.8562811156
 40
0.872029749
 40
0.8871403239
 40
0.9015909219
 40
0.9153622606
 40
0.928437971
 40
0.9408049953
 40
0.9524541874
 40
0.9580083332
 40
0.9633817497
 40
0.9685747338
 40
0.9735880093
 40
0.9784226984
 40
0.983080574
 40
0.987564029
 40
0.991876003
 40
0.9960199485
 40
1.0
 40
1.0
 40
1.0
 40
1.0
 10
10.7744251934
 20
10.1990562445
 30
0.0
 10
10.7744251986
 20
10.1980907369
 30
0.0
 10
10.774509773
 20
10.1961519114
 30
0.0
 10
10.7748896439
 20
10.1932498164
 30
0.0
 10
10.7755223351
 20
10.1903512713
 30
0.0
 10
10.7764072399
 20
10.1874583339
 30
0.0
 10
10.7775434467
 20
10.1845725054
 30
0.0
 10
10.7789301275
 20
10.1816953373
 30
0.0
 10
10.7805662528
 20
10.1788282232
 30
0.0
 10
10.7824506877
 20
10.1759724506
 30
0.0
 10
10.7845823901
 20
10.1731293717
 30
0.0
 10
10.7869601173
 20
10.1703002364
 30
0.0
 10
10.7895825718
 20
10.1674862878
 30
0.0
 10
10.7924484651
 20
10.1646888775
 30
0.0
 10
10.7955562911
 20
10.1619092482
 30
0.0
 10
10.7989044907
 20
10.1591486941
 30
0.0
 10
10.8024914416
 20
10.1564085918
 30
0.0
 10
10.8063153113
 20
10.153690197
 30
0.0
 10
10.8103742106
 20
10.1509948453
 30
0.0
 10
10.8146661459
 20
10.1483239073
 30
0.0
 10
10.8191889407
 20
10.1456786353
 30
0.0
 10
10.8239403539
 20
10.1430603814
 30
0.0
 10
10.8289180284
 20
10.14047045
 30
0.0
 10
10.8359642898
 20
10.1370020956
 30
0.0
 10
10.8453299226
 20
10.1327571733
 30
0.0
 10
10.8572586033
 20
10.1278733572
 30
0.0
 10
10.8700237594
 20
10.1231326096
 30
0.0
 10
10.8835997444
 20
10.1185445364
 30
0.0
 10
10.897959441
 20
10.1141184118
 30
0.0
 10
10.9130740158
 20
10.1098632447
 30
0.0
 10
10.9289130873
 20
10.1057877213
 30
0.0
 10
10.9454447436
 20
10.1019001172
 30
0.0
 10
10.9626356461
 20
10.0982083459
 30
0.0
 10
10.9804511065
 20
10.0947199526
 30
0.0
 10
10.9988551449
 20
10.0914420347
 30
0.0
 10
11.0178105729
 20
10.0883812504
 30
0.0
 10
11.0372790813
 20
10.085543845
 30
0.0
 10
11.0572213106
 20
10.0829356064
 30
0.0
 10
11.0775969282
 20
10.0805618198
 30
0.0
 10
11.0983647291
 20
10.0784273154
 30
0.0
 10
11.1194826962
 20
10.0765364647
 30
0.0
 10
11.140908138
 20
10.0748930686
 30
0.0
 10
11.1699545251
 20
10.0730282311
 30
0.0
 10
11.2067109789
 20
10.0713440772
 30
0.0
 10
11.2511498195
 20
10.070357321
 30
0.0
 10
11.2957526948
 20
10.0704043781
 30
0.0
 10
11.3401587897
 20
10.071484818
 30
0.0
 10
11.3768670926
 20
10.0732467514
 30
0.0
 10
11.4058587373
 20
10.0751732955
 30
0.0
 10
11.4272314842
 20
10.0768619631
 30
0.0
 10
11.448288942
 20
10.078797415
 30
0.0
 10
11.4689885409
 20
10.0809757499
 30
0.0
 10
11.4892883979
 20
10.0833925468
 30
0.0
 10
11.509147466
 20
10.0860428688
 30
0.0
 10
11.5285255883
 20
10.0889213182
 30
0.0
 10
11.5473835801
 20
10.0920220602
 30
0.0
 10
11.5656833303
 20
10.0953387676
 30
0.0
 10
11.5833878758
 20
10.0988646732
 30
0.0
 10
11.6004614589
 20
10.1025926126
 30
0.0
 10
11.6168696225
 20
10.1065149979
 30
0.0
 10
11.6325792954
 20
10.1106238154
 30
0.0
 10
11.6475588406
 20
10.1149107025
 30
0.0
 10
11.6617781368
 20
10.119366962
 30
0.0
 10
11.6752086533
 20
10.1239835048
 30
0.0
 10
11.6878236012
 20
10.128750973
 30
0.0
 10
11.6995976303
 20
10.1336597434
 30
0.0
 10
11.708830626
 20
10.1379250767
 30
0.0
 10
11.71576846
 20
10.1414088776
 30
0.0
 10
11.7206641435
 20
10.1440092852
 30
0.0
 10
11.725332689
 20
10.1466375255
 30
0.0
 10
11.7297717844
 20
10.1492922559
 30
0.0
 10
11.7339791867
 20
10.151972209
 30
0.0
 10
11.7379528444
 20
10.1546760784
 30
0.0
 10
11.7416908423
 20
10.157402554
 30
0.0
 10
11.7451912651
 20
10.1601503913
 30
0.0
 10
11.7484521958
 20
10.1629179866
 30
0.0
 10
11.7505060488
 20
10.164812823
 30
0.0
 10
11.7514903549
 20
10.1657635897
 30
0.0
  0
SPLINE
  5
3C0
100
AcDbEntity
  8
0
100
AcDbSpline
 62
7
  6
CONTINUOUS
 70
0
 71
3
 72
82
 73
78
 74
0
 42
0.0000001
 43
0.0000001
 44
0.0000000001
 40
0.0
 40
0.0
 40
0.0
 40
0.0
 40
0.002807999
 40
0.0056356792
 40
0.008502281
 40
0.011426205
 40
0.0144246653
 40
0.0175135143
 40
0.0207070703
 40
0.0240180715
 40
0.027457773
 40
0.031035933
 40
0.0347609512
 40
0.038640046
 40
0.0426792578
 40
0.0468836471
 40
0.0512574322
 40
0.055803963
 40
0.0605259292
 40
0.0654254257
 40
0.0705039147
 40
0.0757624219
 40
0.0812015311
 40
0.0868213592
 40
0.0986015459
 40
0.1110981892
 40
0.1243014116
 40
0.1381975551
 40
0.1527696477
 40
0.1679978951
 40
0.1838599925
 40
0.2003313307
 40
0.217385271
 40
0.2349933553
 40
0.2531254246
 40
0.2717497922
 40
0.2908334112
 40
0.3103419604
 40
0.3302399717
 40
0.350490979
 40
0.3710576055
 40
0.3919016399
 40
0.4129841989
 40
0.45570575
 40
0.498901869
 40
0.542246773
 40
0.5854131773
 40
0.6280755785
 40
0.6491177051
 40
0.6699141843
 40
0.6904262598
 40
0.7106158703
 40
0.7304457679
 40
0.7498796791
 40
0.7688823522
 40
0.7874196577
 40
0.8054587858
 40
0.8229683484
 40
0.8399184696
 40
0.8562809783
 40
0.8720296286
 40
0.8871402195
 40
0.9015908327
 40
0.9153621857
 40
0.9284379093
 40
0.9408049459
 40
0.9524541491
 40
0.9580083001
 40
0.9633817214
 40
0.96857471
 40
0.9735879898
 40
0.9784226828
 40
0.9830805621
 40
0.9875640205
 40
0.9918759976
 40
0.996019946
 40
1.0
 40
1.0
 40
1.0
 40
1.0
 10
10.7744251934
 20
9.7759810679
 30
0.0
 10
10.7744251881
 20
9.7750155597
 30
0.0
 10
10.7745097416
 20
9.7730767331
 30
0.0
 10
10.7748895818
 20
9.7701746349
 30
0.0
 10
10.7755222427
 20
9.7672760864
 30
0.0
 10
10.776407118
 20
9.7643831454
 30
0.0
 10
10.7775432957
 20
9.7614973131
 30
0.0
 10
10.7789299481
 20
9.7586201411
 30
0.0
 10
10.7805660456
 20
9.7557530229
 30
0.0
 10
10.7824504532
 20
9.7528972462
 30
0.0
 10
10.7845821291
 20
9.7500541629
 30
0.0
 10
10.7869598304
 20
9.7472250232
 30
0.0
 10
10.7895822595
 20
9.74441107
 30
0.0
 10
10.7924481281
 20
9.741613655
 30
0.0
 10
10.79555593
 20
9.738834021
 30
0.0
 10
10.7989041061
 20
9.736073462
 30
0.0
 10
10.8024910343
 20
9.7333333547
 30
0.0
 10
10.8063148819
 20
9.7306149548
 30
0.0
 10
10.8103737598
 20
9.7279195979
 30
0.0
 10
10.8146656744
 20
9.7252486546
 30
0.0
 10
10.8191884491
 20
9.7226033773
 30
0.0
 10
10.8239398429
 20
9.7199851179
 30
0.0
 10
10.8289174987
 20
9.717395181
 30
0.0
 10
10.8359637363
 20
9.7139268187
 30
0.0
 10
10.8453293412
 20
9.7096818864
 30
0.0
 10
10.8572579909
 20
9.7047980587
 30
0.0
 10
10.870023119
 20
9.7000572993
 30
0.0
 10
10.8835990788
 20
9.695469214
 30
0.0
 10
10.8979587531
 20
9.6910430774
 30
0.0
 10
10.9130733084
 20
9.686787898
 30
0.0
 10
10.9289123632
 20
9.6827123623
 30
0.0
 10
10.9454440056
 20
9.678824746
 30
0.0
 10
10.9626348971
 20
9.6751329624
 30
0.0
 10
10.9804503491
 20
9.671644557
 30
0.0
 10
10.9988543818
 20
9.6683666271
 30
0.0
 10
11.0178098068
 20
9.6653058309
 30
0.0
 10
11.0372783145
 20
9.6624684139
 30
0.0
 10
11.0572205458
 20
9.6598601638
 30
0.0
 10
11.0775961678
 20
9.657486366
 30
0.0
 10
11.0983639753
 20
9.6553518507
 30
0.0
 10
11.1194819513
 20
9.6534609895
 30
0.0
 10
11.140907404
 20
9.6518175832
 30
0.0
 10
11.1699538094
 20
9.6499527325
 30
0.0
 10
11.2067102907
 20
9.6482685632
 30
0.0
 10
11.2511491691
 20
9.6472817905
 30
0.0
 10
11.2957520877
 20
9.6473288331
 30
0.0
 10
11.3401582306
 20
9.6484092605
 30
0.0
 10
11.3768665758
 20
9.6501711852
 30
0.0
 10
11.4058582558
 20
9.6520977234
 30
0.0
 10
11.4272310299
 20
9.6537863872
 30
0.0
 10
11.4482885152
 20
9.6557218358
 30
0.0
 10
11.4689881417
 20
9.6579001681
 30
0.0
 10
11.4892880264
 20
9.6603169629
 30
0.0
 10
11.5091471221
 20
9.6629672833
 30
0.0
 10
11.5285252717
 20
9.6658457316
 30
0.0
 10
11.5473832905
 20
9.6689464731
 30
0.0
 10
11.5656830672
 20
9.6722631805
 30
0.0
 10
11.5833876386
 20
9.6757890866
 30
0.0
 10
11.6004612467
 20
9.679517027
 30
0.0
 10
11.6168694346
 20
9.6834394138
 30
0.0
 10
11.6325791308
 20
9.6875482333
 30
0.0
 10
11.6475586982
 20
9.6918351228
 30
0.0
 10
11.6617780154
 20
9.696291385
 30
0.0
 10
11.6752085515
 20
9.700907931
 30
0.0
 10
11.6878235178
 20
9.7056754027
 30
0.0
 10
11.6995975637
 20
9.710584177
 30
0.0
 10
11.7088305725
 20
9.714849514
 30
0.0
 10
11.715768416
 20
9.7183333179
 30
0.0
 10
11.7206641062
 20
9.7209337278
 30
0.0
 10
11.7253326579
 20
9.7235619704
 30
0.0
 10
11.7297717591
 20
9.7262167032
 30
0.0
 10
11.7339791668
 20
9.7288966588
 30
0.0
 10
11.7379528293
 20
9.7316005308
 30
0.0
 10
11.7416908317
 20
9.7343270089
 30
0.0
 10
11.7451912584
 20
9.7370748488
 30
0.0
 10
11.7484521927
 20
9.7398424468
 30
0.0
 10
11.7505060478
 20
9.741737285
 30
0.0
 10
11.7514903549
 20
9.7426880527
 30
0.0
  0
SPLINE
  5
3C1
100
AcDbEntity
  8
0
100
AcDbSpline
 62
7
  6
CONTINUOUS
 70
0
 71
3
 72
11
 73
7
 74
0
 42
0.0000001
 43
0.0000001
 44
0.0000000001
 40
0.0
 40
0.0
 40
0.0
 40
0.0
 40
0.2430809741
 40
0.4889912848
 40
0.7404535806
 40
1.0
 40
1.0
 40
1.0
 40
1.0
 10
11.4554251763
 20
10.5448576882
 30
0.0
 10
11.4554251817
 20
10.5443960137
 30
0.0
 10
11.4553727582
 20
10.5434664679
 30
0.0
 10
11.4551373624
 20
10.5420772431
 30
0.0
 10
11.4547457912
 20
10.5406913428
 30
0.0
 10
11.454387682
 20
10.5397873279
 30
0.0
 10
11.4541850658
 20
10.539337947
 30
0.0
  0
SPLINE
  5
3C2
100
AcDbEntity
  8
0
100
AcDbSpline
 62
7
  6
CONTINUOUS
 70
0
 71
3
 72
11
 73
7
 74
0
 42
0.0000001
 43
0.0000001
 44
0.0000000001
 40
0.0
 40
0.0
 40
0.0
 40
0.0
 40
0.2363918275
 40
0.4812143195
 40
0.7354568522
 40
1.0
 40
1.0
 40
1.0
 40
1.0
 10
12.0430300073
 20
6.1791057781
 30
0.0
 10
12.0422943669
 20
6.1807355155
 30
0.0
 10
12.0406690443
 20
6.1839967154
 30
0.0
 10
12.037840443
 20
6.1887916614
 30
0.0
 10
12.0345837639
 20
6.1935665034
 30
0.0
 10
12.0321785438
 20
6.1966703443
 30
0.0
 10
12.0309099906
 20
6.1982178655
 30
0.0
  0
SPLINE
  5
3C3
100
AcDbEntity
  8
0
100
AcDbSpline
 62
7
  6
CONTINUOUS
 70
0
 71
3
 72
50
 73
46
 74
0
 42
0.0000001
 43
0.0000001
 44
0.0000000001
 40
0.0
 40
0.0
 40
0.0
 40
0.0
 40
0.0481982083
 40
0.0958298701
 40
0.1428200524
 40
0.189098114
 40
0.2345932474
 40
0.2792369361
 40
0.3229623678
 40
0.3657048054
 40
0.4074017555
 40
0.4479931603
 40
0.4874216252
 40
0.5256326572
 40
0.5625749471
 40
0.5982006586
 40
0.6324657627
 40
0.6653304343
 40
0.6967595242
 40
0.7267231403
 40
0.7551973579
 40
0.7821650798
 40
0.795081438
 40
0.8076184763
 40
0.8197765388
 40
0.8315566783
 40
0.8429606516
 40
0.8539911544
 40
0.8646517245
 40
0.874947003
 40
0.8848827667
 40
0.8944660433
 40
0.903705364
 40
0.9126107643
 40
0.9211941226
 40
0.9294692285
 40
0.937452012
 40
0.9451607745
 40
0.9598349183
 40
0.966856766
 40
0.9737036278
 40
0.9804068575
 40
0.987000079
 40
0.9935188351
 40
1.0
 40
1.0
 40
1.0
 40
1.0
 10
11.1316630218
 20
8.9155704498
 30
0.0
 10
11.1245889246
 20
8.9160610401
 30
0.0
 10
11.1105292205
 20
8.9171154223
 30
0.0
 10
11.0895949398
 20
8.9189283934
 30
0.0
 10
11.0689646644
 20
8.9209612224
 30
0.0
 10
11.0486730719
 20
8.923210445
 30
0.0
 10
11.0287539566
 20
8.9256723173
 30
0.0
 10
11.0092406738
 20
8.9283426889
 30
0.0
 10
10.990165824
 20
8.931217078
 30
0.0
 10
10.9715612867
 20
8.9342906501
 30
0.0
 10
10.9534581446
 20
8.9375582374
 30
0.0
 10
10.9358866357
 20
8.9410143465
 30
0.0
 10
10.9188761013
 20
8.944653166
 30
0.0
 10
10.9024549325
 20
8.948468579
 30
0.0
 10
10.886650517
 20
8.9524541668
 30
0.0
 10
10.8714891905
 20
8.9566032257
 30
0.0
 10
10.8569961929
 20
8.9609087805
 30
0.0
 10
10.8431956147
 20
8.9653635989
 30
0.0
 10
10.8301103711
 20
8.9699602063
 30
0.0
 10
10.8177620723
 20
8.9746909147
 30
0.0
 10
10.8061712482
 20
8.9795478043
 30
0.0
 10
10.7970322804
 20
8.9837519332
 30
0.0
 10
10.7901226573
 20
8.9871790018
 30
0.0
 10
10.7852163302
 20
8.989738795
 30
0.0
 10
10.7805132095
 20
8.9923240028
 30
0.0
 10
10.7760152272
 20
8.9949335605
 30
0.0
 10
10.771724262
 20
8.9975664212
 30
0.0
 10
10.7676420668
 20
9.0002214645
 30
0.0
 10
10.7637703429
 20
9.0028976396
 30
0.0
 10
10.7601106784
 20
9.0055938423
 30
0.0
 10
10.756664576
 20
9.0083089793
 30
0.0
 10
10.7534334777
 20
9.0110419921
 30
0.0
 10
10.7504186882
 20
9.0137917582
 30
0.0
 10
10.7476214968
 20
9.0165572351
 30
0.0
 10
10.7450430412
 20
9.0193373439
 30
0.0
 10
10.7426844708
 20
9.0221309433
 30
0.0
 10
10.7405466759
 20
9.0249372774
 30
0.0
 10
10.7380337733
 20
9.0286327092
 30
0.0
 10
10.7359077607
 20
9.0324154876
 30
0.0
 10
10.7342233261
 20
9.0362651174
 30
0.0
 10
10.7332034266
 20
9.0391174947
 30
0.0
 10
10.7324093965
 20
9.0419754592
 30
0.0
 10
10.7318418018
 20
9.0448378901
 30
0.0
 10
10.7315010267
 20
9.0477030968
 30
0.0
 10
10.7314251992
 20
9.049616544
 30
0.0
 10
10.7314251957
 20
9.0505700755
 30
0.0
  0
SPLINE
  5
3C4
100
AcDbEntity
  8
0
100
AcDbSpline
 62
7
  6
CONTINUOUS
 70
0
 71
3
 72
23
 73
19
 74
0
 42
0.0000001
 43
0.0000001
 44
0.0000000001
 40
0.0
 40
0.0
 40
0.0
 40
0.0
 40
0.063776909
 40
0.1273449468
 40
0.1907019575
 40
0.2538561145
 40
0.3168131979
 40
0.3795820804
 40
0.4421733815
 40
0.5045993354
 40
0.5668738682
 40
0.6290123838
 40
0.6910316538
 40
0.75294965
 40
0.8147853622
 40
0.8765586114
 40
0.9382898593
 40
1.0
 40
1.0
 40
1.0
 40
1.0
 10
10.4059925606
 20
6.3740711423
 30
0.0
 10
10.4059925606
 20
6.3708157014
 30
0.0
 10
10.4058367371
 20
6.3643143782
 30
0.0
 10
10.4051334592
 20
6.354601947
 30
0.0
 10
10.4039624815
 20
6.3449664984
 30
0.0
 10
10.4023266181
 20
6.3354306653
 30
0.0
 10
10.4002295159
 20
6.3260162422
 30
0.0
 10
10.3976760252
 20
6.3167449922
 30
0.0
 10
10.3946720196
 20
6.3076382735
 30
0.0
 10
10.3912243988
 20
6.2987170863
 30
0.0
 10
10.387341082
 20
6.2900020116
 30
0.0
 10
10.3830310065
 20
6.2815131516
 30
0.0
 10
10.3783041116
 20
6.2732700824
 30
0.0
 10
10.3731712812
 20
6.2652918147
 30
0.0
 10
10.3676443496
 20
6.2575967778
 30
0.0
 10
10.3617359888
 20
6.2502026688
 30
0.0
 10
10.3554600661
 20
6.2431267701
 30
0.0
 10
10.3510399004
 20
6.2386316869
 30
0.0
 10
10.3487742932
 20
6.2364432689
 30
0.0
  0
SPLINE
  5
3C5
100
AcDbEntity
  8
0
100
AcDbSpline
 62
7
  6
CONTINUOUS
 70
0
 71
3
 72
55
 73
51
 74
0
 42
0.0000001
 43
0.0000001
 44
0.0000000001
 40
0.0
 40
0.0
 40
0.0
 40
0.0
 40
0.0055575263
 40
0.0111779373
 40
0.0169218505
 40
0.0228457199
 40
0.0290004667
 40
0.0354308477
 40
0.038762252
 40
0.0421764503
 40
0.0492672687
 40
0.0567312965
 40
0.0645903662
 40
0.0728620285
 40
0.081560029
 40
0.0906949412
 40
0.1002745234
 40
0.1103041546
 40
0.1207871551
 40
0.1317250007
 40
0.143117643
 40
0.1549635739
 40
0.1672600993
 40
0.180003379
 40
0.1931885794
 40
0.2068099779
 40
0.220860979
 40
0.2353342827
 40
0.2502218276
 40
0.2655149484
 40
0.281204348
 40
0.2972801659
 40
0.3137320354
 40
0.3477193079
 40
0.3830743624
 40
0.4196981158
 40
0.4574856315
 40
0.4963267948
 40
0.5361069404
 40
0.5767074461
 40
0.6180062981
 40
0.6598786384
 40
0.7021973001
 40
0.7448333348
 40
0.787656534
 40
0.8305359552
 40
0.8733404097
 40
0.9159391139
 40
0.9582017254
 40
1.0
 40
1.0
 40
1.0
 40
1.0
 10
11.8114251859
 20
9.0505706172
 30
0.0
 10
11.8114251909
 20
9.0492347616
 30
0.0
 10
11.811275654
 20
9.0465456082
 30
0.0
 10
11.8106044039
 20
9.0425262308
 30
0.0
 10
11.8094873762
 20
9.0385158171
 30
0.0
 10
11.8079266616
 20
9.0345190077
 30
0.0
 10
11.8059249679
 20
9.0305391375
 30
0.0
 10
11.8039155254
 20
9.027278078
 30
0.0
 10
11.8020996316
 20
9.0246825421
 30
0.0
 10
11.8000919363
 20
9.02203017
 30
0.0
 10
11.7973004959
 20
9.0187294268
 30
0.0
 10
11.7935622392
 20
9.014845316
 30
0.0
 10
11.7893972112
 20
9.010991667
 30
0.0
 10
11.784808894
 20
9.0071714465
 30
0.0
 10
11.779800955
 20
9.0033873798
 30
0.0
 10
11.774377369
 20
8.9996423847
 30
0.0
 10
11.7685424678
 20
8.9959393312
 30
0.0
 10
11.762300911
 20
8.9922811317
 30
0.0
 10
11.7556576953
 20
8.9886707137
 30
0.0
 10
11.7486181768
 20
8.9851109413
 30
0.0
 10
11.7411880224
 20
8.9816047319
 30
0.0
 10
11.7333732575
 20
8.978154893
 30
0.0
 10
11.7251802122
 20
8.974764265
 30
0.0
 10
11.7166155488
 20
8.9714356041
 30
0.0
 10
11.7076862385
 20
8.9681716318
 30
0.0
 10
11.6983995552
 20
8.9649750423
 30
0.0
 10
11.6887630798
 20
8.9618484285
 30
0.0
 10
11.6787846756
 20
8.9587943912
 30
0.0
 10
11.6684724998
 20
8.9558154087
 30
0.0
 10
11.6578349799
 20
8.9529139483
 30
0.0
 10
11.6468808201
 20
8.9500923919
 30
0.0
 10
11.6356189713
 20
8.9473530322
 30
0.0
 10
11.6200361206
 20
8.9437744317
 30
0.0
 10
11.5998525286
 20
8.9395333257
 30
0.0
 10
11.574812143
 20
8.9348593863
 30
0.0
 10
11.5487780891
 20
8.9305628115
 30
0.0
 10
11.5218356305
 20
8.9266578011
 30
0.0
 10
11.4940728872
 20
8.9231572785
 30
0.0
 10
11.4655807508
 20
8.9200728146
 30
0.0
 10
11.436452516
 20
8.9174146041
 30
0.0
 10
11.4067835855
 20
8.9151914289
 30
0.0
 10
11.3766711477
 20
8.9134106324
 30
0.0
 10
11.346213856
 20
8.9120780956
 30
0.0
 10
11.3155115026
 20
8.9111982192
 30
0.0
 10
11.2846646884
 20
8.9107739068
 30
0.0
 10
11.2537744932
 20
8.9108065594
 30
0.0
 10
11.2229421278
 20
8.9112960647
 30
0.0
 10
11.1922686465
 20
8.912240816
 30
0.0
 10
11.1618545865
 20
8.9136376754
 30
0.0
 10
11.1416859465
 20
8.9148753576
 30
0.0
 10
11.1316630218
 20
8.9155704498
 30
0.0
  0
SPLINE
  5
3C6
100
AcDbEntity
  8
0
100
AcDbSpline
 62
7
  6
CONTINUOUS
 70
0
 71
3
 72
39
 73
35
 74
0
 42
0.0000001
 43
0.0000001
 44
0.0000000001
 40
0.0
 40
0.0
 40
0.0
 40
0.0
 40
0.0299424725
 40
0.05990932
 40
0.0899243252
 40
0.1200101024
 40
0.1501875589
 40
0.1804754082
 40
0.2108897494
 40
0.2414437221
 40
0.272147242
 40
0.3030068208
 40
0.33402547
 40
0.3652026865
 40
0.3965345185
 40
0.428013701
 40
0.459629856
 40
0.4913697495
 40
0.5232175971
 40
0.5551554142
 40
0.587163399
 40
0.619220343
 40
0.6513040608
 40
0.6833918343
 40
0.715460865
 40
0.747488727
 40
0.7794538147
 40
0.8113357784
 40
0.8431159423
 40
0.8747777013
 40
0.90630686
 40
0.937692088
 40
0.9689246466
 40
1.0
 40
1.0
 40
1.0
 40
1.0
 10
10.0555901052
 20
6.5399676088
 30
0.0
 10
10.0590905235
 20
6.5433487679
 30
0.0
 10
10.0663665868
 20
6.5498382352
 30
0.0
 10
10.0780239954
 20
6.5586789785
 30
0.0
 10
10.0903651117
 20
6.5665820412
 30
0.0
 10
10.1033209866
 20
6.573503081
 30
0.0
 10
10.1168203917
 20
6.5794042799
 30
0.0
 10
10.1307888227
 20
6.5842532015
 30
0.0
 10
10.1451493026
 20
6.5880233215
 30
0.0
 10
10.1598227152
 20
6.5906940582
 30
0.0
 10
10.1747282721
 20
6.592250903
 30
0.0
 10
10.1897839516
 20
6.5926854807
 30
0.0
 10
10.20490695
 20
6.5919955902
 30
0.0
 10
10.2200141364
 20
6.5901852207
 30
0.0
 10
10.2350225064
 20
6.5872645018
 30
0.0
 10
10.2498496314
 20
6.583249643
 30
0.0
 10
10.2644141049
 20
6.5781628398
 30
0.0
 10
10.2786359804
 20
6.5720321459
 30
0.0
 10
10.2924372101
 20
6.5648913322
 30
0.0
 10
10.3057420678
 20
6.5567796942
 30
0.0
 10
10.3184775535
 20
6.5477418278
 30
0.0
 10
10.3305737897
 20
6.537827388
 30
0.0
 10
10.3419643984
 20
6.5270908185
 30
0.0
 10
10.3525868622
 20
6.5155910571
 30
0.0
 10
10.362382876
 20
6.5033912261
 30
0.0
 10
10.3712986518
 20
6.4905582751
 30
0.0
 10
10.3792852108
 20
6.4771626199
 30
0.0
 10
10.3862986503
 20
6.4632777593
 30
0.0
 10
10.3923003816
 20
6.4489798853
 30
0.0
 10
10.3972573476
 20
6.4343474437
 30
0.0
 10
10.4011422299
 20
6.4194608225
 30
0.0
 10
10.4039335128
 20
6.4044014901
 30
0.0
 10
10.4056157768
 20
6.3892532058
 30
0.0
 10
10.4059925606
 20
6.3791220174
 30
0.0
 10
10.4059925606
 20
6.3740711423
 30
0.0
  0
SPLINE
  5
3C7
100
AcDbEntity
  8
0
100
AcDbSpline
 62
7
  6
CONTINUOUS
 70
0
 71
3
 72
11
 73
7
 74
0
 42
0.0000001
 43
0.0000001
 44
0.0000000001
 40
0.0
 40
0.0
 40
0.0
 40
0.0
 40
0.2549958563
 40
0.5057363326
 40
0.7535955388
 40
1.0
 40
1.0
 40
1.0
 40
1.0
 10
11.80958646
 20
9.0620941501
 30
0.0
 10
11.809889614
 20
9.061145799
 30
0.0
 10
11.8104232221
 20
9.0592424093
 30
0.0
 10
11.8110010349
 20
9.0563544203
 30
0.0
 10
11.8113479836
 20
9.053463411
 30
0.0
 10
11.8114251823
 20
9.0515326987
 30
0.0
 10
11.8114251859
 20
9.0505706172
 30
0.0
  0
SPLINE
  5
3C8
100
AcDbEntity
  8
0
100
AcDbSpline
 62
7
  6
CONTINUOUS
 70
0
 71
3
 72
39
 73
35
 74
0
 42
0.0000001
 43
0.0000001
 44
0.0000000001
 40
0.0
 40
0.0
 40
0.0
 40
0.0
 40
0.0299424725
 40
0.05990932
 40
0.0899243252
 40
0.1200101024
 40
0.1501875589
 40
0.1804754082
 40
0.2108897494
 40
0.2414437221
 40
0.272147242
 40
0.3030068208
 40
0.33402547
 40
0.3652026865
 40
0.3965345185
 40
0.428013701
 40
0.459629856
 40
0.4913697495
 40
0.5232175971
 40
0.5551554142
 40
0.587163399
 40
0.619220343
 40
0.6513040608
 40
0.6833918343
 40
0.715460865
 40
0.747488727
 40
0.7794538147
 40
0.8113357784
 40
0.8431159423
 40
0.8747777013
 40
0.90630686
 40
0.937692088
 40
0.9689246466
 40
1.0
 40
1.0
 40
1.0
 40
1.0
 10
10.3487742932
 20
6.2364432689
 30
0.0
 10
10.3452738748
 20
6.2330621099
 30
0.0
 10
10.3379978115
 20
6.2265726426
 30
0.0
 10
10.3263404029
 20
6.2177318993
 30
0.0
 10
10.3139992867
 20
6.2098288366
 30
0.0
 10
10.3010434117
 20
6.2029077968
 30
0.0
 10
10.2875440066
 20
6.1970065978
 30
0.0
 10
10.2735755756
 20
6.1921576762
 30
0.0
 10
10.2592150957
 20
6.1883875562
 30
0.0
 10
10.2445416831
 20
6.1857168196
 30
0.0
 10
10.2296361262
 20
6.1841599748
 30
0.0
 10
10.2145804468
 20
6.183725397
 30
0.0
 10
10.1994574483
 20
6.1844152875
 30
0.0
 10
10.1843502619
 20
6.186225657
 30
0.0
 10
10.1693418919
 20
6.189146376
 30
0.0
 10
10.1545147669
 20
6.1931612348
 30
0.0
 10
10.1399502935
 20
6.198248038
 30
0.0
 10
10.125728418
 20
6.2043787319
 30
0.0
 10
10.1119271882
 20
6.2115195456
 30
0.0
 10
10.0986223305
 20
6.2196311835
 30
0.0
 10
10.0858868448
 20
6.22866905
 30
0.0
 10
10.0737906087
 20
6.2385834897
 30
0.0
 10
10.0623999999
 20
6.2493200593
 30
0.0
 10
10.0517775361
 20
6.2608198207
 30
0.0
 10
10.0419815223
 20
6.2730196517
 30
0.0
 10
10.0330657466
 20
6.2858526027
 30
0.0
 10
10.0250791876
 20
6.2992482578
 30
0.0
 10
10.0180657481
 20
6.3131331184
 30
0.0
 10
10.0120640167
 20
6.3274309924
 30
0.0
 10
10.0071070507
 20
6.3420634341
 30
0.0
 10
10.0032221684
 20
6.3569500552
 30
0.0
 10
10.0004308856
 20
6.3720093876
 30
0.0
 10
9.9987486215
 20
6.3871576719
 30
0.0
 10
9.9983718377
 20
6.3972888604
 30
0.0
 10
9.9983718377
 20
6.4023397355
 30
0.0
  0
SPLINE
  5
3C9
100
AcDbEntity
  8
0
100
AcDbSpline
 62
7
  6
CONTINUOUS
 70
0
 71
3
 72
11
 73
7
 74
0
 42
0.0000001
 43
0.0000001
 44
0.0000000001
 40
0.0
 40
0.0
 40
0.0
 40
0.0
 40
0.2461392446
 40
0.4938416255
 40
0.7446386685
 40
1.0
 40
1.0
 40
1.0
 40
1.0
 10
10.7314251957
 20
9.0505700755
 30
0.0
 10
10.7314251919
 20
9.0515682639
 30
0.0
 10
10.7315082993
 20
9.0535719501
 30
0.0
 10
10.7318818227
 20
9.0565718132
 30
0.0
 10
10.7325039659
 20
9.0595682442
 30
0.0
 10
10.7330780125
 20
9.0615414671
 30
0.0
 10
10.7334040332
 20
9.0625243974
 30
0.0
  0
SPLINE
  5
3CA
100
AcDbEntity
  8
0
100
AcDbSpline
 62
7
  6
CONTINUOUS
 70
0
 71
3
 72
23
 73
19
 74
0
 42
0.0000001
 43
0.0000001
 44
0.0000000001
 40
0.0
 40
0.0
 40
0.0
 40
0.0
 40
0.063776909
 40
0.1273449468
 40
0.1907019575
 40
0.2538561145
 40
0.3168131979
 40
0.3795820804
 40
0.4421733815
 40
0.5045993354
 40
0.5668738682
 40
0.6290123838
 40
0.6910316538
 40
0.75294965
 40
0.8147853622
 40
0.8765586114
 40
0.9382898593
 40
1.0
 40
1.0
 40
1.0
 40
1.0
 10
9.9983718377
 20
6.4023397355
 30
0.0
 10
9.9983718377
 20
6.4055951764
 30
0.0
 10
9.9985276612
 20
6.4120964996
 30
0.0
 10
9.9992309391
 20
6.4218089307
 30
0.0
 10
10.0004019169
 20
6.4314443793
 30
0.0
 10
10.0020377803
 20
6.4409802125
 30
0.0
 10
10.0041348825
 20
6.4503946356
 30
0.0
 10
10.0066883732
 20
6.4596658855
 30
0.0
 10
10.0096923787
 20
6.4687726043
 30
0.0
 10
10.0131399995
 20
6.4776937915
 30
0.0
 10
10.0170233163
 20
6.4864088662
 30
0.0
 10
10.0213333918
 20
6.4948977262
 30
0.0
 10
10.0260602867
 20
6.5031407953
 30
0.0
 10
10.0311931172
 20
6.5111190631
 30
0.0
 10
10.0367200487
 20
6.5188141
 30
0.0
 10
10.0426284096
 20
6.526208209
 30
0.0
 10
10.0489043322
 20
6.5332841077
 30
0.0
 10
10.0533244979
 20
6.5377791908
 30
0.0
 10
10.0555901052
 20
6.5399676088
 30
0.0
  0
SPLINE
  5
3CB
100
AcDbEntity
  8
0
100
AcDbSpline
 62
4
  6
CONTINUOUS
 70
0
 71
3
 72
403
 73
399
 74
0
 42
0.0000001
 43
0.0000001
 44
0.0000000001
 40
0.0
 40
0.0
 40
0.0
 40
0.0
 40
0.015625
 40
0.0234375
 40
0.03125
 40
0.0390625
 40
0.04296875
 40
0.046875
 40
0.05078125
 40
0.0546875
 40
0.056640625
 40
0.05859375
 40
0.0595703125
 40
0.060546875
 40
0.0615234375
 40
0.0620117188
 40
0.0622558594
 40
0.0625
 40
0.0627441406
 40
0.0629882812
 40
0.0634765625
 40
0.064453125
 40
0.0654296875
 40
0.06640625
 40
0.068359375
 40
0.0703125
 40
0.07421875
 40
0.078125
 40
0.08203125
 40
0.0859375
 40
0.09375
 40
0.1015625
 40
0.10546875
 40
0.109375
 40
0.11328125
 40
0.1171875
 40
0.119140625
 40
0.12109375
 40
0.1220703125
 40
0.123046875
 40
0.1240234375
 40
0.1245117188
 40
0.1247558594
 40
0.125
 40
0.1252441406
 40
0.1254882812
 40
0.1259765625
 40
0.126953125
 40
0.1279296875
 40
0.12890625
 40
0.130859375
 40
0.1328125
 40
0.13671875
 40
0.140625
 40
0.14453125
 40
0.1484375
 40
0.15625
 40
0.1640625
 40
0.16796875
 40
0.171875
 40
0.17578125
 40
0.1796875
 40
0.181640625
 40
0.18359375
 40
0.1845703125
 40
0.185546875
 40
0.1865234375
 40
0.1870117188
 40
0.1872558594
 40
0.1875
 40
0.1877441406
 40
0.1879882812
 40
0.1884765625
 40
0.189453125
 40
0.1904296875
 40
0.19140625
 40
0.193359375
 40
0.1953125
 40
0.19921875
 40
0.203125
 40
0.20703125
 40
0.2109375
 40
0.21875
 40
0.2265625
 40
0.23046875
 40
0.234375
 40
0.23828125
 40
0.2421875
 40
0.244140625
 40
0.24609375
 40
0.2470703125
 40
0.248046875
 40
0.2490234375
 40
0.2495117188
 40
0.2497558594
 40
0.25
 40
0.2502441406
 40
0.2504882812
 40
0.2509765625
 40
0.251953125
 40
0.2529296875
 40
0.25390625
 40
0.255859375
 40
0.2578125
 40
0.26171875
 40
0.265625
 40
0.26953125
 40
0.2734375
 40
0.28125
 40
0.2890625
 40
0.29296875
 40
0.296875
 40
0.30078125
 40
0.3046875
 40
0.306640625
 40
0.30859375
 40
0.3095703125
 40
0.310546875
 40
0.3115234375
 40
0.3120117188
 40
0.3122558594
 40
0.3125
 40
0.3127441406
 40
0.3129882812
 40
0.3134765625
 40
0.314453125
 40
0.3154296875
 40
0.31640625
 40
0.318359375
 40
0.3203125
 40
0.32421875
 40
0.328125
 40
0.33203125
 40
0.3359375
 40
0.34375
 40
0.3515625
 40
0.35546875
 40
0.359375
 40
0.36328125
 40
0.3671875
 40
0.369140625
 40
0.37109375
 40
0.3720703125
 40
0.373046875
 40
0.3740234375
 40
0.3745117188
 40
0.3747558594
 40
0.375
 40
0.3752441406
 40
0.3754882812
 40
0.3759765625
 40
0.376953125
 40
0.3779296875
 40
0.37890625
 40
0.380859375
 40
0.3828125
 40
0.38671875
 40
0.390625
 40
0.39453125
 40
0.3984375
 40
0.40625
 40
0.4140625
 40
0.41796875
 40
0.421875
 40
0.42578125
 40
0.4296875
 40
0.431640625
 40
0.43359375
 40
0.4345703125
 40
0.435546875
 40
0.4365234375
 40
0.4370117188
 40
0.4372558594
 40
0.4375
 40
0.4377441406
 40
0.4379882812
 40
0.4384765625
 40
0.439453125
 40
0.4404296875
 40
0.44140625
 40
0.443359375
 40
0.4453125
 40
0.44921875
 40
0.453125
 40
0.45703125
 40
0.4609375
 40
0.46875
 40
0.4765625
 40
0.48046875
 40
0.484375
 40
0.48828125
 40
0.4921875
 40
0.494140625
 40
0.49609375
 40
0.4970703125
 40
0.498046875
 40
0.4990234375
 40
0.4995117188
 40
0.4997558594
 40
0.5
 40
0.5002441406
 40
0.5004882812
 40
0.5009765625
 40
0.501953125
 40
0.5029296875
 40
0.50390625
 40
0.505859375
 40
0.5078125
 40
0.51171875
 40
0.515625
 40
0.51953125
 40
0.5234375
 40
0.53125
 40
0.5390625
 40
0.54296875
 40
0.546875
 40
0.55078125
 40
0.5546875
 40
0.556640625
 40
0.55859375
 40
0.5595703125
 40
0.560546875
 40
0.5615234375
 40
0.5620117188
 40
0.5622558594
 40
0.5625
 40
0.5627441406
 40
0.5629882812
 40
0.5634765625
 40
0.564453125
 40
0.5654296875
 40
0.56640625
 40
0.568359375
 40
0.5703125
 40
0.57421875
 40
0.578125
 40
0.58203125
 40
0.5859375
 40
0.59375
 40
0.6015625
 40
0.60546875
 40
0.609375
 40
0.61328125
 40
0.6171875
 40
0.619140625
 40
0.62109375
 40
0.6220703125
 40
0.623046875
 40
0.6240234375
 40
0.6245117188
 40
0.6247558594
 40
0.625
 40
0.6252441406
 40
0.6254882812
 40
0.6259765625
 40
0.626953125
 40
0.6279296875
 40
0.62890625
 40
0.630859375
 40
0.6328125
 40
0.63671875
 40
0.640625
 40
0.64453125
 40
0.6484375
 40
0.65625
 40
0.6640625
 40
0.66796875
 40
0.671875
 40
0.67578125
 40
0.6796875
 40
0.681640625
 40
0.68359375
 40
0.6845703125
 40
0.685546875
 40
0.6865234375
 40
0.6870117188
 40
0.6872558594
 40
0.6875
 40
0.6877441406
 40
0.6879882812
 40
0.6884765625
 40
0.689453125
 40
0.6904296875
 40
0.69140625
 40
0.693359375
 40
0.6953125
 40
0.69921875
 40
0.703125
 40
0.70703125
 40
0.7109375
 40
0.71875
 40
0.7265625
 40
0.73046875
 40
0.734375
 40
0.73828125
 40
0.7421875
 40
0.744140625
 40
0.74609375
 40
0.7470703125
 40
0.748046875
 40
0.7490234375
 40
0.7495117188
 40
0.7497558594
 40
0.75
 40
0.7502441406
 40
0.7504882812
 40
0.7509765625
 40
0.751953125
 40
0.7529296875
 40
0.75390625
 40
0.755859375
 40
0.7578125
 40
0.76171875
 40
0.765625
 40
0.76953125
 40
0.7734375
 40
0.78125
 40
0.7890625
 40
0.79296875
 40
0.796875
 40
0.80078125
 40
0.8046875
 40
0.806640625
 40
0.80859375
 40
0.8095703125
 40
0.810546875
 40
0.8115234375
 40
0.8120117188
 40
0.8122558594
 40
0.8125
 40
0.8127441406
 40
0.8129882812
 40
0.8134765625
 40
0.814453125
 40
0.8154296875
 40
0.81640625
 40
0.818359375
 40
0.8203125
 40
0.82421875
 40
0.828125
 40
0.83203125
 40
0.8359375
 40
0.84375
 40
0.8515625
 40
0.85546875
 40
0.859375
 40
0.86328125
 40
0.8671875
 40
0.869140625
 40
0.87109375
 40
0.8720703125
 40
0.873046875
 40
0.8740234375
 40
0.8745117188
 40
0.8747558594
 40
0.875
 40
0.8752441406
 40
0.8754882812
 40
0.8759765625
 40
0.876953125
 40
0.8779296875
 40
0.87890625
 40
0.880859375
 40
0.8828125
 40
0.88671875
 40
0.890625
 40
0.89453125
 40
0.8984375
 40
0.90625
 40
0.9140625
 40
0.91796875
 40
0.921875
 40
0.92578125
 40
0.9296875
 40
0.931640625
 40
0.93359375
 40
0.9345703125
 40
0.935546875
 40
0.9365234375
 40
0.9370117188
 40
0.9372558594
 40
0.9375
 40
0.9377441406
 40
0.9379882812
 40
0.9384765625
 40
0.939453125
 40
0.9404296875
 40
0.94140625
 40
0.943359375
 40
0.9453125
 40
0.94921875
 40
0.953125
 40
0.95703125
 40
0.9609375
 40
0.96875
 40
0.9765625
 40
0.984375
 40
1.0
 40
1.0
 40
1.0
 40
1.0
 10
10.3721851547
 20
8.3613933845
 30
0.0
 10
10.3693709149
 20
8.3613126141
 30
0.0
 10
10.3651495551
 20
8.3611914584
 30
0.0
 10
10.3595210755
 20
8.3610299176
 30
0.0
 10
10.3552997158
 20
8.3609087619
 30
0.0
 10
10.351781916
 20
8.360807799
 30
0.0
 10
10.3489676763
 20
8.3607270283
 30
0.0
 10
10.3468569962
 20
8.3606664513
 30
0.0
 10
10.344746317
 20
8.3606058702
 30
0.0
 10
10.3429874151
 20
8.3605553991
 30
0.0
 10
10.3415802994
 20
8.3605149926
 30
0.0
 10
10.3407008389
 20
8.360489806
 30
0.0
 10
10.3399973006
 20
8.3604695022
 30
0.0
 10
10.3394695643
 20
8.3604546973
 30
0.0
 10
10.3390300469
 20
8.3604410145
 30
0.0
 10
10.3387218689
 20
8.3604340769
 30
0.0
 10
10.3385465725
 20
8.3604259898
 30
0.0
 10
10.3384128317
 20
8.3604315384
 30
0.0
 10
10.3382877622
 20
8.3603926925
 30
0.0
 10
10.3381179783
 20
8.3603563833
 30
0.0
 10
10.3378222655
 20
8.3602856273
 30
0.0
 10
10.337399082
 20
8.3601883192
 30
0.0
 10
10.3368915772
 20
8.3600699351
 30
0.0
 10
10.3362147939
 20
8.3599126534
 30
0.0
 10
10.3353688525
 20
8.3597158583
 30
0.0
 10
10.3340153252
 20
8.359401094
 30
0.0
 10
10.3323234233
 20
8.3590076016
 30
0.0
 10
10.3302931379
 20
8.3585354265
 30
0.0
 10
10.3282628534
 20
8.3580632473
 30
0.0
 10
10.3255558071
 20
8.3574336764
 30
0.0
 10
10.3221719992
 20
8.3566467123
 30
0.0
 10
10.3187881913
 20
8.3558597485
 30
0.0
 10
10.3160811451
 20
8.355230177
 30
0.0
 10
10.3140508601
 20
8.3547579995
 30
0.0
 10
10.3120205766
 20
8.354285818
 30
0.0
 10
10.3103286687
 20
8.353892346
 30
0.0
 10
10.3089751537
 20
8.35357754
 30
0.0
 10
10.308129181
 20
8.3533808508
 30
0.0
 10
10.307452462
 20
8.3532233517
 30
0.0
 10
10.3069447607
 20
8.3531056319
 30
0.0
 10
10.3065221919
 20
8.3530062453
 30
0.0
 10
10.3062253819
 20
8.3529391998
 30
0.0
 10
10.306057356
 20
8.3528969454
 30
0.0
 10
10.3059268861
 20
8.3528763611
 30
0.0
 10
10.3058134284
 20
8.3528133222
 30
0.0
 10
10.3056562175
 20
8.3527440789
 30
0.0
 10
10.3053838631
 20
8.3526160035
 30
0.0
 10
10.30499334
 20
8.3524366458
 30
0.0
 10
10.304525331
 20
8.3522198726
 30
0.0
 10
10.3039011028
 20
8.351931381
 30
0.0
 10
10.3031208917
 20
8.3515705818
 30
0.0
 10
10.3018725124
 20
8.3509934063
 30
0.0
 10
10.3003120525
 20
8.3502719015
 30
0.0
 10
10.2984394946
 20
8.3494061109
 30
0.0
 10
10.2965669382
 20
8.3485403162
 30
0.0
 10
10.2940701959
 20
8.3473859248
 30
0.0
 10
10.2909492682
 20
8.3459429349
 30
0.0
 10
10.2878283403
 20
8.3444999455
 30
0.0
 10
10.2853315983
 20
8.3433455535
 30
0.0
 10
10.2834590412
 20
8.3424797605
 30
0.0
 10
10.2815864862
 20
8.3416139636
 30
0.0
 10
10.2800260171
 20
8.3408924785
 30
0.0
 10
10.2787776565
 20
8.3403152627
 30
0.0
 10
10.2779973979
 20
8.339954566
 30
0.0
 10
10.277373267
 20
8.339665864
 30
0.0
 10
10.276904961
 20
8.3394497336
 30
0.0
 10
10.2765153669
 20
8.3392683647
 30
0.0
 10
10.2762413541
 20
8.3391438797
 30
0.0
 10
10.2760868005
 20
8.3390688836
 30
0.0
 10
10.2759651803
 20
8.3390235155
 30
0.0
 10
10.2758653674
 20
8.3389365626
 30
0.0
 10
10.275724677
 20
8.3388351306
 30
0.0
 10
10.2754820127
 20
8.3386508665
 30
0.0
 10
10.2751334966
 20
8.3383911652
 30
0.0
 10
10.2747160704
 20
8.3380780114
 30
0.0
 10
10.2741592251
 20
8.3376610011
 30
0.0
 10
10.2734632633
 20
8.3371395575
 30
0.0
 10
10.2723496715
 20
8.3363053487
 30
0.0
 10
10.2709576998
 20
8.3352625531
 30
0.0
 10
10.2692873261
 20
8.3340112132
 30
0.0
 10
10.2676169544
 20
8.3327598693
 30
0.0
 10
10.2653897914
 20
8.3310914122
 30
0.0
 10
10.262605838
 20
8.3290058403
 30
0.0
 10
10.2598218843
 20
8.3269202688
 30
0.0
 10
10.2575947218
 20
8.3252518112
 30
0.0
 10
10.2559243489
 20
8.3240004688
 30
0.0
 10
10.2542539795
 20
8.3227491233
 30
0.0
 10
10.2528619945
 20
8.3217063449
 30
0.0
 10
10.2517484298
 20
8.320872101
 30
0.0
 10
10.2510523988
 20
8.3203507468
 30
0.0
 10
10.2504956957
 20
8.319933553
 30
0.0
 10
10.2500778351
 20
8.3196209599
 30
0.0
 10
10.2497306779
 20
8.3193595043
 30
0.0
 10
10.2494855879
 20
8.319178372
 30
0.0
 10
10.2493487841
 20
8.3190719219
 30
0.0
 10
10.2492370325
 20
8.3190003833
 30
0.0
 10
10.2491602523
 20
8.3188971217
 30
0.0
 10
10.2490456802
 20
8.318770505
 30
0.0
 10
10.2488508626
 20
8.3185437701
 30
0.0
 10
10.2485695803
 20
8.3182225586
 30
0.0
 10
10.2482333135
 20
8.317835951
 30
0.0
 10
10.2477845134
 20
8.3173208772
 30
0.0
 10
10.2472236654
 20
8.316676897
 30
0.0
 10
10.2463262237
 20
8.3156466058
 30
0.0
 10
10.2452044507
 20
8.3143587153
 30
0.0
 10
10.2438583105
 20
8.3128132581
 30
0.0
 10
10.2425121738
 20
8.3112677978
 30
0.0
 10
10.2407173236
 20
8.3092071851
 30
0.0
 10
10.2384737612
 20
8.3066314189
 30
0.0
 10
10.2362301986
 20
8.304055653
 30
0.0
 10
10.2344353489
 20
8.3019950399
 30
0.0
 10
10.2330892106
 20
8.3004495808
 30
0.0
 10
10.231743076
 20
8.2989041191
 30
0.0
 10
10.230621286
 20
8.2976162425
 30
0.0
 10
10.2297238788
 20
8.296585923
 30
0.0
 10
10.2291629429
 20
8.2959420149
 30
0.0
 10
10.2287143233
 20
8.295426793
 30
0.0
 10
10.2283775052
 20
8.2950406378
 30
0.0
 10
10.2280979477
 20
8.2947180111
 30
0.0
 10
10.227900051
 20
8.2944938025
 30
0.0
 10
10.2277904124
 20
8.294363138
 30
0.0
 10
10.2276984783
 20
8.2942723098
 30
0.0
 10
10.2276436422
 20
8.2941540738
 30
0.0
 10
10.2275575871
 20
8.294005986
 30
0.0
 10
10.2274130199
 20
8.2937423781
 30
0.0
 10
10.2272033432
 20
8.293368124
 30
0.0
 10
10.2269530804
 20
8.2929180224
 30
0.0
 10
10.2266189254
 20
8.292318235
 30
0.0
 10
10.2262013929
 20
8.2915683816
 30
0.0
 10
10.2255332509
 20
8.2903686828
 30
0.0
 10
10.2246981043
 20
8.2888690365
 30
0.0
 10
10.223695915
 20
8.2870694707
 30
0.0
 10
10.2226937294
 20
8.2852699022
 30
0.0
 10
10.2213574806
 20
8.2828704785
 30
0.0
 10
10.21968717
 20
8.2798711986
 30
0.0
 10
10.2180168592
 20
8.2768719188
 30
0.0
 10
10.2166806109
 20
8.2744724948
 30
0.0
 10
10.2156784236
 20
8.2726729273
 30
0.0
 10
10.2146762403
 20
8.2708733579
 30
0.0
 10
10.2138410753
 20
8.2693737227
 30
0.0
 10
10.2131729708
 20
8.2681740012
 30
0.0
 10
10.2127553428
 20
8.2674242056
 30
0.0
 10
10.2124213839
 20
8.2668242995
 30
0.0
 10
10.212170522
 20
8.2663745607
 30
0.0
 10
10.2119627196
 20
8.2659991717
 30
0.0
 10
10.2118148065
 20
8.2657375898
 30
0.0
 10
10.2117341123
 20
8.2655862557
 30
0.0
 10
10.2116628094
 20
8.2654779911
 30
0.0
 10
10.2116327218
 20
8.265349712
 30
0.0
 10
10.2115782286
 20
8.2651856545
 30
0.0
 10
10.2114895637
 20
8.2648953011
 30
0.0
 10
10.2113593976
 20
8.2644822111
 30
0.0
 10
10.2112046973
 20
8.2639857752
 30
0.0
 10
10.2109979066
 20
8.2633241149
 30
0.0
 10
10.2107395976
 20
8.2624969525
 30
0.0
 10
10.2103262029
 20
8.2611735413
 30
0.0
 10
10.209809494
 20
8.2595192607
 30
0.0
 10
10.2091894285
 20
8.257534131
 30
0.0
 10
10.2085693669
 20
8.2555489994
 30
0.0
 10
10.2077426168
 20
8.252902158
 30
0.0
 10
10.2067091797
 20
8.2495936059
 30
0.0
 10
10.2056757422
 20
8.246285054
 30
0.0
 10
10.2048489927
 20
8.2436382123
 30
0.0
 10
10.2042289294
 20
8.2416530815
 30
0.0
 10
10.2036088703
 20
8.2396679491
 30
0.0
 10
10.2030921414
 20
8.2380136769
 30
0.0
 10
10.2026787875
 20
8.2366902484
 30
0.0
 10
10.2024203748
 20
8.2358631299
 30
0.0
 10
10.2022137969
 20
8.2352013796
 30
0.0
 10
10.2020584466
 20
8.2347052188
 30
0.0
 10
10.2019303141
 20
8.2342912681
 30
0.0
 10
10.2018380189
 20
8.2340024512
 30
0.0
 10
10.2017893423
 20
8.2338359318
 30
0.0
 10
10.201741388
 20
8.2337152148
 30
0.0
 10
10.2017371892
 20
8.233578548
 30
0.0
 10
10.2017163285
 20
8.2334018891
 30
0.0
 10
10.2016869331
 20
8.233090144
 30
0.0
 10
10.2016412221
 20
8.2326461489
 30
0.0
 10
10.2015879601
 20
8.2321127747
 30
0.0
 10
10.2015163884
 20
8.2314018118
 30
0.0
 10
10.201427114
 20
8.2305130388
 30
0.0
 10
10.2012841687
 20
8.2290910407
 30
0.0
 10
10.2011055235
 20
8.2273135298
 30
0.0
 10
10.2008911337
 20
8.2251805224
 30
0.0
 10
10.200676748
 20
8.2230475135
 30
0.0
 10
10.2003908989
 20
8.2202035022
 30
0.0
 10
10.2000335882
 20
8.2166484879
 30
0.0
 10
10.1996762771
 20
8.2130934736
 30
0.0
 10
10.1993904286
 20
8.2102494621
 30
0.0
 10
10.1991760411
 20
8.2081164535
 30
0.0
 10
10.198961658
 20
8.205983445
 30
0.0
 10
10.1987829919
 20
8.2042059377
 30
0.0
 10
10.1986400893
 20
8.2027839324
 30
0.0
 10
10.1985507061
 20
8.2018951777
 30
0.0
 10
10.1984793577
 20
8.201184177
 30
0.0
 10
10.1984254135
 20
8.2006509183
 30
0.0
 10
10.1983818372
 20
8.2002065621
 30
0.0
 10
10.1983486309
 20
8.1998954616
 30
0.0
 10
10.1983338763
 20
8.1997177698
 30
0.0
 10
10.1983109215
 20
8.1995842758
 30
0.0
 10
10.1983334117
 20
8.1994516422
 30
0.0
 10
10.198347547
 20
8.1992744973
 30
0.0
 10
10.1983796694
 20
8.1989646336
 30
0.0
 10
10.1984216972
 20
8.1985218979
 30
0.0
 10
10.1984737833
 20
8.1979906465
 30
0.0
 10
10.1985426541
 20
8.1972823003
 30
0.0
 10
10.1986289404
 20
8.1963968713
 30
0.0
 10
10.1987668879
 20
8.1949801827
 30
0.0
 10
10.1989393603
 20
8.1932093228
 30
0.0
 10
10.1991463108
 20
8.1910842906
 30
0.0
 10
10.1993532657
 20
8.1889592584
 30
0.0
 10
10.199629204
 20
8.1861258822
 30
0.0
 10
10.1999741275
 20
8.1825841619
 30
0.0
 10
10.2003190506
 20
8.1790424416
 30
0.0
 10
10.2005949895
 20
8.1762090655
 30
0.0
 10
10.2008019426
 20
8.1740840332
 30
0.0
 10
10.2010088998
 20
8.1719590014
 30
0.0
 10
10.2011813512
 20
8.17018814
 30
0.0
 10
10.2013193415
 20
8.1687714546
 30
0.0
 10
10.2014055189
 20
8.1678860176
 30
0.0
 10
10.2014746132
 20
8.1671776877
 30
0.0
 10
10.2015260167
 20
8.1666463865
 30
0.0
 10
10.2015701802
 20
8.1662038064
 30
0.0
 10
10.20159849
 20
8.1658936651
 30
0.0
 10
10.201618734
 20
8.1657169648
 30
0.0
 10
10.2016224603
 20
8.1655829656
 30
0.0
 10
10.2016699798
 20
8.1654546006
 30
0.0
 10
10.2017180636
 20
8.165281482
 30
0.0
 10
10.2018093273
 20
8.1649794401
 30
0.0
 10
10.2019359832
 20
8.164547473
 30
0.0
 10
10.202089563
 20
8.1640293173
 30
0.0
 10
10.2022937797
 20
8.1633383716
 30
0.0
 10
10.2025492411
 20
8.1624747139
 30
0.0
 10
10.2029578728
 20
8.1610928479
 30
0.0
 10
10.203468699
 20
8.1593655201
 30
0.0
 10
10.2040816748
 20
8.1572927247
 30
0.0
 10
10.2046946548
 20
8.1552199298
 30
0.0
 10
10.20551196
 20
8.1524562032
 30
0.0
 10
10.206533592
 20
8.1490015449
 30
0.0
 10
10.2075552236
 20
8.1455468866
 30
0.0
 10
10.2083725294
 20
8.1427831601
 30
0.0
 10
10.2089855076
 20
8.1407103648
 30
0.0
 10
10.2095984899
 20
8.138637571
 30
0.0
 10
10.2101092961
 20
8.1369102385
 30
0.0
 10
10.2105179686
 20
8.135528382
 30
0.0
 10
10.2107733262
 20
8.1346647001
 30
0.0
 10
10.2109777559
 20
8.1339738039
 30
0.0
 10
10.211130685
 20
8.1334554969
 30
0.0
 10
10.2112593767
 20
8.1330240033
 30
0.0
 10
10.2113470061
 20
8.1327211162
 30
0.0
 10
10.2114009131
 20
8.1325493519
 30
0.0
 10
10.2114305455
 20
8.1324168269
 30
0.0
 10
10.2115014528
 20
8.1322984518
 30
0.0
 10
10.2115815987
 20
8.1321356827
 30
0.0
 10
10.211728562
 20
8.1318531365
 30
0.0
 10
10.2119350025
 20
8.1314482966
 30
0.0
 10
10.2121842322
 20
8.1309630035
 30
0.0
 10
10.2125160143
 20
8.1303157661
 30
0.0
 10
10.2129309213
 20
8.1295067811
 30
0.0
 10
10.2135946722
 20
8.1282123705
 30
0.0
 10
10.2144243953
 20
8.1265943691
 30
0.0
 10
10.2154200482
 20
8.1246527624
 30
0.0
 10
10.2164157051
 20
8.1227111571
 30
0.0
 10
10.2177432462
 20
8.1201223494
 30
0.0
 10
10.2194026731
 20
8.1168863401
 30
0.0
 10
10.2210620996
 20
8.1136503306
 30
0.0
 10
10.2223896413
 20
8.1110615232
 30
0.0
 10
10.2233852965
 20
8.1091199172
 30
0.0
 10
10.2243809556
 20
8.107178313
 30
0.0
 10
10.2252106595
 20
8.1055603038
 30
0.0
 10
10.2258744494
 20
8.1042659092
 30
0.0
 10
10.2262892572
 20
8.1034568836
 30
0.0
 10
10.2266212429
 20
8.1028097294
 30
0.0
 10
10.2268698504
 20
8.1023241824
 30
0.0
 10
10.2270782378
 20
8.1019201366
 30
0.0
 10
10.2272217256
 20
8.1016361728
 30
0.0
 10
10.22730744
 20
8.1014756749
 30
0.0
 10
10.2273612426
 20
8.1013503235
 30
0.0
 10
10.2274551175
 20
8.1012440004
 30
0.0
 10
10.2275663064
 20
8.101095599
 30
0.0
 10
10.2277673994
 20
8.1008389889
 30
0.0
 10
10.2280512703
 20
8.1004707863
 30
0.0
 10
10.2283933727
 20
8.1000296352
 30
0.0
 10
10.2288490003
 20
8.099441192
 30
0.0
 10
10.2294187091
 20
8.0987057208
 30
0.0
 10
10.2303301457
 20
8.0975289206
 30
0.0
 10
10.2314694749
 20
8.0960579362
 30
0.0
 10
10.2328366556
 20
8.0942927481
 30
0.0
 10
10.2342038401
 20
8.0925275619
 30
0.0
 10
10.2360267515
 20
8.0901739796
 30
0.0
 10
10.2383053912
 20
8.0872320019
 30
0.0
 10
10.2405840307
 20
8.0842900241
 30
0.0
 10
10.2424069425
 20
8.0819364422
 30
0.0
 10
10.2437741256
 20
8.0801712549
 30
0.0
 10
10.2451413116
 20
8.0784060707
 30
0.0
 10
10.2462806245
 20
8.0769350741
 30
0.0
 10
10.2471920943
 20
8.0757582988
 30
0.0
 10
10.2477617185
 20
8.0750227642
 30
0.0
 10
10.2482175198
 20
8.0744344511
 30
0.0
 10
10.2485590916
 20
8.0739929025
 30
0.0
 10
10.2488446227
 20
8.0736259436
 30
0.0
 10
10.249042752
 20
8.0733671133
 30
0.0
 10
10.2491586895
 20
8.0732222693
 30
0.0
 10
10.2492379781
 20
8.0731050189
 30
0.0
 10
10.2493465644
 20
8.0730207082
 30
0.0
 10
10.2494811267
 20
8.0728968043
 30
0.0
 10
10.2497213722
 20
8.0726853256
 30
0.0
 10
10.2500620908
 20
8.0723804144
 30
0.0
 10
10.2504720185
 20
8.0720157189
 30
0.0
 10
10.2510182167
 20
8.0715290399
 30
0.0
 10
10.2517010918
 20
8.0709208344
 30
0.0
 10
10.2527936209
 20
8.0699476255
 30
0.0
 10
10.2541593066
 20
8.0687311418
 30
0.0
 10
10.255798119
 20
8.0672713497
 30
0.0
 10
10.2574369341
 20
8.0658115607
 30
0.0
 10
10.2596220201
 20
8.0638651743
 30
0.0
 10
10.2623533779
 20
8.0614321916
 30
0.0
 10
10.2650847354
 20
8.0589992087
 30
0.0
 10
10.2672698217
 20
8.0570528227
 30
0.0
 10
10.2689086358
 20
8.0555930324
 30
0.0
 10
10.2705474523
 20
8.0541332454
 30
0.0
 10
10.2719131253
 20
8.0529167457
 30
0.0
 10
10.2730056802
 20
8.0519435695
 30
0.0
 10
10.2736884893
 20
8.0513352807
 30
0.0
 10
10.2742348231
 20
8.0508487727
 30
0.0
 10
10.2746443367
 20
8.0504835547
 30
0.0
 10
10.2749863508
 20
8.0501802785
 30
0.0
 10
10.2752242836
 20
8.0499658811
 30
0.0
 10
10.2753625515
 20
8.0498466535
 30
0.0
 10
10.2754597554
 20
8.0497479783
 30
0.0
 10
10.2755817943
 20
8.0496846788
 30
0.0
 10
10.27573585
 20
8.0495879399
 30
0.0
 10
10.2760094837
 20
8.0494243961
 30
0.0
 10
10.2763982789
 20
8.0491877564
 30
0.0
 10
10.2768657363
 20
8.0489050753
 30
0.0
 10
10.2774886974
 20
8.0485277178
 30
0.0
 10
10.2782675068
 20
8.0480561747
 30
0.0
 10
10.2795135414
 20
8.0473016199
 30
0.0
 10
10.2810711053
 20
8.0463584558
 30
0.0
 10
10.2829401732
 20
8.0452266463
 30
0.0
 10
10.2848092435
 20
8.0440948402
 30
0.0
 10
10.2873013364
 20
8.0425857642
 30
0.0
 10
10.2904164527
 20
8.0406994196
 30
0.0
 10
10.2935315689
 20
8.0388130747
 30
0.0
 10
10.2960236621
 20
8.0373039991
 30
0.0
 10
10.2978927315
 20
8.0361721915
 30
0.0
 10
10.2997618026
 20
8.0350403877
 30
0.0
 10
10.3013193567
 20
8.0340972059
 30
0.0
 10
10.3025654114
 20
8.0333426872
 30
0.0
 10
10.3033441695
 20
8.0328710522
 30
0.0
 10
10.3039672358
 20
8.0324938834
 30
0.0
 10
10.304434372
 20
8.0322106256
 30
0.0
 10
10.3048241721
 20
8.0319757904
 30
0.0
 10
10.3050960118
 20
8.0318090252
 30
0.0
 10
10.305252942
 20
8.0317174479
 30
0.0
 10
10.3053661515
 20
8.0316382938
 30
0.0
 10
10.3054965172
 20
8.0315991653
 30
0.0
 10
10.3056643538
 20
8.0315330326
 30
0.0
 10
10.3059608561
 20
8.0314238052
 30
0.0
 10
10.3063829732
 20
8.0312643652
 30
0.0
 10
10.3068901376
 20
8.0310744929
 30
0.0
 10
10.3075661388
 20
8.0308208214
 30
0.0
 10
10.308411215
 20
8.0305039061
 30
0.0
 10
10.3097632952
 20
8.0299967444
 30
0.0
 10
10.3114534098
 20
8.0293628256
 30
0.0
 10
10.3134815412
 20
8.0286021087
 30
0.0
 10
10.3155096742
 20
8.0278413956
 30
0.0
 10
10.3182138509
 20
8.0268271102
 30
0.0
 10
10.3215940721
 20
8.025559254
 30
0.0
 10
10.3249742931
 20
8.0242913974
 30
0.0
 10
10.3276784701
 20
8.0232771125
 30
0.0
 10
10.3297066025
 20
8.0225163978
 30
0.0
 10
10.3317347361
 20
8.0217556872
 30
0.0
 10
10.3334248436
 20
8.0211217489
 30
0.0
 10
10.3347769382
 20
8.0206146269
 30
0.0
 10
10.3356219777
 20
8.0202976105
 30
0.0
 10
10.3362980543
 20
8.0200441465
 30
0.0
 10
10.3368049887
 20
8.0198536402
 30
0.0
 10
10.3372278254
 20
8.0196961839
 30
0.0
 10
10.3375230429
 20
8.0195834153
 30
0.0
 10
10.3376929381
 20
8.0195229564
 30
0.0
 10
10.3378169807
 20
8.0194663998
 30
0.0
 10
10.3379539387
 20
8.0194527029
 30
0.0
 10
10.3381320444
 20
8.0194194905
 30
0.0
 10
10.3384458283
 20
8.0193683342
 30
0.0
 10
10.3388929936
 20
8.0192916121
 30
0.0
 10
10.3394300617
 20
8.0192011044
 30
0.0
 10
10.3401459885
 20
8.0190798829
 30
0.0
 10
10.3410409531
 20
8.0189285426
 30
0.0
 10
10.3424728651
 20
8.0186862938
 30
0.0
 10
10.3442627659
 20
8.0183835186
 30
0.0
 10
10.3464106422
 20
8.018020173
 30
0.0
 10
10.3485585198
 20
8.0176568315
 30
0.0
 10
10.3514223561
 20
8.0171723747
 30
0.0
 10
10.3550021516
 20
8.0165668043
 30
0.0
 10
10.3592979061
 20
8.0158401195
 30
0.0
 10
10.3650255789
 20
8.0148712066
 30
0.0
 10
10.3693213335
 20
8.0141445219
 30
0.0
 10
10.3721851699
 20
8.0136600654
 30
0.0
  0
SPLINE
  5
3CC
100
AcDbEntity
  8
0
100
AcDbSpline
 62
4
  6
CONTINUOUS
 70
0
 71
3
 72
403
 73
399
 74
0
 42
0.0000001
 43
0.0000001
 44
0.0000000001
 40
0.0
 40
0.0
 40
0.0
 40
0.0
 40
0.015625
 40
0.0234375
 40
0.03125
 40
0.0390625
 40
0.04296875
 40
0.046875
 40
0.05078125
 40
0.0546875
 40
0.056640625
 40
0.05859375
 40
0.0595703125
 40
0.060546875
 40
0.0615234375
 40
0.0620117188
 40
0.0622558594
 40
0.0625
 40
0.0627441406
 40
0.0629882812
 40
0.0634765625
 40
0.064453125
 40
0.0654296875
 40
0.06640625
 40
0.068359375
 40
0.0703125
 40
0.07421875
 40
0.078125
 40
0.08203125
 40
0.0859375
 40
0.09375
 40
0.1015625
 40
0.10546875
 40
0.109375
 40
0.11328125
 40
0.1171875
 40
0.119140625
 40
0.12109375
 40
0.1220703125
 40
0.123046875
 40
0.1240234375
 40
0.1245117188
 40
0.1247558594
 40
0.125
 40
0.1252441406
 40
0.1254882812
 40
0.1259765625
 40
0.126953125
 40
0.1279296875
 40
0.12890625
 40
0.130859375
 40
0.1328125
 40
0.13671875
 40
0.140625
 40
0.14453125
 40
0.1484375
 40
0.15625
 40
0.1640625
 40
0.16796875
 40
0.171875
 40
0.17578125
 40
0.1796875
 40
0.181640625
 40
0.18359375
 40
0.1845703125
 40
0.185546875
 40
0.1865234375
 40
0.1870117188
 40
0.1872558594
 40
0.1875
 40
0.1877441406
 40
0.1879882812
 40
0.1884765625
 40
0.189453125
 40
0.1904296875
 40
0.19140625
 40
0.193359375
 40
0.1953125
 40
0.19921875
 40
0.203125
 40
0.20703125
 40
0.2109375
 40
0.21875
 40
0.2265625
 40
0.23046875
 40
0.234375
 40
0.23828125
 40
0.2421875
 40
0.244140625
 40
0.24609375
 40
0.2470703125
 40
0.248046875
 40
0.2490234375
 40
0.2495117188
 40
0.2497558594
 40
0.25
 40
0.2502441406
 40
0.2504882812
 40
0.2509765625
 40
0.251953125
 40
0.2529296875
 40
0.25390625
 40
0.255859375
 40
0.2578125
 40
0.26171875
 40
0.265625
 40
0.26953125
 40
0.2734375
 40
0.28125
 40
0.2890625
 40
0.29296875
 40
0.296875
 40
0.30078125
 40
0.3046875
 40
0.306640625
 40
0.30859375
 40
0.3095703125
 40
0.310546875
 40
0.3115234375
 40
0.3120117188
 40
0.3122558594
 40
0.3125
 40
0.3127441406
 40
0.3129882812
 40
0.3134765625
 40
0.314453125
 40
0.3154296875
 40
0.31640625
 40
0.318359375
 40
0.3203125
 40
0.32421875
 40
0.328125
 40
0.33203125
 40
0.3359375
 40
0.34375
 40
0.3515625
 40
0.35546875
 40
0.359375
 40
0.36328125
 40
0.3671875
 40
0.369140625
 40
0.37109375
 40
0.3720703125
 40
0.373046875
 40
0.3740234375
 40
0.3745117188
 40
0.3747558594
 40
0.375
 40
0.3752441406
 40
0.3754882812
 40
0.3759765625
 40
0.376953125
 40
0.3779296875
 40
0.37890625
 40
0.380859375
 40
0.3828125
 40
0.38671875
 40
0.390625
 40
0.39453125
 40
0.3984375
 40
0.40625
 40
0.4140625
 40
0.41796875
 40
0.421875
 40
0.42578125
 40
0.4296875
 40
0.431640625
 40
0.43359375
 40
0.4345703125
 40
0.435546875
 40
0.4365234375
 40
0.4370117188
 40
0.4372558594
 40
0.4375
 40
0.4377441406
 40
0.4379882812
 40
0.4384765625
 40
0.439453125
 40
0.4404296875
 40
0.44140625
 40
0.443359375
 40
0.4453125
 40
0.44921875
 40
0.453125
 40
0.45703125
 40
0.4609375
 40
0.46875
 40
0.4765625
 40
0.48046875
 40
0.484375
 40
0.48828125
 40
0.4921875
 40
0.494140625
 40
0.49609375
 40
0.4970703125
 40
0.498046875
 40
0.4990234375
 40
0.4995117188
 40
0.4997558594
 40
0.5
 40
0.5002441406
 40
0.5004882812
 40
0.5009765625
 40
0.501953125
 40
0.5029296875
 40
0.50390625
 40
0.505859375
 40
0.5078125
 40
0.51171875
 40
0.515625
 40
0.51953125
 40
0.5234375
 40
0.53125
 40
0.5390625
 40
0.54296875
 40
0.546875
 40
0.55078125
 40
0.5546875
 40
0.556640625
 40
0.55859375
 40
0.5595703125
 40
0.560546875
 40
0.5615234375
 40
0.5620117188
 40
0.5622558594
 40
0.5625
 40
0.5627441406
 40
0.5629882812
 40
0.5634765625
 40
0.564453125
 40
0.5654296875
 40
0.56640625
 40
0.568359375
 40
0.5703125
 40
0.57421875
 40
0.578125
 40
0.58203125
 40
0.5859375
 40
0.59375
 40
0.6015625
 40
0.60546875
 40
0.609375
 40
0.61328125
 40
0.6171875
 40
0.619140625
 40
0.62109375
 40
0.6220703125
 40
0.623046875
 40
0.6240234375
 40
0.6245117188
 40
0.6247558594
 40
0.625
 40
0.6252441406
 40
0.6254882812
 40
0.6259765625
 40
0.626953125
 40
0.6279296875
 40
0.62890625
 40
0.630859375
 40
0.6328125
 40
0.63671875
 40
0.640625
 40
0.64453125
 40
0.6484375
 40
0.65625
 40
0.6640625
 40
0.66796875
 40
0.671875
 40
0.67578125
 40
0.6796875
 40
0.681640625
 40
0.68359375
 40
0.6845703125
 40
0.685546875
 40
0.6865234375
 40
0.6870117188
 40
0.6872558594
 40
0.6875
 40
0.6877441406
 40
0.6879882812
 40
0.6884765625
 40
0.689453125
 40
0.6904296875
 40
0.69140625
 40
0.693359375
 40
0.6953125
 40
0.69921875
 40
0.703125
 40
0.70703125
 40
0.7109375
 40
0.71875
 40
0.7265625
 40
0.73046875
 40
0.734375
 40
0.73828125
 40
0.7421875
 40
0.744140625
 40
0.74609375
 40
0.7470703125
 40
0.748046875
 40
0.7490234375
 40
0.7495117188
 40
0.7497558594
 40
0.75
 40
0.7502441406
 40
0.7504882812
 40
0.7509765625
 40
0.751953125
 40
0.7529296875
 40
0.75390625
 40
0.755859375
 40
0.7578125
 40
0.76171875
 40
0.765625
 40
0.76953125
 40
0.7734375
 40
0.78125
 40
0.7890625
 40
0.79296875
 40
0.796875
 40
0.80078125
 40
0.8046875
 40
0.806640625
 40
0.80859375
 40
0.8095703125
 40
0.810546875
 40
0.8115234375
 40
0.8120117188
 40
0.8122558594
 40
0.8125
 40
0.8127441406
 40
0.8129882812
 40
0.8134765625
 40
0.814453125
 40
0.8154296875
 40
0.81640625
 40
0.818359375
 40
0.8203125
 40
0.82421875
 40
0.828125
 40
0.83203125
 40
0.8359375
 40
0.84375
 40
0.8515625
 40
0.85546875
 40
0.859375
 40
0.86328125
 40
0.8671875
 40
0.869140625
 40
0.87109375
 40
0.8720703125
 40
0.873046875
 40
0.8740234375
 40
0.8745117188
 40
0.8747558594
 40
0.875
 40
0.8752441406
 40
0.8754882812
 40
0.8759765625
 40
0.876953125
 40
0.8779296875
 40
0.87890625
 40
0.880859375
 40
0.8828125
 40
0.88671875
 40
0.890625
 40
0.89453125
 40
0.8984375
 40
0.90625
 40
0.9140625
 40
0.91796875
 40
0.921875
 40
0.92578125
 40
0.9296875
 40
0.931640625
 40
0.93359375
 40
0.9345703125
 40
0.935546875
 40
0.9365234375
 40
0.9370117188
 40
0.9372558594
 40
0.9375
 40
0.9377441406
 40
0.9379882812
 40
0.9384765625
 40
0.939453125
 40
0.9404296875
 40
0.94140625
 40
0.943359375
 40
0.9453125
 40
0.94921875
 40
0.953125
 40
0.95703125
 40
0.9609375
 40
0.96875
 40
0.9765625
 40
0.984375
 40
1.0
 40
1.0
 40
1.0
 40
1.0
 10
10.3721851547
 20
8.0136600664
 30
0.0
 10
10.3749993945
 20
8.0137408369
 30
0.0
 10
10.3792207542
 20
8.0138619925
 30
0.0
 10
10.3848492338
 20
8.0140235334
 30
0.0
 10
10.3890705935
 20
8.0141446891
 30
0.0
 10
10.3925883933
 20
8.014245652
 30
0.0
 10
10.3954026331
 20
8.0143264227
 30
0.0
 10
10.3975133131
 20
8.0143869996
 30
0.0
 10
10.3996239923
 20
8.0144475808
 30
0.0
 10
10.4013828942
 20
8.0144980519
 30
0.0
 10
10.40279001
 20
8.0145384584
 30
0.0
 10
10.4036694705
 20
8.014563645
 30
0.0
 10
10.4043730087
 20
8.0145839488
 30
0.0
 10
10.404900745
 20
8.0145987536
 30
0.0
 10
10.4053402625
 20
8.0146124365
 30
0.0
 10
10.4056484404
 20
8.0146193741
 30
0.0
 10
10.4058237368
 20
8.0146274612
 30
0.0
 10
10.4059574776
 20
8.0146219125
 30
0.0
 10
10.4060825471
 20
8.0146607584
 30
0.0
 10
10.4062523311
 20
8.0146970677
 30
0.0
 10
10.4065480438
 20
8.0147678237
 30
0.0
 10
10.4069712273
 20
8.0148651317
 30
0.0
 10
10.4074787322
 20
8.0149835159
 30
0.0
 10
10.4081555154
 20
8.0151407975
 30
0.0
 10
10.4090014568
 20
8.0153375927
 30
0.0
 10
10.4103549841
 20
8.015652357
 30
0.0
 10
10.412046886
 20
8.0160458494
 30
0.0
 10
10.4140771714
 20
8.0165180244
 30
0.0
 10
10.4161074559
 20
8.0169902037
 30
0.0
 10
10.4188145023
 20
8.0176197745
 30
0.0
 10
10.4221983101
 20
8.0184067387
 30
0.0
 10
10.425582118
 20
8.0191937025
 30
0.0
 10
10.4282891642
 20
8.0198232739
 30
0.0
 10
10.4303194493
 20
8.0202954514
 30
0.0
 10
10.4323497327
 20
8.020767633
 30
0.0
 10
10.4340416406
 20
8.021161105
 30
0.0
 10
10.4353951556
 20
8.0214759109
 30
0.0
 10
10.4362411283
 20
8.0216726001
 30
0.0
 10
10.4369178473
 20
8.0218300992
 30
0.0
 10
10.4374255486
 20
8.0219478191
 30
0.0
 10
10.4378481175
 20
8.0220472056
 30
0.0
 10
10.4381449275
 20
8.0221142511
 30
0.0
 10
10.4383129533
 20
8.0221565055
 30
0.0
 10
10.4384434232
 20
8.0221770898
 30
0.0
 10
10.4385568809
 20
8.0222401288
 30
0.0
 10
10.4387140918
 20
8.0223093721
 30
0.0
 10
10.4389864462
 20
8.0224374475
 30
0.0
 10
10.4393769693
 20
8.0226168052
 30
0.0
 10
10.4398449783
 20
8.0228335783
 30
0.0
 10
10.4404692065
 20
8.02312207
 30
0.0
 10
10.4412494177
 20
8.0234828692
 30
0.0
 10
10.442497797
 20
8.0240600447
 30
0.0
 10
10.4440582568
 20
8.0247815495
 30
0.0
 10
10.4459308148
 20
8.0256473401
 30
0.0
 10
10.4478033711
 20
8.0265131347
 30
0.0
 10
10.4503001134
 20
8.0276675262
 30
0.0
 10
10.4534210411
 20
8.029110516
 30
0.0
 10
10.456541969
 20
8.0305535055
 30
0.0
 10
10.4590387111
 20
8.0317078975
 30
0.0
 10
10.4609112682
 20
8.0325736905
 30
0.0
 10
10.4627838232
 20
8.0334394874
 30
0.0
 10
10.4643442922
 20
8.0341609724
 30
0.0
 10
10.4655926529
 20
8.0347381882
 30
0.0
 10
10.4663729114
 20
8.0350988849
 30
0.0
 10
10.4669970424
 20
8.035387587
 30
0.0
 10
10.4674653483
 20
8.0356037173
 30
0.0
 10
10.4678549424
 20
8.0357850863
 30
0.0
 10
10.4681289553
 20
8.0359095712
 30
0.0
 10
10.4682835089
 20
8.0359845673
 30
0.0
 10
10.468405129
 20
8.0360299355
 30
0.0
 10
10.4685049419
 20
8.0361168884
 30
0.0
 10
10.4686456324
 20
8.0362183203
 30
0.0
 10
10.4688882966
 20
8.0364025845
 30
0.0
 10
10.4692368127
 20
8.0366622857
 30
0.0
 10
10.4696542389
 20
8.0369754396
 30
0.0
 10
10.4702110842
 20
8.0373924498
 30
0.0
 10
10.470907046
 20
8.0379138935
 30
0.0
 10
10.4720206379
 20
8.0387481022
 30
0.0
 10
10.4734126095
 20
8.0397908979
 30
0.0
 10
10.4750829833
 20
8.0410422378
 30
0.0
 10
10.476753355
 20
8.0422935816
 30
0.0
 10
10.4789805179
 20
8.0439620387
 30
0.0
 10
10.4817644713
 20
8.0460476106
 30
0.0
 10
10.484548425
 20
8.0481331822
 30
0.0
 10
10.4867755876
 20
8.0498016398
 30
0.0
 10
10.4884459604
 20
8.0510529822
 30
0.0
 10
10.4901163299
 20
8.0523043276
 30
0.0
 10
10.4915083149
 20
8.053347106
 30
0.0
 10
10.4926218795
 20
8.0541813499
 30
0.0
 10
10.4933179105
 20
8.0547027042
 30
0.0
 10
10.4938746137
 20
8.0551198979
 30
0.0
 10
10.4942924742
 20
8.055432491
 30
0.0
 10
10.4946396315
 20
8.0556939467
 30
0.0
 10
10.4948847215
 20
8.0558750789
 30
0.0
 10
10.4950215252
 20
8.0559815291
 30
0.0
 10
10.4951332769
 20
8.0560530677
 30
0.0
 10
10.4952100571
 20
8.0561563292
 30
0.0
 10
10.4953246291
 20
8.056282946
 30
0.0
 10
10.4955194468
 20
8.0565096808
 30
0.0
 10
10.495800729
 20
8.0568308924
 30
0.0
 10
10.4961369959
 20
8.0572174999
 30
0.0
 10
10.4965857959
 20
8.0577325737
 30
0.0
 10
10.4971466439
 20
8.0583765539
 30
0.0
 10
10.4980440856
 20
8.0594068452
 30
0.0
 10
10.4991658587
 20
8.0606947357
 30
0.0
 10
10.5005119988
 20
8.0622401929
 30
0.0
 10
10.5018581356
 20
8.0637856532
 30
0.0
 10
10.5036529858
 20
8.0658462658
 30
0.0
 10
10.5058965481
 20
8.068422032
 30
0.0
 10
10.5081401107
 20
8.070997798
 30
0.0
 10
10.5099349605
 20
8.073058411
 30
0.0
 10
10.5112810987
 20
8.0746038701
 30
0.0
 10
10.5126272334
 20
8.0761493318
 30
0.0
 10
10.5137490233
 20
8.0774372084
 30
0.0
 10
10.5146464306
 20
8.078467528
 30
0.0
 10
10.5152073664
 20
8.0791114361
 30
0.0
 10
10.515655986
 20
8.0796266579
 30
0.0
 10
10.5159928042
 20
8.0800128132
 30
0.0
 10
10.5162723616
 20
8.0803354399
 30
0.0
 10
10.5164702583
 20
8.0805596485
 30
0.0
 10
10.5165798969
 20
8.0806903129
 30
0.0
 10
10.516671831
 20
8.0807811412
 30
0.0
 10
10.5167266672
 20
8.0808993771
 30
0.0
 10
10.5168127222
 20
8.081047465
 30
0.0
 10
10.5169572894
 20
8.0813110729
 30
0.0
 10
10.5171669661
 20
8.081685327
 30
0.0
 10
10.517417229
 20
8.0821354286
 30
0.0
 10
10.517751384
 20
8.0827352159
 30
0.0
 10
10.5181689164
 20
8.0834850693
 30
0.0
 10
10.5188370585
 20
8.0846847681
 30
0.0
 10
10.5196722051
 20
8.0861844145
 30
0.0
 10
10.5206743943
 20
8.0879839803
 30
0.0
 10
10.52167658
 20
8.0897835488
 30
0.0
 10
10.5230128288
 20
8.0921829724
 30
0.0
 10
10.5246831393
 20
8.0951822524
 30
0.0
 10
10.5263534502
 20
8.0981815321
 30
0.0
 10
10.5276896985
 20
8.1005809561
 30
0.0
 10
10.5286918857
 20
8.1023805236
 30
0.0
 10
10.529694069
 20
8.1041800931
 30
0.0
 10
10.530529234
 20
8.1056797283
 30
0.0
 10
10.5311973386
 20
8.1068794498
 30
0.0
 10
10.5316149665
 20
8.1076292453
 30
0.0
 10
10.5319489255
 20
8.1082291514
 30
0.0
 10
10.5321997873
 20
8.1086788903
 30
0.0
 10
10.5324075898
 20
8.1090542793
 30
0.0
 10
10.5325555028
 20
8.1093158612
 30
0.0
 10
10.532636197
 20
8.1094671952
 30
0.0
 10
10.5327074999
 20
8.1095754598
 30
0.0
 10
10.5327375876
 20
8.1097037389
 30
0.0
 10
10.5327920808
 20
8.1098677965
 30
0.0
 10
10.5328807457
 20
8.1101581498
 30
0.0
 10
10.5330109117
 20
8.1105712398
 30
0.0
 10
10.533165612
 20
8.1110676757
 30
0.0
 10
10.5333724027
 20
8.111729336
 30
0.0
 10
10.5336307117
 20
8.1125564984
 30
0.0
 10
10.5340441064
 20
8.1138799096
 30
0.0
 10
10.5345608154
 20
8.1155341903
 30
0.0
 10
10.5351808809
 20
8.11751932
 30
0.0
 10
10.5358009424
 20
8.1195044516
 30
0.0
 10
10.5366276925
 20
8.122151293
 30
0.0
 10
10.5376611297
 20
8.125459845
 30
0.0
 10
10.5386945671
 20
8.1287683969
 30
0.0
 10
10.5395213167
 20
8.1314152386
 30
0.0
 10
10.5401413799
 20
8.1334003695
 30
0.0
 10
10.540761439
 20
8.1353855019
 30
0.0
 10
10.5412781679
 20
8.1370397741
 30
0.0
 10
10.5416915219
 20
8.1383632025
 30
0.0
 10
10.5419499346
 20
8.1391903211
 30
0.0
 10
10.5421565125
 20
8.1398520714
 30
0.0
 10
10.5423118628
 20
8.1403482322
 30
0.0
 10
10.5424399953
 20
8.1407621829
 30
0.0
 10
10.5425322904
 20
8.1410509998
 30
0.0
 10
10.542580967
 20
8.1412175192
 30
0.0
 10
10.5426289213
 20
8.1413382361
 30
0.0
 10
10.5426331201
 20
8.1414749029
 30
0.0
 10
10.5426539809
 20
8.1416515618
 30
0.0
 10
10.5426833762
 20
8.141963307
 30
0.0
 10
10.5427290872
 20
8.1424073021
 30
0.0
 10
10.5427823492
 20
8.1429406762
 30
0.0
 10
10.5428539209
 20
8.1436516391
 30
0.0
 10
10.5429431953
 20
8.1445404122
 30
0.0
 10
10.5430861406
 20
8.1459624102
 30
0.0
 10
10.5432647858
 20
8.1477399211
 30
0.0
 10
10.5434791757
 20
8.1498729285
 30
0.0
 10
10.5436935614
 20
8.1520059374
 30
0.0
 10
10.5439794104
 20
8.1548499487
 30
0.0
 10
10.5443367212
 20
8.1584049631
 30
0.0
 10
10.5446940323
 20
8.1619599774
 30
0.0
 10
10.5449798807
 20
8.1648039888
 30
0.0
 10
10.5451942682
 20
8.1669369974
 30
0.0
 10
10.5454086513
 20
8.1690700059
 30
0.0
 10
10.5455873175
 20
8.1708475133
 30
0.0
 10
10.5457302201
 20
8.1722695186
 30
0.0
 10
10.5458196032
 20
8.1731582732
 30
0.0
 10
10.5458909516
 20
8.1738692739
 30
0.0
 10
10.5459448959
 20
8.1744025326
 30
0.0
 10
10.5459884721
 20
8.1748468888
 30
0.0
 10
10.5460216784
 20
8.1751579894
 30
0.0
 10
10.5460364331
 20
8.1753356812
 30
0.0
 10
10.5460593879
 20
8.1754691751
 30
0.0
 10
10.5460368976
 20
8.1756018087
 30
0.0
 10
10.5460227623
 20
8.1757789536
 30
0.0
 10
10.54599064
 20
8.1760888174
 30
0.0
 10
10.5459486122
 20
8.176531553
 30
0.0
 10
10.5458965261
 20
8.1770628045
 30
0.0
 10
10.5458276552
 20
8.1777711507
 30
0.0
 10
10.5457413689
 20
8.1786565797
 30
0.0
 10
10.5456034214
 20
8.1800732682
 30
0.0
 10
10.5454309491
 20
8.1818441282
 30
0.0
 10
10.5452239986
 20
8.1839691604
 30
0.0
 10
10.5450170437
 20
8.1860941925
 30
0.0
 10
10.5447411053
 20
8.1889275688
 30
0.0
 10
10.5443961819
 20
8.192469289
 30
0.0
 10
10.5440512588
 20
8.1960110093
 30
0.0
 10
10.5437753199
 20
8.1988443855
 30
0.0
 10
10.5435683668
 20
8.2009694178
 30
0.0
 10
10.5433614095
 20
8.2030944495
 30
0.0
 10
10.5431889581
 20
8.204865311
 30
0.0
 10
10.5430509678
 20
8.2062819964
 30
0.0
 10
10.5429647904
 20
8.2071674333
 30
0.0
 10
10.5428956961
 20
8.2078757633
 30
0.0
 10
10.5428442926
 20
8.2084070644
 30
0.0
 10
10.5428001291
 20
8.2088496446
 30
0.0
 10
10.5427718193
 20
8.2091597858
 30
0.0
 10
10.5427515754
 20
8.2093364862
 30
0.0
 10
10.5427478491
 20
8.2094704854
 30
0.0
 10
10.5427003296
 20
8.2095988504
 30
0.0
 10
10.5426522458
 20
8.209771969
 30
0.0
 10
10.542560982
 20
8.2100740108
 30
0.0
 10
10.5424343261
 20
8.210505978
 30
0.0
 10
10.5422807463
 20
8.2110241336
 30
0.0
 10
10.5420765296
 20
8.2117150794
 30
0.0
 10
10.5418210682
 20
8.2125787371
 30
0.0
 10
10.5414124365
 20
8.2139606031
 30
0.0
 10
10.5409016103
 20
8.2156879309
 30
0.0
 10
10.5402886345
 20
8.2177607263
 30
0.0
 10
10.5396756545
 20
8.2198335211
 30
0.0
 10
10.5388583494
 20
8.2225972478
 30
0.0
 10
10.5378367174
 20
8.226051906
 30
0.0
 10
10.5368150857
 20
8.2295065643
 30
0.0
 10
10.53599778
 20
8.2322702909
 30
0.0
 10
10.5353848017
 20
8.2343430861
 30
0.0
 10
10.5347718195
 20
8.23641588
 30
0.0
 10
10.5342610133
 20
8.2381432125
 30
0.0
 10
10.5338523408
 20
8.239525069
 30
0.0
 10
10.5335969831
 20
8.2403887508
 30
0.0
 10
10.5333925534
 20
8.241079647
 30
0.0
 10
10.5332396244
 20
8.241597954
 30
0.0
 10
10.5331109326
 20
8.2420294477
 30
0.0
 10
10.5330233032
 20
8.2423323348
 30
0.0
 10
10.5329693962
 20
8.2425040991
 30
0.0
 10
10.5329397638
 20
8.242636624
 30
0.0
 10
10.5328688565
 20
8.2427549991
 30
0.0
 10
10.5327887106
 20
8.2429177682
 30
0.0
 10
10.5326417474
 20
8.2432003145
 30
0.0
 10
10.5324353068
 20
8.2436051543
 30
0.0
 10
10.5321860771
 20
8.2440904475
 30
0.0
 10
10.5318542951
 20
8.2447376848
 30
0.0
 10
10.5314393881
 20
8.2455466699
 30
0.0
 10
10.5307756371
 20
8.2468410804
 30
0.0
 10
10.5299459141
 20
8.2484590818
 30
0.0
 10
10.5289502612
 20
8.2504006885
 30
0.0
 10
10.5279546043
 20
8.2523422939
 30
0.0
 10
10.5266270632
 20
8.2549311015
 30
0.0
 10
10.5249676363
 20
8.2581671109
 30
0.0
 10
10.5233082097
 20
8.2614031203
 30
0.0
 10
10.5219806681
 20
8.2639919277
 30
0.0
 10
10.5209850128
 20
8.2659335338
 30
0.0
 10
10.5199893538
 20
8.267875138
 30
0.0
 10
10.5191596498
 20
8.2694931471
 30
0.0
 10
10.5184958599
 20
8.2707875418
 30
0.0
 10
10.5180810521
 20
8.2715965674
 30
0.0
 10
10.5177490664
 20
8.2722437216
 30
0.0
 10
10.5175004589
 20
8.2727292686
 30
0.0
 10
10.5172920716
 20
8.2731333143
 30
0.0
 10
10.5171485838
 20
8.2734172781
 30
0.0
 10
10.5170628693
 20
8.273577776
 30
0.0
 10
10.5170090668
 20
8.2737031274
 30
0.0
 10
10.5169151918
 20
8.2738094505
 30
0.0
 10
10.516804003
 20
8.273957852
 30
0.0
 10
10.51660291
 20
8.2742144621
 30
0.0
 10
10.5163190391
 20
8.2745826647
 30
0.0
 10
10.5159769366
 20
8.2750238158
 30
0.0
 10
10.515521309
 20
8.275612259
 30
0.0
 10
10.5149516003
 20
8.2763477302
 30
0.0
 10
10.5140401636
 20
8.2775245304
 30
0.0
 10
10.5129008344
 20
8.2789955148
 30
0.0
 10
10.5115336537
 20
8.2807607029
 30
0.0
 10
10.5101664692
 20
8.2825258891
 30
0.0
 10
10.5083435578
 20
8.2848794714
 30
0.0
 10
10.5060649181
 20
8.287821449
 30
0.0
 10
10.5037862787
 20
8.2907634269
 30
0.0
 10
10.5019633668
 20
8.2931170088
 30
0.0
 10
10.5005961837
 20
8.2948821961
 30
0.0
 10
10.4992289977
 20
8.2966473802
 30
0.0
 10
10.4980896849
 20
8.2981183768
 30
0.0
 10
10.497178215
 20
8.2992951521
 30
0.0
 10
10.4966085908
 20
8.3000306867
 30
0.0
 10
10.4961527896
 20
8.3006189998
 30
0.0
 10
10.4958112177
 20
8.3010605484
 30
0.0
 10
10.4955256866
 20
8.3014275073
 30
0.0
 10
10.4953275574
 20
8.3016863377
 30
0.0
 10
10.4952116199
 20
8.3018311817
 30
0.0
 10
10.4951323312
 20
8.301948432
 30
0.0
 10
10.495023745
 20
8.3020327427
 30
0.0
 10
10.4948891826
 20
8.3021566467
 30
0.0
 10
10.4946489371
 20
8.3023681254
 30
0.0
 10
10.4943082186
 20
8.3026730366
 30
0.0
 10
10.4938982908
 20
8.303037732
 30
0.0
 10
10.4933520927
 20
8.3035244111
 30
0.0
 10
10.4926692175
 20
8.3041326166
 30
0.0
 10
10.4915766885
 20
8.3051058255
 30
0.0
 10
10.4902110028
 20
8.3063223091
 30
0.0
 10
10.4885721904
 20
8.3077821013
 30
0.0
 10
10.4869333752
 20
8.3092418903
 30
0.0
 10
10.4847482893
 20
8.3111882767
 30
0.0
 10
10.4820169315
 20
8.3136212593
 30
0.0
 10
10.4792855739
 20
8.3160542422
 30
0.0
 10
10.4771004876
 20
8.3180006282
 30
0.0
 10
10.4754616735
 20
8.3194604186
 30
0.0
 10
10.4738228571
 20
8.3209202056
 30
0.0
 10
10.4724571841
 20
8.3221367053
 30
0.0
 10
10.4713646291
 20
8.3231098814
 30
0.0
 10
10.47068182
 20
8.3237181703
 30
0.0
 10
10.4701354863
 20
8.3242046783
 30
0.0
 10
10.4697259726
 20
8.3245698963
 30
0.0
 10
10.4693839585
 20
8.3248731725
 30
0.0
 10
10.4691460258
 20
8.3250875699
 30
0.0
 10
10.4690077578
 20
8.3252067974
 30
0.0
 10
10.4689105539
 20
8.3253054726
 30
0.0
 10
10.4687885151
 20
8.3253687722
 30
0.0
 10
10.4686344593
 20
8.325465511
 30
0.0
 10
10.4683608256
 20
8.3256290548
 30
0.0
 10
10.4679720304
 20
8.3258656945
 30
0.0
 10
10.467504573
 20
8.3261483757
 30
0.0
 10
10.4668816119
 20
8.3265257332
 30
0.0
 10
10.4661028026
 20
8.3269972762
 30
0.0
 10
10.464856768
 20
8.3277518311
 30
0.0
 10
10.463299204
 20
8.3286949951
 30
0.0
 10
10.4614301361
 20
8.3298268046
 30
0.0
 10
10.4595610658
 20
8.3309586108
 30
0.0
 10
10.457068973
 20
8.3324676868
 30
0.0
 10
10.4539538566
 20
8.3343540314
 30
0.0
 10
10.4508387404
 20
8.3362403763
 30
0.0
 10
10.4483466473
 20
8.3377494518
 30
0.0
 10
10.4464775778
 20
8.3388812595
 30
0.0
 10
10.4446085068
 20
8.3400130633
 30
0.0
 10
10.4430509527
 20
8.3409562451
 30
0.0
 10
10.4418048979
 20
8.3417107638
 30
0.0
 10
10.4410261398
 20
8.3421823988
 30
0.0
 10
10.4404030736
 20
8.3425595675
 30
0.0
 10
10.4399359374
 20
8.3428428254
 30
0.0
 10
10.4395461373
 20
8.3430776606
 30
0.0
 10
10.4392742976
 20
8.3432444258
 30
0.0
 10
10.4391173673
 20
8.3433360031
 30
0.0
 10
10.4390041579
 20
8.3434151571
 30
0.0
 10
10.4388737922
 20
8.3434542857
 30
0.0
 10
10.4387059555
 20
8.3435204184
 30
0.0
 10
10.4384094532
 20
8.3436296458
 30
0.0
 10
10.4379873362
 20
8.3437890857
 30
0.0
 10
10.4374801718
 20
8.343978958
 30
0.0
 10
10.4368041705
 20
8.3442326295
 30
0.0
 10
10.4359590943
 20
8.3445495448
 30
0.0
 10
10.4346070141
 20
8.3450567066
 30
0.0
 10
10.4329168995
 20
8.3456906254
 30
0.0
 10
10.4308887682
 20
8.3464513423
 30
0.0
 10
10.4288606352
 20
8.3472120553
 30
0.0
 10
10.4261564584
 20
8.3482263407
 30
0.0
 10
10.4227762373
 20
8.349494197
 30
0.0
 10
10.4193960162
 20
8.3507620536
 30
0.0
 10
10.4166918393
 20
8.3517763384
 30
0.0
 10
10.4146637069
 20
8.3525370531
 30
0.0
 10
10.4126355733
 20
8.3532977638
 30
0.0
 10
10.4109454658
 20
8.353931702
 30
0.0
 10
10.4095933711
 20
8.3544388241
 30
0.0
 10
10.4087483316
 20
8.3547558405
 30
0.0
 10
10.4080722551
 20
8.3550093044
 30
0.0
 10
10.4075653207
 20
8.3551998107
 30
0.0
 10
10.407142484
 20
8.3553572671
 30
0.0
 10
10.4068472664
 20
8.3554700356
 30
0.0
 10
10.4066773712
 20
8.3555304945
 30
0.0
 10
10.4065533287
 20
8.3555870512
 30
0.0
 10
10.4064163706
 20
8.355600748
 30
0.0
 10
10.406238265
 20
8.3556339605
 30
0.0
 10
10.4059244811
 20
8.3556851168
 30
0.0
 10
10.4054773157
 20
8.3557618388
 30
0.0
 10
10.4049402476
 20
8.3558523466
 30
0.0
 10
10.4042243208
 20
8.355973568
 30
0.0
 10
10.4033293562
 20
8.3561249084
 30
0.0
 10
10.4018974442
 20
8.3563671572
 30
0.0
 10
10.4001075434
 20
8.3566699324
 30
0.0
 10
10.3979596671
 20
8.357033278
 30
0.0
 10
10.3958117896
 20
8.3573966195
 30
0.0
 10
10.3929479533
 20
8.3578810762
 30
0.0
 10
10.3893681578
 20
8.3584866467
 30
0.0
 10
10.3850724032
 20
8.3592133314
 30
0.0
 10
10.3793447304
 20
8.3601822444
 30
0.0
 10
10.3750489759
 20
8.3609089291
 30
0.0
 10
10.3721851395
 20
8.3613933856
 30
0.0
  0
ENDSEC
  0
SECTION
  2
OBJECTS
  0
DICTIONARY
  5
C
100
AcDbDictionary
280
0
281
1
  3
ACAD_GROUP
350
D
  3
ACAD_MLINESTYLE
350
17
  3
ACAD_LAYOUT
350
1A
  3
ACAD_PLOTSETTINGS
350
19
  3
ACAD_PLOTSTYLENAME
350
E
  3
ACAD_IMAGE_DICT
350
       3CE
  3
ACAD_IMAGE_VARS
350
       3CF
  3
ACAD_TABLESTYLE
350
       3D0
  0
IMAGEDEF_REACTOR
  5
3CD
100
AcDbRasterImageDefReactor
 90
2
330
27F
  0
DICTIONARY
  5
D
102
{ACAD_REACTORS
330
C
102
}
100
AcDbDictionary
280
0
281
1
  0
ACDBDICTIONARYWDFLT
  5
E
102
{ACAD_REACTORS
330
C
102
}
100
AcDbDictionary
281
1
  3
Normal
350
F
100
AcDbDictionaryWithDefault
340
F
  0
DICTIONARY
  5
3CE
330
C
100
AcDbDictionary
281
1
  3
RPGCLCN-CAL-S_assy_2_img_1
350
       3D3
  0
RASTERVARIABLES
  5
3CF
330
C
100
AcDbRasterVariables
 90
0
 70
0
 71
1
 72
5
  0
DICTIONARY
  5
17
102
{ACAD_REACTORS
330
C
102
}
100
AcDbDictionary
280
0
281
1
  3
Standard
350
18
  0
DICTIONARY
  5
3D0
330
C
100
AcDbDictionary
281
1
  3
Standard
350
       3D4
  3
Standard1
350
       3D5
  0
DICTIONARY
  5
19
102
{ACAD_REACTORS
330
C
102
}
100
AcDbDictionary
281
1
  0
DICTIONARY
  5
1A
102
{ACAD_REACTORS
330
C
102
}
100
AcDbDictionary
281
1
  3
Model
350
3D1
  3
Layout1
350
3D2
  0
ACDBPLACEHOLDER
  5
F
102
{ACAD_REACTORS
330
E
102
}
  0
MLINESTYLE
  5
18
102
{ACAD_REACTORS
330
17
102
}
100
AcDbMlineStyle
  2
STANDARD
 70
0
  3

 62
256
 51
90.0
 52
90.0
 71
2
 49
0.5
 62
256
  6
BYLAYER
 49
-0.5
 62
256
  6
BYLAYER
  0
LAYOUT
  5
3D1
102
{ACAD_REACTORS
330
1A
102
}
100
AcDbPlotSettings
  1

  2
none_device
  4
ANSI_C_(22.00_x_17.00_Inches)
  6

 40
0.0
 41
0.0
 42
0.0
 43
0.0
 44
558.8
 45
431.8
 46
0.0
 47
0.0
 48
0.0
 49
0.0
140
0.0
141
0.0
142
1.0
143
1.0
 70
1024
 72
0
 73
0
 74
0
  7

 75
0
147
1.0
148
0.0
149
0.0
100
AcDbLayout
  1
Model
 70
0
 71
0
 10
0.0
 20
0.0
 11
22.0
 21
17.0
 12
0.0
 22
0.0
 32
0.0
 14
0.0
 24
0.0
 34
0.0
 15
0.0
 25
0.0
 35
0.0
146
0.0
 13
0.0
 23
0.0
 33
0.0
 16
1.0
 26
0.0
 36
0.0
 17
0.0
 27
1.0
 37
0.0
 76
0
330
204
345
0
346
0
  0
LAYOUT
  5
3D2
102
{ACAD_REACTORS
330
1A
102
}
100
AcDbPlotSettings
  1

  2
none_device
  4
ANSI_C_(22.00_x_17.00_Inches)
  6

 40
0.0
 41
0.0
 42
0.0
 43
0.0
 44
558.8
 45
431.8
 46
0.0
 47
0.0
 48
0.0
 49
0.0
140
0.0
141
0.0
142
1.0
143
1.0
 70
0
 72
0
 73
0
 74
0
  7

 75
0
147
1.0
148
0.0
149
0.0
100
AcDbLayout
  1
Layout1
 70
0
 71
1
 10
0.0
 20
0.0
 11
22.0
 21
17.0
 12
0.0
 22
0.0
 32
0.0
 14
0.0
 24
0.0
 34
0.0
 15
0.0
 25
0.0
 35
0.0
146
0.0
 13
0.0
 23
0.0
 33
0.0
 16
1.0
 26
0.0
 36
0.0
 17
0.0
 27
1.0
 37
0.0
 76
0
330
205
345
0
346
0
  0
IMAGEDEF
  5
3D3
102
{ACAD_REACTORS
330
3CE
330
3CD
102
}
100
AcDbRasterImageDef
 90
0
  1
RPGCLCN-CAL-S_assy_2_img_1.png
 10
369.0
 20
92.0
 11
0.0066666667
 21
0.0066666667
280
1
281
0
  0
TABLESTYLE
  5
3D4
102
{ACAD_REACTORS
330
3D0
330
282
330
283
102
}
330
3D0
100
AcDbTableStyle
  3
Standard
 70
0
 71
0
 40
0.06
 41
0.06
280
1
281
1
  7
Standard
140
0.18
170
1
 62
0
 63
7
283
0
  7
Standard
140
0.18
170
1
 62
0
 63
7
283
0
  7
Standard
140
0.18
170
1
 62
0
 63
7
283
0
  0
TABLESTYLE
  5
3D5
102
{ACAD_REACTORS
330
3D0
330
281
102
}
330
3D0
100
AcDbTableStyle
  3
Standard1
 70
1
 71
0
 40
0.06
 41
0.06
280
1
281
1
  7
Standard
140
0.18
170
1
 62
0
 63
7
283
0
  7
Standard
140
0.18
170
1
 62
0
 63
7
283
0
  7
Standard
140
0.18
170
1
 62
0
 63
7
283
0
  0
ENDSEC
  0
EOF
