999
DXF file: RPGCLAN-CKJ_assy_2.dxf
999
Pro/ENGINEER 2014200 by Parametric Technology Corporation
  0
SECTION
  2
HEADER
  9
$ACADVER
  1
AC1021
  9
$DWGCODEPAGE
  3
ANSI_1252
  9
$EXTMAX
 10
22.0
 20
17.0
 30
0.0
  9
$EXTMIN
 10
0.0
 20
0.0
 30
0.0
  9
$LIMMIN
 10
0.0
 20
0.0
  9
$LIMMAX
 10
22.0
 20
17.0
  9
$VIEWCTR
 10
11.0
 20
8.5
  9
$VIEWSIZE
 40
17.0
  9
$CLAYER
  8
0
  9
$LTSCALE
 40
1.21
  9
$CELTYPE
  6
BYLAYER
  9
$DIMSCALE
 40
1.0
  9
$DIMASZ
 40
0.1875
  9
$DIMEXO
 40
0.0625
  9
$DIMDLI
 40
0.836
  9
$DIMEXE
 40
0.125
  9
$DIMCEN
 40
0.198
  9
$DIMLFAC
 40
1.0
  9
$DIMBLK
  1
_FILLED
  9
$DIMTXT
 40
0.1
  9
$DIMTOL
 70
0
  9
$DIMLIM
 70
0
  9
$DIMTFAC
 40
1.0
  9
$DIMGAP
 40
0.09
  9
$DIMDSEP
 70
46
  9
$AUNITS
 70
0
  9
$PDMODE
 70
3
  9
$PDSIZE
 40
0.3125
  9
$HANDSEED
  5
376
  9
$TILEMODE
 70
1
  9
$MEASUREMENT
 70
0
  9
$INSUNITS
 70
1
  0
ENDSEC
  0
SECTION
  2
CLASSES
  0
CLASS
  1
ACDBDICTIONARYWDFLT
  2
AcDbDictionaryWithDefault
  3
AutoCAD 2000
 90
0
 91
1
280
0
281
0
  0
CLASS
  1
ACDBPLACEHOLDER
  2
AcDbPlaceHolder
  3
AutoCAD 2000
 90
0
 91
1
280
0
281
0
  0
CLASS
  1
LAYOUT
  2
AcDbLayout
  3
AutoCAD 2000
 90
0
 91
0
280
0
281
0
  0
CLASS
  1
RASTERVARIABLES
  2
AcDbRasterVariables
  3
ISM
 90
0
 91
1
280
0
281
0
  0
CLASS
  1
IMAGEDEF
  2
AcDbRasterImageDef
  3
ISM
 90
0
 91
1
280
0
281
0
  0
CLASS
  1
IMAGEDEF_REACTOR
  2
AcDbRasterImageDefReactor
  3
ISM
 90
0
 91
1
280
0
281
0
  0
CLASS
  1
IMAGE
  2
AcDbRasterImage
  3
ISM
 90
127
 91
1
280
0
281
1
  0
CLASS
  1
TABLESTYLE
  2
AcDbTableStyle
  3
ObjectDBX Classes
 90
2047
 91
1
280
0
281
0
  0
CLASS
  1
ACAD_TABLE
  2
AcDbTable
  3
ObjectDBX Classes
 90
1025
 91
2
280
0
281
1
  0
ENDSEC
  0
SECTION
  2
TABLES
  0
TABLE
  2
VPORT
  5
8
100
AcDbSymbolTable
 70
2
  0
VPORT
  5
1F4
100
AcDbSymbolTableRecord
100
AcDbViewportTableRecord
  2
*ACTIVE
 70
0
 10
0.0
 20
0.0
 11
1.0
 21
1.0
 12
11.0
 22
8.5
 13
0.0
 23
0.0
 14
1.0
 24
1.0
 15
0.0
 25
0.0
 16
0.0
 26
0.0
 36
1.0
 17
0.0
 27
0.0
 37
0.0
 40
17.0
 41
1.2941176471
 42
50.0
 43
0.0
 44
0.0
 50
0.0
 51
0.0
 71
0
 72
100
 73
1
 74
1
 75
0
 76
0
 77
0
 78
0
  0
ENDTAB
  0
TABLE
  2
LTYPE
  5
5
100
AcDbSymbolTable
 70
6
  0
LTYPE
  5
14
100
AcDbSymbolTableRecord
100
AcDbLinetypeTableRecord
  2
BYBLOCK
 70
0
  3

 72
65
 73
0
 40
0.0
  0
LTYPE
  5
15
100
AcDbSymbolTableRecord
100
AcDbLinetypeTableRecord
  2
BYLAYER
 70
0
  3

 72
65
 73
0
 40
0.0
  0
LTYPE
  5
16
100
AcDbSymbolTableRecord
100
AcDbLinetypeTableRecord
  2
CONTINUOUS
 70
64
  3
Solid line
 72
65
 73
0
 40
0.0
  0
LTYPE
  5
1F5
100
AcDbSymbolTableRecord
100
AcDbLinetypeTableRecord
  2
CENTER
 70
64
  3
____ _ ____ _ ____ _ ____ _ ____ _ ____ _ ____
 72
65
 73
4
 40
0.6
 49
0.375
 74
0
 49
-0.075
 74
0
 49
0.075
 74
0
 49
-0.075
 74
0
  0
LTYPE
  5
1F6
100
AcDbSymbolTableRecord
100
AcDbLinetypeTableRecord
  2
HIDDEN
 70
64
  3
- - - - - - - - - - - - - - - - - - - -
 72
65
 73
2
 40
0.2
 49
0.1
 74
0
 49
-0.1
 74
0
  0
LTYPE
  5
1F7
100
AcDbSymbolTableRecord
100
AcDbLinetypeTableRecord
  2
PHANTOM
 70
64
  3
_____ _ _ _____ _ _ _____ _ _ _____
 72
65
 73
6
 40
0.8
 49
0.45
 74
0
 49
-0.05
 74
0
 49
0.1
 74
0
 49
-0.05
 74
0
 49
0.1
 74
0
 49
-0.05
 74
0
  0
LTYPE
  5
1F8
100
AcDbSymbolTableRecord
100
AcDbLinetypeTableRecord
  2
DOT
 70
64
  3
. . . . . . . . . . . . . . . . . . . .
 72
65
 73
2
 40
0.2
 49
0.1
 74
0
 49
-0.1
 74
0
  0
LTYPE
  5
1F9
100
AcDbSymbolTableRecord
100
AcDbLinetypeTableRecord
  2
DASHED
 70
64
  3
- - - - - - - - - - - - - - - - - - - -
 72
65
 73
2
 40
0.2
 49
0.1
 74
0
 49
-0.1
 74
0
  0
ENDTAB
  0
TABLE
  2
LAYER
  5
2
100
AcDbSymbolTable
 70
36
  0
LAYER
  5
10
100
AcDbSymbolTableRecord
100
AcDbLayerTableRecord
  2
0
 70
0
 62
7
  6
CONTINUOUS
370
-3
390
F
  0
LAYER
  5
1FA
100
AcDbSymbolTableRecord
100
AcDbLayerTableRecord
  2
DEFAULT_1
 70
0
 62
7
  6
CENTER
370
-3
390
F
  0
LAYER
  5
1FB
100
AcDbSymbolTableRecord
100
AcDbLayerTableRecord
  2
DEFAULT_2
 70
0
 62
8
  6
HIDDEN
370
-3
390
F
  0
LAYER
  5
1FC
100
AcDbSymbolTableRecord
100
AcDbLayerTableRecord
  2
DEFAULT_3
 70
0
 62
7
  6
PHANTOM
370
-3
390
F
  0
LAYER
  5
1FD
100
AcDbSymbolTableRecord
100
AcDbLayerTableRecord
  2
01___PRT_ALL_DTM_PLN
 70
0
 62
7
  6
CONTINUOUS
370
-3
390
F
  0
LAYER
  5
1FE
100
AcDbSymbolTableRecord
100
AcDbLayerTableRecord
  2
01___PRT_DEF_DTM_PLN
 70
0
 62
7
  6
CONTINUOUS
370
-3
390
F
  0
LAYER
  5
1FF
100
AcDbSymbolTableRecord
100
AcDbLayerTableRecord
  2
02___PRT_ALL_AXES
 70
0
 62
7
  6
CONTINUOUS
370
-3
390
F
  0
LAYER
  5
200
100
AcDbSymbolTableRecord
100
AcDbLayerTableRecord
  2
03___PRT_ALL_CURVES
 70
0
 62
7
  6
CONTINUOUS
370
-3
390
F
  0
LAYER
  5
201
100
AcDbSymbolTableRecord
100
AcDbLayerTableRecord
  2
04___PRT_ALL_DTM_PNT
 70
0
 62
7
  6
CONTINUOUS
370
-3
390
F
  0
LAYER
  5
202
100
AcDbSymbolTableRecord
100
AcDbLayerTableRecord
  2
05___PRT_ALL_DTM_CSYS
 70
0
 62
7
  6
CONTINUOUS
370
-3
390
F
  0
LAYER
  5
203
100
AcDbSymbolTableRecord
100
AcDbLayerTableRecord
  2
05___PRT_DEF_DTM_CSYS
 70
0
 62
7
  6
CONTINUOUS
370
-3
390
F
  0
LAYER
  5
204
100
AcDbSymbolTableRecord
100
AcDbLayerTableRecord
  2
06___PRT_ALL_SURFS
 70
0
 62
7
  6
CONTINUOUS
370
-3
390
F
  0
LAYER
  5
205
100
AcDbSymbolTableRecord
100
AcDbLayerTableRecord
  2
DATUM_PLANES
 70
0
 62
7
  6
CONTINUOUS
370
-3
390
F
  0
LAYER
  5
206
100
AcDbSymbolTableRecord
100
AcDbLayerTableRecord
  2
DIMENSIONS
 70
0
 62
7
  6
CONTINUOUS
370
-3
390
F
  0
LAYER
  5
207
100
AcDbSymbolTableRecord
100
AcDbLayerTableRecord
  2
PARAMETERDIMENSIONS
 70
0
 62
7
  6
CONTINUOUS
370
-3
390
F
  0
LAYER
  5
208
100
AcDbSymbolTableRecord
100
AcDbLayerTableRecord
  2
PLANE
 70
0
 62
7
  6
CONTINUOUS
370
-3
390
F
  0
LAYER
  5
209
100
AcDbSymbolTableRecord
100
AcDbLayerTableRecord
  2
PORT_AREAS
 70
0
 62
7
  6
CONTINUOUS
370
-3
390
F
  0
LAYER
  5
20A
100
AcDbSymbolTableRecord
100
AcDbLayerTableRecord
  2
SUNNBOMCOSMETIC
 70
0
 62
7
  6
CONTINUOUS
370
-3
390
F
  0
LAYER
  5
20B
100
AcDbSymbolTableRecord
100
AcDbLayerTableRecord
  2
SUNNBOMSTAMPING
 70
0
 62
7
  6
CONTINUOUS
370
-3
390
F
  0
LAYER
  5
20C
100
AcDbSymbolTableRecord
100
AcDbLayerTableRecord
  2
THREADS
 70
0
 62
7
  6
CONTINUOUS
370
-3
390
F
  0
ENDTAB
  0
TABLE
  2
STYLE
  5
3
100
AcDbSymbolTable
 70
1
  0
STYLE
  5
11
100
AcDbSymbolTableRecord
100
AcDbTextStyleTableRecord
  2
STANDARD
 70
0
 40
0.0
 41
0.8
 50
0.0
 71
0
 42
0.2
  3
txt
  4

  0
STYLE
  5
20D
100
AcDbSymbolTableRecord
100
AcDbTextStyleTableRecord
  2
TEXTSTYLE_1
 70
0
 40
0.0
 41
0.8
 50
0.0
 71
0
 42
0.2
  3
gdt
  4

  0
ENDTAB
  0
TABLE
  2
VIEW
  5
6
100
AcDbSymbolTable
 70
0
  0
ENDTAB
  0
TABLE
  2
UCS
  5
7
100
AcDbSymbolTable
 70
0
  0
ENDTAB
  0
TABLE
  2
APPID
  5
9
100
AcDbSymbolTable
 70
1
  0
APPID
  5
20E
100
AcDbSymbolTableRecord
100
AcDbRegAppTableRecord
  2
ACAD
 70
0
  0
ENDTAB
  0
TABLE
  2
BLOCK_RECORD
  5
1
100
AcDbSymbolTable
 70
0
  0
BLOCK_RECORD
  5
20F
100
AcDbSymbolTableRecord
100
AcDbBlockTableRecord
  2
*Model_Space
  0
BLOCK_RECORD
  5
210
100
AcDbSymbolTableRecord
100
AcDbBlockTableRecord
  2
*Paper_Space
  0
BLOCK_RECORD
  5
211
100
AcDbSymbolTableRecord
100
AcDbBlockTableRecord
  2
SUN_FIRST_THIRD_ANGLE_BL0
  0
BLOCK_RECORD
  5
212
100
AcDbSymbolTableRecord
100
AcDbBlockTableRecord
  2
*T1
  0
BLOCK_RECORD
  5
213
100
AcDbSymbolTableRecord
100
AcDbBlockTableRecord
  2
*T2
  0
ENDTAB
  0
TABLE
  2
DIMSTYLE
  5
A
100
AcDbSymbolTable
 70
1
100
AcDbDimStyleTable
 71
0
  0
DIMSTYLE
105
214
100
AcDbSymbolTableRecord
100
AcDbDimStyleTableRecord
  2
STANDARD
 70
0
  3

  4

 40
1.0
 41
0.1875
 42
0.0625
 43
0.38
 44
0.125
 45
0.0
 46
0.0
 47
0.001
 48
0.001
140
0.1
141
0.09
142
0.0
143
25.4
144
1.0
145
0.0
146
1.0
147
0.09
 71
0.0
 72
0.0
 73
1
 74
1
 75
0
 76
0
 77
0
 78
4
170
0
171
2
172
0
173
0
174
0
175
0
176
0
177
0
178
0
270
2
271
3
272
3
273
2
274
2
275
0
280
0
281
0
282
0
283
1
284
4
285
0
286
0
287
3
288
0
340
11
278
46
  0
ENDTAB
  0
ENDSEC
  0
SECTION
  2
BLOCKS
  0
BLOCK
  5
20
100
AcDbEntity
  8
0
100
AcDbBlockBegin
  2
*Model_Space
 70
0
 10
0.0
 20
0.0
 30
0.0
  3
*Model_Space
  1

  0
ENDBLK
  5
21
100
AcDbEntity
  8
0
100
AcDbBlockEnd
  0
BLOCK
  5
1C
100
AcDbEntity
  8
0
100
AcDbBlockBegin
  2
*Paper_Space
 70
0
 10
0.0
 20
0.0
 30
0.0
  3
*Paper_Space
  1

  0
ENDBLK
  5
1D
100
AcDbEntity
  8
0
100
AcDbBlockEnd
  0
BLOCK
  5
215
100
AcDbEntity
  8
0
100
AcDbBlockBegin
 62
2
  6
CONTINUOUS
  2
SUN_FIRST_THIRD_ANGLE_BL0
 70
64
 10
20.4816717061
 20
1.2289683772
  3
SUN_FIRST_THIRD_ANGLE_BL0
  1

  0
TEXT
  5
216
100
AcDbEntity
  8
0
100
AcDbText
 62
2
  6
CONTINUOUS
 10
19.4750896608
 20
1.4136269581
  7
STANDARD
 40
0.08
  1
FIRST ANGLE
 41
0.8
 72
0
100
AcDbText
  0
TEXT
  5
217
100
AcDbEntity
  8
0
100
AcDbText
 62
2
  6
CONTINUOUS
 10
20.7842537513
 20
1.4047600029
  7
STANDARD
 40
0.08
  1
THIRD ANGLE
 41
0.8
 72
0
100
AcDbText
  0
LINE
  5
218
100
AcDbEntity
  8
0
100
AcDbLine
 62
7
  6
CONTINUOUS
 10
19.4767170086
 20
1.1727031207
 11
19.6334271527
 21
1.1717972817
  0
LINE
  5
219
100
AcDbEntity
  8
0
100
AcDbLine
 62
7
  6
CONTINUOUS
 10
19.6596964832
 20
1.1717972817
 11
19.6950230232
 21
1.171593082
  0
LINE
  5
21A
100
AcDbEntity
  8
0
100
AcDbLine
 62
7
  6
CONTINUOUS
 10
19.7194818561
 20
1.1708914427
 11
19.8852396156
 21
1.1699333054
  0
LINE
  5
21B
100
AcDbEntity
  8
0
100
AcDbLine
 62
7
  6
CONTINUOUS
 10
19.4758111696
 20
1.2723454088
 11
19.88525039
 21
1.3511534004
  0
LINE
  5
21C
100
AcDbEntity
  8
0
100
AcDbLine
 62
7
  6
CONTINUOUS
 10
19.88525039
 20
1.3511534004
 11
19.8831348489
 21
0.9851647912
  0
LINE
  5
21D
100
AcDbEntity
  8
0
100
AcDbLine
 62
7
  6
CONTINUOUS
 10
19.8831348489
 20
0.9851647912
 11
19.4767170086
 21
1.0658141206
  0
LINE
  5
21E
100
AcDbEntity
  8
0
100
AcDbLine
 62
7
  6
CONTINUOUS
 10
19.4767170086
 20
1.0658141206
 11
19.4779056764
 21
1.2714536432
  0
CIRCLE
  5
21F
100
AcDbEntity
  8
0
100
AcDbCircle
 62
7
  6
CONTINUOUS
 10
20.2068232291
 20
1.1717972817
 40
0.175742101
  0
CIRCLE
  5
220
100
AcDbEntity
  8
0
100
AcDbCircle
 62
7
  6
CONTINUOUS
 10
20.2068232291
 20
1.1717972817
 40
0.1005522074
  0
LINE
  5
221
100
AcDbEntity
  8
0
100
AcDbLine
 62
7
  6
CONTINUOUS
 10
20.2077290681
 20
1.3756110529
 11
20.2071171714
 21
1.2379342989
  0
LINE
  5
222
100
AcDbEntity
  8
0
100
AcDbLine
 62
7
  6
CONTINUOUS
 10
20.2077290681
 20
1.2016899681
 11
20.2074674401
 21
1.1428236749
  0
LINE
  5
223
100
AcDbEntity
  8
0
100
AcDbLine
 62
7
  6
CONTINUOUS
 10
20.208634907
 20
1.101141841
 11
20.2080230104
 21
0.963465087
  0
LINE
  5
224
100
AcDbEntity
  8
0
100
AcDbLine
 62
7
  6
CONTINUOUS
 10
20.0066328138
 20
1.1745147986
 11
20.1443095678
 21
1.1739029019
  0
LINE
  5
225
100
AcDbEntity
  8
0
100
AcDbLine
 62
7
  6
CONTINUOUS
 10
20.1832714155
 20
1.1727031207
 11
20.238153505
 21
1.172335442
  0
LINE
  5
226
100
AcDbEntity
  8
0
100
AcDbLine
 62
7
  6
CONTINUOUS
 10
20.2756669918
 20
1.1717972817
 11
20.407916871
 21
1.1712095044
  0
CIRCLE
  5
227
100
AcDbEntity
  8
0
100
AcDbCircle
 62
7
  6
CONTINUOUS
 10
20.7509457401
 20
1.1693297793
 40
0.1722024983
  0
CIRCLE
  5
228
100
AcDbEntity
  8
0
100
AcDbCircle
 62
7
  6
CONTINUOUS
 10
20.7509457401
 20
1.1693297793
 40
0.0985164967
  0
LINE
  5
229
100
AcDbEntity
  8
0
100
AcDbLine
 62
7
  6
CONTINUOUS
 10
20.7169767782
 20
1.170462078
 11
20.7825395137
 21
1.1682766535
  0
LINE
  5
22A
100
AcDbEntity
  8
0
100
AcDbLine
 62
7
  6
CONTINUOUS
 10
20.8177513651
 20
1.1693297793
 11
20.947965719
 21
1.1693297793
  0
LINE
  5
22B
100
AcDbEntity
  8
0
100
AcDbLine
 62
7
  6
CONTINUOUS
 10
20.6875370113
 20
1.170462078
 11
20.5573226574
 21
1.170462078
  0
LINE
  5
22C
100
AcDbEntity
  8
0
100
AcDbLine
 62
7
  6
CONTINUOUS
 10
20.7486811426
 20
1.1987695462
 11
20.7486811426
 21
1.1432869085
  0
LINE
  5
22D
100
AcDbEntity
  8
0
100
AcDbLine
 62
7
  6
CONTINUOUS
 10
20.7498134414
 20
1.1059210505
 11
20.7498134414
 21
0.9757066966
  0
LINE
  5
22E
100
AcDbEntity
  8
0
100
AcDbLine
 62
7
  6
CONTINUOUS
 10
20.7486811426
 20
1.2338708068
 11
20.7486811426
 21
1.3640851607
  0
LINE
  5
22F
100
AcDbEntity
  8
0
100
AcDbLine
 62
7
  6
CONTINUOUS
 10
21.0702539817
 20
1.2701043662
 11
21.4790138229
 21
1.3448360823
  0
LINE
  5
230
100
AcDbEntity
  8
0
100
AcDbLine
 62
7
  6
CONTINUOUS
 10
21.4790138229
 20
1.3448360823
 11
21.4790138229
 21
0.9779712941
  0
LINE
  5
231
100
AcDbEntity
  8
0
100
AcDbLine
 62
7
  6
CONTINUOUS
 10
21.4790138229
 20
0.9779712941
 11
21.069121683
 21
1.0617614
  0
LINE
  5
232
100
AcDbEntity
  8
0
100
AcDbLine
 62
7
  6
CONTINUOUS
 10
21.0702539817
 20
1.2701043662
 11
21.069121683
 21
1.0617614
  0
LINE
  5
233
100
AcDbEntity
  8
0
100
AcDbLine
 62
7
  6
CONTINUOUS
 10
21.4790138229
 20
1.1693297793
 11
21.3159628059
 21
1.1693297793
  0
LINE
  5
234
100
AcDbEntity
  8
0
100
AcDbLine
 62
7
  6
CONTINUOUS
 10
21.2876553377
 20
1.1693297793
 11
21.2502894796
 21
1.1693297793
  0
LINE
  5
235
100
AcDbEntity
  8
0
100
AcDbLine
 62
7
  6
CONTINUOUS
 10
21.2208497126
 20
1.1659328831
 11
21.0713862804
 21
1.1659328831
  0
LINE
  5
236
100
AcDbEntity
  8
0
100
AcDbLine
 62
7
  6
CONTINUOUS
 10
20.4796138713
 20
1.5284908897
 11
20.4766766948
 21
0.9294458646
  0
ENDBLK
  5
237
100
AcDbEntity
  8
0
  6
BYBLOCK
 62
0
100
AcDbBlockEnd
  0
BLOCK
  5
238
100
AcDbEntity
  8
0
100
AcDbBlockBegin
  2
*T1
 70
1
 10
0.0
 20
0.0
  3
*T1
  1

  0
LINE
  5
239
100
AcDbEntity
  8
0
100
AcDbLine
 62
2
  6
CONTINUOUS
 10
9.275
 20
0.0
 11
-0.0
 21
0.0
  0
LINE
  5
23A
100
AcDbEntity
  8
0
100
AcDbLine
 62
2
  6
CONTINUOUS
 10
9.275
 20
0.0
 11
9.275
 21
1.25
  0
LINE
  5
23B
100
AcDbEntity
  8
0
100
AcDbLine
 62
2
  6
CONTINUOUS
 10
9.275
 20
0.625
 11
-0.0
 21
0.625
  0
LINE
  5
23C
100
AcDbEntity
  8
0
100
AcDbLine
 62
2
  6
CONTINUOUS
 10
9.275
 20
1.25
 11
-0.0
 21
1.25
  0
LINE
  5
23D
100
AcDbEntity
  8
0
100
AcDbLine
 62
2
  6
CONTINUOUS
 10
6.8
 20
0.0
 11
6.8
 21
1.25
  0
LINE
  5
23E
100
AcDbEntity
  8
0
100
AcDbLine
 62
2
  6
CONTINUOUS
 10
6.4
 20
0.0
 11
6.4
 21
0.625
  0
LINE
  5
23F
100
AcDbEntity
  8
0
100
AcDbLine
 62
2
  6
CONTINUOUS
 10
5.9
 20
0.0
 11
5.9
 21
0.625
  0
LINE
  5
240
100
AcDbEntity
  8
0
100
AcDbLine
 62
2
  6
CONTINUOUS
 10
5.2
 20
0.0
 11
5.2
 21
0.625
  0
LINE
  5
241
100
AcDbEntity
  8
0
100
AcDbLine
 62
2
  6
CONTINUOUS
 10
4.1
 20
0.0
 11
4.1
 21
1.25
  0
LINE
  5
242
100
AcDbEntity
  8
0
100
AcDbLine
 62
2
  6
CONTINUOUS
 10
-0.0
 20
0.0
 11
-0.0
 21
1.25
  0
MTEXT
  5
243
100
AcDbEntity
  8
0
100
AcDbMText
 62
2
  6
CONTINUOUS
  7
STANDARD
 71
2
 72
1
 10
6.6
 20
0.325
 30
0.0
 11
1.0
 21
0.0
 31
0.0
 44
0.9
  1
2
 40
0.125
 41
0.2
  0
MTEXT
  5
244
100
AcDbEntity
  8
0
100
AcDbMText
 62
2
  6
CONTINUOUS
  7
STANDARD
 71
2
 72
1
 10
6.15
 20
0.325
 30
0.0
 11
1.0
 21
0.0
 31
0.0
 44
0.9
  1
C
 40
0.125
 41
0.2
  0
MTEXT
  5
245
100
AcDbEntity
  8
0
100
AcDbMText
 62
2
  6
CONTINUOUS
  7
STANDARD
 71
2
 72
1
 10
5.55
 20
0.325
 30
0.0
 11
1.0
 21
0.0
 31
0.0
 44
0.9
  1
1.000
 40
0.125
 41
1.0
  0
MTEXT
  5
246
100
AcDbEntity
  8
0
100
AcDbMText
 62
2
  6
CONTINUOUS
  7
STANDARD
 71
2
 72
1
 10
4.65
 20
0.325
 30
0.0
 11
1.0
 21
0.0
 31
0.0
 44
0.9
  1
Apr-03-23
 40
0.125
 41
1.8
  0
MTEXT
  5
247
100
AcDbEntity
  8
0
100
AcDbMText
 62
2
  6
CONTINUOUS
  7
STANDARD
 71
2
 72
1
 10
2.05
 20
0.4625
 30
0.0
 11
1.0
 21
0.0
 31
0.0
 44
0.9
  1
Relief manifold assembly
 40
0.125
 41
4.8
  0
MTEXT
  5
248
100
AcDbEntity
  8
0
100
AcDbMText
 62
2
  6
CONTINUOUS
  7
STANDARD
 71
1
 72
1
 10
6.45
 20
0.5625
 30
0.0
 11
1.0
 21
0.0
 31
0.0
 44
0.9
  1
SHEET
 40
0.06
 41
0.48
  0
MTEXT
  5
249
100
AcDbEntity
  8
0
100
AcDbMText
 62
2
  6
CONTINUOUS
  7
STANDARD
 71
1
 72
1
 10
5.95
 20
0.5625
 30
0.0
 11
1.0
 21
0.0
 31
0.0
 44
0.9
  1
DWG SIZE
 40
0.06
 41
0.768
  0
MTEXT
  5
24A
100
AcDbEntity
  8
0
100
AcDbMText
 62
2
  6
CONTINUOUS
  7
STANDARD
 71
1
 72
1
 10
5.25
 20
0.5625
 30
0.0
 11
1.0
 21
0.0
 31
0.0
 44
0.9
  1
SCALE
 40
0.06
 41
0.48
  0
MTEXT
  5
24B
100
AcDbEntity
  8
0
100
AcDbMText
 62
2
  6
CONTINUOUS
  7
STANDARD
 71
1
 72
1
 10
4.15
 20
0.5625
 30
0.0
 11
1.0
 21
0.0
 31
0.0
 44
0.9
  1
DATE
 40
0.06
 41
0.384
  0
MTEXT
  5
24C
100
AcDbEntity
  8
0
100
AcDbMText
 62
2
  6
CONTINUOUS
  7
STANDARD
 71
1
 72
1
 10
0.05
 20
0.5625
 30
0.0
 11
1.0
 21
0.0
 31
0.0
 44
0.9
  1
DESCRIPTION
 40
0.06
 41
1.056
  0
MTEXT
  5
24D
100
AcDbEntity
  8
0
100
AcDbMText
 62
2
  6
CONTINUOUS
  7
STANDARD
 71
2
 72
1
 10
5.45
 20
1.0375
 30
0.0
 11
1.0
 21
0.0
 31
0.0
 44
0.9
  1
ALL DIMENSIONS IN INCH\PVIEWS ARE THIRD ANGLE
 40
0.12
 41
4.224
  0
MTEXT
  5
24E
100
AcDbEntity
  8
0
100
AcDbMText
 62
2
  6
CONTINUOUS
  7
STANDARD
 71
2
 72
1
 10
2.05
 20
0.95
 30
0.0
 11
1.0
 21
0.0
 31
0.0
 44
0.9
  1
RPGCLAN-CKJ
 40
0.125
 41
2.2
  0
MTEXT
  5
24F
100
AcDbEntity
  8
0
100
AcDbMText
 62
2
  6
CONTINUOUS
  7
STANDARD
 71
1
 72
1
 10
0.05
 20
1.1875
 30
0.0
 11
1.0
 21
0.0
 31
0.0
 44
0.9
  1
MODEL
 40
0.06
 41
0.48
  0
ENDBLK
  5
250
100
AcDbEntity
  8
0
  6
BYBLOCK
 62
0
100
AcDbBlockEnd
  0
BLOCK
  5
251
100
AcDbEntity
  8
0
100
AcDbBlockBegin
  2
*T2
 70
1
 10
0.0
 20
0.0
  3
*T2
  1

  0
LINE
  5
252
100
AcDbEntity
  8
0
100
AcDbLine
 62
2
  6
CONTINUOUS
 10
0.0
 20
0.0
 11
9.055
 21
0.0
  0
LINE
  5
253
100
AcDbEntity
  8
0
100
AcDbLine
 62
2
  6
CONTINUOUS
 10
0.0
 20
0.0
 11
0.0
 21
-2.594
  0
LINE
  5
254
100
AcDbEntity
  8
0
100
AcDbLine
 62
2
  6
CONTINUOUS
 10
0.0
 20
-0.344
 11
9.055
 21
-0.344
  0
LINE
  5
255
100
AcDbEntity
  8
0
100
AcDbLine
 62
2
  6
CONTINUOUS
 10
0.0
 20
-0.594
 11
9.055
 21
-0.594
  0
LINE
  5
256
100
AcDbEntity
  8
0
100
AcDbLine
 62
2
  6
CONTINUOUS
 10
0.0
 20
-0.844
 11
9.055
 21
-0.844
  0
LINE
  5
257
100
AcDbEntity
  8
0
100
AcDbLine
 62
2
  6
CONTINUOUS
 10
0.0
 20
-1.094
 11
9.055
 21
-1.094
  0
LINE
  5
258
100
AcDbEntity
  8
0
100
AcDbLine
 62
2
  6
CONTINUOUS
 10
0.0
 20
-1.344
 11
9.055
 21
-1.344
  0
LINE
  5
259
100
AcDbEntity
  8
0
100
AcDbLine
 62
2
  6
CONTINUOUS
 10
0.0
 20
-1.594
 11
9.055
 21
-1.594
  0
LINE
  5
25A
100
AcDbEntity
  8
0
100
AcDbLine
 62
2
  6
CONTINUOUS
 10
0.0
 20
-1.844
 11
9.055
 21
-1.844
  0
LINE
  5
25B
100
AcDbEntity
  8
0
100
AcDbLine
 62
2
  6
CONTINUOUS
 10
0.0
 20
-2.094
 11
9.055
 21
-2.094
  0
LINE
  5
25C
100
AcDbEntity
  8
0
100
AcDbLine
 62
2
  6
CONTINUOUS
 10
0.0
 20
-2.344
 11
9.055
 21
-2.344
  0
LINE
  5
25D
100
AcDbEntity
  8
0
100
AcDbLine
 62
2
  6
CONTINUOUS
 10
0.0
 20
-2.594
 11
9.055
 21
-2.594
  0
LINE
  5
25E
100
AcDbEntity
  8
0
100
AcDbLine
 62
2
  6
CONTINUOUS
 10
3.055
 20
0.0
 11
3.055
 21
-2.594
  0
LINE
  5
25F
100
AcDbEntity
  8
0
100
AcDbLine
 62
2
  6
CONTINUOUS
 10
9.055
 20
0.0
 11
9.055
 21
-2.594
  0
MTEXT
  5
260
100
AcDbEntity
  8
0
100
AcDbMText
 62
2
  6
CONTINUOUS
  7
STANDARD
 71
2
 72
1
 10
1.5275
 20
-0.0995
 30
0.0
 11
1.0
 21
0.0
 31
0.0
 44
0.9
  1
Technical Data
 40
0.145
 41
3.248
  0
MTEXT
  5
261
100
AcDbEntity
  8
0
100
AcDbMText
 62
2
  6
CONTINUOUS
  7
STANDARD
 71
2
 72
1
 10
4.555
 20
-0.0995
 30
0.0
 11
1.0
 21
0.0
 31
0.0
 44
0.9
  1
U.S. Units
 40
0.145
 41
2.32
  0
MTEXT
  5
262
100
AcDbEntity
  8
0
100
AcDbMText
 62
2
  6
CONTINUOUS
  7
STANDARD
 71
2
 72
1
 10
7.555
 20
-0.0995
 30
0.0
 11
1.0
 21
0.0
 31
0.0
 44
0.9
  1
Metric Units
 40
0.145
 41
2.784
  0
MTEXT
  5
263
100
AcDbEntity
  8
0
100
AcDbMText
 62
2
  6
CONTINUOUS
  7
STANDARD
 71
2
 72
1
 10
1.5275
 20
-0.4065
 30
0.0
 11
1.0
 21
0.0
 31
0.0
 44
0.9
  1
Cavity
 40
0.125
 41
1.2
  0
MTEXT
  5
264
100
AcDbEntity
  8
0
100
AcDbMText
 62
2
  6
CONTINUOUS
  7
STANDARD
 71
2
 72
1
 10
6.055
 20
-0.4065
 30
0.0
 11
1.0
 21
0.0
 31
0.0
 44
0.9
  1
T-3A
 40
0.125
 41
0.8
  0
MTEXT
  5
265
100
AcDbEntity
  8
0
100
AcDbMText
 62
2
  6
CONTINUOUS
  7
STANDARD
 71
2
 72
1
 10
1.5275
 20
-0.6565
 30
0.0
 11
1.0
 21
0.0
 31
0.0
 44
0.9
  1
Body Features
 40
0.125
 41
2.6
  0
MTEXT
  5
266
100
AcDbEntity
  8
0
100
AcDbMText
 62
2
  6
CONTINUOUS
  7
STANDARD
 71
2
 72
1
 10
6.055
 20
-0.6565
 30
0.0
 11
1.0
 21
0.0
 31
0.0
 44
0.9
  1
A to T, check T to B
 40
0.125
 41
4.0
  0
MTEXT
  5
267
100
AcDbEntity
  8
0
100
AcDbMText
 62
2
  6
CONTINUOUS
  7
STANDARD
 71
2
 72
1
 10
1.5275
 20
-0.9065
 30
0.0
 11
1.0
 21
0.0
 31
0.0
 44
0.9
  1
Body Type
 40
0.125
 41
1.8
  0
MTEXT
  5
268
100
AcDbEntity
  8
0
100
AcDbMText
 62
2
  6
CONTINUOUS
  7
STANDARD
 71
2
 72
1
 10
6.055
 20
-0.9065
 30
0.0
 11
1.0
 21
0.0
 31
0.0
 44
0.9
  1
Sandwich
 40
0.125
 41
1.6
  0
MTEXT
  5
269
100
AcDbEntity
  8
0
100
AcDbMText
 62
2
  6
CONTINUOUS
  7
STANDARD
 71
2
 72
1
 10
1.5275
 20
-1.1565
 30
0.0
 11
1.0
 21
0.0
 31
0.0
 44
0.9
  1
Interface
 40
0.125
 41
1.8
  0
MTEXT
  5
26A
100
AcDbEntity
  8
0
100
AcDbMText
 62
2
  6
CONTINUOUS
  7
STANDARD
 71
2
 72
1
 10
6.055
 20
-1.1565
 30
0.0
 11
1.0
 21
0.0
 31
0.0
 44
0.9
  1
ISO 07
 40
0.125
 41
1.2
  0
MTEXT
  5
26B
100
AcDbEntity
  8
0
100
AcDbMText
 62
2
  6
CONTINUOUS
  7
STANDARD
 71
2
 72
1
 10
1.5275
 20
-1.4065
 30
0.0
 11
1.0
 21
0.0
 31
0.0
 44
0.9
  1
Open Cavity Quantity
 40
0.125
 41
4.0
  0
MTEXT
  5
26C
100
AcDbEntity
  8
0
100
AcDbMText
 62
2
  6
CONTINUOUS
  7
STANDARD
 71
2
 72
1
 10
6.055
 20
-1.4065
 30
0.0
 11
1.0
 21
0.0
 31
0.0
 44
0.9
  1
1
 40
0.125
 41
0.2
  0
MTEXT
  5
26D
100
AcDbEntity
  8
0
100
AcDbMText
 62
2
  6
CONTINUOUS
  7
STANDARD
 71
2
 72
1
 10
1.5275
 20
-1.6565
 30
0.0
 11
1.0
 21
0.0
 31
0.0
 44
0.9
  1
Stack Height
 40
0.125
 41
2.4
  0
MTEXT
  5
26E
100
AcDbEntity
  8
0
100
AcDbMText
 62
2
  6
CONTINUOUS
  7
STANDARD
 71
2
 72
1
 10
4.555
 20
-1.6565
 30
0.0
 11
1.0
 21
0.0
 31
0.0
 44
0.9
  1
1.97 in.
 40
0.125
 41
1.6
  0
MTEXT
  5
26F
100
AcDbEntity
  8
0
100
AcDbMText
 62
2
  6
CONTINUOUS
  7
STANDARD
 71
2
 72
1
 10
7.555
 20
-1.6565
 30
0.0
 11
1.0
 21
0.0
 31
0.0
 44
0.9
  1
50 mm
 40
0.125
 41
1.0
  0
MTEXT
  5
270
100
AcDbEntity
  8
0
100
AcDbMText
 62
2
  6
CONTINUOUS
  7
STANDARD
 71
2
 72
1
 10
1.5275
 20
-1.9065
 30
0.0
 11
1.0
 21
0.0
 31
0.0
 44
0.9
  1
Weight
 40
0.125
 41
1.2
  0
MTEXT
  5
271
100
AcDbEntity
  8
0
100
AcDbMText
 62
2
  6
CONTINUOUS
  7
STANDARD
 71
2
 72
1
 10
4.555
 20
-1.9065
 30
0.0
 11
1.0
 21
0.0
 31
0.0
 44
0.9
  1
3.807 lb.
 40
0.125
 41
1.8
  0
MTEXT
  5
272
100
AcDbEntity
  8
0
100
AcDbMText
 62
2
  6
CONTINUOUS
  7
STANDARD
 71
2
 72
1
 10
7.555
 20
-1.9065
 30
0.0
 11
1.0
 21
0.0
 31
0.0
 44
0.9
  1
1,727 kg.
 40
0.125
 41
1.8
  0
MTEXT
  5
273
100
AcDbEntity
  8
0
100
AcDbMText
 62
2
  6
CONTINUOUS
  7
STANDARD
 71
2
 72
1
 10
1.5275
 20
-2.1565
 30
0.0
 11
1.0
 21
0.0
 31
0.0
 44
0.9
  1
Seal Plate Included (see notes)
 40
0.125
 41
6.2
  0
MTEXT
  5
274
100
AcDbEntity
  8
0
100
AcDbMText
 62
2
  6
CONTINUOUS
  7
STANDARD
 71
2
 72
1
 10
6.055
 20
-2.1565
 30
0.0
 11
1.0
 21
0.0
 31
0.0
 44
0.9
  1
Yes
 40
0.125
 41
0.6
  0
MTEXT
  5
275
100
AcDbEntity
  8
0
100
AcDbMText
 62
2
  6
CONTINUOUS
  7
STANDARD
 71
2
 72
1
 10
1.5275
 20
-2.4065
 30
0.0
 11
1.0
 21
0.0
 31
0.0
 44
0.9
  1
Includes integral cartridge(s)
 40
0.125
 41
6.0
  0
MTEXT
  5
276
100
AcDbEntity
  8
0
100
AcDbMText
 62
2
  6
CONTINUOUS
  7
STANDARD
 71
2
 72
1
 10
6.055
 20
-2.4065
 30
0.0
 11
1.0
 21
0.0
 31
0.0
 44
0.9
  1
Yes (see Included Components)
 40
0.125
 41
5.8
  0
ENDBLK
  5
277
100
AcDbEntity
  8
0
  6
BYBLOCK
 62
0
100
AcDbBlockEnd
  0
ENDSEC
  0
SECTION
  2
ENTITIES
  0
IMAGE
  5
278
100
AcDbEntity
  8
0
100
AcDbRasterImage
 62
7
  6
CONTINUOUS
 10
19.2297077316
 20
0.3094318264
 30
0.0
 11
0.0066666667
 21
0.0
 31
0.0
 12
0.0
 22
0.0066666667
 32
0.0
 13
369.0
 23
92.0
340
       373
 70
9
280
0
281
50
282
50
283
0
360
       36D
 71
1
 91
2
 14
-0.5
 24
-0.5
 14
368.5
 24
91.5
  0
INSERT
  5
279
100
AcDbEntity
  8
0
100
AcDbBlockReference
 62
2
  6
CONTINUOUS
  2
SUN_FIRST_THIRD_ANGLE_BL0
 10
20.4816717061
 20
1.2289683772
  0
ACAD_TABLE
  5
27A
100
AcDbEntity
  8
0
 62
2
  6
CONTINUOUS
100
AcDbBlockReference
  2
*T1
 10
12.42375
 20
0.30125
 30
0.0
100
AcDbTable
342
       375
343
212
 11
1.0
 21
0.0
 31
0.0
 90
6
 91
4
 92
6
 93
20
 94
0
 95
0
 96
0
 70
1
 41
0.0
141
0.525
141
0.1
141
0.525
141
0.1
142
4.1
142
1.1
142
0.7
142
0.5
142
0.4
142
2.475
171
1
172
0
173
0
174
0
175
1
176
1
 91
33
178
0
145
0.0
301
CELL_VALUE
 90
4
  1
Relief manifold assembly
304
ACVALUE_END
170
2
140
0.125
171
1
172
0
173
0
174
0
175
1
176
1
 91
33
178
0
145
0.0
301
CELL_VALUE
 90
4
  1
Apr-03-23
304
ACVALUE_END
170
5
140
0.125
171
1
172
0
173
0
174
0
175
1
176
1
 91
33
178
0
145
0.0
301
CELL_VALUE
 90
4
  1
1.000
304
ACVALUE_END
170
5
140
0.125
171
1
172
0
173
0
174
0
175
1
176
1
 91
33
178
0
145
0.0
301
CELL_VALUE
 90
4
  1
C
304
ACVALUE_END
170
5
140
0.125
171
1
172
0
173
0
174
0
175
1
176
1
 91
33
178
0
145
0.0
301
CELL_VALUE
 90
4
  1
2
304
ACVALUE_END
170
5
140
0.125
171
1
172
0
173
0
174
0
175
1
176
1
 91
33
178
0
145
0.0
301
CELL_VALUE
 90
4
  1
 
304
ACVALUE_END
170
1
140
0.125
171
1
172
0
173
0
174
0
175
1
176
1
 91
33
178
0
145
0.0
301
CELL_VALUE
 90
4
  1
DESCRIPTION
304
ACVALUE_END
170
1
140
0.06
171
1
172
0
173
0
174
0
175
1
176
1
 91
33
178
0
145
0.0
301
CELL_VALUE
 90
4
  1
DATE
304
ACVALUE_END
170
1
140
0.06
171
1
172
0
173
0
174
0
175
1
176
1
 91
33
178
0
145
0.0
301
CELL_VALUE
 90
4
  1
SCALE
304
ACVALUE_END
170
1
140
0.06
171
1
172
0
173
0
174
0
175
1
176
1
 91
33
178
0
145
0.0
301
CELL_VALUE
 90
4
  1
DWG SIZE
304
ACVALUE_END
170
1
140
0.06
171
1
172
0
173
0
174
0
175
1
176
1
 91
33
178
0
145
0.0
301
CELL_VALUE
 90
4
  1
SHEET
304
ACVALUE_END
170
1
140
0.06
171
1
172
0
173
0
174
0
175
1
176
1
 91
33
178
0
145
0.0
301
CELL_VALUE
 90
4
  1
 
304
ACVALUE_END
170
1
140
0.125
171
1
172
0
173
0
174
0
175
1
176
1
 91
33
178
0
145
0.0
301
CELL_VALUE
 90
4
  1
RPGCLAN-CKJ
304
ACVALUE_END
170
5
140
0.125
171
1
172
0
173
0
174
0
175
4
176
1
 91
33
178
0
145
0.0
301
CELL_VALUE
 90
4
  1
ALL DIMENSIONS IN INCH\PVIEWS ARE THIRD ANGLE
304
ACVALUE_END
170
5
140
0.12
171
1
172
0
173
1
174
0
175
1
176
1
 91
1
178
0
145
0.0
170
1
171
1
172
0
173
1
174
0
175
1
176
1
 91
1
178
0
145
0.0
170
1
171
1
172
0
173
1
174
0
175
1
176
1
 91
1
178
0
145
0.0
170
5
171
1
172
0
173
0
174
0
175
1
176
1
 91
33
178
0
145
0.0
301
CELL_VALUE
 90
4
  1
 
304
ACVALUE_END
170
1
140
0.125
171
1
172
0
173
0
174
0
175
1
176
1
 91
33
178
0
145
0.0
301
CELL_VALUE
 90
4
  1
MODEL
304
ACVALUE_END
170
1
140
0.06
171
1
172
0
173
0
174
0
175
1
176
1
 91
33
178
0
145
0.0
301
CELL_VALUE
 90
4
  1
 
304
ACVALUE_END
170
1
140
0.125
171
1
172
0
173
0
174
0
175
1
176
1
 91
33
178
0
145
0.0
301
CELL_VALUE
 90
4
  1
 
304
ACVALUE_END
170
1
140
0.125
171
1
172
0
173
0
174
0
175
1
176
1
 91
33
178
0
145
0.0
301
CELL_VALUE
 90
4
  1
 
304
ACVALUE_END
170
1
140
0.125
171
1
172
0
173
0
174
0
175
1
176
1
 91
33
178
0
145
0.0
301
CELL_VALUE
 90
4
  1
 
304
ACVALUE_END
170
1
140
0.125
171
1
172
0
173
0
174
0
175
1
176
1
 91
33
178
0
145
0.0
301
CELL_VALUE
 90
4
  1
 
304
ACVALUE_END
170
1
140
0.125
  0
ACAD_TABLE
  5
27B
100
AcDbEntity
  8
0
 62
2
  6
CONTINUOUS
100
AcDbBlockReference
  2
*T2
 10
12.4237499994
 20
16.47875
 30
0.0
100
AcDbTable
342
       374
343
213
 11
1.0
 21
0.0
 31
0.0
 90
22
 91
10
 92
3
 93
16
 94
0
 95
0
 96
0
 41
0.028
141
0.344
141
0.25
141
0.25
141
0.25
141
0.25
141
0.25
141
0.25
141
0.25
141
0.25
141
0.25
142
3.055
142
3.0
142
3.0
171
1
172
0
173
0
174
0
175
1
176
1
 91
33
178
0
145
0.0
301
CELL_VALUE
 90
4
  1
Technical Data
304
ACVALUE_END
170
5
140
0.145
171
1
172
0
173
0
174
0
175
1
176
1
 91
33
178
0
145
0.0
301
CELL_VALUE
 90
4
  1
U.S. Units
304
ACVALUE_END
170
5
140
0.145
171
1
172
0
173
0
174
0
175
1
176
1
 91
33
178
0
145
0.0
301
CELL_VALUE
 90
4
  1
Metric Units
304
ACVALUE_END
170
5
140
0.145
171
1
172
0
173
0
174
0
175
1
176
1
 91
33
178
0
145
0.0
301
CELL_VALUE
 90
4
  1
Cavity
304
ACVALUE_END
170
5
140
0.125
171
1
172
0
173
0
174
0
175
2
176
1
 91
33
178
0
145
0.0
301
CELL_VALUE
 90
4
  1
T-3A
304
ACVALUE_END
170
5
140
0.125
171
1
172
0
173
1
174
0
175
1
176
1
 91
1
178
0
145
0.0
170
1
171
1
172
0
173
0
174
0
175
1
176
1
 91
33
178
0
145
0.0
301
CELL_VALUE
 90
4
  1
Body Features
304
ACVALUE_END
170
5
140
0.125
171
1
172
0
173
0
174
0
175
2
176
1
 91
33
178
0
145
0.0
301
CELL_VALUE
 90
4
  1
A to T, check T to B
304
ACVALUE_END
170
5
140
0.125
171
1
172
0
173
1
174
0
175
1
176
1
 91
1
178
0
145
0.0
170
1
171
1
172
0
173
0
174
0
175
1
176
1
 91
33
178
0
145
0.0
301
CELL_VALUE
 90
4
  1
Body Type
304
ACVALUE_END
170
5
140
0.125
171
1
172
0
173
0
174
0
175
2
176
1
 91
33
178
0
145
0.0
301
CELL_VALUE
 90
4
  1
Sandwich
304
ACVALUE_END
170
5
140
0.125
171
1
172
0
173
1
174
0
175
1
176
1
 91
1
178
0
145
0.0
170
1
171
1
172
0
173
0
174
0
175
1
176
1
 91
33
178
0
145
0.0
301
CELL_VALUE
 90
4
  1
Interface
304
ACVALUE_END
170
5
140
0.125
171
1
172
0
173
0
174
0
175
2
176
1
 91
33
178
0
145
0.0
301
CELL_VALUE
 90
4
  1
ISO 07
304
ACVALUE_END
170
5
140
0.125
171
1
172
0
173
1
174
0
175
1
176
1
 91
1
178
0
145
0.0
170
1
171
1
172
0
173
0
174
0
175
1
176
1
 91
33
178
0
145
0.0
301
CELL_VALUE
 90
4
  1
Open Cavity Quantity
304
ACVALUE_END
170
5
140
0.125
171
1
172
0
173
0
174
0
175
2
176
1
 91
33
178
0
145
0.0
301
CELL_VALUE
 90
4
  1
1
304
ACVALUE_END
170
5
140
0.125
171
1
172
0
173
1
174
0
175
1
176
1
 91
1
178
0
145
0.0
170
1
171
1
172
0
173
0
174
0
175
1
176
1
 91
33
178
0
145
0.0
301
CELL_VALUE
 90
4
  1
Stack Height
304
ACVALUE_END
170
5
140
0.125
171
1
172
0
173
0
174
0
175
1
176
1
 91
33
178
0
145
0.0
301
CELL_VALUE
 90
4
  1
1.97 in.
304
ACVALUE_END
170
5
140
0.125
171
1
172
0
173
0
174
0
175
1
176
1
 91
33
178
0
145
0.0
301
CELL_VALUE
 90
4
  1
50 mm
304
ACVALUE_END
170
5
140
0.125
171
1
172
0
173
0
174
0
175
1
176
1
 91
33
178
0
145
0.0
301
CELL_VALUE
 90
4
  1
Weight
304
ACVALUE_END
170
5
140
0.125
171
1
172
0
173
0
174
0
175
1
176
1
 91
33
178
0
145
0.0
301
CELL_VALUE
 90
4
  1
3.807 lb.
304
ACVALUE_END
170
5
140
0.125
171
1
172
0
173
0
174
0
175
1
176
1
 91
33
178
0
145
0.0
301
CELL_VALUE
 90
4
  1
1,727 kg.
304
ACVALUE_END
170
5
140
0.125
171
1
172
0
173
0
174
0
175
1
176
1
 91
33
178
0
145
0.0
301
CELL_VALUE
 90
4
  1
Seal Plate Included (see notes)
304
ACVALUE_END
170
5
140
0.125
171
1
172
0
173
0
174
0
175
2
176
1
 91
33
178
0
145
0.0
301
CELL_VALUE
 90
4
  1
Yes
304
ACVALUE_END
170
5
140
0.125
171
1
172
0
173
1
174
0
175
1
176
1
 91
1
178
0
145
0.0
170
1
171
1
172
0
173
0
174
0
175
1
176
1
 91
33
178
0
145
0.0
301
CELL_VALUE
 90
4
  1
Includes integral cartridge(s)
304
ACVALUE_END
170
5
140
0.125
171
1
172
0
173
0
174
0
175
2
176
1
 91
33
178
0
145
0.0
301
CELL_VALUE
 90
4
  1
Yes (see Included Components)
304
ACVALUE_END
170
5
140
0.125
171
1
172
0
173
1
174
0
175
1
176
1
 91
1
178
0
145
0.0
170
1
  0
MTEXT
  5
27C
100
AcDbEntity
  8
0
100
AcDbMText
 62
2
  6
CONTINUOUS
  7
STANDARD
 71
1
 72
1
 10
0.52125
 20
5.75995
 30
0.0
 11
1.0
 21
0.0
 31
0.0
 44
0.6
  3
Notes\P \P1. Important: Carefully consider\P   the maximum system pressure. The\P   pressure rating of the manifold is\P   dependent on the manifold material,\P   with the port type/size a secondary\P   consideration. Manifolds\P   constructed of alu
  1
minum are not\P   rated for pressures higher than\P   3000 psi (210 bar), regardless of\P   the port type/size specified.\P2. Items without balloons are\P   shipped loose.
 40
0.1
 41
3.04
  0
LINE
  5
27D
100
AcDbEntity
  8
0
100
AcDbLine
 62
7
  6
CONTINUOUS
 10
0.30125
 20
0.30125
 11
0.30125
 21
16.69875
  0
LINE
  5
27E
100
AcDbEntity
  8
0
100
AcDbLine
 62
7
  6
CONTINUOUS
 10
0.30125
 20
0.30125
 11
21.69875
 21
0.30125
  0
LINE
  5
27F
100
AcDbEntity
  8
0
100
AcDbLine
 62
7
  6
CONTINUOUS
 10
0.30125
 20
16.69875
 11
21.69875
 21
16.69875
  0
LINE
  5
280
100
AcDbEntity
  8
0
100
AcDbLine
 62
7
  6
CONTINUOUS
 10
21.69875
 20
0.30125
 11
21.69875
 21
16.69875
  0
LINE
  5
281
100
AcDbEntity
  8
0
100
AcDbLine
 62
7
  6
CONTINUOUS
 10
7.2410202514
 20
8.2196499344
 11
7.2668957272
 21
8.1878346846
  0
LINE
  5
282
100
AcDbEntity
  8
0
100
AcDbLine
 62
7
  6
CONTINUOUS
 10
7.2914919675
 20
8.5425044308
 11
7.2910426205
 21
8.5420783067
  0
LINE
  5
283
100
AcDbEntity
  8
0
100
AcDbLine
 62
7
  6
CONTINUOUS
 10
7.2614732377
 20
8.5145661415
 11
7.2610989181
 21
8.5142112071
  0
LINE
  5
284
100
AcDbEntity
  8
0
100
AcDbLine
 62
7
  6
CONTINUOUS
 10
7.2614727289
 20
8.5145656959
 11
7.291038671
 21
8.5420825503
  0
LINE
  5
285
100
AcDbEntity
  8
0
100
AcDbLine
 62
7
  6
CONTINUOUS
 10
7.8086598053
 20
8.0562666298
 11
7.7956698342
 21
8.0722384781
  0
LINE
  5
286
100
AcDbEntity
  8
0
100
AcDbLine
 62
7
  6
CONTINUOUS
 10
8.0400952819
 20
7.8311000821
 11
7.9883443302
 21
7.8947305817
  0
LINE
  5
287
100
AcDbEntity
  8
0
100
AcDbLine
 62
7
  6
CONTINUOUS
 10
8.4461417682
 20
7.7539914787
 11
8.4321481002
 21
7.7876125257
  0
LINE
  5
288
100
AcDbEntity
  8
0
100
AcDbLine
 62
7
  6
CONTINUOUS
 10
8.5100900569
 20
8.7937397862
 11
8.5008350364
 21
8.7780480398
  0
LINE
  5
289
100
AcDbEntity
  8
0
100
AcDbLine
 62
7
  6
CONTINUOUS
 10
9.3246411033
 20
10.3481894626
 11
9.1385503634
 21
10.1684396003
  0
LINE
  5
28A
100
AcDbEntity
  8
0
100
AcDbLine
 62
7
  6
CONTINUOUS
 10
9.3545848057
 20
10.3760565622
 11
9.1684940658
 21
10.1963066999
  0
LINE
  5
28B
100
AcDbEntity
  8
0
100
AcDbLine
 62
7
  6
CONTINUOUS
 10
9.4117697847
 20
10.1150900531
 11
9.8970550938
 21
10.583839694
  0
LINE
  5
28C
100
AcDbEntity
  8
0
100
AcDbLine
 62
7
  6
CONTINUOUS
 10
9.3559578887
 20
10.3773586712
 11
9.3545848057
 21
10.3760565622
  0
LINE
  5
28D
100
AcDbEntity
  8
0
100
AcDbLine
 62
7
  6
CONTINUOUS
 10
9.3259396729
 20
10.3494207132
 11
9.3246411033
 21
10.3481894626
  0
LINE
  5
28E
100
AcDbEntity
  8
0
100
AcDbLine
 62
7
  6
CONTINUOUS
 10
9.3246411033
 20
10.3481894626
 11
9.3545727426
 21
10.3760695236
  0
LINE
  5
28F
100
AcDbEntity
  8
0
100
AcDbLine
 62
7
  6
CONTINUOUS
 10
9.1385503634
 20
10.1684396003
 11
9.1684940658
 21
10.1963066999
  0
LINE
  5
290
100
AcDbEntity
  8
0
100
AcDbLine
 62
7
  6
CONTINUOUS
 10
9.0947410549
 20
7.0008776297
 11
9.0688655791
 21
7.0326928795
  0
LINE
  5
291
100
AcDbEntity
  8
0
100
AcDbLine
 62
7
  6
CONTINUOUS
 10
9.0011175639
 20
9.5227830579
 11
9.0011175639
 21
7.4093372247
  0
LINE
  5
292
100
AcDbEntity
  8
0
100
AcDbLine
 62
7
  6
CONTINUOUS
 10
9.0230378825
 20
9.512956461
 11
9.0230378825
 21
7.3995106278
  0
LINE
  5
293
100
AcDbEntity
  8
0
100
AcDbLine
 62
7
  6
CONTINUOUS
 10
7.831160864
 20
8.5840040324
 11
7.8305122264
 21
8.583388922
  0
LINE
  5
294
100
AcDbEntity
  8
0
100
AcDbLine
 62
7
  6
CONTINUOUS
 10
7.8866722625
 20
8.6356681758
 11
7.8311608982
 21
8.5840040642
  0
LINE
  5
295
100
AcDbEntity
  8
0
100
AcDbLine
 62
7
  6
CONTINUOUS
 10
8.1065324147
 20
8.7890944184
 11
8.046493531
 21
8.7332165702
  0
LINE
  5
296
100
AcDbEntity
  8
0
100
AcDbLine
 62
7
  6
CONTINUOUS
 10
7.7440618598
 20
8.5721464459
 11
7.7467556806
 21
8.5745370135
  0
LINE
  5
297
100
AcDbEntity
  8
0
100
AcDbLine
 62
7
  6
CONTINUOUS
 10
13.999917933
 20
6.416160306
 11
9.4117697847
 21
6.7343494608
  0
LINE
  5
298
100
AcDbEntity
  8
0
100
AcDbLine
 62
7
  6
CONTINUOUS
 10
9.0011175639
 20
7.4093372247
 11
9.0230378825
 21
7.3995106278
  0
LINE
  5
299
100
AcDbEntity
  8
0
100
AcDbLine
 62
7
  6
CONTINUOUS
 10
9.4117697847
 20
10.1150900531
 11
9.4117697847
 21
6.7343494608
  0
LINE
  5
29A
100
AcDbEntity
  8
0
100
AcDbLine
 62
7
  6
CONTINUOUS
 10
9.4117697847
 20
6.959789456
 11
9.1296126206
 21
6.9793571217
  0
LINE
  5
29B
100
AcDbEntity
  8
0
100
AcDbLine
 62
7
  6
CONTINUOUS
 10
9.0230378825
 20
7.3995106278
 11
9.4117697847
 21
7.3725519789
  0
LINE
  5
29C
100
AcDbEntity
  8
0
100
AcDbLine
 62
7
  6
CONTINUOUS
 10
9.0011175639
 20
7.6240558783
 11
8.4967403604
 21
7.6590345561
  0
LINE
  5
29D
100
AcDbEntity
  8
0
100
AcDbLine
 62
7
  6
CONTINUOUS
 10
8.9903381069
 20
7.638810097
 11
8.4842280043
 21
7.6739089518
  0
LINE
  5
29E
100
AcDbEntity
  8
0
100
AcDbLine
 62
7
  6
CONTINUOUS
 10
8.432402781
 20
7.7870006321
 11
8.0709336593
 21
7.8120686009
  0
LINE
  5
29F
100
AcDbEntity
  8
0
100
AcDbLine
 62
7
  6
CONTINUOUS
 10
7.9483881031
 20
8.0053460864
 11
7.887473698
 21
8.0095705147
  0
LINE
  5
2A0
100
AcDbEntity
  8
0
100
AcDbLine
 62
7
  6
CONTINUOUS
 10
7.790995938
 20
8.0580251643
 11
7.7852003827
 21
8.0584270874
  0
LINE
  5
2A1
100
AcDbEntity
  8
0
100
AcDbLine
 62
7
  6
CONTINUOUS
 10
7.8034479964
 20
8.0626748213
 11
7.7966890427
 21
8.0631435563
  0
LINE
  5
2A2
100
AcDbEntity
  8
0
100
AcDbLine
 62
7
  6
CONTINUOUS
 10
7.9129394471
 20
8.0892181994
 11
7.8147456064
 21
8.0960279654
  0
LINE
  5
2A3
100
AcDbEntity
  8
0
100
AcDbLine
 62
7
  6
CONTINUOUS
 10
8.9146282622
 20
8.0550765611
 11
8.4085181595
 21
8.0901754159
  0
LINE
  5
2A4
100
AcDbEntity
  8
0
100
AcDbLine
 62
7
  6
CONTINUOUS
 10
7.2783127523
 20
8.1807888244
 11
7.4705320031
 21
8.167458374
  0
LINE
  5
2A5
100
AcDbEntity
  8
0
100
AcDbLine
 62
7
  6
CONTINUOUS
 10
7.5072371867
 20
8.1649128609
 11
7.6900394854
 21
8.1522354784
  0
LINE
  5
2A6
100
AcDbEntity
  8
0
100
AcDbLine
 62
7
  6
CONTINUOUS
 10
8.9146282622
 20
8.1089973697
 11
8.4085181595
 21
8.1440962246
  0
LINE
  5
2A7
100
AcDbEntity
  8
0
100
AcDbLine
 62
7
  6
CONTINUOUS
 10
7.9129394471
 20
8.4026329931
 11
7.8147456064
 21
8.4094427591
  0
LINE
  5
2A8
100
AcDbEntity
  8
0
100
AcDbLine
 62
7
  6
CONTINUOUS
 10
7.3037724887
 20
8.5479070639
 11
7.4959917395
 21
8.5345766136
  0
LINE
  5
2A9
100
AcDbEntity
  8
0
100
AcDbLine
 62
7
  6
CONTINUOUS
 10
7.532696923
 20
8.5320311005
 11
7.7155048824
 21
8.5193533254
  0
LINE
  5
2AA
100
AcDbEntity
  8
0
100
AcDbLine
 62
7
  6
CONTINUOUS
 10
14.1991719302
 20
8.0869885113
 11
14.5835753715
 21
8.0603300421
  0
LINE
  5
2AB
100
AcDbEntity
  8
0
100
AcDbLine
 62
7
  6
CONTINUOUS
 10
7.8401847356
 20
8.5924024985
 11
7.8334257819
 21
8.5928712335
  0
LINE
  5
2AC
100
AcDbEntity
  8
0
100
AcDbLine
 62
7
  6
CONTINUOUS
 10
7.8284937019
 20
8.5987264846
 11
7.8226981466
 21
8.5991284077
  0
LINE
  5
2AD
100
AcDbEntity
  8
0
100
AcDbLine
 62
7
  6
CONTINUOUS
 10
7.9856675388
 20
8.6295903362
 11
7.887473698
 21
8.6364001021
  0
LINE
  5
2AE
100
AcDbEntity
  8
0
100
AcDbLine
 62
7
  6
CONTINUOUS
 10
14.096345066
 20
8.2409136442
 11
14.4524420738
 21
8.2162182329
  0
LINE
  5
2AF
100
AcDbEntity
  8
0
100
AcDbLine
 62
7
  6
CONTINUOUS
 10
14.0897805574
 20
8.2805868372
 11
14.4452180616
 21
8.2559371626
  0
LINE
  5
2B0
100
AcDbEntity
  8
0
100
AcDbLine
 62
7
  6
CONTINUOUS
 10
8.9903381069
 20
8.6715240313
 11
8.4842280043
 21
8.7066228861
  0
LINE
  5
2B1
100
AcDbEntity
  8
0
100
AcDbLine
 62
7
  6
CONTINUOUS
 10
9.0011175639
 20
8.7106906212
 11
8.4967403604
 21
8.7456692991
  0
LINE
  5
2B2
100
AcDbEntity
  8
0
100
AcDbLine
 62
7
  6
CONTINUOUS
 10
8.5011717429
 20
8.7786189205
 11
8.1397026212
 21
8.8036868892
  0
LINE
  5
2B3
100
AcDbEntity
  8
0
100
AcDbLine
 62
7
  6
CONTINUOUS
 10
9.0011175639
 20
8.8674518098
 11
8.64816005
 21
8.8919294965
  0
LINE
  5
2B4
100
AcDbEntity
  8
0
100
AcDbLine
 62
7
  6
CONTINUOUS
 10
9.0011175639
 20
9.5227830579
 11
9.0230378825
 21
9.512956461
  0
LINE
  5
2B5
100
AcDbEntity
  8
0
100
AcDbLine
 62
7
  6
CONTINUOUS
 10
14.0915530784
 20
8.8455703871
 11
14.4452180616
 21
8.8210436372
  0
LINE
  5
2B6
100
AcDbEntity
  8
0
100
AcDbLine
 62
7
  6
CONTINUOUS
 10
14.0986553178
 20
8.8992534825
 11
14.4524420738
 21
8.8747182876
  0
LINE
  5
2B7
100
AcDbEntity
  8
0
100
AcDbLine
 62
7
  6
CONTINUOUS
 10
9.0230378825
 20
9.512956461
 11
9.4117697847
 21
9.485997812
  0
LINE
  5
2B8
100
AcDbEntity
  8
0
100
AcDbLine
 62
7
  6
CONTINUOUS
 10
13.999917933
 20
9.7969008983
 11
14.485203242
 21
10.2656505392
  0
LINE
  5
2B9
100
AcDbEntity
  8
0
100
AcDbLine
 62
7
  6
CONTINUOUS
 10
14.220055175
 20
9.3091467827
 11
14.5835753715
 21
9.2839365714
  0
LINE
  5
2BA
100
AcDbEntity
  8
0
100
AcDbLine
 62
7
  6
CONTINUOUS
 10
14.2305710305
 20
9.3233752002
 11
14.5980233959
 21
9.2978922921
  0
LINE
  5
2BB
100
AcDbEntity
  8
0
100
AcDbLine
 62
7
  6
CONTINUOUS
 10
9.4117697847
 20
10.1150900531
 11
13.999917933
 21
9.7969008983
  0
LINE
  5
2BC
100
AcDbEntity
  8
0
100
AcDbLine
 62
7
  6
CONTINUOUS
 10
9.1684940658
 20
10.1963066999
 11
9.4739226898
 21
10.1751251529
  0
LINE
  5
2BD
100
AcDbEntity
  8
0
100
AcDbLine
 62
7
  6
CONTINUOUS
 10
9.3545848057
 20
10.3760565622
 11
9.6600134297
 21
10.3548750152
  0
LINE
  5
2BE
100
AcDbEntity
  8
0
100
AcDbLine
 62
7
  6
CONTINUOUS
 10
9.679814417
 20
10.3740013014
 11
9.3934662509
 21
10.3938596141
  0
LINE
  5
2BF
100
AcDbEntity
  8
0
100
AcDbLine
 62
7
  6
CONTINUOUS
 10
9.8970550938
 20
10.583839694
 11
14.485203242
 21
10.2656505392
  0
LINE
  5
2C0
100
AcDbEntity
  8
0
100
AcDbLine
 62
7
  6
CONTINUOUS
 10
13.999917933
 20
9.7969008983
 11
13.999917933
 21
6.416160306
  0
LINE
  5
2C1
100
AcDbEntity
  8
0
100
AcDbLine
 62
7
  6
CONTINUOUS
 10
14.485203242
 20
10.2656505392
 11
14.485203242
 21
9.3057163964
  0
LINE
  5
2C2
100
AcDbEntity
  8
0
100
AcDbLine
 62
7
  6
CONTINUOUS
 10
14.485203242
 20
8.0671521725
 11
14.485203242
 21
6.8849099469
  0
LINE
  5
2C3
100
AcDbEntity
  8
0
100
AcDbLine
 62
7
  6
CONTINUOUS
 10
14.6420679222
 20
8.1420477517
 11
14.6624145526
 21
8.1765451537
  0
LINE
  5
2C4
100
AcDbEntity
  8
0
100
AcDbLine
 62
7
  6
CONTINUOUS
 10
13.999917933
 20
6.416160306
 11
14.485203242
 21
6.8849099469
  0
LINE
  5
2C5
100
AcDbEntity
  8
0
100
AcDbLine
 62
7
  6
CONTINUOUS
 10
14.7231820104
 20
9.1860079273
 11
14.7311014887
 21
9.1669806677
  0
ARC
  5
2C6
100
AcDbEntity
  8
0
100
AcDbCircle
 62
7
  6
CONTINUOUS
 10
11.2313042136
 20
8.0818466283
 40
2.3168350453
100
AcDbArc
 50
179.328541535
 51
179.9990932774
  0
ARC
  5
2C7
100
AcDbEntity
  8
0
100
AcDbCircle
 62
7
  6
CONTINUOUS
 10
10.7251941109
 20
8.1169454831
 40
2.3168350452
100
AcDbArc
 50
179.328541535
 51
179.9990932775
  0
ARC
  5
2C8
100
AcDbEntity
  8
0
100
AcDbCircle
 62
7
  6
CONTINUOUS
 10
16.7303215657
 20
8.5408175306
 40
2.3022216868
100
AcDbArc
 50
171.6607434676
 51
173.0086288778
  0
ARC
  5
2C9
100
AcDbEntity
  8
0
100
AcDbCircle
 62
7
  6
CONTINUOUS
 10
10.6600969869
 20
8.116941999
 40
2.2517379212
100
AcDbArc
 50
179.9989784109
 51
180.6810954104
  0
ARC
  5
2CA
100
AcDbEntity
  8
0
100
AcDbCircle
 62
7
  6
CONTINUOUS
 10
11.1662070893
 20
8.0818431442
 40
2.251737921
100
AcDbArc
 50
179.9989784108
 51
180.6810954104
  0
ARC
  5
2CB
100
AcDbEntity
  8
0
100
AcDbCircle
 62
7
  6
CONTINUOUS
 10
9.9678773314
 20
8.3799287066
 40
1.0201033128
100
AcDbArc
 50
161.390517667
 51
163.3904068982
  0
ARC
  5
2CC
100
AcDbEntity
  8
0
100
AcDbCircle
 62
7
  6
CONTINUOUS
 10
9.446558899
 20
8.419773588
 40
1.0041729287
100
AcDbArc
 50
161.0622054474
 51
163.401859189
  0
ARC
  5
2CD
100
AcDbEntity
  8
0
100
AcDbCircle
 62
7
  6
CONTINUOUS
 10
15.3916081303
 20
8.407548587
 40
0.9584571905
100
AcDbArc
 50
189.1014340788
 51
191.5149294916
  0
ARC
  5
2CE
100
AcDbEntity
  8
0
100
AcDbCircle
 62
7
  6
CONTINUOUS
 10
9.145247927
 20
8.0454250873
 40
0.7574185446
100
AcDbArc
 50
199.877387831
 51
202.6185981048
  0
ARC
  5
2CF
100
AcDbEntity
  8
0
100
AcDbCircle
 62
7
  6
CONTINUOUS
 10
11.0045925775
 20
8.8890603614
 40
0.5772834874
100
AcDbArc
 50
141.9142680092
 51
143.3960495018
  0
ARC
  5
2D0
100
AcDbEntity
  8
0
100
AcDbCircle
 62
7
  6
CONTINUOUS
 10
7.7035141953
 20
8.13295894
 40
0.5711858304
100
AcDbArc
 50
59.7967059871
 51
60.3976063301
  0
ARC
  5
2D1
100
AcDbEntity
  8
0
100
AcDbCircle
 62
7
  6
CONTINUOUS
 10
7.6080806084
 20
8.6006149323
 40
0.378697061
100
AcDbArc
 50
1.8779784682
 51
4.3881842725
  0
ARC
  5
2D2
100
AcDbEntity
  8
0
100
AcDbCircle
 62
7
  6
CONTINUOUS
 10
10.5964450536
 20
8.8848095716
 40
0.3701204601
100
AcDbArc
 50
149.4563109989
 51
159.555484821
  0
ARC
  5
2D3
100
AcDbEntity
  8
0
100
AcDbCircle
 62
7
  6
CONTINUOUS
 10
12.7390843699
 20
7.682471013
 40
0.3191611506
100
AcDbArc
 50
180.0000856316
 51
180.3458113483
  0
ARC
  5
2D4
100
AcDbEntity
  8
0
100
AcDbCircle
 62
7
  6
CONTINUOUS
 10
12.7340231516
 20
7.6825939717
 40
0.3140999565
100
AcDbArc
 50
171.1120971868
 51
180.0224663654
  0
ARC
  5
2D5
100
AcDbEntity
  8
0
100
AcDbCircle
 62
7
  6
CONTINUOUS
 10
14.0872913305
 20
9.2341572223
 40
0.1725364891
100
AcDbArc
 50
31.1044673525
 51
32.3963659068
  0
ARC
  5
2D6
100
AcDbEntity
  8
0
100
AcDbCircle
 62
7
  6
CONTINUOUS
 10
10.3851742821
 20
8.9805377314
 40
0.139756458
100
AcDbArc
 50
166.1775959252
 51
166.538535456
  0
ARC
  5
2D7
100
AcDbEntity
  8
0
100
AcDbCircle
 62
7
  6
CONTINUOUS
 10
7.5119411241
 20
8.5000962229
 40
0.0283020215
100
AcDbArc
 50
71.6187953196
 51
72.4230955886
  0
ARC
  5
2D8
100
AcDbEntity
  8
0
100
AcDbCircle
 62
7
  6
CONTINUOUS
 10
7.5119655317
 20
8.5001724874
 40
0.0282219468
100
AcDbArc
 50
72.4235772714
 51
73.0610024617
  0
ARC
  5
2D9
100
AcDbEntity
  8
0
100
AcDbCircle
 62
7
  6
CONTINUOUS
 10
7.7929667028
 20
8.0775882803
 40
0.0197289356
100
AcDbArc
 50
246.9225004402
 51
247.6338477009
  0
ARC
  5
2DA
100
AcDbEntity
  8
0
100
AcDbCircle
 62
7
  6
CONTINUOUS
 10
7.7863734784
 20
8.075342941
 40
0.0169564746
100
AcDbArc
 50
262.3264761723
 51
266.0329524521
  0
SPLINE
  5
2DB
100
AcDbEntity
  8
0
100
AcDbSpline
 62
7
  6
CONTINUOUS
 70
0
 71
3
 72
9
 73
5
 74
0
 42
0.0000001
 43
0.0000001
 44
0.0000000001
 40
0.0
 40
0.0
 40
0.0
 40
0.0
 40
0.2423492772
 40
1.0
 40
1.0
 40
1.0
 40
1.0
 10
14.5835753715
 20
8.0603300421
 30
0.0
 10
14.5841832066
 20
8.0608172006
 30
0.0
 10
14.5866657949
 20
8.0628590917
 30
0.0
 10
14.5890478117
 20
8.0650222682
 30
0.0
 10
14.5907993837
 20
8.066714157
 30
0.0
  0
SPLINE
  5
2DC
100
AcDbEntity
  8
0
100
AcDbSpline
 62
7
  6
CONTINUOUS
 70
0
 71
3
 72
9
 73
5
 74
0
 42
0.0000001
 43
0.0000001
 44
0.0000000001
 40
0.0
 40
0.0
 40
0.0
 40
0.0
 40
0.2424516602
 40
1.0
 40
1.0
 40
1.0
 40
1.0
 10
14.5907993837
 20
8.066714157
 30
0.0
 10
14.5914077824
 20
8.067301825
 30
0.0
 10
14.5938910728
 20
8.0697526107
 30
0.0
 10
14.5962721969
 20
8.0723062307
 30
0.0
 10
14.5980233959
 20
8.0742857628
 30
0.0
  0
SPLINE
  5
2DD
100
AcDbEntity
  8
0
100
AcDbSpline
 62
7
  6
CONTINUOUS
 70
0
 71
3
 72
9
 73
5
 74
0
 42
0.0000001
 43
0.0000001
 44
0.0000000001
 40
0.0
 40
0.0
 40
0.0
 40
0.0
 40
0.5035395631
 40
1.0
 40
1.0
 40
1.0
 40
1.0
 10
14.5980233959
 20
8.0742857628
 30
0.0
 10
14.605874241
 20
8.0854007937
 30
0.0
 10
14.6210842059
 20
8.107747325
 30
0.0
 10
14.6353716706
 20
8.1306986282
 30
0.0
 10
14.6421895456
 20
8.1422539768
 30
0.0
  0
SPLINE
  5
2DE
100
AcDbEntity
  8
0
100
AcDbSpline
 62
7
  6
CONTINUOUS
 70
0
 71
3
 72
14
 73
10
 74
0
 42
0.0000001
 43
0.0000001
 44
0.0000000001
 40
0.0
 40
0.0
 40
0.0
 40
0.0
 40
0.1110767533
 40
0.2264627986
 40
0.3460176958
 40
0.4695754557
 40
0.5969534589
 40
0.72795519
 40
1.0
 40
1.0
 40
1.0
 40
1.0
 10
14.1222844902
 20
8.1396733336
 30
0.0
 10
14.1249290602
 20
8.1374504165
 30
0.0
 10
14.1303931335
 20
8.1330038646
 30
0.0
 10
14.138927945
 20
8.126446416
 30
0.0
 10
14.14793714
 20
8.1198751101
 30
0.0
 10
14.1573966541
 20
8.1132935051
 30
0.0
 10
14.1672816724
 20
8.1067044202
 30
0.0
 10
14.18117052
 20
8.0978003272
 30
0.0
 10
14.1918862099
 20
8.0912908018
 30
0.0
 10
14.1991719302
 20
8.0869885113
 30
0.0
  0
SPLINE
  5
2DF
100
AcDbEntity
  8
0
100
AcDbSpline
 62
7
  6
CONTINUOUS
 70
0
 71
3
 72
23
 73
19
 74
0
 42
0.0000001
 43
0.0000001
 44
0.0000000001
 40
0.0
 40
0.0
 40
0.0
 40
0.0
 40
0.0432903358
 40
0.0886111095
 40
0.1362135929
 40
0.1863092711
 40
0.2390678977
 40
0.2946076476
 40
0.3530023406
 40
0.4142746704
 40
0.4784099503
 40
0.5453523313
 40
0.6150199742
 40
0.6873039377
 40
0.76208146
 40
0.8392182661
 40
0.9185728956
 40
1.0
 40
1.0
 40
1.0
 40
1.0
 10
14.723354738
 20
9.1855926834
 30
0.0
 10
14.7224083155
 20
9.1878688906
 30
0.0
 10
14.7202874118
 20
9.1924535838
 30
0.0
 10
14.7165233513
 20
9.1992425375
 30
0.0
 10
14.7120963512
 20
9.2060852981
 30
0.0
 10
14.7069991801
 20
9.2129780094
 30
0.0
 10
14.7012293019
 20
9.2199163722
 30
0.0
 10
14.6947913007
 20
9.2268966454
 30
0.0
 10
14.6876943585
 20
9.2339134786
 30
0.0
 10
14.6799544198
 20
9.2409628803
 30
0.0
 10
14.6715910994
 20
9.2480391744
 30
0.0
 10
14.6626292754
 20
9.2551384006
 30
0.0
 10
14.6530960992
 20
9.2622552655
 30
0.0
 10
14.6430218944
 20
9.2693861656
 30
0.0
 10
14.6324376846
 20
9.2765267784
 30
0.0
 10
14.621375634
 20
9.2836740688
 30
0.0
 10
14.6098677098
 20
9.2908248037
 30
0.0
 10
14.602016023
 20
9.295534606
 30
0.0
 10
14.5980233959
 20
9.2978922921
 30
0.0
  0
SPLINE
  5
2E0
100
AcDbEntity
  8
0
100
AcDbSpline
 62
7
  6
CONTINUOUS
 70
0
 71
3
 72
47
 73
43
 74
0
 42
0.0000001
 43
0.0000001
 44
0.0000000001
 40
0.0
 40
0.0
 40
0.0
 40
0.0
 40
0.0097390474
 40
0.0199698054
 40
0.0306887706
 40
0.0418911797
 40
0.0535705278
 40
0.0657187093
 40
0.0783268726
 40
0.0913848251
 40
0.1188026063
 40
0.1478725169
 40
0.1784807562
 40
0.2105024129
 40
0.2438034215
 40
0.2782411642
 40
0.3136659887
 40
0.3499225137
 40
0.3868501632
 40
0.4242845303
 40
0.4620583808
 40
0.5000024026
 40
0.537946423
 40
0.5757202051
 40
0.6131544659
 40
0.6500819745
 40
0.6863382449
 40
0.7217628641
 40
0.7562003755
 40
0.7895009924
 40
0.8215223322
 40
0.8521302096
 40
0.8811996138
 40
0.9086170193
 40
0.9216746676
 40
0.9342827067
 40
0.9464306368
 40
0.9581096421
 40
0.9693118429
 40
0.9800304705
 40
0.9902609046
 40
1.0
 40
1.0
 40
1.0
 40
1.0
 10
14.6624169253
 20
8.1765491567
 30
0.0
 10
14.6640848203
 20
8.1793771502
 30
0.0
 10
14.667402364
 20
8.1852368056
 30
0.0
 10
14.6722171257
 20
8.1943954726
 30
0.0
 10
14.6769878091
 20
8.204129677
 30
0.0
 10
14.6817082971
 20
8.2144278718
 30
0.0
 10
14.6863729745
 20
8.2252778621
 30
0.0
 10
14.6909765065
 20
8.2366666457
 30
0.0
 10
14.6955131975
 20
8.2485808237
 30
0.0
 10
14.7015643511
 20
8.2654231664
 30
0.0
 10
14.7088986273
 20
8.2876965534
 30
0.0
 10
14.7172131903
 20
8.3158604386
 30
0.0
 10
14.7251382247
 20
8.3457447409
 30
0.0
 10
14.7326356467
 20
8.3772068809
 30
0.0
 10
14.7396689702
 20
8.4100970671
 30
0.0
 10
14.746204351
 20
8.4442583292
 30
0.0
 10
14.7522104276
 20
8.4795275286
 30
0.0
 10
14.7576580335
 20
8.5157361996
 30
0.0
 10
14.7625210561
 20
8.5527112841
 30
0.0
 10
14.7667762398
 20
8.5902759922
 30
0.0
 10
14.7704029166
 20
8.6282507374
 30
0.0
 10
14.7733838109
 20
8.6664539345
 30
0.0
 10
14.775704758
 20
8.7047028754
 30
0.0
 10
14.7773544421
 20
8.7428146593
 30
0.0
 10
14.7783251645
 20
8.7806070326
 30
0.0
 10
14.7786124672
 20
8.8178992673
 30
0.0
 10
14.7782148662
 20
8.8545130809
 30
0.0
 10
14.7771345983
 20
8.8902734735
 30
0.0
 10
14.7753771426
 20
8.9250095502
 30
0.0
 10
14.7729509307
 20
8.9585554019
 30
0.0
 10
14.7698680974
 20
8.9907509033
 30
0.0
 10
14.7661439303
 20
9.0214426566
 30
0.0
 10
14.7617963153
 20
9.0504841764
 30
0.0
 10
14.7576068148
 20
9.0735563411
 30
0.0
 10
14.7539382066
 20
9.0910724073
 30
0.0
 10
14.7510895574
 20
9.1034985307
 30
0.0
 10
14.7481020701
 20
9.1154134753
 30
0.0
 10
14.7449795812
 20
9.1268031703
 30
0.0
 10
14.7417258853
 20
9.1376540909
 30
0.0
 10
14.7383445162
 20
9.1479533233
 30
0.0
 10
14.7348398913
 20
9.157688642
 30
0.0
 10
14.7323628988
 20
9.1639500241
 30
0.0
 10
14.7311012796
 20
9.1669811698
 30
0.0
  0
SPLINE
  5
2E1
100
AcDbEntity
  8
0
100
AcDbSpline
 62
7
  6
CONTINUOUS
 70
0
 71
3
 72
71
 73
67
 74
0
 42
0.0000001
 43
0.0000001
 44
0.0000000001
 40
0.0
 40
0.0
 40
0.0
 40
0.0
 40
0.0086181769
 40
0.0180358616
 40
0.0282774586
 40
0.0393565278
 40
0.0512781193
 40
0.0640379079
 40
0.0776250778
 40
0.0920232712
 40
0.1072117669
 40
0.1231658877
 40
0.1398572575
 40
0.1572547554
 40
0.1753241015
 40
0.1940290556
 40
0.2133305876
 40
0.2331882383
 40
0.2743982911
 40
0.3173016118
 40
0.3615185692
 40
0.4066539401
 40
0.4523018244
 40
0.498050443
 40
0.543486841
 40
0.5882016236
 40
0.6317937783
 40
0.6530475103
 40
0.6738765743
 40
0.6942351706
 40
0.7140793344
 40
0.7333664045
 40
0.7520557961
 40
0.7701087697
 40
0.7874888656
 40
0.8041621724
 40
0.8200973098
 40
0.8352663455
 40
0.8496443226
 40
0.8632109019
 40
0.875949623
 40
0.8878502973
 40
0.8989084674
 40
0.9091286382
 40
0.9185247606
 40
0.9229228386
 40
0.9271266988
 40
0.9311424085
 40
0.9349775089
 40
0.9386412763
 40
0.9421446752
 40
0.9487194012
 40
0.9518277284
 40
0.9548406465
 40
0.9577799033
 40
0.9606691014
 40
0.9635332525
 40
0.9663980381
 40
0.9692890983
 40
0.9722313645
 40
0.9752484317
 40
0.9783620293
 40
0.9849505497
 40
0.9884623794
 40
0.9921350537
 40
1.0
 40
1.0
 40
1.0
 40
1.0
 10
14.6348559117
 20
9.2121447019
 30
0.0
 10
14.6323967428
 20
9.209769327
 30
0.0
 10
14.6274937667
 20
9.2045431498
 30
0.0
 10
14.6204770285
 20
9.1957788504
 30
0.0
 10
14.6134965365
 20
9.1857702331
 30
0.0
 10
14.6065681659
 20
9.1745418642
 30
0.0
 10
14.5997075405
 20
9.1621184621
 30
0.0
 10
14.5929299839
 20
9.1485287953
 30
0.0
 10
14.5862521491
 20
9.1338044364
 30
0.0
 10
14.5796898608
 20
9.1179802854
 30
0.0
 10
14.5732589841
 20
9.1010938548
 30
0.0
 10
14.5669750956
 20
9.0831853643
 30
0.0
 10
14.560853224
 20
9.0642976121
 30
0.0
 10
14.5549085127
 20
9.0444758058
 30
0.0
 10
14.5491549416
 20
9.0237675055
 30
0.0
 10
14.5436069474
 20
9.0022224027
 30
0.0
 10
14.5382773497
 20
8.9798922524
 30
0.0
 10
14.5313954806
 20
8.9487579871
 30
0.0
 10
14.5234608083
 20
8.9082732691
 30
0.0
 10
14.5151115503
 20
8.8580442436
 30
0.0
 10
14.5079023976
 20
8.8060665279
 30
0.0
 10
14.5019033486
 20
8.7528398611
 30
0.0
 10
14.4971725965
 20
8.6988756579
 30
0.0
 10
14.4937558347
 20
8.6446927517
 30
0.0
 10
14.4916857992
 20
8.5908119739
 30
0.0
 10
14.4909822005
 20
8.5377516266
 30
0.0
 10
14.4915437667
 20
8.4942838775
 30
0.0
 10
14.4926988519
 20
8.4603130741
 30
0.0
 10
14.4938993723
 20
8.4355691407
 30
0.0
 10
14.4954386256
 20
8.4114042635
 30
0.0
 10
14.4973125638
 20
8.3878765839
 30
0.0
 10
14.4995168509
 20
8.3650426697
 30
0.0
 10
14.5020459447
 20
8.342957444
 30
0.0
 10
14.5048937145
 20
8.3216739622
 30
0.0
 10
14.5080532783
 20
8.3012433429
 30
0.0
 10
14.511516713
 20
8.2817145938
 30
0.0
 10
14.5152759014
 20
8.2631345071
 30
0.0
 10
14.5193211917
 20
8.2455474895
 30
0.0
 10
14.5236433378
 20
8.2289955032
 30
0.0
 10
14.5282311071
 20
8.2135177864
 30
0.0
 10
14.5330742665
 20
8.1991509516
 30
0.0
 10
14.5381603087
 20
8.1859285203
 30
0.0
 10
14.5434783499
 20
8.1738810202
 30
0.0
 10
14.5490151696
 20
8.1630362709
 30
0.0
 10
14.5539050218
 20
8.1548487172
 30
0.0
 10
14.5579315043
 20
8.1489497327
 30
0.0
 10
14.560931267
 20
8.1449402054
 30
0.0
 10
14.5639761141
 20
8.141249771
 30
0.0
 10
14.5670644279
 20
8.1378808235
 30
0.0
 10
14.5701949654
 20
8.1348348505
 30
0.0
 10
14.5743337116
 20
8.1312830442
 30
0.0
 10
14.578644191
 20
8.1282778698
 30
0.0
 10
14.5831021808
 20
8.1259226265
 30
0.0
 10
14.5864173808
 20
8.1245208629
 30
0.0
 10
14.5897637721
 20
8.1234529577
 30
0.0
 10
14.5931391698
 20
8.1227204749
 30
0.0
 10
14.5965407018
 20
8.1223241634
 30
0.0
 10
14.5999654491
 20
8.1222642295
 30
0.0
 10
14.6034105056
 20
8.1225405996
 30
0.0
 10
14.6068729935
 20
8.1231529574
 30
0.0
 10
14.6103505224
 20
8.124100419
 30
0.0
 10
14.6150923329
 20
8.1258407762
 30
0.0
 10
14.6197770221
 20
8.1282444637
 30
0.0
 10
14.624367099
 20
8.1312129898
 30
0.0
 10
14.6291718973
 20
8.134762757
 30
0.0
 10
14.6326116747
 20
8.1377992046
 30
0.0
 10
14.6348559117
 20
8.1399669712
 30
0.0
  0
SPLINE
  5
2E2
100
AcDbEntity
  8
0
100
AcDbSpline
 62
7
  6
CONTINUOUS
 70
0
 71
3
 72
11
 73
7
 74
0
 42
0.0000001
 43
0.0000001
 44
0.0000000001
 40
0.0
 40
0.0
 40
0.0
 40
0.0
 40
0.2194295797
 40
0.4588777944
 40
0.7189534041
 40
1.0
 40
1.0
 40
1.0
 40
1.0
 10
14.6348559117
 20
8.1399669712
 30
0.0
 10
14.6372721328
 20
8.1423008617
 30
0.0
 10
14.6420900497
 20
8.1474276742
 30
0.0
 10
14.6489907055
 20
8.1560133911
 30
0.0
 10
14.6558567941
 20
8.1658028776
 30
0.0
 10
14.6602311365
 20
8.1728430501
 30
0.0
 10
14.6624169253
 20
8.1765491567
 30
0.0
  0
SPLINE
  5
2E3
100
AcDbEntity
  8
0
100
AcDbSpline
 62
7
  6
CONTINUOUS
 70
0
 71
3
 72
9
 73
5
 74
0
 42
0.0000001
 43
0.0000001
 44
0.0000000001
 40
0.0
 40
0.0
 40
0.0
 40
0.0
 40
0.2424516602
 40
1.0
 40
1.0
 40
1.0
 40
1.0
 10
14.5907993837
 20
9.2915081773
 30
0.0
 10
14.590190985
 20
9.2909205092
 30
0.0
 10
14.5877076947
 20
9.2884697235
 30
0.0
 10
14.5853265705
 20
9.2859161035
 30
0.0
 10
14.5835753715
 20
9.2839365714
 30
0.0
  0
SPLINE
  5
2E4
100
AcDbEntity
  8
0
100
AcDbSpline
 62
7
  6
CONTINUOUS
 70
0
 71
3
 72
9
 73
5
 74
0
 42
0.0000001
 43
0.0000001
 44
0.0000000001
 40
0.0
 40
0.0
 40
0.0
 40
0.0
 40
0.2423492772
 40
1.0
 40
1.0
 40
1.0
 40
1.0
 10
14.5980233959
 20
9.2978922921
 30
0.0
 10
14.5974155609
 20
9.2974051336
 30
0.0
 10
14.5949329725
 20
9.2953632426
 30
0.0
 10
14.5925509558
 20
9.2932000661
 30
0.0
 10
14.5907993837
 20
9.2915081773
 30
0.0
  0
SPLINE
  5
2E5
100
AcDbEntity
  8
0
100
AcDbSpline
 62
7
  6
CONTINUOUS
 70
0
 71
3
 72
23
 73
19
 74
0
 42
0.0000001
 43
0.0000001
 44
0.0000000001
 40
0.0
 40
0.0
 40
0.0
 40
0.0
 40
0.0586500584
 40
0.1174971748
 40
0.1766041375
 40
0.2360481059
 40
0.2959121929
 40
0.3562840494
 40
0.417251051
 40
0.4788922537
 40
0.5412731263
 40
0.604440809
 40
0.668420163
 40
0.7332144894
 40
0.7988073735
 40
0.8651659572
 40
0.9322480423
 40
1.0
 40
1.0
 40
1.0
 40
1.0
 10
14.5835753715
 20
9.2839365714
 30
0.0
 10
14.5839714579
 20
9.2753691498
 30
0.0
 10
14.584469841
 20
9.2581900966
 30
0.0
 10
14.5842483585
 20
9.2323593547
 30
0.0
 10
14.5829702239
 20
9.2064416385
 30
0.0
 10
14.5805483624
 20
9.1804553072
 30
0.0
 10
14.5769037784
 20
9.1544243074
 30
0.0
 10
14.5719709105
 20
9.1283789644
 30
0.0
 10
14.5657009625
 20
9.1023549621
 30
0.0
 10
14.5580689677
 20
9.0763909849
 30
0.0
 10
14.5490759494
 20
9.0505259289
 30
0.0
 10
14.5387468452
 20
9.0247968141
 30
0.0
 10
14.5271305732
 20
8.9992355619
 30
0.0
 10
14.514295919
 20
8.9738670146
 30
0.0
 10
14.5003240064
 20
8.9487092221
 30
0.0
 10
14.4853043828
 20
8.9237724009
 30
0.0
 10
14.4693304411
 20
8.8990604705
 30
0.0
 10
14.4581580039
 20
8.8828107591
 30
0.0
 10
14.4524420738
 20
8.8747182876
 30
0.0
  0
SPLINE
  5
2E6
100
AcDbEntity
  8
0
100
AcDbSpline
 62
7
  6
CONTINUOUS
 70
0
 71
3
 72
21
 73
17
 74
0
 42
0.0000001
 43
0.0000001
 44
0.0000000001
 40
0.0
 40
0.0
 40
0.0
 40
0.0
 40
0.1269527041
 40
0.1902689165
 40
0.2534593491
 40
0.3165116873
 40
0.37941528
 40
0.4421620112
 40
0.5047460954
 40
0.5671657261
 40
0.6294227274
 40
0.6915221182
 40
0.7534726662
 40
0.8152847883
 40
0.8769699244
 40
1.0
 40
1.0
 40
1.0
 40
1.0
 10
14.4452180616
 20
8.8210436372
 30
0.0
 10
14.4513465096
 20
8.79761248
 30
0.0
 10
14.4597235253
 20
8.7622721906
 30
0.0
 10
14.4688947711
 20
8.7147907775
 30
0.0
 10
14.4746721534
 20
8.6790858449
 30
0.0
 10
14.4792694982
 20
8.643288755
 30
0.0
 10
14.4826135554
 20
8.6074370602
 30
0.0
 10
14.4846453534
 20
8.5715760038
 30
0.0
 10
14.485327824
 20
8.5357559102
 30
0.0
 10
14.4846489129
 20
8.5000291241
 30
0.0
 10
14.482620376
 20
8.4644463547
 30
0.0
 10
14.4792790236
 20
8.4290531466
 30
0.0
 10
14.4746837196
 20
8.3938872177
 30
0.0
 10
14.4689076127
 20
8.3589763525
 30
0.0
 10
14.4597535957
 20
8.3128387405
 30
0.0
 10
14.4513656375
 20
8.2785887807
 30
0.0
 10
14.4452180616
 20
8.2559371626
 30
0.0
  0
SPLINE
  5
2E7
100
AcDbEntity
  8
0
100
AcDbSpline
 62
7
  6
CONTINUOUS
 70
0
 71
3
 72
24
 73
20
 74
0
 42
0.0000001
 43
0.0000001
 44
0.0000000001
 40
0.0
 40
0.0
 40
0.0
 40
0.0
 40
0.0913270067
 40
0.1792345887
 40
0.2633975065
 40
0.3435123174
 40
0.419314425
 40
0.4906094671
 40
0.5245345675
 40
0.5573078303
 40
0.6194264789
 40
0.67715515
 40
0.7308292085
 40
0.7809307172
 40
0.8280591397
 40
0.8728796032
 40
0.9160685661
 40
0.9582602556
 40
1.0
 40
1.0
 40
1.0
 40
1.0
 10
14.4524420738
 20
8.2162182329
 30
0.0
 10
14.4580858439
 20
8.2128855303
 30
0.0
 10
14.4690989459
 20
8.206236951
 30
0.0
 10
14.4850511077
 20
8.1960909653
 30
0.0
 10
14.5000506552
 20
8.1859580794
 30
0.0
 10
14.5140068612
 20
8.1758475033
 30
0.0
 10
14.5268324112
 20
8.1657699885
 30
0.0
 10
14.5366698182
 20
8.1572748636
 30
0.0
 10
14.543887509
 20
8.1504917698
 30
0.0
 10
14.5504322816
 20
8.1439608105
 30
0.0
 10
14.5578126881
 20
8.1358545994
 30
0.0
 10
14.5654849304
 20
8.1260283005
 30
0.0
 10
14.5718048397
 20
8.1162922362
 30
0.0
 10
14.576790856
 20
8.1066566234
 30
0.0
 10
14.5804838266
 20
8.0971317987
 30
0.0
 10
14.5829426526
 20
8.0877277555
 30
0.0
 10
14.5842427592
 20
8.078453108
 30
0.0
 10
14.5844720596
 20
8.0693146568
 30
0.0
 10
14.5839714433
 20
8.0632993015
 30
0.0
 10
14.5835753715
 20
8.0603300421
 30
0.0
  0
SPLINE
  5
2E8
100
AcDbEntity
  8
0
100
AcDbSpline
 62
7
  6
CONTINUOUS
 70
0
 71
3
 72
9
 73
5
 74
0
 42
0.0000001
 43
0.0000001
 44
0.0000000001
 40
0.0
 40
0.0
 40
0.0
 40
0.0
 40
0.5156474505
 40
1.0
 40
1.0
 40
1.0
 40
1.0
 10
14.7311012796
 20
9.1669811698
 30
0.0
 10
14.7297417836
 20
9.1702474724
 30
0.0
 10
14.7269842437
 20
9.1765324151
 30
0.0
 10
14.723950725
 20
9.1826898559
 30
0.0
 10
14.7224050185
 20
9.1856317152
 30
0.0
  0
SPLINE
  5
2E9
100
AcDbEntity
  8
0
100
AcDbSpline
 62
7
  6
CONTINUOUS
 70
0
 71
3
 72
27
 73
23
 74
0
 42
0.0000001
 43
0.0000001
 44
0.0000000001
 40
0.0
 40
0.0
 40
0.0
 40
0.0
 40
0.0862376397
 40
0.166476999
 40
0.2409287868
 40
0.3098931797
 40
0.3737956139
 40
0.4332053045
 40
0.4888618794
 40
0.5155840016
 40
0.5417313436
 40
0.5674464209
 40
0.5928800766
 40
0.6181886775
 40
0.6435307976
 40
0.669064262
 40
0.6949432855
 40
0.7482846378
 40
0.8046652017
 40
0.8649789148
 40
0.929919677
 40
1.0
 40
1.0
 40
1.0
 40
1.0
 10
14.7224050185
 20
9.1856317152
 30
0.0
 10
14.720903321
 20
9.1884898145
 30
0.0
 10
14.717864079
 20
9.1939355608
 30
0.0
 10
14.712998543
 20
9.2015379236
 30
0.0
 10
14.7079997317
 20
9.2082652359
 30
0.0
 10
14.7028732379
 20
9.2141060957
 30
0.0
 10
14.6976245855
 20
9.2190510857
 30
0.0
 10
14.6922596377
 20
9.2230900322
 30
0.0
 10
14.6876314945
 20
9.2257266514
 30
0.0
 10
14.6839002232
 20
9.2273429455
 30
0.0
 10
14.6811175028
 20
9.2283071839
 30
0.0
 10
14.6783144873
 20
9.2290385998
 30
0.0
 10
14.6754925047
 20
9.2295366376
 30
0.0
 10
14.672653123
 20
9.2298011371
 30
0.0
 10
14.6697979194
 20
9.2298320342
 30
0.0
 10
14.6669283047
 20
9.2296292785
 30
0.0
 10
14.6630471064
 20
9.2290421632
 30
0.0
 10
14.6581308693
 20
9.2276960187
 30
0.0
 10
14.6522708788
 20
9.2251638896
 30
0.0
 10
14.6463959461
 20
9.2217092741
 30
0.0
 10
14.6405144703
 20
9.2173439444
 30
0.0
 10
14.636743014
 20
9.2139675029
 30
0.0
 10
14.6348559117
 20
9.2121447019
 30
0.0
  0
SPLINE
  5
2EA
100
AcDbEntity
  8
0
100
AcDbSpline
 62
7
  6
CONTINUOUS
 70
0
 71
3
 72
16
 73
12
 74
0
 42
0.0000001
 43
0.0000001
 44
0.0000000001
 40
0.0
 40
0.0
 40
0.0
 40
0.0
 40
0.1081437818
 40
0.2181192518
 40
0.3316583353
 40
0.450322736
 40
0.5120288749
 40
0.5755043833
 40
0.7082566512
 40
0.8495256013
 40
1.0
 40
1.0
 40
1.0
 40
1.0
 10
7.5326967559
 20
8.5320310971
 30
0.0
 10
7.532178276
 20
8.5320670487
 30
0.0
 10
7.5311262456
 20
8.53206826
 30
0.0
 10
7.5295420809
 20
8.531856517
 30
0.0
 10
7.5279489085
 20
8.5314326757
 30
0.0
 10
7.5266330277
 20
8.5309107107
 30
0.0
 10
7.5255806933
 20
8.5303941282
 30
0.0
 10
7.5244963845
 20
8.5297924221
 30
0.0
 10
7.5231366083
 20
8.5289038169
 30
0.0
 10
7.521526834
 20
8.5276474643
 30
0.0
 10
7.5204871911
 20
8.5267047563
 30
0.0
 10
7.5199670549
 20
8.5262023433
 30
0.0
  0
SPLINE
  5
2EB
100
AcDbEntity
  8
0
100
AcDbSpline
 62
7
  6
CONTINUOUS
 70
0
 71
3
 72
32
 73
28
 74
0
 42
0.0000001
 43
0.0000001
 44
0.0000000001
 40
0.0
 40
0.0
 40
0.0
 40
0.0
 40
0.0712722267
 40
0.1436236154
 40
0.2165542095
 40
0.2895570666
 40
0.362125201
 40
0.4337553978
 40
0.503952813
 40
0.5383636034
 40
0.572236736
 40
0.605514729
 40
0.6381415253
 40
0.6700625918
 40
0.7012250744
 40
0.7315780778
 40
0.7610727383
 40
0.7896623793
 40
0.8173028815
 40
0.8439528284
 40
0.8695736882
 40
0.8941302585
 40
0.917591032
 40
0.9399285012
 40
0.9611197925
 40
0.9811474202
 40
1.0
 40
1.0
 40
1.0
 40
1.0
 10
8.3847492258
 20
8.1397874632
 30
0.0
 10
8.3847492258
 20
8.1553283088
 30
0.0
 10
8.3851133354
 20
8.186646359
 30
0.0
 10
8.3867084175
 20
8.2338424202
 30
0.0
 10
8.3893461756
 20
8.2813698318
 30
0.0
 10
8.3930072248
 20
8.328876693
 30
0.0
 10
8.3976643644
 20
8.3760114747
 30
0.0
 10
8.4032830355
 20
8.4224251794
 30
0.0
 10
8.4087671663
 20
8.4604643413
 30
0.0
 10
8.4136135045
 20
8.4902692607
 30
0.0
 10
8.417436521
 20
8.5120828708
 30
0.0
 10
8.4214646494
 20
8.5334638233
 30
0.0
 10
8.4256904097
 20
8.5543725609
 30
0.0
 10
8.4301059371
 20
8.5747703599
 30
0.0
 10
8.4347030501
 20
8.594619458
 30
0.0
 10
8.4394731765
 20
8.6138831296
 30
0.0
 10
8.4444074334
 20
8.6325257391
 30
0.0
 10
8.4494966692
 20
8.6505128023
 30
0.0
 10
8.454731398
 20
8.6678110831
 30
0.0
 10
8.4601018612
 20
8.6843886456
 30
0.0
 10
8.4655980929
 20
8.7002148946
 30
0.0
 10
8.471209863
 20
8.7152606716
 30
0.0
 10
8.4769267205
 20
8.7294983299
 30
0.0
 10
8.4827380633
 20
8.7429017184
 30
0.0
 10
8.4886331951
 20
8.7554464185
 30
0.0
 10
8.4946010489
 20
8.7671093223
 30
0.0
 10
8.4987468045
 20
8.7745074713
 30
0.0
 10
8.5008351756
 20
8.7780482744
 30
0.0
  0
SPLINE
  5
2EC
100
AcDbEntity
  8
0
100
AcDbSpline
 62
7
  6
CONTINUOUS
 70
0
 71
3
 72
28
 73
24
 74
0
 42
0.0000001
 43
0.0000001
 44
0.0000000001
 40
0.0
 40
0.0
 40
0.0
 40
0.0
 40
0.0779005797
 40
0.1545446228
 40
0.2297350297
 40
0.3032866798
 40
0.3750161227
 40
0.4447478057
 40
0.5123130096
 40
0.5775512741
 40
0.6403111294
 40
0.7004511931
 40
0.7578413891
 40
0.7854687016
 40
0.8123657218
 40
0.8385198902
 40
0.8639199919
 40
0.8885556719
 40
0.9124179082
 40
0.9354990069
 40
0.9577925286
 40
0.9792939061
 40
1.0
 40
1.0
 40
1.0
 40
1.0
 10
8.3847492258
 20
8.1397874632
 30
0.0
 10
8.3847492258
 20
8.1305117807
 30
0.0
 10
8.3848770998
 20
8.1121097481
 30
0.0
 10
8.3854614015
 20
8.0847603246
 30
0.0
 10
8.3864352303
 20
8.0579400518
 30
0.0
 10
8.3877957767
 20
8.0317225133
 30
0.0
 10
8.3895393148
 20
8.0061790163
 30
0.0
 10
8.3916609699
 20
7.9813793816
 30
0.0
 10
8.3941548637
 20
7.9573912241
 30
0.0
 10
8.3970140669
 20
7.9342799622
 30
0.0
 10
8.4002306275
 20
7.9121085113
 30
0.0
 10
8.4037956519
 20
7.8909373537
 30
0.0
 10
8.4070889222
 20
7.8739677398
 30
0.0
 10
8.4098999416
 20
7.8609414532
 30
0.0
 10
8.4120622692
 20
7.8515811506
 30
0.0
 10
8.4143039735
 20
7.8425124693
 30
0.0
 10
8.4166234645
 20
7.8337415669
 30
0.0
 10
8.4190191992
 20
7.825274417
 30
0.0
 10
8.4214895291
 20
7.8171167746
 30
0.0
 10
8.4240327275
 20
7.8092741802
 30
0.0
 10
8.4266471402
 20
7.80175195
 30
0.0
 10
8.4293308661
 20
7.7945552287
 30
0.0
 10
8.4312003817
 20
7.7898895356
 30
0.0
 10
8.4321477728
 20
7.7876133339
 30
0.0
  0
SPLINE
  5
2ED
100
AcDbEntity
  8
0
100
AcDbSpline
 62
7
  6
CONTINUOUS
 70
0
 71
3
 72
41
 73
37
 74
0
 42
0.0000001
 43
0.0000001
 44
0.0000000001
 40
0.0
 40
0.0
 40
0.0
 40
0.0
 40
0.0762762764
 40
0.1537857569
 40
0.2318229599
 40
0.3096745337
 40
0.3483090576
 40
0.3866312946
 40
0.4245540924
 40
0.4619914737
 40
0.4988589312
 40
0.5350736536
 40
0.5705547947
 40
0.605223763
 40
0.6390045541
 40
0.6718240128
 40
0.7036121361
 40
0.73430244
 40
0.7638323882
 40
0.7921437737
 40
0.819183187
 40
0.8449026377
 40
0.8692603224
 40
0.8922214511
 40
0.9031701224
 40
0.9137604824
 40
0.9239906486
 40
0.9338596323
 40
0.9433671766
 40
0.9525138628
 40
0.9613014513
 40
0.9697326956
 40
0.9778116946
 40
0.9855441058
 40
0.9929371206
 40
1.0
 40
1.0
 40
1.0
 40
1.0
 10
7.9328445438
 20
8.203281034
 30
0.0
 10
7.9328445438
 20
8.2172694546
 30
0.0
 10
7.9332208753
 20
8.2454736666
 30
0.0
 10
7.9348627148
 20
8.2879605088
 30
0.0
 10
7.9375725554
 20
8.3306821829
 30
0.0
 10
7.9407064966
 20
8.3662221774
 30
0.0
 10
7.9437313021
 20
8.3944517423
 30
0.0
 10
7.9462416492
 20
8.4153701868
 30
0.0
 10
7.9489931713
 20
8.4360368002
 30
0.0
 10
7.9519791873
 20
8.4564012595
 30
0.0
 10
7.95519239
 20
8.4764139409
 30
0.0
 10
7.9586249102
 20
8.496026098
 30
0.0
 10
7.9622683507
 20
8.515189956
 30
0.0
 10
7.9661138109
 20
8.5338588411
 30
0.0
 10
7.9701518715
 20
8.5519873042
 30
0.0
 10
7.9743726326
 20
8.5695312296
 30
0.0
 10
7.9787657565
 20
8.586447934
 30
0.0
 10
7.9833204955
 20
8.6026962824
 30
0.0
 10
7.9880256741
 20
8.6182368087
 30
0.0
 10
7.9928697493
 20
8.6330318149
 30
0.0
 10
7.9978408531
 20
8.6470454363
 30
0.0
 10
8.0029268295
 20
8.6602438434
 30
0.0
 10
8.0081152221
 20
8.6725950556
 30
0.0
 10
8.0125816709
 20
8.6823053842
 30
0.0
 10
8.0162046176
 20
8.6896185906
 30
0.0
 10
8.0188963599
 20
8.6947862034
 30
0.0
 10
8.021604234
 20
8.6997207025
 30
0.0
 10
8.0243265789
 20
8.7044191362
 30
0.0
 10
8.0270617412
 20
8.7088786773
 30
0.0
 10
8.0298081346
 20
8.7130966142
 30
0.0
 10
8.0325640428
 20
8.7170704575
 30
0.0
 10
8.0353278748
 20
8.7207978115
 30
0.0
 10
8.0380980097
 20
8.7242764314
 30
0.0
 10
8.0408728005
 20
8.727504319
 30
0.0
 10
8.0436506293
 20
8.7304794008
 30
0.0
 10
8.0455459889
 20
8.7323346933
 30
0.0
 10
8.0464941585
 20
8.7332171354
 30
0.0
  0
SPLINE
  5
2EE
100
AcDbEntity
  8
0
100
AcDbSpline
 62
7
  6
CONTINUOUS
 70
0
 71
3
 72
10
 73
6
 74
0
 42
0.0000001
 43
0.0000001
 44
0.0000000001
 40
0.0
 40
0.0
 40
0.0
 40
0.0
 40
0.2530853044
 40
0.5041993317
 40
1.0
 40
1.0
 40
1.0
 40
1.0
 10
8.4842280043
 20
7.6739089518
 30
0.0
 10
8.4807168084
 20
7.6805312023
 30
0.0
 10
8.4738495842
 20
7.6937927035
 30
0.0
 10
8.4607933608
 20
7.7203772627
 30
0.0
 10
8.4517296043
 20
7.7405697023
 30
0.0
 10
8.4460859064
 20
7.7541257213
 30
0.0
  0
SPLINE
  5
2EF
100
AcDbEntity
  8
0
100
AcDbSpline
 62
7
  6
CONTINUOUS
 70
0
 71
3
 72
53
 73
49
 74
0
 42
0.0000001
 43
0.0000001
 44
0.0000000001
 40
0.0
 40
0.0
 40
0.0
 40
0.0
 40
0.0076527139
 40
0.0158948662
 40
0.0247439379
 40
0.0342116215
 40
0.0443044563
 40
0.055023322
 40
0.0663653424
 40
0.0783240551
 40
0.0908904927
 40
0.104052827
 40
0.1177973445
 40
0.1321081103
 40
0.1469677303
 40
0.1623569429
 40
0.1946397004
 40
0.2287779762
 40
0.2645743596
 40
0.3018163707
 40
0.3402791421
 40
0.3797275733
 40
0.419918415
 40
0.4606025754
 40
0.5015269477
 40
0.5424364927
 40
0.5830764071
 40
0.6231939062
 40
0.6625404129
 40
0.7008736182
 40
0.7379594153
 40
0.7735742629
 40
0.8075073613
 40
0.8395630996
 40
0.8548313808
 40
0.8695654228
 40
0.8837465208
 40
0.8973574188
 40
0.9103828501
 40
0.9228093436
 40
0.9346259106
 40
0.9458238927
 40
0.956397851
 40
0.9663455752
 40
0.9756693143
 40
0.9843760724
 40
0.9924793374
 40
1.0
 40
1.0
 40
1.0
 40
1.0
 10
7.2610989181
 20
8.5142112071
 30
0.0
 10
7.2605399761
 20
8.5136713106
 30
0.0
 10
7.2594244071
 20
8.5125024109
 30
0.0
 10
7.257814861
 20
8.5105709733
 30
0.0
 10
7.2562110853
 20
8.5084009545
 30
0.0
 10
7.2546156269
 20
8.5059960803
 30
0.0
 10
7.2530309735
 20
8.5033600386
 30
0.0
 10
7.2514595621
 20
8.5004970744
 30
0.0
 10
7.24990407
 20
8.4974117773
 30
0.0
 10
7.2483669649
 20
8.4941092087
 30
0.0
 10
7.2468508747
 20
8.4905947469
 30
0.0
 10
7.2453582332
 20
8.4868741837
 30
0.0
 10
7.2438916057
 20
8.4829536322
 30
0.0
 10
7.2424533674
 20
8.4788395778
 30
0.0
 10
7.2410459637
 20
8.4745388071
 30
0.0
 10
7.239183865
 20
8.468467734
 30
0.0
 10
7.2369585296
 20
8.4604619891
 30
0.0
 10
7.2344870408
 20
8.4503791672
 30
0.0
 10
7.2321903367
 20
8.4397394246
 30
0.0
 10
7.230083823
 20
8.4286133037
 30
0.0
 10
7.2281816548
 20
8.4170744997
 30
0.0
 10
7.2264965822
 20
8.4051995527
 30
0.0
 10
7.2250398855
 20
8.3930672572
 30
0.0
 10
7.223821301
 20
8.38075815
 30
0.0
 10
7.2228489565
 20
8.3683539553
 30
0.0
 10
7.2221293194
 20
8.3559370371
 30
0.0
 10
7.221667155
 20
8.3435898481
 30
0.0
 10
7.2214654902
 20
8.3313943678
 30
0.0
 10
7.2215255955
 20
8.3194315581
 30
0.0
 10
7.2218469696
 20
8.3077808107
 30
0.0
 10
7.2224273436
 20
8.2965194178
 30
0.0
 10
7.2232626702
 20
8.2857219899
 30
0.0
 10
7.2243472206
 20
8.2754601329
 30
0.0
 10
7.225469804
 20
8.2672836921
 30
0.0
 10
7.2264945684
 20
8.2610654203
 30
0.0
 10
7.2273080323
 20
8.2566527691
 30
0.0
 10
7.2281774283
 20
8.2524224545
 30
0.0
 10
7.2291013679
 20
8.2483814672
 30
0.0
 10
7.2300782427
 20
8.2445364787
 30
0.0
 10
7.231106479
 20
8.2408938252
 30
0.0
 10
7.2321842966
 20
8.2374594816
 30
0.0
 10
7.2333099761
 20
8.2342390739
 30
0.0
 10
7.2344815826
 20
8.2312378276
 30
0.0
 10
7.2356972965
 20
8.2284606016
 30
0.0
 10
7.2369550719
 20
8.2259118219
 30
0.0
 10
7.2382531056
 20
8.2235954862
 30
0.0
 10
7.239589229
 20
8.2215153414
 30
0.0
 10
7.2405387277
 20
8.220241992
 30
0.0
 10
7.2410206109
 20
8.219649513
 30
0.0
  0
SPLINE
  5
2F0
100
AcDbEntity
  8
0
100
AcDbSpline
 62
7
  6
CONTINUOUS
 70
0
 71
3
 72
61
 73
57
 74
0
 42
0.0000001
 43
0.0000001
 44
0.0000000001
 40
0.0
 40
0.0
 40
0.0
 40
0.0
 40
0.0081436402
 40
0.0169768495
 40
0.0265210187
 40
0.0367896761
 40
0.0477883699
 40
0.0595159581
 40
0.0719661045
 40
0.0851284445
 40
0.0989886631
 40
0.1135294929
 40
0.1287307232
 40
0.1445697468
 40
0.1610217784
 40
0.1780599293
 40
0.1956556783
 40
0.2137786471
 40
0.2514769729
 40
0.2908863676
 40
0.3317190628
 40
0.3736729198
 40
0.4164346711
 40
0.4596832541
 40
0.5030928439
 40
0.5463361586
 40
0.5890874276
 40
0.6310256915
 40
0.6718378295
 40
0.711221914
 40
0.7302884051
 40
0.7488914667
 40
0.7669979409
 40
0.7845761899
 40
0.8015959125
 40
0.8180285916
 40
0.8338474761
 40
0.8490277583
 40
0.8635469848
 40
0.8773849706
 40
0.8905245762
 40
0.9029516214
 40
0.9146557615
 40
0.9256309342
 40
0.9358762431
 40
0.9453972753
 40
0.9542072844
 40
0.962329759
 40
0.969800693
 40
0.9766724624
 40
0.9830176774
 40
0.9889331039
 40
0.9917694714
 40
0.9945466187
 40
0.9972834935
 40
1.0
 40
1.0
 40
1.0
 40
1.0
 10
7.5199670549
 20
8.5262023433
 30
0.0
 10
7.5192248065
 20
8.5254853863
 30
0.0
 10
7.5177441364
 20
8.5239209088
 30
0.0
 10
7.5156164456
 20
8.5213164626
 30
0.0
 10
7.5134979351
 20
8.5183661764
 30
0.0
 10
7.5113926909
 20
8.5150760145
 30
0.0
 10
7.5093045505
 20
8.5114521126
 30
0.0
 10
7.5072376515
 20
8.5075014614
 30
0.0
 10
7.5051960232
 20
8.5032318079
 30
0.0
 10
7.5031838109
 20
8.4986515425
 30
0.0
 10
7.5012049802
 20
8.4937697497
 30
0.0
 10
7.4992635776
 20
8.4885961243
 30
0.0
 10
7.4973634867
 20
8.4831409933
 30
0.0
 10
7.4955085508
 20
8.4774152601
 30
0.0
 10
7.4937025398
 20
8.4714303829
 30
0.0
 10
7.4919490652
 20
8.4651983625
 30
0.0
 10
7.4902517026
 20
8.4587316853
 30
0.0
 10
7.4880388354
 20
8.4496948539
 30
0.0
 10
7.4854466454
 20
8.4379068111
 30
0.0
 10
7.4826495766
 20
8.4232235923
 30
0.0
 10
7.4801494798
 20
8.4079402904
 30
0.0
 10
7.4779666257
 20
8.3921796366
 30
0.0
 10
7.4761187286
 20
8.3760680948
 30
0.0
 10
7.4746207388
 20
8.3597350558
 30
0.0
 10
7.4734847456
 20
8.3433116984
 30
0.0
 10
7.4727198702
 20
8.3269299492
 30
0.0
 10
7.4723322039
 20
8.3107213952
 30
0.0
 10
7.472324732
 20
8.2948161821
 30
0.0
 10
7.4726973824
 20
8.2793420996
 30
0.0
 10
7.4733284706
 20
8.2667775603
 30
0.0
 10
7.4740275883
 20
8.2570380195
 30
0.0
 10
7.4746384706
 20
8.2499961992
 30
0.0
 10
7.4753403063
 20
8.2431524034
 30
0.0
 10
7.4761316298
 20
8.2365203696
 30
0.0
 10
7.4770108713
 20
8.2301134142
 30
0.0
 10
7.4779762154
 20
8.2239443918
 30
0.0
 10
7.4790256981
 20
8.2180256689
 30
0.0
 10
7.4801572103
 20
8.2123690987
 30
0.0
 10
7.481368399
 20
8.2069859927
 30
0.0
 10
7.482656871
 20
8.2018870964
 30
0.0
 10
7.4840199426
 20
8.1970825491
 30
0.0
 10
7.4854549202
 20
8.1925818774
 30
0.0
 10
7.4869588871
 20
8.1883939464
 30
0.0
 10
7.48852886
 20
8.1845269388
 30
0.0
 10
7.4901618181
 20
8.18098834
 30
0.0
 10
7.491854609
 20
8.1777848596
 30
0.0
 10
7.4936042978
 20
8.1749225289
 30
0.0
 10
7.4954079347
 20
8.1724065661
 30
0.0
 10
7.4972630028
 20
8.1702416889
 30
0.0
 10
7.4991674868
 20
8.1684321587
 30
0.0
 10
7.501119153
 20
8.1669825858
 30
0.0
 10
7.5028077974
 20
8.1660662138
 30
0.0
 10
7.5041685806
 20
8.1655305208
 30
0.0
 10
7.5051835839
 20
8.1652266314
 30
0.0
 10
7.5062062951
 20
8.1650155555
 30
0.0
 10
7.5068939404
 20
8.1649366767
 30
0.0
 10
7.5072373539
 20
8.1649128643
 30
0.0
  0
SPLINE
  5
2F1
100
AcDbEntity
  8
0
100
AcDbSpline
 62
7
  6
CONTINUOUS
 70
0
 71
3
 72
15
 73
11
 74
0
 42
0.0000001
 43
0.0000001
 44
0.0000000001
 40
0.0
 40
0.0
 40
0.0
 40
0.0
 40
0.1480677272
 40
0.2876998263
 40
0.4196032975
 40
0.5446524019
 40
0.6638972842
 40
0.7785762414
 40
0.8900964212
 40
1.0
 40
1.0
 40
1.0
 40
1.0
 10
7.5070323703
 20
8.5279849098
 30
0.0
 10
7.5066116723
 20
8.528482949
 30
0.0
 10
7.505763366
 20
8.5294252774
 30
0.0
 10
7.5044288944
 20
8.5307055522
 30
0.0
 10
7.5030720576
 20
8.531808193
 30
0.0
 10
7.501693952
 20
8.532731814
 30
0.0
 10
7.5002955686
 20
8.5334748855
 30
0.0
 10
7.498878179
 20
8.5340360429
 30
0.0
 10
7.4974437177
 20
8.5344138624
 30
0.0
 10
7.4964743193
 20
8.5345431363
 30
0.0
 10
7.4959915723
 20
8.5345766102
 30
0.0
  0
SPLINE
  5
2F2
100
AcDbEntity
  8
0
100
AcDbSpline
 62
7
  6
CONTINUOUS
 70
0
 71
3
 72
22
 73
18
 74
0
 42
0.0000001
 43
0.0000001
 44
0.0000000001
 40
0.0
 40
0.0
 40
0.0
 40
0.0
 40
0.1567467842
 40
0.2326967851
 40
0.3068416783
 40
0.3790301629
 40
0.4491010723
 40
0.5168873813
 40
0.5822200491
 40
0.6449305255
 40
0.7048582298
 40
0.7618565269
 40
0.8158023244
 40
0.8666061763
 40
0.9142220603
 40
0.9586606894
 40
1.0
 40
1.0
 40
1.0
 40
1.0
 10
7.887473698
 20
8.0095705147
 30
0.0
 10
7.8830306245
 20
8.0114552396
 30
0.0
 10
7.8764591441
 20
8.0143117848
 30
0.0
 10
7.867860086
 20
8.0182258651
 30
0.0
 10
7.861667221
 20
8.0211403573
 30
0.0
 10
7.855679298
 20
8.0240637062
 30
0.0
 10
7.8499138996
 20
8.0269948114
 30
0.0
 10
7.84438957
 20
8.0299321488
 30
0.0
 10
7.8391256125
 20
8.0328738499
 30
0.0
 10
7.8341417787
 20
8.0358176713
 30
0.0
 10
7.8294578707
 20
8.0387609062
 30
0.0
 10
7.8250933136
 20
8.0417005668
 30
0.0
 10
7.8210664773
 20
8.0446332619
 30
0.0
 10
7.817394133
 20
8.0475553032
 30
0.0
 10
7.8140908019
 20
8.0504631017
 30
0.0
 10
7.8111684434
 20
8.0533526309
 30
0.0
 10
7.8094180756
 20
8.0553342468
 30
0.0
 10
7.8086149769
 20
8.0563217621
 30
0.0
  0
SPLINE
  5
2F3
100
AcDbEntity
  8
0
100
AcDbSpline
 62
7
  6
CONTINUOUS
 70
0
 71
3
 72
15
 73
11
 74
0
 42
0.0000001
 43
0.0000001
 44
0.0000000001
 40
0.0
 40
0.0
 40
0.0
 40
0.0
 40
0.1240512918
 40
0.2488154303
 40
0.3741108724
 40
0.4996856895
 40
0.6252923678
 40
0.7507046133
 40
0.8756886021
 40
1.0
 40
1.0
 40
1.0
 40
1.0
 10
7.4962067594
 20
8.171572022
 30
0.0
 10
7.4956600533
 20
8.1714715046
 30
0.0
 10
7.4945573629
 20
8.1713016931
 30
0.0
 10
7.4928872915
 20
8.1711455704
 30
0.0
 10
7.4912039324
 20
8.1710908617
 30
0.0
 10
7.4895165719
 20
8.1711380656
 30
0.0
 10
7.4878347426
 20
8.1712888358
 30
0.0
 10
7.4861679619
 20
8.1715420423
 30
0.0
 10
7.4845251654
 20
8.1718937112
 30
0.0
 10
7.483448084
 20
8.172192915
 30
0.0
 10
7.4829160182
 20
8.1723578221
 30
0.0
  0
SPLINE
  5
2F4
100
AcDbEntity
  8
0
100
AcDbSpline
 62
7
  6
CONTINUOUS
 70
0
 71
3
 72
31
 73
27
 74
0
 42
0.0000001
 43
0.0000001
 44
0.0000000001
 40
0.0
 40
0.0
 40
0.0
 40
0.0
 40
0.0267710591
 40
0.0530968803
 40
0.0789518941
 40
0.1043499876
 40
0.1293889917
 40
0.1541757396
 40
0.1788652378
 40
0.2035980779
 40
0.228521297
 40
0.253770547
 40
0.2794611457
 40
0.3056944316
 40
0.3325603536
 40
0.3601274916
 40
0.3884516896
 40
0.4175819603
 40
0.4783775326
 40
0.5426895876
 40
0.6105695922
 40
0.6819804923
 40
0.756814879
 40
0.8349088433
 40
0.9160527101
 40
1.0
 40
1.0
 40
1.0
 40
1.0
 10
7.4829160182
 20
8.1723578221
 30
0.0
 10
7.4819233001
 20
8.1726655024
 30
0.0
 10
7.4799862322
 20
8.1733842591
 30
0.0
 10
7.4772363547
 20
8.174749457
 30
0.0
 10
7.4746795715
 20
8.1763498295
 30
0.0
 10
7.4723190669
 20
8.1781449322
 30
0.0
 10
7.4701469717
 20
8.1801014552
 30
0.0
 10
7.4681462146
 20
8.1821942
 30
0.0
 10
7.4663002048
 20
8.1844085499
 30
0.0
 10
7.4645871868
 20
8.1867334097
 30
0.0
 10
7.4629921393
 20
8.189166448
 30
0.0
 10
7.4614984369
 20
8.1917059009
 30
0.0
 10
7.4600929536
 20
8.1943527694
 30
0.0
 10
7.458766927
 20
8.1971099762
 30
0.0
 10
7.4575105536
 20
8.1999791828
 30
0.0
 10
7.4563178154
 20
8.2029629357
 30
0.0
 10
7.4551842475
 20
8.2060633664
 30
0.0
 10
7.4537248763
 20
8.2104164162
 30
0.0
 10
7.4520373557
 20
8.2161640117
 30
0.0
 10
7.4502333881
 20
8.2234376447
 30
0.0
 10
7.4486151304
 20
8.2311761274
 30
0.0
 10
7.4471791151
 20
8.2393652368
 30
0.0
 10
7.445924741
 20
8.2479848433
 30
0.0
 10
7.4448528912
 20
8.2570095251
 30
0.0
 10
7.4439651611
 20
8.2664094344
 30
0.0
 10
7.443504574
 20
8.27280261
 30
0.0
 10
7.4433036716
 20
8.2760554124
 30
0.0
  0
SPLINE
  5
2F5
100
AcDbEntity
  8
0
100
AcDbSpline
 62
7
  6
CONTINUOUS
 70
0
 71
3
 72
23
 73
19
 74
0
 42
0.0000001
 43
0.0000001
 44
0.0000000001
 40
0.0
 40
0.0
 40
0.0
 40
0.0
 40
0.0616834792
 40
0.1252568985
 40
0.1903628986
 40
0.2566240577
 40
0.3236485349
 40
0.3910352289
 40
0.4583787284
 40
0.5252741346
 40
0.5913218937
 40
0.6561327922
 40
0.7193331894
 40
0.780570777
 40
0.8395211431
 40
0.8958954741
 40
0.9494502469
 40
1.0
 40
1.0
 40
1.0
 40
1.0
 10
7.4433036716
 20
8.2760554124
 30
0.0
 10
7.4430469494
 20
8.2802119896
 30
0.0
 10
7.4426359124
 20
8.2886596228
 30
0.0
 10
7.4423183378
 20
8.301508938
 30
0.0
 10
7.4422904826
 20
8.3146712132
 30
0.0
 10
7.442551999
 20
8.3280638765
 30
0.0
 10
7.4431009001
 20
8.3416019198
 30
0.0
 10
7.4439334988
 20
8.3551986729
 30
0.0
 10
7.4450443983
 20
8.3687667806
 30
0.0
 10
7.4464265367
 20
8.3822190972
 30
0.0
 10
7.4480712793
 20
8.395469596
 30
0.0
 10
7.4499685665
 20
8.4084342897
 30
0.0
 10
7.4521071288
 20
8.4210321825
 30
0.0
 10
7.4544747965
 20
8.4331862964
 30
0.0
 10
7.4570589318
 20
8.4448247448
 30
0.0
 10
7.4598471152
 20
8.4558821107
 30
0.0
 10
7.4628280074
 20
8.4663004876
 30
0.0
 10
7.4650025341
 20
8.4729863539
 30
0.0
 10
7.4661268455
 20
8.4762086563
 30
0.0
  0
SPLINE
  5
2F6
100
AcDbEntity
  8
0
100
AcDbSpline
 62
7
  6
CONTINUOUS
 70
0
 71
3
 72
14
 73
10
 74
0
 42
0.0000001
 43
0.0000001
 44
0.0000000001
 40
0.0
 40
0.0
 40
0.0
 40
0.0
 40
0.2738032807
 40
0.4030043434
 40
0.5278780694
 40
0.649166937
 40
0.7676872468
 40
0.8843213362
 40
1.0
 40
1.0
 40
1.0
 40
1.0
 10
7.8039819201
 20
8.0619284245
 30
0.0
 10
7.8029297083
 20
8.0612358063
 30
0.0
 10
7.8013171158
 20
8.0603055952
 30
0.0
 10
7.799090298
 20
8.0593316287
 30
0.0
 10
7.7974570358
 20
8.0587644905
 30
0.0
 10
7.7958298135
 20
8.0583473158
 30
0.0
 10
7.7942094574
 20
8.0580806158
 30
0.0
 10
7.7925973063
 20
8.0579648098
 30
0.0
 10
7.7915268763
 20
8.0579883557
 30
0.0
 10
7.7909959384
 20
8.0580251709
 30
0.0
  0
SPLINE
  5
2F7
100
AcDbEntity
  8
0
100
AcDbSpline
 62
7
  6
CONTINUOUS
 70
0
 71
3
 72
16
 73
12
 74
0
 42
0.0000001
 43
0.0000001
 44
0.0000000001
 40
0.0
 40
0.0
 40
0.0
 40
0.0
 40
0.059386229
 40
0.1193173097
 40
0.240973493
 40
0.3646235457
 40
0.4898911294
 40
0.6163955922
 40
0.7437882008
 40
0.8717571663
 40
1.0
 40
1.0
 40
1.0
 40
1.0
 10
7.7467556819
 20
8.5745371264
 30
0.0
 10
7.7480133201
 20
8.5755544808
 30
0.0
 10
7.7505817166
 20
8.5775478675
 30
0.0
 10
7.755930972
 20
8.5813542463
 30
0.0
 10
7.7630103035
 20
8.5857363239
 30
0.0
 10
7.7720459883
 20
8.5902665252
 30
0.0
 10
7.7815870739
 20
8.5939883753
 30
0.0
 10
7.7915383531
 20
8.5968115419
 30
0.0
 10
7.8017904213
 20
8.5986665806
 30
0.0
 10
7.8122220291
 20
8.5995053141
 30
0.0
 10
7.8192133337
 20
8.5993700803
 30
0.0
 10
7.8226981466
 20
8.5991284077
 30
0.0
  0
SPLINE
  5
2F8
100
AcDbEntity
  8
0
100
AcDbSpline
 62
7
  6
CONTINUOUS
 70
0
 71
3
 72
57
 73
53
 74
0
 42
0.0000001
 43
0.0000001
 44
0.0000000001
 40
0.0
 40
0.0
 40
0.0
 40
0.0
 40
0.0071284308
 40
0.0148269917
 40
0.0231250469
 40
0.0320422169
 40
0.0415906775
 40
0.0517762878
 40
0.0626000188
 40
0.0740586637
 40
0.0861454892
 40
0.0988508976
 40
0.1121625561
 40
0.1260660571
 40
0.1405447904
 40
0.1555804903
 40
0.1711531833
 40
0.1872414231
 40
0.2038224495
 40
0.2208721732
 40
0.2562752708
 40
0.2932382731
 40
0.3315337338
 40
0.3709226313
 40
0.4111567174
 40
0.4519807394
 40
0.4931345912
 40
0.5343555153
 40
0.5753801688
 40
0.6159468435
 40
0.6557975344
 40
0.6946801581
 40
0.7323507159
 40
0.7685755671
 40
0.7860766919
 40
0.8031347562
 40
0.8197244939
 40
0.835821932
 40
0.8514041844
 40
0.8664498416
 40
0.8809388912
 40
0.894852976
 40
0.9081755856
 40
0.9208920975
 40
0.9329903121
 40
0.9444604141
 40
0.9552957748
 40
0.9654930239
 40
0.9750529041
 40
0.9839815127
 40
0.9922911352
 40
1.0
 40
1.0
 40
1.0
 40
1.0
 10
7.7133794027
 20
8.093265804
 30
0.0
 10
7.7125743852
 20
8.0941262045
 30
0.0
 10
7.7109858371
 20
8.0959972709
 30
0.0
 10
7.7087493348
 20
8.099100964
 30
0.0
 10
7.7065737876
 20
8.1026007934
 30
0.0
 10
7.7044625081
 20
8.1064908142
 30
0.0
 10
7.7024187204
 20
8.1107649607
 30
0.0
 10
7.7004456483
 20
8.1154162465
 30
0.0
 10
7.6985465702
 20
8.1204370631
 30
0.0
 10
7.6967246679
 20
8.1258190849
 30
0.0
 10
7.6949829953
 20
8.1315533248
 30
0.0
 10
7.6933245815
 20
8.1376301651
 30
0.0
 10
7.691752194
 20
8.1440393609
 30
0.0
 10
7.6902686067
 20
8.1507700878
 30
0.0
 10
7.6888763055
 20
8.1578109456
 30
0.0
 10
7.6875777305
 20
8.1651499946
 30
0.0
 10
7.6863750963
 20
8.1727747767
 30
0.0
 10
7.6852704714
 20
8.1806723322
 30
0.0
 10
7.6842657635
 20
8.1888292446
 30
0.0
 10
7.6830464095
 20
8.2001750967
 30
0.0
 10
7.6817942613
 20
8.2149039157
 30
0.0
 10
7.6807304079
 20
8.2331664399
 30
0.0
 10
7.6800948156
 20
8.252107995
 30
0.0
 10
7.6798920055
 20
8.2715996701
 30
0.0
 10
7.680123563
 20
8.291508915
 30
0.0
 10
7.6807880403
 20
8.3117002426
 30
0.0
 10
7.6818809964
 20
8.3320362348
 30
0.0
 10
7.683395027
 20
8.3523784669
 30
0.0
 10
7.6853198167
 20
8.372588477
 30
0.0
 10
7.6876422056
 20
8.3925287139
 30
0.0
 10
7.6903462881
 20
8.4120634814
 30
0.0
 10
7.6934134977
 20
8.4310599291
 30
0.0
 10
7.6968227916
 20
8.4493887705
 30
0.0
 10
7.6999642854
 20
8.4641677716
 30
0.0
 10
7.702638509
 20
8.4755585165
 30
0.0
 10
7.7046915109
 20
8.4837603623
 30
0.0
 10
7.7068113775
 20
8.4917052942
 30
0.0
 10
7.7089944456
 20
8.499379815
 30
0.0
 10
7.7112370314
 20
8.5067708714
 30
0.0
 10
7.7135352552
 20
8.5138659134
 30
0.0
 10
7.7158852078
 20
8.5206528959
 30
0.0
 10
7.7182828737
 20
8.5271203137
 30
0.0
 10
7.7207241239
 20
8.5332572271
 30
0.0
 10
7.7232048479
 20
8.5390532584
 30
0.0
 10
7.7257207447
 20
8.5444986649
 30
0.0
 10
7.7282676244
 20
8.5495842974
 30
0.0
 10
7.7308411255
 20
8.554301688
 30
0.0
 10
7.7334369925
 20
8.5586429961
 30
0.0
 10
7.7360508926
 20
8.5626011081
 30
0.0
 10
7.7386787757
 20
8.5661697439
 30
0.0
 10
7.741316322
 20
8.5693427378
 30
0.0
 10
7.7431453706
 20
8.5712611852
 30
0.0
 10
7.7440618598
 20
8.5721464459
 30
0.0
  0
SPLINE
  5
2F9
100
AcDbEntity
  8
0
100
AcDbSpline
 62
7
  6
CONTINUOUS
 70
0
 71
3
 72
16
 73
12
 74
0
 42
0.0000001
 43
0.0000001
 44
0.0000000001
 40
0.0
 40
0.0
 40
0.0
 40
0.0
 40
0.1282422029
 40
0.2562109462
 40
0.3836034675
 40
0.5101080181
 40
0.6353757837
 40
0.7590262218
 40
0.8806823713
 40
0.9406144552
 40
1.0
 40
1.0
 40
1.0
 40
1.0
 10
7.7852003827
 20
8.0584270874
 30
0.0
 10
7.7817155869
 20
8.0586687589
 30
0.0
 10
7.7747725653
 20
8.0594998731
 30
0.0
 10
7.7645566174
 20
8.0617705081
 30
0.0
 10
7.7546587574
 20
8.06502294
 30
0.0
 10
7.7451924334
 20
8.0691927167
 30
0.0
 10
7.7362564146
 20
8.0741959579
 30
0.0
 10
7.7279325511
 20
8.0799300586
 30
0.0
 10
7.7215258402
 20
8.0852474088
 30
0.0
 10
7.7167532147
 20
8.0897557567
 30
0.0
 10
7.7144845561
 20
8.0920845966
 30
0.0
 10
7.7133794019
 20
8.0932657984
 30
0.0
  0
SPLINE
  5
2FA
100
AcDbEntity
  8
0
100
AcDbSpline
 62
7
  6
CONTINUOUS
 70
0
 71
3
 72
11
 73
7
 74
0
 42
0.0000001
 43
0.0000001
 44
0.0000000001
 40
0.0
 40
0.0
 40
0.0
 40
0.0
 40
0.2656163284
 40
0.5205710123
 40
0.7652226986
 40
1.0
 40
1.0
 40
1.0
 40
1.0
 10
8.4842280043
 20
7.6739089518
 30
0.0
 10
8.4852230816
 20
7.672502129
 30
0.0
 10
8.4872255438
 20
7.6697813572
 30
0.0
 10
8.4903334654
 20
7.6659082663
 30
0.0
 10
8.4934816595
 20
7.6623301129
 30
0.0
 10
8.4956497804
 20
7.6600978018
 30
0.0
 10
8.4967403604
 20
7.6590345561
 30
0.0
  0
SPLINE
  5
2FB
100
AcDbEntity
  8
0
100
AcDbSpline
 62
7
  6
CONTINUOUS
 70
0
 71
3
 72
13
 73
9
 74
0
 42
0.0000001
 43
0.0000001
 44
0.0000000001
 40
0.0
 40
0.0
 40
0.0
 40
0.0
 40
0.115752148
 40
0.2324544335
 40
0.3510313454
 40
0.4723612145
 40
0.7262699872
 40
1.0
 40
1.0
 40
1.0
 40
1.0
 10
7.8284937014
 20
8.598726478
 30
0.0
 10
7.8290229267
 20
8.5986897815
 30
0.0
 10
7.8300829149
 20
8.5985659221
 30
0.0
 10
7.8316585573
 20
8.5982304686
 30
0.0
 10
7.8332216426
 20
8.5977454579
 30
0.0
 10
7.8353185594
 20
8.5968873819
 30
0.0
 10
7.8379183588
 20
8.5954158357
 30
0.0
 10
7.8398345367
 20
8.5939277359
 30
0.0
 10
7.8407784774
 20
8.5931014302
 30
0.0
  0
SPLINE
  5
2FC
100
AcDbEntity
  8
0
100
AcDbSpline
 62
7
  6
CONTINUOUS
 70
0
 71
3
 72
15
 73
11
 74
0
 42
0.0000001
 43
0.0000001
 44
0.0000000001
 40
0.0
 40
0.0
 40
0.0
 40
0.0
 40
0.1492666632
 40
0.2897020383
 40
0.4220197364
 40
0.54711531
 40
0.6660759196
 40
0.7801956346
 40
0.8909583024
 40
1.0
 40
1.0
 40
1.0
 40
1.0
 10
7.2668956074
 20
8.1878348424
 30
0.0
 10
7.2673288076
 20
8.1873022022
 30
0.0
 10
7.2682025624
 20
8.1862945208
 30
0.0
 10
7.2695799137
 20
8.1849240417
 30
0.0
 10
7.2709816206
 20
8.1837439631
 30
0.0
 10
7.2724064894
 20
8.1827558368
 30
0.0
 10
7.2738534611
 20
8.1819613742
 30
0.0
 10
7.2753211904
 20
8.1813621903
 30
0.0
 10
7.2768075315
 20
8.1809599216
 30
0.0
 10
7.2778127193
 20
8.1808235053
 30
0.0
 10
7.2783130633
 20
8.1807888176
 30
0.0
  0
SPLINE
  5
2FD
100
AcDbEntity
  8
0
100
AcDbSpline
 62
7
  6
CONTINUOUS
 70
0
 71
3
 72
15
 73
11
 74
0
 42
0.0000001
 43
0.0000001
 44
0.0000000001
 40
0.0
 40
0.0
 40
0.0
 40
0.0
 40
0.1090406038
 40
0.2198032751
 40
0.3339220778
 40
0.4528798207
 40
0.5779720534
 40
0.7102943883
 40
0.8507413743
 40
1.0
 40
1.0
 40
1.0
 40
1.0
 10
7.3037721777
 20
8.5479070707
 30
0.0
 10
7.3032718582
 20
8.5479417567
 30
0.0
 10
7.3022575059
 20
8.5479453518
 30
0.0
 10
7.3007299472
 20
8.5477520188
 30
0.0
 10
7.2991936436
 20
8.5473611638
 30
0.0
 10
7.2976509672
 20
8.5467740305
 30
0.0
 10
7.2961034059
 20
8.5459920858
 30
0.0
 10
7.2945522576
 20
8.5450167554
 30
0.0
 10
7.2929989739
 20
8.5438495082
 30
0.0
 10
7.2919944993
 20
8.5429721234
 30
0.0
 10
7.2914919675
 20
8.5425044244
 30
0.0
  0
SPLINE
  5
2FE
100
AcDbEntity
  8
0
100
AcDbSpline
 62
7
  6
CONTINUOUS
 70
0
 71
3
 72
15
 73
11
 74
0
 42
0.0000001
 43
0.0000001
 44
0.0000000001
 40
0.0
 40
0.0
 40
0.0
 40
0.0
 40
0.1097904372
 40
0.221211853
 40
0.3358166759
 40
0.4550209666
 40
0.5800711639
 40
0.7120298874
 40
0.8517777601
 40
1.0
 40
1.0
 40
1.0
 40
1.0
 10
7.4705321703
 20
8.1674583774
 30
0.0
 10
7.4710171882
 20
8.1674247461
 30
0.0
 10
7.471999855
 20
8.1674192601
 30
0.0
 10
7.4734797963
 20
8.1675976871
 30
0.0
 10
7.4749681815
 20
8.1679617324
 30
0.0
 10
7.4764628455
 20
8.1685103084
 30
0.0
 10
7.4779623799
 20
8.1692421589
 30
0.0
 10
7.4794655948
 20
8.1701559845
 30
0.0
 10
7.4809711386
 20
8.17125052
 30
0.0
 10
7.481945881
 20
8.1720745633
 30
0.0
 10
7.4824335213
 20
8.1725139123
 30
0.0
  0
SPLINE
  5
2FF
100
AcDbEntity
  8
0
100
AcDbSpline
 62
7
  6
CONTINUOUS
 70
0
 71
3
 72
23
 73
19
 74
0
 42
0.0000001
 43
0.0000001
 44
0.0000000001
 40
0.0
 40
0.0
 40
0.0
 40
0.0
 40
0.044765801
 40
0.0914476122
 40
0.1402607941
 40
0.1913872661
 40
0.2449701233
 40
0.3011107789
 40
0.3598685188
 40
0.4212624742
 40
0.4852753585
 40
0.5518583133
 40
0.6209364054
 40
0.6924143225
 40
0.7661819287
 40
0.8421191583
 40
0.9201011522
 40
1.0
 40
1.0
 40
1.0
 40
1.0
 10
8.5100407738
 20
8.7936562221
 30
0.0
 10
8.5113437813
 20
8.7958659226
 30
0.0
 10
8.514170079
 20
8.8002847068
 30
0.0
 10
8.5189515285
 20
8.8067520728
 30
0.0
 10
8.5243673882
 20
8.8131826005
 30
0.0
 10
8.5304223003
 20
8.8195712398
 30
0.0
 10
8.5371159272
 20
8.8259139486
 30
0.0
 10
8.5444424344
 20
8.8322069652
 30
0.0
 10
8.5523907767
 20
8.83844712
 30
0.0
 10
8.560945075
 20
8.8446318078
 30
0.0
 10
8.5700852241
 20
8.850759037
 30
0.0
 10
8.5797876026
 20
8.8568274507
 30
0.0
 10
8.5900258627
 20
8.8628363235
 30
0.0
 10
8.6007717384
 20
8.8687855373
 30
0.0
 10
8.6119958103
 20
8.8746755343
 30
0.0
 10
8.623668264
 20
8.88050726
 30
0.0
 10
8.6357593778
 20
8.8862820296
 30
0.0
 10
8.6439844754
 20
8.890051303
 30
0.0
 10
8.64816005
 20
8.8919294965
 30
0.0
  0
SPLINE
  5
300
100
AcDbEntity
  8
0
100
AcDbSpline
 62
7
  6
CONTINUOUS
 70
0
 71
3
 72
18
 73
14
 74
0
 42
0.0000001
 43
0.0000001
 44
0.0000000001
 40
0.0
 40
0.0
 40
0.0
 40
0.0
 40
0.1492441405
 40
0.289657348
 40
0.4219559619
 40
0.4853517452
 40
0.5470703661
 40
0.6660135726
 40
0.7801160693
 40
0.8358363731
 40
0.8909170693
 40
0.945566922
 40
1.0
 40
1.0
 40
1.0
 40
1.0
 10
8.1065321179
 20
8.7890941247
 30
0.0
 10
8.1078895849
 20
8.7903575306
 30
0.0
 10
8.1106027658
 20
8.7927275265
 30
0.0
 10
8.1147982614
 20
8.7958800748
 30
0.0
 10
8.1183388797
 20
8.7981063275
 30
0.0
 10
8.1211617232
 20
8.7996127562
 30
0.0
 10
8.1239052888
 20
8.80090711
 30
0.0
 10
8.1273353548
 20
8.8022126631
 30
0.0
 10
8.1308216513
 20
8.8030993742
 30
0.0
 10
8.1335837846
 20
8.8035339339
 30
0.0
 10
8.1356321676
 20
8.8037248843
 30
0.0
 10
8.1376724918
 20
8.8037832162
 30
0.0
 10
8.139028135
 20
8.8037336508
 30
0.0
 10
8.1397028716
 20
8.8036868575
 30
0.0
  0
SPLINE
  5
301
100
AcDbEntity
  8
0
100
AcDbSpline
 62
7
  6
CONTINUOUS
 70
0
 71
3
 72
32
 73
28
 74
0
 42
0.0000001
 43
0.0000001
 44
0.0000000001
 40
0.0
 40
0.0
 40
0.0
 40
0.0
 40
0.0162142663
 40
0.0334273113
 40
0.0516715916
 40
0.0709706937
 40
0.0913401365
 40
0.1127892434
 40
0.1353214863
 40
0.1589358576
 40
0.1836270004
 40
0.209386174
 40
0.2362012821
 40
0.2640575354
 40
0.2929374827
 40
0.3228214274
 40
0.353687547
 40
0.3855120951
 40
0.4182695712
 40
0.4519327532
 40
0.5218585053
 40
0.5950447662
 40
0.6712252703
 40
0.7501163222
 40
0.8314188285
 40
0.9148213227
 40
1.0
 40
1.0
 40
1.0
 40
1.0
 10
7.9883448181
 20
7.8947300071
 30
0.0
 10
7.9872622631
 20
7.8960610409
 30
0.0
 10
7.9851215683
 20
7.8988800608
 30
0.0
 10
7.982068756
 20
7.9034189185
 30
0.0
 10
7.979082989
 20
7.90838698
 30
0.0
 10
7.9761674656
 20
7.9137790438
 30
0.0
 10
7.9733248844
 20
7.9195896718
 30
0.0
 10
7.9705582436
 20
7.9258129497
 30
0.0
 10
7.9678702791
 20
7.9324424633
 30
0.0
 10
7.9652638657
 20
7.9394713852
 30
0.0
 10
7.9627416539
 20
7.9468924109
 30
0.0
 10
7.9603063527
 20
7.9546978288
 30
0.0
 10
7.9579604789
 20
7.9628794883
 30
0.0
 10
7.9557065493
 20
7.9714288388
 30
0.0
 10
7.9535469204
 20
7.9803369213
 30
0.0
 10
7.9514838984
 20
7.9895943935
 30
0.0
 10
7.9495196594
 20
7.9991915365
 30
0.0
 10
7.9476562922
 20
8.0091182665
 30
0.0
 10
7.945895754
 20
8.0193641614
 30
0.0
 10
7.9436596788
 20
8.0336175195
 30
0.0
 10
7.9411475045
 20
8.0521556405
 30
0.0
 10
7.9386063077
 20
8.075222269
 30
0.0
 10
7.9365127322
 20
8.0992860729
 30
0.0
 10
7.9348757827
 20
8.1242457306
 30
0.0
 10
7.9337025469
 20
8.1499963586
 30
0.0
 10
7.9329981323
 20
8.1764294271
 30
0.0
 10
7.9328445438
 20
8.1942679953
 30
0.0
 10
7.9328445438
 20
8.203281034
 30
0.0
  0
SPLINE
  5
302
100
AcDbEntity
  8
0
100
AcDbSpline
 62
7
  6
CONTINUOUS
 70
0
 71
3
 72
18
 73
14
 74
0
 42
0.0000001
 43
0.0000001
 44
0.0000000001
 40
0.0
 40
0.0
 40
0.0
 40
0.0
 40
0.0544332029
 40
0.1090832874
 40
0.1641642764
 40
0.2198846759
 40
0.3339876432
 40
0.4529310945
 40
0.5146495975
 40
0.5780457646
 40
0.7103440457
 40
0.8507569753
 40
1.0
 40
1.0
 40
1.0
 40
1.0
 10
8.0709334089
 20
7.8120686326
 30
0.0
 10
8.0702586951
 20
7.8121154244
 30
0.0
 10
8.0689092305
 20
7.8122534555
 30
0.0
 10
8.0668965633
 20
7.8125929177
 30
0.0
 10
8.0648942253
 20
7.813064828
 30
0.0
 10
8.062218595
 20
7.8138764447
 30
0.0
 10
8.0588881981
 20
7.8152359082
 30
0.0
 10
8.0556712937
 20
7.8170023745
 30
0.0
 10
8.0531327207
 20
7.8186629574
 30
0.0
 10
8.0505449639
 20
7.8205445919
 30
0.0
 10
8.047345615
 20
7.8232381115
 30
0.0
 10
8.0436255942
 20
7.8269394642
 30
0.0
 10
8.0412655995
 20
7.8296611523
 30
0.0
 10
8.0400955504
 20
7.8310997623
 30
0.0
  0
SPLINE
  5
303
100
AcDbEntity
  8
0
100
AcDbSpline
 62
7
  6
CONTINUOUS
 70
0
 71
3
 72
28
 73
24
 74
0
 42
0.0000001
 43
0.0000001
 44
0.0000000001
 40
0.0
 40
0.0
 40
0.0
 40
0.0
 40
0.0765533578
 40
0.1498671893
 40
0.219971327
 40
0.2869603437
 40
0.351011706
 40
0.4123917106
 40
0.4714984943
 40
0.5003606521
 40
0.5288637307
 40
0.5570993792
 40
0.5851661048
 40
0.6131631037
 40
0.6412032355
 40
0.6693977986
 40
0.69783432
 40
0.7557519933
 40
0.815350362
 40
0.8764502413
 40
0.9383212134
 40
0.9692570961
 40
1.0
 40
1.0
 40
1.0
 40
1.0
 10
7.4661268455
 20
8.4762086563
 30
0.0
 10
7.4668174154
 20
8.4781878457
 30
0.0
 10
7.4682202153
 20
8.4820450128
 30
0.0
 10
7.4704461183
 20
8.4876429684
 30
0.0
 10
7.472751757
 20
8.4929242302
 30
0.0
 10
7.4751430033
 20
8.4978874682
 30
0.0
 10
7.4776317454
 20
8.5025336515
 30
0.0
 10
7.4802338145
 20
8.5068678686
 30
0.0
 10
7.482538612
 20
8.5102496022
 30
0.0
 10
7.4844657218
 20
8.5127915294
 30
0.0
 10
7.485950039
 20
8.5146063801
 30
0.0
 10
7.4874915322
 20
8.5163439989
 30
0.0
 10
7.4890968191
 20
8.5180038068
 30
0.0
 10
7.4907756555
 20
8.5195816405
 30
0.0
 10
7.4925369777
 20
8.5210724382
 30
0.0
 10
7.4943889101
 20
8.5224697301
 30
0.0
 10
7.4970056573
 20
8.5242020521
 30
0.0
 10
7.5005548797
 20
8.5260705558
 30
0.0
 10
7.5052006417
 20
8.5276671523
 30
0.0
 10
7.5101612194
 20
8.5284691866
 30
0.0
 10
7.5144008736
 20
8.5283767356
 30
0.0
 10
7.5177441232
 20
8.5278355714
 30
0.0
 10
7.5193828018
 20
8.5274153042
 30
0.0
 10
7.5201880909
 20
8.5271700392
 30
0.0
  0
SPLINE
  5
304
100
AcDbEntity
  8
0
100
AcDbSpline
 62
7
  6
CONTINUOUS
 70
0
 71
3
 72
11
 73
7
 74
0
 42
0.0000001
 43
0.0000001
 44
0.0000000001
 40
0.0
 40
0.0
 40
0.0
 40
0.0
 40
0.2390555914
 40
0.485768371
 40
0.739596617
 40
1.0
 40
1.0
 40
1.0
 40
1.0
 10
7.9389063893
 20
8.0733678196
 30
0.0
 10
7.9368872298
 20
8.0747102046
 30
0.0
 10
7.9327530191
 20
8.0773912286
 30
0.0
 10
7.9263798805
 20
8.0813486791
 30
0.0
 10
7.9197536803
 20
8.0853067614
 30
0.0
 10
7.9152358293
 20
8.0879133966
 30
0.0
 10
7.9129394471
 20
8.0892181994
 30
0.0
  0
SPLINE
  5
305
100
AcDbEntity
  8
0
100
AcDbSpline
 62
7
  6
CONTINUOUS
 70
0
 71
3
 72
11
 73
7
 74
0
 42
0.0000001
 43
0.0000001
 44
0.0000000001
 40
0.0
 40
0.0
 40
0.0
 40
0.0
 40
0.2491316062
 40
0.4987820385
 40
0.7490409835
 40
1.0
 40
1.0
 40
1.0
 40
1.0
 10
7.9129394471
 20
8.0892181994
 30
0.0
 10
7.9151735509
 20
8.0968024263
 30
0.0
 10
7.9194136021
 20
8.1120567047
 30
0.0
 10
7.9249773887
 20
8.1351735028
 30
0.0
 10
7.9296399642
 20
8.1585490209
 30
0.0
 10
7.9320700429
 20
8.1742755778
 30
0.0
 10
7.9331001533
 20
8.18217311
 30
0.0
  0
SPLINE
  5
306
100
AcDbEntity
  8
0
100
AcDbSpline
 62
7
  6
CONTINUOUS
 70
0
 71
3
 72
12
 73
8
 74
0
 42
0.0000001
 43
0.0000001
 44
0.0000000001
 40
0.0
 40
0.0
 40
0.0
 40
0.0
 40
0.1242963914
 40
0.248825122
 40
0.4985036767
 40
0.748936552
 40
1.0
 40
1.0
 40
1.0
 40
1.0
 10
7.9351387159
 20
8.2883616191
 30
0.0
 10
7.9346974656
 20
8.2931709979
 30
0.0
 10
7.9336757028
 20
8.3027866158
 30
0.0
 10
7.9310993941
 20
8.3219859669
 30
0.0
 10
7.9269267159
 20
8.3459064817
 30
0.0
 10
7.9205850794
 20
8.3744048839
 30
0.0
 10
7.9155959125
 20
8.3932465005
 30
0.0
 10
7.9129394471
 20
8.4026329931
 30
0.0
  0
SPLINE
  5
307
100
AcDbEntity
  8
0
100
AcDbSpline
 62
7
  6
CONTINUOUS
 70
0
 71
3
 72
29
 73
25
 74
0
 42
0.0000001
 43
0.0000001
 44
0.0000000001
 40
0.0
 40
0.0
 40
0.0
 40
0.0
 40
0.0641876622
 40
0.1282577658
 40
0.1921812493
 40
0.2559235042
 40
0.319446291
 40
0.3511173572
 40
0.3827194222
 40
0.4142483989
 40
0.4457007555
 40
0.4770737185
 40
0.5083656637
 40
0.5395759557
 40
0.5707051508
 40
0.6017550057
 40
0.6327281058
 40
0.6636280466
 40
0.6944591526
 40
0.755925488
 40
0.8171762587
 40
0.8782501554
 40
0.939181597
 40
1.0
 40
1.0
 40
1.0
 40
1.0
 10
7.8147456064
 20
8.0960279654
 30
0.0
 10
7.8116971674
 20
8.1023362532
 30
0.0
 10
7.8058137788
 20
8.115043417
 30
0.0
 10
7.7977314357
 20
8.1344070268
 30
0.0
 10
7.790523637
 20
8.1540634832
 30
0.0
 10
7.7843300023
 20
8.1740019278
 30
0.0
 10
7.780132102
 20
8.1908466835
 30
0.0
 10
7.7774285017
 20
8.2044222977
 30
0.0
 10
7.7757453158
 20
8.2146344539
 30
0.0
 10
7.774419441
 20
8.2248751143
 30
0.0
 10
7.7734631048
 20
8.2351319017
 30
0.0
 10
7.7728852616
 20
8.2453911315
 30
0.0
 10
7.7726915997
 20
8.2556384333
 30
0.0
 10
7.7728842566
 20
8.2658591607
 30
0.0
 10
7.7734611473
 20
8.2760389194
 30
0.0
 10
7.7744166277
 20
8.286164085
 30
0.0
 10
7.7757417764
 20
8.2962221693
 30
0.0
 10
7.7774244026
 20
8.3062024138
 30
0.0
 10
7.7801219674
 20
8.3193786831
 30
0.0
 10
7.7843102117
 20
8.3356203817
 30
0.0
 10
7.7905042583
 20
8.3547128759
 30
0.0
 10
7.7977136395
 20
8.3733810358
 30
0.0
 10
7.8057980927
 20
8.3916329517
 30
0.0
 10
7.8116923925
 20
8.4035480724
 30
0.0
 10
7.8147456064
 20
8.4094427591
 30
0.0
  0
SPLINE
  5
308
100
AcDbEntity
  8
0
100
AcDbSpline
 62
7
  6
CONTINUOUS
 70
0
 71
3
 72
10
 73
6
 74
0
 42
0.0000001
 43
0.0000001
 44
0.0000000001
 40
0.0
 40
0.0
 40
0.0
 40
0.0
 40
0.255039383
 40
0.5069558221
 40
1.0
 40
1.0
 40
1.0
 40
1.0
 10
7.9129394471
 20
8.4026329931
 30
0.0
 10
7.9168088306
 20
8.4078651635
 30
0.0
 10
7.9243470211
 20
8.4183810144
 30
0.0
 10
7.9384851922
 20
8.4396237512
 30
0.0
 10
7.9480714197
 20
8.4560784812
 30
0.0
 10
7.9538253587
 20
8.4672658887
 30
0.0
  0
SPLINE
  5
309
100
AcDbEntity
  8
0
100
AcDbSpline
 62
7
  6
CONTINUOUS
 70
0
 71
3
 72
31
 73
27
 74
0
 42
0.0000001
 43
0.0000001
 44
0.0000000001
 40
0.0
 40
0.0
 40
0.0
 40
0.0
 40
0.057541594
 40
0.0862426387
 40
0.1149083733
 40
0.1721833028
 40
0.2008384447
 40
0.2295336721
 40
0.258297038
 40
0.2871607299
 40
0.3161603124
 40
0.3453337351
 40
0.3747207766
 40
0.4043612677
 40
0.4342933873
 40
0.4645524304
 40
0.4951689641
 40
0.5261675014
 40
0.5575660106
 40
0.5893752936
 40
0.6542233758
 40
0.7206862084
 40
0.7886517194
 40
0.8579682325
 40
0.9284708054
 40
1.0
 40
1.0
 40
1.0
 40
1.0
 10
7.8147456064
 20
8.4094427591
 30
0.0
 10
7.8131206741
 20
8.4140444832
 30
0.0
 10
7.8108558704
 20
8.4210042569
 30
0.0
 10
7.8082436623
 20
8.4303945199
 30
0.0
 10
7.8059290529
 20
8.4398391078
 30
0.0
 10
7.8040865277
 20
8.4493918562
 30
0.0
 10
7.8027889157
 20
8.4590284746
 30
0.0
 10
7.802104793
 20
8.4663019585
 30
0.0
 10
7.80172773
 20
8.4736156374
 30
0.0
 10
7.8016747219
 20
8.4809648982
 30
0.0
 10
7.8019619256
 20
8.4883437326
 30
0.0
 10
7.8026035844
 20
8.4957449468
 30
0.0
 10
7.8036119153
 20
8.503160166
 30
0.0
 10
7.8049964146
 20
8.5105799828
 30
0.0
 10
7.8067629857
 20
8.5179942821
 30
0.0
 10
7.8089141361
 20
8.5253924711
 30
0.0
 10
7.8114486471
 20
8.5327638499
 30
0.0
 10
7.8143611516
 20
8.5400981115
 30
0.0
 10
7.8176430393
 20
8.5473856713
 30
0.0
 10
7.8225264393
 20
8.5570896195
 30
0.0
 10
7.829502128
 20
8.5690542933
 30
0.0
 10
7.8390473749
 20
8.5830162489
 30
0.0
 10
7.8496699714
 20
8.5966575733
 30
0.0
 10
7.8612211542
 20
8.6099755296
 30
0.0
 10
7.8735640586
 20
8.6229803772
 30
0.0
 10
7.8821840655
 20
8.6313986957
 30
0.0
 10
7.886591405
 20
8.6355673646
 30
0.0
  0
LINE
  5
30A
100
AcDbEntity
  8
0
100
AcDbLine
 62
7
  6
CONTINUOUS
 10
7.886591405
 20
8.6355673646
 11
7.887473698
 21
8.6364001021
  0
SPLINE
  5
30B
100
AcDbEntity
  8
0
100
AcDbSpline
 62
7
  6
CONTINUOUS
 70
0
 71
3
 72
13
 73
9
 74
0
 42
0.0000001
 43
0.0000001
 44
0.0000000001
 40
0.0
 40
0.0
 40
0.0
 40
0.0
 40
0.2824003562
 40
0.5408828744
 40
0.6621483179
 40
0.778697928
 40
0.89110087
 40
1.0
 40
1.0
 40
1.0
 40
1.0
 10
7.8097448199
 20
8.5901417389
 30
0.0
 10
7.8108086196
 20
8.5911692906
 30
0.0
 10
7.8129336644
 20
8.5930501955
 30
0.0
 10
7.8157728526
 20
8.5950573813
 30
0.0
 10
7.8180358301
 20
8.5963399181
 30
0.0
 10
7.8196931923
 20
8.5971297226
 30
0.0
 10
7.8213456937
 20
8.597767175
 30
0.0
 10
7.8224591776
 20
8.5980947937
 30
0.0
 10
7.8230128831
 20
8.5982315482
 30
0.0
  0
SPLINE
  5
30C
100
AcDbEntity
  8
0
100
AcDbSpline
 62
7
  6
CONTINUOUS
 70
0
 71
3
 72
11
 73
7
 74
0
 42
0.0000001
 43
0.0000001
 44
0.0000000001
 40
0.0
 40
0.0
 40
0.0
 40
0.0
 40
0.2550881476
 40
0.5058424611
 40
0.7536619635
 40
1.0
 40
1.0
 40
1.0
 40
1.0
 10
7.8230128831
 20
8.5982315482
 30
0.0
 10
7.8234689003
 20
8.5983441755
 30
0.0
 10
7.8243816839
 20
8.5985348071
 30
0.0
 10
7.8257591871
 20
8.5987142721
 30
0.0
 10
7.8271304688
 20
8.5987842693
 30
0.0
 10
7.8280411807
 20
8.5987578557
 30
0.0
 10
7.8284937014
 20
8.598726478
 30
0.0
  0
SPLINE
  5
30D
100
AcDbEntity
  8
0
100
AcDbSpline
 62
7
  6
CONTINUOUS
 70
0
 71
3
 72
16
 73
12
 74
0
 42
0.0000001
 43
0.0000001
 44
0.0000000001
 40
0.0
 40
0.0
 40
0.0
 40
0.0
 40
0.1504790676
 40
0.2917468496
 40
0.4244951198
 40
0.4879700185
 40
0.54967612
 40
0.6683414766
 40
0.781881548
 40
0.8918563265
 40
1.0
 40
1.0
 40
1.0
 40
1.0
 10
7.8039492646
 20
8.590543662
 30
0.0
 10
7.8047153676
 20
8.5912836607
 30
0.0
 10
7.8062466097
 20
8.5926721463
 30
0.0
 10
7.8086175553
 20
8.5945225531
 30
0.0
 10
7.8106202795
 20
8.5958312739
 30
0.0
 10
7.8122172658
 20
8.5967174794
 30
0.0
 10
7.8137671937
 20
8.5974783232
 30
0.0
 10
7.8157053076
 20
8.5982470545
 30
0.0
 10
7.8180517954
 20
8.5988713729
 30
0.0
 10
7.8203850408
 20
8.5991831175
 30
0.0
 10
7.8219345073
 20
8.5991813518
 30
0.0
 10
7.8226981461
 20
8.5991284011
 30
0.0
  0
SPLINE
  5
30E
100
AcDbEntity
  8
0
100
AcDbSpline
 62
7
  6
CONTINUOUS
 70
0
 71
3
 72
16
 73
12
 74
0
 42
0.0000001
 43
0.0000001
 44
0.0000000001
 40
0.0
 40
0.0
 40
0.0
 40
0.0
 40
0.1081437318
 40
0.218118499
 40
0.3316585104
 40
0.4503238014
 40
0.5120298791
 40
0.5755047619
 40
0.7082530245
 40
0.8495208406
 40
1.0
 40
1.0
 40
1.0
 40
1.0
 10
7.8334258881
 20
8.5928712196
 30
0.0
 10
7.8326777436
 20
8.5929231007
 30
0.0
 10
7.8311597157
 20
8.5929248398
 30
0.0
 10
7.8288738107
 20
8.5926194323
 30
0.0
 10
7.8265749319
 20
8.5920077908
 30
0.0
 10
7.8246761414
 20
8.591254663
 30
0.0
 10
7.8231576606
 20
8.5905092607
 30
0.0
 10
7.8215930762
 20
8.5896410396
 30
0.0
 10
7.8196309858
 20
8.5883588754
 30
0.0
 10
7.8173081452
 20
8.5865460148
 30
0.0
 10
7.8158079713
 20
8.5851857014
 30
0.0
 10
7.8150574123
 20
8.584460717
 30
0.0
  0
SPLINE
  5
30F
100
AcDbEntity
  8
0
100
AcDbSpline
 62
7
  6
CONTINUOUS
 70
0
 71
3
 72
11
 73
7
 74
0
 42
0.0000001
 43
0.0000001
 44
0.0000000001
 40
0.0
 40
0.0
 40
0.0
 40
0.0
 40
0.2461429455
 40
0.4960154958
 40
0.747886331
 40
1.0
 40
1.0
 40
1.0
 40
1.0
 10
8.9928528231
 20
8.1021704677
 30
0.0
 10
8.9928528231
 20
8.1172556826
 30
0.0
 10
8.9932067354
 20
8.147655696
 30
0.0
 10
8.9947570939
 20
8.1934682393
 30
0.0
 10
8.9973208313
 20
8.239601699
 30
0.0
 10
8.9996974078
 20
8.2704003551
 30
0.0
 10
9.0010529987
 20
8.2857919135
 30
0.0
  0
SPLINE
  5
310
100
AcDbEntity
  8
0
100
AcDbSpline
 62
7
  6
CONTINUOUS
 70
0
 71
3
 72
62
 73
58
 74
0
 42
0.0000001
 43
0.0000001
 44
0.0000000001
 40
0.0
 40
0.0
 40
0.0
 40
0.0
 40
0.0027165016
 40
0.0054533868
 40
0.0082305326
 40
0.0110669018
 40
0.0169823803
 40
0.023327623
 40
0.0301994231
 40
0.0376704434
 40
0.0457929335
 40
0.0546030279
 40
0.0641240905
 40
0.0743694527
 40
0.0853446774
 40
0.0970488607
 40
0.1094759422
 40
0.1226155794
 40
0.1364536209
 40
0.1509728415
 40
0.1661531791
 40
0.1819720471
 40
0.1984047564
 40
0.2154245055
 40
0.2330027174
 40
0.2511092291
 40
0.2697122631
 40
0.2887787588
 40
0.3281627964
 40
0.368974896
 40
0.4109130912
 40
0.45366429
 40
0.496907511
 40
0.5403170141
 40
0.5835654813
 40
0.6263271404
 40
0.6682808736
 40
0.7091134541
 40
0.7485227261
 40
0.7676035398
 40
0.7862219863
 40
0.8043449056
 40
0.8219405789
 40
0.838978705
 40
0.855430656
 40
0.8712696629
 40
0.8864708332
 40
0.9010115944
 40
0.9148718188
 40
0.9280340717
 40
0.9404842248
 40
0.9522117373
 40
0.9632104051
 40
0.9734791328
 40
0.9830231771
 40
0.9918562224
 40
1.0
 40
1.0
 40
1.0
 40
1.0
 10
7.7966889364
 20
8.0631435702
 30
0.0
 10
7.7961934141
 20
8.0631779329
 30
0.0
 10
7.7952011863
 20
8.0632917746
 30
0.0
 10
7.7937254978
 20
8.0635964255
 30
0.0
 10
7.7922609082
 20
8.0640349011
 30
0.0
 10
7.7902973815
 20
8.0648078934
 30
0.0
 10
7.7878608131
 20
8.066130257
 30
0.0
 10
7.7850446866
 20
8.068221926
 30
0.0
 10
7.7822966355
 20
8.070833
 30
0.0
 10
7.7796199472
 20
8.0739568554
 30
0.0
 10
7.7770173813
 20
8.0775872436
 30
0.0
 10
7.7744927476
 20
8.0817174645
 30
0.0
 10
7.7720501497
 20
8.086339908
 30
0.0
 10
7.7696939192
 20
8.091445916
 30
0.0
 10
7.7674285631
 20
8.0970257923
 30
0.0
 10
7.7652584493
 20
8.1030687367
 30
0.0
 10
7.7631878856
 20
8.1095629415
 30
0.0
 10
7.7612210681
 20
8.1164956185
 30
0.0
 10
7.7593619185
 20
8.1238530197
 30
0.0
 10
7.7576142379
 20
8.1316205106
 30
0.0
 10
7.7559815821
 20
8.1397825908
 30
0.0
 10
7.7544672377
 20
8.1483229367
 30
0.0
 10
7.7530743286
 20
8.1572244483
 30
0.0
 10
7.7518056656
 20
8.1664692779
 30
0.0
 10
7.7506638222
 20
8.1760388775
 30
0.0
 10
7.7496511633
 20
8.1859140323
 30
0.0
 10
7.7487696864
 20
8.1960749254
 30
0.0
 10
7.7477609365
 20
8.2101284432
 30
0.0
 10
7.7468503223
 20
8.2282582468
 30
0.0
 10
7.746312638
 20
8.2505863208
 30
0.0
 10
7.7463234359
 20
8.2735364831
 30
0.0
 10
7.7468828263
 20
8.2969243366
 30
0.0
 10
7.7479865087
 20
8.3205620958
 30
0.0
 10
7.7496256907
 20
8.3442598834
 30
0.0
 10
7.7517871976
 20
8.3678273515
 30
0.0
 10
7.7544535938
 20
8.3910751946
 30
0.0
 10
7.7576033036
 20
8.4138167746
 30
0.0
 10
7.7612108241
 20
8.4358693949
 30
0.0
 10
7.7646095999
 20
8.4537122027
 30
0.0
 10
7.7675442715
 20
8.4675031389
 30
0.0
 10
7.7698168872
 20
8.4774544255
 30
0.0
 10
7.7721801751
 20
8.4871052283
 30
0.0
 10
7.7746293497
 20
8.4964361868
 30
0.0
 10
7.7771594784
 20
8.505428565
 30
0.0
 10
7.7797654569
 20
8.5140643255
 30
0.0
 10
7.7824419841
 20
8.5223261667
 30
0.0
 10
7.7851836929
 20
8.5301975403
 30
0.0
 10
7.7879850222
 20
8.537662719
 30
0.0
 10
7.7908403059
 20
8.544706818
 30
0.0
 10
7.7937438365
 20
8.5513158135
 30
0.0
 10
7.7966897343
 20
8.5574766346
 30
0.0
 10
7.7996721397
 20
8.563177148
 30
0.0
 10
7.8026851922
 20
8.5684061967
 30
0.0
 10
7.8057229148
 20
8.5731536766
 30
0.0
 10
7.8087797792
 20
8.5774107053
 30
0.0
 10
7.8118498525
 20
8.5811687562
 30
0.0
 10
7.8139863777
 20
8.583426177
 30
0.0
 10
7.8150574123
 20
8.584460717
 30
0.0
  0
SPLINE
  5
311
100
AcDbEntity
  8
0
100
AcDbSpline
 62
7
  6
CONTINUOUS
 70
0
 71
3
 72
9
 73
5
 74
0
 42
0.0000001
 43
0.0000001
 44
0.0000000001
 40
0.0
 40
0.0
 40
0.0
 40
0.0
 40
0.5177765934
 40
1.0
 40
1.0
 40
1.0
 40
1.0
 10
8.9903381069
 20
7.638810097
 30
0.0
 10
8.9920317794
 20
7.6364156128
 30
0.0
 10
8.9954519587
 20
7.6318938649
 30
0.0
 10
8.9992088285
 20
7.6276445299
 30
0.0
 10
9.0011094981
 20
7.6256827022
 30
0.0
  0
SPLINE
  5
312
100
AcDbEntity
  8
0
100
AcDbSpline
 62
7
  6
CONTINUOUS
 70
0
 71
3
 72
15
 73
11
 74
0
 42
0.0000001
 43
0.0000001
 44
0.0000000001
 40
0.0
 40
0.0
 40
0.0
 40
0.0
 40
0.1325275097
 40
0.2633478675
 40
0.3922220705
 40
0.5189381073
 40
0.6432802084
 40
0.7650385174
 40
0.8840105003
 40
1.0
 40
1.0
 40
1.0
 40
1.0
 10
8.9928528231
 20
8.1021704677
 30
0.0
 10
8.9928528231
 20
8.0947464636
 30
0.0
 10
8.9929375013
 20
8.0799939351
 30
0.0
 10
8.9933233362
 20
8.058025094
 30
0.0
 10
8.9939666007
 20
8.0363879213
 30
0.0
 10
8.994866021
 20
8.0151230825
 30
0.0
 10
8.996019916
 20
7.9942697221
 30
0.0
 10
8.9974261107
 20
7.9738666194
 30
0.0
 10
8.9990819683
 20
7.9539517436
 30
0.0
 10
9.0003672538
 20
7.9408518261
 30
0.0
 10
9.0010529987
 20
7.9343905456
 30
0.0
  0
SPLINE
  5
313
100
AcDbEntity
  8
0
100
AcDbSpline
 62
7
  6
CONTINUOUS
 70
0
 71
3
 72
44
 73
40
 74
0
 42
0.0000001
 43
0.0000001
 44
0.0000000001
 40
0.0
 40
0.0
 40
0.0
 40
0.0
 40
0.0379398673
 40
0.0762772714
 40
0.1149219653
 40
0.1537878318
 40
0.2318244867
 40
0.3096755332
 40
0.3483098174
 40
0.3866318027
 40
0.4245543502
 40
0.4619915176
 40
0.4988587811
 40
0.5350732882
 40
0.5705542241
 40
0.6052230374
 40
0.6390036963
 40
0.6718230024
 40
0.7036109874
 40
0.7343012058
 40
0.7638310934
 40
0.7921424099
 40
0.8191817658
 40
0.8449012069
 40
0.869258907
 40
0.8809163445
 40
0.8922209711
 40
0.9031696579
 40
0.9137600327
 40
0.9239902508
 40
0.9338592462
 40
0.9433668258
 40
0.9525135591
 40
0.9613011814
 40
0.9697324856
 40
0.9778115373
 40
0.9855439977
 40
0.9929370694
 40
1.0
 40
1.0
 40
1.0
 40
1.0
 10
7.976685181
 20
8.1836278402
 30
0.0
 10
7.976685181
 20
8.1915773973
 30
0.0
 10
7.9767914918
 20
8.2075599954
 30
0.0
 10
7.9772625939
 20
8.2316356512
 30
0.0
 10
7.9780452191
 20
8.2558973841
 30
0.0
 10
7.9795034677
 20
8.2884573265
 30
0.0
 10
7.9820870526
 20
8.3291866723
 30
0.0
 10
7.9856676017
 20
8.3697918446
 30
0.0
 10
7.9891234869
 20
8.402044796
 30
0.0
 10
7.9919916067
 20
8.4259446082
 30
0.0
 10
7.9951352788
 20
8.4495567039
 30
0.0
 10
7.9985468534
 20
8.4728235929
 30
0.0
 10
8.0022179837
 20
8.4956885745
 30
0.0
 10
8.0061397052
 20
8.5180959448
 30
0.0
 10
8.0103024141
 20
8.5399911271
 30
0.0
 10
8.0146959203
 20
8.5613208087
 30
0.0
 10
8.019309468
 20
8.5820330559
 30
0.0
 10
8.0241317699
 20
8.6020774518
 30
0.0
 10
8.0291510112
 20
8.6214052367
 30
0.0
 10
8.0343548839
 20
8.6399694286
 30
0.0
 10
8.0397306317
 20
8.6577249345
 30
0.0
 10
8.0452650835
 20
8.67462865
 30
0.0
 10
8.0509446828
 20
8.6906396689
 30
0.0
 10
8.0567555097
 20
8.7057191259
 30
0.0
 10
8.061765925
 20
8.7176472268
 30
0.0
 10
8.0658375984
 20
8.7266880246
 30
0.0
 10
8.0688705537
 20
8.7331139717
 30
0.0
 10
8.071925665
 20
8.7392808859
 30
0.0
 10
8.0750010309
 20
8.745185066
 30
0.0
 10
8.0780948198
 20
8.7508229279
 30
0.0
 10
8.0812051701
 20
8.7561910637
 30
0.0
 10
8.084330148
 20
8.761286268
 30
0.0
 10
8.0874679548
 20
8.7661054411
 30
0.0
 10
8.0906166521
 20
8.7706457242
 30
0.0
 10
8.0937743838
 20
8.7749044026
 30
0.0
 10
8.0969393279
 20
8.7788788927
 30
0.0
 10
8.1001095933
 20
8.7825669135
 30
0.0
 10
8.1032833212
 20
8.7859661064
 30
0.0
 10
8.1054488126
 20
8.7880858833
 30
0.0
 10
8.1065321179
 20
8.7890941247
 30
0.0
  0
SPLINE
  5
314
100
AcDbEntity
  8
0
100
AcDbSpline
 62
7
  6
CONTINUOUS
 70
0
 71
3
 72
57
 73
53
 74
0
 42
0.0000001
 43
0.0000001
 44
0.0000000001
 40
0.0
 40
0.0
 40
0.0
 40
0.0
 40
0.0075207663
 40
0.0156241058
 40
0.0243309763
 40
0.0336547824
 40
0.0436026294
 40
0.0541766099
 40
0.065374708
 40
0.077191284
 40
0.089617887
 40
0.102643323
 40
0.1162542917
 40
0.1304353861
 40
0.1451694461
 40
0.1604377409
 40
0.1762199618
 40
0.1924945933
 40
0.2092387557
 40
0.2264285615
 40
0.2620433265
 40
0.2991290214
 40
0.337462068
 40
0.3768084214
 40
0.4169257214
 40
0.4575654023
 40
0.4984747255
 40
0.5393988292
 40
0.5800827116
 40
0.6202732987
 40
0.6597214182
 40
0.698183907
 40
0.7354256451
 40
0.7712217353
 40
0.7885111668
 40
0.8053606877
 40
0.8217460634
 40
0.8376442722
 40
0.8530333669
 40
0.8678928521
 40
0.8822035396
 40
0.8959479179
 40
0.9091101964
 40
0.9216764776
 40
0.9336351691
 40
0.9449770151
 40
0.9556958437
 40
0.9657886339
 40
0.9752563615
 40
0.9841051295
 40
0.9923470632
 40
1.0
 40
1.0
 40
1.0
 40
1.0
 10
7.7956698608
 20
8.0722384653
 30
0.0
 10
7.7948336574
 20
8.0732666228
 30
0.0
 10
7.7931860309
 20
8.0754763296
 30
0.0
 10
7.7908674662
 20
8.0790860663
 30
0.0
 10
7.7886150468
 20
8.083105682
 30
0.0
 10
7.7864324278
 20
8.0875286318
 30
0.0
 10
7.7843228721
 20
8.0923480183
 30
0.0
 10
7.7822897682
 20
8.0975561176
 30
0.0
 10
7.7803364604
 20
8.1031445412
 30
0.0
 10
7.7784661041
 20
8.1091041875
 30
0.0
 10
7.7766818837
 20
8.1154253213
 30
0.0
 10
7.7749867037
 20
8.1220975533
 30
0.0
 10
7.7733834542
 20
8.1291098971
 30
0.0
 10
7.7718747956
 20
8.136450773
 30
0.0
 10
7.7704632557
 20
8.1441080422
 30
0.0
 10
7.769151234
 20
8.1520690272
 30
0.0
 10
7.7679408814
 20
8.1603205365
 30
0.0
 10
7.7668342947
 20
8.1688488808
 30
0.0
 10
7.7658332534
 20
8.1776399265
 30
0.0
 10
7.764627405
 20
8.189836359
 30
0.0
 10
7.7634055835
 20
8.2056313062
 30
0.0
 10
7.7623984763
 20
8.2251730514
 30
0.0
 10
7.7618408455
 20
8.245390519
 30
0.0
 10
7.7617365798
 20
8.2661494644
 30
0.0
 10
7.7620865604
 20
8.2873121559
 30
0.0
 10
7.7628885795
 20
8.3087380927
 30
0.0
 10
7.7641373832
 20
8.3302850184
 30
0.0
 10
7.7658247047
 20
8.351809857
 30
0.0
 10
7.7679393221
 20
8.3731696841
 30
0.0
 10
7.7704671315
 20
8.3942226842
 30
0.0
 10
7.7733912398
 20
8.4148290999
 30
0.0
 10
7.7766920606
 20
8.4348522302
 30
0.0
 10
7.7803474997
 20
8.4541591443
 30
0.0
 10
7.7837063651
 20
8.4697198623
 30
0.0
 10
7.7865603756
 20
8.4817088041
 30
0.0
 10
7.7887489572
 20
8.4903391102
 30
0.0
 10
7.7910067188
 20
8.4986979085
 30
0.0
 10
7.7933298697
 20
8.5067713462
 30
0.0
 10
7.7957145856
 20
8.5145460285
 30
0.0
 10
7.7981568296
 20
8.52200908
 30
0.0
 10
7.8006525722
 20
8.5291481388
 30
0.0
 10
7.8031976268
 20
8.5359514047
 30
0.0
 10
7.8057877461
 20
8.5424076486
 30
0.0
 10
7.8084186535
 20
8.5485062252
 30
0.0
 10
7.8110859168
 20
8.5542371319
 30
0.0
 10
7.8137851971
 20
8.5595909766
 30
0.0
 10
7.8165119845
 20
8.5645590657
 30
0.0
 10
7.8192618925
 20
8.5691333389
 30
0.0
 10
7.8220304318
 20
8.5733064852
 30
0.0
 10
7.8248134244
 20
8.5770720361
 30
0.0
 10
7.8276063974
 20
8.580423646
 30
0.0
 10
7.8295422672
 20
8.5824520133
 30
0.0
 10
7.8305122264
 20
8.583388922
 30
0.0
  0
SPLINE
  5
315
100
AcDbEntity
  8
0
100
AcDbSpline
 62
7
  6
CONTINUOUS
 70
0
 71
3
 72
24
 73
20
 74
0
 42
0.0000001
 43
0.0000001
 44
0.0000000001
 40
0.0
 40
0.0
 40
0.0
 40
0.0
 40
0.0756814178
 40
0.1115456994
 40
0.1461763336
 40
0.2120424484
 40
0.2740382771
 40
0.3330216253
 40
0.3899220081
 40
0.4456775473
 40
0.5011721056
 40
0.5571810106
 40
0.6143382453
 40
0.6731292744
 40
0.7338999206
 40
0.7968759281
 40
0.8621896329
 40
0.9298971217
 40
1.0
 40
1.0
 40
1.0
 40
1.0
 10
7.8086149769
 20
8.0563217621
 30
0.0
 10
7.8078883032
 20
8.0572153027
 30
0.0
 10
7.8068649153
 20
8.0585728361
 30
0.0
 10
7.8056475983
 20
8.0604355209
 30
0.0
 10
7.8045949141
 20
8.0622245672
 30
0.0
 10
7.8034987719
 20
8.0644466156
 30
0.0
 10
7.8025300253
 20
8.0671266859
 30
0.0
 10
7.801922818
 20
8.0697719326
 30
0.0
 10
7.8016665911
 20
8.0723786581
 30
0.0
 10
7.801747784
 20
8.0749433646
 30
0.0
 10
7.8021498148
 20
8.0774633062
 30
0.0
 10
7.8028544165
 20
8.0799372068
 30
0.0
 10
7.8038427831
 20
8.0823652594
 30
0.0
 10
7.8050963458
 20
8.0847487997
 30
0.0
 10
7.8065974677
 20
8.0870896938
 30
0.0
 10
7.8083293155
 20
8.0893901448
 30
0.0
 10
7.810276268
 20
8.0916521968
 30
0.0
 10
7.8124232881
 20
8.0938779831
 30
0.0
 10
7.8139526773
 20
8.0953142501
 30
0.0
 10
7.8147456064
 20
8.0960279654
 30
0.0
  0
SPLINE
  5
316
100
AcDbEntity
  8
0
100
AcDbSpline
 62
7
  6
CONTINUOUS
 70
0
 71
3
 72
62
 73
58
 74
0
 42
0.0000001
 43
0.0000001
 44
0.0000000001
 40
0.0
 40
0.0
 40
0.0
 40
0.0
 40
0.0027190466
 40
0.0054724574
 40
0.0082792065
 40
0.0111571371
 40
0.0171866535
 40
0.0236778317
 40
0.0307174935
 40
0.0383700595
 40
0.0466813497
 40
0.0556824751
 40
0.0653931288
 40
0.0758238
 40
0.0869778591
 40
0.0988528471
 40
0.1114413855
 40
0.1247321867
 40
0.1387104107
 40
0.1533582137
 40
0.1686552025
 40
0.1845785007
 40
0.2011032088
 40
0.2182025185
 40
0.235847811
 40
0.2540089947
 40
0.2726544656
 40
0.291751318
 40
0.3311609691
 40
0.3719540007
 40
0.4138316466
 40
0.4564845728
 40
0.4995959961
 40
0.5428447649
 40
0.5859084366
 40
0.6284663184
 40
0.6702025216
 40
0.7108090799
 40
0.7499890827
 40
0.768955644
 40
0.7874609494
 40
0.8054724331
 40
0.822958975
 40
0.83989087
 40
0.8562400191
 40
0.8719801956
 40
0.8870870219
 40
0.9015383771
 40
0.9153145848
 40
0.9283986076
 40
0.9407766636
 40
0.95243852
 40
0.9633782006
 40
0.9735947679
 40
0.9830935443
 40
0.9918881293
 40
1.0
 40
1.0
 40
1.0
 40
1.0
 10
7.7841093102
 20
8.0585383115
 30
0.0
 10
7.783607358
 20
8.0586059164
 30
0.0
 10
7.7826026482
 20
8.0587872589
 30
0.0
 10
7.7811129925
 20
8.059193265
 30
0.0
 10
7.7796351727
 20
8.0597340467
 30
0.0
 10
7.7776515702
 20
8.0606480866
 30
0.0
 10
7.7751946124
 20
8.062149511
 30
0.0
 10
7.7723599232
 20
8.0644526237
 30
0.0
 10
7.7695946725
 20
8.0672776895
 30
0.0
 10
7.7669023258
 20
8.0706182419
 30
0.0
 10
7.764285952
 20
8.0744679497
 30
0.0
 10
7.7617494711
 20
8.0788197723
 30
0.0
 10
7.7592971819
 20
8.0836657861
 30
0.0
 10
7.7569334528
 20
8.0889969418
 30
0.0
 10
7.7546627718
 20
8.0948031619
 30
0.0
 10
7.7524895667
 20
8.1010733088
 30
0.0
 10
7.7504180662
 20
8.1077952177
 30
0.0
 10
7.7484524421
 20
8.1149557761
 30
0.0
 10
7.7465966044
 20
8.1225409277
 30
0.0
 10
7.7448542575
 20
8.130535733
 30
0.0
 10
7.7432289485
 20
8.1389244111
 30
0.0
 10
7.7417239021
 20
8.1476903634
 30
0.0
 10
7.7403421636
 20
8.156816227
 30
0.0
 10
7.7390865312
 20
8.166283908
 30
0.0
 10
7.7379594916
 20
8.1760746207
 30
0.0
 10
7.7369633564
 20
8.1861689226
 30
0.0
 10
7.7361000903
 20
8.1965467833
 30
0.0
 10
7.7351183495
 20
8.2108849497
 30
0.0
 10
7.7342450014
 20
8.2293635845
 30
0.0
 10
7.7337570437
 20
8.2521008642
 30
0.0
 10
7.733822911
 20
8.2754473579
 30
0.0
 10
7.7344422677
 20
8.2992175833
 30
0.0
 10
7.7356103773
 20
8.3232228202
 30
0.0
 10
7.7373180193
 20
8.3472724001
 30
0.0
 10
7.7395516224
 20
8.3711753158
 30
0.0
 10
7.7422933702
 20
8.3947417229
 30
0.0
 10
7.7455213229
 20
8.417784551
 30
0.0
 10
7.7492096321
 20
8.4401207651
 30
0.0
 10
7.7526785053
 20
8.4581883012
 30
0.0
 10
7.7556704413
 20
8.4721499084
 30
0.0
 10
7.7579858572
 20
8.4822226614
 30
0.0
 10
7.7603923609
 20
8.4919903579
 30
0.0
 10
7.7628851369
 20
8.5014336236
 30
0.0
 10
7.7654592106
 20
8.5105337123
 30
0.0
 10
7.7681094601
 20
8.5192725733
 30
0.0
 10
7.7708305486
 20
8.5276328967
 30
0.0
 10
7.7736170785
 20
8.5355981272
 30
0.0
 10
7.7764634707
 20
8.5431525266
 30
0.0
 10
7.779364024
 20
8.550281204
 30
0.0
 10
7.7823130113
 20
8.556970126
 30
0.0
 10
7.7853045297
 20
8.5632062129
 30
0.0
 10
7.7883326915
 20
8.5689773225
 30
0.0
 10
7.7913916207
 20
8.5742722827
 30
0.0
 10
7.7944753131
 20
8.579080979
 30
0.0
 10
7.7975782229
 20
8.5833945125
 30
0.0
 10
7.8006943934
 20
8.5872043321
 30
0.0
 10
7.8028624561
 20
8.5894938855
 30
0.0
 10
7.8039492646
 20
8.590543662
 30
0.0
  0
SPLINE
  5
317
100
AcDbEntity
  8
0
100
AcDbSpline
 62
7
  6
CONTINUOUS
 70
0
 71
3
 72
11
 73
7
 74
0
 42
0.0000001
 43
0.0000001
 44
0.0000000001
 40
0.0
 40
0.0
 40
0.0
 40
0.0
 40
0.2460980694
 40
0.4937766235
 40
0.7445823014
 40
1.0
 40
1.0
 40
1.0
 40
1.0
 10
7.7909959384
 20
8.0580251709
 30
0.0
 10
7.7905282791
 20
8.0580575984
 30
0.0
 10
7.7895922083
 20
8.0581617599
 30
0.0
 10
7.7881988577
 20
8.0584348059
 30
0.0
 10
7.7868151355
 20
8.0588245414
 30
0.0
 10
7.7859093022
 20
8.0591584002
 30
0.0
 10
7.7854593667
 20
8.0593435329
 30
0.0
  0
SPLINE
  5
318
100
AcDbEntity
  8
0
100
AcDbSpline
 62
7
  6
CONTINUOUS
 70
0
 71
3
 72
59
 73
55
 74
0
 42
0.0000001
 43
0.0000001
 44
0.0000000001
 40
0.0
 40
0.0
 40
0.0
 40
0.0
 40
0.0057671546
 40
0.0119319998
 40
0.0185866478
 40
0.0258011812
 40
0.0336268516
 40
0.0420998419
 40
0.051244171
 40
0.0610744607
 40
0.0715978128
 40
0.0828151582
 40
0.0947226092
 40
0.1073120038
 40
0.1205717168
 40
0.1344871427
 40
0.1490408994
 40
0.1642133965
 40
0.1799828502
 40
0.1963255963
 40
0.2132163267
 40
0.230628052
 40
0.2485324637
 40
0.2668998981
 40
0.3048984636
 40
0.3443655912
 40
0.3850279344
 40
0.4266009143
 40
0.468791557
 40
0.5113012835
 40
0.5538286381
 40
0.5960719999
 40
0.6377323108
 40
0.678515815
 40
0.7181368129
 40
0.7563204787
 40
0.7747915946
 40
0.7928068071
 40
0.810336162
 40
0.8273509665
 40
0.8438240054
 40
0.8597294745
 40
0.8750433544
 40
0.8897434333
 40
0.9038094963
 40
0.9172237389
 40
0.9299707869
 40
0.9420382897
 40
0.9534173098
 40
0.9641027966
 40
0.9740944546
 40
0.9833978751
 40
0.9920262604
 40
1.0
 40
1.0
 40
1.0
 40
1.0
 10
7.7852334361
 20
8.0594381429
 30
0.0
 10
7.7842537345
 20
8.0598555525
 30
0.0
 10
7.7822943269
 20
8.0608840837
 30
0.0
 10
7.7794993768
 20
8.0628911676
 30
0.0
 10
7.7767686986
 20
8.0653982726
 30
0.0
 10
7.7741058606
 20
8.0683989375
 30
0.0
 10
7.7715133431
 20
8.0718874561
 30
0.0
 10
7.7689947465
 20
8.0758576907
 30
0.0
 10
7.7665537957
 20
8.0803027057
 30
0.0
 10
7.7641945879
 20
8.0852146985
 30
0.0
 10
7.7619212978
 20
8.0905848916
 30
0.0
 10
7.7597380046
 20
8.0964035235
 30
0.0
 10
7.7576488339
 20
8.1026599312
 30
0.0
 10
7.7556576737
 20
8.1093425234
 30
0.0
 10
7.7537683017
 20
8.1164388585
 30
0.0
 10
7.7519843519
 20
8.1239356692
 30
0.0
 10
7.7503091747
 20
8.131818887
 30
0.0
 10
7.7487460201
 20
8.140073694
 30
0.0
 10
7.7472978568
 20
8.1486845439
 30
0.0
 10
7.7459674425
 20
8.1576352022
 30
0.0
 10
7.7447573622
 20
8.166908781
 30
0.0
 10
7.7436698904
 20
8.1764877657
 30
0.0
 10
7.7427071162
 20
8.1863540757
 30
0.0
 10
7.7415794744
 20
8.2000222338
 30
0.0
 10
7.7405047998
 20
8.2176877756
 30
0.0
 10
7.7397485568
 20
8.2394894431
 30
0.0
 10
7.7395178217
 20
8.2619629812
 30
0.0
 10
7.7398145479
 20
8.2849385239
 30
0.0
 10
7.7406366845
 20
8.3082425327
 30
0.0
 10
7.7419781192
 20
8.3316988961
 30
0.0
 10
7.7438287543
 20
8.3551303493
 30
0.0
 10
7.7461745813
 20
8.3783598181
 30
0.0
 10
7.7489977764
 20
8.4012117655
 30
0.0
 10
7.752276822
 20
8.4235136093
 30
0.0
 10
7.75598674
 20
8.4450968021
 30
0.0
 10
7.7594508521
 20
8.4625359759
 30
0.0
 10
7.7624250231
 20
8.4759997603
 30
0.0
 10
7.7647202746
 20
8.4857065772
 30
0.0
 10
7.7671003976
 20
8.4951158093
 30
0.0
 10
7.7695609151
 20
8.5042096941
 30
0.0
 10
7.7720971032
 20
8.512971064
 30
0.0
 10
7.77470419
 20
8.5213833825
 30
0.0
 10
7.7773771886
 20
8.5294307964
 30
0.0
 10
7.7801110185
 20
8.5370981537
 30
0.0
 10
7.7829005215
 20
8.5443710322
 30
0.0
 10
7.7857403519
 20
8.5512358009
 30
0.0
 10
7.7886251804
 20
8.5576796061
 30
0.0
 10
7.7915495396
 20
8.5636904531
 30
0.0
 10
7.7945079256
 20
8.5692572173
 30
0.0
 10
7.7974949076
 20
8.5743696298
 30
0.0
 10
7.8005048944
 20
8.5790184048
 30
0.0
 10
7.803532744
 20
8.5831953472
 30
0.0
 10
7.8065729187
 20
8.5868925442
 30
0.0
 10
7.8086858139
 20
8.5891188176
 30
0.0
 10
7.8097448199
 20
8.5901417389
 30
0.0
  0
SPLINE
  5
319
100
AcDbEntity
  8
0
100
AcDbSpline
 62
7
  6
CONTINUOUS
 70
0
 71
3
 72
23
 73
19
 74
0
 42
0.0000001
 43
0.0000001
 44
0.0000000001
 40
0.0
 40
0.0
 40
0.0
 40
0.0
 40
0.0584828017
 40
0.1171639919
 40
0.1761125581
 40
0.2354082221
 40
0.2951395634
 40
0.3553999182
 40
0.4162816899
 40
0.4778695326
 40
0.5402336448
 40
0.6034243344
 40
0.6674689374
 40
0.7323715619
 40
0.798115379
 40
0.8646666539
 40
0.9319793305
 40
1.0
 40
1.0
 40
1.0
 40
1.0
 10
8.9903381069
 20
7.638810097
 30
0.0
 10
8.99186574
 20
7.6470954955
 30
0.0
 10
8.994635698
 20
7.6637497975
 30
0.0
 10
8.99783889
 20
7.6889241205
 30
0.0
 10
9.0000062487
 20
7.7143276768
 30
0.0
 10
9.0010495866
 20
7.7399545977
 30
0.0
 10
9.0008873752
 20
7.765792223
 30
0.0
 10
8.9994499987
 20
7.7918199324
 30
0.0
 10
8.9966852957
 20
7.8180096291
 30
0.0
 10
8.9925633126
 20
7.8443270613
 30
0.0
 10
8.9870791377
 20
7.8707340851
 30
0.0
 10
8.9802534541
 20
7.8971914293
 30
0.0
 10
8.9721305944
 20
7.9236614424
 30
0.0
 10
8.9627746357
 20
7.9501103915
 30
0.0
 10
8.9522641219
 20
7.9765099145
 30
0.0
 10
8.9406864947
 20
8.002837748
 30
0.0
 10
8.9281332351
 20
8.0290773674
 30
0.0
 10
8.9192185409
 20
8.0464191188
 30
0.0
 10
8.9146282622
 20
8.0550765611
 30
0.0
  0
SPLINE
  5
31A
100
AcDbEntity
  8
0
100
AcDbSpline
 62
7
  6
CONTINUOUS
 70
0
 71
3
 72
22
 73
18
 74
0
 42
0.0000001
 43
0.0000001
 44
0.0000000001
 40
0.0
 40
0.0
 40
0.0
 40
0.0
 40
0.1231559704
 40
0.184896756
 40
0.2467573792
 40
0.3087486028
 40
0.3708798247
 40
0.4331582961
 40
0.4955883974
 40
0.5581711934
 40
0.6209042827
 40
0.6837820216
 40
0.746796112
 40
0.8099363589
 40
0.873191502
 40
0.9365498157
 40
1.0
 40
1.0
 40
1.0
 40
1.0
 10
8.4085181595
 20
8.1440962246
 30
0.0
 10
8.4054625869
 20
8.1674940374
 30
0.0
 10
8.4017411097
 20
8.2027470833
 30
0.0
 10
8.3988533857
 20
8.2499429086
 30
0.0
 10
8.3978080325
 20
8.2854934942
 30
0.0
 10
8.3979665021
 20
8.3211343063
 30
0.0
 10
8.399398196
 20
8.3568276313
 30
0.0
 10
8.4021554781
 20
8.3925278929
 30
0.0
 10
8.4062688366
 20
8.4281847618
 30
0.0
 10
8.4117439966
 20
8.4637461223
 30
0.0
 10
8.4185611795
 20
8.4991617627
 30
0.0
 10
8.426676844
 20
8.5343867817
 30
0.0
 10
8.4360274306
 20
8.56938426
 30
0.0
 10
8.4465345926
 20
8.6041267127
 30
0.0
 10
8.4581108001
 20
8.6385964574
 30
0.0
 10
8.4706643212
 20
8.6727845952
 30
0.0
 10
8.4796181612
 20
8.6953738477
 30
0.0
 10
8.4842280043
 20
8.7066228861
 30
0.0
  0
SPLINE
  5
31B
100
AcDbEntity
  8
0
100
AcDbSpline
 62
7
  6
CONTINUOUS
 70
0
 71
3
 72
22
 73
18
 74
0
 42
0.0000001
 43
0.0000001
 44
0.0000000001
 40
0.0
 40
0.0
 40
0.0
 40
0.0
 40
0.0634501843
 40
0.126808498
 40
0.1900636412
 40
0.2532038881
 40
0.3162179784
 40
0.3790957173
 40
0.4418288066
 40
0.5044116026
 40
0.5668417039
 40
0.6291201753
 40
0.6912513972
 40
0.7532426208
 40
0.815103244
 40
0.8768440296
 40
1.0
 40
1.0
 40
1.0
 40
1.0
 10
8.9146282622
 20
8.1089973697
 30
0.0
 10
8.9192381052
 20
8.1202464082
 30
0.0
 10
8.9281919452
 20
8.1428356607
 30
0.0
 10
8.9407454663
 20
8.1770237984
 30
0.0
 10
8.9523216738
 20
8.2114935432
 30
0.0
 10
8.9628288358
 20
8.2462359958
 30
0.0
 10
8.9721794224
 20
8.2812334741
 30
0.0
 10
8.980295087
 20
8.3164584932
 30
0.0
 10
8.9871122698
 20
8.3518741335
 30
0.0
 10
8.9925874299
 20
8.387435494
 30
0.0
 10
8.9967007883
 20
8.4230923629
 30
0.0
 10
8.9994580704
 20
8.4587926246
 30
0.0
 10
9.0008897643
 20
8.4944859496
 30
0.0
 10
9.0010482339
 20
8.5301267617
 30
0.0
 10
9.0000028807
 20
8.5656773473
 30
0.0
 10
8.9971151567
 20
8.6128731726
 30
0.0
 10
8.9933936795
 20
8.6481262184
 30
0.0
 10
8.9903381069
 20
8.6715240313
 30
0.0
  0
SPLINE
  5
31C
100
AcDbEntity
  8
0
100
AcDbSpline
 62
7
  6
CONTINUOUS
 70
0
 71
3
 72
15
 73
11
 74
0
 42
0.0000001
 43
0.0000001
 44
0.0000000001
 40
0.0
 40
0.0
 40
0.0
 40
0.0
 40
0.1195236405
 40
0.2395019873
 40
0.3604162615
 40
0.4828163655
 40
0.6073096834
 40
0.7345492423
 40
0.8652164178
 40
1.0
 40
1.0
 40
1.0
 40
1.0
 10
8.4967403604
 20
8.7456692991
 30
0.0
 10
8.4967516974
 20
8.7476768783
 30
0.0
 10
8.4968915247
 20
8.7517001278
 30
0.0
 10
8.4974740372
 20
8.7577297348
 30
0.0
 10
8.4984517835
 20
8.7637575354
 30
0.0
 10
8.4998469625
 20
8.7697807528
 30
0.0
 10
8.5016812638
 20
8.7757964819
 30
0.0
 10
8.5039753572
 20
8.7818014152
 30
0.0
 10
8.5067481447
 20
8.7877915924
 30
0.0
 10
8.5088908294
 20
8.7917060932
 30
0.0
 10
8.5100407738
 20
8.7936562221
 30
0.0
  0
SPLINE
  5
31D
100
AcDbEntity
  8
0
100
AcDbSpline
 62
7
  6
CONTINUOUS
 70
0
 71
3
 72
16
 73
12
 74
0
 42
0.0000001
 43
0.0000001
 44
0.0000000001
 40
0.0
 40
0.0
 40
0.0
 40
0.0
 40
0.1081437818
 40
0.2181192518
 40
0.3316583353
 40
0.450322736
 40
0.5120288749
 40
0.5755043833
 40
0.7082566512
 40
0.8495256013
 40
1.0
 40
1.0
 40
1.0
 40
1.0
 10
7.4959915723
 20
8.5345766102
 30
0.0
 10
7.4954730925
 20
8.5346125618
 30
0.0
 10
7.494421062
 20
8.5346137732
 30
0.0
 10
7.4928368973
 20
8.5344020302
 30
0.0
 10
7.491243725
 20
8.5339781889
 30
0.0
 10
7.4899278441
 20
8.5334562238
 30
0.0
 10
7.4888755097
 20
8.5329396413
 30
0.0
 10
7.4877912009
 20
8.5323379352
 30
0.0
 10
7.4864314247
 20
8.53144933
 30
0.0
 10
7.4848216505
 20
8.5301929774
 30
0.0
 10
7.4837820075
 20
8.5292502694
 30
0.0
 10
7.4832618713
 20
8.5287478564
 30
0.0
  0
SPLINE
  5
31E
100
AcDbEntity
  8
0
100
AcDbSpline
 62
7
  6
CONTINUOUS
 70
0
 71
3
 72
54
 73
50
 74
0
 42
0.0000001
 43
0.0000001
 44
0.0000000001
 40
0.0
 40
0.0
 40
0.0
 40
0.0
 40
0.0076527902
 40
0.0158948516
 40
0.0247437795
 40
0.0342114395
 40
0.0443042475
 40
0.0550230669
 40
0.0663649948
 40
0.0783236584
 40
0.0908900014
 40
0.1040522731
 40
0.1177966805
 40
0.1321073936
 40
0.1469668976
 40
0.1623560391
 40
0.1946385839
 40
0.2287766697
 40
0.2645728223
 40
0.3018146151
 40
0.3402771888
 40
0.3797253798
 40
0.4199160408
 40
0.4606000161
 40
0.5015241918
 40
0.5424336242
 40
0.5830733954
 40
0.6231907984
 40
0.6625372717
 40
0.7008704183
 40
0.7379562471
 40
0.7735711474
 40
0.8075043117
 40
0.8237789729
 40
0.8395613137
 40
0.8548296238
 40
0.8695637904
 40
0.8837449211
 40
0.8973559875
 40
0.9103814825
 40
0.9228081666
 40
0.9346247999
 40
0.9458229724
 40
0.9563970172
 40
0.9663449585
 40
0.9756688036
 40
0.9843757691
 40
0.9924791423
 40
1.0
 40
1.0
 40
1.0
 40
1.0
 10
7.2910426205
 20
8.5420783067
 30
0.0
 10
7.290370423
 20
8.5414290137
 30
0.0
 10
7.2890288199
 20
8.5400232874
 30
0.0
 10
7.2870931785
 20
8.5377005243
 30
0.0
 10
7.2851644738
 20
8.5350908589
 30
0.0
 10
7.2832457713
 20
8.532198744
 30
0.0
 10
7.2813400365
 20
8.5290286262
 30
0.0
 10
7.2794502541
 20
8.5255856021
 30
0.0
 10
7.2775795968
 20
8.5218752111
 30
0.0
 10
7.2757310735
 20
8.5179035224
 30
0.0
 10
7.2739077949
 20
8.5136770168
 30
0.0
 10
7.2721127461
 20
8.5092026462
 30
0.0
 10
7.27034895
 20
8.504487774
 30
0.0
 10
7.2686193275
 20
8.4995401878
 30
0.0
 10
7.2669267517
 20
8.494368061
 30
0.0
 10
7.2646873912
 20
8.487066954
 30
0.0
 10
7.2620111684
 20
8.477439204
 30
0.0
 10
7.2590389309
 20
8.4653135504
 30
0.0
 10
7.2562768836
 20
8.4525181391
 30
0.0
 10
7.2537435607
 20
8.4391378035
 30
0.0
 10
7.2514559827
 20
8.4252611715
 30
0.0
 10
7.2494294827
 20
8.410980285
 30
0.0
 10
7.2476776283
 20
8.3963899062
 30
0.0
 10
7.2462121261
 20
8.381586886
 30
0.0
 10
7.2450427521
 20
8.3666695038
 30
0.0
 10
7.2441772847
 20
8.3517368147
 30
0.0
 10
7.2436214526
 20
8.33688797
 30
0.0
 10
7.2433788988
 20
8.3222215627
 30
0.0
 10
7.2434511489
 20
8.3078349544
 30
0.0
 10
7.2438376054
 20
8.2938236296
 30
0.0
 10
7.2445355217
 20
8.2802805011
 30
0.0
 10
7.2455400986
 20
8.2672954496
 30
0.0
 10
7.2466416508
 20
8.2568709188
 30
0.0
 10
7.2476786289
 20
8.2488787421
 30
0.0
 10
7.2485174215
 20
8.2431601718
 30
0.0
 10
7.2494267127
 20
8.2376429494
 30
0.0
 10
7.250404925
 20
8.2323362104
 30
0.0
 10
7.2514504883
 20
8.2272487403
 30
0.0
 10
7.2525615701
 20
8.2223889506
 30
0.0
 10
7.2537363898
 20
8.217764869
 30
0.0
 10
7.2549728984
 20
8.2133841089
 30
0.0
 10
7.2562691145
 20
8.2092538719
 30
0.0
 10
7.2576228064
 20
8.2053809008
 30
0.0
 10
7.2590318174
 20
8.2017715077
 30
0.0
 10
7.2604937857
 20
8.1984314964
 30
0.0
 10
7.262006426
 20
8.1953662412
 30
0.0
 10
7.2635673926
 20
8.1925804895
 30
0.0
 10
7.2651742574
 20
8.1900788243
 30
0.0
 10
7.2663160847
 20
8.188547393
 30
0.0
 10
7.2668956074
 20
8.1878348424
 30
0.0
  0
SPLINE
  5
31F
100
AcDbEntity
  8
0
100
AcDbSpline
 62
7
  6
CONTINUOUS
 70
0
 71
3
 72
61
 73
57
 74
0
 42
0.0000001
 43
0.0000001
 44
0.0000000001
 40
0.0
 40
0.0
 40
0.0
 40
0.0
 40
0.0081436402
 40
0.0169768495
 40
0.0265210187
 40
0.0367896761
 40
0.0477883699
 40
0.0595159581
 40
0.0719661045
 40
0.0851284445
 40
0.0989886631
 40
0.1135294929
 40
0.1287307232
 40
0.1445697468
 40
0.1610217784
 40
0.1780599293
 40
0.1956556783
 40
0.2137786471
 40
0.2514769729
 40
0.2908863676
 40
0.3317190628
 40
0.3736729198
 40
0.4164346711
 40
0.4596832541
 40
0.5030928439
 40
0.5463361586
 40
0.5890874276
 40
0.6310256915
 40
0.6718378295
 40
0.711221914
 40
0.7302884051
 40
0.7488914667
 40
0.7669979409
 40
0.7845761899
 40
0.8015959125
 40
0.8180285916
 40
0.8338474761
 40
0.8490277583
 40
0.8635469848
 40
0.8773849706
 40
0.8905245762
 40
0.9029516214
 40
0.9146557615
 40
0.9256309342
 40
0.9358762431
 40
0.9453972753
 40
0.9542072844
 40
0.962329759
 40
0.969800693
 40
0.9766724624
 40
0.9830176774
 40
0.9889331039
 40
0.9917694714
 40
0.9945466187
 40
0.9972834935
 40
1.0
 40
1.0
 40
1.0
 40
1.0
 10
7.4832618713
 20
8.5287478564
 30
0.0
 10
7.4825196229
 20
8.5280308995
 30
0.0
 10
7.4810389528
 20
8.5264664219
 30
0.0
 10
7.478911262
 20
8.5238619757
 30
0.0
 10
7.4767927515
 20
8.5209116895
 30
0.0
 10
7.4746875073
 20
8.5176215276
 30
0.0
 10
7.4725993669
 20
8.5139976257
 30
0.0
 10
7.470532468
 20
8.5100469745
 30
0.0
 10
7.4684908397
 20
8.5057773211
 30
0.0
 10
7.4664786273
 20
8.5011970556
 30
0.0
 10
7.4644997967
 20
8.4963152628
 30
0.0
 10
7.4625583941
 20
8.4911416374
 30
0.0
 10
7.4606583031
 20
8.4856865065
 30
0.0
 10
7.4588033672
 20
8.4799607732
 30
0.0
 10
7.4569973562
 20
8.473975896
 30
0.0
 10
7.4552438817
 20
8.4677438756
 30
0.0
 10
7.453546519
 20
8.4612771984
 30
0.0
 10
7.4513336518
 20
8.452240367
 30
0.0
 10
7.4487414618
 20
8.4404523242
 30
0.0
 10
7.445944393
 20
8.4257691055
 30
0.0
 10
7.4434442962
 20
8.4104858035
 30
0.0
 10
7.4412614421
 20
8.3947251497
 30
0.0
 10
7.439413545
 20
8.3786136079
 30
0.0
 10
7.4379155553
 20
8.362280569
 30
0.0
 10
7.436779562
 20
8.3458572115
 30
0.0
 10
7.4360146867
 20
8.3294754624
 30
0.0
 10
7.4356270203
 20
8.3132669083
 30
0.0
 10
7.4356195484
 20
8.2973616952
 30
0.0
 10
7.4359921988
 20
8.2818876127
 30
0.0
 10
7.4366232871
 20
8.2693230734
 30
0.0
 10
7.4373224047
 20
8.2595835326
 30
0.0
 10
7.437933287
 20
8.2525417123
 30
0.0
 10
7.4386351228
 20
8.2456979165
 30
0.0
 10
7.4394264462
 20
8.2390658827
 30
0.0
 10
7.4403056878
 20
8.2326589274
 30
0.0
 10
7.4412710318
 20
8.2264899049
 30
0.0
 10
7.4423205145
 20
8.220571182
 30
0.0
 10
7.4434520267
 20
8.2149146119
 30
0.0
 10
7.4446632154
 20
8.2095315058
 30
0.0
 10
7.4459516874
 20
8.2044326095
 30
0.0
 10
7.447314759
 20
8.1996280622
 30
0.0
 10
7.4487497366
 20
8.1951273906
 30
0.0
 10
7.4502537035
 20
8.1909394595
 30
0.0
 10
7.4518236764
 20
8.1870724519
 30
0.0
 10
7.4534566345
 20
8.1835338532
 30
0.0
 10
7.4551494255
 20
8.1803303727
 30
0.0
 10
7.4568991143
 20
8.177468042
 30
0.0
 10
7.4587027511
 20
8.1749520793
 30
0.0
 10
7.4605578192
 20
8.172787202
 30
0.0
 10
7.4624623032
 20
8.1709776718
 30
0.0
 10
7.4644139694
 20
8.1695280989
 30
0.0
 10
7.4661026138
 20
8.168611727
 30
0.0
 10
7.4674633971
 20
8.1680760339
 30
0.0
 10
7.4684784003
 20
8.1677721445
 30
0.0
 10
7.4695011115
 20
8.1675610686
 30
0.0
 10
7.4701887569
 20
8.1674821899
 30
0.0
 10
7.4705321703
 20
8.1674583774
 30
0.0
  0
SPLINE
  5
320
100
AcDbEntity
  8
0
100
AcDbSpline
 62
7
  6
CONTINUOUS
 70
0
 71
3
 72
33
 73
29
 74
0
 42
0.0000001
 43
0.0000001
 44
0.0000000001
 40
0.0
 40
0.0
 40
0.0
 40
0.0
 40
0.0162143479
 40
0.0334273635
 40
0.0516717322
 40
0.0709708051
 40
0.0913403224
 40
0.1127893759
 40
0.1353216731
 40
0.1589359973
 40
0.1836271899
 40
0.2093863102
 40
0.2362014379
 40
0.264057619
 40
0.2929375661
 40
0.3228214511
 40
0.3536875615
 40
0.3855120366
 40
0.4182694705
 40
0.4519325691
 40
0.4864727367
 40
0.5218597049
 40
0.5950458046
 40
0.6712261434
 40
0.7501169511
 40
0.8314193876
 40
0.9148213747
 40
1.0
 40
1.0
 40
1.0
 40
1.0
 10
8.0400955504
 20
7.8310997623
 30
0.0
 10
8.0388586935
 20
7.8326205145
 30
0.0
 10
8.0364129436
 20
7.8358413771
 30
0.0
 10
8.032924975
 20
7.8410271453
 30
0.0
 10
8.0295137159
 20
7.846703345
 30
0.0
 10
8.0261826114
 20
7.8528639337
 30
0.0
 10
8.0229349403
 20
7.859502774
 30
0.0
 10
8.0197739447
 20
7.8666130471
 30
0.0
 10
8.0167029222
 20
7.8741874757
 30
0.0
 10
8.0137249958
 20
7.8822182216
 30
0.0
 10
8.0108433423
 20
7.8906969688
 30
0.0
 10
8.0080609221
 20
7.899614882
 30
0.0
 10
8.0053807345
 20
7.9089626644
 30
0.0
 10
8.0028055418
 20
7.9187305358
 30
0.0
 10
8.0003381382
 20
7.9289082712
 30
0.0
 10
7.9979810665
 20
7.9394851918
 30
0.0
 10
7.995736896
 20
7.9504501944
 30
0.0
 10
7.9936079351
 20
7.961791758
 30
0.0
 10
7.9915965112
 20
7.9734979613
 30
0.0
 10
7.9897046919
 20
7.9855564908
 30
0.0
 10
7.9879345309
 20
7.9979546696
 30
0.0
 10
7.985714131
 20
8.0151136631
 30
0.0
 10
7.9832681596
 20
8.0373174471
 30
0.0
 10
7.9808761629
 20
8.0648108544
 30
0.0
 10
7.9790059176
 20
8.0933279651
 30
0.0
 10
7.9776654724
 20
8.1227486977
 30
0.0
 10
7.9768606569
 20
8.1529491734
 30
0.0
 10
7.976685181
 20
8.1733301879
 30
0.0
 10
7.976685181
 20
8.1836278402
 30
0.0
  0
SPLINE
  5
321
100
AcDbEntity
  8
0
100
AcDbSpline
 62
7
  6
CONTINUOUS
 70
0
 71
3
 72
22
 73
18
 74
0
 42
0.0000001
 43
0.0000001
 44
0.0000000001
 40
0.0
 40
0.0
 40
0.0
 40
0.0
 40
0.0664209087
 40
0.1321992515
 40
0.1973362937
 40
0.2618424889
 40
0.3257376869
 40
0.3890507489
 40
0.4518185551
 40
0.5140844911
 40
0.5758965809
 40
0.6373054528
 40
0.6983623597
 40
0.7591173978
 40
0.8196181093
 40
0.8799082683
 40
1.0
 40
1.0
 40
1.0
 40
1.0
 10
8.4329545714
 20
7.7878963951
 30
0.0
 10
8.4306478944
 20
7.7942925252
 30
0.0
 10
8.4262414744
 20
7.8070905152
 30
0.0
 10
8.4202583563
 20
7.8263884135
 30
0.0
 10
8.414958485
 20
7.8456823288
 30
0.0
 10
8.4103617826
 20
7.864957839
 30
0.0
 10
8.4064818244
 20
7.8842000814
 30
0.0
 10
8.4033253142
 20
7.9033939411
 30
0.0
 10
8.4008917241
 20
7.9225247075
 30
0.0
 10
8.3991733577
 20
7.9415786092
 30
0.0
 10
8.3981557661
 20
7.9605433177
 30
0.0
 10
8.3978184869
 20
7.9794083216
 30
0.0
 10
8.3981360137
 20
7.9981652059
 30
0.0
 10
8.3990788886
 20
8.0168076287
 30
0.0
 10
8.4006149447
 20
8.0353317282
 30
0.0
 10
8.4034045061
 20
8.0598348027
 30
0.0
 10
8.4062890955
 20
8.0780856776
 30
0.0
 10
8.4085181595
 20
8.0901754159
 30
0.0
  0
SPLINE
  5
322
100
AcDbEntity
  8
0
100
AcDbSpline
 62
7
  6
CONTINUOUS
 70
0
 71
3
 72
21
 73
17
 74
0
 42
0.0000001
 43
0.0000001
 44
0.0000000001
 40
0.0
 40
0.0
 40
0.0
 40
0.0
 40
0.1273176984
 40
0.2537999461
 40
0.3167619614
 40
0.3795355204
 40
0.4421314992
 40
0.5045621453
 40
0.5668413456
 40
0.6289845231
 40
0.6910084433
 40
0.7529310869
 40
0.8147714401
 40
0.8765493236
 40
0.9382852134
 40
1.0
 40
1.0
 40
1.0
 40
1.0
 10
9.9768364102
 20
9.7136803432
 30
0.0
 10
9.9768364102
 20
9.7071819208
 30
0.0
 10
9.9762160924
 20
9.6942193531
 30
0.0
 10
9.9738733264
 20
9.6781948213
 30
0.0
 10
9.9710732243
 20
9.6656249793
 30
0.0
 10
9.9685196773
 20
9.6563534577
 30
0.0
 10
9.965515582
 20
9.6472466864
 30
0.0
 10
9.9620678644
 20
9.6383253997
 30
0.0
 10
9.9581844733
 20
9.6296102312
 30
0.0
 10
9.9538742849
 20
9.6211212951
 30
0.0
 10
9.9491472701
 20
9.6128781595
 30
0.0
 10
9.9440143303
 20
9.6048998218
 30
0.0
 10
9.9384872533
 20
9.5972047437
 30
0.0
 10
9.9325787511
 20
9.589810598
 30
0.0
 10
9.9263027117
 20
9.5827346424
 30
0.0
 10
9.9218824132
 20
9.5782395787
 30
0.0
 10
9.9196167659
 20
9.5760511448
 30
0.0
  0
SPLINE
  5
323
100
AcDbEntity
  8
0
100
AcDbSpline
 62
7
  6
CONTINUOUS
 70
0
 71
3
 72
21
 73
17
 74
0
 42
0.0000001
 43
0.0000001
 44
0.0000000001
 40
0.0
 40
0.0
 40
0.0
 40
0.0
 40
0.1273176984
 40
0.2537999461
 40
0.3167619614
 40
0.3795355204
 40
0.4421314992
 40
0.5045621453
 40
0.5668413456
 40
0.6289845231
 40
0.6910084433
 40
0.7529310869
 40
0.8147714401
 40
0.8765493236
 40
0.9382852134
 40
1.0
 40
1.0
 40
1.0
 40
1.0
 10
13.8405397716
 20
9.445731605
 30
0.0
 10
13.8405397716
 20
9.4392331826
 30
0.0
 10
13.8399194537
 20
9.4262706149
 30
0.0
 10
13.8375766877
 20
9.4102460831
 30
0.0
 10
13.8347765857
 20
9.3976762411
 30
0.0
 10
13.8322230387
 20
9.3884047195
 30
0.0
 10
13.8292189434
 20
9.3792979482
 30
0.0
 10
13.8257712258
 20
9.3703766615
 30
0.0
 10
13.8218878347
 20
9.361661493
 30
0.0
 10
13.8175776463
 20
9.3531725569
 30
0.0
 10
13.8128506315
 20
9.3449294213
 30
0.0
 10
13.8077176916
 20
9.3369510836
 30
0.0
 10
13.8021906147
 20
9.3292560055
 30
0.0
 10
13.7962821124
 20
9.3218618598
 30
0.0
 10
13.7900060731
 20
9.3147859042
 30
0.0
 10
13.7855857746
 20
9.3102908406
 30
0.0
 10
13.7833201272
 20
9.3081024066
 30
0.0
  0
SPLINE
  5
324
100
AcDbEntity
  8
0
100
AcDbSpline
 62
7
  6
CONTINUOUS
 70
0
 71
3
 72
21
 73
17
 74
0
 42
0.0000001
 43
0.0000001
 44
0.0000000001
 40
0.0
 40
0.0
 40
0.0
 40
0.0
 40
0.1273176984
 40
0.2537999461
 40
0.3167619614
 40
0.3795355204
 40
0.4421314992
 40
0.5045621453
 40
0.5668413456
 40
0.6289845231
 40
0.6910084433
 40
0.7529310869
 40
0.8147714401
 40
0.8765493236
 40
0.9382852134
 40
1.0
 40
1.0
 40
1.0
 40
1.0
 10
13.8405397716
 20
6.7875034833
 30
0.0
 10
13.8405397716
 20
6.7810050609
 30
0.0
 10
13.8399194537
 20
6.7680424932
 30
0.0
 10
13.8375766877
 20
6.7520179613
 30
0.0
 10
13.8347765857
 20
6.7394481194
 30
0.0
 10
13.8322230387
 20
6.7301765978
 30
0.0
 10
13.8292189434
 20
6.7210698265
 30
0.0
 10
13.8257712258
 20
6.7121485398
 30
0.0
 10
13.8218878347
 20
6.7034333713
 30
0.0
 10
13.8175776463
 20
6.6949444351
 30
0.0
 10
13.8128506315
 20
6.6867012996
 30
0.0
 10
13.8077176916
 20
6.6787229619
 30
0.0
 10
13.8021906147
 20
6.6710278838
 30
0.0
 10
13.7962821124
 20
6.6636337381
 30
0.0
 10
13.7900060731
 20
6.6565577825
 30
0.0
 10
13.7855857746
 20
6.6520627188
 30
0.0
 10
13.7833201272
 20
6.6498742849
 30
0.0
  0
SPLINE
  5
325
100
AcDbEntity
  8
0
100
AcDbSpline
 62
7
  6
CONTINUOUS
 70
0
 71
3
 72
21
 73
17
 74
0
 42
0.0000001
 43
0.0000001
 44
0.0000000001
 40
0.0
 40
0.0
 40
0.0
 40
0.0
 40
0.1273176984
 40
0.2537999461
 40
0.3167619614
 40
0.3795355204
 40
0.4421314992
 40
0.5045621453
 40
0.5668413456
 40
0.6289845231
 40
0.6910084433
 40
0.7529310869
 40
0.8147714401
 40
0.8765493236
 40
0.9382852134
 40
1.0
 40
1.0
 40
1.0
 40
1.0
 10
9.9768364102
 20
7.0554522215
 30
0.0
 10
9.9768364102
 20
7.0489537991
 30
0.0
 10
9.9762160924
 20
7.0359912314
 30
0.0
 10
9.9738733264
 20
7.0199666995
 30
0.0
 10
9.9710732243
 20
7.0073968576
 30
0.0
 10
9.9685196773
 20
6.998125336
 30
0.0
 10
9.965515582
 20
6.9890185647
 30
0.0
 10
9.9620678644
 20
6.980097278
 30
0.0
 10
9.9581844733
 20
6.9713821095
 30
0.0
 10
9.9538742849
 20
6.9628931733
 30
0.0
 10
9.9491472701
 20
6.9546500378
 30
0.0
 10
9.9440143303
 20
6.9466717001
 30
0.0
 10
9.9384872533
 20
6.938976622
 30
0.0
 10
9.9325787511
 20
6.9315824762
 30
0.0
 10
9.9263027117
 20
6.9245065207
 30
0.0
 10
9.9218824132
 20
6.920011457
 30
0.0
 10
9.9196167659
 20
6.9178230231
 30
0.0
  0
SPLINE
  5
326
100
AcDbEntity
  8
0
100
AcDbSpline
 62
7
  6
CONTINUOUS
 70
0
 71
3
 72
15
 73
11
 74
0
 42
0.0000001
 43
0.0000001
 44
0.0000000001
 40
0.0
 40
0.0
 40
0.0
 40
0.0
 40
0.1273483438
 40
0.2538606048
 40
0.3795878922
 40
0.5046051199
 40
0.6290174392
 40
0.7529533668
 40
0.8765605676
 40
1.0
 40
1.0
 40
1.0
 40
1.0
 10
11.2059770919
 20
9.6892924718
 30
0.0
 10
11.2059770919
 20
9.6849653076
 30
0.0
 10
11.2055639301
 20
9.6763334058
 30
0.0
 10
11.2036954488
 20
9.6635515759
 30
0.0
 10
11.2005971938
 20
9.6510909119
 30
0.0
 10
11.1962971566
 20
9.6390679455
 30
0.0
 10
11.1908347765
 20
9.6275935605
 30
0.0
 10
11.1842598439
 20
9.6167737217
 30
0.0
 10
11.1766342104
 20
9.6067097876
 30
0.0
 10
11.1708924809
 20
9.6005621952
 30
0.0
 10
11.167875668
 20
9.5976482018
 30
0.0
  0
SPLINE
  5
327
100
AcDbEntity
  8
0
100
AcDbSpline
 62
7
  6
CONTINUOUS
 70
0
 71
3
 72
15
 73
11
 74
0
 42
0.0000001
 43
0.0000001
 44
0.0000000001
 40
0.0
 40
0.0
 40
0.0
 40
0.0
 40
0.1273483438
 40
0.2538606048
 40
0.3795878922
 40
0.5046051199
 40
0.6290174392
 40
0.7529533668
 40
0.8765605676
 40
1.0
 40
1.0
 40
1.0
 40
1.0
 10
11.810646625
 20
6.8674237555
 30
0.0
 10
11.810646625
 20
6.8630965912
 30
0.0
 10
11.8102334632
 20
6.8544646894
 30
0.0
 10
11.8083649818
 20
6.8416828595
 30
0.0
 10
11.8052667269
 20
6.8292221956
 30
0.0
 10
11.8009666897
 20
6.8171992292
 30
0.0
 10
11.7955043096
 20
6.8057248441
 30
0.0
 10
11.788929377
 20
6.7949050053
 30
0.0
 10
11.7813037435
 20
6.7848410712
 30
0.0
 10
11.775562014
 20
6.7786934788
 30
0.0
 10
11.7725452011
 20
6.7757794854
 30
0.0
  0
SPLINE
  5
328
100
AcDbEntity
  8
0
100
AcDbSpline
 62
7
  6
CONTINUOUS
 70
0
 71
3
 72
15
 73
11
 74
0
 42
0.0000001
 43
0.0000001
 44
0.0000000001
 40
0.0
 40
0.0
 40
0.0
 40
0.0
 40
0.127347711
 40
0.2538606874
 40
0.3795878987
 40
0.5046050998
 40
0.6290174656
 40
0.7529533976
 40
0.8765605982
 40
1.0
 40
1.0
 40
1.0
 40
1.0
 10
12.7616008213
 20
9.5205562754
 30
0.0
 10
12.7616008213
 20
9.5181540748
 30
0.0
 10
12.761371459
 20
9.5133620992
 30
0.0
 10
12.7603342172
 20
9.5062662984
 30
0.0
 10
12.7586142616
 20
9.4993487779
 30
0.0
 10
12.7562271568
 20
9.4926742483
 30
0.0
 10
12.7531948014
 20
9.4863042454
 30
0.0
 10
12.7495448332
 20
9.4802975901
 30
0.0
 10
12.7453115666
 20
9.4747105686
 30
0.0
 10
12.7421241439
 20
9.4712976739
 30
0.0
 10
12.7404493855
 20
9.469679963
 30
0.0
  0
SPLINE
  5
329
100
AcDbEntity
  8
0
100
AcDbSpline
 62
7
  6
CONTINUOUS
 70
0
 71
3
 72
15
 73
11
 74
0
 42
0.0000001
 43
0.0000001
 44
0.0000000001
 40
0.0
 40
0.0
 40
0.0
 40
0.0
 40
0.127347711
 40
0.2538606874
 40
0.3795878987
 40
0.5046050998
 40
0.6290174656
 40
0.7529533976
 40
0.8765605982
 40
1.0
 40
1.0
 40
1.0
 40
1.0
 10
10.5448008449
 20
7.0160637541
 30
0.0
 10
10.5448008449
 20
7.0136615536
 30
0.0
 10
10.5445714826
 20
7.008869578
 30
0.0
 10
10.5435342408
 20
7.0017737772
 30
0.0
 10
10.5418142852
 20
6.9948562567
 30
0.0
 10
10.5394271804
 20
6.9881817271
 30
0.0
 10
10.536394825
 20
6.9818117242
 30
0.0
 10
10.5327448568
 20
6.9758050689
 30
0.0
 10
10.5285115902
 20
6.9702180474
 30
0.0
 10
10.5253241676
 20
6.9668051527
 30
0.0
 10
10.5236494091
 20
6.9651874418
 30
0.0
  0
SPLINE
  5
32A
100
AcDbEntity
  8
0
100
AcDbSpline
 62
7
  6
CONTINUOUS
 70
0
 71
3
 72
37
 73
33
 74
0
 42
0.0000001
 43
0.0000001
 44
0.0000000001
 40
0.0
 40
0.0
 40
0.0
 40
0.0
 40
0.0309022894
 40
0.0464137109
 40
0.0619623436
 40
0.0931634379
 40
0.1244997716
 40
0.1402169466
 40
0.1559627163
 40
0.1875276974
 40
0.2191822997
 40
0.2509086638
 40
0.2826886173
 40
0.3145041604
 40
0.3463378609
 40
0.3781731527
 40
0.4099945447
 40
0.4417877531
 40
0.4735397696
 40
0.5052388806
 40
0.5368746519
 40
0.5684378893
 40
0.6312955024
 40
0.6937819827
 40
0.7558624283
 40
0.8175168201
 40
0.8481918383
 40
0.8787594004
 40
0.9092210334
 40
0.9395792048
 40
0.9698373671
 40
1.0
 40
1.0
 40
1.0
 40
1.0
 10
11.6749340384
 20
9.3939689299
 30
0.0
 10
11.6814928888
 20
9.393514072
 30
0.0
 10
11.6913236504
 20
9.3924681495
 30
0.0
 10
11.7043394237
 20
9.3903639739
 30
0.0
 10
11.7173341423
 20
9.3877808266
 30
0.0
 10
11.7334459085
 20
9.3836699947
 30
0.0
 10
11.7492634546
 20
9.3784291211
 30
0.0
 10
11.7617152985
 20
9.3735790174
 30
0.0
 10
11.7740398229
 20
9.3682893819
 30
0.0
 10
11.7891364695
 20
9.3608871365
 30
0.0
 10
11.8066629084
 20
9.3508158974
 30
0.0
 10
11.8235462573
 20
9.3396176012
 30
0.0
 10
11.8397234803
 20
9.3273658779
 30
0.0
 10
11.8551405454
 20
9.3141361597
 30
0.0
 10
11.8697511103
 20
9.3000047148
 30
0.0
 10
11.883516161
 20
9.2850474801
 30
0.0
 10
11.8964032454
 20
9.2693392408
 30
0.0
 10
11.9083857288
 20
9.2529530277
 30
0.0
 10
11.9194420556
 20
9.2359596292
 30
0.0
 10
11.9295549212
 20
9.218427624
 30
0.0
 10
11.9387109448
 20
9.2004222493
 30
0.0
 10
11.9496119281
 20
9.1759076841
 30
0.0
 10
11.9608107431
 20
9.1443924748
 30
0.0
 10
11.9703190995
 20
9.1055994246
 30
0.0
 10
11.9758619466
 20
9.066303898
 30
0.0
 10
11.9771680565
 20
9.0334175484
 30
0.0
 10
11.9762120347
 20
9.0072787557
 30
0.0
 10
11.9745011955
 20
8.9878343733
 30
0.0
 10
11.971795948
 20
8.9685716727
 30
0.0
 10
11.9680974155
 20
8.9495413303
 30
0.0
 10
11.963407636
 20
8.9307966845
 30
0.0
 10
11.9596156461
 20
8.9185059771
 30
0.0
 10
11.9575553714
 20
8.9124284598
 30
0.0
  0
SPLINE
  5
32B
100
AcDbEntity
  8
0
100
AcDbSpline
 62
7
  6
CONTINUOUS
 70
0
 71
3
 72
37
 73
33
 74
0
 42
0.0000001
 43
0.0000001
 44
0.0000000001
 40
0.0
 40
0.0
 40
0.0
 40
0.0
 40
0.0324304938
 40
0.0648354635
 40
0.0972015465
 40
0.1295196974
 40
0.1617793593
 40
0.1939714266
 40
0.2260875098
 40
0.2581201639
 40
0.2900629701
 40
0.3219105445
 40
0.3536586047
 40
0.3853040044
 40
0.4168446937
 40
0.4482796841
 40
0.4796090279
 40
0.5108338281
 40
0.5419561346
 40
0.5729788613
 40
0.6039057449
 40
0.6347413328
 40
0.6654908458
 40
0.6961600932
 40
0.7267554589
 40
0.7572838402
 40
0.818152097
 40
0.878844312
 40
0.9091532931
 40
0.9394431842
 40
0.9697225579
 40
1.0
 40
1.0
 40
1.0
 40
1.0
 10
11.3089804715
 20
7.7218250062
 30
0.0
 10
11.3123054508
 20
7.7179016545
 30
0.0
 10
11.3187614211
 20
7.7098935064
 30
0.0
 10
11.3278382315
 20
7.6974280647
 30
0.0
 10
11.3362820368
 20
7.6845462751
 30
0.0
 10
11.344070916
 20
7.6712850906
 30
0.0
 10
11.3511858589
 20
7.6576815726
 30
0.0
 10
11.3576103839
 20
7.6437740217
 30
0.0
 10
11.3633307316
 20
7.6296011672
 30
0.0
 10
11.368335775
 20
7.6152020633
 30
0.0
 10
11.3726169908
 20
7.6006158184
 30
0.0
 10
11.3761683706
 20
7.5858813709
 30
0.0
 10
11.3789863653
 20
7.5710372942
 30
0.0
 10
11.3810697894
 20
7.556121611
 30
0.0
 10
11.3824196266
 20
7.5411716274
 30
0.0
 10
11.3830388953
 20
7.5262238143
 30
0.0
 10
11.382932503
 20
7.511313697
 30
0.0
 10
11.3821071619
 20
7.4964757678
 30
0.0
 10
11.3805711524
 20
7.4817434273
 30
0.0
 10
11.3783341798
 20
7.4671489602
 30
0.0
 10
11.3754072445
 20
7.452723507
 30
0.0
 10
11.3718025786
 20
7.4384970538
 30
0.0
 10
11.3675334114
 20
7.4244984231
 30
0.0
 10
11.362613952
 20
7.4107554527
 30
0.0
 10
11.3570590017
 20
7.3972944703
 30
0.0
 10
11.3488360182
 20
7.3797771031
 30
0.0
 10
11.3370450586
 20
7.3586938033
 30
0.0
 10
11.3233378045
 20
7.3388457804
 30
0.0
 10
11.311315239
 20
7.3238245637
 30
0.0
 10
11.3017882363
 20
7.3130040284
 30
0.0
 10
11.2917685205
 20
7.3026459196
 30
0.0
 10
11.284773086
 20
7.2960609699
 30
0.0
 10
11.2812010216
 20
7.2928526479
 30
0.0
  0
SPLINE
  5
32C
100
AcDbEntity
  8
0
100
AcDbSpline
 62
7
  6
CONTINUOUS
 70
0
 71
3
 72
23
 73
19
 74
0
 42
0.0000001
 43
0.0000001
 44
0.0000000001
 40
0.0
 40
0.0
 40
0.0
 40
0.0
 40
0.0639344303
 40
0.1275582351
 40
0.1908822765
 40
0.2539220903
 40
0.3166999909
 40
0.3792433795
 40
0.4415843811
 40
0.5037589166
 40
0.5658058131
 40
0.627765846
 40
0.6896807855
 40
0.7515924732
 40
0.8135419574
 40
0.8755687097
 40
0.9377099376
 40
1.0
 40
1.0
 40
1.0
 40
1.0
 10
12.6236038221
 20
7.4157147457
 30
0.0
 10
12.6236038221
 20
7.4081849969
 30
0.0
 10
12.6230746948
 20
7.3931565171
 30
0.0
 10
12.6206844594
 20
7.3707847928
 30
0.0
 10
12.6167137141
 20
7.348744584
 30
0.0
 10
12.6111856338
 20
7.3271455327
 30
0.0
 10
12.6041324546
 20
7.3060920763
 30
0.0
 10
12.5955947463
 20
7.2856848244
 30
0.0
 10
12.5856209447
 20
7.2660193104
 30
0.0
 10
12.5742666233
 20
7.2471855617
 30
0.0
 10
12.5615937851
 20
7.2292676116
 30
0.0
 10
12.5476700993
 20
7.2123431911
 30
0.0
 10
12.5325681581
 20
7.1964835339
 30
0.0
 10
12.5163647072
 20
7.1817532758
 30
0.0
 10
12.499140096
 20
7.1682105335
 30
0.0
 10
12.4809771133
 20
7.1559067564
 30
0.0
 10
12.4619624005
 20
7.1448877926
 30
0.0
 10
12.4487911042
 20
7.1384318499
 30
0.0
 10
12.4420969395
 20
7.1354307957
 30
0.0
  0
SPLINE
  5
32D
100
AcDbEntity
  8
0
100
AcDbSpline
 62
7
  6
CONTINUOUS
 70
0
 71
3
 72
53
 73
49
 74
0
 42
0.0000001
 43
0.0000001
 44
0.0000000001
 40
0.0
 40
0.0
 40
0.0
 40
0.0
 40
0.0417740478
 40
0.0840369835
 40
0.1266585592
 40
0.1695065657
 40
0.2124481957
 40
0.2553501644
 40
0.2980793779
 40
0.3405034127
 40
0.3824910553
 40
0.4239128269
 40
0.4646415185
 40
0.5045527309
 40
0.5435254266
 40
0.5814424966
 40
0.6181913512
 40
0.6536645436
 40
0.6877604426
 40
0.7203839756
 40
0.7361162401
 40
0.7514482063
 40
0.7663702194
 40
0.7808732533
 40
0.7949489098
 40
0.808589482
 40
0.8217880323
 40
0.8345384043
 40
0.8468353889
 40
0.8586746951
 40
0.8700532057
 40
0.8809689358
 40
0.8914213732
 40
0.9014114696
 40
0.9109420597
 40
0.9200179488
 40
0.9286464106
 40
0.9368374402
 40
0.9446043453
 40
0.9519642202
 40
0.9589386335
 40
0.9655543067
 40
0.9718438059
 40
0.9778461959
 40
0.9836073668
 40
0.9891800504
 40
0.9946230772
 40
1.0
 40
1.0
 40
1.0
 40
1.0
 10
14.0729048495
 20
8.5392527603
 30
0.0
 10
14.0729048495
 20
8.5514910226
 30
0.0
 10
14.0730957791
 20
8.5761111582
 30
0.0
 10
14.0739398469
 20
8.6132091528
 30
0.0
 10
14.0753407894
 20
8.6506052057
 30
0.0
 10
14.0772940174
 20
8.6881755389
 30
0.0
 10
14.0797930742
 20
8.7257958408
 30
0.0
 10
14.0828297003
 20
8.7633416576
 30
0.0
 10
14.0863938358
 20
8.8006887699
 30
0.0
 10
14.090473666
 20
8.8377136251
 30
0.0
 10
14.0950556546
 20
8.8742937427
 30
0.0
 10
14.1001245904
 20
8.9103081242
 30
0.0
 10
14.1056636356
 20
8.9456376569
 30
0.0
 10
14.1116543813
 20
8.9801655134
 30
0.0
 10
14.1180769067
 20
9.0137775419
 30
0.0
 10
14.1249098431
 20
9.0463626583
 30
0.0
 10
14.1321304465
 20
9.0778131996
 30
0.0
 10
14.1397146602
 20
9.1080253791
 30
0.0
 10
14.1476372344
 20
9.1368993461
 30
0.0
 10
14.1545806072
 20
9.1600381298
 30
0.0
 10
14.1602960128
 20
9.1777998844
 30
0.0
 10
14.1645986821
 20
9.1905670988
 30
0.0
 10
14.168965782
 20
9.2029311519
 30
0.0
 10
14.1733937058
 20
9.2148818526
 30
0.0
 10
14.1778787813
 20
9.2264093382
 30
0.0
 10
14.1824173006
 20
9.2375041054
 30
0.0
 10
14.1870054857
 20
9.2481570194
 30
0.0
 10
14.1916395723
 20
9.2583593077
 30
0.0
 10
14.196315686
 20
9.2681025978
 30
0.0
 10
14.2010300243
 20
9.2773788802
 30
0.0
 10
14.2057786405
 20
9.2861805801
 30
0.0
 10
14.210557712
 20
9.2945004823
 30
0.0
 10
14.2153632554
 20
9.3023318408
 30
0.0
 10
14.2201914512
 20
9.3096682646
 30
0.0
 10
14.2250383326
 20
9.3165038589
 30
0.0
 10
14.2299001188
 20
9.3228330793
 30
0.0
 10
14.2347729347
 20
9.3286508832
 30
0.0
 10
14.2396530976
 20
9.3339525693
 30
0.0
 10
14.2445369196
 20
9.3387338956
 30
0.0
 10
14.2494208941
 20
9.3429909304
 30
0.0
 10
14.2543016004
 20
9.3467200688
 30
0.0
 10
14.2591757305
 20
9.3499179346
 30
0.0
 10
14.2640400396
 20
9.3525812333
 30
0.0
 10
14.2688911637
 20
9.3547068056
 30
0.0
 10
14.2737254145
 20
9.3562913796
 30
0.0
 10
14.2785387569
 20
9.3573320107
 30
0.0
 10
14.2833253878
 20
9.3578260423
 30
0.0
 10
14.286503302
 20
9.3577897815
 30
0.0
 10
14.2880747686
 20
9.3576807996
 30
0.0
  0
SPLINE
  5
32E
100
AcDbEntity
  8
0
100
AcDbSpline
 62
7
  6
CONTINUOUS
 70
0
 71
3
 72
18
 73
14
 74
0
 42
0.0000001
 43
0.0000001
 44
0.0000000001
 40
0.0
 40
0.0
 40
0.0
 40
0.0
 40
0.1313703051
 40
0.2585842776
 40
0.3828636321
 40
0.5053856838
 40
0.6272793601
 40
0.6883455796
 40
0.7496607953
 40
0.8113553103
 40
0.8735592063
 40
0.9363992948
 40
1.0
 40
1.0
 40
1.0
 40
1.0
 10
10.6478177698
 20
9.228366801
 30
0.0
 10
10.6545394933
 20
9.2262416101
 30
0.0
 10
10.6676366725
 20
9.2216175024
 30
0.0
 10
10.6864858945
 20
9.2133982501
 30
0.0
 10
10.7042412611
 20
9.2039959351
 30
0.0
 10
10.7209520598
 20
9.1933638897
 30
0.0
 10
10.7340213629
 20
9.1834327322
 30
0.0
 10
10.7439275674
 20
9.1748427085
 30
0.0
 10
10.7511034223
 20
9.1680494896
 30
0.0
 10
10.7580136784
 20
9.1609012268
 30
0.0
 10
10.7646511798
 20
9.1533891869
 30
0.0
 10
10.7710060439
 20
9.145504933
 30
0.0
 10
10.7750203765
 20
9.1400312266
 30
0.0
 10
10.7769755356
 20
9.1372337618
 30
0.0
  0
SPLINE
  5
32F
100
AcDbEntity
  8
0
100
AcDbSpline
 62
7
  6
CONTINUOUS
 70
0
 71
3
 72
14
 73
10
 74
0
 42
0.0000001
 43
0.0000001
 44
0.0000000001
 40
0.0
 40
0.0
 40
0.0
 40
0.0
 40
0.1349837743
 40
0.2675973618
 40
0.3973994236
 40
0.5241144198
 40
0.6476400978
 40
0.7680190565
 40
1.0
 40
1.0
 40
1.0
 40
1.0
 10
10.5454679997
 20
9.2454000328
 30
0.0
 10
10.5501459642
 20
9.2452125847
 30
0.0
 10
10.559414658
 20
9.2446970514
 30
0.0
 10
10.5731481044
 20
9.2435016577
 30
0.0
 10
10.5865524184
 20
9.2419076462
 30
0.0
 10
10.5995870003
 20
9.239931982
 30
0.0
 10
10.6122288444
 20
9.2375893895
 30
0.0
 10
10.6283492783
 20
9.2340366171
 30
0.0
 10
10.6401461474
 20
9.230792319
 30
0.0
 10
10.6478177698
 20
9.228366801
 30
0.0
  0
SPLINE
  5
330
100
AcDbEntity
  8
0
100
AcDbSpline
 62
7
  6
CONTINUOUS
 70
0
 71
3
 72
32
 73
28
 74
0
 42
0.0000001
 43
0.0000001
 44
0.0000000001
 40
0.0
 40
0.0
 40
0.0
 40
0.0
 40
0.0851786848
 40
0.1685803226
 40
0.2498827917
 40
0.3287735031
 40
0.4049538093
 40
0.4781399203
 40
0.5480655658
 40
0.5817287479
 40
0.6144861685
 40
0.6463107472
 40
0.67717687
 40
0.7070608521
 40
0.7359408389
 40
0.7637971302
 40
0.7906123426
 40
0.8163715726
 40
0.8410628756
 40
0.8646773075
 40
0.8872097451
 40
0.908658924
 40
0.9290286029
 40
0.948327806
 40
0.9665723337
 40
0.9837854943
 40
1.0
 40
1.0
 40
1.0
 40
1.0
 10
9.0011175639
 20
7.4093372247
 30
0.0
 10
9.0011175639
 20
7.3983351457
 30
0.0
 10
9.0013050397
 20
7.3765599887
 30
0.0
 10
9.0021649108
 20
7.344293662
 30
0.0
 10
9.0035970324
 20
7.3128604238
 30
0.0
 10
9.0055952158
 20
7.2823926259
 30
0.0
 10
9.0081507778
 20
7.2530183961
 30
0.0
 10
9.0112527391
 20
7.2248613711
 30
0.0
 10
9.0143192857
 20
7.2022322014
 30
0.0
 10
9.0170487741
 20
7.1848333584
 30
0.0
 10
9.0191978299
 20
7.1723263539
 30
0.0
 10
9.0214723724
 20
7.160208942
 30
0.0
 10
9.0238700725
 20
7.1484938439
 30
0.0
 10
9.0263883396
 20
7.137193372
 30
0.0
 10
9.0290245323
 20
7.1263193889
 30
0.0
 10
9.0317758504
 20
7.1158832987
 30
0.0
 10
9.0346393717
 20
7.1058960311
 30
0.0
 10
9.0376121029
 20
7.0963680329
 30
0.0
 10
9.0406908597
 20
7.0873092393
 30
0.0
 10
9.0438724792
 20
7.0787290894
 30
0.0
 10
9.0471535507
 20
7.0706364631
 30
0.0
 10
9.0505307693
 20
7.0630397427
 30
0.0
 10
9.0540005693
 20
7.0559466924
 30
0.0
 10
9.0575595331
 20
7.0493646136
 30
0.0
 10
9.0612041136
 20
7.0433000468
 30
0.0
 10
9.0649306655
 20
7.0377594607
 30
0.0
 10
9.0675437048
 20
7.0343182132
 30
0.0
 10
9.0688651624
 20
7.0326934003
 30
0.0
  0
SPLINE
  5
331
100
AcDbEntity
  8
0
100
AcDbSpline
 62
7
  6
CONTINUOUS
 70
0
 71
3
 72
42
 73
38
 74
0
 42
0.0000001
 43
0.0000001
 44
0.0000000001
 40
0.0
 40
0.0
 40
0.0
 40
0.0
 40
0.0071626559
 40
0.0146567706
 40
0.0224899671
 40
0.0306685167
 40
0.0391975294
 40
0.048080791
 40
0.0573205676
 40
0.0669181447
 40
0.07687382
 40
0.0871870637
 40
0.0978566545
 40
0.1088805404
 40
0.1319794507
 40
0.1564573048
 40
0.1822787479
 40
0.2094016883
 40
0.2377781422
 40
0.2673548919
 40
0.2980740388
 40
0.3298735011
 40
0.3626874254
 40
0.3964465514
 40
0.431078539
 40
0.4665082665
 40
0.502658144
 40
0.5394483976
 40
0.5767973385
 40
0.6146216242
 40
0.6528365109
 40
0.6913561215
 40
0.7300937002
 40
0.7689618747
 40
0.8467373609
 40
0.9239818312
 40
1.0
 40
1.0
 40
1.0
 40
1.0
 10
9.1385503634
 20
10.1684396003
 30
0.0
 10
9.137400136
 20
10.1673285659
 30
0.0
 10
9.1351012132
 20
10.1649978471
 30
0.0
 10
9.1317317385
 20
10.1612731473
 30
0.0
 10
9.1283665461
 20
10.1572443085
 30
0.0
 10
9.1250078043
 20
10.152913939
 30
0.0
 10
9.1216573562
 20
10.1482845764
 30
0.0
 10
9.118317176
 20
10.1433588793
 30
0.0
 10
9.1149891404
 20
10.1381397836
 30
0.0
 10
9.1116753024
 20
10.1326303641
 30
0.0
 10
9.1083776141
 20
10.126833917
 30
0.0
 10
9.1050980294
 20
10.1207539007
 30
0.0
 10
9.1018385288
 20
10.1143939145
 30
0.0
 10
9.0974534396
 20
10.1054052444
 30
0.0
 10
9.092048374
 20
10.0934869887
 30
0.0
 10
9.0857698772
 20
10.0783472578
 30
0.0
 10
9.0796170907
 20
10.0621910107
 30
0.0
 10
9.0736048882
 20
10.045056951
 30
0.0
 10
9.0677478237
 20
10.0269859527
 30
0.0
 10
9.0620600829
 20
10.0080213041
 30
0.0
 10
9.0565554358
 20
9.9882084845
 30
0.0
 10
9.051247212
 20
9.9675950625
 30
0.0
 10
9.0461482633
 20
9.9462305602
 30
0.0
 10
9.0412709329
 20
9.9241663317
 30
0.0
 10
9.0366270263
 20
9.9014554384
 30
0.0
 10
9.0322277707
 20
9.8781525201
 30
0.0
 10
9.0280838005
 20
9.854313655
 30
0.0
 10
9.0242051316
 20
9.8299962182
 30
0.0
 10
9.0206011369
 20
9.8052587427
 30
0.0
 10
9.0172805274
 20
9.7801607812
 30
0.0
 10
9.0142513165
 20
9.754762758
 30
0.0
 10
9.0115208214
 20
9.7291258423
 30
0.0
 10
9.0090955939
 20
9.7033117127
 30
0.0
 10
9.0062764901
 20
9.6687340403
 30
0.0
 10
9.0035519252
 20
9.6255259843
 30
0.0
 10
9.001571415
 20
9.5739756779
 30
0.0
 10
9.0011175639
 20
9.5397555024
 30
0.0
 10
9.0011175639
 20
9.5227830579
 30
0.0
  0
SPLINE
  5
332
100
AcDbEntity
  8
0
100
AcDbSpline
 62
7
  6
CONTINUOUS
 70
0
 71
3
 72
42
 73
38
 74
0
 42
0.0000001
 43
0.0000001
 44
0.0000000001
 40
0.0
 40
0.0
 40
0.0
 40
0.0
 40
0.0299419634
 40
0.0449235299
 40
0.0599142017
 40
0.0899287029
 40
0.1200139772
 40
0.1350926626
 40
0.1501967046
 40
0.1804840506
 40
0.2108978877
 40
0.2414513551
 40
0.2721543675
 40
0.3030134354
 40
0.3340315696
 40
0.3652082675
 40
0.3965395775
 40
0.4280182343
 40
0.4596338596
 40
0.4913732188
 40
0.5232205284
 40
0.5551578047
 40
0.5871652463
 40
0.6192216448
 40
0.6513048151
 40
0.6833920402
 40
0.7154605222
 40
0.747487836
 40
0.7794523759
 40
0.8113337934
 40
0.8431134117
 40
0.8747746318
 40
0.9063032512
 40
0.9376879208
 40
0.9533258
 40
0.9689252634
 40
1.0
 40
1.0
 40
1.0
 40
1.0
 10
9.6264353317
 20
9.8795781348
 30
0.0
 10
9.6299357535
 20
9.8829592619
 30
0.0
 10
9.6353927217
 20
9.8878260715
 30
0.0
 10
9.6430350827
 20
9.8938647223
 30
0.0
 10
9.6509208146
 20
9.8996028806
 30
0.0
 10
9.661210398
 20
9.9061921453
 30
0.0
 10
9.6720002671
 20
9.9119558449
 30
0.0
 10
9.6808991129
 20
9.9160561466
 30
0.0
 10
9.6899817827
 20
9.9198179621
 30
0.0
 10
9.7016344363
 20
9.9238629768
 30
0.0
 10
9.7159945654
 20
9.9276328292
 30
0.0
 10
9.7306680349
 20
9.9303034793
 30
0.0
 10
9.7455735263
 20
9.9318601937
 30
0.0
 10
9.7606291607
 20
9.9322946646
 30
0.0
 10
9.7757520977
 20
9.9316046808
 30
0.0
 10
9.7908592182
 20
9.9297942281
 30
0.0
 10
9.8058675152
 20
9.926873432
 30
0.0
 10
9.8206945615
 20
9.9228585027
 30
0.0
 10
9.8352589511
 20
9.9177716384
 30
0.0
 10
9.8494807421
 20
9.9116409005
 30
0.0
 10
9.8632818878
 20
9.9045000576
 30
0.0
 10
9.8765866601
 20
9.8963883988
 30
0.0
 10
9.8893220589
 20
9.8873505184
 30
0.0
 10
9.9014182077
 20
9.8774360724
 30
0.0
 10
9.9128087326
 20
9.8666995078
 30
0.0
 10
9.9234311219
 20
9.855199766
 30
0.0
 10
9.9332270665
 20
9.8429999628
 30
0.0
 10
9.9421427758
 20
9.8301670446
 30
0.0
 10
9.9501292711
 20
9.8167714287
 30
0.0
 10
9.9571426523
 20
9.8028866065
 30
0.0
 10
9.9631443357
 20
9.7885888022
 30
0.0
 10
9.9681012778
 20
9.7739563478
 30
0.0
 10
9.9719860951
 20
9.759070044
 30
0.0
 10
9.9743151294
 20
9.7465043897
 30
0.0
 10
9.9756216486
 20
9.7364080388
 30
0.0
 10
9.9765540792
 20
9.7263213493
 30
0.0
 10
9.9768364102
 20
9.7187311834
 30
0.0
 10
9.9768364102
 20
9.7136803432
 30
0.0
  0
SPLINE
  5
333
100
AcDbEntity
  8
0
100
AcDbSpline
 62
7
  6
CONTINUOUS
 70
0
 71
3
 72
42
 73
38
 74
0
 42
0.0000001
 43
0.0000001
 44
0.0000000001
 40
0.0
 40
0.0
 40
0.0
 40
0.0
 40
0.0299419634
 40
0.0449235299
 40
0.0599142017
 40
0.0899287029
 40
0.1200139772
 40
0.1350926626
 40
0.1501967046
 40
0.1804840506
 40
0.2108978877
 40
0.2414513551
 40
0.2721543675
 40
0.3030134354
 40
0.3340315696
 40
0.3652082675
 40
0.3965395775
 40
0.4280182343
 40
0.4596338596
 40
0.4913732188
 40
0.5232205284
 40
0.5551578047
 40
0.5871652463
 40
0.6192216448
 40
0.6513048151
 40
0.6833920402
 40
0.7154605222
 40
0.747487836
 40
0.7794523759
 40
0.8113337934
 40
0.8431134117
 40
0.8747746318
 40
0.9063032512
 40
0.9376879208
 40
0.9533258
 40
0.9689252634
 40
1.0
 40
1.0
 40
1.0
 40
1.0
 10
13.4901386931
 20
9.6116293966
 30
0.0
 10
13.4936391149
 20
9.6150105238
 30
0.0
 10
13.4990960831
 20
9.6198773333
 30
0.0
 10
13.5067384441
 20
9.6259159841
 30
0.0
 10
13.5146241759
 20
9.6316541424
 30
0.0
 10
13.5249137593
 20
9.6382434071
 30
0.0
 10
13.5357036285
 20
9.6440071068
 30
0.0
 10
13.5446024743
 20
9.6481074084
 30
0.0
 10
13.5536851441
 20
9.6518692239
 30
0.0
 10
13.5653377976
 20
9.6559142386
 30
0.0
 10
13.5796979268
 20
9.659684091
 30
0.0
 10
13.5943713962
 20
9.6623547411
 30
0.0
 10
13.6092768877
 20
9.6639114555
 30
0.0
 10
13.6243325221
 20
9.6643459264
 30
0.0
 10
13.6394554591
 20
9.6636559426
 30
0.0
 10
13.6545625795
 20
9.6618454899
 30
0.0
 10
13.6695708766
 20
9.6589246938
 30
0.0
 10
13.6843979228
 20
9.6549097645
 30
0.0
 10
13.6989623125
 20
9.6498229002
 30
0.0
 10
13.7131841034
 20
9.6436921624
 30
0.0
 10
13.7269852492
 20
9.6365513195
 30
0.0
 10
13.7402900215
 20
9.6284396606
 30
0.0
 10
13.7530254203
 20
9.6194017802
 30
0.0
 10
13.7651215691
 20
9.6094873342
 30
0.0
 10
13.7765120939
 20
9.5987507696
 30
0.0
 10
13.7871344833
 20
9.5872510278
 30
0.0
 10
13.7969304279
 20
9.5750512247
 30
0.0
 10
13.8058461372
 20
9.5622183064
 30
0.0
 10
13.8138326325
 20
9.5488226906
 30
0.0
 10
13.8208460136
 20
9.5349378683
 30
0.0
 10
13.826847697
 20
9.520640064
 30
0.0
 10
13.8318046392
 20
9.5060076096
 30
0.0
 10
13.8356894565
 20
9.4911213058
 30
0.0
 10
13.8380184908
 20
9.4785556515
 30
0.0
 10
13.8393250099
 20
9.4684593006
 30
0.0
 10
13.8402574406
 20
9.4583726112
 30
0.0
 10
13.8405397716
 20
9.4507824452
 30
0.0
 10
13.8405397716
 20
9.445731605
 30
0.0
  0
SPLINE
  5
334
100
AcDbEntity
  8
0
100
AcDbSpline
 62
7
  6
CONTINUOUS
 70
0
 71
3
 72
42
 73
38
 74
0
 42
0.0000001
 43
0.0000001
 44
0.0000000001
 40
0.0
 40
0.0
 40
0.0
 40
0.0
 40
0.0299419634
 40
0.0449235299
 40
0.0599142017
 40
0.0899287029
 40
0.1200139772
 40
0.1350926626
 40
0.1501967046
 40
0.1804840506
 40
0.2108978877
 40
0.2414513551
 40
0.2721543675
 40
0.3030134354
 40
0.3340315696
 40
0.3652082675
 40
0.3965395775
 40
0.4280182343
 40
0.4596338596
 40
0.4913732188
 40
0.5232205284
 40
0.5551578047
 40
0.5871652463
 40
0.6192216448
 40
0.6513048151
 40
0.6833920402
 40
0.7154605222
 40
0.747487836
 40
0.7794523759
 40
0.8113337934
 40
0.8431134117
 40
0.8747746318
 40
0.9063032512
 40
0.9376879208
 40
0.9533258
 40
0.9689252634
 40
1.0
 40
1.0
 40
1.0
 40
1.0
 10
13.4901386931
 20
6.9534012748
 30
0.0
 10
13.4936391149
 20
6.956782402
 30
0.0
 10
13.4990960831
 20
6.9616492116
 30
0.0
 10
13.5067384441
 20
6.9676878623
 30
0.0
 10
13.5146241759
 20
6.9734260206
 30
0.0
 10
13.5249137593
 20
6.9800152853
 30
0.0
 10
13.5357036285
 20
6.985778985
 30
0.0
 10
13.5446024743
 20
6.9898792867
 30
0.0
 10
13.5536851441
 20
6.9936411021
 30
0.0
 10
13.5653377976
 20
6.9976861169
 30
0.0
 10
13.5796979268
 20
7.0014559692
 30
0.0
 10
13.5943713962
 20
7.0041266194
 30
0.0
 10
13.6092768877
 20
7.0056833338
 30
0.0
 10
13.6243325221
 20
7.0061178046
 30
0.0
 10
13.6394554591
 20
7.0054278209
 30
0.0
 10
13.6545625795
 20
7.0036173681
 30
0.0
 10
13.6695708766
 20
7.0006965721
 30
0.0
 10
13.6843979228
 20
6.9966816428
 30
0.0
 10
13.6989623125
 20
6.9915947785
 30
0.0
 10
13.7131841034
 20
6.9854640406
 30
0.0
 10
13.7269852492
 20
6.9783231977
 30
0.0
 10
13.7402900215
 20
6.9702115389
 30
0.0
 10
13.7530254203
 20
6.9611736585
 30
0.0
 10
13.7651215691
 20
6.9512592125
 30
0.0
 10
13.7765120939
 20
6.9405226479
 30
0.0
 10
13.7871344833
 20
6.9290229061
 30
0.0
 10
13.7969304279
 20
6.9168231029
 30
0.0
 10
13.8058461372
 20
6.9039901847
 30
0.0
 10
13.8138326325
 20
6.8905945688
 30
0.0
 10
13.8208460136
 20
6.8767097466
 30
0.0
 10
13.826847697
 20
6.8624119422
 30
0.0
 10
13.8318046392
 20
6.8477794879
 30
0.0
 10
13.8356894565
 20
6.8328931841
 30
0.0
 10
13.8380184908
 20
6.8203275298
 30
0.0
 10
13.8393250099
 20
6.8102311789
 30
0.0
 10
13.8402574406
 20
6.8001444894
 30
0.0
 10
13.8405397716
 20
6.7925543235
 30
0.0
 10
13.8405397716
 20
6.7875034833
 30
0.0
  0
SPLINE
  5
335
100
AcDbEntity
  8
0
100
AcDbSpline
 62
7
  6
CONTINUOUS
 70
0
 71
3
 72
42
 73
38
 74
0
 42
0.0000001
 43
0.0000001
 44
0.0000000001
 40
0.0
 40
0.0
 40
0.0
 40
0.0
 40
0.0299419634
 40
0.0449235299
 40
0.0599142017
 40
0.0899287029
 40
0.1200139772
 40
0.1350926626
 40
0.1501967046
 40
0.1804840506
 40
0.2108978877
 40
0.2414513551
 40
0.2721543675
 40
0.3030134354
 40
0.3340315696
 40
0.3652082675
 40
0.3965395775
 40
0.4280182343
 40
0.4596338596
 40
0.4913732188
 40
0.5232205284
 40
0.5551578047
 40
0.5871652463
 40
0.6192216448
 40
0.6513048151
 40
0.6833920402
 40
0.7154605222
 40
0.747487836
 40
0.7794523759
 40
0.8113337934
 40
0.8431134117
 40
0.8747746318
 40
0.9063032512
 40
0.9376879208
 40
0.9533258
 40
0.9689252634
 40
1.0
 40
1.0
 40
1.0
 40
1.0
 10
9.6264353317
 20
7.221350013
 30
0.0
 10
9.6299357535
 20
7.2247311402
 30
0.0
 10
9.6353927217
 20
7.2295979498
 30
0.0
 10
9.6430350827
 20
7.2356366005
 30
0.0
 10
9.6509208146
 20
7.2413747588
 30
0.0
 10
9.661210398
 20
7.2479640235
 30
0.0
 10
9.6720002671
 20
7.2537277232
 30
0.0
 10
9.6808991129
 20
7.2578280249
 30
0.0
 10
9.6899817827
 20
7.2615898403
 30
0.0
 10
9.7016344363
 20
7.2656348551
 30
0.0
 10
9.7159945654
 20
7.2694047074
 30
0.0
 10
9.7306680349
 20
7.2720753576
 30
0.0
 10
9.7455735263
 20
7.273632072
 30
0.0
 10
9.7606291607
 20
7.2740665428
 30
0.0
 10
9.7757520977
 20
7.273376559
 30
0.0
 10
9.7908592182
 20
7.2715661063
 30
0.0
 10
9.8058675152
 20
7.2686453103
 30
0.0
 10
9.8206945615
 20
7.264630381
 30
0.0
 10
9.8352589511
 20
7.2595435166
 30
0.0
 10
9.8494807421
 20
7.2534127788
 30
0.0
 10
9.8632818878
 20
7.2462719359
 30
0.0
 10
9.8765866601
 20
7.2381602771
 30
0.0
 10
9.8893220589
 20
7.2291223967
 30
0.0
 10
9.9014182077
 20
7.2192079507
 30
0.0
 10
9.9128087326
 20
7.2084713861
 30
0.0
 10
9.9234311219
 20
7.1969716443
 30
0.0
 10
9.9332270665
 20
7.1847718411
 30
0.0
 10
9.9421427758
 20
7.1719389229
 30
0.0
 10
9.9501292711
 20
7.158543307
 30
0.0
 10
9.9571426523
 20
7.1446584848
 30
0.0
 10
9.9631443357
 20
7.1303606804
 30
0.0
 10
9.9681012778
 20
7.1157282261
 30
0.0
 10
9.9719860951
 20
7.1008419223
 30
0.0
 10
9.9743151294
 20
7.088276268
 30
0.0
 10
9.9756216486
 20
7.0781799171
 30
0.0
 10
9.9765540792
 20
7.0680932276
 30
0.0
 10
9.9768364102
 20
7.0605030617
 30
0.0
 10
9.9768364102
 20
7.0554522215
 30
0.0
  0
SPLINE
  5
336
100
AcDbEntity
  8
0
100
AcDbSpline
 62
7
  6
CONTINUOUS
 70
0
 71
3
 72
40
 73
36
 74
0
 42
0.0000001
 43
0.0000001
 44
0.0000000001
 40
0.0
 40
0.0
 40
0.0
 40
0.0
 40
0.0299422917
 40
0.0449240218
 40
0.0599148595
 40
0.0899296895
 40
0.1200152935
 40
0.1501925778
 40
0.1804802557
 40
0.2108944263
 40
0.2414482291
 40
0.2721515789
 40
0.3030109866
 40
0.3340294629
 40
0.3652065054
 40
0.3965381623
 40
0.4280171682
 40
0.4596331441
 40
0.4913728551
 40
0.5232205171
 40
0.5551581459
 40
0.5871659397
 40
0.6192226901
 40
0.6513062117
 40
0.6833937874
 40
0.7154626194
 40
0.7474902821
 40
0.779455171
 40
0.8113369343
 40
0.8431169059
 40
0.8747784521
 40
0.906307475
 40
0.9376923384
 40
0.96892512
 40
1.0
 40
1.0
 40
1.0
 40
1.0
 10
10.9726533426
 20
9.7997601416
 30
0.0
 10
10.9749841926
 20
9.8020115513
 30
0.0
 10
10.9786178725
 20
9.8052522233
 30
0.0
 10
10.9837067407
 20
9.8092732255
 30
0.0
 10
10.9889576593
 20
9.8130940882
 30
0.0
 10
10.9958094393
 20
9.8174817986
 30
0.0
 10
11.0044363132
 20
9.8220901211
 30
0.0
 10
11.0134252954
 20
9.8260195109
 30
0.0
 10
11.0227265273
 20
9.8292481813
 30
0.0
 10
11.0322888212
 20
9.8317585175
 30
0.0
 10
11.042059478
 20
9.8335368005
 30
0.0
 10
11.0519847078
 20
9.8345733743
 30
0.0
 10
11.0620098929
 20
9.8348626652
 30
0.0
 10
11.0720798981
 20
9.8344032116
 30
0.0
 10
11.0821393696
 20
9.8331976643
 30
0.0
 10
11.0921330368
 20
9.8312527661
 30
0.0
 10
11.1020060127
 20
9.8285793103
 30
0.0
 10
11.1117040909
 20
9.8251920779
 30
0.0
 10
11.1211740397
 20
9.8211097548
 30
0.0
 10
11.1303638901
 20
9.8163548271
 30
0.0
 10
11.1392232163
 20
9.8109534569
 30
0.0
 10
11.1477034097
 20
9.8049353386
 30
0.0
 10
11.1557579413
 20
9.7983335374
 30
0.0
 10
11.1633426145
 20
9.7911843081
 30
0.0
 10
11.1704158048
 20
9.7835268987
 30
0.0
 10
11.1769386855
 20
9.7754033361
 30
0.0
 10
11.1828754393
 20
9.7668581988
 30
0.0
 10
11.1881934517
 20
9.7579383741
 30
0.0
 10
11.192863493
 20
9.7486928038
 30
0.0
 10
11.1968598664
 20
9.7391722236
 30
0.0
 10
11.2001605771
 20
9.7294288637
 30
0.0
 10
11.2027473903
 20
9.7195162664
 30
0.0
 10
11.2046060561
 20
9.7094886281
 30
0.0
 10
11.2057261899
 20
9.6994017872
 30
0.0
 10
11.2059770919
 20
9.6926556848
 30
0.0
 10
11.2059770919
 20
9.6892924718
 30
0.0
  0
SPLINE
  5
337
100
AcDbEntity
  8
0
100
AcDbSpline
 62
7
  6
CONTINUOUS
 70
0
 71
3
 72
40
 73
36
 74
0
 42
0.0000001
 43
0.0000001
 44
0.0000000001
 40
0.0
 40
0.0
 40
0.0
 40
0.0
 40
0.0299422917
 40
0.0449240218
 40
0.0599148595
 40
0.0899296895
 40
0.1200152935
 40
0.1501925778
 40
0.1804802557
 40
0.2108944263
 40
0.2414482291
 40
0.2721515789
 40
0.3030109866
 40
0.3340294629
 40
0.3652065054
 40
0.3965381623
 40
0.4280171682
 40
0.4596331441
 40
0.4913728551
 40
0.5232205171
 40
0.5551581459
 40
0.5871659397
 40
0.6192226901
 40
0.6513062117
 40
0.6833937874
 40
0.7154626194
 40
0.7474902821
 40
0.779455171
 40
0.8113369343
 40
0.8431169059
 40
0.8747784521
 40
0.906307475
 40
0.9376923384
 40
0.96892512
 40
1.0
 40
1.0
 40
1.0
 40
1.0
 10
11.5773228757
 20
6.9778914253
 30
0.0
 10
11.5796537257
 20
6.9801428349
 30
0.0
 10
11.5832874056
 20
6.9833835069
 30
0.0
 10
11.5883762738
 20
6.9874045091
 30
0.0
 10
11.5936271924
 20
6.9912253718
 30
0.0
 10
11.6004789723
 20
6.9956130822
 30
0.0
 10
11.6091058463
 20
7.0002214047
 30
0.0
 10
11.6180948285
 20
7.0041507945
 30
0.0
 10
11.6273960604
 20
7.007379465
 30
0.0
 10
11.6369583543
 20
7.0098898011
 30
0.0
 10
11.6467290111
 20
7.0116680841
 30
0.0
 10
11.6566542408
 20
7.012704658
 30
0.0
 10
11.666679426
 20
7.0129939488
 30
0.0
 10
11.6767494312
 20
7.0125344952
 30
0.0
 10
11.6868089027
 20
7.0113289479
 30
0.0
 10
11.6968025699
 20
7.0093840497
 30
0.0
 10
11.7066755457
 20
7.0067105939
 30
0.0
 10
11.7163736239
 20
7.0033233615
 30
0.0
 10
11.7258435728
 20
6.9992410385
 30
0.0
 10
11.7350334232
 20
6.9944861108
 30
0.0
 10
11.7438927494
 20
6.9890847405
 30
0.0
 10
11.7523729428
 20
6.9830666222
 30
0.0
 10
11.7604274744
 20
6.976464821
 30
0.0
 10
11.7680121476
 20
6.9693155917
 30
0.0
 10
11.7750853379
 20
6.9616581823
 30
0.0
 10
11.7816082185
 20
6.9535346197
 30
0.0
 10
11.7875449723
 20
6.9449894824
 30
0.0
 10
11.7928629847
 20
6.9360696577
 30
0.0
 10
11.7975330261
 20
6.9268240874
 30
0.0
 10
11.8015293995
 20
6.9173035072
 30
0.0
 10
11.8048301102
 20
6.9075601473
 30
0.0
 10
11.8074169234
 20
6.89764755
 30
0.0
 10
11.8092755892
 20
6.8876199117
 30
0.0
 10
11.810395723
 20
6.8775330709
 30
0.0
 10
11.810646625
 20
6.8707869684
 30
0.0
 10
11.810646625
 20
6.8674237555
 30
0.0
  0
SPLINE
  5
338
100
AcDbEntity
  8
0
100
AcDbSpline
 62
7
  6
CONTINUOUS
 70
0
 71
3
 72
37
 73
33
 74
0
 42
0.0000001
 43
0.0000001
 44
0.0000000001
 40
0.0
 40
0.0
 40
0.0
 40
0.0
 40
0.0299448033
 40
0.0599139857
 40
0.0899313261
 40
0.1200194368
 40
0.1501992296
 40
0.1804894257
 40
0.2109061295
 40
0.2414624764
 40
0.2721683759
 40
0.3030303418
 40
0.3340513927
 40
0.3652310309
 40
0.3965652996
 40
0.428046925
 40
0.45966553
 40
0.4914078862
 40
0.5551593905
 40
0.6191906838
 40
0.6512768977
 40
0.6833671744
 40
0.7154387056
 40
0.7474690601
 40
0.7794366302
 40
0.8113210838
 40
0.8431037264
 40
0.8747679161
 40
0.9062997384
 40
0.9376866971
 40
0.9689232651
 40
1.0
 40
1.0
 40
1.0
 40
1.0
 10
12.6320678193
 20
9.581882589
 30
0.0
 10
12.6333618119
 20
9.5831325041
 30
0.0
 10
12.6360515166
 20
9.585531496
 30
0.0
 10
12.6403608833
 20
9.5887996737
 30
0.0
 10
12.644923001
 20
9.5917212128
 30
0.0
 10
12.649712376
 20
9.5942797304
 30
0.0
 10
12.6547026739
 20
9.5964612554
 30
0.0
 10
12.6598663571
 20
9.598253794
 30
0.0
 10
12.6651749755
 20
9.5996475242
 30
0.0
 10
12.6705992809
 20
9.6006348299
 30
0.0
 10
12.676109403
 20
9.6012103665
 30
0.0
 10
12.681675021
 20
9.6013710446
 30
0.0
 10
12.6872655289
 20
9.60111605
 30
0.0
 10
12.6928501906
 20
9.6004468434
 30
0.0
 10
12.6983983372
 20
9.5993671476
 30
0.0
 10
12.7038794256
 20
9.5978830194
 30
0.0
 10
12.7092636405
 20
9.5960024972
 30
0.0
 10
12.7162817059
 20
9.5929773923
 30
0.0
 10
12.7246625604
 20
9.5882589731
 30
0.0
 10
12.7323225368
 20
9.5824099493
 30
0.0
 10
12.7379313804
 20
9.5771230113
 30
0.0
 10
12.741858364
 20
9.5728717932
 30
0.0
 10
12.7454796061
 20
9.5683619249
 30
0.0
 10
12.7487755078
 20
9.5636179701
 30
0.0
 10
12.7517278973
 20
9.5586660153
 30
0.0
 10
12.7543205637
 20
9.5535332146
 30
0.0
 10
12.756539229
 20
9.5482477363
 30
0.0
 10
12.75837168
 20
9.5428385643
 30
0.0
 10
12.7598077594
 20
9.5373354621
 30
0.0
 10
12.7608396837
 20
9.5317684373
 30
0.0
 10
12.7614615007
 20
9.5261685849
 30
0.0
 10
12.7616008213
 20
9.5224233662
 30
0.0
 10
12.7616008213
 20
9.5205562754
 30
0.0
  0
SPLINE
  5
339
100
AcDbEntity
  8
0
100
AcDbSpline
 62
7
  6
CONTINUOUS
 70
0
 71
3
 72
37
 73
33
 74
0
 42
0.0000001
 43
0.0000001
 44
0.0000000001
 40
0.0
 40
0.0
 40
0.0
 40
0.0
 40
0.0299448033
 40
0.0599139857
 40
0.0899313261
 40
0.1200194368
 40
0.1501992296
 40
0.1804894257
 40
0.2109061295
 40
0.2414624764
 40
0.2721683759
 40
0.3030303418
 40
0.3340513927
 40
0.3652310309
 40
0.3965652996
 40
0.428046925
 40
0.45966553
 40
0.4914078862
 40
0.5551593905
 40
0.6191906838
 40
0.6512768977
 40
0.6833671744
 40
0.7154387056
 40
0.7474690601
 40
0.7794366302
 40
0.8113210838
 40
0.8431037264
 40
0.8747679161
 40
0.9062997384
 40
0.9376866971
 40
0.9689232651
 40
1.0
 40
1.0
 40
1.0
 40
1.0
 10
10.4152678429
 20
7.0773900678
 30
0.0
 10
10.4165618355
 20
7.0786399829
 30
0.0
 10
10.4192515402
 20
7.0810389748
 30
0.0
 10
10.4235609069
 20
7.0843071525
 30
0.0
 10
10.4281230246
 20
7.0872286915
 30
0.0
 10
10.4329123996
 20
7.0897872092
 30
0.0
 10
10.4379026975
 20
7.0919687342
 30
0.0
 10
10.4430663807
 20
7.0937612728
 30
0.0
 10
10.4483749992
 20
7.095155003
 30
0.0
 10
10.4537993045
 20
7.0961423087
 30
0.0
 10
10.4593094266
 20
7.0967178453
 30
0.0
 10
10.4648750447
 20
7.0968785234
 30
0.0
 10
10.4704655526
 20
7.0966235288
 30
0.0
 10
10.4760502142
 20
7.0959543222
 30
0.0
 10
10.4815983609
 20
7.0948746264
 30
0.0
 10
10.4870794493
 20
7.0933904981
 30
0.0
 10
10.4924636641
 20
7.091509976
 30
0.0
 10
10.4994817295
 20
7.0884848711
 30
0.0
 10
10.507862584
 20
7.0837664519
 30
0.0
 10
10.5155225604
 20
7.0779174281
 30
0.0
 10
10.521131404
 20
7.0726304901
 30
0.0
 10
10.5250583876
 20
7.068379272
 30
0.0
 10
10.5286796298
 20
7.0638694037
 30
0.0
 10
10.5319755315
 20
7.0591254489
 30
0.0
 10
10.5349279209
 20
7.0541734941
 30
0.0
 10
10.5375205873
 20
7.0490406934
 30
0.0
 10
10.5397392526
 20
7.0437552151
 30
0.0
 10
10.5415717036
 20
7.0383460431
 30
0.0
 10
10.5430077831
 20
7.0328429408
 30
0.0
 10
10.5440397073
 20
7.0272759161
 30
0.0
 10
10.5446615243
 20
7.0216760636
 30
0.0
 10
10.5448008449
 20
7.017930845
 30
0.0
 10
10.5448008449
 20
7.0160637541
 30
0.0
  0
SPLINE
  5
33A
100
AcDbEntity
  8
0
100
AcDbSpline
 62
7
  6
CONTINUOUS
 70
0
 71
3
 72
25
 73
21
 74
0
 42
0.0000001
 43
0.0000001
 44
0.0000000001
 40
0.0
 40
0.0
 40
0.0
 40
0.0
 40
0.0626377471
 40
0.0938819144
 40
0.1250772851
 40
0.1873257556
 40
0.2494239951
 40
0.2804335652
 40
0.3114198202
 40
0.3733328156
 40
0.4352213647
 40
0.497137346
 40
0.5591363926
 40
0.6212764315
 40
0.6836155568
 40
0.7462094547
 40
0.8091085882
 40
0.8723551406
 40
0.9359793205
 40
1.0
 40
1.0
 40
1.0
 40
1.0
 10
11.3923127054
 20
9.1917726957
 30
0.0
 10
11.3948226851
 20
9.1991767791
 30
0.0
 10
11.3989596352
 20
9.2101525973
 30
0.0
 10
11.4052154216
 20
9.2244580467
 30
0.0
 10
11.4119463145
 20
9.2384929572
 30
0.0
 10
11.4212665101
 20
9.2555429195
 30
0.0
 10
11.4317908643
 20
9.2718511091
 30
0.0
 10
11.4409092566
 20
9.2843750586
 30
0.0
 10
11.4504825226
 20
9.2965252578
 30
0.0
 10
11.4633106142
 20
9.3109995566
 30
0.0
 10
11.4800307298
 20
9.3270893338
 30
0.0
 10
11.4980177129
 20
9.3417694724
 30
0.0
 10
11.5171980746
 20
9.3549097883
 30
0.0
 10
11.5374821276
 20
9.3663830147
 30
0.0
 10
11.5587615872
 20
9.3760672335
 30
0.0
 10
11.580909075
 20
9.3838503428
 30
0.0
 10
11.6037780765
 20
9.3896345161
 30
0.0
 10
11.6272054112
 20
9.3933407219
 30
0.0
 10
11.6510103042
 20
9.3949137524
 30
0.0
 10
11.6669626208
 20
9.3945217495
 30
0.0
 10
11.6749340384
 20
9.3939689299
 30
0.0
  0
SPLINE
  5
33B
100
AcDbEntity
  8
0
100
AcDbSpline
 62
7
  6
CONTINUOUS
 70
0
 71
3
 72
25
 73
21
 74
0
 42
0.0000001
 43
0.0000001
 44
0.0000000001
 40
0.0
 40
0.0
 40
0.0
 40
0.0
 40
0.0622267905
 40
0.1243593511
 40
0.1864210842
 40
0.2484367559
 40
0.310432993
 40
0.3724380964
 40
0.4344820478
 40
0.4965963335
 40
0.5588136723
 40
0.6211676682
 40
0.6836922577
 40
0.7150336576
 40
0.7464304307
 40
0.8093956192
 40
0.8726273501
 40
0.9043563141
 40
0.9361617367
 40
1.0
 40
1.0
 40
1.0
 40
1.0
 10
10.2776829956
 20
9.0729023179
 30
0.0
 10
10.2810866821
 20
9.0786624247
 30
0.0
 10
10.2882090659
 20
9.089988278
 30
0.0
 10
10.2998202764
 20
9.1063389539
 30
0.0
 10
10.3123299536
 20
9.1219850875
 30
0.0
 10
10.3257147256
 20
9.1368700758
 30
0.0
 10
10.3399496074
 20
9.1509362953
 30
0.0
 10
10.3550067683
 20
9.1641238973
 30
0.0
 10
10.3708550362
 20
9.1763710826
 30
0.0
 10
10.3874590234
 20
9.187614104
 30
0.0
 10
10.4047785457
 20
9.1977876216
 30
0.0
 10
10.4227667985
 20
9.2068248506
 30
0.0
 10
10.4382600123
 20
9.2133486186
 30
0.0
 10
10.4509265966
 20
9.2179324693
 30
0.0
 10
10.4637892681
 20
9.222090053
 30
0.0
 10
10.4801779113
 20
9.2264523596
 30
0.0
 10
10.4968714896
 20
9.2296425145
 30
0.0
 10
10.5103810327
 20
9.2314700619
 30
0.0
 10
10.5240126192
 20
9.2328088823
 30
0.0
 10
10.5342992865
 20
9.2332467282
 30
0.0
 10
10.5411630385
 20
9.2332830904
 30
0.0
  0
SPLINE
  5
33C
100
AcDbEntity
  8
0
100
AcDbSpline
 62
7
  6
CONTINUOUS
 70
0
 71
3
 72
39
 73
35
 74
0
 42
0.0000001
 43
0.0000001
 44
0.0000000001
 40
0.0
 40
0.0
 40
0.0
 40
0.0
 40
0.0301480211
 40
0.0603123523
 40
0.0905022119
 40
0.1207266375
 40
0.1509944201
 40
0.1813140367
 40
0.211693613
 40
0.2421408729
 40
0.272663042
 40
0.3032667952
 40
0.3339582197
 40
0.3647427485
 40
0.3956250488
 40
0.4266089752
 40
0.4576975305
 40
0.4888927974
 40
0.5201958425
 40
0.5516066588
 40
0.5831241506
 40
0.6147460916
 40
0.6464690877
 40
0.6782885376
 40
0.7101986545
 40
0.742192505
 40
0.7742620463
 40
0.8063981929
 40
0.8385908976
 40
0.8708292223
 40
0.9031017223
 40
0.9353957568
 40
0.9676999949
 40
1.0
 40
1.0
 40
1.0
 40
1.0
 10
10.859327989
 20
7.7540257386
 30
0.0
 10
10.8630843393
 20
7.7573995806
 30
0.0
 10
10.8707663889
 20
7.7639654311
 30
0.0
 10
10.8827624725
 20
7.7732391287
 30
0.0
 10
10.8952098512
 20
7.7819207102
 30
0.0
 10
10.9080825363
 20
7.7899906679
 30
0.0
 10
10.9213542868
 20
7.7974306058
 30
0.0
 10
10.9349979853
 20
7.8042227328
 30
0.0
 10
10.9489857648
 20
7.8103499824
 30
0.0
 10
10.9632889066
 20
7.8157959998
 30
0.0
 10
10.9778777722
 20
7.8205452464
 30
0.0
 10
10.9927217593
 20
7.8245830299
 30
0.0
 10
11.0077892615
 20
7.8278955571
 30
0.0
 10
11.0230476143
 20
7.8304700131
 30
0.0
 10
11.0384630389
 20
7.832294718
 30
0.0
 10
11.0540006207
 20
7.8333592188
 30
0.0
 10
11.069624299
 20
7.8336544013
 30
0.0
 10
11.085296858
 20
7.8331726314
 30
0.0
 10
11.1009799342
 20
7.8319079442
 30
0.0
 10
11.1166340572
 20
7.8298562241
 30
0.0
 10
11.1322187139
 20
7.8270153379
 30
0.0
 10
11.1476924393
 20
7.8233853207
 30
0.0
 10
11.1630129234
 20
7.8189685456
 30
0.0
 10
11.1781371689
 20
7.8137699359
 30
0.0
 10
11.193021673
 20
7.8077971085
 30
0.0
 10
11.2076226386
 20
7.8010604954
 30
0.0
 10
11.2218962195
 20
7.793573468
 30
0.0
 10
11.2357987889
 20
7.7853524238
 30
0.0
 10
11.2492872215
 20
7.7764168496
 30
0.0
 10
11.2623192834
 20
7.7667893493
 30
0.0
 10
11.2748537456
 20
7.7564956142
 30
0.0
 10
11.2868512527
 20
7.7455641628
 30
0.0
 10
11.2982733653
 20
7.7340269179
 30
0.0
 10
11.3054830729
 20
7.7259518063
 30
0.0
 10
11.3089804715
 20
7.7218250062
 30
0.0
  0
SPLINE
  5
33D
100
AcDbEntity
  8
0
100
AcDbSpline
 62
7
  6
CONTINUOUS
 70
0
 71
3
 72
41
 73
37
 74
0
 42
0.0000001
 43
0.0000001
 44
0.0000000001
 40
0.0
 40
0.0
 40
0.0
 40
0.0
 40
0.0300286532
 40
0.0450802141
 40
0.0601571029
 40
0.0903878945
 40
0.1207337778
 40
0.1512016285
 40
0.1817964225
 40
0.2125212266
 40
0.2433772066
 40
0.2743636497
 40
0.3054780004
 40
0.3367159063
 40
0.3680712746
 40
0.3995363393
 40
0.4311017383
 40
0.4627566037
 40
0.4944886665
 40
0.5262843774
 40
0.558129047
 40
0.5900070079
 40
0.6219018007
 40
0.6537963855
 40
0.685673381
 40
0.7175153293
 40
0.7493049867
 40
0.7810256347
 40
0.8126614081
 40
0.8441976282
 40
0.8756211493
 40
0.9069206354
 40
0.9380870089
 40
0.9536199795
 40
0.96911764
 40
1.0
 40
1.0
 40
1.0
 40
1.0
 10
12.117110664
 20
7.7437116606
 30
0.0
 10
12.1235943352
 20
7.7466183487
 30
0.0
 10
12.1334768408
 20
7.7506602123
 30
0.0
 10
12.1469025083
 20
7.7553953002
 30
0.0
 10
12.1605214839
 20
7.7597048177
 30
0.0
 10
12.1778442392
 20
7.7642718939
 30
0.0
 10
12.198998609
 20
7.7684203912
 30
0.0
 10
12.2204589203
 20
7.7712312138
 30
0.0
 10
12.2421423416
 20
7.7726970543
 30
0.0
 10
12.2639665871
 20
7.7728149387
 30
0.0
 10
12.2858491325
 20
7.7715858618
 30
0.0
 10
12.3077074901
 20
7.7690148159
 30
0.0
 10
12.3294591887
 20
7.7651107581
 30
0.0
 10
12.3510218344
 20
7.7598866377
 30
0.0
 10
12.3723131603
 20
7.7533594486
 30
0.0
 10
12.3932510998
 20
7.7455503147
 30
0.0
 10
12.4137538833
 20
7.7364846001
 30
0.0
 10
12.4337401683
 20
7.7261920418
 30
0.0
 10
12.4531292082
 20
7.7147068972
 30
0.0
 10
12.4718410661
 20
7.7020680991
 30
0.0
 10
12.4897968795
 20
7.688319411
 30
0.0
 10
12.5069191785
 20
7.6735095705
 30
0.0
 10
12.5231322611
 20
7.6576924116
 30
0.0
 10
12.5383626244
 20
7.6409269524
 30
0.0
 10
12.5525394509
 20
7.6232774368
 30
0.0
 10
12.5655951436
 20
7.6048133168
 30
0.0
 10
12.5774659034
 20
7.5856091615
 30
0.0
 10
12.5880923356
 20
7.5657444911
 30
0.0
 10
12.5974200725
 20
7.5453034943
 30
0.0
 10
12.6054003939
 20
7.5243747387
 30
0.0
 10
12.6119908367
 20
7.5030504539
 30
0.0
 10
12.6171556972
 20
7.481426928
 30
0.0
 10
12.6202518102
 20
7.4632173776
 30
0.0
 10
12.6219887715
 20
7.4486006037
 30
0.0
 10
12.6232286358
 20
7.4340013096
 30
0.0
 10
12.6236038221
 20
7.4230221589
 30
0.0
 10
12.6236038221
 20
7.4157147457
 30
0.0
  0
SPLINE
  5
33E
100
AcDbEntity
  8
0
100
AcDbSpline
 62
7
  6
CONTINUOUS
 70
0
 71
3
 72
18
 73
14
 74
0
 42
0.0000001
 43
0.0000001
 44
0.0000000001
 40
0.0
 40
0.0
 40
0.0
 40
0.0
 40
0.0544329352
 40
0.1090826489
 40
0.1641632408
 40
0.2198833593
 40
0.3339856842
 40
0.4529290252
 40
0.5146470264
 40
0.5780419322
 40
0.7103385855
 40
0.8507563301
 40
1.0
 40
1.0
 40
1.0
 40
1.0
 10
9.3934662499
 20
10.3938595996
 30
0.0
 10
9.3927032834
 20
10.3939125078
 30
0.0
 10
9.3911703738
 20
10.3939685492
 30
0.0
 10
9.3888632524
 20
10.3939025792
 30
0.0
 10
9.3865470227
 20
10.3936866245
 30
0.0
 10
9.3834237056
 20
10.3931952518
 30
0.0
 10
9.3794815245
 20
10.3921925925
 30
0.0
 10
9.3756029502
 20
10.390716291
 30
0.0
 10
9.3725006179
 20
10.3892527373
 30
0.0
 10
9.3693086952
 20
10.3875493317
 30
0.0
 10
9.3653050332
 20
10.3850320084
 30
0.0
 10
9.3605609171
 20
10.3814671625
 30
0.0
 10
9.3574928794
 20
10.3787872505
 30
0.0
 10
9.3559578887
 20
10.3773586614
 30
0.0
  0
SPLINE
  5
33F
100
AcDbEntity
  8
0
100
AcDbSpline
 62
7
  6
CONTINUOUS
 70
0
 71
3
 72
18
 73
14
 74
0
 42
0.0000001
 43
0.0000001
 44
0.0000000001
 40
0.0
 40
0.0
 40
0.0
 40
0.0
 40
0.1492433865
 40
0.2896567537
 40
0.4219549226
 40
0.4853510248
 40
0.547069665
 40
0.6660128776
 40
0.7801156975
 40
0.8358359998
 40
0.8909168778
 40
0.9455668631
 40
1.0
 40
1.0
 40
1.0
 40
1.0
 10
9.0947410554
 20
7.0008776335
 30
0.0
 10
9.0960641368
 20
6.9992508263
 30
0.0
 10
9.0987328491
 20
6.9961731277
 30
0.0
 10
9.1029394367
 20
6.9919875753
 30
0.0
 10
9.1065572819
 20
6.9889417269
 30
0.0
 10
9.1094835337
 20
6.9868139715
 30
0.0
 10
9.1123541429
 20
6.9849361456
 30
0.0
 10
9.1159918488
 20
6.9829386463
 30
0.0
 10
9.1197578691
 20
6.9814013549
 30
0.0
 10
9.1227834844
 20
6.9804835864
 30
0.0
 10
9.1250477378
 20
6.9799499629
 30
0.0
 10
9.1273236724
 20
6.9795661216
 30
0.0
 10
9.1288496523
 20
6.9794100448
 30
0.0
 10
9.1296126216
 20
6.9793571363
 30
0.0
  0
SPLINE
  5
340
100
AcDbEntity
  8
0
100
AcDbSpline
 62
7
  6
CONTINUOUS
 70
0
 71
3
 72
47
 73
43
 74
0
 42
0.0000001
 43
0.0000001
 44
0.0000000001
 40
0.0
 40
0.0
 40
0.0
 40
0.0
 40
0.0063158953
 40
0.0126706964
 40
0.0191025413
 40
0.0256481068
 40
0.0323419887
 40
0.0392163511
 40
0.0536141938
 40
0.0611949453
 40
0.0690567093
 40
0.0772178306
 40
0.0856942536
 40
0.094499648
 40
0.1036457893
 40
0.1131425899
 40
0.1229983503
 40
0.1332200167
 40
0.1438131323
 40
0.1547821683
 40
0.1661305713
 40
0.1899729423
 40
0.2153524409
 40
0.2422683478
 40
0.2707106917
 40
0.3006617255
 40
0.3320970385
 40
0.3649863926
 40
0.3992943516
 40
0.4349809011
 40
0.4720019229
 40
0.5103095575
 40
0.5498524869
 40
0.5905762826
 40
0.6324236706
 40
0.6753347453
 40
0.7192471563
 40
0.7640962954
 40
0.8098156376
 40
0.856336788
 40
0.9035890146
 40
1.0
 40
1.0
 40
1.0
 40
1.0
 10
14.1973052373
 20
8.0488244697
 30
0.0
 10
14.1961964745
 20
8.048901363
 30
0.0
 10
14.1939773612
 20
8.0491464037
 30
0.0
 10
14.1906735553
 20
8.0497850281
 30
0.0
 10
14.1873918267
 20
8.0506947432
 30
0.0
 10
14.1841341222
 20
8.0518748801
 30
0.0
 10
14.1809016709
 20
8.0533246414
 30
0.0
 10
14.1765613891
 20
8.0556512921
 30
0.0
 10
14.1723389417
 20
8.0584994142
 30
0.0
 10
14.1682527245
 20
8.0617999968
 30
0.0
 10
14.1651662372
 20
8.0645827557
 30
0.0
 10
14.1621126989
 20
8.0676284824
 30
0.0
 10
14.1590929177
 20
8.0709361272
 30
0.0
 10
14.1561080586
 20
8.0745042056
 30
0.0
 10
14.1531592779
 20
8.0783313149
 30
0.0
 10
14.1502476891
 20
8.0824158704
 30
0.0
 10
14.1473743996
 20
8.0867562064
 30
0.0
 10
14.1445405916
 20
8.0913505943
 30
0.0
 10
14.1417473426
 20
8.0961971379
 30
0.0
 10
14.1389957578
 20
8.1012938946
 30
0.0
 10
14.1353235233
 20
8.1085401459
 30
0.0
 10
14.1308578444
 20
8.118222805
 30
0.0
 10
14.1257676102
 20
8.130620048
 30
0.0
 10
14.1208694134
 20
8.1439598897
 30
0.0
 10
14.1161712673
 20
8.1582205615
 30
0.0
 10
14.1116808802
 20
8.1733790399
 30
0.0
 10
14.1074056855
 20
8.1894106323
 30
0.0
 10
14.1033527872
 20
8.2062891645
 30
0.0
 10
14.0995289121
 20
8.2239869885
 30
0.0
 10
14.0959404236
 20
8.2424750648
 30
0.0
 10
14.0925933027
 20
8.2617230241
 30
0.0
 10
14.0894931368
 20
8.2816992147
 30
0.0
 10
14.0866450814
 20
8.3023707539
 30
0.0
 10
14.0840538804
 20
8.3237035948
 30
0.0
 10
14.0817238556
 20
8.3456625931
 30
0.0
 10
14.079658899
 20
8.3682115611
 30
0.0
 10
14.0778624452
 20
8.3913133153
 30
0.0
 10
14.0763374812
 20
8.414929769
 30
0.0
 10
14.0750865632
 20
8.4390219702
 30
0.0
 10
14.0741117704
 20
8.4635501624
 30
0.0
 10
14.073176228
 20
8.4970048978
 30
0.0
 10
14.0729048495
 20
8.5222870466
 30
0.0
 10
14.0729048495
 20
8.5392527603
 30
0.0
  0
SPLINE
  5
341
100
AcDbEntity
  8
0
100
AcDbSpline
 62
7
  6
CONTINUOUS
 70
0
 71
3
 72
21
 73
17
 74
0
 42
0.0000001
 43
0.0000001
 44
0.0000000001
 40
0.0
 40
0.0
 40
0.0
 40
0.0
 40
0.1273176984
 40
0.2537999461
 40
0.3167619614
 40
0.3795355204
 40
0.4421314992
 40
0.5045621453
 40
0.5668413456
 40
0.6289845231
 40
0.6910084433
 40
0.7529310869
 40
0.8147714401
 40
0.8765493236
 40
0.9382852134
 40
1.0
 40
1.0
 40
1.0
 40
1.0
 10
9.5692156874
 20
9.7419489363
 30
0.0
 10
9.5692156874
 20
9.7484473588
 30
0.0
 10
9.5698360052
 20
9.7614099264
 30
0.0
 10
9.5721787712
 20
9.7774344583
 30
0.0
 10
9.5749788733
 20
9.7900043003
 30
0.0
 10
9.5775324203
 20
9.7992758218
 30
0.0
 10
9.5805365156
 20
9.8083825931
 30
0.0
 10
9.5839842332
 20
9.8173038798
 30
0.0
 10
9.5878676243
 20
9.8260190483
 30
0.0
 10
9.5921778127
 20
9.8345079845
 30
0.0
 10
9.5969048275
 20
9.8427511201
 30
0.0
 10
9.6020377673
 20
9.8507294578
 30
0.0
 10
9.6075648443
 20
9.8584245358
 30
0.0
 10
9.6134733465
 20
9.8658186816
 30
0.0
 10
9.6197493859
 20
9.8728946372
 30
0.0
 10
9.6241696844
 20
9.8773897008
 30
0.0
 10
9.6264353317
 20
9.8795781348
 30
0.0
  0
SPLINE
  5
342
100
AcDbEntity
  8
0
100
AcDbSpline
 62
7
  6
CONTINUOUS
 70
0
 71
3
 72
15
 73
11
 74
0
 42
0.0000001
 43
0.0000001
 44
0.0000000001
 40
0.0
 40
0.0
 40
0.0
 40
0.0
 40
0.127347711
 40
0.2538606874
 40
0.3795878987
 40
0.5046050998
 40
0.6290174656
 40
0.7529533976
 40
0.8765605982
 40
1.0
 40
1.0
 40
1.0
 40
1.0
 10
12.6109163835
 20
9.5310062766
 30
0.0
 10
12.6109163835
 20
9.5334084771
 30
0.0
 10
12.6111457458
 20
9.5382004528
 30
0.0
 10
12.6121829876
 20
9.5452962535
 30
0.0
 10
12.6139029432
 20
9.552213774
 30
0.0
 10
12.616290048
 20
9.5588883036
 30
0.0
 10
12.6193224034
 20
9.5652583065
 30
0.0
 10
12.6229723716
 20
9.5712649618
 30
0.0
 10
12.6272056382
 20
9.5768519834
 30
0.0
 10
12.6303930609
 20
9.5802648781
 30
0.0
 10
12.6320678193
 20
9.581882589
 30
0.0
  0
SPLINE
  5
343
100
AcDbEntity
  8
0
100
AcDbSpline
 62
7
  6
CONTINUOUS
 70
0
 71
3
 72
44
 73
40
 74
0
 42
0.0000001
 43
0.0000001
 44
0.0000000001
 40
0.0
 40
0.0
 40
0.0
 40
0.0
 40
0.0071626857
 40
0.0146567757
 40
0.022489911
 40
0.0306684145
 40
0.0391974259
 40
0.0480806762
 40
0.0573204283
 40
0.0669179841
 40
0.0768736187
 40
0.0871868551
 40
0.0978564091
 40
0.1088802697
 40
0.1202558776
 40
0.1319799881
 40
0.1564577855
 40
0.1822791762
 40
0.2094020597
 40
0.23777844
 40
0.2673551012
 40
0.2980741647
 40
0.329873556
 40
0.3626874121
 40
0.3964464604
 40
0.4310783547
 40
0.4665079852
 40
0.5026577713
 40
0.5394479405
 40
0.5767967958
 40
0.6146209874
 40
0.652835776
 40
0.6913552897
 40
0.7689593762
 40
0.8467346714
 40
0.885467838
 40
0.9239805093
 40
0.9621870323
 40
1.0
 40
1.0
 40
1.0
 40
1.0
 10
9.1684940658
 20
10.1963066999
 30
0.0
 10
9.1672766796
 20
10.195130795
 30
0.0
 10
9.1648435358
 20
10.1926640031
 30
0.0
 10
9.1612773486
 20
10.1887218548
 30
0.0
 10
9.1577157142
 20
10.1844578175
 30
0.0
 10
9.1541608894
 20
10.1798746522
 30
0.0
 10
9.1506148461
 20
10.1749750202
 30
0.0
 10
9.1470796542
 20
10.1697617581
 30
0.0
 10
9.1435573222
 20
10.1642379689
 30
0.0
 10
9.140050034
 20
10.1584069034
 30
0.0
 10
9.136559812
 20
10.1522720646
 30
0.0
 10
9.1330887754
 20
10.1458370867
 30
0.0
 10
9.1296389909
 20
10.13910581
 30
0.0
 10
9.1262125088
 20
10.1320822648
 30
0.0
 10
9.1228114132
 20
10.1247706315
 30
0.0
 10
9.11824746
 20
10.1144954255
 30
0.0
 10
9.1126322324
 20
10.100954618
 30
0.0
 10
9.1061202439
 20
10.0838553065
 30
0.0
 10
9.0997570505
 20
10.0657209041
 30
0.0
 10
9.0935580477
 20
10.0465949283
 30
0.0
 10
9.0875382489
 20
10.0265231204
 30
0.0
 10
9.0817122354
 20
10.0055536257
 30
0.0
 10
9.0760941176
 20
9.9837367795
 30
0.0
 10
9.0706974946
 20
9.9611250015
 30
0.0
 10
9.0655354269
 20
9.937772651
 30
0.0
 10
9.0606204037
 20
9.9137358899
 30
0.0
 10
9.0559643132
 20
9.8890725432
 30
0.0
 10
9.0515784138
 20
9.8638419567
 30
0.0
 10
9.0474733102
 20
9.8381048553
 30
0.0
 10
9.0436589167
 20
9.8119231903
 30
0.0
 10
9.0401444546
 20
9.7853600054
 30
0.0
 10
9.0369383725
 20
9.7584792127
 30
0.0
 10
9.0330758617
 20
9.7222128372
 30
0.0
 10
9.0290742578
 20
9.6765639909
 30
0.0
 10
9.0261869966
 20
9.6307806036
 30
0.0
 10
9.0245575027
 20
9.5941840687
 30
0.0
 10
9.0236830365
 20
9.5669155556
 30
0.0
 10
9.0231566472
 20
9.5398556598
 30
0.0
 10
9.0230378825
 20
9.5218917916
 30
0.0
 10
9.0230378825
 20
9.512956461
 30
0.0
  0
SPLINE
  5
344
100
AcDbEntity
  8
0
100
AcDbSpline
 62
7
  6
CONTINUOUS
 70
0
 71
3
 72
23
 73
19
 74
0
 42
0.0000001
 43
0.0000001
 44
0.0000000001
 40
0.0
 40
0.0
 40
0.0
 40
0.0
 40
0.0812193332
 40
0.1593697577
 40
0.2345157338
 40
0.3067346313
 40
0.3761199597
 40
0.442782543
 40
0.5068521552
 40
0.5684807857
 40
0.6278431382
 40
0.6851394578
 40
0.7405963555
 40
0.7944668113
 40
0.8470302385
 40
0.898589376
 40
0.949466949
 40
1.0
 40
1.0
 40
1.0
 40
1.0
 10
14.2548128405
 20
8.0829322941
 30
0.0
 10
14.2536286872
 20
8.0814721334
 30
0.0
 10
14.2512602585
 20
8.0786429363
 30
0.0
 10
14.2476344144
 20
8.0746016954
 30
0.0
 10
14.244006005
 20
8.0708471953
 30
0.0
 10
14.2403765782
 20
8.0673812277
 30
0.0
 10
14.236747683
 20
8.0642053418
 30
0.0
 10
14.2331208559
 20
8.0613209867
 30
0.0
 10
14.2294975428
 20
8.0587295918
 30
0.0
 10
14.2258792859
 20
8.0564323638
 30
0.0
 10
14.2222675191
 20
8.0544305633
 30
0.0
 10
14.2186637504
 20
8.0527253166
 30
0.0
 10
14.2150695344
 20
8.0513176492
 30
0.0
 10
14.2114864361
 20
8.0502086588
 30
0.0
 10
14.2079162333
 20
8.0493991423
 30
0.0
 10
14.2043606524
 20
8.0488899389
 30
0.0
 10
14.2008220166
 20
8.0486815891
 30
0.0
 10
14.1984721148
 20
8.0487435463
 30
0.0
 10
14.1973052373
 20
8.0488244697
 30
0.0
  0
SPLINE
  5
345
100
AcDbEntity
  8
0
100
AcDbSpline
 62
7
  6
CONTINUOUS
 70
0
 71
3
 72
15
 73
11
 74
0
 42
0.0000001
 43
0.0000001
 44
0.0000000001
 40
0.0
 40
0.0
 40
0.0
 40
0.0
 40
0.1273483438
 40
0.2538606048
 40
0.3795878922
 40
0.5046051199
 40
0.6290174392
 40
0.7529533668
 40
0.8765605676
 40
1.0
 40
1.0
 40
1.0
 40
1.0
 10
10.9345519187
 20
9.7081158715
 30
0.0
 10
10.9345519187
 20
9.7124430358
 30
0.0
 10
10.9349650805
 20
9.7210749376
 30
0.0
 10
10.9368335619
 20
9.7338567675
 30
0.0
 10
10.9399318168
 20
9.7463174315
 30
0.0
 10
10.944231854
 20
9.7583403979
 30
0.0
 10
10.9496942341
 20
9.7698147829
 30
0.0
 10
10.9562691667
 20
9.7806346217
 30
0.0
 10
10.9638948002
 20
9.7906985558
 30
0.0
 10
10.9696365297
 20
9.7968461482
 30
0.0
 10
10.9726533426
 20
9.7997601416
 30
0.0
  0
SPLINE
  5
346
100
AcDbEntity
  8
0
100
AcDbSpline
 62
7
  6
CONTINUOUS
 70
0
 71
3
 72
42
 73
38
 74
0
 42
0.0000001
 43
0.0000001
 44
0.0000000001
 40
0.0
 40
0.0
 40
0.0
 40
0.0
 40
0.0299419634
 40
0.0449235299
 40
0.0599142017
 40
0.0899287029
 40
0.1200139772
 40
0.1350926626
 40
0.1501967046
 40
0.1804840506
 40
0.2108978877
 40
0.2414513551
 40
0.2721543675
 40
0.3030134354
 40
0.3340315696
 40
0.3652082675
 40
0.3965395775
 40
0.4280182343
 40
0.4596338596
 40
0.4913732188
 40
0.5232205284
 40
0.5551578047
 40
0.5871652463
 40
0.6192216448
 40
0.6513048151
 40
0.6833920402
 40
0.7154605222
 40
0.747487836
 40
0.7794523759
 40
0.8113337934
 40
0.8431134117
 40
0.8747746318
 40
0.9063032512
 40
0.9376879208
 40
0.9533258
 40
0.9689252634
 40
1.0
 40
1.0
 40
1.0
 40
1.0
 10
9.9196167659
 20
9.5760511448
 30
0.0
 10
9.9161163441
 20
9.5726700176
 30
0.0
 10
9.9106593759
 20
9.567803208
 30
0.0
 10
9.9030170149
 20
9.5617645573
 30
0.0
 10
9.895131283
 20
9.556026399
 30
0.0
 10
9.8848416996
 20
9.5494371343
 30
0.0
 10
9.8740518305
 20
9.5436734346
 30
0.0
 10
9.8651529847
 20
9.539573133
 30
0.0
 10
9.8560703149
 20
9.5358113175
 30
0.0
 10
9.8444176614
 20
9.5317663027
 30
0.0
 10
9.8300575322
 20
9.5279964504
 30
0.0
 10
9.8153840628
 20
9.5253258002
 30
0.0
 10
9.8004785713
 20
9.5237690859
 30
0.0
 10
9.7854229369
 20
9.523334615
 30
0.0
 10
9.7702999999
 20
9.5240245988
 30
0.0
 10
9.7551928794
 20
9.5258350515
 30
0.0
 10
9.7401845824
 20
9.5287558475
 30
0.0
 10
9.7253575361
 20
9.5327707768
 30
0.0
 10
9.7107931465
 20
9.5378576412
 30
0.0
 10
9.6965713556
 20
9.543988379
 30
0.0
 10
9.6827702098
 20
9.5511292219
 30
0.0
 10
9.6694654375
 20
9.5592408807
 30
0.0
 10
9.6567300387
 20
9.5682787612
 30
0.0
 10
9.6446338899
 20
9.5781932071
 30
0.0
 10
9.6332433651
 20
9.5889297718
 30
0.0
 10
9.6226209757
 20
9.6004295136
 30
0.0
 10
9.6128250311
 20
9.6126293167
 30
0.0
 10
9.6039093218
 20
9.625462235
 30
0.0
 10
9.5959228265
 20
9.6388578508
 30
0.0
 10
9.5889094453
 20
9.652742673
 30
0.0
 10
9.582907762
 20
9.6670404774
 30
0.0
 10
9.5779508198
 20
9.6816729317
 30
0.0
 10
9.5740660025
 20
9.6965592355
 30
0.0
 10
9.5717369682
 20
9.7091248898
 30
0.0
 10
9.570430449
 20
9.7192212407
 30
0.0
 10
9.5694980184
 20
9.7293079302
 30
0.0
 10
9.5692156874
 20
9.7368980961
 30
0.0
 10
9.5692156874
 20
9.7419489363
 30
0.0
  0
SPLINE
  5
347
100
AcDbEntity
  8
0
100
AcDbSpline
 62
7
  6
CONTINUOUS
 70
0
 71
3
 72
42
 73
38
 74
0
 42
0.0000001
 43
0.0000001
 44
0.0000000001
 40
0.0
 40
0.0
 40
0.0
 40
0.0
 40
0.0299419634
 40
0.0449235299
 40
0.0599142017
 40
0.0899287029
 40
0.1200139772
 40
0.1350926626
 40
0.1501967046
 40
0.1804840506
 40
0.2108978877
 40
0.2414513551
 40
0.2721543675
 40
0.3030134354
 40
0.3340315696
 40
0.3652082675
 40
0.3965395775
 40
0.4280182343
 40
0.4596338596
 40
0.4913732188
 40
0.5232205284
 40
0.5551578047
 40
0.5871652463
 40
0.6192216448
 40
0.6513048151
 40
0.6833920402
 40
0.7154605222
 40
0.747487836
 40
0.7794523759
 40
0.8113337934
 40
0.8431134117
 40
0.8747746318
 40
0.9063032512
 40
0.9376879208
 40
0.9533258
 40
0.9689252634
 40
1.0
 40
1.0
 40
1.0
 40
1.0
 10
13.7833201272
 20
9.3081024066
 30
0.0
 10
13.7798197055
 20
9.3047212794
 30
0.0
 10
13.7743627373
 20
9.2998544699
 30
0.0
 10
13.7667203763
 20
9.2938158191
 30
0.0
 10
13.7588346444
 20
9.2880776608
 30
0.0
 10
13.748545061
 20
9.2814883961
 30
0.0
 10
13.7377551918
 20
9.2757246964
 30
0.0
 10
13.728856346
 20
9.2716243948
 30
0.0
 10
13.7197736762
 20
9.2678625793
 30
0.0
 10
13.7081210227
 20
9.2638175645
 30
0.0
 10
13.6937608935
 20
9.2600477122
 30
0.0
 10
13.6790874241
 20
9.257377062
 30
0.0
 10
13.6641819327
 20
9.2558203477
 30
0.0
 10
13.6491262983
 20
9.2553858768
 30
0.0
 10
13.6340033613
 20
9.2560758606
 30
0.0
 10
13.6188962408
 20
9.2578863133
 30
0.0
 10
13.6038879437
 20
9.2608071093
 30
0.0
 10
13.5890608975
 20
9.2648220387
 30
0.0
 10
13.5744965078
 20
9.269908903
 30
0.0
 10
13.5602747169
 20
9.2760396408
 30
0.0
 10
13.5464735712
 20
9.2831804837
 30
0.0
 10
13.5331687988
 20
9.2912921426
 30
0.0
 10
13.5204334
 20
9.300330023
 30
0.0
 10
13.5083372512
 20
9.310244469
 30
0.0
 10
13.4969467264
 20
9.3209810336
 30
0.0
 10
13.486324337
 20
9.3324807754
 30
0.0
 10
13.4765283925
 20
9.3446805785
 30
0.0
 10
13.4676126831
 20
9.3575134968
 30
0.0
 10
13.4596261878
 20
9.3709091126
 30
0.0
 10
13.4526128067
 20
9.3847939348
 30
0.0
 10
13.4466111233
 20
9.3990917392
 30
0.0
 10
13.4416541811
 20
9.4137241935
 30
0.0
 10
13.4377693638
 20
9.4286104973
 30
0.0
 10
13.4354403295
 20
9.4411761516
 30
0.0
 10
13.4341338104
 20
9.4512725025
 30
0.0
 10
13.4332013798
 20
9.461359192
 30
0.0
 10
13.4329190487
 20
9.4689493579
 30
0.0
 10
13.4329190487
 20
9.4740001982
 30
0.0
  0
SPLINE
  5
348
100
AcDbEntity
  8
0
100
AcDbSpline
 62
7
  6
CONTINUOUS
 70
0
 71
3
 72
15
 73
11
 74
0
 42
0.0000001
 43
0.0000001
 44
0.0000000001
 40
0.0
 40
0.0
 40
0.0
 40
0.0
 40
0.1273483438
 40
0.2538606048
 40
0.3795878922
 40
0.5046051199
 40
0.6290174392
 40
0.7529533668
 40
0.8765605676
 40
1.0
 40
1.0
 40
1.0
 40
1.0
 10
11.5392214517
 20
6.8862471552
 30
0.0
 10
11.5392214517
 20
6.8905743194
 30
0.0
 10
11.5396346136
 20
6.8992062212
 30
0.0
 10
11.5415030949
 20
6.9119880512
 30
0.0
 10
11.5446013499
 20
6.9244487151
 30
0.0
 10
11.5489013871
 20
6.9364716815
 30
0.0
 10
11.5543637671
 20
6.9479460665
 30
0.0
 10
11.5609386998
 20
6.9587659053
 30
0.0
 10
11.5685643333
 20
6.9688298394
 30
0.0
 10
11.5743060628
 20
6.9749774319
 30
0.0
 10
11.5773228757
 20
6.9778914253
 30
0.0
  0
SPLINE
  5
349
100
AcDbEntity
  8
0
100
AcDbSpline
 62
7
  6
CONTINUOUS
 70
0
 71
3
 72
42
 73
38
 74
0
 42
0.0000001
 43
0.0000001
 44
0.0000000001
 40
0.0
 40
0.0
 40
0.0
 40
0.0
 40
0.0299419634
 40
0.0449235299
 40
0.0599142017
 40
0.0899287029
 40
0.1200139772
 40
0.1350926626
 40
0.1501967046
 40
0.1804840506
 40
0.2108978877
 40
0.2414513551
 40
0.2721543675
 40
0.3030134354
 40
0.3340315696
 40
0.3652082675
 40
0.3965395775
 40
0.4280182343
 40
0.4596338596
 40
0.4913732188
 40
0.5232205284
 40
0.5551578047
 40
0.5871652463
 40
0.6192216448
 40
0.6513048151
 40
0.6833920402
 40
0.7154605222
 40
0.747487836
 40
0.7794523759
 40
0.8113337934
 40
0.8431134117
 40
0.8747746318
 40
0.9063032512
 40
0.9376879208
 40
0.9533258
 40
0.9689252634
 40
1.0
 40
1.0
 40
1.0
 40
1.0
 10
13.7833201272
 20
6.6498742849
 30
0.0
 10
13.7798197055
 20
6.6464931577
 30
0.0
 10
13.7743627373
 20
6.6416263481
 30
0.0
 10
13.7667203763
 20
6.6355876974
 30
0.0
 10
13.7588346444
 20
6.6298495391
 30
0.0
 10
13.748545061
 20
6.6232602744
 30
0.0
 10
13.7377551918
 20
6.6174965747
 30
0.0
 10
13.728856346
 20
6.613396273
 30
0.0
 10
13.7197736762
 20
6.6096344576
 30
0.0
 10
13.7081210227
 20
6.6055894428
 30
0.0
 10
13.6937608935
 20
6.6018195905
 30
0.0
 10
13.6790874241
 20
6.5991489403
 30
0.0
 10
13.6641819327
 20
6.5975922259
 30
0.0
 10
13.6491262983
 20
6.5971577551
 30
0.0
 10
13.6340033613
 20
6.5978477389
 30
0.0
 10
13.6188962408
 20
6.5996581916
 30
0.0
 10
13.6038879437
 20
6.6025789876
 30
0.0
 10
13.5890608975
 20
6.6065939169
 30
0.0
 10
13.5744965078
 20
6.6116807813
 30
0.0
 10
13.5602747169
 20
6.6178115191
 30
0.0
 10
13.5464735712
 20
6.624952362
 30
0.0
 10
13.5331687988
 20
6.6330640208
 30
0.0
 10
13.5204334
 20
6.6421019012
 30
0.0
 10
13.5083372512
 20
6.6520163472
 30
0.0
 10
13.4969467264
 20
6.6627529118
 30
0.0
 10
13.486324337
 20
6.6742526536
 30
0.0
 10
13.4765283925
 20
6.6864524568
 30
0.0
 10
13.4676126831
 20
6.699285375
 30
0.0
 10
13.4596261878
 20
6.7126809909
 30
0.0
 10
13.4526128067
 20
6.7265658131
 30
0.0
 10
13.4466111233
 20
6.7408636175
 30
0.0
 10
13.4416541811
 20
6.7554960718
 30
0.0
 10
13.4377693638
 20
6.7703823756
 30
0.0
 10
13.4354403295
 20
6.7829480299
 30
0.0
 10
13.4341338104
 20
6.7930443808
 30
0.0
 10
13.4332013798
 20
6.8031310703
 30
0.0
 10
13.4329190487
 20
6.8107212362
 30
0.0
 10
13.4329190487
 20
6.8157720764
 30
0.0
  0
SPLINE
  5
34A
100
AcDbEntity
  8
0
100
AcDbSpline
 62
7
  6
CONTINUOUS
 70
0
 71
3
 72
42
 73
38
 74
0
 42
0.0000001
 43
0.0000001
 44
0.0000000001
 40
0.0
 40
0.0
 40
0.0
 40
0.0
 40
0.0299419634
 40
0.0449235299
 40
0.0599142017
 40
0.0899287029
 40
0.1200139772
 40
0.1350926626
 40
0.1501967046
 40
0.1804840506
 40
0.2108978877
 40
0.2414513551
 40
0.2721543675
 40
0.3030134354
 40
0.3340315696
 40
0.3652082675
 40
0.3965395775
 40
0.4280182343
 40
0.4596338596
 40
0.4913732188
 40
0.5232205284
 40
0.5551578047
 40
0.5871652463
 40
0.6192216448
 40
0.6513048151
 40
0.6833920402
 40
0.7154605222
 40
0.747487836
 40
0.7794523759
 40
0.8113337934
 40
0.8431134117
 40
0.8747746318
 40
0.9063032512
 40
0.9376879208
 40
0.9533258
 40
0.9689252634
 40
1.0
 40
1.0
 40
1.0
 40
1.0
 10
9.9196167659
 20
6.9178230231
 30
0.0
 10
9.9161163441
 20
6.9144418959
 30
0.0
 10
9.9106593759
 20
6.9095750863
 30
0.0
 10
9.9030170149
 20
6.9035364356
 30
0.0
 10
9.895131283
 20
6.8977982773
 30
0.0
 10
9.8848416996
 20
6.8912090125
 30
0.0
 10
9.8740518305
 20
6.8854453129
 30
0.0
 10
9.8651529847
 20
6.8813450112
 30
0.0
 10
9.8560703149
 20
6.8775831958
 30
0.0
 10
9.8444176614
 20
6.873538181
 30
0.0
 10
9.8300575322
 20
6.8697683287
 30
0.0
 10
9.8153840628
 20
6.8670976785
 30
0.0
 10
9.8004785713
 20
6.8655409641
 30
0.0
 10
9.7854229369
 20
6.8651064933
 30
0.0
 10
9.7702999999
 20
6.865796477
 30
0.0
 10
9.7551928794
 20
6.8676069297
 30
0.0
 10
9.7401845824
 20
6.8705277258
 30
0.0
 10
9.7253575361
 20
6.8745426551
 30
0.0
 10
9.7107931465
 20
6.8796295194
 30
0.0
 10
9.6965713556
 20
6.8857602573
 30
0.0
 10
9.6827702098
 20
6.8929011002
 30
0.0
 10
9.6694654375
 20
6.901012759
 30
0.0
 10
9.6567300387
 20
6.9100506394
 30
0.0
 10
9.6446338899
 20
6.9199650854
 30
0.0
 10
9.6332433651
 20
6.93070165
 30
0.0
 10
9.6226209757
 20
6.9422013918
 30
0.0
 10
9.6128250311
 20
6.954401195
 30
0.0
 10
9.6039093218
 20
6.9672341132
 30
0.0
 10
9.5959228265
 20
6.9806297291
 30
0.0
 10
9.5889094453
 20
6.9945145513
 30
0.0
 10
9.582907762
 20
7.0088123557
 30
0.0
 10
9.5779508198
 20
7.02344481
 30
0.0
 10
9.5740660025
 20
7.0383311138
 30
0.0
 10
9.5717369682
 20
7.0508967681
 30
0.0
 10
9.570430449
 20
7.060993119
 30
0.0
 10
9.5694980184
 20
7.0710798085
 30
0.0
 10
9.5692156874
 20
7.0786699744
 30
0.0
 10
9.5692156874
 20
7.0837208146
 30
0.0
  0
SPLINE
  5
34B
100
AcDbEntity
  8
0
100
AcDbSpline
 62
7
  6
CONTINUOUS
 70
0
 71
3
 72
40
 73
36
 74
0
 42
0.0000001
 43
0.0000001
 44
0.0000000001
 40
0.0
 40
0.0
 40
0.0
 40
0.0
 40
0.0299422917
 40
0.0449240218
 40
0.0599148595
 40
0.0899296895
 40
0.1200152935
 40
0.1501925778
 40
0.1804802557
 40
0.2108944263
 40
0.2414482291
 40
0.2721515789
 40
0.3030109866
 40
0.3340294629
 40
0.3652065054
 40
0.3965381623
 40
0.4280171682
 40
0.4596331441
 40
0.4913728551
 40
0.5232205171
 40
0.5551581459
 40
0.5871659397
 40
0.6192226901
 40
0.6513062117
 40
0.6833937874
 40
0.7154626194
 40
0.7474902821
 40
0.779455171
 40
0.8113369343
 40
0.8431169059
 40
0.8747784521
 40
0.906307475
 40
0.9376923384
 40
0.96892512
 40
1.0
 40
1.0
 40
1.0
 40
1.0
 10
11.167875668
 20
9.5976482018
 30
0.0
 10
11.165544818
 20
9.5953967921
 30
0.0
 10
11.1619111381
 20
9.5921561201
 30
0.0
 10
11.1568222699
 20
9.5881351179
 30
0.0
 10
11.1515713513
 20
9.5843142552
 30
0.0
 10
11.1447195714
 20
9.5799265448
 30
0.0
 10
11.1360926974
 20
9.5753182223
 30
0.0
 10
11.1271037152
 20
9.5713888325
 30
0.0
 10
11.1178024833
 20
9.5681601621
 30
0.0
 10
11.1082401894
 20
9.5656498259
 30
0.0
 10
11.0984695326
 20
9.5638715429
 30
0.0
 10
11.0885443028
 20
9.5628349691
 30
0.0
 10
11.0785191177
 20
9.5625456782
 30
0.0
 10
11.0684491125
 20
9.5630051318
 30
0.0
 10
11.058389641
 20
9.5642106791
 30
0.0
 10
11.0483959738
 20
9.5661555773
 30
0.0
 10
11.038522998
 20
9.5688290331
 30
0.0
 10
11.0288249197
 20
9.5722162655
 30
0.0
 10
11.0193549709
 20
9.5762985886
 30
0.0
 10
11.0101651205
 20
9.5810535163
 30
0.0
 10
11.0013057943
 20
9.5864548865
 30
0.0
 10
10.9928256009
 20
9.5924730048
 30
0.0
 10
10.9847710693
 20
9.599074806
 30
0.0
 10
10.9771863961
 20
9.6062240353
 30
0.0
 10
10.9701132058
 20
9.6138814447
 30
0.0
 10
10.9635903251
 20
9.6220050073
 30
0.0
 10
10.9576535713
 20
9.6305501446
 30
0.0
 10
10.952335559
 20
9.6394699693
 30
0.0
 10
10.9476655176
 20
9.6487155396
 30
0.0
 10
10.9436691442
 20
9.6582361198
 30
0.0
 10
10.9403684335
 20
9.6679794797
 30
0.0
 10
10.9377816203
 20
9.677892077
 30
0.0
 10
10.9359229545
 20
9.6879197153
 30
0.0
 10
10.9348028207
 20
9.6980065562
 30
0.0
 10
10.9345519187
 20
9.7047526586
 30
0.0
 10
10.9345519187
 20
9.7081158715
 30
0.0
  0
SPLINE
  5
34C
100
AcDbEntity
  8
0
100
AcDbSpline
 62
7
  6
CONTINUOUS
 70
0
 71
3
 72
40
 73
36
 74
0
 42
0.0000001
 43
0.0000001
 44
0.0000000001
 40
0.0
 40
0.0
 40
0.0
 40
0.0
 40
0.0299422917
 40
0.0449240218
 40
0.0599148595
 40
0.0899296895
 40
0.1200152935
 40
0.1501925778
 40
0.1804802557
 40
0.2108944263
 40
0.2414482291
 40
0.2721515789
 40
0.3030109866
 40
0.3340294629
 40
0.3652065054
 40
0.3965381623
 40
0.4280171682
 40
0.4596331441
 40
0.4913728551
 40
0.5232205171
 40
0.5551581459
 40
0.5871659397
 40
0.6192226901
 40
0.6513062117
 40
0.6833937874
 40
0.7154626194
 40
0.7474902821
 40
0.779455171
 40
0.8113369343
 40
0.8431169059
 40
0.8747784521
 40
0.906307475
 40
0.9376923384
 40
0.96892512
 40
1.0
 40
1.0
 40
1.0
 40
1.0
 10
11.7725452011
 20
6.7757794854
 30
0.0
 10
11.7702143511
 20
6.7735280758
 30
0.0
 10
11.7665806712
 20
6.7702874037
 30
0.0
 10
11.761491803
 20
6.7662664015
 30
0.0
 10
11.7562408844
 20
6.7624455388
 30
0.0
 10
11.7493891044
 20
6.7580578285
 30
0.0
 10
11.7407622305
 20
6.7534495059
 30
0.0
 10
11.7317732482
 20
6.7495201162
 30
0.0
 10
11.7224720164
 20
6.7462914457
 30
0.0
 10
11.7129097225
 20
6.7437811095
 30
0.0
 10
11.7031390656
 20
6.7420028265
 30
0.0
 10
11.6932138359
 20
6.7409662527
 30
0.0
 10
11.6831886508
 20
6.7406769619
 30
0.0
 10
11.6731186456
 20
6.7411364154
 30
0.0
 10
11.6630591741
 20
6.7423419627
 30
0.0
 10
11.6530655069
 20
6.7442868609
 30
0.0
 10
11.643192531
 20
6.7469603167
 30
0.0
 10
11.6334944528
 20
6.7503475491
 30
0.0
 10
11.6240245039
 20
6.7544298722
 30
0.0
 10
11.6148346536
 20
6.7591847999
 30
0.0
 10
11.6059753273
 20
6.7645861702
 30
0.0
 10
11.597495134
 20
6.7706042884
 30
0.0
 10
11.5894406024
 20
6.7772060897
 30
0.0
 10
11.5818559292
 20
6.7843553189
 30
0.0
 10
11.5747827389
 20
6.7920127284
 30
0.0
 10
11.5682598582
 20
6.8001362909
 30
0.0
 10
11.5623231044
 20
6.8086814283
 30
0.0
 10
11.557005092
 20
6.8176012529
 30
0.0
 10
11.5523350507
 20
6.8268468233
 30
0.0
 10
11.5483386773
 20
6.8363674035
 30
0.0
 10
11.5450379666
 20
6.8461107633
 30
0.0
 10
11.5424511534
 20
6.8560233606
 30
0.0
 10
11.5405924875
 20
6.8660509989
 30
0.0
 10
11.5394723537
 20
6.8761378398
 30
0.0
 10
11.5392214517
 20
6.8828839422
 30
0.0
 10
11.5392214517
 20
6.8862471552
 30
0.0
  0
SPLINE
  5
34D
100
AcDbEntity
  8
0
100
AcDbSpline
 62
7
  6
CONTINUOUS
 70
0
 71
3
 72
37
 73
33
 74
0
 42
0.0000001
 43
0.0000001
 44
0.0000000001
 40
0.0
 40
0.0
 40
0.0
 40
0.0
 40
0.0299448033
 40
0.0599139857
 40
0.0899313261
 40
0.1200194368
 40
0.1501992296
 40
0.1804894257
 40
0.2109061295
 40
0.2414624764
 40
0.2721683759
 40
0.3030303418
 40
0.3340513927
 40
0.3652310309
 40
0.3965652996
 40
0.428046925
 40
0.45966553
 40
0.4914078862
 40
0.5551593905
 40
0.6191906838
 40
0.6512768977
 40
0.6833671744
 40
0.7154387056
 40
0.7474690601
 40
0.7794366302
 40
0.8113210838
 40
0.8431037264
 40
0.8747679161
 40
0.9062997384
 40
0.9376866971
 40
0.9689232651
 40
1.0
 40
1.0
 40
1.0
 40
1.0
 10
12.7404493855
 20
9.469679963
 30
0.0
 10
12.7391553929
 20
9.4684300479
 30
0.0
 10
12.7364656882
 20
9.4660310559
 30
0.0
 10
12.7321563216
 20
9.4627628782
 30
0.0
 10
12.7275942038
 20
9.4598413392
 30
0.0
 10
12.7228048288
 20
9.4572828216
 30
0.0
 10
12.7178145309
 20
9.4551012966
 30
0.0
 10
12.7126508477
 20
9.453308758
 30
0.0
 10
12.7073422293
 20
9.4519150278
 30
0.0
 10
12.7019179239
 20
9.4509277221
 30
0.0
 10
12.6964078018
 20
9.4503521854
 30
0.0
 10
12.6908421838
 20
9.4501915073
 30
0.0
 10
12.6852516759
 20
9.450446502
 30
0.0
 10
12.6796670142
 20
9.4511157086
 30
0.0
 10
12.6741188676
 20
9.4521954043
 30
0.0
 10
12.6686377792
 20
9.4536795326
 30
0.0
 10
12.6632535643
 20
9.4555600548
 30
0.0
 10
12.6562354989
 20
9.4585851597
 30
0.0
 10
12.6478546444
 20
9.4633035789
 30
0.0
 10
12.640194668
 20
9.4691526026
 30
0.0
 10
12.6345858244
 20
9.4744395407
 30
0.0
 10
12.6306588408
 20
9.4786907587
 30
0.0
 10
12.6270375987
 20
9.483200627
 30
0.0
 10
12.623741697
 20
9.4879445818
 30
0.0
 10
12.6207893075
 20
9.4928965366
 30
0.0
 10
12.6181966411
 20
9.4980293374
 30
0.0
 10
12.6159779758
 20
9.5033148157
 30
0.0
 10
12.6141455248
 20
9.5087239877
 30
0.0
 10
12.6127094454
 20
9.5142270899
 30
0.0
 10
12.6116775211
 20
9.5197941147
 30
0.0
 10
12.6110557041
 20
9.5253939671
 30
0.0
 10
12.6109163835
 20
9.5291391858
 30
0.0
 10
12.6109163835
 20
9.5310062766
 30
0.0
  0
SPLINE
  5
34E
100
AcDbEntity
  8
0
100
AcDbSpline
 62
7
  6
CONTINUOUS
 70
0
 71
3
 72
37
 73
33
 74
0
 42
0.0000001
 43
0.0000001
 44
0.0000000001
 40
0.0
 40
0.0
 40
0.0
 40
0.0
 40
0.0299448033
 40
0.0599139857
 40
0.0899313261
 40
0.1200194368
 40
0.1501992296
 40
0.1804894257
 40
0.2109061295
 40
0.2414624764
 40
0.2721683759
 40
0.3030303418
 40
0.3340513927
 40
0.3652310309
 40
0.3965652996
 40
0.428046925
 40
0.45966553
 40
0.4914078862
 40
0.5551593905
 40
0.6191906838
 40
0.6512768977
 40
0.6833671744
 40
0.7154387056
 40
0.7474690601
 40
0.7794366302
 40
0.8113210838
 40
0.8431037264
 40
0.8747679161
 40
0.9062997384
 40
0.9376866971
 40
0.9689232651
 40
1.0
 40
1.0
 40
1.0
 40
1.0
 10
10.5236494091
 20
6.9651874418
 30
0.0
 10
10.5223554165
 20
6.9639375267
 30
0.0
 10
10.5196657118
 20
6.9615385347
 30
0.0
 10
10.5153563452
 20
6.958270357
 30
0.0
 10
10.5107942274
 20
6.955348818
 30
0.0
 10
10.5060048524
 20
6.9527903003
 30
0.0
 10
10.5010145545
 20
6.9506087753
 30
0.0
 10
10.4958508713
 20
6.9488162368
 30
0.0
 10
10.4905422529
 20
6.9474225066
 30
0.0
 10
10.4851179475
 20
6.9464352009
 30
0.0
 10
10.4796078254
 20
6.9458596642
 30
0.0
 10
10.4740422074
 20
6.9456989861
 30
0.0
 10
10.4684516995
 20
6.9459539808
 30
0.0
 10
10.4628670378
 20
6.9466231874
 30
0.0
 10
10.4573188912
 20
6.9477028831
 30
0.0
 10
10.4518378028
 20
6.9491870114
 30
0.0
 10
10.446453588
 20
6.9510675336
 30
0.0
 10
10.4394355225
 20
6.9540926385
 30
0.0
 10
10.431054668
 20
6.9588110577
 30
0.0
 10
10.4233946916
 20
6.9646600814
 30
0.0
 10
10.417785848
 20
6.9699470195
 30
0.0
 10
10.4138588644
 20
6.9741982375
 30
0.0
 10
10.4102376223
 20
6.9787081058
 30
0.0
 10
10.4069417206
 20
6.9834520606
 30
0.0
 10
10.4039893311
 20
6.9884040154
 30
0.0
 10
10.4013966647
 20
6.9935368161
 30
0.0
 10
10.3991779994
 20
6.9988222945
 30
0.0
 10
10.3973455485
 20
7.0042314665
 30
0.0
 10
10.395909469
 20
7.0097345687
 30
0.0
 10
10.3948775448
 20
7.0153015935
 30
0.0
 10
10.3942557278
 20
7.0209014459
 30
0.0
 10
10.3941164071
 20
7.0246466646
 30
0.0
 10
10.3941164071
 20
7.0265137554
 30
0.0
  0
SPLINE
  5
34F
100
AcDbEntity
  8
0
100
AcDbSpline
 62
7
  6
CONTINUOUS
 70
0
 71
3
 72
29
 73
25
 74
0
 42
0.0000001
 43
0.0000001
 44
0.0000000001
 40
0.0
 40
0.0
 40
0.0
 40
0.0
 40
0.1243141287
 40
0.2487874616
 40
0.3734370803
 40
0.4358372982
 40
0.4982902474
 40
0.5608000083
 40
0.6233716498
 40
0.6860116454
 40
0.7487285119
 40
0.7801194723
 40
0.8115341326
 40
0.8429743419
 40
0.8744417613
 40
0.905936641
 40
0.921693094
 40
0.937452849
 40
0.9532103012
 40
0.9689503925
 40
0.9768027624
 40
0.9846250586
 40
0.9923918853
 40
1.0
 40
1.0
 40
1.0
 40
1.0
 10
10.2241101193
 20
8.9211845223
 30
0.0
 10
10.2245762064
 20
8.9251180994
 30
0.0
 10
10.2256611368
 20
8.9329731249
 30
0.0
 10
10.2277411558
 20
8.9446916977
 30
0.0
 10
10.2298483096
 20
8.9543944153
 30
0.0
 10
10.2317553943
 20
8.9621127313
 30
0.0
 10
10.2332963443
 20
8.967880871
 30
0.0
 10
10.2349463083
 20
8.9736244308
 30
0.0
 10
10.2367040652
 20
8.9793421609
 30
0.0
 10
10.2385680673
 20
8.9850330654
 30
0.0
 10
10.2402076911
 20
8.9897511122
 30
0.0
 10
10.2415697557
 20
8.9935116797
 30
0.0
 10
10.2426163306
 20
8.9963264572
 30
0.0
 10
10.2436867912
 20
8.9991348398
 30
0.0
 10
10.2447799489
 20
9.0019372056
 30
0.0
 10
10.2457080692
 20
9.0042674555
 30
0.0
 10
10.2464591905
 20
9.0061294224
 30
0.0
 10
10.2470260569
 20
9.0075249979
 30
0.0
 10
10.24759494
 20
9.0089191881
 30
0.0
 10
10.2480689072
 20
9.0100799831
 30
0.0
 10
10.2484454962
 20
9.0110074287
 30
0.0
 10
10.2487245673
 20
9.0117002701
 30
0.0
 10
10.2489971904
 20
9.0123873017
 30
0.0
 10
10.2491732633
 20
9.0128445037
 30
0.0
 10
10.2492574059
 20
9.0130718544
 30
0.0
  0
SPLINE
  5
350
100
AcDbEntity
  8
0
100
AcDbSpline
 62
7
  6
CONTINUOUS
 70
0
 71
3
 72
47
 73
43
 74
0
 42
0.0000001
 43
0.0000001
 44
0.0000000001
 40
0.0
 40
0.0
 40
0.0
 40
0.0
 40
0.1264868424
 40
0.1897281234
 40
0.2529628881
 40
0.3161879907
 40
0.3793991338
 40
0.4425904335
 40
0.5057537622
 40
0.5688776495
 40
0.6319454213
 40
0.6634512838
 40
0.6949326319
 40
0.7263838079
 40
0.7577973242
 40
0.7891629434
 40
0.820466138
 40
0.8360880094
 40
0.8516853028
 40
0.8672532145
 40
0.882785392
 40
0.8982731585
 40
0.9137041959
 40
0.9290600253
 40
0.936701148
 40
0.9443109512
 40
0.9518820317
 40
0.9594038748
 40
0.9668607228
 40
0.9742273207
 40
0.9778641087
 40
0.9814590535
 40
0.9849992571
 40
0.9884645445
 40
0.9918206727
 40
0.9934396426
 40
0.9950027145
 40
0.9964891133
 40
0.9978648509
 40
0.9990707723
 40
0.9995798295
 40
1.0
 40
1.0
 40
1.0
 40
1.0
 10
10.2226655425
 20
8.9231903484
 30
0.0
 10
10.2231385167
 20
8.9271723439
 30
0.0
 10
10.2239719767
 20
8.933131538
 30
0.0
 10
10.2253296509
 20
8.9410358005
 30
0.0
 10
10.2264707827
 20
8.9469410842
 30
0.0
 10
10.2277343383
 20
8.9528203629
 30
0.0
 10
10.2291198532
 20
8.9586707004
 30
0.0
 10
10.2306268071
 20
8.9644889147
 30
0.0
 10
10.2322546354
 20
8.9702716092
 30
0.0
 10
10.2340027144
 20
8.9760149913
 30
0.0
 10
10.2355595826
 20
8.9807662873
 30
0.0
 10
10.2368647799
 20
8.9845435008
 30
0.0
 10
10.237873047
 20
8.9873626434
 30
0.0
 10
10.2389108642
 20
8.9901679181
 30
0.0
 10
10.2399781175
 20
8.9929582019
 30
0.0
 10
10.2410746689
 20
8.9957320578
 30
0.0
 10
10.2420133328
 20
8.9980298175
 30
0.0
 10
10.2427789933
 20
8.9998581105
 30
0.0
 10
10.2433600994
 20
9.0012228326
 30
0.0
 10
10.2439483858
 20
9.0025813768
 30
0.0
 10
10.2445437914
 20
9.0039330233
 30
0.0
 10
10.2451462229
 20
9.0052768001
 30
0.0
 10
10.24575553
 20
9.0066113306
 30
0.0
 10
10.2462696327
 20
9.0077158323
 30
0.0
 10
10.2466844381
 20
9.0085930219
 30
0.0
 10
10.2469965703
 20
9.009245755
 30
0.0
 10
10.2473101176
 20
9.0098936112
 30
0.0
 10
10.2476248964
 20
9.0105354745
 30
0.0
 10
10.2479405954
 20
9.0111696532
 30
0.0
 10
10.2482050964
 20
9.0116917207
 30
0.0
 10
10.2484170638
 20
9.012103136
 30
0.0
 10
10.2485750888
 20
9.0124058768
 30
0.0
 10
10.2487325143
 20
9.0127027908
 30
0.0
 10
10.2488887672
 20
9.0129917456
 30
0.0
 10
10.2490186294
 20
9.0132257155
 30
0.0
 10
10.2491215079
 20
9.0134056649
 30
0.0
 10
10.2491963807
 20
9.0135333346
 30
0.0
 10
10.2492691587
 20
9.0136532869
 30
0.0
 10
10.2493385344
 20
9.0137620063
 30
0.0
 10
10.2493941378
 20
9.0138427751
 30
0.0
 10
10.2494358369
 20
9.0138961074
 30
0.0
 10
10.2494554874
 20
9.0139181376
 30
0.0
 10
10.2494650556
 20
9.0139274052
 30
0.0
  0
SPLINE
  5
351
100
AcDbEntity
  8
0
100
AcDbSpline
 62
7
  6
CONTINUOUS
 70
0
 71
3
 72
25
 73
21
 74
0
 42
0.0000001
 43
0.0000001
 44
0.0000000001
 40
0.0
 40
0.0
 40
0.0
 40
0.0
 40
0.062637747
 40
0.0938819143
 40
0.1250772849
 40
0.1873257554
 40
0.2494239948
 40
0.2804335649
 40
0.3114198198
 40
0.3733328151
 40
0.4352213642
 40
0.4971373454
 40
0.559136392
 40
0.6212764308
 40
0.6836155562
 40
0.7462094542
 40
0.8091085877
 40
0.8723551403
 40
0.9359793204
 40
1.0
 40
1.0
 40
1.0
 40
1.0
 10
11.9575553714
 20
8.9124284598
 30
0.0
 10
11.9550453916
 20
8.9050243761
 30
0.0
 10
11.9509084413
 20
8.8940485574
 30
0.0
 10
11.9446526546
 20
8.8797431075
 30
0.0
 10
11.9379217613
 20
8.8657081964
 30
0.0
 10
11.9286015652
 20
8.8486582335
 30
0.0
 10
11.9180772105
 20
8.8323500433
 30
0.0
 10
11.9089588176
 20
8.8198260934
 30
0.0
 10
11.899385551
 20
8.8076758939
 30
0.0
 10
11.8865574587
 20
8.7932015947
 30
0.0
 10
11.8698373419
 20
8.7771118172
 30
0.0
 10
11.8518503577
 20
8.7624316785
 30
0.0
 10
11.8326699948
 20
8.7492913625
 30
0.0
 10
11.8123859406
 20
8.7378181363
 30
0.0
 10
11.7911064797
 20
8.728133918
 30
0.0
 10
11.7689589906
 20
8.7203508093
 30
0.0
 10
11.7460899878
 20
8.7145666367
 30
0.0
 10
11.7226626519
 20
8.710860432
 30
0.0
 10
11.6988577577
 20
8.7092874028
 30
0.0
 10
11.6829054405
 20
8.7096794064
 30
0.0
 10
11.6749340225
 20
8.7102322261
 30
0.0
  0
SPLINE
  5
352
100
AcDbEntity
  8
0
100
AcDbSpline
 62
7
  6
CONTINUOUS
 70
0
 71
3
 72
39
 73
35
 74
0
 42
0.0000001
 43
0.0000001
 44
0.0000000001
 40
0.0
 40
0.0
 40
0.0
 40
0.0
 40
0.0301480211
 40
0.0603123522
 40
0.0905022119
 40
0.1207266374
 40
0.15099442
 40
0.1813140366
 40
0.2116936129
 40
0.2421408727
 40
0.2726630419
 40
0.3032667951
 40
0.3339582196
 40
0.3647427483
 40
0.3956250486
 40
0.4266089751
 40
0.4576975304
 40
0.4888927972
 40
0.5201958424
 40
0.5516066587
 40
0.5831241505
 40
0.6147460916
 40
0.6464690876
 40
0.6782885376
 40
0.7101986544
 40
0.742192505
 40
0.7742620463
 40
0.8063981929
 40
0.8385908976
 40
0.8708292223
 40
0.9031017223
 40
0.9353957567
 40
0.9676999949
 40
1.0
 40
1.0
 40
1.0
 40
1.0
 10
11.2812010216
 20
7.2928526479
 30
0.0
 10
11.2774446713
 20
7.2894788058
 30
0.0
 10
11.2697626216
 20
7.2829129553
 30
0.0
 10
11.2577665378
 20
7.2736392575
 30
0.0
 10
11.2453191589
 20
7.2649576759
 30
0.0
 10
11.2324464735
 20
7.2568877182
 30
0.0
 10
11.2191747229
 20
7.2494477801
 30
0.0
 10
11.2055310241
 20
7.2426556531
 30
0.0
 10
11.1915432444
 20
7.2365284035
 30
0.0
 10
11.1772401023
 20
7.2310823861
 30
0.0
 10
11.1626512365
 20
7.2263331395
 30
0.0
 10
11.1478072491
 20
7.222295356
 30
0.0
 10
11.1327397466
 20
7.2189828289
 30
0.0
 10
11.1174813936
 20
7.216408373
 30
0.0
 10
11.1020659687
 20
7.2145836682
 30
0.0
 10
11.0865283867
 20
7.2135191676
 30
0.0
 10
11.0709047082
 20
7.2132239852
 30
0.0
 10
11.0552321489
 20
7.2137057553
 30
0.0
 10
11.0395490725
 20
7.2149704427
 30
0.0
 10
11.0238949493
 20
7.217022163
 30
0.0
 10
11.0083102923
 20
7.2198630495
 30
0.0
 10
10.9928365668
 20
7.223493067
 30
0.0
 10
10.9775160824
 20
7.2279098424
 30
0.0
 10
10.9623918369
 20
7.2331084524
 30
0.0
 10
10.9475073326
 20
7.2390812801
 30
0.0
 10
10.9329063669
 20
7.2458178936
 30
0.0
 10
10.9186327858
 20
7.2533049214
 30
0.0
 10
10.9047302165
 20
7.261525966
 30
0.0
 10
10.8912417838
 20
7.2704615406
 30
0.0
 10
10.8782097219
 20
7.2800890413
 30
0.0
 10
10.8656752596
 20
7.2903827767
 30
0.0
 10
10.8536777529
 20
7.3013142288
 30
0.0
 10
10.8422556404
 20
7.3128514742
 30
0.0
 10
10.8350459313
 20
7.3209265846
 30
0.0
 10
10.8315485326
 20
7.3250533849
 30
0.0
  0
SPLINE
  5
353
100
AcDbEntity
  8
0
100
AcDbSpline
 62
7
  6
CONTINUOUS
 70
0
 71
3
 72
41
 73
37
 74
0
 42
0.0000001
 43
0.0000001
 44
0.0000000001
 40
0.0
 40
0.0
 40
0.0
 40
0.0
 40
0.0300286532
 40
0.045080214
 40
0.0601571028
 40
0.0903878944
 40
0.1207337777
 40
0.1512016283
 40
0.1817964223
 40
0.2125212264
 40
0.2433772062
 40
0.2743636493
 40
0.3054779999
 40
0.3367159057
 40
0.368071274
 40
0.3995363386
 40
0.4311017375
 40
0.4627566028
 40
0.4944886655
 40
0.5262843763
 40
0.5581290459
 40
0.5900070068
 40
0.6219017996
 40
0.6537963844
 40
0.6856733798
 40
0.7175153282
 40
0.7493049857
 40
0.7810256337
 40
0.8126614072
 40
0.8441976274
 40
0.8756211487
 40
0.906920635
 40
0.9380870087
 40
0.9536199794
 40
0.9691176399
 40
1.0
 40
1.0
 40
1.0
 40
1.0
 10
12.4420969395
 20
7.1354307957
 30
0.0
 10
12.4356132687
 20
7.1325241078
 30
0.0
 10
12.4257307635
 20
7.1284822444
 30
0.0
 10
12.4123050966
 20
7.1237471567
 30
0.0
 10
12.3986861218
 20
7.1194376393
 30
0.0
 10
12.3813633674
 20
7.1148705632
 30
0.0
 10
12.3602089986
 20
7.1107220658
 30
0.0
 10
12.3387486885
 20
7.1079112431
 30
0.0
 10
12.3170652683
 20
7.1064454023
 30
0.0
 10
12.2952410238
 20
7.1063275175
 30
0.0
 10
12.2733584795
 20
7.1075565939
 30
0.0
 10
12.2515001229
 20
7.1101276391
 30
0.0
 10
12.2297484254
 20
7.114031696
 30
0.0
 10
12.2081857806
 20
7.1192558155
 30
0.0
 10
12.1868944555
 20
7.1257830036
 30
0.0
 10
12.1659565168
 20
7.1335921364
 30
0.0
 10
12.145453734
 20
7.1426578497
 30
0.0
 10
12.1254674495
 20
7.1529504066
 30
0.0
 10
12.1060784101
 20
7.1644355498
 30
0.0
 10
12.0873665525
 20
7.1770743464
 30
0.0
 10
12.0694107394
 20
7.1908230329
 30
0.0
 10
12.0522884404
 20
7.2056328717
 30
0.0
 10
12.0360753577
 20
7.221450029
 30
0.0
 10
12.0208449941
 20
7.2382154864
 30
0.0
 10
12.0066681672
 20
7.2558650003
 30
0.0
 10
11.9936124738
 20
7.2743291186
 30
0.0
 10
11.9817417132
 20
7.2935332721
 30
0.0
 10
11.97111528
 20
7.3133979408
 30
0.0
 10
11.961787542
 20
7.3338389359
 30
0.0
 10
11.9538072192
 20
7.35476769
 30
0.0
 10
11.9472167748
 20
7.3760919733
 30
0.0
 10
11.9420519126
 20
7.3977154977
 30
0.0
 10
11.938955798
 20
7.4159250472
 30
0.0
 10
11.9372188353
 20
7.4305418202
 30
0.0
 10
11.9359789696
 20
7.4451411136
 30
0.0
 10
11.9356037825
 20
7.4561202638
 30
0.0
 10
11.9356037825
 20
7.4634276766
 30
0.0
  0
SPLINE
  5
354
100
AcDbEntity
  8
0
100
AcDbSpline
 62
7
  6
CONTINUOUS
 70
0
 71
3
 72
23
 73
19
 74
0
 42
0.0000001
 43
0.0000001
 44
0.0000000001
 40
0.0
 40
0.0
 40
0.0
 40
0.0
 40
0.0615912567
 40
0.1235190327
 40
0.1857534949
 40
0.2482576391
 40
0.3109869659
 40
0.3738907165
 40
0.4369134733
 40
0.4999965919
 40
0.5630798198
 40
0.6261028984
 40
0.6890071802
 40
0.7517372112
 40
0.8142422543
 40
0.8764777217
 40
0.9384064815
 40
1.0
 40
1.0
 40
1.0
 40
1.0
 10
12.6921532925
 20
9.6004336956
 30
0.0
 10
12.6923990505
 20
9.5982622054
 30
0.0
 10
12.6930774671
 20
9.5939261587
 30
0.0
 10
12.6946397201
 20
9.5875156992
 30
0.0
 10
12.6967381135
 20
9.581225642
 30
0.0
 10
12.6993569296
 20
9.5751031578
 30
0.0
 10
12.7024767363
 20
9.5691933325
 30
0.0
 10
12.7060743999
 20
9.5635398927
 30
0.0
 10
12.7101232728
 20
9.5581846092
 30
0.0
 10
12.714593394
 20
9.5531670692
 30
0.0
 10
12.7194517021
 20
9.5485243666
 30
0.0
 10
12.7246622811
 20
9.5442908388
 30
0.0
 10
12.7301866152
 20
9.5404978142
 30
0.0
 10
12.735983889
 20
9.5371733813
 30
0.0
 10
12.7420112117
 20
9.5343421931
 30
0.0
 10
12.7482241963
 20
9.5320252472
 30
0.0
 10
12.7545762833
 20
9.530239857
 30
0.0
 10
12.7588860886
 20
9.529410319
 30
0.0
 10
12.7610477403
 20
9.5290887919
 30
0.0
  0
SPLINE
  5
355
100
AcDbEntity
  8
0
100
AcDbSpline
 62
7
  6
CONTINUOUS
 70
0
 71
3
 72
23
 73
19
 74
0
 42
0.0000001
 43
0.0000001
 44
0.0000000001
 40
0.0
 40
0.0
 40
0.0
 40
0.0
 40
0.0615912567
 40
0.1235190327
 40
0.1857534949
 40
0.2482576391
 40
0.3109869659
 40
0.3738907165
 40
0.4369134733
 40
0.4999965919
 40
0.5630798198
 40
0.6261028984
 40
0.6890071802
 40
0.7517372112
 40
0.8142422543
 40
0.8764777217
 40
0.9384064815
 40
1.0
 40
1.0
 40
1.0
 40
1.0
 10
10.4753533161
 20
7.0959411744
 30
0.0
 10
10.4755990742
 20
7.0937696842
 30
0.0
 10
10.4762774907
 20
7.0894336375
 30
0.0
 10
10.4778397437
 20
7.083023178
 30
0.0
 10
10.4799381371
 20
7.0767331208
 30
0.0
 10
10.4825569532
 20
7.0706106366
 30
0.0
 10
10.4856767599
 20
7.0647008112
 30
0.0
 10
10.4892744236
 20
7.0590473715
 30
0.0
 10
10.4933232965
 20
7.053692088
 30
0.0
 10
10.4977934176
 20
7.0486745479
 30
0.0
 10
10.5026517257
 20
7.0440318454
 30
0.0
 10
10.5078623047
 20
7.0397983176
 30
0.0
 10
10.5133866388
 20
7.036005293
 30
0.0
 10
10.5191839127
 20
7.0326808601
 30
0.0
 10
10.5252112353
 20
7.0298496719
 30
0.0
 10
10.5314242199
 20
7.027532726
 30
0.0
 10
10.5377763069
 20
7.0257473358
 30
0.0
 10
10.5420861123
 20
7.0249177978
 30
0.0
 10
10.5442477639
 20
7.0245962707
 30
0.0
  0
SPLINE
  5
356
100
AcDbEntity
  8
0
100
AcDbSpline
 62
7
  6
CONTINUOUS
 70
0
 71
3
 72
21
 73
17
 74
0
 42
0.0000001
 43
0.0000001
 44
0.0000000001
 40
0.0
 40
0.0
 40
0.0
 40
0.0
 40
0.1273176984
 40
0.2537999461
 40
0.3167619614
 40
0.3795355204
 40
0.4421314992
 40
0.5045621453
 40
0.5668413456
 40
0.6289845231
 40
0.6910084433
 40
0.7529310869
 40
0.8147714401
 40
0.8765493236
 40
0.9382852134
 40
1.0
 40
1.0
 40
1.0
 40
1.0
 10
9.5692156874
 20
7.0837208146
 30
0.0
 10
9.5692156874
 20
7.090219237
 30
0.0
 10
9.5698360052
 20
7.1031818047
 30
0.0
 10
9.5721787712
 20
7.1192063366
 30
0.0
 10
9.5749788733
 20
7.1317761785
 30
0.0
 10
9.5775324203
 20
7.1410477001
 30
0.0
 10
9.5805365156
 20
7.1501544714
 30
0.0
 10
9.5839842332
 20
7.1590757581
 30
0.0
 10
9.5878676243
 20
7.1677909266
 30
0.0
 10
9.5921778127
 20
7.1762798628
 30
0.0
 10
9.5969048275
 20
7.1845229983
 30
0.0
 10
9.6020377673
 20
7.192501336
 30
0.0
 10
9.6075648443
 20
7.2001964141
 30
0.0
 10
9.6134733465
 20
7.2075905598
 30
0.0
 10
9.6197493859
 20
7.2146665154
 30
0.0
 10
9.6241696844
 20
7.2191615791
 30
0.0
 10
9.6264353317
 20
7.221350013
 30
0.0
  0
SPLINE
  5
357
100
AcDbEntity
  8
0
100
AcDbSpline
 62
7
  6
CONTINUOUS
 70
0
 71
3
 72
37
 73
33
 74
0
 42
0.0000001
 43
0.0000001
 44
0.0000000001
 40
0.0
 40
0.0
 40
0.0
 40
0.0
 40
0.0309022896
 40
0.0464137112
 40
0.0619623439
 40
0.0931634383
 40
0.124499772
 40
0.140216947
 40
0.1559627168
 40
0.187527698
 40
0.2191823003
 40
0.2509086644
 40
0.282688618
 40
0.314504161
 40
0.3463378615
 40
0.3781731533
 40
0.4099945453
 40
0.4417877537
 40
0.4735397701
 40
0.5052388811
 40
0.5368746524
 40
0.5684378897
 40
0.6312955028
 40
0.693781983
 40
0.7558624284
 40
0.8175168202
 40
0.8481918384
 40
0.8787594005
 40
0.9092210335
 40
0.9395792048
 40
0.9698373671
 40
1.0
 40
1.0
 40
1.0
 40
1.0
 10
11.6749340225
 20
8.7102322261
 30
0.0
 10
11.6683751722
 20
8.710687084
 30
0.0
 10
11.658544411
 20
8.7117330082
 30
0.0
 10
11.6455286381
 20
8.7138371844
 30
0.0
 10
11.6325339198
 20
8.7164203321
 30
0.0
 10
11.6164221542
 20
8.7205311649
 30
0.0
 10
11.6006046088
 20
8.7257720391
 30
0.0
 10
11.5881527654
 20
8.7306221433
 30
0.0
 10
11.5758282415
 20
8.7359117793
 30
0.0
 10
11.5607315956
 20
8.7433140251
 30
0.0
 10
11.5432051575
 20
8.7533852648
 30
0.0
 10
11.5263218094
 20
8.7645835614
 30
0.0
 10
11.5101445873
 20
8.776835285
 30
0.0
 10
11.494727523
 20
8.7900650034
 30
0.0
 10
11.480116959
 20
8.8041964483
 30
0.0
 10
11.466351909
 20
8.8191536831
 30
0.0
 10
11.4534648254
 20
8.8348619224
 30
0.0
 10
11.4414823427
 20
8.8512481354
 30
0.0
 10
11.4304260167
 20
8.8682415336
 30
0.0
 10
11.4203131516
 20
8.8857735386
 30
0.0
 10
11.4111571287
 20
8.903778913
 30
0.0
 10
11.4002561461
 20
8.9282934778
 30
0.0
 10
11.3890573319
 20
8.9598086865
 30
0.0
 10
11.3795489764
 20
8.9986017358
 30
0.0
 10
11.3740061298
 20
9.0378972614
 30
0.0
 10
11.3727000203
 20
9.0707836102
 30
0.0
 10
11.3736560422
 20
9.0969224022
 30
0.0
 10
11.3753668815
 20
9.1163667841
 30
0.0
 10
11.378072129
 20
9.1356294842
 30
0.0
 10
11.3817706615
 20
9.1546598261
 30
0.0
 10
11.3864604409
 20
9.1734044714
 30
0.0
 10
11.3902524307
 20
9.1856951785
 30
0.0
 10
11.3923127054
 20
9.1917726957
 30
0.0
  0
SPLINE
  5
358
100
AcDbEntity
  8
0
100
AcDbSpline
 62
7
  6
CONTINUOUS
 70
0
 71
3
 72
11
 73
7
 74
0
 42
0.0000001
 43
0.0000001
 44
0.0000000001
 40
0.0
 40
0.0
 40
0.0
 40
0.0
 40
0.2387434104
 40
0.4861032194
 40
0.7404481205
 40
1.0
 40
1.0
 40
1.0
 40
1.0
 10
10.7417657499
 20
8.9859995685
 30
0.0
 10
10.7365964379
 20
8.9884545522
 30
0.0
 10
10.7260400025
 20
8.9933874602
 30
0.0
 10
10.7098875822
 20
9.0007436971
 30
0.0
 10
10.693220566
 20
9.008171895
 30
0.0
 10
10.6819341007
 20
9.0131067313
 30
0.0
 10
10.6762255684
 20
9.0155803552
 30
0.0
  0
LINE
  5
359
100
AcDbEntity
  8
0
100
AcDbLine
 62
7
  6
CONTINUOUS
 10
10.2494650556
 20
9.0139274052
 11
10.2496370521
 21
9.0140931142
  0
SPLINE
  5
35A
100
AcDbEntity
  8
0
100
AcDbSpline
 62
7
  6
CONTINUOUS
 70
0
 71
3
 72
33
 73
29
 74
0
 42
0.0000001
 43
0.0000001
 44
0.0000000001
 40
0.0
 40
0.0
 40
0.0
 40
0.0
 40
0.0851787552
 40
0.1685803184
 40
0.2498827984
 40
0.3287734937
 40
0.4049537721
 40
0.4781398462
 40
0.5135268248
 40
0.5480669481
 40
0.581730051
 40
0.6144874762
 40
0.6463119612
 40
0.6771780745
 40
0.7070619655
 40
0.7359419099
 40
0.7637981294
 40
0.7906132564
 40
0.81637244
 40
0.8410636161
 40
0.8646780197
 40
0.8872103033
 40
0.9086594522
 40
0.9290289759
 40
0.9483281256
 40
0.9665725206
 40
0.9837855947
 40
1.0
 40
1.0
 40
1.0
 40
1.0
 10
9.0230378825
 20
7.3995106278
 30
0.0
 10
9.0230378825
 20
7.3878661957
 30
0.0
 10
9.0232363043
 20
7.3648197229
 30
0.0
 10
9.0241463826
 20
7.3306695607
 30
0.0
 10
9.0256621246
 20
7.2974011516
 30
0.0
 10
9.027776965
 20
7.2651544938
 30
0.0
 10
9.0304817811
 20
7.2340654311
 30
0.0
 10
9.0332476447
 20
7.2089577712
 30
0.0
 10
9.0357584083
 20
7.1895546707
 30
0.0
 10
9.0377600852
 20
7.1755350212
 30
0.0
 10
9.0398993045
 20
7.1618994401
 30
0.0
 10
9.042173789
 20
7.1486622588
 30
0.0
 10
9.0445811708
 20
7.1358374041
 30
0.0
 10
9.0471188368
 20
7.1234383576
 30
0.0
 10
9.0497841608
 20
7.1114781474
 30
0.0
 10
9.0525742595
 20
7.0999693274
 30
0.0
 10
9.055486222
 20
7.0889239694
 30
0.0
 10
9.0585169447
 20
7.0783536412
 30
0.0
 10
9.0616632232
 20
7.0682693949
 30
0.0
 10
9.0649217719
 20
7.0586817582
 30
0.0
 10
9.0682891131
 20
7.0496006985
 30
0.0
 10
9.0717618048
 20
7.0410356492
 30
0.0
 10
9.0753361569
 20
7.0329954352
 30
0.0
 10
9.0790085951
 20
7.0254883302
 30
0.0
 10
9.0827753132
 20
7.0185220002
 30
0.0
 10
9.0866327191
 20
7.0121034288
 30
0.0
 10
9.0905768275
 20
7.0062394049
 30
0.0
 10
9.0933424535
 20
7.0025972976
 30
0.0
 10
9.0947410554
 20
7.0008776335
 30
0.0
  0
SPLINE
  5
35B
100
AcDbEntity
  8
0
100
AcDbSpline
 62
7
  6
CONTINUOUS
 70
0
 71
3
 72
11
 73
7
 74
0
 42
0.0000001
 43
0.0000001
 44
0.0000000001
 40
0.0
 40
0.0
 40
0.0
 40
0.0
 40
0.2347244479
 40
0.4795526787
 40
0.7346133261
 40
1.0
 40
1.0
 40
1.0
 40
1.0
 10
14.1470130229
 20
8.0872039725
 30
0.0
 10
14.1484068819
 20
8.0888452115
 30
0.0
 10
14.1511900595
 20
8.0922535831
 30
0.0
 10
14.1552693654
 20
8.097619149
 30
0.0
 10
14.1593382067
 20
8.1033413998
 30
0.0
 10
14.1619894518
 20
8.1073128459
 30
0.0
 10
14.1633139785
 20
8.1093555395
 30
0.0
  0
SPLINE
  5
35C
100
AcDbEntity
  8
0
100
AcDbSpline
 62
7
  6
CONTINUOUS
 70
0
 71
3
 72
10
 73
6
 74
0
 42
0.0000001
 43
0.0000001
 44
0.0000000001
 40
0.0
 40
0.0
 40
0.0
 40
0.0
 40
0.4925241575
 40
0.7442892619
 40
1.0
 40
1.0
 40
1.0
 40
1.0
 10
10.5411630385
 20
9.2332830904
 30
0.0
 10
10.5415591541
 20
9.2353624693
 30
0.0
 10
10.5424403302
 20
9.2384556276
 30
0.0
 10
10.5440381744
 20
9.2424464388
 30
0.0
 10
10.5449715964
 20
9.2444195366
 30
0.0
 10
10.5454679997
 20
9.2454000328
 30
0.0
  0
LINE
  5
35D
100
AcDbEntity
  8
0
100
AcDbLine
 62
7
  6
CONTINUOUS
 10
10.2496370648
 20
9.0140937786
 11
10.2492574059
 21
9.0130718544
  0
SPLINE
  5
35E
100
AcDbEntity
  8
0
100
AcDbSpline
 62
7
  6
CONTINUOUS
 70
0
 71
3
 72
21
 73
17
 74
0
 42
0.0000001
 43
0.0000001
 44
0.0000000001
 40
0.0
 40
0.0
 40
0.0
 40
0.0
 40
0.080773743
 40
0.1582775352
 40
0.2327399898
 40
0.3043798145
 40
0.3733868792
 40
0.4399329534
 40
0.5662369821
 40
0.6844324303
 40
0.7408160276
 40
0.7955287299
 40
0.8486845533
 40
0.9004238865
 40
0.9508618058
 40
1.0
 40
1.0
 40
1.0
 40
1.0
 10
10.4297078627
 20
9.0869623096
 30
0.0
 10
10.4244204563
 20
9.0863730646
 30
0.0
 10
10.4140783314
 20
9.085042463
 30
0.0
 10
10.3989482297
 20
9.0825608266
 30
0.0
 10
10.3845034862
 20
9.0796718977
 30
0.0
 10
10.3707140263
 20
9.0764056368
 30
0.0
 10
10.3575525378
 20
9.0727871642
 30
0.0
 10
10.3410970627
 20
9.0676115449
 30
0.0
 10
10.3219009758
 20
9.0603955666
 30
0.0
 10
10.3039345501
 20
9.0519758928
 30
0.0
 10
10.290695341
 20
9.0447009455
 30
0.0
 10
10.2814475989
 20
9.039079858
 30
0.0
 10
10.2727179722
 20
9.0332159391
 30
0.0
 10
10.2645046828
 20
9.0271085278
 30
0.0
 10
10.2568118954
 20
9.0207658614
 30
0.0
 10
10.2519678066
 20
9.016339307
 30
0.0
 10
10.2496370648
 20
9.0140937786
 30
0.0
  0
SPLINE
  5
35F
100
AcDbEntity
  8
0
100
AcDbSpline
 62
7
  6
CONTINUOUS
 70
0
 71
3
 72
15
 73
11
 74
0
 42
0.0000001
 43
0.0000001
 44
0.0000000001
 40
0.0
 40
0.0
 40
0.0
 40
0.0
 40
0.127347711
 40
0.2538606874
 40
0.3795878987
 40
0.5046050998
 40
0.6290174656
 40
0.7529533976
 40
0.8765605982
 40
1.0
 40
1.0
 40
1.0
 40
1.0
 10
10.3941164071
 20
7.0265137554
 30
0.0
 10
10.3941164071
 20
7.0289159559
 30
0.0
 10
10.3943457694
 20
7.0337079316
 30
0.0
 10
10.3953830112
 20
7.0408037323
 30
0.0
 10
10.3971029668
 20
7.0477212528
 30
0.0
 10
10.3994900717
 20
7.0543957824
 30
0.0
 10
10.4025224271
 20
7.0607657853
 30
0.0
 10
10.4061723952
 20
7.0667724406
 30
0.0
 10
10.4104056618
 20
7.0723594622
 30
0.0
 10
10.4135930845
 20
7.0757723569
 30
0.0
 10
10.4152678429
 20
7.0773900678
 30
0.0
  0
SPLINE
  5
360
100
AcDbEntity
  8
0
100
AcDbSpline
 62
7
  6
CONTINUOUS
 70
0
 71
3
 72
21
 73
17
 74
0
 42
0.0000001
 43
0.0000001
 44
0.0000000001
 40
0.0
 40
0.0
 40
0.0
 40
0.0
 40
0.1273176984
 40
0.2537999461
 40
0.3167619614
 40
0.3795355204
 40
0.4421314992
 40
0.5045621453
 40
0.5668413456
 40
0.6289845231
 40
0.6910084433
 40
0.7529310869
 40
0.8147714401
 40
0.8765493236
 40
0.9382852134
 40
1.0
 40
1.0
 40
1.0
 40
1.0
 10
13.4329190487
 20
6.8157720764
 30
0.0
 10
13.4329190487
 20
6.8222704988
 30
0.0
 10
13.4335393666
 20
6.8352330665
 30
0.0
 10
13.4358821326
 20
6.8512575984
 30
0.0
 10
13.4386822347
 20
6.8638274403
 30
0.0
 10
13.4412357817
 20
6.8730989619
 30
0.0
 10
13.444239877
 20
6.8822057332
 30
0.0
 10
13.4476875946
 20
6.8911270199
 30
0.0
 10
13.4515709857
 20
6.8998421884
 30
0.0
 10
13.4558811741
 20
6.9083311246
 30
0.0
 10
13.4606081889
 20
6.9165742601
 30
0.0
 10
13.4657411287
 20
6.9245525978
 30
0.0
 10
13.4712682057
 20
6.9322476759
 30
0.0
 10
13.4771767079
 20
6.9396418217
 30
0.0
 10
13.4834527472
 20
6.9467177772
 30
0.0
 10
13.4878730458
 20
6.9512128409
 30
0.0
 10
13.4901386931
 20
6.9534012748
 30
0.0
  0
SPLINE
  5
361
100
AcDbEntity
  8
0
100
AcDbSpline
 62
7
  6
CONTINUOUS
 70
0
 71
3
 72
21
 73
17
 74
0
 42
0.0000001
 43
0.0000001
 44
0.0000000001
 40
0.0
 40
0.0
 40
0.0
 40
0.0
 40
0.1273176984
 40
0.2537999461
 40
0.3167619614
 40
0.3795355204
 40
0.4421314992
 40
0.5045621453
 40
0.5668413456
 40
0.6289845231
 40
0.6910084433
 40
0.7529310869
 40
0.8147714401
 40
0.8765493236
 40
0.9382852134
 40
1.0
 40
1.0
 40
1.0
 40
1.0
 10
13.4329190487
 20
9.4740001982
 30
0.0
 10
13.4329190487
 20
9.4804986206
 30
0.0
 10
13.4335393666
 20
9.4934611882
 30
0.0
 10
13.4358821326
 20
9.5094857201
 30
0.0
 10
13.4386822347
 20
9.5220555621
 30
0.0
 10
13.4412357817
 20
9.5313270836
 30
0.0
 10
13.444239877
 20
9.5404338549
 30
0.0
 10
13.4476875946
 20
9.5493551416
 30
0.0
 10
13.4515709857
 20
9.5580703101
 30
0.0
 10
13.4558811741
 20
9.5665592463
 30
0.0
 10
13.4606081889
 20
9.5748023819
 30
0.0
 10
13.4657411287
 20
9.5827807196
 30
0.0
 10
13.4712682057
 20
9.5904757976
 30
0.0
 10
13.4771767079
 20
9.5978699434
 30
0.0
 10
13.4834527472
 20
9.604945899
 30
0.0
 10
13.4878730458
 20
9.6094409626
 30
0.0
 10
13.4901386931
 20
9.6116293966
 30
0.0
  0
SPLINE
  5
362
100
AcDbEntity
  8
0
100
AcDbSpline
 62
7
  6
CONTINUOUS
 70
0
 71
3
 72
23
 73
19
 74
0
 42
0.0000001
 43
0.0000001
 44
0.0000000001
 40
0.0
 40
0.0
 40
0.0
 40
0.0
 40
0.0730755908
 40
0.1465350497
 40
0.2198464617
 40
0.2924960453
 40
0.3640060721
 40
0.4339463039
 40
0.5019431226
 40
0.5676871616
 40
0.6309384874
 40
0.6915303809
 40
0.7493727308
 40
0.8044551195
 40
0.8568507943
 40
0.9067212366
 40
0.9543211445
 40
1.0
 40
1.0
 40
1.0
 40
1.0
 10
10.6762255684
 20
9.0155803552
 30
0.0
 10
10.6704387657
 20
9.0180878953
 30
0.0
 10
10.6588179455
 20
9.0230774382
 30
0.0
 10
10.6413332216
 20
9.030445626
 30
0.0
 10
10.6238286292
 20
9.0376707952
 30
0.0
 10
10.60641909
 20
9.0446836859
 30
0.0
 10
10.5892096477
 20
9.0514123836
 30
0.0
 10
10.5722930968
 20
9.0577840884
 30
0.0
 10
10.5557485602
 20
9.0637265556
 30
0.0
 10
10.5396407236
 20
9.0691692137
 30
0.0
 10
10.5240196889
 20
9.0740439681
 30
0.0
 10
10.5089213858
 20
9.0782856573
 30
0.0
 10
10.4943684476
 20
9.0818321947
 30
0.0
 10
10.4803713369
 20
9.0846244445
 30
0.0
 10
10.4669299925
 20
9.0866059142
 30
0.0
 10
10.4540348493
 20
9.0877222719
 30
0.0
 10
10.4416711852
 20
9.087921275
 30
0.0
 10
10.4336258691
 20
9.087399084
 30
0.0
 10
10.4297078627
 20
9.0869623096
 30
0.0
  0
SPLINE
  5
363
100
AcDbEntity
  8
0
100
AcDbSpline
 62
7
  6
CONTINUOUS
 70
0
 71
3
 72
23
 73
19
 74
0
 42
0.0000001
 43
0.0000001
 44
0.0000000001
 40
0.0
 40
0.0
 40
0.0
 40
0.0
 40
0.0505324479
 40
0.1014094432
 40
0.1529680435
 40
0.2055309989
 40
0.2594010573
 40
0.3148576447
 40
0.3721537586
 40
0.4315160018
 40
0.4931446423
 40
0.557214375
 40
0.6238771884
 40
0.6932628714
 40
0.7654822241
 40
0.840628777
 40
0.9187798853
 40
1.0
 40
1.0
 40
1.0
 40
1.0
 10
14.2880747686
 20
9.3576807996
 30
0.0
 10
14.2892416882
 20
9.3575998732
 30
0.0
 10
14.291577732
 20
9.3573368493
 30
0.0
 10
14.2950538573
 20
9.3566419868
 30
0.0
 10
14.2985052356
 20
9.3556467929
 30
0.0
 10
14.3019296384
 20
9.3543521179
 30
0.0
 10
14.3053254729
 20
9.3527590358
 30
0.0
 10
14.3086910883
 20
9.3508685802
 30
0.0
 10
14.312025084
 20
9.3486820528
 30
0.0
 10
14.315326065
 20
9.3462006877
 30
0.0
 10
14.3185926895
 20
9.3434258046
 30
0.0
 10
14.3218237136
 20
9.3403588529
 30
0.0
 10
14.3250177762
 20
9.3370012405
 30
0.0
 10
14.3281736404
 20
9.3333545813
 30
0.0
 10
14.3312899876
 20
9.3294205254
 30
0.0
 10
14.3343654941
 20
9.3252008187
 30
0.0
 10
14.3373988757
 20
9.3206974511
 30
0.0
 10
14.3393541526
 20
9.3175681919
 30
0.0
 10
14.3403254405
 20
9.3159584414
 30
0.0
  0
SPLINE
  5
364
100
AcDbEntity
  8
0
100
AcDbSpline
 62
7
  6
CONTINUOUS
 70
0
 71
3
 72
37
 73
33
 74
0
 42
0.0000001
 43
0.0000001
 44
0.0000000001
 40
0.0
 40
0.0
 40
0.0
 40
0.0
 40
0.0324304937
 40
0.0648354635
 40
0.0972015465
 40
0.1295196974
 40
0.1617793593
 40
0.1939714266
 40
0.2260875097
 40
0.2581201639
 40
0.2900629701
 40
0.3219105444
 40
0.3536586046
 40
0.3853040043
 40
0.4168446936
 40
0.448279684
 40
0.4796090278
 40
0.5108338279
 40
0.5419561345
 40
0.5729788612
 40
0.6039057448
 40
0.6347413326
 40
0.6654908457
 40
0.6961600931
 40
0.7267554588
 40
0.7572838401
 40
0.8181520969
 40
0.8788443119
 40
0.9091532931
 40
0.9394431842
 40
0.9697225579
 40
1.0
 40
1.0
 40
1.0
 40
1.0
 10
10.8315485326
 20
7.3250533849
 30
0.0
 10
10.8282235534
 20
7.3289767365
 30
0.0
 10
10.8217675851
 20
7.336984886
 30
0.0
 10
10.8126907754
 20
7.3494503278
 30
0.0
 10
10.80424697
 20
7.3623321171
 30
0.0
 10
10.7964580915
 20
7.3755933017
 30
0.0
 10
10.7893431489
 20
7.3891968195
 30
0.0
 10
10.7829186243
 20
7.4031043704
 30
0.0
 10
10.777198277
 20
7.4172772248
 30
0.0
 10
10.7721932339
 20
7.4316763285
 30
0.0
 10
10.7679120184
 20
7.4462625732
 30
0.0
 10
10.7643606389
 20
7.4609970206
 30
0.0
 10
10.7615426446
 20
7.4758410971
 30
0.0
 10
10.7594592207
 20
7.4907567801
 30
0.0
 10
10.7581093837
 20
7.5057067635
 30
0.0
 10
10.7574901152
 20
7.5206545763
 30
0.0
 10
10.7575965077
 20
7.5355646934
 30
0.0
 10
10.7584218491
 20
7.5504026223
 30
0.0
 10
10.7599578587
 20
7.5651349626
 30
0.0
 10
10.7621948314
 20
7.5797294294
 30
0.0
 10
10.7651217667
 20
7.5941548824
 30
0.0
 10
10.7687264327
 20
7.6083813353
 30
0.0
 10
10.7729956
 20
7.6223799657
 30
0.0
 10
10.7779150594
 20
7.6361229358
 30
0.0
 10
10.7834700097
 20
7.6495839181
 30
0.0
 10
10.7916929933
 20
7.6671012849
 30
0.0
 10
10.8034839527
 20
7.6881845843
 30
0.0
 10
10.8171912067
 20
7.7080326069
 30
0.0
 10
10.8292137721
 20
7.7230538233
 30
0.0
 10
10.8387407746
 20
7.7338743584
 30
0.0
 10
10.8487604903
 20
7.744232467
 30
0.0
 10
10.8557559247
 20
7.7508174166
 30
0.0
 10
10.859327989
 20
7.7540257386
 30
0.0
  0
SPLINE
  5
365
100
AcDbEntity
  8
0
100
AcDbSpline
 62
7
  6
CONTINUOUS
 70
0
 71
3
 72
23
 73
19
 74
0
 42
0.0000001
 43
0.0000001
 44
0.0000000001
 40
0.0
 40
0.0
 40
0.0
 40
0.0
 40
0.0639344308
 40
0.1275582359
 40
0.1908822775
 40
0.2539220914
 40
0.3166999922
 40
0.3792433808
 40
0.4415843824
 40
0.5037589179
 40
0.5658058142
 40
0.627765847
 40
0.6896807864
 40
0.7515924739
 40
0.813541958
 40
0.8755687101
 40
0.9377099378
 40
1.0
 40
1.0
 40
1.0
 40
1.0
 10
11.9356037825
 20
7.4634276766
 30
0.0
 10
11.9356037825
 20
7.4709574262
 30
0.0
 10
11.9361329053
 20
7.4859859077
 30
0.0
 10
11.9385231403
 20
7.5083576345
 30
0.0
 10
11.9424938835
 20
7.5303978459
 30
0.0
 10
11.9480219627
 20
7.5519968997
 30
0.0
 10
11.9550751408
 20
7.5730503587
 30
0.0
 10
11.9636128485
 20
7.5934576132
 30
0.0
 10
11.9735866498
 20
7.6131231298
 30
0.0
 10
11.9849409712
 20
7.631956881
 30
0.0
 10
11.9976138096
 20
7.6498748333
 30
0.0
 10
12.011537496
 20
7.6667992561
 30
0.0
 10
12.026639438
 20
7.6826589154
 30
0.0
 10
12.04284289
 20
7.6973891753
 30
0.0
 10
12.0600675025
 20
7.7109319193
 30
0.0
 10
12.0782304867
 20
7.7232356978
 30
0.0
 10
12.0972452012
 20
7.7342546629
 30
0.0
 10
12.1104164987
 20
7.7407106061
 30
0.0
 10
12.117110664
 20
7.7437116606
 30
0.0
  0
SPLINE
  5
366
100
AcDbEntity
  8
0
100
AcDbSpline
 62
7
  6
CONTINUOUS
 70
0
 71
3
 72
23
 73
19
 74
0
 42
0.0000001
 43
0.0000001
 44
0.0000000001
 40
0.0
 40
0.0
 40
0.0
 40
0.0
 40
0.0630445077
 40
0.1260494688
 40
0.1890028721
 40
0.2518975713
 40
0.3147246238
 40
0.3774769235
 40
0.4401479367
 40
0.5027322165
 40
0.5652253569
 40
0.627624079
 40
0.6899262733
 40
0.75213103
 40
0.8142386565
 40
0.8762506782
 40
0.9381698246
 40
1.0
 40
1.0
 40
1.0
 40
1.0
 10
10.4297078627
 20
9.0869623096
 30
0.0
 10
10.4243799589
 20
9.0846206503
 30
0.0
 10
10.4138527222
 20
9.0796476639
 30
0.0
 10
10.3984993926
 20
9.0713427772
 30
0.0
 10
10.383633526
 20
9.0622192574
 30
0.0
 10
10.3693022698
 20
9.052306087
 30
0.0
 10
10.3555502296
 20
9.0416340249
 30
0.0
 10
10.3424204702
 20
9.030236516
 30
0.0
 10
10.3299540473
 20
9.0181491429
 30
0.0
 10
10.3181899621
 20
9.0054096931
 30
0.0
 10
10.3071650214
 20
8.992057981
 30
0.0
 10
10.2969137172
 20
8.9781357462
 30
0.0
 10
10.2874681288
 20
8.9636865165
 30
0.0
 10
10.2788578147
 20
8.9487554527
 30
0.0
 10
10.2711097423
 20
8.9333892896
 30
0.0
 10
10.2642481227
 20
8.9176358876
 30
0.0
 10
10.2582946331
 20
8.9015452123
 30
0.0
 10
10.2549407144
 20
8.8906174946
 30
0.0
 10
10.2534215458
 20
8.8851156905
 30
0.0
  0
SPLINE
  5
367
100
AcDbEntity
  8
0
100
AcDbSpline
 62
7
  6
CONTINUOUS
 70
0
 71
3
 72
27
 73
23
 74
0
 42
0.0000001
 43
0.0000001
 44
0.0000000001
 40
0.0
 40
0.0
 40
0.0
 40
0.0
 40
0.0629978809
 40
0.1260397129
 40
0.1891232417
 40
0.2522322566
 40
0.3153416584
 40
0.3468914575
 40
0.3784295226
 40
0.4414438347
 40
0.5043568673
 40
0.5357683339
 40
0.5671406321
 40
0.6297404443
 40
0.692130725
 40
0.723242007
 40
0.7542893015
 40
0.8161689441
 40
0.8777563687
 40
0.9084394305
 40
0.9390435531
 40
1.0
 40
1.0
 40
1.0
 40
1.0
 10
12.6199758592
 20
7.3690187637
 30
0.0
 10
12.6126535963
 20
7.3726526106
 30
0.0
 10
12.5982527457
 20
7.3804361872
 30
0.0
 10
12.5774911572
 20
7.393552047
 30
0.0
 10
12.557641134
 20
7.4080367063
 30
0.0
 10
12.5387916936
 20
7.4238135554
 30
0.0
 10
12.5239878809
 20
7.4379768144
 30
0.0
 10
12.5127333461
 20
7.4498746216
 30
0.0
 10
12.501889584
 20
7.4621315795
 30
0.0
 10
12.4891240654
 20
7.4781058233
 30
0.0
 10
12.4774701699
 20
7.4948886358
 30
0.0
 10
12.4688594309
 20
7.5087436
 30
0.0
 10
12.4607457743
 20
7.5228485071
 30
0.0
 10
12.4515367604
 20
7.5409462114
 30
0.0
 10
12.4436143524
 20
7.5596066689
 30
0.0
 10
12.4380876144
 20
7.5747963995
 30
0.0
 10
12.4331192477
 20
7.5901081346
 30
0.0
 10
12.4279465313
 20
7.6094971897
 30
0.0
 10
12.4241845177
 20
7.6291609167
 30
0.0
 10
12.4220447327
 20
7.6449637158
 30
0.0
 10
12.4204903988
 20
7.6607517325
 30
0.0
 10
12.4199767653
 20
7.6726353725
 30
0.0
 10
12.4199290325
 20
7.6805447127
 30
0.0
  0
SPLINE
  5
368
100
AcDbEntity
  8
0
100
AcDbSpline
 62
4
  6
CONTINUOUS
 70
0
 71
3
 72
69
 73
65
 74
0
 42
0.0000001
 43
0.0000001
 44
0.0000000001
 40
0.0
 40
0.0
 40
0.0
 40
0.0
 40
0.03125
 40
0.046875
 40
0.0625
 40
0.078125
 40
0.09375
 40
0.109375
 40
0.125
 40
0.140625
 40
0.15625
 40
0.171875
 40
0.1875
 40
0.203125
 40
0.21875
 40
0.234375
 40
0.25
 40
0.265625
 40
0.28125
 40
0.296875
 40
0.3125
 40
0.328125
 40
0.34375
 40
0.359375
 40
0.375
 40
0.390625
 40
0.40625
 40
0.421875
 40
0.4375
 40
0.453125
 40
0.46875
 40
0.484375
 40
0.5
 40
0.515625
 40
0.53125
 40
0.546875
 40
0.5625
 40
0.578125
 40
0.59375
 40
0.609375
 40
0.625
 40
0.640625
 40
0.65625
 40
0.671875
 40
0.6875
 40
0.703125
 40
0.71875
 40
0.734375
 40
0.75
 40
0.765625
 40
0.78125
 40
0.796875
 40
0.8125
 40
0.828125
 40
0.84375
 40
0.859375
 40
0.875
 40
0.890625
 40
0.90625
 40
0.921875
 40
0.9375
 40
0.953125
 40
0.96875
 40
1.0
 40
1.0
 40
1.0
 40
1.0
 10
9.7730260488
 20
9.7326442692
 30
0.0
 10
9.7728697021
 20
9.7326397819
 30
0.0
 10
9.7726347714
 20
9.732635143
 30
0.0
 10
9.7723231734
 20
9.73262059
 30
0.0
 10
9.7720853675
 20
9.7326305949
 30
0.0
 10
9.7718631696
 20
9.7325611048
 30
0.0
 10
9.771636244
 20
9.7325142748
 30
0.0
 10
9.7714126215
 20
9.7324562992
 30
0.0
 10
9.771180514
 20
9.7324202458
 30
0.0
 10
9.7709790432
 20
9.7323076494
 30
0.0
 10
9.7707686627
 20
9.7322168927
 30
0.0
 10
9.7705632842
 20
9.7321153199
 30
0.0
 10
9.7703468076
 20
9.7320351722
 30
0.0
 10
9.7701697216
 20
9.7318801399
 30
0.0
 10
9.7699809606
 20
9.7317461881
 30
0.0
 10
9.7697995092
 20
9.7316027988
 30
0.0
 10
9.7696004945
 20
9.731476079
 30
0.0
 10
9.7694644233
 20
9.7312921189
 30
0.0
 10
9.7693102977
 20
9.7311243728
 30
0.0
 10
9.7691654464
 20
9.7309490108
 30
0.0
 10
9.7690015522
 20
9.7307878983
 30
0.0
 10
9.7689045553
 20
9.730577404
 30
0.0
 10
9.7687883129
 20
9.7303807818
 30
0.0
 10
9.7686821551
 20
9.7301780529
 30
0.0
 10
9.7685549044
 20
9.7299858787
 30
0.0
 10
9.7685019409
 20
9.7297575926
 30
0.0
 10
9.7684276706
 20
9.7295394906
 30
0.0
 10
9.7683643403
 20
9.7293167638
 30
0.0
 10
9.7682785568
 20
9.7291023522
 30
0.0
 10
9.7682716464
 20
9.7288593045
 30
0.0
 10
9.7682421469
 20
9.7286239014
 30
0.0
 10
9.7682241309
 20
9.7283865557
 30
0.0
 10
9.76818277
 20
9.7281493357
 30
0.0
 10
9.7682233053
 20
9.7279135556
 30
0.0
 10
9.7682404944
 20
9.7276772079
 30
0.0
 10
9.7682691719
 20
9.7274416909
 30
0.0
 10
9.7682752421
 20
9.7272034184
 30
0.0
 10
9.7683602534
 20
9.7269753372
 30
0.0
 10
9.7684227908
 20
9.7267440713
 30
0.0
 10
9.7684962826
 20
9.726515353
 30
0.0
 10
9.7685484306
 20
9.7262796288
 30
0.0
 10
9.7686749996
 20
9.7260693805
 30
0.0
 10
9.7687803461
 20
9.7258516942
 30
0.0
 10
9.768896162
 20
9.7256382838
 30
0.0
 10
9.7689913224
 20
9.7254152078
 30
0.0
 10
9.7691586357
 20
9.7252265186
 30
0.0
 10
9.7693056781
 20
9.7250275602
 30
0.0
 10
9.769461651
 20
9.724835292
 30
0.0
 10
9.7696021726
 20
9.7246265321
 30
0.0
 10
9.7697955693
 20
9.7244770488
 30
0.0
 10
9.769974004
 20
9.7243105487
 30
0.0
 10
9.7701594114
 20
9.7241528394
 30
0.0
 10
9.7703318901
 20
9.7239769837
 30
0.0
 10
9.7705491111
 20
9.7238649225
 30
0.0
 10
9.7707537948
 20
9.7237344853
 30
0.0
 10
9.7709638857
 20
9.7236137575
 30
0.0
 10
9.7711648848
 20
9.723472568
 30
0.0
 10
9.771396844
 20
9.7234035159
 30
0.0
 10
9.7716200965
 20
9.723313771
 30
0.0
 10
9.7718472156
 20
9.7232346601
 30
0.0
 10
9.7720675751
 20
9.7231337062
 30
0.0
 10
9.7723111064
 20
9.7231094901
 30
0.0
 10
9.7726276844
 20
9.7230502765
 30
0.0
 10
9.7728669472
 20
9.7230119246
 30
0.0
 10
9.7730260492
 20
9.7229850103
 30
0.0
  0
SPLINE
  5
369
100
AcDbEntity
  8
0
100
AcDbSpline
 62
4
  6
CONTINUOUS
 70
0
 71
3
 72
69
 73
65
 74
0
 42
0.0000001
 43
0.0000001
 44
0.0000000001
 40
0.0
 40
0.0
 40
0.0
 40
0.0
 40
0.03125
 40
0.046875
 40
0.0625
 40
0.078125
 40
0.09375
 40
0.109375
 40
0.125
 40
0.140625
 40
0.15625
 40
0.171875
 40
0.1875
 40
0.203125
 40
0.21875
 40
0.234375
 40
0.25
 40
0.265625
 40
0.28125
 40
0.296875
 40
0.3125
 40
0.328125
 40
0.34375
 40
0.359375
 40
0.375
 40
0.390625
 40
0.40625
 40
0.421875
 40
0.4375
 40
0.453125
 40
0.46875
 40
0.484375
 40
0.5
 40
0.515625
 40
0.53125
 40
0.546875
 40
0.5625
 40
0.578125
 40
0.59375
 40
0.609375
 40
0.625
 40
0.640625
 40
0.65625
 40
0.671875
 40
0.6875
 40
0.703125
 40
0.71875
 40
0.734375
 40
0.75
 40
0.765625
 40
0.78125
 40
0.796875
 40
0.8125
 40
0.828125
 40
0.84375
 40
0.859375
 40
0.875
 40
0.890625
 40
0.90625
 40
0.921875
 40
0.9375
 40
0.953125
 40
0.96875
 40
1.0
 40
1.0
 40
1.0
 40
1.0
 10
9.7730260488
 20
9.7229850104
 30
0.0
 10
9.7731823955
 20
9.7229894976
 30
0.0
 10
9.7734173262
 20
9.7229941365
 30
0.0
 10
9.7737289242
 20
9.7230086896
 30
0.0
 10
9.7739667301
 20
9.7229986847
 30
0.0
 10
9.774188928
 20
9.7230681748
 30
0.0
 10
9.7744158537
 20
9.7231150048
 30
0.0
 10
9.7746394762
 20
9.7231729803
 30
0.0
 10
9.7748715836
 20
9.7232090337
 30
0.0
 10
9.7750730544
 20
9.7233216302
 30
0.0
 10
9.7752834349
 20
9.7234123868
 30
0.0
 10
9.7754888134
 20
9.7235139597
 30
0.0
 10
9.77570529
 20
9.7235941074
 30
0.0
 10
9.775882376
 20
9.7237491397
 30
0.0
 10
9.776071137
 20
9.7238830914
 30
0.0
 10
9.7762525884
 20
9.7240264807
 30
0.0
 10
9.7764516031
 20
9.7241532005
 30
0.0
 10
9.7765876743
 20
9.7243371607
 30
0.0
 10
9.7767417999
 20
9.7245049068
 30
0.0
 10
9.7768866512
 20
9.7246802687
 30
0.0
 10
9.7770505454
 20
9.7248413812
 30
0.0
 10
9.7771475423
 20
9.7250518755
 30
0.0
 10
9.7772637847
 20
9.7252484977
 30
0.0
 10
9.7773699425
 20
9.7254512266
 30
0.0
 10
9.7774971932
 20
9.7256434008
 30
0.0
 10
9.7775501567
 20
9.725871687
 30
0.0
 10
9.777624427
 20
9.7260897889
 30
0.0
 10
9.7776877573
 20
9.7263125158
 30
0.0
 10
9.7777735409
 20
9.7265269273
 30
0.0
 10
9.7777804512
 20
9.7267699751
 30
0.0
 10
9.7778099507
 20
9.7270053782
 30
0.0
 10
9.7778279667
 20
9.7272427238
 30
0.0
 10
9.7778693276
 20
9.7274799438
 30
0.0
 10
9.7778287923
 20
9.7277157239
 30
0.0
 10
9.7778116032
 20
9.7279520717
 30
0.0
 10
9.7777829257
 20
9.7281875886
 30
0.0
 10
9.7777768555
 20
9.7284258611
 30
0.0
 10
9.7776918442
 20
9.7286539423
 30
0.0
 10
9.7776293068
 20
9.7288852083
 30
0.0
 10
9.777555815
 20
9.7291139266
 30
0.0
 10
9.777503667
 20
9.7293496508
 30
0.0
 10
9.777377098
 20
9.7295598991
 30
0.0
 10
9.7772717516
 20
9.7297775854
 30
0.0
 10
9.7771559356
 20
9.7299909957
 30
0.0
 10
9.7770607752
 20
9.7302140718
 30
0.0
 10
9.7768934619
 20
9.7304027609
 30
0.0
 10
9.7767464196
 20
9.7306017194
 30
0.0
 10
9.7765904466
 20
9.7307939875
 30
0.0
 10
9.776449925
 20
9.7310027475
 30
0.0
 10
9.7762565283
 20
9.7311522307
 30
0.0
 10
9.7760780936
 20
9.7313187308
 30
0.0
 10
9.7758926862
 20
9.7314764402
 30
0.0
 10
9.7757202075
 20
9.7316522958
 30
0.0
 10
9.7755029865
 20
9.7317643571
 30
0.0
 10
9.7752983029
 20
9.7318947943
 30
0.0
 10
9.7750882119
 20
9.7320155221
 30
0.0
 10
9.7748872128
 20
9.7321567116
 30
0.0
 10
9.7746552536
 20
9.7322257636
 30
0.0
 10
9.7744320011
 20
9.7323155085
 30
0.0
 10
9.774204882
 20
9.7323946195
 30
0.0
 10
9.7739845225
 20
9.7324955734
 30
0.0
 10
9.7737409912
 20
9.7325197894
 30
0.0
 10
9.7734244132
 20
9.732579003
 30
0.0
 10
9.7731851504
 20
9.732617355
 30
0.0
 10
9.7730260484
 20
9.7326442692
 30
0.0
  0
ELLIPSE
  5
36A
100
AcDbEntity
  8
0
100
AcDbEllipse
 62
7
  6
CONTINUOUS
 10
10.469458626
 20
9.1357005815
 30
0.0
 11
0.0475503526
 21
0.3394426868
 31
0.0
 40
0.8955385937
 41
0.0
 42
6.2831853072
  0
ELLIPSE
  5
36B
100
AcDbEntity
  8
0
100
AcDbEllipse
 62
7
  6
CONTINUOUS
 10
12.6862586024
 20
8.9211116278
 30
0.0
 11
-0.0370540818
 21
0.1293637251
 31
0.0
 40
0.8883046911
 41
0.0
 42
6.2831853072
  0
ELLIPSE
  5
36C
100
AcDbEntity
  8
0
100
AcDbEllipse
 62
7
  6
CONTINUOUS
 10
13.123823094
 20
7.3201708955
 30
0.0
 11
0.1360512659
 21
-0.0358144401
 31
0.0
 40
0.8504987735
 41
0.0
 42
6.2831853072
  0
ENDSEC
  0
SECTION
  2
OBJECTS
  0
DICTIONARY
  5
C
100
AcDbDictionary
280
0
281
1
  3
ACAD_GROUP
350
D
  3
ACAD_MLINESTYLE
350
17
  3
ACAD_LAYOUT
350
1A
  3
ACAD_PLOTSETTINGS
350
19
  3
ACAD_PLOTSTYLENAME
350
E
  3
ACAD_IMAGE_DICT
350
       36E
  3
ACAD_IMAGE_VARS
350
       36F
  3
ACAD_TABLESTYLE
350
       370
  0
IMAGEDEF_REACTOR
  5
36D
100
AcDbRasterImageDefReactor
 90
2
330
278
  0
DICTIONARY
  5
D
102
{ACAD_REACTORS
330
C
102
}
100
AcDbDictionary
280
0
281
1
  0
ACDBDICTIONARYWDFLT
  5
E
102
{ACAD_REACTORS
330
C
102
}
100
AcDbDictionary
281
1
  3
Normal
350
F
100
AcDbDictionaryWithDefault
340
F
  0
DICTIONARY
  5
36E
330
C
100
AcDbDictionary
281
1
  3
RPGCLAN-CKJ_assy_2_img_1
350
       373
  0
RASTERVARIABLES
  5
36F
330
C
100
AcDbRasterVariables
 90
0
 70
0
 71
1
 72
5
  0
DICTIONARY
  5
17
102
{ACAD_REACTORS
330
C
102
}
100
AcDbDictionary
280
0
281
1
  3
Standard
350
18
  0
DICTIONARY
  5
370
330
C
100
AcDbDictionary
281
1
  3
Standard
350
       374
  3
Standard1
350
       375
  0
DICTIONARY
  5
19
102
{ACAD_REACTORS
330
C
102
}
100
AcDbDictionary
281
1
  0
DICTIONARY
  5
1A
102
{ACAD_REACTORS
330
C
102
}
100
AcDbDictionary
281
1
  3
Model
350
371
  3
Layout1
350
372
  0
ACDBPLACEHOLDER
  5
F
102
{ACAD_REACTORS
330
E
102
}
  0
MLINESTYLE
  5
18
102
{ACAD_REACTORS
330
17
102
}
100
AcDbMlineStyle
  2
STANDARD
 70
0
  3

 62
256
 51
90.0
 52
90.0
 71
2
 49
0.5
 62
256
  6
BYLAYER
 49
-0.5
 62
256
  6
BYLAYER
  0
LAYOUT
  5
371
102
{ACAD_REACTORS
330
1A
102
}
100
AcDbPlotSettings
  1

  2
none_device
  4
ANSI_C_(22.00_x_17.00_Inches)
  6

 40
0.0
 41
0.0
 42
0.0
 43
0.0
 44
558.8
 45
431.8
 46
0.0
 47
0.0
 48
0.0
 49
0.0
140
0.0
141
0.0
142
1.0
143
1.0
 70
1024
 72
0
 73
0
 74
0
  7

 75
0
147
1.0
148
0.0
149
0.0
100
AcDbLayout
  1
Model
 70
0
 71
0
 10
0.0
 20
0.0
 11
22.0
 21
17.0
 12
0.0
 22
0.0
 32
0.0
 14
0.0
 24
0.0
 34
0.0
 15
0.0
 25
0.0
 35
0.0
146
0.0
 13
0.0
 23
0.0
 33
0.0
 16
1.0
 26
0.0
 36
0.0
 17
0.0
 27
1.0
 37
0.0
 76
0
330
20F
345
0
346
0
  0
LAYOUT
  5
372
102
{ACAD_REACTORS
330
1A
102
}
100
AcDbPlotSettings
  1

  2
none_device
  4
ANSI_C_(22.00_x_17.00_Inches)
  6

 40
0.0
 41
0.0
 42
0.0
 43
0.0
 44
558.8
 45
431.8
 46
0.0
 47
0.0
 48
0.0
 49
0.0
140
0.0
141
0.0
142
1.0
143
1.0
 70
0
 72
0
 73
0
 74
0
  7

 75
0
147
1.0
148
0.0
149
0.0
100
AcDbLayout
  1
Layout1
 70
0
 71
1
 10
0.0
 20
0.0
 11
22.0
 21
17.0
 12
0.0
 22
0.0
 32
0.0
 14
0.0
 24
0.0
 34
0.0
 15
0.0
 25
0.0
 35
0.0
146
0.0
 13
0.0
 23
0.0
 33
0.0
 16
1.0
 26
0.0
 36
0.0
 17
0.0
 27
1.0
 37
0.0
 76
0
330
210
345
0
346
0
  0
IMAGEDEF
  5
373
102
{ACAD_REACTORS
330
36E
330
36D
102
}
100
AcDbRasterImageDef
 90
0
  1
RPGCLAN-CKJ_assy_2_img_1.png
 10
369.0
 20
92.0
 11
0.0066666667
 21
0.0066666667
280
1
281
0
  0
TABLESTYLE
  5
374
102
{ACAD_REACTORS
330
370
330
27B
102
}
330
370
100
AcDbTableStyle
  3
Standard
 70
0
 71
0
 40
0.06
 41
0.06
280
1
281
1
  7
Standard
140
0.18
170
1
 62
0
 63
7
283
0
  7
Standard
140
0.18
170
1
 62
0
 63
7
283
0
  7
Standard
140
0.18
170
1
 62
0
 63
7
283
0
  0
TABLESTYLE
  5
375
102
{ACAD_REACTORS
330
370
330
27A
102
}
330
370
100
AcDbTableStyle
  3
Standard1
 70
1
 71
0
 40
0.06
 41
0.06
280
1
281
1
  7
Standard
140
0.18
170
1
 62
0
 63
7
283
0
  7
Standard
140
0.18
170
1
 62
0
 63
7
283
0
  7
Standard
140
0.18
170
1
 62
0
 63
7
283
0
  0
ENDSEC
  0
EOF
