999
DXF file: RPGCLAN-CBT_assy_2.dxf
999
Pro/ENGINEER 2014200 by Parametric Technology Corporation
  0
SECTION
  2
HEADER
  9
$ACADVER
  1
AC1021
  9
$DWGCODEPAGE
  3
ANSI_1252
  9
$EXTMAX
 10
22.0
 20
17.0
 30
0.0
  9
$EXTMIN
 10
0.0
 20
0.0
 30
0.0
  9
$LIMMIN
 10
0.0
 20
0.0
  9
$LIMMAX
 10
22.0
 20
17.0
  9
$VIEWCTR
 10
11.0
 20
8.5
  9
$VIEWSIZE
 40
17.0
  9
$CLAYER
  8
0
  9
$LTSCALE
 40
1.21
  9
$CELTYPE
  6
BYLAYER
  9
$DIMSCALE
 40
1.0
  9
$DIMASZ
 40
0.1875
  9
$DIMEXO
 40
0.0625
  9
$DIMDLI
 40
0.836
  9
$DIMEXE
 40
0.125
  9
$DIMCEN
 40
0.198
  9
$DIMLFAC
 40
1.0
  9
$DIMBLK
  1
_FILLED
  9
$DIMTXT
 40
0.1
  9
$DIMTOL
 70
0
  9
$DIMLIM
 70
0
  9
$DIMTFAC
 40
1.0
  9
$DIMGAP
 40
0.09
  9
$DIMDSEP
 70
46
  9
$AUNITS
 70
0
  9
$PDMODE
 70
3
  9
$PDSIZE
 40
0.3125
  9
$HANDSEED
  5
383
  9
$TILEMODE
 70
1
  9
$MEASUREMENT
 70
0
  9
$INSUNITS
 70
1
  0
ENDSEC
  0
SECTION
  2
CLASSES
  0
CLASS
  1
ACDBDICTIONARYWDFLT
  2
AcDbDictionaryWithDefault
  3
AutoCAD 2000
 90
0
 91
1
280
0
281
0
  0
CLASS
  1
ACDBPLACEHOLDER
  2
AcDbPlaceHolder
  3
AutoCAD 2000
 90
0
 91
1
280
0
281
0
  0
CLASS
  1
LAYOUT
  2
AcDbLayout
  3
AutoCAD 2000
 90
0
 91
0
280
0
281
0
  0
CLASS
  1
RASTERVARIABLES
  2
AcDbRasterVariables
  3
ISM
 90
0
 91
1
280
0
281
0
  0
CLASS
  1
IMAGEDEF
  2
AcDbRasterImageDef
  3
ISM
 90
0
 91
1
280
0
281
0
  0
CLASS
  1
IMAGEDEF_REACTOR
  2
AcDbRasterImageDefReactor
  3
ISM
 90
0
 91
1
280
0
281
0
  0
CLASS
  1
IMAGE
  2
AcDbRasterImage
  3
ISM
 90
127
 91
1
280
0
281
1
  0
CLASS
  1
TABLESTYLE
  2
AcDbTableStyle
  3
ObjectDBX Classes
 90
2047
 91
1
280
0
281
0
  0
CLASS
  1
ACAD_TABLE
  2
AcDbTable
  3
ObjectDBX Classes
 90
1025
 91
2
280
0
281
1
  0
ENDSEC
  0
SECTION
  2
TABLES
  0
TABLE
  2
VPORT
  5
8
100
AcDbSymbolTable
 70
2
  0
VPORT
  5
1F4
100
AcDbSymbolTableRecord
100
AcDbViewportTableRecord
  2
*ACTIVE
 70
0
 10
0.0
 20
0.0
 11
1.0
 21
1.0
 12
11.0
 22
8.5
 13
0.0
 23
0.0
 14
1.0
 24
1.0
 15
0.0
 25
0.0
 16
0.0
 26
0.0
 36
1.0
 17
0.0
 27
0.0
 37
0.0
 40
17.0
 41
1.2941176471
 42
50.0
 43
0.0
 44
0.0
 50
0.0
 51
0.0
 71
0
 72
100
 73
1
 74
1
 75
0
 76
0
 77
0
 78
0
  0
ENDTAB
  0
TABLE
  2
LTYPE
  5
5
100
AcDbSymbolTable
 70
6
  0
LTYPE
  5
14
100
AcDbSymbolTableRecord
100
AcDbLinetypeTableRecord
  2
BYBLOCK
 70
0
  3

 72
65
 73
0
 40
0.0
  0
LTYPE
  5
15
100
AcDbSymbolTableRecord
100
AcDbLinetypeTableRecord
  2
BYLAYER
 70
0
  3

 72
65
 73
0
 40
0.0
  0
LTYPE
  5
16
100
AcDbSymbolTableRecord
100
AcDbLinetypeTableRecord
  2
CONTINUOUS
 70
64
  3
Solid line
 72
65
 73
0
 40
0.0
  0
LTYPE
  5
1F5
100
AcDbSymbolTableRecord
100
AcDbLinetypeTableRecord
  2
CENTER
 70
64
  3
____ _ ____ _ ____ _ ____ _ ____ _ ____ _ ____
 72
65
 73
4
 40
0.6
 49
0.375
 74
0
 49
-0.075
 74
0
 49
0.075
 74
0
 49
-0.075
 74
0
  0
LTYPE
  5
1F6
100
AcDbSymbolTableRecord
100
AcDbLinetypeTableRecord
  2
HIDDEN
 70
64
  3
- - - - - - - - - - - - - - - - - - - -
 72
65
 73
2
 40
0.2
 49
0.1
 74
0
 49
-0.1
 74
0
  0
LTYPE
  5
1F7
100
AcDbSymbolTableRecord
100
AcDbLinetypeTableRecord
  2
PHANTOM
 70
64
  3
_____ _ _ _____ _ _ _____ _ _ _____
 72
65
 73
6
 40
0.8
 49
0.45
 74
0
 49
-0.05
 74
0
 49
0.1
 74
0
 49
-0.05
 74
0
 49
0.1
 74
0
 49
-0.05
 74
0
  0
LTYPE
  5
1F8
100
AcDbSymbolTableRecord
100
AcDbLinetypeTableRecord
  2
DOT
 70
64
  3
. . . . . . . . . . . . . . . . . . . .
 72
65
 73
2
 40
0.2
 49
0.1
 74
0
 49
-0.1
 74
0
  0
LTYPE
  5
1F9
100
AcDbSymbolTableRecord
100
AcDbLinetypeTableRecord
  2
DASHED
 70
64
  3
- - - - - - - - - - - - - - - - - - - -
 72
65
 73
2
 40
0.2
 49
0.1
 74
0
 49
-0.1
 74
0
  0
ENDTAB
  0
TABLE
  2
LAYER
  5
2
100
AcDbSymbolTable
 70
36
  0
LAYER
  5
10
100
AcDbSymbolTableRecord
100
AcDbLayerTableRecord
  2
0
 70
0
 62
7
  6
CONTINUOUS
370
-3
390
F
  0
LAYER
  5
1FA
100
AcDbSymbolTableRecord
100
AcDbLayerTableRecord
  2
DEFAULT_1
 70
0
 62
7
  6
CENTER
370
-3
390
F
  0
LAYER
  5
1FB
100
AcDbSymbolTableRecord
100
AcDbLayerTableRecord
  2
DEFAULT_2
 70
0
 62
8
  6
HIDDEN
370
-3
390
F
  0
LAYER
  5
1FC
100
AcDbSymbolTableRecord
100
AcDbLayerTableRecord
  2
DEFAULT_3
 70
0
 62
7
  6
PHANTOM
370
-3
390
F
  0
LAYER
  5
1FD
100
AcDbSymbolTableRecord
100
AcDbLayerTableRecord
  2
01___PRT_ALL_DTM_PLN
 70
0
 62
7
  6
CONTINUOUS
370
-3
390
F
  0
LAYER
  5
1FE
100
AcDbSymbolTableRecord
100
AcDbLayerTableRecord
  2
01___PRT_DEF_DTM_PLN
 70
0
 62
7
  6
CONTINUOUS
370
-3
390
F
  0
LAYER
  5
1FF
100
AcDbSymbolTableRecord
100
AcDbLayerTableRecord
  2
02___PRT_ALL_AXES
 70
0
 62
7
  6
CONTINUOUS
370
-3
390
F
  0
LAYER
  5
200
100
AcDbSymbolTableRecord
100
AcDbLayerTableRecord
  2
03___PRT_ALL_CURVES
 70
0
 62
7
  6
CONTINUOUS
370
-3
390
F
  0
LAYER
  5
201
100
AcDbSymbolTableRecord
100
AcDbLayerTableRecord
  2
04___PRT_ALL_DTM_PNT
 70
0
 62
7
  6
CONTINUOUS
370
-3
390
F
  0
LAYER
  5
202
100
AcDbSymbolTableRecord
100
AcDbLayerTableRecord
  2
05___PRT_ALL_DTM_CSYS
 70
0
 62
7
  6
CONTINUOUS
370
-3
390
F
  0
LAYER
  5
203
100
AcDbSymbolTableRecord
100
AcDbLayerTableRecord
  2
05___PRT_DEF_DTM_CSYS
 70
0
 62
7
  6
CONTINUOUS
370
-3
390
F
  0
LAYER
  5
204
100
AcDbSymbolTableRecord
100
AcDbLayerTableRecord
  2
06___PRT_ALL_SURFS
 70
0
 62
7
  6
CONTINUOUS
370
-3
390
F
  0
LAYER
  5
205
100
AcDbSymbolTableRecord
100
AcDbLayerTableRecord
  2
DATUM_PLANES
 70
0
 62
7
  6
CONTINUOUS
370
-3
390
F
  0
LAYER
  5
206
100
AcDbSymbolTableRecord
100
AcDbLayerTableRecord
  2
DIMENSIONS
 70
0
 62
7
  6
CONTINUOUS
370
-3
390
F
  0
LAYER
  5
207
100
AcDbSymbolTableRecord
100
AcDbLayerTableRecord
  2
DTM_500001
 70
0
 62
7
  6
CONTINUOUS
370
-3
390
F
  0
LAYER
  5
208
100
AcDbSymbolTableRecord
100
AcDbLayerTableRecord
  2
PARAMETERDIMENSIONS
 70
0
 62
7
  6
CONTINUOUS
370
-3
390
F
  0
LAYER
  5
209
100
AcDbSymbolTableRecord
100
AcDbLayerTableRecord
  2
PORT_AREAS
 70
0
 62
7
  6
CONTINUOUS
370
-3
390
F
  0
LAYER
  5
20A
100
AcDbSymbolTableRecord
100
AcDbLayerTableRecord
  2
SUNNBOMCOSMETIC
 70
0
 62
7
  6
CONTINUOUS
370
-3
390
F
  0
LAYER
  5
20B
100
AcDbSymbolTableRecord
100
AcDbLayerTableRecord
  2
SUNNBOMSTAMPING
 70
0
 62
7
  6
CONTINUOUS
370
-3
390
F
  0
LAYER
  5
20C
100
AcDbSymbolTableRecord
100
AcDbLayerTableRecord
  2
THREADS
 70
0
 62
7
  6
CONTINUOUS
370
-3
390
F
  0
ENDTAB
  0
TABLE
  2
STYLE
  5
3
100
AcDbSymbolTable
 70
1
  0
STYLE
  5
11
100
AcDbSymbolTableRecord
100
AcDbTextStyleTableRecord
  2
STANDARD
 70
0
 40
0.0
 41
0.8
 50
0.0
 71
0
 42
0.2
  3
txt
  4

  0
STYLE
  5
20D
100
AcDbSymbolTableRecord
100
AcDbTextStyleTableRecord
  2
TEXTSTYLE_1
 70
0
 40
0.0
 41
0.8
 50
0.0
 71
0
 42
0.2
  3
gdt
  4

  0
ENDTAB
  0
TABLE
  2
VIEW
  5
6
100
AcDbSymbolTable
 70
0
  0
ENDTAB
  0
TABLE
  2
UCS
  5
7
100
AcDbSymbolTable
 70
0
  0
ENDTAB
  0
TABLE
  2
APPID
  5
9
100
AcDbSymbolTable
 70
1
  0
APPID
  5
20E
100
AcDbSymbolTableRecord
100
AcDbRegAppTableRecord
  2
ACAD
 70
0
  0
ENDTAB
  0
TABLE
  2
BLOCK_RECORD
  5
1
100
AcDbSymbolTable
 70
0
  0
BLOCK_RECORD
  5
20F
100
AcDbSymbolTableRecord
100
AcDbBlockTableRecord
  2
*Model_Space
  0
BLOCK_RECORD
  5
210
100
AcDbSymbolTableRecord
100
AcDbBlockTableRecord
  2
*Paper_Space
  0
BLOCK_RECORD
  5
211
100
AcDbSymbolTableRecord
100
AcDbBlockTableRecord
  2
SUN_FIRST_THIRD_ANGLE_BL0
  0
BLOCK_RECORD
  5
212
100
AcDbSymbolTableRecord
100
AcDbBlockTableRecord
  2
*T1
  0
BLOCK_RECORD
  5
213
100
AcDbSymbolTableRecord
100
AcDbBlockTableRecord
  2
*T2
  0
ENDTAB
  0
TABLE
  2
DIMSTYLE
  5
A
100
AcDbSymbolTable
 70
1
100
AcDbDimStyleTable
 71
0
  0
DIMSTYLE
105
214
100
AcDbSymbolTableRecord
100
AcDbDimStyleTableRecord
  2
STANDARD
 70
0
  3

  4

 40
1.0
 41
0.1875
 42
0.0625
 43
0.38
 44
0.125
 45
0.0
 46
0.0
 47
0.001
 48
0.001
140
0.1
141
0.09
142
0.0
143
25.4
144
1.0
145
0.0
146
1.0
147
0.09
 71
0.0
 72
0.0
 73
1
 74
1
 75
0
 76
0
 77
0
 78
4
170
0
171
2
172
0
173
0
174
0
175
0
176
0
177
0
178
0
270
2
271
3
272
3
273
2
274
2
275
0
280
0
281
0
282
0
283
1
284
4
285
0
286
0
287
3
288
0
340
11
278
46
  0
ENDTAB
  0
ENDSEC
  0
SECTION
  2
BLOCKS
  0
BLOCK
  5
20
100
AcDbEntity
  8
0
100
AcDbBlockBegin
  2
*Model_Space
 70
0
 10
0.0
 20
0.0
 30
0.0
  3
*Model_Space
  1

  0
ENDBLK
  5
21
100
AcDbEntity
  8
0
100
AcDbBlockEnd
  0
BLOCK
  5
1C
100
AcDbEntity
  8
0
100
AcDbBlockBegin
  2
*Paper_Space
 70
0
 10
0.0
 20
0.0
 30
0.0
  3
*Paper_Space
  1

  0
ENDBLK
  5
1D
100
AcDbEntity
  8
0
100
AcDbBlockEnd
  0
BLOCK
  5
215
100
AcDbEntity
  8
0
100
AcDbBlockBegin
 62
2
  6
CONTINUOUS
  2
SUN_FIRST_THIRD_ANGLE_BL0
 70
64
 10
20.4816717061
 20
1.2289683772
  3
SUN_FIRST_THIRD_ANGLE_BL0
  1

  0
TEXT
  5
216
100
AcDbEntity
  8
0
100
AcDbText
 62
2
  6
CONTINUOUS
 10
19.4750896608
 20
1.4136269581
  7
STANDARD
 40
0.08
  1
FIRST ANGLE
 41
0.8
 72
0
100
AcDbText
  0
TEXT
  5
217
100
AcDbEntity
  8
0
100
AcDbText
 62
2
  6
CONTINUOUS
 10
20.7842537513
 20
1.4047600029
  7
STANDARD
 40
0.08
  1
THIRD ANGLE
 41
0.8
 72
0
100
AcDbText
  0
LINE
  5
218
100
AcDbEntity
  8
0
100
AcDbLine
 62
7
  6
CONTINUOUS
 10
19.4767170086
 20
1.1727031207
 11
19.6334271527
 21
1.1717972817
  0
LINE
  5
219
100
AcDbEntity
  8
0
100
AcDbLine
 62
7
  6
CONTINUOUS
 10
19.6596964832
 20
1.1717972817
 11
19.6950230232
 21
1.171593082
  0
LINE
  5
21A
100
AcDbEntity
  8
0
100
AcDbLine
 62
7
  6
CONTINUOUS
 10
19.7194818561
 20
1.1708914427
 11
19.8852396156
 21
1.1699333054
  0
LINE
  5
21B
100
AcDbEntity
  8
0
100
AcDbLine
 62
7
  6
CONTINUOUS
 10
19.4758111696
 20
1.2723454088
 11
19.88525039
 21
1.3511534004
  0
LINE
  5
21C
100
AcDbEntity
  8
0
100
AcDbLine
 62
7
  6
CONTINUOUS
 10
19.88525039
 20
1.3511534004
 11
19.8831348489
 21
0.9851647912
  0
LINE
  5
21D
100
AcDbEntity
  8
0
100
AcDbLine
 62
7
  6
CONTINUOUS
 10
19.8831348489
 20
0.9851647912
 11
19.4767170086
 21
1.0658141206
  0
LINE
  5
21E
100
AcDbEntity
  8
0
100
AcDbLine
 62
7
  6
CONTINUOUS
 10
19.4767170086
 20
1.0658141206
 11
19.4779056764
 21
1.2714536432
  0
CIRCLE
  5
21F
100
AcDbEntity
  8
0
100
AcDbCircle
 62
7
  6
CONTINUOUS
 10
20.2068232291
 20
1.1717972817
 40
0.175742101
  0
CIRCLE
  5
220
100
AcDbEntity
  8
0
100
AcDbCircle
 62
7
  6
CONTINUOUS
 10
20.2068232291
 20
1.1717972817
 40
0.1005522074
  0
LINE
  5
221
100
AcDbEntity
  8
0
100
AcDbLine
 62
7
  6
CONTINUOUS
 10
20.2077290681
 20
1.3756110529
 11
20.2071171714
 21
1.2379342989
  0
LINE
  5
222
100
AcDbEntity
  8
0
100
AcDbLine
 62
7
  6
CONTINUOUS
 10
20.2077290681
 20
1.2016899681
 11
20.2074674401
 21
1.1428236749
  0
LINE
  5
223
100
AcDbEntity
  8
0
100
AcDbLine
 62
7
  6
CONTINUOUS
 10
20.208634907
 20
1.101141841
 11
20.2080230104
 21
0.963465087
  0
LINE
  5
224
100
AcDbEntity
  8
0
100
AcDbLine
 62
7
  6
CONTINUOUS
 10
20.0066328138
 20
1.1745147986
 11
20.1443095678
 21
1.1739029019
  0
LINE
  5
225
100
AcDbEntity
  8
0
100
AcDbLine
 62
7
  6
CONTINUOUS
 10
20.1832714155
 20
1.1727031207
 11
20.238153505
 21
1.172335442
  0
LINE
  5
226
100
AcDbEntity
  8
0
100
AcDbLine
 62
7
  6
CONTINUOUS
 10
20.2756669918
 20
1.1717972817
 11
20.407916871
 21
1.1712095044
  0
CIRCLE
  5
227
100
AcDbEntity
  8
0
100
AcDbCircle
 62
7
  6
CONTINUOUS
 10
20.7509457401
 20
1.1693297793
 40
0.1722024983
  0
CIRCLE
  5
228
100
AcDbEntity
  8
0
100
AcDbCircle
 62
7
  6
CONTINUOUS
 10
20.7509457401
 20
1.1693297793
 40
0.0985164967
  0
LINE
  5
229
100
AcDbEntity
  8
0
100
AcDbLine
 62
7
  6
CONTINUOUS
 10
20.7169767782
 20
1.170462078
 11
20.7825395137
 21
1.1682766535
  0
LINE
  5
22A
100
AcDbEntity
  8
0
100
AcDbLine
 62
7
  6
CONTINUOUS
 10
20.8177513651
 20
1.1693297793
 11
20.947965719
 21
1.1693297793
  0
LINE
  5
22B
100
AcDbEntity
  8
0
100
AcDbLine
 62
7
  6
CONTINUOUS
 10
20.6875370113
 20
1.170462078
 11
20.5573226574
 21
1.170462078
  0
LINE
  5
22C
100
AcDbEntity
  8
0
100
AcDbLine
 62
7
  6
CONTINUOUS
 10
20.7486811426
 20
1.1987695462
 11
20.7486811426
 21
1.1432869085
  0
LINE
  5
22D
100
AcDbEntity
  8
0
100
AcDbLine
 62
7
  6
CONTINUOUS
 10
20.7498134414
 20
1.1059210505
 11
20.7498134414
 21
0.9757066966
  0
LINE
  5
22E
100
AcDbEntity
  8
0
100
AcDbLine
 62
7
  6
CONTINUOUS
 10
20.7486811426
 20
1.2338708068
 11
20.7486811426
 21
1.3640851607
  0
LINE
  5
22F
100
AcDbEntity
  8
0
100
AcDbLine
 62
7
  6
CONTINUOUS
 10
21.0702539817
 20
1.2701043662
 11
21.4790138229
 21
1.3448360823
  0
LINE
  5
230
100
AcDbEntity
  8
0
100
AcDbLine
 62
7
  6
CONTINUOUS
 10
21.4790138229
 20
1.3448360823
 11
21.4790138229
 21
0.9779712941
  0
LINE
  5
231
100
AcDbEntity
  8
0
100
AcDbLine
 62
7
  6
CONTINUOUS
 10
21.4790138229
 20
0.9779712941
 11
21.069121683
 21
1.0617614
  0
LINE
  5
232
100
AcDbEntity
  8
0
100
AcDbLine
 62
7
  6
CONTINUOUS
 10
21.0702539817
 20
1.2701043662
 11
21.069121683
 21
1.0617614
  0
LINE
  5
233
100
AcDbEntity
  8
0
100
AcDbLine
 62
7
  6
CONTINUOUS
 10
21.4790138229
 20
1.1693297793
 11
21.3159628059
 21
1.1693297793
  0
LINE
  5
234
100
AcDbEntity
  8
0
100
AcDbLine
 62
7
  6
CONTINUOUS
 10
21.2876553377
 20
1.1693297793
 11
21.2502894796
 21
1.1693297793
  0
LINE
  5
235
100
AcDbEntity
  8
0
100
AcDbLine
 62
7
  6
CONTINUOUS
 10
21.2208497126
 20
1.1659328831
 11
21.0713862804
 21
1.1659328831
  0
LINE
  5
236
100
AcDbEntity
  8
0
100
AcDbLine
 62
7
  6
CONTINUOUS
 10
20.4796138713
 20
1.5284908897
 11
20.4766766948
 21
0.9294458646
  0
ENDBLK
  5
237
100
AcDbEntity
  8
0
  6
BYBLOCK
 62
0
100
AcDbBlockEnd
  0
BLOCK
  5
238
100
AcDbEntity
  8
0
100
AcDbBlockBegin
  2
*T1
 70
1
 10
0.0
 20
0.0
  3
*T1
  1

  0
LINE
  5
239
100
AcDbEntity
  8
0
100
AcDbLine
 62
2
  6
CONTINUOUS
 10
9.275
 20
0.0
 11
-0.0
 21
0.0
  0
LINE
  5
23A
100
AcDbEntity
  8
0
100
AcDbLine
 62
2
  6
CONTINUOUS
 10
9.275
 20
0.0
 11
9.275
 21
1.25
  0
LINE
  5
23B
100
AcDbEntity
  8
0
100
AcDbLine
 62
2
  6
CONTINUOUS
 10
9.275
 20
0.625
 11
-0.0
 21
0.625
  0
LINE
  5
23C
100
AcDbEntity
  8
0
100
AcDbLine
 62
2
  6
CONTINUOUS
 10
9.275
 20
1.25
 11
-0.0
 21
1.25
  0
LINE
  5
23D
100
AcDbEntity
  8
0
100
AcDbLine
 62
2
  6
CONTINUOUS
 10
6.8
 20
0.0
 11
6.8
 21
1.25
  0
LINE
  5
23E
100
AcDbEntity
  8
0
100
AcDbLine
 62
2
  6
CONTINUOUS
 10
6.4
 20
0.0
 11
6.4
 21
0.625
  0
LINE
  5
23F
100
AcDbEntity
  8
0
100
AcDbLine
 62
2
  6
CONTINUOUS
 10
5.9
 20
0.0
 11
5.9
 21
0.625
  0
LINE
  5
240
100
AcDbEntity
  8
0
100
AcDbLine
 62
2
  6
CONTINUOUS
 10
5.2
 20
0.0
 11
5.2
 21
0.625
  0
LINE
  5
241
100
AcDbEntity
  8
0
100
AcDbLine
 62
2
  6
CONTINUOUS
 10
4.1
 20
0.0
 11
4.1
 21
1.25
  0
LINE
  5
242
100
AcDbEntity
  8
0
100
AcDbLine
 62
2
  6
CONTINUOUS
 10
-0.0
 20
0.0
 11
-0.0
 21
1.25
  0
MTEXT
  5
243
100
AcDbEntity
  8
0
100
AcDbMText
 62
2
  6
CONTINUOUS
  7
STANDARD
 71
2
 72
1
 10
6.6
 20
0.325
 30
0.0
 11
1.0
 21
0.0
 31
0.0
 44
0.9
  1
2
 40
0.125
 41
0.2
  0
MTEXT
  5
244
100
AcDbEntity
  8
0
100
AcDbMText
 62
2
  6
CONTINUOUS
  7
STANDARD
 71
2
 72
1
 10
6.15
 20
0.325
 30
0.0
 11
1.0
 21
0.0
 31
0.0
 44
0.9
  1
C
 40
0.125
 41
0.2
  0
MTEXT
  5
245
100
AcDbEntity
  8
0
100
AcDbMText
 62
2
  6
CONTINUOUS
  7
STANDARD
 71
2
 72
1
 10
5.55
 20
0.325
 30
0.0
 11
1.0
 21
0.0
 31
0.0
 44
0.9
  1
1.000
 40
0.125
 41
1.0
  0
MTEXT
  5
246
100
AcDbEntity
  8
0
100
AcDbMText
 62
2
  6
CONTINUOUS
  7
STANDARD
 71
2
 72
1
 10
4.65
 20
0.325
 30
0.0
 11
1.0
 21
0.0
 31
0.0
 44
0.9
  1
Feb-15-23
 40
0.125
 41
1.8
  0
MTEXT
  5
247
100
AcDbEntity
  8
0
100
AcDbMText
 62
2
  6
CONTINUOUS
  7
STANDARD
 71
2
 72
1
 10
2.05
 20
0.4625
 30
0.0
 11
1.0
 21
0.0
 31
0.0
 44
0.9
  1
Relief manifold assembly
 40
0.125
 41
4.8
  0
MTEXT
  5
248
100
AcDbEntity
  8
0
100
AcDbMText
 62
2
  6
CONTINUOUS
  7
STANDARD
 71
1
 72
1
 10
6.45
 20
0.5625
 30
0.0
 11
1.0
 21
0.0
 31
0.0
 44
0.9
  1
SHEET
 40
0.06
 41
0.48
  0
MTEXT
  5
249
100
AcDbEntity
  8
0
100
AcDbMText
 62
2
  6
CONTINUOUS
  7
STANDARD
 71
1
 72
1
 10
5.95
 20
0.5625
 30
0.0
 11
1.0
 21
0.0
 31
0.0
 44
0.9
  1
DWG SIZE
 40
0.06
 41
0.768
  0
MTEXT
  5
24A
100
AcDbEntity
  8
0
100
AcDbMText
 62
2
  6
CONTINUOUS
  7
STANDARD
 71
1
 72
1
 10
5.25
 20
0.5625
 30
0.0
 11
1.0
 21
0.0
 31
0.0
 44
0.9
  1
SCALE
 40
0.06
 41
0.48
  0
MTEXT
  5
24B
100
AcDbEntity
  8
0
100
AcDbMText
 62
2
  6
CONTINUOUS
  7
STANDARD
 71
1
 72
1
 10
4.15
 20
0.5625
 30
0.0
 11
1.0
 21
0.0
 31
0.0
 44
0.9
  1
DATE
 40
0.06
 41
0.384
  0
MTEXT
  5
24C
100
AcDbEntity
  8
0
100
AcDbMText
 62
2
  6
CONTINUOUS
  7
STANDARD
 71
1
 72
1
 10
0.05
 20
0.5625
 30
0.0
 11
1.0
 21
0.0
 31
0.0
 44
0.9
  1
DESCRIPTION
 40
0.06
 41
1.056
  0
MTEXT
  5
24D
100
AcDbEntity
  8
0
100
AcDbMText
 62
2
  6
CONTINUOUS
  7
STANDARD
 71
2
 72
1
 10
5.45
 20
1.0375
 30
0.0
 11
1.0
 21
0.0
 31
0.0
 44
0.9
  1
ALL DIMENSIONS IN INCH\PVIEWS ARE THIRD ANGLE
 40
0.12
 41
4.224
  0
MTEXT
  5
24E
100
AcDbEntity
  8
0
100
AcDbMText
 62
2
  6
CONTINUOUS
  7
STANDARD
 71
2
 72
1
 10
2.05
 20
0.95
 30
0.0
 11
1.0
 21
0.0
 31
0.0
 44
0.9
  1
RPGCLAN-CBT
 40
0.125
 41
2.2
  0
MTEXT
  5
24F
100
AcDbEntity
  8
0
100
AcDbMText
 62
2
  6
CONTINUOUS
  7
STANDARD
 71
1
 72
1
 10
0.05
 20
1.1875
 30
0.0
 11
1.0
 21
0.0
 31
0.0
 44
0.9
  1
MODEL
 40
0.06
 41
0.48
  0
ENDBLK
  5
250
100
AcDbEntity
  8
0
  6
BYBLOCK
 62
0
100
AcDbBlockEnd
  0
BLOCK
  5
251
100
AcDbEntity
  8
0
100
AcDbBlockBegin
  2
*T2
 70
1
 10
0.0
 20
0.0
  3
*T2
  1

  0
LINE
  5
252
100
AcDbEntity
  8
0
100
AcDbLine
 62
2
  6
CONTINUOUS
 10
0.0
 20
0.0
 11
9.055
 21
0.0
  0
LINE
  5
253
100
AcDbEntity
  8
0
100
AcDbLine
 62
2
  6
CONTINUOUS
 10
0.0
 20
0.0
 11
0.0
 21
-2.344
  0
LINE
  5
254
100
AcDbEntity
  8
0
100
AcDbLine
 62
2
  6
CONTINUOUS
 10
0.0
 20
-0.344
 11
9.055
 21
-0.344
  0
LINE
  5
255
100
AcDbEntity
  8
0
100
AcDbLine
 62
2
  6
CONTINUOUS
 10
0.0
 20
-0.594
 11
9.055
 21
-0.594
  0
LINE
  5
256
100
AcDbEntity
  8
0
100
AcDbLine
 62
2
  6
CONTINUOUS
 10
0.0
 20
-0.844
 11
9.055
 21
-0.844
  0
LINE
  5
257
100
AcDbEntity
  8
0
100
AcDbLine
 62
2
  6
CONTINUOUS
 10
0.0
 20
-1.094
 11
9.055
 21
-1.094
  0
LINE
  5
258
100
AcDbEntity
  8
0
100
AcDbLine
 62
2
  6
CONTINUOUS
 10
0.0
 20
-1.344
 11
9.055
 21
-1.344
  0
LINE
  5
259
100
AcDbEntity
  8
0
100
AcDbLine
 62
2
  6
CONTINUOUS
 10
0.0
 20
-1.594
 11
9.055
 21
-1.594
  0
LINE
  5
25A
100
AcDbEntity
  8
0
100
AcDbLine
 62
2
  6
CONTINUOUS
 10
0.0
 20
-1.844
 11
9.055
 21
-1.844
  0
LINE
  5
25B
100
AcDbEntity
  8
0
100
AcDbLine
 62
2
  6
CONTINUOUS
 10
0.0
 20
-2.094
 11
9.055
 21
-2.094
  0
LINE
  5
25C
100
AcDbEntity
  8
0
100
AcDbLine
 62
2
  6
CONTINUOUS
 10
0.0
 20
-2.344
 11
9.055
 21
-2.344
  0
LINE
  5
25D
100
AcDbEntity
  8
0
100
AcDbLine
 62
2
  6
CONTINUOUS
 10
3.055
 20
0.0
 11
3.055
 21
-2.344
  0
LINE
  5
25E
100
AcDbEntity
  8
0
100
AcDbLine
 62
2
  6
CONTINUOUS
 10
9.055
 20
0.0
 11
9.055
 21
-2.344
  0
MTEXT
  5
25F
100
AcDbEntity
  8
0
100
AcDbMText
 62
2
  6
CONTINUOUS
  7
STANDARD
 71
2
 72
1
 10
1.5275
 20
-0.0995
 30
0.0
 11
1.0
 21
0.0
 31
0.0
 44
0.9
  1
Technical Data
 40
0.145
 41
3.248
  0
MTEXT
  5
260
100
AcDbEntity
  8
0
100
AcDbMText
 62
2
  6
CONTINUOUS
  7
STANDARD
 71
2
 72
1
 10
4.555
 20
-0.0995
 30
0.0
 11
1.0
 21
0.0
 31
0.0
 44
0.9
  1
U.S. Units
 40
0.145
 41
2.32
  0
MTEXT
  5
261
100
AcDbEntity
  8
0
100
AcDbMText
 62
2
  6
CONTINUOUS
  7
STANDARD
 71
2
 72
1
 10
7.555
 20
-0.0995
 30
0.0
 11
1.0
 21
0.0
 31
0.0
 44
0.9
  1
Metric Units
 40
0.145
 41
2.784
  0
MTEXT
  5
262
100
AcDbEntity
  8
0
100
AcDbMText
 62
2
  6
CONTINUOUS
  7
STANDARD
 71
2
 72
1
 10
1.5275
 20
-0.4065
 30
0.0
 11
1.0
 21
0.0
 31
0.0
 44
0.9
  1
Cavity
 40
0.125
 41
1.2
  0
MTEXT
  5
263
100
AcDbEntity
  8
0
100
AcDbMText
 62
2
  6
CONTINUOUS
  7
STANDARD
 71
2
 72
1
 10
6.055
 20
-0.4065
 30
0.0
 11
1.0
 21
0.0
 31
0.0
 44
0.9
  1
T-3A
 40
0.125
 41
0.8
  0
MTEXT
  5
264
100
AcDbEntity
  8
0
100
AcDbMText
 62
2
  6
CONTINUOUS
  7
STANDARD
 71
2
 72
1
 10
1.5275
 20
-0.6565
 30
0.0
 11
1.0
 21
0.0
 31
0.0
 44
0.9
  1
Body Features
 40
0.125
 41
2.6
  0
MTEXT
  5
265
100
AcDbEntity
  8
0
100
AcDbMText
 62
2
  6
CONTINUOUS
  7
STANDARD
 71
2
 72
1
 10
6.055
 20
-0.6565
 30
0.0
 11
1.0
 21
0.0
 31
0.0
 44
0.9
  1
Out of T
 40
0.125
 41
1.6
  0
MTEXT
  5
266
100
AcDbEntity
  8
0
100
AcDbMText
 62
2
  6
CONTINUOUS
  7
STANDARD
 71
2
 72
1
 10
1.5275
 20
-0.9065
 30
0.0
 11
1.0
 21
0.0
 31
0.0
 44
0.9
  1
Body Type
 40
0.125
 41
1.8
  0
MTEXT
  5
267
100
AcDbEntity
  8
0
100
AcDbMText
 62
2
  6
CONTINUOUS
  7
STANDARD
 71
2
 72
1
 10
6.055
 20
-0.9065
 30
0.0
 11
1.0
 21
0.0
 31
0.0
 44
0.9
  1
Sandwich
 40
0.125
 41
1.6
  0
MTEXT
  5
268
100
AcDbEntity
  8
0
100
AcDbMText
 62
2
  6
CONTINUOUS
  7
STANDARD
 71
2
 72
1
 10
1.5275
 20
-1.1565
 30
0.0
 11
1.0
 21
0.0
 31
0.0
 44
0.9
  1
Interface
 40
0.125
 41
1.8
  0
MTEXT
  5
269
100
AcDbEntity
  8
0
100
AcDbMText
 62
2
  6
CONTINUOUS
  7
STANDARD
 71
2
 72
1
 10
6.055
 20
-1.1565
 30
0.0
 11
1.0
 21
0.0
 31
0.0
 44
0.9
  1
ISO 05
 40
0.125
 41
1.2
  0
MTEXT
  5
26A
100
AcDbEntity
  8
0
100
AcDbMText
 62
2
  6
CONTINUOUS
  7
STANDARD
 71
2
 72
1
 10
1.5275
 20
-1.4065
 30
0.0
 11
1.0
 21
0.0
 31
0.0
 44
0.9
  1
Open Cavity Quantity
 40
0.125
 41
4.0
  0
MTEXT
  5
26B
100
AcDbEntity
  8
0
100
AcDbMText
 62
2
  6
CONTINUOUS
  7
STANDARD
 71
2
 72
1
 10
6.055
 20
-1.4065
 30
0.0
 11
1.0
 21
0.0
 31
0.0
 44
0.9
  1
1
 40
0.125
 41
0.2
  0
MTEXT
  5
26C
100
AcDbEntity
  8
0
100
AcDbMText
 62
2
  6
CONTINUOUS
  7
STANDARD
 71
2
 72
1
 10
1.5275
 20
-1.6565
 30
0.0
 11
1.0
 21
0.0
 31
0.0
 44
0.9
  1
Stack Height
 40
0.125
 41
2.4
  0
MTEXT
  5
26D
100
AcDbEntity
  8
0
100
AcDbMText
 62
2
  6
CONTINUOUS
  7
STANDARD
 71
2
 72
1
 10
4.555
 20
-1.6565
 30
0.0
 11
1.0
 21
0.0
 31
0.0
 44
0.9
  1
1.94 in.
 40
0.125
 41
1.6
  0
MTEXT
  5
26E
100
AcDbEntity
  8
0
100
AcDbMText
 62
2
  6
CONTINUOUS
  7
STANDARD
 71
2
 72
1
 10
7.555
 20
-1.6565
 30
0.0
 11
1.0
 21
0.0
 31
0.0
 44
0.9
  1
49 mm
 40
0.125
 41
1.0
  0
MTEXT
  5
26F
100
AcDbEntity
  8
0
100
AcDbMText
 62
2
  6
CONTINUOUS
  7
STANDARD
 71
2
 72
1
 10
1.5275
 20
-1.9065
 30
0.0
 11
1.0
 21
0.0
 31
0.0
 44
0.9
  1
Weight
 40
0.125
 41
1.2
  0
MTEXT
  5
270
100
AcDbEntity
  8
0
100
AcDbMText
 62
2
  6
CONTINUOUS
  7
STANDARD
 71
2
 72
1
 10
4.555
 20
-1.9065
 30
0.0
 11
1.0
 21
0.0
 31
0.0
 44
0.9
  1
2.210 lb.
 40
0.125
 41
1.8
  0
MTEXT
  5
271
100
AcDbEntity
  8
0
100
AcDbMText
 62
2
  6
CONTINUOUS
  7
STANDARD
 71
2
 72
1
 10
7.555
 20
-1.9065
 30
0.0
 11
1.0
 21
0.0
 31
0.0
 44
0.9
  1
1,002 kg.
 40
0.125
 41
1.8
  0
MTEXT
  5
272
100
AcDbEntity
  8
0
100
AcDbMText
 62
2
  6
CONTINUOUS
  7
STANDARD
 71
2
 72
1
 10
1.5275
 20
-2.1565
 30
0.0
 11
1.0
 21
0.0
 31
0.0
 44
0.9
  1
Seal Plate Included (see notes)
 40
0.125
 41
6.2
  0
MTEXT
  5
273
100
AcDbEntity
  8
0
100
AcDbMText
 62
2
  6
CONTINUOUS
  7
STANDARD
 71
2
 72
1
 10
6.055
 20
-2.1565
 30
0.0
 11
1.0
 21
0.0
 31
0.0
 44
0.9
  1
No
 40
0.125
 41
0.4
  0
ENDBLK
  5
274
100
AcDbEntity
  8
0
  6
BYBLOCK
 62
0
100
AcDbBlockEnd
  0
ENDSEC
  0
SECTION
  2
ENTITIES
  0
IMAGE
  5
275
100
AcDbEntity
  8
0
100
AcDbRasterImage
 62
7
  6
CONTINUOUS
 10
19.2297077316
 20
0.3094318264
 30
0.0
 11
0.0066666667
 21
0.0
 31
0.0
 12
0.0
 22
0.0066666667
 32
0.0
 13
369.0
 23
92.0
340
       380
 70
9
280
0
281
50
282
50
283
0
360
       37A
 71
1
 91
2
 14
-0.5
 24
-0.5
 14
368.5
 24
91.5
  0
INSERT
  5
276
100
AcDbEntity
  8
0
100
AcDbBlockReference
 62
2
  6
CONTINUOUS
  2
SUN_FIRST_THIRD_ANGLE_BL0
 10
20.4816717061
 20
1.2289683772
  0
ACAD_TABLE
  5
277
100
AcDbEntity
  8
0
 62
2
  6
CONTINUOUS
100
AcDbBlockReference
  2
*T1
 10
12.42375
 20
0.30125
 30
0.0
100
AcDbTable
342
       382
343
212
 11
1.0
 21
0.0
 31
0.0
 90
6
 91
4
 92
6
 93
20
 94
0
 95
0
 96
0
 70
1
 41
0.0
141
0.525
141
0.1
141
0.525
141
0.1
142
4.1
142
1.1
142
0.7
142
0.5
142
0.4
142
2.475
171
1
172
0
173
0
174
0
175
1
176
1
 91
33
178
0
145
0.0
301
CELL_VALUE
 90
4
  1
Relief manifold assembly
304
ACVALUE_END
170
2
140
0.125
171
1
172
0
173
0
174
0
175
1
176
1
 91
33
178
0
145
0.0
301
CELL_VALUE
 90
4
  1
Feb-15-23
304
ACVALUE_END
170
5
140
0.125
171
1
172
0
173
0
174
0
175
1
176
1
 91
33
178
0
145
0.0
301
CELL_VALUE
 90
4
  1
1.000
304
ACVALUE_END
170
5
140
0.125
171
1
172
0
173
0
174
0
175
1
176
1
 91
33
178
0
145
0.0
301
CELL_VALUE
 90
4
  1
C
304
ACVALUE_END
170
5
140
0.125
171
1
172
0
173
0
174
0
175
1
176
1
 91
33
178
0
145
0.0
301
CELL_VALUE
 90
4
  1
2
304
ACVALUE_END
170
5
140
0.125
171
1
172
0
173
0
174
0
175
1
176
1
 91
33
178
0
145
0.0
301
CELL_VALUE
 90
4
  1
 
304
ACVALUE_END
170
1
140
0.125
171
1
172
0
173
0
174
0
175
1
176
1
 91
33
178
0
145
0.0
301
CELL_VALUE
 90
4
  1
DESCRIPTION
304
ACVALUE_END
170
1
140
0.06
171
1
172
0
173
0
174
0
175
1
176
1
 91
33
178
0
145
0.0
301
CELL_VALUE
 90
4
  1
DATE
304
ACVALUE_END
170
1
140
0.06
171
1
172
0
173
0
174
0
175
1
176
1
 91
33
178
0
145
0.0
301
CELL_VALUE
 90
4
  1
SCALE
304
ACVALUE_END
170
1
140
0.06
171
1
172
0
173
0
174
0
175
1
176
1
 91
33
178
0
145
0.0
301
CELL_VALUE
 90
4
  1
DWG SIZE
304
ACVALUE_END
170
1
140
0.06
171
1
172
0
173
0
174
0
175
1
176
1
 91
33
178
0
145
0.0
301
CELL_VALUE
 90
4
  1
SHEET
304
ACVALUE_END
170
1
140
0.06
171
1
172
0
173
0
174
0
175
1
176
1
 91
33
178
0
145
0.0
301
CELL_VALUE
 90
4
  1
 
304
ACVALUE_END
170
1
140
0.125
171
1
172
0
173
0
174
0
175
1
176
1
 91
33
178
0
145
0.0
301
CELL_VALUE
 90
4
  1
RPGCLAN-CBT
304
ACVALUE_END
170
5
140
0.125
171
1
172
0
173
0
174
0
175
4
176
1
 91
33
178
0
145
0.0
301
CELL_VALUE
 90
4
  1
ALL DIMENSIONS IN INCH\PVIEWS ARE THIRD ANGLE
304
ACVALUE_END
170
5
140
0.12
171
1
172
0
173
1
174
0
175
1
176
1
 91
1
178
0
145
0.0
170
1
171
1
172
0
173
1
174
0
175
1
176
1
 91
1
178
0
145
0.0
170
1
171
1
172
0
173
1
174
0
175
1
176
1
 91
1
178
0
145
0.0
170
5
171
1
172
0
173
0
174
0
175
1
176
1
 91
33
178
0
145
0.0
301
CELL_VALUE
 90
4
  1
 
304
ACVALUE_END
170
1
140
0.125
171
1
172
0
173
0
174
0
175
1
176
1
 91
33
178
0
145
0.0
301
CELL_VALUE
 90
4
  1
MODEL
304
ACVALUE_END
170
1
140
0.06
171
1
172
0
173
0
174
0
175
1
176
1
 91
33
178
0
145
0.0
301
CELL_VALUE
 90
4
  1
 
304
ACVALUE_END
170
1
140
0.125
171
1
172
0
173
0
174
0
175
1
176
1
 91
33
178
0
145
0.0
301
CELL_VALUE
 90
4
  1
 
304
ACVALUE_END
170
1
140
0.125
171
1
172
0
173
0
174
0
175
1
176
1
 91
33
178
0
145
0.0
301
CELL_VALUE
 90
4
  1
 
304
ACVALUE_END
170
1
140
0.125
171
1
172
0
173
0
174
0
175
1
176
1
 91
33
178
0
145
0.0
301
CELL_VALUE
 90
4
  1
 
304
ACVALUE_END
170
1
140
0.125
171
1
172
0
173
0
174
0
175
1
176
1
 91
33
178
0
145
0.0
301
CELL_VALUE
 90
4
  1
 
304
ACVALUE_END
170
1
140
0.125
  0
ACAD_TABLE
  5
278
100
AcDbEntity
  8
0
 62
2
  6
CONTINUOUS
100
AcDbBlockReference
  2
*T2
 10
12.4237499994
 20
16.47875
 30
0.0
100
AcDbTable
342
       381
343
213
 11
1.0
 21
0.0
 31
0.0
 90
22
 91
9
 92
3
 93
16
 94
0
 95
0
 96
0
 41
0.028
141
0.344
141
0.25
141
0.25
141
0.25
141
0.25
141
0.25
141
0.25
141
0.25
141
0.25
142
3.055
142
3.0
142
3.0
171
1
172
0
173
0
174
0
175
1
176
1
 91
33
178
0
145
0.0
301
CELL_VALUE
 90
4
  1
Technical Data
304
ACVALUE_END
170
5
140
0.145
171
1
172
0
173
0
174
0
175
1
176
1
 91
33
178
0
145
0.0
301
CELL_VALUE
 90
4
  1
U.S. Units
304
ACVALUE_END
170
5
140
0.145
171
1
172
0
173
0
174
0
175
1
176
1
 91
33
178
0
145
0.0
301
CELL_VALUE
 90
4
  1
Metric Units
304
ACVALUE_END
170
5
140
0.145
171
1
172
0
173
0
174
0
175
1
176
1
 91
33
178
0
145
0.0
301
CELL_VALUE
 90
4
  1
Cavity
304
ACVALUE_END
170
5
140
0.125
171
1
172
0
173
0
174
0
175
2
176
1
 91
33
178
0
145
0.0
301
CELL_VALUE
 90
4
  1
T-3A
304
ACVALUE_END
170
5
140
0.125
171
1
172
0
173
1
174
0
175
1
176
1
 91
1
178
0
145
0.0
170
1
171
1
172
0
173
0
174
0
175
1
176
1
 91
33
178
0
145
0.0
301
CELL_VALUE
 90
4
  1
Body Features
304
ACVALUE_END
170
5
140
0.125
171
1
172
0
173
0
174
0
175
2
176
1
 91
33
178
0
145
0.0
301
CELL_VALUE
 90
4
  1
Out of T
304
ACVALUE_END
170
5
140
0.125
171
1
172
0
173
1
174
0
175
1
176
1
 91
1
178
0
145
0.0
170
1
171
1
172
0
173
0
174
0
175
1
176
1
 91
33
178
0
145
0.0
301
CELL_VALUE
 90
4
  1
Body Type
304
ACVALUE_END
170
5
140
0.125
171
1
172
0
173
0
174
0
175
2
176
1
 91
33
178
0
145
0.0
301
CELL_VALUE
 90
4
  1
Sandwich
304
ACVALUE_END
170
5
140
0.125
171
1
172
0
173
1
174
0
175
1
176
1
 91
1
178
0
145
0.0
170
1
171
1
172
0
173
0
174
0
175
1
176
1
 91
33
178
0
145
0.0
301
CELL_VALUE
 90
4
  1
Interface
304
ACVALUE_END
170
5
140
0.125
171
1
172
0
173
0
174
0
175
2
176
1
 91
33
178
0
145
0.0
301
CELL_VALUE
 90
4
  1
ISO 05
304
ACVALUE_END
170
5
140
0.125
171
1
172
0
173
1
174
0
175
1
176
1
 91
1
178
0
145
0.0
170
1
171
1
172
0
173
0
174
0
175
1
176
1
 91
33
178
0
145
0.0
301
CELL_VALUE
 90
4
  1
Open Cavity Quantity
304
ACVALUE_END
170
5
140
0.125
171
1
172
0
173
0
174
0
175
2
176
1
 91
33
178
0
145
0.0
301
CELL_VALUE
 90
4
  1
1
304
ACVALUE_END
170
5
140
0.125
171
1
172
0
173
1
174
0
175
1
176
1
 91
1
178
0
145
0.0
170
1
171
1
172
0
173
0
174
0
175
1
176
1
 91
33
178
0
145
0.0
301
CELL_VALUE
 90
4
  1
Stack Height
304
ACVALUE_END
170
5
140
0.125
171
1
172
0
173
0
174
0
175
1
176
1
 91
33
178
0
145
0.0
301
CELL_VALUE
 90
4
  1
1.94 in.
304
ACVALUE_END
170
5
140
0.125
171
1
172
0
173
0
174
0
175
1
176
1
 91
33
178
0
145
0.0
301
CELL_VALUE
 90
4
  1
49 mm
304
ACVALUE_END
170
5
140
0.125
171
1
172
0
173
0
174
0
175
1
176
1
 91
33
178
0
145
0.0
301
CELL_VALUE
 90
4
  1
Weight
304
ACVALUE_END
170
5
140
0.125
171
1
172
0
173
0
174
0
175
1
176
1
 91
33
178
0
145
0.0
301
CELL_VALUE
 90
4
  1
2.210 lb.
304
ACVALUE_END
170
5
140
0.125
171
1
172
0
173
0
174
0
175
1
176
1
 91
33
178
0
145
0.0
301
CELL_VALUE
 90
4
  1
1,002 kg.
304
ACVALUE_END
170
5
140
0.125
171
1
172
0
173
0
174
0
175
1
176
1
 91
33
178
0
145
0.0
301
CELL_VALUE
 90
4
  1
Seal Plate Included (see notes)
304
ACVALUE_END
170
5
140
0.125
171
1
172
0
173
0
174
0
175
2
176
1
 91
33
178
0
145
0.0
301
CELL_VALUE
 90
4
  1
No
304
ACVALUE_END
170
5
140
0.125
171
1
172
0
173
1
174
0
175
1
176
1
 91
1
178
0
145
0.0
170
1
  0
MTEXT
  5
279
100
AcDbEntity
  8
0
100
AcDbMText
 62
2
  6
CONTINUOUS
  7
STANDARD
 71
1
 72
1
 10
0.52125
 20
5.75995
 30
0.0
 11
1.0
 21
0.0
 31
0.0
 44
0.6
  3
Notes\P \P1. Important: Carefully consider\P   the maximum system pressure. The\P   pressure rating of the manifold is\P   dependent on the manifold material,\P   with the port type/size a secondary\P   consideration. Manifolds\P   constructed of alu
  1
minum are not\P   rated for pressures higher than\P   3000 psi (210 bar), regardless of\P   the port type/size specified.
 40
0.1
 41
3.04
  0
LINE
  5
27A
100
AcDbEntity
  8
0
100
AcDbLine
 62
7
  6
CONTINUOUS
 10
0.30125
 20
0.30125
 11
0.30125
 21
16.69875
  0
LINE
  5
27B
100
AcDbEntity
  8
0
100
AcDbLine
 62
7
  6
CONTINUOUS
 10
0.30125
 20
0.30125
 11
21.69875
 21
0.30125
  0
LINE
  5
27C
100
AcDbEntity
  8
0
100
AcDbLine
 62
7
  6
CONTINUOUS
 10
0.30125
 20
16.69875
 11
21.69875
 21
16.69875
  0
LINE
  5
27D
100
AcDbEntity
  8
0
100
AcDbLine
 62
7
  6
CONTINUOUS
 10
21.69875
 20
0.30125
 11
21.69875
 21
16.69875
  0
LINE
  5
27E
100
AcDbEntity
  8
0
100
AcDbLine
 62
7
  6
CONTINUOUS
 10
9.5417972026
 20
5.4713848377
 11
11.9566119114
 21
5.3039168689
  0
LINE
  5
27F
100
AcDbEntity
  8
0
100
AcDbLine
 62
7
  6
CONTINUOUS
 10
11.0032791895
 20
11.6670982141
 11
10.9734127631
 21
11.639304369
  0
LINE
  5
280
100
AcDbEntity
  8
0
100
AcDbLine
 62
7
  6
CONTINUOUS
 10
10.9729540928
 20
11.6388695681
 11
10.9734125522
 21
11.6393041727
  0
LINE
  5
281
100
AcDbEntity
  8
0
100
AcDbLine
 62
7
  6
CONTINUOUS
 10
11.0028977952
 20
11.6667366677
 11
11.0032797452
 21
11.6670987033
  0
LINE
  5
282
100
AcDbEntity
  8
0
100
AcDbLine
 62
7
  6
CONTINUOUS
 10
10.9114689626
 20
11.190114337
 11
10.9099737607
 21
11.1885958742
  0
LINE
  5
283
100
AcDbEntity
  8
0
100
AcDbLine
 62
7
  6
CONTINUOUS
 10
10.8372696616
 20
11.0518482378
 11
10.8840683017
 21
11.095413322
  0
LINE
  5
284
100
AcDbEntity
  8
0
100
AcDbLine
 62
7
  6
CONTINUOUS
 10
10.6718581997
 20
10.8467354729
 11
10.7315910525
 21
10.9023231631
  0
LINE
  5
285
100
AcDbEntity
  8
0
100
AcDbLine
 62
7
  6
CONTINUOUS
 10
11.3907314263
 20
10.8695474994
 11
11.4114735093
 21
10.8797936912
  0
LINE
  5
286
100
AcDbEntity
  8
0
100
AcDbLine
 62
7
  6
CONTINUOUS
 10
10.6398786873
 20
10.4463756505
 11
10.6536844553
 21
10.4531954355
  0
LINE
  5
287
100
AcDbEntity
  8
0
100
AcDbLine
 62
7
  6
CONTINUOUS
 10
9.7038486916
 20
9.5802686586
 11
10.0030432609
 21
9.8692684372
  0
LINE
  5
288
100
AcDbEntity
  8
0
100
AcDbLine
 62
7
  6
CONTINUOUS
 10
9.733792394
 20
9.6081357582
 11
10.0329869633
 21
9.8971355368
  0
LINE
  5
289
100
AcDbEntity
  8
0
100
AcDbLine
 62
7
  6
CONTINUOUS
 10
10.0030432609
 20
9.8692684372
 11
10.003978051
 21
9.8701545802
  0
LINE
  5
28A
100
AcDbEntity
  8
0
100
AcDbLine
 62
7
  6
CONTINUOUS
 10
11.3433701393
 20
11.1596539058
 11
11.343869632
 21
11.1601272488
  0
LINE
  5
28B
100
AcDbEntity
  8
0
100
AcDbLine
 62
7
  6
CONTINUOUS
 10
10.0329869633
 20
9.8971355368
 11
10.0338455078
 21
9.8979492541
  0
LINE
  5
28C
100
AcDbEntity
  8
0
100
AcDbLine
 62
7
  6
CONTINUOUS
 10
10.0329795417
 20
9.8971435118
 11
10.0030432609
 21
9.8692684372
  0
LINE
  5
28D
100
AcDbEntity
  8
0
100
AcDbLine
 62
7
  6
CONTINUOUS
 10
9.733792394
 20
9.6081357582
 11
9.7038486916
 21
9.5802686586
  0
LINE
  5
28E
100
AcDbEntity
  8
0
100
AcDbLine
 62
7
  6
CONTINUOUS
 10
11.406475946
 20
11.0841166463
 11
11.4117748281
 21
11.0890478123
  0
LINE
  5
28F
100
AcDbEntity
  8
0
100
AcDbLine
 62
7
  6
CONTINUOUS
 10
9.5417972026
 20
8.3691627186
 11
9.5417972026
 21
5.4713848377
  0
LINE
  5
290
100
AcDbEntity
  8
0
100
AcDbLine
 62
7
  6
CONTINUOUS
 10
11.4117748281
 20
11.0890478123
 11
11.4124503698
 21
11.0896881984
  0
LINE
  5
291
100
AcDbEntity
  8
0
100
AcDbLine
 62
7
  6
CONTINUOUS
 10
9.691070898
 20
8.437572251
 11
9.691070898
 21
9.5551484633
  0
LINE
  5
292
100
AcDbEntity
  8
0
100
AcDbLine
 62
7
  6
CONTINUOUS
 10
9.9770372199
 20
9.4990922315
 11
9.9690138362
 21
9.4613985351
  0
LINE
  5
293
100
AcDbEntity
  8
0
100
AcDbLine
 62
7
  6
CONTINUOUS
 10
9.9690138362
 20
9.4613985351
 11
9.9690138362
 21
8.3438223228
  0
LINE
  5
294
100
AcDbEntity
  8
0
100
AcDbLine
 62
7
  6
CONTINUOUS
 10
9.691070898
 20
8.5133500447
 11
9.5417972026
 21
8.3691627186
  0
LINE
  5
295
100
AcDbEntity
  8
0
100
AcDbLine
 62
7
  6
CONTINUOUS
 10
11.6272352686
 20
9.7208656369
 11
11.6614902233
 21
9.7377869287
  0
LINE
  5
296
100
AcDbEntity
  8
0
100
AcDbLine
 62
7
  6
CONTINUOUS
 10
10.5316572391
 20
9.8035753272
 11
10.5316572391
 21
10.3096854299
  0
LINE
  5
297
100
AcDbEntity
  8
0
100
AcDbLine
 62
7
  6
CONTINUOUS
 10
10.5461052873
 20
9.7896196082
 11
10.5461052873
 21
10.2957297108
  0
LINE
  5
298
100
AcDbEntity
  8
0
100
AcDbLine
 62
7
  6
CONTINUOUS
 10
10.6126844553
 20
9.6532857302
 11
10.6126844553
 21
9.7514426013
  0
LINE
  5
299
100
AcDbEntity
  8
0
100
AcDbLine
 62
7
  6
CONTINUOUS
 10
10.6536844553
 20
10.3891928688
 11
10.6536844553
 21
10.8122684058
  0
LINE
  5
29A
100
AcDbEntity
  8
0
100
AcDbLine
 62
7
  6
CONTINUOUS
 10
9.5417972026
 20
8.3691627186
 11
11.9566119114
 21
8.2016947497
  0
LINE
  5
29B
100
AcDbEntity
  8
0
100
AcDbLine
 62
7
  6
CONTINUOUS
 10
11.5386433969
 20
8.2349681431
 11
9.9690138362
 21
8.3438223228
  0
LINE
  5
29C
100
AcDbEntity
  8
0
100
AcDbLine
 62
7
  6
CONTINUOUS
 10
10.8372696616
 20
10.9536543971
 11
10.8372696616
 21
11.0518482378
  0
LINE
  5
29D
100
AcDbEntity
  8
0
100
AcDbLine
 62
7
  6
CONTINUOUS
 10
10.8796844553
 20
10.8721558106
 11
10.8796844553
 21
10.888471009
  0
LINE
  5
29E
100
AcDbEntity
  8
0
100
AcDbLine
 62
7
  6
CONTINUOUS
 10
10.8796844553
 20
11.1078417262
 11
10.8796844553
 21
11.1136372815
  0
LINE
  5
29F
100
AcDbEntity
  8
0
100
AcDbLine
 62
7
  6
CONTINUOUS
 10
10.8851844553
 20
11.0870743197
 11
10.8851844553
 21
11.0940048677
  0
LINE
  5
2A0
100
AcDbEntity
  8
0
100
AcDbLine
 62
7
  6
CONTINUOUS
 10
10.9212489668
 20
10.872536756
 11
10.9212489668
 21
10.9707305968
  0
LINE
  5
2A1
100
AcDbEntity
  8
0
100
AcDbLine
 62
7
  6
CONTINUOUS
 10
10.9597920053
 20
9.6825497426
 11
10.9597920053
 21
10.1886598452
  0
LINE
  5
2A2
100
AcDbEntity
  8
0
100
AcDbLine
 62
7
  6
CONTINUOUS
 10
10.9666844553
 20
11.6265439256
 11
10.9666844553
 21
11.4343246748
  0
LINE
  5
2A3
100
AcDbEntity
  8
0
100
AcDbLine
 62
7
  6
CONTINUOUS
 10
10.9666844553
 20
11.3976194912
 11
10.9666844553
 21
11.1580698721
  0
LINE
  5
2A4
100
AcDbEntity
  8
0
100
AcDbLine
 62
7
  6
CONTINUOUS
 10
11.0036273531
 20
11.4057626757
 11
11.0036273531
 21
11.3935764703
  0
LINE
  5
2A5
100
AcDbEntity
  8
0
100
AcDbLine
 62
7
  6
CONTINUOUS
 10
11.013712814
 20
9.6788103218
 11
11.013712814
 21
10.1849204244
  0
LINE
  5
2A6
100
AcDbEntity
  8
0
100
AcDbLine
 62
7
  6
CONTINUOUS
 10
12.2671735318
 20
9.742194172
 11
11.9679789626
 21
9.4531943934
  0
LINE
  5
2A7
100
AcDbEntity
  8
0
100
AcDbLine
 62
7
  6
CONTINUOUS
 10
12.2971172342
 20
9.7101738668
 11
11.997922665
 21
9.4211740882
  0
LINE
  5
2A8
100
AcDbEntity
  8
0
100
AcDbLine
 62
7
  6
CONTINUOUS
 10
11.087781472
 20
11.6364028242
 11
11.087781472
 21
11.636865021
  0
LINE
  5
2A9
100
AcDbEntity
  8
0
100
AcDbLine
 62
7
  6
CONTINUOUS
 10
11.1004503287
 20
11.6341231515
 11
11.1004503287
 21
11.6401439611
  0
LINE
  5
2AA
100
AcDbEntity
  8
0
100
AcDbLine
 62
7
  6
CONTINUOUS
 10
11.1267757563
 20
11.6668264891
 11
11.1267757563
 21
11.6313757975
  0
LINE
  5
2AB
100
AcDbEntity
  8
0
100
AcDbLine
 62
7
  6
CONTINUOUS
 10
11.1627369694
 20
11.6308079101
 11
11.1627369694
 21
11.644463562
  0
LINE
  5
2AC
100
AcDbEntity
  8
0
100
AcDbLine
 62
7
  6
CONTINUOUS
 10
11.1800429543
 20
11.63175271
 11
11.1800429543
 21
11.6432633879
  0
LINE
  5
2AD
100
AcDbEntity
  8
0
100
AcDbLine
 62
7
  6
CONTINUOUS
 10
11.2160041674
 20
11.6606384777
 11
11.2160041674
 21
11.6369263809
  0
LINE
  5
2AE
100
AcDbEntity
  8
0
100
AcDbLine
 62
7
  6
CONTINUOUS
 10
11.2346637605
 20
10.8508013663
 11
11.2346637605
 21
10.948995207
  0
LINE
  5
2AF
100
AcDbEntity
  8
0
100
AcDbLine
 62
7
  6
CONTINUOUS
 10
11.260899029
 20
11.396236441
 11
11.260899029
 21
11.375734619
  0
LINE
  5
2B0
100
AcDbEntity
  8
0
100
AcDbLine
 62
7
  6
CONTINUOUS
 10
11.3346844553
 20
11.6265439256
 11
11.3346844553
 21
11.4343246748
  0
LINE
  5
2B1
100
AcDbEntity
  8
0
100
AcDbLine
 62
7
  6
CONTINUOUS
 10
11.3346844553
 20
11.3976194912
 11
11.3346844553
 21
11.1580698721
  0
LINE
  5
2B2
100
AcDbEntity
  8
0
100
AcDbLine
 62
7
  6
CONTINUOUS
 10
11.4161844553
 20
11.0870743197
 11
11.4161844553
 21
11.0938895685
  0
LINE
  5
2B3
100
AcDbEntity
  8
0
100
AcDbLine
 62
7
  6
CONTINUOUS
 10
11.4216844553
 20
10.8721558106
 11
11.4216844553
 21
10.8850672432
  0
LINE
  5
2B4
100
AcDbEntity
  8
0
100
AcDbLine
 62
7
  6
CONTINUOUS
 10
11.4216844553
 20
11.1078417262
 11
11.4216844553
 21
11.1136372815
  0
LINE
  5
2B5
100
AcDbEntity
  8
0
100
AcDbLine
 62
7
  6
CONTINUOUS
 10
11.464099249
 20
10.9101836176
 11
11.464099249
 21
11.0083774583
  0
LINE
  5
2B6
100
AcDbEntity
  8
0
100
AcDbLine
 62
7
  6
CONTINUOUS
 10
11.5466667807
 20
9.3902380518
 11
11.5386433969
 21
9.3525443553
  0
LINE
  5
2B7
100
AcDbEntity
  8
0
100
AcDbLine
 62
7
  6
CONTINUOUS
 10
12.3098950279
 20
8.6964795483
 11
12.4582027974
 21
8.6861943695
  0
LINE
  5
2B8
100
AcDbEntity
  8
0
100
AcDbLine
 62
7
  6
CONTINUOUS
 10
11.5386433969
 20
9.3525443553
 11
11.5386433969
 21
8.2349681431
  0
LINE
  5
2B9
100
AcDbEntity
  8
0
100
AcDbLine
 62
7
  6
CONTINUOUS
 10
11.5788192216
 20
9.7180006536
 11
11.5788192216
 21
10.2241107562
  0
LINE
  5
2BA
100
AcDbEntity
  8
0
100
AcDbLine
 62
7
  6
CONTINUOUS
 10
11.618291982
 20
9.7282169519
 11
11.618291982
 21
10.2343270545
  0
LINE
  5
2BB
100
AcDbEntity
  8
0
100
AcDbLine
 62
7
  6
CONTINUOUS
 10
11.6476844553
 20
10.3891928688
 11
11.6476844553
 21
10.8122684058
  0
LINE
  5
2BC
100
AcDbEntity
  8
0
100
AcDbLine
 62
7
  6
CONTINUOUS
 10
11.6886844553
 20
9.6532547019
 11
11.6886844553
 21
9.7566030811
  0
LINE
  5
2BD
100
AcDbEntity
  8
0
100
AcDbLine
 62
7
  6
CONTINUOUS
 10
11.7697116716
 20
9.8744771493
 11
11.7697116716
 21
10.3805872519
  0
LINE
  5
2BE
100
AcDbEntity
  8
0
100
AcDbLine
 62
7
  6
CONTINUOUS
 10
11.9566119114
 20
5.3039168689
 11
11.9566119114
 21
8.2016947497
  0
LINE
  5
2BF
100
AcDbEntity
  8
0
100
AcDbLine
 62
7
  6
CONTINUOUS
 10
12.2971172342
 20
8.5925976546
 11
11.997922665
 21
8.3035978759
  0
LINE
  5
2C0
100
AcDbEntity
  8
0
100
AcDbLine
 62
7
  6
CONTINUOUS
 10
12.4582027974
 20
8.6861943695
 11
11.9566119114
 21
8.2016947497
  0
LINE
  5
2C1
100
AcDbEntity
  8
0
100
AcDbLine
 62
7
  6
CONTINUOUS
 10
11.5386433969
 20
9.3525443553
 11
9.9690138362
 21
9.4613985351
  0
LINE
  5
2C2
100
AcDbEntity
  8
0
100
AcDbLine
 62
7
  6
CONTINUOUS
 10
11.5466667807
 20
9.3902380518
 11
9.9770372199
 21
9.4990922315
  0
LINE
  5
2C3
100
AcDbEntity
  8
0
100
AcDbLine
 62
7
  6
CONTINUOUS
 10
10.674133642
 20
9.7208656369
 11
10.6285489343
 21
9.7433836097
  0
LINE
  5
2C4
100
AcDbEntity
  8
0
100
AcDbLine
 62
7
  6
CONTINUOUS
 10
11.997922665
 20
9.4211740882
 11
11.997922665
 21
8.3035978759
  0
LINE
  5
2C5
100
AcDbEntity
  8
0
100
AcDbLine
 62
7
  6
CONTINUOUS
 10
12.2971172342
 20
9.7101738668
 11
12.2971172342
 21
8.5925976546
  0
LINE
  5
2C6
100
AcDbEntity
  8
0
100
AcDbLine
 62
7
  6
CONTINUOUS
 10
12.3098950279
 20
8.6177178499
 11
12.3098950279
 21
9.7352940621
  0
LINE
  5
2C7
100
AcDbEntity
  8
0
100
AcDbLine
 62
7
  6
CONTINUOUS
 10
10.4542991452
 20
9.9600918784
 11
10.5316572391
 21
9.9547270764
  0
LINE
  5
2C8
100
AcDbEntity
  8
0
100
AcDbLine
 62
7
  6
CONTINUOUS
 10
11.766886696
 20
9.8690636226
 11
12.023928706
 21
9.8512376986
  0
LINE
  5
2C9
100
AcDbEntity
  8
0
100
AcDbLine
 62
7
  6
CONTINUOUS
 10
11.9679789626
 20
9.4531943934
 11
11.997922665
 21
9.4211740882
  0
LINE
  5
2CA
100
AcDbEntity
  8
0
100
AcDbLine
 62
7
  6
CONTINUOUS
 10
12.4582027974
 20
5.7884164887
 11
12.4582027974
 21
8.6861943695
  0
LINE
  5
2CB
100
AcDbEntity
  8
0
100
AcDbLine
 62
7
  6
CONTINUOUS
 10
12.2961824441
 20
9.7613004004
 11
12.2663160177
 21
9.7890942455
  0
LINE
  5
2CC
100
AcDbEntity
  8
0
100
AcDbLine
 62
7
  6
CONTINUOUS
 10
10.8948929646
 20
11.0841166463
 11
10.8895940825
 21
11.0890478123
  0
LINE
  5
2CD
100
AcDbEntity
  8
0
100
AcDbLine
 62
7
  6
CONTINUOUS
 10
12.2671735318
 20
9.742194172
 11
12.2971172342
 21
9.7101738668
  0
LINE
  5
2CE
100
AcDbEntity
  8
0
100
AcDbLine
 62
7
  6
CONTINUOUS
 10
11.6728199764
 20
10.4407789694
 11
11.6476844553
 21
10.4531954355
  0
LINE
  5
2CF
100
AcDbEntity
  8
0
100
AcDbLine
 62
7
  6
CONTINUOUS
 10
10.9106374843
 20
10.8695474994
 11
10.8954611063
 21
10.8770443395
  0
LINE
  5
2D0
100
AcDbEntity
  8
0
100
AcDbLine
 62
7
  6
CONTINUOUS
 10
11.629510711
 20
10.8467354729
 11
11.5697778581
 21
10.9023231631
  0
LINE
  5
2D1
100
AcDbEntity
  8
0
100
AcDbLine
 62
7
  6
CONTINUOUS
 10
11.4214791205
 20
11.0915247784
 11
11.4172980836
 21
11.0954156721
  0
LINE
  5
2D2
100
AcDbEntity
  8
0
100
AcDbLine
 62
7
  6
CONTINUOUS
 10
11.2980897211
 20
11.6670982141
 11
11.3279561476
 21
11.639304369
  0
LINE
  5
2D3
100
AcDbEntity
  8
0
100
AcDbLine
 62
7
  6
CONTINUOUS
 10
12.4582027974
 20
5.7884164887
 11
11.9566119114
 21
5.3039168689
  0
ARC
  5
2D4
100
AcDbEntity
  8
0
100
AcDbCircle
 62
7
  6
CONTINUOUS
 10
11.1431313836
 20
11.939233969
 40
2.2641254892
100
AcDbArc
 50
266.0354973614
 51
266.723157899
  0
ARC
  5
2D5
100
AcDbEntity
  8
0
100
AcDbCircle
 62
7
  6
CONTINUOUS
 10
11.1431313836
 20
12.4453440716
 40
2.2641254892
100
AcDbArc
 50
266.0354973614
 51
266.723157899
  0
ARC
  5
2D6
100
AcDbEntity
  8
0
100
AcDbCircle
 62
7
  6
CONTINUOUS
 10
11.1372217562
 20
11.8542334715
 40
2.1789198092
100
AcDbArc
 50
265.329224888
 51
266.0359887124
  0
ARC
  5
2D7
100
AcDbEntity
  8
0
100
AcDbCircle
 62
7
  6
CONTINUOUS
 10
11.1372217562
 20
12.3603435741
 40
2.1789198091
100
AcDbArc
 50
265.329224888
 51
266.0359887124
  0
ARC
  5
2D8
100
AcDbEntity
  8
0
100
AcDbCircle
 62
7
  6
CONTINUOUS
 10
11.3596197837
 20
10.6462862664
 40
0.9538147475
100
AcDbArc
 50
283.286087793
 51
285.7355389587
  0
ARC
  5
2D9
100
AcDbEntity
  8
0
100
AcDbCircle
 62
7
  6
CONTINUOUS
 10
11.3596197837
 20
11.1523963691
 40
0.9538147475
100
AcDbArc
 50
283.286087793
 51
285.7355389587
  0
ARC
  5
2DA
100
AcDbEntity
  8
0
100
AcDbCircle
 62
7
  6
CONTINUOUS
 10
11.4023039569
 20
11.7310378708
 40
0.3503674153
100
AcDbArc
 50
193.3866269129
 51
194.363713807
  0
ARC
  5
2DB
100
AcDbEntity
  8
0
100
AcDbCircle
 62
7
  6
CONTINUOUS
 10
11.1519265134
 20
11.363209079
 40
0.2814621647
100
AcDbArc
 50
84.2669212813
 51
87.7988306398
  0
ARC
  5
2DC
100
AcDbEntity
  8
0
100
AcDbCircle
 62
7
  6
CONTINUOUS
 10
10.8827988537
 20
11.001301478
 40
0.06802854
100
AcDbArc
 50
129.2073090844
 51
132.0104432059
  0
ARC
  5
2DD
100
AcDbEntity
  8
0
100
AcDbCircle
 62
7
  6
CONTINUOUS
 10
11.0007656261
 20
11.4160808082
 40
0.0290893873
100
AcDbArc
 50
192.3904870877
 51
194.18098586
  0
ARC
  5
2DE
100
AcDbEntity
  8
0
100
AcDbCircle
 62
7
  6
CONTINUOUS
 10
11.3007555388
 20
11.4158922426
 40
0.028934629
100
AcDbArc
 50
12.5533228661
 51
13.2946152529
  0
ARC
  5
2DF
100
AcDbEntity
  8
0
100
AcDbCircle
 62
7
  6
CONTINUOUS
 10
11.0001404766
 20
11.4159728127
 40
0.0284556003
100
AcDbArc
 50
166.5512661825
 51
192.4481948099
  0
ARC
  5
2E0
100
AcDbEntity
  8
0
100
AcDbCircle
 62
7
  6
CONTINUOUS
 10
11.0879005027
 20
11.6616682336
 40
0.0248034982
100
AcDbArc
 50
261.5827998778
 51
269.7250394304
  0
SPLINE
  5
2E1
100
AcDbEntity
  8
0
100
AcDbSpline
 62
7
  6
CONTINUOUS
 70
0
 71
3
 72
56
 73
52
 74
0
 42
0.0000001
 43
0.0000001
 44
0.0000000001
 40
0.0
 40
0.0
 40
0.0
 40
0.0
 40
0.0310723444
 40
0.0465152282
 40
0.0618873079
 40
0.0924244521
 40
0.1227285817
 40
0.1378086463
 40
0.1528438045
 40
0.1678401149
 40
0.1828038444
 40
0.2126503405
 40
0.227557511
 40
0.2424602055
 40
0.2573657799
 40
0.272281562
 40
0.2872148089
 40
0.3021724291
 40
0.3171611937
 40
0.3321875071
 40
0.3472571476
 40
0.362375664
 40
0.3927682619
 40
0.4234071812
 40
0.4388308394
 40
0.454323239
 40
0.4855077933
 40
0.5169699546
 40
0.532806559
 40
0.5487076994
 40
0.5806824153
 40
0.6128739824
 40
0.6290441709
 40
0.6452543843
 40
0.6777639093
 40
0.7103643307
 40
0.7266873141
 40
0.7430142241
 40
0.7756456098
 40
0.7919458916
 40
0.8082247496
 40
0.8244760379
 40
0.8406940714
 40
0.8568734332
 40
0.8730088968
 40
0.8890954876
 40
0.905128265
 40
0.9370074719
 40
0.9528594107
 40
0.9686481654
 40
1.0
 40
1.0
 40
1.0
 40
1.0
 10
9.873096203
 20
6.9034767107
 30
0.0
 10
9.8730963377
 20
6.9114903408
 30
0.0
 10
9.8736844534
 20
6.9234980801
 30
0.0
 10
9.8756539286
 20
6.9393418618
 30
0.0
 10
9.8783927261
 20
6.954932012
 30
0.0
 10
9.8832540501
 20
6.9740138087
 30
0.0
 10
9.89001517
 20
6.9924292164
 30
0.0
 10
9.8965069241
 20
7.006601338
 30
0.0
 10
9.9018983203
 20
7.0169171975
 30
0.0
 10
9.907805141
 20
7.026912225
 30
0.0
 10
9.9163402377
 20
7.0397661293
 30
0.0
 10
9.9258649159
 20
7.0519124601
 30
0.0
 10
9.9362907402
 20
7.0632342056
 30
0.0
 10
9.9445439674
 20
7.0712969678
 30
0.0
 10
9.9532123122
 20
7.0789143444
 30
0.0
 10
9.9622769645
 20
7.0860684804
 30
0.0
 10
9.9717171236
 20
7.0927424399
 30
0.0
 10
9.9815106211
 20
7.0989215131
 30
0.0
 10
9.9916357222
 20
7.1045900789
 30
0.0
 10
10.0020690559
 20
7.1097344281
 30
0.0
 10
10.0127865482
 20
7.1143430798
 30
0.0
 10
10.0274456663
 20
7.1197652428
 30
0.0
 10
10.0463722639
 20
7.1251442022
 30
0.0
 10
10.0658241909
 20
7.1285828016
 30
0.0
 10
10.0816259561
 20
7.1301661842
 30
0.0
 10
10.0976277138
 20
7.1309661778
 30
0.0
 10
10.1178086491
 20
7.1304730708
 30
0.0
 10
10.1379321388
 20
7.1280025886
 30
0.0
 10
10.1539307662
 20
7.1248576854
 30
0.0
 10
10.1698890346
 20
7.1209191563
 30
0.0
 10
10.1895648384
 20
7.114545723
 30
0.0
 10
10.208618898
 20
7.1063274085
 30
0.0
 10
10.2234201809
 20
7.0986837512
 30
0.0
 10
10.2379227423
 20
7.0903219262
 30
0.0
 10
10.2553512122
 20
7.0785993164
 30
0.0
 10
10.2716554732
 20
7.0653121832
 30
0.0
 10
10.2839473677
 20
7.0538111423
 30
0.0
 10
10.2957065127
 20
7.0417556573
 30
0.0
 10
10.3066263862
 20
7.0289120084
 30
0.0
 10
10.3166180155
 20
7.0153783769
 30
0.0
 10
10.3236297867
 20
7.0049118096
 30
0.0
 10
10.3301423707
 20
6.9941527191
 30
0.0
 10
10.3361402503
 20
6.9831275334
 30
0.0
 10
10.3416100204
 20
6.9718641976
 30
0.0
 10
10.3465373379
 20
6.9603901613
 30
0.0
 10
10.3509109916
 20
6.9487338102
 30
0.0
 10
10.3559816352
 20
6.9330218805
 30
0.0
 10
10.3599219678
 20
6.9170257874
 30
0.0
 10
10.3626913166
 20
6.900874234
 30
0.0
 10
10.364663724
 20
6.8847439771
 30
0.0
 10
10.3652648945
 20
6.8725759048
 30
0.0
 10
10.3652650419
 20
6.8644901935
 30
0.0
  0
SPLINE
  5
2E2
100
AcDbEntity
  8
0
100
AcDbSpline
 62
7
  6
CONTINUOUS
 70
0
 71
3
 72
56
 73
52
 74
0
 42
0.0000001
 43
0.0000001
 44
0.0000000001
 40
0.0
 40
0.0
 40
0.0
 40
0.0
 40
0.031072346
 40
0.0465152317
 40
0.0618873124
 40
0.0924244558
 40
0.1227285839
 40
0.1378086476
 40
0.152843805
 40
0.1678401144
 40
0.1828038429
 40
0.2126503375
 40
0.2275575076
 40
0.2424602021
 40
0.2573657768
 40
0.2722815596
 40
0.2872148075
 40
0.3021724288
 40
0.3171611944
 40
0.3321875086
 40
0.3472571497
 40
0.3623756664
 40
0.3927682644
 40
0.4234071833
 40
0.4388308412
 40
0.4543232404
 40
0.485507794
 40
0.5169699549
 40
0.5328065592
 40
0.5487076996
 40
0.5806824155
 40
0.6128739827
 40
0.6290441713
 40
0.6452543848
 40
0.6777639099
 40
0.7103643313
 40
0.7266873147
 40
0.7430142246
 40
0.7756456102
 40
0.791945892
 40
0.80822475
 40
0.8244760382
 40
0.8406940716
 40
0.8568734333
 40
0.8730088969
 40
0.8890954876
 40
0.905128265
 40
0.9370074718
 40
0.9528594107
 40
0.9686481654
 40
1.0
 40
1.0
 40
1.0
 40
1.0
 10
10.365265044
 20
6.8644902943
 30
0.0
 10
10.3652649093
 20
6.8564766638
 30
0.0
 10
10.3646767932
 20
6.8444689235
 30
0.0
 10
10.3627073181
 20
6.8286251407
 30
0.0
 10
10.3599685204
 20
6.8130349899
 30
0.0
 10
10.3551071962
 20
6.7939531936
 30
0.0
 10
10.3483460762
 20
6.7755377868
 30
0.0
 10
10.3418543225
 20
6.761365666
 30
0.0
 10
10.3364629267
 20
6.7510498072
 30
0.0
 10
10.3305561063
 20
6.7410547802
 30
0.0
 10
10.3220210101
 20
6.7282008767
 30
0.0
 10
10.3124963325
 20
6.7160545462
 30
0.0
 10
10.3020705086
 20
6.7047328012
 30
0.0
 10
10.2938172816
 20
6.6966700388
 30
0.0
 10
10.2851489367
 20
6.689052662
 30
0.0
 10
10.276084284
 20
6.6818985256
 30
0.0
 10
10.2666441243
 20
6.6752245657
 30
0.0
 10
10.2568506262
 20
6.6690454919
 30
0.0
 10
10.2467255244
 20
6.6633769257
 30
0.0
 10
10.2362921902
 20
6.6582325763
 30
0.0
 10
10.2255746974
 20
6.6536239245
 30
0.0
 10
10.210915579
 20
6.6482017614
 30
0.0
 10
10.1919889814
 20
6.6428228024
 30
0.0
 10
10.1725370546
 20
6.639384203
 30
0.0
 10
10.1567352897
 20
6.6378008206
 30
0.0
 10
10.1407335323
 20
6.637000827
 30
0.0
 10
10.1205525973
 20
6.6374939342
 30
0.0
 10
10.1004291079
 20
6.6399644162
 30
0.0
 10
10.0844304807
 20
6.6431093195
 30
0.0
 10
10.0684722123
 20
6.6470478486
 30
0.0
 10
10.0487964084
 20
6.6534212819
 30
0.0
 10
10.0297423489
 20
6.6616395964
 30
0.0
 10
10.0149410659
 20
6.6692832538
 30
0.0
 10
10.0004385044
 20
6.6776450789
 30
0.0
 10
9.9830100345
 20
6.6893676886
 30
0.0
 10
9.9667057735
 20
6.702654822
 30
0.0
 10
9.954413879
 20
6.7141558629
 30
0.0
 10
9.942654734
 20
6.7262113479
 30
0.0
 10
9.9317348606
 20
6.7390549967
 30
0.0
 10
9.9217432313
 20
6.7525886281
 30
0.0
 10
9.9147314602
 20
6.7630551955
 30
0.0
 10
9.9082188762
 20
6.7738142859
 30
0.0
 10
9.9022209966
 20
6.7848394716
 30
0.0
 10
9.8967512266
 20
6.7961028073
 30
0.0
 10
9.891823909
 20
6.8075768436
 30
0.0
 10
9.8874502554
 20
6.8192331947
 30
0.0
 10
9.8823796118
 20
6.8349451243
 30
0.0
 10
9.8784392792
 20
6.8509412174
 30
0.0
 10
9.8756699304
 20
6.8670927708
 30
0.0
 10
9.8736975231
 20
6.8832230277
 30
0.0
 10
9.8730963525
 20
6.8953911001
 30
0.0
 10
9.8730962051
 20
6.9034768113
 30
0.0
  0
SPLINE
  5
2E3
100
AcDbEntity
  8
0
100
AcDbSpline
 62
7
  6
CONTINUOUS
 70
0
 71
3
 72
56
 73
52
 74
0
 42
0.0000001
 43
0.0000001
 44
0.0000000001
 40
0.0
 40
0.0
 40
0.0
 40
0.0
 40
0.0310723444
 40
0.0465152282
 40
0.0618873079
 40
0.0924244521
 40
0.1227285817
 40
0.1378086463
 40
0.1528438045
 40
0.1678401149
 40
0.1828038444
 40
0.2126503405
 40
0.227557511
 40
0.2424602055
 40
0.2573657799
 40
0.272281562
 40
0.2872148089
 40
0.3021724291
 40
0.3171611937
 40
0.3321875071
 40
0.3472571476
 40
0.362375664
 40
0.3927682619
 40
0.4234071812
 40
0.4388308394
 40
0.454323239
 40
0.4855077933
 40
0.5169699546
 40
0.532806559
 40
0.5487076994
 40
0.5806824153
 40
0.6128739824
 40
0.6290441709
 40
0.6452543843
 40
0.6777639093
 40
0.7103643307
 40
0.7266873141
 40
0.7430142241
 40
0.7756456098
 40
0.7919458916
 40
0.8082247496
 40
0.8244760379
 40
0.8406940714
 40
0.8568734332
 40
0.8730088968
 40
0.8890954876
 40
0.905128265
 40
0.9370074719
 40
0.9528594107
 40
0.9686481654
 40
1.0
 40
1.0
 40
1.0
 40
1.0
 10
10.8689658065
 20
5.9293403312
 30
0.0
 10
10.8689659411
 20
5.9373539613
 30
0.0
 10
10.8695540568
 20
5.9493617007
 30
0.0
 10
10.871523532
 20
5.9652054823
 30
0.0
 10
10.8742623295
 20
5.9807956326
 30
0.0
 10
10.8791236535
 20
5.9998774293
 30
0.0
 10
10.8858847734
 20
6.018292837
 30
0.0
 10
10.8923765275
 20
6.0324649586
 30
0.0
 10
10.8977679237
 20
6.042780818
 30
0.0
 10
10.9036747445
 20
6.0527758456
 30
0.0
 10
10.9122098411
 20
6.0656297498
 30
0.0
 10
10.9217345194
 20
6.0777760807
 30
0.0
 10
10.9321603436
 20
6.0890978262
 30
0.0
 10
10.9404135708
 20
6.0971605884
 30
0.0
 10
10.9490819156
 20
6.1047779649
 30
0.0
 10
10.9581465679
 20
6.111932101
 30
0.0
 10
10.967586727
 20
6.1186060605
 30
0.0
 10
10.9773802245
 20
6.1247851336
 30
0.0
 10
10.9875053256
 20
6.1304536995
 30
0.0
 10
10.9979386593
 20
6.1355980487
 30
0.0
 10
11.0086561516
 20
6.1402067004
 30
0.0
 10
11.0233152697
 20
6.1456288634
 30
0.0
 10
11.0422418673
 20
6.1510078228
 30
0.0
 10
11.0616937943
 20
6.1544464221
 30
0.0
 10
11.0774955595
 20
6.1560298047
 30
0.0
 10
11.0934973172
 20
6.1568297983
 30
0.0
 10
11.1136782526
 20
6.1563366913
 30
0.0
 10
11.1338017422
 20
6.1538662092
 30
0.0
 10
11.1498003696
 20
6.150721306
 30
0.0
 10
11.165758638
 20
6.1467827769
 30
0.0
 10
11.1854344419
 20
6.1404093436
 30
0.0
 10
11.2044885014
 20
6.1321910291
 30
0.0
 10
11.2192897843
 20
6.1245473717
 30
0.0
 10
11.2337923457
 20
6.1161855467
 30
0.0
 10
11.2512208156
 20
6.104462937
 30
0.0
 10
11.2675250766
 20
6.0911758037
 30
0.0
 10
11.2798169711
 20
6.0796747628
 30
0.0
 10
11.2915761162
 20
6.0676192778
 30
0.0
 10
11.3024959896
 20
6.054775629
 30
0.0
 10
11.3124876189
 20
6.0412419975
 30
0.0
 10
11.3194993901
 20
6.0307754302
 30
0.0
 10
11.3260119741
 20
6.0200163397
 30
0.0
 10
11.3320098538
 20
6.008991154
 30
0.0
 10
11.3374796238
 20
5.9977278182
 30
0.0
 10
11.3424069414
 20
5.9862537818
 30
0.0
 10
11.346780595
 20
5.9745974307
 30
0.0
 10
11.3518512387
 20
5.9588855011
 30
0.0
 10
11.3557915712
 20
5.942889408
 30
0.0
 10
11.3585609201
 20
5.9267378545
 30
0.0
 10
11.3605333274
 20
5.9106075977
 30
0.0
 10
11.3611344979
 20
5.8984395253
 30
0.0
 10
11.3611346453
 20
5.8903538141
 30
0.0
  0
SPLINE
  5
2E4
100
AcDbEntity
  8
0
100
AcDbSpline
 62
7
  6
CONTINUOUS
 70
0
 71
3
 72
56
 73
52
 74
0
 42
0.0000001
 43
0.0000001
 44
0.0000000001
 40
0.0
 40
0.0
 40
0.0
 40
0.0
 40
0.031072346
 40
0.0465152317
 40
0.0618873124
 40
0.0924244558
 40
0.1227285839
 40
0.1378086476
 40
0.152843805
 40
0.1678401144
 40
0.1828038429
 40
0.2126503375
 40
0.2275575076
 40
0.2424602021
 40
0.2573657768
 40
0.2722815596
 40
0.2872148075
 40
0.3021724288
 40
0.3171611944
 40
0.3321875086
 40
0.3472571497
 40
0.3623756664
 40
0.3927682644
 40
0.4234071833
 40
0.4388308412
 40
0.4543232404
 40
0.485507794
 40
0.5169699549
 40
0.5328065592
 40
0.5487076996
 40
0.5806824155
 40
0.6128739827
 40
0.6290441713
 40
0.6452543848
 40
0.6777639099
 40
0.7103643313
 40
0.7266873147
 40
0.7430142246
 40
0.7756456102
 40
0.791945892
 40
0.80822475
 40
0.8244760382
 40
0.8406940716
 40
0.8568734333
 40
0.8730088969
 40
0.8890954876
 40
0.905128265
 40
0.9370074718
 40
0.9528594107
 40
0.9686481654
 40
1.0
 40
1.0
 40
1.0
 40
1.0
 10
11.3611346474
 20
5.8903539148
 30
0.0
 10
11.3611345127
 20
5.8823402843
 30
0.0
 10
11.3605463966
 20
5.8703325441
 30
0.0
 10
11.3585769215
 20
5.8544887612
 30
0.0
 10
11.3558381238
 20
5.8388986105
 30
0.0
 10
11.3509767996
 20
5.8198168142
 30
0.0
 10
11.3442156797
 20
5.8014014074
 30
0.0
 10
11.3377239259
 20
5.7872292865
 30
0.0
 10
11.3323325301
 20
5.7769134277
 30
0.0
 10
11.3264257097
 20
5.7669184008
 30
0.0
 10
11.3178906135
 20
5.7540644973
 30
0.0
 10
11.3083659359
 20
5.7419181668
 30
0.0
 10
11.297940112
 20
5.7305964217
 30
0.0
 10
11.289686885
 20
5.7225336594
 30
0.0
 10
11.2810185401
 20
5.7149162825
 30
0.0
 10
11.2719538874
 20
5.7077621462
 30
0.0
 10
11.2625137277
 20
5.7010881862
 30
0.0
 10
11.2527202296
 20
5.6949091125
 30
0.0
 10
11.2425951279
 20
5.6892405463
 30
0.0
 10
11.2321617936
 20
5.6840961969
 30
0.0
 10
11.2214443008
 20
5.6794875451
 30
0.0
 10
11.2067851824
 20
5.674065382
 30
0.0
 10
11.1878585848
 20
5.6686864229
 30
0.0
 10
11.168406658
 20
5.6652478236
 30
0.0
 10
11.1526048931
 20
5.6636644412
 30
0.0
 10
11.1366031357
 20
5.6628644476
 30
0.0
 10
11.1164222007
 20
5.6633575547
 30
0.0
 10
11.0962987114
 20
5.6658280368
 30
0.0
 10
11.0803000841
 20
5.66897294
 30
0.0
 10
11.0643418157
 20
5.6729114691
 30
0.0
 10
11.0446660119
 20
5.6792849025
 30
0.0
 10
11.0256119523
 20
5.687503217
 30
0.0
 10
11.0108106693
 20
5.6951468744
 30
0.0
 10
10.9963081078
 20
5.7035086994
 30
0.0
 10
10.9788796379
 20
5.7152313092
 30
0.0
 10
10.9625753769
 20
5.7285184425
 30
0.0
 10
10.9502834825
 20
5.7400194834
 30
0.0
 10
10.9385243374
 20
5.7520749684
 30
0.0
 10
10.927604464
 20
5.7649186172
 30
0.0
 10
10.9176128347
 20
5.7784522487
 30
0.0
 10
10.9106010636
 20
5.788918816
 30
0.0
 10
10.9040884796
 20
5.7996779065
 30
0.0
 10
10.8980906
 20
5.8107030921
 30
0.0
 10
10.89262083
 20
5.8219664279
 30
0.0
 10
10.8876935125
 20
5.8334404642
 30
0.0
 10
10.8833198589
 20
5.8450968153
 30
0.0
 10
10.8782492152
 20
5.8608087449
 30
0.0
 10
10.8743088826
 20
5.8768048379
 30
0.0
 10
10.8715395338
 20
5.8929563914
 30
0.0
 10
10.8695671265
 20
5.9090866483
 30
0.0
 10
10.8689659559
 20
5.9212547206
 30
0.0
 10
10.8689658085
 20
5.9293404319
 30
0.0
  0
SPLINE
  5
2E5
100
AcDbEntity
  8
0
100
AcDbSpline
 62
7
  6
CONTINUOUS
 70
0
 71
3
 72
56
 73
52
 74
0
 42
0.0000001
 43
0.0000001
 44
0.0000000001
 40
0.0
 40
0.0
 40
0.0
 40
0.0
 40
0.0310723444
 40
0.0465152282
 40
0.0618873079
 40
0.0924244521
 40
0.1227285817
 40
0.1378086463
 40
0.1528438045
 40
0.1678401149
 40
0.1828038444
 40
0.2126503405
 40
0.227557511
 40
0.2424602055
 40
0.2573657799
 40
0.272281562
 40
0.2872148089
 40
0.3021724291
 40
0.3171611937
 40
0.3321875071
 40
0.3472571476
 40
0.362375664
 40
0.3927682619
 40
0.4234071812
 40
0.4388308394
 40
0.454323239
 40
0.4855077933
 40
0.5169699546
 40
0.532806559
 40
0.5487076994
 40
0.5806824153
 40
0.6128739824
 40
0.6290441709
 40
0.6452543843
 40
0.6777639093
 40
0.7103643307
 40
0.7266873141
 40
0.7430142241
 40
0.7756456098
 40
0.7919458916
 40
0.8082247496
 40
0.8244760379
 40
0.8406940714
 40
0.8568734332
 40
0.8730088968
 40
0.8890954876
 40
0.905128265
 40
0.9370074719
 40
0.9528594107
 40
0.9686481654
 40
1.0
 40
1.0
 40
1.0
 40
1.0
 10
10.4468561604
 20
6.4715202811
 30
0.0
 10
10.446856295
 20
6.4795339112
 30
0.0
 10
10.4474444107
 20
6.4915416506
 30
0.0
 10
10.4494138859
 20
6.5073854322
 30
0.0
 10
10.4521526834
 20
6.5229755825
 30
0.0
 10
10.4570140074
 20
6.5420573792
 30
0.0
 10
10.4637751273
 20
6.5604727869
 30
0.0
 10
10.4702668814
 20
6.5746449085
 30
0.0
 10
10.4756582776
 20
6.5849607679
 30
0.0
 10
10.4815650983
 20
6.5949557955
 30
0.0
 10
10.490100195
 20
6.6078096997
 30
0.0
 10
10.4996248733
 20
6.6199560306
 30
0.0
 10
10.5100506975
 20
6.631277776
 30
0.0
 10
10.5183039247
 20
6.6393405383
 30
0.0
 10
10.5269722695
 20
6.6469579148
 30
0.0
 10
10.5360369218
 20
6.6541120509
 30
0.0
 10
10.5454770809
 20
6.6607860104
 30
0.0
 10
10.5552705784
 20
6.6669650835
 30
0.0
 10
10.5653956795
 20
6.6726336494
 30
0.0
 10
10.5758290132
 20
6.6777779986
 30
0.0
 10
10.5865465055
 20
6.6823866502
 30
0.0
 10
10.6012056236
 20
6.6878088133
 30
0.0
 10
10.6201322212
 20
6.6931877726
 30
0.0
 10
10.6395841482
 20
6.696626372
 30
0.0
 10
10.6553859134
 20
6.6982097546
 30
0.0
 10
10.6713876711
 20
6.6990097482
 30
0.0
 10
10.6915686065
 20
6.6985166412
 30
0.0
 10
10.7116920961
 20
6.6960461591
 30
0.0
 10
10.7276907235
 20
6.6929012559
 30
0.0
 10
10.7436489919
 20
6.6889627268
 30
0.0
 10
10.7633247958
 20
6.6825892935
 30
0.0
 10
10.7823788553
 20
6.674370979
 30
0.0
 10
10.7971801382
 20
6.6667273216
 30
0.0
 10
10.8116826996
 20
6.6583654966
 30
0.0
 10
10.8291111695
 20
6.6466428869
 30
0.0
 10
10.8454154305
 20
6.6333557536
 30
0.0
 10
10.857707325
 20
6.6218547127
 30
0.0
 10
10.8694664701
 20
6.6097992277
 30
0.0
 10
10.8803863435
 20
6.5969555789
 30
0.0
 10
10.8903779728
 20
6.5834219474
 30
0.0
 10
10.897389744
 20
6.57295538
 30
0.0
 10
10.903902328
 20
6.5621962896
 30
0.0
 10
10.9099002077
 20
6.5511711039
 30
0.0
 10
10.9153699777
 20
6.5399077681
 30
0.0
 10
10.9202972953
 20
6.5284337317
 30
0.0
 10
10.9246709489
 20
6.5167773806
 30
0.0
 10
10.9297415925
 20
6.501065451
 30
0.0
 10
10.9336819251
 20
6.4850693579
 30
0.0
 10
10.9364512739
 20
6.4689178044
 30
0.0
 10
10.9384236813
 20
6.4527875476
 30
0.0
 10
10.9390248518
 20
6.4406194752
 30
0.0
 10
10.9390249992
 20
6.432533764
 30
0.0
  0
SPLINE
  5
2E6
100
AcDbEntity
  8
0
100
AcDbSpline
 62
7
  6
CONTINUOUS
 70
0
 71
3
 72
56
 73
52
 74
0
 42
0.0000001
 43
0.0000001
 44
0.0000000001
 40
0.0
 40
0.0
 40
0.0
 40
0.0
 40
0.031072346
 40
0.0465152317
 40
0.0618873124
 40
0.0924244558
 40
0.1227285839
 40
0.1378086476
 40
0.152843805
 40
0.1678401144
 40
0.1828038429
 40
0.2126503375
 40
0.2275575076
 40
0.2424602021
 40
0.2573657768
 40
0.2722815596
 40
0.2872148075
 40
0.3021724288
 40
0.3171611944
 40
0.3321875086
 40
0.3472571497
 40
0.3623756664
 40
0.3927682644
 40
0.4234071833
 40
0.4388308412
 40
0.4543232404
 40
0.485507794
 40
0.5169699549
 40
0.5328065592
 40
0.5487076996
 40
0.5806824155
 40
0.6128739827
 40
0.6290441713
 40
0.6452543848
 40
0.6777639099
 40
0.7103643313
 40
0.7266873147
 40
0.7430142246
 40
0.7756456102
 40
0.791945892
 40
0.80822475
 40
0.8244760382
 40
0.8406940716
 40
0.8568734333
 40
0.8730088969
 40
0.8890954876
 40
0.905128265
 40
0.9370074718
 40
0.9528594107
 40
0.9686481654
 40
1.0
 40
1.0
 40
1.0
 40
1.0
 10
10.9390250013
 20
6.4325338647
 30
0.0
 10
10.9390248666
 20
6.4245202342
 30
0.0
 10
10.9384367505
 20
6.412512494
 30
0.0
 10
10.9364672754
 20
6.3966687111
 30
0.0
 10
10.9337284777
 20
6.3810785604
 30
0.0
 10
10.9288671535
 20
6.3619967641
 30
0.0
 10
10.9221060335
 20
6.3435813573
 30
0.0
 10
10.9156142798
 20
6.3294092364
 30
0.0
 10
10.910222884
 20
6.3190933776
 30
0.0
 10
10.9043160636
 20
6.3090983507
 30
0.0
 10
10.8957809674
 20
6.2962444472
 30
0.0
 10
10.8862562898
 20
6.2840981167
 30
0.0
 10
10.8758304659
 20
6.2727763716
 30
0.0
 10
10.8675772389
 20
6.2647136093
 30
0.0
 10
10.858908894
 20
6.2570962324
 30
0.0
 10
10.8498442413
 20
6.2499420961
 30
0.0
 10
10.8404040816
 20
6.2432681361
 30
0.0
 10
10.8306105835
 20
6.2370890624
 30
0.0
 10
10.8204854818
 20
6.2314204962
 30
0.0
 10
10.8100521475
 20
6.2262761467
 30
0.0
 10
10.7993346547
 20
6.221667495
 30
0.0
 10
10.7846755363
 20
6.2162453319
 30
0.0
 10
10.7657489387
 20
6.2108663728
 30
0.0
 10
10.7462970119
 20
6.2074277735
 30
0.0
 10
10.730495247
 20
6.2058443911
 30
0.0
 10
10.7144934896
 20
6.2050443975
 30
0.0
 10
10.6943125546
 20
6.2055375046
 30
0.0
 10
10.6741890653
 20
6.2080079867
 30
0.0
 10
10.658190438
 20
6.2111528899
 30
0.0
 10
10.6422321696
 20
6.215091419
 30
0.0
 10
10.6225563658
 20
6.2214648523
 30
0.0
 10
10.6035023062
 20
6.2296831669
 30
0.0
 10
10.5887010232
 20
6.2373268243
 30
0.0
 10
10.5741984617
 20
6.2456886493
 30
0.0
 10
10.5567699918
 20
6.2574112591
 30
0.0
 10
10.5404657308
 20
6.2706983924
 30
0.0
 10
10.5281738363
 20
6.2821994333
 30
0.0
 10
10.5164146913
 20
6.2942549183
 30
0.0
 10
10.5054948179
 20
6.3070985671
 30
0.0
 10
10.4955031886
 20
6.3206321986
 30
0.0
 10
10.4884914175
 20
6.3310987659
 30
0.0
 10
10.4819788335
 20
6.3418578564
 30
0.0
 10
10.4759809539
 20
6.352883042
 30
0.0
 10
10.4705111839
 20
6.3641463778
 30
0.0
 10
10.4655838664
 20
6.3756204141
 30
0.0
 10
10.4612102128
 20
6.3872767652
 30
0.0
 10
10.4561395691
 20
6.4029886948
 30
0.0
 10
10.4521992365
 20
6.4189847878
 30
0.0
 10
10.4494298877
 20
6.4351363413
 30
0.0
 10
10.4474574804
 20
6.4512665981
 30
0.0
 10
10.4468563098
 20
6.4634346705
 30
0.0
 10
10.4468561624
 20
6.4715203818
 30
0.0
  0
SPLINE
  5
2E7
100
AcDbEntity
  8
0
100
AcDbSpline
 62
7
  6
CONTINUOUS
 70
0
 71
3
 72
56
 73
52
 74
0
 42
0.0000001
 43
0.0000001
 44
0.0000000001
 40
0.0
 40
0.0
 40
0.0
 40
0.0
 40
0.0310723444
 40
0.0465152282
 40
0.0618873079
 40
0.0924244521
 40
0.1227285817
 40
0.1378086463
 40
0.1528438045
 40
0.1678401149
 40
0.1828038444
 40
0.2126503405
 40
0.227557511
 40
0.2424602055
 40
0.2573657799
 40
0.272281562
 40
0.2872148089
 40
0.3021724291
 40
0.3171611937
 40
0.3321875071
 40
0.3472571476
 40
0.362375664
 40
0.3927682619
 40
0.4234071812
 40
0.4388308394
 40
0.454323239
 40
0.4855077933
 40
0.5169699546
 40
0.532806559
 40
0.5487076994
 40
0.5806824153
 40
0.6128739824
 40
0.6290441709
 40
0.6452543843
 40
0.6777639093
 40
0.7103643307
 40
0.7266873141
 40
0.7430142241
 40
0.7756456098
 40
0.7919458916
 40
0.8082247496
 40
0.8244760379
 40
0.8406940714
 40
0.8568734332
 40
0.8730088968
 40
0.8890954876
 40
0.905128265
 40
0.9370074719
 40
0.9528594107
 40
0.9686481654
 40
1.0
 40
1.0
 40
1.0
 40
1.0
 10
10.4468561604
 20
7.2568182197
 30
0.0
 10
10.446856295
 20
7.2648318498
 30
0.0
 10
10.4474444107
 20
7.2768395892
 30
0.0
 10
10.4494138859
 20
7.2926833708
 30
0.0
 10
10.4521526834
 20
7.3082735211
 30
0.0
 10
10.4570140074
 20
7.3273553178
 30
0.0
 10
10.4637751273
 20
7.3457707255
 30
0.0
 10
10.4702668814
 20
7.3599428471
 30
0.0
 10
10.4756582776
 20
7.3702587065
 30
0.0
 10
10.4815650983
 20
7.3802537341
 30
0.0
 10
10.490100195
 20
7.3931076383
 30
0.0
 10
10.4996248733
 20
7.4052539692
 30
0.0
 10
10.5100506975
 20
7.4165757146
 30
0.0
 10
10.5183039247
 20
7.4246384769
 30
0.0
 10
10.5269722695
 20
7.4322558534
 30
0.0
 10
10.5360369218
 20
7.4394099894
 30
0.0
 10
10.5454770809
 20
7.4460839489
 30
0.0
 10
10.5552705784
 20
7.4522630221
 30
0.0
 10
10.5653956795
 20
7.457931588
 30
0.0
 10
10.5758290132
 20
7.4630759372
 30
0.0
 10
10.5865465055
 20
7.4676845888
 30
0.0
 10
10.6012056236
 20
7.4731067519
 30
0.0
 10
10.6201322212
 20
7.4784857112
 30
0.0
 10
10.6395841482
 20
7.4819243106
 30
0.0
 10
10.6553859134
 20
7.4835076932
 30
0.0
 10
10.6713876711
 20
7.4843076868
 30
0.0
 10
10.6915686065
 20
7.4838145798
 30
0.0
 10
10.7116920961
 20
7.4813440977
 30
0.0
 10
10.7276907235
 20
7.4781991945
 30
0.0
 10
10.7436489919
 20
7.4742606654
 30
0.0
 10
10.7633247958
 20
7.4678872321
 30
0.0
 10
10.7823788553
 20
7.4596689176
 30
0.0
 10
10.7971801382
 20
7.4520252602
 30
0.0
 10
10.8116826996
 20
7.4436634352
 30
0.0
 10
10.8291111695
 20
7.4319408255
 30
0.0
 10
10.8454154305
 20
7.4186536922
 30
0.0
 10
10.857707325
 20
7.4071526513
 30
0.0
 10
10.8694664701
 20
7.3950971663
 30
0.0
 10
10.8803863435
 20
7.3822535175
 30
0.0
 10
10.8903779728
 20
7.368719886
 30
0.0
 10
10.897389744
 20
7.3582533186
 30
0.0
 10
10.903902328
 20
7.3474942281
 30
0.0
 10
10.9099002077
 20
7.3364690425
 30
0.0
 10
10.9153699777
 20
7.3252057067
 30
0.0
 10
10.9202972953
 20
7.3137316703
 30
0.0
 10
10.9246709489
 20
7.3020753192
 30
0.0
 10
10.9297415925
 20
7.2863633896
 30
0.0
 10
10.9336819251
 20
7.2703672965
 30
0.0
 10
10.9364512739
 20
7.254215743
 30
0.0
 10
10.9384236813
 20
7.2380854862
 30
0.0
 10
10.9390248518
 20
7.2259174138
 30
0.0
 10
10.9390249992
 20
7.2178317026
 30
0.0
  0
SPLINE
  5
2E8
100
AcDbEntity
  8
0
100
AcDbSpline
 62
7
  6
CONTINUOUS
 70
0
 71
3
 72
56
 73
52
 74
0
 42
0.0000001
 43
0.0000001
 44
0.0000000001
 40
0.0
 40
0.0
 40
0.0
 40
0.0
 40
0.031072346
 40
0.0465152317
 40
0.0618873124
 40
0.0924244558
 40
0.1227285839
 40
0.1378086476
 40
0.152843805
 40
0.1678401144
 40
0.1828038429
 40
0.2126503375
 40
0.2275575076
 40
0.2424602021
 40
0.2573657768
 40
0.2722815596
 40
0.2872148075
 40
0.3021724288
 40
0.3171611944
 40
0.3321875086
 40
0.3472571497
 40
0.3623756664
 40
0.3927682644
 40
0.4234071833
 40
0.4388308412
 40
0.4543232404
 40
0.485507794
 40
0.5169699549
 40
0.5328065592
 40
0.5487076996
 40
0.5806824155
 40
0.6128739827
 40
0.6290441713
 40
0.6452543848
 40
0.6777639099
 40
0.7103643313
 40
0.7266873147
 40
0.7430142246
 40
0.7756456102
 40
0.791945892
 40
0.80822475
 40
0.8244760382
 40
0.8406940716
 40
0.8568734333
 40
0.8730088969
 40
0.8890954876
 40
0.905128265
 40
0.9370074718
 40
0.9528594107
 40
0.9686481654
 40
1.0
 40
1.0
 40
1.0
 40
1.0
 10
10.9390250013
 20
7.2178318033
 30
0.0
 10
10.9390248666
 20
7.2098181728
 30
0.0
 10
10.9384367505
 20
7.1978104326
 30
0.0
 10
10.9364672754
 20
7.1819666497
 30
0.0
 10
10.9337284777
 20
7.166376499
 30
0.0
 10
10.9288671535
 20
7.1472947027
 30
0.0
 10
10.9221060335
 20
7.1288792959
 30
0.0
 10
10.9156142798
 20
7.114707175
 30
0.0
 10
10.910222884
 20
7.1043913162
 30
0.0
 10
10.9043160636
 20
7.0943962893
 30
0.0
 10
10.8957809674
 20
7.0815423858
 30
0.0
 10
10.8862562898
 20
7.0693960553
 30
0.0
 10
10.8758304659
 20
7.0580743102
 30
0.0
 10
10.8675772389
 20
7.0500115479
 30
0.0
 10
10.858908894
 20
7.042394171
 30
0.0
 10
10.8498442413
 20
7.0352400347
 30
0.0
 10
10.8404040816
 20
7.0285660747
 30
0.0
 10
10.8306105835
 20
7.022387001
 30
0.0
 10
10.8204854818
 20
7.0167184347
 30
0.0
 10
10.8100521475
 20
7.0115740853
 30
0.0
 10
10.7993346547
 20
7.0069654336
 30
0.0
 10
10.7846755363
 20
7.0015432705
 30
0.0
 10
10.7657489387
 20
6.9961643114
 30
0.0
 10
10.7462970119
 20
6.9927257121
 30
0.0
 10
10.730495247
 20
6.9911423297
 30
0.0
 10
10.7144934896
 20
6.9903423361
 30
0.0
 10
10.6943125546
 20
6.9908354432
 30
0.0
 10
10.6741890653
 20
6.9933059253
 30
0.0
 10
10.658190438
 20
6.9964508285
 30
0.0
 10
10.6422321696
 20
7.0003893576
 30
0.0
 10
10.6225563658
 20
7.0067627909
 30
0.0
 10
10.6035023062
 20
7.0149811054
 30
0.0
 10
10.5887010232
 20
7.0226247629
 30
0.0
 10
10.5741984617
 20
7.0309865879
 30
0.0
 10
10.5567699918
 20
7.0427091977
 30
0.0
 10
10.5404657308
 20
7.055996331
 30
0.0
 10
10.5281738363
 20
7.0674973719
 30
0.0
 10
10.5164146913
 20
7.0795528569
 30
0.0
 10
10.5054948179
 20
7.0923965057
 30
0.0
 10
10.4955031886
 20
7.1059301372
 30
0.0
 10
10.4884914175
 20
7.1163967045
 30
0.0
 10
10.4819788335
 20
7.127155795
 30
0.0
 10
10.4759809539
 20
7.1381809806
 30
0.0
 10
10.4705111839
 20
7.1494443164
 30
0.0
 10
10.4655838664
 20
7.1609183527
 30
0.0
 10
10.4612102128
 20
7.1725747038
 30
0.0
 10
10.4561395691
 20
7.1882866334
 30
0.0
 10
10.4521992365
 20
7.2042827264
 30
0.0
 10
10.4494298877
 20
7.2204342799
 30
0.0
 10
10.4474574804
 20
7.2365645367
 30
0.0
 10
10.4468563098
 20
7.2487326091
 30
0.0
 10
10.4468561624
 20
7.2568183204
 30
0.0
  0
SPLINE
  5
2E9
100
AcDbEntity
  8
0
100
AcDbSpline
 62
7
  6
CONTINUOUS
 70
0
 71
3
 72
56
 73
52
 74
0
 42
0.0000001
 43
0.0000001
 44
0.0000000001
 40
0.0
 40
0.0
 40
0.0
 40
0.0
 40
0.0310723444
 40
0.0465152282
 40
0.0618873079
 40
0.0924244521
 40
0.1227285817
 40
0.1378086463
 40
0.1528438045
 40
0.1678401149
 40
0.1828038444
 40
0.2126503405
 40
0.227557511
 40
0.2424602055
 40
0.2573657799
 40
0.272281562
 40
0.2872148089
 40
0.3021724291
 40
0.3171611937
 40
0.3321875071
 40
0.3472571476
 40
0.362375664
 40
0.3927682619
 40
0.4234071812
 40
0.4388308394
 40
0.454323239
 40
0.4855077933
 40
0.5169699546
 40
0.532806559
 40
0.5487076994
 40
0.5806824153
 40
0.6128739824
 40
0.6290441709
 40
0.6452543843
 40
0.6777639093
 40
0.7103643307
 40
0.7266873141
 40
0.7430142241
 40
0.7756456098
 40
0.7919458916
 40
0.8082247496
 40
0.8244760379
 40
0.8406940714
 40
0.8568734332
 40
0.8730088968
 40
0.8890954876
 40
0.905128265
 40
0.9370074719
 40
0.9528594107
 40
0.9686481654
 40
1.0
 40
1.0
 40
1.0
 40
1.0
 10
10.8689658065
 20
7.7404513629
 30
0.0
 10
10.8689659411
 20
7.7484649929
 30
0.0
 10
10.8695540568
 20
7.7604727323
 30
0.0
 10
10.871523532
 20
7.7763165139
 30
0.0
 10
10.8742623295
 20
7.7919066642
 30
0.0
 10
10.8791236535
 20
7.8109884609
 30
0.0
 10
10.8858847734
 20
7.8294038686
 30
0.0
 10
10.8923765275
 20
7.8435759902
 30
0.0
 10
10.8977679237
 20
7.8538918496
 30
0.0
 10
10.9036747445
 20
7.8638868772
 30
0.0
 10
10.9122098411
 20
7.8767407815
 30
0.0
 10
10.9217345194
 20
7.8888871123
 30
0.0
 10
10.9321603436
 20
7.9002088578
 30
0.0
 10
10.9404135708
 20
7.90827162
 30
0.0
 10
10.9490819156
 20
7.9158889965
 30
0.0
 10
10.9581465679
 20
7.9230431326
 30
0.0
 10
10.967586727
 20
7.9297170921
 30
0.0
 10
10.9773802245
 20
7.9358961653
 30
0.0
 10
10.9875053256
 20
7.9415647311
 30
0.0
 10
10.9979386593
 20
7.9467090803
 30
0.0
 10
11.0086561516
 20
7.951317732
 30
0.0
 10
11.0233152697
 20
7.956739895
 30
0.0
 10
11.0422418673
 20
7.9621188544
 30
0.0
 10
11.0616937943
 20
7.9655574537
 30
0.0
 10
11.0774955595
 20
7.9671408363
 30
0.0
 10
11.0934973172
 20
7.9679408299
 30
0.0
 10
11.1136782526
 20
7.9674477229
 30
0.0
 10
11.1338017422
 20
7.9649772408
 30
0.0
 10
11.1498003696
 20
7.9618323376
 30
0.0
 10
11.165758638
 20
7.9578938085
 30
0.0
 10
11.1854344419
 20
7.9515203752
 30
0.0
 10
11.2044885014
 20
7.9433020607
 30
0.0
 10
11.2192897843
 20
7.9356584033
 30
0.0
 10
11.2337923457
 20
7.9272965783
 30
0.0
 10
11.2512208156
 20
7.9155739686
 30
0.0
 10
11.2675250766
 20
7.9022868353
 30
0.0
 10
11.2798169711
 20
7.8907857945
 30
0.0
 10
11.2915761162
 20
7.8787303094
 30
0.0
 10
11.3024959896
 20
7.8658866606
 30
0.0
 10
11.3124876189
 20
7.8523530291
 30
0.0
 10
11.3194993901
 20
7.8418864618
 30
0.0
 10
11.3260119741
 20
7.8311273713
 30
0.0
 10
11.3320098538
 20
7.8201021856
 30
0.0
 10
11.3374796238
 20
7.8088388498
 30
0.0
 10
11.3424069414
 20
7.7973648134
 30
0.0
 10
11.346780595
 20
7.7857084623
 30
0.0
 10
11.3518512387
 20
7.7699965327
 30
0.0
 10
11.3557915712
 20
7.7540004396
 30
0.0
 10
11.3585609201
 20
7.7378488861
 30
0.0
 10
11.3605333274
 20
7.7217186293
 30
0.0
 10
11.3611344979
 20
7.7095505569
 30
0.0
 10
11.3611346453
 20
7.7014648457
 30
0.0
  0
SPLINE
  5
2EA
100
AcDbEntity
  8
0
100
AcDbSpline
 62
7
  6
CONTINUOUS
 70
0
 71
3
 72
56
 73
52
 74
0
 42
0.0000001
 43
0.0000001
 44
0.0000000001
 40
0.0
 40
0.0
 40
0.0
 40
0.0
 40
0.031072346
 40
0.0465152317
 40
0.0618873124
 40
0.0924244558
 40
0.1227285839
 40
0.1378086476
 40
0.152843805
 40
0.1678401144
 40
0.1828038429
 40
0.2126503375
 40
0.2275575076
 40
0.2424602021
 40
0.2573657768
 40
0.2722815596
 40
0.2872148075
 40
0.3021724288
 40
0.3171611944
 40
0.3321875086
 40
0.3472571497
 40
0.3623756664
 40
0.3927682644
 40
0.4234071833
 40
0.4388308412
 40
0.4543232404
 40
0.485507794
 40
0.5169699549
 40
0.5328065592
 40
0.5487076996
 40
0.5806824155
 40
0.6128739827
 40
0.6290441713
 40
0.6452543848
 40
0.6777639099
 40
0.7103643313
 40
0.7266873147
 40
0.7430142246
 40
0.7756456102
 40
0.791945892
 40
0.80822475
 40
0.8244760382
 40
0.8406940716
 40
0.8568734333
 40
0.8730088969
 40
0.8890954876
 40
0.905128265
 40
0.9370074718
 40
0.9528594107
 40
0.9686481654
 40
1.0
 40
1.0
 40
1.0
 40
1.0
 10
11.3611346474
 20
7.7014649464
 30
0.0
 10
11.3611345127
 20
7.6934513159
 30
0.0
 10
11.3605463966
 20
7.6814435757
 30
0.0
 10
11.3585769215
 20
7.6655997929
 30
0.0
 10
11.3558381238
 20
7.6500096421
 30
0.0
 10
11.3509767996
 20
7.6309278458
 30
0.0
 10
11.3442156797
 20
7.612512439
 30
0.0
 10
11.3377239259
 20
7.5983403181
 30
0.0
 10
11.3323325301
 20
7.5880244593
 30
0.0
 10
11.3264257097
 20
7.5780294324
 30
0.0
 10
11.3178906135
 20
7.5651755289
 30
0.0
 10
11.3083659359
 20
7.5530291984
 30
0.0
 10
11.297940112
 20
7.5417074533
 30
0.0
 10
11.289686885
 20
7.533644691
 30
0.0
 10
11.2810185401
 20
7.5260273141
 30
0.0
 10
11.2719538874
 20
7.5188731778
 30
0.0
 10
11.2625137277
 20
7.5121992178
 30
0.0
 10
11.2527202296
 20
7.5060201441
 30
0.0
 10
11.2425951279
 20
7.5003515779
 30
0.0
 10
11.2321617936
 20
7.4952072285
 30
0.0
 10
11.2214443008
 20
7.4905985767
 30
0.0
 10
11.2067851824
 20
7.4851764136
 30
0.0
 10
11.1878585848
 20
7.4797974545
 30
0.0
 10
11.168406658
 20
7.4763588552
 30
0.0
 10
11.1526048931
 20
7.4747754728
 30
0.0
 10
11.1366031357
 20
7.4739754792
 30
0.0
 10
11.1164222007
 20
7.4744685863
 30
0.0
 10
11.0962987114
 20
7.4769390684
 30
0.0
 10
11.0803000841
 20
7.4800839716
 30
0.0
 10
11.0643418157
 20
7.4840225007
 30
0.0
 10
11.0446660119
 20
7.4903959341
 30
0.0
 10
11.0256119523
 20
7.4986142486
 30
0.0
 10
11.0108106693
 20
7.506257906
 30
0.0
 10
10.9963081078
 20
7.514619731
 30
0.0
 10
10.9788796379
 20
7.5263423408
 30
0.0
 10
10.9625753769
 20
7.5396294741
 30
0.0
 10
10.9502834825
 20
7.551130515
 30
0.0
 10
10.9385243374
 20
7.563186
 30
0.0
 10
10.927604464
 20
7.5760296489
 30
0.0
 10
10.9176128347
 20
7.5895632803
 30
0.0
 10
10.9106010636
 20
7.6000298476
 30
0.0
 10
10.9040884796
 20
7.6107889381
 30
0.0
 10
10.8980906
 20
7.6218141237
 30
0.0
 10
10.89262083
 20
7.6330774595
 30
0.0
 10
10.8876935125
 20
7.6445514958
 30
0.0
 10
10.8833198589
 20
7.6562078469
 30
0.0
 10
10.8782492152
 20
7.6719197765
 30
0.0
 10
10.8743088826
 20
7.6879158695
 30
0.0
 10
10.8715395338
 20
7.704067423
 30
0.0
 10
10.8695671265
 20
7.7201976799
 30
0.0
 10
10.8689659559
 20
7.7323657522
 30
0.0
 10
10.8689658085
 20
7.7404514635
 30
0.0
  0
SPLINE
  5
2EB
100
AcDbEntity
  8
0
100
AcDbSpline
 62
7
  6
CONTINUOUS
 70
0
 71
3
 72
15
 73
11
 74
0
 42
0.0000001
 43
0.0000001
 44
0.0000000001
 40
0.0
 40
0.0
 40
0.0
 40
0.0
 40
0.1109235476
 40
0.2233441211
 40
0.3386915917
 40
0.4582813637
 40
0.5832827948
 40
0.7147051219
 40
0.8533897636
 40
1.0
 40
1.0
 40
1.0
 40
1.0
 10
10.9666844669
 20
11.3976199461
 30
0.0
 10
10.9666844798
 20
11.3981174393
 30
0.0
 10
10.966745506
 20
11.3991201711
 30
0.0
 10
10.9670192211
 20
11.4006177386
 30
0.0
 10
10.9674743455
 20
11.4021111172
 30
0.0
 10
10.9681098588
 20
11.4035982314
 30
0.0
 10
10.9689244707
 20
11.4050777446
 30
0.0
 10
10.9699169342
 20
11.4065484497
 30
0.0
 10
10.9710858878
 20
11.4080090227
 30
0.0
 10
10.9719567039
 20
11.4089481387
 30
0.0
 10
10.9724188035
 20
11.4094159356
 30
0.0
  0
SPLINE
  5
2EC
100
AcDbEntity
  8
0
100
AcDbSpline
 62
7
  6
CONTINUOUS
 70
0
 71
3
 72
11
 73
7
 74
0
 42
0.0000001
 43
0.0000001
 44
0.0000000001
 40
0.0
 40
0.0
 40
0.0
 40
0.0
 40
0.2353556543
 40
0.4802220487
 40
0.7349933067
 40
1.0
 40
1.0
 40
1.0
 40
1.0
 10
10.5316572391
 20
9.8035753272
 30
0.0
 10
10.5326825313
 20
9.802376044
 30
0.0
 10
10.5348391212
 20
9.7999836126
 30
0.0
 10
10.5383097483
 20
9.7964836552
 30
0.0
 10
10.5420767419
 20
9.793004791
 30
0.0
 10
10.5447313069
 20
9.7907458723
 30
0.0
 10
10.5461052873
 20
9.7896196082
 30
0.0
  0
SPLINE
  5
2ED
100
AcDbEntity
  8
0
100
AcDbSpline
 62
7
  6
CONTINUOUS
 70
0
 71
3
 72
23
 73
19
 74
0
 42
0.0000001
 43
0.0000001
 44
0.0000000001
 40
0.0
 40
0.0
 40
0.0
 40
0.0
 40
0.0815300627
 40
0.1606857631
 40
0.237412442
 40
0.3116604454
 40
0.3833848714
 40
0.452546346
 40
0.5191117186
 40
0.5830541609
 40
0.6443549325
 40
0.7030029476
 40
0.7589975742
 40
0.812348118
 40
0.8630776495
 40
0.9112228933
 40
0.9568388755
 40
1.0
 40
1.0
 40
1.0
 40
1.0
 10
10.8387267658
 20
10.9506199298
 30
0.0
 10
10.8356145112
 20
10.9497910535
 30
0.0
 10
10.82949302
 20
10.948110442
 30
0.0
 10
10.8204906226
 20
10.9454790193
 30
0.0
 10
10.8118101699
 20
10.9427762216
 30
0.0
 10
10.8034601209
 20
10.9400047298
 30
0.0
 10
10.7954485746
 20
10.9371672409
 30
0.0
 10
10.7877833058
 20
10.9342665131
 30
0.0
 10
10.7804717267
 20
10.9313054092
 30
0.0
 10
10.7735209162
 20
10.9282867514
 30
0.0
 10
10.7669375523
 20
10.9252135446
 30
0.0
 10
10.7607279915
 20
10.9220886563
 30
0.0
 10
10.7548981447
 20
10.918915202
 30
0.0
 10
10.749453618
 20
10.9156960669
 30
0.0
 10
10.7443995409
 20
10.9124344279
 30
0.0
 10
10.7397406957
 20
10.9091331084
 30
0.0
 10
10.7354816105
 20
10.9057954074
 30
0.0
 10
10.7328398955
 20
10.9034853061
 30
0.0
 10
10.7315917222
 20
10.9023237676
 30
0.0
  0
SPLINE
  5
2EE
100
AcDbEntity
  8
0
100
AcDbSpline
 62
7
  6
CONTINUOUS
 70
0
 71
3
 72
10
 73
6
 74
0
 42
0.0000001
 43
0.0000001
 44
0.0000000001
 40
0.0
 40
0.0
 40
0.0
 40
0.0
 40
0.253227337
 40
0.5043984572
 40
1.0
 40
1.0
 40
1.0
 40
1.0
 10
11.7552636234
 20
10.394542971
 30
0.0
 10
11.7484804867
 20
10.3987668619
 30
0.0
 10
11.7348832188
 20
10.4070437203
 30
0.0
 10
11.70756773
 20
10.4228457103
 30
0.0
 10
11.6867404746
 20
10.4339012031
 30
0.0
 10
11.6727194151
 20
10.4408286375
 30
0.0
  0
SPLINE
  5
2EF
100
AcDbEntity
  8
0
100
AcDbSpline
 62
7
  6
CONTINUOUS
 70
0
 71
3
 72
10
 73
6
 74
0
 42
0.0000001
 43
0.0000001
 44
0.0000000001
 40
0.0
 40
0.0
 40
0.0
 40
0.0
 40
0.253227337
 40
0.5043984572
 40
1.0
 40
1.0
 40
1.0
 40
1.0
 10
10.5461052873
 20
9.7896196082
 30
0.0
 10
10.552888424
 20
9.7853957172
 30
0.0
 10
10.5664856918
 20
9.7771188588
 30
0.0
 10
10.5938011806
 20
9.7613168689
 30
0.0
 10
10.6146284361
 20
9.750261376
 30
0.0
 10
10.6286494956
 20
9.7433339416
 30
0.0
  0
SPLINE
  5
2F0
100
AcDbEntity
  8
0
100
AcDbSpline
 62
7
  6
CONTINUOUS
 70
0
 71
3
 72
9
 73
5
 74
0
 42
0.0000001
 43
0.0000001
 44
0.0000000001
 40
0.0
 40
0.0
 40
0.0
 40
0.0
 40
0.5233612787
 40
1.0
 40
1.0
 40
1.0
 40
1.0
 10
11.2472770437
 20
11.6497889093
 30
0.0
 10
11.2477146814
 20
11.6502116349
 30
0.0
 10
11.2485111876
 20
11.6510622723
 30
0.0
 10
11.2491935071
 20
11.6520091979
 30
0.0
 10
11.2494803723
 20
11.6524833076
 30
0.0
  0
SPLINE
  5
2F1
100
AcDbEntity
  8
0
100
AcDbSpline
 62
7
  6
CONTINUOUS
 70
0
 71
3
 72
15
 73
11
 74
0
 42
0.0000001
 43
0.0000001
 44
0.0000000001
 40
0.0
 40
0.0
 40
0.0
 40
0.0
 40
0.1466002009
 40
0.2852608607
 40
0.4166729574
 40
0.5416769455
 40
0.661273845
 40
0.7766310629
 40
0.8890625705
 40
1.0
 40
1.0
 40
1.0
 40
1.0
 10
11.3289565496
 20
11.4094094026
 30
0.0
 10
11.3294182029
 20
11.4089417954
 30
0.0
 10
11.3302881401
 20
11.4080031427
 30
0.0
 10
11.3314557694
 20
11.4065432337
 30
0.0
 10
11.3324471254
 20
11.405073271
 30
0.0
 10
11.3332608731
 20
11.4035944671
 30
0.0
 10
11.3338956396
 20
11.4021080223
 30
0.0
 10
11.3343502818
 20
11.4006153695
 30
0.0
 10
11.3346235566
 20
11.3991185142
 30
0.0
 10
11.3346844566
 20
11.3981162865
 30
0.0
 10
11.3346844437
 20
11.3976190364
 30
0.0
  0
SPLINE
  5
2F2
100
AcDbEntity
  8
0
100
AcDbSpline
 62
7
  6
CONTINUOUS
 70
0
 71
3
 72
60
 73
56
 74
0
 42
0.0000001
 43
0.0000001
 44
0.0000000001
 40
0.0
 40
0.0
 40
0.0
 40
0.0
 40
0.0081222414
 40
0.0169168816
 40
0.0264087866
 40
0.0366143821
 40
0.0475415905
 40
0.0591912493
 40
0.0715586647
 40
0.0846348479
 40
0.098406648
 40
0.1128577747
 40
0.127968871
 40
0.1437180406
 40
0.160081135
 40
0.1770317977
 40
0.1945419791
 40
0.2125817114
 40
0.250121824
 40
0.2893859917
 40
0.3300881417
 40
0.3719273433
 40
0.4145911502
 40
0.4577590001
 40
0.5011053144
 40
0.5443028585
 40
0.5870257719
 40
0.6289529119
 40
0.6697709467
 40
0.7091777726
 40
0.7468857915
 40
0.7650183901
 40
0.7826270107
 40
0.7996814573
 40
0.8161532565
 40
0.8320158302
 40
0.8472444911
 40
0.8618170191
 40
0.8757135005
 40
0.8889170941
 40
0.9014140802
 40
0.9131945391
 40
0.9242530793
 40
0.934589459
 40
0.9442101269
 40
0.9531292893
 40
0.9613714202
 40
0.9689735769
 40
0.9759888588
 40
0.9824901798
 40
0.9885734679
 40
0.9914974722
 40
0.9943641549
 40
0.9971919122
 40
1.0
 40
1.0
 40
1.0
 40
1.0
 10
11.3284148179
 20
11.4219990323
 30
0.0
 10
11.3276711729
 20
11.4212807264
 30
0.0
 10
11.3260521626
 20
11.4198563685
 30
0.0
 10
11.3233647643
 20
11.4178325927
 30
0.0
 10
11.3203298136
 20
11.4158426936
 30
0.0
 10
11.3169535032
 20
11.4138904823
 30
0.0
 10
11.3132421572
 20
11.4119794789
 30
0.0
 10
11.3092029729
 20
11.4101134813
 30
0.0
 10
11.3048439086
 20
11.4082961215
 30
0.0
 10
11.3001735765
 20
11.4065311167
 30
0.0
 10
11.2952012866
 20
11.4048219553
 30
0.0
 10
11.2899369718
 20
11.4031721611
 30
0.0
 10
11.2843911978
 20
11.4015850582
 30
0.0
 10
11.2785751146
 20
11.4000638748
 30
0.0
 10
11.2725004304
 20
11.3986117383
 30
0.0
 10
11.2661793976
 20
11.3972315616
 30
0.0
 10
11.2596247578
 20
11.3959261917
 30
0.0
 10
11.2504696096
 20
11.394266957
 30
0.0
 10
11.2385383007
 20
11.3924083291
 30
0.0
 10
11.2236954493
 20
11.3905419009
 30
0.0
 10
11.208262789
 20
11.389026393
 30
0.0
 10
11.1923650063
 20
11.3878742517
 30
0.0
 10
11.1761304363
 20
11.3870949853
 30
0.0
 10
11.1596902487
 20
11.386695007
 30
0.0
 10
11.1431772814
 20
11.3866776101
 30
0.0
 10
11.1267249838
 20
11.3870429346
 30
0.0
 10
11.110466292
 20
11.3877879732
 30
0.0
 10
11.0945325738
 20
11.3889065958
 30
0.0
 10
11.0790524616
 20
11.3903895733
 30
0.0
 10
11.0641510346
 20
11.3922247269
 30
0.0
 10
11.0521638576
 20
11.3940578541
 30
0.0
 10
11.0429587086
 20
11.3956973327
 30
0.0
 10
11.0363630482
 20
11.3969888361
 30
0.0
 10
11.0299986248
 20
11.3983556159
 30
0.0
 10
11.0238782713
 20
11.3997949145
 30
0.0
 10
11.0180143295
 20
11.4013037647
 30
0.0
 10
11.0124186153
 20
11.402879148
 30
0.0
 10
11.0071023762
 20
11.4045177896
 30
0.0
 10
11.0020762897
 20
11.4062164256
 30
0.0
 10
10.9973504037
 20
11.4079715569
 30
0.0
 10
10.9929341398
 20
11.4097796625
 30
0.0
 10
10.9888362546
 20
11.411637119
 30
0.0
 10
10.9850647911
 20
11.4135401927
 30
0.0
 10
10.9816271167
 20
11.4154852455
 30
0.0
 10
10.978529795
 20
11.4174685007
 30
0.0
 10
10.9757787383
 20
11.4194864627
 30
0.0
 10
10.9733790842
 20
11.4215357009
 30
0.0
 10
10.97133546
 20
11.4236131482
 30
0.0
 10
10.9696521888
 20
11.4257163181
 30
0.0
 10
10.9683337584
 20
11.4278422866
 30
0.0
 10
10.9675329842
 20
11.4296555492
 30
0.0
 10
10.9670905519
 20
11.4311023338
 30
0.0
 10
10.9668563172
 20
11.4321754659
 30
0.0
 10
10.966715738
 20
11.4332498812
 30
0.0
 10
10.9666844577
 20
11.4339676776
 30
0.0
 10
10.9666844669
 20
11.4343251296
 30
0.0
  0
SPLINE
  5
2F3
100
AcDbEntity
  8
0
100
AcDbSpline
 62
7
  6
CONTINUOUS
 70
0
 71
3
 72
21
 73
17
 74
0
 42
0.0000001
 43
0.0000001
 44
0.0000000001
 40
0.0
 40
0.0
 40
0.0
 40
0.0
 40
0.0606728572
 40
0.1214156053
 40
0.182295152
 40
0.2433734573
 40
0.3047047452
 40
0.3663333579
 40
0.4282928725
 40
0.49060457
 40
0.5532767125
 40
0.6163048771
 40
0.6796721391
 40
0.7433509156
 40
0.8713385219
 40
1.0
 40
1.0
 40
1.0
 40
1.0
 10
10.9803983599
 20
11.3947706294
 30
0.0
 10
10.9807451906
 20
11.3943855653
 30
0.0
 10
10.9814784794
 20
11.3936493114
 30
0.0
 10
10.9826842528
 20
11.3926602242
 30
0.0
 10
10.9839857234
 20
11.3917944291
 30
0.0
 10
10.9853710881
 20
11.3910597669
 30
0.0
 10
10.9868280253
 20
11.390462824
 30
0.0
 10
10.9883434575
 20
11.3900088483
 30
0.0
 10
10.9899038439
 20
11.3897018135
 30
0.0
 10
10.9914952658
 20
11.3895445108
 30
0.0
 10
10.9931035204
 20
11.3895382296
 30
0.0
 10
10.994714251
 20
11.3896829374
 30
0.0
 10
10.9963132363
 20
11.3899774567
 30
0.0
 10
10.9984130342
 20
11.3905668377
 30
0.0
 10
11.0009368023
 20
11.3916629647
 30
0.0
 10
11.0027709728
 20
11.3928877668
 30
0.0
 10
11.0036273531
 20
11.3935764703
 30
0.0
  0
SPLINE
  5
2F4
100
AcDbEntity
  8
0
100
AcDbSpline
 62
7
  6
CONTINUOUS
 70
0
 71
3
 72
22
 73
18
 74
0
 42
0.0000001
 43
0.0000001
 44
0.0000000001
 40
0.0
 40
0.0
 40
0.0
 40
0.0
 40
0.1559281194
 40
0.2315366213
 40
0.3053894509
 40
0.3773385562
 40
0.4472261964
 40
0.5148887545
 40
0.5801606
 40
0.6428764659
 40
0.7028787796
 40
0.7600235424
 40
0.8141895539
 40
0.8652883424
 40
0.9132734774
 40
0.9581531097
 40
1.0
 40
1.0
 40
1.0
 40
1.0
 10
11.464099249
 20
11.0083774583
 30
0.0
 10
11.4624687799
 20
11.0129948623
 30
0.0
 10
11.4599862134
 20
11.0198299214
 30
0.0
 10
11.4565571745
 20
11.0287867115
 30
0.0
 10
11.4539880892
 20
11.0352481783
 30
0.0
 10
11.4513950854
 20
11.0415060836
 30
0.0
 10
11.4487780424
 20
11.0475427308
 30
0.0
 10
11.4461372053
 20
11.0533394208
 30
0.0
 10
11.4434731277
 20
11.0588766588
 30
0.0
 10
11.4407867185
 20
11.064134463
 30
0.0
 10
11.4380793671
 20
11.0690927609
 30
0.0
 10
11.4353527902
 20
11.073731828
 30
0.0
 10
11.4326091952
 20
11.0780329601
 30
0.0
 10
11.4298512267
 20
11.0819790367
 30
0.0
 10
11.4270816166
 20
11.0855551946
 30
0.0
 10
11.4243037107
 20
11.0887491129
 30
0.0
 10
11.422382808
 20
11.0906838469
 30
0.0
 10
11.4214207363
 20
11.0915790965
 30
0.0
  0
SPLINE
  5
2F5
100
AcDbEntity
  8
0
100
AcDbSpline
 62
7
  6
CONTINUOUS
 70
0
 71
3
 72
29
 73
25
 74
0
 42
0.0000001
 43
0.0000001
 44
0.0000000001
 40
0.0
 40
0.0
 40
0.0
 40
0.0
 40
0.0768347859
 40
0.1505299545
 40
0.2209986678
 40
0.2883662671
 40
0.3528119079
 40
0.4145759384
 40
0.4445696751
 40
0.4740438304
 40
0.5030640679
 40
0.5317082554
 40
0.5600629115
 40
0.5882190181
 40
0.6443085567
 40
0.6724695805
 40
0.7008232559
 40
0.7294660135
 40
0.7584443496
 40
0.8174967584
 40
0.8778940014
 40
0.9084473259
 40
0.9390730249
 40
1.0
 40
1.0
 40
1.0
 40
1.0
 10
11.2732246031
 20
11.370532258
 30
0.0
 10
11.2752931747
 20
11.3711039396
 30
0.0
 10
11.2793310578
 20
11.3722783537
 30
0.0
 10
11.2852046501
 20
11.374180259
 30
0.0
 10
11.2907622285
 20
11.3761895682
 30
0.0
 10
11.2960005318
 20
11.3783110909
 30
0.0
 10
11.300921253
 20
11.3805562555
 30
0.0
 10
11.3047984263
 20
11.3825621803
 30
0.0
 10
11.3077352349
 20
11.3842487695
 30
0.0
 10
11.309839648
 20
11.3855458623
 30
0.0
 10
11.311867954
 20
11.3868921108
 30
0.0
 10
11.3138198303
 20
11.3882941181
 30
0.0
 10
11.3156954006
 20
11.3897580686
 30
0.0
 10
11.3180897467
 20
11.3917983659
 30
0.0
 10
11.320333099
 20
11.3940044571
 30
0.0
 10
11.3223854304
 20
11.3963897829
 30
0.0
 10
11.3238251448
 20
11.3982851728
 30
0.0
 10
11.3251507393
 20
11.40028989
 30
0.0
 10
11.3267538387
 20
11.4031298106
 30
0.0
 10
11.3283761257
 20
11.4069650171
 30
0.0
 10
11.3293465822
 20
11.4110644057
 30
0.0
 10
11.3296816014
 20
11.4144479063
 30
0.0
 10
11.3297119465
 20
11.417861791
 30
0.0
 10
11.3293849136
 20
11.4204161312
 30
0.0
 10
11.3290211008
 20
11.4220785728
 30
0.0
  0
LINE
  5
2F6
100
AcDbEntity
  8
0
100
AcDbLine
 62
7
  6
CONTINUOUS
 10
11.3290211008
 20
11.4220785728
 11
11.328998461
 21
11.4221811298
  0
SPLINE
  5
2F7
100
AcDbEntity
  8
0
100
AcDbSpline
 62
7
  6
CONTINUOUS
 70
0
 71
3
 72
23
 73
19
 74
0
 42
0.0000001
 43
0.0000001
 44
0.0000000001
 40
0.0
 40
0.0
 40
0.0
 40
0.0
 40
0.0814582479
 40
0.1609450245
 40
0.238299589
 40
0.3133607229
 40
0.3859682611
 40
0.45596991
 40
0.5232282153
 40
0.5876284739
 40
0.6490874229
 40
0.7075622014
 40
0.7630587504
 40
0.8156378559
 40
0.8654184908
 40
0.9125776431
 40
0.9573461344
 40
1.0
 40
1.0
 40
1.0
 40
1.0
 10
10.8372696616
 20
10.9536543971
 30
0.0
 10
10.8384375138
 20
10.9512681556
 30
0.0
 10
10.8407756248
 20
10.9465683381
 30
0.0
 10
10.8443405523
 20
10.9396618689
 30
0.0
 10
10.8479225648
 20
10.93300011
 30
0.0
 10
10.8515214187
 20
10.9266035575
 30
0.0
 10
10.8551366231
 20
10.9204931449
 30
0.0
 10
10.8587673413
 20
10.9146898581
 30
0.0
 10
10.8624123868
 20
10.9092141435
 30
0.0
 10
10.8660702222
 20
10.9040852754
 30
0.0
 10
10.8697389819
 20
10.8993206628
 30
0.0
 10
10.8734165095
 20
10.8949351284
 30
0.0
 10
10.8771003777
 20
10.8909402256
 30
0.0
 10
10.8807880036
 20
10.8873437345
 30
0.0
 10
10.8844766577
 20
10.8841493598
 30
0.0
 10
10.8881636894
 20
10.8813565261
 30
0.0
 10
10.891845951
 20
10.8789607055
 30
0.0
 10
10.8943512681
 20
10.8775921446
 30
0.0
 10
10.8955986931
 20
10.8769763936
 30
0.0
  0
SPLINE
  5
2F8
100
AcDbEntity
  8
0
100
AcDbSpline
 62
7
  6
CONTINUOUS
 70
0
 71
3
 72
16
 73
12
 74
0
 42
0.0000001
 43
0.0000001
 44
0.0000000001
 40
0.0
 40
0.0
 40
0.0
 40
0.0
 40
0.1480511837
 40
0.2876965988
 40
0.4196100259
 40
0.4829485653
 40
0.5446959392
 40
0.6639365434
 40
0.7786069088
 40
0.8901135234
 40
1.0
 40
1.0
 40
1.0
 40
1.0
 10
11.4124503698
 20
11.0896881984
 30
0.0
 10
11.4131931512
 20
11.0904056701
 30
0.0
 10
11.4145929969
 20
11.0918462352
 30
0.0
 10
11.4164751878
 20
11.0940912819
 30
0.0
 10
11.4178252491
 20
11.0960017526
 30
0.0
 10
11.4187549995
 20
11.0975352102
 30
0.0
 10
11.4195669848
 20
11.0990342318
 30
0.0
 10
11.420410788
 20
11.1009206235
 30
0.0
 10
11.4211446459
 20
11.103221229
 30
0.0
 10
11.4215860201
 20
11.105529202
 30
0.0
 10
11.4216844374
 20
11.1070752287
 30
0.0
 10
11.4216844431
 20
11.1078417262
 30
0.0
  0
SPLINE
  5
2F9
100
AcDbEntity
  8
0
100
AcDbSpline
 62
7
  6
CONTINUOUS
 70
0
 71
3
 72
17
 73
13
 74
0
 42
0.0000001
 43
0.0000001
 44
0.0000000001
 40
0.0
 40
0.0
 40
0.0
 40
0.0
 40
0.0593778518
 40
0.1192871061
 40
0.1798210698
 40
0.2409192693
 40
0.3645232248
 40
0.489766381
 40
0.6162727947
 40
0.7436913884
 40
0.871704303
 40
1.0
 40
1.0
 40
1.0
 40
1.0
 10
10.9099735644
 20
11.1885958865
 30
0.0
 10
10.9088548015
 20
11.1873989319
 30
0.0
 10
10.9066553263
 20
11.1849488207
 30
0.0
 10
10.9034959098
 20
11.1811212084
 30
0.0
 10
10.9004734809
 20
11.1771245007
 30
0.0
 10
10.8966302132
 20
11.1715529944
 30
0.0
 10
10.8922533935
 20
11.1641905717
 30
0.0
 10
10.8878043448
 20
11.1548210873
 30
0.0
 10
10.8842358801
 20
11.1449687105
 30
0.0
 10
10.8816281535
 20
11.1347398686
 30
0.0
 10
10.8800399638
 20
11.1242546632
 30
0.0
 10
10.8796844553
 20
11.1171773008
 30
0.0
 10
10.8796844553
 20
11.1136372815
 30
0.0
  0
SPLINE
  5
2FA
100
AcDbEntity
  8
0
100
AcDbSpline
 62
7
  6
CONTINUOUS
 70
0
 71
3
 72
22
 73
18
 74
0
 42
0.0000001
 43
0.0000001
 44
0.0000000001
 40
0.0
 40
0.0
 40
0.0
 40
0.0
 40
0.0426104053
 40
0.0876595874
 40
0.1352518113
 40
0.1854671361
 40
0.2383633486
 40
0.2939817003
 40
0.3523466702
 40
0.4134705482
 40
0.4773538198
 40
0.543986699
 40
0.6133515537
 40
0.6854215615
 40
0.7601643885
 40
0.8375402065
 40
1.0
 40
1.0
 40
1.0
 40
1.0
 10
11.3913953407
 20
11.1885958862
 30
0.0
 10
11.3907775922
 20
11.1892568187
 30
0.0
 10
11.3894593251
 20
11.1905727438
 30
0.0
 10
11.3873074128
 20
11.1924763088
 30
0.0
 10
11.3849295678
 20
11.1943613626
 30
0.0
 10
11.3823280905
 20
11.196226091
 30
0.0
 10
11.3795053994
 20
11.1980689692
 30
0.0
 10
11.3764640765
 20
11.1998882211
 30
0.0
 10
11.3732069926
 20
11.2016822551
 30
0.0
 10
11.3697371759
 20
11.2034493472
 30
0.0
 10
11.3660578942
 20
11.2051878439
 30
0.0
 10
11.3621726251
 20
11.2068961291
 30
0.0
 10
11.3580850276
 20
11.2085725177
 30
0.0
 10
11.3537990025
 20
11.2102154804
 30
0.0
 10
11.3493185858
 20
11.2118233958
 30
0.0
 10
11.3429879816
 20
11.2139532083
 30
0.0
 10
11.3381161421
 20
11.2154393252
 30
0.0
 10
11.3348013537
 20
11.2163930128
 30
0.0
  0
SPLINE
  5
2FB
100
AcDbEntity
  8
0
100
AcDbSpline
 62
7
  6
CONTINUOUS
 70
0
 71
3
 72
21
 73
17
 74
0
 42
0.0000001
 43
0.0000001
 44
0.0000000001
 40
0.0
 40
0.0
 40
0.0
 40
0.0
 40
0.1600337168
 40
0.3104090263
 40
0.3818798878
 40
0.4508284956
 40
0.5172291954
 40
0.5810642218
 40
0.6423218963
 40
0.7009985755
 40
0.7570999505
 40
0.8106411719
 40
0.8616522698
 40
0.9101762643
 40
0.9562686826
 40
1.0
 40
1.0
 40
1.0
 40
1.0
 10
10.9665632438
 20
11.2163917714
 30
0.0
 10
10.9634074504
 20
11.2154837849
 30
0.0
 10
10.9573125752
 20
11.2136293668
 30
0.0
 10
10.9498988605
 20
11.2110854783
 30
0.0
 10
10.9443165071
 20
11.2089767185
 30
0.0
 10
10.9403794658
 20
11.2073914446
 30
0.0
 10
10.9366242636
 20
11.2057769278
 30
0.0
 10
10.9330540949
 20
11.2041345937
 30
0.0
 10
10.9296720194
 20
11.2024658232
 30
0.0
 10
10.9264809343
 20
11.2007720336
 30
0.0
 10
10.9234835359
 20
11.1990547346
 30
0.0
 10
10.9206823777
 20
11.1973152831
 30
0.0
 10
10.9180797573
 20
11.1955551557
 30
0.0
 10
10.915677854
 20
11.1937756959
 30
0.0
 10
10.9134788908
 20
11.1919785371
 30
0.0
 10
10.9121143835
 20
11.1907377657
 30
0.0
 10
10.9114689626
 20
11.190114337
 30
0.0
  0
SPLINE
  5
2FC
100
AcDbEntity
  8
0
100
AcDbSpline
 62
7
  6
CONTINUOUS
 70
0
 71
3
 72
15
 73
11
 74
0
 42
0.0000001
 43
0.0000001
 44
0.0000000001
 40
0.0
 40
0.0
 40
0.0
 40
0.0
 40
0.1433016651
 40
0.2811350333
 40
0.4131260366
 40
0.5392927747
 40
0.6600319769
 40
0.7761777915
 40
0.8889738898
 40
1.0
 40
1.0
 40
1.0
 40
1.0
 10
11.260899029
 20
11.375734619
 30
0.0
 10
11.2613243107
 20
11.3752094324
 30
0.0
 10
11.2622120849
 20
11.3742207413
 30
0.0
 10
11.2636701489
 20
11.3729222536
 30
0.0
 10
11.2652088423
 20
11.3718552349
 30
0.0
 10
11.2668040157
 20
11.3710375234
 30
0.0
 10
11.2684308705
 20
11.3704833595
 30
0.0
 10
11.2700636186
 20
11.3702033425
 30
0.0
 10
11.2716746272
 20
11.3702037422
 30
0.0
 10
11.2727199446
 20
11.3703927763
 30
0.0
 10
11.2732246022
 20
11.3705322613
 30
0.0
  0
SPLINE
  5
2FD
100
AcDbEntity
  8
0
100
AcDbSpline
 62
7
  6
CONTINUOUS
 70
0
 71
3
 72
17
 73
13
 74
0
 42
0.0000001
 43
0.0000001
 44
0.0000000001
 40
0.0
 40
0.0
 40
0.0
 40
0.0
 40
0.1282950638
 40
0.2563077561
 40
0.3837262658
 40
0.5102327789
 40
0.6354761114
 40
0.7590804589
 40
0.8201785718
 40
0.8807125832
 40
0.9406229484
 40
1.0
 40
1.0
 40
1.0
 40
1.0
 10
11.4216844553
 20
11.1136372815
 30
0.0
 10
11.4216844553
 20
11.1171772833
 30
0.0
 10
11.4213289476
 20
11.124254622
 30
0.0
 10
11.4197407694
 20
11.1347398026
 30
0.0
 10
11.4171330522
 20
11.144968641
 30
0.0
 10
11.4135645923
 20
11.1548210252
 30
0.0
 10
11.4091155438
 20
11.1641905303
 30
0.0
 10
11.4047387156
 20
11.1715529636
 30
0.0
 10
11.4008954445
 20
11.1771244792
 30
0.0
 10
11.3978730022
 20
11.1811212139
 30
0.0
 10
11.394713571
 20
11.1849488269
 30
0.0
 10
11.3925140941
 20
11.187398948
 30
0.0
 10
11.3913953463
 20
11.1885958865
 30
0.0
  0
SPLINE
  5
2FE
100
AcDbEntity
  8
0
100
AcDbSpline
 62
7
  6
CONTINUOUS
 70
0
 71
3
 72
53
 73
49
 74
0
 42
0.0000001
 43
0.0000001
 44
0.0000000001
 40
0.0
 40
0.0
 40
0.0
 40
0.0
 40
0.0077403758
 40
0.01605376
 40
0.0249599533
 40
0.0344712958
 40
0.0445945107
 40
0.0553312676
 40
0.066679439
 40
0.0786333479
 40
0.0911845515
 40
0.1043219961
 40
0.1180324734
 40
0.1323008171
 40
0.147110054
 40
0.1624416954
 40
0.1945897315
 40
0.2285712957
 40
0.2641935835
 40
0.3012488277
 40
0.3395167901
 40
0.3787669889
 40
0.4187608922
 40
0.4592539134
 40
0.4999975196
 40
0.5407411353
 40
0.5812342388
 40
0.6212282437
 40
0.6604786094
 40
0.6987467608
 40
0.7358022486
 40
0.771424806
 40
0.8054066818
 40
0.8375550582
 40
0.8528868997
 40
0.8676963069
 40
0.8819648661
 40
0.8956755248
 40
0.9088132083
 40
0.921364592
 40
0.9333187412
 40
0.9446670953
 40
0.9554041303
 40
0.9655275514
 40
0.9750390162
 40
0.9839453768
 40
0.9922594995
 40
1.0
 40
1.0
 40
1.0
 40
1.0
 10
10.9579979504
 20
11.1596545307
 30
0.0
 10
10.9587502029
 20
11.1589544829
 30
0.0
 10
10.9603695936
 20
11.1575654083
 30
0.0
 10
10.9630261307
 20
11.1555814274
 30
0.0
 10
10.9659906263
 20
11.1536273995
 30
0.0
 10
10.9692581813
 20
11.1517063213
 30
0.0
 10
10.97282376
 20
11.1498212069
 30
0.0
 10
10.9766816388
 20
11.1479749777
 30
0.0
 10
10.9808256583
 20
11.1461706807
 30
0.0
 10
10.9852491102
 20
11.1444112026
 30
0.0
 10
10.9899448242
 20
11.1426994698
 30
0.0
 10
10.9949051445
 20
11.1410382815
 30
0.0
 10
11.0001219686
 20
11.1394303875
 30
0.0
 10
11.005586754
 20
11.137878464
 30
0.0
 10
11.0112905453
 20
11.1363850313
 30
0.0
 10
11.01932939
 20
11.1344444516
 30
0.0
 10
11.0299095831
 20
11.1321939031
 30
0.0
 10
11.0432066962
 20
11.1298033689
 30
0.0
 10
11.057210965
 20
11.1276981818
 30
0.0
 10
11.0718303024
 20
11.1258924209
 30
0.0
 10
11.086968677
 20
11.1243982064
 30
0.0
 10
11.1025265063
 20
11.1232255383
 30
0.0
 10
11.118401409
 20
11.1223822649
 30
0.0
 10
11.1344888827
 20
11.121874023
 30
0.0
 10
11.1506830006
 20
11.1217042103
 30
0.0
 10
11.16687713
 20
11.121873961
 30
0.0
 10
11.1829646314
 20
11.1223821415
 30
0.0
 10
11.1988395838
 20
11.1232253553
 30
0.0
 10
11.2143974784
 20
11.1243979643
 30
0.0
 10
11.2295359385
 20
11.1258921229
 30
0.0
 10
11.2441553767
 20
11.1276978286
 30
0.0
 10
11.2581597638
 20
11.1298029649
 30
0.0
 10
11.2714570105
 20
11.1321934476
 30
0.0
 10
11.2820373263
 20
11.1344439617
 30
0.0
 10
11.2900762776
 20
11.1363845019
 30
0.0
 10
11.2957801523
 20
11.1378779231
 30
0.0
 10
11.3012450258
 20
11.1394298125
 30
0.0
 10
11.3064619389
 20
11.1410377035
 30
0.0
 10
11.311422356
 20
11.1426988543
 30
0.0
 10
11.3161181615
 20
11.144410591
 30
0.0
 10
11.3205417158
 20
11.1461700287
 30
0.0
 10
11.3246858337
 20
11.1479743323
 30
0.0
 10
11.3285438262
 20
11.1498205295
 30
0.0
 10
11.3321094901
 20
11.1517056542
 30
0.0
 10
11.3353771547
 20
11.1536266753
 30
0.0
 10
11.3383417962
 20
11.1555807307
 30
0.0
 10
11.3409984758
 20
11.1575647502
 30
0.0
 10
11.3426179797
 20
11.158953867
 30
0.0
 10
11.3433702719
 20
11.1596538963
 30
0.0
  0
SPLINE
  5
2FF
100
AcDbEntity
  8
0
100
AcDbSpline
 62
7
  6
CONTINUOUS
 70
0
 71
3
 72
11
 73
7
 74
0
 42
0.0000001
 43
0.0000001
 44
0.0000000001
 40
0.0
 40
0.0
 40
0.0
 40
0.0
 40
0.245852917
 40
0.4946127303
 40
0.7460700602
 40
1.0
 40
1.0
 40
1.0
 40
1.0
 10
11.411458416
 20
10.8797862363
 30
0.0
 10
11.4159272066
 20
10.8819938383
 30
0.0
 10
11.4248356956
 20
10.8866026606
 30
0.0
 10
11.4380331805
 20
10.893997243
 30
0.0
 10
11.4511449511
 20
10.9018652192
 30
0.0
 10
11.4597890969
 20
10.9073684132
 30
0.0
 10
11.464099249
 20
10.9101836176
 30
0.0
  0
SPLINE
  5
300
100
AcDbEntity
  8
0
100
AcDbSpline
 62
7
  6
CONTINUOUS
 70
0
 71
3
 72
11
 73
7
 74
0
 42
0.0000001
 43
0.0000001
 44
0.0000000001
 40
0.0
 40
0.0
 40
0.0
 40
0.0
 40
0.2650066933
 40
0.5197779513
 40
0.7646443457
 40
1.0
 40
1.0
 40
1.0
 40
1.0
 10
11.7552636234
 20
10.394542971
 30
0.0
 10
11.7566376038
 20
10.3934167069
 30
0.0
 10
11.7592921688
 20
10.3911577881
 30
0.0
 10
11.7630591624
 20
10.3876789239
 30
0.0
 10
11.7665297895
 20
10.3841789666
 30
0.0
 10
11.7686863794
 20
10.3817865351
 30
0.0
 10
11.7697116716
 20
10.3805872519
 30
0.0
  0
SPLINE
  5
301
100
AcDbEntity
  8
0
100
AcDbSpline
 62
7
  6
CONTINUOUS
 70
0
 71
3
 72
16
 73
12
 74
0
 42
0.0000001
 43
0.0000001
 44
0.0000000001
 40
0.0
 40
0.0
 40
0.0
 40
0.0
 40
0.1090280875
 40
0.2197801533
 40
0.3338936721
 40
0.4528540158
 40
0.5145828286
 40
0.5779899551
 40
0.7103120523
 40
0.8507449858
 40
1.0
 40
1.0
 40
1.0
 40
1.0
 10
10.8796844675
 20
11.1078417262
 30
0.0
 10
10.8796844616
 20
11.1070474136
 30
0.0
 10
10.8797902722
 20
11.1054443051
 30
0.0
 10
10.8802645881
 20
11.1030520805
 30
0.0
 10
10.8810529413
 20
11.1006681827
 30
0.0
 10
10.8819586204
 20
11.0987156795
 30
0.0
 10
10.8828296445
 20
11.0971645835
 30
0.0
 10
10.8838282962
 20
11.0955760325
 30
0.0
 10
10.8852782902
 20
11.0935979005
 30
0.0
 10
10.8872979133
 20
11.0912759185
 30
0.0
 10
10.8887980808
 20
11.0897885916
 30
0.0
 10
10.8895941
 20
11.0890478136
 30
0.0
  0
SPLINE
  5
302
100
AcDbEntity
  8
0
100
AcDbSpline
 62
7
  6
CONTINUOUS
 70
0
 71
3
 72
51
 73
47
 74
0
 42
0.0000001
 43
0.0000001
 44
0.0000000001
 40
0.0
 40
0.0
 40
0.0
 40
0.0
 40
0.0064797863
 40
0.0134582786
 40
0.0209915109
 40
0.0291208266
 40
0.037874942
 40
0.0472730397
 40
0.0573262518
 40
0.0680394292
 40
0.0794122575
 40
0.0914399051
 40
0.1041141923
 40
0.117423441
 40
0.1313537012
 40
0.1458881256
 40
0.1766915434
 40
0.2096638845
 40
0.2446081519
 40
0.2813062057
 40
0.3195225147
 40
0.359007006
 40
0.3994978771
 40
0.4407243538
 40
0.4824090637
 40
0.5242706173
 40
0.5660261866
 40
0.607393692
 40
0.6480946128
 40
0.6878562346
 40
0.7264142253
 40
0.7635154146
 40
0.7989202544
 40
0.8324060136
 40
0.863770036
 40
0.8928336978
 40
0.9064560981
 40
0.9194501354
 40
0.9318030793
 40
0.9435049006
 40
0.9545489545
 40
0.9649325023
 40
0.9746576807
 40
0.9837330977
 40
0.9921732903
 40
1.0
 40
1.0
 40
1.0
 40
1.0
 10
11.051888399
 20
11.6524835803
 30
0.0
 10
11.0521157175
 20
11.6521078566
 30
0.0
 10
11.0526379206
 20
11.6513571243
 30
0.0
 10
11.0535714492
 20
11.6502808513
 30
0.0
 10
11.0546797577
 20
11.6492170049
 30
0.0
 10
11.0559607763
 20
11.6481673089
 30
0.0
 10
11.0574122902
 20
11.6471330914
 30
0.0
 10
11.059031863
 20
11.6461160497
 30
0.0
 10
11.0608167069
 20
11.6451178181
 30
0.0
 10
11.0627637396
 20
11.6441401188
 30
0.0
 10
11.0648695555
 20
11.6431846824
 30
0.0
 10
11.0671304277
 20
11.6422531734
 30
0.0
 10
11.0695423498
 20
11.6413473235
 30
0.0
 10
11.0721010027
 20
11.6404687048
 30
0.0
 10
11.0748018163
 20
11.6396189671
 30
0.0
 10
11.0786611626
 20
11.6385048572
 30
0.0
 10
11.0838079217
 20
11.6372034152
 30
0.0
 10
11.0903523906
 20
11.635807891
 30
0.0
 10
11.0973327351
 20
11.6345602558
 30
0.0
 10
11.1046986066
 20
11.6334696878
 30
0.0
 10
11.112396937
 20
11.6325442584
 30
0.0
 10
11.1203721342
 20
11.6317907879
 30
0.0
 10
11.1285665717
 20
11.6312148293
 30
0.0
 10
11.1369210005
 20
11.6308206217
 30
0.0
 10
11.1453749966
 20
11.630611064
 30
0.0
 10
11.1538674055
 20
11.6305876983
 30
0.0
 10
11.1623367864
 20
11.6307506955
 30
0.0
 10
11.1707218732
 20
11.6310988585
 30
0.0
 10
11.1789620128
 20
11.6316296266
 30
0.0
 10
11.1869976213
 20
11.632339094
 30
0.0
 10
11.1947706218
 20
11.6332220344
 30
0.0
 10
11.2022248813
 20
11.6342719369
 30
0.0
 10
11.2093066225
 20
11.6354810512
 30
0.0
 10
11.2159649187
 20
11.6368404253
 30
0.0
 10
11.222151829
 20
11.6383400391
 30
0.0
 10
11.2269772221
 20
11.6397255624
 30
0.0
 10
11.2305625158
 20
11.6409035309
 30
0.0
 10
11.2330485195
 20
11.6417959644
 30
0.0
 10
11.235385605
 20
11.6427148145
 30
0.0
 10
11.2375696052
 20
11.6436584769
 30
0.0
 10
11.2395966363
 20
11.6446252448
 30
0.0
 10
11.2414631518
 20
11.6456133712
 30
0.0
 10
11.2431659019
 20
11.6466212059
 30
0.0
 10
11.2447020419
 20
11.6476470712
 30
0.0
 10
11.2460686824
 20
11.6486892008
 30
0.0
 10
11.2468955371
 20
11.6494204022
 30
0.0
 10
11.2472770437
 20
11.6497889093
 30
0.0
  0
SPLINE
  5
303
100
AcDbEntity
  8
0
100
AcDbSpline
 62
7
  6
CONTINUOUS
 70
0
 71
3
 72
53
 73
49
 74
0
 42
0.0000001
 43
0.0000001
 44
0.0000000001
 40
0.0
 40
0.0
 40
0.0
 40
0.0
 40
0.0077404047
 40
0.0160546495
 40
0.0249611395
 40
0.034472532
 40
0.0445959649
 40
0.0553329834
 40
0.0666814297
 40
0.0786355487
 40
0.091187035
 40
0.1043246912
 40
0.1180354526
 40
0.1323039829
 40
0.1471135142
 40
0.162445351
 40
0.1945938535
 40
0.2285758467
 40
0.2641985688
 40
0.3012541856
 40
0.3395224867
 40
0.3787730096
 40
0.4187671349
 40
0.4592603661
 40
0.5000041165
 40
0.5407477925
 40
0.5812409159
 40
0.6212348742
 40
0.6604851008
 40
0.6987530878
 40
0.735808303
 40
0.7714305344
 40
0.8054120303
 40
0.8375599332
 40
0.8528915001
 40
0.867700657
 40
0.8819689344
 40
0.8956793007
 40
0.9088166679
 40
0.9213677155
 40
0.933321551
 40
0.9446695554
 40
0.9554062467
 40
0.9655292576
 40
0.9750405258
 40
0.9839465095
 40
0.9922598262
 40
1.0
 40
1.0
 40
1.0
 40
1.0
 10
11.0032797234
 20
11.6670987049
 30
0.0
 10
11.0038552204
 20
11.6676342229
 30
0.0
 10
11.0050941494
 20
11.6686968971
 30
0.0
 10
11.0071265107
 20
11.670214707
 30
0.0
 10
11.0093944864
 20
11.6717095671
 30
0.0
 10
11.0118942519
 20
11.6731791728
 30
0.0
 10
11.0146219976
 20
11.6746212681
 30
0.0
 10
11.0175733624
 20
11.6760336468
 30
0.0
 10
11.0207436362
 20
11.6774139181
 30
0.0
 10
11.024127667
 20
11.6787599273
 30
0.0
 10
11.0277199837
 20
11.6800693772
 30
0.0
 10
11.0315147179
 20
11.6813401999
 30
0.0
 10
11.0355056816
 20
11.6825702061
 30
0.0
 10
11.0396863303
 20
11.6837574414
 30
0.0
 10
11.0440498229
 20
11.6848998805
 30
0.0
 10
11.0501996525
 20
11.6863844329
 30
0.0
 10
11.0582936431
 20
11.688106063
 30
0.0
 10
11.0684661025
 20
11.6899347926
 30
0.0
 10
11.079179528
 20
11.6915452212
 30
0.0
 10
11.0903634714
 20
11.6929265854
 30
0.0
 10
11.101944467
 20
11.6940696124
 30
0.0
 10
11.1138463298
 20
11.6949666514
 30
0.0
 10
11.12599074
 20
11.6956117005
 30
0.0
 10
11.138297748
 20
11.6960004465
 30
0.0
 10
11.1506863213
 20
11.6961302914
 30
0.0
 10
11.1630748829
 20
11.6960003679
 30
0.0
 10
11.1753818529
 20
11.6956115436
 30
0.0
 10
11.187526201
 20
11.6949664178
 30
0.0
 10
11.1994279789
 20
11.6940693033
 30
0.0
 10
11.211008864
 20
11.6929262028
 30
0.0
 10
11.2221926754
 20
11.6915447686
 30
0.0
 10
11.2329059477
 20
11.6899342707
 30
0.0
 10
11.243078233
 20
11.6881054822
 30
0.0
 10
11.2511720669
 20
11.6863837845
 30
0.0
 10
11.2573217641
 20
11.684899221
 30
0.0
 10
11.2616851476
 20
11.6837567252
 30
0.0
 10
11.2658656899
 20
11.6825694948
 30
0.0
 10
11.2698565353
 20
11.6813394283
 30
0.0
 10
11.2736511542
 20
11.6800686197
 30
0.0
 10
11.277243339
 20
11.6787591086
 30
0.0
 10
11.2806272502
 20
11.6774131175
 30
0.0
 10
11.2837973799
 20
11.6760327839
 30
0.0
 10
11.2867486272
 20
11.6746204389
 30
0.0
 10
11.2894762344
 20
11.6731782716
 30
0.0
 10
11.2919758835
 20
11.6717086772
 30
0.0
 10
11.294243646
 20
11.6702137837
 30
0.0
 10
11.2962758731
 20
11.668696076
 30
0.0
 10
11.2975146379
 20
11.6676333884
 30
0.0
 10
11.2980900881
 20
11.6670978546
 30
0.0
  0
SPLINE
  5
304
100
AcDbEntity
  8
0
100
AcDbSpline
 62
7
  6
CONTINUOUS
 70
0
 71
3
 72
16
 73
12
 74
0
 42
0.0000001
 43
0.0000001
 44
0.0000000001
 40
0.0
 40
0.0
 40
0.0
 40
0.0
 40
0.1492551013
 40
0.2896895692
 40
0.4220106877
 40
0.4854181208
 40
0.5471473479
 40
0.6661067126
 40
0.7802202735
 40
0.8909718673
 40
1.0
 40
1.0
 40
1.0
 40
1.0
 10
11.3279559875
 20
11.6393045098
 30
0.0
 10
11.3284964771
 20
11.6388015258
 30
0.0
 10
11.3295150717
 20
11.6377916264
 30
0.0
 10
11.3308864294
 20
11.6362150568
 30
0.0
 10
11.3318709247
 20
11.6348718862
 30
0.0
 10
11.3325490096
 20
11.633793281
 30
0.0
 10
11.3331404504
 20
11.6327401121
 30
0.0
 10
11.333755333
 20
11.6314143505
 30
0.0
 10
11.33429064
 20
11.6297957191
 30
0.0
 10
11.3346126441
 20
11.6281714059
 30
0.0
 10
11.3346844532
 20
11.6270829097
 30
0.0
 10
11.3346844439
 20
11.6265435777
 30
0.0
  0
SPLINE
  5
305
100
AcDbEntity
  8
0
100
AcDbSpline
 62
7
  6
CONTINUOUS
 70
0
 71
3
 72
15
 73
11
 74
0
 42
0.0000001
 43
0.0000001
 44
0.0000000001
 40
0.0
 40
0.0
 40
0.0
 40
0.0
 40
0.1098906517
 40
0.2214018182
 40
0.3360753656
 40
0.4553197315
 40
0.5803743582
 40
0.7122968171
 40
0.8519481781
 40
1.0
 40
1.0
 40
1.0
 40
1.0
 10
10.9666844668
 20
11.6265442736
 30
0.0
 10
10.9666844758
 20
11.6270646877
 30
0.0
 10
10.9667513258
 20
11.6281143683
 30
0.0
 10
10.9670510616
 20
11.629681335
 30
0.0
 10
10.9675493137
 20
11.6312433822
 30
0.0
 10
10.9682448269
 20
11.6327981439
 30
0.0
 10
10.9691360143
 20
11.6343441699
 30
0.0
 10
10.9702214408
 20
11.6358800698
 30
0.0
 10
10.9714994005
 20
11.6374044104
 30
0.0
 10
10.9724497977
 20
11.6383824565
 30
0.0
 10
10.9729540928
 20
11.6388695681
 30
0.0
  0
SPLINE
  5
306
100
AcDbEntity
  8
0
100
AcDbSpline
 62
7
  6
CONTINUOUS
 70
0
 71
3
 72
15
 73
11
 74
0
 42
0.0000001
 43
0.0000001
 44
0.0000000001
 40
0.0
 40
0.0
 40
0.0
 40
0.0
 40
0.1098906142
 40
0.2214018168
 40
0.3360754298
 40
0.4553198489
 40
0.5803745049
 40
0.7122969731
 40
0.8519482966
 40
1.0
 40
1.0
 40
1.0
 40
1.0
 10
11.3346844437
 20
11.43432422
 30
0.0
 10
11.3346844303
 20
11.43380381
 30
0.0
 10
11.3346175723
 20
11.4327541378
 30
0.0
 10
11.3343178279
 20
11.4311871847
 30
0.0
 10
11.3338195707
 20
11.4296251514
 30
0.0
 10
11.3331240562
 20
11.4280704037
 30
0.0
 10
11.3322328709
 20
11.4265243916
 30
0.0
 10
11.3311474496
 20
11.4249885052
 30
0.0
 10
11.3298694985
 20
11.4234641778
 30
0.0
 10
11.3289191087
 20
11.4224861399
 30
0.0
 10
11.3284148179
 20
11.4219990323
 30
0.0
  0
SPLINE
  5
307
100
AcDbEntity
  8
0
100
AcDbSpline
 62
7
  6
CONTINUOUS
 70
0
 71
3
 72
23
 73
19
 74
0
 42
0.0000001
 43
0.0000001
 44
0.0000000001
 40
0.0
 40
0.0
 40
0.0
 40
0.0
 40
0.0436196014
 40
0.0892263365
 40
0.1370667606
 40
0.1873519913
 40
0.2402504927
 40
0.2958839517
 40
0.3543261383
 40
0.4156045169
 40
0.4797040944
 40
0.5465728825
 40
0.616128309
 40
0.6882639801
 40
0.7628563633
 40
0.8397705479
 40
0.9188661515
 40
1.0
 40
1.0
 40
1.0
 40
1.0
 10
10.6400653729
 20
10.4464678511
 30
0.0
 10
10.6377554522
 20
10.4453273558
 30
0.0
 10
10.6331182897
 20
10.4428123927
 30
0.0
 10
10.6262912875
 20
10.4384511267
 30
0.0
 10
10.6194547063
 20
10.4334092178
 30
0.0
 10
10.6126135906
 20
10.4276780469
 30
0.0
 10
10.6057722557
 20
10.4212548007
 30
0.0
 10
10.5989351845
 20
10.4141430658
 30
0.0
 10
10.5921066761
 20
10.406352626
 30
0.0
 10
10.5852908326
 20
10.3978991356
 30
0.0
 10
10.5784914345
 20
10.3888034953
 30
0.0
 10
10.5717118563
 20
10.3790910395
 30
0.0
 10
10.5649549926
 20
10.3687905946
 30
0.0
 10
10.5582232061
 20
10.3579334869
 30
0.0
 10
10.5515183349
 20
10.3465525818
 30
0.0
 10
10.5448416752
 20
10.3346813699
 30
0.0
 10
10.5381940815
 20
10.3223533205
 30
0.0
 10
10.5338348481
 20
10.3139537218
 30
0.0
 10
10.5316572391
 20
10.3096854299
 30
0.0
  0
SPLINE
  5
308
100
AcDbEntity
  8
0
100
AcDbSpline
 62
7
  6
CONTINUOUS
 70
0
 71
3
 72
18
 73
14
 74
0
 42
0.0000001
 43
0.0000001
 44
0.0000000001
 40
0.0
 40
0.0
 40
0.0
 40
0.0
 40
0.0544284586
 40
0.1090741131
 40
0.1641514082
 40
0.2198691273
 40
0.333969962
 40
0.4529167319
 40
0.5146386222
 40
0.5780388623
 40
0.7103454994
 40
0.8507628585
 40
1.0
 40
1.0
 40
1.0
 40
1.0
 10
11.6476844344
 20
10.8122684584
 30
0.0
 10
11.6476844358
 20
10.8129957523
 30
0.0
 10
11.6476366059
 20
10.8144536933
 30
0.0
 10
11.6474215046
 20
10.8166380397
 30
0.0
 10
11.6470630476
 20
10.8188210638
 30
0.0
 10
11.6463892254
 20
10.8217514381
 30
0.0
 10
11.645174713
 20
10.8254244429
 30
0.0
 10
11.6435138355
 20
10.829004958
 30
0.0
 10
11.6419164443
 20
10.8318495957
 30
0.0
 10
11.6400849664
 20
10.8347628514
 30
0.0
 10
11.6374258591
 20
10.8383906587
 30
0.0
 10
11.6337219869
 20
10.8426489515
 30
0.0
 10
11.6309708434
 20
10.845376635
 30
0.0
 10
11.6295110262
 20
10.8467351719
 30
0.0
  0
SPLINE
  5
309
100
AcDbEntity
  8
0
100
AcDbSpline
 62
7
  6
CONTINUOUS
 70
0
 71
3
 72
23
 73
19
 74
0
 42
0.0000001
 43
0.0000001
 44
0.0000000001
 40
0.0
 40
0.0
 40
0.0
 40
0.0
 40
0.0436196014
 40
0.0892263365
 40
0.1370667606
 40
0.1873519913
 40
0.2402504927
 40
0.2958839517
 40
0.3543261383
 40
0.4156045169
 40
0.4797040944
 40
0.5465728825
 40
0.616128309
 40
0.6882639801
 40
0.7628563633
 40
0.8397705479
 40
0.9188661515
 40
1.0
 40
1.0
 40
1.0
 40
1.0
 10
11.6613035377
 20
9.737694728
 30
0.0
 10
11.6636134585
 20
9.7388352234
 30
0.0
 10
11.668250621
 20
9.7413501865
 30
0.0
 10
11.6750776232
 20
9.7457114525
 30
0.0
 10
11.6819142043
 20
9.7507533613
 30
0.0
 10
11.6887553201
 20
9.7564845323
 30
0.0
 10
11.695596655
 20
9.7629077784
 30
0.0
 10
11.7024337262
 20
9.7700195133
 30
0.0
 10
11.7092622346
 20
9.7778099531
 30
0.0
 10
11.7160780781
 20
9.7862634436
 30
0.0
 10
11.7228774762
 20
9.7953590839
 30
0.0
 10
11.7296570543
 20
9.8050715396
 30
0.0
 10
11.7364139181
 20
9.8153719845
 30
0.0
 10
11.7431457045
 20
9.8262290922
 30
0.0
 10
11.7498505758
 20
9.8376099973
 30
0.0
 10
11.7565272355
 20
9.8494812093
 30
0.0
 10
11.7631748291
 20
9.8618092586
 30
0.0
 10
11.7675340626
 20
9.8702088574
 30
0.0
 10
11.7697116716
 20
9.8744771493
 30
0.0
  0
SPLINE
  5
30A
100
AcDbEntity
  8
0
100
AcDbSpline
 62
7
  6
CONTINUOUS
 70
0
 71
3
 72
23
 73
19
 74
0
 42
0.0000001
 43
0.0000001
 44
0.0000000001
 40
0.0
 40
0.0
 40
0.0
 40
0.0
 40
0.0432904074
 40
0.0890180142
 40
0.1372562642
 40
0.1880595957
 40
0.2414649184
 40
0.297495174
 40
0.3561606442
 40
0.4174608098
 40
0.4813860415
 40
0.5479179335
 40
0.6170314375
 40
0.6886940344
 40
0.7628682468
 40
0.839510122
 40
0.9185718088
 40
1.0
 40
1.0
 40
1.0
 40
1.0
 10
11.5697783326
 20
10.9023226996
 30
0.0
 10
11.568543179
 20
10.9034721573
 30
0.0
 10
11.5659305313
 20
10.9057584174
 30
0.0
 10
11.5617208751
 20
10.9090629333
 30
0.0
 10
11.5571194004
 20
10.9123318686
 30
0.0
 10
11.552130498
 20
10.9155620395
 30
0.0
 10
11.546758774
 20
10.9187506506
 30
0.0
 10
11.5410092198
 20
10.9218947022
 30
0.0
 10
11.5348872163
 20
10.9249912873
 30
0.0
 10
11.5283985133
 20
10.9280375045
 30
0.0
 10
11.5215492139
 20
10.9310304345
 30
0.0
 10
11.5143458017
 20
10.9339672964
 30
0.0
 10
11.5067950794
 20
10.9368452118
 30
0.0
 10
11.4989042252
 20
10.9396615271
 30
0.0
 10
11.4906807212
 20
10.9424134459
 30
0.0
 10
11.4821323982
 20
10.945098439
 30
0.0
 10
11.4732674116
 20
10.9477138288
 30
0.0
 10
11.4672393425
 20
10.9493851702
 30
0.0
 10
11.4641746231
 20
10.9502097135
 30
0.0
  0
SPLINE
  5
30B
100
AcDbEntity
  8
0
100
AcDbSpline
 62
7
  6
CONTINUOUS
 70
0
 71
3
 72
18
 73
14
 74
0
 42
0.0000001
 43
0.0000001
 44
0.0000000001
 40
0.0
 40
0.0
 40
0.0
 40
0.0
 40
0.1492375037
 40
0.2896545881
 40
0.4219614439
 40
0.4853614374
 40
0.5470833384
 40
0.6660301833
 40
0.7801308948
 40
0.8358486565
 40
0.8909259069
 40
0.9455715286
 40
1.0
 40
1.0
 40
1.0
 40
1.0
 10
10.6718579091
 20
10.8467351851
 30
0.0
 10
10.6703980817
 20
10.8453766425
 30
0.0
 10
10.6676469071
 20
10.8426489687
 30
0.0
 10
10.6639430577
 20
10.8383906276
 30
0.0
 10
10.6612839057
 20
10.8347628389
 30
0.0
 10
10.6594524557
 20
10.831849552
 30
0.0
 10
10.6578550556
 20
10.8290049106
 30
0.0
 10
10.6561941566
 20
10.8254243891
 30
0.0
 10
10.6549796789
 20
10.8217513606
 30
0.0
 10
10.6543058318
 20
10.8188209839
 30
0.0
 10
10.6539473897
 20
10.8166379495
 30
0.0
 10
10.6537323156
 20
10.8144535945
 30
0.0
 10
10.6536844776
 20
10.8129956496
 30
0.0
 10
10.6536844762
 20
10.8122683532
 30
0.0
  0
SPLINE
  5
30C
100
AcDbEntity
  8
0
100
AcDbSpline
 62
7
  6
CONTINUOUS
 70
0
 71
3
 72
14
 73
10
 74
0
 42
0.0000001
 43
0.0000001
 44
0.0000000001
 40
0.0
 40
0.0
 40
0.0
 40
0.0
 40
0.2574545396
 40
0.3842998676
 40
0.5097548722
 40
0.6338207621
 40
0.7565196327
 40
0.878369767
 40
1.0
 40
1.0
 40
1.0
 40
1.0
 10
10.9725626883
 20
11.4089543257
 30
0.0
 10
10.9729066691
 20
11.4075930299
 30
0.0
 10
10.9735684072
 20
11.4055947714
 30
0.0
 10
10.9747067336
 20
11.4030570969
 30
0.0
 10
10.9756665537
 20
11.401241044
 30
0.0
 10
10.9767228785
 20
11.3995062309
 30
0.0
 10
10.9778655809
 20
11.3978509642
 30
0.0
 10
10.9790886425
 20
11.3962711401
 30
0.0
 10
10.9799544099
 20
11.3952635019
 30
0.0
 10
10.9803983465
 20
11.3947706172
 30
0.0
  0
SPLINE
  5
30D
100
AcDbEntity
  8
0
100
AcDbSpline
 62
7
  6
CONTINUOUS
 70
0
 71
3
 72
23
 73
19
 74
0
 42
0.0000001
 43
0.0000001
 44
0.0000000001
 40
0.0
 40
0.0
 40
0.0
 40
0.0
 40
0.0748354453
 40
0.1456129813
 40
0.2126358338
 40
0.2762904615
 40
0.3370479524
 40
0.3954590735
 40
0.4521506144
 40
0.5078137394
 40
0.5631835483
 40
0.6190077447
 40
0.676014299
 40
0.7348827741
 40
0.7962245295
 40
0.8605705049
 40
0.9283717522
 40
1.0
 40
1.0
 40
1.0
 40
1.0
 10
11.3898999481
 20
11.1569350355
 30
0.0
 10
11.3905479332
 20
11.1575609411
 30
0.0
 10
11.3917724
 20
11.1588174309
 30
0.0
 10
11.3934286352
 20
11.1607721715
 30
0.0
 10
11.3948494332
 20
11.1627410267
 30
0.0
 10
11.3960328734
 20
11.1647222741
 30
0.0
 10
11.3969773137
 20
11.166714345
 30
0.0
 10
11.3976810143
 20
11.1687154826
 30
0.0
 10
11.3981424994
 20
11.1707234779
 30
0.0
 10
11.3983602965
 20
11.1727357267
 30
0.0
 10
11.3983338934
 20
11.1747491923
 30
0.0
 10
11.3980632549
 20
11.1767607575
 30
0.0
 10
11.3975492798
 20
11.1787674801
 30
0.0
 10
11.396793341
 20
11.1807668434
 30
0.0
 10
11.3957970122
 20
11.1827567054
 30
0.0
 10
11.3945621087
 20
11.1847354097
 30
0.0
 10
11.3930903288
 20
11.1867012003
 30
0.0
 10
11.3919841523
 20
11.1879659135
 30
0.0
 10
11.3913953407
 20
11.1885958862
 30
0.0
  0
SPLINE
  5
30E
100
AcDbEntity
  8
0
100
AcDbSpline
 62
7
  6
CONTINUOUS
 70
0
 71
3
 72
27
 73
23
 74
0
 42
0.0000001
 43
0.0000001
 44
0.0000000001
 40
0.0
 40
0.0
 40
0.0
 40
0.0
 40
0.0679928633
 40
0.1311598062
 40
0.1900541609
 40
0.2454129588
 40
0.2981461796
 40
0.3238756532
 40
0.349358925
 40
0.3747457024
 40
0.4001874729
 40
0.4258346811
 40
0.4518339459
 40
0.5054053914
 40
0.5619531418
 40
0.5916263725
 40
0.6223451105
 40
0.6872053432
 40
0.7570717593
 40
0.8323267262
 40
0.913241187
 40
1.0
 40
1.0
 40
1.0
 40
1.0
 10
11.343869632
 20
11.1601272488
 30
0.0
 10
11.3445582674
 20
11.1607924194
 30
0.0
 10
11.3458366562
 20
11.1621292864
 30
0.0
 10
11.3474957716
 20
11.164234954
 30
0.0
 10
11.3488183658
 20
11.1663614811
 30
0.0
 10
11.3498002725
 20
11.1685056174
 30
0.0
 10
11.3503353376
 20
11.1703204684
 30
0.0
 10
11.3505831341
 20
11.1717643499
 30
0.0
 10
11.3506813051
 20
11.1728396769
 30
0.0
 10
11.3506931031
 20
11.1739153284
 30
0.0
 10
11.3506185883
 20
11.1749907689
 30
0.0
 10
11.3504577552
 20
11.1760654536
 30
0.0
 10
11.3501252616
 20
11.1775105817
 30
0.0
 10
11.3494833829
 20
11.179324357
 30
0.0
 10
11.3485762382
 20
11.1810776432
 30
0.0
 10
11.3476917401
 20
11.1824674385
 30
0.0
 10
11.3466616344
 20
11.1839001323
 30
0.0
 10
11.3451514281
 20
11.185679493
 30
0.0
 10
11.3430394973
 20
11.1877536299
 30
0.0
 10
11.3405994307
 20
11.1898017744
 30
0.0
 10
11.3378355803
 20
11.1918210084
 30
0.0
 10
11.3358498701
 20
11.1931008595
 30
0.0
 10
11.3348070172
 20
11.1937372213
 30
0.0
  0
SPLINE
  5
30F
100
AcDbEntity
  8
0
100
AcDbSpline
 62
7
  6
CONTINUOUS
 70
0
 71
3
 72
11
 73
7
 74
0
 42
0.0000001
 43
0.0000001
 44
0.0000000001
 40
0.0
 40
0.0
 40
0.0
 40
0.0
 40
0.2728147899
 40
0.5301600517
 40
0.7723949234
 40
1.0
 40
1.0
 40
1.0
 40
1.0
 10
10.9666067952
 20
11.1937646099
 30
0.0
 10
10.9657204651
 20
11.1932246269
 30
0.0
 10
10.9640196967
 20
11.1921390701
 30
0.0
 10
10.9616209187
 20
11.1904397865
 30
0.0
 10
10.9594526155
 20
11.1887194878
 30
0.0
 10
10.9581220624
 20
11.1875236868
 30
0.0
 10
10.9574992786
 20
11.1869221238
 30
0.0
  0
SPLINE
  5
310
100
AcDbEntity
  8
0
100
AcDbSpline
 62
7
  6
CONTINUOUS
 70
0
 71
3
 72
23
 73
19
 74
0
 42
0.0000001
 43
0.0000001
 44
0.0000000001
 40
0.0
 40
0.0
 40
0.0
 40
0.0
 40
0.0736871012
 40
0.143120122
 40
0.2086483171
 40
0.2707219031
 40
0.3298925613
 40
0.3868074295
 40
0.4422009342
 40
0.4968755521
 40
0.5516697084
 40
0.6074159907
 40
0.6649010551
 40
0.7248362101
 40
0.7878396386
 40
0.8544310844
 40
0.9250377407
 40
1.0
 40
1.0
 40
1.0
 40
1.0
 10
10.9574992786
 20
11.1869221238
 30
0.0
 10
10.9569414985
 20
11.1863833496
 30
0.0
 10
10.9558913978
 20
11.1853015081
 30
0.0
 10
10.9544826456
 20
11.1836142107
 30
0.0
 10
10.9532908774
 20
11.1819138748
 30
0.0
 10
10.9523180108
 20
11.1802021531
 30
0.0
 10
10.9515657684
 20
11.1784805719
 30
0.0
 10
10.9510359386
 20
11.1767509711
 30
0.0
 10
10.9507300372
 20
11.1750157272
 30
0.0
 10
10.9506493723
 20
11.1732777208
 30
0.0
 10
10.9507940849
 20
11.1715401812
 30
0.0
 10
10.951163761
 20
11.1698062714
 30
0.0
 10
10.9517569703
 20
11.168078721
 30
0.0
 10
10.9525721002
 20
11.1663597584
 30
0.0
 10
10.9536073334
 20
11.1646511656
 30
0.0
 10
10.9548608735
 20
11.1629543938
 30
0.0
 10
10.9563309587
 20
11.1612710133
 30
0.0
 10
10.957420422
 20
11.1601919799
 30
0.0
 10
10.9579979504
 20
11.1596545307
 30
0.0
  0
SPLINE
  5
311
100
AcDbEntity
  8
0
100
AcDbSpline
 62
7
  6
CONTINUOUS
 70
0
 71
3
 72
21
 73
17
 74
0
 42
0.0000001
 43
0.0000001
 44
0.0000000001
 40
0.0
 40
0.0
 40
0.0
 40
0.0
 40
0.1192817699
 40
0.1791777646
 40
0.2393027587
 40
0.2997125448
 40
0.3604690675
 40
0.4216385591
 40
0.4832891114
 40
0.5454874568
 40
0.6082953592
 40
0.6717659909
 40
0.7359408312
 40
0.8008475388
 40
0.8664990622
 40
1.0
 40
1.0
 40
1.0
 40
1.0
 10
11.2346637605
 20
10.8508013663
 30
0.0
 10
11.2418382006
 20
10.8498290953
 30
0.0
 10
11.2526593449
 20
10.8486618188
 30
0.0
 10
11.2671603414
 20
10.8477939379
 30
0.0
 10
11.2781106975
 20
10.8475130457
 30
0.0
 10
11.2891163979
 20
10.8476308206
 30
0.0
 10
11.300173132
 20
10.8481735979
 30
0.0
 10
11.3112745116
 20
10.8491653643
 30
0.0
 10
11.3224123815
 20
10.8506264565
 30
0.0
 10
11.3335769258
 20
10.8525723472
 30
0.0
 10
11.3447570509
 20
10.8550126124
 30
0.0
 10
11.3559409275
 20
10.857950244
 30
0.0
 10
11.3671165128
 20
10.8613813513
 30
0.0
 10
11.378272535
 20
10.865295581
 30
0.0
 10
11.39318824
 20
10.8711686503
 30
0.0
 10
11.4041934627
 20
10.8761973178
 30
0.0
 10
11.411458416
 20
10.8797862363
 30
0.0
  0
SPLINE
  5
312
100
AcDbEntity
  8
0
100
AcDbSpline
 62
7
  6
CONTINUOUS
 70
0
 71
3
 72
31
 73
27
 74
0
 42
0.0000001
 43
0.0000001
 44
0.0000000001
 40
0.0
 40
0.0
 40
0.0
 40
0.0
 40
0.0719305415
 40
0.1428141093
 40
0.2124838369
 40
0.2807656023
 40
0.3474963193
 40
0.4125509865
 40
0.444436443
 40
0.4758911042
 40
0.506924625
 40
0.5375541288
 40
0.5678037101
 40
0.5977040291
 40
0.6272908827
 40
0.6566033962
 40
0.6856827664
 40
0.7145703471
 40
0.7433058534
 40
0.7719267289
 40
0.800466972
 40
0.8289564021
 40
0.885873862
 40
0.9143508768
 40
0.9428580262
 40
1.0
 40
1.0
 40
1.0
 40
1.0
 10
11.2346637605
 20
10.948995207
 30
0.0
 10
11.2391014117
 20
10.9531747281
 30
0.0
 10
11.248043318
 20
10.9613354603
 30
0.0
 10
11.2617915983
 20
10.9729729916
 30
0.0
 10
11.2757967822
 20
10.9838047995
 30
0.0
 10
11.2900602169
 20
10.9936931134
 30
0.0
 10
11.3045696659
 20
11.0024885721
 30
0.0
 10
11.3169261578
 20
11.0088237579
 30
0.0
 10
11.3268974399
 20
11.0131867911
 30
0.0
 10
11.3343581007
 20
11.0160762906
 30
0.0
 10
11.3418405549
 20
11.0185929176
 30
0.0
 10
11.3493346743
 20
11.0207282436
 30
0.0
 10
11.3568297872
 20
11.0224772144
 30
0.0
 10
11.3643150826
 20
11.0238389956
 30
0.0
 10
11.371780103
 20
11.0248164526
 30
0.0
 10
11.3792150757
 20
11.0254159327
 30
0.0
 10
11.3866111697
 20
11.025647424
 30
0.0
 10
11.3939607759
 20
11.0255235768
 30
0.0
 10
11.4012576094
 20
11.0250591023
 30
0.0
 10
11.4084967096
 20
11.0242706023
 30
0.0
 10
11.4156745872
 20
11.0231754441
 30
0.0
 10
11.4251558236
 20
11.0213312756
 30
0.0
 10
11.4345176339
 20
11.0189435714
 30
0.0
 10
11.4437395092
 20
11.0160870926
 30
0.0
 10
11.4528849094
 20
11.012935186
 30
0.0
 10
11.4596410814
 20
11.010268586
 30
0.0
 10
11.464099249
 20
11.0083774583
 30
0.0
  0
SPLINE
  5
313
100
AcDbEntity
  8
0
100
AcDbSpline
 62
7
  6
CONTINUOUS
 70
0
 71
3
 72
23
 73
19
 74
0
 42
0.0000001
 43
0.0000001
 44
0.0000000001
 40
0.0
 40
0.0
 40
0.0
 40
0.0
 40
0.0247908923
 40
0.0496948535
 40
0.1002205837
 40
0.152413781
 40
0.2068698482
 40
0.2639610953
 40
0.3238337185
 40
0.3864269878
 40
0.4515030516
 40
0.5186801087
 40
0.5874654884
 40
0.6572874609
 40
0.7275257215
 40
0.7975409459
 40
0.8667039655
 40
1.0
 40
1.0
 40
1.0
 40
1.0
 10
11.2732246022
 20
11.3705322613
 30
0.0
 10
11.273491907
 20
11.370606143
 30
0.0
 10
11.2740210126
 20
11.3707800675
 30
0.0
 10
11.275049234
 20
11.3712303318
 30
0.0
 10
11.2762702862
 20
11.3719872207
 30
0.0
 10
11.2775817239
 20
11.3731710827
 30
0.0
 10
11.27872543
 20
11.3746116943
 30
0.0
 10
11.2796818187
 20
11.3762813693
 30
0.0
 10
11.280435333
 20
11.3781494633
 30
0.0
 10
11.2809735949
 20
11.380182348
 30
0.0
 10
11.2812877601
 20
11.3823437346
 30
0.0
 10
11.2813726778
 20
11.3845951028
 30
0.0
 10
11.2812271059
 20
11.3868962788
 30
0.0
 10
11.2808537654
 20
11.3892061992
 30
0.0
 10
11.2802595032
 20
11.3914833731
 30
0.0
 10
11.27945459
 20
11.3936876979
 30
0.0
 10
11.2781378767
 20
11.3964395753
 30
0.0
 10
11.2768599395
 20
11.398335996
 30
0.0
 10
11.2758907515
 20
11.3994692053
 30
0.0
  0
SPLINE
  5
314
100
AcDbEntity
  8
0
100
AcDbSpline
 62
7
  6
CONTINUOUS
 70
0
 71
3
 72
56
 73
52
 74
0
 42
0.0000001
 43
0.0000001
 44
0.0000000001
 40
0.0
 40
0.0
 40
0.0
 40
0.0
 40
0.0077403522
 40
0.016054151
 40
0.0249602281
 40
0.0344715492
 40
0.044594748
 40
0.0553315743
 40
0.0666797148
 40
0.0786336713
 40
0.0911848846
 40
0.1043223584
 40
0.1180328836
 40
0.1323012328
 40
0.1471105407
 40
0.1624421912
 40
0.1782762807
 40
0.1945914688
 40
0.2113652832
 40
0.2285741087
 40
0.2641964941
 40
0.3012518337
 40
0.3395198833
 40
0.378770162
 40
0.4187641334
 40
0.4592572092
 40
0.5000008406
 40
0.5407444644
 40
0.5812375372
 40
0.6212314954
 40
0.6604817725
 40
0.6987498074
 40
0.7358051287
 40
0.771427481
 40
0.8054091078
 40
0.821724305
 40
0.8375583505
 40
0.8528900184
 40
0.8676992747
 40
0.8819676271
 40
0.8956781365
 40
0.908815577
 40
0.9213667956
 40
0.9333206975
 40
0.944668869
 40
0.9554056264
 40
0.9655288008
 40
0.9750401668
 40
0.9839462931
 40
0.992259704
 40
1.0
 40
1.0
 40
1.0
 40
1.0
 10
11.406475974
 20
11.0841166798
 30
0.0
 10
11.4054773482
 20
11.083187371
 30
0.0
 10
11.4033275646
 20
11.0813432909
 30
0.0
 10
11.3998009506
 20
11.0787095075
 30
0.0
 10
11.3958655345
 20
11.0761154632
 30
0.0
 10
11.3915278182
 20
11.0735652838
 30
0.0
 10
11.3867945066
 20
11.0710627199
 30
0.0
 10
11.3816731127
 20
11.0686118789
 30
0.0
 10
11.3761718907
 20
11.0662166231
 30
0.0
 10
11.3702997038
 20
11.0638809273
 30
0.0
 10
11.3640660913
 20
11.0616085756
 30
0.0
 10
11.3574812062
 20
11.0594033341
 30
0.0
 10
11.3505558077
 20
11.0572688582
 30
0.0
 10
11.3433012387
 20
11.0552086403
 30
0.0
 10
11.3357293895
 20
11.0532261516
 30
0.0
 10
11.3278526989
 20
11.0513246119
 30
0.0
 10
11.3196841067
 20
11.0495072316
 30
0.0
 10
11.3112370507
 20
11.0477769845
 30
0.0
 10
11.302525416
 20
11.0461367371
 30
0.0
 10
11.2904369325
 20
11.0440494154
 30
0.0
 10
11.2747693925
 20
11.041694318
 30
0.0
 10
11.2553621171
 20
11.0392971563
 30
0.0
 10
11.2352657238
 20
11.0373136055
 30
0.0
 10
11.2146125326
 20
11.0357569072
 30
0.0
 10
11.1935384226
 20
11.0346374905
 30
0.0
 10
11.1721821349
 20
11.033962837
 30
0.0
 10
11.1506842871
 20
11.0337374541
 30
0.0
 10
11.1291864401
 20
11.0339628471
 30
0.0
 10
11.1078301562
 20
11.034637509
 30
0.0
 10
11.0867560521
 20
11.0357569316
 30
0.0
 10
11.0661028573
 20
11.0373136298
 30
0.0
 10
11.0460065029
 20
11.0392971939
 30
0.0
 10
11.0265991248
 20
11.0416943293
 30
0.0
 10
11.0080084428
 20
11.0444890134
 30
0.0
 10
10.9931026617
 20
11.0471685434
 30
0.0
 10
10.9816845481
 20
11.049507261
 30
0.0
 10
10.9735159583
 20
11.0513246886
 30
0.0
 10
10.9656392775
 20
11.0532261981
 30
0.0
 10
10.9580674405
 20
11.0552087148
 30
0.0
 10
10.9508128798
 20
11.0572689194
 30
0.0
 10
10.943887491
 20
11.0594034005
 30
0.0
 10
10.9373026189
 20
11.0616086551
 30
0.0
 10
10.9310690131
 20
11.0638809839
 30
0.0
 10
10.9251968443
 20
11.0662167158
 30
0.0
 10
10.9196956254
 20
11.0686119384
 30
0.0
 10
10.9145742598
 20
11.0710628127
 30
0.0
 10
10.9098409432
 20
11.073565348
 30
0.0
 10
10.9055032284
 20
11.076115557
 30
0.0
 10
10.9015678779
 20
11.0787096035
 30
0.0
 10
10.8980412802
 20
11.0813432929
 30
0.0
 10
10.8958915783
 20
11.08318735
 30
0.0
 10
10.8948929678
 20
11.0841166607
 30
0.0
  0
LINE
  5
315
100
AcDbEntity
  8
0
100
AcDbLine
 62
7
  6
CONTINUOUS
 10
10.8397960982
 20
11.0540143348
 11
10.8398796346
 21
11.0540822102
  0
SPLINE
  5
316
100
AcDbEntity
  8
0
100
AcDbSpline
 62
7
  6
CONTINUOUS
 70
0
 71
3
 72
38
 73
34
 74
0
 42
0.0000001
 43
0.0000001
 44
0.0000000001
 40
0.0
 40
0.0
 40
0.0
 40
0.0
 40
0.0220666863
 40
0.0434204029
 40
0.0640867074
 40
0.0841150977
 40
0.1035837187
 40
0.1226065546
 40
0.1413381554
 40
0.1599751061
 40
0.1787532409
 40
0.1979378952
 40
0.2178091637
 40
0.2386449857
 40
0.2607033348
 40
0.2842096588
 40
0.3093491542
 40
0.3362613223
 40
0.3650414067
 40
0.3957432125
 40
0.4283817951
 40
0.4629405459
 40
0.4993765067
 40
0.5376253815
 40
0.5776082551
 40
0.6192354996
 40
0.6624116878
 40
0.7070385876
 40
0.7530182043
 40
0.800254905
 40
0.8486558961
 40
0.898135003
 40
1.0
 40
1.0
 40
1.0
 40
1.0
 10
10.8398796346
 20
11.0540822102
 30
0.0
 10
10.8406646523
 20
11.0547189123
 30
0.0
 10
10.8422407041
 20
11.0559338489
 30
0.0
 10
10.8446659227
 20
11.0575908934
 30
0.0
 10
10.8471145333
 20
11.0590383691
 30
0.0
 10
10.8495873051
 20
11.0602613296
 30
0.0
 10
10.852085119
 20
11.061243788
 30
0.0
 10
10.8546083962
 20
11.0619690987
 30
0.0
 10
10.8571569843
 20
11.0624198827
 30
0.0
 10
10.8597297188
 20
11.0625787844
 30
0.0
 10
10.8623242767
 20
11.0624290229
 30
0.0
 10
10.8649372771
 20
11.0619554216
 30
0.0
 10
10.8675648781
 20
11.0611453522
 30
0.0
 10
10.8702032027
 20
11.0599885735
 30
0.0
 10
10.8728488623
 20
11.0584778626
 30
0.0
 10
10.875498908
 20
11.0566085882
 30
0.0
 10
10.8781504418
 20
11.0543786393
 30
0.0
 10
10.8808008276
 20
11.0517890448
 30
0.0
 10
10.8834473094
 20
11.048843664
 30
0.0
 10
10.8860869795
 20
11.0455492303
 30
0.0
 10
10.8887172059
 20
11.0419154424
 30
0.0
 10
10.8913353647
 20
11.0379543564
 30
0.0
 10
10.8939390187
 20
11.0336800346
 30
0.0
 10
10.8965261956
 20
11.0291081711
 30
0.0
 10
10.8990951113
 20
11.0242554231
 30
0.0
 10
10.9016444035
 20
11.0191390192
 30
0.0
 10
10.9041730839
 20
11.013776344
 30
0.0
 10
10.9066804346
 20
11.0081845212
 30
0.0
 10
10.9091661107
 20
11.0023802021
 30
0.0
 10
10.9116299369
 20
10.9963793219
 30
0.0
 10
10.9140721007
 20
10.9901969455
 30
0.0
 10
10.9173312522
 20
10.9816476326
 30
0.0
 10
10.9196953794
 20
10.9751302759
 30
0.0
 10
10.9212489668
 20
10.9707305968
 30
0.0
  0
SPLINE
  5
317
100
AcDbEntity
  8
0
100
AcDbSpline
 62
7
  6
CONTINUOUS
 70
0
 71
3
 72
22
 73
18
 74
0
 42
0.0000001
 43
0.0000001
 44
0.0000000001
 40
0.0
 40
0.0
 40
0.0
 40
0.0
 40
0.0635932074
 40
0.1270873567
 40
0.1904679645
 40
0.2537196277
 40
0.3168270229
 40
0.379775884
 40
0.442554345
 40
0.5051542088
 40
0.5675719314
 40
0.6298090801
 40
0.6918720952
 40
0.7537714222
 40
0.8155202753
 40
0.8771333891
 40
1.0
 40
1.0
 40
1.0
 40
1.0
 10
10.9212489668
 20
10.872536756
 30
0.0
 10
10.9276136318
 20
10.8702580445
 30
0.0
 10
10.940386894
 20
10.8658525458
 30
0.0
 10
10.9596967506
 20
10.8597533175
 30
0.0
 10
10.9791418526
 20
10.8542289756
 30
0.0
 10
10.9987152152
 20
10.8493424622
 30
0.0
 10
11.0184037237
 20
10.845155065
 30
0.0
 10
11.0381873163
 20
10.8417224166
 30
0.0
 10
11.0580392448
 20
10.8390898325
 30
0.0
 10
11.0779273324
 20
10.837287848
 30
0.0
 10
11.0978162916
 20
10.836328849
 30
0.0
 10
11.1176707014
 20
10.8362056069
 30
0.0
 10
11.1374580759
 20
10.8368922663
 30
0.0
 10
11.1571511404
 20
10.8383473325
 30
0.0
 10
11.176729688
 20
10.8405180259
 30
0.0
 10
11.2026365615
 20
10.8442831464
 30
0.0
 10
11.2219056535
 20
10.8480031957
 30
0.0
 10
11.2346637605
 20
10.8508013663
 30
0.0
  0
SPLINE
  5
318
100
AcDbEntity
  8
0
100
AcDbSpline
 62
7
  6
CONTINUOUS
 70
0
 71
3
 72
29
 73
25
 74
0
 42
0.0000001
 43
0.0000001
 44
0.0000000001
 40
0.0
 40
0.0
 40
0.0
 40
0.0
 40
0.0607935697
 40
0.1217090786
 40
0.1827762932
 40
0.2440295857
 40
0.3055070053
 40
0.336346416
 40
0.3672562015
 40
0.3982403776
 40
0.4293021842
 40
0.4604438139
 40
0.4916666069
 40
0.5229706945
 40
0.554355025
 40
0.585817582
 40
0.6173552372
 40
0.6489641531
 40
0.6806399908
 40
0.7441654148
 40
0.8079003261
 40
0.8718062843
 40
0.9358489904
 40
1.0
 40
1.0
 40
1.0
 40
1.0
 10
10.9212489668
 20
10.9707305968
 30
0.0
 10
10.927355828
 20
10.9733605151
 30
0.0
 10
10.9396806559
 20
10.9784004922
 30
0.0
 10
10.9584933091
 20
10.9851802448
 30
0.0
 10
10.9776614544
 20
10.9910602329
 30
0.0
 10
10.9971834267
 20
10.9959003111
 30
0.0
 10
11.0137148926
 20
10.9989418493
 30
0.0
 10
11.0270777951
 20
11.0007125919
 30
0.0
 10
11.0371746791
 20
11.0016949802
 30
0.0
 10
11.0473246044
 20
11.0023162155
 30
0.0
 10
11.0575159678
 20
11.0025649123
 30
0.0
 10
11.0677356653
 20
11.0024330591
 30
0.0
 10
11.0779696838
 20
11.0019159843
 30
0.0
 10
11.0882034874
 20
11.0010126107
 30
0.0
 10
11.098422581
 20
10.9997260806
 30
0.0
 10
11.1086129907
 20
10.9980630506
 30
0.0
 10
11.1187616549
 20
10.9960333796
 30
0.0
 10
11.1288570446
 20
10.9936500937
 30
0.0
 10
11.1422446456
 20
10.9900181809
 30
0.0
 10
11.1587975757
 20
10.9846725921
 30
0.0
 10
11.1783065018
 20
10.9771261017
 30
0.0
 10
11.1974631767
 20
10.9685898373
 30
0.0
 10
11.216266397
 20
10.9592035052
 30
0.0
 10
11.2285664681
 20
10.9524667019
 30
0.0
 10
11.2346637605
 20
10.948995207
 30
0.0
  0
SPLINE
  5
319
100
AcDbEntity
  8
0
100
AcDbSpline
 62
7
  6
CONTINUOUS
 70
0
 71
3
 72
12
 73
8
 74
0
 42
0.0000001
 43
0.0000001
 44
0.0000000001
 40
0.0
 40
0.0
 40
0.0
 40
0.0
 40
0.2794888836
 40
0.5371450611
 40
0.7759349846
 40
0.8895394738
 40
1.0
 40
1.0
 40
1.0
 40
1.0
 10
11.4124503698
 20
11.0954837537
 30
0.0
 10
11.41348004
 20
11.0964783388
 30
0.0
 10
11.4153771539
 20
11.098478371
 30
0.0
 10
11.4177916931
 20
11.1016457083
 30
0.0
 10
11.4193623056
 20
11.1043598101
 30
0.0
 10
11.4203147282
 20
11.1065329811
 30
0.0
 10
11.4206928666
 20
11.1076181607
 30
0.0
 10
11.4208567711
 20
11.1081596935
 30
0.0
  0
SPLINE
  5
31A
100
AcDbEntity
  8
0
100
AcDbSpline
 62
7
  6
CONTINUOUS
 70
0
 71
3
 72
11
 73
7
 74
0
 42
0.0000001
 43
0.0000001
 44
0.0000000001
 40
0.0
 40
0.0
 40
0.0
 40
0.0
 40
0.2544991222
 40
0.505163903
 40
0.7532356335
 40
1.0
 40
1.0
 40
1.0
 40
1.0
 10
11.4208567711
 20
11.1081596935
 30
0.0
 10
11.4209933764
 20
11.1086110311
 30
0.0
 10
11.4212337092
 20
11.1095166138
 30
0.0
 10
11.4214936774
 20
11.1108890793
 30
0.0
 10
11.4216497202
 20
11.1122628109
 30
0.0
 10
11.4216844397
 20
11.1131800555
 30
0.0
 10
11.4216844431
 20
11.1136372815
 30
0.0
  0
SPLINE
  5
31B
100
AcDbEntity
  8
0
100
AcDbSpline
 62
7
  6
CONTINUOUS
 70
0
 71
3
 72
16
 73
12
 74
0
 42
0.0000001
 43
0.0000001
 44
0.0000000001
 40
0.0
 40
0.0
 40
0.0
 40
0.0
 40
0.1480512553
 40
0.2876966954
 40
0.4196101155
 40
0.4829486424
 40
0.544695998
 40
0.6639365506
 40
0.7786068667
 40
0.8901134718
 40
1.0
 40
1.0
 40
1.0
 40
1.0
 10
11.4071377774
 20
11.0692892214
 30
0.0
 10
11.4078654877
 20
11.0699921356
 30
0.0
 10
11.4092369299
 20
11.0714034714
 30
0.0
 10
11.4110809291
 20
11.0736029663
 30
0.0
 10
11.4124035947
 20
11.075474674
 30
0.0
 10
11.4133144773
 20
11.0769770181
 30
0.0
 10
11.4141099838
 20
11.0784456248
 30
0.0
 10
11.4149366608
 20
11.0802937418
 30
0.0
 10
11.4156556204
 20
11.0825476684
 30
0.0
 10
11.4160880291
 20
11.0848088131
 30
0.0
 10
11.4161844417
 20
11.0863234707
 30
0.0
 10
11.4161844433
 20
11.0870744159
 30
0.0
  0
SPLINE
  5
31C
100
AcDbEntity
  8
0
100
AcDbSpline
 62
7
  6
CONTINUOUS
 70
0
 71
3
 72
56
 73
52
 74
0
 42
0.0000001
 43
0.0000001
 44
0.0000000001
 40
0.0
 40
0.0
 40
0.0
 40
0.0
 40
0.0077402969
 40
0.0160537108
 40
0.0249598387
 40
0.0344712038
 40
0.0445943797
 40
0.0553311397
 40
0.0666793101
 40
0.0786332104
 40
0.0911844312
 40
0.1043218721
 40
0.118032378
 40
0.1323007298
 40
0.1471099874
 40
0.1624416526
 40
0.1782756943
 40
0.1945908915
 40
0.228572513
 40
0.2641948617
 40
0.3012501755
 40
0.3395182057
 40
0.3787684754
 40
0.4187624278
 40
0.4592554934
 40
0.4999991129
 40
0.540742736
 40
0.5812358109
 40
0.6212297738
 40
0.6604800535
 40
0.6987480982
 40
0.7358034384
 40
0.7714258249
 40
0.7886346525
 40
0.8054084647
 40
0.8217236544
 40
0.8375577489
 40
0.8528894005
 40
0.8676987087
 40
0.8819670629
 40
0.8956775928
 40
0.9088150684
 40
0.9213662854
 40
0.9333202482
 40
0.9446683932
 40
0.9554052234
 40
0.965528428
 40
0.9750397554
 40
0.9839458376
 40
0.9922596419
 40
1.0
 40
1.0
 40
1.0
 40
1.0
 10
10.8895941
 20
11.0890478136
 30
0.0
 10
10.8906133977
 20
11.088099252
 30
0.0
 10
10.8928076331
 20
11.0862169948
 30
0.0
 10
10.8964072877
 20
11.0835287477
 30
0.0
 10
10.900424162
 20
11.0808809646
 30
0.0
 10
10.9048517355
 20
11.0782779274
 30
0.0
 10
10.9096831061
 20
11.0757235515
 30
0.0
 10
10.9149105642
 20
11.0732219064
 30
0.0
 10
10.9205257438
 20
11.0707770661
 30
0.0
 10
10.9265195576
 20
11.068392949
 30
0.0
 10
10.9328822961
 20
11.0660735484
 30
0.0
 10
10.939603577
 20
11.063822611
 30
0.0
 10
10.9466724281
 20
11.0616439136
 30
0.0
 10
10.9540772703
 20
11.0595410314
 30
0.0
 10
10.9618059615
 20
11.0575174462
 30
0.0
 10
10.9698458107
 20
11.0555765462
 30
0.0
 10
10.9781836159
 20
11.0537214702
 30
0.0
 10
10.9898382599
 20
11.0513343055
 30
0.0
 10
11.0050528201
 20
11.0485992678
 30
0.0
 10
11.0240286145
 20
11.045746691
 30
0.0
 10
11.0438380233
 20
11.0432998979
 30
0.0
 10
11.0643506802
 20
11.0412752433
 30
0.0
 10
11.085431713
 20
11.0396862971
 30
0.0
 10
11.106942374
 20
11.0385436848
 30
0.0
 10
11.1287410608
 20
11.0378550463
 30
0.0
 10
11.1506842429
 20
11.0376249835
 30
0.0
 10
11.172627427
 20
11.0378550343
 30
0.0
 10
11.1944261177
 20
11.0385436625
 30
0.0
 10
11.215936787
 20
11.0396862672
 30
0.0
 10
11.2370178172
 20
11.0412752117
 30
0.0
 10
11.257530517
 20
11.0432998515
 30
0.0
 10
11.2773398234
 20
11.0457466695
 30
0.0
 10
11.2933319252
 20
11.0481505528
 30
0.0
 10
11.3056708282
 20
11.0502811128
 30
0.0
 10
11.3145629292
 20
11.0519553378
 30
0.0
 10
11.3231849712
 20
11.0537214269
 30
0.0
 10
11.3315227815
 20
11.0555764543
 30
0.0
 10
11.3395626431
 20
11.0575173842
 30
0.0
 10
11.3472913484
 20
11.0595409401
 30
0.0
 10
11.3546962016
 20
11.0616438356
 30
0.0
 10
11.3617650657
 20
11.0638225271
 30
0.0
 10
11.3684863622
 20
11.0660734503
 30
0.0
 10
11.3748491097
 20
11.068392874
 30
0.0
 10
11.3808429451
 20
11.0707769539
 30
0.0
 10
11.386458131
 20
11.0732218276
 30
0.0
 10
11.3916856204
 20
11.0757234381
 30
0.0
 10
11.3965169886
 20
11.078277843
 30
0.0
 10
11.400944567
 20
11.0808808497
 30
0.0
 10
11.4049615114
 20
11.0835286301
 30
0.0
 10
11.4085611853
 20
11.0862169728
 30
0.0
 10
11.410755506
 20
11.0880992532
 30
0.0
 10
11.4117748205
 20
11.0890478129
 30
0.0
  0
SPLINE
  5
31D
100
AcDbEntity
  8
0
100
AcDbSpline
 62
7
  6
CONTINUOUS
 70
0
 71
3
 72
11
 73
7
 74
0
 42
0.0000001
 43
0.0000001
 44
0.0000000001
 40
0.0
 40
0.0
 40
0.0
 40
0.0
 40
0.2428236665
 40
0.4885858541
 40
0.7401064131
 40
1.0
 40
1.0
 40
1.0
 40
1.0
 10
11.334684444
 20
11.1580698721
 30
0.0
 10
11.3346844491
 20
11.1575990879
 30
0.0
 10
11.3346299092
 20
11.15665095
 30
0.0
 10
11.3343850499
 20
11.1552341716
 30
0.0
 10
11.3339777994
 20
11.1538209623
 30
0.0
 10
11.3336056357
 20
11.1528998673
 30
0.0
 10
11.3333951308
 20
11.1524420661
 30
0.0
  0
SPLINE
  5
31E
100
AcDbEntity
  8
0
100
AcDbSpline
 62
7
  6
CONTINUOUS
 70
0
 71
3
 72
62
 73
58
 74
0
 42
0.0000001
 43
0.0000001
 44
0.0000000001
 40
0.0
 40
0.0
 40
0.0
 40
0.0
 40
0.0081223579
 40
0.0169168099
 40
0.0264085661
 40
0.0366142007
 40
0.0475413512
 40
0.0591908961
 40
0.0715582806
 40
0.0846343354
 40
0.0984060926
 40
0.112857108
 40
0.127968089
 40
0.1437171933
 40
0.1600801517
 40
0.1770307303
 40
0.1945407808
 40
0.2125804017
 40
0.2311182285
 40
0.2501214152
 40
0.2893853343
 40
0.3300872433
 40
0.3719261992
 40
0.4145897924
 40
0.4577574111
 40
0.501103531
 40
0.5443008851
 40
0.5870236431
 40
0.6289506447
 40
0.6697685855
 40
0.7091753215
 40
0.7282595067
 40
0.7468844241
 40
0.7650170495
 40
0.7826256534
 40
0.7996801141
 40
0.8161519743
 40
0.832014537
 40
0.8472432748
 40
0.8618158396
 40
0.8757123934
 40
0.888916065
 40
0.9014131219
 40
0.9131936751
 40
0.9242523063
 40
0.9345888025
 40
0.9442095437
 40
0.9531288502
 40
0.9613710605
 40
0.9689733284
 40
0.9759887143
 40
0.9824900824
 40
0.9885734564
 40
0.9914974645
 40
0.9943641586
 40
0.9971919252
 40
1.0
 40
1.0
 40
1.0
 40
1.0
 10
11.4071377774
 20
11.0692892214
 30
0.0
 10
11.4060647298
 20
11.068252737
 30
0.0
 10
11.4037286273
 20
11.0661974694
 30
0.0
 10
11.3998508917
 20
11.0632773457
 30
0.0
 10
11.3954717095
 20
11.0604060625
 30
0.0
 10
11.3905999365
 20
11.0575891596
 30
0.0
 10
11.3852447256
 20
11.0548317111
 30
0.0
 10
11.3794164823
 20
11.052139194
 30
0.0
 10
11.3731266662
 20
11.0495169069
 30
0.0
 10
11.366387729
 20
11.046970082
 30
0.0
 10
11.359213072
 20
11.0445039147
 30
0.0
 10
11.3516170562
 20
11.0421233624
 30
0.0
 10
11.343614915
 20
11.0398332716
 30
0.0
 10
11.3352227306
 20
11.037638332
 30
0.0
 10
11.32645741
 20
11.0355429695
 30
0.0
 10
11.3173366212
 20
11.0335514843
 30
0.0
 10
11.3078787678
 20
11.0316679307
 30
0.0
 10
11.2981029556
 20
11.0298961239
 30
0.0
 10
11.2880289139
 20
11.0282396843
 30
0.0
 10
11.2740742642
 20
11.0261669171
 30
0.0
 10
11.2560352883
 20
11.0238987614
 30
0.0
 10
11.2337672213
 20
11.0217119182
 30
0.0
 10
11.2108278283
 20
11.0200494521
 30
0.0
 10
11.1874025198
 20
11.0189250047
 30
0.0
 10
11.1636804952
 20
11.0183478376
 30
0.0
 10
11.1398534536
 20
11.018322696
 30
0.0
 10
11.1161139351
 20
11.0188497988
 30
0.0
 10
11.09265378
 20
11.0199248087
 30
0.0
 10
11.0696624738
 20
11.0215388541
 30
0.0
 10
11.0473258513
 20
11.0236786901
 30
0.0
 10
11.0292192142
 20
11.0259083627
 30
0.0
 10
11.0152024345
 20
11.0279511203
 30
0.0
 10
11.0050763336
 20
11.0295862276
 30
0.0
 10
10.9952448011
 20
11.0313372932
 30
0.0
 10
10.9857276872
 20
11.0332008159
 30
0.0
 10
10.9765442131
 20
11.0351729744
 30
0.0
 10
10.9677129107
 20
11.0372497389
 30
0.0
 10
10.9592515947
 20
11.0394269182
 30
0.0
 10
10.951177301
 20
11.041700038
 30
0.0
 10
10.9435062694
 20
11.0440644848
 30
0.0
 10
10.9362539003
 20
11.046515474
 30
0.0
 10
10.9294346944
 20
11.0490479868
 30
0.0
 10
10.9230622514
 20
11.0516569468
 30
0.0
 10
10.9171491982
 20
11.0543371046
 30
0.0
 10
10.9117071487
 20
11.0570831039
 30
0.0
 10
10.9067467184
 20
11.059889645
 30
0.0
 10
10.902277415
 20
11.0627513641
 30
0.0
 10
10.8983077018
 20
11.0656630904
 30
0.0
 10
10.8948450793
 20
11.0686200187
 30
0.0
 10
10.8918961568
 20
11.0716176109
 30
0.0
 10
10.8894671666
 20
11.0746523085
 30
0.0
 10
10.8875647161
 20
11.0777199644
 30
0.0
 10
10.8864090545
 20
11.0803363286
 30
0.0
 10
10.8857706298
 20
11.0824239611
 30
0.0
 10
10.8854325926
 20
11.0839724126
 30
0.0
 10
10.8852296252
 20
11.0855227113
 30
0.0
 10
10.8851844663
 20
11.0865584454
 30
0.0
 10
10.8851844674
 20
11.0870742235
 30
0.0
  0
SPLINE
  5
31F
100
AcDbEntity
  8
0
100
AcDbSpline
 62
7
  6
CONTINUOUS
 70
0
 71
3
 72
71
 73
67
 74
0
 42
0.0000001
 43
0.0000001
 44
0.0000000001
 40
0.0
 40
0.0
 40
0.0
 40
0.0
 40
0.0074885549
 40
0.0110030462
 40
0.0143801565
 40
0.0176351669
 40
0.0207853695
 40
0.023850051
 40
0.0268503002
 40
0.0298087451
 40
0.0327491286
 40
0.0356956593
 40
0.0386723925
 40
0.0417025724
 40
0.044808124
 40
0.0513194889
 40
0.0583498677
 40
0.0660046437
 40
0.0700923415
 40
0.0743627428
 40
0.0834726881
 40
0.0933714289
 40
0.1040794158
 40
0.1156058248
 40
0.127951078
 40
0.1411085384
 40
0.1550655736
 40
0.1698046961
 40
0.1853042588
 40
0.2015388241
 40
0.2184798018
 40
0.2360957851
 40
0.2543526837
 40
0.273214165
 40
0.2926418557
 40
0.3125953995
 40
0.3330328086
 40
0.3539106113
 40
0.3751838967
 40
0.4187306751
 40
0.4632942084
 40
0.5084826074
 40
0.5538967515
 40
0.5991349676
 40
0.6437975895
 40
0.6874915591
 40
0.708855959
 40
0.7298362002
 40
0.7503870823
 40
0.7704647634
 40
0.7900268614
 40
0.8090326017
 40
0.8274431095
 40
0.8452215132
 40
0.8623331422
 40
0.8787459133
 40
0.8944304916
 40
0.9093606137
 40
0.9235136697
 40
0.9368710581
 40
0.9494188514
 40
0.9611488916
 40
0.9720596039
 40
0.9821577417
 40
0.9914613741
 40
1.0
 40
1.0
 40
1.0
 40
1.0
 10
10.9099735947
 20
11.1885958846
 30
0.0
 10
10.9090685438
 20
11.1876275549
 30
0.0
 10
10.9078084162
 20
11.1861349621
 30
0.0
 10
10.9063606631
 20
11.1840398045
 30
0.0
 10
10.9054425183
 20
11.1824945052
 30
0.0
 10
10.9046699042
 20
11.1809431449
 30
0.0
 10
10.9040434887
 20
11.1793864473
 30
0.0
 10
10.9035638389
 20
11.1778254017
 30
0.0
 10
10.9032315048
 20
11.1762610374
 30
0.0
 10
10.903047014
 20
11.1746944915
 30
0.0
 10
10.9030105355
 20
11.1731270116
 30
0.0
 10
10.9031221219
 20
11.1715598468
 30
0.0
 10
10.9033816845
 20
11.1699942786
 30
0.0
 10
10.9037888339
 20
11.1684314201
 30
0.0
 10
10.9045393337
 20
11.1663199588
 30
0.0
 10
10.9058707415
 20
11.1636768662
 30
0.0
 10
10.9080235375
 20
11.1605919915
 30
0.0
 10
10.9102433526
 20
11.1581098986
 30
0.0
 10
10.9122847751
 20
11.1561427976
 30
0.0
 10
10.9146093235
 20
11.1541027351
 30
0.0
 10
10.91788001
 20
11.1515891796
 30
0.0
 10
10.9222716478
 20
11.1486882154
 30
0.0
 10
10.9272016954
 20
11.1458464062
 30
0.0
 10
10.9326588494
 20
11.1430700453
 30
0.0
 10
10.9386308678
 20
11.1403653853
 30
0.0
 10
10.9451040472
 20
11.1377387481
 30
0.0
 10
10.9520633965
 20
11.135196267
 30
0.0
 10
10.959492697
 20
11.1327439721
 30
0.0
 10
10.9673745602
 20
11.1303877289
 30
0.0
 10
10.9756904547
 20
11.1281331239
 30
0.0
 10
10.9844207942
 20
11.1259855446
 30
0.0
 10
10.9935449864
 20
11.1239501491
 30
0.0
 10
11.0030414697
 20
11.1220317708
 30
0.0
 10
11.0128877903
 20
11.1202349953
 30
0.0
 10
11.0230606554
 20
11.1185641397
 30
0.0
 10
11.0335359806
 20
11.1170231652
 30
0.0
 10
11.0442889536
 20
11.115615758
 30
0.0
 10
11.0552941274
 20
11.1143452782
 30
0.0
 10
11.070386395
 20
11.1128261901
 30
0.0
 10
11.0896889741
 20
11.1112976604
 30
0.0
 10
11.1132523411
 20
11.1100615207
 30
0.0
 10
11.1371700762
 20
11.1094216575
 30
0.0
 10
11.1612156774
 20
11.1093841882
 30
0.0
 10
11.1851616454
 20
11.1099494751
 30
0.0
 10
11.2087812085
 20
11.1111121204
 30
0.0
 10
11.2281483528
 20
11.1125800187
 30
0.0
 10
11.2433059363
 20
11.1140513788
 30
0.0
 10
11.2543697121
 20
11.1152873739
 30
0.0
 10
11.2651877081
 20
11.1166610803
 30
0.0
 10
11.2757343218
 20
11.1181692177
 30
0.0
 10
11.2859845697
 20
11.1198081794
 30
0.0
 10
11.2959141822
 20
11.1215740802
 30
0.0
 10
11.3054996663
 20
11.1234626768
 30
0.0
 10
11.3147183529
 20
11.1254694556
 30
0.0
 10
11.3235484525
 20
11.1275896511
 30
0.0
 10
11.3319691301
 20
11.1298181703
 30
0.0
 10
11.3399605424
 20
11.1321496878
 30
0.0
 10
11.3475038895
 20
11.1345786731
 30
0.0
 10
11.3545814969
 20
11.1370993126
 30
0.0
 10
11.3611768496
 20
11.1397056215
 30
0.0
 10
11.3672746408
 20
11.1423914892
 30
0.0
 10
11.3728608674
 20
11.1451506513
 30
0.0
 10
11.3779227993
 20
11.1479767368
 30
0.0
 10
11.3824493561
 20
11.1508637302
 30
0.0
 10
11.3864299387
 20
11.153805157
 30
0.0
 10
11.3888129438
 20
11.15588507
 30
0.0
 10
11.3898999481
 20
11.1569350355
 30
0.0
  0
SPLINE
  5
320
100
AcDbEntity
  8
0
100
AcDbSpline
 62
7
  6
CONTINUOUS
 70
0
 71
3
 72
17
 73
13
 74
0
 42
0.0000001
 43
0.0000001
 44
0.0000000001
 40
0.0
 40
0.0
 40
0.0
 40
0.0
 40
0.1287374904
 40
0.2566350148
 40
0.3833967131
 40
0.5088571848
 40
0.6330045819
 40
0.7559866856
 40
0.8171916256
 40
0.878225658
 40
0.9391426739
 40
1.0
 40
1.0
 40
1.0
 40
1.0
 10
10.9802569121
 20
11.4164489103
 30
0.0
 10
10.9796294477
 20
11.4156570078
 30
0.0
 10
10.9785059315
 20
11.4139723544
 30
0.0
 10
10.9772674627
 20
11.4112153815
 30
0.0
 10
10.9765149206
 20
11.4083135488
 30
0.0
 10
10.976272465
 20
11.4053546838
 30
0.0
 10
10.9765479124
 20
11.4024284241
 30
0.0
 10
10.9772052267
 20
11.4000844914
 30
0.0
 10
10.9779741538
 20
11.3983178033
 30
0.0
 10
10.9786670577
 20
11.3970559419
 30
0.0
 10
10.97947161
 20
11.3958657235
 30
0.0
 10
10.9800787099
 20
11.3951255165
 30
0.0
 10
10.9803983599
 20
11.3947706294
 30
0.0
  0
SPLINE
  5
321
100
AcDbEntity
  8
0
100
AcDbSpline
 62
7
  6
CONTINUOUS
 70
0
 71
3
 72
11
 73
7
 74
0
 42
0.0000001
 43
0.0000001
 44
0.0000000001
 40
0.0
 40
0.0
 40
0.0
 40
0.0
 40
0.259809977
 40
0.5113166432
 40
0.7571130479
 40
1.0
 40
1.0
 40
1.0
 40
1.0
 10
10.9679614871
 20
11.1524688827
 30
0.0
 10
10.9677529584
 20
11.152924605
 30
0.0
 10
10.9673843076
 20
11.1538414705
 30
0.0
 10
10.9669809235
 20
11.155247892
 30
0.0
 10
10.9667384951
 20
11.1566578383
 30
0.0
 10
10.9666844718
 20
11.1576013504
 30
0.0
 10
10.9666844667
 20
11.1580698721
 30
0.0
  0
SPLINE
  5
322
100
AcDbEntity
  8
0
100
AcDbSpline
 62
7
  6
CONTINUOUS
 70
0
 71
3
 72
63
 73
59
 74
0
 42
0.0000001
 43
0.0000001
 44
0.0000000001
 40
0.0
 40
0.0
 40
0.0
 40
0.0
 40
0.0028080624
 40
0.0056358196
 40
0.0085025067
 40
0.0114265098
 40
0.0144250775
 40
0.0175140353
 40
0.0240154024
 40
0.0310307909
 40
0.0386330598
 40
0.0468752703
 40
0.0557945774
 40
0.0654153137
 40
0.0757518004
 40
0.0868104217
 40
0.0985909587
 40
0.111087992
 40
0.1242916394
 40
0.1381881636
 40
0.1527606899
 40
0.1679893876
 40
0.1838519068
 40
0.2003237139
 40
0.2173781188
 40
0.2349866651
 40
0.2531192245
 40
0.2717440715
 40
0.2908281854
 40
0.3302347615
 40
0.3710525308
 40
0.4129793457
 40
0.4557019093
 40
0.4988990572
 40
0.5422449681
 40
0.5854123731
 40
0.6280757476
 40
0.6699144928
 40
0.7106161871
 40
0.7498798997
 40
0.7688829853
 40
0.7874207173
 40
0.8054602401
 40
0.8229701954
 40
0.8399206867
 40
0.856283557
 40
0.8720325749
 40
0.8871434775
 40
0.9015944165
 40
0.9153660985
 40
0.9284420852
 40
0.9408094058
 40
0.9524588886
 40
0.9633859827
 40
0.9735915659
 40
0.9830832737
 40
0.9918776816
 40
1.0
 40
1.0
 40
1.0
 40
1.0
 10
10.8796844675
 20
10.8721554953
 30
0.0
 10
10.8796844727
 20
10.8716290329
 30
0.0
 10
10.879730578
 20
10.8705718459
 30
0.0
 10
10.8799377768
 20
10.8689894231
 30
0.0
 10
10.8802828045
 20
10.8674089357
 30
0.0
 10
10.8807652952
 20
10.8658314952
 30
0.0
 10
10.8813849131
 20
10.8642579174
 30
0.0
 10
10.882410449
 20
10.8621301349
 30
0.0
 10
10.8840561621
 20
10.8594758826
 30
0.0
 10
10.8865353279
 20
10.8563788278
 30
0.0
 10
10.8895454213
 20
10.8533189924
 30
0.0
 10
10.893079787
 20
10.8503008615
 30
0.0
 10
10.897131767
 20
10.8473288093
 30
0.0
 10
10.9016936785
 20
10.8444078181
 30
0.0
 10
10.9067568913
 20
10.8415431431
 30
0.0
 10
10.9123116984
 20
10.838740266
 30
0.0
 10
10.9183472645
 20
10.8360045935
 30
0.0
 10
10.9248517352
 20
10.8333415944
 30
0.0
 10
10.9318122224
 20
10.8307566263
 30
0.0
 10
10.9392148441
 20
10.8282548703
 30
0.0
 10
10.9470447993
 20
10.8258414499
 30
0.0
 10
10.9552863689
 20
10.8235212485
 30
0.0
 10
10.9639229766
 20
10.8212989747
 30
0.0
 10
10.9729372332
 20
10.8191791961
 30
0.0
 10
10.9823109554
 20
10.8171661906
 30
0.0
 10
10.9920252276
 20
10.8152640711
 30
0.0
 10
11.0020604299
 20
10.8134767383
 30
0.0
 10
11.012396301
 20
10.811807766
 30
0.0
 10
11.0267034466
 20
10.809722701
 30
0.0
 10
11.0451851702
 20
10.8074468508
 30
0.0
 10
11.0679845004
 20
10.8052626996
 30
0.0
 10
11.0914520719
 20
10.8036152302
 30
0.0
 10
11.1153981998
 20
10.8025179618
 30
0.0
 10
11.1396294747
 20
10.8019799497
 30
0.0
 10
11.1639500823
 20
10.8020056208
 30
0.0
 10
11.1881634946
 20
10.802594752
 30
0.0
 10
11.2120740424
 20
10.8037424992
 30
0.0
 10
11.2354886068
 20
10.8054394092
 30
0.0
 10
11.258217938
 20
10.807671558
 30
0.0
 10
11.2766305742
 20
10.8099867016
 30
0.0
 10
11.2908742819
 20
10.8121024086
 30
0.0
 10
11.3011569976
 20
10.8137931627
 30
0.0
 10
11.311135306
 20
10.8156016734
 30
0.0
 10
11.3207890689
 20
10.8175242458
 30
0.0
 10
11.3300987856
 20
10.8195569854
 30
0.0
 10
11.3390456709
 20
10.8216957536
 30
0.0
 10
11.3476116905
 20
10.8239361616
 30
0.0
 10
11.3557795877
 20
10.8262736918
 30
0.0
 10
11.3635329473
 20
10.8287035569
 30
0.0
 10
11.3708562198
 20
10.8312208106
 30
0.0
 10
11.3777347473
 20
10.8338203925
 30
0.0
 10
11.3841548509
 20
10.8364969995
 30
0.0
 10
11.3901038206
 20
10.8392452913
 30
0.0
 10
11.3955699597
 20
10.8420598594
 30
0.0
 10
11.4005426474
 20
10.8449351133
 30
0.0
 10
11.4050125409
 20
10.8478658739
 30
0.0
 10
11.408970601
 20
10.8508464868
 30
0.0
 10
11.4113550945
 20
10.8529443281
 30
0.0
 10
11.4124503698
 20
10.8540022828
 30
0.0
  0
SPLINE
  5
323
100
AcDbEntity
  8
0
100
AcDbSpline
 62
7
  6
CONTINUOUS
 70
0
 71
3
 72
11
 73
7
 74
0
 42
0.0000001
 43
0.0000001
 44
0.0000000001
 40
0.0
 40
0.0
 40
0.0
 40
0.0
 40
0.2353556543
 40
0.4802220487
 40
0.7349933067
 40
1.0
 40
1.0
 40
1.0
 40
1.0
 10
10.5316572391
 20
10.3096854299
 30
0.0
 10
10.5326825313
 20
10.3084861467
 30
0.0
 10
10.5348391212
 20
10.3060937152
 30
0.0
 10
10.5383097483
 20
10.3025937579
 30
0.0
 10
10.5420767419
 20
10.2991148937
 30
0.0
 10
10.5447313069
 20
10.2968559749
 30
0.0
 10
10.5461052873
 20
10.2957297108
 30
0.0
  0
SPLINE
  5
324
100
AcDbEntity
  8
0
100
AcDbSpline
 62
7
  6
CONTINUOUS
 70
0
 71
3
 72
56
 73
52
 74
0
 42
0.0000001
 43
0.0000001
 44
0.0000000001
 40
0.0
 40
0.0
 40
0.0
 40
0.0
 40
0.0452926219
 40
0.0911392095
 40
0.1373554063
 40
0.1837553099
 40
0.2301518383
 40
0.2763579802
 40
0.3221877546
 40
0.3674571003
 40
0.4119849
 40
0.4555940347
 40
0.4981122804
 40
0.5393734359
 40
0.5792184125
 40
0.6174963144
 40
0.6540657931
 40
0.671669127
 40
0.6887974223
 40
0.7054363541
 40
0.7215725065
 40
0.7371934705
 40
0.7522878757
 40
0.7668455503
 40
0.780857558
 40
0.7943164428
 40
0.807216262
 40
0.8195529369
 40
0.8313243101
 40
0.8425306281
 40
0.8531746939
 40
0.8632625457
 40
0.8728037504
 40
0.8818123378
 40
0.8903073375
 40
0.8983140194
 40
0.9058647129
 40
0.9130002519
 40
0.9197707934
 40
0.9262368162
 40
0.9324689627
 40
0.9385471742
 40
0.9445581646
 40
0.9505918644
 40
0.9567371202
 40
0.9630775847
 40
0.9696887794
 40
0.9766362161
 40
0.9839751867
 40
0.991750949
 40
1.0
 40
1.0
 40
1.0
 40
1.0
 10
11.0380982636
 20
10.7634058939
 30
0.0
 10
11.0473755447
 20
10.7627625123
 30
0.0
 10
11.0660557992
 20
10.7616383316
 30
0.0
 10
11.0942337433
 20
10.7604400529
 30
0.0
 10
11.1226555111
 20
10.7597224925
 30
0.0
 10
11.1511982507
 20
10.7594887775
 30
0.0
 10
11.1797387851
 20
10.7597399304
 30
0.0
 10
11.2081538772
 20
10.7604748535
 30
0.0
 10
11.2363208574
 20
10.7616903445
 30
0.0
 10
11.2641181318
 20
10.7633811029
 30
0.0
 10
11.2914257202
 20
10.7655397544
 30
0.0
 10
11.3181257755
 20
10.768156881
 30
0.0
 10
11.3441031134
 20
10.7712210573
 30
0.0
 10
11.3692456928
 20
10.7747189029
 30
0.0
 10
11.393445198
 20
10.7786351198
 30
0.0
 10
11.416597245
 20
10.7829526177
 30
0.0
 10
11.435163337
 20
10.7869177875
 30
0.0
 10
11.4494104608
 20
10.7902872411
 30
0.0
 10
11.4596371836
 20
10.7928704805
 30
0.0
 10
11.4695302867
 20
10.7955391329
 30
0.0
 10
11.4790791247
 20
10.7982903449
 30
0.0
 10
11.4882734197
 20
10.801121113
 30
0.0
 10
11.4971032815
 20
10.8040283943
 30
0.0
 10
11.5055592267
 20
10.8070090147
 30
0.0
 10
11.5136321748
 20
10.8100597854
 30
0.0
 10
11.5213134868
 20
10.813177373
 30
0.0
 10
11.528594943
 20
10.8163584694
 30
0.0
 10
11.5354687993
 20
10.8195996095
 30
0.0
 10
11.5419277368
 20
10.8228973975
 30
0.0
 10
11.547964948
 20
10.826248272
 30
0.0
 10
11.5535740472
 20
10.829648802
 30
0.0
 10
11.5587492027
 20
10.8330953941
 30
0.0
 10
11.5634849756
 20
10.8365846654
 30
0.0
 10
11.5677765042
 20
10.8401130954
 30
0.0
 10
11.5716192274
 20
10.843677467
 30
0.0
 10
11.57500913
 20
10.8472744607
 30
0.0
 10
11.5779422792
 20
10.8509011206
 30
0.0
 10
11.5804151443
 20
10.8545543406
 30
0.0
 10
11.582423925
 20
10.8582311928
 30
0.0
 10
11.5839650954
 20
10.8619282093
 30
0.0
 10
11.5850347918
 20
10.8656414213
 30
0.0
 10
11.5856300249
 20
10.8693656891
 30
0.0
 10
11.5857484242
 20
10.8730949492
 30
0.0
 10
11.5853897805
 20
10.8768225199
 30
0.0
 10
11.5845551953
 20
10.8805419044
 30
0.0
 10
11.583247677
 20
10.8842475502
 30
0.0
 10
11.5814704971
 20
10.8879348383
 30
0.0
 10
11.5792275955
 20
10.8916002094
 30
0.0
 10
11.5765224074
 20
10.895240416
 30
0.0
 10
11.5733589234
 20
10.8988524417
 30
0.0
 10
11.5710182056
 20
10.9011688499
 30
0.0
 10
11.5697783326
 20
10.9023226996
 30
0.0
  0
SPLINE
  5
325
100
AcDbEntity
  8
0
100
AcDbSpline
 62
7
  6
CONTINUOUS
 70
0
 71
3
 72
47
 73
43
 74
0
 42
0.0000001
 43
0.0000001
 44
0.0000000001
 40
0.0
 40
0.0
 40
0.0
 40
0.0
 40
0.0099875862
 40
0.0204479052
 40
0.0313775199
 40
0.0427711688
 40
0.0546223854
 40
0.0669232272
 40
0.0796648155
 40
0.0928370497
 40
0.1204280031
 40
0.1495994345
 40
0.1802416891
 40
0.2122348079
 40
0.2454499684
 40
0.2797506337
 40
0.3149936966
 40
0.3510304642
 40
0.387707658
 40
0.424868348
 40
0.4623528741
 40
0.4999997774
 40
0.5376466786
 40
0.5751312169
 40
0.6122919171
 40
0.6489691299
 40
0.6850059201
 40
0.7202490052
 40
0.7545497025
 40
0.7877648859
 40
0.8197580418
 40
0.8504003201
 40
0.8795717917
 40
0.9071627728
 40
0.920335049
 40
0.9330766387
 40
0.9453775339
 40
0.9572287329
 40
0.9686224436
 40
0.9795520438
 40
0.9900124428
 40
1.0
 40
1.0
 40
1.0
 40
1.0
 10
11.3907315269
 20
10.8695475495
 30
0.0
 10
11.3892712755
 20
10.8688262143
 30
0.0
 10
11.3862567136
 20
10.8673994836
 30
0.0
 10
11.3815680211
 20
10.8653490144
 30
0.0
 10
11.3766127479
 20
10.8633408818
 30
0.0
 10
11.3713966429
 20
10.8613773417
 30
0.0
 10
11.3659256448
 20
10.8594607437
 30
0.0
 10
11.360206056
 20
10.8575932261
 30
0.0
 10
11.3542444303
 20
10.8557770068
 30
0.0
 10
11.3458518342
 20
10.8533895822
 30
0.0
 10
11.3348017466
 20
10.8505597571
 30
0.0
 10
11.3208898437
 20
10.8474501355
 30
0.0
 10
11.3061924457
 20
10.8445909712
 30
0.0
 10
11.2907773043
 20
10.8419956258
 30
0.0
 10
11.2747153695
 20
10.8396762714
 30
0.0
 10
11.2580807041
 20
10.8376437607
 30
0.0
 10
11.2409500504
 20
10.8359076041
 30
0.0
 10
11.2234024797
 20
10.8344759162
 30
0.0
 10
11.2055190143
 20
10.8333553877
 30
0.0
 10
11.1873822465
 20
10.8325512507
 30
0.0
 10
11.1690759499
 20
10.8320672606
 30
0.0
 10
11.150684691
 20
10.8319056758
 30
0.0
 10
11.1322934301
 20
10.8320672512
 30
0.0
 10
11.11398713
 20
10.8325512322
 30
0.0
 10
11.095850355
 20
10.8333553601
 30
0.0
 10
11.0779668806
 20
10.8344758802
 30
0.0
 10
11.0604192988
 20
10.8359075596
 30
0.0
 10
11.0432886318
 20
10.8376437089
 30
0.0
 10
11.0266539527
 20
10.8396762121
 30
0.0
 10
11.0105920019
 20
10.8419955606
 30
0.0
 10
10.9951768455
 20
10.8445908995
 30
0.0
 10
10.98047943
 20
10.8474500596
 30
0.0
 10
10.9665675096
 20
10.8505596723
 30
0.0
 10
10.9555174056
 20
10.8533895041
 30
0.0
 10
10.9471247909
 20
10.8557769062
 30
0.0
 10
10.9411631547
 20
10.8575931448
 30
0.0
 10
10.9354435496
 20
10.8594606327
 30
0.0
 10
10.929972545
 20
10.8613772595
 30
0.0
 10
10.92475642
 20
10.8633407608
 30
0.0
 10
10.9198011399
 20
10.8653489311
 30
0.0
 10
10.9151124231
 20
10.8673993597
 30
0.0
 10
10.9120978628
 20
10.8688261136
 30
0.0
 10
10.9106376146
 20
10.8695474447
 30
0.0
  0
SPLINE
  5
326
100
AcDbEntity
  8
0
100
AcDbSpline
 62
7
  6
CONTINUOUS
 70
0
 71
3
 72
52
 73
48
 74
0
 42
0.0000001
 43
0.0000001
 44
0.0000000001
 40
0.0
 40
0.0
 40
0.0
 40
0.0
 40
0.0417979847
 40
0.0840612649
 40
0.1266597831
 40
0.1694644218
 40
0.2123439084
 40
0.2551672037
 40
0.2978033202
 40
0.3401220844
 40
0.3819945192
 40
0.4232934576
 40
0.4638940605
 40
0.5036742901
 40
0.5425155349
 40
0.580303146
 40
0.6169269932
 40
0.6522821388
 40
0.6862695151
 40
0.7187966242
 40
0.7497784458
 40
0.7646660204
 40
0.7791393811
 40
0.7931904234
 40
0.8068118629
 40
0.819997111
 40
0.832740422
 40
0.8450370034
 40
0.8568829642
 40
0.8682756655
 40
0.8792135358
 40
0.8896965874
 40
0.8997262457
 40
0.9093058756
 40
0.918440823
 40
0.9271388621
 40
0.9354105659
 40
0.9432696591
 40
0.9507337335
 40
0.9578245673
 40
0.9645690349
 40
0.9709994301
 40
0.9771542126
 40
0.9830780982
 40
0.9888220315
 40
0.9944424602
 40
1.0
 40
1.0
 40
1.0
 40
1.0
 10
11.0220514961
 20
10.688018501
 30
0.0
 10
11.0312762079
 20
10.6873787651
 30
0.0
 10
11.0498388559
 20
10.6862396455
 30
0.0
 10
11.0778310148
 20
10.6849539993
 30
0.0
 10
11.106062043
 20
10.6840844939
 30
0.0
 10
11.1344391688
 20
10.6836339583
 30
0.0
 10
11.1628695819
 20
10.6836039106
 30
0.0
 10
11.191260046
 20
10.6839944306
 30
0.0
 10
11.2195175611
 20
10.6848042396
 30
0.0
 10
11.2475495292
 20
10.6860306601
 30
0.0
 10
11.275264106
 20
10.6876696459
 30
0.0
 10
11.3025704918
 20
10.6897157853
 30
0.0
 10
11.329379236
 20
10.69216232
 30
0.0
 10
11.3556025352
 20
10.6950011656
 30
0.0
 10
11.3811545223
 20
10.6982229388
 30
0.0
 10
11.4059515549
 20
10.7018169874
 30
0.0
 10
11.4299125003
 20
10.705771421
 30
0.0
 10
11.4529589904
 20
10.7100731565
 30
0.0
 10
11.4750157746
 20
10.7147079421
 30
0.0
 10
11.4960106923
 20
10.71966046
 30
0.0
 10
11.5127802068
 20
10.7240954705
 30
0.0
 10
11.5256057391
 20
10.7278004385
 30
0.0
 10
11.5347895777
 20
10.7306112883
 30
0.0
 10
11.5436587061
 20
10.7334889255
 30
0.0
 10
11.5522058976
 20
10.7364309709
 30
0.0
 10
11.5604241759
 20
10.7394350207
 30
0.0
 10
11.5683068406
 20
10.7424986292
 30
0.0
 10
11.5758474875
 20
10.7456192419
 30
0.0
 10
11.5830399689
 20
10.7487943856
 30
0.0
 10
11.5898784773
 20
10.7520213731
 30
0.0
 10
11.5963574439
 20
10.755297696
 30
0.0
 10
11.6024716774
 20
10.7586205956
 30
0.0
 10
11.6082162255
 20
10.7619875035
 30
0.0
 10
11.6135865112
 20
10.7653956695
 30
0.0
 10
11.6185782304
 20
10.7688424532
 30
0.0
 10
11.6231873988
 20
10.7723251923
 30
0.0
 10
11.6274103775
 20
10.7758412031
 30
0.0
 10
11.6312437244
 20
10.7793879741
 30
0.0
 10
11.6346844173
 20
10.7829628547
 30
0.0
 10
11.6377294507
 20
10.7865634944
 30
0.0
 10
11.6403762408
 20
10.7901873343
 30
0.0
 10
11.642622051
 20
10.7938320513
 30
0.0
 10
11.6444644466
 20
10.7974950528
 30
0.0
 10
11.6459008673
 20
10.8011735871
 30
0.0
 10
11.6469289749
 20
10.8048646494
 30
0.0
 10
11.6475468099
 20
10.8085639597
 30
0.0
 10
11.6476844321
 20
10.8110389772
 30
0.0
 10
11.6476844344
 20
10.8122684584
 30
0.0
  0
SPLINE
  5
327
100
AcDbEntity
  8
0
100
AcDbSpline
 62
7
  6
CONTINUOUS
 70
0
 71
3
 72
15
 73
11
 74
0
 42
0.0000001
 43
0.0000001
 44
0.0000000001
 40
0.0
 40
0.0
 40
0.0
 40
0.0
 40
0.1098906142
 40
0.2214018168
 40
0.3360754298
 40
0.4553198489
 40
0.5803745049
 40
0.7122969731
 40
0.8519482966
 40
1.0
 40
1.0
 40
1.0
 40
1.0
 10
11.3346844437
 20
11.3976190364
 30
0.0
 10
11.3346844303
 20
11.3970986264
 30
0.0
 10
11.3346175723
 20
11.3960489543
 30
0.0
 10
11.3343178279
 20
11.3944820012
 30
0.0
 10
11.3338195707
 20
11.3929199678
 30
0.0
 10
11.3331240562
 20
11.3913652201
 30
0.0
 10
11.3322328709
 20
11.389819208
 30
0.0
 10
11.3311474496
 20
11.3882833217
 30
0.0
 10
11.3298694985
 20
11.3867589943
 30
0.0
 10
11.3289191087
 20
11.3857809563
 30
0.0
 10
11.3284148179
 20
11.3852938487
 30
0.0
  0
SPLINE
  5
328
100
AcDbEntity
  8
0
100
AcDbSpline
 62
7
  6
CONTINUOUS
 70
0
 71
3
 72
15
 73
11
 74
0
 42
0.0000001
 43
0.0000001
 44
0.0000000001
 40
0.0
 40
0.0
 40
0.0
 40
0.0
 40
0.134983681
 40
0.2655173795
 40
0.3924559875
 40
0.5166294064
 40
0.6388132256
 40
0.7597087297
 40
0.8799312555
 40
1.0
 40
1.0
 40
1.0
 40
1.0
 10
10.8955986931
 20
10.8769763936
 30
0.0
 10
10.8966637266
 20
10.8764506744
 30
0.0
 10
10.8987962113
 20
10.8754903181
 30
0.0
 10
10.9020446177
 20
10.8743096085
 30
0.0
 10
10.9052815014
 20
10.8734034034
 30
0.0
 10
10.9085053115
 20
10.8727584336
 30
0.0
 10
10.9117150728
 20
10.8723606196
 30
0.0
 10
10.914910136
 20
10.8721954934
 30
0.0
 10
10.9180900111
 20
10.8722485168
 30
0.0
 10
10.9201989819
 20
10.8724197612
 30
0.0
 10
10.9212489668
 20
10.872536756
 30
0.0
  0
SPLINE
  5
329
100
AcDbEntity
  8
0
100
AcDbSpline
 62
7
  6
CONTINUOUS
 70
0
 71
3
 72
11
 73
7
 74
0
 42
0.0000001
 43
0.0000001
 44
0.0000000001
 40
0.0
 40
0.0
 40
0.0
 40
0.0
 40
0.2466535509
 40
0.4946601618
 40
0.7453484563
 40
1.0
 40
1.0
 40
1.0
 40
1.0
 10
10.8796844675
 20
11.1136372815
 30
0.0
 10
10.879684464
 20
11.1131720116
 30
0.0
 10
10.8797204059
 20
11.1122385282
 30
0.0
 10
10.8798820458
 20
11.1108405647
 30
0.0
 10
10.8801512729
 20
11.1094439457
 30
0.0
 10
10.8804000528
 20
11.1085227438
 30
0.0
 10
10.8805414432
 20
11.1080636672
 30
0.0
  0
SPLINE
  5
32A
100
AcDbEntity
  8
0
100
AcDbSpline
 62
7
  6
CONTINUOUS
 70
0
 71
3
 72
60
 73
56
 74
0
 42
0.0000001
 43
0.0000001
 44
0.0000000001
 40
0.0
 40
0.0
 40
0.0
 40
0.0
 40
0.0029083125
 40
0.0058957076
 40
0.0121590036
 40
0.0188893484
 40
0.0261605298
 40
0.034027527
 40
0.0425297104
 40
0.0516938601
 40
0.0615369347
 40
0.0720678076
 40
0.0832889989
 40
0.0951978067
 40
0.107787025
 40
0.1210458794
 40
0.1349603007
 40
0.1495134458
 40
0.1646860925
 40
0.1804566906
 40
0.1968018321
 40
0.2136962738
 40
0.2311131172
 40
0.2490240787
 40
0.2673994177
 40
0.3054175507
 40
0.3449084405
 40
0.3855973185
 40
0.4271978853
 40
0.4694152289
 40
0.5119487028
 40
0.5544947496
 40
0.5967496918
 40
0.6384125333
 40
0.6791877927
 40
0.7187883473
 40
0.7569383487
 40
0.775387529
 40
0.7933773664
 40
0.8108779303
 40
0.8278606412
 40
0.8442984259
 40
0.8601657005
 40
0.8754387595
 40
0.8900957677
 40
0.9041170266
 40
0.9174853546
 40
0.9301861561
 40
0.9422080596
 40
0.9535433092
 40
0.964188337
 40
0.9741446628
 40
0.9834201045
 40
0.9920306307
 40
1.0
 40
1.0
 40
1.0
 40
1.0
 10
10.8805414432
 20
11.1080636672
 30
0.0
 10
10.8807003223
 20
11.1075478067
 30
0.0
 10
10.8810637098
 20
11.106514327
 30
0.0
 10
10.8819684133
 20
11.1044451422
 30
0.0
 10
10.8834433023
 20
11.1018608148
 30
0.0
 10
10.8856958402
 20
11.098839395
 30
0.0
 10
10.8884524122
 20
11.0958516778
 30
0.0
 10
10.8917070505
 20
11.0929018863
 30
0.0
 10
10.8954537628
 20
11.0899938796
 30
0.0
 10
10.899685788
 20
11.0871321406
 30
0.0
 10
10.9043955985
 20
11.0843215224
 30
0.0
 10
10.9095746322
 20
11.0815669415
 30
0.0
 10
10.9152134001
 20
11.078873443
 30
0.0
 10
10.921301459
 20
11.0762460906
 30
0.0
 10
10.9278274105
 20
11.0736897907
 30
0.0
 10
10.9347789959
 20
11.0712094706
 30
0.0
 10
10.942143074
 20
11.0688098528
 30
0.0
 10
10.9499056854
 20
11.06649553
 30
0.0
 10
10.9580520888
 20
11.0642709983
 30
0.0
 10
10.9665667719
 20
11.0621404861
 30
0.0
 10
10.9754335117
 20
11.0601081298
 30
0.0
 10
10.9846353953
 20
11.0581778393
 30
0.0
 10
10.9941548509
 20
11.056353309
 30
0.0
 10
11.0039737164
 20
11.0546380696
 30
0.0
 10
11.0175944115
 20
11.0524767378
 30
0.0
 10
11.035231112
 20
11.0500825895
 30
0.0
 10
11.0570433657
 20
11.0477227465
 30
0.0
 10
11.0795710687
 20
11.0458629961
 30
0.0
 10
11.1026420603
 20
11.0445177711
 30
0.0
 10
11.1260801587
 20
11.0436975468
 30
0.0
 10
11.1497062692
 20
11.0434086903
 30
0.0
 10
11.1733398546
 20
11.0436534482
 30
0.0
 10
11.1968003187
 20
11.0444299226
 30
0.0
 10
11.2199083947
 20
11.0457320852
 30
0.0
 10
11.2424876138
 20
11.0475497831
 30
0.0
 10
11.2643654158
 20
11.0498689189
 30
0.0
 10
11.2820656294
 20
11.0522297603
 30
0.0
 10
11.2957438653
 20
11.0543651806
 30
0.0
 10
11.3056104493
 20
11.0560620271
 30
0.0
 10
11.3151806886
 20
11.057868707
 30
0.0
 10
11.3244363193
 20
11.0597817734
 30
0.0
 10
11.3333596692
 20
11.0617975031
 30
0.0
 10
11.3419337109
 20
11.0639120653
 30
0.0
 10
11.3501421063
 20
11.0661213471
 30
0.0
 10
11.357969228
 20
11.0684211079
 30
0.0
 10
11.3654001953
 20
11.0708069497
 30
0.0
 10
11.3724209267
 20
11.0732742393
 30
0.0
 10
11.3790181366
 20
11.0758183051
 30
0.0
 10
11.3851794168
 20
11.0784342614
 30
0.0
 10
11.3908932439
 20
11.0811171449
 30
0.0
 10
11.3961489768
 20
11.0838620015
 30
0.0
 10
11.4009369659
 20
11.0866636571
 30
0.0
 10
11.4052486918
 20
11.089517351
 30
0.0
 10
11.4090758687
 20
11.0924178673
 30
0.0
 10
11.4113865293
 20
11.0944561626
 30
0.0
 10
11.4124503698
 20
11.0954837537
 30
0.0
  0
SPLINE
  5
32B
100
AcDbEntity
  8
0
100
AcDbSpline
 62
7
  6
CONTINUOUS
 70
0
 71
3
 72
13
 73
9
 74
0
 42
0.0000001
 43
0.0000001
 44
0.0000000001
 40
0.0
 40
0.0
 40
0.0
 40
0.0
 40
0.1107300577
 40
0.2268167239
 40
0.3474990602
 40
0.4721262276
 40
0.7310287757
 40
1.0
 40
1.0
 40
1.0
 40
1.0
 10
11.2224151394
 20
11.6384541159
 30
0.0
 10
11.222112802
 20
11.6392515788
 30
0.0
 10
11.2215194248
 20
11.6408949707
 30
0.0
 10
11.2206736066
 20
11.6434344841
 30
0.0
 10
11.2198482467
 20
11.6460929785
 30
0.0
 10
11.2187603746
 20
11.6498211261
 30
0.0
 10
11.2174570615
 20
11.6546753866
 30
0.0
 10
11.2164842201
 20
11.6586232294
 30
0.0
 10
11.2160041674
 20
11.6606384777
 30
0.0
  0
SPLINE
  5
32C
100
AcDbEntity
  8
0
100
AcDbSpline
 62
7
  6
CONTINUOUS
 70
0
 71
3
 72
15
 73
11
 74
0
 42
0.0000001
 43
0.0000001
 44
0.0000000001
 40
0.0
 40
0.0
 40
0.0
 40
0.0
 40
0.1236310991
 40
0.2479193042
 40
0.3727016868
 40
0.4978315847
 40
0.6231967038
 40
0.7487136968
 40
0.8743315209
 40
1.0
 40
1.0
 40
1.0
 40
1.0
 10
11.1627369694
 20
11.644463562
 30
0.0
 10
11.1610320764
 20
11.6449104095
 30
0.0
 10
11.1576585365
 20
11.6459876137
 30
0.0
 10
11.1527645021
 20
11.6480721192
 30
0.0
 10
11.1480368929
 20
11.6505543608
 30
0.0
 10
11.1434794681
 20
11.6533631669
 30
0.0
 10
11.1390853149
 20
11.656437686
 30
0.0
 10
11.1348425851
 20
11.6597281963
 30
0.0
 10
11.1307377255
 20
11.6631950206
 30
0.0
 10
11.1280841257
 20
11.6656026722
 30
0.0
 10
11.1267757563
 20
11.6668264891
 30
0.0
  0
SPLINE
  5
32D
100
AcDbEntity
  8
0
100
AcDbSpline
 62
7
  6
CONTINUOUS
 70
0
 71
3
 72
14
 73
10
 74
0
 42
0.0000001
 43
0.0000001
 44
0.0000000001
 40
0.0
 40
0.0
 40
0.0
 40
0.0
 40
0.1216361405
 40
0.2439923157
 40
0.3672890307
 40
0.4916482017
 40
0.6171110821
 40
0.7436904486
 40
1.0
 40
1.0
 40
1.0
 40
1.0
 10
11.0794625738
 20
11.6382929391
 30
0.0
 10
11.0786324756
 20
11.6385706004
 30
0.0
 10
11.0769904123
 20
11.6391985751
 30
0.0
 10
11.0745978619
 20
11.6403264515
 30
0.0
 10
11.072267959
 20
11.6416188994
 30
0.0
 10
11.0699980663
 20
11.6430554357
 30
0.0
 10
11.0677841096
 20
11.6446176844
 30
0.0
 10
11.064890519
 20
11.6468571978
 30
0.0
 10
11.0628105814
 20
11.6486686548
 30
0.0
 10
11.0614560443
 20
11.64992051
 30
0.0
  0
SPLINE
  5
32E
100
AcDbEntity
  8
0
100
AcDbSpline
 62
7
  6
CONTINUOUS
 70
0
 71
3
 72
34
 73
30
 74
0
 42
0.0000001
 43
0.0000001
 44
0.0000000001
 40
0.0
 40
0.0
 40
0.0
 40
0.0
 40
0.0904026537
 40
0.1775170701
 40
0.2197447428
 40
0.2610346636
 40
0.3013506518
 40
0.3406588452
 40
0.3789286238
 40
0.416133423
 40
0.452251517
 40
0.4872673826
 40
0.5211718484
 40
0.5539637324
 40
0.58564999
 40
0.6162462192
 40
0.6742671158
 40
0.728344991
 40
0.7789253306
 40
0.8030819144
 40
0.8265780498
 40
0.8494924696
 40
0.8719045781
 40
0.8938931156
 40
0.9155342484
 40
0.9369005361
 40
0.958059805
 40
0.9790743505
 40
1.0
 40
1.0
 40
1.0
 40
1.0
 10
11.618291982
 20
10.2343270545
 30
0.0
 10
11.6213275956
 20
10.2402771056
 30
0.0
 10
11.6274017
 20
10.2519035133
 30
0.0
 10
11.6352522347
 20
10.2661181113
 30
0.0
 10
11.6415755896
 20
10.2770258318
 30
0.0
 10
11.6462826243
 20
10.284872484
 30
0.0
 10
11.6510027332
 20
10.2924584215
 30
0.0
 10
11.6557353002
 20
10.299772255
 30
0.0
 10
11.6604794685
 20
10.3068029855
 30
0.0
 10
11.6652342669
 20
10.313540104
 30
0.0
 10
11.6699986491
 20
10.3199737503
 30
0.0
 10
11.6747712912
 20
10.3260949981
 30
0.0
 10
11.6795509621
 20
10.3318958329
 30
0.0
 10
11.6843361127
 20
10.3373694746
 30
0.0
 10
11.6891253478
 20
10.3425106168
 30
0.0
 10
11.6954034409
 20
10.3488052338
 30
0.0
 10
11.7032492952
 20
10.3558658502
 30
0.0
 10
11.7128371012
 20
10.3631402524
 30
0.0
 10
11.7209405947
 20
10.3681651871
 30
0.0
 10
11.7273911218
 20
10.3714990569
 30
0.0
 10
11.7321453948
 20
10.373646179
 30
0.0
 10
11.7368885845
 20
10.3754864501
 30
0.0
 10
11.7416197156
 20
10.3770291647
 30
0.0
 10
11.7463377773
 20
10.3782843506
 30
0.0
 10
11.7510419974
 20
10.3792624366
 30
0.0
 10
11.7557317038
 20
10.37997436
 30
0.0
 10
11.7604064737
 20
10.3804311752
 30
0.0
 10
11.7650658299
 20
10.3806441185
 30
0.0
 10
11.7681661321
 20
10.3806308827
 30
0.0
 10
11.7697116716
 20
10.3805872519
 30
0.0
  0
SPLINE
  5
32F
100
AcDbEntity
  8
0
100
AcDbSpline
 62
7
  6
CONTINUOUS
 70
0
 71
3
 72
15
 73
11
 74
0
 42
0.0000001
 43
0.0000001
 44
0.0000000001
 40
0.0
 40
0.0
 40
0.0
 40
0.0
 40
0.1193921742
 40
0.2394157959
 40
0.3604989196
 40
0.4831231702
 40
0.6078138565
 40
0.735132021
 40
0.8656628834
 40
1.0
 40
1.0
 40
1.0
 40
1.0
 10
11.618291982
 20
9.7282169519
 30
0.0
 10
11.6200618047
 20
9.7281669896
 30
0.0
 10
11.6236144149
 20
9.7281641936
 30
0.0
 10
11.6289547752
 20
9.7284674546
 30
0.0
 10
11.6343154827
 20
9.7290949424
 30
0.0
 10
11.639695683
 20
9.7300635042
 30
0.0
 10
11.6450944918
 20
9.7313896669
 30
0.0
 10
11.6505107386
 20
9.7330894144
 30
0.0
 10
11.6559426658
 20
9.7351777994
 30
0.0
 10
11.6595172491
 20
9.7368127697
 30
0.0
 10
11.6613035377
 20
9.737694728
 30
0.0
  0
SPLINE
  5
330
100
AcDbEntity
  8
0
100
AcDbSpline
 62
7
  6
CONTINUOUS
 70
0
 71
3
 72
46
 73
42
 74
0
 42
0.0000001
 43
0.0000001
 44
0.0000000001
 40
0.0
 40
0.0
 40
0.0
 40
0.0
 40
0.0123348316
 40
0.0191122513
 40
0.0263398568
 40
0.0340433379
 40
0.0422419093
 40
0.0509489255
 40
0.0601734772
 40
0.069920481
 40
0.0801918511
 40
0.0909866589
 40
0.1023015676
 40
0.1141313886
 40
0.1264688456
 40
0.1393054123
 40
0.1526307954
 40
0.1807002141
 40
0.2105737355
 40
0.2421307537
 40
0.2752372162
 40
0.3097476043
 40
0.3455065162
 40
0.3823500096
 40
0.4201071177
 40
0.4586009644
 40
0.4976500051
 40
0.5370693166
 40
0.5766716682
 40
0.6162686423
 40
0.6556719519
 40
0.6946944308
 40
0.7331512449
 40
0.7708611739
 40
0.8076476451
 40
0.8433399963
 40
0.8777748211
 40
0.9107971759
 40
0.9422620864
 40
0.9720362952
 40
1.0
 40
1.0
 40
1.0
 40
1.0
 10
11.0012547101
 20
11.3919979926
 30
0.0
 10
11.0018025824
 20
11.3910224055
 30
0.0
 10
11.0028238549
 20
11.3896045204
 30
0.0
 10
11.0044460321
 20
11.3878492868
 30
0.0
 10
11.0058869512
 20
11.3865042361
 30
0.0
 10
11.0075112476
 20
11.385174332
 30
0.0
 10
11.0093173992
 20
11.3838605901
 30
0.0
 10
11.0113030274
 20
11.3825645595
 30
0.0
 10
11.0134657924
 20
11.381287827
 30
0.0
 10
11.0158029839
 20
11.3800318735
 30
0.0
 10
11.0183117316
 20
11.3787982981
 30
0.0
 10
11.0209888995
 20
11.3775886314
 30
0.0
 10
11.0238311308
 20
11.3764043745
 30
0.0
 10
11.0268348636
 20
11.3752470816
 30
0.0
 10
11.0299962955
 20
11.3741181571
 30
0.0
 10
11.0333114484
 20
11.3730190981
 30
0.0
 10
11.0380128958
 20
11.3715701503
 30
0.0
 10
11.0442467418
 20
11.3698515041
 30
0.0
 10
11.0521440278
 20
11.3679631029
 30
0.0
 10
11.0605426501
 20
11.3662243568
 30
0.0
 10
11.0693999549
 20
11.3646442378
 30
0.0
 10
11.0786710387
 20
11.3632309335
 30
0.0
 10
11.088308783
 20
11.3619917498
 30
0.0
 10
11.0982641767
 20
11.3609330919
 30
0.0
 10
11.1084865535
 20
11.3600604227
 30
0.0
 10
11.1189238692
 20
11.359378243
 30
0.0
 10
11.1295229701
 20
11.3588900691
 30
0.0
 10
11.1402298711
 20
11.3585984181
 30
0.0
 10
11.1509900311
 20
11.3585047919
 30
0.0
 10
11.1617486359
 20
11.3586096752
 30
0.0
 10
11.1724508761
 20
11.3589125289
 30
0.0
 10
11.1830422334
 20
11.3594117926
 30
0.0
 10
11.1934687613
 20
11.3601048901
 30
0.0
 10
11.2036773634
 20
11.3609882477
 30
0.0
 10
11.21361607
 20
11.3620573065
 30
0.0
 10
11.2232343039
 20
11.363306549
 30
0.0
 10
11.2324831531
 20
11.3647295215
 30
0.0
 10
11.2413156072
 20
11.3663188647
 30
0.0
 10
11.2496869047
 20
11.3680663651
 30
0.0
 10
11.2575544826
 20
11.3699629329
 30
0.0
 10
11.2626020066
 20
11.3713659044
 30
0.0
 10
11.2650315667
 20
11.3720950031
 30
0.0
  0
SPLINE
  5
331
100
AcDbEntity
  8
0
100
AcDbSpline
 62
7
  6
CONTINUOUS
 70
0
 71
3
 72
23
 73
19
 74
0
 42
0.0000001
 43
0.0000001
 44
0.0000000001
 40
0.0
 40
0.0
 40
0.0
 40
0.0
 40
0.0584091353
 40
0.1170360604
 40
0.1759494819
 40
0.2352281827
 40
0.2949590532
 40
0.3552329696
 40
0.4161391803
 40
0.4777586721
 40
0.5401577318
 40
0.6033828172
 40
0.6674577605
 40
0.7323837239
 40
0.7981416055
 40
0.8646960864
 40
0.9320001601
 40
1.0
 40
1.0
 40
1.0
 40
1.0
 10
10.5461052873
 20
10.2957297108
 30
0.0
 10
10.5545525745
 20
10.2966172441
 30
0.0
 10
10.5715112935
 20
10.2981019879
 30
0.0
 10
10.5970727336
 20
10.2993672886
 30
0.0
 10
10.6227924292
 20
10.2995847398
 30
0.0
 10
10.6486583038
 20
10.2986670933
 30
0.0
 10
10.6746519209
 20
10.2965342469
 30
0.0
 10
10.700747693
 20
10.2931185546
 30
0.0
 10
10.7269137529
 20
10.2883702927
 30
0.0
 10
10.7531136079
 20
10.2822622806
 30
0.0
 10
10.7793086
 20
10.274792526
 30
0.0
 10
10.8054607105
 20
10.2659845674
 30
0.0
 10
10.8315351778
 20
10.2558853389
 30
0.0
 10
10.8575025357
 20
10.2445611205
 30
0.0
 10
10.8833397112
 20
10.2320921815
 30
0.0
 10
10.9090303752
 20
10.21856719
 30
0.0
 10
10.9345642569
 20
10.2040783999
 30
0.0
 10
10.951397966
 20
10.1938868528
 30
0.0
 10
10.9597920053
 20
10.1886598452
 30
0.0
  0
SPLINE
  5
332
100
AcDbEntity
  8
0
100
AcDbSpline
 62
7
  6
CONTINUOUS
 70
0
 71
3
 72
22
 73
18
 74
0
 42
0.0000001
 43
0.0000001
 44
0.0000000001
 40
0.0
 40
0.0
 40
0.0
 40
0.0
 40
0.0635178624
 40
0.1269375185
 40
0.190246841
 40
0.2534332483
 40
0.3164846365
 40
0.3793900307
 40
0.4421404758
 40
0.5047298524
 40
0.5671555094
 40
0.629418511
 40
0.6915234828
 40
0.7534781381
 40
0.8152925048
 40
0.8769780878
 40
1.0
 40
1.0
 40
1.0
 40
1.0
 10
11.013712814
 20
10.1849204244
 30
0.0
 10
11.0252266118
 20
10.1887859915
 30
0.0
 10
11.0483264441
 20
10.1962465906
 30
0.0
 10
11.0832200185
 20
10.2065451106
 30
0.0
 10
11.1183264035
 20
10.2158525788
 30
0.0
 10
11.1536304229
 20
10.2240782502
 30
0.0
 10
11.1891084513
 20
10.2311361266
 30
0.0
 10
11.2247277437
 20
10.2369499802
 30
0.0
 10
11.260447186
 20
10.2414589076
 30
0.0
 10
11.2962190982
 20
10.244622444
 30
0.0
 10
11.3319921485
 20
10.2464241194
 30
0.0
 10
11.3677148615
 20
10.2468729752
 30
0.0
 10
11.403339241
 20
10.246002591
 30
0.0
 10
11.438823524
 20
10.2438680218
 30
0.0
 10
11.4741349492
 20
10.24054078
 30
0.0
 10
11.5209067281
 20
10.2346307455
 30
0.0
 10
11.5557396894
 20
10.2286581795
 30
0.0
 10
11.5788192216
 20
10.2241107562
 30
0.0
  0
SPLINE
  5
333
100
AcDbEntity
  8
0
100
AcDbSpline
 62
7
  6
CONTINUOUS
 70
0
 71
3
 72
22
 73
18
 74
0
 42
0.0000001
 43
0.0000001
 44
0.0000000001
 40
0.0
 40
0.0
 40
0.0
 40
0.0
 40
0.1230219122
 40
0.1847074952
 40
0.2465218619
 40
0.3084765172
 40
0.370581489
 40
0.4328444907
 40
0.4952701476
 40
0.5578595242
 40
0.6206099694
 40
0.6835153635
 40
0.7465667517
 40
0.809753159
 40
0.8730624815
 40
0.9364821376
 40
1.0
 40
1.0
 40
1.0
 40
1.0
 10
11.013712814
 20
9.6788103218
 30
0.0
 10
11.0367923462
 20
9.6742628986
 30
0.0
 10
11.0716253075
 20
9.6682903326
 30
0.0
 10
11.1183970864
 20
9.662380298
 30
0.0
 10
11.1537085115
 20
9.6590530562
 30
0.0
 10
11.1891927946
 20
9.6569184871
 30
0.0
 10
11.224817174
 20
9.6560481028
 30
0.0
 10
11.2605398871
 20
9.6564969586
 30
0.0
 10
11.2963129373
 20
9.658298634
 30
0.0
 10
11.3320848496
 20
9.6614621704
 30
0.0
 10
11.3678042919
 20
9.6659710978
 30
0.0
 10
11.4034235843
 20
9.6717849514
 30
0.0
 10
11.4389016126
 20
9.6788428278
 30
0.0
 10
11.4742056321
 20
9.6870684993
 30
0.0
 10
11.5093120171
 20
9.6963759674
 30
0.0
 10
11.5442055914
 20
9.7066744874
 30
0.0
 10
11.5673054238
 20
9.7141350866
 30
0.0
 10
11.5788192216
 20
9.7180006536
 30
0.0
  0
SPLINE
  5
334
100
AcDbEntity
  8
0
100
AcDbSpline
 62
7
  6
CONTINUOUS
 70
0
 71
3
 72
16
 73
12
 74
0
 42
0.0000001
 43
0.0000001
 44
0.0000000001
 40
0.0
 40
0.0
 40
0.0
 40
0.0
 40
0.1480514235
 40
0.2876969267
 40
0.4196103192
 40
0.4829488084
 40
0.5446961172
 40
0.6639365715
 40
0.7786068127
 40
0.8901133951
 40
1.0
 40
1.0
 40
1.0
 40
1.0
 10
11.4124503698
 20
10.8540022828
 30
0.0
 10
11.4131931636
 20
10.8547197665
 30
0.0
 10
11.4145930312
 20
10.8561603557
 30
0.0
 10
11.4164752475
 20
10.8584054414
 30
0.0
 10
11.4178253222
 20
10.8603159459
 30
0.0
 10
11.418755078
 20
10.8618494307
 30
0.0
 10
11.4195670651
 20
10.8633484785
 30
0.0
 10
11.4204108646
 20
10.8652349035
 30
0.0
 10
11.4211447079
 20
10.8675355498
 30
0.0
 10
11.4215860571
 20
10.8698435636
 30
0.0
 10
11.4216844507
 20
10.871389616
 30
0.0
 10
11.4216844431
 20
10.8721561259
 30
0.0
  0
SPLINE
  5
335
100
AcDbEntity
  8
0
100
AcDbSpline
 62
7
  6
CONTINUOUS
 70
0
 71
3
 72
20
 73
16
 74
0
 42
0.0000001
 43
0.0000001
 44
0.0000000001
 40
0.0
 40
0.0
 40
0.0
 40
0.0
 40
0.1497466352
 40
0.2196204517
 40
0.2864530236
 40
0.4121313854
 40
0.4718313607
 40
0.5299812213
 40
0.587065261
 40
0.643596862
 40
0.7001059114
 40
0.7571238208
 40
0.8151663096
 40
0.8747199796
 40
1.0
 40
1.0
 40
1.0
 40
1.0
 10
11.054091867
 20
11.6631863468
 30
0.0
 10
11.0536627591
 20
11.6627718604
 30
0.0
 10
11.0530623847
 20
11.6621318466
 30
0.0
 10
11.0523644523
 20
11.6612279018
 30
0.0
 10
11.0517836022
 20
11.6603581276
 30
0.0
 10
11.0513186094
 20
11.6594613812
 30
0.0
 10
11.0509901598
 20
11.6585472129
 30
0.0
 10
11.0508160599
 20
11.6578712408
 30
0.0
 10
11.050710338
 20
11.6571940121
 30
0.0
 10
11.0506731223
 20
11.6565160952
 30
0.0
 10
11.0507045407
 20
11.6558381438
 30
0.0
 10
11.0508045459
 20
11.6551608362
 30
0.0
 10
11.0509729499
 20
11.6544847117
 30
0.0
 10
11.0512935045
 20
11.653570594
 30
0.0
 10
11.0516300287
 20
11.652910628
 30
0.0
 10
11.051888399
 20
11.6524835803
 30
0.0
  0
SPLINE
  5
336
100
AcDbEntity
  8
0
100
AcDbSpline
 62
7
  6
CONTINUOUS
 70
0
 71
3
 72
60
 73
56
 74
0
 42
0.0000001
 43
0.0000001
 44
0.0000000001
 40
0.0
 40
0.0
 40
0.0
 40
0.0
 40
0.0064532961
 40
0.0125273048
 40
0.0154725032
 40
0.0183829378
 40
0.0212808993
 40
0.0241890202
 40
0.030118814
 40
0.0363456356
 40
0.0430120098
 40
0.0502309176
 40
0.0580871819
 40
0.0666416621
 40
0.0759359312
 40
0.0859965778
 40
0.0968383062
 40
0.1084667146
 40
0.1208797264
 40
0.1340694242
 40
0.1480225727
 40
0.1627219575
 40
0.1781463095
 40
0.194271461
 40
0.2110700136
 40
0.2285123815
 40
0.2651963418
 40
0.2843692827
 40
0.3040460265
 40
0.3447510964
 40
0.3869829591
 40
0.4303941497
 40
0.4746241426
 40
0.5193032925
 40
0.5640572063
 40
0.6085105879
 40
0.6522914343
 40
0.695035119
 40
0.7363884036
 40
0.7760139589
 40
0.8135945568
 40
0.8315264247
 40
0.8488399815
 40
0.865503471
 40
0.881487758
 40
0.8967660396
 40
0.9113147812
 40
0.9251134088
 40
0.9381455946
 40
0.9503989967
 40
0.9618668259
 40
0.9725481902
 40
0.9824511704
 40
0.9915927436
 40
1.0
 40
1.0
 40
1.0
 40
1.0
 10
11.2494803723
 20
11.6524833076
 30
0.0
 10
11.2497161958
 20
11.6528730594
 30
0.0
 10
11.2501247378
 20
11.6536614082
 30
0.0
 10
11.2504693554
 20
11.6547036179
 30
0.0
 10
11.2506256656
 20
11.6555321263
 30
0.0
 10
11.250685254
 20
11.6561480398
 30
0.0
 10
11.2506881533
 20
11.656764229
 30
0.0
 10
11.2506161094
 20
11.6575905361
 30
0.0
 10
11.250378491
 20
11.6586332836
 30
0.0
 10
11.2498672232
 20
11.6598656192
 30
0.0
 10
11.2491321063
 20
11.661085531
 30
0.0
 10
11.248176627
 20
11.6622910559
 30
0.0
 10
11.2470037514
 20
11.6634809148
 30
0.0
 10
11.2456162319
 20
11.6646534894
 30
0.0
 10
11.2440170176
 20
11.6658069271
 30
0.0
 10
11.2422094061
 20
11.6669390774
 30
0.0
 10
11.2401971974
 20
11.6680477127
 30
0.0
 10
11.2379846562
 20
11.6691304533
 30
0.0
 10
11.2355765778
 20
11.670184998
 30
0.0
 10
11.2329782077
 20
11.6712089576
 30
0.0
 10
11.2301952792
 20
11.6722001023
 30
0.0
 10
11.2272339431
 20
11.6731561405
 30
0.0
 10
11.2241007921
 20
11.6740749814
 30
0.0
 10
11.22080281
 20
11.6749544734
 30
0.0
 10
11.2173473627
 20
11.6757927167
 30
0.0
 10
11.2124578908
 20
11.6768708544
 30
0.0
 10
11.2073729013
 20
11.677835264
 30
0.0
 10
11.2021107179
 20
11.6786960934
 30
0.0
 10
11.1965542816
 20
11.6795122689
 30
0.0
 10
11.1893637503
 20
11.6803968553
 30
0.0
 10
11.1804830458
 20
11.6812341362
 30
0.0
 10
11.1713349504
 20
11.6818510953
 30
0.0
 10
11.1620015741
 20
11.682242094
 30
0.0
 10
11.1525666338
 20
11.6824035477
 30
0.0
 10
11.1431148047
 20
11.6823339779
 30
0.0
 10
11.1337309055
 20
11.6820340226
 30
0.0
 10
11.1244991347
 20
11.6815064281
 30
0.0
 10
11.1155023116
 20
11.6807560258
 30
0.0
 10
11.1068210542
 20
11.6797897121
 30
0.0
 10
11.0985332222
 20
11.6786163199
 30
0.0
 10
11.0919165317
 20
11.6774576409
 30
0.0
 10
11.0868793491
 20
11.6764290986
 30
0.0
 10
11.0833040806
 20
11.6756251185
 30
0.0
 10
11.0798801507
 20
11.6747783141
 30
0.0
 10
11.0766152132
 20
11.6738906286
 30
0.0
 10
11.073516567
 20
11.6729640223
 30
0.0
 10
11.0705911116
 20
11.6720006506
 30
0.0
 10
11.0678453544
 20
11.6710026187
 30
0.0
 10
11.0652853535
 20
11.6699722424
 30
0.0
 10
11.0629167675
 20
11.6689117332
 30
0.0
 10
11.0607447355
 20
11.66782354
 30
0.0
 10
11.0587739551
 20
11.6667099277
 30
0.0
 10
11.0570084788
 20
11.6655732068
 30
0.0
 10
11.0554523429
 20
11.6644157371
 30
0.0
 10
11.0545187261
 20
11.663598661
 30
0.0
 10
11.054091867
 20
11.6631863468
 30
0.0
  0
SPLINE
  5
337
100
AcDbEntity
  8
0
100
AcDbSpline
 62
7
  6
CONTINUOUS
 70
0
 71
3
 72
64
 73
60
 74
0
 42
0.0000001
 43
0.0000001
 44
0.0000000001
 40
0.0
 40
0.0
 40
0.0
 40
0.0
 40
0.0085740654
 40
0.0179228085
 40
0.0280756004
 40
0.0390505483
 40
0.0508545589
 40
0.063485792
 40
0.0769354194
 40
0.0911891826
 40
0.1062277845
 40
0.1220278344
 40
0.138562475
 40
0.1558014116
 40
0.1737117424
 40
0.1922578592
 40
0.211401944
 40
0.2311041747
 40
0.2720128736
 40
0.3146323537
 40
0.3585883325
 40
0.4034903286
 40
0.4489368437
 40
0.4945198805
 40
0.5398300046
 40
0.5844608404
 40
0.6280139986
 40
0.6701038913
 40
0.710362656
 40
0.7296973558
 40
0.7484471256
 40
0.7665734311
 40
0.7840399917
 40
0.8008128529
 40
0.816860987
 40
0.832156191
 40
0.8466739004
 40
0.8603934729
 40
0.8732987251
 40
0.8853790766
 40
0.8966301394
 40
0.9070556979
 40
0.9166693534
 40
0.9254972738
 40
0.9335821086
 40
0.9409872762
 40
0.9478029179
 40
0.9541505803
 40
0.9571991028
 40
0.960191303
 40
0.9631508055
 40
0.9661020754
 40
0.9690698147
 40
0.9720782444
 40
0.9751505148
 40
0.9783082702
 40
0.9849526849
 40
0.9921505635
 40
1.0
 40
1.0
 40
1.0
 40
1.0
 10
11.2984711155
 20
11.6462385883
 30
0.0
 10
11.2977940863
 20
11.6455846283
 30
0.0
 10
11.2963087434
 20
11.6442892972
 30
0.0
 10
11.2938260832
 20
11.6424582552
 30
0.0
 10
11.291000906
 20
11.6406614684
 30
0.0
 10
11.2878399833
 20
11.6389030179
 30
0.0
 10
11.2843503353
 20
11.6371866532
 30
0.0
 10
11.2805399945
 20
11.6355164773
 30
0.0
 10
11.2764178884
 20
11.6338963596
 30
0.0
 10
11.2719937155
 20
11.6323302345
 30
0.0
 10
11.2672779681
 20
11.6308218537
 30
0.0
 10
11.2622818754
 20
11.6293748542
 30
0.0
 10
11.257017364
 20
11.6279927868
 30
0.0
 10
11.2514970424
 20
11.6266789463
 30
0.0
 10
11.2457341435
 20
11.6254365734
 30
0.0
 10
11.2397425055
 20
11.6242686596
 30
0.0
 10
11.2335365074
 20
11.6231780144
 30
0.0
 10
11.2248873258
 20
11.6218133875
 30
0.0
 10
11.2136499875
 20
11.6203278459
 30
0.0
 10
11.1997243433
 20
11.6189107969
 30
0.0
 10
11.1853273473
 20
11.617851841
 30
0.0
 10
11.1705974083
 20
11.6171613499
 30
0.0
 10
11.1556760491
 20
11.6168461162
 30
0.0
 10
11.1407067048
 20
11.6169092307
 30
0.0
 10
11.125833276
 20
11.6173500745
 30
0.0
 10
11.1111987324
 20
11.6181643231
 30
0.0
 10
11.096943651
 20
11.619343964
 30
0.0
 10
11.0832050596
 20
11.6208774358
 30
0.0
 10
11.0721521278
 20
11.6224580108
 30
0.0
 10
11.0636720413
 20
11.6238963641
 30
0.0
 10
11.0576073137
 20
11.6250388418
 30
0.0
 10
11.0517666037
 20
11.6262567272
 30
0.0
 10
11.0461639207
 20
11.6275470713
 30
0.0
 10
11.0408127077
 20
11.6289067824
 30
0.0
 10
11.0357257757
 20
11.6303325032
 30
0.0
 10
11.0309152934
 20
11.6318208278
 30
0.0
 10
11.026392726
 20
11.6333681258
 30
0.0
 10
11.022168807
 20
11.6349706509
 30
0.0
 10
11.0182535228
 20
11.6366246054
 30
0.0
 10
11.0146560251
 20
11.6383259833
 30
0.0
 10
11.0113846699
 20
11.6400708791
 30
0.0
 10
11.0084469046
 20
11.6418552879
 30
0.0
 10
11.0058493015
 20
11.6436753557
 30
0.0
 10
11.0035976323
 20
11.6455275461
 30
0.0
 10
11.001696876
 20
11.6474085412
 30
0.0
 10
11.0001518079
 20
11.649315988
 30
0.0
 10
10.9989674462
 20
11.6512470645
 30
0.0
 10
10.9982770024
 20
11.6528971704
 30
0.0
 10
10.9979219125
 20
11.6542117116
 30
0.0
 10
10.997751635
 20
11.6551864721
 30
0.0
 10
10.9976741827
 20
11.6561622529
 30
0.0
 10
10.9976896548
 20
11.6571383197
 30
0.0
 10
10.9977980971
 20
11.6581138457
 30
0.0
 10
10.9979992658
 20
11.6590880406
 30
0.0
 10
10.9982929127
 20
11.6600602195
 30
0.0
 10
10.9988160452
 20
11.6613748265
 30
0.0
 10
10.9997167305
 20
11.663018415
 30
0.0
 10
11.0011420315
 20
11.6649335065
 30
0.0
 10
11.0022779844
 20
11.6661379765
 30
0.0
 10
11.0028977952
 20
11.6667366677
 30
0.0
  0
SPLINE
  5
338
100
AcDbEntity
  8
0
100
AcDbSpline
 62
7
  6
CONTINUOUS
 70
0
 71
3
 72
60
 73
56
 74
0
 42
0.0000001
 43
0.0000001
 44
0.0000000001
 40
0.0
 40
0.0
 40
0.0
 40
0.0
 40
0.0081222363
 40
0.016916871
 40
0.0264087717
 40
0.0366143608
 40
0.0475415594
 40
0.0591912055
 40
0.0715586118
 40
0.0846347933
 40
0.0984065829
 40
0.1128576864
 40
0.1279687673
 40
0.1437179311
 40
0.1600810164
 40
0.1770316604
 40
0.1945418157
 40
0.2125815351
 40
0.2501216305
 40
0.2893857507
 40
0.3300878885
 40
0.3719270393
 40
0.4145908369
 40
0.4577586464
 40
0.5011049481
 40
0.5443024732
 40
0.5870253682
 40
0.6289525073
 40
0.6697705337
 40
0.7091773646
 40
0.7468854002
 40
0.7650179971
 40
0.7826266263
 40
0.799681096
 40
0.8161529088
 40
0.8320154865
 40
0.8472441599
 40
0.8618167115
 40
0.8757132211
 40
0.8889168343
 40
0.9014138316
 40
0.9131943149
 40
0.9242528902
 40
0.9345892949
 40
0.9442099823
 40
0.9531291698
 40
0.9613713293
 40
0.9689735137
 40
0.9759888158
 40
0.9824901511
 40
0.9885734552
 40
0.9914974666
 40
0.9943641541
 40
0.9971919131
 40
1.0
 40
1.0
 40
1.0
 40
1.0
 10
11.3284148179
 20
11.6142182831
 30
0.0
 10
11.3276711736
 20
11.6134999778
 30
0.0
 10
11.3260521649
 20
11.6120756211
 30
0.0
 10
11.3233647689
 20
11.6100518469
 30
0.0
 10
11.3203298211
 20
11.6080619492
 30
0.0
 10
11.3169535142
 20
11.6061097391
 30
0.0
 10
11.3132421727
 20
11.6041987374
 30
0.0
 10
11.3092029937
 20
11.6023327412
 30
0.0
 10
11.3048439336
 20
11.6005153822
 30
0.0
 10
11.3001736056
 20
11.5987503783
 30
0.0
 10
11.2952013218
 20
11.5970412175
 30
0.0
 10
11.2899370148
 20
11.5953914246
 30
0.0
 10
11.284391248
 20
11.593804323
 30
0.0
 10
11.2785751704
 20
11.5922831396
 30
0.0
 10
11.2725004925
 20
11.5908310033
 30
0.0
 10
11.2661794684
 20
11.5894508273
 30
0.0
 10
11.259624838
 20
11.5881454576
 30
0.0
 10
11.2504696995
 20
11.5864862232
 30
0.0
 10
11.2385384043
 20
11.5846275941
 30
0.0
 10
11.2236955671
 20
11.5827611652
 30
0.0
 10
11.2082629254
 20
11.5812456555
 30
0.0
 10
11.1923651565
 20
11.5800935115
 30
0.0
 10
11.1761306041
 20
11.5793142424
 30
0.0
 10
11.1596904291
 20
11.5789142602
 30
0.0
 10
11.1431774756
 20
11.578896859
 30
0.0
 10
11.1267251889
 20
11.5792621785
 30
0.0
 10
11.1104665063
 20
11.5800072118
 30
0.0
 10
11.0945327956
 20
11.5811258284
 30
0.0
 10
11.0790526878
 20
11.5826087995
 30
0.0
 10
11.0641512625
 20
11.5844439464
 30
0.0
 10
11.0521640855
 20
11.5862770677
 30
0.0
 10
11.0429589351
 20
11.5879165411
 30
0.0
 10
11.0363632721
 20
11.5892080412
 30
0.0
 10
11.029998844
 20
11.5905748177
 30
0.0
 10
11.023878486
 20
11.5920141123
 30
0.0
 10
11.018014541
 20
11.5935229587
 30
0.0
 10
11.012418822
 20
11.5950983379
 30
0.0
 10
11.007102575
 20
11.5967369762
 30
0.0
 10
11.0020764795
 20
11.5984356095
 30
0.0
 10
10.9973505855
 20
11.6001907367
 30
0.0
 10
10.9929343137
 20
11.6019988382
 30
0.0
 10
10.9888364188
 20
11.6038562918
 30
0.0
 10
10.985064943
 20
11.6057593625
 30
0.0
 10
10.9816272564
 20
11.607704412
 30
0.0
 10
10.9785299233
 20
11.609687664
 30
0.0
 10
10.9757788538
 20
11.6117056224
 30
0.0
 10
10.9733791851
 20
11.6137548581
 30
0.0
 10
10.9713355461
 20
11.6158323032
 30
0.0
 10
10.9696522589
 20
11.6179354694
 30
0.0
 10
10.9683338128
 20
11.6200614349
 30
0.0
 10
10.9675330244
 20
11.6218746957
 30
0.0
 10
10.9670905796
 20
11.6233214798
 30
0.0
 10
10.9668563355
 20
11.6243946113
 30
0.0
 10
10.9667157471
 20
11.6254690258
 30
0.0
 10
10.9666844606
 20
11.6261868217
 30
0.0
 10
10.9666844668
 20
11.6265442736
 30
0.0
  0
SPLINE
  5
339
100
AcDbEntity
  8
0
100
AcDbSpline
 62
7
  6
CONTINUOUS
 70
0
 71
3
 72
11
 73
7
 74
0
 42
0.0000001
 43
0.0000001
 44
0.0000000001
 40
0.0
 40
0.0
 40
0.0
 40
0.0
 40
0.2679707222
 40
0.5243764862
 40
0.7685755503
 40
1.0
 40
1.0
 40
1.0
 40
1.0
 10
11.1004503287
 20
11.6401439611
 30
0.0
 10
11.0993050821
 20
11.6399072478
 30
0.0
 10
11.0970690427
 20
11.6394191934
 30
0.0
 10
11.0938102423
 20
11.638623595
 30
0.0
 10
11.0907278997
 20
11.637782437
 30
0.0
 10
11.0887422364
 20
11.6371763972
 30
0.0
 10
11.087781472
 20
11.636865021
 30
0.0
  0
SPLINE
  5
33A
100
AcDbEntity
  8
0
100
AcDbSpline
 62
7
  6
CONTINUOUS
 70
0
 71
3
 72
23
 73
19
 74
0
 42
0.0000001
 43
0.0000001
 44
0.0000000001
 40
0.0
 40
0.0
 40
0.0
 40
0.0
 40
0.0749619564
 40
0.1455669258
 40
0.2121578921
 40
0.275160655
 40
0.3350952344
 40
0.3925803841
 40
0.4483264345
 40
0.5031208846
 40
0.5577959983
 40
0.6131898799
 40
0.6701046123
 40
0.7292755339
 40
0.7913502122
 40
0.8568808294
 40
0.9263145543
 40
1.0
 40
1.0
 40
1.0
 40
1.0
 10
11.2980900881
 20
11.6670978546
 30
0.0
 10
11.2985318768
 20
11.6666867108
 30
0.0
 10
11.2993652919
 20
11.6658612911
 30
0.0
 10
11.3004897929
 20
11.6645734913
 30
0.0
 10
11.3014487036
 20
11.6632755094
 30
0.0
 10
11.3022405954
 20
11.6619684587
 30
0.0
 10
11.3028640832
 20
11.6606534675
 30
0.0
 10
11.3033178953
 20
11.6593319371
 30
0.0
 10
11.3036005948
 20
11.6580055099
 30
0.0
 10
11.3037113163
 20
11.6566763259
 30
0.0
 10
11.3036495444
 20
11.6553467773
 30
0.0
 10
11.3034155165
 20
11.6540193515
 30
0.0
 10
11.3030102142
 20
11.6526962343
 30
0.0
 10
11.3024347251
 20
11.6513792658
 30
0.0
 10
11.3016904927
 20
11.650069804
 30
0.0
 10
11.3007787667
 20
11.6487690724
 30
0.0
 10
11.2997010941
 20
11.6474783148
 30
0.0
 10
11.2988977964
 20
11.6466507304
 30
0.0
 10
11.2984711155
 20
11.6462385883
 30
0.0
  0
SPLINE
  5
33B
100
AcDbEntity
  8
0
100
AcDbSpline
 62
7
  6
CONTINUOUS
 70
0
 71
3
 72
15
 73
11
 74
0
 42
0.0000001
 43
0.0000001
 44
0.0000000001
 40
0.0
 40
0.0
 40
0.0
 40
0.0
 40
0.1098906517
 40
0.2214018182
 40
0.3360753656
 40
0.4553197315
 40
0.5803743582
 40
0.7122968171
 40
0.8519481781
 40
1.0
 40
1.0
 40
1.0
 40
1.0
 10
11.3346844439
 20
11.6265435777
 30
0.0
 10
11.3346844349
 20
11.6260231636
 30
0.0
 10
11.3346175848
 20
11.624973483
 30
0.0
 10
11.334317849
 20
11.6234065162
 30
0.0
 10
11.333819597
 20
11.621844469
 30
0.0
 10
11.3331240838
 20
11.6202897074
 30
0.0
 10
11.3322328964
 20
11.6187436814
 30
0.0
 10
11.3311474699
 20
11.6172077814
 30
0.0
 10
11.3298695102
 20
11.6156834408
 30
0.0
 10
11.3289191129
 20
11.6147053947
 30
0.0
 10
11.3284148179
 20
11.6142182831
 30
0.0
  0
SPLINE
  5
33C
100
AcDbEntity
  8
0
100
AcDbSpline
 62
7
  6
CONTINUOUS
 70
0
 71
3
 72
41
 73
37
 74
0
 42
0.0000001
 43
0.0000001
 44
0.0000000001
 40
0.0
 40
0.0
 40
0.0
 40
0.0
 40
0.006481306
 40
0.0130002049
 40
0.0195935788
 40
0.0262969402
 40
0.0331439558
 40
0.0401659707
 40
0.0548404239
 40
0.0625493703
 40
0.0705323251
 40
0.0873865775
 40
0.1055279797
 40
0.1250445252
 40
0.1459984588
 40
0.1684314574
 40
0.1923686066
 40
0.2178212043
 40
0.2447895108
 40
0.273264393
 40
0.3032286388
 40
0.3346584159
 40
0.3675238214
 40
0.4017896431
 40
0.4374161528
 40
0.4743592518
 40
0.5125710966
 40
0.552000453
 40
0.5925927219
 40
0.6342905571
 40
0.6770339655
 40
0.7207603169
 40
0.7654049614
 40
0.8109012737
 40
0.9041692973
 40
1.0
 40
1.0
 40
1.0
 40
1.0
 10
10.6536844762
 20
10.3891925864
 30
0.0
 10
10.6536844806
 20
10.3883149844
 30
0.0
 10
10.6537542497
 20
10.3865539041
 30
0.0
 10
10.6540678939
 20
10.3839168505
 30
0.0
 10
10.6545903316
 20
10.3812823643
 30
0.0
 10
10.6553210886
 20
10.378651967
 30
0.0
 10
10.6562597931
 20
10.376026729
 30
0.0
 10
10.6578101213
 20
10.372483652
 30
0.0
 10
10.6597668093
 20
10.3690020976
 30
0.0
 10
10.6620796462
 20
10.365600898
 30
0.0
 10
10.6647514159
 20
10.3620937051
 30
0.0
 10
10.6686275521
 20
10.3577403732
 30
0.0
 10
10.6739984962
 20
10.3526662817
 30
0.0
 10
10.6801620852
 20
10.3476565182
 30
0.0
 10
10.6871080604
 20
10.3427182231
 30
0.0
 10
10.6948256163
 20
10.337858466
 30
0.0
 10
10.703302497
 20
10.3330847936
 30
0.0
 10
10.7125250902
 20
10.328404699
 30
0.0
 10
10.7224784812
 20
10.3238258115
 30
0.0
 10
10.7331464327
 20
10.3193556802
 30
0.0
 10
10.7445114112
 20
10.3150016677
 30
0.0
 10
10.7565546889
 20
10.3107710903
 30
0.0
 10
10.7692563296
 20
10.3066710169
 30
0.0
 10
10.7825952506
 20
10.302708296
 30
0.0
 10
10.7965492874
 20
10.2988896384
 30
0.0
 10
10.8110952027
 20
10.2952214256
 30
0.0
 10
10.8262087576
 20
10.2917098216
 30
0.0
 10
10.8418647489
 20
10.2883607738
 30
0.0
 10
10.85803704
 20
10.2851798676
 30
0.0
 10
10.8746986314
 20
10.2821724719
 30
0.0
 10
10.891821695
 20
10.2793436616
 30
0.0
 10
10.9093776128
 20
10.2766981552
 30
0.0
 10
10.9273370891
 20
10.2742404029
 30
0.0
 10
10.9519846795
 20
10.2711942272
 30
0.0
 10
10.9835817995
 20
10.267896882
 30
0.0
 10
11.0091066198
 20
10.2658406942
 30
0.0
 10
11.0220514961
 20
10.264942964
 30
0.0
  0
SPLINE
  5
33D
100
AcDbEntity
  8
0
100
AcDbSpline
 62
7
  6
CONTINUOUS
 70
0
 71
3
 72
41
 73
37
 74
0
 42
0.0000001
 43
0.0000001
 44
0.0000000001
 40
0.0
 40
0.0
 40
0.0
 40
0.0
 40
0.0064813096
 40
0.0130002089
 40
0.0195935803
 40
0.0262969365
 40
0.0331439447
 40
0.04016595
 40
0.0548403791
 40
0.0625493117
 40
0.0705322518
 40
0.087386473
 40
0.1055278433
 40
0.1250443572
 40
0.1459982608
 40
0.1684312314
 40
0.1923683554
 40
0.217820931
 40
0.2447892187
 40
0.2732640858
 40
0.3032283203
 40
0.3346580899
 40
0.3675234916
 40
0.4017893134
 40
0.4374158269
 40
0.4743589334
 40
0.5125707892
 40
0.55200016
 40
0.5925924466
 40
0.6342903027
 40
0.6770337349
 40
0.7207601128
 40
0.7654047863
 40
0.81090113
 40
0.9041692223
 40
1.0
 40
1.0
 40
1.0
 40
1.0
 10
10.6536844762
 20
10.8122683532
 30
0.0
 10
10.6536844746
 20
10.8113907502
 30
0.0
 10
10.6537542316
 20
10.8096296678
 30
0.0
 10
10.6540678584
 20
10.8069926105
 30
0.0
 10
10.6545902794
 20
10.8043581204
 30
0.0
 10
10.6553210202
 20
10.8017277191
 30
0.0
 10
10.6562597091
 20
10.7991024771
 30
0.0
 10
10.657810017
 20
10.7955593948
 30
0.0
 10
10.6597666863
 20
10.7920778345
 30
0.0
 10
10.6620795062
 20
10.7886766291
 30
0.0
 10
10.6647512589
 20
10.7851694303
 30
0.0
 10
10.6686273758
 20
10.7808160907
 30
0.0
 10
10.6739982996
 20
10.7757419902
 30
0.0
 10
10.6801618707
 20
10.7707322177
 30
0.0
 10
10.6871078305
 20
10.7657939134
 30
0.0
 10
10.6948253734
 20
10.7609341472
 30
0.0
 10
10.7033022437
 20
10.7561604657
 30
0.0
 10
10.7125248288
 20
10.751480362
 30
0.0
 10
10.7224782142
 20
10.7469014655
 30
0.0
 10
10.7331461625
 20
10.7424313252
 30
0.0
 10
10.74451114
 20
10.738077304
 30
0.0
 10
10.7565544192
 20
10.733846718
 30
0.0
 10
10.7692560635
 20
10.7297466362
 30
0.0
 10
10.7825949903
 20
10.7257839071
 30
0.0
 10
10.7965490349
 20
10.7219652416
 30
0.0
 10
10.8110949602
 20
10.7182970212
 30
0.0
 10
10.8262085269
 20
10.7147854099
 30
0.0
 10
10.8418645321
 20
10.7114363552
 30
0.0
 10
10.8580368386
 20
10.7082554424
 30
0.0
 10
10.8746984473
 20
10.7052480406
 30
0.0
 10
10.8918215297
 20
10.7024192246
 30
0.0
 10
10.9093774677
 20
10.699773713
 30
0.0
 10
10.9273369656
 20
10.6973159559
 30
0.0
 10
10.951984587
 20
10.6942697743
 30
0.0
 10
10.9835817482
 20
10.6909724233
 30
0.0
 10
11.0091066024
 20
10.6889162324
 30
0.0
 10
11.0220514961
 20
10.688018501
 30
0.0
  0
SPLINE
  5
33E
100
AcDbEntity
  8
0
100
AcDbSpline
 62
7
  6
CONTINUOUS
 70
0
 71
3
 72
9
 73
5
 74
0
 42
0.0000001
 43
0.0000001
 44
0.0000000001
 40
0.0
 40
0.0
 40
0.0
 40
0.0
 40
0.510965577
 40
1.0
 40
1.0
 40
1.0
 40
1.0
 10
10.6536269394
 20
10.4530948232
 30
0.0
 10
10.6513284664
 20
10.4518971962
 30
0.0
 10
10.6468634731
 20
10.4494887031
 30
0.0
 10
10.6424773904
 20
10.4469388796
 30
0.0
 10
10.6403554851
 20
10.4456541402
 30
0.0
  0
SPLINE
  5
33F
100
AcDbEntity
  8
0
100
AcDbSpline
 62
7
  6
CONTINUOUS
 70
0
 71
3
 72
60
 73
56
 74
0
 42
0.0000001
 43
0.0000001
 44
0.0000000001
 40
0.0
 40
0.0
 40
0.0
 40
0.0
 40
0.0126337718
 40
0.024721574
 40
0.0362717809
 40
0.0472954536
 40
0.0578071578
 40
0.0678250595
 40
0.0773718165
 40
0.0864749914
 40
0.0951677075
 40
0.1034893471
 40
0.111485772
 40
0.1192097599
 40
0.1267205436
 40
0.1340831988
 40
0.1413671849
 40
0.1486444439
 40
0.1559871268
 40
0.1634653367
 40
0.1711450395
 40
0.179086687
 40
0.1873442356
 40
0.195964858
 40
0.2049891269
 40
0.2144512226
 40
0.2243797985
 40
0.2347982497
 40
0.2457256508
 40
0.2571771134
 40
0.2691643457
 40
0.2816962268
 40
0.2947788855
 40
0.3084164328
 40
0.3226108118
 40
0.3373623777
 40
0.3526698876
 40
0.3685306739
 40
0.3849409655
 40
0.4018956658
 40
0.4193888747
 40
0.4374135721
 40
0.4559619989
 40
0.4750255676
 40
0.5146590433
 40
0.5562323757
 40
0.5996531649
 40
0.6448204431
 40
0.6916255931
 40
0.739953237
 40
0.7896818212
 40
0.84068467
 40
0.8928293924
 40
0.9459818346
 40
1.0
 40
1.0
 40
1.0
 40
1.0
 10
10.6403554851
 20
10.4456541402
 30
0.0
 10
10.6384507857
 20
10.4445009115
 30
0.0
 10
10.6347594835
 20
10.4421843489
 30
0.0
 10
10.6294684154
 20
10.4385942474
 30
0.0
 10
10.6245497258
 20
10.4349685221
 30
0.0
 10
10.6200069946
 20
10.4313095395
 30
0.0
 10
10.6158433029
 20
10.4276198216
 30
0.0
 10
10.6120616644
 20
10.4239016467
 30
0.0
 10
10.6086647607
 20
10.4201574059
 30
0.0
 10
10.605655121
 20
10.4163893892
 30
0.0
 10
10.6030352061
 20
10.4125998194
 30
0.0
 10
10.6008071848
 20
10.4087910751
 30
0.0
 10
10.598973439
 20
10.4049654451
 30
0.0
 10
10.5975359325
 20
10.401125617
 30
0.0
 10
10.5964967793
 20
10.3972744389
 30
0.0
 10
10.5958575796
 20
10.3934152565
 30
0.0
 10
10.5956194676
 20
10.3895517533
 30
0.0
 10
10.5957830185
 20
10.3856878825
 30
0.0
 10
10.5963477307
 20
10.3818275968
 30
0.0
 10
10.5973127793
 20
10.377974688
 30
0.0
 10
10.5986763764
 20
10.3741324965
 30
0.0
 10
10.6004367287
 20
10.3703040475
 30
0.0
 10
10.602591661
 20
10.3664919702
 30
0.0
 10
10.6051389519
 20
10.3626986592
 30
0.0
 10
10.6080764037
 20
10.3589264886
 30
0.0
 10
10.6114015301
 20
10.3551776234
 30
0.0
 10
10.6151119442
 20
10.3514544738
 30
0.0
 10
10.619204859
 20
10.3477592542
 30
0.0
 10
10.6236774416
 20
10.3440944078
 30
0.0
 10
10.6285265355
 20
10.3404623166
 30
0.0
 10
10.6337487422
 20
10.3368653815
 30
0.0
 10
10.6393404522
 20
10.3333061318
 30
0.0
 10
10.6452976983
 20
10.3297869147
 30
0.0
 10
10.6516163472
 20
10.3263102978
 30
0.0
 10
10.6582919096
 20
10.3228786277
 30
0.0
 10
10.6653196955
 20
10.3194943847
 30
0.0
 10
10.6726947255
 20
10.3161599605
 30
0.0
 10
10.6804117619
 20
10.3128776908
 30
0.0
 10
10.6884653405
 20
10.3096499927
 30
0.0
 10
10.6968497098
 20
10.3064790797
 30
0.0
 10
10.7055589188
 20
10.3033673126
 30
0.0
 10
10.7145867422
 20
10.3003168547
 30
0.0
 10
10.72392676
 20
10.2973299056
 30
0.0
 10
10.7369567354
 20
10.2933836947
 30
0.0
 10
10.7539820179
 20
10.288637344
 30
0.0
 10
10.7752904786
 20
10.2832989997
 30
0.0
 10
10.7976728505
 20
10.2782620985
 30
0.0
 10
10.8210651609
 20
10.2735411811
 30
0.0
 10
10.845400696
 20
10.2691498985
 30
0.0
 10
10.8706099122
 20
10.2651009384
 30
0.0
 10
10.8966207826
 20
10.261405976
 30
0.0
 10
10.9233588195
 20
10.2580757157
 30
0.0
 10
10.9507477632
 20
10.2551196917
 30
0.0
 10
10.9787089147
 20
10.2525465384
 30
0.0
 10
10.9975424848
 20
10.2511016303
 30
0.0
 10
11.0070400038
 20
10.2504429751
 30
0.0
  0
SPLINE
  5
340
100
AcDbEntity
  8
0
100
AcDbSpline
 62
7
  6
CONTINUOUS
 70
0
 71
3
 72
26
 73
22
 74
0
 42
0.0000001
 43
0.0000001
 44
0.0000000001
 40
0.0
 40
0.0
 40
0.0
 40
0.0
 40
0.0211531731
 40
0.0430721735
 40
0.0657533535
 40
0.0891916395
 40
0.1133802423
 40
0.138311365
 40
0.1903615696
 40
0.2452581438
 40
0.3028995693
 40
0.3631708578
 40
0.4259451837
 40
0.4910851139
 40
0.5584437709
 40
0.6278658296
 40
0.6991882266
 40
0.772241485
 40
0.8468486117
 40
0.9228315075
 40
1.0
 40
1.0
 40
1.0
 40
1.0
 10
10.6741334005
 20
9.7208657594
 30
0.0
 10
10.6763223732
 20
9.7197844414
 30
0.0
 10
10.6808076544
 20
9.7176391264
 30
0.0
 10
10.6877285692
 20
9.7145236799
 30
0.0
 10
10.694957935
 20
9.7114554044
 30
0.0
 10
10.7024909205
 20
9.7084364328
 30
0.0
 10
10.7103225409
 20
9.7054686537
 30
0.0
 10
10.7213143007
 20
9.7015259642
 30
0.0
 10
10.7357707879
 20
9.6967527488
 30
0.0
 10
10.7539822089
 20
9.6913388649
 30
0.0
 10
10.7732498227
 20
9.686174288
 30
0.0
 10
10.7935224243
 20
9.6812728841
 30
0.0
 10
10.8147462984
 20
9.6766478346
 30
0.0
 10
10.8368650616
 20
9.6723115742
 30
0.0
 10
10.8598199214
 20
9.6682757643
 30
0.0
 10
10.8835498053
 20
9.6645512597
 30
0.0
 10
10.9079915799
 20
9.6611480535
 30
0.0
 10
10.9330800486
 20
9.6580753199
 30
0.0
 10
10.9587486442
 20
9.6553412273
 30
0.0
 10
10.984928624
 20
9.6529532318
 30
0.0
 10
11.0025545291
 20
9.6516054989
 30
0.0
 10
11.011439924
 20
9.6509892947
 30
0.0
  0
SPLINE
  5
341
100
AcDbEntity
  8
0
100
AcDbSpline
 62
7
  6
CONTINUOUS
 70
0
 71
3
 72
22
 73
18
 74
0
 42
0.0000001
 43
0.0000001
 44
0.0000000001
 40
0.0
 40
0.0
 40
0.0
 40
0.0
 40
0.1331593021
 40
0.1987168375
 40
0.2635800813
 40
0.3277573214
 40
0.391268823
 40
0.4541464597
 40
0.5164324239
 40
0.5781771442
 40
0.6394366785
 40
0.7002699033
 40
0.7607358311
 40
0.8208913641
 40
0.880789464
 40
0.9404782696
 40
1.0
 40
1.0
 40
1.0
 40
1.0
 10
10.6286494956
 20
9.7433339416
 30
0.0
 10
10.6422428863
 20
9.7366178071
 30
0.0
 10
10.6628210153
 20
9.7271644175
 30
0.0
 10
10.6906837985
 20
9.715999153
 30
0.0
 10
10.7115304314
 20
9.7084758759
 30
0.0
 10
10.732415977
 20
9.7017896537
 30
0.0
 10
10.7533224771
 20
9.6959603621
 30
0.0
 10
10.7742304906
 20
9.6909983071
 30
0.0
 10
10.7951205519
 20
9.6869033544
 30
0.0
 10
10.815973907
 20
9.6836650771
 30
0.0
 10
10.8367733703
 20
9.6812634361
 30
0.0
 10
10.8575039555
 20
9.6796700214
 30
0.0
 10
10.878153306
 20
9.6788496463
 30
0.0
 10
10.8987118391
 20
9.678762114
 30
0.0
 10
10.9191728178
 20
9.6793639697
 30
0.0
 10
10.939531775
 20
9.6806100801
 30
0.0
 10
10.9530517397
 20
9.6818415614
 30
0.0
 10
10.9597920053
 20
9.6825497426
 30
0.0
  0
SPLINE
  5
342
100
AcDbEntity
  8
0
100
AcDbSpline
 62
7
  6
CONTINUOUS
 70
0
 71
3
 72
52
 73
48
 74
0
 42
0.0000001
 43
0.0000001
 44
0.0000000001
 40
0.0
 40
0.0
 40
0.0
 40
0.0
 40
0.0055575414
 40
0.0111779679
 40
0.0169218956
 40
0.0228457728
 40
0.0290005444
 40
0.0354309268
 40
0.04217538
 40
0.0492661984
 40
0.0567302567
 40
0.0645893333
 40
0.0728610204
 40
0.0815590429
 40
0.0906939739
 40
0.1002735878
 40
0.1103032306
 40
0.1207862673
 40
0.1317241233
 40
0.1431168112
 40
0.1549627595
 40
0.1672593291
 40
0.1800026293
 40
0.1931878674
 40
0.206809298
 40
0.2208603323
 40
0.235333686
 40
0.2502212546
 40
0.2812030671
 40
0.313730171
 40
0.3477175459
 40
0.3830726938
 40
0.4196965468
 40
0.457484167
 40
0.4963254241
 40
0.5361056689
 40
0.5767062894
 40
0.618005248
 40
0.6598777048
 40
0.7021964928
 40
0.7448326345
 40
0.7876559561
 40
0.8305354697
 40
0.8733401358
 40
0.9159386815
 40
0.9582019888
 40
1.0
 40
1.0
 40
1.0
 40
1.0
 10
11.6476844344
 20
10.3891931512
 30
0.0
 10
11.6476844406
 20
10.3879636692
 30
0.0
 10
11.6475468354
 20
10.3854886501
 30
0.0
 10
11.6469290248
 20
10.3817893357
 30
0.0
 10
11.6459009407
 20
10.3780982692
 30
0.0
 10
11.6444645425
 20
10.3744197305
 30
0.0
 10
11.6426221686
 20
10.3707567243
 30
0.0
 10
11.6403763791
 20
10.3671120026
 30
0.0
 10
11.6377296088
 20
10.363488158
 30
0.0
 10
11.6346845943
 20
10.3598875134
 30
0.0
 10
11.6312439194
 20
10.3563126279
 30
0.0
 10
11.6274105895
 20
10.3527658518
 30
0.0
 10
11.6231876269
 20
10.3492498359
 30
0.0
 10
11.6185784737
 20
10.3457670917
 30
0.0
 10
11.6135867687
 20
10.3423203027
 30
0.0
 10
11.6082164962
 20
10.3389121315
 30
0.0
 10
11.6024719605
 20
10.3355452183
 30
0.0
 10
11.5963577384
 20
10.3322223133
 30
0.0
 10
11.5898787822
 20
10.328945985
 30
0.0
 10
11.5830402834
 20
10.3257189921
 30
0.0
 10
11.5758478105
 20
10.3225438429
 30
0.0
 10
11.5683071712
 20
10.3194232247
 30
0.0
 10
11.5604245132
 20
10.3163596108
 30
0.0
 10
11.5522062407
 20
10.3133555556
 30
0.0
 10
11.5436590541
 20
10.3104135048
 30
0.0
 10
11.5347899295
 20
10.3075358621
 30
0.0
 10
11.5256060939
 20
10.304725007
 30
0.0
 10
11.5127805641
 20
10.3010200317
 30
0.0
 10
11.4960110504
 20
10.2965850123
 30
0.0
 10
11.4750161309
 20
10.2916324843
 30
0.0
 10
11.4529593418
 20
10.286997689
 30
0.0
 10
11.4299128436
 20
10.2826959441
 30
0.0
 10
11.4059518873
 20
10.2787415017
 30
0.0
 10
11.3811548411
 20
10.2751474449
 30
0.0
 10
11.3556028378
 20
10.2719256638
 30
0.0
 10
11.3293795201
 20
10.2690868112
 30
0.0
 10
11.3025707554
 20
10.26664027
 30
0.0
 10
11.2752643473
 20
10.2645941249
 30
0.0
 10
11.2475497465
 20
10.2629551342
 30
0.0
 10
11.2195177532
 20
10.2617287094
 30
0.0
 10
11.1912602116
 20
10.260918897
 30
0.0
 10
11.1628697204
 20
10.2605283744
 30
0.0
 10
11.1344392796
 20
10.2605584203
 30
0.0
 10
11.1060621259
 20
10.2610089548
 30
0.0
 10
11.0778310698
 20
10.2618784601
 30
0.0
 10
11.0498388832
 20
10.2631641069
 30
0.0
 10
11.0312762169
 20
10.2643032275
 30
0.0
 10
11.0220514961
 20
10.264942964
 30
0.0
  0
SPLINE
  5
343
100
AcDbEntity
  8
0
100
AcDbSpline
 62
7
  6
CONTINUOUS
 70
0
 71
3
 72
15
 73
11
 74
0
 42
0.0000001
 43
0.0000001
 44
0.0000000001
 40
0.0
 40
0.0
 40
0.0
 40
0.0
 40
0.1241554919
 40
0.2484037789
 40
0.3727814328
 40
0.497362017
 40
0.6222365325
 40
0.7475284834
 40
0.8733900197
 40
1.0
 40
1.0
 40
1.0
 40
1.0
 10
11.2160041674
 20
11.6606384777
 30
0.0
 10
11.2146952881
 20
11.6595957262
 30
0.0
 10
11.2120398926
 20
11.6575548097
 30
0.0
 10
11.2079335136
 20
11.6546564605
 30
0.0
 10
11.203688505
 20
11.6519533128
 30
0.0
 10
11.199291018
 20
11.6494869829
 30
0.0
 10
11.1947288692
 20
11.6473090375
 30
0.0
 10
11.1899949738
 20
11.6454817063
 30
0.0
 10
11.1850934582
 20
11.6440763302
 30
0.0
 10
11.18173666
 20
11.6434723854
 30
0.0
 10
11.1800429543
 20
11.6432633879
 30
0.0
  0
SPLINE
  5
344
100
AcDbEntity
  8
0
100
AcDbSpline
 62
7
  6
CONTINUOUS
 70
0
 71
3
 72
66
 73
62
 74
0
 42
0.0000001
 43
0.0000001
 44
0.0000000001
 40
0.0
 40
0.0
 40
0.0
 40
0.0
 40
0.0116733237
 40
0.0227144193
 40
0.0331301438
 40
0.0429320895
 40
0.0521376681
 40
0.060771299
 40
0.0688657298
 40
0.0764638521
 40
0.0836201624
 40
0.0904023915
 40
0.0936797083
 40
0.0968952124
 40
0.1000610857
 40
0.1031901619
 40
0.1062957907
 40
0.1093916444
 40
0.1124915401
 40
0.1156092374
 40
0.1187582331
 40
0.1219515966
 40
0.1252018128
 40
0.1285206306
 40
0.135404396
 40
0.1426834695
 40
0.1504215843
 40
0.1586696817
 40
0.1674675292
 40
0.1768452436
 40
0.1868251041
 40
0.1974226574
 40
0.2086480693
 40
0.2205068739
 40
0.2330007565
 40
0.2461281994
 40
0.2598847602
 40
0.2742636897
 40
0.2892559471
 40
0.3048506996
 40
0.3210353518
 40
0.3377957665
 40
0.3551164502
 40
0.3729805345
 40
0.3913700929
 40
0.4102659998
 40
0.4296482157
 40
0.4494957035
 40
0.4697865831
 40
0.4904982103
 40
0.5330885569
 40
0.5770722711
 40
0.6222447965
 40
0.6683938092
 40
0.7153007603
 40
0.7627423421
 40
0.8104918972
 40
0.8583208585
 40
0.9060003172
 40
0.9533016843
 40
1.0
 40
1.0
 40
1.0
 40
1.0
 10
11.6478554843
 20
10.4530356335
 30
0.0
 10
11.6507234638
 20
10.4515395292
 30
0.0
 10
11.6562527299
 20
10.4485280795
 30
0.0
 10
11.6641307146
 20
10.4438088451
 30
0.0
 10
11.6713521518
 20
10.4390191891
 30
0.0
 10
11.6779080038
 20
10.4341648048
 30
0.0
 10
11.6837902572
 20
10.4292512049
 30
0.0
 10
11.6889916824
 20
10.424283744
 30
0.0
 10
11.6935055131
 20
10.4192674093
 30
0.0
 10
11.6973256393
 20
10.414206879
 30
0.0
 10
11.7004455089
 20
10.409107358
 30
0.0
 10
11.7024798316
 20
10.4047791835
 30
0.0
 10
11.7037333273
 20
10.40131854
 30
0.0
 10
11.7044850732
 20
10.398747822
 30
0.0
 10
11.7050585084
 20
10.3961735928
 30
0.0
 10
11.7054533362
 20
10.3935967004
 30
0.0
 10
11.7056694023
 20
10.3910181349
 30
0.0
 10
11.7057065928
 20
10.3884388648
 30
0.0
 10
11.7055648105
 20
10.3858598842
 30
0.0
 10
11.7052441731
 20
10.3832821868
 30
0.0
 10
11.7047449003
 20
10.3807067278
 30
0.0
 10
11.7040672299
 20
10.3781344653
 30
0.0
 10
11.7032114141
 20
10.3755662513
 30
0.0
 10
11.7018167793
 20
10.3721069468
 30
0.0
 10
11.699606239
 20
10.3677837387
 30
0.0
 10
11.6962810492
 20
10.3626952757
 30
0.0
 10
11.6922574854
 20
10.3576471427
 30
0.0
 10
11.6875420001
 20
10.3526445966
 30
0.0
 10
11.6821408263
 20
10.3476923599
 30
0.0
 10
11.6760608916
 20
10.3427954874
 30
0.0
 10
11.669309592
 20
10.3379594707
 30
0.0
 10
11.6618952716
 20
10.3331897842
 30
0.0
 10
11.6538270179
 20
10.3284921983
 30
0.0
 10
11.6451148479
 20
10.3238724438
 30
0.0
 10
11.6357696403
 20
10.3193362522
 30
0.0
 10
11.6258031075
 20
10.314889407
 30
0.0
 10
11.6152278459
 20
10.3105374633
 30
0.0
 10
11.604057223
 20
10.3062860799
 30
0.0
 10
11.5923054471
 20
10.3021406157
 30
0.0
 10
11.5799874661
 20
10.2981064557
 30
0.0
 10
11.5671189904
 20
10.2941887654
 30
0.0
 10
11.5537164527
 20
10.2903925718
 30
0.0
 10
11.5397969811
 20
10.2867228159
 30
0.0
 10
11.5253783907
 20
10.2831841546
 30
0.0
 10
11.5104791327
 20
10.2797812279
 30
0.0
 10
11.495118292
 20
10.2765183502
 30
0.0
 10
11.4793155477
 20
10.2733997751
 30
0.0
 10
11.4630911614
 20
10.2704295073
 30
0.0
 10
11.4464659136
 20
10.2676113392
 30
0.0
 10
11.4235800683
 20
10.2640282716
 30
0.0
 10
11.39412602
 20
10.2599681858
 30
0.0
 10
11.3578541919
 20
10.2557990612
 30
0.0
 10
11.3205201356
 20
10.252310562
 30
0.0
 10
11.2823153274
 20
10.2495207726
 30
0.0
 10
11.2434355508
 20
10.2474441912
 30
0.0
 10
11.2040801577
 20
10.2460915866
 30
0.0
 10
11.1644509477
 20
10.24546998
 30
0.0
 10
11.1247511284
 20
10.2455825836
 30
0.0
 10
11.0851843291
 20
10.2464288374
 30
0.0
 10
11.0459535194
 20
10.2480043057
 30
0.0
 10
11.0199494055
 20
10.2495477051
 30
0.0
 10
11.0070400038
 20
10.2504429751
 30
0.0
  0
SPLINE
  5
345
100
AcDbEntity
  8
0
100
AcDbSpline
 62
7
  6
CONTINUOUS
 70
0
 71
3
 72
32
 73
28
 74
0
 42
0.0000001
 43
0.0000001
 44
0.0000000001
 40
0.0
 40
0.0
 40
0.0
 40
0.0
 40
0.0193647161
 40
0.0398584623
 40
0.0614689401
 40
0.0841782294
 40
0.107963708
 40
0.1327985128
 40
0.1586519565
 40
0.1854900841
 40
0.213275891
 40
0.2419695715
 40
0.2715288864
 40
0.3019092744
 40
0.3330640371
 40
0.3649446309
 40
0.3975007438
 40
0.4306804076
 40
0.4644302801
 40
0.4986957304
 40
0.5685477531
 40
0.6397797862
 40
0.7119217621
 40
0.7844957666
 40
0.8570202431
 40
0.9290134093
 40
1.0
 40
1.0
 40
1.0
 40
1.0
 10
11.6272347281
 20
9.720865382
 30
0.0
 10
11.6236179046
 20
9.7190787489
 30
0.0
 10
11.6160959549
 20
9.7155566378
 30
0.0
 10
11.6043086368
 20
9.7105476572
 30
0.0
 10
11.5917158252
 20
9.7056711101
 30
0.0
 10
11.5783398725
 20
9.7009357293
 30
0.0
 10
11.5642042082
 20
9.6963499414
 30
0.0
 10
11.5493337817
 20
9.6919219467
 30
0.0
 10
11.5337548771
 20
9.6876596205
 30
0.0
 10
11.5174950662
 20
9.6835706131
 30
0.0
 10
11.5005831602
 20
9.6796622495
 30
0.0
 10
11.4830491614
 20
9.6759414901
 30
0.0
 10
11.4649241855
 20
9.6724150127
 30
0.0
 10
11.4462404165
 20
9.6690891396
 30
0.0
 10
11.4270310507
 20
9.6659697884
 30
0.0
 10
11.4073302184
 20
9.6630625545
 30
0.0
 10
11.3871729316
 20
9.6603726503
 30
0.0
 10
11.3665950396
 20
9.6579048611
 30
0.0
 10
11.3456330962
 20
9.6556635839
 30
0.0
 10
11.3170391041
 20
9.6529655153
 30
0.0
 10
11.2806118133
 20
9.6501966834
 30
0.0
 10
11.2362511101
 20
9.6478503926
 30
0.0
 10
11.1912823208
 20
9.646476642
 30
0.0
 10
11.1460251287
 20
9.646085292
 30
0.0
 10
11.1008010562
 20
9.6466792246
 30
0.0
 10
11.0559315834
 20
9.6482540765
 30
0.0
 10
11.0261923486
 20
9.6499662105
 30
0.0
 10
11.011439924
 20
9.6509892947
 30
0.0
  0
SPLINE
  5
346
100
AcDbEntity
  8
0
100
AcDbSpline
 62
7
  6
CONTINUOUS
 70
0
 71
3
 72
15
 73
11
 74
0
 42
0.0000001
 43
0.0000001
 44
0.0000000001
 40
0.0
 40
0.0
 40
0.0
 40
0.0
 40
0.1327560962
 40
0.2641561511
 40
0.3938656442
 40
0.5214843045
 40
0.6465070073
 40
0.768342422
 40
0.8863569741
 40
1.0
 40
1.0
 40
1.0
 40
1.0
 10
11.1267757563
 20
11.6668264891
 30
0.0
 10
11.1258220545
 20
11.6654514113
 30
0.0
 10
11.1238899142
 20
11.6627389457
 30
0.0
 10
11.1208888512
 20
11.6587827507
 30
0.0
 10
11.1177881302
 20
11.6549869031
 30
0.0
 10
11.1145781524
 20
11.6513892601
 30
0.0
 10
11.1112504405
 20
11.6480375581
 30
0.0
 10
11.107799559
 20
11.6449906017
 30
0.0
 10
11.1042271532
 20
11.6423182508
 30
0.0
 10
11.1017201728
 20
11.6408069672
 30
0.0
 10
11.1004503287
 20
11.6401439611
 30
0.0
  0
SPLINE
  5
347
100
AcDbEntity
  8
0
100
AcDbSpline
 62
7
  6
CONTINUOUS
 70
0
 71
3
 72
54
 73
50
 74
0
 42
0.0000001
 43
0.0000001
 44
0.0000000001
 40
0.0
 40
0.0
 40
0.0
 40
0.0
 40
0.0098430239
 40
0.0192579511
 40
0.028266993
 40
0.0368967155
 40
0.0531364371
 40
0.0608347269
 40
0.0683084855
 40
0.0756090563
 40
0.0827918768
 40
0.089915423
 40
0.097039799
 40
0.1042250756
 40
0.1115296881
 40
0.1190089473
 40
0.1267140754
 40
0.1429709965
 40
0.1516107531
 40
0.1606306283
 40
0.1700570022
 40
0.1799120858
 40
0.1902141866
 40
0.2009785017
 40
0.212217185
 40
0.2239397864
 40
0.2361537983
 40
0.2488645022
 40
0.2620755446
 40
0.275789101
 40
0.2900057408
 40
0.304725013
 40
0.3199452797
 40
0.3356637954
 40
0.3685794719
 40
0.4034353379
 40
0.4401817715
 40
0.4787594059
 40
0.5191002764
 40
0.5611287685
 40
0.6047625515
 40
0.6499132861
 40
0.6964871591
 40
0.7443853038
 40
0.7935046666
 40
0.8437381405
 40
0.8949741093
 40
0.9471020577
 40
1.0
 40
1.0
 40
1.0
 40
1.0
 10
10.7315917222
 20
10.9023237676
 30
0.0
 10
10.7306534799
 20
10.901450648
 30
0.0
 10
10.7288571718
 20
10.899699267
 30
0.0
 10
10.7263579362
 20
10.8969950002
 30
0.0
 10
10.7241166047
 20
10.8942742869
 30
0.0
 10
10.7215272502
 20
10.8907008075
 30
0.0
 10
10.7193829405
 20
10.887021116
 30
0.0
 10
10.7177614903
 20
10.8832618324
 30
0.0
 10
10.7168315334
 20
10.8804834176
 30
0.0
 10
10.7161674752
 20
10.8776985649
 30
0.0
 10
10.7157700791
 20
10.8749091586
 30
0.0
 10
10.715640059
 20
10.8721174569
 30
0.0
 10
10.7157774456
 20
10.8693257915
 30
0.0
 10
10.716182136
 20
10.8665364738
 30
0.0
 10
10.7168535474
 20
10.8637517835
 30
0.0
 10
10.7177907806
 20
10.8609735744
 30
0.0
 10
10.7194221691
 20
10.8572144091
 30
0.0
 10
10.7215760956
 20
10.8535352657
 30
0.0
 10
10.7241747129
 20
10.8499623882
 30
0.0
 10
10.7264231603
 20
10.8472421253
 30
0.0
 10
10.7289294906
 20
10.8445382464
 30
0.0
 10
10.7316924104
 20
10.8418518046
 30
0.0
 10
10.7347100931
 20
10.8391843135
 30
0.0
 10
10.7379808051
 20
10.8365372995
 30
0.0
 10
10.7415025603
 20
10.8339122514
 30
0.0
 10
10.745273238
 20
10.8313106389
 30
0.0
 10
10.7492906345
 20
10.8287340624
 30
0.0
 10
10.7535523081
 20
10.8261839736
 30
0.0
 10
10.7580557161
 20
10.8236619017
 30
0.0
 10
10.7627981746
 20
10.8211694048
 30
0.0
 10
10.7677767974
 20
10.8187079065
 30
0.0
 10
10.7729886025
 20
10.8162789537
 30
0.0
 10
10.778430446
 20
10.8138839889
 30
0.0
 10
10.7861069243
 20
10.8106887499
 30
0.0
 10
10.796261797
 20
10.8068006655
 30
0.0
 10
10.8091290699
 20
10.8023618574
 30
0.0
 10
10.8228274266
 20
10.7980919171
 30
0.0
 10
10.8373236556
 20
10.794001318
 30
0.0
 10
10.8525827477
 20
10.7901000996
 30
0.0
 10
10.8685676941
 20
10.7863978275
 30
0.0
 10
10.885239698
 20
10.7829035998
 30
0.0
 10
10.9025582596
 20
10.7796260167
 30
0.0
 10
10.9204812588
 20
10.7765731238
 30
0.0
 10
10.9389650903
 20
10.7737523985
 30
0.0
 10
10.9579647731
 20
10.7711707736
 30
0.0
 10
10.9774339465
 20
10.7688346199
 30
0.0
 10
10.9973255131
 20
10.7667495789
 30
0.0
 10
11.0175905804
 20
10.7649208902
 30
0.0
 10
11.0312269606
 20
10.7638824204
 30
0.0
 10
11.0380982636
 20
10.7634058939
 30
0.0
  0
SPLINE
  5
348
100
AcDbEntity
  8
0
100
AcDbSpline
 62
7
  6
CONTINUOUS
 70
0
 71
3
 72
60
 73
56
 74
0
 42
0.0000001
 43
0.0000001
 44
0.0000000001
 40
0.0
 40
0.0
 40
0.0
 40
0.0
 40
0.0081222414
 40
0.0169168816
 40
0.0264087866
 40
0.0366143821
 40
0.0475415905
 40
0.0591912493
 40
0.0715586647
 40
0.0846348479
 40
0.098406648
 40
0.1128577747
 40
0.127968871
 40
0.1437180406
 40
0.160081135
 40
0.1770317977
 40
0.1945419791
 40
0.2125817114
 40
0.250121824
 40
0.2893859917
 40
0.3300881417
 40
0.3719273433
 40
0.4145911502
 40
0.4577590001
 40
0.5011053144
 40
0.5443028585
 40
0.5870257719
 40
0.6289529119
 40
0.6697709467
 40
0.7091777726
 40
0.7468857915
 40
0.7650183901
 40
0.7826270107
 40
0.7996814573
 40
0.8161532565
 40
0.8320158302
 40
0.8472444911
 40
0.8618170191
 40
0.8757135005
 40
0.8889170941
 40
0.9014140802
 40
0.9131945391
 40
0.9242530793
 40
0.934589459
 40
0.9442101269
 40
0.9531292893
 40
0.9613714202
 40
0.9689735769
 40
0.9759888588
 40
0.9824901798
 40
0.9885734679
 40
0.9914974722
 40
0.9943641549
 40
0.9971919122
 40
1.0
 40
1.0
 40
1.0
 40
1.0
 10
11.3284148179
 20
11.3852938487
 30
0.0
 10
11.3276711729
 20
11.3845755428
 30
0.0
 10
11.3260521626
 20
11.3831511849
 30
0.0
 10
11.3233647643
 20
11.3811274091
 30
0.0
 10
11.3203298136
 20
11.3791375101
 30
0.0
 10
11.3169535032
 20
11.3771852987
 30
0.0
 10
11.3132421572
 20
11.3752742953
 30
0.0
 10
11.3092029729
 20
11.3734082977
 30
0.0
 10
11.3048439086
 20
11.3715909379
 30
0.0
 10
11.3001735765
 20
11.3698259331
 30
0.0
 10
11.2952012866
 20
11.3681167717
 30
0.0
 10
11.2899369718
 20
11.3664669775
 30
0.0
 10
11.2843911978
 20
11.3648798747
 30
0.0
 10
11.2785751146
 20
11.3633586912
 30
0.0
 10
11.2725004304
 20
11.3619065547
 30
0.0
 10
11.2661793976
 20
11.3605263781
 30
0.0
 10
11.2596247578
 20
11.3592210082
 30
0.0
 10
11.2504696096
 20
11.3575617734
 30
0.0
 10
11.2385383007
 20
11.3557031455
 30
0.0
 10
11.2236954493
 20
11.3538367173
 30
0.0
 10
11.208262789
 20
11.3523212094
 30
0.0
 10
11.1923650063
 20
11.3511690681
 30
0.0
 10
11.1761304363
 20
11.3503898017
 30
0.0
 10
11.1596902487
 20
11.3499898234
 30
0.0
 10
11.1431772814
 20
11.3499724266
 30
0.0
 10
11.1267249838
 20
11.350337751
 30
0.0
 10
11.110466292
 20
11.3510827897
 30
0.0
 10
11.0945325738
 20
11.3522014122
 30
0.0
 10
11.0790524616
 20
11.3536843897
 30
0.0
 10
11.0641510346
 20
11.3555195433
 30
0.0
 10
11.0521638576
 20
11.3573526705
 30
0.0
 10
11.0429587086
 20
11.3589921491
 30
0.0
 10
11.0363630482
 20
11.3602836525
 30
0.0
 10
11.0299986248
 20
11.3616504324
 30
0.0
 10
11.0238782713
 20
11.3630897309
 30
0.0
 10
11.0180143295
 20
11.3645985812
 30
0.0
 10
11.0124186153
 20
11.3661739644
 30
0.0
 10
11.0071023762
 20
11.367812606
 30
0.0
 10
11.0020762897
 20
11.369511242
 30
0.0
 10
10.9973504037
 20
11.3712663734
 30
0.0
 10
10.9929341398
 20
11.3730744789
 30
0.0
 10
10.9888362546
 20
11.3749319354
 30
0.0
 10
10.9850647911
 20
11.3768350091
 30
0.0
 10
10.9816271167
 20
11.3787800619
 30
0.0
 10
10.978529795
 20
11.3807633171
 30
0.0
 10
10.9757787383
 20
11.3827812791
 30
0.0
 10
10.9733790842
 20
11.3848305173
 30
0.0
 10
10.97133546
 20
11.3869079646
 30
0.0
 10
10.9696521888
 20
11.3890111345
 30
0.0
 10
10.9683337584
 20
11.391137103
 30
0.0
 10
10.9675329842
 20
11.3929503656
 30
0.0
 10
10.9670905519
 20
11.3943971503
 30
0.0
 10
10.9668563172
 20
11.3954702824
 30
0.0
 10
10.966715738
 20
11.3965446976
 30
0.0
 10
10.9666844577
 20
11.397262494
 30
0.0
 10
10.9666844669
 20
11.3976199461
 30
0.0
  0
SPLINE
  5
349
100
AcDbEntity
  8
0
100
AcDbSpline
 62
7
  6
CONTINUOUS
 70
0
 71
3
 72
15
 73
11
 74
0
 42
0.0000001
 43
0.0000001
 44
0.0000000001
 40
0.0
 40
0.0
 40
0.0
 40
0.0
 40
0.1273482789
 40
0.2538606571
 40
0.3795878378
 40
0.5046051156
 40
0.629017439
 40
0.7529533823
 40
0.8765605864
 40
1.0
 40
1.0
 40
1.0
 40
1.0
 10
10.0097883044
 20
7.9145977793
 30
0.0
 10
10.0097883044
 20
7.9102706956
 30
0.0
 10
10.0093751541
 20
7.9016389488
 30
0.0
 10
10.0075067495
 20
7.8888573468
 30
0.0
 10
10.0044086102
 20
7.8763968921
 30
0.0
 10
10.0001087224
 20
7.8643741198
 30
0.0
 10
9.9946465221
 20
7.8528999032
 30
0.0
 10
9.9880718378
 20
7.8420801816
 30
0.0
 10
9.9804464685
 20
7.8320163368
 30
0.0
 10
9.9747049461
 20
7.8258687574
 30
0.0
 10
9.9716882103
 20
7.8229547944
 30
0.0
  0
SPLINE
  5
34A
100
AcDbEntity
  8
0
100
AcDbSpline
 62
7
  6
CONTINUOUS
 70
0
 71
3
 72
15
 73
11
 74
0
 42
0.0000001
 43
0.0000001
 44
0.0000000001
 40
0.0
 40
0.0
 40
0.0
 40
0.0
 40
0.1273482789
 40
0.2538606571
 40
0.3795878378
 40
0.5046051156
 40
0.629017439
 40
0.7529533823
 40
0.8765605864
 40
1.0
 40
1.0
 40
1.0
 40
1.0
 10
11.7600458964
 20
7.7932170031
 30
0.0
 10
11.7600458964
 20
7.7888899193
 30
0.0
 10
11.7596327461
 20
7.7802581725
 30
0.0
 10
11.7577643415
 20
7.7674765705
 30
0.0
 10
11.7546662023
 20
7.7550161158
 30
0.0
 10
11.7503663144
 20
7.7429933435
 30
0.0
 10
11.7449041141
 20
7.7315191269
 30
0.0
 10
11.7383294299
 20
7.7206994054
 30
0.0
 10
11.7307040605
 20
7.7106355605
 30
0.0
 10
11.7249625381
 20
7.7044879812
 30
0.0
 10
11.7219458023
 20
7.7015740182
 30
0.0
  0
SPLINE
  5
34B
100
AcDbEntity
  8
0
100
AcDbSpline
 62
7
  6
CONTINUOUS
 70
0
 71
3
 72
15
 73
11
 74
0
 42
0.0000001
 43
0.0000001
 44
0.0000000001
 40
0.0
 40
0.0
 40
0.0
 40
0.0
 40
0.1273482789
 40
0.2538606571
 40
0.3795878378
 40
0.5046051156
 40
0.629017439
 40
0.7529533823
 40
0.8765605864
 40
1.0
 40
1.0
 40
1.0
 40
1.0
 10
11.7600458964
 20
5.7406245006
 30
0.0
 10
11.7600458964
 20
5.7362974168
 30
0.0
 10
11.7596327461
 20
5.7276656701
 30
0.0
 10
11.7577643415
 20
5.714884068
 30
0.0
 10
11.7546662023
 20
5.7024236133
 30
0.0
 10
11.7503663144
 20
5.690400841
 30
0.0
 10
11.7449041141
 20
5.6789266244
 30
0.0
 10
11.7383294299
 20
5.6681069029
 30
0.0
 10
11.7307040605
 20
5.658043058
 30
0.0
 10
11.7249625381
 20
5.6518954787
 30
0.0
 10
11.7219458023
 20
5.6489815157
 30
0.0
  0
SPLINE
  5
34C
100
AcDbEntity
  8
0
100
AcDbSpline
 62
7
  6
CONTINUOUS
 70
0
 71
3
 72
15
 73
11
 74
0
 42
0.0000001
 43
0.0000001
 44
0.0000000001
 40
0.0
 40
0.0
 40
0.0
 40
0.0
 40
0.1273482789
 40
0.2538606571
 40
0.3795878378
 40
0.5046051156
 40
0.629017439
 40
0.7529533823
 40
0.8765605864
 40
1.0
 40
1.0
 40
1.0
 40
1.0
 10
10.0097883044
 20
5.8620052768
 30
0.0
 10
10.0097883044
 20
5.8576781931
 30
0.0
 10
10.0093751541
 20
5.8490464463
 30
0.0
 10
10.0075067495
 20
5.8362648443
 30
0.0
 10
10.0044086102
 20
5.8238043896
 30
0.0
 10
10.0001087224
 20
5.8117816173
 30
0.0
 10
9.9946465221
 20
5.8003074007
 30
0.0
 10
9.9880718378
 20
5.7894876792
 30
0.0
 10
9.9804464685
 20
5.7794238343
 30
0.0
 10
9.9747049461
 20
5.7732762549
 30
0.0
 10
9.9716882103
 20
5.7703622919
 30
0.0
  0
SPLINE
  5
34D
100
AcDbEntity
  8
0
100
AcDbSpline
 62
7
  6
CONTINUOUS
 70
0
 71
3
 72
86
 73
82
 74
0
 42
0.0000001
 43
0.0000001
 44
0.0000000001
 40
0.0
 40
0.0
 40
0.0
 40
0.0
 40
0.0039801735
 40
0.0081241171
 40
0.0124359931
 40
0.016919361
 40
0.0215772361
 40
0.0264119817
 40
0.0314252561
 40
0.0366182449
 40
0.0419916453
 40
0.0475457694
 40
0.0532805541
 40
0.0591955582
 40
0.0652900785
 40
0.0715630739
 40
0.0846387684
 40
0.0984101018
 40
0.112860694
 40
0.1279712428
 40
0.1437198619
 40
0.1600823544
 40
0.1770324406
 40
0.1945419645
 40
0.2125810668
 40
0.2311183398
 40
0.2501209668
 40
0.2695548486
 40
0.289384725
 40
0.3095742955
 40
0.3300863312
 40
0.3508827821
 40
0.3719248818
 40
0.3931732491
 40
0.4145879914
 40
0.4577543474
 40
0.501099203
 40
0.5442952951
 40
0.5657359749
 40
0.587017582
 40
0.6081001434
 40
0.6289441761
 40
0.6495107926
 40
0.6697618048
 40
0.6896598276
 40
0.709168385
 40
0.7282520204
 40
0.7468764117
 40
0.7650084972
 40
0.7826166038
 40
0.7996705814
 40
0.8161419537
 40
0.8320040874
 40
0.8472323859
 40
0.8618045214
 40
0.8757007003
 40
0.8889039845
 40
0.9014006969
 40
0.9073810972
 40
0.9131815075
 40
0.9188013673
 40
0.9242405009
 40
0.9294990443
 40
0.9345775709
 40
0.9394770909
 40
0.9441990928
 40
0.9487456636
 40
0.9531194621
 40
0.9573238984
 40
0.9613631411
 40
0.9652422549
 40
0.9689673208
 40
0.9725454977
 40
0.9759852252
 40
0.9824864215
 40
0.9855752926
 40
0.9885737717
 40
0.9914977072
 40
0.9943643167
 40
0.9971920017
 40
1.0
 40
1.0
 40
1.0
 40
1.0
 10
11.6722844324
 20
9.6285753749
 30
0.0
 10
11.6712149328
 20
9.6275423176
 30
0.0
 10
11.6689833576
 20
9.6254835049
 30
0.0
 10
11.665440297
 20
9.6224764463
 30
0.0
 10
11.6616370523
 20
9.6194909458
 30
0.0
 10
11.6575757113
 20
9.6165286115
 30
0.0
 10
11.6532582684
 20
9.6135908127
 30
0.0
 10
11.6486868239
 20
9.6106789937
 30
0.0
 10
11.6438636692
 20
9.6077945298
 30
0.0
 10
11.6387911949
 20
9.6049389223
 30
0.0
 10
11.6334719597
 20
9.602113559
 30
0.0
 10
11.6279086193
 20
9.5993198627
 30
0.0
 10
11.6221039558
 20
9.5965592474
 30
0.0
 10
11.6160608962
 20
9.5938330691
 30
0.0
 10
11.6097824555
 20
9.5911427305
 30
0.0
 10
11.6009795317
 20
9.5875555095
 30
0.0
 10
11.5894029489
 20
9.5831805474
 30
0.0
 10
11.5748105378
 20
9.5781645895
 30
0.0
 10
11.5593609956
 20
9.5733227926
 30
0.0
 10
11.5430854706
 20
9.5686649978
 30
0.0
 10
11.5260166338
 20
9.5642006868
 30
0.0
 10
11.5081888692
 20
9.5599389535
 30
0.0
 10
11.4896381187
 20
9.5558884762
 30
0.0
 10
11.4704018202
 20
9.5520575054
 30
0.0
 10
11.4505188169
 20
9.5484538441
 30
0.0
 10
11.4300292767
 20
9.5450848317
 30
0.0
 10
11.4089746082
 20
9.5419573298
 30
0.0
 10
11.3873973769
 20
9.5390777058
 30
0.0
 10
11.3653412168
 20
9.5364518175
 30
0.0
 10
11.3428507377
 20
9.5340850067
 30
0.0
 10
11.3199714333
 20
9.5319820884
 30
0.0
 10
11.2967495843
 20
9.5301473389
 30
0.0
 10
11.2732321821
 20
9.5285844984
 30
0.0
 10
11.2494667688
 20
9.5272967198
 30
0.0
 10
11.2174294962
 20
9.5259465205
 30
0.0
 10
11.1771172183
 20
9.5249657936
 30
0.0
 10
11.1286556923
 20
9.5249146595
 30
0.0
 10
11.0883206366
 20
9.5258101466
 30
0.0
 10
11.0562473277
 20
9.5270922898
 30
0.0
 10
11.0324419688
 20
9.5283297411
 30
0.0
 10
11.0088759091
 20
9.5298427698
 30
0.0
 10
10.9855967901
 20
9.5316283273
 30
0.0
 10
10.9626517214
 20
9.5336827756
 30
0.0
 10
10.9400871175
 20
9.5360019353
 30
0.0
 10
10.9179486219
 20
9.5385810877
 30
0.0
 10
10.8962810102
 20
9.5414149853
 30
0.0
 10
10.8751281006
 20
9.5444978618
 30
0.0
 10
10.8545326612
 20
9.5478234447
 30
0.0
 10
10.8345363195
 20
9.5513849625
 30
0.0
 10
10.815179475
 20
9.5551751602
 30
0.0
 10
10.7965012165
 20
9.5591863172
 30
0.0
 10
10.7785392402
 20
9.5634102626
 30
0.0
 10
10.7613297702
 20
9.5678383924
 30
0.0
 10
10.7449074684
 20
9.572461691
 30
0.0
 10
10.7293053764
 20
9.5772707454
 30
0.0
 10
10.7145547475
 20
9.5822557778
 30
0.0
 10
10.700685282
 20
9.5874066676
 30
0.0
 10
10.6897296581
 20
9.5918919003
 30
0.0
 10
10.6814356708
 20
9.5955635401
 30
0.0
 10
10.6755439381
 20
9.5983117952
 30
0.0
 10
10.6698924936
 20
9.6010936321
 30
0.0
 10
10.6644841458
 20
9.6039076264
 30
0.0
 10
10.6593216207
 20
9.6067524054
 30
0.0
 10
10.6544074924
 20
9.6096265298
 30
0.0
 10
10.6497442089
 20
9.6125285626
 30
0.0
 10
10.6453341138
 20
9.6154571066
 30
0.0
 10
10.6411793718
 20
9.6184106687
 30
0.0
 10
10.6372820829
 20
9.6213878713
 30
0.0
 10
10.6336441557
 20
9.6243872355
 30
0.0
 10
10.6302674198
 20
9.6274073466
 30
0.0
 10
10.6271535615
 20
9.6304468285
 30
0.0
 10
10.6243041904
 20
9.6335041304
 30
0.0
 10
10.6217206002
 20
9.6365782844
 30
0.0
 10
10.6186897435
 20
9.6406203889
 30
0.0
 10
10.6161160903
 20
9.6447714849
 30
0.0
 10
10.6140726875
 20
9.6490111967
 30
0.0
 10
10.6128380905
 20
9.6521467907
 30
0.0
 10
10.6118766163
 20
9.655289999
 30
0.0
 10
10.6111891596
 20
9.6584393266
 30
0.0
 10
10.6107763603
 20
9.6615924992
 30
0.0
 10
10.6106844641
 20
9.6636990715
 30
0.0
 10
10.6106844593
 20
9.6647481134
 30
0.0
  0
SPLINE
  5
34E
100
AcDbEntity
  8
0
100
AcDbSpline
 62
7
  6
CONTINUOUS
 70
0
 71
3
 72
42
 73
38
 74
0
 42
0.0000001
 43
0.0000001
 44
0.0000000001
 40
0.0
 40
0.0
 40
0.0
 40
0.0
 40
0.0310747671
 40
0.0466741744
 40
0.0623120752
 40
0.0936967636
 40
0.1252253831
 40
0.1568866086
 40
0.188666231
 40
0.2205476529
 40
0.2525121971
 40
0.2845395151
 40
0.3166080013
 40
0.3486952303
 40
0.3807784043
 40
0.4128348061
 40
0.4448422504
 40
0.4767795287
 40
0.5086268395
 40
0.5403661985
 40
0.5719818222
 40
0.603460476
 40
0.6347917816
 40
0.665968474
 40
0.6969866017
 40
0.7278456627
 40
0.7585486678
 40
0.7891021282
 40
0.8195159588
 40
0.8498032991
 40
0.8649073391
 40
0.8799860234
 40
0.9100712949
 40
0.940085795
 40
0.9550764649
 40
0.9700580337
 40
1.0
 40
1.0
 40
1.0
 40
1.0
 10
10.3093503854
 20
6.8801733977
 30
0.0
 10
10.3093503854
 20
6.8846617186
 30
0.0
 10
10.3090994983
 20
6.8914065465
 30
0.0
 10
10.3082709124
 20
6.9003698573
 30
0.0
 10
10.3071098976
 20
6.9093417512
 30
0.0
 10
10.3050402497
 20
6.9205079448
 30
0.0
 10
10.3015880818
 20
6.9337363272
 30
0.0
 10
10.2971831952
 20
6.9467391291
 30
0.0
 10
10.2918499199
 20
6.9594445505
 30
0.0
 10
10.285617621
 20
6.9717829829
 30
0.0
 10
10.2785205846
 20
6.983686691
 30
0.0
 10
10.270597822
 20
6.9950903682
 30
0.0
 10
10.2618928572
 20
7.0059314396
 30
0.0
 10
10.2524534901
 20
7.0161504144
 30
0.0
 10
10.2423315361
 20
7.0256912059
 30
0.0
 10
10.2315825449
 20
7.0345014368
 30
0.0
 10
10.2202654984
 20
7.0425327236
 30
0.0
 10
10.2084424912
 20
7.0497409402
 30
0.0
 10
10.1961783935
 20
7.0560864583
 30
0.0
 10
10.1835405001
 20
7.0615343639
 30
0.0
 10
10.170598166
 20
7.0660546499
 30
0.0
 10
10.1574224309
 20
7.0696223806
 30
0.0
 10
10.1440856347
 20
7.0722178306
 30
0.0
 10
10.1306610251
 20
7.0738265957
 30
0.0
 10
10.1172223647
 20
7.0744396786
 30
0.0
 10
10.1038435158
 20
7.0740535381
 30
0.0
 10
10.0905980925
 20
7.07267014
 30
0.0
 10
10.0775588558
 20
7.0702968652
 30
0.0
 10
10.0647980639
 20
7.066946815
 30
0.0
 10
10.0544432197
 20
7.0633522367
 30
0.0
 10
10.046372112
 20
7.0600093758
 30
0.0
 10
10.0384643851
 20
7.0563656621
 30
0.0
 10
10.0288762301
 20
7.0512438433
 30
0.0
 10
10.0197326524
 20
7.045388391
 30
0.0
 10
10.012725209
 20
7.0402892557
 30
0.0
 10
10.0059340163
 20
7.0349231157
 30
0.0
 10
10.0010848424
 20
7.0305982894
 30
0.0
 10
9.9979742799
 20
7.0275937162
 30
0.0
  0
SPLINE
  5
34F
100
AcDbEntity
  8
0
100
AcDbSpline
 62
7
  6
CONTINUOUS
 70
0
 71
3
 72
42
 73
38
 74
0
 42
0.0000001
 43
0.0000001
 44
0.0000000001
 40
0.0
 40
0.0
 40
0.0
 40
0.0
 40
0.0310747671
 40
0.0466741744
 40
0.0623120752
 40
0.0936967636
 40
0.1252253831
 40
0.1568866086
 40
0.188666231
 40
0.2205476529
 40
0.2525121971
 40
0.2845395151
 40
0.3166080013
 40
0.3486952303
 40
0.3807784043
 40
0.4128348061
 40
0.4448422504
 40
0.4767795287
 40
0.5086268395
 40
0.5403661985
 40
0.5719818222
 40
0.603460476
 40
0.6347917816
 40
0.665968474
 40
0.6969866017
 40
0.7278456627
 40
0.7585486678
 40
0.7891021282
 40
0.8195159588
 40
0.8498032991
 40
0.8649073391
 40
0.8799860234
 40
0.9100712949
 40
0.940085795
 40
0.9550764649
 40
0.9700580337
 40
1.0
 40
1.0
 40
1.0
 40
1.0
 10
10.8831103428
 20
6.4482169682
 30
0.0
 10
10.8831103428
 20
6.4527052891
 30
0.0
 10
10.8828594556
 20
6.459450117
 30
0.0
 10
10.8820308697
 20
6.4684134277
 30
0.0
 10
10.8808698549
 20
6.4773853216
 30
0.0
 10
10.878800207
 20
6.4885515152
 30
0.0
 10
10.8753480391
 20
6.5017798976
 30
0.0
 10
10.8709431525
 20
6.5147826995
 30
0.0
 10
10.8656098772
 20
6.527488121
 30
0.0
 10
10.8593775783
 20
6.5398265533
 30
0.0
 10
10.8522805419
 20
6.5517302614
 30
0.0
 10
10.8443577793
 20
6.5631339387
 30
0.0
 10
10.8356528145
 20
6.57397501
 30
0.0
 10
10.8262134474
 20
6.5841939848
 30
0.0
 10
10.8160914934
 20
6.5937347764
 30
0.0
 10
10.8053425022
 20
6.6025450073
 30
0.0
 10
10.7940254557
 20
6.6105762941
 30
0.0
 10
10.7822024485
 20
6.6177845107
 30
0.0
 10
10.7699383508
 20
6.6241300287
 30
0.0
 10
10.7573004574
 20
6.6295779344
 30
0.0
 10
10.7443581233
 20
6.6340982204
 30
0.0
 10
10.7311823882
 20
6.6376659511
 30
0.0
 10
10.717845592
 20
6.640261401
 30
0.0
 10
10.7044209824
 20
6.6418701661
 30
0.0
 10
10.690982322
 20
6.6424832491
 30
0.0
 10
10.6776034731
 20
6.6420971085
 30
0.0
 10
10.6643580498
 20
6.6407137105
 30
0.0
 10
10.6513188131
 20
6.6383404356
 30
0.0
 10
10.6385580212
 20
6.6349903855
 30
0.0
 10
10.628203177
 20
6.6313958072
 30
0.0
 10
10.6201320693
 20
6.6280529463
 30
0.0
 10
10.6122243424
 20
6.6244092325
 30
0.0
 10
10.6026361874
 20
6.6192874137
 30
0.0
 10
10.5934926097
 20
6.6134319615
 30
0.0
 10
10.5864851663
 20
6.6083328261
 30
0.0
 10
10.5796939737
 20
6.6029666861
 30
0.0
 10
10.5748447997
 20
6.5986418598
 30
0.0
 10
10.5717342372
 20
6.5956372866
 30
0.0
  0
SPLINE
  5
350
100
AcDbEntity
  8
0
100
AcDbSpline
 62
7
  6
CONTINUOUS
 70
0
 71
3
 72
21
 73
17
 74
0
 42
0.0000001
 43
0.0000001
 44
0.0000000001
 40
0.0
 40
0.0
 40
0.0
 40
0.0
 40
0.1273176366
 40
0.2537999756
 40
0.3167619475
 40
0.3795355041
 40
0.4421314991
 40
0.5045621439
 40
0.5668413432
 40
0.6289845283
 40
0.6910084528
 40
0.7529310935
 40
0.8147714495
 40
0.8765493365
 40
0.9382852194
 40
1.0
 40
1.0
 40
1.0
 40
1.0
 10
11.3052199889
 20
5.9060370183
 30
0.0
 10
11.3052199889
 20
5.9002623999
 30
0.0
 10
11.3046687634
 20
5.8887436163
 30
0.0
 10
11.3025869639
 20
5.8745039108
 30
0.0
 10
11.3000987506
 20
5.8633341067
 30
0.0
 10
11.2978296338
 20
5.8550952552
 30
0.0
 10
11.2951601706
 20
5.8470027945
 30
0.0
 10
11.2920964775
 20
5.8390751639
 30
0.0
 10
11.2886456409
 20
5.8313306923
 30
0.0
 10
11.2848155704
 20
5.8237872399
 30
0.0
 10
11.2806150763
 20
5.8164622207
 30
0.0
 10
11.27605387
 20
5.8093725056
 30
0.0
 10
11.2711424576
 20
5.8025344758
 30
0.0
 10
11.265892079
 20
5.7959638741
 30
0.0
 10
11.2603150893
 20
5.7896760326
 30
0.0
 10
11.2563871787
 20
5.7856815849
 30
0.0
 10
11.2543738879
 20
5.783736895
 30
0.0
  0
SPLINE
  5
351
100
AcDbEntity
  8
0
100
AcDbSpline
 62
7
  6
CONTINUOUS
 70
0
 71
3
 72
31
 73
27
 74
0
 42
0.0000001
 43
0.0000001
 44
0.0000000001
 40
0.0
 40
0.0
 40
0.0
 40
0.0
 40
0.0845018904
 40
0.167301158
 40
0.2480799795
 40
0.3265304606
 40
0.4023579462
 40
0.475282401
 40
0.5450409099
 40
0.6113901015
 40
0.6432172375
 40
0.6741112302
 40
0.7040486061
 40
0.7330077048
 40
0.7609690412
 40
0.7879152504
 40
0.8138316265
 40
0.8387060317
 40
0.8625296419
 40
0.8852968756
 40
0.9070063887
 40
0.927661115
 40
0.9472695745
 40
0.9658461645
 40
0.9834128737
 40
1.0
 40
1.0
 40
1.0
 40
1.0
 10
12.023928706
 20
9.8512376986
 30
0.0
 10
12.0310497101
 20
9.8507438553
 30
0.0
 10
12.0451399341
 20
9.8496411359
 30
0.0
 10
12.0659993565
 20
9.8476191107
 30
0.0
 10
12.0863080978
 20
9.8452523949
 30
0.0
 10
12.1059808586
 20
9.8425510386
 30
0.0
 10
12.1249351004
 20
9.8395265326
 30
0.0
 10
12.1430914201
 20
9.8361917503
 30
0.0
 10
12.1603736384
 20
9.8325608595
 30
0.0
 10
12.1741718636
 20
9.8292571562
 30
0.0
 10
12.1847125162
 20
9.8264683498
 30
0.0
 10
12.192245548
 20
9.8243415449
 30
0.0
 10
12.1995081624
 20
9.8221528002
 30
0.0
 10
12.2064927624
 20
9.8199043779
 30
0.0
 10
12.2131920415
 20
9.8175986793
 30
0.0
 10
12.2195989956
 20
9.8152380967
 30
0.0
 10
12.225706947
 20
9.8128251514
 30
0.0
 10
12.231509526
 20
9.8103623267
 30
0.0
 10
12.2370007181
 20
9.8078522521
 30
0.0
 10
12.2421748201
 20
9.8052974788
 30
0.0
 10
12.2470265143
 20
9.8027007187
 30
0.0
 10
12.2515507947
 20
9.800064555
 30
0.0
 10
12.2557430563
 20
9.7973917507
 30
0.0
 10
12.2595990485
 20
9.7946848283
 30
0.0
 10
12.2631147315
 20
9.7919466725
 30
0.0
 10
12.2652903147
 20
9.790048757
 30
0.0
 10
12.2663160348
 20
9.7890942161
 30
0.0
  0
SPLINE
  5
352
100
AcDbEntity
  8
0
100
AcDbSpline
 62
7
  6
CONTINUOUS
 70
0
 71
3
 72
41
 73
37
 74
0
 42
0.0000001
 43
0.0000001
 44
0.0000000001
 40
0.0
 40
0.0
 40
0.0
 40
0.0
 40
0.029942123
 40
0.0449237706
 40
0.0599145177
 40
0.0899291716
 40
0.1200145961
 40
0.1350933574
 40
0.1501974726
 40
0.1804849654
 40
0.2108989488
 40
0.2414525624
 40
0.2721557217
 40
0.3030149378
 40
0.3340332219
 40
0.3652100719
 40
0.3965415365
 40
0.4280203507
 40
0.4596361361
 40
0.4913756582
 40
0.5232231336
 40
0.5551605782
 40
0.5871681905
 40
0.6192247616
 40
0.6513081064
 40
0.6833955071
 40
0.7154641657
 40
0.7474916563
 40
0.7794563734
 40
0.811337967
 40
0.843117763
 40
0.8747791516
 40
0.9063079641
 40
0.9376927517
 40
0.9689251728
 40
1.0
 40
1.0
 40
1.0
 40
1.0
 10
9.7764632252
 20
8.0250641639
 30
0.0
 10
9.7787940719
 20
8.0273156043
 30
0.0
 10
9.7824277024
 20
8.0305563773
 30
0.0
 10
9.7875165459
 20
8.0345774619
 30
0.0
 10
9.7927674562
 20
8.0383984426
 30
0.0
 10
9.7996190276
 20
8.0427861887
 30
0.0
 10
9.8068037459
 20
8.0466241928
 30
0.0
 10
9.8127292702
 20
8.0493545837
 30
0.0
 10
9.818777217
 20
8.0518595488
 30
0.0
 10
9.8265364517
 20
8.0545531322
 30
0.0
 10
9.8360985472
 20
8.0570634939
 30
0.0
 10
9.8458692962
 20
8.0588419204
 30
0.0
 10
9.8557945518
 20
8.0598785956
 30
0.0
 10
9.8658197917
 20
8.0601679882
 30
0.0
 10
9.8758898536
 20
8.0597086248
 30
0.0
 10
9.8859493897
 20
8.0585031592
 30
0.0
 10
9.8959431267
 20
8.0565583333
 30
0.0
 10
9.9058161772
 20
8.0538849406
 30
0.0
 10
9.915514334
 20
8.0504977623
 30
0.0
 10
9.9249843646
 20
8.0464154838
 30
0.0
 10
9.9341742987
 20
8.0416605908
 30
0.0
 10
9.9430337097
 20
8.0362592449
 30
0.0
 10
9.9515139875
 20
8.0302411408
 30
0.0
 10
9.9595686022
 20
8.0236393437
 30
0.0
 10
9.9671533559
 20
8.0164901087
 30
0.0
 10
9.9742266229
 20
8.0088326842
 30
0.0
 10
9.9807495755
 20
8.0007090979
 30
0.0
 10
9.9866863954
 20
7.9921639289
 30
0.0
 10
9.992004468
 20
7.9832440656
 30
0.0
 10
9.9966745607
 20
7.9739984504
 30
0.0
 10
10.0006709815
 20
7.9644778202
 30
0.0
 10
10.0039717229
 20
7.954734408
 30
0.0
 10
10.0065585757
 20
7.9448217487
 30
0.0
 10
10.0084172445
 20
7.9347940628
 30
0.0
 10
10.0095374064
 20
7.9247071611
 30
0.0
 10
10.0097883044
 20
7.9179610253
 30
0.0
 10
10.0097883044
 20
7.9145977793
 30
0.0
  0
SPLINE
  5
353
100
AcDbEntity
  8
0
100
AcDbSpline
 62
7
  6
CONTINUOUS
 70
0
 71
3
 72
41
 73
37
 74
0
 42
0.0000001
 43
0.0000001
 44
0.0000000001
 40
0.0
 40
0.0
 40
0.0
 40
0.0
 40
0.029942123
 40
0.0449237706
 40
0.0599145177
 40
0.0899291716
 40
0.1200145961
 40
0.1350933574
 40
0.1501974726
 40
0.1804849654
 40
0.2108989488
 40
0.2414525624
 40
0.2721557217
 40
0.3030149378
 40
0.3340332219
 40
0.3652100719
 40
0.3965415365
 40
0.4280203507
 40
0.4596361361
 40
0.4913756582
 40
0.5232231336
 40
0.5551605782
 40
0.5871681905
 40
0.6192247616
 40
0.6513081064
 40
0.6833955071
 40
0.7154641657
 40
0.7474916563
 40
0.7794563734
 40
0.811337967
 40
0.843117763
 40
0.8747791516
 40
0.9063079641
 40
0.9376927517
 40
0.9689251728
 40
1.0
 40
1.0
 40
1.0
 40
1.0
 10
11.5267208172
 20
7.9036833877
 30
0.0
 10
11.5290516639
 20
7.9059348281
 30
0.0
 10
11.5326852944
 20
7.909175601
 30
0.0
 10
11.5377741379
 20
7.9131966856
 30
0.0
 10
11.5430250482
 20
7.9170176663
 30
0.0
 10
11.5498766197
 20
7.9214054124
 30
0.0
 10
11.5570613379
 20
7.9252434166
 30
0.0
 10
11.5629868623
 20
7.9279738074
 30
0.0
 10
11.5690348091
 20
7.9304787726
 30
0.0
 10
11.5767940437
 20
7.9331723559
 30
0.0
 10
11.5863561392
 20
7.9356827177
 30
0.0
 10
11.5961268882
 20
7.9374611441
 30
0.0
 10
11.6060521438
 20
7.9384978193
 30
0.0
 10
11.6160773837
 20
7.9387872119
 30
0.0
 10
11.6261474456
 20
7.9383278486
 30
0.0
 10
11.6362069817
 20
7.937122383
 30
0.0
 10
11.6462007187
 20
7.935177557
 30
0.0
 10
11.6560737692
 20
7.9325041643
 30
0.0
 10
11.665771926
 20
7.9291169861
 30
0.0
 10
11.6752419566
 20
7.9250347076
 30
0.0
 10
11.6844318907
 20
7.9202798145
 30
0.0
 10
11.6932913017
 20
7.9148784686
 30
0.0
 10
11.7017715795
 20
7.9088603646
 30
0.0
 10
11.7098261942
 20
7.9022585674
 30
0.0
 10
11.7174109479
 20
7.8951093324
 30
0.0
 10
11.7244842149
 20
7.8874519079
 30
0.0
 10
11.7310071676
 20
7.8793283216
 30
0.0
 10
11.7369439874
 20
7.8707831526
 30
0.0
 10
11.74226206
 20
7.8618632894
 30
0.0
 10
11.7469321527
 20
7.8526176742
 30
0.0
 10
11.7509285735
 20
7.8430970439
 30
0.0
 10
11.7542293149
 20
7.8333536318
 30
0.0
 10
11.7568161678
 20
7.8234409724
 30
0.0
 10
11.7586748366
 20
7.8134132866
 30
0.0
 10
11.7597949984
 20
7.8033263849
 30
0.0
 10
11.7600458964
 20
7.796580249
 30
0.0
 10
11.7600458964
 20
7.7932170031
 30
0.0
  0
SPLINE
  5
354
100
AcDbEntity
  8
0
100
AcDbSpline
 62
7
  6
CONTINUOUS
 70
0
 71
3
 72
41
 73
37
 74
0
 42
0.0000001
 43
0.0000001
 44
0.0000000001
 40
0.0
 40
0.0
 40
0.0
 40
0.0
 40
0.029942123
 40
0.0449237706
 40
0.0599145177
 40
0.0899291716
 40
0.1200145961
 40
0.1350933574
 40
0.1501974726
 40
0.1804849654
 40
0.2108989488
 40
0.2414525624
 40
0.2721557217
 40
0.3030149378
 40
0.3340332219
 40
0.3652100719
 40
0.3965415365
 40
0.4280203507
 40
0.4596361361
 40
0.4913756582
 40
0.5232231336
 40
0.5551605782
 40
0.5871681905
 40
0.6192247616
 40
0.6513081064
 40
0.6833955071
 40
0.7154641657
 40
0.7474916563
 40
0.7794563734
 40
0.811337967
 40
0.843117763
 40
0.8747791516
 40
0.9063079641
 40
0.9376927517
 40
0.9689251728
 40
1.0
 40
1.0
 40
1.0
 40
1.0
 10
11.5267208172
 20
5.8510908852
 30
0.0
 10
11.5290516639
 20
5.8533423256
 30
0.0
 10
11.5326852944
 20
5.8565830985
 30
0.0
 10
11.5377741379
 20
5.8606041831
 30
0.0
 10
11.5430250482
 20
5.8644251638
 30
0.0
 10
11.5498766197
 20
5.8688129099
 30
0.0
 10
11.5570613379
 20
5.8726509141
 30
0.0
 10
11.5629868623
 20
5.8753813049
 30
0.0
 10
11.5690348091
 20
5.8778862701
 30
0.0
 10
11.5767940437
 20
5.8805798535
 30
0.0
 10
11.5863561392
 20
5.8830902152
 30
0.0
 10
11.5961268882
 20
5.8848686416
 30
0.0
 10
11.6060521438
 20
5.8859053168
 30
0.0
 10
11.6160773837
 20
5.8861947094
 30
0.0
 10
11.6261474456
 20
5.8857353461
 30
0.0
 10
11.6362069817
 20
5.8845298805
 30
0.0
 10
11.6462007187
 20
5.8825850545
 30
0.0
 10
11.6560737692
 20
5.8799116619
 30
0.0
 10
11.665771926
 20
5.8765244836
 30
0.0
 10
11.6752419566
 20
5.8724422051
 30
0.0
 10
11.6844318907
 20
5.867687312
 30
0.0
 10
11.6932913017
 20
5.8622859661
 30
0.0
 10
11.7017715795
 20
5.8562678621
 30
0.0
 10
11.7098261942
 20
5.8496660649
 30
0.0
 10
11.7174109479
 20
5.8425168299
 30
0.0
 10
11.7244842149
 20
5.8348594054
 30
0.0
 10
11.7310071676
 20
5.8267358191
 30
0.0
 10
11.7369439874
 20
5.8181906501
 30
0.0
 10
11.74226206
 20
5.8092707869
 30
0.0
 10
11.7469321527
 20
5.8000251717
 30
0.0
 10
11.7509285735
 20
5.7905045414
 30
0.0
 10
11.7542293149
 20
5.7807611293
 30
0.0
 10
11.7568161678
 20
5.7708484699
 30
0.0
 10
11.7586748366
 20
5.7608207841
 30
0.0
 10
11.7597949984
 20
5.7507338824
 30
0.0
 10
11.7600458964
 20
5.7439877465
 30
0.0
 10
11.7600458964
 20
5.7406245006
 30
0.0
  0
SPLINE
  5
355
100
AcDbEntity
  8
0
100
AcDbSpline
 62
7
  6
CONTINUOUS
 70
0
 71
3
 72
41
 73
37
 74
0
 42
0.0000001
 43
0.0000001
 44
0.0000000001
 40
0.0
 40
0.0
 40
0.0
 40
0.0
 40
0.029942123
 40
0.0449237706
 40
0.0599145177
 40
0.0899291716
 40
0.1200145961
 40
0.1350933574
 40
0.1501974726
 40
0.1804849654
 40
0.2108989488
 40
0.2414525624
 40
0.2721557217
 40
0.3030149378
 40
0.3340332219
 40
0.3652100719
 40
0.3965415365
 40
0.4280203507
 40
0.4596361361
 40
0.4913756582
 40
0.5232231336
 40
0.5551605782
 40
0.5871681905
 40
0.6192247616
 40
0.6513081064
 40
0.6833955071
 40
0.7154641657
 40
0.7474916563
 40
0.7794563734
 40
0.811337967
 40
0.843117763
 40
0.8747791516
 40
0.9063079641
 40
0.9376927517
 40
0.9689251728
 40
1.0
 40
1.0
 40
1.0
 40
1.0
 10
9.7764632252
 20
5.9724716614
 30
0.0
 10
9.7787940719
 20
5.9747231019
 30
0.0
 10
9.7824277024
 20
5.9779638748
 30
0.0
 10
9.7875165459
 20
5.9819849594
 30
0.0
 10
9.7927674562
 20
5.9858059401
 30
0.0
 10
9.7996190276
 20
5.9901936862
 30
0.0
 10
9.8068037459
 20
5.9940316903
 30
0.0
 10
9.8127292702
 20
5.9967620812
 30
0.0
 10
9.818777217
 20
5.9992670463
 30
0.0
 10
9.8265364517
 20
6.0019606297
 30
0.0
 10
9.8360985472
 20
6.0044709914
 30
0.0
 10
9.8458692962
 20
6.0062494179
 30
0.0
 10
9.8557945518
 20
6.0072860931
 30
0.0
 10
9.8658197917
 20
6.0075754857
 30
0.0
 10
9.8758898536
 20
6.0071161224
 30
0.0
 10
9.8859493897
 20
6.0059106567
 30
0.0
 10
9.8959431267
 20
6.0039658308
 30
0.0
 10
9.9058161772
 20
6.0012924381
 30
0.0
 10
9.915514334
 20
5.9979052598
 30
0.0
 10
9.9249843646
 20
5.9938229814
 30
0.0
 10
9.9341742987
 20
5.9890680883
 30
0.0
 10
9.9430337097
 20
5.9836667424
 30
0.0
 10
9.9515139875
 20
5.9776486384
 30
0.0
 10
9.9595686022
 20
5.9710468412
 30
0.0
 10
9.9671533559
 20
5.9638976062
 30
0.0
 10
9.9742266229
 20
5.9562401817
 30
0.0
 10
9.9807495755
 20
5.9481165954
 30
0.0
 10
9.9866863954
 20
5.9395714264
 30
0.0
 10
9.992004468
 20
5.9306515631
 30
0.0
 10
9.9966745607
 20
5.921405948
 30
0.0
 10
10.0006709815
 20
5.9118853177
 30
0.0
 10
10.0039717229
 20
5.9021419056
 30
0.0
 10
10.0065585757
 20
5.8922292462
 30
0.0
 10
10.0084172445
 20
5.8822015603
 30
0.0
 10
10.0095374064
 20
5.8721146586
 30
0.0
 10
10.0097883044
 20
5.8653685228
 30
0.0
 10
10.0097883044
 20
5.8620052768
 30
0.0
  0
SPLINE
  5
356
100
AcDbEntity
  8
0
100
AcDbSpline
 62
7
  6
CONTINUOUS
 70
0
 71
3
 72
21
 73
17
 74
0
 42
0.0000001
 43
0.0000001
 44
0.0000000001
 40
0.0
 40
0.0
 40
0.0
 40
0.0
 40
0.0617147806
 40
0.1234506635
 40
0.1852285505
 40
0.2470689066
 40
0.3089915473
 40
0.3710154718
 40
0.4331586569
 40
0.4954378562
 40
0.5578685009
 40
0.620464496
 40
0.6832380525
 40
0.7462000245
 40
0.8726823634
 40
1.0
 40
1.0
 40
1.0
 40
1.0
 10
10.2585042847
 20
6.7578732746
 30
0.0
 10
10.2605175755
 20
6.7598179646
 30
0.0
 10
10.264445486
 20
6.7638124123
 30
0.0
 10
10.2700224758
 20
6.7701002538
 30
0.0
 10
10.2752728543
 20
6.7766708554
 30
0.0
 10
10.2801842667
 20
6.7835088853
 30
0.0
 10
10.284745473
 20
6.7905986003
 30
0.0
 10
10.2889459671
 20
6.7979236195
 30
0.0
 10
10.2927760376
 20
6.8054670719
 30
0.0
 10
10.2962268741
 20
6.8132115434
 30
0.0
 10
10.2992905672
 20
6.8211391741
 30
0.0
 10
10.3019600304
 20
6.8292316348
 30
0.0
 10
10.3042291472
 20
6.8374704863
 30
0.0
 10
10.3067173605
 20
6.8486402903
 30
0.0
 10
10.30879916
 20
6.8628799957
 30
0.0
 10
10.3093503854
 20
6.8743987794
 30
0.0
 10
10.3093503854
 20
6.8801733977
 30
0.0
  0
SPLINE
  5
357
100
AcDbEntity
  8
0
100
AcDbSpline
 62
7
  6
CONTINUOUS
 70
0
 71
3
 72
21
 73
17
 74
0
 42
0.0000001
 43
0.0000001
 44
0.0000000001
 40
0.0
 40
0.0
 40
0.0
 40
0.0
 40
0.0617147806
 40
0.1234506635
 40
0.1852285505
 40
0.2470689066
 40
0.3089915473
 40
0.3710154718
 40
0.4331586569
 40
0.4954378562
 40
0.5578685009
 40
0.620464496
 40
0.6832380525
 40
0.7462000245
 40
0.8726823634
 40
1.0
 40
1.0
 40
1.0
 40
1.0
 10
10.832264242
 20
6.3259168451
 30
0.0
 10
10.8342775329
 20
6.327861535
 30
0.0
 10
10.8382054433
 20
6.3318559827
 30
0.0
 10
10.8437824331
 20
6.3381438242
 30
0.0
 10
10.8490328116
 20
6.3447144259
 30
0.0
 10
10.853944224
 20
6.3515524557
 30
0.0
 10
10.8585054303
 20
6.3586421708
 30
0.0
 10
10.8627059244
 20
6.3659671899
 30
0.0
 10
10.8665359949
 20
6.3735106424
 30
0.0
 10
10.8699868315
 20
6.3812551139
 30
0.0
 10
10.8730505245
 20
6.3891827445
 30
0.0
 10
10.8757199877
 20
6.3972752053
 30
0.0
 10
10.8779891045
 20
6.4055140567
 30
0.0
 10
10.8804773179
 20
6.4166838608
 30
0.0
 10
10.8825591173
 20
6.4309235662
 30
0.0
 10
10.8831103428
 20
6.4424423499
 30
0.0
 10
10.8831103428
 20
6.4482169682
 30
0.0
  0
SPLINE
  5
358
100
AcDbEntity
  8
0
100
AcDbSpline
 62
7
  6
CONTINUOUS
 70
0
 71
3
 72
42
 73
38
 74
0
 42
0.0000001
 43
0.0000001
 44
0.0000000001
 40
0.0
 40
0.0
 40
0.0
 40
0.0
 40
0.0299419663
 40
0.0449235352
 40
0.0599142051
 40
0.0899287052
 40
0.1200139767
 40
0.135092661
 40
0.150196701
 40
0.1804840414
 40
0.210897872
 40
0.2414513324
 40
0.2721543376
 40
0.3030133986
 40
0.3340315263
 40
0.3652082187
 40
0.3965395244
 40
0.4280181782
 40
0.4596338019
 40
0.4913731609
 40
0.5232204716
 40
0.55515775
 40
0.5871651943
 40
0.6192215961
 40
0.6513047701
 40
0.6833919991
 40
0.7154604852
 40
0.7474878032
 40
0.7794523473
 40
0.8113337692
 40
0.8431133916
 40
0.8747746171
 40
0.9063032365
 40
0.9376879249
 40
0.9533258257
 40
0.968925233
 40
1.0
 40
1.0
 40
1.0
 40
1.0
 10
10.9938438835
 20
6.0534573369
 30
0.0
 10
10.9969544461
 20
6.0564619102
 30
0.0
 10
11.00180362
 20
6.0607867364
 30
0.0
 10
11.0085948127
 20
6.0661528764
 30
0.0
 10
11.0156022561
 20
6.0712520118
 30
0.0
 10
11.0247458338
 20
6.077107464
 30
0.0
 10
11.0343339888
 20
6.0822292828
 30
0.0
 10
11.0422417157
 20
6.0858729965
 30
0.0
 10
11.0503128234
 20
6.0892158574
 30
0.0
 10
11.0606676676
 20
6.0928104357
 30
0.0
 10
11.0734284595
 20
6.0961604858
 30
0.0
 10
11.0864676962
 20
6.0985337606
 30
0.0
 10
11.0997131195
 20
6.0999171587
 30
0.0
 10
11.1130919685
 20
6.1003032992
 30
0.0
 10
11.1265306288
 20
6.0996902162
 30
0.0
 10
11.1399552384
 20
6.0980814511
 30
0.0
 10
11.1532920346
 20
6.0954860011
 30
0.0
 10
11.1664677698
 20
6.0919182704
 30
0.0
 10
11.1794101038
 20
6.0873979843
 30
0.0
 10
11.1920479972
 20
6.0819500787
 30
0.0
 10
11.2043120949
 20
6.0756045606
 30
0.0
 10
11.2161351021
 20
6.068396344
 30
0.0
 10
11.2274521485
 20
6.0603650572
 30
0.0
 10
11.2382011397
 20
6.0515548263
 30
0.0
 10
11.2483230937
 20
6.0420140348
 30
0.0
 10
11.2577624608
 20
6.0317950599
 30
0.0
 10
11.2664674256
 20
6.0209539886
 30
0.0
 10
11.2743901882
 20
6.0095503113
 30
0.0
 10
11.2814872245
 20
5.9976466033
 30
0.0
 10
11.2877195234
 20
5.985308171
 30
0.0
 10
11.2930527987
 20
5.9726027495
 30
0.0
 10
11.2974576852
 20
5.9595999476
 30
0.0
 10
11.3009098531
 20
5.9463715653
 30
0.0
 10
11.302979501
 20
5.9352053717
 30
0.0
 10
11.3041405158
 20
5.9262334778
 30
0.0
 10
11.3049691017
 20
5.917270167
 30
0.0
 10
11.3052199889
 20
5.9105253392
 30
0.0
 10
11.3052199889
 20
5.9060370183
 30
0.0
  0
SPLINE
  5
359
100
AcDbEntity
  8
0
100
AcDbSpline
 62
7
  6
CONTINUOUS
 70
0
 71
3
 72
18
 73
14
 74
0
 42
0.0000001
 43
0.0000001
 44
0.0000000001
 40
0.0
 40
0.0
 40
0.0
 40
0.0
 40
0.0548621106
 40
0.1099281304
 40
0.165399556
 40
0.2214731722
 40
0.2783387379
 40
0.3361775111
 40
0.4554063056
 40
0.5804414047
 40
0.7123341351
 40
0.8519581983
 40
1.0
 40
1.0
 40
1.0
 40
1.0
 10
11.6906844513
 20
9.664748799
 30
0.0
 10
11.6906844548
 20
9.6639861613
 30
0.0
 10
11.6906360572
 20
9.6624576135
 30
0.0
 10
11.6904184413
 20
9.6601672759
 30
0.0
 10
11.6900558309
 20
9.6578782598
 30
0.0
 10
11.689548363
 20
9.6555914006
 30
0.0
 10
11.6888962514
 20
9.6533072696
 30
0.0
 10
11.6878236488
 20
9.6502357297
 30
0.0
 10
11.6861053504
 20
9.646394059
 30
0.0
 10
11.6834899864
 20
9.6418570264
 30
0.0
 10
11.6803045992
 20
9.6373493541
 30
0.0
 10
11.6765540347
 20
9.6328755851
 30
0.0
 10
11.6737646063
 20
9.6300051131
 30
0.0
 10
11.6722844324
 20
9.6285753749
 30
0.0
  0
SPLINE
  5
35A
100
AcDbEntity
  8
0
100
AcDbSpline
 62
7
  6
CONTINUOUS
 70
0
 71
3
 72
39
 73
35
 74
0
 42
0.0000001
 43
0.0000001
 44
0.0000000001
 40
0.0
 40
0.0
 40
0.0
 40
0.0
 40
0.0072740609
 40
0.0148710987
 40
0.0227990055
 40
0.0310644039
 40
0.0396726832
 40
0.0486278341
 40
0.0579323608
 40
0.0675878247
 40
0.0775947766
 40
0.0879529422
 40
0.1097171419
 40
0.1328654483
 40
0.1573722348
 40
0.1832040234
 40
0.2103205583
 40
0.2386756272
 40
0.2682177396
 40
0.2988907408
 40
0.3306342899
 40
0.3633842613
 40
0.3970730791
 40
0.4316300925
 40
0.466981898
 40
0.5030526247
 40
0.5397641902
 40
0.5770365759
 40
0.614788113
 40
0.6913935957
 40
0.7689053926
 40
0.8466360797
 40
0.9238954807
 40
1.0
 40
1.0
 40
1.0
 40
1.0
 10
10.0338453853
 20
9.897949263
 30
0.0
 10
10.0346115264
 20
9.8986622
 30
0.0
 10
10.0362130563
 20
9.9000822347
 30
0.0
 10
10.038759525
 20
9.9021512175
 30
0.0
 10
10.0414999705
 20
9.9042033379
 30
0.0
 10
10.0444326359
 20
9.9062373586
 30
0.0
 10
10.0475558599
 20
9.9082521693
 30
0.0
 10
10.0508678554
 20
9.9102466058
 30
0.0
 10
10.0543666693
 20
9.9122195653
 30
0.0
 10
10.0580502626
 20
9.9141698259
 30
0.0
 10
10.061916459
 20
9.916096287
 30
0.0
 10
10.0674026826
 20
9.9186742487
 30
0.0
 10
10.0747085287
 20
9.9218201527
 30
0.0
 10
10.0840258039
 20
9.9254228949
 30
0.0
 10
10.0940108176
 20
9.9289044665
 30
0.0
 10
10.1046399857
 20
9.932256564
 30
0.0
 10
10.1158883452
 20
9.9354711679
 30
0.0
 10
10.1277293251
 20
9.9385405768
 30
0.0
 10
10.1401349114
 20
9.9414574408
 30
0.0
 10
10.153075709
 20
9.9442147662
 30
0.0
 10
10.1665210299
 20
9.94680594
 30
0.0
 10
10.1804389632
 20
9.9492247434
 30
0.0
 10
10.194796451
 20
9.9514653856
 30
0.0
 10
10.2095593761
 20
9.953522501
 30
0.0
 10
10.224692651
 20
9.9553911618
 30
0.0
 10
10.2401603032
 20
9.9570668893
 30
0.0
 10
10.2559255449
 20
9.9585456645
 30
0.0
 10
10.2719509117
 20
9.9598239792
 30
0.0
 10
10.2937193001
 20
9.9612638836
 30
0.0
 10
10.3212981275
 20
9.9625371036
 30
0.0
 10
10.3546512154
 20
9.9632238781
 30
0.0
 10
10.3881052762
 20
9.9630700481
 30
0.0
 10
10.421342164
 20
9.9620771507
 30
0.0
 10
10.4433759784
 20
9.9608494026
 30
0.0
 10
10.4542991452
 20
9.9600918784
 30
0.0
  0
SPLINE
  5
35B
100
AcDbEntity
  8
0
100
AcDbSpline
 62
7
  6
CONTINUOUS
 70
0
 71
3
 72
18
 73
14
 74
0
 42
0.0000001
 43
0.0000001
 44
0.0000000001
 40
0.0
 40
0.0
 40
0.0
 40
0.0
 40
0.1492378719
 40
0.2896551254
 40
0.4219619721
 40
0.4853618993
 40
0.5470839706
 40
0.6660306019
 40
0.7801313525
 40
0.8358490322
 40
0.8909261152
 40
0.9455716555
 40
1.0
 40
1.0
 40
1.0
 40
1.0
 10
12.2961824295
 20
9.7613003994
 30
0.0
 10
12.2972839296
 20
9.7602753385
 30
0.0
 10
12.2993597964
 20
9.7582172192
 30
0.0
 10
12.3021544942
 20
9.7550041642
 30
0.0
 10
12.3041609308
 20
9.7522668831
 30
0.0
 10
12.3055428197
 20
9.7500687066
 30
0.0
 10
12.3067481446
 20
9.7479223465
 30
0.0
 10
12.3080013308
 20
9.7452207118
 30
0.0
 10
12.3089177291
 20
9.742449302
 30
0.0
 10
12.3094261805
 20
9.7402382363
 30
0.0
 10
12.3096966115
 20
9.7385910618
 30
0.0
 10
12.3098589092
 20
9.7369428977
 30
0.0
 10
12.3098950183
 20
9.7358428308
 30
0.0
 10
12.3098950226
 20
9.7352940621
 30
0.0
  0
SPLINE
  5
35C
100
AcDbEntity
  8
0
100
AcDbSpline
 62
7
  6
CONTINUOUS
 70
0
 71
3
 72
17
 73
13
 74
0
 42
0.0000001
 43
0.0000001
 44
0.0000000001
 40
0.0
 40
0.0
 40
0.0
 40
0.0
 40
0.0548654642
 40
0.1099349219
 40
0.2214349039
 40
0.3360992195
 40
0.4553348124
 40
0.517079118
 40
0.5804139608
 40
0.7123167483
 40
0.8519524535
 40
1.0
 40
1.0
 40
1.0
 40
1.0
 10
9.6910709033
 20
9.5551484633
 30
0.0
 10
9.6910708992
 20
9.5556780673
 30
0.0
 10
9.6911045263
 20
9.5567395835
 30
0.0
 10
9.6913067729
 20
9.5588685777
 30
0.0
 10
9.6918178209
 20
9.5615424086
 30
0.0
 10
9.6928333484
 20
9.5647255596
 30
0.0
 10
9.6940009969
 20
9.5673359759
 30
0.0
 10
9.6951245848
 20
9.5694102779
 30
0.0
 10
9.6964111383
 20
9.5715321873
 30
0.0
 10
9.6982792496
 20
9.574175795
 30
0.0
 10
9.7008837405
 20
9.5772824129
 30
0.0
 10
9.7028208267
 20
9.5792758172
 30
0.0
 10
9.7038486916
 20
9.5802686586
 30
0.0
  0
SPLINE
  5
35D
100
AcDbEntity
  8
0
100
AcDbSpline
 62
7
  6
CONTINUOUS
 70
0
 71
3
 72
42
 73
38
 74
0
 42
0.0000001
 43
0.0000001
 44
0.0000000001
 40
0.0
 40
0.0
 40
0.0
 40
0.0
 40
0.0310281067
 40
0.0466021932
 40
0.062213345
 40
0.0935413598
 40
0.125009391
 40
0.1566070888
 40
0.1883215656
 40
0.2201376937
 40
0.2520384078
 40
0.2840050465
 40
0.3160177119
 40
0.3480556475
 40
0.380097627
 40
0.4121223489
 40
0.4441088323
 40
0.4760368087
 40
0.5078871045
 40
0.5396420084
 40
0.5712856192
 40
0.6028041676
 40
0.6341863064
 40
0.665423362
 40
0.6965095427
 40
0.7274420958
 40
0.7582214079
 40
0.7888510447
 40
0.8193377219
 40
0.8496912083
 40
0.8648245151
 40
0.879929497
 40
0.9100572008
 40
0.9400972894
 40
0.9550932721
 40
0.970074835
 40
1.0
 40
1.0
 40
1.0
 40
1.0
 10
10.9626680141
 20
5.9501571994
 30
0.0
 10
10.9626680141
 20
5.9458164437
 30
0.0
 10
10.9629026515
 20
5.9392938432
 30
0.0
 10
10.9636778452
 20
5.9306236592
 30
0.0
 10
10.9647640705
 20
5.9219442675
 30
0.0
 10
10.9667006796
 20
5.9111377206
 30
0.0
 10
10.9699322576
 20
5.8983230997
 30
0.0
 10
10.9740577067
 20
5.8857106063
 30
0.0
 10
10.9790556956
 20
5.8733654065
 30
0.0
 10
10.984900483
 20
5.8613507816
 30
0.0
 10
10.991561982
 20
5.8497284436
 30
0.0
 10
10.9990059317
 20
5.838558051
 30
0.0
 10
11.0071940687
 20
5.8278969519
 30
0.0
 10
11.0160843227
 20
5.8177998807
 30
0.0
 10
11.0256310309
 20
5.8083186833
 30
0.0
 10
11.0357851708
 20
5.7995020524
 30
0.0
 10
11.0464946088
 20
5.7913952802
 30
0.0
 10
11.057704366
 20
5.7840400275
 30
0.0
 10
11.0693568965
 20
5.7774741117
 30
0.0
 10
11.0813923802
 20
5.7717313129
 30
0.0
 10
11.0937490255
 20
5.7668412016
 30
0.0
 10
11.1063633831
 20
5.7628289865
 30
0.0
 10
11.119170667
 20
5.7597153837
 30
0.0
 10
11.1321050837
 20
5.757516509
 30
0.0
 10
11.1451001624
 20
5.7562437908
 30
0.0
 10
11.1580891058
 20
5.755903912
 30
0.0
 10
11.1710050794
 20
5.7564987529
 30
0.0
 10
11.1837817407
 20
5.7580254406
 30
0.0
 10
11.1963528819
 20
5.7604761133
 30
0.0
 10
11.2066156422
 20
5.7632813222
 30
0.0
 10
11.2146554043
 20
5.7659729524
 30
0.0
 10
11.2225588284
 20
5.7689535953
 30
0.0
 10
11.2321958685
 20
5.7732248425
 30
0.0
 10
11.2414675257
 20
5.7782081495
 30
0.0
 10
11.2486250871
 20
5.7826012168
 30
0.0
 10
11.25559577
 20
5.7872554897
 30
0.0
 10
11.2606179765
 20
5.7910432841
 30
0.0
 10
11.2638610187
 20
5.7936907542
 30
0.0
  0
SPLINE
  5
35E
100
AcDbEntity
  8
0
100
AcDbSpline
 62
7
  6
CONTINUOUS
 70
0
 71
3
 72
39
 73
35
 74
0
 42
0.0000001
 43
0.0000001
 44
0.0000000001
 40
0.0
 40
0.0
 40
0.0
 40
0.0
 40
0.0071758079
 40
0.0146741357
 40
0.022503624
 40
0.030671441
 40
0.0391835297
 40
0.0480445027
 40
0.0572573755
 40
0.0668240442
 40
0.0767454363
 40
0.0870215068
 40
0.1086328144
 40
0.1316444976
 40
0.1560319006
 40
0.1817621503
 40
0.2087952904
 40
0.2370851496
 40
0.2665801077
 40
0.2972237102
 40
0.3289551658
 40
0.3617097536
 40
0.3954191975
 40
0.4300120549
 40
0.4654140374
 40
0.501548304
 40
0.5383357251
 40
0.5756951818
 40
0.6135438486
 40
0.6903688691
 40
0.7681254643
 40
0.846115686
 40
0.9236386402
 40
1.0
 40
1.0
 40
1.0
 40
1.0
 10
11.9679789626
 20
9.4531943934
 30
0.0
 10
11.9672343651
 20
9.4524751673
 30
0.0
 10
11.9656746731
 20
9.4510423444
 30
0.0
 10
11.9631871247
 20
9.4489547266
 30
0.0
 10
11.9605026344
 20
9.44688366
 30
0.0
 10
11.9576229482
 20
9.4448305054
 30
0.0
 10
11.9545497701
 20
9.4427963647
 30
0.0
 10
11.9512848564
 20
9.4407824406
 30
0.0
 10
11.9478301464
 20
9.4387898514
 30
0.0
 10
11.9441876863
 20
9.436819808
 30
0.0
 10
11.9403596352
 20
9.4348734826
 30
0.0
 10
11.9349194087
 20
9.4322676589
 30
0.0
 10
11.9276631659
 20
9.4290871407
 30
0.0
 10
11.9183952715
 20
9.4254445592
 30
0.0
 10
11.9084480839
 20
9.4219233194
 30
0.0
 10
11.8978453684
 20
9.4185319161
 30
0.0
 10
11.8866123117
 20
9.4152785608
 30
0.0
 10
11.8747757646
 20
9.4121711337
 30
0.0
 10
11.8623640619
 20
9.4092171713
 30
0.0
 10
11.8494069618
 20
9.4064238433
 30
0.0
 10
11.8359355592
 20
9.403797934
 30
0.0
 10
11.8219822151
 20
9.4013458186
 30
0.0
 10
11.8075804733
 20
9.3990734392
 30
0.0
 10
11.7927649693
 20
9.3969863063
 30
0.0
 10
11.7775713411
 20
9.3950894819
 30
0.0
 10
11.7620361439
 20
9.3933875686
 30
0.0
 10
11.7461967759
 20
9.3918846943
 30
0.0
 10
11.730091335
 20
9.39058447
 30
0.0
 10
11.7082064218
 20
9.3891181261
 30
0.0
 10
11.6804719745
 20
9.3878181406
 30
0.0
 10
11.6469234241
 20
9.3871093428
 30
0.0
 10
11.61326682
 20
9.3872512545
 30
0.0
 10
11.5798261245
 20
9.3882424307
 30
0.0
 10
11.5576568377
 20
9.3894758887
 30
0.0
 10
11.5466667807
 20
9.3902380518
 30
0.0
  0
SPLINE
  5
35F
100
AcDbEntity
  8
0
100
AcDbSpline
 62
7
  6
CONTINUOUS
 70
0
 71
3
 72
41
 73
37
 74
0
 42
0.0000001
 43
0.0000001
 44
0.0000000001
 40
0.0
 40
0.0
 40
0.0
 40
0.0
 40
0.0071757878
 40
0.0146740945
 40
0.0225035609
 40
0.0306713549
 40
0.0391834197
 40
0.0480443679
 40
0.0572572149
 40
0.0668238567
 40
0.076745221
 40
0.0870212626
 40
0.0976512706
 40
0.1086336674
 40
0.131645286
 40
0.1560326206
 40
0.1817627982
 40
0.2087958624
 40
0.2370856423
 40
0.2665805176
 40
0.2972240341
 40
0.3289554007
 40
0.3617098966
 40
0.3954192459
 40
0.4300120062
 40
0.4654138894
 40
0.5015480547
 40
0.5383353725
 40
0.5756947244
 40
0.6135432851
 40
0.6517967806
 40
0.6903697378
 40
0.7681261148
 40
0.8461161177
 40
0.9236388544
 40
1.0
 40
1.0
 40
1.0
 40
1.0
 10
11.997922665
 20
9.4211740882
 30
0.0
 10
11.9971109671
 20
9.4203900482
 30
0.0
 10
11.9954107215
 20
9.4188281046
 30
0.0
 10
11.9926990045
 20
9.4165523585
 30
0.0
 10
11.9897725979
 20
9.414294655
 30
0.0
 10
11.9866334051
 20
9.4120564777
 30
0.0
 10
11.9832832836
 20
9.4098390279
 30
0.0
 10
11.979724148
 20
9.4076436162
 30
0.0
 10
11.9759581126
 20
9.4054714633
 30
0.0
 10
11.9719874068
 20
9.4033238825
 30
0.0
 10
11.9678143891
 20
9.401202179
 30
0.0
 10
11.9634415657
 20
9.3991075696
 30
0.0
 10
11.9588715158
 20
9.3970413354
 30
0.0
 10
11.952417981
 20
9.3942827995
 30
0.0
 10
11.9438705723
 20
9.3909235413
 30
0.0
 10
11.9330271152
 20
9.3870849817
 30
0.0
 10
11.9214688835
 20
9.3833879573
 30
0.0
 10
11.9092235567
 20
9.3798414218
 30
0.0
 10
11.8963203408
 20
9.376453965
 30
0.0
 10
11.8827901427
 20
9.3732338025
 30
0.0
 10
11.8686653966
 20
9.3701887501
 30
0.0
 10
11.8539800014
 20
9.3673262037
 30
0.0
 10
11.8387692338
 20
9.3646531128
 30
0.0
 10
11.8230696607
 20
9.362175955
 30
0.0
 10
11.8069190386
 20
9.3599007375
 30
0.0
 10
11.7903562169
 20
9.357832978
 30
0.0
 10
11.7734210468
 20
9.3559776958
 30
0.0
 10
11.7561542887
 20
9.3543393837
 30
0.0
 10
11.7385975053
 20
9.3529220046
 30
0.0
 10
11.7207929712
 20
9.3517289982
 30
0.0
 10
11.7027835148
 20
9.3507632332
 30
0.0
 10
11.6784918344
 20
9.3497791972
 30
0.0
 10
11.6479346863
 20
9.3491337293
 30
0.0
 10
11.6112452133
 20
9.3492883909
 30
0.0
 10
11.5747909292
 20
9.3503688986
 30
0.0
 10
11.550623837
 20
9.351713509
 30
0.0
 10
11.5386433969
 20
9.3525443553
 30
0.0
  0
SPLINE
  5
360
100
AcDbEntity
  8
0
100
AcDbSpline
 62
7
  6
CONTINUOUS
 70
0
 71
3
 72
54
 73
50
 74
0
 42
0.0000001
 43
0.0000001
 44
0.0000000001
 40
0.0
 40
0.0
 40
0.0
 40
0.0
 40
0.052784991
 40
0.1048060923
 40
0.1559445044
 40
0.2060905216
 40
0.2551340321
 40
0.3029694639
 40
0.3494949945
 40
0.3946130603
 40
0.438230921
 40
0.4802611185
 40
0.5206221511
 40
0.559239105
 40
0.5960444107
 40
0.6309787921
 40
0.663992489
 40
0.6950468015
 40
0.709831479
 40
0.7241178387
 40
0.7379051855
 40
0.751193962
 40
0.7639858374
 40
0.7762841535
 40
0.7880937245
 40
0.7994213683
 40
0.8102760565
 40
0.8206690605
 40
0.830614617
 40
0.8401299511
 40
0.8492359035
 40
0.8579573592
 40
0.8663234793
 40
0.8743683592
 40
0.8821310443
 40
0.8896557027
 40
0.8969914552
 40
0.9041916844
 40
0.9113132101
 40
0.9184149027
 40
0.9255561887
 40
0.9327954181
 40
0.9401884307
 40
0.9477872381
 40
0.9637758035
 40
0.972256837
 40
0.9811038595
 40
0.9903441354
 40
1.0
 40
1.0
 40
1.0
 40
1.0
 10
9.9770372199
 20
9.4990922315
 30
0.0
 10
9.9716356614
 20
9.4994668309
 30
0.0
 10
9.9609155646
 20
9.5002827751
 30
0.0
 10
9.9449832748
 20
9.5017184586
 30
0.0
 10
9.9293424011
 20
9.5033544848
 30
0.0
 10
9.9140308501
 20
9.5051868069
 30
0.0
 10
9.8990852787
 20
9.5072110429
 30
0.0
 10
9.8845417176
 20
9.5094222657
 30
0.0
 10
9.8704351251
 20
9.5118151105
 30
0.0
 10
9.8567994129
 20
9.5143837733
 30
0.0
 10
9.8436673498
 20
9.5171220209
 30
0.0
 10
9.8310704686
 20
9.5200232158
 30
0.0
 10
9.8190389833
 20
9.523080311
 30
0.0
 10
9.8076017019
 20
9.5262858847
 30
0.0
 10
9.7967859797
 20
9.5296321623
 30
0.0
 10
9.7866175569
 20
9.533111049
 30
0.0
 10
9.7771207535
 20
9.53671414
 30
0.0
 10
9.7696675788
 20
9.5398624798
 30
0.0
 10
9.764065796
 20
9.5424438195
 30
0.0
 10
9.7601152889
 20
9.5443737064
 30
0.0
 10
9.75634886
 20
9.5463280598
 30
0.0
 10
9.7527687382
 20
9.5483057291
 30
0.0
 10
9.7493770709
 20
9.5503055805
 30
0.0
 10
9.7461758405
 20
9.5523263813
 30
0.0
 10
9.7431669599
 20
9.5543669945
 30
0.0
 10
9.7403522009
 20
9.5564262274
 30
0.0
 10
9.7377332027
 20
9.5585028743
 30
0.0
 10
9.7353115524
 20
9.5605958216
 30
0.0
 10
9.7330886435
 20
9.56270385
 30
0.0
 10
9.7310658352
 20
9.5648258488
 30
0.0
 10
9.7292443812
 20
9.5669606908
 30
0.0
 10
9.7276253964
 20
9.5691072152
 30
0.0
 10
9.7262100507
 20
9.5712643611
 30
0.0
 10
9.7249993271
 20
9.5734309422
 30
0.0
 10
9.7239942448
 20
9.5756057958
 30
0.0
 10
9.7231957899
 20
9.5777876642
 30
0.0
 10
9.7226047389
 20
9.5799751275
 30
0.0
 10
9.722221922
 20
9.5821666775
 30
0.0
 10
9.7220477907
 20
9.5843606101
 30
0.0
 10
9.7220825988
 20
9.5865551492
 30
0.0
 10
9.7223263682
 20
9.5887484825
 30
0.0
 10
9.7227786277
 20
9.5909388375
 30
0.0
 10
9.7234389596
 20
9.5931246808
 30
0.0
 10
9.724615113
 20
9.5960802947
 30
0.0
 10
9.7262029756
 20
9.5989780132
 30
0.0
 10
9.7281423642
 20
9.6017936555
 30
0.0
 10
9.7298291492
 20
9.6039366951
 30
0.0
 10
9.7317178094
 20
9.606067267
 30
0.0
 10
9.7330799934
 20
9.607447632
 30
0.0
 10
9.733792394
 20
9.6081357582
 30
0.0
  0
SPLINE
  5
361
100
AcDbEntity
  8
0
100
AcDbSpline
 62
7
  6
CONTINUOUS
 70
0
 71
3
 72
40
 73
36
 74
0
 42
0.0000001
 43
0.0000001
 44
0.0000000001
 40
0.0
 40
0.0
 40
0.0
 40
0.0
 40
0.0958313241
 40
0.1890999997
 40
0.2345965946
 40
0.2792415226
 40
0.3229681534
 40
0.3657118216
 40
0.4074099467
 40
0.4480024597
 40
0.4874320406
 40
0.5256441383
 40
0.5625874389
 40
0.5982141646
 40
0.6324801981
 40
0.6653457469
 40
0.6967757223
 40
0.7267401371
 40
0.7552151195
 40
0.7821835957
 40
0.807636302
 40
0.8315735259
 40
0.854006673
 40
0.8749606539
 40
0.8944772516
 40
0.9126187723
 40
0.9294730441
 40
0.945159307
 40
0.9598338401
 40
0.9668558655
 40
0.9737029019
 40
0.9804063157
 40
0.9869997191
 40
0.9935186517
 40
1.0
 40
1.0
 40
1.0
 40
1.0
 10
9.9690138362
 20
9.4613985351
 30
0.0
 10
9.9592465609
 20
9.4620758979
 30
0.0
 10
9.9399873573
 20
9.4636273517
 30
0.0
 10
9.9161464326
 20
9.4661152899
 30
0.0
 10
9.8975491264
 20
9.4684137221
 30
0.0
 10
9.8839981956
 20
9.470268164
 30
0.0
 10
9.8707517621
 20
9.4722642751
 30
0.0
 10
9.8578319276
 20
9.4743986992
 30
0.0
 10
9.8452602865
 20
9.47666786
 30
0.0
 10
9.8330578398
 20
9.4790679499
 30
0.0
 10
9.8212449576
 20
9.4815949072
 30
0.0
 10
9.8098413581
 20
9.4842445052
 30
0.0
 10
9.7988660613
 20
9.487012287
 30
0.0
 10
9.7883373534
 20
9.4898935746
 30
0.0
 10
9.7782727685
 20
9.4928835538
 30
0.0
 10
9.7686890358
 20
9.4959771914
 30
0.0
 10
9.7596020514
 20
9.4991692769
 30
0.0
 10
9.7510268655
 20
9.5024545012
 30
0.0
 10
9.7429776155
 20
9.5058273614
 30
0.0
 10
9.7354675104
 20
9.5092822474
 30
0.0
 10
9.7285088221
 20
9.5128135169
 30
0.0
 10
9.7221128022
 20
9.5164154094
 30
0.0
 10
9.7162896987
 20
9.520082207
 30
0.0
 10
9.711048778
 20
9.5238083202
 30
0.0
 10
9.7063982633
 20
9.5275882946
 30
0.0
 10
9.7023455542
 20
9.5314169745
 30
0.0
 10
9.698897347
 20
9.5352899152
 30
0.0
 10
9.6960603034
 20
9.5392021553
 30
0.0
 10
9.6941837438
 20
9.5425410133
 30
0.0
 10
9.6930139756
 20
9.5452144615
 30
0.0
 10
9.6923057416
 20
9.547195268
 30
0.0
 10
9.6917543352
 20
9.5491799707
 30
0.0
 10
9.6913601759
 20
9.5511677713
 30
0.0
 10
9.6911235692
 20
9.553157505
 30
0.0
 10
9.6910709085
 20
9.5544862877
 30
0.0
 10
9.6910709033
 20
9.5551484633
 30
0.0
  0
SPLINE
  5
362
100
AcDbEntity
  8
0
100
AcDbSpline
 62
7
  6
CONTINUOUS
 70
0
 71
3
 72
15
 73
11
 74
0
 42
0.0000001
 43
0.0000001
 44
0.0000000001
 40
0.0
 40
0.0
 40
0.0
 40
0.0
 40
0.1273482789
 40
0.2538606571
 40
0.3795878378
 40
0.5046051156
 40
0.629017439
 40
0.7529533823
 40
0.8765605864
 40
1.0
 40
1.0
 40
1.0
 40
1.0
 10
9.7383631311
 20
7.933421179
 30
0.0
 10
9.7383631311
 20
7.9377482628
 30
0.0
 10
9.7387762815
 20
7.9463800095
 30
0.0
 10
9.7406446861
 20
7.9591616116
 30
0.0
 10
9.7437428253
 20
7.9716220663
 30
0.0
 10
9.7480427131
 20
7.9836448386
 30
0.0
 10
9.7535049134
 20
7.9951190552
 30
0.0
 10
9.7600795977
 20
8.0059387767
 30
0.0
 10
9.7677049671
 20
8.0160026216
 30
0.0
 10
9.7734464894
 20
8.0221502009
 30
0.0
 10
9.7764632252
 20
8.0250641639
 30
0.0
  0
SPLINE
  5
363
100
AcDbEntity
  8
0
100
AcDbSpline
 62
7
  6
CONTINUOUS
 70
0
 71
3
 72
41
 73
37
 74
0
 42
0.0000001
 43
0.0000001
 44
0.0000000001
 40
0.0
 40
0.0
 40
0.0
 40
0.0
 40
0.029942123
 40
0.0449237706
 40
0.0599145177
 40
0.0899291716
 40
0.1200145961
 40
0.1350933574
 40
0.1501974726
 40
0.1804849654
 40
0.2108989488
 40
0.2414525624
 40
0.2721557217
 40
0.3030149378
 40
0.3340332219
 40
0.3652100719
 40
0.3965415365
 40
0.4280203507
 40
0.4596361361
 40
0.4913756582
 40
0.5232231336
 40
0.5551605782
 40
0.5871681905
 40
0.6192247616
 40
0.6513081064
 40
0.6833955071
 40
0.7154641657
 40
0.7474916563
 40
0.7794563734
 40
0.811337967
 40
0.843117763
 40
0.8747791516
 40
0.9063079641
 40
0.9376927517
 40
0.9689251728
 40
1.0
 40
1.0
 40
1.0
 40
1.0
 10
9.9716882103
 20
7.8229547944
 30
0.0
 10
9.9693573637
 20
7.820703354
 30
0.0
 10
9.9657237331
 20
7.8174625811
 30
0.0
 10
9.9606348896
 20
7.8134414965
 30
0.0
 10
9.9553839794
 20
7.8096205158
 30
0.0
 10
9.9485324079
 20
7.8052327697
 30
0.0
 10
9.9413476897
 20
7.8013947655
 30
0.0
 10
9.9354221653
 20
7.7986643747
 30
0.0
 10
9.9293742185
 20
7.7961594095
 30
0.0
 10
9.9216149839
 20
7.7934658261
 30
0.0
 10
9.9120528883
 20
7.7909554644
 30
0.0
 10
9.9022821394
 20
7.789177038
 30
0.0
 10
9.8923568837
 20
7.7881403628
 30
0.0
 10
9.8823316438
 20
7.7878509702
 30
0.0
 10
9.8722615819
 20
7.7883103335
 30
0.0
 10
9.8622020458
 20
7.7895157991
 30
0.0
 10
9.8522083089
 20
7.7914606251
 30
0.0
 10
9.8423352584
 20
7.7941340177
 30
0.0
 10
9.8326371016
 20
7.797521196
 30
0.0
 10
9.823167071
 20
7.8016034745
 30
0.0
 10
9.8139771368
 20
7.8063583676
 30
0.0
 10
9.8051177259
 20
7.8117597135
 30
0.0
 10
9.796637448
 20
7.8177778175
 30
0.0
 10
9.7885828334
 20
7.8243796147
 30
0.0
 10
9.7809980797
 20
7.8315288497
 30
0.0
 10
9.7739248127
 20
7.8391862742
 30
0.0
 10
9.76740186
 20
7.8473098604
 30
0.0
 10
9.7614650401
 20
7.8558550295
 30
0.0
 10
9.7561469676
 20
7.8647748927
 30
0.0
 10
9.7514768749
 20
7.8740205079
 30
0.0
 10
9.747480454
 20
7.8835411382
 30
0.0
 10
9.7441797127
 20
7.8932845503
 30
0.0
 10
9.7415928598
 20
7.9031972097
 30
0.0
 10
9.739734191
 20
7.9132248955
 30
0.0
 10
9.7386140292
 20
7.9233117972
 30
0.0
 10
9.7383631311
 20
7.9300579331
 30
0.0
 10
9.7383631311
 20
7.933421179
 30
0.0
  0
SPLINE
  5
364
100
AcDbEntity
  8
0
100
AcDbSpline
 62
7
  6
CONTINUOUS
 70
0
 71
3
 72
41
 73
37
 74
0
 42
0.0000001
 43
0.0000001
 44
0.0000000001
 40
0.0
 40
0.0
 40
0.0
 40
0.0
 40
0.029942123
 40
0.0449237706
 40
0.0599145177
 40
0.0899291716
 40
0.1200145961
 40
0.1350933574
 40
0.1501974726
 40
0.1804849654
 40
0.2108989488
 40
0.2414525624
 40
0.2721557217
 40
0.3030149378
 40
0.3340332219
 40
0.3652100719
 40
0.3965415365
 40
0.4280203507
 40
0.4596361361
 40
0.4913756582
 40
0.5232231336
 40
0.5551605782
 40
0.5871681905
 40
0.6192247616
 40
0.6513081064
 40
0.6833955071
 40
0.7154641657
 40
0.7474916563
 40
0.7794563734
 40
0.811337967
 40
0.843117763
 40
0.8747791516
 40
0.9063079641
 40
0.9376927517
 40
0.9689251728
 40
1.0
 40
1.0
 40
1.0
 40
1.0
 10
11.7219458023
 20
7.7015740182
 30
0.0
 10
11.7196149557
 20
7.6993225777
 30
0.0
 10
11.7159813252
 20
7.6960818048
 30
0.0
 10
11.7108924816
 20
7.6920607202
 30
0.0
 10
11.7056415714
 20
7.6882397395
 30
0.0
 10
11.6987899999
 20
7.6838519934
 30
0.0
 10
11.6916052817
 20
7.6800139892
 30
0.0
 10
11.6856797573
 20
7.6772835984
 30
0.0
 10
11.6796318105
 20
7.6747786333
 30
0.0
 10
11.6718725759
 20
7.6720850499
 30
0.0
 10
11.6623104803
 20
7.6695746881
 30
0.0
 10
11.6525397314
 20
7.6677962617
 30
0.0
 10
11.6426144757
 20
7.6667595865
 30
0.0
 10
11.6325892359
 20
7.6664701939
 30
0.0
 10
11.6225191739
 20
7.6669295572
 30
0.0
 10
11.6124596379
 20
7.6681350229
 30
0.0
 10
11.6024659009
 20
7.6700798488
 30
0.0
 10
11.5925928504
 20
7.6727532415
 30
0.0
 10
11.5828946936
 20
7.6761404198
 30
0.0
 10
11.573424663
 20
7.6802226982
 30
0.0
 10
11.5642347289
 20
7.6849775913
 30
0.0
 10
11.5553753179
 20
7.6903789372
 30
0.0
 10
11.5468950401
 20
7.6963970412
 30
0.0
 10
11.5388404254
 20
7.7029988384
 30
0.0
 10
11.5312556717
 20
7.7101480734
 30
0.0
 10
11.5241824047
 20
7.7178054979
 30
0.0
 10
11.517659452
 20
7.7259290842
 30
0.0
 10
11.5117226321
 20
7.7344742532
 30
0.0
 10
11.5064045596
 20
7.7433941164
 30
0.0
 10
11.5017344669
 20
7.7526397316
 30
0.0
 10
11.497738046
 20
7.7621603619
 30
0.0
 10
11.4944373047
 20
7.771903774
 30
0.0
 10
11.4918504518
 20
7.7818164334
 30
0.0
 10
11.489991783
 20
7.7918441193
 30
0.0
 10
11.4888716212
 20
7.8019310209
 30
0.0
 10
11.4886207232
 20
7.8086771568
 30
0.0
 10
11.4886207232
 20
7.8120404028
 30
0.0
  0
SPLINE
  5
365
100
AcDbEntity
  8
0
100
AcDbSpline
 62
7
  6
CONTINUOUS
 70
0
 71
3
 72
15
 73
11
 74
0
 42
0.0000001
 43
0.0000001
 44
0.0000000001
 40
0.0
 40
0.0
 40
0.0
 40
0.0
 40
0.1273482789
 40
0.2538606571
 40
0.3795878378
 40
0.5046051156
 40
0.629017439
 40
0.7529533823
 40
0.8765605864
 40
1.0
 40
1.0
 40
1.0
 40
1.0
 10
9.7383631311
 20
5.8808286765
 30
0.0
 10
9.7383631311
 20
5.8851557603
 30
0.0
 10
9.7387762815
 20
5.893787507
 30
0.0
 10
9.7406446861
 20
5.9065691091
 30
0.0
 10
9.7437428253
 20
5.9190295638
 30
0.0
 10
9.7480427131
 20
5.9310523361
 30
0.0
 10
9.7535049134
 20
5.9425265527
 30
0.0
 10
9.7600795977
 20
5.9533462742
 30
0.0
 10
9.7677049671
 20
5.9634101191
 30
0.0
 10
9.7734464894
 20
5.9695576984
 30
0.0
 10
9.7764632252
 20
5.9724716614
 30
0.0
  0
SPLINE
  5
366
100
AcDbEntity
  8
0
100
AcDbSpline
 62
7
  6
CONTINUOUS
 70
0
 71
3
 72
15
 73
11
 74
0
 42
0.0000001
 43
0.0000001
 44
0.0000000001
 40
0.0
 40
0.0
 40
0.0
 40
0.0
 40
0.1273482789
 40
0.2538606571
 40
0.3795878378
 40
0.5046051156
 40
0.629017439
 40
0.7529533823
 40
0.8765605864
 40
1.0
 40
1.0
 40
1.0
 40
1.0
 10
11.4886207232
 20
7.8120404028
 30
0.0
 10
11.4886207232
 20
7.8163674865
 30
0.0
 10
11.4890338735
 20
7.8249992333
 30
0.0
 10
11.4909022781
 20
7.8377808353
 30
0.0
 10
11.4940004173
 20
7.85024129
 30
0.0
 10
11.4983003052
 20
7.8622640623
 30
0.0
 10
11.5037625054
 20
7.8737382789
 30
0.0
 10
11.5103371897
 20
7.8845580004
 30
0.0
 10
11.5179625591
 20
7.8946218453
 30
0.0
 10
11.5237040814
 20
7.9007694246
 30
0.0
 10
11.5267208172
 20
7.9036833877
 30
0.0
  0
SPLINE
  5
367
100
AcDbEntity
  8
0
100
AcDbSpline
 62
7
  6
CONTINUOUS
 70
0
 71
3
 72
42
 73
38
 74
0
 42
0.0000001
 43
0.0000001
 44
0.0000000001
 40
0.0
 40
0.0
 40
0.0
 40
0.0
 40
0.0310747671
 40
0.0466741744
 40
0.0623120752
 40
0.0936967636
 40
0.1252253831
 40
0.1568866086
 40
0.188666231
 40
0.2205476529
 40
0.2525121971
 40
0.2845395151
 40
0.3166080013
 40
0.3486952303
 40
0.3807784043
 40
0.4128348061
 40
0.4448422504
 40
0.4767795287
 40
0.5086268395
 40
0.5403661985
 40
0.5719818222
 40
0.603460476
 40
0.6347917816
 40
0.665968474
 40
0.6969866017
 40
0.7278456627
 40
0.7585486678
 40
0.7891021282
 40
0.8195159588
 40
0.8498032991
 40
0.8649073391
 40
0.8799860234
 40
0.9100712949
 40
0.940085795
 40
0.9550764649
 40
0.9700580337
 40
1.0
 40
1.0
 40
1.0
 40
1.0
 10
9.9471281791
 20
6.9052935931
 30
0.0
 10
9.9471281791
 20
6.9008052722
 30
0.0
 10
9.9473790663
 20
6.8940604443
 30
0.0
 10
9.9482076522
 20
6.8850971335
 30
0.0
 10
9.949368667
 20
6.8761252396
 30
0.0
 10
9.9514383149
 20
6.864959046
 30
0.0
 10
9.9548904828
 20
6.8517306636
 30
0.0
 10
9.9592953694
 20
6.8387278617
 30
0.0
 10
9.9646286447
 20
6.8260224403
 30
0.0
 10
9.9708609436
 20
6.8136840079
 30
0.0
 10
9.9779579799
 20
6.8017802999
 30
0.0
 10
9.9858807425
 20
6.7903766226
 30
0.0
 10
9.9945857073
 20
6.7795355512
 30
0.0
 10
10.0040250745
 20
6.7693165764
 30
0.0
 10
10.0141470285
 20
6.7597757849
 30
0.0
 10
10.0248960197
 20
6.750965554
 30
0.0
 10
10.0362130662
 20
6.7429342672
 30
0.0
 10
10.0480360734
 20
6.7357260506
 30
0.0
 10
10.0603001711
 20
6.7293805325
 30
0.0
 10
10.0729380645
 20
6.7239326269
 30
0.0
 10
10.0858803985
 20
6.7194123409
 30
0.0
 10
10.0990561337
 20
6.7158446102
 30
0.0
 10
10.1123929299
 20
6.7132491602
 30
0.0
 10
10.1258175395
 20
6.7116403951
 30
0.0
 10
10.1392561998
 20
6.7110273122
 30
0.0
 10
10.1526350488
 20
6.7114134527
 30
0.0
 10
10.1658804721
 20
6.7127968508
 30
0.0
 10
10.1789197088
 20
6.7151701256
 30
0.0
 10
10.1916805007
 20
6.7185201758
 30
0.0
 10
10.2020353449
 20
6.7221147541
 30
0.0
 10
10.2101064526
 20
6.725457615
 30
0.0
 10
10.2180141795
 20
6.7291013287
 30
0.0
 10
10.2276023345
 20
6.7342231475
 30
0.0
 10
10.2367459121
 20
6.7400785998
 30
0.0
 10
10.2437533556
 20
6.7451777351
 30
0.0
 10
10.2505445482
 20
6.7505438752
 30
0.0
 10
10.2553937221
 20
6.7548687014
 30
0.0
 10
10.2585042847
 20
6.7578732746
 30
0.0
  0
SPLINE
  5
368
100
AcDbEntity
  8
0
100
AcDbSpline
 62
7
  6
CONTINUOUS
 70
0
 71
3
 72
41
 73
37
 74
0
 42
0.0000001
 43
0.0000001
 44
0.0000000001
 40
0.0
 40
0.0
 40
0.0
 40
0.0
 40
0.029942123
 40
0.0449237706
 40
0.0599145177
 40
0.0899291716
 40
0.1200145961
 40
0.1350933574
 40
0.1501974726
 40
0.1804849654
 40
0.2108989488
 40
0.2414525624
 40
0.2721557217
 40
0.3030149378
 40
0.3340332219
 40
0.3652100719
 40
0.3965415365
 40
0.4280203507
 40
0.4596361361
 40
0.4913756582
 40
0.5232231336
 40
0.5551605782
 40
0.5871681905
 40
0.6192247616
 40
0.6513081064
 40
0.6833955071
 40
0.7154641657
 40
0.7474916563
 40
0.7794563734
 40
0.811337967
 40
0.843117763
 40
0.8747791516
 40
0.9063079641
 40
0.9376927517
 40
0.9689251728
 40
1.0
 40
1.0
 40
1.0
 40
1.0
 10
11.7219458023
 20
5.6489815157
 30
0.0
 10
11.7196149557
 20
5.6467300752
 30
0.0
 10
11.7159813252
 20
5.6434893023
 30
0.0
 10
11.7108924816
 20
5.6394682177
 30
0.0
 10
11.7056415714
 20
5.635647237
 30
0.0
 10
11.6987899999
 20
5.6312594909
 30
0.0
 10
11.6916052817
 20
5.6274214868
 30
0.0
 10
11.6856797573
 20
5.6246910959
 30
0.0
 10
11.6796318105
 20
5.6221861308
 30
0.0
 10
11.6718725759
 20
5.6194925474
 30
0.0
 10
11.6623104803
 20
5.6169821857
 30
0.0
 10
11.6525397314
 20
5.6152037592
 30
0.0
 10
11.6426144757
 20
5.614167084
 30
0.0
 10
11.6325892359
 20
5.6138776914
 30
0.0
 10
11.6225191739
 20
5.6143370548
 30
0.0
 10
11.6124596379
 20
5.6155425204
 30
0.0
 10
11.6024659009
 20
5.6174873463
 30
0.0
 10
11.5925928504
 20
5.620160739
 30
0.0
 10
11.5828946936
 20
5.6235479173
 30
0.0
 10
11.573424663
 20
5.6276301958
 30
0.0
 10
11.5642347289
 20
5.6323850888
 30
0.0
 10
11.5553753179
 20
5.6377864347
 30
0.0
 10
11.5468950401
 20
5.6438045388
 30
0.0
 10
11.5388404254
 20
5.6504063359
 30
0.0
 10
11.5312556717
 20
5.6575555709
 30
0.0
 10
11.5241824047
 20
5.6652129954
 30
0.0
 10
11.517659452
 20
5.6733365817
 30
0.0
 10
11.5117226321
 20
5.6818817507
 30
0.0
 10
11.5064045596
 20
5.690801614
 30
0.0
 10
11.5017344669
 20
5.7000472291
 30
0.0
 10
11.497738046
 20
5.7095678594
 30
0.0
 10
11.4944373047
 20
5.7193112716
 30
0.0
 10
11.4918504518
 20
5.7292239309
 30
0.0
 10
11.489991783
 20
5.7392516168
 30
0.0
 10
11.4888716212
 20
5.7493385185
 30
0.0
 10
11.4886207232
 20
5.7560846543
 30
0.0
 10
11.4886207232
 20
5.7594479003
 30
0.0
  0
SPLINE
  5
369
100
AcDbEntity
  8
0
100
AcDbSpline
 62
7
  6
CONTINUOUS
 70
0
 71
3
 72
11
 73
7
 74
0
 42
0.0000001
 43
0.0000001
 44
0.0000000001
 40
0.0
 40
0.0
 40
0.0
 40
0.0
 40
0.2549480762
 40
0.5056811573
 40
0.7535608496
 40
1.0
 40
1.0
 40
1.0
 40
1.0
 10
11.6888639783
 20
9.6762150072
 30
0.0
 10
11.6891641518
 20
9.6752712644
 30
0.0
 10
11.689692487
 20
9.6733771773
 30
0.0
 10
11.6902645275
 20
9.6705036157
 30
0.0
 10
11.6906080111
 20
9.6676270851
 30
0.0
 10
11.690684447
 20
9.6657060771
 30
0.0
 10
11.6906844513
 20
9.664748799
 30
0.0
  0
SPLINE
  5
36A
100
AcDbEntity
  8
0
100
AcDbSpline
 62
7
  6
CONTINUOUS
 70
0
 71
3
 72
41
 73
37
 74
0
 42
0.0000001
 43
0.0000001
 44
0.0000000001
 40
0.0
 40
0.0
 40
0.0
 40
0.0
 40
0.029942123
 40
0.0449237706
 40
0.0599145177
 40
0.0899291716
 40
0.1200145961
 40
0.1350933574
 40
0.1501974726
 40
0.1804849654
 40
0.2108989488
 40
0.2414525624
 40
0.2721557217
 40
0.3030149378
 40
0.3340332219
 40
0.3652100719
 40
0.3965415365
 40
0.4280203507
 40
0.4596361361
 40
0.4913756582
 40
0.5232231336
 40
0.5551605782
 40
0.5871681905
 40
0.6192247616
 40
0.6513081064
 40
0.6833955071
 40
0.7154641657
 40
0.7474916563
 40
0.7794563734
 40
0.811337967
 40
0.843117763
 40
0.8747791516
 40
0.9063079641
 40
0.9376927517
 40
0.9689251728
 40
1.0
 40
1.0
 40
1.0
 40
1.0
 10
9.9716882103
 20
5.7703622919
 30
0.0
 10
9.9693573637
 20
5.7681108515
 30
0.0
 10
9.9657237331
 20
5.7648700786
 30
0.0
 10
9.9606348896
 20
5.760848994
 30
0.0
 10
9.9553839794
 20
5.7570280133
 30
0.0
 10
9.9485324079
 20
5.7526402672
 30
0.0
 10
9.9413476897
 20
5.748802263
 30
0.0
 10
9.9354221653
 20
5.7460718722
 30
0.0
 10
9.9293742185
 20
5.743566907
 30
0.0
 10
9.9216149839
 20
5.7408733237
 30
0.0
 10
9.9120528883
 20
5.7383629619
 30
0.0
 10
9.9022821394
 20
5.7365845355
 30
0.0
 10
9.8923568837
 20
5.7355478603
 30
0.0
 10
9.8823316438
 20
5.7352584677
 30
0.0
 10
9.8722615819
 20
5.735717831
 30
0.0
 10
9.8622020458
 20
5.7369232966
 30
0.0
 10
9.8522083089
 20
5.7388681226
 30
0.0
 10
9.8423352584
 20
5.7415415152
 30
0.0
 10
9.8326371016
 20
5.7449286935
 30
0.0
 10
9.823167071
 20
5.749010972
 30
0.0
 10
9.8139771368
 20
5.7537658651
 30
0.0
 10
9.8051177259
 20
5.759167211
 30
0.0
 10
9.796637448
 20
5.765185315
 30
0.0
 10
9.7885828334
 20
5.7717871122
 30
0.0
 10
9.7809980797
 20
5.7789363472
 30
0.0
 10
9.7739248127
 20
5.7865937717
 30
0.0
 10
9.76740186
 20
5.794717358
 30
0.0
 10
9.7614650401
 20
5.803262527
 30
0.0
 10
9.7561469676
 20
5.8121823902
 30
0.0
 10
9.7514768749
 20
5.8214280054
 30
0.0
 10
9.747480454
 20
5.8309486357
 30
0.0
 10
9.7441797127
 20
5.8406920478
 30
0.0
 10
9.7415928598
 20
5.8506047072
 30
0.0
 10
9.739734191
 20
5.860632393
 30
0.0
 10
9.7386140292
 20
5.8707192947
 30
0.0
 10
9.7383631311
 20
5.8774654306
 30
0.0
 10
9.7383631311
 20
5.8808286765
 30
0.0
  0
SPLINE
  5
36B
100
AcDbEntity
  8
0
100
AcDbSpline
 62
7
  6
CONTINUOUS
 70
0
 71
3
 72
42
 73
38
 74
0
 42
0.0000001
 43
0.0000001
 44
0.0000000001
 40
0.0
 40
0.0
 40
0.0
 40
0.0
 40
0.0310747671
 40
0.0466741744
 40
0.0623120752
 40
0.0936967636
 40
0.1252253831
 40
0.1568866086
 40
0.188666231
 40
0.2205476529
 40
0.2525121971
 40
0.2845395151
 40
0.3166080013
 40
0.3486952303
 40
0.3807784043
 40
0.4128348061
 40
0.4448422504
 40
0.4767795287
 40
0.5086268395
 40
0.5403661985
 40
0.5719818222
 40
0.603460476
 40
0.6347917816
 40
0.665968474
 40
0.6969866017
 40
0.7278456627
 40
0.7585486678
 40
0.7891021282
 40
0.8195159588
 40
0.8498032991
 40
0.8649073391
 40
0.8799860234
 40
0.9100712949
 40
0.940085795
 40
0.9550764649
 40
0.9700580337
 40
1.0
 40
1.0
 40
1.0
 40
1.0
 10
10.5208881364
 20
6.4733371635
 30
0.0
 10
10.5208881364
 20
6.4688488427
 30
0.0
 10
10.5211390236
 20
6.4621040148
 30
0.0
 10
10.5219676095
 20
6.453140704
 30
0.0
 10
10.5231286243
 20
6.4441688101
 30
0.0
 10
10.5251982722
 20
6.4330026165
 30
0.0
 10
10.5286504401
 20
6.4197742341
 30
0.0
 10
10.5330553267
 20
6.4067714322
 30
0.0
 10
10.538388602
 20
6.3940660107
 30
0.0
 10
10.5446209009
 20
6.3817275784
 30
0.0
 10
10.5517179372
 20
6.3698238703
 30
0.0
 10
10.5596406998
 20
6.358420193
 30
0.0
 10
10.5683456646
 20
6.3475791217
 30
0.0
 10
10.5777850318
 20
6.3373601469
 30
0.0
 10
10.5879069858
 20
6.3278193553
 30
0.0
 10
10.598655977
 20
6.3190091244
 30
0.0
 10
10.6099730235
 20
6.3109778376
 30
0.0
 10
10.6217960307
 20
6.303769621
 30
0.0
 10
10.6340601284
 20
6.297424103
 30
0.0
 10
10.6466980218
 20
6.2919761974
 30
0.0
 10
10.6596403558
 20
6.2874559113
 30
0.0
 10
10.672816091
 20
6.2838881806
 30
0.0
 10
10.6861528872
 20
6.2812927307
 30
0.0
 10
10.6995774968
 20
6.2796839656
 30
0.0
 10
10.7130161572
 20
6.2790708826
 30
0.0
 10
10.7263950061
 20
6.2794570232
 30
0.0
 10
10.7396404294
 20
6.2808404212
 30
0.0
 10
10.7526796661
 20
6.2832136961
 30
0.0
 10
10.765440458
 20
6.2865637462
 30
0.0
 10
10.7757953022
 20
6.2901583245
 30
0.0
 10
10.7838664099
 20
6.2935011855
 30
0.0
 10
10.7917741368
 20
6.2971448992
 30
0.0
 10
10.8013622918
 20
6.302266718
 30
0.0
 10
10.8105058694
 20
6.3081221702
 30
0.0
 10
10.8175133129
 20
6.3132213056
 30
0.0
 10
10.8243045055
 20
6.3185874456
 30
0.0
 10
10.8291536794
 20
6.3229122719
 30
0.0
 10
10.832264242
 20
6.3259168451
 30
0.0
  0
SPLINE
  5
36C
100
AcDbEntity
  8
0
100
AcDbSpline
 62
7
  6
CONTINUOUS
 70
0
 71
3
 72
21
 73
17
 74
0
 42
0.0000001
 43
0.0000001
 44
0.0000000001
 40
0.0
 40
0.0
 40
0.0
 40
0.0
 40
0.0617147806
 40
0.1234506635
 40
0.1852285505
 40
0.2470689066
 40
0.3089915473
 40
0.3710154718
 40
0.4331586569
 40
0.4954378562
 40
0.5578685009
 40
0.620464496
 40
0.6832380525
 40
0.7462000245
 40
0.8726823634
 40
1.0
 40
1.0
 40
1.0
 40
1.0
 10
9.9979742799
 20
7.0275937162
 30
0.0
 10
9.995960989
 20
7.0256490262
 30
0.0
 10
9.9920330785
 20
7.0216545785
 30
0.0
 10
9.9864560888
 20
7.015366737
 30
0.0
 10
9.9812057102
 20
7.0087961354
 30
0.0
 10
9.9762942978
 20
7.0019581055
 30
0.0
 10
9.9717330916
 20
6.9948683905
 30
0.0
 10
9.9675325975
 20
6.9875433713
 30
0.0
 10
9.963702527
 20
6.9799999189
 30
0.0
 10
9.9602516904
 20
6.9722554474
 30
0.0
 10
9.9571879973
 20
6.9643278167
 30
0.0
 10
9.9545185341
 20
6.956235356
 30
0.0
 10
9.9522494173
 20
6.9479965045
 30
0.0
 10
9.949761204
 20
6.9368267005
 30
0.0
 10
9.9476794046
 20
6.9225869951
 30
0.0
 10
9.9471281791
 20
6.9110682114
 30
0.0
 10
9.9471281791
 20
6.9052935931
 30
0.0
  0
SPLINE
  5
36D
100
AcDbEntity
  8
0
100
AcDbSpline
 62
7
  6
CONTINUOUS
 70
0
 71
3
 72
21
 73
17
 74
0
 42
0.0000001
 43
0.0000001
 44
0.0000000001
 40
0.0
 40
0.0
 40
0.0
 40
0.0
 40
0.0617147806
 40
0.1234506635
 40
0.1852285505
 40
0.2470689066
 40
0.3089915473
 40
0.3710154718
 40
0.4331586569
 40
0.4954378562
 40
0.5578685009
 40
0.620464496
 40
0.6832380525
 40
0.7462000245
 40
0.8726823634
 40
1.0
 40
1.0
 40
1.0
 40
1.0
 10
10.5717342372
 20
6.5956372866
 30
0.0
 10
10.5697209463
 20
6.5936925967
 30
0.0
 10
10.5657930358
 20
6.589698149
 30
0.0
 10
10.5602160461
 20
6.5834103075
 30
0.0
 10
10.5549656676
 20
6.5768397058
 30
0.0
 10
10.5500542551
 20
6.570001676
 30
0.0
 10
10.5454930489
 20
6.5629119609
 30
0.0
 10
10.5412925548
 20
6.5555869418
 30
0.0
 10
10.5374624843
 20
6.5480434893
 30
0.0
 10
10.5340116477
 20
6.5402990178
 30
0.0
 10
10.5309479547
 20
6.5323713872
 30
0.0
 10
10.5282784914
 20
6.5242789265
 30
0.0
 10
10.5260093746
 20
6.516040075
 30
0.0
 10
10.5235211613
 20
6.5048702709
 30
0.0
 10
10.5214393619
 20
6.4906305655
 30
0.0
 10
10.5208881364
 20
6.4791117819
 30
0.0
 10
10.5208881364
 20
6.4733371635
 30
0.0
  0
SPLINE
  5
36E
100
AcDbEntity
  8
0
100
AcDbSpline
 62
7
  6
CONTINUOUS
 70
0
 71
3
 72
21
 73
17
 74
0
 42
0.0000001
 43
0.0000001
 44
0.0000000001
 40
0.0
 40
0.0
 40
0.0
 40
0.0
 40
0.1273176366
 40
0.2537999756
 40
0.3167619475
 40
0.3795355041
 40
0.4421314991
 40
0.5045621439
 40
0.5668413432
 40
0.6289845283
 40
0.6910084528
 40
0.7529310935
 40
0.8147714495
 40
0.8765493365
 40
0.9382852194
 40
1.0
 40
1.0
 40
1.0
 40
1.0
 10
10.9429977825
 20
5.9311572136
 30
0.0
 10
10.9429977825
 20
5.936931832
 30
0.0
 10
10.943549008
 20
5.9484506157
 30
0.0
 10
10.9456308074
 20
5.9626903211
 30
0.0
 10
10.9481190208
 20
5.9738601252
 30
0.0
 10
10.9503881376
 20
5.9820989767
 30
0.0
 10
10.9530576008
 20
5.9901914374
 30
0.0
 10
10.9561212939
 20
5.9981190681
 30
0.0
 10
10.9595721305
 20
6.0058635396
 30
0.0
 10
10.963402201
 20
6.0134069921
 30
0.0
 10
10.9676026951
 20
6.0207320112
 30
0.0
 10
10.9721639014
 20
6.0278217263
 30
0.0
 10
10.9770753138
 20
6.0346597561
 30
0.0
 10
10.9823256924
 20
6.0412303578
 30
0.0
 10
10.9879026821
 20
6.0475181993
 30
0.0
 10
10.9918305926
 20
6.051512647
 30
0.0
 10
10.9938438835
 20
6.0534573369
 30
0.0
  0
SPLINE
  5
36F
100
AcDbEntity
  8
0
100
AcDbSpline
 62
7
  6
CONTINUOUS
 70
0
 71
3
 72
42
 73
38
 74
0
 42
0.0000001
 43
0.0000001
 44
0.0000000001
 40
0.0
 40
0.0
 40
0.0
 40
0.0
 40
0.0299419663
 40
0.0449235352
 40
0.0599142051
 40
0.0899287052
 40
0.1200139767
 40
0.135092661
 40
0.150196701
 40
0.1804840414
 40
0.210897872
 40
0.2414513324
 40
0.2721543376
 40
0.3030133986
 40
0.3340315263
 40
0.3652082187
 40
0.3965395244
 40
0.4280181782
 40
0.4596338019
 40
0.4913731609
 40
0.5232204716
 40
0.55515775
 40
0.5871651943
 40
0.6192215961
 40
0.6513047701
 40
0.6833919991
 40
0.7154604852
 40
0.7474878032
 40
0.7794523473
 40
0.8113337692
 40
0.8431133916
 40
0.8747746171
 40
0.9063032365
 40
0.9376879249
 40
0.9533258257
 40
0.968925233
 40
1.0
 40
1.0
 40
1.0
 40
1.0
 10
11.2543738879
 20
5.783736895
 30
0.0
 10
11.2512633253
 20
5.7807323218
 30
0.0
 10
11.2464141514
 20
5.7764074955
 30
0.0
 10
11.2396229587
 20
5.7710413555
 30
0.0
 10
11.2326155153
 20
5.7659422202
 30
0.0
 10
11.2234719376
 20
5.7600867679
 30
0.0
 10
11.2138837826
 20
5.7549649491
 30
0.0
 10
11.2059760557
 20
5.7513212354
 30
0.0
 10
11.197904948
 20
5.7479783745
 30
0.0
 10
11.1875501038
 20
5.7443837962
 30
0.0
 10
11.1747893119
 20
5.7410337461
 30
0.0
 10
11.1617500752
 20
5.7386604713
 30
0.0
 10
11.1485046519
 20
5.7372770733
 30
0.0
 10
11.1351258029
 20
5.7368909327
 30
0.0
 10
11.1216871426
 20
5.7375040157
 30
0.0
 10
11.108262533
 20
5.7391127809
 30
0.0
 10
11.0949257368
 20
5.7417082308
 30
0.0
 10
11.0817500016
 20
5.7452759616
 30
0.0
 10
11.0688076676
 20
5.7497962476
 30
0.0
 10
11.0561697742
 20
5.7552441532
 30
0.0
 10
11.0439056765
 20
5.7615896713
 30
0.0
 10
11.0320826693
 20
5.7687978879
 30
0.0
 10
11.0207656229
 20
5.7768291747
 30
0.0
 10
11.0100166317
 20
5.7856394056
 30
0.0
 10
10.9998946777
 20
5.7951801972
 30
0.0
 10
10.9904553106
 20
5.805399172
 30
0.0
 10
10.9817503458
 20
5.8162402433
 30
0.0
 10
10.9738275832
 20
5.8276439206
 30
0.0
 10
10.9667305469
 20
5.8395476286
 30
0.0
 10
10.960498248
 20
5.851886061
 30
0.0
 10
10.9551649727
 20
5.8645914824
 30
0.0
 10
10.9507600862
 20
5.8775942843
 30
0.0
 10
10.9473079182
 20
5.8908226667
 30
0.0
 10
10.9452382704
 20
5.9019888602
 30
0.0
 10
10.9440772556
 20
5.9109607541
 30
0.0
 10
10.9432486697
 20
5.9199240649
 30
0.0
 10
10.9429977825
 20
5.9266688928
 30
0.0
 10
10.9429977825
 20
5.9311572136
 30
0.0
  0
SPLINE
  5
370
100
AcDbEntity
  8
0
100
AcDbSpline
 62
7
  6
CONTINUOUS
 70
0
 71
3
 72
11
 73
7
 74
0
 42
0.0000001
 43
0.0000001
 44
0.0000000001
 40
0.0
 40
0.0
 40
0.0
 40
0.0
 40
0.2464207218
 40
0.4942891914
 40
0.7450263236
 40
1.0
 40
1.0
 40
1.0
 40
1.0
 10
10.6106844593
 20
9.6647481134
 30
0.0
 10
10.610684455
 20
9.6657080319
 30
0.0
 10
10.6107612841
 20
9.6676343715
 30
0.0
 10
10.6111065809
 20
9.6705188674
 30
0.0
 10
10.6116817761
 20
9.673400353
 30
0.0
 10
10.6122129604
 20
9.6752995581
 30
0.0
 10
10.612514748
 20
9.6762458361
 30
0.0
  0
SPLINE
  5
371
100
AcDbEntity
  8
0
100
AcDbSpline
 62
7
  6
CONTINUOUS
 70
0
 71
3
 72
40
 73
36
 74
0
 42
0.0000001
 43
0.0000001
 44
0.0000000001
 40
0.0
 40
0.0
 40
0.0
 40
0.0
 40
0.0958313936
 40
0.1891002636
 40
0.2345968559
 40
0.2792418231
 40
0.3229685191
 40
0.3657121987
 40
0.4074103657
 40
0.4480029213
 40
0.4874324913
 40
0.5256446262
 40
0.5625879545
 40
0.5982146421
 40
0.632480706
 40
0.6653462654
 40
0.6967761768
 40
0.726740613
 40
0.7552155871
 40
0.7821839784
 40
0.8076366943
 40
0.8315738914
 40
0.8540069425
 40
0.8749609194
 40
0.8944774765
 40
0.9126189061
 40
0.9294731629
 40
0.9451593854
 40
0.9598338584
 40
0.9668558876
 40
0.9737029112
 40
0.9804063068
 40
0.9869997133
 40
0.9935186461
 40
1.0
 40
1.0
 40
1.0
 40
1.0
 10
9.9690138362
 20
8.3438223228
 30
0.0
 10
9.9592465453
 20
8.3444996868
 30
0.0
 10
9.9399872984
 20
8.3460511467
 30
0.0
 10
9.916146326
 20
8.3485390846
 30
0.0
 10
9.8975489812
 20
8.3508375305
 30
0.0
 10
9.8839980286
 20
8.3526919762
 30
0.0
 10
9.8707515715
 20
8.3546880883
 30
0.0
 10
9.8578317157
 20
8.3568225273
 30
0.0
 10
9.845260054
 20
8.3590916911
 30
0.0
 10
9.8330575891
 20
8.3614917832
 30
0.0
 10
9.821244693
 20
8.3640187598
 30
0.0
 10
9.8098410779
 20
8.3666683595
 30
0.0
 10
9.7988657688
 20
8.3694361441
 30
0.0
 10
9.7883370556
 20
8.3723174555
 30
0.0
 10
9.7782724609
 20
8.3753074344
 30
0.0
 10
9.7686887223
 20
8.3784010755
 30
0.0
 10
9.7596017425
 20
8.3815931889
 30
0.0
 10
9.7510265529
 20
8.3848784105
 30
0.0
 10
9.7429773038
 20
8.3882512748
 30
0.0
 10
9.7354672148
 20
8.3917061921
 30
0.0
 10
9.7285085283
 20
8.3952374563
 30
0.0
 10
9.7221125163
 20
8.3988393536
 30
0.0
 10
9.7162894422
 20
8.4025061843
 30
0.0
 10
9.7110485277
 20
8.40623229
 30
0.0
 10
9.706398028
 20
8.4100122713
 30
0.0
 10
9.7023453628
 20
8.4138409822
 30
0.0
 10
9.6988971656
 20
8.4177139161
 30
0.0
 10
9.6960601422
 20
8.4216261651
 30
0.0
 10
9.6941836417
 20
8.424965047
 30
0.0
 10
9.6930138703
 20
8.4276384884
 30
0.0
 10
9.6923056537
 20
8.4296193013
 30
0.0
 10
9.6917542898
 20
8.431604014
 30
0.0
 10
9.6913601251
 20
8.4335918133
 30
0.0
 10
9.6911235402
 20
8.4355815533
 30
0.0
 10
9.6910709056
 20
8.4369103386
 30
0.0
 10
9.691070909
 20
8.4375725153
 30
0.0
  0
SPLINE
  5
372
100
AcDbEntity
  8
0
100
AcDbSpline
 62
7
  6
CONTINUOUS
 70
0
 71
3
 72
41
 73
37
 74
0
 42
0.0000001
 43
0.0000001
 44
0.0000000001
 40
0.0
 40
0.0
 40
0.0
 40
0.0
 40
0.0071758425
 40
0.0146741453
 40
0.0225035656
 40
0.0306713257
 40
0.0391834036
 40
0.0480443729
 40
0.0572572157
 40
0.0668238661
 40
0.0767452117
 40
0.087021259
 40
0.0976512753
 40
0.1086336553
 40
0.1316452786
 40
0.1560326285
 40
0.1817628121
 40
0.2087958578
 40
0.2370856249
 40
0.2665805114
 40
0.2972240455
 40
0.3289554128
 40
0.3617098907
 40
0.3954192316
 40
0.4300120033
 40
0.4654138991
 40
0.5015480605
 40
0.5383353682
 40
0.5756947176
 40
0.6135432851
 40
0.6517967846
 40
0.6903697386
 40
0.7681261117
 40
0.8461161118
 40
0.923638923
 40
1.0
 40
1.0
 40
1.0
 40
1.0
 10
11.997922665
 20
8.3035978759
 30
0.0
 10
11.9971109609
 20
8.30281383
 30
0.0
 10
11.995410711
 20
8.3012518793
 30
0.0
 10
11.9926989945
 20
8.2989761312
 30
0.0
 10
11.9897725931
 20
8.2967184428
 30
0.0
 10
11.9866334113
 20
8.2944802682
 30
0.0
 10
11.983283288
 20
8.292262821
 30
0.0
 10
11.9797241492
 20
8.2900674056
 30
0.0
 10
11.9759581146
 20
8.2878952431
 30
0.0
 10
11.971987404
 20
8.2857476758
 30
0.0
 10
11.9678143918
 20
8.2836259631
 30
0.0
 10
11.963441567
 20
8.2815313582
 30
0.0
 10
11.9588715165
 20
8.2794651266
 30
0.0
 10
11.9524179867
 20
8.2767065804
 30
0.0
 10
11.9438705747
 20
8.2733473287
 30
0.0
 10
11.9330271129
 20
8.2695087705
 30
0.0
 10
11.9214688797
 20
8.2658117495
 30
0.0
 10
11.9092235587
 20
8.2622652084
 30
0.0
 10
11.8963203469
 20
8.258877748
 30
0.0
 10
11.8827901454
 20
8.2556575884
 30
0.0
 10
11.8686653935
 20
8.2526125409
 30
0.0
 10
11.8539799981
 20
8.2497499955
 30
0.0
 10
11.8387692357
 20
8.2470768987
 30
0.0
 10
11.8230696654
 20
8.2445997376
 30
0.0
 10
11.8069190403
 20
8.2423245237
 30
0.0
 10
11.7903562147
 20
8.2402567698
 30
0.0
 10
11.773421045
 20
8.2384014863
 30
0.0
 10
11.7561542899
 20
8.2367631695
 30
0.0
 10
11.7385975076
 20
8.2353457878
 30
0.0
 10
11.7207929719
 20
8.2341527851
 30
0.0
 10
11.7027835141
 20
8.2331870246
 30
0.0
 10
11.6784918343
 20
8.2322029854
 30
0.0
 10
11.6479346878
 20
8.2315575124
 30
0.0
 10
11.6112452041
 20
8.2317121815
 30
0.0
 10
11.5747909194
 20
8.2327926859
 30
0.0
 10
11.5506238262
 20
8.2341372975
 30
0.0
 10
11.5386433969
 20
8.2349681431
 30
0.0
  0
SPLINE
  5
373
100
AcDbEntity
  8
0
100
AcDbSpline
 62
7
  6
CONTINUOUS
 70
0
 71
3
 72
15
 73
11
 74
0
 42
0.0000001
 43
0.0000001
 44
0.0000000001
 40
0.0
 40
0.0
 40
0.0
 40
0.0
 40
0.1272123032
 40
0.253670362
 40
0.3794118365
 40
0.5044913826
 40
0.6289866444
 40
0.7529933828
 40
0.8766232026
 40
1.0
 40
1.0
 40
1.0
 40
1.0
 10
10.9626680141
 20
5.9501571994
 30
0.0
 10
10.9626680141
 20
5.9553573131
 30
0.0
 10
10.9631151398
 20
5.9657325121
 30
0.0
 10
10.9651367017
 20
5.9811288342
 30
0.0
 10
10.9684922666
 20
5.9962026765
 30
0.0
 10
10.9731572499
 20
6.0108398977
 30
0.0
 10
10.9790969724
 20
6.0249312061
 30
0.0
 10
10.9862676137
 20
6.0383712953
 30
0.0
 10
10.9946145677
 20
6.0510581979
 30
0.0
 10
11.0009288674
 20
6.0589590264
 30
0.0
 10
11.0042564466
 20
6.0627487987
 30
0.0
  0
SPLINE
  5
374
100
AcDbEntity
  8
0
100
AcDbSpline
 62
7
  6
CONTINUOUS
 70
0
 71
3
 72
23
 73
19
 74
0
 42
0.0000001
 43
0.0000001
 44
0.0000000001
 40
0.0
 40
0.0
 40
0.0
 40
0.0
 40
0.0749625009
 40
0.1455684839
 40
0.2121600745
 40
0.2751631548
 40
0.3350982506
 40
0.3925832742
 40
0.4483295117
 40
0.5031237972
 40
0.5577983643
 40
0.613191491
 40
0.670106811
 40
0.729278715
 40
0.7913522906
 40
0.8568775564
 40
0.9263090861
 40
1.0
 40
1.0
 40
1.0
 40
1.0
 10
12.2663160348
 20
9.7890942161
 30
0.0
 10
12.2673093799
 20
9.7881698037
 30
0.0
 10
12.2691832736
 20
9.7863139116
 30
0.0
 10
12.2717117214
 20
9.7834184465
 30
0.0
 10
12.2738678324
 20
9.7805000603
 30
0.0
 10
12.2756483634
 20
9.7775612629
 30
0.0
 10
12.2770503737
 20
9.7746046732
 30
0.0
 10
12.2780706901
 20
9.771633302
 30
0.0
 10
12.2787064585
 20
9.7686509805
 30
0.0
 10
12.2789554141
 20
9.7656624301
 30
0.0
 10
12.2788165771
 20
9.7626730865
 30
0.0
 10
12.2782905235
 20
9.7596884676
 30
0.0
 10
12.2773791308
 20
9.7567135683
 30
0.0
 10
12.2760852674
 20
9.7537524406
 30
0.0
 10
12.274411944
 20
9.7508083312
 30
0.0
 10
12.2723621944
 20
9.7478838128
 30
0.0
 10
12.2699391738
 20
9.7449816717
 30
0.0
 10
12.268132958
 20
9.7431209066
 30
0.0
 10
12.2671735318
 20
9.742194172
 30
0.0
  0
SPLINE
  5
375
100
AcDbEntity
  8
0
100
AcDbSpline
 62
7
  6
CONTINUOUS
 70
0
 71
3
 72
17
 73
13
 74
0
 42
0.0000001
 43
0.0000001
 44
0.0000000001
 40
0.0
 40
0.0
 40
0.0
 40
0.0
 40
0.0548654642
 40
0.1099349219
 40
0.2214349039
 40
0.3360992195
 40
0.4553348124
 40
0.517079118
 40
0.5804139608
 40
0.7123167483
 40
0.8519524535
 40
1.0
 40
1.0
 40
1.0
 40
1.0
 10
12.3098950226
 20
9.7352940621
 30
0.0
 10
12.3098950267
 20
9.7347644581
 30
0.0
 10
12.3098613996
 20
9.7337029419
 30
0.0
 10
12.309659153
 20
9.7315739476
 30
0.0
 10
12.309148105
 20
9.7289001168
 30
0.0
 10
12.3081325775
 20
9.7257169658
 30
0.0
 10
12.306964929
 20
9.7231065494
 30
0.0
 10
12.3058413411
 20
9.7210322475
 30
0.0
 10
12.3045547876
 20
9.718910338
 30
0.0
 10
12.3026866762
 20
9.7162667304
 30
0.0
 10
12.3000821854
 20
9.7131601125
 30
0.0
 10
12.2981450992
 20
9.7111667082
 30
0.0
 10
12.2971172342
 20
9.7101738668
 30
0.0
  0
SPLINE
  5
376
100
AcDbEntity
  8
0
100
AcDbSpline
 62
7
  6
CONTINUOUS
 70
0
 71
3
 72
18
 73
14
 74
0
 42
0.0000001
 43
0.0000001
 44
0.0000000001
 40
0.0
 40
0.0
 40
0.0
 40
0.0
 40
0.054862568
 40
0.1099291209
 40
0.1654011893
 40
0.2214754292
 40
0.336133642
 40
0.4553634706
 40
0.5171047465
 40
0.5804363458
 40
0.712331634
 40
0.8519592464
 40
1.0
 40
1.0
 40
1.0
 40
1.0
 10
12.3098950169
 20
8.6177175856
 30
0.0
 10
12.3098950141
 20
8.6171879867
 30
0.0
 10
12.3098614011
 20
8.6161265138
 30
0.0
 10
12.3097102439
 20
8.614536042
 30
0.0
 10
12.3094583749
 20
8.6129464545
 30
0.0
 10
12.3089851299
 20
8.6108135731
 30
0.0
 10
12.3081325153
 20
8.6081403565
 30
0.0
 10
12.3069648549
 20
8.6055302324
 30
0.0
 10
12.3058412724
 20
8.6034559081
 30
0.0
 10
12.3045547238
 20
8.6013340356
 30
0.0
 10
12.3026866317
 20
8.5986904624
 30
0.0
 10
12.3000821706
 20
8.5955838757
 30
0.0
 10
12.2981450963
 20
8.5935904931
 30
0.0
 10
12.2971172342
 20
8.5925976546
 30
0.0
  0
SPLINE
  5
377
100
AcDbEntity
  8
0
100
AcDbSpline
 62
7
  6
CONTINUOUS
 70
0
 71
3
 72
15
 73
11
 74
0
 42
0.0000001
 43
0.0000001
 44
0.0000000001
 40
0.0
 40
0.0
 40
0.0
 40
0.0
 40
0.1273482789
 40
0.2538606571
 40
0.3795878378
 40
0.5046051156
 40
0.629017439
 40
0.7529533823
 40
0.8765605864
 40
1.0
 40
1.0
 40
1.0
 40
1.0
 10
11.4886207232
 20
5.7594479003
 30
0.0
 10
11.4886207232
 20
5.763774984
 30
0.0
 10
11.4890338735
 20
5.7724067308
 30
0.0
 10
11.4909022781
 20
5.7851883328
 30
0.0
 10
11.4940004173
 20
5.7976487875
 30
0.0
 10
11.4983003052
 20
5.8096715598
 30
0.0
 10
11.5037625054
 20
5.8211457764
 30
0.0
 10
11.5103371897
 20
5.8319654979
 30
0.0
 10
11.5179625591
 20
5.8420293428
 30
0.0
 10
11.5237040814
 20
5.8481769222
 30
0.0
 10
11.5267208172
 20
5.8510908852
 30
0.0
  0
ELLIPSE
  5
378
100
AcDbEntity
  8
0
100
AcDbEllipse
 62
7
  6
CONTINUOUS
 10
10.7024350592
 20
7.2457928566
 30
0.0
 11
0.208332898
 21
-0.077772317
 31
0.0
 40
0.8000916189
 41
0.0
 42
6.2831853072
  0
ELLIPSE
  5
379
100
AcDbEntity
  8
0
100
AcDbEllipse
 62
7
  6
CONTINUOUS
 10
11.1241088857
 20
7.7290155404
 30
0.0
 11
-0.024439256
 21
0.2195251951
 31
0.0
 40
0.7819268308
 41
0.0
 42
6.2831853072
  0
ENDSEC
  0
SECTION
  2
OBJECTS
  0
DICTIONARY
  5
C
100
AcDbDictionary
280
0
281
1
  3
ACAD_GROUP
350
D
  3
ACAD_MLINESTYLE
350
17
  3
ACAD_LAYOUT
350
1A
  3
ACAD_PLOTSETTINGS
350
19
  3
ACAD_PLOTSTYLENAME
350
E
  3
ACAD_IMAGE_DICT
350
       37B
  3
ACAD_IMAGE_VARS
350
       37C
  3
ACAD_TABLESTYLE
350
       37D
  0
IMAGEDEF_REACTOR
  5
37A
100
AcDbRasterImageDefReactor
 90
2
330
275
  0
DICTIONARY
  5
D
102
{ACAD_REACTORS
330
C
102
}
100
AcDbDictionary
280
0
281
1
  0
ACDBDICTIONARYWDFLT
  5
E
102
{ACAD_REACTORS
330
C
102
}
100
AcDbDictionary
281
1
  3
Normal
350
F
100
AcDbDictionaryWithDefault
340
F
  0
DICTIONARY
  5
37B
330
C
100
AcDbDictionary
281
1
  3
RPGCLAN-CBT_assy_2_img_1
350
       380
  0
RASTERVARIABLES
  5
37C
330
C
100
AcDbRasterVariables
 90
0
 70
0
 71
1
 72
5
  0
DICTIONARY
  5
17
102
{ACAD_REACTORS
330
C
102
}
100
AcDbDictionary
280
0
281
1
  3
Standard
350
18
  0
DICTIONARY
  5
37D
330
C
100
AcDbDictionary
281
1
  3
Standard
350
       381
  3
Standard1
350
       382
  0
DICTIONARY
  5
19
102
{ACAD_REACTORS
330
C
102
}
100
AcDbDictionary
281
1
  0
DICTIONARY
  5
1A
102
{ACAD_REACTORS
330
C
102
}
100
AcDbDictionary
281
1
  3
Model
350
37E
  3
Layout1
350
37F
  0
ACDBPLACEHOLDER
  5
F
102
{ACAD_REACTORS
330
E
102
}
  0
MLINESTYLE
  5
18
102
{ACAD_REACTORS
330
17
102
}
100
AcDbMlineStyle
  2
STANDARD
 70
0
  3

 62
256
 51
90.0
 52
90.0
 71
2
 49
0.5
 62
256
  6
BYLAYER
 49
-0.5
 62
256
  6
BYLAYER
  0
LAYOUT
  5
37E
102
{ACAD_REACTORS
330
1A
102
}
100
AcDbPlotSettings
  1

  2
none_device
  4
ANSI_C_(22.00_x_17.00_Inches)
  6

 40
0.0
 41
0.0
 42
0.0
 43
0.0
 44
558.8
 45
431.8
 46
0.0
 47
0.0
 48
0.0
 49
0.0
140
0.0
141
0.0
142
1.0
143
1.0
 70
1024
 72
0
 73
0
 74
0
  7

 75
0
147
1.0
148
0.0
149
0.0
100
AcDbLayout
  1
Model
 70
0
 71
0
 10
0.0
 20
0.0
 11
22.0
 21
17.0
 12
0.0
 22
0.0
 32
0.0
 14
0.0
 24
0.0
 34
0.0
 15
0.0
 25
0.0
 35
0.0
146
0.0
 13
0.0
 23
0.0
 33
0.0
 16
1.0
 26
0.0
 36
0.0
 17
0.0
 27
1.0
 37
0.0
 76
0
330
20F
345
0
346
0
  0
LAYOUT
  5
37F
102
{ACAD_REACTORS
330
1A
102
}
100
AcDbPlotSettings
  1

  2
none_device
  4
ANSI_C_(22.00_x_17.00_Inches)
  6

 40
0.0
 41
0.0
 42
0.0
 43
0.0
 44
558.8
 45
431.8
 46
0.0
 47
0.0
 48
0.0
 49
0.0
140
0.0
141
0.0
142
1.0
143
1.0
 70
0
 72
0
 73
0
 74
0
  7

 75
0
147
1.0
148
0.0
149
0.0
100
AcDbLayout
  1
Layout1
 70
0
 71
1
 10
0.0
 20
0.0
 11
22.0
 21
17.0
 12
0.0
 22
0.0
 32
0.0
 14
0.0
 24
0.0
 34
0.0
 15
0.0
 25
0.0
 35
0.0
146
0.0
 13
0.0
 23
0.0
 33
0.0
 16
1.0
 26
0.0
 36
0.0
 17
0.0
 27
1.0
 37
0.0
 76
0
330
210
345
0
346
0
  0
IMAGEDEF
  5
380
102
{ACAD_REACTORS
330
37B
330
37A
102
}
100
AcDbRasterImageDef
 90
0
  1
RPGCLAN-CBT_assy_2_img_1.png
 10
369.0
 20
92.0
 11
0.0066666667
 21
0.0066666667
280
1
281
0
  0
TABLESTYLE
  5
381
102
{ACAD_REACTORS
330
37D
330
278
102
}
330
37D
100
AcDbTableStyle
  3
Standard
 70
0
 71
0
 40
0.06
 41
0.06
280
1
281
1
  7
Standard
140
0.18
170
1
 62
0
 63
7
283
0
  7
Standard
140
0.18
170
1
 62
0
 63
7
283
0
  7
Standard
140
0.18
170
1
 62
0
 63
7
283
0
  0
TABLESTYLE
  5
382
102
{ACAD_REACTORS
330
37D
330
277
102
}
330
37D
100
AcDbTableStyle
  3
Standard1
 70
1
 71
0
 40
0.06
 41
0.06
280
1
281
1
  7
Standard
140
0.18
170
1
 62
0
 63
7
283
0
  7
Standard
140
0.18
170
1
 62
0
 63
7
283
0
  7
Standard
140
0.18
170
1
 62
0
 63
7
283
0
  0
ENDSEC
  0
EOF
