999
DXF file: RPGCLAN-CBB-S_assy_2.dxf
999
Pro/ENGINEER 2014200 by Parametric Technology Corporation
  0
SECTION
  2
HEADER
  9
$ACADVER
  1
AC1021
  9
$DWGCODEPAGE
  3
ANSI_1252
  9
$EXTMAX
 10
22.0
 20
17.0
 30
0.0
  9
$EXTMIN
 10
0.0
 20
0.0
 30
0.0
  9
$LIMMIN
 10
0.0
 20
0.0
  9
$LIMMAX
 10
22.0
 20
17.0
  9
$VIEWCTR
 10
11.0
 20
8.5
  9
$VIEWSIZE
 40
17.0
  9
$CLAYER
  8
0
  9
$LTSCALE
 40
1.21
  9
$CELTYPE
  6
BYLAYER
  9
$DIMSCALE
 40
1.0
  9
$DIMASZ
 40
0.1875
  9
$DIMEXO
 40
0.0625
  9
$DIMDLI
 40
0.836
  9
$DIMEXE
 40
0.125
  9
$DIMCEN
 40
0.198
  9
$DIMLFAC
 40
1.0
  9
$DIMBLK
  1
_FILLED
  9
$DIMTXT
 40
0.1
  9
$DIMTOL
 70
0
  9
$DIMLIM
 70
0
  9
$DIMTFAC
 40
1.0
  9
$DIMGAP
 40
0.09
  9
$DIMDSEP
 70
46
  9
$AUNITS
 70
0
  9
$PDMODE
 70
3
  9
$PDSIZE
 40
0.3125
  9
$HANDSEED
  5
330
  9
$TILEMODE
 70
1
  9
$MEASUREMENT
 70
0
  9
$INSUNITS
 70
1
  0
ENDSEC
  0
SECTION
  2
CLASSES
  0
CLASS
  1
ACDBDICTIONARYWDFLT
  2
AcDbDictionaryWithDefault
  3
AutoCAD 2000
 90
0
 91
1
280
0
281
0
  0
CLASS
  1
ACDBPLACEHOLDER
  2
AcDbPlaceHolder
  3
AutoCAD 2000
 90
0
 91
1
280
0
281
0
  0
CLASS
  1
LAYOUT
  2
AcDbLayout
  3
AutoCAD 2000
 90
0
 91
0
280
0
281
0
  0
CLASS
  1
RASTERVARIABLES
  2
AcDbRasterVariables
  3
ISM
 90
0
 91
1
280
0
281
0
  0
CLASS
  1
IMAGEDEF
  2
AcDbRasterImageDef
  3
ISM
 90
0
 91
1
280
0
281
0
  0
CLASS
  1
IMAGEDEF_REACTOR
  2
AcDbRasterImageDefReactor
  3
ISM
 90
0
 91
1
280
0
281
0
  0
CLASS
  1
IMAGE
  2
AcDbRasterImage
  3
ISM
 90
127
 91
1
280
0
281
1
  0
CLASS
  1
TABLESTYLE
  2
AcDbTableStyle
  3
ObjectDBX Classes
 90
2047
 91
1
280
0
281
0
  0
CLASS
  1
ACAD_TABLE
  2
AcDbTable
  3
ObjectDBX Classes
 90
1025
 91
2
280
0
281
1
  0
ENDSEC
  0
SECTION
  2
TABLES
  0
TABLE
  2
VPORT
  5
8
100
AcDbSymbolTable
 70
2
  0
VPORT
  5
1F4
100
AcDbSymbolTableRecord
100
AcDbViewportTableRecord
  2
*ACTIVE
 70
0
 10
0.0
 20
0.0
 11
1.0
 21
1.0
 12
11.0
 22
8.5
 13
0.0
 23
0.0
 14
1.0
 24
1.0
 15
0.0
 25
0.0
 16
0.0
 26
0.0
 36
1.0
 17
0.0
 27
0.0
 37
0.0
 40
17.0
 41
1.2941176471
 42
50.0
 43
0.0
 44
0.0
 50
0.0
 51
0.0
 71
0
 72
100
 73
1
 74
1
 75
0
 76
0
 77
0
 78
0
  0
ENDTAB
  0
TABLE
  2
LTYPE
  5
5
100
AcDbSymbolTable
 70
6
  0
LTYPE
  5
14
100
AcDbSymbolTableRecord
100
AcDbLinetypeTableRecord
  2
BYBLOCK
 70
0
  3

 72
65
 73
0
 40
0.0
  0
LTYPE
  5
15
100
AcDbSymbolTableRecord
100
AcDbLinetypeTableRecord
  2
BYLAYER
 70
0
  3

 72
65
 73
0
 40
0.0
  0
LTYPE
  5
16
100
AcDbSymbolTableRecord
100
AcDbLinetypeTableRecord
  2
CONTINUOUS
 70
64
  3
Solid line
 72
65
 73
0
 40
0.0
  0
LTYPE
  5
1F5
100
AcDbSymbolTableRecord
100
AcDbLinetypeTableRecord
  2
CENTER
 70
64
  3
____ _ ____ _ ____ _ ____ _ ____ _ ____ _ ____
 72
65
 73
4
 40
0.6
 49
0.375
 74
0
 49
-0.075
 74
0
 49
0.075
 74
0
 49
-0.075
 74
0
  0
LTYPE
  5
1F6
100
AcDbSymbolTableRecord
100
AcDbLinetypeTableRecord
  2
HIDDEN
 70
64
  3
- - - - - - - - - - - - - - - - - - - -
 72
65
 73
2
 40
0.2
 49
0.1
 74
0
 49
-0.1
 74
0
  0
LTYPE
  5
1F7
100
AcDbSymbolTableRecord
100
AcDbLinetypeTableRecord
  2
PHANTOM
 70
64
  3
_____ _ _ _____ _ _ _____ _ _ _____
 72
65
 73
6
 40
0.8
 49
0.45
 74
0
 49
-0.05
 74
0
 49
0.1
 74
0
 49
-0.05
 74
0
 49
0.1
 74
0
 49
-0.05
 74
0
  0
LTYPE
  5
1F8
100
AcDbSymbolTableRecord
100
AcDbLinetypeTableRecord
  2
DOT
 70
64
  3
. . . . . . . . . . . . . . . . . . . .
 72
65
 73
2
 40
0.2
 49
0.1
 74
0
 49
-0.1
 74
0
  0
LTYPE
  5
1F9
100
AcDbSymbolTableRecord
100
AcDbLinetypeTableRecord
  2
DASHED
 70
64
  3
- - - - - - - - - - - - - - - - - - - -
 72
65
 73
2
 40
0.2
 49
0.1
 74
0
 49
-0.1
 74
0
  0
ENDTAB
  0
TABLE
  2
LAYER
  5
2
100
AcDbSymbolTable
 70
36
  0
LAYER
  5
10
100
AcDbSymbolTableRecord
100
AcDbLayerTableRecord
  2
0
 70
0
 62
7
  6
CONTINUOUS
370
-3
390
F
  0
LAYER
  5
1FA
100
AcDbSymbolTableRecord
100
AcDbLayerTableRecord
  2
DEFAULT_1
 70
0
 62
7
  6
CENTER
370
-3
390
F
  0
LAYER
  5
1FB
100
AcDbSymbolTableRecord
100
AcDbLayerTableRecord
  2
DEFAULT_2
 70
0
 62
8
  6
HIDDEN
370
-3
390
F
  0
LAYER
  5
1FC
100
AcDbSymbolTableRecord
100
AcDbLayerTableRecord
  2
DEFAULT_3
 70
0
 62
7
  6
PHANTOM
370
-3
390
F
  0
LAYER
  5
1FD
100
AcDbSymbolTableRecord
100
AcDbLayerTableRecord
  2
01___PRT_ALL_DTM_PLN
 70
0
 62
7
  6
CONTINUOUS
370
-3
390
F
  0
LAYER
  5
1FE
100
AcDbSymbolTableRecord
100
AcDbLayerTableRecord
  2
01___PRT_DEF_DTM_PLN
 70
0
 62
7
  6
CONTINUOUS
370
-3
390
F
  0
LAYER
  5
1FF
100
AcDbSymbolTableRecord
100
AcDbLayerTableRecord
  2
02___PRT_ALL_AXES
 70
0
 62
7
  6
CONTINUOUS
370
-3
390
F
  0
LAYER
  5
200
100
AcDbSymbolTableRecord
100
AcDbLayerTableRecord
  2
03___PRT_ALL_CURVES
 70
0
 62
7
  6
CONTINUOUS
370
-3
390
F
  0
LAYER
  5
201
100
AcDbSymbolTableRecord
100
AcDbLayerTableRecord
  2
04___PRT_ALL_DTM_PNT
 70
0
 62
7
  6
CONTINUOUS
370
-3
390
F
  0
LAYER
  5
202
100
AcDbSymbolTableRecord
100
AcDbLayerTableRecord
  2
05___PRT_ALL_DTM_CSYS
 70
0
 62
7
  6
CONTINUOUS
370
-3
390
F
  0
LAYER
  5
203
100
AcDbSymbolTableRecord
100
AcDbLayerTableRecord
  2
05___PRT_DEF_DTM_CSYS
 70
0
 62
7
  6
CONTINUOUS
370
-3
390
F
  0
LAYER
  5
204
100
AcDbSymbolTableRecord
100
AcDbLayerTableRecord
  2
06___PRT_ALL_SURFS
 70
0
 62
7
  6
CONTINUOUS
370
-3
390
F
  0
LAYER
  5
205
100
AcDbSymbolTableRecord
100
AcDbLayerTableRecord
  2
DATUM_PLANES
 70
0
 62
7
  6
CONTINUOUS
370
-3
390
F
  0
LAYER
  5
206
100
AcDbSymbolTableRecord
100
AcDbLayerTableRecord
  2
DIMENSIONS
 70
0
 62
7
  6
CONTINUOUS
370
-3
390
F
  0
LAYER
  5
207
100
AcDbSymbolTableRecord
100
AcDbLayerTableRecord
  2
DTM_500001
 70
0
 62
7
  6
CONTINUOUS
370
-3
390
F
  0
LAYER
  5
208
100
AcDbSymbolTableRecord
100
AcDbLayerTableRecord
  2
PARAMETERDIMENSIONS
 70
0
 62
7
  6
CONTINUOUS
370
-3
390
F
  0
LAYER
  5
209
100
AcDbSymbolTableRecord
100
AcDbLayerTableRecord
  2
PORT_AREAS
 70
0
 62
7
  6
CONTINUOUS
370
-3
390
F
  0
LAYER
  5
20A
100
AcDbSymbolTableRecord
100
AcDbLayerTableRecord
  2
SUNNBOMCOSMETIC
 70
0
 62
7
  6
CONTINUOUS
370
-3
390
F
  0
LAYER
  5
20B
100
AcDbSymbolTableRecord
100
AcDbLayerTableRecord
  2
SUNNBOMSTAMPING
 70
0
 62
7
  6
CONTINUOUS
370
-3
390
F
  0
LAYER
  5
20C
100
AcDbSymbolTableRecord
100
AcDbLayerTableRecord
  2
THREADS
 70
0
 62
7
  6
CONTINUOUS
370
-3
390
F
  0
ENDTAB
  0
TABLE
  2
STYLE
  5
3
100
AcDbSymbolTable
 70
1
  0
STYLE
  5
11
100
AcDbSymbolTableRecord
100
AcDbTextStyleTableRecord
  2
STANDARD
 70
0
 40
0.0
 41
0.8
 50
0.0
 71
0
 42
0.2
  3
txt
  4

  0
STYLE
  5
20D
100
AcDbSymbolTableRecord
100
AcDbTextStyleTableRecord
  2
TEXTSTYLE_1
 70
0
 40
0.0
 41
0.8
 50
0.0
 71
0
 42
0.2
  3
gdt
  4

  0
ENDTAB
  0
TABLE
  2
VIEW
  5
6
100
AcDbSymbolTable
 70
0
  0
ENDTAB
  0
TABLE
  2
UCS
  5
7
100
AcDbSymbolTable
 70
0
  0
ENDTAB
  0
TABLE
  2
APPID
  5
9
100
AcDbSymbolTable
 70
1
  0
APPID
  5
20E
100
AcDbSymbolTableRecord
100
AcDbRegAppTableRecord
  2
ACAD
 70
0
  0
ENDTAB
  0
TABLE
  2
BLOCK_RECORD
  5
1
100
AcDbSymbolTable
 70
0
  0
BLOCK_RECORD
  5
20F
100
AcDbSymbolTableRecord
100
AcDbBlockTableRecord
  2
*Model_Space
  0
BLOCK_RECORD
  5
210
100
AcDbSymbolTableRecord
100
AcDbBlockTableRecord
  2
*Paper_Space
  0
BLOCK_RECORD
  5
211
100
AcDbSymbolTableRecord
100
AcDbBlockTableRecord
  2
SUN_FIRST_THIRD_ANGLE_BL0
  0
BLOCK_RECORD
  5
212
100
AcDbSymbolTableRecord
100
AcDbBlockTableRecord
  2
*T1
  0
BLOCK_RECORD
  5
213
100
AcDbSymbolTableRecord
100
AcDbBlockTableRecord
  2
*T2
  0
ENDTAB
  0
TABLE
  2
DIMSTYLE
  5
A
100
AcDbSymbolTable
 70
1
100
AcDbDimStyleTable
 71
0
  0
DIMSTYLE
105
214
100
AcDbSymbolTableRecord
100
AcDbDimStyleTableRecord
  2
STANDARD
 70
0
  3

  4

 40
1.0
 41
0.1875
 42
0.0625
 43
0.38
 44
0.125
 45
0.0
 46
0.0
 47
0.001
 48
0.001
140
0.1
141
0.09
142
0.0
143
25.4
144
1.0
145
0.0
146
1.0
147
0.09
 71
0.0
 72
0.0
 73
1
 74
1
 75
0
 76
0
 77
0
 78
4
170
0
171
2
172
0
173
0
174
0
175
0
176
0
177
0
178
0
270
2
271
3
272
3
273
2
274
2
275
0
280
0
281
0
282
0
283
1
284
4
285
0
286
0
287
3
288
0
340
11
278
46
  0
ENDTAB
  0
ENDSEC
  0
SECTION
  2
BLOCKS
  0
BLOCK
  5
20
100
AcDbEntity
  8
0
100
AcDbBlockBegin
  2
*Model_Space
 70
0
 10
0.0
 20
0.0
 30
0.0
  3
*Model_Space
  1

  0
ENDBLK
  5
21
100
AcDbEntity
  8
0
100
AcDbBlockEnd
  0
BLOCK
  5
1C
100
AcDbEntity
  8
0
100
AcDbBlockBegin
  2
*Paper_Space
 70
0
 10
0.0
 20
0.0
 30
0.0
  3
*Paper_Space
  1

  0
ENDBLK
  5
1D
100
AcDbEntity
  8
0
100
AcDbBlockEnd
  0
BLOCK
  5
215
100
AcDbEntity
  8
0
100
AcDbBlockBegin
 62
2
  6
CONTINUOUS
  2
SUN_FIRST_THIRD_ANGLE_BL0
 70
64
 10
20.4816717061
 20
1.2289683772
  3
SUN_FIRST_THIRD_ANGLE_BL0
  1

  0
TEXT
  5
216
100
AcDbEntity
  8
0
100
AcDbText
 62
2
  6
CONTINUOUS
 10
19.4750896608
 20
1.4136269581
  7
STANDARD
 40
0.08
  1
FIRST ANGLE
 41
0.8
 72
0
100
AcDbText
  0
TEXT
  5
217
100
AcDbEntity
  8
0
100
AcDbText
 62
2
  6
CONTINUOUS
 10
20.7842537513
 20
1.4047600029
  7
STANDARD
 40
0.08
  1
THIRD ANGLE
 41
0.8
 72
0
100
AcDbText
  0
LINE
  5
218
100
AcDbEntity
  8
0
100
AcDbLine
 62
7
  6
CONTINUOUS
 10
19.4767170086
 20
1.1727031207
 11
19.6334271527
 21
1.1717972817
  0
LINE
  5
219
100
AcDbEntity
  8
0
100
AcDbLine
 62
7
  6
CONTINUOUS
 10
19.6596964832
 20
1.1717972817
 11
19.6950230232
 21
1.171593082
  0
LINE
  5
21A
100
AcDbEntity
  8
0
100
AcDbLine
 62
7
  6
CONTINUOUS
 10
19.7194818561
 20
1.1708914427
 11
19.8852396156
 21
1.1699333054
  0
LINE
  5
21B
100
AcDbEntity
  8
0
100
AcDbLine
 62
7
  6
CONTINUOUS
 10
19.4758111696
 20
1.2723454088
 11
19.88525039
 21
1.3511534004
  0
LINE
  5
21C
100
AcDbEntity
  8
0
100
AcDbLine
 62
7
  6
CONTINUOUS
 10
19.88525039
 20
1.3511534004
 11
19.8831348489
 21
0.9851647912
  0
LINE
  5
21D
100
AcDbEntity
  8
0
100
AcDbLine
 62
7
  6
CONTINUOUS
 10
19.8831348489
 20
0.9851647912
 11
19.4767170086
 21
1.0658141206
  0
LINE
  5
21E
100
AcDbEntity
  8
0
100
AcDbLine
 62
7
  6
CONTINUOUS
 10
19.4767170086
 20
1.0658141206
 11
19.4779056764
 21
1.2714536432
  0
CIRCLE
  5
21F
100
AcDbEntity
  8
0
100
AcDbCircle
 62
7
  6
CONTINUOUS
 10
20.2068232291
 20
1.1717972817
 40
0.175742101
  0
CIRCLE
  5
220
100
AcDbEntity
  8
0
100
AcDbCircle
 62
7
  6
CONTINUOUS
 10
20.2068232291
 20
1.1717972817
 40
0.1005522074
  0
LINE
  5
221
100
AcDbEntity
  8
0
100
AcDbLine
 62
7
  6
CONTINUOUS
 10
20.2077290681
 20
1.3756110529
 11
20.2071171714
 21
1.2379342989
  0
LINE
  5
222
100
AcDbEntity
  8
0
100
AcDbLine
 62
7
  6
CONTINUOUS
 10
20.2077290681
 20
1.2016899681
 11
20.2074674401
 21
1.1428236749
  0
LINE
  5
223
100
AcDbEntity
  8
0
100
AcDbLine
 62
7
  6
CONTINUOUS
 10
20.208634907
 20
1.101141841
 11
20.2080230104
 21
0.963465087
  0
LINE
  5
224
100
AcDbEntity
  8
0
100
AcDbLine
 62
7
  6
CONTINUOUS
 10
20.0066328138
 20
1.1745147986
 11
20.1443095678
 21
1.1739029019
  0
LINE
  5
225
100
AcDbEntity
  8
0
100
AcDbLine
 62
7
  6
CONTINUOUS
 10
20.1832714155
 20
1.1727031207
 11
20.238153505
 21
1.172335442
  0
LINE
  5
226
100
AcDbEntity
  8
0
100
AcDbLine
 62
7
  6
CONTINUOUS
 10
20.2756669918
 20
1.1717972817
 11
20.407916871
 21
1.1712095044
  0
CIRCLE
  5
227
100
AcDbEntity
  8
0
100
AcDbCircle
 62
7
  6
CONTINUOUS
 10
20.7509457401
 20
1.1693297793
 40
0.1722024983
  0
CIRCLE
  5
228
100
AcDbEntity
  8
0
100
AcDbCircle
 62
7
  6
CONTINUOUS
 10
20.7509457401
 20
1.1693297793
 40
0.0985164967
  0
LINE
  5
229
100
AcDbEntity
  8
0
100
AcDbLine
 62
7
  6
CONTINUOUS
 10
20.7169767782
 20
1.170462078
 11
20.7825395137
 21
1.1682766535
  0
LINE
  5
22A
100
AcDbEntity
  8
0
100
AcDbLine
 62
7
  6
CONTINUOUS
 10
20.8177513651
 20
1.1693297793
 11
20.947965719
 21
1.1693297793
  0
LINE
  5
22B
100
AcDbEntity
  8
0
100
AcDbLine
 62
7
  6
CONTINUOUS
 10
20.6875370113
 20
1.170462078
 11
20.5573226574
 21
1.170462078
  0
LINE
  5
22C
100
AcDbEntity
  8
0
100
AcDbLine
 62
7
  6
CONTINUOUS
 10
20.7486811426
 20
1.1987695462
 11
20.7486811426
 21
1.1432869085
  0
LINE
  5
22D
100
AcDbEntity
  8
0
100
AcDbLine
 62
7
  6
CONTINUOUS
 10
20.7498134414
 20
1.1059210505
 11
20.7498134414
 21
0.9757066966
  0
LINE
  5
22E
100
AcDbEntity
  8
0
100
AcDbLine
 62
7
  6
CONTINUOUS
 10
20.7486811426
 20
1.2338708068
 11
20.7486811426
 21
1.3640851607
  0
LINE
  5
22F
100
AcDbEntity
  8
0
100
AcDbLine
 62
7
  6
CONTINUOUS
 10
21.0702539817
 20
1.2701043662
 11
21.4790138229
 21
1.3448360823
  0
LINE
  5
230
100
AcDbEntity
  8
0
100
AcDbLine
 62
7
  6
CONTINUOUS
 10
21.4790138229
 20
1.3448360823
 11
21.4790138229
 21
0.9779712941
  0
LINE
  5
231
100
AcDbEntity
  8
0
100
AcDbLine
 62
7
  6
CONTINUOUS
 10
21.4790138229
 20
0.9779712941
 11
21.069121683
 21
1.0617614
  0
LINE
  5
232
100
AcDbEntity
  8
0
100
AcDbLine
 62
7
  6
CONTINUOUS
 10
21.0702539817
 20
1.2701043662
 11
21.069121683
 21
1.0617614
  0
LINE
  5
233
100
AcDbEntity
  8
0
100
AcDbLine
 62
7
  6
CONTINUOUS
 10
21.4790138229
 20
1.1693297793
 11
21.3159628059
 21
1.1693297793
  0
LINE
  5
234
100
AcDbEntity
  8
0
100
AcDbLine
 62
7
  6
CONTINUOUS
 10
21.2876553377
 20
1.1693297793
 11
21.2502894796
 21
1.1693297793
  0
LINE
  5
235
100
AcDbEntity
  8
0
100
AcDbLine
 62
7
  6
CONTINUOUS
 10
21.2208497126
 20
1.1659328831
 11
21.0713862804
 21
1.1659328831
  0
LINE
  5
236
100
AcDbEntity
  8
0
100
AcDbLine
 62
7
  6
CONTINUOUS
 10
20.4796138713
 20
1.5284908897
 11
20.4766766948
 21
0.9294458646
  0
ENDBLK
  5
237
100
AcDbEntity
  8
0
  6
BYBLOCK
 62
0
100
AcDbBlockEnd
  0
BLOCK
  5
238
100
AcDbEntity
  8
0
100
AcDbBlockBegin
  2
*T1
 70
1
 10
0.0
 20
0.0
  3
*T1
  1

  0
LINE
  5
239
100
AcDbEntity
  8
0
100
AcDbLine
 62
2
  6
CONTINUOUS
 10
9.275
 20
0.0
 11
-0.0
 21
0.0
  0
LINE
  5
23A
100
AcDbEntity
  8
0
100
AcDbLine
 62
2
  6
CONTINUOUS
 10
9.275
 20
0.0
 11
9.275
 21
1.25
  0
LINE
  5
23B
100
AcDbEntity
  8
0
100
AcDbLine
 62
2
  6
CONTINUOUS
 10
9.275
 20
0.625
 11
-0.0
 21
0.625
  0
LINE
  5
23C
100
AcDbEntity
  8
0
100
AcDbLine
 62
2
  6
CONTINUOUS
 10
9.275
 20
1.25
 11
-0.0
 21
1.25
  0
LINE
  5
23D
100
AcDbEntity
  8
0
100
AcDbLine
 62
2
  6
CONTINUOUS
 10
6.8
 20
0.0
 11
6.8
 21
1.25
  0
LINE
  5
23E
100
AcDbEntity
  8
0
100
AcDbLine
 62
2
  6
CONTINUOUS
 10
6.4
 20
0.0
 11
6.4
 21
0.625
  0
LINE
  5
23F
100
AcDbEntity
  8
0
100
AcDbLine
 62
2
  6
CONTINUOUS
 10
5.9
 20
0.0
 11
5.9
 21
0.625
  0
LINE
  5
240
100
AcDbEntity
  8
0
100
AcDbLine
 62
2
  6
CONTINUOUS
 10
5.2
 20
0.0
 11
5.2
 21
0.625
  0
LINE
  5
241
100
AcDbEntity
  8
0
100
AcDbLine
 62
2
  6
CONTINUOUS
 10
4.1
 20
0.0
 11
4.1
 21
1.25
  0
LINE
  5
242
100
AcDbEntity
  8
0
100
AcDbLine
 62
2
  6
CONTINUOUS
 10
-0.0
 20
0.0
 11
-0.0
 21
1.25
  0
MTEXT
  5
243
100
AcDbEntity
  8
0
100
AcDbMText
 62
2
  6
CONTINUOUS
  7
STANDARD
 71
2
 72
1
 10
6.6
 20
0.325
 30
0.0
 11
1.0
 21
0.0
 31
0.0
 44
0.9
  1
2
 40
0.125
 41
0.2
  0
MTEXT
  5
244
100
AcDbEntity
  8
0
100
AcDbMText
 62
2
  6
CONTINUOUS
  7
STANDARD
 71
2
 72
1
 10
6.15
 20
0.325
 30
0.0
 11
1.0
 21
0.0
 31
0.0
 44
0.9
  1
C
 40
0.125
 41
0.2
  0
MTEXT
  5
245
100
AcDbEntity
  8
0
100
AcDbMText
 62
2
  6
CONTINUOUS
  7
STANDARD
 71
2
 72
1
 10
5.55
 20
0.325
 30
0.0
 11
1.0
 21
0.0
 31
0.0
 44
0.9
  1
1.000
 40
0.125
 41
1.0
  0
MTEXT
  5
246
100
AcDbEntity
  8
0
100
AcDbMText
 62
2
  6
CONTINUOUS
  7
STANDARD
 71
2
 72
1
 10
4.65
 20
0.325
 30
0.0
 11
1.0
 21
0.0
 31
0.0
 44
0.9
  1
Jan-05-21
 40
0.125
 41
1.8
  0
MTEXT
  5
247
100
AcDbEntity
  8
0
100
AcDbMText
 62
2
  6
CONTINUOUS
  7
STANDARD
 71
2
 72
1
 10
2.05
 20
0.4625
 30
0.0
 11
1.0
 21
0.0
 31
0.0
 44
0.9
  1
Relief manifold assembly
 40
0.125
 41
4.8
  0
MTEXT
  5
248
100
AcDbEntity
  8
0
100
AcDbMText
 62
2
  6
CONTINUOUS
  7
STANDARD
 71
1
 72
1
 10
6.45
 20
0.5625
 30
0.0
 11
1.0
 21
0.0
 31
0.0
 44
0.9
  1
SHEET
 40
0.06
 41
0.48
  0
MTEXT
  5
249
100
AcDbEntity
  8
0
100
AcDbMText
 62
2
  6
CONTINUOUS
  7
STANDARD
 71
1
 72
1
 10
5.95
 20
0.5625
 30
0.0
 11
1.0
 21
0.0
 31
0.0
 44
0.9
  1
DWG SIZE
 40
0.06
 41
0.768
  0
MTEXT
  5
24A
100
AcDbEntity
  8
0
100
AcDbMText
 62
2
  6
CONTINUOUS
  7
STANDARD
 71
1
 72
1
 10
5.25
 20
0.5625
 30
0.0
 11
1.0
 21
0.0
 31
0.0
 44
0.9
  1
SCALE
 40
0.06
 41
0.48
  0
MTEXT
  5
24B
100
AcDbEntity
  8
0
100
AcDbMText
 62
2
  6
CONTINUOUS
  7
STANDARD
 71
1
 72
1
 10
4.15
 20
0.5625
 30
0.0
 11
1.0
 21
0.0
 31
0.0
 44
0.9
  1
DATE
 40
0.06
 41
0.384
  0
MTEXT
  5
24C
100
AcDbEntity
  8
0
100
AcDbMText
 62
2
  6
CONTINUOUS
  7
STANDARD
 71
1
 72
1
 10
0.05
 20
0.5625
 30
0.0
 11
1.0
 21
0.0
 31
0.0
 44
0.9
  1
DESCRIPTION
 40
0.06
 41
1.056
  0
MTEXT
  5
24D
100
AcDbEntity
  8
0
100
AcDbMText
 62
2
  6
CONTINUOUS
  7
STANDARD
 71
2
 72
1
 10
5.45
 20
1.0375
 30
0.0
 11
1.0
 21
0.0
 31
0.0
 44
0.9
  1
ALL DIMENSIONS IN INCH\PVIEWS ARE THIRD ANGLE
 40
0.12
 41
4.224
  0
MTEXT
  5
24E
100
AcDbEntity
  8
0
100
AcDbMText
 62
2
  6
CONTINUOUS
  7
STANDARD
 71
2
 72
1
 10
2.05
 20
0.95
 30
0.0
 11
1.0
 21
0.0
 31
0.0
 44
0.9
  1
RPGCLAN-CBB/S
 40
0.125
 41
2.6
  0
MTEXT
  5
24F
100
AcDbEntity
  8
0
100
AcDbMText
 62
2
  6
CONTINUOUS
  7
STANDARD
 71
1
 72
1
 10
0.05
 20
1.1875
 30
0.0
 11
1.0
 21
0.0
 31
0.0
 44
0.9
  1
MODEL
 40
0.06
 41
0.48
  0
ENDBLK
  5
250
100
AcDbEntity
  8
0
  6
BYBLOCK
 62
0
100
AcDbBlockEnd
  0
BLOCK
  5
251
100
AcDbEntity
  8
0
100
AcDbBlockBegin
  2
*T2
 70
1
 10
0.0
 20
0.0
  3
*T2
  1

  0
LINE
  5
252
100
AcDbEntity
  8
0
100
AcDbLine
 62
2
  6
CONTINUOUS
 10
0.0
 20
0.0
 11
9.055
 21
0.0
  0
LINE
  5
253
100
AcDbEntity
  8
0
100
AcDbLine
 62
2
  6
CONTINUOUS
 10
0.0
 20
0.0
 11
0.0
 21
-2.344
  0
LINE
  5
254
100
AcDbEntity
  8
0
100
AcDbLine
 62
2
  6
CONTINUOUS
 10
0.0
 20
-0.344
 11
9.055
 21
-0.344
  0
LINE
  5
255
100
AcDbEntity
  8
0
100
AcDbLine
 62
2
  6
CONTINUOUS
 10
0.0
 20
-0.594
 11
9.055
 21
-0.594
  0
LINE
  5
256
100
AcDbEntity
  8
0
100
AcDbLine
 62
2
  6
CONTINUOUS
 10
0.0
 20
-0.844
 11
9.055
 21
-0.844
  0
LINE
  5
257
100
AcDbEntity
  8
0
100
AcDbLine
 62
2
  6
CONTINUOUS
 10
0.0
 20
-1.094
 11
9.055
 21
-1.094
  0
LINE
  5
258
100
AcDbEntity
  8
0
100
AcDbLine
 62
2
  6
CONTINUOUS
 10
0.0
 20
-1.344
 11
9.055
 21
-1.344
  0
LINE
  5
259
100
AcDbEntity
  8
0
100
AcDbLine
 62
2
  6
CONTINUOUS
 10
0.0
 20
-1.594
 11
9.055
 21
-1.594
  0
LINE
  5
25A
100
AcDbEntity
  8
0
100
AcDbLine
 62
2
  6
CONTINUOUS
 10
0.0
 20
-1.844
 11
9.055
 21
-1.844
  0
LINE
  5
25B
100
AcDbEntity
  8
0
100
AcDbLine
 62
2
  6
CONTINUOUS
 10
0.0
 20
-2.094
 11
9.055
 21
-2.094
  0
LINE
  5
25C
100
AcDbEntity
  8
0
100
AcDbLine
 62
2
  6
CONTINUOUS
 10
0.0
 20
-2.344
 11
9.055
 21
-2.344
  0
LINE
  5
25D
100
AcDbEntity
  8
0
100
AcDbLine
 62
2
  6
CONTINUOUS
 10
3.055
 20
0.0
 11
3.055
 21
-2.344
  0
LINE
  5
25E
100
AcDbEntity
  8
0
100
AcDbLine
 62
2
  6
CONTINUOUS
 10
9.055
 20
0.0
 11
9.055
 21
-2.344
  0
MTEXT
  5
25F
100
AcDbEntity
  8
0
100
AcDbMText
 62
2
  6
CONTINUOUS
  7
STANDARD
 71
2
 72
1
 10
1.5275
 20
-0.0995
 30
0.0
 11
1.0
 21
0.0
 31
0.0
 44
0.9
  1
Technical Data
 40
0.145
 41
3.248
  0
MTEXT
  5
260
100
AcDbEntity
  8
0
100
AcDbMText
 62
2
  6
CONTINUOUS
  7
STANDARD
 71
2
 72
1
 10
4.555
 20
-0.0995
 30
0.0
 11
1.0
 21
0.0
 31
0.0
 44
0.9
  1
U.S. Units
 40
0.145
 41
2.32
  0
MTEXT
  5
261
100
AcDbEntity
  8
0
100
AcDbMText
 62
2
  6
CONTINUOUS
  7
STANDARD
 71
2
 72
1
 10
7.555
 20
-0.0995
 30
0.0
 11
1.0
 21
0.0
 31
0.0
 44
0.9
  1
Metric Units
 40
0.145
 41
2.784
  0
MTEXT
  5
262
100
AcDbEntity
  8
0
100
AcDbMText
 62
2
  6
CONTINUOUS
  7
STANDARD
 71
2
 72
1
 10
1.5275
 20
-0.4065
 30
0.0
 11
1.0
 21
0.0
 31
0.0
 44
0.9
  1
Cavity
 40
0.125
 41
1.2
  0
MTEXT
  5
263
100
AcDbEntity
  8
0
100
AcDbMText
 62
2
  6
CONTINUOUS
  7
STANDARD
 71
2
 72
1
 10
6.055
 20
-0.4065
 30
0.0
 11
1.0
 21
0.0
 31
0.0
 44
0.9
  1
T-3A
 40
0.125
 41
0.8
  0
MTEXT
  5
264
100
AcDbEntity
  8
0
100
AcDbMText
 62
2
  6
CONTINUOUS
  7
STANDARD
 71
2
 72
1
 10
1.5275
 20
-0.6565
 30
0.0
 11
1.0
 21
0.0
 31
0.0
 44
0.9
  1
Body Features
 40
0.125
 41
2.6
  0
MTEXT
  5
265
100
AcDbEntity
  8
0
100
AcDbMText
 62
2
  6
CONTINUOUS
  7
STANDARD
 71
2
 72
1
 10
6.055
 20
-0.6565
 30
0.0
 11
1.0
 21
0.0
 31
0.0
 44
0.9
  1
B to T
 40
0.125
 41
1.2
  0
MTEXT
  5
266
100
AcDbEntity
  8
0
100
AcDbMText
 62
2
  6
CONTINUOUS
  7
STANDARD
 71
2
 72
1
 10
1.5275
 20
-0.9065
 30
0.0
 11
1.0
 21
0.0
 31
0.0
 44
0.9
  1
Body Type
 40
0.125
 41
1.8
  0
MTEXT
  5
267
100
AcDbEntity
  8
0
100
AcDbMText
 62
2
  6
CONTINUOUS
  7
STANDARD
 71
2
 72
1
 10
6.055
 20
-0.9065
 30
0.0
 11
1.0
 21
0.0
 31
0.0
 44
0.9
  1
Sandwich
 40
0.125
 41
1.6
  0
MTEXT
  5
268
100
AcDbEntity
  8
0
100
AcDbMText
 62
2
  6
CONTINUOUS
  7
STANDARD
 71
2
 72
1
 10
1.5275
 20
-1.1565
 30
0.0
 11
1.0
 21
0.0
 31
0.0
 44
0.9
  1
Interface
 40
0.125
 41
1.8
  0
MTEXT
  5
269
100
AcDbEntity
  8
0
100
AcDbMText
 62
2
  6
CONTINUOUS
  7
STANDARD
 71
2
 72
1
 10
6.055
 20
-1.1565
 30
0.0
 11
1.0
 21
0.0
 31
0.0
 44
0.9
  1
ISO 05
 40
0.125
 41
1.2
  0
MTEXT
  5
26A
100
AcDbEntity
  8
0
100
AcDbMText
 62
2
  6
CONTINUOUS
  7
STANDARD
 71
2
 72
1
 10
1.5275
 20
-1.4065
 30
0.0
 11
1.0
 21
0.0
 31
0.0
 44
0.9
  1
Open Cavity Quantity
 40
0.125
 41
4.0
  0
MTEXT
  5
26B
100
AcDbEntity
  8
0
100
AcDbMText
 62
2
  6
CONTINUOUS
  7
STANDARD
 71
2
 72
1
 10
6.055
 20
-1.4065
 30
0.0
 11
1.0
 21
0.0
 31
0.0
 44
0.9
  1
1
 40
0.125
 41
0.2
  0
MTEXT
  5
26C
100
AcDbEntity
  8
0
100
AcDbMText
 62
2
  6
CONTINUOUS
  7
STANDARD
 71
2
 72
1
 10
1.5275
 20
-1.6565
 30
0.0
 11
1.0
 21
0.0
 31
0.0
 44
0.9
  1
Stack Height
 40
0.125
 41
2.4
  0
MTEXT
  5
26D
100
AcDbEntity
  8
0
100
AcDbMText
 62
2
  6
CONTINUOUS
  7
STANDARD
 71
2
 72
1
 10
4.555
 20
-1.6565
 30
0.0
 11
1.0
 21
0.0
 31
0.0
 44
0.9
  1
1.94 in.
 40
0.125
 41
1.6
  0
MTEXT
  5
26E
100
AcDbEntity
  8
0
100
AcDbMText
 62
2
  6
CONTINUOUS
  7
STANDARD
 71
2
 72
1
 10
7.555
 20
-1.6565
 30
0.0
 11
1.0
 21
0.0
 31
0.0
 44
0.9
  1
49 mm
 40
0.125
 41
1.0
  0
MTEXT
  5
26F
100
AcDbEntity
  8
0
100
AcDbMText
 62
2
  6
CONTINUOUS
  7
STANDARD
 71
2
 72
1
 10
1.5275
 20
-1.9065
 30
0.0
 11
1.0
 21
0.0
 31
0.0
 44
0.9
  1
Weight
 40
0.125
 41
1.2
  0
MTEXT
  5
270
100
AcDbEntity
  8
0
100
AcDbMText
 62
2
  6
CONTINUOUS
  7
STANDARD
 71
2
 72
1
 10
4.555
 20
-1.9065
 30
0.0
 11
1.0
 21
0.0
 31
0.0
 44
0.9
  1
4.621 lb.
 40
0.125
 41
1.8
  0
MTEXT
  5
271
100
AcDbEntity
  8
0
100
AcDbMText
 62
2
  6
CONTINUOUS
  7
STANDARD
 71
2
 72
1
 10
7.555
 20
-1.9065
 30
0.0
 11
1.0
 21
0.0
 31
0.0
 44
0.9
  1
2,096 kg.
 40
0.125
 41
1.8
  0
MTEXT
  5
272
100
AcDbEntity
  8
0
100
AcDbMText
 62
2
  6
CONTINUOUS
  7
STANDARD
 71
2
 72
1
 10
1.5275
 20
-2.1565
 30
0.0
 11
1.0
 21
0.0
 31
0.0
 44
0.9
  1
Seal Plate Included (see notes)
 40
0.125
 41
6.2
  0
MTEXT
  5
273
100
AcDbEntity
  8
0
100
AcDbMText
 62
2
  6
CONTINUOUS
  7
STANDARD
 71
2
 72
1
 10
6.055
 20
-2.1565
 30
0.0
 11
1.0
 21
0.0
 31
0.0
 44
0.9
  1
No
 40
0.125
 41
0.4
  0
ENDBLK
  5
274
100
AcDbEntity
  8
0
  6
BYBLOCK
 62
0
100
AcDbBlockEnd
  0
ENDSEC
  0
SECTION
  2
ENTITIES
  0
IMAGE
  5
275
100
AcDbEntity
  8
0
100
AcDbRasterImage
 62
7
  6
CONTINUOUS
 10
19.2297077316
 20
0.3094318264
 30
0.0
 11
0.0066666667
 21
0.0
 31
0.0
 12
0.0
 22
0.0066666667
 32
0.0
 13
369.0
 23
92.0
340
       32D
 70
9
280
0
281
50
282
50
283
0
360
       327
 71
1
 91
2
 14
-0.5
 24
-0.5
 14
368.5
 24
91.5
  0
INSERT
  5
276
100
AcDbEntity
  8
0
100
AcDbBlockReference
 62
2
  6
CONTINUOUS
  2
SUN_FIRST_THIRD_ANGLE_BL0
 10
20.4816717061
 20
1.2289683772
  0
ACAD_TABLE
  5
277
100
AcDbEntity
  8
0
 62
2
  6
CONTINUOUS
100
AcDbBlockReference
  2
*T1
 10
12.42375
 20
0.30125
 30
0.0
100
AcDbTable
342
       32F
343
212
 11
1.0
 21
0.0
 31
0.0
 90
6
 91
4
 92
6
 93
20
 94
0
 95
0
 96
0
 70
1
 41
0.0
141
0.525
141
0.1
141
0.525
141
0.1
142
4.1
142
1.1
142
0.7
142
0.5
142
0.4
142
2.475
171
1
172
0
173
0
174
0
175
1
176
1
 91
33
178
0
145
0.0
301
CELL_VALUE
 90
4
  1
Relief manifold assembly
304
ACVALUE_END
170
2
140
0.125
171
1
172
0
173
0
174
0
175
1
176
1
 91
33
178
0
145
0.0
301
CELL_VALUE
 90
4
  1
Jan-05-21
304
ACVALUE_END
170
5
140
0.125
171
1
172
0
173
0
174
0
175
1
176
1
 91
33
178
0
145
0.0
301
CELL_VALUE
 90
4
  1
1.000
304
ACVALUE_END
170
5
140
0.125
171
1
172
0
173
0
174
0
175
1
176
1
 91
33
178
0
145
0.0
301
CELL_VALUE
 90
4
  1
C
304
ACVALUE_END
170
5
140
0.125
171
1
172
0
173
0
174
0
175
1
176
1
 91
33
178
0
145
0.0
301
CELL_VALUE
 90
4
  1
2
304
ACVALUE_END
170
5
140
0.125
171
1
172
0
173
0
174
0
175
1
176
1
 91
33
178
0
145
0.0
301
CELL_VALUE
 90
4
  1
 
304
ACVALUE_END
170
1
140
0.125
171
1
172
0
173
0
174
0
175
1
176
1
 91
33
178
0
145
0.0
301
CELL_VALUE
 90
4
  1
DESCRIPTION
304
ACVALUE_END
170
1
140
0.06
171
1
172
0
173
0
174
0
175
1
176
1
 91
33
178
0
145
0.0
301
CELL_VALUE
 90
4
  1
DATE
304
ACVALUE_END
170
1
140
0.06
171
1
172
0
173
0
174
0
175
1
176
1
 91
33
178
0
145
0.0
301
CELL_VALUE
 90
4
  1
SCALE
304
ACVALUE_END
170
1
140
0.06
171
1
172
0
173
0
174
0
175
1
176
1
 91
33
178
0
145
0.0
301
CELL_VALUE
 90
4
  1
DWG SIZE
304
ACVALUE_END
170
1
140
0.06
171
1
172
0
173
0
174
0
175
1
176
1
 91
33
178
0
145
0.0
301
CELL_VALUE
 90
4
  1
SHEET
304
ACVALUE_END
170
1
140
0.06
171
1
172
0
173
0
174
0
175
1
176
1
 91
33
178
0
145
0.0
301
CELL_VALUE
 90
4
  1
 
304
ACVALUE_END
170
1
140
0.125
171
1
172
0
173
0
174
0
175
1
176
1
 91
33
178
0
145
0.0
301
CELL_VALUE
 90
4
  1
RPGCLAN-CBB/S
304
ACVALUE_END
170
5
140
0.125
171
1
172
0
173
0
174
0
175
4
176
1
 91
33
178
0
145
0.0
301
CELL_VALUE
 90
4
  1
ALL DIMENSIONS IN INCH\PVIEWS ARE THIRD ANGLE
304
ACVALUE_END
170
5
140
0.12
171
1
172
0
173
1
174
0
175
1
176
1
 91
1
178
0
145
0.0
170
1
171
1
172
0
173
1
174
0
175
1
176
1
 91
1
178
0
145
0.0
170
1
171
1
172
0
173
1
174
0
175
1
176
1
 91
1
178
0
145
0.0
170
5
171
1
172
0
173
0
174
0
175
1
176
1
 91
33
178
0
145
0.0
301
CELL_VALUE
 90
4
  1
 
304
ACVALUE_END
170
1
140
0.125
171
1
172
0
173
0
174
0
175
1
176
1
 91
33
178
0
145
0.0
301
CELL_VALUE
 90
4
  1
MODEL
304
ACVALUE_END
170
1
140
0.06
171
1
172
0
173
0
174
0
175
1
176
1
 91
33
178
0
145
0.0
301
CELL_VALUE
 90
4
  1
 
304
ACVALUE_END
170
1
140
0.125
171
1
172
0
173
0
174
0
175
1
176
1
 91
33
178
0
145
0.0
301
CELL_VALUE
 90
4
  1
 
304
ACVALUE_END
170
1
140
0.125
171
1
172
0
173
0
174
0
175
1
176
1
 91
33
178
0
145
0.0
301
CELL_VALUE
 90
4
  1
 
304
ACVALUE_END
170
1
140
0.125
171
1
172
0
173
0
174
0
175
1
176
1
 91
33
178
0
145
0.0
301
CELL_VALUE
 90
4
  1
 
304
ACVALUE_END
170
1
140
0.125
171
1
172
0
173
0
174
0
175
1
176
1
 91
33
178
0
145
0.0
301
CELL_VALUE
 90
4
  1
 
304
ACVALUE_END
170
1
140
0.125
  0
ACAD_TABLE
  5
278
100
AcDbEntity
  8
0
 62
2
  6
CONTINUOUS
100
AcDbBlockReference
  2
*T2
 10
12.4237499994
 20
16.47875
 30
0.0
100
AcDbTable
342
       32E
343
213
 11
1.0
 21
0.0
 31
0.0
 90
22
 91
9
 92
3
 93
16
 94
0
 95
0
 96
0
 41
0.028
141
0.344
141
0.25
141
0.25
141
0.25
141
0.25
141
0.25
141
0.25
141
0.25
141
0.25
142
3.055
142
3.0
142
3.0
171
1
172
0
173
0
174
0
175
1
176
1
 91
33
178
0
145
0.0
301
CELL_VALUE
 90
4
  1
Technical Data
304
ACVALUE_END
170
5
140
0.145
171
1
172
0
173
0
174
0
175
1
176
1
 91
33
178
0
145
0.0
301
CELL_VALUE
 90
4
  1
U.S. Units
304
ACVALUE_END
170
5
140
0.145
171
1
172
0
173
0
174
0
175
1
176
1
 91
33
178
0
145
0.0
301
CELL_VALUE
 90
4
  1
Metric Units
304
ACVALUE_END
170
5
140
0.145
171
1
172
0
173
0
174
0
175
1
176
1
 91
33
178
0
145
0.0
301
CELL_VALUE
 90
4
  1
Cavity
304
ACVALUE_END
170
5
140
0.125
171
1
172
0
173
0
174
0
175
2
176
1
 91
33
178
0
145
0.0
301
CELL_VALUE
 90
4
  1
T-3A
304
ACVALUE_END
170
5
140
0.125
171
1
172
0
173
1
174
0
175
1
176
1
 91
1
178
0
145
0.0
170
1
171
1
172
0
173
0
174
0
175
1
176
1
 91
33
178
0
145
0.0
301
CELL_VALUE
 90
4
  1
Body Features
304
ACVALUE_END
170
5
140
0.125
171
1
172
0
173
0
174
0
175
2
176
1
 91
33
178
0
145
0.0
301
CELL_VALUE
 90
4
  1
B to T
304
ACVALUE_END
170
5
140
0.125
171
1
172
0
173
1
174
0
175
1
176
1
 91
1
178
0
145
0.0
170
1
171
1
172
0
173
0
174
0
175
1
176
1
 91
33
178
0
145
0.0
301
CELL_VALUE
 90
4
  1
Body Type
304
ACVALUE_END
170
5
140
0.125
171
1
172
0
173
0
174
0
175
2
176
1
 91
33
178
0
145
0.0
301
CELL_VALUE
 90
4
  1
Sandwich
304
ACVALUE_END
170
5
140
0.125
171
1
172
0
173
1
174
0
175
1
176
1
 91
1
178
0
145
0.0
170
1
171
1
172
0
173
0
174
0
175
1
176
1
 91
33
178
0
145
0.0
301
CELL_VALUE
 90
4
  1
Interface
304
ACVALUE_END
170
5
140
0.125
171
1
172
0
173
0
174
0
175
2
176
1
 91
33
178
0
145
0.0
301
CELL_VALUE
 90
4
  1
ISO 05
304
ACVALUE_END
170
5
140
0.125
171
1
172
0
173
1
174
0
175
1
176
1
 91
1
178
0
145
0.0
170
1
171
1
172
0
173
0
174
0
175
1
176
1
 91
33
178
0
145
0.0
301
CELL_VALUE
 90
4
  1
Open Cavity Quantity
304
ACVALUE_END
170
5
140
0.125
171
1
172
0
173
0
174
0
175
2
176
1
 91
33
178
0
145
0.0
301
CELL_VALUE
 90
4
  1
1
304
ACVALUE_END
170
5
140
0.125
171
1
172
0
173
1
174
0
175
1
176
1
 91
1
178
0
145
0.0
170
1
171
1
172
0
173
0
174
0
175
1
176
1
 91
33
178
0
145
0.0
301
CELL_VALUE
 90
4
  1
Stack Height
304
ACVALUE_END
170
5
140
0.125
171
1
172
0
173
0
174
0
175
1
176
1
 91
33
178
0
145
0.0
301
CELL_VALUE
 90
4
  1
1.94 in.
304
ACVALUE_END
170
5
140
0.125
171
1
172
0
173
0
174
0
175
1
176
1
 91
33
178
0
145
0.0
301
CELL_VALUE
 90
4
  1
49 mm
304
ACVALUE_END
170
5
140
0.125
171
1
172
0
173
0
174
0
175
1
176
1
 91
33
178
0
145
0.0
301
CELL_VALUE
 90
4
  1
Weight
304
ACVALUE_END
170
5
140
0.125
171
1
172
0
173
0
174
0
175
1
176
1
 91
33
178
0
145
0.0
301
CELL_VALUE
 90
4
  1
4.621 lb.
304
ACVALUE_END
170
5
140
0.125
171
1
172
0
173
0
174
0
175
1
176
1
 91
33
178
0
145
0.0
301
CELL_VALUE
 90
4
  1
2,096 kg.
304
ACVALUE_END
170
5
140
0.125
171
1
172
0
173
0
174
0
175
1
176
1
 91
33
178
0
145
0.0
301
CELL_VALUE
 90
4
  1
Seal Plate Included (see notes)
304
ACVALUE_END
170
5
140
0.125
171
1
172
0
173
0
174
0
175
2
176
1
 91
33
178
0
145
0.0
301
CELL_VALUE
 90
4
  1
No
304
ACVALUE_END
170
5
140
0.125
171
1
172
0
173
1
174
0
175
1
176
1
 91
1
178
0
145
0.0
170
1
  0
MTEXT
  5
279
100
AcDbEntity
  8
0
100
AcDbMText
 62
2
  6
CONTINUOUS
  7
STANDARD
 71
1
 72
1
 10
0.52125
 20
5.75995
 30
0.0
 11
1.0
 21
0.0
 31
0.0
 44
0.6
  3
Notes\P \P1. Important: Carefully consider\P   the maximum system pressure. The\P   pressure rating of the manifold is\P   dependent on the manifold material,\P   with the port type/size a secondary\P   consideration. Manifolds\P   constructed of alu
  1
minum are not\P   rated for pressures higher than\P   3000 psi (210 bar), regardless of\P   the port type/size specified.\P2. Seal retainer plate is not\P   required for this model.
 40
0.1
 41
3.04
  0
LINE
  5
27A
100
AcDbEntity
  8
0
100
AcDbLine
 62
7
  6
CONTINUOUS
 10
0.30125
 20
0.30125
 11
0.30125
 21
16.69875
  0
LINE
  5
27B
100
AcDbEntity
  8
0
100
AcDbLine
 62
7
  6
CONTINUOUS
 10
0.30125
 20
0.30125
 11
21.69875
 21
0.30125
  0
LINE
  5
27C
100
AcDbEntity
  8
0
100
AcDbLine
 62
7
  6
CONTINUOUS
 10
0.30125
 20
16.69875
 11
21.69875
 21
16.69875
  0
LINE
  5
27D
100
AcDbEntity
  8
0
100
AcDbLine
 62
7
  6
CONTINUOUS
 10
21.69875
 20
0.30125
 11
21.69875
 21
16.69875
  0
LINE
  5
27E
100
AcDbEntity
  8
0
100
AcDbLine
 62
7
  6
CONTINUOUS
 10
7.9547053874
 20
8.8025025472
 11
7.9847248293
 21
8.8304414713
  0
LINE
  5
27F
100
AcDbEntity
  8
0
100
AcDbLine
 62
7
  6
CONTINUOUS
 10
7.9342529099
 20
8.5075867858
 11
7.9601283857
 21
8.475771536
  0
LINE
  5
280
100
AcDbEntity
  8
0
100
AcDbLine
 62
7
  6
CONTINUOUS
 10
9.2142853468
 20
9.1002636122
 11
9.1940676948
 21
9.0659848911
  0
LINE
  5
281
100
AcDbEntity
  8
0
100
AcDbLine
 62
7
  6
CONTINUOUS
 10
8.738663394
 20
9.0201455613
 11
8.7397270625
 21
9.0211542122
  0
LINE
  5
282
100
AcDbEntity
  8
0
100
AcDbLine
 62
7
  6
CONTINUOUS
 10
8.7985507988
 20
9.0758797605
 11
8.799764689
 21
9.0770309122
  0
LINE
  5
283
100
AcDbEntity
  8
0
100
AcDbLine
 62
7
  6
CONTINUOUS
 10
8.5394734196
 20
8.8859756584
 11
8.5243935567
 21
8.8719409156
  0
LINE
  5
284
100
AcDbEntity
  8
0
100
AcDbLine
 62
7
  6
CONTINUOUS
 10
8.7985401308
 20
9.0758912228
 11
8.7397261895
 21
9.0211534215
  0
LINE
  5
285
100
AcDbEntity
  8
0
100
AcDbLine
 62
7
  6
CONTINUOUS
 10
8.5387167732
 20
8.2989381612
 11
8.4889024927
 21
8.3601753295
  0
LINE
  5
286
100
AcDbEntity
  8
0
100
AcDbLine
 62
7
  6
CONTINUOUS
 10
8.7333279403
 20
8.1190369334
 11
8.6815769887
 21
8.182667433
  0
LINE
  5
287
100
AcDbEntity
  8
0
100
AcDbLine
 62
7
  6
CONTINUOUS
 10
9.1332221557
 20
8.0567097148
 11
9.1253807587
 21
8.0755493771
  0
LINE
  5
288
100
AcDbEntity
  8
0
100
AcDbLine
 62
7
  6
CONTINUOUS
 10
10.1203660121
 20
9.9295441054
 11
9.8211714429
 21
9.6405443268
  0
LINE
  5
289
100
AcDbEntity
  8
0
100
AcDbLine
 62
7
  6
CONTINUOUS
 10
10.1503097145
 20
9.957411205
 11
9.8511151453
 21
9.6684114264
  0
LINE
  5
28A
100
AcDbEntity
  8
0
100
AcDbLine
 62
7
  6
CONTINUOUS
 10
10.1512259176
 20
9.95828005
 11
10.1503097145
 21
9.957411205
  0
LINE
  5
28B
100
AcDbEntity
  8
0
100
AcDbLine
 62
7
  6
CONTINUOUS
 10
10.1212073437
 20
9.9303418038
 11
10.1203660121
 21
9.9295441054
  0
LINE
  5
28C
100
AcDbEntity
  8
0
100
AcDbLine
 62
7
  6
CONTINUOUS
 10
10.1203660121
 20
9.9295441054
 11
10.1503016653
 21
9.9574198536
  0
LINE
  5
28D
100
AcDbEntity
  8
0
100
AcDbLine
 62
7
  6
CONTINUOUS
 10
9.8211714429
 20
9.6405443268
 11
9.8511151453
 21
9.6684114264
  0
LINE
  5
28E
100
AcDbEntity
  8
0
100
AcDbLine
 62
7
  6
CONTINUOUS
 10
9.801902727
 20
7.3768179619
 11
9.7760272512
 21
7.4086332117
  0
LINE
  5
28F
100
AcDbEntity
  8
0
100
AcDbLine
 62
7
  6
CONTINUOUS
 10
13.5836768186
 20
6.9498620544
 11
10.685899168
 21
7.150823617
  0
LINE
  5
290
100
AcDbEntity
  8
0
100
AcDbLine
 62
7
  6
CONTINUOUS
 10
9.7321377649
 20
9.2222658887
 11
9.7321377649
 21
7.652636328
  0
LINE
  5
291
100
AcDbEntity
  8
0
100
AcDbLine
 62
7
  6
CONTINUOUS
 10
9.7540580835
 20
9.2124392918
 11
9.7540580835
 21
7.6428097311
  0
LINE
  5
292
100
AcDbEntity
  8
0
100
AcDbLine
 62
7
  6
CONTINUOUS
 10
10.685899168
 20
7.3027664995
 11
9.8251711205
 21
7.3624581924
  0
LINE
  5
293
100
AcDbEntity
  8
0
100
AcDbLine
 62
7
  6
CONTINUOUS
 10
9.7321377649
 20
7.652636328
 11
9.7540580835
 21
7.6428097311
  0
LINE
  5
294
100
AcDbEntity
  8
0
100
AcDbLine
 62
7
  6
CONTINUOUS
 10
10.685899168
 20
9.5656383258
 11
11.1874900541
 21
10.0501379456
  0
LINE
  5
295
100
AcDbEntity
  8
0
100
AcDbLine
 62
7
  6
CONTINUOUS
 10
9.7540580835
 20
7.6428097311
 11
10.685899168
 21
7.5781863324
  0
LINE
  5
296
100
AcDbEntity
  8
0
100
AcDbLine
 62
7
  6
CONTINUOUS
 10
9.7321377649
 20
7.9117880084
 11
9.2584588515
 21
7.9446377527
  0
LINE
  5
297
100
AcDbEntity
  8
0
100
AcDbLine
 62
7
  6
CONTINUOUS
 10
9.1256354395
 20
8.0749374835
 11
8.7641663178
 21
8.1000054522
  0
LINE
  5
298
100
AcDbEntity
  8
0
100
AcDbLine
 62
7
  6
CONTINUOUS
 10
9.6334356564
 20
8.0654270886
 11
9.1273255537
 21
8.1005259434
  0
LINE
  5
299
100
AcDbEntity
  8
0
100
AcDbLine
 62
7
  6
CONTINUOUS
 10
9.6262116442
 20
8.1051460183
 11
9.1201015415
 21
8.1402448731
  0
LINE
  5
29A
100
AcDbEntity
  8
0
100
AcDbLine
 62
7
  6
CONTINUOUS
 10
10.685899168
 20
9.5656383258
 11
10.685899168
 21
7.150823617
  0
LINE
  5
29B
100
AcDbEntity
  8
0
100
AcDbLine
 62
7
  6
CONTINUOUS
 10
8.6369106139
 20
8.2921283952
 11
8.5387167732
 21
8.2989381612
  0
LINE
  5
29C
100
AcDbEntity
  8
0
100
AcDbLine
 62
7
  6
CONTINUOUS
 10
8.4842285964
 20
8.3459620157
 11
8.4784330411
 21
8.3463639388
  0
LINE
  5
29D
100
AcDbEntity
  8
0
100
AcDbLine
 62
7
  6
CONTINUOUS
 10
8.4966806549
 20
8.3506116726
 11
8.4899217012
 21
8.3510804076
  0
LINE
  5
29E
100
AcDbEntity
  8
0
100
AcDbLine
 62
7
  6
CONTINUOUS
 10
7.9715454108
 20
8.4687256757
 11
8.1637646616
 21
8.4553952254
  0
LINE
  5
29F
100
AcDbEntity
  8
0
100
AcDbLine
 62
7
  6
CONTINUOUS
 10
8.2004698451
 20
8.4528497122
 11
8.3832679538
 21
8.4401726204
  0
LINE
  5
2A0
100
AcDbEntity
  8
0
100
AcDbLine
 62
7
  6
CONTINUOUS
 10
8.1660477358
 20
8.4883161545
 11
8.1765671005
 21
8.487586634
  0
LINE
  5
2A1
100
AcDbEntity
  8
0
100
AcDbLine
 62
7
  6
CONTINUOUS
 10
8.5949210307
 20
8.5229947431
 11
8.4967271899
 21
8.5298045091
  0
LINE
  5
2A2
100
AcDbEntity
  8
0
100
AcDbLine
 62
7
  6
CONTINUOUS
 10
9.6262116442
 20
8.6702524929
 11
9.1201015415
 21
8.7053513477
  0
LINE
  5
2A3
100
AcDbEntity
  8
0
100
AcDbLine
 62
7
  6
CONTINUOUS
 10
7.9970051471
 20
8.8358439153
 11
8.189224398
 21
8.8225134649
  0
LINE
  5
2A4
100
AcDbEntity
  8
0
100
AcDbLine
 62
7
  6
CONTINUOUS
 10
8.2259295815
 20
8.8199679518
 11
8.4087188205
 21
8.807291475
  0
LINE
  5
2A5
100
AcDbEntity
  8
0
100
AcDbLine
 62
7
  6
CONTINUOUS
 10
9.6334356564
 20
8.7239271433
 11
9.1273255537
 21
8.7590259981
  0
LINE
  5
2A6
100
AcDbEntity
  8
0
100
AcDbLine
 62
7
  6
CONTINUOUS
 10
8.6369106139
 20
8.8349787417
 11
8.5387167732
 21
8.8417885077
  0
LINE
  5
2A7
100
AcDbEntity
  8
0
100
AcDbLine
 62
7
  6
CONTINUOUS
 10
8.5334173941
 20
8.8803393498
 11
8.5266584404
 21
8.8808080848
  0
LINE
  5
2A8
100
AcDbEntity
  8
0
100
AcDbLine
 62
7
  6
CONTINUOUS
 10
8.5217263604
 20
8.8866633359
 11
8.5159308051
 21
8.887065259
  0
LINE
  5
2A9
100
AcDbEntity
  8
0
100
AcDbLine
 62
7
  6
CONTINUOUS
 10
8.685434409
 20
8.9185552308
 11
8.6226959398
 21
8.9229061584
  0
LINE
  5
2AA
100
AcDbEntity
  8
0
100
AcDbLine
 62
7
  6
CONTINUOUS
 10
9.7321377649
 20
9.2222658887
 11
9.7540580835
 21
9.2124392918
  0
LINE
  5
2AB
100
AcDbEntity
  8
0
100
AcDbLine
 62
7
  6
CONTINUOUS
 10
9.1944044014
 20
9.0665557719
 11
8.8329352797
 21
9.0916237406
  0
LINE
  5
2AC
100
AcDbEntity
  8
0
100
AcDbLine
 62
7
  6
CONTINUOUS
 10
9.7321377649
 20
9.1353945377
 11
9.2584588515
 21
9.168244282
  0
LINE
  5
2AD
100
AcDbEntity
  8
0
100
AcDbLine
 62
7
  6
CONTINUOUS
 10
9.7321377649
 20
9.1503522323
 11
9.2729068759
 21
9.1822000026
  0
LINE
  5
2AE
100
AcDbEntity
  8
0
100
AcDbLine
 62
7
  6
CONTINUOUS
 10
9.7540580835
 20
9.2124392918
 11
10.685899168
 21
9.1478158931
  0
LINE
  5
2AF
100
AcDbEntity
  8
0
100
AcDbLine
 62
7
  6
CONTINUOUS
 10
14.0852677047
 20
9.849176383
 11
13.5836768186
 21
9.3646767632
  0
LINE
  5
2B0
100
AcDbEntity
  8
0
100
AcDbLine
 62
7
  6
CONTINUOUS
 10
13.5836768186
 20
9.3646767632
 11
10.685899168
 21
9.5656383258
  0
LINE
  5
2B1
100
AcDbEntity
  8
0
100
AcDbLine
 62
7
  6
CONTINUOUS
 10
9.8511151453
 20
9.6684114264
 11
10.7292505321
 21
9.6075125304
  0
LINE
  5
2B2
100
AcDbEntity
  8
0
100
AcDbLine
 62
7
  6
CONTINUOUS
 10
10.1503097145
 20
9.957411205
 11
11.0284451013
 21
9.8965123091
  0
LINE
  5
2B3
100
AcDbEntity
  8
0
100
AcDbLine
 62
7
  6
CONTINUOUS
 10
11.0416575039
 20
9.9092745107
 11
10.1762537394
 21
9.9692904656
  0
LINE
  5
2B4
100
AcDbEntity
  8
0
100
AcDbLine
 62
7
  6
CONTINUOUS
 10
11.1874900541
 20
10.0501379456
 11
14.0852677047
 21
9.849176383
  0
LINE
  5
2B5
100
AcDbEntity
  8
0
100
AcDbLine
 62
7
  6
CONTINUOUS
 10
13.5836768186
 20
9.3646767632
 11
13.5836768186
 21
6.9498620544
  0
LINE
  5
2B6
100
AcDbEntity
  8
0
100
AcDbLine
 62
7
  6
CONTINUOUS
 10
14.0852677047
 20
7.4343616742
 11
13.5836768186
 21
6.9498620544
  0
LINE
  5
2B7
100
AcDbEntity
  8
0
100
AcDbLine
 62
7
  6
CONTINUOUS
 10
14.0852677047
 20
9.849176383
 11
14.0852677047
 21
7.4343616742
  0
ARC
  5
2B8
100
AcDbEntity
  8
0
100
AcDbCircle
 62
7
  6
CONTINUOUS
 10
11.9113151483
 20
8.3900263863
 40
2.3022216869
100
AcDbArc
 50
171.6607434676
 51
173.0086288778
  0
ARC
  5
2B9
100
AcDbEntity
  8
0
100
AcDbCircle
 62
7
  6
CONTINUOUS
 10
11.4052050457
 20
8.4251252411
 40
2.3022216868
100
AcDbArc
 50
171.6607434676
 51
173.0086288778
  0
ARC
  5
2BA
100
AcDbEntity
  8
0
100
AcDbCircle
 62
7
  6
CONTINUOUS
 10
10.5726017129
 20
8.2567574427
 40
0.9584571905
100
AcDbArc
 50
189.1014340788
 51
191.5149294916
  0
ARC
  5
2BB
100
AcDbEntity
  8
0
100
AcDbCircle
 62
7
  6
CONTINUOUS
 10
10.0664916102
 20
8.2918562976
 40
0.9584571905
100
AcDbArc
 50
189.1014340788
 51
191.5149294916
  0
ARC
  5
2BC
100
AcDbEntity
  8
0
100
AcDbCircle
 62
7
  6
CONTINUOUS
 10
9.8818879847
 20
8.7055516905
 40
0.775558283
100
AcDbArc
 50
149.4127609284
 51
152.346495589
  0
ARC
  5
2BD
100
AcDbEntity
  8
0
100
AcDbCircle
 62
7
  6
CONTINUOUS
 10
8.4204581298
 20
8.7968133375
 40
0.5491434866
100
AcDbArc
 50
293.21383269
 51
293.7447044553
  0
ARC
  5
2BE
100
AcDbEntity
  8
0
100
AcDbCircle
 62
7
  6
CONTINUOUS
 10
8.2695397187
 20
8.3714949639
 40
0.3758462809
100
AcDbArc
 50
347.8092128305
 51
349.8610217758
  0
ARC
  5
2BF
100
AcDbEntity
  8
0
100
AcDbCircle
 62
7
  6
CONTINUOUS
 10
8.4861994002
 20
8.3655252044
 40
0.0197290178
100
AcDbArc
 50
246.92247925
 51
247.6338236327
  0
SPLINE
  5
2C0
100
AcDbEntity
  8
0
100
AcDbSpline
 62
7
  6
CONTINUOUS
 70
0
 71
3
 72
56
 73
52
 74
0
 42
0.0000001
 43
0.0000001
 44
0.0000000001
 40
0.0
 40
0.0
 40
0.0
 40
0.0
 40
0.031072346
 40
0.0465152317
 40
0.0618873124
 40
0.0924244558
 40
0.1227285839
 40
0.1378086476
 40
0.152843805
 40
0.1678401144
 40
0.1828038429
 40
0.2126503375
 40
0.2275575076
 40
0.2424602021
 40
0.2573657768
 40
0.2722815596
 40
0.2872148075
 40
0.3021724288
 40
0.3171611944
 40
0.3321875086
 40
0.3472571497
 40
0.3623756664
 40
0.3927682644
 40
0.4234071833
 40
0.4388308412
 40
0.4543232404
 40
0.485507794
 40
0.5169699549
 40
0.5328065592
 40
0.5487076996
 40
0.5806824155
 40
0.6128739827
 40
0.6290441713
 40
0.6452543848
 40
0.6777639099
 40
0.7103643313
 40
0.7266873147
 40
0.7430142246
 40
0.7756456102
 40
0.791945892
 40
0.80822475
 40
0.8244760382
 40
0.8406940716
 40
0.8568734333
 40
0.8730088969
 40
0.8890954876
 40
0.905128265
 40
0.9370074718
 40
0.9528594107
 40
0.9686481654
 40
1.0
 40
1.0
 40
1.0
 40
1.0
 10
12.3844958774
 20
7.6081095822
 30
0.0
 10
12.3844957427
 20
7.6000959517
 30
0.0
 10
12.3839076266
 20
7.5880882114
 30
0.0
 10
12.3819381515
 20
7.5722444286
 30
0.0
 10
12.3791993539
 20
7.5566542778
 30
0.0
 10
12.3743380296
 20
7.5375724815
 30
0.0
 10
12.3675769097
 20
7.5191570747
 30
0.0
 10
12.3610851559
 20
7.5049849539
 30
0.0
 10
12.3556937601
 20
7.4946690951
 30
0.0
 10
12.3497869397
 20
7.4846740681
 30
0.0
 10
12.3412518435
 20
7.4718201646
 30
0.0
 10
12.3317271659
 20
7.4596738341
 30
0.0
 10
12.321301342
 20
7.4483520891
 30
0.0
 10
12.313048115
 20
7.4402893267
 30
0.0
 10
12.3043797701
 20
7.4326719499
 30
0.0
 10
12.2953151174
 20
7.4255178135
 30
0.0
 10
12.2858749577
 20
7.4188438536
 30
0.0
 10
12.2760814596
 20
7.4126647798
 30
0.0
 10
12.2659563579
 20
7.4069962136
 30
0.0
 10
12.2555230236
 20
7.4018518642
 30
0.0
 10
12.2448055309
 20
7.3972432124
 30
0.0
 10
12.2301464125
 20
7.3918210493
 30
0.0
 10
12.2112198148
 20
7.3864420903
 30
0.0
 10
12.191767888
 20
7.3830034909
 30
0.0
 10
12.1759661231
 20
7.3814201085
 30
0.0
 10
12.1599643657
 20
7.3806201149
 30
0.0
 10
12.1397834307
 20
7.3811132221
 30
0.0
 10
12.1196599414
 20
7.3835837041
 30
0.0
 10
12.1036613141
 20
7.3867286074
 30
0.0
 10
12.0877030457
 20
7.3906671365
 30
0.0
 10
12.0680272419
 20
7.3970405698
 30
0.0
 10
12.0489731823
 20
7.4052588843
 30
0.0
 10
12.0341718993
 20
7.4129025417
 30
0.0
 10
12.0196693379
 20
7.4212643668
 30
0.0
 10
12.0022408679
 20
7.4329869765
 30
0.0
 10
11.985936607
 20
7.4462741099
 30
0.0
 10
11.9736447125
 20
7.4577751508
 30
0.0
 10
11.9618855674
 20
7.4698306358
 30
0.0
 10
11.9509656941
 20
7.4826742846
 30
0.0
 10
11.9409740648
 20
7.496207916
 30
0.0
 10
11.9339622936
 20
7.5066744834
 30
0.0
 10
11.9274497096
 20
7.5174335738
 30
0.0
 10
11.92145183
 20
7.5284587595
 30
0.0
 10
11.91598206
 20
7.5397220952
 30
0.0
 10
11.9110547425
 20
7.5511961315
 30
0.0
 10
11.9066810889
 20
7.5628524826
 30
0.0
 10
11.9016104452
 20
7.5785644122
 30
0.0
 10
11.8976701126
 20
7.5945605053
 30
0.0
 10
11.8949007638
 20
7.6107120587
 30
0.0
 10
11.8929283565
 20
7.6268423156
 30
0.0
 10
11.8923271859
 20
7.639010388
 30
0.0
 10
11.8923270386
 20
7.6470960992
 30
0.0
  0
SPLINE
  5
2C1
100
AcDbEntity
  8
0
100
AcDbSpline
 62
7
  6
CONTINUOUS
 70
0
 71
3
 72
56
 73
52
 74
0
 42
0.0000001
 43
0.0000001
 44
0.0000000001
 40
0.0
 40
0.0
 40
0.0
 40
0.0
 40
0.0310723444
 40
0.0465152282
 40
0.0618873079
 40
0.0924244521
 40
0.1227285817
 40
0.1378086463
 40
0.1528438045
 40
0.1678401149
 40
0.1828038444
 40
0.2126503405
 40
0.227557511
 40
0.2424602055
 40
0.2573657799
 40
0.272281562
 40
0.2872148089
 40
0.3021724291
 40
0.3171611937
 40
0.3321875071
 40
0.3472571476
 40
0.362375664
 40
0.3927682619
 40
0.4234071812
 40
0.4388308394
 40
0.454323239
 40
0.4855077933
 40
0.5169699546
 40
0.532806559
 40
0.5487076994
 40
0.5806824153
 40
0.6128739824
 40
0.6290441709
 40
0.6452543843
 40
0.6777639093
 40
0.7103643307
 40
0.7266873141
 40
0.7430142241
 40
0.7756456098
 40
0.7919458916
 40
0.8082247496
 40
0.8244760379
 40
0.8406940714
 40
0.8568734332
 40
0.8730088968
 40
0.8890954876
 40
0.905128265
 40
0.9370074719
 40
0.9528594107
 40
0.9686481654
 40
1.0
 40
1.0
 40
1.0
 40
1.0
 10
11.8923270365
 20
7.6470959986
 30
0.0
 10
11.8923271711
 20
7.6551096287
 30
0.0
 10
11.8929152868
 20
7.667117368
 30
0.0
 10
11.8948847621
 20
7.6829611497
 30
0.0
 10
11.8976235595
 20
7.6985512999
 30
0.0
 10
11.9024848835
 20
7.7176330966
 30
0.0
 10
11.9092460035
 20
7.7360485043
 30
0.0
 10
11.9157377576
 20
7.7502206259
 30
0.0
 10
11.9211291537
 20
7.7605364853
 30
0.0
 10
11.9270359745
 20
7.7705315129
 30
0.0
 10
11.9355710711
 20
7.7833854172
 30
0.0
 10
11.9450957494
 20
7.795531748
 30
0.0
 10
11.9555215736
 20
7.8068534935
 30
0.0
 10
11.9637748008
 20
7.8149162557
 30
0.0
 10
11.9724431457
 20
7.8225336323
 30
0.0
 10
11.9815077979
 20
7.8296877683
 30
0.0
 10
11.9909479571
 20
7.8363617278
 30
0.0
 10
12.0007414545
 20
7.842540801
 30
0.0
 10
12.0108665556
 20
7.8482093668
 30
0.0
 10
12.0212998893
 20
7.853353716
 30
0.0
 10
12.0320173816
 20
7.8579623677
 30
0.0
 10
12.0466764998
 20
7.8633845307
 30
0.0
 10
12.0656030973
 20
7.8687634901
 30
0.0
 10
12.0850550243
 20
7.8722020895
 30
0.0
 10
12.1008567895
 20
7.8737854721
 30
0.0
 10
12.1168585472
 20
7.8745854657
 30
0.0
 10
12.1370394826
 20
7.8740923587
 30
0.0
 10
12.1571629722
 20
7.8716218765
 30
0.0
 10
12.1731615996
 20
7.8684769733
 30
0.0
 10
12.1891198681
 20
7.8645384442
 30
0.0
 10
12.2087956719
 20
7.8581650109
 30
0.0
 10
12.2278497314
 20
7.8499466964
 30
0.0
 10
12.2426510143
 20
7.8423030391
 30
0.0
 10
12.2571535757
 20
7.8339412141
 30
0.0
 10
12.2745820457
 20
7.8222186043
 30
0.0
 10
12.2908863066
 20
7.8089314711
 30
0.0
 10
12.3031782011
 20
7.7974304302
 30
0.0
 10
12.3149373462
 20
7.7853749452
 30
0.0
 10
12.3258572196
 20
7.7725312963
 30
0.0
 10
12.3358488489
 20
7.7589976648
 30
0.0
 10
12.3428606201
 20
7.7485310975
 30
0.0
 10
12.3493732042
 20
7.737772007
 30
0.0
 10
12.3553710838
 20
7.7267468213
 30
0.0
 10
12.3608408538
 20
7.7154834855
 30
0.0
 10
12.3657681714
 20
7.7040094492
 30
0.0
 10
12.370141825
 20
7.6923530981
 30
0.0
 10
12.3752124687
 20
7.6766411684
 30
0.0
 10
12.3791528013
 20
7.6606450753
 30
0.0
 10
12.3819221501
 20
7.6444935219
 30
0.0
 10
12.3838945574
 20
7.628363265
 30
0.0
 10
12.3844957279
 20
7.6161951927
 30
0.0
 10
12.3844958753
 20
7.6081094814
 30
0.0
  0
SPLINE
  5
2C2
100
AcDbEntity
  8
0
100
AcDbSpline
 62
7
  6
CONTINUOUS
 70
0
 71
3
 72
56
 73
52
 74
0
 42
0.0000001
 43
0.0000001
 44
0.0000000001
 40
0.0
 40
0.0
 40
0.0
 40
0.0
 40
0.031072346
 40
0.0465152317
 40
0.0618873124
 40
0.0924244558
 40
0.1227285839
 40
0.1378086476
 40
0.152843805
 40
0.1678401144
 40
0.1828038429
 40
0.2126503375
 40
0.2275575076
 40
0.2424602021
 40
0.2573657768
 40
0.2722815596
 40
0.2872148075
 40
0.3021724288
 40
0.3171611944
 40
0.3321875086
 40
0.3472571497
 40
0.3623756664
 40
0.3927682644
 40
0.4234071833
 40
0.4388308412
 40
0.4543232404
 40
0.485507794
 40
0.5169699549
 40
0.5328065592
 40
0.5487076996
 40
0.5806824155
 40
0.6128739827
 40
0.6290441713
 40
0.6452543848
 40
0.6777639099
 40
0.7103643313
 40
0.7266873147
 40
0.7430142246
 40
0.7756456102
 40
0.791945892
 40
0.80822475
 40
0.8244760382
 40
0.8406940716
 40
0.8568734333
 40
0.8730088969
 40
0.8890954876
 40
0.905128265
 40
0.9370074718
 40
0.9528594107
 40
0.9686481654
 40
1.0
 40
1.0
 40
1.0
 40
1.0
 10
11.4784574337
 20
8.6668131651
 30
0.0
 10
11.478457299
 20
8.6587995346
 30
0.0
 10
11.4778691829
 20
8.6467917943
 30
0.0
 10
11.4758997078
 20
8.6309480115
 30
0.0
 10
11.4731609101
 20
8.6153578607
 30
0.0
 10
11.4682995859
 20
8.5962760644
 30
0.0
 10
11.4615384659
 20
8.5778606576
 30
0.0
 10
11.4550467122
 20
8.5636885368
 30
0.0
 10
11.4496553164
 20
8.553372678
 30
0.0
 10
11.4437484959
 20
8.543377651
 30
0.0
 10
11.4352133998
 20
8.5305237475
 30
0.0
 10
11.4256887222
 20
8.518377417
 30
0.0
 10
11.4152628983
 20
8.507055672
 30
0.0
 10
11.4070096713
 20
8.4989929096
 30
0.0
 10
11.3983413264
 20
8.4913755328
 30
0.0
 10
11.3892766737
 20
8.4842213964
 30
0.0
 10
11.379836514
 20
8.4775474365
 30
0.0
 10
11.3700430159
 20
8.4713683627
 30
0.0
 10
11.3599179141
 20
8.4656997965
 30
0.0
 10
11.3494845799
 20
8.4605554471
 30
0.0
 10
11.3387670871
 20
8.4559467953
 30
0.0
 10
11.3241079687
 20
8.4505246322
 30
0.0
 10
11.3051813711
 20
8.4451456732
 30
0.0
 10
11.2857294443
 20
8.4417070738
 30
0.0
 10
11.2699276794
 20
8.4401236914
 30
0.0
 10
11.253925922
 20
8.4393236978
 30
0.0
 10
11.233744987
 20
8.439816805
 30
0.0
 10
11.2136214976
 20
8.442287287
 30
0.0
 10
11.1976228704
 20
8.4454321903
 30
0.0
 10
11.181664602
 20
8.4493707194
 30
0.0
 10
11.1619887981
 20
8.4557441527
 30
0.0
 10
11.1429347386
 20
8.4639624672
 30
0.0
 10
11.1281334556
 20
8.4716061246
 30
0.0
 10
11.1136308941
 20
8.4799679497
 30
0.0
 10
11.0962024242
 20
8.4916905594
 30
0.0
 10
11.0798981632
 20
8.5049776928
 30
0.0
 10
11.0676062687
 20
8.5164787337
 30
0.0
 10
11.0558471237
 20
8.5285342187
 30
0.0
 10
11.0449272503
 20
8.5413778675
 30
0.0
 10
11.034935621
 20
8.5549114989
 30
0.0
 10
11.0279238499
 20
8.5653780663
 30
0.0
 10
11.0214112659
 20
8.5761371567
 30
0.0
 10
11.0154133863
 20
8.5871623424
 30
0.0
 10
11.0099436163
 20
8.5984256781
 30
0.0
 10
11.0050162987
 20
8.6098997144
 30
0.0
 10
11.0006426451
 20
8.6215560655
 30
0.0
 10
10.9955720015
 20
8.6372679951
 30
0.0
 10
10.9916316689
 20
8.6532640882
 30
0.0
 10
10.9888623201
 20
8.6694156416
 30
0.0
 10
10.9868899127
 20
8.6855458985
 30
0.0
 10
10.9862887422
 20
8.6977139709
 30
0.0
 10
10.9862885948
 20
8.7057996821
 30
0.0
  0
SPLINE
  5
2C3
100
AcDbEntity
  8
0
100
AcDbSpline
 62
7
  6
CONTINUOUS
 70
0
 71
3
 72
56
 73
52
 74
0
 42
0.0000001
 43
0.0000001
 44
0.0000000001
 40
0.0
 40
0.0
 40
0.0
 40
0.0
 40
0.0310723444
 40
0.0465152282
 40
0.0618873079
 40
0.0924244521
 40
0.1227285817
 40
0.1378086463
 40
0.1528438045
 40
0.1678401149
 40
0.1828038444
 40
0.2126503405
 40
0.227557511
 40
0.2424602055
 40
0.2573657799
 40
0.272281562
 40
0.2872148089
 40
0.3021724291
 40
0.3171611937
 40
0.3321875071
 40
0.3472571476
 40
0.362375664
 40
0.3927682619
 40
0.4234071812
 40
0.4388308394
 40
0.454323239
 40
0.4855077933
 40
0.5169699546
 40
0.532806559
 40
0.5487076994
 40
0.5806824153
 40
0.6128739824
 40
0.6290441709
 40
0.6452543843
 40
0.6777639093
 40
0.7103643307
 40
0.7266873141
 40
0.7430142241
 40
0.7756456098
 40
0.7919458916
 40
0.8082247496
 40
0.8244760379
 40
0.8406940714
 40
0.8568734332
 40
0.8730088968
 40
0.8890954876
 40
0.905128265
 40
0.9370074719
 40
0.9528594107
 40
0.9686481654
 40
1.0
 40
1.0
 40
1.0
 40
1.0
 10
10.9862885927
 20
8.7057995815
 30
0.0
 10
10.9862887274
 20
8.7138132116
 30
0.0
 10
10.9868768431
 20
8.7258209509
 30
0.0
 10
10.9888463183
 20
8.7416647326
 30
0.0
 10
10.9915851158
 20
8.7572548828
 30
0.0
 10
10.9964464398
 20
8.7763366795
 30
0.0
 10
11.0032075597
 20
8.7947520872
 30
0.0
 10
11.0096993138
 20
8.8089242088
 30
0.0
 10
11.01509071
 20
8.8192400683
 30
0.0
 10
11.0209975307
 20
8.8292350958
 30
0.0
 10
11.0295326274
 20
8.8420890001
 30
0.0
 10
11.0390573056
 20
8.8542353309
 30
0.0
 10
11.0494831299
 20
8.8655570764
 30
0.0
 10
11.057736357
 20
8.8736198386
 30
0.0
 10
11.0664047019
 20
8.8812372152
 30
0.0
 10
11.0754693542
 20
8.8883913512
 30
0.0
 10
11.0849095133
 20
8.8950653107
 30
0.0
 10
11.0947030108
 20
8.9012443839
 30
0.0
 10
11.1048281119
 20
8.9069129497
 30
0.0
 10
11.1152614456
 20
8.9120572989
 30
0.0
 10
11.1259789379
 20
8.9166659506
 30
0.0
 10
11.140638056
 20
8.9220881136
 30
0.0
 10
11.1595646536
 20
8.927467073
 30
0.0
 10
11.1790165806
 20
8.9309056724
 30
0.0
 10
11.1948183458
 20
8.932489055
 30
0.0
 10
11.2108201035
 20
8.9332890486
 30
0.0
 10
11.2310010388
 20
8.9327959416
 30
0.0
 10
11.2511245285
 20
8.9303254594
 30
0.0
 10
11.2671231559
 20
8.9271805562
 30
0.0
 10
11.2830814243
 20
8.9232420271
 30
0.0
 10
11.3027572281
 20
8.9168685938
 30
0.0
 10
11.3218112877
 20
8.9086502793
 30
0.0
 10
11.3366125706
 20
8.901006622
 30
0.0
 10
11.351115132
 20
8.892644797
 30
0.0
 10
11.3685436019
 20
8.8809221872
 30
0.0
 10
11.3848478629
 20
8.867635054
 30
0.0
 10
11.3971397574
 20
8.8561340131
 30
0.0
 10
11.4088989024
 20
8.8440785281
 30
0.0
 10
11.4198187759
 20
8.8312348792
 30
0.0
 10
11.4298104052
 20
8.8177012477
 30
0.0
 10
11.4368221764
 20
8.8072346804
 30
0.0
 10
11.4433347604
 20
8.7964755899
 30
0.0
 10
11.44933264
 20
8.7854504042
 30
0.0
 10
11.4548024101
 20
8.7741870684
 30
0.0
 10
11.4597297276
 20
8.7627130321
 30
0.0
 10
11.4641033813
 20
8.751056681
 30
0.0
 10
11.4691740249
 20
8.7353447513
 30
0.0
 10
11.4731143575
 20
8.7193486582
 30
0.0
 10
11.4758837063
 20
8.7031971048
 30
0.0
 10
11.4778561137
 20
8.6870668479
 30
0.0
 10
11.4784572842
 20
8.6748987756
 30
0.0
 10
11.4784574316
 20
8.6668130643
 30
0.0
  0
SPLINE
  5
2C4
100
AcDbEntity
  8
0
100
AcDbSpline
 62
7
  6
CONTINUOUS
 70
0
 71
3
 72
56
 73
52
 74
0
 42
0.0000001
 43
0.0000001
 44
0.0000000001
 40
0.0
 40
0.0
 40
0.0
 40
0.0
 40
0.031072346
 40
0.0465152317
 40
0.0618873124
 40
0.0924244558
 40
0.1227285839
 40
0.1378086476
 40
0.152843805
 40
0.1678401144
 40
0.1828038429
 40
0.2126503375
 40
0.2275575076
 40
0.2424602021
 40
0.2573657768
 40
0.2722815596
 40
0.2872148075
 40
0.3021724288
 40
0.3171611944
 40
0.3321875086
 40
0.3472571497
 40
0.3623756664
 40
0.3927682644
 40
0.4234071833
 40
0.4388308412
 40
0.4543232404
 40
0.485507794
 40
0.5169699549
 40
0.5328065592
 40
0.5487076996
 40
0.5806824155
 40
0.6128739827
 40
0.6290441713
 40
0.6452543848
 40
0.6777639099
 40
0.7103643313
 40
0.7266873147
 40
0.7430142246
 40
0.7756456102
 40
0.791945892
 40
0.80822475
 40
0.8244760382
 40
0.8406940716
 40
0.8568734333
 40
0.8730088969
 40
0.8890954876
 40
0.905128265
 40
0.9370074718
 40
0.9528594107
 40
0.9686481654
 40
1.0
 40
1.0
 40
1.0
 40
1.0
 10
11.9923299512
 20
8.2090663388
 30
0.0
 10
11.9923298165
 20
8.2010527083
 30
0.0
 10
11.9917417004
 20
8.1890449681
 30
0.0
 10
11.9897722253
 20
8.1732011852
 30
0.0
 10
11.9870334276
 20
8.1576110345
 30
0.0
 10
11.9821721034
 20
8.1385292382
 30
0.0
 10
11.9754109835
 20
8.1201138314
 30
0.0
 10
11.9689192297
 20
8.1059417105
 30
0.0
 10
11.9635278339
 20
8.0956258517
 30
0.0
 10
11.9576210135
 20
8.0856308248
 30
0.0
 10
11.9490859173
 20
8.0727769213
 30
0.0
 10
11.9395612397
 20
8.0606305908
 30
0.0
 10
11.9291354158
 20
8.0493088457
 30
0.0
 10
11.9208821888
 20
8.0412460834
 30
0.0
 10
11.9122138439
 20
8.0336287065
 30
0.0
 10
11.9031491912
 20
8.0264745702
 30
0.0
 10
11.8937090315
 20
8.0198006102
 30
0.0
 10
11.8839155334
 20
8.0136215365
 30
0.0
 10
11.8737904317
 20
8.0079529703
 30
0.0
 10
11.8633570974
 20
8.0028086209
 30
0.0
 10
11.8526396046
 20
7.9981999691
 30
0.0
 10
11.8379804863
 20
7.992777806
 30
0.0
 10
11.8190538886
 20
7.9873988469
 30
0.0
 10
11.7996019618
 20
7.9839602476
 30
0.0
 10
11.7838001969
 20
7.9823768652
 30
0.0
 10
11.7677984395
 20
7.9815768716
 30
0.0
 10
11.7476175045
 20
7.9820699787
 30
0.0
 10
11.7274940152
 20
7.9845404608
 30
0.0
 10
11.7114953879
 20
7.987685364
 30
0.0
 10
11.6955371195
 20
7.9916238931
 30
0.0
 10
11.6758613157
 20
7.9979973265
 30
0.0
 10
11.6568072561
 20
8.006215641
 30
0.0
 10
11.6420059731
 20
8.0138592984
 30
0.0
 10
11.6275034116
 20
8.0222211234
 30
0.0
 10
11.6100749417
 20
8.0339437332
 30
0.0
 10
11.5937706807
 20
8.0472308665
 30
0.0
 10
11.5814787863
 20
8.0587319074
 30
0.0
 10
11.5697196412
 20
8.0707873924
 30
0.0
 10
11.5587997679
 20
8.0836310412
 30
0.0
 10
11.5488081386
 20
8.0971646727
 30
0.0
 10
11.5417963674
 20
8.10763124
 30
0.0
 10
11.5352837834
 20
8.1183903305
 30
0.0
 10
11.5292859038
 20
8.1294155161
 30
0.0
 10
11.5238161338
 20
8.1406788519
 30
0.0
 10
11.5188888163
 20
8.1521528882
 30
0.0
 10
11.5145151627
 20
8.1638092393
 30
0.0
 10
11.509444519
 20
8.1795211689
 30
0.0
 10
11.5055041864
 20
8.1955172619
 30
0.0
 10
11.5027348376
 20
8.2116688154
 30
0.0
 10
11.5007624303
 20
8.2277990723
 30
0.0
 10
11.5001612597
 20
8.2399671446
 30
0.0
 10
11.5001611124
 20
8.2480528559
 30
0.0
  0
SPLINE
  5
2C5
100
AcDbEntity
  8
0
100
AcDbSpline
 62
7
  6
CONTINUOUS
 70
0
 71
3
 72
56
 73
52
 74
0
 42
0.0000001
 43
0.0000001
 44
0.0000000001
 40
0.0
 40
0.0
 40
0.0
 40
0.0
 40
0.0310723444
 40
0.0465152282
 40
0.0618873079
 40
0.0924244521
 40
0.1227285817
 40
0.1378086463
 40
0.1528438045
 40
0.1678401149
 40
0.1828038444
 40
0.2126503405
 40
0.227557511
 40
0.2424602055
 40
0.2573657799
 40
0.272281562
 40
0.2872148089
 40
0.3021724291
 40
0.3171611937
 40
0.3321875071
 40
0.3472571476
 40
0.362375664
 40
0.3927682619
 40
0.4234071812
 40
0.4388308394
 40
0.454323239
 40
0.4855077933
 40
0.5169699546
 40
0.532806559
 40
0.5487076994
 40
0.5806824153
 40
0.6128739824
 40
0.6290441709
 40
0.6452543843
 40
0.6777639093
 40
0.7103643307
 40
0.7266873141
 40
0.7430142241
 40
0.7756456098
 40
0.7919458916
 40
0.8082247496
 40
0.8244760379
 40
0.8406940714
 40
0.8568734332
 40
0.8730088968
 40
0.8890954876
 40
0.905128265
 40
0.9370074719
 40
0.9528594107
 40
0.9686481654
 40
1.0
 40
1.0
 40
1.0
 40
1.0
 10
11.5001611103
 20
8.2480527552
 30
0.0
 10
11.5001612449
 20
8.2560663853
 30
0.0
 10
11.5007493606
 20
8.2680741247
 30
0.0
 10
11.5027188358
 20
8.2839179063
 30
0.0
 10
11.5054576333
 20
8.2995080566
 30
0.0
 10
11.5103189573
 20
8.3185898533
 30
0.0
 10
11.5170800772
 20
8.337005261
 30
0.0
 10
11.5235718313
 20
8.3511773826
 30
0.0
 10
11.5289632275
 20
8.361493242
 30
0.0
 10
11.5348700483
 20
8.3714882696
 30
0.0
 10
11.5434051449
 20
8.3843421738
 30
0.0
 10
11.5529298232
 20
8.3964885047
 30
0.0
 10
11.5633556474
 20
8.4078102502
 30
0.0
 10
11.5716088746
 20
8.4158730124
 30
0.0
 10
11.5802772194
 20
8.4234903889
 30
0.0
 10
11.5893418717
 20
8.430644525
 30
0.0
 10
11.5987820309
 20
8.4373184845
 30
0.0
 10
11.6085755283
 20
8.4434975576
 30
0.0
 10
11.6187006294
 20
8.4491661235
 30
0.0
 10
11.6291339631
 20
8.4543104727
 30
0.0
 10
11.6398514554
 20
8.4589191244
 30
0.0
 10
11.6545105736
 20
8.4643412874
 30
0.0
 10
11.6734371711
 20
8.4697202468
 30
0.0
 10
11.6928890981
 20
8.4731588461
 30
0.0
 10
11.7086908633
 20
8.4747422287
 30
0.0
 10
11.724692621
 20
8.4755422223
 30
0.0
 10
11.7448735564
 20
8.4750491153
 30
0.0
 10
11.764997046
 20
8.4725786332
 30
0.0
 10
11.7809956734
 20
8.46943373
 30
0.0
 10
11.7969539419
 20
8.4654952009
 30
0.0
 10
11.8166297457
 20
8.4591217676
 30
0.0
 10
11.8356838052
 20
8.4509034531
 30
0.0
 10
11.8504850881
 20
8.4432597957
 30
0.0
 10
11.8649876495
 20
8.4348979707
 30
0.0
 10
11.8824161195
 20
8.423175361
 30
0.0
 10
11.8987203804
 20
8.4098882277
 30
0.0
 10
11.9110122749
 20
8.3983871868
 30
0.0
 10
11.92277142
 20
8.3863317018
 30
0.0
 10
11.9336912934
 20
8.373488053
 30
0.0
 10
11.9436829227
 20
8.3599544215
 30
0.0
 10
11.9506946939
 20
8.3494878542
 30
0.0
 10
11.9572072779
 20
8.3387287637
 30
0.0
 10
11.9632051576
 20
8.327703578
 30
0.0
 10
11.9686749276
 20
8.3164402422
 30
0.0
 10
11.9736022452
 20
8.3049662058
 30
0.0
 10
11.9779758988
 20
8.2933098547
 30
0.0
 10
11.9830465425
 20
8.2775979251
 30
0.0
 10
11.986986875
 20
8.261601832
 30
0.0
 10
11.9897562239
 20
8.2454502785
 30
0.0
 10
11.9917286312
 20
8.2293200217
 30
0.0
 10
11.9923298017
 20
8.2171519493
 30
0.0
 10
11.9923299491
 20
8.2090662381
 30
0.0
  0
SPLINE
  5
2C6
100
AcDbEntity
  8
0
100
AcDbSpline
 62
7
  6
CONTINUOUS
 70
0
 71
3
 72
56
 73
52
 74
0
 42
0.0000001
 43
0.0000001
 44
0.0000000001
 40
0.0
 40
0.0
 40
0.0
 40
0.0
 40
0.031072346
 40
0.0465152317
 40
0.0618873124
 40
0.0924244558
 40
0.1227285839
 40
0.1378086476
 40
0.152843805
 40
0.1678401144
 40
0.1828038429
 40
0.2126503375
 40
0.2275575076
 40
0.2424602021
 40
0.2573657768
 40
0.2722815596
 40
0.2872148075
 40
0.3021724288
 40
0.3171611944
 40
0.3321875086
 40
0.3472571497
 40
0.3623756664
 40
0.3927682644
 40
0.4234071833
 40
0.4388308412
 40
0.4543232404
 40
0.485507794
 40
0.5169699549
 40
0.5328065592
 40
0.5487076996
 40
0.5806824155
 40
0.6128739827
 40
0.6290441713
 40
0.6452543848
 40
0.6777639099
 40
0.7103643313
 40
0.7266873147
 40
0.7430142246
 40
0.7756456102
 40
0.791945892
 40
0.80822475
 40
0.8244760382
 40
0.8406940716
 40
0.8568734333
 40
0.8730088969
 40
0.8890954876
 40
0.905128265
 40
0.9370074718
 40
0.9528594107
 40
0.9686481654
 40
1.0
 40
1.0
 40
1.0
 40
1.0
 10
12.7766618036
 20
8.1546727401
 30
0.0
 10
12.7766616689
 20
8.1466591096
 30
0.0
 10
12.7760735529
 20
8.1346513694
 30
0.0
 10
12.7741040777
 20
8.1188075865
 30
0.0
 10
12.7713652801
 20
8.1032174358
 30
0.0
 10
12.7665039558
 20
8.0841356395
 30
0.0
 10
12.7597428359
 20
8.0657202327
 30
0.0
 10
12.7532510821
 20
8.0515481118
 30
0.0
 10
12.7478596863
 20
8.041232253
 30
0.0
 10
12.7419528659
 20
8.0312372261
 30
0.0
 10
12.7334177697
 20
8.0183833226
 30
0.0
 10
12.7238930921
 20
8.0062369921
 30
0.0
 10
12.7134672682
 20
7.994915247
 30
0.0
 10
12.7052140413
 20
7.9868524847
 30
0.0
 10
12.6965456964
 20
7.9792351078
 30
0.0
 10
12.6874810437
 20
7.9720809715
 30
0.0
 10
12.678040884
 20
7.9654070115
 30
0.0
 10
12.6682473859
 20
7.9592279378
 30
0.0
 10
12.6581222841
 20
7.9535593716
 30
0.0
 10
12.6476889498
 20
7.9484150221
 30
0.0
 10
12.6369714571
 20
7.9438063704
 30
0.0
 10
12.6223123387
 20
7.9383842073
 30
0.0
 10
12.603385741
 20
7.9330052482
 30
0.0
 10
12.5839338142
 20
7.9295666489
 30
0.0
 10
12.5681320493
 20
7.9279832665
 30
0.0
 10
12.5521302919
 20
7.9271832729
 30
0.0
 10
12.5319493569
 20
7.92767638
 30
0.0
 10
12.5118258676
 20
7.9301468621
 30
0.0
 10
12.4958272404
 20
7.9332917653
 30
0.0
 10
12.4798689719
 20
7.9372302944
 30
0.0
 10
12.4601931681
 20
7.9436037277
 30
0.0
 10
12.4411391085
 20
7.9518220423
 30
0.0
 10
12.4263378255
 20
7.9594656997
 30
0.0
 10
12.4118352641
 20
7.9678275247
 30
0.0
 10
12.3944067941
 20
7.9795501345
 30
0.0
 10
12.3781025332
 20
7.9928372678
 30
0.0
 10
12.3658106387
 20
8.0043383087
 30
0.0
 10
12.3540514937
 20
8.0163937937
 30
0.0
 10
12.3431316203
 20
8.0292374425
 30
0.0
 10
12.333139991
 20
8.042771074
 30
0.0
 10
12.3261282199
 20
8.0532376413
 30
0.0
 10
12.3196156358
 20
8.0639967318
 30
0.0
 10
12.3136177562
 20
8.0750219174
 30
0.0
 10
12.3081479862
 20
8.0862852532
 30
0.0
 10
12.3032206687
 20
8.0977592895
 30
0.0
 10
12.2988470151
 20
8.1094156406
 30
0.0
 10
12.2937763714
 20
8.1251275702
 30
0.0
 10
12.2898360389
 20
8.1411236632
 30
0.0
 10
12.28706669
 20
8.1572752167
 30
0.0
 10
12.2850942827
 20
8.1734054735
 30
0.0
 10
12.2844931122
 20
8.1855735459
 30
0.0
 10
12.2844929648
 20
8.1936592572
 30
0.0
  0
SPLINE
  5
2C7
100
AcDbEntity
  8
0
100
AcDbSpline
 62
7
  6
CONTINUOUS
 70
0
 71
3
 72
56
 73
52
 74
0
 42
0.0000001
 43
0.0000001
 44
0.0000000001
 40
0.0
 40
0.0
 40
0.0
 40
0.0
 40
0.0310723444
 40
0.0465152282
 40
0.0618873079
 40
0.0924244521
 40
0.1227285817
 40
0.1378086463
 40
0.1528438045
 40
0.1678401149
 40
0.1828038444
 40
0.2126503405
 40
0.227557511
 40
0.2424602055
 40
0.2573657799
 40
0.272281562
 40
0.2872148089
 40
0.3021724291
 40
0.3171611937
 40
0.3321875071
 40
0.3472571476
 40
0.362375664
 40
0.3927682619
 40
0.4234071812
 40
0.4388308394
 40
0.454323239
 40
0.4855077933
 40
0.5169699546
 40
0.532806559
 40
0.5487076994
 40
0.5806824153
 40
0.6128739824
 40
0.6290441709
 40
0.6452543843
 40
0.6777639093
 40
0.7103643307
 40
0.7266873141
 40
0.7430142241
 40
0.7756456098
 40
0.7919458916
 40
0.8082247496
 40
0.8244760379
 40
0.8406940714
 40
0.8568734332
 40
0.8730088968
 40
0.8890954876
 40
0.905128265
 40
0.9370074719
 40
0.9528594107
 40
0.9686481654
 40
1.0
 40
1.0
 40
1.0
 40
1.0
 10
12.2844929627
 20
8.1936591565
 30
0.0
 10
12.2844930973
 20
8.2016727866
 30
0.0
 10
12.285081213
 20
8.213680526
 30
0.0
 10
12.2870506883
 20
8.2295243076
 30
0.0
 10
12.2897894857
 20
8.2451144579
 30
0.0
 10
12.2946508097
 20
8.2641962546
 30
0.0
 10
12.3014119297
 20
8.2826116623
 30
0.0
 10
12.3079036838
 20
8.2967837839
 30
0.0
 10
12.3132950799
 20
8.3070996433
 30
0.0
 10
12.3192019007
 20
8.3170946709
 30
0.0
 10
12.3277369973
 20
8.3299485751
 30
0.0
 10
12.3372616756
 20
8.342094906
 30
0.0
 10
12.3476874998
 20
8.3534166514
 30
0.0
 10
12.355940727
 20
8.3614794137
 30
0.0
 10
12.3646090719
 20
8.3690967902
 30
0.0
 10
12.3736737241
 20
8.3762509263
 30
0.0
 10
12.3831138833
 20
8.3829248858
 30
0.0
 10
12.3929073807
 20
8.3891039589
 30
0.0
 10
12.4030324818
 20
8.3947725248
 30
0.0
 10
12.4134658155
 20
8.399916874
 30
0.0
 10
12.4241833078
 20
8.4045255256
 30
0.0
 10
12.438842426
 20
8.4099476887
 30
0.0
 10
12.4577690236
 20
8.415326648
 30
0.0
 10
12.4772209505
 20
8.4187652474
 30
0.0
 10
12.4930227157
 20
8.42034863
 30
0.0
 10
12.5090244734
 20
8.4211486236
 30
0.0
 10
12.5292054088
 20
8.4206555166
 30
0.0
 10
12.5493288984
 20
8.4181850345
 30
0.0
 10
12.5653275258
 20
8.4150401313
 30
0.0
 10
12.5812857943
 20
8.4111016022
 30
0.0
 10
12.6009615981
 20
8.4047281689
 30
0.0
 10
12.6200156576
 20
8.3965098544
 30
0.0
 10
12.6348169405
 20
8.388866197
 30
0.0
 10
12.649319502
 20
8.380504372
 30
0.0
 10
12.6667479719
 20
8.3687817623
 30
0.0
 10
12.6830522328
 20
8.355494629
 30
0.0
 10
12.6953441273
 20
8.3439935881
 30
0.0
 10
12.7071032724
 20
8.3319381031
 30
0.0
 10
12.7180231458
 20
8.3190944543
 30
0.0
 10
12.7280147752
 20
8.3055608228
 30
0.0
 10
12.7350265463
 20
8.2950942554
 30
0.0
 10
12.7415391304
 20
8.284335165
 30
0.0
 10
12.74753701
 20
8.2733099793
 30
0.0
 10
12.75300678
 20
8.2620466435
 30
0.0
 10
12.7579340976
 20
8.2505726071
 30
0.0
 10
12.7623077512
 20
8.238916256
 30
0.0
 10
12.7673783949
 20
8.2232043264
 30
0.0
 10
12.7713187275
 20
8.2072082333
 30
0.0
 10
12.7740880763
 20
8.1910566798
 30
0.0
 10
12.7760604836
 20
8.174926423
 30
0.0
 10
12.7766616542
 20
8.1627583506
 30
0.0
 10
12.7766618015
 20
8.1546726394
 30
0.0
  0
SPLINE
  5
2C8
100
AcDbEntity
  8
0
100
AcDbSpline
 62
7
  6
CONTINUOUS
 70
0
 71
3
 72
56
 73
52
 74
0
 42
0.0000001
 43
0.0000001
 44
0.0000000001
 40
0.0
 40
0.0
 40
0.0
 40
0.0
 40
0.031072346
 40
0.0465152317
 40
0.0618873124
 40
0.0924244558
 40
0.1227285839
 40
0.1378086476
 40
0.152843805
 40
0.1678401144
 40
0.1828038429
 40
0.2126503375
 40
0.2275575076
 40
0.2424602021
 40
0.2573657768
 40
0.2722815596
 40
0.2872148075
 40
0.3021724288
 40
0.3171611944
 40
0.3321875086
 40
0.3472571497
 40
0.3623756664
 40
0.3927682644
 40
0.4234071833
 40
0.4388308412
 40
0.4543232404
 40
0.485507794
 40
0.5169699549
 40
0.5328065592
 40
0.5487076996
 40
0.5806824155
 40
0.6128739827
 40
0.6290441713
 40
0.6452543848
 40
0.6777639099
 40
0.7103643313
 40
0.7266873147
 40
0.7430142246
 40
0.7756456102
 40
0.791945892
 40
0.80822475
 40
0.8244760382
 40
0.8406940716
 40
0.8568734333
 40
0.8730088969
 40
0.8890954876
 40
0.905128265
 40
0.9370074718
 40
0.9528594107
 40
0.9686481654
 40
1.0
 40
1.0
 40
1.0
 40
1.0
 10
13.2905343787
 20
8.5411452021
 30
0.0
 10
13.290534244
 20
8.5331315716
 30
0.0
 10
13.289946128
 20
8.5211238314
 30
0.0
 10
13.2879766528
 20
8.5052800485
 30
0.0
 10
13.2852378552
 20
8.4896898977
 30
0.0
 10
13.2803765309
 20
8.4706081015
 30
0.0
 10
13.273615411
 20
8.4521926946
 30
0.0
 10
13.2671236572
 20
8.4380205738
 30
0.0
 10
13.2617322614
 20
8.427704715
 30
0.0
 10
13.255825441
 20
8.4177096881
 30
0.0
 10
13.2472903448
 20
8.4048557845
 30
0.0
 10
13.2377656672
 20
8.3927094541
 30
0.0
 10
13.2273398433
 20
8.381387709
 30
0.0
 10
13.2190866164
 20
8.3733249467
 30
0.0
 10
13.2104182715
 20
8.3657075698
 30
0.0
 10
13.2013536188
 20
8.3585534335
 30
0.0
 10
13.1919134591
 20
8.3518794735
 30
0.0
 10
13.182119961
 20
8.3457003998
 30
0.0
 10
13.1719948592
 20
8.3400318335
 30
0.0
 10
13.1615615249
 20
8.3348874841
 30
0.0
 10
13.1508440322
 20
8.3302788324
 30
0.0
 10
13.1361849138
 20
8.3248566693
 30
0.0
 10
13.1172583161
 20
8.3194777102
 30
0.0
 10
13.0978063893
 20
8.3160391109
 30
0.0
 10
13.0820046244
 20
8.3144557285
 30
0.0
 10
13.066002867
 20
8.3136557348
 30
0.0
 10
13.045821932
 20
8.314148842
 30
0.0
 10
13.0256984427
 20
8.3166193241
 30
0.0
 10
13.0096998155
 20
8.3197642273
 30
0.0
 10
12.993741547
 20
8.3237027564
 30
0.0
 10
12.9740657432
 20
8.3300761897
 30
0.0
 10
12.9550116836
 20
8.3382945042
 30
0.0
 10
12.9402104006
 20
8.3459381616
 30
0.0
 10
12.9257078392
 20
8.3542999867
 30
0.0
 10
12.9082793692
 20
8.3660225965
 30
0.0
 10
12.8919751083
 20
8.3793097298
 30
0.0
 10
12.8796832138
 20
8.3908107707
 30
0.0
 10
12.8679240688
 20
8.4028662557
 30
0.0
 10
12.8570041954
 20
8.4157099045
 30
0.0
 10
12.8470125661
 20
8.429243536
 30
0.0
 10
12.840000795
 20
8.4397101033
 30
0.0
 10
12.8334882109
 20
8.4504691938
 30
0.0
 10
12.8274903313
 20
8.4614943794
 30
0.0
 10
12.8220205613
 20
8.4727577152
 30
0.0
 10
12.8170932438
 20
8.4842317515
 30
0.0
 10
12.8127195902
 20
8.4958881025
 30
0.0
 10
12.8076489465
 20
8.5116000322
 30
0.0
 10
12.803708614
 20
8.5275961252
 30
0.0
 10
12.8009392651
 20
8.5437476787
 30
0.0
 10
12.7989668578
 20
8.5598779355
 30
0.0
 10
12.7983656873
 20
8.5720460079
 30
0.0
 10
12.7983655399
 20
8.5801317192
 30
0.0
  0
SPLINE
  5
2C9
100
AcDbEntity
  8
0
100
AcDbSpline
 62
7
  6
CONTINUOUS
 70
0
 71
3
 72
56
 73
52
 74
0
 42
0.0000001
 43
0.0000001
 44
0.0000000001
 40
0.0
 40
0.0
 40
0.0
 40
0.0
 40
0.0310723444
 40
0.0465152282
 40
0.0618873079
 40
0.0924244521
 40
0.1227285817
 40
0.1378086463
 40
0.1528438045
 40
0.1678401149
 40
0.1828038444
 40
0.2126503405
 40
0.227557511
 40
0.2424602055
 40
0.2573657799
 40
0.272281562
 40
0.2872148089
 40
0.3021724291
 40
0.3171611937
 40
0.3321875071
 40
0.3472571476
 40
0.362375664
 40
0.3927682619
 40
0.4234071812
 40
0.4388308394
 40
0.454323239
 40
0.4855077933
 40
0.5169699546
 40
0.532806559
 40
0.5487076994
 40
0.5806824153
 40
0.6128739824
 40
0.6290441709
 40
0.6452543843
 40
0.6777639093
 40
0.7103643307
 40
0.7266873141
 40
0.7430142241
 40
0.7756456098
 40
0.7919458916
 40
0.8082247496
 40
0.8244760379
 40
0.8406940714
 40
0.8568734332
 40
0.8730088968
 40
0.8890954876
 40
0.905128265
 40
0.9370074719
 40
0.9528594107
 40
0.9686481654
 40
1.0
 40
1.0
 40
1.0
 40
1.0
 10
12.7983655378
 20
8.5801316185
 30
0.0
 10
12.7983656724
 20
8.5881452486
 30
0.0
 10
12.7989537881
 20
8.6001529879
 30
0.0
 10
12.8009232634
 20
8.6159967696
 30
0.0
 10
12.8036620608
 20
8.6315869199
 30
0.0
 10
12.8085233848
 20
8.6506687166
 30
0.0
 10
12.8152845048
 20
8.6690841243
 30
0.0
 10
12.8217762589
 20
8.6832562459
 30
0.0
 10
12.827167655
 20
8.6935721053
 30
0.0
 10
12.8330744758
 20
8.7035671329
 30
0.0
 10
12.8416095724
 20
8.7164210371
 30
0.0
 10
12.8511342507
 20
8.728567368
 30
0.0
 10
12.8615600749
 20
8.7398891134
 30
0.0
 10
12.8698133021
 20
8.7479518757
 30
0.0
 10
12.878481647
 20
8.7555692522
 30
0.0
 10
12.8875462992
 20
8.7627233882
 30
0.0
 10
12.8969864584
 20
8.7693973477
 30
0.0
 10
12.9067799558
 20
8.7755764209
 30
0.0
 10
12.9169050569
 20
8.7812449868
 30
0.0
 10
12.9273383906
 20
8.786389336
 30
0.0
 10
12.9380558829
 20
8.7909979876
 30
0.0
 10
12.9527150011
 20
8.7964201506
 30
0.0
 10
12.9716415987
 20
8.80179911
 30
0.0
 10
12.9910935256
 20
8.8052377094
 30
0.0
 10
13.0068952908
 20
8.806821092
 30
0.0
 10
13.0228970485
 20
8.8076210856
 30
0.0
 10
13.0430779839
 20
8.8071279786
 30
0.0
 10
13.0632014735
 20
8.8046574965
 30
0.0
 10
13.0792001009
 20
8.8015125933
 30
0.0
 10
13.0951583694
 20
8.7975740641
 30
0.0
 10
13.1148341732
 20
8.7912006308
 30
0.0
 10
13.1338882327
 20
8.7829823164
 30
0.0
 10
13.1486895156
 20
8.775338659
 30
0.0
 10
13.1631920771
 20
8.766976834
 30
0.0
 10
13.180620547
 20
8.7552542243
 30
0.0
 10
13.1969248079
 20
8.741967091
 30
0.0
 10
13.2092167024
 20
8.7304660501
 30
0.0
 10
13.2209758475
 20
8.7184105651
 30
0.0
 10
13.2318957209
 20
8.7055669163
 30
0.0
 10
13.2418873503
 20
8.6920332848
 30
0.0
 10
13.2488991214
 20
8.6815667174
 30
0.0
 10
13.2554117055
 20
8.6708076269
 30
0.0
 10
13.2614095851
 20
8.6597824413
 30
0.0
 10
13.2668793551
 20
8.6485191055
 30
0.0
 10
13.2718066727
 20
8.6370450691
 30
0.0
 10
13.2761803263
 20
8.625388718
 30
0.0
 10
13.28125097
 20
8.6096767884
 30
0.0
 10
13.2851913026
 20
8.5936806953
 30
0.0
 10
13.2879606514
 20
8.5775291418
 30
0.0
 10
13.2899330587
 20
8.561398885
 30
0.0
 10
13.2905342293
 20
8.5492308126
 30
0.0
 10
13.2905343766
 20
8.5411451014
 30
0.0
  0
SPLINE
  5
2CA
100
AcDbEntity
  8
0
100
AcDbSpline
 62
7
  6
CONTINUOUS
 70
0
 71
3
 72
42
 73
38
 74
0
 42
0.0000001
 43
0.0000001
 44
0.0000000001
 40
0.0
 40
0.0
 40
0.0
 40
0.0
 40
0.0053770179
 40
0.0108201588
 40
0.0163929531
 40
0.0221542219
 40
0.0281567544
 40
0.0344463695
 40
0.0410621556
 40
0.0480367475
 40
0.0553967377
 40
0.0631638069
 40
0.0713550332
 40
0.0799836115
 40
0.0890597258
 40
0.0985904926
 40
0.108580758
 40
0.1190334432
 40
0.1413260992
 40
0.1654612845
 40
0.1914094963
 40
0.219125224
 40
0.2485499316
 40
0.2796140415
 40
0.3122382317
 40
0.346334758
 40
0.3818085897
 40
0.4185581742
 40
0.4564759627
 40
0.495449363
 40
0.5353613296
 40
0.5760907997
 40
0.6594993374
 40
0.7446519186
 40
0.8304949124
 40
0.9159631277
 40
1.0
 40
1.0
 40
1.0
 40
1.0
 10
8.2259295447
 20
8.8199679368
 30
0.0
 10
8.2254887682
 20
8.8199985053
 30
0.0
 10
8.2245974015
 20
8.8200087048
 30
0.0
 10
8.2232548121
 20
8.819870095
 30
0.0
 10
8.2219047302
 20
8.819578212
 30
0.0
 10
8.2205487737
 20
8.8191337742
 30
0.0
 10
8.2191881037
 20
8.8185375487
 30
0.0
 10
8.2178237218
 20
8.8177905317
 30
0.0
 10
8.2164565799
 20
8.8168935755
 30
0.0
 10
8.2150876191
 20
8.815847574
 30
0.0
 10
8.2137177091
 20
8.8146535413
 30
0.0
 10
8.2123478601
 20
8.8133124294
 30
0.0
 10
8.2109790472
 20
8.811825359
 30
0.0
 10
8.2096122605
 20
8.8101935494
 30
0.0
 10
8.2082486081
 20
8.8084182646
 30
0.0
 10
8.2068891161
 20
8.8065009657
 30
0.0
 10
8.2055348426
 20
8.804443191
 30
0.0
 10
8.2036980519
 20
8.8014496666
 30
0.0
 10
8.2014309541
 20
8.7973595268
 30
0.0
 10
8.1988040585
 20
8.7920217975
 30
0.0
 10
8.1962238921
 20
8.7861709572
 30
0.0
 10
8.1936989742
 20
8.779826085
 30
0.0
 10
8.1912376802
 20
8.773007743
 30
0.0
 10
8.1888482213
 20
8.7657382293
 30
0.0
 10
8.1865385541
 20
8.7580413966
 30
0.0
 10
8.1843163721
 20
8.7499425734
 30
0.0
 10
8.1821890879
 20
8.7414684388
 30
0.0
 10
8.1801638045
 20
8.7326469437
 30
0.0
 10
8.1782472515
 20
8.7235072173
 30
0.0
 10
8.1764458143
 20
8.7140794622
 30
0.0
 10
8.1747654623
 20
8.7043948114
 30
0.0
 10
8.1726775368
 20
8.6910768365
 30
0.0
 10
8.1704161446
 20
8.6740255779
 30
0.0
 10
8.1682817313
 20
8.6532273196
 30
0.0
 10
8.1667341166
 20
8.6322073601
 30
0.0
 10
8.165793745
 20
8.6112434766
 30
0.0
 10
8.1655770483
 20
8.5973142655
 30
0.0
 10
8.1655770483
 20
8.5904088673
 30
0.0
  0
SPLINE
  5
2CB
100
AcDbEntity
  8
0
100
AcDbSpline
 62
7
  6
CONTINUOUS
 70
0
 71
3
 72
9
 73
5
 74
0
 42
0.0000001
 43
0.0000001
 44
0.0000000001
 40
0.0
 40
0.0
 40
0.0
 40
0.0
 40
0.4898589089
 40
1.0
 40
1.0
 40
1.0
 40
1.0
 10
9.2656828637
 20
9.1758158878
 30
0.0
 10
9.2644535756
 20
9.1746284866
 30
0.0
 10
9.2619963984
 20
9.1721499533
 30
0.0
 10
9.2596381806
 20
9.1695773799
 30
0.0
 10
9.2584588515
 20
9.168244282
 30
0.0
  0
SPLINE
  5
2CC
100
AcDbEntity
  8
0
100
AcDbSpline
 62
7
  6
CONTINUOUS
 70
0
 71
3
 72
9
 73
5
 74
0
 42
0.0000001
 43
0.0000001
 44
0.0000000001
 40
0.0
 40
0.0
 40
0.0
 40
0.0
 40
0.5103152933
 40
1.0
 40
1.0
 40
1.0
 40
1.0
 10
9.2656828637
 20
9.1758158878
 30
0.0
 10
9.2668627079
 20
9.1769555299
 30
0.0
 10
9.2692214494
 20
9.1791409896
 30
0.0
 10
9.2716786234
 20
9.1812156013
 30
0.0
 10
9.2729068759
 20
9.1822000026
 30
0.0
  0
SPLINE
  5
2CD
100
AcDbEntity
  8
0
100
AcDbSpline
 62
7
  6
CONTINUOUS
 70
0
 71
3
 72
23
 73
19
 74
0
 42
0.0000001
 43
0.0000001
 44
0.0000000001
 40
0.0
 40
0.0
 40
0.0
 40
0.0
 40
0.0814266511
 40
0.1607788694
 40
0.2379133715
 40
0.3126897597
 40
0.3849729842
 40
0.4546391544
 40
0.5215812067
 40
0.5857154704
 40
0.6469883595
 40
0.7053828233
 40
0.76092399
 40
0.8136833662
 40
0.8637809781
 40
0.9113849256
 40
0.9567078021
 40
1.0
 40
1.0
 40
1.0
 40
1.0
 10
9.2584588515
 20
7.9446377527
 30
0.0
 10
9.2544666308
 20
7.9469951988
 30
0.0
 10
9.2466158473
 20
7.9517044773
 30
0.0
 10
9.2351092575
 20
7.9588543301
 30
0.0
 10
9.2240484796
 20
7.9660006431
 30
0.0
 10
9.2134654752
 20
7.9731404174
 30
0.0
 10
9.2033922055
 20
7.9802702551
 30
0.0
 10
9.1938600358
 20
7.987386309
 30
0.0
 10
9.1848988811
 20
7.9944843516
 30
0.0
 10
9.1765363177
 20
8.0015598343
 30
0.0
 10
9.1687966681
 20
8.0086079998
 30
0.0
 10
9.1617001251
 20
8.0156240075
 30
0.0
 10
9.1552619917
 20
8.0226030636
 30
0.0
 10
9.1494920849
 20
8.0295405742
 30
0.0
 10
9.1443944122
 20
8.0364321762
 30
0.0
 10
9.1399669332
 20
8.0432740677
 30
0.0
 10
9.1362021055
 20
8.0500620814
 30
0.0
 10
9.1340804607
 20
8.0546461494
 30
0.0
 10
9.1331337757
 20
8.0569221054
 30
0.0
  0
SPLINE
  5
2CE
100
AcDbEntity
  8
0
100
AcDbSpline
 62
7
  6
CONTINUOUS
 70
0
 71
3
 72
27
 73
23
 74
0
 42
0.0000001
 43
0.0000001
 44
0.0000000001
 40
0.0
 40
0.0
 40
0.0
 40
0.0
 40
0.0851779305
 40
0.1685849549
 40
0.2498873105
 40
0.3287799937
 40
0.4049616567
 40
0.4781489859
 40
0.548075714
 40
0.6144955346
 40
0.6771850792
 40
0.7359471648
 40
0.7906159238
 40
0.8410627792
 40
0.8646774596
 40
0.8872099386
 40
0.9086591376
 40
0.9290288989
 40
0.9483280011
 40
0.9665725188
 40
0.983785652
 40
1.0
 40
1.0
 40
1.0
 40
1.0
 10
7.9147322953
 20
8.6161114276
 30
0.0
 10
7.9147322953
 20
8.6129413871
 30
0.0
 10
7.9147863281
 20
8.6066670607
 30
0.0
 10
7.9150340708
 20
8.5973698789
 30
0.0
 10
7.9154467516
 20
8.5883126395
 30
0.0
 10
7.9160224957
 20
8.5795337209
 30
0.0
 10
7.9167588689
 20
8.5710698603
 30
0.0
 10
7.9176526722
 20
8.5629567089
 30
0.0
 10
7.9187000393
 20
8.555228312
 30
0.0
 10
7.9198964482
 20
8.5479170532
 30
0.0
 10
7.9212367329
 20
8.5410535211
 30
0.0
 10
7.9227151173
 20
8.5346662431
 30
0.0
 10
7.9243252718
 20
8.5287818477
 30
0.0
 10
7.9258018433
 20
8.5242217433
 30
0.0
 10
7.9270518013
 20
8.5208506556
 30
0.0
 10
7.9279972422
 20
8.5185188985
 30
0.0
 10
7.9289703618
 20
8.516330038
 30
0.0
 10
7.9299701447
 20
8.5142862993
 30
0.0
 10
7.9309956453
 20
8.5123898059
 30
0.0
 10
7.9320457985
 20
8.5106424232
 30
0.0
 10
7.9331195642
 20
8.509046016
 30
0.0
 10
7.9338725067
 20
8.5080545147
 30
0.0
 10
7.9342532693
 20
8.5075863642
 30
0.0
  0
SPLINE
  5
2CF
100
AcDbEntity
  8
0
100
AcDbSpline
 62
7
  6
CONTINUOUS
 70
0
 71
3
 72
34
 73
30
 74
0
 42
0.0000001
 43
0.0000001
 44
0.0000000001
 40
0.0
 40
0.0
 40
0.0
 40
0.0
 40
0.0964164167
 40
0.1901935938
 40
0.280765618
 40
0.3675919936
 40
0.450165541
 40
0.489710715
 40
0.5280205573
 40
0.5650436975
 40
0.6007322964
 40
0.6350422085
 40
0.6679334199
 40
0.6993705694
 40
0.7293232848
 40
0.7577672679
 40
0.7846846437
 40
0.8100656615
 40
0.8339093282
 40
0.856226197
 40
0.8770397426
 40
0.8963905946
 40
0.9143394507
 40
0.9309734418
 40
0.9464110513
 40
0.9608097664
 40
0.9743703402
 40
0.9873389101
 40
1.0
 40
1.0
 40
1.0
 40
1.0
 10
8.1655770483
 20
8.5904088673
 30
0.0
 10
8.1655770483
 20
8.5856501943
 30
0.0
 10
8.1656778521
 20
8.5762627398
 30
0.0
 10
8.1661423172
 20
8.5624120092
 30
0.0
 10
8.1669149804
 20
8.5490489018
 30
0.0
 10
8.1679905883
 20
8.5362615134
 30
0.0
 10
8.1691491653
 20
8.5260124511
 30
0.0
 10
8.1702298604
 20
8.5181682058
 30
0.0
 10
8.1710994304
 20
8.5125651201
 30
0.0
 10
8.172038257
 20
8.5071663016
 30
0.0
 10
8.1730447839
 20
8.5019806196
 30
0.0
 10
8.1741173354
 20
8.497016596
 30
0.0
 10
8.1752541297
 20
8.4922823735
 30
0.0
 10
8.176453265
 20
8.4877857053
 30
0.0
 10
8.1777127716
 20
8.4835339384
 30
0.0
 10
8.1790305366
 20
8.4795339903
 30
0.0
 10
8.1804044355
 20
8.4757923464
 30
0.0
 10
8.1818321762
 20
8.4723150184
 30
0.0
 10
8.1833115329
 20
8.4691075729
 30
0.0
 10
8.1848401097
 20
8.4661750467
 30
0.0
 10
8.186415691
 20
8.4635220404
 30
0.0
 10
8.1880359347
 20
8.4611525867
 30
0.0
 10
8.189698851
 20
8.4590703887
 30
0.0
 10
8.1914024227
 20
8.4572786658
 30
0.0
 10
8.1931451336
 20
8.4557806922
 30
0.0
 10
8.1949252721
 20
8.4545796898
 30
0.0
 10
8.1967412836
 20
8.453679618
 30
0.0
 10
8.1985894634
 20
8.4530845622
 30
0.0
 10
8.1998464859
 20
8.4528929607
 30
0.0
 10
8.200469882
 20
8.4528497273
 30
0.0
  0
SPLINE
  5
2D0
100
AcDbEntity
  8
0
100
AcDbSpline
 62
7
  6
CONTINUOUS
 70
0
 71
3
 72
15
 73
11
 74
0
 42
0.0000001
 43
0.0000001
 44
0.0000000001
 40
0.0
 40
0.0
 40
0.0
 40
0.0
 40
0.148159145
 40
0.2878523626
 40
0.4197872319
 40
0.5448397562
 40
0.664062966
 40
0.7786994095
 40
0.8901620272
 40
1.0
 40
1.0
 40
1.0
 40
1.0
 10
8.2002938152
 20
8.8158876328
 30
0.0
 10
8.1998721614
 20
8.8163882661
 30
0.0
 10
8.1990219106
 20
8.817335495
 30
0.0
 10
8.1976841691
 20
8.8186225319
 30
0.0
 10
8.1963239143
 20
8.8197309794
 30
0.0
 10
8.1949422503
 20
8.8206594406
 30
0.0
 10
8.1935401727
 20
8.8214063726
 30
0.0
 10
8.1921189588
 20
8.821970392
 30
0.0
 10
8.1906805583
 20
8.8223500577
 30
0.0
 10
8.1897084441
 20
8.8224798781
 30
0.0
 10
8.1892243611
 20
8.8225134499
 30
0.0
  0
SPLINE
  5
2D1
100
AcDbEntity
  8
0
100
AcDbSpline
 62
7
  6
CONTINUOUS
 70
0
 71
3
 72
37
 73
33
 74
0
 42
0.0000001
 43
0.0000001
 44
0.0000000001
 40
0.0
 40
0.0
 40
0.0
 40
0.0
 40
0.0771834971
 40
0.155625051
 40
0.2345814347
 40
0.3133005398
 40
0.3910339394
 40
0.4670451175
 40
0.5041812056
 40
0.5406206859
 40
0.5762790339
 40
0.6110742286
 40
0.6449270317
 40
0.6777614632
 40
0.7095051004
 40
0.740089362
 40
0.7694501048
 40
0.7975281267
 40
0.8242695598
 40
0.8496267137
 40
0.8735590588
 40
0.8960340719
 40
0.9170287769
 40
0.9365319201
 40
0.9457253508
 40
0.9545484048
 40
0.9630041788
 40
0.971097421
 40
0.978834387
 40
0.9862231417
 40
0.9932740994
 40
1.0
 40
1.0
 40
1.0
 40
1.0
 10
8.3731969769
 20
8.5589543302
 30
0.0
 10
8.3731969769
 20
8.567084089
 30
0.0
 10
8.3734202338
 20
8.5834768532
 30
0.0
 10
8.3743936321
 20
8.6081687171
 30
0.0
 10
8.3759996208
 20
8.6329897373
 30
0.0
 10
8.3782219755
 20
8.6576882914
 30
0.0
 10
8.3810380555
 20
8.6820139432
 30
0.0
 10
8.3838770138
 20
8.7019207687
 30
0.0
 10
8.386430357
 20
8.717468975
 30
0.0
 10
8.3884593839
 20
8.7287947309
 30
0.0
 10
8.3906119617
 20
8.7398465663
 30
0.0
 10
8.3928826277
 20
8.7505964681
 30
0.0
 10
8.395265604
 20
8.7610171672
 30
0.0
 10
8.397754796
 20
8.7710822565
 30
0.0
 10
8.400343841
 20
8.7807662406
 30
0.0
 10
8.4030261493
 20
8.7900445969
 30
0.0
 10
8.4057948639
 20
8.7988938632
 30
0.0
 10
8.4086428974
 20
8.8072916982
 30
0.0
 10
8.4115629957
 20
8.8152169252
 30
0.0
 10
8.4145477194
 20
8.8226496252
 30
0.0
 10
8.4175894481
 20
8.8295711833
 30
0.0
 10
8.4206804974
 20
8.8359644264
 30
0.0
 10
8.4238130903
 20
8.8418133536
 30
0.0
 10
8.4265022099
 20
8.846306762
 30
0.0
 10
8.4286741574
 20
8.8496089659
 30
0.0
 10
8.4302764051
 20
8.8518915546
 30
0.0
 10
8.4318831671
 20
8.854027689
 30
0.0
 10
8.4334934441
 20
8.856016076
 30
0.0
 10
8.435106256
 20
8.8578554795
 30
0.0
 10
8.4367207105
 20
8.8595447385
 30
0.0
 10
8.4383357378
 20
8.8610827798
 30
0.0
 10
8.4394375493
 20
8.8620284231
 30
0.0
 10
8.4399883404
 20
8.8624739764
 30
0.0
  0
SPLINE
  5
2D2
100
AcDbEntity
  8
0
100
AcDbSpline
 62
7
  6
CONTINUOUS
 70
0
 71
3
 72
51
 73
47
 74
0
 42
0.0000001
 43
0.0000001
 44
0.0000000001
 40
0.0
 40
0.0
 40
0.0
 40
0.0
 40
0.0308574093
 40
0.063274629
 40
0.0971319074
 40
0.1322926849
 40
0.1685984898
 40
0.2058776487
 40
0.2439464526
 40
0.2826124686
 40
0.3216767725
 40
0.3609362824
 40
0.4001858887
 40
0.4392205865
 40
0.4778375941
 40
0.5158385132
 40
0.553031625
 40
0.589234321
 40
0.6242758123
 40
0.6580002967
 40
0.6902707149
 40
0.7209734701
 40
0.7500246352
 40
0.7773784542
 40
0.8030391852
 40
0.8270774641
 40
0.8385357409
 40
0.8496579321
 40
0.860483829
 40
0.8710609626
 40
0.8814498336
 40
0.891719235
 40
0.9019453834
 40
0.9122124879
 40
0.922595698
 40
0.9331620441
 40
0.9439501327
 40
0.9494305448
 40
0.9549644156
 40
0.9661568969
 40
0.9718023568
 40
0.9774628388
 40
0.9831251314
 40
0.9887771179
 40
0.9944061842
 40
1.0
 40
1.0
 40
1.0
 40
1.0
 10
8.1407192965
 20
8.525674349
 30
0.0
 10
8.1401730298
 20
8.5289612806
 30
0.0
 10
8.1391710204
 20
8.5357213047
 30
0.0
 10
8.1379483942
 20
8.5461395534
 30
0.0
 10
8.1369702535
 20
8.5570501631
 30
0.0
 10
8.1362392324
 20
8.5684007234
 30
0.0
 10
8.1357577784
 20
8.5801343276
 30
0.0
 10
8.1355274846
 20
8.5921895334
 30
0.0
 10
8.1355490085
 20
8.6045017202
 30
0.0
 10
8.1358218247
 20
8.6170036701
 30
0.0
 10
8.1363441774
 20
8.6296263409
 30
0.0
 10
8.1371130211
 20
8.6422995193
 30
0.0
 10
8.1381240238
 20
8.6549524751
 30
0.0
 10
8.139371594
 20
8.6675145955
 30
0.0
 10
8.1408489432
 20
8.6799160195
 30
0.0
 10
8.1425481826
 20
8.6920882821
 30
0.0
 10
8.144460461
 20
8.7039649754
 30
0.0
 10
8.1465761581
 20
8.7154824447
 30
0.0
 10
8.1488851533
 20
8.7265805356
 30
0.0
 10
8.1513772083
 20
8.7372034229
 30
0.0
 10
8.154042519
 20
8.7473005483
 30
0.0
 10
8.1568725507
 20
8.7568277357
 30
0.0
 10
8.1598612993
 20
8.7657484696
 30
0.0
 10
8.1630074022
 20
8.7740356462
 30
0.0
 10
8.1663172101
 20
8.7816727691
 30
0.0
 10
8.1692735522
 20
8.7875830173
 30
0.0
 10
8.1717516942
 20
8.7919658249
 30
0.0
 10
8.1736437
 20
8.7950381974
 30
0.0
 10
8.1756088698
 20
8.7979503805
 30
0.0
 10
8.1776600012
 20
8.800704933
 30
0.0
 10
8.1798164201
 20
8.8033006227
 30
0.0
 10
8.1820966522
 20
8.8057372621
 30
0.0
 10
8.1845284755
 20
8.8080043052
 30
0.0
 10
8.1871358888
 20
8.8100880158
 30
0.0
 10
8.1899460545
 20
8.811958179
 30
0.0
 10
8.1929743304
 20
8.8135750139
 30
0.0
 10
8.1956690224
 20
8.8146585717
 30
0.0
 10
8.197922779
 20
8.8153435175
 30
0.0
 10
8.2002565047
 20
8.815899594
 30
0.0
 10
8.2026565563
 20
8.8162373011
 30
0.0
 10
8.2050852537
 20
8.8163376255
 30
0.0
 10
8.2069183716
 20
8.8162929316
 30
0.0
 10
8.2087450646
 20
8.8161260632
 30
0.0
 10
8.2105532648
 20
8.8158386357
 30
0.0
 10
8.2123315645
 20
8.8154355976
 30
0.0
 10
8.2134944212
 20
8.8150909764
 30
0.0
 10
8.21406782
 20
8.814901078
 30
0.0
  0
SPLINE
  5
2D3
100
AcDbEntity
  8
0
100
AcDbSpline
 62
7
  6
CONTINUOUS
 70
0
 71
3
 72
25
 73
21
 74
0
 42
0.0000001
 43
0.0000001
 44
0.0000000001
 40
0.0
 40
0.0
 40
0.0
 40
0.0
 40
0.0650732053
 40
0.1326298194
 40
0.202090271
 40
0.2727810942
 40
0.3439713531
 40
0.4149074434
 40
0.4848472508
 40
0.5530946355
 40
0.619035219
 40
0.6821744383
 40
0.7421785889
 40
0.7989186067
 40
0.8525136855
 40
0.9033662539
 40
0.9279993423
 40
0.9522305553
 40
0.9761855879
 40
1.0
 40
1.0
 40
1.0
 40
1.0
 10
8.1699070424
 20
8.5210630557
 30
0.0
 10
8.1693112246
 20
8.5206273863
 30
0.0
 10
8.1680435652
 20
8.5198105075
 30
0.0
 10
8.1659928255
 20
8.5187779824
 30
0.0
 10
8.1637903912
 20
8.5179308475
 30
0.0
 10
8.1614781711
 20
8.5172851866
 30
0.0
 10
8.1590997431
 20
8.5168530639
 30
0.0
 10
8.156700074
 20
8.5166426551
 30
0.0
 10
8.1543244779
 20
8.516657971
 30
0.0
 10
8.1520177636
 20
8.5168988336
 30
0.0
 10
8.1498233529
 20
8.5173609251
 30
0.0
 10
8.1477824625
 20
8.5180359922
 30
0.0
 10
8.145933442
 20
8.5189120793
 30
0.0
 10
8.1443111942
 20
8.5199741299
 30
0.0
 10
8.1429473296
 20
8.5212034638
 30
0.0
 10
8.1420390981
 20
8.5223632585
 30
0.0
 10
8.1414762246
 20
8.5233461106
 30
0.0
 10
8.141137636
 20
8.5241010753
 30
0.0
 10
8.1408803381
 20
8.524877596
 30
0.0
 10
8.1407635769
 20
8.5254078818
 30
0.0
 10
8.1407192988
 20
8.5256743494
 30
0.0
  0
SPLINE
  5
2D4
100
AcDbEntity
  8
0
100
AcDbSpline
 62
7
  6
CONTINUOUS
 70
0
 71
3
 72
14
 73
10
 74
0
 42
0.0000001
 43
0.0000001
 44
0.0000000001
 40
0.0
 40
0.0
 40
0.0
 40
0.0
 40
0.2738037971
 40
0.4030068943
 40
0.5278806134
 40
0.6491684711
 40
0.7676878501
 40
0.8843215161
 40
1.0
 40
1.0
 40
1.0
 40
1.0
 10
8.4972145788
 20
8.349865286
 30
0.0
 10
8.4961623593
 20
8.3491726742
 30
0.0
 10
8.4945497591
 20
8.3482424547
 30
0.0
 10
8.4923229373
 20
8.3472684651
 30
0.0
 10
8.4906896698
 20
8.3467013248
 30
0.0
 10
8.4890624536
 20
8.3462841595
 30
0.0
 10
8.4874421065
 20
8.346017469
 30
0.0
 10
8.4858299619
 20
8.3459016649
 30
0.0
 10
8.4847595343
 20
8.3459252093
 30
0.0
 10
8.484228597
 20
8.3459620237
 30
0.0
  0
SPLINE
  5
2D5
100
AcDbEntity
  8
0
100
AcDbSpline
 62
7
  6
CONTINUOUS
 70
0
 71
3
 72
30
 73
26
 74
0
 42
0.0000001
 43
0.0000001
 44
0.0000000001
 40
0.0
 40
0.0
 40
0.0
 40
0.0
 40
0.0155117835
 40
0.0320255609
 40
0.0495879377
 40
0.0682333341
 40
0.0879862142
 40
0.1088623173
 40
0.1308707041
 40
0.1540139253
 40
0.1782899655
 40
0.2036918092
 40
0.230209116
 40
0.2578276446
 40
0.286530481
 40
0.3162977358
 40
0.3789318867
 40
0.445528635
 40
0.5158529248
 40
0.5896433976
 40
0.6666157313
 40
0.7464661993
 40
0.8288726876
 40
0.9135010339
 40
1.0
 40
1.0
 40
1.0
 40
1.0
 10
8.4066120622
 20
8.3812026636
 30
0.0
 10
8.4059638638
 20
8.3818954734
 30
0.0
 10
8.4046809239
 20
8.3833782895
 30
0.0
 10
8.4028522513
 20
8.3858002765
 30
0.0
 10
8.4010626236
 20
8.3884847571
 30
0.0
 10
8.3993139386
 20
8.391428686
 30
0.0
 10
8.3976079636
 20
8.3946289815
 30
0.0
 10
8.3959464402
 20
8.3980821615
 30
0.0
 10
8.3943312334
 20
8.4017845102
 30
0.0
 10
8.3927640136
 20
8.405731958
 30
0.0
 10
8.3912466109
 20
8.4099201926
 30
0.0
 10
8.3897806177
 20
8.4143445753
 30
0.0
 10
8.3883677577
 20
8.4190002229
 30
0.0
 10
8.3870095516
 20
8.4238819549
 30
0.0
 10
8.3857075527
 20
8.4289843538
 30
0.0
 10
8.3840197737
 20
8.4361971296
 30
0.0
 10
8.3820723466
 20
8.4457273353
 30
0.0
 10
8.3800184719
 20
8.4577606932
 30
0.0
 10
8.3782192871
 20
8.4705240865
 30
0.0
 10
8.3766830211
 20
8.4839604858
 30
0.0
 10
8.3754167494
 20
8.49800998
 30
0.0
 10
8.3744263139
 20
8.5126097206
 30
0.0
 10
8.3737162528
 20
8.5276945011
 30
0.0
 10
8.3732898911
 20
8.5431966412
 30
0.0
 10
8.3731969769
 20
8.5536637198
 30
0.0
 10
8.3731969769
 20
8.5589543302
 30
0.0
  0
SPLINE
  5
2D6
100
AcDbEntity
  8
0
100
AcDbSpline
 62
7
  6
CONTINUOUS
 70
0
 71
3
 72
16
 73
12
 74
0
 42
0.0000001
 43
0.0000001
 44
0.0000000001
 40
0.0
 40
0.0
 40
0.0
 40
0.0
 40
0.1282422029
 40
0.2562109462
 40
0.3836034675
 40
0.5101080181
 40
0.6353757837
 40
0.7590262218
 40
0.8806823713
 40
0.9406144552
 40
1.0
 40
1.0
 40
1.0
 40
1.0
 10
8.4784330411
 20
8.3463639388
 30
0.0
 10
8.4749482454
 20
8.3466056102
 30
0.0
 10
8.4680052238
 20
8.3474367245
 30
0.0
 10
8.4577892759
 20
8.3497073594
 30
0.0
 10
8.4478914159
 20
8.3529597913
 30
0.0
 10
8.4384250919
 20
8.357129568
 30
0.0
 10
8.4294890731
 20
8.3621328093
 30
0.0
 10
8.4211652096
 20
8.3678669099
 30
0.0
 10
8.4147584987
 20
8.3731842601
 30
0.0
 10
8.4099858732
 20
8.377692608
 30
0.0
 10
8.4077172146
 20
8.3800214479
 30
0.0
 10
8.4066120604
 20
8.3812026498
 30
0.0
  0
SPLINE
  5
2D7
100
AcDbEntity
  8
0
100
AcDbSpline
 62
7
  6
CONTINUOUS
 70
0
 71
3
 72
16
 73
12
 74
0
 42
0.0000001
 43
0.0000001
 44
0.0000000001
 40
0.0
 40
0.0
 40
0.0
 40
0.0
 40
0.059386229
 40
0.1193173097
 40
0.240973493
 40
0.3646235457
 40
0.4898911294
 40
0.6163955922
 40
0.7437882008
 40
0.8717571663
 40
1.0
 40
1.0
 40
1.0
 40
1.0
 10
8.4399883404
 20
8.8624739778
 30
0.0
 10
8.4412459786
 20
8.8634913322
 30
0.0
 10
8.4438143751
 20
8.8654847188
 30
0.0
 10
8.4491636305
 20
8.8692910977
 30
0.0
 10
8.456242962
 20
8.8736731753
 30
0.0
 10
8.4652786468
 20
8.8782033766
 30
0.0
 10
8.4748197324
 20
8.8819252267
 30
0.0
 10
8.4847710116
 20
8.8847483933
 30
0.0
 10
8.4950230798
 20
8.886603432
 30
0.0
 10
8.5054546876
 20
8.8874421654
 30
0.0
 10
8.5124459922
 20
8.8873069316
 30
0.0
 10
8.5159308051
 20
8.887065259
 30
0.0
  0
SPLINE
  5
2D8
100
AcDbEntity
  8
0
100
AcDbSpline
 62
7
  6
CONTINUOUS
 70
0
 71
3
 72
22
 73
18
 74
0
 42
0.0000001
 43
0.0000001
 44
0.0000000001
 40
0.0
 40
0.0
 40
0.0
 40
0.0
 40
0.0429933948
 40
0.0888738148
 40
0.1376930899
 40
0.1894484627
 40
0.2440899753
 40
0.3015307532
 40
0.3616570524
 40
0.4243353361
 40
0.4894208644
 40
0.5567625138
 40
0.6262087612
 40
0.6976104584
 40
0.7708228554
 40
0.8457107519
 40
1.0
 40
1.0
 40
1.0
 40
1.0
 10
8.5394159823
 20
8.8859221873
 30
0.0
 10
8.540378813
 20
8.8868182312
 30
0.0
 10
8.5424378954
 20
8.8885974613
 30
0.0
 10
8.5457919594
 20
8.891149413
 30
0.0
 10
8.5495001938
 20
8.8936674182
 30
0.0
 10
8.5535502132
 20
8.8961491543
 30
0.0
 10
8.557927549
 20
8.8985931046
 30
0.0
 10
8.5626158812
 20
8.900998139
 30
0.0
 10
8.5675977741
 20
8.9033634655
 30
0.0
 10
8.5728550673
 20
8.905688844
 30
0.0
 10
8.5783694072
 20
8.907974388
 30
0.0
 10
8.5841226607
 20
8.9102205541
 30
0.0
 10
8.5900971841
 20
8.9124281452
 30
0.0
 10
8.5962760888
 20
8.9145981302
 30
0.0
 10
8.6026434135
 20
8.916731793
 30
0.0
 10
8.6114521524
 20
8.9195579591
 30
0.0
 10
8.618164917
 20
8.9215836743
 30
0.0
 10
8.6226959398
 20
8.9229061584
 30
0.0
  0
SPLINE
  5
2D9
100
AcDbEntity
  8
0
100
AcDbSpline
 62
7
  6
CONTINUOUS
 70
0
 71
3
 72
13
 73
9
 74
0
 42
0.0000001
 43
0.0000001
 44
0.0000000001
 40
0.0
 40
0.0
 40
0.0
 40
0.0
 40
0.1157522608
 40
0.2324545562
 40
0.3510314318
 40
0.4723612669
 40
0.7262700141
 40
1.0
 40
1.0
 40
1.0
 40
1.0
 10
8.5217263598
 20
8.8866633278
 30
0.0
 10
8.5222555857
 20
8.8866266321
 30
0.0
 10
8.5233155746
 20
8.8865027742
 30
0.0
 10
8.5248912175
 20
8.8861673207
 30
0.0
 10
8.5264543023
 20
8.8856823093
 30
0.0
 10
8.5285512182
 20
8.8848242324
 30
0.0
 10
8.5311510174
 20
8.8833526868
 30
0.0
 10
8.5330671953
 20
8.8818645873
 30
0.0
 10
8.5340111359
 20
8.8810382816
 30
0.0
  0
SPLINE
  5
2DA
100
AcDbEntity
  8
0
100
AcDbSpline
 62
7
  6
CONTINUOUS
 70
0
 71
3
 72
31
 73
27
 74
0
 42
0.0000001
 43
0.0000001
 44
0.0000000001
 40
0.0
 40
0.0
 40
0.0
 40
0.0
 40
0.0144528652
 40
0.0302620078
 40
0.0474793339
 40
0.0661324817
 40
0.0862308866
 40
0.1077695051
 40
0.1307312157
 40
0.1550896287
 40
0.1808097273
 40
0.2078497499
 40
0.2361618288
 40
0.2656923978
 40
0.2963834152
 40
0.3281721468
 40
0.3609922169
 40
0.3947736973
 40
0.4649230229
 40
0.5380046021
 40
0.613364385
 40
0.6903207719
 40
0.7681735194
 40
0.8462121265
 40
0.9237223534
 40
1.0
 40
1.0
 40
1.0
 40
1.0
 10
7.9547050737
 20
8.8025022523
 30
0.0
 10
7.9540226667
 20
8.8018671291
 30
0.0
 10
7.9526616542
 20
8.8004634966
 30
0.0
 10
7.9507144465
 20
8.7980964404
 30
0.0
 10
7.9487765677
 20
8.7953813959
 30
0.0
 10
7.9468524367
 20
8.7923248086
 30
0.0
 10
7.9449463546
 20
8.7889335611
 30
0.0
 10
7.9430628617
 20
8.7852155741
 30
0.0
 10
7.9412064076
 20
8.781179634
 30
0.0
 10
7.9393815626
 20
8.7768353427
 30
0.0
 10
7.9375927226
 20
8.7721931371
 30
0.0
 10
7.9358442813
 20
8.7672641968
 30
0.0
 10
7.9341405373
 20
8.7620604315
 30
0.0
 10
7.9324856221
 20
8.7565944548
 30
0.0
 10
7.930883646
 20
8.7508795235
 30
0.0
 10
7.9293384972
 20
8.7449295294
 30
0.0
 10
7.9278539575
 20
8.7387589243
 30
0.0
 10
7.9259362064
 20
8.730148902
 30
0.0
 10
7.9237247737
 20
8.7189455023
 30
0.0
 10
7.9213975271
 20
8.7050376327
 30
0.0
 10
7.9193875739
 20
8.6906369823
 30
0.0
 10
7.9177146639
 20
8.6758836622
 30
0.0
 10
7.9163952134
 20
8.6609211265
 30
0.0
 10
7.915442136
 20
8.6458949811
 30
0.0
 10
7.9148646523
 20
8.6309514714
 30
0.0
 10
7.9147322953
 20
8.6210314648
 30
0.0
 10
7.9147322953
 20
8.6161114276
 30
0.0
  0
SPLINE
  5
2DB
100
AcDbEntity
  8
0
100
AcDbSpline
 62
7
  6
CONTINUOUS
 70
0
 71
3
 72
15
 73
11
 74
0
 42
0.0000001
 43
0.0000001
 44
0.0000000001
 40
0.0
 40
0.0
 40
0.0
 40
0.0
 40
0.1492648754
 40
0.2896992754
 40
0.4220168283
 40
0.5471128374
 40
0.6660741268
 40
0.7801945703
 40
0.8909579237
 40
1.0
 40
1.0
 40
1.0
 40
1.0
 10
7.9601285582
 20
8.4757713339
 30
0.0
 10
7.9605617284
 20
8.4752387458
 30
0.0
 10
7.9614354225
 20
8.4742311601
 30
0.0
 10
7.9628126739
 20
8.472860805
 30
0.0
 10
7.964214278
 20
8.4716808216
 30
0.0
 10
7.96563904
 20
8.4706927609
 30
0.0
 10
7.9670859003
 20
8.4698983343
 30
0.0
 10
7.9685535151
 20
8.4692991583
 30
0.0
 10
7.9700397401
 20
8.46889687
 30
0.0
 10
7.9710448515
 20
8.4687604207
 30
0.0
 10
7.9715451582
 20
8.468725711
 30
0.0
  0
SPLINE
  5
2DC
100
AcDbEntity
  8
0
100
AcDbSpline
 62
7
  6
CONTINUOUS
 70
0
 71
3
 72
21
 73
17
 74
0
 42
0.0000001
 43
0.0000001
 44
0.0000000001
 40
0.0
 40
0.0
 40
0.0
 40
0.0
 40
0.0472972126
 40
0.095060938
 40
0.1437430191
 40
0.1937676881
 40
0.2992671628
 40
0.355480448
 40
0.4143345332
 40
0.4760497039
 40
0.5408091302
 40
0.6087655414
 40
0.6800425294
 40
0.754737857
 40
0.832929873
 40
1.0
 40
1.0
 40
1.0
 40
1.0
 10
8.1637646984
 20
8.4553952404
 30
0.0
 10
8.1641589539
 20
8.4553678982
 30
0.0
 10
8.1649547969
 20
8.4553539104
 30
0.0
 10
8.1661534782
 20
8.4554558549
 30
0.0
 10
8.1673586113
 20
8.4556804131
 30
0.0
 10
8.1690009813
 20
8.4561507375
 30
0.0
 10
8.1706289196
 20
8.4568678852
 30
0.0
 10
8.1722229641
 20
8.45779466
 30
0.0
 10
8.1734464719
 20
8.4586245094
 30
0.0
 10
8.174671268
 20
8.4595735359
 30
0.0
 10
8.1758969434
 20
8.4606411258
 30
0.0
 10
8.1771226822
 20
8.4618265743
 30
0.0
 10
8.1783477682
 20
8.4631290997
 30
0.0
 10
8.179571522
 20
8.4645478371
 30
0.0
 10
8.1812371852
 20
8.4666396651
 30
0.0
 10
8.1824252204
 20
8.4683119722
 30
0.0
 10
8.183200741
 20
8.469472731
 30
0.0
  0
SPLINE
  5
2DD
100
AcDbEntity
  8
0
100
AcDbSpline
 62
7
  6
CONTINUOUS
 70
0
 71
3
 72
15
 73
11
 74
0
 42
0.0000001
 43
0.0000001
 44
0.0000000001
 40
0.0
 40
0.0
 40
0.0
 40
0.0
 40
0.109042091
 40
0.2198052863
 40
0.3339250544
 40
0.4528861463
 40
0.5779814863
 40
0.710299121
 40
0.8507342909
 40
1.0
 40
1.0
 40
1.0
 40
1.0
 10
7.9970053997
 20
8.83584388
 30
0.0
 10
7.9965050662
 20
8.8358785916
 30
0.0
 10
7.9954906868
 20
8.8358822359
 30
0.0
 10
7.993963078
 20
8.8356889705
 30
0.0
 10
7.9924267107
 20
8.835298157
 30
0.0
 10
7.9908839652
 20
8.8347110243
 30
0.0
 10
7.9893363597
 20
8.8339290823
 30
0.0
 10
7.9877852091
 20
8.832953812
 30
0.0
 10
7.9862319003
 20
8.8317866117
 30
0.0
 10
7.985227425
 20
8.8309092239
 30
0.0
 10
7.9847248591
 20
8.8304414959
 30
0.0
  0
SPLINE
  5
2DE
100
AcDbEntity
  8
0
100
AcDbSpline
 62
7
  6
CONTINUOUS
 70
0
 71
3
 72
18
 73
14
 74
0
 42
0.0000001
 43
0.0000001
 44
0.0000000001
 40
0.0
 40
0.0
 40
0.0
 40
0.0
 40
0.1492424733
 40
0.2896629516
 40
0.42196038
 40
0.4853549818
 40
0.5470723896
 40
0.6660149154
 40
0.7801174088
 40
0.8358373125
 40
0.890917742
 40
0.9455672904
 40
1.0
 40
1.0
 40
1.0
 40
1.0
 10
8.799764689
 20
9.0770309013
 30
0.0
 10
8.8011221504
 20
9.0782942775
 30
0.0
 10
8.8038353995
 20
9.0806642851
 30
0.0
 10
8.8080308655
 20
9.083816951
 30
0.0
 10
8.8115715626
 20
9.0860431776
 30
0.0
 10
8.8143943406
 20
9.0875496203
 30
0.0
 10
8.8171378833
 20
9.088843922
 30
0.0
 10
8.8205679198
 20
9.0901494511
 30
0.0
 10
8.8240541805
 20
9.0910362326
 30
0.0
 10
8.8268163084
 20
9.0914707391
 30
0.0
 10
8.8288646706
 20
9.091661721
 30
0.0
 10
8.8309049786
 20
9.0917201004
 30
0.0
 10
8.8322606113
 20
9.0916705248
 30
0.0
 10
8.8329353414
 20
9.0916237248
 30
0.0
  0
SPLINE
  5
2DF
100
AcDbEntity
  8
0
100
AcDbSpline
 62
7
  6
CONTINUOUS
 70
0
 71
3
 72
60
 73
56
 74
0
 42
0.0000001
 43
0.0000001
 44
0.0000000001
 40
0.0
 40
0.0
 40
0.0
 40
0.0
 40
0.0075208289
 40
0.0156241605
 40
0.0243310776
 40
0.0336549054
 40
0.0436027528
 40
0.054176781
 40
0.0653748654
 40
0.0771914756
 40
0.0896180768
 40
0.1026435139
 40
0.1162544851
 40
0.1304355755
 40
0.1451696372
 40
0.1604379141
 40
0.1762201209
 40
0.1924947281
 40
0.2092388882
 40
0.2264286514
 40
0.244039066
 40
0.262044168
 40
0.2804171929
 40
0.2991305198
 40
0.3374634722
 40
0.3768097253
 40
0.4169269111
 40
0.45756648
 40
0.4984756849
 40
0.539399653
 40
0.580083415
 40
0.6202738543
 40
0.659721849
 40
0.6981841971
 40
0.7354258118
 40
0.7535184717
 40
0.7712225678
 40
0.7885119249
 40
0.8053613771
 40
0.8217467175
 40
0.8376448367
 40
0.8530339029
 40
0.8678933063
 40
0.8822039557
 40
0.8959482984
 40
0.9091104954
 40
0.9216767605
 40
0.9336353838
 40
0.944977213
 40
0.9556959863
 40
0.9657887376
 40
0.9752564879
 40
0.9841051702
 40
0.9923469997
 40
1.0
 40
1.0
 40
1.0
 40
1.0
 10
8.6815766803
 20
8.182667813
 30
0.0
 10
8.6802066218
 20
8.1843523867
 30
0.0
 10
8.6775071885
 20
8.1879728898
 30
0.0
 10
8.6737083564
 20
8.1938871595
 30
0.0
 10
8.6700180033
 20
8.2004730367
 30
0.0
 10
8.6664419714
 20
8.2077197184
 30
0.0
 10
8.6629856268
 20
8.215615923
 30
0.0
 10
8.6596546087
 20
8.224149016
 30
0.0
 10
8.6564542478
 20
8.2333052193
 30
0.0
 10
8.653389868
 20
8.2430696502
 30
0.0
 10
8.6504665673
 20
8.2534263384
 30
0.0
 10
8.6476891715
 20
8.2643582691
 30
0.0
 10
8.6450623979
 20
8.2758474449
 30
0.0
 10
8.6425905931
 20
8.287874892
 30
0.0
 10
8.6402779203
 20
8.3004207201
 30
0.0
 10
8.6381282881
 20
8.3134641575
 30
0.0
 10
8.6361452504
 20
8.3269835893
 30
0.0
 10
8.6343321918
 20
8.3409565987
 30
0.0
 10
8.6326921232
 20
8.3553600011
 30
0.0
 10
8.6312277941
 20
8.3701698848
 30
0.0
 10
8.6299417
 20
8.3853616609
 30
0.0
 10
8.6288359538
 20
8.4009100984
 30
0.0
 10
8.6279124331
 20
8.416789391
 30
0.0
 10
8.626918241
 20
8.4385417713
 30
0.0
 10
8.6261509748
 20
8.4663638578
 30
0.0
 10
8.6259801266
 20
8.5003755755
 30
0.0
 10
8.6265535623
 20
8.5350488995
 30
0.0
 10
8.6278676236
 20
8.5701534952
 30
0.0
 10
8.6299137055
 20
8.6054563234
 30
0.0
 10
8.6326782568
 20
8.640722958
 30
0.0
 10
8.6361428892
 20
8.6757192307
 30
0.0
 10
8.6402845067
 20
8.71021278
 30
0.0
 10
8.6450754131
 20
8.7439746835
 30
0.0
 10
8.6504835773
 20
8.7767807352
 30
0.0
 10
8.6555216774
 20
8.8033914636
 30
0.0
 10
8.6598441428
 20
8.824031444
 30
0.0
 10
8.6631855093
 20
8.8389900032
 30
0.0
 10
8.6666519883
 20
8.8535513624
 30
0.0
 10
8.6702377816
 20
8.8676913726
 30
0.0
 10
8.6739369178
 20
8.8813865563
 30
0.0
 10
8.6777432442
 20
8.89461419
 30
0.0
 10
8.6816503601
 20
8.9073523477
 30
0.0
 10
8.6856518046
 20
8.9195799153
 30
0.0
 10
8.6897408598
 20
8.9312766581
 30
0.0
 10
8.6939107058
 20
8.9424232328
 30
0.0
 10
8.6981544317
 20
8.9530012275
 30
0.0
 10
8.7024649087
 20
8.9629932353
 30
0.0
 10
8.7068350385
 20
8.9723828265
 30
0.0
 10
8.7112575571
 20
8.981154651
 30
0.0
 10
8.7157251695
 20
8.989294443
 30
0.0
 10
8.7202306767
 20
8.9967890031
 30
0.0
 10
8.7247666891
 20
9.0036263517
 30
0.0
 10
8.729326386
 20
9.0097958601
 30
0.0
 10
8.7339024037
 20
9.0152872002
 30
0.0
 10
8.7370741794
 20
9.0186104979
 30
0.0
 10
8.738663394
 20
9.0201455613
 30
0.0
  0
SPLINE
  5
2E0
100
AcDbEntity
  8
0
100
AcDbSpline
 62
7
  6
CONTINUOUS
 70
0
 71
3
 72
54
 73
50
 74
0
 42
0.0000001
 43
0.0000001
 44
0.0000000001
 40
0.0
 40
0.0
 40
0.0
 40
0.0
 40
0.0097389553
 40
0.0199693241
 40
0.0306880119
 40
0.0418900702
 40
0.0535690204
 40
0.0657170177
 40
0.0783249178
 40
0.0913825285
 40
0.1048785396
 40
0.1188008149
 40
0.1331362451
 40
0.1478710161
 40
0.1629904973
 40
0.1784794226
 40
0.1943218752
 40
0.2105013269
 40
0.2438019352
 40
0.2782393191
 40
0.3136639114
 40
0.3499201445
 40
0.3868475641
 40
0.4242817675
 40
0.4620554536
 40
0.4999993734
 40
0.5379432951
 40
0.5757170137
 40
0.6131512559
 40
0.6500787309
 40
0.6863350404
 40
0.7217597088
 40
0.7561972012
 40
0.7894979231
 40
0.8215193728
 40
0.8370083801
 40
0.8521279318
 40
0.8668627682
 40
0.8811982928
 40
0.8951206325
 40
0.9086167561
 40
0.921674425
 40
0.9342824378
 40
0.9464305039
 40
0.958109568
 40
0.9693117096
 40
0.9800304894
 40
0.9902609678
 40
1.0
 40
1.0
 40
1.0
 40
1.0
 10
9.1940682596
 20
9.0659858482
 30
0.0
 10
9.1924003096
 20
9.0631578857
 30
0.0
 10
9.1890826503
 20
9.0572984074
 30
0.0
 10
9.1842677075
 20
9.0481400073
 30
0.0
 10
9.179497111
 20
9.0384060224
 30
0.0
 10
9.174776592
 20
9.0281081016
 30
0.0
 10
9.170111766
 20
9.0172583917
 30
0.0
 10
9.1655082461
 20
9.0058697739
 30
0.0
 10
9.160971491
 20
8.9939557935
 30
0.0
 10
9.1565070151
 20
8.9815306222
 30
0.0
 10
9.1521200887
 20
8.9686090799
 30
0.0
 10
9.1478160623
 20
8.9552065644
 30
0.0
 10
9.14360002
 20
8.9413390796
 30
0.0
 10
9.1394770891
 20
8.9270231798
 30
0.0
 10
9.1354521693
 20
8.912275971
 30
0.0
 10
9.1315301212
 20
8.8971150778
 30
0.0
 10
9.1277156235
 20
8.8815586037
 30
0.0
 10
9.1227313645
 20
8.8601080382
 30
0.0
 10
9.1168148341
 20
8.8324406257
 30
0.0
 10
9.1102792229
 20
8.7982794911
 30
0.0
 10
9.1042730692
 20
8.7630102238
 30
0.0
 10
9.0988252706
 20
8.7268014827
 30
0.0
 10
9.0939620525
 20
8.6898262843
 30
0.0
 10
9.0897067927
 20
8.6522614006
 30
0.0
 10
9.0860799291
 20
8.6142864425
 30
0.0
 10
9.0830988572
 20
8.5760830042
 30
0.0
 10
9.0807778508
 20
8.5378337786
 30
0.0
 10
9.0791279932
 20
8.4997216884
 30
0.0
 10
9.0781571218
 20
8.4619289851
 30
0.0
 10
9.0778697908
 20
8.4246363892
 30
0.0
 10
9.0782672404
 20
8.3880221936
 30
0.0
 10
9.0793473976
 20
8.3522614305
 30
0.0
 10
9.0811048509
 20
8.3175249337
 30
0.0
 10
9.0835309694
 20
8.2839787913
 30
0.0
 10
9.0861277586
 20
8.2568567187
 30
0.0
 10
9.0885434235
 20
8.2358809663
 30
0.0
 10
9.0904941463
 20
8.2207192547
 30
0.0
 10
9.0926014663
 20
8.2059712057
 30
0.0
 10
9.094862878
 20
8.1916544188
 30
0.0
 10
9.0972756676
 20
8.1777859987
 30
0.0
 10
9.0998368848
 20
8.1643825024
 30
0.0
 10
9.1025435095
 20
8.1514599203
 30
0.0
 10
9.105392198
 20
8.1390336534
 30
0.0
 10
9.1083796152
 20
8.1271185035
 30
0.0
 10
9.1115020738
 20
8.115728632
 30
0.0
 10
9.1147559043
 20
8.1048775825
 30
0.0
 10
9.1181371594
 20
8.0945781533
 30
0.0
 10
9.1216417844
 20
8.0848426763
 30
0.0
 10
9.1241188494
 20
8.0785812589
 30
0.0
 10
9.1253804667
 20
8.0755501005
 30
0.0
  0
SPLINE
  5
2E1
100
AcDbEntity
  8
0
100
AcDbSpline
 62
7
  6
CONTINUOUS
 70
0
 71
3
 72
9
 73
5
 74
0
 42
0.0000001
 43
0.0000001
 44
0.0000000001
 40
0.0
 40
0.0
 40
0.0
 40
0.0
 40
0.4964521184
 40
1.0
 40
1.0
 40
1.0
 40
1.0
 10
9.2142444646
 20
9.1001942889
 30
0.0
 10
9.2210688738
 20
9.1117637596
 30
0.0
 10
9.2353713952
 20
9.1347430111
 30
0.0
 10
9.2505986847
 20
9.1571160537
 30
0.0
 10
9.2584588515
 20
9.168244282
 30
0.0
  0
SPLINE
  5
2E2
100
AcDbEntity
  8
0
100
AcDbSpline
 62
7
  6
CONTINUOUS
 70
0
 71
3
 72
18
 73
14
 74
0
 42
0.0000001
 43
0.0000001
 44
0.0000000001
 40
0.0
 40
0.0
 40
0.0
 40
0.0
 40
0.0544331148
 40
0.1090830509
 40
0.1641638235
 40
0.2198842057
 40
0.3339869516
 40
0.4529302406
 40
0.51464897
 40
0.5780448218
 40
0.7103432643
 40
0.8507563633
 40
1.0
 40
1.0
 40
1.0
 40
1.0
 10
8.7641662561
 20
8.100005468
 30
0.0
 10
8.7634915313
 20
8.1000522677
 30
0.0
 10
8.762142047
 20
8.1001903192
 30
0.0
 10
8.760129343
 20
8.1005297491
 30
0.0
 10
8.7581269606
 20
8.1010016227
 30
0.0
 10
8.7554512983
 20
8.1018132954
 30
0.0
 10
8.75212084
 20
8.103172763
 30
0.0
 10
8.7489038702
 20
8.1049392556
 30
0.0
 10
8.7463652833
 20
8.106599913
 30
0.0
 10
8.7437774518
 20
8.1084815467
 30
0.0
 10
8.7405780759
 20
8.1111751588
 30
0.0
 10
8.7368579846
 20
8.1148765922
 30
0.0
 10
8.7344979497
 20
8.117598349
 30
0.0
 10
8.7333278938
 20
8.1190370075
 30
0.0
  0
SPLINE
  5
2E3
100
AcDbEntity
  8
0
100
AcDbSpline
 62
7
  6
CONTINUOUS
 70
0
 71
3
 72
34
 73
30
 74
0
 42
0.0000001
 43
0.0000001
 44
0.0000000001
 40
0.0
 40
0.0
 40
0.0
 40
0.0
 40
0.0964164167
 40
0.1901935938
 40
0.280765618
 40
0.3675919936
 40
0.450165541
 40
0.489710715
 40
0.5280205573
 40
0.5650436975
 40
0.6007322964
 40
0.6350422085
 40
0.6679334199
 40
0.6993705694
 40
0.7293232848
 40
0.7577672679
 40
0.7846846437
 40
0.8100656615
 40
0.8339093282
 40
0.856226197
 40
0.8770397426
 40
0.8963905946
 40
0.9143394507
 40
0.9309734418
 40
0.9464110513
 40
0.9608097664
 40
0.9743703402
 40
0.9873389101
 40
1.0
 40
1.0
 40
1.0
 40
1.0
 10
8.1288718648
 20
8.5929543804
 30
0.0
 10
8.1288718648
 20
8.5881957075
 30
0.0
 10
8.1289726685
 20
8.578808253
 30
0.0
 10
8.1294371337
 20
8.5649575223
 30
0.0
 10
8.1302097968
 20
8.5515944149
 30
0.0
 10
8.1312854048
 20
8.5388070265
 30
0.0
 10
8.1324439817
 20
8.5285579643
 30
0.0
 10
8.1335246768
 20
8.5207137189
 30
0.0
 10
8.1343942468
 20
8.5151106332
 30
0.0
 10
8.1353330734
 20
8.5097118147
 30
0.0
 10
8.1363396003
 20
8.5045261328
 30
0.0
 10
8.1374121518
 20
8.4995621091
 30
0.0
 10
8.1385489462
 20
8.4948278866
 30
0.0
 10
8.1397480814
 20
8.4903312184
 30
0.0
 10
8.1410075881
 20
8.4860794515
 30
0.0
 10
8.142325353
 20
8.4820795034
 30
0.0
 10
8.143699252
 20
8.4783378595
 30
0.0
 10
8.1451269926
 20
8.4748605315
 30
0.0
 10
8.1466063493
 20
8.471653086
 30
0.0
 10
8.1481349262
 20
8.4687205598
 30
0.0
 10
8.1497105075
 20
8.4660675535
 30
0.0
 10
8.1513307511
 20
8.4636980998
 30
0.0
 10
8.1529936674
 20
8.4616159018
 30
0.0
 10
8.1546972391
 20
8.4598241789
 30
0.0
 10
8.15643995
 20
8.4583262053
 30
0.0
 10
8.1582200885
 20
8.4571252029
 30
0.0
 10
8.1600361001
 20
8.4562251311
 30
0.0
 10
8.1618842798
 20
8.4556300753
 30
0.0
 10
8.1631413023
 20
8.4554384738
 30
0.0
 10
8.1637646984
 20
8.4553952404
 30
0.0
  0
SPLINE
  5
2E4
100
AcDbEntity
  8
0
100
AcDbSpline
 62
7
  6
CONTINUOUS
 70
0
 71
3
 72
11
 73
7
 74
0
 42
0.0000001
 43
0.0000001
 44
0.0000000001
 40
0.0
 40
0.0
 40
0.0
 40
0.0
 40
0.2444990495
 40
0.4928692225
 40
0.7448170969
 40
1.0
 40
1.0
 40
1.0
 40
1.0
 10
8.6265650165
 20
8.4553226216
 30
0.0
 10
8.6244796642
 20
8.4610492777
 30
0.0
 10
8.6199766337
 20
8.4724860331
 30
0.0
 10
8.612394042
 20
8.4894384901
 30
0.0
 10
8.6040259599
 20
8.5063139813
 30
0.0
 10
8.5980229993
 20
8.5174415376
 30
0.0
 10
8.5949210307
 20
8.5229947431
 30
0.0
  0
SPLINE
  5
2E5
100
AcDbEntity
  8
0
100
AcDbSpline
 62
7
  6
CONTINUOUS
 70
0
 71
3
 72
12
 73
8
 74
0
 42
0.0000001
 43
0.0000001
 44
0.0000000001
 40
0.0
 40
0.0
 40
0.0
 40
0.0
 40
0.2509689156
 40
0.5013662768
 40
0.751074692
 40
0.8756445657
 40
1.0
 40
1.0
 40
1.0
 40
1.0
 10
8.5949210307
 20
8.5229947431
 30
0.0
 10
8.5988347207
 20
8.5320269825
 30
0.0
 10
8.6063467164
 20
8.550206326
 30
0.0
 10
8.6164987381
 20
8.5778700711
 30
0.0
 10
8.6238641242
 20
8.6012502261
 30
0.0
 10
8.6289993123
 20
8.6201238363
 30
0.0
 10
8.6313013194
 20
8.6296137616
 30
0.0
 10
8.6323825844
 20
8.6343699675
 30
0.0
  0
SPLINE
  5
2E6
100
AcDbEntity
  8
0
100
AcDbSpline
 62
7
  6
CONTINUOUS
 70
0
 71
3
 72
11
 73
7
 74
0
 42
0.0000001
 43
0.0000001
 44
0.0000000001
 40
0.0
 40
0.0
 40
0.0
 40
0.0
 40
0.2509318907
 40
0.5011853476
 40
0.7508462357
 40
1.0
 40
1.0
 40
1.0
 40
1.0
 10
8.6444210279
 20
8.7381375516
 30
0.0
 10
8.6444833464
 20
8.746269874
 30
0.0
 10
8.6442185438
 20
8.762517747
 30
0.0
 10
8.6427465817
 20
8.7868144758
 30
0.0
 10
8.640313974
 20
8.8109748255
 30
0.0
 10
8.6381267674
 20
8.8269959154
 30
0.0
 10
8.6369106139
 20
8.8349787417
 30
0.0
  0
SPLINE
  5
2E7
100
AcDbEntity
  8
0
100
AcDbSpline
 62
7
  6
CONTINUOUS
 70
0
 71
3
 72
29
 73
25
 74
0
 42
0.0000001
 43
0.0000001
 44
0.0000000001
 40
0.0
 40
0.0
 40
0.0
 40
0.0
 40
0.0609109478
 40
0.1219348978
 40
0.1830995554
 40
0.2444369244
 40
0.3059825011
 40
0.3368492231
 40
0.3677814305
 40
0.398782897
 40
0.4298566719
 40
0.4610048235
 40
0.4922286388
 40
0.5235282716
 40
0.5549027718
 40
0.5863502947
 40
0.6178679442
 40
0.6494521666
 40
0.6810989411
 40
0.7445544616
 40
0.8082061104
 40
0.8720180361
 40
0.9359581935
 40
1.0
 40
1.0
 40
1.0
 40
1.0
 10
8.4967271899
 20
8.5298045091
 30
0.0
 10
8.4944920678
 20
8.5360948397
 30
0.0
 10
8.4902488802
 20
8.5487711737
 30
0.0
 10
8.4846849044
 20
8.5680582496
 30
0.0
 10
8.4800436329
 20
8.5876384475
 30
0.0
 10
8.4764650837
 20
8.6075004079
 30
0.0
 10
8.4744916191
 20
8.6242477272
 30
0.0
 10
8.4735843433
 20
8.6377376348
 30
0.0
 10
8.4732544306
 20
8.6479050742
 30
0.0
 10
8.4732890949
 20
8.6581005322
 30
0.0
 10
8.4736989734
 20
8.6683116153
 30
0.0
 10
8.4744912324
 20
8.6785246613
 30
0.0
 10
8.4756696397
 20
8.6887253303
 30
0.0
 10
8.4772343349
 20
8.6988990086
 30
0.0
 10
8.4791812404
 20
8.7090314133
 30
0.0
 10
8.4815027975
 20
8.7191090265
 30
0.0
 10
8.4841883039
 20
8.7291194653
 30
0.0
 10
8.487223989
 20
8.7390520985
 30
0.0
 10
8.4917207844
 20
8.7521903704
 30
0.0
 10
8.4981357358
 20
8.7683760514
 30
0.0
 10
8.5069430612
 20
8.7873668196
 30
0.0
 10
8.5167174187
 20
8.8059365405
 30
0.0
 10
8.5273190034
 20
8.8240936926
 30
0.0
 10
8.5348510826
 20
8.8359302281
 30
0.0
 10
8.5387167732
 20
8.8417885077
 30
0.0
  0
SPLINE
  5
2E8
100
AcDbEntity
  8
0
100
AcDbSpline
 62
7
  6
CONTINUOUS
 70
0
 71
3
 72
11
 73
7
 74
0
 42
0.0000001
 43
0.0000001
 44
0.0000000001
 40
0.0
 40
0.0
 40
0.0
 40
0.0
 40
0.2604021227
 40
0.5142350191
 40
0.7609502882
 40
1.0
 40
1.0
 40
1.0
 40
1.0
 10
8.6369106139
 20
8.8349787417
 30
0.0
 10
8.6394339133
 20
8.8360612707
 30
0.0
 10
8.6444018095
 20
8.8382343623
 30
0.0
 10
8.6516998268
 20
8.8415694117
 30
0.0
 10
8.6587317456
 20
8.8449420231
 30
0.0
 10
8.6633025065
 20
8.8472546013
 30
0.0
 10
8.6655373864
 20
8.8484201747
 30
0.0
  0
SPLINE
  5
2E9
100
AcDbEntity
  8
0
100
AcDbSpline
 62
7
  6
CONTINUOUS
 70
0
 71
3
 72
24
 73
20
 74
0
 42
0.0000001
 43
0.0000001
 44
0.0000000001
 40
0.0
 40
0.0
 40
0.0
 40
0.0
 40
0.0686429053
 40
0.1350856926
 40
0.199340949
 40
0.2614768585
 40
0.3216366874
 40
0.3800564765
 40
0.4370879285
 40
0.4932159258
 40
0.5490629939
 40
0.6053784889
 40
0.6630054826
 40
0.7228273364
 40
0.785708015
 40
0.8524372567
 40
0.8874691938
 40
0.9237038871
 40
1.0
 40
1.0
 40
1.0
 40
1.0
 10
8.5387167732
 20
8.8417885077
 30
0.0
 10
8.5380090553
 20
8.8426836164
 30
0.0
 10
8.5366541041
 20
8.8444755879
 30
0.0
 10
8.5347901612
 20
8.8472172857
 30
0.0
 10
8.533142567
 20
8.8499694337
 30
0.0
 10
8.5317279902
 20
8.8527320507
 30
0.0
 10
8.5305638061
 20
8.8555049798
 30
0.0
 10
8.5296686463
 20
8.8582879181
 30
0.0
 10
8.5290619849
 20
8.8610800297
 30
0.0
 10
8.5287639679
 20
8.8638796474
 30
0.0
 10
8.5287947402
 20
8.866683839
 30
0.0
 10
8.5291732167
 20
8.8694882518
 30
0.0
 10
8.5299162362
 20
8.8722873726
 30
0.0
 10
8.531037242
 20
8.8750753736
 30
0.0
 10
8.5325460634
 20
8.8778467693
 30
0.0
 10
8.5341064746
 20
8.8801013628
 30
0.0
 10
8.5355423072
 20
8.8818912393
 30
0.0
 10
8.5371625479
 20
8.8837339071
 30
0.0
 10
8.538487527
 20
8.8850581343
 30
0.0
 10
8.5394159823
 20
8.8859221873
 30
0.0
  0
SPLINE
  5
2EA
100
AcDbEntity
  8
0
100
AcDbSpline
 62
7
  6
CONTINUOUS
 70
0
 71
3
 72
43
 73
39
 74
0
 42
0.0000001
 43
0.0000001
 44
0.0000000001
 40
0.0
 40
0.0
 40
0.0
 40
0.0
 40
0.0815756552
 40
0.164523768
 40
0.2479059763
 40
0.3307759735
 40
0.3717259713
 40
0.41219731
 40
0.4520760978
 40
0.4912506311
 40
0.5296118168
 40
0.5670536258
 40
0.6034736204
 40
0.6387734145
 40
0.67285916
 40
0.7056420988
 40
0.7370392511
 40
0.7669741327
 40
0.7953775229
 40
0.8221884649
 40
0.847355581
 40
0.8708388024
 40
0.8819408777
 40
0.8926132443
 40
0.9028552611
 40
0.9126675456
 40
0.9220520607
 40
0.9310126779
 40
0.9395549994
 40
0.9476869571
 40
0.9554191478
 40
0.9627650126
 40
0.9697417186
 40
0.9763703642
 40
0.9826766809
 40
0.9886917082
 40
0.9944519773
 40
1.0
 40
1.0
 40
1.0
 40
1.0
 10
8.4328375751
 20
8.5485627277
 30
0.0
 10
8.4328375751
 20
8.5582852235
 30
0.0
 10
8.4331292983
 20
8.5778948186
 30
0.0
 10
8.4343973203
 20
8.6074175607
 30
0.0
 10
8.4364861369
 20
8.6370483339
 30
0.0
 10
8.438899037
 20
8.6616288121
 30
0.0
 10
8.4412250649
 20
8.68107159
 30
0.0
 10
8.4431492109
 20
8.6954005193
 30
0.0
 10
8.4452538693
 20
8.7094901256
 30
0.0
 10
8.4475326745
 20
8.7232978162
 30
0.0
 10
8.4499786933
 20
8.7367818152
 30
0.0
 10
8.4525844981
 20
8.7499013438
 30
0.0
 10
8.4553421525
 20
8.7626167417
 30
0.0
 10
8.458243258
 20
8.7748895904
 30
0.0
 10
8.4612789791
 20
8.786682823
 30
0.0
 10
8.4644400746
 20
8.797960845
 30
0.0
 10
8.4677169092
 20
8.8086896596
 30
0.0
 10
8.4710994864
 20
8.8188369915
 30
0.0
 10
8.4745774973
 20
8.8283723593
 30
0.0
 10
8.4781403648
 20
8.8372672808
 30
0.0
 10
8.4817772724
 20
8.845495071
 30
0.0
 10
8.4849166515
 20
8.8518900696
 30
0.0
 10
8.4874643018
 20
8.8566450294
 30
0.0
 10
8.4893508753
 20
8.8599623934
 30
0.0
 10
8.4912477087
 20
8.8630955621
 30
0.0
 10
8.4931533972
 20
8.8660422176
 30
0.0
 10
8.4950665827
 20
8.868800141
 30
0.0
 10
8.4969857961
 20
8.8713673321
 30
0.0
 10
8.498909693
 20
8.8737418757
 30
0.0
 10
8.5008369053
 20
8.8759220185
 30
0.0
 10
8.5027660407
 20
8.8779061958
 30
0.0
 10
8.5046958628
 20
8.8796928695
 30
0.0
 10
8.5066250351
 20
8.8812807373
 30
0.0
 10
8.5085523496
 20
8.8826685316
 30
0.0
 10
8.5104766054
 20
8.8838550101
 30
0.0
 10
8.512396617
 20
8.8848391369
 30
0.0
 10
8.5143109122
 20
8.8856196288
 30
0.0
 10
8.5156035964
 20
8.8860098599
 30
0.0
 10
8.516245542
 20
8.8861684059
 30
0.0
  0
SPLINE
  5
2EB
100
AcDbEntity
  8
0
100
AcDbSpline
 62
7
  6
CONTINUOUS
 70
0
 71
3
 72
11
 73
7
 74
0
 42
0.0000001
 43
0.0000001
 44
0.0000000001
 40
0.0
 40
0.0
 40
0.0
 40
0.0
 40
0.2550871152
 40
0.5058411312
 40
0.7536611259
 40
1.0
 40
1.0
 40
1.0
 40
1.0
 10
8.516245542
 20
8.8861684059
 30
0.0
 10
8.5167015575
 20
8.8862810313
 30
0.0
 10
8.5176143392
 20
8.8864716583
 30
0.0
 10
8.5189918407
 20
8.8866511198
 30
0.0
 10
8.5203631236
 20
8.8867211173
 30
0.0
 10
8.5212738377
 20
8.886694705
 30
0.0
 10
8.5217263598
 20
8.8866633278
 30
0.0
  0
SPLINE
  5
2EC
100
AcDbEntity
  8
0
100
AcDbSpline
 62
7
  6
CONTINUOUS
 70
0
 71
3
 72
49
 73
45
 74
0
 42
0.0000001
 43
0.0000001
 44
0.0000000001
 40
0.0
 40
0.0
 40
0.0
 40
0.0
 40
0.0417734423
 40
0.0840377331
 40
0.1266589082
 40
0.1695072551
 40
0.2124490149
 40
0.2553511506
 40
0.2980805305
 40
0.3405047234
 40
0.3824925315
 40
0.4239144705
 40
0.4646433185
 40
0.5045546742
 40
0.5435275128
 40
0.5814447342
 40
0.6181937445
 40
0.6536670749
 40
0.6877630908
 40
0.7203867414
 40
0.7514503681
 40
0.7808746884
 40
0.8085899995
 40
0.8345377469
 40
0.8468347846
 40
0.8586741197
 40
0.870052699
 40
0.8809684554
 40
0.8914209317
 40
0.9014110911
 40
0.9109416821
 40
0.920017652
 40
0.9286461112
 40
0.9368371908
 40
0.9446041314
 40
0.9519640157
 40
0.958938487
 40
0.9655541599
 40
0.9718436983
 40
0.9778461105
 40
0.9836072983
 40
0.9891800125
 40
0.9946230557
 40
1.0
 40
1.0
 40
1.0
 40
1.0
 10
8.4270420198
 20
8.5489646508
 30
0.0
 10
8.4270420198
 20
8.5540203032
 30
0.0
 10
8.4271209058
 20
8.564191172
 30
0.0
 10
8.427469578
 20
8.579516698
 30
0.0
 10
8.4280483436
 20
8.5949654675
 30
0.0
 10
8.4288552251
 20
8.6104860866
 30
0.0
 10
8.4298876115
 20
8.6260274163
 30
0.0
 10
8.4311420717
 20
8.6415379543
 30
0.0
 10
8.4326144535
 20
8.656966409
 30
0.0
 10
8.4342998718
 20
8.6722617367
 30
0.0
 10
8.4361927336
 20
8.68737334
 30
0.0
 10
8.438286757
 20
8.7022512329
 30
0.0
 10
8.4405749916
 20
8.7168462059
 30
0.0
 10
8.4430498302
 20
8.7311099963
 30
0.0
 10
8.4457030389
 20
8.7449954506
 30
0.0
 10
8.4485257901
 20
8.7584566798
 30
0.0
 10
8.4515086877
 20
8.7714492112
 30
0.0
 10
8.4546418019
 20
8.7839301436
 30
0.0
 10
8.4579146914
 20
8.7958583018
 30
0.0
 10
8.4613164397
 20
8.8071943916
 30
0.0
 10
8.4648357032
 20
8.8179011124
 30
0.0
 10
8.4684607505
 20
8.8279433824
 30
0.0
 10
8.4721795163
 20
8.8372881849
 30
0.0
 10
8.4754014301
 20
8.844594494
 30
0.0
 10
8.4780242178
 20
8.8500596132
 30
0.0
 10
8.4799717841
 20
8.8538917339
 30
0.0
 10
8.4819334674
 20
8.8575278066
 30
0.0
 10
8.4839077563
 20
8.8609648366
 30
0.0
 10
8.4858929766
 20
8.8642000452
 30
0.0
 10
8.487887535
 20
8.8672308026
 30
0.0
 10
8.4898898545
 20
8.8700546395
 30
0.0
 10
8.4918982763
 20
8.8726693207
 30
0.0
 10
8.4939113082
 20
8.8750726966
 30
0.0
 10
8.4959273392
 20
8.8772628826
 30
0.0
 10
8.4979448902
 20
8.8792381007
 30
0.0
 10
8.4999625237
 20
8.8809967065
 30
0.0
 10
8.501978768
 20
8.882537278
 30
0.0
 10
8.5039923396
 20
8.8838583202
 30
0.0
 10
8.5060018205
 20
8.8849585726
 30
0.0
 10
8.5080058697
 20
8.885836667
 30
0.0
 10
8.5100029497
 20
8.8864912552
 30
0.0
 10
8.5119913825
 20
8.8869211772
 30
0.0
 10
8.5139687904
 20
8.8871252459
 30
0.0
 10
8.5152816158
 20
8.8871102647
 30
0.0
 10
8.5159308045
 20
8.8870652509
 30
0.0
  0
SPLINE
  5
2ED
100
AcDbEntity
  8
0
100
AcDbSpline
 62
7
  6
CONTINUOUS
 70
0
 71
3
 72
33
 73
29
 74
0
 42
0.0000001
 43
0.0000001
 44
0.0000000001
 40
0.0
 40
0.0
 40
0.0
 40
0.0
 40
0.0762774609
 40
0.1537878624
 40
0.2318262122
 40
0.3096788918
 40
0.3866351973
 40
0.4619948199
 40
0.498862834
 40
0.5350780844
 40
0.5705597503
 40
0.6052292747
 40
0.6390105963
 40
0.671830554
 40
0.7036192018
 40
0.7343100294
 40
0.763840459
 40
0.7921523393
 40
0.8191922445
 40
0.8449121487
 40
0.8692703061
 40
0.8922318983
 40
0.9137702188
 40
0.9338684386
 40
0.9525214069
 40
0.9697384211
 40
0.9855473793
 40
1.0
 40
1.0
 40
1.0
 40
1.0
 10
8.4550284851
 20
8.5484975021
 30
0.0
 10
8.4550284851
 20
8.557035245
 30
0.0
 10
8.4552581721
 20
8.5742494776
 30
0.0
 10
8.4562602679
 20
8.6001809925
 30
0.0
 10
8.4579141627
 20
8.6262559097
 30
0.0
 10
8.4602038203
 20
8.652220444
 30
0.0
 10
8.4631068568
 20
8.6778218316
 30
0.0
 10
8.4660343122
 20
8.6987966249
 30
0.0
 10
8.4686682669
 20
8.7152022036
 30
0.0
 10
8.4707632975
 20
8.7271723625
 30
0.0
 10
8.4729870396
 20
8.7388688931
 30
0.0
 10
8.4753340741
 20
8.7502633319
 30
0.0
 10
8.4777986688
 20
8.7613279267
 30
0.0
 10
8.4803747781
 20
8.7720357535
 30
0.0
 10
8.4830560805
 20
8.7823607668
 30
0.0
 10
8.4858360232
 20
8.7922778574
 30
0.0
 10
8.4887077919
 20
8.8017629353
 30
0.0
 10
8.4916643291
 20
8.8107929928
 30
0.0
 10
8.4946984004
 20
8.8193461479
 30
0.0
 10
8.4978025879
 20
8.8274017197
 30
0.0
 10
8.5009692767
 20
8.834940308
 30
0.0
 10
8.5041907512
 20
8.8419438295
 30
0.0
 10
8.5074592252
 20
8.8483955747
 30
0.0
 10
8.5107668501
 20
8.8542803408
 30
0.0
 10
8.5141057834
 20
8.8595843763
 30
0.0
 10
8.5174686291
 20
8.8642956868
 30
0.0
 10
8.5208475916
 20
8.8684031736
 30
0.0
 10
8.5232093822
 20
8.8708388191
 30
0.0
 10
8.5243935614
 20
8.8719409163
 30
0.0
  0
SPLINE
  5
2EE
100
AcDbEntity
  8
0
100
AcDbSpline
 62
7
  6
CONTINUOUS
 70
0
 71
3
 72
30
 73
26
 74
0
 42
0.0000001
 43
0.0000001
 44
0.0000000001
 40
0.0
 40
0.0
 40
0.0
 40
0.0
 40
0.0851783756
 40
0.1685816365
 40
0.2498839309
 40
0.3287752624
 40
0.4049558568
 40
0.478142334
 40
0.5480682906
 40
0.6144874136
 40
0.6771762784
 40
0.7070603224
 40
0.7359404511
 40
0.7637967824
 40
0.7906121293
 40
0.8163713746
 40
0.8410627662
 40
0.864677223
 40
0.8872097084
 40
0.9086589292
 40
0.9290285951
 40
0.948327856
 40
0.9665723377
 40
0.9837855667
 40
1.0
 40
1.0
 40
1.0
 40
1.0
 10
8.4550284851
 20
8.5484975021
 30
0.0
 10
8.4550284851
 20
8.5429964958
 30
0.0
 10
8.4551222299
 20
8.5321088589
 30
0.0
 10
8.4555521537
 20
8.5159756602
 30
0.0
 10
8.4562682353
 20
8.5002589474
 30
0.0
 10
8.4572673222
 20
8.4850250337
 30
0.0
 10
8.45854512
 20
8.4703378871
 30
0.0
 10
8.4600960928
 20
8.4562592972
 30
0.0
 10
8.4619135361
 20
8.4428483123
 30
0.0
 10
8.4639896455
 20
8.4301612986
 30
0.0
 10
8.4659578193
 20
8.4200815572
 30
0.0
 10
8.4676639415
 20
8.4124252699
 30
0.0
 10
8.468982045
 20
8.4069882688
 30
0.0
 10
8.470357725
 20
8.4017702239
 30
0.0
 10
8.4717894771
 20
8.3967765873
 30
0.0
 10
8.473275866
 20
8.3920125921
 30
0.0
 10
8.4748152405
 20
8.3874831974
 30
0.0
 10
8.476406066
 20
8.3831931287
 30
0.0
 10
8.4780466097
 20
8.3791468225
 30
0.0
 10
8.4797352214
 20
8.3753484685
 30
0.0
 10
8.4814701436
 20
8.371801959
 30
0.0
 10
8.4832496139
 20
8.3685109231
 30
0.0
 10
8.4850719404
 20
8.365478666
 30
0.0
 10
8.4869351924
 20
8.3627083698
 30
0.0
 10
8.4882417445
 20
8.3609877774
 30
0.0
 10
8.4889024697
 20
8.3601753773
 30
0.0
  0
SPLINE
  5
2EF
100
AcDbEntity
  8
0
100
AcDbSpline
 62
7
  6
CONTINUOUS
 70
0
 71
3
 72
49
 73
45
 74
0
 42
0.0000001
 43
0.0000001
 44
0.0000000001
 40
0.0
 40
0.0
 40
0.0
 40
0.0
 40
0.0417734179
 40
0.0840376863
 40
0.1266588354
 40
0.1695071569
 40
0.2124488959
 40
0.2553510027
 40
0.2980803641
 40
0.340504534
 40
0.3824923194
 40
0.4239142461
 40
0.4646430708
 40
0.5045544177
 40
0.5435272437
 40
0.5814444536
 40
0.6181934641
 40
0.6536667858
 40
0.6877628068
 40
0.720386461
 40
0.7514500934
 40
0.7808744292
 40
0.8085897515
 40
0.8345375197
 40
0.8468345688
 40
0.8586739142
 40
0.8700525042
 40
0.8809682735
 40
0.8914207643
 40
0.9014109383
 40
0.9109415436
 40
0.9200175277
 40
0.928646002
 40
0.9368370971
 40
0.9446040531
 40
0.9519639525
 40
0.958938438
 40
0.9655541239
 40
0.9718436739
 40
0.9778460964
 40
0.9836072927
 40
0.9891800125
 40
0.9946230575
 40
1.0
 40
1.0
 40
1.0
 40
1.0
 10
8.439573671
 20
8.5495692971
 30
0.0
 10
8.439573671
 20
8.5545223396
 30
0.0
 10
8.4396509559
 20
8.5644867801
 30
0.0
 10
8.4399925512
 20
8.5795012583
 30
0.0
 10
8.4405595695
 20
8.5946364787
 30
0.0
 10
8.4413500739
 20
8.6098420907
 30
0.0
 10
8.4423615061
 20
8.6250679926
 30
0.0
 10
8.4435905047
 20
8.6402637286
 30
0.0
 10
8.4450330019
 20
8.6553790471
 30
0.0
 10
8.4466842113
 20
8.6703639411
 30
0.0
 10
8.4485386543
 20
8.6851688403
 30
0.0
 10
8.4505901756
 20
8.6997447725
 30
0.0
 10
8.4528319664
 20
8.7140435285
 30
0.0
 10
8.4552565739
 20
8.7280178233
 30
0.0
 10
8.4578559309
 20
8.7416214622
 30
0.0
 10
8.4606213898
 20
8.7548094869
 30
0.0
 10
8.4635437443
 20
8.7675383269
 30
0.0
 10
8.4666132668
 20
8.7797659531
 30
0.0
 10
8.4698197278
 20
8.7914520244
 30
0.0
 10
8.473152432
 20
8.8025580457
 30
0.0
 10
8.476600267
 20
8.8130474725
 30
0.0
 10
8.4801517382
 20
8.8228859351
 30
0.0
 10
8.4837950265
 20
8.8320410877
 30
0.0
 10
8.4869515469
 20
8.8391991185
 30
0.0
 10
8.4895211014
 20
8.8445533272
 30
0.0
 10
8.4914291392
 20
8.8483076784
 30
0.0
 10
8.4933510074
 20
8.8518699607
 30
0.0
 10
8.4952852257
 20
8.8552372405
 30
0.0
 10
8.4972301535
 20
8.8584067956
 30
0.0
 10
8.4991842299
 20
8.8613760494
 30
0.0
 10
8.50114591
 20
8.8641425824
 30
0.0
 10
8.5031135685
 20
8.866704205
 30
0.0
 10
8.5050857436
 20
8.8690588112
 30
0.0
 10
8.5070608571
 20
8.8712045547
 30
0.0
 10
8.5090374597
 20
8.8731396937
 30
0.0
 10
8.5110141433
 20
8.874862617
 30
0.0
 10
8.512989466
 20
8.8763719313
 30
0.0
 10
8.5149621701
 20
8.8776661722
 30
0.0
 10
8.5169308667
 20
8.8787441048
 30
0.0
 10
8.518894242
 20
8.8796043885
 30
0.0
 10
8.5208507897
 20
8.8802457025
 30
0.0
 10
8.5227988656
 20
8.8806669105
 30
0.0
 10
8.5247361404
 20
8.8808668495
 30
0.0
 10
8.5260223215
 20
8.8808521805
 30
0.0
 10
8.5266583347
 20
8.8808080843
 30
0.0
  0
SPLINE
  5
2F0
100
AcDbEntity
  8
0
100
AcDbSpline
 62
7
  6
CONTINUOUS
 70
0
 71
3
 72
37
 73
33
 74
0
 42
0.0000001
 43
0.0000001
 44
0.0000000001
 40
0.0
 40
0.0
 40
0.0
 40
0.0
 40
0.0964146077
 40
0.1901892832
 40
0.2807594502
 40
0.3675838679
 40
0.4094327907
 40
0.4501580136
 40
0.4897023299
 40
0.5280113114
 40
0.565033609
 40
0.6007214722
 40
0.6350305592
 40
0.6679210896
 40
0.6993574715
 40
0.7293095614
 40
0.7577528807
 40
0.7846696619
 40
0.8100500951
 40
0.8338932191
 40
0.856209566
 40
0.8770226697
 40
0.896373012
 40
0.9143215277
 40
0.9309550362
 40
0.9463923981
 40
0.9607906879
 40
0.9743510158
 40
0.9808967821
 40
0.9873288522
 40
0.9936838838
 40
1.0
 40
1.0
 40
1.0
 40
1.0
 10
8.439573671
 20
8.5495692971
 30
0.0
 10
8.439573671
 20
8.5427028162
 30
0.0
 10
8.4397191252
 20
8.5291573403
 30
0.0
 10
8.4403893144
 20
8.5091715947
 30
0.0
 10
8.4415042591
 20
8.4898896299
 30
0.0
 10
8.4428130409
 20
8.4743282543
 30
0.0
 10
8.4440859657
 20
8.4623309383
 30
0.0
 10
8.445134715
 20
8.4536969727
 30
0.0
 10
8.4462873944
 20
8.4453306678
 30
0.0
 10
8.4475421117
 20
8.4372457866
 30
0.0
 10
8.4488967899
 20
8.4294556383
 30
0.0
 10
8.4503491295
 20
8.4219730346
 30
0.0
 10
8.4518967721
 20
8.4148102707
 30
0.0
 10
8.4535370736
 20
8.4079790954
 30
0.0
 10
8.4552673686
 20
8.4014906979
 30
0.0
 10
8.4570847417
 20
8.3953556741
 30
0.0
 10
8.4589862033
 20
8.3895840107
 30
0.0
 10
8.4609686462
 20
8.3841850628
 30
0.0
 10
8.4630287877
 20
8.3791675076
 30
0.0
 10
8.4651634018
 20
8.3745393747
 30
0.0
 10
8.46736905
 20
8.3703079372
 30
0.0
 10
8.4696424955
 20
8.366479816
 30
0.0
 10
8.4719804337
 20
8.3630608736
 30
0.0
 10
8.4743798764
 20
8.3600563676
 30
0.0
 10
8.4768380561
 20
8.3574710909
 30
0.0
 10
8.4793526929
 20
8.3553095274
 30
0.0
 10
8.4819211105
 20
8.353576719
 30
0.0
 10
8.4841310328
 20
8.3524815158
 30
0.0
 10
8.4859095696
 20
8.3518373621
 30
0.0
 10
8.4872377981
 20
8.3514691557
 30
0.0
 10
8.4885749235
 20
8.3512106759
 30
0.0
 10
8.4894730613
 20
8.3511115207
 30
0.0
 10
8.4899218069
 20
8.3510804082
 30
0.0
  0
SPLINE
  5
2F1
100
AcDbEntity
  8
0
100
AcDbSpline
 62
7
  6
CONTINUOUS
 70
0
 71
3
 72
43
 73
39
 74
0
 42
0.0000001
 43
0.0000001
 44
0.0000000001
 40
0.0
 40
0.0
 40
0.0
 40
0.0
 40
0.0312821308
 40
0.0634260717
 40
0.0963525891
 40
0.1299796971
 40
0.1642229674
 40
0.1989959036
 40
0.2342102253
 40
0.2697761745
 40
0.3056028544
 40
0.3415985253
 40
0.3776708606
 40
0.4137273031
 40
0.4496753608
 40
0.4854228723
 40
0.5208783365
 40
0.5559512289
 40
0.5905522575
 40
0.624593708
 40
0.657989778
 40
0.6906568459
 40
0.7225138096
 40
0.753482454
 40
0.783487779
 40
0.812458393
 40
0.8403269604
 40
0.867030627
 40
0.892511547
 40
0.916717538
 40
0.9283282066
 40
0.9396036033
 40
0.9505391236
 40
0.9611307682
 40
0.9713751276
 40
0.9812693576
 40
0.9908114417
 40
1.0
 40
1.0
 40
1.0
 40
1.0
 10
9.7320974249
 20
8.8205390015
 30
0.0
 10
9.7302668667
 20
8.8126123533
 30
0.0
 10
9.7267011745
 20
8.7965066781
 30
0.0
 10
9.7216983732
 20
8.7719524932
 30
0.0
 10
9.7169780518
 20
8.7467217516
 30
0.0
 10
9.7125532009
 20
8.7208835323
 30
0.0
 10
9.7084359766
 20
8.6945084523
 30
0.0
 10
9.7046376825
 20
8.6676686517
 30
0.0
 10
9.7011687422
 20
8.6404375391
 30
0.0
 10
9.6980386731
 20
8.6128896038
 30
0.0
 10
9.6952560607
 20
8.5851002017
 30
0.0
 10
9.6928285339
 20
8.5571453545
 30
0.0
 10
9.6907627471
 20
8.5291015409
 30
0.0
 10
9.6890643497
 20
8.5010454856
 30
0.0
 10
9.6877379819
 20
8.4730539444
 30
0.0
 10
9.6867872602
 20
8.4452034963
 30
0.0
 10
9.6862147699
 20
8.4175703316
 30
0.0
 10
9.6860220545
 20
8.3902300447
 30
0.0
 10
9.6862096143
 20
8.3632574251
 30
0.0
 10
9.6867768911
 20
8.3367262491
 30
0.0
 10
9.6877222824
 20
8.3107090725
 30
0.0
 10
9.6890431409
 20
8.2852770348
 30
0.0
 10
9.6907357849
 20
8.2604996642
 30
0.0
 10
9.6927955038
 20
8.2364446806
 30
0.0
 10
9.6952165726
 20
8.2131778053
 30
0.0
 10
9.6979922524
 20
8.1907625623
 30
0.0
 10
9.7011148259
 20
8.1692601194
 30
0.0
 10
9.7045755985
 20
8.1487290298
 30
0.0
 10
9.7083649874
 20
8.1292253441
 30
0.0
 10
9.7118342285
 20
8.1136637312
 30
0.0
 10
9.7147765746
 20
8.1017751506
 30
0.0
 10
9.7170281645
 20
8.0932720988
 30
0.0
 10
9.7193537231
 20
8.0850640609
 30
0.0
 10
9.721751671
 20
8.0771566139
 30
0.0
 10
9.7242203271
 20
8.069555138
 30
0.0
 10
9.7267580823
 20
8.0622647904
 30
0.0
 10
9.7293630889
 20
8.0552905646
 30
0.0
 10
9.7311778066
 20
8.050769438
 30
0.0
 10
9.7320974249
 20
8.0485638906
 30
0.0
  0
SPLINE
  5
2F2
100
AcDbEntity
  8
0
100
AcDbSpline
 62
7
  6
CONTINUOUS
 70
0
 71
3
 72
31
 73
27
 74
0
 42
0.0000001
 43
0.0000001
 44
0.0000000001
 40
0.0
 40
0.0
 40
0.0
 40
0.0
 40
0.0719497998
 40
0.1428086735
 40
0.2124101221
 40
0.2805828745
 40
0.3471714028
 40
0.4120636814
 40
0.4438660716
 40
0.4752397887
 40
0.5061971451
 40
0.5367579611
 40
0.5669488321
 40
0.5968024795
 40
0.6263564904
 40
0.6556512986
 40
0.6847288075
 40
0.7136307912
 40
0.7423969754
 40
0.7710644117
 40
0.7996666176
 40
0.8282327082
 40
0.8853444762
 40
0.9139373917
 40
0.9425719236
 40
1.0
 40
1.0
 40
1.0
 40
1.0
 10
8.5368765067
 20
8.3011887624
 30
0.0
 10
8.5331043427
 20
8.3058264821
 30
0.0
 10
8.5257644975
 20
8.3151530587
 30
0.0
 10
8.5153848303
 20
8.3294326333
 30
0.0
 10
8.5058319891
 20
8.3439058963
 30
0.0
 10
8.4972414485
 20
8.3585634339
 30
0.0
 10
8.4897580138
 20
8.3733816291
 30
0.0
 10
8.4845293478
 20
8.3859167549
 30
0.0
 10
8.481050419
 20
8.3959757899
 30
0.0
 10
8.4788171385
 20
8.4034742207
 30
0.0
 10
8.4769526473
 20
8.4109665907
 30
0.0
 10
8.4754636683
 20
8.4184425279
 30
0.0
 10
8.4743537359
 20
8.4258914579
 30
0.0
 10
8.4736223821
 20
8.4333030214
 30
0.0
 10
8.4732654217
 20
8.4406674693
 30
0.0
 10
8.4732755328
 20
8.4479759966
 30
0.0
 10
8.473642092
 20
8.4552209598
 30
0.0
 10
8.4743519104
 20
8.4623960739
 30
0.0
 10
8.4753900893
 20
8.4694964531
 30
0.0
 10
8.4767400657
 20
8.4765185891
 30
0.0
 10
8.478384638
 20
8.4834604215
 30
0.0
 10
8.4809460615
 20
8.4926057212
 30
0.0
 10
8.4840288276
 20
8.501596024
 30
0.0
 10
8.4875583901
 20
8.5104173495
 30
0.0
 10
8.4913727262
 20
8.5191481657
 30
0.0
 10
8.4945210107
 20
8.5255736365
 30
0.0
 10
8.4967271899
 20
8.5298045091
 30
0.0
  0
SPLINE
  5
2F3
100
AcDbEntity
  8
0
100
AcDbSpline
 62
7
  6
CONTINUOUS
 70
0
 71
3
 72
37
 73
33
 74
0
 42
0.0000001
 43
0.0000001
 44
0.0000000001
 40
0.0
 40
0.0
 40
0.0
 40
0.0
 40
0.0063161131
 40
0.0126711437
 40
0.0191032155
 40
0.0256489862
 40
0.039209332
 40
0.0536076452
 40
0.0690450308
 40
0.0856785681
 40
0.1036271166
 40
0.122977486
 40
0.1437906138
 40
0.1661069897
 40
0.1899501392
 40
0.2153305874
 40
0.2422473848
 40
0.2706907237
 40
0.3006428222
 40
0.3320792051
 40
0.364969743
 40
0.3992788343
 40
0.4349666882
 40
0.4719889767
 40
0.5102979547
 40
0.5498422573
 40
0.590567458
 40
0.6324163643
 40
0.7192407369
 40
0.8098108495
 40
0.9035854606
 40
1.0
 40
1.0
 40
1.0
 40
1.0
 10
8.4784330417
 20
8.3463639469
 30
0.0
 10
8.4779750007
 20
8.3463957067
 30
0.0
 10
8.4770582588
 20
8.3464969216
 30
0.0
 10
8.4756934365
 20
8.3467607641
 30
0.0
 10
8.4743376954
 20
8.3471366059
 30
0.0
 10
8.4725223181
 20
8.3477941142
 30
0.0
 10
8.4702666199
 20
8.3489120178
 30
0.0
 10
8.4676450009
 20
8.3506807353
 30
0.0
 10
8.4650782767
 20
8.3528870886
 30
0.0
 10
8.4625691794
 20
8.3555259318
 30
0.0
 10
8.4601200355
 20
8.3585926877
 30
0.0
 10
8.4577336702
 20
8.3620824636
 30
0.0
 10
8.4554131337
 20
8.3659898938
 30
0.0
 10
8.4531617989
 20
8.3703089944
 30
0.0
 10
8.4509829693
 20
8.3750330068
 30
0.0
 10
8.4488801551
 20
8.3801545071
 30
0.0
 10
8.4468566493
 20
8.3856653002
 30
0.0
 10
8.4449158018
 20
8.3915565287
 30
0.0
 10
8.4430607846
 20
8.3978186435
 30
0.0
 10
8.4412946496
 20
8.404441451
 30
0.0
 10
8.4396203722
 20
8.4114141368
 30
0.0
 10
8.4380406726
 20
8.4187252789
 30
0.0
 10
8.4365582502
 20
8.4263628852
 30
0.0
 10
8.4351755124
 20
8.4343144063
 30
0.0
 10
8.4338948058
 20
8.4425667652
 30
0.0
 10
8.4327182506
 20
8.4511063767
 30
0.0
 10
8.4316477784
 20
8.4599191924
 30
0.0
 10
8.4303484874
 20
8.4721650285
 30
0.0
 10
8.4290125964
 20
8.4880487517
 30
0.0
 10
8.4278745577
 20
8.5077301331
 30
0.0
 10
8.4271904868
 20
8.5281298723
 30
0.0
 10
8.4270420198
 20
8.5419559349
 30
0.0
 10
8.4270420198
 20
8.5489646508
 30
0.0
  0
SPLINE
  5
2F4
100
AcDbEntity
  8
0
100
AcDbSpline
 62
7
  6
CONTINUOUS
 70
0
 71
3
 72
11
 73
7
 74
0
 42
0.0000001
 43
0.0000001
 44
0.0000000001
 40
0.0
 40
0.0
 40
0.0
 40
0.0
 40
0.246098286
 40
0.4937768522
 40
0.744582428
 40
1.0
 40
1.0
 40
1.0
 40
1.0
 10
8.484228597
 20
8.3459620237
 30
0.0
 10
8.4837609373
 20
8.3459944505
 30
0.0
 10
8.4828248658
 20
8.3460986106
 30
0.0
 10
8.4814315148
 20
8.3463716563
 30
0.0
 10
8.4800477931
 20
8.3467613922
 30
0.0
 10
8.4791419604
 20
8.3470952513
 30
0.0
 10
8.4786920252
 20
8.3472803842
 30
0.0
  0
SPLINE
  5
2F5
100
AcDbEntity
  8
0
100
AcDbSpline
 62
7
  6
CONTINUOUS
 70
0
 71
3
 72
33
 73
29
 74
0
 42
0.0000001
 43
0.0000001
 44
0.0000000001
 40
0.0
 40
0.0
 40
0.0
 40
0.0
 40
0.0130805967
 40
0.0269241823
 40
0.041697973
 40
0.0575346404
 40
0.0745367849
 40
0.0927810616
 40
0.1123233008
 40
0.1332020073
 40
0.1554418524
 40
0.1790560879
 40
0.2040484504
 40
0.2304149475
 40
0.2581446191
 40
0.2872210649
 40
0.3176224569
 40
0.3493229669
 40
0.3822923449
 40
0.4164972487
 40
0.45190066
 40
0.4884630295
 40
0.5648897873
 40
0.6454118847
 40
0.7296269484
 40
0.8171040891
 40
0.9073867375
 40
1.0
 40
1.0
 40
1.0
 40
1.0
 10
8.4784660946
 20
8.3473749942
 30
0.0
 10
8.4776152082
 20
8.3477375214
 30
0.0
 10
8.4759145458
 20
8.3486073291
 30
0.0
 10
8.4734699439
 20
8.3502666019
 30
0.0
 10
8.4710722578
 20
8.3523076387
 30
0.0
 10
8.4687241426
 20
8.3547261779
 30
0.0
 10
8.4664276198
 20
8.3575186259
 30
0.0
 10
8.4641850302
 20
8.3606809799
 30
0.0
 10
8.4619989797
 20
8.364209
 30
0.0
 10
8.4598721455
 20
8.3680978991
 30
0.0
 10
8.4578073247
 20
8.3723423905
 30
0.0
 10
8.455807329
 20
8.3769366315
 30
0.0
 10
8.4538749131
 20
8.3818742285
 30
0.0
 10
8.4520128514
 20
8.3871482691
 30
0.0
 10
8.4502237423
 20
8.3927513042
 30
0.0
 10
8.4485102254
 20
8.3986754021
 30
0.0
 10
8.4468746937
 20
8.4049121292
 30
0.0
 10
8.4453195942
 20
8.411452597
 30
0.0
 10
8.4438470944
 20
8.4182874568
 30
0.0
 10
8.4424594151
 20
8.4254069262
 30
0.0
 10
8.4411584671
 20
8.4328008176
 30
0.0
 10
8.4395179376
 20
8.4431646763
 30
0.0
 10
8.4377098267
 20
8.456729763
 30
0.0
 10
8.435942777
 20
8.473692098
 30
0.0
 10
8.4345582617
 20
8.4914736053
 30
0.0
 10
8.4335644807
 20
8.50997219
 30
0.0
 10
8.4329673638
 20
8.5290817195
 30
0.0
 10
8.4328375751
 20
8.5420142734
 30
0.0
 10
8.4328375751
 20
8.5485627277
 30
0.0
  0
SPLINE
  5
2F6
100
AcDbEntity
  8
0
100
AcDbSpline
 62
7
  6
CONTINUOUS
 70
0
 71
3
 72
22
 73
18
 74
0
 42
0.0000001
 43
0.0000001
 44
0.0000000001
 40
0.0
 40
0.0
 40
0.0
 40
0.0
 40
0.0635329139
 40
0.1269636685
 40
0.190280171
 40
0.2534700007
 40
0.3165213624
 40
0.3794237505
 40
0.4421688334
 40
0.5047512446
 40
0.5671691689
 40
0.6294245308
 40
0.6915227777
 40
0.7534723518
 40
0.81528388
 40
0.8769693178
 40
1.0
 40
1.0
 40
1.0
 40
1.0
 10
9.1201015415
 20
8.1402448731
 30
0.0
 10
9.1170345552
 20
8.1519710131
 30
0.0
 10
9.1111761019
 20
8.1754764107
 30
0.0
 10
9.1032974328
 20
8.2109163748
 30
0.0
 10
9.0964245649
 20
8.2464994336
 30
0.0
 10
9.0906471936
 20
8.2822041959
 30
0.0
 10
9.0860496831
 20
8.3180011907
 30
0.0
 10
9.0827059961
 20
8.3538525433
 30
0.0
 10
9.0806741912
 20
8.3897131068
 30
0.0
 10
9.0799914319
 20
8.4255326106
 30
0.0
 10
9.0806706312
 20
8.4612588096
 30
0.0
 10
9.0826991772
 20
8.496841084
 30
0.0
 10
9.0860401583
 20
8.5322339806
 30
0.0
 10
9.0906356171
 20
8.5673997432
 30
0.0
 10
9.0964117641
 20
8.6023107262
 30
0.0
 10
9.1055657132
 20
8.6484489127
 30
0.0
 10
9.1139538713
 20
8.6826993823
 30
0.0
 10
9.1201015415
 20
8.7053513477
 30
0.0
  0
SPLINE
  5
2F7
100
AcDbEntity
  8
0
100
AcDbSpline
 62
7
  6
CONTINUOUS
 70
0
 71
3
 72
22
 73
18
 74
0
 42
0.0000001
 43
0.0000001
 44
0.0000000001
 40
0.0
 40
0.0
 40
0.0
 40
0.0
 40
0.1230306822
 40
0.18471612
 40
0.2465276482
 40
0.3084772223
 40
0.3705754692
 40
0.4328308311
 40
0.4952487554
 40
0.5578311666
 40
0.6205762495
 40
0.6834786376
 40
0.7465299993
 40
0.809719829
 40
0.8730363315
 40
0.9364670861
 40
1.0
 40
1.0
 40
1.0
 40
1.0
 10
9.6262116442
 20
8.1051460183
 30
0.0
 10
9.6323593144
 20
8.1277979838
 30
0.0
 10
9.6407474725
 20
8.1620484533
 30
0.0
 10
9.6499014216
 20
8.2081866398
 30
0.0
 10
9.6556775686
 20
8.2430976229
 30
0.0
 10
9.6602730274
 20
8.2782633854
 30
0.0
 10
9.6636140085
 20
8.3136562821
 30
0.0
 10
9.6656425545
 20
8.3492385565
 30
0.0
 10
9.6663217538
 20
8.3849647555
 30
0.0
 10
9.6656389945
 20
8.4207842593
 30
0.0
 10
9.6636071896
 20
8.4566448227
 30
0.0
 10
9.6602635026
 20
8.4924961753
 30
0.0
 10
9.6556659921
 20
8.5282931701
 30
0.0
 10
9.6498886208
 20
8.5639979324
 30
0.0
 10
9.6430157529
 20
8.5995809912
 30
0.0
 10
9.6351370839
 20
8.6350209553
 30
0.0
 10
9.6292786305
 20
8.6585263529
 30
0.0
 10
9.6262116442
 20
8.6702524929
 30
0.0
  0
SPLINE
  5
2F8
100
AcDbEntity
  8
0
100
AcDbSpline
 62
7
  6
CONTINUOUS
 70
0
 71
3
 72
22
 73
18
 74
0
 42
0.0000001
 43
0.0000001
 44
0.0000000001
 40
0.0
 40
0.0
 40
0.0
 40
0.0
 40
0.1201597137
 40
0.1804845939
 40
0.2410196043
 40
0.3018077059
 40
0.3628954603
 40
0.4243317832
 40
0.4861665095
 40
0.5484485731
 40
0.6112239897
 40
0.6745338343
 40
0.7384124228
 40
0.8028858824
 40
0.8679712826
 40
0.9336763872
 40
1.0
 40
1.0
 40
1.0
 40
1.0
 10
9.1273255537
 20
8.7590259981
 30
0.0
 10
9.1267376534
 20
8.7717423926
 30
0.0
 10
9.1263424945
 20
8.7908718154
 30
0.0
 10
9.1269243744
 20
8.816402183
 30
0.0
 10
9.1279530659
 20
8.8356222193
 30
0.0
 10
9.1296085269
 20
8.854879654
 30
0.0
 10
9.1319235356
 20
8.8741655253
 30
0.0
 10
9.1349275328
 20
8.8934686274
 30
0.0
 10
9.1386453496
 20
8.9127761253
 30
0.0
 10
9.1430960528
 20
8.9320737149
 30
0.0
 10
9.1482919456
 20
8.9513460919
 30
0.0
 10
9.1542378794
 20
8.9705774868
 30
0.0
 10
9.1609309401
 20
8.9897522876
 30
0.0
 10
9.1683605374
 20
9.0088556338
 30
0.0
 10
9.176508954
 20
9.0278740634
 30
0.0
 10
9.1853520517
 20
9.0467956265
 30
0.0
 10
9.1916620426
 20
9.059281605
 30
0.0
 10
9.1949212946
 20
9.0655064337
 30
0.0
  0
SPLINE
  5
2F9
100
AcDbEntity
  8
0
100
AcDbSpline
 62
7
  6
CONTINUOUS
 70
0
 71
3
 72
15
 73
11
 74
0
 42
0.0000001
 43
0.0000001
 44
0.0000000001
 40
0.0
 40
0.0
 40
0.0
 40
0.0
 40
0.1294875737
 40
0.2578215363
 40
0.3849208895
 40
0.5107134774
 40
0.6351417011
 40
0.7581682573
 40
0.8797816043
 40
1.0
 40
1.0
 40
1.0
 40
1.0
 10
9.6334356564
 20
8.7239271433
 30
0.0
 10
9.6386159033
 20
8.7312612078
 30
0.0
 10
9.648763356
 20
8.7459829367
 30
0.0
 10
9.6633474641
 20
8.768341563
 30
0.0
 10
9.6771622133
 20
8.7908845256
 30
0.0
 10
9.6901384556
 20
8.8136097924
 30
0.0
 10
9.7022083894
 20
8.8365111947
 30
0.0
 10
9.7133083791
 20
8.8595779181
 30
0.0
 10
9.7233819987
 20
8.8827933849
 30
0.0
 10
9.7294176933
 20
8.8984452378
 30
0.0
 10
9.7322477994
 20
8.9062864409
 30
0.0
  0
SPLINE
  5
2FA
100
AcDbEntity
  8
0
100
AcDbSpline
 62
7
  6
CONTINUOUS
 70
0
 71
3
 72
23
 73
19
 74
0
 42
0.0000001
 43
0.0000001
 44
0.0000000001
 40
0.0
 40
0.0
 40
0.0
 40
0.0
 40
0.0386791265
 40
0.0782497259
 40
0.1195404109
 40
0.1632719826
 40
0.2100390782
 40
0.2603109512
 40
0.3144472121
 40
0.3727130359
 40
0.4352995674
 40
0.5023346452
 40
0.5738992641
 40
0.6500318472
 40
0.7307406522
 40
0.8160036811
 40
0.9057785054
 40
1.0
 40
1.0
 40
1.0
 40
1.0
 10
8.1660478103
 20
8.4883161607
 30
0.0
 10
8.1655497065
 20
8.4883507088
 30
0.0
 10
8.1645458773
 20
8.4885014789
 30
0.0
 10
8.1630687242
 20
8.488966833
 30
0.0
 10
8.1616162692
 20
8.4896696494
 30
0.0
 10
8.160191306
 20
8.490606784
 30
0.0
 10
8.1587952181
 20
8.491775432
 30
0.0
 10
8.1574292181
 20
8.493173009
 30
0.0
 10
8.1560946391
 20
8.4947971776
 30
0.0
 10
8.1547928415
 20
8.4966454087
 30
0.0
 10
8.1535255074
 20
8.4987150457
 30
0.0
 10
8.1522942317
 20
8.5010030163
 30
0.0
 10
8.1511008704
 20
8.5035059823
 30
0.0
 10
8.1499470792
 20
8.5062201686
 30
0.0
 10
8.1488347129
 20
8.5091414996
 30
0.0
 10
8.1477653791
 20
8.5122655071
 30
0.0
 10
8.1467408458
 20
8.5155873846
 30
0.0
 10
8.1461038929
 20
8.5178758894
 30
0.0
 10
8.1457922469
 20
8.5190515704
 30
0.0
  0
SPLINE
  5
2FB
100
AcDbEntity
  8
0
100
AcDbSpline
 62
7
  6
CONTINUOUS
 70
0
 71
3
 72
32
 73
28
 74
0
 42
0.0000001
 43
0.0000001
 44
0.0000000001
 40
0.0
 40
0.0
 40
0.0
 40
0.0
 40
0.0144526564
 40
0.0302616024
 40
0.0474786656
 40
0.0661316463
 40
0.0862298536
 40
0.1077682828
 40
0.1307298579
 40
0.1550880143
 40
0.1808080507
 40
0.2078479468
 40
0.2361598539
 40
0.2656903794
 40
0.2963812244
 40
0.3281699555
 40
0.3609899751
 40
0.3947713241
 40
0.429440941
 40
0.4649226711
 40
0.5380042593
 40
0.6133640469
 40
0.6903204699
 40
0.7681732974
 40
0.8462119275
 40
0.923722277
 40
1.0
 40
1.0
 40
1.0
 40
1.0
 10
7.9847248591
 20
8.8304414959
 30
0.0
 10
7.9839041824
 20
8.8296777087
 30
0.0
 10
7.9822673933
 20
8.8279897242
 30
0.0
 10
7.9799256498
 20
8.8251431171
 30
0.0
 10
7.9775951017
 20
8.8218780227
 30
0.0
 10
7.9752811118
 20
8.8182021624
 30
0.0
 10
7.9729888057
 20
8.814123839
 30
0.0
 10
7.970723669
 20
8.809652565
 30
0.0
 10
7.9684910727
 20
8.8047989082
 30
0.0
 10
7.9662964461
 20
8.7995744295
 30
0.0
 10
7.9641451632
 20
8.7939916538
 30
0.0
 10
7.9620424393
 20
8.788064048
 30
0.0
 10
7.9599934628
 20
8.7818059315
 30
0.0
 10
7.9580032459
 20
8.7752324663
 30
0.0
 10
7.9560766432
 20
8.7683596052
 30
0.0
 10
7.9542184186
 20
8.7612040393
 30
0.0
 10
7.9524330924
 20
8.7537831711
 30
0.0
 10
7.9507250474
 20
8.7461150548
 30
0.0
 10
7.9490984687
 20
8.7382183345
 30
0.0
 10
7.9470232553
 20
8.7273027685
 30
0.0
 10
7.9446684309
 20
8.7132292313
 30
0.0
 10
7.9422511754
 20
8.6959108286
 30
0.0
 10
7.9402392882
 20
8.6781681586
 30
0.0
 10
7.9386524818
 20
8.6601739157
 30
0.0
 10
7.9375062867
 20
8.6421031577
 30
0.0
 10
7.9368117913
 20
8.6241317816
 30
0.0
 10
7.9366526139
 20
8.6122017704
 30
0.0
 10
7.9366526139
 20
8.6062848307
 30
0.0
  0
SPLINE
  5
2FC
100
AcDbEntity
  8
0
100
AcDbSpline
 62
7
  6
CONTINUOUS
 70
0
 71
3
 72
15
 73
11
 74
0
 42
0.0000001
 43
0.0000001
 44
0.0000000001
 40
0.0
 40
0.0
 40
0.0
 40
0.0
 40
0.1032818541
 40
0.2131648328
 40
0.3295844829
 40
0.4523442133
 40
0.5811474714
 40
0.7156297547
 40
0.8553871247
 40
1.0
 40
1.0
 40
1.0
 40
1.0
 10
9.7322477988
 20
7.9921762452
 30
0.0
 10
9.7293416308
 20
7.9952740998
 30
0.0
 10
9.7231407394
 20
8.001479409
 30
0.0
 10
9.7130631849
 20
8.0105517934
 30
0.0
 10
9.7019664977
 20
8.019666426
 30
0.0
 10
9.6899056388
 20
8.0288134616
 30
0.0
 10
9.6769423641
 20
8.0379843299
 30
0.0
 10
9.6631429343
 20
8.0471711416
 30
0.0
 10
9.6485751782
 20
8.0563670869
 30
0.0
 10
9.6385568769
 20
8.0624029568
 30
0.0
 10
9.6334356564
 20
8.0654270886
 30
0.0
  0
SPLINE
  5
2FD
100
AcDbEntity
  8
0
100
AcDbSpline
 62
7
  6
CONTINUOUS
 70
0
 71
3
 72
42
 73
38
 74
0
 42
0.0000001
 43
0.0000001
 44
0.0000000001
 40
0.0
 40
0.0
 40
0.0
 40
0.0
 40
0.0053770179
 40
0.0108201588
 40
0.0163929531
 40
0.0221542219
 40
0.0281567544
 40
0.0344463695
 40
0.0410621556
 40
0.0480367475
 40
0.0553967377
 40
0.0631638069
 40
0.0713550332
 40
0.0799836115
 40
0.0890597258
 40
0.0985904926
 40
0.108580758
 40
0.1190334432
 40
0.1413260992
 40
0.1654612845
 40
0.1914094963
 40
0.219125224
 40
0.2485499316
 40
0.2796140415
 40
0.3122382317
 40
0.346334758
 40
0.3818085897
 40
0.4185581742
 40
0.4564759627
 40
0.495449363
 40
0.5353613296
 40
0.5760907997
 40
0.6594993374
 40
0.7446519186
 40
0.8304949124
 40
0.9159631277
 40
1.0
 40
1.0
 40
1.0
 40
1.0
 10
8.1892243611
 20
8.8225134499
 30
0.0
 10
8.1887835846
 20
8.8225440184
 30
0.0
 10
8.187892218
 20
8.8225542179
 30
0.0
 10
8.1865496285
 20
8.8224156081
 30
0.0
 10
8.1851995466
 20
8.8221237251
 30
0.0
 10
8.1838435901
 20
8.8216792873
 30
0.0
 10
8.1824829202
 20
8.8210830619
 30
0.0
 10
8.1811185382
 20
8.8203360448
 30
0.0
 10
8.1797513964
 20
8.8194390886
 30
0.0
 10
8.1783824356
 20
8.8183930871
 30
0.0
 10
8.1770125255
 20
8.8171990544
 30
0.0
 10
8.1756426765
 20
8.8158579425
 30
0.0
 10
8.1742738636
 20
8.8143708722
 30
0.0
 10
8.1729070769
 20
8.8127390626
 30
0.0
 10
8.1715434246
 20
8.8109637778
 30
0.0
 10
8.1701839325
 20
8.8090464788
 30
0.0
 10
8.168829659
 20
8.8069887041
 30
0.0
 10
8.1669928683
 20
8.8039951798
 30
0.0
 10
8.1647257705
 20
8.7999050399
 30
0.0
 10
8.1620988749
 20
8.7945673106
 30
0.0
 10
8.1595187085
 20
8.7887164704
 30
0.0
 10
8.1569937906
 20
8.7823715982
 30
0.0
 10
8.1545324966
 20
8.7755532561
 30
0.0
 10
8.1521430377
 20
8.7682837424
 30
0.0
 10
8.1498333705
 20
8.7605869098
 30
0.0
 10
8.1476111885
 20
8.7524880865
 30
0.0
 10
8.1454839044
 20
8.7440139519
 30
0.0
 10
8.1434586209
 20
8.7351924568
 30
0.0
 10
8.1415420679
 20
8.7260527304
 30
0.0
 10
8.1397406307
 20
8.7166249753
 30
0.0
 10
8.1380602787
 20
8.7069403245
 30
0.0
 10
8.1359723532
 20
8.6936223496
 30
0.0
 10
8.133710961
 20
8.676571091
 30
0.0
 10
8.1315765477
 20
8.6557728327
 30
0.0
 10
8.130028933
 20
8.6347528732
 30
0.0
 10
8.1290885614
 20
8.6137889898
 30
0.0
 10
8.1288718648
 20
8.5998597786
 30
0.0
 10
8.1288718648
 20
8.5929543804
 30
0.0
  0
SPLINE
  5
2FE
100
AcDbEntity
  8
0
100
AcDbSpline
 62
7
  6
CONTINUOUS
 70
0
 71
3
 72
29
 73
25
 74
0
 42
0.0000001
 43
0.0000001
 44
0.0000000001
 40
0.0
 40
0.0
 40
0.0
 40
0.0
 40
0.0851777966
 40
0.1685829257
 40
0.2498848676
 40
0.328776734
 40
0.4049576687
 40
0.4781444436
 40
0.548070573
 40
0.6144898483
 40
0.6771788459
 40
0.735940585
 40
0.7637969906
 40
0.7906123574
 40
0.816371614
 40
0.8410630559
 40
0.8646774815
 40
0.8872099207
 40
0.9086591555
 40
0.9290287255
 40
0.9483280338
 40
0.9665724071
 40
0.98378559
 40
1.0
 40
1.0
 40
1.0
 40
1.0
 10
7.9366526139
 20
8.6062848307
 30
0.0
 10
7.9366526139
 20
8.6024724844
 30
0.0
 10
7.9367175889
 20
8.5949269482
 30
0.0
 10
7.9370155318
 20
8.5837460862
 30
0.0
 10
7.9375118161
 20
8.5728538134
 30
0.0
 10
7.938204212
 20
8.5622962026
 30
0.0
 10
7.9390897743
 20
8.5521174929
 30
0.0
 10
7.9401646532
 20
8.5423605395
 30
0.0
 10
7.9414242208
 20
8.5330662991
 30
0.0
 10
7.9428630206
 20
8.5242736909
 30
0.0
 10
7.9444748758
 20
8.516019604
 30
0.0
 10
7.9459820527
 20
8.5095073957
 30
0.0
 10
7.9472763457
 20
8.5045978077
 30
0.0
 10
7.9482686183
 20
8.5011370534
 30
0.0
 10
7.9492987424
 20
8.4978354542
 30
0.0
 10
7.9503655826
 20
8.4946964393
 30
0.0
 10
7.9514680858
 20
8.4917232905
 30
0.0
 10
7.9526050482
 20
8.4889190803
 30
0.0
 10
7.9537753065
 20
8.4862867048
 30
0.0
 10
7.9549776905
 20
8.4838288764
 30
0.0
 10
7.9562109105
 20
8.4815480867
 30
0.0
 10
7.9574738639
 20
8.479446655
 30
0.0
 10
7.958765168
 20
8.4775267697
 30
0.0
 10
7.9596706449
 20
8.4763343438
 30
0.0
 10
7.9601285582
 20
8.4757713339
 30
0.0
  0
SPLINE
  5
2FF
100
AcDbEntity
  8
0
100
AcDbSpline
 62
7
  6
CONTINUOUS
 70
0
 71
3
 72
61
 73
57
 74
0
 42
0.0000001
 43
0.0000001
 44
0.0000000001
 40
0.0
 40
0.0
 40
0.0
 40
0.0
 40
0.0075207654
 40
0.0156240854
 40
0.0243309487
 40
0.0336547233
 40
0.0436025595
 40
0.0541765193
 40
0.0653745823
 40
0.0771911577
 40
0.0896176938
 40
0.1026431297
 40
0.1162540531
 40
0.1304351037
 40
0.1451691478
 40
0.1604373752
 40
0.1762195741
 40
0.1924941538
 40
0.2092382714
 40
0.2264280223
 40
0.244038413
 40
0.2620435011
 40
0.2804165046
 40
0.2991298034
 40
0.3374627402
 40
0.3768089588
 40
0.4169261366
 40
0.457565689
 40
0.4984748853
 40
0.5393988531
 40
0.5800826045
 40
0.6202730564
 40
0.6597210524
 40
0.6981834246
 40
0.7169714799
 40
0.7354257349
 40
0.7535184163
 40
0.7712225016
 40
0.7885118815
 40
0.8053613316
 40
0.8217466619
 40
0.8376448144
 40
0.8530338666
 40
0.8678932791
 40
0.8822039434
 40
0.8959482684
 40
0.9091104913
 40
0.9216767528
 40
0.9336353715
 40
0.9449772198
 40
0.9556959761
 40
0.9657887345
 40
0.9752565109
 40
0.9841051717
 40
0.992346953
 40
1.0
 40
1.0
 40
1.0
 40
1.0
 10
8.7333278938
 20
8.1190370075
 30
0.0
 10
8.7317625744
 20
8.1209616676
 30
0.0
 10
8.7286783306
 20
8.1250981254
 30
0.0
 10
8.7243381011
 20
8.1318553413
 30
0.0
 10
8.7201217288
 20
8.1393798383
 30
0.0
 10
8.7160359836
 20
8.1476593382
 30
0.0
 10
8.7120870404
 20
8.1566809562
 30
0.0
 10
8.7082811968
 20
8.1664302141
 30
0.0
 10
8.7046247035
 20
8.1768914146
 30
0.0
 10
8.7011235576
 20
8.188047528
 30
0.0
 10
8.6977835561
 20
8.1998803096
 30
0.0
 10
8.6946103268
 20
8.2123703381
 30
0.0
 10
8.6916091272
 20
8.2254970294
 30
0.0
 10
8.688785002
 20
8.2392387118
 30
0.0
 10
8.6861427187
 20
8.2535726647
 30
0.0
 10
8.6836866622
 20
8.2684751532
 30
0.0
 10
8.6814209888
 20
8.2839214838
 30
0.0
 10
8.6793495049
 20
8.29988604
 30
0.0
 10
8.6774756535
 20
8.3163423308
 30
0.0
 10
8.6758026232
 20
8.3332630434
 30
0.0
 10
8.6743331995
 20
8.3506200862
 30
0.0
 10
8.6730698427
 20
8.3683846238
 30
0.0
 10
8.6720146897
 20
8.3865271722
 30
0.0
 10
8.6708787735
 20
8.4113798988
 30
0.0
 10
8.6700021408
 20
8.4431674439
 30
0.0
 10
8.6698069213
 20
8.4820268355
 30
0.0
 10
8.6704620748
 20
8.5216421324
 30
0.0
 10
8.6719634144
 20
8.5617501791
 30
0.0
 10
8.6743011071
 20
8.6020847144
 30
0.0
 10
8.6774596707
 20
8.6423779037
 30
0.0
 10
8.6814181163
 20
8.6823621884
 30
0.0
 10
8.6861500215
 20
8.7217721483
 30
0.0
 10
8.6916237921
 20
8.7603460093
 30
0.0
 10
8.6968124607
 20
8.7918217342
 30
0.0
 10
8.701316294
 20
8.8163850679
 30
0.0
 10
8.7048291833
 20
8.8342974065
 30
0.0
 10
8.7084974671
 20
8.8518134127
 30
0.0
 10
8.7123150845
 20
8.8689040094
 30
0.0
 10
8.7162756193
 20
8.8855408134
 30
0.0
 10
8.7203724963
 20
8.9016962032
 30
0.0
 10
8.7245988846
 20
8.9173433662
 30
0.0
 10
8.7289476961
 20
8.9324563479
 30
0.0
 10
8.7334117178
 20
8.9470100789
 30
0.0
 10
8.7379834778
 20
8.9609804495
 30
0.0
 10
8.74265533
 20
8.9743443384
 30
0.0
 10
8.7474195305
 20
8.9870796337
 30
0.0
 10
8.7522680898
 20
8.9991653225
 30
0.0
 10
8.757192947
 20
9.0105814956
 30
0.0
 10
8.7621859584
 20
9.0213093866
 30
0.0
 10
8.7672387999
 20
9.031331469
 30
0.0
 10
8.7723431985
 20
9.0406314204
 30
0.0
 10
8.7774908639
 20
9.0491941941
 30
0.0
 10
8.7826734018
 20
9.057006071
 30
0.0
 10
8.7878829874
 20
9.0640549053
 30
0.0
 10
8.7931112051
 20
9.070328934
 30
0.0
 10
8.7967350622
 20
9.0741258936
 30
0.0
 10
8.7985507988
 20
9.0758797605
 30
0.0
  0
SPLINE
  5
300
100
AcDbEntity
  8
0
100
AcDbSpline
 62
7
  6
CONTINUOUS
 70
0
 71
3
 72
15
 73
11
 74
0
 42
0.0000001
 43
0.0000001
 44
0.0000000001
 40
0.0
 40
0.0
 40
0.0
 40
0.0
 40
0.1347186203
 40
0.2653408076
 40
0.3925552372
 40
0.5170417024
 40
0.6394512023
 40
0.7603905783
 40
0.8804116802
 40
1.0
 40
1.0
 40
1.0
 40
1.0
 10
9.1331337757
 20
8.0569221054
 30
0.0
 10
9.1323660968
 20
8.058767707
 30
0.0
 10
9.1309694126
 20
8.0624522408
 30
0.0
 10
9.1292729323
 20
8.0680287185
 30
0.0
 10
9.1279951633
 20
8.0735602971
 30
0.0
 10
9.1271194909
 20
8.0790460692
 30
0.0
 10
9.1266281373
 20
8.0844858492
 30
0.0
 10
9.126502638
 20
8.0898798406
 30
0.0
 10
9.126724146
 20
8.0952283422
 30
0.0
 10
9.1270909436
 20
8.0987671246
 30
0.0
 10
9.1273255537
 20
8.1005259434
 30
0.0
  0
SPLINE
  5
301
100
AcDbEntity
  8
0
100
AcDbSpline
 62
7
  6
CONTINUOUS
 70
0
 71
3
 72
41
 73
37
 74
0
 42
0.0000001
 43
0.0000001
 44
0.0000000001
 40
0.0
 40
0.0
 40
0.0
 40
0.0
 40
0.0311444983
 40
0.062442467
 40
0.093887251
 40
0.1254695609
 40
0.157177086
 40
0.1889950997
 40
0.2209066479
 40
0.2528929497
 40
0.284933762
 40
0.3170077852
 40
0.3490930781
 40
0.3811674822
 40
0.4132090489
 40
0.445196464
 40
0.4771094635
 40
0.5089292351
 40
0.540638799
 40
0.5722233621
 40
0.6036706378
 40
0.6349711269
 40
0.6661183495
 40
0.6971090237
 40
0.7279431823
 40
0.7586242225
 40
0.7891588828
 40
0.8195571428
 40
0.8498320452
 40
0.86493089
 40
0.8800050502
 40
0.9100832578
 40
0.9400926753
 40
0.9550812784
 40
0.9700610371
 40
1.0
 40
1.0
 40
1.0
 40
1.0
 10
13.1606012878
 20
9.1974512223
 30
0.0
 10
13.1639152354
 20
9.1972213993
 30
0.0
 10
13.1705451034
 20
9.1965180465
 30
0.0
 10
13.1804095203
 20
9.1947463155
 30
0.0
 10
13.1901682948
 20
9.1922646122
 30
0.0
 10
13.1997686883
 20
9.1890863372
 30
0.0
 10
13.2091597231
 20
9.1852284908
 30
0.0
 10
13.2182912981
 20
9.180711725
 30
0.0
 10
13.2271147693
 20
9.1755601709
 30
0.0
 10
13.2355831204
 20
9.1698013367
 30
0.0
 10
13.2436512321
 20
9.1634659502
 30
0.0
 10
13.2512761144
 20
9.1565878008
 30
0.0
 10
13.2584171346
 20
9.149203559
 30
0.0
 10
13.2650362306
 20
9.1413525833
 30
0.0
 10
13.2710981126
 20
9.1330767122
 30
0.0
 10
13.2765704492
 20
9.1244200436
 30
0.0
 10
13.2814240383
 20
9.1154287027
 30
0.0
 10
13.2856329619
 20
9.1061505984
 30
0.0
 10
13.2891747242
 20
9.0966351721
 30
0.0
 10
13.2920303709
 20
9.0869331368
 30
0.0
 10
13.2941845919
 20
9.0770962109
 30
0.0
 10
13.2956258038
 20
9.0671768463
 30
0.0
 10
13.2963462142
 20
9.0572279515
 30
0.0
 10
13.2963418683
 20
9.047302616
 30
0.0
 10
13.2956126688
 20
9.0374538195
 30
0.0
 10
13.2941624016
 20
9.0277341893
 30
0.0
 10
13.291998649
 20
9.0181955791
 30
0.0
 10
13.289133025
 20
9.0088893164
 30
0.0
 10
13.286169475
 20
9.0013610936
 30
0.0
 10
13.2834650917
 20
8.9955067271
 30
0.0
 10
13.2805465196
 20
8.9897796606
 30
0.0
 10
13.2764942603
 20
8.9828524635
 30
0.0
 10
13.2719207999
 20
8.976268784
 30
0.0
 10
13.2679686621
 20
8.9712363748
 30
0.0
 10
13.2638279815
 20
8.96636823
 30
0.0
 10
13.2605105853
 20
8.9629025093
 30
0.0
 10
13.2582137804
 20
8.9606839509
 30
0.0
  0
SPLINE
  5
302
100
AcDbEntity
  8
0
100
AcDbSpline
 62
7
  6
CONTINUOUS
 70
0
 71
3
 72
41
 73
37
 74
0
 42
0.0000001
 43
0.0000001
 44
0.0000000001
 40
0.0
 40
0.0
 40
0.0
 40
0.0
 40
0.0311444983
 40
0.062442467
 40
0.093887251
 40
0.1254695609
 40
0.157177086
 40
0.1889950997
 40
0.2209066479
 40
0.2528929497
 40
0.284933762
 40
0.3170077852
 40
0.3490930781
 40
0.3811674822
 40
0.4132090489
 40
0.445196464
 40
0.4771094635
 40
0.5089292351
 40
0.540638799
 40
0.5722233621
 40
0.6036706378
 40
0.6349711269
 40
0.6661183495
 40
0.6971090237
 40
0.7279431823
 40
0.7586242225
 40
0.7891588828
 40
0.8195571428
 40
0.8498320452
 40
0.86493089
 40
0.8800050502
 40
0.9100832578
 40
0.9400926753
 40
0.9550812784
 40
0.9700610371
 40
1.0
 40
1.0
 40
1.0
 40
1.0
 10
11.10897467
 20
9.3397320115
 30
0.0
 10
11.1122886175
 20
9.3395021885
 30
0.0
 10
11.1189184856
 20
9.3387988357
 30
0.0
 10
11.1287829024
 20
9.3370271047
 30
0.0
 10
11.1385416769
 20
9.3345454014
 30
0.0
 10
11.1481420705
 20
9.3313671264
 30
0.0
 10
11.1575331053
 20
9.32750928
 30
0.0
 10
11.1666646803
 20
9.3229925142
 30
0.0
 10
11.1754881515
 20
9.3178409601
 30
0.0
 10
11.1839565025
 20
9.3120821259
 30
0.0
 10
11.1920246142
 20
9.3057467394
 30
0.0
 10
11.1996494966
 20
9.29886859
 30
0.0
 10
11.2067905168
 20
9.2914843482
 30
0.0
 10
11.2134096128
 20
9.2836333725
 30
0.0
 10
11.2194714948
 20
9.2753575014
 30
0.0
 10
11.2249438314
 20
9.2667008328
 30
0.0
 10
11.2297974204
 20
9.2577094918
 30
0.0
 10
11.2340063441
 20
9.2484313876
 30
0.0
 10
11.2375481063
 20
9.2389159613
 30
0.0
 10
11.2404037531
 20
9.229213926
 30
0.0
 10
11.2425579741
 20
9.2193770001
 30
0.0
 10
11.2439991859
 20
9.2094576355
 30
0.0
 10
11.2447195964
 20
9.1995087407
 30
0.0
 10
11.2447152505
 20
9.1895834052
 30
0.0
 10
11.243986051
 20
9.1797346087
 30
0.0
 10
11.2425357838
 20
9.1700149785
 30
0.0
 10
11.2403720312
 20
9.1604763683
 30
0.0
 10
11.2375064072
 20
9.1511701056
 30
0.0
 10
11.2345428571
 20
9.1436418828
 30
0.0
 10
11.2318384738
 20
9.1377875163
 30
0.0
 10
11.2289199017
 20
9.1320604498
 30
0.0
 10
11.2248676425
 20
9.1251332527
 30
0.0
 10
11.2202941821
 20
9.1185495732
 30
0.0
 10
11.2163420443
 20
9.113517164
 30
0.0
 10
11.2122013637
 20
9.1086490192
 30
0.0
 10
11.2088839675
 20
9.1051832985
 30
0.0
 10
11.2065871626
 20
9.1029647401
 30
0.0
  0
SPLINE
  5
303
100
AcDbEntity
  8
0
100
AcDbSpline
 62
7
  6
CONTINUOUS
 70
0
 71
3
 72
41
 73
37
 74
0
 42
0.0000001
 43
0.0000001
 44
0.0000000001
 40
0.0
 40
0.0
 40
0.0
 40
0.0
 40
0.0311444983
 40
0.062442467
 40
0.093887251
 40
0.1254695609
 40
0.157177086
 40
0.1889950997
 40
0.2209066479
 40
0.2528929497
 40
0.284933762
 40
0.3170077852
 40
0.3490930781
 40
0.3811674822
 40
0.4132090489
 40
0.445196464
 40
0.4771094635
 40
0.5089292351
 40
0.540638799
 40
0.5722233621
 40
0.6036706378
 40
0.6349711269
 40
0.6661183495
 40
0.6971090237
 40
0.7279431823
 40
0.7586242225
 40
0.7891588828
 40
0.8195571428
 40
0.8498320452
 40
0.86493089
 40
0.8800050502
 40
0.9100832578
 40
0.9400926753
 40
0.9550812784
 40
0.9700610371
 40
1.0
 40
1.0
 40
1.0
 40
1.0
 10
11.10897467
 20
7.5894744195
 30
0.0
 10
11.1122886175
 20
7.5892445965
 30
0.0
 10
11.1189184856
 20
7.5885412437
 30
0.0
 10
11.1287829024
 20
7.5867695126
 30
0.0
 10
11.1385416769
 20
7.5842878094
 30
0.0
 10
11.1481420705
 20
7.5811095343
 30
0.0
 10
11.1575331053
 20
7.5772516879
 30
0.0
 10
11.1666646803
 20
7.5727349221
 30
0.0
 10
11.1754881515
 20
7.5675833681
 30
0.0
 10
11.1839565025
 20
7.5618245339
 30
0.0
 10
11.1920246142
 20
7.5554891474
 30
0.0
 10
11.1996494966
 20
7.548610998
 30
0.0
 10
11.2067905168
 20
7.5412267562
 30
0.0
 10
11.2134096128
 20
7.5333757805
 30
0.0
 10
11.2194714948
 20
7.5250999094
 30
0.0
 10
11.2249438314
 20
7.5164432408
 30
0.0
 10
11.2297974204
 20
7.5074518998
 30
0.0
 10
11.2340063441
 20
7.4981737956
 30
0.0
 10
11.2375481063
 20
7.4886583692
 30
0.0
 10
11.2404037531
 20
7.478956334
 30
0.0
 10
11.2425579741
 20
7.4691194081
 30
0.0
 10
11.2439991859
 20
7.4592000434
 30
0.0
 10
11.2447195964
 20
7.4492511487
 30
0.0
 10
11.2447152505
 20
7.4393258132
 30
0.0
 10
11.243986051
 20
7.4294770167
 30
0.0
 10
11.2425357838
 20
7.4197573865
 30
0.0
 10
11.2403720312
 20
7.4102187762
 30
0.0
 10
11.2375064072
 20
7.4009125136
 30
0.0
 10
11.2345428571
 20
7.3933842907
 30
0.0
 10
11.2318384738
 20
7.3875299243
 30
0.0
 10
11.2289199017
 20
7.3818028578
 30
0.0
 10
11.2248676425
 20
7.3748756607
 30
0.0
 10
11.2202941821
 20
7.3682919811
 30
0.0
 10
11.2163420443
 20
7.363259572
 30
0.0
 10
11.2122013637
 20
7.3583914272
 30
0.0
 10
11.2088839675
 20
7.3549257065
 30
0.0
 10
11.2065871626
 20
7.3527071481
 30
0.0
  0
SPLINE
  5
304
100
AcDbEntity
  8
0
100
AcDbSpline
 62
7
  6
CONTINUOUS
 70
0
 71
3
 72
41
 73
37
 74
0
 42
0.0000001
 43
0.0000001
 44
0.0000000001
 40
0.0
 40
0.0
 40
0.0
 40
0.0
 40
0.0311444983
 40
0.062442467
 40
0.093887251
 40
0.1254695609
 40
0.157177086
 40
0.1889950997
 40
0.2209066479
 40
0.2528929497
 40
0.284933762
 40
0.3170077852
 40
0.3490930781
 40
0.3811674822
 40
0.4132090489
 40
0.445196464
 40
0.4771094635
 40
0.5089292351
 40
0.540638799
 40
0.5722233621
 40
0.6036706378
 40
0.6349711269
 40
0.6661183495
 40
0.6971090237
 40
0.7279431823
 40
0.7586242225
 40
0.7891588828
 40
0.8195571428
 40
0.8498320452
 40
0.86493089
 40
0.8800050502
 40
0.9100832578
 40
0.9400926753
 40
0.9550812784
 40
0.9700610371
 40
1.0
 40
1.0
 40
1.0
 40
1.0
 10
13.1606012878
 20
7.4471936303
 30
0.0
 10
13.1639152354
 20
7.4469638073
 30
0.0
 10
13.1705451034
 20
7.4462604545
 30
0.0
 10
13.1804095203
 20
7.4444887235
 30
0.0
 10
13.1901682948
 20
7.4420070202
 30
0.0
 10
13.1997686883
 20
7.4388287451
 30
0.0
 10
13.2091597231
 20
7.4349708987
 30
0.0
 10
13.2182912981
 20
7.4304541329
 30
0.0
 10
13.2271147693
 20
7.4253025789
 30
0.0
 10
13.2355831204
 20
7.4195437447
 30
0.0
 10
13.2436512321
 20
7.4132083582
 30
0.0
 10
13.2512761144
 20
7.4063302088
 30
0.0
 10
13.2584171346
 20
7.398945967
 30
0.0
 10
13.2650362306
 20
7.3910949913
 30
0.0
 10
13.2710981126
 20
7.3828191202
 30
0.0
 10
13.2765704492
 20
7.3741624516
 30
0.0
 10
13.2814240383
 20
7.3651711106
 30
0.0
 10
13.2856329619
 20
7.3558930064
 30
0.0
 10
13.2891747242
 20
7.34637758
 30
0.0
 10
13.2920303709
 20
7.3366755448
 30
0.0
 10
13.2941845919
 20
7.3268386189
 30
0.0
 10
13.2956258038
 20
7.3169192543
 30
0.0
 10
13.2963462142
 20
7.3069703595
 30
0.0
 10
13.2963418683
 20
7.297045024
 30
0.0
 10
13.2956126688
 20
7.2871962275
 30
0.0
 10
13.2941624016
 20
7.2774765973
 30
0.0
 10
13.291998649
 20
7.267937987
 30
0.0
 10
13.289133025
 20
7.2586317244
 30
0.0
 10
13.286169475
 20
7.2511035015
 30
0.0
 10
13.2834650917
 20
7.2452491351
 30
0.0
 10
13.2805465196
 20
7.2395220686
 30
0.0
 10
13.2764942603
 20
7.2325948715
 30
0.0
 10
13.2719207999
 20
7.226011192
 30
0.0
 10
13.2679686621
 20
7.2209787828
 30
0.0
 10
13.2638279815
 20
7.216110638
 30
0.0
 10
13.2605105853
 20
7.2126449173
 30
0.0
 10
13.2582137804
 20
7.2104263589
 30
0.0
  0
SPLINE
  5
305
100
AcDbEntity
  8
0
100
AcDbSpline
 62
7
  6
CONTINUOUS
 70
0
 71
3
 72
39
 73
35
 74
0
 42
0.0000001
 43
0.0000001
 44
0.0000000001
 40
0.0
 40
0.0
 40
0.0
 40
0.0
 40
0.0071626305
 40
0.0146567796
 40
0.0224900537
 40
0.0306686706
 40
0.0391977046
 40
0.0480809813
 40
0.0573207996
 40
0.0669184069
 40
0.0768741415
 40
0.0871874214
 40
0.1088799375
 40
0.131978937
 40
0.1564568751
 40
0.182278417
 40
0.209401486
 40
0.2377780679
 40
0.2673549265
 40
0.2980741807
 40
0.3298737714
 40
0.3626878467
 40
0.3964471182
 40
0.4310792351
 40
0.466509094
 40
0.5026591221
 40
0.5394495351
 40
0.57679863
 40
0.6146230625
 40
0.6913563437
 40
0.7689609396
 40
0.8467367446
 40
0.9239814542
 40
1.0
 40
1.0
 40
1.0
 40
1.0
 10
9.8211714429
 20
9.6405443268
 30
0.0
 10
9.8204262918
 20
9.6398245661
 30
0.0
 10
9.8189369774
 20
9.6383146504
 30
0.0
 10
9.816754118
 20
9.6359016616
 30
0.0
 10
9.8145740173
 20
9.6332916374
 30
0.0
 10
9.8123981062
 20
9.6304862657
 30
0.0
 10
9.8102275688
 20
9.6274872076
 30
0.0
 10
9.8080636893
 20
9.624296175
 30
0.0
 10
9.8059076813
 20
9.6209150649
 30
0.0
 10
9.8037608556
 20
9.6173458792
 30
0.0
 10
9.8016244924
 20
9.6135907353
 30
0.0
 10
9.7987429753
 20
9.6082485622
 30
0.0
 10
9.7951849235
 20
9.601113858
 30
0.0
 10
9.7910458637
 20
9.5919875418
 30
0.0
 10
9.7869784332
 20
9.5821793959
 30
0.0
 10
9.7829924455
 20
9.5717128599
 30
0.0
 10
9.7790975389
 20
9.5606128137
 30
0.0
 10
9.7753031347
 20
9.5489058004
 30
0.0
 10
9.7716184189
 20
9.5366198534
 30
0.0
 10
9.7680523159
 20
9.5237844355
 30
0.0
 10
9.7646134657
 20
9.5104303544
 30
0.0
 10
9.7613101969
 20
9.4965896926
 30
0.0
 10
9.7581504979
 20
9.4822957264
 30
0.0
 10
9.755142013
 20
9.4675828342
 30
0.0
 10
9.75229202
 20
9.4524864091
 30
0.0
 10
9.749607414
 20
9.4370427736
 30
0.0
 10
9.7470946877
 20
9.4212891061
 30
0.0
 10
9.744759882
 20
9.4052633033
 30
0.0
 10
9.7418779908
 20
9.3834807615
 30
0.0
 10
9.7387648158
 20
9.3558580008
 30
0.0
 10
9.7358325852
 20
9.3224100359
 30
0.0
 10
9.7337148118
 20
9.2888263501
 30
0.0
 10
9.7324317901
 20
9.2554302138
 30
0.0
 10
9.7321377649
 20
9.2332612299
 30
0.0
 10
9.7321377649
 20
9.2222658887
 30
0.0
  0
SPLINE
  5
306
100
AcDbEntity
  8
0
100
AcDbSpline
 62
7
  6
CONTINUOUS
 70
0
 71
3
 72
32
 73
28
 74
0
 42
0.0000001
 43
0.0000001
 44
0.0000000001
 40
0.0
 40
0.0
 40
0.0
 40
0.0
 40
0.0851787614
 40
0.1685807002
 40
0.2498832653
 40
0.3287741212
 40
0.4049545312
 40
0.4781407237
 40
0.5480664211
 40
0.5817295925
 40
0.6144870438
 40
0.6463116105
 40
0.6771777326
 40
0.7070617063
 40
0.7359416555
 40
0.7637979445
 40
0.7906130811
 40
0.8163723145
 40
0.8410635061
 40
0.8646779434
 40
0.8872102421
 40
0.9086594218
 40
0.9290289468
 40
0.948328137
 40
0.9665725098
 40
0.9837856371
 40
1.0
 40
1.0
 40
1.0
 40
1.0
 10
9.7321377649
 20
7.652636328
 30
0.0
 10
9.7321377649
 20
7.6455087831
 30
0.0
 10
9.7322592199
 20
7.6314020295
 30
0.0
 10
9.7328162759
 20
7.6104987146
 30
0.0
 10
9.7337440624
 20
7.5901350987
 30
0.0
 10
9.7350385633
 20
7.5703969461
 30
0.0
 10
9.7366941571
 20
7.5513672472
 30
0.0
 10
9.7387037317
 20
7.5331261055
 30
0.0
 10
9.7406903566
 20
7.5184661141
 30
0.0
 10
9.7424586372
 20
7.5071945214
 30
0.0
 10
9.7438508717
 20
7.4990920379
 30
0.0
 10
9.7453244158
 20
7.4912419481
 30
0.0
 10
9.7468777376
 20
7.4836524937
 30
0.0
 10
9.7485091683
 20
7.4763316512
 30
0.0
 10
9.7502170036
 20
7.4692871059
 30
0.0
 10
9.7519994041
 20
7.4625262446
 30
0.0
 10
9.7538545216
 20
7.4560561513
 30
0.0
 10
9.7557803518
 20
7.4498835873
 30
0.0
 10
9.757774917
 20
7.4440150001
 30
0.0
 10
9.7598360635
 20
7.4384564877
 30
0.0
 10
9.7619617041
 20
7.4332138271
 30
0.0
 10
9.7641495602
 20
7.4282924158
 30
0.0
 10
9.7663974707
 20
7.4236973258
 30
0.0
 10
9.7687030658
 20
7.4194332356
 30
0.0
 10
9.7710642055
 20
7.4155044437
 30
0.0
 10
9.7734783711
 20
7.4119150693
 30
0.0
 10
9.7751712269
 20
7.4096857522
 30
0.0
 10
9.7760273112
 20
7.4086331534
 30
0.0
  0
SPLINE
  5
307
100
AcDbEntity
  8
0
100
AcDbSpline
 62
7
  6
CONTINUOUS
 70
0
 71
3
 72
21
 73
17
 74
0
 42
0.0000001
 43
0.0000001
 44
0.0000000001
 40
0.0
 40
0.0
 40
0.0
 40
0.0
 40
0.0567198539
 40
0.1139430657
 40
0.1717743216
 40
0.2303160192
 40
0.3498350212
 40
0.4109943635
 40
0.4731368305
 40
0.5362798899
 40
0.6004092531
 40
0.7313249144
 40
0.7979272616
 40
0.8650496394
 40
0.932481867
 40
1.0
 40
1.0
 40
1.0
 40
1.0
 10
11.2530970229
 20
8.7119620915
 30
0.0
 10
11.2500026584
 20
8.7143369066
 30
0.0
 10
11.24364391
 20
8.7189248246
 30
0.0
 10
11.2336807684
 20
8.7252823017
 30
0.0
 10
11.2232707866
 20
8.7311393907
 30
0.0
 10
11.2087175907
 20
8.7383200113
 30
0.0
 10
11.1933949732
 20
8.7444071529
 30
0.0
 10
11.1774401551
 20
8.7493543084
 30
0.0
 10
11.1650066822
 20
8.752510984
 30
0.0
 10
11.1522244596
 20
8.7550523413
 30
0.0
 10
11.1346446887
 20
8.7575879499
 30
0.0
 10
11.1166412377
 20
8.7587007589
 30
0.0
 10
11.0984389997
 20
8.758277206
 30
0.0
 10
11.0846433542
 20
8.7571394787
 30
0.0
 10
11.0708813377
 20
8.755151086
 30
0.0
 10
11.0617914145
 20
8.7532417972
 30
0.0
 10
11.0572813188
 20
8.752137939
 30
0.0
  0
SPLINE
  5
308
100
AcDbEntity
  8
0
100
AcDbSpline
 62
7
  6
CONTINUOUS
 70
0
 71
3
 72
21
 73
17
 74
0
 42
0.0000001
 43
0.0000001
 44
0.0000000001
 40
0.0
 40
0.0
 40
0.0
 40
0.0
 40
0.1274736659
 40
0.2540668672
 40
0.3170668438
 40
0.379865424
 40
0.4424734295
 40
0.5049033655
 40
0.5671697543
 40
0.6292888938
 40
0.6912786595
 40
0.7531583415
 40
0.8149484563
 40
0.8766705154
 40
0.9383467749
 40
1.0
 40
1.0
 40
1.0
 40
1.0
 10
12.1474701157
 20
7.8174638865
 30
0.0
 10
12.1414359948
 20
7.8178823542
 30
0.0
 10
12.1293594787
 20
7.8181180351
 30
0.0
 10
12.1143378124
 20
7.8168864188
 30
0.0
 10
12.1025082432
 20
7.814990662
 30
0.0
 10
12.0937617474
 20
7.813121329
 30
0.0
 10
12.0851504782
 20
7.81080706
 30
0.0
 10
12.076695889
 20
7.8080536044
 30
0.0
 10
12.0684193375
 20
7.8048679104
 30
0.0
 10
12.0603416505
 20
7.8012579944
 30
0.0
 10
12.0524831969
 20
7.79723291
 30
0.0
 10
12.0448637833
 20
7.792802767
 30
0.0
 10
12.0375026121
 20
7.7879787625
 30
0.0
 10
12.0304181698
 20
7.7827729757
 30
0.0
 10
12.0236285747
 20
7.7771987188
 30
0.0
 10
12.0193092763
 20
7.7732454534
 30
0.0
 10
12.0172051402
 20
7.7712130139
 30
0.0
  0
SPLINE
  5
309
100
AcDbEntity
  8
0
100
AcDbSpline
 62
7
  6
CONTINUOUS
 70
0
 71
3
 72
21
 73
17
 74
0
 42
0.0000001
 43
0.0000001
 44
0.0000000001
 40
0.0
 40
0.0
 40
0.0
 40
0.0
 40
0.1274736659
 40
0.2540668672
 40
0.3170668438
 40
0.379865424
 40
0.4424734295
 40
0.5049033655
 40
0.5671697543
 40
0.6292888938
 40
0.6912786595
 40
0.7531583415
 40
0.8149484563
 40
0.8766705154
 40
0.9383467749
 40
1.0
 40
1.0
 40
1.0
 40
1.0
 10
12.5396360419
 20
8.3640270444
 30
0.0
 10
12.533601921
 20
8.3644455121
 30
0.0
 10
12.5215254049
 20
8.364681193
 30
0.0
 10
12.5065037386
 20
8.3634495767
 30
0.0
 10
12.4946741694
 20
8.3615538199
 30
0.0
 10
12.4859276736
 20
8.3596844869
 30
0.0
 10
12.4773164045
 20
8.357370218
 30
0.0
 10
12.4688618152
 20
8.3546167624
 30
0.0
 10
12.4605852638
 20
8.3514310683
 30
0.0
 10
12.4525075767
 20
8.3478211523
 30
0.0
 10
12.4446491231
 20
8.343796068
 30
0.0
 10
12.4370297095
 20
8.339365925
 30
0.0
 10
12.4296685383
 20
8.3345419204
 30
0.0
 10
12.4225840961
 20
8.3293361337
 30
0.0
 10
12.4157945009
 20
8.3237618768
 30
0.0
 10
12.4114752025
 20
8.3198086113
 30
0.0
 10
12.4093710664
 20
8.3177761719
 30
0.0
  0
SPLINE
  5
30A
100
AcDbEntity
  8
0
100
AcDbSpline
 62
7
  6
CONTINUOUS
 70
0
 71
3
 72
21
 73
17
 74
0
 42
0.0000001
 43
0.0000001
 44
0.0000000001
 40
0.0
 40
0.0
 40
0.0
 40
0.0
 40
0.1274736659
 40
0.2540668672
 40
0.3170668438
 40
0.379865424
 40
0.4424734295
 40
0.5049033655
 40
0.5671697543
 40
0.6292888938
 40
0.6912786595
 40
0.7531583415
 40
0.8149484563
 40
0.8766705154
 40
0.9383467749
 40
1.0
 40
1.0
 40
1.0
 40
1.0
 10
13.053508617
 20
8.7504995064
 30
0.0
 10
13.0474744961
 20
8.7509179741
 30
0.0
 10
13.03539798
 20
8.751153655
 30
0.0
 10
13.0203763137
 20
8.7499220387
 30
0.0
 10
13.0085467445
 20
8.7480262819
 30
0.0
 10
12.9998002487
 20
8.7461569489
 30
0.0
 10
12.9911889796
 20
8.7438426799
 30
0.0
 10
12.9827343903
 20
8.7410892244
 30
0.0
 10
12.9744578389
 20
8.7379035303
 30
0.0
 10
12.9663801518
 20
8.7342936143
 30
0.0
 10
12.9585216982
 20
8.73026853
 30
0.0
 10
12.9509022846
 20
8.725838387
 30
0.0
 10
12.9435411134
 20
8.7210143824
 30
0.0
 10
12.9364566712
 20
8.7158085957
 30
0.0
 10
12.929667076
 20
8.7102343388
 30
0.0
 10
12.9253477776
 20
8.7062810733
 30
0.0
 10
12.9232436415
 20
8.7042486339
 30
0.0
  0
SPLINE
  5
30B
100
AcDbEntity
  8
0
100
AcDbSpline
 62
7
  6
CONTINUOUS
 70
0
 71
3
 72
21
 73
17
 74
0
 42
0.0000001
 43
0.0000001
 44
0.0000000001
 40
0.0
 40
0.0
 40
0.0
 40
0.0
 40
0.061653237
 40
0.123329498
 40
0.1850515502
 40
0.2468416698
 40
0.3087213548
 40
0.370711108
 40
0.4328302426
 40
0.495096636
 40
0.5575265765
 40
0.6201345494
 40
0.682933126
 40
0.7459332432
 40
0.8725261314
 40
1.0
 40
1.0
 40
1.0
 40
1.0
 10
13.0629887953
 20
9.1627933204
 30
0.0
 10
13.0645655021
 20
9.1643163127
 30
0.0
 10
13.0678020891
 20
9.1672786859
 30
0.0
 10
13.072889794
 20
9.1714557023
 30
0.0
 10
13.0781984101
 20
9.1753566476
 30
0.0
 10
13.083714398
 20
9.1789715053
 30
0.0
 10
13.0894239222
 20
9.182291187
 30
0.0
 10
13.0953125513
 20
9.1853073735
 30
0.0
 10
13.1013654586
 20
9.1880124708
 30
0.0
 10
13.1075674039
 20
9.1903996363
 30
0.0
 10
13.1139027532
 20
9.1924629216
 30
0.0
 10
13.1203555019
 20
9.1941971385
 30
0.0
 10
13.1269095985
 20
9.1955979037
 30
0.0
 10
13.1357739515
 20
9.1970184697
 30
0.0
 10
13.1470302731
 20
9.1979414057
 30
0.0
 10
13.1560796772
 20
9.1977647971
 30
0.0
 10
13.1606012878
 20
9.1974512223
 30
0.0
  0
SPLINE
  5
30C
100
AcDbEntity
  8
0
100
AcDbSpline
 62
7
  6
CONTINUOUS
 70
0
 71
3
 72
21
 73
17
 74
0
 42
0.0000001
 43
0.0000001
 44
0.0000000001
 40
0.0
 40
0.0
 40
0.0
 40
0.0
 40
0.061653237
 40
0.123329498
 40
0.1850515502
 40
0.2468416698
 40
0.3087213548
 40
0.370711108
 40
0.4328302426
 40
0.495096636
 40
0.5575265765
 40
0.6201345494
 40
0.682933126
 40
0.7459332432
 40
0.8725261314
 40
1.0
 40
1.0
 40
1.0
 40
1.0
 10
11.0113621774
 20
9.3050741096
 30
0.0
 10
11.0129388842
 20
9.3065971019
 30
0.0
 10
11.0161754713
 20
9.3095594751
 30
0.0
 10
11.0212631762
 20
9.3137364915
 30
0.0
 10
11.0265717923
 20
9.3176374368
 30
0.0
 10
11.0320877802
 20
9.3212522945
 30
0.0
 10
11.0377973044
 20
9.3245719762
 30
0.0
 10
11.0436859335
 20
9.3275881627
 30
0.0
 10
11.0497388408
 20
9.33029326
 30
0.0
 10
11.055940786
 20
9.3326804255
 30
0.0
 10
11.0622761354
 20
9.3347437108
 30
0.0
 10
11.0687288841
 20
9.3364779277
 30
0.0
 10
11.0752829807
 20
9.3378786929
 30
0.0
 10
11.0841473337
 20
9.3392992589
 30
0.0
 10
11.0954036553
 20
9.3402221949
 30
0.0
 10
11.1044530594
 20
9.3400455863
 30
0.0
 10
11.10897467
 20
9.3397320115
 30
0.0
  0
SPLINE
  5
30D
100
AcDbEntity
  8
0
100
AcDbSpline
 62
7
  6
CONTINUOUS
 70
0
 71
3
 72
21
 73
17
 74
0
 42
0.0000001
 43
0.0000001
 44
0.0000000001
 40
0.0
 40
0.0
 40
0.0
 40
0.0
 40
0.061653237
 40
0.123329498
 40
0.1850515502
 40
0.2468416698
 40
0.3087213548
 40
0.370711108
 40
0.4328302426
 40
0.495096636
 40
0.5575265765
 40
0.6201345494
 40
0.682933126
 40
0.7459332432
 40
0.8725261314
 40
1.0
 40
1.0
 40
1.0
 40
1.0
 10
11.0113621774
 20
7.5548165176
 30
0.0
 10
11.0129388842
 20
7.5563395099
 30
0.0
 10
11.0161754713
 20
7.5593018831
 30
0.0
 10
11.0212631762
 20
7.5634788995
 30
0.0
 10
11.0265717923
 20
7.5673798448
 30
0.0
 10
11.0320877802
 20
7.5709947025
 30
0.0
 10
11.0377973044
 20
7.5743143842
 30
0.0
 10
11.0436859335
 20
7.5773305707
 30
0.0
 10
11.0497388408
 20
7.580035668
 30
0.0
 10
11.055940786
 20
7.5824228335
 30
0.0
 10
11.0622761354
 20
7.5844861188
 30
0.0
 10
11.0687288841
 20
7.5862203357
 30
0.0
 10
11.0752829807
 20
7.5876211009
 30
0.0
 10
11.0841473337
 20
7.5890416669
 30
0.0
 10
11.0954036553
 20
7.5899646029
 30
0.0
 10
11.1044530594
 20
7.5897879943
 30
0.0
 10
11.10897467
 20
7.5894744195
 30
0.0
  0
SPLINE
  5
30E
100
AcDbEntity
  8
0
100
AcDbSpline
 62
7
  6
CONTINUOUS
 70
0
 71
3
 72
21
 73
17
 74
0
 42
0.0000001
 43
0.0000001
 44
0.0000000001
 40
0.0
 40
0.0
 40
0.0
 40
0.0
 40
0.061653237
 40
0.123329498
 40
0.1850515502
 40
0.2468416698
 40
0.3087213548
 40
0.370711108
 40
0.4328302426
 40
0.495096636
 40
0.5575265765
 40
0.6201345494
 40
0.682933126
 40
0.7459332432
 40
0.8725261314
 40
1.0
 40
1.0
 40
1.0
 40
1.0
 10
13.0629887953
 20
7.4125357284
 30
0.0
 10
13.0645655021
 20
7.4140587207
 30
0.0
 10
13.0678020891
 20
7.4170210939
 30
0.0
 10
13.072889794
 20
7.4211981103
 30
0.0
 10
13.0781984101
 20
7.4250990556
 30
0.0
 10
13.083714398
 20
7.4287139133
 30
0.0
 10
13.0894239222
 20
7.432033595
 30
0.0
 10
13.0953125513
 20
7.4350497815
 30
0.0
 10
13.1013654586
 20
7.4377548788
 30
0.0
 10
13.1075674039
 20
7.4401420443
 30
0.0
 10
13.1139027532
 20
7.4422053296
 30
0.0
 10
13.1203555019
 20
7.4439395465
 30
0.0
 10
13.1269095985
 20
7.4453403117
 30
0.0
 10
13.1357739515
 20
7.4467608777
 30
0.0
 10
13.1470302731
 20
7.4476838137
 30
0.0
 10
13.1560796772
 20
7.4475072051
 30
0.0
 10
13.1606012878
 20
7.4471936303
 30
0.0
  0
SPLINE
  5
30F
100
AcDbEntity
  8
0
100
AcDbSpline
 62
7
  6
CONTINUOUS
 70
0
 71
3
 72
43
 73
39
 74
0
 42
0.0000001
 43
0.0000001
 44
0.0000000001
 40
0.0
 40
0.0
 40
0.0
 40
0.0
 40
0.0149707062
 40
0.0299443832
 40
0.044923982
 40
0.0599124229
 40
0.0899215159
 40
0.1199993969
 40
0.1350733936
 40
0.1501720727
 40
0.1804466448
 40
0.2108445728
 40
0.2413788994
 40
0.2720596045
 40
0.3028934268
 40
0.3338837635
 40
0.3650306475
 40
0.3963307971
 40
0.4277777323
 40
0.4593619541
 40
0.491071176
 40
0.5228906051
 40
0.5548032616
 40
0.5867903334
 40
0.6188315568
 40
0.6509056178
 40
0.682990568
 40
0.7150642489
 40
0.7471047196
 40
0.7790906804
 40
0.8110018899
 40
0.8428195618
 40
0.8745267595
 40
0.9061087027
 40
0.9375532342
 40
0.9532230937
 40
0.9688557174
 40
1.0
 40
1.0
 40
1.0
 40
1.0
 10
12.2777350912
 20
7.5014925527
 30
0.0
 10
12.2792678078
 20
7.5029730432
 30
0.0
 10
12.2822758927
 20
7.5059946903
 30
0.0
 10
12.2866074816
 20
7.510700879
 30
0.0
 10
12.2907533967
 20
7.5155749936
 30
0.0
 10
12.2960275114
 20
7.5222907057
 30
0.0
 10
12.3021310272
 20
7.5310767984
 30
0.0
 10
12.3075389049
 20
7.5403212474
 30
0.0
 10
12.311433838
 20
7.5479641363
 30
0.0
 10
12.3150429623
 20
7.5557768924
 30
0.0
 10
12.3189979368
 20
7.5658234597
 30
0.0
 10
12.3228222481
 20
7.578242858
 30
0.0
 10
12.3257098908
 20
7.5909723372
 30
0.0
 10
12.3276453695
 20
7.6039433966
 30
0.0
 10
12.3286185634
 20
7.6170868369
 30
0.0
 10
12.3286244201
 20
7.6303324247
 30
0.0
 10
12.3276630688
 20
7.6436094571
 30
0.0
 10
12.3257397877
 20
7.6568470844
 30
0.0
 10
12.3228649755
 20
7.6699746983
 30
0.0
 10
12.3190540907
 20
7.6829223002
 30
0.0
 10
12.3143275651
 20
7.6956208703
 30
0.0
 10
12.3087106937
 20
7.7080027304
 30
0.0
 10
12.3022334978
 20
7.7200018995
 30
0.0
 10
12.2949305656
 20
7.7315544416
 30
0.0
 10
12.2868408681
 20
7.7425988013
 30
0.0
 10
12.2780075524
 20
7.7530761285
 30
0.0
 10
12.2684777139
 20
7.7629305885
 30
0.0
 10
12.2583021473
 20
7.7721096561
 30
0.0
 10
12.2475350777
 20
7.7805643935
 30
0.0
 10
12.2362338784
 20
7.7882497078
 30
0.0
 10
12.2244587552
 20
7.795124591
 30
0.0
 10
12.2122724779
 20
7.8011523327
 30
0.0
 10
12.1997398722
 20
7.8063007359
 30
0.0
 10
12.1869281345
 20
7.8105421949
 30
0.0
 10
12.1760618797
 20
7.813305499
 30
0.0
 10
12.1672986572
 20
7.8150406015
 30
0.0
 10
12.1585214984
 20
7.8164539039
 30
0.0
 10
12.1518926722
 20
7.8171571811
 30
0.0
 10
12.1474701157
 20
7.8174638865
 30
0.0
  0
SPLINE
  5
310
100
AcDbEntity
  8
0
100
AcDbSpline
 62
7
  6
CONTINUOUS
 70
0
 71
3
 72
43
 73
39
 74
0
 42
0.0000001
 43
0.0000001
 44
0.0000000001
 40
0.0
 40
0.0
 40
0.0
 40
0.0
 40
0.0149707062
 40
0.0299443832
 40
0.044923982
 40
0.0599124229
 40
0.0899215159
 40
0.1199993969
 40
0.1350733936
 40
0.1501720727
 40
0.1804466448
 40
0.2108445728
 40
0.2413788994
 40
0.2720596045
 40
0.3028934268
 40
0.3338837635
 40
0.3650306475
 40
0.3963307971
 40
0.4277777323
 40
0.4593619541
 40
0.491071176
 40
0.5228906051
 40
0.5548032616
 40
0.5867903334
 40
0.6188315568
 40
0.6509056178
 40
0.682990568
 40
0.7150642489
 40
0.7471047196
 40
0.7790906804
 40
0.8110018899
 40
0.8428195618
 40
0.8745267595
 40
0.9061087027
 40
0.9375532342
 40
0.9532230937
 40
0.9688557174
 40
1.0
 40
1.0
 40
1.0
 40
1.0
 10
12.6699010174
 20
8.0480557106
 30
0.0
 10
12.671433734
 20
8.0495362012
 30
0.0
 10
12.6744418189
 20
8.0525578482
 30
0.0
 10
12.6787734078
 20
8.0572640369
 30
0.0
 10
12.6829193229
 20
8.0621381515
 30
0.0
 10
12.6881934376
 20
8.0688538637
 30
0.0
 10
12.6942969534
 20
8.0776399564
 30
0.0
 10
12.6997048311
 20
8.0868844053
 30
0.0
 10
12.7035997642
 20
8.0945272943
 30
0.0
 10
12.7072088885
 20
8.1023400503
 30
0.0
 10
12.7111638631
 20
8.1123866177
 30
0.0
 10
12.7149881744
 20
8.124806016
 30
0.0
 10
12.717875817
 20
8.1375354951
 30
0.0
 10
12.7198112957
 20
8.1505065546
 30
0.0
 10
12.7207844896
 20
8.1636499948
 30
0.0
 10
12.7207903463
 20
8.1768955826
 30
0.0
 10
12.7198289951
 20
8.190172615
 30
0.0
 10
12.7179057139
 20
8.2034102423
 30
0.0
 10
12.7150309018
 20
8.2165378563
 30
0.0
 10
12.7112200169
 20
8.2294854582
 30
0.0
 10
12.7064934914
 20
8.2421840283
 30
0.0
 10
12.7008766199
 20
8.2545658883
 30
0.0
 10
12.694399424
 20
8.2665650575
 30
0.0
 10
12.6870964918
 20
8.2781175995
 30
0.0
 10
12.6790067943
 20
8.2891619592
 30
0.0
 10
12.6701734786
 20
8.2996392864
 30
0.0
 10
12.6606436401
 20
8.3094937464
 30
0.0
 10
12.6504680735
 20
8.3186728141
 30
0.0
 10
12.6397010039
 20
8.3271275514
 30
0.0
 10
12.6283998046
 20
8.3348128657
 30
0.0
 10
12.6166246814
 20
8.341687749
 30
0.0
 10
12.6044384041
 20
8.3477154907
 30
0.0
 10
12.5919057984
 20
8.3528638939
 30
0.0
 10
12.5790940607
 20
8.3571053529
 30
0.0
 10
12.568227806
 20
8.3598686569
 30
0.0
 10
12.5594645834
 20
8.3616037595
 30
0.0
 10
12.5506874246
 20
8.3630170619
 30
0.0
 10
12.5440585985
 20
8.3637203391
 30
0.0
 10
12.5396360419
 20
8.3640270444
 30
0.0
  0
SPLINE
  5
311
100
AcDbEntity
  8
0
100
AcDbSpline
 62
7
  6
CONTINUOUS
 70
0
 71
3
 72
43
 73
39
 74
0
 42
0.0000001
 43
0.0000001
 44
0.0000000001
 40
0.0
 40
0.0
 40
0.0
 40
0.0
 40
0.0149707062
 40
0.0299443832
 40
0.044923982
 40
0.0599124229
 40
0.0899215159
 40
0.1199993969
 40
0.1350733936
 40
0.1501720727
 40
0.1804466448
 40
0.2108445728
 40
0.2413788994
 40
0.2720596045
 40
0.3028934268
 40
0.3338837635
 40
0.3650306475
 40
0.3963307971
 40
0.4277777323
 40
0.4593619541
 40
0.491071176
 40
0.5228906051
 40
0.5548032616
 40
0.5867903334
 40
0.6188315568
 40
0.6509056178
 40
0.682990568
 40
0.7150642489
 40
0.7471047196
 40
0.7790906804
 40
0.8110018899
 40
0.8428195618
 40
0.8745267595
 40
0.9061087027
 40
0.9375532342
 40
0.9532230937
 40
0.9688557174
 40
1.0
 40
1.0
 40
1.0
 40
1.0
 10
13.1837735925
 20
8.4345281726
 30
0.0
 10
13.1853063091
 20
8.4360086631
 30
0.0
 10
13.188314394
 20
8.4390303102
 30
0.0
 10
13.1926459829
 20
8.4437364989
 30
0.0
 10
13.196791898
 20
8.4486106135
 30
0.0
 10
13.2020660127
 20
8.4553263257
 30
0.0
 10
13.2081695285
 20
8.4641124184
 30
0.0
 10
13.2135774062
 20
8.4733568673
 30
0.0
 10
13.2174723393
 20
8.4809997562
 30
0.0
 10
13.2210814636
 20
8.4888125123
 30
0.0
 10
13.2250364382
 20
8.4988590797
 30
0.0
 10
13.2288607495
 20
8.511278478
 30
0.0
 10
13.2317483921
 20
8.5240079571
 30
0.0
 10
13.2336838708
 20
8.5369790166
 30
0.0
 10
13.2346570647
 20
8.5501224568
 30
0.0
 10
13.2346629214
 20
8.5633680446
 30
0.0
 10
13.2337015702
 20
8.576645077
 30
0.0
 10
13.231778289
 20
8.5898827043
 30
0.0
 10
13.2289034769
 20
8.6030103182
 30
0.0
 10
13.225092592
 20
8.6159579202
 30
0.0
 10
13.2203660665
 20
8.6286564903
 30
0.0
 10
13.214749195
 20
8.6410383503
 30
0.0
 10
13.2082719991
 20
8.6530375195
 30
0.0
 10
13.2009690669
 20
8.6645900615
 30
0.0
 10
13.1928793694
 20
8.6756344212
 30
0.0
 10
13.1840460537
 20
8.6861117484
 30
0.0
 10
13.1745162152
 20
8.6959662084
 30
0.0
 10
13.1643406486
 20
8.7051452761
 30
0.0
 10
13.153573579
 20
8.7136000134
 30
0.0
 10
13.1422723797
 20
8.7212853277
 30
0.0
 10
13.1304972565
 20
8.728160211
 30
0.0
 10
13.1183109792
 20
8.7341879526
 30
0.0
 10
13.1057783735
 20
8.7393363559
 30
0.0
 10
13.0929666358
 20
8.7435778149
 30
0.0
 10
13.0821003811
 20
8.7463411189
 30
0.0
 10
13.0733371585
 20
8.7480762215
 30
0.0
 10
13.0645599997
 20
8.7494895238
 30
0.0
 10
13.0579311736
 20
8.7501928011
 30
0.0
 10
13.053508617
 20
8.7504995064
 30
0.0
  0
SPLINE
  5
312
100
AcDbEntity
  8
0
100
AcDbSpline
 62
7
  6
CONTINUOUS
 70
0
 71
3
 72
18
 73
14
 74
0
 42
0.0000001
 43
0.0000001
 44
0.0000000001
 40
0.0
 40
0.0
 40
0.0
 40
0.0
 40
0.0544328977
 40
0.1090825819
 40
0.164163178
 40
0.2198832571
 40
0.3339856861
 40
0.4529288702
 40
0.5146466453
 40
0.5780414074
 40
0.7103382159
 40
0.8507568709
 40
1.0
 40
1.0
 40
1.0
 40
1.0
 10
10.1762537384
 20
9.9692904519
 30
0.0
 10
10.1757446421
 20
9.9693257582
 30
0.0
 10
10.174721794
 20
9.9693631606
 30
0.0
 10
10.173182345
 20
9.9693191364
 30
0.0
 10
10.17163682
 20
9.9691750285
 30
0.0
 10
10.1695527534
 20
9.9688471687
 30
0.0
 10
10.166922298
 20
9.9681781216
 30
0.0
 10
10.164334282
 20
9.9671930532
 30
0.0
 10
10.1622642221
 20
9.9662164901
 30
0.0
 10
10.1601343856
 20
9.9650798709
 30
0.0
 10
10.1574628913
 20
9.9634001648
 30
0.0
 10
10.1542973362
 20
9.9610214742
 30
0.0
 10
10.1522501521
 20
9.9592332787
 30
0.0
 10
10.1512259176
 20
9.9582800428
 30
0.0
  0
SPLINE
  5
313
100
AcDbEntity
  8
0
100
AcDbSpline
 62
7
  6
CONTINUOUS
 70
0
 71
3
 72
18
 73
14
 74
0
 42
0.0000001
 43
0.0000001
 44
0.0000000001
 40
0.0
 40
0.0
 40
0.0
 40
0.0
 40
0.1492435137
 40
0.2896566257
 40
0.4219550777
 40
0.485351101
 40
0.547069549
 40
0.6660129848
 40
0.7801156501
 40
0.8358360225
 40
0.8909169124
 40
0.9455668623
 40
1.0
 40
1.0
 40
1.0
 40
1.0
 10
9.8019027277
 20
7.376817967
 30
0.0
 10
9.8027855744
 20
7.3757324686
 30
0.0
 10
9.80456628
 20
7.3736788291
 30
0.0
 10
9.8073731889
 20
7.370885998
 30
0.0
 10
9.8097872147
 20
7.3688536078
 30
0.0
 10
9.8117397877
 20
7.3674338443
 30
0.0
 10
9.813655242
 20
7.3661808672
 30
0.0
 10
9.8160825162
 20
7.3648479795
 30
0.0
 10
9.8185954466
 20
7.3638222421
 30
0.0
 10
9.8206143109
 20
7.3632098332
 30
0.0
 10
9.8221251562
 20
7.3628537625
 30
0.0
 10
9.823643799
 20
7.3625976611
 30
0.0
 10
9.8246620229
 20
7.3624935125
 30
0.0
 10
9.8251711214
 20
7.3624582061
 30
0.0
  0
SPLINE
  5
314
100
AcDbEntity
  8
0
100
AcDbSpline
 62
7
  6
CONTINUOUS
 70
0
 71
3
 72
25
 73
21
 74
0
 42
0.0000001
 43
0.0000001
 44
0.0000000001
 40
0.0
 40
0.0
 40
0.0
 40
0.0
 40
0.0697144659
 40
0.1388103158
 40
0.2070137684
 40
0.2740846203
 40
0.3398519401
 40
0.404235261
 40
0.4672492641
 40
0.5289906718
 40
0.5896165318
 40
0.6493214163
 40
0.7083179917
 40
0.7376244839
 40
0.7668344555
 40
0.8250581179
 40
0.883201391
 40
0.9123068247
 40
0.9414631344
 40
1.0
 40
1.0
 40
1.0
 40
1.0
 10
11.3001211583
 20
8.5133240063
 30
0.0
 10
11.3024987562
 20
8.5179251679
 30
0.0
 10
11.3068358956
 20
8.5272988724
 30
0.0
 10
11.3120074184
 20
8.5418048537
 30
0.0
 10
11.3157481262
 20
8.5565436663
 30
0.0
 10
11.3180168497
 20
8.5713296823
 30
0.0
 10
11.318816929
 20
8.5859831635
 30
0.0
 10
11.3181916384
 20
8.6003428673
 30
0.0
 10
11.3162162875
 20
8.6142767111
 30
0.0
 10
11.3129861345
 20
8.6276857234
 30
0.0
 10
11.308604631
 20
8.6405027838
 30
0.0
 10
11.3031747608
 20
8.6526869305
 30
0.0
 10
11.2978428206
 20
8.6623194477
 30
0.0
 10
11.2931481242
 20
8.6696822446
 30
0.0
 10
11.2881931833
 20
8.6768027062
 30
0.0
 10
11.2814951632
 20
8.6853086395
 30
0.0
 10
11.2741820188
 20
8.6932795881
 30
0.0
 10
11.2679995073
 20
8.6993285252
 30
0.0
 10
11.2615865879
 20
8.7051756688
 30
0.0
 10
11.256546898
 20
8.7093144346
 30
0.0
 10
11.2530970229
 20
8.7119620915
 30
0.0
  0
SPLINE
  5
315
100
AcDbEntity
  8
0
100
AcDbSpline
 62
7
  6
CONTINUOUS
 70
0
 71
3
 72
32
 73
28
 74
0
 42
0.0000001
 43
0.0000001
 44
0.0000000001
 40
0.0
 40
0.0
 40
0.0
 40
0.0
 40
0.0851788256
 40
0.1685805939
 40
0.2498831809
 40
0.3287739947
 40
0.4049543857
 40
0.4781405615
 40
0.5480662501
 40
0.581729445
 40
0.6144868725
 40
0.6463114519
 40
0.6771775691
 40
0.7070615392
 40
0.7359415075
 40
0.763797774
 40
0.790612955
 40
0.8163721473
 40
0.8410634064
 40
0.8646777882
 40
0.8872101701
 40
0.9086592878
 40
0.9290289006
 40
0.9483280334
 40
0.9665724873
 40
0.9837855716
 40
1.0
 40
1.0
 40
1.0
 40
1.0
 10
9.7540580835
 20
7.6428097311
 30
0.0
 10
9.7540580835
 20
7.6350398752
 30
0.0
 10
9.7541904825
 20
7.6196618884
 30
0.0
 10
9.7547977402
 20
7.5968748602
 30
0.0
 10
9.7558091324
 20
7.5746761759
 30
0.0
 10
9.7572202883
 20
7.5531593053
 30
0.0
 10
9.7590250757
 20
7.532414735
 30
0.0
 10
9.7612157408
 20
7.5125297798
 30
0.0
 10
9.7633813954
 20
7.4965486908
 30
0.0
 10
9.7653090129
 20
7.484261347
 30
0.0
 10
9.7668267175
 20
7.475428701
 30
0.0
 10
9.7684330432
 20
7.4668711933
 30
0.0
 10
9.770126345
 20
7.458597808
 30
0.0
 10
9.7719047936
 20
7.4506172404
 30
0.0
 10
9.7737665233
 20
7.4429378679
 30
0.0
 10
9.7757095567
 20
7.4355677445
 30
0.0
 10
9.7777318301
 20
7.4285145888
 30
0.0
 10
9.7798312294
 20
7.4217857787
 30
0.0
 10
9.782005506
 20
7.4153883306
 30
0.0
 10
9.7842524259
 20
7.4093289105
 30
0.0
 10
9.7865695806
 20
7.4036137896
 30
0.0
 10
9.7889546361
 20
7.3982488876
 30
0.0
 10
9.7914050741
 20
7.3932396877
 30
0.0
 10
9.7939184811
 20
7.3885913463
 30
0.0
 10
9.796492352
 20
7.3843084823
 30
0.0
 10
9.7991241125
 20
7.3803956643
 30
0.0
 10
9.8009694897
 20
7.3779654236
 30
0.0
 10
9.8019027277
 20
7.376817967
 30
0.0
  0
SPLINE
  5
316
100
AcDbEntity
  8
0
100
AcDbSpline
 62
7
  6
CONTINUOUS
 70
0
 71
3
 72
21
 73
17
 74
0
 42
0.0000001
 43
0.0000001
 44
0.0000000001
 40
0.0
 40
0.0
 40
0.0
 40
0.0
 40
0.061653237
 40
0.123329498
 40
0.1850515502
 40
0.2468416698
 40
0.3087213548
 40
0.370711108
 40
0.4328302426
 40
0.495096636
 40
0.5575265765
 40
0.6201345494
 40
0.682933126
 40
0.7459332432
 40
0.8725261314
 40
1.0
 40
1.0
 40
1.0
 40
1.0
 10
13.2582137804
 20
8.9606839509
 30
0.0
 10
13.2566370736
 20
8.9591609587
 30
0.0
 10
13.2534004865
 20
8.9561985854
 30
0.0
 10
13.2483127816
 20
8.9520215691
 30
0.0
 10
13.2430041656
 20
8.9481206238
 30
0.0
 10
13.2374881777
 20
8.9445057661
 30
0.0
 10
13.2317786534
 20
8.9411860844
 30
0.0
 10
13.2258900244
 20
8.9381698979
 30
0.0
 10
13.219837117
 20
8.9354648005
 30
0.0
 10
13.2136351718
 20
8.933077635
 30
0.0
 10
13.2072998225
 20
8.9310143497
 30
0.0
 10
13.2008470737
 20
8.9292801329
 30
0.0
 10
13.1942929771
 20
8.9278793677
 30
0.0
 10
13.1854286241
 20
8.9264588017
 30
0.0
 10
13.1741723025
 20
8.9255358657
 30
0.0
 10
13.1651228984
 20
8.9257124743
 30
0.0
 10
13.1606012878
 20
8.9260260491
 30
0.0
  0
SPLINE
  5
317
100
AcDbEntity
  8
0
100
AcDbSpline
 62
7
  6
CONTINUOUS
 70
0
 71
3
 72
41
 73
37
 74
0
 42
0.0000001
 43
0.0000001
 44
0.0000000001
 40
0.0
 40
0.0
 40
0.0
 40
0.0
 40
0.0311444983
 40
0.062442467
 40
0.093887251
 40
0.1254695609
 40
0.157177086
 40
0.1889950997
 40
0.2209066479
 40
0.2528929497
 40
0.284933762
 40
0.3170077852
 40
0.3490930781
 40
0.3811674822
 40
0.4132090489
 40
0.445196464
 40
0.4771094635
 40
0.5089292351
 40
0.540638799
 40
0.5722233621
 40
0.6036706378
 40
0.6349711269
 40
0.6661183495
 40
0.6971090237
 40
0.7279431823
 40
0.7586242225
 40
0.7891588828
 40
0.8195571428
 40
0.8498320452
 40
0.86493089
 40
0.8800050502
 40
0.9100832578
 40
0.9400926753
 40
0.9550812784
 40
0.9700610371
 40
1.0
 40
1.0
 40
1.0
 40
1.0
 10
11.10897467
 20
9.0683068382
 30
0.0
 10
11.1056607224
 20
9.0685366613
 30
0.0
 10
11.0990308544
 20
9.0692400141
 30
0.0
 10
11.0891664376
 20
9.0710117451
 30
0.0
 10
11.0794076631
 20
9.0734934484
 30
0.0
 10
11.0698072695
 20
9.0766717234
 30
0.0
 10
11.0604162347
 20
9.0805295698
 30
0.0
 10
11.0512846597
 20
9.0850463356
 30
0.0
 10
11.0424611885
 20
9.0901978896
 30
0.0
 10
11.0339928375
 20
9.0959567239
 30
0.0
 10
11.0259247258
 20
9.1022921104
 30
0.0
 10
11.0182998434
 20
9.1091702598
 30
0.0
 10
11.0111588232
 20
9.1165545015
 30
0.0
 10
11.0045397272
 20
9.1244054772
 30
0.0
 10
10.9984778452
 20
9.1326813484
 30
0.0
 10
10.9930055086
 20
9.1413380169
 30
0.0
 10
10.9881519196
 20
9.1503293579
 30
0.0
 10
10.9839429959
 20
9.1596074622
 30
0.0
 10
10.9804012336
 20
9.1691228885
 30
0.0
 10
10.9775455869
 20
9.1788249238
 30
0.0
 10
10.9753913659
 20
9.1886618497
 30
0.0
 10
10.9739501541
 20
9.1985812143
 30
0.0
 10
10.9732297436
 20
9.2085301091
 30
0.0
 10
10.9732340895
 20
9.2184554445
 30
0.0
 10
10.973963289
 20
9.2283042411
 30
0.0
 10
10.9754135562
 20
9.2380238713
 30
0.0
 10
10.9775773088
 20
9.2475624815
 30
0.0
 10
10.9804429328
 20
9.2568687442
 30
0.0
 10
10.9834064829
 20
9.264396967
 30
0.0
 10
10.9861108661
 20
9.2702513335
 30
0.0
 10
10.9890294382
 20
9.2759784
 30
0.0
 10
10.9930816975
 20
9.282905597
 30
0.0
 10
10.9976551579
 20
9.2894892766
 30
0.0
 10
11.0016072957
 20
9.2945216857
 30
0.0
 10
11.0057479763
 20
9.2993898305
 30
0.0
 10
11.0090653725
 20
9.3028555512
 30
0.0
 10
11.0113621774
 20
9.3050741096
 30
0.0
  0
SPLINE
  5
318
100
AcDbEntity
  8
0
100
AcDbSpline
 62
7
  6
CONTINUOUS
 70
0
 71
3
 72
21
 73
17
 74
0
 42
0.0000001
 43
0.0000001
 44
0.0000000001
 40
0.0
 40
0.0
 40
0.0
 40
0.0
 40
0.061653237
 40
0.123329498
 40
0.1850515502
 40
0.2468416698
 40
0.3087213548
 40
0.370711108
 40
0.4328302426
 40
0.495096636
 40
0.5575265765
 40
0.6201345494
 40
0.682933126
 40
0.7459332432
 40
0.8725261314
 40
1.0
 40
1.0
 40
1.0
 40
1.0
 10
11.2065871626
 20
9.1029647401
 30
0.0
 10
11.2050104558
 20
9.1014417479
 30
0.0
 10
11.2017738687
 20
9.0984793746
 30
0.0
 10
11.1966861638
 20
9.0943023583
 30
0.0
 10
11.1913775477
 20
9.090401413
 30
0.0
 10
11.1858615598
 20
9.0867865553
 30
0.0
 10
11.1801520356
 20
9.0834668736
 30
0.0
 10
11.1742634065
 20
9.0804506871
 30
0.0
 10
11.1682104992
 20
9.0777455897
 30
0.0
 10
11.162008554
 20
9.0753584242
 30
0.0
 10
11.1556732046
 20
9.0732951389
 30
0.0
 10
11.1492204559
 20
9.0715609221
 30
0.0
 10
11.1426663593
 20
9.0701601569
 30
0.0
 10
11.1338020063
 20
9.0687395909
 30
0.0
 10
11.1225456847
 20
9.0678166549
 30
0.0
 10
11.1134962806
 20
9.0679932635
 30
0.0
 10
11.10897467
 20
9.0683068382
 30
0.0
  0
SPLINE
  5
319
100
AcDbEntity
  8
0
100
AcDbSpline
 62
7
  6
CONTINUOUS
 70
0
 71
3
 72
21
 73
17
 74
0
 42
0.0000001
 43
0.0000001
 44
0.0000000001
 40
0.0
 40
0.0
 40
0.0
 40
0.0
 40
0.061653237
 40
0.123329498
 40
0.1850515502
 40
0.2468416698
 40
0.3087213548
 40
0.370711108
 40
0.4328302426
 40
0.495096636
 40
0.5575265765
 40
0.6201345494
 40
0.682933126
 40
0.7459332432
 40
0.8725261314
 40
1.0
 40
1.0
 40
1.0
 40
1.0
 10
11.2065871626
 20
7.3527071481
 30
0.0
 10
11.2050104558
 20
7.3511841559
 30
0.0
 10
11.2017738687
 20
7.3482217826
 30
0.0
 10
11.1966861638
 20
7.3440447663
 30
0.0
 10
11.1913775477
 20
7.340143821
 30
0.0
 10
11.1858615598
 20
7.3365289633
 30
0.0
 10
11.1801520356
 20
7.3332092815
 30
0.0
 10
11.1742634065
 20
7.3301930951
 30
0.0
 10
11.1682104992
 20
7.3274879977
 30
0.0
 10
11.162008554
 20
7.3251008322
 30
0.0
 10
11.1556732046
 20
7.3230375469
 30
0.0
 10
11.1492204559
 20
7.3213033301
 30
0.0
 10
11.1426663593
 20
7.3199025649
 30
0.0
 10
11.1338020063
 20
7.3184819988
 30
0.0
 10
11.1225456847
 20
7.3175590629
 30
0.0
 10
11.1134962806
 20
7.3177356715
 30
0.0
 10
11.10897467
 20
7.3180492462
 30
0.0
  0
SPLINE
  5
31A
100
AcDbEntity
  8
0
100
AcDbSpline
 62
7
  6
CONTINUOUS
 70
0
 71
3
 72
21
 73
17
 74
0
 42
0.0000001
 43
0.0000001
 44
0.0000000001
 40
0.0
 40
0.0
 40
0.0
 40
0.0
 40
0.061653237
 40
0.123329498
 40
0.1850515502
 40
0.2468416698
 40
0.3087213548
 40
0.370711108
 40
0.4328302426
 40
0.495096636
 40
0.5575265765
 40
0.6201345494
 40
0.682933126
 40
0.7459332432
 40
0.8725261314
 40
1.0
 40
1.0
 40
1.0
 40
1.0
 10
13.2582137804
 20
7.2104263589
 30
0.0
 10
13.2566370736
 20
7.2089033667
 30
0.0
 10
13.2534004865
 20
7.2059409934
 30
0.0
 10
13.2483127816
 20
7.2017639771
 30
0.0
 10
13.2430041656
 20
7.1978630318
 30
0.0
 10
13.2374881777
 20
7.1942481741
 30
0.0
 10
13.2317786534
 20
7.1909284923
 30
0.0
 10
13.2258900244
 20
7.1879123059
 30
0.0
 10
13.219837117
 20
7.1852072085
 30
0.0
 10
13.2136351718
 20
7.182820043
 30
0.0
 10
13.2072998225
 20
7.1807567577
 30
0.0
 10
13.2008470737
 20
7.1790225409
 30
0.0
 10
13.1942929771
 20
7.1776217757
 30
0.0
 10
13.1854286241
 20
7.1762012096
 30
0.0
 10
13.1741723025
 20
7.1752782737
 30
0.0
 10
13.1651228984
 20
7.1754548823
 30
0.0
 10
13.1606012878
 20
7.175768457
 30
0.0
  0
SPLINE
  5
31B
100
AcDbEntity
  8
0
100
AcDbSpline
 62
7
  6
CONTINUOUS
 70
0
 71
3
 72
43
 73
39
 74
0
 42
0.0000001
 43
0.0000001
 44
0.0000000001
 40
0.0
 40
0.0
 40
0.0
 40
0.0
 40
0.0149707062
 40
0.0299443832
 40
0.044923982
 40
0.0599124229
 40
0.0899215159
 40
0.1199993969
 40
0.1350733936
 40
0.1501720727
 40
0.1804466448
 40
0.2108445728
 40
0.2413788994
 40
0.2720596045
 40
0.3028934268
 40
0.3338837635
 40
0.3650306475
 40
0.3963307971
 40
0.4277777323
 40
0.4593619541
 40
0.491071176
 40
0.5228906051
 40
0.5548032616
 40
0.5867903334
 40
0.6188315568
 40
0.6509056178
 40
0.682990568
 40
0.7150642489
 40
0.7471047196
 40
0.7790906804
 40
0.8110018899
 40
0.8428195618
 40
0.8745267595
 40
0.9061087027
 40
0.9375532342
 40
0.9532230937
 40
0.9688557174
 40
1.0
 40
1.0
 40
1.0
 40
1.0
 10
12.0172051402
 20
7.7712130139
 30
0.0
 10
12.0156724237
 20
7.7697325234
 30
0.0
 10
12.0126643387
 20
7.7667108763
 30
0.0
 10
12.0083327499
 20
7.7620046876
 30
0.0
 10
12.0041868348
 20
7.757130573
 30
0.0
 10
11.99891272
 20
7.7504148609
 30
0.0
 10
11.9928092042
 20
7.7416287682
 30
0.0
 10
11.9874013265
 20
7.7323843193
 30
0.0
 10
11.9835063935
 20
7.7247414303
 30
0.0
 10
11.9798972691
 20
7.7169286742
 30
0.0
 10
11.9759422946
 20
7.7068821069
 30
0.0
 10
11.9721179833
 20
7.6944627086
 30
0.0
 10
11.9692303406
 20
7.6817332294
 30
0.0
 10
11.967294862
 20
7.66876217
 30
0.0
 10
11.966321668
 20
7.6556187297
 30
0.0
 10
11.9663158113
 20
7.6423731419
 30
0.0
 10
11.9672771626
 20
7.6290961096
 30
0.0
 10
11.9692004438
 20
7.6158584823
 30
0.0
 10
11.9720752559
 20
7.6027308683
 30
0.0
 10
11.9758861407
 20
7.5897832664
 30
0.0
 10
11.9806126663
 20
7.5770846963
 30
0.0
 10
11.9862295378
 20
7.5647028362
 30
0.0
 10
11.9927067336
 20
7.5527036671
 30
0.0
 10
12.0000096658
 20
7.541151125
 30
0.0
 10
12.0080993633
 20
7.5301067654
 30
0.0
 10
12.016932679
 20
7.5196294381
 30
0.0
 10
12.0264625175
 20
7.5097749781
 30
0.0
 10
12.0366380842
 20
7.5005959105
 30
0.0
 10
12.0474051538
 20
7.4921411731
 30
0.0
 10
12.0587063531
 20
7.4844558588
 30
0.0
 10
12.0704814762
 20
7.4775809756
 30
0.0
 10
12.0826677535
 20
7.4715532339
 30
0.0
 10
12.0952003593
 20
7.4664048307
 30
0.0
 10
12.108012097
 20
7.4621633717
 30
0.0
 10
12.1188783517
 20
7.4594000676
 30
0.0
 10
12.1276415742
 20
7.4576649651
 30
0.0
 10
12.136418733
 20
7.4562516627
 30
0.0
 10
12.1430475592
 20
7.4555483855
 30
0.0
 10
12.1474701157
 20
7.4552416801
 30
0.0
  0
SPLINE
  5
31C
100
AcDbEntity
  8
0
100
AcDbSpline
 62
7
  6
CONTINUOUS
 70
0
 71
3
 72
43
 73
39
 74
0
 42
0.0000001
 43
0.0000001
 44
0.0000000001
 40
0.0
 40
0.0
 40
0.0
 40
0.0
 40
0.0149707062
 40
0.0299443832
 40
0.044923982
 40
0.0599124229
 40
0.0899215159
 40
0.1199993969
 40
0.1350733936
 40
0.1501720727
 40
0.1804466448
 40
0.2108445728
 40
0.2413788994
 40
0.2720596045
 40
0.3028934268
 40
0.3338837635
 40
0.3650306475
 40
0.3963307971
 40
0.4277777323
 40
0.4593619541
 40
0.491071176
 40
0.5228906051
 40
0.5548032616
 40
0.5867903334
 40
0.6188315568
 40
0.6509056178
 40
0.682990568
 40
0.7150642489
 40
0.7471047196
 40
0.7790906804
 40
0.8110018899
 40
0.8428195618
 40
0.8745267595
 40
0.9061087027
 40
0.9375532342
 40
0.9532230937
 40
0.9688557174
 40
1.0
 40
1.0
 40
1.0
 40
1.0
 10
12.4093710664
 20
8.3177761719
 30
0.0
 10
12.4078383499
 20
8.3162956814
 30
0.0
 10
12.4048302649
 20
8.3132740343
 30
0.0
 10
12.4004986761
 20
8.3085678456
 30
0.0
 10
12.396352761
 20
8.303693731
 30
0.0
 10
12.3910786462
 20
8.2969780188
 30
0.0
 10
12.3849751304
 20
8.2881919261
 30
0.0
 10
12.3795672527
 20
8.2789474772
 30
0.0
 10
12.3756723197
 20
8.2713045883
 30
0.0
 10
12.3720631954
 20
8.2634918322
 30
0.0
 10
12.3681082208
 20
8.2534452648
 30
0.0
 10
12.3642839095
 20
8.2410258665
 30
0.0
 10
12.3613962668
 20
8.2282963874
 30
0.0
 10
12.3594607882
 20
8.2153253279
 30
0.0
 10
12.3584875942
 20
8.2021818877
 30
0.0
 10
12.3584817375
 20
8.1889362999
 30
0.0
 10
12.3594430888
 20
8.1756592675
 30
0.0
 10
12.36136637
 20
8.1624216402
 30
0.0
 10
12.3642411821
 20
8.1492940263
 30
0.0
 10
12.368052067
 20
8.1363464243
 30
0.0
 10
12.3727785925
 20
8.1236478542
 30
0.0
 10
12.378395464
 20
8.1112659942
 30
0.0
 10
12.3848726599
 20
8.099266825
 30
0.0
 10
12.392175592
 20
8.087714283
 30
0.0
 10
12.4002652896
 20
8.0766699233
 30
0.0
 10
12.4090986052
 20
8.0661925961
 30
0.0
 10
12.4186284437
 20
8.0563381361
 30
0.0
 10
12.4288040104
 20
8.0471590684
 30
0.0
 10
12.43957108
 20
8.0387043311
 30
0.0
 10
12.4508722793
 20
8.0310190168
 30
0.0
 10
12.4626474025
 20
8.0241441335
 30
0.0
 10
12.4748336797
 20
8.0181163919
 30
0.0
 10
12.4873662855
 20
8.0129679886
 30
0.0
 10
12.5001780232
 20
8.0087265296
 30
0.0
 10
12.5110442779
 20
8.0059632256
 30
0.0
 10
12.5198075004
 20
8.004228123
 30
0.0
 10
12.5285846592
 20
8.0028148207
 30
0.0
 10
12.5352134854
 20
8.0021115434
 30
0.0
 10
12.5396360419
 20
8.0018048381
 30
0.0
  0
SPLINE
  5
31D
100
AcDbEntity
  8
0
100
AcDbSpline
 62
7
  6
CONTINUOUS
 70
0
 71
3
 72
43
 73
39
 74
0
 42
0.0000001
 43
0.0000001
 44
0.0000000001
 40
0.0
 40
0.0
 40
0.0
 40
0.0
 40
0.0149707062
 40
0.0299443832
 40
0.044923982
 40
0.0599124229
 40
0.0899215159
 40
0.1199993969
 40
0.1350733936
 40
0.1501720727
 40
0.1804466448
 40
0.2108445728
 40
0.2413788994
 40
0.2720596045
 40
0.3028934268
 40
0.3338837635
 40
0.3650306475
 40
0.3963307971
 40
0.4277777323
 40
0.4593619541
 40
0.491071176
 40
0.5228906051
 40
0.5548032616
 40
0.5867903334
 40
0.6188315568
 40
0.6509056178
 40
0.682990568
 40
0.7150642489
 40
0.7471047196
 40
0.7790906804
 40
0.8110018899
 40
0.8428195618
 40
0.8745267595
 40
0.9061087027
 40
0.9375532342
 40
0.9532230937
 40
0.9688557174
 40
1.0
 40
1.0
 40
1.0
 40
1.0
 10
12.9232436415
 20
8.7042486339
 30
0.0
 10
12.921710925
 20
8.7027681433
 30
0.0
 10
12.91870284
 20
8.6997464963
 30
0.0
 10
12.9143712512
 20
8.6950403076
 30
0.0
 10
12.9102253361
 20
8.690166193
 30
0.0
 10
12.9049512213
 20
8.6834504808
 30
0.0
 10
12.8988477055
 20
8.6746643881
 30
0.0
 10
12.8934398278
 20
8.6654199392
 30
0.0
 10
12.8895448948
 20
8.6577770502
 30
0.0
 10
12.8859357705
 20
8.6499642942
 30
0.0
 10
12.8819807959
 20
8.6399177268
 30
0.0
 10
12.8781564846
 20
8.6274983285
 30
0.0
 10
12.8752688419
 20
8.6147688494
 30
0.0
 10
12.8733333633
 20
8.6017977899
 30
0.0
 10
12.8723601693
 20
8.5886543497
 30
0.0
 10
12.8723543126
 20
8.5754087619
 30
0.0
 10
12.8733156639
 20
8.5621317295
 30
0.0
 10
12.8752389451
 20
8.5488941022
 30
0.0
 10
12.8781137572
 20
8.5357664882
 30
0.0
 10
12.8819246421
 20
8.5228188863
 30
0.0
 10
12.8866511676
 20
8.5101203162
 30
0.0
 10
12.8922680391
 20
8.4977384562
 30
0.0
 10
12.898745235
 20
8.485739287
 30
0.0
 10
12.9060481671
 20
8.474186745
 30
0.0
 10
12.9141378647
 20
8.4631423853
 30
0.0
 10
12.9229711803
 20
8.4526650581
 30
0.0
 10
12.9325010188
 20
8.4428105981
 30
0.0
 10
12.9426765855
 20
8.4336315304
 30
0.0
 10
12.9534436551
 20
8.4251767931
 30
0.0
 10
12.9647448544
 20
8.4174914788
 30
0.0
 10
12.9765199776
 20
8.4106165955
 30
0.0
 10
12.9887062548
 20
8.4045888538
 30
0.0
 10
13.0012388606
 20
8.3994404506
 30
0.0
 10
13.0140505983
 20
8.3951989916
 30
0.0
 10
13.024916853
 20
8.3924356876
 30
0.0
 10
13.0336800755
 20
8.390700585
 30
0.0
 10
13.0424572344
 20
8.3892872826
 30
0.0
 10
13.0490860605
 20
8.3885840054
 30
0.0
 10
13.053508617
 20
8.3882773001
 30
0.0
  0
SPLINE
  5
31E
100
AcDbEntity
  8
0
100
AcDbSpline
 62
7
  6
CONTINUOUS
 70
0
 71
3
 72
41
 73
37
 74
0
 42
0.0000001
 43
0.0000001
 44
0.0000000001
 40
0.0
 40
0.0
 40
0.0
 40
0.0
 40
0.0311444983
 40
0.062442467
 40
0.093887251
 40
0.1254695609
 40
0.157177086
 40
0.1889950997
 40
0.2209066479
 40
0.2528929497
 40
0.284933762
 40
0.3170077852
 40
0.3490930781
 40
0.3811674822
 40
0.4132090489
 40
0.445196464
 40
0.4771094635
 40
0.5089292351
 40
0.540638799
 40
0.5722233621
 40
0.6036706378
 40
0.6349711269
 40
0.6661183495
 40
0.6971090237
 40
0.7279431823
 40
0.7586242225
 40
0.7891588828
 40
0.8195571428
 40
0.8498320452
 40
0.86493089
 40
0.8800050502
 40
0.9100832578
 40
0.9400926753
 40
0.9550812784
 40
0.9700610371
 40
1.0
 40
1.0
 40
1.0
 40
1.0
 10
11.10897467
 20
7.3180492462
 30
0.0
 10
11.1056607224
 20
7.3182790693
 30
0.0
 10
11.0990308544
 20
7.3189824221
 30
0.0
 10
11.0891664376
 20
7.3207541531
 30
0.0
 10
11.0794076631
 20
7.3232358564
 30
0.0
 10
11.0698072695
 20
7.3264141314
 30
0.0
 10
11.0604162347
 20
7.3302719778
 30
0.0
 10
11.0512846597
 20
7.3347887436
 30
0.0
 10
11.0424611885
 20
7.3399402976
 30
0.0
 10
11.0339928375
 20
7.3456991319
 30
0.0
 10
11.0259247258
 20
7.3520345184
 30
0.0
 10
11.0182998434
 20
7.3589126677
 30
0.0
 10
11.0111588232
 20
7.3662969095
 30
0.0
 10
11.0045397272
 20
7.3741478852
 30
0.0
 10
10.9984778452
 20
7.3824237563
 30
0.0
 10
10.9930055086
 20
7.3910804249
 30
0.0
 10
10.9881519196
 20
7.4000717659
 30
0.0
 10
10.9839429959
 20
7.4093498702
 30
0.0
 10
10.9804012336
 20
7.4188652965
 30
0.0
 10
10.9775455869
 20
7.4285673318
 30
0.0
 10
10.9753913659
 20
7.4384042577
 30
0.0
 10
10.9739501541
 20
7.4483236223
 30
0.0
 10
10.9732297436
 20
7.458272517
 30
0.0
 10
10.9732340895
 20
7.4681978525
 30
0.0
 10
10.973963289
 20
7.4780466491
 30
0.0
 10
10.9754135562
 20
7.4877662792
 30
0.0
 10
10.9775773088
 20
7.4973048895
 30
0.0
 10
10.9804429328
 20
7.5066111522
 30
0.0
 10
10.9834064829
 20
7.514139375
 30
0.0
 10
10.9861108661
 20
7.5199937415
 30
0.0
 10
10.9890294382
 20
7.525720808
 30
0.0
 10
10.9930816975
 20
7.532648005
 30
0.0
 10
10.9976551579
 20
7.5392316846
 30
0.0
 10
11.0016072957
 20
7.5442640937
 30
0.0
 10
11.0057479763
 20
7.5491322385
 30
0.0
 10
11.0090653725
 20
7.5525979592
 30
0.0
 10
11.0113621774
 20
7.5548165176
 30
0.0
  0
SPLINE
  5
31F
100
AcDbEntity
  8
0
100
AcDbSpline
 62
7
  6
CONTINUOUS
 70
0
 71
3
 72
41
 73
37
 74
0
 42
0.0000001
 43
0.0000001
 44
0.0000000001
 40
0.0
 40
0.0
 40
0.0
 40
0.0
 40
0.0071626665
 40
0.0146567922
 40
0.0224900003
 40
0.030668562
 40
0.0391975872
 40
0.048080862
 40
0.0573206522
 40
0.0669182435
 40
0.0768739335
 40
0.0871871924
 40
0.097856799
 40
0.1088807011
 40
0.1319796455
 40
0.1564575358
 40
0.182279017
 40
0.2094019974
 40
0.2377784932
 40
0.2673552866
 40
0.2980744788
 40
0.329873988
 40
0.3626879607
 40
0.3964471366
 40
0.4310791754
 40
0.4665089551
 40
0.502658886
 40
0.5394491939
 40
0.57679819
 40
0.6146225315
 40
0.6528374746
 40
0.691357142
 40
0.7689615337
 40
0.8467371347
 40
0.923981719
 40
1.0
 40
1.0
 40
1.0
 40
1.0
 10
9.8511151453
 20
9.6684114264
 30
0.0
 10
9.8503028378
 20
9.6676267975
 30
0.0
 10
9.8486793048
 20
9.6659808097
 30
0.0
 10
9.8462997323
 20
9.6633503719
 30
0.0
 10
9.843923184
 20
9.6605051468
 30
0.0
 10
9.8415511911
 20
9.6574469763
 30
0.0
 10
9.8391850555
 20
9.6541776524
 30
0.0
 10
9.8368261711
 20
9.6506990528
 30
0.0
 10
9.8344758635
 20
9.6470132507
 30
0.0
 10
9.8321355825
 20
9.6431224177
 30
0.0
 10
9.8298067065
 20
9.6390288816
 30
0.0
 10
9.8274906156
 20
9.6347350848
 30
0.0
 10
9.8251887084
 20
9.6302435691
 30
0.0
 10
9.822091894
 20
9.6238956383
 30
0.0
 10
9.8182747573
 20
9.615478791
 30
0.0
 10
9.8138407907
 20
9.6047868907
 30
0.0
 10
9.8094956024
 20
9.5933771117
 30
0.0
 10
9.8052496967
 20
9.581276787
 30
0.0
 10
9.8011133517
 20
9.5685147825
 30
0.0
 10
9.7970965856
 20
9.5551216692
 30
0.0
 10
9.7932091229
 20
9.5411295649
 30
0.0
 10
9.7894603773
 20
9.5265720635
 30
0.0
 10
9.7858594249
 20
9.5114841381
 30
0.0
 10
9.7824149825
 20
9.4959020559
 30
0.0
 10
9.7791353875
 20
9.4798632894
 30
0.0
 10
9.7760285685
 20
9.4634064262
 30
0.0
 10
9.7731020358
 20
9.4465710694
 30
0.0
 10
9.7703628632
 20
9.4293977387
 30
0.0
 10
9.7678176681
 20
9.4119277688
 30
0.0
 10
9.7654726089
 20
9.3942032246
 30
0.0
 10
9.7633333206
 20
9.3762667495
 30
0.0
 10
9.7607560297
 20
9.3520676633
 30
0.0
 10
9.7580858855
 20
9.3216079553
 30
0.0
 10
9.7557772441
 20
9.2849979526
 30
0.0
 10
9.7543786057
 20
9.248592245
 30
0.0
 10
9.7540580835
 20
9.2244254815
 30
0.0
 10
9.7540580835
 20
9.2124392918
 30
0.0
  0
SPLINE
  5
320
100
AcDbEntity
  8
0
100
AcDbSpline
 62
7
  6
CONTINUOUS
 70
0
 71
3
 72
21
 73
17
 74
0
 42
0.0000001
 43
0.0000001
 44
0.0000000001
 40
0.0
 40
0.0
 40
0.0
 40
0.0
 40
0.1274736659
 40
0.2540668672
 40
0.3170668438
 40
0.379865424
 40
0.4424734295
 40
0.5049033655
 40
0.5671697543
 40
0.6292888938
 40
0.6912786595
 40
0.7531583415
 40
0.8149484563
 40
0.8766705154
 40
0.9383467749
 40
1.0
 40
1.0
 40
1.0
 40
1.0
 10
12.1474701157
 20
7.4552416801
 30
0.0
 10
12.1535042366
 20
7.4548232124
 30
0.0
 10
12.1655807528
 20
7.4545875315
 30
0.0
 10
12.180602419
 20
7.4558191478
 30
0.0
 10
12.1924319882
 20
7.4577149046
 30
0.0
 10
12.201178484
 20
7.4595842376
 30
0.0
 10
12.2097897532
 20
7.4618985066
 30
0.0
 10
12.2182443425
 20
7.4646519622
 30
0.0
 10
12.2265208939
 20
7.4678376562
 30
0.0
 10
12.234598581
 20
7.4714475722
 30
0.0
 10
12.2424570345
 20
7.4754726566
 30
0.0
 10
12.2500764481
 20
7.4799027996
 30
0.0
 10
12.2574376193
 20
7.4847268041
 30
0.0
 10
12.2645220616
 20
7.4899325909
 30
0.0
 10
12.2713116567
 20
7.4955068478
 30
0.0
 10
12.2756309551
 20
7.4994601132
 30
0.0
 10
12.2777350912
 20
7.5014925527
 30
0.0
  0
SPLINE
  5
321
100
AcDbEntity
  8
0
100
AcDbSpline
 62
7
  6
CONTINUOUS
 70
0
 71
3
 72
21
 73
17
 74
0
 42
0.0000001
 43
0.0000001
 44
0.0000000001
 40
0.0
 40
0.0
 40
0.0
 40
0.0
 40
0.1274736659
 40
0.2540668672
 40
0.3170668438
 40
0.379865424
 40
0.4424734295
 40
0.5049033655
 40
0.5671697543
 40
0.6292888938
 40
0.6912786595
 40
0.7531583415
 40
0.8149484563
 40
0.8766705154
 40
0.9383467749
 40
1.0
 40
1.0
 40
1.0
 40
1.0
 10
12.5396360419
 20
8.0018048381
 30
0.0
 10
12.5456701628
 20
8.0013863704
 30
0.0
 10
12.557746679
 20
8.0011506895
 30
0.0
 10
12.5727683452
 20
8.0023823058
 30
0.0
 10
12.5845979144
 20
8.0042780626
 30
0.0
 10
12.5933444103
 20
8.0061473956
 30
0.0
 10
12.6019556794
 20
8.0084616646
 30
0.0
 10
12.6104102687
 20
8.0112151201
 30
0.0
 10
12.6186868201
 20
8.0144008142
 30
0.0
 10
12.6267645072
 20
8.0180107302
 30
0.0
 10
12.6346229607
 20
8.0220358145
 30
0.0
 10
12.6422423743
 20
8.0264659575
 30
0.0
 10
12.6496035455
 20
8.0312899621
 30
0.0
 10
12.6566879878
 20
8.0364957488
 30
0.0
 10
12.6634775829
 20
8.0420700057
 30
0.0
 10
12.6677968813
 20
8.0460232712
 30
0.0
 10
12.6699010174
 20
8.0480557106
 30
0.0
  0
SPLINE
  5
322
100
AcDbEntity
  8
0
100
AcDbSpline
 62
7
  6
CONTINUOUS
 70
0
 71
3
 72
41
 73
37
 74
0
 42
0.0000001
 43
0.0000001
 44
0.0000000001
 40
0.0
 40
0.0
 40
0.0
 40
0.0
 40
0.0311444983
 40
0.062442467
 40
0.093887251
 40
0.1254695609
 40
0.157177086
 40
0.1889950997
 40
0.2209066479
 40
0.2528929497
 40
0.284933762
 40
0.3170077852
 40
0.3490930781
 40
0.3811674822
 40
0.4132090489
 40
0.445196464
 40
0.4771094635
 40
0.5089292351
 40
0.540638799
 40
0.5722233621
 40
0.6036706378
 40
0.6349711269
 40
0.6661183495
 40
0.6971090237
 40
0.7279431823
 40
0.7586242225
 40
0.7891588828
 40
0.8195571428
 40
0.8498320452
 40
0.86493089
 40
0.8800050502
 40
0.9100832578
 40
0.9400926753
 40
0.9550812784
 40
0.9700610371
 40
1.0
 40
1.0
 40
1.0
 40
1.0
 10
13.1606012878
 20
7.175768457
 30
0.0
 10
13.1572873403
 20
7.1759982801
 30
0.0
 10
13.1506574723
 20
7.1767016329
 30
0.0
 10
13.1407930554
 20
7.1784733639
 30
0.0
 10
13.1310342809
 20
7.1809550672
 30
0.0
 10
13.1214338873
 20
7.1841333422
 30
0.0
 10
13.1120428525
 20
7.1879911886
 30
0.0
 10
13.1029112775
 20
7.1925079544
 30
0.0
 10
13.0940878063
 20
7.1976595084
 30
0.0
 10
13.0856194553
 20
7.2034183427
 30
0.0
 10
13.0775513436
 20
7.2097537292
 30
0.0
 10
13.0699264612
 20
7.2166318786
 30
0.0
 10
13.0627854411
 20
7.2240161203
 30
0.0
 10
13.056166345
 20
7.231867096
 30
0.0
 10
13.050104463
 20
7.2401429671
 30
0.0
 10
13.0446321264
 20
7.2487996357
 30
0.0
 10
13.0397785374
 20
7.2577909767
 30
0.0
 10
13.0355696137
 20
7.267069081
 30
0.0
 10
13.0320278515
 20
7.2765845073
 30
0.0
 10
13.0291722047
 20
7.2862865426
 30
0.0
 10
13.0270179838
 20
7.2961234685
 30
0.0
 10
13.0255767719
 20
7.3060428331
 30
0.0
 10
13.0248563614
 20
7.3159917278
 30
0.0
 10
13.0248607073
 20
7.3259170633
 30
0.0
 10
13.0255899068
 20
7.3357658599
 30
0.0
 10
13.027040174
 20
7.3454854901
 30
0.0
 10
13.0292039267
 20
7.3550241003
 30
0.0
 10
13.0320695507
 20
7.364330363
 30
0.0
 10
13.0350331007
 20
7.3718585858
 30
0.0
 10
13.037737484
 20
7.3777129523
 30
0.0
 10
13.0406560561
 20
7.3834400188
 30
0.0
 10
13.0447083154
 20
7.3903672158
 30
0.0
 10
13.0492817757
 20
7.3969508954
 30
0.0
 10
13.0532339135
 20
7.4019833045
 30
0.0
 10
13.0573745941
 20
7.4068514493
 30
0.0
 10
13.0606919903
 20
7.41031717
 30
0.0
 10
13.0629887953
 20
7.4125357284
 30
0.0
  0
SPLINE
  5
323
100
AcDbEntity
  8
0
100
AcDbSpline
 62
7
  6
CONTINUOUS
 70
0
 71
3
 72
21
 73
17
 74
0
 42
0.0000001
 43
0.0000001
 44
0.0000000001
 40
0.0
 40
0.0
 40
0.0
 40
0.0
 40
0.1274736659
 40
0.2540668672
 40
0.3170668438
 40
0.379865424
 40
0.4424734295
 40
0.5049033655
 40
0.5671697543
 40
0.6292888938
 40
0.6912786595
 40
0.7531583415
 40
0.8149484563
 40
0.8766705154
 40
0.9383467749
 40
1.0
 40
1.0
 40
1.0
 40
1.0
 10
13.053508617
 20
8.3882773001
 30
0.0
 10
13.0595427379
 20
8.3878588324
 30
0.0
 10
13.0716192541
 20
8.3876231515
 30
0.0
 10
13.0866409203
 20
8.3888547678
 30
0.0
 10
13.0984704895
 20
8.3907505246
 30
0.0
 10
13.1072169854
 20
8.3926198576
 30
0.0
 10
13.1158282545
 20
8.3949341265
 30
0.0
 10
13.1242828438
 20
8.3976875821
 30
0.0
 10
13.1325593952
 20
8.4008732762
 30
0.0
 10
13.1406370823
 20
8.4044831921
 30
0.0
 10
13.1484955358
 20
8.4085082765
 30
0.0
 10
13.1561149494
 20
8.4129384195
 30
0.0
 10
13.1634761206
 20
8.4177624241
 30
0.0
 10
13.1705605629
 20
8.4229682108
 30
0.0
 10
13.177350158
 20
8.4285424677
 30
0.0
 10
13.1816694564
 20
8.4324957332
 30
0.0
 10
13.1837735925
 20
8.4345281726
 30
0.0
  0
SPLINE
  5
324
100
AcDbEntity
  8
0
100
AcDbSpline
 62
7
  6
CONTINUOUS
 70
0
 71
3
 72
41
 73
37
 74
0
 42
0.0000001
 43
0.0000001
 44
0.0000000001
 40
0.0
 40
0.0
 40
0.0
 40
0.0
 40
0.0311444983
 40
0.062442467
 40
0.093887251
 40
0.1254695609
 40
0.157177086
 40
0.1889950997
 40
0.2209066479
 40
0.2528929497
 40
0.284933762
 40
0.3170077852
 40
0.3490930781
 40
0.3811674822
 40
0.4132090489
 40
0.445196464
 40
0.4771094635
 40
0.5089292351
 40
0.540638799
 40
0.5722233621
 40
0.6036706378
 40
0.6349711269
 40
0.6661183495
 40
0.6971090237
 40
0.7279431823
 40
0.7586242225
 40
0.7891588828
 40
0.8195571428
 40
0.8498320452
 40
0.86493089
 40
0.8800050502
 40
0.9100832578
 40
0.9400926753
 40
0.9550812784
 40
0.9700610371
 40
1.0
 40
1.0
 40
1.0
 40
1.0
 10
13.1606012878
 20
8.9260260491
 30
0.0
 10
13.1572873403
 20
8.9262558721
 30
0.0
 10
13.1506574723
 20
8.9269592249
 30
0.0
 10
13.1407930554
 20
8.9287309559
 30
0.0
 10
13.1310342809
 20
8.9312126592
 30
0.0
 10
13.1214338873
 20
8.9343909342
 30
0.0
 10
13.1120428525
 20
8.9382487806
 30
0.0
 10
13.1029112775
 20
8.9427655464
 30
0.0
 10
13.0940878063
 20
8.9479171004
 30
0.0
 10
13.0856194553
 20
8.9536759347
 30
0.0
 10
13.0775513436
 20
8.9600113212
 30
0.0
 10
13.0699264612
 20
8.9668894706
 30
0.0
 10
13.0627854411
 20
8.9742737123
 30
0.0
 10
13.056166345
 20
8.982124688
 30
0.0
 10
13.050104463
 20
8.9904005592
 30
0.0
 10
13.0446321264
 20
8.9990572277
 30
0.0
 10
13.0397785374
 20
9.0080485687
 30
0.0
 10
13.0355696137
 20
9.017326673
 30
0.0
 10
13.0320278515
 20
9.0268420993
 30
0.0
 10
13.0291722047
 20
9.0365441346
 30
0.0
 10
13.0270179838
 20
9.0463810605
 30
0.0
 10
13.0255767719
 20
9.0563004251
 30
0.0
 10
13.0248563614
 20
9.0662493199
 30
0.0
 10
13.0248607073
 20
9.0761746553
 30
0.0
 10
13.0255899068
 20
9.0860234519
 30
0.0
 10
13.027040174
 20
9.0957430821
 30
0.0
 10
13.0292039267
 20
9.1052816923
 30
0.0
 10
13.0320695507
 20
9.114587955
 30
0.0
 10
13.0350331007
 20
9.1221161778
 30
0.0
 10
13.037737484
 20
9.1279705443
 30
0.0
 10
13.0406560561
 20
9.1336976108
 30
0.0
 10
13.0447083154
 20
9.1406248078
 30
0.0
 10
13.0492817757
 20
9.1472084874
 30
0.0
 10
13.0532339135
 20
9.1522408966
 30
0.0
 10
13.0573745941
 20
9.1571090413
 30
0.0
 10
13.0606919903
 20
9.160574762
 30
0.0
 10
13.0629887953
 20
9.1627933204
 30
0.0
  0
ELLIPSE
  5
325
100
AcDbEntity
  8
0
100
AcDbEllipse
 62
7
  6
CONTINUOUS
 10
11.2421453986
 20
8.6957207109
 30
0.0
 11
0.1575109747
 21
0.1442290708
 31
0.0
 40
0.877908125
 41
0.0
 42
6.2831853072
  0
ELLIPSE
  5
326
100
AcDbEntity
  8
0
100
AcDbEllipse
 62
7
  6
CONTINUOUS
 10
11.7546238428
 20
8.2354551829
 30
0.0
 11
0.0515443388
 21
0.2104946676
 31
0.0
 40
0.852614931
 41
0.0
 42
6.2831853072
  0
ENDSEC
  0
SECTION
  2
OBJECTS
  0
DICTIONARY
  5
C
100
AcDbDictionary
280
0
281
1
  3
ACAD_GROUP
350
D
  3
ACAD_MLINESTYLE
350
17
  3
ACAD_LAYOUT
350
1A
  3
ACAD_PLOTSETTINGS
350
19
  3
ACAD_PLOTSTYLENAME
350
E
  3
ACAD_IMAGE_DICT
350
       328
  3
ACAD_IMAGE_VARS
350
       329
  3
ACAD_TABLESTYLE
350
       32A
  0
IMAGEDEF_REACTOR
  5
327
100
AcDbRasterImageDefReactor
 90
2
330
275
  0
DICTIONARY
  5
D
102
{ACAD_REACTORS
330
C
102
}
100
AcDbDictionary
280
0
281
1
  0
ACDBDICTIONARYWDFLT
  5
E
102
{ACAD_REACTORS
330
C
102
}
100
AcDbDictionary
281
1
  3
Normal
350
F
100
AcDbDictionaryWithDefault
340
F
  0
DICTIONARY
  5
328
330
C
100
AcDbDictionary
281
1
  3
RPGCLAN-CBB-S_assy_2_img_1
350
       32D
  0
RASTERVARIABLES
  5
329
330
C
100
AcDbRasterVariables
 90
0
 70
0
 71
1
 72
5
  0
DICTIONARY
  5
17
102
{ACAD_REACTORS
330
C
102
}
100
AcDbDictionary
280
0
281
1
  3
Standard
350
18
  0
DICTIONARY
  5
32A
330
C
100
AcDbDictionary
281
1
  3
Standard
350
       32E
  3
Standard1
350
       32F
  0
DICTIONARY
  5
19
102
{ACAD_REACTORS
330
C
102
}
100
AcDbDictionary
281
1
  0
DICTIONARY
  5
1A
102
{ACAD_REACTORS
330
C
102
}
100
AcDbDictionary
281
1
  3
Model
350
32B
  3
Layout1
350
32C
  0
ACDBPLACEHOLDER
  5
F
102
{ACAD_REACTORS
330
E
102
}
  0
MLINESTYLE
  5
18
102
{ACAD_REACTORS
330
17
102
}
100
AcDbMlineStyle
  2
STANDARD
 70
0
  3

 62
256
 51
90.0
 52
90.0
 71
2
 49
0.5
 62
256
  6
BYLAYER
 49
-0.5
 62
256
  6
BYLAYER
  0
LAYOUT
  5
32B
102
{ACAD_REACTORS
330
1A
102
}
100
AcDbPlotSettings
  1

  2
none_device
  4
ANSI_C_(22.00_x_17.00_Inches)
  6

 40
0.0
 41
0.0
 42
0.0
 43
0.0
 44
558.8
 45
431.8
 46
0.0
 47
0.0
 48
0.0
 49
0.0
140
0.0
141
0.0
142
1.0
143
1.0
 70
1024
 72
0
 73
0
 74
0
  7

 75
0
147
1.0
148
0.0
149
0.0
100
AcDbLayout
  1
Model
 70
0
 71
0
 10
0.0
 20
0.0
 11
22.0
 21
17.0
 12
0.0
 22
0.0
 32
0.0
 14
0.0
 24
0.0
 34
0.0
 15
0.0
 25
0.0
 35
0.0
146
0.0
 13
0.0
 23
0.0
 33
0.0
 16
1.0
 26
0.0
 36
0.0
 17
0.0
 27
1.0
 37
0.0
 76
0
330
20F
345
0
346
0
  0
LAYOUT
  5
32C
102
{ACAD_REACTORS
330
1A
102
}
100
AcDbPlotSettings
  1

  2
none_device
  4
ANSI_C_(22.00_x_17.00_Inches)
  6

 40
0.0
 41
0.0
 42
0.0
 43
0.0
 44
558.8
 45
431.8
 46
0.0
 47
0.0
 48
0.0
 49
0.0
140
0.0
141
0.0
142
1.0
143
1.0
 70
0
 72
0
 73
0
 74
0
  7

 75
0
147
1.0
148
0.0
149
0.0
100
AcDbLayout
  1
Layout1
 70
0
 71
1
 10
0.0
 20
0.0
 11
22.0
 21
17.0
 12
0.0
 22
0.0
 32
0.0
 14
0.0
 24
0.0
 34
0.0
 15
0.0
 25
0.0
 35
0.0
146
0.0
 13
0.0
 23
0.0
 33
0.0
 16
1.0
 26
0.0
 36
0.0
 17
0.0
 27
1.0
 37
0.0
 76
0
330
210
345
0
346
0
  0
IMAGEDEF
  5
32D
102
{ACAD_REACTORS
330
328
330
327
102
}
100
AcDbRasterImageDef
 90
0
  1
RPGCLAN-CBB-S_assy_2_img_1.png
 10
369.0
 20
92.0
 11
0.0066666667
 21
0.0066666667
280
1
281
0
  0
TABLESTYLE
  5
32E
102
{ACAD_REACTORS
330
32A
330
278
102
}
330
32A
100
AcDbTableStyle
  3
Standard
 70
0
 71
0
 40
0.06
 41
0.06
280
1
281
1
  7
Standard
140
0.18
170
1
 62
0
 63
7
283
0
  7
Standard
140
0.18
170
1
 62
0
 63
7
283
0
  7
Standard
140
0.18
170
1
 62
0
 63
7
283
0
  0
TABLESTYLE
  5
32F
102
{ACAD_REACTORS
330
32A
330
277
102
}
330
32A
100
AcDbTableStyle
  3
Standard1
 70
1
 71
0
 40
0.06
 41
0.06
280
1
281
1
  7
Standard
140
0.18
170
1
 62
0
 63
7
283
0
  7
Standard
140
0.18
170
1
 62
0
 63
7
283
0
  7
Standard
140
0.18
170
1
 62
0
 63
7
283
0
  0
ENDSEC
  0
EOF
