999
DXF file: RPGCLAN-CBA_assy_2.dxf
999
Pro/ENGINEER 2014200 by Parametric Technology Corporation
  0
SECTION
  2
HEADER
  9
$ACADVER
  1
AC1021
  9
$DWGCODEPAGE
  3
ANSI_1252
  9
$EXTMAX
 10
22.0
 20
17.0
 30
0.0
  9
$EXTMIN
 10
0.0
 20
0.0
 30
0.0
  9
$LIMMIN
 10
0.0
 20
0.0
  9
$LIMMAX
 10
22.0
 20
17.0
  9
$VIEWCTR
 10
11.0
 20
8.5
  9
$VIEWSIZE
 40
17.0
  9
$CLAYER
  8
0
  9
$LTSCALE
 40
1.21
  9
$CELTYPE
  6
BYLAYER
  9
$DIMSCALE
 40
1.0
  9
$DIMASZ
 40
0.1875
  9
$DIMEXO
 40
0.0625
  9
$DIMDLI
 40
0.836
  9
$DIMEXE
 40
0.125
  9
$DIMCEN
 40
0.198
  9
$DIMLFAC
 40
1.0
  9
$DIMBLK
  1
_FILLED
  9
$DIMTXT
 40
0.1
  9
$DIMTOL
 70
0
  9
$DIMLIM
 70
0
  9
$DIMTFAC
 40
1.0
  9
$DIMGAP
 40
0.09
  9
$DIMDSEP
 70
46
  9
$AUNITS
 70
0
  9
$PDMODE
 70
3
  9
$PDSIZE
 40
0.3125
  9
$HANDSEED
  5
38C
  9
$TILEMODE
 70
1
  9
$MEASUREMENT
 70
0
  9
$INSUNITS
 70
1
  0
ENDSEC
  0
SECTION
  2
CLASSES
  0
CLASS
  1
ACDBDICTIONARYWDFLT
  2
AcDbDictionaryWithDefault
  3
AutoCAD 2000
 90
0
 91
1
280
0
281
0
  0
CLASS
  1
ACDBPLACEHOLDER
  2
AcDbPlaceHolder
  3
AutoCAD 2000
 90
0
 91
1
280
0
281
0
  0
CLASS
  1
LAYOUT
  2
AcDbLayout
  3
AutoCAD 2000
 90
0
 91
0
280
0
281
0
  0
CLASS
  1
RASTERVARIABLES
  2
AcDbRasterVariables
  3
ISM
 90
0
 91
1
280
0
281
0
  0
CLASS
  1
IMAGEDEF
  2
AcDbRasterImageDef
  3
ISM
 90
0
 91
1
280
0
281
0
  0
CLASS
  1
IMAGEDEF_REACTOR
  2
AcDbRasterImageDefReactor
  3
ISM
 90
0
 91
1
280
0
281
0
  0
CLASS
  1
IMAGE
  2
AcDbRasterImage
  3
ISM
 90
127
 91
1
280
0
281
1
  0
CLASS
  1
TABLESTYLE
  2
AcDbTableStyle
  3
ObjectDBX Classes
 90
2047
 91
1
280
0
281
0
  0
CLASS
  1
ACAD_TABLE
  2
AcDbTable
  3
ObjectDBX Classes
 90
1025
 91
2
280
0
281
1
  0
ENDSEC
  0
SECTION
  2
TABLES
  0
TABLE
  2
VPORT
  5
8
100
AcDbSymbolTable
 70
2
  0
VPORT
  5
1F4
100
AcDbSymbolTableRecord
100
AcDbViewportTableRecord
  2
*ACTIVE
 70
0
 10
0.0
 20
0.0
 11
1.0
 21
1.0
 12
11.0
 22
8.5
 13
0.0
 23
0.0
 14
1.0
 24
1.0
 15
0.0
 25
0.0
 16
0.0
 26
0.0
 36
1.0
 17
0.0
 27
0.0
 37
0.0
 40
17.0
 41
1.2941176471
 42
50.0
 43
0.0
 44
0.0
 50
0.0
 51
0.0
 71
0
 72
100
 73
1
 74
1
 75
0
 76
0
 77
0
 78
0
  0
ENDTAB
  0
TABLE
  2
LTYPE
  5
5
100
AcDbSymbolTable
 70
6
  0
LTYPE
  5
14
100
AcDbSymbolTableRecord
100
AcDbLinetypeTableRecord
  2
BYBLOCK
 70
0
  3

 72
65
 73
0
 40
0.0
  0
LTYPE
  5
15
100
AcDbSymbolTableRecord
100
AcDbLinetypeTableRecord
  2
BYLAYER
 70
0
  3

 72
65
 73
0
 40
0.0
  0
LTYPE
  5
16
100
AcDbSymbolTableRecord
100
AcDbLinetypeTableRecord
  2
CONTINUOUS
 70
64
  3
Solid line
 72
65
 73
0
 40
0.0
  0
LTYPE
  5
1F5
100
AcDbSymbolTableRecord
100
AcDbLinetypeTableRecord
  2
CENTER
 70
64
  3
____ _ ____ _ ____ _ ____ _ ____ _ ____ _ ____
 72
65
 73
4
 40
0.6
 49
0.375
 74
0
 49
-0.075
 74
0
 49
0.075
 74
0
 49
-0.075
 74
0
  0
LTYPE
  5
1F6
100
AcDbSymbolTableRecord
100
AcDbLinetypeTableRecord
  2
HIDDEN
 70
64
  3
- - - - - - - - - - - - - - - - - - - -
 72
65
 73
2
 40
0.2
 49
0.1
 74
0
 49
-0.1
 74
0
  0
LTYPE
  5
1F7
100
AcDbSymbolTableRecord
100
AcDbLinetypeTableRecord
  2
PHANTOM
 70
64
  3
_____ _ _ _____ _ _ _____ _ _ _____
 72
65
 73
6
 40
0.8
 49
0.45
 74
0
 49
-0.05
 74
0
 49
0.1
 74
0
 49
-0.05
 74
0
 49
0.1
 74
0
 49
-0.05
 74
0
  0
LTYPE
  5
1F8
100
AcDbSymbolTableRecord
100
AcDbLinetypeTableRecord
  2
DOT
 70
64
  3
. . . . . . . . . . . . . . . . . . . .
 72
65
 73
2
 40
0.2
 49
0.1
 74
0
 49
-0.1
 74
0
  0
LTYPE
  5
1F9
100
AcDbSymbolTableRecord
100
AcDbLinetypeTableRecord
  2
DASHED
 70
64
  3
- - - - - - - - - - - - - - - - - - - -
 72
65
 73
2
 40
0.2
 49
0.1
 74
0
 49
-0.1
 74
0
  0
ENDTAB
  0
TABLE
  2
LAYER
  5
2
100
AcDbSymbolTable
 70
36
  0
LAYER
  5
10
100
AcDbSymbolTableRecord
100
AcDbLayerTableRecord
  2
0
 70
0
 62
7
  6
CONTINUOUS
370
-3
390
F
  0
LAYER
  5
1FA
100
AcDbSymbolTableRecord
100
AcDbLayerTableRecord
  2
DEFAULT_1
 70
0
 62
7
  6
CENTER
370
-3
390
F
  0
LAYER
  5
1FB
100
AcDbSymbolTableRecord
100
AcDbLayerTableRecord
  2
DEFAULT_2
 70
0
 62
8
  6
HIDDEN
370
-3
390
F
  0
LAYER
  5
1FC
100
AcDbSymbolTableRecord
100
AcDbLayerTableRecord
  2
DEFAULT_3
 70
0
 62
7
  6
PHANTOM
370
-3
390
F
  0
LAYER
  5
1FD
100
AcDbSymbolTableRecord
100
AcDbLayerTableRecord
  2
01___PRT_ALL_DTM_PLN
 70
0
 62
7
  6
CONTINUOUS
370
-3
390
F
  0
LAYER
  5
1FE
100
AcDbSymbolTableRecord
100
AcDbLayerTableRecord
  2
01___PRT_DEF_DTM_PLN
 70
0
 62
7
  6
CONTINUOUS
370
-3
390
F
  0
LAYER
  5
1FF
100
AcDbSymbolTableRecord
100
AcDbLayerTableRecord
  2
02___PRT_ALL_AXES
 70
0
 62
7
  6
CONTINUOUS
370
-3
390
F
  0
LAYER
  5
200
100
AcDbSymbolTableRecord
100
AcDbLayerTableRecord
  2
03___PRT_ALL_CURVES
 70
0
 62
7
  6
CONTINUOUS
370
-3
390
F
  0
LAYER
  5
201
100
AcDbSymbolTableRecord
100
AcDbLayerTableRecord
  2
04___PRT_ALL_DTM_PNT
 70
0
 62
7
  6
CONTINUOUS
370
-3
390
F
  0
LAYER
  5
202
100
AcDbSymbolTableRecord
100
AcDbLayerTableRecord
  2
05___PRT_ALL_DTM_CSYS
 70
0
 62
7
  6
CONTINUOUS
370
-3
390
F
  0
LAYER
  5
203
100
AcDbSymbolTableRecord
100
AcDbLayerTableRecord
  2
05___PRT_DEF_DTM_CSYS
 70
0
 62
7
  6
CONTINUOUS
370
-3
390
F
  0
LAYER
  5
204
100
AcDbSymbolTableRecord
100
AcDbLayerTableRecord
  2
06___PRT_ALL_SURFS
 70
0
 62
7
  6
CONTINUOUS
370
-3
390
F
  0
LAYER
  5
205
100
AcDbSymbolTableRecord
100
AcDbLayerTableRecord
  2
DATUM_PLANES
 70
0
 62
7
  6
CONTINUOUS
370
-3
390
F
  0
LAYER
  5
206
100
AcDbSymbolTableRecord
100
AcDbLayerTableRecord
  2
DIMENSIONS
 70
0
 62
7
  6
CONTINUOUS
370
-3
390
F
  0
LAYER
  5
207
100
AcDbSymbolTableRecord
100
AcDbLayerTableRecord
  2
DTM_500001
 70
0
 62
7
  6
CONTINUOUS
370
-3
390
F
  0
LAYER
  5
208
100
AcDbSymbolTableRecord
100
AcDbLayerTableRecord
  2
PARAMETERDIMENSIONS
 70
0
 62
7
  6
CONTINUOUS
370
-3
390
F
  0
LAYER
  5
209
100
AcDbSymbolTableRecord
100
AcDbLayerTableRecord
  2
PORT_AREAS
 70
0
 62
7
  6
CONTINUOUS
370
-3
390
F
  0
LAYER
  5
20A
100
AcDbSymbolTableRecord
100
AcDbLayerTableRecord
  2
SUNNBOMCOSMETIC
 70
0
 62
7
  6
CONTINUOUS
370
-3
390
F
  0
LAYER
  5
20B
100
AcDbSymbolTableRecord
100
AcDbLayerTableRecord
  2
SUNNBOMSTAMPING
 70
0
 62
7
  6
CONTINUOUS
370
-3
390
F
  0
LAYER
  5
20C
100
AcDbSymbolTableRecord
100
AcDbLayerTableRecord
  2
THREADS
 70
0
 62
7
  6
CONTINUOUS
370
-3
390
F
  0
ENDTAB
  0
TABLE
  2
STYLE
  5
3
100
AcDbSymbolTable
 70
1
  0
STYLE
  5
11
100
AcDbSymbolTableRecord
100
AcDbTextStyleTableRecord
  2
STANDARD
 70
0
 40
0.0
 41
0.8
 50
0.0
 71
0
 42
0.2
  3
txt
  4

  0
STYLE
  5
20D
100
AcDbSymbolTableRecord
100
AcDbTextStyleTableRecord
  2
TEXTSTYLE_1
 70
0
 40
0.0
 41
0.8
 50
0.0
 71
0
 42
0.2
  3
gdt
  4

  0
ENDTAB
  0
TABLE
  2
VIEW
  5
6
100
AcDbSymbolTable
 70
0
  0
ENDTAB
  0
TABLE
  2
UCS
  5
7
100
AcDbSymbolTable
 70
0
  0
ENDTAB
  0
TABLE
  2
APPID
  5
9
100
AcDbSymbolTable
 70
1
  0
APPID
  5
20E
100
AcDbSymbolTableRecord
100
AcDbRegAppTableRecord
  2
ACAD
 70
0
  0
ENDTAB
  0
TABLE
  2
BLOCK_RECORD
  5
1
100
AcDbSymbolTable
 70
0
  0
BLOCK_RECORD
  5
20F
100
AcDbSymbolTableRecord
100
AcDbBlockTableRecord
  2
*Model_Space
  0
BLOCK_RECORD
  5
210
100
AcDbSymbolTableRecord
100
AcDbBlockTableRecord
  2
*Paper_Space
  0
BLOCK_RECORD
  5
211
100
AcDbSymbolTableRecord
100
AcDbBlockTableRecord
  2
SUN_FIRST_THIRD_ANGLE_BL0
  0
BLOCK_RECORD
  5
212
100
AcDbSymbolTableRecord
100
AcDbBlockTableRecord
  2
*T1
  0
BLOCK_RECORD
  5
213
100
AcDbSymbolTableRecord
100
AcDbBlockTableRecord
  2
*T2
  0
ENDTAB
  0
TABLE
  2
DIMSTYLE
  5
A
100
AcDbSymbolTable
 70
1
100
AcDbDimStyleTable
 71
0
  0
DIMSTYLE
105
214
100
AcDbSymbolTableRecord
100
AcDbDimStyleTableRecord
  2
STANDARD
 70
0
  3

  4

 40
1.0
 41
0.1875
 42
0.0625
 43
0.38
 44
0.125
 45
0.0
 46
0.0
 47
0.001
 48
0.001
140
0.1
141
0.09
142
0.0
143
25.4
144
1.0
145
0.0
146
1.0
147
0.09
 71
0.0
 72
0.0
 73
1
 74
1
 75
0
 76
0
 77
0
 78
4
170
0
171
2
172
0
173
0
174
0
175
0
176
0
177
0
178
0
270
2
271
3
272
3
273
2
274
2
275
0
280
0
281
0
282
0
283
1
284
4
285
0
286
0
287
3
288
0
340
11
278
46
  0
ENDTAB
  0
ENDSEC
  0
SECTION
  2
BLOCKS
  0
BLOCK
  5
20
100
AcDbEntity
  8
0
100
AcDbBlockBegin
  2
*Model_Space
 70
0
 10
0.0
 20
0.0
 30
0.0
  3
*Model_Space
  1

  0
ENDBLK
  5
21
100
AcDbEntity
  8
0
100
AcDbBlockEnd
  0
BLOCK
  5
1C
100
AcDbEntity
  8
0
100
AcDbBlockBegin
  2
*Paper_Space
 70
0
 10
0.0
 20
0.0
 30
0.0
  3
*Paper_Space
  1

  0
ENDBLK
  5
1D
100
AcDbEntity
  8
0
100
AcDbBlockEnd
  0
BLOCK
  5
215
100
AcDbEntity
  8
0
100
AcDbBlockBegin
 62
2
  6
CONTINUOUS
  2
SUN_FIRST_THIRD_ANGLE_BL0
 70
64
 10
20.4816717061
 20
1.2289683772
  3
SUN_FIRST_THIRD_ANGLE_BL0
  1

  0
TEXT
  5
216
100
AcDbEntity
  8
0
100
AcDbText
 62
2
  6
CONTINUOUS
 10
19.4750896608
 20
1.4136269581
  7
STANDARD
 40
0.08
  1
FIRST ANGLE
 41
0.8
 72
0
100
AcDbText
  0
TEXT
  5
217
100
AcDbEntity
  8
0
100
AcDbText
 62
2
  6
CONTINUOUS
 10
20.7842537513
 20
1.4047600029
  7
STANDARD
 40
0.08
  1
THIRD ANGLE
 41
0.8
 72
0
100
AcDbText
  0
LINE
  5
218
100
AcDbEntity
  8
0
100
AcDbLine
 62
7
  6
CONTINUOUS
 10
19.4767170086
 20
1.1727031207
 11
19.6334271527
 21
1.1717972817
  0
LINE
  5
219
100
AcDbEntity
  8
0
100
AcDbLine
 62
7
  6
CONTINUOUS
 10
19.6596964832
 20
1.1717972817
 11
19.6950230232
 21
1.171593082
  0
LINE
  5
21A
100
AcDbEntity
  8
0
100
AcDbLine
 62
7
  6
CONTINUOUS
 10
19.7194818561
 20
1.1708914427
 11
19.8852396156
 21
1.1699333054
  0
LINE
  5
21B
100
AcDbEntity
  8
0
100
AcDbLine
 62
7
  6
CONTINUOUS
 10
19.4758111696
 20
1.2723454088
 11
19.88525039
 21
1.3511534004
  0
LINE
  5
21C
100
AcDbEntity
  8
0
100
AcDbLine
 62
7
  6
CONTINUOUS
 10
19.88525039
 20
1.3511534004
 11
19.8831348489
 21
0.9851647912
  0
LINE
  5
21D
100
AcDbEntity
  8
0
100
AcDbLine
 62
7
  6
CONTINUOUS
 10
19.8831348489
 20
0.9851647912
 11
19.4767170086
 21
1.0658141206
  0
LINE
  5
21E
100
AcDbEntity
  8
0
100
AcDbLine
 62
7
  6
CONTINUOUS
 10
19.4767170086
 20
1.0658141206
 11
19.4779056764
 21
1.2714536432
  0
CIRCLE
  5
21F
100
AcDbEntity
  8
0
100
AcDbCircle
 62
7
  6
CONTINUOUS
 10
20.2068232291
 20
1.1717972817
 40
0.175742101
  0
CIRCLE
  5
220
100
AcDbEntity
  8
0
100
AcDbCircle
 62
7
  6
CONTINUOUS
 10
20.2068232291
 20
1.1717972817
 40
0.1005522074
  0
LINE
  5
221
100
AcDbEntity
  8
0
100
AcDbLine
 62
7
  6
CONTINUOUS
 10
20.2077290681
 20
1.3756110529
 11
20.2071171714
 21
1.2379342989
  0
LINE
  5
222
100
AcDbEntity
  8
0
100
AcDbLine
 62
7
  6
CONTINUOUS
 10
20.2077290681
 20
1.2016899681
 11
20.2074674401
 21
1.1428236749
  0
LINE
  5
223
100
AcDbEntity
  8
0
100
AcDbLine
 62
7
  6
CONTINUOUS
 10
20.208634907
 20
1.101141841
 11
20.2080230104
 21
0.963465087
  0
LINE
  5
224
100
AcDbEntity
  8
0
100
AcDbLine
 62
7
  6
CONTINUOUS
 10
20.0066328138
 20
1.1745147986
 11
20.1443095678
 21
1.1739029019
  0
LINE
  5
225
100
AcDbEntity
  8
0
100
AcDbLine
 62
7
  6
CONTINUOUS
 10
20.1832714155
 20
1.1727031207
 11
20.238153505
 21
1.172335442
  0
LINE
  5
226
100
AcDbEntity
  8
0
100
AcDbLine
 62
7
  6
CONTINUOUS
 10
20.2756669918
 20
1.1717972817
 11
20.407916871
 21
1.1712095044
  0
CIRCLE
  5
227
100
AcDbEntity
  8
0
100
AcDbCircle
 62
7
  6
CONTINUOUS
 10
20.7509457401
 20
1.1693297793
 40
0.1722024983
  0
CIRCLE
  5
228
100
AcDbEntity
  8
0
100
AcDbCircle
 62
7
  6
CONTINUOUS
 10
20.7509457401
 20
1.1693297793
 40
0.0985164967
  0
LINE
  5
229
100
AcDbEntity
  8
0
100
AcDbLine
 62
7
  6
CONTINUOUS
 10
20.7169767782
 20
1.170462078
 11
20.7825395137
 21
1.1682766535
  0
LINE
  5
22A
100
AcDbEntity
  8
0
100
AcDbLine
 62
7
  6
CONTINUOUS
 10
20.8177513651
 20
1.1693297793
 11
20.947965719
 21
1.1693297793
  0
LINE
  5
22B
100
AcDbEntity
  8
0
100
AcDbLine
 62
7
  6
CONTINUOUS
 10
20.6875370113
 20
1.170462078
 11
20.5573226574
 21
1.170462078
  0
LINE
  5
22C
100
AcDbEntity
  8
0
100
AcDbLine
 62
7
  6
CONTINUOUS
 10
20.7486811426
 20
1.1987695462
 11
20.7486811426
 21
1.1432869085
  0
LINE
  5
22D
100
AcDbEntity
  8
0
100
AcDbLine
 62
7
  6
CONTINUOUS
 10
20.7498134414
 20
1.1059210505
 11
20.7498134414
 21
0.9757066966
  0
LINE
  5
22E
100
AcDbEntity
  8
0
100
AcDbLine
 62
7
  6
CONTINUOUS
 10
20.7486811426
 20
1.2338708068
 11
20.7486811426
 21
1.3640851607
  0
LINE
  5
22F
100
AcDbEntity
  8
0
100
AcDbLine
 62
7
  6
CONTINUOUS
 10
21.0702539817
 20
1.2701043662
 11
21.4790138229
 21
1.3448360823
  0
LINE
  5
230
100
AcDbEntity
  8
0
100
AcDbLine
 62
7
  6
CONTINUOUS
 10
21.4790138229
 20
1.3448360823
 11
21.4790138229
 21
0.9779712941
  0
LINE
  5
231
100
AcDbEntity
  8
0
100
AcDbLine
 62
7
  6
CONTINUOUS
 10
21.4790138229
 20
0.9779712941
 11
21.069121683
 21
1.0617614
  0
LINE
  5
232
100
AcDbEntity
  8
0
100
AcDbLine
 62
7
  6
CONTINUOUS
 10
21.0702539817
 20
1.2701043662
 11
21.069121683
 21
1.0617614
  0
LINE
  5
233
100
AcDbEntity
  8
0
100
AcDbLine
 62
7
  6
CONTINUOUS
 10
21.4790138229
 20
1.1693297793
 11
21.3159628059
 21
1.1693297793
  0
LINE
  5
234
100
AcDbEntity
  8
0
100
AcDbLine
 62
7
  6
CONTINUOUS
 10
21.2876553377
 20
1.1693297793
 11
21.2502894796
 21
1.1693297793
  0
LINE
  5
235
100
AcDbEntity
  8
0
100
AcDbLine
 62
7
  6
CONTINUOUS
 10
21.2208497126
 20
1.1659328831
 11
21.0713862804
 21
1.1659328831
  0
LINE
  5
236
100
AcDbEntity
  8
0
100
AcDbLine
 62
7
  6
CONTINUOUS
 10
20.4796138713
 20
1.5284908897
 11
20.4766766948
 21
0.9294458646
  0
ENDBLK
  5
237
100
AcDbEntity
  8
0
  6
BYBLOCK
 62
0
100
AcDbBlockEnd
  0
BLOCK
  5
238
100
AcDbEntity
  8
0
100
AcDbBlockBegin
  2
*T1
 70
1
 10
0.0
 20
0.0
  3
*T1
  1

  0
LINE
  5
239
100
AcDbEntity
  8
0
100
AcDbLine
 62
2
  6
CONTINUOUS
 10
9.275
 20
0.0
 11
-0.0
 21
0.0
  0
LINE
  5
23A
100
AcDbEntity
  8
0
100
AcDbLine
 62
2
  6
CONTINUOUS
 10
9.275
 20
0.0
 11
9.275
 21
1.25
  0
LINE
  5
23B
100
AcDbEntity
  8
0
100
AcDbLine
 62
2
  6
CONTINUOUS
 10
9.275
 20
0.625
 11
-0.0
 21
0.625
  0
LINE
  5
23C
100
AcDbEntity
  8
0
100
AcDbLine
 62
2
  6
CONTINUOUS
 10
9.275
 20
1.25
 11
-0.0
 21
1.25
  0
LINE
  5
23D
100
AcDbEntity
  8
0
100
AcDbLine
 62
2
  6
CONTINUOUS
 10
6.8
 20
0.0
 11
6.8
 21
1.25
  0
LINE
  5
23E
100
AcDbEntity
  8
0
100
AcDbLine
 62
2
  6
CONTINUOUS
 10
6.4
 20
0.0
 11
6.4
 21
0.625
  0
LINE
  5
23F
100
AcDbEntity
  8
0
100
AcDbLine
 62
2
  6
CONTINUOUS
 10
5.9
 20
0.0
 11
5.9
 21
0.625
  0
LINE
  5
240
100
AcDbEntity
  8
0
100
AcDbLine
 62
2
  6
CONTINUOUS
 10
5.2
 20
0.0
 11
5.2
 21
0.625
  0
LINE
  5
241
100
AcDbEntity
  8
0
100
AcDbLine
 62
2
  6
CONTINUOUS
 10
4.1
 20
0.0
 11
4.1
 21
1.25
  0
LINE
  5
242
100
AcDbEntity
  8
0
100
AcDbLine
 62
2
  6
CONTINUOUS
 10
-0.0
 20
0.0
 11
-0.0
 21
1.25
  0
MTEXT
  5
243
100
AcDbEntity
  8
0
100
AcDbMText
 62
2
  6
CONTINUOUS
  7
STANDARD
 71
2
 72
1
 10
6.6
 20
0.325
 30
0.0
 11
1.0
 21
0.0
 31
0.0
 44
0.9
  1
2
 40
0.125
 41
0.2
  0
MTEXT
  5
244
100
AcDbEntity
  8
0
100
AcDbMText
 62
2
  6
CONTINUOUS
  7
STANDARD
 71
2
 72
1
 10
6.15
 20
0.325
 30
0.0
 11
1.0
 21
0.0
 31
0.0
 44
0.9
  1
C
 40
0.125
 41
0.2
  0
MTEXT
  5
245
100
AcDbEntity
  8
0
100
AcDbMText
 62
2
  6
CONTINUOUS
  7
STANDARD
 71
2
 72
1
 10
5.55
 20
0.325
 30
0.0
 11
1.0
 21
0.0
 31
0.0
 44
0.9
  1
1.000
 40
0.125
 41
1.0
  0
MTEXT
  5
246
100
AcDbEntity
  8
0
100
AcDbMText
 62
2
  6
CONTINUOUS
  7
STANDARD
 71
2
 72
1
 10
4.65
 20
0.325
 30
0.0
 11
1.0
 21
0.0
 31
0.0
 44
0.9
  1
Feb-25-20
 40
0.125
 41
1.8
  0
MTEXT
  5
247
100
AcDbEntity
  8
0
100
AcDbMText
 62
2
  6
CONTINUOUS
  7
STANDARD
 71
2
 72
1
 10
2.05
 20
0.4625
 30
0.0
 11
1.0
 21
0.0
 31
0.0
 44
0.9
  1
Relief manifold assembly
 40
0.125
 41
4.8
  0
MTEXT
  5
248
100
AcDbEntity
  8
0
100
AcDbMText
 62
2
  6
CONTINUOUS
  7
STANDARD
 71
1
 72
1
 10
6.45
 20
0.5625
 30
0.0
 11
1.0
 21
0.0
 31
0.0
 44
0.9
  1
SHEET
 40
0.06
 41
0.48
  0
MTEXT
  5
249
100
AcDbEntity
  8
0
100
AcDbMText
 62
2
  6
CONTINUOUS
  7
STANDARD
 71
1
 72
1
 10
5.95
 20
0.5625
 30
0.0
 11
1.0
 21
0.0
 31
0.0
 44
0.9
  1
DWG SIZE
 40
0.06
 41
0.768
  0
MTEXT
  5
24A
100
AcDbEntity
  8
0
100
AcDbMText
 62
2
  6
CONTINUOUS
  7
STANDARD
 71
1
 72
1
 10
5.25
 20
0.5625
 30
0.0
 11
1.0
 21
0.0
 31
0.0
 44
0.9
  1
SCALE
 40
0.06
 41
0.48
  0
MTEXT
  5
24B
100
AcDbEntity
  8
0
100
AcDbMText
 62
2
  6
CONTINUOUS
  7
STANDARD
 71
1
 72
1
 10
4.15
 20
0.5625
 30
0.0
 11
1.0
 21
0.0
 31
0.0
 44
0.9
  1
DATE
 40
0.06
 41
0.384
  0
MTEXT
  5
24C
100
AcDbEntity
  8
0
100
AcDbMText
 62
2
  6
CONTINUOUS
  7
STANDARD
 71
1
 72
1
 10
0.05
 20
0.5625
 30
0.0
 11
1.0
 21
0.0
 31
0.0
 44
0.9
  1
DESCRIPTION
 40
0.06
 41
1.056
  0
MTEXT
  5
24D
100
AcDbEntity
  8
0
100
AcDbMText
 62
2
  6
CONTINUOUS
  7
STANDARD
 71
2
 72
1
 10
5.45
 20
1.0375
 30
0.0
 11
1.0
 21
0.0
 31
0.0
 44
0.9
  1
ALL DIMENSIONS IN INCH\PVIEWS ARE THIRD ANGLE
 40
0.12
 41
4.224
  0
MTEXT
  5
24E
100
AcDbEntity
  8
0
100
AcDbMText
 62
2
  6
CONTINUOUS
  7
STANDARD
 71
2
 72
1
 10
2.05
 20
0.95
 30
0.0
 11
1.0
 21
0.0
 31
0.0
 44
0.9
  1
RPGCLAN-CBA
 40
0.125
 41
2.2
  0
MTEXT
  5
24F
100
AcDbEntity
  8
0
100
AcDbMText
 62
2
  6
CONTINUOUS
  7
STANDARD
 71
1
 72
1
 10
0.05
 20
1.1875
 30
0.0
 11
1.0
 21
0.0
 31
0.0
 44
0.9
  1
MODEL
 40
0.06
 41
0.48
  0
ENDBLK
  5
250
100
AcDbEntity
  8
0
  6
BYBLOCK
 62
0
100
AcDbBlockEnd
  0
BLOCK
  5
251
100
AcDbEntity
  8
0
100
AcDbBlockBegin
  2
*T2
 70
1
 10
0.0
 20
0.0
  3
*T2
  1

  0
LINE
  5
252
100
AcDbEntity
  8
0
100
AcDbLine
 62
2
  6
CONTINUOUS
 10
0.0
 20
0.0
 11
9.055
 21
0.0
  0
LINE
  5
253
100
AcDbEntity
  8
0
100
AcDbLine
 62
2
  6
CONTINUOUS
 10
0.0
 20
0.0
 11
0.0
 21
-2.344
  0
LINE
  5
254
100
AcDbEntity
  8
0
100
AcDbLine
 62
2
  6
CONTINUOUS
 10
0.0
 20
-0.344
 11
9.055
 21
-0.344
  0
LINE
  5
255
100
AcDbEntity
  8
0
100
AcDbLine
 62
2
  6
CONTINUOUS
 10
0.0
 20
-0.594
 11
9.055
 21
-0.594
  0
LINE
  5
256
100
AcDbEntity
  8
0
100
AcDbLine
 62
2
  6
CONTINUOUS
 10
0.0
 20
-0.844
 11
9.055
 21
-0.844
  0
LINE
  5
257
100
AcDbEntity
  8
0
100
AcDbLine
 62
2
  6
CONTINUOUS
 10
0.0
 20
-1.094
 11
9.055
 21
-1.094
  0
LINE
  5
258
100
AcDbEntity
  8
0
100
AcDbLine
 62
2
  6
CONTINUOUS
 10
0.0
 20
-1.344
 11
9.055
 21
-1.344
  0
LINE
  5
259
100
AcDbEntity
  8
0
100
AcDbLine
 62
2
  6
CONTINUOUS
 10
0.0
 20
-1.594
 11
9.055
 21
-1.594
  0
LINE
  5
25A
100
AcDbEntity
  8
0
100
AcDbLine
 62
2
  6
CONTINUOUS
 10
0.0
 20
-1.844
 11
9.055
 21
-1.844
  0
LINE
  5
25B
100
AcDbEntity
  8
0
100
AcDbLine
 62
2
  6
CONTINUOUS
 10
0.0
 20
-2.094
 11
9.055
 21
-2.094
  0
LINE
  5
25C
100
AcDbEntity
  8
0
100
AcDbLine
 62
2
  6
CONTINUOUS
 10
0.0
 20
-2.344
 11
9.055
 21
-2.344
  0
LINE
  5
25D
100
AcDbEntity
  8
0
100
AcDbLine
 62
2
  6
CONTINUOUS
 10
3.055
 20
0.0
 11
3.055
 21
-2.344
  0
LINE
  5
25E
100
AcDbEntity
  8
0
100
AcDbLine
 62
2
  6
CONTINUOUS
 10
9.055
 20
0.0
 11
9.055
 21
-2.344
  0
MTEXT
  5
25F
100
AcDbEntity
  8
0
100
AcDbMText
 62
2
  6
CONTINUOUS
  7
STANDARD
 71
2
 72
1
 10
1.5275
 20
-0.0995
 30
0.0
 11
1.0
 21
0.0
 31
0.0
 44
0.9
  1
Technical Data
 40
0.145
 41
3.248
  0
MTEXT
  5
260
100
AcDbEntity
  8
0
100
AcDbMText
 62
2
  6
CONTINUOUS
  7
STANDARD
 71
2
 72
1
 10
4.555
 20
-0.0995
 30
0.0
 11
1.0
 21
0.0
 31
0.0
 44
0.9
  1
U.S. Units
 40
0.145
 41
2.32
  0
MTEXT
  5
261
100
AcDbEntity
  8
0
100
AcDbMText
 62
2
  6
CONTINUOUS
  7
STANDARD
 71
2
 72
1
 10
7.555
 20
-0.0995
 30
0.0
 11
1.0
 21
0.0
 31
0.0
 44
0.9
  1
Metric Units
 40
0.145
 41
2.784
  0
MTEXT
  5
262
100
AcDbEntity
  8
0
100
AcDbMText
 62
2
  6
CONTINUOUS
  7
STANDARD
 71
2
 72
1
 10
1.5275
 20
-0.4065
 30
0.0
 11
1.0
 21
0.0
 31
0.0
 44
0.9
  1
Cavity
 40
0.125
 41
1.2
  0
MTEXT
  5
263
100
AcDbEntity
  8
0
100
AcDbMText
 62
2
  6
CONTINUOUS
  7
STANDARD
 71
2
 72
1
 10
6.055
 20
-0.4065
 30
0.0
 11
1.0
 21
0.0
 31
0.0
 44
0.9
  1
T-3A
 40
0.125
 41
0.8
  0
MTEXT
  5
264
100
AcDbEntity
  8
0
100
AcDbMText
 62
2
  6
CONTINUOUS
  7
STANDARD
 71
2
 72
1
 10
1.5275
 20
-0.6565
 30
0.0
 11
1.0
 21
0.0
 31
0.0
 44
0.9
  1
Body Features
 40
0.125
 41
2.6
  0
MTEXT
  5
265
100
AcDbEntity
  8
0
100
AcDbMText
 62
2
  6
CONTINUOUS
  7
STANDARD
 71
2
 72
1
 10
6.055
 20
-0.6565
 30
0.0
 11
1.0
 21
0.0
 31
0.0
 44
0.9
  1
A to T
 40
0.125
 41
1.2
  0
MTEXT
  5
266
100
AcDbEntity
  8
0
100
AcDbMText
 62
2
  6
CONTINUOUS
  7
STANDARD
 71
2
 72
1
 10
1.5275
 20
-0.9065
 30
0.0
 11
1.0
 21
0.0
 31
0.0
 44
0.9
  1
Body Type
 40
0.125
 41
1.8
  0
MTEXT
  5
267
100
AcDbEntity
  8
0
100
AcDbMText
 62
2
  6
CONTINUOUS
  7
STANDARD
 71
2
 72
1
 10
6.055
 20
-0.9065
 30
0.0
 11
1.0
 21
0.0
 31
0.0
 44
0.9
  1
Sandwich
 40
0.125
 41
1.6
  0
MTEXT
  5
268
100
AcDbEntity
  8
0
100
AcDbMText
 62
2
  6
CONTINUOUS
  7
STANDARD
 71
2
 72
1
 10
1.5275
 20
-1.1565
 30
0.0
 11
1.0
 21
0.0
 31
0.0
 44
0.9
  1
Interface
 40
0.125
 41
1.8
  0
MTEXT
  5
269
100
AcDbEntity
  8
0
100
AcDbMText
 62
2
  6
CONTINUOUS
  7
STANDARD
 71
2
 72
1
 10
6.055
 20
-1.1565
 30
0.0
 11
1.0
 21
0.0
 31
0.0
 44
0.9
  1
ISO 05
 40
0.125
 41
1.2
  0
MTEXT
  5
26A
100
AcDbEntity
  8
0
100
AcDbMText
 62
2
  6
CONTINUOUS
  7
STANDARD
 71
2
 72
1
 10
1.5275
 20
-1.4065
 30
0.0
 11
1.0
 21
0.0
 31
0.0
 44
0.9
  1
Open Cavity Quantity
 40
0.125
 41
4.0
  0
MTEXT
  5
26B
100
AcDbEntity
  8
0
100
AcDbMText
 62
2
  6
CONTINUOUS
  7
STANDARD
 71
2
 72
1
 10
6.055
 20
-1.4065
 30
0.0
 11
1.0
 21
0.0
 31
0.0
 44
0.9
  1
1
 40
0.125
 41
0.2
  0
MTEXT
  5
26C
100
AcDbEntity
  8
0
100
AcDbMText
 62
2
  6
CONTINUOUS
  7
STANDARD
 71
2
 72
1
 10
1.5275
 20
-1.6565
 30
0.0
 11
1.0
 21
0.0
 31
0.0
 44
0.9
  1
Stack Height
 40
0.125
 41
2.4
  0
MTEXT
  5
26D
100
AcDbEntity
  8
0
100
AcDbMText
 62
2
  6
CONTINUOUS
  7
STANDARD
 71
2
 72
1
 10
4.555
 20
-1.6565
 30
0.0
 11
1.0
 21
0.0
 31
0.0
 44
0.9
  1
1.94 in.
 40
0.125
 41
1.6
  0
MTEXT
  5
26E
100
AcDbEntity
  8
0
100
AcDbMText
 62
2
  6
CONTINUOUS
  7
STANDARD
 71
2
 72
1
 10
7.555
 20
-1.6565
 30
0.0
 11
1.0
 21
0.0
 31
0.0
 44
0.9
  1
49 mm
 40
0.125
 41
1.0
  0
MTEXT
  5
26F
100
AcDbEntity
  8
0
100
AcDbMText
 62
2
  6
CONTINUOUS
  7
STANDARD
 71
2
 72
1
 10
1.5275
 20
-1.9065
 30
0.0
 11
1.0
 21
0.0
 31
0.0
 44
0.9
  1
Weight
 40
0.125
 41
1.2
  0
MTEXT
  5
270
100
AcDbEntity
  8
0
100
AcDbMText
 62
2
  6
CONTINUOUS
  7
STANDARD
 71
2
 72
1
 10
4.555
 20
-1.9065
 30
0.0
 11
1.0
 21
0.0
 31
0.0
 44
0.9
  1
2.130 lb.
 40
0.125
 41
1.8
  0
MTEXT
  5
271
100
AcDbEntity
  8
0
100
AcDbMText
 62
2
  6
CONTINUOUS
  7
STANDARD
 71
2
 72
1
 10
7.555
 20
-1.9065
 30
0.0
 11
1.0
 21
0.0
 31
0.0
 44
0.9
  1
0,966 kg.
 40
0.125
 41
1.8
  0
MTEXT
  5
272
100
AcDbEntity
  8
0
100
AcDbMText
 62
2
  6
CONTINUOUS
  7
STANDARD
 71
2
 72
1
 10
1.5275
 20
-2.1565
 30
0.0
 11
1.0
 21
0.0
 31
0.0
 44
0.9
  1
Seal Plate Included (see notes)
 40
0.125
 41
6.2
  0
MTEXT
  5
273
100
AcDbEntity
  8
0
100
AcDbMText
 62
2
  6
CONTINUOUS
  7
STANDARD
 71
2
 72
1
 10
6.055
 20
-2.1565
 30
0.0
 11
1.0
 21
0.0
 31
0.0
 44
0.9
  1
No
 40
0.125
 41
0.4
  0
ENDBLK
  5
274
100
AcDbEntity
  8
0
  6
BYBLOCK
 62
0
100
AcDbBlockEnd
  0
ENDSEC
  0
SECTION
  2
ENTITIES
  0
IMAGE
  5
275
100
AcDbEntity
  8
0
100
AcDbRasterImage
 62
7
  6
CONTINUOUS
 10
19.2297077316
 20
0.3094318264
 30
0.0
 11
0.0066666667
 21
0.0
 31
0.0
 12
0.0
 22
0.0066666667
 32
0.0
 13
369.0
 23
92.0
340
       389
 70
9
280
0
281
50
282
50
283
0
360
       383
 71
1
 91
2
 14
-0.5
 24
-0.5
 14
368.5
 24
91.5
  0
INSERT
  5
276
100
AcDbEntity
  8
0
100
AcDbBlockReference
 62
2
  6
CONTINUOUS
  2
SUN_FIRST_THIRD_ANGLE_BL0
 10
20.4816717061
 20
1.2289683772
  0
ACAD_TABLE
  5
277
100
AcDbEntity
  8
0
 62
2
  6
CONTINUOUS
100
AcDbBlockReference
  2
*T1
 10
12.42375
 20
0.30125
 30
0.0
100
AcDbTable
342
       38B
343
212
 11
1.0
 21
0.0
 31
0.0
 90
6
 91
4
 92
6
 93
20
 94
0
 95
0
 96
0
 70
1
 41
0.0
141
0.525
141
0.1
141
0.525
141
0.1
142
4.1
142
1.1
142
0.7
142
0.5
142
0.4
142
2.475
171
1
172
0
173
0
174
0
175
1
176
1
 91
33
178
0
145
0.0
301
CELL_VALUE
 90
4
  1
Relief manifold assembly
304
ACVALUE_END
170
2
140
0.125
171
1
172
0
173
0
174
0
175
1
176
1
 91
33
178
0
145
0.0
301
CELL_VALUE
 90
4
  1
Feb-25-20
304
ACVALUE_END
170
5
140
0.125
171
1
172
0
173
0
174
0
175
1
176
1
 91
33
178
0
145
0.0
301
CELL_VALUE
 90
4
  1
1.000
304
ACVALUE_END
170
5
140
0.125
171
1
172
0
173
0
174
0
175
1
176
1
 91
33
178
0
145
0.0
301
CELL_VALUE
 90
4
  1
C
304
ACVALUE_END
170
5
140
0.125
171
1
172
0
173
0
174
0
175
1
176
1
 91
33
178
0
145
0.0
301
CELL_VALUE
 90
4
  1
2
304
ACVALUE_END
170
5
140
0.125
171
1
172
0
173
0
174
0
175
1
176
1
 91
33
178
0
145
0.0
301
CELL_VALUE
 90
4
  1
 
304
ACVALUE_END
170
1
140
0.125
171
1
172
0
173
0
174
0
175
1
176
1
 91
33
178
0
145
0.0
301
CELL_VALUE
 90
4
  1
DESCRIPTION
304
ACVALUE_END
170
1
140
0.06
171
1
172
0
173
0
174
0
175
1
176
1
 91
33
178
0
145
0.0
301
CELL_VALUE
 90
4
  1
DATE
304
ACVALUE_END
170
1
140
0.06
171
1
172
0
173
0
174
0
175
1
176
1
 91
33
178
0
145
0.0
301
CELL_VALUE
 90
4
  1
SCALE
304
ACVALUE_END
170
1
140
0.06
171
1
172
0
173
0
174
0
175
1
176
1
 91
33
178
0
145
0.0
301
CELL_VALUE
 90
4
  1
DWG SIZE
304
ACVALUE_END
170
1
140
0.06
171
1
172
0
173
0
174
0
175
1
176
1
 91
33
178
0
145
0.0
301
CELL_VALUE
 90
4
  1
SHEET
304
ACVALUE_END
170
1
140
0.06
171
1
172
0
173
0
174
0
175
1
176
1
 91
33
178
0
145
0.0
301
CELL_VALUE
 90
4
  1
 
304
ACVALUE_END
170
1
140
0.125
171
1
172
0
173
0
174
0
175
1
176
1
 91
33
178
0
145
0.0
301
CELL_VALUE
 90
4
  1
RPGCLAN-CBA
304
ACVALUE_END
170
5
140
0.125
171
1
172
0
173
0
174
0
175
4
176
1
 91
33
178
0
145
0.0
301
CELL_VALUE
 90
4
  1
ALL DIMENSIONS IN INCH\PVIEWS ARE THIRD ANGLE
304
ACVALUE_END
170
5
140
0.12
171
1
172
0
173
1
174
0
175
1
176
1
 91
1
178
0
145
0.0
170
1
171
1
172
0
173
1
174
0
175
1
176
1
 91
1
178
0
145
0.0
170
1
171
1
172
0
173
1
174
0
175
1
176
1
 91
1
178
0
145
0.0
170
5
171
1
172
0
173
0
174
0
175
1
176
1
 91
33
178
0
145
0.0
301
CELL_VALUE
 90
4
  1
 
304
ACVALUE_END
170
1
140
0.125
171
1
172
0
173
0
174
0
175
1
176
1
 91
33
178
0
145
0.0
301
CELL_VALUE
 90
4
  1
MODEL
304
ACVALUE_END
170
1
140
0.06
171
1
172
0
173
0
174
0
175
1
176
1
 91
33
178
0
145
0.0
301
CELL_VALUE
 90
4
  1
 
304
ACVALUE_END
170
1
140
0.125
171
1
172
0
173
0
174
0
175
1
176
1
 91
33
178
0
145
0.0
301
CELL_VALUE
 90
4
  1
 
304
ACVALUE_END
170
1
140
0.125
171
1
172
0
173
0
174
0
175
1
176
1
 91
33
178
0
145
0.0
301
CELL_VALUE
 90
4
  1
 
304
ACVALUE_END
170
1
140
0.125
171
1
172
0
173
0
174
0
175
1
176
1
 91
33
178
0
145
0.0
301
CELL_VALUE
 90
4
  1
 
304
ACVALUE_END
170
1
140
0.125
171
1
172
0
173
0
174
0
175
1
176
1
 91
33
178
0
145
0.0
301
CELL_VALUE
 90
4
  1
 
304
ACVALUE_END
170
1
140
0.125
  0
ACAD_TABLE
  5
278
100
AcDbEntity
  8
0
 62
2
  6
CONTINUOUS
100
AcDbBlockReference
  2
*T2
 10
12.4237499994
 20
16.47875
 30
0.0
100
AcDbTable
342
       38A
343
213
 11
1.0
 21
0.0
 31
0.0
 90
22
 91
9
 92
3
 93
16
 94
0
 95
0
 96
0
 41
0.028
141
0.344
141
0.25
141
0.25
141
0.25
141
0.25
141
0.25
141
0.25
141
0.25
141
0.25
142
3.055
142
3.0
142
3.0
171
1
172
0
173
0
174
0
175
1
176
1
 91
33
178
0
145
0.0
301
CELL_VALUE
 90
4
  1
Technical Data
304
ACVALUE_END
170
5
140
0.145
171
1
172
0
173
0
174
0
175
1
176
1
 91
33
178
0
145
0.0
301
CELL_VALUE
 90
4
  1
U.S. Units
304
ACVALUE_END
170
5
140
0.145
171
1
172
0
173
0
174
0
175
1
176
1
 91
33
178
0
145
0.0
301
CELL_VALUE
 90
4
  1
Metric Units
304
ACVALUE_END
170
5
140
0.145
171
1
172
0
173
0
174
0
175
1
176
1
 91
33
178
0
145
0.0
301
CELL_VALUE
 90
4
  1
Cavity
304
ACVALUE_END
170
5
140
0.125
171
1
172
0
173
0
174
0
175
2
176
1
 91
33
178
0
145
0.0
301
CELL_VALUE
 90
4
  1
T-3A
304
ACVALUE_END
170
5
140
0.125
171
1
172
0
173
1
174
0
175
1
176
1
 91
1
178
0
145
0.0
170
1
171
1
172
0
173
0
174
0
175
1
176
1
 91
33
178
0
145
0.0
301
CELL_VALUE
 90
4
  1
Body Features
304
ACVALUE_END
170
5
140
0.125
171
1
172
0
173
0
174
0
175
2
176
1
 91
33
178
0
145
0.0
301
CELL_VALUE
 90
4
  1
A to T
304
ACVALUE_END
170
5
140
0.125
171
1
172
0
173
1
174
0
175
1
176
1
 91
1
178
0
145
0.0
170
1
171
1
172
0
173
0
174
0
175
1
176
1
 91
33
178
0
145
0.0
301
CELL_VALUE
 90
4
  1
Body Type
304
ACVALUE_END
170
5
140
0.125
171
1
172
0
173
0
174
0
175
2
176
1
 91
33
178
0
145
0.0
301
CELL_VALUE
 90
4
  1
Sandwich
304
ACVALUE_END
170
5
140
0.125
171
1
172
0
173
1
174
0
175
1
176
1
 91
1
178
0
145
0.0
170
1
171
1
172
0
173
0
174
0
175
1
176
1
 91
33
178
0
145
0.0
301
CELL_VALUE
 90
4
  1
Interface
304
ACVALUE_END
170
5
140
0.125
171
1
172
0
173
0
174
0
175
2
176
1
 91
33
178
0
145
0.0
301
CELL_VALUE
 90
4
  1
ISO 05
304
ACVALUE_END
170
5
140
0.125
171
1
172
0
173
1
174
0
175
1
176
1
 91
1
178
0
145
0.0
170
1
171
1
172
0
173
0
174
0
175
1
176
1
 91
33
178
0
145
0.0
301
CELL_VALUE
 90
4
  1
Open Cavity Quantity
304
ACVALUE_END
170
5
140
0.125
171
1
172
0
173
0
174
0
175
2
176
1
 91
33
178
0
145
0.0
301
CELL_VALUE
 90
4
  1
1
304
ACVALUE_END
170
5
140
0.125
171
1
172
0
173
1
174
0
175
1
176
1
 91
1
178
0
145
0.0
170
1
171
1
172
0
173
0
174
0
175
1
176
1
 91
33
178
0
145
0.0
301
CELL_VALUE
 90
4
  1
Stack Height
304
ACVALUE_END
170
5
140
0.125
171
1
172
0
173
0
174
0
175
1
176
1
 91
33
178
0
145
0.0
301
CELL_VALUE
 90
4
  1
1.94 in.
304
ACVALUE_END
170
5
140
0.125
171
1
172
0
173
0
174
0
175
1
176
1
 91
33
178
0
145
0.0
301
CELL_VALUE
 90
4
  1
49 mm
304
ACVALUE_END
170
5
140
0.125
171
1
172
0
173
0
174
0
175
1
176
1
 91
33
178
0
145
0.0
301
CELL_VALUE
 90
4
  1
Weight
304
ACVALUE_END
170
5
140
0.125
171
1
172
0
173
0
174
0
175
1
176
1
 91
33
178
0
145
0.0
301
CELL_VALUE
 90
4
  1
2.130 lb.
304
ACVALUE_END
170
5
140
0.125
171
1
172
0
173
0
174
0
175
1
176
1
 91
33
178
0
145
0.0
301
CELL_VALUE
 90
4
  1
0,966 kg.
304
ACVALUE_END
170
5
140
0.125
171
1
172
0
173
0
174
0
175
1
176
1
 91
33
178
0
145
0.0
301
CELL_VALUE
 90
4
  1
Seal Plate Included (see notes)
304
ACVALUE_END
170
5
140
0.125
171
1
172
0
173
0
174
0
175
2
176
1
 91
33
178
0
145
0.0
301
CELL_VALUE
 90
4
  1
No
304
ACVALUE_END
170
5
140
0.125
171
1
172
0
173
1
174
0
175
1
176
1
 91
1
178
0
145
0.0
170
1
  0
MTEXT
  5
279
100
AcDbEntity
  8
0
100
AcDbMText
 62
2
  6
CONTINUOUS
  7
STANDARD
 71
1
 72
1
 10
0.52125
 20
5.75995
 30
0.0
 11
1.0
 21
0.0
 31
0.0
 44
0.6
  3
Notes\P \P1. Important: Carefully consider\P   the maximum system pressure. The\P   pressure rating of the manifold is\P   dependent on the manifold material,\P   with the port type/size a secondary\P   consideration. Manifolds\P   constructed of alu
  1
minum are not\P   rated for pressures higher than\P   3000 psi (210 bar), regardless of\P   the port type/size specified.\P2. Seal retainer plate is not\P   required for this model.
 40
0.1
 41
3.04
  0
LINE
  5
27A
100
AcDbEntity
  8
0
100
AcDbLine
 62
7
  6
CONTINUOUS
 10
0.30125
 20
0.30125
 11
0.30125
 21
16.69875
  0
LINE
  5
27B
100
AcDbEntity
  8
0
100
AcDbLine
 62
7
  6
CONTINUOUS
 10
0.30125
 20
0.30125
 11
21.69875
 21
0.30125
  0
LINE
  5
27C
100
AcDbEntity
  8
0
100
AcDbLine
 62
7
  6
CONTINUOUS
 10
0.30125
 20
16.69875
 11
21.69875
 21
16.69875
  0
LINE
  5
27D
100
AcDbEntity
  8
0
100
AcDbLine
 62
7
  6
CONTINUOUS
 10
21.69875
 20
0.30125
 11
21.69875
 21
16.69875
  0
LINE
  5
27E
100
AcDbEntity
  8
0
100
AcDbLine
 62
7
  6
CONTINUOUS
 10
11.9566119114
 20
5.3655077462
 11
9.5417972026
 21
5.532975715
  0
LINE
  5
27F
100
AcDbEntity
  8
0
100
AcDbLine
 62
7
  6
CONTINUOUS
 10
10.6691035526
 20
11.5772786908
 11
10.6695620121
 21
11.5777132954
  0
LINE
  5
280
100
AcDbEntity
  8
0
100
AcDbLine
 62
7
  6
CONTINUOUS
 10
10.699047255
 20
11.6051457904
 11
10.6994292051
 21
11.605507826
  0
LINE
  5
281
100
AcDbEntity
  8
0
100
AcDbLine
 62
7
  6
CONTINUOUS
 10
10.6994286494
 20
11.6055073368
 11
10.669562223
 21
11.5777134917
  0
LINE
  5
282
100
AcDbEntity
  8
0
100
AcDbLine
 62
7
  6
CONTINUOUS
 10
10.6076184225
 20
11.1285234597
 11
10.6061232205
 21
11.1270049969
  0
LINE
  5
283
100
AcDbEntity
  8
0
100
AcDbLine
 62
7
  6
CONTINUOUS
 10
10.5334191215
 20
10.9902573605
 11
10.5802177615
 21
11.0338224447
  0
LINE
  5
284
100
AcDbEntity
  8
0
100
AcDbLine
 62
7
  6
CONTINUOUS
 10
10.3680076596
 20
10.7851445956
 11
10.4277405124
 21
10.8407322858
  0
LINE
  5
285
100
AcDbEntity
  8
0
100
AcDbLine
 62
7
  6
CONTINUOUS
 10
11.0395195991
 20
11.0980630285
 11
11.0400190919
 21
11.0985363715
  0
LINE
  5
286
100
AcDbEntity
  8
0
100
AcDbLine
 62
7
  6
CONTINUOUS
 10
11.0868808862
 20
10.8079566221
 11
11.1076229692
 21
10.8182028139
  0
LINE
  5
287
100
AcDbEntity
  8
0
100
AcDbLine
 62
7
  6
CONTINUOUS
 10
10.3360281472
 20
10.3847847732
 11
10.3498339152
 21
10.3916045582
  0
LINE
  5
288
100
AcDbEntity
  8
0
100
AcDbLine
 62
7
  6
CONTINUOUS
 10
9.7028827658
 20
9.4603322617
 11
10.002077335
 21
9.7493320403
  0
LINE
  5
289
100
AcDbEntity
  8
0
100
AcDbLine
 62
7
  6
CONTINUOUS
 10
9.7328264682
 20
9.4881993613
 11
10.0320210374
 21
9.7771991399
  0
LINE
  5
28A
100
AcDbEntity
  8
0
100
AcDbLine
 62
7
  6
CONTINUOUS
 10
11.107924288
 20
11.027456935
 11
11.1085998296
 21
11.0280973211
  0
LINE
  5
28B
100
AcDbEntity
  8
0
100
AcDbLine
 62
7
  6
CONTINUOUS
 10
10.002077335
 20
9.7493320403
 11
10.0030121251
 21
9.7502181833
  0
LINE
  5
28C
100
AcDbEntity
  8
0
100
AcDbLine
 62
7
  6
CONTINUOUS
 10
10.0320210374
 20
9.7771991399
 11
10.0328795819
 21
9.7780128572
  0
LINE
  5
28D
100
AcDbEntity
  8
0
100
AcDbLine
 62
7
  6
CONTINUOUS
 10
11.1026254059
 20
11.022525769
 11
11.107924288
 21
11.027456935
  0
LINE
  5
28E
100
AcDbEntity
  8
0
100
AcDbLine
 62
7
  6
CONTINUOUS
 10
10.0320136158
 20
9.7772071149
 11
10.002077335
 21
9.7493320403
  0
LINE
  5
28F
100
AcDbEntity
  8
0
100
AcDbLine
 62
7
  6
CONTINUOUS
 10
9.7328264682
 20
9.4881993613
 11
9.7028827658
 21
9.4603322617
  0
LINE
  5
290
100
AcDbEntity
  8
0
100
AcDbLine
 62
7
  6
CONTINUOUS
 10
9.5417972026
 20
8.4307533656
 11
9.5417972026
 21
5.532975715
  0
LINE
  5
291
100
AcDbEntity
  8
0
100
AcDbLine
 62
7
  6
CONTINUOUS
 10
10.6271518879
 20
7.1320404092
 11
10.6154629145
 21
7.1376031932
  0
LINE
  5
292
100
AcDbEntity
  8
0
100
AcDbLine
 62
7
  6
CONTINUOUS
 10
9.6901049721
 20
8.4992298852
 11
9.6901049721
 21
9.4352120663
  0
LINE
  5
293
100
AcDbEntity
  8
0
100
AcDbLine
 62
7
  6
CONTINUOUS
 10
9.976071294
 20
9.3791558346
 11
9.9680479103
 21
9.3414621382
  0
LINE
  5
294
100
AcDbEntity
  8
0
100
AcDbLine
 62
7
  6
CONTINUOUS
 10
9.9680479103
 20
9.3414621382
 11
9.9680479103
 21
8.405479957
  0
LINE
  5
295
100
AcDbEntity
  8
0
100
AcDbLine
 62
7
  6
CONTINUOUS
 10
9.5417972026
 20
8.4307533656
 11
9.6901049721
 21
8.5740076789
  0
LINE
  5
296
100
AcDbEntity
  8
0
100
AcDbLine
 62
7
  6
CONTINUOUS
 10
11.3233847285
 20
9.6592747596
 11
11.3576396832
 21
9.6761960514
  0
LINE
  5
297
100
AcDbEntity
  8
0
100
AcDbLine
 62
7
  6
CONTINUOUS
 10
10.7589899892
 20
7.4851196122
 11
10.7706789626
 21
7.4795568282
  0
LINE
  5
298
100
AcDbEntity
  8
0
100
AcDbLine
 62
7
  6
CONTINUOUS
 10
10.2278066989
 20
9.7419844499
 11
10.2278066989
 21
10.2480945526
  0
LINE
  5
299
100
AcDbEntity
  8
0
100
AcDbLine
 62
7
  6
CONTINUOUS
 10
10.2422547471
 20
9.7280287309
 11
10.2422547471
 21
10.2341388335
  0
LINE
  5
29A
100
AcDbEntity
  8
0
100
AcDbLine
 62
7
  6
CONTINUOUS
 10
10.3088339152
 20
9.5608158227
 11
10.3088339152
 21
9.689851724
  0
LINE
  5
29B
100
AcDbEntity
  8
0
100
AcDbLine
 62
7
  6
CONTINUOUS
 10
10.3498339152
 20
10.3276019915
 11
10.3498339152
 21
10.7506775285
  0
LINE
  5
29C
100
AcDbEntity
  8
0
100
AcDbLine
 62
7
  6
CONTINUOUS
 10
10.5334191215
 20
10.8920635198
 11
10.5334191215
 21
10.9902573605
  0
LINE
  5
29D
100
AcDbEntity
  8
0
100
AcDbLine
 62
7
  6
CONTINUOUS
 10
10.5758339152
 20
10.8105649333
 11
10.5758339152
 21
10.8268801317
  0
LINE
  5
29E
100
AcDbEntity
  8
0
100
AcDbLine
 62
7
  6
CONTINUOUS
 10
10.5758339152
 20
11.0462508489
 11
10.5758339152
 21
11.0520464042
  0
LINE
  5
29F
100
AcDbEntity
  8
0
100
AcDbLine
 62
7
  6
CONTINUOUS
 10
10.5813339152
 20
11.0254834424
 11
10.5813339152
 21
11.0324139904
  0
LINE
  5
2A0
100
AcDbEntity
  8
0
100
AcDbLine
 62
7
  6
CONTINUOUS
 10
10.6173984267
 20
10.8109458787
 11
10.6173984267
 21
10.9091397195
  0
LINE
  5
2A1
100
AcDbEntity
  8
0
100
AcDbLine
 62
7
  6
CONTINUOUS
 10
10.6559414652
 20
9.6209588653
 11
10.6559414652
 21
10.1270689679
  0
LINE
  5
2A2
100
AcDbEntity
  8
0
100
AcDbLine
 62
7
  6
CONTINUOUS
 10
10.6628339152
 20
11.5649530483
 11
10.6628339152
 21
11.3727337975
  0
LINE
  5
2A3
100
AcDbEntity
  8
0
100
AcDbLine
 62
7
  6
CONTINUOUS
 10
10.6628339152
 20
11.3360286139
 11
10.6628339152
 21
11.0964789948
  0
LINE
  5
2A4
100
AcDbEntity
  8
0
100
AcDbLine
 62
7
  6
CONTINUOUS
 10
10.6997768129
 20
11.3441717984
 11
10.6997768129
 21
11.331985593
  0
LINE
  5
2A5
100
AcDbEntity
  8
0
100
AcDbLine
 62
7
  6
CONTINUOUS
 10
10.7098622738
 20
9.6172194445
 11
10.7098622738
 21
10.1233295471
  0
LINE
  5
2A6
100
AcDbEntity
  8
0
100
AcDbLine
 62
7
  6
CONTINUOUS
 10
10.7839309319
 20
11.5748119469
 11
10.7839309319
 21
11.5752741437
  0
LINE
  5
2A7
100
AcDbEntity
  8
0
100
AcDbLine
 62
7
  6
CONTINUOUS
 10
10.7965997885
 20
11.5725322742
 11
10.7965997885
 21
11.5785530838
  0
LINE
  5
2A8
100
AcDbEntity
  8
0
100
AcDbLine
 62
7
  6
CONTINUOUS
 10
10.8229252162
 20
11.6052356118
 11
10.8229252162
 21
11.5697849202
  0
LINE
  5
2A9
100
AcDbEntity
  8
0
100
AcDbLine
 62
7
  6
CONTINUOUS
 10
10.8588864293
 20
11.5692170328
 11
10.8588864293
 21
11.5828726847
  0
LINE
  5
2AA
100
AcDbEntity
  8
0
100
AcDbLine
 62
7
  6
CONTINUOUS
 10
10.8761924141
 20
11.5701618327
 11
10.8761924141
 21
11.5816725106
  0
LINE
  5
2AB
100
AcDbEntity
  8
0
100
AcDbLine
 62
7
  6
CONTINUOUS
 10
10.9121536272
 20
11.5990476004
 11
10.9121536272
 21
11.5753355036
  0
LINE
  5
2AC
100
AcDbEntity
  8
0
100
AcDbLine
 62
7
  6
CONTINUOUS
 10
10.9308132204
 20
10.789210489
 11
10.9308132204
 21
10.8874043297
  0
LINE
  5
2AD
100
AcDbEntity
  8
0
100
AcDbLine
 62
7
  6
CONTINUOUS
 10
10.9570484889
 20
11.3346455637
 11
10.9570484889
 21
11.3141437417
  0
LINE
  5
2AE
100
AcDbEntity
  8
0
100
AcDbLine
 62
7
  6
CONTINUOUS
 10
11.0308339152
 20
11.5649530483
 11
11.0308339152
 21
11.3727337975
  0
LINE
  5
2AF
100
AcDbEntity
  8
0
100
AcDbLine
 62
7
  6
CONTINUOUS
 10
11.0308339152
 20
11.3360286139
 11
11.0308339152
 21
11.0964789948
  0
LINE
  5
2B0
100
AcDbEntity
  8
0
100
AcDbLine
 62
7
  6
CONTINUOUS
 10
11.9566119114
 20
8.2632853967
 11
9.5417972026
 21
8.4307533656
  0
LINE
  5
2B1
100
AcDbEntity
  8
0
100
AcDbLine
 62
7
  6
CONTINUOUS
 10
11.537677471
 20
8.2966257773
 11
9.9680479103
 21
8.405479957
  0
LINE
  5
2B2
100
AcDbEntity
  8
0
100
AcDbLine
 62
7
  6
CONTINUOUS
 10
11.1123339152
 20
11.0254834424
 11
11.1123339152
 21
11.0322986912
  0
LINE
  5
2B3
100
AcDbEntity
  8
0
100
AcDbLine
 62
7
  6
CONTINUOUS
 10
11.1178339152
 20
10.8105649333
 11
11.1178339152
 21
10.8234763659
  0
LINE
  5
2B4
100
AcDbEntity
  8
0
100
AcDbLine
 62
7
  6
CONTINUOUS
 10
11.1178339152
 20
11.0462508489
 11
11.1178339152
 21
11.0520464042
  0
LINE
  5
2B5
100
AcDbEntity
  8
0
100
AcDbLine
 62
7
  6
CONTINUOUS
 10
11.1602487089
 20
10.8485927403
 11
11.1602487089
 21
10.946786581
  0
LINE
  5
2B6
100
AcDbEntity
  8
0
100
AcDbLine
 62
7
  6
CONTINUOUS
 10
12.266207606
 20
9.6222577751
 11
11.9670130367
 21
9.3332579965
  0
LINE
  5
2B7
100
AcDbEntity
  8
0
100
AcDbLine
 62
7
  6
CONTINUOUS
 10
12.2961513084
 20
9.5902374699
 11
11.9969567391
 21
9.3012376913
  0
LINE
  5
2B8
100
AcDbEntity
  8
0
100
AcDbLine
 62
7
  6
CONTINUOUS
 10
11.2749686814
 20
9.6564097763
 11
11.2749686814
 21
10.1625198789
  0
LINE
  5
2B9
100
AcDbEntity
  8
0
100
AcDbLine
 62
7
  6
CONTINUOUS
 10
11.3144414419
 20
9.6666260746
 11
11.3144414419
 21
10.1727361772
  0
LINE
  5
2BA
100
AcDbEntity
  8
0
100
AcDbLine
 62
7
  6
CONTINUOUS
 10
11.3438339152
 20
10.3276019915
 11
11.3438339152
 21
10.7506775285
  0
LINE
  5
2BB
100
AcDbEntity
  8
0
100
AcDbLine
 62
7
  6
CONTINUOUS
 10
11.3848339152
 20
9.5607821534
 11
11.3848339152
 21
9.6950122038
  0
LINE
  5
2BC
100
AcDbEntity
  8
0
100
AcDbLine
 62
7
  6
CONTINUOUS
 10
11.4658611314
 20
9.812886272
 11
11.4658611314
 21
10.3189963746
  0
LINE
  5
2BD
100
AcDbEntity
  8
0
100
AcDbLine
 62
7
  6
CONTINUOUS
 10
11.5457008548
 20
9.2703016549
 11
11.537677471
 21
9.2326079584
  0
LINE
  5
2BE
100
AcDbEntity
  8
0
100
AcDbLine
 62
7
  6
CONTINUOUS
 10
12.308929102
 20
8.7581371825
 11
12.4582027974
 21
8.7477850165
  0
LINE
  5
2BF
100
AcDbEntity
  8
0
100
AcDbLine
 62
7
  6
CONTINUOUS
 10
11.537677471
 20
9.2326079584
 11
11.537677471
 21
8.2966257773
  0
LINE
  5
2C0
100
AcDbEntity
  8
0
100
AcDbLine
 62
7
  6
CONTINUOUS
 10
12.2961513084
 20
8.6542552888
 11
11.9969567391
 21
8.3652555101
  0
LINE
  5
2C1
100
AcDbEntity
  8
0
100
AcDbLine
 62
7
  6
CONTINUOUS
 10
12.4582027974
 20
8.7477850165
 11
11.9566119114
 21
8.2632853967
  0
LINE
  5
2C2
100
AcDbEntity
  8
0
100
AcDbLine
 62
7
  6
CONTINUOUS
 10
11.537677471
 20
9.2326079584
 11
9.9680479103
 21
9.3414621382
  0
LINE
  5
2C3
100
AcDbEntity
  8
0
100
AcDbLine
 62
7
  6
CONTINUOUS
 10
11.5457008548
 20
9.2703016549
 11
9.976071294
 21
9.3791558346
  0
LINE
  5
2C4
100
AcDbEntity
  8
0
100
AcDbLine
 62
7
  6
CONTINUOUS
 10
10.3702831019
 20
9.6592747596
 11
10.3246983941
 21
9.6817927324
  0
LINE
  5
2C5
100
AcDbEntity
  8
0
100
AcDbLine
 62
7
  6
CONTINUOUS
 10
11.9566119114
 20
8.2632853967
 11
11.9566119114
 21
5.3655077462
  0
LINE
  5
2C6
100
AcDbEntity
  8
0
100
AcDbLine
 62
7
  6
CONTINUOUS
 10
11.9969567391
 20
9.3012376913
 11
11.9969567391
 21
8.3652555101
  0
LINE
  5
2C7
100
AcDbEntity
  8
0
100
AcDbLine
 62
7
  6
CONTINUOUS
 10
12.2961513084
 20
9.5902374699
 11
12.2961513084
 21
8.6542552888
  0
LINE
  5
2C8
100
AcDbEntity
  8
0
100
AcDbLine
 62
7
  6
CONTINUOUS
 10
12.308929102
 20
8.6793754841
 11
12.308929102
 21
9.6153576652
  0
LINE
  5
2C9
100
AcDbEntity
  8
0
100
AcDbLine
 62
7
  6
CONTINUOUS
 10
11.4432829478
 20
9.7715022346
 11
12.0229627801
 21
9.7313013017
  0
LINE
  5
2CA
100
AcDbEntity
  8
0
100
AcDbLine
 62
7
  6
CONTINUOUS
 10
11.9670130367
 20
9.3332579965
 11
11.9969567391
 21
9.3012376913
  0
LINE
  5
2CB
100
AcDbEntity
  8
0
100
AcDbLine
 62
7
  6
CONTINUOUS
 10
12.4582027974
 20
8.7477850165
 11
12.4582027974
 21
5.850007366
  0
LINE
  5
2CC
100
AcDbEntity
  8
0
100
AcDbLine
 62
7
  6
CONTINUOUS
 10
10.5910424245
 20
11.022525769
 11
10.5857435424
 21
11.027456935
  0
LINE
  5
2CD
100
AcDbEntity
  8
0
100
AcDbLine
 62
7
  6
CONTINUOUS
 10
11.3689694363
 20
10.3791880921
 11
11.3438339152
 21
10.3916045582
  0
LINE
  5
2CE
100
AcDbEntity
  8
0
100
AcDbLine
 62
7
  6
CONTINUOUS
 10
12.2952165182
 20
9.6413640035
 11
12.2653500918
 21
9.6691578486
  0
LINE
  5
2CF
100
AcDbEntity
  8
0
100
AcDbLine
 62
7
  6
CONTINUOUS
 10
12.266207606
 20
9.6222577751
 11
12.2961513084
 21
9.5902374699
  0
LINE
  5
2D0
100
AcDbEntity
  8
0
100
AcDbLine
 62
7
  6
CONTINUOUS
 10
10.6067869442
 20
10.8079566221
 11
10.5916105662
 21
10.8154534622
  0
LINE
  5
2D1
100
AcDbEntity
  8
0
100
AcDbLine
 62
7
  6
CONTINUOUS
 10
11.3256601708
 20
10.7851445956
 11
11.265927318
 21
10.8407322858
  0
LINE
  5
2D2
100
AcDbEntity
  8
0
100
AcDbLine
 62
7
  6
CONTINUOUS
 10
11.1176285804
 20
11.0299339011
 11
11.1134475435
 21
11.0338247948
  0
LINE
  5
2D3
100
AcDbEntity
  8
0
100
AcDbLine
 62
7
  6
CONTINUOUS
 10
10.994239181
 20
11.6055073368
 11
11.0241056074
 21
11.5777134917
  0
LINE
  5
2D4
100
AcDbEntity
  8
0
100
AcDbLine
 62
7
  6
CONTINUOUS
 10
12.4582027974
 20
5.850007366
 11
11.9566119114
 21
5.3655077462
  0
ARC
  5
2D5
100
AcDbEntity
  8
0
100
AcDbCircle
 62
7
  6
CONTINUOUS
 10
10.8392808435
 20
12.3837531944
 40
2.2641254893
100
AcDbArc
 50
266.0354973614
 51
266.723157899
  0
ARC
  5
2D6
100
AcDbEntity
  8
0
100
AcDbCircle
 62
7
  6
CONTINUOUS
 10
10.8392808435
 20
11.8776430917
 40
2.2641254892
100
AcDbArc
 50
266.0354973614
 51
266.723157899
  0
ARC
  5
2D7
100
AcDbEntity
  8
0
100
AcDbCircle
 62
7
  6
CONTINUOUS
 10
10.833371216
 20
11.7926425941
 40
2.1789198091
100
AcDbArc
 50
265.329224888
 51
266.0359887124
  0
ARC
  5
2D8
100
AcDbEntity
  8
0
100
AcDbCircle
 62
7
  6
CONTINUOUS
 10
10.833371216
 20
12.2987526968
 40
2.1789198091
100
AcDbArc
 50
265.329224888
 51
266.0359887124
  0
ARC
  5
2D9
100
AcDbEntity
  8
0
100
AcDbCircle
 62
7
  6
CONTINUOUS
 10
11.0557692435
 20
10.5846953891
 40
0.9538147475
100
AcDbArc
 50
283.286087793
 51
285.7355389587
  0
ARC
  5
2DA
100
AcDbEntity
  8
0
100
AcDbCircle
 62
7
  6
CONTINUOUS
 10
11.0557692435
 20
11.0908054918
 40
0.9538147475
100
AcDbArc
 50
283.286087793
 51
285.7355389587
  0
ARC
  5
2DB
100
AcDbEntity
  8
0
100
AcDbCircle
 62
7
  6
CONTINUOUS
 10
11.0984534167
 20
11.6694469935
 40
0.3503674153
100
AcDbArc
 50
193.3866269129
 51
194.363713807
  0
ARC
  5
2DC
100
AcDbEntity
  8
0
100
AcDbCircle
 62
7
  6
CONTINUOUS
 10
10.8480759732
 20
11.3016182017
 40
0.2814621647
100
AcDbArc
 50
84.2669212813
 51
87.7988306398
  0
ARC
  5
2DD
100
AcDbEntity
  8
0
100
AcDbCircle
 62
7
  6
CONTINUOUS
 10
10.8234775034
 20
7.2381088368
 40
0.1852383056
100
AcDbArc
 50
198.8481364648
 51
220.439398443
  0
ARC
  5
2DE
100
AcDbEntity
  8
0
100
AcDbCircle
 62
7
  6
CONTINUOUS
 10
10.5789483135
 20
10.9397106008
 40
0.06802854
100
AcDbArc
 50
129.2073090843
 51
132.010443206
  0
ARC
  5
2DF
100
AcDbEntity
  8
0
100
AcDbCircle
 62
7
  6
CONTINUOUS
 10
10.6610983932
 20
7.1753175645
 40
0.0371513233
100
AcDbArc
 50
133.9887857722
 51
137.1111813278
  0
ARC
  5
2E0
100
AcDbEntity
  8
0
100
AcDbCircle
 62
7
  6
CONTINUOUS
 10
10.696915086
 20
11.3544899309
 40
0.0290893873
100
AcDbArc
 50
192.3904870881
 51
194.1809858596
  0
ARC
  5
2E1
100
AcDbEntity
  8
0
100
AcDbCircle
 62
7
  6
CONTINUOUS
 10
10.9969049988
 20
11.3543013654
 40
0.0289346289
100
AcDbArc
 50
12.5533228651
 51
13.2946152537
  0
ARC
  5
2E2
100
AcDbEntity
  8
0
100
AcDbCircle
 62
7
  6
CONTINUOUS
 10
10.6962899365
 20
11.3543819354
 40
0.0284556003
100
AcDbArc
 50
166.5512661825
 51
192.4481948098
  0
ARC
  5
2E3
100
AcDbEntity
  8
0
100
AcDbCircle
 62
7
  6
CONTINUOUS
 10
10.7840499626
 20
11.6000773563
 40
0.0248034982
100
AcDbArc
 50
261.5827998778
 51
269.7250394304
  0
SPLINE
  5
2E4
100
AcDbEntity
  8
0
100
AcDbSpline
 62
7
  6
CONTINUOUS
 70
0
 71
3
 72
56
 73
52
 74
0
 42
0.0000001
 43
0.0000001
 44
0.0000000001
 40
0.0
 40
0.0
 40
0.0
 40
0.0
 40
0.031072346
 40
0.0465152317
 40
0.0618873124
 40
0.0924244558
 40
0.1227285839
 40
0.1378086476
 40
0.152843805
 40
0.1678401144
 40
0.1828038429
 40
0.2126503375
 40
0.2275575076
 40
0.2424602021
 40
0.2573657768
 40
0.2722815596
 40
0.2872148075
 40
0.3021724288
 40
0.3171611944
 40
0.3321875086
 40
0.3472571497
 40
0.3623756664
 40
0.3927682644
 40
0.4234071833
 40
0.4388308412
 40
0.4543232404
 40
0.485507794
 40
0.5169699549
 40
0.5328065592
 40
0.5487076996
 40
0.5806824155
 40
0.6128739827
 40
0.6290441713
 40
0.6452543848
 40
0.6777639099
 40
0.7103643313
 40
0.7266873147
 40
0.7430142246
 40
0.7756456102
 40
0.791945892
 40
0.80822475
 40
0.8244760382
 40
0.8406940716
 40
0.8568734333
 40
0.8730088969
 40
0.8890954876
 40
0.905128265
 40
0.9370074718
 40
0.9528594107
 40
0.9686481654
 40
1.0
 40
1.0
 40
1.0
 40
1.0
 10
10.3650062251
 20
6.9258309415
 30
0.0
 10
10.3650060905
 20
6.9178173109
 30
0.0
 10
10.3644179744
 20
6.9058095707
 30
0.0
 10
10.3624484993
 20
6.8899657879
 30
0.0
 10
10.3597097016
 20
6.8743756371
 30
0.0
 10
10.3548483774
 20
6.8552938408
 30
0.0
 10
10.3480872574
 20
6.836878434
 30
0.0
 10
10.3415955037
 20
6.8227063132
 30
0.0
 10
10.3362041078
 20
6.8123904544
 30
0.0
 10
10.3302972874
 20
6.8023954274
 30
0.0
 10
10.3217621913
 20
6.7895415239
 30
0.0
 10
10.3122375137
 20
6.7773951934
 30
0.0
 10
10.3018116897
 20
6.7660734484
 30
0.0
 10
10.2935584628
 20
6.758010686
 30
0.0
 10
10.2848901179
 20
6.7503933091
 30
0.0
 10
10.2758254652
 20
6.7432391728
 30
0.0
 10
10.2663853055
 20
6.7365652129
 30
0.0
 10
10.2565918074
 20
6.7303861391
 30
0.0
 10
10.2464667056
 20
6.7247175729
 30
0.0
 10
10.2360333714
 20
6.7195732235
 30
0.0
 10
10.2253158786
 20
6.7149645717
 30
0.0
 10
10.2106567602
 20
6.7095424086
 30
0.0
 10
10.1917301625
 20
6.7041634495
 30
0.0
 10
10.1722782357
 20
6.7007248502
 30
0.0
 10
10.1564764708
 20
6.6991414678
 30
0.0
 10
10.1404747134
 20
6.6983414742
 30
0.0
 10
10.1202937785
 20
6.6988345814
 30
0.0
 10
10.1001702891
 20
6.7013050634
 30
0.0
 10
10.0841716619
 20
6.7044499667
 30
0.0
 10
10.0682133934
 20
6.7083884958
 30
0.0
 10
10.0485375896
 20
6.7147619291
 30
0.0
 10
10.02948353
 20
6.7229802436
 30
0.0
 10
10.0146822471
 20
6.730623901
 30
0.0
 10
10.0001796856
 20
6.7389857261
 30
0.0
 10
9.9827512156
 20
6.7507083358
 30
0.0
 10
9.9664469547
 20
6.7639954692
 30
0.0
 10
9.9541550602
 20
6.7754965101
 30
0.0
 10
9.9423959152
 20
6.7875519951
 30
0.0
 10
9.9314760418
 20
6.8003956439
 30
0.0
 10
9.9214844125
 20
6.8139292753
 30
0.0
 10
9.9144726414
 20
6.8243958427
 30
0.0
 10
9.9079600574
 20
6.8351549331
 30
0.0
 10
9.9019621778
 20
6.8461801188
 30
0.0
 10
9.8964924078
 20
6.8574434545
 30
0.0
 10
9.8915650902
 20
6.8689174908
 30
0.0
 10
9.8871914366
 20
6.8805738419
 30
0.0
 10
9.882120793
 20
6.8962857715
 30
0.0
 10
9.8781804604
 20
6.9122818646
 30
0.0
 10
9.8754111116
 20
6.928433418
 30
0.0
 10
9.8734387042
 20
6.9445636749
 30
0.0
 10
9.8728375337
 20
6.9567317473
 30
0.0
 10
9.8728373863
 20
6.9648174585
 30
0.0
  0
SPLINE
  5
2E5
100
AcDbEntity
  8
0
100
AcDbSpline
 62
7
  6
CONTINUOUS
 70
0
 71
3
 72
56
 73
52
 74
0
 42
0.0000001
 43
0.0000001
 44
0.0000000001
 40
0.0
 40
0.0
 40
0.0
 40
0.0
 40
0.0310723444
 40
0.0465152282
 40
0.0618873079
 40
0.0924244521
 40
0.1227285817
 40
0.1378086463
 40
0.1528438045
 40
0.1678401149
 40
0.1828038444
 40
0.2126503405
 40
0.227557511
 40
0.2424602055
 40
0.2573657799
 40
0.272281562
 40
0.2872148089
 40
0.3021724291
 40
0.3171611937
 40
0.3321875071
 40
0.3472571476
 40
0.362375664
 40
0.3927682619
 40
0.4234071812
 40
0.4388308394
 40
0.454323239
 40
0.4855077933
 40
0.5169699546
 40
0.532806559
 40
0.5487076994
 40
0.5806824153
 40
0.6128739824
 40
0.6290441709
 40
0.6452543843
 40
0.6777639093
 40
0.7103643307
 40
0.7266873141
 40
0.7430142241
 40
0.7756456098
 40
0.7919458916
 40
0.8082247496
 40
0.8244760379
 40
0.8406940714
 40
0.8568734332
 40
0.8730088968
 40
0.8890954876
 40
0.905128265
 40
0.9370074719
 40
0.9528594107
 40
0.9686481654
 40
1.0
 40
1.0
 40
1.0
 40
1.0
 10
9.8728373842
 20
6.9648173579
 30
0.0
 10
9.8728375189
 20
6.972830988
 30
0.0
 10
9.8734256345
 20
6.9848387273
 30
0.0
 10
9.8753951098
 20
7.000682509
 30
0.0
 10
9.8781339073
 20
7.0162726592
 30
0.0
 10
9.8829952312
 20
7.0353544559
 30
0.0
 10
9.8897563512
 20
7.0537698636
 30
0.0
 10
9.8962481053
 20
7.0679419852
 30
0.0
 10
9.9016395014
 20
7.0782578446
 30
0.0
 10
9.9075463222
 20
7.0882528722
 30
0.0
 10
9.9160814188
 20
7.1011067765
 30
0.0
 10
9.9256060971
 20
7.1132531073
 30
0.0
 10
9.9360319214
 20
7.1245748528
 30
0.0
 10
9.9442851485
 20
7.132637615
 30
0.0
 10
9.9529534934
 20
7.1402549916
 30
0.0
 10
9.9620181457
 20
7.1474091276
 30
0.0
 10
9.9714583048
 20
7.1540830871
 30
0.0
 10
9.9812518023
 20
7.1602621603
 30
0.0
 10
9.9913769034
 20
7.1659307261
 30
0.0
 10
10.001810237
 20
7.1710750753
 30
0.0
 10
10.0125277294
 20
7.175683727
 30
0.0
 10
10.0271868475
 20
7.18110589
 30
0.0
 10
10.0461134451
 20
7.1864848494
 30
0.0
 10
10.065565372
 20
7.1899234487
 30
0.0
 10
10.0813671372
 20
7.1915068314
 30
0.0
 10
10.097368895
 20
7.192306825
 30
0.0
 10
10.1175498303
 20
7.191813718
 30
0.0
 10
10.13767332
 20
7.1893432358
 30
0.0
 10
10.1536719473
 20
7.1861983326
 30
0.0
 10
10.1696302158
 20
7.1822598035
 30
0.0
 10
10.1893060196
 20
7.1758863702
 30
0.0
 10
10.2083600791
 20
7.1676680557
 30
0.0
 10
10.2231613621
 20
7.1600243984
 30
0.0
 10
10.2376639235
 20
7.1516625734
 30
0.0
 10
10.2550923934
 20
7.1399399636
 30
0.0
 10
10.2713966544
 20
7.1266528304
 30
0.0
 10
10.2836885488
 20
7.1151517895
 30
0.0
 10
10.2954476939
 20
7.1030963045
 30
0.0
 10
10.3063675673
 20
7.0902526556
 30
0.0
 10
10.3163591967
 20
7.0767190241
 30
0.0
 10
10.3233709679
 20
7.0662524568
 30
0.0
 10
10.3298835519
 20
7.0554933663
 30
0.0
 10
10.3358814315
 20
7.0444681806
 30
0.0
 10
10.3413512015
 20
7.0332048448
 30
0.0
 10
10.3462785191
 20
7.0217308085
 30
0.0
 10
10.3506521727
 20
7.0100744574
 30
0.0
 10
10.3557228164
 20
6.9943625277
 30
0.0
 10
10.359663149
 20
6.9783664346
 30
0.0
 10
10.3624324978
 20
6.9622148812
 30
0.0
 10
10.3644049051
 20
6.9460846243
 30
0.0
 10
10.3650060757
 20
6.933916552
 30
0.0
 10
10.3650062231
 20
6.9258308407
 30
0.0
  0
SPLINE
  5
2E6
100
AcDbEntity
  8
0
100
AcDbSpline
 62
7
  6
CONTINUOUS
 70
0
 71
3
 72
56
 73
52
 74
0
 42
0.0000001
 43
0.0000001
 44
0.0000000001
 40
0.0
 40
0.0
 40
0.0
 40
0.0
 40
0.031072346
 40
0.0465152317
 40
0.0618873124
 40
0.0924244558
 40
0.1227285839
 40
0.1378086476
 40
0.152843805
 40
0.1678401144
 40
0.1828038429
 40
0.2126503375
 40
0.2275575076
 40
0.2424602021
 40
0.2573657768
 40
0.2722815596
 40
0.2872148075
 40
0.3021724288
 40
0.3171611944
 40
0.3321875086
 40
0.3472571497
 40
0.3623756664
 40
0.3927682644
 40
0.4234071833
 40
0.4388308412
 40
0.4543232404
 40
0.485507794
 40
0.5169699549
 40
0.5328065592
 40
0.5487076996
 40
0.5806824155
 40
0.6128739827
 40
0.6290441713
 40
0.6452543848
 40
0.6777639099
 40
0.7103643313
 40
0.7266873147
 40
0.7430142246
 40
0.7756456102
 40
0.791945892
 40
0.80822475
 40
0.8244760382
 40
0.8406940716
 40
0.8568734333
 40
0.8730088969
 40
0.8890954876
 40
0.905128265
 40
0.9370074718
 40
0.9528594107
 40
0.9686481654
 40
1.0
 40
1.0
 40
1.0
 40
1.0
 10
11.3608758286
 20
5.9507287061
 30
0.0
 10
11.3608756939
 20
5.9427150756
 30
0.0
 10
11.3602875778
 20
5.9307073354
 30
0.0
 10
11.3583181027
 20
5.9148635526
 30
0.0
 10
11.355579305
 20
5.8992734018
 30
0.0
 10
11.3507179808
 20
5.8801916055
 30
0.0
 10
11.3439568608
 20
5.8617761987
 30
0.0
 10
11.3374651071
 20
5.8476040778
 30
0.0
 10
11.3320737112
 20
5.837288219
 30
0.0
 10
11.3261668908
 20
5.8272931921
 30
0.0
 10
11.3176317947
 20
5.8144392886
 30
0.0
 10
11.3081071171
 20
5.8022929581
 30
0.0
 10
11.2976812932
 20
5.790971213
 30
0.0
 10
11.2894280662
 20
5.7829084507
 30
0.0
 10
11.2807597213
 20
5.7752910738
 30
0.0
 10
11.2716950686
 20
5.7681369375
 30
0.0
 10
11.2622549089
 20
5.7614629775
 30
0.0
 10
11.2524614108
 20
5.7552839038
 30
0.0
 10
11.242336309
 20
5.7496153376
 30
0.0
 10
11.2319029748
 20
5.7444709882
 30
0.0
 10
11.221185482
 20
5.7398623364
 30
0.0
 10
11.2065263636
 20
5.7344401733
 30
0.0
 10
11.1875997659
 20
5.7290612142
 30
0.0
 10
11.1681478391
 20
5.7256226149
 30
0.0
 10
11.1523460742
 20
5.7240392325
 30
0.0
 10
11.1363443169
 20
5.7232392389
 30
0.0
 10
11.1161633819
 20
5.7237323461
 30
0.0
 10
11.0960398925
 20
5.7262028281
 30
0.0
 10
11.0800412653
 20
5.7293477314
 30
0.0
 10
11.0640829969
 20
5.7332862605
 30
0.0
 10
11.044407193
 20
5.7396596938
 30
0.0
 10
11.0253531335
 20
5.7478780083
 30
0.0
 10
11.0105518505
 20
5.7555216657
 30
0.0
 10
10.996049289
 20
5.7638834908
 30
0.0
 10
10.978620819
 20
5.7756061005
 30
0.0
 10
10.9623165581
 20
5.7888932339
 30
0.0
 10
10.9500246636
 20
5.8003942747
 30
0.0
 10
10.9382655186
 20
5.8124497597
 30
0.0
 10
10.9273456452
 20
5.8252934086
 30
0.0
 10
10.9173540159
 20
5.83882704
 30
0.0
 10
10.9103422448
 20
5.8492936074
 30
0.0
 10
10.9038296608
 20
5.8600526978
 30
0.0
 10
10.8978317812
 20
5.8710778835
 30
0.0
 10
10.8923620112
 20
5.8823412192
 30
0.0
 10
10.8874346936
 20
5.8938152555
 30
0.0
 10
10.88306104
 20
5.9054716066
 30
0.0
 10
10.8779903964
 20
5.9211835362
 30
0.0
 10
10.8740500638
 20
5.9371796293
 30
0.0
 10
10.871280715
 20
5.9533311827
 30
0.0
 10
10.8693083076
 20
5.9694614396
 30
0.0
 10
10.8687071371
 20
5.9816295119
 30
0.0
 10
10.8687069897
 20
5.9897152232
 30
0.0
  0
SPLINE
  5
2E7
100
AcDbEntity
  8
0
100
AcDbSpline
 62
7
  6
CONTINUOUS
 70
0
 71
3
 72
56
 73
52
 74
0
 42
0.0000001
 43
0.0000001
 44
0.0000000001
 40
0.0
 40
0.0
 40
0.0
 40
0.0
 40
0.0310723444
 40
0.0465152282
 40
0.0618873079
 40
0.0924244521
 40
0.1227285817
 40
0.1378086463
 40
0.1528438045
 40
0.1678401149
 40
0.1828038444
 40
0.2126503405
 40
0.227557511
 40
0.2424602055
 40
0.2573657799
 40
0.272281562
 40
0.2872148089
 40
0.3021724291
 40
0.3171611937
 40
0.3321875071
 40
0.3472571476
 40
0.362375664
 40
0.3927682619
 40
0.4234071812
 40
0.4388308394
 40
0.454323239
 40
0.4855077933
 40
0.5169699546
 40
0.532806559
 40
0.5487076994
 40
0.5806824153
 40
0.6128739824
 40
0.6290441709
 40
0.6452543843
 40
0.6777639093
 40
0.7103643307
 40
0.7266873141
 40
0.7430142241
 40
0.7756456098
 40
0.7919458916
 40
0.8082247496
 40
0.8244760379
 40
0.8406940714
 40
0.8568734332
 40
0.8730088968
 40
0.8890954876
 40
0.905128265
 40
0.9370074719
 40
0.9528594107
 40
0.9686481654
 40
1.0
 40
1.0
 40
1.0
 40
1.0
 10
10.8687069876
 20
5.9897151226
 30
0.0
 10
10.8687071223
 20
5.9977287527
 30
0.0
 10
10.869295238
 20
6.009736492
 30
0.0
 10
10.8712647132
 20
6.0255802737
 30
0.0
 10
10.8740035107
 20
6.0411704239
 30
0.0
 10
10.8788648346
 20
6.0602522206
 30
0.0
 10
10.8856259546
 20
6.0786676283
 30
0.0
 10
10.8921177087
 20
6.0928397499
 30
0.0
 10
10.8975091049
 20
6.1031556093
 30
0.0
 10
10.9034159256
 20
6.1131506369
 30
0.0
 10
10.9119510222
 20
6.1260045412
 30
0.0
 10
10.9214757005
 20
6.138150872
 30
0.0
 10
10.9319015248
 20
6.1494726175
 30
0.0
 10
10.9401547519
 20
6.1575353797
 30
0.0
 10
10.9488230968
 20
6.1651527563
 30
0.0
 10
10.9578877491
 20
6.1723068923
 30
0.0
 10
10.9673279082
 20
6.1789808518
 30
0.0
 10
10.9771214057
 20
6.185159925
 30
0.0
 10
10.9872465068
 20
6.1908284908
 30
0.0
 10
10.9976798404
 20
6.19597284
 30
0.0
 10
11.0083973328
 20
6.2005814917
 30
0.0
 10
11.0230564509
 20
6.2060036547
 30
0.0
 10
11.0419830485
 20
6.2113826141
 30
0.0
 10
11.0614349755
 20
6.2148212134
 30
0.0
 10
11.0772367406
 20
6.2164045961
 30
0.0
 10
11.0932384984
 20
6.2172045897
 30
0.0
 10
11.1134194337
 20
6.2167114827
 30
0.0
 10
11.1335429234
 20
6.2142410005
 30
0.0
 10
11.1495415508
 20
6.2110960973
 30
0.0
 10
11.1654998192
 20
6.2071575682
 30
0.0
 10
11.185175623
 20
6.2007841349
 30
0.0
 10
11.2042296825
 20
6.1925658204
 30
0.0
 10
11.2190309655
 20
6.1849221631
 30
0.0
 10
11.2335335269
 20
6.176560338
 30
0.0
 10
11.2509619968
 20
6.1648377283
 30
0.0
 10
11.2672662578
 20
6.1515505951
 30
0.0
 10
11.2795581523
 20
6.1400495542
 30
0.0
 10
11.2913172973
 20
6.1279940692
 30
0.0
 10
11.3022371708
 20
6.1151504203
 30
0.0
 10
11.3122288001
 20
6.1016167888
 30
0.0
 10
11.3192405713
 20
6.0911502215
 30
0.0
 10
11.3257531553
 20
6.080391131
 30
0.0
 10
11.3317510349
 20
6.0693659453
 30
0.0
 10
11.337220805
 20
6.0581026095
 30
0.0
 10
11.3421481225
 20
6.0466285731
 30
0.0
 10
11.3465217761
 20
6.034972222
 30
0.0
 10
11.3515924198
 20
6.0192602924
 30
0.0
 10
11.3555327524
 20
6.0032641993
 30
0.0
 10
11.3583021012
 20
5.9871126459
 30
0.0
 10
11.3602745086
 20
5.970982389
 30
0.0
 10
11.3608756791
 20
5.9588143167
 30
0.0
 10
11.3608758265
 20
5.9507286054
 30
0.0
  0
SPLINE
  5
2E8
100
AcDbEntity
  8
0
100
AcDbSpline
 62
7
  6
CONTINUOUS
 70
0
 71
3
 72
56
 73
52
 74
0
 42
0.0000001
 43
0.0000001
 44
0.0000000001
 40
0.0
 40
0.0
 40
0.0
 40
0.0
 40
0.031072346
 40
0.0465152317
 40
0.0618873124
 40
0.0924244558
 40
0.1227285839
 40
0.1378086476
 40
0.152843805
 40
0.1678401144
 40
0.1828038429
 40
0.2126503375
 40
0.2275575076
 40
0.2424602021
 40
0.2573657768
 40
0.2722815596
 40
0.2872148075
 40
0.3021724288
 40
0.3171611944
 40
0.3321875086
 40
0.3472571497
 40
0.3623756664
 40
0.3927682644
 40
0.4234071833
 40
0.4388308412
 40
0.4543232404
 40
0.485507794
 40
0.5169699549
 40
0.5328065592
 40
0.5487076996
 40
0.5806824155
 40
0.6128739827
 40
0.6290441713
 40
0.6452543848
 40
0.6777639099
 40
0.7103643313
 40
0.7266873147
 40
0.7430142246
 40
0.7756456102
 40
0.791945892
 40
0.80822475
 40
0.8244760382
 40
0.8406940716
 40
0.8568734333
 40
0.8730088969
 40
0.8890954876
 40
0.905128265
 40
0.9370074718
 40
0.9528594107
 40
0.9686481654
 40
1.0
 40
1.0
 40
1.0
 40
1.0
 10
10.9387661825
 20
6.4938747422
 30
0.0
 10
10.9387660478
 20
6.4858611117
 30
0.0
 10
10.9381779317
 20
6.4738533715
 30
0.0
 10
10.9362084566
 20
6.4580095886
 30
0.0
 10
10.9334696589
 20
6.4424194379
 30
0.0
 10
10.9286083347
 20
6.4233376416
 30
0.0
 10
10.9218472147
 20
6.4049222347
 30
0.0
 10
10.915355461
 20
6.3907501139
 30
0.0
 10
10.9099640651
 20
6.3804342551
 30
0.0
 10
10.9040572447
 20
6.3704392282
 30
0.0
 10
10.8955221486
 20
6.3575853246
 30
0.0
 10
10.885997471
 20
6.3454389942
 30
0.0
 10
10.8755716471
 20
6.3341172491
 30
0.0
 10
10.8673184201
 20
6.3260544868
 30
0.0
 10
10.8586500752
 20
6.3184371099
 30
0.0
 10
10.8495854225
 20
6.3112829736
 30
0.0
 10
10.8401452628
 20
6.3046090136
 30
0.0
 10
10.8303517647
 20
6.2984299399
 30
0.0
 10
10.8202266629
 20
6.2927613736
 30
0.0
 10
10.8097933287
 20
6.2876170242
 30
0.0
 10
10.7990758359
 20
6.2830083725
 30
0.0
 10
10.7844167175
 20
6.2775862094
 30
0.0
 10
10.7654901198
 20
6.2722072503
 30
0.0
 10
10.746038193
 20
6.268768651
 30
0.0
 10
10.7302364281
 20
6.2671852686
 30
0.0
 10
10.7142346707
 20
6.266385275
 30
0.0
 10
10.6940537358
 20
6.2668783821
 30
0.0
 10
10.6739302464
 20
6.2693488642
 30
0.0
 10
10.6579316192
 20
6.2724937674
 30
0.0
 10
10.6419733508
 20
6.2764322965
 30
0.0
 10
10.6222975469
 20
6.2828057298
 30
0.0
 10
10.6032434874
 20
6.2910240443
 30
0.0
 10
10.5884422044
 20
6.2986677017
 30
0.0
 10
10.5739396429
 20
6.3070295268
 30
0.0
 10
10.5565111729
 20
6.3187521366
 30
0.0
 10
10.540206912
 20
6.3320392699
 30
0.0
 10
10.5279150175
 20
6.3435403108
 30
0.0
 10
10.5161558725
 20
6.3555957958
 30
0.0
 10
10.5052359991
 20
6.3684394446
 30
0.0
 10
10.4952443698
 20
6.3819730761
 30
0.0
 10
10.4882325987
 20
6.3924396434
 30
0.0
 10
10.4817200147
 20
6.4031987339
 30
0.0
 10
10.4757221351
 20
6.4142239195
 30
0.0
 10
10.4702523651
 20
6.4254872553
 30
0.0
 10
10.4653250475
 20
6.4369612916
 30
0.0
 10
10.4609513939
 20
6.4486176427
 30
0.0
 10
10.4558807503
 20
6.4643295723
 30
0.0
 10
10.4519404177
 20
6.4803256653
 30
0.0
 10
10.4491710689
 20
6.4964772188
 30
0.0
 10
10.4471986615
 20
6.5126074756
 30
0.0
 10
10.446597491
 20
6.524775548
 30
0.0
 10
10.4465973436
 20
6.5328612593
 30
0.0
  0
SPLINE
  5
2E9
100
AcDbEntity
  8
0
100
AcDbSpline
 62
7
  6
CONTINUOUS
 70
0
 71
3
 72
56
 73
52
 74
0
 42
0.0000001
 43
0.0000001
 44
0.0000000001
 40
0.0
 40
0.0
 40
0.0
 40
0.0
 40
0.0310723444
 40
0.0465152282
 40
0.0618873079
 40
0.0924244521
 40
0.1227285817
 40
0.1378086463
 40
0.1528438045
 40
0.1678401149
 40
0.1828038444
 40
0.2126503405
 40
0.227557511
 40
0.2424602055
 40
0.2573657799
 40
0.272281562
 40
0.2872148089
 40
0.3021724291
 40
0.3171611937
 40
0.3321875071
 40
0.3472571476
 40
0.362375664
 40
0.3927682619
 40
0.4234071812
 40
0.4388308394
 40
0.454323239
 40
0.4855077933
 40
0.5169699546
 40
0.532806559
 40
0.5487076994
 40
0.5806824153
 40
0.6128739824
 40
0.6290441709
 40
0.6452543843
 40
0.6777639093
 40
0.7103643307
 40
0.7266873141
 40
0.7430142241
 40
0.7756456098
 40
0.7919458916
 40
0.8082247496
 40
0.8244760379
 40
0.8406940714
 40
0.8568734332
 40
0.8730088968
 40
0.8890954876
 40
0.905128265
 40
0.9370074719
 40
0.9528594107
 40
0.9686481654
 40
1.0
 40
1.0
 40
1.0
 40
1.0
 10
10.4465973415
 20
6.5328611586
 30
0.0
 10
10.4465974762
 20
6.5408747887
 30
0.0
 10
10.4471855918
 20
6.5528825281
 30
0.0
 10
10.4491550671
 20
6.5687263097
 30
0.0
 10
10.4518938646
 20
6.58431646
 30
0.0
 10
10.4567551885
 20
6.6033982567
 30
0.0
 10
10.4635163085
 20
6.6218136644
 30
0.0
 10
10.4700080626
 20
6.635985786
 30
0.0
 10
10.4753994588
 20
6.6463016454
 30
0.0
 10
10.4813062795
 20
6.656296673
 30
0.0
 10
10.4898413761
 20
6.6691505772
 30
0.0
 10
10.4993660544
 20
6.6812969081
 30
0.0
 10
10.5097918787
 20
6.6926186535
 30
0.0
 10
10.5180451058
 20
6.7006814158
 30
0.0
 10
10.5267134507
 20
6.7082987923
 30
0.0
 10
10.535778103
 20
6.7154529283
 30
0.0
 10
10.5452182621
 20
6.7221268878
 30
0.0
 10
10.5550117596
 20
6.728305961
 30
0.0
 10
10.5651368607
 20
6.7339745269
 30
0.0
 10
10.5755701943
 20
6.7391188761
 30
0.0
 10
10.5862876867
 20
6.7437275277
 30
0.0
 10
10.6009468048
 20
6.7491496907
 30
0.0
 10
10.6198734024
 20
6.7545286501
 30
0.0
 10
10.6393253294
 20
6.7579672495
 30
0.0
 10
10.6551270945
 20
6.7595506321
 30
0.0
 10
10.6711288523
 20
6.7603506257
 30
0.0
 10
10.6913097876
 20
6.7598575187
 30
0.0
 10
10.7114332773
 20
6.7573870366
 30
0.0
 10
10.7274319047
 20
6.7542421334
 30
0.0
 10
10.7433901731
 20
6.7503036043
 30
0.0
 10
10.7630659769
 20
6.743930171
 30
0.0
 10
10.7821200364
 20
6.7357118565
 30
0.0
 10
10.7969213194
 20
6.7280681991
 30
0.0
 10
10.8114238808
 20
6.7197063741
 30
0.0
 10
10.8288523507
 20
6.7079837644
 30
0.0
 10
10.8451566117
 20
6.6946966311
 30
0.0
 10
10.8574485062
 20
6.6831955902
 30
0.0
 10
10.8692076512
 20
6.6711401052
 30
0.0
 10
10.8801275246
 20
6.6582964564
 30
0.0
 10
10.890119154
 20
6.6447628249
 30
0.0
 10
10.8971309252
 20
6.6342962575
 30
0.0
 10
10.9036435092
 20
6.623537167
 30
0.0
 10
10.9096413888
 20
6.6125119814
 30
0.0
 10
10.9151111589
 20
6.6012486456
 30
0.0
 10
10.9200384764
 20
6.5897746092
 30
0.0
 10
10.92441213
 20
6.5781182581
 30
0.0
 10
10.9294827737
 20
6.5624063285
 30
0.0
 10
10.9334231063
 20
6.5464102354
 30
0.0
 10
10.9361924551
 20
6.5302586819
 30
0.0
 10
10.9381648625
 20
6.5141284251
 30
0.0
 10
10.938766033
 20
6.5019603527
 30
0.0
 10
10.9387661804
 20
6.4938746415
 30
0.0
  0
SPLINE
  5
2EA
100
AcDbEntity
  8
0
100
AcDbSpline
 62
7
  6
CONTINUOUS
 70
0
 71
3
 72
56
 73
52
 74
0
 42
0.0000001
 43
0.0000001
 44
0.0000000001
 40
0.0
 40
0.0
 40
0.0
 40
0.0
 40
0.031072346
 40
0.0465152317
 40
0.0618873124
 40
0.0924244558
 40
0.1227285839
 40
0.1378086476
 40
0.152843805
 40
0.1678401144
 40
0.1828038429
 40
0.2126503375
 40
0.2275575076
 40
0.2424602021
 40
0.2573657768
 40
0.2722815596
 40
0.2872148075
 40
0.3021724288
 40
0.3171611944
 40
0.3321875086
 40
0.3472571497
 40
0.3623756664
 40
0.3927682644
 40
0.4234071833
 40
0.4388308412
 40
0.4543232404
 40
0.485507794
 40
0.5169699549
 40
0.5328065592
 40
0.5487076996
 40
0.5806824155
 40
0.6128739827
 40
0.6290441713
 40
0.6452543848
 40
0.6777639099
 40
0.7103643313
 40
0.7266873147
 40
0.7430142246
 40
0.7756456102
 40
0.791945892
 40
0.80822475
 40
0.8244760382
 40
0.8406940716
 40
0.8568734333
 40
0.8730088969
 40
0.8890954876
 40
0.905128265
 40
0.9370074718
 40
0.9528594107
 40
0.9686481654
 40
1.0
 40
1.0
 40
1.0
 40
1.0
 10
10.9387661825
 20
7.2782063643
 30
0.0
 10
10.9387660478
 20
7.2701927338
 30
0.0
 10
10.9381779317
 20
7.2581849936
 30
0.0
 10
10.9362084566
 20
7.2423412108
 30
0.0
 10
10.9334696589
 20
7.22675106
 30
0.0
 10
10.9286083347
 20
7.2076692637
 30
0.0
 10
10.9218472147
 20
7.1892538569
 30
0.0
 10
10.915355461
 20
7.175081736
 30
0.0
 10
10.9099640651
 20
7.1647658772
 30
0.0
 10
10.9040572447
 20
7.1547708503
 30
0.0
 10
10.8955221486
 20
7.1419169468
 30
0.0
 10
10.885997471
 20
7.1297706163
 30
0.0
 10
10.8755716471
 20
7.1184488712
 30
0.0
 10
10.8673184201
 20
7.1103861089
 30
0.0
 10
10.8586500752
 20
7.102768732
 30
0.0
 10
10.8495854225
 20
7.0956145957
 30
0.0
 10
10.8401452628
 20
7.0889406357
 30
0.0
 10
10.8303517647
 20
7.082761562
 30
0.0
 10
10.8202266629
 20
7.0770929958
 30
0.0
 10
10.8097933287
 20
7.0719486464
 30
0.0
 10
10.7990758359
 20
7.0673399946
 30
0.0
 10
10.7844167175
 20
7.0619178315
 30
0.0
 10
10.7654901198
 20
7.0565388724
 30
0.0
 10
10.746038193
 20
7.0531002731
 30
0.0
 10
10.7302364281
 20
7.0515168907
 30
0.0
 10
10.7142346707
 20
7.0507168971
 30
0.0
 10
10.6940537358
 20
7.0512100042
 30
0.0
 10
10.6739302464
 20
7.0536804863
 30
0.0
 10
10.6579316192
 20
7.0568253895
 30
0.0
 10
10.6419733508
 20
7.0607639186
 30
0.0
 10
10.6222975469
 20
7.067137352
 30
0.0
 10
10.6032434874
 20
7.0753556665
 30
0.0
 10
10.5884422044
 20
7.0829993239
 30
0.0
 10
10.5739396429
 20
7.0913611489
 30
0.0
 10
10.5565111729
 20
7.1030837587
 30
0.0
 10
10.540206912
 20
7.116370892
 30
0.0
 10
10.5279150175
 20
7.1278719329
 30
0.0
 10
10.5161558725
 20
7.1399274179
 30
0.0
 10
10.5052359991
 20
7.1527710668
 30
0.0
 10
10.4952443698
 20
7.1663046982
 30
0.0
 10
10.4882325987
 20
7.1767712656
 30
0.0
 10
10.4817200147
 20
7.187530356
 30
0.0
 10
10.4757221351
 20
7.1985555416
 30
0.0
 10
10.4702523651
 20
7.2098188774
 30
0.0
 10
10.4653250475
 20
7.2212929137
 30
0.0
 10
10.4609513939
 20
7.2329492648
 30
0.0
 10
10.4558807503
 20
7.2486611944
 30
0.0
 10
10.4519404177
 20
7.2646572874
 30
0.0
 10
10.4491710689
 20
7.2808088409
 30
0.0
 10
10.4471986615
 20
7.2969390978
 30
0.0
 10
10.446597491
 20
7.3091071701
 30
0.0
 10
10.4465973436
 20
7.3171928814
 30
0.0
  0
SPLINE
  5
2EB
100
AcDbEntity
  8
0
100
AcDbSpline
 62
7
  6
CONTINUOUS
 70
0
 71
3
 72
56
 73
52
 74
0
 42
0.0000001
 43
0.0000001
 44
0.0000000001
 40
0.0
 40
0.0
 40
0.0
 40
0.0
 40
0.0310723444
 40
0.0465152282
 40
0.0618873079
 40
0.0924244521
 40
0.1227285817
 40
0.1378086463
 40
0.1528438045
 40
0.1678401149
 40
0.1828038444
 40
0.2126503405
 40
0.227557511
 40
0.2424602055
 40
0.2573657799
 40
0.272281562
 40
0.2872148089
 40
0.3021724291
 40
0.3171611937
 40
0.3321875071
 40
0.3472571476
 40
0.362375664
 40
0.3927682619
 40
0.4234071812
 40
0.4388308394
 40
0.454323239
 40
0.4855077933
 40
0.5169699546
 40
0.532806559
 40
0.5487076994
 40
0.5806824153
 40
0.6128739824
 40
0.6290441709
 40
0.6452543843
 40
0.6777639093
 40
0.7103643307
 40
0.7266873141
 40
0.7430142241
 40
0.7756456098
 40
0.7919458916
 40
0.8082247496
 40
0.8244760379
 40
0.8406940714
 40
0.8568734332
 40
0.8730088968
 40
0.8890954876
 40
0.905128265
 40
0.9370074719
 40
0.9528594107
 40
0.9686481654
 40
1.0
 40
1.0
 40
1.0
 40
1.0
 10
10.4465973415
 20
7.3171927808
 30
0.0
 10
10.4465974762
 20
7.3252064108
 30
0.0
 10
10.4471855918
 20
7.3372141502
 30
0.0
 10
10.4491550671
 20
7.3530579318
 30
0.0
 10
10.4518938646
 20
7.3686480821
 30
0.0
 10
10.4567551885
 20
7.3877298788
 30
0.0
 10
10.4635163085
 20
7.4061452865
 30
0.0
 10
10.4700080626
 20
7.4203174081
 30
0.0
 10
10.4753994588
 20
7.4306332675
 30
0.0
 10
10.4813062795
 20
7.4406282951
 30
0.0
 10
10.4898413761
 20
7.4534821994
 30
0.0
 10
10.4993660544
 20
7.4656285302
 30
0.0
 10
10.5097918787
 20
7.4769502757
 30
0.0
 10
10.5180451058
 20
7.4850130379
 30
0.0
 10
10.5267134507
 20
7.4926304144
 30
0.0
 10
10.535778103
 20
7.4997845505
 30
0.0
 10
10.5452182621
 20
7.50645851
 30
0.0
 10
10.5550117596
 20
7.5126375832
 30
0.0
 10
10.5651368607
 20
7.518306149
 30
0.0
 10
10.5755701943
 20
7.5234504982
 30
0.0
 10
10.5862876867
 20
7.5280591499
 30
0.0
 10
10.6009468048
 20
7.5334813129
 30
0.0
 10
10.6198734024
 20
7.5388602723
 30
0.0
 10
10.6393253294
 20
7.5422988716
 30
0.0
 10
10.6551270945
 20
7.5438822542
 30
0.0
 10
10.6711288523
 20
7.5446822479
 30
0.0
 10
10.6913097876
 20
7.5441891408
 30
0.0
 10
10.7114332773
 20
7.5417186587
 30
0.0
 10
10.7274319047
 20
7.5385737555
 30
0.0
 10
10.7433901731
 20
7.5346352264
 30
0.0
 10
10.7630659769
 20
7.5282617931
 30
0.0
 10
10.7821200364
 20
7.5200434786
 30
0.0
 10
10.7969213194
 20
7.5123998212
 30
0.0
 10
10.8114238808
 20
7.5040379962
 30
0.0
 10
10.8288523507
 20
7.4923153865
 30
0.0
 10
10.8451566117
 20
7.4790282532
 30
0.0
 10
10.8574485062
 20
7.4675272124
 30
0.0
 10
10.8692076512
 20
7.4554717274
 30
0.0
 10
10.8801275246
 20
7.4426280785
 30
0.0
 10
10.890119154
 20
7.429094447
 30
0.0
 10
10.8971309252
 20
7.4186278797
 30
0.0
 10
10.9036435092
 20
7.4078687892
 30
0.0
 10
10.9096413888
 20
7.3968436035
 30
0.0
 10
10.9151111589
 20
7.3855802677
 30
0.0
 10
10.9200384764
 20
7.3741062313
 30
0.0
 10
10.92441213
 20
7.3624498802
 30
0.0
 10
10.9294827737
 20
7.3467379506
 30
0.0
 10
10.9334231063
 20
7.3307418575
 30
0.0
 10
10.9361924551
 20
7.314590304
 30
0.0
 10
10.9381648625
 20
7.2984600472
 30
0.0
 10
10.938766033
 20
7.2862919748
 30
0.0
 10
10.9387661804
 20
7.2782062636
 30
0.0
  0
SPLINE
  5
2EC
100
AcDbEntity
  8
0
100
AcDbSpline
 62
7
  6
CONTINUOUS
 70
0
 71
3
 72
56
 73
52
 74
0
 42
0.0000001
 43
0.0000001
 44
0.0000000001
 40
0.0
 40
0.0
 40
0.0
 40
0.0
 40
0.031072346
 40
0.0465152317
 40
0.0618873124
 40
0.0924244558
 40
0.1227285839
 40
0.1378086476
 40
0.152843805
 40
0.1678401144
 40
0.1828038429
 40
0.2126503375
 40
0.2275575076
 40
0.2424602021
 40
0.2573657768
 40
0.2722815596
 40
0.2872148075
 40
0.3021724288
 40
0.3171611944
 40
0.3321875086
 40
0.3472571497
 40
0.3623756664
 40
0.3927682644
 40
0.4234071833
 40
0.4388308412
 40
0.4543232404
 40
0.485507794
 40
0.5169699549
 40
0.5328065592
 40
0.5487076996
 40
0.5806824155
 40
0.6128739827
 40
0.6290441713
 40
0.6452543848
 40
0.6777639099
 40
0.7103643313
 40
0.7266873147
 40
0.7430142246
 40
0.7756456102
 40
0.791945892
 40
0.80822475
 40
0.8244760382
 40
0.8406940716
 40
0.8568734333
 40
0.8730088969
 40
0.8890954876
 40
0.905128265
 40
0.9370074718
 40
0.9528594107
 40
0.9686481654
 40
1.0
 40
1.0
 40
1.0
 40
1.0
 10
11.3608758286
 20
7.7628055936
 30
0.0
 10
11.3608756939
 20
7.7547919631
 30
0.0
 10
11.3602875778
 20
7.7427842229
 30
0.0
 10
11.3583181027
 20
7.7269404401
 30
0.0
 10
11.355579305
 20
7.7113502893
 30
0.0
 10
11.3507179808
 20
7.692268493
 30
0.0
 10
11.3439568608
 20
7.6738530862
 30
0.0
 10
11.3374651071
 20
7.6596809653
 30
0.0
 10
11.3320737112
 20
7.6493651065
 30
0.0
 10
11.3261668908
 20
7.6393700796
 30
0.0
 10
11.3176317947
 20
7.6265161761
 30
0.0
 10
11.3081071171
 20
7.6143698456
 30
0.0
 10
11.2976812932
 20
7.6030481005
 30
0.0
 10
11.2894280662
 20
7.5949853382
 30
0.0
 10
11.2807597213
 20
7.5873679613
 30
0.0
 10
11.2716950686
 20
7.580213825
 30
0.0
 10
11.2622549089
 20
7.573539865
 30
0.0
 10
11.2524614108
 20
7.5673607913
 30
0.0
 10
11.242336309
 20
7.5616922251
 30
0.0
 10
11.2319029748
 20
7.5565478757
 30
0.0
 10
11.221185482
 20
7.5519392239
 30
0.0
 10
11.2065263636
 20
7.5465170608
 30
0.0
 10
11.1875997659
 20
7.5411381017
 30
0.0
 10
11.1681478391
 20
7.5376995024
 30
0.0
 10
11.1523460742
 20
7.53611612
 30
0.0
 10
11.1363443169
 20
7.5353161264
 30
0.0
 10
11.1161633819
 20
7.5358092335
 30
0.0
 10
11.0960398925
 20
7.5382797156
 30
0.0
 10
11.0800412653
 20
7.5414246188
 30
0.0
 10
11.0640829969
 20
7.5453631479
 30
0.0
 10
11.044407193
 20
7.5517365813
 30
0.0
 10
11.0253531335
 20
7.5599548958
 30
0.0
 10
11.0105518505
 20
7.5675985532
 30
0.0
 10
10.996049289
 20
7.5759603782
 30
0.0
 10
10.978620819
 20
7.587682988
 30
0.0
 10
10.9623165581
 20
7.6009701213
 30
0.0
 10
10.9500246636
 20
7.6124711622
 30
0.0
 10
10.9382655186
 20
7.6245266472
 30
0.0
 10
10.9273456452
 20
7.637370296
 30
0.0
 10
10.9173540159
 20
7.6509039275
 30
0.0
 10
10.9103422448
 20
7.6613704948
 30
0.0
 10
10.9038296608
 20
7.6721295853
 30
0.0
 10
10.8978317812
 20
7.6831547709
 30
0.0
 10
10.8923620112
 20
7.6944181067
 30
0.0
 10
10.8874346936
 20
7.705892143
 30
0.0
 10
10.88306104
 20
7.7175484941
 30
0.0
 10
10.8779903964
 20
7.7332604237
 30
0.0
 10
10.8740500638
 20
7.7492565167
 30
0.0
 10
10.871280715
 20
7.7654080702
 30
0.0
 10
10.8693083076
 20
7.7815383271
 30
0.0
 10
10.8687071371
 20
7.7937063994
 30
0.0
 10
10.8687069897
 20
7.8017921107
 30
0.0
  0
SPLINE
  5
2ED
100
AcDbEntity
  8
0
100
AcDbSpline
 62
7
  6
CONTINUOUS
 70
0
 71
3
 72
56
 73
52
 74
0
 42
0.0000001
 43
0.0000001
 44
0.0000000001
 40
0.0
 40
0.0
 40
0.0
 40
0.0
 40
0.0310723444
 40
0.0465152282
 40
0.0618873079
 40
0.0924244521
 40
0.1227285817
 40
0.1378086463
 40
0.1528438045
 40
0.1678401149
 40
0.1828038444
 40
0.2126503405
 40
0.227557511
 40
0.2424602055
 40
0.2573657799
 40
0.272281562
 40
0.2872148089
 40
0.3021724291
 40
0.3171611937
 40
0.3321875071
 40
0.3472571476
 40
0.362375664
 40
0.3927682619
 40
0.4234071812
 40
0.4388308394
 40
0.454323239
 40
0.4855077933
 40
0.5169699546
 40
0.532806559
 40
0.5487076994
 40
0.5806824153
 40
0.6128739824
 40
0.6290441709
 40
0.6452543843
 40
0.6777639093
 40
0.7103643307
 40
0.7266873141
 40
0.7430142241
 40
0.7756456098
 40
0.7919458916
 40
0.8082247496
 40
0.8244760379
 40
0.8406940714
 40
0.8568734332
 40
0.8730088968
 40
0.8890954876
 40
0.905128265
 40
0.9370074719
 40
0.9528594107
 40
0.9686481654
 40
1.0
 40
1.0
 40
1.0
 40
1.0
 10
10.8687069876
 20
7.80179201
 30
0.0
 10
10.8687071223
 20
7.8098056401
 30
0.0
 10
10.869295238
 20
7.8218133795
 30
0.0
 10
10.8712647132
 20
7.8376571611
 30
0.0
 10
10.8740035107
 20
7.8532473114
 30
0.0
 10
10.8788648346
 20
7.8723291081
 30
0.0
 10
10.8856259546
 20
7.8907445158
 30
0.0
 10
10.8921177087
 20
7.9049166374
 30
0.0
 10
10.8975091049
 20
7.9152324968
 30
0.0
 10
10.9034159256
 20
7.9252275244
 30
0.0
 10
10.9119510222
 20
7.9380814286
 30
0.0
 10
10.9214757005
 20
7.9502277595
 30
0.0
 10
10.9319015248
 20
7.961549505
 30
0.0
 10
10.9401547519
 20
7.9696122672
 30
0.0
 10
10.9488230968
 20
7.9772296437
 30
0.0
 10
10.9578877491
 20
7.9843837798
 30
0.0
 10
10.9673279082
 20
7.9910577393
 30
0.0
 10
10.9771214057
 20
7.9972368124
 30
0.0
 10
10.9872465068
 20
8.0029053783
 30
0.0
 10
10.9976798404
 20
8.0080497275
 30
0.0
 10
11.0083973328
 20
8.0126583792
 30
0.0
 10
11.0230564509
 20
8.0180805422
 30
0.0
 10
11.0419830485
 20
8.0234595016
 30
0.0
 10
11.0614349755
 20
8.0268981009
 30
0.0
 10
11.0772367406
 20
8.0284814835
 30
0.0
 10
11.0932384984
 20
8.0292814771
 30
0.0
 10
11.1134194337
 20
8.0287883701
 30
0.0
 10
11.1335429234
 20
8.026317888
 30
0.0
 10
11.1495415508
 20
8.0231729848
 30
0.0
 10
11.1654998192
 20
8.0192344557
 30
0.0
 10
11.185175623
 20
8.0128610224
 30
0.0
 10
11.2042296825
 20
8.0046427079
 30
0.0
 10
11.2190309655
 20
7.9969990505
 30
0.0
 10
11.2335335269
 20
7.9886372255
 30
0.0
 10
11.2509619968
 20
7.9769146158
 30
0.0
 10
11.2672662578
 20
7.9636274825
 30
0.0
 10
11.2795581523
 20
7.9521264416
 30
0.0
 10
11.2913172973
 20
7.9400709566
 30
0.0
 10
11.3022371708
 20
7.9272273078
 30
0.0
 10
11.3122288001
 20
7.9136936763
 30
0.0
 10
11.3192405713
 20
7.903227109
 30
0.0
 10
11.3257531553
 20
7.8924680185
 30
0.0
 10
11.3317510349
 20
7.8814428328
 30
0.0
 10
11.337220805
 20
7.870179497
 30
0.0
 10
11.3421481225
 20
7.8587054606
 30
0.0
 10
11.3465217761
 20
7.8470491095
 30
0.0
 10
11.3515924198
 20
7.8313371799
 30
0.0
 10
11.3555327524
 20
7.8153410868
 30
0.0
 10
11.3583021012
 20
7.7991895333
 30
0.0
 10
11.3602745086
 20
7.7830592765
 30
0.0
 10
11.3608756791
 20
7.7708912041
 30
0.0
 10
11.3608758265
 20
7.7628054929
 30
0.0
  0
SPLINE
  5
2EE
100
AcDbEntity
  8
0
100
AcDbSpline
 62
7
  6
CONTINUOUS
 70
0
 71
3
 72
15
 73
11
 74
0
 42
0.0000001
 43
0.0000001
 44
0.0000000001
 40
0.0
 40
0.0
 40
0.0
 40
0.0
 40
0.1109235476
 40
0.2233441211
 40
0.3386915917
 40
0.4582813637
 40
0.5832827948
 40
0.7147051219
 40
0.8533897636
 40
1.0
 40
1.0
 40
1.0
 40
1.0
 10
10.6628339268
 20
11.3360290688
 30
0.0
 10
10.6628339396
 20
11.336526562
 30
0.0
 10
10.6628949659
 20
11.3375292938
 30
0.0
 10
10.6631686809
 20
11.3390268613
 30
0.0
 10
10.6636238054
 20
11.3405202399
 30
0.0
 10
10.6642593187
 20
11.3420073541
 30
0.0
 10
10.6650739306
 20
11.3434868673
 30
0.0
 10
10.666066394
 20
11.3449575724
 30
0.0
 10
10.6672353476
 20
11.3464181454
 30
0.0
 10
10.6681061637
 20
11.3473572614
 30
0.0
 10
10.6685682633
 20
11.3478250583
 30
0.0
  0
SPLINE
  5
2EF
100
AcDbEntity
  8
0
100
AcDbSpline
 62
7
  6
CONTINUOUS
 70
0
 71
3
 72
11
 73
7
 74
0
 42
0.0000001
 43
0.0000001
 44
0.0000000001
 40
0.0
 40
0.0
 40
0.0
 40
0.0
 40
0.2353556543
 40
0.4802220487
 40
0.7349933067
 40
1.0
 40
1.0
 40
1.0
 40
1.0
 10
10.2278066989
 20
9.7419844499
 30
0.0
 10
10.2288319911
 20
9.7407851667
 30
0.0
 10
10.2309885811
 20
9.7383927353
 30
0.0
 10
10.2344592081
 20
9.7348927779
 30
0.0
 10
10.2382262018
 20
9.7314139137
 30
0.0
 10
10.2408807667
 20
9.729154995
 30
0.0
 10
10.2422547471
 20
9.7280287309
 30
0.0
  0
SPLINE
  5
2F0
100
AcDbEntity
  8
0
100
AcDbSpline
 62
7
  6
CONTINUOUS
 70
0
 71
3
 72
23
 73
19
 74
0
 42
0.0000001
 43
0.0000001
 44
0.0000000001
 40
0.0
 40
0.0
 40
0.0
 40
0.0
 40
0.0815300627
 40
0.1606857631
 40
0.237412442
 40
0.3116604454
 40
0.3833848714
 40
0.452546346
 40
0.5191117186
 40
0.5830541609
 40
0.6443549325
 40
0.7030029476
 40
0.7589975742
 40
0.812348118
 40
0.8630776495
 40
0.9112228933
 40
0.9568388755
 40
1.0
 40
1.0
 40
1.0
 40
1.0
 10
10.5348762256
 20
10.8890290525
 30
0.0
 10
10.531763971
 20
10.8882001762
 30
0.0
 10
10.5256424798
 20
10.8865195647
 30
0.0
 10
10.5166400825
 20
10.883888142
 30
0.0
 10
10.5079596298
 20
10.8811853443
 30
0.0
 10
10.4996095807
 20
10.8784138525
 30
0.0
 10
10.4915980345
 20
10.8755763636
 30
0.0
 10
10.4839327656
 20
10.8726756358
 30
0.0
 10
10.4766211866
 20
10.8697145319
 30
0.0
 10
10.4696703761
 20
10.8666958741
 30
0.0
 10
10.4630870121
 20
10.8636226673
 30
0.0
 10
10.4568774514
 20
10.860497779
 30
0.0
 10
10.4510476046
 20
10.8573243247
 30
0.0
 10
10.4456030779
 20
10.8541051896
 30
0.0
 10
10.4405490008
 20
10.8508435506
 30
0.0
 10
10.4358901556
 20
10.8475422311
 30
0.0
 10
10.4316310703
 20
10.8442045301
 30
0.0
 10
10.4289893554
 20
10.8418944288
 30
0.0
 10
10.4277411821
 20
10.8407328903
 30
0.0
  0
SPLINE
  5
2F1
100
AcDbEntity
  8
0
100
AcDbSpline
 62
7
  6
CONTINUOUS
 70
0
 71
3
 72
10
 73
6
 74
0
 42
0.0000001
 43
0.0000001
 44
0.0000000001
 40
0.0
 40
0.0
 40
0.0
 40
0.0
 40
0.253227337
 40
0.5043984572
 40
1.0
 40
1.0
 40
1.0
 40
1.0
 10
11.4514130832
 20
10.3329520937
 30
0.0
 10
11.4446299466
 20
10.3371759846
 30
0.0
 10
11.4310326787
 20
10.345452843
 30
0.0
 10
11.4037171899
 20
10.361254833
 30
0.0
 10
11.3828899345
 20
10.3723103259
 30
0.0
 10
11.3688688749
 20
10.3792377602
 30
0.0
  0
SPLINE
  5
2F2
100
AcDbEntity
  8
0
100
AcDbSpline
 62
7
  6
CONTINUOUS
 70
0
 71
3
 72
10
 73
6
 74
0
 42
0.0000001
 43
0.0000001
 44
0.0000000001
 40
0.0
 40
0.0
 40
0.0
 40
0.0
 40
0.253227337
 40
0.5043984572
 40
1.0
 40
1.0
 40
1.0
 40
1.0
 10
10.2422547471
 20
9.7280287309
 30
0.0
 10
10.2490378838
 20
9.7238048399
 30
0.0
 10
10.2626351517
 20
9.7155279815
 30
0.0
 10
10.2899506405
 20
9.6997259916
 30
0.0
 10
10.3107778959
 20
9.6886704987
 30
0.0
 10
10.3247989554
 20
9.6817430643
 30
0.0
  0
SPLINE
  5
2F3
100
AcDbEntity
  8
0
100
AcDbSpline
 62
7
  6
CONTINUOUS
 70
0
 71
3
 72
9
 73
5
 74
0
 42
0.0000001
 43
0.0000001
 44
0.0000000001
 40
0.0
 40
0.0
 40
0.0
 40
0.0
 40
0.5233612787
 40
1.0
 40
1.0
 40
1.0
 40
1.0
 10
10.9434265035
 20
11.588198032
 30
0.0
 10
10.9438641412
 20
11.5886207576
 30
0.0
 10
10.9446606475
 20
11.589471395
 30
0.0
 10
10.945342967
 20
11.5904183206
 30
0.0
 10
10.9456298321
 20
11.5908924303
 30
0.0
  0
SPLINE
  5
2F4
100
AcDbEntity
  8
0
100
AcDbSpline
 62
7
  6
CONTINUOUS
 70
0
 71
3
 72
15
 73
11
 74
0
 42
0.0000001
 43
0.0000001
 44
0.0000000001
 40
0.0
 40
0.0
 40
0.0
 40
0.0
 40
0.1466002009
 40
0.2852608607
 40
0.4166729574
 40
0.5416769455
 40
0.661273845
 40
0.7766310629
 40
0.8890625705
 40
1.0
 40
1.0
 40
1.0
 40
1.0
 10
11.0251060095
 20
11.3478185253
 30
0.0
 10
11.0255676627
 20
11.3473509181
 30
0.0
 10
11.0264375999
 20
11.3464122654
 30
0.0
 10
11.0276052293
 20
11.3449523564
 30
0.0
 10
11.0285965853
 20
11.3434823937
 30
0.0
 10
11.029410333
 20
11.3420035898
 30
0.0
 10
11.0300450994
 20
11.340517145
 30
0.0
 10
11.0304997416
 20
11.3390244922
 30
0.0
 10
11.0307730164
 20
11.3375276369
 30
0.0
 10
11.0308339165
 20
11.3365254092
 30
0.0
 10
11.0308339036
 20
11.3360281591
 30
0.0
  0
SPLINE
  5
2F5
100
AcDbEntity
  8
0
100
AcDbSpline
 62
7
  6
CONTINUOUS
 70
0
 71
3
 72
60
 73
56
 74
0
 42
0.0000001
 43
0.0000001
 44
0.0000000001
 40
0.0
 40
0.0
 40
0.0
 40
0.0
 40
0.0081222414
 40
0.0169168816
 40
0.0264087866
 40
0.0366143821
 40
0.0475415905
 40
0.0591912493
 40
0.0715586647
 40
0.0846348479
 40
0.098406648
 40
0.1128577747
 40
0.127968871
 40
0.1437180406
 40
0.160081135
 40
0.1770317977
 40
0.1945419791
 40
0.2125817114
 40
0.250121824
 40
0.2893859917
 40
0.3300881417
 40
0.3719273433
 40
0.4145911502
 40
0.4577590001
 40
0.5011053144
 40
0.5443028585
 40
0.5870257719
 40
0.6289529119
 40
0.6697709467
 40
0.7091777726
 40
0.7468857915
 40
0.7650183901
 40
0.7826270107
 40
0.7996814573
 40
0.8161532565
 40
0.8320158302
 40
0.8472444911
 40
0.8618170191
 40
0.8757135005
 40
0.8889170941
 40
0.9014140802
 40
0.9131945391
 40
0.9242530793
 40
0.934589459
 40
0.9442101269
 40
0.9531292893
 40
0.9613714202
 40
0.9689735769
 40
0.9759888588
 40
0.9824901798
 40
0.9885734679
 40
0.9914974722
 40
0.9943641549
 40
0.9971919122
 40
1.0
 40
1.0
 40
1.0
 40
1.0
 10
11.0245642778
 20
11.360408155
 30
0.0
 10
11.0238206328
 20
11.3596898491
 30
0.0
 10
11.0222016225
 20
11.3582654912
 30
0.0
 10
11.0195142241
 20
11.3562417154
 30
0.0
 10
11.0164792735
 20
11.3542518163
 30
0.0
 10
11.013102963
 20
11.352299605
 30
0.0
 10
11.009391617
 20
11.3503886016
 30
0.0
 10
11.0053524328
 20
11.348522604
 30
0.0
 10
11.0009933684
 20
11.3467052442
 30
0.0
 10
10.9963230364
 20
11.3449402394
 30
0.0
 10
10.9913507465
 20
11.343231078
 30
0.0
 10
10.9860864317
 20
11.3415812838
 30
0.0
 10
10.9805406576
 20
11.3399941809
 30
0.0
 10
10.9747245744
 20
11.3384729975
 30
0.0
 10
10.9686498903
 20
11.337020861
 30
0.0
 10
10.9623288574
 20
11.3356406843
 30
0.0
 10
10.9557742177
 20
11.3343353144
 30
0.0
 10
10.9466190694
 20
11.3326760797
 30
0.0
 10
10.9346877606
 20
11.3308174518
 30
0.0
 10
10.9198449092
 20
11.3289510236
 30
0.0
 10
10.9044122489
 20
11.3274355157
 30
0.0
 10
10.8885144661
 20
11.3262833744
 30
0.0
 10
10.8722798961
 20
11.325504108
 30
0.0
 10
10.8558397086
 20
11.3251041297
 30
0.0
 10
10.8393267413
 20
11.3250867328
 30
0.0
 10
10.8228744437
 20
11.3254520573
 30
0.0
 10
10.8066157519
 20
11.3261970959
 30
0.0
 10
10.7906820336
 20
11.3273157185
 30
0.0
 10
10.7752019215
 20
11.328798696
 30
0.0
 10
10.7603004945
 20
11.3306338496
 30
0.0
 10
10.7483133175
 20
11.3324669768
 30
0.0
 10
10.7391081685
 20
11.3341064554
 30
0.0
 10
10.732512508
 20
11.3353979588
 30
0.0
 10
10.7261480847
 20
11.3367647386
 30
0.0
 10
10.7200277312
 20
11.3382040372
 30
0.0
 10
10.7141637894
 20
11.3397128875
 30
0.0
 10
10.7085680751
 20
11.3412882707
 30
0.0
 10
10.7032518361
 20
11.3429269123
 30
0.0
 10
10.6982257495
 20
11.3446255483
 30
0.0
 10
10.6934998635
 20
11.3463806796
 30
0.0
 10
10.6890835996
 20
11.3481887852
 30
0.0
 10
10.6849857144
 20
11.3500462417
 30
0.0
 10
10.6812142509
 20
11.3519493154
 30
0.0
 10
10.6777765765
 20
11.3538943682
 30
0.0
 10
10.6746792548
 20
11.3558776234
 30
0.0
 10
10.6719281982
 20
11.3578955854
 30
0.0
 10
10.6695285441
 20
11.3599448236
 30
0.0
 10
10.6674849199
 20
11.3620222709
 30
0.0
 10
10.6658016486
 20
11.3641254408
 30
0.0
 10
10.6644832182
 20
11.3662514093
 30
0.0
 10
10.663682444
 20
11.3680646719
 30
0.0
 10
10.6632400117
 20
11.3695114566
 30
0.0
 10
10.663005777
 20
11.3705845886
 30
0.0
 10
10.6628651978
 20
11.3716590039
 30
0.0
 10
10.6628339175
 20
11.3723768003
 30
0.0
 10
10.6628339268
 20
11.3727342523
 30
0.0
  0
SPLINE
  5
2F6
100
AcDbEntity
  8
0
100
AcDbSpline
 62
7
  6
CONTINUOUS
 70
0
 71
3
 72
21
 73
17
 74
0
 42
0.0000001
 43
0.0000001
 44
0.0000000001
 40
0.0
 40
0.0
 40
0.0
 40
0.0
 40
0.0606728572
 40
0.1214156053
 40
0.182295152
 40
0.2433734573
 40
0.3047047452
 40
0.3663333579
 40
0.4282928725
 40
0.49060457
 40
0.5532767125
 40
0.6163048771
 40
0.6796721391
 40
0.7433509157
 40
0.8713385219
 40
1.0
 40
1.0
 40
1.0
 40
1.0
 10
10.6765478198
 20
11.3331797521
 30
0.0
 10
10.6768946504
 20
11.332794688
 30
0.0
 10
10.6776279393
 20
11.3320584341
 30
0.0
 10
10.6788337127
 20
11.3310693469
 30
0.0
 10
10.6801351833
 20
11.3302035518
 30
0.0
 10
10.6815205479
 20
11.3294688896
 30
0.0
 10
10.6829774852
 20
11.3288719467
 30
0.0
 10
10.6844929173
 20
11.328417971
 30
0.0
 10
10.6860533038
 20
11.3281109362
 30
0.0
 10
10.6876447257
 20
11.3279536335
 30
0.0
 10
10.6892529803
 20
11.3279473523
 30
0.0
 10
10.6908637109
 20
11.3280920601
 30
0.0
 10
10.6924626961
 20
11.3283865794
 30
0.0
 10
10.694562494
 20
11.3289759604
 30
0.0
 10
10.6970862621
 20
11.3300720874
 30
0.0
 10
10.6989204327
 20
11.3312968895
 30
0.0
 10
10.6997768129
 20
11.331985593
 30
0.0
  0
SPLINE
  5
2F7
100
AcDbEntity
  8
0
100
AcDbSpline
 62
7
  6
CONTINUOUS
 70
0
 71
3
 72
22
 73
18
 74
0
 42
0.0000001
 43
0.0000001
 44
0.0000000001
 40
0.0
 40
0.0
 40
0.0
 40
0.0
 40
0.1559281194
 40
0.2315366213
 40
0.3053894509
 40
0.3773385562
 40
0.4472261964
 40
0.5148887545
 40
0.5801606
 40
0.6428764659
 40
0.7028787796
 40
0.7600235424
 40
0.8141895539
 40
0.8652883424
 40
0.9132734774
 40
0.9581531097
 40
1.0
 40
1.0
 40
1.0
 40
1.0
 10
11.1602487089
 20
10.946786581
 30
0.0
 10
11.1586182397
 20
10.9514039851
 30
0.0
 10
11.1561356733
 20
10.9582390441
 30
0.0
 10
11.1527066344
 20
10.9671958342
 30
0.0
 10
11.1501375491
 20
10.973657301
 30
0.0
 10
11.1475445452
 20
10.9799152063
 30
0.0
 10
11.1449275022
 20
10.9859518535
 30
0.0
 10
11.1422866652
 20
10.9917485435
 30
0.0
 10
11.1396225876
 20
10.9972857815
 30
0.0
 10
11.1369361783
 20
11.0025435857
 30
0.0
 10
11.134228827
 20
11.0075018836
 30
0.0
 10
11.1315022501
 20
11.0121409507
 30
0.0
 10
11.128758655
 20
11.0164420828
 30
0.0
 10
11.1260006865
 20
11.0203881594
 30
0.0
 10
11.1232310765
 20
11.0239643173
 30
0.0
 10
11.1204531705
 20
11.0271582356
 30
0.0
 10
11.1185322678
 20
11.0290929696
 30
0.0
 10
11.1175701961
 20
11.0299882192
 30
0.0
  0
SPLINE
  5
2F8
100
AcDbEntity
  8
0
100
AcDbSpline
 62
7
  6
CONTINUOUS
 70
0
 71
3
 72
29
 73
25
 74
0
 42
0.0000001
 43
0.0000001
 44
0.0000000001
 40
0.0
 40
0.0
 40
0.0
 40
0.0
 40
0.0768347859
 40
0.1505299545
 40
0.2209986678
 40
0.2883662671
 40
0.3528119079
 40
0.4145759384
 40
0.4445696751
 40
0.4740438304
 40
0.5030640679
 40
0.5317082554
 40
0.5600629115
 40
0.5882190181
 40
0.6443085567
 40
0.6724695805
 40
0.7008232559
 40
0.7294660135
 40
0.7584443496
 40
0.8174967584
 40
0.8778940014
 40
0.9084473259
 40
0.9390730249
 40
1.0
 40
1.0
 40
1.0
 40
1.0
 10
10.969374063
 20
11.3089413807
 30
0.0
 10
10.9714426345
 20
11.3095130623
 30
0.0
 10
10.9754805176
 20
11.3106874764
 30
0.0
 10
10.98135411
 20
11.3125893817
 30
0.0
 10
10.9869116884
 20
11.3145986909
 30
0.0
 10
10.9921499917
 20
11.3167202136
 30
0.0
 10
10.9970707128
 20
11.3189653782
 30
0.0
 10
11.0009478862
 20
11.320971303
 30
0.0
 10
11.0038846947
 20
11.3226578922
 30
0.0
 10
11.0059891079
 20
11.323954985
 30
0.0
 10
11.0080174139
 20
11.3253012335
 30
0.0
 10
11.0099692902
 20
11.3267032408
 30
0.0
 10
11.0118448605
 20
11.3281671913
 30
0.0
 10
11.0142392066
 20
11.3302074886
 30
0.0
 10
11.0164825588
 20
11.3324135798
 30
0.0
 10
11.0185348903
 20
11.3347989056
 30
0.0
 10
11.0199746046
 20
11.3366942955
 30
0.0
 10
11.0213001991
 20
11.3386990127
 30
0.0
 10
11.0229032986
 20
11.3415389333
 30
0.0
 10
11.0245255856
 20
11.3453741398
 30
0.0
 10
11.025496042
 20
11.3494735284
 30
0.0
 10
11.0258310612
 20
11.352857029
 30
0.0
 10
11.0258614063
 20
11.3562709137
 30
0.0
 10
11.0255343735
 20
11.3588252539
 30
0.0
 10
11.0251705606
 20
11.3604876955
 30
0.0
  0
LINE
  5
2F9
100
AcDbEntity
  8
0
100
AcDbLine
 62
7
  6
CONTINUOUS
 10
11.0251705606
 20
11.3604876955
 11
11.0251479209
 21
11.3605902525
  0
SPLINE
  5
2FA
100
AcDbEntity
  8
0
100
AcDbSpline
 62
7
  6
CONTINUOUS
 70
0
 71
3
 72
23
 73
19
 74
0
 42
0.0000001
 43
0.0000001
 44
0.0000000001
 40
0.0
 40
0.0
 40
0.0
 40
0.0
 40
0.0814582479
 40
0.1609450245
 40
0.238299589
 40
0.3133607229
 40
0.3859682611
 40
0.45596991
 40
0.5232282153
 40
0.5876284739
 40
0.6490874229
 40
0.7075622014
 40
0.7630587504
 40
0.8156378559
 40
0.8654184908
 40
0.9125776431
 40
0.9573461344
 40
1.0
 40
1.0
 40
1.0
 40
1.0
 10
10.5334191215
 20
10.8920635198
 30
0.0
 10
10.5345869736
 20
10.8896772783
 30
0.0
 10
10.5369250846
 20
10.8849774608
 30
0.0
 10
10.5404900122
 20
10.8780709916
 30
0.0
 10
10.5440720246
 20
10.8714092327
 30
0.0
 10
10.5476708786
 20
10.8650126802
 30
0.0
 10
10.5512860829
 20
10.8589022676
 30
0.0
 10
10.5549168012
 20
10.8530989808
 30
0.0
 10
10.5585618467
 20
10.8476232662
 30
0.0
 10
10.5622196821
 20
10.8424943981
 30
0.0
 10
10.5658884418
 20
10.8377297855
 30
0.0
 10
10.5695659693
 20
10.8333442511
 30
0.0
 10
10.5732498376
 20
10.8293493483
 30
0.0
 10
10.5769374635
 20
10.8257528572
 30
0.0
 10
10.5806261176
 20
10.8225584825
 30
0.0
 10
10.5843131493
 20
10.8197656488
 30
0.0
 10
10.5879954109
 20
10.8173698282
 30
0.0
 10
10.5905007279
 20
10.8160012673
 30
0.0
 10
10.591748153
 20
10.8153855163
 30
0.0
  0
SPLINE
  5
2FB
100
AcDbEntity
  8
0
100
AcDbSpline
 62
7
  6
CONTINUOUS
 70
0
 71
3
 72
16
 73
12
 74
0
 42
0.0000001
 43
0.0000001
 44
0.0000000001
 40
0.0
 40
0.0
 40
0.0
 40
0.0
 40
0.1480511837
 40
0.2876965988
 40
0.4196100259
 40
0.4829485653
 40
0.5446959392
 40
0.6639365434
 40
0.7786069088
 40
0.8901135234
 40
1.0
 40
1.0
 40
1.0
 40
1.0
 10
11.1085998296
 20
11.0280973211
 30
0.0
 10
11.109342611
 20
11.0288147928
 30
0.0
 10
11.1107424567
 20
11.0302553579
 30
0.0
 10
11.1126246476
 20
11.0325004046
 30
0.0
 10
11.1139747089
 20
11.0344108753
 30
0.0
 10
11.1149044593
 20
11.0359443329
 30
0.0
 10
11.1157164447
 20
11.0374433545
 30
0.0
 10
11.1165602479
 20
11.0393297462
 30
0.0
 10
11.1172941058
 20
11.0416303517
 30
0.0
 10
11.11773548
 20
11.0439383247
 30
0.0
 10
11.1178338973
 20
11.0454843514
 30
0.0
 10
11.117833903
 20
11.0462508489
 30
0.0
  0
SPLINE
  5
2FC
100
AcDbEntity
  8
0
100
AcDbSpline
 62
7
  6
CONTINUOUS
 70
0
 71
3
 72
17
 73
13
 74
0
 42
0.0000001
 43
0.0000001
 44
0.0000000001
 40
0.0
 40
0.0
 40
0.0
 40
0.0
 40
0.0593778518
 40
0.1192871061
 40
0.1798210698
 40
0.2409192693
 40
0.3645232248
 40
0.489766381
 40
0.6162727947
 40
0.7436913884
 40
0.871704303
 40
1.0
 40
1.0
 40
1.0
 40
1.0
 10
10.6061230243
 20
11.1270050092
 30
0.0
 10
10.6050042614
 20
11.1258080546
 30
0.0
 10
10.6028047861
 20
11.1233579434
 30
0.0
 10
10.5996453696
 20
11.1195303311
 30
0.0
 10
10.5966229408
 20
11.1155336234
 30
0.0
 10
10.592779673
 20
11.1099621171
 30
0.0
 10
10.5884028533
 20
11.1025996944
 30
0.0
 10
10.5839538047
 20
11.09323021
 30
0.0
 10
10.5803853399
 20
11.0833778332
 30
0.0
 10
10.5777776133
 20
11.0731489913
 30
0.0
 10
10.5761894236
 20
11.0626637859
 30
0.0
 10
10.5758339152
 20
11.0555864235
 30
0.0
 10
10.5758339152
 20
11.0520464042
 30
0.0
  0
SPLINE
  5
2FD
100
AcDbEntity
  8
0
100
AcDbSpline
 62
7
  6
CONTINUOUS
 70
0
 71
3
 72
22
 73
18
 74
0
 42
0.0000001
 43
0.0000001
 44
0.0000000001
 40
0.0
 40
0.0
 40
0.0
 40
0.0
 40
0.0426104053
 40
0.0876595874
 40
0.1352518113
 40
0.1854671361
 40
0.2383633486
 40
0.2939817003
 40
0.3523466702
 40
0.4134705482
 40
0.4773538198
 40
0.543986699
 40
0.6133515537
 40
0.6854215615
 40
0.7601643885
 40
0.8375402065
 40
1.0
 40
1.0
 40
1.0
 40
1.0
 10
11.0875448005
 20
11.1270050089
 30
0.0
 10
11.086927052
 20
11.1276659414
 30
0.0
 10
11.085608785
 20
11.1289818665
 30
0.0
 10
11.0834568727
 20
11.1308854315
 30
0.0
 10
11.0810790277
 20
11.1327704853
 30
0.0
 10
11.0784775503
 20
11.1346352137
 30
0.0
 10
11.0756548592
 20
11.1364780919
 30
0.0
 10
11.0726135363
 20
11.1382973438
 30
0.0
 10
11.0693564525
 20
11.1400913778
 30
0.0
 10
11.0658866358
 20
11.1418584699
 30
0.0
 10
11.0622073541
 20
11.1435969666
 30
0.0
 10
11.0583220849
 20
11.1453052518
 30
0.0
 10
11.0542344874
 20
11.1469816404
 30
0.0
 10
11.0499484623
 20
11.1486246031
 30
0.0
 10
11.0454680456
 20
11.1502325185
 30
0.0
 10
11.0391374415
 20
11.152362331
 30
0.0
 10
11.0342656019
 20
11.1538484479
 30
0.0
 10
11.0309508135
 20
11.1548021355
 30
0.0
  0
SPLINE
  5
2FE
100
AcDbEntity
  8
0
100
AcDbSpline
 62
7
  6
CONTINUOUS
 70
0
 71
3
 72
21
 73
17
 74
0
 42
0.0000001
 43
0.0000001
 44
0.0000000001
 40
0.0
 40
0.0
 40
0.0
 40
0.0
 40
0.1600337168
 40
0.3104090263
 40
0.3818798878
 40
0.4508284956
 40
0.5172291954
 40
0.5810642218
 40
0.6423218963
 40
0.7009985755
 40
0.7570999505
 40
0.8106411719
 40
0.8616522698
 40
0.9101762643
 40
0.9562686826
 40
1.0
 40
1.0
 40
1.0
 40
1.0
 10
10.6627127036
 20
11.1548008941
 30
0.0
 10
10.6595569103
 20
11.1538929077
 30
0.0
 10
10.653462035
 20
11.1520384895
 30
0.0
 10
10.6460483203
 20
11.149494601
 30
0.0
 10
10.6404659669
 20
11.1473858412
 30
0.0
 10
10.6365289257
 20
11.1458005673
 30
0.0
 10
10.6327737234
 20
11.1441860505
 30
0.0
 10
10.6292035548
 20
11.1425437164
 30
0.0
 10
10.6258214792
 20
11.1408749459
 30
0.0
 10
10.6226303942
 20
11.1391811563
 30
0.0
 10
10.6196329957
 20
11.1374638573
 30
0.0
 10
10.6168318376
 20
11.1357244058
 30
0.0
 10
10.6142292171
 20
11.1339642784
 30
0.0
 10
10.6118273138
 20
11.1321848186
 30
0.0
 10
10.6096283506
 20
11.1303876598
 30
0.0
 10
10.6082638433
 20
11.1291468884
 30
0.0
 10
10.6076184225
 20
11.1285234597
 30
0.0
  0
SPLINE
  5
2FF
100
AcDbEntity
  8
0
100
AcDbSpline
 62
7
  6
CONTINUOUS
 70
0
 71
3
 72
15
 73
11
 74
0
 42
0.0000001
 43
0.0000001
 44
0.0000000001
 40
0.0
 40
0.0
 40
0.0
 40
0.0
 40
0.1433016651
 40
0.2811350333
 40
0.4131260366
 40
0.5392927747
 40
0.6600319769
 40
0.7761777915
 40
0.8889738898
 40
1.0
 40
1.0
 40
1.0
 40
1.0
 10
10.9570484889
 20
11.3141437417
 30
0.0
 10
10.9574737706
 20
11.3136185551
 30
0.0
 10
10.9583615448
 20
11.312629864
 30
0.0
 10
10.9598196087
 20
11.3113313763
 30
0.0
 10
10.9613583022
 20
11.3102643576
 30
0.0
 10
10.9629534756
 20
11.3094466461
 30
0.0
 10
10.9645803304
 20
11.3088924822
 30
0.0
 10
10.9662130784
 20
11.3086124652
 30
0.0
 10
10.9678240871
 20
11.3086128649
 30
0.0
 10
10.9688694045
 20
11.308801899
 30
0.0
 10
10.9693740621
 20
11.308941384
 30
0.0
  0
SPLINE
  5
300
100
AcDbEntity
  8
0
100
AcDbSpline
 62
7
  6
CONTINUOUS
 70
0
 71
3
 72
17
 73
13
 74
0
 42
0.0000001
 43
0.0000001
 44
0.0000000001
 40
0.0
 40
0.0
 40
0.0
 40
0.0
 40
0.1282950638
 40
0.2563077561
 40
0.3837262658
 40
0.5102327789
 40
0.6354761114
 40
0.7590804589
 40
0.8201785718
 40
0.8807125832
 40
0.9406229484
 40
1.0
 40
1.0
 40
1.0
 40
1.0
 10
11.1178339152
 20
11.0520464042
 30
0.0
 10
11.1178339152
 20
11.055586406
 30
0.0
 10
11.1174784075
 20
11.0626637447
 30
0.0
 10
11.1158902292
 20
11.0731489253
 30
0.0
 10
11.1132825121
 20
11.0833777637
 30
0.0
 10
11.1097140522
 20
11.0932301479
 30
0.0
 10
11.1052650037
 20
11.102599653
 30
0.0
 10
11.1008881755
 20
11.1099620863
 30
0.0
 10
11.0970449044
 20
11.1155336019
 30
0.0
 10
11.094022462
 20
11.1195303366
 30
0.0
 10
11.0908630308
 20
11.1233579496
 30
0.0
 10
11.0886635539
 20
11.1258080707
 30
0.0
 10
11.0875448061
 20
11.1270050092
 30
0.0
  0
SPLINE
  5
301
100
AcDbEntity
  8
0
100
AcDbSpline
 62
7
  6
CONTINUOUS
 70
0
 71
3
 72
53
 73
49
 74
0
 42
0.0000001
 43
0.0000001
 44
0.0000000001
 40
0.0
 40
0.0
 40
0.0
 40
0.0
 40
0.0077403758
 40
0.01605376
 40
0.0249599533
 40
0.0344712958
 40
0.0445945107
 40
0.0553312676
 40
0.066679439
 40
0.0786333479
 40
0.0911845515
 40
0.1043219961
 40
0.1180324734
 40
0.1323008171
 40
0.147110054
 40
0.1624416954
 40
0.1945897315
 40
0.2285712957
 40
0.2641935835
 40
0.3012488277
 40
0.3395167901
 40
0.3787669889
 40
0.4187608922
 40
0.4592539134
 40
0.4999975196
 40
0.5407411353
 40
0.5812342388
 40
0.6212282437
 40
0.6604786094
 40
0.6987467608
 40
0.7358022486
 40
0.771424806
 40
0.8054066818
 40
0.8375550582
 40
0.8528868997
 40
0.8676963069
 40
0.8819648661
 40
0.8956755248
 40
0.9088132083
 40
0.921364592
 40
0.9333187412
 40
0.9446670953
 40
0.9554041303
 40
0.9655275514
 40
0.9750390162
 40
0.9839453768
 40
0.9922594995
 40
1.0
 40
1.0
 40
1.0
 40
1.0
 10
10.6541474103
 20
11.0980636534
 30
0.0
 10
10.6548996627
 20
11.0973636056
 30
0.0
 10
10.6565190534
 20
11.095974531
 30
0.0
 10
10.6591755906
 20
11.0939905501
 30
0.0
 10
10.6621400862
 20
11.0920365222
 30
0.0
 10
10.6654076412
 20
11.090115444
 30
0.0
 10
10.6689732199
 20
11.0882303296
 30
0.0
 10
10.6728310986
 20
11.0863841004
 30
0.0
 10
10.6769751181
 20
11.0845798034
 30
0.0
 10
10.68139857
 20
11.0828203253
 30
0.0
 10
10.6860942841
 20
11.0811085925
 30
0.0
 10
10.6910546044
 20
11.0794474042
 30
0.0
 10
10.6962714284
 20
11.0778395102
 30
0.0
 10
10.7017362138
 20
11.0762875867
 30
0.0
 10
10.7074400052
 20
11.074794154
 30
0.0
 10
10.7154788498
 20
11.0728535743
 30
0.0
 10
10.7260590429
 20
11.0706030258
 30
0.0
 10
10.7393561561
 20
11.0682124916
 30
0.0
 10
10.7533604249
 20
11.0661073045
 30
0.0
 10
10.7679797623
 20
11.0643015436
 30
0.0
 10
10.7831181369
 20
11.0628073291
 30
0.0
 10
10.7986759662
 20
11.061634661
 30
0.0
 10
10.8145508688
 20
11.0607913876
 30
0.0
 10
10.8306383425
 20
11.0602831457
 30
0.0
 10
10.8468324604
 20
11.060113333
 30
0.0
 10
10.8630265899
 20
11.0602830837
 30
0.0
 10
10.8791140912
 20
11.0607912642
 30
0.0
 10
10.8949890436
 20
11.061634478
 30
0.0
 10
10.9105469383
 20
11.062807087
 30
0.0
 10
10.9256853984
 20
11.0643012456
 30
0.0
 10
10.9403048365
 20
11.0661069513
 30
0.0
 10
10.9543092236
 20
11.0682120876
 30
0.0
 10
10.9676064704
 20
11.0706025703
 30
0.0
 10
10.9781867861
 20
11.0728530844
 30
0.0
 10
10.9862257375
 20
11.0747936246
 30
0.0
 10
10.9919296121
 20
11.0762870458
 30
0.0
 10
10.9973944856
 20
11.0778389352
 30
0.0
 10
11.0026113988
 20
11.0794468262
 30
0.0
 10
11.0075718158
 20
11.081107977
 30
0.0
 10
11.0122676214
 20
11.0828197137
 30
0.0
 10
11.0166911756
 20
11.0845791514
 30
0.0
 10
11.0208352935
 20
11.086383455
 30
0.0
 10
11.024693286
 20
11.0882296522
 30
0.0
 10
11.0282589499
 20
11.0901147769
 30
0.0
 10
11.0315266145
 20
11.092035798
 30
0.0
 10
11.034491256
 20
11.0939898534
 30
0.0
 10
11.0371479357
 20
11.0959738729
 30
0.0
 10
11.0387674396
 20
11.0973629897
 30
0.0
 10
11.0395197318
 20
11.098063019
 30
0.0
  0
SPLINE
  5
302
100
AcDbEntity
  8
0
100
AcDbSpline
 62
7
  6
CONTINUOUS
 70
0
 71
3
 72
11
 73
7
 74
0
 42
0.0000001
 43
0.0000001
 44
0.0000000001
 40
0.0
 40
0.0
 40
0.0
 40
0.0
 40
0.245852917
 40
0.4946127303
 40
0.7460700602
 40
1.0
 40
1.0
 40
1.0
 40
1.0
 10
11.1076078759
 20
10.818195359
 30
0.0
 10
11.1120766665
 20
10.820402961
 30
0.0
 10
11.1209851554
 20
10.8250117833
 30
0.0
 10
11.1341826404
 20
10.8324063657
 30
0.0
 10
11.147294411
 20
10.8402743419
 30
0.0
 10
11.1559385568
 20
10.8457775359
 30
0.0
 10
11.1602487089
 20
10.8485927403
 30
0.0
  0
SPLINE
  5
303
100
AcDbEntity
  8
0
100
AcDbSpline
 62
7
  6
CONTINUOUS
 70
0
 71
3
 72
11
 73
7
 74
0
 42
0.0000001
 43
0.0000001
 44
0.0000000001
 40
0.0
 40
0.0
 40
0.0
 40
0.0
 40
0.2650066933
 40
0.5197779513
 40
0.7646443457
 40
1.0
 40
1.0
 40
1.0
 40
1.0
 10
11.4514130832
 20
10.3329520937
 30
0.0
 10
11.4527870636
 20
10.3318258296
 30
0.0
 10
11.4554416286
 20
10.3295669108
 30
0.0
 10
11.4592086222
 20
10.3260880466
 30
0.0
 10
11.4626792493
 20
10.3225880893
 30
0.0
 10
11.4648358392
 20
10.3201956578
 30
0.0
 10
11.4658611314
 20
10.3189963746
 30
0.0
  0
SPLINE
  5
304
100
AcDbEntity
  8
0
100
AcDbSpline
 62
7
  6
CONTINUOUS
 70
0
 71
3
 72
16
 73
12
 74
0
 42
0.0000001
 43
0.0000001
 44
0.0000000001
 40
0.0
 40
0.0
 40
0.0
 40
0.0
 40
0.1090280875
 40
0.2197801533
 40
0.3338936721
 40
0.4528540158
 40
0.5145828286
 40
0.5779899551
 40
0.7103120523
 40
0.8507449858
 40
1.0
 40
1.0
 40
1.0
 40
1.0
 10
10.5758339274
 20
11.0462508489
 30
0.0
 10
10.5758339214
 20
11.0454565363
 30
0.0
 10
10.5759397321
 20
11.0438534278
 30
0.0
 10
10.576414048
 20
11.0414612032
 30
0.0
 10
10.5772024011
 20
11.0390773054
 30
0.0
 10
10.5781080802
 20
11.0371248022
 30
0.0
 10
10.5789791043
 20
11.0355737062
 30
0.0
 10
10.5799777561
 20
11.0339851552
 30
0.0
 10
10.5814277501
 20
11.0320070232
 30
0.0
 10
10.5834473731
 20
11.0296850412
 30
0.0
 10
10.5849475406
 20
11.0281977143
 30
0.0
 10
10.5857435599
 20
11.0274569363
 30
0.0
  0
SPLINE
  5
305
100
AcDbEntity
  8
0
100
AcDbSpline
 62
7
  6
CONTINUOUS
 70
0
 71
3
 72
51
 73
47
 74
0
 42
0.0000001
 43
0.0000001
 44
0.0000000001
 40
0.0
 40
0.0
 40
0.0
 40
0.0
 40
0.0064797863
 40
0.0134582786
 40
0.0209915109
 40
0.0291208266
 40
0.037874942
 40
0.0472730397
 40
0.0573262518
 40
0.0680394292
 40
0.0794122575
 40
0.0914399051
 40
0.1041141923
 40
0.117423441
 40
0.1313537012
 40
0.1458881256
 40
0.1766915434
 40
0.2096638845
 40
0.2446081519
 40
0.2813062057
 40
0.3195225147
 40
0.359007006
 40
0.3994978771
 40
0.4407243538
 40
0.4824090637
 40
0.5242706173
 40
0.5660261866
 40
0.607393692
 40
0.6480946128
 40
0.6878562346
 40
0.7264142253
 40
0.7635154146
 40
0.7989202544
 40
0.8324060136
 40
0.863770036
 40
0.8928336978
 40
0.9064560981
 40
0.9194501354
 40
0.9318030793
 40
0.9435049006
 40
0.9545489545
 40
0.9649325023
 40
0.9746576807
 40
0.9837330977
 40
0.9921732903
 40
1.0
 40
1.0
 40
1.0
 40
1.0
 10
10.7480378588
 20
11.590892703
 30
0.0
 10
10.7482651773
 20
11.5905169793
 30
0.0
 10
10.7487873804
 20
11.589766247
 30
0.0
 10
10.7497209091
 20
11.588689974
 30
0.0
 10
10.7508292175
 20
11.5876261276
 30
0.0
 10
10.7521102362
 20
11.5865764316
 30
0.0
 10
10.75356175
 20
11.5855422141
 30
0.0
 10
10.7551813229
 20
11.5845251724
 30
0.0
 10
10.7569661667
 20
11.5835269408
 30
0.0
 10
10.7589131994
 20
11.5825492415
 30
0.0
 10
10.7610190154
 20
11.5815938051
 30
0.0
 10
10.7632798876
 20
11.5806622961
 30
0.0
 10
10.7656918097
 20
11.5797564462
 30
0.0
 10
10.7682504626
 20
11.5788778275
 30
0.0
 10
10.7709512762
 20
11.5780280898
 30
0.0
 10
10.7748106225
 20
11.5769139799
 30
0.0
 10
10.7799573815
 20
11.5756125379
 30
0.0
 10
10.7865018505
 20
11.5742170137
 30
0.0
 10
10.793482195
 20
11.5729693785
 30
0.0
 10
10.8008480664
 20
11.5718788105
 30
0.0
 10
10.8085463968
 20
11.5709533811
 30
0.0
 10
10.816521594
 20
11.5701999106
 30
0.0
 10
10.8247160316
 20
11.569623952
 30
0.0
 10
10.8330704604
 20
11.5692297444
 30
0.0
 10
10.8415244564
 20
11.5690201867
 30
0.0
 10
10.8500168654
 20
11.568996821
 30
0.0
 10
10.8584862462
 20
11.5691598182
 30
0.0
 10
10.8668713331
 20
11.5695079812
 30
0.0
 10
10.8751114727
 20
11.5700387493
 30
0.0
 10
10.8831470812
 20
11.5707482167
 30
0.0
 10
10.8909200817
 20
11.5716311571
 30
0.0
 10
10.8983743412
 20
11.5726810596
 30
0.0
 10
10.9054560823
 20
11.5738901739
 30
0.0
 10
10.9121143785
 20
11.575249548
 30
0.0
 10
10.9183012888
 20
11.5767491618
 30
0.0
 10
10.9231266819
 20
11.5781346851
 30
0.0
 10
10.9267119757
 20
11.5793126536
 30
0.0
 10
10.9291979793
 20
11.5802050871
 30
0.0
 10
10.9315350648
 20
11.5811239372
 30
0.0
 10
10.933719065
 20
11.5820675996
 30
0.0
 10
10.9357460962
 20
11.5830343675
 30
0.0
 10
10.9376126117
 20
11.5840224939
 30
0.0
 10
10.9393153618
 20
11.5850303286
 30
0.0
 10
10.9408515017
 20
11.5860561939
 30
0.0
 10
10.9422181423
 20
11.5870983235
 30
0.0
 10
10.943044997
 20
11.5878295249
 30
0.0
 10
10.9434265035
 20
11.588198032
 30
0.0
  0
SPLINE
  5
306
100
AcDbEntity
  8
0
100
AcDbSpline
 62
7
  6
CONTINUOUS
 70
0
 71
3
 72
53
 73
49
 74
0
 42
0.0000001
 43
0.0000001
 44
0.0000000001
 40
0.0
 40
0.0
 40
0.0
 40
0.0
 40
0.0077404047
 40
0.0160546495
 40
0.0249611395
 40
0.034472532
 40
0.0445959649
 40
0.0553329834
 40
0.0666814297
 40
0.0786355487
 40
0.091187035
 40
0.1043246912
 40
0.1180354526
 40
0.1323039829
 40
0.1471135142
 40
0.162445351
 40
0.1945938535
 40
0.2285758467
 40
0.2641985688
 40
0.3012541856
 40
0.3395224867
 40
0.3787730096
 40
0.4187671349
 40
0.4592603661
 40
0.5000041165
 40
0.5407477925
 40
0.5812409159
 40
0.6212348742
 40
0.6604851008
 40
0.6987530878
 40
0.735808303
 40
0.7714305344
 40
0.8054120303
 40
0.8375599332
 40
0.8528915001
 40
0.867700657
 40
0.8819689344
 40
0.8956793007
 40
0.9088166679
 40
0.9213677155
 40
0.933321551
 40
0.9446695554
 40
0.9554062467
 40
0.9655292576
 40
0.9750405258
 40
0.9839465095
 40
0.9922598262
 40
1.0
 40
1.0
 40
1.0
 40
1.0
 10
10.6994291833
 20
11.6055078276
 30
0.0
 10
10.7000046803
 20
11.6060433456
 30
0.0
 10
10.7012436093
 20
11.6071060198
 30
0.0
 10
10.7032759705
 20
11.6086238297
 30
0.0
 10
10.7055439462
 20
11.6101186898
 30
0.0
 10
10.7080437117
 20
11.6115882955
 30
0.0
 10
10.7107714575
 20
11.6130303908
 30
0.0
 10
10.7137228222
 20
11.6144427695
 30
0.0
 10
10.716893096
 20
11.6158230408
 30
0.0
 10
10.7202771269
 20
11.61716905
 30
0.0
 10
10.7238694436
 20
11.6184784999
 30
0.0
 10
10.7276641777
 20
11.6197493226
 30
0.0
 10
10.7316551415
 20
11.6209793288
 30
0.0
 10
10.7358357902
 20
11.6221665641
 30
0.0
 10
10.7401992827
 20
11.6233090032
 30
0.0
 10
10.7463491124
 20
11.6247935556
 30
0.0
 10
10.754443103
 20
11.6265151857
 30
0.0
 10
10.7646155623
 20
11.6283439153
 30
0.0
 10
10.7753289878
 20
11.6299543439
 30
0.0
 10
10.7865129313
 20
11.6313357081
 30
0.0
 10
10.7980939268
 20
11.6324787351
 30
0.0
 10
10.8099957896
 20
11.6333757741
 30
0.0
 10
10.8221401998
 20
11.6340208232
 30
0.0
 10
10.8344472078
 20
11.6344095692
 30
0.0
 10
10.8468357811
 20
11.6345394141
 30
0.0
 10
10.8592243427
 20
11.6344094906
 30
0.0
 10
10.8715313128
 20
11.6340206663
 30
0.0
 10
10.8836756608
 20
11.6333755405
 30
0.0
 10
10.8955774388
 20
11.632478426
 30
0.0
 10
10.9071583238
 20
11.6313353255
 30
0.0
 10
10.9183421352
 20
11.6299538913
 30
0.0
 10
10.9290554075
 20
11.6283433934
 30
0.0
 10
10.9392276929
 20
11.6265146049
 30
0.0
 10
10.9473215267
 20
11.6247929072
 30
0.0
 10
10.953471224
 20
11.6233083437
 30
0.0
 10
10.9578346074
 20
11.6221658479
 30
0.0
 10
10.9620151498
 20
11.6209786175
 30
0.0
 10
10.9660059951
 20
11.619748551
 30
0.0
 10
10.969800614
 20
11.6184777424
 30
0.0
 10
10.9733927989
 20
11.6171682313
 30
0.0
 10
10.9767767101
 20
11.6158222402
 30
0.0
 10
10.9799468398
 20
11.6144419066
 30
0.0
 10
10.9828980871
 20
11.6130295616
 30
0.0
 10
10.9856256942
 20
11.6115873943
 30
0.0
 10
10.9881253434
 20
11.6101177999
 30
0.0
 10
10.9903931059
 20
11.6086229064
 30
0.0
 10
10.992425333
 20
11.6071051987
 30
0.0
 10
10.9936640977
 20
11.6060425111
 30
0.0
 10
10.9942395479
 20
11.6055069773
 30
0.0
  0
SPLINE
  5
307
100
AcDbEntity
  8
0
100
AcDbSpline
 62
7
  6
CONTINUOUS
 70
0
 71
3
 72
16
 73
12
 74
0
 42
0.0000001
 43
0.0000001
 44
0.0000000001
 40
0.0
 40
0.0
 40
0.0
 40
0.0
 40
0.1492551013
 40
0.2896895692
 40
0.4220106877
 40
0.4854181208
 40
0.5471473479
 40
0.6661067126
 40
0.7802202735
 40
0.8909718673
 40
1.0
 40
1.0
 40
1.0
 40
1.0
 10
11.0241054473
 20
11.5777136325
 30
0.0
 10
11.024645937
 20
11.5772106485
 30
0.0
 10
11.0256645315
 20
11.5762007491
 30
0.0
 10
11.0270358892
 20
11.5746241795
 30
0.0
 10
11.0280203845
 20
11.5732810089
 30
0.0
 10
11.0286984694
 20
11.5722024037
 30
0.0
 10
11.0292899103
 20
11.5711492348
 30
0.0
 10
11.0299047929
 20
11.5698234732
 30
0.0
 10
11.0304400999
 20
11.5682048418
 30
0.0
 10
11.0307621039
 20
11.5665805286
 30
0.0
 10
11.0308339131
 20
11.5654920324
 30
0.0
 10
11.0308339037
 20
11.5649527004
 30
0.0
  0
SPLINE
  5
308
100
AcDbEntity
  8
0
100
AcDbSpline
 62
7
  6
CONTINUOUS
 70
0
 71
3
 72
15
 73
11
 74
0
 42
0.0000001
 43
0.0000001
 44
0.0000000001
 40
0.0
 40
0.0
 40
0.0
 40
0.0
 40
0.1098906517
 40
0.2214018182
 40
0.3360753656
 40
0.4553197315
 40
0.5803743582
 40
0.7122968171
 40
0.8519481781
 40
1.0
 40
1.0
 40
1.0
 40
1.0
 10
10.6628339266
 20
11.5649533963
 30
0.0
 10
10.6628339357
 20
11.5654738104
 30
0.0
 10
10.6629007857
 20
11.566523491
 30
0.0
 10
10.6632005215
 20
11.5680904577
 30
0.0
 10
10.6636987736
 20
11.5696525049
 30
0.0
 10
10.6643942867
 20
11.5712072666
 30
0.0
 10
10.6652854741
 20
11.5727532926
 30
0.0
 10
10.6663709006
 20
11.5742891925
 30
0.0
 10
10.6676488603
 20
11.5758135331
 30
0.0
 10
10.6685992576
 20
11.5767915792
 30
0.0
 10
10.6691035526
 20
11.5772786908
 30
0.0
  0
SPLINE
  5
309
100
AcDbEntity
  8
0
100
AcDbSpline
 62
7
  6
CONTINUOUS
 70
0
 71
3
 72
15
 73
11
 74
0
 42
0.0000001
 43
0.0000001
 44
0.0000000001
 40
0.0
 40
0.0
 40
0.0
 40
0.0
 40
0.1098906142
 40
0.2214018168
 40
0.3360754298
 40
0.4553198489
 40
0.5803745049
 40
0.7122969731
 40
0.8519482966
 40
1.0
 40
1.0
 40
1.0
 40
1.0
 10
11.0308339036
 20
11.3727333427
 30
0.0
 10
11.0308338901
 20
11.3722129327
 30
0.0
 10
11.0307670322
 20
11.3711632605
 30
0.0
 10
11.0304672877
 20
11.3695963074
 30
0.0
 10
11.0299690306
 20
11.3680342741
 30
0.0
 10
11.0292735161
 20
11.3664795264
 30
0.0
 10
11.0283823307
 20
11.3649335143
 30
0.0
 10
11.0272969095
 20
11.3633976279
 30
0.0
 10
11.0260189584
 20
11.3618733005
 30
0.0
 10
11.0250685686
 20
11.3608952626
 30
0.0
 10
11.0245642778
 20
11.360408155
 30
0.0
  0
SPLINE
  5
30A
100
AcDbEntity
  8
0
100
AcDbSpline
 62
7
  6
CONTINUOUS
 70
0
 71
3
 72
23
 73
19
 74
0
 42
0.0000001
 43
0.0000001
 44
0.0000000001
 40
0.0
 40
0.0
 40
0.0
 40
0.0
 40
0.0436196014
 40
0.0892263365
 40
0.1370667606
 40
0.1873519913
 40
0.2402504927
 40
0.2958839517
 40
0.3543261383
 40
0.4156045169
 40
0.4797040944
 40
0.5465728825
 40
0.616128309
 40
0.6882639801
 40
0.7628563633
 40
0.8397705479
 40
0.9188661515
 40
1.0
 40
1.0
 40
1.0
 40
1.0
 10
10.3362148328
 20
10.3848769738
 30
0.0
 10
10.333904912
 20
10.3837364785
 30
0.0
 10
10.3292677495
 20
10.3812215154
 30
0.0
 10
10.3224407474
 20
10.3768602494
 30
0.0
 10
10.3156041662
 20
10.3718183405
 30
0.0
 10
10.3087630504
 20
10.3660871696
 30
0.0
 10
10.3019217156
 20
10.3596639234
 30
0.0
 10
10.2950846443
 20
10.3525521885
 30
0.0
 10
10.288256136
 20
10.3447617487
 30
0.0
 10
10.2814402924
 20
10.3363082583
 30
0.0
 10
10.2746408944
 20
10.327212618
 30
0.0
 10
10.2678613162
 20
10.3175001622
 30
0.0
 10
10.2611044524
 20
10.3071997173
 30
0.0
 10
10.254372666
 20
10.2963426096
 30
0.0
 10
10.2476677947
 20
10.2849617045
 30
0.0
 10
10.240991135
 20
10.2730904926
 30
0.0
 10
10.2343435414
 20
10.2607624432
 30
0.0
 10
10.2299843079
 20
10.2523628445
 30
0.0
 10
10.2278066989
 20
10.2480945526
 30
0.0
  0
SPLINE
  5
30B
100
AcDbEntity
  8
0
100
AcDbSpline
 62
7
  6
CONTINUOUS
 70
0
 71
3
 72
18
 73
14
 74
0
 42
0.0000001
 43
0.0000001
 44
0.0000000001
 40
0.0
 40
0.0
 40
0.0
 40
0.0
 40
0.0544284586
 40
0.1090741131
 40
0.1641514082
 40
0.2198691273
 40
0.333969962
 40
0.4529167319
 40
0.5146386222
 40
0.5780388623
 40
0.7103454994
 40
0.8507628585
 40
1.0
 40
1.0
 40
1.0
 40
1.0
 10
11.3438338943
 20
10.7506775811
 30
0.0
 10
11.3438338956
 20
10.751404875
 30
0.0
 10
11.3437860658
 20
10.752862816
 30
0.0
 10
11.3435709645
 20
10.7550471624
 30
0.0
 10
11.3432125075
 20
10.7572301865
 30
0.0
 10
11.3425386853
 20
10.7601605608
 30
0.0
 10
11.3413241729
 20
10.7638335656
 30
0.0
 10
11.3396632953
 20
10.7674140807
 30
0.0
 10
11.3380659041
 20
10.7702587184
 30
0.0
 10
11.3362344263
 20
10.7731719741
 30
0.0
 10
11.3335753189
 20
10.7767997814
 30
0.0
 10
11.3298714467
 20
10.7810580742
 30
0.0
 10
11.3271203033
 20
10.7837857577
 30
0.0
 10
11.3256604861
 20
10.7851442946
 30
0.0
  0
SPLINE
  5
30C
100
AcDbEntity
  8
0
100
AcDbSpline
 62
7
  6
CONTINUOUS
 70
0
 71
3
 72
23
 73
19
 74
0
 42
0.0000001
 43
0.0000001
 44
0.0000000001
 40
0.0
 40
0.0
 40
0.0
 40
0.0
 40
0.0436196014
 40
0.0892263365
 40
0.1370667606
 40
0.1873519913
 40
0.2402504927
 40
0.2958839517
 40
0.3543261383
 40
0.4156045169
 40
0.4797040944
 40
0.5465728825
 40
0.616128309
 40
0.6882639801
 40
0.7628563633
 40
0.8397705479
 40
0.9188661515
 40
1.0
 40
1.0
 40
1.0
 40
1.0
 10
11.3574529976
 20
9.6761038507
 30
0.0
 10
11.3597629183
 20
9.6772443461
 30
0.0
 10
11.3644000808
 20
9.6797593092
 30
0.0
 10
11.371227083
 20
9.6841205752
 30
0.0
 10
11.3780636642
 20
9.689162484
 30
0.0
 10
11.3849047799
 20
9.694893655
 30
0.0
 10
11.3917461148
 20
9.7013169011
 30
0.0
 10
11.398583186
 20
9.708428636
 30
0.0
 10
11.4054116944
 20
9.7162190758
 30
0.0
 10
11.412227538
 20
9.7246725663
 30
0.0
 10
11.419026936
 20
9.7337682066
 30
0.0
 10
11.4258065142
 20
9.7434806623
 30
0.0
 10
11.432563378
 20
9.7537811072
 30
0.0
 10
11.4392951644
 20
9.7646382149
 30
0.0
 10
11.4460000357
 20
9.77601912
 30
0.0
 10
11.4526766953
 20
9.787890332
 30
0.0
 10
11.459324289
 20
9.8002183813
 30
0.0
 10
11.4636835225
 20
9.8086179801
 30
0.0
 10
11.4658611314
 20
9.812886272
 30
0.0
  0
SPLINE
  5
30D
100
AcDbEntity
  8
0
100
AcDbSpline
 62
7
  6
CONTINUOUS
 70
0
 71
3
 72
23
 73
19
 74
0
 42
0.0000001
 43
0.0000001
 44
0.0000000001
 40
0.0
 40
0.0
 40
0.0
 40
0.0
 40
0.0432904074
 40
0.0890180142
 40
0.1372562642
 40
0.1880595957
 40
0.2414649184
 40
0.297495174
 40
0.3561606442
 40
0.4174608098
 40
0.4813860415
 40
0.5479179335
 40
0.6170314375
 40
0.6886940344
 40
0.7628682468
 40
0.839510122
 40
0.9185718088
 40
1.0
 40
1.0
 40
1.0
 40
1.0
 10
11.2659277924
 20
10.8407318223
 30
0.0
 10
11.2646926388
 20
10.84188128
 30
0.0
 10
11.2620799912
 20
10.8441675401
 30
0.0
 10
11.2578703349
 20
10.847472056
 30
0.0
 10
11.2532688603
 20
10.8507409913
 30
0.0
 10
11.2482799579
 20
10.8539711622
 30
0.0
 10
11.2429082339
 20
10.8571597733
 30
0.0
 10
11.2371586797
 20
10.8603038249
 30
0.0
 10
11.2310366761
 20
10.86340041
 30
0.0
 10
11.2245479731
 20
10.8664466272
 30
0.0
 10
11.2176986738
 20
10.8694395572
 30
0.0
 10
11.2104952615
 20
10.8723764191
 30
0.0
 10
11.2029445392
 20
10.8752543345
 30
0.0
 10
11.1950536851
 20
10.8780706498
 30
0.0
 10
11.1868301811
 20
10.8808225686
 30
0.0
 10
11.1782818581
 20
10.8835075617
 30
0.0
 10
11.1694168714
 20
10.8861229515
 30
0.0
 10
11.1633888023
 20
10.8877942929
 30
0.0
 10
11.160324083
 20
10.8886188363
 30
0.0
  0
SPLINE
  5
30E
100
AcDbEntity
  8
0
100
AcDbSpline
 62
7
  6
CONTINUOUS
 70
0
 71
3
 72
18
 73
14
 74
0
 42
0.0000001
 43
0.0000001
 44
0.0000000001
 40
0.0
 40
0.0
 40
0.0
 40
0.0
 40
0.1492375037
 40
0.2896545881
 40
0.4219614439
 40
0.4853614374
 40
0.5470833384
 40
0.6660301833
 40
0.7801308948
 40
0.8358486565
 40
0.8909259069
 40
0.9455715286
 40
1.0
 40
1.0
 40
1.0
 40
1.0
 10
10.368007369
 20
10.7851443078
 30
0.0
 10
10.3665475415
 20
10.7837857652
 30
0.0
 10
10.3637963669
 20
10.7810580914
 30
0.0
 10
10.3600925176
 20
10.7767997503
 30
0.0
 10
10.3574333655
 20
10.7731719616
 30
0.0
 10
10.3556019156
 20
10.7702586747
 30
0.0
 10
10.3540045154
 20
10.7674140333
 30
0.0
 10
10.3523436165
 20
10.7638335118
 30
0.0
 10
10.3511291388
 20
10.7601604833
 30
0.0
 10
10.3504552916
 20
10.7572301066
 30
0.0
 10
10.3500968495
 20
10.7550470722
 30
0.0
 10
10.3498817755
 20
10.7528627172
 30
0.0
 10
10.3498339375
 20
10.7514047723
 30
0.0
 10
10.3498339361
 20
10.7506774759
 30
0.0
  0
SPLINE
  5
30F
100
AcDbEntity
  8
0
100
AcDbSpline
 62
7
  6
CONTINUOUS
 70
0
 71
3
 72
14
 73
10
 74
0
 42
0.0000001
 43
0.0000001
 44
0.0000000001
 40
0.0
 40
0.0
 40
0.0
 40
0.0
 40
0.2574545396
 40
0.3842998676
 40
0.5097548722
 40
0.6338207621
 40
0.7565196327
 40
0.878369767
 40
1.0
 40
1.0
 40
1.0
 40
1.0
 10
10.6687121482
 20
11.3473634484
 30
0.0
 10
10.669056129
 20
11.3460021526
 30
0.0
 10
10.669717867
 20
11.3440038941
 30
0.0
 10
10.6708561935
 20
11.3414662196
 30
0.0
 10
10.6718160135
 20
11.3396501667
 30
0.0
 10
10.6728723383
 20
11.3379153536
 30
0.0
 10
10.6740150408
 20
11.3362600869
 30
0.0
 10
10.6752381023
 20
11.3346802628
 30
0.0
 10
10.6761038697
 20
11.3336726246
 30
0.0
 10
10.6765478063
 20
11.3331797399
 30
0.0
  0
SPLINE
  5
310
100
AcDbEntity
  8
0
100
AcDbSpline
 62
7
  6
CONTINUOUS
 70
0
 71
3
 72
23
 73
19
 74
0
 42
0.0000001
 43
0.0000001
 44
0.0000000001
 40
0.0
 40
0.0
 40
0.0
 40
0.0
 40
0.0748354453
 40
0.1456129813
 40
0.2126358338
 40
0.2762904615
 40
0.3370479524
 40
0.3954590735
 40
0.4521506144
 40
0.5078137394
 40
0.5631835483
 40
0.6190077447
 40
0.676014299
 40
0.7348827741
 40
0.7962245295
 40
0.8605705049
 40
0.9283717522
 40
1.0
 40
1.0
 40
1.0
 40
1.0
 10
11.0860494079
 20
11.0953441582
 30
0.0
 10
11.086697393
 20
11.0959700638
 30
0.0
 10
11.0879218598
 20
11.0972265536
 30
0.0
 10
11.0895780951
 20
11.0991812942
 30
0.0
 10
11.0909988931
 20
11.1011501494
 30
0.0
 10
11.0921823332
 20
11.1031313968
 30
0.0
 10
11.0931267735
 20
11.1051234677
 30
0.0
 10
11.0938304742
 20
11.1071246053
 30
0.0
 10
11.0942919592
 20
11.1091326006
 30
0.0
 10
11.0945097564
 20
11.1111448494
 30
0.0
 10
11.0944833532
 20
11.113158315
 30
0.0
 10
11.0942127147
 20
11.1151698802
 30
0.0
 10
11.0936987397
 20
11.1171766028
 30
0.0
 10
11.0929428008
 20
11.1191759661
 30
0.0
 10
11.091946472
 20
11.1211658281
 30
0.0
 10
11.0907115685
 20
11.1231445324
 30
0.0
 10
11.0892397886
 20
11.125110323
 30
0.0
 10
11.0881336121
 20
11.1263750362
 30
0.0
 10
11.0875448005
 20
11.1270050089
 30
0.0
  0
SPLINE
  5
311
100
AcDbEntity
  8
0
100
AcDbSpline
 62
7
  6
CONTINUOUS
 70
0
 71
3
 72
27
 73
23
 74
0
 42
0.0000001
 43
0.0000001
 44
0.0000000001
 40
0.0
 40
0.0
 40
0.0
 40
0.0
 40
0.0679928633
 40
0.1311598062
 40
0.1900541609
 40
0.2454129588
 40
0.2981461796
 40
0.3238756532
 40
0.349358925
 40
0.3747457024
 40
0.4001874729
 40
0.4258346811
 40
0.4518339459
 40
0.5054053914
 40
0.5619531418
 40
0.5916263725
 40
0.6223451105
 40
0.6872053432
 40
0.7570717593
 40
0.8323267262
 40
0.913241187
 40
1.0
 40
1.0
 40
1.0
 40
1.0
 10
11.0400190919
 20
11.0985363715
 30
0.0
 10
11.0407077272
 20
11.0992015421
 30
0.0
 10
11.041986116
 20
11.1005384091
 30
0.0
 10
11.0436452314
 20
11.1026440767
 30
0.0
 10
11.0449678256
 20
11.1047706038
 30
0.0
 10
11.0459497324
 20
11.1069147401
 30
0.0
 10
11.0464847975
 20
11.1087295911
 30
0.0
 10
11.046732594
 20
11.1101734726
 30
0.0
 10
11.046830765
 20
11.1112487996
 30
0.0
 10
11.046842563
 20
11.1123244511
 30
0.0
 10
11.0467680481
 20
11.1133998916
 30
0.0
 10
11.046607215
 20
11.1144745763
 30
0.0
 10
11.0462747214
 20
11.1159197044
 30
0.0
 10
11.0456328427
 20
11.1177334797
 30
0.0
 10
11.044725698
 20
11.1194867659
 30
0.0
 10
11.0438412
 20
11.1208765612
 30
0.0
 10
11.0428110943
 20
11.122309255
 30
0.0
 10
11.0413008879
 20
11.1240886157
 30
0.0
 10
11.0391889572
 20
11.1261627526
 30
0.0
 10
11.0367488905
 20
11.1282108971
 30
0.0
 10
11.0339850402
 20
11.1302301312
 30
0.0
 10
11.0319993299
 20
11.1315099822
 30
0.0
 10
11.0309564771
 20
11.132146344
 30
0.0
  0
SPLINE
  5
312
100
AcDbEntity
  8
0
100
AcDbSpline
 62
7
  6
CONTINUOUS
 70
0
 71
3
 72
11
 73
7
 74
0
 42
0.0000001
 43
0.0000001
 44
0.0000000001
 40
0.0
 40
0.0
 40
0.0
 40
0.0
 40
0.2728147899
 40
0.5301600517
 40
0.7723949234
 40
1.0
 40
1.0
 40
1.0
 40
1.0
 10
10.6627562551
 20
11.1321737326
 30
0.0
 10
10.661869925
 20
11.1316337496
 30
0.0
 10
10.6601691566
 20
11.1305481928
 30
0.0
 10
10.6577703786
 20
11.1288489092
 30
0.0
 10
10.6556020753
 20
11.1271286105
 30
0.0
 10
10.6542715223
 20
11.1259328095
 30
0.0
 10
10.6536487385
 20
11.1253312465
 30
0.0
  0
SPLINE
  5
313
100
AcDbEntity
  8
0
100
AcDbSpline
 62
7
  6
CONTINUOUS
 70
0
 71
3
 72
23
 73
19
 74
0
 42
0.0000001
 43
0.0000001
 44
0.0000000001
 40
0.0
 40
0.0
 40
0.0
 40
0.0
 40
0.0736871012
 40
0.143120122
 40
0.2086483171
 40
0.2707219031
 40
0.3298925613
 40
0.3868074295
 40
0.4422009342
 40
0.4968755521
 40
0.5516697084
 40
0.6074159907
 40
0.6649010551
 40
0.7248362101
 40
0.7878396386
 40
0.8544310844
 40
0.9250377407
 40
1.0
 40
1.0
 40
1.0
 40
1.0
 10
10.6536487385
 20
11.1253312465
 30
0.0
 10
10.6530909584
 20
11.1247924723
 30
0.0
 10
10.6520408576
 20
11.1237106308
 30
0.0
 10
10.6506321054
 20
11.1220233334
 30
0.0
 10
10.6494403372
 20
11.1203229975
 30
0.0
 10
10.6484674707
 20
11.1186112758
 30
0.0
 10
10.6477152282
 20
11.1168896946
 30
0.0
 10
10.6471853985
 20
11.1151600938
 30
0.0
 10
10.646879497
 20
11.1134248499
 30
0.0
 10
10.6467988321
 20
11.1116868435
 30
0.0
 10
10.6469435448
 20
11.1099493039
 30
0.0
 10
10.6473132209
 20
11.1082153941
 30
0.0
 10
10.6479064302
 20
11.1064878437
 30
0.0
 10
10.64872156
 20
11.1047688811
 30
0.0
 10
10.6497567933
 20
11.1030602883
 30
0.0
 10
10.6510103333
 20
11.1013635165
 30
0.0
 10
10.6524804185
 20
11.099680136
 30
0.0
 10
10.6535698819
 20
11.0986011026
 30
0.0
 10
10.6541474103
 20
11.0980636534
 30
0.0
  0
SPLINE
  5
314
100
AcDbEntity
  8
0
100
AcDbSpline
 62
7
  6
CONTINUOUS
 70
0
 71
3
 72
21
 73
17
 74
0
 42
0.0000001
 43
0.0000001
 44
0.0000000001
 40
0.0
 40
0.0
 40
0.0
 40
0.0
 40
0.1192817699
 40
0.1791777646
 40
0.2393027587
 40
0.2997125448
 40
0.3604690675
 40
0.4216385591
 40
0.4832891114
 40
0.5454874568
 40
0.6082953592
 40
0.6717659909
 40
0.7359408312
 40
0.8008475388
 40
0.8664990622
 40
1.0
 40
1.0
 40
1.0
 40
1.0
 10
10.9308132204
 20
10.789210489
 30
0.0
 10
10.9379876605
 20
10.788238218
 30
0.0
 10
10.9488088048
 20
10.7870709415
 30
0.0
 10
10.9633098012
 20
10.7862030606
 30
0.0
 10
10.9742601574
 20
10.7859221684
 30
0.0
 10
10.9852658577
 20
10.7860399433
 30
0.0
 10
10.9963225919
 20
10.7865827206
 30
0.0
 10
11.0074239715
 20
10.787574487
 30
0.0
 10
11.0185618413
 20
10.7890355792
 30
0.0
 10
11.0297263857
 20
10.7909814699
 30
0.0
 10
11.0409065108
 20
10.7934217351
 30
0.0
 10
11.0520903874
 20
10.7963593667
 30
0.0
 10
11.0632659727
 20
10.799790474
 30
0.0
 10
11.0744219948
 20
10.8037047037
 30
0.0
 10
11.0893376999
 20
10.809577773
 30
0.0
 10
11.1003429225
 20
10.8146064405
 30
0.0
 10
11.1076078759
 20
10.818195359
 30
0.0
  0
SPLINE
  5
315
100
AcDbEntity
  8
0
100
AcDbSpline
 62
7
  6
CONTINUOUS
 70
0
 71
3
 72
31
 73
27
 74
0
 42
0.0000001
 43
0.0000001
 44
0.0000000001
 40
0.0
 40
0.0
 40
0.0
 40
0.0
 40
0.0719305415
 40
0.1428141093
 40
0.2124838369
 40
0.2807656023
 40
0.3474963193
 40
0.4125509865
 40
0.444436443
 40
0.4758911042
 40
0.506924625
 40
0.5375541288
 40
0.5678037101
 40
0.5977040291
 40
0.6272908827
 40
0.6566033962
 40
0.6856827664
 40
0.7145703471
 40
0.7433058534
 40
0.7719267289
 40
0.800466972
 40
0.8289564021
 40
0.885873862
 40
0.9143508768
 40
0.9428580262
 40
1.0
 40
1.0
 40
1.0
 40
1.0
 10
10.9308132204
 20
10.8874043297
 30
0.0
 10
10.9352508716
 20
10.8915838509
 30
0.0
 10
10.9441927778
 20
10.899744583
 30
0.0
 10
10.9579410582
 20
10.9113821143
 30
0.0
 10
10.9719462421
 20
10.9222139222
 30
0.0
 10
10.9862096768
 20
10.9321022361
 30
0.0
 10
11.0007191258
 20
10.9408976948
 30
0.0
 10
11.0130756177
 20
10.9472328806
 30
0.0
 10
11.0230468997
 20
10.9515959138
 30
0.0
 10
11.0305075606
 20
10.9544854133
 30
0.0
 10
11.0379900147
 20
10.9570020403
 30
0.0
 10
11.0454841342
 20
10.9591373663
 30
0.0
 10
11.0529792471
 20
10.9608863371
 30
0.0
 10
11.0604645425
 20
10.9622481183
 30
0.0
 10
11.0679295629
 20
10.9632255753
 30
0.0
 10
11.0753645355
 20
10.9638250554
 30
0.0
 10
11.0827606296
 20
10.9640565467
 30
0.0
 10
11.0901102358
 20
10.9639326995
 30
0.0
 10
11.0974070692
 20
10.963468225
 30
0.0
 10
11.1046461695
 20
10.962679725
 30
0.0
 10
11.1118240471
 20
10.9615845668
 30
0.0
 10
11.1213052835
 20
10.9597403983
 30
0.0
 10
11.1306670937
 20
10.9573526941
 30
0.0
 10
11.139888969
 20
10.9544962153
 30
0.0
 10
11.1490343692
 20
10.9513443087
 30
0.0
 10
11.1557905412
 20
10.9486777087
 30
0.0
 10
11.1602487089
 20
10.946786581
 30
0.0
  0
SPLINE
  5
316
100
AcDbEntity
  8
0
100
AcDbSpline
 62
7
  6
CONTINUOUS
 70
0
 71
3
 72
23
 73
19
 74
0
 42
0.0000001
 43
0.0000001
 44
0.0000000001
 40
0.0
 40
0.0
 40
0.0
 40
0.0
 40
0.0247908923
 40
0.0496948535
 40
0.1002205837
 40
0.152413781
 40
0.2068698482
 40
0.2639610953
 40
0.3238337185
 40
0.3864269878
 40
0.4515030516
 40
0.5186801087
 40
0.5874654884
 40
0.6572874609
 40
0.7275257215
 40
0.7975409459
 40
0.8667039655
 40
1.0
 40
1.0
 40
1.0
 40
1.0
 10
10.9693740621
 20
11.308941384
 30
0.0
 10
10.9696413669
 20
11.3090152657
 30
0.0
 10
10.9701704724
 20
11.3091891902
 30
0.0
 10
10.9711986938
 20
11.3096394545
 30
0.0
 10
10.9724197461
 20
11.3103963434
 30
0.0
 10
10.9737311838
 20
11.3115802054
 30
0.0
 10
10.9748748898
 20
11.313020817
 30
0.0
 10
10.9758312786
 20
11.314690492
 30
0.0
 10
10.9765847929
 20
11.316558586
 30
0.0
 10
10.9771230548
 20
11.3185914707
 30
0.0
 10
10.97743722
 20
11.3207528573
 30
0.0
 10
10.9775221376
 20
11.3230042255
 30
0.0
 10
10.9773765657
 20
11.3253054015
 30
0.0
 10
10.9770032252
 20
11.3276153219
 30
0.0
 10
10.9764089631
 20
11.3298924958
 30
0.0
 10
10.9756040499
 20
11.3320968206
 30
0.0
 10
10.9742873365
 20
11.334848698
 30
0.0
 10
10.9730093994
 20
11.3367451187
 30
0.0
 10
10.9720402113
 20
11.337878328
 30
0.0
  0
SPLINE
  5
317
100
AcDbEntity
  8
0
100
AcDbSpline
 62
7
  6
CONTINUOUS
 70
0
 71
3
 72
56
 73
52
 74
0
 42
0.0000001
 43
0.0000001
 44
0.0000000001
 40
0.0
 40
0.0
 40
0.0
 40
0.0
 40
0.0077403522
 40
0.016054151
 40
0.0249602281
 40
0.0344715492
 40
0.044594748
 40
0.0553315743
 40
0.0666797148
 40
0.0786336713
 40
0.0911848846
 40
0.1043223584
 40
0.1180328836
 40
0.1323012328
 40
0.1471105407
 40
0.1624421912
 40
0.1782762807
 40
0.1945914688
 40
0.2113652832
 40
0.2285741087
 40
0.2641964941
 40
0.3012518337
 40
0.3395198833
 40
0.378770162
 40
0.4187641334
 40
0.4592572092
 40
0.5000008406
 40
0.5407444644
 40
0.5812375372
 40
0.6212314954
 40
0.6604817725
 40
0.6987498074
 40
0.7358051287
 40
0.771427481
 40
0.8054091078
 40
0.821724305
 40
0.8375583505
 40
0.8528900184
 40
0.8676992747
 40
0.8819676271
 40
0.8956781365
 40
0.908815577
 40
0.9213667956
 40
0.9333206975
 40
0.944668869
 40
0.9554056264
 40
0.9655288008
 40
0.9750401668
 40
0.9839462931
 40
0.992259704
 40
1.0
 40
1.0
 40
1.0
 40
1.0
 10
11.1026254338
 20
11.0225258025
 30
0.0
 10
11.101626808
 20
11.0215964937
 30
0.0
 10
11.0994770245
 20
11.0197524136
 30
0.0
 10
11.0959504104
 20
11.0171186302
 30
0.0
 10
11.0920149943
 20
11.0145245859
 30
0.0
 10
11.087677278
 20
11.0119744065
 30
0.0
 10
11.0829439664
 20
11.0094718426
 30
0.0
 10
11.0778225726
 20
11.0070210016
 30
0.0
 10
11.0723213506
 20
11.0046257458
 30
0.0
 10
11.0664491636
 20
11.00229005
 30
0.0
 10
11.0602155511
 20
11.0000176983
 30
0.0
 10
11.0536306661
 20
10.9978124568
 30
0.0
 10
11.0467052676
 20
10.9956779809
 30
0.0
 10
11.0394506985
 20
10.993617763
 30
0.0
 10
11.0318788493
 20
10.9916352744
 30
0.0
 10
11.0240021587
 20
10.9897337346
 30
0.0
 10
11.0158335665
 20
10.9879163543
 30
0.0
 10
11.0073865106
 20
10.9861861072
 30
0.0
 10
10.9986748759
 20
10.9845458598
 30
0.0
 10
10.9865863924
 20
10.9824585381
 30
0.0
 10
10.9709188523
 20
10.9801034407
 30
0.0
 10
10.951511577
 20
10.977706279
 30
0.0
 10
10.9314151836
 20
10.9757227282
 30
0.0
 10
10.9107619925
 20
10.9741660299
 30
0.0
 10
10.8896878824
 20
10.9730466132
 30
0.0
 10
10.8683315948
 20
10.9723719597
 30
0.0
 10
10.8468337469
 20
10.9721465768
 30
0.0
 10
10.8253358999
 20
10.9723719698
 30
0.0
 10
10.8039796161
 20
10.9730466317
 30
0.0
 10
10.782905512
 20
10.9741660543
 30
0.0
 10
10.7622523172
 20
10.9757227525
 30
0.0
 10
10.7421559628
 20
10.9777063166
 30
0.0
 10
10.7227485847
 20
10.980103452
 30
0.0
 10
10.7041579026
 20
10.9828981361
 30
0.0
 10
10.6892521215
 20
10.9855776661
 30
0.0
 10
10.6778340079
 20
10.9879163837
 30
0.0
 10
10.6696654181
 20
10.9897338113
 30
0.0
 10
10.6617887374
 20
10.9916353208
 30
0.0
 10
10.6542169003
 20
10.9936178375
 30
0.0
 10
10.6469623396
 20
10.9956780421
 30
0.0
 10
10.6400369509
 20
10.9978125232
 30
0.0
 10
10.6334520788
 20
11.0000177778
 30
0.0
 10
10.627218473
 20
11.0022901066
 30
0.0
 10
10.6213463042
 20
11.0046258385
 30
0.0
 10
10.6158450853
 20
11.0070210611
 30
0.0
 10
10.6107237196
 20
11.0094719354
 30
0.0
 10
10.605990403
 20
11.0119744707
 30
0.0
 10
10.6016526883
 20
11.0145246797
 30
0.0
 10
10.5977173378
 20
11.0171187262
 30
0.0
 10
10.5941907401
 20
11.0197524156
 30
0.0
 10
10.5920410381
 20
11.0215964727
 30
0.0
 10
10.5910424276
 20
11.0225257834
 30
0.0
  0
LINE
  5
318
100
AcDbEntity
  8
0
100
AcDbLine
 62
7
  6
CONTINUOUS
 10
10.535945558
 20
10.9924234575
 11
10.5360290944
 21
10.9924913329
  0
SPLINE
  5
319
100
AcDbEntity
  8
0
100
AcDbSpline
 62
7
  6
CONTINUOUS
 70
0
 71
3
 72
38
 73
34
 74
0
 42
0.0000001
 43
0.0000001
 44
0.0000000001
 40
0.0
 40
0.0
 40
0.0
 40
0.0
 40
0.0220666863
 40
0.0434204029
 40
0.0640867074
 40
0.0841150977
 40
0.1035837187
 40
0.1226065546
 40
0.1413381554
 40
0.1599751061
 40
0.1787532409
 40
0.1979378952
 40
0.2178091637
 40
0.2386449857
 40
0.2607033348
 40
0.2842096588
 40
0.3093491542
 40
0.3362613223
 40
0.3650414067
 40
0.3957432125
 40
0.4283817951
 40
0.4629405459
 40
0.4993765067
 40
0.5376253815
 40
0.5776082551
 40
0.6192354996
 40
0.6624116878
 40
0.7070385876
 40
0.7530182043
 40
0.800254905
 40
0.8486558961
 40
0.898135003
 40
1.0
 40
1.0
 40
1.0
 40
1.0
 10
10.5360290944
 20
10.9924913329
 30
0.0
 10
10.5368141121
 20
10.993128035
 30
0.0
 10
10.538390164
 20
10.9943429716
 30
0.0
 10
10.5408153826
 20
10.9960000161
 30
0.0
 10
10.5432639932
 20
10.9974474918
 30
0.0
 10
10.545736765
 20
10.9986704523
 30
0.0
 10
10.5482345789
 20
10.9996529107
 30
0.0
 10
10.550757856
 20
11.0003782214
 30
0.0
 10
10.5533064442
 20
11.0008290054
 30
0.0
 10
10.5558791786
 20
11.0009879071
 30
0.0
 10
10.5584737366
 20
11.0008381456
 30
0.0
 10
10.5610867369
 20
11.0003645443
 30
0.0
 10
10.5637143379
 20
10.9995544749
 30
0.0
 10
10.5663526626
 20
10.9983976962
 30
0.0
 10
10.5689983221
 20
10.9968869853
 30
0.0
 10
10.5716483679
 20
10.9950177109
 30
0.0
 10
10.5742999017
 20
10.992787762
 30
0.0
 10
10.5769502874
 20
10.9901981675
 30
0.0
 10
10.5795967693
 20
10.9872527867
 30
0.0
 10
10.5822364393
 20
10.983958353
 30
0.0
 10
10.5848666657
 20
10.9803245651
 30
0.0
 10
10.5874848246
 20
10.9763634791
 30
0.0
 10
10.5900884786
 20
10.9720891573
 30
0.0
 10
10.5926756555
 20
10.9675172938
 30
0.0
 10
10.5952445711
 20
10.9626645458
 30
0.0
 10
10.5977938634
 20
10.9575481419
 30
0.0
 10
10.6003225438
 20
10.9521854667
 30
0.0
 10
10.6028298944
 20
10.9465936439
 30
0.0
 10
10.6053155706
 20
10.9407893248
 30
0.0
 10
10.6077793968
 20
10.9347884446
 30
0.0
 10
10.6102215605
 20
10.9286060682
 30
0.0
 10
10.613480712
 20
10.9200567553
 30
0.0
 10
10.6158448392
 20
10.9135393986
 30
0.0
 10
10.6173984267
 20
10.9091397195
 30
0.0
  0
SPLINE
  5
31A
100
AcDbEntity
  8
0
100
AcDbSpline
 62
7
  6
CONTINUOUS
 70
0
 71
3
 72
22
 73
18
 74
0
 42
0.0000001
 43
0.0000001
 44
0.0000000001
 40
0.0
 40
0.0
 40
0.0
 40
0.0
 40
0.0635932074
 40
0.1270873567
 40
0.1904679645
 40
0.2537196277
 40
0.3168270229
 40
0.379775884
 40
0.442554345
 40
0.5051542088
 40
0.5675719314
 40
0.6298090801
 40
0.6918720952
 40
0.7537714222
 40
0.8155202753
 40
0.8771333891
 40
1.0
 40
1.0
 40
1.0
 40
1.0
 10
10.6173984267
 20
10.8109458787
 30
0.0
 10
10.6237630916
 20
10.8086671672
 30
0.0
 10
10.6365363539
 20
10.8042616685
 30
0.0
 10
10.6558462104
 20
10.7981624402
 30
0.0
 10
10.6752913124
 20
10.7926380983
 30
0.0
 10
10.694864675
 20
10.7877515849
 30
0.0
 10
10.7145531835
 20
10.7835641877
 30
0.0
 10
10.7343367762
 20
10.7801315393
 30
0.0
 10
10.7541887047
 20
10.7774989552
 30
0.0
 10
10.7740767923
 20
10.7756969707
 30
0.0
 10
10.7939657514
 20
10.7747379717
 30
0.0
 10
10.8138201612
 20
10.7746147296
 30
0.0
 10
10.8336075357
 20
10.775301389
 30
0.0
 10
10.8533006003
 20
10.7767564552
 30
0.0
 10
10.8728791479
 20
10.7789271486
 30
0.0
 10
10.8987860214
 20
10.7826922691
 30
0.0
 10
10.9180551133
 20
10.7864123184
 30
0.0
 10
10.9308132204
 20
10.789210489
 30
0.0
  0
SPLINE
  5
31B
100
AcDbEntity
  8
0
100
AcDbSpline
 62
7
  6
CONTINUOUS
 70
0
 71
3
 72
29
 73
25
 74
0
 42
0.0000001
 43
0.0000001
 44
0.0000000001
 40
0.0
 40
0.0
 40
0.0
 40
0.0
 40
0.0607935697
 40
0.1217090786
 40
0.1827762932
 40
0.2440295857
 40
0.3055070053
 40
0.336346416
 40
0.3672562015
 40
0.3982403776
 40
0.4293021842
 40
0.4604438139
 40
0.4916666069
 40
0.5229706945
 40
0.554355025
 40
0.585817582
 40
0.6173552372
 40
0.6489641531
 40
0.6806399908
 40
0.7441654148
 40
0.8079003261
 40
0.8718062843
 40
0.9358489904
 40
1.0
 40
1.0
 40
1.0
 40
1.0
 10
10.6173984267
 20
10.9091397195
 30
0.0
 10
10.6235052878
 20
10.9117696378
 30
0.0
 10
10.6358301157
 20
10.9168096149
 30
0.0
 10
10.6546427689
 20
10.9235893675
 30
0.0
 10
10.6738109142
 20
10.9294693556
 30
0.0
 10
10.6933328865
 20
10.9343094338
 30
0.0
 10
10.7098643524
 20
10.937350972
 30
0.0
 10
10.723227255
 20
10.9391217146
 30
0.0
 10
10.733324139
 20
10.9401041029
 30
0.0
 10
10.7434740642
 20
10.9407253382
 30
0.0
 10
10.7536654277
 20
10.940974035
 30
0.0
 10
10.7638851251
 20
10.9408421818
 30
0.0
 10
10.7741191436
 20
10.940325107
 30
0.0
 10
10.7843529473
 20
10.9394217334
 30
0.0
 10
10.7945720409
 20
10.9381352033
 30
0.0
 10
10.8047624506
 20
10.9364721734
 30
0.0
 10
10.8149111148
 20
10.9344425023
 30
0.0
 10
10.8250065045
 20
10.9320592164
 30
0.0
 10
10.8383941055
 20
10.9284273036
 30
0.0
 10
10.8549470356
 20
10.9230817148
 30
0.0
 10
10.8744559616
 20
10.9155352244
 30
0.0
 10
10.8936126366
 20
10.90699896
 30
0.0
 10
10.9124158568
 20
10.8976126279
 30
0.0
 10
10.924715928
 20
10.8908758246
 30
0.0
 10
10.9308132204
 20
10.8874043297
 30
0.0
  0
SPLINE
  5
31C
100
AcDbEntity
  8
0
100
AcDbSpline
 62
7
  6
CONTINUOUS
 70
0
 71
3
 72
12
 73
8
 74
0
 42
0.0000001
 43
0.0000001
 44
0.0000000001
 40
0.0
 40
0.0
 40
0.0
 40
0.0
 40
0.2794888836
 40
0.5371450611
 40
0.7759349846
 40
0.8895394738
 40
1.0
 40
1.0
 40
1.0
 40
1.0
 10
11.1085998296
 20
11.0338928764
 30
0.0
 10
11.1096294999
 20
11.0348874615
 30
0.0
 10
11.1115266138
 20
11.0368874937
 30
0.0
 10
11.1139411529
 20
11.040054831
 30
0.0
 10
11.1155117655
 20
11.0427689328
 30
0.0
 10
11.1164641881
 20
11.0449421038
 30
0.0
 10
11.1168423265
 20
11.0460272834
 30
0.0
 10
11.1170062309
 20
11.0465688162
 30
0.0
  0
SPLINE
  5
31D
100
AcDbEntity
  8
0
100
AcDbSpline
 62
7
  6
CONTINUOUS
 70
0
 71
3
 72
11
 73
7
 74
0
 42
0.0000001
 43
0.0000001
 44
0.0000000001
 40
0.0
 40
0.0
 40
0.0
 40
0.0
 40
0.2544991222
 40
0.505163903
 40
0.7532356335
 40
1.0
 40
1.0
 40
1.0
 40
1.0
 10
11.1170062309
 20
11.0465688162
 30
0.0
 10
11.1171428362
 20
11.0470201538
 30
0.0
 10
11.117383169
 20
11.0479257365
 30
0.0
 10
11.1176431372
 20
11.049298202
 30
0.0
 10
11.11779918
 20
11.0506719336
 30
0.0
 10
11.1178338996
 20
11.0515891782
 30
0.0
 10
11.117833903
 20
11.0520464042
 30
0.0
  0
SPLINE
  5
31E
100
AcDbEntity
  8
0
100
AcDbSpline
 62
7
  6
CONTINUOUS
 70
0
 71
3
 72
16
 73
12
 74
0
 42
0.0000001
 43
0.0000001
 44
0.0000000001
 40
0.0
 40
0.0
 40
0.0
 40
0.0
 40
0.1480512553
 40
0.2876966954
 40
0.4196101155
 40
0.4829486424
 40
0.544695998
 40
0.6639365506
 40
0.7786068667
 40
0.8901134718
 40
1.0
 40
1.0
 40
1.0
 40
1.0
 10
11.1032872373
 20
11.0076983441
 30
0.0
 10
11.1040149475
 20
11.0084012583
 30
0.0
 10
11.1053863897
 20
11.0098125941
 30
0.0
 10
11.107230389
 20
11.012012089
 30
0.0
 10
11.1085530546
 20
11.0138837967
 30
0.0
 10
11.1094639371
 20
11.0153861408
 30
0.0
 10
11.1102594437
 20
11.0168547475
 30
0.0
 10
11.1110861206
 20
11.0187028645
 30
0.0
 10
11.1118050803
 20
11.0209567911
 30
0.0
 10
11.112237489
 20
11.0232179358
 30
0.0
 10
11.1123339016
 20
11.0247325934
 30
0.0
 10
11.1123339031
 20
11.0254835386
 30
0.0
  0
SPLINE
  5
31F
100
AcDbEntity
  8
0
100
AcDbSpline
 62
7
  6
CONTINUOUS
 70
0
 71
3
 72
56
 73
52
 74
0
 42
0.0000001
 43
0.0000001
 44
0.0000000001
 40
0.0
 40
0.0
 40
0.0
 40
0.0
 40
0.0077402969
 40
0.0160537108
 40
0.0249598387
 40
0.0344712038
 40
0.0445943797
 40
0.0553311397
 40
0.0666793101
 40
0.0786332104
 40
0.0911844312
 40
0.1043218721
 40
0.118032378
 40
0.1323007298
 40
0.1471099874
 40
0.1624416526
 40
0.1782756943
 40
0.1945908915
 40
0.228572513
 40
0.2641948617
 40
0.3012501755
 40
0.3395182057
 40
0.3787684754
 40
0.4187624278
 40
0.4592554934
 40
0.4999991129
 40
0.540742736
 40
0.5812358109
 40
0.6212297738
 40
0.6604800535
 40
0.6987480982
 40
0.7358034384
 40
0.7714258249
 40
0.7886346525
 40
0.8054084647
 40
0.8217236544
 40
0.8375577489
 40
0.8528894005
 40
0.8676987087
 40
0.8819670629
 40
0.8956775928
 40
0.9088150684
 40
0.9213662854
 40
0.9333202482
 40
0.9446683932
 40
0.9554052234
 40
0.965528428
 40
0.9750397554
 40
0.9839458376
 40
0.9922596419
 40
1.0
 40
1.0
 40
1.0
 40
1.0
 10
10.5857435599
 20
11.0274569363
 30
0.0
 10
10.5867628576
 20
11.0265083747
 30
0.0
 10
10.588957093
 20
11.0246261175
 30
0.0
 10
10.5925567475
 20
11.0219378704
 30
0.0
 10
10.5965736218
 20
11.0192900873
 30
0.0
 10
10.6010011953
 20
11.0166870501
 30
0.0
 10
10.605832566
 20
11.0141326742
 30
0.0
 10
10.611060024
 20
11.0116310291
 30
0.0
 10
10.6166752036
 20
11.0091861888
 30
0.0
 10
10.6226690175
 20
11.0068020717
 30
0.0
 10
10.6290317559
 20
11.0044826711
 30
0.0
 10
10.6357530369
 20
11.0022317337
 30
0.0
 10
10.642821888
 20
11.0000530363
 30
0.0
 10
10.6502267302
 20
10.9979501541
 30
0.0
 10
10.6579554213
 20
10.9959265689
 30
0.0
 10
10.6659952706
 20
10.9939856689
 30
0.0
 10
10.6743330757
 20
10.9921305929
 30
0.0
 10
10.6859877197
 20
10.9897434282
 30
0.0
 10
10.7012022799
 20
10.9870083905
 30
0.0
 10
10.7201780743
 20
10.9841558137
 30
0.0
 10
10.7399874831
 20
10.9817090206
 30
0.0
 10
10.76050014
 20
10.979684366
 30
0.0
 10
10.7815811728
 20
10.9780954198
 30
0.0
 10
10.8030918339
 20
10.9769528075
 30
0.0
 10
10.8248905207
 20
10.976264169
 30
0.0
 10
10.8468337027
 20
10.9760341062
 30
0.0
 10
10.8687768868
 20
10.976264157
 30
0.0
 10
10.8905755775
 20
10.9769527852
 30
0.0
 10
10.9120862469
 20
10.9780953899
 30
0.0
 10
10.9331672771
 20
10.9796843344
 30
0.0
 10
10.9536799768
 20
10.9817089742
 30
0.0
 10
10.9734892832
 20
10.9841557922
 30
0.0
 10
10.9894813851
 20
10.9865596755
 30
0.0
 10
11.001820288
 20
10.9886902355
 30
0.0
 10
11.0107123891
 20
10.9903644605
 30
0.0
 10
11.019334431
 20
10.9921305496
 30
0.0
 10
11.0276722413
 20
10.993985577
 30
0.0
 10
11.035712103
 20
10.9959265069
 30
0.0
 10
11.0434408082
 20
10.9979500628
 30
0.0
 10
11.0508456615
 20
11.0000529583
 30
0.0
 10
11.0579145255
 20
11.0022316498
 30
0.0
 10
11.064635822
 20
11.004482573
 30
0.0
 10
11.0709985695
 20
11.0068019967
 30
0.0
 10
11.0769924049
 20
11.0091860766
 30
0.0
 10
11.0826075908
 20
11.0116309503
 30
0.0
 10
11.0878350802
 20
11.0141325608
 30
0.0
 10
11.0926664484
 20
11.0166869657
 30
0.0
 10
11.0970940268
 20
11.0192899724
 30
0.0
 10
11.1011109712
 20
11.0219377528
 30
0.0
 10
11.1047106452
 20
11.0246260955
 30
0.0
 10
11.1069049658
 20
11.0265083759
 30
0.0
 10
11.1079242803
 20
11.0274569356
 30
0.0
  0
SPLINE
  5
320
100
AcDbEntity
  8
0
100
AcDbSpline
 62
7
  6
CONTINUOUS
 70
0
 71
3
 72
11
 73
7
 74
0
 42
0.0000001
 43
0.0000001
 44
0.0000000001
 40
0.0
 40
0.0
 40
0.0
 40
0.0
 40
0.2428236665
 40
0.4885858541
 40
0.7401064131
 40
1.0
 40
1.0
 40
1.0
 40
1.0
 10
11.0308339039
 20
11.0964789948
 30
0.0
 10
11.030833909
 20
11.0960082106
 30
0.0
 10
11.0307793691
 20
11.0950600727
 30
0.0
 10
11.0305345097
 20
11.0936432943
 30
0.0
 10
11.0301272592
 20
11.092230085
 30
0.0
 10
11.0297550956
 20
11.09130899
 30
0.0
 10
11.0295445906
 20
11.0908511888
 30
0.0
  0
SPLINE
  5
321
100
AcDbEntity
  8
0
100
AcDbSpline
 62
7
  6
CONTINUOUS
 70
0
 71
3
 72
62
 73
58
 74
0
 42
0.0000001
 43
0.0000001
 44
0.0000000001
 40
0.0
 40
0.0
 40
0.0
 40
0.0
 40
0.0081223579
 40
0.0169168099
 40
0.0264085661
 40
0.0366142007
 40
0.0475413512
 40
0.0591908961
 40
0.0715582806
 40
0.0846343354
 40
0.0984060926
 40
0.112857108
 40
0.127968089
 40
0.1437171933
 40
0.1600801517
 40
0.1770307303
 40
0.1945407808
 40
0.2125804017
 40
0.2311182285
 40
0.2501214152
 40
0.2893853343
 40
0.3300872433
 40
0.3719261992
 40
0.4145897924
 40
0.4577574111
 40
0.501103531
 40
0.5443008851
 40
0.5870236431
 40
0.6289506447
 40
0.6697685855
 40
0.7091753215
 40
0.7282595067
 40
0.7468844241
 40
0.7650170495
 40
0.7826256534
 40
0.7996801141
 40
0.8161519743
 40
0.832014537
 40
0.8472432748
 40
0.8618158396
 40
0.8757123934
 40
0.888916065
 40
0.9014131219
 40
0.9131936751
 40
0.9242523063
 40
0.9345888025
 40
0.9442095437
 40
0.9531288502
 40
0.9613710605
 40
0.9689733284
 40
0.9759887143
 40
0.9824900824
 40
0.9885734564
 40
0.9914974645
 40
0.9943641586
 40
0.9971919252
 40
1.0
 40
1.0
 40
1.0
 40
1.0
 10
11.1032872373
 20
11.0076983441
 30
0.0
 10
11.1022141897
 20
11.0066618597
 30
0.0
 10
11.0998780871
 20
11.0046065921
 30
0.0
 10
11.0960003515
 20
11.0016864684
 30
0.0
 10
11.0916211693
 20
10.9988151852
 30
0.0
 10
11.0867493963
 20
10.9959982823
 30
0.0
 10
11.0813941855
 20
10.9932408338
 30
0.0
 10
11.0755659422
 20
10.9905483167
 30
0.0
 10
11.0692761261
 20
10.9879260297
 30
0.0
 10
11.0625371888
 20
10.9853792047
 30
0.0
 10
11.0553625319
 20
10.9829130374
 30
0.0
 10
11.047766516
 20
10.9805324851
 30
0.0
 10
11.0397643748
 20
10.9782423943
 30
0.0
 10
11.0313721905
 20
10.9760474547
 30
0.0
 10
11.0226068698
 20
10.9739520922
 30
0.0
 10
11.013486081
 20
10.971960607
 30
0.0
 10
11.0040282277
 20
10.9700770534
 30
0.0
 10
10.9942524154
 20
10.9683052466
 30
0.0
 10
10.9841783738
 20
10.966648807
 30
0.0
 10
10.970223724
 20
10.9645760398
 30
0.0
 10
10.9521847482
 20
10.9623078841
 30
0.0
 10
10.9299166812
 20
10.9601210409
 30
0.0
 10
10.9069772881
 20
10.9584585748
 30
0.0
 10
10.8835519797
 20
10.9573341274
 30
0.0
 10
10.8598299551
 20
10.9567569603
 30
0.0
 10
10.8360029135
 20
10.9567318187
 30
0.0
 10
10.812263395
 20
10.9572589215
 30
0.0
 10
10.7888032398
 20
10.9583339314
 30
0.0
 10
10.7658119337
 20
10.9599479768
 30
0.0
 10
10.7434753112
 20
10.9620878128
 30
0.0
 10
10.7253686741
 20
10.9643174854
 30
0.0
 10
10.7113518943
 20
10.966360243
 30
0.0
 10
10.7012257935
 20
10.9679953503
 30
0.0
 10
10.691394261
 20
10.9697464159
 30
0.0
 10
10.681877147
 20
10.9716099386
 30
0.0
 10
10.6726936729
 20
10.9735820971
 30
0.0
 10
10.6638623706
 20
10.9756588616
 30
0.0
 10
10.6554010545
 20
10.9778360409
 30
0.0
 10
10.6473267609
 20
10.9801091607
 30
0.0
 10
10.6396557293
 20
10.9824736075
 30
0.0
 10
10.6324033601
 20
10.9849245967
 30
0.0
 10
10.6255841543
 20
10.9874571095
 30
0.0
 10
10.6192117113
 20
10.9900660695
 30
0.0
 10
10.613298658
 20
10.9927462273
 30
0.0
 10
10.6078566086
 20
10.9954922266
 30
0.0
 10
10.6028961783
 20
10.9982987677
 30
0.0
 10
10.5984268749
 20
11.0011604868
 30
0.0
 10
10.5944571617
 20
11.0040722131
 30
0.0
 10
10.5909945392
 20
11.0070291414
 30
0.0
 10
10.5880456166
 20
11.0100267336
 30
0.0
 10
10.5856166264
 20
11.0130614312
 30
0.0
 10
10.5837141759
 20
11.0161290871
 30
0.0
 10
10.5825585143
 20
11.0187454513
 30
0.0
 10
10.5819200897
 20
11.0208330838
 30
0.0
 10
10.5815820525
 20
11.0223815353
 30
0.0
 10
10.581379085
 20
11.023931834
 30
0.0
 10
10.5813339261
 20
11.0249675681
 30
0.0
 10
10.5813339272
 20
11.0254833462
 30
0.0
  0
SPLINE
  5
322
100
AcDbEntity
  8
0
100
AcDbSpline
 62
7
  6
CONTINUOUS
 70
0
 71
3
 72
71
 73
67
 74
0
 42
0.0000001
 43
0.0000001
 44
0.0000000001
 40
0.0
 40
0.0
 40
0.0
 40
0.0
 40
0.0074885549
 40
0.0110030462
 40
0.0143801565
 40
0.0176351669
 40
0.0207853695
 40
0.023850051
 40
0.0268503002
 40
0.0298087451
 40
0.0327491286
 40
0.0356956593
 40
0.0386723925
 40
0.0417025724
 40
0.044808124
 40
0.0513194889
 40
0.0583498677
 40
0.0660046437
 40
0.0700923415
 40
0.0743627428
 40
0.0834726881
 40
0.0933714289
 40
0.1040794158
 40
0.1156058248
 40
0.127951078
 40
0.1411085384
 40
0.1550655736
 40
0.1698046961
 40
0.1853042588
 40
0.2015388241
 40
0.2184798018
 40
0.2360957851
 40
0.2543526837
 40
0.273214165
 40
0.2926418557
 40
0.3125953995
 40
0.3330328086
 40
0.3539106113
 40
0.3751838967
 40
0.4187306751
 40
0.4632942084
 40
0.5084826074
 40
0.5538967515
 40
0.5991349676
 40
0.6437975895
 40
0.6874915591
 40
0.708855959
 40
0.7298362002
 40
0.7503870823
 40
0.7704647634
 40
0.7900268614
 40
0.8090326017
 40
0.8274431095
 40
0.8452215132
 40
0.8623331422
 40
0.8787459133
 40
0.8944304916
 40
0.9093606137
 40
0.9235136697
 40
0.9368710581
 40
0.9494188514
 40
0.9611488916
 40
0.9720596039
 40
0.9821577417
 40
0.9914613741
 40
1.0
 40
1.0
 40
1.0
 40
1.0
 10
10.6061230545
 20
11.1270050073
 30
0.0
 10
10.6052180037
 20
11.1260366776
 30
0.0
 10
10.6039578761
 20
11.1245440848
 30
0.0
 10
10.6025101229
 20
11.1224489272
 30
0.0
 10
10.6015919781
 20
11.1209036279
 30
0.0
 10
10.6008193641
 20
11.1193522676
 30
0.0
 10
10.6001929485
 20
11.11779557
 30
0.0
 10
10.5997132988
 20
11.1162345244
 30
0.0
 10
10.5993809646
 20
11.1146701601
 30
0.0
 10
10.5991964738
 20
11.1131036142
 30
0.0
 10
10.5991599954
 20
11.1115361343
 30
0.0
 10
10.5992715818
 20
11.1099689695
 30
0.0
 10
10.5995311443
 20
11.1084034013
 30
0.0
 10
10.5999382937
 20
11.1068405428
 30
0.0
 10
10.6006887935
 20
11.1047290815
 30
0.0
 10
10.6020202014
 20
11.1020859889
 30
0.0
 10
10.6041729973
 20
11.0990011142
 30
0.0
 10
10.6063928124
 20
11.0965190214
 30
0.0
 10
10.6084342349
 20
11.0945519203
 30
0.0
 10
10.6107587834
 20
11.0925118578
 30
0.0
 10
10.6140294699
 20
11.0899983023
 30
0.0
 10
10.6184211076
 20
11.0870973381
 30
0.0
 10
10.6233511552
 20
11.0842555289
 30
0.0
 10
10.6288083093
 20
11.081479168
 30
0.0
 10
10.6347803276
 20
11.078774508
 30
0.0
 10
10.641253507
 20
11.0761478708
 30
0.0
 10
10.6482128564
 20
11.0736053897
 30
0.0
 10
10.6556421569
 20
11.0711530948
 30
0.0
 10
10.6635240201
 20
11.0687968516
 30
0.0
 10
10.6718399145
 20
11.0665422466
 30
0.0
 10
10.6805702541
 20
11.0643946673
 30
0.0
 10
10.6896944462
 20
11.0623592718
 30
0.0
 10
10.6991909295
 20
11.0604408935
 30
0.0
 10
10.7090372501
 20
11.058644118
 30
0.0
 10
10.7192101152
 20
11.0569732624
 30
0.0
 10
10.7296854404
 20
11.0554322879
 30
0.0
 10
10.7404384135
 20
11.0540248807
 30
0.0
 10
10.7514435872
 20
11.0527544009
 30
0.0
 10
10.7665358549
 20
11.0512353128
 30
0.0
 10
10.7858384339
 20
11.0497067831
 30
0.0
 10
10.809401801
 20
11.0484706434
 30
0.0
 10
10.8333195361
 20
11.0478307802
 30
0.0
 10
10.8573651373
 20
11.0477933109
 30
0.0
 10
10.8813111052
 20
11.0483585978
 30
0.0
 10
10.9049306684
 20
11.0495212432
 30
0.0
 10
10.9242978127
 20
11.0509891414
 30
0.0
 10
10.9394553961
 20
11.0524605015
 30
0.0
 10
10.950519172
 20
11.0536964966
 30
0.0
 10
10.961337168
 20
11.055070203
 30
0.0
 10
10.9718837817
 20
11.0565783404
 30
0.0
 10
10.9821340296
 20
11.0582173021
 30
0.0
 10
10.992063642
 20
11.0599832029
 30
0.0
 10
11.0016491261
 20
11.0618717995
 30
0.0
 10
11.0108678127
 20
11.0638785783
 30
0.0
 10
11.0196979124
 20
11.0659987738
 30
0.0
 10
11.02811859
 20
11.068227293
 30
0.0
 10
11.0361100023
 20
11.0705588105
 30
0.0
 10
11.0436533494
 20
11.0729877958
 30
0.0
 10
11.0507309567
 20
11.0755084353
 30
0.0
 10
11.0573263095
 20
11.0781147442
 30
0.0
 10
11.0634241007
 20
11.0808006119
 30
0.0
 10
11.0690103273
 20
11.083559774
 30
0.0
 10
11.0740722592
 20
11.0863858595
 30
0.0
 10
11.0785988159
 20
11.0892728529
 30
0.0
 10
11.0825793986
 20
11.0922142797
 30
0.0
 10
11.0849624037
 20
11.0942941927
 30
0.0
 10
11.0860494079
 20
11.0953441582
 30
0.0
  0
SPLINE
  5
323
100
AcDbEntity
  8
0
100
AcDbSpline
 62
7
  6
CONTINUOUS
 70
0
 71
3
 72
17
 73
13
 74
0
 42
0.0000001
 43
0.0000001
 44
0.0000000001
 40
0.0
 40
0.0
 40
0.0
 40
0.0
 40
0.1287374904
 40
0.2566350148
 40
0.3833967131
 40
0.5088571848
 40
0.6330045819
 40
0.7559866856
 40
0.8171916256
 40
0.878225658
 40
0.9391426739
 40
1.0
 40
1.0
 40
1.0
 40
1.0
 10
10.676406372
 20
11.354858033
 30
0.0
 10
10.6757789076
 20
11.3540661305
 30
0.0
 10
10.6746553913
 20
11.3523814771
 30
0.0
 10
10.6734169225
 20
11.3496245042
 30
0.0
 10
10.6726643804
 20
11.3467226715
 30
0.0
 10
10.6724219249
 20
11.3437638065
 30
0.0
 10
10.6726973722
 20
11.3408375468
 30
0.0
 10
10.6733546866
 20
11.3384936141
 30
0.0
 10
10.6741236137
 20
11.336726926
 30
0.0
 10
10.6748165176
 20
11.3354650646
 30
0.0
 10
10.6756210699
 20
11.3342748462
 30
0.0
 10
10.6762281698
 20
11.3335346392
 30
0.0
 10
10.6765478198
 20
11.3331797521
 30
0.0
  0
SPLINE
  5
324
100
AcDbEntity
  8
0
100
AcDbSpline
 62
7
  6
CONTINUOUS
 70
0
 71
3
 72
11
 73
7
 74
0
 42
0.0000001
 43
0.0000001
 44
0.0000000001
 40
0.0
 40
0.0
 40
0.0
 40
0.0
 40
0.259809977
 40
0.5113166432
 40
0.7571130479
 40
1.0
 40
1.0
 40
1.0
 40
1.0
 10
10.6641109469
 20
11.0908780054
 30
0.0
 10
10.6639024183
 20
11.0913337277
 30
0.0
 10
10.6635337674
 20
11.0922505932
 30
0.0
 10
10.6631303834
 20
11.0936570147
 30
0.0
 10
10.6628879549
 20
11.095066961
 30
0.0
 10
10.6628339316
 20
11.0960104731
 30
0.0
 10
10.6628339265
 20
11.0964789948
 30
0.0
  0
SPLINE
  5
325
100
AcDbEntity
  8
0
100
AcDbSpline
 62
7
  6
CONTINUOUS
 70
0
 71
3
 72
63
 73
59
 74
0
 42
0.0000001
 43
0.0000001
 44
0.0000000001
 40
0.0
 40
0.0
 40
0.0
 40
0.0
 40
0.0028080624
 40
0.0056358196
 40
0.0085025067
 40
0.0114265098
 40
0.0144250775
 40
0.0175140353
 40
0.0240154024
 40
0.0310307909
 40
0.0386330598
 40
0.0468752703
 40
0.0557945774
 40
0.0654153137
 40
0.0757518004
 40
0.0868104217
 40
0.0985909587
 40
0.111087992
 40
0.1242916394
 40
0.1381881636
 40
0.1527606899
 40
0.1679893876
 40
0.1838519068
 40
0.2003237139
 40
0.2173781188
 40
0.2349866651
 40
0.2531192245
 40
0.2717440715
 40
0.2908281854
 40
0.3302347615
 40
0.3710525308
 40
0.4129793457
 40
0.4557019093
 40
0.4988990572
 40
0.5422449681
 40
0.5854123731
 40
0.6280757476
 40
0.6699144928
 40
0.7106161871
 40
0.7498798997
 40
0.7688829853
 40
0.7874207173
 40
0.8054602401
 40
0.8229701954
 40
0.8399206867
 40
0.856283557
 40
0.8720325749
 40
0.8871434775
 40
0.9015944165
 40
0.9153660985
 40
0.9284420852
 40
0.9408094058
 40
0.9524588886
 40
0.9633859827
 40
0.9735915659
 40
0.9830832737
 40
0.9918776816
 40
1.0
 40
1.0
 40
1.0
 40
1.0
 10
10.5758339274
 20
10.810564618
 30
0.0
 10
10.5758339326
 20
10.8100381556
 30
0.0
 10
10.5758800379
 20
10.8089809686
 30
0.0
 10
10.5760872367
 20
10.8073985458
 30
0.0
 10
10.5764322644
 20
10.8058180584
 30
0.0
 10
10.576914755
 20
10.8042406179
 30
0.0
 10
10.5775343729
 20
10.8026670401
 30
0.0
 10
10.5785599088
 20
10.8005392576
 30
0.0
 10
10.5802056219
 20
10.7978850053
 30
0.0
 10
10.5826847878
 20
10.7947879505
 30
0.0
 10
10.5856948812
 20
10.7917281151
 30
0.0
 10
10.5892292469
 20
10.7887099842
 30
0.0
 10
10.5932812269
 20
10.785737932
 30
0.0
 10
10.5978431383
 20
10.7828169408
 30
0.0
 10
10.6029063512
 20
10.7799522658
 30
0.0
 10
10.6084611583
 20
10.7771493887
 30
0.0
 10
10.6144967243
 20
10.7744137162
 30
0.0
 10
10.6210011951
 20
10.7717507171
 30
0.0
 10
10.6279616822
 20
10.769165749
 30
0.0
 10
10.6353643039
 20
10.766663993
 30
0.0
 10
10.6431942592
 20
10.7642505726
 30
0.0
 10
10.6514358287
 20
10.7619303712
 30
0.0
 10
10.6600724364
 20
10.7597080974
 30
0.0
 10
10.6690866931
 20
10.7575883188
 30
0.0
 10
10.6784604153
 20
10.7555753133
 30
0.0
 10
10.6881746875
 20
10.7536731938
 30
0.0
 10
10.6982098898
 20
10.751885861
 30
0.0
 10
10.7085457609
 20
10.7502168887
 30
0.0
 10
10.7228529065
 20
10.7481318237
 30
0.0
 10
10.7413346301
 20
10.7458559735
 30
0.0
 10
10.7641339602
 20
10.7436718224
 30
0.0
 10
10.7876015317
 20
10.7420243529
 30
0.0
 10
10.8115476596
 20
10.7409270845
 30
0.0
 10
10.8357789345
 20
10.7403890724
 30
0.0
 10
10.8600995421
 20
10.7404147435
 30
0.0
 10
10.8843129544
 20
10.7410038747
 30
0.0
 10
10.9082235022
 20
10.7421516219
 30
0.0
 10
10.9316380667
 20
10.7438485319
 30
0.0
 10
10.9543673979
 20
10.7460806807
 30
0.0
 10
10.9727800341
 20
10.7483958243
 30
0.0
 10
10.9870237417
 20
10.7505115313
 30
0.0
 10
10.9973064574
 20
10.7522022854
 30
0.0
 10
11.0072847658
 20
10.7540107961
 30
0.0
 10
11.0169385288
 20
10.7559333685
 30
0.0
 10
11.0262482455
 20
10.7579661081
 30
0.0
 10
11.0351951308
 20
10.7601048763
 30
0.0
 10
11.0437611503
 20
10.7623452843
 30
0.0
 10
11.0519290476
 20
10.7646828145
 30
0.0
 10
11.0596824072
 20
10.7671126796
 30
0.0
 10
11.0670056797
 20
10.7696299333
 30
0.0
 10
11.0738842071
 20
10.7722295152
 30
0.0
 10
11.0803043107
 20
10.7749061222
 30
0.0
 10
11.0862532805
 20
10.777654414
 30
0.0
 10
11.0917194195
 20
10.7804689821
 30
0.0
 10
11.0966921073
 20
10.783344236
 30
0.0
 10
11.1011620008
 20
10.7862749966
 30
0.0
 10
11.1051200609
 20
10.7892556095
 30
0.0
 10
11.1075045544
 20
10.7913534508
 30
0.0
 10
11.1085998296
 20
10.7924114055
 30
0.0
  0
SPLINE
  5
326
100
AcDbEntity
  8
0
100
AcDbSpline
 62
7
  6
CONTINUOUS
 70
0
 71
3
 72
11
 73
7
 74
0
 42
0.0000001
 43
0.0000001
 44
0.0000000001
 40
0.0
 40
0.0
 40
0.0
 40
0.0
 40
0.2353556543
 40
0.4802220487
 40
0.7349933067
 40
1.0
 40
1.0
 40
1.0
 40
1.0
 10
10.2278066989
 20
10.2480945526
 30
0.0
 10
10.2288319911
 20
10.2468952694
 30
0.0
 10
10.2309885811
 20
10.2445028379
 30
0.0
 10
10.2344592081
 20
10.2410028806
 30
0.0
 10
10.2382262018
 20
10.2375240164
 30
0.0
 10
10.2408807667
 20
10.2352650976
 30
0.0
 10
10.2422547471
 20
10.2341388335
 30
0.0
  0
SPLINE
  5
327
100
AcDbEntity
  8
0
100
AcDbSpline
 62
7
  6
CONTINUOUS
 70
0
 71
3
 72
56
 73
52
 74
0
 42
0.0000001
 43
0.0000001
 44
0.0000000001
 40
0.0
 40
0.0
 40
0.0
 40
0.0
 40
0.0452926219
 40
0.0911392095
 40
0.1373554063
 40
0.1837553099
 40
0.2301518383
 40
0.2763579802
 40
0.3221877546
 40
0.3674571003
 40
0.4119849
 40
0.4555940347
 40
0.4981122804
 40
0.5393734359
 40
0.5792184125
 40
0.6174963144
 40
0.6540657931
 40
0.671669127
 40
0.6887974223
 40
0.7054363541
 40
0.7215725065
 40
0.7371934705
 40
0.7522878757
 40
0.7668455503
 40
0.780857558
 40
0.7943164428
 40
0.807216262
 40
0.8195529369
 40
0.8313243101
 40
0.8425306281
 40
0.8531746939
 40
0.8632625457
 40
0.8728037504
 40
0.8818123378
 40
0.8903073375
 40
0.8983140194
 40
0.9058647129
 40
0.9130002519
 40
0.9197707934
 40
0.9262368162
 40
0.9324689627
 40
0.9385471742
 40
0.9445581646
 40
0.9505918644
 40
0.9567371202
 40
0.9630775847
 40
0.9696887794
 40
0.9766362161
 40
0.9839751867
 40
0.991750949
 40
1.0
 40
1.0
 40
1.0
 40
1.0
 10
10.7342477235
 20
10.7018150166
 30
0.0
 10
10.7435250046
 20
10.701171635
 30
0.0
 10
10.762205259
 20
10.7000474543
 30
0.0
 10
10.7903832031
 20
10.6988491756
 30
0.0
 10
10.8188049709
 20
10.6981316152
 30
0.0
 10
10.8473477106
 20
10.6978979002
 30
0.0
 10
10.875888245
 20
10.6981490531
 30
0.0
 10
10.9043033371
 20
10.6988839762
 30
0.0
 10
10.9324703173
 20
10.7000994672
 30
0.0
 10
10.9602675916
 20
10.7017902256
 30
0.0
 10
10.9875751801
 20
10.7039488771
 30
0.0
 10
11.0142752353
 20
10.7065660037
 30
0.0
 10
11.0402525733
 20
10.70963018
 30
0.0
 10
11.0653951526
 20
10.7131280256
 30
0.0
 10
11.0895946578
 20
10.7170442425
 30
0.0
 10
11.1127467049
 20
10.7213617404
 30
0.0
 10
11.1313127969
 20
10.7253269102
 30
0.0
 10
11.1455599207
 20
10.7286963638
 30
0.0
 10
11.1557866435
 20
10.7312796032
 30
0.0
 10
11.1656797465
 20
10.7339482556
 30
0.0
 10
11.1752285846
 20
10.7366994676
 30
0.0
 10
11.1844228796
 20
10.7395302357
 30
0.0
 10
11.1932527414
 20
10.742437517
 30
0.0
 10
11.2017086866
 20
10.7454181374
 30
0.0
 10
11.2097816346
 20
10.7484689081
 30
0.0
 10
11.2174629466
 20
10.7515864957
 30
0.0
 10
11.2247444029
 20
10.7547675921
 30
0.0
 10
11.2316182592
 20
10.7580087322
 30
0.0
 10
11.2380771966
 20
10.7613065202
 30
0.0
 10
11.2441144079
 20
10.7646573947
 30
0.0
 10
11.2497235071
 20
10.7680579247
 30
0.0
 10
11.2548986626
 20
10.7715045168
 30
0.0
 10
11.2596344355
 20
10.7749937881
 30
0.0
 10
11.2639259641
 20
10.7785222181
 30
0.0
 10
11.2677686873
 20
10.7820865897
 30
0.0
 10
11.2711585898
 20
10.7856835834
 30
0.0
 10
11.274091739
 20
10.7893102433
 30
0.0
 10
11.2765646042
 20
10.7929634633
 30
0.0
 10
11.2785733848
 20
10.7966403155
 30
0.0
 10
11.2801145553
 20
10.800337332
 30
0.0
 10
11.2811842517
 20
10.804050544
 30
0.0
 10
11.2817794848
 20
10.8077748118
 30
0.0
 10
11.2818978841
 20
10.8115040719
 30
0.0
 10
11.2815392403
 20
10.8152316426
 30
0.0
 10
11.2807046551
 20
10.8189510271
 30
0.0
 10
11.2793971369
 20
10.8226566729
 30
0.0
 10
11.2776199569
 20
10.826343961
 30
0.0
 10
11.2753770553
 20
10.8300093321
 30
0.0
 10
11.2726718673
 20
10.8336495387
 30
0.0
 10
11.2695083833
 20
10.8372615644
 30
0.0
 10
11.2671676655
 20
10.8395779726
 30
0.0
 10
11.2659277924
 20
10.8407318223
 30
0.0
  0
SPLINE
  5
328
100
AcDbEntity
  8
0
100
AcDbSpline
 62
7
  6
CONTINUOUS
 70
0
 71
3
 72
47
 73
43
 74
0
 42
0.0000001
 43
0.0000001
 44
0.0000000001
 40
0.0
 40
0.0
 40
0.0
 40
0.0
 40
0.0099875862
 40
0.0204479052
 40
0.0313775199
 40
0.0427711688
 40
0.0546223854
 40
0.0669232272
 40
0.0796648155
 40
0.0928370497
 40
0.1204280031
 40
0.1495994345
 40
0.1802416891
 40
0.2122348079
 40
0.2454499684
 40
0.2797506337
 40
0.3149936966
 40
0.3510304642
 40
0.387707658
 40
0.424868348
 40
0.4623528741
 40
0.4999997774
 40
0.5376466786
 40
0.5751312169
 40
0.6122919171
 40
0.6489691299
 40
0.6850059201
 40
0.7202490052
 40
0.7545497025
 40
0.7877648859
 40
0.8197580418
 40
0.8504003201
 40
0.8795717917
 40
0.9071627728
 40
0.920335049
 40
0.9330766387
 40
0.9453775339
 40
0.9572287329
 40
0.9686224436
 40
0.9795520438
 40
0.9900124428
 40
1.0
 40
1.0
 40
1.0
 40
1.0
 10
11.0868809868
 20
10.8079566722
 30
0.0
 10
11.0854207353
 20
10.807235337
 30
0.0
 10
11.0824061735
 20
10.8058086063
 30
0.0
 10
11.0777174809
 20
10.8037581371
 30
0.0
 10
11.0727622078
 20
10.8017500045
 30
0.0
 10
11.0675461028
 20
10.7997864644
 30
0.0
 10
11.0620751047
 20
10.7978698664
 30
0.0
 10
11.0563555158
 20
10.7960023488
 30
0.0
 10
11.0503938902
 20
10.7941861295
 30
0.0
 10
11.0420012941
 20
10.7917987049
 30
0.0
 10
11.0309512065
 20
10.7889688798
 30
0.0
 10
11.0170393036
 20
10.7858592582
 30
0.0
 10
11.0023419056
 20
10.7830000939
 30
0.0
 10
10.9869267642
 20
10.7804047485
 30
0.0
 10
10.9708648293
 20
10.7780853941
 30
0.0
 10
10.9542301639
 20
10.7760528834
 30
0.0
 10
10.9370995102
 20
10.7743167268
 30
0.0
 10
10.9195519395
 20
10.7728850389
 30
0.0
 10
10.9016684742
 20
10.7717645104
 30
0.0
 10
10.8835317063
 20
10.7709603734
 30
0.0
 10
10.8652254098
 20
10.7704763833
 30
0.0
 10
10.8468341509
 20
10.7703147985
 30
0.0
 10
10.8284428899
 20
10.7704763739
 30
0.0
 10
10.8101365898
 20
10.7709603549
 30
0.0
 10
10.7919998148
 20
10.7717644828
 30
0.0
 10
10.7741163404
 20
10.7728850029
 30
0.0
 10
10.7565687586
 20
10.7743166823
 30
0.0
 10
10.7394380916
 20
10.7760528316
 30
0.0
 10
10.7228034126
 20
10.7780853348
 30
0.0
 10
10.7067414618
 20
10.7804046833
 30
0.0
 10
10.6913263054
 20
10.7830000222
 30
0.0
 10
10.6766288899
 20
10.7858591823
 30
0.0
 10
10.6627169695
 20
10.788968795
 30
0.0
 10
10.6516668655
 20
10.7917986268
 30
0.0
 10
10.6432742507
 20
10.7941860289
 30
0.0
 10
10.6373126146
 20
10.7960022675
 30
0.0
 10
10.6315930095
 20
10.7978697554
 30
0.0
 10
10.6261220048
 20
10.7997863822
 30
0.0
 10
10.6209058799
 20
10.8017498835
 30
0.0
 10
10.6159505997
 20
10.8037580538
 30
0.0
 10
10.6112618829
 20
10.8058084824
 30
0.0
 10
10.6082473226
 20
10.8072352363
 30
0.0
 10
10.6067870744
 20
10.8079565674
 30
0.0
  0
SPLINE
  5
329
100
AcDbEntity
  8
0
100
AcDbSpline
 62
7
  6
CONTINUOUS
 70
0
 71
3
 72
52
 73
48
 74
0
 42
0.0000001
 43
0.0000001
 44
0.0000000001
 40
0.0
 40
0.0
 40
0.0
 40
0.0
 40
0.0417979847
 40
0.0840612649
 40
0.1266597831
 40
0.1694644218
 40
0.2123439084
 40
0.2551672037
 40
0.2978033202
 40
0.3401220844
 40
0.3819945192
 40
0.4232934576
 40
0.4638940605
 40
0.5036742901
 40
0.5425155349
 40
0.580303146
 40
0.6169269932
 40
0.6522821388
 40
0.6862695151
 40
0.7187966242
 40
0.7497784458
 40
0.7646660204
 40
0.7791393811
 40
0.7931904234
 40
0.8068118629
 40
0.819997111
 40
0.832740422
 40
0.8450370034
 40
0.8568829642
 40
0.8682756655
 40
0.8792135358
 40
0.8896965874
 40
0.8997262457
 40
0.9093058756
 40
0.918440823
 40
0.9271388621
 40
0.9354105659
 40
0.9432696591
 40
0.9507337335
 40
0.9578245673
 40
0.9645690349
 40
0.9709994301
 40
0.9771542126
 40
0.9830780982
 40
0.9888220315
 40
0.9944424602
 40
1.0
 40
1.0
 40
1.0
 40
1.0
 10
10.7182009559
 20
10.6264276237
 30
0.0
 10
10.7274256678
 20
10.6257878878
 30
0.0
 10
10.7459883158
 20
10.6246487682
 30
0.0
 10
10.7739804746
 20
10.623363122
 30
0.0
 10
10.8022115029
 20
10.6224936166
 30
0.0
 10
10.8305886286
 20
10.622043081
 30
0.0
 10
10.8590190418
 20
10.6220130333
 30
0.0
 10
10.8874095058
 20
10.6224035533
 30
0.0
 10
10.915667021
 20
10.6232133623
 30
0.0
 10
10.9436989891
 20
10.6244397828
 30
0.0
 10
10.9714135659
 20
10.6260787686
 30
0.0
 10
10.9987199516
 20
10.628124908
 30
0.0
 10
11.0255286958
 20
10.6305714427
 30
0.0
 10
11.0517519951
 20
10.6334102883
 30
0.0
 10
11.0773039822
 20
10.6366320615
 30
0.0
 10
11.1021010147
 20
10.6402261101
 30
0.0
 10
11.1260619601
 20
10.6441805437
 30
0.0
 10
11.1491084502
 20
10.6484822792
 30
0.0
 10
11.1711652344
 20
10.6531170648
 30
0.0
 10
11.1921601521
 20
10.6580695827
 30
0.0
 10
11.2089296666
 20
10.6625045932
 30
0.0
 10
11.2217551989
 20
10.6662095612
 30
0.0
 10
11.2309390375
 20
10.669020411
 30
0.0
 10
11.239808166
 20
10.6718980483
 30
0.0
 10
11.2483553574
 20
10.6748400936
 30
0.0
 10
11.2565736357
 20
10.6778441434
 30
0.0
 10
11.2644563004
 20
10.6809077519
 30
0.0
 10
11.2719969473
 20
10.6840283646
 30
0.0
 10
11.2791894287
 20
10.6872035083
 30
0.0
 10
11.2860279371
 20
10.6904304958
 30
0.0
 10
11.2925069037
 20
10.6937068187
 30
0.0
 10
11.2986211372
 20
10.6970297183
 30
0.0
 10
11.3043656853
 20
10.7003966262
 30
0.0
 10
11.309735971
 20
10.7038047922
 30
0.0
 10
11.3147276903
 20
10.7072515759
 30
0.0
 10
11.3193368586
 20
10.710734315
 30
0.0
 10
11.3235598374
 20
10.7142503258
 30
0.0
 10
11.3273931843
 20
10.7177970968
 30
0.0
 10
11.3308338771
 20
10.7213719774
 30
0.0
 10
11.3338789105
 20
10.7249726171
 30
0.0
 10
11.3365257006
 20
10.728596457
 30
0.0
 10
11.3387715108
 20
10.732241174
 30
0.0
 10
11.3406139064
 20
10.7359041755
 30
0.0
 10
11.3420503272
 20
10.7395827098
 30
0.0
 10
11.3430784348
 20
10.7432737721
 30
0.0
 10
11.3436962698
 20
10.7469730824
 30
0.0
 10
11.343833892
 20
10.7494480999
 30
0.0
 10
11.3438338943
 20
10.7506775811
 30
0.0
  0
SPLINE
  5
32A
100
AcDbEntity
  8
0
100
AcDbSpline
 62
7
  6
CONTINUOUS
 70
0
 71
3
 72
15
 73
11
 74
0
 42
0.0000001
 43
0.0000001
 44
0.0000000001
 40
0.0
 40
0.0
 40
0.0
 40
0.0
 40
0.1098906142
 40
0.2214018168
 40
0.3360754298
 40
0.4553198489
 40
0.5803745049
 40
0.7122969731
 40
0.8519482966
 40
1.0
 40
1.0
 40
1.0
 40
1.0
 10
11.0308339036
 20
11.3360281591
 30
0.0
 10
11.0308338901
 20
11.3355077491
 30
0.0
 10
11.0307670322
 20
11.334458077
 30
0.0
 10
11.0304672877
 20
11.3328911239
 30
0.0
 10
11.0299690306
 20
11.3313290905
 30
0.0
 10
11.0292735161
 20
11.3297743428
 30
0.0
 10
11.0283823307
 20
11.3282283307
 30
0.0
 10
11.0272969095
 20
11.3266924444
 30
0.0
 10
11.0260189584
 20
11.325168117
 30
0.0
 10
11.0250685686
 20
11.324190079
 30
0.0
 10
11.0245642778
 20
11.3237029714
 30
0.0
  0
SPLINE
  5
32B
100
AcDbEntity
  8
0
100
AcDbSpline
 62
7
  6
CONTINUOUS
 70
0
 71
3
 72
15
 73
11
 74
0
 42
0.0000001
 43
0.0000001
 44
0.0000000001
 40
0.0
 40
0.0
 40
0.0
 40
0.0
 40
0.134983681
 40
0.2655173795
 40
0.3924559875
 40
0.5166294064
 40
0.6388132256
 40
0.7597087297
 40
0.8799312555
 40
1.0
 40
1.0
 40
1.0
 40
1.0
 10
10.591748153
 20
10.8153855163
 30
0.0
 10
10.5928131864
 20
10.8148597971
 30
0.0
 10
10.5949456711
 20
10.8138994408
 30
0.0
 10
10.5981940775
 20
10.8127187312
 30
0.0
 10
10.6014309613
 20
10.8118125261
 30
0.0
 10
10.6046547713
 20
10.8111675563
 30
0.0
 10
10.6078645327
 20
10.8107697423
 30
0.0
 10
10.6110595959
 20
10.8106046161
 30
0.0
 10
10.614239471
 20
10.8106576395
 30
0.0
 10
10.6163484417
 20
10.8108288839
 30
0.0
 10
10.6173984267
 20
10.8109458787
 30
0.0
  0
SPLINE
  5
32C
100
AcDbEntity
  8
0
100
AcDbSpline
 62
7
  6
CONTINUOUS
 70
0
 71
3
 72
11
 73
7
 74
0
 42
0.0000001
 43
0.0000001
 44
0.0000000001
 40
0.0
 40
0.0
 40
0.0
 40
0.0
 40
0.2466535509
 40
0.4946601618
 40
0.7453484563
 40
1.0
 40
1.0
 40
1.0
 40
1.0
 10
10.5758339274
 20
11.0520464042
 30
0.0
 10
10.5758339239
 20
11.0515811343
 30
0.0
 10
10.5758698658
 20
11.0506476509
 30
0.0
 10
10.5760315056
 20
11.0492496874
 30
0.0
 10
10.5763007327
 20
11.0478530684
 30
0.0
 10
10.5765495126
 20
11.0469318665
 30
0.0
 10
10.576690903
 20
11.0464727899
 30
0.0
  0
SPLINE
  5
32D
100
AcDbEntity
  8
0
100
AcDbSpline
 62
7
  6
CONTINUOUS
 70
0
 71
3
 72
60
 73
56
 74
0
 42
0.0000001
 43
0.0000001
 44
0.0000000001
 40
0.0
 40
0.0
 40
0.0
 40
0.0
 40
0.0029083125
 40
0.0058957076
 40
0.0121590036
 40
0.0188893484
 40
0.0261605298
 40
0.034027527
 40
0.0425297104
 40
0.0516938601
 40
0.0615369347
 40
0.0720678076
 40
0.0832889989
 40
0.0951978067
 40
0.107787025
 40
0.1210458794
 40
0.1349603007
 40
0.1495134458
 40
0.1646860925
 40
0.1804566906
 40
0.1968018321
 40
0.2136962738
 40
0.2311131172
 40
0.2490240787
 40
0.2673994177
 40
0.3054175507
 40
0.3449084405
 40
0.3855973185
 40
0.4271978853
 40
0.4694152289
 40
0.5119487028
 40
0.5544947496
 40
0.5967496918
 40
0.6384125333
 40
0.6791877927
 40
0.7187883473
 40
0.7569383487
 40
0.775387529
 40
0.7933773664
 40
0.8108779303
 40
0.8278606412
 40
0.8442984259
 40
0.8601657005
 40
0.8754387595
 40
0.8900957677
 40
0.9041170266
 40
0.9174853546
 40
0.9301861561
 40
0.9422080596
 40
0.9535433092
 40
0.964188337
 40
0.9741446628
 40
0.9834201045
 40
0.9920306307
 40
1.0
 40
1.0
 40
1.0
 40
1.0
 10
10.576690903
 20
11.0464727899
 30
0.0
 10
10.5768497822
 20
11.0459569294
 30
0.0
 10
10.5772131697
 20
11.0449234498
 30
0.0
 10
10.5781178732
 20
11.0428542649
 30
0.0
 10
10.5795927622
 20
11.0402699375
 30
0.0
 10
10.5818453
 20
11.0372485177
 30
0.0
 10
10.584601872
 20
11.0342608005
 30
0.0
 10
10.5878565103
 20
11.031311009
 30
0.0
 10
10.5916032226
 20
11.0284030023
 30
0.0
 10
10.5958352478
 20
11.0255412633
 30
0.0
 10
10.6005450583
 20
11.0227306451
 30
0.0
 10
10.605724092
 20
11.0199760642
 30
0.0
 10
10.61136286
 20
11.0172825657
 30
0.0
 10
10.6174509188
 20
11.0146552133
 30
0.0
 10
10.6239768704
 20
11.0120989134
 30
0.0
 10
10.6309284557
 20
11.0096185933
 30
0.0
 10
10.6382925338
 20
11.0072189755
 30
0.0
 10
10.6460551452
 20
11.0049046527
 30
0.0
 10
10.6542015486
 20
11.002680121
 30
0.0
 10
10.6627162318
 20
11.0005496088
 30
0.0
 10
10.6715829715
 20
10.9985172525
 30
0.0
 10
10.6807848551
 20
10.996586962
 30
0.0
 10
10.6903043108
 20
10.9947624317
 30
0.0
 10
10.7001231762
 20
10.9930471923
 30
0.0
 10
10.7137438713
 20
10.9908858605
 30
0.0
 10
10.7313805718
 20
10.9884917123
 30
0.0
 10
10.7531928256
 20
10.9861318692
 30
0.0
 10
10.7757205286
 20
10.9842721188
 30
0.0
 10
10.7987915202
 20
10.9829268938
 30
0.0
 10
10.8222296185
 20
10.9821066695
 30
0.0
 10
10.8458557291
 20
10.981817813
 30
0.0
 10
10.8694893144
 20
10.9820625709
 30
0.0
 10
10.8929497786
 20
10.9828390453
 30
0.0
 10
10.9160578545
 20
10.9841412079
 30
0.0
 10
10.9386370736
 20
10.9859589058
 30
0.0
 10
10.9605148757
 20
10.9882780416
 30
0.0
 10
10.9782150893
 20
10.990638883
 30
0.0
 10
10.9918933251
 20
10.9927743033
 30
0.0
 10
11.0017599092
 20
10.9944711498
 30
0.0
 10
11.0113301484
 20
10.9962778297
 30
0.0
 10
11.0205857791
 20
10.9981908961
 30
0.0
 10
11.0295091291
 20
11.0002066258
 30
0.0
 10
11.0380831708
 20
11.002321188
 30
0.0
 10
11.0462915661
 20
11.0045304698
 30
0.0
 10
11.0541186878
 20
11.0068302306
 30
0.0
 10
11.0615496551
 20
11.0092160724
 30
0.0
 10
11.0685703866
 20
11.011683362
 30
0.0
 10
11.0751675965
 20
11.0142274278
 30
0.0
 10
11.0813288767
 20
11.0168433841
 30
0.0
 10
11.0870427037
 20
11.0195262676
 30
0.0
 10
11.0922984367
 20
11.0222711242
 30
0.0
 10
11.0970864258
 20
11.0250727798
 30
0.0
 10
11.1013981516
 20
11.0279264737
 30
0.0
 10
11.1052253285
 20
11.03082699
 30
0.0
 10
11.1075359892
 20
11.0328652853
 30
0.0
 10
11.1085998296
 20
11.0338928764
 30
0.0
  0
SPLINE
  5
32E
100
AcDbEntity
  8
0
100
AcDbSpline
 62
7
  6
CONTINUOUS
 70
0
 71
3
 72
13
 73
9
 74
0
 42
0.0000001
 43
0.0000001
 44
0.0000000001
 40
0.0
 40
0.0
 40
0.0
 40
0.0
 40
0.1107300577
 40
0.2268167239
 40
0.3474990602
 40
0.4721262276
 40
0.7310287757
 40
1.0
 40
1.0
 40
1.0
 40
1.0
 10
10.9185645992
 20
11.5768632386
 30
0.0
 10
10.9182622618
 20
11.5776607015
 30
0.0
 10
10.9176688847
 20
11.5793040934
 30
0.0
 10
10.9168230664
 20
11.5818436068
 30
0.0
 10
10.9159977065
 20
11.5845021012
 30
0.0
 10
10.9149098344
 20
11.5882302488
 30
0.0
 10
10.9136065213
 20
11.5930845093
 30
0.0
 10
10.91263368
 20
11.5970323521
 30
0.0
 10
10.9121536272
 20
11.5990476004
 30
0.0
  0
SPLINE
  5
32F
100
AcDbEntity
  8
0
100
AcDbSpline
 62
7
  6
CONTINUOUS
 70
0
 71
3
 72
15
 73
11
 74
0
 42
0.0000001
 43
0.0000001
 44
0.0000000001
 40
0.0
 40
0.0
 40
0.0
 40
0.0
 40
0.1236310991
 40
0.2479193042
 40
0.3727016868
 40
0.4978315847
 40
0.6231967038
 40
0.7487136968
 40
0.8743315209
 40
1.0
 40
1.0
 40
1.0
 40
1.0
 10
10.8588864293
 20
11.5828726847
 30
0.0
 10
10.8571815362
 20
11.5833195322
 30
0.0
 10
10.8538079964
 20
11.5843967364
 30
0.0
 10
10.8489139619
 20
11.5864812419
 30
0.0
 10
10.8441863528
 20
11.5889634835
 30
0.0
 10
10.8396289279
 20
11.5917722896
 30
0.0
 10
10.8352347748
 20
11.5948468087
 30
0.0
 10
10.8309920449
 20
11.598137319
 30
0.0
 10
10.8268871854
 20
11.6016041433
 30
0.0
 10
10.8242335856
 20
11.6040117949
 30
0.0
 10
10.8229252162
 20
11.6052356118
 30
0.0
  0
SPLINE
  5
330
100
AcDbEntity
  8
0
100
AcDbSpline
 62
7
  6
CONTINUOUS
 70
0
 71
3
 72
14
 73
10
 74
0
 42
0.0000001
 43
0.0000001
 44
0.0000000001
 40
0.0
 40
0.0
 40
0.0
 40
0.0
 40
0.1216361405
 40
0.2439923157
 40
0.3672890307
 40
0.4916482017
 40
0.6171110821
 40
0.7436904486
 40
1.0
 40
1.0
 40
1.0
 40
1.0
 10
10.7756120336
 20
11.5767020618
 30
0.0
 10
10.7747819354
 20
11.5769797231
 30
0.0
 10
10.7731398721
 20
11.5776076978
 30
0.0
 10
10.7707473218
 20
11.5787355742
 30
0.0
 10
10.7684174188
 20
11.5800280222
 30
0.0
 10
10.7661475261
 20
11.5814645584
 30
0.0
 10
10.7639335695
 20
11.5830268071
 30
0.0
 10
10.7610399788
 20
11.5852663205
 30
0.0
 10
10.7589600413
 20
11.5870777775
 30
0.0
 10
10.7576055042
 20
11.5883296327
 30
0.0
  0
SPLINE
  5
331
100
AcDbEntity
  8
0
100
AcDbSpline
 62
7
  6
CONTINUOUS
 70
0
 71
3
 72
34
 73
30
 74
0
 42
0.0000001
 43
0.0000001
 44
0.0000000001
 40
0.0
 40
0.0
 40
0.0
 40
0.0
 40
0.0904026537
 40
0.1775170701
 40
0.2197447428
 40
0.2610346636
 40
0.3013506518
 40
0.3406588452
 40
0.3789286238
 40
0.416133423
 40
0.452251517
 40
0.4872673826
 40
0.5211718484
 40
0.5539637324
 40
0.58564999
 40
0.6162462192
 40
0.6742671158
 40
0.728344991
 40
0.7789253306
 40
0.8030819144
 40
0.8265780498
 40
0.8494924696
 40
0.8719045781
 40
0.8938931156
 40
0.9155342484
 40
0.9369005361
 40
0.958059805
 40
0.9790743505
 40
1.0
 40
1.0
 40
1.0
 40
1.0
 10
11.3144414419
 20
10.1727361772
 30
0.0
 10
11.3174770554
 20
10.1786862283
 30
0.0
 10
11.3235511599
 20
10.190312636
 30
0.0
 10
11.3314016945
 20
10.204527234
 30
0.0
 10
11.3377250495
 20
10.2154349545
 30
0.0
 10
11.3424320842
 20
10.2232816067
 30
0.0
 10
11.347152193
 20
10.2308675442
 30
0.0
 10
11.3518847601
 20
10.2381813777
 30
0.0
 10
11.3566289284
 20
10.2452121082
 30
0.0
 10
11.3613837268
 20
10.2519492267
 30
0.0
 10
11.3661481089
 20
10.258382873
 30
0.0
 10
11.370920751
 20
10.2645041208
 30
0.0
 10
11.375700422
 20
10.2703049556
 30
0.0
 10
11.3804855726
 20
10.2757785973
 30
0.0
 10
11.3852748077
 20
10.2809197395
 30
0.0
 10
11.3915529007
 20
10.2872143565
 30
0.0
 10
11.399398755
 20
10.2942749729
 30
0.0
 10
11.408986561
 20
10.3015493751
 30
0.0
 10
11.4170900546
 20
10.3065743098
 30
0.0
 10
11.4235405816
 20
10.3099081796
 30
0.0
 10
11.4282948547
 20
10.3120553017
 30
0.0
 10
11.4330380443
 20
10.3138955728
 30
0.0
 10
11.4377691754
 20
10.3154382874
 30
0.0
 10
11.4424872371
 20
10.3166934733
 30
0.0
 10
11.4471914573
 20
10.3176715593
 30
0.0
 10
11.4518811637
 20
10.3183834827
 30
0.0
 10
11.4565559336
 20
10.3188402979
 30
0.0
 10
11.4612152898
 20
10.3190532412
 30
0.0
 10
11.4643155919
 20
10.3190400054
 30
0.0
 10
11.4658611314
 20
10.3189963746
 30
0.0
  0
SPLINE
  5
332
100
AcDbEntity
  8
0
100
AcDbSpline
 62
7
  6
CONTINUOUS
 70
0
 71
3
 72
15
 73
11
 74
0
 42
0.0000001
 43
0.0000001
 44
0.0000000001
 40
0.0
 40
0.0
 40
0.0
 40
0.0
 40
0.1193921742
 40
0.2394157959
 40
0.3604989196
 40
0.4831231702
 40
0.6078138565
 40
0.735132021
 40
0.8656628834
 40
1.0
 40
1.0
 40
1.0
 40
1.0
 10
11.3144414419
 20
9.6666260746
 30
0.0
 10
11.3162112646
 20
9.6665761123
 30
0.0
 10
11.3197638748
 20
9.6665733163
 30
0.0
 10
11.3251042351
 20
9.6668765773
 30
0.0
 10
11.3304649426
 20
9.6675040651
 30
0.0
 10
11.3358451428
 20
9.6684726269
 30
0.0
 10
11.3412439517
 20
9.6697987896
 30
0.0
 10
11.3466601985
 20
9.6714985371
 30
0.0
 10
11.3520921256
 20
9.6735869221
 30
0.0
 10
11.3556667089
 20
9.6752218924
 30
0.0
 10
11.3574529976
 20
9.6761038507
 30
0.0
  0
SPLINE
  5
333
100
AcDbEntity
  8
0
100
AcDbSpline
 62
7
  6
CONTINUOUS
 70
0
 71
3
 72
46
 73
42
 74
0
 42
0.0000001
 43
0.0000001
 44
0.0000000001
 40
0.0
 40
0.0
 40
0.0
 40
0.0
 40
0.0123348316
 40
0.0191122513
 40
0.0263398568
 40
0.0340433379
 40
0.0422419093
 40
0.0509489255
 40
0.0601734772
 40
0.069920481
 40
0.0801918511
 40
0.0909866589
 40
0.1023015676
 40
0.1141313886
 40
0.1264688456
 40
0.1393054123
 40
0.1526307954
 40
0.1807002141
 40
0.2105737355
 40
0.2421307537
 40
0.2752372162
 40
0.3097476043
 40
0.3455065162
 40
0.3823500096
 40
0.4201071177
 40
0.4586009644
 40
0.4976500051
 40
0.5370693166
 40
0.5766716682
 40
0.6162686423
 40
0.6556719519
 40
0.6946944308
 40
0.7331512449
 40
0.7708611739
 40
0.8076476451
 40
0.8433399963
 40
0.8777748211
 40
0.9107971759
 40
0.9422620864
 40
0.9720362952
 40
1.0
 40
1.0
 40
1.0
 40
1.0
 10
10.6974041699
 20
11.3304071153
 30
0.0
 10
10.6979520422
 20
11.3294315282
 30
0.0
 10
10.6989733147
 20
11.3280136431
 30
0.0
 10
10.7005954919
 20
11.3262584095
 30
0.0
 10
10.7020364111
 20
11.3249133588
 30
0.0
 10
10.7036607075
 20
11.3235834547
 30
0.0
 10
10.7054668591
 20
11.3222697128
 30
0.0
 10
10.7074524872
 20
11.3209736822
 30
0.0
 10
10.7096152522
 20
11.3196969497
 30
0.0
 10
10.7119524437
 20
11.3184409962
 30
0.0
 10
10.7144611914
 20
11.3172074208
 30
0.0
 10
10.7171383594
 20
11.3159977541
 30
0.0
 10
10.7199805906
 20
11.3148134972
 30
0.0
 10
10.7229843235
 20
11.3136562043
 30
0.0
 10
10.7261457554
 20
11.3125272798
 30
0.0
 10
10.7294609083
 20
11.3114282208
 30
0.0
 10
10.7341623557
 20
11.309979273
 30
0.0
 10
10.7403962016
 20
11.3082606268
 30
0.0
 10
10.7482934876
 20
11.3063722256
 30
0.0
 10
10.75669211
 20
11.3046334795
 30
0.0
 10
10.7655494148
 20
11.3030533605
 30
0.0
 10
10.7748204985
 20
11.3016400562
 30
0.0
 10
10.7844582428
 20
11.3004008725
 30
0.0
 10
10.7944136366
 20
11.2993422146
 30
0.0
 10
10.8046360134
 20
11.2984695454
 30
0.0
 10
10.8150733291
 20
11.2977873657
 30
0.0
 10
10.8256724299
 20
11.2972991918
 30
0.0
 10
10.8363793309
 20
11.2970075408
 30
0.0
 10
10.8471394909
 20
11.2969139146
 30
0.0
 10
10.8578980957
 20
11.2970187979
 30
0.0
 10
10.868600336
 20
11.2973216516
 30
0.0
 10
10.8791916933
 20
11.2978209153
 30
0.0
 10
10.8896182211
 20
11.2985140128
 30
0.0
 10
10.8998268232
 20
11.2993973704
 30
0.0
 10
10.9097655299
 20
11.3004664292
 30
0.0
 10
10.9193837637
 20
11.3017156717
 30
0.0
 10
10.928632613
 20
11.3031386442
 30
0.0
 10
10.9374650671
 20
11.3047279874
 30
0.0
 10
10.9458363645
 20
11.3064754878
 30
0.0
 10
10.9537039424
 20
11.3083720556
 30
0.0
 10
10.9587514664
 20
11.3097750271
 30
0.0
 10
10.9611810265
 20
11.3105041259
 30
0.0
  0
SPLINE
  5
334
100
AcDbEntity
  8
0
100
AcDbSpline
 62
7
  6
CONTINUOUS
 70
0
 71
3
 72
23
 73
19
 74
0
 42
0.0000001
 43
0.0000001
 44
0.0000000001
 40
0.0
 40
0.0
 40
0.0
 40
0.0
 40
0.0584091353
 40
0.1170360604
 40
0.1759494819
 40
0.2352281827
 40
0.2949590532
 40
0.3552329696
 40
0.4161391803
 40
0.4777586721
 40
0.5401577318
 40
0.6033828172
 40
0.6674577605
 40
0.7323837239
 40
0.7981416055
 40
0.8646960864
 40
0.9320001601
 40
1.0
 40
1.0
 40
1.0
 40
1.0
 10
10.2422547471
 20
10.2341388335
 30
0.0
 10
10.2507020344
 20
10.2350263668
 30
0.0
 10
10.2676607534
 20
10.2365111106
 30
0.0
 10
10.2932221935
 20
10.2377764113
 30
0.0
 10
10.318941889
 20
10.2379938625
 30
0.0
 10
10.3448077636
 20
10.237076216
 30
0.0
 10
10.3708013807
 20
10.2349433696
 30
0.0
 10
10.3968971529
 20
10.2315276773
 30
0.0
 10
10.4230632128
 20
10.2267794154
 30
0.0
 10
10.4492630677
 20
10.2206714033
 30
0.0
 10
10.4754580598
 20
10.2132016487
 30
0.0
 10
10.5016101703
 20
10.2043936901
 30
0.0
 10
10.5276846377
 20
10.1942944616
 30
0.0
 10
10.5536519955
 20
10.1829702432
 30
0.0
 10
10.5794891711
 20
10.1705013042
 30
0.0
 10
10.6051798351
 20
10.1569763127
 30
0.0
 10
10.6307137167
 20
10.1424875226
 30
0.0
 10
10.6475474259
 20
10.1322959755
 30
0.0
 10
10.6559414652
 20
10.1270689679
 30
0.0
  0
SPLINE
  5
335
100
AcDbEntity
  8
0
100
AcDbSpline
 62
7
  6
CONTINUOUS
 70
0
 71
3
 72
22
 73
18
 74
0
 42
0.0000001
 43
0.0000001
 44
0.0000000001
 40
0.0
 40
0.0
 40
0.0
 40
0.0
 40
0.0635178624
 40
0.1269375185
 40
0.190246841
 40
0.2534332483
 40
0.3164846365
 40
0.3793900307
 40
0.4421404758
 40
0.5047298524
 40
0.5671555094
 40
0.629418511
 40
0.6915234828
 40
0.7534781381
 40
0.8152925048
 40
0.8769780878
 40
1.0
 40
1.0
 40
1.0
 40
1.0
 10
10.7098622738
 20
10.1233295471
 30
0.0
 10
10.7213760716
 20
10.1271951142
 30
0.0
 10
10.744475904
 20
10.1346557133
 30
0.0
 10
10.7793694783
 20
10.1449542333
 30
0.0
 10
10.8144758633
 20
10.1542617015
 30
0.0
 10
10.8497798828
 20
10.1624873729
 30
0.0
 10
10.8852579111
 20
10.1695452493
 30
0.0
 10
10.9208772035
 20
10.1753591029
 30
0.0
 10
10.9565966458
 20
10.1798680303
 30
0.0
 10
10.9923685581
 20
10.1830315667
 30
0.0
 10
11.0281416083
 20
10.1848332421
 30
0.0
 10
11.0638643214
 20
10.1852820979
 30
0.0
 10
11.0994887008
 20
10.1844117137
 30
0.0
 10
11.1349729839
 20
10.1822771445
 30
0.0
 10
11.170284409
 20
10.1789499027
 30
0.0
 10
11.2170561879
 20
10.1730398682
 30
0.0
 10
11.2518891492
 20
10.1670673022
 30
0.0
 10
11.2749686814
 20
10.1625198789
 30
0.0
  0
SPLINE
  5
336
100
AcDbEntity
  8
0
100
AcDbSpline
 62
7
  6
CONTINUOUS
 70
0
 71
3
 72
22
 73
18
 74
0
 42
0.0000001
 43
0.0000001
 44
0.0000000001
 40
0.0
 40
0.0
 40
0.0
 40
0.0
 40
0.1230219122
 40
0.1847074952
 40
0.2465218619
 40
0.3084765172
 40
0.370581489
 40
0.4328444907
 40
0.4952701476
 40
0.5578595242
 40
0.6206099694
 40
0.6835153635
 40
0.7465667517
 40
0.809753159
 40
0.8730624815
 40
0.9364821376
 40
1.0
 40
1.0
 40
1.0
 40
1.0
 10
10.7098622738
 20
9.6172194445
 30
0.0
 10
10.732941806
 20
9.6126720213
 30
0.0
 10
10.7677747673
 20
9.6066994553
 30
0.0
 10
10.8145465462
 20
9.6007894207
 30
0.0
 10
10.8498579714
 20
9.5974621789
 30
0.0
 10
10.8853422544
 20
9.5953276098
 30
0.0
 10
10.9209666339
 20
9.5944572255
 30
0.0
 10
10.9566893469
 20
9.5949060813
 30
0.0
 10
10.9924623972
 20
9.5967077567
 30
0.0
 10
11.0282343094
 20
9.5998712931
 30
0.0
 10
11.0639537517
 20
9.6043802205
 30
0.0
 10
11.0995730441
 20
9.6101940741
 30
0.0
 10
11.1350510725
 20
9.6172519505
 30
0.0
 10
11.1703550919
 20
9.625477622
 30
0.0
 10
11.2054614769
 20
9.6347850901
 30
0.0
 10
11.2403550513
 20
9.6450836101
 30
0.0
 10
11.2634548836
 20
9.6525442093
 30
0.0
 10
11.2749686814
 20
9.6564097763
 30
0.0
  0
SPLINE
  5
337
100
AcDbEntity
  8
0
100
AcDbSpline
 62
7
  6
CONTINUOUS
 70
0
 71
3
 72
16
 73
12
 74
0
 42
0.0000001
 43
0.0000001
 44
0.0000000001
 40
0.0
 40
0.0
 40
0.0
 40
0.0
 40
0.1480514235
 40
0.2876969267
 40
0.4196103192
 40
0.4829488084
 40
0.5446961172
 40
0.6639365715
 40
0.7786068127
 40
0.8901133951
 40
1.0
 40
1.0
 40
1.0
 40
1.0
 10
11.1085998296
 20
10.7924114055
 30
0.0
 10
11.1093426234
 20
10.7931288892
 30
0.0
 10
11.110742491
 20
10.7945694784
 30
0.0
 10
11.1126247073
 20
10.7968145641
 30
0.0
 10
11.113974782
 20
10.7987250686
 30
0.0
 10
11.1149045378
 20
10.8002585534
 30
0.0
 10
11.1157165249
 20
10.8017576012
 30
0.0
 10
11.1165603245
 20
10.8036440262
 30
0.0
 10
11.1172941677
 20
10.8059446725
 30
0.0
 10
11.117735517
 20
10.8082526863
 30
0.0
 10
11.1178339106
 20
10.8097987387
 30
0.0
 10
11.117833903
 20
10.8105652486
 30
0.0
  0
SPLINE
  5
338
100
AcDbEntity
  8
0
100
AcDbSpline
 62
7
  6
CONTINUOUS
 70
0
 71
3
 72
20
 73
16
 74
0
 42
0.0000001
 43
0.0000001
 44
0.0000000001
 40
0.0
 40
0.0
 40
0.0
 40
0.0
 40
0.1497466352
 40
0.2196204517
 40
0.2864530236
 40
0.4121313854
 40
0.4718313607
 40
0.5299812213
 40
0.587065261
 40
0.643596862
 40
0.7001059114
 40
0.7571238208
 40
0.8151663096
 40
0.8747199796
 40
1.0
 40
1.0
 40
1.0
 40
1.0
 10
10.7502413268
 20
11.6015954695
 30
0.0
 10
10.749812219
 20
11.6011809831
 30
0.0
 10
10.7492118445
 20
11.6005409693
 30
0.0
 10
10.7485139122
 20
11.5996370245
 30
0.0
 10
10.747933062
 20
11.5987672503
 30
0.0
 10
10.7474680693
 20
11.5978705039
 30
0.0
 10
10.7471396197
 20
11.5969563356
 30
0.0
 10
10.7469655197
 20
11.5962803635
 30
0.0
 10
10.7468597979
 20
11.5956031348
 30
0.0
 10
10.7468225822
 20
11.5949252179
 30
0.0
 10
10.7468540005
 20
11.5942472665
 30
0.0
 10
10.7469540058
 20
11.5935699589
 30
0.0
 10
10.7471224097
 20
11.5928938344
 30
0.0
 10
10.7474429643
 20
11.5919797167
 30
0.0
 10
10.7477794885
 20
11.5913197507
 30
0.0
 10
10.7480378588
 20
11.590892703
 30
0.0
  0
SPLINE
  5
339
100
AcDbEntity
  8
0
100
AcDbSpline
 62
7
  6
CONTINUOUS
 70
0
 71
3
 72
60
 73
56
 74
0
 42
0.0000001
 43
0.0000001
 44
0.0000000001
 40
0.0
 40
0.0
 40
0.0
 40
0.0
 40
0.0064532961
 40
0.0125273048
 40
0.0154725032
 40
0.0183829378
 40
0.0212808993
 40
0.0241890202
 40
0.030118814
 40
0.0363456356
 40
0.0430120098
 40
0.0502309176
 40
0.0580871819
 40
0.0666416621
 40
0.0759359312
 40
0.0859965778
 40
0.0968383062
 40
0.1084667146
 40
0.1208797264
 40
0.1340694242
 40
0.1480225727
 40
0.1627219575
 40
0.1781463095
 40
0.194271461
 40
0.2110700136
 40
0.2285123815
 40
0.2651963418
 40
0.2843692827
 40
0.3040460265
 40
0.3447510964
 40
0.3869829591
 40
0.4303941497
 40
0.4746241426
 40
0.5193032925
 40
0.5640572063
 40
0.6085105879
 40
0.6522914343
 40
0.695035119
 40
0.7363884036
 40
0.7760139589
 40
0.8135945568
 40
0.8315264247
 40
0.8488399815
 40
0.865503471
 40
0.881487758
 40
0.8967660396
 40
0.9113147812
 40
0.9251134088
 40
0.9381455946
 40
0.9503989967
 40
0.9618668259
 40
0.9725481902
 40
0.9824511704
 40
0.9915927436
 40
1.0
 40
1.0
 40
1.0
 40
1.0
 10
10.9456298321
 20
11.5908924303
 30
0.0
 10
10.9458656557
 20
11.5912821821
 30
0.0
 10
10.9462741977
 20
11.5920705309
 30
0.0
 10
10.9466188152
 20
11.5931127406
 30
0.0
 10
10.9467751255
 20
11.593941249
 30
0.0
 10
10.9468347138
 20
11.5945571625
 30
0.0
 10
10.9468376132
 20
11.5951733517
 30
0.0
 10
10.9467655692
 20
11.5959996588
 30
0.0
 10
10.9465279509
 20
11.5970424063
 30
0.0
 10
10.946016683
 20
11.5982747419
 30
0.0
 10
10.9452815661
 20
11.5994946537
 30
0.0
 10
10.9443260869
 20
11.6007001786
 30
0.0
 10
10.9431532112
 20
11.6018900375
 30
0.0
 10
10.9417656917
 20
11.6030626121
 30
0.0
 10
10.9401664775
 20
11.6042160498
 30
0.0
 10
10.938358866
 20
11.6053482001
 30
0.0
 10
10.9363466573
 20
11.6064568354
 30
0.0
 10
10.934134116
 20
11.607539576
 30
0.0
 10
10.9317260376
 20
11.6085941207
 30
0.0
 10
10.9291276676
 20
11.6096180803
 30
0.0
 10
10.926344739
 20
11.610609225
 30
0.0
 10
10.9233834029
 20
11.6115652632
 30
0.0
 10
10.920250252
 20
11.6124841041
 30
0.0
 10
10.9169522699
 20
11.6133635961
 30
0.0
 10
10.9134968226
 20
11.6142018394
 30
0.0
 10
10.9086073506
 20
11.6152799771
 30
0.0
 10
10.9035223612
 20
11.6162443867
 30
0.0
 10
10.8982601778
 20
11.6171052161
 30
0.0
 10
10.8927037415
 20
11.6179213916
 30
0.0
 10
10.8855132102
 20
11.618805978
 30
0.0
 10
10.8766325056
 20
11.6196432589
 30
0.0
 10
10.8674844102
 20
11.620260218
 30
0.0
 10
10.858151034
 20
11.6206512167
 30
0.0
 10
10.8487160937
 20
11.6208126704
 30
0.0
 10
10.8392642645
 20
11.6207431006
 30
0.0
 10
10.8298803653
 20
11.6204431453
 30
0.0
 10
10.8206485945
 20
11.6199155508
 30
0.0
 10
10.8116517715
 20
11.6191651485
 30
0.0
 10
10.8029705141
 20
11.6181988348
 30
0.0
 10
10.794682682
 20
11.6170254426
 30
0.0
 10
10.7880659915
 20
11.6158667636
 30
0.0
 10
10.7830288089
 20
11.6148382213
 30
0.0
 10
10.7794535405
 20
11.6140342413
 30
0.0
 10
10.7760296106
 20
11.6131874368
 30
0.0
 10
10.7727646731
 20
11.6122997513
 30
0.0
 10
10.7696660268
 20
11.611373145
 30
0.0
 10
10.7667405714
 20
11.6104097733
 30
0.0
 10
10.7639948142
 20
11.6094117414
 30
0.0
 10
10.7614348134
 20
11.6083813651
 30
0.0
 10
10.7590662273
 20
11.6073208559
 30
0.0
 10
10.7568941953
 20
11.6062326627
 30
0.0
 10
10.7549234149
 20
11.6051190504
 30
0.0
 10
10.7531579387
 20
11.6039823295
 30
0.0
 10
10.7516018028
 20
11.6028248598
 30
0.0
 10
10.7506681859
 20
11.6020077837
 30
0.0
 10
10.7502413268
 20
11.6015954695
 30
0.0
  0
SPLINE
  5
33A
100
AcDbEntity
  8
0
100
AcDbSpline
 62
7
  6
CONTINUOUS
 70
0
 71
3
 72
64
 73
60
 74
0
 42
0.0000001
 43
0.0000001
 44
0.0000000001
 40
0.0
 40
0.0
 40
0.0
 40
0.0
 40
0.0085740654
 40
0.0179228085
 40
0.0280756004
 40
0.0390505483
 40
0.0508545589
 40
0.063485792
 40
0.0769354194
 40
0.0911891826
 40
0.1062277845
 40
0.1220278344
 40
0.138562475
 40
0.1558014116
 40
0.1737117424
 40
0.1922578592
 40
0.211401944
 40
0.2311041747
 40
0.2720128736
 40
0.3146323537
 40
0.3585883325
 40
0.4034903286
 40
0.4489368437
 40
0.4945198805
 40
0.5398300046
 40
0.5844608404
 40
0.6280139986
 40
0.6701038913
 40
0.710362656
 40
0.7296973558
 40
0.7484471256
 40
0.7665734311
 40
0.7840399917
 40
0.8008128529
 40
0.816860987
 40
0.832156191
 40
0.8466739004
 40
0.8603934729
 40
0.8732987251
 40
0.8853790766
 40
0.8966301394
 40
0.9070556979
 40
0.9166693534
 40
0.9254972738
 40
0.9335821086
 40
0.9409872762
 40
0.9478029179
 40
0.9541505803
 40
0.9571991028
 40
0.960191303
 40
0.9631508055
 40
0.9661020754
 40
0.9690698147
 40
0.9720782444
 40
0.9751505148
 40
0.9783082702
 40
0.9849526849
 40
0.9921505635
 40
1.0
 40
1.0
 40
1.0
 40
1.0
 10
10.9946205754
 20
11.584647711
 30
0.0
 10
10.9939435462
 20
11.583993751
 30
0.0
 10
10.9924582032
 20
11.5826984199
 30
0.0
 10
10.989975543
 20
11.5808673779
 30
0.0
 10
10.9871503658
 20
11.5790705911
 30
0.0
 10
10.9839894432
 20
11.5773121406
 30
0.0
 10
10.9804997952
 20
11.5755957759
 30
0.0
 10
10.9766894544
 20
11.5739256
 30
0.0
 10
10.9725673483
 20
11.5723054823
 30
0.0
 10
10.9681431754
 20
11.5707393572
 30
0.0
 10
10.9634274279
 20
11.5692309764
 30
0.0
 10
10.9584313353
 20
11.5677839769
 30
0.0
 10
10.9531668239
 20
11.5664019095
 30
0.0
 10
10.9476465022
 20
11.565088069
 30
0.0
 10
10.9418836033
 20
11.5638456961
 30
0.0
 10
10.9358919653
 20
11.5626777823
 30
0.0
 10
10.9296859672
 20
11.5615871371
 30
0.0
 10
10.9210367857
 20
11.5602225102
 30
0.0
 10
10.9097994474
 20
11.5587369686
 30
0.0
 10
10.8958738032
 20
11.5573199196
 30
0.0
 10
10.8814768072
 20
11.5562609637
 30
0.0
 10
10.8667468681
 20
11.5555704726
 30
0.0
 10
10.851825509
 20
11.5552552389
 30
0.0
 10
10.8368561647
 20
11.5553183534
 30
0.0
 10
10.8219827359
 20
11.5557591972
 30
0.0
 10
10.8073481923
 20
11.5565734458
 30
0.0
 10
10.7930931108
 20
11.5577530867
 30
0.0
 10
10.7793545194
 20
11.5592865585
 30
0.0
 10
10.7683015876
 20
11.5608671335
 30
0.0
 10
10.7598215012
 20
11.5623054868
 30
0.0
 10
10.7537567735
 20
11.5634479645
 30
0.0
 10
10.7479160635
 20
11.5646658499
 30
0.0
 10
10.7423133805
 20
11.565956194
 30
0.0
 10
10.7369621676
 20
11.5673159051
 30
0.0
 10
10.7318752355
 20
11.5687416259
 30
0.0
 10
10.7270647533
 20
11.5702299505
 30
0.0
 10
10.7225421859
 20
11.5717772485
 30
0.0
 10
10.7183182668
 20
11.5733797736
 30
0.0
 10
10.7144029827
 20
11.5750337281
 30
0.0
 10
10.7108054849
 20
11.576735106
 30
0.0
 10
10.7075341297
 20
11.5784800018
 30
0.0
 10
10.7045963645
 20
11.5802644106
 30
0.0
 10
10.7019987613
 20
11.5820844784
 30
0.0
 10
10.6997470922
 20
11.5839366688
 30
0.0
 10
10.6978463359
 20
11.5858176639
 30
0.0
 10
10.6963012677
 20
11.5877251107
 30
0.0
 10
10.6951169061
 20
11.5896561872
 30
0.0
 10
10.6944264622
 20
11.5913062931
 30
0.0
 10
10.6940713723
 20
11.5926208343
 30
0.0
 10
10.6939010949
 20
11.5935955948
 30
0.0
 10
10.6938236426
 20
11.5945713756
 30
0.0
 10
10.6938391147
 20
11.5955474424
 30
0.0
 10
10.693947557
 20
11.5965229684
 30
0.0
 10
10.6941487256
 20
11.5974971633
 30
0.0
 10
10.6944423725
 20
11.5984693422
 30
0.0
 10
10.6949655051
 20
11.5997839492
 30
0.0
 10
10.6958661903
 20
11.6014275377
 30
0.0
 10
10.6972914914
 20
11.6033426292
 30
0.0
 10
10.6984274443
 20
11.6045470992
 30
0.0
 10
10.699047255
 20
11.6051457904
 30
0.0
  0
SPLINE
  5
33B
100
AcDbEntity
  8
0
100
AcDbSpline
 62
7
  6
CONTINUOUS
 70
0
 71
3
 72
60
 73
56
 74
0
 42
0.0000001
 43
0.0000001
 44
0.0000000001
 40
0.0
 40
0.0
 40
0.0
 40
0.0
 40
0.0081222363
 40
0.016916871
 40
0.0264087717
 40
0.0366143608
 40
0.0475415594
 40
0.0591912055
 40
0.0715586118
 40
0.0846347933
 40
0.0984065829
 40
0.1128576864
 40
0.1279687673
 40
0.1437179311
 40
0.1600810164
 40
0.1770316604
 40
0.1945418157
 40
0.2125815351
 40
0.2501216305
 40
0.2893857507
 40
0.3300878885
 40
0.3719270393
 40
0.4145908369
 40
0.4577586464
 40
0.5011049481
 40
0.5443024732
 40
0.5870253682
 40
0.6289525073
 40
0.6697705337
 40
0.7091773646
 40
0.7468854002
 40
0.7650179971
 40
0.7826266263
 40
0.799681096
 40
0.8161529088
 40
0.8320154865
 40
0.8472441599
 40
0.8618167115
 40
0.8757132211
 40
0.8889168343
 40
0.9014138316
 40
0.9131943149
 40
0.9242528902
 40
0.9345892949
 40
0.9442099823
 40
0.9531291698
 40
0.9613713293
 40
0.9689735137
 40
0.9759888158
 40
0.9824901511
 40
0.9885734552
 40
0.9914974666
 40
0.9943641541
 40
0.9971919131
 40
1.0
 40
1.0
 40
1.0
 40
1.0
 10
11.0245642778
 20
11.5526274058
 30
0.0
 10
11.0238206334
 20
11.5519091005
 30
0.0
 10
11.0222016247
 20
11.5504847438
 30
0.0
 10
11.0195142287
 20
11.5484609696
 30
0.0
 10
11.0164792809
 20
11.5464710719
 30
0.0
 10
11.013102974
 20
11.5445188618
 30
0.0
 10
11.0093916326
 20
11.5426078601
 30
0.0
 10
11.0053524535
 20
11.5407418639
 30
0.0
 10
11.0009933935
 20
11.5389245049
 30
0.0
 10
10.9963230655
 20
11.537159501
 30
0.0
 10
10.9913507817
 20
11.5354503402
 30
0.0
 10
10.9860864746
 20
11.5338005473
 30
0.0
 10
10.9805407078
 20
11.5322134457
 30
0.0
 10
10.9747246303
 20
11.5306922623
 30
0.0
 10
10.9686499523
 20
11.529240126
 30
0.0
 10
10.9623289282
 20
11.52785995
 30
0.0
 10
10.9557742978
 20
11.5265545803
 30
0.0
 10
10.9466191594
 20
11.5248953459
 30
0.0
 10
10.9346878641
 20
11.5230367168
 30
0.0
 10
10.9198450269
 20
11.5211702879
 30
0.0
 10
10.9044123853
 20
11.5196547782
 30
0.0
 10
10.8885146164
 20
11.5185026342
 30
0.0
 10
10.8722800639
 20
11.5177233651
 30
0.0
 10
10.855839889
 20
11.5173233829
 30
0.0
 10
10.8393269355
 20
11.5173059817
 30
0.0
 10
10.8228746487
 20
11.5176713012
 30
0.0
 10
10.8066159661
 20
11.5184163345
 30
0.0
 10
10.7906822555
 20
11.5195349511
 30
0.0
 10
10.7752021476
 20
11.5210179222
 30
0.0
 10
10.7603007223
 20
11.5228530691
 30
0.0
 10
10.7483135453
 20
11.5246861904
 30
0.0
 10
10.7391083949
 20
11.5263256638
 30
0.0
 10
10.7325127319
 20
11.5276171639
 30
0.0
 10
10.7261483038
 20
11.5289839404
 30
0.0
 10
10.7200279459
 20
11.530423235
 30
0.0
 10
10.7141640009
 20
11.5319320814
 30
0.0
 10
10.7085682819
 20
11.5335074606
 30
0.0
 10
10.7032520348
 20
11.5351460989
 30
0.0
 10
10.6982259394
 20
11.5368447322
 30
0.0
 10
10.6935000454
 20
11.5385998594
 30
0.0
 10
10.6890837736
 20
11.5404079609
 30
0.0
 10
10.6849858787
 20
11.5422654145
 30
0.0
 10
10.6812144029
 20
11.5441684852
 30
0.0
 10
10.6777767163
 20
11.5461135347
 30
0.0
 10
10.6746793832
 20
11.5480967867
 30
0.0
 10
10.6719283136
 20
11.5501147451
 30
0.0
 10
10.669528645
 20
11.5521639808
 30
0.0
 10
10.6674850059
 20
11.5542414259
 30
0.0
 10
10.6658017188
 20
11.5563445921
 30
0.0
 10
10.6644832726
 20
11.5584705576
 30
0.0
 10
10.6636824843
 20
11.5602838184
 30
0.0
 10
10.6632400394
 20
11.5617306025
 30
0.0
 10
10.6630057953
 20
11.562803734
 30
0.0
 10
10.6628652069
 20
11.5638781485
 30
0.0
 10
10.6628339205
 20
11.5645959444
 30
0.0
 10
10.6628339266
 20
11.5649533963
 30
0.0
  0
SPLINE
  5
33C
100
AcDbEntity
  8
0
100
AcDbSpline
 62
7
  6
CONTINUOUS
 70
0
 71
3
 72
11
 73
7
 74
0
 42
0.0000001
 43
0.0000001
 44
0.0000000001
 40
0.0
 40
0.0
 40
0.0
 40
0.0
 40
0.2679707222
 40
0.5243764862
 40
0.7685755503
 40
1.0
 40
1.0
 40
1.0
 40
1.0
 10
10.7965997885
 20
11.5785530838
 30
0.0
 10
10.7954545419
 20
11.5783163705
 30
0.0
 10
10.7932185026
 20
11.5778283161
 30
0.0
 10
10.7899597021
 20
11.5770327177
 30
0.0
 10
10.7868773595
 20
11.5761915597
 30
0.0
 10
10.7848916963
 20
11.5755855199
 30
0.0
 10
10.7839309319
 20
11.5752741437
 30
0.0
  0
SPLINE
  5
33D
100
AcDbEntity
  8
0
100
AcDbSpline
 62
7
  6
CONTINUOUS
 70
0
 71
3
 72
23
 73
19
 74
0
 42
0.0000001
 43
0.0000001
 44
0.0000000001
 40
0.0
 40
0.0
 40
0.0
 40
0.0
 40
0.0749619564
 40
0.1455669258
 40
0.2121578921
 40
0.275160655
 40
0.3350952344
 40
0.3925803841
 40
0.4483264345
 40
0.5031208846
 40
0.5577959983
 40
0.6131898799
 40
0.6701046123
 40
0.7292755339
 40
0.7913502122
 40
0.8568808294
 40
0.9263145543
 40
1.0
 40
1.0
 40
1.0
 40
1.0
 10
10.9942395479
 20
11.6055069773
 30
0.0
 10
10.9946813366
 20
11.6050958335
 30
0.0
 10
10.9955147517
 20
11.6042704138
 30
0.0
 10
10.9966392528
 20
11.602982614
 30
0.0
 10
10.9975981635
 20
11.6016846321
 30
0.0
 10
10.9983900552
 20
11.6003775814
 30
0.0
 10
10.9990135431
 20
11.5990625902
 30
0.0
 10
10.9994673552
 20
11.5977410598
 30
0.0
 10
10.9997500546
 20
11.5964146326
 30
0.0
 10
10.9998607762
 20
11.5950854486
 30
0.0
 10
10.9997990043
 20
11.5937559
 30
0.0
 10
10.9995649764
 20
11.5924284742
 30
0.0
 10
10.9991596741
 20
11.591105357
 30
0.0
 10
10.9985841849
 20
11.5897883885
 30
0.0
 10
10.9978399525
 20
11.5884789267
 30
0.0
 10
10.9969282265
 20
11.5871781951
 30
0.0
 10
10.995850554
 20
11.5858874375
 30
0.0
 10
10.9950472562
 20
11.5850598531
 30
0.0
 10
10.9946205754
 20
11.584647711
 30
0.0
  0
SPLINE
  5
33E
100
AcDbEntity
  8
0
100
AcDbSpline
 62
7
  6
CONTINUOUS
 70
0
 71
3
 72
15
 73
11
 74
0
 42
0.0000001
 43
0.0000001
 44
0.0000000001
 40
0.0
 40
0.0
 40
0.0
 40
0.0
 40
0.1098906517
 40
0.2214018182
 40
0.3360753656
 40
0.4553197315
 40
0.5803743582
 40
0.7122968171
 40
0.8519481781
 40
1.0
 40
1.0
 40
1.0
 40
1.0
 10
11.0308339037
 20
11.5649527004
 30
0.0
 10
11.0308338947
 20
11.5644322863
 30
0.0
 10
11.0307670447
 20
11.5633826057
 30
0.0
 10
11.0304673089
 20
11.5618156389
 30
0.0
 10
11.0299690568
 20
11.5602535917
 30
0.0
 10
11.0292735436
 20
11.5586988301
 30
0.0
 10
11.0283823562
 20
11.5571528041
 30
0.0
 10
11.0272969298
 20
11.5556169041
 30
0.0
 10
11.02601897
 20
11.5540925635
 30
0.0
 10
11.0250685728
 20
11.5531145174
 30
0.0
 10
11.0245642778
 20
11.5526274058
 30
0.0
  0
SPLINE
  5
33F
100
AcDbEntity
  8
0
100
AcDbSpline
 62
7
  6
CONTINUOUS
 70
0
 71
3
 72
41
 73
37
 74
0
 42
0.0000001
 43
0.0000001
 44
0.0000000001
 40
0.0
 40
0.0
 40
0.0
 40
0.0
 40
0.006481306
 40
0.0130002049
 40
0.0195935788
 40
0.0262969402
 40
0.0331439558
 40
0.0401659707
 40
0.0548404239
 40
0.0625493703
 40
0.0705323251
 40
0.0873865775
 40
0.1055279797
 40
0.1250445252
 40
0.1459984588
 40
0.1684314574
 40
0.1923686066
 40
0.2178212043
 40
0.2447895108
 40
0.273264393
 40
0.3032286388
 40
0.3346584159
 40
0.3675238214
 40
0.4017896431
 40
0.4374161528
 40
0.4743592518
 40
0.5125710966
 40
0.552000453
 40
0.5925927219
 40
0.6342905571
 40
0.6770339655
 40
0.7207603169
 40
0.7654049614
 40
0.8109012737
 40
0.9041692973
 40
1.0
 40
1.0
 40
1.0
 40
1.0
 10
10.3498339361
 20
10.3276017091
 30
0.0
 10
10.3498339405
 20
10.3267241071
 30
0.0
 10
10.3499037095
 20
10.3249630268
 30
0.0
 10
10.3502173537
 20
10.3223259732
 30
0.0
 10
10.3507397915
 20
10.319691487
 30
0.0
 10
10.3514705485
 20
10.3170610897
 30
0.0
 10
10.352409253
 20
10.3144358517
 30
0.0
 10
10.3539595812
 20
10.3108927747
 30
0.0
 10
10.3559162691
 20
10.3074112203
 30
0.0
 10
10.3582291061
 20
10.3040100207
 30
0.0
 10
10.3609008758
 20
10.3005028278
 30
0.0
 10
10.3647770119
 20
10.2961494959
 30
0.0
 10
10.370147956
 20
10.2910754044
 30
0.0
 10
10.376311545
 20
10.2860656409
 30
0.0
 10
10.3832575202
 20
10.2811273458
 30
0.0
 10
10.3909750761
 20
10.2762675887
 30
0.0
 10
10.3994519568
 20
10.2714939163
 30
0.0
 10
10.40867455
 20
10.2668138217
 30
0.0
 10
10.418627941
 20
10.2622349342
 30
0.0
 10
10.4292958926
 20
10.2577648029
 30
0.0
 10
10.440660871
 20
10.2534107904
 30
0.0
 10
10.4527041488
 20
10.249180213
 30
0.0
 10
10.4654057895
 20
10.2450801396
 30
0.0
 10
10.4787447105
 20
10.2411174187
 30
0.0
 10
10.4926987472
 20
10.2372987611
 30
0.0
 10
10.5072446626
 20
10.2336305483
 30
0.0
 10
10.5223582174
 20
10.2301189443
 30
0.0
 10
10.5380142088
 20
10.2267698965
 30
0.0
 10
10.5541864998
 20
10.2235889903
 30
0.0
 10
10.5708480913
 20
10.2205815946
 30
0.0
 10
10.5879711549
 20
10.2177527843
 30
0.0
 10
10.6055270727
 20
10.2151072779
 30
0.0
 10
10.623486549
 20
10.2126495256
 30
0.0
 10
10.6481341394
 20
10.2096033499
 30
0.0
 10
10.6797312593
 20
10.2063060047
 30
0.0
 10
10.7052560797
 20
10.2042498169
 30
0.0
 10
10.7182009559
 20
10.2033520867
 30
0.0
  0
SPLINE
  5
340
100
AcDbEntity
  8
0
100
AcDbSpline
 62
7
  6
CONTINUOUS
 70
0
 71
3
 72
41
 73
37
 74
0
 42
0.0000001
 43
0.0000001
 44
0.0000000001
 40
0.0
 40
0.0
 40
0.0
 40
0.0
 40
0.0064813096
 40
0.0130002089
 40
0.0195935803
 40
0.0262969365
 40
0.0331439447
 40
0.04016595
 40
0.0548403791
 40
0.0625493117
 40
0.0705322518
 40
0.087386473
 40
0.1055278433
 40
0.1250443572
 40
0.1459982608
 40
0.1684312314
 40
0.1923683554
 40
0.217820931
 40
0.2447892187
 40
0.2732640858
 40
0.3032283203
 40
0.3346580899
 40
0.3675234916
 40
0.4017893134
 40
0.4374158269
 40
0.4743589334
 40
0.5125707892
 40
0.55200016
 40
0.5925924466
 40
0.6342903027
 40
0.6770337349
 40
0.7207601128
 40
0.7654047863
 40
0.81090113
 40
0.9041692223
 40
1.0
 40
1.0
 40
1.0
 40
1.0
 10
10.3498339361
 20
10.7506774759
 30
0.0
 10
10.3498339344
 20
10.7497998729
 30
0.0
 10
10.3499036914
 20
10.7480387905
 30
0.0
 10
10.3502173183
 20
10.7454017332
 30
0.0
 10
10.3507397392
 20
10.7427672431
 30
0.0
 10
10.3514704801
 20
10.7401368418
 30
0.0
 10
10.352409169
 20
10.7375115998
 30
0.0
 10
10.3539594768
 20
10.7339685175
 30
0.0
 10
10.3559161461
 20
10.7304869572
 30
0.0
 10
10.3582289661
 20
10.7270857518
 30
0.0
 10
10.3609007188
 20
10.723578553
 30
0.0
 10
10.3647768356
 20
10.7192252134
 30
0.0
 10
10.3701477594
 20
10.7141511129
 30
0.0
 10
10.3763113306
 20
10.7091413404
 30
0.0
 10
10.3832572904
 20
10.7042030361
 30
0.0
 10
10.3909748333
 20
10.6993432699
 30
0.0
 10
10.3994517035
 20
10.6945695884
 30
0.0
 10
10.4086742887
 20
10.6898894847
 30
0.0
 10
10.418627674
 20
10.6853105882
 30
0.0
 10
10.4292956223
 20
10.6808404479
 30
0.0
 10
10.4406605998
 20
10.6764864267
 30
0.0
 10
10.452703879
 20
10.6722558407
 30
0.0
 10
10.4654055233
 20
10.6681557589
 30
0.0
 10
10.4787444501
 20
10.6641930298
 30
0.0
 10
10.4926984947
 20
10.6603743643
 30
0.0
 10
10.5072444201
 20
10.6567061439
 30
0.0
 10
10.5223579868
 20
10.6531945326
 30
0.0
 10
10.5380139919
 20
10.6498454779
 30
0.0
 10
10.5541862985
 20
10.6466645651
 30
0.0
 10
10.5708479071
 20
10.6436571633
 30
0.0
 10
10.5879709895
 20
10.6408283473
 30
0.0
 10
10.6055269275
 20
10.6381828357
 30
0.0
 10
10.6234864254
 20
10.6357250786
 30
0.0
 10
10.6481340468
 20
10.632678897
 30
0.0
 10
10.6797312081
 20
10.629381546
 30
0.0
 10
10.7052560622
 20
10.6273253551
 30
0.0
 10
10.7182009559
 20
10.6264276237
 30
0.0
  0
SPLINE
  5
341
100
AcDbEntity
  8
0
100
AcDbSpline
 62
7
  6
CONTINUOUS
 70
0
 71
3
 72
9
 73
5
 74
0
 42
0.0000001
 43
0.0000001
 44
0.0000000001
 40
0.0
 40
0.0
 40
0.0
 40
0.0
 40
0.510965577
 40
1.0
 40
1.0
 40
1.0
 40
1.0
 10
10.3497763992
 20
10.3915039459
 30
0.0
 10
10.3474779263
 20
10.3903063189
 30
0.0
 10
10.343012933
 20
10.3878978258
 30
0.0
 10
10.3386268503
 20
10.3853480023
 30
0.0
 10
10.3365049449
 20
10.3840632629
 30
0.0
  0
SPLINE
  5
342
100
AcDbEntity
  8
0
100
AcDbSpline
 62
7
  6
CONTINUOUS
 70
0
 71
3
 72
60
 73
56
 74
0
 42
0.0000001
 43
0.0000001
 44
0.0000000001
 40
0.0
 40
0.0
 40
0.0
 40
0.0
 40
0.0126337718
 40
0.024721574
 40
0.0362717809
 40
0.0472954536
 40
0.0578071578
 40
0.0678250595
 40
0.0773718165
 40
0.0864749914
 40
0.0951677075
 40
0.1034893471
 40
0.111485772
 40
0.1192097599
 40
0.1267205436
 40
0.1340831988
 40
0.1413671849
 40
0.1486444439
 40
0.1559871268
 40
0.1634653367
 40
0.1711450395
 40
0.179086687
 40
0.1873442356
 40
0.195964858
 40
0.2049891269
 40
0.2144512226
 40
0.2243797985
 40
0.2347982497
 40
0.2457256508
 40
0.2571771134
 40
0.2691643457
 40
0.2816962268
 40
0.2947788855
 40
0.3084164328
 40
0.3226108118
 40
0.3373623777
 40
0.3526698876
 40
0.3685306739
 40
0.3849409655
 40
0.4018956658
 40
0.4193888747
 40
0.4374135721
 40
0.4559619989
 40
0.4750255676
 40
0.5146590433
 40
0.5562323757
 40
0.5996531649
 40
0.6448204431
 40
0.6916255931
 40
0.739953237
 40
0.7896818212
 40
0.84068467
 40
0.8928293924
 40
0.9459818346
 40
1.0
 40
1.0
 40
1.0
 40
1.0
 10
10.3365049449
 20
10.3840632629
 30
0.0
 10
10.3346002455
 20
10.3829100342
 30
0.0
 10
10.3309089434
 20
10.3805934716
 30
0.0
 10
10.3256178753
 20
10.3770033701
 30
0.0
 10
10.3206991857
 20
10.3733776448
 30
0.0
 10
10.3161564545
 20
10.3697186622
 30
0.0
 10
10.3119927627
 20
10.3660289443
 30
0.0
 10
10.3082111242
 20
10.3623107694
 30
0.0
 10
10.3048142206
 20
10.3585665286
 30
0.0
 10
10.3018045808
 20
10.3547985119
 30
0.0
 10
10.299184666
 20
10.3510089421
 30
0.0
 10
10.2969566447
 20
10.3472001978
 30
0.0
 10
10.2951228988
 20
10.3433745678
 30
0.0
 10
10.2936853923
 20
10.3395347397
 30
0.0
 10
10.2926462392
 20
10.3356835616
 30
0.0
 10
10.2920070395
 20
10.3318243792
 30
0.0
 10
10.2917689275
 20
10.327960876
 30
0.0
 10
10.2919324784
 20
10.3240970052
 30
0.0
 10
10.2924971906
 20
10.3202367195
 30
0.0
 10
10.2934622391
 20
10.3163838107
 30
0.0
 10
10.2948258363
 20
10.3125416192
 30
0.0
 10
10.2965861886
 20
10.3087131702
 30
0.0
 10
10.2987411208
 20
10.3049010929
 30
0.0
 10
10.3012884117
 20
10.3011077819
 30
0.0
 10
10.3042258636
 20
10.2973356113
 30
0.0
 10
10.3075509899
 20
10.2935867461
 30
0.0
 10
10.311261404
 20
10.2898635965
 30
0.0
 10
10.3153543189
 20
10.2861683769
 30
0.0
 10
10.3198269014
 20
10.2825035305
 30
0.0
 10
10.3246759953
 20
10.2788714393
 30
0.0
 10
10.3298982021
 20
10.2752745042
 30
0.0
 10
10.3354899121
 20
10.2717152545
 30
0.0
 10
10.3414471582
 20
10.2681960374
 30
0.0
 10
10.3477658071
 20
10.2647194205
 30
0.0
 10
10.3544413695
 20
10.2612877504
 30
0.0
 10
10.3614691553
 20
10.2579035074
 30
0.0
 10
10.3688441853
 20
10.2545690832
 30
0.0
 10
10.3765612218
 20
10.2512868135
 30
0.0
 10
10.3846148003
 20
10.2480591154
 30
0.0
 10
10.3929991697
 20
10.2448882024
 30
0.0
 10
10.4017083786
 20
10.2417764353
 30
0.0
 10
10.410736202
 20
10.2387259774
 30
0.0
 10
10.4200762199
 20
10.2357390283
 30
0.0
 10
10.4331061952
 20
10.2317928174
 30
0.0
 10
10.4501314778
 20
10.2270464667
 30
0.0
 10
10.4714399385
 20
10.2217081225
 30
0.0
 10
10.4938223104
 20
10.2166712212
 30
0.0
 10
10.5172146207
 20
10.2119503038
 30
0.0
 10
10.5415501559
 20
10.2075590212
 30
0.0
 10
10.5667593721
 20
10.2035100611
 30
0.0
 10
10.5927702425
 20
10.1998150987
 30
0.0
 10
10.6195082793
 20
10.1964848384
 30
0.0
 10
10.6468972231
 20
10.1935288144
 30
0.0
 10
10.6748583746
 20
10.1909556611
 30
0.0
 10
10.6936919447
 20
10.189510753
 30
0.0
 10
10.7031894637
 20
10.1888520978
 30
0.0
  0
SPLINE
  5
343
100
AcDbEntity
  8
0
100
AcDbSpline
 62
7
  6
CONTINUOUS
 70
0
 71
3
 72
26
 73
22
 74
0
 42
0.0000001
 43
0.0000001
 44
0.0000000001
 40
0.0
 40
0.0
 40
0.0
 40
0.0
 40
0.0211531731
 40
0.0430721735
 40
0.0657533535
 40
0.0891916395
 40
0.1133802423
 40
0.138311365
 40
0.1903615696
 40
0.2452581438
 40
0.3028995693
 40
0.3631708578
 40
0.4259451837
 40
0.4910851139
 40
0.5584437709
 40
0.6278658296
 40
0.6991882266
 40
0.772241485
 40
0.8468486117
 40
0.9228315075
 40
1.0
 40
1.0
 40
1.0
 40
1.0
 10
10.3702828604
 20
9.6592748821
 30
0.0
 10
10.372471833
 20
9.6581935641
 30
0.0
 10
10.3769571143
 20
9.6560482491
 30
0.0
 10
10.383878029
 20
9.6529328026
 30
0.0
 10
10.3911073949
 20
9.6498645271
 30
0.0
 10
10.3986403804
 20
9.6468455555
 30
0.0
 10
10.4064720007
 20
9.6438777764
 30
0.0
 10
10.4174637606
 20
9.6399350869
 30
0.0
 10
10.4319202477
 20
9.6351618715
 30
0.0
 10
10.4501316688
 20
9.6297479876
 30
0.0
 10
10.4693992825
 20
9.6245834107
 30
0.0
 10
10.4896718841
 20
9.6196820068
 30
0.0
 10
10.5108957583
 20
9.6150569573
 30
0.0
 10
10.5330145214
 20
9.6107206969
 30
0.0
 10
10.5559693812
 20
9.606684887
 30
0.0
 10
10.5796992651
 20
9.6029603824
 30
0.0
 10
10.6041410398
 20
9.5995571762
 30
0.0
 10
10.6292295085
 20
9.5964844426
 30
0.0
 10
10.654898104
 20
9.59375035
 30
0.0
 10
10.6810780839
 20
9.5913623545
 30
0.0
 10
10.6987039889
 20
9.5900146216
 30
0.0
 10
10.7075893838
 20
9.5893984174
 30
0.0
  0
SPLINE
  5
344
100
AcDbEntity
  8
0
100
AcDbSpline
 62
7
  6
CONTINUOUS
 70
0
 71
3
 72
22
 73
18
 74
0
 42
0.0000001
 43
0.0000001
 44
0.0000000001
 40
0.0
 40
0.0
 40
0.0
 40
0.0
 40
0.1331593021
 40
0.1987168375
 40
0.2635800813
 40
0.3277573214
 40
0.391268823
 40
0.4541464597
 40
0.5164324239
 40
0.5781771442
 40
0.6394366785
 40
0.7002699033
 40
0.7607358311
 40
0.8208913641
 40
0.880789464
 40
0.9404782696
 40
1.0
 40
1.0
 40
1.0
 40
1.0
 10
10.3247989554
 20
9.6817430643
 30
0.0
 10
10.3383923461
 20
9.6750269298
 30
0.0
 10
10.3589704751
 20
9.6655735402
 30
0.0
 10
10.3868332584
 20
9.6544082757
 30
0.0
 10
10.4076798912
 20
9.6468849986
 30
0.0
 10
10.4285654368
 20
9.6401987764
 30
0.0
 10
10.449471937
 20
9.6343694848
 30
0.0
 10
10.4703799505
 20
9.6294074298
 30
0.0
 10
10.4912700117
 20
9.6253124771
 30
0.0
 10
10.5121233669
 20
9.6220741998
 30
0.0
 10
10.5329228302
 20
9.6196725588
 30
0.0
 10
10.5536534154
 20
9.6180791441
 30
0.0
 10
10.5743027659
 20
9.617258769
 30
0.0
 10
10.5948612989
 20
9.6171712367
 30
0.0
 10
10.6153222776
 20
9.6177730924
 30
0.0
 10
10.6356812349
 20
9.6190192028
 30
0.0
 10
10.6492011996
 20
9.6202506841
 30
0.0
 10
10.6559414652
 20
9.6209588653
 30
0.0
  0
SPLINE
  5
345
100
AcDbEntity
  8
0
100
AcDbSpline
 62
7
  6
CONTINUOUS
 70
0
 71
3
 72
52
 73
48
 74
0
 42
0.0000001
 43
0.0000001
 44
0.0000000001
 40
0.0
 40
0.0
 40
0.0
 40
0.0
 40
0.0055575414
 40
0.0111779679
 40
0.0169218956
 40
0.0228457728
 40
0.0290005444
 40
0.0354309268
 40
0.04217538
 40
0.0492661984
 40
0.0567302567
 40
0.0645893333
 40
0.0728610204
 40
0.0815590429
 40
0.0906939739
 40
0.1002735878
 40
0.1103032306
 40
0.1207862673
 40
0.1317241233
 40
0.1431168112
 40
0.1549627595
 40
0.1672593291
 40
0.1800026293
 40
0.1931878674
 40
0.206809298
 40
0.2208603323
 40
0.235333686
 40
0.2502212546
 40
0.2812030671
 40
0.313730171
 40
0.3477175459
 40
0.3830726938
 40
0.4196965468
 40
0.457484167
 40
0.4963254241
 40
0.5361056689
 40
0.5767062894
 40
0.618005248
 40
0.6598777048
 40
0.7021964928
 40
0.7448326345
 40
0.7876559561
 40
0.8305354697
 40
0.8733401358
 40
0.9159386815
 40
0.9582019888
 40
1.0
 40
1.0
 40
1.0
 40
1.0
 10
11.3438338943
 20
10.3276022739
 30
0.0
 10
11.3438339004
 20
10.3263727919
 30
0.0
 10
11.3436962952
 20
10.3238977728
 30
0.0
 10
11.3430784847
 20
10.3201984584
 30
0.0
 10
11.3420504005
 20
10.3165073919
 30
0.0
 10
11.3406140024
 20
10.3128288532
 30
0.0
 10
11.3387716284
 20
10.309165847
 30
0.0
 10
11.336525839
 20
10.3055211254
 30
0.0
 10
11.3338790687
 20
10.3018972807
 30
0.0
 10
11.3308340542
 20
10.2982966361
 30
0.0
 10
11.3273933792
 20
10.2947217506
 30
0.0
 10
11.3235600494
 20
10.2911749745
 30
0.0
 10
11.3193370867
 20
10.2876589586
 30
0.0
 10
11.3147279335
 20
10.2841762144
 30
0.0
 10
11.3097362285
 20
10.2807294254
 30
0.0
 10
11.3043659561
 20
10.2773212542
 30
0.0
 10
11.2986214203
 20
10.273954341
 30
0.0
 10
11.2925071983
 20
10.270631436
 30
0.0
 10
11.2860282421
 20
10.2673551077
 30
0.0
 10
11.2791897432
 20
10.2641281148
 30
0.0
 10
11.2719972704
 20
10.2609529656
 30
0.0
 10
11.2644566311
 20
10.2578323474
 30
0.0
 10
11.2565739731
 20
10.2547687335
 30
0.0
 10
11.2483557005
 20
10.2517646783
 30
0.0
 10
11.2398085139
 20
10.2488226275
 30
0.0
 10
11.2309393894
 20
10.2459449848
 30
0.0
 10
11.2217555538
 20
10.2431341297
 30
0.0
 10
11.2089300239
 20
10.2394291544
 30
0.0
 10
11.1921605102
 20
10.234994135
 30
0.0
 10
11.1711655908
 20
10.230041607
 30
0.0
 10
11.1491088016
 20
10.2254068117
 30
0.0
 10
11.1260623035
 20
10.2211050668
 30
0.0
 10
11.1021013472
 20
10.2171506244
 30
0.0
 10
11.0773043009
 20
10.2135565676
 30
0.0
 10
11.0517522977
 20
10.2103347866
 30
0.0
 10
11.02552898
 20
10.2074959339
 30
0.0
 10
10.9987202152
 20
10.2050493927
 30
0.0
 10
10.9714138071
 20
10.2030032476
 30
0.0
 10
10.9436992064
 20
10.2013642569
 30
0.0
 10
10.915667213
 20
10.2001378321
 30
0.0
 10
10.8874096715
 20
10.1993280197
 30
0.0
 10
10.8590191803
 20
10.1989374971
 30
0.0
 10
10.8305887395
 20
10.198967543
 30
0.0
 10
10.8022115858
 20
10.1994180776
 30
0.0
 10
10.7739805296
 20
10.2002875828
 30
0.0
 10
10.7459883431
 20
10.2015732296
 30
0.0
 10
10.7274256768
 20
10.2027123502
 30
0.0
 10
10.7182009559
 20
10.2033520867
 30
0.0
  0
SPLINE
  5
346
100
AcDbEntity
  8
0
100
AcDbSpline
 62
7
  6
CONTINUOUS
 70
0
 71
3
 72
15
 73
11
 74
0
 42
0.0000001
 43
0.0000001
 44
0.0000000001
 40
0.0
 40
0.0
 40
0.0
 40
0.0
 40
0.1241554919
 40
0.2484037789
 40
0.3727814328
 40
0.497362017
 40
0.6222365325
 40
0.7475284834
 40
0.8733900197
 40
1.0
 40
1.0
 40
1.0
 40
1.0
 10
10.9121536272
 20
11.5990476004
 30
0.0
 10
10.910844748
 20
11.5980048489
 30
0.0
 10
10.9081893525
 20
11.5959639324
 30
0.0
 10
10.9040829734
 20
11.5930655832
 30
0.0
 10
10.8998379648
 20
11.5903624355
 30
0.0
 10
10.8954404779
 20
11.5878961056
 30
0.0
 10
10.890878329
 20
11.5857181602
 30
0.0
 10
10.8861444337
 20
11.583890829
 30
0.0
 10
10.881242918
 20
11.5824854529
 30
0.0
 10
10.8778861198
 20
11.5818815081
 30
0.0
 10
10.8761924141
 20
11.5816725106
 30
0.0
  0
SPLINE
  5
347
100
AcDbEntity
  8
0
100
AcDbSpline
 62
7
  6
CONTINUOUS
 70
0
 71
3
 72
66
 73
62
 74
0
 42
0.0000001
 43
0.0000001
 44
0.0000000001
 40
0.0
 40
0.0
 40
0.0
 40
0.0
 40
0.0116733237
 40
0.0227144193
 40
0.0331301438
 40
0.0429320895
 40
0.0521376681
 40
0.060771299
 40
0.0688657298
 40
0.0764638521
 40
0.0836201624
 40
0.0904023915
 40
0.0936797083
 40
0.0968952124
 40
0.1000610857
 40
0.1031901619
 40
0.1062957907
 40
0.1093916444
 40
0.1124915401
 40
0.1156092374
 40
0.1187582331
 40
0.1219515966
 40
0.1252018128
 40
0.1285206306
 40
0.135404396
 40
0.1426834695
 40
0.1504215843
 40
0.1586696817
 40
0.1674675292
 40
0.1768452436
 40
0.1868251041
 40
0.1974226574
 40
0.2086480693
 40
0.2205068739
 40
0.2330007565
 40
0.2461281994
 40
0.2598847602
 40
0.2742636897
 40
0.2892559471
 40
0.3048506996
 40
0.3210353518
 40
0.3377957665
 40
0.3551164502
 40
0.3729805345
 40
0.3913700929
 40
0.4102659998
 40
0.4296482157
 40
0.4494957035
 40
0.4697865831
 40
0.4904982103
 40
0.5330885569
 40
0.5770722711
 40
0.6222447965
 40
0.6683938092
 40
0.7153007603
 40
0.7627423421
 40
0.8104918972
 40
0.8583208585
 40
0.9060003172
 40
0.9533016843
 40
1.0
 40
1.0
 40
1.0
 40
1.0
 10
11.3440049441
 20
10.3914447562
 30
0.0
 10
11.3468729236
 20
10.3899486519
 30
0.0
 10
11.3524021897
 20
10.3869372022
 30
0.0
 10
11.3602801744
 20
10.3822179678
 30
0.0
 10
11.3675016116
 20
10.3774283118
 30
0.0
 10
11.3740574637
 20
10.3725739275
 30
0.0
 10
11.3799397171
 20
10.3676603276
 30
0.0
 10
11.3851411422
 20
10.3626928667
 30
0.0
 10
11.3896549729
 20
10.357676532
 30
0.0
 10
11.3934750992
 20
10.3526160017
 30
0.0
 10
11.3965949687
 20
10.3475164807
 30
0.0
 10
11.3986292915
 20
10.3431883062
 30
0.0
 10
11.3998827871
 20
10.3397276627
 30
0.0
 10
11.400634533
 20
10.3371569447
 30
0.0
 10
11.4012079682
 20
10.3345827155
 30
0.0
 10
11.4016027961
 20
10.3320058231
 30
0.0
 10
11.4018188621
 20
10.3294272576
 30
0.0
 10
11.4018560527
 20
10.3268479875
 30
0.0
 10
11.4017142703
 20
10.3242690069
 30
0.0
 10
11.4013936329
 20
10.3216913095
 30
0.0
 10
11.4008943602
 20
10.3191158505
 30
0.0
 10
11.4002166897
 20
10.316543588
 30
0.0
 10
11.399360874
 20
10.313975374
 30
0.0
 10
11.3979662391
 20
10.3105160695
 30
0.0
 10
11.3957556988
 20
10.3061928614
 30
0.0
 10
11.3924305091
 20
10.3011043984
 30
0.0
 10
11.3884069452
 20
10.2960562654
 30
0.0
 10
11.38369146
 20
10.2910537193
 30
0.0
 10
11.3782902861
 20
10.2861014826
 30
0.0
 10
11.3722103514
 20
10.2812046101
 30
0.0
 10
11.3654590519
 20
10.2763685934
 30
0.0
 10
11.3580447315
 20
10.2715989069
 30
0.0
 10
11.3499764777
 20
10.266901321
 30
0.0
 10
11.3412643077
 20
10.2622815665
 30
0.0
 10
11.3319191002
 20
10.2577453749
 30
0.0
 10
11.3219525674
 20
10.2532985297
 30
0.0
 10
11.3113773057
 20
10.248946586
 30
0.0
 10
11.3002066828
 20
10.2446952026
 30
0.0
 10
11.288454907
 20
10.2405497384
 30
0.0
 10
11.2761369259
 20
10.2365155784
 30
0.0
 10
11.2632684503
 20
10.2325978881
 30
0.0
 10
11.2498659125
 20
10.2288016945
 30
0.0
 10
11.2359464409
 20
10.2251319386
 30
0.0
 10
11.2215278505
 20
10.2215932773
 30
0.0
 10
11.2066285925
 20
10.2181903506
 30
0.0
 10
11.1912677518
 20
10.2149274729
 30
0.0
 10
11.1754650075
 20
10.2118088978
 30
0.0
 10
11.1592406213
 20
10.20883863
 30
0.0
 10
11.1426153735
 20
10.2060204619
 30
0.0
 10
11.1197295281
 20
10.2024373943
 30
0.0
 10
11.0902754798
 20
10.1983773085
 30
0.0
 10
11.0540036518
 20
10.1942081839
 30
0.0
 10
11.0166695954
 20
10.1907196847
 30
0.0
 10
10.9784647873
 20
10.1879298953
 30
0.0
 10
10.9395850107
 20
10.1858533139
 30
0.0
 10
10.9002296175
 20
10.1845007093
 30
0.0
 10
10.8606004075
 20
10.1838791027
 30
0.0
 10
10.8209005883
 20
10.1839917063
 30
0.0
 10
10.7813337889
 20
10.1848379601
 30
0.0
 10
10.7421029792
 20
10.1864134284
 30
0.0
 10
10.7160988654
 20
10.1879568278
 30
0.0
 10
10.7031894637
 20
10.1888520978
 30
0.0
  0
SPLINE
  5
348
100
AcDbEntity
  8
0
100
AcDbSpline
 62
7
  6
CONTINUOUS
 70
0
 71
3
 72
32
 73
28
 74
0
 42
0.0000001
 43
0.0000001
 44
0.0000000001
 40
0.0
 40
0.0
 40
0.0
 40
0.0
 40
0.0193647161
 40
0.0398584623
 40
0.0614689401
 40
0.0841782294
 40
0.107963708
 40
0.1327985128
 40
0.1586519565
 40
0.1854900841
 40
0.213275891
 40
0.2419695715
 40
0.2715288864
 40
0.3019092744
 40
0.3330640371
 40
0.3649446309
 40
0.3975007438
 40
0.4306804076
 40
0.4644302801
 40
0.4986957304
 40
0.5685477531
 40
0.6397797862
 40
0.7119217621
 40
0.7844957666
 40
0.8570202431
 40
0.9290134093
 40
1.0
 40
1.0
 40
1.0
 40
1.0
 10
11.3233841879
 20
9.6592745047
 30
0.0
 10
11.3197673645
 20
9.6574878716
 30
0.0
 10
11.3122454148
 20
9.6539657605
 30
0.0
 10
11.3004580967
 20
9.6489567799
 30
0.0
 10
11.287865285
 20
9.6440802328
 30
0.0
 10
11.2744893324
 20
9.639344852
 30
0.0
 10
11.2603536681
 20
9.6347590641
 30
0.0
 10
11.2454832416
 20
9.6303310694
 30
0.0
 10
11.2299043369
 20
9.6260687432
 30
0.0
 10
11.2136445261
 20
9.6219797358
 30
0.0
 10
11.1967326201
 20
9.6180713722
 30
0.0
 10
11.1791986212
 20
9.6143506128
 30
0.0
 10
11.1610736454
 20
9.6108241354
 30
0.0
 10
11.1423898763
 20
9.6074982623
 30
0.0
 10
11.1231805106
 20
9.6043789111
 30
0.0
 10
11.1034796782
 20
9.6014716772
 30
0.0
 10
11.0833223915
 20
9.598781773
 30
0.0
 10
11.0627444995
 20
9.5963139838
 30
0.0
 10
11.041782556
 20
9.5940727066
 30
0.0
 10
11.013188564
 20
9.591374638
 30
0.0
 10
10.9767612732
 20
9.5886058061
 30
0.0
 10
10.93240057
 20
9.5862595153
 30
0.0
 10
10.8874317806
 20
9.5848857647
 30
0.0
 10
10.8421745886
 20
9.5844944147
 30
0.0
 10
10.796950516
 20
9.5850883473
 30
0.0
 10
10.7520810433
 20
9.5866631992
 30
0.0
 10
10.7223418085
 20
9.5883753332
 30
0.0
 10
10.7075893838
 20
9.5893984174
 30
0.0
  0
SPLINE
  5
349
100
AcDbEntity
  8
0
100
AcDbSpline
 62
7
  6
CONTINUOUS
 70
0
 71
3
 72
15
 73
11
 74
0
 42
0.0000001
 43
0.0000001
 44
0.0000000001
 40
0.0
 40
0.0
 40
0.0
 40
0.0
 40
0.1327560962
 40
0.2641561511
 40
0.3938656442
 40
0.5214843045
 40
0.6465070073
 40
0.768342422
 40
0.8863569741
 40
1.0
 40
1.0
 40
1.0
 40
1.0
 10
10.8229252162
 20
11.6052356118
 30
0.0
 10
10.8219715144
 20
11.603860534
 30
0.0
 10
10.820039374
 20
11.6011480684
 30
0.0
 10
10.8170383111
 20
11.5971918734
 30
0.0
 10
10.81393759
 20
11.5933960258
 30
0.0
 10
10.8107276123
 20
11.5897983828
 30
0.0
 10
10.8073999004
 20
11.5864466808
 30
0.0
 10
10.8039490188
 20
11.5833997244
 30
0.0
 10
10.8003766131
 20
11.5807273735
 30
0.0
 10
10.7978696326
 20
11.5792160899
 30
0.0
 10
10.7965997885
 20
11.5785530838
 30
0.0
  0
SPLINE
  5
34A
100
AcDbEntity
  8
0
100
AcDbSpline
 62
7
  6
CONTINUOUS
 70
0
 71
3
 72
54
 73
50
 74
0
 42
0.0000001
 43
0.0000001
 44
0.0000000001
 40
0.0
 40
0.0
 40
0.0
 40
0.0
 40
0.0098430239
 40
0.0192579511
 40
0.028266993
 40
0.0368967155
 40
0.0531364371
 40
0.0608347269
 40
0.0683084855
 40
0.0756090563
 40
0.0827918768
 40
0.089915423
 40
0.097039799
 40
0.1042250756
 40
0.1115296881
 40
0.1190089473
 40
0.1267140754
 40
0.1429709965
 40
0.1516107531
 40
0.1606306283
 40
0.1700570022
 40
0.1799120858
 40
0.1902141866
 40
0.2009785017
 40
0.212217185
 40
0.2239397864
 40
0.2361537983
 40
0.2488645022
 40
0.2620755446
 40
0.275789101
 40
0.2900057408
 40
0.304725013
 40
0.3199452797
 40
0.3356637954
 40
0.3685794719
 40
0.4034353379
 40
0.4401817715
 40
0.4787594059
 40
0.5191002764
 40
0.5611287685
 40
0.6047625515
 40
0.6499132861
 40
0.6964871591
 40
0.7443853038
 40
0.7935046666
 40
0.8437381405
 40
0.8949741093
 40
0.9471020577
 40
1.0
 40
1.0
 40
1.0
 40
1.0
 10
10.4277411821
 20
10.8407328903
 30
0.0
 10
10.4268029398
 20
10.8398597707
 30
0.0
 10
10.4250066316
 20
10.8381083897
 30
0.0
 10
10.4225073961
 20
10.8354041229
 30
0.0
 10
10.4202660646
 20
10.8326834096
 30
0.0
 10
10.41767671
 20
10.8291099302
 30
0.0
 10
10.4155324004
 20
10.8254302387
 30
0.0
 10
10.4139109501
 20
10.8216709551
 30
0.0
 10
10.4129809933
 20
10.8188925403
 30
0.0
 10
10.4123169351
 20
10.8161076876
 30
0.0
 10
10.4119195389
 20
10.8133182813
 30
0.0
 10
10.4117895189
 20
10.8105265796
 30
0.0
 10
10.4119269055
 20
10.8077349142
 30
0.0
 10
10.4123315959
 20
10.8049455965
 30
0.0
 10
10.4130030073
 20
10.8021609062
 30
0.0
 10
10.4139402404
 20
10.7993826971
 30
0.0
 10
10.4155716289
 20
10.7956235318
 30
0.0
 10
10.4177255555
 20
10.7919443884
 30
0.0
 10
10.4203241728
 20
10.7883715109
 30
0.0
 10
10.4225726202
 20
10.785651248
 30
0.0
 10
10.4250789505
 20
10.7829473691
 30
0.0
 10
10.4278418702
 20
10.7802609273
 30
0.0
 10
10.4308595529
 20
10.7775934362
 30
0.0
 10
10.434130265
 20
10.7749464222
 30
0.0
 10
10.4376520202
 20
10.7723213741
 30
0.0
 10
10.4414226979
 20
10.7697197616
 30
0.0
 10
10.4454400944
 20
10.7671431851
 30
0.0
 10
10.4497017679
 20
10.7645930963
 30
0.0
 10
10.4542051759
 20
10.7620710244
 30
0.0
 10
10.4589476345
 20
10.7595785275
 30
0.0
 10
10.4639262573
 20
10.7571170292
 30
0.0
 10
10.4691380623
 20
10.7546880764
 30
0.0
 10
10.4745799059
 20
10.7522931116
 30
0.0
 10
10.4822563841
 20
10.7490978726
 30
0.0
 10
10.4924112569
 20
10.7452097882
 30
0.0
 10
10.5052785297
 20
10.7407709801
 30
0.0
 10
10.5189768864
 20
10.7365010398
 30
0.0
 10
10.5334731154
 20
10.7324104407
 30
0.0
 10
10.5487322076
 20
10.7285092223
 30
0.0
 10
10.5647171539
 20
10.7248069502
 30
0.0
 10
10.5813891579
 20
10.7213127225
 30
0.0
 10
10.5987077194
 20
10.7180351394
 30
0.0
 10
10.6166307187
 20
10.7149822465
 30
0.0
 10
10.6351145502
 20
10.7121615212
 30
0.0
 10
10.6541142329
 20
10.7095798963
 30
0.0
 10
10.6735834063
 20
10.7072437426
 30
0.0
 10
10.6934749729
 20
10.7051587016
 30
0.0
 10
10.7137400402
 20
10.7033300129
 30
0.0
 10
10.7273764204
 20
10.7022915431
 30
0.0
 10
10.7342477235
 20
10.7018150166
 30
0.0
  0
SPLINE
  5
34B
100
AcDbEntity
  8
0
100
AcDbSpline
 62
7
  6
CONTINUOUS
 70
0
 71
3
 72
60
 73
56
 74
0
 42
0.0000001
 43
0.0000001
 44
0.0000000001
 40
0.0
 40
0.0
 40
0.0
 40
0.0
 40
0.0081222414
 40
0.0169168816
 40
0.0264087866
 40
0.0366143821
 40
0.0475415905
 40
0.0591912493
 40
0.0715586647
 40
0.0846348479
 40
0.098406648
 40
0.1128577747
 40
0.127968871
 40
0.1437180406
 40
0.160081135
 40
0.1770317977
 40
0.1945419791
 40
0.2125817114
 40
0.250121824
 40
0.2893859917
 40
0.3300881417
 40
0.3719273433
 40
0.4145911502
 40
0.4577590001
 40
0.5011053144
 40
0.5443028585
 40
0.5870257719
 40
0.6289529119
 40
0.6697709467
 40
0.7091777726
 40
0.7468857915
 40
0.7650183901
 40
0.7826270107
 40
0.7996814573
 40
0.8161532565
 40
0.8320158302
 40
0.8472444911
 40
0.8618170191
 40
0.8757135005
 40
0.8889170941
 40
0.9014140802
 40
0.9131945391
 40
0.9242530793
 40
0.934589459
 40
0.9442101269
 40
0.9531292893
 40
0.9613714202
 40
0.9689735769
 40
0.9759888588
 40
0.9824901798
 40
0.9885734679
 40
0.9914974722
 40
0.9943641549
 40
0.9971919122
 40
1.0
 40
1.0
 40
1.0
 40
1.0
 10
11.0245642778
 20
11.3237029714
 30
0.0
 10
11.0238206328
 20
11.3229846655
 30
0.0
 10
11.0222016225
 20
11.3215603076
 30
0.0
 10
11.0195142241
 20
11.3195365318
 30
0.0
 10
11.0164792735
 20
11.3175466328
 30
0.0
 10
11.013102963
 20
11.3155944214
 30
0.0
 10
11.009391617
 20
11.313683418
 30
0.0
 10
11.0053524328
 20
11.3118174204
 30
0.0
 10
11.0009933684
 20
11.3100000606
 30
0.0
 10
10.9963230364
 20
11.3082350558
 30
0.0
 10
10.9913507465
 20
11.3065258944
 30
0.0
 10
10.9860864317
 20
11.3048761002
 30
0.0
 10
10.9805406576
 20
11.3032889974
 30
0.0
 10
10.9747245744
 20
11.3017678139
 30
0.0
 10
10.9686498903
 20
11.3003156774
 30
0.0
 10
10.9623288574
 20
11.2989355008
 30
0.0
 10
10.9557742177
 20
11.2976301309
 30
0.0
 10
10.9466190694
 20
11.2959708961
 30
0.0
 10
10.9346877606
 20
11.2941122682
 30
0.0
 10
10.9198449092
 20
11.29224584
 30
0.0
 10
10.9044122489
 20
11.2907303321
 30
0.0
 10
10.8885144661
 20
11.2895781908
 30
0.0
 10
10.8722798961
 20
11.2887989244
 30
0.0
 10
10.8558397086
 20
11.2883989461
 30
0.0
 10
10.8393267413
 20
11.2883815493
 30
0.0
 10
10.8228744437
 20
11.2887468737
 30
0.0
 10
10.8066157519
 20
11.2894919124
 30
0.0
 10
10.7906820336
 20
11.2906105349
 30
0.0
 10
10.7752019215
 20
11.2920935124
 30
0.0
 10
10.7603004945
 20
11.293928666
 30
0.0
 10
10.7483133175
 20
11.2957617932
 30
0.0
 10
10.7391081685
 20
11.2974012718
 30
0.0
 10
10.732512508
 20
11.2986927752
 30
0.0
 10
10.7261480847
 20
11.3000595551
 30
0.0
 10
10.7200277312
 20
11.3014988536
 30
0.0
 10
10.7141637894
 20
11.3030077039
 30
0.0
 10
10.7085680751
 20
11.3045830871
 30
0.0
 10
10.7032518361
 20
11.3062217287
 30
0.0
 10
10.6982257495
 20
11.3079203647
 30
0.0
 10
10.6934998635
 20
11.3096754961
 30
0.0
 10
10.6890835996
 20
11.3114836016
 30
0.0
 10
10.6849857144
 20
11.3133410581
 30
0.0
 10
10.6812142509
 20
11.3152441318
 30
0.0
 10
10.6777765765
 20
11.3171891846
 30
0.0
 10
10.6746792548
 20
11.3191724398
 30
0.0
 10
10.6719281982
 20
11.3211904018
 30
0.0
 10
10.6695285441
 20
11.32323964
 30
0.0
 10
10.6674849199
 20
11.3253170873
 30
0.0
 10
10.6658016486
 20
11.3274202572
 30
0.0
 10
10.6644832182
 20
11.3295462257
 30
0.0
 10
10.663682444
 20
11.3313594883
 30
0.0
 10
10.6632400117
 20
11.332806273
 30
0.0
 10
10.663005777
 20
11.3338794051
 30
0.0
 10
10.6628651978
 20
11.3349538203
 30
0.0
 10
10.6628339175
 20
11.3356716167
 30
0.0
 10
10.6628339268
 20
11.3360290688
 30
0.0
  0
SPLINE
  5
34C
100
AcDbEntity
  8
0
100
AcDbSpline
 62
7
  6
CONTINUOUS
 70
0
 71
3
 72
87
 73
83
 74
0
 42
0.0000001
 43
0.0000001
 44
0.0000000001
 40
0.0
 40
0.0
 40
0.0
 40
0.0
 40
0.0039801822
 40
0.0081241232
 40
0.0124359892
 40
0.0169193511
 40
0.0215772294
 40
0.0264119758
 40
0.0314252489
 40
0.0366182365
 40
0.041991633
 40
0.0475457597
 40
0.0532805407
 40
0.0591955455
 40
0.0652900643
 40
0.0715630561
 40
0.0846387481
 40
0.0984100809
 40
0.1128606733
 40
0.1279712212
 40
0.1437198361
 40
0.160082322
 40
0.1770324049
 40
0.1945419281
 40
0.2125810305
 40
0.2311183022
 40
0.2501209243
 40
0.2695547991
 40
0.2893846709
 40
0.3095742393
 40
0.3300862734
 40
0.3508827211
 40
0.3719248152
 40
0.3931731758
 40
0.4145879125
 40
0.4577542591
 40
0.5010991013
 40
0.5442951809
 40
0.5657358537
 40
0.5870174516
 40
0.6081000023
 40
0.6289440257
 40
0.6495106353
 40
0.6697616412
 40
0.689659655
 40
0.7091681989
 40
0.728251819
 40
0.7468761982
 40
0.7650082756
 40
0.7826163748
 40
0.7996703419
 40
0.8161416977
 40
0.8320038123
 40
0.847232096
 40
0.8618042213
 40
0.875700391
 40
0.8889036636
 40
0.8952412701
 40
0.9014008384
 40
0.9073812291
 40
0.9131816282
 40
0.9188014884
 40
0.9242406056
 40
0.9294991511
 40
0.934577664
 40
0.9394771786
 40
0.9441991752
 40
0.9487457331
 40
0.9531195323
 40
0.957323955
 40
0.9613631962
 40
0.9652423011
 40
0.9689673591
 40
0.9725455335
 40
0.9759852511
 40
0.9824864382
 40
0.9855753059
 40
0.9885737812
 40
0.9914977123
 40
0.9943643204
 40
0.9971920028
 40
1.0
 40
1.0
 40
1.0
 40
1.0
 10
11.3684338923
 20
9.5360748694
 30
0.0
 10
11.3673643897
 20
9.5350418092
 30
0.0
 10
11.3651328122
 20
9.5329829931
 30
0.0
 10
11.3615897507
 20
9.5299759334
 30
0.0
 10
11.3577865072
 20
9.526990438
 30
0.0
 10
11.3537251688
 20
9.5240281033
 30
0.0
 10
11.3494077225
 20
9.5210903055
 30
0.0
 10
11.344836276
 20
9.5181784817
 30
0.0
 10
11.3400131189
 20
9.5152940166
 30
0.0
 10
11.334940642
 20
9.5124384118
 30
0.0
 10
11.3296214066
 20
9.5096130433
 30
0.0
 10
11.3240580616
 20
9.5068193522
 30
0.0
 10
11.3182533973
 20
9.5040587303
 30
0.0
 10
11.3122103339
 20
9.501332555
 30
0.0
 10
11.3059318912
 20
9.4986422151
 30
0.0
 10
11.2971289656
 20
9.4950549912
 30
0.0
 10
11.2855523777
 20
9.4906800287
 30
0.0
 10
11.2709599585
 20
9.4856640702
 30
0.0
 10
11.2555104069
 20
9.4808222734
 30
0.0
 10
11.2392348734
 20
9.4761644788
 30
0.0
 10
11.2221660307
 20
9.4717001668
 30
0.0
 10
11.2043382613
 20
9.4674384302
 30
0.0
 10
11.1857875035
 20
9.4633879523
 30
0.0
 10
11.1665511946
 20
9.4595569824
 30
0.0
 10
11.1466681797
 20
9.4559533228
 30
0.0
 10
11.1261786292
 20
9.452584312
 30
0.0
 10
11.1051239531
 20
9.4494568098
 30
0.0
 10
11.0835467155
 20
9.4465771831
 30
0.0
 10
11.0614905475
 20
9.4439512943
 30
0.0
 10
11.039000058
 20
9.4415844857
 30
0.0
 10
11.0161207424
 20
9.4394815708
 30
0.0
 10
10.9928988833
 20
9.4376468245
 30
0.0
 10
10.9693814731
 20
9.4360839849
 30
0.0
 10
10.9456160526
 20
9.4347962045
 30
0.0
 10
10.9135787694
 20
9.4334460046
 30
0.0
 10
10.8732664782
 20
9.4324652863
 30
0.0
 10
10.824804937
 20
9.4324141604
 30
0.0
 10
10.7844698699
 20
9.4333096441
 30
0.0
 10
10.752396553
 20
9.434591792
 30
0.0
 10
10.7285911905
 20
9.4358292494
 30
0.0
 10
10.7050251282
 20
9.4373422843
 30
0.0
 10
10.6817460059
 20
9.4391278451
 30
0.0
 10
10.6588009321
 20
9.4411822938
 30
0.0
 10
10.6362363233
 20
9.4435014544
 30
0.0
 10
10.6140978257
 20
9.44608061
 30
0.0
 10
10.5924302162
 20
9.4489145142
 30
0.0
 10
10.5712773104
 20
9.4519973978
 30
0.0
 10
10.5506818727
 20
9.4553229847
 30
0.0
 10
10.5306855297
 20
9.458884504
 30
0.0
 10
10.5113286837
 20
9.4626747033
 30
0.0
 10
10.4926504272
 20
9.4666858631
 30
0.0
 10
10.4746884597
 20
9.4709098148
 30
0.0
 10
10.4574789974
 20
9.4753379521
 30
0.0
 10
10.441056714
 20
9.4799612549
 30
0.0
 10
10.4254545897
 20
9.4847703114
 30
0.0
 10
10.4107040901
 20
9.4897553456
 30
0.0
 10
10.3989916261
 20
9.494105029
 30
0.0
 10
10.3900772372
 20
9.49767286
 30
0.0
 10
10.383713966
 20
9.5003498294
 30
0.0
 10
10.3775849393
 20
9.5030631308
 30
0.0
 10
10.3716932201
 20
9.5058113791
 30
0.0
 10
10.366041775
 20
9.5085932069
 30
0.0
 10
10.3606334402
 20
9.5114072207
 30
0.0
 10
10.355470914
 20
9.5142519836
 30
0.0
 10
10.3505567975
 20
9.5171261225
 30
0.0
 10
10.3458935199
 20
9.520028153
 30
0.0
 10
10.3414834289
 20
9.5229566934
 30
0.0
 10
10.3373287022
 20
9.5259102706
 30
0.0
 10
10.3334314095
 20
9.5288874573
 30
0.0
 10
10.3297935009
 20
9.5318868399
 30
0.0
 10
10.3264167638
 20
9.53490694
 30
0.0
 10
10.3233029177
 20
9.5379464287
 30
0.0
 10
10.3204535592
 20
9.5410037353
 30
0.0
 10
10.3178699679
 20
9.544077882
 30
0.0
 10
10.314839137
 20
9.5481199995
 30
0.0
 10
10.3122654895
 20
9.5522710917
 30
0.0
 10
10.3102220968
 20
9.5565108047
 30
0.0
 10
10.3089875058
 20
9.559646399
 30
0.0
 10
10.3080260532
 20
9.5627896118
 30
0.0
 10
10.3073385901
 20
9.5659389368
 30
0.0
 10
10.3069258167
 20
9.569092113
 30
0.0
 10
10.3068339194
 20
9.5711986847
 30
0.0
 10
10.3068339164
 20
9.5722477268
 30
0.0
  0
SPLINE
  5
34D
100
AcDbEntity
  8
0
100
AcDbSpline
 62
7
  6
CONTINUOUS
 70
0
 71
3
 72
15
 73
11
 74
0
 42
0.0000001
 43
0.0000001
 44
0.0000000001
 40
0.0
 40
0.0
 40
0.0
 40
0.0
 40
0.1273482789
 40
0.2538606571
 40
0.3795878378
 40
0.5046051156
 40
0.629017439
 40
0.7529533823
 40
0.8765605864
 40
1.0
 40
1.0
 40
1.0
 40
1.0
 10
10.0097883044
 20
7.9752225705
 30
0.0
 10
10.0097883044
 20
7.9708954867
 30
0.0
 10
10.0093751541
 20
7.9622637399
 30
0.0
 10
10.0075067495
 20
7.9494821379
 30
0.0
 10
10.0044086102
 20
7.9370216832
 30
0.0
 10
10.0001087224
 20
7.9249989109
 30
0.0
 10
9.9946465221
 20
7.9135246943
 30
0.0
 10
9.9880718378
 20
7.9027049728
 30
0.0
 10
9.9804464685
 20
7.8926411279
 30
0.0
 10
9.9747049461
 20
7.8864935486
 30
0.0
 10
9.9716882103
 20
7.8835795856
 30
0.0
  0
SPLINE
  5
34E
100
AcDbEntity
  8
0
100
AcDbSpline
 62
7
  6
CONTINUOUS
 70
0
 71
3
 72
15
 73
11
 74
0
 42
0.0000001
 43
0.0000001
 44
0.0000000001
 40
0.0
 40
0.0
 40
0.0
 40
0.0
 40
0.1273482789
 40
0.2538606571
 40
0.3795878378
 40
0.5046051156
 40
0.629017439
 40
0.7529533823
 40
0.8765605864
 40
1.0
 40
1.0
 40
1.0
 40
1.0
 10
10.0097883044
 20
5.9235959238
 30
0.0
 10
10.0097883044
 20
5.9192688401
 30
0.0
 10
10.0093751541
 20
5.9106370933
 30
0.0
 10
10.0075067495
 20
5.8978554913
 30
0.0
 10
10.0044086102
 20
5.8853950366
 30
0.0
 10
10.0001087224
 20
5.8733722643
 30
0.0
 10
9.9946465221
 20
5.8618980477
 30
0.0
 10
9.9880718378
 20
5.8510783262
 30
0.0
 10
9.9804464685
 20
5.8410144813
 30
0.0
 10
9.9747049461
 20
5.834866902
 30
0.0
 10
9.9716882103
 20
5.8319529389
 30
0.0
  0
SPLINE
  5
34F
100
AcDbEntity
  8
0
100
AcDbSpline
 62
7
  6
CONTINUOUS
 70
0
 71
3
 72
15
 73
11
 74
0
 42
0.0000001
 43
0.0000001
 44
0.0000000001
 40
0.0
 40
0.0
 40
0.0
 40
0.0
 40
0.1273482789
 40
0.2538606571
 40
0.3795878378
 40
0.5046051156
 40
0.629017439
 40
0.7529533823
 40
0.8765605864
 40
1.0
 40
1.0
 40
1.0
 40
1.0
 10
11.7600458964
 20
5.8022151476
 30
0.0
 10
11.7600458964
 20
5.7978880638
 30
0.0
 10
11.7596327461
 20
5.7892563171
 30
0.0
 10
11.7577643415
 20
5.776474715
 30
0.0
 10
11.7546662023
 20
5.7640142603
 30
0.0
 10
11.7503663144
 20
5.751991488
 30
0.0
 10
11.7449041141
 20
5.7405172714
 30
0.0
 10
11.7383294299
 20
5.7296975499
 30
0.0
 10
11.7307040605
 20
5.719633705
 30
0.0
 10
11.7249625381
 20
5.7134861257
 30
0.0
 10
11.7219458023
 20
5.7105721627
 30
0.0
  0
SPLINE
  5
350
100
AcDbEntity
  8
0
100
AcDbSpline
 62
7
  6
CONTINUOUS
 70
0
 71
3
 72
15
 73
11
 74
0
 42
0.0000001
 43
0.0000001
 44
0.0000000001
 40
0.0
 40
0.0
 40
0.0
 40
0.0
 40
0.1273482789
 40
0.2538606571
 40
0.3795878378
 40
0.5046051156
 40
0.629017439
 40
0.7529533823
 40
0.8765605864
 40
1.0
 40
1.0
 40
1.0
 40
1.0
 10
11.7600458964
 20
7.8538417942
 30
0.0
 10
11.7600458964
 20
7.8495147105
 30
0.0
 10
11.7596327461
 20
7.8408829637
 30
0.0
 10
11.7577643415
 20
7.8281013617
 30
0.0
 10
11.7546662023
 20
7.8156409069
 30
0.0
 10
11.7503663144
 20
7.8036181346
 30
0.0
 10
11.7449041141
 20
7.7921439181
 30
0.0
 10
11.7383294299
 20
7.7813241965
 30
0.0
 10
11.7307040605
 20
7.7712603516
 30
0.0
 10
11.7249625381
 20
7.7651127723
 30
0.0
 10
11.7219458023
 20
7.7621988093
 30
0.0
  0
SPLINE
  5
351
100
AcDbEntity
  8
0
100
AcDbSpline
 62
7
  6
CONTINUOUS
 70
0
 71
3
 72
47
 73
43
 74
0
 42
0.0000001
 43
0.0000001
 44
0.0000000001
 40
0.0
 40
0.0
 40
0.0
 40
0.0
 40
0.0388416626
 40
0.0769397216
 40
0.1139686346
 40
0.1497076991
 40
0.1840572016
 40
0.2170236012
 40
0.2486877447
 40
0.2791742767
 40
0.3086268804
 40
0.3371927718
 40
0.3650140956
 40
0.392223953
 40
0.418945468
 40
0.4452927714
 40
0.4713736924
 40
0.4972926643
 40
0.5231547733
 40
0.5490712724
 40
0.5751677247
 40
0.6015956389
 40
0.6285511599
 40
0.656305948
 40
0.6852583397
 40
0.7160084933
 40
0.7323147748
 40
0.7493948256
 40
0.7673286447
 40
0.7860907309
 40
0.8054732524
 40
0.8250943623
 40
0.8445451912
 40
0.8635512961
 40
0.8820087083
 40
0.8999287214
 40
0.9173747203
 40
0.9344239983
 40
0.9511503374
 40
0.9676192957
 40
0.9838875735
 40
1.0
 40
1.0
 40
1.0
 40
1.0
 10
10.8173063149
 20
7.4452020394
 30
0.0
 10
10.8122054112
 20
7.4460647549
 30
0.0
 10
10.8020198438
 20
7.4473302997
 30
0.0
 10
10.7868280594
 20
7.4478285753
 30
0.0
 10
10.7720664995
 20
7.4469491325
 30
0.0
 10
10.7579441717
 20
7.4447841536
 30
0.0
 10
10.744606163
 20
7.4414642195
 30
0.0
 10
10.7321354099
 20
7.4371355764
 30
0.0
 10
10.7205630945
 20
7.4319415977
 30
0.0
 10
10.7098839796
 20
7.4260120711
 30
0.0
 10
10.7000702989
 20
7.4194585669
 30
0.0
 10
10.6910823507
 20
7.4123740241
 30
0.0
 10
10.6828755557
 20
7.4048342572
 30
0.0
 10
10.6754047904
 20
7.396900177
 30
0.0
 10
10.6686267885
 20
7.3886200299
 30
0.0
 10
10.662501179
 20
7.3800312416
 30
0.0
 10
10.6569913014
 20
7.3711614167
 30
0.0
 10
10.6520638856
 20
7.3620292942
 30
0.0
 10
10.6476889608
 20
7.3526446941
 30
0.0
 10
10.6438396261
 20
7.3430075572
 30
0.0
 10
10.6404918018
 20
7.3331057516
 30
0.0
 10
10.6376237326
 20
7.3229109987
 30
0.0
 10
10.635215832
 20
7.3123714822
 30
0.0
 10
10.6332507313
 20
7.301399006
 30
0.0
 10
10.6317144063
 20
7.2898486117
 30
0.0
 10
10.6308044456
 20
7.2797629314
 30
0.0
 10
10.6302824015
 20
7.2712361294
 30
0.0
 10
10.6299938862
 20
7.2644064323
 30
0.0
 10
10.6298240792
 20
7.2572455953
 30
0.0
 10
10.6297858642
 20
7.2497761255
 30
0.0
 10
10.629896504
 20
7.242082541
 30
0.0
 10
10.6301749294
 20
7.2343012684
 30
0.0
 10
10.6306373144
 20
7.2265788105
 30
0.0
 10
10.6312937869
 20
7.2190258198
 30
0.0
 10
10.632149116
 20
7.2116978482
 30
0.0
 10
10.6332052502
 20
7.2046060184
 30
0.0
 10
10.6344633756
 20
7.197737727
 30
0.0
 10
10.6359247451
 20
7.1910723993
 30
0.0
 10
10.6375908156
 20
7.1845895044
 30
0.0
 10
10.6394632373
 20
7.178271523
 30
0.0
 10
10.6415435899
 20
7.172105228
 30
0.0
 10
10.6430764437
 20
7.1680726946
 30
0.0
 10
10.643877432
 20
7.166081756
 30
0.0
  0
SPLINE
  5
352
100
AcDbEntity
  8
0
100
AcDbSpline
 62
7
  6
CONTINUOUS
 70
0
 71
3
 72
31
 73
27
 74
0
 42
0.0000001
 43
0.0000001
 44
0.0000000001
 40
0.0
 40
0.0
 40
0.0
 40
0.0
 40
0.0845018904
 40
0.167301158
 40
0.2480799795
 40
0.3265304606
 40
0.4023579462
 40
0.475282401
 40
0.5450409099
 40
0.6113901015
 40
0.6432172375
 40
0.6741112302
 40
0.7040486061
 40
0.7330077048
 40
0.7609690412
 40
0.7879152504
 40
0.8138316265
 40
0.8387060317
 40
0.8625296419
 40
0.8852968756
 40
0.9070063887
 40
0.927661115
 40
0.9472695745
 40
0.9658461645
 40
0.9834128737
 40
1.0
 40
1.0
 40
1.0
 40
1.0
 10
12.0229627801
 20
9.7313013017
 30
0.0
 10
12.0300837842
 20
9.7308074584
 30
0.0
 10
12.0441740083
 20
9.729704739
 30
0.0
 10
12.0650334306
 20
9.7276827138
 30
0.0
 10
12.0853421719
 20
9.725315998
 30
0.0
 10
12.1050149327
 20
9.7226146417
 30
0.0
 10
12.1239691745
 20
9.7195901357
 30
0.0
 10
12.1421254942
 20
9.7162553534
 30
0.0
 10
12.1594077125
 20
9.7126244626
 30
0.0
 10
12.1732059377
 20
9.7093207593
 30
0.0
 10
12.1837465903
 20
9.7065319529
 30
0.0
 10
12.1912796221
 20
9.704405148
 30
0.0
 10
12.1985422365
 20
9.7022164033
 30
0.0
 10
12.2055268365
 20
9.699967981
 30
0.0
 10
12.2122261157
 20
9.6976622824
 30
0.0
 10
12.2186330697
 20
9.6953016998
 30
0.0
 10
12.2247410211
 20
9.6928887545
 30
0.0
 10
12.2305436001
 20
9.6904259298
 30
0.0
 10
12.2360347922
 20
9.6879158552
 30
0.0
 10
12.2412088942
 20
9.6853610819
 30
0.0
 10
12.2460605884
 20
9.6827643218
 30
0.0
 10
12.2505848689
 20
9.6801281581
 30
0.0
 10
12.2547771304
 20
9.6774553538
 30
0.0
 10
12.2586331226
 20
9.6747484313
 30
0.0
 10
12.2621488056
 20
9.6720102756
 30
0.0
 10
12.2643243888
 20
9.6701123601
 30
0.0
 10
12.2653501089
 20
9.6691578192
 30
0.0
  0
SPLINE
  5
353
100
AcDbEntity
  8
0
100
AcDbSpline
 62
7
  6
CONTINUOUS
 70
0
 71
3
 72
42
 73
38
 74
0
 42
0.0000001
 43
0.0000001
 44
0.0000000001
 40
0.0
 40
0.0
 40
0.0
 40
0.0
 40
0.0310747671
 40
0.0466741744
 40
0.0623120752
 40
0.0936967636
 40
0.1252253831
 40
0.1568866086
 40
0.188666231
 40
0.2205476529
 40
0.2525121971
 40
0.2845395151
 40
0.3166080013
 40
0.3486952303
 40
0.3807784043
 40
0.4128348061
 40
0.4448422504
 40
0.4767795287
 40
0.5086268395
 40
0.5403661985
 40
0.5719818222
 40
0.603460476
 40
0.6347917816
 40
0.665968474
 40
0.6969866017
 40
0.7278456627
 40
0.7585486678
 40
0.7891021282
 40
0.8195159588
 40
0.8498032991
 40
0.8649073391
 40
0.8799860234
 40
0.9100712949
 40
0.940085795
 40
0.9550764649
 40
0.9700580337
 40
1.0
 40
1.0
 40
1.0
 40
1.0
 10
11.3049611705
 20
5.9664118101
 30
0.0
 10
11.3049611705
 20
5.9709001309
 30
0.0
 10
11.3047102833
 20
5.9776449588
 30
0.0
 10
11.3038816974
 20
5.9866082696
 30
0.0
 10
11.3027206826
 20
5.9955801635
 30
0.0
 10
11.3006510347
 20
6.0067463571
 30
0.0
 10
11.2971988668
 20
6.0199747395
 30
0.0
 10
11.2927939802
 20
6.0329775414
 30
0.0
 10
11.2874607049
 20
6.0456829629
 30
0.0
 10
11.281228406
 20
6.0580213952
 30
0.0
 10
11.2741313696
 20
6.0699251033
 30
0.0
 10
11.2662086071
 20
6.0813287806
 30
0.0
 10
11.2575036423
 20
6.0921698519
 30
0.0
 10
11.2480642751
 20
6.1023888267
 30
0.0
 10
11.2379423211
 20
6.1119296182
 30
0.0
 10
11.2271933299
 20
6.1207398491
 30
0.0
 10
11.2158762834
 20
6.1287711359
 30
0.0
 10
11.2040532762
 20
6.1359793525
 30
0.0
 10
11.1917891785
 20
6.1423248706
 30
0.0
 10
11.1791512851
 20
6.1477727762
 30
0.0
 10
11.1662089511
 20
6.1522930622
 30
0.0
 10
11.1530332159
 20
6.1558607929
 30
0.0
 10
11.1396964197
 20
6.1584562429
 30
0.0
 10
11.1262718101
 20
6.160065008
 30
0.0
 10
11.1128331497
 20
6.1606780909
 30
0.0
 10
11.0994543008
 20
6.1602919504
 30
0.0
 10
11.0862088775
 20
6.1589085523
 30
0.0
 10
11.0731696408
 20
6.1565352775
 30
0.0
 10
11.0604088489
 20
6.1531852274
 30
0.0
 10
11.0500540047
 20
6.149590649
 30
0.0
 10
11.041982897
 20
6.1462477881
 30
0.0
 10
11.0340751701
 20
6.1426040744
 30
0.0
 10
11.0244870151
 20
6.1374822556
 30
0.0
 10
11.0153434374
 20
6.1316268033
 30
0.0
 10
11.008335994
 20
6.126527668
 30
0.0
 10
11.0015448014
 20
6.121161528
 30
0.0
 10
10.9966956275
 20
6.1168367017
 30
0.0
 10
10.9935850649
 20
6.1138321285
 30
0.0
  0
SPLINE
  5
354
100
AcDbEntity
  8
0
100
AcDbSpline
 62
7
  6
CONTINUOUS
 70
0
 71
3
 72
42
 73
38
 74
0
 42
0.0000001
 43
0.0000001
 44
0.0000000001
 40
0.0
 40
0.0
 40
0.0
 40
0.0
 40
0.0310747671
 40
0.0466741744
 40
0.0623120752
 40
0.0936967636
 40
0.1252253831
 40
0.1568866086
 40
0.188666231
 40
0.2205476529
 40
0.2525121971
 40
0.2845395151
 40
0.3166080013
 40
0.3486952303
 40
0.3807784043
 40
0.4128348061
 40
0.4448422504
 40
0.4767795287
 40
0.5086268395
 40
0.5403661985
 40
0.5719818222
 40
0.603460476
 40
0.6347917816
 40
0.665968474
 40
0.6969866017
 40
0.7278456627
 40
0.7585486678
 40
0.7891021282
 40
0.8195159588
 40
0.8498032991
 40
0.8649073391
 40
0.8799860234
 40
0.9100712949
 40
0.940085795
 40
0.9550764649
 40
0.9700580337
 40
1.0
 40
1.0
 40
1.0
 40
1.0
 10
10.8828515244
 20
6.5095578461
 30
0.0
 10
10.8828515244
 20
6.514046167
 30
0.0
 10
10.8826006372
 20
6.5207909949
 30
0.0
 10
10.8817720513
 20
6.5297543057
 30
0.0
 10
10.8806110365
 20
6.5387261996
 30
0.0
 10
10.8785413886
 20
6.5498923932
 30
0.0
 10
10.8750892207
 20
6.5631207755
 30
0.0
 10
10.8706843341
 20
6.5761235774
 30
0.0
 10
10.8653510588
 20
6.5888289989
 30
0.0
 10
10.8591187599
 20
6.6011674313
 30
0.0
 10
10.8520217235
 20
6.6130711393
 30
0.0
 10
10.8440989609
 20
6.6244748166
 30
0.0
 10
10.8353939961
 20
6.6353158879
 30
0.0
 10
10.825954629
 20
6.6455348627
 30
0.0
 10
10.815832675
 20
6.6550756543
 30
0.0
 10
10.8050836838
 20
6.6638858852
 30
0.0
 10
10.7937666373
 20
6.671917172
 30
0.0
 10
10.7819436301
 20
6.6791253886
 30
0.0
 10
10.7696795324
 20
6.6854709067
 30
0.0
 10
10.757041639
 20
6.6909188123
 30
0.0
 10
10.7440993049
 20
6.6954390983
 30
0.0
 10
10.7309235698
 20
6.699006829
 30
0.0
 10
10.7175867736
 20
6.7016022789
 30
0.0
 10
10.704162164
 20
6.703211044
 30
0.0
 10
10.6907235036
 20
6.703824127
 30
0.0
 10
10.6773446547
 20
6.7034379864
 30
0.0
 10
10.6640992314
 20
6.7020545884
 30
0.0
 10
10.6510599947
 20
6.6996813135
 30
0.0
 10
10.6382992028
 20
6.6963312634
 30
0.0
 10
10.6279443586
 20
6.6927366851
 30
0.0
 10
10.6198732509
 20
6.6893938242
 30
0.0
 10
10.611965524
 20
6.6857501104
 30
0.0
 10
10.602377369
 20
6.6806282917
 30
0.0
 10
10.5932337913
 20
6.6747728394
 30
0.0
 10
10.5862263479
 20
6.669673704
 30
0.0
 10
10.5794351553
 20
6.664307564
 30
0.0
 10
10.5745859814
 20
6.6599827378
 30
0.0
 10
10.5714754188
 20
6.6569781645
 30
0.0
  0
SPLINE
  5
355
100
AcDbEntity
  8
0
100
AcDbSpline
 62
7
  6
CONTINUOUS
 70
0
 71
3
 72
42
 73
38
 74
0
 42
0.0000001
 43
0.0000001
 44
0.0000000001
 40
0.0
 40
0.0
 40
0.0
 40
0.0
 40
0.0310747671
 40
0.0466741744
 40
0.0623120752
 40
0.0936967636
 40
0.1252253831
 40
0.1568866086
 40
0.188666231
 40
0.2205476529
 40
0.2525121971
 40
0.2845395151
 40
0.3166080013
 40
0.3486952303
 40
0.3807784043
 40
0.4128348061
 40
0.4448422504
 40
0.4767795287
 40
0.5086268395
 40
0.5403661985
 40
0.5719818222
 40
0.603460476
 40
0.6347917816
 40
0.665968474
 40
0.6969866017
 40
0.7278456627
 40
0.7585486678
 40
0.7891021282
 40
0.8195159588
 40
0.8498032991
 40
0.8649073391
 40
0.8799860234
 40
0.9100712949
 40
0.940085795
 40
0.9550764649
 40
0.9700580337
 40
1.0
 40
1.0
 40
1.0
 40
1.0
 10
10.309091567
 20
6.9415140454
 30
0.0
 10
10.309091567
 20
6.9460023662
 30
0.0
 10
10.3088406799
 20
6.9527471941
 30
0.0
 10
10.308012094
 20
6.9617105049
 30
0.0
 10
10.3068510792
 20
6.9706823988
 30
0.0
 10
10.3047814313
 20
6.9818485924
 30
0.0
 10
10.3013292634
 20
6.9950769748
 30
0.0
 10
10.2969243768
 20
7.0080797767
 30
0.0
 10
10.2915911015
 20
7.0207851982
 30
0.0
 10
10.2853588026
 20
7.0331236305
 30
0.0
 10
10.2782617662
 20
7.0450273386
 30
0.0
 10
10.2703390036
 20
7.0564310159
 30
0.0
 10
10.2616340388
 20
7.0672720872
 30
0.0
 10
10.2521946717
 20
7.077491062
 30
0.0
 10
10.2420727177
 20
7.0870318535
 30
0.0
 10
10.2313237265
 20
7.0958420844
 30
0.0
 10
10.22000668
 20
7.1038733712
 30
0.0
 10
10.2081836728
 20
7.1110815878
 30
0.0
 10
10.1959195751
 20
7.1174271059
 30
0.0
 10
10.1832816817
 20
7.1228750115
 30
0.0
 10
10.1703393476
 20
7.1273952975
 30
0.0
 10
10.1571636125
 20
7.1309630282
 30
0.0
 10
10.1438268163
 20
7.1335584782
 30
0.0
 10
10.1304022067
 20
7.1351672433
 30
0.0
 10
10.1169635463
 20
7.1357803263
 30
0.0
 10
10.1035846974
 20
7.1353941857
 30
0.0
 10
10.0903392741
 20
7.1340107876
 30
0.0
 10
10.0773000374
 20
7.1316375128
 30
0.0
 10
10.0645392455
 20
7.1282874627
 30
0.0
 10
10.0541844013
 20
7.1246928843
 30
0.0
 10
10.0461132936
 20
7.1213500234
 30
0.0
 10
10.0382055667
 20
7.1177063097
 30
0.0
 10
10.0286174117
 20
7.1125844909
 30
0.0
 10
10.019473834
 20
7.1067290386
 30
0.0
 10
10.0124663906
 20
7.1016299033
 30
0.0
 10
10.005675198
 20
7.0962637633
 30
0.0
 10
10.000826024
 20
7.091938937
 30
0.0
 10
9.9977154615
 20
7.0889343638
 30
0.0
  0
SPLINE
  5
356
100
AcDbEntity
  8
0
100
AcDbSpline
 62
7
  6
CONTINUOUS
 70
0
 71
3
 72
18
 73
14
 74
0
 42
0.0000001
 43
0.0000001
 44
0.0000000001
 40
0.0
 40
0.0
 40
0.0
 40
0.0
 40
0.0548620934
 40
0.1099281175
 40
0.1653995415
 40
0.2214731583
 40
0.2783387419
 40
0.3361775034
 40
0.4554063124
 40
0.5804415574
 40
0.7123342032
 40
0.8519579354
 40
1.0
 40
1.0
 40
1.0
 40
1.0
 10
11.386833914
 20
9.5722481745
 30
0.0
 10
11.3868339162
 20
9.5714855393
 30
0.0
 10
11.3867855124
 20
9.5699569959
 30
0.0
 10
11.3865678839
 20
9.5676666664
 30
0.0
 10
11.3862052733
 20
9.5653776572
 30
0.0
 10
11.385697803
 20
9.563090805
 30
0.0
 10
11.3850456834
 20
9.5608066831
 30
0.0
 10
11.3839730802
 20
9.5577351531
 30
0.0
 10
11.3822547801
 20
9.5538934939
 30
0.0
 10
11.3796394174
 20
9.5493564765
 30
0.0
 10
11.3764540371
 20
9.5448488234
 30
0.0
 10
11.3727034867
 20
9.540375067
 30
0.0
 10
11.3699140645
 20
9.537504606
 30
0.0
 10
11.3684338923
 20
9.5360748694
 30
0.0
  0
SPLINE
  5
357
100
AcDbEntity
  8
0
100
AcDbSpline
 62
7
  6
CONTINUOUS
 70
0
 71
3
 72
18
 73
14
 74
0
 42
0.0000001
 43
0.0000001
 44
0.0000000001
 40
0.0
 40
0.0
 40
0.0
 40
0.0
 40
0.0548626221
 40
0.1099291996
 40
0.1654012684
 40
0.2214754896
 40
0.3361336267
 40
0.4553633642
 40
0.5171046005
 40
0.5804361693
 40
0.7123314363
 40
0.8519591016
 40
1.0
 40
1.0
 40
1.0
 40
1.0
 10
9.6901049831
 20
9.4352120663
 30
0.0
 10
9.6901049803
 20
9.4357416706
 30
0.0
 10
9.6901385828
 20
9.4368031542
 30
0.0
 10
9.6902897264
 20
9.4383936428
 30
0.0
 10
9.6905415839
 20
9.439983247
 30
0.0
 10
9.6910148163
 20
9.4421161508
 30
0.0
 10
9.6918674205
 20
9.4447893959
 30
0.0
 10
9.6930350778
 20
9.4473995478
 30
0.0
 10
9.6941586618
 20
9.4494738941
 30
0.0
 10
9.6954452149
 20
9.4515957893
 30
0.0
 10
9.6973133183
 20
9.4542393909
 30
0.0
 10
9.6999178006
 20
9.4573460103
 30
0.0
 10
9.7018548933
 20
9.4593394131
 30
0.0
 10
9.7028827658
 20
9.4603322617
 30
0.0
  0
SPLINE
  5
358
100
AcDbEntity
  8
0
100
AcDbSpline
 62
7
  6
CONTINUOUS
 70
0
 71
3
 72
30
 73
26
 74
0
 42
0.0000001
 43
0.0000001
 44
0.0000000001
 40
0.0
 40
0.0
 40
0.0
 40
0.0
 40
0.0174804817
 40
0.0358476709
 40
0.0551253167
 40
0.0753327529
 40
0.0964847346
 40
0.1185906453
 40
0.1416559559
 40
0.1656826608
 40
0.1906697932
 40
0.2166137902
 40
0.2435083991
 40
0.2713455161
 40
0.3001147148
 40
0.3298041322
 40
0.39188505
 40
0.4574637584
 40
0.5263924672
 40
0.5985052409
 40
0.6736201662
 40
0.7515411845
 40
0.8320596717
 40
0.914955837
 40
1.0
 40
1.0
 40
1.0
 40
1.0
 10
10.0328794594
 20
9.778012866
 30
0.0
 10
10.0337569147
 20
9.7788293872
 30
0.0
 10
10.0356026824
 20
9.7804545593
 30
0.0
 10
10.0385584795
 20
9.7828124726
 30
0.0
 10
10.0417663997
 20
9.7851478912
 30
0.0
 10
10.0452238093
 20
9.7874590595
 30
0.0
 10
10.0489281996
 20
9.7897442806
 30
0.0
 10
10.0528767489
 20
9.7920019161
 30
0.0
 10
10.0570664726
 20
9.7942302039
 30
0.0
 10
10.0614941575
 20
9.7964274544
 30
0.0
 10
10.0661564155
 20
9.7985919968
 30
0.0
 10
10.0710496823
 20
9.8007221369
 30
0.0
 10
10.0761701882
 20
9.8028162812
 30
0.0
 10
10.0815140039
 20
9.8048727416
 30
0.0
 10
10.0870770048
 20
9.8068900116
 30
0.0
 10
10.0948976422
 20
9.809565123
 30
0.0
 10
10.1051956962
 20
9.8127899651
 30
0.0
 10
10.1181780525
 20
9.816424089
 30
0.0
 10
10.1319226418
 20
9.8198665148
 30
0.0
 10
10.1463869773
 20
9.8231064719
 30
0.0
 10
10.1615264601
 20
9.8261338089
 30
0.0
 10
10.1772942846
 20
9.8289390456
 30
0.0
 10
10.1936416935
 20
9.8315134017
 30
0.0
 10
10.2105180208
 20
9.8338488129
 30
0.0
 10
10.2219514192
 20
9.835225305
 30
0.0
 10
10.2277465115
 20
9.8358739866
 30
0.0
  0
SPLINE
  5
359
100
AcDbEntity
  8
0
100
AcDbSpline
 62
7
  6
CONTINUOUS
 70
0
 71
3
 72
18
 73
14
 74
0
 42
0.0000001
 43
0.0000001
 44
0.0000000001
 40
0.0
 40
0.0
 40
0.0
 40
0.0
 40
0.1492375281
 40
0.289655037
 40
0.421961834
 40
0.4853619434
 40
0.5470838486
 40
0.6660306073
 40
0.780131264
 40
0.8358489547
 40
0.8909261061
 40
0.94557164
 40
1.0
 40
1.0
 40
1.0
 40
1.0
 10
12.295216514
 20
9.6413640032
 30
0.0
 10
12.2963180076
 20
9.6403389409
 30
0.0
 10
12.298393861
 20
9.6382808115
 30
0.0
 10
12.3011885788
 20
9.6350677756
 30
0.0
 10
12.3031949974
 20
9.6323304783
 30
0.0
 10
12.304576909
 20
9.6301323167
 30
0.0
 10
12.3057822097
 20
9.6279859419
 30
0.0
 10
12.3070354192
 20
9.6252843209
 30
0.0
 10
12.3079517993
 20
9.6225129036
 30
0.0
 10
12.3084602463
 20
9.6203018383
 30
0.0
 10
12.3087307001
 20
9.618654667
 30
0.0
 10
12.3088929867
 20
9.6170065007
 30
0.0
 10
12.308929088
 20
9.6159064339
 30
0.0
 10
12.308929091
 20
9.6153576652
 30
0.0
  0
SPLINE
  5
35A
100
AcDbEntity
  8
0
100
AcDbSpline
 62
7
  6
CONTINUOUS
 70
0
 71
3
 72
41
 73
37
 74
0
 42
0.0000001
 43
0.0000001
 44
0.0000000001
 40
0.0
 40
0.0
 40
0.0
 40
0.0
 40
0.029942123
 40
0.0449237706
 40
0.0599145177
 40
0.0899291716
 40
0.1200145961
 40
0.1350933574
 40
0.1501974726
 40
0.1804849654
 40
0.2108989488
 40
0.2414525624
 40
0.2721557217
 40
0.3030149378
 40
0.3340332219
 40
0.3652100719
 40
0.3965415365
 40
0.4280203507
 40
0.4596361361
 40
0.4913756582
 40
0.5232231336
 40
0.5551605782
 40
0.5871681905
 40
0.6192247616
 40
0.6513081064
 40
0.6833955071
 40
0.7154641657
 40
0.7474916563
 40
0.7794563734
 40
0.811337967
 40
0.843117763
 40
0.8747791516
 40
0.9063079641
 40
0.9376927517
 40
0.9689251728
 40
1.0
 40
1.0
 40
1.0
 40
1.0
 10
9.7764632252
 20
8.0856889551
 30
0.0
 10
9.7787940719
 20
8.0879403955
 30
0.0
 10
9.7824277024
 20
8.0911811684
 30
0.0
 10
9.7875165459
 20
8.095202253
 30
0.0
 10
9.7927674562
 20
8.0990232337
 30
0.0
 10
9.7996190276
 20
8.1034109798
 30
0.0
 10
9.8068037459
 20
8.107248984
 30
0.0
 10
9.8127292702
 20
8.1099793748
 30
0.0
 10
9.818777217
 20
8.11248434
 30
0.0
 10
9.8265364517
 20
8.1151779233
 30
0.0
 10
9.8360985472
 20
8.1176882851
 30
0.0
 10
9.8458692962
 20
8.1194667115
 30
0.0
 10
9.8557945518
 20
8.1205033867
 30
0.0
 10
9.8658197917
 20
8.1207927793
 30
0.0
 10
9.8758898536
 20
8.120333416
 30
0.0
 10
9.8859493897
 20
8.1191279504
 30
0.0
 10
9.8959431267
 20
8.1171831244
 30
0.0
 10
9.9058161772
 20
8.1145097317
 30
0.0
 10
9.915514334
 20
8.1111225535
 30
0.0
 10
9.9249843646
 20
8.107040275
 30
0.0
 10
9.9341742987
 20
8.1022853819
 30
0.0
 10
9.9430337097
 20
8.096884036
 30
0.0
 10
9.9515139875
 20
8.090865932
 30
0.0
 10
9.9595686022
 20
8.0842641348
 30
0.0
 10
9.9671533559
 20
8.0771148998
 30
0.0
 10
9.9742266229
 20
8.0694574753
 30
0.0
 10
9.9807495755
 20
8.061333889
 30
0.0
 10
9.9866863954
 20
8.05278872
 30
0.0
 10
9.992004468
 20
8.0438688568
 30
0.0
 10
9.9966745607
 20
8.0346232416
 30
0.0
 10
10.0006709815
 20
8.0251026113
 30
0.0
 10
10.0039717229
 20
8.0153591992
 30
0.0
 10
10.0065585757
 20
8.0054465398
 30
0.0
 10
10.0084172445
 20
7.995418854
 30
0.0
 10
10.0095374064
 20
7.9853319523
 30
0.0
 10
10.0097883044
 20
7.9785858164
 30
0.0
 10
10.0097883044
 20
7.9752225705
 30
0.0
  0
SPLINE
  5
35B
100
AcDbEntity
  8
0
100
AcDbSpline
 62
7
  6
CONTINUOUS
 70
0
 71
3
 72
41
 73
37
 74
0
 42
0.0000001
 43
0.0000001
 44
0.0000000001
 40
0.0
 40
0.0
 40
0.0
 40
0.0
 40
0.029942123
 40
0.0449237706
 40
0.0599145177
 40
0.0899291716
 40
0.1200145961
 40
0.1350933574
 40
0.1501974726
 40
0.1804849654
 40
0.2108989488
 40
0.2414525624
 40
0.2721557217
 40
0.3030149378
 40
0.3340332219
 40
0.3652100719
 40
0.3965415365
 40
0.4280203507
 40
0.4596361361
 40
0.4913756582
 40
0.5232231336
 40
0.5551605782
 40
0.5871681905
 40
0.6192247616
 40
0.6513081064
 40
0.6833955071
 40
0.7154641657
 40
0.7474916563
 40
0.7794563734
 40
0.811337967
 40
0.843117763
 40
0.8747791516
 40
0.9063079641
 40
0.9376927517
 40
0.9689251728
 40
1.0
 40
1.0
 40
1.0
 40
1.0
 10
9.7764632252
 20
6.0340623084
 30
0.0
 10
9.7787940719
 20
6.0363137489
 30
0.0
 10
9.7824277024
 20
6.0395545218
 30
0.0
 10
9.7875165459
 20
6.0435756064
 30
0.0
 10
9.7927674562
 20
6.0473965871
 30
0.0
 10
9.7996190276
 20
6.0517843332
 30
0.0
 10
9.8068037459
 20
6.0556223374
 30
0.0
 10
9.8127292702
 20
6.0583527282
 30
0.0
 10
9.818777217
 20
6.0608576933
 30
0.0
 10
9.8265364517
 20
6.0635512767
 30
0.0
 10
9.8360985472
 20
6.0660616385
 30
0.0
 10
9.8458692962
 20
6.0678400649
 30
0.0
 10
9.8557945518
 20
6.0688767401
 30
0.0
 10
9.8658197917
 20
6.0691661327
 30
0.0
 10
9.8758898536
 20
6.0687067694
 30
0.0
 10
9.8859493897
 20
6.0675013037
 30
0.0
 10
9.8959431267
 20
6.0655564778
 30
0.0
 10
9.9058161772
 20
6.0628830851
 30
0.0
 10
9.915514334
 20
6.0594959068
 30
0.0
 10
9.9249843646
 20
6.0554136284
 30
0.0
 10
9.9341742987
 20
6.0506587353
 30
0.0
 10
9.9430337097
 20
6.0452573894
 30
0.0
 10
9.9515139875
 20
6.0392392854
 30
0.0
 10
9.9595686022
 20
6.0326374882
 30
0.0
 10
9.9671533559
 20
6.0254882532
 30
0.0
 10
9.9742266229
 20
6.0178308287
 30
0.0
 10
9.9807495755
 20
6.0097072424
 30
0.0
 10
9.9866863954
 20
6.0011620734
 30
0.0
 10
9.992004468
 20
5.9922422102
 30
0.0
 10
9.9966745607
 20
5.982996595
 30
0.0
 10
10.0006709815
 20
5.9734759647
 30
0.0
 10
10.0039717229
 20
5.9637325526
 30
0.0
 10
10.0065585757
 20
5.9538198932
 30
0.0
 10
10.0084172445
 20
5.9437922073
 30
0.0
 10
10.0095374064
 20
5.9337053057
 30
0.0
 10
10.0097883044
 20
5.9269591698
 30
0.0
 10
10.0097883044
 20
5.9235959238
 30
0.0
  0
SPLINE
  5
35C
100
AcDbEntity
  8
0
100
AcDbSpline
 62
7
  6
CONTINUOUS
 70
0
 71
3
 72
41
 73
37
 74
0
 42
0.0000001
 43
0.0000001
 44
0.0000000001
 40
0.0
 40
0.0
 40
0.0
 40
0.0
 40
0.029942123
 40
0.0449237706
 40
0.0599145177
 40
0.0899291716
 40
0.1200145961
 40
0.1350933574
 40
0.1501974726
 40
0.1804849654
 40
0.2108989488
 40
0.2414525624
 40
0.2721557217
 40
0.3030149378
 40
0.3340332219
 40
0.3652100719
 40
0.3965415365
 40
0.4280203507
 40
0.4596361361
 40
0.4913756582
 40
0.5232231336
 40
0.5551605782
 40
0.5871681905
 40
0.6192247616
 40
0.6513081064
 40
0.6833955071
 40
0.7154641657
 40
0.7474916563
 40
0.7794563734
 40
0.811337967
 40
0.843117763
 40
0.8747791516
 40
0.9063079641
 40
0.9376927517
 40
0.9689251728
 40
1.0
 40
1.0
 40
1.0
 40
1.0
 10
11.5267208172
 20
5.9126815322
 30
0.0
 10
11.5290516639
 20
5.9149329726
 30
0.0
 10
11.5326852944
 20
5.9181737455
 30
0.0
 10
11.5377741379
 20
5.9221948301
 30
0.0
 10
11.5430250482
 20
5.9260158108
 30
0.0
 10
11.5498766197
 20
5.9304035569
 30
0.0
 10
11.5570613379
 20
5.9342415611
 30
0.0
 10
11.5629868623
 20
5.9369719519
 30
0.0
 10
11.5690348091
 20
5.9394769171
 30
0.0
 10
11.5767940437
 20
5.9421705005
 30
0.0
 10
11.5863561392
 20
5.9446808622
 30
0.0
 10
11.5961268882
 20
5.9464592886
 30
0.0
 10
11.6060521438
 20
5.9474959638
 30
0.0
 10
11.6160773837
 20
5.9477853564
 30
0.0
 10
11.6261474456
 20
5.9473259931
 30
0.0
 10
11.6362069817
 20
5.9461205275
 30
0.0
 10
11.6462007187
 20
5.9441757015
 30
0.0
 10
11.6560737692
 20
5.9415023089
 30
0.0
 10
11.665771926
 20
5.9381151306
 30
0.0
 10
11.6752419566
 20
5.9340328521
 30
0.0
 10
11.6844318907
 20
5.929277959
 30
0.0
 10
11.6932913017
 20
5.9238766131
 30
0.0
 10
11.7017715795
 20
5.9178585091
 30
0.0
 10
11.7098261942
 20
5.9112567119
 30
0.0
 10
11.7174109479
 20
5.9041074769
 30
0.0
 10
11.7244842149
 20
5.8964500524
 30
0.0
 10
11.7310071676
 20
5.8883264662
 30
0.0
 10
11.7369439874
 20
5.8797812971
 30
0.0
 10
11.74226206
 20
5.8708614339
 30
0.0
 10
11.7469321527
 20
5.8616158187
 30
0.0
 10
11.7509285735
 20
5.8520951884
 30
0.0
 10
11.7542293149
 20
5.8423517763
 30
0.0
 10
11.7568161678
 20
5.8324391169
 30
0.0
 10
11.7586748366
 20
5.8224114311
 30
0.0
 10
11.7597949984
 20
5.8123245294
 30
0.0
 10
11.7600458964
 20
5.8055783935
 30
0.0
 10
11.7600458964
 20
5.8022151476
 30
0.0
  0
SPLINE
  5
35D
100
AcDbEntity
  8
0
100
AcDbSpline
 62
7
  6
CONTINUOUS
 70
0
 71
3
 72
41
 73
37
 74
0
 42
0.0000001
 43
0.0000001
 44
0.0000000001
 40
0.0
 40
0.0
 40
0.0
 40
0.0
 40
0.029942123
 40
0.0449237706
 40
0.0599145177
 40
0.0899291716
 40
0.1200145961
 40
0.1350933574
 40
0.1501974726
 40
0.1804849654
 40
0.2108989488
 40
0.2414525624
 40
0.2721557217
 40
0.3030149378
 40
0.3340332219
 40
0.3652100719
 40
0.3965415365
 40
0.4280203507
 40
0.4596361361
 40
0.4913756582
 40
0.5232231336
 40
0.5551605782
 40
0.5871681905
 40
0.6192247616
 40
0.6513081064
 40
0.6833955071
 40
0.7154641657
 40
0.7474916563
 40
0.7794563734
 40
0.811337967
 40
0.843117763
 40
0.8747791516
 40
0.9063079641
 40
0.9376927517
 40
0.9689251728
 40
1.0
 40
1.0
 40
1.0
 40
1.0
 10
11.5267208172
 20
7.9643081788
 30
0.0
 10
11.5290516639
 20
7.9665596192
 30
0.0
 10
11.5326852944
 20
7.9698003921
 30
0.0
 10
11.5377741379
 20
7.9738214767
 30
0.0
 10
11.5430250482
 20
7.9776424574
 30
0.0
 10
11.5498766197
 20
7.9820302036
 30
0.0
 10
11.5570613379
 20
7.9858682077
 30
0.0
 10
11.5629868623
 20
7.9885985985
 30
0.0
 10
11.5690348091
 20
7.9911035637
 30
0.0
 10
11.5767940437
 20
7.9937971471
 30
0.0
 10
11.5863561392
 20
7.9963075088
 30
0.0
 10
11.5961268882
 20
7.9980859352
 30
0.0
 10
11.6060521438
 20
7.9991226104
 30
0.0
 10
11.6160773837
 20
7.999412003
 30
0.0
 10
11.6261474456
 20
7.9989526397
 30
0.0
 10
11.6362069817
 20
7.9977471741
 30
0.0
 10
11.6462007187
 20
7.9958023481
 30
0.0
 10
11.6560737692
 20
7.9931289555
 30
0.0
 10
11.665771926
 20
7.9897417772
 30
0.0
 10
11.6752419566
 20
7.9856594987
 30
0.0
 10
11.6844318907
 20
7.9809046056
 30
0.0
 10
11.6932913017
 20
7.9755032598
 30
0.0
 10
11.7017715795
 20
7.9694851557
 30
0.0
 10
11.7098261942
 20
7.9628833585
 30
0.0
 10
11.7174109479
 20
7.9557341235
 30
0.0
 10
11.7244842149
 20
7.948076699
 30
0.0
 10
11.7310071676
 20
7.9399531128
 30
0.0
 10
11.7369439874
 20
7.9314079437
 30
0.0
 10
11.74226206
 20
7.9224880805
 30
0.0
 10
11.7469321527
 20
7.9132424653
 30
0.0
 10
11.7509285735
 20
7.903721835
 30
0.0
 10
11.7542293149
 20
7.8939784229
 30
0.0
 10
11.7568161678
 20
7.8840657635
 30
0.0
 10
11.7586748366
 20
7.8740380777
 30
0.0
 10
11.7597949984
 20
7.863951176
 30
0.0
 10
11.7600458964
 20
7.8572050401
 30
0.0
 10
11.7600458964
 20
7.8538417942
 30
0.0
  0
SPLINE
  5
35E
100
AcDbEntity
  8
0
100
AcDbSpline
 62
7
  6
CONTINUOUS
 70
0
 71
3
 72
21
 73
17
 74
0
 42
0.0000001
 43
0.0000001
 44
0.0000000001
 40
0.0
 40
0.0
 40
0.0
 40
0.0
 40
0.0617147806
 40
0.1234506635
 40
0.1852285505
 40
0.2470689066
 40
0.3089915473
 40
0.3710154718
 40
0.4331586569
 40
0.4954378562
 40
0.5578685009
 40
0.620464496
 40
0.6832380525
 40
0.7462000245
 40
0.8726823634
 40
1.0
 40
1.0
 40
1.0
 40
1.0
 10
10.8320054236
 20
6.387257723
 30
0.0
 10
10.8340187145
 20
6.389202413
 30
0.0
 10
10.837946625
 20
6.3931968606
 30
0.0
 10
10.8435236147
 20
6.3994847021
 30
0.0
 10
10.8487739932
 20
6.4060553038
 30
0.0
 10
10.8536854056
 20
6.4128933336
 30
0.0
 10
10.8582466119
 20
6.4199830487
 30
0.0
 10
10.862447106
 20
6.4273080679
 30
0.0
 10
10.8662771765
 20
6.4348515203
 30
0.0
 10
10.8697280131
 20
6.4425959918
 30
0.0
 10
10.8727917061
 20
6.4505236225
 30
0.0
 10
10.8754611693
 20
6.4586160832
 30
0.0
 10
10.8777302862
 20
6.4668549346
 30
0.0
 10
10.8802184995
 20
6.4780247387
 30
0.0
 10
10.8823002989
 20
6.4922644441
 30
0.0
 10
10.8828515244
 20
6.5037832278
 30
0.0
 10
10.8828515244
 20
6.5095578461
 30
0.0
  0
SPLINE
  5
35F
100
AcDbEntity
  8
0
100
AcDbSpline
 62
7
  6
CONTINUOUS
 70
0
 71
3
 72
21
 73
17
 74
0
 42
0.0000001
 43
0.0000001
 44
0.0000000001
 40
0.0
 40
0.0
 40
0.0
 40
0.0
 40
0.0617147806
 40
0.1234506635
 40
0.1852285505
 40
0.2470689066
 40
0.3089915473
 40
0.3710154718
 40
0.4331586569
 40
0.4954378562
 40
0.5578685009
 40
0.620464496
 40
0.6832380525
 40
0.7462000245
 40
0.8726823634
 40
1.0
 40
1.0
 40
1.0
 40
1.0
 10
11.2541150697
 20
5.844111687
 30
0.0
 10
11.2561283606
 20
5.8460563769
 30
0.0
 10
11.2600562711
 20
5.8500508246
 30
0.0
 10
11.2656332608
 20
5.8563386661
 30
0.0
 10
11.2708836393
 20
5.8629092677
 30
0.0
 10
11.2757950517
 20
5.8697472976
 30
0.0
 10
11.280356258
 20
5.8768370126
 30
0.0
 10
11.2845567521
 20
5.8841620318
 30
0.0
 10
11.2883868226
 20
5.8917054842
 30
0.0
 10
11.2918376592
 20
5.8994499558
 30
0.0
 10
11.2949013522
 20
5.9073775864
 30
0.0
 10
11.2975708155
 20
5.9154700471
 30
0.0
 10
11.2998399323
 20
5.9237088986
 30
0.0
 10
11.3023281456
 20
5.9348787027
 30
0.0
 10
11.304409945
 20
5.949118408
 30
0.0
 10
11.3049611705
 20
5.9606371917
 30
0.0
 10
11.3049611705
 20
5.9664118101
 30
0.0
  0
SPLINE
  5
360
100
AcDbEntity
  8
0
100
AcDbSpline
 62
7
  6
CONTINUOUS
 70
0
 71
3
 72
21
 73
17
 74
0
 42
0.0000001
 43
0.0000001
 44
0.0000000001
 40
0.0
 40
0.0
 40
0.0
 40
0.0
 40
0.0617147806
 40
0.1234506635
 40
0.1852285505
 40
0.2470689066
 40
0.3089915473
 40
0.3710154718
 40
0.4331586569
 40
0.4954378562
 40
0.5578685009
 40
0.620464496
 40
0.6832380525
 40
0.7462000245
 40
0.8726823634
 40
1.0
 40
1.0
 40
1.0
 40
1.0
 10
10.2582454663
 20
6.8192139223
 30
0.0
 10
10.2602587572
 20
6.8211586122
 30
0.0
 10
10.2641866676
 20
6.8251530599
 30
0.0
 10
10.2697636574
 20
6.8314409014
 30
0.0
 10
10.2750140359
 20
6.838011503
 30
0.0
 10
10.2799254483
 20
6.8448495329
 30
0.0
 10
10.2844866546
 20
6.8519392479
 30
0.0
 10
10.2886871487
 20
6.8592642671
 30
0.0
 10
10.2925172192
 20
6.8668077196
 30
0.0
 10
10.2959680557
 20
6.8745521911
 30
0.0
 10
10.2990317488
 20
6.8824798217
 30
0.0
 10
10.301701212
 20
6.8905722824
 30
0.0
 10
10.3039703288
 20
6.8988111339
 30
0.0
 10
10.3064585421
 20
6.909980938
 30
0.0
 10
10.3085403416
 20
6.9242206434
 30
0.0
 10
10.309091567
 20
6.935739427
 30
0.0
 10
10.309091567
 20
6.9415140454
 30
0.0
  0
SPLINE
  5
361
100
AcDbEntity
  8
0
100
AcDbSpline
 62
7
  6
CONTINUOUS
 70
0
 71
3
 72
14
 73
10
 74
0
 42
0.0000001
 43
0.0000001
 44
0.0000000001
 40
0.0
 40
0.0
 40
0.0
 40
0.0
 40
0.248124953
 40
0.3735190969
 40
0.4993653852
 40
0.6253242415
 40
0.7510276496
 40
0.8760716376
 40
1.0
 40
1.0
 40
1.0
 40
1.0
 10
10.7066258898
 20
7.2094034908
 30
0.0
 10
10.7107634273
 20
7.2022660491
 30
0.0
 10
10.7175149745
 20
7.1918147452
 30
0.0
 10
10.727428258
 20
7.1784915735
 30
0.0
 10
10.7353390124
 20
7.1687542953
 30
0.0
 10
10.7436469464
 20
7.1593410499
 30
0.0
 10
10.752296332
 20
7.1502776134
 30
0.0
 10
10.7612234281
 20
7.1415848566
 30
0.0
 10
10.7673472661
 20
7.1360122843
 30
0.0
 10
10.7704360162
 20
7.1332849364
 30
0.0
  0
SPLINE
  5
362
100
AcDbEntity
  8
0
100
AcDbSpline
 62
7
  6
CONTINUOUS
 70
0
 71
3
 72
38
 73
34
 74
0
 42
0.0000001
 43
0.0000001
 44
0.0000000001
 40
0.0
 40
0.0
 40
0.0
 40
0.0
 40
0.0273316606
 40
0.0544314638
 40
0.0679150188
 40
0.0813676831
 40
0.0948019665
 40
0.1082316063
 40
0.1351358316
 40
0.1622256709
 40
0.1896694358
 40
0.2176502665
 40
0.2463439591
 40
0.2758837444
 40
0.3063223847
 40
0.3376122182
 40
0.369619636
 40
0.4021681685
 40
0.4350840761
 40
0.4682249806
 40
0.5014875941
 40
0.5348041301
 40
0.5681340276
 40
0.6014536514
 40
0.6347519076
 40
0.6680253071
 40
0.7344954532
 40
0.8008942149
 40
0.834079503
 40
0.8672596489
 40
0.900438756
 40
0.9336205261
 40
1.0
 40
1.0
 40
1.0
 40
1.0
 10
10.7286022091
 20
7.2350882317
 30
0.0
 10
10.7269693
 20
7.236377066
 30
0.0
 10
10.7237681099
 20
7.2390090388
 30
0.0
 10
10.719924685
 20
7.2424687115
 30
0.0
 10
10.7169725046
 20
7.2453327793
 30
0.0
 10
10.7148242404
 20
7.247530187
 30
0.0
 10
10.7127407792
 20
7.2497836343
 30
0.0
 10
10.7100518216
 20
7.2528692535
 30
0.0
 10
10.7068626781
 20
7.2568947679
 30
0.0
 10
10.7033562625
 20
7.2620125518
 30
0.0
 10
10.7002088967
 20
7.2674550016
 30
0.0
 10
10.6974691893
 20
7.273250175
 30
0.0
 10
10.6951895447
 20
7.2794125756
 30
0.0
 10
10.6934186246
 20
7.2859343124
 30
0.0
 10
10.6921903949
 20
7.2927800987
 30
0.0
 10
10.6915144674
 20
7.2998899402
 30
0.0
 10
10.6913729579
 20
7.3071897294
 30
0.0
 10
10.6917256999
 20
7.3146049403
 30
0.0
 10
10.6925201441
 20
7.3220715256
 30
0.0
 10
10.6937011119
 20
7.3295409369
 30
0.0
 10
10.6952174006
 20
7.336980009
 30
0.0
 10
10.6970248681
 20
7.344368069
 30
0.0
 10
10.6990875913
 20
7.351693129
 30
0.0
 10
10.7013765213
 20
7.3589489593
 30
0.0
 10
10.703868525
 20
7.3661328785
 30
0.0
 10
10.7074374967
 20
7.375610139
 30
0.0
 10
10.7123265392
 20
7.3872775205
 30
0.0
 10
10.717723223
 20
7.3987105025
 30
0.0
 10
10.7223202228
 20
7.4077098813
 30
0.0
 10
10.7259037837
 20
7.4143859349
 30
0.0
 10
10.7296214611
 20
7.4209879538
 30
0.0
 10
10.7347537629
 20
7.4296908905
 30
0.0
 10
10.7387984159
 20
7.4361021616
 30
0.0
 10
10.741579758
 20
7.4403199168
 30
0.0
  0
SPLINE
  5
363
100
AcDbEntity
  8
0
100
AcDbSpline
 62
7
  6
CONTINUOUS
 70
0
 71
3
 72
40
 73
36
 74
0
 42
0.0000001
 43
0.0000001
 44
0.0000000001
 40
0.0
 40
0.0
 40
0.0
 40
0.0
 40
0.0958313936
 40
0.1891002636
 40
0.2345968559
 40
0.2792418231
 40
0.3229685191
 40
0.3657121987
 40
0.4074103657
 40
0.4480029213
 40
0.4874324913
 40
0.5256446262
 40
0.5625879545
 40
0.5982146421
 40
0.632480706
 40
0.6653462654
 40
0.6967761768
 40
0.726740613
 40
0.7552155871
 40
0.7821839784
 40
0.8076366943
 40
0.8315738914
 40
0.8540069425
 40
0.8749609194
 40
0.8944774765
 40
0.9126189061
 40
0.9294731629
 40
0.9451593854
 40
0.9598338584
 40
0.9668558876
 40
0.9737029112
 40
0.9804063068
 40
0.9869997133
 40
0.9935186461
 40
1.0
 40
1.0
 40
1.0
 40
1.0
 10
9.9680479103
 20
8.405479957
 30
0.0
 10
9.9582806194
 20
8.406157321
 30
0.0
 10
9.9390213725
 20
8.4077087809
 30
0.0
 10
9.9151804001
 20
8.4101967188
 30
0.0
 10
9.8965830554
 20
8.4124951647
 30
0.0
 10
9.8830321027
 20
8.4143496104
 30
0.0
 10
9.8697856456
 20
8.4163457225
 30
0.0
 10
9.8568657898
 20
8.4184801615
 30
0.0
 10
9.8442941281
 20
8.4207493253
 30
0.0
 10
9.8320916632
 20
8.4231494174
 30
0.0
 10
9.8202787671
 20
8.425676394
 30
0.0
 10
9.808875152
 20
8.4283259936
 30
0.0
 10
9.797899843
 20
8.4310937783
 30
0.0
 10
9.7873711297
 20
8.4339750897
 30
0.0
 10
9.777306535
 20
8.4369650686
 30
0.0
 10
9.7677227964
 20
8.4400587097
 30
0.0
 10
9.7586358166
 20
8.4432508231
 30
0.0
 10
9.750060627
 20
8.4465360447
 30
0.0
 10
9.742011378
 20
8.449908909
 30
0.0
 10
9.7345012889
 20
8.4533638263
 30
0.0
 10
9.7275426024
 20
8.4568950905
 30
0.0
 10
9.7211465904
 20
8.4604969878
 30
0.0
 10
9.7153235163
 20
8.4641638185
 30
0.0
 10
9.7100826018
 20
8.4678899242
 30
0.0
 10
9.7054321022
 20
8.4716699055
 30
0.0
 10
9.7013794369
 20
8.4754986164
 30
0.0
 10
9.6979312397
 20
8.4793715503
 30
0.0
 10
9.6950942164
 20
8.4832837993
 30
0.0
 10
9.6932177158
 20
8.4866226812
 30
0.0
 10
9.6920479444
 20
8.4892961226
 30
0.0
 10
9.6913397278
 20
8.4912769355
 30
0.0
 10
9.6907883639
 20
8.4932616482
 30
0.0
 10
9.6903941992
 20
8.4952494475
 30
0.0
 10
9.6901576144
 20
8.4972391875
 30
0.0
 10
9.6901049797
 20
8.4985679728
 30
0.0
 10
9.6901049831
 20
8.4992301495
 30
0.0
  0
SPLINE
  5
364
100
AcDbEntity
  8
0
100
AcDbSpline
 62
7
  6
CONTINUOUS
 70
0
 71
3
 72
41
 73
37
 74
0
 42
0.0000001
 43
0.0000001
 44
0.0000000001
 40
0.0
 40
0.0
 40
0.0
 40
0.0
 40
0.0071758425
 40
0.0146741453
 40
0.0225035656
 40
0.0306713257
 40
0.0391834036
 40
0.0480443729
 40
0.0572572157
 40
0.0668238661
 40
0.0767452117
 40
0.087021259
 40
0.0976512753
 40
0.1086336553
 40
0.1316452786
 40
0.1560326285
 40
0.1817628121
 40
0.2087958578
 40
0.2370856249
 40
0.2665805114
 40
0.2972240455
 40
0.3289554128
 40
0.3617098907
 40
0.3954192316
 40
0.4300120033
 40
0.4654138991
 40
0.5015480605
 40
0.5383353682
 40
0.5756947176
 40
0.6135432851
 40
0.6517967846
 40
0.6903697386
 40
0.7681261117
 40
0.8461161118
 40
0.923638923
 40
1.0
 40
1.0
 40
1.0
 40
1.0
 10
11.9969567391
 20
8.3652555101
 30
0.0
 10
11.9961450351
 20
8.3644714642
 30
0.0
 10
11.9944447851
 20
8.3629095135
 30
0.0
 10
11.9917330686
 20
8.3606337654
 30
0.0
 10
11.9888066672
 20
8.358376077
 30
0.0
 10
11.9856674854
 20
8.3561379024
 30
0.0
 10
11.9823173621
 20
8.3539204551
 30
0.0
 10
11.9787582234
 20
8.3517250398
 30
0.0
 10
11.9749921887
 20
8.3495528773
 30
0.0
 10
11.9710214781
 20
8.34740531
 30
0.0
 10
11.9668484659
 20
8.3452835973
 30
0.0
 10
11.9624756411
 20
8.3431889924
 30
0.0
 10
11.9579055906
 20
8.3411227608
 30
0.0
 10
11.9514520608
 20
8.3383642146
 30
0.0
 10
11.9429046488
 20
8.3350049629
 30
0.0
 10
11.932061187
 20
8.3311664046
 30
0.0
 10
11.9205029538
 20
8.3274693837
 30
0.0
 10
11.9082576328
 20
8.3239228426
 30
0.0
 10
11.895354421
 20
8.3205353822
 30
0.0
 10
11.8818242195
 20
8.3173152226
 30
0.0
 10
11.8676994676
 20
8.3142701751
 30
0.0
 10
11.8530140722
 20
8.3114076297
 30
0.0
 10
11.8378033098
 20
8.3087345329
 30
0.0
 10
11.8221037395
 20
8.3062573718
 30
0.0
 10
11.8059531144
 20
8.3039821579
 30
0.0
 10
11.7893902888
 20
8.301914404
 30
0.0
 10
11.7724551191
 20
8.3000591205
 30
0.0
 10
11.755188364
 20
8.2984208036
 30
0.0
 10
11.7376315817
 20
8.297003422
 30
0.0
 10
11.719827046
 20
8.2958104193
 30
0.0
 10
11.7018175882
 20
8.2948446588
 30
0.0
 10
11.6775259084
 20
8.2938606196
 30
0.0
 10
11.6469687619
 20
8.2932151466
 30
0.0
 10
11.6102792782
 20
8.2933698157
 30
0.0
 10
11.5738249935
 20
8.2944503201
 30
0.0
 10
11.5496579004
 20
8.2957949317
 30
0.0
 10
11.537677471
 20
8.2966257773
 30
0.0
  0
SPLINE
  5
365
100
AcDbEntity
  8
0
100
AcDbSpline
 62
7
  6
CONTINUOUS
 70
0
 71
3
 72
11
 73
7
 74
0
 42
0.0000001
 43
0.0000001
 44
0.0000000001
 40
0.0
 40
0.0
 40
0.0
 40
0.0
 40
0.2464375025
 40
0.4943159568
 40
0.7450494874
 40
1.0
 40
1.0
 40
1.0
 40
1.0
 10
10.3068339164
 20
9.5722477268
 30
0.0
 10
10.3068339136
 20
9.5732053078
 30
0.0
 10
10.3069103771
 20
9.5751269256
 30
0.0
 10
10.3072540018
 20
9.5780043749
 30
0.0
 10
10.3078263901
 20
9.5808788414
 30
0.0
 10
10.3083550197
 20
9.5827735179
 30
0.0
 10
10.3086553608
 20
9.5837175532
 30
0.0
  0
SPLINE
  5
366
100
AcDbEntity
  8
0
100
AcDbSpline
 62
7
  6
CONTINUOUS
 70
0
 71
3
 72
54
 73
50
 74
0
 42
0.0000001
 43
0.0000001
 44
0.0000000001
 40
0.0
 40
0.0
 40
0.0
 40
0.0
 40
0.052784991
 40
0.1048060923
 40
0.1559445044
 40
0.2060905216
 40
0.2551340321
 40
0.3029694639
 40
0.3494949945
 40
0.3946130603
 40
0.438230921
 40
0.4802611185
 40
0.5206221511
 40
0.559239105
 40
0.5960444107
 40
0.6309787921
 40
0.663992489
 40
0.6950468015
 40
0.709831479
 40
0.7241178387
 40
0.7379051855
 40
0.751193962
 40
0.7639858374
 40
0.7762841535
 40
0.7880937245
 40
0.7994213683
 40
0.8102760565
 40
0.8206690605
 40
0.830614617
 40
0.8401299511
 40
0.8492359035
 40
0.8579573592
 40
0.8663234793
 40
0.8743683592
 40
0.8821310443
 40
0.8896557027
 40
0.8969914552
 40
0.9041916844
 40
0.9113132101
 40
0.9184149027
 40
0.9255561887
 40
0.9327954181
 40
0.9401884307
 40
0.9477872381
 40
0.9637758035
 40
0.972256837
 40
0.9811038595
 40
0.9903441354
 40
1.0
 40
1.0
 40
1.0
 40
1.0
 10
9.976071294
 20
9.3791558346
 30
0.0
 10
9.9706697356
 20
9.379530434
 30
0.0
 10
9.9599496387
 20
9.3803463782
 30
0.0
 10
9.9440173489
 20
9.3817820617
 30
0.0
 10
9.9283764752
 20
9.3834180879
 30
0.0
 10
9.9130649242
 20
9.3852504099
 30
0.0
 10
9.8981193528
 20
9.387274646
 30
0.0
 10
9.8835757917
 20
9.3894858688
 30
0.0
 10
9.8694691992
 20
9.3918787136
 30
0.0
 10
9.855833487
 20
9.3944473764
 30
0.0
 10
9.8427014239
 20
9.397185624
 30
0.0
 10
9.8301045428
 20
9.4000868189
 30
0.0
 10
9.8180730574
 20
9.4031439141
 30
0.0
 10
9.806635776
 20
9.4063494878
 30
0.0
 10
9.7958200538
 20
9.4096957654
 30
0.0
 10
9.7856516311
 20
9.4131746521
 30
0.0
 10
9.7761548276
 20
9.4167777431
 30
0.0
 10
9.7687016529
 20
9.4199260829
 30
0.0
 10
9.7630998701
 20
9.4225074226
 30
0.0
 10
9.759149363
 20
9.4244373095
 30
0.0
 10
9.7553829341
 20
9.4263916629
 30
0.0
 10
9.7518028123
 20
9.4283693322
 30
0.0
 10
9.748411145
 20
9.4303691836
 30
0.0
 10
9.7452099146
 20
9.4323899844
 30
0.0
 10
9.742201034
 20
9.4344305976
 30
0.0
 10
9.739386275
 20
9.4364898305
 30
0.0
 10
9.7367672769
 20
9.4385664774
 30
0.0
 10
9.7343456265
 20
9.4406594247
 30
0.0
 10
9.7321227176
 20
9.4427674531
 30
0.0
 10
9.7300999093
 20
9.4448894519
 30
0.0
 10
9.7282784553
 20
9.4470242939
 30
0.0
 10
9.7266594705
 20
9.4491708182
 30
0.0
 10
9.7252441248
 20
9.4513279642
 30
0.0
 10
9.7240334012
 20
9.4534945453
 30
0.0
 10
9.7230283189
 20
9.4556693989
 30
0.0
 10
9.722229864
 20
9.4578512673
 30
0.0
 10
9.721638813
 20
9.4600387306
 30
0.0
 10
9.7212559961
 20
9.4622302806
 30
0.0
 10
9.7210818648
 20
9.4644242132
 30
0.0
 10
9.7211166729
 20
9.4666187523
 30
0.0
 10
9.7213604423
 20
9.4688120856
 30
0.0
 10
9.7218127019
 20
9.4710024406
 30
0.0
 10
9.7224730337
 20
9.4731882839
 30
0.0
 10
9.7236491871
 20
9.4761438978
 30
0.0
 10
9.7252370497
 20
9.4790416163
 30
0.0
 10
9.7271764383
 20
9.4818572586
 30
0.0
 10
9.7288632233
 20
9.4840002982
 30
0.0
 10
9.7307518835
 20
9.4861308701
 30
0.0
 10
9.7321140675
 20
9.4875112351
 30
0.0
 10
9.7328264682
 20
9.4881993613
 30
0.0
  0
SPLINE
  5
367
100
AcDbEntity
  8
0
100
AcDbSpline
 62
7
  6
CONTINUOUS
 70
0
 71
3
 72
40
 73
36
 74
0
 42
0.0000001
 43
0.0000001
 44
0.0000000001
 40
0.0
 40
0.0
 40
0.0
 40
0.0
 40
0.0958312793
 40
0.1891000446
 40
0.2345965891
 40
0.279241512
 40
0.3229681675
 40
0.3657118109
 40
0.4074099461
 40
0.4480024746
 40
0.4874320226
 40
0.5256441407
 40
0.5625874576
 40
0.5982141394
 40
0.6324802032
 40
0.6653457683
 40
0.6967756912
 40
0.7267401448
 40
0.7552151418
 40
0.7821835616
 40
0.8076363113
 40
0.8315735468
 40
0.8540066404
 40
0.8749606632
 40
0.8944772684
 40
0.9126187468
 40
0.9294730511
 40
0.9451593172
 40
0.9598338268
 40
0.9668558706
 40
0.9737029056
 40
0.980406309
 40
0.9869997194
 40
0.9935186515
 40
1.0
 40
1.0
 40
1.0
 40
1.0
 10
9.9680479103
 20
9.3414621382
 30
0.0
 10
9.9582806395
 20
9.3421395007
 30
0.0
 10
9.9390214315
 20
9.3436909571
 30
0.0
 10
9.9151805065
 20
9.3461788882
 30
0.0
 10
9.8965831975
 20
9.3484773275
 30
0.0
 10
9.8830322696
 20
9.3503317677
 30
0.0
 10
9.8697858358
 20
9.3523278738
 30
0.0
 10
9.8568660016
 20
9.3544623062
 30
0.0
 10
9.8442943597
 20
9.356731463
 30
0.0
 10
9.8320919126
 20
9.3591315475
 30
0.0
 10
9.8202790324
 20
9.3616585161
 30
0.0
 10
9.808875431
 20
9.3643081074
 30
0.0
 10
9.7979001333
 20
9.3670758833
 30
0.0
 10
9.7873714292
 20
9.3699571856
 30
0.0
 10
9.7773068412
 20
9.3729471551
 30
0.0
 10
9.7677231068
 20
9.3760407865
 30
0.0
 10
9.7586361285
 20
9.3792328901
 30
0.0
 10
9.7500609378
 20
9.3825181016
 30
0.0
 10
9.7420116851
 20
9.3858909556
 30
0.0
 10
9.7345015895
 20
9.3893458625
 30
0.0
 10
9.7275428938
 20
9.3928771162
 30
0.0
 10
9.7211468697
 20
9.3964790031
 30
0.0
 10
9.7153237807
 20
9.4001458232
 30
0.0
 10
9.7100828485
 20
9.4038719185
 30
0.0
 10
9.7054323283
 20
9.4076518893
 30
0.0
 10
9.7013796397
 20
9.4114805899
 30
0.0
 10
9.6979314162
 20
9.4153535134
 30
0.0
 10
9.6950943638
 20
9.419265752
 30
0.0
 10
9.6932178358
 20
9.4226046257
 30
0.0
 10
9.692048041
 20
9.425278061
 30
0.0
 10
9.6913398065
 20
9.4272588692
 30
0.0
 10
9.690788424
 20
9.4292435773
 30
0.0
 10
9.69039424
 20
9.4312313721
 30
0.0
 10
9.6901576351
 20
9.4332211077
 30
0.0
 10
9.6901049867
 20
9.4345498908
 30
0.0
 10
9.6901049831
 20
9.4352120663
 30
0.0
  0
SPLINE
  5
368
100
AcDbEntity
  8
0
100
AcDbSpline
 62
7
  6
CONTINUOUS
 70
0
 71
3
 72
15
 73
11
 74
0
 42
0.0000001
 43
0.0000001
 44
0.0000000001
 40
0.0
 40
0.0
 40
0.0
 40
0.0
 40
0.1273482789
 40
0.2538606571
 40
0.3795878378
 40
0.5046051156
 40
0.629017439
 40
0.7529533823
 40
0.8765605864
 40
1.0
 40
1.0
 40
1.0
 40
1.0
 10
9.7383631311
 20
7.9940459702
 30
0.0
 10
9.7383631311
 20
7.9983730539
 30
0.0
 10
9.7387762815
 20
8.0070048007
 30
0.0
 10
9.7406446861
 20
8.0197864027
 30
0.0
 10
9.7437428253
 20
8.0322468574
 30
0.0
 10
9.7480427131
 20
8.0442696297
 30
0.0
 10
9.7535049134
 20
8.0557438463
 30
0.0
 10
9.7600795977
 20
8.0665635678
 30
0.0
 10
9.7677049671
 20
8.0766274127
 30
0.0
 10
9.7734464894
 20
8.082774992
 30
0.0
 10
9.7764632252
 20
8.0856889551
 30
0.0
  0
SPLINE
  5
369
100
AcDbEntity
  8
0
100
AcDbSpline
 62
7
  6
CONTINUOUS
 70
0
 71
3
 72
15
 73
11
 74
0
 42
0.0000001
 43
0.0000001
 44
0.0000000001
 40
0.0
 40
0.0
 40
0.0
 40
0.0
 40
0.1273482789
 40
0.2538606571
 40
0.3795878378
 40
0.5046051156
 40
0.629017439
 40
0.7529533823
 40
0.8765605864
 40
1.0
 40
1.0
 40
1.0
 40
1.0
 10
9.7383631311
 20
5.9424193235
 30
0.0
 10
9.7383631311
 20
5.9467464073
 30
0.0
 10
9.7387762815
 20
5.9553781541
 30
0.0
 10
9.7406446861
 20
5.9681597561
 30
0.0
 10
9.7437428253
 20
5.9806202108
 30
0.0
 10
9.7480427131
 20
5.9926429831
 30
0.0
 10
9.7535049134
 20
6.0041171997
 30
0.0
 10
9.7600795977
 20
6.0149369212
 30
0.0
 10
9.7677049671
 20
6.0250007661
 30
0.0
 10
9.7734464894
 20
6.0311483454
 30
0.0
 10
9.7764632252
 20
6.0340623084
 30
0.0
  0
SPLINE
  5
36A
100
AcDbEntity
  8
0
100
AcDbSpline
 62
7
  6
CONTINUOUS
 70
0
 71
3
 72
24
 73
20
 74
0
 42
0.0000001
 43
0.0000001
 44
0.0000000001
 40
0.0
 40
0.0
 40
0.0
 40
0.0
 40
0.0393022548
 40
0.0765241412
 40
0.1127958923
 40
0.1495239944
 40
0.1882291323
 40
0.2303535342
 40
0.253104111
 40
0.2771461275
 40
0.3295212712
 40
0.3882141299
 40
0.4537293448
 40
0.5263947347
 40
0.6063998381
 40
0.6938197778
 40
0.7886335431
 40
0.8907490601
 40
1.0
 40
1.0
 40
1.0
 40
1.0
 10
10.643877432
 20
7.166081756
 30
0.0
 10
10.6440634823
 20
7.166072994
 30
0.0
 10
10.644427663
 20
7.1660799453
 30
0.0
 10
10.6449558455
 20
7.1661785224
 30
0.0
 10
10.6454451774
 20
7.1663708803
 30
0.0
 10
10.6458919792
 20
7.1666613803
 30
0.0
 10
10.6462936013
 20
7.1670520127
 30
0.0
 10
10.6465827369
 20
7.1674513503
 30
0.0
 10
10.6467928901
 20
7.1678168368
 30
0.0
 10
10.647000448
 20
7.1682388289
 30
0.0
 10
10.6472313054
 20
7.1688374299
 30
0.0
 10
10.6474608906
 20
7.1696430114
 30
0.0
 10
10.6476525486
 20
7.1705567469
 30
0.0
 10
10.6478088891
 20
7.1715792553
 30
0.0
 10
10.6479327558
 20
7.1727105669
 30
0.0
 10
10.6480274111
 20
7.1739498948
 30
0.0
 10
10.6480965287
 20
7.1752957784
 30
0.0
 10
10.6481439924
 20
7.1767460729
 30
0.0
 10
10.6481633853
 20
7.1777475908
 30
0.0
 10
10.6481711305
 20
7.1782652819
 30
0.0
  0
SPLINE
  5
36B
100
AcDbEntity
  8
0
100
AcDbSpline
 62
7
  6
CONTINUOUS
 70
0
 71
3
 72
23
 73
19
 74
0
 42
0.0000001
 43
0.0000001
 44
0.0000000001
 40
0.0
 40
0.0
 40
0.0
 40
0.0
 40
0.0378787683
 40
0.0789730178
 40
0.123405835
 40
0.1712553708
 40
0.2225554035
 40
0.2773067918
 40
0.3354840473
 40
0.3970387851
 40
0.4619035805
 40
0.5299948944
 40
0.6012147101
 40
0.6754526805
 40
0.7525864804
 40
0.8324833734
 40
0.9150079501
 40
1.0
 40
1.0
 40
1.0
 40
1.0
 10
10.6352961467
 20
7.2020470406
 30
0.0
 10
10.6362052899
 20
7.2029252056
 30
0.0
 10
10.6381888936
 20
7.2046659843
 30
0.0
 10
10.6414881957
 20
7.2071356279
 30
0.0
 10
10.6452224339
 20
7.2095625987
 30
0.0
 10
10.6493837148
 20
7.211941994
 30
0.0
 10
10.6539638309
 20
7.2142692352
 30
0.0
 10
10.6589533774
 20
7.2165395213
 30
0.0
 10
10.6643420576
 20
7.21874811
 30
0.0
 10
10.670118642
 20
7.2208903363
 30
0.0
 10
10.6762710142
 20
7.2229616546
 30
0.0
 10
10.6827862226
 20
7.2249576254
 30
0.0
 10
10.6896505153
 20
7.2268739776
 30
0.0
 10
10.6968493498
 20
7.2287066083
 30
0.0
 10
10.7043674282
 20
7.2304515769
 30
0.0
 10
10.7121889434
 20
7.2321051748
 30
0.0
 10
10.7202970629
 20
7.2336637813
 30
0.0
 10
10.7258043264
 20
7.2346237879
 30
0.0
 10
10.7286022091
 20
7.2350882317
 30
0.0
  0
SPLINE
  5
36C
100
AcDbEntity
  8
0
100
AcDbSpline
 62
7
  6
CONTINUOUS
 70
0
 71
3
 72
11
 73
7
 74
0
 42
0.0000001
 43
0.0000001
 44
0.0000000001
 40
0.0
 40
0.0
 40
0.0
 40
0.0
 40
0.2422057191
 40
0.4897757325
 40
0.7424949395
 40
1.0
 40
1.0
 40
1.0
 40
1.0
 10
10.7066258898
 20
7.2094034908
 30
0.0
 10
10.7086759757
 20
7.2112150428
 30
0.0
 10
10.7126728798
 20
7.2150493669
 30
0.0
 10
10.7182938164
 20
7.2212816839
 30
0.0
 10
10.7236219073
 20
7.2279866937
 30
0.0
 10
10.7269665622
 20
7.2326831023
 30
0.0
 10
10.7286022091
 20
7.2350882317
 30
0.0
  0
SPLINE
  5
36D
100
AcDbEntity
  8
0
100
AcDbSpline
 62
7
  6
CONTINUOUS
 70
0
 71
3
 72
29
 73
25
 74
0
 42
0.0000001
 43
0.0000001
 44
0.0000000001
 40
0.0
 40
0.0
 40
0.0
 40
0.0
 40
0.0179860479
 40
0.0360134138
 40
0.0542300915
 40
0.0727803584
 40
0.091801066
 40
0.1114179313
 40
0.1528492655
 40
0.17487574
 40
0.1978694112
 40
0.2218926446
 40
0.2469969232
 40
0.2732249208
 40
0.3006107631
 40
0.3589480313
 40
0.4221642674
 40
0.4903228357
 40
0.5634241807
 40
0.6414181501
 40
0.7242136581
 40
0.8116827789
 40
0.9036741304
 40
1.0
 40
1.0
 40
1.0
 40
1.0
 10
10.6481711305
 20
7.1782652819
 30
0.0
 10
10.6481774293
 20
7.1786862976
 30
0.0
 10
10.6482302211
 20
7.1795292586
 30
0.0
 10
10.6484306917
 20
7.1807847409
 30
0.0
 10
10.6487521311
 20
7.1820285325
 30
0.0
 10
10.6491941017
 20
7.1832593451
 30
0.0
 10
10.6497560552
 20
7.1844763441
 30
0.0
 10
10.6506810536
 20
7.1861086867
 30
0.0
 10
10.6518377613
 20
7.1876821654
 30
0.0
 10
10.6531899431
 20
7.1891890475
 30
0.0
 10
10.6543413425
 20
7.1903249289
 30
0.0
 10
10.6556081583
 20
7.1914422629
 30
0.0
 10
10.6569895887
 20
7.1925405538
 30
0.0
 10
10.6584846566
 20
7.1936190276
 30
0.0
 10
10.6606745844
 20
7.1950600427
 30
0.0
 10
10.6637001555
 20
7.1967999714
 30
0.0
 10
10.6676909749
 20
7.1987548107
 30
0.0
 10
10.6721048327
 20
7.2006133003
 30
0.0
 10
10.6769296188
 20
7.2023700113
 30
0.0
 10
10.6821522826
 20
7.2040196941
 30
0.0
 10
10.6877583973
 20
7.2055571877
 30
0.0
 10
10.6937324955
 20
7.2069776088
 30
0.0
 10
10.7000577753
 20
7.2082761869
 30
0.0
 10
10.7044002209
 20
7.2090407239
 30
0.0
 10
10.7066258898
 20
7.2094034908
 30
0.0
  0
SPLINE
  5
36E
100
AcDbEntity
  8
0
100
AcDbSpline
 62
7
  6
CONTINUOUS
 70
0
 71
3
 72
40
 73
36
 74
0
 42
0.0000001
 43
0.0000001
 44
0.0000000001
 40
0.0
 40
0.0
 40
0.0
 40
0.0
 40
0.0071757996
 40
0.0146741187
 40
0.022503598
 40
0.0306714055
 40
0.0391834843
 40
0.0480444471
 40
0.0572573092
 40
0.0668239668
 40
0.0767453474
 40
0.087021406
 40
0.0976514315
 40
0.1086338464
 40
0.1316455029
 40
0.1560328777
 40
0.1817630977
 40
0.2087962065
 40
0.2370860329
 40
0.2665809568
 40
0.2972245239
 40
0.3289559428
 40
0.3617104926
 40
0.3954198975
 40
0.4300127148
 40
0.4654146563
 40
0.5015488811
 40
0.5383362596
 40
0.575695673
 40
0.6135442961
 40
0.6903692276
 40
0.7681257327
 40
0.8461158642
 40
0.9236387286
 40
1.0
 40
1.0
 40
1.0
 40
1.0
 10
11.9670130367
 20
9.3332579965
 30
0.0
 10
11.9662684392
 20
9.3325387704
 30
0.0
 10
11.9647087472
 20
9.3311059475
 30
0.0
 10
11.9622211988
 20
9.3290183297
 30
0.0
 10
11.9595367085
 20
9.3269472631
 30
0.0
 10
11.9566570223
 20
9.3248941084
 30
0.0
 10
11.9535838442
 20
9.3228599679
 30
0.0
 10
11.9503189305
 20
9.3208460435
 30
0.0
 10
11.9468642207
 20
9.3188534553
 30
0.0
 10
11.9432217599
 20
9.3168834078
 30
0.0
 10
11.9393937116
 20
9.3149370985
 30
0.0
 10
11.935382375
 20
9.3130156434
 30
0.0
 10
11.9311901158
 20
9.311120218
 30
0.0
 10
11.9252700732
 20
9.308589721
 30
0.0
 10
11.9174292503
 20
9.3055081615
 30
0.0
 10
11.9074821857
 20
9.3019869228
 30
0.0
 10
11.8968794345
 20
9.2985955191
 30
0.0
 10
11.8856463881
 20
9.2953421639
 30
0.0
 10
11.873809838
 20
9.2922347368
 30
0.0
 10
11.8613981362
 20
9.2892807744
 30
0.0
 10
11.8484410358
 20
9.2864874464
 30
0.0
 10
11.8349696333
 20
9.2838615371
 30
0.0
 10
11.8210162892
 20
9.2814094217
 30
0.0
 10
11.8066145475
 20
9.2791370423
 30
0.0
 10
11.7917990434
 20
9.2770499094
 30
0.0
 10
11.7766054153
 20
9.275153085
 30
0.0
 10
11.761070218
 20
9.2734511717
 30
0.0
 10
11.74523085
 20
9.2719482974
 30
0.0
 10
11.7291254091
 20
9.270648073
 30
0.0
 10
11.7072404959
 20
9.2691817292
 30
0.0
 10
11.6795060486
 20
9.2678817437
 30
0.0
 10
11.6459574983
 20
9.2671729459
 30
0.0
 10
11.6123008941
 20
9.2673148576
 30
0.0
 10
11.5788601986
 20
9.2683060338
 30
0.0
 10
11.5566909118
 20
9.2695394918
 30
0.0
 10
11.5457008548
 20
9.2703016549
 30
0.0
  0
SPLINE
  5
36F
100
AcDbEntity
  8
0
100
AcDbSpline
 62
7
  6
CONTINUOUS
 70
0
 71
3
 72
41
 73
37
 74
0
 42
0.0000001
 43
0.0000001
 44
0.0000000001
 40
0.0
 40
0.0
 40
0.0
 40
0.0
 40
0.0071758425
 40
0.0146741453
 40
0.0225035656
 40
0.0306713257
 40
0.0391834036
 40
0.0480443729
 40
0.0572572157
 40
0.0668238661
 40
0.0767452117
 40
0.087021259
 40
0.0976512753
 40
0.1086336553
 40
0.1316452786
 40
0.1560326285
 40
0.1817628121
 40
0.2087958578
 40
0.2370856249
 40
0.2665805114
 40
0.2972240455
 40
0.3289554128
 40
0.3617098907
 40
0.3954192316
 40
0.4300120033
 40
0.4654138991
 40
0.5015480605
 40
0.5383353682
 40
0.5756947176
 40
0.6135432851
 40
0.6517967846
 40
0.6903697386
 40
0.7681261117
 40
0.8461161118
 40
0.923638923
 40
1.0
 40
1.0
 40
1.0
 40
1.0
 10
11.9969567391
 20
9.3012376913
 30
0.0
 10
11.9961450351
 20
9.3004536453
 30
0.0
 10
11.9944447851
 20
9.2988916947
 30
0.0
 10
11.9917330686
 20
9.2966159465
 30
0.0
 10
11.9888066672
 20
9.2943582581
 30
0.0
 10
11.9856674854
 20
9.2921200835
 30
0.0
 10
11.9823173621
 20
9.2899026363
 30
0.0
 10
11.9787582234
 20
9.2877072209
 30
0.0
 10
11.9749921887
 20
9.2855350584
 30
0.0
 10
11.9710214781
 20
9.2833874912
 30
0.0
 10
11.9668484659
 20
9.2812657785
 30
0.0
 10
11.9624756411
 20
9.2791711736
 30
0.0
 10
11.9579055906
 20
9.2771049419
 30
0.0
 10
11.9514520608
 20
9.2743463957
 30
0.0
 10
11.9429046488
 20
9.270987144
 30
0.0
 10
11.932061187
 20
9.2671485858
 30
0.0
 10
11.9205029538
 20
9.2634515648
 30
0.0
 10
11.9082576328
 20
9.2599050237
 30
0.0
 10
11.895354421
 20
9.2565175633
 30
0.0
 10
11.8818242195
 20
9.2532974038
 30
0.0
 10
11.8676994676
 20
9.2502523563
 30
0.0
 10
11.8530140722
 20
9.2473898108
 30
0.0
 10
11.8378033098
 20
9.2447167141
 30
0.0
 10
11.8221037395
 20
9.2422395529
 30
0.0
 10
11.8059531144
 20
9.239964339
 30
0.0
 10
11.7893902888
 20
9.2378965851
 30
0.0
 10
11.7724551191
 20
9.2360413017
 30
0.0
 10
11.755188364
 20
9.2344029848
 30
0.0
 10
11.7376315817
 20
9.2329856031
 30
0.0
 10
11.719827046
 20
9.2317926004
 30
0.0
 10
11.7018175882
 20
9.2308268399
 30
0.0
 10
11.6775259084
 20
9.2298428007
 30
0.0
 10
11.6469687619
 20
9.2291973277
 30
0.0
 10
11.6102792782
 20
9.2293519968
 30
0.0
 10
11.5738249935
 20
9.2304325013
 30
0.0
 10
11.5496579004
 20
9.2317771128
 30
0.0
 10
11.537677471
 20
9.2326079584
 30
0.0
  0
SPLINE
  5
370
100
AcDbEntity
  8
0
100
AcDbSpline
 62
7
  6
CONTINUOUS
 70
0
 71
3
 72
18
 73
14
 74
0
 42
0.0000001
 43
0.0000001
 44
0.0000000001
 40
0.0
 40
0.0
 40
0.0
 40
0.0
 40
0.054862568
 40
0.1099291209
 40
0.1654011893
 40
0.2214754292
 40
0.336133642
 40
0.4553634706
 40
0.5171047465
 40
0.5804363458
 40
0.712331634
 40
0.8519592464
 40
1.0
 40
1.0
 40
1.0
 40
1.0
 10
12.308929091
 20
8.6793752198
 30
0.0
 10
12.3089290882
 20
8.6788456209
 30
0.0
 10
12.3088954752
 20
8.677784148
 30
0.0
 10
12.308744318
 20
8.6761936762
 30
0.0
 10
12.308492449
 20
8.6746040887
 30
0.0
 10
12.308019204
 20
8.6724712073
 30
0.0
 10
12.3071665894
 20
8.6697979907
 30
0.0
 10
12.3059989291
 20
8.6671878666
 30
0.0
 10
12.3048753465
 20
8.6651135422
 30
0.0
 10
12.3035887979
 20
8.6629916698
 30
0.0
 10
12.3017207058
 20
8.6603480966
 30
0.0
 10
12.2991162447
 20
8.6572415099
 30
0.0
 10
12.2971791704
 20
8.6552481273
 30
0.0
 10
12.2961513084
 20
8.6542552888
 30
0.0
  0
SPLINE
  5
371
100
AcDbEntity
  8
0
100
AcDbSpline
 62
7
  6
CONTINUOUS
 70
0
 71
3
 72
18
 73
14
 74
0
 42
0.0000001
 43
0.0000001
 44
0.0000000001
 40
0.0
 40
0.0
 40
0.0
 40
0.0
 40
0.0548626221
 40
0.1099291996
 40
0.1654012684
 40
0.2214754896
 40
0.3361336267
 40
0.4553633642
 40
0.5171046005
 40
0.5804361693
 40
0.7123314363
 40
0.8519591016
 40
1.0
 40
1.0
 40
1.0
 40
1.0
 10
12.308929091
 20
9.6153576652
 30
0.0
 10
12.3089290938
 20
9.614828061
 30
0.0
 10
12.3088954913
 20
9.6137665773
 30
0.0
 10
12.3087443477
 20
9.6121760888
 30
0.0
 10
12.3084924902
 20
9.6105864845
 30
0.0
 10
12.3080192579
 20
9.6084535808
 30
0.0
 10
12.3071666537
 20
9.6057803357
 30
0.0
 10
12.3059989963
 20
9.6031701837
 30
0.0
 10
12.3048754123
 20
9.6010958374
 30
0.0
 10
12.3035888592
 20
9.5989739423
 30
0.0
 10
12.3017207558
 20
9.5963303407
 30
0.0
 10
12.2991162735
 20
9.5932237212
 30
0.0
 10
12.2971791808
 20
9.5912303185
 30
0.0
 10
12.2961513084
 20
9.5902374699
 30
0.0
  0
SPLINE
  5
372
100
AcDbEntity
  8
0
100
AcDbSpline
 62
7
  6
CONTINUOUS
 70
0
 71
3
 72
23
 73
19
 74
0
 42
0.0000001
 43
0.0000001
 44
0.0000000001
 40
0.0
 40
0.0
 40
0.0
 40
0.0
 40
0.0749625009
 40
0.1455684839
 40
0.2121600745
 40
0.2751631548
 40
0.3350982506
 40
0.3925832742
 40
0.4483295117
 40
0.5031237972
 40
0.5577983643
 40
0.613191491
 40
0.670106811
 40
0.729278715
 40
0.7913522906
 40
0.8568775564
 40
0.9263090861
 40
1.0
 40
1.0
 40
1.0
 40
1.0
 10
12.2653501089
 20
9.6691578192
 30
0.0
 10
12.266343454
 20
9.6682334068
 30
0.0
 10
12.2682173477
 20
9.6663775147
 30
0.0
 10
12.2707457955
 20
9.6634820496
 30
0.0
 10
12.2729019065
 20
9.6605636634
 30
0.0
 10
12.2746824375
 20
9.657624866
 30
0.0
 10
12.2760844479
 20
9.6546682763
 30
0.0
 10
12.2771047642
 20
9.6516969051
 30
0.0
 10
12.2777405327
 20
9.6487145836
 30
0.0
 10
12.2779894882
 20
9.6457260332
 30
0.0
 10
12.2778506512
 20
9.6427366896
 30
0.0
 10
12.2773245976
 20
9.6397520707
 30
0.0
 10
12.2764132049
 20
9.6367771714
 30
0.0
 10
12.2751193415
 20
9.6338160437
 30
0.0
 10
12.2734460181
 20
9.6308719343
 30
0.0
 10
12.2713962685
 20
9.6279474159
 30
0.0
 10
12.2689732479
 20
9.6250452748
 30
0.0
 10
12.2671670322
 20
9.6231845097
 30
0.0
 10
12.266207606
 20
9.6222577751
 30
0.0
  0
SPLINE
  5
373
100
AcDbEntity
  8
0
100
AcDbSpline
 62
7
  6
CONTINUOUS
 70
0
 71
3
 72
41
 73
37
 74
0
 42
0.0000001
 43
0.0000001
 44
0.0000000001
 40
0.0
 40
0.0
 40
0.0
 40
0.0
 40
0.029942123
 40
0.0449237706
 40
0.0599145177
 40
0.0899291716
 40
0.1200145961
 40
0.1350933574
 40
0.1501974726
 40
0.1804849654
 40
0.2108989488
 40
0.2414525624
 40
0.2721557217
 40
0.3030149378
 40
0.3340332219
 40
0.3652100719
 40
0.3965415365
 40
0.4280203507
 40
0.4596361361
 40
0.4913756582
 40
0.5232231336
 40
0.5551605782
 40
0.5871681905
 40
0.6192247616
 40
0.6513081064
 40
0.6833955071
 40
0.7154641657
 40
0.7474916563
 40
0.7794563734
 40
0.811337967
 40
0.843117763
 40
0.8747791516
 40
0.9063079641
 40
0.9376927517
 40
0.9689251728
 40
1.0
 40
1.0
 40
1.0
 40
1.0
 10
9.9716882103
 20
7.8835795856
 30
0.0
 10
9.9693573637
 20
7.8813281451
 30
0.0
 10
9.9657237331
 20
7.8780873722
 30
0.0
 10
9.9606348896
 20
7.8740662876
 30
0.0
 10
9.9553839794
 20
7.8702453069
 30
0.0
 10
9.9485324079
 20
7.8658575608
 30
0.0
 10
9.9413476897
 20
7.8620195566
 30
0.0
 10
9.9354221653
 20
7.8592891658
 30
0.0
 10
9.9293742185
 20
7.8567842007
 30
0.0
 10
9.9216149839
 20
7.8540906173
 30
0.0
 10
9.9120528883
 20
7.8515802555
 30
0.0
 10
9.9022821394
 20
7.8498018291
 30
0.0
 10
9.8923568837
 20
7.8487651539
 30
0.0
 10
9.8823316438
 20
7.8484757613
 30
0.0
 10
9.8722615819
 20
7.8489351246
 30
0.0
 10
9.8622020458
 20
7.8501405903
 30
0.0
 10
9.8522083089
 20
7.8520854162
 30
0.0
 10
9.8423352584
 20
7.8547588089
 30
0.0
 10
9.8326371016
 20
7.8581459872
 30
0.0
 10
9.823167071
 20
7.8622282656
 30
0.0
 10
9.8139771368
 20
7.8669831587
 30
0.0
 10
9.8051177259
 20
7.8723845046
 30
0.0
 10
9.796637448
 20
7.8784026086
 30
0.0
 10
9.7885828334
 20
7.8850044058
 30
0.0
 10
9.7809980797
 20
7.8921536408
 30
0.0
 10
9.7739248127
 20
7.8998110653
 30
0.0
 10
9.76740186
 20
7.9079346516
 30
0.0
 10
9.7614650401
 20
7.9164798206
 30
0.0
 10
9.7561469676
 20
7.9253996838
 30
0.0
 10
9.7514768749
 20
7.934645299
 30
0.0
 10
9.747480454
 20
7.9441659293
 30
0.0
 10
9.7441797127
 20
7.9539093414
 30
0.0
 10
9.7415928598
 20
7.9638220008
 30
0.0
 10
9.739734191
 20
7.9738496867
 30
0.0
 10
9.7386140292
 20
7.9839365883
 30
0.0
 10
9.7383631311
 20
7.9906827242
 30
0.0
 10
9.7383631311
 20
7.9940459702
 30
0.0
  0
SPLINE
  5
374
100
AcDbEntity
  8
0
100
AcDbSpline
 62
7
  6
CONTINUOUS
 70
0
 71
3
 72
41
 73
37
 74
0
 42
0.0000001
 43
0.0000001
 44
0.0000000001
 40
0.0
 40
0.0
 40
0.0
 40
0.0
 40
0.029942123
 40
0.0449237706
 40
0.0599145177
 40
0.0899291716
 40
0.1200145961
 40
0.1350933574
 40
0.1501974726
 40
0.1804849654
 40
0.2108989488
 40
0.2414525624
 40
0.2721557217
 40
0.3030149378
 40
0.3340332219
 40
0.3652100719
 40
0.3965415365
 40
0.4280203507
 40
0.4596361361
 40
0.4913756582
 40
0.5232231336
 40
0.5551605782
 40
0.5871681905
 40
0.6192247616
 40
0.6513081064
 40
0.6833955071
 40
0.7154641657
 40
0.7474916563
 40
0.7794563734
 40
0.811337967
 40
0.843117763
 40
0.8747791516
 40
0.9063079641
 40
0.9376927517
 40
0.9689251728
 40
1.0
 40
1.0
 40
1.0
 40
1.0
 10
9.9716882103
 20
5.8319529389
 30
0.0
 10
9.9693573637
 20
5.8297014985
 30
0.0
 10
9.9657237331
 20
5.8264607256
 30
0.0
 10
9.9606348896
 20
5.822439641
 30
0.0
 10
9.9553839794
 20
5.8186186603
 30
0.0
 10
9.9485324079
 20
5.8142309142
 30
0.0
 10
9.9413476897
 20
5.81039291
 30
0.0
 10
9.9354221653
 20
5.8076625192
 30
0.0
 10
9.9293742185
 20
5.805157554
 30
0.0
 10
9.9216149839
 20
5.8024639707
 30
0.0
 10
9.9120528883
 20
5.7999536089
 30
0.0
 10
9.9022821394
 20
5.7981751825
 30
0.0
 10
9.8923568837
 20
5.7971385073
 30
0.0
 10
9.8823316438
 20
5.7968491147
 30
0.0
 10
9.8722615819
 20
5.797308478
 30
0.0
 10
9.8622020458
 20
5.7985139436
 30
0.0
 10
9.8522083089
 20
5.8004587696
 30
0.0
 10
9.8423352584
 20
5.8031321623
 30
0.0
 10
9.8326371016
 20
5.8065193405
 30
0.0
 10
9.823167071
 20
5.810601619
 30
0.0
 10
9.8139771368
 20
5.8153565121
 30
0.0
 10
9.8051177259
 20
5.820757858
 30
0.0
 10
9.796637448
 20
5.826775962
 30
0.0
 10
9.7885828334
 20
5.8333777592
 30
0.0
 10
9.7809980797
 20
5.8405269942
 30
0.0
 10
9.7739248127
 20
5.8481844187
 30
0.0
 10
9.76740186
 20
5.856308005
 30
0.0
 10
9.7614650401
 20
5.864853174
 30
0.0
 10
9.7561469676
 20
5.8737730372
 30
0.0
 10
9.7514768749
 20
5.8830186524
 30
0.0
 10
9.747480454
 20
5.8925392827
 30
0.0
 10
9.7441797127
 20
5.9022826948
 30
0.0
 10
9.7415928598
 20
5.9121953542
 30
0.0
 10
9.739734191
 20
5.92222304
 30
0.0
 10
9.7386140292
 20
5.9323099417
 30
0.0
 10
9.7383631311
 20
5.9390560776
 30
0.0
 10
9.7383631311
 20
5.9424193235
 30
0.0
  0
SPLINE
  5
375
100
AcDbEntity
  8
0
100
AcDbSpline
 62
7
  6
CONTINUOUS
 70
0
 71
3
 72
41
 73
37
 74
0
 42
0.0000001
 43
0.0000001
 44
0.0000000001
 40
0.0
 40
0.0
 40
0.0
 40
0.0
 40
0.029942123
 40
0.0449237706
 40
0.0599145177
 40
0.0899291716
 40
0.1200145961
 40
0.1350933574
 40
0.1501974726
 40
0.1804849654
 40
0.2108989488
 40
0.2414525624
 40
0.2721557217
 40
0.3030149378
 40
0.3340332219
 40
0.3652100719
 40
0.3965415365
 40
0.4280203507
 40
0.4596361361
 40
0.4913756582
 40
0.5232231336
 40
0.5551605782
 40
0.5871681905
 40
0.6192247616
 40
0.6513081064
 40
0.6833955071
 40
0.7154641657
 40
0.7474916563
 40
0.7794563734
 40
0.811337967
 40
0.843117763
 40
0.8747791516
 40
0.9063079641
 40
0.9376927517
 40
0.9689251728
 40
1.0
 40
1.0
 40
1.0
 40
1.0
 10
11.7219458023
 20
5.7105721627
 30
0.0
 10
11.7196149557
 20
5.7083207223
 30
0.0
 10
11.7159813252
 20
5.7050799493
 30
0.0
 10
11.7108924816
 20
5.7010588647
 30
0.0
 10
11.7056415714
 20
5.697237884
 30
0.0
 10
11.6987899999
 20
5.6928501379
 30
0.0
 10
11.6916052817
 20
5.6890121338
 30
0.0
 10
11.6856797573
 20
5.6862817429
 30
0.0
 10
11.6796318105
 20
5.6837767778
 30
0.0
 10
11.6718725759
 20
5.6810831944
 30
0.0
 10
11.6623104803
 20
5.6785728327
 30
0.0
 10
11.6525397314
 20
5.6767944062
 30
0.0
 10
11.6426144757
 20
5.675757731
 30
0.0
 10
11.6325892359
 20
5.6754683384
 30
0.0
 10
11.6225191739
 20
5.6759277018
 30
0.0
 10
11.6124596379
 20
5.6771331674
 30
0.0
 10
11.6024659009
 20
5.6790779933
 30
0.0
 10
11.5925928504
 20
5.681751386
 30
0.0
 10
11.5828946936
 20
5.6851385643
 30
0.0
 10
11.573424663
 20
5.6892208428
 30
0.0
 10
11.5642347289
 20
5.6939757358
 30
0.0
 10
11.5553753179
 20
5.6993770817
 30
0.0
 10
11.5468950401
 20
5.7053951858
 30
0.0
 10
11.5388404254
 20
5.7119969829
 30
0.0
 10
11.5312556717
 20
5.7191462179
 30
0.0
 10
11.5241824047
 20
5.7268036424
 30
0.0
 10
11.517659452
 20
5.7349272287
 30
0.0
 10
11.5117226321
 20
5.7434723977
 30
0.0
 10
11.5064045596
 20
5.752392261
 30
0.0
 10
11.5017344669
 20
5.7616378762
 30
0.0
 10
11.497738046
 20
5.7711585064
 30
0.0
 10
11.4944373047
 20
5.7809019186
 30
0.0
 10
11.4918504518
 20
5.7908145779
 30
0.0
 10
11.489991783
 20
5.8008422638
 30
0.0
 10
11.4888716212
 20
5.8109291655
 30
0.0
 10
11.4886207232
 20
5.8176753013
 30
0.0
 10
11.4886207232
 20
5.8210385473
 30
0.0
  0
SPLINE
  5
376
100
AcDbEntity
  8
0
100
AcDbSpline
 62
7
  6
CONTINUOUS
 70
0
 71
3
 72
41
 73
37
 74
0
 42
0.0000001
 43
0.0000001
 44
0.0000000001
 40
0.0
 40
0.0
 40
0.0
 40
0.0
 40
0.029942123
 40
0.0449237706
 40
0.0599145177
 40
0.0899291716
 40
0.1200145961
 40
0.1350933574
 40
0.1501974726
 40
0.1804849654
 40
0.2108989488
 40
0.2414525624
 40
0.2721557217
 40
0.3030149378
 40
0.3340332219
 40
0.3652100719
 40
0.3965415365
 40
0.4280203507
 40
0.4596361361
 40
0.4913756582
 40
0.5232231336
 40
0.5551605782
 40
0.5871681905
 40
0.6192247616
 40
0.6513081064
 40
0.6833955071
 40
0.7154641657
 40
0.7474916563
 40
0.7794563734
 40
0.811337967
 40
0.843117763
 40
0.8747791516
 40
0.9063079641
 40
0.9376927517
 40
0.9689251728
 40
1.0
 40
1.0
 40
1.0
 40
1.0
 10
11.7219458023
 20
7.7621988093
 30
0.0
 10
11.7196149557
 20
7.7599473689
 30
0.0
 10
11.7159813252
 20
7.7567065959
 30
0.0
 10
11.7108924816
 20
7.7526855113
 30
0.0
 10
11.7056415714
 20
7.7488645307
 30
0.0
 10
11.6987899999
 20
7.7444767845
 30
0.0
 10
11.6916052817
 20
7.7406387804
 30
0.0
 10
11.6856797573
 20
7.7379083895
 30
0.0
 10
11.6796318105
 20
7.7354034244
 30
0.0
 10
11.6718725759
 20
7.732709841
 30
0.0
 10
11.6623104803
 20
7.7301994793
 30
0.0
 10
11.6525397314
 20
7.7284210528
 30
0.0
 10
11.6426144757
 20
7.7273843776
 30
0.0
 10
11.6325892359
 20
7.7270949851
 30
0.0
 10
11.6225191739
 20
7.7275543484
 30
0.0
 10
11.6124596379
 20
7.728759814
 30
0.0
 10
11.6024659009
 20
7.7307046399
 30
0.0
 10
11.5925928504
 20
7.7333780326
 30
0.0
 10
11.5828946936
 20
7.7367652109
 30
0.0
 10
11.573424663
 20
7.7408474894
 30
0.0
 10
11.5642347289
 20
7.7456023825
 30
0.0
 10
11.5553753179
 20
7.7510037283
 30
0.0
 10
11.5468950401
 20
7.7570218324
 30
0.0
 10
11.5388404254
 20
7.7636236295
 30
0.0
 10
11.5312556717
 20
7.7707728645
 30
0.0
 10
11.5241824047
 20
7.778430289
 30
0.0
 10
11.517659452
 20
7.7865538753
 30
0.0
 10
11.5117226321
 20
7.7950990443
 30
0.0
 10
11.5064045596
 20
7.8040189076
 30
0.0
 10
11.5017344669
 20
7.8132645228
 30
0.0
 10
11.497738046
 20
7.822785153
 30
0.0
 10
11.4944373047
 20
7.8325285652
 30
0.0
 10
11.4918504518
 20
7.8424412245
 30
0.0
 10
11.489991783
 20
7.8524689104
 30
0.0
 10
11.4888716212
 20
7.8625558121
 30
0.0
 10
11.4886207232
 20
7.8693019479
 30
0.0
 10
11.4886207232
 20
7.8726651939
 30
0.0
  0
SPLINE
  5
377
100
AcDbEntity
  8
0
100
AcDbSpline
 62
7
  6
CONTINUOUS
 70
0
 71
3
 72
21
 73
17
 74
0
 42
0.0000001
 43
0.0000001
 44
0.0000000001
 40
0.0
 40
0.0
 40
0.0
 40
0.0
 40
0.0617147806
 40
0.1234506635
 40
0.1852285505
 40
0.2470689066
 40
0.3089915473
 40
0.3710154718
 40
0.4331586569
 40
0.4954378562
 40
0.5578685009
 40
0.620464496
 40
0.6832380525
 40
0.7462000245
 40
0.8726823634
 40
1.0
 40
1.0
 40
1.0
 40
1.0
 10
10.5714754188
 20
6.6569781645
 30
0.0
 10
10.5694621279
 20
6.6550334746
 30
0.0
 10
10.5655342174
 20
6.6510390269
 30
0.0
 10
10.5599572277
 20
6.6447511854
 30
0.0
 10
10.5547068492
 20
6.6381805837
 30
0.0
 10
10.5497954368
 20
6.6313425539
 30
0.0
 10
10.5452342305
 20
6.6242528389
 30
0.0
 10
10.5410337364
 20
6.6169278197
 30
0.0
 10
10.5372036659
 20
6.6093843672
 30
0.0
 10
10.5337528293
 20
6.6016398957
 30
0.0
 10
10.5306891363
 20
6.5937122651
 30
0.0
 10
10.5280196731
 20
6.5856198044
 30
0.0
 10
10.5257505562
 20
6.5773809529
 30
0.0
 10
10.5232623429
 20
6.5662111488
 30
0.0
 10
10.5211805435
 20
6.5519714434
 30
0.0
 10
10.520629318
 20
6.5404526598
 30
0.0
 10
10.520629318
 20
6.5346780414
 30
0.0
  0
SPLINE
  5
378
100
AcDbEntity
  8
0
100
AcDbSpline
 62
7
  6
CONTINUOUS
 70
0
 71
3
 72
21
 73
17
 74
0
 42
0.0000001
 43
0.0000001
 44
0.0000000001
 40
0.0
 40
0.0
 40
0.0
 40
0.0
 40
0.0617147806
 40
0.1234506635
 40
0.1852285505
 40
0.2470689066
 40
0.3089915473
 40
0.3710154718
 40
0.4331586569
 40
0.4954378562
 40
0.5578685009
 40
0.620464496
 40
0.6832380525
 40
0.7462000245
 40
0.8726823634
 40
1.0
 40
1.0
 40
1.0
 40
1.0
 10
10.9935850649
 20
6.1138321285
 30
0.0
 10
10.991571774
 20
6.1118874385
 30
0.0
 10
10.9876438635
 20
6.1078929908
 30
0.0
 10
10.9820668738
 20
6.1016051494
 30
0.0
 10
10.9768164953
 20
6.0950345477
 30
0.0
 10
10.9719050829
 20
6.0881965179
 30
0.0
 10
10.9673438766
 20
6.0811068028
 30
0.0
 10
10.9631433825
 20
6.0737817836
 30
0.0
 10
10.959313312
 20
6.0662383312
 30
0.0
 10
10.9558624754
 20
6.0584938597
 30
0.0
 10
10.9527987824
 20
6.050566229
 30
0.0
 10
10.9501293192
 20
6.0424737683
 30
0.0
 10
10.9478602023
 20
6.0342349168
 30
0.0
 10
10.945371989
 20
6.0230651128
 30
0.0
 10
10.9432901896
 20
6.0088254074
 30
0.0
 10
10.9427389641
 20
5.9973066237
 30
0.0
 10
10.9427389641
 20
5.9915320054
 30
0.0
  0
SPLINE
  5
379
100
AcDbEntity
  8
0
100
AcDbSpline
 62
7
  6
CONTINUOUS
 70
0
 71
3
 72
21
 73
17
 74
0
 42
0.0000001
 43
0.0000001
 44
0.0000000001
 40
0.0
 40
0.0
 40
0.0
 40
0.0
 40
0.0617147806
 40
0.1234506635
 40
0.1852285505
 40
0.2470689066
 40
0.3089915473
 40
0.3710154718
 40
0.4331586569
 40
0.4954378562
 40
0.5578685009
 40
0.620464496
 40
0.6832380525
 40
0.7462000245
 40
0.8726823634
 40
1.0
 40
1.0
 40
1.0
 40
1.0
 10
9.9977154615
 20
7.0889343638
 30
0.0
 10
9.9957021706
 20
7.0869896738
 30
0.0
 10
9.9917742601
 20
7.0829952261
 30
0.0
 10
9.9861972704
 20
7.0767073847
 30
0.0
 10
9.9809468919
 20
7.070136783
 30
0.0
 10
9.9760354794
 20
7.0632987532
 30
0.0
 10
9.9714742732
 20
7.0562090381
 30
0.0
 10
9.9672737791
 20
7.0488840189
 30
0.0
 10
9.9634437086
 20
7.0413405665
 30
0.0
 10
9.959992872
 20
7.033596095
 30
0.0
 10
9.956929179
 20
7.0256684643
 30
0.0
 10
9.9542597157
 20
7.0175760036
 30
0.0
 10
9.9519905989
 20
7.0093371522
 30
0.0
 10
9.9495023856
 20
6.9981673481
 30
0.0
 10
9.9474205862
 20
6.9839276427
 30
0.0
 10
9.9468693607
 20
6.972408859
 30
0.0
 10
9.9468693607
 20
6.9666342407
 30
0.0
  0
SPLINE
  5
37A
100
AcDbEntity
  8
0
100
AcDbSpline
 62
7
  6
CONTINUOUS
 70
0
 71
3
 72
11
 73
7
 74
0
 42
0.0000001
 43
0.0000001
 44
0.0000000001
 40
0.0
 40
0.0
 40
0.0
 40
0.0
 40
0.2549228062
 40
0.5056520352
 40
0.7535424898
 40
1.0
 40
1.0
 40
1.0
 40
1.0
 10
11.3850230943
 20
9.5836840985
 30
0.0
 10
11.3853216921
 20
9.5827427897
 30
0.0
 10
11.3858472449
 20
9.5808536181
 30
0.0
 10
11.3864162452
 20
9.5779876795
 30
0.0
 10
11.3867578806
 20
9.5751187957
 30
0.0
 10
11.3868339112
 20
9.5732029149
 30
0.0
 10
11.386833914
 20
9.5722481745
 30
0.0
  0
SPLINE
  5
37B
100
AcDbEntity
  8
0
100
AcDbSpline
 62
7
  6
CONTINUOUS
 70
0
 71
3
 72
15
 73
11
 74
0
 42
0.0000001
 43
0.0000001
 44
0.0000000001
 40
0.0
 40
0.0
 40
0.0
 40
0.0
 40
0.1273482789
 40
0.2538606571
 40
0.3795878378
 40
0.5046051156
 40
0.629017439
 40
0.7529533823
 40
0.8765605864
 40
1.0
 40
1.0
 40
1.0
 40
1.0
 10
11.4886207232
 20
5.8210385473
 30
0.0
 10
11.4886207232
 20
5.825365631
 30
0.0
 10
11.4890338735
 20
5.8339973778
 30
0.0
 10
11.4909022781
 20
5.8467789798
 30
0.0
 10
11.4940004173
 20
5.8592394345
 30
0.0
 10
11.4983003052
 20
5.8712622068
 30
0.0
 10
11.5037625054
 20
5.8827364234
 30
0.0
 10
11.5103371897
 20
5.893556145
 30
0.0
 10
11.5179625591
 20
5.9036199898
 30
0.0
 10
11.5237040814
 20
5.9097675692
 30
0.0
 10
11.5267208172
 20
5.9126815322
 30
0.0
  0
SPLINE
  5
37C
100
AcDbEntity
  8
0
100
AcDbSpline
 62
7
  6
CONTINUOUS
 70
0
 71
3
 72
42
 73
38
 74
0
 42
0.0000001
 43
0.0000001
 44
0.0000000001
 40
0.0
 40
0.0
 40
0.0
 40
0.0
 40
0.0310747671
 40
0.0466741744
 40
0.0623120752
 40
0.0936967636
 40
0.1252253831
 40
0.1568866086
 40
0.188666231
 40
0.2205476529
 40
0.2525121971
 40
0.2845395151
 40
0.3166080013
 40
0.3486952303
 40
0.3807784043
 40
0.4128348061
 40
0.4448422504
 40
0.4767795287
 40
0.5086268395
 40
0.5403661985
 40
0.5719818222
 40
0.603460476
 40
0.6347917816
 40
0.665968474
 40
0.6969866017
 40
0.7278456627
 40
0.7585486678
 40
0.7891021282
 40
0.8195159588
 40
0.8498032991
 40
0.8649073391
 40
0.8799860234
 40
0.9100712949
 40
0.940085795
 40
0.9550764649
 40
0.9700580337
 40
1.0
 40
1.0
 40
1.0
 40
1.0
 10
10.9427389641
 20
5.9915320054
 30
0.0
 10
10.9427389641
 20
5.9870436845
 30
0.0
 10
10.9429898513
 20
5.9802988566
 30
0.0
 10
10.9438184372
 20
5.9713355458
 30
0.0
 10
10.944979452
 20
5.9623636519
 30
0.0
 10
10.9470490999
 20
5.9511974583
 30
0.0
 10
10.9505012678
 20
5.9379690759
 30
0.0
 10
10.9549061544
 20
5.924966274
 30
0.0
 10
10.9602394297
 20
5.9122608526
 30
0.0
 10
10.9664717286
 20
5.8999224202
 30
0.0
 10
10.973568765
 20
5.8880187122
 30
0.0
 10
10.9814915276
 20
5.8766150349
 30
0.0
 10
10.9901964924
 20
5.8657739636
 30
0.0
 10
10.9996358595
 20
5.8555549887
 30
0.0
 10
11.0097578135
 20
5.8460141972
 30
0.0
 10
11.0205068047
 20
5.8372039663
 30
0.0
 10
11.0318238512
 20
5.8291726795
 30
0.0
 10
11.0436468584
 20
5.8219644629
 30
0.0
 10
11.0559109561
 20
5.8156189448
 30
0.0
 10
11.0685488495
 20
5.8101710392
 30
0.0
 10
11.0814911836
 20
5.8056507532
 30
0.0
 10
11.0946669187
 20
5.8020830225
 30
0.0
 10
11.1080037149
 20
5.7994875725
 30
0.0
 10
11.1214283245
 20
5.7978788075
 30
0.0
 10
11.1348669849
 20
5.7972657245
 30
0.0
 10
11.1482458338
 20
5.7976518651
 30
0.0
 10
11.1614912571
 20
5.7990352631
 30
0.0
 10
11.1745304938
 20
5.801408538
 30
0.0
 10
11.1872912857
 20
5.8047585881
 30
0.0
 10
11.1976461299
 20
5.8083531664
 30
0.0
 10
11.2057172376
 20
5.8116960273
 30
0.0
 10
11.2136249645
 20
5.815339741
 30
0.0
 10
11.2232131195
 20
5.8204615598
 30
0.0
 10
11.2323566972
 20
5.8263170121
 30
0.0
 10
11.2393641406
 20
5.8314161475
 30
0.0
 10
11.2461553332
 20
5.8367822875
 30
0.0
 10
11.2510045071
 20
5.8411071137
 30
0.0
 10
11.2541150697
 20
5.844111687
 30
0.0
  0
SPLINE
  5
37D
100
AcDbEntity
  8
0
100
AcDbSpline
 62
7
  6
CONTINUOUS
 70
0
 71
3
 72
42
 73
38
 74
0
 42
0.0000001
 43
0.0000001
 44
0.0000000001
 40
0.0
 40
0.0
 40
0.0
 40
0.0
 40
0.0310747671
 40
0.0466741744
 40
0.0623120752
 40
0.0936967636
 40
0.1252253831
 40
0.1568866086
 40
0.188666231
 40
0.2205476529
 40
0.2525121971
 40
0.2845395151
 40
0.3166080013
 40
0.3486952303
 40
0.3807784043
 40
0.4128348061
 40
0.4448422504
 40
0.4767795287
 40
0.5086268395
 40
0.5403661985
 40
0.5719818222
 40
0.603460476
 40
0.6347917816
 40
0.665968474
 40
0.6969866017
 40
0.7278456627
 40
0.7585486678
 40
0.7891021282
 40
0.8195159588
 40
0.8498032991
 40
0.8649073391
 40
0.8799860234
 40
0.9100712949
 40
0.940085795
 40
0.9550764649
 40
0.9700580337
 40
1.0
 40
1.0
 40
1.0
 40
1.0
 10
10.520629318
 20
6.5346780414
 30
0.0
 10
10.520629318
 20
6.5301897206
 30
0.0
 10
10.5208802052
 20
6.5234448927
 30
0.0
 10
10.5217087911
 20
6.5144815819
 30
0.0
 10
10.5228698059
 20
6.505509688
 30
0.0
 10
10.5249394538
 20
6.4943434944
 30
0.0
 10
10.5283916217
 20
6.481115112
 30
0.0
 10
10.5327965083
 20
6.4681123101
 30
0.0
 10
10.5381297836
 20
6.4554068886
 30
0.0
 10
10.5443620825
 20
6.4430684563
 30
0.0
 10
10.5514591189
 20
6.4311647482
 30
0.0
 10
10.5593818814
 20
6.4197610709
 30
0.0
 10
10.5680868462
 20
6.4089199996
 30
0.0
 10
10.5775262134
 20
6.3987010248
 30
0.0
 10
10.5876481674
 20
6.3891602333
 30
0.0
 10
10.5983971586
 20
6.3803500024
 30
0.0
 10
10.6097142051
 20
6.3723187155
 30
0.0
 10
10.6215372123
 20
6.365110499
 30
0.0
 10
10.63380131
 20
6.3587649809
 30
0.0
 10
10.6464392034
 20
6.3533170753
 30
0.0
 10
10.6593815374
 20
6.3487967893
 30
0.0
 10
10.6725572726
 20
6.3452290586
 30
0.0
 10
10.6858940688
 20
6.3426336086
 30
0.0
 10
10.6993186784
 20
6.3410248435
 30
0.0
 10
10.7127573388
 20
6.3404117605
 30
0.0
 10
10.7261361877
 20
6.3407979011
 30
0.0
 10
10.739381611
 20
6.3421812992
 30
0.0
 10
10.7524208477
 20
6.344554574
 30
0.0
 10
10.7651816396
 20
6.3479046241
 30
0.0
 10
10.7755364838
 20
6.3514992025
 30
0.0
 10
10.7836075915
 20
6.3548420634
 30
0.0
 10
10.7915153184
 20
6.3584857771
 30
0.0
 10
10.8011034734
 20
6.3636075959
 30
0.0
 10
10.8102470511
 20
6.3694630481
 30
0.0
 10
10.8172544945
 20
6.3745621835
 30
0.0
 10
10.8240456871
 20
6.3799283235
 30
0.0
 10
10.828894861
 20
6.3842531498
 30
0.0
 10
10.8320054236
 20
6.387257723
 30
0.0
  0
SPLINE
  5
37E
100
AcDbEntity
  8
0
100
AcDbSpline
 62
7
  6
CONTINUOUS
 70
0
 71
3
 72
15
 73
11
 74
0
 42
0.0000001
 43
0.0000001
 44
0.0000000001
 40
0.0
 40
0.0
 40
0.0
 40
0.0
 40
0.1273482789
 40
0.2538606571
 40
0.3795878378
 40
0.5046051156
 40
0.629017439
 40
0.7529533823
 40
0.8765605864
 40
1.0
 40
1.0
 40
1.0
 40
1.0
 10
11.4886207232
 20
7.8726651939
 30
0.0
 10
11.4886207232
 20
7.8769922776
 30
0.0
 10
11.4890338735
 20
7.8856240244
 30
0.0
 10
11.4909022781
 20
7.8984056264
 30
0.0
 10
11.4940004173
 20
7.9108660811
 30
0.0
 10
11.4983003052
 20
7.9228888534
 30
0.0
 10
11.5037625054
 20
7.93436307
 30
0.0
 10
11.5103371897
 20
7.9451827916
 30
0.0
 10
11.5179625591
 20
7.9552466364
 30
0.0
 10
11.5237040814
 20
7.9613942158
 30
0.0
 10
11.5267208172
 20
7.9643081788
 30
0.0
  0
SPLINE
  5
37F
100
AcDbEntity
  8
0
100
AcDbSpline
 62
7
  6
CONTINUOUS
 70
0
 71
3
 72
42
 73
38
 74
0
 42
0.0000001
 43
0.0000001
 44
0.0000000001
 40
0.0
 40
0.0
 40
0.0
 40
0.0
 40
0.0310747671
 40
0.0466741744
 40
0.0623120752
 40
0.0936967636
 40
0.1252253831
 40
0.1568866086
 40
0.188666231
 40
0.2205476529
 40
0.2525121971
 40
0.2845395151
 40
0.3166080013
 40
0.3486952303
 40
0.3807784043
 40
0.4128348061
 40
0.4448422504
 40
0.4767795287
 40
0.5086268395
 40
0.5403661985
 40
0.5719818222
 40
0.603460476
 40
0.6347917816
 40
0.665968474
 40
0.6969866017
 40
0.7278456627
 40
0.7585486678
 40
0.7891021282
 40
0.8195159588
 40
0.8498032991
 40
0.8649073391
 40
0.8799860234
 40
0.9100712949
 40
0.940085795
 40
0.9550764649
 40
0.9700580337
 40
1.0
 40
1.0
 40
1.0
 40
1.0
 10
9.9468693607
 20
6.9666342407
 30
0.0
 10
9.9468693607
 20
6.9621459198
 30
0.0
 10
9.9471202479
 20
6.9554010919
 30
0.0
 10
9.9479488338
 20
6.9464377811
 30
0.0
 10
9.9491098486
 20
6.9374658872
 30
0.0
 10
9.9511794965
 20
6.9262996936
 30
0.0
 10
9.9546316644
 20
6.9130713112
 30
0.0
 10
9.959036551
 20
6.9000685093
 30
0.0
 10
9.9643698263
 20
6.8873630879
 30
0.0
 10
9.9706021252
 20
6.8750246555
 30
0.0
 10
9.9776991615
 20
6.8631209475
 30
0.0
 10
9.9856219241
 20
6.8517172702
 30
0.0
 10
9.9943268889
 20
6.8408761989
 30
0.0
 10
10.0037662561
 20
6.8306572241
 30
0.0
 10
10.0138882101
 20
6.8211164325
 30
0.0
 10
10.0246372013
 20
6.8123062016
 30
0.0
 10
10.0359542478
 20
6.8042749148
 30
0.0
 10
10.047777255
 20
6.7970666982
 30
0.0
 10
10.0600413527
 20
6.7907211801
 30
0.0
 10
10.0726792461
 20
6.7852732745
 30
0.0
 10
10.0856215801
 20
6.7807529885
 30
0.0
 10
10.0987973153
 20
6.7771852578
 30
0.0
 10
10.1121341115
 20
6.7745898079
 30
0.0
 10
10.1255587211
 20
6.7729810428
 30
0.0
 10
10.1389973815
 20
6.7723679598
 30
0.0
 10
10.1523762304
 20
6.7727541004
 30
0.0
 10
10.1656216537
 20
6.7741374984
 30
0.0
 10
10.1786608904
 20
6.7765107733
 30
0.0
 10
10.1914216823
 20
6.7798608234
 30
0.0
 10
10.2017765265
 20
6.7834554017
 30
0.0
 10
10.2098476342
 20
6.7867982626
 30
0.0
 10
10.2177553611
 20
6.7904419763
 30
0.0
 10
10.2273435161
 20
6.7955637951
 30
0.0
 10
10.2364870937
 20
6.8014192474
 30
0.0
 10
10.2434945372
 20
6.8065183828
 30
0.0
 10
10.2502857298
 20
6.8118845228
 30
0.0
 10
10.2551349037
 20
6.816209349
 30
0.0
 10
10.2582454663
 20
6.8192139223
 30
0.0
  0
ELLIPSE
  5
380
100
AcDbEntity
  8
0
100
AcDbEllipse
 62
7
  6
CONTINUOUS
 10
10.6930709386
 20
7.3085800107
 30
0.0
 11
-0.0480658958
 21
0.1858243619
 31
0.0
 40
0.9474856573
 41
-3.7776336378
 42
-0.7057196686
  0
ELLIPSE
  5
381
100
AcDbEntity
  8
0
100
AcDbEllipse
 62
7
  6
CONTINUOUS
 10
10.6930709386
 20
7.3085800107
 30
0.0
 11
-0.0480658958
 21
0.1858243619
 31
0.0
 40
0.9474856573
 41
-0.6360409842
 42
2.435872985
  0
ELLIPSE
  5
382
100
AcDbEntity
  8
0
100
AcDbEllipse
 62
7
  6
CONTINUOUS
 10
11.125042159
 20
7.7897740317
 30
0.0
 11
-0.1569028638
 21
0.1666520575
 31
0.0
 40
0.7643028659
 41
0.0
 42
6.2831853072
  0
ENDSEC
  0
SECTION
  2
OBJECTS
  0
DICTIONARY
  5
C
100
AcDbDictionary
280
0
281
1
  3
ACAD_GROUP
350
D
  3
ACAD_MLINESTYLE
350
17
  3
ACAD_LAYOUT
350
1A
  3
ACAD_PLOTSETTINGS
350
19
  3
ACAD_PLOTSTYLENAME
350
E
  3
ACAD_IMAGE_DICT
350
       384
  3
ACAD_IMAGE_VARS
350
       385
  3
ACAD_TABLESTYLE
350
       386
  0
IMAGEDEF_REACTOR
  5
383
100
AcDbRasterImageDefReactor
 90
2
330
275
  0
DICTIONARY
  5
D
102
{ACAD_REACTORS
330
C
102
}
100
AcDbDictionary
280
0
281
1
  0
ACDBDICTIONARYWDFLT
  5
E
102
{ACAD_REACTORS
330
C
102
}
100
AcDbDictionary
281
1
  3
Normal
350
F
100
AcDbDictionaryWithDefault
340
F
  0
DICTIONARY
  5
384
330
C
100
AcDbDictionary
281
1
  3
RPGCLAN-CBA_assy_2_img_1
350
       389
  0
RASTERVARIABLES
  5
385
330
C
100
AcDbRasterVariables
 90
0
 70
0
 71
1
 72
5
  0
DICTIONARY
  5
17
102
{ACAD_REACTORS
330
C
102
}
100
AcDbDictionary
280
0
281
1
  3
Standard
350
18
  0
DICTIONARY
  5
386
330
C
100
AcDbDictionary
281
1
  3
Standard
350
       38A
  3
Standard1
350
       38B
  0
DICTIONARY
  5
19
102
{ACAD_REACTORS
330
C
102
}
100
AcDbDictionary
281
1
  0
DICTIONARY
  5
1A
102
{ACAD_REACTORS
330
C
102
}
100
AcDbDictionary
281
1
  3
Model
350
387
  3
Layout1
350
388
  0
ACDBPLACEHOLDER
  5
F
102
{ACAD_REACTORS
330
E
102
}
  0
MLINESTYLE
  5
18
102
{ACAD_REACTORS
330
17
102
}
100
AcDbMlineStyle
  2
STANDARD
 70
0
  3

 62
256
 51
90.0
 52
90.0
 71
2
 49
0.5
 62
256
  6
BYLAYER
 49
-0.5
 62
256
  6
BYLAYER
  0
LAYOUT
  5
387
102
{ACAD_REACTORS
330
1A
102
}
100
AcDbPlotSettings
  1

  2
none_device
  4
ANSI_C_(22.00_x_17.00_Inches)
  6

 40
0.0
 41
0.0
 42
0.0
 43
0.0
 44
558.8
 45
431.8
 46
0.0
 47
0.0
 48
0.0
 49
0.0
140
0.0
141
0.0
142
1.0
143
1.0
 70
1024
 72
0
 73
0
 74
0
  7

 75
0
147
1.0
148
0.0
149
0.0
100
AcDbLayout
  1
Model
 70
0
 71
0
 10
0.0
 20
0.0
 11
22.0
 21
17.0
 12
0.0
 22
0.0
 32
0.0
 14
0.0
 24
0.0
 34
0.0
 15
0.0
 25
0.0
 35
0.0
146
0.0
 13
0.0
 23
0.0
 33
0.0
 16
1.0
 26
0.0
 36
0.0
 17
0.0
 27
1.0
 37
0.0
 76
0
330
20F
345
0
346
0
  0
LAYOUT
  5
388
102
{ACAD_REACTORS
330
1A
102
}
100
AcDbPlotSettings
  1

  2
none_device
  4
ANSI_C_(22.00_x_17.00_Inches)
  6

 40
0.0
 41
0.0
 42
0.0
 43
0.0
 44
558.8
 45
431.8
 46
0.0
 47
0.0
 48
0.0
 49
0.0
140
0.0
141
0.0
142
1.0
143
1.0
 70
0
 72
0
 73
0
 74
0
  7

 75
0
147
1.0
148
0.0
149
0.0
100
AcDbLayout
  1
Layout1
 70
0
 71
1
 10
0.0
 20
0.0
 11
22.0
 21
17.0
 12
0.0
 22
0.0
 32
0.0
 14
0.0
 24
0.0
 34
0.0
 15
0.0
 25
0.0
 35
0.0
146
0.0
 13
0.0
 23
0.0
 33
0.0
 16
1.0
 26
0.0
 36
0.0
 17
0.0
 27
1.0
 37
0.0
 76
0
330
210
345
0
346
0
  0
IMAGEDEF
  5
389
102
{ACAD_REACTORS
330
384
330
383
102
}
100
AcDbRasterImageDef
 90
0
  1
RPGCLAN-CBA_assy_2_img_1.png
 10
369.0
 20
92.0
 11
0.0066666667
 21
0.0066666667
280
1
281
0
  0
TABLESTYLE
  5
38A
102
{ACAD_REACTORS
330
386
330
278
102
}
330
386
100
AcDbTableStyle
  3
Standard
 70
0
 71
0
 40
0.06
 41
0.06
280
1
281
1
  7
Standard
140
0.18
170
1
 62
0
 63
7
283
0
  7
Standard
140
0.18
170
1
 62
0
 63
7
283
0
  7
Standard
140
0.18
170
1
 62
0
 63
7
283
0
  0
TABLESTYLE
  5
38B
102
{ACAD_REACTORS
330
386
330
277
102
}
330
386
100
AcDbTableStyle
  3
Standard1
 70
1
 71
0
 40
0.06
 41
0.06
280
1
281
1
  7
Standard
140
0.18
170
1
 62
0
 63
7
283
0
  7
Standard
140
0.18
170
1
 62
0
 63
7
283
0
  7
Standard
140
0.18
170
1
 62
0
 63
7
283
0
  0
ENDSEC
  0
EOF
