999
DXF file: RPGCLAN-CB2-S_assy_2.dxf
999
Pro/ENGINEER 2014200 by Parametric Technology Corporation
  0
SECTION
  2
HEADER
  9
$ACADVER
  1
AC1021
  9
$DWGCODEPAGE
  3
ANSI_1252
  9
$EXTMAX
 10
22.0
 20
17.0
 30
0.0
  9
$EXTMIN
 10
0.0
 20
0.0
 30
0.0
  9
$LIMMIN
 10
0.0
 20
0.0
  9
$LIMMAX
 10
22.0
 20
17.0
  9
$VIEWCTR
 10
11.0
 20
8.5
  9
$VIEWSIZE
 40
17.0
  9
$CLAYER
  8
0
  9
$LTSCALE
 40
1.21
  9
$CELTYPE
  6
BYLAYER
  9
$DIMSCALE
 40
1.0
  9
$DIMASZ
 40
0.1875
  9
$DIMEXO
 40
0.0625
  9
$DIMDLI
 40
0.836
  9
$DIMEXE
 40
0.125
  9
$DIMCEN
 40
0.198
  9
$DIMLFAC
 40
1.0
  9
$DIMBLK
  1
_FILLED
  9
$DIMTXT
 40
0.1
  9
$DIMTOL
 70
0
  9
$DIMLIM
 70
0
  9
$DIMTFAC
 40
1.0
  9
$DIMGAP
 40
0.09
  9
$DIMDSEP
 70
46
  9
$AUNITS
 70
0
  9
$PDMODE
 70
3
  9
$PDSIZE
 40
0.3125
  9
$HANDSEED
  5
3BD
  9
$TILEMODE
 70
1
  9
$MEASUREMENT
 70
0
  9
$INSUNITS
 70
1
  0
ENDSEC
  0
SECTION
  2
CLASSES
  0
CLASS
  1
ACDBDICTIONARYWDFLT
  2
AcDbDictionaryWithDefault
  3
AutoCAD 2000
 90
0
 91
1
280
0
281
0
  0
CLASS
  1
ACDBPLACEHOLDER
  2
AcDbPlaceHolder
  3
AutoCAD 2000
 90
0
 91
1
280
0
281
0
  0
CLASS
  1
LAYOUT
  2
AcDbLayout
  3
AutoCAD 2000
 90
0
 91
0
280
0
281
0
  0
CLASS
  1
RASTERVARIABLES
  2
AcDbRasterVariables
  3
ISM
 90
0
 91
1
280
0
281
0
  0
CLASS
  1
IMAGEDEF
  2
AcDbRasterImageDef
  3
ISM
 90
0
 91
1
280
0
281
0
  0
CLASS
  1
IMAGEDEF_REACTOR
  2
AcDbRasterImageDefReactor
  3
ISM
 90
0
 91
1
280
0
281
0
  0
CLASS
  1
IMAGE
  2
AcDbRasterImage
  3
ISM
 90
127
 91
1
280
0
281
1
  0
CLASS
  1
TABLESTYLE
  2
AcDbTableStyle
  3
ObjectDBX Classes
 90
2047
 91
1
280
0
281
0
  0
CLASS
  1
ACAD_TABLE
  2
AcDbTable
  3
ObjectDBX Classes
 90
1025
 91
2
280
0
281
1
  0
ENDSEC
  0
SECTION
  2
TABLES
  0
TABLE
  2
VPORT
  5
8
100
AcDbSymbolTable
 70
2
  0
VPORT
  5
1F4
100
AcDbSymbolTableRecord
100
AcDbViewportTableRecord
  2
*ACTIVE
 70
0
 10
0.0
 20
0.0
 11
1.0
 21
1.0
 12
11.0
 22
8.5
 13
0.0
 23
0.0
 14
1.0
 24
1.0
 15
0.0
 25
0.0
 16
0.0
 26
0.0
 36
1.0
 17
0.0
 27
0.0
 37
0.0
 40
17.0
 41
1.2941176471
 42
50.0
 43
0.0
 44
0.0
 50
0.0
 51
0.0
 71
0
 72
100
 73
1
 74
1
 75
0
 76
0
 77
0
 78
0
  0
ENDTAB
  0
TABLE
  2
LTYPE
  5
5
100
AcDbSymbolTable
 70
6
  0
LTYPE
  5
14
100
AcDbSymbolTableRecord
100
AcDbLinetypeTableRecord
  2
BYBLOCK
 70
0
  3

 72
65
 73
0
 40
0.0
  0
LTYPE
  5
15
100
AcDbSymbolTableRecord
100
AcDbLinetypeTableRecord
  2
BYLAYER
 70
0
  3

 72
65
 73
0
 40
0.0
  0
LTYPE
  5
16
100
AcDbSymbolTableRecord
100
AcDbLinetypeTableRecord
  2
CONTINUOUS
 70
64
  3
Solid line
 72
65
 73
0
 40
0.0
  0
LTYPE
  5
1F5
100
AcDbSymbolTableRecord
100
AcDbLinetypeTableRecord
  2
CENTER
 70
64
  3
____ _ ____ _ ____ _ ____ _ ____ _ ____ _ ____
 72
65
 73
4
 40
0.6
 49
0.375
 74
0
 49
-0.075
 74
0
 49
0.075
 74
0
 49
-0.075
 74
0
  0
LTYPE
  5
1F6
100
AcDbSymbolTableRecord
100
AcDbLinetypeTableRecord
  2
HIDDEN
 70
64
  3
- - - - - - - - - - - - - - - - - - - -
 72
65
 73
2
 40
0.2
 49
0.1
 74
0
 49
-0.1
 74
0
  0
LTYPE
  5
1F7
100
AcDbSymbolTableRecord
100
AcDbLinetypeTableRecord
  2
PHANTOM
 70
64
  3
_____ _ _ _____ _ _ _____ _ _ _____
 72
65
 73
6
 40
0.8
 49
0.45
 74
0
 49
-0.05
 74
0
 49
0.1
 74
0
 49
-0.05
 74
0
 49
0.1
 74
0
 49
-0.05
 74
0
  0
LTYPE
  5
1F8
100
AcDbSymbolTableRecord
100
AcDbLinetypeTableRecord
  2
DOT
 70
64
  3
. . . . . . . . . . . . . . . . . . . .
 72
65
 73
2
 40
0.2
 49
0.1
 74
0
 49
-0.1
 74
0
  0
LTYPE
  5
1F9
100
AcDbSymbolTableRecord
100
AcDbLinetypeTableRecord
  2
DASHED
 70
64
  3
- - - - - - - - - - - - - - - - - - - -
 72
65
 73
2
 40
0.2
 49
0.1
 74
0
 49
-0.1
 74
0
  0
ENDTAB
  0
TABLE
  2
LAYER
  5
2
100
AcDbSymbolTable
 70
36
  0
LAYER
  5
10
100
AcDbSymbolTableRecord
100
AcDbLayerTableRecord
  2
0
 70
0
 62
7
  6
CONTINUOUS
370
-3
390
F
  0
LAYER
  5
1FA
100
AcDbSymbolTableRecord
100
AcDbLayerTableRecord
  2
DEFAULT_1
 70
0
 62
7
  6
CENTER
370
-3
390
F
  0
LAYER
  5
1FB
100
AcDbSymbolTableRecord
100
AcDbLayerTableRecord
  2
DEFAULT_2
 70
0
 62
8
  6
HIDDEN
370
-3
390
F
  0
LAYER
  5
1FC
100
AcDbSymbolTableRecord
100
AcDbLayerTableRecord
  2
DEFAULT_3
 70
0
 62
7
  6
PHANTOM
370
-3
390
F
  0
LAYER
  5
1FD
100
AcDbSymbolTableRecord
100
AcDbLayerTableRecord
  2
01___PRT_ALL_DTM_PLN
 70
0
 62
7
  6
CONTINUOUS
370
-3
390
F
  0
LAYER
  5
1FE
100
AcDbSymbolTableRecord
100
AcDbLayerTableRecord
  2
01___PRT_DEF_DTM_PLN
 70
0
 62
7
  6
CONTINUOUS
370
-3
390
F
  0
LAYER
  5
1FF
100
AcDbSymbolTableRecord
100
AcDbLayerTableRecord
  2
02___PRT_ALL_AXES
 70
0
 62
7
  6
CONTINUOUS
370
-3
390
F
  0
LAYER
  5
200
100
AcDbSymbolTableRecord
100
AcDbLayerTableRecord
  2
03___PRT_ALL_CURVES
 70
0
 62
7
  6
CONTINUOUS
370
-3
390
F
  0
LAYER
  5
201
100
AcDbSymbolTableRecord
100
AcDbLayerTableRecord
  2
04___PRT_ALL_DTM_PNT
 70
0
 62
7
  6
CONTINUOUS
370
-3
390
F
  0
LAYER
  5
202
100
AcDbSymbolTableRecord
100
AcDbLayerTableRecord
  2
05___PRT_ALL_DTM_CSYS
 70
0
 62
7
  6
CONTINUOUS
370
-3
390
F
  0
LAYER
  5
203
100
AcDbSymbolTableRecord
100
AcDbLayerTableRecord
  2
05___PRT_DEF_DTM_CSYS
 70
0
 62
7
  6
CONTINUOUS
370
-3
390
F
  0
LAYER
  5
204
100
AcDbSymbolTableRecord
100
AcDbLayerTableRecord
  2
06___PRT_ALL_SURFS
 70
0
 62
7
  6
CONTINUOUS
370
-3
390
F
  0
LAYER
  5
205
100
AcDbSymbolTableRecord
100
AcDbLayerTableRecord
  2
DATUM_PLANES
 70
0
 62
7
  6
CONTINUOUS
370
-3
390
F
  0
LAYER
  5
206
100
AcDbSymbolTableRecord
100
AcDbLayerTableRecord
  2
DIMENSIONS
 70
0
 62
7
  6
CONTINUOUS
370
-3
390
F
  0
LAYER
  5
207
100
AcDbSymbolTableRecord
100
AcDbLayerTableRecord
  2
DTM_500001
 70
0
 62
7
  6
CONTINUOUS
370
-3
390
F
  0
LAYER
  5
208
100
AcDbSymbolTableRecord
100
AcDbLayerTableRecord
  2
PARAMETERDIMENSIONS
 70
0
 62
7
  6
CONTINUOUS
370
-3
390
F
  0
LAYER
  5
209
100
AcDbSymbolTableRecord
100
AcDbLayerTableRecord
  2
PORT_AREAS
 70
0
 62
7
  6
CONTINUOUS
370
-3
390
F
  0
LAYER
  5
20A
100
AcDbSymbolTableRecord
100
AcDbLayerTableRecord
  2
SUNNBOMCOSMETIC
 70
0
 62
7
  6
CONTINUOUS
370
-3
390
F
  0
LAYER
  5
20B
100
AcDbSymbolTableRecord
100
AcDbLayerTableRecord
  2
SUNNBOMSTAMPING
 70
0
 62
7
  6
CONTINUOUS
370
-3
390
F
  0
LAYER
  5
20C
100
AcDbSymbolTableRecord
100
AcDbLayerTableRecord
  2
THREADS
 70
0
 62
7
  6
CONTINUOUS
370
-3
390
F
  0
ENDTAB
  0
TABLE
  2
STYLE
  5
3
100
AcDbSymbolTable
 70
1
  0
STYLE
  5
11
100
AcDbSymbolTableRecord
100
AcDbTextStyleTableRecord
  2
STANDARD
 70
0
 40
0.0
 41
0.8
 50
0.0
 71
0
 42
0.2
  3
txt
  4

  0
STYLE
  5
20D
100
AcDbSymbolTableRecord
100
AcDbTextStyleTableRecord
  2
TEXTSTYLE_1
 70
0
 40
0.0
 41
0.8
 50
0.0
 71
0
 42
0.2
  3
gdt
  4

  0
ENDTAB
  0
TABLE
  2
VIEW
  5
6
100
AcDbSymbolTable
 70
0
  0
ENDTAB
  0
TABLE
  2
UCS
  5
7
100
AcDbSymbolTable
 70
0
  0
ENDTAB
  0
TABLE
  2
APPID
  5
9
100
AcDbSymbolTable
 70
1
  0
APPID
  5
20E
100
AcDbSymbolTableRecord
100
AcDbRegAppTableRecord
  2
ACAD
 70
0
  0
ENDTAB
  0
TABLE
  2
BLOCK_RECORD
  5
1
100
AcDbSymbolTable
 70
0
  0
BLOCK_RECORD
  5
20F
100
AcDbSymbolTableRecord
100
AcDbBlockTableRecord
  2
*Model_Space
  0
BLOCK_RECORD
  5
210
100
AcDbSymbolTableRecord
100
AcDbBlockTableRecord
  2
*Paper_Space
  0
BLOCK_RECORD
  5
211
100
AcDbSymbolTableRecord
100
AcDbBlockTableRecord
  2
SUN_FIRST_THIRD_ANGLE_BL0
  0
BLOCK_RECORD
  5
212
100
AcDbSymbolTableRecord
100
AcDbBlockTableRecord
  2
*T1
  0
BLOCK_RECORD
  5
213
100
AcDbSymbolTableRecord
100
AcDbBlockTableRecord
  2
*T2
  0
ENDTAB
  0
TABLE
  2
DIMSTYLE
  5
A
100
AcDbSymbolTable
 70
1
100
AcDbDimStyleTable
 71
0
  0
DIMSTYLE
105
214
100
AcDbSymbolTableRecord
100
AcDbDimStyleTableRecord
  2
STANDARD
 70
0
  3

  4

 40
1.0
 41
0.1875
 42
0.0625
 43
0.38
 44
0.125
 45
0.0
 46
0.0
 47
0.001
 48
0.001
140
0.1
141
0.09
142
0.0
143
25.4
144
1.0
145
0.0
146
1.0
147
0.09
 71
0.0
 72
0.0
 73
1
 74
1
 75
0
 76
0
 77
0
 78
4
170
0
171
2
172
0
173
0
174
0
175
0
176
0
177
0
178
0
270
2
271
3
272
3
273
2
274
2
275
0
280
0
281
0
282
0
283
1
284
4
285
0
286
0
287
3
288
0
340
11
278
46
  0
ENDTAB
  0
ENDSEC
  0
SECTION
  2
BLOCKS
  0
BLOCK
  5
20
100
AcDbEntity
  8
0
100
AcDbBlockBegin
  2
*Model_Space
 70
0
 10
0.0
 20
0.0
 30
0.0
  3
*Model_Space
  1

  0
ENDBLK
  5
21
100
AcDbEntity
  8
0
100
AcDbBlockEnd
  0
BLOCK
  5
1C
100
AcDbEntity
  8
0
100
AcDbBlockBegin
  2
*Paper_Space
 70
0
 10
0.0
 20
0.0
 30
0.0
  3
*Paper_Space
  1

  0
ENDBLK
  5
1D
100
AcDbEntity
  8
0
100
AcDbBlockEnd
  0
BLOCK
  5
215
100
AcDbEntity
  8
0
100
AcDbBlockBegin
 62
2
  6
CONTINUOUS
  2
SUN_FIRST_THIRD_ANGLE_BL0
 70
64
 10
20.4816717061
 20
1.2289683772
  3
SUN_FIRST_THIRD_ANGLE_BL0
  1

  0
TEXT
  5
216
100
AcDbEntity
  8
0
100
AcDbText
 62
2
  6
CONTINUOUS
 10
19.4750896608
 20
1.4136269581
  7
STANDARD
 40
0.08
  1
FIRST ANGLE
 41
0.8
 72
0
100
AcDbText
  0
TEXT
  5
217
100
AcDbEntity
  8
0
100
AcDbText
 62
2
  6
CONTINUOUS
 10
20.7842537513
 20
1.4047600029
  7
STANDARD
 40
0.08
  1
THIRD ANGLE
 41
0.8
 72
0
100
AcDbText
  0
LINE
  5
218
100
AcDbEntity
  8
0
100
AcDbLine
 62
7
  6
CONTINUOUS
 10
19.4767170086
 20
1.1727031207
 11
19.6334271527
 21
1.1717972817
  0
LINE
  5
219
100
AcDbEntity
  8
0
100
AcDbLine
 62
7
  6
CONTINUOUS
 10
19.6596964832
 20
1.1717972817
 11
19.6950230232
 21
1.171593082
  0
LINE
  5
21A
100
AcDbEntity
  8
0
100
AcDbLine
 62
7
  6
CONTINUOUS
 10
19.7194818561
 20
1.1708914427
 11
19.8852396156
 21
1.1699333054
  0
LINE
  5
21B
100
AcDbEntity
  8
0
100
AcDbLine
 62
7
  6
CONTINUOUS
 10
19.4758111696
 20
1.2723454088
 11
19.88525039
 21
1.3511534004
  0
LINE
  5
21C
100
AcDbEntity
  8
0
100
AcDbLine
 62
7
  6
CONTINUOUS
 10
19.88525039
 20
1.3511534004
 11
19.8831348489
 21
0.9851647912
  0
LINE
  5
21D
100
AcDbEntity
  8
0
100
AcDbLine
 62
7
  6
CONTINUOUS
 10
19.8831348489
 20
0.9851647912
 11
19.4767170086
 21
1.0658141206
  0
LINE
  5
21E
100
AcDbEntity
  8
0
100
AcDbLine
 62
7
  6
CONTINUOUS
 10
19.4767170086
 20
1.0658141206
 11
19.4779056764
 21
1.2714536432
  0
CIRCLE
  5
21F
100
AcDbEntity
  8
0
100
AcDbCircle
 62
7
  6
CONTINUOUS
 10
20.2068232291
 20
1.1717972817
 40
0.175742101
  0
CIRCLE
  5
220
100
AcDbEntity
  8
0
100
AcDbCircle
 62
7
  6
CONTINUOUS
 10
20.2068232291
 20
1.1717972817
 40
0.1005522074
  0
LINE
  5
221
100
AcDbEntity
  8
0
100
AcDbLine
 62
7
  6
CONTINUOUS
 10
20.2077290681
 20
1.3756110529
 11
20.2071171714
 21
1.2379342989
  0
LINE
  5
222
100
AcDbEntity
  8
0
100
AcDbLine
 62
7
  6
CONTINUOUS
 10
20.2077290681
 20
1.2016899681
 11
20.2074674401
 21
1.1428236749
  0
LINE
  5
223
100
AcDbEntity
  8
0
100
AcDbLine
 62
7
  6
CONTINUOUS
 10
20.208634907
 20
1.101141841
 11
20.2080230104
 21
0.963465087
  0
LINE
  5
224
100
AcDbEntity
  8
0
100
AcDbLine
 62
7
  6
CONTINUOUS
 10
20.0066328138
 20
1.1745147986
 11
20.1443095678
 21
1.1739029019
  0
LINE
  5
225
100
AcDbEntity
  8
0
100
AcDbLine
 62
7
  6
CONTINUOUS
 10
20.1832714155
 20
1.1727031207
 11
20.238153505
 21
1.172335442
  0
LINE
  5
226
100
AcDbEntity
  8
0
100
AcDbLine
 62
7
  6
CONTINUOUS
 10
20.2756669918
 20
1.1717972817
 11
20.407916871
 21
1.1712095044
  0
CIRCLE
  5
227
100
AcDbEntity
  8
0
100
AcDbCircle
 62
7
  6
CONTINUOUS
 10
20.7509457401
 20
1.1693297793
 40
0.1722024983
  0
CIRCLE
  5
228
100
AcDbEntity
  8
0
100
AcDbCircle
 62
7
  6
CONTINUOUS
 10
20.7509457401
 20
1.1693297793
 40
0.0985164967
  0
LINE
  5
229
100
AcDbEntity
  8
0
100
AcDbLine
 62
7
  6
CONTINUOUS
 10
20.7169767782
 20
1.170462078
 11
20.7825395137
 21
1.1682766535
  0
LINE
  5
22A
100
AcDbEntity
  8
0
100
AcDbLine
 62
7
  6
CONTINUOUS
 10
20.8177513651
 20
1.1693297793
 11
20.947965719
 21
1.1693297793
  0
LINE
  5
22B
100
AcDbEntity
  8
0
100
AcDbLine
 62
7
  6
CONTINUOUS
 10
20.6875370113
 20
1.170462078
 11
20.5573226574
 21
1.170462078
  0
LINE
  5
22C
100
AcDbEntity
  8
0
100
AcDbLine
 62
7
  6
CONTINUOUS
 10
20.7486811426
 20
1.1987695462
 11
20.7486811426
 21
1.1432869085
  0
LINE
  5
22D
100
AcDbEntity
  8
0
100
AcDbLine
 62
7
  6
CONTINUOUS
 10
20.7498134414
 20
1.1059210505
 11
20.7498134414
 21
0.9757066966
  0
LINE
  5
22E
100
AcDbEntity
  8
0
100
AcDbLine
 62
7
  6
CONTINUOUS
 10
20.7486811426
 20
1.2338708068
 11
20.7486811426
 21
1.3640851607
  0
LINE
  5
22F
100
AcDbEntity
  8
0
100
AcDbLine
 62
7
  6
CONTINUOUS
 10
21.0702539817
 20
1.2701043662
 11
21.4790138229
 21
1.3448360823
  0
LINE
  5
230
100
AcDbEntity
  8
0
100
AcDbLine
 62
7
  6
CONTINUOUS
 10
21.4790138229
 20
1.3448360823
 11
21.4790138229
 21
0.9779712941
  0
LINE
  5
231
100
AcDbEntity
  8
0
100
AcDbLine
 62
7
  6
CONTINUOUS
 10
21.4790138229
 20
0.9779712941
 11
21.069121683
 21
1.0617614
  0
LINE
  5
232
100
AcDbEntity
  8
0
100
AcDbLine
 62
7
  6
CONTINUOUS
 10
21.0702539817
 20
1.2701043662
 11
21.069121683
 21
1.0617614
  0
LINE
  5
233
100
AcDbEntity
  8
0
100
AcDbLine
 62
7
  6
CONTINUOUS
 10
21.4790138229
 20
1.1693297793
 11
21.3159628059
 21
1.1693297793
  0
LINE
  5
234
100
AcDbEntity
  8
0
100
AcDbLine
 62
7
  6
CONTINUOUS
 10
21.2876553377
 20
1.1693297793
 11
21.2502894796
 21
1.1693297793
  0
LINE
  5
235
100
AcDbEntity
  8
0
100
AcDbLine
 62
7
  6
CONTINUOUS
 10
21.2208497126
 20
1.1659328831
 11
21.0713862804
 21
1.1659328831
  0
LINE
  5
236
100
AcDbEntity
  8
0
100
AcDbLine
 62
7
  6
CONTINUOUS
 10
20.4796138713
 20
1.5284908897
 11
20.4766766948
 21
0.9294458646
  0
ENDBLK
  5
237
100
AcDbEntity
  8
0
  6
BYBLOCK
 62
0
100
AcDbBlockEnd
  0
BLOCK
  5
238
100
AcDbEntity
  8
0
100
AcDbBlockBegin
  2
*T1
 70
1
 10
0.0
 20
0.0
  3
*T1
  1

  0
LINE
  5
239
100
AcDbEntity
  8
0
100
AcDbLine
 62
2
  6
CONTINUOUS
 10
9.275
 20
0.0
 11
-0.0
 21
0.0
  0
LINE
  5
23A
100
AcDbEntity
  8
0
100
AcDbLine
 62
2
  6
CONTINUOUS
 10
9.275
 20
0.0
 11
9.275
 21
1.25
  0
LINE
  5
23B
100
AcDbEntity
  8
0
100
AcDbLine
 62
2
  6
CONTINUOUS
 10
9.275
 20
0.625
 11
-0.0
 21
0.625
  0
LINE
  5
23C
100
AcDbEntity
  8
0
100
AcDbLine
 62
2
  6
CONTINUOUS
 10
9.275
 20
1.25
 11
-0.0
 21
1.25
  0
LINE
  5
23D
100
AcDbEntity
  8
0
100
AcDbLine
 62
2
  6
CONTINUOUS
 10
6.8
 20
0.0
 11
6.8
 21
1.25
  0
LINE
  5
23E
100
AcDbEntity
  8
0
100
AcDbLine
 62
2
  6
CONTINUOUS
 10
6.4
 20
0.0
 11
6.4
 21
0.625
  0
LINE
  5
23F
100
AcDbEntity
  8
0
100
AcDbLine
 62
2
  6
CONTINUOUS
 10
5.9
 20
0.0
 11
5.9
 21
0.625
  0
LINE
  5
240
100
AcDbEntity
  8
0
100
AcDbLine
 62
2
  6
CONTINUOUS
 10
5.2
 20
0.0
 11
5.2
 21
0.625
  0
LINE
  5
241
100
AcDbEntity
  8
0
100
AcDbLine
 62
2
  6
CONTINUOUS
 10
4.1
 20
0.0
 11
4.1
 21
1.25
  0
LINE
  5
242
100
AcDbEntity
  8
0
100
AcDbLine
 62
2
  6
CONTINUOUS
 10
-0.0
 20
0.0
 11
-0.0
 21
1.25
  0
MTEXT
  5
243
100
AcDbEntity
  8
0
100
AcDbMText
 62
2
  6
CONTINUOUS
  7
STANDARD
 71
2
 72
1
 10
6.6
 20
0.325
 30
0.0
 11
1.0
 21
0.0
 31
0.0
 44
0.9
  1
2
 40
0.125
 41
0.2
  0
MTEXT
  5
244
100
AcDbEntity
  8
0
100
AcDbMText
 62
2
  6
CONTINUOUS
  7
STANDARD
 71
2
 72
1
 10
6.15
 20
0.325
 30
0.0
 11
1.0
 21
0.0
 31
0.0
 44
0.9
  1
C
 40
0.125
 41
0.2
  0
MTEXT
  5
245
100
AcDbEntity
  8
0
100
AcDbMText
 62
2
  6
CONTINUOUS
  7
STANDARD
 71
2
 72
1
 10
5.55
 20
0.325
 30
0.0
 11
1.0
 21
0.0
 31
0.0
 44
0.9
  1
1.000
 40
0.125
 41
1.0
  0
MTEXT
  5
246
100
AcDbEntity
  8
0
100
AcDbMText
 62
2
  6
CONTINUOUS
  7
STANDARD
 71
2
 72
1
 10
4.65
 20
0.325
 30
0.0
 11
1.0
 21
0.0
 31
0.0
 44
0.9
  1
Jan-15-21
 40
0.125
 41
1.8
  0
MTEXT
  5
247
100
AcDbEntity
  8
0
100
AcDbMText
 62
2
  6
CONTINUOUS
  7
STANDARD
 71
2
 72
1
 10
2.05
 20
0.4625
 30
0.0
 11
1.0
 21
0.0
 31
0.0
 44
0.9
  1
Relief manifold assembly
 40
0.125
 41
4.8
  0
MTEXT
  5
248
100
AcDbEntity
  8
0
100
AcDbMText
 62
2
  6
CONTINUOUS
  7
STANDARD
 71
1
 72
1
 10
6.45
 20
0.5625
 30
0.0
 11
1.0
 21
0.0
 31
0.0
 44
0.9
  1
SHEET
 40
0.06
 41
0.48
  0
MTEXT
  5
249
100
AcDbEntity
  8
0
100
AcDbMText
 62
2
  6
CONTINUOUS
  7
STANDARD
 71
1
 72
1
 10
5.95
 20
0.5625
 30
0.0
 11
1.0
 21
0.0
 31
0.0
 44
0.9
  1
DWG SIZE
 40
0.06
 41
0.768
  0
MTEXT
  5
24A
100
AcDbEntity
  8
0
100
AcDbMText
 62
2
  6
CONTINUOUS
  7
STANDARD
 71
1
 72
1
 10
5.25
 20
0.5625
 30
0.0
 11
1.0
 21
0.0
 31
0.0
 44
0.9
  1
SCALE
 40
0.06
 41
0.48
  0
MTEXT
  5
24B
100
AcDbEntity
  8
0
100
AcDbMText
 62
2
  6
CONTINUOUS
  7
STANDARD
 71
1
 72
1
 10
4.15
 20
0.5625
 30
0.0
 11
1.0
 21
0.0
 31
0.0
 44
0.9
  1
DATE
 40
0.06
 41
0.384
  0
MTEXT
  5
24C
100
AcDbEntity
  8
0
100
AcDbMText
 62
2
  6
CONTINUOUS
  7
STANDARD
 71
1
 72
1
 10
0.05
 20
0.5625
 30
0.0
 11
1.0
 21
0.0
 31
0.0
 44
0.9
  1
DESCRIPTION
 40
0.06
 41
1.056
  0
MTEXT
  5
24D
100
AcDbEntity
  8
0
100
AcDbMText
 62
2
  6
CONTINUOUS
  7
STANDARD
 71
2
 72
1
 10
5.45
 20
1.0375
 30
0.0
 11
1.0
 21
0.0
 31
0.0
 44
0.9
  1
ALL DIMENSIONS IN INCH\PVIEWS ARE THIRD ANGLE
 40
0.12
 41
4.224
  0
MTEXT
  5
24E
100
AcDbEntity
  8
0
100
AcDbMText
 62
2
  6
CONTINUOUS
  7
STANDARD
 71
2
 72
1
 10
2.05
 20
0.95
 30
0.0
 11
1.0
 21
0.0
 31
0.0
 44
0.9
  1
RPGCLAN-CB2/S
 40
0.125
 41
2.6
  0
MTEXT
  5
24F
100
AcDbEntity
  8
0
100
AcDbMText
 62
2
  6
CONTINUOUS
  7
STANDARD
 71
1
 72
1
 10
0.05
 20
1.1875
 30
0.0
 11
1.0
 21
0.0
 31
0.0
 44
0.9
  1
MODEL
 40
0.06
 41
0.48
  0
ENDBLK
  5
250
100
AcDbEntity
  8
0
  6
BYBLOCK
 62
0
100
AcDbBlockEnd
  0
BLOCK
  5
251
100
AcDbEntity
  8
0
100
AcDbBlockBegin
  2
*T2
 70
1
 10
0.0
 20
0.0
  3
*T2
  1

  0
LINE
  5
252
100
AcDbEntity
  8
0
100
AcDbLine
 62
2
  6
CONTINUOUS
 10
0.0
 20
0.0
 11
9.055
 21
0.0
  0
LINE
  5
253
100
AcDbEntity
  8
0
100
AcDbLine
 62
2
  6
CONTINUOUS
 10
0.0
 20
0.0
 11
0.0
 21
-2.344
  0
LINE
  5
254
100
AcDbEntity
  8
0
100
AcDbLine
 62
2
  6
CONTINUOUS
 10
0.0
 20
-0.344
 11
9.055
 21
-0.344
  0
LINE
  5
255
100
AcDbEntity
  8
0
100
AcDbLine
 62
2
  6
CONTINUOUS
 10
0.0
 20
-0.594
 11
9.055
 21
-0.594
  0
LINE
  5
256
100
AcDbEntity
  8
0
100
AcDbLine
 62
2
  6
CONTINUOUS
 10
0.0
 20
-0.844
 11
9.055
 21
-0.844
  0
LINE
  5
257
100
AcDbEntity
  8
0
100
AcDbLine
 62
2
  6
CONTINUOUS
 10
0.0
 20
-1.094
 11
9.055
 21
-1.094
  0
LINE
  5
258
100
AcDbEntity
  8
0
100
AcDbLine
 62
2
  6
CONTINUOUS
 10
0.0
 20
-1.344
 11
9.055
 21
-1.344
  0
LINE
  5
259
100
AcDbEntity
  8
0
100
AcDbLine
 62
2
  6
CONTINUOUS
 10
0.0
 20
-1.594
 11
9.055
 21
-1.594
  0
LINE
  5
25A
100
AcDbEntity
  8
0
100
AcDbLine
 62
2
  6
CONTINUOUS
 10
0.0
 20
-1.844
 11
9.055
 21
-1.844
  0
LINE
  5
25B
100
AcDbEntity
  8
0
100
AcDbLine
 62
2
  6
CONTINUOUS
 10
0.0
 20
-2.094
 11
9.055
 21
-2.094
  0
LINE
  5
25C
100
AcDbEntity
  8
0
100
AcDbLine
 62
2
  6
CONTINUOUS
 10
0.0
 20
-2.344
 11
9.055
 21
-2.344
  0
LINE
  5
25D
100
AcDbEntity
  8
0
100
AcDbLine
 62
2
  6
CONTINUOUS
 10
3.055
 20
0.0
 11
3.055
 21
-2.344
  0
LINE
  5
25E
100
AcDbEntity
  8
0
100
AcDbLine
 62
2
  6
CONTINUOUS
 10
9.055
 20
0.0
 11
9.055
 21
-2.344
  0
MTEXT
  5
25F
100
AcDbEntity
  8
0
100
AcDbMText
 62
2
  6
CONTINUOUS
  7
STANDARD
 71
2
 72
1
 10
1.5275
 20
-0.0995
 30
0.0
 11
1.0
 21
0.0
 31
0.0
 44
0.9
  1
Technical Data
 40
0.145
 41
3.248
  0
MTEXT
  5
260
100
AcDbEntity
  8
0
100
AcDbMText
 62
2
  6
CONTINUOUS
  7
STANDARD
 71
2
 72
1
 10
4.555
 20
-0.0995
 30
0.0
 11
1.0
 21
0.0
 31
0.0
 44
0.9
  1
U.S. Units
 40
0.145
 41
2.32
  0
MTEXT
  5
261
100
AcDbEntity
  8
0
100
AcDbMText
 62
2
  6
CONTINUOUS
  7
STANDARD
 71
2
 72
1
 10
7.555
 20
-0.0995
 30
0.0
 11
1.0
 21
0.0
 31
0.0
 44
0.9
  1
Metric Units
 40
0.145
 41
2.784
  0
MTEXT
  5
262
100
AcDbEntity
  8
0
100
AcDbMText
 62
2
  6
CONTINUOUS
  7
STANDARD
 71
2
 72
1
 10
1.5275
 20
-0.4065
 30
0.0
 11
1.0
 21
0.0
 31
0.0
 44
0.9
  1
Cavity
 40
0.125
 41
1.2
  0
MTEXT
  5
263
100
AcDbEntity
  8
0
100
AcDbMText
 62
2
  6
CONTINUOUS
  7
STANDARD
 71
2
 72
1
 10
6.055
 20
-0.4065
 30
0.0
 11
1.0
 21
0.0
 31
0.0
 44
0.9
  1
T-3A
 40
0.125
 41
0.8
  0
MTEXT
  5
264
100
AcDbEntity
  8
0
100
AcDbMText
 62
2
  6
CONTINUOUS
  7
STANDARD
 71
2
 72
1
 10
1.5275
 20
-0.6565
 30
0.0
 11
1.0
 21
0.0
 31
0.0
 44
0.9
  1
Body Features
 40
0.125
 41
2.6
  0
MTEXT
  5
265
100
AcDbEntity
  8
0
100
AcDbMText
 62
2
  6
CONTINUOUS
  7
STANDARD
 71
2
 72
1
 10
6.055
 20
-0.6565
 30
0.0
 11
1.0
 21
0.0
 31
0.0
 44
0.9
  1
A to T, check T to B
 40
0.125
 41
4.0
  0
MTEXT
  5
266
100
AcDbEntity
  8
0
100
AcDbMText
 62
2
  6
CONTINUOUS
  7
STANDARD
 71
2
 72
1
 10
1.5275
 20
-0.9065
 30
0.0
 11
1.0
 21
0.0
 31
0.0
 44
0.9
  1
Body Type
 40
0.125
 41
1.8
  0
MTEXT
  5
267
100
AcDbEntity
  8
0
100
AcDbMText
 62
2
  6
CONTINUOUS
  7
STANDARD
 71
2
 72
1
 10
6.055
 20
-0.9065
 30
0.0
 11
1.0
 21
0.0
 31
0.0
 44
0.9
  1
Sandwich
 40
0.125
 41
1.6
  0
MTEXT
  5
268
100
AcDbEntity
  8
0
100
AcDbMText
 62
2
  6
CONTINUOUS
  7
STANDARD
 71
2
 72
1
 10
1.5275
 20
-1.1565
 30
0.0
 11
1.0
 21
0.0
 31
0.0
 44
0.9
  1
Interface
 40
0.125
 41
1.8
  0
MTEXT
  5
269
100
AcDbEntity
  8
0
100
AcDbMText
 62
2
  6
CONTINUOUS
  7
STANDARD
 71
2
 72
1
 10
6.055
 20
-1.1565
 30
0.0
 11
1.0
 21
0.0
 31
0.0
 44
0.9
  1
ISO 05
 40
0.125
 41
1.2
  0
MTEXT
  5
26A
100
AcDbEntity
  8
0
100
AcDbMText
 62
2
  6
CONTINUOUS
  7
STANDARD
 71
2
 72
1
 10
1.5275
 20
-1.4065
 30
0.0
 11
1.0
 21
0.0
 31
0.0
 44
0.9
  1
Open Cavity Quantity
 40
0.125
 41
4.0
  0
MTEXT
  5
26B
100
AcDbEntity
  8
0
100
AcDbMText
 62
2
  6
CONTINUOUS
  7
STANDARD
 71
2
 72
1
 10
6.055
 20
-1.4065
 30
0.0
 11
1.0
 21
0.0
 31
0.0
 44
0.9
  1
1
 40
0.125
 41
0.2
  0
MTEXT
  5
26C
100
AcDbEntity
  8
0
100
AcDbMText
 62
2
  6
CONTINUOUS
  7
STANDARD
 71
2
 72
1
 10
1.5275
 20
-1.6565
 30
0.0
 11
1.0
 21
0.0
 31
0.0
 44
0.9
  1
Stack Height
 40
0.125
 41
2.4
  0
MTEXT
  5
26D
100
AcDbEntity
  8
0
100
AcDbMText
 62
2
  6
CONTINUOUS
  7
STANDARD
 71
2
 72
1
 10
4.555
 20
-1.6565
 30
0.0
 11
1.0
 21
0.0
 31
0.0
 44
0.9
  1
1.94 in.
 40
0.125
 41
1.6
  0
MTEXT
  5
26E
100
AcDbEntity
  8
0
100
AcDbMText
 62
2
  6
CONTINUOUS
  7
STANDARD
 71
2
 72
1
 10
7.555
 20
-1.6565
 30
0.0
 11
1.0
 21
0.0
 31
0.0
 44
0.9
  1
49 mm
 40
0.125
 41
1.0
  0
MTEXT
  5
26F
100
AcDbEntity
  8
0
100
AcDbMText
 62
2
  6
CONTINUOUS
  7
STANDARD
 71
2
 72
1
 10
1.5275
 20
-1.9065
 30
0.0
 11
1.0
 21
0.0
 31
0.0
 44
0.9
  1
Weight
 40
0.125
 41
1.2
  0
MTEXT
  5
270
100
AcDbEntity
  8
0
100
AcDbMText
 62
2
  6
CONTINUOUS
  7
STANDARD
 71
2
 72
1
 10
4.555
 20
-1.9065
 30
0.0
 11
1.0
 21
0.0
 31
0.0
 44
0.9
  1
5.197 lb.
 40
0.125
 41
1.8
  0
MTEXT
  5
271
100
AcDbEntity
  8
0
100
AcDbMText
 62
2
  6
CONTINUOUS
  7
STANDARD
 71
2
 72
1
 10
7.555
 20
-1.9065
 30
0.0
 11
1.0
 21
0.0
 31
0.0
 44
0.9
  1
2,357 kg.
 40
0.125
 41
1.8
  0
MTEXT
  5
272
100
AcDbEntity
  8
0
100
AcDbMText
 62
2
  6
CONTINUOUS
  7
STANDARD
 71
2
 72
1
 10
1.5275
 20
-2.1565
 30
0.0
 11
1.0
 21
0.0
 31
0.0
 44
0.9
  1
Seal Plate Included (see notes)
 40
0.125
 41
6.2
  0
MTEXT
  5
273
100
AcDbEntity
  8
0
100
AcDbMText
 62
2
  6
CONTINUOUS
  7
STANDARD
 71
2
 72
1
 10
6.055
 20
-2.1565
 30
0.0
 11
1.0
 21
0.0
 31
0.0
 44
0.9
  1
No
 40
0.125
 41
0.4
  0
ENDBLK
  5
274
100
AcDbEntity
  8
0
  6
BYBLOCK
 62
0
100
AcDbBlockEnd
  0
ENDSEC
  0
SECTION
  2
ENTITIES
  0
IMAGE
  5
275
100
AcDbEntity
  8
0
100
AcDbRasterImage
 62
7
  6
CONTINUOUS
 10
19.2297077316
 20
0.3094318264
 30
0.0
 11
0.0066666667
 21
0.0
 31
0.0
 12
0.0
 22
0.0066666667
 32
0.0
 13
369.0
 23
92.0
340
       3BA
 70
9
280
0
281
50
282
50
283
0
360
       3B4
 71
1
 91
2
 14
-0.5
 24
-0.5
 14
368.5
 24
91.5
  0
INSERT
  5
276
100
AcDbEntity
  8
0
100
AcDbBlockReference
 62
2
  6
CONTINUOUS
  2
SUN_FIRST_THIRD_ANGLE_BL0
 10
20.4816717061
 20
1.2289683772
  0
ACAD_TABLE
  5
277
100
AcDbEntity
  8
0
 62
2
  6
CONTINUOUS
100
AcDbBlockReference
  2
*T1
 10
12.42375
 20
0.30125
 30
0.0
100
AcDbTable
342
       3BC
343
212
 11
1.0
 21
0.0
 31
0.0
 90
6
 91
4
 92
6
 93
20
 94
0
 95
0
 96
0
 70
1
 41
0.0
141
0.525
141
0.1
141
0.525
141
0.1
142
4.1
142
1.1
142
0.7
142
0.5
142
0.4
142
2.475
171
1
172
0
173
0
174
0
175
1
176
1
 91
33
178
0
145
0.0
301
CELL_VALUE
 90
4
  1
Relief manifold assembly
304
ACVALUE_END
170
2
140
0.125
171
1
172
0
173
0
174
0
175
1
176
1
 91
33
178
0
145
0.0
301
CELL_VALUE
 90
4
  1
Jan-15-21
304
ACVALUE_END
170
5
140
0.125
171
1
172
0
173
0
174
0
175
1
176
1
 91
33
178
0
145
0.0
301
CELL_VALUE
 90
4
  1
1.000
304
ACVALUE_END
170
5
140
0.125
171
1
172
0
173
0
174
0
175
1
176
1
 91
33
178
0
145
0.0
301
CELL_VALUE
 90
4
  1
C
304
ACVALUE_END
170
5
140
0.125
171
1
172
0
173
0
174
0
175
1
176
1
 91
33
178
0
145
0.0
301
CELL_VALUE
 90
4
  1
2
304
ACVALUE_END
170
5
140
0.125
171
1
172
0
173
0
174
0
175
1
176
1
 91
33
178
0
145
0.0
301
CELL_VALUE
 90
4
  1
 
304
ACVALUE_END
170
1
140
0.125
171
1
172
0
173
0
174
0
175
1
176
1
 91
33
178
0
145
0.0
301
CELL_VALUE
 90
4
  1
DESCRIPTION
304
ACVALUE_END
170
1
140
0.06
171
1
172
0
173
0
174
0
175
1
176
1
 91
33
178
0
145
0.0
301
CELL_VALUE
 90
4
  1
DATE
304
ACVALUE_END
170
1
140
0.06
171
1
172
0
173
0
174
0
175
1
176
1
 91
33
178
0
145
0.0
301
CELL_VALUE
 90
4
  1
SCALE
304
ACVALUE_END
170
1
140
0.06
171
1
172
0
173
0
174
0
175
1
176
1
 91
33
178
0
145
0.0
301
CELL_VALUE
 90
4
  1
DWG SIZE
304
ACVALUE_END
170
1
140
0.06
171
1
172
0
173
0
174
0
175
1
176
1
 91
33
178
0
145
0.0
301
CELL_VALUE
 90
4
  1
SHEET
304
ACVALUE_END
170
1
140
0.06
171
1
172
0
173
0
174
0
175
1
176
1
 91
33
178
0
145
0.0
301
CELL_VALUE
 90
4
  1
 
304
ACVALUE_END
170
1
140
0.125
171
1
172
0
173
0
174
0
175
1
176
1
 91
33
178
0
145
0.0
301
CELL_VALUE
 90
4
  1
RPGCLAN-CB2/S
304
ACVALUE_END
170
5
140
0.125
171
1
172
0
173
0
174
0
175
4
176
1
 91
33
178
0
145
0.0
301
CELL_VALUE
 90
4
  1
ALL DIMENSIONS IN INCH\PVIEWS ARE THIRD ANGLE
304
ACVALUE_END
170
5
140
0.12
171
1
172
0
173
1
174
0
175
1
176
1
 91
1
178
0
145
0.0
170
1
171
1
172
0
173
1
174
0
175
1
176
1
 91
1
178
0
145
0.0
170
1
171
1
172
0
173
1
174
0
175
1
176
1
 91
1
178
0
145
0.0
170
5
171
1
172
0
173
0
174
0
175
1
176
1
 91
33
178
0
145
0.0
301
CELL_VALUE
 90
4
  1
 
304
ACVALUE_END
170
1
140
0.125
171
1
172
0
173
0
174
0
175
1
176
1
 91
33
178
0
145
0.0
301
CELL_VALUE
 90
4
  1
MODEL
304
ACVALUE_END
170
1
140
0.06
171
1
172
0
173
0
174
0
175
1
176
1
 91
33
178
0
145
0.0
301
CELL_VALUE
 90
4
  1
 
304
ACVALUE_END
170
1
140
0.125
171
1
172
0
173
0
174
0
175
1
176
1
 91
33
178
0
145
0.0
301
CELL_VALUE
 90
4
  1
 
304
ACVALUE_END
170
1
140
0.125
171
1
172
0
173
0
174
0
175
1
176
1
 91
33
178
0
145
0.0
301
CELL_VALUE
 90
4
  1
 
304
ACVALUE_END
170
1
140
0.125
171
1
172
0
173
0
174
0
175
1
176
1
 91
33
178
0
145
0.0
301
CELL_VALUE
 90
4
  1
 
304
ACVALUE_END
170
1
140
0.125
171
1
172
0
173
0
174
0
175
1
176
1
 91
33
178
0
145
0.0
301
CELL_VALUE
 90
4
  1
 
304
ACVALUE_END
170
1
140
0.125
  0
ACAD_TABLE
  5
278
100
AcDbEntity
  8
0
 62
2
  6
CONTINUOUS
100
AcDbBlockReference
  2
*T2
 10
12.4237499994
 20
16.47875
 30
0.0
100
AcDbTable
342
       3BB
343
213
 11
1.0
 21
0.0
 31
0.0
 90
22
 91
9
 92
3
 93
16
 94
0
 95
0
 96
0
 41
0.028
141
0.344
141
0.25
141
0.25
141
0.25
141
0.25
141
0.25
141
0.25
141
0.25
141
0.25
142
3.055
142
3.0
142
3.0
171
1
172
0
173
0
174
0
175
1
176
1
 91
33
178
0
145
0.0
301
CELL_VALUE
 90
4
  1
Technical Data
304
ACVALUE_END
170
5
140
0.145
171
1
172
0
173
0
174
0
175
1
176
1
 91
33
178
0
145
0.0
301
CELL_VALUE
 90
4
  1
U.S. Units
304
ACVALUE_END
170
5
140
0.145
171
1
172
0
173
0
174
0
175
1
176
1
 91
33
178
0
145
0.0
301
CELL_VALUE
 90
4
  1
Metric Units
304
ACVALUE_END
170
5
140
0.145
171
1
172
0
173
0
174
0
175
1
176
1
 91
33
178
0
145
0.0
301
CELL_VALUE
 90
4
  1
Cavity
304
ACVALUE_END
170
5
140
0.125
171
1
172
0
173
0
174
0
175
2
176
1
 91
33
178
0
145
0.0
301
CELL_VALUE
 90
4
  1
T-3A
304
ACVALUE_END
170
5
140
0.125
171
1
172
0
173
1
174
0
175
1
176
1
 91
1
178
0
145
0.0
170
1
171
1
172
0
173
0
174
0
175
1
176
1
 91
33
178
0
145
0.0
301
CELL_VALUE
 90
4
  1
Body Features
304
ACVALUE_END
170
5
140
0.125
171
1
172
0
173
0
174
0
175
2
176
1
 91
33
178
0
145
0.0
301
CELL_VALUE
 90
4
  1
A to T, check T to B
304
ACVALUE_END
170
5
140
0.125
171
1
172
0
173
1
174
0
175
1
176
1
 91
1
178
0
145
0.0
170
1
171
1
172
0
173
0
174
0
175
1
176
1
 91
33
178
0
145
0.0
301
CELL_VALUE
 90
4
  1
Body Type
304
ACVALUE_END
170
5
140
0.125
171
1
172
0
173
0
174
0
175
2
176
1
 91
33
178
0
145
0.0
301
CELL_VALUE
 90
4
  1
Sandwich
304
ACVALUE_END
170
5
140
0.125
171
1
172
0
173
1
174
0
175
1
176
1
 91
1
178
0
145
0.0
170
1
171
1
172
0
173
0
174
0
175
1
176
1
 91
33
178
0
145
0.0
301
CELL_VALUE
 90
4
  1
Interface
304
ACVALUE_END
170
5
140
0.125
171
1
172
0
173
0
174
0
175
2
176
1
 91
33
178
0
145
0.0
301
CELL_VALUE
 90
4
  1
ISO 05
304
ACVALUE_END
170
5
140
0.125
171
1
172
0
173
1
174
0
175
1
176
1
 91
1
178
0
145
0.0
170
1
171
1
172
0
173
0
174
0
175
1
176
1
 91
33
178
0
145
0.0
301
CELL_VALUE
 90
4
  1
Open Cavity Quantity
304
ACVALUE_END
170
5
140
0.125
171
1
172
0
173
0
174
0
175
2
176
1
 91
33
178
0
145
0.0
301
CELL_VALUE
 90
4
  1
1
304
ACVALUE_END
170
5
140
0.125
171
1
172
0
173
1
174
0
175
1
176
1
 91
1
178
0
145
0.0
170
1
171
1
172
0
173
0
174
0
175
1
176
1
 91
33
178
0
145
0.0
301
CELL_VALUE
 90
4
  1
Stack Height
304
ACVALUE_END
170
5
140
0.125
171
1
172
0
173
0
174
0
175
1
176
1
 91
33
178
0
145
0.0
301
CELL_VALUE
 90
4
  1
1.94 in.
304
ACVALUE_END
170
5
140
0.125
171
1
172
0
173
0
174
0
175
1
176
1
 91
33
178
0
145
0.0
301
CELL_VALUE
 90
4
  1
49 mm
304
ACVALUE_END
170
5
140
0.125
171
1
172
0
173
0
174
0
175
1
176
1
 91
33
178
0
145
0.0
301
CELL_VALUE
 90
4
  1
Weight
304
ACVALUE_END
170
5
140
0.125
171
1
172
0
173
0
174
0
175
1
176
1
 91
33
178
0
145
0.0
301
CELL_VALUE
 90
4
  1
5.197 lb.
304
ACVALUE_END
170
5
140
0.125
171
1
172
0
173
0
174
0
175
1
176
1
 91
33
178
0
145
0.0
301
CELL_VALUE
 90
4
  1
2,357 kg.
304
ACVALUE_END
170
5
140
0.125
171
1
172
0
173
0
174
0
175
1
176
1
 91
33
178
0
145
0.0
301
CELL_VALUE
 90
4
  1
Seal Plate Included (see notes)
304
ACVALUE_END
170
5
140
0.125
171
1
172
0
173
0
174
0
175
2
176
1
 91
33
178
0
145
0.0
301
CELL_VALUE
 90
4
  1
No
304
ACVALUE_END
170
5
140
0.125
171
1
172
0
173
1
174
0
175
1
176
1
 91
1
178
0
145
0.0
170
1
  0
MTEXT
  5
279
100
AcDbEntity
  8
0
100
AcDbMText
 62
2
  6
CONTINUOUS
  7
STANDARD
 71
1
 72
1
 10
0.52125
 20
5.75995
 30
0.0
 11
1.0
 21
0.0
 31
0.0
 44
0.6
  3
Notes\P \P1. Important: Carefully consider\P   the maximum system pressure. The\P   pressure rating of the manifold is\P   dependent on the manifold material,\P   with the port type/size a secondary\P   consideration. Manifolds\P   constructed of alu
  1
minum are not\P   rated for pressures higher than\P   3000 psi (210 bar), regardless of\P   the port type/size specified.\P2. Seal retainer plate is not\P   required for this model.
 40
0.1
 41
3.04
  0
LINE
  5
27A
100
AcDbEntity
  8
0
100
AcDbLine
 62
7
  6
CONTINUOUS
 10
0.30125
 20
0.30125
 11
0.30125
 21
16.69875
  0
LINE
  5
27B
100
AcDbEntity
  8
0
100
AcDbLine
 62
7
  6
CONTINUOUS
 10
0.30125
 20
0.30125
 11
21.69875
 21
0.30125
  0
LINE
  5
27C
100
AcDbEntity
  8
0
100
AcDbLine
 62
7
  6
CONTINUOUS
 10
0.30125
 20
16.69875
 11
21.69875
 21
16.69875
  0
LINE
  5
27D
100
AcDbEntity
  8
0
100
AcDbLine
 62
7
  6
CONTINUOUS
 10
21.69875
 20
0.30125
 11
21.69875
 21
16.69875
  0
LINE
  5
27E
100
AcDbEntity
  8
0
100
AcDbLine
 62
7
  6
CONTINUOUS
 10
10.6547623833
 20
5.0353455018
 11
10.6739802727
 21
5.0258522324
  0
LINE
  5
27F
100
AcDbEntity
  8
0
100
AcDbLine
 62
7
  6
CONTINUOUS
 10
10.6994286494
 20
12.0219449565
 11
10.669562223
 21
11.9941511114
  0
LINE
  5
280
100
AcDbEntity
  8
0
100
AcDbLine
 62
7
  6
CONTINUOUS
 10
9.976071294
 20
5.5551788257
 11
11.5457008548
 21
5.446324646
  0
LINE
  5
281
100
AcDbEntity
  8
0
100
AcDbLine
 62
7
  6
CONTINUOUS
 10
9.9680479103
 20
5.577372534
 11
11.537677471
 21
5.4685183543
  0
LINE
  5
282
100
AcDbEntity
  8
0
100
AcDbLine
 62
7
  6
CONTINUOUS
 10
9.7038175559
 20
5.6451161239
 11
9.7336839823
 21
5.6173222788
  0
LINE
  5
283
100
AcDbEntity
  8
0
100
AcDbLine
 62
7
  6
CONTINUOUS
 10
10.6691035526
 20
11.9937163106
 11
10.6695620121
 21
11.9941509152
  0
LINE
  5
284
100
AcDbEntity
  8
0
100
AcDbLine
 62
7
  6
CONTINUOUS
 10
10.699047255
 20
12.0215834102
 11
10.6994292051
 21
12.0219454458
  0
LINE
  5
285
100
AcDbEntity
  8
0
100
AcDbLine
 62
7
  6
CONTINUOUS
 10
9.5417972026
 20
5.9049807554
 11
11.9566119114
 21
5.7375127866
  0
LINE
  5
286
100
AcDbEntity
  8
0
100
AcDbLine
 62
7
  6
CONTINUOUS
 10
10.6076184225
 20
11.5449610795
 11
10.6061232205
 21
11.5434426167
  0
LINE
  5
287
100
AcDbEntity
  8
0
100
AcDbLine
 62
7
  6
CONTINUOUS
 10
10.5334191215
 20
11.4066949803
 11
10.5802177615
 21
11.4502600645
  0
LINE
  5
288
100
AcDbEntity
  8
0
100
AcDbLine
 62
7
  6
CONTINUOUS
 10
10.3680076596
 20
11.2015822154
 11
10.4277405124
 21
11.2571699055
  0
LINE
  5
289
100
AcDbEntity
  8
0
100
AcDbLine
 62
7
  6
CONTINUOUS
 10
11.0868808862
 20
11.2243942418
 11
11.1076229692
 21
11.2346404337
  0
LINE
  5
28A
100
AcDbEntity
  8
0
100
AcDbLine
 62
7
  6
CONTINUOUS
 10
10.3360281472
 20
10.801222393
 11
10.3498339152
 21
10.808042178
  0
LINE
  5
28B
100
AcDbEntity
  8
0
100
AcDbLine
 62
7
  6
CONTINUOUS
 10
11.107924288
 20
11.4438945548
 11
11.1085998296
 21
11.4445349408
  0
LINE
  5
28C
100
AcDbEntity
  8
0
100
AcDbLine
 62
7
  6
CONTINUOUS
 10
11.0395195991
 20
11.5145006483
 11
11.0400190919
 21
11.5149739912
  0
LINE
  5
28D
100
AcDbEntity
  8
0
100
AcDbLine
 62
7
  6
CONTINUOUS
 10
11.1026254059
 20
11.4389633888
 11
11.107924288
 21
11.4438945548
  0
LINE
  5
28E
100
AcDbEntity
  8
0
100
AcDbLine
 62
7
  6
CONTINUOUS
 10
9.7038486916
 20
9.862214006
 11
10.0030432609
 21
10.1512137846
  0
LINE
  5
28F
100
AcDbEntity
  8
0
100
AcDbLine
 62
7
  6
CONTINUOUS
 10
9.733792394
 20
9.8900811056
 11
10.0329869633
 21
10.1790808842
  0
LINE
  5
290
100
AcDbEntity
  8
0
100
AcDbLine
 62
7
  6
CONTINUOUS
 10
10.0030432609
 20
10.1512137846
 11
10.003978051
 21
10.1520999276
  0
LINE
  5
291
100
AcDbEntity
  8
0
100
AcDbLine
 62
7
  6
CONTINUOUS
 10
10.0329869633
 20
10.1790808842
 11
10.0338455078
 21
10.1798946016
  0
LINE
  5
292
100
AcDbEntity
  8
0
100
AcDbLine
 62
7
  6
CONTINUOUS
 10
10.0329795417
 20
10.1790888592
 11
10.0030432609
 21
10.1512137846
  0
LINE
  5
293
100
AcDbEntity
  8
0
100
AcDbLine
 62
7
  6
CONTINUOUS
 10
9.733792394
 20
9.8900811056
 11
9.7038486916
 21
9.862214006
  0
LINE
  5
294
100
AcDbEntity
  8
0
100
AcDbLine
 62
7
  6
CONTINUOUS
 10
9.976071294
 20
5.5551788257
 11
9.9680479103
 21
5.577372534
  0
LINE
  5
295
100
AcDbEntity
  8
0
100
AcDbLine
 62
7
  6
CONTINUOUS
 10
9.5417972026
 20
8.8027583772
 11
9.5417972026
 21
5.9049807554
  0
LINE
  5
296
100
AcDbEntity
  8
0
100
AcDbLine
 62
7
  6
CONTINUOUS
 10
9.6901049721
 20
5.8946955767
 11
9.6901049721
 21
5.6711224622
  0
LINE
  5
297
100
AcDbEntity
  8
0
100
AcDbLine
 62
7
  6
CONTINUOUS
 10
9.691070898
 20
8.8711679097
 11
9.691070898
 21
9.8370938107
  0
LINE
  5
298
100
AcDbEntity
  8
0
100
AcDbLine
 62
7
  6
CONTINUOUS
 10
9.9770372199
 20
9.7810375789
 11
9.9690138362
 21
9.7433438825
  0
LINE
  5
299
100
AcDbEntity
  8
0
100
AcDbLine
 62
7
  6
CONTINUOUS
 10
11.3233847285
 20
10.0757123794
 11
11.3576396832
 21
10.0926336711
  0
LINE
  5
29A
100
AcDbEntity
  8
0
100
AcDbLine
 62
7
  6
CONTINUOUS
 10
9.9680479103
 20
5.577372534
 11
9.9680479103
 21
5.8754201684
  0
LINE
  5
29B
100
AcDbEntity
  8
0
100
AcDbLine
 62
7
  6
CONTINUOUS
 10
9.9690138362
 20
9.7433438825
 11
9.9690138362
 21
8.7774179815
  0
LINE
  5
29C
100
AcDbEntity
  8
0
100
AcDbLine
 62
7
  6
CONTINUOUS
 10
9.5417972026
 20
8.8027583772
 11
9.691070898
 21
8.9469457033
  0
LINE
  5
29D
100
AcDbEntity
  8
0
100
AcDbLine
 62
7
  6
CONTINUOUS
 10
10.2278066989
 20
10.1584220697
 11
10.2278066989
 21
10.6645321723
  0
LINE
  5
29E
100
AcDbEntity
  8
0
100
AcDbLine
 62
7
  6
CONTINUOUS
 10
10.2422547471
 20
10.1444663507
 11
10.2422547471
 21
10.6505764533
  0
LINE
  5
29F
100
AcDbEntity
  8
0
100
AcDbLine
 62
7
  6
CONTINUOUS
 10
10.3088339152
 20
9.9627339562
 11
10.3088339152
 21
10.1062893438
  0
LINE
  5
2A0
100
AcDbEntity
  8
0
100
AcDbLine
 62
7
  6
CONTINUOUS
 10
10.3498339152
 20
10.7440396113
 11
10.3498339152
 21
11.1671151483
  0
LINE
  5
2A1
100
AcDbEntity
  8
0
100
AcDbLine
 62
7
  6
CONTINUOUS
 10
11.5457008548
 20
5.446324646
 11
11.537677471
 21
5.4685183543
  0
LINE
  5
2A2
100
AcDbEntity
  8
0
100
AcDbLine
 62
7
  6
CONTINUOUS
 10
10.5334191215
 20
11.3085011396
 11
10.5334191215
 21
11.4066949803
  0
LINE
  5
2A3
100
AcDbEntity
  8
0
100
AcDbLine
 62
7
  6
CONTINUOUS
 10
10.5465621062
 20
5.5156151535
 11
10.5465621062
 21
5.1720251635
  0
LINE
  5
2A4
100
AcDbEntity
  8
0
100
AcDbLine
 62
7
  6
CONTINUOUS
 10
10.5758339152
 20
11.2270025531
 11
10.5758339152
 21
11.2433177515
  0
LINE
  5
2A5
100
AcDbEntity
  8
0
100
AcDbLine
 62
7
  6
CONTINUOUS
 10
10.5758339152
 20
11.4626884686
 11
10.5758339152
 21
11.4684840239
  0
LINE
  5
2A6
100
AcDbEntity
  8
0
100
AcDbLine
 62
7
  6
CONTINUOUS
 10
10.5813339152
 20
11.4419210622
 11
10.5813339152
 21
11.4488516102
  0
LINE
  5
2A7
100
AcDbEntity
  8
0
100
AcDbLine
 62
7
  6
CONTINUOUS
 10
10.6173984267
 20
11.2273834985
 11
10.6173984267
 21
11.3255773392
  0
LINE
  5
2A8
100
AcDbEntity
  8
0
100
AcDbLine
 62
7
  6
CONTINUOUS
 10
10.6559414652
 20
10.037396485
 11
10.6559414652
 21
10.5435065877
  0
LINE
  5
2A9
100
AcDbEntity
  8
0
100
AcDbLine
 62
7
  6
CONTINUOUS
 10
10.6628339152
 20
11.9813906681
 11
10.6628339152
 21
11.7891714173
  0
LINE
  5
2AA
100
AcDbEntity
  8
0
100
AcDbLine
 62
7
  6
CONTINUOUS
 10
10.6628339152
 20
11.7524662337
 11
10.6628339152
 21
11.5129166146
  0
LINE
  5
2AB
100
AcDbEntity
  8
0
100
AcDbLine
 62
7
  6
CONTINUOUS
 10
10.6979820457
 20
5.4101684247
 11
10.6979820457
 21
5.0257649834
  0
LINE
  5
2AC
100
AcDbEntity
  8
0
100
AcDbLine
 62
7
  6
CONTINUOUS
 10
10.6997768129
 20
11.7606094181
 11
10.6997768129
 21
11.7484232128
  0
LINE
  5
2AD
100
AcDbEntity
  8
0
100
AcDbLine
 62
7
  6
CONTINUOUS
 10
10.7098622738
 20
10.0336570643
 11
10.7098622738
 21
10.5397671669
  0
LINE
  5
2AE
100
AcDbEntity
  8
0
100
AcDbLine
 62
7
  6
CONTINUOUS
 10
10.7374548236
 20
5.399952131
 11
10.7374548236
 21
5.0155486896
  0
LINE
  5
2AF
100
AcDbEntity
  8
0
100
AcDbLine
 62
7
  6
CONTINUOUS
 10
10.7839309319
 20
11.9912495667
 11
10.7839309319
 21
11.9917117635
  0
LINE
  5
2B0
100
AcDbEntity
  8
0
100
AcDbLine
 62
7
  6
CONTINUOUS
 10
10.7915893831
 20
6.851946739
 11
10.7915893831
 21
6.7067747655
  0
LINE
  5
2B1
100
AcDbEntity
  8
0
100
AcDbLine
 62
7
  6
CONTINUOUS
 10
10.7965997885
 20
11.988969894
 11
10.7965997885
 21
11.9949907036
  0
LINE
  5
2B2
100
AcDbEntity
  8
0
100
AcDbLine
 62
7
  6
CONTINUOUS
 10
10.8229252162
 20
12.0216732315
 11
10.8229252162
 21
11.9862225399
  0
LINE
  5
2B3
100
AcDbEntity
  8
0
100
AcDbLine
 62
7
  6
CONTINUOUS
 10
10.8588864293
 20
11.9856546526
 11
10.8588864293
 21
11.9993103045
  0
LINE
  5
2B4
100
AcDbEntity
  8
0
100
AcDbLine
 62
7
  6
CONTINUOUS
 10
10.8761924141
 20
11.9865994525
 11
10.8761924141
 21
11.9981101303
  0
LINE
  5
2B5
100
AcDbEntity
  8
0
100
AcDbLine
 62
7
  6
CONTINUOUS
 10
10.9121536272
 20
12.0154852202
 11
10.9121536272
 21
11.9917731234
  0
LINE
  5
2B6
100
AcDbEntity
  8
0
100
AcDbLine
 62
7
  6
CONTINUOUS
 10
10.9308132204
 20
11.2056481087
 11
10.9308132204
 21
11.3038419495
  0
LINE
  5
2B7
100
AcDbEntity
  8
0
100
AcDbLine
 62
7
  6
CONTINUOUS
 10
10.9570484889
 20
11.7510831835
 11
10.9570484889
 21
11.7305813615
  0
LINE
  5
2B8
100
AcDbEntity
  8
0
100
AcDbLine
 62
7
  6
CONTINUOUS
 10
11.0308339152
 20
11.9813906681
 11
11.0308339152
 21
11.7891714173
  0
LINE
  5
2B9
100
AcDbEntity
  8
0
100
AcDbLine
 62
7
  6
CONTINUOUS
 10
11.0308339152
 20
11.7524662337
 11
11.0308339152
 21
11.5129166146
  0
LINE
  5
2BA
100
AcDbEntity
  8
0
100
AcDbLine
 62
7
  6
CONTINUOUS
 10
12.2671735318
 20
10.0241395194
 11
11.9679789626
 21
9.7351397408
  0
LINE
  5
2BB
100
AcDbEntity
  8
0
100
AcDbLine
 62
7
  6
CONTINUOUS
 10
12.2971172342
 20
9.9921192142
 11
11.997922665
 21
9.7031194356
  0
LINE
  5
2BC
100
AcDbEntity
  8
0
100
AcDbLine
 62
7
  6
CONTINUOUS
 10
11.1123339152
 20
11.4419210622
 11
11.1123339152
 21
11.448736311
  0
LINE
  5
2BD
100
AcDbEntity
  8
0
100
AcDbLine
 62
7
  6
CONTINUOUS
 10
11.1178339152
 20
11.2270025531
 11
11.1178339152
 21
11.2399139857
  0
LINE
  5
2BE
100
AcDbEntity
  8
0
100
AcDbLine
 62
7
  6
CONTINUOUS
 10
11.1178339152
 20
11.4626884686
 11
11.1178339152
 21
11.4684840239
  0
LINE
  5
2BF
100
AcDbEntity
  8
0
100
AcDbLine
 62
7
  6
CONTINUOUS
 10
11.1602487089
 20
11.26503036
 11
11.1602487089
 21
11.3632242008
  0
LINE
  5
2C0
100
AcDbEntity
  8
0
100
AcDbLine
 62
7
  6
CONTINUOUS
 10
11.2749686814
 20
10.0728473961
 11
11.2749686814
 21
10.5789574987
  0
LINE
  5
2C1
100
AcDbEntity
  8
0
100
AcDbLine
 62
7
  6
CONTINUOUS
 10
9.5417972026
 20
8.8027583772
 11
11.9566119114
 21
8.6352904083
  0
LINE
  5
2C2
100
AcDbEntity
  8
0
100
AcDbLine
 62
7
  6
CONTINUOUS
 10
11.5386433969
 20
8.6685638017
 11
9.9690138362
 21
8.7774179815
  0
LINE
  5
2C3
100
AcDbEntity
  8
0
100
AcDbLine
 62
7
  6
CONTINUOUS
 10
11.3025612982
 20
5.3607618638
 11
11.3025612982
 21
4.9763584225
  0
LINE
  5
2C4
100
AcDbEntity
  8
0
100
AcDbLine
 62
7
  6
CONTINUOUS
 10
11.3144414419
 20
10.0830636943
 11
11.3144414419
 21
10.589173797
  0
LINE
  5
2C5
100
AcDbEntity
  8
0
100
AcDbLine
 62
7
  6
CONTINUOUS
 10
11.3438339152
 20
10.7440396113
 11
11.3438339152
 21
11.1671151483
  0
LINE
  5
2C6
100
AcDbEntity
  8
0
100
AcDbLine
 62
7
  6
CONTINUOUS
 10
11.3564821004
 20
5.3645012908
 11
11.3564821004
 21
4.9800978495
  0
LINE
  5
2C7
100
AcDbEntity
  8
0
100
AcDbLine
 62
7
  6
CONTINUOUS
 10
11.3848339152
 20
9.9627029278
 11
11.3848339152
 21
10.1114498236
  0
LINE
  5
2C8
100
AcDbEntity
  8
0
100
AcDbLine
 62
7
  6
CONTINUOUS
 10
11.4658611314
 20
10.2293238917
 11
11.4658611314
 21
10.7354339944
  0
LINE
  5
2C9
100
AcDbEntity
  8
0
100
AcDbLine
 62
7
  6
CONTINUOUS
 10
11.537677471
 20
5.4685183543
 11
11.537677471
 21
5.7665659887
  0
LINE
  5
2CA
100
AcDbEntity
  8
0
100
AcDbLine
 62
7
  6
CONTINUOUS
 10
11.5386433969
 20
9.6344897027
 11
11.5386433969
 21
8.6685638017
  0
LINE
  5
2CB
100
AcDbEntity
  8
0
100
AcDbLine
 62
7
  6
CONTINUOUS
 10
11.5466667807
 20
9.6721833992
 11
11.5386433969
 21
9.6344897027
  0
LINE
  5
2CC
100
AcDbEntity
  8
0
100
AcDbLine
 62
7
  6
CONTINUOUS
 10
12.2971172342
 20
9.0261933132
 11
11.997922665
 21
8.7371935346
  0
LINE
  5
2CD
100
AcDbEntity
  8
0
100
AcDbLine
 62
7
  6
CONTINUOUS
 10
11.7701686355
 20
5.4505269712
 11
11.7701686355
 21
5.0871677624
  0
LINE
  5
2CE
100
AcDbEntity
  8
0
100
AcDbLine
 62
7
  6
CONTINUOUS
 10
11.7846166599
 20
5.4522303803
 11
11.7846166599
 21
5.1011234831
  0
LINE
  5
2CF
100
AcDbEntity
  8
0
100
AcDbLine
 62
7
  6
CONTINUOUS
 10
11.9566119114
 20
8.6352904083
 11
12.4582027974
 21
9.1197900281
  0
LINE
  5
2D0
100
AcDbEntity
  8
0
100
AcDbLine
 62
7
  6
CONTINUOUS
 10
12.3098950279
 20
9.1300752069
 11
12.4582027974
 21
9.1197900281
  0
LINE
  5
2D1
100
AcDbEntity
  8
0
100
AcDbLine
 62
7
  6
CONTINUOUS
 10
11.9566119114
 20
8.6352904083
 11
11.9566119114
 21
5.7375127866
  0
LINE
  5
2D2
100
AcDbEntity
  8
0
100
AcDbLine
 62
7
  6
CONTINUOUS
 10
11.9969567391
 20
5.5371480871
 11
11.9969567391
 21
5.7764829
  0
LINE
  5
2D3
100
AcDbEntity
  8
0
100
AcDbLine
 62
7
  6
CONTINUOUS
 10
11.997922665
 20
9.7031194356
 11
11.997922665
 21
8.7371935346
  0
LINE
  5
2D4
100
AcDbEntity
  8
0
100
AcDbLine
 62
7
  6
CONTINUOUS
 10
12.2961513084
 20
5.8261478658
 11
12.2961513084
 21
6.0654826786
  0
LINE
  5
2D5
100
AcDbEntity
  8
0
100
AcDbLine
 62
7
  6
CONTINUOUS
 10
12.2971172342
 20
9.9921192142
 11
12.2971172342
 21
9.0261933132
  0
LINE
  5
2D6
100
AcDbEntity
  8
0
100
AcDbLine
 62
7
  6
CONTINUOUS
 10
12.308929102
 20
6.0778250802
 11
12.308929102
 21
5.8512680611
  0
LINE
  5
2D7
100
AcDbEntity
  8
0
100
AcDbLine
 62
7
  6
CONTINUOUS
 10
12.3098950279
 20
9.0513135085
 11
12.3098950279
 21
10.0172394095
  0
LINE
  5
2D8
100
AcDbEntity
  8
0
100
AcDbLine
 62
7
  6
CONTINUOUS
 10
11.5386433969
 20
9.6344897027
 11
9.9690138362
 21
9.7433438825
  0
LINE
  5
2D9
100
AcDbEntity
  8
0
100
AcDbLine
 62
7
  6
CONTINUOUS
 10
11.5466667807
 20
9.6721833992
 11
9.9770372199
 21
9.7810375789
  0
LINE
  5
2DA
100
AcDbEntity
  8
0
100
AcDbLine
 62
7
  6
CONTINUOUS
 10
10.3702831019
 20
10.0757123794
 11
10.3246983941
 21
10.0982303522
  0
LINE
  5
2DB
100
AcDbEntity
  8
0
100
AcDbLine
 62
7
  6
CONTINUOUS
 10
12.4582027974
 20
6.2220124064
 11
12.4582027974
 21
9.1197900281
  0
LINE
  5
2DC
100
AcDbEntity
  8
0
100
AcDbLine
 62
7
  6
CONTINUOUS
 10
11.9679789626
 20
9.7351397408
 11
11.997922665
 21
9.7031194356
  0
LINE
  5
2DD
100
AcDbEntity
  8
0
100
AcDbLine
 62
7
  6
CONTINUOUS
 10
11.4348726845
 20
10.1740342199
 11
12.023928706
 21
10.133183046
  0
LINE
  5
2DE
100
AcDbEntity
  8
0
100
AcDbLine
 62
7
  6
CONTINUOUS
 10
10.5910424245
 20
11.4389633888
 11
10.5857435424
 21
11.4438945548
  0
LINE
  5
2DF
100
AcDbEntity
  8
0
100
AcDbLine
 62
7
  6
CONTINUOUS
 10
12.2961824441
 20
10.0432457479
 11
12.2663160177
 21
10.071039593
  0
LINE
  5
2E0
100
AcDbEntity
  8
0
100
AcDbLine
 62
7
  6
CONTINUOUS
 10
12.2671735318
 20
10.0241395194
 11
12.2971172342
 21
9.9921192142
  0
LINE
  5
2E1
100
AcDbEntity
  8
0
100
AcDbLine
 62
7
  6
CONTINUOUS
 10
11.3689694363
 20
10.7956257119
 11
11.3438339152
 21
10.808042178
  0
LINE
  5
2E2
100
AcDbEntity
  8
0
100
AcDbLine
 62
7
  6
CONTINUOUS
 10
10.6067869442
 20
11.2243942418
 11
10.5916105662
 21
11.231891082
  0
LINE
  5
2E3
100
AcDbEntity
  8
0
100
AcDbLine
 62
7
  6
CONTINUOUS
 10
11.3256601708
 20
11.2015822154
 11
11.265927318
 21
11.2571699055
  0
LINE
  5
2E4
100
AcDbEntity
  8
0
100
AcDbLine
 62
7
  6
CONTINUOUS
 10
11.1176285804
 20
11.4463715208
 11
11.1134475435
 21
11.4502624146
  0
LINE
  5
2E5
100
AcDbEntity
  8
0
100
AcDbLine
 62
7
  6
CONTINUOUS
 10
10.994239181
 20
12.0219449565
 11
11.0241056074
 21
11.9941511114
  0
LINE
  5
2E6
100
AcDbEntity
  8
0
100
AcDbLine
 62
7
  6
CONTINUOUS
 10
11.9566119114
 20
5.7375127866
 11
12.4582027974
 21
6.2220124064
  0
LINE
  5
2E7
100
AcDbEntity
  8
0
100
AcDbLine
 62
7
  6
CONTINUOUS
 10
11.9969567391
 20
5.5371480871
 11
12.2961513084
 21
5.8261478658
  0
LINE
  5
2E8
100
AcDbEntity
  8
0
100
AcDbLine
 62
7
  6
CONTINUOUS
 10
11.996021949
 20
5.5362619441
 11
11.9969567391
 21
5.5371480871
  0
LINE
  5
2E9
100
AcDbEntity
  8
0
100
AcDbLine
 62
7
  6
CONTINUOUS
 10
11.996021949
 20
5.5362619441
 11
11.9661555226
 21
5.5084680991
  0
LINE
  5
2EA
100
AcDbEntity
  8
0
100
AcDbLine
 62
7
  6
CONTINUOUS
 10
11.6878725039
 20
5.0410046063
 11
11.6571984934
 21
5.0258522324
  0
ARC
  5
2EB
100
AcDbEntity
  8
0
100
AcDbCircle
 62
7
  6
CONTINUOUS
 10
10.8392808435
 20
12.2940807115
 40
2.2641254893
100
AcDbArc
 50
266.0354973614
 51
266.723157899
  0
ARC
  5
2EC
100
AcDbEntity
  8
0
100
AcDbCircle
 62
7
  6
CONTINUOUS
 10
10.8392808435
 20
12.8001908141
 40
2.2641254892
100
AcDbArc
 50
266.0354973614
 51
266.723157899
  0
ARC
  5
2ED
100
AcDbEntity
  8
0
100
AcDbCircle
 62
7
  6
CONTINUOUS
 10
11.174943463
 20
7.5915780501
 40
2.234463508
100
AcDbArc
 50
273.2741391254
 51
274.6601229449
  0
ARC
  5
2EE
100
AcDbEntity
  8
0
100
AcDbCircle
 62
7
  6
CONTINUOUS
 10
11.1766289056
 20
7.1828713072
 40
2.210103635
100
AcDbArc
 50
273.2665005552
 51
274.6677615151
  0
ARC
  5
2EF
100
AcDbEntity
  8
0
100
AcDbCircle
 62
7
  6
CONTINUOUS
 10
10.833371216
 20
12.2090802139
 40
2.1789198091
100
AcDbArc
 50
265.329224888
 51
266.0359887124
  0
ARC
  5
2F0
100
AcDbEntity
  8
0
100
AcDbCircle
 62
7
  6
CONTINUOUS
 10
10.833371216
 20
12.7151903165
 40
2.1789198091
100
AcDbArc
 50
265.329224888
 51
266.0359887124
  0
ARC
  5
2F1
100
AcDbEntity
  8
0
100
AcDbCircle
 62
7
  6
CONTINUOUS
 10
10.9566543321
 20
6.3282388646
 40
0.9538158545
100
AcDbArc
 50
254.2644742826
 51
256.7139235525
  0
ARC
  5
2F2
100
AcDbEntity
  8
0
100
AcDbCircle
 62
7
  6
CONTINUOUS
 10
10.9566543321
 20
5.9438354232
 40
0.9538158545
100
AcDbArc
 50
254.2644742826
 51
256.7139235525
  0
ARC
  5
2F3
100
AcDbEntity
  8
0
100
AcDbCircle
 62
7
  6
CONTINUOUS
 10
11.0557692435
 20
11.0011330089
 40
0.9538147475
100
AcDbArc
 50
283.286087793
 51
285.7355389587
  0
ARC
  5
2F4
100
AcDbEntity
  8
0
100
AcDbCircle
 62
7
  6
CONTINUOUS
 10
11.0557692435
 20
11.5072431116
 40
0.9538147475
100
AcDbArc
 50
283.286087793
 51
285.7355389587
  0
ARC
  5
2F5
100
AcDbEntity
  8
0
100
AcDbCircle
 62
7
  6
CONTINUOUS
 10
11.3489915023
 20
5.7258998074
 40
0.7641475746
100
AcDbArc
 50
293.7608747297
 51
296.3085175792
  0
ARC
  5
2F6
100
AcDbEntity
  8
0
100
AcDbCircle
 62
7
  6
CONTINUOUS
 10
11.0984534167
 20
12.0858846133
 40
0.3503674153
100
AcDbArc
 50
193.3866269129
 51
194.363713807
  0
ARC
  5
2F7
100
AcDbEntity
  8
0
100
AcDbCircle
 62
7
  6
CONTINUOUS
 10
10.8480759732
 20
11.7180558215
 40
0.2814621647
100
AcDbArc
 50
84.2669212813
 51
87.7988306398
  0
ARC
  5
2F8
100
AcDbEntity
  8
0
100
AcDbCircle
 62
7
  6
CONTINUOUS
 10
10.8685437045
 20
7.8437218993
 40
0.1899033817
100
AcDbArc
 50
175.1121218348
 51
180.0241890641
  0
ARC
  5
2F9
100
AcDbEntity
  8
0
100
AcDbCircle
 62
7
  6
CONTINUOUS
 10
11.3001992717
 20
10.0086666972
 40
0.0982161418
100
AcDbArc
 50
313.4691777493
 51
314.0064521302
  0
ARC
  5
2FA
100
AcDbEntity
  8
0
100
AcDbCircle
 62
7
  6
CONTINUOUS
 10
10.5789483135
 20
11.3561482205
 40
0.06802854
100
AcDbArc
 50
129.2073090845
 51
132.0104432058
  0
ARC
  5
2FB
100
AcDbEntity
  8
0
100
AcDbCircle
 62
7
  6
CONTINUOUS
 10
11.3468303185
 20
9.9580524064
 40
0.0400714554
100
AcDbArc
 50
12.0245265751
 51
17.7813942326
  0
ARC
  5
2FC
100
AcDbEntity
  8
0
100
AcDbCircle
 62
7
  6
CONTINUOUS
 10
10.3468257757
 20
9.9580562233
 40
0.0400591171
100
AcDbArc
 50
162.214882483
 51
168.0794469889
  0
ARC
  5
2FD
100
AcDbEntity
  8
0
100
AcDbCircle
 62
7
  6
CONTINUOUS
 10
10.696915086
 20
11.7709275507
 40
0.0290893873
100
AcDbArc
 50
192.3904870877
 51
194.1809858601
  0
ARC
  5
2FE
100
AcDbEntity
  8
0
100
AcDbCircle
 62
7
  6
CONTINUOUS
 10
10.9969049987
 20
11.7707389851
 40
0.0289346289
100
AcDbArc
 50
12.5533228654
 51
13.2946152529
  0
ARC
  5
2FF
100
AcDbEntity
  8
0
100
AcDbCircle
 62
7
  6
CONTINUOUS
 10
10.6962899365
 20
11.7708195552
 40
0.0284556003
100
AcDbArc
 50
166.5512661825
 51
192.4481948098
  0
ARC
  5
300
100
AcDbEntity
  8
0
100
AcDbCircle
 62
7
  6
CONTINUOUS
 10
10.7840499626
 20
12.016514976
 40
0.0248034982
100
AcDbArc
 50
261.5827998776
 51
269.7250394303
  0
SPLINE
  5
301
100
AcDbEntity
  8
0
100
AcDbSpline
 62
7
  6
CONTINUOUS
 70
0
 71
3
 72
56
 73
52
 74
0
 42
0.0000001
 43
0.0000001
 44
0.0000000001
 40
0.0
 40
0.0
 40
0.0
 40
0.0
 40
0.0314490832
 40
0.0472849053
 40
0.0631822688
 40
0.0951458114
 40
0.1112167178
 40
0.127338339
 40
0.1435054354
 40
0.1597127686
 40
0.175954892
 40
0.1922261879
 40
0.2085208122
 40
0.2248325014
 40
0.2574732833
 40
0.2737981108
 40
0.2901144962
 40
0.322688419
 40
0.3551544646
 40
0.3713370075
 40
0.3874758424
 40
0.4195946949
 40
0.4514854697
 40
0.4673413555
 40
0.4831310165
 40
0.5144959062
 40
0.5455817839
 40
0.5610255482
 40
0.5764016574
 40
0.6069506298
 40
0.6372633477
 40
0.6523468329
 40
0.6673852231
 40
0.6823844167
 40
0.6973505166
 40
0.7122901825
 40
0.727210385
 40
0.7421182012
 40
0.7570209777
 40
0.7719260624
 40
0.7868407993
 40
0.8167175482
 40
0.8317035856
 40
0.846726677
 40
0.8617927689
 40
0.8769075777
 40
0.9072911306
 40
0.9379178985
 40
0.9533373822
 40
0.9688287985
 40
1.0
 40
1.0
 40
1.0
 40
1.0
 10
10.1167591511
 20
7.5637475618
 30
0.0
 10
10.1248504988
 20
7.5631862882
 30
0.0
 10
10.1369849717
 20
7.5617433929
 30
0.0
 10
10.1529900102
 20
7.558660184
 30
0.0
 10
10.168958776
 20
7.5547825652
 30
0.0
 10
10.1846908727
 20
7.5497501679
 30
0.0
 10
10.2000609256
 20
7.5436117828
 30
0.0
 10
10.2114197087
 20
7.5384493765
 30
0.0
 10
10.2225572227
 20
7.5327487301
 30
0.0
 10
10.2334458398
 20
7.5265230038
 30
0.0
 10
10.2440591058
 20
7.5197884386
 30
0.0
 10
10.2543700225
 20
7.5125603677
 30
0.0
 10
10.2643532434
 20
7.504856099
 30
0.0
 10
10.2771953759
 20
7.4939754563
 30
0.0
 10
10.2892841092
 20
7.4822184329
 30
0.0
 10
10.3005269367
 20
7.4696797923
 30
0.0
 10
10.3111748272
 20
7.4566536034
 30
0.0
 10
10.3233300363
 20
7.4395130301
 30
0.0
 10
10.3338448446
 20
7.4213593188
 30
0.0
 10
10.3412007333
 20
7.4063509307
 30
0.0
 10
10.3478159654
 20
7.3910993093
 30
0.0
 10
10.3547108668
 20
7.3715786869
 30
0.0
 10
10.3597189051
 20
7.3515653259
 30
0.0
 10
10.3625498914
 20
7.335419931
 30
0.0
 10
10.3645843987
 20
7.3192917792
 30
0.0
 10
10.3656589526
 20
7.2991082055
 30
0.0
 10
10.3647529003
 20
7.2790044875
 30
0.0
 10
10.3628441354
 20
7.2631474302
 30
0.0
 10
10.3601660584
 20
7.2475426342
 30
0.0
 10
10.3553800575
 20
7.2284352202
 30
0.0
 10
10.3486914047
 20
7.2099868411
 30
0.0
 10
10.3422555811
 20
7.1957849538
 30
0.0
 10
10.3369052884
 20
7.1854448484
 30
0.0
 10
10.3310388264
 20
7.1754239678
 30
0.0
 10
10.3246692808
 20
7.1657454121
 30
0.0
 10
10.3178118352
 20
7.1564315008
 30
0.0
 10
10.3104835345
 20
7.1475027667
 30
0.0
 10
10.3027005608
 20
7.1389802526
 30
0.0
 10
10.2944811667
 20
7.1308835616
 30
0.0
 10
10.2858444667
 20
7.12323021
 30
0.0
 10
10.2737945463
 20
7.1136386236
 30
0.0
 10
10.2609828427
 20
7.105002086
 30
0.0
 10
10.2475328228
 20
7.097399538
 30
0.0
 10
10.2371226031
 20
7.0922132463
 30
0.0
 10
10.2264265674
 20
7.0875620106
 30
0.0
 10
10.2117933911
 20
7.0820821088
 30
0.0
 10
10.1928947791
 20
7.0766287196
 30
0.0
 10
10.1734633116
 20
7.0731133759
 30
0.0
 10
10.1576720433
 20
7.0714685137
 30
0.0
 10
10.1416792976
 20
7.070607144
 30
0.0
 10
10.129621879
 20
7.0708549645
 30
0.0
 10
10.1216020065
 20
7.0714109989
 30
0.0
  0
SPLINE
  5
302
100
AcDbEntity
  8
0
100
AcDbSpline
 62
7
  6
CONTINUOUS
 70
0
 71
3
 72
56
 73
52
 74
0
 42
0.0000001
 43
0.0000001
 44
0.0000000001
 40
0.0
 40
0.0
 40
0.0
 40
0.0
 40
0.0314490833
 40
0.0472849055
 40
0.0631822691
 40
0.0951458118
 40
0.1112167181
 40
0.1273383393
 40
0.1435054358
 40
0.1597127689
 40
0.1759548923
 40
0.1922261882
 40
0.2085208125
 40
0.2248325017
 40
0.2574732836
 40
0.2737981111
 40
0.2901144966
 40
0.3226884195
 40
0.3551544653
 40
0.3713370083
 40
0.3874758434
 40
0.4195946961
 40
0.451485471
 40
0.4673413568
 40
0.4831310177
 40
0.5144959071
 40
0.5455817842
 40
0.5610255482
 40
0.5764016572
 40
0.6069506292
 40
0.6372633472
 40
0.6523468328
 40
0.6673852237
 40
0.6823844181
 40
0.697350519
 40
0.712290186
 40
0.7272103893
 40
0.7421182058
 40
0.757020982
 40
0.771926066
 40
0.7868408021
 40
0.8167175492
 40
0.8317035856
 40
0.8467266761
 40
0.8617927671
 40
0.8769075752
 40
0.9072911269
 40
0.9379178942
 40
0.9533373788
 40
0.968828797
 40
1.0
 40
1.0
 40
1.0
 40
1.0
 10
10.1216020959
 20
7.0714109906
 30
0.0
 10
10.1135107482
 20
7.0719722642
 30
0.0
 10
10.1013762752
 20
7.0734151596
 30
0.0
 10
10.0853712367
 20
7.0764983684
 30
0.0
 10
10.0694024708
 20
7.0803759873
 30
0.0
 10
10.053670374
 20
7.0854083846
 30
0.0
 10
10.0383003212
 20
7.0915467697
 30
0.0
 10
10.0269415381
 20
7.096709176
 30
0.0
 10
10.0158040241
 20
7.1024098224
 30
0.0
 10
10.004915407
 20
7.1086355488
 30
0.0
 10
9.994302141
 20
7.115370114
 30
0.0
 10
9.9839912243
 20
7.1225981848
 30
0.0
 10
9.9740080034
 20
7.1303024535
 30
0.0
 10
9.9611658709
 20
7.1411830963
 30
0.0
 10
9.9490771376
 20
7.1529401197
 30
0.0
 10
9.9378343101
 20
7.1654787603
 30
0.0
 10
9.9271864197
 20
7.1785049492
 30
0.0
 10
9.9150312105
 20
7.1956455227
 30
0.0
 10
9.9045164022
 20
7.2137992341
 30
0.0
 10
9.8971605134
 20
7.2288076223
 30
0.0
 10
9.8905452814
 20
7.2440592439
 30
0.0
 10
9.8836503799
 20
7.2635798664
 30
0.0
 10
9.8786423417
 20
7.2835932275
 30
0.0
 10
9.8758113555
 20
7.2997386224
 30
0.0
 10
9.8737768482
 20
7.3158667741
 30
0.0
 10
9.8727022944
 20
7.3360503476
 30
0.0
 10
9.8736083467
 20
7.3561540653
 30
0.0
 10
9.8755171116
 20
7.3720111223
 30
0.0
 10
9.8781951885
 20
7.387615918
 30
0.0
 10
9.8829811895
 20
7.4067233319
 30
0.0
 10
9.8896698422
 20
7.4251717111
 30
0.0
 10
9.8961056659
 20
7.4393735986
 30
0.0
 10
9.9014559589
 20
7.4497137045
 30
0.0
 10
9.9073224212
 20
7.4597345856
 30
0.0
 10
9.9136919673
 20
7.4694131419
 30
0.0
 10
9.9205494136
 20
7.4787270537
 30
0.0
 10
9.9278777147
 20
7.4876557881
 30
0.0
 10
9.9356606885
 20
7.4961783024
 30
0.0
 10
9.9438800827
 20
7.5042749931
 30
0.0
 10
9.9525167825
 20
7.5119283442
 30
0.0
 10
9.9645667023
 20
7.5215199301
 30
0.0
 10
9.9773784053
 20
7.5301564669
 30
0.0
 10
9.9908284243
 20
7.5377590144
 30
0.0
 10
10.0012386434
 20
7.5429453059
 30
0.0
 10
10.0119346784
 20
7.5475965413
 30
0.0
 10
10.0265678541
 20
7.5530764429
 30
0.0
 10
10.0454664653
 20
7.5585298323
 30
0.0
 10
10.0648979326
 20
7.5620451762
 30
0.0
 10
10.0806892014
 20
7.5636900386
 30
0.0
 10
10.0966819482
 20
7.564551408
 30
0.0
 10
10.1087393677
 20
7.5643035879
 30
0.0
 10
10.1167592406
 20
7.5637475535
 30
0.0
  0
SPLINE
  5
303
100
AcDbEntity
  8
0
100
AcDbSpline
 62
7
  6
CONTINUOUS
 70
0
 71
3
 72
56
 73
52
 74
0
 42
0.0000001
 43
0.0000001
 44
0.0000000001
 40
0.0
 40
0.0
 40
0.0
 40
0.0
 40
0.0314490832
 40
0.0472849053
 40
0.0631822688
 40
0.0951458114
 40
0.1112167178
 40
0.127338339
 40
0.1435054354
 40
0.1597127686
 40
0.175954892
 40
0.1922261879
 40
0.2085208122
 40
0.2248325014
 40
0.2574732833
 40
0.2737981108
 40
0.2901144962
 40
0.322688419
 40
0.3551544646
 40
0.3713370075
 40
0.3874758424
 40
0.4195946949
 40
0.4514854697
 40
0.4673413555
 40
0.4831310165
 40
0.5144959062
 40
0.5455817839
 40
0.5610255482
 40
0.5764016574
 40
0.6069506298
 40
0.6372633477
 40
0.6523468329
 40
0.6673852231
 40
0.6823844167
 40
0.6973505166
 40
0.7122901825
 40
0.727210385
 40
0.7421182012
 40
0.7570209777
 40
0.7719260624
 40
0.7868407993
 40
0.8167175482
 40
0.8317035856
 40
0.846726677
 40
0.8617927689
 40
0.8769075777
 40
0.9072911306
 40
0.9379178985
 40
0.9533373822
 40
0.9688287985
 40
1.0
 40
1.0
 40
1.0
 40
1.0
 10
11.1126287545
 20
6.5886450962
 30
0.0
 10
11.1207201022
 20
6.5880838226
 30
0.0
 10
11.1328545752
 20
6.5866409273
 30
0.0
 10
11.1488596136
 20
6.5835577184
 30
0.0
 10
11.1648283794
 20
6.5796800996
 30
0.0
 10
11.1805604761
 20
6.5746477023
 30
0.0
 10
11.195930529
 20
6.5685093172
 30
0.0
 10
11.2072893121
 20
6.5633469109
 30
0.0
 10
11.2184268261
 20
6.5576462645
 30
0.0
 10
11.2293154432
 20
6.5514205382
 30
0.0
 10
11.2399287092
 20
6.544685973
 30
0.0
 10
11.2502396259
 20
6.5374579021
 30
0.0
 10
11.2602228468
 20
6.5297536334
 30
0.0
 10
11.2730649793
 20
6.5188729907
 30
0.0
 10
11.2851537126
 20
6.5071159673
 30
0.0
 10
11.2963965402
 20
6.4945773267
 30
0.0
 10
11.3070444306
 20
6.4815511378
 30
0.0
 10
11.3191996397
 20
6.4644105645
 30
0.0
 10
11.329714448
 20
6.4462568532
 30
0.0
 10
11.3370703367
 20
6.4312484651
 30
0.0
 10
11.3436855688
 20
6.4159968437
 30
0.0
 10
11.3505804702
 20
6.3964762213
 30
0.0
 10
11.3555885085
 20
6.3764628603
 30
0.0
 10
11.3584194948
 20
6.3603174654
 30
0.0
 10
11.3604540021
 20
6.3441893136
 30
0.0
 10
11.361528556
 20
6.3240057399
 30
0.0
 10
11.3606225037
 20
6.3039020219
 30
0.0
 10
11.3587137388
 20
6.2880449646
 30
0.0
 10
11.3560356619
 20
6.2724401686
 30
0.0
 10
11.3512496609
 20
6.2533327546
 30
0.0
 10
11.3445610081
 20
6.2348843755
 30
0.0
 10
11.3381251845
 20
6.2206824882
 30
0.0
 10
11.3327748918
 20
6.2103423827
 30
0.0
 10
11.3269084298
 20
6.2003215022
 30
0.0
 10
11.3205388842
 20
6.1906429465
 30
0.0
 10
11.3136814386
 20
6.1813290352
 30
0.0
 10
11.3063531379
 20
6.1724003011
 30
0.0
 10
11.2985701643
 20
6.163877787
 30
0.0
 10
11.2903507701
 20
6.155781096
 30
0.0
 10
11.2817140701
 20
6.1481277444
 30
0.0
 10
11.2696641497
 20
6.138536158
 30
0.0
 10
11.2568524461
 20
6.1298996204
 30
0.0
 10
11.2434024262
 20
6.1222970724
 30
0.0
 10
11.2329922065
 20
6.1171107807
 30
0.0
 10
11.2222961708
 20
6.112459545
 30
0.0
 10
11.2076629945
 20
6.1069796432
 30
0.0
 10
11.1887643826
 20
6.101526254
 30
0.0
 10
11.169332915
 20
6.0980109103
 30
0.0
 10
11.1535416467
 20
6.0963660481
 30
0.0
 10
11.1375489011
 20
6.0955046784
 30
0.0
 10
11.1254914825
 20
6.0957524989
 30
0.0
 10
11.1174716099
 20
6.0963085333
 30
0.0
  0
SPLINE
  5
304
100
AcDbEntity
  8
0
100
AcDbSpline
 62
7
  6
CONTINUOUS
 70
0
 71
3
 72
56
 73
52
 74
0
 42
0.0000001
 43
0.0000001
 44
0.0000000001
 40
0.0
 40
0.0
 40
0.0
 40
0.0
 40
0.0314490833
 40
0.0472849055
 40
0.0631822691
 40
0.0951458118
 40
0.1112167181
 40
0.1273383393
 40
0.1435054358
 40
0.1597127689
 40
0.1759548923
 40
0.1922261882
 40
0.2085208125
 40
0.2248325017
 40
0.2574732836
 40
0.2737981111
 40
0.2901144966
 40
0.3226884195
 40
0.3551544653
 40
0.3713370083
 40
0.3874758434
 40
0.4195946961
 40
0.451485471
 40
0.4673413568
 40
0.4831310177
 40
0.5144959071
 40
0.5455817842
 40
0.5610255482
 40
0.5764016572
 40
0.6069506292
 40
0.6372633472
 40
0.6523468328
 40
0.6673852237
 40
0.6823844181
 40
0.697350519
 40
0.712290186
 40
0.7272103893
 40
0.7421182058
 40
0.757020982
 40
0.771926066
 40
0.7868408021
 40
0.8167175492
 40
0.8317035856
 40
0.8467266761
 40
0.8617927671
 40
0.8769075752
 40
0.9072911269
 40
0.9379178942
 40
0.9533373788
 40
0.968828797
 40
1.0
 40
1.0
 40
1.0
 40
1.0
 10
11.1174716993
 20
6.096308525
 30
0.0
 10
11.1093803516
 20
6.0968697986
 30
0.0
 10
11.0972458786
 20
6.098312694
 30
0.0
 10
11.0812408401
 20
6.1013959028
 30
0.0
 10
11.0652720742
 20
6.1052735217
 30
0.0
 10
11.0495399775
 20
6.110305919
 30
0.0
 10
11.0341699246
 20
6.1164443041
 30
0.0
 10
11.0228111415
 20
6.1216067104
 30
0.0
 10
11.0116736275
 20
6.1273073568
 30
0.0
 10
11.0007850104
 20
6.1335330832
 30
0.0
 10
10.9901717444
 20
6.1402676484
 30
0.0
 10
10.9798608277
 20
6.1474957192
 30
0.0
 10
10.9698776068
 20
6.1551999879
 30
0.0
 10
10.9570354743
 20
6.1660806307
 30
0.0
 10
10.944946741
 20
6.1778376541
 30
0.0
 10
10.9337039135
 20
6.1903762947
 30
0.0
 10
10.9230560231
 20
6.2034024836
 30
0.0
 10
10.9109008139
 20
6.2205430571
 30
0.0
 10
10.9003860056
 20
6.2386967685
 30
0.0
 10
10.8930301169
 20
6.2537051567
 30
0.0
 10
10.8864148848
 20
6.2689567783
 30
0.0
 10
10.8795199833
 20
6.2884774008
 30
0.0
 10
10.8745119451
 20
6.3084907619
 30
0.0
 10
10.8716809589
 20
6.3246361568
 30
0.0
 10
10.8696464517
 20
6.3407643085
 30
0.0
 10
10.8685718979
 20
6.360947882
 30
0.0
 10
10.8694779502
 20
6.3810515997
 30
0.0
 10
10.8713867151
 20
6.3969086567
 30
0.0
 10
10.8740647919
 20
6.4125134524
 30
0.0
 10
10.8788507929
 20
6.4316208663
 30
0.0
 10
10.8855394456
 20
6.4500692455
 30
0.0
 10
10.8919752693
 20
6.464271133
 30
0.0
 10
10.8973255623
 20
6.4746112389
 30
0.0
 10
10.9031920247
 20
6.48463212
 30
0.0
 10
10.9095615707
 20
6.4943106763
 30
0.0
 10
10.916419017
 20
6.5036245881
 30
0.0
 10
10.9237473182
 20
6.5125533225
 30
0.0
 10
10.9315302919
 20
6.5210758368
 30
0.0
 10
10.9397496861
 20
6.5291725275
 30
0.0
 10
10.9483863859
 20
6.5368258786
 30
0.0
 10
10.9604363057
 20
6.5464174645
 30
0.0
 10
10.9732480087
 20
6.5550540013
 30
0.0
 10
10.9866980277
 20
6.5626565488
 30
0.0
 10
10.9971082468
 20
6.5678428403
 30
0.0
 10
11.0078042818
 20
6.5724940757
 30
0.0
 10
11.0224374575
 20
6.5779739773
 30
0.0
 10
11.0413360687
 20
6.5834273667
 30
0.0
 10
11.060767536
 20
6.5869427106
 30
0.0
 10
11.0765588048
 20
6.588587573
 30
0.0
 10
11.0925515516
 20
6.5894489424
 30
0.0
 10
11.1046089711
 20
6.5892011223
 30
0.0
 10
11.112628844
 20
6.5886450879
 30
0.0
  0
SPLINE
  5
305
100
AcDbEntity
  8
0
100
AcDbSpline
 62
7
  6
CONTINUOUS
 70
0
 71
3
 72
56
 73
52
 74
0
 42
0.0000001
 43
0.0000001
 44
0.0000000001
 40
0.0
 40
0.0
 40
0.0
 40
0.0
 40
0.0314490832
 40
0.0472849053
 40
0.0631822688
 40
0.0951458114
 40
0.1112167178
 40
0.127338339
 40
0.1435054354
 40
0.1597127686
 40
0.175954892
 40
0.1922261879
 40
0.2085208122
 40
0.2248325014
 40
0.2574732833
 40
0.2737981108
 40
0.2901144962
 40
0.322688419
 40
0.3551544646
 40
0.3713370075
 40
0.3874758424
 40
0.4195946949
 40
0.4514854697
 40
0.4673413555
 40
0.4831310165
 40
0.5144959062
 40
0.5455817839
 40
0.5610255482
 40
0.5764016574
 40
0.6069506298
 40
0.6372633477
 40
0.6523468329
 40
0.6673852231
 40
0.6823844167
 40
0.6973505166
 40
0.7122901825
 40
0.727210385
 40
0.7421182012
 40
0.7570209777
 40
0.7719260624
 40
0.7868407993
 40
0.8167175482
 40
0.8317035856
 40
0.846726677
 40
0.8617927689
 40
0.8769075777
 40
0.9072911306
 40
0.9379178985
 40
0.9533373822
 40
0.9688287985
 40
1.0
 40
1.0
 40
1.0
 40
1.0
 10
10.6905191084
 20
7.1308252764
 30
0.0
 10
10.6986104561
 20
7.1302640027
 30
0.0
 10
10.7107449291
 20
7.1288211075
 30
0.0
 10
10.7267499675
 20
7.1257378986
 30
0.0
 10
10.7427187333
 20
7.1218602798
 30
0.0
 10
10.75845083
 20
7.1168278824
 30
0.0
 10
10.7738208829
 20
7.1106894974
 30
0.0
 10
10.785179666
 20
7.1055270911
 30
0.0
 10
10.79631718
 20
7.0998264447
 30
0.0
 10
10.8072057971
 20
7.0936007183
 30
0.0
 10
10.8178190631
 20
7.0868661532
 30
0.0
 10
10.8281299798
 20
7.0796380823
 30
0.0
 10
10.8381132007
 20
7.0719338136
 30
0.0
 10
10.8509553332
 20
7.0610531709
 30
0.0
 10
10.8630440665
 20
7.0492961475
 30
0.0
 10
10.8742868941
 20
7.0367575069
 30
0.0
 10
10.8849347845
 20
7.023731318
 30
0.0
 10
10.8970899936
 20
7.0065907447
 30
0.0
 10
10.9076048019
 20
6.9884370334
 30
0.0
 10
10.9149606906
 20
6.9734286453
 30
0.0
 10
10.9215759227
 20
6.9581770239
 30
0.0
 10
10.9284708241
 20
6.9386564015
 30
0.0
 10
10.9334788624
 20
6.9186430405
 30
0.0
 10
10.9363098487
 20
6.9024976456
 30
0.0
 10
10.938344356
 20
6.8863694938
 30
0.0
 10
10.9394189099
 20
6.8661859201
 30
0.0
 10
10.9385128576
 20
6.8460822021
 30
0.0
 10
10.9366040927
 20
6.8302251448
 30
0.0
 10
10.9339260158
 20
6.8146203488
 30
0.0
 10
10.9291400148
 20
6.7955129348
 30
0.0
 10
10.922451362
 20
6.7770645557
 30
0.0
 10
10.9160155384
 20
6.7628626684
 30
0.0
 10
10.9106652457
 20
6.7525225629
 30
0.0
 10
10.9047987837
 20
6.7425016824
 30
0.0
 10
10.8984292381
 20
6.7328231267
 30
0.0
 10
10.8915717925
 20
6.7235092154
 30
0.0
 10
10.8842434918
 20
6.7145804813
 30
0.0
 10
10.8764605182
 20
6.7060579672
 30
0.0
 10
10.868241124
 20
6.6979612762
 30
0.0
 10
10.859604424
 20
6.6903079245
 30
0.0
 10
10.8475545036
 20
6.6807163381
 30
0.0
 10
10.8347428
 20
6.6720798006
 30
0.0
 10
10.8212927801
 20
6.6644772526
 30
0.0
 10
10.8108825604
 20
6.6592909609
 30
0.0
 10
10.8001865247
 20
6.6546397252
 30
0.0
 10
10.7855533484
 20
6.6491598234
 30
0.0
 10
10.7666547365
 20
6.6437064341
 30
0.0
 10
10.7472232689
 20
6.6401910904
 30
0.0
 10
10.7314320006
 20
6.6385462282
 30
0.0
 10
10.715439255
 20
6.6376848586
 30
0.0
 10
10.7033818364
 20
6.6379326791
 30
0.0
 10
10.6953619638
 20
6.6384887135
 30
0.0
  0
SPLINE
  5
306
100
AcDbEntity
  8
0
100
AcDbSpline
 62
7
  6
CONTINUOUS
 70
0
 71
3
 72
56
 73
52
 74
0
 42
0.0000001
 43
0.0000001
 44
0.0000000001
 40
0.0
 40
0.0
 40
0.0
 40
0.0
 40
0.0314490833
 40
0.0472849055
 40
0.0631822691
 40
0.0951458118
 40
0.1112167181
 40
0.1273383393
 40
0.1435054358
 40
0.1597127689
 40
0.1759548923
 40
0.1922261882
 40
0.2085208125
 40
0.2248325017
 40
0.2574732836
 40
0.2737981111
 40
0.2901144966
 40
0.3226884195
 40
0.3551544653
 40
0.3713370083
 40
0.3874758434
 40
0.4195946961
 40
0.451485471
 40
0.4673413568
 40
0.4831310177
 40
0.5144959071
 40
0.5455817842
 40
0.5610255482
 40
0.5764016572
 40
0.6069506292
 40
0.6372633472
 40
0.6523468328
 40
0.6673852237
 40
0.6823844181
 40
0.697350519
 40
0.712290186
 40
0.7272103893
 40
0.7421182058
 40
0.757020982
 40
0.771926066
 40
0.7868408021
 40
0.8167175492
 40
0.8317035856
 40
0.8467266761
 40
0.8617927671
 40
0.8769075752
 40
0.9072911269
 40
0.9379178942
 40
0.9533373788
 40
0.968828797
 40
1.0
 40
1.0
 40
1.0
 40
1.0
 10
10.6953620532
 20
6.6384887051
 30
0.0
 10
10.6872707055
 20
6.6390499788
 30
0.0
 10
10.6751362325
 20
6.6404928741
 30
0.0
 10
10.659131194
 20
6.643576083
 30
0.0
 10
10.6431624281
 20
6.6474537019
 30
0.0
 10
10.6274303314
 20
6.6524860992
 30
0.0
 10
10.6120602785
 20
6.6586244843
 30
0.0
 10
10.6007014954
 20
6.6637868906
 30
0.0
 10
10.5895639814
 20
6.669487537
 30
0.0
 10
10.5786753643
 20
6.6757132634
 30
0.0
 10
10.5680620983
 20
6.6824478285
 30
0.0
 10
10.5577511816
 20
6.6896758994
 30
0.0
 10
10.5477679607
 20
6.6973801681
 30
0.0
 10
10.5349258282
 20
6.7082608109
 30
0.0
 10
10.5228370949
 20
6.7200178342
 30
0.0
 10
10.5115942674
 20
6.7325564749
 30
0.0
 10
10.500946377
 20
6.7455826638
 30
0.0
 10
10.4887911678
 20
6.7627232373
 30
0.0
 10
10.4782763595
 20
6.7808769486
 30
0.0
 10
10.4709204708
 20
6.7958853369
 30
0.0
 10
10.4643052387
 20
6.8111369584
 30
0.0
 10
10.4574103372
 20
6.8306575809
 30
0.0
 10
10.452402299
 20
6.8506709421
 30
0.0
 10
10.4495713128
 20
6.866816337
 30
0.0
 10
10.4475368056
 20
6.8829444887
 30
0.0
 10
10.4464622518
 20
6.9031280622
 30
0.0
 10
10.447368304
 20
6.9232317799
 30
0.0
 10
10.449277069
 20
6.9390888369
 30
0.0
 10
10.4519551458
 20
6.9546936326
 30
0.0
 10
10.4567411468
 20
6.9738010464
 30
0.0
 10
10.4634297995
 20
6.9922494257
 30
0.0
 10
10.4698656232
 20
7.0064513132
 30
0.0
 10
10.4752159162
 20
7.0167914191
 30
0.0
 10
10.4810823786
 20
7.0268123002
 30
0.0
 10
10.4874519246
 20
7.0364908565
 30
0.0
 10
10.4943093709
 20
7.0458047683
 30
0.0
 10
10.5016376721
 20
7.0547335027
 30
0.0
 10
10.5094206458
 20
7.063256017
 30
0.0
 10
10.51764004
 20
7.0713527077
 30
0.0
 10
10.5262767398
 20
7.0790060588
 30
0.0
 10
10.5383266596
 20
7.0885976446
 30
0.0
 10
10.5511383626
 20
7.0972341815
 30
0.0
 10
10.5645883816
 20
7.104836729
 30
0.0
 10
10.5749986007
 20
7.1100230204
 30
0.0
 10
10.5856946357
 20
7.1146742559
 30
0.0
 10
10.6003278114
 20
7.1201541575
 30
0.0
 10
10.6192264226
 20
7.1256075469
 30
0.0
 10
10.6386578899
 20
7.1291228908
 30
0.0
 10
10.6544491587
 20
7.1307677532
 30
0.0
 10
10.6704419055
 20
7.1316291226
 30
0.0
 10
10.682499325
 20
7.1313813025
 30
0.0
 10
10.6905191979
 20
7.1308252681
 30
0.0
  0
SPLINE
  5
307
100
AcDbEntity
  8
0
100
AcDbSpline
 62
7
  6
CONTINUOUS
 70
0
 71
3
 72
56
 73
52
 74
0
 42
0.0000001
 43
0.0000001
 44
0.0000000001
 40
0.0
 40
0.0
 40
0.0
 40
0.0
 40
0.0314490832
 40
0.0472849053
 40
0.0631822688
 40
0.0951458114
 40
0.1112167178
 40
0.127338339
 40
0.1435054354
 40
0.1597127686
 40
0.175954892
 40
0.1922261879
 40
0.2085208122
 40
0.2248325014
 40
0.2574732833
 40
0.2737981108
 40
0.2901144962
 40
0.322688419
 40
0.3551544646
 40
0.3713370075
 40
0.3874758424
 40
0.4195946949
 40
0.4514854697
 40
0.4673413555
 40
0.4831310165
 40
0.5144959062
 40
0.5455817839
 40
0.5610255482
 40
0.5764016574
 40
0.6069506298
 40
0.6372633477
 40
0.6523468329
 40
0.6673852231
 40
0.6823844167
 40
0.6973505166
 40
0.7122901825
 40
0.727210385
 40
0.7421182012
 40
0.7570209777
 40
0.7719260624
 40
0.7868407993
 40
0.8167175482
 40
0.8317035856
 40
0.846726677
 40
0.8617927689
 40
0.8769075777
 40
0.9072911306
 40
0.9379178985
 40
0.9533373822
 40
0.9688287985
 40
1.0
 40
1.0
 40
1.0
 40
1.0
 10
10.6905191084
 20
7.9161229847
 30
0.0
 10
10.6986104561
 20
7.915561711
 30
0.0
 10
10.7107449291
 20
7.9141188158
 30
0.0
 10
10.7267499675
 20
7.9110356069
 30
0.0
 10
10.7427187333
 20
7.9071579881
 30
0.0
 10
10.75845083
 20
7.9021255907
 30
0.0
 10
10.7738208829
 20
7.8959872057
 30
0.0
 10
10.785179666
 20
7.8908247994
 30
0.0
 10
10.79631718
 20
7.885124153
 30
0.0
 10
10.8072057971
 20
7.8788984266
 30
0.0
 10
10.8178190631
 20
7.8721638615
 30
0.0
 10
10.8281299798
 20
7.8649357906
 30
0.0
 10
10.8381132007
 20
7.8572315219
 30
0.0
 10
10.8509553332
 20
7.8463508792
 30
0.0
 10
10.8630440665
 20
7.8345938558
 30
0.0
 10
10.8742868941
 20
7.8220552152
 30
0.0
 10
10.8849347845
 20
7.8090290263
 30
0.0
 10
10.8970899936
 20
7.791888453
 30
0.0
 10
10.9076048019
 20
7.7737347417
 30
0.0
 10
10.9149606906
 20
7.7587263536
 30
0.0
 10
10.9215759227
 20
7.7434747322
 30
0.0
 10
10.9284708241
 20
7.7239541098
 30
0.0
 10
10.9334788624
 20
7.7039407488
 30
0.0
 10
10.9363098487
 20
7.6877953539
 30
0.0
 10
10.938344356
 20
7.6716672021
 30
0.0
 10
10.9394189099
 20
7.6514836284
 30
0.0
 10
10.9385128576
 20
7.6313799104
 30
0.0
 10
10.9366040927
 20
7.6155228531
 30
0.0
 10
10.9339260158
 20
7.5999180571
 30
0.0
 10
10.9291400148
 20
7.5808106431
 30
0.0
 10
10.922451362
 20
7.562362264
 30
0.0
 10
10.9160155384
 20
7.5481603767
 30
0.0
 10
10.9106652457
 20
7.5378202712
 30
0.0
 10
10.9047987837
 20
7.5277993907
 30
0.0
 10
10.8984292381
 20
7.518120835
 30
0.0
 10
10.8915717925
 20
7.5088069237
 30
0.0
 10
10.8842434918
 20
7.4998781896
 30
0.0
 10
10.8764605182
 20
7.4913556755
 30
0.0
 10
10.868241124
 20
7.4832589845
 30
0.0
 10
10.859604424
 20
7.4756056328
 30
0.0
 10
10.8475545036
 20
7.4660140464
 30
0.0
 10
10.8347428
 20
7.4573775089
 30
0.0
 10
10.8212927801
 20
7.4497749609
 30
0.0
 10
10.8108825604
 20
7.4445886692
 30
0.0
 10
10.8001865247
 20
7.4399374335
 30
0.0
 10
10.7855533484
 20
7.4344575317
 30
0.0
 10
10.7666547365
 20
7.4290041424
 30
0.0
 10
10.7472232689
 20
7.4254887987
 30
0.0
 10
10.7314320006
 20
7.4238439365
 30
0.0
 10
10.715439255
 20
7.4229825669
 30
0.0
 10
10.7033818364
 20
7.4232303874
 30
0.0
 10
10.6953619638
 20
7.4237864218
 30
0.0
  0
SPLINE
  5
308
100
AcDbEntity
  8
0
100
AcDbSpline
 62
7
  6
CONTINUOUS
 70
0
 71
3
 72
56
 73
52
 74
0
 42
0.0000001
 43
0.0000001
 44
0.0000000001
 40
0.0
 40
0.0
 40
0.0
 40
0.0
 40
0.0314490833
 40
0.0472849055
 40
0.0631822691
 40
0.0951458118
 40
0.1112167181
 40
0.1273383393
 40
0.1435054358
 40
0.1597127689
 40
0.1759548923
 40
0.1922261882
 40
0.2085208125
 40
0.2248325017
 40
0.2574732836
 40
0.2737981111
 40
0.2901144966
 40
0.3226884195
 40
0.3551544653
 40
0.3713370083
 40
0.3874758434
 40
0.4195946961
 40
0.451485471
 40
0.4673413568
 40
0.4831310177
 40
0.5144959071
 40
0.5455817842
 40
0.5610255482
 40
0.5764016572
 40
0.6069506292
 40
0.6372633472
 40
0.6523468328
 40
0.6673852237
 40
0.6823844181
 40
0.697350519
 40
0.712290186
 40
0.7272103893
 40
0.7421182058
 40
0.757020982
 40
0.771926066
 40
0.7868408021
 40
0.8167175492
 40
0.8317035856
 40
0.8467266761
 40
0.8617927671
 40
0.8769075752
 40
0.9072911269
 40
0.9379178942
 40
0.9533373788
 40
0.968828797
 40
1.0
 40
1.0
 40
1.0
 40
1.0
 10
10.6953620532
 20
7.4237864134
 30
0.0
 10
10.6872707055
 20
7.4243476871
 30
0.0
 10
10.6751362325
 20
7.4257905824
 30
0.0
 10
10.659131194
 20
7.4288737913
 30
0.0
 10
10.6431624281
 20
7.4327514102
 30
0.0
 10
10.6274303314
 20
7.4377838075
 30
0.0
 10
10.6120602785
 20
7.4439221926
 30
0.0
 10
10.6007014954
 20
7.4490845989
 30
0.0
 10
10.5895639814
 20
7.4547852453
 30
0.0
 10
10.5786753643
 20
7.4610109717
 30
0.0
 10
10.5680620983
 20
7.4677455368
 30
0.0
 10
10.5577511816
 20
7.4749736077
 30
0.0
 10
10.5477679607
 20
7.4826778764
 30
0.0
 10
10.5349258282
 20
7.4935585192
 30
0.0
 10
10.5228370949
 20
7.5053155425
 30
0.0
 10
10.5115942674
 20
7.5178541832
 30
0.0
 10
10.500946377
 20
7.5308803721
 30
0.0
 10
10.4887911678
 20
7.5480209456
 30
0.0
 10
10.4782763595
 20
7.5661746569
 30
0.0
 10
10.4709204708
 20
7.5811830452
 30
0.0
 10
10.4643052387
 20
7.5964346667
 30
0.0
 10
10.4574103372
 20
7.6159552892
 30
0.0
 10
10.452402299
 20
7.6359686504
 30
0.0
 10
10.4495713128
 20
7.6521140453
 30
0.0
 10
10.4475368056
 20
7.668242197
 30
0.0
 10
10.4464622518
 20
7.6884257704
 30
0.0
 10
10.447368304
 20
7.7085294882
 30
0.0
 10
10.449277069
 20
7.7243865452
 30
0.0
 10
10.4519551458
 20
7.7399913409
 30
0.0
 10
10.4567411468
 20
7.7590987547
 30
0.0
 10
10.4634297995
 20
7.777547134
 30
0.0
 10
10.4698656232
 20
7.7917490215
 30
0.0
 10
10.4752159162
 20
7.8020891274
 30
0.0
 10
10.4810823786
 20
7.8121100085
 30
0.0
 10
10.4874519246
 20
7.8217885648
 30
0.0
 10
10.4943093709
 20
7.8311024766
 30
0.0
 10
10.5016376721
 20
7.840031211
 30
0.0
 10
10.5094206458
 20
7.8485537253
 30
0.0
 10
10.51764004
 20
7.856650416
 30
0.0
 10
10.5262767398
 20
7.8643037671
 30
0.0
 10
10.5383266596
 20
7.8738953529
 30
0.0
 10
10.5511383626
 20
7.8825318898
 30
0.0
 10
10.5645883816
 20
7.8901344373
 30
0.0
 10
10.5749986007
 20
7.8953207287
 30
0.0
 10
10.5856946357
 20
7.8999719642
 30
0.0
 10
10.6003278114
 20
7.9054518658
 30
0.0
 10
10.6192264226
 20
7.9109052552
 30
0.0
 10
10.6386578899
 20
7.9144205991
 30
0.0
 10
10.6544491587
 20
7.9160654615
 30
0.0
 10
10.6704419055
 20
7.9169268309
 30
0.0
 10
10.682499325
 20
7.9166790108
 30
0.0
 10
10.6905191979
 20
7.9161229764
 30
0.0
  0
SPLINE
  5
309
100
AcDbEntity
  8
0
100
AcDbSpline
 62
7
  6
CONTINUOUS
 70
0
 71
3
 72
56
 73
52
 74
0
 42
0.0000001
 43
0.0000001
 44
0.0000000001
 40
0.0
 40
0.0
 40
0.0
 40
0.0
 40
0.0314490832
 40
0.0472849053
 40
0.0631822688
 40
0.0951458114
 40
0.1112167178
 40
0.127338339
 40
0.1435054354
 40
0.1597127686
 40
0.175954892
 40
0.1922261879
 40
0.2085208122
 40
0.2248325014
 40
0.2574732833
 40
0.2737981108
 40
0.2901144962
 40
0.322688419
 40
0.3551544646
 40
0.3713370075
 40
0.3874758424
 40
0.4195946949
 40
0.4514854697
 40
0.4673413555
 40
0.4831310165
 40
0.5144959062
 40
0.5455817839
 40
0.5610255482
 40
0.5764016574
 40
0.6069506298
 40
0.6372633477
 40
0.6523468329
 40
0.6673852231
 40
0.6823844167
 40
0.6973505166
 40
0.7122901825
 40
0.727210385
 40
0.7421182012
 40
0.7570209777
 40
0.7719260624
 40
0.7868407993
 40
0.8167175482
 40
0.8317035856
 40
0.846726677
 40
0.8617927689
 40
0.8769075777
 40
0.9072911306
 40
0.9379178985
 40
0.9533373822
 40
0.9688287985
 40
1.0
 40
1.0
 40
1.0
 40
1.0
 10
11.1126287545
 20
8.399756243
 30
0.0
 10
11.1207201022
 20
8.3991949693
 30
0.0
 10
11.1328545752
 20
8.397752074
 30
0.0
 10
11.1488596136
 20
8.3946688652
 30
0.0
 10
11.1648283794
 20
8.3907912463
 30
0.0
 10
11.1805604761
 20
8.385758849
 30
0.0
 10
11.195930529
 20
8.379620464
 30
0.0
 10
11.2072893121
 20
8.3744580577
 30
0.0
 10
11.2184268261
 20
8.3687574113
 30
0.0
 10
11.2293154432
 20
8.3625316849
 30
0.0
 10
11.2399287092
 20
8.3557971197
 30
0.0
 10
11.2502396259
 20
8.3485690488
 30
0.0
 10
11.2602228468
 20
8.3408647802
 30
0.0
 10
11.2730649793
 20
8.3299841374
 30
0.0
 10
11.2851537126
 20
8.3182271141
 30
0.0
 10
11.2963965402
 20
8.3056884734
 30
0.0
 10
11.3070444306
 20
8.2926622846
 30
0.0
 10
11.3191996397
 20
8.2755217112
 30
0.0
 10
11.329714448
 20
8.257368
 30
0.0
 10
11.3370703367
 20
8.2423596118
 30
0.0
 10
11.3436855688
 20
8.2271079904
 30
0.0
 10
11.3505804702
 20
8.2075873681
 30
0.0
 10
11.3555885085
 20
8.187574007
 30
0.0
 10
11.3584194948
 20
8.1714286122
 30
0.0
 10
11.3604540021
 20
8.1553004604
 30
0.0
 10
11.361528556
 20
8.1351168867
 30
0.0
 10
11.3606225037
 20
8.1150131686
 30
0.0
 10
11.3587137388
 20
8.0991561113
 30
0.0
 10
11.3560356619
 20
8.0835513154
 30
0.0
 10
11.3512496609
 20
8.0644439014
 30
0.0
 10
11.3445610081
 20
8.0459955222
 30
0.0
 10
11.3381251845
 20
8.031793635
 30
0.0
 10
11.3327748918
 20
8.0214535295
 30
0.0
 10
11.3269084298
 20
8.011432649
 30
0.0
 10
11.3205388842
 20
8.0017540933
 30
0.0
 10
11.3136814386
 20
7.9924401819
 30
0.0
 10
11.3063531379
 20
7.9835114478
 30
0.0
 10
11.2985701643
 20
7.9749889337
 30
0.0
 10
11.2903507701
 20
7.9668922428
 30
0.0
 10
11.2817140701
 20
7.9592388911
 30
0.0
 10
11.2696641497
 20
7.9496473047
 30
0.0
 10
11.2568524461
 20
7.9410107672
 30
0.0
 10
11.2434024262
 20
7.9334082192
 30
0.0
 10
11.2329922065
 20
7.9282219275
 30
0.0
 10
11.2222961708
 20
7.9235706917
 30
0.0
 10
11.2076629945
 20
7.9180907899
 30
0.0
 10
11.1887643826
 20
7.9126374007
 30
0.0
 10
11.169332915
 20
7.909122057
 30
0.0
 10
11.1535416467
 20
7.9074771948
 30
0.0
 10
11.1375489011
 20
7.9066158252
 30
0.0
 10
11.1254914825
 20
7.9068636456
 30
0.0
 10
11.1174716099
 20
7.90741968
 30
0.0
  0
SPLINE
  5
30A
100
AcDbEntity
  8
0
100
AcDbSpline
 62
7
  6
CONTINUOUS
 70
0
 71
3
 72
56
 73
52
 74
0
 42
0.0000001
 43
0.0000001
 44
0.0000000001
 40
0.0
 40
0.0
 40
0.0
 40
0.0
 40
0.0314490833
 40
0.0472849055
 40
0.0631822691
 40
0.0951458118
 40
0.1112167181
 40
0.1273383393
 40
0.1435054358
 40
0.1597127689
 40
0.1759548923
 40
0.1922261882
 40
0.2085208125
 40
0.2248325017
 40
0.2574732836
 40
0.2737981111
 40
0.2901144966
 40
0.3226884195
 40
0.3551544653
 40
0.3713370083
 40
0.3874758434
 40
0.4195946961
 40
0.451485471
 40
0.4673413568
 40
0.4831310177
 40
0.5144959071
 40
0.5455817842
 40
0.5610255482
 40
0.5764016572
 40
0.6069506292
 40
0.6372633472
 40
0.6523468328
 40
0.6673852237
 40
0.6823844181
 40
0.697350519
 40
0.712290186
 40
0.7272103893
 40
0.7421182058
 40
0.757020982
 40
0.771926066
 40
0.7868408021
 40
0.8167175492
 40
0.8317035856
 40
0.8467266761
 40
0.8617927671
 40
0.8769075752
 40
0.9072911269
 40
0.9379178942
 40
0.9533373788
 40
0.968828797
 40
1.0
 40
1.0
 40
1.0
 40
1.0
 10
11.1174716993
 20
7.9074196717
 30
0.0
 10
11.1093803516
 20
7.9079809454
 30
0.0
 10
11.0972458786
 20
7.9094238407
 30
0.0
 10
11.0812408401
 20
7.9125070495
 30
0.0
 10
11.0652720742
 20
7.9163846684
 30
0.0
 10
11.0495399775
 20
7.9214170658
 30
0.0
 10
11.0341699246
 20
7.9275554508
 30
0.0
 10
11.0228111415
 20
7.9327178571
 30
0.0
 10
11.0116736275
 20
7.9384185035
 30
0.0
 10
11.0007850104
 20
7.9446442299
 30
0.0
 10
10.9901717444
 20
7.9513787951
 30
0.0
 10
10.9798608277
 20
7.958606866
 30
0.0
 10
10.9698776068
 20
7.9663111347
 30
0.0
 10
10.9570354743
 20
7.9771917774
 30
0.0
 10
10.944946741
 20
7.9889488008
 30
0.0
 10
10.9337039135
 20
8.0014874415
 30
0.0
 10
10.9230560231
 20
8.0145136304
 30
0.0
 10
10.9109008139
 20
8.0316542038
 30
0.0
 10
10.9003860056
 20
8.0498079152
 30
0.0
 10
10.8930301169
 20
8.0648163035
 30
0.0
 10
10.8864148848
 20
8.080067925
 30
0.0
 10
10.8795199833
 20
8.0995885475
 30
0.0
 10
10.8745119451
 20
8.1196019087
 30
0.0
 10
10.8716809589
 20
8.1357473036
 30
0.0
 10
10.8696464517
 20
8.1518754552
 30
0.0
 10
10.8685718979
 20
8.1720590287
 30
0.0
 10
10.8694779502
 20
8.1921627464
 30
0.0
 10
10.8713867151
 20
8.2080198035
 30
0.0
 10
10.8740647919
 20
8.2236245992
 30
0.0
 10
10.8788507929
 20
8.242732013
 30
0.0
 10
10.8855394456
 20
8.2611803923
 30
0.0
 10
10.8919752693
 20
8.2753822798
 30
0.0
 10
10.8973255623
 20
8.2857223857
 30
0.0
 10
10.9031920247
 20
8.2957432667
 30
0.0
 10
10.9095615707
 20
8.3054218231
 30
0.0
 10
10.916419017
 20
8.3147357348
 30
0.0
 10
10.9237473182
 20
8.3236644692
 30
0.0
 10
10.9315302919
 20
8.3321869836
 30
0.0
 10
10.9397496861
 20
8.3402836742
 30
0.0
 10
10.9483863859
 20
8.3479370253
 30
0.0
 10
10.9604363057
 20
8.3575286112
 30
0.0
 10
10.9732480087
 20
8.366165148
 30
0.0
 10
10.9866980277
 20
8.3737676956
 30
0.0
 10
10.9971082468
 20
8.378953987
 30
0.0
 10
11.0078042818
 20
8.3836052225
 30
0.0
 10
11.0224374575
 20
8.389085124
 30
0.0
 10
11.0413360687
 20
8.3945385134
 30
0.0
 10
11.060767536
 20
8.3980538574
 30
0.0
 10
11.0765588048
 20
8.3996987197
 30
0.0
 10
11.0925515516
 20
8.4005600892
 30
0.0
 10
11.1046089711
 20
8.400312269
 30
0.0
 10
11.112628844
 20
8.3997562347
 30
0.0
  0
SPLINE
  5
30B
100
AcDbEntity
  8
0
100
AcDbSpline
 62
7
  6
CONTINUOUS
 70
0
 71
3
 72
9
 73
5
 74
0
 42
0.0000001
 43
0.0000001
 44
0.0000000001
 40
0.0
 40
0.0
 40
0.0
 40
0.0
 40
0.2426666479
 40
1.0
 40
1.0
 40
1.0
 40
1.0
 10
11.7846166599
 20
5.1011234831
 30
0.0
 10
11.7841090321
 20
5.1005297102
 30
0.0
 10
11.7819853363
 20
5.0981101257
 30
0.0
 10
11.7797399278
 20
5.0957982309
 30
0.0
 10
11.7779863932
 20
5.0941044464
 30
0.0
  0
SPLINE
  5
30C
100
AcDbEntity
  8
0
100
AcDbSpline
 62
7
  6
CONTINUOUS
 70
0
 71
3
 72
9
 73
5
 74
0
 42
0.0000001
 43
0.0000001
 44
0.0000000001
 40
0.0
 40
0.0
 40
0.0
 40
0.0
 40
0.2426770998
 40
1.0
 40
1.0
 40
1.0
 40
1.0
 10
11.7779863932
 20
5.0941044464
 30
0.0
 10
11.7773782027
 20
5.0935169795
 30
0.0
 10
11.7748451513
 20
5.0911240983
 30
0.0
 10
11.7722094376
 20
5.0888406288
 30
0.0
 10
11.7701686355
 20
5.0871677624
 30
0.0
  0
SPLINE
  5
30D
100
AcDbEntity
  8
0
100
AcDbSpline
 62
7
  6
CONTINUOUS
 70
0
 71
3
 72
9
 73
5
 74
0
 42
0.0000001
 43
0.0000001
 44
0.0000000001
 40
0.0
 40
0.0
 40
0.0
 40
0.0
 40
0.504378312
 40
1.0
 40
1.0
 40
1.0
 40
1.0
 10
11.7701686355
 20
5.0871677624
 30
0.0
 10
11.7566648853
 20
5.0787589087
 30
0.0
 10
11.7295520479
 20
5.0626242527
 30
0.0
 10
11.7016792514
 20
5.0478270579
 30
0.0
 10
11.6876651134
 20
5.0409022156
 30
0.0
  0
SPLINE
  5
30E
100
AcDbEntity
  8
0
100
AcDbSpline
 62
7
  6
CONTINUOUS
 70
0
 71
3
 72
47
 73
43
 74
0
 42
0.0000001
 43
0.0000001
 44
0.0000000001
 40
0.0
 40
0.0
 40
0.0
 40
0.0
 40
0.0099874638
 40
0.0204476834
 40
0.0313771515
 40
0.0427708334
 40
0.0546218702
 40
0.0669225517
 40
0.0796641282
 40
0.0928362942
 40
0.1204271347
 40
0.1495984091
 40
0.1802407165
 40
0.2122338314
 40
0.2454489836
 40
0.2797497839
 40
0.3149929168
 40
0.3510298084
 40
0.3877071885
 40
0.4248680172
 40
0.4623527228
 40
0.4999997959
 40
0.5376468789
 40
0.575131606
 40
0.6122924455
 40
0.6489698269
 40
0.6850067267
 40
0.7202498875
 40
0.7545507276
 40
0.7877659112
 40
0.8197590481
 40
0.8504013805
 40
0.8795726993
 40
0.9071635849
 40
0.9203357726
 40
0.933077377
 40
0.9453780958
 40
0.9572291635
 40
0.968622847
 40
0.9795522717
 40
0.9900124597
 40
1.0
 40
1.0
 40
1.0
 40
1.0
 10
11.6572023788
 20
5.025854187
 30
0.0
 10
11.6542118445
 20
5.0243769093
 30
0.0
 10
11.6480381381
 20
5.0214549935
 30
0.0
 10
11.6384359396
 20
5.0172555498
 30
0.0
 10
11.6282877616
 20
5.013142715
 30
0.0
 10
11.6176053136
 20
5.0091215053
 30
0.0
 10
11.6064009379
 20
5.0051962
 30
0.0
 10
11.5946874372
 20
5.0013714809
 30
0.0
 10
11.5824781813
 20
4.9976519102
 30
0.0
 10
11.5652903525
 20
4.9927623784
 30
0.0
 10
11.5426600402
 20
4.9869668969
 30
0.0
 10
11.5141687619
 20
4.9805982246
 30
0.0
 10
11.4840687129
 20
4.9747427007
 30
0.0
 10
11.4524987067
 20
4.969427359
 30
0.0
 10
11.4196040487
 20
4.9646772027
 30
0.0
 10
11.3855363976
 20
4.9605146705
 30
0.0
 10
11.350452939
 20
4.9569589425
 30
0.0
 10
11.3145156182
 20
4.9540267721
 30
0.0
 10
11.2778903573
 20
4.9517319875
 30
0.0
 10
11.2407463248
 20
4.9500850401
 30
0.0
 10
11.2032551009
 20
4.949093804
 30
0.0
 10
11.1655898606
 20
4.9487629474
 30
0.0
 10
11.127924613
 20
4.9490937873
 30
0.0
 10
11.0904333746
 20
4.9500850073
 30
0.0
 10
11.0532893301
 20
4.951731938
 30
0.0
 10
11.0166640614
 20
4.9540267065
 30
0.0
 10
10.9807267266
 20
4.95695886
 30
0.0
 10
10.9456432411
 20
4.9605145735
 30
0.0
 10
10.9115755549
 20
4.9646770909
 30
0.0
 10
10.8786808636
 20
4.9694272339
 30
0.0
 10
10.8471108282
 20
4.9747425598
 30
0.0
 10
10.8170107453
 20
4.9805980694
 30
0.0
 10
10.7885194256
 20
4.9869667321
 30
0.0
 10
10.7658890717
 20
4.9927622001
 30
0.0
 10
10.7487012072
 20
4.9976517224
 30
0.0
 10
10.7364919205
 20
5.0013712917
 30
0.0
 10
10.7247783884
 20
5.005196018
 30
0.0
 10
10.713573989
 20
5.0091213259
 30
0.0
 10
10.7028915382
 20
5.0131425173
 30
0.0
 10
10.6927433661
 20
5.0172553011
 30
0.0
 10
10.6831411502
 20
5.0214547065
 30
0.0
 10
10.676967429
 20
5.0243766271
 30
0.0
 10
10.673976876
 20
5.0258539247
 30
0.0
  0
SPLINE
  5
30F
100
AcDbEntity
  8
0
100
AcDbSpline
 62
7
  6
CONTINUOUS
 70
0
 71
3
 72
23
 73
19
 74
0
 42
0.0000001
 43
0.0000001
 44
0.0000000001
 40
0.0
 40
0.0
 40
0.0
 40
0.0
 40
0.0436203086
 40
0.0892268542
 40
0.137068591
 40
0.187353676
 40
0.2402538462
 40
0.2958872461
 40
0.3543311569
 40
0.4156094827
 40
0.4797102731
 40
0.5465788188
 40
0.6161346312
 40
0.6882694307
 40
0.7628606873
 40
0.8397744221
 40
0.9188692703
 40
1.0
 40
1.0
 40
1.0
 40
1.0
 10
10.6549706165
 20
5.0352426749
 30
0.0
 10
10.6526606808
 20
5.0363832434
 30
0.0
 10
10.6480235571
 20
5.0388983399
 30
0.0
 10
10.6411962677
 20
5.043259392
 30
0.0
 10
10.6343598788
 20
5.0483016785
 30
0.0
 10
10.6275183291
 20
5.0540326108
 30
0.0
 10
10.6206772309
 20
5.0604562616
 30
0.0
 10
10.6138396904
 20
5.067567834
 30
0.0
 10
10.6070114312
 20
5.075358646
 30
0.0
 10
10.6001951871
 20
5.0838120485
 30
0.0
 10
10.5933960186
 20
5.0929079544
 30
0.0
 10
10.5866161684
 20
5.1026203363
 30
0.0
 10
10.5798595015
 20
5.1129208844
 30
0.0
 10
10.5731276145
 20
5.1237778385
 30
0.0
 10
10.5664228975
 20
5.135158692
 30
0.0
 10
10.5597462483
 20
5.1470297745
 30
0.0
 10
10.5530987558
 20
5.1593576135
 30
0.0
 10
10.5487396378
 20
5.1677570306
 30
0.0
 10
10.5465621062
 20
5.1720251635
 30
0.0
  0
SPLINE
  5
310
100
AcDbEntity
  8
0
100
AcDbSpline
 62
7
  6
CONTINUOUS
 70
0
 71
3
 72
21
 73
17
 74
0
 42
0.0000001
 43
0.0000001
 44
0.0000000001
 40
0.0
 40
0.0
 40
0.0
 40
0.0
 40
0.1230212981
 40
0.1847065752
 40
0.2465215318
 40
0.3084771567
 40
0.3705832678
 40
0.432847904
 40
0.4952752623
 40
0.5578663069
 40
0.6206183946
 40
0.6835249868
 40
0.7465773451
 40
0.8097643485
 40
0.8730733734
 40
1.0
 40
1.0
 40
1.0
 40
1.0
 10
11.3025612982
 20
4.9763584225
 30
0.0
 10
11.2794821172
 20
4.9718110664
 30
0.0
 10
11.2446496757
 20
4.96583866
 30
0.0
 10
11.1978784607
 20
4.9599285127
 30
0.0
 10
11.1625671521
 20
4.9566012987
 30
0.0
 10
11.1270827093
 20
4.954466891
 30
0.0
 10
11.0914579882
 20
4.9535961547
 30
0.0
 10
11.0557347767
 20
4.9540450499
 30
0.0
 10
11.019961155
 20
4.9558470486
 30
0.0
 10
10.9841886288
 20
4.9590103346
 30
0.0
 10
10.9484686889
 20
4.9635192852
 30
0.0
 10
10.9128490755
 20
4.9693335269
 30
0.0
 10
10.877370936
 20
4.976391241
 30
0.0
 10
10.8420667452
 20
4.9846169307
 30
0.0
 10
10.7952228191
 20
4.9970364828
 30
0.0
 10
10.7604624094
 20
5.0078242771
 30
0.0
 10
10.7374548236
 20
5.0155486896
 30
0.0
  0
SPLINE
  5
311
100
AcDbEntity
  8
0
100
AcDbSpline
 62
7
  6
CONTINUOUS
 70
0
 71
3
 72
21
 73
17
 74
0
 42
0.0000001
 43
0.0000001
 44
0.0000000001
 40
0.0
 40
0.0
 40
0.0
 40
0.0
 40
0.1269266266
 40
0.1902356515
 40
0.253422655
 40
0.3164750132
 40
0.3793816055
 40
0.4421336932
 40
0.5047247377
 40
0.567152096
 40
0.6294167323
 40
0.6915228434
 40
0.7534784683
 40
0.8152934248
 40
0.8769787019
 40
1.0
 40
1.0
 40
1.0
 40
1.0
 10
11.3025612982
 20
5.3607618638
 30
0.0
 10
11.2795537124
 20
5.3684862764
 30
0.0
 10
11.2447933027
 20
5.3792740707
 30
0.0
 10
11.1979493765
 20
5.3916936228
 30
0.0
 10
11.1626451858
 20
5.3999193125
 30
0.0
 10
11.1271670463
 20
5.4069770266
 30
0.0
 10
11.0915474329
 20
5.4127912683
 30
0.0
 10
11.055827493
 20
5.4173002189
 30
0.0
 10
11.0200549668
 20
5.4204635049
 30
0.0
 10
10.984281345
 20
5.4222655036
 30
0.0
 10
10.9485581335
 20
5.4227143988
 30
0.0
 10
10.9129334125
 20
5.4218436624
 30
0.0
 10
10.8774489697
 20
5.4197092548
 30
0.0
 10
10.8421376611
 20
5.4163820408
 30
0.0
 10
10.7953664461
 20
5.4104718935
 30
0.0
 10
10.7605340046
 20
5.4044994871
 30
0.0
 10
10.7374548236
 20
5.399952131
 30
0.0
  0
SPLINE
  5
312
100
AcDbEntity
  8
0
100
AcDbSpline
 62
7
  6
CONTINUOUS
 70
0
 71
3
 72
11
 73
7
 74
0
 42
0.0000001
 43
0.0000001
 44
0.0000000001
 40
0.0
 40
0.0
 40
0.0
 40
0.0
 40
0.2465919593
 40
0.494712682
 40
0.7454424776
 40
1.0
 40
1.0
 40
1.0
 40
1.0
 10
10.6979820457
 20
5.0257649834
 30
0.0
 10
10.6960396328
 20
5.0257101487
 30
0.0
 10
10.6921383231
 20
5.0257174952
 30
0.0
 10
10.6862726319
 20
5.026101017
 30
0.0
 10
10.6803825599
 20
5.0268792994
 30
0.0
 10
10.6764761028
 20
5.0276688473
 30
0.0
 10
10.6745246577
 20
5.0281333086
 30
0.0
  0
SPLINE
  5
313
100
AcDbEntity
  8
0
100
AcDbSpline
 62
7
  6
CONTINUOUS
 70
0
 71
3
 72
10
 73
6
 74
0
 42
0.0000001
 43
0.0000001
 44
0.0000000001
 40
0.0
 40
0.0
 40
0.0
 40
0.0
 40
0.2418255986
 40
0.4885199497
 40
1.0
 40
1.0
 40
1.0
 40
1.0
 10
10.6745246577
 20
5.0281333086
 30
0.0
 10
10.6728901402
 20
5.0285223384
 30
0.0
 10
10.6696098298
 20
5.0294031989
 30
0.0
 10
10.6630109295
 20
5.0315855042
 30
0.0
 10
10.6581570511
 20
5.0336693206
 30
0.0
 10
10.6549706165
 20
5.0352426749
 30
0.0
  0
SPLINE
  5
314
100
AcDbEntity
  8
0
100
AcDbSpline
 62
7
  6
CONTINUOUS
 70
0
 71
3
 72
15
 73
11
 74
0
 42
0.0000001
 43
0.0000001
 44
0.0000000001
 40
0.0
 40
0.0
 40
0.0
 40
0.0
 40
0.1420156698
 40
0.2798006134
 40
0.4130081501
 40
0.5413052015
 40
0.6643857695
 40
0.7819812239
 40
0.8938925711
 40
1.0
 40
1.0
 40
1.0
 40
1.0
 10
10.6979820457
 20
5.4101684247
 30
0.0
 10
10.6954389837
 20
5.4151530259
 30
0.0
 10
10.6903487988
 20
5.4249333474
 30
0.0
 10
10.6825641413
 20
5.4392256068
 30
0.0
 10
10.674740317
 20
5.4528771918
 30
0.0
 10
10.6668787601
 20
5.4658343577
 30
0.0
 10
10.6589822469
 20
5.4780443192
 30
0.0
 10
10.6510535218
 20
5.489456309
 30
0.0
 10
10.643098143
 20
5.5000242317
 30
0.0
 10
10.6376331175
 20
5.506657266
 30
0.0
 10
10.6348924371
 20
5.5098146375
 30
0.0
  0
SPLINE
  5
315
100
AcDbEntity
  8
0
100
AcDbSpline
 62
7
  6
CONTINUOUS
 70
0
 71
3
 72
30
 73
26
 74
0
 42
0.0000001
 43
0.0000001
 44
0.0000000001
 40
0.0
 40
0.0
 40
0.0
 40
0.0
 40
0.020102342
 40
0.0414721484
 40
0.064083714
 40
0.0879053711
 40
0.1128983455
 40
0.1390192795
 40
0.166219474
 40
0.194446324
 40
0.2236432812
 40
0.2537502888
 40
0.2847044478
 40
0.3164396838
 40
0.3488879076
 40
0.3819782157
 40
0.4497920122
 40
0.5192830365
 40
0.5898315537
 40
0.6608053768
 40
0.7315674997
 40
0.8014833425
 40
0.8699281207
 40
0.9362944757
 40
1.0
 40
1.0
 40
1.0
 40
1.0
 10
10.6997603486
 20
5.5048511232
 30
0.0
 10
10.7043069105
 20
5.502814573
 30
0.0
 10
10.713778604
 20
5.4988162798
 30
0.0
 10
10.7286314145
 20
5.4931851384
 30
0.0
 10
10.7445334786
 20
5.4877476674
 30
0.0
 10
10.7614468004
 20
5.4825178443
 30
0.0
 10
10.7793311246
 20
5.4775076753
 30
0.0
 10
10.798143761
 20
5.4727297868
 30
0.0
 10
10.8178396634
 20
5.4681954145
 30
0.0
 10
10.8383716479
 20
5.4639157672
 30
0.0
 10
10.8596904422
 20
5.4599011429
 30
0.0
 10
10.8817448773
 20
5.4561612311
 30
0.0
 10
10.9044819714
 20
5.4527052491
 30
0.0
 10
10.9278470955
 20
5.4495413288
 30
0.0
 10
10.951784114
 20
5.4466774127
 30
0.0
 10
10.9846537677
 20
5.4432398686
 30
0.0
 10
11.0267439551
 20
5.4397573332
 30
0.0
 10
11.0781812035
 20
5.4368950222
 30
0.0
 10
11.1304581791
 20
5.4353446843
 30
0.0
 10
11.1830724972
 20
5.4351213916
 30
0.0
 10
11.2355189189
 20
5.436227373
 30
0.0
 10
11.2872936648
 20
5.4386517621
 30
0.0
 10
11.3378998418
 20
5.4423707689
 30
0.0
 10
11.3868510549
 20
5.447347804
 30
0.0
 10
11.4188146806
 20
5.4515702181
 30
0.0
 10
11.4344293448
 20
5.4539016552
 30
0.0
  0
LINE
  5
316
100
AcDbEntity
  8
0
100
AcDbLine
 62
7
  6
CONTINUOUS
 10
11.6568821552
 20
5.0265251856
 11
11.6561530412
 21
5.026205298
  0
SPLINE
  5
317
100
AcDbEntity
  8
0
100
AcDbSpline
 62
7
  6
CONTINUOUS
 70
0
 71
3
 72
15
 73
11
 74
0
 42
0.0000001
 43
0.0000001
 44
0.0000000001
 40
0.0
 40
0.0
 40
0.0
 40
0.0
 40
0.1321602046
 40
0.2618009952
 40
0.3890353631
 40
0.5141096583
 40
0.6373677171
 40
0.75919507
 40
0.8799649792
 40
1.0
 40
1.0
 40
1.0
 40
1.0
 10
11.6561530412
 20
5.026205298
 30
0.0
 10
11.6437719378
 20
5.0207815559
 30
0.0
 10
11.6189311739
 20
5.0107345667
 30
0.0
 10
11.5811371108
 20
4.9982011293
 30
0.0
 10
11.5432663413
 20
4.9884838398
 30
0.0
 10
11.5054399657
 20
4.9816153356
 30
0.0
 10
11.4677725798
 20
4.9775155071
 30
0.0
 10
11.4303569978
 20
4.9760088193
 30
0.0
 10
11.3932561612
 20
4.9768556669
 30
0.0
 10
11.3686917417
 20
4.9788150169
 30
0.0
 10
11.3564821004
 20
4.9800978495
 30
0.0
  0
SPLINE
  5
318
100
AcDbEntity
  8
0
100
AcDbSpline
 62
7
  6
CONTINUOUS
 70
0
 71
3
 72
13
 73
9
 74
0
 42
0.0000001
 43
0.0000001
 44
0.0000000001
 40
0.0
 40
0.0
 40
0.0
 40
0.0
 40
0.1204517424
 40
0.2422546145
 40
0.3654076306
 40
0.4898877249
 40
0.7426205741
 40
1.0
 40
1.0
 40
1.0
 40
1.0
 10
11.5288459347
 20
5.4478187513
 30
0.0
 10
11.5215226896
 20
5.4454244757
 30
0.0
 10
11.5068862265
 20
5.4403223365
 30
0.0
 10
11.4851108201
 20
5.4318155716
 30
0.0
 10
11.4634082367
 20
5.4224538633
 30
0.0
 10
11.4344444958
 20
5.4088234624
 30
0.0
 10
11.3985198156
 20
5.3898770394
 30
0.0
 10
11.3704573415
 20
5.3732037443
 30
0.0
 10
11.3564821004
 20
5.3645012908
 30
0.0
  0
SPLINE
  5
319
100
AcDbEntity
  8
0
100
AcDbSpline
 62
7
  6
CONTINUOUS
 70
0
 71
3
 72
15
 73
11
 74
0
 42
0.0000001
 43
0.0000001
 44
0.0000000001
 40
0.0
 40
0.0
 40
0.0
 40
0.0
 40
0.1109235476
 40
0.2233441211
 40
0.3386915917
 40
0.4582813637
 40
0.5832827948
 40
0.7147051219
 40
0.8533897636
 40
1.0
 40
1.0
 40
1.0
 40
1.0
 10
10.6628339268
 20
11.7524666885
 30
0.0
 10
10.6628339396
 20
11.7529641818
 30
0.0
 10
10.6628949659
 20
11.7539669136
 30
0.0
 10
10.6631686809
 20
11.755464481
 30
0.0
 10
10.6636238054
 20
11.7569578597
 30
0.0
 10
10.6642593187
 20
11.7584449739
 30
0.0
 10
10.6650739306
 20
11.759924487
 30
0.0
 10
10.666066394
 20
11.7613951922
 30
0.0
 10
10.6672353476
 20
11.7628557652
 30
0.0
 10
10.6681061637
 20
11.7637948812
 30
0.0
 10
10.6685682633
 20
11.764262678
 30
0.0
  0
SPLINE
  5
31A
100
AcDbEntity
  8
0
100
AcDbSpline
 62
7
  6
CONTINUOUS
 70
0
 71
3
 72
11
 73
7
 74
0
 42
0.0000001
 43
0.0000001
 44
0.0000000001
 40
0.0
 40
0.0
 40
0.0
 40
0.0
 40
0.2353556543
 40
0.4802220487
 40
0.7349933067
 40
1.0
 40
1.0
 40
1.0
 40
1.0
 10
10.2278066989
 20
10.1584220697
 30
0.0
 10
10.2288319911
 20
10.1572227865
 30
0.0
 10
10.2309885811
 20
10.154830355
 30
0.0
 10
10.2344592081
 20
10.1513303977
 30
0.0
 10
10.2382262018
 20
10.1478515335
 30
0.0
 10
10.2408807667
 20
10.1455926147
 30
0.0
 10
10.2422547471
 20
10.1444663507
 30
0.0
  0
SPLINE
  5
31B
100
AcDbEntity
  8
0
100
AcDbSpline
 62
7
  6
CONTINUOUS
 70
0
 71
3
 72
23
 73
19
 74
0
 42
0.0000001
 43
0.0000001
 44
0.0000000001
 40
0.0
 40
0.0
 40
0.0
 40
0.0
 40
0.0815300627
 40
0.1606857631
 40
0.237412442
 40
0.3116604454
 40
0.3833848714
 40
0.452546346
 40
0.5191117186
 40
0.5830541609
 40
0.6443549325
 40
0.7030029476
 40
0.7589975742
 40
0.812348118
 40
0.8630776495
 40
0.9112228933
 40
0.9568388755
 40
1.0
 40
1.0
 40
1.0
 40
1.0
 10
10.5348762256
 20
11.3054666722
 30
0.0
 10
10.531763971
 20
11.304637796
 30
0.0
 10
10.5256424798
 20
11.3029571845
 30
0.0
 10
10.5166400825
 20
11.3003257618
 30
0.0
 10
10.5079596298
 20
11.2976229641
 30
0.0
 10
10.4996095807
 20
11.2948514723
 30
0.0
 10
10.4915980345
 20
11.2920139834
 30
0.0
 10
10.4839327656
 20
11.2891132556
 30
0.0
 10
10.4766211866
 20
11.2861521517
 30
0.0
 10
10.4696703761
 20
11.2831334938
 30
0.0
 10
10.4630870121
 20
11.280060287
 30
0.0
 10
10.4568774514
 20
11.2769353988
 30
0.0
 10
10.4510476046
 20
11.2737619445
 30
0.0
 10
10.4456030779
 20
11.2705428094
 30
0.0
 10
10.4405490008
 20
11.2672811704
 30
0.0
 10
10.4358901556
 20
11.2639798509
 30
0.0
 10
10.4316310703
 20
11.2606421498
 30
0.0
 10
10.4289893554
 20
11.2583320486
 30
0.0
 10
10.4277411821
 20
11.25717051
 30
0.0
  0
SPLINE
  5
31C
100
AcDbEntity
  8
0
100
AcDbSpline
 62
7
  6
CONTINUOUS
 70
0
 71
3
 72
10
 73
6
 74
0
 42
0.0000001
 43
0.0000001
 44
0.0000000001
 40
0.0
 40
0.0
 40
0.0
 40
0.0
 40
0.253227337
 40
0.5043984572
 40
1.0
 40
1.0
 40
1.0
 40
1.0
 10
11.4514130832
 20
10.7493897134
 30
0.0
 10
11.4446299466
 20
10.7536136044
 30
0.0
 10
11.4310326787
 20
10.7618904628
 30
0.0
 10
11.4037171899
 20
10.7776924528
 30
0.0
 10
11.3828899345
 20
10.7887479456
 30
0.0
 10
11.3688688749
 20
10.79567538
 30
0.0
  0
SPLINE
  5
31D
100
AcDbEntity
  8
0
100
AcDbSpline
 62
7
  6
CONTINUOUS
 70
0
 71
3
 72
10
 73
6
 74
0
 42
0.0000001
 43
0.0000001
 44
0.0000000001
 40
0.0
 40
0.0
 40
0.0
 40
0.0
 40
0.253227337
 40
0.5043984572
 40
1.0
 40
1.0
 40
1.0
 40
1.0
 10
10.2422547471
 20
10.1444663507
 30
0.0
 10
10.2490378838
 20
10.1402424597
 30
0.0
 10
10.2626351517
 20
10.1319656013
 30
0.0
 10
10.2899506405
 20
10.1161636113
 30
0.0
 10
10.3107778959
 20
10.1051081185
 30
0.0
 10
10.3247989554
 20
10.0981806841
 30
0.0
  0
SPLINE
  5
31E
100
AcDbEntity
  8
0
100
AcDbSpline
 62
7
  6
CONTINUOUS
 70
0
 71
3
 72
9
 73
5
 74
0
 42
0.0000001
 43
0.0000001
 44
0.0000000001
 40
0.0
 40
0.0
 40
0.0
 40
0.0
 40
0.5233612787
 40
1.0
 40
1.0
 40
1.0
 40
1.0
 10
10.9434265035
 20
12.0046356517
 30
0.0
 10
10.9438641412
 20
12.0050583773
 30
0.0
 10
10.9446606475
 20
12.0059090148
 30
0.0
 10
10.945342967
 20
12.0068559403
 30
0.0
 10
10.9456298321
 20
12.00733005
 30
0.0
  0
SPLINE
  5
31F
100
AcDbEntity
  8
0
100
AcDbSpline
 62
7
  6
CONTINUOUS
 70
0
 71
3
 72
15
 73
11
 74
0
 42
0.0000001
 43
0.0000001
 44
0.0000000001
 40
0.0
 40
0.0
 40
0.0
 40
0.0
 40
0.1466002009
 40
0.2852608607
 40
0.4166729574
 40
0.5416769455
 40
0.661273845
 40
0.7766310629
 40
0.8890625705
 40
1.0
 40
1.0
 40
1.0
 40
1.0
 10
11.0251060095
 20
11.764256145
 30
0.0
 10
11.0255676627
 20
11.7637885379
 30
0.0
 10
11.0264375999
 20
11.7628498852
 30
0.0
 10
11.0276052293
 20
11.7613899762
 30
0.0
 10
11.0285965853
 20
11.7599200135
 30
0.0
 10
11.029410333
 20
11.7584412095
 30
0.0
 10
11.0300450994
 20
11.7569547648
 30
0.0
 10
11.0304997416
 20
11.7554621119
 30
0.0
 10
11.0307730164
 20
11.7539652567
 30
0.0
 10
11.0308339165
 20
11.752963029
 30
0.0
 10
11.0308339036
 20
11.7524657789
 30
0.0
  0
SPLINE
  5
320
100
AcDbEntity
  8
0
100
AcDbSpline
 62
7
  6
CONTINUOUS
 70
0
 71
3
 72
60
 73
56
 74
0
 42
0.0000001
 43
0.0000001
 44
0.0000000001
 40
0.0
 40
0.0
 40
0.0
 40
0.0
 40
0.0081222414
 40
0.0169168816
 40
0.0264087866
 40
0.0366143821
 40
0.0475415905
 40
0.0591912493
 40
0.0715586647
 40
0.0846348479
 40
0.098406648
 40
0.1128577747
 40
0.127968871
 40
0.1437180406
 40
0.160081135
 40
0.1770317977
 40
0.1945419791
 40
0.2125817114
 40
0.250121824
 40
0.2893859917
 40
0.3300881417
 40
0.3719273433
 40
0.4145911502
 40
0.4577590001
 40
0.5011053144
 40
0.5443028585
 40
0.5870257719
 40
0.6289529119
 40
0.6697709467
 40
0.7091777726
 40
0.7468857915
 40
0.7650183901
 40
0.7826270107
 40
0.7996814573
 40
0.8161532565
 40
0.8320158302
 40
0.8472444911
 40
0.8618170191
 40
0.8757135005
 40
0.8889170941
 40
0.9014140802
 40
0.9131945391
 40
0.9242530793
 40
0.934589459
 40
0.9442101269
 40
0.9531292893
 40
0.9613714202
 40
0.9689735769
 40
0.9759888588
 40
0.9824901798
 40
0.9885734679
 40
0.9914974722
 40
0.9943641549
 40
0.9971919122
 40
1.0
 40
1.0
 40
1.0
 40
1.0
 10
11.0245642778
 20
11.7768457748
 30
0.0
 10
11.0238206328
 20
11.7761274688
 30
0.0
 10
11.0222016225
 20
11.7747031109
 30
0.0
 10
11.0195142241
 20
11.7726793352
 30
0.0
 10
11.0164792735
 20
11.7706894361
 30
0.0
 10
11.013102963
 20
11.7687372248
 30
0.0
 10
11.009391617
 20
11.7668262213
 30
0.0
 10
11.0053524328
 20
11.7649602238
 30
0.0
 10
11.0009933684
 20
11.7631428639
 30
0.0
 10
10.9963230364
 20
11.7613778592
 30
0.0
 10
10.9913507465
 20
11.7596686977
 30
0.0
 10
10.9860864317
 20
11.7580189035
 30
0.0
 10
10.9805406576
 20
11.7564318007
 30
0.0
 10
10.9747245744
 20
11.7549106172
 30
0.0
 10
10.9686498903
 20
11.7534584807
 30
0.0
 10
10.9623288574
 20
11.7520783041
 30
0.0
 10
10.9557742177
 20
11.7507729342
 30
0.0
 10
10.9466190694
 20
11.7491136995
 30
0.0
 10
10.9346877606
 20
11.7472550715
 30
0.0
 10
10.9198449092
 20
11.7453886433
 30
0.0
 10
10.9044122489
 20
11.7438731354
 30
0.0
 10
10.8885144661
 20
11.7427209941
 30
0.0
 10
10.8722798961
 20
11.7419417278
 30
0.0
 10
10.8558397086
 20
11.7415417495
 30
0.0
 10
10.8393267413
 20
11.7415243526
 30
0.0
 10
10.8228744437
 20
11.7418896771
 30
0.0
 10
10.8066157519
 20
11.7426347157
 30
0.0
 10
10.7906820336
 20
11.7437533383
 30
0.0
 10
10.7752019215
 20
11.7452363157
 30
0.0
 10
10.7603004945
 20
11.7470714694
 30
0.0
 10
10.7483133175
 20
11.7489045965
 30
0.0
 10
10.7391081685
 20
11.7505440752
 30
0.0
 10
10.732512508
 20
11.7518355786
 30
0.0
 10
10.7261480847
 20
11.7532023584
 30
0.0
 10
10.7200277312
 20
11.7546416569
 30
0.0
 10
10.7141637894
 20
11.7561505072
 30
0.0
 10
10.7085680751
 20
11.7577258904
 30
0.0
 10
10.7032518361
 20
11.759364532
 30
0.0
 10
10.6982257495
 20
11.7610631681
 30
0.0
 10
10.6934998635
 20
11.7628182994
 30
0.0
 10
10.6890835996
 20
11.764626405
 30
0.0
 10
10.6849857144
 20
11.7664838614
 30
0.0
 10
10.6812142509
 20
11.7683869352
 30
0.0
 10
10.6777765765
 20
11.7703319879
 30
0.0
 10
10.6746792548
 20
11.7723152432
 30
0.0
 10
10.6719281982
 20
11.7743332052
 30
0.0
 10
10.6695285441
 20
11.7763824433
 30
0.0
 10
10.6674849199
 20
11.7784598907
 30
0.0
 10
10.6658016486
 20
11.7805630605
 30
0.0
 10
10.6644832182
 20
11.782689029
 30
0.0
 10
10.663682444
 20
11.7845022916
 30
0.0
 10
10.6632400117
 20
11.7859490763
 30
0.0
 10
10.663005777
 20
11.7870222084
 30
0.0
 10
10.6628651978
 20
11.7880966237
 30
0.0
 10
10.6628339175
 20
11.78881442
 30
0.0
 10
10.6628339268
 20
11.7891718721
 30
0.0
  0
SPLINE
  5
321
100
AcDbEntity
  8
0
100
AcDbSpline
 62
7
  6
CONTINUOUS
 70
0
 71
3
 72
21
 73
17
 74
0
 42
0.0000001
 43
0.0000001
 44
0.0000000001
 40
0.0
 40
0.0
 40
0.0
 40
0.0
 40
0.0606728572
 40
0.1214156053
 40
0.182295152
 40
0.2433734573
 40
0.3047047452
 40
0.3663333579
 40
0.4282928725
 40
0.49060457
 40
0.5532767125
 40
0.6163048771
 40
0.6796721391
 40
0.7433509157
 40
0.8713385219
 40
1.0
 40
1.0
 40
1.0
 40
1.0
 10
10.6765478198
 20
11.7496173718
 30
0.0
 10
10.6768946504
 20
11.7492323078
 30
0.0
 10
10.6776279393
 20
11.7484960538
 30
0.0
 10
10.6788337127
 20
11.7475069667
 30
0.0
 10
10.6801351833
 20
11.7466411716
 30
0.0
 10
10.6815205479
 20
11.7459065094
 30
0.0
 10
10.6829774852
 20
11.7453095665
 30
0.0
 10
10.6844929173
 20
11.7448555907
 30
0.0
 10
10.6860533038
 20
11.744548556
 30
0.0
 10
10.6876447257
 20
11.7443912532
 30
0.0
 10
10.6892529803
 20
11.7443849721
 30
0.0
 10
10.6908637109
 20
11.7445296798
 30
0.0
 10
10.6924626961
 20
11.7448241991
 30
0.0
 10
10.694562494
 20
11.7454135802
 30
0.0
 10
10.6970862621
 20
11.7465097071
 30
0.0
 10
10.6989204327
 20
11.7477345093
 30
0.0
 10
10.6997768129
 20
11.7484232128
 30
0.0
  0
SPLINE
  5
322
100
AcDbEntity
  8
0
100
AcDbSpline
 62
7
  6
CONTINUOUS
 70
0
 71
3
 72
22
 73
18
 74
0
 42
0.0000001
 43
0.0000001
 44
0.0000000001
 40
0.0
 40
0.0
 40
0.0
 40
0.0
 40
0.1559281194
 40
0.2315366213
 40
0.3053894509
 40
0.3773385562
 40
0.4472261964
 40
0.5148887545
 40
0.5801606
 40
0.6428764659
 40
0.7028787796
 40
0.7600235424
 40
0.8141895539
 40
0.8652883424
 40
0.9132734774
 40
0.9581531097
 40
1.0
 40
1.0
 40
1.0
 40
1.0
 10
11.1602487089
 20
11.3632242008
 30
0.0
 10
11.1586182397
 20
11.3678416048
 30
0.0
 10
11.1561356733
 20
11.3746766639
 30
0.0
 10
11.1527066344
 20
11.3836334539
 30
0.0
 10
11.1501375491
 20
11.3900949207
 30
0.0
 10
11.1475445452
 20
11.396352826
 30
0.0
 10
11.1449275022
 20
11.4023894733
 30
0.0
 10
11.1422866652
 20
11.4081861632
 30
0.0
 10
11.1396225876
 20
11.4137234013
 30
0.0
 10
11.1369361783
 20
11.4189812055
 30
0.0
 10
11.134228827
 20
11.4239395033
 30
0.0
 10
11.1315022501
 20
11.4285785705
 30
0.0
 10
11.128758655
 20
11.4328797025
 30
0.0
 10
11.1260006865
 20
11.4368257792
 30
0.0
 10
11.1232310765
 20
11.4404019371
 30
0.0
 10
11.1204531705
 20
11.4435958554
 30
0.0
 10
11.1185322678
 20
11.4455305894
 30
0.0
 10
11.1175701961
 20
11.4464258389
 30
0.0
  0
SPLINE
  5
323
100
AcDbEntity
  8
0
100
AcDbSpline
 62
7
  6
CONTINUOUS
 70
0
 71
3
 72
29
 73
25
 74
0
 42
0.0000001
 43
0.0000001
 44
0.0000000001
 40
0.0
 40
0.0
 40
0.0
 40
0.0
 40
0.0768347859
 40
0.1505299545
 40
0.2209986678
 40
0.2883662671
 40
0.3528119079
 40
0.4145759384
 40
0.4445696751
 40
0.4740438304
 40
0.5030640679
 40
0.5317082554
 40
0.5600629115
 40
0.5882190181
 40
0.6443085567
 40
0.6724695805
 40
0.7008232559
 40
0.7294660135
 40
0.7584443496
 40
0.8174967584
 40
0.8778940014
 40
0.9084473259
 40
0.9390730249
 40
1.0
 40
1.0
 40
1.0
 40
1.0
 10
10.969374063
 20
11.7253790005
 30
0.0
 10
10.9714426345
 20
11.7259506821
 30
0.0
 10
10.9754805176
 20
11.7271250962
 30
0.0
 10
10.98135411
 20
11.7290270014
 30
0.0
 10
10.9869116884
 20
11.7310363107
 30
0.0
 10
10.9921499917
 20
11.7331578334
 30
0.0
 10
10.9970707128
 20
11.735402998
 30
0.0
 10
11.0009478862
 20
11.7374089228
 30
0.0
 10
11.0038846947
 20
11.739095512
 30
0.0
 10
11.0059891079
 20
11.7403926047
 30
0.0
 10
11.0080174139
 20
11.7417388533
 30
0.0
 10
11.0099692902
 20
11.7431408606
 30
0.0
 10
11.0118448605
 20
11.7446048111
 30
0.0
 10
11.0142392066
 20
11.7466451083
 30
0.0
 10
11.0164825588
 20
11.7488511996
 30
0.0
 10
11.0185348903
 20
11.7512365253
 30
0.0
 10
11.0199746046
 20
11.7531319153
 30
0.0
 10
11.0213001991
 20
11.7551366325
 30
0.0
 10
11.0229032986
 20
11.7579765531
 30
0.0
 10
11.0245255856
 20
11.7618117596
 30
0.0
 10
11.025496042
 20
11.7659111481
 30
0.0
 10
11.0258310612
 20
11.7692946488
 30
0.0
 10
11.0258614063
 20
11.7727085334
 30
0.0
 10
11.0255343735
 20
11.7752628737
 30
0.0
 10
11.0251705606
 20
11.7769253152
 30
0.0
  0
LINE
  5
324
100
AcDbEntity
  8
0
100
AcDbLine
 62
7
  6
CONTINUOUS
 10
11.0251705606
 20
11.7769253152
 11
11.0251479209
 21
11.7770278723
  0
SPLINE
  5
325
100
AcDbEntity
  8
0
100
AcDbSpline
 62
7
  6
CONTINUOUS
 70
0
 71
3
 72
23
 73
19
 74
0
 42
0.0000001
 43
0.0000001
 44
0.0000000001
 40
0.0
 40
0.0
 40
0.0
 40
0.0
 40
0.0814582479
 40
0.1609450245
 40
0.238299589
 40
0.3133607229
 40
0.3859682611
 40
0.45596991
 40
0.5232282153
 40
0.5876284739
 40
0.6490874229
 40
0.7075622014
 40
0.7630587504
 40
0.8156378559
 40
0.8654184908
 40
0.9125776431
 40
0.9573461344
 40
1.0
 40
1.0
 40
1.0
 40
1.0
 10
10.5334191215
 20
11.3085011396
 30
0.0
 10
10.5345869736
 20
11.3061148981
 30
0.0
 10
10.5369250846
 20
11.3014150806
 30
0.0
 10
10.5404900122
 20
11.2945086114
 30
0.0
 10
10.5440720246
 20
11.2878468525
 30
0.0
 10
10.5476708786
 20
11.2814502999
 30
0.0
 10
10.5512860829
 20
11.2753398874
 30
0.0
 10
10.5549168012
 20
11.2695366006
 30
0.0
 10
10.5585618467
 20
11.264060886
 30
0.0
 10
10.5622196821
 20
11.2589320179
 30
0.0
 10
10.5658884418
 20
11.2541674052
 30
0.0
 10
10.5695659693
 20
11.2497818709
 30
0.0
 10
10.5732498376
 20
11.245786968
 30
0.0
 10
10.5769374635
 20
11.242190477
 30
0.0
 10
10.5806261176
 20
11.2389961022
 30
0.0
 10
10.5843131493
 20
11.2362032685
 30
0.0
 10
10.5879954109
 20
11.233807448
 30
0.0
 10
10.5905007279
 20
11.232438887
 30
0.0
 10
10.591748153
 20
11.2318231361
 30
0.0
  0
SPLINE
  5
326
100
AcDbEntity
  8
0
100
AcDbSpline
 62
7
  6
CONTINUOUS
 70
0
 71
3
 72
16
 73
12
 74
0
 42
0.0000001
 43
0.0000001
 44
0.0000000001
 40
0.0
 40
0.0
 40
0.0
 40
0.0
 40
0.1480511837
 40
0.2876965988
 40
0.4196100259
 40
0.4829485653
 40
0.5446959392
 40
0.6639365434
 40
0.7786069088
 40
0.8901135234
 40
1.0
 40
1.0
 40
1.0
 40
1.0
 10
11.1085998296
 20
11.4445349408
 30
0.0
 10
11.109342611
 20
11.4452524126
 30
0.0
 10
11.1107424567
 20
11.4466929777
 30
0.0
 10
11.1126246476
 20
11.4489380243
 30
0.0
 10
11.1139747089
 20
11.450848495
 30
0.0
 10
11.1149044593
 20
11.4523819527
 30
0.0
 10
11.1157164447
 20
11.4538809743
 30
0.0
 10
11.1165602479
 20
11.455767366
 30
0.0
 10
11.1172941058
 20
11.4580679715
 30
0.0
 10
11.11773548
 20
11.4603759445
 30
0.0
 10
11.1178338973
 20
11.4619219711
 30
0.0
 10
11.117833903
 20
11.4626884686
 30
0.0
  0
SPLINE
  5
327
100
AcDbEntity
  8
0
100
AcDbSpline
 62
7
  6
CONTINUOUS
 70
0
 71
3
 72
17
 73
13
 74
0
 42
0.0000001
 43
0.0000001
 44
0.0000000001
 40
0.0
 40
0.0
 40
0.0
 40
0.0
 40
0.0593778518
 40
0.1192871061
 40
0.1798210698
 40
0.2409192693
 40
0.3645232248
 40
0.489766381
 40
0.6162727947
 40
0.7436913884
 40
0.871704303
 40
1.0
 40
1.0
 40
1.0
 40
1.0
 10
10.6061230243
 20
11.543442629
 30
0.0
 10
10.6050042614
 20
11.5422456744
 30
0.0
 10
10.6028047861
 20
11.5397955631
 30
0.0
 10
10.5996453696
 20
11.5359679508
 30
0.0
 10
10.5966229408
 20
11.5319712432
 30
0.0
 10
10.592779673
 20
11.5263997369
 30
0.0
 10
10.5884028533
 20
11.5190373142
 30
0.0
 10
10.5839538047
 20
11.5096678298
 30
0.0
 10
10.5803853399
 20
11.4998154529
 30
0.0
 10
10.5777776133
 20
11.4895866111
 30
0.0
 10
10.5761894236
 20
11.4791014057
 30
0.0
 10
10.5758339152
 20
11.4720240433
 30
0.0
 10
10.5758339152
 20
11.4684840239
 30
0.0
  0
SPLINE
  5
328
100
AcDbEntity
  8
0
100
AcDbSpline
 62
7
  6
CONTINUOUS
 70
0
 71
3
 72
22
 73
18
 74
0
 42
0.0000001
 43
0.0000001
 44
0.0000000001
 40
0.0
 40
0.0
 40
0.0
 40
0.0
 40
0.0426104053
 40
0.0876595874
 40
0.1352518113
 40
0.1854671361
 40
0.2383633486
 40
0.2939817003
 40
0.3523466702
 40
0.4134705482
 40
0.4773538198
 40
0.543986699
 40
0.6133515537
 40
0.6854215615
 40
0.7601643885
 40
0.8375402065
 40
1.0
 40
1.0
 40
1.0
 40
1.0
 10
11.0875448005
 20
11.5434426287
 30
0.0
 10
11.086927052
 20
11.5441035611
 30
0.0
 10
11.085608785
 20
11.5454194862
 30
0.0
 10
11.0834568727
 20
11.5473230513
 30
0.0
 10
11.0810790277
 20
11.549208105
 30
0.0
 10
11.0784775503
 20
11.5510728335
 30
0.0
 10
11.0756548592
 20
11.5529157116
 30
0.0
 10
11.0726135363
 20
11.5547349635
 30
0.0
 10
11.0693564525
 20
11.5565289976
 30
0.0
 10
11.0658866358
 20
11.5582960897
 30
0.0
 10
11.0622073541
 20
11.5600345863
 30
0.0
 10
11.0583220849
 20
11.5617428716
 30
0.0
 10
11.0542344874
 20
11.5634192601
 30
0.0
 10
11.0499484623
 20
11.5650622228
 30
0.0
 10
11.0454680456
 20
11.5666701383
 30
0.0
 10
11.0391374415
 20
11.5687999508
 30
0.0
 10
11.0342656019
 20
11.5702860676
 30
0.0
 10
11.0309508135
 20
11.5712397553
 30
0.0
  0
SPLINE
  5
329
100
AcDbEntity
  8
0
100
AcDbSpline
 62
7
  6
CONTINUOUS
 70
0
 71
3
 72
21
 73
17
 74
0
 42
0.0000001
 43
0.0000001
 44
0.0000000001
 40
0.0
 40
0.0
 40
0.0
 40
0.0
 40
0.1600337168
 40
0.3104090263
 40
0.3818798878
 40
0.4508284956
 40
0.5172291954
 40
0.5810642218
 40
0.6423218963
 40
0.7009985755
 40
0.7570999505
 40
0.8106411719
 40
0.8616522698
 40
0.9101762643
 40
0.9562686826
 40
1.0
 40
1.0
 40
1.0
 40
1.0
 10
10.6627127036
 20
11.5712385139
 30
0.0
 10
10.6595569103
 20
11.5703305274
 30
0.0
 10
10.653462035
 20
11.5684761093
 30
0.0
 10
10.6460483203
 20
11.5659322208
 30
0.0
 10
10.6404659669
 20
11.563823461
 30
0.0
 10
10.6365289257
 20
11.5622381871
 30
0.0
 10
10.6327737234
 20
11.5606236703
 30
0.0
 10
10.6292035548
 20
11.5589813362
 30
0.0
 10
10.6258214792
 20
11.5573125656
 30
0.0
 10
10.6226303942
 20
11.5556187761
 30
0.0
 10
10.6196329957
 20
11.553901477
 30
0.0
 10
10.6168318376
 20
11.5521620256
 30
0.0
 10
10.6142292171
 20
11.5504018982
 30
0.0
 10
10.6118273138
 20
11.5486224384
 30
0.0
 10
10.6096283506
 20
11.5468252795
 30
0.0
 10
10.6082638433
 20
11.5455845082
 30
0.0
 10
10.6076184225
 20
11.5449610795
 30
0.0
  0
SPLINE
  5
32A
100
AcDbEntity
  8
0
100
AcDbSpline
 62
7
  6
CONTINUOUS
 70
0
 71
3
 72
15
 73
11
 74
0
 42
0.0000001
 43
0.0000001
 44
0.0000000001
 40
0.0
 40
0.0
 40
0.0
 40
0.0
 40
0.1433016651
 40
0.2811350333
 40
0.4131260366
 40
0.5392927747
 40
0.6600319769
 40
0.7761777915
 40
0.8889738898
 40
1.0
 40
1.0
 40
1.0
 40
1.0
 10
10.9570484889
 20
11.7305813615
 30
0.0
 10
10.9574737706
 20
11.7300561748
 30
0.0
 10
10.9583615448
 20
11.7290674838
 30
0.0
 10
10.9598196087
 20
11.7277689961
 30
0.0
 10
10.9613583022
 20
11.7267019774
 30
0.0
 10
10.9629534756
 20
11.7258842658
 30
0.0
 10
10.9645803304
 20
11.7253301019
 30
0.0
 10
10.9662130784
 20
11.725050085
 30
0.0
 10
10.9678240871
 20
11.7250504846
 30
0.0
 10
10.9688694045
 20
11.7252395188
 30
0.0
 10
10.9693740621
 20
11.7253790037
 30
0.0
  0
SPLINE
  5
32B
100
AcDbEntity
  8
0
100
AcDbSpline
 62
7
  6
CONTINUOUS
 70
0
 71
3
 72
17
 73
13
 74
0
 42
0.0000001
 43
0.0000001
 44
0.0000000001
 40
0.0
 40
0.0
 40
0.0
 40
0.0
 40
0.1282950638
 40
0.2563077561
 40
0.3837262658
 40
0.5102327789
 40
0.6354761114
 40
0.7590804589
 40
0.8201785718
 40
0.8807125832
 40
0.9406229484
 40
1.0
 40
1.0
 40
1.0
 40
1.0
 10
11.1178339152
 20
11.4684840239
 30
0.0
 10
11.1178339152
 20
11.4720240258
 30
0.0
 10
11.1174784075
 20
11.4791013644
 30
0.0
 10
11.1158902292
 20
11.4895865451
 30
0.0
 10
11.1132825121
 20
11.4998153835
 30
0.0
 10
11.1097140522
 20
11.5096677677
 30
0.0
 10
11.1052650037
 20
11.5190372727
 30
0.0
 10
11.1008881755
 20
11.5263997061
 30
0.0
 10
11.0970449044
 20
11.5319712217
 30
0.0
 10
11.094022462
 20
11.5359679564
 30
0.0
 10
11.0908630308
 20
11.5397955694
 30
0.0
 10
11.0886635539
 20
11.5422456905
 30
0.0
 10
11.0875448061
 20
11.543442629
 30
0.0
  0
SPLINE
  5
32C
100
AcDbEntity
  8
0
100
AcDbSpline
 62
7
  6
CONTINUOUS
 70
0
 71
3
 72
53
 73
49
 74
0
 42
0.0000001
 43
0.0000001
 44
0.0000000001
 40
0.0
 40
0.0
 40
0.0
 40
0.0
 40
0.0077403758
 40
0.01605376
 40
0.0249599533
 40
0.0344712958
 40
0.0445945107
 40
0.0553312676
 40
0.066679439
 40
0.0786333479
 40
0.0911845515
 40
0.1043219961
 40
0.1180324734
 40
0.1323008171
 40
0.147110054
 40
0.1624416954
 40
0.1945897315
 40
0.2285712957
 40
0.2641935835
 40
0.3012488277
 40
0.3395167901
 40
0.3787669889
 40
0.4187608922
 40
0.4592539134
 40
0.4999975196
 40
0.5407411353
 40
0.5812342388
 40
0.6212282437
 40
0.6604786094
 40
0.6987467608
 40
0.7358022486
 40
0.771424806
 40
0.8054066818
 40
0.8375550582
 40
0.8528868997
 40
0.8676963069
 40
0.8819648661
 40
0.8956755248
 40
0.9088132083
 40
0.921364592
 40
0.9333187412
 40
0.9446670953
 40
0.9554041303
 40
0.9655275514
 40
0.9750390162
 40
0.9839453768
 40
0.9922594995
 40
1.0
 40
1.0
 40
1.0
 40
1.0
 10
10.6541474103
 20
11.5145012731
 30
0.0
 10
10.6548996627
 20
11.5138012254
 30
0.0
 10
10.6565190534
 20
11.5124121507
 30
0.0
 10
10.6591755906
 20
11.5104281698
 30
0.0
 10
10.6621400862
 20
11.508474142
 30
0.0
 10
10.6654076412
 20
11.5065530638
 30
0.0
 10
10.6689732199
 20
11.5046679494
 30
0.0
 10
10.6728310986
 20
11.5028217201
 30
0.0
 10
10.6769751181
 20
11.5010174232
 30
0.0
 10
10.68139857
 20
11.499257945
 30
0.0
 10
10.6860942841
 20
11.4975462122
 30
0.0
 10
10.6910546044
 20
11.495885024
 30
0.0
 10
10.6962714284
 20
11.49427713
 30
0.0
 10
10.7017362138
 20
11.4927252064
 30
0.0
 10
10.7074400052
 20
11.4912317738
 30
0.0
 10
10.7154788498
 20
11.489291194
 30
0.0
 10
10.7260590429
 20
11.4870406455
 30
0.0
 10
10.7393561561
 20
11.4846501114
 30
0.0
 10
10.7533604249
 20
11.4825449242
 30
0.0
 10
10.7679797623
 20
11.4807391633
 30
0.0
 10
10.7831181369
 20
11.4792449488
 30
0.0
 10
10.7986759662
 20
11.4780722808
 30
0.0
 10
10.8145508688
 20
11.4772290074
 30
0.0
 10
10.8306383425
 20
11.4767207654
 30
0.0
 10
10.8468324604
 20
11.4765509527
 30
0.0
 10
10.8630265899
 20
11.4767207035
 30
0.0
 10
10.8791140912
 20
11.4772288839
 30
0.0
 10
10.8949890436
 20
11.4780720977
 30
0.0
 10
10.9105469383
 20
11.4792447068
 30
0.0
 10
10.9256853984
 20
11.4807388653
 30
0.0
 10
10.9403048365
 20
11.482544571
 30
0.0
 10
10.9543092236
 20
11.4846497074
 30
0.0
 10
10.9676064704
 20
11.48704019
 30
0.0
 10
10.9781867861
 20
11.4892907042
 30
0.0
 10
10.9862257375
 20
11.4912312443
 30
0.0
 10
10.9919296121
 20
11.4927246655
 30
0.0
 10
10.9973944856
 20
11.494276555
 30
0.0
 10
11.0026113988
 20
11.4958844459
 30
0.0
 10
11.0075718158
 20
11.4975455967
 30
0.0
 10
11.0122676214
 20
11.4992573335
 30
0.0
 10
11.0166911756
 20
11.5010167712
 30
0.0
 10
11.0208352935
 20
11.5028210748
 30
0.0
 10
11.024693286
 20
11.504667272
 30
0.0
 10
11.0282589499
 20
11.5065523966
 30
0.0
 10
11.0315266145
 20
11.5084734178
 30
0.0
 10
11.034491256
 20
11.5104274732
 30
0.0
 10
11.0371479357
 20
11.5124114927
 30
0.0
 10
11.0387674396
 20
11.5138006095
 30
0.0
 10
11.0395197318
 20
11.5145006388
 30
0.0
  0
SPLINE
  5
32D
100
AcDbEntity
  8
0
100
AcDbSpline
 62
7
  6
CONTINUOUS
 70
0
 71
3
 72
11
 73
7
 74
0
 42
0.0000001
 43
0.0000001
 44
0.0000000001
 40
0.0
 40
0.0
 40
0.0
 40
0.0
 40
0.245852917
 40
0.4946127303
 40
0.7460700602
 40
1.0
 40
1.0
 40
1.0
 40
1.0
 10
11.1076078759
 20
11.2346329788
 30
0.0
 10
11.1120766665
 20
11.2368405808
 30
0.0
 10
11.1209851554
 20
11.2414494031
 30
0.0
 10
11.1341826404
 20
11.2488439855
 30
0.0
 10
11.147294411
 20
11.2567119617
 30
0.0
 10
11.1559385568
 20
11.2622151557
 30
0.0
 10
11.1602487089
 20
11.26503036
 30
0.0
  0
SPLINE
  5
32E
100
AcDbEntity
  8
0
100
AcDbSpline
 62
7
  6
CONTINUOUS
 70
0
 71
3
 72
11
 73
7
 74
0
 42
0.0000001
 43
0.0000001
 44
0.0000000001
 40
0.0
 40
0.0
 40
0.0
 40
0.0
 40
0.2650066933
 40
0.5197779513
 40
0.7646443457
 40
1.0
 40
1.0
 40
1.0
 40
1.0
 10
11.4514130832
 20
10.7493897134
 30
0.0
 10
11.4527870636
 20
10.7482634494
 30
0.0
 10
11.4554416286
 20
10.7460045306
 30
0.0
 10
11.4592086222
 20
10.7425256664
 30
0.0
 10
11.4626792493
 20
10.7390257091
 30
0.0
 10
11.4648358392
 20
10.7366332776
 30
0.0
 10
11.4658611314
 20
10.7354339944
 30
0.0
  0
SPLINE
  5
32F
100
AcDbEntity
  8
0
100
AcDbSpline
 62
7
  6
CONTINUOUS
 70
0
 71
3
 72
16
 73
12
 74
0
 42
0.0000001
 43
0.0000001
 44
0.0000000001
 40
0.0
 40
0.0
 40
0.0
 40
0.0
 40
0.1090280875
 40
0.2197801533
 40
0.3338936721
 40
0.4528540158
 40
0.5145828286
 40
0.5779899551
 40
0.7103120523
 40
0.8507449858
 40
1.0
 40
1.0
 40
1.0
 40
1.0
 10
10.5758339274
 20
11.4626884686
 30
0.0
 10
10.5758339214
 20
11.4618941561
 30
0.0
 10
10.5759397321
 20
11.4602910476
 30
0.0
 10
10.576414048
 20
11.457898823
 30
0.0
 10
10.5772024011
 20
11.4555149251
 30
0.0
 10
10.5781080802
 20
11.453562422
 30
0.0
 10
10.5789791043
 20
11.452011326
 30
0.0
 10
10.5799777561
 20
11.4504227749
 30
0.0
 10
10.5814277501
 20
11.448444643
 30
0.0
 10
10.5834473731
 20
11.4461226609
 30
0.0
 10
10.5849475406
 20
11.4446353341
 30
0.0
 10
10.5857435599
 20
11.4438945561
 30
0.0
  0
SPLINE
  5
330
100
AcDbEntity
  8
0
100
AcDbSpline
 62
7
  6
CONTINUOUS
 70
0
 71
3
 72
51
 73
47
 74
0
 42
0.0000001
 43
0.0000001
 44
0.0000000001
 40
0.0
 40
0.0
 40
0.0
 40
0.0
 40
0.0064797863
 40
0.0134582786
 40
0.0209915109
 40
0.0291208266
 40
0.037874942
 40
0.0472730397
 40
0.0573262518
 40
0.0680394292
 40
0.0794122575
 40
0.0914399051
 40
0.1041141923
 40
0.117423441
 40
0.1313537012
 40
0.1458881256
 40
0.1766915434
 40
0.2096638845
 40
0.2446081519
 40
0.2813062057
 40
0.3195225147
 40
0.359007006
 40
0.3994978771
 40
0.4407243538
 40
0.4824090637
 40
0.5242706173
 40
0.5660261866
 40
0.607393692
 40
0.6480946128
 40
0.6878562346
 40
0.7264142253
 40
0.7635154146
 40
0.7989202544
 40
0.8324060136
 40
0.863770036
 40
0.8928336978
 40
0.9064560981
 40
0.9194501354
 40
0.9318030793
 40
0.9435049006
 40
0.9545489545
 40
0.9649325023
 40
0.9746576807
 40
0.9837330977
 40
0.9921732903
 40
1.0
 40
1.0
 40
1.0
 40
1.0
 10
10.7480378588
 20
12.0073303228
 30
0.0
 10
10.7482651773
 20
12.0069545991
 30
0.0
 10
10.7487873804
 20
12.0062038667
 30
0.0
 10
10.7497209091
 20
12.0051275937
 30
0.0
 10
10.7508292175
 20
12.0040637473
 30
0.0
 10
10.7521102362
 20
12.0030140514
 30
0.0
 10
10.75356175
 20
12.0019798339
 30
0.0
 10
10.7551813229
 20
12.0009627922
 30
0.0
 10
10.7569661667
 20
11.9999645606
 30
0.0
 10
10.7589131994
 20
11.9989868613
 30
0.0
 10
10.7610190154
 20
11.9980314249
 30
0.0
 10
10.7632798876
 20
11.9970999159
 30
0.0
 10
10.7656918097
 20
11.9961940659
 30
0.0
 10
10.7682504626
 20
11.9953154473
 30
0.0
 10
10.7709512762
 20
11.9944657096
 30
0.0
 10
10.7748106225
 20
11.9933515996
 30
0.0
 10
10.7799573815
 20
11.9920501577
 30
0.0
 10
10.7865018505
 20
11.9906546335
 30
0.0
 10
10.793482195
 20
11.9894069983
 30
0.0
 10
10.8008480664
 20
11.9883164302
 30
0.0
 10
10.8085463968
 20
11.9873910009
 30
0.0
 10
10.816521594
 20
11.9866375303
 30
0.0
 10
10.8247160316
 20
11.9860615718
 30
0.0
 10
10.8330704604
 20
11.9856673642
 30
0.0
 10
10.8415244564
 20
11.9854578064
 30
0.0
 10
10.8500168654
 20
11.9854344408
 30
0.0
 10
10.8584862462
 20
11.985597438
 30
0.0
 10
10.8668713331
 20
11.985945601
 30
0.0
 10
10.8751114727
 20
11.9864763691
 30
0.0
 10
10.8831470812
 20
11.9871858365
 30
0.0
 10
10.8909200817
 20
11.9880687769
 30
0.0
 10
10.8983743412
 20
11.9891186794
 30
0.0
 10
10.9054560823
 20
11.9903277937
 30
0.0
 10
10.9121143785
 20
11.9916871678
 30
0.0
 10
10.9183012888
 20
11.9931867816
 30
0.0
 10
10.9231266819
 20
11.9945723049
 30
0.0
 10
10.9267119757
 20
11.9957502734
 30
0.0
 10
10.9291979793
 20
11.9966427069
 30
0.0
 10
10.9315350648
 20
11.997561557
 30
0.0
 10
10.933719065
 20
11.9985052193
 30
0.0
 10
10.9357460962
 20
11.9994719872
 30
0.0
 10
10.9376126117
 20
12.0004601136
 30
0.0
 10
10.9393153618
 20
12.0014679484
 30
0.0
 10
10.9408515017
 20
12.0024938136
 30
0.0
 10
10.9422181423
 20
12.0035359433
 30
0.0
 10
10.943044997
 20
12.0042671447
 30
0.0
 10
10.9434265035
 20
12.0046356517
 30
0.0
  0
SPLINE
  5
331
100
AcDbEntity
  8
0
100
AcDbSpline
 62
7
  6
CONTINUOUS
 70
0
 71
3
 72
53
 73
49
 74
0
 42
0.0000001
 43
0.0000001
 44
0.0000000001
 40
0.0
 40
0.0
 40
0.0
 40
0.0
 40
0.0077404047
 40
0.0160546495
 40
0.0249611395
 40
0.034472532
 40
0.0445959649
 40
0.0553329834
 40
0.0666814297
 40
0.0786355487
 40
0.091187035
 40
0.1043246912
 40
0.1180354526
 40
0.1323039829
 40
0.1471135142
 40
0.162445351
 40
0.1945938535
 40
0.2285758467
 40
0.2641985688
 40
0.3012541856
 40
0.3395224867
 40
0.3787730096
 40
0.4187671349
 40
0.4592603661
 40
0.5000041165
 40
0.5407477925
 40
0.5812409159
 40
0.6212348742
 40
0.6604851008
 40
0.6987530878
 40
0.735808303
 40
0.7714305344
 40
0.8054120303
 40
0.8375599332
 40
0.8528915001
 40
0.867700657
 40
0.8819689344
 40
0.8956793007
 40
0.9088166679
 40
0.9213677155
 40
0.933321551
 40
0.9446695554
 40
0.9554062467
 40
0.9655292576
 40
0.9750405258
 40
0.9839465095
 40
0.9922598262
 40
1.0
 40
1.0
 40
1.0
 40
1.0
 10
10.6994291833
 20
12.0219454474
 30
0.0
 10
10.7000046803
 20
12.0224809653
 30
0.0
 10
10.7012436093
 20
12.0235436395
 30
0.0
 10
10.7032759705
 20
12.0250614495
 30
0.0
 10
10.7055439462
 20
12.0265563095
 30
0.0
 10
10.7080437117
 20
12.0280259152
 30
0.0
 10
10.7107714575
 20
12.0294680105
 30
0.0
 10
10.7137228222
 20
12.0308803893
 30
0.0
 10
10.716893096
 20
12.0322606606
 30
0.0
 10
10.7202771269
 20
12.0336066698
 30
0.0
 10
10.7238694436
 20
12.0349161197
 30
0.0
 10
10.7276641777
 20
12.0361869423
 30
0.0
 10
10.7316551415
 20
12.0374169486
 30
0.0
 10
10.7358357902
 20
12.0386041839
 30
0.0
 10
10.7401992827
 20
12.039746623
 30
0.0
 10
10.7463491124
 20
12.0412311754
 30
0.0
 10
10.754443103
 20
12.0429528054
 30
0.0
 10
10.7646155623
 20
12.0447815351
 30
0.0
 10
10.7753289878
 20
12.0463919637
 30
0.0
 10
10.7865129313
 20
12.0477733279
 30
0.0
 10
10.7980939268
 20
12.0489163548
 30
0.0
 10
10.8099957896
 20
12.0498133938
 30
0.0
 10
10.8221401998
 20
12.0504584429
 30
0.0
 10
10.8344472078
 20
12.0508471889
 30
0.0
 10
10.8468357811
 20
12.0509770338
 30
0.0
 10
10.8592243427
 20
12.0508471104
 30
0.0
 10
10.8715313128
 20
12.0504582861
 30
0.0
 10
10.8836756608
 20
12.0498131602
 30
0.0
 10
10.8955774388
 20
12.0489160457
 30
0.0
 10
10.9071583238
 20
12.0477729453
 30
0.0
 10
10.9183421352
 20
12.0463915111
 30
0.0
 10
10.9290554075
 20
12.0447810132
 30
0.0
 10
10.9392276929
 20
12.0429522246
 30
0.0
 10
10.9473215267
 20
12.041230527
 30
0.0
 10
10.953471224
 20
12.0397459634
 30
0.0
 10
10.9578346074
 20
12.0386034677
 30
0.0
 10
10.9620151498
 20
12.0374162373
 30
0.0
 10
10.9660059951
 20
12.0361861708
 30
0.0
 10
10.969800614
 20
12.0349153622
 30
0.0
 10
10.9733927989
 20
12.033605851
 30
0.0
 10
10.9767767101
 20
12.0322598599
 30
0.0
 10
10.9799468398
 20
12.0308795264
 30
0.0
 10
10.9828980871
 20
12.0294671814
 30
0.0
 10
10.9856256942
 20
12.0280250141
 30
0.0
 10
10.9881253434
 20
12.0265554197
 30
0.0
 10
10.9903931059
 20
12.0250605262
 30
0.0
 10
10.992425333
 20
12.0235428185
 30
0.0
 10
10.9936640977
 20
12.0224801309
 30
0.0
 10
10.9942395479
 20
12.0219445971
 30
0.0
  0
SPLINE
  5
332
100
AcDbEntity
  8
0
100
AcDbSpline
 62
7
  6
CONTINUOUS
 70
0
 71
3
 72
16
 73
12
 74
0
 42
0.0000001
 43
0.0000001
 44
0.0000000001
 40
0.0
 40
0.0
 40
0.0
 40
0.0
 40
0.1492551013
 40
0.2896895692
 40
0.4220106877
 40
0.4854181208
 40
0.5471473479
 40
0.6661067126
 40
0.7802202735
 40
0.8909718673
 40
1.0
 40
1.0
 40
1.0
 40
1.0
 10
11.0241054473
 20
11.9941512523
 30
0.0
 10
11.024645937
 20
11.9936482683
 30
0.0
 10
11.0256645315
 20
11.9926383689
 30
0.0
 10
11.0270358892
 20
11.9910617992
 30
0.0
 10
11.0280203845
 20
11.9897186287
 30
0.0
 10
11.0286984694
 20
11.9886400234
 30
0.0
 10
11.0292899103
 20
11.9875868546
 30
0.0
 10
11.0299047929
 20
11.986261093
 30
0.0
 10
11.0304400999
 20
11.9846424616
 30
0.0
 10
11.0307621039
 20
11.9830181484
 30
0.0
 10
11.0308339131
 20
11.9819296522
 30
0.0
 10
11.0308339037
 20
11.9813903202
 30
0.0
  0
SPLINE
  5
333
100
AcDbEntity
  8
0
100
AcDbSpline
 62
7
  6
CONTINUOUS
 70
0
 71
3
 72
15
 73
11
 74
0
 42
0.0000001
 43
0.0000001
 44
0.0000000001
 40
0.0
 40
0.0
 40
0.0
 40
0.0
 40
0.1098906517
 40
0.2214018182
 40
0.3360753656
 40
0.4553197315
 40
0.5803743582
 40
0.7122968171
 40
0.8519481781
 40
1.0
 40
1.0
 40
1.0
 40
1.0
 10
10.6628339266
 20
11.981391016
 30
0.0
 10
10.6628339357
 20
11.9819114301
 30
0.0
 10
10.6629007857
 20
11.9829611108
 30
0.0
 10
10.6632005215
 20
11.9845280775
 30
0.0
 10
10.6636987736
 20
11.9860901247
 30
0.0
 10
10.6643942867
 20
11.9876448864
 30
0.0
 10
10.6652854741
 20
11.9891909123
 30
0.0
 10
10.6663709006
 20
11.9907268123
 30
0.0
 10
10.6676488603
 20
11.9922511529
 30
0.0
 10
10.6685992576
 20
11.993229199
 30
0.0
 10
10.6691035526
 20
11.9937163106
 30
0.0
  0
SPLINE
  5
334
100
AcDbEntity
  8
0
100
AcDbSpline
 62
7
  6
CONTINUOUS
 70
0
 71
3
 72
15
 73
11
 74
0
 42
0.0000001
 43
0.0000001
 44
0.0000000001
 40
0.0
 40
0.0
 40
0.0
 40
0.0
 40
0.1098906142
 40
0.2214018168
 40
0.3360754298
 40
0.4553198489
 40
0.5803745049
 40
0.7122969731
 40
0.8519482966
 40
1.0
 40
1.0
 40
1.0
 40
1.0
 10
11.0308339036
 20
11.7891709625
 30
0.0
 10
11.0308338901
 20
11.7886505525
 30
0.0
 10
11.0307670322
 20
11.7876008803
 30
0.0
 10
11.0304672877
 20
11.7860339272
 30
0.0
 10
11.0299690306
 20
11.7844718939
 30
0.0
 10
11.0292735161
 20
11.7829171461
 30
0.0
 10
11.0283823307
 20
11.781371134
 30
0.0
 10
11.0272969095
 20
11.7798352477
 30
0.0
 10
11.0260189584
 20
11.7783109203
 30
0.0
 10
11.0250685686
 20
11.7773328823
 30
0.0
 10
11.0245642778
 20
11.7768457748
 30
0.0
  0
SPLINE
  5
335
100
AcDbEntity
  8
0
100
AcDbSpline
 62
7
  6
CONTINUOUS
 70
0
 71
3
 72
23
 73
19
 74
0
 42
0.0000001
 43
0.0000001
 44
0.0000000001
 40
0.0
 40
0.0
 40
0.0
 40
0.0
 40
0.0436196014
 40
0.0892263365
 40
0.1370667606
 40
0.1873519913
 40
0.2402504927
 40
0.2958839517
 40
0.3543261383
 40
0.4156045169
 40
0.4797040944
 40
0.5465728825
 40
0.616128309
 40
0.6882639801
 40
0.7628563633
 40
0.8397705479
 40
0.9188661515
 40
1.0
 40
1.0
 40
1.0
 40
1.0
 10
10.3362148328
 20
10.8013145936
 30
0.0
 10
10.333904912
 20
10.8001740982
 30
0.0
 10
10.3292677495
 20
10.7976591351
 30
0.0
 10
10.3224407474
 20
10.7932978691
 30
0.0
 10
10.3156041662
 20
10.7882559603
 30
0.0
 10
10.3087630504
 20
10.7825247893
 30
0.0
 10
10.3019217156
 20
10.7761015432
 30
0.0
 10
10.2950846443
 20
10.7689898083
 30
0.0
 10
10.288256136
 20
10.7611993685
 30
0.0
 10
10.2814402924
 20
10.7527458781
 30
0.0
 10
10.2746408944
 20
10.7436502377
 30
0.0
 10
10.2678613162
 20
10.733937782
 30
0.0
 10
10.2611044524
 20
10.7236373371
 30
0.0
 10
10.254372666
 20
10.7127802294
 30
0.0
 10
10.2476677947
 20
10.7013993243
 30
0.0
 10
10.240991135
 20
10.6895281124
 30
0.0
 10
10.2343435414
 20
10.677200063
 30
0.0
 10
10.2299843079
 20
10.6688004642
 30
0.0
 10
10.2278066989
 20
10.6645321723
 30
0.0
  0
SPLINE
  5
336
100
AcDbEntity
  8
0
100
AcDbSpline
 62
7
  6
CONTINUOUS
 70
0
 71
3
 72
18
 73
14
 74
0
 42
0.0000001
 43
0.0000001
 44
0.0000000001
 40
0.0
 40
0.0
 40
0.0
 40
0.0
 40
0.0544284586
 40
0.1090741131
 40
0.1641514082
 40
0.2198691273
 40
0.333969962
 40
0.4529167319
 40
0.5146386222
 40
0.5780388623
 40
0.7103454994
 40
0.8507628585
 40
1.0
 40
1.0
 40
1.0
 40
1.0
 10
11.3438338943
 20
11.1671152009
 30
0.0
 10
11.3438338956
 20
11.1678424947
 30
0.0
 10
11.3437860658
 20
11.1693004357
 30
0.0
 10
11.3435709645
 20
11.1714847822
 30
0.0
 10
11.3432125075
 20
11.1736678062
 30
0.0
 10
11.3425386853
 20
11.1765981805
 30
0.0
 10
11.3413241729
 20
11.1802711854
 30
0.0
 10
11.3396632953
 20
11.1838517004
 30
0.0
 10
11.3380659041
 20
11.1866963382
 30
0.0
 10
11.3362344263
 20
11.1896095939
 30
0.0
 10
11.3335753189
 20
11.1932374012
 30
0.0
 10
11.3298714467
 20
11.1974956939
 30
0.0
 10
11.3271203033
 20
11.2002233775
 30
0.0
 10
11.3256604861
 20
11.2015819143
 30
0.0
  0
SPLINE
  5
337
100
AcDbEntity
  8
0
100
AcDbSpline
 62
7
  6
CONTINUOUS
 70
0
 71
3
 72
23
 73
19
 74
0
 42
0.0000001
 43
0.0000001
 44
0.0000000001
 40
0.0
 40
0.0
 40
0.0
 40
0.0
 40
0.0436196014
 40
0.0892263365
 40
0.1370667606
 40
0.1873519913
 40
0.2402504927
 40
0.2958839517
 40
0.3543261383
 40
0.4156045169
 40
0.4797040944
 40
0.5465728825
 40
0.616128309
 40
0.6882639801
 40
0.7628563633
 40
0.8397705479
 40
0.9188661515
 40
1.0
 40
1.0
 40
1.0
 40
1.0
 10
11.3574529976
 20
10.0925414705
 30
0.0
 10
11.3597629183
 20
10.0936819659
 30
0.0
 10
11.3644000808
 20
10.0961969289
 30
0.0
 10
11.371227083
 20
10.100558195
 30
0.0
 10
11.3780636642
 20
10.1056001038
 30
0.0
 10
11.3849047799
 20
10.1113312747
 30
0.0
 10
11.3917461148
 20
10.1177545209
 30
0.0
 10
11.398583186
 20
10.1248662558
 30
0.0
 10
11.4054116944
 20
10.1326566956
 30
0.0
 10
11.412227538
 20
10.141110186
 30
0.0
 10
11.419026936
 20
10.1502058264
 30
0.0
 10
11.4258065142
 20
10.1599182821
 30
0.0
 10
11.432563378
 20
10.170218727
 30
0.0
 10
11.4392951644
 20
10.1810758347
 30
0.0
 10
11.4460000357
 20
10.1924567398
 30
0.0
 10
11.4526766953
 20
10.2043279517
 30
0.0
 10
11.459324289
 20
10.2166560011
 30
0.0
 10
11.4636835225
 20
10.2250555999
 30
0.0
 10
11.4658611314
 20
10.2293238917
 30
0.0
  0
SPLINE
  5
338
100
AcDbEntity
  8
0
100
AcDbSpline
 62
7
  6
CONTINUOUS
 70
0
 71
3
 72
23
 73
19
 74
0
 42
0.0000001
 43
0.0000001
 44
0.0000000001
 40
0.0
 40
0.0
 40
0.0
 40
0.0
 40
0.0432904074
 40
0.0890180142
 40
0.1372562642
 40
0.1880595957
 40
0.2414649184
 40
0.297495174
 40
0.3561606442
 40
0.4174608098
 40
0.4813860415
 40
0.5479179335
 40
0.6170314375
 40
0.6886940344
 40
0.7628682468
 40
0.839510122
 40
0.9185718088
 40
1.0
 40
1.0
 40
1.0
 40
1.0
 10
11.2659277924
 20
11.2571694421
 30
0.0
 10
11.2646926388
 20
11.2583188998
 30
0.0
 10
11.2620799912
 20
11.2606051599
 30
0.0
 10
11.2578703349
 20
11.2639096757
 30
0.0
 10
11.2532688603
 20
11.267178611
 30
0.0
 10
11.2482799579
 20
11.2704087819
 30
0.0
 10
11.2429082339
 20
11.273597393
 30
0.0
 10
11.2371586797
 20
11.2767414446
 30
0.0
 10
11.2310366761
 20
11.2798380298
 30
0.0
 10
11.2245479731
 20
11.282884247
 30
0.0
 10
11.2176986738
 20
11.285877177
 30
0.0
 10
11.2104952615
 20
11.2888140389
 30
0.0
 10
11.2029445392
 20
11.2916919542
 30
0.0
 10
11.1950536851
 20
11.2945082696
 30
0.0
 10
11.1868301811
 20
11.2972601884
 30
0.0
 10
11.1782818581
 20
11.2999451815
 30
0.0
 10
11.1694168714
 20
11.3025605713
 30
0.0
 10
11.1633888023
 20
11.3042319127
 30
0.0
 10
11.160324083
 20
11.305056456
 30
0.0
  0
SPLINE
  5
339
100
AcDbEntity
  8
0
100
AcDbSpline
 62
7
  6
CONTINUOUS
 70
0
 71
3
 72
18
 73
14
 74
0
 42
0.0000001
 43
0.0000001
 44
0.0000000001
 40
0.0
 40
0.0
 40
0.0
 40
0.0
 40
0.1492375037
 40
0.2896545881
 40
0.4219614439
 40
0.4853614374
 40
0.5470833384
 40
0.6660301833
 40
0.7801308948
 40
0.8358486565
 40
0.8909259069
 40
0.9455715286
 40
1.0
 40
1.0
 40
1.0
 40
1.0
 10
10.368007369
 20
11.2015819275
 30
0.0
 10
10.3665475415
 20
11.2002233849
 30
0.0
 10
10.3637963669
 20
11.1974957111
 30
0.0
 10
10.3600925176
 20
11.1932373701
 30
0.0
 10
10.3574333655
 20
11.1896095814
 30
0.0
 10
10.3556019156
 20
11.1866962945
 30
0.0
 10
10.3540045154
 20
11.183851653
 30
0.0
 10
10.3523436165
 20
11.1802711316
 30
0.0
 10
10.3511291388
 20
11.1765981031
 30
0.0
 10
10.3504552916
 20
11.1736677263
 30
0.0
 10
10.3500968495
 20
11.171484692
 30
0.0
 10
10.3498817755
 20
11.169300337
 30
0.0
 10
10.3498339375
 20
11.1678423921
 30
0.0
 10
10.3498339361
 20
11.1671150957
 30
0.0
  0
SPLINE
  5
33A
100
AcDbEntity
  8
0
100
AcDbSpline
 62
7
  6
CONTINUOUS
 70
0
 71
3
 72
14
 73
10
 74
0
 42
0.0000001
 43
0.0000001
 44
0.0000000001
 40
0.0
 40
0.0
 40
0.0
 40
0.0
 40
0.2574545396
 40
0.3842998676
 40
0.5097548722
 40
0.6338207621
 40
0.7565196327
 40
0.878369767
 40
1.0
 40
1.0
 40
1.0
 40
1.0
 10
10.6687121482
 20
11.7638010682
 30
0.0
 10
10.669056129
 20
11.7624397724
 30
0.0
 10
10.669717867
 20
11.7604415139
 30
0.0
 10
10.6708561935
 20
11.7579038394
 30
0.0
 10
10.6718160135
 20
11.7560877865
 30
0.0
 10
10.6728723383
 20
11.7543529734
 30
0.0
 10
10.6740150408
 20
11.7526977067
 30
0.0
 10
10.6752381023
 20
11.7511178825
 30
0.0
 10
10.6761038697
 20
11.7501102444
 30
0.0
 10
10.6765478063
 20
11.7496173597
 30
0.0
  0
SPLINE
  5
33B
100
AcDbEntity
  8
0
100
AcDbSpline
 62
7
  6
CONTINUOUS
 70
0
 71
3
 72
23
 73
19
 74
0
 42
0.0000001
 43
0.0000001
 44
0.0000000001
 40
0.0
 40
0.0
 40
0.0
 40
0.0
 40
0.0748354453
 40
0.1456129813
 40
0.2126358338
 40
0.2762904615
 40
0.3370479524
 40
0.3954590735
 40
0.4521506144
 40
0.5078137394
 40
0.5631835483
 40
0.6190077447
 40
0.676014299
 40
0.7348827741
 40
0.7962245295
 40
0.8605705049
 40
0.9283717522
 40
1.0
 40
1.0
 40
1.0
 40
1.0
 10
11.0860494079
 20
11.511781778
 30
0.0
 10
11.086697393
 20
11.5124076836
 30
0.0
 10
11.0879218598
 20
11.5136641733
 30
0.0
 10
11.0895780951
 20
11.515618914
 30
0.0
 10
11.0909988931
 20
11.5175877692
 30
0.0
 10
11.0921823332
 20
11.5195690165
 30
0.0
 10
11.0931267735
 20
11.5215610874
 30
0.0
 10
11.0938304742
 20
11.5235622251
 30
0.0
 10
11.0942919592
 20
11.5255702204
 30
0.0
 10
11.0945097564
 20
11.5275824692
 30
0.0
 10
11.0944833532
 20
11.5295959348
 30
0.0
 10
11.0942127147
 20
11.5316075
 30
0.0
 10
11.0936987397
 20
11.5336142225
 30
0.0
 10
11.0929428008
 20
11.5356135859
 30
0.0
 10
11.091946472
 20
11.5376034479
 30
0.0
 10
11.0907115685
 20
11.5395821521
 30
0.0
 10
11.0892397886
 20
11.5415479428
 30
0.0
 10
11.0881336121
 20
11.5428126559
 30
0.0
 10
11.0875448005
 20
11.5434426287
 30
0.0
  0
SPLINE
  5
33C
100
AcDbEntity
  8
0
100
AcDbSpline
 62
7
  6
CONTINUOUS
 70
0
 71
3
 72
27
 73
23
 74
0
 42
0.0000001
 43
0.0000001
 44
0.0000000001
 40
0.0
 40
0.0
 40
0.0
 40
0.0
 40
0.0679928633
 40
0.1311598062
 40
0.1900541609
 40
0.2454129588
 40
0.2981461796
 40
0.3238756532
 40
0.349358925
 40
0.3747457024
 40
0.4001874729
 40
0.4258346811
 40
0.4518339459
 40
0.5054053914
 40
0.5619531418
 40
0.5916263725
 40
0.6223451105
 40
0.6872053432
 40
0.7570717593
 40
0.8323267262
 40
0.913241187
 40
1.0
 40
1.0
 40
1.0
 40
1.0
 10
11.0400190919
 20
11.5149739912
 30
0.0
 10
11.0407077272
 20
11.5156391619
 30
0.0
 10
11.041986116
 20
11.5169760288
 30
0.0
 10
11.0436452314
 20
11.5190816965
 30
0.0
 10
11.0449678256
 20
11.5212082236
 30
0.0
 10
11.0459497324
 20
11.5233523599
 30
0.0
 10
11.0464847975
 20
11.5251672108
 30
0.0
 10
11.046732594
 20
11.5266110924
 30
0.0
 10
11.046830765
 20
11.5276864193
 30
0.0
 10
11.046842563
 20
11.5287620708
 30
0.0
 10
11.0467680481
 20
11.5298375113
 30
0.0
 10
11.046607215
 20
11.530912196
 30
0.0
 10
11.0462747214
 20
11.5323573242
 30
0.0
 10
11.0456328427
 20
11.5341710995
 30
0.0
 10
11.044725698
 20
11.5359243856
 30
0.0
 10
11.0438412
 20
11.537314181
 30
0.0
 10
11.0428110943
 20
11.5387468747
 30
0.0
 10
11.0413008879
 20
11.5405262354
 30
0.0
 10
11.0391889572
 20
11.5426003723
 30
0.0
 10
11.0367488905
 20
11.5446485168
 30
0.0
 10
11.0339850402
 20
11.5466677509
 30
0.0
 10
11.0319993299
 20
11.5479476019
 30
0.0
 10
11.0309564771
 20
11.5485839637
 30
0.0
  0
SPLINE
  5
33D
100
AcDbEntity
  8
0
100
AcDbSpline
 62
7
  6
CONTINUOUS
 70
0
 71
3
 72
11
 73
7
 74
0
 42
0.0000001
 43
0.0000001
 44
0.0000000001
 40
0.0
 40
0.0
 40
0.0
 40
0.0
 40
0.2728147899
 40
0.5301600517
 40
0.7723949234
 40
1.0
 40
1.0
 40
1.0
 40
1.0
 10
10.6627562551
 20
11.5486113524
 30
0.0
 10
10.661869925
 20
11.5480713694
 30
0.0
 10
10.6601691566
 20
11.5469858126
 30
0.0
 10
10.6577703786
 20
11.545286529
 30
0.0
 10
10.6556020753
 20
11.5435662303
 30
0.0
 10
10.6542715223
 20
11.5423704292
 30
0.0
 10
10.6536487385
 20
11.5417688662
 30
0.0
  0
SPLINE
  5
33E
100
AcDbEntity
  8
0
100
AcDbSpline
 62
7
  6
CONTINUOUS
 70
0
 71
3
 72
23
 73
19
 74
0
 42
0.0000001
 43
0.0000001
 44
0.0000000001
 40
0.0
 40
0.0
 40
0.0
 40
0.0
 40
0.0736871012
 40
0.143120122
 40
0.2086483171
 40
0.2707219031
 40
0.3298925613
 40
0.3868074295
 40
0.4422009342
 40
0.4968755521
 40
0.5516697084
 40
0.6074159907
 40
0.6649010551
 40
0.7248362101
 40
0.7878396386
 40
0.8544310844
 40
0.9250377407
 40
1.0
 40
1.0
 40
1.0
 40
1.0
 10
10.6536487385
 20
11.5417688662
 30
0.0
 10
10.6530909584
 20
11.541230092
 30
0.0
 10
10.6520408576
 20
11.5401482506
 30
0.0
 10
10.6506321054
 20
11.5384609532
 30
0.0
 10
10.6494403372
 20
11.5367606173
 30
0.0
 10
10.6484674707
 20
11.5350488956
 30
0.0
 10
10.6477152282
 20
11.5333273144
 30
0.0
 10
10.6471853985
 20
11.5315977135
 30
0.0
 10
10.646879497
 20
11.5298624697
 30
0.0
 10
10.6467988321
 20
11.5281244633
 30
0.0
 10
10.6469435448
 20
11.5263869237
 30
0.0
 10
10.6473132209
 20
11.5246530139
 30
0.0
 10
10.6479064302
 20
11.5229254635
 30
0.0
 10
10.64872156
 20
11.5212065009
 30
0.0
 10
10.6497567933
 20
11.519497908
 30
0.0
 10
10.6510103333
 20
11.5178011363
 30
0.0
 10
10.6524804185
 20
11.5161177558
 30
0.0
 10
10.6535698819
 20
11.5150387223
 30
0.0
 10
10.6541474103
 20
11.5145012731
 30
0.0
  0
SPLINE
  5
33F
100
AcDbEntity
  8
0
100
AcDbSpline
 62
7
  6
CONTINUOUS
 70
0
 71
3
 72
21
 73
17
 74
0
 42
0.0000001
 43
0.0000001
 44
0.0000000001
 40
0.0
 40
0.0
 40
0.0
 40
0.0
 40
0.1192817699
 40
0.1791777646
 40
0.2393027587
 40
0.2997125448
 40
0.3604690675
 40
0.4216385591
 40
0.4832891114
 40
0.5454874568
 40
0.6082953592
 40
0.6717659909
 40
0.7359408312
 40
0.8008475388
 40
0.8664990622
 40
1.0
 40
1.0
 40
1.0
 40
1.0
 10
10.9308132204
 20
11.2056481087
 30
0.0
 10
10.9379876605
 20
11.2046758377
 30
0.0
 10
10.9488088048
 20
11.2035085613
 30
0.0
 10
10.9633098012
 20
11.2026406804
 30
0.0
 10
10.9742601574
 20
11.2023597882
 30
0.0
 10
10.9852658577
 20
11.2024775631
 30
0.0
 10
10.9963225919
 20
11.2030203403
 30
0.0
 10
11.0074239715
 20
11.2040121068
 30
0.0
 10
11.0185618413
 20
11.2054731989
 30
0.0
 10
11.0297263857
 20
11.2074190897
 30
0.0
 10
11.0409065108
 20
11.2098593549
 30
0.0
 10
11.0520903874
 20
11.2127969865
 30
0.0
 10
11.0632659727
 20
11.2162280938
 30
0.0
 10
11.0744219948
 20
11.2201423234
 30
0.0
 10
11.0893376999
 20
11.2260153927
 30
0.0
 10
11.1003429225
 20
11.2310440602
 30
0.0
 10
11.1076078759
 20
11.2346329788
 30
0.0
  0
SPLINE
  5
340
100
AcDbEntity
  8
0
100
AcDbSpline
 62
7
  6
CONTINUOUS
 70
0
 71
3
 72
31
 73
27
 74
0
 42
0.0000001
 43
0.0000001
 44
0.0000000001
 40
0.0
 40
0.0
 40
0.0
 40
0.0
 40
0.0719305415
 40
0.1428141093
 40
0.2124838369
 40
0.2807656023
 40
0.3474963193
 40
0.4125509865
 40
0.444436443
 40
0.4758911042
 40
0.506924625
 40
0.5375541288
 40
0.5678037101
 40
0.5977040291
 40
0.6272908827
 40
0.6566033962
 40
0.6856827664
 40
0.7145703471
 40
0.7433058534
 40
0.7719267289
 40
0.800466972
 40
0.8289564021
 40
0.885873862
 40
0.9143508768
 40
0.9428580262
 40
1.0
 40
1.0
 40
1.0
 40
1.0
 10
10.9308132204
 20
11.3038419495
 30
0.0
 10
10.9352508716
 20
11.3080214706
 30
0.0
 10
10.9441927778
 20
11.3161822028
 30
0.0
 10
10.9579410582
 20
11.3278197341
 30
0.0
 10
10.9719462421
 20
11.338651542
 30
0.0
 10
10.9862096768
 20
11.3485398559
 30
0.0
 10
11.0007191258
 20
11.3573353145
 30
0.0
 10
11.0130756177
 20
11.3636705004
 30
0.0
 10
11.0230468997
 20
11.3680335336
 30
0.0
 10
11.0305075606
 20
11.3709230331
 30
0.0
 10
11.0379900147
 20
11.3734396601
 30
0.0
 10
11.0454841342
 20
11.375574986
 30
0.0
 10
11.0529792471
 20
11.3773239569
 30
0.0
 10
11.0604645425
 20
11.378685738
 30
0.0
 10
11.0679295629
 20
11.379663195
 30
0.0
 10
11.0753645355
 20
11.3802626752
 30
0.0
 10
11.0827606296
 20
11.3804941665
 30
0.0
 10
11.0901102358
 20
11.3803703193
 30
0.0
 10
11.0974070692
 20
11.3799058447
 30
0.0
 10
11.1046461695
 20
11.3791173447
 30
0.0
 10
11.1118240471
 20
11.3780221865
 30
0.0
 10
11.1213052835
 20
11.3761780181
 30
0.0
 10
11.1306670937
 20
11.3737903138
 30
0.0
 10
11.139888969
 20
11.3709338351
 30
0.0
 10
11.1490343692
 20
11.3677819285
 30
0.0
 10
11.1557905412
 20
11.3651153285
 30
0.0
 10
11.1602487089
 20
11.3632242008
 30
0.0
  0
SPLINE
  5
341
100
AcDbEntity
  8
0
100
AcDbSpline
 62
7
  6
CONTINUOUS
 70
0
 71
3
 72
23
 73
19
 74
0
 42
0.0000001
 43
0.0000001
 44
0.0000000001
 40
0.0
 40
0.0
 40
0.0
 40
0.0
 40
0.0247908923
 40
0.0496948535
 40
0.1002205837
 40
0.152413781
 40
0.2068698482
 40
0.2639610953
 40
0.3238337185
 40
0.3864269878
 40
0.4515030516
 40
0.5186801087
 40
0.5874654884
 40
0.6572874609
 40
0.7275257215
 40
0.7975409459
 40
0.8667039655
 40
1.0
 40
1.0
 40
1.0
 40
1.0
 10
10.9693740621
 20
11.7253790037
 30
0.0
 10
10.9696413669
 20
11.7254528855
 30
0.0
 10
10.9701704724
 20
11.7256268099
 30
0.0
 10
10.9711986938
 20
11.7260770742
 30
0.0
 10
10.9724197461
 20
11.7268339632
 30
0.0
 10
10.9737311838
 20
11.7280178252
 30
0.0
 10
10.9748748898
 20
11.7294584367
 30
0.0
 10
10.9758312786
 20
11.7311281117
 30
0.0
 10
10.9765847929
 20
11.7329962058
 30
0.0
 10
10.9771230548
 20
11.7350290904
 30
0.0
 10
10.97743722
 20
11.7371904771
 30
0.0
 10
10.9775221376
 20
11.7394418453
 30
0.0
 10
10.9773765657
 20
11.7417430212
 30
0.0
 10
10.9770032252
 20
11.7440529417
 30
0.0
 10
10.9764089631
 20
11.7463301155
 30
0.0
 10
10.9756040499
 20
11.7485344404
 30
0.0
 10
10.9742873365
 20
11.7512863178
 30
0.0
 10
10.9730093994
 20
11.7531827384
 30
0.0
 10
10.9720402113
 20
11.7543159477
 30
0.0
  0
SPLINE
  5
342
100
AcDbEntity
  8
0
100
AcDbSpline
 62
7
  6
CONTINUOUS
 70
0
 71
3
 72
56
 73
52
 74
0
 42
0.0000001
 43
0.0000001
 44
0.0000000001
 40
0.0
 40
0.0
 40
0.0
 40
0.0
 40
0.0077403522
 40
0.016054151
 40
0.0249602281
 40
0.0344715492
 40
0.044594748
 40
0.0553315743
 40
0.0666797148
 40
0.0786336713
 40
0.0911848846
 40
0.1043223584
 40
0.1180328836
 40
0.1323012328
 40
0.1471105407
 40
0.1624421912
 40
0.1782762807
 40
0.1945914688
 40
0.2113652832
 40
0.2285741087
 40
0.2641964941
 40
0.3012518337
 40
0.3395198833
 40
0.378770162
 40
0.4187641334
 40
0.4592572092
 40
0.5000008406
 40
0.5407444644
 40
0.5812375372
 40
0.6212314954
 40
0.6604817725
 40
0.6987498074
 40
0.7358051287
 40
0.771427481
 40
0.8054091078
 40
0.821724305
 40
0.8375583505
 40
0.8528900184
 40
0.8676992747
 40
0.8819676271
 40
0.8956781365
 40
0.908815577
 40
0.9213667956
 40
0.9333206975
 40
0.944668869
 40
0.9554056264
 40
0.9655288008
 40
0.9750401668
 40
0.9839462931
 40
0.992259704
 40
1.0
 40
1.0
 40
1.0
 40
1.0
 10
11.1026254338
 20
11.4389634223
 30
0.0
 10
11.101626808
 20
11.4380341134
 30
0.0
 10
11.0994770245
 20
11.4361900334
 30
0.0
 10
11.0959504104
 20
11.43355625
 30
0.0
 10
11.0920149943
 20
11.4309622056
 30
0.0
 10
11.087677278
 20
11.4284120262
 30
0.0
 10
11.0829439664
 20
11.4259094624
 30
0.0
 10
11.0778225726
 20
11.4234586214
 30
0.0
 10
11.0723213506
 20
11.4210633655
 30
0.0
 10
11.0664491636
 20
11.4187276698
 30
0.0
 10
11.0602155511
 20
11.4164553181
 30
0.0
 10
11.0536306661
 20
11.4142500765
 30
0.0
 10
11.0467052676
 20
11.4121156007
 30
0.0
 10
11.0394506985
 20
11.4100553828
 30
0.0
 10
11.0318788493
 20
11.4080728941
 30
0.0
 10
11.0240021587
 20
11.4061713544
 30
0.0
 10
11.0158335665
 20
11.404353974
 30
0.0
 10
11.0073865106
 20
11.402623727
 30
0.0
 10
10.9986748759
 20
11.4009834795
 30
0.0
 10
10.9865863924
 20
11.3988961579
 30
0.0
 10
10.9709188523
 20
11.3965410604
 30
0.0
 10
10.951511577
 20
11.3941438988
 30
0.0
 10
10.9314151836
 20
11.392160348
 30
0.0
 10
10.9107619925
 20
11.3906036497
 30
0.0
 10
10.8896878824
 20
11.389484233
 30
0.0
 10
10.8683315948
 20
11.3888095794
 30
0.0
 10
10.8468337469
 20
11.3885841965
 30
0.0
 10
10.8253358999
 20
11.3888095896
 30
0.0
 10
10.8039796161
 20
11.3894842514
 30
0.0
 10
10.782905512
 20
11.3906036741
 30
0.0
 10
10.7622523172
 20
11.3921603723
 30
0.0
 10
10.7421559628
 20
11.3941439364
 30
0.0
 10
10.7227485847
 20
11.3965410718
 30
0.0
 10
10.7041579026
 20
11.3993357558
 30
0.0
 10
10.6892521215
 20
11.4020152859
 30
0.0
 10
10.6778340079
 20
11.4043540034
 30
0.0
 10
10.6696654181
 20
11.406171431
 30
0.0
 10
10.6617887374
 20
11.4080729406
 30
0.0
 10
10.6542169003
 20
11.4100554573
 30
0.0
 10
10.6469623396
 20
11.4121156618
 30
0.0
 10
10.6400369509
 20
11.414250143
 30
0.0
 10
10.6334520788
 20
11.4164553976
 30
0.0
 10
10.627218473
 20
11.4187277264
 30
0.0
 10
10.6213463042
 20
11.4210634583
 30
0.0
 10
10.6158450853
 20
11.4234586808
 30
0.0
 10
10.6107237196
 20
11.4259095552
 30
0.0
 10
10.605990403
 20
11.4284120905
 30
0.0
 10
10.6016526883
 20
11.4309622995
 30
0.0
 10
10.5977173378
 20
11.433556346
 30
0.0
 10
10.5941907401
 20
11.4361900354
 30
0.0
 10
10.5920410381
 20
11.4380340925
 30
0.0
 10
10.5910424276
 20
11.4389634032
 30
0.0
  0
LINE
  5
343
100
AcDbEntity
  8
0
100
AcDbLine
 62
7
  6
CONTINUOUS
 10
10.535945558
 20
11.4088610773
 11
10.5360290944
 21
11.4089289527
  0
SPLINE
  5
344
100
AcDbEntity
  8
0
100
AcDbSpline
 62
7
  6
CONTINUOUS
 70
0
 71
3
 72
38
 73
34
 74
0
 42
0.0000001
 43
0.0000001
 44
0.0000000001
 40
0.0
 40
0.0
 40
0.0
 40
0.0
 40
0.0220666863
 40
0.0434204029
 40
0.0640867074
 40
0.0841150977
 40
0.1035837187
 40
0.1226065546
 40
0.1413381554
 40
0.1599751061
 40
0.1787532409
 40
0.1979378952
 40
0.2178091637
 40
0.2386449857
 40
0.2607033348
 40
0.2842096588
 40
0.3093491542
 40
0.3362613223
 40
0.3650414067
 40
0.3957432125
 40
0.4283817951
 40
0.4629405459
 40
0.4993765067
 40
0.5376253815
 40
0.5776082551
 40
0.6192354996
 40
0.6624116878
 40
0.7070385876
 40
0.7530182043
 40
0.800254905
 40
0.8486558961
 40
0.898135003
 40
1.0
 40
1.0
 40
1.0
 40
1.0
 10
10.5360290944
 20
11.4089289527
 30
0.0
 10
10.5368141121
 20
11.4095656548
 30
0.0
 10
10.538390164
 20
11.4107805913
 30
0.0
 10
10.5408153826
 20
11.4124376358
 30
0.0
 10
10.5432639932
 20
11.4138851116
 30
0.0
 10
10.545736765
 20
11.4151080721
 30
0.0
 10
10.5482345789
 20
11.4160905305
 30
0.0
 10
10.550757856
 20
11.4168158412
 30
0.0
 10
10.5533064442
 20
11.4172666252
 30
0.0
 10
10.5558791786
 20
11.4174255269
 30
0.0
 10
10.5584737366
 20
11.4172757654
 30
0.0
 10
10.5610867369
 20
11.4168021641
 30
0.0
 10
10.5637143379
 20
11.4159920946
 30
0.0
 10
10.5663526626
 20
11.4148353159
 30
0.0
 10
10.5689983221
 20
11.4133246051
 30
0.0
 10
10.5716483679
 20
11.4114553306
 30
0.0
 10
10.5742999017
 20
11.4092253818
 30
0.0
 10
10.5769502874
 20
11.4066357873
 30
0.0
 10
10.5795967693
 20
11.4036904065
 30
0.0
 10
10.5822364393
 20
11.4003959727
 30
0.0
 10
10.5848666657
 20
11.3967621849
 30
0.0
 10
10.5874848246
 20
11.3928010989
 30
0.0
 10
10.5900884786
 20
11.388526777
 30
0.0
 10
10.5926756555
 20
11.3839549135
 30
0.0
 10
10.5952445711
 20
11.3791021655
 30
0.0
 10
10.5977938634
 20
11.3739857617
 30
0.0
 10
10.6003225438
 20
11.3686230864
 30
0.0
 10
10.6028298944
 20
11.3630312636
 30
0.0
 10
10.6053155706
 20
11.3572269446
 30
0.0
 10
10.6077793968
 20
11.3512260644
 30
0.0
 10
10.6102215605
 20
11.3450436879
 30
0.0
 10
10.613480712
 20
11.336494375
 30
0.0
 10
10.6158448392
 20
11.3299770184
 30
0.0
 10
10.6173984267
 20
11.3255773392
 30
0.0
  0
SPLINE
  5
345
100
AcDbEntity
  8
0
100
AcDbSpline
 62
7
  6
CONTINUOUS
 70
0
 71
3
 72
22
 73
18
 74
0
 42
0.0000001
 43
0.0000001
 44
0.0000000001
 40
0.0
 40
0.0
 40
0.0
 40
0.0
 40
0.0635932074
 40
0.1270873567
 40
0.1904679645
 40
0.2537196277
 40
0.3168270229
 40
0.379775884
 40
0.442554345
 40
0.5051542088
 40
0.5675719314
 40
0.6298090801
 40
0.6918720952
 40
0.7537714222
 40
0.8155202753
 40
0.8771333891
 40
1.0
 40
1.0
 40
1.0
 40
1.0
 10
10.6173984267
 20
11.2273834985
 30
0.0
 10
10.6237630916
 20
11.225104787
 30
0.0
 10
10.6365363539
 20
11.2206992883
 30
0.0
 10
10.6558462104
 20
11.21460006
 30
0.0
 10
10.6752913124
 20
11.209075718
 30
0.0
 10
10.694864675
 20
11.2041892047
 30
0.0
 10
10.7145531835
 20
11.2000018075
 30
0.0
 10
10.7343367762
 20
11.1965691591
 30
0.0
 10
10.7541887047
 20
11.193936575
 30
0.0
 10
10.7740767923
 20
11.1921345905
 30
0.0
 10
10.7939657514
 20
11.1911755915
 30
0.0
 10
10.8138201612
 20
11.1910523494
 30
0.0
 10
10.8336075357
 20
11.1917390088
 30
0.0
 10
10.8533006003
 20
11.1931940749
 30
0.0
 10
10.8728791479
 20
11.1953647684
 30
0.0
 10
10.8987860214
 20
11.1991298888
 30
0.0
 10
10.9180551133
 20
11.2028499382
 30
0.0
 10
10.9308132204
 20
11.2056481087
 30
0.0
  0
SPLINE
  5
346
100
AcDbEntity
  8
0
100
AcDbSpline
 62
7
  6
CONTINUOUS
 70
0
 71
3
 72
29
 73
25
 74
0
 42
0.0000001
 43
0.0000001
 44
0.0000000001
 40
0.0
 40
0.0
 40
0.0
 40
0.0
 40
0.0607935697
 40
0.1217090786
 40
0.1827762932
 40
0.2440295857
 40
0.3055070053
 40
0.336346416
 40
0.3672562015
 40
0.3982403776
 40
0.4293021842
 40
0.4604438139
 40
0.4916666069
 40
0.5229706945
 40
0.554355025
 40
0.585817582
 40
0.6173552372
 40
0.6489641531
 40
0.6806399908
 40
0.7441654148
 40
0.8079003261
 40
0.8718062843
 40
0.9358489904
 40
1.0
 40
1.0
 40
1.0
 40
1.0
 10
10.6173984267
 20
11.3255773392
 30
0.0
 10
10.6235052878
 20
11.3282072575
 30
0.0
 10
10.6358301157
 20
11.3332472347
 30
0.0
 10
10.6546427689
 20
11.3400269872
 30
0.0
 10
10.6738109142
 20
11.3459069754
 30
0.0
 10
10.6933328865
 20
11.3507470536
 30
0.0
 10
10.7098643524
 20
11.3537885918
 30
0.0
 10
10.723227255
 20
11.3555593344
 30
0.0
 10
10.733324139
 20
11.3565417227
 30
0.0
 10
10.7434740642
 20
11.3571629579
 30
0.0
 10
10.7536654277
 20
11.3574116547
 30
0.0
 10
10.7638851251
 20
11.3572798016
 30
0.0
 10
10.7741191436
 20
11.3567627267
 30
0.0
 10
10.7843529473
 20
11.3558593531
 30
0.0
 10
10.7945720409
 20
11.354572823
 30
0.0
 10
10.8047624506
 20
11.3529097931
 30
0.0
 10
10.8149111148
 20
11.3508801221
 30
0.0
 10
10.8250065045
 20
11.3484968361
 30
0.0
 10
10.8383941055
 20
11.3448649233
 30
0.0
 10
10.8549470356
 20
11.3395193345
 30
0.0
 10
10.8744559616
 20
11.3319728442
 30
0.0
 10
10.8936126366
 20
11.3234365798
 30
0.0
 10
10.9124158568
 20
11.3140502477
 30
0.0
 10
10.924715928
 20
11.3073134443
 30
0.0
 10
10.9308132204
 20
11.3038419495
 30
0.0
  0
SPLINE
  5
347
100
AcDbEntity
  8
0
100
AcDbSpline
 62
7
  6
CONTINUOUS
 70
0
 71
3
 72
12
 73
8
 74
0
 42
0.0000001
 43
0.0000001
 44
0.0000000001
 40
0.0
 40
0.0
 40
0.0
 40
0.0
 40
0.2794888836
 40
0.5371450611
 40
0.7759349846
 40
0.8895394738
 40
1.0
 40
1.0
 40
1.0
 40
1.0
 10
11.1085998296
 20
11.4503304961
 30
0.0
 10
11.1096294999
 20
11.4513250813
 30
0.0
 10
11.1115266138
 20
11.4533251134
 30
0.0
 10
11.1139411529
 20
11.4564924507
 30
0.0
 10
11.1155117655
 20
11.4592065526
 30
0.0
 10
11.1164641881
 20
11.4613797236
 30
0.0
 10
11.1168423265
 20
11.4624649032
 30
0.0
 10
11.1170062309
 20
11.463006436
 30
0.0
  0
SPLINE
  5
348
100
AcDbEntity
  8
0
100
AcDbSpline
 62
7
  6
CONTINUOUS
 70
0
 71
3
 72
11
 73
7
 74
0
 42
0.0000001
 43
0.0000001
 44
0.0000000001
 40
0.0
 40
0.0
 40
0.0
 40
0.0
 40
0.2544991222
 40
0.505163903
 40
0.7532356335
 40
1.0
 40
1.0
 40
1.0
 40
1.0
 10
11.1170062309
 20
11.463006436
 30
0.0
 10
11.1171428362
 20
11.4634577736
 30
0.0
 10
11.117383169
 20
11.4643633563
 30
0.0
 10
11.1176431372
 20
11.4657358218
 30
0.0
 10
11.11779918
 20
11.4671095534
 30
0.0
 10
11.1178338996
 20
11.4680267979
 30
0.0
 10
11.117833903
 20
11.4684840239
 30
0.0
  0
SPLINE
  5
349
100
AcDbEntity
  8
0
100
AcDbSpline
 62
7
  6
CONTINUOUS
 70
0
 71
3
 72
16
 73
12
 74
0
 42
0.0000001
 43
0.0000001
 44
0.0000000001
 40
0.0
 40
0.0
 40
0.0
 40
0.0
 40
0.1480512553
 40
0.2876966954
 40
0.4196101155
 40
0.4829486424
 40
0.544695998
 40
0.6639365506
 40
0.7786068667
 40
0.8901134718
 40
1.0
 40
1.0
 40
1.0
 40
1.0
 10
11.1032872373
 20
11.4241359639
 30
0.0
 10
11.1040149475
 20
11.424838878
 30
0.0
 10
11.1053863897
 20
11.4262502139
 30
0.0
 10
11.107230389
 20
11.4284497088
 30
0.0
 10
11.1085530546
 20
11.4303214164
 30
0.0
 10
11.1094639371
 20
11.4318237605
 30
0.0
 10
11.1102594437
 20
11.4332923672
 30
0.0
 10
11.1110861206
 20
11.4351404843
 30
0.0
 10
11.1118050803
 20
11.4373944109
 30
0.0
 10
11.112237489
 20
11.4396555556
 30
0.0
 10
11.1123339016
 20
11.4411702132
 30
0.0
 10
11.1123339031
 20
11.4419211584
 30
0.0
  0
SPLINE
  5
34A
100
AcDbEntity
  8
0
100
AcDbSpline
 62
7
  6
CONTINUOUS
 70
0
 71
3
 72
56
 73
52
 74
0
 42
0.0000001
 43
0.0000001
 44
0.0000000001
 40
0.0
 40
0.0
 40
0.0
 40
0.0
 40
0.0077402969
 40
0.0160537108
 40
0.0249598387
 40
0.0344712038
 40
0.0445943797
 40
0.0553311397
 40
0.0666793101
 40
0.0786332104
 40
0.0911844312
 40
0.1043218721
 40
0.118032378
 40
0.1323007298
 40
0.1471099874
 40
0.1624416526
 40
0.1782756943
 40
0.1945908915
 40
0.228572513
 40
0.2641948617
 40
0.3012501755
 40
0.3395182057
 40
0.3787684754
 40
0.4187624278
 40
0.4592554934
 40
0.4999991129
 40
0.540742736
 40
0.5812358109
 40
0.6212297738
 40
0.6604800535
 40
0.6987480982
 40
0.7358034384
 40
0.7714258249
 40
0.7886346525
 40
0.8054084647
 40
0.8217236544
 40
0.8375577489
 40
0.8528894005
 40
0.8676987087
 40
0.8819670629
 40
0.8956775928
 40
0.9088150684
 40
0.9213662854
 40
0.9333202482
 40
0.9446683932
 40
0.9554052234
 40
0.965528428
 40
0.9750397554
 40
0.9839458376
 40
0.9922596419
 40
1.0
 40
1.0
 40
1.0
 40
1.0
 10
10.5857435599
 20
11.4438945561
 30
0.0
 10
10.5867628576
 20
11.4429459945
 30
0.0
 10
10.588957093
 20
11.4410637373
 30
0.0
 10
10.5925567475
 20
11.4383754902
 30
0.0
 10
10.5965736218
 20
11.4357277071
 30
0.0
 10
10.6010011953
 20
11.4331246699
 30
0.0
 10
10.605832566
 20
11.430570294
 30
0.0
 10
10.611060024
 20
11.4280686489
 30
0.0
 10
10.6166752036
 20
11.4256238085
 30
0.0
 10
10.6226690175
 20
11.4232396915
 30
0.0
 10
10.6290317559
 20
11.4209202908
 30
0.0
 10
10.6357530369
 20
11.4186693535
 30
0.0
 10
10.642821888
 20
11.416490656
 30
0.0
 10
10.6502267302
 20
11.4143877739
 30
0.0
 10
10.6579554213
 20
11.4123641887
 30
0.0
 10
10.6659952706
 20
11.4104232887
 30
0.0
 10
10.6743330757
 20
11.4085682127
 30
0.0
 10
10.6859877197
 20
11.4061810479
 30
0.0
 10
10.7012022799
 20
11.4034460103
 30
0.0
 10
10.7201780743
 20
11.4005934335
 30
0.0
 10
10.7399874831
 20
11.3981466403
 30
0.0
 10
10.76050014
 20
11.3961219857
 30
0.0
 10
10.7815811728
 20
11.3945330396
 30
0.0
 10
10.8030918339
 20
11.3933904272
 30
0.0
 10
10.8248905207
 20
11.3927017887
 30
0.0
 10
10.8468337027
 20
11.392471726
 30
0.0
 10
10.8687768868
 20
11.3927017767
 30
0.0
 10
10.8905755775
 20
11.393390405
 30
0.0
 10
10.9120862469
 20
11.3945330097
 30
0.0
 10
10.9331672771
 20
11.3961219542
 30
0.0
 10
10.9536799768
 20
11.3981465939
 30
0.0
 10
10.9734892832
 20
11.4005934119
 30
0.0
 10
10.9894813851
 20
11.4029972953
 30
0.0
 10
11.001820288
 20
11.4051278553
 30
0.0
 10
11.0107123891
 20
11.4068020803
 30
0.0
 10
11.019334431
 20
11.4085681694
 30
0.0
 10
11.0276722413
 20
11.4104231967
 30
0.0
 10
11.035712103
 20
11.4123641267
 30
0.0
 10
11.0434408082
 20
11.4143876826
 30
0.0
 10
11.0508456615
 20
11.4164905781
 30
0.0
 10
11.0579145255
 20
11.4186692696
 30
0.0
 10
11.064635822
 20
11.4209201928
 30
0.0
 10
11.0709985695
 20
11.4232396165
 30
0.0
 10
11.0769924049
 20
11.4256236964
 30
0.0
 10
11.0826075908
 20
11.4280685701
 30
0.0
 10
11.0878350802
 20
11.4305701805
 30
0.0
 10
11.0926664484
 20
11.4331245854
 30
0.0
 10
11.0970940268
 20
11.4357275921
 30
0.0
 10
11.1011109712
 20
11.4383753725
 30
0.0
 10
11.1047106452
 20
11.4410637152
 30
0.0
 10
11.1069049658
 20
11.4429459957
 30
0.0
 10
11.1079242803
 20
11.4438945554
 30
0.0
  0
SPLINE
  5
34B
100
AcDbEntity
  8
0
100
AcDbSpline
 62
7
  6
CONTINUOUS
 70
0
 71
3
 72
11
 73
7
 74
0
 42
0.0000001
 43
0.0000001
 44
0.0000000001
 40
0.0
 40
0.0
 40
0.0
 40
0.0
 40
0.2428236665
 40
0.4885858541
 40
0.7401064131
 40
1.0
 40
1.0
 40
1.0
 40
1.0
 10
11.0308339039
 20
11.5129166146
 30
0.0
 10
11.030833909
 20
11.5124458303
 30
0.0
 10
11.0307793691
 20
11.5114976924
 30
0.0
 10
11.0305345097
 20
11.510080914
 30
0.0
 10
11.0301272592
 20
11.5086677047
 30
0.0
 10
11.0297550956
 20
11.5077466098
 30
0.0
 10
11.0295445906
 20
11.5072888085
 30
0.0
  0
SPLINE
  5
34C
100
AcDbEntity
  8
0
100
AcDbSpline
 62
7
  6
CONTINUOUS
 70
0
 71
3
 72
62
 73
58
 74
0
 42
0.0000001
 43
0.0000001
 44
0.0000000001
 40
0.0
 40
0.0
 40
0.0
 40
0.0
 40
0.0081223579
 40
0.0169168099
 40
0.0264085661
 40
0.0366142007
 40
0.0475413512
 40
0.0591908961
 40
0.0715582806
 40
0.0846343354
 40
0.0984060926
 40
0.112857108
 40
0.127968089
 40
0.1437171933
 40
0.1600801517
 40
0.1770307303
 40
0.1945407808
 40
0.2125804017
 40
0.2311182285
 40
0.2501214152
 40
0.2893853343
 40
0.3300872433
 40
0.3719261992
 40
0.4145897924
 40
0.4577574111
 40
0.501103531
 40
0.5443008851
 40
0.5870236431
 40
0.6289506447
 40
0.6697685855
 40
0.7091753215
 40
0.7282595067
 40
0.7468844241
 40
0.7650170495
 40
0.7826256534
 40
0.7996801141
 40
0.8161519743
 40
0.832014537
 40
0.8472432748
 40
0.8618158396
 40
0.8757123934
 40
0.888916065
 40
0.9014131219
 40
0.9131936751
 40
0.9242523063
 40
0.9345888025
 40
0.9442095437
 40
0.9531288502
 40
0.9613710605
 40
0.9689733284
 40
0.9759887143
 40
0.9824900824
 40
0.9885734564
 40
0.9914974645
 40
0.9943641586
 40
0.9971919252
 40
1.0
 40
1.0
 40
1.0
 40
1.0
 10
11.1032872373
 20
11.4241359639
 30
0.0
 10
11.1022141897
 20
11.4230994794
 30
0.0
 10
11.0998780871
 20
11.4210442119
 30
0.0
 10
11.0960003515
 20
11.4181240881
 30
0.0
 10
11.0916211693
 20
11.415252805
 30
0.0
 10
11.0867493963
 20
11.4124359021
 30
0.0
 10
11.0813941855
 20
11.4096784536
 30
0.0
 10
11.0755659422
 20
11.4069859365
 30
0.0
 10
11.0692761261
 20
11.4043636494
 30
0.0
 10
11.0625371888
 20
11.4018168245
 30
0.0
 10
11.0553625319
 20
11.3993506572
 30
0.0
 10
11.047766516
 20
11.3969701048
 30
0.0
 10
11.0397643748
 20
11.394680014
 30
0.0
 10
11.0313721905
 20
11.3924850745
 30
0.0
 10
11.0226068698
 20
11.390389712
 30
0.0
 10
11.013486081
 20
11.3883982267
 30
0.0
 10
11.0040282277
 20
11.3865146732
 30
0.0
 10
10.9942524154
 20
11.3847428664
 30
0.0
 10
10.9841783738
 20
11.3830864268
 30
0.0
 10
10.970223724
 20
11.3810136596
 30
0.0
 10
10.9521847482
 20
11.3787455039
 30
0.0
 10
10.9299166812
 20
11.3765586607
 30
0.0
 10
10.9069772881
 20
11.3748961946
 30
0.0
 10
10.8835519797
 20
11.3737717472
 30
0.0
 10
10.8598299551
 20
11.3731945801
 30
0.0
 10
10.8360029135
 20
11.3731694385
 30
0.0
 10
10.812263395
 20
11.3736965413
 30
0.0
 10
10.7888032398
 20
11.3747715512
 30
0.0
 10
10.7658119337
 20
11.3763855966
 30
0.0
 10
10.7434753112
 20
11.3785254326
 30
0.0
 10
10.7253686741
 20
11.3807551051
 30
0.0
 10
10.7113518943
 20
11.3827978627
 30
0.0
 10
10.7012257935
 20
11.3844329701
 30
0.0
 10
10.691394261
 20
11.3861840356
 30
0.0
 10
10.681877147
 20
11.3880475583
 30
0.0
 10
10.6726936729
 20
11.3900197168
 30
0.0
 10
10.6638623706
 20
11.3920964813
 30
0.0
 10
10.6554010545
 20
11.3942736607
 30
0.0
 10
10.6473267609
 20
11.3965467805
 30
0.0
 10
10.6396557293
 20
11.3989112273
 30
0.0
 10
10.6324033601
 20
11.4013622165
 30
0.0
 10
10.6255841543
 20
11.4038947293
 30
0.0
 10
10.6192117113
 20
11.4065036893
 30
0.0
 10
10.613298658
 20
11.4091838471
 30
0.0
 10
10.6078566086
 20
11.4119298463
 30
0.0
 10
10.6028961783
 20
11.4147363875
 30
0.0
 10
10.5984268749
 20
11.4175981066
 30
0.0
 10
10.5944571617
 20
11.4205098329
 30
0.0
 10
10.5909945392
 20
11.4234667611
 30
0.0
 10
10.5880456166
 20
11.4264643534
 30
0.0
 10
10.5856166264
 20
11.429499051
 30
0.0
 10
10.5837141759
 20
11.4325667069
 30
0.0
 10
10.5825585143
 20
11.4351830711
 30
0.0
 10
10.5819200897
 20
11.4372707036
 30
0.0
 10
10.5815820525
 20
11.4388191551
 30
0.0
 10
10.581379085
 20
11.4403694538
 30
0.0
 10
10.5813339261
 20
11.4414051878
 30
0.0
 10
10.5813339272
 20
11.4419209659
 30
0.0
  0
SPLINE
  5
34D
100
AcDbEntity
  8
0
100
AcDbSpline
 62
7
  6
CONTINUOUS
 70
0
 71
3
 72
71
 73
67
 74
0
 42
0.0000001
 43
0.0000001
 44
0.0000000001
 40
0.0
 40
0.0
 40
0.0
 40
0.0
 40
0.0074885549
 40
0.0110030462
 40
0.0143801565
 40
0.0176351669
 40
0.0207853695
 40
0.023850051
 40
0.0268503002
 40
0.0298087451
 40
0.0327491286
 40
0.0356956593
 40
0.0386723925
 40
0.0417025724
 40
0.044808124
 40
0.0513194889
 40
0.0583498677
 40
0.0660046437
 40
0.0700923415
 40
0.0743627428
 40
0.0834726881
 40
0.0933714289
 40
0.1040794158
 40
0.1156058248
 40
0.127951078
 40
0.1411085384
 40
0.1550655736
 40
0.1698046961
 40
0.1853042588
 40
0.2015388241
 40
0.2184798018
 40
0.2360957851
 40
0.2543526837
 40
0.273214165
 40
0.2926418557
 40
0.3125953995
 40
0.3330328086
 40
0.3539106113
 40
0.3751838967
 40
0.4187306751
 40
0.4632942084
 40
0.5084826074
 40
0.5538967515
 40
0.5991349676
 40
0.6437975895
 40
0.6874915591
 40
0.708855959
 40
0.7298362002
 40
0.7503870823
 40
0.7704647634
 40
0.7900268614
 40
0.8090326017
 40
0.8274431095
 40
0.8452215132
 40
0.8623331422
 40
0.8787459133
 40
0.8944304916
 40
0.9093606137
 40
0.9235136697
 40
0.9368710581
 40
0.9494188514
 40
0.9611488916
 40
0.9720596039
 40
0.9821577417
 40
0.9914613741
 40
1.0
 40
1.0
 40
1.0
 40
1.0
 10
10.6061230545
 20
11.5434426271
 30
0.0
 10
10.6052180037
 20
11.5424742974
 30
0.0
 10
10.6039578761
 20
11.5409817046
 30
0.0
 10
10.6025101229
 20
11.5388865469
 30
0.0
 10
10.6015919781
 20
11.5373412477
 30
0.0
 10
10.6008193641
 20
11.5357898873
 30
0.0
 10
10.6001929485
 20
11.5342331898
 30
0.0
 10
10.5997132988
 20
11.5326721441
 30
0.0
 10
10.5993809646
 20
11.5311077798
 30
0.0
 10
10.5991964738
 20
11.5295412339
 30
0.0
 10
10.5991599954
 20
11.5279737541
 30
0.0
 10
10.5992715818
 20
11.5264065892
 30
0.0
 10
10.5995311443
 20
11.5248410211
 30
0.0
 10
10.5999382937
 20
11.5232781626
 30
0.0
 10
10.6006887935
 20
11.5211667013
 30
0.0
 10
10.6020202014
 20
11.5185236086
 30
0.0
 10
10.6041729973
 20
11.515438734
 30
0.0
 10
10.6063928124
 20
11.5129566411
 30
0.0
 10
10.6084342349
 20
11.5109895401
 30
0.0
 10
10.6107587834
 20
11.5089494776
 30
0.0
 10
10.6140294699
 20
11.5064359221
 30
0.0
 10
10.6184211076
 20
11.5035349579
 30
0.0
 10
10.6233511552
 20
11.5006931487
 30
0.0
 10
10.6288083093
 20
11.4979167878
 30
0.0
 10
10.6347803276
 20
11.4952121278
 30
0.0
 10
10.641253507
 20
11.4925854906
 30
0.0
 10
10.6482128564
 20
11.4900430095
 30
0.0
 10
10.6556421569
 20
11.4875907145
 30
0.0
 10
10.6635240201
 20
11.4852344713
 30
0.0
 10
10.6718399145
 20
11.4829798664
 30
0.0
 10
10.6805702541
 20
11.4808322871
 30
0.0
 10
10.6896944462
 20
11.4787968916
 30
0.0
 10
10.6991909295
 20
11.4768785133
 30
0.0
 10
10.7090372501
 20
11.4750817378
 30
0.0
 10
10.7192101152
 20
11.4734108822
 30
0.0
 10
10.7296854404
 20
11.4718699076
 30
0.0
 10
10.7404384135
 20
11.4704625005
 30
0.0
 10
10.7514435872
 20
11.4691920206
 30
0.0
 10
10.7665358549
 20
11.4676729326
 30
0.0
 10
10.7858384339
 20
11.4661444029
 30
0.0
 10
10.809401801
 20
11.4649082632
 30
0.0
 10
10.8333195361
 20
11.4642683999
 30
0.0
 10
10.8573651373
 20
11.4642309307
 30
0.0
 10
10.8813111052
 20
11.4647962176
 30
0.0
 10
10.9049306684
 20
11.4659588629
 30
0.0
 10
10.9242978127
 20
11.4674267611
 30
0.0
 10
10.9394553961
 20
11.4688981213
 30
0.0
 10
10.950519172
 20
11.4701341164
 30
0.0
 10
10.961337168
 20
11.4715078228
 30
0.0
 10
10.9718837817
 20
11.4730159602
 30
0.0
 10
10.9821340296
 20
11.4746549219
 30
0.0
 10
10.992063642
 20
11.4764208227
 30
0.0
 10
11.0016491261
 20
11.4783094192
 30
0.0
 10
11.0108678127
 20
11.480316198
 30
0.0
 10
11.0196979124
 20
11.4824363935
 30
0.0
 10
11.02811859
 20
11.4846649127
 30
0.0
 10
11.0361100023
 20
11.4869964302
 30
0.0
 10
11.0436533494
 20
11.4894254156
 30
0.0
 10
11.0507309567
 20
11.491946055
 30
0.0
 10
11.0573263095
 20
11.494552364
 30
0.0
 10
11.0634241007
 20
11.4972382317
 30
0.0
 10
11.0690103273
 20
11.4999973938
 30
0.0
 10
11.0740722592
 20
11.5028234793
 30
0.0
 10
11.0785988159
 20
11.5057104726
 30
0.0
 10
11.0825793986
 20
11.5086518995
 30
0.0
 10
11.0849624037
 20
11.5107318125
 30
0.0
 10
11.0860494079
 20
11.511781778
 30
0.0
  0
SPLINE
  5
34E
100
AcDbEntity
  8
0
100
AcDbSpline
 62
7
  6
CONTINUOUS
 70
0
 71
3
 72
17
 73
13
 74
0
 42
0.0000001
 43
0.0000001
 44
0.0000000001
 40
0.0
 40
0.0
 40
0.0
 40
0.0
 40
0.1287374904
 40
0.2566350148
 40
0.3833967131
 40
0.5088571848
 40
0.6330045819
 40
0.7559866856
 40
0.8171916256
 40
0.878225658
 40
0.9391426739
 40
1.0
 40
1.0
 40
1.0
 40
1.0
 10
10.676406372
 20
11.7712956528
 30
0.0
 10
10.6757789076
 20
11.7705037503
 30
0.0
 10
10.6746553913
 20
11.7688190968
 30
0.0
 10
10.6734169225
 20
11.7660621239
 30
0.0
 10
10.6726643804
 20
11.7631602913
 30
0.0
 10
10.6724219249
 20
11.7602014262
 30
0.0
 10
10.6726973722
 20
11.7572751666
 30
0.0
 10
10.6733546866
 20
11.7549312339
 30
0.0
 10
10.6741236137
 20
11.7531645457
 30
0.0
 10
10.6748165176
 20
11.7519026843
 30
0.0
 10
10.6756210699
 20
11.7507124659
 30
0.0
 10
10.6762281698
 20
11.749972259
 30
0.0
 10
10.6765478198
 20
11.7496173718
 30
0.0
  0
SPLINE
  5
34F
100
AcDbEntity
  8
0
100
AcDbSpline
 62
7
  6
CONTINUOUS
 70
0
 71
3
 72
11
 73
7
 74
0
 42
0.0000001
 43
0.0000001
 44
0.0000000001
 40
0.0
 40
0.0
 40
0.0
 40
0.0
 40
0.259809977
 40
0.5113166432
 40
0.7571130479
 40
1.0
 40
1.0
 40
1.0
 40
1.0
 10
10.6641109469
 20
11.5073156251
 30
0.0
 10
10.6639024183
 20
11.5077713475
 30
0.0
 10
10.6635337674
 20
11.508688213
 30
0.0
 10
10.6631303834
 20
11.5100946345
 30
0.0
 10
10.6628879549
 20
11.5115045808
 30
0.0
 10
10.6628339316
 20
11.5124480929
 30
0.0
 10
10.6628339265
 20
11.5129166146
 30
0.0
  0
SPLINE
  5
350
100
AcDbEntity
  8
0
100
AcDbSpline
 62
7
  6
CONTINUOUS
 70
0
 71
3
 72
63
 73
59
 74
0
 42
0.0000001
 43
0.0000001
 44
0.0000000001
 40
0.0
 40
0.0
 40
0.0
 40
0.0
 40
0.0028080624
 40
0.0056358196
 40
0.0085025067
 40
0.0114265098
 40
0.0144250775
 40
0.0175140353
 40
0.0240154024
 40
0.0310307909
 40
0.0386330598
 40
0.0468752703
 40
0.0557945774
 40
0.0654153137
 40
0.0757518004
 40
0.0868104217
 40
0.0985909587
 40
0.111087992
 40
0.1242916394
 40
0.1381881636
 40
0.1527606899
 40
0.1679893876
 40
0.1838519068
 40
0.2003237139
 40
0.2173781188
 40
0.2349866651
 40
0.2531192245
 40
0.2717440715
 40
0.2908281854
 40
0.3302347615
 40
0.3710525308
 40
0.4129793457
 40
0.4557019093
 40
0.4988990572
 40
0.5422449681
 40
0.5854123731
 40
0.6280757476
 40
0.6699144928
 40
0.7106161871
 40
0.7498798997
 40
0.7688829853
 40
0.7874207173
 40
0.8054602401
 40
0.8229701954
 40
0.8399206867
 40
0.856283557
 40
0.8720325749
 40
0.8871434775
 40
0.9015944165
 40
0.9153660985
 40
0.9284420852
 40
0.9408094058
 40
0.9524588886
 40
0.9633859827
 40
0.9735915659
 40
0.9830832737
 40
0.9918776816
 40
1.0
 40
1.0
 40
1.0
 40
1.0
 10
10.5758339274
 20
11.2270022378
 30
0.0
 10
10.5758339326
 20
11.2264757753
 30
0.0
 10
10.5758800379
 20
11.2254185884
 30
0.0
 10
10.5760872367
 20
11.2238361656
 30
0.0
 10
10.5764322644
 20
11.2222556781
 30
0.0
 10
10.576914755
 20
11.2206782376
 30
0.0
 10
10.5775343729
 20
11.2191046599
 30
0.0
 10
10.5785599088
 20
11.2169768773
 30
0.0
 10
10.5802056219
 20
11.214322625
 30
0.0
 10
10.5826847878
 20
11.2112255703
 30
0.0
 10
10.5856948812
 20
11.2081657349
 30
0.0
 10
10.5892292469
 20
11.2051476039
 30
0.0
 10
10.5932812269
 20
11.2021755517
 30
0.0
 10
10.5978431383
 20
11.1992545606
 30
0.0
 10
10.6029063512
 20
11.1963898856
 30
0.0
 10
10.6084611583
 20
11.1935870084
 30
0.0
 10
10.6144967243
 20
11.1908513359
 30
0.0
 10
10.6210011951
 20
11.1881883369
 30
0.0
 10
10.6279616822
 20
11.1856033687
 30
0.0
 10
10.6353643039
 20
11.1831016128
 30
0.0
 10
10.6431942592
 20
11.1806881923
 30
0.0
 10
10.6514358287
 20
11.178367991
 30
0.0
 10
10.6600724364
 20
11.1761457172
 30
0.0
 10
10.6690866931
 20
11.1740259386
 30
0.0
 10
10.6784604153
 20
11.1720129331
 30
0.0
 10
10.6881746875
 20
11.1701108136
 30
0.0
 10
10.6982098898
 20
11.1683234808
 30
0.0
 10
10.7085457609
 20
11.1666545084
 30
0.0
 10
10.7228529065
 20
11.1645694434
 30
0.0
 10
10.7413346301
 20
11.1622935933
 30
0.0
 10
10.7641339602
 20
11.1601094421
 30
0.0
 10
10.7876015317
 20
11.1584619727
 30
0.0
 10
10.8115476596
 20
11.1573647043
 30
0.0
 10
10.8357789345
 20
11.1568266922
 30
0.0
 10
10.8600995421
 20
11.1568523633
 30
0.0
 10
10.8843129544
 20
11.1574414945
 30
0.0
 10
10.9082235022
 20
11.1585892417
 30
0.0
 10
10.9316380667
 20
11.1602861516
 30
0.0
 10
10.9543673979
 20
11.1625183005
 30
0.0
 10
10.9727800341
 20
11.164833444
 30
0.0
 10
10.9870237417
 20
11.1669491511
 30
0.0
 10
10.9973064574
 20
11.1686399052
 30
0.0
 10
11.0072847658
 20
11.1704484159
 30
0.0
 10
11.0169385288
 20
11.1723709883
 30
0.0
 10
11.0262482455
 20
11.1744037279
 30
0.0
 10
11.0351951308
 20
11.1765424961
 30
0.0
 10
11.0437611503
 20
11.1787829041
 30
0.0
 10
11.0519290476
 20
11.1811204342
 30
0.0
 10
11.0596824072
 20
11.1835502994
 30
0.0
 10
11.0670056797
 20
11.1860675531
 30
0.0
 10
11.0738842071
 20
11.188667135
 30
0.0
 10
11.0803043107
 20
11.191343742
 30
0.0
 10
11.0862532805
 20
11.1940920337
 30
0.0
 10
11.0917194195
 20
11.1969066019
 30
0.0
 10
11.0966921073
 20
11.1997818558
 30
0.0
 10
11.1011620008
 20
11.2027126164
 30
0.0
 10
11.1051200609
 20
11.2056932292
 30
0.0
 10
11.1075045544
 20
11.2077910706
 30
0.0
 10
11.1085998296
 20
11.2088490252
 30
0.0
  0
SPLINE
  5
351
100
AcDbEntity
  8
0
100
AcDbSpline
 62
7
  6
CONTINUOUS
 70
0
 71
3
 72
11
 73
7
 74
0
 42
0.0000001
 43
0.0000001
 44
0.0000000001
 40
0.0
 40
0.0
 40
0.0
 40
0.0
 40
0.2353556543
 40
0.4802220487
 40
0.7349933067
 40
1.0
 40
1.0
 40
1.0
 40
1.0
 10
10.2278066989
 20
10.6645321723
 30
0.0
 10
10.2288319911
 20
10.6633328891
 30
0.0
 10
10.2309885811
 20
10.6609404577
 30
0.0
 10
10.2344592081
 20
10.6574405003
 30
0.0
 10
10.2382262018
 20
10.6539616361
 30
0.0
 10
10.2408807667
 20
10.6517027174
 30
0.0
 10
10.2422547471
 20
10.6505764533
 30
0.0
  0
SPLINE
  5
352
100
AcDbEntity
  8
0
100
AcDbSpline
 62
7
  6
CONTINUOUS
 70
0
 71
3
 72
56
 73
52
 74
0
 42
0.0000001
 43
0.0000001
 44
0.0000000001
 40
0.0
 40
0.0
 40
0.0
 40
0.0
 40
0.0452926219
 40
0.0911392095
 40
0.1373554063
 40
0.1837553099
 40
0.2301518383
 40
0.2763579802
 40
0.3221877546
 40
0.3674571003
 40
0.4119849
 40
0.4555940347
 40
0.4981122804
 40
0.5393734359
 40
0.5792184125
 40
0.6174963144
 40
0.6540657931
 40
0.671669127
 40
0.6887974223
 40
0.7054363541
 40
0.7215725065
 40
0.7371934705
 40
0.7522878757
 40
0.7668455503
 40
0.780857558
 40
0.7943164428
 40
0.807216262
 40
0.8195529369
 40
0.8313243101
 40
0.8425306281
 40
0.8531746939
 40
0.8632625457
 40
0.8728037504
 40
0.8818123378
 40
0.8903073375
 40
0.8983140194
 40
0.9058647129
 40
0.9130002519
 40
0.9197707934
 40
0.9262368162
 40
0.9324689627
 40
0.9385471742
 40
0.9445581646
 40
0.9505918644
 40
0.9567371202
 40
0.9630775847
 40
0.9696887794
 40
0.9766362161
 40
0.9839751867
 40
0.991750949
 40
1.0
 40
1.0
 40
1.0
 40
1.0
 10
10.7342477235
 20
11.1182526364
 30
0.0
 10
10.7435250046
 20
11.1176092547
 30
0.0
 10
10.762205259
 20
11.1164850741
 30
0.0
 10
10.7903832031
 20
11.1152867954
 30
0.0
 10
10.8188049709
 20
11.1145692349
 30
0.0
 10
10.8473477106
 20
11.11433552
 30
0.0
 10
10.875888245
 20
11.1145866728
 30
0.0
 10
10.9043033371
 20
11.1153215959
 30
0.0
 10
10.9324703173
 20
11.116537087
 30
0.0
 10
10.9602675916
 20
11.1182278454
 30
0.0
 10
10.9875751801
 20
11.1203864969
 30
0.0
 10
11.0142752353
 20
11.1230036235
 30
0.0
 10
11.0402525733
 20
11.1260677997
 30
0.0
 10
11.0653951526
 20
11.1295656453
 30
0.0
 10
11.0895946578
 20
11.1334818622
 30
0.0
 10
11.1127467049
 20
11.1377993602
 30
0.0
 10
11.1313127969
 20
11.1417645299
 30
0.0
 10
11.1455599207
 20
11.1451339836
 30
0.0
 10
11.1557866435
 20
11.147717223
 30
0.0
 10
11.1656797465
 20
11.1503858753
 30
0.0
 10
11.1752285846
 20
11.1531370874
 30
0.0
 10
11.1844228796
 20
11.1559678555
 30
0.0
 10
11.1932527414
 20
11.1588751368
 30
0.0
 10
11.2017086866
 20
11.1618557572
 30
0.0
 10
11.2097816346
 20
11.1649065278
 30
0.0
 10
11.2174629466
 20
11.1680241154
 30
0.0
 10
11.2247444029
 20
11.1712052119
 30
0.0
 10
11.2316182592
 20
11.1744463519
 30
0.0
 10
11.2380771966
 20
11.17774414
 30
0.0
 10
11.2441144079
 20
11.1810950144
 30
0.0
 10
11.2497235071
 20
11.1844955444
 30
0.0
 10
11.2548986626
 20
11.1879421366
 30
0.0
 10
11.2596344355
 20
11.1914314079
 30
0.0
 10
11.2639259641
 20
11.1949598378
 30
0.0
 10
11.2677686873
 20
11.1985242094
 30
0.0
 10
11.2711585898
 20
11.2021212031
 30
0.0
 10
11.274091739
 20
11.2057478631
 30
0.0
 10
11.2765646042
 20
11.2094010831
 30
0.0
 10
11.2785733848
 20
11.2130779352
 30
0.0
 10
11.2801145553
 20
11.2167749518
 30
0.0
 10
11.2811842517
 20
11.2204881637
 30
0.0
 10
11.2817794848
 20
11.2242124316
 30
0.0
 10
11.2818978841
 20
11.2279416916
 30
0.0
 10
11.2815392403
 20
11.2316692624
 30
0.0
 10
11.2807046551
 20
11.2353886469
 30
0.0
 10
11.2793971369
 20
11.2390942926
 30
0.0
 10
11.2776199569
 20
11.2427815807
 30
0.0
 10
11.2753770553
 20
11.2464469519
 30
0.0
 10
11.2726718673
 20
11.2500871585
 30
0.0
 10
11.2695083833
 20
11.2536991841
 30
0.0
 10
11.2671676655
 20
11.2560155924
 30
0.0
 10
11.2659277924
 20
11.2571694421
 30
0.0
  0
SPLINE
  5
353
100
AcDbEntity
  8
0
100
AcDbSpline
 62
7
  6
CONTINUOUS
 70
0
 71
3
 72
47
 73
43
 74
0
 42
0.0000001
 43
0.0000001
 44
0.0000000001
 40
0.0
 40
0.0
 40
0.0
 40
0.0
 40
0.0099875862
 40
0.0204479052
 40
0.0313775199
 40
0.0427711688
 40
0.0546223854
 40
0.0669232272
 40
0.0796648155
 40
0.0928370497
 40
0.1204280031
 40
0.1495994345
 40
0.1802416891
 40
0.2122348079
 40
0.2454499684
 40
0.2797506337
 40
0.3149936966
 40
0.3510304642
 40
0.387707658
 40
0.424868348
 40
0.4623528741
 40
0.4999997774
 40
0.5376466786
 40
0.5751312169
 40
0.6122919171
 40
0.6489691299
 40
0.6850059201
 40
0.7202490052
 40
0.7545497025
 40
0.7877648859
 40
0.8197580418
 40
0.8504003201
 40
0.8795717917
 40
0.9071627728
 40
0.920335049
 40
0.9330766387
 40
0.9453775339
 40
0.9572287329
 40
0.9686224436
 40
0.9795520438
 40
0.9900124428
 40
1.0
 40
1.0
 40
1.0
 40
1.0
 10
11.0868809868
 20
11.2243942919
 30
0.0
 10
11.0854207353
 20
11.2236729568
 30
0.0
 10
11.0824061735
 20
11.2222462261
 30
0.0
 10
11.0777174809
 20
11.2201957568
 30
0.0
 10
11.0727622078
 20
11.2181876242
 30
0.0
 10
11.0675461028
 20
11.2162240841
 30
0.0
 10
11.0620751047
 20
11.2143074862
 30
0.0
 10
11.0563555158
 20
11.2124399686
 30
0.0
 10
11.0503938902
 20
11.2106237492
 30
0.0
 10
11.0420012941
 20
11.2082363247
 30
0.0
 10
11.0309512065
 20
11.2054064995
 30
0.0
 10
11.0170393036
 20
11.202296878
 30
0.0
 10
11.0023419056
 20
11.1994377137
 30
0.0
 10
10.9869267642
 20
11.1968423683
 30
0.0
 10
10.9708648293
 20
11.1945230138
 30
0.0
 10
10.9542301639
 20
11.1924905032
 30
0.0
 10
10.9370995102
 20
11.1907543466
 30
0.0
 10
10.9195519395
 20
11.1893226587
 30
0.0
 10
10.9016684742
 20
11.1882021302
 30
0.0
 10
10.8835317063
 20
11.1873979932
 30
0.0
 10
10.8652254098
 20
11.1869140031
 30
0.0
 10
10.8468341509
 20
11.1867524183
 30
0.0
 10
10.8284428899
 20
11.1869139937
 30
0.0
 10
10.8101365898
 20
11.1873979747
 30
0.0
 10
10.7919998148
 20
11.1882021026
 30
0.0
 10
10.7741163404
 20
11.1893226227
 30
0.0
 10
10.7565687586
 20
11.1907543021
 30
0.0
 10
10.7394380916
 20
11.1924904514
 30
0.0
 10
10.7228034126
 20
11.1945229545
 30
0.0
 10
10.7067414618
 20
11.196842303
 30
0.0
 10
10.6913263054
 20
11.1994376419
 30
0.0
 10
10.6766288899
 20
11.2022968021
 30
0.0
 10
10.6627169695
 20
11.2054064148
 30
0.0
 10
10.6516668655
 20
11.2082362465
 30
0.0
 10
10.6432742507
 20
11.2106236486
 30
0.0
 10
10.6373126146
 20
11.2124398872
 30
0.0
 10
10.6315930095
 20
11.2143073751
 30
0.0
 10
10.6261220048
 20
11.216224002
 30
0.0
 10
10.6209058799
 20
11.2181875033
 30
0.0
 10
10.6159505997
 20
11.2201956735
 30
0.0
 10
10.6112618829
 20
11.2222461021
 30
0.0
 10
10.6082473226
 20
11.223672856
 30
0.0
 10
10.6067870744
 20
11.2243941872
 30
0.0
  0
SPLINE
  5
354
100
AcDbEntity
  8
0
100
AcDbSpline
 62
7
  6
CONTINUOUS
 70
0
 71
3
 72
52
 73
48
 74
0
 42
0.0000001
 43
0.0000001
 44
0.0000000001
 40
0.0
 40
0.0
 40
0.0
 40
0.0
 40
0.0417979847
 40
0.0840612649
 40
0.1266597831
 40
0.1694644218
 40
0.2123439084
 40
0.2551672037
 40
0.2978033202
 40
0.3401220844
 40
0.3819945192
 40
0.4232934576
 40
0.4638940605
 40
0.5036742901
 40
0.5425155349
 40
0.580303146
 40
0.6169269932
 40
0.6522821388
 40
0.6862695151
 40
0.7187966242
 40
0.7497784458
 40
0.7646660204
 40
0.7791393811
 40
0.7931904234
 40
0.8068118629
 40
0.819997111
 40
0.832740422
 40
0.8450370034
 40
0.8568829642
 40
0.8682756655
 40
0.8792135358
 40
0.8896965874
 40
0.8997262457
 40
0.9093058756
 40
0.918440823
 40
0.9271388621
 40
0.9354105659
 40
0.9432696591
 40
0.9507337335
 40
0.9578245673
 40
0.9645690349
 40
0.9709994301
 40
0.9771542126
 40
0.9830780982
 40
0.9888220315
 40
0.9944424602
 40
1.0
 40
1.0
 40
1.0
 40
1.0
 10
10.7182009559
 20
11.0428652435
 30
0.0
 10
10.7274256678
 20
11.0422255075
 30
0.0
 10
10.7459883158
 20
11.041086388
 30
0.0
 10
10.7739804746
 20
11.0398007418
 30
0.0
 10
10.8022115029
 20
11.0389312364
 30
0.0
 10
10.8305886286
 20
11.0384807008
 30
0.0
 10
10.8590190418
 20
11.0384506531
 30
0.0
 10
10.8874095058
 20
11.0388411731
 30
0.0
 10
10.915667021
 20
11.0396509821
 30
0.0
 10
10.9436989891
 20
11.0408774026
 30
0.0
 10
10.9714135659
 20
11.0425163884
 30
0.0
 10
10.9987199516
 20
11.0445625277
 30
0.0
 10
11.0255286958
 20
11.0470090625
 30
0.0
 10
11.0517519951
 20
11.049847908
 30
0.0
 10
11.0773039822
 20
11.0530696813
 30
0.0
 10
11.1021010147
 20
11.0566637298
 30
0.0
 10
11.1260619601
 20
11.0606181634
 30
0.0
 10
11.1491084502
 20
11.064919899
 30
0.0
 10
11.1711652344
 20
11.0695546845
 30
0.0
 10
11.1921601521
 20
11.0745072025
 30
0.0
 10
11.2089296666
 20
11.078942213
 30
0.0
 10
11.2217551989
 20
11.0826471809
 30
0.0
 10
11.2309390375
 20
11.0854580308
 30
0.0
 10
11.239808166
 20
11.088335668
 30
0.0
 10
11.2483553574
 20
11.0912777134
 30
0.0
 10
11.2565736357
 20
11.0942817632
 30
0.0
 10
11.2644563004
 20
11.0973453717
 30
0.0
 10
11.2719969473
 20
11.1004659843
 30
0.0
 10
11.2791894287
 20
11.1036411281
 30
0.0
 10
11.2860279371
 20
11.1068681156
 30
0.0
 10
11.2925069037
 20
11.1101444385
 30
0.0
 10
11.2986211372
 20
11.1134673381
 30
0.0
 10
11.3043656853
 20
11.116834246
 30
0.0
 10
11.309735971
 20
11.1202424119
 30
0.0
 10
11.3147276903
 20
11.1236891957
 30
0.0
 10
11.3193368586
 20
11.1271719347
 30
0.0
 10
11.3235598374
 20
11.1306879455
 30
0.0
 10
11.3273931843
 20
11.1342347166
 30
0.0
 10
11.3308338771
 20
11.1378095971
 30
0.0
 10
11.3338789105
 20
11.1414102369
 30
0.0
 10
11.3365257006
 20
11.1450340768
 30
0.0
 10
11.3387715108
 20
11.1486787938
 30
0.0
 10
11.3406139064
 20
11.1523417953
 30
0.0
 10
11.3420503272
 20
11.1560203296
 30
0.0
 10
11.3430784348
 20
11.1597113919
 30
0.0
 10
11.3436962698
 20
11.1634107022
 30
0.0
 10
11.343833892
 20
11.1658857196
 30
0.0
 10
11.3438338943
 20
11.1671152009
 30
0.0
  0
SPLINE
  5
355
100
AcDbEntity
  8
0
100
AcDbSpline
 62
7
  6
CONTINUOUS
 70
0
 71
3
 72
15
 73
11
 74
0
 42
0.0000001
 43
0.0000001
 44
0.0000000001
 40
0.0
 40
0.0
 40
0.0
 40
0.0
 40
0.1098906142
 40
0.2214018168
 40
0.3360754298
 40
0.4553198489
 40
0.5803745049
 40
0.7122969731
 40
0.8519482966
 40
1.0
 40
1.0
 40
1.0
 40
1.0
 10
11.0308339036
 20
11.7524657789
 30
0.0
 10
11.0308338901
 20
11.7519453689
 30
0.0
 10
11.0307670322
 20
11.7508956967
 30
0.0
 10
11.0304672877
 20
11.7493287436
 30
0.0
 10
11.0299690306
 20
11.7477667103
 30
0.0
 10
11.0292735161
 20
11.7462119626
 30
0.0
 10
11.0283823307
 20
11.7446659505
 30
0.0
 10
11.0272969095
 20
11.7431300641
 30
0.0
 10
11.0260189584
 20
11.7416057367
 30
0.0
 10
11.0250685686
 20
11.7406276988
 30
0.0
 10
11.0245642778
 20
11.7401405912
 30
0.0
  0
SPLINE
  5
356
100
AcDbEntity
  8
0
100
AcDbSpline
 62
7
  6
CONTINUOUS
 70
0
 71
3
 72
15
 73
11
 74
0
 42
0.0000001
 43
0.0000001
 44
0.0000000001
 40
0.0
 40
0.0
 40
0.0
 40
0.0
 40
0.134983681
 40
0.2655173795
 40
0.3924559875
 40
0.5166294064
 40
0.6388132256
 40
0.7597087297
 40
0.8799312555
 40
1.0
 40
1.0
 40
1.0
 40
1.0
 10
10.591748153
 20
11.2318231361
 30
0.0
 10
10.5928131864
 20
11.2312974168
 30
0.0
 10
10.5949456711
 20
11.2303370606
 30
0.0
 10
10.5981940775
 20
11.2291563509
 30
0.0
 10
10.6014309613
 20
11.2282501458
 30
0.0
 10
10.6046547713
 20
11.2276051761
 30
0.0
 10
10.6078645327
 20
11.2272073621
 30
0.0
 10
10.6110595959
 20
11.2270422359
 30
0.0
 10
10.614239471
 20
11.2270952592
 30
0.0
 10
10.6163484417
 20
11.2272665036
 30
0.0
 10
10.6173984267
 20
11.2273834985
 30
0.0
  0
SPLINE
  5
357
100
AcDbEntity
  8
0
100
AcDbSpline
 62
7
  6
CONTINUOUS
 70
0
 71
3
 72
11
 73
7
 74
0
 42
0.0000001
 43
0.0000001
 44
0.0000000001
 40
0.0
 40
0.0
 40
0.0
 40
0.0
 40
0.2466535509
 40
0.4946601618
 40
0.7453484563
 40
1.0
 40
1.0
 40
1.0
 40
1.0
 10
10.5758339274
 20
11.4684840239
 30
0.0
 10
10.5758339239
 20
11.4680187541
 30
0.0
 10
10.5758698658
 20
11.4670852707
 30
0.0
 10
10.5760315056
 20
11.4656873072
 30
0.0
 10
10.5763007327
 20
11.4642906882
 30
0.0
 10
10.5765495126
 20
11.4633694863
 30
0.0
 10
10.576690903
 20
11.4629104097
 30
0.0
  0
SPLINE
  5
358
100
AcDbEntity
  8
0
100
AcDbSpline
 62
7
  6
CONTINUOUS
 70
0
 71
3
 72
60
 73
56
 74
0
 42
0.0000001
 43
0.0000001
 44
0.0000000001
 40
0.0
 40
0.0
 40
0.0
 40
0.0
 40
0.0029083125
 40
0.0058957076
 40
0.0121590036
 40
0.0188893484
 40
0.0261605298
 40
0.034027527
 40
0.0425297104
 40
0.0516938601
 40
0.0615369347
 40
0.0720678076
 40
0.0832889989
 40
0.0951978067
 40
0.107787025
 40
0.1210458794
 40
0.1349603007
 40
0.1495134458
 40
0.1646860925
 40
0.1804566906
 40
0.1968018321
 40
0.2136962738
 40
0.2311131172
 40
0.2490240787
 40
0.2673994177
 40
0.3054175507
 40
0.3449084405
 40
0.3855973185
 40
0.4271978853
 40
0.4694152289
 40
0.5119487028
 40
0.5544947496
 40
0.5967496918
 40
0.6384125333
 40
0.6791877927
 40
0.7187883473
 40
0.7569383487
 40
0.775387529
 40
0.7933773664
 40
0.8108779303
 40
0.8278606412
 40
0.8442984259
 40
0.8601657005
 40
0.8754387595
 40
0.8900957677
 40
0.9041170266
 40
0.9174853546
 40
0.9301861561
 40
0.9422080596
 40
0.9535433092
 40
0.964188337
 40
0.9741446628
 40
0.9834201045
 40
0.9920306307
 40
1.0
 40
1.0
 40
1.0
 40
1.0
 10
10.576690903
 20
11.4629104097
 30
0.0
 10
10.5768497822
 20
11.4623945492
 30
0.0
 10
10.5772131697
 20
11.4613610695
 30
0.0
 10
10.5781178732
 20
11.4592918847
 30
0.0
 10
10.5795927622
 20
11.4567075573
 30
0.0
 10
10.5818453
 20
11.4536861375
 30
0.0
 10
10.584601872
 20
11.4506984202
 30
0.0
 10
10.5878565103
 20
11.4477486288
 30
0.0
 10
10.5916032226
 20
11.4448406221
 30
0.0
 10
10.5958352478
 20
11.4419788831
 30
0.0
 10
10.6005450583
 20
11.4391682649
 30
0.0
 10
10.605724092
 20
11.436413684
 30
0.0
 10
10.61136286
 20
11.4337201854
 30
0.0
 10
10.6174509188
 20
11.4310928331
 30
0.0
 10
10.6239768704
 20
11.4285365332
 30
0.0
 10
10.6309284557
 20
11.426056213
 30
0.0
 10
10.6382925338
 20
11.4236565952
 30
0.0
 10
10.6460551452
 20
11.4213422725
 30
0.0
 10
10.6542015486
 20
11.4191177407
 30
0.0
 10
10.6627162318
 20
11.4169872286
 30
0.0
 10
10.6715829715
 20
11.4149548723
 30
0.0
 10
10.6807848551
 20
11.4130245818
 30
0.0
 10
10.6903043108
 20
11.4112000515
 30
0.0
 10
10.7001231762
 20
11.4094848121
 30
0.0
 10
10.7137438713
 20
11.4073234803
 30
0.0
 10
10.7313805718
 20
11.404929332
 30
0.0
 10
10.7531928256
 20
11.4025694889
 30
0.0
 10
10.7757205286
 20
11.4007097385
 30
0.0
 10
10.7987915202
 20
11.3993645135
 30
0.0
 10
10.8222296185
 20
11.3985442893
 30
0.0
 10
10.8458557291
 20
11.3982554328
 30
0.0
 10
10.8694893144
 20
11.3985001907
 30
0.0
 10
10.8929497786
 20
11.399276665
 30
0.0
 10
10.9160578545
 20
11.4005788277
 30
0.0
 10
10.9386370736
 20
11.4023965255
 30
0.0
 10
10.9605148757
 20
11.4047156614
 30
0.0
 10
10.9782150893
 20
11.4070765027
 30
0.0
 10
10.9918933251
 20
11.409211923
 30
0.0
 10
11.0017599092
 20
11.4109087696
 30
0.0
 10
11.0113301484
 20
11.4127154495
 30
0.0
 10
11.0205857791
 20
11.4146285159
 30
0.0
 10
11.0295091291
 20
11.4166442456
 30
0.0
 10
11.0380831708
 20
11.4187588078
 30
0.0
 10
11.0462915661
 20
11.4209680896
 30
0.0
 10
11.0541186878
 20
11.4232678504
 30
0.0
 10
11.0615496551
 20
11.4256536921
 30
0.0
 10
11.0685703866
 20
11.4281209818
 30
0.0
 10
11.0751675965
 20
11.4306650476
 30
0.0
 10
11.0813288767
 20
11.4332810039
 30
0.0
 10
11.0870427037
 20
11.4359638874
 30
0.0
 10
11.0922984367
 20
11.438708744
 30
0.0
 10
11.0970864258
 20
11.4415103996
 30
0.0
 10
11.1013981516
 20
11.4443640934
 30
0.0
 10
11.1052253285
 20
11.4472646097
 30
0.0
 10
11.1075359892
 20
11.4493029051
 30
0.0
 10
11.1085998296
 20
11.4503304961
 30
0.0
  0
SPLINE
  5
359
100
AcDbEntity
  8
0
100
AcDbSpline
 62
7
  6
CONTINUOUS
 70
0
 71
3
 72
13
 73
9
 74
0
 42
0.0000001
 43
0.0000001
 44
0.0000000001
 40
0.0
 40
0.0
 40
0.0
 40
0.0
 40
0.1107300577
 40
0.2268167239
 40
0.3474990602
 40
0.4721262276
 40
0.7310287757
 40
1.0
 40
1.0
 40
1.0
 40
1.0
 10
10.9185645992
 20
11.9933008583
 30
0.0
 10
10.9182622618
 20
11.9940983212
 30
0.0
 10
10.9176688847
 20
11.9957417131
 30
0.0
 10
10.9168230664
 20
11.9982812265
 30
0.0
 10
10.9159977065
 20
12.0009397209
 30
0.0
 10
10.9149098344
 20
12.0046678686
 30
0.0
 10
10.9136065213
 20
12.009522129
 30
0.0
 10
10.91263368
 20
12.0134699718
 30
0.0
 10
10.9121536272
 20
12.0154852202
 30
0.0
  0
SPLINE
  5
35A
100
AcDbEntity
  8
0
100
AcDbSpline
 62
7
  6
CONTINUOUS
 70
0
 71
3
 72
15
 73
11
 74
0
 42
0.0000001
 43
0.0000001
 44
0.0000000001
 40
0.0
 40
0.0
 40
0.0
 40
0.0
 40
0.1236310991
 40
0.2479193042
 40
0.3727016868
 40
0.4978315847
 40
0.6231967038
 40
0.7487136968
 40
0.8743315209
 40
1.0
 40
1.0
 40
1.0
 40
1.0
 10
10.8588864293
 20
11.9993103045
 30
0.0
 10
10.8571815362
 20
11.9997571519
 30
0.0
 10
10.8538079964
 20
12.0008343562
 30
0.0
 10
10.8489139619
 20
12.0029188616
 30
0.0
 10
10.8441863528
 20
12.0054011033
 30
0.0
 10
10.8396289279
 20
12.0082099094
 30
0.0
 10
10.8352347748
 20
12.0112844285
 30
0.0
 10
10.8309920449
 20
12.0145749388
 30
0.0
 10
10.8268871854
 20
12.018041763
 30
0.0
 10
10.8242335856
 20
12.0204494147
 30
0.0
 10
10.8229252162
 20
12.0216732315
 30
0.0
  0
SPLINE
  5
35B
100
AcDbEntity
  8
0
100
AcDbSpline
 62
7
  6
CONTINUOUS
 70
0
 71
3
 72
14
 73
10
 74
0
 42
0.0000001
 43
0.0000001
 44
0.0000000001
 40
0.0
 40
0.0
 40
0.0
 40
0.0
 40
0.1216361405
 40
0.2439923157
 40
0.3672890307
 40
0.4916482017
 40
0.6171110821
 40
0.7436904486
 40
1.0
 40
1.0
 40
1.0
 40
1.0
 10
10.7756120336
 20
11.9931396816
 30
0.0
 10
10.7747819354
 20
11.9934173429
 30
0.0
 10
10.7731398721
 20
11.9940453175
 30
0.0
 10
10.7707473218
 20
11.9951731939
 30
0.0
 10
10.7684174188
 20
11.9964656419
 30
0.0
 10
10.7661475261
 20
11.9979021782
 30
0.0
 10
10.7639335695
 20
11.9994644268
 30
0.0
 10
10.7610399788
 20
12.0017039403
 30
0.0
 10
10.7589600413
 20
12.0035153973
 30
0.0
 10
10.7576055042
 20
12.0047672525
 30
0.0
  0
SPLINE
  5
35C
100
AcDbEntity
  8
0
100
AcDbSpline
 62
7
  6
CONTINUOUS
 70
0
 71
3
 72
34
 73
30
 74
0
 42
0.0000001
 43
0.0000001
 44
0.0000000001
 40
0.0
 40
0.0
 40
0.0
 40
0.0
 40
0.0904026537
 40
0.1775170701
 40
0.2197447428
 40
0.2610346636
 40
0.3013506518
 40
0.3406588452
 40
0.3789286238
 40
0.416133423
 40
0.452251517
 40
0.4872673826
 40
0.5211718484
 40
0.5539637324
 40
0.58564999
 40
0.6162462192
 40
0.6742671158
 40
0.728344991
 40
0.7789253306
 40
0.8030819144
 40
0.8265780498
 40
0.8494924696
 40
0.8719045781
 40
0.8938931156
 40
0.9155342484
 40
0.9369005361
 40
0.958059805
 40
0.9790743505
 40
1.0
 40
1.0
 40
1.0
 40
1.0
 10
11.3144414419
 20
10.589173797
 30
0.0
 10
11.3174770554
 20
10.595123848
 30
0.0
 10
11.3235511599
 20
10.6067502557
 30
0.0
 10
11.3314016945
 20
10.6209648538
 30
0.0
 10
11.3377250495
 20
10.6318725743
 30
0.0
 10
11.3424320842
 20
10.6397192264
 30
0.0
 10
11.347152193
 20
10.6473051639
 30
0.0
 10
11.3518847601
 20
10.6546189975
 30
0.0
 10
11.3566289284
 20
10.661649728
 30
0.0
 10
11.3613837268
 20
10.6683868465
 30
0.0
 10
11.3661481089
 20
10.6748204928
 30
0.0
 10
11.370920751
 20
10.6809417405
 30
0.0
 10
11.375700422
 20
10.6867425754
 30
0.0
 10
11.3804855726
 20
10.6922162171
 30
0.0
 10
11.3852748077
 20
10.6973573593
 30
0.0
 10
11.3915529007
 20
10.7036519763
 30
0.0
 10
11.399398755
 20
10.7107125926
 30
0.0
 10
11.408986561
 20
10.7179869949
 30
0.0
 10
11.4170900546
 20
10.7230119295
 30
0.0
 10
11.4235405816
 20
10.7263457994
 30
0.0
 10
11.4282948547
 20
10.7284929214
 30
0.0
 10
11.4330380443
 20
10.7303331926
 30
0.0
 10
11.4377691754
 20
10.7318759072
 30
0.0
 10
11.4424872371
 20
10.7331310931
 30
0.0
 10
11.4471914573
 20
10.734109179
 30
0.0
 10
11.4518811637
 20
10.7348211025
 30
0.0
 10
11.4565559336
 20
10.7352779177
 30
0.0
 10
11.4612152898
 20
10.7354908609
 30
0.0
 10
11.4643155919
 20
10.7354776251
 30
0.0
 10
11.4658611314
 20
10.7354339944
 30
0.0
  0
SPLINE
  5
35D
100
AcDbEntity
  8
0
100
AcDbSpline
 62
7
  6
CONTINUOUS
 70
0
 71
3
 72
15
 73
11
 74
0
 42
0.0000001
 43
0.0000001
 44
0.0000000001
 40
0.0
 40
0.0
 40
0.0
 40
0.0
 40
0.1193921742
 40
0.2394157959
 40
0.3604989196
 40
0.4831231702
 40
0.6078138565
 40
0.735132021
 40
0.8656628834
 40
1.0
 40
1.0
 40
1.0
 40
1.0
 10
11.3144414419
 20
10.0830636943
 30
0.0
 10
11.3162112646
 20
10.083013732
 30
0.0
 10
11.3197638748
 20
10.0830109361
 30
0.0
 10
11.3251042351
 20
10.0833141971
 30
0.0
 10
11.3304649426
 20
10.0839416849
 30
0.0
 10
11.3358451428
 20
10.0849102467
 30
0.0
 10
11.3412439517
 20
10.0862364094
 30
0.0
 10
11.3466601985
 20
10.0879361568
 30
0.0
 10
11.3520921256
 20
10.0900245419
 30
0.0
 10
11.3556667089
 20
10.0916595121
 30
0.0
 10
11.3574529976
 20
10.0925414705
 30
0.0
  0
SPLINE
  5
35E
100
AcDbEntity
  8
0
100
AcDbSpline
 62
7
  6
CONTINUOUS
 70
0
 71
3
 72
46
 73
42
 74
0
 42
0.0000001
 43
0.0000001
 44
0.0000000001
 40
0.0
 40
0.0
 40
0.0
 40
0.0
 40
0.0123348316
 40
0.0191122513
 40
0.0263398568
 40
0.0340433379
 40
0.0422419093
 40
0.0509489255
 40
0.0601734772
 40
0.069920481
 40
0.0801918511
 40
0.0909866589
 40
0.1023015676
 40
0.1141313886
 40
0.1264688456
 40
0.1393054123
 40
0.1526307954
 40
0.1807002141
 40
0.2105737355
 40
0.2421307537
 40
0.2752372162
 40
0.3097476043
 40
0.3455065162
 40
0.3823500096
 40
0.4201071177
 40
0.4586009644
 40
0.4976500051
 40
0.5370693166
 40
0.5766716682
 40
0.6162686423
 40
0.6556719519
 40
0.6946944308
 40
0.7331512449
 40
0.7708611739
 40
0.8076476451
 40
0.8433399963
 40
0.8777748211
 40
0.9107971759
 40
0.9422620864
 40
0.9720362952
 40
1.0
 40
1.0
 40
1.0
 40
1.0
 10
10.6974041699
 20
11.7468447351
 30
0.0
 10
10.6979520422
 20
11.745869148
 30
0.0
 10
10.6989733147
 20
11.7444512629
 30
0.0
 10
10.7005954919
 20
11.7426960292
 30
0.0
 10
10.7020364111
 20
11.7413509786
 30
0.0
 10
10.7036607075
 20
11.7400210745
 30
0.0
 10
10.7054668591
 20
11.7387073326
 30
0.0
 10
10.7074524872
 20
11.7374113019
 30
0.0
 10
10.7096152522
 20
11.7361345695
 30
0.0
 10
10.7119524437
 20
11.734878616
 30
0.0
 10
10.7144611914
 20
11.7336450406
 30
0.0
 10
10.7171383594
 20
11.7324353738
 30
0.0
 10
10.7199805906
 20
11.731251117
 30
0.0
 10
10.7229843235
 20
11.730093824
 30
0.0
 10
10.7261457554
 20
11.7289648996
 30
0.0
 10
10.7294609083
 20
11.7278658406
 30
0.0
 10
10.7341623557
 20
11.7264168927
 30
0.0
 10
10.7403962016
 20
11.7246982466
 30
0.0
 10
10.7482934876
 20
11.7228098453
 30
0.0
 10
10.75669211
 20
11.7210710993
 30
0.0
 10
10.7655494148
 20
11.7194909803
 30
0.0
 10
10.7748204985
 20
11.718077676
 30
0.0
 10
10.7844582428
 20
11.7168384923
 30
0.0
 10
10.7944136366
 20
11.7157798344
 30
0.0
 10
10.8046360134
 20
11.7149071652
 30
0.0
 10
10.8150733291
 20
11.7142249854
 30
0.0
 10
10.8256724299
 20
11.7137368116
 30
0.0
 10
10.8363793309
 20
11.7134451605
 30
0.0
 10
10.8471394909
 20
11.7133515344
 30
0.0
 10
10.8578980957
 20
11.7134564176
 30
0.0
 10
10.868600336
 20
11.7137592713
 30
0.0
 10
10.8791916933
 20
11.7142585351
 30
0.0
 10
10.8896182211
 20
11.7149516325
 30
0.0
 10
10.8998268232
 20
11.7158349902
 30
0.0
 10
10.9097655299
 20
11.716904049
 30
0.0
 10
10.9193837637
 20
11.7181532914
 30
0.0
 10
10.928632613
 20
11.7195762639
 30
0.0
 10
10.9374650671
 20
11.7211656072
 30
0.0
 10
10.9458363645
 20
11.7229131076
 30
0.0
 10
10.9537039424
 20
11.7248096754
 30
0.0
 10
10.9587514664
 20
11.7262126469
 30
0.0
 10
10.9611810265
 20
11.7269417456
 30
0.0
  0
SPLINE
  5
35F
100
AcDbEntity
  8
0
100
AcDbSpline
 62
7
  6
CONTINUOUS
 70
0
 71
3
 72
23
 73
19
 74
0
 42
0.0000001
 43
0.0000001
 44
0.0000000001
 40
0.0
 40
0.0
 40
0.0
 40
0.0
 40
0.0584091353
 40
0.1170360604
 40
0.1759494819
 40
0.2352281827
 40
0.2949590532
 40
0.3552329696
 40
0.4161391803
 40
0.4777586721
 40
0.5401577318
 40
0.6033828172
 40
0.6674577605
 40
0.7323837239
 40
0.7981416055
 40
0.8646960864
 40
0.9320001601
 40
1.0
 40
1.0
 40
1.0
 40
1.0
 10
10.2422547471
 20
10.6505764533
 30
0.0
 10
10.2507020344
 20
10.6514639865
 30
0.0
 10
10.2676607534
 20
10.6529487303
 30
0.0
 10
10.2932221935
 20
10.6542140311
 30
0.0
 10
10.318941889
 20
10.6544314823
 30
0.0
 10
10.3448077636
 20
10.6535138357
 30
0.0
 10
10.3708013807
 20
10.6513809894
 30
0.0
 10
10.3968971529
 20
10.647965297
 30
0.0
 10
10.4230632128
 20
10.6432170351
 30
0.0
 10
10.4492630677
 20
10.6371090231
 30
0.0
 10
10.4754580598
 20
10.6296392685
 30
0.0
 10
10.5016101703
 20
10.6208313099
 30
0.0
 10
10.5276846377
 20
10.6107320814
 30
0.0
 10
10.5536519955
 20
10.5994078629
 30
0.0
 10
10.5794891711
 20
10.586938924
 30
0.0
 10
10.6051798351
 20
10.5734139325
 30
0.0
 10
10.6307137167
 20
10.5589251424
 30
0.0
 10
10.6475474259
 20
10.5487335953
 30
0.0
 10
10.6559414652
 20
10.5435065877
 30
0.0
  0
SPLINE
  5
360
100
AcDbEntity
  8
0
100
AcDbSpline
 62
7
  6
CONTINUOUS
 70
0
 71
3
 72
22
 73
18
 74
0
 42
0.0000001
 43
0.0000001
 44
0.0000000001
 40
0.0
 40
0.0
 40
0.0
 40
0.0
 40
0.0635178624
 40
0.1269375185
 40
0.190246841
 40
0.2534332483
 40
0.3164846365
 40
0.3793900307
 40
0.4421404758
 40
0.5047298524
 40
0.5671555094
 40
0.629418511
 40
0.6915234828
 40
0.7534781381
 40
0.8152925048
 40
0.8769780878
 40
1.0
 40
1.0
 40
1.0
 40
1.0
 10
10.7098622738
 20
10.5397671669
 30
0.0
 10
10.7213760716
 20
10.5436327339
 30
0.0
 10
10.744475904
 20
10.5510933331
 30
0.0
 10
10.7793694783
 20
10.5613918531
 30
0.0
 10
10.8144758633
 20
10.5706993212
 30
0.0
 10
10.8497798828
 20
10.5789249927
 30
0.0
 10
10.8852579111
 20
10.5859828691
 30
0.0
 10
10.9208772035
 20
10.5917967227
 30
0.0
 10
10.9565966458
 20
10.5963056501
 30
0.0
 10
10.9923685581
 20
10.5994691865
 30
0.0
 10
11.0281416083
 20
10.6012708619
 30
0.0
 10
11.0638643214
 20
10.6017197177
 30
0.0
 10
11.0994887008
 20
10.6008493334
 30
0.0
 10
11.1349729839
 20
10.5987147643
 30
0.0
 10
11.170284409
 20
10.5953875225
 30
0.0
 10
11.2170561879
 20
10.5894774879
 30
0.0
 10
11.2518891492
 20
10.583504922
 30
0.0
 10
11.2749686814
 20
10.5789574987
 30
0.0
  0
SPLINE
  5
361
100
AcDbEntity
  8
0
100
AcDbSpline
 62
7
  6
CONTINUOUS
 70
0
 71
3
 72
22
 73
18
 74
0
 42
0.0000001
 43
0.0000001
 44
0.0000000001
 40
0.0
 40
0.0
 40
0.0
 40
0.0
 40
0.1230219122
 40
0.1847074952
 40
0.2465218619
 40
0.3084765172
 40
0.370581489
 40
0.4328444907
 40
0.4952701476
 40
0.5578595242
 40
0.6206099694
 40
0.6835153635
 40
0.7465667517
 40
0.809753159
 40
0.8730624815
 40
0.9364821376
 40
1.0
 40
1.0
 40
1.0
 40
1.0
 10
10.7098622738
 20
10.0336570643
 30
0.0
 10
10.732941806
 20
10.029109641
 30
0.0
 10
10.7677747673
 20
10.023137075
 30
0.0
 10
10.8145465462
 20
10.0172270405
 30
0.0
 10
10.8498579714
 20
10.0138997987
 30
0.0
 10
10.8853422544
 20
10.0117652296
 30
0.0
 10
10.9209666339
 20
10.0108948453
 30
0.0
 10
10.9566893469
 20
10.0113437011
 30
0.0
 10
10.9924623972
 20
10.0131453765
 30
0.0
 10
11.0282343094
 20
10.0163089129
 30
0.0
 10
11.0639537517
 20
10.0208178403
 30
0.0
 10
11.0995730441
 20
10.0266316939
 30
0.0
 10
11.1350510725
 20
10.0336895703
 30
0.0
 10
11.1703550919
 20
10.0419152417
 30
0.0
 10
11.2054614769
 20
10.0512227099
 30
0.0
 10
11.2403550513
 20
10.0615212299
 30
0.0
 10
11.2634548836
 20
10.068981829
 30
0.0
 10
11.2749686814
 20
10.0728473961
 30
0.0
  0
SPLINE
  5
362
100
AcDbEntity
  8
0
100
AcDbSpline
 62
7
  6
CONTINUOUS
 70
0
 71
3
 72
16
 73
12
 74
0
 42
0.0000001
 43
0.0000001
 44
0.0000000001
 40
0.0
 40
0.0
 40
0.0
 40
0.0
 40
0.1480514235
 40
0.2876969267
 40
0.4196103192
 40
0.4829488084
 40
0.5446961172
 40
0.6639365715
 40
0.7786068127
 40
0.8901133951
 40
1.0
 40
1.0
 40
1.0
 40
1.0
 10
11.1085998296
 20
11.2088490252
 30
0.0
 10
11.1093426234
 20
11.209566509
 30
0.0
 10
11.110742491
 20
11.2110070982
 30
0.0
 10
11.1126247073
 20
11.2132521839
 30
0.0
 10
11.113974782
 20
11.2151626884
 30
0.0
 10
11.1149045378
 20
11.2166961731
 30
0.0
 10
11.1157165249
 20
11.2181952209
 30
0.0
 10
11.1165603245
 20
11.2200816459
 30
0.0
 10
11.1172941677
 20
11.2223822923
 30
0.0
 10
11.117735517
 20
11.2246903061
 30
0.0
 10
11.1178339106
 20
11.2262363584
 30
0.0
 10
11.117833903
 20
11.2270028684
 30
0.0
  0
SPLINE
  5
363
100
AcDbEntity
  8
0
100
AcDbSpline
 62
7
  6
CONTINUOUS
 70
0
 71
3
 72
20
 73
16
 74
0
 42
0.0000001
 43
0.0000001
 44
0.0000000001
 40
0.0
 40
0.0
 40
0.0
 40
0.0
 40
0.1497466352
 40
0.2196204517
 40
0.2864530236
 40
0.4121313854
 40
0.4718313607
 40
0.5299812213
 40
0.587065261
 40
0.643596862
 40
0.7001059114
 40
0.7571238208
 40
0.8151663096
 40
0.8747199796
 40
1.0
 40
1.0
 40
1.0
 40
1.0
 10
10.7502413268
 20
12.0180330892
 30
0.0
 10
10.749812219
 20
12.0176186029
 30
0.0
 10
10.7492118445
 20
12.0169785891
 30
0.0
 10
10.7485139122
 20
12.0160746443
 30
0.0
 10
10.747933062
 20
12.0152048701
 30
0.0
 10
10.7474680693
 20
12.0143081236
 30
0.0
 10
10.7471396197
 20
12.0133939553
 30
0.0
 10
10.7469655197
 20
12.0127179833
 30
0.0
 10
10.7468597979
 20
12.0120407546
 30
0.0
 10
10.7468225822
 20
12.0113628377
 30
0.0
 10
10.7468540005
 20
12.0106848862
 30
0.0
 10
10.7469540058
 20
12.0100075786
 30
0.0
 10
10.7471224097
 20
12.0093314542
 30
0.0
 10
10.7474429643
 20
12.0084173365
 30
0.0
 10
10.7477794885
 20
12.0077573705
 30
0.0
 10
10.7480378588
 20
12.0073303228
 30
0.0
  0
SPLINE
  5
364
100
AcDbEntity
  8
0
100
AcDbSpline
 62
7
  6
CONTINUOUS
 70
0
 71
3
 72
60
 73
56
 74
0
 42
0.0000001
 43
0.0000001
 44
0.0000000001
 40
0.0
 40
0.0
 40
0.0
 40
0.0
 40
0.0064532961
 40
0.0125273048
 40
0.0154725032
 40
0.0183829378
 40
0.0212808993
 40
0.0241890202
 40
0.030118814
 40
0.0363456356
 40
0.0430120098
 40
0.0502309176
 40
0.0580871819
 40
0.0666416621
 40
0.0759359312
 40
0.0859965778
 40
0.0968383062
 40
0.1084667146
 40
0.1208797264
 40
0.1340694242
 40
0.1480225727
 40
0.1627219575
 40
0.1781463095
 40
0.194271461
 40
0.2110700136
 40
0.2285123815
 40
0.2651963418
 40
0.2843692827
 40
0.3040460265
 40
0.3447510964
 40
0.3869829591
 40
0.4303941497
 40
0.4746241426
 40
0.5193032925
 40
0.5640572063
 40
0.6085105879
 40
0.6522914343
 40
0.695035119
 40
0.7363884036
 40
0.7760139589
 40
0.8135945568
 40
0.8315264247
 40
0.8488399815
 40
0.865503471
 40
0.881487758
 40
0.8967660396
 40
0.9113147812
 40
0.9251134088
 40
0.9381455946
 40
0.9503989967
 40
0.9618668259
 40
0.9725481902
 40
0.9824511704
 40
0.9915927436
 40
1.0
 40
1.0
 40
1.0
 40
1.0
 10
10.9456298321
 20
12.00733005
 30
0.0
 10
10.9458656557
 20
12.0077198019
 30
0.0
 10
10.9462741977
 20
12.0085081507
 30
0.0
 10
10.9466188152
 20
12.0095503604
 30
0.0
 10
10.9467751255
 20
12.0103788688
 30
0.0
 10
10.9468347138
 20
12.0109947822
 30
0.0
 10
10.9468376132
 20
12.0116109715
 30
0.0
 10
10.9467655692
 20
12.0124372786
 30
0.0
 10
10.9465279509
 20
12.0134800261
 30
0.0
 10
10.946016683
 20
12.0147123617
 30
0.0
 10
10.9452815661
 20
12.0159322734
 30
0.0
 10
10.9443260869
 20
12.0171377984
 30
0.0
 10
10.9431532112
 20
12.0183276573
 30
0.0
 10
10.9417656917
 20
12.0195002319
 30
0.0
 10
10.9401664775
 20
12.0206536696
 30
0.0
 10
10.938358866
 20
12.0217858199
 30
0.0
 10
10.9363466573
 20
12.0228944552
 30
0.0
 10
10.934134116
 20
12.0239771957
 30
0.0
 10
10.9317260376
 20
12.0250317404
 30
0.0
 10
10.9291276676
 20
12.0260557001
 30
0.0
 10
10.926344739
 20
12.0270468448
 30
0.0
 10
10.9233834029
 20
12.0280028829
 30
0.0
 10
10.920250252
 20
12.0289217239
 30
0.0
 10
10.9169522699
 20
12.0298012159
 30
0.0
 10
10.9134968226
 20
12.0306394592
 30
0.0
 10
10.9086073506
 20
12.0317175968
 30
0.0
 10
10.9035223612
 20
12.0326820065
 30
0.0
 10
10.8982601778
 20
12.0335428359
 30
0.0
 10
10.8927037415
 20
12.0343590113
 30
0.0
 10
10.8855132102
 20
12.0352435978
 30
0.0
 10
10.8766325056
 20
12.0360808786
 30
0.0
 10
10.8674844102
 20
12.0366978378
 30
0.0
 10
10.858151034
 20
12.0370888365
 30
0.0
 10
10.8487160937
 20
12.0372502902
 30
0.0
 10
10.8392642645
 20
12.0371807203
 30
0.0
 10
10.8298803653
 20
12.036880765
 30
0.0
 10
10.8206485945
 20
12.0363531705
 30
0.0
 10
10.8116517715
 20
12.0356027683
 30
0.0
 10
10.8029705141
 20
12.0346364546
 30
0.0
 10
10.794682682
 20
12.0334630624
 30
0.0
 10
10.7880659915
 20
12.0323043834
 30
0.0
 10
10.7830288089
 20
12.031275841
 30
0.0
 10
10.7794535405
 20
12.030471861
 30
0.0
 10
10.7760296106
 20
12.0296250566
 30
0.0
 10
10.7727646731
 20
12.0287373711
 30
0.0
 10
10.7696660268
 20
12.0278107648
 30
0.0
 10
10.7667405714
 20
12.0268473931
 30
0.0
 10
10.7639948142
 20
12.0258493612
 30
0.0
 10
10.7614348134
 20
12.0248189849
 30
0.0
 10
10.7590662273
 20
12.0237584756
 30
0.0
 10
10.7568941953
 20
12.0226702825
 30
0.0
 10
10.7549234149
 20
12.0215566702
 30
0.0
 10
10.7531579387
 20
12.0204199493
 30
0.0
 10
10.7516018028
 20
12.0192624796
 30
0.0
 10
10.7506681859
 20
12.0184454035
 30
0.0
 10
10.7502413268
 20
12.0180330892
 30
0.0
  0
SPLINE
  5
365
100
AcDbEntity
  8
0
100
AcDbSpline
 62
7
  6
CONTINUOUS
 70
0
 71
3
 72
64
 73
60
 74
0
 42
0.0000001
 43
0.0000001
 44
0.0000000001
 40
0.0
 40
0.0
 40
0.0
 40
0.0
 40
0.0085740654
 40
0.0179228085
 40
0.0280756004
 40
0.0390505483
 40
0.0508545589
 40
0.063485792
 40
0.0769354194
 40
0.0911891826
 40
0.1062277845
 40
0.1220278344
 40
0.138562475
 40
0.1558014116
 40
0.1737117424
 40
0.1922578592
 40
0.211401944
 40
0.2311041747
 40
0.2720128736
 40
0.3146323537
 40
0.3585883325
 40
0.4034903286
 40
0.4489368437
 40
0.4945198805
 40
0.5398300046
 40
0.5844608404
 40
0.6280139986
 40
0.6701038913
 40
0.710362656
 40
0.7296973558
 40
0.7484471256
 40
0.7665734311
 40
0.7840399917
 40
0.8008128529
 40
0.816860987
 40
0.832156191
 40
0.8466739004
 40
0.8603934729
 40
0.8732987251
 40
0.8853790766
 40
0.8966301394
 40
0.9070556979
 40
0.9166693534
 40
0.9254972738
 40
0.9335821086
 40
0.9409872762
 40
0.9478029179
 40
0.9541505803
 40
0.9571991028
 40
0.960191303
 40
0.9631508055
 40
0.9661020754
 40
0.9690698147
 40
0.9720782444
 40
0.9751505148
 40
0.9783082702
 40
0.9849526849
 40
0.9921505635
 40
1.0
 40
1.0
 40
1.0
 40
1.0
 10
10.9946205754
 20
12.0010853308
 30
0.0
 10
10.9939435462
 20
12.0004313708
 30
0.0
 10
10.9924582032
 20
11.9991360397
 30
0.0
 10
10.989975543
 20
11.9973049977
 30
0.0
 10
10.9871503658
 20
11.9955082109
 30
0.0
 10
10.9839894432
 20
11.9937497603
 30
0.0
 10
10.9804997952
 20
11.9920333957
 30
0.0
 10
10.9766894544
 20
11.9903632198
 30
0.0
 10
10.9725673483
 20
11.9887431021
 30
0.0
 10
10.9681431754
 20
11.987176977
 30
0.0
 10
10.9634274279
 20
11.9856685962
 30
0.0
 10
10.9584313353
 20
11.9842215967
 30
0.0
 10
10.9531668239
 20
11.9828395292
 30
0.0
 10
10.9476465022
 20
11.9815256887
 30
0.0
 10
10.9418836033
 20
11.9802833159
 30
0.0
 10
10.9358919653
 20
11.979115402
 30
0.0
 10
10.9296859672
 20
11.9780247568
 30
0.0
 10
10.9210367857
 20
11.97666013
 30
0.0
 10
10.9097994474
 20
11.9751745884
 30
0.0
 10
10.8958738032
 20
11.9737575394
 30
0.0
 10
10.8814768072
 20
11.9726985835
 30
0.0
 10
10.8667468681
 20
11.9720080924
 30
0.0
 10
10.851825509
 20
11.9716928587
 30
0.0
 10
10.8368561647
 20
11.9717559732
 30
0.0
 10
10.8219827359
 20
11.972196817
 30
0.0
 10
10.8073481923
 20
11.9730110656
 30
0.0
 10
10.7930931108
 20
11.9741907065
 30
0.0
 10
10.7793545194
 20
11.9757241783
 30
0.0
 10
10.7683015876
 20
11.9773047533
 30
0.0
 10
10.7598215012
 20
11.9787431065
 30
0.0
 10
10.7537567735
 20
11.9798855843
 30
0.0
 10
10.7479160635
 20
11.9811034697
 30
0.0
 10
10.7423133805
 20
11.9823938138
 30
0.0
 10
10.7369621676
 20
11.9837535248
 30
0.0
 10
10.7318752355
 20
11.9851792457
 30
0.0
 10
10.7270647533
 20
11.9866675703
 30
0.0
 10
10.7225421859
 20
11.9882148683
 30
0.0
 10
10.7183182668
 20
11.9898173933
 30
0.0
 10
10.7144029827
 20
11.9914713479
 30
0.0
 10
10.7108054849
 20
11.9931727257
 30
0.0
 10
10.7075341297
 20
11.9949176216
 30
0.0
 10
10.7045963645
 20
11.9967020303
 30
0.0
 10
10.7019987613
 20
11.9985220982
 30
0.0
 10
10.6997470922
 20
12.0003742886
 30
0.0
 10
10.6978463359
 20
12.0022552837
 30
0.0
 10
10.6963012677
 20
12.0041627304
 30
0.0
 10
10.6951169061
 20
12.006093807
 30
0.0
 10
10.6944264622
 20
12.0077439128
 30
0.0
 10
10.6940713723
 20
12.0090584541
 30
0.0
 10
10.6939010949
 20
12.0100332146
 30
0.0
 10
10.6938236426
 20
12.0110089954
 30
0.0
 10
10.6938391147
 20
12.0119850622
 30
0.0
 10
10.693947557
 20
12.0129605881
 30
0.0
 10
10.6941487256
 20
12.0139347831
 30
0.0
 10
10.6944423725
 20
12.014906962
 30
0.0
 10
10.6949655051
 20
12.016221569
 30
0.0
 10
10.6958661903
 20
12.0178651574
 30
0.0
 10
10.6972914914
 20
12.019780249
 30
0.0
 10
10.6984274443
 20
12.020984719
 30
0.0
 10
10.699047255
 20
12.0215834102
 30
0.0
  0
SPLINE
  5
366
100
AcDbEntity
  8
0
100
AcDbSpline
 62
7
  6
CONTINUOUS
 70
0
 71
3
 72
60
 73
56
 74
0
 42
0.0000001
 43
0.0000001
 44
0.0000000001
 40
0.0
 40
0.0
 40
0.0
 40
0.0
 40
0.0081222363
 40
0.016916871
 40
0.0264087717
 40
0.0366143608
 40
0.0475415594
 40
0.0591912055
 40
0.0715586118
 40
0.0846347933
 40
0.0984065829
 40
0.1128576864
 40
0.1279687673
 40
0.1437179311
 40
0.1600810164
 40
0.1770316604
 40
0.1945418157
 40
0.2125815351
 40
0.2501216305
 40
0.2893857507
 40
0.3300878885
 40
0.3719270393
 40
0.4145908369
 40
0.4577586464
 40
0.5011049481
 40
0.5443024732
 40
0.5870253682
 40
0.6289525073
 40
0.6697705337
 40
0.7091773646
 40
0.7468854002
 40
0.7650179971
 40
0.7826266263
 40
0.799681096
 40
0.8161529088
 40
0.8320154865
 40
0.8472441599
 40
0.8618167115
 40
0.8757132211
 40
0.8889168343
 40
0.9014138316
 40
0.9131943149
 40
0.9242528902
 40
0.9345892949
 40
0.9442099823
 40
0.9531291698
 40
0.9613713293
 40
0.9689735137
 40
0.9759888158
 40
0.9824901511
 40
0.9885734552
 40
0.9914974666
 40
0.9943641541
 40
0.9971919131
 40
1.0
 40
1.0
 40
1.0
 40
1.0
 10
11.0245642778
 20
11.9690650256
 30
0.0
 10
11.0238206334
 20
11.9683467203
 30
0.0
 10
11.0222016247
 20
11.9669223636
 30
0.0
 10
11.0195142287
 20
11.9648985894
 30
0.0
 10
11.0164792809
 20
11.9629086916
 30
0.0
 10
11.013102974
 20
11.9609564816
 30
0.0
 10
11.0093916326
 20
11.9590454799
 30
0.0
 10
11.0053524535
 20
11.9571794836
 30
0.0
 10
11.0009933935
 20
11.9553621247
 30
0.0
 10
10.9963230655
 20
11.9535971208
 30
0.0
 10
10.9913507817
 20
11.95188796
 30
0.0
 10
10.9860864746
 20
11.9502381671
 30
0.0
 10
10.9805407078
 20
11.9486510655
 30
0.0
 10
10.9747246303
 20
11.947129882
 30
0.0
 10
10.9686499523
 20
11.9456777457
 30
0.0
 10
10.9623289282
 20
11.9442975698
 30
0.0
 10
10.9557742978
 20
11.9429922001
 30
0.0
 10
10.9466191594
 20
11.9413329656
 30
0.0
 10
10.9346878641
 20
11.9394743366
 30
0.0
 10
10.9198450269
 20
11.9376079077
 30
0.0
 10
10.9044123853
 20
11.936092398
 30
0.0
 10
10.8885146164
 20
11.934940254
 30
0.0
 10
10.8722800639
 20
11.9341609848
 30
0.0
 10
10.855839889
 20
11.9337610027
 30
0.0
 10
10.8393269355
 20
11.9337436015
 30
0.0
 10
10.8228746487
 20
11.934108921
 30
0.0
 10
10.8066159661
 20
11.9348539542
 30
0.0
 10
10.7906822555
 20
11.9359725708
 30
0.0
 10
10.7752021476
 20
11.937455542
 30
0.0
 10
10.7603007223
 20
11.9392906889
 30
0.0
 10
10.7483135453
 20
11.9411238102
 30
0.0
 10
10.7391083949
 20
11.9427632835
 30
0.0
 10
10.7325127319
 20
11.9440547837
 30
0.0
 10
10.7261483038
 20
11.9454215602
 30
0.0
 10
10.7200279459
 20
11.9468608548
 30
0.0
 10
10.7141640009
 20
11.9483697012
 30
0.0
 10
10.7085682819
 20
11.9499450804
 30
0.0
 10
10.7032520348
 20
11.9515837187
 30
0.0
 10
10.6982259394
 20
11.953282352
 30
0.0
 10
10.6935000454
 20
11.9550374792
 30
0.0
 10
10.6890837736
 20
11.9568455806
 30
0.0
 10
10.6849858787
 20
11.9587030343
 30
0.0
 10
10.6812144029
 20
11.960606105
 30
0.0
 10
10.6777767163
 20
11.9625511544
 30
0.0
 10
10.6746793832
 20
11.9645344064
 30
0.0
 10
10.6719283136
 20
11.9665523648
 30
0.0
 10
10.669528645
 20
11.9686016006
 30
0.0
 10
10.6674850059
 20
11.9706790457
 30
0.0
 10
10.6658017188
 20
11.9727822119
 30
0.0
 10
10.6644832726
 20
11.9749081773
 30
0.0
 10
10.6636824843
 20
11.9767214381
 30
0.0
 10
10.6632400394
 20
11.9781682223
 30
0.0
 10
10.6630057953
 20
11.9792413537
 30
0.0
 10
10.6628652069
 20
11.9803157682
 30
0.0
 10
10.6628339205
 20
11.9810335642
 30
0.0
 10
10.6628339266
 20
11.981391016
 30
0.0
  0
SPLINE
  5
367
100
AcDbEntity
  8
0
100
AcDbSpline
 62
7
  6
CONTINUOUS
 70
0
 71
3
 72
11
 73
7
 74
0
 42
0.0000001
 43
0.0000001
 44
0.0000000001
 40
0.0
 40
0.0
 40
0.0
 40
0.0
 40
0.2679707222
 40
0.5243764862
 40
0.7685755503
 40
1.0
 40
1.0
 40
1.0
 40
1.0
 10
10.7965997885
 20
11.9949907036
 30
0.0
 10
10.7954545419
 20
11.9947539903
 30
0.0
 10
10.7932185026
 20
11.9942659358
 30
0.0
 10
10.7899597021
 20
11.9934703375
 30
0.0
 10
10.7868773595
 20
11.9926291794
 30
0.0
 10
10.7848916963
 20
11.9920231397
 30
0.0
 10
10.7839309319
 20
11.9917117635
 30
0.0
  0
SPLINE
  5
368
100
AcDbEntity
  8
0
100
AcDbSpline
 62
7
  6
CONTINUOUS
 70
0
 71
3
 72
23
 73
19
 74
0
 42
0.0000001
 43
0.0000001
 44
0.0000000001
 40
0.0
 40
0.0
 40
0.0
 40
0.0
 40
0.0749619564
 40
0.1455669258
 40
0.2121578921
 40
0.275160655
 40
0.3350952344
 40
0.3925803841
 40
0.4483264345
 40
0.5031208846
 40
0.5577959983
 40
0.6131898799
 40
0.6701046123
 40
0.7292755339
 40
0.7913502122
 40
0.8568808294
 40
0.9263145543
 40
1.0
 40
1.0
 40
1.0
 40
1.0
 10
10.9942395479
 20
12.0219445971
 30
0.0
 10
10.9946813366
 20
12.0215334533
 30
0.0
 10
10.9955147517
 20
12.0207080335
 30
0.0
 10
10.9966392528
 20
12.0194202338
 30
0.0
 10
10.9975981635
 20
12.0181222519
 30
0.0
 10
10.9983900552
 20
12.0168152012
 30
0.0
 10
10.9990135431
 20
12.01550021
 30
0.0
 10
10.9994673552
 20
12.0141786796
 30
0.0
 10
10.9997500546
 20
12.0128522524
 30
0.0
 10
10.9998607762
 20
12.0115230683
 30
0.0
 10
10.9997990043
 20
12.0101935198
 30
0.0
 10
10.9995649764
 20
12.008866094
 30
0.0
 10
10.9991596741
 20
12.0075429768
 30
0.0
 10
10.9985841849
 20
12.0062260083
 30
0.0
 10
10.9978399525
 20
12.0049165465
 30
0.0
 10
10.9969282265
 20
12.0036158149
 30
0.0
 10
10.995850554
 20
12.0023250573
 30
0.0
 10
10.9950472562
 20
12.0014974729
 30
0.0
 10
10.9946205754
 20
12.0010853308
 30
0.0
  0
SPLINE
  5
369
100
AcDbEntity
  8
0
100
AcDbSpline
 62
7
  6
CONTINUOUS
 70
0
 71
3
 72
15
 73
11
 74
0
 42
0.0000001
 43
0.0000001
 44
0.0000000001
 40
0.0
 40
0.0
 40
0.0
 40
0.0
 40
0.1098906517
 40
0.2214018182
 40
0.3360753656
 40
0.4553197315
 40
0.5803743582
 40
0.7122968171
 40
0.8519481781
 40
1.0
 40
1.0
 40
1.0
 40
1.0
 10
11.0308339037
 20
11.9813903202
 30
0.0
 10
11.0308338947
 20
11.9808699061
 30
0.0
 10
11.0307670447
 20
11.9798202254
 30
0.0
 10
11.0304673089
 20
11.9782532587
 30
0.0
 10
11.0299690568
 20
11.9766912115
 30
0.0
 10
11.0292735436
 20
11.9751364498
 30
0.0
 10
11.0283823562
 20
11.9735904239
 30
0.0
 10
11.0272969298
 20
11.9720545239
 30
0.0
 10
11.02601897
 20
11.9705301833
 30
0.0
 10
11.0250685728
 20
11.9695521372
 30
0.0
 10
11.0245642778
 20
11.9690650256
 30
0.0
  0
SPLINE
  5
36A
100
AcDbEntity
  8
0
100
AcDbSpline
 62
7
  6
CONTINUOUS
 70
0
 71
3
 72
41
 73
37
 74
0
 42
0.0000001
 43
0.0000001
 44
0.0000000001
 40
0.0
 40
0.0
 40
0.0
 40
0.0
 40
0.006481306
 40
0.0130002049
 40
0.0195935788
 40
0.0262969402
 40
0.0331439558
 40
0.0401659707
 40
0.0548404239
 40
0.0625493703
 40
0.0705323251
 40
0.0873865775
 40
0.1055279797
 40
0.1250445252
 40
0.1459984588
 40
0.1684314574
 40
0.1923686066
 40
0.2178212043
 40
0.2447895108
 40
0.273264393
 40
0.3032286388
 40
0.3346584159
 40
0.3675238214
 40
0.4017896431
 40
0.4374161528
 40
0.4743592518
 40
0.5125710966
 40
0.552000453
 40
0.5925927219
 40
0.6342905571
 40
0.6770339655
 40
0.7207603169
 40
0.7654049614
 40
0.8109012737
 40
0.9041692973
 40
1.0
 40
1.0
 40
1.0
 40
1.0
 10
10.3498339361
 20
10.7440393289
 30
0.0
 10
10.3498339405
 20
10.7431617269
 30
0.0
 10
10.3499037095
 20
10.7414006465
 30
0.0
 10
10.3502173537
 20
10.738763593
 30
0.0
 10
10.3507397915
 20
10.7361291068
 30
0.0
 10
10.3514705485
 20
10.7334987095
 30
0.0
 10
10.352409253
 20
10.7308734715
 30
0.0
 10
10.3539595812
 20
10.7273303945
 30
0.0
 10
10.3559162691
 20
10.7238488401
 30
0.0
 10
10.3582291061
 20
10.7204476404
 30
0.0
 10
10.3609008758
 20
10.7169404475
 30
0.0
 10
10.3647770119
 20
10.7125871156
 30
0.0
 10
10.370147956
 20
10.7075130242
 30
0.0
 10
10.376311545
 20
10.7025032607
 30
0.0
 10
10.3832575202
 20
10.6975649656
 30
0.0
 10
10.3909750761
 20
10.6927052084
 30
0.0
 10
10.3994519568
 20
10.6879315361
 30
0.0
 10
10.40867455
 20
10.6832514415
 30
0.0
 10
10.418627941
 20
10.678672554
 30
0.0
 10
10.4292958926
 20
10.6742024226
 30
0.0
 10
10.440660871
 20
10.6698484102
 30
0.0
 10
10.4527041488
 20
10.6656178328
 30
0.0
 10
10.4654057895
 20
10.6615177594
 30
0.0
 10
10.4787447105
 20
10.6575550385
 30
0.0
 10
10.4926987472
 20
10.6537363809
 30
0.0
 10
10.5072446626
 20
10.6500681681
 30
0.0
 10
10.5223582174
 20
10.6465565641
 30
0.0
 10
10.5380142088
 20
10.6432075163
 30
0.0
 10
10.5541864998
 20
10.64002661
 30
0.0
 10
10.5708480913
 20
10.6370192143
 30
0.0
 10
10.5879711549
 20
10.6341904041
 30
0.0
 10
10.6055270727
 20
10.6315448977
 30
0.0
 10
10.623486549
 20
10.6290871454
 30
0.0
 10
10.6481341394
 20
10.6260409696
 30
0.0
 10
10.6797312593
 20
10.6227436244
 30
0.0
 10
10.7052560797
 20
10.6206874367
 30
0.0
 10
10.7182009559
 20
10.6197897065
 30
0.0
  0
SPLINE
  5
36B
100
AcDbEntity
  8
0
100
AcDbSpline
 62
7
  6
CONTINUOUS
 70
0
 71
3
 72
41
 73
37
 74
0
 42
0.0000001
 43
0.0000001
 44
0.0000000001
 40
0.0
 40
0.0
 40
0.0
 40
0.0
 40
0.0064813096
 40
0.0130002089
 40
0.0195935803
 40
0.0262969365
 40
0.0331439447
 40
0.04016595
 40
0.0548403791
 40
0.0625493117
 40
0.0705322518
 40
0.087386473
 40
0.1055278433
 40
0.1250443572
 40
0.1459982608
 40
0.1684312314
 40
0.1923683554
 40
0.217820931
 40
0.2447892187
 40
0.2732640858
 40
0.3032283203
 40
0.3346580899
 40
0.3675234916
 40
0.4017893134
 40
0.4374158269
 40
0.4743589334
 40
0.5125707892
 40
0.55200016
 40
0.5925924466
 40
0.6342903027
 40
0.6770337349
 40
0.7207601128
 40
0.7654047863
 40
0.81090113
 40
0.9041692223
 40
1.0
 40
1.0
 40
1.0
 40
1.0
 10
10.3498339361
 20
11.1671150957
 30
0.0
 10
10.3498339344
 20
11.1662374927
 30
0.0
 10
10.3499036914
 20
11.1644764103
 30
0.0
 10
10.3502173183
 20
11.161839353
 30
0.0
 10
10.3507397392
 20
11.1592048628
 30
0.0
 10
10.3514704801
 20
11.1565744616
 30
0.0
 10
10.352409169
 20
11.1539492195
 30
0.0
 10
10.3539594768
 20
11.1504061373
 30
0.0
 10
10.3559161461
 20
11.146924577
 30
0.0
 10
10.3582289661
 20
11.1435233716
 30
0.0
 10
10.3609007188
 20
11.1400161728
 30
0.0
 10
10.3647768356
 20
11.1356628332
 30
0.0
 10
10.3701477594
 20
11.1305887327
 30
0.0
 10
10.3763113306
 20
11.1255789601
 30
0.0
 10
10.3832572904
 20
11.1206406559
 30
0.0
 10
10.3909748333
 20
11.1157808896
 30
0.0
 10
10.3994517035
 20
11.1110072081
 30
0.0
 10
10.4086742887
 20
11.1063271045
 30
0.0
 10
10.418627674
 20
11.1017482079
 30
0.0
 10
10.4292956223
 20
11.0972780677
 30
0.0
 10
10.4406605998
 20
11.0929240465
 30
0.0
 10
10.452703879
 20
11.0886934604
 30
0.0
 10
10.4654055233
 20
11.0845933786
 30
0.0
 10
10.4787444501
 20
11.0806306496
 30
0.0
 10
10.4926984947
 20
11.076811984
 30
0.0
 10
10.5072444201
 20
11.0731437637
 30
0.0
 10
10.5223579868
 20
11.0696321523
 30
0.0
 10
10.5380139919
 20
11.0662830976
 30
0.0
 10
10.5541862985
 20
11.0631021849
 30
0.0
 10
10.5708479071
 20
11.060094783
 30
0.0
 10
10.5879709895
 20
11.0572659671
 30
0.0
 10
10.6055269275
 20
11.0546204554
 30
0.0
 10
10.6234864254
 20
11.0521626983
 30
0.0
 10
10.6481340468
 20
11.0491165168
 30
0.0
 10
10.6797312081
 20
11.0458191657
 30
0.0
 10
10.7052560622
 20
11.0437629749
 30
0.0
 10
10.7182009559
 20
11.0428652435
 30
0.0
  0
SPLINE
  5
36C
100
AcDbEntity
  8
0
100
AcDbSpline
 62
7
  6
CONTINUOUS
 70
0
 71
3
 72
9
 73
5
 74
0
 42
0.0000001
 43
0.0000001
 44
0.0000000001
 40
0.0
 40
0.0
 40
0.0
 40
0.0
 40
0.510965577
 40
1.0
 40
1.0
 40
1.0
 40
1.0
 10
10.3497763992
 20
10.8079415656
 30
0.0
 10
10.3474779263
 20
10.8067439387
 30
0.0
 10
10.343012933
 20
10.8043354456
 30
0.0
 10
10.3386268503
 20
10.801785622
 30
0.0
 10
10.3365049449
 20
10.8005008827
 30
0.0
  0
SPLINE
  5
36D
100
AcDbEntity
  8
0
100
AcDbSpline
 62
7
  6
CONTINUOUS
 70
0
 71
3
 72
60
 73
56
 74
0
 42
0.0000001
 43
0.0000001
 44
0.0000000001
 40
0.0
 40
0.0
 40
0.0
 40
0.0
 40
0.0126337718
 40
0.024721574
 40
0.0362717809
 40
0.0472954536
 40
0.0578071578
 40
0.0678250595
 40
0.0773718165
 40
0.0864749914
 40
0.0951677075
 40
0.1034893471
 40
0.111485772
 40
0.1192097599
 40
0.1267205436
 40
0.1340831988
 40
0.1413671849
 40
0.1486444439
 40
0.1559871268
 40
0.1634653367
 40
0.1711450395
 40
0.179086687
 40
0.1873442356
 40
0.195964858
 40
0.2049891269
 40
0.2144512226
 40
0.2243797985
 40
0.2347982497
 40
0.2457256508
 40
0.2571771134
 40
0.2691643457
 40
0.2816962268
 40
0.2947788855
 40
0.3084164328
 40
0.3226108118
 40
0.3373623777
 40
0.3526698876
 40
0.3685306739
 40
0.3849409655
 40
0.4018956658
 40
0.4193888747
 40
0.4374135721
 40
0.4559619989
 40
0.4750255676
 40
0.5146590433
 40
0.5562323757
 40
0.5996531649
 40
0.6448204431
 40
0.6916255931
 40
0.739953237
 40
0.7896818212
 40
0.84068467
 40
0.8928293924
 40
0.9459818346
 40
1.0
 40
1.0
 40
1.0
 40
1.0
 10
10.3365049449
 20
10.8005008827
 30
0.0
 10
10.3346002455
 20
10.7993476539
 30
0.0
 10
10.3309089434
 20
10.7970310913
 30
0.0
 10
10.3256178753
 20
10.7934409899
 30
0.0
 10
10.3206991857
 20
10.7898152646
 30
0.0
 10
10.3161564545
 20
10.786156282
 30
0.0
 10
10.3119927627
 20
10.782466564
 30
0.0
 10
10.3082111242
 20
10.7787483892
 30
0.0
 10
10.3048142206
 20
10.7750041483
 30
0.0
 10
10.3018045808
 20
10.7712361317
 30
0.0
 10
10.299184666
 20
10.7674465619
 30
0.0
 10
10.2969566447
 20
10.7636378175
 30
0.0
 10
10.2951228988
 20
10.7598121876
 30
0.0
 10
10.2936853923
 20
10.7559723595
 30
0.0
 10
10.2926462392
 20
10.7521211814
 30
0.0
 10
10.2920070395
 20
10.748261999
 30
0.0
 10
10.2917689275
 20
10.7443984957
 30
0.0
 10
10.2919324784
 20
10.740534625
 30
0.0
 10
10.2924971906
 20
10.7366743392
 30
0.0
 10
10.2934622391
 20
10.7328214304
 30
0.0
 10
10.2948258363
 20
10.728979239
 30
0.0
 10
10.2965861886
 20
10.72515079
 30
0.0
 10
10.2987411208
 20
10.7213387127
 30
0.0
 10
10.3012884117
 20
10.7175454017
 30
0.0
 10
10.3042258636
 20
10.7137732311
 30
0.0
 10
10.3075509899
 20
10.7100243658
 30
0.0
 10
10.311261404
 20
10.7063012162
 30
0.0
 10
10.3153543189
 20
10.7026059966
 30
0.0
 10
10.3198269014
 20
10.6989411502
 30
0.0
 10
10.3246759953
 20
10.6953090591
 30
0.0
 10
10.3298982021
 20
10.691712124
 30
0.0
 10
10.3354899121
 20
10.6881528743
 30
0.0
 10
10.3414471582
 20
10.6846336572
 30
0.0
 10
10.3477658071
 20
10.6811570402
 30
0.0
 10
10.3544413695
 20
10.6777253701
 30
0.0
 10
10.3614691553
 20
10.6743411272
 30
0.0
 10
10.3688441853
 20
10.6710067029
 30
0.0
 10
10.3765612218
 20
10.6677244333
 30
0.0
 10
10.3846148003
 20
10.6644967352
 30
0.0
 10
10.3929991697
 20
10.6613258221
 30
0.0
 10
10.4017083786
 20
10.658214055
 30
0.0
 10
10.410736202
 20
10.6551635972
 30
0.0
 10
10.4200762199
 20
10.6521766481
 30
0.0
 10
10.4331061952
 20
10.6482304372
 30
0.0
 10
10.4501314778
 20
10.6434840865
 30
0.0
 10
10.4714399385
 20
10.6381457422
 30
0.0
 10
10.4938223104
 20
10.6331088409
 30
0.0
 10
10.5172146207
 20
10.6283879236
 30
0.0
 10
10.5415501559
 20
10.623996641
 30
0.0
 10
10.5667593721
 20
10.6199476809
 30
0.0
 10
10.5927702425
 20
10.6162527185
 30
0.0
 10
10.6195082793
 20
10.6129224582
 30
0.0
 10
10.6468972231
 20
10.6099664342
 30
0.0
 10
10.6748583746
 20
10.6073932808
 30
0.0
 10
10.6936919447
 20
10.6059483728
 30
0.0
 10
10.7031894637
 20
10.6052897176
 30
0.0
  0
SPLINE
  5
36E
100
AcDbEntity
  8
0
100
AcDbSpline
 62
7
  6
CONTINUOUS
 70
0
 71
3
 72
26
 73
22
 74
0
 42
0.0000001
 43
0.0000001
 44
0.0000000001
 40
0.0
 40
0.0
 40
0.0
 40
0.0
 40
0.0211531731
 40
0.0430721735
 40
0.0657533535
 40
0.0891916395
 40
0.1133802423
 40
0.138311365
 40
0.1903615696
 40
0.2452581438
 40
0.3028995693
 40
0.3631708578
 40
0.4259451837
 40
0.4910851139
 40
0.5584437709
 40
0.6278658296
 40
0.6991882266
 40
0.772241485
 40
0.8468486117
 40
0.9228315075
 40
1.0
 40
1.0
 40
1.0
 40
1.0
 10
10.3702828604
 20
10.0757125019
 30
0.0
 10
10.372471833
 20
10.0746311839
 30
0.0
 10
10.3769571143
 20
10.0724858689
 30
0.0
 10
10.383878029
 20
10.0693704224
 30
0.0
 10
10.3911073949
 20
10.0663021469
 30
0.0
 10
10.3986403804
 20
10.0632831752
 30
0.0
 10
10.4064720007
 20
10.0603153962
 30
0.0
 10
10.4174637606
 20
10.0563727067
 30
0.0
 10
10.4319202477
 20
10.0515994912
 30
0.0
 10
10.4501316688
 20
10.0461856074
 30
0.0
 10
10.4693992825
 20
10.0410210304
 30
0.0
 10
10.4896718841
 20
10.0361196266
 30
0.0
 10
10.5108957583
 20
10.0314945771
 30
0.0
 10
10.5330145214
 20
10.0271583167
 30
0.0
 10
10.5559693812
 20
10.0231225067
 30
0.0
 10
10.5796992651
 20
10.0193980022
 30
0.0
 10
10.6041410398
 20
10.015994796
 30
0.0
 10
10.6292295085
 20
10.0129220624
 30
0.0
 10
10.654898104
 20
10.0101879698
 30
0.0
 10
10.6810780839
 20
10.0077999742
 30
0.0
 10
10.6987039889
 20
10.0064522414
 30
0.0
 10
10.7075893838
 20
10.0058360371
 30
0.0
  0
SPLINE
  5
36F
100
AcDbEntity
  8
0
100
AcDbSpline
 62
7
  6
CONTINUOUS
 70
0
 71
3
 72
22
 73
18
 74
0
 42
0.0000001
 43
0.0000001
 44
0.0000000001
 40
0.0
 40
0.0
 40
0.0
 40
0.0
 40
0.1331593021
 40
0.1987168375
 40
0.2635800813
 40
0.3277573214
 40
0.391268823
 40
0.4541464597
 40
0.5164324239
 40
0.5781771442
 40
0.6394366785
 40
0.7002699033
 40
0.7607358311
 40
0.8208913641
 40
0.880789464
 40
0.9404782696
 40
1.0
 40
1.0
 40
1.0
 40
1.0
 10
10.3247989554
 20
10.0981806841
 30
0.0
 10
10.3383923461
 20
10.0914645496
 30
0.0
 10
10.3589704751
 20
10.08201116
 30
0.0
 10
10.3868332584
 20
10.0708458955
 30
0.0
 10
10.4076798912
 20
10.0633226184
 30
0.0
 10
10.4285654368
 20
10.0566363962
 30
0.0
 10
10.449471937
 20
10.0508071046
 30
0.0
 10
10.4703799505
 20
10.0458450495
 30
0.0
 10
10.4912700117
 20
10.0417500969
 30
0.0
 10
10.5121233669
 20
10.0385118195
 30
0.0
 10
10.5329228302
 20
10.0361101786
 30
0.0
 10
10.5536534154
 20
10.0345167638
 30
0.0
 10
10.5743027659
 20
10.0336963888
 30
0.0
 10
10.5948612989
 20
10.0336088565
 30
0.0
 10
10.6153222776
 20
10.0342107121
 30
0.0
 10
10.6356812349
 20
10.0354568226
 30
0.0
 10
10.6492011996
 20
10.0366883039
 30
0.0
 10
10.6559414652
 20
10.037396485
 30
0.0
  0
SPLINE
  5
370
100
AcDbEntity
  8
0
100
AcDbSpline
 62
7
  6
CONTINUOUS
 70
0
 71
3
 72
52
 73
48
 74
0
 42
0.0000001
 43
0.0000001
 44
0.0000000001
 40
0.0
 40
0.0
 40
0.0
 40
0.0
 40
0.0055575414
 40
0.0111779679
 40
0.0169218956
 40
0.0228457728
 40
0.0290005444
 40
0.0354309268
 40
0.04217538
 40
0.0492661984
 40
0.0567302567
 40
0.0645893333
 40
0.0728610204
 40
0.0815590429
 40
0.0906939739
 40
0.1002735878
 40
0.1103032306
 40
0.1207862673
 40
0.1317241233
 40
0.1431168112
 40
0.1549627595
 40
0.1672593291
 40
0.1800026293
 40
0.1931878674
 40
0.206809298
 40
0.2208603323
 40
0.235333686
 40
0.2502212546
 40
0.2812030671
 40
0.313730171
 40
0.3477175459
 40
0.3830726938
 40
0.4196965468
 40
0.457484167
 40
0.4963254241
 40
0.5361056689
 40
0.5767062894
 40
0.618005248
 40
0.6598777048
 40
0.7021964928
 40
0.7448326345
 40
0.7876559561
 40
0.8305354697
 40
0.8733401358
 40
0.9159386815
 40
0.9582019888
 40
1.0
 40
1.0
 40
1.0
 40
1.0
 10
11.3438338943
 20
10.7440398937
 30
0.0
 10
11.3438339004
 20
10.7428104117
 30
0.0
 10
11.3436962952
 20
10.7403353925
 30
0.0
 10
11.3430784847
 20
10.7366360782
 30
0.0
 10
11.3420504005
 20
10.7329450117
 30
0.0
 10
11.3406140024
 20
10.7292664729
 30
0.0
 10
11.3387716284
 20
10.7256034668
 30
0.0
 10
11.336525839
 20
10.7219587451
 30
0.0
 10
11.3338790687
 20
10.7183349005
 30
0.0
 10
11.3308340542
 20
10.7147342558
 30
0.0
 10
11.3273933792
 20
10.7111593704
 30
0.0
 10
11.3235600494
 20
10.7076125943
 30
0.0
 10
11.3193370867
 20
10.7040965784
 30
0.0
 10
11.3147279335
 20
10.7006138342
 30
0.0
 10
11.3097362285
 20
10.6971670452
 30
0.0
 10
11.3043659561
 20
10.6937588739
 30
0.0
 10
11.2986214203
 20
10.6903919608
 30
0.0
 10
11.2925071983
 20
10.6870690558
 30
0.0
 10
11.2860282421
 20
10.6837927275
 30
0.0
 10
11.2791897432
 20
10.6805657346
 30
0.0
 10
11.2719972704
 20
10.6773905853
 30
0.0
 10
11.2644566311
 20
10.6742699672
 30
0.0
 10
11.2565739731
 20
10.6712063532
 30
0.0
 10
11.2483557005
 20
10.668202298
 30
0.0
 10
11.2398085139
 20
10.6652602472
 30
0.0
 10
11.2309393894
 20
10.6623826046
 30
0.0
 10
11.2217555538
 20
10.6595717494
 30
0.0
 10
11.2089300239
 20
10.6558667741
 30
0.0
 10
11.1921605102
 20
10.6514317548
 30
0.0
 10
11.1711655908
 20
10.6464792267
 30
0.0
 10
11.1491088016
 20
10.6418444314
 30
0.0
 10
11.1260623035
 20
10.6375426866
 30
0.0
 10
11.1021013472
 20
10.6335882442
 30
0.0
 10
11.0773043009
 20
10.6299941873
 30
0.0
 10
11.0517522977
 20
10.6267724063
 30
0.0
 10
11.02552898
 20
10.6239335537
 30
0.0
 10
10.9987202152
 20
10.6214870125
 30
0.0
 10
10.9714138071
 20
10.6194408674
 30
0.0
 10
10.9436992064
 20
10.6178018766
 30
0.0
 10
10.915667213
 20
10.6165754519
 30
0.0
 10
10.8874096715
 20
10.6157656395
 30
0.0
 10
10.8590191803
 20
10.6153751168
 30
0.0
 10
10.8305887395
 20
10.6154051627
 30
0.0
 10
10.8022115858
 20
10.6158556973
 30
0.0
 10
10.7739805296
 20
10.6167252025
 30
0.0
 10
10.7459883431
 20
10.6180108494
 30
0.0
 10
10.7274256768
 20
10.6191499699
 30
0.0
 10
10.7182009559
 20
10.6197897065
 30
0.0
  0
SPLINE
  5
371
100
AcDbEntity
  8
0
100
AcDbSpline
 62
7
  6
CONTINUOUS
 70
0
 71
3
 72
15
 73
11
 74
0
 42
0.0000001
 43
0.0000001
 44
0.0000000001
 40
0.0
 40
0.0
 40
0.0
 40
0.0
 40
0.1241554919
 40
0.2484037789
 40
0.3727814328
 40
0.497362017
 40
0.6222365325
 40
0.7475284834
 40
0.8733900197
 40
1.0
 40
1.0
 40
1.0
 40
1.0
 10
10.9121536272
 20
12.0154852202
 30
0.0
 10
10.910844748
 20
12.0144424686
 30
0.0
 10
10.9081893525
 20
12.0124015521
 30
0.0
 10
10.9040829734
 20
12.0095032029
 30
0.0
 10
10.8998379648
 20
12.0068000553
 30
0.0
 10
10.8954404779
 20
12.0043337254
 30
0.0
 10
10.890878329
 20
12.0021557799
 30
0.0
 10
10.8861444337
 20
12.0003284488
 30
0.0
 10
10.881242918
 20
11.9989230726
 30
0.0
 10
10.8778861198
 20
11.9983191279
 30
0.0
 10
10.8761924141
 20
11.9981101303
 30
0.0
  0
SPLINE
  5
372
100
AcDbEntity
  8
0
100
AcDbSpline
 62
7
  6
CONTINUOUS
 70
0
 71
3
 72
66
 73
62
 74
0
 42
0.0000001
 43
0.0000001
 44
0.0000000001
 40
0.0
 40
0.0
 40
0.0
 40
0.0
 40
0.0116733237
 40
0.0227144193
 40
0.0331301438
 40
0.0429320895
 40
0.0521376681
 40
0.060771299
 40
0.0688657298
 40
0.0764638521
 40
0.0836201624
 40
0.0904023915
 40
0.0936797083
 40
0.0968952124
 40
0.1000610857
 40
0.1031901619
 40
0.1062957907
 40
0.1093916444
 40
0.1124915401
 40
0.1156092374
 40
0.1187582331
 40
0.1219515966
 40
0.1252018128
 40
0.1285206306
 40
0.135404396
 40
0.1426834695
 40
0.1504215843
 40
0.1586696817
 40
0.1674675292
 40
0.1768452436
 40
0.1868251041
 40
0.1974226574
 40
0.2086480693
 40
0.2205068739
 40
0.2330007565
 40
0.2461281994
 40
0.2598847602
 40
0.2742636897
 40
0.2892559471
 40
0.3048506996
 40
0.3210353518
 40
0.3377957665
 40
0.3551164502
 40
0.3729805345
 40
0.3913700929
 40
0.4102659998
 40
0.4296482157
 40
0.4494957035
 40
0.4697865831
 40
0.4904982103
 40
0.5330885569
 40
0.5770722711
 40
0.6222447965
 40
0.6683938092
 40
0.7153007603
 40
0.7627423421
 40
0.8104918972
 40
0.8583208585
 40
0.9060003172
 40
0.9533016843
 40
1.0
 40
1.0
 40
1.0
 40
1.0
 10
11.3440049441
 20
10.807882376
 30
0.0
 10
11.3468729236
 20
10.8063862717
 30
0.0
 10
11.3524021897
 20
10.803374822
 30
0.0
 10
11.3602801744
 20
10.7986555875
 30
0.0
 10
11.3675016116
 20
10.7938659315
 30
0.0
 10
11.3740574637
 20
10.7890115473
 30
0.0
 10
11.3799397171
 20
10.7840979474
 30
0.0
 10
11.3851411422
 20
10.7791304864
 30
0.0
 10
11.3896549729
 20
10.7741141518
 30
0.0
 10
11.3934750992
 20
10.7690536214
 30
0.0
 10
11.3965949687
 20
10.7639541005
 30
0.0
 10
11.3986292915
 20
10.759625926
 30
0.0
 10
11.3998827871
 20
10.7561652825
 30
0.0
 10
11.400634533
 20
10.7535945645
 30
0.0
 10
11.4012079682
 20
10.7510203352
 30
0.0
 10
11.4016027961
 20
10.7484434429
 30
0.0
 10
11.4018188621
 20
10.7458648774
 30
0.0
 10
11.4018560527
 20
10.7432856073
 30
0.0
 10
11.4017142703
 20
10.7407066267
 30
0.0
 10
11.4013936329
 20
10.7381289293
 30
0.0
 10
11.4008943602
 20
10.7355534703
 30
0.0
 10
11.4002166897
 20
10.7329812078
 30
0.0
 10
11.399360874
 20
10.7304129938
 30
0.0
 10
11.3979662391
 20
10.7269536892
 30
0.0
 10
11.3957556988
 20
10.7226304812
 30
0.0
 10
11.3924305091
 20
10.7175420181
 30
0.0
 10
11.3884069452
 20
10.7124938851
 30
0.0
 10
11.38369146
 20
10.7074913391
 30
0.0
 10
11.3782902861
 20
10.7025391024
 30
0.0
 10
11.3722103514
 20
10.6976422299
 30
0.0
 10
11.3654590519
 20
10.6928062132
 30
0.0
 10
11.3580447315
 20
10.6880365267
 30
0.0
 10
11.3499764777
 20
10.6833389407
 30
0.0
 10
11.3412643077
 20
10.6787191863
 30
0.0
 10
11.3319191002
 20
10.6741829946
 30
0.0
 10
11.3219525674
 20
10.6697361495
 30
0.0
 10
11.3113773057
 20
10.6653842058
 30
0.0
 10
11.3002066828
 20
10.6611328223
 30
0.0
 10
11.288454907
 20
10.6569873582
 30
0.0
 10
11.2761369259
 20
10.6529531982
 30
0.0
 10
11.2632684503
 20
10.6490355078
 30
0.0
 10
11.2498659125
 20
10.6452393143
 30
0.0
 10
11.2359464409
 20
10.6415695583
 30
0.0
 10
11.2215278505
 20
10.638030897
 30
0.0
 10
11.2066285925
 20
10.6346279703
 30
0.0
 10
11.1912677518
 20
10.6313650926
 30
0.0
 10
11.1754650075
 20
10.6282465176
 30
0.0
 10
11.1592406213
 20
10.6252762498
 30
0.0
 10
11.1426153735
 20
10.6224580817
 30
0.0
 10
11.1197295281
 20
10.618875014
 30
0.0
 10
11.0902754798
 20
10.6148149283
 30
0.0
 10
11.0540036518
 20
10.6106458037
 30
0.0
 10
11.0166695954
 20
10.6071573044
 30
0.0
 10
10.9784647873
 20
10.6043675151
 30
0.0
 10
10.9395850107
 20
10.6022909336
 30
0.0
 10
10.9002296175
 20
10.6009383291
 30
0.0
 10
10.8606004075
 20
10.6003167225
 30
0.0
 10
10.8209005883
 20
10.6004293261
 30
0.0
 10
10.7813337889
 20
10.6012755799
 30
0.0
 10
10.7421029792
 20
10.6028510482
 30
0.0
 10
10.7160988654
 20
10.6043944475
 30
0.0
 10
10.7031894637
 20
10.6052897176
 30
0.0
  0
SPLINE
  5
373
100
AcDbEntity
  8
0
100
AcDbSpline
 62
7
  6
CONTINUOUS
 70
0
 71
3
 72
32
 73
28
 74
0
 42
0.0000001
 43
0.0000001
 44
0.0000000001
 40
0.0
 40
0.0
 40
0.0
 40
0.0
 40
0.0193647161
 40
0.0398584623
 40
0.0614689401
 40
0.0841782294
 40
0.107963708
 40
0.1327985128
 40
0.1586519565
 40
0.1854900841
 40
0.213275891
 40
0.2419695715
 40
0.2715288864
 40
0.3019092744
 40
0.3330640371
 40
0.3649446309
 40
0.3975007438
 40
0.4306804076
 40
0.4644302801
 40
0.4986957304
 40
0.5685477531
 40
0.6397797862
 40
0.7119217621
 40
0.7844957666
 40
0.8570202431
 40
0.9290134093
 40
1.0
 40
1.0
 40
1.0
 40
1.0
 10
11.3233841879
 20
10.0757121245
 30
0.0
 10
11.3197673645
 20
10.0739254914
 30
0.0
 10
11.3122454148
 20
10.0704033802
 30
0.0
 10
11.3004580967
 20
10.0653943997
 30
0.0
 10
11.287865285
 20
10.0605178526
 30
0.0
 10
11.2744893324
 20
10.0557824717
 30
0.0
 10
11.2603536681
 20
10.0511966839
 30
0.0
 10
11.2454832416
 20
10.0467686892
 30
0.0
 10
11.2299043369
 20
10.042506363
 30
0.0
 10
11.2136445261
 20
10.0384173556
 30
0.0
 10
11.1967326201
 20
10.034508992
 30
0.0
 10
11.1791986212
 20
10.0307882326
 30
0.0
 10
11.1610736454
 20
10.0272617552
 30
0.0
 10
11.1423898763
 20
10.023935882
 30
0.0
 10
11.1231805106
 20
10.0208165309
 30
0.0
 10
11.1034796782
 20
10.017909297
 30
0.0
 10
11.0833223915
 20
10.0152193927
 30
0.0
 10
11.0627444995
 20
10.0127516036
 30
0.0
 10
11.041782556
 20
10.0105103263
 30
0.0
 10
11.013188564
 20
10.0078122578
 30
0.0
 10
10.9767612732
 20
10.0050434259
 30
0.0
 10
10.93240057
 20
10.0026971351
 30
0.0
 10
10.8874317806
 20
10.0013233844
 30
0.0
 10
10.8421745886
 20
10.0009320345
 30
0.0
 10
10.796950516
 20
10.0015259671
 30
0.0
 10
10.7520810433
 20
10.0031008189
 30
0.0
 10
10.7223418085
 20
10.004812953
 30
0.0
 10
10.7075893838
 20
10.0058360371
 30
0.0
  0
SPLINE
  5
374
100
AcDbEntity
  8
0
100
AcDbSpline
 62
7
  6
CONTINUOUS
 70
0
 71
3
 72
15
 73
11
 74
0
 42
0.0000001
 43
0.0000001
 44
0.0000000001
 40
0.0
 40
0.0
 40
0.0
 40
0.0
 40
0.1327560962
 40
0.2641561511
 40
0.3938656442
 40
0.5214843045
 40
0.6465070073
 40
0.768342422
 40
0.8863569741
 40
1.0
 40
1.0
 40
1.0
 40
1.0
 10
10.8229252162
 20
12.0216732315
 30
0.0
 10
10.8219715144
 20
12.0202981538
 30
0.0
 10
10.820039374
 20
12.0175856882
 30
0.0
 10
10.8170383111
 20
12.0136294932
 30
0.0
 10
10.81393759
 20
12.0098336456
 30
0.0
 10
10.8107276123
 20
12.0062360026
 30
0.0
 10
10.8073999004
 20
12.0028843006
 30
0.0
 10
10.8039490188
 20
11.9998373441
 30
0.0
 10
10.8003766131
 20
11.9971649933
 30
0.0
 10
10.7978696326
 20
11.9956537097
 30
0.0
 10
10.7965997885
 20
11.9949907036
 30
0.0
  0
SPLINE
  5
375
100
AcDbEntity
  8
0
100
AcDbSpline
 62
7
  6
CONTINUOUS
 70
0
 71
3
 72
54
 73
50
 74
0
 42
0.0000001
 43
0.0000001
 44
0.0000000001
 40
0.0
 40
0.0
 40
0.0
 40
0.0
 40
0.0098430239
 40
0.0192579511
 40
0.028266993
 40
0.0368967155
 40
0.0531364371
 40
0.0608347269
 40
0.0683084855
 40
0.0756090563
 40
0.0827918768
 40
0.089915423
 40
0.097039799
 40
0.1042250756
 40
0.1115296881
 40
0.1190089473
 40
0.1267140754
 40
0.1429709965
 40
0.1516107531
 40
0.1606306283
 40
0.1700570022
 40
0.1799120858
 40
0.1902141866
 40
0.2009785017
 40
0.212217185
 40
0.2239397864
 40
0.2361537983
 40
0.2488645022
 40
0.2620755446
 40
0.275789101
 40
0.2900057408
 40
0.304725013
 40
0.3199452797
 40
0.3356637954
 40
0.3685794719
 40
0.4034353379
 40
0.4401817715
 40
0.4787594059
 40
0.5191002764
 40
0.5611287685
 40
0.6047625515
 40
0.6499132861
 40
0.6964871591
 40
0.7443853038
 40
0.7935046666
 40
0.8437381405
 40
0.8949741093
 40
0.9471020577
 40
1.0
 40
1.0
 40
1.0
 40
1.0
 10
10.4277411821
 20
11.25717051
 30
0.0
 10
10.4268029398
 20
11.2562973905
 30
0.0
 10
10.4250066316
 20
11.2545460095
 30
0.0
 10
10.4225073961
 20
11.2518417426
 30
0.0
 10
10.4202660646
 20
11.2491210294
 30
0.0
 10
10.41767671
 20
11.2455475499
 30
0.0
 10
10.4155324004
 20
11.2418678584
 30
0.0
 10
10.4139109501
 20
11.2381085749
 30
0.0
 10
10.4129809933
 20
11.2353301601
 30
0.0
 10
10.4123169351
 20
11.2325453074
 30
0.0
 10
10.4119195389
 20
11.2297559011
 30
0.0
 10
10.4117895189
 20
11.2269641994
 30
0.0
 10
10.4119269055
 20
11.224172534
 30
0.0
 10
10.4123315959
 20
11.2213832162
 30
0.0
 10
10.4130030073
 20
11.2185985259
 30
0.0
 10
10.4139402404
 20
11.2158203169
 30
0.0
 10
10.4155716289
 20
11.2120611516
 30
0.0
 10
10.4177255555
 20
11.2083820081
 30
0.0
 10
10.4203241728
 20
11.2048091307
 30
0.0
 10
10.4225726202
 20
11.2020888678
 30
0.0
 10
10.4250789505
 20
11.1993849889
 30
0.0
 10
10.4278418702
 20
11.1966985471
 30
0.0
 10
10.4308595529
 20
11.194031056
 30
0.0
 10
10.434130265
 20
11.191384042
 30
0.0
 10
10.4376520202
 20
11.1887589938
 30
0.0
 10
10.4414226979
 20
11.1861573814
 30
0.0
 10
10.4454400944
 20
11.1835808049
 30
0.0
 10
10.4497017679
 20
11.1810307161
 30
0.0
 10
10.4542051759
 20
11.1785086442
 30
0.0
 10
10.4589476345
 20
11.1760161473
 30
0.0
 10
10.4639262573
 20
11.1735546489
 30
0.0
 10
10.4691380623
 20
11.1711256962
 30
0.0
 10
10.4745799059
 20
11.1687307314
 30
0.0
 10
10.4822563841
 20
11.1655354923
 30
0.0
 10
10.4924112569
 20
11.161647408
 30
0.0
 10
10.5052785297
 20
11.1572085998
 30
0.0
 10
10.5189768864
 20
11.1529386596
 30
0.0
 10
10.5334731154
 20
11.1488480604
 30
0.0
 10
10.5487322076
 20
11.1449468421
 30
0.0
 10
10.5647171539
 20
11.14124457
 30
0.0
 10
10.5813891579
 20
11.1377503423
 30
0.0
 10
10.5987077194
 20
11.1344727591
 30
0.0
 10
10.6166307187
 20
11.1314198663
 30
0.0
 10
10.6351145502
 20
11.1285991409
 30
0.0
 10
10.6541142329
 20
11.1260175161
 30
0.0
 10
10.6735834063
 20
11.1236813624
 30
0.0
 10
10.6934749729
 20
11.1215963214
 30
0.0
 10
10.7137400402
 20
11.1197676327
 30
0.0
 10
10.7273764204
 20
11.1187291629
 30
0.0
 10
10.7342477235
 20
11.1182526364
 30
0.0
  0
SPLINE
  5
376
100
AcDbEntity
  8
0
100
AcDbSpline
 62
7
  6
CONTINUOUS
 70
0
 71
3
 72
60
 73
56
 74
0
 42
0.0000001
 43
0.0000001
 44
0.0000000001
 40
0.0
 40
0.0
 40
0.0
 40
0.0
 40
0.0081222414
 40
0.0169168816
 40
0.0264087866
 40
0.0366143821
 40
0.0475415905
 40
0.0591912493
 40
0.0715586647
 40
0.0846348479
 40
0.098406648
 40
0.1128577747
 40
0.127968871
 40
0.1437180406
 40
0.160081135
 40
0.1770317977
 40
0.1945419791
 40
0.2125817114
 40
0.250121824
 40
0.2893859917
 40
0.3300881417
 40
0.3719273433
 40
0.4145911502
 40
0.4577590001
 40
0.5011053144
 40
0.5443028585
 40
0.5870257719
 40
0.6289529119
 40
0.6697709467
 40
0.7091777726
 40
0.7468857915
 40
0.7650183901
 40
0.7826270107
 40
0.7996814573
 40
0.8161532565
 40
0.8320158302
 40
0.8472444911
 40
0.8618170191
 40
0.8757135005
 40
0.8889170941
 40
0.9014140802
 40
0.9131945391
 40
0.9242530793
 40
0.934589459
 40
0.9442101269
 40
0.9531292893
 40
0.9613714202
 40
0.9689735769
 40
0.9759888588
 40
0.9824901798
 40
0.9885734679
 40
0.9914974722
 40
0.9943641549
 40
0.9971919122
 40
1.0
 40
1.0
 40
1.0
 40
1.0
 10
11.0245642778
 20
11.7401405912
 30
0.0
 10
11.0238206328
 20
11.7394222853
 30
0.0
 10
11.0222016225
 20
11.7379979274
 30
0.0
 10
11.0195142241
 20
11.7359741516
 30
0.0
 10
11.0164792735
 20
11.7339842525
 30
0.0
 10
11.013102963
 20
11.7320320412
 30
0.0
 10
11.009391617
 20
11.7301210378
 30
0.0
 10
11.0053524328
 20
11.7282550402
 30
0.0
 10
11.0009933684
 20
11.7264376804
 30
0.0
 10
10.9963230364
 20
11.7246726756
 30
0.0
 10
10.9913507465
 20
11.7229635142
 30
0.0
 10
10.9860864317
 20
11.72131372
 30
0.0
 10
10.9805406576
 20
11.7197266171
 30
0.0
 10
10.9747245744
 20
11.7182054337
 30
0.0
 10
10.9686498903
 20
11.7167532971
 30
0.0
 10
10.9623288574
 20
11.7153731205
 30
0.0
 10
10.9557742177
 20
11.7140677506
 30
0.0
 10
10.9466190694
 20
11.7124085159
 30
0.0
 10
10.9346877606
 20
11.710549888
 30
0.0
 10
10.9198449092
 20
11.7086834598
 30
0.0
 10
10.9044122489
 20
11.7071679519
 30
0.0
 10
10.8885144661
 20
11.7060158106
 30
0.0
 10
10.8722798961
 20
11.7052365442
 30
0.0
 10
10.8558397086
 20
11.7048365659
 30
0.0
 10
10.8393267413
 20
11.704819169
 30
0.0
 10
10.8228744437
 20
11.7051844935
 30
0.0
 10
10.8066157519
 20
11.7059295321
 30
0.0
 10
10.7906820336
 20
11.7070481547
 30
0.0
 10
10.7752019215
 20
11.7085311322
 30
0.0
 10
10.7603004945
 20
11.7103662858
 30
0.0
 10
10.7483133175
 20
11.712199413
 30
0.0
 10
10.7391081685
 20
11.7138388916
 30
0.0
 10
10.732512508
 20
11.715130395
 30
0.0
 10
10.7261480847
 20
11.7164971748
 30
0.0
 10
10.7200277312
 20
11.7179364734
 30
0.0
 10
10.7141637894
 20
11.7194453236
 30
0.0
 10
10.7085680751
 20
11.7210207069
 30
0.0
 10
10.7032518361
 20
11.7226593484
 30
0.0
 10
10.6982257495
 20
11.7243579845
 30
0.0
 10
10.6934998635
 20
11.7261131158
 30
0.0
 10
10.6890835996
 20
11.7279212214
 30
0.0
 10
10.6849857144
 20
11.7297786779
 30
0.0
 10
10.6812142509
 20
11.7316817516
 30
0.0
 10
10.6777765765
 20
11.7336268044
 30
0.0
 10
10.6746792548
 20
11.7356100596
 30
0.0
 10
10.6719281982
 20
11.7376280216
 30
0.0
 10
10.6695285441
 20
11.7396772598
 30
0.0
 10
10.6674849199
 20
11.7417547071
 30
0.0
 10
10.6658016486
 20
11.7438578769
 30
0.0
 10
10.6644832182
 20
11.7459838455
 30
0.0
 10
10.663682444
 20
11.747797108
 30
0.0
 10
10.6632400117
 20
11.7492438927
 30
0.0
 10
10.663005777
 20
11.7503170248
 30
0.0
 10
10.6628651978
 20
11.7513914401
 30
0.0
 10
10.6628339175
 20
11.7521092365
 30
0.0
 10
10.6628339268
 20
11.7524666885
 30
0.0
  0
SPLINE
  5
377
100
AcDbEntity
  8
0
100
AcDbSpline
 62
7
  6
CONTINUOUS
 70
0
 71
3
 72
67
 73
63
 74
0
 42
0.0000001
 43
0.0000001
 44
0.0000000001
 40
0.0
 40
0.0
 40
0.0
 40
0.0
 40
0.0037761971
 40
0.0076926834
 40
0.0117526348
 40
0.0159588153
 40
0.0203136123
 40
0.024818979
 40
0.0294763406
 40
0.0342867514
 40
0.0443687206
 40
0.055067861
 40
0.066382281
 40
0.0783066121
 40
0.0908325268
 40
0.103949105
 40
0.1176431581
 40
0.1318995031
 40
0.1467011694
 40
0.1620295534
 40
0.177864571
 40
0.1941848045
 40
0.2109676134
 40
0.2281892196
 40
0.2458248022
 40
0.2638485996
 40
0.2822339866
 40
0.3009535384
 40
0.3199791045
 40
0.3392818923
 40
0.3786005001
 40
0.4186692727
 40
0.459241331
 40
0.50006573
 40
0.5408895103
 40
0.5814597146
 40
0.6215254161
 40
0.6608397565
 40
0.6801399781
 40
0.699162687
 40
0.717879101
 40
0.7362610854
 40
0.7542812189
 40
0.7719128724
 40
0.7891302993
 40
0.8059087001
 40
0.8222243027
 40
0.8380544627
 40
0.8533777825
 40
0.8681742056
 40
0.882425139
 40
0.8961136102
 40
0.9092244632
 40
0.9217445455
 40
0.9336629571
 40
0.9449713749
 40
0.9556644746
 40
0.965740414
 40
0.9752014783
 40
0.9840549345
 40
0.9923141536
 40
1.0
 40
1.0
 40
1.0
 40
1.0
 10
11.3677684671
 20
9.937386866
 30
0.0
 10
11.3667843624
 20
9.936453935
 30
0.0
 10
11.3647406867
 20
9.9345940968
 30
0.0
 10
11.3615152958
 20
9.9318709527
 30
0.0
 10
11.3580763339
 20
9.9291655055
 30
0.0
 10
11.3544253542
 20
9.9264789636
 30
0.0
 10
11.3505638384
 20
9.9238123383
 30
0.0
 10
11.3464933181
 20
9.9211667248
 30
0.0
 10
11.3422154629
 20
9.9185431175
 30
0.0
 10
11.3361421751
 20
9.9150205904
 30
0.0
 10
11.3280332971
 20
9.9106893548
 30
0.0
 10
11.3176526665
 20
9.9056752304
 30
0.0
 10
11.3064917983
 20
9.9007742973
 30
0.0
 10
11.2945690548
 20
9.8959946515
 30
0.0
 10
11.281903856
 20
9.8913441874
 30
0.0
 10
11.2685170061
 20
9.8868306278
 30
0.0
 10
11.25443054
 20
9.882461478
 30
0.0
 10
11.2396676942
 20
9.878244024
 30
0.0
 10
11.2242528534
 20
9.8741853121
 30
0.0
 10
11.2082115183
 20
9.8702921184
 30
0.0
 10
11.1915702548
 20
9.8665709379
 30
0.0
 10
11.1743566358
 20
9.8630279859
 30
0.0
 10
11.1565991939
 20
9.8596691863
 30
0.0
 10
11.1383273804
 20
9.8565001479
 30
0.0
 10
11.1195715135
 20
9.8535261545
 30
0.0
 10
11.1003627188
 20
9.8507521713
 30
0.0
 10
11.080732874
 20
9.8481828326
 30
0.0
 10
11.0607145739
 20
9.8458224334
 30
0.0
 10
11.0403410294
 20
9.8436748803
 30
0.0
 10
11.0125780683
 20
9.8410843267
 30
0.0
 10
10.9772359657
 20
9.8384119326
 30
0.0
 10
10.9342162217
 20
9.8361201841
 30
0.0
 10
10.8906165805
 20
9.8347398733
 30
0.0
 10
10.8467264741
 20
9.8342802319
 30
0.0
 10
10.8028370809
 20
9.8347443883
 30
0.0
 10
10.7592395733
 20
9.836129185
 30
0.0
 10
10.7162233701
 20
9.8384253552
 30
0.0
 10
10.6808851103
 20
9.8411014094
 30
0.0
 10
10.6531259125
 20
9.8436948384
 30
0.0
 10
10.632755681
 20
9.8458444955
 30
0.0
 10
10.6127410227
 20
9.8482069623
 30
0.0
 10
10.5931151378
 20
9.8507783212
 30
0.0
 10
10.5739106174
 20
9.8535542781
 30
0.0
 10
10.5551593374
 20
9.8565302075
 30
0.0
 10
10.5368924128
 20
9.8597011329
 30
0.0
 10
10.5191401469
 20
9.8630617589
 30
0.0
 10
10.5019319857
 20
9.8666064771
 30
0.0
 10
10.4852964603
 20
9.8703293743
 30
0.0
 10
10.4692611303
 20
9.874224224
 30
0.0
 10
10.453852543
 20
9.8782845198
 30
0.0
 10
10.4390961915
 20
9.8825034849
 30
0.0
 10
10.4250164604
 20
9.8868740865
 30
0.0
 10
10.411636569
 20
9.8913890277
 30
0.0
 10
10.3989785344
 20
9.896040791
 30
0.0
 10
10.3870631338
 20
9.9008216556
 30
0.0
 10
10.3759098491
 20
9.9057237307
 30
0.0
 10
10.3655368125
 20
9.910738956
 30
0.0
 10
10.3559607514
 20
9.9158592028
 30
0.0
 10
10.3471970502
 20
9.9210762553
 30
0.0
 10
10.3392594204
 20
9.9263821939
 30
0.0
 10
10.3321609237
 20
9.9317685377
 30
0.0
 10
10.3278442606
 20
9.9355401498
 30
0.0
 10
10.3258427716
 20
9.9374405617
 30
0.0
  0
SPLINE
  5
378
100
AcDbEntity
  8
0
100
AcDbSpline
 62
7
  6
CONTINUOUS
 70
0
 71
3
 72
15
 73
11
 74
0
 42
0.0000001
 43
0.0000001
 44
0.0000000001
 40
0.0
 40
0.0
 40
0.0
 40
0.0
 40
0.1421842967
 40
0.2788171035
 40
0.4101601511
 40
0.5365205359
 40
0.6582517985
 40
0.7757600316
 40
0.8895047727
 40
1.0
 40
1.0
 40
1.0
 40
1.0
 10
10.3258427716
 20
9.9374405617
 30
0.0
 10
10.3248162297
 20
9.9384152622
 30
0.0
 10
10.3228436059
 20
9.9403698288
 30
0.0
 10
10.320080326
 20
9.9433784914
 30
0.0
 10
10.3175743396
 20
9.9464030103
 30
0.0
 10
10.3153269543
 20
9.949441944
 30
0.0
 10
10.3133394415
 20
9.952494016
 30
0.0
 10
10.3116129032
 20
9.9555579216
 30
0.0
 10
10.3101485104
 20
9.9586320231
 30
0.0
 10
10.3093371415
 20
9.9607145455
 30
0.0
 10
10.3089780531
 20
9.9617543629
 30
0.0
  0
SPLINE
  5
379
100
AcDbEntity
  8
0
100
AcDbSpline
 62
7
  6
CONTINUOUS
 70
0
 71
3
 72
11
 73
7
 74
0
 42
0.0000001
 43
0.0000001
 44
0.0000000001
 40
0.0
 40
0.0
 40
0.0
 40
0.0
 40
0.2557903736
 40
0.5066535869
 40
0.7541723697
 40
1.0
 40
1.0
 40
1.0
 40
1.0
 10
10.3089780531
 20
9.9617543629
 30
0.0
 10
10.308625128
 20
9.9627763331
 30
0.0
 10
10.3080034107
 20
9.9648284187
 30
0.0
 10
10.307329046
 20
9.967947678
 30
0.0
 10
10.3069240692
 20
9.9710708515
 30
0.0
 10
10.3068339239
 20
9.9731572572
 30
0.0
 10
10.3068339192
 20
9.9741963394
 30
0.0
  0
SPLINE
  5
37A
100
AcDbEntity
  8
0
100
AcDbSpline
 62
7
  6
CONTINUOUS
 70
0
 71
3
 72
15
 73
11
 74
0
 42
0.0000001
 43
0.0000001
 44
0.0000000001
 40
0.0
 40
0.0
 40
0.0
 40
0.0
 40
0.127348315
 40
0.2538606239
 40
0.3795878599
 40
0.5046051181
 40
0.6290174391
 40
0.7529533757
 40
0.8765605793
 40
1.0
 40
1.0
 40
1.0
 40
1.0
 10
10.0097883044
 20
8.3472275821
 30
0.0
 10
10.0097883044
 20
8.3429004711
 30
0.0
 10
10.0093751509
 20
8.3342686733
 30
0.0
 10
10.007506719
 20
8.3214869956
 30
0.0
 10
10.0044085406
 20
8.3090264723
 30
0.0
 10
10.0001086085
 20
8.297003633
 30
0.0
 10
9.9946463455
 20
8.2855293617
 30
0.0
 10
9.9880715746
 20
8.2747096038
 30
0.0
 10
9.9804461175
 20
8.2646457301
 30
0.0
 10
9.9747045346
 20
8.2584981384
 30
0.0
 10
9.9716877732
 20
8.2555841653
 30
0.0
  0
SPLINE
  5
37B
100
AcDbEntity
  8
0
100
AcDbSpline
 62
7
  6
CONTINUOUS
 70
0
 71
3
 72
15
 73
11
 74
0
 42
0.0000001
 43
0.0000001
 44
0.0000000001
 40
0.0
 40
0.0
 40
0.0
 40
0.0
 40
0.127348315
 40
0.2538606239
 40
0.3795878599
 40
0.5046051181
 40
0.6290174391
 40
0.7529533757
 40
0.8765605793
 40
1.0
 40
1.0
 40
1.0
 40
1.0
 10
11.7600458964
 20
8.2258468058
 30
0.0
 10
11.7600458964
 20
8.2215196948
 30
0.0
 10
11.7596327429
 20
8.212887897
 30
0.0
 10
11.757764311
 20
8.2001062194
 30
0.0
 10
11.7546661326
 20
8.187645696
 30
0.0
 10
11.7503662005
 20
8.1756228567
 30
0.0
 10
11.7449039375
 20
8.1641485855
 30
0.0
 10
11.7383291666
 20
8.1533288275
 30
0.0
 10
11.7307037095
 20
8.1432649538
 30
0.0
 10
11.7249621266
 20
8.1371173621
 30
0.0
 10
11.7219453652
 20
8.134203389
 30
0.0
  0
SPLINE
  5
37C
100
AcDbEntity
  8
0
100
AcDbSpline
 62
7
  6
CONTINUOUS
 70
0
 71
3
 72
15
 73
11
 74
0
 42
0.0000001
 43
0.0000001
 44
0.0000000001
 40
0.0
 40
0.0
 40
0.0
 40
0.0
 40
0.127348315
 40
0.2538606239
 40
0.3795878599
 40
0.5046051181
 40
0.6290174391
 40
0.7529533757
 40
0.8765605793
 40
1.0
 40
1.0
 40
1.0
 40
1.0
 10
11.7600458964
 20
6.1732541882
 30
0.0
 10
11.7600458964
 20
6.1689270772
 30
0.0
 10
11.7596327429
 20
6.1602952794
 30
0.0
 10
11.757764311
 20
6.1475136017
 30
0.0
 10
11.7546661326
 20
6.1350530784
 30
0.0
 10
11.7503662005
 20
6.1230302391
 30
0.0
 10
11.7449039375
 20
6.1115559678
 30
0.0
 10
11.7383291666
 20
6.1007362099
 30
0.0
 10
11.7307037095
 20
6.0906723362
 30
0.0
 10
11.7249621266
 20
6.0845247445
 30
0.0
 10
11.7219453652
 20
6.0816107714
 30
0.0
  0
SPLINE
  5
37D
100
AcDbEntity
  8
0
100
AcDbSpline
 62
7
  6
CONTINUOUS
 70
0
 71
3
 72
15
 73
11
 74
0
 42
0.0000001
 43
0.0000001
 44
0.0000000001
 40
0.0
 40
0.0
 40
0.0
 40
0.0
 40
0.127348315
 40
0.2538606239
 40
0.3795878599
 40
0.5046051181
 40
0.6290174391
 40
0.7529533757
 40
0.8765605793
 40
1.0
 40
1.0
 40
1.0
 40
1.0
 10
10.0097883044
 20
6.2946349644
 30
0.0
 10
10.0097883044
 20
6.2903078535
 30
0.0
 10
10.0093751509
 20
6.2816760557
 30
0.0
 10
10.007506719
 20
6.268894378
 30
0.0
 10
10.0044085406
 20
6.2564338547
 30
0.0
 10
10.0001086085
 20
6.2444110153
 30
0.0
 10
9.9946463455
 20
6.2329367441
 30
0.0
 10
9.9880715746
 20
6.2221169862
 30
0.0
 10
9.9804461175
 20
6.2120531124
 30
0.0
 10
9.9747045346
 20
6.2059055208
 30
0.0
 10
9.9716877732
 20
6.2029915476
 30
0.0
  0
SPLINE
  5
37E
100
AcDbEntity
  8
0
100
AcDbSpline
 62
7
  6
CONTINUOUS
 70
0
 71
3
 72
31
 73
27
 74
0
 42
0.0000001
 43
0.0000001
 44
0.0000000001
 40
0.0
 40
0.0
 40
0.0
 40
0.0
 40
0.0845018904
 40
0.167301158
 40
0.2480799795
 40
0.3265304606
 40
0.4023579462
 40
0.475282401
 40
0.5450409099
 40
0.6113901015
 40
0.6432172375
 40
0.6741112302
 40
0.7040486061
 40
0.7330077048
 40
0.7609690412
 40
0.7879152504
 40
0.8138316265
 40
0.8387060317
 40
0.8625296419
 40
0.8852968756
 40
0.9070063887
 40
0.927661115
 40
0.9472695745
 40
0.9658461645
 40
0.9834128737
 40
1.0
 40
1.0
 40
1.0
 40
1.0
 10
12.023928706
 20
10.133183046
 30
0.0
 10
12.0310497101
 20
10.1326892027
 30
0.0
 10
12.0451399341
 20
10.1315864833
 30
0.0
 10
12.0659993565
 20
10.1295644581
 30
0.0
 10
12.0863080978
 20
10.1271977424
 30
0.0
 10
12.1059808586
 20
10.124496386
 30
0.0
 10
12.1249351004
 20
10.12147188
 30
0.0
 10
12.1430914201
 20
10.1181370977
 30
0.0
 10
12.1603736384
 20
10.114506207
 30
0.0
 10
12.1741718636
 20
10.1112025036
 30
0.0
 10
12.1847125162
 20
10.1084136972
 30
0.0
 10
12.192245548
 20
10.1062868924
 30
0.0
 10
12.1995081624
 20
10.1040981476
 30
0.0
 10
12.2064927624
 20
10.1018497253
 30
0.0
 10
12.2131920415
 20
10.0995440267
 30
0.0
 10
12.2195989956
 20
10.0971834441
 30
0.0
 10
12.225706947
 20
10.0947704988
 30
0.0
 10
12.231509526
 20
10.0923076741
 30
0.0
 10
12.2370007181
 20
10.0897975995
 30
0.0
 10
12.2421748201
 20
10.0872428262
 30
0.0
 10
12.2470265143
 20
10.0846460662
 30
0.0
 10
12.2515507947
 20
10.0820099024
 30
0.0
 10
12.2557430563
 20
10.0793370981
 30
0.0
 10
12.2595990485
 20
10.0766301757
 30
0.0
 10
12.2631147315
 20
10.0738920199
 30
0.0
 10
12.2652903147
 20
10.0719941045
 30
0.0
 10
12.2663160348
 20
10.0710395636
 30
0.0
  0
SPLINE
  5
37F
100
AcDbEntity
  8
0
100
AcDbSpline
 62
7
  6
CONTINUOUS
 70
0
 71
3
 72
31
 73
27
 74
0
 42
0.0000001
 43
0.0000001
 44
0.0000000001
 40
0.0
 40
0.0
 40
0.0
 40
0.0
 40
0.0312386107
 40
0.0618506998
 40
0.0919705804
 40
0.121719586
 40
0.1511997378
 40
0.1804985823
 40
0.2388122038
 40
0.2679627132
 40
0.2971615392
 40
0.3558318822
 40
0.3853742752
 40
0.4150821973
 40
0.4449773777
 40
0.4750775205
 40
0.5054014357
 40
0.5359653544
 40
0.5978741638
 40
0.6609450442
 40
0.6929640297
 40
0.7253295959
 40
0.791191214
 40
0.8587407008
 40
0.928235551
 40
1.0
 40
1.0
 40
1.0
 40
1.0
 10
10.8402516597
 20
6.8779942225
 30
0.0
 10
10.8377624467
 20
6.8774823191
 30
0.0
 10
10.8328750018
 20
6.876256427
 30
0.0
 10
10.8257862041
 20
6.8738392311
 30
0.0
 10
10.8190200762
 20
6.8709226448
 30
0.0
 10
10.8125696602
 20
6.8675590225
 30
0.0
 10
10.8064238321
 20
6.8637939835
 30
0.0
 10
10.798633819
 20
6.8583029615
 30
0.0
 10
10.7913743105
 20
6.8521402755
 30
0.0
 10
10.7846383608
 20
6.8454507237
 30
0.0
 10
10.7782143644
 20
6.8384208265
 30
0.0
 10
10.7722560434
 20
6.8309381447
 30
0.0
 10
10.766733784
 20
6.8230921994
 30
0.0
 10
10.7627813144
 20
6.817009745
 30
0.0
 10
10.7590204147
 20
6.8107544678
 30
0.0
 10
10.7554418747
 20
6.8043357858
 30
0.0
 10
10.7520390653
 20
6.7977610287
 30
0.0
 10
10.747708139
 20
6.7887576729
 30
0.0
 10
10.7427006636
 20
6.7771300016
 30
0.0
 10
10.738239052
 20
6.7651572721
 30
0.0
 10
10.7349503799
 20
6.7553232178
 30
0.0
 10
10.7318090982
 20
6.7452030894
 30
0.0
 10
10.7282180821
 20
6.7321996782
 30
0.0
 10
10.7244412115
 20
6.7161270631
 30
0.0
 10
10.7211550226
 20
6.6994576409
 30
0.0
 10
10.719319324
 20
6.6881110079
 30
0.0
 10
10.718480399
 20
6.6823334609
 30
0.0
  0
SPLINE
  5
380
100
AcDbEntity
  8
0
100
AcDbSpline
 62
7
  6
CONTINUOUS
 70
0
 71
3
 72
39
 73
35
 74
0
 42
0.0000001
 43
0.0000001
 44
0.0000000001
 40
0.0
 40
0.0
 40
0.0
 40
0.0
 40
0.0761045193
 40
0.1533639203
 40
0.2310946074
 40
0.3086064043
 40
0.385211887
 40
0.4229634241
 40
0.4602358098
 40
0.4969473753
 40
0.533018102
 40
0.5683699075
 40
0.6029269209
 40
0.6366157387
 40
0.6693657101
 40
0.7011092592
 40
0.7317822604
 40
0.7613243728
 40
0.7896794417
 40
0.8167959766
 40
0.8426277652
 40
0.8671345517
 40
0.8902828581
 40
0.9120470578
 40
0.9224052234
 40
0.9324121753
 40
0.9420676392
 40
0.9513721659
 40
0.9603273168
 40
0.9689355961
 40
0.9772009945
 40
0.9851289013
 40
0.9927259391
 40
1.0
 40
1.0
 40
1.0
 40
1.0
 10
11.5457008548
 20
5.446324646
 30
0.0
 10
11.5566240216
 20
5.4455671218
 30
0.0
 10
11.578657836
 20
5.4443393737
 30
0.0
 10
11.6118947238
 20
5.4433464762
 30
0.0
 10
11.6453487846
 20
5.4431926463
 30
0.0
 10
11.6787018725
 20
5.4438794208
 30
0.0
 10
11.7062806999
 20
5.4451526407
 30
0.0
 10
11.7280490883
 20
5.4465925451
 30
0.0
 10
11.7440744551
 20
5.4478708599
 30
0.0
 10
11.7598396968
 20
5.449349635
 30
0.0
 10
11.775307349
 20
5.4510253625
 30
0.0
 10
11.7904406239
 20
5.4528940233
 30
0.0
 10
11.805203549
 20
5.4549511388
 30
0.0
 10
11.8195610368
 20
5.457191781
 30
0.0
 10
11.8334789701
 20
5.4596105843
 30
0.0
 10
11.846924291
 20
5.4622017581
 30
0.0
 10
11.8598650886
 20
5.4649590835
 30
0.0
 10
11.8722706749
 20
5.4678759476
 30
0.0
 10
11.8841116548
 20
5.4709453565
 30
0.0
 10
11.8953600143
 20
5.4741599604
 30
0.0
 10
11.9059891824
 20
5.4775120578
 30
0.0
 10
11.9159741961
 20
5.4809936295
 30
0.0
 10
11.9252914713
 20
5.4845963717
 30
0.0
 10
11.9325973174
 20
5.4877422757
 30
0.0
 10
11.938083541
 20
5.4903202373
 30
0.0
 10
11.9419497374
 20
5.4922466984
 30
0.0
 10
11.9456333307
 20
5.494196959
 30
0.0
 10
11.9491321446
 20
5.4961699185
 30
0.0
 10
11.9524441401
 20
5.498164355
 30
0.0
 10
11.9555673641
 20
5.5001791657
 30
0.0
 10
11.9585000295
 20
5.5022131865
 30
0.0
 10
11.961240475
 20
5.5042653068
 30
0.0
 10
11.9637869437
 20
5.5063342896
 30
0.0
 10
11.9653884736
 20
5.5077543243
 30
0.0
 10
11.9661546147
 20
5.5084672614
 30
0.0
  0
SPLINE
  5
381
100
AcDbEntity
  8
0
100
AcDbSpline
 62
7
  6
CONTINUOUS
 70
0
 71
3
 72
17
 73
13
 74
0
 42
0.0000001
 43
0.0000001
 44
0.0000000001
 40
0.0
 40
0.0
 40
0.0
 40
0.0
 40
0.1480475465
 40
0.2876832517
 40
0.4195860392
 40
0.482920882
 40
0.5446651876
 40
0.6639007805
 40
0.7785650961
 40
0.8900650781
 40
0.9451345358
 40
1.0
 40
1.0
 40
1.0
 40
1.0
 10
12.2961513084
 20
5.8261478658
 30
0.0
 10
12.2971791733
 20
5.8271407072
 30
0.0
 10
12.2991162595
 20
5.8291341114
 30
0.0
 10
12.3017207504
 20
5.8322407294
 30
0.0
 10
12.3035888617
 20
5.834884337
 30
0.0
 10
12.3048754152
 20
5.8370062465
 30
0.0
 10
12.3059990031
 20
5.8390805484
 30
0.0
 10
12.3071666516
 20
5.8416909648
 30
0.0
 10
12.3081821791
 20
5.8448741157
 30
0.0
 10
12.3086932271
 20
5.8475479466
 30
0.0
 10
12.3088954737
 20
5.8496769408
 30
0.0
 10
12.3089291008
 20
5.8507384571
 30
0.0
 10
12.3089290967
 20
5.8512680611
 30
0.0
  0
SPLINE
  5
382
100
AcDbEntity
  8
0
100
AcDbSpline
 62
7
  6
CONTINUOUS
 70
0
 71
3
 72
36
 73
32
 74
0
 42
0.0000001
 43
0.0000001
 44
0.0000000001
 40
0.0
 40
0.0
 40
0.0
 40
0.0
 40
0.0378322169
 40
0.0576763104
 40
0.0781591267
 40
0.1211163599
 40
0.1668717995
 40
0.2156195767
 40
0.2675874136
 40
0.3230491306
 40
0.3823300493
 40
0.445804925
 40
0.5138771398
 40
0.5497567062
 40
0.5869108165
 40
0.6253501347
 40
0.6650528794
 40
0.7059491548
 40
0.7479029028
 40
0.7692116118
 40
0.7906936127
 40
0.8123041195
 40
0.8339899282
 40
0.8556883681
 40
0.8773260224
 40
0.8988171882
 40
0.9200620856
 40
0.9409450163
 40
0.9613327034
 40
0.9810738293
 40
1.0
 40
1.0
 40
1.0
 40
1.0
 10
10.6786403397
 20
7.8436417261
 30
0.0
 10
10.6804491281
 20
7.8416101905
 30
0.0
 10
10.6832937397
 20
7.8385895827
 30
0.0
 10
10.6872886029
 20
7.8346369616
 30
0.0
 10
10.6916393346
 20
7.8305219517
 30
0.0
 10
10.697516712
 20
7.8253131733
 30
0.0
 10
10.7051590722
 20
7.8190431443
 30
0.0
 10
10.7135285625
 20
7.8126481595
 30
0.0
 10
10.7226643493
 20
7.8061162963
 30
0.0
 10
10.7326176511
 20
7.7994348986
 30
0.0
 10
10.7434531132
 20
7.7925922387
 30
0.0
 10
10.7552490614
 20
7.7855818708
 30
0.0
 10
10.7657618112
 20
7.779714141
 30
0.0
 10
10.7747239988
 20
7.7749588448
 30
0.0
 10
10.7818610455
 20
7.7713113159
 30
0.0
 10
10.7893047204
 20
7.7676621253
 30
0.0
 10
10.797058596
 20
7.7640374588
 30
0.0
 10
10.8051186105
 20
7.7604752849
 30
0.0
 10
10.8120418936
 20
7.7576175718
 30
0.0
 10
10.8177238834
 20
7.7554170388
 30
0.0
 10
10.8220684878
 20
7.7538149372
 30
0.0
 10
10.826466623
 20
7.7522816558
 30
0.0
 10
10.8309089593
 20
7.7508304523
 30
0.0
 10
10.8353837996
 20
7.7494757955
 30
0.0
 10
10.8398766401
 20
7.748233267
 30
0.0
 10
10.844369617
 20
7.7471193824
 30
0.0
 10
10.8488408951
 20
7.74615133
 30
0.0
 10
10.8532639821
 20
7.7453466191
 30
0.0
 10
10.8576072092
 20
7.7447225659
 30
0.0
 10
10.8618329806
 20
7.7442957491
 30
0.0
 10
10.8646107322
 20
7.7441490835
 30
0.0
 10
10.8659710966
 20
7.7441160642
 30
0.0
  0
SPLINE
  5
383
100
AcDbEntity
  8
0
100
AcDbSpline
 62
7
  6
CONTINUOUS
 70
0
 71
3
 72
42
 73
38
 74
0
 42
0.0000001
 43
0.0000001
 44
0.0000000001
 40
0.0
 40
0.0
 40
0.0
 40
0.0
 40
0.0310747366
 40
0.0466742
 40
0.0623120792
 40
0.0936967488
 40
0.1252253682
 40
0.1568865883
 40
0.1886662066
 40
0.2205476241
 40
0.252512164
 40
0.2845394778
 40
0.3166079598
 40
0.3486951849
 40
0.3807783552
 40
0.4128347537
 40
0.4448421953
 40
0.4767794716
 40
0.5086267812
 40
0.5403661404
 40
0.5719817657
 40
0.6034604225
 40
0.6347917325
 40
0.6659684304
 40
0.6969865646
 40
0.7278456325
 40
0.7585486449
 40
0.7891021123
 40
0.8195159494
 40
0.8498032954
 40
0.8649073374
 40
0.8799860228
 40
0.9100712971
 40
0.9400857983
 40
0.9550764701
 40
0.9700580366
 40
1.0
 40
1.0
 40
1.0
 40
1.0
 10
10.8831103428
 20
7.6661445944
 30
0.0
 10
10.8831103428
 20
7.6706329003
 30
0.0
 10
10.8828594562
 20
7.677377716
 30
0.0
 10
10.8820308744
 20
7.6863410064
 30
0.0
 10
10.8808698681
 20
7.6953128822
 30
0.0
 10
10.8788002286
 20
7.7064790442
 30
0.0
 10
10.8753480806
 20
7.7197073947
 30
0.0
 10
10.8709432149
 20
7.7327101681
 30
0.0
 10
10.8656099654
 20
7.745415563
 30
0.0
 10
10.8593776955
 20
7.7577539714
 30
0.0
 10
10.8522806913
 20
7.7696576584
 30
0.0
 10
10.8443579639
 20
7.781061318
 30
0.0
 10
10.8356530368
 20
7.7919023753
 30
0.0
 10
10.8262137098
 20
7.8021213402
 30
0.0
 10
10.8160917979
 20
7.8116621263
 30
0.0
 10
10.8053428505
 20
7.8204723567
 30
0.0
 10
10.7940258492
 20
7.8285036485
 30
0.0
 10
10.782202888
 20
7.8357118762
 30
0.0
 10
10.7699388367
 20
7.8420574119
 30
0.0
 10
10.7573009893
 20
7.8475053425
 30
0.0
 10
10.7443586999
 20
7.8520256603
 30
0.0
 10
10.7311830072
 20
7.8555934293
 30
0.0
 10
10.7178462503
 20
7.8581889234
 30
0.0
 10
10.7044216764
 20
7.859797738
 30
0.0
 10
10.6909830476
 20
7.8604108752
 30
0.0
 10
10.6776042255
 20
7.8600247933
 30
0.0
 10
10.6643588243
 20
7.8586414571
 30
0.0
 10
10.6513196039
 20
7.856268249
 30
0.0
 10
10.6385588256
 20
7.8529182617
 30
0.0
 10
10.6282039795
 20
7.8493237581
 30
0.0
 10
10.6201328866
 20
7.8459809126
 30
0.0
 10
10.6122251445
 20
7.8423372796
 30
0.0
 10
10.6026369906
 20
7.8372155085
 30
0.0
 10
10.5934934035
 20
7.8313601193
 30
0.0
 10
10.5864859403
 20
7.826261045
 30
0.0
 10
10.5796947427
 20
7.8208949454
 30
0.0
 10
10.5748455412
 20
7.8165701738
 30
0.0
 10
10.5717349768
 20
7.8135656177
 30
0.0
  0
SPLINE
  5
384
100
AcDbEntity
  8
0
100
AcDbSpline
 62
7
  6
CONTINUOUS
 70
0
 71
3
 72
21
 73
17
 74
0
 42
0.0000001
 43
0.0000001
 44
0.0000000001
 40
0.0
 40
0.0
 40
0.0
 40
0.0
 40
0.1273176984
 40
0.2537999461
 40
0.3167619614
 40
0.3795355204
 40
0.4421314992
 40
0.5045621453
 40
0.5668413456
 40
0.6289845231
 40
0.6910084433
 40
0.7529310869
 40
0.8147714401
 40
0.8765493236
 40
0.9382852134
 40
1.0
 40
1.0
 40
1.0
 40
1.0
 10
10.8831103428
 20
7.6661445944
 30
0.0
 10
10.8831103428
 20
7.6603699299
 30
0.0
 10
10.8825591124
 20
7.6488510606
 30
0.0
 10
10.8804772706
 20
7.6346112514
 30
0.0
 10
10.8779890282
 20
7.6234413682
 30
0.0
 10
10.875719881
 20
7.6152024568
 30
0.0
 10
10.8730503651
 20
7.6071099468
 30
0.0
 10
10.869986635
 20
7.5991822631
 30
0.0
 10
10.8665357543
 20
7.5914377413
 30
0.0
 10
10.8627056105
 20
7.5838942554
 30
0.0
 10
10.8585050642
 20
7.5765691942
 30
0.0
 10
10.8539438025
 20
7.5694794391
 30
0.0
 10
10.8490323004
 20
7.5626413958
 30
0.0
 10
10.8437818542
 20
7.5560707687
 30
0.0
 10
10.838204805
 20
7.5497828934
 30
0.0
 10
10.8342768146
 20
7.5457884648
 30
0.0
 10
10.8322635024
 20
7.5438437664
 30
0.0
  0
SPLINE
  5
385
100
AcDbEntity
  8
0
100
AcDbSpline
 62
7
  6
CONTINUOUS
 70
0
 71
3
 72
42
 73
38
 74
0
 42
0.0000001
 43
0.0000001
 44
0.0000000001
 40
0.0
 40
0.0
 40
0.0
 40
0.0
 40
0.0310747366
 40
0.0466742
 40
0.0623120792
 40
0.0936967488
 40
0.1252253682
 40
0.1568865883
 40
0.1886662066
 40
0.2205476241
 40
0.252512164
 40
0.2845394778
 40
0.3166079598
 40
0.3486951849
 40
0.3807783552
 40
0.4128347537
 40
0.4448421953
 40
0.4767794716
 40
0.5086267812
 40
0.5403661404
 40
0.5719817657
 40
0.6034604225
 40
0.6347917325
 40
0.6659684304
 40
0.6969865646
 40
0.7278456325
 40
0.7585486449
 40
0.7891021123
 40
0.8195159494
 40
0.8498032954
 40
0.8649073374
 40
0.8799860228
 40
0.9100712971
 40
0.9400857983
 40
0.9550764701
 40
0.9700580366
 40
1.0
 40
1.0
 40
1.0
 40
1.0
 10
10.3093503854
 20
7.3137691715
 30
0.0
 10
10.3093503854
 20
7.3182574774
 30
0.0
 10
10.3090994989
 20
7.3250022931
 30
0.0
 10
10.3082709171
 20
7.3339655835
 30
0.0
 10
10.3071099108
 20
7.3429374593
 30
0.0
 10
10.3050402713
 20
7.3541036213
 30
0.0
 10
10.3015881232
 20
7.3673319718
 30
0.0
 10
10.2971832576
 20
7.3803347452
 30
0.0
 10
10.2918500081
 20
7.3930401401
 30
0.0
 10
10.2856177382
 20
7.4053785485
 30
0.0
 10
10.278520734
 20
7.4172822355
 30
0.0
 10
10.2705980066
 20
7.4286858951
 30
0.0
 10
10.2618930795
 20
7.4395269524
 30
0.0
 10
10.2524537524
 20
7.4497459173
 30
0.0
 10
10.2423318406
 20
7.4592867034
 30
0.0
 10
10.2315828932
 20
7.4680969338
 30
0.0
 10
10.2202658919
 20
7.4761282257
 30
0.0
 10
10.2084429307
 20
7.4833364533
 30
0.0
 10
10.1961788794
 20
7.4896819891
 30
0.0
 10
10.183541032
 20
7.4951299196
 30
0.0
 10
10.1705987426
 20
7.4996502374
 30
0.0
 10
10.1574230498
 20
7.5032180064
 30
0.0
 10
10.144086293
 20
7.5058135005
 30
0.0
 10
10.1306617191
 20
7.5074223151
 30
0.0
 10
10.1172230903
 20
7.5080354523
 30
0.0
 10
10.1038442682
 20
7.5076493704
 30
0.0
 10
10.090598867
 20
7.5062660342
 30
0.0
 10
10.0775596466
 20
7.5038928261
 30
0.0
 10
10.0647988683
 20
7.5005428388
 30
0.0
 10
10.0544440222
 20
7.4969483352
 30
0.0
 10
10.0463729293
 20
7.4936054897
 30
0.0
 10
10.0384651872
 20
7.4899618567
 30
0.0
 10
10.0288770333
 20
7.4848400857
 30
0.0
 10
10.0197334462
 20
7.4789846964
 30
0.0
 10
10.012725983
 20
7.4738856221
 30
0.0
 10
10.0059347854
 20
7.4685195225
 30
0.0
 10
10.0010855838
 20
7.464194751
 30
0.0
 10
9.9979750195
 20
7.4611901948
 30
0.0
  0
SPLINE
  5
386
100
AcDbEntity
  8
0
100
AcDbSpline
 62
7
  6
CONTINUOUS
 70
0
 71
3
 72
21
 73
17
 74
0
 42
0.0000001
 43
0.0000001
 44
0.0000000001
 40
0.0
 40
0.0
 40
0.0
 40
0.0
 40
0.1273175725
 40
0.2538000026
 40
0.3167619332
 40
0.3795354925
 40
0.4421314982
 40
0.5045621433
 40
0.5668413429
 40
0.6289845306
 40
0.6910084612
 40
0.7529311022
 40
0.8147714553
 40
0.8765493457
 40
0.9382852283
 40
1.0
 40
1.0
 40
1.0
 40
1.0
 10
11.3356466542
 20
6.3365566095
 30
0.0
 10
11.3356466542
 20
6.3298119011
 30
0.0
 10
11.335002828
 20
6.3163580456
 30
0.0
 10
11.3325713269
 20
6.2997261718
 30
0.0
 10
11.3296651246
 20
6.2866799169
 30
0.0
 10
11.3270148225
 20
6.2770569982
 30
0.0
 10
11.3238969414
 20
6.2676050523
 30
0.0
 10
11.32031859
 20
6.2583456294
 30
0.0
 10
11.3162880513
 20
6.249300138
 30
0.0
 10
11.3118145951
 20
6.2404894216
 30
0.0
 10
11.3069084825
 20
6.2319338328
 30
0.0
 10
11.3015810441
 20
6.2236530865
 30
0.0
 10
11.2958445853
 20
6.2156662938
 30
0.0
 10
11.2897122321
 20
6.2079918386
 30
0.0
 10
11.2831983655
 20
6.2006476719
 30
0.0
 10
11.2786106267
 20
6.1959821559
 30
0.0
 10
11.2762591241
 20
6.1937107665
 30
0.0
  0
SPLINE
  5
387
100
AcDbEntity
  8
0
100
AcDbSpline
 62
7
  6
CONTINUOUS
 70
0
 71
3
 72
41
 73
37
 74
0
 42
0.0000001
 43
0.0000001
 44
0.0000000001
 40
0.0
 40
0.0
 40
0.0
 40
0.0
 40
0.0299421238
 40
0.0449237703
 40
0.059914519
 40
0.0899291762
 40
0.1200146048
 40
0.1350933663
 40
0.1501974853
 40
0.1804849834
 40
0.2108989722
 40
0.2414525913
 40
0.2721557558
 40
0.3030149766
 40
0.3340332647
 40
0.365210118
 40
0.396541585
 40
0.4280204007
 40
0.4596361866
 40
0.4913757084
 40
0.5232231826
 40
0.5551606251
 40
0.5871682346
 40
0.6192248024
 40
0.6513081434
 40
0.68339554
 40
0.7154641944
 40
0.7474916807
 40
0.7794563937
 40
0.8113379827
 40
0.8431177771
 40
0.8747791563
 40
0.9063079829
 40
0.9376927254
 40
0.9689252285
 40
1.0
 40
1.0
 40
1.0
 40
1.0
 10
9.7764636623
 20
8.4576943986
 30
0.0
 10
9.7787945102
 20
8.4599458289
 30
0.0
 10
9.7824281489
 20
8.4631865805
 30
0.0
 10
9.7875170218
 20
8.4672076073
 30
0.0
 10
9.7927679209
 20
8.4710285826
 30
0.0
 10
9.7996195115
 20
8.4754162729
 30
0.0
 10
9.8068042273
 20
8.47925425
 30
0.0
 10
9.8127297617
 20
8.4819845913
 30
0.0
 10
9.8187777009
 20
8.484489544
 30
0.0
 10
9.8265369373
 20
8.487183081
 30
0.0
 10
9.8360990251
 20
8.4896934027
 30
0.0
 10
9.8458697641
 20
8.4914717877
 30
0.0
 10
9.8557950061
 20
8.4925084249
 30
0.0
 10
9.8658202292
 20
8.4927977822
 30
0.0
 10
9.8758902716
 20
8.4923383867
 30
0.0
 10
9.8859497856
 20
8.4911328923
 30
0.0
 10
9.8959434986
 20
8.489188041
 30
0.0
 10
9.9058165233
 20
8.4865146266
 30
0.0
 10
9.9155146531
 20
8.4831274303
 30
0.0
 10
9.9249846558
 20
8.4790451375
 30
0.0
 10
9.9341745616
 20
8.4742902338
 30
0.0
 10
9.9430339442
 20
8.4688888809
 30
0.0
 10
9.951514194
 20
8.4628707734
 30
0.0
 10
9.9595687813
 20
8.4562689761
 30
0.0
 10
9.9671535086
 20
8.4491197441
 30
0.0
 10
9.9742267507
 20
8.4414623256
 30
0.0
 10
9.9807496801
 20
8.4333387481
 30
0.0
 10
9.9866864787
 20
8.4247935902
 30
0.0
 10
9.9920045318
 20
8.4158737403
 30
0.0
 10
9.996674608
 20
8.4066281403
 30
0.0
 10
10.0006710132
 20
8.3971075269
 30
0.0
 10
10.0039717453
 20
8.387364132
 30
0.0
 10
10.0065585839
 20
8.3774514939
 30
0.0
 10
10.0084172537
 20
8.3674238224
 30
0.0
 10
10.0095374043
 20
8.357336941
 30
0.0
 10
10.0097883044
 20
8.3505908155
 30
0.0
 10
10.0097883044
 20
8.3472275821
 30
0.0
  0
SPLINE
  5
388
100
AcDbEntity
  8
0
100
AcDbSpline
 62
7
  6
CONTINUOUS
 70
0
 71
3
 72
41
 73
37
 74
0
 42
0.0000001
 43
0.0000001
 44
0.0000000001
 40
0.0
 40
0.0
 40
0.0
 40
0.0
 40
0.0299421238
 40
0.0449237703
 40
0.059914519
 40
0.0899291762
 40
0.1200146048
 40
0.1350933663
 40
0.1501974853
 40
0.1804849834
 40
0.2108989722
 40
0.2414525913
 40
0.2721557558
 40
0.3030149766
 40
0.3340332647
 40
0.365210118
 40
0.396541585
 40
0.4280204007
 40
0.4596361866
 40
0.4913757084
 40
0.5232231826
 40
0.5551606251
 40
0.5871682346
 40
0.6192248024
 40
0.6513081434
 40
0.68339554
 40
0.7154641944
 40
0.7474916807
 40
0.7794563937
 40
0.8113379827
 40
0.8431177771
 40
0.8747791563
 40
0.9063079829
 40
0.9376927254
 40
0.9689252285
 40
1.0
 40
1.0
 40
1.0
 40
1.0
 10
11.5267212544
 20
8.3363136223
 30
0.0
 10
11.5290521022
 20
8.3385650526
 30
0.0
 10
11.5326857409
 20
8.3418058042
 30
0.0
 10
11.5377746138
 20
8.345826831
 30
0.0
 10
11.5430255129
 20
8.3496478063
 30
0.0
 10
11.5498771036
 20
8.3540354966
 30
0.0
 10
11.5570618194
 20
8.3578734737
 30
0.0
 10
11.5629873537
 20
8.360603815
 30
0.0
 10
11.569035293
 20
8.3631087677
 30
0.0
 10
11.5767945293
 20
8.3658023048
 30
0.0
 10
11.5863566171
 20
8.3683126264
 30
0.0
 10
11.5961273561
 20
8.3700910114
 30
0.0
 10
11.6060525981
 20
8.3711276487
 30
0.0
 10
11.6160778212
 20
8.3714170059
 30
0.0
 10
11.6261478636
 20
8.3709576105
 30
0.0
 10
11.6362073777
 20
8.369752116
 30
0.0
 10
11.6462010906
 20
8.3678072648
 30
0.0
 10
11.6560741153
 20
8.3651338504
 30
0.0
 10
11.6657722451
 20
8.3617466541
 30
0.0
 10
11.6752422479
 20
8.3576643612
 30
0.0
 10
11.6844321536
 20
8.3529094575
 30
0.0
 10
11.6932915362
 20
8.3475081047
 30
0.0
 10
11.701771786
 20
8.3414899971
 30
0.0
 10
11.7098263733
 20
8.3348881998
 30
0.0
 10
11.7174111007
 20
8.3277389679
 30
0.0
 10
11.7244843427
 20
8.3200815494
 30
0.0
 10
11.7310072721
 20
8.3119579718
 30
0.0
 10
11.7369440707
 20
8.303412814
 30
0.0
 10
11.7422621238
 20
8.294492964
 30
0.0
 10
11.7469322001
 20
8.285247364
 30
0.0
 10
11.7509286052
 20
8.2757267506
 30
0.0
 10
11.7542293373
 20
8.2659833557
 30
0.0
 10
11.7568161759
 20
8.2560707176
 30
0.0
 10
11.7586748457
 20
8.2460430462
 30
0.0
 10
11.7597949963
 20
8.2359561648
 30
0.0
 10
11.7600458964
 20
8.2292100393
 30
0.0
 10
11.7600458964
 20
8.2258468058
 30
0.0
  0
SPLINE
  5
389
100
AcDbEntity
  8
0
100
AcDbSpline
 62
7
  6
CONTINUOUS
 70
0
 71
3
 72
41
 73
37
 74
0
 42
0.0000001
 43
0.0000001
 44
0.0000000001
 40
0.0
 40
0.0
 40
0.0
 40
0.0
 40
0.0299421238
 40
0.0449237703
 40
0.059914519
 40
0.0899291762
 40
0.1200146048
 40
0.1350933663
 40
0.1501974853
 40
0.1804849834
 40
0.2108989722
 40
0.2414525913
 40
0.2721557558
 40
0.3030149766
 40
0.3340332647
 40
0.365210118
 40
0.396541585
 40
0.4280204007
 40
0.4596361866
 40
0.4913757084
 40
0.5232231826
 40
0.5551606251
 40
0.5871682346
 40
0.6192248024
 40
0.6513081434
 40
0.68339554
 40
0.7154641944
 40
0.7474916807
 40
0.7794563937
 40
0.8113379827
 40
0.8431177771
 40
0.8747791563
 40
0.9063079829
 40
0.9376927254
 40
0.9689252285
 40
1.0
 40
1.0
 40
1.0
 40
1.0
 10
11.5267212544
 20
6.2837210047
 30
0.0
 10
11.5290521022
 20
6.285972435
 30
0.0
 10
11.5326857409
 20
6.2892131865
 30
0.0
 10
11.5377746138
 20
6.2932342134
 30
0.0
 10
11.5430255129
 20
6.2970551887
 30
0.0
 10
11.5498771036
 20
6.301442879
 30
0.0
 10
11.5570618194
 20
6.3052808561
 30
0.0
 10
11.5629873537
 20
6.3080111974
 30
0.0
 10
11.569035293
 20
6.3105161501
 30
0.0
 10
11.5767945293
 20
6.3132096871
 30
0.0
 10
11.5863566171
 20
6.3157200088
 30
0.0
 10
11.5961273561
 20
6.3174983938
 30
0.0
 10
11.6060525981
 20
6.318535031
 30
0.0
 10
11.6160778212
 20
6.3188243883
 30
0.0
 10
11.6261478636
 20
6.3183649928
 30
0.0
 10
11.6362073777
 20
6.3171594984
 30
0.0
 10
11.6462010906
 20
6.3152146471
 30
0.0
 10
11.6560741153
 20
6.3125412327
 30
0.0
 10
11.6657722451
 20
6.3091540364
 30
0.0
 10
11.6752422479
 20
6.3050717436
 30
0.0
 10
11.6844321536
 20
6.3003168399
 30
0.0
 10
11.6932915362
 20
6.294915487
 30
0.0
 10
11.701771786
 20
6.2888973795
 30
0.0
 10
11.7098263733
 20
6.2822955822
 30
0.0
 10
11.7174111007
 20
6.2751463502
 30
0.0
 10
11.7244843427
 20
6.2674889317
 30
0.0
 10
11.7310072721
 20
6.2593653542
 30
0.0
 10
11.7369440707
 20
6.2508201963
 30
0.0
 10
11.7422621238
 20
6.2419003464
 30
0.0
 10
11.7469322001
 20
6.2326547464
 30
0.0
 10
11.7509286052
 20
6.223134133
 30
0.0
 10
11.7542293373
 20
6.2133907381
 30
0.0
 10
11.7568161759
 20
6.2034781
 30
0.0
 10
11.7586748457
 20
6.1934504285
 30
0.0
 10
11.7597949963
 20
6.1833635471
 30
0.0
 10
11.7600458964
 20
6.1766174216
 30
0.0
 10
11.7600458964
 20
6.1732541882
 30
0.0
  0
SPLINE
  5
38A
100
AcDbEntity
  8
0
100
AcDbSpline
 62
7
  6
CONTINUOUS
 70
0
 71
3
 72
41
 73
37
 74
0
 42
0.0000001
 43
0.0000001
 44
0.0000000001
 40
0.0
 40
0.0
 40
0.0
 40
0.0
 40
0.0299421238
 40
0.0449237703
 40
0.059914519
 40
0.0899291762
 40
0.1200146048
 40
0.1350933663
 40
0.1501974853
 40
0.1804849834
 40
0.2108989722
 40
0.2414525913
 40
0.2721557558
 40
0.3030149766
 40
0.3340332647
 40
0.365210118
 40
0.396541585
 40
0.4280204007
 40
0.4596361866
 40
0.4913757084
 40
0.5232231826
 40
0.5551606251
 40
0.5871682346
 40
0.6192248024
 40
0.6513081434
 40
0.68339554
 40
0.7154641944
 40
0.7474916807
 40
0.7794563937
 40
0.8113379827
 40
0.8431177771
 40
0.8747791563
 40
0.9063079829
 40
0.9376927254
 40
0.9689252285
 40
1.0
 40
1.0
 40
1.0
 40
1.0
 10
9.7764636623
 20
6.405101781
 30
0.0
 10
9.7787945102
 20
6.4073532113
 30
0.0
 10
9.7824281489
 20
6.4105939628
 30
0.0
 10
9.7875170218
 20
6.4146149896
 30
0.0
 10
9.7927679209
 20
6.4184359649
 30
0.0
 10
9.7996195115
 20
6.4228236552
 30
0.0
 10
9.8068042273
 20
6.4266616323
 30
0.0
 10
9.8127297617
 20
6.4293919736
 30
0.0
 10
9.8187777009
 20
6.4318969264
 30
0.0
 10
9.8265369373
 20
6.4345904634
 30
0.0
 10
9.8360990251
 20
6.4371007851
 30
0.0
 10
9.8458697641
 20
6.43887917
 30
0.0
 10
9.8557950061
 20
6.4399158073
 30
0.0
 10
9.8658202292
 20
6.4402051646
 30
0.0
 10
9.8758902716
 20
6.4397457691
 30
0.0
 10
9.8859497856
 20
6.4385402747
 30
0.0
 10
9.8959434986
 20
6.4365954234
 30
0.0
 10
9.9058165233
 20
6.433922009
 30
0.0
 10
9.9155146531
 20
6.4305348127
 30
0.0
 10
9.9249846558
 20
6.4264525199
 30
0.0
 10
9.9341745616
 20
6.4216976162
 30
0.0
 10
9.9430339442
 20
6.4162962633
 30
0.0
 10
9.951514194
 20
6.4102781557
 30
0.0
 10
9.9595687813
 20
6.4036763584
 30
0.0
 10
9.9671535086
 20
6.3965271265
 30
0.0
 10
9.9742267507
 20
6.388869708
 30
0.0
 10
9.9807496801
 20
6.3807461304
 30
0.0
 10
9.9866864787
 20
6.3722009726
 30
0.0
 10
9.9920045318
 20
6.3632811226
 30
0.0
 10
9.996674608
 20
6.3540355227
 30
0.0
 10
10.0006710132
 20
6.3445149092
 30
0.0
 10
10.0039717453
 20
6.3347715144
 30
0.0
 10
10.0065585839
 20
6.3248588762
 30
0.0
 10
10.0084172537
 20
6.3148312048
 30
0.0
 10
10.0095374043
 20
6.3047443234
 30
0.0
 10
10.0097883044
 20
6.2979981979
 30
0.0
 10
10.0097883044
 20
6.2946349644
 30
0.0
  0
SPLINE
  5
38B
100
AcDbEntity
  8
0
100
AcDbSpline
 62
7
  6
CONTINUOUS
 70
0
 71
3
 72
21
 73
17
 74
0
 42
0.0000001
 43
0.0000001
 44
0.0000000001
 40
0.0
 40
0.0
 40
0.0
 40
0.0
 40
0.0617147866
 40
0.1234506764
 40
0.1852285599
 40
0.2470689131
 40
0.3089915567
 40
0.3710154769
 40
0.4331586544
 40
0.4954378547
 40
0.5578685008
 40
0.6204644796
 40
0.6832380386
 40
0.7462000539
 40
0.8726823016
 40
1.0
 40
1.0
 40
1.0
 40
1.0
 10
10.2585035451
 20
7.1914683435
 30
0.0
 10
10.2605168573
 20
7.193413042
 30
0.0
 10
10.2644448477
 20
7.1974074706
 30
0.0
 10
10.2700218969
 20
7.2036953458
 30
0.0
 10
10.2752723431
 20
7.2102659729
 30
0.0
 10
10.2801838452
 20
7.2171040162
 30
0.0
 10
10.2847451069
 20
7.2241937713
 30
0.0
 10
10.2889456532
 20
7.2315188325
 30
0.0
 10
10.292775797
 20
7.2390623184
 30
0.0
 10
10.2962266777
 20
7.2468068402
 30
0.0
 10
10.2992904077
 20
7.2547345239
 30
0.0
 10
10.3019599237
 20
7.2628270339
 30
0.0
 10
10.3042290709
 20
7.2710659453
 30
0.0
 10
10.3067173133
 20
7.2822358286
 30
0.0
 10
10.3087991551
 20
7.2964756377
 30
0.0
 10
10.3093503854
 20
7.307994507
 30
0.0
 10
10.3093503854
 20
7.3137691715
 30
0.0
  0
SPLINE
  5
38C
100
AcDbEntity
  8
0
100
AcDbSpline
 62
7
  6
CONTINUOUS
 70
0
 71
3
 72
11
 73
7
 74
0
 42
0.0000001
 43
0.0000001
 44
0.0000000001
 40
0.0
 40
0.0
 40
0.0
 40
0.0
 40
0.2458016047
 40
0.4933047147
 40
0.7441736657
 40
1.0
 40
1.0
 40
1.0
 40
1.0
 10
11.3868339112
 20
9.9741970249
 30
0.0
 10
11.3868339159
 20
9.9731544982
 30
0.0
 10
11.3867432065
 20
9.971061124
 30
0.0
 10
11.386335621
 20
9.9679275529
 30
0.0
 10
11.385656776
 20
9.964797957
 30
0.0
 10
11.3850310292
 20
9.9627392287
 30
0.0
 10
11.3846758162
 20
9.9617139744
 30
0.0
  0
SPLINE
  5
38D
100
AcDbEntity
  8
0
100
AcDbSpline
 62
7
  6
CONTINUOUS
 70
0
 71
3
 72
14
 73
10
 74
0
 42
0.0000001
 43
0.0000001
 44
0.0000000001
 40
0.0
 40
0.0
 40
0.0
 40
0.0
 40
0.1109150792
 40
0.2250001227
 40
0.342744994
 40
0.4645904404
 40
0.7220102786
 40
0.858317806
 40
1.0
 40
1.0
 40
1.0
 40
1.0
 10
11.3846758162
 20
9.9617139744
 30
0.0
 10
11.3843250642
 20
9.960701596
 30
0.0
 10
11.383535265
 20
9.9586742373
 30
0.0
 10
11.3821160185
 20
9.9556802815
 30
0.0
 10
11.3804480725
 20
9.9526957993
 30
0.0
 10
11.3778464697
 20
9.9486577731
 30
0.0
 10
11.3747802991
 20
9.9447182032
 30
0.0
 10
11.371310783
 20
9.9408812518
 30
0.0
 10
11.3694182804
 20
9.9389744468
 30
0.0
 10
11.3684338923
 20
9.9380236009
 30
0.0
  0
SPLINE
  5
38E
100
AcDbEntity
  8
0
100
AcDbSpline
 62
7
  6
CONTINUOUS
 70
0
 71
3
 72
17
 73
13
 74
0
 42
0.0000001
 43
0.0000001
 44
0.0000000001
 40
0.0
 40
0.0
 40
0.0
 40
0.0
 40
0.0548654642
 40
0.1099349219
 40
0.2214349039
 40
0.3360992195
 40
0.4553348124
 40
0.517079118
 40
0.5804139608
 40
0.7123167483
 40
0.8519524535
 40
1.0
 40
1.0
 40
1.0
 40
1.0
 10
9.6910709033
 20
9.8370938107
 30
0.0
 10
9.6910708992
 20
9.8376234147
 30
0.0
 10
9.6911045263
 20
9.8386849309
 30
0.0
 10
9.6913067729
 20
9.8408139252
 30
0.0
 10
9.6918178209
 20
9.843487756
 30
0.0
 10
9.6928333484
 20
9.846670907
 30
0.0
 10
9.6940009969
 20
9.8492813234
 30
0.0
 10
9.6951245848
 20
9.8513556253
 30
0.0
 10
9.6964111383
 20
9.8534775348
 30
0.0
 10
9.6982792496
 20
9.8561211424
 30
0.0
 10
9.7008837405
 20
9.8592277603
 30
0.0
 10
9.7028208267
 20
9.8612211646
 30
0.0
 10
9.7038486916
 20
9.862214006
 30
0.0
  0
SPLINE
  5
38F
100
AcDbEntity
  8
0
100
AcDbSpline
 62
7
  6
CONTINUOUS
 70
0
 71
3
 72
18
 73
14
 74
0
 42
0.0000001
 43
0.0000001
 44
0.0000000001
 40
0.0
 40
0.0
 40
0.0
 40
0.0
 40
0.1492378719
 40
0.2896551254
 40
0.4219619721
 40
0.4853618993
 40
0.5470839706
 40
0.6660306019
 40
0.7801313525
 40
0.8358490322
 40
0.8909261152
 40
0.9455716555
 40
1.0
 40
1.0
 40
1.0
 40
1.0
 10
12.2961824295
 20
10.0432457468
 30
0.0
 10
12.2972839296
 20
10.042220686
 30
0.0
 10
12.2993597964
 20
10.0401625666
 30
0.0
 10
12.3021544942
 20
10.0369495116
 30
0.0
 10
12.3041609308
 20
10.0342122305
 30
0.0
 10
12.3055428197
 20
10.032014054
 30
0.0
 10
12.3067481446
 20
10.0298676939
 30
0.0
 10
12.3080013308
 20
10.0271660593
 30
0.0
 10
12.3089177291
 20
10.0243946495
 30
0.0
 10
12.3094261805
 20
10.0221835837
 30
0.0
 10
12.3096966115
 20
10.0205364092
 30
0.0
 10
12.3098589092
 20
10.0188882451
 30
0.0
 10
12.3098950183
 20
10.0177881782
 30
0.0
 10
12.3098950226
 20
10.0172394095
 30
0.0
  0
SPLINE
  5
390
100
AcDbEntity
  8
0
100
AcDbSpline
 62
7
  6
CONTINUOUS
 70
0
 71
3
 72
29
 73
25
 74
0
 42
0.0000001
 43
0.0000001
 44
0.0000000001
 40
0.0
 40
0.0
 40
0.0
 40
0.0
 40
0.0175015951
 40
0.0358879208
 40
0.0551826182
 40
0.0754049514
 40
0.0965696544
 40
0.1186861348
 40
0.1417598934
 40
0.1657929926
 40
0.1907845309
 40
0.2167310533
 40
0.2436264049
 40
0.2714626069
 40
0.3299124964
 40
0.3919821781
 40
0.4575459662
 40
0.5264574499
 40
0.5985521594
 40
0.6736497219
 40
0.7515556869
 40
0.8320630908
 40
0.9149538447
 40
1.0
 40
1.0
 40
1.0
 40
1.0
 10
10.0338453853
 20
10.1798946104
 30
0.0
 10
10.0347197665
 20
10.180708271
 30
0.0
 10
10.0365587502
 20
10.1823277829
 30
0.0
 10
10.039503116
 20
10.1846777573
 30
0.0
 10
10.0426979049
 20
10.187005404
 30
0.0
 10
10.0461405102
 20
10.1893089842
 30
0.0
 10
10.049828451
 20
10.1915868185
 30
0.0
 10
10.0537589376
 20
10.1938372837
 30
0.0
 10
10.0579290185
 20
10.1960586387
 30
0.0
 10
10.0623355182
 20
10.1982492056
 30
0.0
 10
10.0669750867
 20
10.2004073365
 30
0.0
 10
10.071844201
 20
10.2025313427
 30
0.0
 10
10.076939141
 20
10.2046196755
 30
0.0
 10
10.0841461082
 20
10.2073996396
 30
0.0
 10
10.0936983939
 20
10.2107628932
 30
0.0
 10
10.1058161305
 20
10.2145688405
 30
0.0
 10
10.1187315986
 20
10.2181960023
 30
0.0
 10
10.1324052132
 20
10.2216331156
 30
0.0
 10
10.146795196
 20
10.2248694873
 30
0.0
 10
10.1618574233
 20
10.2278950515
 30
0.0
 10
10.1775456631
 20
10.2307003973
 30
0.0
 10
10.1938117315
 20
10.2332768048
 30
0.0
 10
10.2106055603
 20
10.2356162579
 30
0.0
 10
10.2219836652
 20
10.2369966807
 30
0.0
 10
10.2277510239
 20
10.2376476635
 30
0.0
  0
SPLINE
  5
391
100
AcDbEntity
  8
0
100
AcDbSpline
 62
7
  6
CONTINUOUS
 70
0
 71
3
 72
11
 73
7
 74
0
 42
0.0000001
 43
0.0000001
 44
0.0000000001
 40
0.0
 40
0.0
 40
0.0
 40
0.0
 40
0.263754515
 40
0.5175437657
 40
0.7625200318
 40
1.0
 40
1.0
 40
1.0
 40
1.0
 10
10.875232905
 20
6.8781353115
 30
0.0
 10
10.8721946582
 20
6.8787220833
 30
0.0
 10
10.8661714649
 20
6.8795801968
 30
0.0
 10
10.8572184152
 20
6.879944188
 30
0.0
 10
10.8485822086
 20
6.8794349912
 30
0.0
 10
10.8429806843
 20
6.8785554429
 30
0.0
 10
10.8402516597
 20
6.8779942225
 30
0.0
  0
SPLINE
  5
392
100
AcDbEntity
  8
0
100
AcDbSpline
 62
7
  6
CONTINUOUS
 70
0
 71
3
 72
41
 73
37
 74
0
 42
0.0000001
 43
0.0000001
 44
0.0000000001
 40
0.0
 40
0.0
 40
0.0
 40
0.0
 40
0.0299421722
 40
0.0599087187
 40
0.0899234222
 40
0.1200088965
 40
0.1501860486
 40
0.1804735921
 40
0.2108876267
 40
0.2414412921
 40
0.2721445039
 40
0.3030037728
 40
0.3340221097
 40
0.3651990124
 40
0.3965305293
 40
0.4280093954
 40
0.4596252325
 40
0.4913648061
 40
0.523212333
 40
0.5551498293
 40
0.5871574933
 40
0.6192141165
 40
0.6512975132
 40
0.6833849656
 40
0.7154536753
 40
0.7314763803
 40
0.7474860474
 40
0.7794508144
 40
0.8113324582
 40
0.8431123019
 40
0.8747737477
 40
0.9063025846
 40
0.9376874998
 40
0.9533255315
 40
0.9689249968
 40
1.0
 40
1.0
 40
1.0
 40
1.0
 10
10.9719586472
 20
6.5087428407
 30
0.0
 10
10.9755917824
 20
6.5122521988
 30
0.0
 10
10.9831437071
 20
6.5189877276
 30
0.0
 10
10.9952431006
 20
6.5281636786
 30
0.0
 10
11.0080521255
 20
6.536366396
 30
0.0
 10
11.0214992189
 20
6.5435498563
 30
0.0
 10
11.0355104472
 20
6.5496748165
 30
0.0
 10
11.0500084848
 20
6.5547076067
 30
0.0
 10
11.0649134386
 20
6.5586206896
 30
0.0
 10
11.0801431929
 20
6.5613927006
 30
0.0
 10
11.095613895
 20
6.5630085806
 30
0.0
 10
11.1112404119
 20
6.5634596418
 30
0.0
 10
11.1269368007
 20
6.5627436071
 30
0.0
 10
11.142616779
 20
6.5608646088
 30
0.0
 10
11.1581941944
 20
6.5578331581
 30
0.0
 10
11.1735834924
 20
6.5536660793
 30
0.0
 10
11.1887001802
 20
6.5483864124
 30
0.0
 10
11.2034612832
 20
6.5420232826
 30
0.0
 10
11.2177857953
 20
6.5346117379
 30
0.0
 10
11.2315951141
 20
6.5261925587
 30
0.0
 10
11.2448134756
 20
6.5168120221
 30
0.0
 10
11.2573683317
 20
6.5065216951
 30
0.0
 10
11.2691908653
 20
6.4953779814
 30
0.0
 10
11.280215911
 20
6.4834424593
 30
0.0
 10
11.2886920458
 20
6.4728863019
 30
0.0
 10
11.2950160344
 20
6.4641120154
 30
0.0
 10
11.3010218315
 20
6.4551380466
 30
0.0
 10
11.3079268093
 20
6.4435566144
 30
0.0
 10
11.3152059909
 20
6.42914555
 30
0.0
 10
11.3214353257
 20
6.4143055246
 30
0.0
 10
11.326580241
 20
6.3991182413
 30
0.0
 10
11.3306123946
 20
6.3836674549
 30
0.0
 10
11.3330297512
 20
6.3706253103
 30
0.0
 10
11.3343858253
 20
6.3601461203
 30
0.0
 10
11.3353536169
 20
6.349676953
 30
0.0
 10
11.3356466542
 20
6.3417989826
 30
0.0
 10
11.3356466542
 20
6.3365566095
 30
0.0
  0
SPLINE
  5
393
100
AcDbEntity
  8
0
100
AcDbSpline
 62
7
  6
CONTINUOUS
 70
0
 71
3
 72
31
 73
27
 74
0
 42
0.0000001
 43
0.0000001
 44
0.0000000001
 40
0.0
 40
0.0
 40
0.0
 40
0.0
 40
0.0165871263
 40
0.0341538355
 40
0.0527304255
 40
0.072338885
 40
0.0929936113
 40
0.1147031244
 40
0.1374703581
 40
0.1612939683
 40
0.1861683735
 40
0.2120847496
 40
0.2390309588
 40
0.2669922952
 40
0.2959513939
 40
0.3258887698
 40
0.3567827625
 40
0.3886098985
 40
0.4549590901
 40
0.524717599
 40
0.5976420538
 40
0.6734695394
 40
0.7519200205
 40
0.832698842
 40
0.9154981096
 40
1.0
 40
1.0
 40
1.0
 40
1.0
 10
9.7336839652
 20
5.6173223082
 30
0.0
 10
9.7347096853
 20
5.6163677673
 30
0.0
 10
9.7368852685
 20
5.6144698519
 30
0.0
 10
9.7404009515
 20
5.6117316961
 30
0.0
 10
9.7442569437
 20
5.6090247737
 30
0.0
 10
9.7484492053
 20
5.6063519693
 30
0.0
 10
9.7529734857
 20
5.6037158056
 30
0.0
 10
9.7578251799
 20
5.6011190456
 30
0.0
 10
9.7629992819
 20
5.5985642722
 30
0.0
 10
9.768490474
 20
5.5960541976
 30
0.0
 10
9.774293053
 20
5.593591373
 30
0.0
 10
9.7804010044
 20
5.5911784276
 30
0.0
 10
9.7868079585
 20
5.588817845
 30
0.0
 10
9.7935072376
 20
5.5865121465
 30
0.0
 10
9.8004918376
 20
5.5842637242
 30
0.0
 10
9.807754452
 20
5.5820749794
 30
0.0
 10
9.8152874838
 20
5.5799481746
 30
0.0
 10
9.8258281364
 20
5.5771593682
 30
0.0
 10
9.8396263616
 20
5.5738556648
 30
0.0
 10
9.8569085799
 20
5.5702247741
 30
0.0
 10
9.8750648996
 20
5.5668899917
 30
0.0
 10
9.8940191414
 20
5.5638654858
 30
0.0
 10
9.9136919022
 20
5.5611641294
 30
0.0
 10
9.9340006435
 20
5.5587974136
 30
0.0
 10
9.9548600659
 20
5.5567753885
 30
0.0
 10
9.9689502899
 20
5.555672669
 30
0.0
 10
9.976071294
 20
5.5551788257
 30
0.0
  0
SPLINE
  5
394
100
AcDbEntity
  8
0
100
AcDbSpline
 62
7
  6
CONTINUOUS
 70
0
 71
3
 72
18
 73
14
 74
0
 42
0.0000001
 43
0.0000001
 44
0.0000000001
 40
0.0
 40
0.0
 40
0.0
 40
0.0
 40
0.0544283445
 40
0.1090738848
 40
0.1641509678
 40
0.2198686475
 40
0.3339693981
 40
0.4529160294
 40
0.5146381007
 40
0.5780380279
 40
0.7103448746
 40
0.8507621281
 40
1.0
 40
1.0
 40
1.0
 40
1.0
 10
9.6901049774
 20
5.6711224622
 30
0.0
 10
9.6901049817
 20
5.6705736936
 30
0.0
 10
9.6901410908
 20
5.6694736267
 30
0.0
 10
9.6903033885
 20
5.6678254626
 30
0.0
 10
9.6905738195
 20
5.6661782881
 30
0.0
 10
9.6910822709
 20
5.6639672223
 30
0.0
 10
9.6919986692
 20
5.6611958125
 30
0.0
 10
9.6932518554
 20
5.6584941778
 30
0.0
 10
9.6944571803
 20
5.6563478178
 30
0.0
 10
9.6958390692
 20
5.6541496413
 30
0.0
 10
9.6978455058
 20
5.6514123602
 30
0.0
 10
9.7006402036
 20
5.6481993052
 30
0.0
 10
9.7027160704
 20
5.6461411858
 30
0.0
 10
9.7038175705
 20
5.645116125
 30
0.0
  0
SPLINE
  5
395
100
AcDbEntity
  8
0
100
AcDbSpline
 62
7
  6
CONTINUOUS
 70
0
 71
3
 72
39
 73
35
 74
0
 42
0.0000001
 43
0.0000001
 44
0.0000000001
 40
0.0
 40
0.0
 40
0.0
 40
0.0
 40
0.0071758079
 40
0.0146741357
 40
0.022503624
 40
0.030671441
 40
0.0391835297
 40
0.0480445027
 40
0.0572573755
 40
0.0668240442
 40
0.0767454363
 40
0.0870215068
 40
0.1086328144
 40
0.1316444976
 40
0.1560319006
 40
0.1817621503
 40
0.2087952904
 40
0.2370851496
 40
0.2665801077
 40
0.2972237102
 40
0.3289551658
 40
0.3617097536
 40
0.3954191975
 40
0.4300120549
 40
0.4654140374
 40
0.501548304
 40
0.5383357251
 40
0.5756951818
 40
0.6135438486
 40
0.6903688691
 40
0.7681254643
 40
0.846115686
 40
0.9236386402
 40
1.0
 40
1.0
 40
1.0
 40
1.0
 10
11.9679789626
 20
9.7351397408
 30
0.0
 10
11.9672343651
 20
9.7344205148
 30
0.0
 10
11.9656746731
 20
9.7329876918
 30
0.0
 10
11.9631871247
 20
9.7309000741
 30
0.0
 10
11.9605026344
 20
9.7288290075
 30
0.0
 10
11.9576229482
 20
9.7267758528
 30
0.0
 10
11.9545497701
 20
9.7247417121
 30
0.0
 10
11.9512848564
 20
9.7227277881
 30
0.0
 10
11.9478301464
 20
9.7207351988
 30
0.0
 10
11.9441876863
 20
9.7187651554
 30
0.0
 10
11.9403596352
 20
9.71681883
 30
0.0
 10
11.9349194087
 20
9.7142130063
 30
0.0
 10
11.9276631659
 20
9.7110324881
 30
0.0
 10
11.9183952715
 20
9.7073899066
 30
0.0
 10
11.9084480839
 20
9.7038686668
 30
0.0
 10
11.8978453684
 20
9.7004772635
 30
0.0
 10
11.8866123117
 20
9.6972239082
 30
0.0
 10
11.8747757646
 20
9.6941164811
 30
0.0
 10
11.8623640619
 20
9.6911625187
 30
0.0
 10
11.8494069618
 20
9.6883691907
 30
0.0
 10
11.8359355592
 20
9.6857432814
 30
0.0
 10
11.8219822151
 20
9.683291166
 30
0.0
 10
11.8075804733
 20
9.6810187866
 30
0.0
 10
11.7927649693
 20
9.6789316537
 30
0.0
 10
11.7775713411
 20
9.6770348293
 30
0.0
 10
11.7620361439
 20
9.675332916
 30
0.0
 10
11.7461967759
 20
9.6738300417
 30
0.0
 10
11.730091335
 20
9.6725298174
 30
0.0
 10
11.7082064218
 20
9.6710634735
 30
0.0
 10
11.6804719745
 20
9.669763488
 30
0.0
 10
11.6469234241
 20
9.6690546902
 30
0.0
 10
11.61326682
 20
9.669196602
 30
0.0
 10
11.5798261245
 20
9.6701877781
 30
0.0
 10
11.5576568377
 20
9.6714212361
 30
0.0
 10
11.5466667807
 20
9.6721833992
 30
0.0
  0
SPLINE
  5
396
100
AcDbEntity
  8
0
100
AcDbSpline
 62
7
  6
CONTINUOUS
 70
0
 71
3
 72
41
 73
37
 74
0
 42
0.0000001
 43
0.0000001
 44
0.0000000001
 40
0.0
 40
0.0
 40
0.0
 40
0.0
 40
0.0071757878
 40
0.0146740945
 40
0.0225035609
 40
0.0306713549
 40
0.0391834197
 40
0.0480443679
 40
0.0572572149
 40
0.0668238567
 40
0.076745221
 40
0.0870212626
 40
0.0976512706
 40
0.1086336674
 40
0.131645286
 40
0.1560326206
 40
0.1817627982
 40
0.2087958624
 40
0.2370856423
 40
0.2665805176
 40
0.2972240341
 40
0.3289554007
 40
0.3617098966
 40
0.3954192459
 40
0.4300120062
 40
0.4654138894
 40
0.5015480547
 40
0.5383353725
 40
0.5756947244
 40
0.6135432851
 40
0.6517967806
 40
0.6903697378
 40
0.7681261148
 40
0.8461161177
 40
0.9236388544
 40
1.0
 40
1.0
 40
1.0
 40
1.0
 10
11.997922665
 20
9.7031194356
 30
0.0
 10
11.9971109671
 20
9.7023353956
 30
0.0
 10
11.9954107215
 20
9.700773452
 30
0.0
 10
11.9926990045
 20
9.6984977059
 30
0.0
 10
11.9897725979
 20
9.6962400025
 30
0.0
 10
11.9866334051
 20
9.6940018251
 30
0.0
 10
11.9832832836
 20
9.6917843753
 30
0.0
 10
11.979724148
 20
9.6895889636
 30
0.0
 10
11.9759581126
 20
9.6874168108
 30
0.0
 10
11.9719874068
 20
9.68526923
 30
0.0
 10
11.9678143891
 20
9.6831475265
 30
0.0
 10
11.9634415657
 20
9.681052917
 30
0.0
 10
11.9588715158
 20
9.6789866829
 30
0.0
 10
11.952417981
 20
9.6762281469
 30
0.0
 10
11.9438705723
 20
9.6728688887
 30
0.0
 10
11.9330271152
 20
9.6690303291
 30
0.0
 10
11.9214688835
 20
9.6653333047
 30
0.0
 10
11.9092235567
 20
9.6617867693
 30
0.0
 10
11.8963203408
 20
9.6583993124
 30
0.0
 10
11.8827901427
 20
9.6551791499
 30
0.0
 10
11.8686653966
 20
9.6521340976
 30
0.0
 10
11.8539800014
 20
9.6492715511
 30
0.0
 10
11.8387692338
 20
9.6465984602
 30
0.0
 10
11.8230696607
 20
9.6441213024
 30
0.0
 10
11.8069190386
 20
9.6418460849
 30
0.0
 10
11.7903562169
 20
9.6397783255
 30
0.0
 10
11.7734210468
 20
9.6379230432
 30
0.0
 10
11.7561542887
 20
9.6362847311
 30
0.0
 10
11.7385975053
 20
9.634867352
 30
0.0
 10
11.7207929712
 20
9.6336743457
 30
0.0
 10
11.7027835148
 20
9.6327085806
 30
0.0
 10
11.6784918344
 20
9.6317245447
 30
0.0
 10
11.6479346863
 20
9.6310790767
 30
0.0
 10
11.6112452133
 20
9.6312337383
 30
0.0
 10
11.5747909292
 20
9.632314246
 30
0.0
 10
11.550623837
 20
9.6336588564
 30
0.0
 10
11.5386433969
 20
9.6344897027
 30
0.0
  0
SPLINE
  5
397
100
AcDbEntity
  8
0
100
AcDbSpline
 62
7
  6
CONTINUOUS
 70
0
 71
3
 72
15
 73
11
 74
0
 42
0.0000001
 43
0.0000001
 44
0.0000000001
 40
0.0
 40
0.0
 40
0.0
 40
0.0
 40
0.127238256
 40
0.2537079987
 40
0.3794488115
 40
0.5045188445
 40
0.6290000311
 40
0.7529935108
 40
0.8766168055
 40
1.0
 40
1.0
 40
1.0
 40
1.0
 10
10.9309472539
 20
6.3836469837
 30
0.0
 10
10.9309472539
 20
6.3898379736
 30
0.0
 10
10.9314898543
 20
6.402189744
 30
0.0
 10
10.9339431783
 20
6.4205125742
 30
0.0
 10
10.9380147244
 20
6.4384387445
 30
0.0
 10
10.9436734958
 20
6.4558271833
 30
0.0
 10
10.9508758072
 20
6.4725429546
 30
0.0
 10
10.9595663779
 20
6.4884562463
 30
0.0
 10
10.9696764681
 20
6.5034415735
 30
0.0
 10
10.9773186241
 20
6.5127447554
 30
0.0
 10
10.9813440061
 20
6.5171986634
 30
0.0
  0
SPLINE
  5
398
100
AcDbEntity
  8
0
100
AcDbSpline
 62
7
  6
CONTINUOUS
 70
0
 71
3
 72
43
 73
39
 74
0
 42
0.0000001
 43
0.0000001
 44
0.0000000001
 40
0.0
 40
0.0
 40
0.0
 40
0.0
 40
0.0310352619
 40
0.0466131591
 40
0.0622284044
 40
0.0935650949
 40
0.1250423756
 40
0.1566497911
 40
0.1883742437
 40
0.2202003907
 40
0.2521109249
 40
0.2680942665
 40
0.2840914983
 40
0.3161128243
 40
0.3481584603
 40
0.3802069407
 40
0.412236747
 40
0.444226711
 40
0.4761564148
 40
0.50800658
 40
0.5397594422
 40
0.5713991036
 40
0.6029118597
 40
0.6342864913
 40
0.6655145185
 40
0.6965904075
 40
0.7275117257
 40
0.7582792372
 40
0.7888969353
 40
0.8193720053
 40
0.8497147149
 40
0.8648431368
 40
0.8799436387
 40
0.9100637771
 40
0.9400986689
 40
0.9550931214
 40
0.9700739222
 40
1.0
 40
1.0
 40
1.0
 40
1.0
 10
10.9309472539
 20
6.3836469837
 30
0.0
 10
10.9309472539
 20
6.3785506808
 30
0.0
 10
10.9312241631
 20
6.3708926904
 30
0.0
 10
10.9321389721
 20
6.3607136707
 30
0.0
 10
10.933420826
 20
6.3505239983
 30
0.0
 10
10.9357061608
 20
6.337837793
 30
0.0
 10
10.9395194287
 20
6.3227964016
 30
0.0
 10
10.9443870849
 20
6.3079951713
 30
0.0
 10
10.9502837752
 20
6.2935112659
 30
0.0
 10
10.9571785647
 20
6.2794200696
 30
0.0
 10
10.9637235302
 20
6.2680702184
 30
0.0
 10
10.9694198444
 20
6.2592576709
 30
0.0
 10
10.9754209951
 20
6.2506276345
 30
0.0
 10
10.9834701685
 20
6.2402185855
 30
0.0
 10
10.9939509002
 20
6.2284021284
 30
0.0
 10
11.0052033352
 20
6.2173155544
 30
0.0
 10
11.0171688412
 20
6.2070167649
 30
0.0
 10
11.0297854171
 20
6.1975591153
 30
0.0
 10
11.042987605
 20
6.1889917405
 30
0.0
 10
11.0567069342
 20
6.1813591411
 30
0.0
 10
11.0708722436
 20
6.174700997
 30
0.0
 10
11.0854100536
 20
6.1690519504
 30
0.0
 10
11.100244941
 20
6.1644414285
 30
0.0
 10
11.1152999244
 20
6.1608934893
 30
0.0
 10
11.1304968602
 20
6.1584266943
 30
0.0
 10
11.1457568379
 20
6.1570540071
 30
0.0
 10
11.1610006016
 20
6.156782727
 30
0.0
 10
11.176148897
 20
6.1576144227
 30
0.0
 10
11.1911231029
 20
6.1595449963
 30
0.0
 10
11.2058448139
 20
6.1625643997
 30
0.0
 10
11.2178526279
 20
6.165979074
 30
0.0
 10
11.2272525177
 20
6.1692371611
 30
0.0
 10
11.236488486
 20
6.1728350087
 30
0.0
 10
11.2477411612
 20
6.1779735298
 30
0.0
 10
11.2585534125
 20
6.1839480291
 30
0.0
 10
11.2668915248
 20
6.1892041203
 30
0.0
 10
11.2750062653
 20
6.194766456
 30
0.0
 10
11.2808452525
 20
6.1992860572
 30
0.0
 10
11.2846121687
 20
6.2024419007
 30
0.0
  0
SPLINE
  5
399
100
AcDbEntity
  8
0
100
AcDbSpline
 62
7
  6
CONTINUOUS
 70
0
 71
3
 72
42
 73
38
 74
0
 42
0.0000001
 43
0.0000001
 44
0.0000000001
 40
0.0
 40
0.0
 40
0.0
 40
0.0
 40
0.0310747366
 40
0.0466742
 40
0.0623120792
 40
0.0936967488
 40
0.1252253682
 40
0.1568865883
 40
0.1886662066
 40
0.2205476241
 40
0.252512164
 40
0.2845394778
 40
0.3166079598
 40
0.3486951849
 40
0.3807783552
 40
0.4128347537
 40
0.4448421953
 40
0.4767794716
 40
0.5086267812
 40
0.5403661404
 40
0.5719817657
 40
0.6034604225
 40
0.6347917325
 40
0.6659684304
 40
0.6969865646
 40
0.7278456325
 40
0.7585486449
 40
0.7891021123
 40
0.8195159494
 40
0.8498032954
 40
0.8649073374
 40
0.8799860228
 40
0.9100712971
 40
0.9400857983
 40
0.9550764701
 40
0.9700580366
 40
1.0
 40
1.0
 40
1.0
 40
1.0
 10
9.9471281791
 20
7.3388893668
 30
0.0
 10
9.9471281791
 20
7.334401061
 30
0.0
 10
9.9473790657
 20
7.3276562453
 30
0.0
 10
9.9482076474
 20
7.3186929549
 30
0.0
 10
9.9493686538
 20
7.3097210791
 30
0.0
 10
9.9514382932
 20
7.2985549171
 30
0.0
 10
9.9548904413
 20
7.2853265665
 30
0.0
 10
9.959295307
 20
7.2723237931
 30
0.0
 10
9.9646285565
 20
7.2596183983
 30
0.0
 10
9.9708608264
 20
7.2472799899
 30
0.0
 10
9.9779578305
 20
7.2353763028
 30
0.0
 10
9.985880558
 20
7.2239726432
 30
0.0
 10
9.9945854851
 20
7.2131315859
 30
0.0
 10
10.0040248121
 20
7.2029126211
 30
0.0
 10
10.014146724
 20
7.193371835
 30
0.0
 10
10.0248956714
 20
7.1845616045
 30
0.0
 10
10.0362126727
 20
7.1765303127
 30
0.0
 10
10.0480356339
 20
7.169322085
 30
0.0
 10
10.0602996852
 20
7.1629765493
 30
0.0
 10
10.0729375326
 20
7.1575286188
 30
0.0
 10
10.085879822
 20
7.1530083009
 30
0.0
 10
10.0990555147
 20
7.149440532
 30
0.0
 10
10.1123922716
 20
7.1468450379
 30
0.0
 10
10.1258168455
 20
7.1452362233
 30
0.0
 10
10.1392554743
 20
7.144623086
 30
0.0
 10
10.1526342964
 20
7.1450091679
 30
0.0
 10
10.1658796975
 20
7.1463925042
 30
0.0
 10
10.178918918
 20
7.1487657123
 30
0.0
 10
10.1916796963
 20
7.1521156995
 30
0.0
 10
10.2020345424
 20
7.1557102032
 30
0.0
 10
10.2101056352
 20
7.1590530487
 30
0.0
 10
10.2180133774
 20
7.1626966816
 30
0.0
 10
10.2276015313
 20
7.1678184527
 30
0.0
 10
10.2367451184
 20
7.1736738419
 30
0.0
 10
10.2437525815
 20
7.1787729163
 30
0.0
 10
10.2505437791
 20
7.1841390159
 30
0.0
 10
10.2553929807
 20
7.1884637874
 30
0.0
 10
10.2585035451
 20
7.1914683435
 30
0.0
  0
SPLINE
  5
39A
100
AcDbEntity
  8
0
100
AcDbSpline
 62
7
  6
CONTINUOUS
 70
0
 71
3
 72
21
 73
17
 74
0
 42
0.0000001
 43
0.0000001
 44
0.0000000001
 40
0.0
 40
0.0
 40
0.0
 40
0.0
 40
0.1273175725
 40
0.2538000026
 40
0.3167619332
 40
0.3795354925
 40
0.4421314982
 40
0.5045621433
 40
0.5668413429
 40
0.6289845306
 40
0.6910084612
 40
0.7529311022
 40
0.8147714553
 40
0.8765493457
 40
0.9382852283
 40
1.0
 40
1.0
 40
1.0
 40
1.0
 10
10.9125711172
 20
6.3658969976
 30
0.0
 10
10.9125711172
 20
6.372641706
 30
0.0
 10
10.9132149434
 20
6.3860955615
 30
0.0
 10
10.9156464445
 20
6.4027274354
 30
0.0
 10
10.9185526468
 20
6.4157736902
 30
0.0
 10
10.9212029489
 20
6.425396609
 30
0.0
 10
10.9243208299
 20
6.4348485548
 30
0.0
 10
10.9278991813
 20
6.4441079777
 30
0.0
 10
10.9319297201
 20
6.4531534692
 30
0.0
 10
10.9364031763
 20
6.4619641856
 30
0.0
 10
10.9413092889
 20
6.4705197744
 30
0.0
 10
10.9466367273
 20
6.4788005206
 30
0.0
 10
10.9523731861
 20
6.4867873133
 30
0.0
 10
10.9585055393
 20
6.4944617685
 30
0.0
 10
10.9650194058
 20
6.5018059352
 30
0.0
 10
10.9696071446
 20
6.5064714513
 30
0.0
 10
10.9719586472
 20
6.5087428407
 30
0.0
  0
SPLINE
  5
39B
100
AcDbEntity
  8
0
100
AcDbSpline
 62
7
  6
CONTINUOUS
 70
0
 71
3
 72
53
 73
49
 74
0
 42
0.0000001
 43
0.0000001
 44
0.0000000001
 40
0.0
 40
0.0
 40
0.0
 40
0.0
 40
0.0527850893
 40
0.1048062875
 40
0.1559447948
 40
0.2060909053
 40
0.2551345071
 40
0.302970028
 40
0.3494956453
 40
0.394613795
 40
0.4382317369
 40
0.4802620127
 40
0.5206231205
 40
0.5592401462
 40
0.5960455205
 40
0.630979967
 40
0.6639937254
 40
0.6950480956
 40
0.724117325
 40
0.7379046975
 40
0.7511934988
 40
0.763985398
 40
0.7762837369
 40
0.7880933299
 40
0.7994209949
 40
0.8102757033
 40
0.8206687266
 40
0.8306143016
 40
0.8401296535
 40
0.8492356228
 40
0.8579570947
 40
0.8663232304
 40
0.8743681253
 40
0.8821308248
 40
0.8896554973
 40
0.8969912634
 40
0.904191506
 40
0.911313045
 40
0.9184147508
 40
0.9255560501
 40
0.9327952929
 40
0.9401883194
 40
0.9477871408
 40
0.9637757361
 40
0.9722567854
 40
0.9811038243
 40
0.9903441174
 40
1.0
 40
1.0
 40
1.0
 40
1.0
 10
9.9770372199
 20
9.7810375789
 30
0.0
 10
9.9716356614
 20
9.7814121783
 30
0.0
 10
9.9609155646
 20
9.7822281225
 30
0.0
 10
9.9449832748
 20
9.7836638061
 30
0.0
 10
9.9293424011
 20
9.7852998322
 30
0.0
 10
9.9140308501
 20
9.7871321543
 30
0.0
 10
9.8990852787
 20
9.7891563903
 30
0.0
 10
9.8845417176
 20
9.7913676131
 30
0.0
 10
9.8704351251
 20
9.7937604579
 30
0.0
 10
9.8567994129
 20
9.7963291207
 30
0.0
 10
9.8436673497
 20
9.7990673684
 30
0.0
 10
9.8310704689
 20
9.8019685632
 30
0.0
 10
9.8190389825
 20
9.8050256585
 30
0.0
 10
9.8076017046
 20
9.8082312319
 30
0.0
 10
9.7967859705
 20
9.8115775104
 30
0.0
 10
9.7866175887
 20
9.8150563941
 30
0.0
 10
9.7771206447
 20
9.8186594953
 30
0.0
 10
9.7683177746
 20
9.8223781355
 30
0.0
 10
9.7614613845
 20
9.8256206519
 30
0.0
 10
9.7563488624
 20
9.8282733936
 30
0.0
 10
9.7527687376
 20
9.8302510799
 30
0.0
 10
9.7493770711
 20
9.8322509271
 30
0.0
 10
9.7461758405
 20
9.8342717289
 30
0.0
 10
9.7431669599
 20
9.8363123419
 30
0.0
 10
9.7403522009
 20
9.8383715749
 30
0.0
 10
9.7377332027
 20
9.8404482217
 30
0.0
 10
9.7353115524
 20
9.8425411691
 30
0.0
 10
9.7330886435
 20
9.8446491974
 30
0.0
 10
9.7310658352
 20
9.8467711962
 30
0.0
 10
9.7292443812
 20
9.8489060382
 30
0.0
 10
9.7276253964
 20
9.8510525626
 30
0.0
 10
9.7262100507
 20
9.8532097085
 30
0.0
 10
9.7249993271
 20
9.8553762897
 30
0.0
 10
9.7239942448
 20
9.8575511432
 30
0.0
 10
9.7231957899
 20
9.8597330116
 30
0.0
 10
9.7226047389
 20
9.8619204749
 30
0.0
 10
9.722221922
 20
9.8641120249
 30
0.0
 10
9.7220477907
 20
9.8663059575
 30
0.0
 10
9.7220825988
 20
9.8685004966
 30
0.0
 10
9.7223263682
 20
9.8706938299
 30
0.0
 10
9.7227786277
 20
9.8728841849
 30
0.0
 10
9.7234389596
 20
9.8750700282
 30
0.0
 10
9.724615113
 20
9.8780256422
 30
0.0
 10
9.7262029756
 20
9.8809233606
 30
0.0
 10
9.7281423642
 20
9.883739003
 30
0.0
 10
9.7298291492
 20
9.8858820425
 30
0.0
 10
9.7317178094
 20
9.8880126144
 30
0.0
 10
9.7330799934
 20
9.8893929794
 30
0.0
 10
9.733792394
 20
9.8900811056
 30
0.0
  0
SPLINE
  5
39C
100
AcDbEntity
  8
0
100
AcDbSpline
 62
7
  6
CONTINUOUS
 70
0
 71
3
 72
41
 73
37
 74
0
 42
0.0000001
 43
0.0000001
 44
0.0000000001
 40
0.0
 40
0.0
 40
0.0
 40
0.0
 40
0.0299421238
 40
0.0449237703
 40
0.059914519
 40
0.0899291762
 40
0.1200146048
 40
0.1350933663
 40
0.1501974853
 40
0.1804849834
 40
0.2108989722
 40
0.2414525913
 40
0.2721557558
 40
0.3030149766
 40
0.3340332647
 40
0.365210118
 40
0.396541585
 40
0.4280204007
 40
0.4596361866
 40
0.4913757084
 40
0.5232231826
 40
0.5551606251
 40
0.5871682346
 40
0.6192248024
 40
0.6513081434
 40
0.68339554
 40
0.7154641944
 40
0.7474916807
 40
0.7794563937
 40
0.8113379827
 40
0.8431177771
 40
0.8747791563
 40
0.9063079829
 40
0.9376927254
 40
0.9689252285
 40
1.0
 40
1.0
 40
1.0
 40
1.0
 10
9.9716877732
 20
8.2555841653
 30
0.0
 10
9.9693569253
 20
8.253332735
 30
0.0
 10
9.9657232866
 20
8.2500919834
 30
0.0
 10
9.9606344137
 20
8.2460709566
 30
0.0
 10
9.9553835146
 20
8.2422499813
 30
0.0
 10
9.948531924
 20
8.237862291
 30
0.0
 10
9.9413472082
 20
8.2340243139
 30
0.0
 10
9.9354216738
 20
8.2312939726
 30
0.0
 10
9.9293737346
 20
8.2287890198
 30
0.0
 10
9.9216144982
 20
8.2260954828
 30
0.0
 10
9.9120524105
 20
8.2235851611
 30
0.0
 10
9.9022816714
 20
8.2218067762
 30
0.0
 10
9.8923564295
 20
8.2207701389
 30
0.0
 10
9.8823312063
 20
8.2204807817
 30
0.0
 10
9.872261164
 20
8.2209401771
 30
0.0
 10
9.8622016499
 20
8.2221456715
 30
0.0
 10
9.852207937
 20
8.2240905228
 30
0.0
 10
9.8423349123
 20
8.2267639372
 30
0.0
 10
9.8326367824
 20
8.2301511335
 30
0.0
 10
9.8231667797
 20
8.2342334263
 30
0.0
 10
9.8139768739
 20
8.2389883301
 30
0.0
 10
9.8051174913
 20
8.2443896829
 30
0.0
 10
9.7966372416
 20
8.2504077905
 30
0.0
 10
9.7885826543
 20
8.2570095878
 30
0.0
 10
9.7809979269
 20
8.2641588197
 30
0.0
 10
9.7739246848
 20
8.2718162382
 30
0.0
 10
9.7674017555
 20
8.2799398158
 30
0.0
 10
9.7614649569
 20
8.2884849736
 30
0.0
 10
9.7561469038
 20
8.2974048236
 30
0.0
 10
9.7514768275
 20
8.3066504236
 30
0.0
 10
9.7474804223
 20
8.316171037
 30
0.0
 10
9.7441796902
 20
8.3259144319
 30
0.0
 10
9.7415928516
 20
8.33582707
 30
0.0
 10
9.7397341819
 20
8.3458547414
 30
0.0
 10
9.7386140312
 20
8.3559416228
 30
0.0
 10
9.7383631311
 20
8.3626877483
 30
0.0
 10
9.7383631311
 20
8.3660509818
 30
0.0
  0
SPLINE
  5
39D
100
AcDbEntity
  8
0
100
AcDbSpline
 62
7
  6
CONTINUOUS
 70
0
 71
3
 72
40
 73
36
 74
0
 42
0.0000001
 43
0.0000001
 44
0.0000000001
 40
0.0
 40
0.0
 40
0.0
 40
0.0
 40
0.0958313241
 40
0.1890999997
 40
0.2345965946
 40
0.2792415226
 40
0.3229681534
 40
0.3657118216
 40
0.4074099467
 40
0.4480024597
 40
0.4874320406
 40
0.5256441383
 40
0.5625874389
 40
0.5982141646
 40
0.6324801981
 40
0.6653457469
 40
0.6967757223
 40
0.7267401371
 40
0.7552151195
 40
0.7821835957
 40
0.807636302
 40
0.8315735259
 40
0.854006673
 40
0.8749606539
 40
0.8944772516
 40
0.9126187723
 40
0.9294730441
 40
0.945159307
 40
0.9598338401
 40
0.9668558655
 40
0.9737029019
 40
0.9804063157
 40
0.9869997191
 40
0.9935186517
 40
1.0
 40
1.0
 40
1.0
 40
1.0
 10
9.9690138362
 20
9.7433438825
 30
0.0
 10
9.9592465609
 20
9.7440212453
 30
0.0
 10
9.9399873573
 20
9.7455726991
 30
0.0
 10
9.9161464326
 20
9.7480606373
 30
0.0
 10
9.8975491264
 20
9.7503590695
 30
0.0
 10
9.8839981956
 20
9.7522135114
 30
0.0
 10
9.8707517621
 20
9.7542096226
 30
0.0
 10
9.8578319276
 20
9.7563440466
 30
0.0
 10
9.8452602865
 20
9.7586132075
 30
0.0
 10
9.8330578398
 20
9.7610132974
 30
0.0
 10
9.8212449576
 20
9.7635402547
 30
0.0
 10
9.8098413581
 20
9.7661898527
 30
0.0
 10
9.7988660613
 20
9.7689576344
 30
0.0
 10
9.7883373534
 20
9.771838922
 30
0.0
 10
9.7782727685
 20
9.7748289012
 30
0.0
 10
9.7686890358
 20
9.7779225388
 30
0.0
 10
9.7596020514
 20
9.7811146243
 30
0.0
 10
9.7510268655
 20
9.7843998486
 30
0.0
 10
9.7429776155
 20
9.7877727089
 30
0.0
 10
9.7354675104
 20
9.7912275948
 30
0.0
 10
9.7285088221
 20
9.7947588644
 30
0.0
 10
9.7221128022
 20
9.7983607568
 30
0.0
 10
9.7162896987
 20
9.8020275544
 30
0.0
 10
9.711048778
 20
9.8057536676
 30
0.0
 10
9.7063982633
 20
9.8095336421
 30
0.0
 10
9.7023455542
 20
9.8133623219
 30
0.0
 10
9.698897347
 20
9.8172352626
 30
0.0
 10
9.6960603034
 20
9.8211475028
 30
0.0
 10
9.6941837438
 20
9.8244863607
 30
0.0
 10
9.6930139756
 20
9.8271598089
 30
0.0
 10
9.6923057416
 20
9.8291406154
 30
0.0
 10
9.6917543352
 20
9.8311253181
 30
0.0
 10
9.6913601759
 20
9.8331131187
 30
0.0
 10
9.6911235692
 20
9.8351028524
 30
0.0
 10
9.6910709085
 20
9.8364316351
 30
0.0
 10
9.6910709033
 20
9.8370938107
 30
0.0
  0
SPLINE
  5
39E
100
AcDbEntity
  8
0
100
AcDbSpline
 62
7
  6
CONTINUOUS
 70
0
 71
3
 72
41
 73
37
 74
0
 42
0.0000001
 43
0.0000001
 44
0.0000000001
 40
0.0
 40
0.0
 40
0.0
 40
0.0
 40
0.0299421238
 40
0.0449237703
 40
0.059914519
 40
0.0899291762
 40
0.1200146048
 40
0.1350933663
 40
0.1501974853
 40
0.1804849834
 40
0.2108989722
 40
0.2414525913
 40
0.2721557558
 40
0.3030149766
 40
0.3340332647
 40
0.365210118
 40
0.396541585
 40
0.4280204007
 40
0.4596361866
 40
0.4913757084
 40
0.5232231826
 40
0.5551606251
 40
0.5871682346
 40
0.6192248024
 40
0.6513081434
 40
0.68339554
 40
0.7154641944
 40
0.7474916807
 40
0.7794563937
 40
0.8113379827
 40
0.8431177771
 40
0.8747791563
 40
0.9063079829
 40
0.9376927254
 40
0.9689252285
 40
1.0
 40
1.0
 40
1.0
 40
1.0
 10
11.7219453652
 20
8.134203389
 30
0.0
 10
11.7196145173
 20
8.1319519587
 30
0.0
 10
11.7159808786
 20
8.1287112071
 30
0.0
 10
11.7108920057
 20
8.1246901803
 30
0.0
 10
11.7056411066
 20
8.120869205
 30
0.0
 10
11.698789516
 20
8.1164815147
 30
0.0
 10
11.6916048002
 20
8.1126435376
 30
0.0
 10
11.6856792658
 20
8.1099131963
 30
0.0
 10
11.6796313266
 20
8.1074082436
 30
0.0
 10
11.6718720902
 20
8.1047147065
 30
0.0
 10
11.6623100025
 20
8.1022043849
 30
0.0
 10
11.6525392634
 20
8.1004259999
 30
0.0
 10
11.6426140215
 20
8.0993893626
 30
0.0
 10
11.6325887984
 20
8.0991000054
 30
0.0
 10
11.622518756
 20
8.0995594008
 30
0.0
 10
11.6124592419
 20
8.1007648953
 30
0.0
 10
11.602465529
 20
8.1027097465
 30
0.0
 10
11.5925925043
 20
8.1053831609
 30
0.0
 10
11.5828943745
 20
8.1087703573
 30
0.0
 10
11.5734243717
 20
8.1128526501
 30
0.0
 10
11.5642344659
 20
8.1176075538
 30
0.0
 10
11.5553750834
 20
8.1230089067
 30
0.0
 10
11.5468948336
 20
8.1290270142
 30
0.0
 10
11.5388402463
 20
8.1356288115
 30
0.0
 10
11.5312555189
 20
8.1427780434
 30
0.0
 10
11.5241822769
 20
8.150435462
 30
0.0
 10
11.5176593475
 20
8.1585590395
 30
0.0
 10
11.5117225489
 20
8.1671041974
 30
0.0
 10
11.5064044958
 20
8.1760240473
 30
0.0
 10
11.5017344195
 20
8.1852696473
 30
0.0
 10
11.4977380144
 20
8.1947902607
 30
0.0
 10
11.4944372822
 20
8.2045336556
 30
0.0
 10
11.4918504436
 20
8.2144462937
 30
0.0
 10
11.4899917739
 20
8.2244739651
 30
0.0
 10
11.4888716232
 20
8.2345608465
 30
0.0
 10
11.4886207232
 20
8.241306972
 30
0.0
 10
11.4886207232
 20
8.2446702055
 30
0.0
  0
SPLINE
  5
39F
100
AcDbEntity
  8
0
100
AcDbSpline
 62
7
  6
CONTINUOUS
 70
0
 71
3
 72
15
 73
11
 74
0
 42
0.0000001
 43
0.0000001
 44
0.0000000001
 40
0.0
 40
0.0
 40
0.0
 40
0.0
 40
0.127348315
 40
0.2538606239
 40
0.3795878599
 40
0.5046051181
 40
0.6290174391
 40
0.7529533757
 40
0.8765605793
 40
1.0
 40
1.0
 40
1.0
 40
1.0
 10
9.7383631311
 20
6.3134583641
 30
0.0
 10
9.7383631311
 20
6.3177854751
 30
0.0
 10
9.7387762847
 20
6.3264172729
 30
0.0
 10
9.7406447166
 20
6.3391989506
 30
0.0
 10
9.743742895
 20
6.3516594739
 30
0.0
 10
9.7480428271
 20
6.3636823133
 30
0.0
 10
9.75350509
 20
6.3751565845
 30
0.0
 10
9.7600798609
 20
6.3859763424
 30
0.0
 10
9.767705318
 20
6.3960402162
 30
0.0
 10
9.7734469009
 20
6.4021878078
 30
0.0
 10
9.7764636623
 20
6.405101781
 30
0.0
  0
SPLINE
  5
3A0
100
AcDbEntity
  8
0
100
AcDbSpline
 62
7
  6
CONTINUOUS
 70
0
 71
3
 72
41
 73
37
 74
0
 42
0.0000001
 43
0.0000001
 44
0.0000000001
 40
0.0
 40
0.0
 40
0.0
 40
0.0
 40
0.0299421238
 40
0.0449237703
 40
0.059914519
 40
0.0899291762
 40
0.1200146048
 40
0.1350933663
 40
0.1501974853
 40
0.1804849834
 40
0.2108989722
 40
0.2414525913
 40
0.2721557558
 40
0.3030149766
 40
0.3340332647
 40
0.365210118
 40
0.396541585
 40
0.4280204007
 40
0.4596361866
 40
0.4913757084
 40
0.5232231826
 40
0.5551606251
 40
0.5871682346
 40
0.6192248024
 40
0.6513081434
 40
0.68339554
 40
0.7154641944
 40
0.7474916807
 40
0.7794563937
 40
0.8113379827
 40
0.8431177771
 40
0.8747791563
 40
0.9063079829
 40
0.9376927254
 40
0.9689252285
 40
1.0
 40
1.0
 40
1.0
 40
1.0
 10
11.7219453652
 20
6.0816107714
 30
0.0
 10
11.7196145173
 20
6.0793593411
 30
0.0
 10
11.7159808786
 20
6.0761185895
 30
0.0
 10
11.7108920057
 20
6.0720975627
 30
0.0
 10
11.7056411066
 20
6.0682765874
 30
0.0
 10
11.698789516
 20
6.0638888971
 30
0.0
 10
11.6916048002
 20
6.06005092
 30
0.0
 10
11.6856792658
 20
6.0573205787
 30
0.0
 10
11.6796313266
 20
6.0548156259
 30
0.0
 10
11.6718720902
 20
6.0521220889
 30
0.0
 10
11.6623100025
 20
6.0496117672
 30
0.0
 10
11.6525392634
 20
6.0478333823
 30
0.0
 10
11.6426140215
 20
6.046796745
 30
0.0
 10
11.6325887984
 20
6.0465073878
 30
0.0
 10
11.622518756
 20
6.0469667832
 30
0.0
 10
11.6124592419
 20
6.0481722776
 30
0.0
 10
11.602465529
 20
6.0501171289
 30
0.0
 10
11.5925925043
 20
6.0527905433
 30
0.0
 10
11.5828943745
 20
6.0561777396
 30
0.0
 10
11.5734243717
 20
6.0602600324
 30
0.0
 10
11.5642344659
 20
6.0650149362
 30
0.0
 10
11.5553750834
 20
6.070416289
 30
0.0
 10
11.5468948336
 20
6.0764343966
 30
0.0
 10
11.5388402463
 20
6.0830361939
 30
0.0
 10
11.5312555189
 20
6.0901854258
 30
0.0
 10
11.5241822769
 20
6.0978428443
 30
0.0
 10
11.5176593475
 20
6.1059664219
 30
0.0
 10
11.5117225489
 20
6.1145115797
 30
0.0
 10
11.5064044958
 20
6.1234314297
 30
0.0
 10
11.5017344195
 20
6.1326770297
 30
0.0
 10
11.4977380144
 20
6.1421976431
 30
0.0
 10
11.4944372822
 20
6.151941038
 30
0.0
 10
11.4918504436
 20
6.1618536761
 30
0.0
 10
11.4899917739
 20
6.1718813475
 30
0.0
 10
11.4888716232
 20
6.1819682289
 30
0.0
 10
11.4886207232
 20
6.1887143544
 30
0.0
 10
11.4886207232
 20
6.1920775879
 30
0.0
  0
SPLINE
  5
3A1
100
AcDbEntity
  8
0
100
AcDbSpline
 62
7
  6
CONTINUOUS
 70
0
 71
3
 72
41
 73
37
 74
0
 42
0.0000001
 43
0.0000001
 44
0.0000000001
 40
0.0
 40
0.0
 40
0.0
 40
0.0
 40
0.0299421238
 40
0.0449237703
 40
0.059914519
 40
0.0899291762
 40
0.1200146048
 40
0.1350933663
 40
0.1501974853
 40
0.1804849834
 40
0.2108989722
 40
0.2414525913
 40
0.2721557558
 40
0.3030149766
 40
0.3340332647
 40
0.365210118
 40
0.396541585
 40
0.4280204007
 40
0.4596361866
 40
0.4913757084
 40
0.5232231826
 40
0.5551606251
 40
0.5871682346
 40
0.6192248024
 40
0.6513081434
 40
0.68339554
 40
0.7154641944
 40
0.7474916807
 40
0.7794563937
 40
0.8113379827
 40
0.8431177771
 40
0.8747791563
 40
0.9063079829
 40
0.9376927254
 40
0.9689252285
 40
1.0
 40
1.0
 40
1.0
 40
1.0
 10
9.9716877732
 20
6.2029915476
 30
0.0
 10
9.9693569253
 20
6.2007401173
 30
0.0
 10
9.9657232866
 20
6.1974993658
 30
0.0
 10
9.9606344137
 20
6.193478339
 30
0.0
 10
9.9553835146
 20
6.1896573637
 30
0.0
 10
9.948531924
 20
6.1852696734
 30
0.0
 10
9.9413472082
 20
6.1814316963
 30
0.0
 10
9.9354216738
 20
6.1787013549
 30
0.0
 10
9.9293737346
 20
6.1761964022
 30
0.0
 10
9.9216144982
 20
6.1735028652
 30
0.0
 10
9.9120524105
 20
6.1709925435
 30
0.0
 10
9.9022816714
 20
6.1692141585
 30
0.0
 10
9.8923564295
 20
6.1681775213
 30
0.0
 10
9.8823312063
 20
6.167888164
 30
0.0
 10
9.872261164
 20
6.1683475595
 30
0.0
 10
9.8622016499
 20
6.1695530539
 30
0.0
 10
9.852207937
 20
6.1714979052
 30
0.0
 10
9.8423349123
 20
6.1741713196
 30
0.0
 10
9.8326367824
 20
6.1775585159
 30
0.0
 10
9.8231667797
 20
6.1816408087
 30
0.0
 10
9.8139768739
 20
6.1863957124
 30
0.0
 10
9.8051174913
 20
6.1917970653
 30
0.0
 10
9.7966372416
 20
6.1978151728
 30
0.0
 10
9.7885826543
 20
6.2044169702
 30
0.0
 10
9.7809979269
 20
6.2115662021
 30
0.0
 10
9.7739246848
 20
6.2192236206
 30
0.0
 10
9.7674017555
 20
6.2273471981
 30
0.0
 10
9.7614649569
 20
6.235892356
 30
0.0
 10
9.7561469038
 20
6.2448122059
 30
0.0
 10
9.7514768275
 20
6.2540578059
 30
0.0
 10
9.7474804223
 20
6.2635784194
 30
0.0
 10
9.7441796902
 20
6.2733218142
 30
0.0
 10
9.7415928516
 20
6.2832344524
 30
0.0
 10
9.7397341819
 20
6.2932621238
 30
0.0
 10
9.7386140312
 20
6.3033490052
 30
0.0
 10
9.7383631311
 20
6.3100951307
 30
0.0
 10
9.7383631311
 20
6.3134583641
 30
0.0
  0
SPLINE
  5
3A2
100
AcDbEntity
  8
0
100
AcDbSpline
 62
7
  6
CONTINUOUS
 70
0
 71
3
 72
21
 73
17
 74
0
 42
0.0000001
 43
0.0000001
 44
0.0000000001
 40
0.0
 40
0.0
 40
0.0
 40
0.0
 40
0.0617147866
 40
0.1234506764
 40
0.1852285599
 40
0.2470689131
 40
0.3089915567
 40
0.3710154769
 40
0.4331586544
 40
0.4954378547
 40
0.5578685008
 40
0.6204644796
 40
0.6832380386
 40
0.7462000539
 40
0.8726823016
 40
1.0
 40
1.0
 40
1.0
 40
1.0
 10
9.9979750195
 20
7.4611901948
 30
0.0
 10
9.9959617073
 20
7.4592454964
 30
0.0
 10
9.9920337169
 20
7.4552510678
 30
0.0
 10
9.9864566677
 20
7.4489631926
 30
0.0
 10
9.9812062214
 20
7.4423925654
 30
0.0
 10
9.9762947194
 20
7.4355545221
 30
0.0
 10
9.9717334577
 20
7.4284647671
 30
0.0
 10
9.9675329113
 20
7.4211397058
 30
0.0
 10
9.9637027676
 20
7.4135962199
 30
0.0
 10
9.9602518869
 20
7.4058516981
 30
0.0
 10
9.9571881568
 20
7.3979240145
 30
0.0
 10
9.9545186408
 20
7.3898315044
 30
0.0
 10
9.9522494936
 20
7.3815925931
 30
0.0
 10
9.9497612513
 20
7.3704227098
 30
0.0
 10
9.9476794094
 20
7.3561829007
 30
0.0
 10
9.9471281791
 20
7.3446640313
 30
0.0
 10
9.9471281791
 20
7.3388893668
 30
0.0
  0
SPLINE
  5
3A3
100
AcDbEntity
  8
0
100
AcDbSpline
 62
7
  6
CONTINUOUS
 70
0
 71
3
 72
21
 73
17
 74
0
 42
0.0000001
 43
0.0000001
 44
0.0000000001
 40
0.0
 40
0.0
 40
0.0
 40
0.0
 40
0.0617147866
 40
0.1234506764
 40
0.1852285599
 40
0.2470689131
 40
0.3089915567
 40
0.3710154769
 40
0.4331586544
 40
0.4954378547
 40
0.5578685008
 40
0.6204644796
 40
0.6832380386
 40
0.7462000539
 40
0.8726823016
 40
1.0
 40
1.0
 40
1.0
 40
1.0
 10
10.5717349768
 20
7.8135656177
 30
0.0
 10
10.5697216646
 20
7.8116209193
 30
0.0
 10
10.5657936742
 20
7.8076264907
 30
0.0
 10
10.560216625
 20
7.8013386155
 30
0.0
 10
10.5549661787
 20
7.7947679883
 30
0.0
 10
10.5500546767
 20
7.787929945
 30
0.0
 10
10.545493415
 20
7.7808401899
 30
0.0
 10
10.5412928687
 20
7.7735151287
 30
0.0
 10
10.5374627249
 20
7.7659716428
 30
0.0
 10
10.5340118442
 20
7.758227121
 30
0.0
 10
10.5309481141
 20
7.7502994373
 30
0.0
 10
10.5282785981
 20
7.7422069273
 30
0.0
 10
10.5260094509
 20
7.7339680159
 30
0.0
 10
10.5235212086
 20
7.7227981327
 30
0.0
 10
10.5214393668
 20
7.7085583236
 30
0.0
 10
10.5208881364
 20
7.6970394542
 30
0.0
 10
10.5208881364
 20
7.6912647897
 30
0.0
  0
SPLINE
  5
3A4
100
AcDbEntity
  8
0
100
AcDbSpline
 62
7
  6
CONTINUOUS
 70
0
 71
3
 72
11
 73
7
 74
0
 42
0.0000001
 43
0.0000001
 44
0.0000000001
 40
0.0
 40
0.0
 40
0.0
 40
0.0
 40
0.2464207218
 40
0.4942891914
 40
0.7450263236
 40
1.0
 40
1.0
 40
1.0
 40
1.0
 10
10.3068339192
 20
9.9741963394
 30
0.0
 10
10.3068339148
 20
9.9751562578
 30
0.0
 10
10.306910744
 20
9.9770825974
 30
0.0
 10
10.3072560408
 20
9.9799670933
 30
0.0
 10
10.307831236
 20
9.982848579
 30
0.0
 10
10.3083624202
 20
9.984747784
 30
0.0
 10
10.3086642078
 20
9.985694062
 30
0.0
  0
SPLINE
  5
3A5
100
AcDbEntity
  8
0
100
AcDbSpline
 62
7
  6
CONTINUOUS
 70
0
 71
3
 72
15
 73
11
 74
0
 42
0.0000001
 43
0.0000001
 44
0.0000000001
 40
0.0
 40
0.0
 40
0.0
 40
0.0
 40
0.127348315
 40
0.2538606239
 40
0.3795878599
 40
0.5046051181
 40
0.6290174391
 40
0.7529533757
 40
0.8765605793
 40
1.0
 40
1.0
 40
1.0
 40
1.0
 10
9.7383631311
 20
8.3660509818
 30
0.0
 10
9.7383631311
 20
8.3703780928
 30
0.0
 10
9.7387762847
 20
8.3790098905
 30
0.0
 10
9.7406447166
 20
8.3917915682
 30
0.0
 10
9.743742895
 20
8.4042520916
 30
0.0
 10
9.7480428271
 20
8.4162749309
 30
0.0
 10
9.75350509
 20
8.4277492021
 30
0.0
 10
9.7600798609
 20
8.4385689601
 30
0.0
 10
9.767705318
 20
8.4486328338
 30
0.0
 10
9.7734469009
 20
8.4547804255
 30
0.0
 10
9.7764636623
 20
8.4576943986
 30
0.0
  0
SPLINE
  5
3A6
100
AcDbEntity
  8
0
100
AcDbSpline
 62
7
  6
CONTINUOUS
 70
0
 71
3
 72
15
 73
11
 74
0
 42
0.0000001
 43
0.0000001
 44
0.0000000001
 40
0.0
 40
0.0
 40
0.0
 40
0.0
 40
0.127348315
 40
0.2538606239
 40
0.3795878599
 40
0.5046051181
 40
0.6290174391
 40
0.7529533757
 40
0.8765605793
 40
1.0
 40
1.0
 40
1.0
 40
1.0
 10
11.4886207232
 20
6.1920775879
 30
0.0
 10
11.4886207232
 20
6.1964046988
 30
0.0
 10
11.4890338767
 20
6.2050364966
 30
0.0
 10
11.4909023086
 20
6.2178181743
 30
0.0
 10
11.494000487
 20
6.2302786977
 30
0.0
 10
11.4983004191
 20
6.242301537
 30
0.0
 10
11.503762682
 20
6.2537758082
 30
0.0
 10
11.5103374529
 20
6.2645955661
 30
0.0
 10
11.51796291
 20
6.2746594399
 30
0.0
 10
11.5237044929
 20
6.2808070316
 30
0.0
 10
11.5267212544
 20
6.2837210047
 30
0.0
  0
SPLINE
  5
3A7
100
AcDbEntity
  8
0
100
AcDbSpline
 62
7
  6
CONTINUOUS
 70
0
 71
3
 72
40
 73
36
 74
0
 42
0.0000001
 43
0.0000001
 44
0.0000000001
 40
0.0
 40
0.0
 40
0.0
 40
0.0
 40
0.0958313936
 40
0.1891002636
 40
0.2345968559
 40
0.2792418231
 40
0.3229685191
 40
0.3657121987
 40
0.4074103657
 40
0.4480029213
 40
0.4874324913
 40
0.5256446262
 40
0.5625879545
 40
0.5982146421
 40
0.632480706
 40
0.6653462654
 40
0.6967761768
 40
0.726740613
 40
0.7552155871
 40
0.7821839784
 40
0.8076366943
 40
0.8315738914
 40
0.8540069425
 40
0.8749609194
 40
0.8944774765
 40
0.9126189061
 40
0.9294731629
 40
0.9451593854
 40
0.9598338584
 40
0.9668558876
 40
0.9737029112
 40
0.9804063068
 40
0.9869997133
 40
0.9935186461
 40
1.0
 40
1.0
 40
1.0
 40
1.0
 10
9.9690138362
 20
8.7774179815
 30
0.0
 10
9.9592465453
 20
8.7780953454
 30
0.0
 10
9.9399872984
 20
8.7796468054
 30
0.0
 10
9.916146326
 20
8.7821347432
 30
0.0
 10
9.8975489812
 20
8.7844331892
 30
0.0
 10
9.8839980286
 20
8.7862876349
 30
0.0
 10
9.8707515715
 20
8.788283747
 30
0.0
 10
9.8578317157
 20
8.7904181859
 30
0.0
 10
9.845260054
 20
8.7926873498
 30
0.0
 10
9.8330575891
 20
8.7950874418
 30
0.0
 10
9.821244693
 20
8.7976144184
 30
0.0
 10
9.8098410779
 20
8.8002640181
 30
0.0
 10
9.7988657688
 20
8.8030318027
 30
0.0
 10
9.7883370556
 20
8.8059131141
 30
0.0
 10
9.7782724609
 20
8.808903093
 30
0.0
 10
9.7686887223
 20
8.8119967341
 30
0.0
 10
9.7596017425
 20
8.8151888476
 30
0.0
 10
9.7510265529
 20
8.8184740692
 30
0.0
 10
9.7429773038
 20
8.8218469334
 30
0.0
 10
9.7354672148
 20
8.8253018507
 30
0.0
 10
9.7285085283
 20
8.8288331149
 30
0.0
 10
9.7221125163
 20
8.8324350123
 30
0.0
 10
9.7162894422
 20
8.8361018429
 30
0.0
 10
9.7110485277
 20
8.8398279487
 30
0.0
 10
9.706398028
 20
8.8436079299
 30
0.0
 10
9.7023453628
 20
8.8474366409
 30
0.0
 10
9.6988971656
 20
8.8513095748
 30
0.0
 10
9.6960601422
 20
8.8552218237
 30
0.0
 10
9.6941836417
 20
8.8585607057
 30
0.0
 10
9.6930138703
 20
8.861234147
 30
0.0
 10
9.6923056537
 20
8.8632149599
 30
0.0
 10
9.6917542898
 20
8.8651996727
 30
0.0
 10
9.6913601251
 20
8.8671874719
 30
0.0
 10
9.6911235402
 20
8.8691772119
 30
0.0
 10
9.6910709056
 20
8.8705059972
 30
0.0
 10
9.691070909
 20
8.871168174
 30
0.0
  0
SPLINE
  5
3A8
100
AcDbEntity
  8
0
100
AcDbSpline
 62
7
  6
CONTINUOUS
 70
0
 71
3
 72
41
 73
37
 74
0
 42
0.0000001
 43
0.0000001
 44
0.0000000001
 40
0.0
 40
0.0
 40
0.0
 40
0.0
 40
0.0071758425
 40
0.0146741453
 40
0.0225035656
 40
0.0306713257
 40
0.0391834036
 40
0.0480443729
 40
0.0572572157
 40
0.0668238661
 40
0.0767452117
 40
0.087021259
 40
0.0976512753
 40
0.1086336553
 40
0.1316452786
 40
0.1560326285
 40
0.1817628121
 40
0.2087958578
 40
0.2370856249
 40
0.2665805114
 40
0.2972240455
 40
0.3289554128
 40
0.3617098907
 40
0.3954192316
 40
0.4300120033
 40
0.4654138991
 40
0.5015480605
 40
0.5383353682
 40
0.5756947176
 40
0.6135432851
 40
0.6517967846
 40
0.6903697386
 40
0.7681261117
 40
0.8461161118
 40
0.923638923
 40
1.0
 40
1.0
 40
1.0
 40
1.0
 10
11.997922665
 20
8.7371935346
 30
0.0
 10
11.9971109609
 20
8.7364094886
 30
0.0
 10
11.995410711
 20
8.734847538
 30
0.0
 10
11.9926989945
 20
8.7325717898
 30
0.0
 10
11.9897725931
 20
8.7303141014
 30
0.0
 10
11.9866334113
 20
8.7280759268
 30
0.0
 10
11.983283288
 20
8.7258584796
 30
0.0
 10
11.9797241492
 20
8.7236630642
 30
0.0
 10
11.9759581146
 20
8.7214909017
 30
0.0
 10
11.971987404
 20
8.7193433345
 30
0.0
 10
11.9678143918
 20
8.7172216218
 30
0.0
 10
11.963441567
 20
8.7151270169
 30
0.0
 10
11.9588715165
 20
8.7130607852
 30
0.0
 10
11.9524179867
 20
8.710302239
 30
0.0
 10
11.9438705747
 20
8.7069429873
 30
0.0
 10
11.9330271129
 20
8.7031044291
 30
0.0
 10
11.9214688797
 20
8.6994074081
 30
0.0
 10
11.9092235587
 20
8.695860867
 30
0.0
 10
11.8963203469
 20
8.6924734066
 30
0.0
 10
11.8827901454
 20
8.6892532471
 30
0.0
 10
11.8686653935
 20
8.6862081996
 30
0.0
 10
11.8539799981
 20
8.6833456541
 30
0.0
 10
11.8387692357
 20
8.6806725574
 30
0.0
 10
11.8230696654
 20
8.6781953962
 30
0.0
 10
11.8069190403
 20
8.6759201823
 30
0.0
 10
11.7903562147
 20
8.6738524284
 30
0.0
 10
11.773421045
 20
8.671997145
 30
0.0
 10
11.7561542899
 20
8.6703588281
 30
0.0
 10
11.7385975076
 20
8.6689414464
 30
0.0
 10
11.7207929719
 20
8.6677484437
 30
0.0
 10
11.7027835141
 20
8.6667826832
 30
0.0
 10
11.6784918343
 20
8.665798644
 30
0.0
 10
11.6479346878
 20
8.665153171
 30
0.0
 10
11.6112452041
 20
8.6653078401
 30
0.0
 10
11.5747909194
 20
8.6663883446
 30
0.0
 10
11.5506238262
 20
8.6677329561
 30
0.0
 10
11.5386433969
 20
8.6685638017
 30
0.0
  0
SPLINE
  5
3A9
100
AcDbEntity
  8
0
100
AcDbSpline
 62
7
  6
CONTINUOUS
 70
0
 71
3
 72
15
 73
11
 74
0
 42
0.0000001
 43
0.0000001
 44
0.0000000001
 40
0.0
 40
0.0
 40
0.0
 40
0.0
 40
0.127348315
 40
0.2538606239
 40
0.3795878599
 40
0.5046051181
 40
0.6290174391
 40
0.7529533757
 40
0.8765605793
 40
1.0
 40
1.0
 40
1.0
 40
1.0
 10
11.4886207232
 20
8.2446702055
 30
0.0
 10
11.4886207232
 20
8.2489973165
 30
0.0
 10
11.4890338767
 20
8.2576291143
 30
0.0
 10
11.4909023086
 20
8.270410792
 30
0.0
 10
11.494000487
 20
8.2828713153
 30
0.0
 10
11.4983004191
 20
8.2948941546
 30
0.0
 10
11.503762682
 20
8.3063684258
 30
0.0
 10
11.5103374529
 20
8.3171881838
 30
0.0
 10
11.51796291
 20
8.3272520575
 30
0.0
 10
11.5237044929
 20
8.3333996492
 30
0.0
 10
11.5267212544
 20
8.3363136223
 30
0.0
  0
SPLINE
  5
3AA
100
AcDbEntity
  8
0
100
AcDbSpline
 62
7
  6
CONTINUOUS
 70
0
 71
3
 72
17
 73
13
 74
0
 42
0.0000001
 43
0.0000001
 44
0.0000000001
 40
0.0
 40
0.0
 40
0.0
 40
0.0
 40
0.0548654278
 40
0.1099348511
 40
0.2214348476
 40
0.336099037
 40
0.4553350807
 40
0.5170795749
 40
0.5804144754
 40
0.7123166389
 40
0.8519515296
 40
1.0
 40
1.0
 40
1.0
 40
1.0
 10
12.3098950169
 20
9.0513132442
 30
0.0
 10
12.3098950141
 20
9.0507836453
 30
0.0
 10
12.3098613847
 20
9.0497221398
 30
0.0
 10
12.3096591295
 20
9.0475931658
 30
0.0
 10
12.3091480401
 20
9.0449193703
 30
0.0
 10
12.3081325293
 20
9.0417362429
 30
0.0
 10
12.3069648531
 20
9.0391258613
 30
0.0
 10
12.3058412727
 20
9.0370515724
 30
0.0
 10
12.3045547236
 20
9.0349296907
 30
0.0
 10
12.3026866317
 20
9.0322861223
 30
0.0
 10
12.3000821706
 20
9.0291795339
 30
0.0
 10
12.2981450963
 20
9.0271861518
 30
0.0
 10
12.2971172342
 20
9.0261933132
 30
0.0
  0
SPLINE
  5
3AB
100
AcDbEntity
  8
0
100
AcDbSpline
 62
7
  6
CONTINUOUS
 70
0
 71
3
 72
17
 73
13
 74
0
 42
0.0000001
 43
0.0000001
 44
0.0000000001
 40
0.0
 40
0.0
 40
0.0
 40
0.0
 40
0.0548654642
 40
0.1099349219
 40
0.2214349039
 40
0.3360992195
 40
0.4553348124
 40
0.517079118
 40
0.5804139608
 40
0.7123167483
 40
0.8519524535
 40
1.0
 40
1.0
 40
1.0
 40
1.0
 10
12.3098950226
 20
10.0172394095
 30
0.0
 10
12.3098950267
 20
10.0167098055
 30
0.0
 10
12.3098613996
 20
10.0156482893
 30
0.0
 10
12.309659153
 20
10.0135192951
 30
0.0
 10
12.309148105
 20
10.0108454642
 30
0.0
 10
12.3081325775
 20
10.0076623132
 30
0.0
 10
12.306964929
 20
10.0050518969
 30
0.0
 10
12.3058413411
 20
10.0029775949
 30
0.0
 10
12.3045547876
 20
10.0008556855
 30
0.0
 10
12.3026866762
 20
9.9982120778
 30
0.0
 10
12.3000821854
 20
9.9951054599
 30
0.0
 10
12.2981450992
 20
9.9931120556
 30
0.0
 10
12.2971172342
 20
9.9921192142
 30
0.0
  0
SPLINE
  5
3AC
100
AcDbEntity
  8
0
100
AcDbSpline
 62
7
  6
CONTINUOUS
 70
0
 71
3
 72
23
 73
19
 74
0
 42
0.0000001
 43
0.0000001
 44
0.0000000001
 40
0.0
 40
0.0
 40
0.0
 40
0.0
 40
0.0749625009
 40
0.1455684839
 40
0.2121600745
 40
0.2751631548
 40
0.3350982506
 40
0.3925832742
 40
0.4483295117
 40
0.5031237972
 40
0.5577983643
 40
0.613191491
 40
0.670106811
 40
0.729278715
 40
0.7913522906
 40
0.8568775564
 40
0.9263090861
 40
1.0
 40
1.0
 40
1.0
 40
1.0
 10
12.2663160348
 20
10.0710395636
 30
0.0
 10
12.2673093799
 20
10.0701151511
 30
0.0
 10
12.2691832736
 20
10.0682592591
 30
0.0
 10
12.2717117214
 20
10.0653637939
 30
0.0
 10
12.2738678324
 20
10.0624454077
 30
0.0
 10
12.2756483634
 20
10.0595066104
 30
0.0
 10
12.2770503737
 20
10.0565500206
 30
0.0
 10
12.2780706901
 20
10.0535786494
 30
0.0
 10
12.2787064585
 20
10.0505963279
 30
0.0
 10
12.2789554141
 20
10.0476077776
 30
0.0
 10
12.2788165771
 20
10.0446184339
 30
0.0
 10
12.2782905235
 20
10.041633815
 30
0.0
 10
12.2773791308
 20
10.0386589158
 30
0.0
 10
12.2760852674
 20
10.035697788
 30
0.0
 10
12.274411944
 20
10.0327536786
 30
0.0
 10
12.2723621944
 20
10.0298291602
 30
0.0
 10
12.2699391738
 20
10.0269270192
 30
0.0
 10
12.268132958
 20
10.025066254
 30
0.0
 10
12.2671735318
 20
10.0241395194
 30
0.0
  0
SPLINE
  5
3AD
100
AcDbEntity
  8
0
100
AcDbSpline
 62
7
  6
CONTINUOUS
 70
0
 71
3
 72
40
 73
36
 74
0
 42
0.0000001
 43
0.0000001
 44
0.0000000001
 40
0.0
 40
0.0
 40
0.0
 40
0.0
 40
0.0761046989
 40
0.1533642853
 40
0.231095153
 40
0.3086071158
 40
0.3852127395
 40
0.4229643348
 40
0.4602367688
 40
0.4969483719
 40
0.5330191242
 40
0.5683709424
 40
0.6029279546
 40
0.6366167566
 40
0.6693666968
 40
0.7011101988
 40
0.7317831362
 40
0.7613251678
 40
0.7896801387
 40
0.8167965582
 40
0.8426282142
 40
0.8671348513
 40
0.8902829918
 40
0.901339782
 40
0.9120481155
 40
0.9224061853
 40
0.9324130382
 40
0.9420684001
 40
0.9513728221
 40
0.9603278661
 40
0.9689360367
 40
0.9772013253
 40
0.9851291216
 40
0.9927260489
 40
1.0
 40
1.0
 40
1.0
 40
1.0
 10
11.537677471
 20
5.4685183543
 30
0.0
 10
11.5495850682
 20
5.4676925596
 30
0.0
 10
11.5736046403
 20
5.466354165
 30
0.0
 10
11.6098369419
 20
5.4652717932
 30
0.0
 10
11.6463059859
 20
5.465104114
 30
0.0
 10
11.6826649498
 20
5.4658528027
 30
0.0
 10
11.7127292537
 20
5.4672407904
 30
0.0
 10
11.7364594595
 20
5.4688104833
 30
0.0
 10
11.753929063
 20
5.4702040196
 30
0.0
 10
11.7711150932
 20
5.4718160834
 30
0.0
 10
11.787976709
 20
5.4736428506
 30
0.0
 10
11.8044738065
 20
5.4756799397
 30
0.0
 10
11.820567171
 20
5.4779224684
 30
0.0
 10
11.8362185524
 20
5.4803650645
 30
0.0
 10
11.8513907584
 20
5.4830018788
 30
0.0
 10
11.8660477515
 20
5.4858265985
 30
0.0
 10
11.8801547448
 20
5.4888324442
 30
0.0
 10
11.8936782831
 20
5.4920122069
 30
0.0
 10
11.906586327
 20
5.4953582621
 30
0.0
 10
11.9188483197
 20
5.4988625978
 30
0.0
 10
11.9304353571
 20
5.5025168177
 30
0.0
 10
11.9413200139
 20
5.5063121811
 30
0.0
 10
11.9499106375
 20
5.5096338568
 30
0.0
 10
11.9564054523
 20
5.5123620712
 30
0.0
 10
11.96101058
 20
5.5144065151
 30
0.0
 10
11.9654217115
 20
5.516479396
 30
0.0
 10
11.9696362699
 20
5.518579468
 30
0.0
 10
11.97365177
 20
5.5207055054
 30
0.0
 10
11.9774658348
 20
5.5228562817
 30
0.0
 10
11.9810762427
 20
5.5250304716
 30
0.0
 10
11.9844808643
 20
5.5272268712
 30
0.0
 10
11.9876777517
 20
5.5294442119
 30
0.0
 10
11.9906650936
 20
5.5316812831
 30
0.0
 10
11.993440975
 20
5.5339367359
 30
0.0
 10
11.9951867823
 20
5.5354847533
 30
0.0
 10
11.9960219412
 20
5.5362619447
 30
0.0
  0
SPLINE
  5
3AE
100
AcDbEntity
  8
0
100
AcDbSpline
 62
7
  6
CONTINUOUS
 70
0
 71
3
 72
11
 73
7
 74
0
 42
0.0000001
 43
0.0000001
 44
0.0000000001
 40
0.0
 40
0.0
 40
0.0
 40
0.0
 40
0.2549480762
 40
0.5056811573
 40
0.7535608496
 40
1.0
 40
1.0
 40
1.0
 40
1.0
 10
11.3850134382
 20
9.9856632331
 30
0.0
 10
11.3853136117
 20
9.9847194903
 30
0.0
 10
11.3858419469
 20
9.9828254032
 30
0.0
 10
11.3864139873
 20
9.9799518417
 30
0.0
 10
11.386757471
 20
9.9770753111
 30
0.0
 10
11.3868339069
 20
9.9751543031
 30
0.0
 10
11.3868339112
 20
9.9741970249
 30
0.0
  0
SPLINE
  5
3AF
100
AcDbEntity
  8
0
100
AcDbSpline
 62
7
  6
CONTINUOUS
 70
0
 71
3
 72
42
 73
38
 74
0
 42
0.0000001
 43
0.0000001
 44
0.0000000001
 40
0.0
 40
0.0
 40
0.0
 40
0.0
 40
0.0299419634
 40
0.0449235299
 40
0.0599142017
 40
0.0899287029
 40
0.1200139772
 40
0.1350926626
 40
0.1501967046
 40
0.1804840506
 40
0.2108978877
 40
0.2414513551
 40
0.2721543675
 40
0.3030134354
 40
0.3340315696
 40
0.3652082675
 40
0.3965395775
 40
0.4280182343
 40
0.4596338596
 40
0.4913732188
 40
0.5232205284
 40
0.5551578047
 40
0.5871652463
 40
0.6192216448
 40
0.6513048151
 40
0.6833920402
 40
0.7154605222
 40
0.747487836
 40
0.7794523759
 40
0.8113337934
 40
0.8431134117
 40
0.8747746318
 40
0.9063032512
 40
0.9376879208
 40
0.9533258
 40
0.9689252634
 40
1.0
 40
1.0
 40
1.0
 40
1.0
 10
10.8322635024
 20
7.5438437664
 30
0.0
 10
10.829152938
 20
7.5408392103
 30
0.0
 10
10.8243037364
 20
7.5365144387
 30
0.0
 10
10.8175125388
 20
7.5311483391
 30
0.0
 10
10.8105050757
 20
7.5260492648
 30
0.0
 10
10.8013614886
 20
7.5201938756
 30
0.0
 10
10.7917733347
 20
7.5150721045
 30
0.0
 10
10.7838655926
 20
7.5114284715
 30
0.0
 10
10.7757944997
 20
7.508085626
 30
0.0
 10
10.7654396536
 20
7.5044911224
 30
0.0
 10
10.7526788753
 20
7.5011411351
 30
0.0
 10
10.7396396548
 20
7.498767927
 30
0.0
 10
10.7263942537
 20
7.4973845908
 30
0.0
 10
10.7130154316
 20
7.4969985089
 30
0.0
 10
10.6995768028
 20
7.4976116461
 30
0.0
 10
10.6861522289
 20
7.4992204608
 30
0.0
 10
10.672815472
 20
7.5018159549
 30
0.0
 10
10.6596397793
 20
7.5053837238
 30
0.0
 10
10.6466974899
 20
7.5099040416
 30
0.0
 10
10.6340596425
 20
7.5153519722
 30
0.0
 10
10.6217955912
 20
7.5216975079
 30
0.0
 10
10.60997263
 20
7.5289057356
 30
0.0
 10
10.5986556287
 20
7.5369370274
 30
0.0
 10
10.5879066813
 20
7.5457472578
 30
0.0
 10
10.5777847694
 20
7.5552880439
 30
0.0
 10
10.5683454424
 20
7.5655070088
 30
0.0
 10
10.5596405153
 20
7.5763480661
 30
0.0
 10
10.5517177878
 20
7.5877517257
 30
0.0
 10
10.5446207837
 20
7.5996554128
 30
0.0
 10
10.5383885138
 20
7.6119938211
 30
0.0
 10
10.5330552643
 20
7.624699216
 30
0.0
 10
10.5286503986
 20
7.6377019894
 30
0.0
 10
10.5251982506
 20
7.6509303399
 30
0.0
 10
10.5231286111
 20
7.6620965019
 30
0.0
 10
10.5219676047
 20
7.6710683777
 30
0.0
 10
10.521139023
 20
7.6800316682
 30
0.0
 10
10.5208881364
 20
7.6867764838
 30
0.0
 10
10.5208881364
 20
7.6912647897
 30
0.0
  0
SPLINE
  5
3B0
100
AcDbEntity
  8
0
100
AcDbSpline
 62
7
  6
CONTINUOUS
 70
0
 71
3
 72
41
 73
37
 74
0
 42
0.0000001
 43
0.0000001
 44
0.0000000001
 40
0.0
 40
0.0
 40
0.0
 40
0.0
 40
0.0299421722
 40
0.0599087187
 40
0.0899234222
 40
0.1200088965
 40
0.1501860486
 40
0.1804735921
 40
0.2108876267
 40
0.2414412921
 40
0.2721445039
 40
0.3030037728
 40
0.3340221097
 40
0.3651990124
 40
0.3965305293
 40
0.4280093954
 40
0.4596252325
 40
0.4913648061
 40
0.523212333
 40
0.5551498293
 40
0.5871574933
 40
0.6192141165
 40
0.6512975132
 40
0.6833849656
 40
0.7154536753
 40
0.7314763803
 40
0.7474860474
 40
0.7794508144
 40
0.8113324582
 40
0.8431123019
 40
0.8747737477
 40
0.9063025846
 40
0.9376874998
 40
0.9533255315
 40
0.9689249968
 40
1.0
 40
1.0
 40
1.0
 40
1.0
 10
11.2762591241
 20
6.1937107665
 30
0.0
 10
11.272625989
 20
6.1902014084
 30
0.0
 10
11.2650740643
 20
6.1834658795
 30
0.0
 10
11.2529746708
 20
6.1742899286
 30
0.0
 10
11.2401656458
 20
6.1660872112
 30
0.0
 10
11.2267185525
 20
6.1589037509
 30
0.0
 10
11.2127073242
 20
6.1527787906
 30
0.0
 10
11.1982092866
 20
6.1477460005
 30
0.0
 10
11.1833043328
 20
6.1438329175
 30
0.0
 10
11.1680745785
 20
6.1410609066
 30
0.0
 10
11.1526038764
 20
6.1394450265
 30
0.0
 10
11.1369773595
 20
6.1389939653
 30
0.0
 10
11.1212809707
 20
6.1397100001
 30
0.0
 10
11.1056009924
 20
6.1415889983
 30
0.0
 10
11.090023577
 20
6.144620449
 30
0.0
 10
11.074634279
 20
6.1487875278
 30
0.0
 10
11.0595175912
 20
6.1540671948
 30
0.0
 10
11.0447564881
 20
6.1604303245
 30
0.0
 10
11.0304319761
 20
6.1678418692
 30
0.0
 10
11.0166226572
 20
6.1762610484
 30
0.0
 10
11.0034042958
 20
6.1856415851
 30
0.0
 10
10.9908494397
 20
6.195931912
 30
0.0
 10
10.9790269061
 20
6.2070756258
 30
0.0
 10
10.9680018604
 20
6.2190111478
 30
0.0
 10
10.9595257256
 20
6.2295673053
 30
0.0
 10
10.953201737
 20
6.2383415918
 30
0.0
 10
10.9471959398
 20
6.2473155605
 30
0.0
 10
10.9402909621
 20
6.2588969927
 30
0.0
 10
10.9330117805
 20
6.2733080571
 30
0.0
 10
10.9267824457
 20
6.2881480825
 30
0.0
 10
10.9216375304
 20
6.3033353658
 30
0.0
 10
10.9176053768
 20
6.3187861523
 30
0.0
 10
10.9151880202
 20
6.3318282968
 30
0.0
 10
10.913831946
 20
6.3423074868
 30
0.0
 10
10.9128641545
 20
6.3527766542
 30
0.0
 10
10.9125711172
 20
6.3606546245
 30
0.0
 10
10.9125711172
 20
6.3658969976
 30
0.0
  0
SPLINE
  5
3B1
100
AcDbEntity
  8
0
100
AcDbSpline
 62
7
  6
CONTINUOUS
 70
0
 71
3
 72
32
 73
28
 74
0
 42
0.0000001
 43
0.0000001
 44
0.0000000001
 40
0.0
 40
0.0
 40
0.0
 40
0.0
 40
0.0165871034
 40
0.0341537877
 40
0.0527303508
 40
0.0723387813
 40
0.0929934762
 40
0.1147029556
 40
0.1374701532
 40
0.1612937248
 40
0.186168089
 40
0.2120844216
 40
0.2390305848
 40
0.2669918729
 40
0.2959509208
 40
0.3258882436
 40
0.3567821809
 40
0.3886092592
 40
0.4213442018
 40
0.4549601395
 40
0.5247185182
 40
0.5976428349
 40
0.6734701755
 40
0.7519205052
 40
0.8326991697
 40
0.9154982754
 40
1.0
 40
1.0
 40
1.0
 40
1.0
 10
9.7038175705
 20
5.645116125
 30
0.0
 10
9.7049357257
 20
5.6440755648
 30
0.0
 10
9.7073073662
 20
5.6420066172
 30
0.0
 10
9.7111398718
 20
5.6390217103
 30
0.0
 10
9.7153433539
 20
5.6360708514
 30
0.0
 10
9.7199134083
 20
5.6331571851
 30
0.0
 10
9.7248454016
 20
5.6302834614
 30
0.0
 10
9.7301343137
 20
5.6274526923
 30
0.0
 10
9.7357746876
 20
5.6246676936
 30
0.0
 10
9.7417607263
 20
5.6219314217
 30
0.0
 10
9.7480862126
 20
5.6192466576
 30
0.0
 10
9.7547445901
 20
5.6166162679
 30
0.0
 10
9.761728915
 20
5.6140429596
 30
0.0
 10
9.769031908
 20
5.611529481
 30
0.0
 10
9.7766459333
 20
5.6090784416
 30
0.0
 10
9.7845630283
 20
5.6066924521
 30
0.0
 10
9.7927749016
 20
5.6043740055
 30
0.0
 10
9.8012729454
 20
5.6021255665
 30
0.0
 10
9.8100482596
 20
5.5999494767
 30
0.0
 10
9.8222570333
 20
5.5971125851
 30
0.0
 10
9.838146822
 20
5.593774379
 30
0.0
 10
9.8579392021
 20
5.5901390559
 30
0.0
 10
9.8786015569
 20
5.5868420012
 30
0.0
 10
9.9000471385
 20
5.583897208
 30
0.0
 10
9.922186024
 20
5.5813172143
 30
0.0
 10
9.9449252122
 20
5.5791129725
 30
0.0
 10
9.9602851902
 20
5.5779108805
 30
0.0
 10
9.9680479103
 20
5.577372534
 30
0.0
  0
ELLIPSE
  5
3B2
100
AcDbEntity
  8
0
100
AcDbEllipse
 62
7
  6
CONTINUOUS
 10
11.1242602494
 20
8.1621760895
 30
0.0
 11
-0.1361465482
 21
0.1438383595
 31
0.0
 40
0.8456173891
 41
0.0
 42
6.2831853072
  0
ELLIPSE
  5
3B3
100
AcDbEntity
  8
0
100
AcDbEllipse
 62
7
  6
CONTINUOUS
 10
10.7019992396
 20
6.8940731625
 30
0.0
 11
-0.0289557365
 21
0.2106979638
 31
0.0
 40
0.8113449983
 41
0.0
 42
6.2831853072
  0
ENDSEC
  0
SECTION
  2
OBJECTS
  0
DICTIONARY
  5
C
100
AcDbDictionary
280
0
281
1
  3
ACAD_GROUP
350
D
  3
ACAD_MLINESTYLE
350
17
  3
ACAD_LAYOUT
350
1A
  3
ACAD_PLOTSETTINGS
350
19
  3
ACAD_PLOTSTYLENAME
350
E
  3
ACAD_IMAGE_DICT
350
       3B5
  3
ACAD_IMAGE_VARS
350
       3B6
  3
ACAD_TABLESTYLE
350
       3B7
  0
IMAGEDEF_REACTOR
  5
3B4
100
AcDbRasterImageDefReactor
 90
2
330
275
  0
DICTIONARY
  5
D
102
{ACAD_REACTORS
330
C
102
}
100
AcDbDictionary
280
0
281
1
  0
ACDBDICTIONARYWDFLT
  5
E
102
{ACAD_REACTORS
330
C
102
}
100
AcDbDictionary
281
1
  3
Normal
350
F
100
AcDbDictionaryWithDefault
340
F
  0
DICTIONARY
  5
3B5
330
C
100
AcDbDictionary
281
1
  3
RPGCLAN-CB2-S_assy_2_img_1
350
       3BA
  0
RASTERVARIABLES
  5
3B6
330
C
100
AcDbRasterVariables
 90
0
 70
0
 71
1
 72
5
  0
DICTIONARY
  5
17
102
{ACAD_REACTORS
330
C
102
}
100
AcDbDictionary
280
0
281
1
  3
Standard
350
18
  0
DICTIONARY
  5
3B7
330
C
100
AcDbDictionary
281
1
  3
Standard
350
       3BB
  3
Standard1
350
       3BC
  0
DICTIONARY
  5
19
102
{ACAD_REACTORS
330
C
102
}
100
AcDbDictionary
281
1
  0
DICTIONARY
  5
1A
102
{ACAD_REACTORS
330
C
102
}
100
AcDbDictionary
281
1
  3
Model
350
3B8
  3
Layout1
350
3B9
  0
ACDBPLACEHOLDER
  5
F
102
{ACAD_REACTORS
330
E
102
}
  0
MLINESTYLE
  5
18
102
{ACAD_REACTORS
330
17
102
}
100
AcDbMlineStyle
  2
STANDARD
 70
0
  3

 62
256
 51
90.0
 52
90.0
 71
2
 49
0.5
 62
256
  6
BYLAYER
 49
-0.5
 62
256
  6
BYLAYER
  0
LAYOUT
  5
3B8
102
{ACAD_REACTORS
330
1A
102
}
100
AcDbPlotSettings
  1

  2
none_device
  4
ANSI_C_(22.00_x_17.00_Inches)
  6

 40
0.0
 41
0.0
 42
0.0
 43
0.0
 44
558.8
 45
431.8
 46
0.0
 47
0.0
 48
0.0
 49
0.0
140
0.0
141
0.0
142
1.0
143
1.0
 70
1024
 72
0
 73
0
 74
0
  7

 75
0
147
1.0
148
0.0
149
0.0
100
AcDbLayout
  1
Model
 70
0
 71
0
 10
0.0
 20
0.0
 11
22.0
 21
17.0
 12
0.0
 22
0.0
 32
0.0
 14
0.0
 24
0.0
 34
0.0
 15
0.0
 25
0.0
 35
0.0
146
0.0
 13
0.0
 23
0.0
 33
0.0
 16
1.0
 26
0.0
 36
0.0
 17
0.0
 27
1.0
 37
0.0
 76
0
330
20F
345
0
346
0
  0
LAYOUT
  5
3B9
102
{ACAD_REACTORS
330
1A
102
}
100
AcDbPlotSettings
  1

  2
none_device
  4
ANSI_C_(22.00_x_17.00_Inches)
  6

 40
0.0
 41
0.0
 42
0.0
 43
0.0
 44
558.8
 45
431.8
 46
0.0
 47
0.0
 48
0.0
 49
0.0
140
0.0
141
0.0
142
1.0
143
1.0
 70
0
 72
0
 73
0
 74
0
  7

 75
0
147
1.0
148
0.0
149
0.0
100
AcDbLayout
  1
Layout1
 70
0
 71
1
 10
0.0
 20
0.0
 11
22.0
 21
17.0
 12
0.0
 22
0.0
 32
0.0
 14
0.0
 24
0.0
 34
0.0
 15
0.0
 25
0.0
 35
0.0
146
0.0
 13
0.0
 23
0.0
 33
0.0
 16
1.0
 26
0.0
 36
0.0
 17
0.0
 27
1.0
 37
0.0
 76
0
330
210
345
0
346
0
  0
IMAGEDEF
  5
3BA
102
{ACAD_REACTORS
330
3B5
330
3B4
102
}
100
AcDbRasterImageDef
 90
0
  1
RPGCLAN-CB2-S_assy_2_img_1.png
 10
369.0
 20
92.0
 11
0.0066666667
 21
0.0066666667
280
1
281
0
  0
TABLESTYLE
  5
3BB
102
{ACAD_REACTORS
330
3B7
330
278
102
}
330
3B7
100
AcDbTableStyle
  3
Standard
 70
0
 71
0
 40
0.06
 41
0.06
280
1
281
1
  7
Standard
140
0.18
170
1
 62
0
 63
7
283
0
  7
Standard
140
0.18
170
1
 62
0
 63
7
283
0
  7
Standard
140
0.18
170
1
 62
0
 63
7
283
0
  0
TABLESTYLE
  5
3BC
102
{ACAD_REACTORS
330
3B7
330
277
102
}
330
3B7
100
AcDbTableStyle
  3
Standard1
 70
1
 71
0
 40
0.06
 41
0.06
280
1
281
1
  7
Standard
140
0.18
170
1
 62
0
 63
7
283
0
  7
Standard
140
0.18
170
1
 62
0
 63
7
283
0
  7
Standard
140
0.18
170
1
 62
0
 63
7
283
0
  0
ENDSEC
  0
EOF
