999
DXF file: RPECLWN-FAJ-S_assy_2.dxf
999
Pro/ENGINEER 2014200 by Parametric Technology Corporation
  0
SECTION
  2
HEADER
  9
$ACADVER
  1
AC1021
  9
$DWGCODEPAGE
  3
ANSI_1252
  9
$EXTMAX
 10
22.0
 20
17.0
 30
0.0
  9
$EXTMIN
 10
0.0
 20
0.0
 30
0.0
  9
$LIMMIN
 10
0.0
 20
0.0
  9
$LIMMAX
 10
22.0
 20
17.0
  9
$VIEWCTR
 10
11.0
 20
8.5
  9
$VIEWSIZE
 40
17.0
  9
$CLAYER
  8
0
  9
$LTSCALE
 40
1.21
  9
$CELTYPE
  6
BYLAYER
  9
$DIMSCALE
 40
1.0
  9
$DIMASZ
 40
0.1875
  9
$DIMEXO
 40
0.0625
  9
$DIMDLI
 40
0.836
  9
$DIMEXE
 40
0.125
  9
$DIMCEN
 40
0.198
  9
$DIMLFAC
 40
1.0
  9
$DIMBLK
  1
_FILLED
  9
$DIMTXT
 40
0.1
  9
$DIMTOL
 70
0
  9
$DIMLIM
 70
0
  9
$DIMTFAC
 40
1.0
  9
$DIMGAP
 40
0.09
  9
$DIMDSEP
 70
46
  9
$AUNITS
 70
0
  9
$PDMODE
 70
3
  9
$PDSIZE
 40
0.3125
  9
$HANDSEED
  5
3C2
  9
$TILEMODE
 70
1
  9
$MEASUREMENT
 70
0
  9
$INSUNITS
 70
1
  0
ENDSEC
  0
SECTION
  2
CLASSES
  0
CLASS
  1
ACDBDICTIONARYWDFLT
  2
AcDbDictionaryWithDefault
  3
AutoCAD 2000
 90
0
 91
1
280
0
281
0
  0
CLASS
  1
ACDBPLACEHOLDER
  2
AcDbPlaceHolder
  3
AutoCAD 2000
 90
0
 91
1
280
0
281
0
  0
CLASS
  1
LAYOUT
  2
AcDbLayout
  3
AutoCAD 2000
 90
0
 91
0
280
0
281
0
  0
CLASS
  1
RASTERVARIABLES
  2
AcDbRasterVariables
  3
ISM
 90
0
 91
1
280
0
281
0
  0
CLASS
  1
IMAGEDEF
  2
AcDbRasterImageDef
  3
ISM
 90
0
 91
1
280
0
281
0
  0
CLASS
  1
IMAGEDEF_REACTOR
  2
AcDbRasterImageDefReactor
  3
ISM
 90
0
 91
1
280
0
281
0
  0
CLASS
  1
IMAGE
  2
AcDbRasterImage
  3
ISM
 90
127
 91
1
280
0
281
1
  0
CLASS
  1
TABLESTYLE
  2
AcDbTableStyle
  3
ObjectDBX Classes
 90
2047
 91
1
280
0
281
0
  0
CLASS
  1
ACAD_TABLE
  2
AcDbTable
  3
ObjectDBX Classes
 90
1025
 91
3
280
0
281
1
  0
ENDSEC
  0
SECTION
  2
TABLES
  0
TABLE
  2
VPORT
  5
8
100
AcDbSymbolTable
 70
2
  0
VPORT
  5
1F4
100
AcDbSymbolTableRecord
100
AcDbViewportTableRecord
  2
*ACTIVE
 70
0
 10
0.0
 20
0.0
 11
1.0
 21
1.0
 12
11.0
 22
8.5
 13
0.0
 23
0.0
 14
1.0
 24
1.0
 15
0.0
 25
0.0
 16
0.0
 26
0.0
 36
1.0
 17
0.0
 27
0.0
 37
0.0
 40
17.0
 41
1.2941176471
 42
50.0
 43
0.0
 44
0.0
 50
0.0
 51
0.0
 71
0
 72
100
 73
1
 74
1
 75
0
 76
0
 77
0
 78
0
  0
ENDTAB
  0
TABLE
  2
LTYPE
  5
5
100
AcDbSymbolTable
 70
6
  0
LTYPE
  5
14
100
AcDbSymbolTableRecord
100
AcDbLinetypeTableRecord
  2
BYBLOCK
 70
0
  3

 72
65
 73
0
 40
0.0
  0
LTYPE
  5
15
100
AcDbSymbolTableRecord
100
AcDbLinetypeTableRecord
  2
BYLAYER
 70
0
  3

 72
65
 73
0
 40
0.0
  0
LTYPE
  5
16
100
AcDbSymbolTableRecord
100
AcDbLinetypeTableRecord
  2
CONTINUOUS
 70
64
  3
Solid line
 72
65
 73
0
 40
0.0
  0
LTYPE
  5
1F5
100
AcDbSymbolTableRecord
100
AcDbLinetypeTableRecord
  2
CENTER
 70
64
  3
____ _ ____ _ ____ _ ____ _ ____ _ ____ _ ____
 72
65
 73
4
 40
0.6
 49
0.375
 74
0
 49
-0.075
 74
0
 49
0.075
 74
0
 49
-0.075
 74
0
  0
LTYPE
  5
1F6
100
AcDbSymbolTableRecord
100
AcDbLinetypeTableRecord
  2
HIDDEN
 70
64
  3
- - - - - - - - - - - - - - - - - - - -
 72
65
 73
2
 40
0.2
 49
0.1
 74
0
 49
-0.1
 74
0
  0
LTYPE
  5
1F7
100
AcDbSymbolTableRecord
100
AcDbLinetypeTableRecord
  2
PHANTOM
 70
64
  3
_____ _ _ _____ _ _ _____ _ _ _____
 72
65
 73
6
 40
0.8
 49
0.45
 74
0
 49
-0.05
 74
0
 49
0.1
 74
0
 49
-0.05
 74
0
 49
0.1
 74
0
 49
-0.05
 74
0
  0
LTYPE
  5
1F8
100
AcDbSymbolTableRecord
100
AcDbLinetypeTableRecord
  2
DOT
 70
64
  3
. . . . . . . . . . . . . . . . . . . .
 72
65
 73
2
 40
0.2
 49
0.1
 74
0
 49
-0.1
 74
0
  0
LTYPE
  5
1F9
100
AcDbSymbolTableRecord
100
AcDbLinetypeTableRecord
  2
DASHED
 70
64
  3
- - - - - - - - - - - - - - - - - - - -
 72
65
 73
2
 40
0.2
 49
0.1
 74
0
 49
-0.1
 74
0
  0
ENDTAB
  0
TABLE
  2
LAYER
  5
2
100
AcDbSymbolTable
 70
36
  0
LAYER
  5
10
100
AcDbSymbolTableRecord
100
AcDbLayerTableRecord
  2
0
 70
0
 62
7
  6
CONTINUOUS
370
-3
390
F
  0
LAYER
  5
1FA
100
AcDbSymbolTableRecord
100
AcDbLayerTableRecord
  2
DEFAULT_1
 70
0
 62
7
  6
CENTER
370
-3
390
F
  0
LAYER
  5
1FB
100
AcDbSymbolTableRecord
100
AcDbLayerTableRecord
  2
DEFAULT_2
 70
0
 62
8
  6
HIDDEN
370
-3
390
F
  0
LAYER
  5
1FC
100
AcDbSymbolTableRecord
100
AcDbLayerTableRecord
  2
DEFAULT_3
 70
0
 62
7
  6
PHANTOM
370
-3
390
F
  0
LAYER
  5
1FD
100
AcDbSymbolTableRecord
100
AcDbLayerTableRecord
  2
DATUM_PLANES
 70
0
 62
7
  6
CONTINUOUS
370
-3
390
F
  0
LAYER
  5
1FE
100
AcDbSymbolTableRecord
100
AcDbLayerTableRecord
  2
PORT_AREAS
 70
0
 62
7
  6
CONTINUOUS
370
-3
390
F
  0
LAYER
  5
1FF
100
AcDbSymbolTableRecord
100
AcDbLayerTableRecord
  2
SUNNBOMCOSMETIC
 70
0
 62
7
  6
CONTINUOUS
370
-3
390
F
  0
LAYER
  5
200
100
AcDbSymbolTableRecord
100
AcDbLayerTableRecord
  2
SUNNBOMSTAMPING
 70
0
 62
7
  6
CONTINUOUS
370
-3
390
F
  0
LAYER
  5
201
100
AcDbSymbolTableRecord
100
AcDbLayerTableRecord
  2
THREADS
 70
0
 62
7
  6
CONTINUOUS
370
-3
390
F
  0
ENDTAB
  0
TABLE
  2
STYLE
  5
3
100
AcDbSymbolTable
 70
1
  0
STYLE
  5
11
100
AcDbSymbolTableRecord
100
AcDbTextStyleTableRecord
  2
STANDARD
 70
0
 40
0.0
 41
0.8
 50
0.0
 71
0
 42
0.2
  3
txt
  4

  0
STYLE
  5
202
100
AcDbSymbolTableRecord
100
AcDbTextStyleTableRecord
  2
TEXTSTYLE_1
 70
0
 40
0.0
 41
0.8
 50
0.0
 71
0
 42
0.2
  3
gdt
  4

  0
ENDTAB
  0
TABLE
  2
VIEW
  5
6
100
AcDbSymbolTable
 70
0
  0
ENDTAB
  0
TABLE
  2
UCS
  5
7
100
AcDbSymbolTable
 70
0
  0
ENDTAB
  0
TABLE
  2
APPID
  5
9
100
AcDbSymbolTable
 70
1
  0
APPID
  5
203
100
AcDbSymbolTableRecord
100
AcDbRegAppTableRecord
  2
ACAD
 70
0
  0
ENDTAB
  0
TABLE
  2
BLOCK_RECORD
  5
1
100
AcDbSymbolTable
 70
0
  0
BLOCK_RECORD
  5
204
100
AcDbSymbolTableRecord
100
AcDbBlockTableRecord
  2
*Model_Space
  0
BLOCK_RECORD
  5
205
100
AcDbSymbolTableRecord
100
AcDbBlockTableRecord
  2
*Paper_Space
  0
BLOCK_RECORD
  5
206
100
AcDbSymbolTableRecord
100
AcDbBlockTableRecord
  2
SUN_FIRST_THIRD_ANGLE_BL0
  0
BLOCK_RECORD
  5
207
100
AcDbSymbolTableRecord
100
AcDbBlockTableRecord
  2
*T1
  0
BLOCK_RECORD
  5
208
100
AcDbSymbolTableRecord
100
AcDbBlockTableRecord
  2
*T2
  0
BLOCK_RECORD
  5
209
100
AcDbSymbolTableRecord
100
AcDbBlockTableRecord
  2
*T3
  0
ENDTAB
  0
TABLE
  2
DIMSTYLE
  5
A
100
AcDbSymbolTable
 70
1
100
AcDbDimStyleTable
 71
0
  0
DIMSTYLE
105
20A
100
AcDbSymbolTableRecord
100
AcDbDimStyleTableRecord
  2
STANDARD
 70
0
  3

  4

 40
1.0
 41
0.1875
 42
0.0625
 43
0.38
 44
0.125
 45
0.0
 46
0.0
 47
0.001
 48
0.001
140
0.1
141
0.09
142
0.0
143
25.4
144
1.0
145
0.0
146
1.0
147
0.09
 71
0.0
 72
0.0
 73
1
 74
1
 75
0
 76
0
 77
0
 78
4
170
0
171
2
172
0
173
0
174
0
175
0
176
0
177
0
178
0
270
2
271
3
272
3
273
2
274
2
275
0
280
0
281
0
282
0
283
1
284
4
285
0
286
0
287
3
288
0
340
11
278
46
  0
ENDTAB
  0
ENDSEC
  0
SECTION
  2
BLOCKS
  0
BLOCK
  5
20
100
AcDbEntity
  8
0
100
AcDbBlockBegin
  2
*Model_Space
 70
0
 10
0.0
 20
0.0
 30
0.0
  3
*Model_Space
  1

  0
ENDBLK
  5
21
100
AcDbEntity
  8
0
100
AcDbBlockEnd
  0
BLOCK
  5
1C
100
AcDbEntity
  8
0
100
AcDbBlockBegin
  2
*Paper_Space
 70
0
 10
0.0
 20
0.0
 30
0.0
  3
*Paper_Space
  1

  0
ENDBLK
  5
1D
100
AcDbEntity
  8
0
100
AcDbBlockEnd
  0
BLOCK
  5
20B
100
AcDbEntity
  8
0
100
AcDbBlockBegin
 62
2
  6
CONTINUOUS
  2
SUN_FIRST_THIRD_ANGLE_BL0
 70
64
 10
20.4816717061
 20
1.2289683772
  3
SUN_FIRST_THIRD_ANGLE_BL0
  1

  0
TEXT
  5
20C
100
AcDbEntity
  8
0
100
AcDbText
 62
2
  6
CONTINUOUS
 10
19.4750896608
 20
1.4136269581
  7
STANDARD
 40
0.08
  1
FIRST ANGLE
 41
0.8
 72
0
100
AcDbText
  0
TEXT
  5
20D
100
AcDbEntity
  8
0
100
AcDbText
 62
2
  6
CONTINUOUS
 10
20.7842537513
 20
1.4047600029
  7
STANDARD
 40
0.08
  1
THIRD ANGLE
 41
0.8
 72
0
100
AcDbText
  0
LINE
  5
20E
100
AcDbEntity
  8
0
100
AcDbLine
 62
7
  6
CONTINUOUS
 10
19.4767170086
 20
1.1727031207
 11
19.6334271527
 21
1.1717972817
  0
LINE
  5
20F
100
AcDbEntity
  8
0
100
AcDbLine
 62
7
  6
CONTINUOUS
 10
19.6596964832
 20
1.1717972817
 11
19.6950230232
 21
1.171593082
  0
LINE
  5
210
100
AcDbEntity
  8
0
100
AcDbLine
 62
7
  6
CONTINUOUS
 10
19.7194818561
 20
1.1708914427
 11
19.8852396156
 21
1.1699333054
  0
LINE
  5
211
100
AcDbEntity
  8
0
100
AcDbLine
 62
7
  6
CONTINUOUS
 10
19.4758111696
 20
1.2723454088
 11
19.88525039
 21
1.3511534004
  0
LINE
  5
212
100
AcDbEntity
  8
0
100
AcDbLine
 62
7
  6
CONTINUOUS
 10
19.88525039
 20
1.3511534004
 11
19.8831348489
 21
0.9851647912
  0
LINE
  5
213
100
AcDbEntity
  8
0
100
AcDbLine
 62
7
  6
CONTINUOUS
 10
19.8831348489
 20
0.9851647912
 11
19.4767170086
 21
1.0658141206
  0
LINE
  5
214
100
AcDbEntity
  8
0
100
AcDbLine
 62
7
  6
CONTINUOUS
 10
19.4767170086
 20
1.0658141206
 11
19.4779056764
 21
1.2714536432
  0
CIRCLE
  5
215
100
AcDbEntity
  8
0
100
AcDbCircle
 62
7
  6
CONTINUOUS
 10
20.2068232291
 20
1.1717972817
 40
0.175742101
  0
CIRCLE
  5
216
100
AcDbEntity
  8
0
100
AcDbCircle
 62
7
  6
CONTINUOUS
 10
20.2068232291
 20
1.1717972817
 40
0.1005522074
  0
LINE
  5
217
100
AcDbEntity
  8
0
100
AcDbLine
 62
7
  6
CONTINUOUS
 10
20.2077290681
 20
1.3756110529
 11
20.2071171714
 21
1.2379342989
  0
LINE
  5
218
100
AcDbEntity
  8
0
100
AcDbLine
 62
7
  6
CONTINUOUS
 10
20.2077290681
 20
1.2016899681
 11
20.2074674401
 21
1.1428236749
  0
LINE
  5
219
100
AcDbEntity
  8
0
100
AcDbLine
 62
7
  6
CONTINUOUS
 10
20.208634907
 20
1.101141841
 11
20.2080230104
 21
0.963465087
  0
LINE
  5
21A
100
AcDbEntity
  8
0
100
AcDbLine
 62
7
  6
CONTINUOUS
 10
20.0066328138
 20
1.1745147986
 11
20.1443095678
 21
1.1739029019
  0
LINE
  5
21B
100
AcDbEntity
  8
0
100
AcDbLine
 62
7
  6
CONTINUOUS
 10
20.1832714155
 20
1.1727031207
 11
20.238153505
 21
1.172335442
  0
LINE
  5
21C
100
AcDbEntity
  8
0
100
AcDbLine
 62
7
  6
CONTINUOUS
 10
20.2756669918
 20
1.1717972817
 11
20.407916871
 21
1.1712095044
  0
CIRCLE
  5
21D
100
AcDbEntity
  8
0
100
AcDbCircle
 62
7
  6
CONTINUOUS
 10
20.7509457401
 20
1.1693297793
 40
0.1722024983
  0
CIRCLE
  5
21E
100
AcDbEntity
  8
0
100
AcDbCircle
 62
7
  6
CONTINUOUS
 10
20.7509457401
 20
1.1693297793
 40
0.0985164967
  0
LINE
  5
21F
100
AcDbEntity
  8
0
100
AcDbLine
 62
7
  6
CONTINUOUS
 10
20.7169767782
 20
1.170462078
 11
20.7825395137
 21
1.1682766535
  0
LINE
  5
220
100
AcDbEntity
  8
0
100
AcDbLine
 62
7
  6
CONTINUOUS
 10
20.8177513651
 20
1.1693297793
 11
20.947965719
 21
1.1693297793
  0
LINE
  5
221
100
AcDbEntity
  8
0
100
AcDbLine
 62
7
  6
CONTINUOUS
 10
20.6875370113
 20
1.170462078
 11
20.5573226574
 21
1.170462078
  0
LINE
  5
222
100
AcDbEntity
  8
0
100
AcDbLine
 62
7
  6
CONTINUOUS
 10
20.7486811426
 20
1.1987695462
 11
20.7486811426
 21
1.1432869085
  0
LINE
  5
223
100
AcDbEntity
  8
0
100
AcDbLine
 62
7
  6
CONTINUOUS
 10
20.7498134414
 20
1.1059210505
 11
20.7498134414
 21
0.9757066966
  0
LINE
  5
224
100
AcDbEntity
  8
0
100
AcDbLine
 62
7
  6
CONTINUOUS
 10
20.7486811426
 20
1.2338708068
 11
20.7486811426
 21
1.3640851607
  0
LINE
  5
225
100
AcDbEntity
  8
0
100
AcDbLine
 62
7
  6
CONTINUOUS
 10
21.0702539817
 20
1.2701043662
 11
21.4790138229
 21
1.3448360823
  0
LINE
  5
226
100
AcDbEntity
  8
0
100
AcDbLine
 62
7
  6
CONTINUOUS
 10
21.4790138229
 20
1.3448360823
 11
21.4790138229
 21
0.9779712941
  0
LINE
  5
227
100
AcDbEntity
  8
0
100
AcDbLine
 62
7
  6
CONTINUOUS
 10
21.4790138229
 20
0.9779712941
 11
21.069121683
 21
1.0617614
  0
LINE
  5
228
100
AcDbEntity
  8
0
100
AcDbLine
 62
7
  6
CONTINUOUS
 10
21.0702539817
 20
1.2701043662
 11
21.069121683
 21
1.0617614
  0
LINE
  5
229
100
AcDbEntity
  8
0
100
AcDbLine
 62
7
  6
CONTINUOUS
 10
21.4790138229
 20
1.1693297793
 11
21.3159628059
 21
1.1693297793
  0
LINE
  5
22A
100
AcDbEntity
  8
0
100
AcDbLine
 62
7
  6
CONTINUOUS
 10
21.2876553377
 20
1.1693297793
 11
21.2502894796
 21
1.1693297793
  0
LINE
  5
22B
100
AcDbEntity
  8
0
100
AcDbLine
 62
7
  6
CONTINUOUS
 10
21.2208497126
 20
1.1659328831
 11
21.0713862804
 21
1.1659328831
  0
LINE
  5
22C
100
AcDbEntity
  8
0
100
AcDbLine
 62
7
  6
CONTINUOUS
 10
20.4796138713
 20
1.5284908897
 11
20.4766766948
 21
0.9294458646
  0
ENDBLK
  5
22D
100
AcDbEntity
  8
0
  6
BYBLOCK
 62
0
100
AcDbBlockEnd
  0
BLOCK
  5
22E
100
AcDbEntity
  8
0
100
AcDbBlockBegin
  2
*T1
 70
1
 10
0.0
 20
0.0
  3
*T1
  1

  0
LINE
  5
22F
100
AcDbEntity
  8
0
100
AcDbLine
 62
2
  6
CONTINUOUS
 10
9.275
 20
0.0
 11
-0.0
 21
0.0
  0
LINE
  5
230
100
AcDbEntity
  8
0
100
AcDbLine
 62
2
  6
CONTINUOUS
 10
9.275
 20
0.0
 11
9.275
 21
1.25
  0
LINE
  5
231
100
AcDbEntity
  8
0
100
AcDbLine
 62
2
  6
CONTINUOUS
 10
9.275
 20
0.625
 11
-0.0
 21
0.625
  0
LINE
  5
232
100
AcDbEntity
  8
0
100
AcDbLine
 62
2
  6
CONTINUOUS
 10
9.275
 20
1.25
 11
-0.0
 21
1.25
  0
LINE
  5
233
100
AcDbEntity
  8
0
100
AcDbLine
 62
2
  6
CONTINUOUS
 10
6.8
 20
0.0
 11
6.8
 21
1.25
  0
LINE
  5
234
100
AcDbEntity
  8
0
100
AcDbLine
 62
2
  6
CONTINUOUS
 10
6.4
 20
0.0
 11
6.4
 21
0.625
  0
LINE
  5
235
100
AcDbEntity
  8
0
100
AcDbLine
 62
2
  6
CONTINUOUS
 10
5.9
 20
0.0
 11
5.9
 21
0.625
  0
LINE
  5
236
100
AcDbEntity
  8
0
100
AcDbLine
 62
2
  6
CONTINUOUS
 10
5.2
 20
0.0
 11
5.2
 21
0.625
  0
LINE
  5
237
100
AcDbEntity
  8
0
100
AcDbLine
 62
2
  6
CONTINUOUS
 10
4.1
 20
0.0
 11
4.1
 21
1.25
  0
LINE
  5
238
100
AcDbEntity
  8
0
100
AcDbLine
 62
2
  6
CONTINUOUS
 10
-0.0
 20
0.0
 11
-0.0
 21
1.25
  0
MTEXT
  5
239
100
AcDbEntity
  8
0
100
AcDbMText
 62
2
  6
CONTINUOUS
  7
STANDARD
 71
2
 72
1
 10
6.6
 20
0.325
 30
0.0
 11
1.0
 21
0.0
 31
0.0
 44
0.9
  1
2
 40
0.125
 41
0.2
  0
MTEXT
  5
23A
100
AcDbEntity
  8
0
100
AcDbMText
 62
2
  6
CONTINUOUS
  7
STANDARD
 71
2
 72
1
 10
6.15
 20
0.325
 30
0.0
 11
1.0
 21
0.0
 31
0.0
 44
0.9
  1
C
 40
0.125
 41
0.2
  0
MTEXT
  5
23B
100
AcDbEntity
  8
0
100
AcDbMText
 62
2
  6
CONTINUOUS
  7
STANDARD
 71
2
 72
1
 10
5.55
 20
0.325
 30
0.0
 11
1.0
 21
0.0
 31
0.0
 44
0.9
  1
2.000
 40
0.125
 41
1.0
  0
MTEXT
  5
23C
100
AcDbEntity
  8
0
100
AcDbMText
 62
2
  6
CONTINUOUS
  7
STANDARD
 71
2
 72
1
 10
4.65
 20
0.325
 30
0.0
 11
1.0
 21
0.0
 31
0.0
 44
0.9
  1
May-31-23
 40
0.125
 41
1.8
  0
MTEXT
  5
23D
100
AcDbEntity
  8
0
100
AcDbMText
 62
2
  6
CONTINUOUS
  7
STANDARD
 71
2
 72
1
 10
2.05
 20
0.4625
 30
0.0
 11
1.0
 21
0.0
 31
0.0
 44
0.9
  1
Relief manifold assembly
 40
0.125
 41
4.8
  0
MTEXT
  5
23E
100
AcDbEntity
  8
0
100
AcDbMText
 62
2
  6
CONTINUOUS
  7
STANDARD
 71
1
 72
1
 10
6.45
 20
0.5625
 30
0.0
 11
1.0
 21
0.0
 31
0.0
 44
0.9
  1
SHEET
 40
0.06
 41
0.48
  0
MTEXT
  5
23F
100
AcDbEntity
  8
0
100
AcDbMText
 62
2
  6
CONTINUOUS
  7
STANDARD
 71
1
 72
1
 10
5.95
 20
0.5625
 30
0.0
 11
1.0
 21
0.0
 31
0.0
 44
0.9
  1
DWG SIZE
 40
0.06
 41
0.768
  0
MTEXT
  5
240
100
AcDbEntity
  8
0
100
AcDbMText
 62
2
  6
CONTINUOUS
  7
STANDARD
 71
1
 72
1
 10
5.25
 20
0.5625
 30
0.0
 11
1.0
 21
0.0
 31
0.0
 44
0.9
  1
SCALE
 40
0.06
 41
0.48
  0
MTEXT
  5
241
100
AcDbEntity
  8
0
100
AcDbMText
 62
2
  6
CONTINUOUS
  7
STANDARD
 71
1
 72
1
 10
4.15
 20
0.5625
 30
0.0
 11
1.0
 21
0.0
 31
0.0
 44
0.9
  1
DATE
 40
0.06
 41
0.384
  0
MTEXT
  5
242
100
AcDbEntity
  8
0
100
AcDbMText
 62
2
  6
CONTINUOUS
  7
STANDARD
 71
1
 72
1
 10
0.05
 20
0.5625
 30
0.0
 11
1.0
 21
0.0
 31
0.0
 44
0.9
  1
DESCRIPTION
 40
0.06
 41
1.056
  0
MTEXT
  5
243
100
AcDbEntity
  8
0
100
AcDbMText
 62
2
  6
CONTINUOUS
  7
STANDARD
 71
2
 72
1
 10
5.45
 20
1.0375
 30
0.0
 11
1.0
 21
0.0
 31
0.0
 44
0.9
  1
ALL DIMENSIONS IN INCH\PVIEWS ARE THIRD ANGLE
 40
0.12
 41
4.224
  0
MTEXT
  5
244
100
AcDbEntity
  8
0
100
AcDbMText
 62
2
  6
CONTINUOUS
  7
STANDARD
 71
2
 72
1
 10
2.05
 20
0.95
 30
0.0
 11
1.0
 21
0.0
 31
0.0
 44
0.9
  1
RPECLWN-FAJ/S
 40
0.125
 41
2.6
  0
MTEXT
  5
245
100
AcDbEntity
  8
0
100
AcDbMText
 62
2
  6
CONTINUOUS
  7
STANDARD
 71
1
 72
1
 10
0.05
 20
1.1875
 30
0.0
 11
1.0
 21
0.0
 31
0.0
 44
0.9
  1
MODEL
 40
0.06
 41
0.48
  0
ENDBLK
  5
246
100
AcDbEntity
  8
0
  6
BYBLOCK
 62
0
100
AcDbBlockEnd
  0
BLOCK
  5
247
100
AcDbEntity
  8
0
100
AcDbBlockBegin
  2
*T2
 70
1
 10
0.0
 20
0.0
  3
*T2
  1

  0
LINE
  5
248
100
AcDbEntity
  8
0
100
AcDbLine
 62
2
  6
CONTINUOUS
 10
0.0
 20
0.0
 11
9.055
 21
0.0
  0
LINE
  5
249
100
AcDbEntity
  8
0
100
AcDbLine
 62
2
  6
CONTINUOUS
 10
0.0
 20
0.0
 11
0.0
 21
-2.594
  0
LINE
  5
24A
100
AcDbEntity
  8
0
100
AcDbLine
 62
2
  6
CONTINUOUS
 10
0.0
 20
-0.344
 11
9.055
 21
-0.344
  0
LINE
  5
24B
100
AcDbEntity
  8
0
100
AcDbLine
 62
2
  6
CONTINUOUS
 10
0.0
 20
-0.594
 11
9.055
 21
-0.594
  0
LINE
  5
24C
100
AcDbEntity
  8
0
100
AcDbLine
 62
2
  6
CONTINUOUS
 10
0.0
 20
-0.844
 11
9.055
 21
-0.844
  0
LINE
  5
24D
100
AcDbEntity
  8
0
100
AcDbLine
 62
2
  6
CONTINUOUS
 10
0.0
 20
-1.094
 11
9.055
 21
-1.094
  0
LINE
  5
24E
100
AcDbEntity
  8
0
100
AcDbLine
 62
2
  6
CONTINUOUS
 10
0.0
 20
-1.344
 11
9.055
 21
-1.344
  0
LINE
  5
24F
100
AcDbEntity
  8
0
100
AcDbLine
 62
2
  6
CONTINUOUS
 10
0.0
 20
-1.594
 11
9.055
 21
-1.594
  0
LINE
  5
250
100
AcDbEntity
  8
0
100
AcDbLine
 62
2
  6
CONTINUOUS
 10
0.0
 20
-1.844
 11
9.055
 21
-1.844
  0
LINE
  5
251
100
AcDbEntity
  8
0
100
AcDbLine
 62
2
  6
CONTINUOUS
 10
0.0
 20
-2.094
 11
9.055
 21
-2.094
  0
LINE
  5
252
100
AcDbEntity
  8
0
100
AcDbLine
 62
2
  6
CONTINUOUS
 10
0.0
 20
-2.344
 11
9.055
 21
-2.344
  0
LINE
  5
253
100
AcDbEntity
  8
0
100
AcDbLine
 62
2
  6
CONTINUOUS
 10
0.0
 20
-2.594
 11
9.055
 21
-2.594
  0
LINE
  5
254
100
AcDbEntity
  8
0
100
AcDbLine
 62
2
  6
CONTINUOUS
 10
3.055
 20
0.0
 11
3.055
 21
-2.594
  0
LINE
  5
255
100
AcDbEntity
  8
0
100
AcDbLine
 62
2
  6
CONTINUOUS
 10
9.055
 20
0.0
 11
9.055
 21
-2.594
  0
MTEXT
  5
256
100
AcDbEntity
  8
0
100
AcDbMText
 62
2
  6
CONTINUOUS
  7
STANDARD
 71
2
 72
1
 10
1.5275
 20
-0.0995
 30
0.0
 11
1.0
 21
0.0
 31
0.0
 44
0.9
  1
Technical Data
 40
0.145
 41
3.248
  0
MTEXT
  5
257
100
AcDbEntity
  8
0
100
AcDbMText
 62
2
  6
CONTINUOUS
  7
STANDARD
 71
2
 72
1
 10
4.555
 20
-0.0995
 30
0.0
 11
1.0
 21
0.0
 31
0.0
 44
0.9
  1
U.S. Units
 40
0.145
 41
2.32
  0
MTEXT
  5
258
100
AcDbEntity
  8
0
100
AcDbMText
 62
2
  6
CONTINUOUS
  7
STANDARD
 71
2
 72
1
 10
7.555
 20
-0.0995
 30
0.0
 11
1.0
 21
0.0
 31
0.0
 44
0.9
  1
Metric Units
 40
0.145
 41
2.784
  0
MTEXT
  5
259
100
AcDbEntity
  8
0
100
AcDbMText
 62
2
  6
CONTINUOUS
  7
STANDARD
 71
2
 72
1
 10
1.5275
 20
-0.4065
 30
0.0
 11
1.0
 21
0.0
 31
0.0
 44
0.9
  1
Cavity
 40
0.125
 41
1.2
  0
MTEXT
  5
25A
100
AcDbEntity
  8
0
100
AcDbMText
 62
2
  6
CONTINUOUS
  7
STANDARD
 71
2
 72
1
 10
6.055
 20
-0.4065
 30
0.0
 11
1.0
 21
0.0
 31
0.0
 44
0.9
  1
T-10A
 40
0.125
 41
1.0
  0
MTEXT
  5
25B
100
AcDbEntity
  8
0
100
AcDbMText
 62
2
  6
CONTINUOUS
  7
STANDARD
 71
2
 72
1
 10
1.5275
 20
-0.6565
 30
0.0
 11
1.0
 21
0.0
 31
0.0
 44
0.9
  1
Body Features
 40
0.125
 41
2.6
  0
MTEXT
  5
25C
100
AcDbEntity
  8
0
100
AcDbMText
 62
2
  6
CONTINUOUS
  7
STANDARD
 71
2
 72
1
 10
6.055
 20
-0.6565
 30
0.0
 11
1.0
 21
0.0
 31
0.0
 44
0.9
  1
Ninety degree
 40
0.125
 41
2.6
  0
MTEXT
  5
25D
100
AcDbEntity
  8
0
100
AcDbMText
 62
2
  6
CONTINUOUS
  7
STANDARD
 71
2
 72
1
 10
1.5275
 20
-0.9065
 30
0.0
 11
1.0
 21
0.0
 31
0.0
 44
0.9
  1
Body Type
 40
0.125
 41
1.8
  0
MTEXT
  5
25E
100
AcDbEntity
  8
0
100
AcDbMText
 62
2
  6
CONTINUOUS
  7
STANDARD
 71
2
 72
1
 10
6.055
 20
-0.9065
 30
0.0
 11
1.0
 21
0.0
 31
0.0
 44
0.9
  1
Line mount
 40
0.125
 41
2.0
  0
MTEXT
  5
25F
100
AcDbEntity
  8
0
100
AcDbMText
 62
2
  6
CONTINUOUS
  7
STANDARD
 71
2
 72
1
 10
1.5275
 20
-1.1565
 30
0.0
 11
1.0
 21
0.0
 31
0.0
 44
0.9
  1
Interface
 40
0.125
 41
1.8
  0
MTEXT
  5
260
100
AcDbEntity
  8
0
100
AcDbMText
 62
2
  6
CONTINUOUS
  7
STANDARD
 71
2
 72
1
 10
6.055
 20
-1.1565
 30
0.0
 11
1.0
 21
0.0
 31
0.0
 44
0.9
  1
None
 40
0.125
 41
0.8
  0
MTEXT
  5
261
100
AcDbEntity
  8
0
100
AcDbMText
 62
2
  6
CONTINUOUS
  7
STANDARD
 71
2
 72
1
 10
1.5275
 20
-1.4065
 30
0.0
 11
1.0
 21
0.0
 31
0.0
 44
0.9
  1
Open Cavity Quantity
 40
0.125
 41
4.0
  0
MTEXT
  5
262
100
AcDbEntity
  8
0
100
AcDbMText
 62
2
  6
CONTINUOUS
  7
STANDARD
 71
2
 72
1
 10
6.055
 20
-1.4065
 30
0.0
 11
1.0
 21
0.0
 31
0.0
 44
0.9
  1
1
 40
0.125
 41
0.2
  0
MTEXT
  5
263
100
AcDbEntity
  8
0
100
AcDbMText
 62
2
  6
CONTINUOUS
  7
STANDARD
 71
2
 72
1
 10
1.5275
 20
-1.6565
 30
0.0
 11
1.0
 21
0.0
 31
0.0
 44
0.9
  1
Weight
 40
0.125
 41
1.2
  0
MTEXT
  5
264
100
AcDbEntity
  8
0
100
AcDbMText
 62
2
  6
CONTINUOUS
  7
STANDARD
 71
2
 72
1
 10
4.555
 20
-1.6565
 30
0.0
 11
1.0
 21
0.0
 31
0.0
 44
0.9
  1
1.244 lb.
 40
0.125
 41
1.8
  0
MTEXT
  5
265
100
AcDbEntity
  8
0
100
AcDbMText
 62
2
  6
CONTINUOUS
  7
STANDARD
 71
2
 72
1
 10
7.555
 20
-1.6565
 30
0.0
 11
1.0
 21
0.0
 31
0.0
 44
0.9
  1
0,564 kg.
 40
0.125
 41
1.8
  0
MTEXT
  5
266
100
AcDbEntity
  8
0
100
AcDbMText
 62
2
  6
CONTINUOUS
  7
STANDARD
 71
2
 72
1
 10
1.5275
 20
-1.9065
 30
0.0
 11
1.0
 21
0.0
 31
0.0
 44
0.9
  1
Mounting Hole Diameter
 40
0.125
 41
4.4
  0
MTEXT
  5
267
100
AcDbEntity
  8
0
100
AcDbMText
 62
2
  6
CONTINUOUS
  7
STANDARD
 71
2
 72
1
 10
4.555
 20
-1.9065
 30
0.0
 11
1.0
 21
0.0
 31
0.0
 44
0.9
  1
.34 in.
 40
0.125
 41
1.4
  0
MTEXT
  5
268
100
AcDbEntity
  8
0
100
AcDbMText
 62
2
  6
CONTINUOUS
  7
STANDARD
 71
2
 72
1
 10
7.555
 20
-1.9065
 30
0.0
 11
1.0
 21
0.0
 31
0.0
 44
0.9
  1
8.6 mm
 40
0.125
 41
1.2
  0
MTEXT
  5
269
100
AcDbEntity
  8
0
100
AcDbMText
 62
2
  6
CONTINUOUS
  7
STANDARD
 71
2
 72
1
 10
1.5275
 20
-2.1565
 30
0.0
 11
1.0
 21
0.0
 31
0.0
 44
0.9
  1
Mounting Hole Depth
 40
0.125
 41
3.8
  0
MTEXT
  5
26A
100
AcDbEntity
  8
0
100
AcDbMText
 62
2
  6
CONTINUOUS
  7
STANDARD
 71
2
 72
1
 10
6.055
 20
-2.1565
 30
0.0
 11
1.0
 21
0.0
 31
0.0
 44
0.9
  1
Through
 40
0.125
 41
1.4
  0
MTEXT
  5
26B
100
AcDbEntity
  8
0
100
AcDbMText
 62
2
  6
CONTINUOUS
  7
STANDARD
 71
2
 72
1
 10
1.5275
 20
-2.4065
 30
0.0
 11
1.0
 21
0.0
 31
0.0
 44
0.9
  1
Mounting Hole Quantity
 40
0.125
 41
4.4
  0
MTEXT
  5
26C
100
AcDbEntity
  8
0
100
AcDbMText
 62
2
  6
CONTINUOUS
  7
STANDARD
 71
2
 72
1
 10
6.055
 20
-2.4065
 30
0.0
 11
1.0
 21
0.0
 31
0.0
 44
0.9
  1
1
 40
0.125
 41
0.2
  0
ENDBLK
  5
26D
100
AcDbEntity
  8
0
  6
BYBLOCK
 62
0
100
AcDbBlockEnd
  0
BLOCK
  5
26E
100
AcDbEntity
  8
0
100
AcDbBlockBegin
  2
*T3
 70
1
 10
0.0
 20
0.0
  3
*T3
  1

  0
LINE
  5
26F
100
AcDbEntity
  8
0
100
AcDbLine
 62
2
  6
CONTINUOUS
 10
0.0
 20
0.0
 11
4.6
 21
0.0
  0
LINE
  5
270
100
AcDbEntity
  8
0
100
AcDbLine
 62
2
  6
CONTINUOUS
 10
0.0
 20
0.0
 11
0.0
 21
-0.93775
  0
LINE
  5
271
100
AcDbEntity
  8
0
100
AcDbLine
 62
2
  6
CONTINUOUS
 10
0.0
 20
-0.34375
 11
4.6
 21
-0.34375
  0
LINE
  5
272
100
AcDbEntity
  8
0
100
AcDbLine
 62
2
  6
CONTINUOUS
 10
0.0
 20
-0.68775
 11
4.6
 21
-0.68775
  0
LINE
  5
273
100
AcDbEntity
  8
0
100
AcDbLine
 62
2
  6
CONTINUOUS
 10
0.0
 20
-0.93775
 11
4.6
 21
-0.93775
  0
LINE
  5
274
100
AcDbEntity
  8
0
100
AcDbLine
 62
2
  6
CONTINUOUS
 10
1.3
 20
-0.34375
 11
1.3
 21
-0.93775
  0
LINE
  5
275
100
AcDbEntity
  8
0
100
AcDbLine
 62
2
  6
CONTINUOUS
 10
3.3
 20
-0.34375
 11
3.3
 21
-0.93775
  0
LINE
  5
276
100
AcDbEntity
  8
0
100
AcDbLine
 62
2
  6
CONTINUOUS
 10
4.6
 20
0.0
 11
4.6
 21
-0.93775
  0
MTEXT
  5
277
100
AcDbEntity
  8
0
100
AcDbMText
 62
2
  6
CONTINUOUS
  7
STANDARD
 71
2
 72
1
 10
2.3
 20
-0.099375
 30
0.0
 11
1.0
 21
0.0
 31
0.0
 44
0.9
  1
Port Headings
 40
0.145
 41
3.016
  0
MTEXT
  5
278
100
AcDbEntity
  8
0
100
AcDbMText
 62
2
  6
CONTINUOUS
  7
STANDARD
 71
2
 72
1
 10
0.65
 20
-0.44325
 30
0.0
 11
1.0
 21
0.0
 31
0.0
 44
0.9
  1
Product
 40
0.145
 41
1.624
  0
MTEXT
  5
279
100
AcDbEntity
  8
0
100
AcDbMText
 62
2
  6
CONTINUOUS
  7
STANDARD
 71
2
 72
1
 10
2.3
 20
-0.44325
 30
0.0
 11
1.0
 21
0.0
 31
0.0
 44
0.9
  1
Port
 40
0.145
 41
0.928
  0
MTEXT
  5
27A
100
AcDbEntity
  8
0
100
AcDbMText
 62
2
  6
CONTINUOUS
  7
STANDARD
 71
2
 72
1
 10
3.95
 20
-0.44325
 30
0.0
 11
1.0
 21
0.0
 31
0.0
 44
0.9
  1
Size
 40
0.145
 41
0.928
  0
MTEXT
  5
27B
100
AcDbEntity
  8
0
100
AcDbMText
 62
2
  6
CONTINUOUS
  7
STANDARD
 71
2
 72
1
 10
0.65
 20
-0.75025
 30
0.0
 11
1.0
 21
0.0
 31
0.0
 44
0.9
  1
FAJ/S
 40
0.125
 41
1.0
  0
MTEXT
  5
27C
100
AcDbEntity
  8
0
100
AcDbMText
 62
2
  6
CONTINUOUS
  7
STANDARD
 71
2
 72
1
 10
2.3
 20
-0.75025
 30
0.0
 11
1.0
 21
0.0
 31
0.0
 44
0.9
  1
All Ports
 40
0.125
 41
1.8
  0
MTEXT
  5
27D
100
AcDbEntity
  8
0
100
AcDbMText
 62
2
  6
CONTINUOUS
  7
STANDARD
 71
2
 72
1
 10
3.95
 20
-0.75025
 30
0.0
 11
1.0
 21
0.0
 31
0.0
 44
0.9
  1
SAE 8
 40
0.125
 41
1.0
  0
ENDBLK
  5
27E
100
AcDbEntity
  8
0
  6
BYBLOCK
 62
0
100
AcDbBlockEnd
  0
ENDSEC
  0
SECTION
  2
ENTITIES
  0
IMAGE
  5
27F
100
AcDbEntity
  8
0
100
AcDbRasterImage
 62
7
  6
CONTINUOUS
 10
19.2297077316
 20
0.3094318264
 30
0.0
 11
0.0066666667
 21
0.0
 31
0.0
 12
0.0
 22
0.0066666667
 32
0.0
 13
369.0
 23
92.0
340
       3BF
 70
9
280
0
281
50
282
50
283
0
360
       3B9
 71
1
 91
2
 14
-0.5
 24
-0.5
 14
368.5
 24
91.5
  0
INSERT
  5
280
100
AcDbEntity
  8
0
100
AcDbBlockReference
 62
2
  6
CONTINUOUS
  2
SUN_FIRST_THIRD_ANGLE_BL0
 10
20.4816717061
 20
1.2289683772
  0
ACAD_TABLE
  5
281
100
AcDbEntity
  8
0
 62
2
  6
CONTINUOUS
100
AcDbBlockReference
  2
*T1
 10
12.42375
 20
0.30125
 30
0.0
100
AcDbTable
342
       3C1
343
207
 11
1.0
 21
0.0
 31
0.0
 90
6
 91
4
 92
6
 93
20
 94
0
 95
0
 96
0
 70
1
 41
0.0
141
0.525
141
0.1
141
0.525
141
0.1
142
4.1
142
1.1
142
0.7
142
0.5
142
0.4
142
2.475
171
1
172
0
173
0
174
0
175
1
176
1
 91
33
178
0
145
0.0
301
CELL_VALUE
 90
4
  1
Relief manifold assembly
304
ACVALUE_END
170
2
140
0.125
171
1
172
0
173
0
174
0
175
1
176
1
 91
33
178
0
145
0.0
301
CELL_VALUE
 90
4
  1
May-31-23
304
ACVALUE_END
170
5
140
0.125
171
1
172
0
173
0
174
0
175
1
176
1
 91
33
178
0
145
0.0
301
CELL_VALUE
 90
4
  1
2.000
304
ACVALUE_END
170
5
140
0.125
171
1
172
0
173
0
174
0
175
1
176
1
 91
33
178
0
145
0.0
301
CELL_VALUE
 90
4
  1
C
304
ACVALUE_END
170
5
140
0.125
171
1
172
0
173
0
174
0
175
1
176
1
 91
33
178
0
145
0.0
301
CELL_VALUE
 90
4
  1
2
304
ACVALUE_END
170
5
140
0.125
171
1
172
0
173
0
174
0
175
1
176
1
 91
33
178
0
145
0.0
301
CELL_VALUE
 90
4
  1
 
304
ACVALUE_END
170
1
140
0.125
171
1
172
0
173
0
174
0
175
1
176
1
 91
33
178
0
145
0.0
301
CELL_VALUE
 90
4
  1
DESCRIPTION
304
ACVALUE_END
170
1
140
0.06
171
1
172
0
173
0
174
0
175
1
176
1
 91
33
178
0
145
0.0
301
CELL_VALUE
 90
4
  1
DATE
304
ACVALUE_END
170
1
140
0.06
171
1
172
0
173
0
174
0
175
1
176
1
 91
33
178
0
145
0.0
301
CELL_VALUE
 90
4
  1
SCALE
304
ACVALUE_END
170
1
140
0.06
171
1
172
0
173
0
174
0
175
1
176
1
 91
33
178
0
145
0.0
301
CELL_VALUE
 90
4
  1
DWG SIZE
304
ACVALUE_END
170
1
140
0.06
171
1
172
0
173
0
174
0
175
1
176
1
 91
33
178
0
145
0.0
301
CELL_VALUE
 90
4
  1
SHEET
304
ACVALUE_END
170
1
140
0.06
171
1
172
0
173
0
174
0
175
1
176
1
 91
33
178
0
145
0.0
301
CELL_VALUE
 90
4
  1
 
304
ACVALUE_END
170
1
140
0.125
171
1
172
0
173
0
174
0
175
1
176
1
 91
33
178
0
145
0.0
301
CELL_VALUE
 90
4
  1
RPECLWN-FAJ/S
304
ACVALUE_END
170
5
140
0.125
171
1
172
0
173
0
174
0
175
4
176
1
 91
33
178
0
145
0.0
301
CELL_VALUE
 90
4
  1
ALL DIMENSIONS IN INCH\PVIEWS ARE THIRD ANGLE
304
ACVALUE_END
170
5
140
0.12
171
1
172
0
173
1
174
0
175
1
176
1
 91
1
178
0
145
0.0
170
1
171
1
172
0
173
1
174
0
175
1
176
1
 91
1
178
0
145
0.0
170
1
171
1
172
0
173
1
174
0
175
1
176
1
 91
1
178
0
145
0.0
170
5
171
1
172
0
173
0
174
0
175
1
176
1
 91
33
178
0
145
0.0
301
CELL_VALUE
 90
4
  1
 
304
ACVALUE_END
170
1
140
0.125
171
1
172
0
173
0
174
0
175
1
176
1
 91
33
178
0
145
0.0
301
CELL_VALUE
 90
4
  1
MODEL
304
ACVALUE_END
170
1
140
0.06
171
1
172
0
173
0
174
0
175
1
176
1
 91
33
178
0
145
0.0
301
CELL_VALUE
 90
4
  1
 
304
ACVALUE_END
170
1
140
0.125
171
1
172
0
173
0
174
0
175
1
176
1
 91
33
178
0
145
0.0
301
CELL_VALUE
 90
4
  1
 
304
ACVALUE_END
170
1
140
0.125
171
1
172
0
173
0
174
0
175
1
176
1
 91
33
178
0
145
0.0
301
CELL_VALUE
 90
4
  1
 
304
ACVALUE_END
170
1
140
0.125
171
1
172
0
173
0
174
0
175
1
176
1
 91
33
178
0
145
0.0
301
CELL_VALUE
 90
4
  1
 
304
ACVALUE_END
170
1
140
0.125
171
1
172
0
173
0
174
0
175
1
176
1
 91
33
178
0
145
0.0
301
CELL_VALUE
 90
4
  1
 
304
ACVALUE_END
170
1
140
0.125
  0
ACAD_TABLE
  5
282
100
AcDbEntity
  8
0
 62
2
  6
CONTINUOUS
100
AcDbBlockReference
  2
*T2
 10
12.4237499994
 20
16.47875
 30
0.0
100
AcDbTable
342
       3C0
343
208
 11
1.0
 21
0.0
 31
0.0
 90
22
 91
10
 92
3
 93
16
 94
0
 95
0
 96
0
 41
0.028
141
0.344
141
0.25
141
0.25
141
0.25
141
0.25
141
0.25
141
0.25
141
0.25
141
0.25
141
0.25
142
3.055
142
3.0
142
3.0
171
1
172
0
173
0
174
0
175
1
176
1
 91
33
178
0
145
0.0
301
CELL_VALUE
 90
4
  1
Technical Data
304
ACVALUE_END
170
5
140
0.145
171
1
172
0
173
0
174
0
175
1
176
1
 91
33
178
0
145
0.0
301
CELL_VALUE
 90
4
  1
U.S. Units
304
ACVALUE_END
170
5
140
0.145
171
1
172
0
173
0
174
0
175
1
176
1
 91
33
178
0
145
0.0
301
CELL_VALUE
 90
4
  1
Metric Units
304
ACVALUE_END
170
5
140
0.145
171
1
172
0
173
0
174
0
175
1
176
1
 91
33
178
0
145
0.0
301
CELL_VALUE
 90
4
  1
Cavity
304
ACVALUE_END
170
5
140
0.125
171
1
172
0
173
0
174
0
175
2
176
1
 91
33
178
0
145
0.0
301
CELL_VALUE
 90
4
  1
T-10A
304
ACVALUE_END
170
5
140
0.125
171
1
172
0
173
1
174
0
175
1
176
1
 91
1
178
0
145
0.0
170
1
171
1
172
0
173
0
174
0
175
1
176
1
 91
33
178
0
145
0.0
301
CELL_VALUE
 90
4
  1
Body Features
304
ACVALUE_END
170
5
140
0.125
171
1
172
0
173
0
174
0
175
2
176
1
 91
33
178
0
145
0.0
301
CELL_VALUE
 90
4
  1
Ninety degree
304
ACVALUE_END
170
5
140
0.125
171
1
172
0
173
1
174
0
175
1
176
1
 91
1
178
0
145
0.0
170
1
171
1
172
0
173
0
174
0
175
1
176
1
 91
33
178
0
145
0.0
301
CELL_VALUE
 90
4
  1
Body Type
304
ACVALUE_END
170
5
140
0.125
171
1
172
0
173
0
174
0
175
2
176
1
 91
33
178
0
145
0.0
301
CELL_VALUE
 90
4
  1
Line mount
304
ACVALUE_END
170
5
140
0.125
171
1
172
0
173
1
174
0
175
1
176
1
 91
1
178
0
145
0.0
170
1
171
1
172
0
173
0
174
0
175
1
176
1
 91
33
178
0
145
0.0
301
CELL_VALUE
 90
4
  1
Interface
304
ACVALUE_END
170
5
140
0.125
171
1
172
0
173
0
174
0
175
2
176
1
 91
33
178
0
145
0.0
301
CELL_VALUE
 90
4
  1
None
304
ACVALUE_END
170
5
140
0.125
171
1
172
0
173
1
174
0
175
1
176
1
 91
1
178
0
145
0.0
170
1
171
1
172
0
173
0
174
0
175
1
176
1
 91
33
178
0
145
0.0
301
CELL_VALUE
 90
4
  1
Open Cavity Quantity
304
ACVALUE_END
170
5
140
0.125
171
1
172
0
173
0
174
0
175
2
176
1
 91
33
178
0
145
0.0
301
CELL_VALUE
 90
4
  1
1
304
ACVALUE_END
170
5
140
0.125
171
1
172
0
173
1
174
0
175
1
176
1
 91
1
178
0
145
0.0
170
1
171
1
172
0
173
0
174
0
175
1
176
1
 91
33
178
0
145
0.0
301
CELL_VALUE
 90
4
  1
Weight
304
ACVALUE_END
170
5
140
0.125
171
1
172
0
173
0
174
0
175
1
176
1
 91
33
178
0
145
0.0
301
CELL_VALUE
 90
4
  1
1.244 lb.
304
ACVALUE_END
170
5
140
0.125
171
1
172
0
173
0
174
0
175
1
176
1
 91
33
178
0
145
0.0
301
CELL_VALUE
 90
4
  1
0,564 kg.
304
ACVALUE_END
170
5
140
0.125
171
1
172
0
173
0
174
0
175
1
176
1
 91
33
178
0
145
0.0
301
CELL_VALUE
 90
4
  1
Mounting Hole Diameter
304
ACVALUE_END
170
5
140
0.125
171
1
172
0
173
0
174
0
175
1
176
1
 91
33
178
0
145
0.0
301
CELL_VALUE
 90
4
  1
.34 in.
304
ACVALUE_END
170
5
140
0.125
171
1
172
0
173
0
174
0
175
1
176
1
 91
33
178
0
145
0.0
301
CELL_VALUE
 90
4
  1
8.6 mm
304
ACVALUE_END
170
5
140
0.125
171
1
172
0
173
0
174
0
175
1
176
1
 91
33
178
0
145
0.0
301
CELL_VALUE
 90
4
  1
Mounting Hole Depth
304
ACVALUE_END
170
5
140
0.125
171
1
172
0
173
0
174
0
175
2
176
1
 91
33
178
0
145
0.0
301
CELL_VALUE
 90
4
  1
Through
304
ACVALUE_END
170
5
140
0.125
171
1
172
0
173
1
174
0
175
1
176
1
 91
1
178
0
145
0.0
170
1
171
1
172
0
173
0
174
0
175
1
176
1
 91
33
178
0
145
0.0
301
CELL_VALUE
 90
4
  1
Mounting Hole Quantity
304
ACVALUE_END
170
5
140
0.125
171
1
172
0
173
0
174
0
175
2
176
1
 91
33
178
0
145
0.0
301
CELL_VALUE
 90
4
  1
1
304
ACVALUE_END
170
5
140
0.125
171
1
172
0
173
1
174
0
175
1
176
1
 91
1
178
0
145
0.0
170
1
  0
ACAD_TABLE
  5
283
100
AcDbEntity
  8
0
 62
2
  6
CONTINUOUS
100
AcDbBlockReference
  2
*T3
 10
0.52125
 20
1.459
 30
0.0
100
AcDbTable
342
       3C0
343
209
 11
1.0
 21
0.0
 31
0.0
 90
22
 91
3
 92
3
 93
16
 94
0
 95
0
 96
0
 41
0.05
141
0.34375
141
0.344
141
0.25
142
1.3
142
2.0
142
1.3
171
1
172
0
173
0
174
0
175
3
176
1
 91
33
178
0
145
0.0
301
CELL_VALUE
 90
4
  1
Port Headings
304
ACVALUE_END
170
5
140
0.145
171
1
172
0
173
1
174
0
175
1
176
1
 91
1
178
0
145
0.0
170
1
171
1
172
0
173
1
174
0
175
1
176
1
 91
1
178
0
145
0.0
170
1
171
1
172
0
173
0
174
0
175
1
176
1
 91
33
178
0
145
0.0
301
CELL_VALUE
 90
4
  1
Product
304
ACVALUE_END
170
5
140
0.145
171
1
172
0
173
0
174
0
175
1
176
1
 91
33
178
0
145
0.0
301
CELL_VALUE
 90
4
  1
Port
304
ACVALUE_END
170
5
140
0.145
171
1
172
0
173
0
174
0
175
1
176
1
 91
33
178
0
145
0.0
301
CELL_VALUE
 90
4
  1
Size
304
ACVALUE_END
170
5
140
0.145
171
1
172
0
173
0
174
0
175
1
176
1
 91
33
178
0
145
0.0
301
CELL_VALUE
 90
4
  1
FAJ/S
304
ACVALUE_END
170
5
140
0.125
171
1
172
0
173
0
174
0
175
1
176
1
 91
33
178
0
145
0.0
301
CELL_VALUE
 90
4
  1
All Ports
304
ACVALUE_END
170
5
140
0.125
171
1
172
0
173
0
174
0
175
1
176
1
 91
33
178
0
145
0.0
301
CELL_VALUE
 90
4
  1
SAE 8
304
ACVALUE_END
170
5
140
0.125
  0
MTEXT
  5
284
100
AcDbEntity
  8
0
100
AcDbMText
 62
2
  6
CONTINUOUS
  7
STANDARD
 71
1
 72
1
 10
0.52125
 20
5.75995
 30
0.0
 11
1.0
 21
0.0
 31
0.0
 44
0.6
  3
Notes\P \P1. Important: Carefully consider\P   the maximum system pressure. The\P   pressure rating of the manifold is\P   dependent on the manifold material,\P   with the port type/size a secondary\P   consideration. Manifolds\P   constructed of alu
  3
minum are not\P   rated for pressures higher than\P   3000 psi (210 bar), regardless of\P   the port type/size specified.\P2. This drawing is for reference\P   only. It is generated by an\P   automated process and does not fall\P   under Sun's docume
  1
nt control\P   process.
 40
0.1
 41
3.04
  0
LINE
  5
285
100
AcDbEntity
  8
0
100
AcDbLine
 62
7
  6
CONTINUOUS
 10
0.30125
 20
0.30125
 11
0.30125
 21
16.69875
  0
LINE
  5
286
100
AcDbEntity
  8
0
100
AcDbLine
 62
7
  6
CONTINUOUS
 10
0.30125
 20
0.30125
 11
21.69875
 21
0.30125
  0
LINE
  5
287
100
AcDbEntity
  8
0
100
AcDbLine
 62
7
  6
CONTINUOUS
 10
0.30125
 20
16.69875
 11
21.69875
 21
16.69875
  0
LINE
  5
288
100
AcDbEntity
  8
0
100
AcDbLine
 62
7
  6
CONTINUOUS
 10
21.69875
 20
0.30125
 11
21.69875
 21
16.69875
  0
LINE
  5
289
100
AcDbEntity
  8
0
100
AcDbLine
 62
7
  6
CONTINUOUS
 10
6.5579986562
 20
9.6550209797
 11
6.6180375399
 21
9.7108988279
  0
LINE
  5
28A
100
AcDbEntity
  8
0
100
AcDbLine
 62
7
  6
CONTINUOUS
 10
8.2339915931
 20
9.9658602728
 11
8.2321665166
 21
9.9641295336
  0
LINE
  5
28B
100
AcDbEntity
  8
0
100
AcDbLine
 62
7
  6
CONTINUOUS
 10
8.1371730178
 20
9.8757425271
 11
8.1355739282
 21
9.874235664
  0
LINE
  5
28C
100
AcDbEntity
  8
0
100
AcDbLine
 62
7
  6
CONTINUOUS
 10
7.7070342536
 20
9.7932278445
 11
7.7387082672
 21
9.8227066691
  0
LINE
  5
28D
100
AcDbEntity
  8
0
100
AcDbLine
 62
7
  6
CONTINUOUS
 10
8.1371546839
 20
9.8757347112
 11
8.2321504825
 21
9.9641467617
  0
LINE
  5
28E
100
AcDbEntity
  8
0
100
AcDbLine
 62
7
  6
CONTINUOUS
 10
6.5170937012
 20
9.0651894567
 11
6.5688446528
 21
9.0015589571
  0
LINE
  5
28F
100
AcDbEntity
  8
0
100
AcDbLine
 62
7
  6
CONTINUOUS
 10
9.1519765537
 20
10.1058655137
 11
9.0920605526
 21
10.0127307324
  0
LINE
  5
290
100
AcDbEntity
  8
0
100
AcDbLine
 62
7
  6
CONTINUOUS
 10
7.6360521257
 20
8.7696966723
 11
7.7356806867
 21
8.6472223357
  0
LINE
  5
291
100
AcDbEntity
  8
0
100
AcDbLine
 62
7
  6
CONTINUOUS
 10
8.0506661025
 20
8.6286072755
 11
8.1341353793
 21
8.5259774374
  0
LINE
  5
292
100
AcDbEntity
  8
0
100
AcDbLine
 62
7
  6
CONTINUOUS
 10
10.0452710315
 20
9.9197681441
 11
10.6923181103
 21
10.5447676654
  0
LINE
  5
293
100
AcDbEntity
  8
0
100
AcDbLine
 62
7
  6
CONTINUOUS
 10
14.8749004491
 20
6.4552323346
 11
10.0452710315
 21
6.7901682723
  0
LINE
  5
294
100
AcDbEntity
  8
0
100
AcDbLine
 62
7
  6
CONTINUOUS
 10
8.9523625211
 20
8.4215820788
 11
8.9667260737
 21
8.387072351
  0
LINE
  5
295
100
AcDbEntity
  8
0
100
AcDbLine
 62
4
  6
CONTINUOUS
 10
13.5264679157
 20
7.5626925972
 11
13.7582901278
 21
7.6128506136
  0
LINE
  5
296
100
AcDbEntity
  8
0
100
AcDbLine
 62
4
  6
CONTINUOUS
 10
11.4825687201
 20
7.0478839134
 11
11.5212057454
 21
7.0452044266
  0
LINE
  5
297
100
AcDbEntity
  8
0
100
AcDbLine
 62
4
  6
CONTINUOUS
 10
12.3441746343
 20
7.1001787002
 11
12.4600857403
 21
7.0921402377
  0
LINE
  5
298
100
AcDbEntity
  8
0
100
AcDbLine
 62
4
  6
CONTINUOUS
 10
11.6177983362
 20
6.9370834922
 11
11.6757538879
 21
6.9185753731
  0
LINE
  5
299
100
AcDbEntity
  8
0
100
AcDbLine
 62
7
  6
CONTINUOUS
 10
10.0452710315
 20
6.7901682723
 11
10.0452710315
 21
9.9197681441
  0
LINE
  5
29A
100
AcDbEntity
  8
0
100
AcDbLine
 62
4
  6
CONTINUOUS
 10
12.4600857403
 20
7.2080513437
 11
12.5759968464
 21
7.2000128812
  0
LINE
  5
29B
100
AcDbEntity
  8
0
100
AcDbLine
 62
4
  6
CONTINUOUS
 10
12.5759968464
 20
7.2579684343
 11
12.3441746343
 21
7.2740453593
  0
LINE
  5
29C
100
AcDbEntity
  8
0
100
AcDbLine
 62
4
  6
CONTINUOUS
 10
13.7582901278
 20
7.2706368648
 11
13.5264679157
 21
7.2867137898
  0
LINE
  5
29D
100
AcDbEntity
  8
0
100
AcDbLine
 62
4
  6
CONTINUOUS
 10
12.3441746343
 20
7.3899564653
 11
12.5759968464
 21
7.3738795403
  0
LINE
  5
29E
100
AcDbEntity
  8
0
100
AcDbLine
 62
4
  6
CONTINUOUS
 10
12.3441746343
 20
7.4479120183
 11
12.5759968464
 21
7.4318350933
  0
LINE
  5
29F
100
AcDbEntity
  8
0
100
AcDbLine
 62
4
  6
CONTINUOUS
 10
13.0164590492
 20
7.9816723918
 11
13.2482812613
 21
8.0318303806
  0
LINE
  5
2A0
100
AcDbEntity
  8
0
100
AcDbLine
 62
4
  6
CONTINUOUS
 10
13.5595853726
 20
7.4003281786
 11
13.7251726674
 21
7.3888446607
  0
LINE
  5
2A1
100
AcDbEntity
  8
0
100
AcDbLine
 62
4
  6
CONTINUOUS
 10
12.3441746343
 20
7.5638231243
 11
12.5759968464
 21
7.5477461993
  0
LINE
  5
2A2
100
AcDbEntity
  8
0
100
AcDbLine
 62
4
  6
CONTINUOUS
 10
11.4825687201
 20
6.93197281
 11
11.4632501937
 21
6.9478014422
  0
LINE
  5
2A3
100
AcDbEntity
  8
0
100
AcDbLine
 62
4
  6
CONTINUOUS
 10
11.579161304
 20
6.9687407553
 11
11.6177983362
 21
6.9370834922
  0
LINE
  5
2A4
100
AcDbEntity
  8
0
100
AcDbLine
 62
4
  6
CONTINUOUS
 10
11.5212057454
 20
7.0452044266
 11
11.5405242718
 21
7.0293757943
  0
LINE
  5
2A5
100
AcDbEntity
  8
0
100
AcDbLine
 62
7
  6
CONTINUOUS
 10
9.9744576803
 20
8.2647010201
 11
9.8844080974
 21
8.1808923846
  0
LINE
  5
2A6
100
AcDbEntity
  8
0
100
AcDbLine
 62
4
  6
CONTINUOUS
 10
12.5759968464
 20
7.7795684114
 11
12.3441746343
 21
7.7956453364
  0
LINE
  5
2A7
100
AcDbEntity
  8
0
100
AcDbLine
 62
4
  6
CONTINUOUS
 10
13.2482812613
 20
7.7337732548
 11
13.0164590492
 21
7.7498501798
  0
LINE
  5
2A8
100
AcDbEntity
  8
0
100
AcDbLine
 62
4
  6
CONTINUOUS
 10
13.7582901278
 20
7.7453204412
 11
13.5264679157
 21
7.7613973662
  0
LINE
  5
2A9
100
AcDbEntity
  8
0
100
AcDbLine
 62
4
  6
CONTINUOUS
 10
12.5759968464
 20
7.8954795174
 11
12.4600857403
 21
7.9035179799
  0
LINE
  5
2AA
100
AcDbEntity
  8
0
100
AcDbLine
 62
4
  6
CONTINUOUS
 10
13.7582901278
 20
7.8777902687
 11
13.5264679157
 21
7.8938671938
  0
LINE
  5
2AB
100
AcDbEntity
  8
0
100
AcDbLine
 62
7
  6
CONTINUOUS
 10
9.1519765537
 20
8.2199822657
 11
9.8714683439
 21
8.1700853405
  0
LINE
  5
2AC
100
AcDbEntity
  8
0
100
AcDbLine
 62
4
  6
CONTINUOUS
 10
12.5759968464
 20
7.990140254
 11
12.4600857403
 21
7.9981787165
  0
LINE
  5
2AD
100
AcDbEntity
  8
0
100
AcDbLine
 62
7
  6
CONTINUOUS
 10
10.0452710315
 20
8.2597900975
 11
9.946454062
 21
8.2666430776
  0
LINE
  5
2AE
100
AcDbEntity
  8
0
100
AcDbLine
 62
4
  6
CONTINUOUS
 10
11.4632501937
 20
6.9478014422
 11
11.443931681
 21
6.9781189615
  0
LINE
  5
2AF
100
AcDbEntity
  8
0
100
AcDbLine
 62
4
  6
CONTINUOUS
 10
11.5405242718
 20
7.0293757943
 11
11.579161304
 21
6.9687407553
  0
LINE
  5
2B0
100
AcDbEntity
  8
0
100
AcDbLine
 62
4
  6
CONTINUOUS
 10
12.4600857403
 20
8.1140898225
 11
12.6919079524
 21
8.0980128975
  0
LINE
  5
2B1
100
AcDbEntity
  8
0
100
AcDbLine
 62
4
  6
CONTINUOUS
 10
12.5759968464
 20
8.1833254307
 11
12.4600857403
 21
8.1913638932
  0
LINE
  5
2B2
100
AcDbEntity
  8
0
100
AcDbLine
 62
7
  6
CONTINUOUS
 10
8.9445226291
 20
8.4443866576
 11
8.371739344
 21
8.4841093133
  0
LINE
  5
2B3
100
AcDbEntity
  8
0
100
AcDbLine
 62
7
  6
CONTINUOUS
 10
8.2790104592
 20
8.4905400833
 11
8.1804860191
 21
8.4973727764
  0
LINE
  5
2B4
100
AcDbEntity
  8
0
100
AcDbLine
 62
7
  6
CONTINUOUS
 10
9.6756519888
 20
8.4028672337
 11
8.9561601986
 21
8.4527641588
  0
LINE
  5
2B5
100
AcDbEntity
  8
0
100
AcDbLine
 62
4
  6
CONTINUOUS
 10
13.2151638009
 20
8.183155661
 11
13.0164590492
 21
8.1969358823
  0
LINE
  5
2B6
100
AcDbEntity
  8
0
100
AcDbLine
 62
7
  6
CONTINUOUS
 10
8.9408309875
 20
8.5370469431
 11
9.6603227777
 21
8.487150018
  0
LINE
  5
2B7
100
AcDbEntity
  8
0
100
AcDbLine
 62
4
  6
CONTINUOUS
 10
12.3441746343
 20
8.3153134617
 11
12.5759968464
 21
8.2992365367
  0
LINE
  5
2B8
100
AcDbEntity
  8
0
100
AcDbLine
 62
4
  6
CONTINUOUS
 10
13.7251726674
 20
8.2278203458
 11
13.5595853726
 21
8.2393038637
  0
LINE
  5
2B9
100
AcDbEntity
  8
0
100
AcDbLine
 62
7
  6
CONTINUOUS
 10
7.7356806867
 20
8.6472223357
 11
7.9320683681
 21
8.6336028037
  0
LINE
  5
2BA
100
AcDbEntity
  8
0
100
AcDbLine
 62
4
  6
CONTINUOUS
 10
12.4600857403
 20
8.3845490699
 11
12.5759968464
 21
8.3765106074
  0
LINE
  5
2BB
100
AcDbEntity
  8
0
100
AcDbLine
 62
7
  6
CONTINUOUS
 10
7.6267043331
 20
8.7412700447
 11
7.6151132225
 21
8.7420738909
  0
LINE
  5
2BC
100
AcDbEntity
  8
0
100
AcDbLine
 62
7
  6
CONTINUOUS
 10
7.65160845
 20
8.7505693586
 11
7.6380905426
 21
8.7515068286
  0
LINE
  5
2BD
100
AcDbEntity
  8
0
100
AcDbLine
 62
4
  6
CONTINUOUS
 10
13.7582901278
 20
7.4803807584
 11
13.5264679157
 21
7.5626925972
  0
LINE
  5
2BE
100
AcDbEntity
  8
0
100
AcDbLine
 62
4
  6
CONTINUOUS
 10
13.082693963
 20
8.4352038536
 11
13.0495765061
 21
8.4375005571
  0
LINE
  5
2BF
100
AcDbEntity
  8
0
100
AcDbLine
 62
4
  6
CONTINUOUS
 10
13.7251726674
 20
8.4210054488
 11
13.5595853726
 21
8.4324889667
  0
LINE
  5
2C0
100
AcDbEntity
  8
0
100
AcDbLine
 62
4
  6
CONTINUOUS
 10
12.5759968464
 20
8.5696957841
 11
12.4987227757
 21
8.5750547591
  0
LINE
  5
2C1
100
AcDbEntity
  8
0
100
AcDbLine
 62
7
  6
CONTINUOUS
 10
6.5916787029
 20
8.9874672366
 11
6.9761172046
 21
8.960806336
  0
LINE
  5
2C2
100
AcDbEntity
  8
0
100
AcDbLine
 62
7
  6
CONTINUOUS
 10
7.0495275717
 20
8.9557153097
 11
7.4255011916
 21
8.9296414506
  0
LINE
  5
2C3
100
AcDbEntity
  8
0
100
AcDbLine
 62
4
  6
CONTINUOUS
 10
13.2151638009
 20
8.5419281452
 11
13.1820463406
 21
8.5442248489
  0
LINE
  5
2C4
100
AcDbEntity
  8
0
100
AcDbLine
 62
4
  6
CONTINUOUS
 10
14.5233034347
 20
8.4674911011
 11
14.7551256415
 21
8.4514141764
  0
LINE
  5
2C5
100
AcDbEntity
  8
0
100
AcDbLine
 62
4
  6
CONTINUOUS
 10
13.5595853726
 20
8.5484000727
 11
13.7251726674
 21
8.5369165548
  0
LINE
  5
2C6
100
AcDbEntity
  8
0
100
AcDbLine
 62
7
  6
CONTINUOUS
 10
6.9806833529
 20
9.0266481942
 11
7.0020064228
 21
9.0251694342
  0
LINE
  5
2C7
100
AcDbEntity
  8
0
100
AcDbLine
 62
4
  6
CONTINUOUS
 10
13.7582901278
 20
8.6008547373
 11
13.5264679157
 21
8.6169316623
  0
LINE
  5
2C8
100
AcDbEntity
  8
0
100
AcDbLine
 62
4
  6
CONTINUOUS
 10
12.4600857403
 20
8.6936453526
 11
12.5759968464
 21
8.6856068901
  0
LINE
  5
2C9
100
AcDbEntity
  8
0
100
AcDbLine
 62
4
  6
CONTINUOUS
 10
12.4600857403
 20
8.7709194233
 11
12.5759968464
 21
8.7628809608
  0
LINE
  5
2CA
100
AcDbEntity
  8
0
100
AcDbLine
 62
4
  6
CONTINUOUS
 10
13.2482812613
 20
7.899360553
 11
13.0164590492
 21
7.9816723918
  0
LINE
  5
2CB
100
AcDbEntity
  8
0
100
AcDbLine
 62
4
  6
CONTINUOUS
 10
11.443931681
 20
6.9781189615
 11
11.443931681
 21
7.0070967374
  0
LINE
  5
2CC
100
AcDbEntity
  8
0
100
AcDbLine
 62
4
  6
CONTINUOUS
 10
11.6757538879
 20
6.9185753731
 11
11.6757538879
 21
7.0344864765
  0
LINE
  5
2CD
100
AcDbEntity
  8
0
100
AcDbLine
 62
7
  6
CONTINUOUS
 10
7.6517015201
 20
9.1089550315
 11
7.8480892016
 21
9.0953354995
  0
LINE
  5
2CE
100
AcDbEntity
  8
0
100
AcDbLine
 62
4
  6
CONTINUOUS
 10
13.5595853726
 20
8.7305460649
 11
13.7251726674
 21
8.719062547
  0
LINE
  5
2CF
100
AcDbEntity
  8
0
100
AcDbLine
 62
4
  6
CONTINUOUS
 10
12.5759968464
 20
8.8787920668
 11
12.4600857403
 21
8.8868305293
  0
LINE
  5
2D0
100
AcDbEntity
  8
0
100
AcDbLine
 62
4
  6
CONTINUOUS
 10
13.7582901278
 20
8.8105987276
 11
13.5264679157
 21
8.8266756526
  0
LINE
  5
2D1
100
AcDbEntity
  8
0
100
AcDbLine
 62
4
  6
CONTINUOUS
 10
12.5759968464
 20
8.9560661375
 11
12.3441746343
 21
8.9721430625
  0
LINE
  5
2D2
100
AcDbEntity
  8
0
100
AcDbLine
 62
4
  6
CONTINUOUS
 10
12.5759968464
 20
9.0333402082
 11
12.4600857403
 21
9.0413786707
  0
LINE
  5
2D3
100
AcDbEntity
  8
0
100
AcDbLine
 62
4
  6
CONTINUOUS
 10
12.4600857403
 20
9.1186527414
 11
12.5759968464
 21
9.1106142788
  0
LINE
  5
2D4
100
AcDbEntity
  8
0
100
AcDbLine
 62
7
  6
CONTINUOUS
 10
9.6603227777
 20
9.3310019759
 11
8.9408309875
 21
9.380898901
  0
LINE
  5
2D5
100
AcDbEntity
  8
0
100
AcDbLine
 62
7
  6
CONTINUOUS
 10
8.9561601986
 20
9.4947954489
 11
9.6756519888
 21
9.4448985238
  0
LINE
  5
2D6
100
AcDbEntity
  8
0
100
AcDbLine
 62
4
  6
CONTINUOUS
 10
12.4600857403
 20
9.3118379181
 11
12.5180412933
 21
9.3078186868
  0
LINE
  5
2D7
100
AcDbEntity
  8
0
100
AcDbLine
 62
7
  6
CONTINUOUS
 10
6.6425981757
 20
9.7217037157
 11
7.0270366773
 21
9.6950428151
  0
LINE
  5
2D8
100
AcDbEntity
  8
0
100
AcDbLine
 62
7
  6
CONTINUOUS
 10
7.1004470445
 20
9.6899517889
 11
7.4764675651
 21
9.6638746772
  0
LINE
  5
2D9
100
AcDbEntity
  8
0
100
AcDbLine
 62
7
  6
CONTINUOUS
 10
7.7356806867
 20
9.7329230287
 11
7.9320683681
 21
9.7193034968
  0
LINE
  5
2DA
100
AcDbEntity
  8
0
100
AcDbLine
 62
4
  6
CONTINUOUS
 10
12.5180412933
 20
9.4237297928
 11
12.5759968464
 21
9.4197105616
  0
LINE
  5
2DB
100
AcDbEntity
  8
0
100
AcDbLine
 62
4
  6
CONTINUOUS
 10
12.3441746343
 20
7.2160898063
 11
12.3441746343
 21
7.1001787002
  0
LINE
  5
2DC
100
AcDbEntity
  8
0
100
AcDbLine
 62
4
  6
CONTINUOUS
 10
12.3441746343
 20
7.4479120183
 11
12.3441746343
 21
7.5638231243
  0
LINE
  5
2DD
100
AcDbEntity
  8
0
100
AcDbLine
 62
4
  6
CONTINUOUS
 10
11.443931681
 20
7.0070967374
 11
11.4632501937
 21
7.0347347698
  0
LINE
  5
2DE
100
AcDbEntity
  8
0
100
AcDbLine
 62
4
  6
CONTINUOUS
 10
13.0164590492
 20
8.5391495897
 11
13.0330177846
 21
8.5545600143
  0
LINE
  5
2DF
100
AcDbEntity
  8
0
100
AcDbLine
 62
7
  6
CONTINUOUS
 10
7.7250819284
 20
9.810024713
 11
7.711564021
 21
9.810962183
  0
LINE
  5
2E0
100
AcDbEntity
  8
0
100
AcDbLine
 62
7
  6
CONTINUOUS
 10
7.701699861
 20
9.8226726851
 11
7.6901087504
 21
9.8234765314
  0
LINE
  5
2E1
100
AcDbEntity
  8
0
100
AcDbLine
 62
7
  6
CONTINUOUS
 10
7.9036390199
 20
9.8951583301
 11
8.1000267013
 21
9.8815387981
  0
LINE
  5
2E2
100
AcDbEntity
  8
0
100
AcDbLine
 62
7
  6
CONTINUOUS
 10
9.0480575798
 20
9.934794838
 11
8.475100339
 21
9.9745295576
  0
LINE
  5
2E3
100
AcDbEntity
  8
0
100
AcDbLine
 62
7
  6
CONTINUOUS
 10
8.3823714542
 20
9.9809603276
 11
8.2838470141
 21
9.9877930208
  0
LINE
  5
2E4
100
AcDbEntity
  8
0
100
AcDbLine
 62
7
  6
CONTINUOUS
 10
14.8749004491
 20
9.5848322064
 11
10.0452710315
 21
9.9197681441
  0
LINE
  5
2E5
100
AcDbEntity
  8
0
100
AcDbLine
 62
4
  6
CONTINUOUS
 10
13.0385373538
 20
8.3941095157
 11
13.2427616847
 21
8.2474766274
  0
LINE
  5
2E6
100
AcDbEntity
  8
0
100
AcDbLine
 62
4
  6
CONTINUOUS
 10
13.7251726674
 20
7.3888446607
 11
13.7582901278
 21
7.3534305001
  0
LINE
  5
2E7
100
AcDbEntity
  8
0
100
AcDbLine
 62
4
  6
CONTINUOUS
 10
12.4021301873
 20
9.0309090137
 11
12.4021301873
 21
9.0598867902
  0
LINE
  5
2E8
100
AcDbEntity
  8
0
100
AcDbLine
 62
4
  6
CONTINUOUS
 10
12.4600857403
 20
8.6936453526
 11
12.4600857403
 21
8.6163712819
  0
LINE
  5
2E9
100
AcDbEntity
  8
0
100
AcDbLine
 62
4
  6
CONTINUOUS
 10
12.4600857403
 20
7.9035179799
 11
12.4600857403
 21
7.7876068739
  0
LINE
  5
2EA
100
AcDbEntity
  8
0
100
AcDbLine
 62
4
  6
CONTINUOUS
 10
12.4600857403
 20
7.0921402377
 11
12.4600857403
 21
7.2080513437
  0
LINE
  5
2EB
100
AcDbEntity
  8
0
100
AcDbLine
 62
4
  6
CONTINUOUS
 10
12.4600857403
 20
8.1913638932
 11
12.4600857403
 21
8.3072749992
  0
LINE
  5
2EC
100
AcDbEntity
  8
0
100
AcDbLine
 62
4
  6
CONTINUOUS
 10
12.4600857403
 20
8.3845490699
 11
12.4600857403
 21
8.5004601759
  0
LINE
  5
2ED
100
AcDbEntity
  8
0
100
AcDbLine
 62
4
  6
CONTINUOUS
 10
12.4600857403
 20
9.1186527414
 11
12.4600857403
 21
9.2345638474
  0
LINE
  5
2EE
100
AcDbEntity
  8
0
100
AcDbLine
 62
4
  6
CONTINUOUS
 10
12.4600857403
 20
9.3118379181
 11
12.4600857403
 21
9.4277490241
  0
LINE
  5
2EF
100
AcDbEntity
  8
0
100
AcDbLine
 62
4
  6
CONTINUOUS
 10
12.4987227757
 20
8.5750547591
 11
12.4987227757
 21
8.6909658651
  0
LINE
  5
2F0
100
AcDbEntity
  8
0
100
AcDbLine
 62
4
  6
CONTINUOUS
 10
12.5180412933
 20
9.3078186868
 11
12.5180412933
 21
9.4237297928
  0
LINE
  5
2F1
100
AcDbEntity
  8
0
100
AcDbLine
 62
4
  6
CONTINUOUS
 10
12.5759968464
 20
9.4197105616
 11
12.5759968464
 21
9.3037994556
  0
LINE
  5
2F2
100
AcDbEntity
  8
0
100
AcDbLine
 62
4
  6
CONTINUOUS
 10
12.5759968464
 20
8.6856068901
 11
12.5759968464
 21
8.5696957841
  0
LINE
  5
2F3
100
AcDbEntity
  8
0
100
AcDbLine
 62
4
  6
CONTINUOUS
 10
12.5759968464
 20
8.2992365367
 11
12.5759968464
 21
8.1833254307
  0
LINE
  5
2F4
100
AcDbEntity
  8
0
100
AcDbLine
 62
4
  6
CONTINUOUS
 10
12.5759968464
 20
8.10605136
 11
12.5759968464
 21
7.990140254
  0
LINE
  5
2F5
100
AcDbEntity
  8
0
100
AcDbLine
 62
4
  6
CONTINUOUS
 10
12.5759968464
 20
7.3738795403
 11
12.5759968464
 21
7.2579684343
  0
LINE
  5
2F6
100
AcDbEntity
  8
0
100
AcDbLine
 62
4
  6
CONTINUOUS
 10
12.5759968464
 20
7.2000128812
 11
12.5759968464
 21
7.0841017752
  0
LINE
  5
2F7
100
AcDbEntity
  8
0
100
AcDbLine
 62
4
  6
CONTINUOUS
 10
12.5759968464
 20
8.7628809608
 11
12.5759968464
 21
8.8787920668
  0
LINE
  5
2F8
100
AcDbEntity
  8
0
100
AcDbLine
 62
4
  6
CONTINUOUS
 10
12.5759968464
 20
9.1106142788
 11
12.5759968464
 21
9.2265253849
  0
LINE
  5
2F9
100
AcDbEntity
  8
0
100
AcDbLine
 62
4
  6
CONTINUOUS
 10
12.6919079524
 20
8.0980128975
 11
12.6919079524
 21
8.0207388268
  0
LINE
  5
2FA
100
AcDbEntity
  8
0
100
AcDbLine
 62
4
  6
CONTINUOUS
 10
13.1820463406
 20
8.5442248489
 11
13.082693963
 21
8.4352038536
  0
LINE
  5
2FB
100
AcDbEntity
  8
0
100
AcDbLine
 62
4
  6
CONTINUOUS
 10
13.5264679157
 20
8.6997253252
 11
13.5595853726
 21
8.7305460649
  0
LINE
  5
2FC
100
AcDbEntity
  8
0
100
AcDbLine
 62
4
  6
CONTINUOUS
 10
13.2317225311
 20
8.4248686873
 11
13.2482812613
 21
8.440279057
  0
LINE
  5
2FD
100
AcDbEntity
  8
0
100
AcDbLine
 62
4
  6
CONTINUOUS
 10
11.4632501937
 20
7.0347347698
 11
11.4825687201
 21
7.0478839134
  0
LINE
  5
2FE
100
AcDbEntity
  8
0
100
AcDbLine
 62
7
  6
CONTINUOUS
 10
10.0975557353
 20
9.9702712928
 11
10.0647588154
 21
9.9725457669
  0
LINE
  5
2FF
100
AcDbEntity
  8
0
100
AcDbLine
 62
7
  6
CONTINUOUS
 10
9.8714683439
 20
10.0559685885
 11
9.1519765537
 21
10.1058655137
  0
LINE
  5
300
100
AcDbEntity
  8
0
100
AcDbLine
 62
7
  6
CONTINUOUS
 10
9.182634976
 20
10.1354792773
 11
9.9021267662
 21
10.0855823522
  0
LINE
  5
301
100
AcDbEntity
  8
0
100
AcDbLine
 62
4
  6
CONTINUOUS
 10
13.2482812613
 20
8.1477414866
 11
13.2151638009
 21
8.183155661
  0
LINE
  5
302
100
AcDbEntity
  8
0
100
AcDbLine
 62
4
  6
CONTINUOUS
 10
13.0495765061
 20
8.4375005571
 11
13.0164590492
 21
8.4729147036
  0
LINE
  5
303
100
AcDbEntity
  8
0
100
AcDbLine
 62
4
  6
CONTINUOUS
 10
13.2482812613
 20
8.5065139432
 11
13.2151638009
 21
8.5419281452
  0
LINE
  5
304
100
AcDbEntity
  8
0
100
AcDbLine
 62
4
  6
CONTINUOUS
 10
13.5595853726
 20
8.2393038637
 11
13.5264679157
 21
8.2747180102
  0
LINE
  5
305
100
AcDbEntity
  8
0
100
AcDbLine
 62
4
  6
CONTINUOUS
 10
13.0164590492
 20
7.7498501798
 11
13.0164590492
 21
7.8492025574
  0
LINE
  5
306
100
AcDbEntity
  8
0
100
AcDbLine
 62
4
  6
CONTINUOUS
 10
13.0164590492
 20
8.4729147036
 11
13.0164590492
 21
8.5391495897
  0
LINE
  5
307
100
AcDbEntity
  8
0
100
AcDbLine
 62
7
  6
CONTINUOUS
 10
14.8749004491
 20
9.5848322064
 11
15.5219475279
 21
10.2098317277
  0
LINE
  5
308
100
AcDbEntity
  8
0
100
AcDbLine
 62
4
  6
CONTINUOUS
 10
13.5264679157
 20
8.5175793331
 11
13.5595853726
 21
8.5484000727
  0
LINE
  5
309
100
AcDbEntity
  8
0
100
AcDbLine
 62
4
  6
CONTINUOUS
 10
13.7582901278
 20
8.4518261882
 11
13.7251726674
 21
8.4210054488
  0
LINE
  5
30A
100
AcDbEntity
  8
0
100
AcDbLine
 62
7
  6
CONTINUOUS
 10
15.5219475279
 20
10.2098317277
 11
10.6923181103
 21
10.5447676654
  0
LINE
  5
30B
100
AcDbEntity
  8
0
100
AcDbLine
 62
4
  6
CONTINUOUS
 10
13.5595853726
 20
8.4324889667
 11
13.5264679157
 21
8.4679031132
  0
LINE
  5
30C
100
AcDbEntity
  8
0
100
AcDbLine
 62
4
  6
CONTINUOUS
 10
13.7251726674
 20
8.5369165548
 11
13.7582901278
 21
8.501502408
  0
LINE
  5
30D
100
AcDbEntity
  8
0
100
AcDbLine
 62
4
  6
CONTINUOUS
 10
13.6147811341
 20
7.2364326312
 11
13.6589377502
 21
7.1450571342
  0
LINE
  5
30E
100
AcDbEntity
  8
0
100
AcDbLine
 62
4
  6
CONTINUOUS
 10
13.1158114199
 20
7.8423124471
 11
13.1158114199
 21
7.7429600695
  0
LINE
  5
30F
100
AcDbEntity
  8
0
100
AcDbLine
 62
4
  6
CONTINUOUS
 10
13.1820463406
 20
7.926032265
 11
13.1820463406
 21
8.0143454834
  0
LINE
  5
310
100
AcDbEntity
  8
0
100
AcDbLine
 62
4
  6
CONTINUOUS
 10
13.2482812613
 20
8.0980652944
 11
13.2482812613
 21
8.1477414866
  0
LINE
  5
311
100
AcDbEntity
  8
0
100
AcDbLine
 62
4
  6
CONTINUOUS
 10
13.2482812613
 20
8.440279057
 11
13.2482812613
 21
8.5065139432
  0
LINE
  5
312
100
AcDbEntity
  8
0
100
AcDbLine
 62
4
  6
CONTINUOUS
 10
13.6147811341
 20
8.9861383255
 11
13.6589377502
 21
9.0713892721
  0
LINE
  5
313
100
AcDbEntity
  8
0
100
AcDbLine
 62
4
  6
CONTINUOUS
 10
13.7582901278
 20
8.2586410852
 11
13.7251726674
 21
8.2278203458
  0
LINE
  5
314
100
AcDbEntity
  8
0
100
AcDbLine
 62
4
  6
CONTINUOUS
 10
13.7251726674
 20
8.719062547
 11
13.7582901278
 21
8.6836484002
  0
LINE
  5
315
100
AcDbEntity
  8
0
100
AcDbLine
 62
4
  6
CONTINUOUS
 10
13.5264679157
 20
7.2867137898
 11
13.5264679157
 21
7.3695074251
  0
LINE
  5
316
100
AcDbEntity
  8
0
100
AcDbLine
 62
4
  6
CONTINUOUS
 10
13.5264679157
 20
7.6951624248
 11
13.5264679157
 21
7.8276322523
  0
LINE
  5
317
100
AcDbEntity
  8
0
100
AcDbLine
 62
4
  6
CONTINUOUS
 10
13.5264679157
 20
7.8938671938
 11
13.5264679157
 21
7.9932195782
  0
LINE
  5
318
100
AcDbEntity
  8
0
100
AcDbLine
 62
4
  6
CONTINUOUS
 10
13.5264679157
 20
8.2747180102
 11
13.5264679157
 21
8.3409528963
  0
LINE
  5
319
100
AcDbEntity
  8
0
100
AcDbLine
 62
4
  6
CONTINUOUS
 10
13.5264679157
 20
8.4679031132
 11
13.5264679157
 21
8.5175793331
  0
LINE
  5
31A
100
AcDbEntity
  8
0
100
AcDbLine
 62
4
  6
CONTINUOUS
 10
13.5264679157
 20
8.6169316623
 11
13.5264679157
 21
8.6997253252
  0
LINE
  5
31B
100
AcDbEntity
  8
0
100
AcDbLine
 62
4
  6
CONTINUOUS
 10
13.5264679157
 20
8.8266756526
 11
13.5264679157
 21
8.9260279818
  0
LINE
  5
31C
100
AcDbEntity
  8
0
100
AcDbLine
 62
4
  6
CONTINUOUS
 10
13.6258202864
 20
8.8860204285
 11
13.6258202864
 21
8.8197855423
  0
LINE
  5
31D
100
AcDbEntity
  8
0
100
AcDbLine
 62
4
  6
CONTINUOUS
 10
13.6258202864
 20
7.9532120249
 11
13.6258202864
 21
7.8869770835
  0
LINE
  5
31E
100
AcDbEntity
  8
0
100
AcDbLine
 62
4
  6
CONTINUOUS
 10
13.5264679157
 20
7.3695074251
 11
13.5595853726
 21
7.4003281786
  0
LINE
  5
31F
100
AcDbEntity
  8
0
100
AcDbLine
 62
4
  6
CONTINUOUS
 10
13.6589377502
 20
9.0713892721
 11
13.7030943629
 21
8.9800137823
  0
LINE
  5
320
100
AcDbEntity
  8
0
100
AcDbLine
 62
4
  6
CONTINUOUS
 10
13.6920552071
 20
7.5070524704
 11
13.6920552071
 21
7.5953656888
  0
LINE
  5
321
100
AcDbEntity
  8
0
100
AcDbLine
 62
4
  6
CONTINUOUS
 10
13.7582901278
 20
8.6836484002
 11
13.7582901278
 21
8.6008547373
  0
LINE
  5
322
100
AcDbEntity
  8
0
100
AcDbLine
 62
4
  6
CONTINUOUS
 10
13.7582901278
 20
8.501502408
 11
13.7582901278
 21
8.4518261882
  0
LINE
  5
323
100
AcDbEntity
  8
0
100
AcDbLine
 62
4
  6
CONTINUOUS
 10
13.7582901278
 20
8.3248759713
 11
13.7582901278
 21
8.2586410852
  0
LINE
  5
324
100
AcDbEntity
  8
0
100
AcDbLine
 62
4
  6
CONTINUOUS
 10
13.7582901278
 20
7.3534305001
 11
13.7582901278
 21
7.2706368648
  0
LINE
  5
325
100
AcDbEntity
  8
0
100
AcDbLine
 62
4
  6
CONTINUOUS
 10
13.7582901278
 20
7.8777902687
 11
13.7582901278
 21
7.9771426532
  0
LINE
  5
326
100
AcDbEntity
  8
0
100
AcDbLine
 62
4
  6
CONTINUOUS
 10
13.7582901278
 20
8.8105987276
 11
13.7582901278
 21
8.9099510568
  0
LINE
  5
327
100
AcDbEntity
  8
0
100
AcDbLine
 62
4
  6
CONTINUOUS
 10
13.6589377502
 20
7.1450571342
 11
13.7030943629
 21
7.230308088
  0
LINE
  5
328
100
AcDbEntity
  8
0
100
AcDbLine
 62
7
  6
CONTINUOUS
 10
14.8749004491
 20
6.4552323346
 11
14.8749004491
 21
9.5848322064
  0
LINE
  5
329
100
AcDbEntity
  8
0
100
AcDbLine
 62
7
  6
CONTINUOUS
 10
15.5219475279
 20
7.0802318559
 11
14.8749004491
 21
6.4552323346
  0
LINE
  5
32A
100
AcDbEntity
  8
0
100
AcDbLine
 62
7
  6
CONTINUOUS
 10
15.5219475279
 20
10.2098317277
 11
15.5219475279
 21
7.0802318559
  0
ARC
  5
32B
100
AcDbEntity
  8
0
100
AcDbCircle
 62
7
  6
CONTINUOUS
 10
13.2300426842
 20
8.908537144
 40
3.5946316564
100
AcDbArc
 50
171.4187492996
 51
173.2506230458
  0
ARC
  5
32C
100
AcDbEntity
  8
0
100
AcDbCircle
 62
7
  6
CONTINUOUS
 10
12.4587730134
 20
8.9654027971
 40
3.5423936978
100
AcDbArc
 50
171.4052412473
 51
173.2641310981
  0
ARC
  5
32D
100
AcDbEntity
  8
0
100
AcDbCircle
 62
7
  6
CONTINUOUS
 10
10.8897868186
 20
9.0450634817
 40
2.6671164559
100
AcDbArc
 50
179.771464177
 51
179.9998690681
  0
ARC
  5
32E
100
AcDbEntity
  8
0
100
AcDbCircle
 62
7
  6
CONTINUOUS
 10
10.7106063712
 20
9.0560458081
 40
2.4934737848
100
AcDbArc
 50
179.9996454836
 51
180.2613674251
  0
ARC
  5
32F
100
AcDbEntity
  8
0
100
AcDbCircle
 62
7
  6
CONTINUOUS
 10
10.1527753898
 20
9.3862614976
 40
1.2318905314
100
AcDbArc
 50
149.4332986232
 51
152.4996523775
  0
ARC
  5
330
100
AcDbEntity
  8
0
100
AcDbCircle
 62
7
  6
CONTINUOUS
 10
7.040727926
 20
9.2895437989
 40
1.2134957662
100
AcDbArc
 50
27.4637686283
 51
29.1988840618
  0
ARC
  5
331
100
AcDbEntity
  8
0
100
AcDbCircle
 62
7
  6
CONTINUOUS
 10
8.1200152254
 20
9.2445915554
 40
1.2003314261
100
AcDbArc
 50
179.6340143776
 51
180.1950768852
  0
ARC
  5
332
100
AcDbEntity
  8
0
100
AcDbCircle
 62
7
  6
CONTINUOUS
 10
8.00607686
 20
9.2433488962
 40
1.0863898264
100
AcDbArc
 50
180.1499991211
 51
183.1992652721
  0
ARC
  5
333
100
AcDbEntity
  8
0
100
AcDbCircle
 62
7
  6
CONTINUOUS
 10
7.9728082328
 20
9.2796814009
 40
1.05044707
100
AcDbArc
 50
169.6160721609
 51
170.0657898751
  0
ARC
  5
334
100
AcDbEntity
  8
0
100
AcDbCircle
 62
7
  6
CONTINUOUS
 10
7.9131927505
 20
9.2906682894
 40
0.9898276554
100
AcDbArc
 50
168.2497869881
 51
169.6196412492
  0
ARC
  5
335
100
AcDbEntity
  8
0
100
AcDbCircle
 62
7
  6
CONTINUOUS
 10
7.8700001701
 20
9.2366139018
 40
0.9501497416
100
AcDbArc
 50
183.2517137517
 51
183.7544753781
  0
ARC
  5
336
100
AcDbEntity
  8
0
100
AcDbCircle
 62
7
  6
CONTINUOUS
 10
7.8348319528
 20
9.2342884173
 40
0.9149047268
100
AcDbArc
 50
183.7533706097
 51
184.1903425983
  0
ARC
  5
337
100
AcDbEntity
  8
0
100
AcDbCircle
 62
7
  6
CONTINUOUS
 10
7.1972861923
 20
9.1560844719
 40
0.2659444001
100
AcDbArc
 50
195.0541561632
 51
197.1670184664
  0
ARC
  5
338
100
AcDbEntity
  8
0
100
AcDbCircle
 62
7
  6
CONTINUOUS
 10
8.5732578918
 20
9.7938415783
 40
0.2203499985
100
AcDbArc
 50
140.4233331069
 51
142.1175108393
  0
ARC
  5
339
100
AcDbEntity
  8
0
100
AcDbCircle
 62
7
  6
CONTINUOUS
 10
8.4915980727
 20
8.6481498356
 40
0.2176745206
100
AcDbArc
 50
209.5958631707
 51
211.6896510433
  0
ARC
  5
33A
100
AcDbEntity
  8
0
100
AcDbCircle
 62
7
  6
CONTINUOUS
 10
9.0813615923
 20
8.4395157772
 40
0.1258675322
100
AcDbArc
 50
188.0618046131
 51
191.0224705467
  0
ARC
  5
33B
100
AcDbEntity
  8
0
100
AcDbCircle
 62
7
  6
CONTINUOUS
 10
7.6846034376
 20
9.7638343077
 40
0.0632497559
100
AcDbArc
 50
48.5091910984
 51
49.3525397211
  0
ARC
  5
33C
100
AcDbEntity
  8
0
100
AcDbCircle
 62
7
  6
CONTINUOUS
 10
8.3817886488
 20
9.8917196775
 40
0.0587468888
100
AcDbArc
 50
60.0971325041
 51
62.7879158708
  0
SPLINE
  5
33D
100
AcDbEntity
  8
0
100
AcDbSpline
 62
7
  6
CONTINUOUS
 70
0
 71
3
 72
47
 73
43
 74
0
 42
0.0000001
 43
0.0000001
 44
0.0000000001
 40
0.0
 40
0.0
 40
0.0
 40
0.0
 40
0.0076456905
 40
0.015885914
 40
0.0247365402
 40
0.0342071097
 40
0.0443024273
 40
0.0550230752
 40
0.0663651916
 40
0.0783222797
 40
0.1040442185
 40
0.132096831
 40
0.1623413487
 40
0.1946219123
 40
0.2287568454
 40
0.2645497643
 40
0.3017901312
 40
0.3402502481
 40
0.3796970725
 40
0.4198859547
 40
0.4605681445
 40
0.5014911742
 40
0.5830338169
 40
0.6231511124
 40
0.6624970285
 40
0.7008308545
 40
0.7379178095
 40
0.7735337489
 40
0.807470174
 40
0.8395279334
 40
0.8695335181
 40
0.8973281634
 40
0.9103555204
 40
0.9227849977
 40
0.9346052316
 40
0.9458064596
 40
0.9563825354
 40
0.9663327888
 40
0.9756599278
 40
0.9843706428
 40
0.9924769775
 40
1.0
 40
1.0
 40
1.0
 40
1.0
 10
8.1355739282
 20
9.874235664
 30
0.0
 10
8.1332126062
 20
9.8719548019
 30
0.0
 10
8.1284988587
 20
9.8670140879
 30
0.0
 10
8.1216960611
 20
9.8588485257
 30
0.0
 10
8.1149131281
 20
9.8496722873
 30
0.0
 10
8.1081630994
 20
9.8395020992
 30
0.0
 10
8.1014588864
 20
9.8283540546
 30
0.0
 10
8.0948134765
 20
9.8162462155
 30
0.0
 10
8.0882359815
 20
9.8031998838
 30
0.0
 10
8.0793531947
 20
9.784113424
 30
0.0
 10
8.0685567232
 20
9.758019869
 30
0.0
 10
8.0563318281
 20
9.724066004
 30
0.0
 10
8.0446166743
 20
9.6869692945
 30
0.0
 10
8.033498709
 20
9.646973306
 30
0.0
 10
8.0230476921
 20
9.6043417626
 30
0.0
 10
8.0133354299
 20
9.5593554366
 30
0.0
 10
8.0044287399
 20
9.512311775
 30
0.0
 10
7.9963828882
 20
9.4635228339
 30
0.0
 10
7.9892582164
 20
9.4133120863
 30
0.0
 10
7.9830965756
 20
9.362013285
 30
0.0
 10
7.977942718
 20
9.3099662071
 30
0.0
 10
7.9724670329
 20
9.2401223486
 30
0.0
 10
7.9691222412
 20
9.1703667422
 30
0.0
 10
7.9679742582
 20
9.1012373591
 30
0.0
 10
7.9682274304
 20
9.0506523354
 30
0.0
 10
7.9695841025
 20
9.0013865583
 30
0.0
 10
7.9720351307
 20
8.9537662086
 30
0.0
 10
7.9755664716
 20
8.9081068175
 30
0.0
 10
7.9801479521
 20
8.8647109432
 30
0.0
 10
7.9857550381
 20
8.8238646416
 30
0.0
 10
7.99234285
 20
8.7858380845
 30
0.0
 10
7.9987452297
 20
8.7560952518
 30
0.0
 10
8.0043739777
 20
8.7339307543
 30
0.0
 10
8.0087205968
 20
8.718523541
 30
0.0
 10
8.0132763219
 20
8.7039963774
 30
0.0
 10
8.0180344154
 20
8.690374085
 30
0.0
 10
8.0229879437
 20
8.6776794047
 30
0.0
 10
8.0281275099
 20
8.6659316446
 30
0.0
 10
8.033444684
 20
8.6551487411
 30
0.0
 10
8.0389313521
 20
8.6453478067
 30
0.0
 10
8.0445801658
 20
8.6365464266
 30
0.0
 10
8.048595007
 20
8.6311590619
 30
0.0
 10
8.0506324175
 20
8.6286522602
 30
0.0
  0
SPLINE
  5
33E
100
AcDbEntity
  8
0
100
AcDbSpline
 62
7
  6
CONTINUOUS
 70
0
 71
3
 72
27
 73
23
 74
0
 42
0.0000001
 43
0.0000001
 44
0.0000000001
 40
0.0
 40
0.0
 40
0.0
 40
0.0
 40
0.0144551127
 40
0.0302675841
 40
0.0474857928
 40
0.0661375237
 40
0.0862358326
 40
0.1077773933
 40
0.1307411513
 40
0.1550987509
 40
0.2078535068
 40
0.2656951864
 40
0.3281679241
 40
0.3947667638
 40
0.4649132762
 40
0.5379997652
 40
0.6133606958
 40
0.6903065135
 40
0.7681536051
 40
0.8462231747
 40
0.9237817862
 40
1.0
 40
1.0
 40
1.0
 40
1.0
 10
6.5579941536
 20
9.6550158115
 30
0.0
 10
6.5566292358
 20
9.6537453358
 30
0.0
 10
6.5539074506
 20
9.6509369675
 30
0.0
 10
6.5500136574
 20
9.6462015454
 30
0.0
 10
6.5461379601
 20
9.6407712518
 30
0.0
 10
6.5422894032
 20
9.6346586239
 30
0.0
 10
6.5384773173
 20
9.6278761267
 30
0.0
 10
6.5347111247
 20
9.6204393371
 30
0.0
 10
6.5309985061
 20
9.6123670135
 30
0.0
 10
6.5259981873
 20
9.6004628182
 30
0.0
 10
6.5199934814
 20
9.5841119558
 30
0.0
 10
6.5133185798
 20
9.5628002396
 30
0.0
 10
6.5070584932
 20
9.5395091564
 30
0.0
 10
6.5012806605
 20
9.5144631497
 30
0.0
 10
6.4960363968
 20
9.4879036007
 30
0.0
 10
6.4913837033
 20
9.4600878581
 30
0.0
 10
6.4873632219
 20
9.4312881951
 30
0.0
 10
6.4840173459
 20
9.4017844204
 30
0.0
 10
6.481378183
 20
9.3718584025
 30
0.0
 10
6.4794717388
 20
9.3417975151
 30
0.0
 10
6.478318853
 20
9.3119087871
 30
0.0
 10
6.4780524721
 20
9.292070844
 30
0.0
 10
6.4780524721
 20
9.2822387404
 30
0.0
  0
SPLINE
  5
33F
100
AcDbEntity
  8
0
100
AcDbSpline
 62
7
  6
CONTINUOUS
 70
0
 71
3
 72
9
 73
5
 74
0
 42
0.0000001
 43
0.0000001
 44
0.0000000001
 40
0.0
 40
0.0
 40
0.0
 40
0.0
 40
0.2396999094
 40
1.0
 40
1.0
 40
1.0
 40
1.0
 10
9.1673057649
 20
10.1224062856
 30
0.0
 10
9.166009409
 20
10.1211541019
 30
0.0
 10
9.1606788011
 20
10.1158499251
 30
0.0
 10
9.1556502041
 20
10.1102458063
 30
0.0
 10
9.1519765537
 20
10.1058655137
 30
0.0
  0
SPLINE
  5
340
100
AcDbEntity
  8
0
100
AcDbSpline
 62
7
  6
CONTINUOUS
 70
0
 71
3
 72
15
 73
11
 74
0
 42
0.0000001
 43
0.0000001
 44
0.0000000001
 40
0.0
 40
0.0
 40
0.0
 40
0.0
 40
0.1468844462
 40
0.2887186848
 40
0.4248864655
 40
0.5547867363
 40
0.6777921591
 40
0.7933055123
 40
0.9008231941
 40
1.0
 40
1.0
 40
1.0
 40
1.0
 10
9.9021267662
 20
10.0855823522
 30
0.0
 10
9.9111082413
 20
10.0815218741
 30
0.0
 10
9.9287005249
 20
10.0734024357
 30
0.0
 10
9.9543621841
 20
10.0609716903
 30
0.0
 10
9.9787290711
 20
10.0484960082
 30
0.0
 10
10.0016516185
 20
10.0359894725
 30
0.0
 10
10.0229760456
 20
10.0234706758
 30
0.0
 10
10.0425461587
 20
10.010958832
 30
0.0
 10
10.0602084858
 20
9.9984726031
 30
0.0
 10
10.0710740059
 20
9.9898334556
 30
0.0
 10
10.0761288868
 20
9.9855043957
 30
0.0
  0
SPLINE
  5
341
100
AcDbEntity
  8
0
100
AcDbSpline
 62
7
  6
CONTINUOUS
 70
0
 71
3
 72
9
 73
5
 74
0
 42
0.0000001
 43
0.0000001
 44
0.0000000001
 40
0.0
 40
0.0
 40
0.0
 40
0.0
 40
0.2607584398
 40
1.0
 40
1.0
 40
1.0
 40
1.0
 10
10.0761288868
 20
9.9855043957
 30
0.0
 10
10.0775606528
 20
9.9842782144
 30
0.0
 10
10.0830019672
 20
9.9795188674
 30
0.0
 10
10.0882356151
 20
9.9745185516
 30
0.0
 10
10.0919396414
 20
9.9706663318
 30
0.0
  0
SPLINE
  5
342
100
AcDbEntity
  8
0
100
AcDbSpline
 62
7
  6
CONTINUOUS
 70
0
 71
3
 72
13
 73
9
 74
0
 42
0.0000001
 43
0.0000001
 44
0.0000000001
 40
0.0
 40
0.0
 40
0.0
 40
0.0
 40
0.2896821334
 40
0.5469155242
 40
0.6659183553
 40
0.780087906
 40
0.8909054352
 40
1.0
 40
1.0
 40
1.0
 40
1.0
 10
6.5688449459
 20
9.0015610991
 30
0.0
 10
6.5705252726
 20
8.9994945369
 30
0.0
 10
6.573938761
 20
8.9957761546
 30
0.0
 10
6.5787994746
 20
8.9919876639
 30
0.0
 10
6.5827600516
 20
8.989814548
 30
0.0
 10
6.5856954774
 20
8.9886166045
 30
0.0
 10
6.5886678996
 20
8.9878116851
 30
0.0
 10
6.5906781306
 20
8.9875380297
 30
0.0
 10
6.5916787746
 20
8.9874682699
 30
0.0
  0
SPLINE
  5
343
100
AcDbEntity
  8
0
100
AcDbSpline
 62
7
  6
CONTINUOUS
 70
0
 71
3
 72
13
 73
9
 74
0
 42
0.0000001
 43
0.0000001
 44
0.0000000001
 40
0.0
 40
0.0
 40
0.0
 40
0.0
 40
0.1101846433
 40
0.2219540801
 40
0.3368224788
 40
0.456177379
 40
0.7128287365
 40
1.0
 40
1.0
 40
1.0
 40
1.0
 10
7.0270195992
 20
9.6950417553
 30
0.0
 10
7.0279766092
 20
9.6949757551
 30
0.0
 10
7.029898133
 20
9.6947213063
 30
0.0
 10
7.0327420902
 20
9.6939789952
 30
0.0
 10
7.0355528562
 20
9.6928771196
 30
0.0
 10
7.0393419039
 20
9.6908841756
 30
0.0
 10
7.0440017778
 20
9.6874143676
 30
0.0
 10
7.047297983
 20
9.6839908074
 30
0.0
 10
7.0489204798
 20
9.6820886315
 30
0.0
  0
SPLINE
  5
344
100
AcDbEntity
  8
0
100
AcDbSpline
 62
7
  6
CONTINUOUS
 70
0
 71
3
 72
13
 73
9
 74
0
 42
0.0000001
 43
0.0000001
 44
0.0000000001
 40
0.0
 40
0.0
 40
0.0
 40
0.0
 40
0.1090941227
 40
0.2199124156
 40
0.3340998181
 40
0.4531344015
 40
0.7103941955
 40
1.0
 40
1.0
 40
1.0
 40
1.0
 10
6.642598104
 20
9.7217026824
 30
0.0
 10
6.6415975046
 20
9.7217724391
 30
0.0
 10
6.6395687919
 20
9.7217804048
 30
0.0
 10
6.6365135491
 20
9.721393705
 30
0.0
 10
6.6334408865
 20
9.7206107971
 30
0.0
 10
6.6292187571
 20
9.7190024753
 30
0.0
 10
6.6238824469
 20
9.715921353
 30
0.0
 10
6.6199867973
 20
9.7127126733
 30
0.0
 10
6.6180375398
 20
9.7108987661
 30
0.0
  0
SPLINE
  5
345
100
AcDbEntity
  8
0
100
AcDbSpline
 62
7
  6
CONTINUOUS
 70
0
 71
3
 72
9
 73
5
 74
0
 42
0.0000001
 43
0.0000001
 44
0.0000000001
 40
0.0
 40
0.0
 40
0.0
 40
0.0
 40
0.2395365505
 40
1.0
 40
1.0
 40
1.0
 40
1.0
 10
9.182634976
 20
10.1354792773
 30
0.0
 10
9.1813410529
 20
10.1345224244
 30
0.0
 10
9.1760137587
 20
10.13042735
 30
0.0
 10
9.1709804715
 20
10.1259557798
 30
0.0
 10
9.1673057649
 20
10.1224062856
 30
0.0
  0
SPLINE
  5
346
100
AcDbEntity
  8
0
100
AcDbSpline
 62
7
  6
CONTINUOUS
 70
0
 71
3
 72
14
 73
10
 74
0
 42
0.0000001
 43
0.0000001
 44
0.0000000001
 40
0.0
 40
0.0
 40
0.0
 40
0.0
 40
0.1046819355
 40
0.2123209658
 40
0.3253105028
 40
0.4453190946
 40
0.7084317188
 40
0.8515539132
 40
1.0
 40
1.0
 40
1.0
 40
1.0
 10
6.9300287224
 20
9.1013649405
 30
0.0
 10
6.9302246708
 20
9.1001814497
 30
0.0
 10
6.930904486
 20
9.0978185625
 30
0.0
 10
6.9327311743
 20
9.094537049
 30
0.0
 10
6.9353011639
 20
9.0915650372
 30
0.0
 10
6.9397704546
 20
9.0880092461
 30
0.0
 10
6.9453592186
 20
9.0854855793
 30
0.0
 10
6.9515413498
 20
9.0839825345
 30
0.0
 10
6.9548666314
 20
9.0835680998
 30
0.0
 10
6.9565636732
 20
9.0834504095
 30
0.0
  0
SPLINE
  5
347
100
AcDbEntity
  8
0
100
AcDbSpline
 62
7
  6
CONTINUOUS
 70
0
 71
3
 72
9
 73
5
 74
0
 42
0.0000001
 43
0.0000001
 44
0.0000000001
 40
0.0
 40
0.0
 40
0.0
 40
0.0
 40
0.481277412
 40
1.0
 40
1.0
 40
1.0
 40
1.0
 10
6.9300264744
 20
9.1013645832
 30
0.0
 10
6.928276656
 20
9.1118933846
 30
0.0
 10
6.9252544593
 20
9.1338739204
 30
0.0
 10
6.923213647
 20
9.1559633717
 30
0.0
 10
6.9223729423
 20
9.1674362417
 30
0.0
  0
SPLINE
  5
348
100
AcDbEntity
  8
0
100
AcDbSpline
 62
7
  6
CONTINUOUS
 70
0
 71
3
 72
12
 73
8
 74
0
 42
0.0000001
 43
0.0000001
 44
0.0000000001
 40
0.0
 40
0.0
 40
0.0
 40
0.0
 40
0.251116543
 40
0.5053471688
 40
0.7568607661
 40
0.8798194488
 40
1.0
 40
1.0
 40
1.0
 40
1.0
 10
6.9197082873
 20
9.2522588053
 30
0.0
 10
6.9198197589
 20
9.2698094246
 30
0.0
 10
6.9207982054
 20
9.3051274274
 30
0.0
 10
6.9243854776
 20
9.3579166922
 30
0.0
 10
6.9291152152
 20
9.4016164666
 30
0.0
 10
6.933927388
 20
9.4358541893
 30
0.0
 10
6.9366618761
 20
9.4526279761
 30
0.0
 10
6.938111046
 20
9.4609016491
 30
0.0
  0
SPLINE
  5
349
100
AcDbEntity
  8
0
100
AcDbSpline
 62
7
  6
CONTINUOUS
 70
0
 71
3
 72
33
 73
29
 74
0
 42
0.0000001
 43
0.0000001
 44
0.0000000001
 40
0.0
 40
0.0
 40
0.0
 40
0.0
 40
0.0848597967
 40
0.1664293536
 40
0.2443874737
 40
0.3185261717
 40
0.3886942333
 40
0.4547729167
 40
0.5168375894
 40
0.5751232704
 40
0.6029474004
 40
0.6299931242
 40
0.6563843471
 40
0.6822590096
 40
0.707769316
 40
0.7330742628
 40
0.7582978474
 40
0.7835911176
 40
0.8091743755
 40
0.8353329067
 40
0.8621354024
 40
0.8893480904
 40
0.9168004119
 40
0.930603404
 40
0.944456808
 40
0.9583503953
 40
0.9722614865
 40
1.0
 40
1.0
 40
1.0
 40
1.0
 10
6.9441072153
 20
9.4922421294
 30
0.0
 10
6.9455731343
 20
9.4992788167
 30
0.0
 10
6.9486075367
 20
9.5130468658
 30
0.0
 10
6.9535749122
 20
9.5331444311
 30
0.0
 10
6.9588583969
 20
9.5522210579
 30
0.0
 10
6.9644453296
 20
9.5702027097
 30
0.0
 10
6.9703266539
 20
9.5870284718
 30
0.0
 10
6.9764971249
 20
9.602656988
 30
0.0
 10
6.9829817855
 20
9.6170620642
 30
0.0
 10
6.9887714381
 20
9.6282073808
 30
0.0
 10
6.9936124607
 20
9.6364814402
 30
0.0
 10
6.9973095671
 20
9.6422893842
 30
0.0
 10
7.0011576536
 20
9.647798636
 30
0.0
 10
7.0051849951
 20
9.6530155442
 30
0.0
 10
7.0094211318
 20
9.6579440487
 30
0.0
 10
7.0138867304
 20
9.6625904584
 30
0.0
 10
7.0186380375
 20
9.6669197376
 30
0.0
 10
7.0237365262
 20
9.6708760842
 30
0.0
 10
7.0292376882
 20
9.6744031482
 30
0.0
 10
7.0351744681
 20
9.6774304733
 30
0.0
 10
7.0415200325
 20
9.6798841814
 30
0.0
 10
7.0482012033
 20
9.6816656118
 30
0.0
 10
7.0539587689
 20
9.6824882679
 30
0.0
 10
7.0586253103
 20
9.6826913455
 30
0.0
 10
7.0621462787
 20
9.6825998189
 30
0.0
 10
7.0656624025
 20
9.682275147
 30
0.0
 10
7.0703126595
 20
9.6815483369
 30
0.0
 10
7.0737450916
 20
9.680687974
 30
0.0
 10
7.0759873305
 20
9.6799861929
 30
0.0
  0
SPLINE
  5
34A
100
AcDbEntity
  8
0
100
AcDbSpline
 62
7
  6
CONTINUOUS
 70
0
 71
3
 72
22
 73
18
 74
0
 42
0.0000001
 43
0.0000001
 44
0.0000000001
 40
0.0
 40
0.0
 40
0.0
 40
0.0
 40
0.0380189494
 40
0.0769766867
 40
0.1177357804
 40
0.1610342093
 40
0.2074741878
 40
0.2575312076
 40
0.3115727278
 40
0.3698623583
 40
0.4325707953
 40
0.4998108091
 40
0.571652537
 40
0.6481339325
 40
0.7292626834
 40
0.8149985481
 40
1.0
 40
1.0
 40
1.0
 40
1.0
 10
7.1004284086
 20
9.6899509981
 30
0.0
 10
7.0991754458
 20
9.6900373241
 30
0.0
 10
7.0966193918
 20
9.6900023711
 30
0.0
 10
7.0927748231
 20
9.6893217865
 30
0.0
 10
7.088910133
 20
9.6880217523
 30
0.0
 10
7.0850333296
 20
9.6861112209
 30
0.0
 10
7.0811486577
 20
9.6835974746
 30
0.0
 10
7.0772601667
 20
9.6804860149
 30
0.0
 10
7.0733727262
 20
9.6767811645
 30
0.0
 10
7.0694912138
 20
9.672489135
 30
0.0
 10
7.0656200069
 20
9.6676181664
 30
0.0
 10
7.0617648428
 20
9.6621764201
 30
0.0
 10
7.0579316614
 20
9.6561722757
 30
0.0
 10
7.0541267698
 20
9.649614337
 30
0.0
 10
7.0503569656
 20
9.6425122967
 30
0.0
 10
7.045254588
 20
9.6320665873
 30
0.0
 10
7.0417010081
 20
9.6238525993
 30
0.0
 10
7.0394064435
 20
9.6181882965
 30
0.0
  0
SPLINE
  5
34B
100
AcDbEntity
  8
0
100
AcDbSpline
 62
7
  6
CONTINUOUS
 70
0
 71
3
 72
19
 73
15
 74
0
 42
0.0000001
 43
0.0000001
 44
0.0000000001
 40
0.0
 40
0.0
 40
0.0
 40
0.0
 40
0.0461494903
 40
0.0957745144
 40
0.1486565533
 40
0.2045591577
 40
0.2632274665
 40
0.3243717464
 40
0.4528708396
 40
0.5874661556
 40
0.7254013525
 40
0.8639293377
 40
0.9324815841
 40
1.0
 40
1.0
 40
1.0
 40
1.0
 10
7.0394064435
 20
9.6181882965
 30
0.0
 10
7.0371314999
 20
9.6125724294
 30
0.0
 10
7.0326828442
 20
9.6008062791
 30
0.0
 10
7.0264904678
 20
9.5822928832
 30
0.0
 10
7.020558786
 20
9.5623547231
 30
0.0
 10
7.0149224831
 20
9.5411008771
 30
0.0
 10
7.0096152339
 20
9.5186465684
 30
0.0
 10
7.0029012094
 20
9.4867407696
 30
0.0
 10
6.9955890415
 20
9.4447879333
 30
0.0
 10
6.9886513391
 20
9.3925813338
 30
0.0
 10
6.9835725899
 20
9.3388389587
 30
0.0
 10
6.9809752323
 20
9.2936036027
 30
0.0
 10
6.9799221216
 20
9.2575641518
 30
0.0
 10
6.9797419781
 20
9.239698385
 30
0.0
 10
6.9797419781
 20
9.2308336198
 30
0.0
  0
SPLINE
  5
34C
100
AcDbEntity
  8
0
100
AcDbSpline
 62
7
  6
CONTINUOUS
 70
0
 71
3
 72
28
 73
24
 74
0
 42
0.0000001
 43
0.0000001
 44
0.0000000001
 40
0.0
 40
0.0
 40
0.0
 40
0.0
 40
0.0137731323
 40
0.0288941161
 40
0.04543926
 40
0.0634554257
 40
0.0829598693
 40
0.1039534948
 40
0.1264268258
 40
0.1503605265
 40
0.1757192216
 40
0.2024600725
 40
0.2598947617
 40
0.3222218872
 40
0.3889053133
 40
0.4593574175
 40
0.532932683
 40
0.6089503345
 40
0.6866810391
 40
0.7653937982
 40
0.8443708368
 40
0.922860228
 40
1.0
 40
1.0
 40
1.0
 40
1.0
 10
7.5382237904
 20
9.7742910851
 30
0.0
 10
7.5359683395
 20
9.7724660216
 30
0.0
 10
7.5314615079
 20
9.7683556276
 30
0.0
 10
7.5250146391
 20
9.7612662722
 30
0.0
 10
7.5185909374
 20
9.7529922182
 30
0.0
 10
7.5122069224
 20
9.7435523691
 30
0.0
 10
7.5058744416
 20
9.7329708408
 30
0.0
 10
7.4996089186
 20
9.7212737425
 30
0.0
 10
7.4934262439
 20
9.708488417
 30
0.0
 10
7.4873436517
 20
9.6946451353
 30
0.0
 10
7.4813745428
 20
9.6797795888
 30
0.0
 10
7.4733960504
 20
9.6581262594
 30
0.0
 10
7.4638827776
 20
9.6287539297
 30
0.0
 10
7.4534029966
 20
9.5908923529
 30
0.0
 10
7.4437106157
 20
9.5499989028
 30
0.0
 10
7.4349092498
 20
9.506485801
 30
0.0
 10
7.427085687
 20
9.4607909052
 30
0.0
 10
7.4203254009
 20
9.4133779805
 30
0.0
 10
7.414691287
 20
9.3647288177
 30
0.0
 10
7.4102470691
 20
9.3153308184
 30
0.0
 10
7.4070334014
 20
9.2656772978
 30
0.0
 10
7.4050899604
 20
9.2162897852
 30
0.0
 10
7.4046410941
 20
9.1835044699
 30
0.0
 10
7.4046410941
 20
9.1672546738
 30
0.0
  0
SPLINE
  5
34D
100
AcDbEntity
  8
0
100
AcDbSpline
 62
7
  6
CONTINUOUS
 70
0
 71
3
 72
16
 73
12
 74
0
 42
0.0000001
 43
0.0000001
 44
0.0000000001
 40
0.0
 40
0.0
 40
0.0
 40
0.0
 40
0.1201500734
 40
0.2414160571
 40
0.3645055263
 40
0.4897378073
 40
0.6163543622
 40
0.6799476968
 40
0.7436365586
 40
0.871393816
 40
1.0
 40
1.0
 40
1.0
 40
1.0
 10
7.538223821
 20
9.7742939689
 30
0.0
 10
7.5433127625
 20
9.7784106194
 30
0.0
 10
7.5538767841
 20
9.7862743871
 30
0.0
 10
7.5707835999
 20
9.7967369737
 30
0.0
 10
7.5888193476
 20
9.8057524004
 30
0.0
 10
7.6078845572
 20
9.8131620037
 30
0.0
 10
7.6244388423
 20
9.8178778058
 30
0.0
 10
7.6379866973
 20
9.8206910028
 30
0.0
 10
7.6517194897
 20
9.8228353532
 30
0.0
 10
7.6691290246
 20
9.8242346143
 30
0.0
 10
7.6831193221
 20
9.8239612499
 30
0.0
 10
7.6901087504
 20
9.8234765314
 30
0.0
  0
SPLINE
  5
34E
100
AcDbEntity
  8
0
100
AcDbSpline
 62
7
  6
CONTINUOUS
 70
0
 71
3
 72
16
 73
12
 74
0
 42
0.0000001
 43
0.0000001
 44
0.0000000001
 40
0.0
 40
0.0
 40
0.0
 40
0.0
 40
0.1286083442
 40
0.25635577
 40
0.3200419347
 40
0.3836360356
 40
0.510255893
 40
0.6354858927
 40
0.7585666166
 40
0.8798329873
 40
1.0
 40
1.0
 40
1.0
 40
1.0
 10
7.6151132225
 20
8.7420738909
 30
0.0
 10
7.6081236764
 20
8.7425586176
 30
0.0
 10
7.5942299507
 20
8.7442186402
 30
0.0
 10
7.5771807481
 20
8.7480075365
 30
0.0
 10
7.5638761562
 20
8.7520272311
 30
0.0
 10
7.5508463959
 20
8.7566840285
 30
0.0
 10
7.5351013271
 20
8.7636394725
 30
0.0
 10
7.5172413422
 20
8.7736088566
 30
0.0
 10
7.5006230228
 20
8.7850270342
 30
0.0
 10
7.4853218727
 20
8.7977234828
 30
0.0
 10
7.4759438691
 20
8.8069709362
 30
0.0
 10
7.4714712611
 20
8.8117513129
 30
0.0
  0
SPLINE
  5
34F
100
AcDbEntity
  8
0
100
AcDbSpline
 62
7
  6
CONTINUOUS
 70
0
 71
3
 72
9
 73
5
 74
0
 42
0.0000001
 43
0.0000001
 44
0.0000000001
 40
0.0
 40
0.0
 40
0.0
 40
0.0
 40
0.2610283916
 40
1.0
 40
1.0
 40
1.0
 40
1.0
 10
7.6514431147
 20
8.7482873166
 30
0.0
 10
7.6506496526
 20
8.7477913835
 30
0.0
 10
7.6475672426
 20
8.7459618042
 30
0.0
 10
7.6443033
 20
8.7444285143
 30
0.0
 10
7.6418131357
 20
8.7435251382
 30
0.0
  0
SPLINE
  5
350
100
AcDbEntity
  8
0
100
AcDbSpline
 62
7
  6
CONTINUOUS
 70
0
 71
3
 72
11
 73
7
 74
0
 42
0.0000001
 43
0.0000001
 44
0.0000000001
 40
0.0
 40
0.0
 40
0.0
 40
0.0
 40
0.2593067218
 40
0.5107226537
 40
0.7567327589
 40
1.0
 40
1.0
 40
1.0
 40
1.0
 10
7.6418131357
 20
8.7435251382
 30
0.0
 10
7.6405632978
 20
8.7430717248
 30
0.0
 10
7.6380587507
 20
8.7422909762
 30
0.0
 10
7.6342506787
 20
8.741512874
 30
0.0
 10
7.6304631699
 20
8.7411500769
 30
0.0
 10
7.6279487635
 20
8.7411854452
 30
0.0
 10
7.6267044633
 20
8.7412719214
 30
0.0
  0
SPLINE
  5
351
100
AcDbEntity
  8
0
100
AcDbSpline
 62
7
  6
CONTINUOUS
 70
0
 71
3
 72
11
 73
7
 74
0
 42
0.0000001
 43
0.0000001
 44
0.0000000001
 40
0.0
 40
0.0
 40
0.0
 40
0.0
 40
0.2418634129
 40
0.4870635504
 40
0.7387932791
 40
1.0
 40
1.0
 40
1.0
 40
1.0
 10
7.7016997308
 20
9.8226708084
 30
0.0
 10
7.7030775004
 20
9.8225750564
 30
0.0
 10
7.7058430819
 20
9.8222115797
 30
0.0
 10
7.7099381339
 20
9.8211589161
 30
0.0
 10
7.7139863786
 20
9.8195998966
 30
0.0
 10
7.7165945859
 20
9.8182535491
 30
0.0
 10
7.717884855
 20
9.8175052716
 30
0.0
  0
SPLINE
  5
352
100
AcDbEntity
  8
0
100
AcDbSpline
 62
7
  6
CONTINUOUS
 70
0
 71
3
 72
9
 73
5
 74
0
 42
0.0000001
 43
0.0000001
 44
0.0000000001
 40
0.0
 40
0.0
 40
0.0
 40
0.0
 40
0.2406460373
 40
1.0
 40
1.0
 40
1.0
 40
1.0
 10
7.717884855
 20
9.8175052716
 30
0.0
 10
7.7185617366
 20
9.8171127214
 30
0.0
 10
7.7213324424
 20
9.8154092373
 30
0.0
 10
7.7239311143
 20
9.8134322512
 30
0.0
 10
7.7258045137
 20
9.8118239205
 30
0.0
  0
SPLINE
  5
353
100
AcDbEntity
  8
0
100
AcDbSpline
 62
7
  6
CONTINUOUS
 70
0
 71
3
 72
11
 73
7
 74
0
 42
0.0000001
 43
0.0000001
 44
0.0000000001
 40
0.0
 40
0.0
 40
0.0
 40
0.0
 40
0.2282028843
 40
0.4719885528
 40
0.7298085703
 40
1.0
 40
1.0
 40
1.0
 40
1.0
 10
8.0236625157
 20
8.6800946772
 30
0.0
 10
8.0170520569
 20
8.6759152189
 30
0.0
 10
8.0031083813
 20
8.6676970554
 30
0.0
 10
7.9809771498
 20
8.6560299397
 30
0.0
 10
7.9571246911
 20
8.6445857422
 30
0.0
 10
7.9405781836
 20
8.6372536278
 30
0.0
 10
7.9320683681
 20
8.6336028037
 30
0.0
  0
SPLINE
  5
354
100
AcDbEntity
  8
0
100
AcDbSpline
 62
7
  6
CONTINUOUS
 70
0
 71
3
 72
19
 73
15
 74
0
 42
0.0000001
 43
0.0000001
 44
0.0000000001
 40
0.0
 40
0.0
 40
0.0
 40
0.0
 40
0.1542527037
 40
0.302338706
 40
0.4431775389
 40
0.5756145352
 40
0.6382944726
 40
0.6984188687
 40
0.7558602917
 40
0.8105131265
 40
0.8622906773
 40
0.9111296467
 40
0.9570077009
 40
1.0
 40
1.0
 40
1.0
 40
1.0
 10
7.9036390199
 20
9.8951583301
 30
0.0
 10
7.8945793959
 20
9.8925140687
 30
0.0
 10
7.8768684422
 20
9.8871707424
 30
0.0
 10
7.8510930012
 20
9.8787442476
 30
0.0
 10
7.8268249247
 20
9.8700331541
 30
0.0
 10
7.8077352664
 20
9.8623939231
 30
0.0
 10
7.7934515006
 20
9.856077734
 30
0.0
 10
7.7834880265
 20
9.8513470535
 30
0.0
 10
7.7741120192
 20
9.8465350577
 30
0.0
 10
7.7653561574
 20
9.8416456717
 30
0.0
 10
7.7572527559
 20
9.836682109
 30
0.0
 10
7.749832732
 20
9.8316474179
 30
0.0
 10
7.7431258177
 20
9.8265405421
 30
0.0
 10
7.739009585
 20
9.8229804905
 30
0.0
 10
7.7370843639
 20
9.8211881455
 30
0.0
  0
SPLINE
  5
355
100
AcDbEntity
  8
0
100
AcDbSpline
 62
7
  6
CONTINUOUS
 70
0
 71
3
 72
22
 73
18
 74
0
 42
0.0000001
 43
0.0000001
 44
0.0000000001
 40
0.0
 40
0.0
 40
0.0
 40
0.0
 40
0.1710680036
 40
0.3334089364
 40
0.4103828543
 40
0.4841668933
 40
0.5544850496
 40
0.6210843649
 40
0.6837294256
 40
0.7422005368
 40
0.7963322186
 40
0.8460098985
 40
0.8911561547
 40
0.9317753695
 40
0.9504230284
 40
0.9679889317
 40
1.0
 40
1.0
 40
1.0
 40
1.0
 10
7.4046410941
 20
9.1672546738
 30
0.0
 10
7.4046410941
 20
9.1463296737
 30
0.0
 10
7.4053570674
 20
9.1055431176
 30
0.0
 10
7.4081753717
 20
9.0554087921
 30
0.0
 10
7.4116138661
 20
9.0172621667
 30
0.0
 10
7.4146856893
 20
8.9903923349
 30
0.0
 10
7.4182847899
 20
8.9648686317
 30
0.0
 10
7.4223932259
 20
8.9408025571
 30
0.0
 10
7.4269898941
 20
8.9183014032
 30
0.0
 10
7.4320573455
 20
8.8974668697
 30
0.0
 10
7.4375720584
 20
8.8783909597
 30
0.0
 10
7.4435056097
 20
8.8611541546
 30
0.0
 10
7.4498354966
 20
8.8458314563
 30
0.0
 10
7.4555721316
 20
8.8344025189
 30
0.0
 10
7.4603730858
 20
8.8263180618
 30
0.0
 10
7.4650024319
 20
8.8193730848
 30
0.0
 10
7.4687958718
 20
8.8146115296
 30
0.0
 10
7.4714714314
 20
8.8117526487
 30
0.0
  0
SPLINE
  5
356
100
AcDbEntity
  8
0
100
AcDbSpline
 62
7
  6
CONTINUOUS
 70
0
 71
3
 72
11
 73
7
 74
0
 42
0.0000001
 43
0.0000001
 44
0.0000000001
 40
0.0
 40
0.0
 40
0.0
 40
0.0
 40
0.2641537364
 40
0.5203713439
 40
0.7663044966
 40
1.0
 40
1.0
 40
1.0
 40
1.0
 10
6.9797419781
 20
9.2308336198
 30
0.0
 10
6.9797419781
 20
9.2201998385
 30
0.0
 10
6.9799951869
 20
9.1992507523
 30
0.0
 10
6.9811554029
 20
9.1684206711
 30
0.0
 10
6.9830856398
 20
9.1388575126
 30
0.0
 10
6.9849265728
 20
9.119633569
 30
0.0
 10
6.9859854996
 20
9.1102857018
 30
0.0
  0
SPLINE
  5
357
100
AcDbEntity
  8
0
100
AcDbSpline
 62
7
  6
CONTINUOUS
 70
0
 71
3
 72
11
 73
7
 74
0
 42
0.0000001
 43
0.0000001
 44
0.0000000001
 40
0.0
 40
0.0
 40
0.0
 40
0.0
 40
0.2745858717
 40
0.5335364485
 40
0.7756940912
 40
1.0
 40
1.0
 40
1.0
 40
1.0
 10
6.9859854996
 20
9.1102857018
 30
0.0
 10
6.9868219275
 20
9.1029019841
 30
0.0
 10
6.9886438995
 20
9.088576162
 30
0.0
 10
6.9919477446
 20
9.0678417379
 30
0.0
 10
6.9957241561
 20
9.0485725808
 30
0.0
 10
6.9986573737
 20
9.0362892748
 30
0.0
 10
7.0002159028
 20
9.0304225133
 30
0.0
  0
SPLINE
  5
358
100
AcDbEntity
  8
0
100
AcDbSpline
 62
7
  6
CONTINUOUS
 70
0
 71
3
 72
21
 73
17
 74
0
 42
0.0000001
 43
0.0000001
 44
0.0000000001
 40
0.0
 40
0.0
 40
0.0
 40
0.0
 40
0.1839485921
 40
0.3498732784
 40
0.4260033499
 40
0.4975599348
 40
0.5645790697
 40
0.6271532459
 40
0.6854187645
 40
0.7395654491
 40
0.7898528744
 40
0.8366311277
 40
0.8803741206
 40
0.9216850408
 40
0.9612855078
 40
1.0
 40
1.0
 40
1.0
 40
1.0
 10
7.0002159028
 20
9.0304225133
 30
0.0
 10
7.0016986759
 20
9.0248409193
 30
0.0
 10
7.0047747896
 20
9.0142898028
 30
0.0
 10
7.0092915745
 20
9.0016886931
 30
0.0
 10
7.0131495204
 20
8.9926271993
 30
0.0
 10
7.0160560528
 20
8.986542537
 30
0.0
 10
7.0190552821
 20
8.9809816997
 30
0.0
 10
7.0221422009
 20
8.9759519849
 30
0.0
 10
7.0253124421
 20
8.9714598724
 30
0.0
 10
7.0285621122
 20
8.9675118274
 30
0.0
 10
7.0318877354
 20
8.9641143807
 30
0.0
 10
7.0352872241
 20
8.961274944
 30
0.0
 10
7.0387572953
 20
8.9589999142
 30
0.0
 10
7.0422938203
 20
8.9572944855
 30
0.0
 10
7.0458900044
 20
8.9561653726
 30
0.0
 10
7.0483336148
 20
8.955799645
 30
0.0
 10
7.0495462076
 20
8.9557161004
 30
0.0
  0
SPLINE
  5
359
100
AcDbEntity
  8
0
100
AcDbSpline
 62
7
  6
CONTINUOUS
 70
0
 71
3
 72
14
 73
10
 74
0
 42
0.0000001
 43
0.0000001
 44
0.0000000001
 40
0.0
 40
0.0
 40
0.0
 40
0.0
 40
0.125627454
 40
0.2536324767
 40
0.3825477329
 40
0.5110041576
 40
0.6379450713
 40
0.7623888286
 40
1.0
 40
1.0
 40
1.0
 40
1.0
 10
6.9565636732
 20
9.0834504095
 30
0.0
 10
6.9579888519
 20
9.083351573
 30
0.0
 10
6.9608767064
 20
9.0832840803
 30
0.0
 10
6.9652234249
 20
9.0835518003
 30
0.0
 10
6.9695653055
 20
9.0841842668
 30
0.0
 10
6.9738259624
 20
9.0851793323
 30
0.0
 10
6.977939901
 20
9.0865154577
 30
0.0
 10
6.9830624904
 20
9.0886886594
 30
0.0
 10
6.9866311551
 20
9.0908103618
 30
0.0
 10
6.9887918564
 20
9.0924328437
 30
0.0
  0
SPLINE
  5
35A
100
AcDbEntity
  8
0
100
AcDbSpline
 62
7
  6
CONTINUOUS
 70
0
 71
3
 72
15
 73
11
 74
0
 42
0.0000001
 43
0.0000001
 44
0.0000000001
 40
0.0
 40
0.0
 40
0.0
 40
0.0
 40
0.1667118259
 40
0.3193456899
 40
0.4584215111
 40
0.5848311783
 40
0.699959851
 40
0.8057244685
 40
0.9046738524
 40
1.0
 40
1.0
 40
1.0
 40
1.0
 10
7.0146095773
 20
8.9883991146
 30
0.0
 10
7.0130730469
 20
8.9861231125
 30
0.0
 10
7.0100029931
 20
8.9818462685
 30
0.0
 10
7.0051694971
 20
8.9760351462
 30
0.0
 10
7.0003212902
 20
8.9711289685
 30
0.0
 10
6.9954655513
 20
8.9671416745
 30
0.0
 10
6.9906102089
 20
8.9640826485
 30
0.0
 10
6.9857596624
 20
8.9619656894
 30
0.0
 10
6.9809252371
 20
8.9608111606
 30
0.0
 10
6.9777007919
 20
8.9606993615
 30
0.0
 10
6.9761342827
 20
8.9608073958
 30
0.0
  0
SPLINE
  5
35B
100
AcDbEntity
  8
0
100
AcDbSpline
 62
7
  6
CONTINUOUS
 70
0
 71
3
 72
21
 73
17
 74
0
 42
0.0000001
 43
0.0000001
 44
0.0000000001
 40
0.0
 40
0.0
 40
0.0
 40
0.0
 40
0.1684990052
 40
0.3288065965
 40
0.4049982392
 40
0.4781795065
 40
0.5480970006
 40
0.6145097349
 40
0.6772033122
 40
0.7359773166
 40
0.7906490613
 40
0.8410935375
 40
0.8872388339
 40
0.9290534632
 40
0.9665837105
 40
1.0
 40
1.0
 40
1.0
 40
1.0
 10
6.4780524721
 20
9.2822387404
 30
0.0
 10
6.4780524721
 20
9.269697616
 30
0.0
 10
6.4784702453
 20
9.245222787
 30
0.0
 10
6.4801077866
 20
9.2151152292
 30
0.0
 10
6.4821060963
 20
9.192151241
 30
0.0
 10
6.4838936602
 20
9.1759263898
 30
0.0
 10
6.4859878963
 20
9.1604722443
 30
0.0
 10
6.488381535
 20
9.1458517741
 30
0.0
 10
6.4910623147
 20
9.1321250186
 30
0.0
 10
6.4940179894
 20
9.1193497171
 30
0.0
 10
6.49723826
 20
9.1075805375
 30
0.0
 10
6.5007090457
 20
9.0968657969
 30
0.0
 10
6.5044136372
 20
9.0872474297
 30
0.0
 10
6.5083386598
 20
9.0787626962
 30
0.0
 10
6.5124709251
 20
9.0714464759
 30
0.0
 10
6.5155249747
 20
9.0671216327
 30
0.0
 10
6.5170940243
 20
9.0651919004
 30
0.0
  0
SPLINE
  5
35C
100
AcDbEntity
  8
0
100
AcDbSpline
 62
7
  6
CONTINUOUS
 70
0
 71
3
 72
15
 73
11
 74
0
 42
0.0000001
 43
0.0000001
 44
0.0000000001
 40
0.0
 40
0.0
 40
0.0
 40
0.0
 40
0.1492589846
 40
0.2896928643
 40
0.422021106
 40
0.5471301794
 40
0.6660970606
 40
0.7802088541
 40
0.8909619452
 40
1.0
 40
1.0
 40
1.0
 40
1.0
 10
8.1341354706
 20
8.5259781052
 30
0.0
 10
8.1358942647
 20
8.5238161093
 30
0.0
 10
8.1394419433
 20
8.5197260148
 30
0.0
 10
8.1450342343
 20
8.5141631687
 30
0.0
 10
8.1507247363
 20
8.5093720227
 30
0.0
 10
8.1565089479
 20
8.5053593684
 30
0.0
 10
8.1623825175
 20
8.502132573
 30
0.0
 10
8.1683408179
 20
8.4997002257
 30
0.0
 10
8.1743745044
 20
8.498067679
 30
0.0
 10
8.1784548889
 20
8.4975137002
 30
0.0
 10
8.1804860167
 20
8.4973727428
 30
0.0
  0
SPLINE
  5
35D
100
AcDbEntity
  8
0
100
AcDbSpline
 62
7
  6
CONTINUOUS
 70
0
 71
3
 72
13
 73
9
 74
0
 42
0.0000001
 43
0.0000001
 44
0.0000000001
 40
0.0
 40
0.0
 40
0.0
 40
0.0
 40
0.1191897845
 40
0.237957275
 40
0.3575504483
 40
0.479061778
 40
0.7311120926
 40
1.0
 40
1.0
 40
1.0
 40
1.0
 10
8.3823714542
 20
9.9809603276
 30
0.0
 10
8.3844428007
 20
9.9808166793
 30
0.0
 10
8.3885659499
 20
9.9803006042
 30
0.0
 10
8.3946354753
 20
9.9788515184
 30
0.0
 10
8.4005561078
 20
9.9767560957
 30
0.0
 10
8.4083396979
 20
9.9730911984
 30
0.0
 10
8.4177439259
 20
9.9669148997
 30
0.0
 10
8.4244914108
 20
9.9607974794
 30
0.0
 10
8.427760094
 20
9.9574423977
 30
0.0
  0
SPLINE
  5
35E
100
AcDbEntity
  8
0
100
AcDbSpline
 62
7
  6
CONTINUOUS
 70
0
 71
3
 72
15
 73
11
 74
0
 42
0.0000001
 43
0.0000001
 44
0.0000000001
 40
0.0
 40
0.0
 40
0.0
 40
0.0
 40
0.1090343429
 40
0.2198049044
 40
0.3339629341
 40
0.4529948405
 40
0.5781583416
 40
0.7105023722
 40
0.8508854369
 40
1.0
 40
1.0
 40
1.0
 40
1.0
 10
8.2838470164
 20
9.9877930545
 30
0.0
 10
8.2818159858
 20
9.9879340052
 30
0.0
 10
8.2776979906
 20
9.987948966
 30
0.0
 10
8.2714956249
 20
9.9871648077
 30
0.0
 10
8.2652567265
 20
9.9855760128
 30
0.0
 10
8.2589918187
 20
9.9831881486
 30
0.0
 10
8.2527072998
 20
9.9800105565
 30
0.0
 10
8.2464097133
 20
9.9760506447
 30
0.0
 10
8.2401055657
 20
9.9713154577
 30
0.0
 10
8.2360299292
 20
9.9677568211
 30
0.0
 10
8.2339915926
 20
9.965860106
 30
0.0
  0
SPLINE
  5
35F
100
AcDbEntity
  8
0
100
AcDbSpline
 62
7
  6
CONTINUOUS
 70
0
 71
3
 72
13
 73
9
 74
0
 42
0.0000001
 43
0.0000001
 44
0.0000000001
 40
0.0
 40
0.0
 40
0.0
 40
0.0
 40
0.2688711968
 40
0.5209169798
 40
0.6424349539
 40
0.7620362287
 40
0.8808097283
 40
1.0
 40
1.0
 40
1.0
 40
1.0
 10
8.3271970803
 20
8.5075569728
 30
0.0
 10
8.3234977813
 20
8.5046866631
 30
0.0
 10
8.3159726254
 20
8.4995620054
 30
0.0
 10
8.3058086467
 20
8.4947465046
 30
0.0
 10
8.2975959846
 20
8.4921928177
 30
0.0
 10
8.2914444014
 20
8.4909355081
 30
0.0
 10
8.2852347618
 20
8.4903384798
 30
0.0
 10
8.2810811227
 20
8.4903964823
 30
0.0
 10
8.2790104592
 20
8.4905400833
 30
0.0
  0
SPLINE
  5
360
100
AcDbEntity
  8
0
100
AcDbSpline
 62
7
  6
CONTINUOUS
 70
0
 71
3
 72
14
 73
10
 74
0
 42
0.0000001
 43
0.0000001
 44
0.0000000001
 40
0.0
 40
0.0
 40
0.0
 40
0.0
 40
0.1107670311
 40
0.2218622363
 40
0.3357051971
 40
0.4541582811
 40
0.7100810083
 40
0.850372852
 40
1.0
 40
1.0
 40
1.0
 40
1.0
 10
8.371739344
 20
8.4841093133
 30
0.0
 10
8.3686007172
 20
8.4843269778
 30
0.0
 10
8.3623383542
 20
8.485294923
 30
0.0
 10
8.3532462484
 20
8.4882916545
 30
0.0
 10
8.3445206046
 20
8.4927263978
 30
0.0
 10
8.3330875108
 20
8.5006329433
 30
0.0
 10
8.3226530728
 20
8.5110465315
 30
0.0
 10
8.3131573581
 20
8.5233082361
 30
0.0
 10
8.3086108237
 20
8.5301856717
 30
0.0
 10
8.3063775153
 20
8.5338014992
 30
0.0
  0
SPLINE
  5
361
100
AcDbEntity
  8
0
100
AcDbSpline
 62
7
  6
CONTINUOUS
 70
0
 71
3
 72
21
 73
17
 74
0
 42
0.0000001
 43
0.0000001
 44
0.0000000001
 40
0.0
 40
0.0
 40
0.0
 40
0.0
 40
0.0387749528
 40
0.0809686571
 40
0.1266647473
 40
0.1759028936
 40
0.2286431531
 40
0.2847983496
 40
0.3442658994
 40
0.4069094598
 40
0.4725620035
 40
0.5410492288
 40
0.6121854144
 40
0.6857699519
 40
0.8394359436
 40
1.0
 40
1.0
 40
1.0
 40
1.0
 10
8.3023234183
 20
8.5406449422
 30
0.0
 10
8.2990508863
 20
8.5463985206
 30
0.0
 10
8.2927185076
 20
8.5587014126
 30
0.0
 10
8.2841188825
 20
8.5785533749
 30
0.0
 10
8.2760249699
 20
8.6005295485
 30
0.0
 10
8.2684419997
 20
8.6245793949
 30
0.0
 10
8.2613797979
 20
8.6506404696
 30
0.0
 10
8.2548551331
 20
8.6786362779
 30
0.0
 10
8.2488875652
 20
8.7084813032
 30
0.0
 10
8.2434933036
 20
8.7400805502
 30
0.0
 10
8.2386864668
 20
8.7733304685
 30
0.0
 10
8.2344835632
 20
8.808122456
 30
0.0
 10
8.2308985451
 20
8.8443441919
 30
0.0
 10
8.2268974431
 20
8.8951263563
 30
0.0
 10
8.2235842729
 20
8.9612610342
 30
0.0
 10
8.2227003051
 20
9.0149054386
 30
0.0
 10
8.2226717948
 20
9.0423148027
 30
0.0
  0
LINE
  5
362
100
AcDbEntity
  8
0
100
AcDbLine
 62
7
  6
CONTINUOUS
 10
8.2226717948
 20
9.0423148027
 11
8.2226703627
 21
9.0450695766
  0
SPLINE
  5
363
100
AcDbEntity
  8
0
100
AcDbSpline
 62
7
  6
CONTINUOUS
 70
0
 71
3
 72
28
 73
24
 74
0
 42
0.0000001
 43
0.0000001
 44
0.0000000001
 40
0.0
 40
0.0
 40
0.0
 40
0.0
 40
0.0739312231
 40
0.1489614455
 40
0.2244266306
 40
0.2997471709
 40
0.3743504962
 40
0.4476480799
 40
0.5190615937
 40
0.5880445824
 40
0.6540727201
 40
0.7166626123
 40
0.775365853
 40
0.8031414656
 40
0.8298059118
 40
0.855319836
 40
0.8796535528
 40
0.9027810887
 40
0.9246798568
 40
0.945337181
 40
0.9647619196
 40
0.9829732394
 40
1.0
 40
1.0
 40
1.0
 40
1.0
 10
8.2226915792
 20
9.0557017878
 30
0.0
 10
8.222780019
 20
9.077911591
 30
0.0
 10
8.2235106745
 20
9.1226608038
 30
0.0
 10
8.2261906203
 20
9.1900341707
 30
0.0
 10
8.2304527285
 20
9.2577445118
 30
0.0
 10
8.2362542058
 20
9.325211541
 30
0.0
 10
8.2435505258
 20
9.391878479
 30
0.0
 10
8.2522751178
 20
9.4571899515
 30
0.0
 10
8.2623615636
 20
9.5205964439
 30
0.0
 10
8.2737185116
 20
9.5815683607
 30
0.0
 10
8.2862578069
 20
9.6396002252
 30
0.0
 10
8.2998689565
 20
9.6942134203
 30
0.0
 10
8.3122360489
 20
9.737266956
 30
0.0
 10
8.3226344594
 20
9.7696295812
 30
0.0
 10
8.3304896504
 20
9.7923304337
 30
0.0
 10
8.3385318486
 20
9.8138655243
 30
0.0
 10
8.3467460692
 20
9.8341943041
 30
0.0
 10
8.3551181889
 20
9.8532787289
 30
0.0
 10
8.3636349076
 20
9.8710828086
 30
0.0
 10
8.372286465
 20
9.887576073
 30
0.0
 10
8.3810675207
 20
9.9027345392
 30
0.0
 10
8.3899743638
 20
9.9165385426
 30
0.0
 10
8.3962004245
 20
9.9251094135
 30
0.0
 10
8.3993418547
 20
9.929146175
 30
0.0
  0
SPLINE
  5
364
100
AcDbEntity
  8
0
100
AcDbSpline
 62
7
  6
CONTINUOUS
 70
0
 71
3
 72
9
 73
5
 74
0
 42
0.0000001
 43
0.0000001
 44
0.0000000001
 40
0.0
 40
0.0
 40
0.0
 40
0.0
 40
0.5182235871
 40
1.0
 40
1.0
 40
1.0
 40
1.0
 10
8.4034181146
 20
9.9342287996
 30
0.0
 10
8.406480694
 20
9.9379307647
 30
0.0
 10
8.4126407357
 20
9.9448731083
 30
0.0
 10
8.4193827614
 20
9.9512611119
 30
0.0
 10
8.4227850264
 20
9.9541551891
 30
0.0
  0
SPLINE
  5
365
100
AcDbEntity
  8
0
100
AcDbSpline
 62
7
  6
CONTINUOUS
 70
0
 71
3
 72
9
 73
5
 74
0
 42
0.0000001
 43
0.0000001
 44
0.0000000001
 40
0.0
 40
0.0
 40
0.0
 40
0.0
 40
0.2594357066
 40
1.0
 40
1.0
 40
1.0
 40
1.0
 10
8.4227850264
 20
9.9541551891
 30
0.0
 10
8.4240047808
 20
9.9551927519
 30
0.0
 10
8.4287823677
 20
9.9591005745
 30
0.0
 10
8.4338835043
 20
9.9626225228
 30
0.0
 10
8.4378336195
 20
9.9649228565
 30
0.0
  0
SPLINE
  5
366
100
AcDbEntity
  8
0
100
AcDbSpline
 62
7
  6
CONTINUOUS
 70
0
 71
3
 72
11
 73
7
 74
0
 42
0.0000001
 43
0.0000001
 44
0.0000000001
 40
0.0
 40
0.0
 40
0.0
 40
0.0
 40
0.2610080065
 40
0.5117174736
 40
0.7562535905
 40
1.0
 40
1.0
 40
1.0
 40
1.0
 10
8.4378336195
 20
9.9649228565
 30
0.0
 10
8.4407687512
 20
9.9666321187
 30
0.0
 10
8.4467233459
 20
9.9696583383
 30
0.0
 10
8.456050178
 20
9.9729022621
 30
0.0
 10
8.4655467921
 20
9.9746493875
 30
0.0
 10
8.4719360146
 20
9.9747490043
 30
0.0
 10
8.475100339
 20
9.9745295576
 30
0.0
  0
SPLINE
  5
367
100
AcDbEntity
  8
0
100
AcDbSpline
 62
7
  6
CONTINUOUS
 70
0
 71
3
 72
33
 73
29
 74
0
 42
0.0000001
 43
0.0000001
 44
0.0000000001
 40
0.0
 40
0.0
 40
0.0
 40
0.0
 40
0.0192323698
 40
0.0401611498
 40
0.0627583044
 40
0.0869760336
 40
0.1127489754
 40
0.1400052571
 40
0.1686606396
 40
0.1986224426
 40
0.2297940217
 40
0.2620680407
 40
0.3294696453
 40
0.3998830164
 40
0.4359082517
 40
0.4723056896
 40
0.5456890889
 40
0.6189750565
 40
0.6552511566
 40
0.6911073496
 40
0.7610429285
 40
0.8277885441
 40
0.85967204
 40
0.8904138865
 40
0.919909432
 40
0.948064301
 40
0.9747879416
 40
1.0
 40
1.0
 40
1.0
 40
1.0
 10
9.0588136544
 20
9.9563408413
 30
0.0
 10
9.0540779443
 20
9.9483132234
 30
0.0
 10
9.0447284621
 20
9.9312286991
 30
0.0
 10
9.0315156789
 20
9.9038233283
 30
0.0
 10
9.018567981
 20
9.8736442303
 30
0.0
 10
9.0059345654
 20
9.8408057805
 30
0.0
 10
8.9936614553
 20
9.8054328923
 30
0.0
 10
8.9818014134
 20
9.7676598649
 30
0.0
 10
8.9703986055
 20
9.7276318967
 30
0.0
 10
8.959495732
 20
9.6855025198
 30
0.0
 10
8.9491386229
 20
9.641432543
 30
0.0
 10
8.9359151388
 20
9.579411623
 30
0.0
 10
8.9211111912
 20
9.4983026223
 30
0.0
 10
8.9088795955
 20
9.4149323764
 30
0.0
 10
8.9004989346
 20
9.3462178626
 30
0.0
 10
8.8930636996
 20
9.2759469734
 30
0.0
 10
8.8858103276
 20
9.1875109852
 30
0.0
 10
8.8812910844
 20
9.0989519837
 30
0.0
 10
8.8793695982
 20
9.0285029353
 30
0.0
 10
8.8785991698
 20
8.959655801
 30
0.0
 10
8.8797165755
 20
8.8760316242
 30
0.0
 10
8.8837014937
 20
8.7944179715
 30
0.0
 10
8.8886499181
 20
8.7319138686
 30
0.0
 10
8.8931215043
 20
8.6874910058
 30
0.0
 10
8.8983946399
 20
8.6449760766
 30
0.0
 10
8.904444696
 20
8.6045319182
 30
0.0
 10
8.9112499222
 20
8.566314491
 30
0.0
 10
8.916428607
 20
8.541678364
 30
0.0
 10
8.9191569523
 20
8.5297686182
 30
0.0
  0
SPLINE
  5
368
100
AcDbEntity
  8
0
100
AcDbSpline
 62
7
  6
CONTINUOUS
 70
0
 71
3
 72
11
 73
7
 74
0
 42
0.0000001
 43
0.0000001
 44
0.0000000001
 40
0.0
 40
0.0
 40
0.0
 40
0.0
 40
0.2685254394
 40
0.524869749
 40
0.7687567128
 40
1.0
 40
1.0
 40
1.0
 40
1.0
 10
8.9191569523
 20
8.5297686182
 30
0.0
 10
8.9208871126
 20
8.5222161393
 30
0.0
 10
8.9244382566
 20
8.5074917916
 30
0.0
 10
8.9301904313
 20
8.486065899
 30
0.0
 10
8.9362382776
 20
8.4658416975
 30
0.0
 10
8.9405759165
 20
8.4528332708
 30
0.0
 10
8.9427996678
 20
8.4465423682
 30
0.0
  0
SPLINE
  5
369
100
AcDbEntity
  8
0
100
AcDbSpline
 62
7
  6
CONTINUOUS
 70
0
 71
3
 72
9
 73
5
 74
0
 42
0.0000001
 43
0.0000001
 44
0.0000000001
 40
0.0
 40
0.0
 40
0.0
 40
0.0
 40
0.2580158607
 40
1.0
 40
1.0
 40
1.0
 40
1.0
 10
8.9427996678
 20
8.4465423682
 30
0.0
 10
8.9435676332
 20
8.444369825
 30
0.0
 10
8.9465964031
 20
8.4359683173
 30
0.0
 10
8.9498398096
 20
8.4276434832
 30
0.0
 10
8.952386719
 20
8.4215259938
 30
0.0
  0
SPLINE
  5
36A
100
AcDbEntity
  8
0
100
AcDbSpline
 62
7
  6
CONTINUOUS
 70
0
 71
3
 72
21
 73
17
 74
0
 42
0.0000001
 43
0.0000001
 44
0.0000000001
 40
0.0
 40
0.0
 40
0.0
 40
0.0
 40
0.0436487197
 40
0.0892896311
 40
0.1371526017
 40
0.1874338302
 40
0.2403106465
 40
0.2959170313
 40
0.354309753
 40
0.4155157029
 40
0.4795414356
 40
0.5463474161
 40
0.6158520286
 40
0.6879589087
 40
0.839519651
 40
1.0
 40
1.0
 40
1.0
 40
1.0
 10
8.9656379727
 20
8.3896901529
 30
0.0
 10
8.9670614393
 20
8.3862509954
 30
0.0
 10
8.9702429887
 20
8.3793245244
 30
0.0
 10
8.975877025
 20
8.3690654203
 30
0.0
 10
8.9824824696
 20
8.358725713
 30
0.0
 10
8.9900685087
 20
8.3483099816
 30
0.0
 10
8.9986444697
 20
8.3378256919
 30
0.0
 10
9.0082095356
 20
8.3272822073
 30
0.0
 10
9.0187436511
 20
8.3166809826
 30
0.0
 10
9.03022613
 20
8.306029222
 30
0.0
 10
9.0426341291
 20
8.2953373273
 30
0.0
 10
9.0559343795
 20
8.2846116664
 30
0.0
 10
9.070085725
 20
8.2738560611
 30
0.0
 10
9.0903719633
 20
8.2592415989
 30
0.0
 10
9.1176063027
 20
8.241020055
 30
0.0
 10
9.1402397007
 20
8.227019341
 30
0.0
 10
9.1519765537
 20
8.2199822657
 30
0.0
  0
SPLINE
  5
36B
100
AcDbEntity
  8
0
100
AcDbSpline
 62
7
  6
CONTINUOUS
 70
0
 71
3
 72
9
 73
5
 74
0
 42
0.0000001
 43
0.0000001
 44
0.0000000001
 40
0.0
 40
0.0
 40
0.0
 40
0.0
 40
0.2591057665
 40
1.0
 40
1.0
 40
1.0
 40
1.0
 10
9.8844080974
 20
8.1808923856
 30
0.0
 10
9.8833418983
 20
8.1799000804
 30
0.0
 10
9.8791789179
 20
8.176122689
 30
0.0
 10
9.8748169999
 20
8.1725616633
 30
0.0
 10
9.8714683439
 20
8.1700853405
 30
0.0
  0
SPLINE
  5
36C
100
AcDbEntity
  8
0
100
AcDbSpline
 62
7
  6
CONTINUOUS
 70
0
 71
3
 72
51
 73
47
 74
0
 42
0.0000001
 43
0.0000001
 44
0.0000000001
 40
0.0
 40
0.0
 40
0.0
 40
0.0
 40
0.007647009
 40
0.0158880401
 40
0.0247391023
 40
0.0342098965
 40
0.0443053692
 40
0.0550259237
 40
0.0663679408
 40
0.0783253522
 40
0.0908902357
 40
0.1040525122
 40
0.1177974647
 40
0.1321083183
 40
0.1623553768
 40
0.1946389595
 40
0.2287762725
 40
0.2645731373
 40
0.3018147826
 40
0.3402775951
 40
0.3797260541
 40
0.4199166278
 40
0.4606009654
 40
0.501525172
 40
0.5424347099
 40
0.5830748321
 40
0.623192032
 40
0.6625389679
 40
0.7008719413
 40
0.7379579616
 40
0.7735731232
 40
0.8075059115
 40
0.8395626428
 40
0.869562882
 40
0.8837444052
 40
0.8973560926
 40
0.9103814256
 40
0.9228073934
 40
0.9346239924
 40
0.9458227845
 40
0.9563972968
 40
0.9663446024
 40
0.9756679876
 40
0.9843752365
 40
0.9924792791
 40
1.0
 40
1.0
 40
1.0
 40
1.0
 10
8.2321665166
 20
9.9641295336
 30
0.0
 10
8.2294396137
 20
9.9614955475
 30
0.0
 10
8.2239961847
 20
9.9557902392
 30
0.0
 10
8.2161405143
 20
9.9463612935
 30
0.0
 10
8.2083083482
 20
9.9357656326
 30
0.0
 10
8.2005147042
 20
9.9240223604
 30
0.0
 10
8.192774859
 20
9.9111498383
 30
0.0
 10
8.1851023077
 20
9.8971696786
 30
0.0
 10
8.1775079935
 20
9.8821059926
 30
0.0
 10
8.1700039727
 20
9.8659830481
 30
0.0
 10
8.1626022867
 20
9.8488257069
 30
0.0
 10
8.1553159066
 20
9.8306608607
 30
0.0
 10
8.1481556441
 20
9.8115190605
 30
0.0
 10
8.1386159564
 20
9.7842307981
 30
0.0
 10
8.1271427942
 20
9.7478919937
 30
0.0
 10
8.1143059182
 20
9.7017080583
 30
0.0
 10
8.1022376748
 20
9.6524801769
 30
0.0
 10
8.0910261187
 20
9.6005336695
 30
0.0
 10
8.0807400497
 20
9.5462124693
 30
0.0
 10
8.0714537667
 20
9.4898762864
 30
0.0
 10
8.0632264546
 20
9.4318990597
 30
0.0
 10
8.0561139361
 20
9.3726653056
 30
0.0
 10
8.0501652373
 20
9.3125682782
 30
0.0
 10
8.0454165251
 20
9.2520070504
 30
0.0
 10
8.0419044702
 20
9.1913835012
 30
0.0
 10
8.0396463873
 20
9.1311006028
 30
0.0
 10
8.0386630669
 20
9.0715580918
 30
0.0
 10
8.0389554577
 20
9.0131517987
 30
0.0
 10
8.0405248496
 20
8.9562688443
 30
0.0
 10
8.0433584716
 20
8.9012868724
 30
0.0
 10
8.0474359142
 20
8.848570243
 30
0.0
 10
8.0527321391
 20
8.7984676588
 30
0.0
 10
8.0592053702
 20
8.7513111864
 30
0.0
 10
8.0656639286
 20
8.7140586443
 30
0.0
 10
8.0714316484
 20
8.6859899233
 30
0.0
 10
8.0759419116
 20
8.6662597317
 30
0.0
 10
8.0807114451
 20
8.6474871865
 30
0.0
 10
8.0857321664
 20
8.6297030158
 30
0.0
 10
8.0909945997
 20
8.6129353301
 30
0.0
 10
8.0964899086
 20
8.5972113054
 30
0.0
 10
8.1022094406
 20
8.5825574771
 30
0.0
 10
8.1081453893
 20
8.5689984452
 30
0.0
 10
8.1142867206
 20
8.5565548679
 30
0.0
 10
8.1206238098
 20
8.5452450779
 30
0.0
 10
8.1271465081
 20
8.5350879071
 30
0.0
 10
8.1317824434
 20
8.5288705617
 30
0.0
 10
8.1341354706
 20
8.5259781052
 30
0.0
  0
SPLINE
  5
36D
100
AcDbEntity
  8
0
100
AcDbSpline
 62
7
  6
CONTINUOUS
 70
0
 71
3
 72
21
 73
17
 74
0
 42
0.0000001
 43
0.0000001
 44
0.0000000001
 40
0.0
 40
0.0
 40
0.0
 40
0.0
 40
0.1616454741
 40
0.3162676126
 40
0.3902722115
 40
0.4617763002
 40
0.5305683755
 40
0.5964474281
 40
0.6592185517
 40
0.7187026888
 40
0.7747537434
 40
0.8272403062
 40
0.8760555273
 40
0.9211350389
 40
0.9624445051
 40
1.0
 40
1.0
 40
1.0
 40
1.0
 10
8.2300821744
 20
9.0425695785
 30
0.0
 10
8.2300821744
 20
9.0146570219
 30
0.0
 10
8.2309296532
 20
8.9600404627
 30
0.0
 10
8.2342511178
 20
8.8927156099
 30
0.0
 10
8.2382900226
 20
8.8410443637
 30
0.0
 10
8.2419170859
 20
8.8042148362
 30
0.0
 10
8.2461752599
 20
8.7688655333
 30
0.0
 10
8.251046884
 20
8.7351180679
 30
0.0
 10
8.2565150233
 20
8.7030909602
 30
0.0
 10
8.2625630757
 20
8.6728965623
 30
0.0
 10
8.2691661494
 20
8.6446386871
 30
0.0
 10
8.276301468
 20
8.6184139613
 30
0.0
 10
8.2839467218
 20
8.5943124903
 30
0.0
 10
8.2920717549
 20
8.5724135419
 30
0.0
 10
8.3006490585
 20
8.5527915564
 30
0.0
 10
8.3069498576
 20
8.5407008125
 30
0.0
 10
8.310194709
 20
8.5350860033
 30
0.0
  0
SPLINE
  5
36E
100
AcDbEntity
  8
0
100
AcDbSpline
 62
7
  6
CONTINUOUS
 70
0
 71
3
 72
13
 73
9
 74
0
 42
0.0000001
 43
0.0000001
 44
0.0000000001
 40
0.0
 40
0.0
 40
0.0
 40
0.0
 40
0.2915025065
 40
0.4260604368
 40
0.5534679485
 40
0.674082389
 40
0.7883588856
 40
1.0
 40
1.0
 40
1.0
 40
1.0
 10
8.310194709
 20
8.5350860033
 30
0.0
 10
8.3130935845
 20
8.5300698623
 30
0.0
 10
8.3176205702
 20
8.5228944306
 30
0.0
 10
8.324201897
 20
8.5140747459
 30
0.0
 10
8.3290924023
 20
8.5082466574
 30
0.0
 10
8.3340670894
 20
8.5030318532
 30
0.0
 10
8.3406340968
 20
8.4970574972
 30
0.0
 10
8.3459296304
 20
8.4932531254
 30
0.0
 10
8.3495733683
 20
8.4911516306
 30
0.0
  0
SPLINE
  5
36F
100
AcDbEntity
  8
0
100
AcDbSpline
 62
7
  6
CONTINUOUS
 70
0
 71
3
 72
11
 73
7
 74
0
 42
0.0000001
 43
0.0000001
 44
0.0000000001
 40
0.0
 40
0.0
 40
0.0
 40
0.0
 40
0.2611046454
 40
0.5128189095
 40
0.7580576261
 40
1.0
 40
1.0
 40
1.0
 40
1.0
 10
8.3495733683
 20
8.4911516306
 30
0.0
 10
8.3513413151
 20
8.4901319823
 30
0.0
 10
8.3549143123
 20
8.4882966134
 30
0.0
 10
8.3604582911
 20
8.486171077
 30
0.0
 10
8.3660660386
 20
8.4847360152
 30
0.0
 10
8.3698527487
 20
8.4842402025
 30
0.0
 10
8.3717393465
 20
8.4841093493
 30
0.0
  0
SPLINE
  5
370
100
AcDbEntity
  8
0
100
AcDbSpline
 62
7
  6
CONTINUOUS
 70
0
 71
3
 72
30
 73
26
 74
0
 42
0.0000001
 43
0.0000001
 44
0.0000000001
 40
0.0
 40
0.0
 40
0.0
 40
0.0
 40
0.0146491914
 40
0.0306622006
 40
0.0480777528
 40
0.0669159825
 40
0.0871816061
 40
0.1088664712
 40
0.1319544481
 40
0.1564221177
 40
0.182232662
 40
0.2093424276
 40
0.237704976
 40
0.2672682442
 40
0.2979725727
 40
0.3297562808
 40
0.3962994645
 40
0.4663337124
 40
0.539254561
 40
0.6144189847
 40
0.691158096
 40
0.7687757357
 40
0.8465892773
 40
0.9239209969
 40
1.0
 40
1.0
 40
1.0
 40
1.0
 10
8.4234198415
 20
9.9508660705
 30
0.0
 10
8.4201185209
 20
9.9476772395
 30
0.0
 10
8.4135356199
 20
9.9406601195
 30
0.0
 10
8.4041119081
 20
9.9288931571
 30
0.0
 10
8.3947314322
 20
9.9154569753
 30
0.0
 10
8.385421364
 20
9.9003837386
 30
0.0
 10
8.3762043666
 20
9.8837086305
 30
0.0
 10
8.3670995311
 20
9.8654719538
 30
0.0
 10
8.3581278977
 20
9.8457145847
 30
0.0
 10
8.3493118397
 20
9.8244811393
 30
0.0
 10
8.3406707139
 20
9.8018224418
 30
0.0
 10
8.332225052
 20
9.7777930255
 30
0.0
 10
8.3239966642
 20
9.7524494253
 30
0.0
 10
8.3160062312
 20
9.7258518738
 30
0.0
 10
8.3082710968
 20
9.698064783
 30
0.0
 10
8.2981687609
 20
9.6589168711
 30
0.0
 10
8.2863685996
 20
9.6074910316
 30
0.0
 10
8.2737063554
 20
9.543073809
 30
0.0
 10
8.2624639793
 20
9.4756540821
 30
0.0
 10
8.2527460675
 20
9.4058770538
 30
0.0
 10
8.2446500579
 20
9.3344124809
 30
0.0
 10
8.2382511854
 20
9.2619430361
 30
0.0
 10
8.2336118061
 20
9.1891535186
 30
0.0
 10
8.2307807832
 20
9.1167541465
 30
0.0
 10
8.2301033878
 20
9.0686856833
 30
0.0
 10
8.2300831426
 20
9.0448484379
 30
0.0
  0
LINE
  5
371
100
AcDbEntity
  8
0
100
AcDbLine
 62
7
  6
CONTINUOUS
 10
8.2300831426
 20
9.0448484379
 11
8.2300821744
 21
9.0425695785
  0
SPLINE
  5
372
100
AcDbEntity
  8
0
100
AcDbSpline
 62
7
  6
CONTINUOUS
 70
0
 71
3
 72
11
 73
7
 74
0
 42
0.0000001
 43
0.0000001
 44
0.0000000001
 40
0.0
 40
0.0
 40
0.0
 40
0.0
 40
0.2418634129
 40
0.4870635504
 40
0.7387932791
 40
1.0
 40
1.0
 40
1.0
 40
1.0
 10
7.6267044633
 20
8.7412719214
 30
0.0
 10
7.6253266937
 20
8.7413676734
 30
0.0
 10
7.6225611122
 20
8.7417311501
 30
0.0
 10
7.6184660602
 20
8.7427838137
 30
0.0
 10
7.6144178155
 20
8.7443428332
 30
0.0
 10
7.6118096082
 20
8.7456891806
 30
0.0
 10
7.6105193391
 20
8.7464374582
 30
0.0
  0
SPLINE
  5
373
100
AcDbEntity
  8
0
100
AcDbSpline
 62
7
  6
CONTINUOUS
 70
0
 71
3
 72
29
 73
25
 74
0
 42
0.0000001
 43
0.0000001
 44
0.0000000001
 40
0.0
 40
0.0
 40
0.0
 40
0.0
 40
0.0279230584
 40
0.043341761
 40
0.059857762
 40
0.0775467978
 40
0.0964665871
 40
0.1166554637
 40
0.1381366146
 40
0.1609239374
 40
0.1850241728
 40
0.2371537696
 40
0.2651667212
 40
0.2944516778
 40
0.3249867134
 40
0.3567479005
 40
0.423829338
 40
0.4954143748
 40
0.5711877252
 40
0.6508125238
 40
0.7339274681
 40
0.8201555825
 40
0.9090246664
 40
1.0
 40
1.0
 40
1.0
 40
1.0
 10
7.6105193391
 20
8.7464374582
 30
0.0
 10
7.607145619
 20
8.7483940107
 30
0.0
 10
7.6022883835
 20
8.7521069649
 30
0.0
 10
7.5963917789
 20
8.7580377475
 30
0.0
 10
7.5919154283
 20
8.7633402664
 30
0.0
 10
7.5875412757
 20
8.7693398946
 30
0.0
 10
7.5832727595
 20
8.7760319968
 30
0.0
 10
7.5791149869
 20
8.7834068989
 30
0.0
 10
7.5750722433
 20
8.7914542659
 30
0.0
 10
7.5711495924
 20
8.8001632658
 30
0.0
 10
7.5659500863
 20
8.8129811822
 30
0.0
 10
7.5611820817
 20
8.8267496865
 30
0.0
 10
7.5567670723
 20
8.8413827191
 30
0.0
 10
7.5535221975
 20
8.8532148669
 30
0.0
 10
7.5504262969
 20
8.8656267443
 30
0.0
 10
7.5464305864
 20
8.8832508203
 30
0.0
 10
7.5418731283
 20
8.9066202933
 30
0.0
 10
7.5371519511
 20
8.9362016185
 30
0.0
 10
7.5331125122
 20
8.9676504758
 30
0.0
 10
7.5297787517
 20
9.0008001456
 30
0.0
 10
7.5271659489
 20
9.035478529
 30
0.0
 10
7.5252933502
 20
9.0714974064
 30
0.0
 10
7.5241683735
 20
9.1086453136
 30
0.0
 10
7.5239222904
 20
9.1337649524
 30
0.0
 10
7.5239222904
 20
9.1464714687
 30
0.0
  0
SPLINE
  5
374
100
AcDbEntity
  8
0
100
AcDbSpline
 62
7
  6
CONTINUOUS
 70
0
 71
3
 72
34
 73
30
 74
0
 42
0.0000001
 43
0.0000001
 44
0.0000000001
 40
0.0
 40
0.0
 40
0.0
 40
0.0
 40
0.0053772073
 40
0.0108203679
 40
0.0163933253
 40
0.0221552225
 40
0.0344367977
 40
0.0480180166
 40
0.0631386581
 40
0.079956174
 40
0.0985602341
 40
0.1189997667
 40
0.1412945647
 40
0.1654317331
 40
0.1913795618
 40
0.2190962025
 40
0.2485236726
 40
0.2795886192
 40
0.3122129776
 40
0.3463122369
 40
0.3817881594
 40
0.4185380814
 40
0.4954296993
 40
0.5760719529
 40
0.6594872452
 40
0.744635385
 40
0.8304798353
 40
0.9159908115
 40
1.0
 40
1.0
 40
1.0
 40
1.0
 10
7.6901086202
 20
9.8234746546
 30
0.0
 10
7.6888102715
 20
9.823564887
 30
0.0
 10
7.6861846983
 20
9.8235954571
 30
0.0
 10
7.6822298854
 20
9.8231883085
 30
0.0
 10
7.6782528134
 20
9.8223285619
 30
0.0
 10
7.6728130897
 20
9.8205442491
 30
0.0
 10
7.6659291886
 20
9.8170969302
 30
0.0
 10
7.6578486908
 20
9.8112895291
 30
0.0
 10
7.6497786471
 20
9.8037530071
 30
0.0
 10
7.6417358815
 20
9.7945127194
 30
0.0
 10
7.6337334786
 20
9.7835989679
 30
0.0
 10
7.6257942318
 20
9.7710425029
 30
0.0
 10
7.6179447136
 20
9.756879369
 30
0.0
 10
7.6102070952
 20
9.741155641
 30
0.0
 10
7.6026059304
 20
9.7239218685
 30
0.0
 10
7.5951684483
 20
9.7052321204
 30
0.0
 10
7.5879191834
 20
9.6851472196
 30
0.0
 10
7.5808802624
 20
9.6637340098
 30
0.0
 10
7.5740760994
 20
9.6410621735
 30
0.0
 10
7.5675312199
 20
9.6172055149
 30
0.0
 10
7.5612650124
 20
9.5922435155
 30
0.0
 10
7.5531878327
 20
9.5570649657
 30
0.0
 10
7.5439885629
 20
9.5109383637
 30
0.0
 10
7.5345166173
 20
9.4533843711
 30
0.0
 10
7.5265866441
 20
9.3935815872
 30
0.0
 10
7.5202983191
 20
9.3323188966
 30
0.0
 10
7.5157383451
 20
9.270394659
 30
0.0
 10
7.5129715368
 20
9.2086409713
 30
0.0
 10
7.5123311798
 20
9.1676086043
 30
0.0
 10
7.5123311798
 20
9.1472753149
 30
0.0
  0
SPLINE
  5
375
100
AcDbEntity
  8
0
100
AcDbSpline
 62
7
  6
CONTINUOUS
 70
0
 71
3
 72
20
 73
16
 74
0
 42
0.0000001
 43
0.0000001
 44
0.0000000001
 40
0.0
 40
0.0
 40
0.0
 40
0.0
 40
0.1166778128
 40
0.2343462679
 40
0.29380285
 40
0.3538163198
 40
0.4144956088
 40
0.4759532992
 40
0.5382706244
 40
0.6015113464
 40
0.6657030033
 40
0.7308396905
 40
0.7968962779
 40
0.8638226312
 40
1.0
 40
1.0
 40
1.0
 40
1.0
 10
7.9320683681
 20
8.6336028037
 30
0.0
 10
7.9360184293
 20
8.6519000705
 30
0.0
 10
7.9426421095
 20
8.688952443
 30
0.0
 10
7.9468429222
 20
8.7359780357
 30
0.0
 10
7.9473214733
 20
8.7740352776
 30
0.0
 10
7.9461280384
 20
8.8029269874
 30
0.0
 10
7.9433104713
 20
8.8320287851
 30
0.0
 10
7.9388032482
 20
8.8612912523
 30
0.0
 10
7.9326226309
 20
8.8906658583
 30
0.0
 10
7.9247750088
 20
8.9200927315
 30
0.0
 10
7.915345545
 20
8.949524924
 30
0.0
 10
7.9044196146
 20
8.9789156156
 30
0.0
 10
7.8921124911
 20
9.0082300168
 30
0.0
 10
7.8739271939
 20
9.0474038932
 30
0.0
 10
7.858743312
 20
9.0762623008
 30
0.0
 10
7.8480892016
 20
9.0953354995
 30
0.0
  0
SPLINE
  5
376
100
AcDbEntity
  8
0
100
AcDbSpline
 62
7
  6
CONTINUOUS
 70
0
 71
3
 72
21
 73
17
 74
0
 42
0.0000001
 43
0.0000001
 44
0.0000000001
 40
0.0
 40
0.0
 40
0.0
 40
0.0
 40
0.1689268406
 40
0.3295046482
 40
0.4058064679
 40
0.4790803205
 40
0.5490648148
 40
0.6155180238
 40
0.6782095745
 40
0.7369293044
 40
0.7915199009
 40
0.8418543421
 40
0.8878432067
 40
0.9294747079
 40
0.9668071868
 40
1.0
 40
1.0
 40
1.0
 40
1.0
 10
7.9354067168
 20
9.1179349268
 30
0.0
 10
7.9354067168
 20
9.0956107798
 30
0.0
 10
7.9361515334
 20
9.0520617139
 30
0.0
 10
7.9390826649
 20
8.9984978233
 30
0.0
 10
7.9426550967
 20
8.9576630758
 30
0.0
 10
7.9458507104
 20
8.9288212304
 30
0.0
 10
7.9495967469
 20
8.9013583802
 30
0.0
 10
7.9538743703
 20
8.8753891276
 30
0.0
 10
7.9586643889
 20
8.8510242496
 30
0.0
 10
7.9639498918
 20
8.8283680609
 30
0.0
 10
7.9697046532
 20
8.8075148148
 30
0.0
 10
7.9759030198
 20
8.7885497601
 30
0.0
 10
7.9825231395
 20
8.771551379
 30
0.0
 10
7.9895355516
 20
8.7565842905
 30
0.0
 10
7.9969107897
 20
8.7437067129
 30
0.0
 10
8.0023678813
 20
8.7361190699
 30
0.0
 10
8.0051705761
 20
8.7327446849
 30
0.0
  0
SPLINE
  5
377
100
AcDbEntity
  8
0
100
AcDbSpline
 62
7
  6
CONTINUOUS
 70
0
 71
3
 72
27
 73
23
 74
0
 42
0.0000001
 43
0.0000001
 44
0.0000000001
 40
0.0
 40
0.0
 40
0.0
 40
0.0
 40
0.0144538225
 40
0.0302652675
 40
0.0474826179
 40
0.06613351
 40
0.0862308594
 40
0.1077717484
 40
0.1307351615
 40
0.1550925552
 40
0.2078467469
 40
0.2656889879
 40
0.3281631905
 40
0.3947647631
 40
0.464913722
 40
0.5380007988
 40
0.6133619259
 40
0.6903076643
 40
0.7681540546
 40
0.8462223044
 40
0.9237805747
 40
1.0
 40
1.0
 40
1.0
 40
1.0
 10
6.6180375398
 20
9.7108987661
 30
0.0
 10
6.6163959865
 20
9.709371197
 30
0.0
 10
6.6131225299
 20
9.7059943781
 30
0.0
 10
6.6084396031
 20
9.7003001089
 30
0.0
 10
6.6037784125
 20
9.6937700548
 30
0.0
 10
6.5991498505
 20
9.6864193662
 30
0.0
 10
6.5945650452
 20
9.6782630689
 30
0.0
 10
6.5900355055
 20
9.669319747
 30
0.0
 10
6.5855704081
 20
9.6596119618
 30
0.0
 10
6.5795566088
 20
9.6452958302
 30
0.0
 10
6.5723346126
 20
9.6256319105
 30
0.0
 10
6.5643068541
 20
9.6000015105
 30
0.0
 10
6.5567777134
 20
9.5719901858
 30
0.0
 10
6.5498287586
 20
9.5418679604
 30
0.0
 10
6.54352151
 20
9.5099256315
 30
0.0
 10
6.5379256744
 20
9.4764729533
 30
0.0
 10
6.5330906501
 20
9.4418372985
 30
0.0
 10
6.5290666644
 20
9.4063550912
 30
0.0
 10
6.5258927869
 20
9.3703652933
 30
0.0
 10
6.5235999432
 20
9.3342133501
 30
0.0
 10
6.522213442
 20
9.2982681472
 30
0.0
 10
6.5218931093
 20
9.27441018
 30
0.0
 10
6.5218931093
 20
9.2625855467
 30
0.0
  0
SPLINE
  5
378
100
AcDbEntity
  8
0
100
AcDbSpline
 62
7
  6
CONTINUOUS
 70
0
 71
3
 72
19
 73
15
 74
0
 42
0.0000001
 43
0.0000001
 44
0.0000000001
 40
0.0
 40
0.0
 40
0.0
 40
0.0
 40
0.1269326862
 40
0.2534441422
 40
0.3165126182
 40
0.3794373555
 40
0.4422025017
 40
0.5048024509
 40
0.5672330318
 40
0.6294929023
 40
0.6915915309
 40
0.7535333121
 40
0.8769934293
 40
1.0
 40
1.0
 40
1.0
 40
1.0
 10
7.8480892016
 20
9.0953354995
 30
0.0
 10
7.8588400953
 20
9.1201470317
 30
0.0
 10
7.8791544102
 20
9.1701999004
 30
0.0
 10
7.9008352044
 20
9.2341002884
 30
0.0
 10
7.9154085277
 20
9.2858912539
 30
0.0
 10
7.924828624
 20
9.3249942978
 30
0.0
 10
7.9326650264
 20
9.3643443639
 30
0.0
 10
7.9388329227
 20
9.4038842347
 30
0.0
 10
7.9433285731
 20
9.4435407398
 30
0.0
 10
7.9461361006
 20
9.4832449398
 30
0.0
 10
7.94732265
 20
9.522925723
 30
0.0
 10
7.9468367694
 20
9.5756602345
 30
0.0
 10
7.942621358
 20
9.6412804558
 30
0.0
 10
7.9360149447
 20
9.6933981835
 30
0.0
 10
7.9320683681
 20
9.7193034968
 30
0.0
  0
SPLINE
  5
379
100
AcDbEntity
  8
0
100
AcDbSpline
 62
7
  6
CONTINUOUS
 70
0
 71
3
 72
23
 73
19
 74
0
 42
0.0000001
 43
0.0000001
 44
0.0000000001
 40
0.0
 40
0.0
 40
0.0
 40
0.0
 40
0.091312268
 40
0.1793128275
 40
0.2636231059
 40
0.3438810749
 40
0.4197553126
 40
0.4910008606
 40
0.5574893809
 40
0.619231168
 40
0.6764687917
 40
0.7295916359
 40
0.7792118369
 40
0.8260356723
 40
0.8708349274
 40
0.9143533942
 40
0.957235427
 40
1.0
 40
1.0
 40
1.0
 40
1.0
 10
7.9320683681
 20
9.7193034968
 30
0.0
 10
7.9390407051
 20
9.7222947221
 30
0.0
 10
7.9526758791
 20
9.728302303
 30
0.0
 10
7.9725071463
 20
9.7376081527
 30
0.0
 10
7.9912459305
 20
9.7470623618
 30
0.0
 10
8.0087679314
 20
9.7566683426
 30
0.0
 10
8.0249495373
 20
9.7664314232
 30
0.0
 10
8.0396758385
 20
9.7763531693
 30
0.0
 10
8.0528540432
 20
9.7864242238
 30
0.0
 10
8.0644034224
 20
9.7966494273
 30
0.0
 10
8.0742947004
 20
9.8070031931
 30
0.0
 10
8.0825072251
 20
9.8174852849
 30
0.0
 10
8.0890784858
 20
9.8280644886
 30
0.0
 10
8.0940623884
 20
9.8387210142
 30
0.0
 10
8.0975467624
 20
9.8494248044
 30
0.0
 10
8.0996477668
 20
9.8601478122
 30
0.0
 10
8.1004863234
 20
9.8708682723
 30
0.0
 10
8.100290085
 20
9.87799538
 30
0.0
 10
8.1000267013
 20
9.8815387981
 30
0.0
  0
SPLINE
  5
37A
100
AcDbEntity
  8
0
100
AcDbSpline
 62
7
  6
CONTINUOUS
 70
0
 71
3
 72
15
 73
11
 74
0
 42
0.0000001
 43
0.0000001
 44
0.0000000001
 40
0.0
 40
0.0
 40
0.0
 40
0.0
 40
0.1503501733
 40
0.2915648839
 40
0.4243425456
 40
0.5495591472
 40
0.6682973017
 40
0.7818729491
 40
0.8918579632
 40
1.0
 40
1.0
 40
1.0
 40
1.0
 10
8.3306909567
 20
9.9572968405
 30
0.0
 10
8.3328007659
 20
9.9593347598
 30
0.0
 10
8.3370190719
 20
9.963158987
 30
0.0
 10
8.3435529699
 20
9.9682564937
 30
0.0
 10
8.3500813916
 20
9.9725228909
 30
0.0
 10
8.3565972632
 20
9.9759503158
 30
0.0
 10
8.363093615
 20
9.9785303689
 30
0.0
 10
8.3695636521
 20
9.9802525318
 30
0.0
 10
8.3759956838
 20
9.9811113655
 30
0.0
 10
8.3802666604
 20
9.9811062787
 30
0.0
 10
8.3823714517
 20
9.9809602917
 30
0.0
  0
SPLINE
  5
37B
100
AcDbEntity
  8
0
100
AcDbSpline
 62
7
  6
CONTINUOUS
 70
0
 71
3
 72
29
 73
25
 74
0
 42
0.0000001
 43
0.0000001
 44
0.0000000001
 40
0.0
 40
0.0
 40
0.0
 40
0.0
 40
0.0762403334
 40
0.1537897619
 40
0.2318384144
 40
0.3096816662
 40
0.3866356529
 40
0.4619993355
 40
0.5350809921
 40
0.6052311855
 40
0.6718289917
 40
0.7343078937
 40
0.7638373146
 40
0.7921488538
 40
0.8191901156
 40
0.8449110409
 40
0.869267866
 40
0.8922289984
 40
0.9137688447
 40
0.9338680843
 40
0.9525195909
 40
0.9697361649
 40
0.9855465541
 40
1.0
 40
1.0
 40
1.0
 40
1.0
 10
7.5683041105
 20
9.1463410175
 30
0.0
 10
7.5683041105
 20
9.1634080249
 30
0.0
 10
7.5687654759
 20
9.1978365349
 30
0.0
 10
7.5707665717
 20
9.2497018977
 30
0.0
 10
7.5740759143
 20
9.3018601026
 30
0.0
 10
7.5786545589
 20
9.3537883474
 30
0.0
 10
7.5844621074
 20
9.4049888822
 30
0.0
 10
7.5914358892
 20
9.4549679901
 30
0.0
 10
7.5995145141
 20
9.5032373319
 30
0.0
 10
7.6086110858
 20
9.5493276392
 30
0.0
 10
7.618642722
 20
9.592791466
 30
0.0
 10
7.6278569479
 20
9.6270904278
 30
0.0
 10
7.6356628804
 20
9.6528710323
 30
0.0
 10
7.6415763286
 20
9.670930865
 30
0.0
 10
7.6476440768
 20
9.6880375914
 30
0.0
 10
7.6538518829
 20
9.7041490374
 30
0.0
 10
7.6601859151
 20
9.7192255865
 30
0.0
 10
7.6666291629
 20
9.7332322476
 30
0.0
 10
7.6731656574
 20
9.746136315
 30
0.0
 10
7.6797802711
 20
9.7579063567
 30
0.0
 10
7.6864589277
 20
9.7685135727
 30
0.0
 10
7.6931849061
 20
9.777935687
 30
0.0
 10
7.699942306
 20
9.7861514357
 30
0.0
 10
7.7046656788
 20
9.7910235906
 30
0.0
 10
7.7070342534
 20
9.7932277773
 30
0.0
  0
SPLINE
  5
37C
100
AcDbEntity
  8
0
100
AcDbSpline
 62
7
  6
CONTINUOUS
 70
0
 71
3
 72
21
 73
17
 74
0
 42
0.0000001
 43
0.0000001
 44
0.0000000001
 40
0.0
 40
0.0
 40
0.0
 40
0.0
 40
0.1230801079
 40
0.1847940591
 40
0.2466326215
 40
0.3086024378
 40
0.3707185652
 40
0.4329890463
 40
0.495414489
 40
0.5579983503
 40
0.6207387171
 40
0.683627213
 40
0.746657791
 40
0.8098253389
 40
0.8731155567
 40
1.0
 40
1.0
 40
1.0
 40
1.0
 10
8.9408309875
 20
9.380898901
 30
0.0
 10
8.9319344015
 20
9.3470149834
 30
0.0
 10
8.919821826
 20
9.2957962565
 30
0.0
 10
8.9066424023
 20
9.2268368804
 30
0.0
 10
8.8983442753
 20
9.1746780249
 30
0.0
 10
8.8917455568
 20
9.1221611663
 30
0.0
 10
8.8869621942
 20
9.0693233409
 30
0.0
 10
8.884061082
 20
9.0162186299
 30
0.0
 10
8.8830804267
 20
8.9629100901
 30
0.0
 10
8.8840659759
 20
8.9094679652
 30
0.0
 10
8.8869715578
 20
8.8559644923
 30
0.0
 10
8.8917588079
 20
8.8024692724
 30
0.0
 10
8.898360368
 20
8.749046269
 30
0.0
 10
8.9066604684
 20
8.6957456006
 30
0.0
 10
8.9198645998
 20
8.6248479544
 30
0.0
 10
8.9319619138
 20
8.572056221
 30
0.0
 10
8.9408309875
 20
8.5370469431
 30
0.0
  0
SPLINE
  5
37D
100
AcDbEntity
  8
0
100
AcDbSpline
 62
7
  6
CONTINUOUS
 70
0
 71
3
 72
22
 73
18
 74
0
 42
0.0000001
 43
0.0000001
 44
0.0000000001
 40
0.0
 40
0.0
 40
0.0
 40
0.0
 40
0.1279375082
 40
0.1917536443
 40
0.2554110134
 40
0.3188675595
 40
0.3821074411
 40
0.4450768942
 40
0.507760104
 40
0.5701422361
 40
0.6322200789
 40
0.6940273425
 40
0.7555738415
 40
0.8169163483
 40
0.8780853308
 40
0.9391062746
 40
1.0
 40
1.0
 40
1.0
 40
1.0
 10
7.7356806867
 20
9.7329230287
 30
0.0
 10
7.7202368799
 20
9.7095186367
 30
0.0
 10
7.6982225633
 20
9.6736526857
 30
0.0
 10
7.6721450969
 20
9.6240986015
 30
0.0
 10
7.6545267677
 20
9.5861186179
 30
0.0
 10
7.6391436513
 20
9.5473102754
 30
0.0
 10
7.6263039293
 20
9.5077412023
 30
0.0
 10
7.6162452297
 20
9.4675445791
 30
0.0
 10
7.6092223182
 20
9.4268961587
 30
0.0
 10
7.6052596086
 20
9.3860320095
 30
0.0
 10
7.6043980392
 20
9.3451788376
 30
0.0
 10
7.606437251
 20
9.3045557035
 30
0.0
 10
7.611179849
 20
9.264325581
 30
0.0
 10
7.6183408953
 20
9.2246028992
 30
0.0
 10
7.6276190631
 20
9.1854438221
 30
0.0
 10
7.6387446109
 20
9.1468759638
 30
0.0
 10
7.6472329209
 20
9.1215310628
 30
0.0
 10
7.6517015201
 20
9.1089550315
 30
0.0
  0
SPLINE
  5
37E
100
AcDbEntity
  8
0
100
AcDbSpline
 62
7
  6
CONTINUOUS
 70
0
 71
3
 72
22
 73
18
 74
0
 42
0.0000001
 43
0.0000001
 44
0.0000000001
 40
0.0
 40
0.0
 40
0.0
 40
0.0
 40
0.1145852948
 40
0.1717027862
 40
0.2288668581
 40
0.2862889933
 40
0.3442718351
 40
0.4031173118
 40
0.4631704838
 40
0.5246947329
 40
0.5878787992
 40
0.6527957729
 40
0.7193940101
 40
0.7875802958
 40
0.8571944012
 40
0.9280569588
 40
1.0
 40
1.0
 40
1.0
 40
1.0
 10
7.6517015201
 20
9.1089550315
 30
0.0
 10
7.6428964781
 20
9.0920692723
 30
0.0
 10
7.6309369989
 20
9.0660634908
 30
0.0
 10
7.6185976132
 20
9.0300550151
 30
0.0
 10
7.6114180075
 20
9.0024035145
 30
0.0
 10
7.6066042949
 20
8.9740908949
 30
0.0
 10
7.6044431719
 20
8.9451673024
 30
0.0
 10
7.6051290583
 20
8.915728923
 30
0.0
 10
7.6088641383
 20
8.8859269766
 30
0.0
 10
7.6156099949
 20
8.8559236271
 30
0.0
 10
7.6253371583
 20
8.8259050354
 30
0.0
 10
7.637808522
 20
8.7960122385
 30
0.0
 10
7.6527866332
 20
8.7663662814
 30
0.0
 10
7.669981897
 20
8.7370479564
 30
0.0
 10
7.6890953267
 20
8.7080952433
 30
0.0
 10
7.7098615361
 20
8.6795334072
 30
0.0
 10
7.7245479736
 20
8.6608823128
 30
0.0
 10
7.7320941425
 20
8.6516078304
 30
0.0
  0
SPLINE
  5
37F
100
AcDbEntity
  8
0
100
AcDbSpline
 62
7
  6
CONTINUOUS
 70
0
 71
3
 72
9
 73
5
 74
0
 42
0.0000001
 43
0.0000001
 44
0.0000000001
 40
0.0
 40
0.0
 40
0.0
 40
0.0
 40
0.5135770252
 40
1.0
 40
1.0
 40
1.0
 40
1.0
 10
8.9408309875
 20
8.5370469431
 30
0.0
 10
8.9430577518
 20
8.5225501538
 30
0.0
 10
8.9477520393
 20
8.4943765559
 30
0.0
 10
8.9532566544
 20
8.4663486658
 30
0.0
 10
8.9561601986
 20
8.4527641588
 30
0.0
  0
SPLINE
  5
380
100
AcDbEntity
  8
0
100
AcDbSpline
 62
7
  6
CONTINUOUS
 70
0
 71
3
 72
9
 73
5
 74
0
 42
0.0000001
 43
0.0000001
 44
0.0000000001
 40
0.0
 40
0.0
 40
0.0
 40
0.0
 40
0.4956229181
 40
1.0
 40
1.0
 40
1.0
 40
1.0
 10
8.9561601986
 20
8.4527641588
 30
0.0
 10
8.9556508816
 20
8.4476744238
 30
0.0
 10
8.9551995436
 20
8.4373376436
 30
0.0
 10
8.9560080156
 20
8.4270180319
 30
0.0
 10
8.9567379626
 20
8.4218639614
 30
0.0
  0
SPLINE
  5
381
100
AcDbEntity
  8
0
100
AcDbSpline
 62
7
  6
CONTINUOUS
 70
0
 71
3
 72
9
 73
5
 74
0
 42
0.0000001
 43
0.0000001
 44
0.0000000001
 40
0.0
 40
0.0
 40
0.0
 40
0.0
 40
0.4893780915
 40
1.0
 40
1.0
 40
1.0
 40
1.0
 10
8.9578160296
 20
8.4154506653
 30
0.0
 10
8.9586564785
 20
8.4111345489
 30
0.0
 10
8.9608359844
 20
8.402399475
 30
0.0
 10
8.9638833321
 20
8.393929441
 30
0.0
 10
8.9656379727
 20
8.3896901529
 30
0.0
  0
SPLINE
  5
382
100
AcDbEntity
  8
0
100
AcDbSpline
 62
7
  6
CONTINUOUS
 70
0
 71
3
 72
31
 73
27
 74
0
 42
0.0000001
 43
0.0000001
 44
0.0000000001
 40
0.0
 40
0.0
 40
0.0
 40
0.0
 40
0.0816509295
 40
0.1647492935
 40
0.2482411283
 40
0.3312033267
 40
0.4127142021
 40
0.4918395975
 40
0.5676933861
 40
0.6394372501
 40
0.6735285226
 40
0.7063096411
 40
0.7376956295
 40
0.7676132781
 40
0.7959934901
 40
0.8227717304
 40
0.8478982001
 40
0.8713361274
 40
0.8930573636
 40
0.9130495813
 40
0.9313288349
 40
0.9479357265
 40
0.9629434451
 40
0.9764793203
 40
0.9887395577
 40
1.0
 40
1.0
 40
1.0
 40
1.0
 10
7.5239222904
 20
9.1464714687
 30
0.0
 10
7.5239222904
 20
9.1659463373
 30
0.0
 10
7.5245100783
 20
9.2052433387
 30
0.0
 10
7.527052523
 20
9.2644047954
 30
0.0
 10
7.5312473097
 20
9.3237861216
 30
0.0
 10
7.537037924
 20
9.3826526085
 30
0.0
 10
7.5443531083
 20
9.4402999085
 30
0.0
 10
7.5531058386
 20
9.4960317871
 30
0.0
 10
7.563185256
 20
9.5491702768
 30
0.0
 10
7.5727453942
 20
9.5914494172
 30
0.0
 10
7.5810075507
 20
9.6234644559
 30
0.0
 10
7.5873494999
 20
9.6460281017
 30
0.0
 10
7.5939243446
 20
9.66748612
 30
0.0
 10
7.6007101608
 20
9.687774756
 30
0.0
 10
7.6076857463
 20
9.706833086
 30
0.0
 10
7.6148318471
 20
9.7246026031
 30
0.0
 10
7.6221262394
 20
9.7410304834
 30
0.0
 10
7.6295452179
 20
9.7560693859
 30
0.0
 10
7.6370670254
 20
9.7696746658
 30
0.0
 10
7.6446722429
 20
9.781805305
 30
0.0
 10
7.6523371392
 20
9.7924290192
 30
0.0
 10
7.6600413766
 20
9.8015181793
 30
0.0
 10
7.6677701217
 20
9.8090456684
 30
0.0
 10
7.6755126511
 20
9.81498844
 30
0.0
 10
7.6832534689
 20
9.8193250356
 30
0.0
 10
7.6885897016
 20
9.8211834141
 30
0.0
 10
7.6912049022
 20
9.8217950411
 30
0.0
  0
SPLINE
  5
383
100
AcDbEntity
  8
0
100
AcDbSpline
 62
7
  6
CONTINUOUS
 70
0
 71
3
 72
9
 73
5
 74
0
 42
0.0000001
 43
0.0000001
 44
0.0000000001
 40
0.0
 40
0.0
 40
0.0
 40
0.0
 40
0.5053829229
 40
1.0
 40
1.0
 40
1.0
 40
1.0
 10
7.6912049022
 20
9.8217950411
 30
0.0
 10
7.6929372889
 20
9.822200201
 30
0.0
 10
7.6964267094
 20
9.8227631484
 30
0.0
 10
7.6999626863
 20
9.8227915292
 30
0.0
 10
7.7016997308
 20
9.8226708084
 30
0.0
  0
SPLINE
  5
384
100
AcDbEntity
  8
0
100
AcDbSpline
 62
7
  6
CONTINUOUS
 70
0
 71
3
 72
9
 73
5
 74
0
 42
0.0000001
 43
0.0000001
 44
0.0000000001
 40
0.0
 40
0.0
 40
0.0
 40
0.0
 40
0.491097014
 40
1.0
 40
1.0
 40
1.0
 40
1.0
 10
7.7115638934
 20
9.8109603444
 30
0.0
 10
7.7093520468
 20
9.8111140629
 30
0.0
 10
7.7048055075
 20
9.8109703115
 30
0.0
 10
7.7003787035
 20
9.8099474798
 30
0.0
 10
7.6981918929
 20
9.8092427152
 30
0.0
  0
SPLINE
  5
385
100
AcDbEntity
  8
0
100
AcDbSpline
 62
7
  6
CONTINUOUS
 70
0
 71
3
 72
31
 73
27
 74
0
 42
0.0000001
 43
0.0000001
 44
0.0000000001
 40
0.0
 40
0.0
 40
0.0
 40
0.0
 40
0.0115314466
 40
0.0241603661
 40
0.0381208382
 40
0.0535764884
 40
0.0706279956
 40
0.0893332022
 40
0.1097230399
 40
0.1318040361
 40
0.1555577116
 40
0.1809540671
 40
0.2079550401
 40
0.2365075604
 40
0.2665475938
 40
0.2980076236
 40
0.3308149275
 40
0.3648850236
 40
0.4364556105
 40
0.5119768346
 40
0.5906347324
 40
0.671569025
 40
0.753876299
 40
0.8366673308
 40
0.9190490078
 40
1.0
 40
1.0
 40
1.0
 40
1.0
 10
7.6981918929
 20
9.8092427152
 30
0.0
 10
7.6956389167
 20
9.8084199429
 30
0.0
 10
7.6904537277
 20
9.8061643077
 30
0.0
 10
7.682969102
 20
9.80135689
 30
0.0
 10
7.6754852645
 20
9.7950244464
 30
0.0
 10
7.6680189159
 20
9.7871861873
 30
0.0
 10
7.6605797677
 20
9.7778664264
 30
0.0
 10
7.6531845346
 20
9.7670905236
 30
0.0
 10
7.6458537925
 20
9.7548856352
 30
0.0
 10
7.6386090326
 20
9.7412848659
 30
0.0
 10
7.6314685558
 20
9.7263285891
 30
0.0
 10
7.6244535595
 20
9.7100595575
 30
0.0
 10
7.6175867569
 20
9.6925234825
 30
0.0
 10
7.610887585
 20
9.6737719897
 30
0.0
 10
7.6043747788
 20
9.6538610156
 30
0.0
 10
7.5980685152
 20
9.6328484656
 30
0.0
 10
7.591989058
 20
9.6107953984
 30
0.0
 10
7.5840771283
 20
9.5795766398
 30
0.0
 10
7.5749267647
 20
9.5384321466
 30
0.0
 10
7.5652812457
 20
9.4868059646
 30
0.0
 10
7.5569117528
 20
9.4327530108
 30
0.0
 10
7.5499201752
 20
9.3769142603
 30
0.0
 10
7.544388641
 20
9.3199464149
 30
0.0
 10
7.5403826775
 20
9.2625134524
 30
0.0
 10
7.5379554508
 20
9.205308353
 30
0.0
 10
7.5373944822
 20
9.1673142889
 30
0.0
 10
7.5373944822
 20
9.1484846075
 30
0.0
  0
SPLINE
  5
386
100
AcDbEntity
  8
0
100
AcDbSpline
 62
7
  6
CONTINUOUS
 70
0
 71
3
 72
30
 73
26
 74
0
 42
0.0000001
 43
0.0000001
 44
0.0000000001
 40
0.0
 40
0.0
 40
0.0
 40
0.0
 40
0.093945906
 40
0.18555767
 40
0.2742204134
 40
0.3594090231
 40
0.4406941823
 40
0.5176641396
 40
0.5899395028
 40
0.6571641128
 40
0.7190445162
 40
0.7479146749
 40
0.7753725673
 40
0.8014008299
 40
0.8259936079
 40
0.8491535765
 40
0.8708906861
 40
0.8912243533
 40
0.9101872045
 40
0.9278340076
 40
0.9442417796
 40
0.9595118399
 40
0.9737758093
 40
0.9872018431
 40
1.0
 40
1.0
 40
1.0
 40
1.0
 10
7.5373944822
 20
9.1484846075
 30
0.0
 10
7.5373944822
 20
9.1353330526
 30
0.0
 10
7.5376632869
 20
9.1093557889
 30
0.0
 10
7.538893096
 20
9.0709841333
 30
0.0
 10
7.5409406577
 20
9.0338746173
 30
0.0
 10
7.5437948344
 20
8.9982681321
 30
0.0
 10
7.5474334734
 20
8.9643784658
 30
0.0
 10
7.5518383169
 20
8.9324030058
 30
0.0
 10
7.556977026
 20
8.9025314336
 30
0.0
 10
7.56282026
 20
8.8749445932
 30
0.0
 10
7.568368297
 20
8.8535264062
 30
0.0
 10
7.5731703492
 20
8.837688302
 30
0.0
 10
7.5768413275
 20
8.8267572319
 30
0.0
 10
7.5806606784
 20
8.8165135879
 30
0.0
 10
7.5846222507
 20
8.8069720793
 30
0.0
 10
7.5887196033
 20
8.7981457392
 30
0.0
 10
7.5929467914
 20
8.7900471786
 30
0.0
 10
7.597297952
 20
8.7826886602
 30
0.0
 10
7.6017686145
 20
8.7760819498
 30
0.0
 10
7.6063526424
 20
8.7702359788
 30
0.0
 10
7.6110443393
 20
8.7651578936
 30
0.0
 10
7.6158390396
 20
8.7608553449
 30
0.0
 10
7.6207331993
 20
8.7573367947
 30
0.0
 10
7.6257217367
 20
8.7546139793
 30
0.0
 10
7.6291702712
 20
8.7533114993
 30
0.0
 10
7.6308895523
 20
8.7528075289
 30
0.0
  0
SPLINE
  5
387
100
AcDbEntity
  8
0
100
AcDbSpline
 62
7
  6
CONTINUOUS
 70
0
 71
3
 72
9
 73
5
 74
0
 42
0.0000001
 43
0.0000001
 44
0.0000000001
 40
0.0
 40
0.0
 40
0.0
 40
0.0
 40
0.5027717417
 40
1.0
 40
1.0
 40
1.0
 40
1.0
 10
7.6308895523
 20
8.7528075289
 30
0.0
 10
7.6320680726
 20
8.7524620709
 30
0.0
 10
7.6344497341
 20
8.7518965296
 30
0.0
 10
7.6368790248
 20
8.751592874
 30
0.0
 10
7.6380906701
 20
8.7515086673
 30
0.0
  0
SPLINE
  5
388
100
AcDbEntity
  8
0
100
AcDbSpline
 62
7
  6
CONTINUOUS
 70
0
 71
3
 72
31
 73
27
 74
0
 42
0.0000001
 43
0.0000001
 44
0.0000000001
 40
0.0
 40
0.0
 40
0.0
 40
0.0
 40
0.0963522049
 40
0.1901746184
 40
0.2807829339
 40
0.3676067156
 40
0.4501695022
 40
0.5280172423
 40
0.600732651
 40
0.6679298627
 40
0.6993665071
 40
0.7293205784
 40
0.7577663438
 40
0.7846830083
 40
0.8100620107
 40
0.8339056114
 40
0.8562244661
 40
0.8770402007
 40
0.896390122
 40
0.9143375137
 40
0.9309715634
 40
0.9464108077
 40
0.960810516
 40
0.9743704866
 40
0.9873386635
 40
1.0
 40
1.0
 40
1.0
 40
1.0
 10
7.5123311798
 20
9.1472753149
 30
0.0
 10
7.5123311798
 20
9.1332674492
 30
0.0
 10
7.5126296744
 20
9.1056184423
 30
0.0
 10
7.5139962316
 20
9.0648170047
 30
0.0
 10
7.516271828
 20
9.0254430072
 30
0.0
 10
7.5194410592
 20
8.9877728481
 30
0.0
 10
7.5234790802
 20
8.9520515441
 30
0.0
 10
7.5283622371
 20
8.9185062087
 30
0.0
 10
7.5340514748
 20
8.8873556433
 30
0.0
 10
7.5395517629
 20
8.8630492824
 30
0.0
 10
7.5443692144
 20
8.8449843012
 30
0.0
 10
7.5480791271
 20
8.8324597894
 30
0.0
 10
7.5519601998
 20
8.8206769509
 30
0.0
 10
7.5560073239
 20
8.8096557068
 30
0.0
 10
7.5602135537
 20
8.7994135628
 30
0.0
 10
7.5645713096
 20
8.7899657683
 30
0.0
 10
7.5690737046
 20
8.7813269316
 30
0.0
 10
7.5737140059
 20
8.773511194
 30
0.0
 10
7.5784871309
 20
8.7665320554
 30
0.0
 10
7.5833859683
 20
8.7603995748
 30
0.0
 10
7.5884042375
 20
8.7551220596
 30
0.0
 10
7.5935371064
 20
8.7507085239
 30
0.0
 10
7.5987803384
 20
8.7471696629
 30
0.0
 10
7.6041301534
 20
8.7445193155
 30
0.0
 10
7.6095744749
 20
8.7427679676
 30
0.0
 10
7.6132770529
 20
8.7422033865
 30
0.0
 10
7.6151133527
 20
8.7420757676
 30
0.0
  0
SPLINE
  5
389
100
AcDbEntity
  8
0
100
AcDbSpline
 62
7
  6
CONTINUOUS
 70
0
 71
3
 72
30
 73
26
 74
0
 42
0.0000001
 43
0.0000001
 44
0.0000000001
 40
0.0
 40
0.0
 40
0.0
 40
0.0
 40
0.0759955844
 40
0.1532706016
 40
0.2310483637
 40
0.3086474946
 40
0.3853835268
 40
0.4605576379
 40
0.5334977728
 40
0.6035580661
 40
0.6701312077
 40
0.7019304677
 40
0.7326502479
 40
0.7622286115
 40
0.7906055945
 40
0.817728751
 40
0.8435514178
 40
0.8680297281
 40
0.8911265504
 40
0.9128182389
 40
0.933088532
 40
0.9519291604
 40
0.9693447504
 40
0.9853554297
 40
1.0
 40
1.0
 40
1.0
 40
1.0
 10
8.1373532895
 20
9.0490003485
 30
0.0
 10
8.1373532895
 20
9.0728691885
 30
0.0
 10
8.1379935617
 20
9.1210107336
 30
0.0
 10
8.1407768165
 20
9.1935324729
 30
0.0
 10
8.1453768393
 20
9.2664667539
 30
0.0
 10
8.1517446713
 20
9.33909791
 30
0.0
 10
8.1598183077
 20
9.4107367304
 30
0.0
 10
8.1695220475
 20
9.4806963831
 30
0.0
 10
8.1807585556
 20
9.5483025962
 30
0.0
 10
8.1934226366
 20
9.6129057544
 30
0.0
 10
8.2052303651
 20
9.6644841505
 30
0.0
 10
8.2153423486
 20
9.7037505657
 30
0.0
 10
8.2230863269
 20
9.7316228035
 30
0.0
 10
8.2310870732
 20
9.7583023034
 30
0.0
 10
8.239327126
 20
9.7837242028
 30
0.0
 10
8.2477857834
 20
9.8078277989
 30
0.0
 10
8.2564410708
 20
9.8305561666
 30
0.0
 10
8.2652723031
 20
9.85185441
 30
0.0
 10
8.2742600362
 20
9.8716713191
 30
0.0
 10
8.2833817705
 20
9.8899619338
 30
0.0
 10
8.2926163196
 20
9.9066851095
 30
0.0
 10
8.3019444661
 20
9.9218003004
 30
0.0
 10
8.3113434737
 20
9.935272063
 30
0.0
 10
8.3207859947
 20
9.9470680393
 30
0.0
 10
8.327382677
 20
9.9541012875
 30
0.0
 10
8.3306909567
 20
9.9572968405
 30
0.0
  0
SPLINE
  5
38A
100
AcDbEntity
  8
0
100
AcDbSpline
 62
7
  6
CONTINUOUS
 70
0
 71
3
 72
32
 73
28
 74
0
 42
0.0000001
 43
0.0000001
 44
0.0000000001
 40
0.0
 40
0.0
 40
0.0
 40
0.0
 40
0.0839848005
 40
0.1695081589
 40
0.2553630088
 40
0.3405020073
 40
0.4239083274
 40
0.5045527612
 40
0.5814402665
 40
0.6536625068
 40
0.6877590208
 40
0.7203862634
 40
0.7514560221
 40
0.780883967
 40
0.8086010805
 40
0.8345536883
 40
0.8586956106
 40
0.8809917618
 40
0.9014342109
 40
0.9200429831
 40
0.9368651422
 40
0.9519890894
 40
0.9655729571
 40
0.9778572253
 40
0.989179331
 40
0.9946229282
 40
1.0
 40
1.0
 40
1.0
 40
1.0
 10
6.906331611
 20
9.235924646
 30
0.0
 10
6.906331611
 20
9.2497254849
 30
0.0
 10
6.9067673062
 20
9.2775815211
 30
0.0
 10
6.908643983
 20
9.3195076683
 30
0.0
 10
6.9117405564
 20
9.3615519699
 30
0.0
 10
6.916007871
 20
9.4031439386
 30
0.0
 10
6.9213939732
 20
9.4437426521
 30
0.0
 10
6.9278204027
 20
9.4828170424
 30
0.0
 10
6.9352090017
 20
9.5198491201
 30
0.0
 10
6.9422053584
 20
9.5491398589
 30
0.0
 10
6.9482472634
 20
9.5711601584
 30
0.0
 10
6.9528660169
 20
9.5865538105
 30
0.0
 10
6.9576434093
 20
9.60109376
 30
0.0
 10
6.9625652209
 20
9.6147309655
 30
0.0
 10
6.9676151205
 20
9.6274208122
 30
0.0
 10
6.9727748086
 20
9.6391235019
 30
0.0
 10
6.978027
 20
9.6498013436
 30
0.0
 10
6.9833566894
 20
9.6594185614
 30
0.0
 10
6.9887466339
 20
9.6679453769
 30
0.0
 10
6.9941790656
 20
9.6753579157
 30
0.0
 10
6.9996391328
 20
9.6816346859
 30
0.0
 10
7.0051173587
 20
9.6867541387
 30
0.0
 10
7.0106052181
 20
9.6906996389
 30
0.0
 10
7.016094063
 20
9.6934539226
 30
0.0
 10
7.0207295343
 20
9.6947461617
 30
0.0
 10
7.0243553481
 20
9.6951221579
 30
0.0
 10
7.0261381033
 20
9.6951025476
 30
0.0
 10
7.0270195992
 20
9.6950417553
 30
0.0
  0
SPLINE
  5
38B
100
AcDbEntity
  8
0
100
AcDbSpline
 62
7
  6
CONTINUOUS
 70
0
 71
3
 72
19
 73
15
 74
0
 42
0.0000001
 43
0.0000001
 44
0.0000000001
 40
0.0
 40
0.0
 40
0.0
 40
0.0
 40
0.1804824101
 40
0.2642226423
 40
0.3435965271
 40
0.4892474641
 40
0.6179142382
 40
0.6762215978
 40
0.7307498248
 40
0.829513219
 40
0.8746793117
 40
0.9177048829
 40
0.9592370875
 40
1.0
 40
1.0
 40
1.0
 40
1.0
 10
6.9431900343
 20
9.0775888259
 30
0.0
 10
6.9443743106
 20
9.073767593
 30
0.0
 10
6.9462483376
 20
9.0682141301
 30
0.0
 10
6.9490332312
 20
9.0611240418
 30
0.0
 10
6.9517607014
 20
9.0548456933
 30
0.0
 10
6.9552965255
 20
9.0478375895
 30
0.0
 10
6.9592615107
 20
9.0416006539
 30
0.0
 10
6.9625713464
 20
9.0373871308
 30
0.0
 10
6.9657354046
 20
9.0339223515
 30
0.0
 10
6.9691034031
 20
9.0310404577
 30
0.0
 10
6.9726683318
 20
9.0289108246
 30
0.0
 10
6.9753059451
 20
9.0277455513
 30
0.0
 10
6.9779816287
 20
9.0269687408
 30
0.0
 10
6.979794938
 20
9.0267111727
 30
0.0
 10
6.9806963371
 20
9.026648958
 30
0.0
  0
SPLINE
  5
38C
100
AcDbEntity
  8
0
100
AcDbSpline
 62
7
  6
CONTINUOUS
 70
0
 71
3
 72
21
 73
17
 74
0
 42
0.0000001
 43
0.0000001
 44
0.0000000001
 40
0.0
 40
0.0
 40
0.0
 40
0.0
 40
0.1684960209
 40
0.3288001367
 40
0.404990885
 40
0.4781717995
 40
0.5480891549
 40
0.6145018532
 40
0.6771956616
 40
0.7359703155
 40
0.7906432728
 40
0.8410894509
 40
0.8872366971
 40
0.9290532047
 40
0.9665840235
 40
1.0
 40
1.0
 40
1.0
 40
1.0
 10
6.5218931093
 20
9.2625855467
 30
0.0
 10
6.5218931093
 20
9.2475036351
 30
0.0
 10
6.5223954669
 20
9.2180703489
 30
0.0
 10
6.5243647563
 20
9.1818631226
 30
0.0
 10
6.5267678693
 20
9.1542466399
 30
0.0
 10
6.5289175408
 20
9.1347344617
 30
0.0
 10
6.5314360237
 20
9.1161490687
 30
0.0
 10
6.5343145597
 20
9.0985662113
 30
0.0
 10
6.5375384233
 20
9.0820580771
 30
0.0
 10
6.5410929305
 20
9.0666940707
 30
0.0
 10
6.5449657417
 20
9.0525399309
 30
0.0
 10
6.5491398876
 20
9.0396537733
 30
0.0
 10
6.5535952333
 20
9.0280860805
 30
0.0
 10
6.5583154918
 20
9.0178817366
 30
0.0
 10
6.5632850595
 20
9.0090829106
 30
0.0
 10
6.5669579819
 20
9.0038817957
 30
0.0
 10
6.5688449459
 20
9.0015610991
 30
0.0
  0
SPLINE
  5
38D
100
AcDbEntity
  8
0
100
AcDbSpline
 62
7
  6
CONTINUOUS
 70
0
 71
3
 72
21
 73
17
 74
0
 42
0.0000001
 43
0.0000001
 44
0.0000000001
 40
0.0
 40
0.0
 40
0.0
 40
0.0
 40
0.0334133877
 40
0.0709531331
 40
0.1127671665
 40
0.158908379
 40
0.209360475
 40
0.2640318039
 40
0.3227956673
 40
0.3854945403
 40
0.4519191336
 40
0.5218415071
 40
0.5950221327
 40
0.6712023503
 40
0.8314640253
 40
1.0
 40
1.0
 40
1.0
 40
1.0
 10
7.6360523074
 20
8.7696980009
 30
0.0
 10
7.63332897
 20
8.7730457413
 30
0.0
 10
7.6280280809
 20
8.7805511106
 30
0.0
 10
7.6208613742
 20
8.7932501359
 30
0.0
 10
7.614048167
 20
8.8079732733
 30
0.0
 10
7.6076175034
 20
8.8246638193
 30
0.0
 10
7.6015974743
 20
8.8432585366
 30
0.0
 10
7.596009064
 20
8.8636811185
 30
0.0
 10
7.5908773153
 20
8.8858488703
 30
0.0
 10
7.5862272077
 20
8.9096703223
 30
0.0
 10
7.582074925
 20
8.9350443906
 30
0.0
 10
7.5784391237
 20
8.961863928
 30
0.0
 10
7.5753378086
 20
8.9900181638
 30
0.0
 10
7.5718714223
 20
9.0298602821
 30
0.0
 10
7.5690271078
 20
9.0821033319
 30
0.0
 10
7.5683041105
 20
9.1245735553
 30
0.0
 10
7.5683041105
 20
9.1463410175
 30
0.0
  0
SPLINE
  5
38E
100
AcDbEntity
  8
0
100
AcDbSpline
 62
7
  6
CONTINUOUS
 70
0
 71
3
 72
21
 73
17
 74
0
 42
0.0000001
 43
0.0000001
 44
0.0000000001
 40
0.0
 40
0.0
 40
0.0
 40
0.0
 40
0.0763329242
 40
0.1476304957
 40
0.2143697438
 40
0.2772471824
 40
0.3370832162
 40
0.3947326737
 40
0.4510562872
 40
0.5069018237
 40
0.5630334267
 40
0.6200750546
 40
0.6785025061
 40
0.7386587115
 40
0.8649757908
 40
1.0
 40
1.0
 40
1.0
 40
1.0
 10
7.7370843639
 20
9.8211881455
 30
0.0
 10
7.7352271039
 20
9.8194590711
 30
0.0
 10
7.731751349
 20
9.8159860963
 30
0.0
 10
7.7271436987
 20
9.8105375152
 30
0.0
 10
7.7233369629
 20
9.8050352399
 30
0.0
 10
7.7203235077
 20
9.7994900752
 30
0.0
 10
7.718082624
 20
9.7939134811
 30
0.0
 10
7.71659322
 20
9.7883153889
 30
0.0
 10
7.7158344752
 20
9.7827063601
 30
0.0
 10
7.7157750351
 20
9.7770982161
 30
0.0
 10
7.7163729828
 20
9.7714994962
 30
0.0
 10
7.7175873615
 20
9.7659155432
 30
0.0
 10
7.7193772057
 20
9.7603497277
 30
0.0
 10
7.7225301643
 20
9.7528346758
 30
0.0
 10
7.7277884467
 20
9.7434895621
 30
0.0
 10
7.7328967882
 20
9.736444053
 30
0.0
 10
7.7356806867
 20
9.7329230287
 30
0.0
  0
SPLINE
  5
38F
100
AcDbEntity
  8
0
100
AcDbSpline
 62
7
  6
CONTINUOUS
 70
0
 71
3
 72
46
 73
42
 74
0
 42
0.0000001
 43
0.0000001
 44
0.0000000001
 40
0.0
 40
0.0
 40
0.0
 40
0.0
 40
0.0444326371
 40
0.0894659637
 40
0.180528787
 40
0.2717314155
 40
0.3169704314
 40
0.3617393938
 40
0.449180024
 40
0.4915284375
 40
0.53275065
 40
0.5726958594
 40
0.6112216732
 40
0.6481885271
 40
0.6834687894
 40
0.7169476197
 40
0.7485156454
 40
0.7780813006
 40
0.8055704476
 40
0.8309210493
 40
0.8541005021
 40
0.8648759492
 40
0.8751101356
 40
0.8848078613
 40
0.8939783274
 40
0.9026356025
 40
0.9107979374
 40
0.9184886763
 40
0.9257374138
 40
0.9325814332
 40
0.9390679941
 40
0.9452542022
 40
0.9512064799
 40
0.9569999931
 40
0.9627168938
 40
0.9684433301
 40
0.9742650146
 40
0.9802628126
 40
0.9865099942
 40
0.9930707736
 40
1.0
 40
1.0
 40
1.0
 40
1.0
 10
8.1496007367
 20
9.0508304747
 30
0.0
 10
8.1496007367
 20
9.0660307481
 30
0.0
 10
8.1498644128
 20
9.0966374246
 30
0.0
 10
8.1514144144
 20
9.1583785152
 30
0.0
 10
8.1552551264
 20
9.236056077
 30
0.0
 10
8.1615552361
 20
9.3136431638
 30
0.0
 10
8.1680615846
 20
9.375294935
 30
0.0
 10
8.1754170801
 20
9.435554251
 30
0.0
 10
8.1841256949
 20
9.4946461521
 30
0.0
 10
8.1942276284
 20
9.5522725477
 30
0.0
 10
8.2023117279
 20
9.59374927
 30
0.0
 10
8.2109519836
 20
9.6337769534
 30
0.0
 10
8.2201100927
 20
9.6721946878
 30
0.0
 10
8.2297513277
 20
9.7088466357
 30
0.0
 10
8.2398368268
 20
9.7435849644
 30
0.0
 10
8.2503219843
 20
9.7762709391
 30
0.0
 10
8.2611674005
 20
9.8067727756
 30
0.0
 10
8.2723286921
 20
9.8349687077
 30
0.0
 10
8.2837569759
 20
9.8607489147
 30
0.0
 10
8.2954106319
 20
9.8840094036
 30
0.0
 10
8.3055020034
 20
9.901626607
 30
0.0
 10
8.3136854948
 20
9.9143404436
 30
0.0
 10
8.319699937
 20
9.9229565677
 30
0.0
 10
8.3257358547
 20
9.9308780667
 30
0.0
 10
8.3317877698
 20
9.9380970662
 30
0.0
 10
8.3378494874
 20
9.9446076323
 30
0.0
 10
8.3439156366
 20
9.9504040496
 30
0.0
 10
8.3499810708
 20
9.9554804796
 30
0.0
 10
8.3560409006
 20
9.9598309566
 30
0.0
 10
8.3620911
 20
9.9634487007
 30
0.0
 10
8.3681265192
 20
9.9663289032
 30
0.0
 10
8.3741416377
 20
9.968467698
 30
0.0
 10
8.3801303855
 20
9.9698604198
 30
0.0
 10
8.3860851705
 20
9.9705022813
 30
0.0
 10
8.3919968603
 20
9.9703893124
 30
0.0
 10
8.397854902
 20
9.9695190469
 30
0.0
 10
8.4036493085
 20
9.967895607
 30
0.0
 10
8.4093719619
 20
9.9655249028
 30
0.0
 10
8.4150165224
 20
9.9624129103
 30
0.0
 10
8.4205774526
 20
9.9585655884
 30
0.0
 10
8.4241223344
 20
9.9556003034
 30
0.0
 10
8.4258788303
 20
9.9540084995
 30
0.0
  0
SPLINE
  5
390
100
AcDbEntity
  8
0
100
AcDbSpline
 62
7
  6
CONTINUOUS
 70
0
 71
3
 72
22
 73
18
 74
0
 42
0.0000001
 43
0.0000001
 44
0.0000000001
 40
0.0
 40
0.0
 40
0.0
 40
0.0
 40
0.032038638
 40
0.065476209
 40
0.101538422
 40
0.141192608
 40
0.1851194153
 40
0.2337684154
 40
0.287431579
 40
0.3462876107
 40
0.4103999065
 40
0.4797537947
 40
0.5542938207
 40
0.6339325087
 40
0.7185213207
 40
0.807869185
 40
1.0
 40
1.0
 40
1.0
 40
1.0
 10
6.9761342827
 20
8.9608073958
 30
0.0
 10
6.9744409502
 20
8.9609241764
 30
0.0
 10
6.9709963805
 20
8.9615541881
 30
0.0
 10
6.9659985116
 20
8.9636351665
 30
0.0
 10
6.9611429719
 20
8.9668289056
 30
0.0
 10
6.9564417427
 20
8.971111462
 30
0.0
 10
6.9518942529
 20
8.9764600935
 30
0.0
 10
6.9475045294
 20
8.9828574599
 30
0.0
 10
6.9432809156
 20
8.9902876975
 30
0.0
 10
6.9392357966
 20
8.998732913
 30
0.0
 10
6.935378387
 20
9.0081686961
 30
0.0
 10
6.9317187328
 20
9.0185671939
 30
0.0
 10
6.9282680658
 20
9.0298989988
 30
0.0
 10
6.9250388761
 20
9.0421320548
 30
0.0
 10
6.9220397593
 20
9.0552293057
 30
0.0
 10
6.9182670797
 20
9.0742545256
 30
0.0
 10
6.915958589
 20
9.0889950595
 30
0.0
 10
6.9145953717
 20
9.0990821362
 30
0.0
  0
SPLINE
  5
391
100
AcDbEntity
  8
0
100
AcDbSpline
 62
7
  6
CONTINUOUS
 70
0
 71
3
 72
11
 73
7
 74
0
 42
0.0000001
 43
0.0000001
 44
0.0000000001
 40
0.0
 40
0.0
 40
0.0
 40
0.0
 40
0.2298050498
 40
0.4747835878
 40
0.7325416566
 40
1.0
 40
1.0
 40
1.0
 40
1.0
 10
6.9145953717
 20
9.0990821362
 30
0.0
 10
6.9131879782
 20
9.1094960923
 30
0.0
 10
6.9107480646
 20
9.1310763846
 30
0.0
 10
6.9081979686
 20
9.1644833033
 30
0.0
 10
6.9066651606
 20
9.1996753243
 30
0.0
 10
6.906331611
 20
9.2236941927
 30
0.0
 10
6.906331611
 20
9.235924646
 30
0.0
  0
SPLINE
  5
392
100
AcDbEntity
  8
0
100
AcDbSpline
 62
7
  6
CONTINUOUS
 70
0
 71
3
 72
34
 73
30
 74
0
 42
0.0000001
 43
0.0000001
 44
0.0000000001
 40
0.0
 40
0.0
 40
0.0
 40
0.0
 40
0.0162437728
 40
0.0312975179
 40
0.0454796228
 40
0.0591746966
 40
0.0728139668
 40
0.0868352477
 40
0.1016374553
 40
0.1175556539
 40
0.1348545182
 40
0.1537268876
 40
0.1743077143
 40
0.1966908993
 40
0.2209387259
 40
0.2470803502
 40
0.2751230213
 40
0.3050611205
 40
0.336877914
 40
0.3705393296
 40
0.4060015864
 40
0.4432163308
 40
0.4821295149
 40
0.522673188
 40
0.6083508294
 40
0.6996355994
 40
0.7958611261
 40
0.896293583
 40
1.0
 40
1.0
 40
1.0
 40
1.0
 10
8.3254574287
 20
8.5109819445
 30
0.0
 10
8.3226217506
 20
8.5090713343
 30
0.0
 10
8.3169365288
 20
8.505699604
 30
0.0
 10
8.3080614441
 20
8.502015601
 30
0.0
 10
8.2992188586
 20
8.4999437736
 30
0.0
 10
8.2904396663
 20
8.4995113141
 30
0.0
 10
8.2817687886
 20
8.5007356662
 30
0.0
 10
8.2732529244
 20
8.5036012835
 30
0.0
 10
8.2649216181
 20
8.5080763227
 30
0.0
 10
8.2567898639
 20
8.5141323781
 30
0.0
 10
8.2488682254
 20
8.5217482227
 30
0.0
 10
8.241162032
 20
8.530900479
 30
0.0
 10
8.2336792194
 20
8.5415682799
 30
0.0
 10
8.2264316552
 20
8.5537317196
 30
0.0
 10
8.2194346974
 20
8.5673686229
 30
0.0
 10
8.2126998596
 20
8.5824498481
 30
0.0
 10
8.2062401605
 20
8.5989431666
 30
0.0
 10
8.2000697933
 20
8.6168148018
 30
0.0
 10
8.1942040848
 20
8.6360281865
 30
0.0
 10
8.1886540141
 20
8.6565416645
 30
0.0
 10
8.1834310867
 20
8.6783106988
 30
0.0
 10
8.178547316
 20
8.7012893815
 30
0.0
 10
8.1740150381
 20
8.7254289189
 30
0.0
 10
8.1683476119
 20
8.7597266043
 30
0.0
 10
8.1622684191
 20
8.8051180333
 30
0.0
 10
8.1566310562
 20
8.8623564486
 30
0.0
 10
8.1525704291
 20
8.9228408411
 30
0.0
 10
8.1501314587
 20
8.9860273934
 30
0.0
 10
8.1496007367
 20
9.0290004675
 30
0.0
 10
8.1496007367
 20
9.0508304747
 30
0.0
  0
SPLINE
  5
393
100
AcDbEntity
  8
0
100
AcDbSpline
 62
7
  6
CONTINUOUS
 70
0
 71
3
 72
35
 73
31
 74
0
 42
0.0000001
 43
0.0000001
 44
0.0000000001
 40
0.0
 40
0.0
 40
0.0
 40
0.0
 40
0.101336545
 40
0.1996671932
 40
0.2941533318
 40
0.3841305839
 40
0.4690016479
 40
0.5093485717
 40
0.548212759
 40
0.5855298764
 40
0.6212452483
 40
0.6553134985
 40
0.6876927283
 40
0.7183453885
 40
0.7472449805
 40
0.7743788056
 40
0.7997430388
 40
0.823345147
 40
0.8452121771
 40
0.8653993967
 40
0.8839883597
 40
0.9010945297
 40
0.9091436082
 40
0.9168880342
 40
0.9315759399
 40
0.9454486231
 40
0.958845418
 40
0.9721473628
 40
0.9857448136
 40
1.0
 40
1.0
 40
1.0
 40
1.0
 10
8.1550359322
 20
9.0560804707
 30
0.0
 10
8.1550359322
 20
9.0358506593
 30
0.0
 10
8.1555057118
 20
8.9959892447
 30
0.0
 10
8.1576618915
 20
8.937300784
 30
0.0
 10
8.1612529843
 20
8.8809533676
 30
0.0
 10
8.1662429202
 20
8.8274100879
 30
0.0
 10
8.1716222514
 20
8.7847789987
 30
0.0
 10
8.1766381065
 20
8.7524077739
 30
0.0
 10
8.1806581957
 20
8.7294935112
 30
0.0
 10
8.1849931678
 20
8.7075783321
 30
0.0
 10
8.1896345092
 20
8.6867054725
 30
0.0
 10
8.1945716279
 20
8.6669147786
 30
0.0
 10
8.1997945637
 20
8.6482446065
 30
0.0
 10
8.2052941361
 20
8.6307321717
 30
0.0
 10
8.2110600921
 20
8.6144116022
 30
0.0
 10
8.217079514
 20
8.5993130193
 30
0.0
 10
8.2233405807
 20
8.5854648493
 30
0.0
 10
8.2298325074
 20
8.5728943576
 30
0.0
 10
8.236545196
 20
8.5616260945
 30
0.0
 10
8.2434657206
 20
8.5516784361
 30
0.0
 10
8.2505828266
 20
8.5430693432
 30
0.0
 10
8.2567933352
 20
8.5369035857
 30
0.0
 10
8.2618505701
 20
8.5327068111
 30
0.0
 10
8.2667712624
 20
8.5291218275
 30
0.0
 10
8.2730494389
 20
8.5254468278
 30
0.0
 10
8.2808803248
 20
8.5223717071
 30
0.0
 10
8.288855488
 20
8.5207334468
 30
0.0
 10
8.2969415628
 20
8.5205528895
 30
0.0
 10
8.305097691
 20
8.5218230459
 30
0.0
 10
8.3104030021
 20
8.5235717587
 30
0.0
 10
8.3130364107
 20
8.5246504259
 30
0.0
  0
SPLINE
  5
394
100
AcDbEntity
  8
0
100
AcDbSpline
 62
7
  6
CONTINUOUS
 70
0
 71
3
 72
41
 73
37
 74
0
 42
0.0000001
 43
0.0000001
 44
0.0000000001
 40
0.0
 40
0.0
 40
0.0
 40
0.0
 40
0.0059059002
 40
0.0116266347
 40
0.0172324923
 40
0.0227988379
 40
0.0284030162
 40
0.0341203759
 40
0.040021338
 40
0.0461694631
 40
0.0526204949
 40
0.0594221762
 40
0.0666135177
 40
0.0742255482
 40
0.0822831335
 40
0.0908060424
 40
0.109302182
 40
0.1297992725
 40
0.1523239765
 40
0.1768748232
 40
0.2034252949
 40
0.2319218829
 40
0.2622999146
 40
0.2944819806
 40
0.3283726921
 40
0.3638709903
 40
0.4008680698
 40
0.4392415721
 40
0.4788656271
 40
0.5196100311
 40
0.5613359526
 40
0.6471622005
 40
0.7351629863
 40
0.8241187737
 40
0.9128373742
 40
1.0
 40
1.0
 40
1.0
 40
1.0
 10
8.4086527493
 20
9.9439644576
 30
0.0
 10
8.4069386472
 20
9.9448450818
 30
0.0
 10
8.4034723643
 20
9.9464081539
 30
0.0
 10
8.3981083945
 20
9.9481346094
 30
0.0
 10
8.392685152
 20
9.9491935986
 30
0.0
 10
8.3872109711
 20
9.9495802423
 30
0.0
 10
8.3816944678
 20
9.9492947248
 30
0.0
 10
8.376143765
 20
9.9483400364
 30
0.0
 10
8.3705658064
 20
9.9467197938
 30
0.0
 10
8.3649663686
 20
9.9444378812
 30
0.0
 10
8.3593502426
 20
9.9414978929
 30
0.0
 10
8.3537222683
 20
9.9379027897
 30
0.0
 10
8.3480864302
 20
9.9336574427
 30
0.0
 10
8.3424465112
 20
9.928767385
 30
0.0
 10
8.3368066583
 20
9.9232377276
 30
0.0
 10
8.3290815629
 20
9.9147861172
 30
0.0
 10
8.319495028
 20
9.9025716489
 30
0.0
 10
8.3083705138
 20
9.8858444914
 30
0.0
 10
8.2973606447
 20
9.86672632
 30
0.0
 10
8.2865071962
 20
9.8452828442
 30
0.0
 10
8.2758509167
 20
9.8215884105
 30
0.0
 10
8.2654270095
 20
9.7957300997
 30
0.0
 10
8.2552762243
 20
9.7678006916
 30
0.0
 10
8.2454382502
 20
9.7379015613
 30
0.0
 10
8.2359462647
 20
9.7061435572
 30
0.0
 10
8.2268372947
 20
9.6726430205
 30
0.0
 10
8.2181472818
 20
9.6375229903
 30
0.0
 10
8.2099054483
 20
9.6009141819
 30
0.0
 10
8.2021437185
 20
9.5629519387
 30
0.0
 10
8.1948929078
 20
9.5237759084
 30
0.0
 10
8.1858539638
 20
9.4696077348
 30
0.0
 10
8.1760553732
 20
9.3999451647
 30
0.0
 10
8.1667962627
 20
9.3146878959
 30
0.0
 10
8.1600708645
 20
9.2282462441
 30
0.0
 10
8.1559827059
 20
9.1419146959
 30
0.0
 10
8.1550359322
 20
9.0845214407
 30
0.0
 10
8.1550359322
 20
9.0560804707
 30
0.0
  0
SPLINE
  5
395
100
AcDbEntity
  8
0
100
AcDbSpline
 62
7
  6
CONTINUOUS
 70
0
 71
3
 72
9
 73
5
 74
0
 42
0.0000001
 43
0.0000001
 44
0.0000000001
 40
0.0
 40
0.0
 40
0.0
 40
0.0
 40
0.2608084698
 40
1.0
 40
1.0
 40
1.0
 40
1.0
 10
9.886797555
 20
10.0725093604
 30
0.0
 10
9.8880578032
 20
10.0737266668
 30
0.0
 10
9.8929566198
 20
10.0783238107
 30
0.0
 10
9.8981339095
 20
10.0826296446
 30
0.0
 10
9.9021267662
 20
10.0855823522
 30
0.0
  0
SPLINE
  5
396
100
AcDbEntity
  8
0
100
AcDbSpline
 62
7
  6
CONTINUOUS
 70
0
 71
3
 72
31
 73
27
 74
0
 42
0.0000001
 43
0.0000001
 44
0.0000000001
 40
0.0
 40
0.0
 40
0.0
 40
0.0
 40
0.0959291481
 40
0.1893514236
 40
0.2795998107
 40
0.3661290753
 40
0.4484684272
 40
0.5261701581
 40
0.5988151548
 40
0.6660270714
 40
0.6975059289
 40
0.7275227513
 40
0.7560501102
 40
0.7830708327
 40
0.8085765473
 40
0.8325650812
 40
0.8550422743
 40
0.8760268321
 40
0.8955579353
 40
0.9136927243
 40
0.9305099892
 40
0.9461168271
 40
0.9606593264
 40
0.9743267615
 40
0.9873502714
 40
1.0
 40
1.0
 40
1.0
 40
1.0
 10
8.1746318476
 20
9.0590086727
 30
0.0
 10
8.1746318476
 20
9.0410526036
 30
0.0
 10
8.1750113702
 20
9.0056083654
 30
0.0
 10
8.1767494586
 20
8.9532970885
 30
0.0
 10
8.1796448557
 20
8.9027985694
 30
0.0
 10
8.1836757972
 20
8.85445878
 30
0.0
 10
8.1888145379
 20
8.8085857346
 30
0.0
 10
8.195027584
 20
8.765468516
 30
0.0
 10
8.2022695177
 20
8.7253854198
 30
0.0
 10
8.2092710054
 20
8.69407578
 30
0.0
 10
8.215401924
 20
8.6707749192
 30
0.0
 10
8.2201260991
 20
8.6545977731
 30
0.0
 10
8.2250703615
 20
8.639361236
 30
0.0
 10
8.2302265126
 20
8.6250893523
 30
0.0
 10
8.2355852838
 20
8.6118036614
 30
0.0
 10
8.2411381042
 20
8.5995248952
 30
0.0
 10
8.2468767505
 20
8.5882731543
 30
0.0
 10
8.2527941267
 20
8.5780669707
 30
0.0
 10
8.2588802873
 20
8.5689206183
 30
0.0
 10
8.265126915
 20
8.5608468051
 30
0.0
 10
8.2715266285
 20
8.553858062
 30
0.0
 10
8.2780745676
 20
8.5479681757
 30
0.0
 10
8.2847646856
 20
8.5431899525
 30
0.0
 10
8.2915897937
 20
8.5395344806
 30
0.0
 10
8.2985378736
 20
8.5370165166
 30
0.0
 10
8.3032799255
 20
8.536099854
 30
0.0
 10
8.3056335948
 20
8.5358417136
 30
0.0
  0
SPLINE
  5
397
100
AcDbEntity
  8
0
100
AcDbSpline
 62
7
  6
CONTINUOUS
 70
0
 71
3
 72
29
 73
25
 74
0
 42
0.0000001
 43
0.0000001
 44
0.0000000001
 40
0.0
 40
0.0
 40
0.0
 40
0.0
 40
0.0143088329
 40
0.0299750743
 40
0.0470518725
 40
0.0655705577
 40
0.0855461505
 40
0.106973774
 40
0.1298347989
 40
0.154103954
 40
0.1797501736
 40
0.2067304524
 40
0.2349944691
 40
0.2644894395
 40
0.3269382349
 40
0.3935551879
 40
0.4637689867
 40
0.5369534032
 40
0.6124526291
 40
0.6895681739
 40
0.7675910436
 40
0.8458295516
 40
0.9235719194
 40
1.0
 40
1.0
 40
1.0
 40
1.0
 10
8.0779671571
 20
9.7791001935
 30
0.0
 10
8.075538516
 20
9.7769020482
 30
0.0
 10
8.0706935685
 20
9.7720257005
 30
0.0
 10
8.0637633
 20
9.763767351
 30
0.0
 10
8.0568634714
 20
9.7542644797
 30
0.0
 10
8.0500103624
 20
9.7435388911
 30
0.0
 10
8.0432211254
 20
9.7316130849
 30
0.0
 10
8.036510719
 20
9.718516122
 30
0.0
 10
8.0298944492
 20
9.7042803301
 30
0.0
 10
8.0233887907
 20
9.6889393677
 30
0.0
 10
8.017011353
 20
9.6725290363
 30
0.0
 10
8.0107767638
 20
9.6550898319
 30
0.0
 10
8.0046995625
 20
9.6366652005
 30
0.0
 10
7.9966740395
 20
9.6103405099
 30
0.0
 10
7.9871992948
 20
9.5752892901
 30
0.0
 10
7.9768832223
 20
9.5308418638
 30
0.0
 10
7.9675262549
 20
9.483675082
 30
0.0
 10
7.9592146392
 20
9.4342507886
 30
0.0
 10
7.9520383525
 20
9.3830535114
 30
0.0
 10
7.9460613448
 20
9.3305878277
 30
0.0
 10
7.9413484799
 20
9.2773641406
 30
0.0
 10
7.9379418247
 20
9.2238970404
 30
0.0
 10
7.935881736
 20
9.170726827
 30
0.0
 10
7.9354067168
 20
9.1354314372
 30
0.0
 10
7.9354067168
 20
9.1179349268
 30
0.0
  0
SPLINE
  5
398
100
AcDbEntity
  8
0
100
AcDbSpline
 62
7
  6
CONTINUOUS
 70
0
 71
3
 72
15
 73
11
 74
0
 42
0.0000001
 43
0.0000001
 44
0.0000000001
 40
0.0
 40
0.0
 40
0.0
 40
0.0
 40
0.1081420371
 40
0.2181270493
 40
0.3317026931
 40
0.4504408454
 40
0.5756574473
 40
0.7084351113
 40
0.8496498249
 40
1.0
 40
1.0
 40
1.0
 40
1.0
 10
10.0647588123
 20
9.9725457229
 30
0.0
 10
10.0623497139
 20
9.9727128165
 30
0.0
 10
10.0574612468
 20
9.9727186393
 30
0.0
 10
10.0500992827
 20
9.9717356383
 30
0.0
 10
10.0426938185
 20
9.9697644891
 30
0.0
 10
10.0352582351
 20
9.9668114166
 30
0.0
 10
10.0278003099
 20
9.9628884604
 30
0.0
 10
10.0203280201
 20
9.9580052345
 30
0.0
 10
10.0128494621
 20
9.9521707386
 30
0.0
 10
10.0080212806
 20
9.947793611
 30
0.0
 10
10.0056064387
 20
9.9454610527
 30
0.0
  0
SPLINE
  5
399
100
AcDbEntity
  8
0
100
AcDbSpline
 62
7
  6
CONTINUOUS
 70
0
 71
3
 72
32
 73
28
 74
0
 42
0.0000001
 43
0.0000001
 44
0.0000000001
 40
0.0
 40
0.0
 40
0.0
 40
0.0
 40
0.0126599303
 40
0.0256272511
 40
0.0391881419
 40
0.0535874595
 40
0.0690246908
 40
0.0856574243
 40
0.1036068811
 40
0.1229589233
 40
0.1437724561
 40
0.1660879468
 40
0.189931751
 40
0.2153144375
 40
0.242232485
 40
0.2706753263
 40
0.3006271746
 40
0.3320654012
 40
0.3649574337
 40
0.3992669279
 40
0.4719774334
 40
0.5498331402
 40
0.6324002447
 40
0.7192199631
 40
0.8098091442
 40
0.9036268748
 40
1.0
 40
1.0
 40
1.0
 40
1.0
 10
8.2790104617
 20
8.4905401193
 30
0.0
 10
8.2764798625
 20
8.49071564
 30
0.0
 10
8.2713771607
 20
8.4914932872
 30
0.0
 10
8.2638741935
 20
8.4939085286
 30
0.0
 10
8.2565026009
 20
8.4975644716
 30
0.0
 10
8.2492758934
 20
8.5024405681
 30
0.0
 10
8.2422004645
 20
8.5085210523
 30
0.0
 10
8.2352830796
 20
8.5157935084
 30
0.0
 10
8.228532399
 20
8.5242471945
 30
0.0
 10
8.2219549209
 20
8.5338671978
 30
0.0
 10
8.215558365
 20
8.5446376196
 30
0.0
 10
8.2093519176
 20
8.5565422406
 30
0.0
 10
8.203346173
 20
8.5695638205
 30
0.0
 10
8.1975504262
 20
8.5836816517
 30
0.0
 10
8.1919727283
 20
8.5988720302
 30
0.0
 10
8.1866222965
 20
8.6151103239
 30
0.0
 10
8.1815085938
 20
8.6323711284
 30
0.0
 10
8.176640914
 20
8.650626821
 30
0.0
 10
8.1720258582
 20
8.669846932
 30
0.0
 10
8.1661046328
 20
8.6972508252
 30
0.0
 10
8.1594464427
 20
8.7337020204
 30
0.0
 10
8.1527190532
 20
8.7799366516
 30
0.0
 10
8.1471515829
 20
8.8291706663
 30
0.0
 10
8.1427852735
 20
8.8810853663
 30
0.0
 10
8.1396474807
 20
8.9353463765
 30
0.0
 10
8.1377642216
 20
8.9915798647
 30
0.0
 10
8.1373532895
 20
9.0296899998
 30
0.0
 10
8.1373532895
 20
9.0490003485
 30
0.0
  0
SPLINE
  5
39A
100
AcDbEntity
  8
0
100
AcDbSpline
 62
7
  6
CONTINUOUS
 70
0
 71
3
 72
37
 73
33
 74
0
 42
0.0000001
 43
0.0000001
 44
0.0000000001
 40
0.0
 40
0.0
 40
0.0
 40
0.0
 40
0.0053735155
 40
0.0108382488
 40
0.0164548324
 40
0.022278711
 40
0.0347283538
 40
0.041444626
 40
0.0485263295
 40
0.0638710177
 40
0.0809107327
 40
0.0997328456
 40
0.1203767263
 40
0.142851426
 40
0.1671476762
 40
0.1932332014
 40
0.2210586146
 40
0.2505673438
 40
0.281690726
 40
0.3143466407
 40
0.3484491996
 40
0.3839064462
 40
0.4206150831
 40
0.4973556694
 40
0.5371651751
 40
0.5777747042
 40
0.6609030235
 40
0.7457229474
 40
0.8312058237
 40
0.8738838733
 40
0.9163438903
 40
1.0
 40
1.0
 40
1.0
 40
1.0
 10
8.4021790777
 20
9.9324250595
 30
0.0
 10
8.4005034169
 20
9.9324621258
 30
0.0
 10
8.3971163323
 20
9.9323420922
 30
0.0
 10
8.3920300003
 20
9.9315861806
 30
0.0
 10
8.3869173816
 20
9.9302562091
 30
0.0
 10
8.3799199514
 20
9.9276647272
 30
0.0
 10
8.3730265263
 20
9.9239317305
 30
0.0
 10
8.36630378
 20
9.9192529931
 30
0.0
 10
8.3592110192
 20
9.9135567276
 30
0.0
 10
8.3503620658
 20
9.9049588934
 30
0.0
 10
8.3400455096
 20
9.8927401001
 30
0.0
 10
8.329788554
 20
9.8783875609
 30
0.0
 10
8.3196172204
 20
9.8619479841
 30
0.0
 10
8.3095607905
 20
9.8434705694
 30
0.0
 10
8.2996542866
 20
9.8230105095
 30
0.0
 10
8.2899281637
 20
9.8006330668
 30
0.0
 10
8.2804122111
 20
9.7764106737
 30
0.0
 10
8.2711399625
 20
9.7504199126
 30
0.0
 10
8.2621422993
 20
9.722744554
 30
0.0
 10
8.253446285
 20
9.693475383
 30
0.0
 10
8.2450819046
 20
9.6627069576
 30
0.0
 10
8.2370782125
 20
9.6305386946
 30
0.0
 10
8.2267666041
 20
9.5852494397
 30
0.0
 10
8.2174811003
 20
9.5383441925
 30
0.0
 10
8.2091592693
 20
9.4900340957
 30
0.0
 10
8.2013107328
 20
9.4396268303
 30
0.0
 10
8.192814411
 20
9.3751211776
 30
0.0
 10
8.1847923519
 20
9.2964703063
 30
0.0
 10
8.1799439227
 20
9.2302060502
 30
0.0
 10
8.1771976954
 20
9.1770563515
 30
0.0
 10
8.175241699
 20
9.124442342
 30
0.0
 10
8.1746318476
 20
9.0851021214
 30
0.0
 10
8.1746318476
 20
9.0590086727
 30
0.0
  0
SPLINE
  5
39B
100
AcDbEntity
  8
0
100
AcDbSpline
 62
7
  6
CONTINUOUS
 70
0
 71
3
 72
15
 73
11
 74
0
 42
0.0000001
 43
0.0000001
 44
0.0000000001
 40
0.0
 40
0.0
 40
0.0
 40
0.0
 40
0.1029768928
 40
0.2133643857
 40
0.3306525697
 40
0.4542956751
 40
0.5837108728
 40
0.7182900511
 40
0.8573387374
 40
1.0
 40
1.0
 40
1.0
 40
1.0
 10
8.2505148933
 20
8.6972151042
 30
0.0
 10
8.2477940076
 20
8.7089069067
 30
0.0
 10
8.2426923985
 20
8.7332584864
 30
0.0
 10
8.2361824552
 20
8.7712566543
 30
0.0
 10
8.2305705331
 20
8.8118308361
 30
0.0
 10
8.2258944122
 20
8.8547543075
 30
0.0
 10
8.2221785956
 20
8.8997937121
 30
0.0
 10
8.2194455488
 20
8.9467019943
 30
0.0
 10
8.2177136483
 20
8.995202421
 30
0.0
 10
8.2172344281
 20
9.0280411712
 30
0.0
 10
8.2171585301
 20
9.044671313
 30
0.0
  0
SPLINE
  5
39C
100
AcDbEntity
  8
0
100
AcDbSpline
 62
7
  6
CONTINUOUS
 70
0
 71
3
 72
21
 73
17
 74
0
 42
0.0000001
 43
0.0000001
 44
0.0000000001
 40
0.0
 40
0.0
 40
0.0
 40
0.0
 40
0.1219698365
 40
0.1831883914
 40
0.2445807735
 40
0.3061755604
 40
0.3680140479
 40
0.4301066791
 40
0.4924774002
 40
0.5551264456
 40
0.6180462478
 40
0.6812258812
 40
0.7446296393
 40
0.8082429065
 40
0.8720355102
 40
1.0
 40
1.0
 40
1.0
 40
1.0
 10
9.6603227777
 20
8.487150018
 30
0.0
 10
9.6751870357
 20
8.5193996618
 30
0.0
 10
9.6957361266
 20
8.5687047335
 30
0.0
 10
9.7185186221
 20
8.6361930013
 30
0.0
 10
9.7330745388
 20
8.6878369775
 30
0.0
 10
9.7447791574
 20
8.7403893563
 30
0.0
 10
9.7533564574
 20
8.7937521604
 30
0.0
 10
9.7586158343
 20
8.8477738447
 30
0.0
 10
9.7603596191
 20
8.9022601187
 30
0.0
 10
9.7586001747
 20
8.9569862859
 30
0.0
 10
9.7533275661
 20
9.0117208653
 30
0.0
 10
9.7447406954
 20
9.066252449
 30
0.0
 10
9.7330307442
 20
9.1204020198
 30
0.0
 10
9.7184736824
 20
9.1740376324
 30
0.0
 10
9.6956400165
 20
9.2448144031
 30
0.0
 10
9.6751325596
 20
9.2968164003
 30
0.0
 10
9.6603227777
 20
9.3310019759
 30
0.0
  0
SPLINE
  5
39D
100
AcDbEntity
  8
0
100
AcDbSpline
 62
7
  6
CONTINUOUS
 70
0
 71
3
 72
25
 73
21
 74
0
 42
0.0000001
 43
0.0000001
 44
0.0000000001
 40
0.0
 40
0.0
 40
0.0
 40
0.0
 40
0.0708050633
 40
0.1406078275
 40
0.2092754609
 40
0.2431484234
 40
0.2766917905
 40
0.3427427933
 40
0.4073848949
 40
0.4706002135
 40
0.5324462803
 40
0.5930570044
 40
0.6526104688
 40
0.7113443175
 40
0.7404783993
 40
0.7694908573
 40
0.8272590121
 40
0.8848461742
 40
0.942392942
 40
1.0
 40
1.0
 40
1.0
 40
1.0
 10
9.6756519888
 20
9.4448985238
 30
0.0
 10
9.6868517371
 20
9.4563372702
 30
0.0
 10
9.7087226468
 20
9.4794202108
 30
0.0
 10
9.7399357213
 20
9.5149974584
 30
0.0
 10
9.7643263525
 20
9.5454066918
 30
0.0
 10
9.7826510061
 20
9.5701267988
 30
0.0
 10
9.7999611741
 20
9.5948482951
 30
0.0
 10
9.8199420255
 20
9.6261772492
 30
0.0
 10
9.8410711877
 20
9.6646300391
 30
0.0
 10
9.8589956234
 20
9.703641639
 30
0.0
 10
9.8734695413
 20
9.7430958076
 30
0.0
 10
9.8844372865
 20
9.7828100126
 30
0.0
 10
9.8918317799
 20
9.8226257351
 30
0.0
 10
9.8951428769
 20
9.8558338523
 30
0.0
 10
9.8961423577
 20
9.8822471927
 30
0.0
 10
9.8960886603
 20
9.9084610298
 30
0.0
 10
9.8941438617
 20
9.9410765624
 30
0.0
 10
9.8890630178
 20
9.9798665252
 30
0.0
 10
9.8815153529
 20
10.018210128
 30
0.0
 10
9.8750286684
 20
10.0434399329
 30
0.0
 10
9.8714683439
 20
10.0559685885
 30
0.0
  0
SPLINE
  5
39E
100
AcDbEntity
  8
0
100
AcDbSpline
 62
7
  6
CONTINUOUS
 70
0
 71
3
 72
11
 73
7
 74
0
 42
0.0000001
 43
0.0000001
 44
0.0000000001
 40
0.0
 40
0.0
 40
0.0
 40
0.0
 40
0.2408335623
 40
0.4854389176
 40
0.7374063122
 40
1.0
 40
1.0
 40
1.0
 40
1.0
 10
8.4751003365
 20
9.9745295217
 30
0.0
 10
8.4730841557
 20
9.9746693627
 30
0.0
 10
8.4689970472
 20
9.9746860577
 30
0.0
 10
8.4628411191
 20
9.9739166176
 30
0.0
 10
8.4566494655
 20
9.9723555928
 30
0.0
 10
8.452600772
 20
9.9708259193
 30
0.0
 10
8.4505813232
 20
9.9699439803
 30
0.0
  0
SPLINE
  5
39F
100
AcDbEntity
  8
0
100
AcDbSpline
 62
7
  6
CONTINUOUS
 70
0
 71
3
 72
10
 73
6
 74
0
 42
0.0000001
 43
0.0000001
 44
0.0000000001
 40
0.0
 40
0.0
 40
0.0
 40
0.0
 40
0.4679833889
 40
0.7253104238
 40
1.0
 40
1.0
 40
1.0
 40
1.0
 10
8.4505813232
 20
9.9699439803
 30
0.0
 10
8.4458158122
 20
9.9678627735
 30
0.0
 10
8.4388013645
 20
9.9637524376
 30
0.0
 10
8.4300058894
 20
9.9569566322
 30
0.0
 10
8.4256152225
 20
9.9529866458
 30
0.0
 10
8.4234198415
 20
9.9508660705
 30
0.0
  0
SPLINE
  5
3A0
100
AcDbEntity
  8
0
100
AcDbSpline
 62
7
  6
CONTINUOUS
 70
0
 71
3
 72
9
 73
5
 74
0
 42
0.0000001
 43
0.0000001
 44
0.0000000001
 40
0.0
 40
0.0
 40
0.0
 40
0.0
 40
0.2604987726
 40
1.0
 40
1.0
 40
1.0
 40
1.0
 10
9.8714683439
 20
10.0559685885
 30
0.0
 10
9.872727015
 20
10.0574693704
 30
0.0
 10
9.8776250809
 20
10.0631741842
 30
0.0
 10
9.8827982081
 20
10.0686462877
 30
0.0
 10
9.886797555
 20
10.0725093604
 30
0.0
  0
SPLINE
  5
3A1
100
AcDbEntity
  8
0
100
AcDbSpline
 62
7
  6
CONTINUOUS
 70
0
 71
3
 72
58
 73
54
 74
0
 42
0.0000001
 43
0.0000001
 44
0.0000000001
 40
0.0
 40
0.0
 40
0.0
 40
0.0
 40
0.0081387228
 40
0.0169718215
 40
0.0265186818
 40
0.036790297
 40
0.047791019
 40
0.0595189223
 40
0.0719680045
 40
0.0851293809
 40
0.0989900911
 40
0.1135313865
 40
0.1287325636
 40
0.144571775
 40
0.1610245893
 40
0.1780631197
 40
0.2137804443
 40
0.2514797668
 40
0.2908893292
 40
0.3317229168
 40
0.3736770836
 40
0.4164396254
 40
0.4596886233
 40
0.5030989222
 40
0.5463426825
 40
0.5890946146
 40
0.6310332782
 40
0.6718460642
 40
0.7112304169
 40
0.7302970238
 40
0.748900643
 40
0.7670075222
 40
0.7845854639
 40
0.8016052738
 40
0.8180386043
 40
0.8338577732
 40
0.8490376578
 40
0.8635569317
 40
0.8773956513
 40
0.8905353855
 40
0.9029619203
 40
0.9146661639
 40
0.9256420359
 40
0.9358873817
 40
0.9454078613
 40
0.9542180609
 40
0.9623411218
 40
0.9698119274
 40
0.9766833038
 40
0.9830286875
 40
0.9889443849
 40
0.9945525131
 40
1.0
 40
1.0
 40
1.0
 40
1.0
 10
10.0056064387
 20
9.9454610527
 30
0.0
 10
10.0021595309
 20
9.9421315953
 30
0.0
 10
9.9952823981
 20
9.9348631056
 30
0.0
 10
9.9853974214
 20
9.9227615435
 30
0.0
 10
9.9755498349
 20
9.9090510879
 30
0.0
 10
9.9657629481
 20
9.8937602217
 30
0.0
 10
9.9560589842
 20
9.8769180778
 30
0.0
 10
9.9464547513
 20
9.8585598421
 30
0.0
 10
9.9369683413
 20
9.8387210681
 30
0.0
 10
9.9276186518
 20
9.8174388384
 30
0.0
 10
9.918424792
 20
9.7947542554
 30
0.0
 10
9.9094035896
 20
9.7707135709
 30
0.0
 10
9.9005735073
 20
9.7453652873
 30
0.0
 10
9.8919536892
 20
9.7187592464
 30
0.0
 10
9.8835620996
 20
9.6909484516
 30
0.0
 10
9.872524416
 20
9.651717405
 30
0.0
 10
9.8594696256
 20
9.6000680178
 30
0.0
 10
9.8451995923
 20
9.5351736645
 30
0.0
 10
9.8322013477
 20
9.4669439521
 30
0.0
 10
9.8205850219
 20
9.3959265302
 30
0.0
 10
9.8104410809
 20
9.3226907318
 30
0.0
 10
9.801855126
 20
9.2478245982
 30
0.0
 10
9.7948938303
 20
9.1719291266
 30
0.0
 10
9.7896156365
 20
9.0956140924
 30
0.0
 10
9.7860611906
 20
9.019492301
 30
0.0
 10
9.7842600246
 20
8.9441754504
 30
0.0
 10
9.7842252921
 20
8.870268017
 30
0.0
 10
9.7859569639
 20
8.7983641448
 30
0.0
 10
9.7888893962
 20
8.7399801424
 30
0.0
 10
9.79213855
 20
8.6947231049
 30
0.0
 10
9.7949767779
 20
8.6620013604
 30
0.0
 10
9.7982375691
 20
8.6301999993
 30
0.0
 10
9.801915404
 20
8.5993830476
 30
0.0
 10
9.806001227
 20
8.5696117667
 30
0.0
 10
9.81048641
 20
8.5409456177
 30
0.0
 10
9.8153628021
 20
8.5134428419
 30
0.0
 10
9.8206213605
 20
8.4871587658
 30
0.0
 10
9.8262497159
 20
8.4621450556
 30
0.0
 10
9.8322361558
 20
8.4384513989
 30
0.0
 10
9.8385698988
 20
8.4161259732
 30
0.0
 10
9.8452387203
 20
8.395213263
 30
0.0
 10
9.852227426
 20
8.375753218
 30
0.0
 10
9.8595218453
 20
8.3577836457
 30
0.0
 10
9.8671096133
 20
8.341340728
 30
0.0
 10
9.874976544
 20
8.3264559634
 30
0.0
 10
9.883106779
 20
8.3131555184
 30
0.0
 10
9.8914868536
 20
8.3014635866
 30
0.0
 10
9.9001075074
 20
8.2914044567
 30
0.0
 10
9.9089580783
 20
8.2829980178
 30
0.0
 10
9.9180280501
 20
8.2762622404
 30
0.0
 10
9.9273101577
 20
8.2712209716
 30
0.0
 10
9.9367866372
 20
8.2679084581
 30
0.0
 10
9.943254103
 20
8.2668650692
 30
0.0
 10
9.9464540651
 20
8.2666431217
 30
0.0
  0
SPLINE
  5
3A2
100
AcDbEntity
  8
0
100
AcDbSpline
 62
7
  6
CONTINUOUS
 70
0
 71
3
 72
19
 73
15
 74
0
 42
0.0000001
 43
0.0000001
 44
0.0000000001
 40
0.0
 40
0.0
 40
0.0
 40
0.0
 40
0.1318306382
 40
0.1968590614
 40
0.2613003808
 40
0.3251682629
 40
0.3884829401
 40
0.4512790133
 40
0.5135960132
 40
0.5754716762
 40
0.6369489009
 40
0.7588968726
 40
0.8798130546
 40
1.0
 40
1.0
 40
1.0
 40
1.0
 10
9.0600785943
 20
9.9550918717
 30
0.0
 10
9.0504084479
 20
9.9364707555
 30
0.0
 10
9.0367359896
 20
9.908251371
 30
0.0
 10
9.020399126
 20
9.8699997102
 30
0.0
 10
9.0092378836
 20
9.8413169879
 30
0.0
 10
8.9991385379
 20
9.8125323016
 30
0.0
 10
8.9901287699
 20
9.7836620144
 30
0.0
 10
8.9822074902
 20
9.7547302186
 30
0.0
 10
8.9753609684
 20
9.7257608551
 30
0.0
 10
8.9695791635
 20
9.6967740637
 30
0.0
 10
8.9632842015
 20
9.6582359446
 30
0.0
 10
8.9579016555
 20
9.6100576444
 30
0.0
 10
8.9551344249
 20
9.5523073807
 30
0.0
 10
8.9554951092
 20
9.5139129784
 30
0.0
 10
8.9561601986
 20
9.4947954489
 30
0.0
  0
SPLINE
  5
3A3
100
AcDbEntity
  8
0
100
AcDbSpline
 62
7
  6
CONTINUOUS
 70
0
 71
3
 72
9
 73
5
 74
0
 42
0.0000001
 43
0.0000001
 44
0.0000000001
 40
0.0
 40
0.0
 40
0.0
 40
0.0
 40
0.2563959741
 40
1.0
 40
1.0
 40
1.0
 40
1.0
 10
9.8714683439
 20
8.1700853405
 30
0.0
 10
9.8724154604
 20
8.171166178
 30
0.0
 10
9.8760512766
 20
8.1754317679
 30
0.0
 10
9.8794417866
 20
8.1799103878
 30
0.0
 10
9.8817707647
 20
8.1833668493
 30
0.0
  0
SPLINE
  5
3A4
100
AcDbEntity
  8
0
100
AcDbSpline
 62
7
  6
CONTINUOUS
 70
0
 71
3
 72
28
 73
24
 74
0
 42
0.0000001
 43
0.0000001
 44
0.0000000001
 40
0.0
 40
0.0
 40
0.0
 40
0.0
 40
0.0405444816
 40
0.0792214061
 40
0.0981452622
 40
0.1169732785
 40
0.135882131
 40
0.1550705895
 40
0.1747504282
 40
0.1951276564
 40
0.2387122992
 40
0.2873023329
 40
0.3138119443
 40
0.3418982988
 40
0.4030139832
 40
0.4361078962
 40
0.4708697095
 40
0.5452669676
 40
0.6258791468
 40
0.7122170959
 40
0.8037199046
 40
0.8998325451
 40
1.0
 40
1.0
 40
1.0
 40
1.0
 10
9.8817707647
 20
8.1833668493
 30
0.0
 10
9.884333965
 20
8.1871709225
 30
0.0
 10
9.8889003119
 20
8.1949200362
 30
0.0
 10
9.8930123324
 20
8.2052972176
 30
0.0
 10
9.8950548409
 20
8.2137116969
 30
0.0
 10
9.895952925
 20
8.2200699071
 30
0.0
 10
9.8961973517
 20
8.2265171293
 30
0.0
 10
9.8957593794
 20
8.233051181
 30
0.0
 10
9.8946119873
 20
8.2396673483
 30
0.0
 10
9.8920611943
 20
8.2487944963
 30
0.0
 10
9.8868481707
 20
8.2604949602
 30
0.0
 10
9.8794174998
 20
8.2717375848
 30
0.0
 10
9.8720767954
 20
8.2808212536
 30
0.0
 10
9.86326006
 20
8.2905075046
 30
0.0
 10
9.8531364508
 20
8.2999742189
 30
0.0
 10
9.8419003389
 20
8.3092856174
 30
0.0
 10
9.8291406694
 20
8.3190998006
 30
0.0
 10
9.8114894987
 20
8.3313457538
 30
0.0
 10
9.7882839891
 20
8.345752229
 30
0.0
 10
9.7628326646
 20
8.3601608796
 30
0.0
 10
9.7353716241
 20
8.3745412964
 30
0.0
 10
9.7061315663
 20
8.3888690642
 30
0.0
 10
9.6859782769
 20
8.3981987727
 30
0.0
 10
9.6756519888
 20
8.4028672337
 30
0.0
  0
SPLINE
  5
3A5
100
AcDbEntity
  8
0
100
AcDbSpline
 62
7
  6
CONTINUOUS
 70
0
 71
3
 72
9
 73
5
 74
0
 42
0.0000001
 43
0.0000001
 44
0.0000000001
 40
0.0
 40
0.0
 40
0.0
 40
0.0
 40
0.4864229748
 40
1.0
 40
1.0
 40
1.0
 40
1.0
 10
9.6756519888
 20
8.4028672337
 30
0.0
 10
9.6727484445
 20
8.4164517407
 30
0.0
 10
9.6672438295
 20
8.4444796307
 30
0.0
 10
9.6625495419
 20
8.4726532287
 30
0.0
 10
9.6603227777
 20
8.487150018
 30
0.0
  0
SPLINE
  5
3A6
100
AcDbEntity
  8
0
100
AcDbSpline
 62
7
  6
CONTINUOUS
 70
0
 71
3
 72
21
 73
17
 74
0
 42
0.0000001
 43
0.0000001
 44
0.0000000001
 40
0.0
 40
0.0
 40
0.0
 40
0.0
 40
0.0671489621
 40
0.1352848541
 40
0.2729480129
 40
0.4101896999
 40
0.4778270441
 40
0.5443549046
 40
0.6094445886
 40
0.6727819147
 40
0.7340586355
 40
0.7929868719
 40
0.8492897481
 40
0.9027092808
 40
0.9530170663
 40
1.0
 40
1.0
 40
1.0
 40
1.0
 10
8.2171325865
 20
9.0560612364
 30
0.0
 10
8.2171325865
 20
9.0725888725
 30
0.0
 10
8.2174607909
 20
9.105887951
 30
0.0
 10
8.2193836199
 20
9.1730452665
 30
0.0
 10
8.224133801
 20
9.2573654667
 30
0.0
 10
8.2319119409
 20
9.341337274
 30
0.0
 10
8.2399306466
 20
9.4076601106
 30
0.0
 10
8.2467490912
 20
9.4562304608
 30
0.0
 10
8.2543659223
 20
9.5036104025
 30
0.0
 10
8.2627366215
 20
9.549550135
 30
0.0
 10
8.2718212119
 20
9.5938073098
 30
0.0
 10
8.2815677396
 20
9.6361490284
 30
0.0
 10
8.2919246681
 20
9.6763521055
 30
0.0
 10
8.3028396336
 20
9.7142047979
 30
0.0
 10
8.3142487036
 20
9.7495084442
 30
0.0
 10
8.322436981
 20
9.772019379
 30
0.0
 10
8.3266254272
 20
9.7827983011
 30
0.0
  0
SPLINE
  5
3A7
100
AcDbEntity
  8
0
100
AcDbSpline
 62
7
  6
CONTINUOUS
 70
0
 71
3
 72
23
 73
19
 74
0
 42
0.0000001
 43
0.0000001
 44
0.0000000001
 40
0.0
 40
0.0
 40
0.0
 40
0.0
 40
0.0764224449
 40
0.1504663304
 40
0.2222018644
 40
0.2917109085
 40
0.3590900072
 40
0.4244474941
 40
0.4879039322
 40
0.5495927797
 40
0.6096609977
 40
0.6682702188
 40
0.7255962294
 40
0.7818281329
 40
0.8371677443
 40
0.8918276443
 40
0.9460291863
 40
1.0
 40
1.0
 40
1.0
 40
1.0
 10
15.1984239885
 20
9.8393764048
 30
0.0
 10
15.2001186324
 20
9.8410133053
 30
0.0
 10
15.2035072484
 20
9.84418287
 30
0.0
 10
15.2086709155
 20
9.8486867854
 30
0.0
 10
15.2138322428
 20
9.8528625428
 30
0.0
 10
15.2189896879
 20
9.8567086761
 30
0.0
 10
15.2241418182
 20
9.8602241068
 30
0.0
 10
15.2292873292
 20
9.8634077756
 30
0.0
 10
15.2344248752
 20
9.8662586994
 30
0.0
 10
15.2395530447
 20
9.8687759917
 30
0.0
 10
15.2446704663
 20
9.8709586928
 30
0.0
 10
15.2497756929
 20
9.8728060147
 30
0.0
 10
15.2548672525
 20
9.8743172646
 30
0.0
 10
15.2599436697
 20
9.8754917042
 30
0.0
 10
15.2650033363
 20
9.8763288507
 30
0.0
 10
15.2700447191
 20
9.8768282581
 30
0.0
 10
15.2750658464
 20
9.8769895758
 30
0.0
 10
15.278401732
 20
9.8768715601
 30
0.0
 10
15.2800616702
 20
9.8767564375
 30
0.0
  0
SPLINE
  5
3A8
100
AcDbEntity
  8
0
100
AcDbSpline
 62
7
  6
CONTINUOUS
 70
0
 71
3
 72
23
 73
19
 74
0
 42
0.0000001
 43
0.0000001
 44
0.0000000001
 40
0.0
 40
0.0
 40
0.0
 40
0.0
 40
0.063776909
 40
0.1273449468
 40
0.1907019575
 40
0.2538561145
 40
0.3168131979
 40
0.3795820804
 40
0.4421733815
 40
0.5045993354
 40
0.5668738682
 40
0.6290123838
 40
0.6910316538
 40
0.75294965
 40
0.8147853622
 40
0.8765586114
 40
0.9382898593
 40
1.0
 40
1.0
 40
1.0
 40
1.0
 10
14.6643286291
 20
7.0126858639
 30
0.0
 10
14.6643286291
 20
7.0073784152
 30
0.0
 10
14.6640745851
 20
6.9967791015
 30
0.0
 10
14.6629280088
 20
6.9809446166
 30
0.0
 10
14.6610189267
 20
6.9652356388
 30
0.0
 10
14.6583519266
 20
6.9496890673
 30
0.0
 10
14.6549329543
 20
6.9343404343
 30
0.0
 10
14.6507699173
 20
6.9192252211
 30
0.0
 10
14.6458723917
 20
6.9043782484
 30
0.0
 10
14.640251626
 20
6.8898337536
 30
0.0
 10
14.6339205313
 20
6.8756252906
 30
0.0
 10
14.6268936784
 20
6.8617856325
 30
0.0
 10
14.6191872715
 20
6.8483466952
 30
0.0
 10
14.6108190551
 20
6.8353394719
 30
0.0
 10
14.601808323
 20
6.822794009
 30
0.0
 10
14.5921757347
 20
6.8107391583
 30
0.0
 10
14.5819438988
 20
6.7992030959
 30
0.0
 10
14.5747375623
 20
6.7918746191
 30
0.0
 10
14.5710438708
 20
6.7883067717
 30
0.0
  0
SPLINE
  5
3A9
100
AcDbEntity
  8
0
100
AcDbSpline
 62
7
  6
CONTINUOUS
 70
0
 71
3
 72
48
 73
44
 74
0
 42
0.0000001
 43
0.0000001
 44
0.0000000001
 40
0.0
 40
0.0
 40
0.0
 40
0.0
 40
0.0149718897
 40
0.0299468369
 40
0.0449278839
 40
0.0599180336
 40
0.0749202322
 40
0.0899373568
 40
0.1049721887
 40
0.1200274064
 40
0.1351055645
 40
0.1502090774
 40
0.1653402142
 40
0.180501073
 40
0.1956935825
 40
0.2109194836
 40
0.2261803205
 40
0.2414774416
 40
0.2568119786
 40
0.2721848576
 40
0.3030428416
 40
0.3340598877
 40
0.365235493
 40
0.3965657058
 40
0.4280432614
 40
0.4596577825
 40
0.4913960356
 40
0.5232422374
 40
0.5551784039
 40
0.5871847345
 40
0.6192400218
 40
0.6513220815
 40
0.6834081967
 40
0.7154755701
 40
0.7475017768
 40
0.7794652126
 40
0.8113455287
 40
0.8431240501
 40
0.8747841728
 40
0.9063117021
 40
0.9376953081
 40
0.9689262526
 40
1.0
 40
1.0
 40
1.0
 40
1.0
 10
14.0930563795
 20
7.2831521411
 30
0.0
 10
14.0959100731
 20
7.2859086093
 30
0.0
 10
14.1017282781
 20
7.2913092886
 30
0.0
 10
14.1107716106
 20
7.2990579224
 30
0.0
 10
14.120119404
 20
7.3064445161
 30
0.0
 10
14.1297586964
 20
7.3134586312
 30
0.0
 10
14.1396761932
 20
7.3200907651
 30
0.0
 10
14.1498582815
 20
7.3263317118
 30
0.0
 10
14.1602909354
 20
7.3321729093
 30
0.0
 10
14.1709597757
 20
7.3376063659
 30
0.0
 10
14.1818501638
 20
7.3426245189
 30
0.0
 10
14.19294706
 20
7.3472205841
 30
0.0
 10
14.204235236
 20
7.3513881454
 30
0.0
 10
14.215699135
 20
7.3551215316
 30
0.0
 10
14.2273229842
 20
7.3584156244
 30
0.0
 10
14.2390908034
 20
7.3612658288
 30
0.0
 10
14.2509863926
 20
7.3636683455
 30
0.0
 10
14.2629933521
 20
7.3656197611
 30
0.0
 10
14.2750953675
 20
7.3671174875
 30
0.0
 10
14.2913541145
 20
7.3685084225
 30
0.0
 10
14.3118373232
 20
7.3690998125
 30
0.0
 10
14.3364922502
 20
7.3679749975
 30
0.0
 10
14.3611221319
 20
7.365023512
 30
0.0
 10
14.385590712
 20
7.3602617665
 30
0.0
 10
14.409763856
 20
7.353716216
 30
0.0
 10
14.4335087765
 20
7.3454230389
 30
0.0
 10
14.4566951525
 20
7.335427974
 30
0.0
 10
14.4791957354
 20
7.3237860787
 30
0.0
 10
14.5008870674
 20
7.3105614178
 30
0.0
 10
14.5216501341
 20
7.2958266971
 30
0.0
 10
14.541371012
 20
7.2796628712
 30
0.0
 10
14.5599414832
 20
7.2621587009
 30
0.0
 10
14.5772596232
 20
7.2434102747
 30
0.0
 10
14.5932303756
 20
7.2235205029
 30
0.0
 10
14.6077660479
 20
7.2025985353
 30
0.0
 10
14.6207867886
 20
7.1807591734
 30
0.0
 10
14.6322210217
 20
7.1581222443
 30
0.0
 10
14.642005835
 20
7.1348119663
 30
0.0
 10
14.650087334
 20
7.110956232
 30
0.0
 10
14.656420981
 20
7.0866861009
 30
0.0
 10
14.6609716981
 20
7.062134393
 30
0.0
 10
14.6637143466
 20
7.0374376642
 30
0.0
 10
14.6643286291
 20
7.0209204659
 30
0.0
 10
14.6643286291
 20
7.0126858639
 30
0.0
  0
SPLINE
  5
3AA
100
AcDbEntity
  8
0
100
AcDbSpline
 62
7
  6
CONTINUOUS
 70
0
 71
3
 72
107
 73
103
 74
0
 42
0.0000001
 43
0.0000001
 44
0.0000000001
 40
0.0
 40
0.0
 40
0.0
 40
0.0
 40
0.0013572612
 40
0.0027170797
 40
0.0040819966
 40
0.0054545211
 40
0.0068371186
 40
0.0082321971
 40
0.0110684612
 40
0.013981638
 40
0.0169879164
 40
0.0201018459
 40
0.0233363318
 40
0.0267026481
 40
0.0302105686
 40
0.0338684409
 40
0.0376833717
 40
0.0416613006
 40
0.0458071887
 40
0.0501250693
 40
0.0546182177
 40
0.0592891779
 40
0.0641399047
 40
0.0691717748
 40
0.0743856998
 40
0.0797821307
 40
0.085361142
 40
0.0911224386
 40
0.0970654107
 40
0.1031891498
 40
0.1094924768
 40
0.1159739692
 40
0.1226319653
 40
0.129464604
 40
0.1364698079
 40
0.1436453353
 40
0.1509887461
 40
0.1584974632
 40
0.1661687264
 40
0.1739996594
 40
0.1819872169
 40
0.190128253
 40
0.198419467
 40
0.2068574681
 40
0.2154387256
 40
0.2330162676
 40
0.251122054
 40
0.2697243673
 40
0.2887901232
 40
0.3082849955
 40
0.3281735335
 40
0.3484192745
 40
0.368984852
 40
0.3898321014
 40
0.4109221623
 40
0.4322155806
 40
0.4536724082
 40
0.4752523025
 40
0.4969146253
 40
0.5186185408
 40
0.5403231135
 40
0.5619874067
 40
0.5835705797
 40
0.6050319862
 40
0.6263312728
 40
0.647428477
 40
0.6682841272
 40
0.6888593425
 40
0.7091159341
 40
0.7290165084
 40
0.748524572
 40
0.7676046402
 40
0.7862223487
 40
0.8043445717
 40
0.8219395458
 40
0.8389770046
 40
0.8472777515
 40
0.8554285212
 40
0.8634260347
 40
0.8712671072
 40
0.8789487159
 40
0.8864679446
 40
0.8938220534
 40
0.9010084264
 40
0.9080246393
 40
0.914868415
 40
0.9215376844
 40
0.9280305565
 40
0.9343453681
 40
0.9404806728
 40
0.9464352792
 40
0.9522082616
 40
0.9577989849
 40
0.9632071405
 40
0.9684327659
 40
0.9734763106
 40
0.9783386302
 40
0.9830210709
 40
0.9875255286
 40
0.9918546207
 40
0.996011541
 40
1.0
 40
1.0
 40
1.0
 40
1.0
 10
15.1167863069
 20
7.5224112871
 30
0.0
 10
15.1156859061
 20
7.5224876038
 30
0.0
 10
15.1134861421
 20
7.5226898637
 30
0.0
 10
15.1101985308
 20
7.5231414578
 30
0.0
 10
15.1069220355
 20
7.5237412765
 30
0.0
 10
15.1036572007
 20
7.5244892025
 30
0.0
 10
15.1004043831
 20
7.5253851616
 30
0.0
 10
15.0960605945
 20
7.5267844436
 30
0.0
 10
15.0906512086
 20
7.528914207
 30
0.0
 10
15.0842540624
 20
7.5320463029
 30
0.0
 10
15.0779174613
 20
7.5357666334
 30
0.0
 10
15.0716446604
 20
7.5400724205
 30
0.0
 10
15.0654383986
 20
7.5449610248
 30
0.0
 10
15.0593013143
 20
7.5504295066
 30
0.0
 10
15.0532361318
 20
7.5564749625
 30
0.0
 10
15.0472454054
 20
7.5630941567
 30
0.0
 10
15.0413318936
 20
7.5702838089
 30
0.0
 10
15.0354981719
 20
7.5780402655
 30
0.0
 10
15.0297470366
 20
7.5863597563
 30
0.0
 10
15.0240810879
 20
7.5952381299
 30
0.0
 10
15.0185031223
 20
7.6046710642
 30
0.0
 10
15.0130157407
 20
7.6146538723
 30
0.0
 10
15.0076216979
 20
7.625181659
 30
0.0
 10
15.0023235698
 20
7.6362491905
 30
0.0
 10
14.9971240359
 20
7.6478509999
 30
0.0
 10
14.9920256262
 20
7.6599813086
 30
0.0
 10
14.9870309214
 20
7.6726340904
 30
0.0
 10
14.9821423891
 20
7.6858030311
 30
0.0
 10
14.9773624959
 20
7.6994815612
 30
0.0
 10
14.9726936337
 20
7.7136628433
 30
0.0
 10
14.968138145
 20
7.7283397833
 30
0.0
 10
14.963698335
 20
7.743505034
 30
0.0
 10
14.9593764163
 20
7.7591509957
 30
0.0
 10
14.9551745969
 20
7.7752698268
 30
0.0
 10
14.9510949561
 20
7.7918534408
 30
0.0
 10
14.9471395957
 20
7.8088935178
 30
0.0
 10
14.9433104596
 20
7.8263815034
 30
0.0
 10
14.9396095342
 20
7.8443086174
 30
0.0
 10
14.9360386281
 20
7.8626658559
 30
0.0
 10
14.932599603
 20
7.8814439969
 30
0.0
 10
14.929294133
 20
7.9006336063
 30
0.0
 10
14.9261239456
 20
7.9202250403
 30
0.0
 10
14.9230905851
 20
7.940208451
 30
0.0
 10
14.9201956225
 20
7.9605738056
 30
0.0
 10
14.9164925571
 20
7.9884459786
 30
0.0
 10
14.9122302851
 20
8.0241682954
 30
0.0
 10
14.9077294963
 20
8.0680578207
 30
0.0
 10
14.903811923
 20
8.1132173146
 30
0.0
 10
14.9004855183
 20
8.1595559355
 30
0.0
 10
14.8977570653
 20
8.2069805876
 30
0.0
 10
14.8956321249
 20
8.2553959346
 30
0.0
 10
14.8941150365
 20
8.3047046446
 30
0.0
 10
14.8932089074
 20
8.3548075749
 30
0.0
 10
14.8929156078
 20
8.4056039774
 30
0.0
 10
14.8932357679
 20
8.4569917017
 30
0.0
 10
14.8941687764
 20
8.508867403
 30
0.0
 10
14.8957127832
 20
8.5611267503
 30
0.0
 10
14.8978647029
 20
8.613664638
 30
0.0
 10
14.9006202214
 20
8.6663753983
 30
0.0
 10
14.9039738049
 20
8.719153014
 30
0.0
 10
14.9079187113
 20
8.7718913332
 30
0.0
 10
14.9124470035
 20
8.8244842833
 30
0.0
 10
14.9175495657
 20
8.8768260853
 30
0.0
 10
14.9232161215
 20
8.9288114674
 30
0.0
 10
14.9294352547
 20
8.9803358774
 30
0.0
 10
14.9361944318
 20
9.0312956943
 30
0.0
 10
14.9434800273
 20
9.0815884378
 30
0.0
 10
14.9512773503
 20
9.1311129757
 30
0.0
 10
14.9595706743
 20
9.1797697291
 30
0.0
 10
14.9683432681
 20
9.2274608744
 30
0.0
 10
14.977577429
 20
9.2740905414
 30
0.0
 10
14.987254518
 20
9.3195650133
 30
0.0
 10
14.9973549974
 20
9.363792903
 30
0.0
 10
15.0078584684
 20
9.4066853974
 30
0.0
 10
15.0187437154
 20
9.4481562409
 30
0.0
 10
15.0281945593
 20
9.4817458678
 30
0.0
 10
15.0359382369
 20
9.5078378112
 30
0.0
 10
15.0417773114
 20
9.526830525
 30
0.0
 10
15.0476950242
 20
9.545407189
 30
0.0
 10
15.053688473
 20
9.5635584754
 30
0.0
 10
15.0597545734
 20
9.5812752691
 30
0.0
 10
15.0658903329
 20
9.5985486641
 30
0.0
 10
15.0720926021
 20
9.6153699941
 30
0.0
 10
15.0783583148
 20
9.6317308054
 30
0.0
 10
15.084684264
 20
9.6476228954
 30
0.0
 10
15.0910673137
 20
9.6630382824
 30
0.0
 10
15.0975042105
 20
9.6779692437
 30
0.0
 10
15.1039917518
 20
9.6924082884
 30
0.0
 10
15.1105266494
 20
9.706348189
 30
0.0
 10
15.1171056386
 20
9.7197819636
 30
0.0
 10
15.1237254091
 20
9.7327028951
 30
0.0
 10
15.130382642
 20
9.7451045283
 30
0.0
 10
15.1370740155
 20
9.7569806676
 30
0.0
 10
15.1437961633
 20
9.7683254027
 30
0.0
 10
15.150545772
 20
9.7791330775
 30
0.0
 10
15.1573194528
 20
9.7893983419
 30
0.0
 10
15.1641138976
 20
9.7991160639
 30
0.0
 10
15.170925682
 20
9.8082814664
 30
0.0
 10
15.1777515712
 20
9.8168900077
 30
0.0
 10
15.1845883081
 20
9.824937571
 30
0.0
 10
15.1914323826
 20
9.8324198149
 30
0.0
 10
15.1960925864
 20
9.8371244432
 30
0.0
 10
15.1984239885
 20
9.8393764048
 30
0.0
  0
SPLINE
  5
3AB
100
AcDbEntity
  8
0
100
AcDbSpline
 62
7
  6
CONTINUOUS
 70
0
 71
3
 72
98
 73
94
 74
0
 42
0.0000001
 43
0.0000001
 44
0.0000000001
 40
0.0
 40
0.0
 40
0.0
 40
0.0
 40
0.0027966045
 40
0.0056681121
 40
0.0086296107
 40
0.0116947045
 40
0.014875484
 40
0.0181825443
 40
0.021625117
 40
0.0252111069
 40
0.0289472819
 40
0.0328393376
 40
0.0368920304
 40
0.0411093052
 40
0.0454943274
 40
0.0500496538
 40
0.0547772165
 40
0.0596784556
 40
0.0647543461
 40
0.0700054263
 40
0.0754319028
 40
0.0810335948
 40
0.0868100596
 40
0.0927605472
 40
0.0988840563
 40
0.1051793695
 40
0.1116450131
 40
0.1182793584
 40
0.1250805445
 40
0.1320465633
 40
0.139175235
 40
0.1464642086
 40
0.1539110212
 40
0.1615130276
 40
0.177171325
 40
0.193415837
 40
0.2102212685
 40
0.2275606856
 40
0.2454056599
 40
0.2637263978
 40
0.2824918559
 40
0.3016698555
 40
0.32122719
 40
0.3411297247
 40
0.3613424931
 40
0.3818297904
 40
0.4025552635
 40
0.4234820031
 40
0.4445726354
 40
0.4657894103
 40
0.4870942885
 40
0.5084490293
 40
0.5298152772
 40
0.5511546512
 40
0.5724288324
 40
0.5935996502
 40
0.6146291701
 40
0.6354797806
 40
0.6561142829
 40
0.676495982
 40
0.6965887744
 40
0.7163572392
 40
0.7357667302
 40
0.7547834701
 40
0.7733746514
 40
0.7915085412
 40
0.8091545847
 40
0.8262835188
 40
0.8428674946
 40
0.8588802131
 40
0.8742970796
 40
0.8817750094
 40
0.8890956221
 40
0.8962564144
 40
0.9032549999
 40
0.9100891883
 40
0.9167569064
 40
0.9232562918
 40
0.9295856493
 40
0.9357434777
 40
0.9417285187
 40
0.9475397016
 40
0.9531762551
 40
0.9586376421
 40
0.9639236514
 40
0.9690344089
 40
0.9739703719
 40
0.9787324276
 40
0.9833218732
 40
0.9877406246
 40
0.9919911728
 40
0.9960764748
 40
1.0
 40
1.0
 40
1.0
 40
1.0
 10
15.0667237293
 20
7.8987173192
 30
0.0
 10
15.0652652832
 20
7.8992329572
 30
0.0
 10
15.0623513562
 20
7.9004007907
 30
0.0
 10
15.058068589
 20
7.9025184197
 30
0.0
 10
15.0538252096
 20
7.9050205213
 30
0.0
 10
15.0496235196
 20
7.9079053362
 30
0.0
 10
15.045465213
 20
7.9111711935
 30
0.0
 10
15.0413519877
 20
7.9148162155
 30
0.0
 10
15.0372856213
 20
7.9188385932
 30
0.0
 10
15.0332677307
 20
7.9232362471
 30
0.0
 10
15.0293000855
 20
7.928007105
 30
0.0
 10
15.0253843764
 20
7.9331488739
 30
0.0
 10
15.0215223099
 20
7.9386591234
 30
0.0
 10
15.0177156719
 20
7.9445352958
 30
0.0
 10
15.0139661102
 20
7.9507745944
 30
0.0
 10
15.0102754292
 20
7.9573741284
 30
0.0
 10
15.006645277
 20
7.9643307655
 30
0.0
 10
15.0030773784
 20
7.9716412404
 30
0.0
 10
14.9995734225
 20
7.9793021029
 30
0.0
 10
14.996135018
 20
7.9873097161
 30
0.0
 10
14.9927638646
 20
7.9956603035
 30
0.0
 10
14.9894614938
 20
8.0043498827
 30
0.0
 10
14.9862295365
 20
8.0133743366
 30
0.0
 10
14.9830695091
 20
8.0227293636
 30
0.0
 10
14.9799829163
 20
8.0324105079
 30
0.0
 10
14.9769712742
 20
8.0424131589
 30
0.0
 10
14.9740359683
 20
8.0527325373
 30
0.0
 10
14.9711784689
 20
8.0633637243
 30
0.0
 10
14.9684000961
 20
8.0743016363
 30
0.0
 10
14.9657022103
 20
8.0855410495
 30
0.0
 10
14.9630861088
 20
8.0970765917
 30
0.0
 10
14.9605530215
 20
8.1089027435
 30
0.0
 10
14.9581041993
 20
8.1210138616
 30
0.0
 10
14.9549216537
 20
8.1376986855
 30
0.0
 10
14.9511714665
 20
8.1592278959
 30
0.0
 10
14.9470682865
 20
8.185857685
 30
0.0
 10
14.9433270384
 20
8.2134793326
 30
0.0
 10
14.9399549509
 20
8.2420399497
 30
0.0
 10
14.9369585646
 20
8.2714849537
 30
0.0
 10
14.9343436876
 20
8.3017580106
 30
0.0
 10
14.9321153867
 20
8.3328011913
 30
0.0
 10
14.9302779798
 20
8.3645550746
 30
0.0
 10
14.9288350313
 20
8.3969588696
 30
0.0
 10
14.9277893453
 20
8.4299505343
 30
0.0
 10
14.9271429605
 20
8.463466895
 30
0.0
 10
14.9268971478
 20
8.4974437666
 30
0.0
 10
14.9270524019
 20
8.531816076
 30
0.0
 10
14.9276084434
 20
8.5665179885
 30
0.0
 10
14.9285642229
 20
8.6014830365
 30
0.0
 10
14.9299179227
 20
8.6366442472
 30
0.0
 10
14.9316669599
 20
8.6719342709
 30
0.0
 10
14.9338079933
 20
8.7072855094
 30
0.0
 10
14.9363369241
 20
8.7426302462
 30
0.0
 10
14.9392489046
 20
8.7779007782
 30
0.0
 10
14.942538352
 20
8.8130295454
 30
0.0
 10
14.9461989583
 20
8.8479492604
 30
0.0
 10
14.9502237019
 20
8.8825930371
 30
0.0
 10
14.9546048623
 20
8.9168945188
 30
0.0
 10
14.9593340307
 20
8.950788008
 30
0.0
 10
14.9644021243
 20
8.9842085938
 30
0.0
 10
14.9697994096
 20
9.0170922764
 30
0.0
 10
14.9755155191
 20
9.0493760885
 30
0.0
 10
14.9815394711
 20
9.0809982168
 30
0.0
 10
14.9878596914
 20
9.1118981216
 30
0.0
 10
14.9944640324
 20
9.1420166581
 30
0.0
 10
15.0013397928
 20
9.1712961926
 30
0.0
 10
15.0084737486
 20
9.1996807173
 30
0.0
 10
15.0158521768
 20
9.2271159447
 30
0.0
 10
15.0234608815
 20
9.2535494641
 30
0.0
 10
15.0312852244
 20
9.2789306739
 30
0.0
 10
15.038039369
 20
9.2993665403
 30
0.0
 10
15.0435461587
 20
9.3151469735
 30
0.0
 10
15.0476788191
 20
9.3265692275
 30
0.0
 10
15.0518539659
 20
9.3376932571
 30
0.0
 10
15.0560696619
 20
9.3485137428
 30
0.0
 10
15.0603238247
 20
9.3590255224
 30
0.0
 10
15.064614469
 20
9.369223563
 30
0.0
 10
15.0689395048
 20
9.3791030015
 30
0.0
 10
15.0732968664
 20
9.3886591219
 30
0.0
 10
15.0776844936
 20
9.3978873574
 30
0.0
 10
15.0821002373
 20
9.4067833243
 30
0.0
 10
15.0865420519
 20
9.4153427638
 30
0.0
 10
15.0910077546
 20
9.4235616224
 30
0.0
 10
15.0954952573
 20
9.4314359803
 30
0.0
 10
15.1000024191
 20
9.438962104
 30
0.0
 10
15.1045270812
 20
9.4461364397
 30
0.0
 10
15.1090671543
 20
9.4529555566
 30
0.0
 10
15.1136204074
 20
9.4594162565
 30
0.0
 10
15.1181847803
 20
9.4655154713
 30
0.0
 10
15.1227581471
 20
9.4712503896
 30
0.0
 10
15.1273384808
 20
9.476618347
 30
0.0
 10
15.131923447
 20
9.4816165653
 30
0.0
 10
15.1350437603
 20
9.4847632265
 30
0.0
 10
15.1366047305
 20
9.486271008
 30
0.0
  0
SPLINE
  5
3AC
100
AcDbEntity
  8
0
100
AcDbSpline
 62
7
  6
CONTINUOUS
 70
0
 71
3
 72
15
 73
11
 74
0
 42
0.0000001
 43
0.0000001
 44
0.0000000001
 40
0.0
 40
0.0
 40
0.0
 40
0.0
 40
0.1084409435
 40
0.2203195104
 40
0.3363915019
 40
0.457322426
 40
0.5836916023
 40
0.7159967326
 40
0.8546555032
 40
1.0
 40
1.0
 40
1.0
 40
1.0
 10
15.1785337862
 20
9.5109633669
 30
0.0
 10
15.1767877766
 20
9.5106069724
 30
0.0
 10
15.1732730738
 20
9.5097132784
 30
0.0
 10
15.1680518864
 20
9.5078779883
 30
0.0
 10
15.1628137988
 20
9.5055321643
 30
0.0
 10
15.1575624656
 20
9.502678429
 30
0.0
 10
15.1523006425
 20
9.4993190667
 30
0.0
 10
15.1470310834
 20
9.4954566274
 30
0.0
 10
15.1417569927
 20
9.4910939616
 30
0.0
 10
15.1383226332
 20
9.4879303747
 30
0.0
 10
15.1366047305
 20
9.486271008
 30
0.0
  0
SPLINE
  5
3AD
100
AcDbEntity
  8
0
100
AcDbSpline
 62
7
  6
CONTINUOUS
 70
0
 71
3
 72
23
 73
19
 74
0
 42
0.0000001
 43
0.0000001
 44
0.0000000001
 40
0.0
 40
0.0
 40
0.0
 40
0.0
 40
0.063776909
 40
0.1273449468
 40
0.1907019575
 40
0.2538561145
 40
0.3168131979
 40
0.3795820804
 40
0.4421733815
 40
0.5045993354
 40
0.5668738682
 40
0.6290123838
 40
0.6910316538
 40
0.75294965
 40
0.8147853622
 40
0.8765586114
 40
0.9382898593
 40
1.0
 40
1.0
 40
1.0
 40
1.0
 10
13.9997716212
 20
7.0587730489
 30
0.0
 10
13.9997716212
 20
7.0640804977
 30
0.0
 10
14.0000256652
 20
7.0746798113
 30
0.0
 10
14.0011722415
 20
7.0905142962
 30
0.0
 10
14.0030813237
 20
7.106223274
 30
0.0
 10
14.0057483238
 20
7.1217698456
 30
0.0
 10
14.009167296
 20
7.1371184785
 30
0.0
 10
14.013330333
 20
7.1522336917
 30
0.0
 10
14.0182278587
 20
7.1670806645
 30
0.0
 10
14.0238486243
 20
7.1816251592
 30
0.0
 10
14.030179719
 20
7.1958336222
 30
0.0
 10
14.0372065719
 20
7.2096732803
 30
0.0
 10
14.0449129788
 20
7.2231122177
 30
0.0
 10
14.0532811953
 20
7.2361194409
 30
0.0
 10
14.0622919273
 20
7.2486649039
 30
0.0
 10
14.0719245156
 20
7.2607197546
 30
0.0
 10
14.0821563516
 20
7.2722558169
 30
0.0
 10
14.089362688
 20
7.2795842937
 30
0.0
 10
14.0930563795
 20
7.2831521411
 30
0.0
  0
SPLINE
  5
3AE
100
AcDbEntity
  8
0
100
AcDbSpline
 62
7
  6
CONTINUOUS
 70
0
 71
3
 72
48
 73
44
 74
0
 42
0.0000001
 43
0.0000001
 44
0.0000000001
 40
0.0
 40
0.0
 40
0.0
 40
0.0
 40
0.0149718897
 40
0.0299468369
 40
0.0449278839
 40
0.0599180336
 40
0.0749202322
 40
0.0899373568
 40
0.1049721887
 40
0.1200274064
 40
0.1351055645
 40
0.1502090774
 40
0.1653402142
 40
0.180501073
 40
0.1956935825
 40
0.2109194836
 40
0.2261803205
 40
0.2414774416
 40
0.2568119786
 40
0.2721848576
 40
0.3030428416
 40
0.3340598877
 40
0.365235493
 40
0.3965657058
 40
0.4280432614
 40
0.4596577825
 40
0.4913960356
 40
0.5232422374
 40
0.5551784039
 40
0.5871847345
 40
0.6192400218
 40
0.6513220815
 40
0.6834081967
 40
0.7154755701
 40
0.7475017768
 40
0.7794652126
 40
0.8113455287
 40
0.8431240501
 40
0.8747841728
 40
0.9063117021
 40
0.9376953081
 40
0.9689262526
 40
1.0
 40
1.0
 40
1.0
 40
1.0
 10
14.5710438708
 20
6.7883067717
 30
0.0
 10
14.5681901772
 20
6.7855503035
 30
0.0
 10
14.5623719723
 20
6.7801496243
 30
0.0
 10
14.5533286398
 20
6.7724009905
 30
0.0
 10
14.5439808464
 20
6.7650143967
 30
0.0
 10
14.5343415539
 20
6.7580002816
 30
0.0
 10
14.5244240572
 20
6.7513681477
 30
0.0
 10
14.5142419689
 20
6.745127201
 30
0.0
 10
14.5038093149
 20
6.7392860035
 30
0.0
 10
14.4931404747
 20
6.7338525469
 30
0.0
 10
14.4822500866
 20
6.728834394
 30
0.0
 10
14.4711531903
 20
6.7242383288
 30
0.0
 10
14.4598650143
 20
6.7200707675
 30
0.0
 10
14.4484011153
 20
6.7163373812
 30
0.0
 10
14.4367772662
 20
6.7130432884
 30
0.0
 10
14.4250094469
 20
6.7101930841
 30
0.0
 10
14.4131138578
 20
6.7077905674
 30
0.0
 10
14.4011068983
 20
6.7058391518
 30
0.0
 10
14.3890048828
 20
6.7043414253
 30
0.0
 10
14.3727461359
 20
6.7029504903
 30
0.0
 10
14.3522629272
 20
6.7023591003
 30
0.0
 10
14.3276080002
 20
6.7034839154
 30
0.0
 10
14.3029781185
 20
6.7064354008
 30
0.0
 10
14.2785095384
 20
6.7111971463
 30
0.0
 10
14.2543363943
 20
6.7177426968
 30
0.0
 10
14.2305914739
 20
6.726035874
 30
0.0
 10
14.2074050979
 20
6.7360309388
 30
0.0
 10
14.1849045149
 20
6.7476728342
 30
0.0
 10
14.1632131829
 20
6.7608974951
 30
0.0
 10
14.1424501162
 20
6.7756322157
 30
0.0
 10
14.1227292383
 20
6.7917960417
 30
0.0
 10
14.1041587671
 20
6.8093002119
 30
0.0
 10
14.0868406271
 20
6.8280486381
 30
0.0
 10
14.0708698747
 20
6.84793841
 30
0.0
 10
14.0563342025
 20
6.8688603775
 30
0.0
 10
14.0433134617
 20
6.8906997394
 30
0.0
 10
14.0318792286
 20
6.9133366686
 30
0.0
 10
14.0220944154
 20
6.9366469466
 30
0.0
 10
14.0140129163
 20
6.9605026809
 30
0.0
 10
14.0076792694
 20
6.984772812
 30
0.0
 10
14.0031285523
 20
7.0093245198
 30
0.0
 10
14.0003859037
 20
7.0340212487
 30
0.0
 10
13.9997716212
 20
7.050538447
 30
0.0
 10
13.9997716212
 20
7.0587730489
 30
0.0
  0
SPLINE
  5
3AF
100
AcDbEntity
  8
0
100
AcDbSpline
 62
7
  6
CONTINUOUS
 70
0
 71
3
 72
100
 73
96
 74
0
 42
0.0000001
 43
0.0000001
 44
0.0000000001
 40
0.0
 40
0.0
 40
0.0
 40
0.0
 40
0.0038893829
 40
0.0079369618
 40
0.0121461202
 40
0.0165197828
 40
0.0210603963
 40
0.0257697902
 40
0.0306492656
 40
0.0356997065
 40
0.0409216052
 40
0.0463151263
 40
0.0518800783
 40
0.0576160156
 40
0.0635221917
 40
0.069597652
 40
0.0758411882
 40
0.0822514058
 40
0.0888267062
 40
0.0955653125
 40
0.1024652887
 40
0.1095245232
 40
0.1167407814
 40
0.1241116581
 40
0.1316346488
 40
0.1393070907
 40
0.1471262312
 40
0.1550891806
 40
0.1714343012
 40
0.1883175276
 40
0.205712244
 40
0.223590461
 40
0.2419229336
 40
0.2606792702
 40
0.2798280351
 40
0.2993368452
 40
0.3191724631
 40
0.3393008874
 40
0.35968744
 40
0.3802968532
 40
0.4010933542
 40
0.4220407496
 40
0.443102508
 40
0.4642418433
 40
0.485421797
 40
0.5066053204
 40
0.5277553567
 40
0.5488349235
 40
0.5698071946
 40
0.5906355832
 40
0.6112838243
 40
0.6317160577
 40
0.6518969122
 40
0.6717915901
 40
0.691365953
 40
0.7105866093
 40
0.7294210039
 40
0.7478375105
 40
0.765805528
 40
0.7832955821
 40
0.8002794331
 40
0.8167301915
 40
0.8326224453
 40
0.8403517343
 40
0.8479326081
 40
0.8553623896
 40
0.8626384924
 40
0.8697584898
 40
0.8767200671
 40
0.8835210723
 40
0.8901594987
 40
0.8966335023
 40
0.9029414251
 40
0.909081776
 40
0.9150532939
 40
0.9208549007
 40
0.926485791
 40
0.9319453793
 40
0.9372333924
 40
0.9423498387
 40
0.9472950827
 40
0.9520698565
 40
0.9566753064
 40
0.9611130575
 40
0.9653852342
 40
0.9694945761
 40
0.9734444483
 40
0.9772389936
 40
0.9808831575
 40
0.984382851
 40
0.9877450116
 40
0.9909777484
 40
0.9940904332
 40
0.9970937955
 40
1.0
 40
1.0
 40
1.0
 40
1.0
 10
15.1366047305
 20
7.5640784998
 30
0.0
 10
15.1388482351
 20
7.566245559
 30
0.0
 10
15.1433329501
 20
7.5707655246
 30
0.0
 10
15.149924533
 20
7.5779403011
 30
0.0
 10
15.1565095878
 20
7.5856397202
 30
0.0
 10
15.1630849336
 20
7.5938599099
 30
0.0
 10
15.1696476756
 20
7.6025972039
 30
0.0
 10
15.176194899
 20
7.6118476113
 30
0.0
 10
15.1827236041
 20
7.62160689
 30
0.0
 10
15.1892307521
 20
7.6318705428
 30
0.0
 10
15.1957133954
 20
7.6426338155
 30
0.0
 10
15.2021684814
 20
7.6538917672
 30
0.0
 10
15.2085930946
 20
7.6656391667
 30
0.0
 10
15.2149841723
 20
7.6778706024
 30
0.0
 10
15.2213388209
 20
7.6905803797
 30
0.0
 10
15.227654016
 20
7.7037626236
 30
0.0
 10
15.23392687
 20
7.7174111987
 30
0.0
 10
15.2401544235
 20
7.7315197742
 30
0.0
 10
15.2463337879
 20
7.7460817869
 30
0.0
 10
15.2524620847
 20
7.7610904643
 30
0.0
 10
15.2585364307
 20
7.7765388269
 30
0.0
 10
15.2645540299
 20
7.7924196776
 30
0.0
 10
15.2705120205
 20
7.808725631
 30
0.0
 10
15.2764076805
 20
7.8254490835
 30
0.0
 10
15.2822381946
 20
7.8425822549
 30
0.0
 10
15.2880008957
 20
7.8601171512
 30
0.0
 10
15.2936930579
 20
7.8780456196
 30
0.0
 10
15.3012506955
 20
7.9026780095
 30
0.0
 10
15.3104920035
 20
7.9343957603
 30
0.0
 10
15.3211645735
 20
7.9735684913
 30
0.0
 10
15.331494199
 20
8.0141030247
 30
0.0
 10
15.3414615364
 20
8.0559237577
 30
0.0
 10
15.3510479173
 20
8.0989528125
 30
0.0
 10
15.360235393
 20
8.1431099944
 30
0.0
 10
15.3690067648
 20
8.188312999
 30
0.0
 10
15.3773456171
 20
8.2344775542
 30
0.0
 10
15.3852363468
 20
8.2815175833
 30
0.0
 10
15.3926641932
 20
8.3293453663
 30
0.0
 10
15.3996152652
 20
8.377871706
 30
0.0
 10
15.4060765662
 20
8.4270060958
 30
0.0
 10
15.4120360181
 20
8.4766568902
 30
0.0
 10
15.4174824837
 20
8.5267314766
 30
0.0
 10
15.4224057873
 20
8.5771364489
 30
0.0
 10
15.4267967332
 20
8.6277777825
 30
0.0
 10
15.4306471234
 20
8.67856101
 30
0.0
 10
15.4339497723
 20
8.7293913985
 30
0.0
 10
15.4366985203
 20
8.7801741261
 30
0.0
 10
15.4388882454
 20
8.8308144602
 30
0.0
 10
15.4405148734
 20
8.8812179346
 30
0.0
 10
15.4415753861
 20
8.9312905267
 30
0.0
 10
15.4420678258
 20
8.9809388339
 30
0.0
 10
15.4419912996
 20
9.0300702482
 30
0.0
 10
15.4413459815
 20
9.07859313
 30
0.0
 10
15.4401331126
 20
9.1264169799
 30
0.0
 10
15.4383549986
 20
9.1734526092
 30
0.0
 10
15.4360150069
 20
9.2196123068
 30
0.0
 10
15.4331175602
 20
9.2648100057
 30
0.0
 10
15.4296681295
 20
9.3089614444
 30
0.0
 10
15.4256732245
 20
9.3519843319
 30
0.0
 10
15.4211403812
 20
9.3937984894
 30
0.0
 10
15.416078156
 20
9.4343260624
 30
0.0
 10
15.4104960817
 20
9.473491465
 30
0.0
 10
15.4053737611
 20
9.5052200212
 30
0.0
 10
15.401014237
 20
9.5298614426
 30
0.0
 10
15.3976515566
 20
9.5477860823
 30
0.0
 10
15.3941672523
 20
9.5653170749
 30
0.0
 10
15.3905628774
 20
9.5824462676
 30
0.0
 10
15.386840174
 20
9.5991656777
 30
0.0
 10
15.3830008426
 20
9.6154675194
 30
0.0
 10
15.3790467021
 20
9.6313442029
 30
0.0
 10
15.3749795961
 20
9.6467883395
 30
0.0
 10
15.3708014101
 20
9.6617927418
 30
0.0
 10
15.3665141307
 20
9.6763504362
 30
0.0
 10
15.3621197067
 20
9.6904546503
 30
0.0
 10
15.3576202554
 20
9.7040988418
 30
0.0
 10
15.3530177974
 20
9.7172766665
 30
0.0
 10
15.3483145547
 20
9.7299820269
 30
0.0
 10
15.3435126379
 20
9.7422090236
 30
0.0
 10
15.338614339
 20
9.7539520125
 30
0.0
 10
15.3336218767
 20
9.7652055579
 30
0.0
 10
15.3285375791
 20
9.7759644741
 30
0.0
 10
15.32336378
 20
9.7862238086
 30
0.0
 10
15.318102818
 20
9.7959788359
 30
0.0
 10
15.3127571309
 20
9.8052251025
 30
0.0
 10
15.3073290523
 20
9.8139583426
 30
0.0
 10
15.3018210907
 20
9.8221746063
 30
0.0
 10
15.2962355708
 20
9.8298700843
 30
0.0
 10
15.2905750175
 20
9.8370413101
 30
0.0
 10
15.2848417534
 20
9.8436849226
 30
0.0
 10
15.279038263
 20
9.8497978781
 30
0.0
 10
15.2731668748
 20
9.855377238
 30
0.0
 10
15.2672300423
 20
9.860420264
 30
0.0
 10
15.2612300324
 20
9.8649244346
 30
0.0
 10
15.255169746
 20
9.8688869914
 30
0.0
 10
15.2510282257
 20
9.87120115
 30
0.0
 10
15.2489523439
 20
9.8722608495
 30
0.0
  0
SPLINE
  5
3B0
100
AcDbEntity
  8
0
100
AcDbSpline
 62
7
  6
CONTINUOUS
 70
0
 71
3
 72
15
 73
11
 74
0
 42
0.0000001
 43
0.0000001
 44
0.0000000001
 40
0.0
 40
0.0
 40
0.0
 40
0.0
 40
0.1421390837
 40
0.2788503626
 40
0.4103426683
 40
0.5368711805
 40
0.6587359391
 40
0.7762792764
 40
0.8898886928
 40
1.0
 40
1.0
 40
1.0
 40
1.0
 10
15.1366047305
 20
7.5640784998
 30
0.0
 10
15.1345269144
 20
7.5620714835
 30
0.0
 10
15.1303725285
 20
7.5582137543
 30
0.0
 10
15.124018848
 20
7.5528073754
 30
0.0
 10
15.1176692699
 20
7.5478986241
 30
0.0
 10
15.1113265726
 20
7.5434899495
 30
0.0
 10
15.1049932007
 20
7.5395833724
 30
0.0
 10
15.0986714426
 20
7.5361807816
 30
0.0
 10
15.0923642855
 20
7.5332841079
 30
0.0
 10
15.0881094869
 20
7.5316682414
 30
0.0
 10
15.0859898813
 20
7.5309502448
 30
0.0
  0
SPLINE
  5
3B1
100
AcDbEntity
  8
0
100
AcDbSpline
 62
7
  6
CONTINUOUS
 70
0
 71
3
 72
23
 73
19
 74
0
 42
0.0000001
 43
0.0000001
 44
0.0000000001
 40
0.0
 40
0.0
 40
0.0
 40
0.0
 40
0.0781377872
 40
0.1532326428
 40
0.2254045199
 40
0.2947995079
 40
0.3615913906
 40
0.4259789214
 40
0.4881875913
 40
0.5484706304
 40
0.6071105645
 40
0.6644174891
 40
0.7207257753
 40
0.7763897945
 40
0.8317772593
 40
0.887261997
 40
0.9432156672
 40
1.0
 40
1.0
 40
1.0
 40
1.0
 10
15.1366047305
 20
7.9214710767
 30
0.0
 10
15.1351497329
 20
7.9200656568
 30
0.0
 10
15.13224062
 20
7.917366424
 30
0.0
 10
15.1277896416
 20
7.9135894503
 30
0.0
 10
15.1233416211
 20
7.9101682524
 30
0.0
 10
15.1188985775
 20
7.9071046858
 30
0.0
 10
15.1144623136
 20
7.9044001704
 30
0.0
 10
15.1100345311
 20
7.9020561659
 30
0.0
 10
15.105617094
 20
7.9000739115
 30
0.0
 10
15.1012118511
 20
7.8984547772
 30
0.0
 10
15.0968208119
 20
7.8971999254
 30
0.0
 10
15.0924460991
 20
7.8963103492
 30
0.0
 10
15.088089967
 20
7.8957870107
 30
0.0
 10
15.0837548499
 20
7.8956303792
 30
0.0
 10
15.0794432965
 20
7.8958408446
 30
0.0
 10
15.0751577975
 20
7.8964182896
 30
0.0
 10
15.0709011982
 20
7.8973621231
 30
0.0
 10
15.0681097537
 20
7.8982272862
 30
0.0
 10
15.0667237293
 20
7.8987173192
 30
0.0
  0
SPLINE
  5
3B2
100
AcDbEntity
  8
0
100
AcDbSpline
 62
7
  6
CONTINUOUS
 70
0
 71
3
 72
23
 73
19
 74
0
 42
0.0000001
 43
0.0000001
 44
0.0000000001
 40
0.0
 40
0.0
 40
0.0
 40
0.0
 40
0.0764224449
 40
0.1504663304
 40
0.2222018644
 40
0.2917109085
 40
0.3590900072
 40
0.4244474941
 40
0.4879039322
 40
0.5495927797
 40
0.6096609977
 40
0.6682702188
 40
0.7255962294
 40
0.7818281329
 40
0.8371677443
 40
0.8918276443
 40
0.9460291863
 40
1.0
 40
1.0
 40
1.0
 40
1.0
 10
15.1984239885
 20
7.5597913197
 30
0.0
 10
15.1967293446
 20
7.5581544193
 30
0.0
 10
15.1933407286
 20
7.5549848546
 30
0.0
 10
15.1881770616
 20
7.5504809392
 30
0.0
 10
15.1830157343
 20
7.5463051818
 30
0.0
 10
15.1778582892
 20
7.5424590484
 30
0.0
 10
15.1727061588
 20
7.5389436178
 30
0.0
 10
15.1675606479
 20
7.535759949
 30
0.0
 10
15.1624231018
 20
7.5329090252
 30
0.0
 10
15.1572949324
 20
7.5303917329
 30
0.0
 10
15.1521775107
 20
7.5282090318
 30
0.0
 10
15.1470722842
 20
7.5263617099
 30
0.0
 10
15.1419807246
 20
7.52485046
 30
0.0
 10
15.1369043073
 20
7.5236760204
 30
0.0
 10
15.1318446408
 20
7.5228388738
 30
0.0
 10
15.1268032579
 20
7.5223394664
 30
0.0
 10
15.1217821307
 20
7.5221781488
 30
0.0
 10
15.118446245
 20
7.5222961644
 30
0.0
 10
15.1167863069
 20
7.5224112871
 30
0.0
  0
SPLINE
  5
3B3
100
AcDbEntity
  8
0
100
AcDbSpline
 62
7
  6
CONTINUOUS
 70
0
 71
3
 72
101
 73
97
 74
0
 42
0.0000001
 43
0.0000001
 44
0.0000000001
 40
0.0
 40
0.0
 40
0.0
 40
0.0
 40
0.0040523204
 40
0.0082800102
 40
0.0126869618
 40
0.0172764741
 40
0.0220512743
 40
0.0270133701
 40
0.0321640975
 40
0.0375043108
 40
0.0430343724
 40
0.0487542797
 40
0.0546635975
 40
0.0607615842
 40
0.067047165
 40
0.0735189838
 40
0.0801754365
 40
0.087014644
 40
0.0940345454
 40
0.1012328208
 40
0.1086070004
 40
0.1161543931
 40
0.1238721575
 40
0.1317572831
 40
0.1480165659
 40
0.1649054499
 40
0.1823947749
 40
0.2004534686
 40
0.2190487217
 40
0.2381461467
 40
0.257709921
 40
0.2777029247
 40
0.2980868697
 40
0.3188224229
 40
0.3398693251
 40
0.3611865075
 40
0.3827322047
 40
0.4044640677
 40
0.4263392743
 40
0.4483146404
 40
0.4703467305
 40
0.4923919669
 40
0.514406739
 40
0.5363475128
 40
0.5581709395
 40
0.5798339656
 40
0.6012939432
 40
0.6225087417
 40
0.6434368587
 40
0.6640375334
 40
0.6842708604
 40
0.7040979076
 40
0.7234808361
 40
0.7423830252
 40
0.7607692049
 40
0.7786055963
 40
0.7958600603
 40
0.812502262
 40
0.8205849436
 40
0.8285040926
 40
0.8362565301
 40
0.8438391998
 40
0.8512492221
 40
0.8584838906
 40
0.8655406607
 40
0.8724172169
 40
0.8791114049
 40
0.8856213423
 40
0.8919453402
 40
0.8980820034
 40
0.9040301982
 40
0.909789098
 40
0.9153582309
 40
0.9207374596
 40
0.9259271041
 40
0.9309278891
 40
0.9357410979
 40
0.9403685491
 40
0.9448127297
 40
0.9490768541
 40
0.9531649513
 40
0.9570820214
 40
0.9608340901
 40
0.9644284321
 40
0.9678736327
 40
0.9711798082
 40
0.9743586939
 40
0.9774237776
 40
0.9803903591
 40
0.9832755083
 40
0.9860979693
 40
0.9888778739
 40
0.9916363888
 40
0.9943952128
 40
0.9971760375
 40
1.0
 40
1.0
 40
1.0
 40
1.0
 10
15.1366047305
 20
7.9214710767
 30
0.0
 10
15.138244497
 20
7.9230549696
 30
0.0
 10
15.1415221217
 20
7.9263674379
 30
0.0
 10
15.1463332538
 20
7.9316421562
 30
0.0
 10
15.1511389982
 20
7.9373237248
 30
0.0
 10
15.1559367144
 20
7.943408915
 30
0.0
 10
15.1607240375
 20
7.9498946485
 30
0.0
 10
15.1654985462
 20
7.9567776021
 30
0.0
 10
15.170257813
 20
7.9640541962
 30
0.0
 10
15.1749992857
 20
7.9717206624
 30
0.0
 10
15.1797205714
 20
7.9797729685
 30
0.0
 10
15.1844191308
 20
7.9882069466
 30
0.0
 10
15.1890925702
 20
7.9970181646
 30
0.0
 10
15.1937383865
 20
8.0062020272
 30
0.0
 10
15.1983541581
 20
8.0157537126
 30
0.0
 10
15.2029374605
 20
8.0256682099
 30
0.0
 10
15.2074858484
 20
8.0359403211
 30
0.0
 10
15.2119969736
 20
8.0465646378
 30
0.0
 10
15.2164683935
 20
8.0575355887
 30
0.0
 10
15.2208978129
 20
8.0688473891
 30
0.0
 10
15.2252828369
 20
8.0804940986
 30
0.0
 10
15.2296211878
 20
8.0924695755
 30
0.0
 10
15.2339105702
 20
8.104767528
 30
0.0
 10
15.2396197407
 20
8.121759885
 30
0.0
 10
15.2466078548
 20
8.1437638931
 30
0.0
 10
15.2546796122
 20
8.1710866644
 30
0.0
 10
15.2625035675
 20
8.1995326744
 30
0.0
 10
15.270063139
 20
8.2290419596
 30
0.0
 10
15.2773423033
 20
8.2595524292
 30
0.0
 10
15.284325636
 20
8.2909998123
 30
0.0
 10
15.2909983452
 20
8.3233178507
 30
0.0
 10
15.2973463015
 20
8.3564384289
 30
0.0
 10
15.3033560663
 20
8.3902917267
 30
0.0
 10
15.3090149205
 20
8.4248063681
 30
0.0
 10
15.3143108907
 20
8.4599095742
 30
0.0
 10
15.3192327739
 20
8.4955273177
 30
0.0
 10
15.323770161
 20
8.5315844802
 30
0.0
 10
15.3279134582
 20
8.5680050114
 30
0.0
 10
15.3316539088
 20
8.6047120905
 30
0.0
 10
15.3349836119
 20
8.6416282889
 30
0.0
 10
15.3378955364
 20
8.6786757358
 30
0.0
 10
15.3403835369
 20
8.7157762827
 30
0.0
 10
15.3424423658
 20
8.752851669
 30
0.0
 10
15.3440676852
 20
8.7898236871
 30
0.0
 10
15.3452560757
 20
8.8266143477
 30
0.0
 10
15.3460050435
 20
8.8631460451
 30
0.0
 10
15.3463130276
 20
8.8993417227
 30
0.0
 10
15.3461794042
 20
8.935125036
 30
0.0
 10
15.3456044859
 20
8.9704205155
 30
0.0
 10
15.344589522
 20
9.0051537261
 30
0.0
 10
15.343136696
 20
9.0392514254
 30
0.0
 10
15.341249122
 20
9.0726417196
 30
0.0
 10
15.3389308385
 20
9.1052542163
 30
0.0
 10
15.336186801
 20
9.1370201796
 30
0.0
 10
15.3330228708
 20
9.1678726665
 30
0.0
 10
15.3294458133
 20
9.1977467213
 30
0.0
 10
15.3254632547
 20
9.2265793474
 30
0.0
 10
15.3217787897
 20
9.2499093252
 30
0.0
 10
15.3186270097
 20
9.2680025217
 30
0.0
 10
15.3161901875
 20
9.2811427895
 30
0.0
 10
15.3136587532
 20
9.2939785606
 30
0.0
 10
15.3110340053
 20
9.3065030857
 30
0.0
 10
15.3083173419
 20
9.3187097647
 30
0.0
 10
15.3055102169
 20
9.3305921725
 30
0.0
 10
15.3026140755
 20
9.3421440519
 30
0.0
 10
15.2996305062
 20
9.3533593293
 30
0.0
 10
15.2965610188
 20
9.3642321009
 30
0.0
 10
15.2934073018
 20
9.3747566588
 30
0.0
 10
15.2901709637
 20
9.3849274693
 30
0.0
 10
15.2868537481
 20
9.3947391992
 30
0.0
 10
15.2834573912
 20
9.4041867038
 30
0.0
 10
15.2799836613
 20
9.4132650309
 30
0.0
 10
15.2764344264
 20
9.4219694437
 30
0.0
 10
15.2728114754
 20
9.4302953797
 30
0.0
 10
15.269116779
 20
9.4382385223
 30
0.0
 10
15.2653521707
 20
9.4457947153
 30
0.0
 10
15.2615196647
 20
9.4529600614
 30
0.0
 10
15.2576211728
 20
9.4597308347
 30
0.0
 10
15.25365869
 20
9.4661035432
 30
0.0
 10
15.2496342165
 20
9.4720749111
 30
0.0
 10
15.2455496877
 20
9.4776418295
 30
0.0
 10
15.2414071614
 20
9.4828014689
 30
0.0
 10
15.2372085103
 20
9.4875510764
 30
0.0
 10
15.2329557839
 20
9.491888211
 30
0.0
 10
15.2286508352
 20
9.4958104444
 30
0.0
 10
15.2242956591
 20
9.4993155964
 30
0.0
 10
15.219892184
 20
9.5024015139
 30
0.0
 10
15.2154424254
 20
9.5050661277
 30
0.0
 10
15.210948563
 20
9.5073075255
 30
0.0
 10
15.2064128887
 20
9.5091237281
 30
0.0
 10
15.2018380676
 20
9.5105131736
 30
0.0
 10
15.1972269434
 20
9.5114742858
 30
0.0
 10
15.1925827528
 20
9.512006195
 30
0.0
 10
15.1879087067
 20
9.5121082662
 30
0.0
 10
15.1832086391
 20
9.5117806908
 30
0.0
 10
15.1800904346
 20
9.5112811092
 30
0.0
 10
15.1785337862
 20
9.5109633669
 30
0.0
  0
SPLINE
  5
3B4
100
AcDbEntity
  8
0
100
AcDbSpline
 62
7
  6
CONTINUOUS
 70
0
 71
3
 72
107
 73
103
 74
0
 42
0.0000001
 43
0.0000001
 44
0.0000000001
 40
0.0
 40
0.0
 40
0.0
 40
0.0
 40
0.0013572612
 40
0.0027170797
 40
0.0040819966
 40
0.0054545211
 40
0.0068371186
 40
0.0082321971
 40
0.0110684612
 40
0.013981638
 40
0.0169879164
 40
0.0201018459
 40
0.0233363318
 40
0.0267026481
 40
0.0302105686
 40
0.0338684409
 40
0.0376833717
 40
0.0416613006
 40
0.0458071887
 40
0.0501250693
 40
0.0546182177
 40
0.0592891779
 40
0.0641399047
 40
0.0691717748
 40
0.0743856998
 40
0.0797821307
 40
0.085361142
 40
0.0911224386
 40
0.0970654107
 40
0.1031891498
 40
0.1094924768
 40
0.1159739692
 40
0.1226319653
 40
0.129464604
 40
0.1364698079
 40
0.1436453353
 40
0.1509887461
 40
0.1584974632
 40
0.1661687264
 40
0.1739996594
 40
0.1819872169
 40
0.190128253
 40
0.198419467
 40
0.2068574681
 40
0.2154387256
 40
0.2330162676
 40
0.251122054
 40
0.2697243673
 40
0.2887901232
 40
0.3082849955
 40
0.3281735335
 40
0.3484192745
 40
0.368984852
 40
0.3898321014
 40
0.4109221623
 40
0.4322155806
 40
0.4536724082
 40
0.4752523025
 40
0.4969146253
 40
0.5186185408
 40
0.5403231135
 40
0.5619874067
 40
0.5835705797
 40
0.6050319862
 40
0.6263312728
 40
0.647428477
 40
0.6682841272
 40
0.6888593425
 40
0.7091159341
 40
0.7290165084
 40
0.748524572
 40
0.7676046402
 40
0.7862223487
 40
0.8043445717
 40
0.8219395458
 40
0.8389770046
 40
0.8472777515
 40
0.8554285212
 40
0.8634260347
 40
0.8712671072
 40
0.8789487159
 40
0.8864679446
 40
0.8938220534
 40
0.9010084264
 40
0.9080246393
 40
0.914868415
 40
0.9215376844
 40
0.9280305565
 40
0.9343453681
 40
0.9404806728
 40
0.9464352792
 40
0.9522082616
 40
0.9577989849
 40
0.9632071405
 40
0.9684327659
 40
0.9734763106
 40
0.9783386302
 40
0.9830210709
 40
0.9875255286
 40
0.9918546207
 40
0.996011541
 40
1.0
 40
1.0
 40
1.0
 40
1.0
 10
15.2800616702
 20
9.8767564375
 30
0.0
 10
15.2811620709
 20
9.8766801207
 30
0.0
 10
15.2833618349
 20
9.8764778609
 30
0.0
 10
15.2866494462
 20
9.8760262668
 30
0.0
 10
15.2899259416
 20
9.8754264481
 30
0.0
 10
15.2931907763
 20
9.8746785221
 30
0.0
 10
15.2964435939
 20
9.873782563
 30
0.0
 10
15.3007873825
 20
9.8723832809
 30
0.0
 10
15.3061967684
 20
9.8702535175
 30
0.0
 10
15.3125939147
 20
9.8671214217
 30
0.0
 10
15.3189305158
 20
9.8634010912
 30
0.0
 10
15.3252033167
 20
9.8590953041
 30
0.0
 10
15.3314095784
 20
9.8542066998
 30
0.0
 10
15.3375466627
 20
9.8487382179
 30
0.0
 10
15.3436118452
 20
9.8426927621
 30
0.0
 10
15.3496025716
 20
9.8360735679
 30
0.0
 10
15.3555160835
 20
9.8288839157
 30
0.0
 10
15.3613498052
 20
9.821127459
 30
0.0
 10
15.3671009404
 20
9.8128079682
 30
0.0
 10
15.3727668892
 20
9.8039295947
 30
0.0
 10
15.3783448547
 20
9.7944966603
 30
0.0
 10
15.3838322364
 20
9.7845138522
 30
0.0
 10
15.3892262792
 20
9.7739860655
 30
0.0
 10
15.3945244073
 20
9.7629185341
 30
0.0
 10
15.3997239412
 20
9.7513167247
 30
0.0
 10
15.4048223509
 20
9.7391864159
 30
0.0
 10
15.4098170556
 20
9.7265336341
 30
0.0
 10
15.4147055879
 20
9.7133646935
 30
0.0
 10
15.4194854811
 20
9.6996861633
 30
0.0
 10
15.4241543434
 20
9.6855048813
 30
0.0
 10
15.428709832
 20
9.6708279413
 30
0.0
 10
15.433149642
 20
9.6556626906
 30
0.0
 10
15.4374715608
 20
9.6400167288
 30
0.0
 10
15.4416733801
 20
9.6238978977
 30
0.0
 10
15.4457530209
 20
9.6073142838
 30
0.0
 10
15.4497083814
 20
9.5902742067
 30
0.0
 10
15.4535375174
 20
9.5727862211
 30
0.0
 10
15.4572384428
 20
9.5548591072
 30
0.0
 10
15.4608093489
 20
9.5365018686
 30
0.0
 10
15.464248374
 20
9.5177237277
 30
0.0
 10
15.467553844
 20
9.4985341182
 30
0.0
 10
15.4707240315
 20
9.4789426842
 30
0.0
 10
15.473757392
 20
9.4589592735
 30
0.0
 10
15.4766523545
 20
9.4385939189
 30
0.0
 10
15.48035542
 20
9.4107217459
 30
0.0
 10
15.484617692
 20
9.3749994292
 30
0.0
 10
15.4891184808
 20
9.3311099038
 30
0.0
 10
15.4930360541
 20
9.28595041
 30
0.0
 10
15.4963624587
 20
9.239611789
 30
0.0
 10
15.4990909117
 20
9.192187137
 30
0.0
 10
15.5012158522
 20
9.14377179
 30
0.0
 10
15.5027329406
 20
9.09446308
 30
0.0
 10
15.5036390697
 20
9.0443601497
 30
0.0
 10
15.5039323692
 20
8.9935637472
 30
0.0
 10
15.5036122092
 20
8.9421760228
 30
0.0
 10
15.5026792007
 20
8.8903003216
 30
0.0
 10
15.5011351938
 20
8.8380409743
 30
0.0
 10
15.4989832742
 20
8.7855030865
 30
0.0
 10
15.4962277557
 20
8.7327923263
 30
0.0
 10
15.4928741721
 20
8.6800147106
 30
0.0
 10
15.4889292657
 20
8.6272763914
 30
0.0
 10
15.4844009736
 20
8.5746834412
 30
0.0
 10
15.4792984114
 20
8.5223416392
 30
0.0
 10
15.4736318556
 20
8.4703562572
 30
0.0
 10
15.4674127224
 20
8.4188318472
 30
0.0
 10
15.4606535452
 20
8.3678720303
 30
0.0
 10
15.4533679498
 20
8.3175792868
 30
0.0
 10
15.4455706267
 20
8.2680547488
 30
0.0
 10
15.4372773027
 20
8.2193979954
 30
0.0
 10
15.428504709
 20
8.1717068502
 30
0.0
 10
15.4192705481
 20
8.1250771832
 30
0.0
 10
15.409593459
 20
8.0796027113
 30
0.0
 10
15.3994929796
 20
8.0353748215
 30
0.0
 10
15.3889895086
 20
7.9924823272
 30
0.0
 10
15.3781042616
 20
7.9510114837
 30
0.0
 10
15.3686534178
 20
7.9174218568
 30
0.0
 10
15.3609097402
 20
7.8913299134
 30
0.0
 10
15.3550706656
 20
7.8723371995
 30
0.0
 10
15.3491529528
 20
7.8537605356
 30
0.0
 10
15.3431595041
 20
7.8356092491
 30
0.0
 10
15.3370934036
 20
7.8178924554
 30
0.0
 10
15.3309576441
 20
7.8006190605
 30
0.0
 10
15.324755375
 20
7.7837977305
 30
0.0
 10
15.3184896623
 20
7.7674369192
 30
0.0
 10
15.312163713
 20
7.7515448292
 30
0.0
 10
15.3057806633
 20
7.7361294422
 30
0.0
 10
15.2993437665
 20
7.7211984808
 30
0.0
 10
15.2928562253
 20
7.7067594362
 30
0.0
 10
15.2863213277
 20
7.6928195356
 30
0.0
 10
15.2797423385
 20
7.679385761
 30
0.0
 10
15.2731225679
 20
7.6664648294
 30
0.0
 10
15.2664653351
 20
7.6540631963
 30
0.0
 10
15.2597739615
 20
7.642187057
 30
0.0
 10
15.2530518138
 20
7.6308423218
 30
0.0
 10
15.246302205
 20
7.620034647
 30
0.0
 10
15.2395285242
 20
7.6097693827
 30
0.0
 10
15.2327340794
 20
7.6000516607
 30
0.0
 10
15.225922295
 20
7.5908862581
 30
0.0
 10
15.2190964059
 20
7.5822777168
 30
0.0
 10
15.212259669
 20
7.5742301536
 30
0.0
 10
15.2054155945
 20
7.5667479097
 30
0.0
 10
15.2007553907
 20
7.5620432814
 30
0.0
 10
15.1984239885
 20
7.5597913197
 30
0.0
  0
SPLINE
  5
3B5
100
AcDbEntity
  8
0
100
AcDbSpline
 62
7
  6
CONTINUOUS
 70
0
 71
3
 72
61
 73
57
 74
0
 42
0.0000001
 43
0.0000001
 44
0.0000000001
 40
0.0
 40
0.0
 40
0.0
 40
0.0
 40
0.0103068114
 40
0.0210668586
 40
0.0322750661
 40
0.0439250788
 40
0.056009478
 40
0.0685198016
 40
0.0814466755
 40
0.0947799139
 40
0.1085085091
 40
0.1226207763
 40
0.1371043528
 40
0.151946239
 40
0.1671328956
 40
0.182650206
 40
0.1984835694
 40
0.2146179236
 40
0.231037739
 40
0.2477271102
 40
0.2646697322
 40
0.2818489485
 40
0.2992477969
 40
0.3168489917
 40
0.3525876602
 40
0.3889221694
 40
0.4257062273
 40
0.4627912022
 40
0.5000269037
 40
0.5372623674
 40
0.5743466309
 40
0.6111295077
 40
0.6474623698
 40
0.6831989345
 40
0.7007989138
 40
0.7181964315
 40
0.7353742126
 40
0.7523152958
 40
0.7690030171
 40
0.7854210897
 40
0.8015535971
 40
0.8173850167
 40
0.8329002969
 40
0.8480848222
 40
0.862924499
 40
0.8774057815
 40
0.8915156673
 40
0.905241817
 40
0.918572528
 40
0.9314968125
 40
0.94400449
 40
0.9560861741
 40
0.9677334349
 40
0.978938841
 40
0.9896960473
 40
1.0
 40
1.0
 40
1.0
 40
1.0
 10
14.9717825391
 20
8.061368727
 30
0.0
 10
14.9738952194
 20
8.0654044044
 30
0.0
 10
14.9780954481
 20
8.0737154488
 30
0.0
 10
14.9842013133
 20
8.0866084425
 30
0.0
 10
14.9902426067
 20
8.1001842426
 30
0.0
 10
14.9962127828
 20
8.1144281385
 30
0.0
 10
15.0021053584
 20
8.1293248851
 30
0.0
 10
15.0079139686
 20
8.1448584429
 30
0.0
 10
15.0136323329
 20
8.1610120887
 30
0.0
 10
15.0192542161
 20
8.1777684226
 30
0.0
 10
15.0247735648
 20
8.1951093674
 30
0.0
 10
15.0301843703
 20
8.2130162178
 30
0.0
 10
15.0354807623
 20
8.231469646
 30
0.0
 10
15.0406570262
 20
8.2504497229
 30
0.0
 10
15.0457075124
 20
8.2699359541
 30
0.0
 10
15.0506267732
 20
8.2899072847
 30
0.0
 10
15.0554094731
 20
8.3103421355
 30
0.0
 10
15.0600504063
 20
8.3312184261
 30
0.0
 10
15.064544577
 20
8.3525135895
 30
0.0
 10
15.0688870867
 20
8.3742046093
 30
0.0
 10
15.0730732398
 20
8.3962680379
 30
0.0
 10
15.0770985118
 20
8.4186800159
 30
0.0
 10
15.0809585269
 20
8.4414163347
 30
0.0
 10
15.0859042374
 20
8.4722869365
 30
0.0
 10
15.0916366299
 20
8.5115052784
 30
0.0
 10
15.09776009
 20
8.5592271964
 30
0.0
 10
15.1031357736
 20
8.6076378485
 30
0.0
 10
15.1077403688
 20
8.6565279091
 30
0.0
 10
15.1115539225
 20
8.705686111
 30
0.0
 10
15.1145599411
 20
8.7548999796
 30
0.0
 10
15.1167454465
 20
8.803956798
 30
0.0
 10
15.1181010466
 20
8.8526445704
 30
0.0
 10
15.1186209418
 20
8.9007527634
 30
0.0
 10
15.1183547762
 20
8.9403847436
 30
0.0
 10
15.1177159239
 20
8.9716404228
 30
0.0
 10
15.1170299833
 20
8.9946901135
 30
0.0
 10
15.1161356112
 20
9.0174412241
 30
0.0
 10
15.1150337955
 20
9.0398691751
 30
0.0
 10
15.1137257078
 20
9.0619497144
 30
0.0
 10
15.1122127952
 20
9.0836589719
 30
0.0
 10
15.1104967055
 20
9.1049734792
 30
0.0
 10
15.1085792831
 20
9.1258701982
 30
0.0
 10
15.1064626505
 20
9.1463265433
 30
0.0
 10
15.1041490835
 20
9.1663204094
 30
0.0
 10
15.1016411071
 20
9.1858301947
 30
0.0
 10
15.098941471
 20
9.204834824
 30
0.0
 10
15.0960530759
 20
9.223313773
 30
0.0
 10
15.0929791016
 20
9.2412470934
 30
0.0
 10
15.0897228798
 20
9.2586154325
 30
0.0
 10
15.0862879381
 20
9.2754000558
 30
0.0
 10
15.0826780524
 20
9.2915828733
 30
0.0
 10
15.0788971052
 20
9.3071464556
 30
0.0
 10
15.0749492326
 20
9.3220740485
 30
0.0
 10
15.0708387182
 20
9.3363496586
 30
0.0
 10
15.0665700188
 20
9.3499578151
 30
0.0
 10
15.0635565676
 20
9.3587661977
 30
0.0
 10
15.0620208497
 20
9.3630534079
 30
0.0
  0
SPLINE
  5
3B6
100
AcDbEntity
  8
0
100
AcDbSpline
 62
7
  6
CONTINUOUS
 70
0
 71
3
 72
45
 73
41
 74
0
 42
0.0000001
 43
0.0000001
 44
0.0000000001
 40
0.0
 40
0.0
 40
0.0
 40
0.0
 40
0.0122750545
 40
0.02485071
 40
0.037720311
 40
0.0508769427
 40
0.0643132999
 40
0.0780218492
 40
0.1062234351
 40
0.1354161664
 40
0.1655302728
 40
0.1964925443
 40
0.2282266982
 40
0.2606537235
 40
0.2936922087
 40
0.3272586582
 40
0.3612678003
 40
0.3956328901
 40
0.4302660073
 40
0.4650783519
 40
0.4999805386
 40
0.5348828889
 40
0.569695724
 40
0.6043296568
 40
0.6386958847
 40
0.6727064838
 40
0.7062747041
 40
0.7393152681
 40
0.7717446733
 40
0.8034814999
 40
0.8344467274
 40
0.8645640628
 40
0.8937602842
 40
0.9219656079
 40
0.9356761143
 40
0.949114485
 40
0.9622731843
 40
0.9751449049
 40
0.9877227295
 40
1.0
 40
1.0
 40
1.0
 40
1.0
 10
14.9447843995
 20
8.2031185017
 30
0.0
 10
14.9461967982
 20
8.207109637
 30
0.0
 10
14.9490007398
 20
8.2152093681
 30
0.0
 10
14.9530976705
 20
8.2275575565
 30
0.0
 10
14.9571344861
 20
8.240244986
 30
0.0
 10
14.9611083385
 20
8.253262948
 30
0.0
 10
14.9650165799
 20
8.2666025458
 30
0.0
 10
14.9701851714
 20
8.2849788797
 30
0.0
 10
14.9764532878
 20
8.3086896263
 30
0.0
 10
14.9836025212
 20
8.3380141546
 30
0.0
 10
14.9904286908
 20
8.3683921729
 30
0.0
 10
14.9969129985
 20
8.3997404755
 30
0.0
 10
15.0030375874
 20
8.4319733047
 30
0.0
 10
15.0087856001
 20
8.4650024162
 30
0.0
 10
15.0141412218
 20
8.4987373754
 30
0.0
 10
15.0190897231
 20
8.5330857957
 30
0.0
 10
15.0236174999
 20
8.5679535986
 30
0.0
 10
15.0277121099
 20
8.6032452732
 30
0.0
 10
15.0313623064
 20
8.6388641406
 30
0.0
 10
15.0345580685
 20
8.6747126199
 30
0.0
 10
15.0372906285
 20
8.710692498
 30
0.0
 10
15.0395524958
 20
8.7467051996
 30
0.0
 10
15.0413374775
 20
8.7826520589
 30
0.0
 10
15.0426406956
 20
8.8184345914
 30
0.0
 10
15.0434586004
 20
8.8539547652
 30
0.0
 10
15.0437889809
 20
8.889115271
 30
0.0
 10
15.0436309713
 20
8.9238197908
 30
0.0
 10
15.0429850543
 20
8.9579732637
 30
0.0
 10
15.0418530606
 20
8.9914821485
 30
0.0
 10
15.0402381656
 20
9.0242546861
 30
0.0
 10
15.0381448793
 20
9.0562011421
 30
0.0
 10
15.0355790454
 20
9.0872341061
 30
0.0
 10
15.0325477915
 20
9.1172685646
 30
0.0
 10
15.029614027
 20
9.1416209191
 30
0.0
 10
15.0270326239
 20
9.1605376274
 30
0.0
 10
15.0250039519
 20
9.1742912309
 30
0.0
 10
15.0228658888
 20
9.1877354021
 30
0.0
 10
15.0206198286
 20
9.2008609627
 30
0.0
 10
15.0182673897
 20
9.2136588923
 30
0.0
 10
15.0166088677
 20
9.222069776
 30
0.0
 10
15.0157611702
 20
9.2262185002
 30
0.0
  0
SPLINE
  5
3B7
100
AcDbEntity
  8
0
100
AcDbSpline
 62
4
  6
CONTINUOUS
 70
0
 71
3
 72
403
 73
399
 74
0
 42
0.0000001
 43
0.0000001
 44
0.0000000001
 40
0.0
 40
0.0
 40
0.0
 40
0.0
 40
0.015625
 40
0.0234375
 40
0.03125
 40
0.0390625
 40
0.04296875
 40
0.046875
 40
0.05078125
 40
0.0546875
 40
0.056640625
 40
0.05859375
 40
0.0595703125
 40
0.060546875
 40
0.0615234375
 40
0.0620117188
 40
0.0622558594
 40
0.0625
 40
0.0627441406
 40
0.0629882812
 40
0.0634765625
 40
0.064453125
 40
0.0654296875
 40
0.06640625
 40
0.068359375
 40
0.0703125
 40
0.07421875
 40
0.078125
 40
0.08203125
 40
0.0859375
 40
0.09375
 40
0.1015625
 40
0.10546875
 40
0.109375
 40
0.11328125
 40
0.1171875
 40
0.119140625
 40
0.12109375
 40
0.1220703125
 40
0.123046875
 40
0.1240234375
 40
0.1245117188
 40
0.1247558594
 40
0.125
 40
0.1252441406
 40
0.1254882812
 40
0.1259765625
 40
0.126953125
 40
0.1279296875
 40
0.12890625
 40
0.130859375
 40
0.1328125
 40
0.13671875
 40
0.140625
 40
0.14453125
 40
0.1484375
 40
0.15625
 40
0.1640625
 40
0.16796875
 40
0.171875
 40
0.17578125
 40
0.1796875
 40
0.181640625
 40
0.18359375
 40
0.1845703125
 40
0.185546875
 40
0.1865234375
 40
0.1870117188
 40
0.1872558594
 40
0.1875
 40
0.1877441406
 40
0.1879882812
 40
0.1884765625
 40
0.189453125
 40
0.1904296875
 40
0.19140625
 40
0.193359375
 40
0.1953125
 40
0.19921875
 40
0.203125
 40
0.20703125
 40
0.2109375
 40
0.21875
 40
0.2265625
 40
0.23046875
 40
0.234375
 40
0.23828125
 40
0.2421875
 40
0.244140625
 40
0.24609375
 40
0.2470703125
 40
0.248046875
 40
0.2490234375
 40
0.2495117188
 40
0.2497558594
 40
0.25
 40
0.2502441406
 40
0.2504882812
 40
0.2509765625
 40
0.251953125
 40
0.2529296875
 40
0.25390625
 40
0.255859375
 40
0.2578125
 40
0.26171875
 40
0.265625
 40
0.26953125
 40
0.2734375
 40
0.28125
 40
0.2890625
 40
0.29296875
 40
0.296875
 40
0.30078125
 40
0.3046875
 40
0.306640625
 40
0.30859375
 40
0.3095703125
 40
0.310546875
 40
0.3115234375
 40
0.3120117188
 40
0.3122558594
 40
0.3125
 40
0.3127441406
 40
0.3129882812
 40
0.3134765625
 40
0.314453125
 40
0.3154296875
 40
0.31640625
 40
0.318359375
 40
0.3203125
 40
0.32421875
 40
0.328125
 40
0.33203125
 40
0.3359375
 40
0.34375
 40
0.3515625
 40
0.35546875
 40
0.359375
 40
0.36328125
 40
0.3671875
 40
0.369140625
 40
0.37109375
 40
0.3720703125
 40
0.373046875
 40
0.3740234375
 40
0.3745117188
 40
0.3747558594
 40
0.375
 40
0.3752441406
 40
0.3754882812
 40
0.3759765625
 40
0.376953125
 40
0.3779296875
 40
0.37890625
 40
0.380859375
 40
0.3828125
 40
0.38671875
 40
0.390625
 40
0.39453125
 40
0.3984375
 40
0.40625
 40
0.4140625
 40
0.41796875
 40
0.421875
 40
0.42578125
 40
0.4296875
 40
0.431640625
 40
0.43359375
 40
0.4345703125
 40
0.435546875
 40
0.4365234375
 40
0.4370117188
 40
0.4372558594
 40
0.4375
 40
0.4377441406
 40
0.4379882812
 40
0.4384765625
 40
0.439453125
 40
0.4404296875
 40
0.44140625
 40
0.443359375
 40
0.4453125
 40
0.44921875
 40
0.453125
 40
0.45703125
 40
0.4609375
 40
0.46875
 40
0.4765625
 40
0.48046875
 40
0.484375
 40
0.48828125
 40
0.4921875
 40
0.494140625
 40
0.49609375
 40
0.4970703125
 40
0.498046875
 40
0.4990234375
 40
0.4995117188
 40
0.4997558594
 40
0.5
 40
0.5002441406
 40
0.5004882812
 40
0.5009765625
 40
0.501953125
 40
0.5029296875
 40
0.50390625
 40
0.505859375
 40
0.5078125
 40
0.51171875
 40
0.515625
 40
0.51953125
 40
0.5234375
 40
0.53125
 40
0.5390625
 40
0.54296875
 40
0.546875
 40
0.55078125
 40
0.5546875
 40
0.556640625
 40
0.55859375
 40
0.5595703125
 40
0.560546875
 40
0.5615234375
 40
0.5620117188
 40
0.5622558594
 40
0.5625
 40
0.5627441406
 40
0.5629882812
 40
0.5634765625
 40
0.564453125
 40
0.5654296875
 40
0.56640625
 40
0.568359375
 40
0.5703125
 40
0.57421875
 40
0.578125
 40
0.58203125
 40
0.5859375
 40
0.59375
 40
0.6015625
 40
0.60546875
 40
0.609375
 40
0.61328125
 40
0.6171875
 40
0.619140625
 40
0.62109375
 40
0.6220703125
 40
0.623046875
 40
0.6240234375
 40
0.6245117188
 40
0.6247558594
 40
0.625
 40
0.6252441406
 40
0.6254882812
 40
0.6259765625
 40
0.626953125
 40
0.6279296875
 40
0.62890625
 40
0.630859375
 40
0.6328125
 40
0.63671875
 40
0.640625
 40
0.64453125
 40
0.6484375
 40
0.65625
 40
0.6640625
 40
0.66796875
 40
0.671875
 40
0.67578125
 40
0.6796875
 40
0.681640625
 40
0.68359375
 40
0.6845703125
 40
0.685546875
 40
0.6865234375
 40
0.6870117188
 40
0.6872558594
 40
0.6875
 40
0.6877441406
 40
0.6879882812
 40
0.6884765625
 40
0.689453125
 40
0.6904296875
 40
0.69140625
 40
0.693359375
 40
0.6953125
 40
0.69921875
 40
0.703125
 40
0.70703125
 40
0.7109375
 40
0.71875
 40
0.7265625
 40
0.73046875
 40
0.734375
 40
0.73828125
 40
0.7421875
 40
0.744140625
 40
0.74609375
 40
0.7470703125
 40
0.748046875
 40
0.7490234375
 40
0.7495117188
 40
0.7497558594
 40
0.75
 40
0.7502441406
 40
0.7504882812
 40
0.7509765625
 40
0.751953125
 40
0.7529296875
 40
0.75390625
 40
0.755859375
 40
0.7578125
 40
0.76171875
 40
0.765625
 40
0.76953125
 40
0.7734375
 40
0.78125
 40
0.7890625
 40
0.79296875
 40
0.796875
 40
0.80078125
 40
0.8046875
 40
0.806640625
 40
0.80859375
 40
0.8095703125
 40
0.810546875
 40
0.8115234375
 40
0.8120117188
 40
0.8122558594
 40
0.8125
 40
0.8127441406
 40
0.8129882812
 40
0.8134765625
 40
0.814453125
 40
0.8154296875
 40
0.81640625
 40
0.818359375
 40
0.8203125
 40
0.82421875
 40
0.828125
 40
0.83203125
 40
0.8359375
 40
0.84375
 40
0.8515625
 40
0.85546875
 40
0.859375
 40
0.86328125
 40
0.8671875
 40
0.869140625
 40
0.87109375
 40
0.8720703125
 40
0.873046875
 40
0.8740234375
 40
0.8745117188
 40
0.8747558594
 40
0.875
 40
0.8752441406
 40
0.8754882812
 40
0.8759765625
 40
0.876953125
 40
0.8779296875
 40
0.87890625
 40
0.880859375
 40
0.8828125
 40
0.88671875
 40
0.890625
 40
0.89453125
 40
0.8984375
 40
0.90625
 40
0.9140625
 40
0.91796875
 40
0.921875
 40
0.92578125
 40
0.9296875
 40
0.931640625
 40
0.93359375
 40
0.9345703125
 40
0.935546875
 40
0.9365234375
 40
0.9370117188
 40
0.9372558594
 40
0.9375
 40
0.9377441406
 40
0.9379882812
 40
0.9384765625
 40
0.939453125
 40
0.9404296875
 40
0.94140625
 40
0.943359375
 40
0.9453125
 40
0.94921875
 40
0.953125
 40
0.95703125
 40
0.9609375
 40
0.96875
 40
0.9765625
 40
0.984375
 40
1.0
 40
1.0
 40
1.0
 40
1.0
 10
12.4600857403
 20
6.9762291317
 30
0.0
 10
12.46571422
 20
6.9763906726
 30
0.0
 10
12.4741569394
 20
6.9766329839
 30
0.0
 10
12.4854138986
 20
6.9769560656
 30
0.0
 10
12.493856618
 20
6.977198377
 30
0.0
 10
12.5008922176
 20
6.9774003028
 30
0.0
 10
12.5065206971
 20
6.9775618442
 30
0.0
 10
12.5107420572
 20
6.9776829981
 30
0.0
 10
12.5149634156
 20
6.9778041604
 30
0.0
 10
12.5184812194
 20
6.9779051026
 30
0.0
 10
12.5212954509
 20
6.9779859156
 30
0.0
 10
12.523054372
 20
6.9780362888
 30
0.0
 10
12.5244614484
 20
6.9780768963
 30
0.0
 10
12.525516921
 20
6.9781065061
 30
0.0
 10
12.5263959559
 20
6.9781338718
 30
0.0
 10
12.5270123118
 20
6.9781477469
 30
0.0
 10
12.5273629046
 20
6.9781639212
 30
0.0
 10
12.5276303862
 20
6.9781528239
 30
0.0
 10
12.5278805252
 20
6.9782305157
 30
0.0
 10
12.5282200932
 20
6.9783031341
 30
0.0
 10
12.5288115186
 20
6.9784446462
 30
0.0
 10
12.5296578856
 20
6.9786392623
 30
0.0
 10
12.5306728953
 20
6.9788760306
 30
0.0
 10
12.5320264619
 20
6.9791905939
 30
0.0
 10
12.5337183447
 20
6.9795841842
 30
0.0
 10
12.5364253993
 20
6.9802137128
 30
0.0
 10
12.539809203
 20
6.9810006976
 30
0.0
 10
12.5438697738
 20
6.9819450476
 30
0.0
 10
12.5479303429
 20
6.9828894062
 30
0.0
 10
12.5533444356
 20
6.9841485479
 30
0.0
 10
12.5601120512
 20
6.9857224762
 30
0.0
 10
12.5668796671
 20
6.9872964037
 30
0.0
 10
12.5722937594
 20
6.9885555466
 30
0.0
 10
12.5763543295
 20
6.9894999017
 30
0.0
 10
12.5804148964
 20
6.9904442648
 30
0.0
 10
12.5837987123
 20
6.9912312088
 30
0.0
 10
12.5865057422
 20
6.9918608207
 30
0.0
 10
12.5881976877
 20
6.9922541991
 30
0.0
 10
12.5895511256
 20
6.9925691973
 30
0.0
 10
12.5905665282
 20
6.992804637
 30
0.0
 10
12.5914116659
 20
6.99300341
 30
0.0
 10
12.5920052859
 20
6.9931375011
 30
0.0
 10
12.5923413376
 20
6.9932220099
 30
0.0
 10
12.5926022775
 20
6.9932631784
 30
0.0
 10
12.5928291928
 20
6.9933892564
 30
0.0
 10
12.5931436147
 20
6.993527743
 30
0.0
 10
12.5936883234
 20
6.9937838938
 30
0.0
 10
12.5944693696
 20
6.9941426091
 30
0.0
 10
12.5954053877
 20
6.9945761555
 30
0.0
 10
12.596653844
 20
6.9951531388
 30
0.0
 10
12.5982142664
 20
6.9958747372
 30
0.0
 10
12.6007110249
 20
6.9970290882
 30
0.0
 10
12.6038319447
 20
6.9984720978
 30
0.0
 10
12.6075770606
 20
7.000203679
 30
0.0
 10
12.6113221732
 20
7.0019352683
 30
0.0
 10
12.6163156579
 20
7.0042440512
 30
0.0
 10
12.6225575133
 20
7.0071300308
 30
0.0
 10
12.628799369
 20
7.0100160098
 30
0.0
 10
12.6337928531
 20
7.0123247938
 30
0.0
 10
12.6375379673
 20
7.0140563797
 30
0.0
 10
12.6412830774
 20
7.0157879736
 30
0.0
 10
12.6444040154
 20
7.0172309437
 30
0.0
 10
12.6469007367
 20
7.0183853753
 30
0.0
 10
12.6484612538
 20
7.0191067687
 30
0.0
 10
12.6497095157
 20
7.0196841728
 30
0.0
 10
12.6506461276
 20
7.0201164335
 30
0.0
 10
12.6514253158
 20
7.0204791713
 30
0.0
 10
12.6519733415
 20
7.0207281412
 30
0.0
 10
12.6522824487
 20
7.0208781335
 30
0.0
 10
12.652525689
 20
7.0209688698
 30
0.0
 10
12.6527253148
 20
7.0211427756
 30
0.0
 10
12.6530066957
 20
7.0213456395
 30
0.0
 10
12.6534920242
 20
7.0217141678
 30
0.0
 10
12.6541890564
 20
7.0222335703
 30
0.0
 10
12.6550239089
 20
7.022859878
 30
0.0
 10
12.6561375995
 20
7.0236938985
 30
0.0
 10
12.657529523
 20
7.0247367858
 30
0.0
 10
12.6597567068
 20
7.0264052033
 30
0.0
 10
12.66254065
 20
7.0284907946
 30
0.0
 10
12.6658813976
 20
7.0309934743
 30
0.0
 10
12.6692221409
 20
7.0334961621
 30
0.0
 10
12.6736764668
 20
7.0368330763
 30
0.0
 10
12.6792443737
 20
7.0410042201
 30
0.0
 10
12.684812281
 20
7.0451753632
 30
0.0
 10
12.6892666062
 20
7.0485122784
 30
0.0
 10
12.6926073518
 20
7.0510149632
 30
0.0
 10
12.6959480907
 20
7.0535176541
 30
0.0
 10
12.6987320607
 20
7.0556032109
 30
0.0
 10
12.70095919
 20
7.0572716987
 30
0.0
 10
12.7023512521
 20
7.0583144071
 30
0.0
 10
12.7034646584
 20
7.0591487947
 30
0.0
 10
12.7043003794
 20
7.0597739809
 30
0.0
 10
12.7049946939
 20
7.0602968922
 30
0.0
 10
12.705484874
 20
7.0606591566
 30
0.0
 10
12.7057584815
 20
7.0608720569
 30
0.0
 10
12.7059819847
 20
7.0610151342
 30
0.0
 10
12.7061355452
 20
7.0612216573
 30
0.0
 10
12.7063646893
 20
7.0614748908
 30
0.0
 10
12.7067543245
 20
7.0619283605
 30
0.0
 10
12.707316889
 20
7.0625707836
 30
0.0
 10
12.7079894228
 20
7.0633439987
 30
0.0
 10
12.7088870229
 20
7.0643741463
 30
0.0
 10
12.7100087188
 20
7.0656621067
 30
0.0
 10
12.7118036023
 20
7.0677226891
 30
0.0
 10
12.7140471483
 20
7.0702984701
 30
0.0
 10
12.7167394286
 20
7.0733893846
 30
0.0
 10
12.7194317021
 20
7.0764803052
 30
0.0
 10
12.7230214026
 20
7.0806015305
 30
0.0
 10
12.7275085272
 20
7.0857530629
 30
0.0
 10
12.7319956525
 20
7.0909045948
 30
0.0
 10
12.7355853519
 20
7.0950258209
 30
0.0
 10
12.7382776284
 20
7.098116739
 30
0.0
 10
12.7409698978
 20
7.1012076625
 30
0.0
 10
12.7432134777
 20
7.1037834157
 30
0.0
 10
12.7450082921
 20
7.1058440548
 30
0.0
 10
12.7461301638
 20
7.107131871
 30
0.0
 10
12.7470274031
 20
7.1081623146
 30
0.0
 10
12.7477010393
 20
7.1089346252
 30
0.0
 10
12.7482601543
 20
7.1095798786
 30
0.0
 10
12.7486559476
 20
7.1100282957
 30
0.0
 10
12.7488752249
 20
7.1102896246
 30
0.0
 10
12.7490590931
 20
7.1104712812
 30
0.0
 10
12.7491687654
 20
7.1107077531
 30
0.0
 10
12.7493408754
 20
7.1110039287
 30
0.0
 10
12.7496300099
 20
7.1115311446
 30
0.0
 10
12.7500493632
 20
7.1122796527
 30
0.0
 10
12.7505498889
 20
7.113179856
 30
0.0
 10
12.751218199
 20
7.1143794307
 30
0.0
 10
12.7520532638
 20
7.1158791374
 30
0.0
 10
12.7533895479
 20
7.118278535
 30
0.0
 10
12.7550598412
 20
7.1212778278
 30
0.0
 10
12.7570642196
 20
7.1248769594
 30
0.0
 10
12.7590685909
 20
7.1284760963
 30
0.0
 10
12.7617410886
 20
7.1332749437
 30
0.0
 10
12.7650817096
 20
7.1392735036
 30
0.0
 10
12.7684223313
 20
7.1452720631
 30
0.0
 10
12.7710948279
 20
7.1500709111
 30
0.0
 10
12.7730992024
 20
7.1536700461
 30
0.0
 10
12.775103569
 20
7.1572691849
 30
0.0
 10
12.7767738991
 20
7.1602684554
 30
0.0
 10
12.7781101081
 20
7.1626678984
 30
0.0
 10
12.778945364
 20
7.1641674895
 30
0.0
 10
12.7796132819
 20
7.1653673017
 30
0.0
 10
12.7801150056
 20
7.1662667794
 30
0.0
 10
12.7805306105
 20
7.1670175574
 30
0.0
 10
12.7808264366
 20
7.1675407212
 30
0.0
 10
12.780987825
 20
7.1678433893
 30
0.0
 10
12.7811304308
 20
7.1680599184
 30
0.0
 10
12.7811906061
 20
7.1683164767
 30
0.0
 10
12.7812995925
 20
7.1686445917
 30
0.0
 10
12.7814769223
 20
7.1692252985
 30
0.0
 10
12.7817372544
 20
7.1700514785
 30
0.0
 10
12.7820466551
 20
7.1710443503
 30
0.0
 10
12.7824602364
 20
7.1723676709
 30
0.0
 10
12.7829768545
 20
7.1740219957
 30
0.0
 10
12.7838036438
 20
7.1766688181
 30
0.0
 10
12.7848370618
 20
7.1799773794
 30
0.0
 10
12.7860771927
 20
7.1839476388
 30
0.0
 10
12.7873173158
 20
7.1879179019
 30
0.0
 10
12.7889708161
 20
7.1932115848
 30
0.0
 10
12.7910376903
 20
7.1998286889
 30
0.0
 10
12.7931045653
 20
7.2064457927
 30
0.0
 10
12.7947580644
 20
7.2117394761
 30
0.0
 10
12.7959981909
 20
7.2157097378
 30
0.0
 10
12.797238309
 20
7.2196800025
 30
0.0
 10
12.7982717669
 20
7.222988547
 30
0.0
 10
12.7990984748
 20
7.2256354039
 30
0.0
 10
12.7996153002
 20
7.2272896409
 30
0.0
 10
12.800028456
 20
7.2286131416
 30
0.0
 10
12.8003391566
 20
7.2296054632
 30
0.0
 10
12.8005954215
 20
7.2304333646
 30
0.0
 10
12.8007800118
 20
7.2310109983
 30
0.0
 10
12.8008773651
 20
7.2313440372
 30
0.0
 10
12.8009732737
 20
7.2315854711
 30
0.0
 10
12.8009816712
 20
7.2318588047
 30
0.0
 10
12.8010233928
 20
7.2322121224
 30
0.0
 10
12.8010821834
 20
7.2328356128
 30
0.0
 10
12.8011736055
 20
7.2337236029
 30
0.0
 10
12.8012801294
 20
7.2347903512
 30
0.0
 10
12.8014232729
 20
7.2362122771
 30
0.0
 10
12.8016018216
 20
7.2379898231
 30
0.0
 10
12.8018877123
 20
7.2408338193
 30
0.0
 10
12.8022450026
 20
7.2443888411
 30
0.0
 10
12.8026737824
 20
7.2486548558
 30
0.0
 10
12.8031025537
 20
7.2529208736
 30
0.0
 10
12.8036742518
 20
7.2586088963
 30
0.0
 10
12.8043888733
 20
7.265718925
 30
0.0
 10
12.8051034955
 20
7.2728289536
 30
0.0
 10
12.8056751924
 20
7.2785169765
 30
0.0
 10
12.8061039674
 20
7.2827829936
 30
0.0
 10
12.8065327336
 20
7.2870490107
 30
0.0
 10
12.8068900659
 20
7.2906040254
 30
0.0
 10
12.8071758711
 20
7.293448036
 30
0.0
 10
12.8073546374
 20
7.2952255452
 30
0.0
 10
12.8074973342
 20
7.2966475467
 30
0.0
 10
12.8076052228
 20
7.2977140641
 30
0.0
 10
12.8076923753
 20
7.2986027765
 30
0.0
 10
12.8077587878
 20
7.2992249775
 30
0.0
 10
12.8077882971
 20
7.2995803612
 30
0.0
 10
12.8078342068
 20
7.299847349
 30
0.0
 10
12.8077892262
 20
7.3001126163
 30
0.0
 10
12.8077609557
 20
7.3004669061
 30
0.0
 10
12.8076967109
 20
7.3010866336
 30
0.0
 10
12.8076126554
 20
7.3019721048
 30
0.0
 10
12.8075084831
 20
7.3030346078
 30
0.0
 10
12.8073707414
 20
7.3044513002
 30
0.0
 10
12.8071981689
 20
7.3062221582
 30
0.0
 10
12.8069222738
 20
7.3090555353
 30
0.0
 10
12.8065773292
 20
7.3125972551
 30
0.0
 10
12.8061634281
 20
7.3168473196
 30
0.0
 10
12.8057495183
 20
7.3210973839
 30
0.0
 10
12.8051976417
 20
7.3267641363
 30
0.0
 10
12.8045077947
 20
7.3338475769
 30
0.0
 10
12.8038179486
 20
7.3409310174
 30
0.0
 10
12.8032660707
 20
7.3465977698
 30
0.0
 10
12.8028521645
 20
7.3508478344
 30
0.0
 10
12.80243825
 20
7.3550978978
 30
0.0
 10
12.8020933473
 20
7.3586396208
 30
0.0
 10
12.8018173667
 20
7.3614729916
 30
0.0
 10
12.8016450119
 20
7.3632438655
 30
0.0
 10
12.8015068233
 20
7.3646605254
 30
0.0
 10
12.8014040162
 20
7.3657231276
 30
0.0
 10
12.8013156893
 20
7.366608288
 30
0.0
 10
12.8012590697
 20
7.3672285705
 30
0.0
 10
12.8012185817
 20
7.3675819712
 30
0.0
 10
12.8012111291
 20
7.3678499696
 30
0.0
 10
12.8011160901
 20
7.3681066995
 30
0.0
 10
12.8010199225
 20
7.3684529367
 30
0.0
 10
12.800837395
 20
7.3690570205
 30
0.0
 10
12.8005840832
 20
7.3699209548
 30
0.0
 10
12.8002769237
 20
7.370957266
 30
0.0
 10
12.7998684902
 20
7.3723391576
 30
0.0
 10
12.7993575675
 20
7.374066473
 30
0.0
 10
12.798540304
 20
7.376830205
 30
0.0
 10
12.7975186516
 20
7.3802848606
 30
0.0
 10
12.7962927
 20
7.3844304514
 30
0.0
 10
12.7950667401
 20
7.3885760411
 30
0.0
 10
12.7934321297
 20
7.3941034944
 30
0.0
 10
12.7913888657
 20
7.4010128109
 30
0.0
 10
12.7893456024
 20
7.4079221275
 30
0.0
 10
12.7877109909
 20
7.4134495805
 30
0.0
 10
12.7864850344
 20
7.417595171
 30
0.0
 10
12.78525907
 20
7.4217407588
 30
0.0
 10
12.7842374575
 20
7.4251954237
 30
0.0
 10
12.7834201125
 20
7.4279591368
 30
0.0
 10
12.7829093973
 20
7.4296865004
 30
0.0
 10
12.7825005379
 20
7.4310682929
 30
0.0
 10
12.7821946798
 20
7.4321049069
 30
0.0
 10
12.7819372962
 20
7.4329678941
 30
0.0
 10
12.7817620374
 20
7.4335736684
 30
0.0
 10
12.7816542234
 20
7.433917197
 30
0.0
 10
12.7815949586
 20
7.4341822469
 30
0.0
 10
12.781453144
 20
7.4344189971
 30
0.0
 10
12.7812928522
 20
7.4347445352
 30
0.0
 10
12.7809989257
 20
7.4353096278
 30
0.0
 10
12.7805860446
 20
7.4361193075
 30
0.0
 10
12.7800875852
 20
7.4370898938
 30
0.0
 10
12.7794240212
 20
7.4383843684
 30
0.0
 10
12.7785942071
 20
7.4400023386
 30
0.0
 10
12.7772667053
 20
7.4425911597
 30
0.0
 10
12.7756072592
 20
7.4458271625
 30
0.0
 10
12.7736159533
 20
7.4497103759
 30
0.0
 10
12.7716246396
 20
7.4535935866
 30
0.0
 10
12.7689695574
 20
7.4587712018
 30
0.0
 10
12.7656507035
 20
7.4652432205
 30
0.0
 10
12.7623318504
 20
7.4717152395
 30
0.0
 10
12.7596767671
 20
7.4768928543
 30
0.0
 10
12.7576854567
 20
7.4807760663
 30
0.0
 10
12.7556941385
 20
7.4846592748
 30
0.0
 10
12.7540347306
 20
7.4878952931
 30
0.0
 10
12.7527071508
 20
7.4904840824
 30
0.0
 10
12.7518775352
 20
7.4921021335
 30
0.0
 10
12.7512135639
 20
7.493396442
 30
0.0
 10
12.7507163489
 20
7.4943675359
 30
0.0
 10
12.7502995741
 20
7.4951756275
 30
0.0
 10
12.7500125985
 20
7.495743555
 30
0.0
 10
12.7498411696
 20
7.4960645509
 30
0.0
 10
12.7497335645
 20
7.4963152536
 30
0.0
 10
12.7495458147
 20
7.4965278999
 30
0.0
 10
12.7493234369
 20
7.4968247028
 30
0.0
 10
12.7489212509
 20
7.497337923
 30
0.0
 10
12.7483535091
 20
7.4980743282
 30
0.0
 10
12.7476693042
 20
7.4989566304
 30
0.0
 10
12.746758049
 20
7.5001335168
 30
0.0
 10
12.7456186315
 20
7.5016044592
 30
0.0
 10
12.7437957583
 20
7.5039580596
 30
0.0
 10
12.7415170999
 20
7.5069000284
 30
0.0
 10
12.7387827385
 20
7.5104304045
 30
0.0
 10
12.7360483694
 20
7.513960777
 30
0.0
 10
12.7324025466
 20
7.5186679416
 30
0.0
 10
12.7278452672
 20
7.5245518968
 30
0.0
 10
12.7232879884
 20
7.5304358525
 30
0.0
 10
12.7196421647
 20
7.5351430164
 30
0.0
 10
12.7169077984
 20
7.538673391
 30
0.0
 10
12.7141734265
 20
7.5422037593
 30
0.0
 10
12.7118948007
 20
7.5451457525
 30
0.0
 10
12.710071861
 20
7.5474993031
 30
0.0
 10
12.7089326127
 20
7.5489703723
 30
0.0
 10
12.7080210101
 20
7.5501469984
 30
0.0
 10
12.7073378665
 20
7.5510300957
 30
0.0
 10
12.7067668043
 20
7.5517640134
 30
0.0
 10
12.7063705457
 20
7.5522816741
 30
0.0
 10
12.7061386707
 20
7.5525713622
 30
0.0
 10
12.7059800935
 20
7.5528058628
 30
0.0
 10
12.7057629209
 20
7.5529744843
 30
0.0
 10
12.7054937962
 20
7.5532222922
 30
0.0
 10
12.7050133052
 20
7.5536452496
 30
0.0
 10
12.7043318682
 20
7.554255072
 30
0.0
 10
12.7035120127
 20
7.5549844629
 30
0.0
 10
12.7024196163
 20
7.5559578209
 30
0.0
 10
12.701053866
 20
7.5571742319
 30
0.0
 10
12.698868808
 20
7.5591206497
 30
0.0
 10
12.6961374365
 20
7.561553617
 30
0.0
 10
12.6928598118
 20
7.5644732013
 30
0.0
 10
12.6895821814
 20
7.5673927793
 30
0.0
 10
12.6852120095
 20
7.5712855522
 30
0.0
 10
12.679749294
 20
7.5761515175
 30
0.0
 10
12.6742865789
 20
7.5810174833
 30
0.0
 10
12.6699164063
 20
7.5849102553
 30
0.0
 10
12.6666387781
 20
7.587829836
 30
0.0
 10
12.6633611452
 20
7.59074941
 30
0.0
 10
12.6606297992
 20
7.5931824094
 30
0.0
 10
12.6584446892
 20
7.5951287617
 30
0.0
 10
12.657079071
 20
7.5963453394
 30
0.0
 10
12.6559864036
 20
7.5973183554
 30
0.0
 10
12.6551673762
 20
7.5980487914
 30
0.0
 10
12.6544833481
 20
7.5986553438
 30
0.0
 10
12.6540074825
 20
7.5990841385
 30
0.0
 10
12.6537309467
 20
7.5993225936
 30
0.0
 10
12.6535365389
 20
7.5995199441
 30
0.0
 10
12.6532924611
 20
7.5996465432
 30
0.0
 10
12.6529843496
 20
7.5998400209
 30
0.0
 10
12.6524370822
 20
7.6001671084
 30
0.0
 10
12.6516594918
 20
7.6006403879
 30
0.0
 10
12.650724577
 20
7.6012057501
 30
0.0
 10
12.6494786549
 20
7.6019604652
 30
0.0
 10
12.6479210361
 20
7.6029035512
 30
0.0
 10
12.6454289669
 20
7.6044126609
 30
0.0
 10
12.642313839
 20
7.606298989
 30
0.0
 10
12.6385757032
 20
7.6085626081
 30
0.0
 10
12.6348375627
 20
7.6108262203
 30
0.0
 10
12.629853377
 20
7.6138443724
 30
0.0
 10
12.6236231442
 20
7.6176170616
 30
0.0
 10
12.6173929118
 20
7.6213897514
 30
0.0
 10
12.6124087255
 20
7.6244079024
 30
0.0
 10
12.6086705867
 20
7.6266715177
 30
0.0
 10
12.6049324446
 20
7.6289351254
 30
0.0
 10
12.6018173363
 20
7.6308214889
 30
0.0
 10
12.5993252269
 20
7.6323305264
 30
0.0
 10
12.5977677106
 20
7.6332737964
 30
0.0
 10
12.5965215782
 20
7.6340281338
 30
0.0
 10
12.5955873058
 20
7.6345946496
 30
0.0
 10
12.5948077055
 20
7.63506432
 30
0.0
 10
12.5942640261
 20
7.6353978503
 30
0.0
 10
12.5939501657
 20
7.635581005
 30
0.0
 10
12.5937237468
 20
7.635739313
 30
0.0
 10
12.5934630153
 20
7.6358175701
 30
0.0
 10
12.5931273421
 20
7.6359498355
 30
0.0
 10
12.5925343374
 20
7.6361682904
 30
0.0
 10
12.5916901033
 20
7.6364871703
 30
0.0
 10
12.5906757745
 20
7.6368669149
 30
0.0
 10
12.589323772
 20
7.6373742579
 30
0.0
 10
12.5876336196
 20
7.6380080885
 30
0.0
 10
12.5849294592
 20
7.639022412
 30
0.0
 10
12.58154923
 20
7.6402902496
 30
0.0
 10
12.5774929673
 20
7.6418116833
 30
0.0
 10
12.5734367013
 20
7.6433331094
 30
0.0
 10
12.5680283478
 20
7.6453616802
 30
0.0
 10
12.5612679055
 20
7.6478973928
 30
0.0
 10
12.5545074635
 20
7.650433106
 30
0.0
 10
12.5490991096
 20
7.6524616757
 30
0.0
 10
12.5450428448
 20
7.6539831051
 30
0.0
 10
12.5409865775
 20
7.6555045263
 30
0.0
 10
12.5376063625
 20
7.6567724029
 30
0.0
 10
12.5349021733
 20
7.657786647
 30
0.0
 10
12.5332120942
 20
7.6584206797
 30
0.0
 10
12.5318599411
 20
7.6589276077
 30
0.0
 10
12.5308460724
 20
7.6593086203
 30
0.0
 10
12.5300003989
 20
7.6596235329
 30
0.0
 10
12.5294099638
 20
7.65984907
 30
0.0
 10
12.5290701735
 20
7.6599699878
 30
0.0
 10
12.5288220883
 20
7.6600831012
 30
0.0
 10
12.5285481722
 20
7.6601104949
 30
0.0
 10
12.5281919609
 20
7.6601769198
 30
0.0
 10
12.5275643931
 20
7.6602792324
 30
0.0
 10
12.5266700624
 20
7.6604326765
 30
0.0
 10
12.5255959262
 20
7.660613692
 30
0.0
 10
12.5241640727
 20
7.6608561348
 30
0.0
 10
12.5223741434
 20
7.6611588156
 30
0.0
 10
12.5195103194
 20
7.6616433131
 30
0.0
 10
12.5159305179
 20
7.6622488636
 30
0.0
 10
12.5116347653
 20
7.6629755548
 30
0.0
 10
12.5073390102
 20
7.6637022378
 30
0.0
 10
12.5016113376
 20
7.6646711513
 30
0.0
 10
12.4944517465
 20
7.6658822922
 30
0.0
 10
12.4858602374
 20
7.6673356617
 30
0.0
 10
12.4744048919
 20
7.6692734876
 30
0.0
 10
12.4658133827
 20
7.670726857
 30
0.0
 10
12.4600857099
 20
7.6716957699
 30
0.0
  0
SPLINE
  5
3B8
100
AcDbEntity
  8
0
100
AcDbSpline
 62
4
  6
CONTINUOUS
 70
0
 71
3
 72
403
 73
399
 74
0
 42
0.0000001
 43
0.0000001
 44
0.0000000001
 40
0.0
 40
0.0
 40
0.0
 40
0.0
 40
0.015625
 40
0.0234375
 40
0.03125
 40
0.0390625
 40
0.04296875
 40
0.046875
 40
0.05078125
 40
0.0546875
 40
0.056640625
 40
0.05859375
 40
0.0595703125
 40
0.060546875
 40
0.0615234375
 40
0.0620117188
 40
0.0622558594
 40
0.0625
 40
0.0627441406
 40
0.0629882812
 40
0.0634765625
 40
0.064453125
 40
0.0654296875
 40
0.06640625
 40
0.068359375
 40
0.0703125
 40
0.07421875
 40
0.078125
 40
0.08203125
 40
0.0859375
 40
0.09375
 40
0.1015625
 40
0.10546875
 40
0.109375
 40
0.11328125
 40
0.1171875
 40
0.119140625
 40
0.12109375
 40
0.1220703125
 40
0.123046875
 40
0.1240234375
 40
0.1245117188
 40
0.1247558594
 40
0.125
 40
0.1252441406
 40
0.1254882812
 40
0.1259765625
 40
0.126953125
 40
0.1279296875
 40
0.12890625
 40
0.130859375
 40
0.1328125
 40
0.13671875
 40
0.140625
 40
0.14453125
 40
0.1484375
 40
0.15625
 40
0.1640625
 40
0.16796875
 40
0.171875
 40
0.17578125
 40
0.1796875
 40
0.181640625
 40
0.18359375
 40
0.1845703125
 40
0.185546875
 40
0.1865234375
 40
0.1870117188
 40
0.1872558594
 40
0.1875
 40
0.1877441406
 40
0.1879882812
 40
0.1884765625
 40
0.189453125
 40
0.1904296875
 40
0.19140625
 40
0.193359375
 40
0.1953125
 40
0.19921875
 40
0.203125
 40
0.20703125
 40
0.2109375
 40
0.21875
 40
0.2265625
 40
0.23046875
 40
0.234375
 40
0.23828125
 40
0.2421875
 40
0.244140625
 40
0.24609375
 40
0.2470703125
 40
0.248046875
 40
0.2490234375
 40
0.2495117188
 40
0.2497558594
 40
0.25
 40
0.2502441406
 40
0.2504882812
 40
0.2509765625
 40
0.251953125
 40
0.2529296875
 40
0.25390625
 40
0.255859375
 40
0.2578125
 40
0.26171875
 40
0.265625
 40
0.26953125
 40
0.2734375
 40
0.28125
 40
0.2890625
 40
0.29296875
 40
0.296875
 40
0.30078125
 40
0.3046875
 40
0.306640625
 40
0.30859375
 40
0.3095703125
 40
0.310546875
 40
0.3115234375
 40
0.3120117188
 40
0.3122558594
 40
0.3125
 40
0.3127441406
 40
0.3129882812
 40
0.3134765625
 40
0.314453125
 40
0.3154296875
 40
0.31640625
 40
0.318359375
 40
0.3203125
 40
0.32421875
 40
0.328125
 40
0.33203125
 40
0.3359375
 40
0.34375
 40
0.3515625
 40
0.35546875
 40
0.359375
 40
0.36328125
 40
0.3671875
 40
0.369140625
 40
0.37109375
 40
0.3720703125
 40
0.373046875
 40
0.3740234375
 40
0.3745117188
 40
0.3747558594
 40
0.375
 40
0.3752441406
 40
0.3754882812
 40
0.3759765625
 40
0.376953125
 40
0.3779296875
 40
0.37890625
 40
0.380859375
 40
0.3828125
 40
0.38671875
 40
0.390625
 40
0.39453125
 40
0.3984375
 40
0.40625
 40
0.4140625
 40
0.41796875
 40
0.421875
 40
0.42578125
 40
0.4296875
 40
0.431640625
 40
0.43359375
 40
0.4345703125
 40
0.435546875
 40
0.4365234375
 40
0.4370117188
 40
0.4372558594
 40
0.4375
 40
0.4377441406
 40
0.4379882812
 40
0.4384765625
 40
0.439453125
 40
0.4404296875
 40
0.44140625
 40
0.443359375
 40
0.4453125
 40
0.44921875
 40
0.453125
 40
0.45703125
 40
0.4609375
 40
0.46875
 40
0.4765625
 40
0.48046875
 40
0.484375
 40
0.48828125
 40
0.4921875
 40
0.494140625
 40
0.49609375
 40
0.4970703125
 40
0.498046875
 40
0.4990234375
 40
0.4995117188
 40
0.4997558594
 40
0.5
 40
0.5002441406
 40
0.5004882812
 40
0.5009765625
 40
0.501953125
 40
0.5029296875
 40
0.50390625
 40
0.505859375
 40
0.5078125
 40
0.51171875
 40
0.515625
 40
0.51953125
 40
0.5234375
 40
0.53125
 40
0.5390625
 40
0.54296875
 40
0.546875
 40
0.55078125
 40
0.5546875
 40
0.556640625
 40
0.55859375
 40
0.5595703125
 40
0.560546875
 40
0.5615234375
 40
0.5620117188
 40
0.5622558594
 40
0.5625
 40
0.5627441406
 40
0.5629882812
 40
0.5634765625
 40
0.564453125
 40
0.5654296875
 40
0.56640625
 40
0.568359375
 40
0.5703125
 40
0.57421875
 40
0.578125
 40
0.58203125
 40
0.5859375
 40
0.59375
 40
0.6015625
 40
0.60546875
 40
0.609375
 40
0.61328125
 40
0.6171875
 40
0.619140625
 40
0.62109375
 40
0.6220703125
 40
0.623046875
 40
0.6240234375
 40
0.6245117188
 40
0.6247558594
 40
0.625
 40
0.6252441406
 40
0.6254882812
 40
0.6259765625
 40
0.626953125
 40
0.6279296875
 40
0.62890625
 40
0.630859375
 40
0.6328125
 40
0.63671875
 40
0.640625
 40
0.64453125
 40
0.6484375
 40
0.65625
 40
0.6640625
 40
0.66796875
 40
0.671875
 40
0.67578125
 40
0.6796875
 40
0.681640625
 40
0.68359375
 40
0.6845703125
 40
0.685546875
 40
0.6865234375
 40
0.6870117188
 40
0.6872558594
 40
0.6875
 40
0.6877441406
 40
0.6879882812
 40
0.6884765625
 40
0.689453125
 40
0.6904296875
 40
0.69140625
 40
0.693359375
 40
0.6953125
 40
0.69921875
 40
0.703125
 40
0.70703125
 40
0.7109375
 40
0.71875
 40
0.7265625
 40
0.73046875
 40
0.734375
 40
0.73828125
 40
0.7421875
 40
0.744140625
 40
0.74609375
 40
0.7470703125
 40
0.748046875
 40
0.7490234375
 40
0.7495117188
 40
0.7497558594
 40
0.75
 40
0.7502441406
 40
0.7504882812
 40
0.7509765625
 40
0.751953125
 40
0.7529296875
 40
0.75390625
 40
0.755859375
 40
0.7578125
 40
0.76171875
 40
0.765625
 40
0.76953125
 40
0.7734375
 40
0.78125
 40
0.7890625
 40
0.79296875
 40
0.796875
 40
0.80078125
 40
0.8046875
 40
0.806640625
 40
0.80859375
 40
0.8095703125
 40
0.810546875
 40
0.8115234375
 40
0.8120117188
 40
0.8122558594
 40
0.8125
 40
0.8127441406
 40
0.8129882812
 40
0.8134765625
 40
0.814453125
 40
0.8154296875
 40
0.81640625
 40
0.818359375
 40
0.8203125
 40
0.82421875
 40
0.828125
 40
0.83203125
 40
0.8359375
 40
0.84375
 40
0.8515625
 40
0.85546875
 40
0.859375
 40
0.86328125
 40
0.8671875
 40
0.869140625
 40
0.87109375
 40
0.8720703125
 40
0.873046875
 40
0.8740234375
 40
0.8745117188
 40
0.8747558594
 40
0.875
 40
0.8752441406
 40
0.8754882812
 40
0.8759765625
 40
0.876953125
 40
0.8779296875
 40
0.87890625
 40
0.880859375
 40
0.8828125
 40
0.88671875
 40
0.890625
 40
0.89453125
 40
0.8984375
 40
0.90625
 40
0.9140625
 40
0.91796875
 40
0.921875
 40
0.92578125
 40
0.9296875
 40
0.931640625
 40
0.93359375
 40
0.9345703125
 40
0.935546875
 40
0.9365234375
 40
0.9370117188
 40
0.9372558594
 40
0.9375
 40
0.9377441406
 40
0.9379882812
 40
0.9384765625
 40
0.939453125
 40
0.9404296875
 40
0.94140625
 40
0.943359375
 40
0.9453125
 40
0.94921875
 40
0.953125
 40
0.95703125
 40
0.9609375
 40
0.96875
 40
0.9765625
 40
0.984375
 40
1.0
 40
1.0
 40
1.0
 40
1.0
 10
12.4600857403
 20
7.6716957678
 30
0.0
 10
12.4544572607
 20
7.671534227
 30
0.0
 10
12.4460145413
 20
7.6712919157
 30
0.0
 10
12.434757582
 20
7.670968834
 30
0.0
 10
12.4263148626
 20
7.6707265226
 30
0.0
 10
12.4192792631
 20
7.6705245968
 30
0.0
 10
12.4136507836
 20
7.6703630553
 30
0.0
 10
12.4094294235
 20
7.6702419015
 30
0.0
 10
12.4052080651
 20
7.6701207391
 30
0.0
 10
12.4016902612
 20
7.6700197969
 30
0.0
 10
12.3988760297
 20
7.669938984
 30
0.0
 10
12.3971171087
 20
7.6698886107
 30
0.0
 10
12.3957100322
 20
7.6698480032
 30
0.0
 10
12.3946545596
 20
7.6698183935
 30
0.0
 10
12.3937755248
 20
7.6697910278
 30
0.0
 10
12.3931591689
 20
7.6697771526
 30
0.0
 10
12.392808576
 20
7.6697609784
 30
0.0
 10
12.3925410945
 20
7.6697720756
 30
0.0
 10
12.3922909555
 20
7.6696943838
 30
0.0
 10
12.3919513875
 20
7.6696217654
 30
0.0
 10
12.3913599621
 20
7.6694802533
 30
0.0
 10
12.3905135951
 20
7.6692856373
 30
0.0
 10
12.3894985854
 20
7.6690488689
 30
0.0
 10
12.3881450188
 20
7.6687343056
 30
0.0
 10
12.386453136
 20
7.6683407154
 30
0.0
 10
12.3837460814
 20
7.6677111868
 30
0.0
 10
12.3803622776
 20
7.6669242019
 30
0.0
 10
12.3763017069
 20
7.6659798519
 30
0.0
 10
12.3722411378
 20
7.6650354934
 30
0.0
 10
12.3668270451
 20
7.6637763516
 30
0.0
 10
12.3600594295
 20
7.6622024234
 30
0.0
 10
12.3532918136
 20
7.6606284958
 30
0.0
 10
12.3478777213
 20
7.6593693529
 30
0.0
 10
12.3438171511
 20
7.6584249979
 30
0.0
 10
12.3397565843
 20
7.6574806347
 30
0.0
 10
12.3363727684
 20
7.6566936907
 30
0.0
 10
12.3336657384
 20
7.6560640789
 30
0.0
 10
12.331973793
 20
7.6556707004
 30
0.0
 10
12.3306203551
 20
7.6553557023
 30
0.0
 10
12.3296049524
 20
7.6551202626
 30
0.0
 10
12.3287598148
 20
7.6549214895
 30
0.0
 10
12.3281661947
 20
7.6547873984
 30
0.0
 10
12.3278301431
 20
7.6547028897
 30
0.0
 10
12.3275692032
 20
7.6546617211
 30
0.0
 10
12.3273422879
 20
7.6545356431
 30
0.0
 10
12.327027866
 20
7.6543971566
 30
0.0
 10
12.3264831573
 20
7.6541410057
 30
0.0
 10
12.3257021111
 20
7.6537822904
 30
0.0
 10
12.324766093
 20
7.653348744
 30
0.0
 10
12.3235176367
 20
7.6527717608
 30
0.0
 10
12.3219572143
 20
7.6520501624
 30
0.0
 10
12.3194604558
 20
7.6508958113
 30
0.0
 10
12.316339536
 20
7.6494528017
 30
0.0
 10
12.3125944201
 20
7.6477212205
 30
0.0
 10
12.3088493075
 20
7.6459896312
 30
0.0
 10
12.3038558228
 20
7.6436808484
 30
0.0
 10
12.2976139674
 20
7.6407948687
 30
0.0
 10
12.2913721117
 20
7.6379088897
 30
0.0
 10
12.2863786275
 20
7.6356001057
 30
0.0
 10
12.2826335133
 20
7.6338685198
 30
0.0
 10
12.2788884033
 20
7.632136926
 30
0.0
 10
12.2757674653
 20
7.6306939558
 30
0.0
 10
12.273270744
 20
7.6295395243
 30
0.0
 10
12.2717102269
 20
7.6288181309
 30
0.0
 10
12.270461965
 20
7.6282407268
 30
0.0
 10
12.269525353
 20
7.6278084661
 30
0.0
 10
12.2687461649
 20
7.6274457282
 30
0.0
 10
12.2681981392
 20
7.6271967583
 30
0.0
 10
12.267889032
 20
7.6270467661
 30
0.0
 10
12.2676457916
 20
7.6269560297
 30
0.0
 10
12.2674461659
 20
7.626782124
 30
0.0
 10
12.2671647849
 20
7.6265792601
 30
0.0
 10
12.2666794564
 20
7.6262107317
 30
0.0
 10
12.2659824243
 20
7.6256913292
 30
0.0
 10
12.2651475718
 20
7.6250650215
 30
0.0
 10
12.2640338812
 20
7.6242310011
 30
0.0
 10
12.2626419576
 20
7.6231881138
 30
0.0
 10
12.2604147739
 20
7.6215196963
 30
0.0
 10
12.2576308306
 20
7.619434105
 30
0.0
 10
12.2542900831
 20
7.6169314252
 30
0.0
 10
12.2509493398
 20
7.6144287375
 30
0.0
 10
12.2464950138
 20
7.6110918233
 30
0.0
 10
12.240927107
 20
7.6069206795
 30
0.0
 10
12.2353591997
 20
7.6027495363
 30
0.0
 10
12.2309048745
 20
7.5994126211
 30
0.0
 10
12.2275641289
 20
7.5969099363
 30
0.0
 10
12.2242233899
 20
7.5944072455
 30
0.0
 10
12.22143942
 20
7.5923216887
 30
0.0
 10
12.2192122907
 20
7.5906532009
 30
0.0
 10
12.2178202286
 20
7.5896104924
 30
0.0
 10
12.2167068223
 20
7.5887761049
 30
0.0
 10
12.2158711013
 20
7.5881509187
 30
0.0
 10
12.2151767868
 20
7.5876280073
 30
0.0
 10
12.2146866067
 20
7.5872657429
 30
0.0
 10
12.2144129992
 20
7.5870528426
 30
0.0
 10
12.214189496
 20
7.5869097654
 30
0.0
 10
12.2140359355
 20
7.5867032423
 30
0.0
 10
12.2138067914
 20
7.5864500088
 30
0.0
 10
12.2134171562
 20
7.5859965391
 30
0.0
 10
12.2128545917
 20
7.585354116
 30
0.0
 10
12.2121820579
 20
7.5845809009
 30
0.0
 10
12.2112844578
 20
7.5835507533
 30
0.0
 10
12.2101627619
 20
7.5822627929
 30
0.0
 10
12.2083678784
 20
7.5802022104
 30
0.0
 10
12.2061243323
 20
7.5776264294
 30
0.0
 10
12.2034320521
 20
7.5745355149
 30
0.0
 10
12.2007397785
 20
7.5714445944
 30
0.0
 10
12.1971500781
 20
7.5673233691
 30
0.0
 10
12.1926629535
 20
7.5621718367
 30
0.0
 10
12.1881758282
 20
7.5570203048
 30
0.0
 10
12.1845861287
 20
7.5528990787
 30
0.0
 10
12.1818938523
 20
7.5498081605
 30
0.0
 10
12.1792015829
 20
7.5467172371
 30
0.0
 10
12.176958003
 20
7.5441414839
 30
0.0
 10
12.1751631886
 20
7.5420808447
 30
0.0
 10
12.1740413168
 20
7.5407930286
 30
0.0
 10
12.1731440776
 20
7.5397625849
 30
0.0
 10
12.1724704413
 20
7.5389902744
 30
0.0
 10
12.1719113264
 20
7.538345021
 30
0.0
 10
12.1715155331
 20
7.5378966038
 30
0.0
 10
12.1712962558
 20
7.5376352749
 30
0.0
 10
12.1711123876
 20
7.5374536184
 30
0.0
 10
12.1710027153
 20
7.5372171465
 30
0.0
 10
12.1708306053
 20
7.5369209708
 30
0.0
 10
12.1705414708
 20
7.5363937549
 30
0.0
 10
12.1701221174
 20
7.5356452468
 30
0.0
 10
12.1696215918
 20
7.5347450436
 30
0.0
 10
12.1689532817
 20
7.5335454689
 30
0.0
 10
12.1681182169
 20
7.5320457621
 30
0.0
 10
12.1667819328
 20
7.5296463645
 30
0.0
 10
12.1651116395
 20
7.5266470718
 30
0.0
 10
12.1631072611
 20
7.5230479401
 30
0.0
 10
12.1611028897
 20
7.5194488032
 30
0.0
 10
12.1584303921
 20
7.5146499558
 30
0.0
 10
12.1550897711
 20
7.5086513959
 30
0.0
 10
12.1517491493
 20
7.5026528365
 30
0.0
 10
12.1490766528
 20
7.4978539884
 30
0.0
 10
12.1470722783
 20
7.4942548534
 30
0.0
 10
12.1450679117
 20
7.4906557146
 30
0.0
 10
12.1433975816
 20
7.4876564442
 30
0.0
 10
12.1420613726
 20
7.4852570011
 30
0.0
 10
12.1412261167
 20
7.48375741
 30
0.0
 10
12.1405581988
 20
7.4825575979
 30
0.0
 10
12.140056475
 20
7.4816581201
 30
0.0
 10
12.1396408701
 20
7.4809073422
 30
0.0
 10
12.139345044
 20
7.4803841784
 30
0.0
 10
12.1391836557
 20
7.4800815102
 30
0.0
 10
12.1390410498
 20
7.4798649811
 30
0.0
 10
12.1389808746
 20
7.4796084229
 30
0.0
 10
12.1388718881
 20
7.4792803078
 30
0.0
 10
12.1386945583
 20
7.478699601
 30
0.0
 10
12.1384342262
 20
7.477873421
 30
0.0
 10
12.1381248256
 20
7.4768805493
 30
0.0
 10
12.1377112443
 20
7.4755572287
 30
0.0
 10
12.1371946262
 20
7.4739029039
 30
0.0
 10
12.1363678368
 20
7.4712560815
 30
0.0
 10
12.1353344189
 20
7.4679475201
 30
0.0
 10
12.1340942879
 20
7.4639772608
 30
0.0
 10
12.1328541648
 20
7.4600069976
 30
0.0
 10
12.1312006646
 20
7.4547133147
 30
0.0
 10
12.1291337904
 20
7.4480962106
 30
0.0
 10
12.1270669154
 20
7.4414791069
 30
0.0
 10
12.1254134163
 20
7.4361854235
 30
0.0
 10
12.1241732898
 20
7.4322151618
 30
0.0
 10
12.1229331717
 20
7.428244897
 30
0.0
 10
12.1218997138
 20
7.4249363525
 30
0.0
 10
12.1210730059
 20
7.4222894957
 30
0.0
 10
12.1205561805
 20
7.4206352586
 30
0.0
 10
12.1201430247
 20
7.4193117579
 30
0.0
 10
12.1198323241
 20
7.4183194364
 30
0.0
 10
12.1195760592
 20
7.4174915349
 30
0.0
 10
12.1193914689
 20
7.4169139012
 30
0.0
 10
12.1192941156
 20
7.4165808624
 30
0.0
 10
12.119198207
 20
7.4163394284
 30
0.0
 10
12.1191898095
 20
7.4160660949
 30
0.0
 10
12.1191480879
 20
7.4157127771
 30
0.0
 10
12.1190892973
 20
7.4150892867
 30
0.0
 10
12.1189978752
 20
7.4142012966
 30
0.0
 10
12.1188913513
 20
7.4131345483
 30
0.0
 10
12.1187482078
 20
7.4117126225
 30
0.0
 10
12.1185696591
 20
7.4099350764
 30
0.0
 10
12.1182837684
 20
7.4070910802
 30
0.0
 10
12.117926478
 20
7.4035360584
 30
0.0
 10
12.1174976983
 20
7.3992700437
 30
0.0
 10
12.117068927
 20
7.3950040259
 30
0.0
 10
12.1164972289
 20
7.3893160032
 30
0.0
 10
12.1157826074
 20
7.3822059745
 30
0.0
 10
12.1150679851
 20
7.375095946
 30
0.0
 10
12.1144962882
 20
7.3694079231
 30
0.0
 10
12.1140675133
 20
7.3651419059
 30
0.0
 10
12.113638747
 20
7.3608758889
 30
0.0
 10
12.1132814148
 20
7.3573208742
 30
0.0
 10
12.1129956096
 20
7.3544768635
 30
0.0
 10
12.1128168432
 20
7.3526993543
 30
0.0
 10
12.1126741464
 20
7.3512773529
 30
0.0
 10
12.1125662579
 20
7.3502108354
 30
0.0
 10
12.1124791054
 20
7.349322123
 30
0.0
 10
12.1124126928
 20
7.348699922
 30
0.0
 10
12.1123831835
 20
7.3483445384
 30
0.0
 10
12.1123372739
 20
7.3480775505
 30
0.0
 10
12.1123822545
 20
7.3478122833
 30
0.0
 10
12.112410525
 20
7.3474579935
 30
0.0
 10
12.1124747697
 20
7.3468382659
 30
0.0
 10
12.1125588253
 20
7.3459527947
 30
0.0
 10
12.1126629975
 20
7.3448902918
 30
0.0
 10
12.1128007393
 20
7.3434735994
 30
0.0
 10
12.1129733118
 20
7.3417027413
 30
0.0
 10
12.1132492069
 20
7.3388693643
 30
0.0
 10
12.1135941515
 20
7.3353276444
 30
0.0
 10
12.1140080526
 20
7.3310775799
 30
0.0
 10
12.1144219623
 20
7.3268275157
 30
0.0
 10
12.114973839
 20
7.3211607632
 30
0.0
 10
12.1156636859
 20
7.3140773227
 30
0.0
 10
12.1163535321
 20
7.3069938821
 30
0.0
 10
12.11690541
 20
7.3013271297
 30
0.0
 10
12.1173193161
 20
7.2970770652
 30
0.0
 10
12.1177332307
 20
7.2928270017
 30
0.0
 10
12.1180781334
 20
7.2892852788
 30
0.0
 10
12.118354114
 20
7.286451908
 30
0.0
 10
12.1185264688
 20
7.2846810341
 30
0.0
 10
12.1186646574
 20
7.2832643742
 30
0.0
 10
12.1187674644
 20
7.2822017719
 30
0.0
 10
12.1188557914
 20
7.2813166115
 30
0.0
 10
12.118912411
 20
7.280696329
 30
0.0
 10
12.1189528989
 20
7.2803429284
 30
0.0
 10
12.1189603516
 20
7.28007493
 30
0.0
 10
12.1190553906
 20
7.2798182
 30
0.0
 10
12.1191515581
 20
7.2794719628
 30
0.0
 10
12.1193340857
 20
7.278867879
 30
0.0
 10
12.1195873975
 20
7.2780039448
 30
0.0
 10
12.119894557
 20
7.2769676335
 30
0.0
 10
12.1203029904
 20
7.275585742
 30
0.0
 10
12.1208139132
 20
7.2738584266
 30
0.0
 10
12.1216311767
 20
7.2710946946
 30
0.0
 10
12.1226528291
 20
7.2676400389
 30
0.0
 10
12.1238787807
 20
7.2634944482
 30
0.0
 10
12.1251047406
 20
7.2593488585
 30
0.0
 10
12.126739351
 20
7.2538214052
 30
0.0
 10
12.128782615
 20
7.2469120887
 30
0.0
 10
12.1308258783
 20
7.240002772
 30
0.0
 10
12.1324604898
 20
7.234475319
 30
0.0
 10
12.1336864463
 20
7.2303297285
 30
0.0
 10
12.1349124107
 20
7.2261841407
 30
0.0
 10
12.1359340231
 20
7.2227294758
 30
0.0
 10
12.1367513682
 20
7.2199657627
 30
0.0
 10
12.1372620834
 20
7.2182383991
 30
0.0
 10
12.1376709428
 20
7.2168566066
 30
0.0
 10
12.1379768009
 20
7.2158199927
 30
0.0
 10
12.1382341845
 20
7.2149570054
 30
0.0
 10
12.1384094432
 20
7.2143512311
 30
0.0
 10
12.1385172573
 20
7.2140077025
 30
0.0
 10
12.1385765221
 20
7.2137426526
 30
0.0
 10
12.1387183367
 20
7.2135059025
 30
0.0
 10
12.1388786285
 20
7.2131803643
 30
0.0
 10
12.139172555
 20
7.2126152717
 30
0.0
 10
12.139585436
 20
7.2118055921
 30
0.0
 10
12.1400838955
 20
7.2108350057
 30
0.0
 10
12.1407474595
 20
7.2095405311
 30
0.0
 10
12.1415772736
 20
7.2079225609
 30
0.0
 10
12.1429047754
 20
7.2053337398
 30
0.0
 10
12.1445642215
 20
7.2020977371
 30
0.0
 10
12.1465555274
 20
7.1982145237
 30
0.0
 10
12.1485468411
 20
7.1943313129
 30
0.0
 10
12.1512019233
 20
7.1891536977
 30
0.0
 10
12.1545207771
 20
7.182681679
 30
0.0
 10
12.1578396303
 20
7.17620966
 30
0.0
 10
12.1604947136
 20
7.1710320453
 30
0.0
 10
12.162486024
 20
7.1671488332
 30
0.0
 10
12.1644773422
 20
7.1632656248
 30
0.0
 10
12.1661367501
 20
7.1600296064
 30
0.0
 10
12.1674643299
 20
7.1574408171
 30
0.0
 10
12.1682939455
 20
7.155822766
 30
0.0
 10
12.1689579168
 20
7.1545284575
 30
0.0
 10
12.1694551318
 20
7.1535573636
 30
0.0
 10
12.1698719065
 20
7.1527492721
 30
0.0
 10
12.1701588822
 20
7.1521813445
 30
0.0
 10
12.170330311
 20
7.1518603487
 30
0.0
 10
12.1704379162
 20
7.1516096459
 30
0.0
 10
12.170625666
 20
7.1513969996
 30
0.0
 10
12.1708480438
 20
7.1511001968
 30
0.0
 10
12.1712502297
 20
7.1505869766
 30
0.0
 10
12.1718179716
 20
7.1498505713
 30
0.0
 10
12.1725021765
 20
7.1489682691
 30
0.0
 10
12.1734134316
 20
7.1477913828
 30
0.0
 10
12.1745528492
 20
7.1463204403
 30
0.0
 10
12.1763757224
 20
7.1439668399
 30
0.0
 10
12.1786543808
 20
7.1410248712
 30
0.0
 10
12.1813887422
 20
7.137494495
 30
0.0
 10
12.1841231113
 20
7.1339641225
 30
0.0
 10
12.187768934
 20
7.1292569579
 30
0.0
 10
12.1923262135
 20
7.1233730027
 30
0.0
 10
12.1968834923
 20
7.117489047
 30
0.0
 10
12.200529316
 20
7.1127818831
 30
0.0
 10
12.2032636823
 20
7.1092515085
 30
0.0
 10
12.2059980542
 20
7.1057211403
 30
0.0
 10
12.20827668
 20
7.1027791471
 30
0.0
 10
12.2100996197
 20
7.1004255965
 30
0.0
 10
12.211238868
 20
7.0989545273
 30
0.0
 10
12.2121504705
 20
7.0977779011
 30
0.0
 10
12.2128336142
 20
7.0968948039
 30
0.0
 10
12.2134046764
 20
7.0961608861
 30
0.0
 10
12.2138009349
 20
7.0956432254
 30
0.0
 10
12.21403281
 20
7.0953535373
 30
0.0
 10
12.2141913872
 20
7.0951190367
 30
0.0
 10
12.2144085597
 20
7.0949504153
 30
0.0
 10
12.2146776844
 20
7.0947026073
 30
0.0
 10
12.2151581754
 20
7.0942796499
 30
0.0
 10
12.2158396125
 20
7.0936698276
 30
0.0
 10
12.216659468
 20
7.0929404367
 30
0.0
 10
12.2177518644
 20
7.0919670786
 30
0.0
 10
12.2191176147
 20
7.0907506676
 30
0.0
 10
12.2213026727
 20
7.0888042498
 30
0.0
 10
12.2240340442
 20
7.0863712825
 30
0.0
 10
12.2273116689
 20
7.0834516982
 30
0.0
 10
12.2305892993
 20
7.0805321202
 30
0.0
 10
12.2349594711
 20
7.0766393473
 30
0.0
 10
12.2404221867
 20
7.0717733821
 30
0.0
 10
12.2458849018
 20
7.0669074162
 30
0.0
 10
12.2502550744
 20
7.0630146443
 30
0.0
 10
12.2535327026
 20
7.0600950635
 30
0.0
 10
12.2568103355
 20
7.0571754895
 30
0.0
 10
12.2595416815
 20
7.0547424901
 30
0.0
 10
12.2617267914
 20
7.0527961378
 30
0.0
 10
12.2630924097
 20
7.0515795601
 30
0.0
 10
12.2641850771
 20
7.0506065442
 30
0.0
 10
12.2650041045
 20
7.0498761082
 30
0.0
 10
12.2656881326
 20
7.0492695557
 30
0.0
 10
12.2661639981
 20
7.048840761
 30
0.0
 10
12.266440534
 20
7.0486023059
 30
0.0
 10
12.2666349418
 20
7.0484049555
 30
0.0
 10
12.2668790195
 20
7.0482783563
 30
0.0
 10
12.2671871311
 20
7.0480848787
 30
0.0
 10
12.2677343985
 20
7.0477577911
 30
0.0
 10
12.2685119888
 20
7.0472845117
 30
0.0
 10
12.2694469037
 20
7.0467191494
 30
0.0
 10
12.2706928258
 20
7.0459644344
 30
0.0
 10
12.2722504445
 20
7.0450213483
 30
0.0
 10
12.2747425137
 20
7.0435122386
 30
0.0
 10
12.2778576417
 20
7.0416259105
 30
0.0
 10
12.2815957775
 20
7.0393622915
 30
0.0
 10
12.285333918
 20
7.0370986792
 30
0.0
 10
12.2903181037
 20
7.0340805271
 30
0.0
 10
12.2965483365
 20
7.030307838
 30
0.0
 10
12.3027785689
 20
7.0265351482
 30
0.0
 10
12.3077627551
 20
7.0235169971
 30
0.0
 10
12.311500894
 20
7.0212533818
 30
0.0
 10
12.3152390361
 20
7.0189897742
 30
0.0
 10
12.3183541443
 20
7.0171034106
 30
0.0
 10
12.3208462538
 20
7.0155943732
 30
0.0
 10
12.3224037701
 20
7.0146511032
 30
0.0
 10
12.3236499025
 20
7.0138967657
 30
0.0
 10
12.3245841749
 20
7.01333025
 30
0.0
 10
12.3253637752
 20
7.0128605796
 30
0.0
 10
12.3259074546
 20
7.0125270492
 30
0.0
 10
12.326221315
 20
7.0123438945
 30
0.0
 10
12.3264477339
 20
7.0121855865
 30
0.0
 10
12.3267084653
 20
7.0121073294
 30
0.0
 10
12.3270441386
 20
7.011975064
 30
0.0
 10
12.3276371433
 20
7.0117566092
 30
0.0
 10
12.3284813773
 20
7.0114377293
 30
0.0
 10
12.3294957061
 20
7.0110579847
 30
0.0
 10
12.3308477087
 20
7.0105506417
 30
0.0
 10
12.3325378611
 20
7.0099168111
 30
0.0
 10
12.3352420215
 20
7.0089024876
 30
0.0
 10
12.3386222506
 20
7.00763465
 30
0.0
 10
12.3426785133
 20
7.0061132162
 30
0.0
 10
12.3467347793
 20
7.0045917901
 30
0.0
 10
12.3521431328
 20
7.0025632193
 30
0.0
 10
12.3589035752
 20
7.0000275068
 30
0.0
 10
12.3656640172
 20
6.9974917936
 30
0.0
 10
12.3710723711
 20
6.9954632239
 30
0.0
 10
12.3751286359
 20
6.9939417944
 30
0.0
 10
12.3791849032
 20
6.9924203732
 30
0.0
 10
12.3825651182
 20
6.9911524966
 30
0.0
 10
12.3852693074
 20
6.9901382526
 30
0.0
 10
12.3869593865
 20
6.9895042198
 30
0.0
 10
12.3883115396
 20
6.9889972919
 30
0.0
 10
12.3893254083
 20
6.9886162792
 30
0.0
 10
12.3901710818
 20
6.9883013666
 30
0.0
 10
12.3907615169
 20
6.9880758295
 30
0.0
 10
12.3911013072
 20
6.9879549117
 30
0.0
 10
12.3913493924
 20
6.9878417984
 30
0.0
 10
12.3916233085
 20
6.9878144047
 30
0.0
 10
12.3919795198
 20
6.9877479798
 30
0.0
 10
12.3926070876
 20
6.9876456672
 30
0.0
 10
12.3935014182
 20
6.987492223
 30
0.0
 10
12.3945755545
 20
6.9873112075
 30
0.0
 10
12.396007408
 20
6.9870687647
 30
0.0
 10
12.3977973372
 20
6.986766084
 30
0.0
 10
12.4006611612
 20
6.9862815864
 30
0.0
 10
12.4042409628
 20
6.9856760359
 30
0.0
 10
12.4085367154
 20
6.9849493448
 30
0.0
 10
12.4128324705
 20
6.9842226618
 30
0.0
 10
12.4185601431
 20
6.9832537483
 30
0.0
 10
12.4257197342
 20
6.9820426074
 30
0.0
 10
12.4343112433
 20
6.9805892378
 30
0.0
 10
12.4457665888
 20
6.978651412
 30
0.0
 10
12.454358098
 20
6.9771980425
 30
0.0
 10
12.4600857707
 20
6.9762291296
 30
0.0
  0
ENDSEC
  0
SECTION
  2
OBJECTS
  0
DICTIONARY
  5
C
100
AcDbDictionary
280
0
281
1
  3
ACAD_GROUP
350
D
  3
ACAD_MLINESTYLE
350
17
  3
ACAD_LAYOUT
350
1A
  3
ACAD_PLOTSETTINGS
350
19
  3
ACAD_PLOTSTYLENAME
350
E
  3
ACAD_IMAGE_DICT
350
       3BA
  3
ACAD_IMAGE_VARS
350
       3BB
  3
ACAD_TABLESTYLE
350
       3BC
  0
IMAGEDEF_REACTOR
  5
3B9
100
AcDbRasterImageDefReactor
 90
2
330
27F
  0
DICTIONARY
  5
D
102
{ACAD_REACTORS
330
C
102
}
100
AcDbDictionary
280
0
281
1
  0
ACDBDICTIONARYWDFLT
  5
E
102
{ACAD_REACTORS
330
C
102
}
100
AcDbDictionary
281
1
  3
Normal
350
F
100
AcDbDictionaryWithDefault
340
F
  0
DICTIONARY
  5
3BA
330
C
100
AcDbDictionary
281
1
  3
RPECLWN-FAJ-S_assy_2_img_1
350
       3BF
  0
RASTERVARIABLES
  5
3BB
330
C
100
AcDbRasterVariables
 90
0
 70
0
 71
1
 72
5
  0
DICTIONARY
  5
17
102
{ACAD_REACTORS
330
C
102
}
100
AcDbDictionary
280
0
281
1
  3
Standard
350
18
  0
DICTIONARY
  5
3BC
330
C
100
AcDbDictionary
281
1
  3
Standard
350
       3C0
  3
Standard1
350
       3C1
  0
DICTIONARY
  5
19
102
{ACAD_REACTORS
330
C
102
}
100
AcDbDictionary
281
1
  0
DICTIONARY
  5
1A
102
{ACAD_REACTORS
330
C
102
}
100
AcDbDictionary
281
1
  3
Model
350
3BD
  3
Layout1
350
3BE
  0
ACDBPLACEHOLDER
  5
F
102
{ACAD_REACTORS
330
E
102
}
  0
MLINESTYLE
  5
18
102
{ACAD_REACTORS
330
17
102
}
100
AcDbMlineStyle
  2
STANDARD
 70
0
  3

 62
256
 51
90.0
 52
90.0
 71
2
 49
0.5
 62
256
  6
BYLAYER
 49
-0.5
 62
256
  6
BYLAYER
  0
LAYOUT
  5
3BD
102
{ACAD_REACTORS
330
1A
102
}
100
AcDbPlotSettings
  1

  2
none_device
  4
ANSI_C_(22.00_x_17.00_Inches)
  6

 40
0.0
 41
0.0
 42
0.0
 43
0.0
 44
558.8
 45
431.8
 46
0.0
 47
0.0
 48
0.0
 49
0.0
140
0.0
141
0.0
142
1.0
143
1.0
 70
1024
 72
0
 73
0
 74
0
  7

 75
0
147
1.0
148
0.0
149
0.0
100
AcDbLayout
  1
Model
 70
0
 71
0
 10
0.0
 20
0.0
 11
22.0
 21
17.0
 12
0.0
 22
0.0
 32
0.0
 14
0.0
 24
0.0
 34
0.0
 15
0.0
 25
0.0
 35
0.0
146
0.0
 13
0.0
 23
0.0
 33
0.0
 16
1.0
 26
0.0
 36
0.0
 17
0.0
 27
1.0
 37
0.0
 76
0
330
204
345
0
346
0
  0
LAYOUT
  5
3BE
102
{ACAD_REACTORS
330
1A
102
}
100
AcDbPlotSettings
  1

  2
none_device
  4
ANSI_C_(22.00_x_17.00_Inches)
  6

 40
0.0
 41
0.0
 42
0.0
 43
0.0
 44
558.8
 45
431.8
 46
0.0
 47
0.0
 48
0.0
 49
0.0
140
0.0
141
0.0
142
1.0
143
1.0
 70
0
 72
0
 73
0
 74
0
  7

 75
0
147
1.0
148
0.0
149
0.0
100
AcDbLayout
  1
Layout1
 70
0
 71
1
 10
0.0
 20
0.0
 11
22.0
 21
17.0
 12
0.0
 22
0.0
 32
0.0
 14
0.0
 24
0.0
 34
0.0
 15
0.0
 25
0.0
 35
0.0
146
0.0
 13
0.0
 23
0.0
 33
0.0
 16
1.0
 26
0.0
 36
0.0
 17
0.0
 27
1.0
 37
0.0
 76
0
330
205
345
0
346
0
  0
IMAGEDEF
  5
3BF
102
{ACAD_REACTORS
330
3BA
330
3B9
102
}
100
AcDbRasterImageDef
 90
0
  1
RPECLWN-FAJ-S_assy_2_img_1.png
 10
369.0
 20
92.0
 11
0.0066666667
 21
0.0066666667
280
1
281
0
  0
TABLESTYLE
  5
3C0
102
{ACAD_REACTORS
330
3BC
330
282
330
283
102
}
330
3BC
100
AcDbTableStyle
  3
Standard
 70
0
 71
0
 40
0.06
 41
0.06
280
1
281
1
  7
Standard
140
0.18
170
1
 62
0
 63
7
283
0
  7
Standard
140
0.18
170
1
 62
0
 63
7
283
0
  7
Standard
140
0.18
170
1
 62
0
 63
7
283
0
  0
TABLESTYLE
  5
3C1
102
{ACAD_REACTORS
330
3BC
330
281
102
}
330
3BC
100
AcDbTableStyle
  3
Standard1
 70
1
 71
0
 40
0.06
 41
0.06
280
1
281
1
  7
Standard
140
0.18
170
1
 62
0
 63
7
283
0
  7
Standard
140
0.18
170
1
 62
0
 63
7
283
0
  7
Standard
140
0.18
170
1
 62
0
 63
7
283
0
  0
ENDSEC
  0
EOF
