999
DXF file: RPECLCN-FAJ-S_assy_2.dxf
999
Pro/ENGINEER 2014200 by Parametric Technology Corporation
  0
SECTION
  2
HEADER
  9
$ACADVER
  1
AC1021
  9
$DWGCODEPAGE
  3
ANSI_1252
  9
$EXTMAX
 10
22.0
 20
17.0
 30
0.0
  9
$EXTMIN
 10
0.0
 20
0.0
 30
0.0
  9
$LIMMIN
 10
0.0
 20
0.0
  9
$LIMMAX
 10
22.0
 20
17.0
  9
$VIEWCTR
 10
11.0
 20
8.5
  9
$VIEWSIZE
 40
17.0
  9
$CLAYER
  8
0
  9
$LTSCALE
 40
1.21
  9
$CELTYPE
  6
BYLAYER
  9
$DIMSCALE
 40
1.0
  9
$DIMASZ
 40
0.1875
  9
$DIMEXO
 40
0.0625
  9
$DIMDLI
 40
0.836
  9
$DIMEXE
 40
0.125
  9
$DIMCEN
 40
0.198
  9
$DIMLFAC
 40
1.0
  9
$DIMBLK
  1
_FILLED
  9
$DIMTXT
 40
0.1
  9
$DIMTOL
 70
0
  9
$DIMLIM
 70
0
  9
$DIMTFAC
 40
1.0
  9
$DIMGAP
 40
0.09
  9
$DIMDSEP
 70
46
  9
$AUNITS
 70
0
  9
$PDMODE
 70
3
  9
$PDSIZE
 40
0.3125
  9
$HANDSEED
  5
3A0
  9
$TILEMODE
 70
1
  9
$MEASUREMENT
 70
0
  9
$INSUNITS
 70
1
  0
ENDSEC
  0
SECTION
  2
CLASSES
  0
CLASS
  1
ACDBDICTIONARYWDFLT
  2
AcDbDictionaryWithDefault
  3
AutoCAD 2000
 90
0
 91
1
280
0
281
0
  0
CLASS
  1
ACDBPLACEHOLDER
  2
AcDbPlaceHolder
  3
AutoCAD 2000
 90
0
 91
1
280
0
281
0
  0
CLASS
  1
LAYOUT
  2
AcDbLayout
  3
AutoCAD 2000
 90
0
 91
0
280
0
281
0
  0
CLASS
  1
RASTERVARIABLES
  2
AcDbRasterVariables
  3
ISM
 90
0
 91
1
280
0
281
0
  0
CLASS
  1
IMAGEDEF
  2
AcDbRasterImageDef
  3
ISM
 90
0
 91
1
280
0
281
0
  0
CLASS
  1
IMAGEDEF_REACTOR
  2
AcDbRasterImageDefReactor
  3
ISM
 90
0
 91
1
280
0
281
0
  0
CLASS
  1
IMAGE
  2
AcDbRasterImage
  3
ISM
 90
127
 91
1
280
0
281
1
  0
CLASS
  1
TABLESTYLE
  2
AcDbTableStyle
  3
ObjectDBX Classes
 90
2047
 91
1
280
0
281
0
  0
CLASS
  1
ACAD_TABLE
  2
AcDbTable
  3
ObjectDBX Classes
 90
1025
 91
3
280
0
281
1
  0
ENDSEC
  0
SECTION
  2
TABLES
  0
TABLE
  2
VPORT
  5
8
100
AcDbSymbolTable
 70
2
  0
VPORT
  5
1F4
100
AcDbSymbolTableRecord
100
AcDbViewportTableRecord
  2
*ACTIVE
 70
0
 10
0.0
 20
0.0
 11
1.0
 21
1.0
 12
11.0
 22
8.5
 13
0.0
 23
0.0
 14
1.0
 24
1.0
 15
0.0
 25
0.0
 16
0.0
 26
0.0
 36
1.0
 17
0.0
 27
0.0
 37
0.0
 40
17.0
 41
1.2941176471
 42
50.0
 43
0.0
 44
0.0
 50
0.0
 51
0.0
 71
0
 72
100
 73
1
 74
1
 75
0
 76
0
 77
0
 78
0
  0
ENDTAB
  0
TABLE
  2
LTYPE
  5
5
100
AcDbSymbolTable
 70
6
  0
LTYPE
  5
14
100
AcDbSymbolTableRecord
100
AcDbLinetypeTableRecord
  2
BYBLOCK
 70
0
  3

 72
65
 73
0
 40
0.0
  0
LTYPE
  5
15
100
AcDbSymbolTableRecord
100
AcDbLinetypeTableRecord
  2
BYLAYER
 70
0
  3

 72
65
 73
0
 40
0.0
  0
LTYPE
  5
16
100
AcDbSymbolTableRecord
100
AcDbLinetypeTableRecord
  2
CONTINUOUS
 70
64
  3
Solid line
 72
65
 73
0
 40
0.0
  0
LTYPE
  5
1F5
100
AcDbSymbolTableRecord
100
AcDbLinetypeTableRecord
  2
CENTER
 70
64
  3
____ _ ____ _ ____ _ ____ _ ____ _ ____ _ ____
 72
65
 73
4
 40
0.6
 49
0.375
 74
0
 49
-0.075
 74
0
 49
0.075
 74
0
 49
-0.075
 74
0
  0
LTYPE
  5
1F6
100
AcDbSymbolTableRecord
100
AcDbLinetypeTableRecord
  2
HIDDEN
 70
64
  3
- - - - - - - - - - - - - - - - - - - -
 72
65
 73
2
 40
0.2
 49
0.1
 74
0
 49
-0.1
 74
0
  0
LTYPE
  5
1F7
100
AcDbSymbolTableRecord
100
AcDbLinetypeTableRecord
  2
PHANTOM
 70
64
  3
_____ _ _ _____ _ _ _____ _ _ _____
 72
65
 73
6
 40
0.8
 49
0.45
 74
0
 49
-0.05
 74
0
 49
0.1
 74
0
 49
-0.05
 74
0
 49
0.1
 74
0
 49
-0.05
 74
0
  0
LTYPE
  5
1F8
100
AcDbSymbolTableRecord
100
AcDbLinetypeTableRecord
  2
DOT
 70
64
  3
. . . . . . . . . . . . . . . . . . . .
 72
65
 73
2
 40
0.2
 49
0.1
 74
0
 49
-0.1
 74
0
  0
LTYPE
  5
1F9
100
AcDbSymbolTableRecord
100
AcDbLinetypeTableRecord
  2
DASHED
 70
64
  3
- - - - - - - - - - - - - - - - - - - -
 72
65
 73
2
 40
0.2
 49
0.1
 74
0
 49
-0.1
 74
0
  0
ENDTAB
  0
TABLE
  2
LAYER
  5
2
100
AcDbSymbolTable
 70
36
  0
LAYER
  5
10
100
AcDbSymbolTableRecord
100
AcDbLayerTableRecord
  2
0
 70
0
 62
7
  6
CONTINUOUS
370
-3
390
F
  0
LAYER
  5
1FA
100
AcDbSymbolTableRecord
100
AcDbLayerTableRecord
  2
DEFAULT_1
 70
0
 62
7
  6
CENTER
370
-3
390
F
  0
LAYER
  5
1FB
100
AcDbSymbolTableRecord
100
AcDbLayerTableRecord
  2
DEFAULT_2
 70
0
 62
8
  6
HIDDEN
370
-3
390
F
  0
LAYER
  5
1FC
100
AcDbSymbolTableRecord
100
AcDbLayerTableRecord
  2
DEFAULT_3
 70
0
 62
7
  6
PHANTOM
370
-3
390
F
  0
LAYER
  5
1FD
100
AcDbSymbolTableRecord
100
AcDbLayerTableRecord
  2
DATUM_PLANES
 70
0
 62
7
  6
CONTINUOUS
370
-3
390
F
  0
LAYER
  5
1FE
100
AcDbSymbolTableRecord
100
AcDbLayerTableRecord
  2
PORT_AREAS
 70
0
 62
7
  6
CONTINUOUS
370
-3
390
F
  0
LAYER
  5
1FF
100
AcDbSymbolTableRecord
100
AcDbLayerTableRecord
  2
SUNNBOMCOSMETIC
 70
0
 62
7
  6
CONTINUOUS
370
-3
390
F
  0
LAYER
  5
200
100
AcDbSymbolTableRecord
100
AcDbLayerTableRecord
  2
SUNNBOMSTAMPING
 70
0
 62
7
  6
CONTINUOUS
370
-3
390
F
  0
LAYER
  5
201
100
AcDbSymbolTableRecord
100
AcDbLayerTableRecord
  2
THREADS
 70
0
 62
7
  6
CONTINUOUS
370
-3
390
F
  0
ENDTAB
  0
TABLE
  2
STYLE
  5
3
100
AcDbSymbolTable
 70
1
  0
STYLE
  5
11
100
AcDbSymbolTableRecord
100
AcDbTextStyleTableRecord
  2
STANDARD
 70
0
 40
0.0
 41
0.8
 50
0.0
 71
0
 42
0.2
  3
txt
  4

  0
STYLE
  5
202
100
AcDbSymbolTableRecord
100
AcDbTextStyleTableRecord
  2
TEXTSTYLE_1
 70
0
 40
0.0
 41
0.8
 50
0.0
 71
0
 42
0.2
  3
gdt
  4

  0
ENDTAB
  0
TABLE
  2
VIEW
  5
6
100
AcDbSymbolTable
 70
0
  0
ENDTAB
  0
TABLE
  2
UCS
  5
7
100
AcDbSymbolTable
 70
0
  0
ENDTAB
  0
TABLE
  2
APPID
  5
9
100
AcDbSymbolTable
 70
1
  0
APPID
  5
203
100
AcDbSymbolTableRecord
100
AcDbRegAppTableRecord
  2
ACAD
 70
0
  0
ENDTAB
  0
TABLE
  2
BLOCK_RECORD
  5
1
100
AcDbSymbolTable
 70
0
  0
BLOCK_RECORD
  5
204
100
AcDbSymbolTableRecord
100
AcDbBlockTableRecord
  2
*Model_Space
  0
BLOCK_RECORD
  5
205
100
AcDbSymbolTableRecord
100
AcDbBlockTableRecord
  2
*Paper_Space
  0
BLOCK_RECORD
  5
206
100
AcDbSymbolTableRecord
100
AcDbBlockTableRecord
  2
SUN_FIRST_THIRD_ANGLE_BL0
  0
BLOCK_RECORD
  5
207
100
AcDbSymbolTableRecord
100
AcDbBlockTableRecord
  2
*T1
  0
BLOCK_RECORD
  5
208
100
AcDbSymbolTableRecord
100
AcDbBlockTableRecord
  2
*T2
  0
BLOCK_RECORD
  5
209
100
AcDbSymbolTableRecord
100
AcDbBlockTableRecord
  2
*T3
  0
ENDTAB
  0
TABLE
  2
DIMSTYLE
  5
A
100
AcDbSymbolTable
 70
1
100
AcDbDimStyleTable
 71
0
  0
DIMSTYLE
105
20A
100
AcDbSymbolTableRecord
100
AcDbDimStyleTableRecord
  2
STANDARD
 70
0
  3

  4

 40
1.0
 41
0.1875
 42
0.0625
 43
0.38
 44
0.125
 45
0.0
 46
0.0
 47
0.001
 48
0.001
140
0.1
141
0.09
142
0.0
143
25.4
144
1.0
145
0.0
146
1.0
147
0.09
 71
0.0
 72
0.0
 73
1
 74
1
 75
0
 76
0
 77
0
 78
4
170
0
171
2
172
0
173
0
174
0
175
0
176
0
177
0
178
0
270
2
271
3
272
3
273
2
274
2
275
0
280
0
281
0
282
0
283
1
284
4
285
0
286
0
287
3
288
0
340
11
278
46
  0
ENDTAB
  0
ENDSEC
  0
SECTION
  2
BLOCKS
  0
BLOCK
  5
20
100
AcDbEntity
  8
0
100
AcDbBlockBegin
  2
*Model_Space
 70
0
 10
0.0
 20
0.0
 30
0.0
  3
*Model_Space
  1

  0
ENDBLK
  5
21
100
AcDbEntity
  8
0
100
AcDbBlockEnd
  0
BLOCK
  5
1C
100
AcDbEntity
  8
0
100
AcDbBlockBegin
  2
*Paper_Space
 70
0
 10
0.0
 20
0.0
 30
0.0
  3
*Paper_Space
  1

  0
ENDBLK
  5
1D
100
AcDbEntity
  8
0
100
AcDbBlockEnd
  0
BLOCK
  5
20B
100
AcDbEntity
  8
0
100
AcDbBlockBegin
 62
2
  6
CONTINUOUS
  2
SUN_FIRST_THIRD_ANGLE_BL0
 70
64
 10
20.4816717061
 20
1.2289683772
  3
SUN_FIRST_THIRD_ANGLE_BL0
  1

  0
TEXT
  5
20C
100
AcDbEntity
  8
0
100
AcDbText
 62
2
  6
CONTINUOUS
 10
19.4750896608
 20
1.4136269581
  7
STANDARD
 40
0.08
  1
FIRST ANGLE
 41
0.8
 72
0
100
AcDbText
  0
TEXT
  5
20D
100
AcDbEntity
  8
0
100
AcDbText
 62
2
  6
CONTINUOUS
 10
20.7842537513
 20
1.4047600029
  7
STANDARD
 40
0.08
  1
THIRD ANGLE
 41
0.8
 72
0
100
AcDbText
  0
LINE
  5
20E
100
AcDbEntity
  8
0
100
AcDbLine
 62
7
  6
CONTINUOUS
 10
19.4767170086
 20
1.1727031207
 11
19.6334271527
 21
1.1717972817
  0
LINE
  5
20F
100
AcDbEntity
  8
0
100
AcDbLine
 62
7
  6
CONTINUOUS
 10
19.6596964832
 20
1.1717972817
 11
19.6950230232
 21
1.171593082
  0
LINE
  5
210
100
AcDbEntity
  8
0
100
AcDbLine
 62
7
  6
CONTINUOUS
 10
19.7194818561
 20
1.1708914427
 11
19.8852396156
 21
1.1699333054
  0
LINE
  5
211
100
AcDbEntity
  8
0
100
AcDbLine
 62
7
  6
CONTINUOUS
 10
19.4758111696
 20
1.2723454088
 11
19.88525039
 21
1.3511534004
  0
LINE
  5
212
100
AcDbEntity
  8
0
100
AcDbLine
 62
7
  6
CONTINUOUS
 10
19.88525039
 20
1.3511534004
 11
19.8831348489
 21
0.9851647912
  0
LINE
  5
213
100
AcDbEntity
  8
0
100
AcDbLine
 62
7
  6
CONTINUOUS
 10
19.8831348489
 20
0.9851647912
 11
19.4767170086
 21
1.0658141206
  0
LINE
  5
214
100
AcDbEntity
  8
0
100
AcDbLine
 62
7
  6
CONTINUOUS
 10
19.4767170086
 20
1.0658141206
 11
19.4779056764
 21
1.2714536432
  0
CIRCLE
  5
215
100
AcDbEntity
  8
0
100
AcDbCircle
 62
7
  6
CONTINUOUS
 10
20.2068232291
 20
1.1717972817
 40
0.175742101
  0
CIRCLE
  5
216
100
AcDbEntity
  8
0
100
AcDbCircle
 62
7
  6
CONTINUOUS
 10
20.2068232291
 20
1.1717972817
 40
0.1005522074
  0
LINE
  5
217
100
AcDbEntity
  8
0
100
AcDbLine
 62
7
  6
CONTINUOUS
 10
20.2077290681
 20
1.3756110529
 11
20.2071171714
 21
1.2379342989
  0
LINE
  5
218
100
AcDbEntity
  8
0
100
AcDbLine
 62
7
  6
CONTINUOUS
 10
20.2077290681
 20
1.2016899681
 11
20.2074674401
 21
1.1428236749
  0
LINE
  5
219
100
AcDbEntity
  8
0
100
AcDbLine
 62
7
  6
CONTINUOUS
 10
20.208634907
 20
1.101141841
 11
20.2080230104
 21
0.963465087
  0
LINE
  5
21A
100
AcDbEntity
  8
0
100
AcDbLine
 62
7
  6
CONTINUOUS
 10
20.0066328138
 20
1.1745147986
 11
20.1443095678
 21
1.1739029019
  0
LINE
  5
21B
100
AcDbEntity
  8
0
100
AcDbLine
 62
7
  6
CONTINUOUS
 10
20.1832714155
 20
1.1727031207
 11
20.238153505
 21
1.172335442
  0
LINE
  5
21C
100
AcDbEntity
  8
0
100
AcDbLine
 62
7
  6
CONTINUOUS
 10
20.2756669918
 20
1.1717972817
 11
20.407916871
 21
1.1712095044
  0
CIRCLE
  5
21D
100
AcDbEntity
  8
0
100
AcDbCircle
 62
7
  6
CONTINUOUS
 10
20.7509457401
 20
1.1693297793
 40
0.1722024983
  0
CIRCLE
  5
21E
100
AcDbEntity
  8
0
100
AcDbCircle
 62
7
  6
CONTINUOUS
 10
20.7509457401
 20
1.1693297793
 40
0.0985164967
  0
LINE
  5
21F
100
AcDbEntity
  8
0
100
AcDbLine
 62
7
  6
CONTINUOUS
 10
20.7169767782
 20
1.170462078
 11
20.7825395137
 21
1.1682766535
  0
LINE
  5
220
100
AcDbEntity
  8
0
100
AcDbLine
 62
7
  6
CONTINUOUS
 10
20.8177513651
 20
1.1693297793
 11
20.947965719
 21
1.1693297793
  0
LINE
  5
221
100
AcDbEntity
  8
0
100
AcDbLine
 62
7
  6
CONTINUOUS
 10
20.6875370113
 20
1.170462078
 11
20.5573226574
 21
1.170462078
  0
LINE
  5
222
100
AcDbEntity
  8
0
100
AcDbLine
 62
7
  6
CONTINUOUS
 10
20.7486811426
 20
1.1987695462
 11
20.7486811426
 21
1.1432869085
  0
LINE
  5
223
100
AcDbEntity
  8
0
100
AcDbLine
 62
7
  6
CONTINUOUS
 10
20.7498134414
 20
1.1059210505
 11
20.7498134414
 21
0.9757066966
  0
LINE
  5
224
100
AcDbEntity
  8
0
100
AcDbLine
 62
7
  6
CONTINUOUS
 10
20.7486811426
 20
1.2338708068
 11
20.7486811426
 21
1.3640851607
  0
LINE
  5
225
100
AcDbEntity
  8
0
100
AcDbLine
 62
7
  6
CONTINUOUS
 10
21.0702539817
 20
1.2701043662
 11
21.4790138229
 21
1.3448360823
  0
LINE
  5
226
100
AcDbEntity
  8
0
100
AcDbLine
 62
7
  6
CONTINUOUS
 10
21.4790138229
 20
1.3448360823
 11
21.4790138229
 21
0.9779712941
  0
LINE
  5
227
100
AcDbEntity
  8
0
100
AcDbLine
 62
7
  6
CONTINUOUS
 10
21.4790138229
 20
0.9779712941
 11
21.069121683
 21
1.0617614
  0
LINE
  5
228
100
AcDbEntity
  8
0
100
AcDbLine
 62
7
  6
CONTINUOUS
 10
21.0702539817
 20
1.2701043662
 11
21.069121683
 21
1.0617614
  0
LINE
  5
229
100
AcDbEntity
  8
0
100
AcDbLine
 62
7
  6
CONTINUOUS
 10
21.4790138229
 20
1.1693297793
 11
21.3159628059
 21
1.1693297793
  0
LINE
  5
22A
100
AcDbEntity
  8
0
100
AcDbLine
 62
7
  6
CONTINUOUS
 10
21.2876553377
 20
1.1693297793
 11
21.2502894796
 21
1.1693297793
  0
LINE
  5
22B
100
AcDbEntity
  8
0
100
AcDbLine
 62
7
  6
CONTINUOUS
 10
21.2208497126
 20
1.1659328831
 11
21.0713862804
 21
1.1659328831
  0
LINE
  5
22C
100
AcDbEntity
  8
0
100
AcDbLine
 62
7
  6
CONTINUOUS
 10
20.4796138713
 20
1.5284908897
 11
20.4766766948
 21
0.9294458646
  0
ENDBLK
  5
22D
100
AcDbEntity
  8
0
  6
BYBLOCK
 62
0
100
AcDbBlockEnd
  0
BLOCK
  5
22E
100
AcDbEntity
  8
0
100
AcDbBlockBegin
  2
*T1
 70
1
 10
0.0
 20
0.0
  3
*T1
  1

  0
LINE
  5
22F
100
AcDbEntity
  8
0
100
AcDbLine
 62
2
  6
CONTINUOUS
 10
9.275
 20
0.0
 11
-0.0
 21
0.0
  0
LINE
  5
230
100
AcDbEntity
  8
0
100
AcDbLine
 62
2
  6
CONTINUOUS
 10
9.275
 20
0.0
 11
9.275
 21
1.25
  0
LINE
  5
231
100
AcDbEntity
  8
0
100
AcDbLine
 62
2
  6
CONTINUOUS
 10
9.275
 20
0.625
 11
-0.0
 21
0.625
  0
LINE
  5
232
100
AcDbEntity
  8
0
100
AcDbLine
 62
2
  6
CONTINUOUS
 10
9.275
 20
1.25
 11
-0.0
 21
1.25
  0
LINE
  5
233
100
AcDbEntity
  8
0
100
AcDbLine
 62
2
  6
CONTINUOUS
 10
6.8
 20
0.0
 11
6.8
 21
1.25
  0
LINE
  5
234
100
AcDbEntity
  8
0
100
AcDbLine
 62
2
  6
CONTINUOUS
 10
6.4
 20
0.0
 11
6.4
 21
0.625
  0
LINE
  5
235
100
AcDbEntity
  8
0
100
AcDbLine
 62
2
  6
CONTINUOUS
 10
5.9
 20
0.0
 11
5.9
 21
0.625
  0
LINE
  5
236
100
AcDbEntity
  8
0
100
AcDbLine
 62
2
  6
CONTINUOUS
 10
5.2
 20
0.0
 11
5.2
 21
0.625
  0
LINE
  5
237
100
AcDbEntity
  8
0
100
AcDbLine
 62
2
  6
CONTINUOUS
 10
4.1
 20
0.0
 11
4.1
 21
1.25
  0
LINE
  5
238
100
AcDbEntity
  8
0
100
AcDbLine
 62
2
  6
CONTINUOUS
 10
-0.0
 20
0.0
 11
-0.0
 21
1.25
  0
MTEXT
  5
239
100
AcDbEntity
  8
0
100
AcDbMText
 62
2
  6
CONTINUOUS
  7
STANDARD
 71
2
 72
1
 10
6.6
 20
0.325
 30
0.0
 11
1.0
 21
0.0
 31
0.0
 44
0.9
  1
2
 40
0.125
 41
0.2
  0
MTEXT
  5
23A
100
AcDbEntity
  8
0
100
AcDbMText
 62
2
  6
CONTINUOUS
  7
STANDARD
 71
2
 72
1
 10
6.15
 20
0.325
 30
0.0
 11
1.0
 21
0.0
 31
0.0
 44
0.9
  1
C
 40
0.125
 41
0.2
  0
MTEXT
  5
23B
100
AcDbEntity
  8
0
100
AcDbMText
 62
2
  6
CONTINUOUS
  7
STANDARD
 71
2
 72
1
 10
5.55
 20
0.325
 30
0.0
 11
1.0
 21
0.0
 31
0.0
 44
0.9
  1
2.000
 40
0.125
 41
1.0
  0
MTEXT
  5
23C
100
AcDbEntity
  8
0
100
AcDbMText
 62
2
  6
CONTINUOUS
  7
STANDARD
 71
2
 72
1
 10
4.65
 20
0.325
 30
0.0
 11
1.0
 21
0.0
 31
0.0
 44
0.9
  1
May-31-23
 40
0.125
 41
1.8
  0
MTEXT
  5
23D
100
AcDbEntity
  8
0
100
AcDbMText
 62
2
  6
CONTINUOUS
  7
STANDARD
 71
2
 72
1
 10
2.05
 20
0.4625
 30
0.0
 11
1.0
 21
0.0
 31
0.0
 44
0.9
  1
Relief manifold assembly
 40
0.125
 41
4.8
  0
MTEXT
  5
23E
100
AcDbEntity
  8
0
100
AcDbMText
 62
2
  6
CONTINUOUS
  7
STANDARD
 71
1
 72
1
 10
6.45
 20
0.5625
 30
0.0
 11
1.0
 21
0.0
 31
0.0
 44
0.9
  1
SHEET
 40
0.06
 41
0.48
  0
MTEXT
  5
23F
100
AcDbEntity
  8
0
100
AcDbMText
 62
2
  6
CONTINUOUS
  7
STANDARD
 71
1
 72
1
 10
5.95
 20
0.5625
 30
0.0
 11
1.0
 21
0.0
 31
0.0
 44
0.9
  1
DWG SIZE
 40
0.06
 41
0.768
  0
MTEXT
  5
240
100
AcDbEntity
  8
0
100
AcDbMText
 62
2
  6
CONTINUOUS
  7
STANDARD
 71
1
 72
1
 10
5.25
 20
0.5625
 30
0.0
 11
1.0
 21
0.0
 31
0.0
 44
0.9
  1
SCALE
 40
0.06
 41
0.48
  0
MTEXT
  5
241
100
AcDbEntity
  8
0
100
AcDbMText
 62
2
  6
CONTINUOUS
  7
STANDARD
 71
1
 72
1
 10
4.15
 20
0.5625
 30
0.0
 11
1.0
 21
0.0
 31
0.0
 44
0.9
  1
DATE
 40
0.06
 41
0.384
  0
MTEXT
  5
242
100
AcDbEntity
  8
0
100
AcDbMText
 62
2
  6
CONTINUOUS
  7
STANDARD
 71
1
 72
1
 10
0.05
 20
0.5625
 30
0.0
 11
1.0
 21
0.0
 31
0.0
 44
0.9
  1
DESCRIPTION
 40
0.06
 41
1.056
  0
MTEXT
  5
243
100
AcDbEntity
  8
0
100
AcDbMText
 62
2
  6
CONTINUOUS
  7
STANDARD
 71
2
 72
1
 10
5.45
 20
1.0375
 30
0.0
 11
1.0
 21
0.0
 31
0.0
 44
0.9
  1
ALL DIMENSIONS IN INCH\PVIEWS ARE THIRD ANGLE
 40
0.12
 41
4.224
  0
MTEXT
  5
244
100
AcDbEntity
  8
0
100
AcDbMText
 62
2
  6
CONTINUOUS
  7
STANDARD
 71
2
 72
1
 10
2.05
 20
0.95
 30
0.0
 11
1.0
 21
0.0
 31
0.0
 44
0.9
  1
RPECLCN-FAJ/S
 40
0.125
 41
2.6
  0
MTEXT
  5
245
100
AcDbEntity
  8
0
100
AcDbMText
 62
2
  6
CONTINUOUS
  7
STANDARD
 71
1
 72
1
 10
0.05
 20
1.1875
 30
0.0
 11
1.0
 21
0.0
 31
0.0
 44
0.9
  1
MODEL
 40
0.06
 41
0.48
  0
ENDBLK
  5
246
100
AcDbEntity
  8
0
  6
BYBLOCK
 62
0
100
AcDbBlockEnd
  0
BLOCK
  5
247
100
AcDbEntity
  8
0
100
AcDbBlockBegin
  2
*T2
 70
1
 10
0.0
 20
0.0
  3
*T2
  1

  0
LINE
  5
248
100
AcDbEntity
  8
0
100
AcDbLine
 62
2
  6
CONTINUOUS
 10
0.0
 20
0.0
 11
9.055
 21
0.0
  0
LINE
  5
249
100
AcDbEntity
  8
0
100
AcDbLine
 62
2
  6
CONTINUOUS
 10
0.0
 20
0.0
 11
0.0
 21
-2.594
  0
LINE
  5
24A
100
AcDbEntity
  8
0
100
AcDbLine
 62
2
  6
CONTINUOUS
 10
0.0
 20
-0.344
 11
9.055
 21
-0.344
  0
LINE
  5
24B
100
AcDbEntity
  8
0
100
AcDbLine
 62
2
  6
CONTINUOUS
 10
0.0
 20
-0.594
 11
9.055
 21
-0.594
  0
LINE
  5
24C
100
AcDbEntity
  8
0
100
AcDbLine
 62
2
  6
CONTINUOUS
 10
0.0
 20
-0.844
 11
9.055
 21
-0.844
  0
LINE
  5
24D
100
AcDbEntity
  8
0
100
AcDbLine
 62
2
  6
CONTINUOUS
 10
0.0
 20
-1.094
 11
9.055
 21
-1.094
  0
LINE
  5
24E
100
AcDbEntity
  8
0
100
AcDbLine
 62
2
  6
CONTINUOUS
 10
0.0
 20
-1.344
 11
9.055
 21
-1.344
  0
LINE
  5
24F
100
AcDbEntity
  8
0
100
AcDbLine
 62
2
  6
CONTINUOUS
 10
0.0
 20
-1.594
 11
9.055
 21
-1.594
  0
LINE
  5
250
100
AcDbEntity
  8
0
100
AcDbLine
 62
2
  6
CONTINUOUS
 10
0.0
 20
-1.844
 11
9.055
 21
-1.844
  0
LINE
  5
251
100
AcDbEntity
  8
0
100
AcDbLine
 62
2
  6
CONTINUOUS
 10
0.0
 20
-2.094
 11
9.055
 21
-2.094
  0
LINE
  5
252
100
AcDbEntity
  8
0
100
AcDbLine
 62
2
  6
CONTINUOUS
 10
0.0
 20
-2.344
 11
9.055
 21
-2.344
  0
LINE
  5
253
100
AcDbEntity
  8
0
100
AcDbLine
 62
2
  6
CONTINUOUS
 10
0.0
 20
-2.594
 11
9.055
 21
-2.594
  0
LINE
  5
254
100
AcDbEntity
  8
0
100
AcDbLine
 62
2
  6
CONTINUOUS
 10
3.055
 20
0.0
 11
3.055
 21
-2.594
  0
LINE
  5
255
100
AcDbEntity
  8
0
100
AcDbLine
 62
2
  6
CONTINUOUS
 10
9.055
 20
0.0
 11
9.055
 21
-2.594
  0
MTEXT
  5
256
100
AcDbEntity
  8
0
100
AcDbMText
 62
2
  6
CONTINUOUS
  7
STANDARD
 71
2
 72
1
 10
1.5275
 20
-0.0995
 30
0.0
 11
1.0
 21
0.0
 31
0.0
 44
0.9
  1
Technical Data
 40
0.145
 41
3.248
  0
MTEXT
  5
257
100
AcDbEntity
  8
0
100
AcDbMText
 62
2
  6
CONTINUOUS
  7
STANDARD
 71
2
 72
1
 10
4.555
 20
-0.0995
 30
0.0
 11
1.0
 21
0.0
 31
0.0
 44
0.9
  1
U.S. Units
 40
0.145
 41
2.32
  0
MTEXT
  5
258
100
AcDbEntity
  8
0
100
AcDbMText
 62
2
  6
CONTINUOUS
  7
STANDARD
 71
2
 72
1
 10
7.555
 20
-0.0995
 30
0.0
 11
1.0
 21
0.0
 31
0.0
 44
0.9
  1
Metric Units
 40
0.145
 41
2.784
  0
MTEXT
  5
259
100
AcDbEntity
  8
0
100
AcDbMText
 62
2
  6
CONTINUOUS
  7
STANDARD
 71
2
 72
1
 10
1.5275
 20
-0.4065
 30
0.0
 11
1.0
 21
0.0
 31
0.0
 44
0.9
  1
Cavity
 40
0.125
 41
1.2
  0
MTEXT
  5
25A
100
AcDbEntity
  8
0
100
AcDbMText
 62
2
  6
CONTINUOUS
  7
STANDARD
 71
2
 72
1
 10
6.055
 20
-0.4065
 30
0.0
 11
1.0
 21
0.0
 31
0.0
 44
0.9
  1
T-10A
 40
0.125
 41
1.0
  0
MTEXT
  5
25B
100
AcDbEntity
  8
0
100
AcDbMText
 62
2
  6
CONTINUOUS
  7
STANDARD
 71
2
 72
1
 10
1.5275
 20
-0.6565
 30
0.0
 11
1.0
 21
0.0
 31
0.0
 44
0.9
  1
Body Features
 40
0.125
 41
2.6
  0
MTEXT
  5
25C
100
AcDbEntity
  8
0
100
AcDbMText
 62
2
  6
CONTINUOUS
  7
STANDARD
 71
2
 72
1
 10
6.055
 20
-0.6565
 30
0.0
 11
1.0
 21
0.0
 31
0.0
 44
0.9
  1
Ninety degree
 40
0.125
 41
2.6
  0
MTEXT
  5
25D
100
AcDbEntity
  8
0
100
AcDbMText
 62
2
  6
CONTINUOUS
  7
STANDARD
 71
2
 72
1
 10
1.5275
 20
-0.9065
 30
0.0
 11
1.0
 21
0.0
 31
0.0
 44
0.9
  1
Body Type
 40
0.125
 41
1.8
  0
MTEXT
  5
25E
100
AcDbEntity
  8
0
100
AcDbMText
 62
2
  6
CONTINUOUS
  7
STANDARD
 71
2
 72
1
 10
6.055
 20
-0.9065
 30
0.0
 11
1.0
 21
0.0
 31
0.0
 44
0.9
  1
Line mount
 40
0.125
 41
2.0
  0
MTEXT
  5
25F
100
AcDbEntity
  8
0
100
AcDbMText
 62
2
  6
CONTINUOUS
  7
STANDARD
 71
2
 72
1
 10
1.5275
 20
-1.1565
 30
0.0
 11
1.0
 21
0.0
 31
0.0
 44
0.9
  1
Interface
 40
0.125
 41
1.8
  0
MTEXT
  5
260
100
AcDbEntity
  8
0
100
AcDbMText
 62
2
  6
CONTINUOUS
  7
STANDARD
 71
2
 72
1
 10
6.055
 20
-1.1565
 30
0.0
 11
1.0
 21
0.0
 31
0.0
 44
0.9
  1
None
 40
0.125
 41
0.8
  0
MTEXT
  5
261
100
AcDbEntity
  8
0
100
AcDbMText
 62
2
  6
CONTINUOUS
  7
STANDARD
 71
2
 72
1
 10
1.5275
 20
-1.4065
 30
0.0
 11
1.0
 21
0.0
 31
0.0
 44
0.9
  1
Open Cavity Quantity
 40
0.125
 41
4.0
  0
MTEXT
  5
262
100
AcDbEntity
  8
0
100
AcDbMText
 62
2
  6
CONTINUOUS
  7
STANDARD
 71
2
 72
1
 10
6.055
 20
-1.4065
 30
0.0
 11
1.0
 21
0.0
 31
0.0
 44
0.9
  1
1
 40
0.125
 41
0.2
  0
MTEXT
  5
263
100
AcDbEntity
  8
0
100
AcDbMText
 62
2
  6
CONTINUOUS
  7
STANDARD
 71
2
 72
1
 10
1.5275
 20
-1.6565
 30
0.0
 11
1.0
 21
0.0
 31
0.0
 44
0.9
  1
Weight
 40
0.125
 41
1.2
  0
MTEXT
  5
264
100
AcDbEntity
  8
0
100
AcDbMText
 62
2
  6
CONTINUOUS
  7
STANDARD
 71
2
 72
1
 10
4.555
 20
-1.6565
 30
0.0
 11
1.0
 21
0.0
 31
0.0
 44
0.9
  1
1.245 lb.
 40
0.125
 41
1.8
  0
MTEXT
  5
265
100
AcDbEntity
  8
0
100
AcDbMText
 62
2
  6
CONTINUOUS
  7
STANDARD
 71
2
 72
1
 10
7.555
 20
-1.6565
 30
0.0
 11
1.0
 21
0.0
 31
0.0
 44
0.9
  1
0,565 kg.
 40
0.125
 41
1.8
  0
MTEXT
  5
266
100
AcDbEntity
  8
0
100
AcDbMText
 62
2
  6
CONTINUOUS
  7
STANDARD
 71
2
 72
1
 10
1.5275
 20
-1.9065
 30
0.0
 11
1.0
 21
0.0
 31
0.0
 44
0.9
  1
Mounting Hole Diameter
 40
0.125
 41
4.4
  0
MTEXT
  5
267
100
AcDbEntity
  8
0
100
AcDbMText
 62
2
  6
CONTINUOUS
  7
STANDARD
 71
2
 72
1
 10
4.555
 20
-1.9065
 30
0.0
 11
1.0
 21
0.0
 31
0.0
 44
0.9
  1
.34 in.
 40
0.125
 41
1.4
  0
MTEXT
  5
268
100
AcDbEntity
  8
0
100
AcDbMText
 62
2
  6
CONTINUOUS
  7
STANDARD
 71
2
 72
1
 10
7.555
 20
-1.9065
 30
0.0
 11
1.0
 21
0.0
 31
0.0
 44
0.9
  1
8.6 mm
 40
0.125
 41
1.2
  0
MTEXT
  5
269
100
AcDbEntity
  8
0
100
AcDbMText
 62
2
  6
CONTINUOUS
  7
STANDARD
 71
2
 72
1
 10
1.5275
 20
-2.1565
 30
0.0
 11
1.0
 21
0.0
 31
0.0
 44
0.9
  1
Mounting Hole Depth
 40
0.125
 41
3.8
  0
MTEXT
  5
26A
100
AcDbEntity
  8
0
100
AcDbMText
 62
2
  6
CONTINUOUS
  7
STANDARD
 71
2
 72
1
 10
6.055
 20
-2.1565
 30
0.0
 11
1.0
 21
0.0
 31
0.0
 44
0.9
  1
Through
 40
0.125
 41
1.4
  0
MTEXT
  5
26B
100
AcDbEntity
  8
0
100
AcDbMText
 62
2
  6
CONTINUOUS
  7
STANDARD
 71
2
 72
1
 10
1.5275
 20
-2.4065
 30
0.0
 11
1.0
 21
0.0
 31
0.0
 44
0.9
  1
Mounting Hole Quantity
 40
0.125
 41
4.4
  0
MTEXT
  5
26C
100
AcDbEntity
  8
0
100
AcDbMText
 62
2
  6
CONTINUOUS
  7
STANDARD
 71
2
 72
1
 10
6.055
 20
-2.4065
 30
0.0
 11
1.0
 21
0.0
 31
0.0
 44
0.9
  1
1
 40
0.125
 41
0.2
  0
ENDBLK
  5
26D
100
AcDbEntity
  8
0
  6
BYBLOCK
 62
0
100
AcDbBlockEnd
  0
BLOCK
  5
26E
100
AcDbEntity
  8
0
100
AcDbBlockBegin
  2
*T3
 70
1
 10
0.0
 20
0.0
  3
*T3
  1

  0
LINE
  5
26F
100
AcDbEntity
  8
0
100
AcDbLine
 62
2
  6
CONTINUOUS
 10
0.0
 20
0.0
 11
4.6
 21
0.0
  0
LINE
  5
270
100
AcDbEntity
  8
0
100
AcDbLine
 62
2
  6
CONTINUOUS
 10
0.0
 20
0.0
 11
0.0
 21
-0.93775
  0
LINE
  5
271
100
AcDbEntity
  8
0
100
AcDbLine
 62
2
  6
CONTINUOUS
 10
0.0
 20
-0.34375
 11
4.6
 21
-0.34375
  0
LINE
  5
272
100
AcDbEntity
  8
0
100
AcDbLine
 62
2
  6
CONTINUOUS
 10
0.0
 20
-0.68775
 11
4.6
 21
-0.68775
  0
LINE
  5
273
100
AcDbEntity
  8
0
100
AcDbLine
 62
2
  6
CONTINUOUS
 10
0.0
 20
-0.93775
 11
4.6
 21
-0.93775
  0
LINE
  5
274
100
AcDbEntity
  8
0
100
AcDbLine
 62
2
  6
CONTINUOUS
 10
1.3
 20
-0.34375
 11
1.3
 21
-0.93775
  0
LINE
  5
275
100
AcDbEntity
  8
0
100
AcDbLine
 62
2
  6
CONTINUOUS
 10
3.3
 20
-0.34375
 11
3.3
 21
-0.93775
  0
LINE
  5
276
100
AcDbEntity
  8
0
100
AcDbLine
 62
2
  6
CONTINUOUS
 10
4.6
 20
0.0
 11
4.6
 21
-0.93775
  0
MTEXT
  5
277
100
AcDbEntity
  8
0
100
AcDbMText
 62
2
  6
CONTINUOUS
  7
STANDARD
 71
2
 72
1
 10
2.3
 20
-0.099375
 30
0.0
 11
1.0
 21
0.0
 31
0.0
 44
0.9
  1
Port Headings
 40
0.145
 41
3.016
  0
MTEXT
  5
278
100
AcDbEntity
  8
0
100
AcDbMText
 62
2
  6
CONTINUOUS
  7
STANDARD
 71
2
 72
1
 10
0.65
 20
-0.44325
 30
0.0
 11
1.0
 21
0.0
 31
0.0
 44
0.9
  1
Product
 40
0.145
 41
1.624
  0
MTEXT
  5
279
100
AcDbEntity
  8
0
100
AcDbMText
 62
2
  6
CONTINUOUS
  7
STANDARD
 71
2
 72
1
 10
2.3
 20
-0.44325
 30
0.0
 11
1.0
 21
0.0
 31
0.0
 44
0.9
  1
Port
 40
0.145
 41
0.928
  0
MTEXT
  5
27A
100
AcDbEntity
  8
0
100
AcDbMText
 62
2
  6
CONTINUOUS
  7
STANDARD
 71
2
 72
1
 10
3.95
 20
-0.44325
 30
0.0
 11
1.0
 21
0.0
 31
0.0
 44
0.9
  1
Size
 40
0.145
 41
0.928
  0
MTEXT
  5
27B
100
AcDbEntity
  8
0
100
AcDbMText
 62
2
  6
CONTINUOUS
  7
STANDARD
 71
2
 72
1
 10
0.65
 20
-0.75025
 30
0.0
 11
1.0
 21
0.0
 31
0.0
 44
0.9
  1
FAJ/S
 40
0.125
 41
1.0
  0
MTEXT
  5
27C
100
AcDbEntity
  8
0
100
AcDbMText
 62
2
  6
CONTINUOUS
  7
STANDARD
 71
2
 72
1
 10
2.3
 20
-0.75025
 30
0.0
 11
1.0
 21
0.0
 31
0.0
 44
0.9
  1
All Ports
 40
0.125
 41
1.8
  0
MTEXT
  5
27D
100
AcDbEntity
  8
0
100
AcDbMText
 62
2
  6
CONTINUOUS
  7
STANDARD
 71
2
 72
1
 10
3.95
 20
-0.75025
 30
0.0
 11
1.0
 21
0.0
 31
0.0
 44
0.9
  1
SAE 8
 40
0.125
 41
1.0
  0
ENDBLK
  5
27E
100
AcDbEntity
  8
0
  6
BYBLOCK
 62
0
100
AcDbBlockEnd
  0
ENDSEC
  0
SECTION
  2
ENTITIES
  0
IMAGE
  5
27F
100
AcDbEntity
  8
0
100
AcDbRasterImage
 62
7
  6
CONTINUOUS
 10
19.2297077316
 20
0.3094318264
 30
0.0
 11
0.0066666667
 21
0.0
 31
0.0
 12
0.0
 22
0.0066666667
 32
0.0
 13
369.0
 23
92.0
340
       39D
 70
9
280
0
281
50
282
50
283
0
360
       397
 71
1
 91
2
 14
-0.5
 24
-0.5
 14
368.5
 24
91.5
  0
INSERT
  5
280
100
AcDbEntity
  8
0
100
AcDbBlockReference
 62
2
  6
CONTINUOUS
  2
SUN_FIRST_THIRD_ANGLE_BL0
 10
20.4816717061
 20
1.2289683772
  0
ACAD_TABLE
  5
281
100
AcDbEntity
  8
0
 62
2
  6
CONTINUOUS
100
AcDbBlockReference
  2
*T1
 10
12.42375
 20
0.30125
 30
0.0
100
AcDbTable
342
       39F
343
207
 11
1.0
 21
0.0
 31
0.0
 90
6
 91
4
 92
6
 93
20
 94
0
 95
0
 96
0
 70
1
 41
0.0
141
0.525
141
0.1
141
0.525
141
0.1
142
4.1
142
1.1
142
0.7
142
0.5
142
0.4
142
2.475
171
1
172
0
173
0
174
0
175
1
176
1
 91
33
178
0
145
0.0
301
CELL_VALUE
 90
4
  1
Relief manifold assembly
304
ACVALUE_END
170
2
140
0.125
171
1
172
0
173
0
174
0
175
1
176
1
 91
33
178
0
145
0.0
301
CELL_VALUE
 90
4
  1
May-31-23
304
ACVALUE_END
170
5
140
0.125
171
1
172
0
173
0
174
0
175
1
176
1
 91
33
178
0
145
0.0
301
CELL_VALUE
 90
4
  1
2.000
304
ACVALUE_END
170
5
140
0.125
171
1
172
0
173
0
174
0
175
1
176
1
 91
33
178
0
145
0.0
301
CELL_VALUE
 90
4
  1
C
304
ACVALUE_END
170
5
140
0.125
171
1
172
0
173
0
174
0
175
1
176
1
 91
33
178
0
145
0.0
301
CELL_VALUE
 90
4
  1
2
304
ACVALUE_END
170
5
140
0.125
171
1
172
0
173
0
174
0
175
1
176
1
 91
33
178
0
145
0.0
301
CELL_VALUE
 90
4
  1
 
304
ACVALUE_END
170
1
140
0.125
171
1
172
0
173
0
174
0
175
1
176
1
 91
33
178
0
145
0.0
301
CELL_VALUE
 90
4
  1
DESCRIPTION
304
ACVALUE_END
170
1
140
0.06
171
1
172
0
173
0
174
0
175
1
176
1
 91
33
178
0
145
0.0
301
CELL_VALUE
 90
4
  1
DATE
304
ACVALUE_END
170
1
140
0.06
171
1
172
0
173
0
174
0
175
1
176
1
 91
33
178
0
145
0.0
301
CELL_VALUE
 90
4
  1
SCALE
304
ACVALUE_END
170
1
140
0.06
171
1
172
0
173
0
174
0
175
1
176
1
 91
33
178
0
145
0.0
301
CELL_VALUE
 90
4
  1
DWG SIZE
304
ACVALUE_END
170
1
140
0.06
171
1
172
0
173
0
174
0
175
1
176
1
 91
33
178
0
145
0.0
301
CELL_VALUE
 90
4
  1
SHEET
304
ACVALUE_END
170
1
140
0.06
171
1
172
0
173
0
174
0
175
1
176
1
 91
33
178
0
145
0.0
301
CELL_VALUE
 90
4
  1
 
304
ACVALUE_END
170
1
140
0.125
171
1
172
0
173
0
174
0
175
1
176
1
 91
33
178
0
145
0.0
301
CELL_VALUE
 90
4
  1
RPECLCN-FAJ/S
304
ACVALUE_END
170
5
140
0.125
171
1
172
0
173
0
174
0
175
4
176
1
 91
33
178
0
145
0.0
301
CELL_VALUE
 90
4
  1
ALL DIMENSIONS IN INCH\PVIEWS ARE THIRD ANGLE
304
ACVALUE_END
170
5
140
0.12
171
1
172
0
173
1
174
0
175
1
176
1
 91
1
178
0
145
0.0
170
1
171
1
172
0
173
1
174
0
175
1
176
1
 91
1
178
0
145
0.0
170
1
171
1
172
0
173
1
174
0
175
1
176
1
 91
1
178
0
145
0.0
170
5
171
1
172
0
173
0
174
0
175
1
176
1
 91
33
178
0
145
0.0
301
CELL_VALUE
 90
4
  1
 
304
ACVALUE_END
170
1
140
0.125
171
1
172
0
173
0
174
0
175
1
176
1
 91
33
178
0
145
0.0
301
CELL_VALUE
 90
4
  1
MODEL
304
ACVALUE_END
170
1
140
0.06
171
1
172
0
173
0
174
0
175
1
176
1
 91
33
178
0
145
0.0
301
CELL_VALUE
 90
4
  1
 
304
ACVALUE_END
170
1
140
0.125
171
1
172
0
173
0
174
0
175
1
176
1
 91
33
178
0
145
0.0
301
CELL_VALUE
 90
4
  1
 
304
ACVALUE_END
170
1
140
0.125
171
1
172
0
173
0
174
0
175
1
176
1
 91
33
178
0
145
0.0
301
CELL_VALUE
 90
4
  1
 
304
ACVALUE_END
170
1
140
0.125
171
1
172
0
173
0
174
0
175
1
176
1
 91
33
178
0
145
0.0
301
CELL_VALUE
 90
4
  1
 
304
ACVALUE_END
170
1
140
0.125
171
1
172
0
173
0
174
0
175
1
176
1
 91
33
178
0
145
0.0
301
CELL_VALUE
 90
4
  1
 
304
ACVALUE_END
170
1
140
0.125
  0
ACAD_TABLE
  5
282
100
AcDbEntity
  8
0
 62
2
  6
CONTINUOUS
100
AcDbBlockReference
  2
*T2
 10
12.4237499994
 20
16.47875
 30
0.0
100
AcDbTable
342
       39E
343
208
 11
1.0
 21
0.0
 31
0.0
 90
22
 91
10
 92
3
 93
16
 94
0
 95
0
 96
0
 41
0.028
141
0.344
141
0.25
141
0.25
141
0.25
141
0.25
141
0.25
141
0.25
141
0.25
141
0.25
141
0.25
142
3.055
142
3.0
142
3.0
171
1
172
0
173
0
174
0
175
1
176
1
 91
33
178
0
145
0.0
301
CELL_VALUE
 90
4
  1
Technical Data
304
ACVALUE_END
170
5
140
0.145
171
1
172
0
173
0
174
0
175
1
176
1
 91
33
178
0
145
0.0
301
CELL_VALUE
 90
4
  1
U.S. Units
304
ACVALUE_END
170
5
140
0.145
171
1
172
0
173
0
174
0
175
1
176
1
 91
33
178
0
145
0.0
301
CELL_VALUE
 90
4
  1
Metric Units
304
ACVALUE_END
170
5
140
0.145
171
1
172
0
173
0
174
0
175
1
176
1
 91
33
178
0
145
0.0
301
CELL_VALUE
 90
4
  1
Cavity
304
ACVALUE_END
170
5
140
0.125
171
1
172
0
173
0
174
0
175
2
176
1
 91
33
178
0
145
0.0
301
CELL_VALUE
 90
4
  1
T-10A
304
ACVALUE_END
170
5
140
0.125
171
1
172
0
173
1
174
0
175
1
176
1
 91
1
178
0
145
0.0
170
1
171
1
172
0
173
0
174
0
175
1
176
1
 91
33
178
0
145
0.0
301
CELL_VALUE
 90
4
  1
Body Features
304
ACVALUE_END
170
5
140
0.125
171
1
172
0
173
0
174
0
175
2
176
1
 91
33
178
0
145
0.0
301
CELL_VALUE
 90
4
  1
Ninety degree
304
ACVALUE_END
170
5
140
0.125
171
1
172
0
173
1
174
0
175
1
176
1
 91
1
178
0
145
0.0
170
1
171
1
172
0
173
0
174
0
175
1
176
1
 91
33
178
0
145
0.0
301
CELL_VALUE
 90
4
  1
Body Type
304
ACVALUE_END
170
5
140
0.125
171
1
172
0
173
0
174
0
175
2
176
1
 91
33
178
0
145
0.0
301
CELL_VALUE
 90
4
  1
Line mount
304
ACVALUE_END
170
5
140
0.125
171
1
172
0
173
1
174
0
175
1
176
1
 91
1
178
0
145
0.0
170
1
171
1
172
0
173
0
174
0
175
1
176
1
 91
33
178
0
145
0.0
301
CELL_VALUE
 90
4
  1
Interface
304
ACVALUE_END
170
5
140
0.125
171
1
172
0
173
0
174
0
175
2
176
1
 91
33
178
0
145
0.0
301
CELL_VALUE
 90
4
  1
None
304
ACVALUE_END
170
5
140
0.125
171
1
172
0
173
1
174
0
175
1
176
1
 91
1
178
0
145
0.0
170
1
171
1
172
0
173
0
174
0
175
1
176
1
 91
33
178
0
145
0.0
301
CELL_VALUE
 90
4
  1
Open Cavity Quantity
304
ACVALUE_END
170
5
140
0.125
171
1
172
0
173
0
174
0
175
2
176
1
 91
33
178
0
145
0.0
301
CELL_VALUE
 90
4
  1
1
304
ACVALUE_END
170
5
140
0.125
171
1
172
0
173
1
174
0
175
1
176
1
 91
1
178
0
145
0.0
170
1
171
1
172
0
173
0
174
0
175
1
176
1
 91
33
178
0
145
0.0
301
CELL_VALUE
 90
4
  1
Weight
304
ACVALUE_END
170
5
140
0.125
171
1
172
0
173
0
174
0
175
1
176
1
 91
33
178
0
145
0.0
301
CELL_VALUE
 90
4
  1
1.245 lb.
304
ACVALUE_END
170
5
140
0.125
171
1
172
0
173
0
174
0
175
1
176
1
 91
33
178
0
145
0.0
301
CELL_VALUE
 90
4
  1
0,565 kg.
304
ACVALUE_END
170
5
140
0.125
171
1
172
0
173
0
174
0
175
1
176
1
 91
33
178
0
145
0.0
301
CELL_VALUE
 90
4
  1
Mounting Hole Diameter
304
ACVALUE_END
170
5
140
0.125
171
1
172
0
173
0
174
0
175
1
176
1
 91
33
178
0
145
0.0
301
CELL_VALUE
 90
4
  1
.34 in.
304
ACVALUE_END
170
5
140
0.125
171
1
172
0
173
0
174
0
175
1
176
1
 91
33
178
0
145
0.0
301
CELL_VALUE
 90
4
  1
8.6 mm
304
ACVALUE_END
170
5
140
0.125
171
1
172
0
173
0
174
0
175
1
176
1
 91
33
178
0
145
0.0
301
CELL_VALUE
 90
4
  1
Mounting Hole Depth
304
ACVALUE_END
170
5
140
0.125
171
1
172
0
173
0
174
0
175
2
176
1
 91
33
178
0
145
0.0
301
CELL_VALUE
 90
4
  1
Through
304
ACVALUE_END
170
5
140
0.125
171
1
172
0
173
1
174
0
175
1
176
1
 91
1
178
0
145
0.0
170
1
171
1
172
0
173
0
174
0
175
1
176
1
 91
33
178
0
145
0.0
301
CELL_VALUE
 90
4
  1
Mounting Hole Quantity
304
ACVALUE_END
170
5
140
0.125
171
1
172
0
173
0
174
0
175
2
176
1
 91
33
178
0
145
0.0
301
CELL_VALUE
 90
4
  1
1
304
ACVALUE_END
170
5
140
0.125
171
1
172
0
173
1
174
0
175
1
176
1
 91
1
178
0
145
0.0
170
1
  0
ACAD_TABLE
  5
283
100
AcDbEntity
  8
0
 62
2
  6
CONTINUOUS
100
AcDbBlockReference
  2
*T3
 10
0.52125
 20
1.459
 30
0.0
100
AcDbTable
342
       39E
343
209
 11
1.0
 21
0.0
 31
0.0
 90
22
 91
3
 92
3
 93
16
 94
0
 95
0
 96
0
 41
0.05
141
0.34375
141
0.344
141
0.25
142
1.3
142
2.0
142
1.3
171
1
172
0
173
0
174
0
175
3
176
1
 91
33
178
0
145
0.0
301
CELL_VALUE
 90
4
  1
Port Headings
304
ACVALUE_END
170
5
140
0.145
171
1
172
0
173
1
174
0
175
1
176
1
 91
1
178
0
145
0.0
170
1
171
1
172
0
173
1
174
0
175
1
176
1
 91
1
178
0
145
0.0
170
1
171
1
172
0
173
0
174
0
175
1
176
1
 91
33
178
0
145
0.0
301
CELL_VALUE
 90
4
  1
Product
304
ACVALUE_END
170
5
140
0.145
171
1
172
0
173
0
174
0
175
1
176
1
 91
33
178
0
145
0.0
301
CELL_VALUE
 90
4
  1
Port
304
ACVALUE_END
170
5
140
0.145
171
1
172
0
173
0
174
0
175
1
176
1
 91
33
178
0
145
0.0
301
CELL_VALUE
 90
4
  1
Size
304
ACVALUE_END
170
5
140
0.145
171
1
172
0
173
0
174
0
175
1
176
1
 91
33
178
0
145
0.0
301
CELL_VALUE
 90
4
  1
FAJ/S
304
ACVALUE_END
170
5
140
0.125
171
1
172
0
173
0
174
0
175
1
176
1
 91
33
178
0
145
0.0
301
CELL_VALUE
 90
4
  1
All Ports
304
ACVALUE_END
170
5
140
0.125
171
1
172
0
173
0
174
0
175
1
176
1
 91
33
178
0
145
0.0
301
CELL_VALUE
 90
4
  1
SAE 8
304
ACVALUE_END
170
5
140
0.125
  0
MTEXT
  5
284
100
AcDbEntity
  8
0
100
AcDbMText
 62
2
  6
CONTINUOUS
  7
STANDARD
 71
1
 72
1
 10
0.52125
 20
5.75995
 30
0.0
 11
1.0
 21
0.0
 31
0.0
 44
0.6
  3
Notes\P \P1. Important: Carefully consider\P   the maximum system pressure. The\P   pressure rating of the manifold is\P   dependent on the manifold material,\P   with the port type/size a secondary\P   consideration. Manifolds\P   constructed of alu
  3
minum are not\P   rated for pressures higher than\P   3000 psi (210 bar), regardless of\P   the port type/size specified.\P2. This drawing is for reference\P   only. It is generated by an\P   automated process and does not fall\P   under Sun's docume
  1
nt control\P   process.
 40
0.1
 41
3.04
  0
LINE
  5
285
100
AcDbEntity
  8
0
100
AcDbLine
 62
7
  6
CONTINUOUS
 10
0.30125
 20
0.30125
 11
0.30125
 21
16.69875
  0
LINE
  5
286
100
AcDbEntity
  8
0
100
AcDbLine
 62
7
  6
CONTINUOUS
 10
0.30125
 20
0.30125
 11
21.69875
 21
0.30125
  0
LINE
  5
287
100
AcDbEntity
  8
0
100
AcDbLine
 62
7
  6
CONTINUOUS
 10
0.30125
 20
16.69875
 11
21.69875
 21
16.69875
  0
LINE
  5
288
100
AcDbEntity
  8
0
100
AcDbLine
 62
7
  6
CONTINUOUS
 10
21.69875
 20
0.30125
 11
21.69875
 21
16.69875
  0
LINE
  5
289
100
AcDbEntity
  8
0
100
AcDbLine
 62
7
  6
CONTINUOUS
 10
6.5579986562
 20
9.6550209797
 11
6.6180375399
 21
9.7108988279
  0
LINE
  5
28A
100
AcDbEntity
  8
0
100
AcDbLine
 62
7
  6
CONTINUOUS
 10
8.2321665166
 20
9.9641295336
 11
8.2339911808
 21
9.9658598891
  0
LINE
  5
28B
100
AcDbEntity
  8
0
100
AcDbLine
 62
7
  6
CONTINUOUS
 10
8.1355739282
 20
9.874235664
 11
8.1371566408
 21
9.8757363292
  0
LINE
  5
28C
100
AcDbEntity
  8
0
100
AcDbLine
 62
7
  6
CONTINUOUS
 10
7.7372781551
 20
9.8213756719
 11
7.7070342536
 21
9.7932278445
  0
LINE
  5
28D
100
AcDbEntity
  8
0
100
AcDbLine
 62
7
  6
CONTINUOUS
 10
8.2321504825
 20
9.9641467617
 11
8.1371546839
 21
9.8757347112
  0
LINE
  5
28E
100
AcDbEntity
  8
0
100
AcDbLine
 62
7
  6
CONTINUOUS
 10
6.5170937012
 20
9.0651894567
 11
6.5688446528
 21
9.0015589571
  0
LINE
  5
28F
100
AcDbEntity
  8
0
100
AcDbLine
 62
7
  6
CONTINUOUS
 10
9.0921006087
 20
10.0127778774
 11
9.0587963322
 21
9.9563109835
  0
LINE
  5
290
100
AcDbEntity
  8
0
100
AcDbLine
 62
7
  6
CONTINUOUS
 10
7.7356806867
 20
8.6472223357
 11
7.6360521257
 21
8.7696966723
  0
LINE
  5
291
100
AcDbEntity
  8
0
100
AcDbLine
 62
7
  6
CONTINUOUS
 10
8.1341353793
 20
8.5259774374
 11
8.0506661025
 21
8.6286072755
  0
LINE
  5
292
100
AcDbEntity
  8
0
100
AcDbLine
 62
7
  6
CONTINUOUS
 10
10.0452710315
 20
9.9197681441
 11
10.6923181103
 21
10.5447676654
  0
LINE
  5
293
100
AcDbEntity
  8
0
100
AcDbLine
 62
7
  6
CONTINUOUS
 10
14.8749004491
 20
6.4552323346
 11
10.0452710315
 21
6.7901682723
  0
LINE
  5
294
100
AcDbEntity
  8
0
100
AcDbLine
 62
7
  6
CONTINUOUS
 10
8.965902046
 20
8.3890521517
 11
8.9523625211
 21
8.4215820788
  0
LINE
  5
295
100
AcDbEntity
  8
0
100
AcDbLine
 62
4
  6
CONTINUOUS
 10
13.5264679157
 20
7.5626925972
 11
13.7582901278
 21
7.6128506136
  0
LINE
  5
296
100
AcDbEntity
  8
0
100
AcDbLine
 62
4
  6
CONTINUOUS
 10
11.4825687201
 20
7.0478839134
 11
11.5212057454
 21
7.0452044266
  0
LINE
  5
297
100
AcDbEntity
  8
0
100
AcDbLine
 62
4
  6
CONTINUOUS
 10
12.3441746343
 20
7.1001787002
 11
12.4600857403
 21
7.0921402377
  0
LINE
  5
298
100
AcDbEntity
  8
0
100
AcDbLine
 62
4
  6
CONTINUOUS
 10
11.6177983362
 20
6.9370834922
 11
11.6757538879
 21
6.9185753731
  0
LINE
  5
299
100
AcDbEntity
  8
0
100
AcDbLine
 62
7
  6
CONTINUOUS
 10
10.0452710315
 20
6.7901682723
 11
10.0452710315
 21
9.9197681441
  0
LINE
  5
29A
100
AcDbEntity
  8
0
100
AcDbLine
 62
4
  6
CONTINUOUS
 10
12.4600857403
 20
7.2080513437
 11
12.5759968464
 21
7.2000128812
  0
LINE
  5
29B
100
AcDbEntity
  8
0
100
AcDbLine
 62
4
  6
CONTINUOUS
 10
12.5759968464
 20
7.2579684343
 11
12.3441746343
 21
7.2740453593
  0
LINE
  5
29C
100
AcDbEntity
  8
0
100
AcDbLine
 62
4
  6
CONTINUOUS
 10
13.7582901278
 20
7.2706368648
 11
13.5264679157
 21
7.2867137898
  0
LINE
  5
29D
100
AcDbEntity
  8
0
100
AcDbLine
 62
4
  6
CONTINUOUS
 10
12.3441746343
 20
7.3899564653
 11
12.5759968464
 21
7.3738795403
  0
LINE
  5
29E
100
AcDbEntity
  8
0
100
AcDbLine
 62
4
  6
CONTINUOUS
 10
12.3441746343
 20
7.4479120183
 11
12.5759968464
 21
7.4318350933
  0
LINE
  5
29F
100
AcDbEntity
  8
0
100
AcDbLine
 62
4
  6
CONTINUOUS
 10
13.0164590492
 20
7.9816723918
 11
13.2482812613
 21
8.0318303806
  0
LINE
  5
2A0
100
AcDbEntity
  8
0
100
AcDbLine
 62
4
  6
CONTINUOUS
 10
13.5595853726
 20
7.4003281786
 11
13.7251726674
 21
7.3888446607
  0
LINE
  5
2A1
100
AcDbEntity
  8
0
100
AcDbLine
 62
4
  6
CONTINUOUS
 10
12.3441746343
 20
7.5638231243
 11
12.5759968464
 21
7.5477461993
  0
LINE
  5
2A2
100
AcDbEntity
  8
0
100
AcDbLine
 62
4
  6
CONTINUOUS
 10
11.4825687201
 20
6.93197281
 11
11.4632501937
 21
6.9478014422
  0
LINE
  5
2A3
100
AcDbEntity
  8
0
100
AcDbLine
 62
4
  6
CONTINUOUS
 10
11.579161304
 20
6.9687407553
 11
11.6177983362
 21
6.9370834922
  0
LINE
  5
2A4
100
AcDbEntity
  8
0
100
AcDbLine
 62
4
  6
CONTINUOUS
 10
11.5212057454
 20
7.0452044266
 11
11.5405242718
 21
7.0293757943
  0
LINE
  5
2A5
100
AcDbEntity
  8
0
100
AcDbLine
 62
7
  6
CONTINUOUS
 10
9.9744576803
 20
8.2647010201
 11
9.8844080974
 21
8.1808923846
  0
LINE
  5
2A6
100
AcDbEntity
  8
0
100
AcDbLine
 62
4
  6
CONTINUOUS
 10
12.5759968464
 20
7.7795684114
 11
12.3441746343
 21
7.7956453364
  0
LINE
  5
2A7
100
AcDbEntity
  8
0
100
AcDbLine
 62
4
  6
CONTINUOUS
 10
13.2482812613
 20
7.7337732548
 11
13.0164590492
 21
7.7498501798
  0
LINE
  5
2A8
100
AcDbEntity
  8
0
100
AcDbLine
 62
4
  6
CONTINUOUS
 10
13.7582901278
 20
7.7453204412
 11
13.5264679157
 21
7.7613973662
  0
LINE
  5
2A9
100
AcDbEntity
  8
0
100
AcDbLine
 62
4
  6
CONTINUOUS
 10
12.5759968464
 20
7.8954795174
 11
12.4600857403
 21
7.9035179799
  0
LINE
  5
2AA
100
AcDbEntity
  8
0
100
AcDbLine
 62
4
  6
CONTINUOUS
 10
13.7582901278
 20
7.8777902687
 11
13.5264679157
 21
7.8938671938
  0
LINE
  5
2AB
100
AcDbEntity
  8
0
100
AcDbLine
 62
7
  6
CONTINUOUS
 10
9.8714683439
 20
8.1700853405
 11
9.1519765537
 21
8.2199822657
  0
LINE
  5
2AC
100
AcDbEntity
  8
0
100
AcDbLine
 62
4
  6
CONTINUOUS
 10
12.5759968464
 20
7.990140254
 11
12.4600857403
 21
7.9981787165
  0
LINE
  5
2AD
100
AcDbEntity
  8
0
100
AcDbLine
 62
7
  6
CONTINUOUS
 10
10.0452710315
 20
8.2597900975
 11
9.946454062
 21
8.2666430776
  0
LINE
  5
2AE
100
AcDbEntity
  8
0
100
AcDbLine
 62
4
  6
CONTINUOUS
 10
11.4632501937
 20
6.9478014422
 11
11.443931681
 21
6.9781189615
  0
LINE
  5
2AF
100
AcDbEntity
  8
0
100
AcDbLine
 62
4
  6
CONTINUOUS
 10
11.5405242718
 20
7.0293757943
 11
11.579161304
 21
6.9687407553
  0
LINE
  5
2B0
100
AcDbEntity
  8
0
100
AcDbLine
 62
4
  6
CONTINUOUS
 10
12.4600857403
 20
8.1140898225
 11
12.6919079524
 21
8.0980128975
  0
LINE
  5
2B1
100
AcDbEntity
  8
0
100
AcDbLine
 62
4
  6
CONTINUOUS
 10
12.5759968464
 20
8.1833254307
 11
12.4600857403
 21
8.1913638932
  0
LINE
  5
2B2
100
AcDbEntity
  8
0
100
AcDbLine
 62
7
  6
CONTINUOUS
 10
8.9437581285
 20
8.4444396759
 11
8.371739344
 21
8.4841093133
  0
LINE
  5
2B3
100
AcDbEntity
  8
0
100
AcDbLine
 62
7
  6
CONTINUOUS
 10
8.2790104592
 20
8.4905400833
 11
8.1804860191
 21
8.4973727764
  0
LINE
  5
2B4
100
AcDbEntity
  8
0
100
AcDbLine
 62
7
  6
CONTINUOUS
 10
9.6756519888
 20
8.4028672337
 11
8.9561601986
 21
8.4527641588
  0
LINE
  5
2B5
100
AcDbEntity
  8
0
100
AcDbLine
 62
4
  6
CONTINUOUS
 10
13.2151638009
 20
8.183155661
 11
13.0164590492
 21
8.1969358823
  0
LINE
  5
2B6
100
AcDbEntity
  8
0
100
AcDbLine
 62
7
  6
CONTINUOUS
 10
9.6603227777
 20
8.487150018
 11
8.9408309875
 21
8.5370469431
  0
LINE
  5
2B7
100
AcDbEntity
  8
0
100
AcDbLine
 62
4
  6
CONTINUOUS
 10
12.3441746343
 20
8.3153134617
 11
12.5759968464
 21
8.2992365367
  0
LINE
  5
2B8
100
AcDbEntity
  8
0
100
AcDbLine
 62
4
  6
CONTINUOUS
 10
13.7251726674
 20
8.2278203458
 11
13.5595853726
 21
8.2393038637
  0
LINE
  5
2B9
100
AcDbEntity
  8
0
100
AcDbLine
 62
7
  6
CONTINUOUS
 10
7.9320683681
 20
8.6336028037
 11
7.7356806867
 21
8.6472223357
  0
LINE
  5
2BA
100
AcDbEntity
  8
0
100
AcDbLine
 62
4
  6
CONTINUOUS
 10
12.4600857403
 20
8.3845490699
 11
12.5759968464
 21
8.3765106074
  0
LINE
  5
2BB
100
AcDbEntity
  8
0
100
AcDbLine
 62
7
  6
CONTINUOUS
 10
7.6267043331
 20
8.7412700447
 11
7.6151132225
 21
8.7420738909
  0
LINE
  5
2BC
100
AcDbEntity
  8
0
100
AcDbLine
 62
7
  6
CONTINUOUS
 10
7.65160845
 20
8.7505693586
 11
7.6380905426
 21
8.7515068286
  0
LINE
  5
2BD
100
AcDbEntity
  8
0
100
AcDbLine
 62
4
  6
CONTINUOUS
 10
13.7582901278
 20
7.4803807584
 11
13.5264679157
 21
7.5626925972
  0
LINE
  5
2BE
100
AcDbEntity
  8
0
100
AcDbLine
 62
4
  6
CONTINUOUS
 10
13.082693963
 20
8.4352038536
 11
13.0495765061
 21
8.4375005571
  0
LINE
  5
2BF
100
AcDbEntity
  8
0
100
AcDbLine
 62
4
  6
CONTINUOUS
 10
13.7251726674
 20
8.4210054488
 11
13.5595853726
 21
8.4324889667
  0
LINE
  5
2C0
100
AcDbEntity
  8
0
100
AcDbLine
 62
4
  6
CONTINUOUS
 10
12.5759968464
 20
8.5696957841
 11
12.4987227757
 21
8.5750547591
  0
LINE
  5
2C1
100
AcDbEntity
  8
0
100
AcDbLine
 62
7
  6
CONTINUOUS
 10
6.5916787029
 20
8.9874672366
 11
6.9761172046
 21
8.960806336
  0
LINE
  5
2C2
100
AcDbEntity
  8
0
100
AcDbLine
 62
7
  6
CONTINUOUS
 10
7.0495275717
 20
8.9557153097
 11
7.4248257681
 21
8.9296882914
  0
LINE
  5
2C3
100
AcDbEntity
  8
0
100
AcDbLine
 62
4
  6
CONTINUOUS
 10
13.2151638009
 20
8.5419281452
 11
13.1820463406
 21
8.5442248489
  0
LINE
  5
2C4
100
AcDbEntity
  8
0
100
AcDbLine
 62
4
  6
CONTINUOUS
 10
14.5233034347
 20
8.4674911011
 11
14.7551256415
 21
8.4514141764
  0
LINE
  5
2C5
100
AcDbEntity
  8
0
100
AcDbLine
 62
4
  6
CONTINUOUS
 10
13.5595853726
 20
8.5484000727
 11
13.7251726674
 21
8.5369165548
  0
LINE
  5
2C6
100
AcDbEntity
  8
0
100
AcDbLine
 62
7
  6
CONTINUOUS
 10
6.9806833529
 20
9.0266481942
 11
7.0017781917
 21
9.0251852621
  0
LINE
  5
2C7
100
AcDbEntity
  8
0
100
AcDbLine
 62
4
  6
CONTINUOUS
 10
13.7582901278
 20
8.6008547373
 11
13.5264679157
 21
8.6169316623
  0
LINE
  5
2C8
100
AcDbEntity
  8
0
100
AcDbLine
 62
4
  6
CONTINUOUS
 10
12.4600857403
 20
8.6936453526
 11
12.5759968464
 21
8.6856068901
  0
LINE
  5
2C9
100
AcDbEntity
  8
0
100
AcDbLine
 62
4
  6
CONTINUOUS
 10
12.4600857403
 20
8.7709194233
 11
12.5759968464
 21
8.7628809608
  0
LINE
  5
2CA
100
AcDbEntity
  8
0
100
AcDbLine
 62
4
  6
CONTINUOUS
 10
13.2482812613
 20
7.899360553
 11
13.0164590492
 21
7.9816723918
  0
LINE
  5
2CB
100
AcDbEntity
  8
0
100
AcDbLine
 62
4
  6
CONTINUOUS
 10
11.443931681
 20
6.9781189615
 11
11.443931681
 21
7.0070967374
  0
LINE
  5
2CC
100
AcDbEntity
  8
0
100
AcDbLine
 62
4
  6
CONTINUOUS
 10
11.6757538879
 20
6.9185753731
 11
11.6757538879
 21
7.0344864765
  0
LINE
  5
2CD
100
AcDbEntity
  8
0
100
AcDbLine
 62
7
  6
CONTINUOUS
 10
7.8480892016
 20
9.0953354995
 11
7.6517015201
 21
9.1089550315
  0
LINE
  5
2CE
100
AcDbEntity
  8
0
100
AcDbLine
 62
4
  6
CONTINUOUS
 10
13.5595853726
 20
8.7305460649
 11
13.7251726674
 21
8.719062547
  0
LINE
  5
2CF
100
AcDbEntity
  8
0
100
AcDbLine
 62
4
  6
CONTINUOUS
 10
12.5759968464
 20
8.8787920668
 11
12.4600857403
 21
8.8868305293
  0
LINE
  5
2D0
100
AcDbEntity
  8
0
100
AcDbLine
 62
4
  6
CONTINUOUS
 10
13.7582901278
 20
8.8105987276
 11
13.5264679157
 21
8.8266756526
  0
LINE
  5
2D1
100
AcDbEntity
  8
0
100
AcDbLine
 62
4
  6
CONTINUOUS
 10
12.5759968464
 20
8.9560661375
 11
12.3441746343
 21
8.9721430625
  0
LINE
  5
2D2
100
AcDbEntity
  8
0
100
AcDbLine
 62
4
  6
CONTINUOUS
 10
12.5759968464
 20
9.0333402082
 11
12.4600857403
 21
9.0413786707
  0
LINE
  5
2D3
100
AcDbEntity
  8
0
100
AcDbLine
 62
4
  6
CONTINUOUS
 10
12.4600857403
 20
9.1186527414
 11
12.5759968464
 21
9.1106142788
  0
LINE
  5
2D4
100
AcDbEntity
  8
0
100
AcDbLine
 62
7
  6
CONTINUOUS
 10
9.6603227777
 20
9.3310019759
 11
8.9408309875
 21
9.380898901
  0
LINE
  5
2D5
100
AcDbEntity
  8
0
100
AcDbLine
 62
7
  6
CONTINUOUS
 10
9.6756519888
 20
9.4448985238
 11
8.9561601986
 21
9.4947954489
  0
LINE
  5
2D6
100
AcDbEntity
  8
0
100
AcDbLine
 62
4
  6
CONTINUOUS
 10
12.4600857403
 20
9.3118379181
 11
12.5180412933
 21
9.3078186868
  0
LINE
  5
2D7
100
AcDbEntity
  8
0
100
AcDbLine
 62
7
  6
CONTINUOUS
 10
6.6425981757
 20
9.7217037157
 11
7.0270366773
 21
9.6950428151
  0
LINE
  5
2D8
100
AcDbEntity
  8
0
100
AcDbLine
 62
7
  6
CONTINUOUS
 10
7.1004470445
 20
9.6899517889
 11
7.4757494675
 21
9.6639244774
  0
LINE
  5
2D9
100
AcDbEntity
  8
0
100
AcDbLine
 62
7
  6
CONTINUOUS
 10
7.9320683681
 20
9.7193034968
 11
7.7356806867
 21
9.7329230287
  0
LINE
  5
2DA
100
AcDbEntity
  8
0
100
AcDbLine
 62
4
  6
CONTINUOUS
 10
12.5180412933
 20
9.4237297928
 11
12.5759968464
 21
9.4197105616
  0
LINE
  5
2DB
100
AcDbEntity
  8
0
100
AcDbLine
 62
4
  6
CONTINUOUS
 10
12.3441746343
 20
7.2160898063
 11
12.3441746343
 21
7.1001787002
  0
LINE
  5
2DC
100
AcDbEntity
  8
0
100
AcDbLine
 62
4
  6
CONTINUOUS
 10
12.3441746343
 20
7.4479120183
 11
12.3441746343
 21
7.5638231243
  0
LINE
  5
2DD
100
AcDbEntity
  8
0
100
AcDbLine
 62
4
  6
CONTINUOUS
 10
11.443931681
 20
7.0070967374
 11
11.4632501937
 21
7.0347347698
  0
LINE
  5
2DE
100
AcDbEntity
  8
0
100
AcDbLine
 62
4
  6
CONTINUOUS
 10
13.0164590492
 20
8.5391495897
 11
13.0330177846
 21
8.5545600143
  0
LINE
  5
2DF
100
AcDbEntity
  8
0
100
AcDbLine
 62
7
  6
CONTINUOUS
 10
7.7250819284
 20
9.810024713
 11
7.711564021
 21
9.810962183
  0
LINE
  5
2E0
100
AcDbEntity
  8
0
100
AcDbLine
 62
7
  6
CONTINUOUS
 10
7.701699861
 20
9.8226726851
 11
7.6901087504
 21
9.8234765314
  0
LINE
  5
2E1
100
AcDbEntity
  8
0
100
AcDbLine
 62
7
  6
CONTINUOUS
 10
8.1000267013
 20
9.8815387981
 11
7.9036390199
 21
9.8951583301
  0
LINE
  5
2E2
100
AcDbEntity
  8
0
100
AcDbLine
 62
7
  6
CONTINUOUS
 10
9.0471648297
 20
9.9348567505
 11
8.475100339
 21
9.9745295576
  0
LINE
  5
2E3
100
AcDbEntity
  8
0
100
AcDbLine
 62
7
  6
CONTINUOUS
 10
8.3823714542
 20
9.9809603276
 11
8.2838470141
 21
9.9877930208
  0
LINE
  5
2E4
100
AcDbEntity
  8
0
100
AcDbLine
 62
7
  6
CONTINUOUS
 10
14.8749004491
 20
9.5848322064
 11
10.0452710315
 21
9.9197681441
  0
LINE
  5
2E5
100
AcDbEntity
  8
0
100
AcDbLine
 62
4
  6
CONTINUOUS
 10
13.0385373538
 20
8.3941095157
 11
13.2427616847
 21
8.2474766274
  0
LINE
  5
2E6
100
AcDbEntity
  8
0
100
AcDbLine
 62
4
  6
CONTINUOUS
 10
13.7251726674
 20
7.3888446607
 11
13.7582901278
 21
7.3534305001
  0
LINE
  5
2E7
100
AcDbEntity
  8
0
100
AcDbLine
 62
4
  6
CONTINUOUS
 10
12.4021301873
 20
9.0309090137
 11
12.4021301873
 21
9.0598867902
  0
LINE
  5
2E8
100
AcDbEntity
  8
0
100
AcDbLine
 62
4
  6
CONTINUOUS
 10
12.4600857403
 20
8.6936453526
 11
12.4600857403
 21
8.6163712819
  0
LINE
  5
2E9
100
AcDbEntity
  8
0
100
AcDbLine
 62
4
  6
CONTINUOUS
 10
12.4600857403
 20
7.9035179799
 11
12.4600857403
 21
7.7876068739
  0
LINE
  5
2EA
100
AcDbEntity
  8
0
100
AcDbLine
 62
4
  6
CONTINUOUS
 10
12.4600857403
 20
7.0921402377
 11
12.4600857403
 21
7.2080513437
  0
LINE
  5
2EB
100
AcDbEntity
  8
0
100
AcDbLine
 62
4
  6
CONTINUOUS
 10
12.4600857403
 20
8.1913638932
 11
12.4600857403
 21
8.3072749992
  0
LINE
  5
2EC
100
AcDbEntity
  8
0
100
AcDbLine
 62
4
  6
CONTINUOUS
 10
12.4600857403
 20
8.3845490699
 11
12.4600857403
 21
8.5004601759
  0
LINE
  5
2ED
100
AcDbEntity
  8
0
100
AcDbLine
 62
4
  6
CONTINUOUS
 10
12.4600857403
 20
9.1186527414
 11
12.4600857403
 21
9.2345638474
  0
LINE
  5
2EE
100
AcDbEntity
  8
0
100
AcDbLine
 62
4
  6
CONTINUOUS
 10
12.4600857403
 20
9.3118379181
 11
12.4600857403
 21
9.4277490241
  0
LINE
  5
2EF
100
AcDbEntity
  8
0
100
AcDbLine
 62
4
  6
CONTINUOUS
 10
12.4987227757
 20
8.5750547591
 11
12.4987227757
 21
8.6909658651
  0
LINE
  5
2F0
100
AcDbEntity
  8
0
100
AcDbLine
 62
4
  6
CONTINUOUS
 10
12.5180412933
 20
9.3078186868
 11
12.5180412933
 21
9.4237297928
  0
LINE
  5
2F1
100
AcDbEntity
  8
0
100
AcDbLine
 62
4
  6
CONTINUOUS
 10
12.5759968464
 20
9.4197105616
 11
12.5759968464
 21
9.3037994556
  0
LINE
  5
2F2
100
AcDbEntity
  8
0
100
AcDbLine
 62
4
  6
CONTINUOUS
 10
12.5759968464
 20
8.6856068901
 11
12.5759968464
 21
8.5696957841
  0
LINE
  5
2F3
100
AcDbEntity
  8
0
100
AcDbLine
 62
4
  6
CONTINUOUS
 10
12.5759968464
 20
8.2992365367
 11
12.5759968464
 21
8.1833254307
  0
LINE
  5
2F4
100
AcDbEntity
  8
0
100
AcDbLine
 62
4
  6
CONTINUOUS
 10
12.5759968464
 20
8.10605136
 11
12.5759968464
 21
7.990140254
  0
LINE
  5
2F5
100
AcDbEntity
  8
0
100
AcDbLine
 62
4
  6
CONTINUOUS
 10
12.5759968464
 20
7.3738795403
 11
12.5759968464
 21
7.2579684343
  0
LINE
  5
2F6
100
AcDbEntity
  8
0
100
AcDbLine
 62
4
  6
CONTINUOUS
 10
12.5759968464
 20
7.2000128812
 11
12.5759968464
 21
7.0841017752
  0
LINE
  5
2F7
100
AcDbEntity
  8
0
100
AcDbLine
 62
4
  6
CONTINUOUS
 10
12.5759968464
 20
8.7628809608
 11
12.5759968464
 21
8.8787920668
  0
LINE
  5
2F8
100
AcDbEntity
  8
0
100
AcDbLine
 62
4
  6
CONTINUOUS
 10
12.5759968464
 20
9.1106142788
 11
12.5759968464
 21
9.2265253849
  0
LINE
  5
2F9
100
AcDbEntity
  8
0
100
AcDbLine
 62
4
  6
CONTINUOUS
 10
12.6919079524
 20
8.0980128975
 11
12.6919079524
 21
8.0207388268
  0
LINE
  5
2FA
100
AcDbEntity
  8
0
100
AcDbLine
 62
4
  6
CONTINUOUS
 10
13.1820463406
 20
8.5442248489
 11
13.082693963
 21
8.4352038536
  0
LINE
  5
2FB
100
AcDbEntity
  8
0
100
AcDbLine
 62
4
  6
CONTINUOUS
 10
13.5264679157
 20
8.6997253252
 11
13.5595853726
 21
8.7305460649
  0
LINE
  5
2FC
100
AcDbEntity
  8
0
100
AcDbLine
 62
4
  6
CONTINUOUS
 10
13.2317225311
 20
8.4248686873
 11
13.2482812613
 21
8.440279057
  0
LINE
  5
2FD
100
AcDbEntity
  8
0
100
AcDbLine
 62
4
  6
CONTINUOUS
 10
11.4632501937
 20
7.0347347698
 11
11.4825687201
 21
7.0478839134
  0
LINE
  5
2FE
100
AcDbEntity
  8
0
100
AcDbLine
 62
7
  6
CONTINUOUS
 10
10.0975557353
 20
9.9702712928
 11
10.0647588154
 21
9.9725457669
  0
LINE
  5
2FF
100
AcDbEntity
  8
0
100
AcDbLine
 62
7
  6
CONTINUOUS
 10
9.8714683439
 20
10.0559685885
 11
9.1519765537
 21
10.1058655137
  0
LINE
  5
300
100
AcDbEntity
  8
0
100
AcDbLine
 62
7
  6
CONTINUOUS
 10
9.9021267662
 20
10.0855823522
 11
9.182634976
 21
10.1354792773
  0
LINE
  5
301
100
AcDbEntity
  8
0
100
AcDbLine
 62
4
  6
CONTINUOUS
 10
13.2482812613
 20
8.1477414866
 11
13.2151638009
 21
8.183155661
  0
LINE
  5
302
100
AcDbEntity
  8
0
100
AcDbLine
 62
4
  6
CONTINUOUS
 10
13.0495765061
 20
8.4375005571
 11
13.0164590492
 21
8.4729147036
  0
LINE
  5
303
100
AcDbEntity
  8
0
100
AcDbLine
 62
4
  6
CONTINUOUS
 10
13.2482812613
 20
8.5065139432
 11
13.2151638009
 21
8.5419281452
  0
LINE
  5
304
100
AcDbEntity
  8
0
100
AcDbLine
 62
4
  6
CONTINUOUS
 10
13.5595853726
 20
8.2393038637
 11
13.5264679157
 21
8.2747180102
  0
LINE
  5
305
100
AcDbEntity
  8
0
100
AcDbLine
 62
4
  6
CONTINUOUS
 10
13.0164590492
 20
7.7498501798
 11
13.0164590492
 21
7.8492025574
  0
LINE
  5
306
100
AcDbEntity
  8
0
100
AcDbLine
 62
4
  6
CONTINUOUS
 10
13.0164590492
 20
8.4729147036
 11
13.0164590492
 21
8.5391495897
  0
LINE
  5
307
100
AcDbEntity
  8
0
100
AcDbLine
 62
7
  6
CONTINUOUS
 10
14.8749004491
 20
9.5848322064
 11
15.5219475279
 21
10.2098317277
  0
LINE
  5
308
100
AcDbEntity
  8
0
100
AcDbLine
 62
4
  6
CONTINUOUS
 10
13.5264679157
 20
8.5175793331
 11
13.5595853726
 21
8.5484000727
  0
LINE
  5
309
100
AcDbEntity
  8
0
100
AcDbLine
 62
4
  6
CONTINUOUS
 10
13.7582901278
 20
8.4518261882
 11
13.7251726674
 21
8.4210054488
  0
LINE
  5
30A
100
AcDbEntity
  8
0
100
AcDbLine
 62
7
  6
CONTINUOUS
 10
15.5219475279
 20
10.2098317277
 11
10.6923181103
 21
10.5447676654
  0
LINE
  5
30B
100
AcDbEntity
  8
0
100
AcDbLine
 62
4
  6
CONTINUOUS
 10
13.5595853726
 20
8.4324889667
 11
13.5264679157
 21
8.4679031132
  0
LINE
  5
30C
100
AcDbEntity
  8
0
100
AcDbLine
 62
4
  6
CONTINUOUS
 10
13.7251726674
 20
8.5369165548
 11
13.7582901278
 21
8.501502408
  0
LINE
  5
30D
100
AcDbEntity
  8
0
100
AcDbLine
 62
4
  6
CONTINUOUS
 10
13.6147811341
 20
7.2364326312
 11
13.6589377502
 21
7.1450571342
  0
LINE
  5
30E
100
AcDbEntity
  8
0
100
AcDbLine
 62
4
  6
CONTINUOUS
 10
13.1158114199
 20
7.8423124471
 11
13.1158114199
 21
7.7429600695
  0
LINE
  5
30F
100
AcDbEntity
  8
0
100
AcDbLine
 62
4
  6
CONTINUOUS
 10
13.1820463406
 20
7.926032265
 11
13.1820463406
 21
8.0143454834
  0
LINE
  5
310
100
AcDbEntity
  8
0
100
AcDbLine
 62
4
  6
CONTINUOUS
 10
13.2482812613
 20
8.0980652944
 11
13.2482812613
 21
8.1477414866
  0
LINE
  5
311
100
AcDbEntity
  8
0
100
AcDbLine
 62
4
  6
CONTINUOUS
 10
13.2482812613
 20
8.440279057
 11
13.2482812613
 21
8.5065139432
  0
LINE
  5
312
100
AcDbEntity
  8
0
100
AcDbLine
 62
4
  6
CONTINUOUS
 10
13.6147811341
 20
8.9861383255
 11
13.6589377502
 21
9.0713892721
  0
LINE
  5
313
100
AcDbEntity
  8
0
100
AcDbLine
 62
4
  6
CONTINUOUS
 10
13.7582901278
 20
8.2586410852
 11
13.7251726674
 21
8.2278203458
  0
LINE
  5
314
100
AcDbEntity
  8
0
100
AcDbLine
 62
4
  6
CONTINUOUS
 10
13.7251726674
 20
8.719062547
 11
13.7582901278
 21
8.6836484002
  0
LINE
  5
315
100
AcDbEntity
  8
0
100
AcDbLine
 62
4
  6
CONTINUOUS
 10
13.5264679157
 20
7.2867137898
 11
13.5264679157
 21
7.3695074251
  0
LINE
  5
316
100
AcDbEntity
  8
0
100
AcDbLine
 62
4
  6
CONTINUOUS
 10
13.5264679157
 20
7.6951624248
 11
13.5264679157
 21
7.8276322523
  0
LINE
  5
317
100
AcDbEntity
  8
0
100
AcDbLine
 62
4
  6
CONTINUOUS
 10
13.5264679157
 20
7.8938671938
 11
13.5264679157
 21
7.9932195782
  0
LINE
  5
318
100
AcDbEntity
  8
0
100
AcDbLine
 62
4
  6
CONTINUOUS
 10
13.5264679157
 20
8.2747180102
 11
13.5264679157
 21
8.3409528963
  0
LINE
  5
319
100
AcDbEntity
  8
0
100
AcDbLine
 62
4
  6
CONTINUOUS
 10
13.5264679157
 20
8.4679031132
 11
13.5264679157
 21
8.5175793331
  0
LINE
  5
31A
100
AcDbEntity
  8
0
100
AcDbLine
 62
4
  6
CONTINUOUS
 10
13.5264679157
 20
8.6169316623
 11
13.5264679157
 21
8.6997253252
  0
LINE
  5
31B
100
AcDbEntity
  8
0
100
AcDbLine
 62
4
  6
CONTINUOUS
 10
13.5264679157
 20
8.8266756526
 11
13.5264679157
 21
8.9260279818
  0
LINE
  5
31C
100
AcDbEntity
  8
0
100
AcDbLine
 62
4
  6
CONTINUOUS
 10
13.6258202864
 20
8.8860204285
 11
13.6258202864
 21
8.8197855423
  0
LINE
  5
31D
100
AcDbEntity
  8
0
100
AcDbLine
 62
4
  6
CONTINUOUS
 10
13.6258202864
 20
7.9532120249
 11
13.6258202864
 21
7.8869770835
  0
LINE
  5
31E
100
AcDbEntity
  8
0
100
AcDbLine
 62
4
  6
CONTINUOUS
 10
13.5264679157
 20
7.3695074251
 11
13.5595853726
 21
7.4003281786
  0
LINE
  5
31F
100
AcDbEntity
  8
0
100
AcDbLine
 62
4
  6
CONTINUOUS
 10
13.6589377502
 20
9.0713892721
 11
13.7030943629
 21
8.9800137823
  0
LINE
  5
320
100
AcDbEntity
  8
0
100
AcDbLine
 62
4
  6
CONTINUOUS
 10
13.6920552071
 20
7.5070524704
 11
13.6920552071
 21
7.5953656888
  0
LINE
  5
321
100
AcDbEntity
  8
0
100
AcDbLine
 62
4
  6
CONTINUOUS
 10
13.7582901278
 20
8.6836484002
 11
13.7582901278
 21
8.6008547373
  0
LINE
  5
322
100
AcDbEntity
  8
0
100
AcDbLine
 62
4
  6
CONTINUOUS
 10
13.7582901278
 20
8.501502408
 11
13.7582901278
 21
8.4518261882
  0
LINE
  5
323
100
AcDbEntity
  8
0
100
AcDbLine
 62
4
  6
CONTINUOUS
 10
13.7582901278
 20
8.3248759713
 11
13.7582901278
 21
8.2586410852
  0
LINE
  5
324
100
AcDbEntity
  8
0
100
AcDbLine
 62
4
  6
CONTINUOUS
 10
13.7582901278
 20
7.3534305001
 11
13.7582901278
 21
7.2706368648
  0
LINE
  5
325
100
AcDbEntity
  8
0
100
AcDbLine
 62
4
  6
CONTINUOUS
 10
13.7582901278
 20
7.8777902687
 11
13.7582901278
 21
7.9771426532
  0
LINE
  5
326
100
AcDbEntity
  8
0
100
AcDbLine
 62
4
  6
CONTINUOUS
 10
13.7582901278
 20
8.8105987276
 11
13.7582901278
 21
8.9099510568
  0
LINE
  5
327
100
AcDbEntity
  8
0
100
AcDbLine
 62
4
  6
CONTINUOUS
 10
13.6589377502
 20
7.1450571342
 11
13.7030943629
 21
7.230308088
  0
LINE
  5
328
100
AcDbEntity
  8
0
100
AcDbLine
 62
7
  6
CONTINUOUS
 10
14.8749004491
 20
6.4552323346
 11
14.8749004491
 21
9.5848322064
  0
LINE
  5
329
100
AcDbEntity
  8
0
100
AcDbLine
 62
7
  6
CONTINUOUS
 10
15.5219475279
 20
7.0802318559
 11
14.8749004491
 21
6.4552323346
  0
LINE
  5
32A
100
AcDbEntity
  8
0
100
AcDbLine
 62
7
  6
CONTINUOUS
 10
15.5219475279
 20
10.2098317277
 11
15.5219475279
 21
7.0802318559
  0
ARC
  5
32B
100
AcDbEntity
  8
0
100
AcDbCircle
 62
7
  6
CONTINUOUS
 10
13.2048141499
 20
8.9119326247
 40
3.5691789264
100
AcDbArc
 50
171.4122169565
 51
173.2571553889
  0
ARC
  5
32C
100
AcDbEntity
  8
0
100
AcDbCircle
 62
7
  6
CONTINUOUS
 10
12.4853223597
 20
8.9618295498
 40
3.5691789264
100
AcDbArc
 50
171.4122169565
 51
173.2571553889
  0
ARC
  5
32D
100
AcDbEntity
  8
0
100
AcDbCircle
 62
7
  6
CONTINUOUS
 10
7.037047161
 20
9.2875264793
 40
1.2176929572
100
AcDbArc
 50
27.5737953386
 51
29.1972535807
  0
ARC
  5
32E
100
AcDbEntity
  8
0
100
AcDbCircle
 62
7
  6
CONTINUOUS
 10
10.1258447379
 20
9.4011522871
 40
1.2011294011
100
AcDbArc
 50
149.4028016903
 51
152.5148955952
  0
SPLINE
  5
32F
100
AcDbEntity
  8
0
100
AcDbSpline
 62
7
  6
CONTINUOUS
 70
0
 71
3
 72
49
 73
45
 74
0
 42
0.0000001
 43
0.0000001
 44
0.0000000001
 40
0.0
 40
0.0
 40
0.0
 40
0.0
 40
0.0053769914
 40
0.0108201207
 40
0.0163928903
 40
0.0221541641
 40
0.0344344282
 40
0.0410502321
 40
0.0480248322
 40
0.055384819
 40
0.0631518945
 40
0.0713431339
 40
0.0799717068
 40
0.0890478105
 40
0.0985785974
 40
0.1085688347
 40
0.1190215006
 40
0.1299374584
 40
0.1413161038
 40
0.1531556776
 40
0.1654528566
 40
0.1782034014
 40
0.1914022274
 40
0.2191178302
 40
0.2485424947
 40
0.2796065
 40
0.3122304882
 40
0.3463268751
 40
0.3818006099
 40
0.4185499633
 40
0.4564675352
 40
0.4954407822
 40
0.5353525277
 40
0.5760817445
 40
0.6175040611
 40
0.6594922522
 40
0.7019168385
 40
0.744646594
 40
0.7875490537
 40
0.8304913689
 40
0.8733399293
 40
0.9159611301
 40
0.9582272401
 40
1.0
 40
1.0
 40
1.0
 40
1.0
 10
7.100446587
 20
9.6899517928
 30
0.0
 10
7.0995650348
 20
9.6900129259
 30
0.0
 10
7.0977822914
 20
9.6900332736
 30
0.0
 10
7.0950971553
 20
9.6897559935
 30
0.0
 10
7.0923968639
 20
9.6891721852
 30
0.0
 10
7.0887036029
 20
9.687961627
 30
0.0
 10
7.0850573928
 20
9.6861365602
 30
0.0
 10
7.081501005
 20
9.6838029364
 30
0.0
 10
7.0787626813
 20
9.6817106933
 30
0.0
 10
7.076022981
 20
9.6793226628
 30
0.0
 10
7.073283256
 20
9.67664039
 30
0.0
 10
7.070545652
 20
9.6736662203
 30
0.0
 10
7.0678120792
 20
9.6704025767
 30
0.0
 10
7.0650847767
 20
9.666851986
 30
0.0
 10
7.0623658072
 20
9.6630173542
 30
0.0
 10
7.0596572903
 20
9.6589017903
 30
0.0
 10
7.0569615238
 20
9.6545085511
 30
0.0
 10
7.0542806058
 20
9.6498412597
 30
0.0
 10
7.0516167147
 20
9.6449037198
 30
0.0
 10
7.0489721362
 20
9.6396999162
 30
0.0
 10
7.0463489539
 20
9.6342341587
 30
0.0
 10
7.0437493172
 20
9.6285109149
 30
0.0
 10
7.0402605683
 20
9.6204103186
 30
0.0
 10
7.0359855853
 20
9.6096673712
 30
0.0
 10
7.0310630413
 20
9.5960307811
 30
0.0
 10
7.0262841459
 20
9.5814917132
 30
0.0
 10
7.0216648024
 20
9.5660980753
 30
0.0
 10
7.0172204599
 20
9.54990043
 30
0.0
 10
7.0129659359
 20
9.5329521635
 30
0.0
 10
7.0089153641
 20
9.5153091971
 30
0.0
 10
7.0050822606
 20
9.4970297765
 30
0.0
 10
7.001479416
 20
9.4781742784
 30
0.0
 10
6.9981187698
 20
9.4588050313
 30
0.0
 10
6.9950114998
 20
9.4389860731
 30
0.0
 10
6.9921679781
 20
9.41878293
 30
0.0
 10
6.9895976144
 20
9.3982624244
 30
0.0
 10
6.9873089258
 20
9.3774924382
 30
0.0
 10
6.9853095493
 20
9.3565416835
 30
0.0
 10
6.9836060926
 20
9.3354794399
 30
0.0
 10
6.9822041846
 20
9.3143754114
 30
0.0
 10
6.9811084856
 20
9.2932995555
 30
0.0
 10
6.9803225607
 20
9.2723210569
 30
0.0
 10
6.9798491223
 20
9.2515100595
 30
0.0
 10
6.9797419781
 20
9.2376986684
 30
0.0
 10
6.9797419781
 20
9.2308336198
 30
0.0
  0
SPLINE
  5
330
100
AcDbEntity
  8
0
100
AcDbSpline
 62
7
  6
CONTINUOUS
 70
0
 71
3
 72
21
 73
17
 74
0
 42
0.0000001
 43
0.0000001
 44
0.0000000001
 40
0.0
 40
0.0
 40
0.0
 40
0.0
 40
0.0544269826
 40
0.1090708569
 40
0.1641456939
 40
0.2198599242
 40
0.2764143091
 40
0.3340002456
 40
0.4529309738
 40
0.5146427221
 40
0.5780315011
 40
0.6432275926
 40
0.7103481852
 40
0.7794983679
 40
0.8507726237
 40
1.0
 40
1.0
 40
1.0
 40
1.0
 10
8.1804855202
 20
8.497372844
 30
0.0
 10
8.1794714037
 20
8.4974431743
 30
0.0
 10
8.1774431176
 20
8.4976506354
 30
0.0
 10
8.1744179972
 20
8.4981608735
 30
0.0
 10
8.1714084724
 20
8.4988701676
 30
0.0
 10
8.1684156429
 20
8.4997781321
 30
0.0
 10
8.1654402257
 20
8.5008844895
 30
0.0
 10
8.1614554162
 20
8.502642052
 30
0.0
 10
8.1575458423
 20
8.5047886455
 30
0.0
 10
8.1537305832
 20
8.5072844951
 30
0.0
 10
8.1508546711
 20
8.5093755521
 30
0.0
 10
8.1480010891
 20
8.5116618005
 30
0.0
 10
8.145170313
 20
8.5141426339
 30
0.0
 10
8.142363008
 20
8.5168173358
 30
0.0
 10
8.1385947021
 20
8.5207003938
 30
0.0
 10
8.1358938161
 20
8.5238153526
 30
0.0
 10
8.1341352147
 20
8.5259776794
 30
0.0
  0
SPLINE
  5
331
100
AcDbEntity
  8
0
100
AcDbSpline
 62
7
  6
CONTINUOUS
 70
0
 71
3
 72
9
 73
5
 74
0
 42
0.0000001
 43
0.0000001
 44
0.0000000001
 40
0.0
 40
0.0
 40
0.0
 40
0.0
 40
0.4861313864
 40
1.0
 40
1.0
 40
1.0
 40
1.0
 10
9.1673057649
 20
10.1224062856
 30
0.0
 10
9.1646764415
 20
10.119866554
 30
0.0
 10
9.1594237232
 20
10.1144792056
 30
0.0
 10
9.1544596803
 20
10.1088262802
 30
0.0
 10
9.1519765537
 20
10.1058655137
 30
0.0
  0
SPLINE
  5
332
100
AcDbEntity
  8
0
100
AcDbSpline
 62
7
  6
CONTINUOUS
 70
0
 71
3
 72
9
 73
5
 74
0
 42
0.0000001
 43
0.0000001
 44
0.0000000001
 40
0.0
 40
0.0
 40
0.0
 40
0.0
 40
0.5141854272
 40
1.0
 40
1.0
 40
1.0
 40
1.0
 10
9.1673057649
 20
10.1224062856
 30
0.0
 10
9.169790713
 20
10.1248065613
 30
0.0
 10
9.1747571706
 20
10.1293390302
 30
0.0
 10
9.1800103922
 20
10.1335384041
 30
0.0
 10
9.182634976
 20
10.1354792773
 30
0.0
  0
SPLINE
  5
333
100
AcDbEntity
  8
0
100
AcDbSpline
 62
7
  6
CONTINUOUS
 70
0
 71
3
 72
9
 73
5
 74
0
 42
0.0000001
 43
0.0000001
 44
0.0000000001
 40
0.0
 40
0.0
 40
0.0
 40
0.0
 40
0.4880283949
 40
1.0
 40
1.0
 40
1.0
 40
1.0
 10
9.8714683439
 20
8.1700853405
 30
0.0
 10
9.8736743424
 20
8.1717166709
 30
0.0
 10
9.8780894927
 20
8.1752030696
 30
0.0
 10
9.8823011456
 20
8.1789314582
 30
0.0
 10
9.8844080893
 20
8.180892378
 30
0.0
  0
SPLINE
  5
334
100
AcDbEntity
  8
0
100
AcDbSpline
 62
7
  6
CONTINUOUS
 70
0
 71
3
 72
23
 73
19
 74
0
 42
0.0000001
 43
0.0000001
 44
0.0000000001
 40
0.0
 40
0.0
 40
0.0
 40
0.0
 40
0.0767902361
 40
0.1521365664
 40
0.2259411329
 40
0.2981030541
 40
0.3685209253
 40
0.437088788
 40
0.5037000311
 40
0.5682484137
 40
0.6306308423
 40
0.6907496828
 40
0.7485153659
 40
0.8038511668
 40
0.856695406
 40
0.9070076628
 40
0.9547715651
 40
1.0
 40
1.0
 40
1.0
 40
1.0
 10
9.9021267662
 20
10.0855823522
 30
0.0
 10
9.9073284553
 20
10.0832306956
 30
0.0
 10
9.9176128946
 20
10.0785246523
 30
0.0
 10
9.9328153655
 20
10.0713821544
 30
0.0
 10
9.9476283092
 20
10.064221891
 30
0.0
 10
9.9620252488
 20
10.0570454581
 30
0.0
 10
9.9759786785
 20
10.0498548903
 30
0.0
 10
9.9894600903
 20
10.0426526089
 30
0.0
 10
10.0024399187
 20
10.035441449
 30
0.0
 10
10.0148881662
 20
10.0282249216
 30
0.0
 10
10.0267744345
 20
10.0210067251
 30
0.0
 10
10.038068782
 20
10.0137914772
 30
0.0
 10
10.0487416502
 20
10.0065837228
 30
0.0
 10
10.0587651282
 20
9.9993890738
 30
0.0
 10
10.068112731
 20
9.9922128499
 30
0.0
 10
10.0767609451
 20
9.9850611367
 30
0.0
 10
10.0846886303
 20
9.9779400852
 30
0.0
 10
10.0896153633
 20
9.9730858437
 30
0.0
 10
10.0919463612
 20
9.9706627559
 30
0.0
  0
SPLINE
  5
335
100
AcDbEntity
  8
0
100
AcDbSpline
 62
7
  6
CONTINUOUS
 70
0
 71
3
 72
23
 73
19
 74
0
 42
0.0000001
 43
0.0000001
 44
0.0000000001
 40
0.0
 40
0.0
 40
0.0
 40
0.0
 40
0.0812679561
 40
0.1604421984
 40
0.2373859078
 40
0.3119675218
 40
0.3840615842
 40
0.4535549353
 40
0.5203518311
 40
0.5843796204
 40
0.6455955276
 40
0.7039917495
 40
0.7595999221
 40
0.8124955048
 40
0.8627992116
 40
0.910675403
 40
0.9563289881
 40
1.0
 40
1.0
 40
1.0
 40
1.0
 10
9.1519765537
 20
8.2199822657
 30
0.0
 10
9.1460380454
 20
8.2235428224
 30
0.0
 10
9.1343634597
 20
8.2306551774
 30
0.0
 10
9.1172608924
 20
8.2414539096
 30
0.0
 10
9.1008311937
 20
8.2522457975
 30
0.0
 10
9.0851201068
 20
8.2630263104
 30
0.0
 10
9.0701729695
 20
8.2737903987
 30
0.0
 10
9.0560338976
 20
8.2845323164
 30
0.0
 10
9.0427446615
 20
8.29524586
 30
0.0
 10
9.0303434839
 20
8.3059244955
 30
0.0
 10
9.0188636254
 20
8.3165612844
 30
0.0
 10
9.0083323848
 20
8.327149245
 30
0.0
 10
8.9987702469
 20
8.3376816279
 30
0.0
 10
8.9901898361
 20
8.3481518726
 30
0.0
 10
8.9825955469
 20
8.3585536966
 30
0.0
 10
8.9759835811
 20
8.3688817477
 30
0.0
 10
8.970342693
 20
8.3791302074
 30
0.0
 10
8.9671512402
 20
8.3860481082
 30
0.0
 10
8.9657224905
 20
8.3894836821
 30
0.0
  0
SPLINE
  5
336
100
AcDbEntity
  8
0
100
AcDbSpline
 62
7
  6
CONTINUOUS
 70
0
 71
3
 72
63
 73
59
 74
0
 42
0.0000001
 43
0.0000001
 44
0.0000000001
 40
0.0
 40
0.0
 40
0.0
 40
0.0
 40
0.0152243477
 40
0.030858164
 40
0.0632763294
 40
0.09713373
 40
0.132295125
 40
0.1686014679
 40
0.2058812184
 40
0.2439505768
 40
0.282617077
 40
0.32168175
 40
0.3609414555
 40
0.4001910398
 40
0.4392254519
 40
0.4778418741
 40
0.5158418914
 40
0.553033751
 40
0.5892348214
 40
0.6242743249
 40
0.6579964367
 40
0.6902640476
 40
0.7058162804
 40
0.7209646255
 40
0.7356994389
 40
0.7500134878
 40
0.7639027063
 40
0.7773650409
 40
0.7904036045
 40
0.8030239016
 40
0.8152374948
 40
0.8270615481
 40
0.8385177157
 40
0.8496386654
 40
0.8550855303
 40
0.860463516
 40
0.8710393976
 40
0.8762533352
 40
0.881428655
 40
0.8916972689
 40
0.9019235766
 40
0.9070486901
 40
0.9121931225
 40
0.9225773144
 40
0.9278375062
 40
0.9331483007
 40
0.9385158926
 40
0.943942166
 40
0.9494233267
 40
0.9549575943
 40
0.9605389956
 40
0.9661570854
 40
0.9718026474
 40
0.9774634673
 40
0.9831258494
 40
0.9887773532
 40
0.9944063056
 40
1.0
 40
1.0
 40
1.0
 40
1.0
 10
6.9300264744
 20
9.1013645832
 30
0.0
 10
6.9294873891
 20
9.1046083039
 30
0.0
 10
6.9284518351
 20
9.1111926061
 30
0.0
 10
6.9265462739
 20
9.1247262305
 30
0.0
 10
6.9244842094
 20
9.142299518
 30
0.0
 10
6.9225278436
 20
9.1641231289
 30
0.0
 10
6.9210658267
 20
9.1868268628
 30
0.0
 10
6.9201030569
 20
9.2102967983
 30
0.0
 10
6.919642702
 20
9.2344100009
 30
0.0
 10
6.9196860885
 20
9.2590371946
 30
0.0
 10
6.9202321614
 20
9.2840438981
 30
0.0
 10
6.9212774085
 20
9.3092919801
 30
0.0
 10
6.9228157353
 20
9.3346409668
 30
0.0
 10
6.9248384697
 20
9.3599493501
 30
0.0
 10
6.9273344208
 20
9.3850758611
 30
0.0
 10
6.9302900033
 20
9.4098807413
 30
0.0
 10
6.9336894318
 20
9.434227025
 30
0.0
 10
6.9375149954
 20
9.4579818695
 30
0.0
 10
6.9417474501
 20
9.4810179245
 30
0.0
 10
6.9463665434
 20
9.5032149108
 30
0.0
 10
6.9513518203
 20
9.5244609599
 30
0.0
 10
6.9558483078
 20
9.5414919038
 30
0.0
 10
6.9596258952
 20
9.5545573679
 30
0.0
 10
6.9625052059
 20
9.563939259
 30
0.0
 10
6.9654639148
 20
9.5730155752
 30
0.0
 10
6.9685012515
 20
9.5817786167
 30
0.0
 10
6.971617149
 20
9.5902217382
 30
0.0
 10
6.9748121133
 20
9.5983399984
 30
0.0
 10
6.9780886175
 20
9.6061292974
 30
0.0
 10
6.9814495307
 20
9.6135878094
 30
0.0
 10
6.9849008628
 20
9.620714725
 30
0.0
 10
6.9884509733
 20
9.6275107206
 30
0.0
 10
6.992109696
 20
9.6339792681
 30
0.0
 10
6.9952857968
 20
9.6391337754
 30
0.0
 10
6.9978980378
 20
9.6430893415
 30
0.0
 10
7.0005289854
 20
9.6468900423
 30
0.0
 10
7.003262338
 20
9.6505577138
 30
0.0
 10
7.0061114608
 20
9.6540778008
 30
0.0
 10
7.0090144145
 20
9.6574666814
 30
0.0
 10
7.0128069005
 20
9.6615163267
 30
0.0
 10
7.0168599284
 20
9.6652913002
 30
0.0
 10
7.0202665554
 20
9.6681198986
 30
0.0
 10
7.0238128113
 20
9.6708276015
 30
0.0
 10
7.0275584255
 20
9.6733173228
 30
0.0
 10
7.0315000674
 20
9.6755448072
 30
0.0
 10
7.034581381
 20
9.6770835016
 30
0.0
 10
7.0377742362
 20
9.6784679621
 30
0.0
 10
7.041074656
 20
9.6796832906
 30
0.0
 10
7.0444750827
 20
9.6807141862
 30
0.0
 10
7.0479649542
 20
9.6815430846
 30
0.0
 10
7.0515291935
 20
9.6821564179
 30
0.0
 10
7.0551493792
 20
9.6825435702
 30
0.0
 10
7.0588044639
 20
9.6826916883
 30
0.0
 10
7.0624709115
 20
9.6825985175
 30
0.0
 10
7.0661244933
 20
9.6822626223
 30
0.0
 10
7.0697405986
 20
9.6816841307
 30
0.0
 10
7.0732965826
 20
9.6808745556
 30
0.0
 10
7.0756221407
 20
9.6801841125
 30
0.0
 10
7.0767687127
 20
9.6798033342
 30
0.0
  0
SPLINE
  5
337
100
AcDbEntity
  8
0
100
AcDbSpline
 62
7
  6
CONTINUOUS
 70
0
 71
3
 72
27
 73
23
 74
0
 42
0.0000001
 43
0.0000001
 44
0.0000000001
 40
0.0
 40
0.0
 40
0.0
 40
0.0
 40
0.0650944527
 40
0.1326656298
 40
0.2021337098
 40
0.2728254873
 40
0.3440106824
 40
0.414936642
 40
0.484862419
 40
0.5530931814
 40
0.6190159154
 40
0.6821373924
 40
0.7421251157
 40
0.7988509935
 40
0.8260390242
 40
0.8524795522
 40
0.8782328127
 40
0.9033762279
 40
0.9280063422
 40
0.9522348247
 40
0.9761876822
 40
1.0
 40
1.0
 40
1.0
 40
1.0
 10
6.9883665062
 20
9.0921160963
 30
0.0
 10
6.987174091
 20
9.0912463782
 30
0.0
 10
6.9846377735
 20
9.0896157642
 30
0.0
 10
6.9805357319
 20
9.0875552595
 30
0.0
 10
6.9761314083
 20
9.0858653549
 30
0.0
 10
6.9715084811
 20
9.084578131
 30
0.0
 10
6.9667539778
 20
9.0837176027
 30
0.0
 10
6.9619576744
 20
9.0833000365
 30
0.0
 10
6.9572100344
 20
9.0833333783
 30
0.0
 10
6.9526004846
 20
9.0838172322
 30
0.0
 10
6.9482157332
 20
9.0847428933
 30
0.0
 10
6.9441378708
 20
9.0860939848
 30
0.0
 10
6.9404439962
 20
9.0878461315
 30
0.0
 10
6.9377043283
 20
9.0896415593
 30
0.0
 10
6.9357843274
 20
9.0912495789
 30
0.0
 10
6.9345019012
 20
9.0925155093
 30
0.0
 10
6.9333631061
 20
9.093851851
 30
0.0
 10
6.9323738578
 20
9.0952526574
 30
0.0
 10
6.9315387936
 20
9.0967109594
 30
0.0
 10
6.9308625214
 20
9.0982200169
 30
0.0
 10
6.9303482419
 20
9.0997720677
 30
0.0
 10
6.9301150039
 20
9.1008319914
 30
0.0
 10
6.9300265071
 20
9.1013645885
 30
0.0
  0
SPLINE
  5
338
100
AcDbEntity
  8
0
100
AcDbSpline
 62
7
  6
CONTINUOUS
 70
0
 71
3
 72
15
 73
11
 74
0
 42
0.0000001
 43
0.0000001
 44
0.0000000001
 40
0.0
 40
0.0
 40
0.0
 40
0.0
 40
0.1397640266
 40
0.2739512714
 40
0.4031416485
 40
0.5279962998
 40
0.6492599257
 40
0.7677513973
 40
0.8843540468
 40
1.0
 40
1.0
 40
1.0
 40
1.0
 10
7.6527002884
 20
8.7490923807
 30
0.0
 10
7.6516251129
 20
8.7483839641
 30
0.0
 10
7.6494749797
 20
8.7470585673
 30
0.0
 10
7.646187365
 20
8.7453246305
 30
0.0
 10
7.6429079522
 20
8.7438886927
 30
0.0
 10
7.6396385521
 20
8.7427522221
 30
0.0
 10
7.6363810653
 20
8.741916174
 30
0.0
 10
7.6331373997
 20
8.7413815613
 30
0.0
 10
7.6299101367
 20
8.7411493165
 30
0.0
 10
7.6277673157
 20
8.7411963787
 30
0.0
 10
7.6267044779
 20
8.741270074
 30
0.0
  0
SPLINE
  5
339
100
AcDbEntity
  8
0
100
AcDbSpline
 62
7
  6
CONTINUOUS
 70
0
 71
3
 72
33
 73
29
 74
0
 42
0.0000001
 43
0.0000001
 44
0.0000000001
 40
0.0
 40
0.0
 40
0.0
 40
0.0
 40
0.0155117864
 40
0.0320253862
 40
0.0495876948
 40
0.0682329907
 40
0.0879856968
 40
0.1088617727
 40
0.1308698797
 40
0.1540131205
 40
0.1782888588
 40
0.203690689
 40
0.2302077253
 40
0.2578261401
 40
0.2865287976
 40
0.3162958356
 40
0.3471051455
 40
0.3789319468
 40
0.411749932
 40
0.4455302869
 40
0.4802429493
 40
0.5158558528
 40
0.5896459102
 40
0.6666177566
 40
0.7464678577
 40
0.8288734952
 40
0.9135019987
 40
1.0
 40
1.0
 40
1.0
 40
1.0
 10
7.4714712611
 20
8.811751313
 30
0.0
 10
7.4701748501
 20
8.8131369355
 30
0.0
 10
7.4676090324
 20
8.8161026246
 30
0.0
 10
7.4639516149
 20
8.8209465502
 30
0.0
 10
7.4603723985
 20
8.8263155368
 30
0.0
 10
7.4568750289
 20
8.8322033921
 30
0.0
 10
7.4534630402
 20
8.8386039723
 30
0.0
 10
7.4501400642
 20
8.8455103519
 30
0.0
 10
7.4469095563
 20
8.8529150237
 30
0.0
 10
7.4437752231
 20
8.8608099434
 30
0.0
 10
7.4407403127
 20
8.869186393
 30
0.0
 10
7.4378084168
 20
8.8780351739
 30
0.0
 10
7.4349826309
 20
8.8873464579
 30
0.0
 10
7.4322662508
 20
8.8971099291
 30
0.0
 10
7.4296622762
 20
8.9073147152
 30
0.0
 10
7.4271736212
 20
8.9179494467
 30
0.0
 10
7.4248031764
 20
8.9290022588
 30
0.0
 10
7.4225534813
 20
8.9404608067
 30
0.0
 10
7.4204272341
 20
8.9523122856
 30
0.0
 10
7.4184266793
 20
8.9645434355
 30
0.0
 10
7.4165541847
 20
8.9771405841
 30
0.0
 10
7.414203234
 20
8.9946130398
 30
0.0
 10
7.4116132155
 20
9.0172670671
 30
0.0
 10
7.409080631
 20
9.0453659649
 30
0.0
 10
7.4070997832
 20
9.0745654465
 30
0.0
 10
7.4056796387
 20
9.1047350523
 30
0.0
 10
7.4048269308
 20
9.1357393215
 30
0.0
 10
7.4046410941
 20
9.1566735066
 30
0.0
 10
7.4046410941
 20
9.1672546738
 30
0.0
  0
SPLINE
  5
33A
100
AcDbEntity
  8
0
100
AcDbSpline
 62
7
  6
CONTINUOUS
 70
0
 71
3
 72
20
 73
16
 74
0
 42
0.0000001
 43
0.0000001
 44
0.0000000001
 40
0.0
 40
0.0
 40
0.0
 40
0.0
 40
0.0641668912
 40
0.128265606
 40
0.1923088541
 40
0.2562541438
 40
0.3836292762
 40
0.510116619
 40
0.635364869
 40
0.6974218088
 40
0.7590361672
 40
0.8201537013
 40
0.880689289
 40
0.9406037687
 40
1.0
 40
1.0
 40
1.0
 40
1.0
 10
7.6151132225
 20
8.7420738909
 30
0.0
 10
7.6116254482
 20
8.7423157689
 30
0.0
 10
7.6046644099
 20
8.742973399
 30
0.0
 10
7.5942909427
 20
8.7444784409
 30
0.0
 10
7.5840166459
 20
8.7464959046
 30
0.0
 10
7.5705087933
 20
8.74985061
 30
0.0
 10
7.5540292088
 20
8.7552657911
 30
0.0
 10
7.5350979035
 20
8.7636048482
 30
0.0
 10
7.5201557405
 20
8.7719709058
 30
0.0
 10
7.5088100303
 20
8.7794085852
 30
0.0
 10
7.5006472618
 20
8.7853087909
 30
0.0
 10
7.4928222979
 20
8.7915169741
 30
0.0
 10
7.4853451386
 20
8.7979992885
 30
0.0
 10
7.4782198497
 20
8.804730154
 30
0.0
 10
7.4736822777
 20
8.809388152
 30
0.0
 10
7.4714712611
 20
8.8117513129
 30
0.0
  0
SPLINE
  5
33B
100
AcDbEntity
  8
0
100
AcDbSpline
 62
7
  6
CONTINUOUS
 70
0
 71
3
 72
20
 73
16
 74
0
 42
0.0000001
 43
0.0000001
 44
0.0000000001
 40
0.0
 40
0.0
 40
0.0
 40
0.0
 40
0.059396985
 40
0.1193103853
 40
0.1798457972
 40
0.2409634743
 40
0.3025775819
 40
0.3646342212
 40
0.4898823122
 40
0.6163694986
 40
0.7437448462
 40
0.8076903026
 40
0.8717334889
 40
0.9358325212
 40
1.0
 40
1.0
 40
1.0
 40
1.0
 10
7.538223821
 20
9.7742939689
 30
0.0
 10
7.5407399065
 20
9.7763293322
 30
0.0
 10
7.5458769949
 20
9.7803163862
 30
0.0
 10
7.5538631686
 20
9.7859992366
 30
0.0
 10
7.5621634933
 20
9.7913873453
 30
0.0
 10
7.5707704843
 20
9.7964559744
 30
0.0
 10
7.5796695398
 20
9.8011729211
 30
0.0
 10
7.5919332722
 20
9.8069732679
 30
0.0
 10
7.6078871796
 20
9.8131966797
 30
0.0
 10
7.6277883439
 20
9.8188427069
 30
0.0
 10
7.6448576745
 20
9.8219312834
 30
0.0
 10
7.658699308
 20
9.8233892919
 30
0.0
 10
7.6691537557
 20
9.8239692436
 30
0.0
 10
7.6796357163
 20
9.8240279486
 30
0.0
 10
7.6866209441
 20
9.8237184116
 30
0.0
 10
7.6901087504
 20
9.8234765314
 30
0.0
  0
SPLINE
  5
33C
100
AcDbEntity
  8
0
100
AcDbSpline
 62
7
  6
CONTINUOUS
 70
0
 71
3
 72
31
 73
27
 74
0
 42
0.0000001
 43
0.0000001
 44
0.0000000001
 40
0.0
 40
0.0
 40
0.0
 40
0.0
 40
0.0851758596
 40
0.1685819396
 40
0.249882617
 40
0.3287739147
 40
0.4049543307
 40
0.478140427
 40
0.5480661898
 40
0.6144852165
 40
0.6463097465
 40
0.6771760594
 40
0.7070600224
 40
0.7359400284
 40
0.7637964787
 40
0.7906116225
 40
0.8163710247
 40
0.8410623786
 40
0.8646768129
 40
0.8872093983
 40
0.9086585696
 40
0.929028298
 40
0.9483276806
 40
0.9665721365
 40
0.9837854847
 40
1.0
 40
1.0
 40
1.0
 40
1.0
 10
6.4780524721
 20
9.2822387404
 30
0.0
 10
6.4780524721
 20
9.275898786
 30
0.0
 10
6.4781605396
 20
9.2633503032
 30
0.0
 10
6.4786560026
 20
9.2447562077
 30
0.0
 10
6.4794813436
 20
9.2266419482
 30
0.0
 10
6.4806327927
 20
9.2090843516
 30
0.0
 10
6.4821055051
 20
9.1921568484
 30
0.0
 10
6.4838930526
 20
9.1759307036
 30
0.0
 10
6.4859877533
 20
9.1604741388
 30
0.0
 10
6.4880093582
 20
9.1481190014
 30
0.0
 10
6.4897823407
 20
9.1386734794
 30
0.0
 10
6.4911640411
 20
9.1319224013
 30
0.0
 10
6.4926152555
 20
9.1254102722
 30
0.0
 10
6.4941344227
 20
9.1191439152
 30
0.0
 10
6.4957198893
 20
9.1131298949
 30
0.0
 10
6.4973700915
 20
9.1073745268
 30
0.0
 10
6.4990831581
 20
9.1018838096
 30
0.0
 10
6.5008573567
 20
9.0966634846
 30
0.0
 10
6.5026908456
 20
9.0917189953
 30
0.0
 10
6.5045815983
 20
9.0870554367
 30
0.0
 10
6.5065278035
 20
9.0826776681
 30
0.0
 10
6.5085273581
 20
9.078590148
 30
0.0
 10
6.5105782349
 20
9.0747970559
 30
0.0
 10
6.5126785592
 20
9.0713022425
 30
0.0
 10
6.5148260065
 20
9.0681093256
 30
0.0
 10
6.5163318384
 20
9.0661262317
 30
0.0
 10
6.5170933577
 20
9.0651899029
 30
0.0
  0
SPLINE
  5
33D
100
AcDbEntity
  8
0
100
AcDbSpline
 62
7
  6
CONTINUOUS
 70
0
 71
3
 72
15
 73
11
 74
0
 42
0.0000001
 43
0.0000001
 44
0.0000000001
 40
0.0
 40
0.0
 40
0.0
 40
0.0
 40
0.112340467
 40
0.2286590716
 40
0.3487931891
 40
0.4725600768
 40
0.5997649169
 40
0.7302071597
 40
0.8636858861
 40
1.0
 40
1.0
 40
1.0
 40
1.0
 10
8.0224837302
 20
8.6793522395
 30
0.0
 10
8.0192658009
 20
8.6773346637
 30
0.0
 10
8.0126544401
 20
8.6733256175
 30
0.0
 10
8.0024138012
 20
8.6674762802
 30
0.0
 10
7.9916996748
 20
8.6616838984
 30
0.0
 10
7.9805400014
 20
8.6559479007
 30
0.0
 10
7.9689627197
 20
8.6502672107
 30
0.0
 10
7.9569953961
 20
8.6446404663
 30
0.0
 10
7.9446649821
 20
8.6390659653
 30
0.0
 10
7.9363036986
 20
8.6354198168
 30
0.0
 10
7.9320683681
 20
8.6336028037
 30
0.0
  0
SPLINE
  5
33E
100
AcDbEntity
  8
0
100
AcDbSpline
 62
7
  6
CONTINUOUS
 70
0
 71
3
 72
23
 73
19
 74
0
 42
0.0000001
 43
0.0000001
 44
0.0000000001
 40
0.0
 40
0.0
 40
0.0
 40
0.0
 40
0.0429929641
 40
0.088872658
 40
0.1376921786
 40
0.1894471353
 40
0.2440884462
 40
0.3015292381
 40
0.3616553458
 40
0.4243336802
 40
0.4894189984
 40
0.5567608328
 40
0.626206877
 40
0.6976086497
 40
0.7708208191
 40
0.845708927
 40
0.9221426818
 40
1.0
 40
1.0
 40
1.0
 40
1.0
 10
7.7370778597
 20
9.8211891697
 30
0.0
 10
7.7390034345
 20
9.8229813564
 30
0.0
 10
7.7431216484
 20
9.8265397515
 30
0.0
 10
7.7498295983
 20
9.8316439522
 30
0.0
 10
7.7572461882
 20
9.8366798804
 30
0.0
 10
7.7653462104
 20
9.8416435364
 30
0.0
 10
7.7741009099
 20
9.8465315558
 30
0.0
 10
7.7834776782
 20
9.8513416359
 30
0.0
 10
7.7934415225
 20
9.8560724438
 30
0.0
 10
7.8039562167
 20
9.8607232341
 30
0.0
 10
7.8149850079
 20
9.8652944161
 30
0.0
 10
7.8264916324
 20
9.8697868029
 30
0.0
 10
7.8384408113
 20
9.8742020585
 30
0.0
 10
7.8507987453
 20
9.8785420782
 30
0.0
 10
7.86353353
 20
9.8828094451
 30
0.0
 10
7.8766152663
 20
9.8870066328
 30
0.0
 10
7.8900159708
 20
9.8911367047
 30
0.0
 10
7.8990660848
 20
9.8938236129
 30
0.0
 10
7.9036390199
 20
9.8951583301
 30
0.0
  0
SPLINE
  5
33F
100
AcDbEntity
  8
0
100
AcDbSpline
 62
7
  6
CONTINUOUS
 70
0
 71
3
 72
15
 73
11
 74
0
 42
0.0000001
 43
0.0000001
 44
0.0000000001
 40
0.0
 40
0.0
 40
0.0
 40
0.0
 40
0.1156605312
 40
0.2322764131
 40
0.3507776051
 40
0.4720461502
 40
0.5969010795
 40
0.7260846556
 40
0.8602571116
 40
1.0
 40
1.0
 40
1.0
 40
1.0
 10
7.7016997162
 20
9.8226726558
 30
0.0
 10
7.7027616002
 20
9.8225990266
 30
0.0
 10
7.7048884939
 20
9.8223502229
 30
0.0
 10
7.7080499666
 20
9.8216756654
 30
0.0
 10
7.711186022
 20
9.8207000464
 30
0.0
 10
7.7142942405
 20
9.8194245303
 30
0.0
 10
7.7173727897
 20
9.8178502238
 30
0.0
 10
7.7204200182
 20
9.8159785425
 30
0.0
 10
7.7234343421
 20
9.8138111476
 30
0.0
 10
7.7253793843
 20
9.812204337
 30
0.0
 10
7.7263457118
 20
9.8113557055
 30
0.0
  0
SPLINE
  5
340
100
AcDbEntity
  8
0
100
AcDbSpline
 62
7
  6
CONTINUOUS
 70
0
 71
3
 72
40
 73
36
 74
0
 42
0.0000001
 43
0.0000001
 44
0.0000000001
 40
0.0
 40
0.0
 40
0.0
 40
0.0
 40
0.0964129268
 40
0.1901875577
 40
0.2359075381
 40
0.2807581595
 40
0.3246716912
 40
0.367583807
 40
0.409432091
 40
0.4501569464
 40
0.4897007458
 40
0.5280093578
 40
0.5650311642
 40
0.6007186047
 40
0.6350272582
 40
0.6679174179
 40
0.6993533631
 40
0.7293051122
 40
0.757747981
 40
0.7846644902
 40
0.8100444611
 40
0.8338873585
 40
0.8562032824
 40
0.8770161405
 40
0.8963661374
 40
0.9143143977
 40
0.9309476498
 40
0.9463847288
 40
0.9607828258
 40
0.9676572904
 40
0.9743513325
 40
0.980897048
 40
0.9873290165
 40
0.9936839527
 40
1.0
 40
1.0
 40
1.0
 40
1.0
 10
6.9797419781
 20
9.2308336198
 30
0.0
 10
6.9797419781
 20
9.2213162774
 30
0.0
 10
6.9799436251
 20
9.2025413607
 30
0.0
 10
6.9807240382
 20
9.1792646911
 30
0.0
 10
6.9816676348
 20
9.1610912351
 30
0.0
 10
6.9825230746
 20
9.1478429299
 30
0.0
 10
6.9835308841
 20
9.1348833292
 30
0.0
 10
6.9846892532
 20
9.1222338716
 30
0.0
 10
6.9859963841
 20
9.1099153794
 30
0.0
 10
6.9874499565
 20
9.0979481477
 30
0.0
 10
6.9890476961
 20
9.086351885
 30
0.0
 10
6.9907867934
 20
9.0751457053
 30
0.0
 10
6.9926644937
 20
9.0643480468
 30
0.0
 10
6.9946775256
 20
9.0539766712
 30
0.0
 10
6.9968226786
 20
9.0440486127
 30
0.0
 10
6.9990962405
 20
9.0345801591
 30
0.0
 10
7.001494569
 20
9.0255868224
 30
0.0
 10
7.0040135493
 20
9.0170832853
 30
0.0
 10
7.0066491474
 20
9.0090834006
 30
0.0
 10
7.0093969032
 20
9.0016001108
 30
0.0
 10
7.0122524628
 20
8.9946454829
 30
0.0
 10
7.0152111271
 20
8.9882305899
 30
0.0
 10
7.018268368
 20
8.9823655836
 30
0.0
 10
7.021419471
 20
8.9770595656
 30
0.0
 10
7.0246600617
 20
8.9723207256
 30
0.0
 10
7.0279858013
 20
8.9681563294
 30
0.0
 10
7.0313931528
 20
8.9645729285
 30
0.0
 10
7.0348781295
 20
8.9615771317
 30
0.0
 10
7.0378910909
 20
8.9595447893
 30
0.0
 10
7.0403260043
 20
8.9582396377
 30
0.0
 10
7.0421393105
 20
8.957426362
 30
0.0
 10
7.0439668131
 20
8.9567643381
 30
0.0
 10
7.0458078001
 20
8.9562540737
 30
0.0
 10
7.0476611664
 20
8.9558958787
 30
0.0
 10
7.0489060383
 20
8.9557584391
 30
0.0
 10
7.0495280292
 20
8.9557153058
 30
0.0
  0
SPLINE
  5
341
100
AcDbEntity
  8
0
100
AcDbSpline
 62
7
  6
CONTINUOUS
 70
0
 71
3
 72
16
 73
12
 74
0
 42
0.0000001
 43
0.0000001
 44
0.0000000001
 40
0.0
 40
0.0
 40
0.0
 40
0.0
 40
0.1481259
 40
0.2877937245
 40
0.4197149397
 40
0.4830537751
 40
0.5447978741
 40
0.6640234634
 40
0.778669214
 40
0.8901453876
 40
1.0
 40
1.0
 40
1.0
 40
1.0
 10
7.0491575285
 20
9.6818124862
 30
0.0
 10
7.0483148173
 20
9.6828121587
 30
0.0
 10
7.0466155
 20
9.6847036115
 30
0.0
 10
7.043942076
 20
9.6872733235
 30
0.0
 10
7.0416462971
 20
9.689142584
 30
0.0
 10
7.0397906291
 20
9.69044887
 30
0.0
 10
7.0379685013
 20
9.6916035067
 30
0.0
 10
7.0356605076
 20
9.6928320914
 30
0.0
 10
7.0328205362
 20
9.6939583446
 30
0.0
 10
7.0299461046
 20
9.6947164121
 30
0.0
 10
7.0280035639
 20
9.6949757365
 30
0.0
 10
7.0270362198
 20
9.695042819
 30
0.0
  0
SPLINE
  5
342
100
AcDbEntity
  8
0
100
AcDbSpline
 62
7
  6
CONTINUOUS
 70
0
 71
3
 72
38
 73
34
 74
0
 42
0.0000001
 43
0.0000001
 44
0.0000000001
 40
0.0
 40
0.0
 40
0.0
 40
0.0
 40
0.0070628734
 40
0.0144558443
 40
0.0221882698
 40
0.0302673168
 40
0.0386985021
 40
0.0474860692
 40
0.0566328489
 40
0.0661403586
 40
0.0862381947
 40
0.1077761114
 40
0.1307373216
 40
0.1550949914
 40
0.1808146068
 40
0.2078540584
 40
0.2361655149
 40
0.265695594
 40
0.296385985
 40
0.3281742892
 40
0.3609938203
 40
0.3947747798
 40
0.4294439062
 40
0.464925207
 40
0.5011401034
 40
0.5380076885
 40
0.5754452995
 40
0.6133682724
 40
0.6903238676
 40
0.7681757766
 40
0.8462136499
 40
0.9237231208
 40
1.0
 40
1.0
 40
1.0
 40
1.0
 10
6.557999348
 20
9.6550215865
 30
0.0
 10
6.5573323599
 20
9.6544008394
 30
0.0
 10
6.5559990738
 20
9.6530957539
 30
0.0
 10
6.5540449946
 20
9.6510029754
 30
0.0
 10
6.5520930732
 20
9.6487323316
 30
0.0
 10
6.5501444452
 20
9.6462853006
 30
0.0
 10
6.5482002043
 20
9.6436633385
 30
0.0
 10
6.5462615556
 20
9.6408679657
 30
0.0
 10
6.5443296252
 20
9.6379008509
 30
0.0
 10
6.5417156398
 20
9.6336388405
 30
0.0
 10
6.538481676
 20
9.6278849213
 30
0.0
 10
6.5347145933
 20
9.6204491879
 30
0.0
 10
6.5310017024
 20
9.6123773383
 30
0.0
 10
6.5273518882
 20
9.6036888519
 30
0.0
 10
6.5237741972
 20
9.594404471
 30
0.0
 10
6.5202772451
 20
9.5845466193
 30
0.0
 10
6.5168696795
 20
9.5741391061
 30
0.0
 10
6.5135598379
 20
9.5632071462
 30
0.0
 10
6.5103557785
 20
9.5517772696
 30
0.0
 10
6.5072654598
 20
9.5398772339
 30
0.0
 10
6.5042963329
 20
9.5275359853
 30
0.0
 10
6.501455779
 20
9.5147835362
 30
0.0
 10
6.498750685
 20
9.5016509234
 30
0.0
 10
6.4961876878
 20
9.4881701255
 30
0.0
 10
6.4937730991
 20
9.4743739693
 30
0.0
 10
6.49151275
 20
9.4602960686
 30
0.0
 10
6.4894122458
 20
9.4459706849
 30
0.0
 10
6.4868189637
 20
9.4264923832
 30
0.0
 10
6.4840173587
 20
9.4017843838
 30
0.0
 10
6.4813783723
 20
9.3718591044
 30
0.0
 10
6.4794721843
 20
9.3418064736
 30
0.0
 10
6.4783171905
 20
9.3119191414
 30
0.0
 10
6.4780524721
 20
9.2920789171
 30
0.0
 10
6.4780524721
 20
9.2822387404
 30
0.0
  0
SPLINE
  5
343
100
AcDbEntity
  8
0
100
AcDbSpline
 62
7
  6
CONTINUOUS
 70
0
 71
3
 72
17
 73
13
 74
0
 42
0.0000001
 43
0.0000001
 44
0.0000000001
 40
0.0
 40
0.0
 40
0.0
 40
0.0
 40
0.1492534681
 40
0.2896738913
 40
0.4219798859
 40
0.485379681
 40
0.5471013749
 40
0.6660503563
 40
0.7801593846
 40
0.8909110823
 40
0.9455639134
 40
1.0
 40
1.0
 40
1.0
 40
1.0
 10
6.5688443692
 20
9.0015593544
 30
0.0
 10
6.5697107616
 20
9.0004940574
 30
0.0
 10
6.5714582489
 20
8.9984786312
 30
0.0
 10
6.5742129011
 20
8.9957378573
 30
0.0
 10
6.576581932
 20
8.9937433255
 30
0.0
 10
6.5784981178
 20
8.9923499881
 30
0.0
 10
6.5803778407
 20
8.991120365
 30
0.0
 10
6.5827601823
 20
8.9898123694
 30
0.0
 10
6.5856951488
 20
8.9886139765
 30
0.0
 10
6.5881847875
 20
8.9879404999
 30
0.0
 10
6.5901802956
 20
8.9876041042
 30
0.0
 10
6.5911795767
 20
8.9875018781
 30
0.0
 10
6.5916791892
 20
8.9874672318
 30
0.0
  0
SPLINE
  5
344
100
AcDbEntity
  8
0
100
AcDbSpline
 62
7
  6
CONTINUOUS
 70
0
 71
3
 72
23
 73
19
 74
0
 42
0.0000001
 43
0.0000001
 44
0.0000000001
 40
0.0
 40
0.0
 40
0.0
 40
0.0
 40
0.0473017264
 40
0.0950696643
 40
0.1437549559
 40
0.1937816699
 40
0.2455383291
 40
0.2993705456
 40
0.3555806
 40
0.414429633
 40
0.4761374729
 40
0.540887321
 40
0.60883206
 40
0.6800953384
 40
0.7547747862
 40
0.8329486687
 40
0.9146766559
 40
1.0
 40
1.0
 40
1.0
 40
1.0
 10
6.9761176621
 20
8.960806332
 30
0.0
 10
6.9769057422
 20
8.9607516809
 30
0.0
 10
6.9784965445
 20
8.9607237051
 30
0.0
 10
6.9808925978
 20
8.96092738
 30
0.0
 10
6.9833014259
 20
8.9613758535
 30
0.0
 10
6.98572073
 20
8.9620683441
 30
0.0
 10
6.9881487808
 20
8.9630039824
 30
0.0
 10
6.9905840208
 20
8.96418149
 30
0.0
 10
6.9930250443
 20
8.9655996593
 30
0.0
 10
6.9954703904
 20
8.9672574039
 30
0.0
 10
6.997918724
 20
8.9691533788
 30
0.0
 10
7.0003687091
 20
8.9712861836
 30
0.0
 10
7.0028188558
 20
8.9736544726
 30
0.0
 10
7.0052677095
 20
8.9762566785
 30
0.0
 10
7.0077138542
 20
8.9790910371
 30
0.0
 10
7.0101557309
 20
8.9821557842
 30
0.0
 10
7.0125917368
 20
8.9854489289
 30
0.0
 10
7.014176623
 20
8.9877455698
 30
0.0
 10
7.0149685447
 20
8.9889302107
 30
0.0
  0
SPLINE
  5
345
100
AcDbEntity
  8
0
100
AcDbSpline
 62
7
  6
CONTINUOUS
 70
0
 71
3
 72
46
 73
42
 74
0
 42
0.0000001
 43
0.0000001
 44
0.0000000001
 40
0.0
 40
0.0
 40
0.0
 40
0.0
 40
0.0383866591
 40
0.0771841782
 40
0.11629384
 40
0.1556261246
 40
0.1950873436
 40
0.2345830467
 40
0.2740194299
 40
0.3133026372
 40
0.3523392411
 40
0.3910365941
 40
0.4293031136
 40
0.4670484957
 40
0.5041840436
 40
0.5406230451
 40
0.5762809073
 40
0.6110755798
 40
0.644927948
 40
0.6777619382
 40
0.7095050867
 40
0.7400889597
 40
0.769449314
 40
0.7975268974
 40
0.8242679896
 40
0.849624812
 40
0.8735567842
 40
0.8849784977
 40
0.8960325703
 40
0.906716405
 40
0.9170283046
 40
0.9269671681
 40
0.9365327807
 40
0.9457261065
 40
0.9545490288
 40
0.9630046772
 40
0.9710978188
 40
0.9788346768
 40
0.9862233231
 40
0.9932741848
 40
1.0
 40
1.0
 40
1.0
 40
1.0
 10
7.4046410941
 20
9.1672546738
 30
0.0
 10
7.4046410941
 20
9.1753413401
 30
0.0
 10
7.4047515167
 20
9.1916014226
 30
0.0
 10
7.4052405291
 20
9.2160960622
 30
0.0
 10
7.4060529088
 20
9.2407814582
 30
0.0
 10
7.4071865136
 20
9.2655941291
 30
0.0
 10
7.4086384493
 20
9.2904716697
 30
0.0
 10
7.4104050757
 20
9.3153508278
 30
0.0
 10
7.4124819258
 20
9.3401683835
 30
0.0
 10
7.4148636667
 20
9.3648613815
 30
0.0
 10
7.4175442682
 20
9.3893671292
 30
0.0
 10
7.4205169447
 20
9.4136234148
 30
0.0
 10
7.4237740684
 20
9.4375686791
 30
0.0
 10
7.4273073778
 20
9.461142142
 30
0.0
 10
7.4311079022
 20
9.4842839765
 30
0.0
 10
7.4351658946
 20
9.5069354697
 30
0.0
 10
7.439471052
 20
9.5290391466
 30
0.0
 10
7.4440124174
 20
9.5505389408
 30
0.0
 10
7.4487783426
 20
9.5713803466
 30
0.0
 10
7.4537567172
 20
9.5915105269
 30
0.0
 10
7.4589348437
 20
9.6108784849
 30
0.0
 10
7.4642994348
 20
9.6294352042
 30
0.0
 10
7.4698368527
 20
9.6471337442
 30
0.0
 10
7.4755329536
 20
9.6639293911
 30
0.0
 10
7.4813731301
 20
9.679779889
 30
0.0
 10
7.4873425625
 20
9.6946451675
 30
0.0
 10
7.4924890804
 20
9.7063565281
 30
0.0
 10
7.4966688027
 20
9.7151949858
 30
0.0
 10
7.4997775729
 20
9.721451164
 30
0.0
 10
7.5029072755
 20
9.7274342817
 30
0.0
 10
7.5060558755
 20
9.7331406284
 30
0.0
 10
7.5092214225
 20
9.7385665983
 30
0.0
 10
7.512401983
 20
9.7437087568
 30
0.0
 10
7.5155954732
 20
9.7485639468
 30
0.0
 10
7.518799944
 20
9.7531291192
 30
0.0
 10
7.5220134812
 20
9.7574013823
 30
0.0
 10
7.5252340246
 20
9.7613781637
 30
0.0
 10
7.5284596509
 20
9.7650569703
 30
0.0
 10
7.5316885628
 20
9.7684354836
 30
0.0
 10
7.5349186178
 20
9.7715115667
 30
0.0
 10
7.5371222383
 20
9.7734028589
 30
0.0
 10
7.538223821
 20
9.7742939674
 30
0.0
  0
SPLINE
  5
346
100
AcDbEntity
  8
0
100
AcDbSpline
 62
7
  6
CONTINUOUS
 70
0
 71
3
 72
17
 73
13
 74
0
 42
0.0000001
 43
0.0000001
 44
0.0000000001
 40
0.0
 40
0.0
 40
0.0
 40
0.0
 40
0.054436005
 40
0.1090889329
 40
0.2198414831
 40
0.3339502582
 40
0.4529007097
 40
0.5146230436
 40
0.5780223829
 40
0.7103276364
 40
0.8507493186
 40
1.0
 40
1.0
 40
1.0
 40
1.0
 10
6.6425976895
 20
9.7217037205
 30
0.0
 10
6.6420981033
 20
9.721738365
 30
0.0
 10
6.6410943278
 20
9.7217750495
 30
0.0
 10
6.6390715829
 20
9.7217172275
 30
0.0
 10
6.6365129702
 20
9.7213936778
 30
0.0
 10
6.6334407911
 20
9.7206120339
 30
0.0
 10
6.6309008626
 20
9.7196453155
 30
0.0
 10
6.628869518
 20
9.7186869256
 30
0.0
 10
6.6267794341
 20
9.7175715316
 30
0.0
 10
6.6241578749
 20
9.7159232161
 30
0.0
 10
6.6210515191
 20
9.7135889531
 30
0.0
 10
6.619042605
 20
9.7118342165
 30
0.0
 10
6.6180375108
 20
9.7108987937
 30
0.0
  0
SPLINE
  5
347
100
AcDbEntity
  8
0
100
AcDbSpline
 62
7
  6
CONTINUOUS
 70
0
 71
3
 72
22
 73
18
 74
0
 42
0.0000001
 43
0.0000001
 44
0.0000000001
 40
0.0
 40
0.0
 40
0.0
 40
0.0
 40
0.0548858172
 40
0.1097488021
 40
0.1649256493
 40
0.2207059786
 40
0.2772822892
 40
0.3348025487
 40
0.3934205792
 40
0.453352251
 40
0.5147936066
 40
0.5779141079
 40
0.7098057973
 40
0.7788920477
 40
0.8502189863
 40
0.9238913151
 40
1.0
 40
1.0
 40
1.0
 40
1.0
 10
8.371739344
 20
8.4841093133
 30
0.0
 10
8.3701643135
 20
8.484218542
 30
0.0
 10
8.3670225108
 20
8.4845699925
 30
0.0
 10
8.3623635172
 20
8.4854921
 30
0.0
 10
8.3577713231
 20
8.4868014081
 30
0.0
 10
8.3532522257
 20
8.4884892927
 30
0.0
 10
8.3488133131
 20
8.490543152
 30
0.0
 10
8.3444629573
 20
8.4929510989
 30
0.0
 10
8.3402067109
 20
8.4957030849
 30
0.0
 10
8.336044925
 20
8.4987885333
 30
0.0
 10
8.3319746867
 20
8.5021987072
 30
0.0
 10
8.3265864566
 20
8.50724161
 30
0.0
 10
8.3214494353
 20
8.5128568451
 30
0.0
 10
8.316542809
 20
8.5189642284
 30
0.0
 10
8.3128811638
 20
8.5239178442
 30
0.0
 10
8.3092931003
 20
8.5291708994
 30
0.0
 10
8.3069865308
 20
8.5328111071
 30
0.0
 10
8.3058439076
 20
8.5346785755
 30
0.0
  0
SPLINE
  5
348
100
AcDbEntity
  8
0
100
AcDbSpline
 62
7
  6
CONTINUOUS
 70
0
 71
3
 72
33
 73
29
 74
0
 42
0.0000001
 43
0.0000001
 44
0.0000000001
 40
0.0
 40
0.0
 40
0.0
 40
0.0
 40
0.0185061442
 40
0.0378712679
 40
0.0581178897
 40
0.0792614085
 40
0.1013126851
 40
0.1242775166
 40
0.1481575702
 40
0.1729513401
 40
0.1986535097
 40
0.2252566862
 40
0.2527502792
 40
0.2811219549
 40
0.3103570532
 40
0.3404390942
 40
0.3713500833
 40
0.4030701118
 40
0.435578286
 40
0.4688519053
 40
0.502867446
 40
0.5375999524
 40
0.6091103005
 40
0.6831650298
 40
0.7595316534
 40
0.8379640864
 40
0.9182095027
 40
1.0
 40
1.0
 40
1.0
 40
1.0
 10
8.3058439076
 20
8.5346785755
 30
0.0
 10
8.3041638824
 20
8.5374243572
 30
0.0
 10
8.3008551839
 20
8.543123288
 30
0.0
 10
8.2961384138
 20
8.5520671594
 30
0.0
 10
8.2915547656
 20
8.5615916397
 30
0.0
 10
8.287103696
 20
8.5716912127
 30
0.0
 10
8.2827850042
 20
8.5823597327
 30
0.0
 10
8.2785992686
 20
8.5935903435
 30
0.0
 10
8.2745477427
 20
8.6053755148
 30
0.0
 10
8.2706319193
 20
8.617706849
 30
0.0
 10
8.2668536541
 20
8.6305753363
 30
0.0
 10
8.2632150381
 20
8.643971154
 30
0.0
 10
8.2597181782
 20
8.6578838683
 30
0.0
 10
8.2563654138
 20
8.6723023507
 30
0.0
 10
8.25315899
 20
8.6872148658
 30
0.0
 10
8.2501012152
 20
8.7026090892
 30
0.0
 10
8.2471944021
 20
8.7184721119
 30
0.0
 10
8.2444406901
 20
8.7347905133
 30
0.0
 10
8.2418423495
 20
8.7515503289
 30
0.0
 10
8.2394013359
 20
8.7687371288
 30
0.0
 10
8.2371197155
 20
8.7863360157
 30
0.0
 10
8.2342648536
 20
8.8105655358
 30
0.0
 10
8.2311216198
 20
8.8417714338
 30
0.0
 10
8.2280476918
 20
8.8802543353
 30
0.0
 10
8.2256469152
 20
8.9199912726
 30
0.0
 10
8.2239275116
 20
8.9608411259
 30
0.0
 10
8.2228956622
 20
9.0026576077
 30
0.0
 10
8.2226703627
 20
9.0308428644
 30
0.0
 10
8.2226703627
 20
9.0450695766
 30
0.0
  0
SPLINE
  5
349
100
AcDbEntity
  8
0
100
AcDbSpline
 62
7
  6
CONTINUOUS
 70
0
 71
3
 72
15
 73
11
 74
0
 42
0.0000001
 43
0.0000001
 44
0.0000000001
 40
0.0
 40
0.0
 40
0.0
 40
0.0
 40
0.1368081588
 40
0.2689041428
 40
0.3969135606
 40
0.5215773185
 40
0.643541867
 40
0.763347969
 40
0.8817849604
 40
1.0
 40
1.0
 40
1.0
 40
1.0
 10
8.3268392331
 20
8.5072955738
 30
0.0
 10
8.3249675756
 20
8.5058528569
 30
0.0
 10
8.321197866
 20
8.5031320575
 30
0.0
 10
8.3153636439
 20
8.4995193925
 30
0.0
 10
8.3094499895
 20
8.4964693887
 30
0.0
 10
8.3034570452
 20
8.4940047886
 30
0.0
 10
8.2973963487
 20
8.4921463136
 30
0.0
 10
8.2912859081
 20
8.4909162132
 30
0.0
 10
8.2851445313
 20
8.4903388157
 30
0.0
 10
8.2810475592
 20
8.49039881
 30
0.0
 10
8.2790104592
 20
8.4905400833
 30
0.0
  0
SPLINE
  5
34A
100
AcDbEntity
  8
0
100
AcDbSpline
 62
7
  6
CONTINUOUS
 70
0
 71
3
 72
45
 73
41
 74
0
 42
0.0000001
 43
0.0000001
 44
0.0000000001
 40
0.0
 40
0.0
 40
0.0
 40
0.0
 40
0.0368318584
 40
0.0740336054
 40
0.1115243569
 40
0.1492298135
 40
0.1870720809
 40
0.2249730193
 40
0.2628547552
 40
0.3006392439
 40
0.3382487568
 40
0.3756060613
 40
0.4126346106
 40
0.4492588278
 40
0.4854042618
 40
0.5209978224
 40
0.5559681024
 40
0.5902455184
 40
0.6237625499
 40
0.6564541471
 40
0.688257892
 40
0.7191142524
 40
0.748967113
 40
0.7777640457
 40
0.8054566325
 40
0.8320012054
 40
0.8573594087
 40
0.881498754
 40
0.8931034875
 40
0.9043945863
 40
0.9153702875
 40
0.9260291816
 40
0.9363706749
 40
0.9463950233
 40
0.9561029998
 40
0.9654964681
 40
0.9745784124
 40
0.9833526007
 40
0.991824228
 40
1.0
 40
1.0
 40
1.0
 40
1.0
 10
8.2226703627
 20
9.0450695766
 30
0.0
 10
8.2226703627
 20
9.0563346049
 30
0.0
 10
8.2228137816
 20
9.0789780319
 30
0.0
 10
8.2234497027
 20
9.1130826428
 30
0.0
 10
8.224506408
 20
9.1474441651
 30
0.0
 10
8.2259814484
 20
9.1819863256
 30
0.0
 10
8.2278716053
 20
9.2166338976
 30
0.0
 10
8.2301727118
 20
9.2513106336
 30
0.0
 10
8.2328797306
 20
9.2859403218
 30
0.0
 10
8.2359867182
 20
9.320446932
 30
0.0
 10
8.2394868262
 20
9.354754671
 30
0.0
 10
8.2433724137
 20
9.3887882133
 30
0.0
 10
8.247634984
 20
9.4224728858
 30
0.0
 10
8.2522651761
 20
9.455734841
 30
0.0
 10
8.2572529036
 20
9.4885012206
 30
0.0
 10
8.2625873302
 20
9.5207003453
 30
0.0
 10
8.2682568203
 20
9.5522619048
 30
0.0
 10
8.2742491037
 20
9.5831171064
 30
0.0
 10
8.2805512998
 20
9.6131988604
 30
0.0
 10
8.2871498423
 20
9.642441986
 30
0.0
 10
8.2940306622
 20
9.6707833566
 30
0.0
 10
8.301179268
 20
9.6981620786
 30
0.0
 10
8.3085806834
 20
9.7245197204
 30
0.0
 10
8.3162196477
 20
9.7498004767
 30
0.0
 10
8.3240807802
 20
9.7739513215
 30
0.0
 10
8.3321485949
 20
9.7969223721
 30
0.0
 10
8.3404077609
 20
9.8186667467
 30
0.0
 10
8.3475278609
 20
9.8359486096
 30
0.0
 10
8.3533191813
 20
9.8491176966
 30
0.0
 10
8.3576446568
 20
9.8585316376
 30
0.0
 10
8.3620076073
 20
9.8676083603
 30
0.0
 10
8.3664065928
 20
9.8763437325
 30
0.0
 10
8.3708403067
 20
9.8847338512
 30
0.0
 10
8.375307617
 20
9.8927750606
 30
0.0
 10
8.3798075043
 20
9.9004640099
 30
0.0
 10
8.3843393216
 20
9.9077975333
 30
0.0
 10
8.3889027472
 20
9.9147726383
 30
0.0
 10
8.3934975646
 20
9.9213867404
 30
0.0
 10
8.3981241319
 20
9.9276370969
 30
0.0
 10
8.4012857005
 20
9.9316296967
 30
0.0
 10
8.4028729738
 20
9.9335618892
 30
0.0
  0
SPLINE
  5
34B
100
AcDbEntity
  8
0
100
AcDbSpline
 62
7
  6
CONTINUOUS
 70
0
 71
3
 72
11
 73
7
 74
0
 42
0.0000001
 43
0.0000001
 44
0.0000000001
 40
0.0
 40
0.0
 40
0.0
 40
0.0
 40
0.263432132
 40
0.5176411718
 40
0.7630138385
 40
1.0
 40
1.0
 40
1.0
 40
1.0
 10
8.4028729738
 20
9.9335618892
 30
0.0
 10
8.4043930568
 20
9.9354122906
 30
0.0
 10
8.4074427754
 20
9.93899741
 30
0.0
 10
8.4121358888
 20
9.9441071372
 30
0.0
 10
8.4168671359
 20
9.9488478379
 30
0.0
 10
8.4201027839
 20
9.9518100075
 30
0.0
 10
8.4217276222
 20
9.9532245502
 30
0.0
  0
SPLINE
  5
34C
100
AcDbEntity
  8
0
100
AcDbSpline
 62
7
  6
CONTINUOUS
 70
0
 71
3
 72
17
 73
13
 74
0
 42
0.0000001
 43
0.0000001
 44
0.0000000001
 40
0.0
 40
0.0
 40
0.0
 40
0.0
 40
0.1395599815
 40
0.2733533535
 40
0.4021173864
 40
0.5266700223
 40
0.647921105
 40
0.7665546272
 40
0.8251612235
 40
0.8834801107
 40
0.9416956943
 40
1.0
 40
1.0
 40
1.0
 40
1.0
 10
8.4217276222
 20
9.9532245502
 30
0.0
 10
8.423797513
 20
9.9550265441
 30
0.0
 10
8.4279659368
 20
9.9584283585
 30
0.0
 10
8.4344472167
 20
9.9629715062
 30
0.0
 10
8.4410237972
 20
9.9668238141
 30
0.0
 10
8.4477026094
 20
9.9699567508
 30
0.0
 10
8.4544752696
 20
9.9723380484
 30
0.0
 10
8.4602039957
 20
9.9736778432
 30
0.0
 10
8.4647916095
 20
9.9743349909
 30
0.0
 10
8.4682260135
 20
9.9746202729
 30
0.0
 10
8.4716652641
 20
9.9746974704
 30
0.0
 10
8.4739565594
 20
9.974608879
 30
0.0
 10
8.475100339
 20
9.9745295576
 30
0.0
  0
SPLINE
  5
34D
100
AcDbEntity
  8
0
100
AcDbSpline
 62
7
  6
CONTINUOUS
 70
0
 71
3
 72
15
 73
11
 74
0
 42
0.0000001
 43
0.0000001
 44
0.0000000001
 40
0.0
 40
0.0
 40
0.0
 40
0.0
 40
0.1182193208
 40
0.2366546238
 40
0.3564573029
 40
0.4784210233
 40
0.603087189
 40
0.7310966235
 40
0.8631922752
 40
1.0
 40
1.0
 40
1.0
 40
1.0
 10
8.3823714542
 20
9.9809603276
 30
0.0
 10
8.3844085813
 20
9.9808190524
 30
0.0
 10
8.3884745682
 20
9.9803129609
 30
0.0
 10
8.3944773024
 20
9.9788933977
 30
0.0
 10
8.4003592192
 20
9.9768316913
 30
0.0
 10
8.406105195
 20
9.9741544807
 30
0.0
 10
8.4117005233
 20
9.9708864032
 30
0.0
 10
8.4171365337
 20
9.9670494625
 30
0.0
 10
8.4224160993
 20
9.9626661574
 30
0.0
 10
8.4257740908
 20
9.9594511576
 30
0.0
 10
8.4274286626
 20
9.9577639602
 30
0.0
  0
SPLINE
  5
34E
100
AcDbEntity
  8
0
100
AcDbSpline
 62
7
  6
CONTINUOUS
 70
0
 71
3
 72
20
 73
16
 74
0
 42
0.0000001
 43
0.0000001
 44
0.0000000001
 40
0.0
 40
0.0
 40
0.0
 40
0.0
 40
0.1492275433
 40
0.2205100647
 40
0.2896677357
 40
0.4219572415
 40
0.4853467666
 40
0.5470587948
 40
0.6659901967
 40
0.7235776849
 40
0.7801340432
 40
0.8358499941
 40
0.8909261908
 40
0.9455714986
 40
1.0
 40
1.0
 40
1.0
 40
1.0
 10
8.2339911808
 20
9.965859867
 30
0.0
 10
8.2360314388
 20
9.9677586972
 30
0.0
 10
8.2391365445
 20
9.9704709964
 30
0.0
 10
8.2434050118
 20
9.9737970542
 30
0.0
 10
8.247543363
 20
9.97676867
 30
0.0
 10
8.2517373217
 20
9.9794055623
 30
0.0
 10
8.2559800691
 20
9.981669728
 30
0.0
 10
8.2601033765
 20
9.9836150733
 30
0.0
 10
8.2642718922
 20
9.9852012361
 30
0.0
 10
8.2684612085
 20
9.9863919073
 30
0.0
 10
8.2715609156
 20
9.9870770193
 30
0.0
 10
8.274650496
 20
9.9875631761
 30
0.0
 10
8.2777291897
 20
9.9878501186
 30
0.0
 10
8.2807958354
 20
9.9879377887
 30
0.0
 10
8.2828333775
 20
9.9878632848
 30
0.0
 10
8.2838475129
 20
9.9877929532
 30
0.0
  0
SPLINE
  5
34F
100
AcDbEntity
  8
0
100
AcDbSpline
 62
7
  6
CONTINUOUS
 70
0
 71
3
 72
74
 73
70
 74
0
 42
0.0000001
 43
0.0000001
 44
0.0000000001
 40
0.0
 40
0.0
 40
0.0
 40
0.0
 40
0.0036899096
 40
0.0075220209
 40
0.0114998257
 40
0.0156262658
 40
0.0199036729
 40
0.0243338842
 40
0.02891837
 40
0.0336582359
 40
0.0385541481
 40
0.0436064896
 40
0.0541803327
 40
0.0653782114
 40
0.0771946577
 40
0.0896210208
 40
0.1026462999
 40
0.1162570262
 40
0.1304379332
 40
0.1451717775
 40
0.1604398334
 40
0.17622184
 40
0.1924962141
 40
0.2092401661
 40
0.2264297026
 40
0.2440399011
 40
0.2620447702
 40
0.280417587
 40
0.2991306741
 40
0.3181557587
 40
0.337463829
 40
0.376809645
 40
0.4169263938
 40
0.4575655206
 40
0.4984742927
 40
0.5393978381
 40
0.580081186
 40
0.6202712271
 40
0.6401034857
 40
0.659719437
 40
0.6790888365
 40
0.6981820515
 40
0.7169699187
 40
0.7354240107
 40
0.7535164928
 40
0.7712204168
 40
0.7885096149
 40
0.8053589003
 40
0.8217440901
 40
0.8376420565
 40
0.8530309809
 40
0.8678902307
 40
0.8822007716
 40
0.895944944
 40
0.9091070588
 40
0.9216731694
 40
0.9336316905
 40
0.9449734087
 40
0.9556920872
 40
0.9608169644
 40
0.9657853007
 40
0.9705973012
 40
0.9752535308
 40
0.9797550075
 40
0.9841030671
 40
0.9882993862
 40
0.9923459663
 40
0.9962452039
 40
1.0
 40
1.0
 40
1.0
 40
1.0
 10
8.0506664187
 20
8.6286068952
 30
0.0
 10
8.0496666226
 20
8.6298361989
 30
0.0
 10
8.0476803345
 20
8.632384718
 30
0.0
 10
8.0447930998
 20
8.6363923347
 30
0.0
 10
8.0419436978
 20
8.640654345
 30
0.0
 10
8.0391334023
 20
8.6451689871
 30
0.0
 10
8.0363632693
 20
8.6499344052
 30
0.0
 10
8.0336343824
 20
8.6549486058
 30
0.0
 10
8.0309478699
 20
8.6602095692
 30
0.0
 10
8.0283048955
 20
8.6657151725
 30
0.0
 10
8.0257064407
 20
8.6714631177
 30
0.0
 10
8.0222501158
 20
8.6795704025
 30
0.0
 10
8.0180603002
 20
8.6903037153
 30
0.0
 10
8.0133001561
 20
8.7039220327
 30
0.0
 10
8.0087423631
 20
8.7184451945
 30
0.0
 10
8.0043942551
 20
8.7338491928
 30
0.0
 10
8.0002633333
 20
8.7501088183
 30
0.0
 10
7.996356279
 20
8.7671972564
 30
0.0
 10
7.9926798374
 20
8.7850863086
 30
0.0
 10
7.9892400228
 20
8.803746385
 30
0.0
 10
7.9860427103
 20
8.8231465874
 30
0.0
 10
7.9830932217
 20
8.8432547708
 30
0.0
 10
7.9803964963
 20
8.8640375922
 30
0.0
 10
7.9779571246
 20
8.8854605647
 30
0.0
 10
7.9757790963
 20
8.9074881305
 30
0.0
 10
7.9738662071
 20
8.9300837048
 30
0.0
 10
7.9722215099
 20
8.9532097795
 30
0.0
 10
7.9708479332
 20
8.9768279285
 30
0.0
 10
7.9697476309
 20
9.0008989175
 30
0.0
 10
7.9689225699
 20
9.0253827648
 30
0.0
 10
7.9681867194
 20
9.0587326575
 30
0.0
 10
7.9679737987
 20
9.101150621
 30
0.0
 10
7.9688266095
 20
9.1527221264
 30
0.0
 10
7.9707810622
 20
9.2049353033
 30
0.0
 10
7.973824277
 20
9.2574432679
 30
0.0
 10
7.9779361201
 20
9.3098974663
 30
0.0
 10
7.983089272
 20
9.3619494011
 30
0.0
 10
7.9882449944
 20
9.4048901876
 30
0.0
 10
7.9928709837
 20
9.4387751957
 30
0.0
 10
7.9965620746
 20
9.4637624111
 30
0.0
 10
8.0004838816
 20
9.4883931367
 30
0.0
 10
8.004629754
 20
9.5126264782
 30
0.0
 10
8.0089929347
 20
9.5364221614
 30
0.0
 10
8.0135659946
 20
9.559740659
 30
0.0
 10
8.0183414547
 20
9.5825432205
 30
0.0
 10
8.0233112319
 20
9.6047919765
 30
0.0
 10
8.0284671225
 20
9.6264499775
 30
0.0
 10
8.0338004885
 20
9.6474812736
 30
0.0
 10
8.0393024208
 20
9.6678509555
 30
0.0
 10
8.0449637986
 20
9.6875252223
 30
0.0
 10
8.050775065
 20
9.7064714609
 30
0.0
 10
8.0567266786
 20
9.7246582656
 30
0.0
 10
8.0628085163
 20
9.7420555526
 30
0.0
 10
8.0690106452
 20
9.7586345187
 30
0.0
 10
8.0753225114
 20
9.7743678352
 30
0.0
 10
8.0817338069
 20
9.7892295265
 30
0.0
 10
8.0882337157
 20
9.8031952847
 30
0.0
 10
8.0948115785
 20
9.8162420334
 30
0.0
 10
8.1004299449
 20
9.8264786385
 30
0.0
 10
8.1049630891
 20
9.8341814593
 30
0.0
 10
8.1083246548
 20
9.8396289593
 30
0.0
 10
8.1116974971
 20
9.8448312437
 30
0.0
 10
8.1150803057
 20
9.8497861798
 30
0.0
 10
8.1184716884
 20
9.8544918314
 30
0.0
 10
8.1218703262
 20
9.8589463377
 30
0.0
 10
8.1252749084
 20
9.8631477847
 30
0.0
 10
8.1286839342
 20
9.8670943952
 30
0.0
 10
8.132095699
 20
9.8707843362
 30
0.0
 10
8.1344141963
 20
9.873115449
 30
0.0
 10
8.1355739282
 20
9.874235664
 30
0.0
  0
SPLINE
  5
350
100
AcDbEntity
  8
0
100
AcDbSpline
 62
7
  6
CONTINUOUS
 70
0
 71
3
 72
57
 73
53
 74
0
 42
0.0000001
 43
0.0000001
 44
0.0000000001
 40
0.0
 40
0.0
 40
0.0
 40
0.0
 40
0.0097390296
 40
0.0199694758
 40
0.0306882151
 40
0.0418903366
 40
0.053569351
 40
0.0657173969
 40
0.0783253594
 40
0.0913830149
 40
0.1048790858
 40
0.1188013937
 40
0.1331368692
 40
0.147871677
 40
0.1629911947
 40
0.1784801604
 40
0.19432263
 40
0.2105021151
 40
0.2270015229
 40
0.2438032952
 40
0.2782407004
 40
0.3136652972
 40
0.3499215306
 40
0.38684892
 40
0.4242830974
 40
0.4620567307
 40
0.5000005861
 40
0.5379444388
 40
0.5757180565
 40
0.6131522074
 40
0.6500795616
 40
0.6863357463
 40
0.7217602892
 40
0.7561976303
 40
0.7729993704
 40
0.7894987348
 40
0.8056781928
 40
0.8215206089
 40
0.8370095399
 40
0.8521289993
 40
0.8668637743
 40
0.8811991864
 40
0.8951214627
 40
0.9086174627
 40
0.9216750808
 40
0.9342829693
 40
0.946430984
 40
0.958109916
 40
0.9693120004
 40
0.9800306622
 40
0.9902610793
 40
1.0
 40
1.0
 40
1.0
 40
1.0
 10
9.0587959301
 20
9.9563102621
 30
0.0
 10
9.0562113423
 20
9.9519281507
 30
0.0
 10
9.0510704693
 20
9.9428484879
 30
0.0
 10
9.0436094989
 20
9.928656937
 30
0.0
 10
9.0362172348
 20
9.913573502
 30
0.0
 10
9.0289025752
 20
9.8976162255
 30
0.0
 10
9.0216742223
 20
9.8808039238
 30
0.0
 10
9.0145408421
 20
9.8631565683
 30
0.0
 10
9.0075109618
 20
9.8446951315
 30
0.0
 10
9.0005930298
 20
9.8254415923
 30
0.0
 10
8.99379532
 20
9.8054188987
 30
0.0
 10
8.9871260205
 20
9.7846509288
 30
0.0
 10
8.9805930979
 20
9.7631624658
 30
0.0
 10
8.9742044316
 20
9.7409791663
 30
0.0
 10
8.9679676451
 20
9.7181275343
 30
0.0
 10
8.9618902737
 20
9.6946348792
 30
0.0
 10
8.9559795537
 20
9.6705292797
 30
0.0
 10
8.9502426406
 20
9.6458395579
 30
0.0
 10
8.944686325
 20
9.6205952095
 30
0.0
 10
8.9374686311
 20
9.585952811
 30
0.0
 10
8.9289611782
 20
9.5414836547
 30
0.0
 10
8.919654389
 20
9.4868322449
 30
0.0
 10
8.9112128361
 20
9.4307248822
 30
0.0
 10
8.9036771122
 20
9.3734299324
 30
0.0
 10
8.8970834573
 20
9.3152212471
 30
0.0
 10
8.8914635333
 20
9.2563771544
 30
0.0
 10
8.8868443001
 20
9.1971790424
 30
0.0
 10
8.8832478715
 20
9.1379100074
 30
0.0
 10
8.8806914216
 20
9.0788534872
 30
0.0
 10
8.8791870932
 20
9.0202918991
 30
0.0
 10
8.8787419424
 20
8.962505278
 30
0.0
 10
8.8793578823
 20
8.9057698534
 30
0.0
 10
8.8810317445
 20
8.8503570257
 30
0.0
 10
8.8833194521
 20
8.8051393092
 30
0.0
 10
8.8856861504
 20
8.7698323061
 30
0.0
 10
8.8877046897
 20
8.7440627021
 30
0.0
 10
8.8899786
 20
8.7188174929
 30
0.0
 10
8.8925053449
 20
8.6941268246
 30
0.0
 10
8.8952816879
 20
8.6700202385
 30
0.0
 10
8.8983044756
 20
8.6465265324
 30
0.0
 10
8.9015698656
 20
8.6236738007
 30
0.0
 10
8.9050741276
 20
8.6014893407
 30
0.0
 10
8.9088128253
 20
8.5799996573
 30
0.0
 10
8.9127816732
 20
8.5592303948
 30
0.0
 10
8.9169756615
 20
8.539206331
 30
0.0
 10
8.921389976
 20
8.5199513384
 30
0.0
 10
8.9260190538
 20
8.5014883433
 30
0.0
 10
8.9308575855
 20
8.4838393125
 30
0.0
 10
8.9358994887
 20
8.4670251953
 30
0.0
 10
8.9411390257
 20
8.4510658627
 30
0.0
 10
8.9465695603
 20
8.4359803765
 30
0.0
 10
8.950407966
 20
8.4262781093
 30
0.0
 10
8.9523629017
 20
8.4215812334
 30
0.0
  0
SPLINE
  5
351
100
AcDbEntity
  8
0
100
AcDbSpline
 62
7
  6
CONTINUOUS
 70
0
 71
3
 72
9
 73
5
 74
0
 42
0.0000001
 43
0.0000001
 44
0.0000000001
 40
0.0
 40
0.0
 40
0.0
 40
0.0
 40
0.4968340106
 40
1.0
 40
1.0
 40
1.0
 40
1.0
 10
9.0919522858
 20
10.0125263426
 30
0.0
 10
9.1012923445
 20
10.0283581173
 30
0.0
 10
9.1207602834
 20
10.0598322499
 30
0.0
 10
9.1413660967
 20
10.0905695258
 30
0.0
 10
9.1519765537
 20
10.1058655137
 30
0.0
  0
SPLINE
  5
352
100
AcDbEntity
  8
0
100
AcDbSpline
 62
7
  6
CONTINUOUS
 70
0
 71
3
 72
50
 73
46
 74
0
 42
0.0000001
 43
0.0000001
 44
0.0000000001
 40
0.0
 40
0.0
 40
0.0
 40
0.0
 40
0.0482162532
 40
0.0958616266
 40
0.1428554846
 40
0.1891301771
 40
0.2346191254
 40
0.2792547359
 40
0.3229717019
 40
0.3657070899
 40
0.4074001368
 40
0.4479919846
 40
0.4874267363
 40
0.5256508558
 40
0.5626141585
 40
0.5982694051
 40
0.6325731481
 40
0.6654857871
 40
0.696972026
 40
0.7270016518
 40
0.7555496252
 40
0.7825976542
 40
0.8081342405
 40
0.8203353587
 40
0.8321584408
 40
0.8436047621
 40
0.854676506
 40
0.8653765738
 40
0.8757087154
 40
0.8856779299
 40
0.8952903952
 40
0.9045534616
 40
0.9134759481
 40
0.9220684958
 40
0.9303434767
 40
0.9383151729
 40
0.9460001946
 40
0.9534176349
 40
0.960589063
 40
0.9675387201
 40
0.9742937444
 40
0.980883967
 40
0.9873417147
 40
0.993701588
 40
1.0
 40
1.0
 40
1.0
 40
1.0
 10
8.1746318476
 20
9.0590086727
 30
0.0
 10
8.1746318476
 20
9.0499903368
 30
0.0
 10
8.1747279765
 20
9.0320602817
 30
0.0
 10
8.1751654209
 20
9.0053437395
 30
0.0
 10
8.1758948865
 20
8.9789968052
 30
0.0
 10
8.1769150198
 20
8.953063149
 30
0.0
 10
8.1782241624
 20
8.9275840977
 30
0.0
 10
8.1798201972
 20
8.9026007237
 30
0.0
 10
8.1817004884
 20
8.878153604
 30
0.0
 10
8.1838620263
 20
8.8542822704
 30
0.0
 10
8.1863011552
 20
8.8310252894
 30
0.0
 10
8.1890140536
 20
8.8084202434
 30
0.0
 10
8.1919961091
 20
8.7865036778
 30
0.0
 10
8.1952426268
 20
8.7653109787
 30
0.0
 10
8.1987481422
 20
8.7448763591
 30
0.0
 10
8.2025070526
 20
8.7252327792
 30
0.0
 10
8.2065131455
 20
8.7064118937
 30
0.0
 10
8.210759892
 20
8.6884439938
 30
0.0
 10
8.2152404252
 20
8.6713579451
 30
0.0
 10
8.2199473241
 20
8.6551811419
 30
0.0
 10
8.2248731469
 20
8.6399393855
 30
0.0
 10
8.2300096797
 20
8.625657118
 30
0.0
 10
8.2345251035
 20
8.6144087064
 30
0.0
 10
8.2382462612
 20
8.605917888
 30
0.0
 10
8.2410422305
 20
8.5999008041
 30
0.0
 10
8.2438846299
 20
8.5941401163
 30
0.0
 10
8.2467722958
 20
8.5886380683
 30
0.0
 10
8.2497040771
 20
8.5833968594
 30
0.0
 10
8.2526788991
 20
8.5784186362
 30
0.0
 10
8.2556955526
 20
8.5737053499
 30
0.0
 10
8.2587528302
 20
8.5692588308
 30
0.0
 10
8.261849589
 20
8.5650808787
 30
0.0
 10
8.2649847179
 20
8.5611732177
 30
0.0
 10
8.2681569646
 20
8.5575373402
 30
0.0
 10
8.2713651487
 20
8.5541746925
 30
0.0
 10
8.2746081707
 20
8.5510867391
 30
0.0
 10
8.2778848589
 20
8.5482747911
 30
0.0
 10
8.2811939792
 20
8.5457399945
 30
0.0
 10
8.2845343561
 20
8.5434835302
 30
0.0
 10
8.2879048329
 20
8.5415066431
 30
0.0
 10
8.2913040729
 20
8.5398103028
 30
0.0
 10
8.2947306759
 20
8.5383954385
 30
0.0
 10
8.2981832942
 20
8.5372630214
 30
0.0
 10
8.301660055
 20
8.5364139529
 30
0.0
 10
8.3040003042
 20
8.5360359326
 30
0.0
 10
8.3051699047
 20
8.5358950843
 30
0.0
  0
SPLINE
  5
353
100
AcDbEntity
  8
0
100
AcDbSpline
 62
7
  6
CONTINUOUS
 70
0
 71
3
 72
23
 73
19
 74
0
 42
0.0000001
 43
0.0000001
 44
0.0000000001
 40
0.0
 40
0.0
 40
0.0
 40
0.0
 40
0.0729133046
 40
0.1449347654
 40
0.2159364608
 40
0.2858106528
 40
0.3544505543
 40
0.4217482115
 40
0.4875999355
 40
0.5519055478
 40
0.6145685648
 40
0.6754958305
 40
0.7345989433
 40
0.7917938775
 40
0.8470016653
 40
0.900149099
 40
0.9511686122
 40
1.0
 40
1.0
 40
1.0
 40
1.0
 10
8.2171325865
 20
9.0560612364
 30
0.0
 10
8.2171325865
 20
9.0467872017
 30
0.0
 10
8.217234217
 20
9.0283523934
 30
0.0
 10
8.2176968724
 20
9.0008901886
 30
0.0
 10
8.2184683447
 20
8.9738215696
 30
0.0
 10
8.2195471555
 20
8.9471938924
 30
0.0
 10
8.2209314016
 20
8.921052081
 30
0.0
 10
8.2226187826
 20
8.8954407588
 30
0.0
 10
8.2246062742
 20
8.8704039128
 30
0.0
 10
8.2268905641
 20
8.8459843463
 30
0.0
 10
8.2294675469
 20
8.8222237957
 30
0.0
 10
8.2323329171
 20
8.7991628802
 30
0.0
 10
8.2354816074
 20
8.7768410199
 30
0.0
 10
8.2389082219
 20
8.7552963322
 30
0.0
 10
8.242606856
 20
8.7345656053
 30
0.0
 10
8.2465710277
 20
8.7146841431
 30
0.0
 10
8.2507940119
 20
8.6956859991
 30
0.0
 10
8.2538449035
 20
8.6833559624
 30
0.0
 10
8.2554171697
 20
8.6773472681
 30
0.0
  0
SPLINE
  5
354
100
AcDbEntity
  8
0
100
AcDbSpline
 62
7
  6
CONTINUOUS
 70
0
 71
3
 72
31
 73
27
 74
0
 42
0.0000001
 43
0.0000001
 44
0.0000000001
 40
0.0
 40
0.0
 40
0.0
 40
0.0
 40
0.0851763762
 40
0.1685818885
 40
0.2498828059
 40
0.3287741729
 40
0.4049546138
 40
0.4781407671
 40
0.548066518
 40
0.6144855204
 40
0.6463101331
 40
0.6771764011
 40
0.7070603144
 40
0.7359404397
 40
0.7637967495
 40
0.7906119792
 40
0.8163713818
 40
0.8410625784
 40
0.8646771485
 40
0.8872095743
 40
0.9086587807
 40
0.9290285849
 40
0.9483277418
 40
0.9665723263
 40
0.9837855457
 40
1.0
 40
1.0
 40
1.0
 40
1.0
 10
6.5218931093
 20
9.2625855467
 30
0.0
 10
6.5218931093
 20
9.2549609746
 30
0.0
 10
6.5220230672
 20
9.2398699826
 30
0.0
 10
6.5226189289
 20
9.2175084235
 30
0.0
 10
6.5236114946
 20
9.1957239622
 30
0.0
 10
6.5249962533
 20
9.1746088997
 30
0.0
 10
6.5267673558
 20
9.1542516126
 30
0.0
 10
6.5289170901
 20
9.1347377977
 30
0.0
 10
6.5314362179
 20
9.1161494964
 30
0.0
 10
6.5338674568
 20
9.1012910204
 30
0.0
 10
6.5359996496
 20
9.0899316863
 30
0.0
 10
6.5376613116
 20
9.0818127395
 30
0.0
 10
6.5394065896
 20
9.0739811576
 30
0.0
 10
6.5412335233
 20
9.0664451377
 30
0.0
 10
6.5431402846
 20
9.0592125937
 30
0.0
 10
6.5451248189
 20
9.0522910991
 30
0.0
 10
6.547184968
 20
9.0456878815
 30
0.0
 10
6.5493187019
 20
9.0394098607
 30
0.0
 10
6.55152362
 20
9.0334635362
 30
0.0
 10
6.5537975272
 20
9.0278550917
 30
0.0
 10
6.5561380593
 20
9.0225903253
 30
0.0
 10
6.5585427089
 20
9.0176745986
 30
0.0
 10
6.5610092174
 20
9.0131130216
 30
0.0
 10
6.5635350189
 20
9.008910082
 30
0.0
 10
6.5661176121
 20
9.005070262
 30
0.0
 10
6.5679285689
 20
9.0026854022
 30
0.0
 10
6.5688443692
 20
9.0015593544
 30
0.0
  0
SPLINE
  5
355
100
AcDbEntity
  8
0
100
AcDbSpline
 62
7
  6
CONTINUOUS
 70
0
 71
3
 72
40
 73
36
 74
0
 42
0.0000001
 43
0.0000001
 44
0.0000000001
 40
0.0
 40
0.0
 40
0.0
 40
0.0
 40
0.0361000852
 40
0.0719482406
 40
0.1075239181
 40
0.1428067174
 40
0.1777757855
 40
0.2124093838
 40
0.2466859891
 40
0.2805854225
 40
0.314088622
 40
0.3471797182
 40
0.3798462051
 40
0.4120806035
 40
0.4438812849
 40
0.4752532805
 40
0.5062090524
 40
0.5367681572
 40
0.5519082788
 40
0.5669596817
 40
0.5968118057
 40
0.6263640901
 40
0.6556573186
 40
0.6847332626
 40
0.7136335047
 40
0.7423981285
 40
0.771063878
 40
0.7996643559
 40
0.8282288283
 40
0.8567824072
 40
0.8853462974
 40
0.9139374051
 40
0.9425702626
 40
0.9712553965
 40
1.0
 40
1.0
 40
1.0
 40
1.0
 10
7.7320020153
 20
8.6517212466
 30
0.0
 10
7.7282164702
 20
8.6563753877
 30
0.0
 10
7.7207466794
 20
8.6657124518
 30
0.0
 10
7.7098311768
 20
8.6798609979
 30
0.0
 10
7.6992693336
 20
8.6941070219
 30
0.0
 10
7.6890909687
 20
8.7084509762
 30
0.0
 10
7.6793273406
 20
8.7228920747
 30
0.0
 10
7.6700119619
 20
8.7374284108
 30
0.0
 10
7.6611796356
 20
8.7520563171
 30
0.0
 10
7.652866602
 20
8.7667704703
 30
0.0
 10
7.6451093959
 20
8.7815634183
 30
0.0
 10
7.637944641
 20
8.7964255516
 30
0.0
 10
7.6314079405
 20
8.8113449853
 30
0.0
 10
7.6255323497
 20
8.826307286
 30
0.0
 10
7.6203485373
 20
8.8412961352
 30
0.0
 10
7.615881896
 20
8.8562930197
 30
0.0
 10
7.6121525349
 20
8.871277713
 30
0.0
 10
7.609663558
 20
8.883776536
 30
0.0
 10
7.6080548771
 20
8.893744273
 30
0.0
 10
7.6067077349
 20
8.9036321207
 30
0.0
 10
7.6054917755
 20
8.915951218
 30
0.0
 10
7.6047781734
 20
8.9306801296
 30
0.0
 10
7.6047981483
 20
8.9452973303
 30
0.0
 10
7.6055312314
 20
8.9597873629
 30
0.0
 10
7.6069509962
 20
8.9741376863
 30
0.0
 10
7.609027185
 20
8.9883385383
 30
0.0
 10
7.6117272558
 20
9.0023829154
 30
0.0
 10
7.6150162864
 20
9.0162665064
 30
0.0
 10
7.6188593189
 20
9.0299872482
 30
0.0
 10
7.6232209417
 20
9.0435452199
 30
0.0
 10
7.6280669823
 20
9.0569419777
 30
0.0
 10
7.6333638832
 20
9.0701807537
 30
0.0
 10
7.639080446
 20
9.0832654663
 30
0.0
 10
7.6451860628
 20
9.0962010159
 30
0.0
 10
7.6494928525
 20
9.1047193867
 30
0.0
 10
7.6517015201
 20
9.1089550315
 30
0.0
  0
SPLINE
  5
356
100
AcDbEntity
  8
0
100
AcDbSpline
 62
7
  6
CONTINUOUS
 70
0
 71
3
 72
47
 73
43
 74
0
 42
0.0000001
 43
0.0000001
 44
0.0000000001
 40
0.0
 40
0.0
 40
0.0
 40
0.0
 40
0.0063158919
 40
0.0126706946
 40
0.0191025545
 40
0.0256481075
 40
0.0323419732
 40
0.0392163521
 40
0.0536141961
 40
0.0611949126
 40
0.0690567223
 40
0.0772178577
 40
0.0856942191
 40
0.0944996304
 40
0.1036458122
 40
0.1131425906
 40
0.1229983163
 40
0.1332199996
 40
0.1438131567
 40
0.1547821619
 40
0.1661305127
 40
0.1899729609
 40
0.2153524137
 40
0.2422683504
 40
0.2707106613
 40
0.3006617096
 40
0.3320970456
 40
0.3649863571
 40
0.3992943515
 40
0.4349808545
 40
0.472001948
 40
0.5103095102
 40
0.549852488
 40
0.5905762526
 40
0.6324237035
 40
0.6753347037
 40
0.7192470805
 40
0.7640964533
 40
0.8098158233
 40
0.8563360077
 40
0.9035889245
 40
1.0
 40
1.0
 40
1.0
 40
1.0
 10
7.6151132253
 20
8.7420739303
 30
0.0
 10
7.6141971437
 20
8.7421374536
 30
0.0
 10
7.6123636633
 20
8.7423398575
 30
0.0
 10
7.6096339933
 20
8.7428675218
 30
0.0
 10
7.6069225804
 20
8.743619198
 30
0.0
 10
7.6042309909
 20
8.7445942106
 30
0.0
 10
7.6015602656
 20
8.7457920065
 30
0.0
 10
7.5979742583
 20
8.7477143671
 30
0.0
 10
7.5944855981
 20
8.7500675409
 30
0.0
 10
7.5911094464
 20
8.7527945025
 30
0.0
 10
7.5885593619
 20
8.7550937139
 30
0.0
 10
7.5860364772
 20
8.7576101583
 30
0.0
 10
7.5835414365
 20
8.7603429582
 30
0.0
 10
7.5810753044
 20
8.7632909885
 30
0.0
 10
7.5786389809
 20
8.7664530395
 30
0.0
 10
7.576233357
 20
8.7698277668
 30
0.0
 10
7.5738593771
 20
8.7734138223
 30
0.0
 10
7.5715180354
 20
8.7772098032
 30
0.0
 10
7.5692102167
 20
8.7812141271
 30
0.0
 10
7.5669367915
 20
8.785425153
 30
0.0
 10
7.5639026912
 20
8.7914121324
 30
0.0
 10
7.5602131129
 20
8.7994121554
 30
0.0
 10
7.5560074178
 20
8.80965499
 30
0.0
 10
7.5519604606
 20
8.820676631
 30
0.0
 10
7.5480787395
 20
8.8324590705
 30
0.0
 10
7.5443687
 20
8.844983304
 30
0.0
 10
7.540836464
 20
8.8582289208
 30
0.0
 10
7.5374878536
 20
8.8721742895
 30
0.0
 10
7.5343285226
 20
8.8867965753
 30
0.0
 10
7.5313636064
 20
8.9020717864
 30
0.0
 10
7.5285981952
 20
8.9179748268
 30
0.0
 10
7.5260367311
 20
8.9344795449
 30
0.0
 10
7.5236836492
 20
8.9515587711
 30
0.0
 10
7.5215427167
 20
8.9691843882
 30
0.0
 10
7.5196176356
 20
8.9873273381
 30
0.0
 10
7.5179115065
 20
9.0059577266
 30
0.0
 10
7.5164272415
 20
9.0250448651
 30
0.0
 10
7.5151672976
 20
9.0445572736
 30
0.0
 10
7.5141337678
 20
9.0644626178
 30
0.0
 10
7.5133283582
 20
9.0847282519
 30
0.0
 10
7.5125553984
 20
9.1123691802
 30
0.0
 10
7.5123311798
 20
9.1332578982
 30
0.0
 10
7.5123311798
 20
9.1472753149
 30
0.0
  0
SPLINE
  5
357
100
AcDbEntity
  8
0
100
AcDbSpline
 62
7
  6
CONTINUOUS
 70
0
 71
3
 72
11
 73
7
 74
0
 42
0.0000001
 43
0.0000001
 44
0.0000000001
 40
0.0
 40
0.0
 40
0.0
 40
0.0
 40
0.2462082231
 40
0.4939513761
 40
0.7447339013
 40
1.0
 40
1.0
 40
1.0
 40
1.0
 10
7.6267044779
 20
8.741270074
 30
0.0
 10
7.6257828992
 20
8.7413339746
 30
0.0
 10
7.6239383769
 20
8.7415380452
 30
0.0
 10
7.6211923824
 20
8.7420709324
 30
0.0
 10
7.6184650428
 20
8.7428304682
 30
0.0
 10
7.6166788554
 20
8.743480734
 30
0.0
 10
7.6157915209
 20
8.7438412541
 30
0.0
  0
SPLINE
  5
358
100
AcDbEntity
  8
0
100
AcDbSpline
 62
7
  6
CONTINUOUS
 70
0
 71
3
 72
38
 73
34
 74
0
 42
0.0000001
 43
0.0000001
 44
0.0000000001
 40
0.0
 40
0.0
 40
0.0
 40
0.0
 40
0.006438094
 40
0.0130378466
 40
0.0268139224
 40
0.0415082437
 40
0.0572587435
 40
0.0741719892
 40
0.0923280543
 40
0.1117852013
 40
0.1325839042
 40
0.1547502906
 40
0.1782986195
 40
0.2032335715
 40
0.2295515174
 40
0.2572421326
 40
0.2862889586
 40
0.3166706474
 40
0.3483610172
 40
0.38133014
 40
0.4155441529
 40
0.4509662454
 40
0.4875562396
 40
0.5252715621
 40
0.5640667783
 40
0.6038944932
 40
0.6447047268
 40
0.6864458792
 40
0.7290643695
 40
0.7725052139
 40
0.8167107876
 40
0.907182272
 40
1.0
 40
1.0
 40
1.0
 40
1.0
 10
7.6157915209
 20
8.7438412541
 30
0.0
 10
7.6149467099
 20
8.7441844971
 30
0.0
 10
7.6132596847
 20
8.744939775
 30
0.0
 10
7.6099016429
 20
8.7467185838
 30
0.0
 10
7.6057428842
 20
8.7494586657
 30
0.0
 10
7.6009187552
 20
8.753470082
 30
0.0
 10
7.5961932918
 20
8.7582436113
 30
0.0
 10
7.5915715527
 20
8.7637712919
 30
0.0
 10
7.5870580028
 20
8.7700453567
 30
0.0
 10
7.5826578714
 20
8.7770572073
 30
0.0
 10
7.5783765548
 20
8.7847973046
 30
0.0
 10
7.5742197263
 20
8.7932550578
 30
0.0
 10
7.5701929946
 20
8.8024187318
 30
0.0
 10
7.5663020643
 20
8.8122755218
 30
0.0
 10
7.5625523851
 20
8.8228114969
 30
0.0
 10
7.558949437
 20
8.8340117056
 30
0.0
 10
7.5554983334
 20
8.8458601458
 30
0.0
 10
7.5522041939
 20
8.8583398539
 30
0.0
 10
7.5490717041
 20
8.8714328903
 30
0.0
 10
7.5461055528
 20
8.8851204104
 30
0.0
 10
7.54330995
 20
8.8993826762
 30
0.0
 10
7.5406891068
 20
8.9141991014
 30
0.0
 10
7.5382467239
 20
8.9295482798
 30
0.0
 10
7.5359865039
 20
8.9454080148
 30
0.0
 10
7.5339116172
 20
8.9617553746
 30
0.0
 10
7.5320252346
 20
8.9785666929
 30
0.0
 10
7.5303299741
 20
8.9958176339
 30
0.0
 10
7.5288284487
 20
9.0134832206
 30
0.0
 10
7.5275227258
 20
9.0315379119
 30
0.0
 10
7.5264148407
 20
9.0499555113
 30
0.0
 10
7.5251941061
 20
9.0751546886
 30
0.0
 10
7.5241838558
 20
9.107363462
 30
0.0
 10
7.5239222904
 20
9.1333249637
 30
0.0
 10
7.5239222904
 20
9.1464714687
 30
0.0
  0
SPLINE
  5
359
100
AcDbEntity
  8
0
100
AcDbSpline
 62
7
  6
CONTINUOUS
 70
0
 71
3
 72
25
 73
21
 74
0
 42
0.0000001
 43
0.0000001
 44
0.0000000001
 40
0.0
 40
0.0
 40
0.0
 40
0.0
 40
0.0193029916
 40
0.0387186964
 40
0.0583576886
 40
0.0783263473
 40
0.1196245465
 40
0.1633622271
 40
0.2101325908
 40
0.2604063445
 40
0.3145411344
 40
0.3728042393
 40
0.43538468
 40
0.5024128041
 40
0.5739675901
 40
0.6500895481
 40
0.7307853681
 40
0.816034727
 40
0.9057943228
 40
1.0
 40
1.0
 40
1.0
 40
1.0
 10
6.9806828412
 20
9.0266482602
 30
0.0
 10
6.9801860985
 20
9.0266827148
 30
0.0
 10
6.9791920054
 20
9.0267913743
 30
0.0
 10
6.9777116454
 20
9.0270725913
 30
0.0
 10
6.9762408257
 20
9.0274720509
 30
0.0
 10
6.9742719589
 20
9.0281693549
 30
0.0
 10
6.9718247533
 20
9.0293526756
 30
0.0
 10
6.968976783
 20
9.0312249713
 30
0.0
 10
6.9661859495
 20
9.0335596544
 30
0.0
 10
6.9634555111
 20
9.0363518312
 30
0.0
 10
6.9607875803
 20
9.039596516
 30
0.0
 10
6.9581853504
 20
9.0432889548
 30
0.0
 10
6.9556517344
 20
9.0474235966
 30
0.0
 10
6.9531903325
 20
9.051994514
 30
0.0
 10
6.9508044677
 20
9.0569948909
 30
0.0
 10
6.948497781
 20
9.0624173056
 30
0.0
 10
6.9462736977
 20
9.0682535457
 30
0.0
 10
6.9441356506
 20
9.0744947482
 30
0.0
 10
6.9420870056
 20
9.0811312923
 30
0.0
 10
6.9408132995
 20
9.0857033696
 30
0.0
 10
6.9401900972
 20
9.0880522117
 30
0.0
  0
SPLINE
  5
35A
100
AcDbEntity
  8
0
100
AcDbSpline
 62
7
  6
CONTINUOUS
 70
0
 71
3
 72
40
 73
36
 74
0
 42
0.0000001
 43
0.0000001
 44
0.0000000001
 40
0.0
 40
0.0
 40
0.0
 40
0.0
 40
0.0964129268
 40
0.1901875577
 40
0.2359075381
 40
0.2807581595
 40
0.3246716912
 40
0.367583807
 40
0.409432091
 40
0.4501569464
 40
0.4897007458
 40
0.5280093578
 40
0.5650311642
 40
0.6007186047
 40
0.6350272582
 40
0.6679174179
 40
0.6993533631
 40
0.7293051122
 40
0.757747981
 40
0.7846644902
 40
0.8100444611
 40
0.8338873585
 40
0.8562032824
 40
0.8770161405
 40
0.8963661374
 40
0.9143143977
 40
0.9309476498
 40
0.9463847288
 40
0.9607828258
 40
0.9676572904
 40
0.9743513325
 40
0.980897048
 40
0.9873290165
 40
0.9936839527
 40
1.0
 40
1.0
 40
1.0
 40
1.0
 10
6.906331611
 20
9.235924646
 30
0.0
 10
6.906331611
 20
9.2264073036
 30
0.0
 10
6.906533258
 20
9.2076323869
 30
0.0
 10
6.9073136711
 20
9.1843557174
 30
0.0
 10
6.9082572676
 20
9.1661822613
 30
0.0
 10
6.9091127075
 20
9.1529339562
 30
0.0
 10
6.910120517
 20
9.1399743555
 30
0.0
 10
6.9112788861
 20
9.1273248978
 30
0.0
 10
6.912586017
 20
9.1150064056
 30
0.0
 10
6.9140395893
 20
9.103039174
 30
0.0
 10
6.915637329
 20
9.0914429112
 30
0.0
 10
6.9173764262
 20
9.0802367316
 30
0.0
 10
6.9192541266
 20
9.0694390731
 30
0.0
 10
6.9212671585
 20
9.0590676974
 30
0.0
 10
6.9234123114
 20
9.0491396389
 30
0.0
 10
6.9256858734
 20
9.0396711853
 30
0.0
 10
6.9280842018
 20
9.0306778486
 30
0.0
 10
6.9306031821
 20
9.0221743116
 30
0.0
 10
6.9332387803
 20
9.0141744268
 30
0.0
 10
6.9359865361
 20
9.0066911371
 30
0.0
 10
6.9388420957
 20
8.9997365092
 30
0.0
 10
6.9418007599
 20
8.9933216161
 30
0.0
 10
6.9448580009
 20
8.9874566099
 30
0.0
 10
6.9480091038
 20
8.9821505919
 30
0.0
 10
6.9512496946
 20
8.9774117519
 30
0.0
 10
6.9545754341
 20
8.9732473556
 30
0.0
 10
6.9579827857
 20
8.9696639548
 30
0.0
 10
6.9614677623
 20
8.9666681579
 30
0.0
 10
6.9644807238
 20
8.9646358156
 30
0.0
 10
6.9669156371
 20
8.963330664
 30
0.0
 10
6.9687289434
 20
8.9625173883
 30
0.0
 10
6.970556446
 20
8.9618553643
 30
0.0
 10
6.9723974329
 20
8.9613450999
 30
0.0
 10
6.9742507992
 20
8.960986905
 30
0.0
 10
6.9754956712
 20
8.9608494654
 30
0.0
 10
6.9761176621
 20
8.960806332
 30
0.0
  0
SPLINE
  5
35B
100
AcDbEntity
  8
0
100
AcDbSpline
 62
7
  6
CONTINUOUS
 70
0
 71
3
 72
40
 73
36
 74
0
 42
0.0000001
 43
0.0000001
 44
0.0000000001
 40
0.0
 40
0.0
 40
0.0
 40
0.0
 40
0.0070629624
 40
0.0144561032
 40
0.0221885244
 40
0.0302675901
 40
0.038698963
 40
0.0474866007
 40
0.0566333274
 40
0.0661409545
 40
0.0760100182
 40
0.0862402111
 40
0.1077783096
 40
0.1307394747
 40
0.1550973108
 40
0.1808168458
 40
0.2078563183
 40
0.2361678154
 40
0.2656977733
 40
0.296388175
 40
0.3281763168
 40
0.3609958039
 40
0.3947766435
 40
0.4294455812
 40
0.4649267686
 40
0.5011414736
 40
0.5380089145
 40
0.5754462991
 40
0.6133690567
 40
0.6516912859
 40
0.6903257776
 40
0.7681772202
 40
0.846214598
 40
0.9237235715
 40
1.0
 40
1.0
 40
1.0
 40
1.0
 10
6.6180375108
 20
9.7108987937
 30
0.0
 10
6.6172353747
 20
9.7101522603
 30
0.0
 10
6.6156319555
 20
9.7085826749
 30
0.0
 10
6.6132820159
 20
9.7060657551
 30
0.0
 10
6.6109345792
 20
9.7033350321
 30
0.0
 10
6.6085911206
 20
9.7003921615
 30
0.0
 10
6.6062530158
 20
9.6972388474
 30
0.0
 10
6.6039215748
 20
9.6938770446
 30
0.0
 10
6.601598192
 20
9.690308746
 30
0.0
 10
6.5992843317
 20
9.6865360422
 30
0.0
 10
6.5969812946
 20
9.6825612422
 30
0.0
 10
6.5938734066
 20
9.6768976336
 30
0.0
 10
6.5900351589
 20
9.6693207745
 30
0.0
 10
6.5855699392
 20
9.659613584
 30
0.0
 10
6.5811807376
 20
9.6491645736
 30
0.0
 10
6.5768781385
 20
9.6379990421
 30
0.0
 10
6.5726727038
 20
9.6261438221
 30
0.0
 10
6.5685747778
 20
9.6136275824
 30
0.0
 10
6.5645942981
 20
9.6004806595
 30
0.0
 10
6.5607411506
 20
9.5867349349
 30
0.0
 10
6.5570246747
 20
9.5724238094
 30
0.0
 10
6.5534540211
 20
9.5575820762
 30
0.0
 10
6.550037965
 20
9.542245839
 30
0.0
 10
6.5467847881
 20
9.5264524278
 30
0.0
 10
6.5437025625
 20
9.5102402829
 30
0.0
 10
6.5407987364
 20
9.4936488928
 30
0.0
 10
6.5380804601
 20
9.4767186737
 30
0.0
 10
6.5355543967
 20
9.4594908607
 30
0.0
 10
6.5332266557
 20
9.442007439
 30
0.0
 10
6.5311030001
 20
9.4243109727
 30
0.0
 10
6.5285440949
 20
9.4004295018
 30
0.0
 10
6.5258928659
 20
9.3703635635
 30
0.0
 10
6.5236004496
 20
9.3342221784
 30
0.0
 10
6.5222114626
 20
9.2982794147
 30
0.0
 10
6.5218931093
 20
9.27441942
 30
0.0
 10
6.5218931093
 20
9.2625855467
 30
0.0
  0
SPLINE
  5
35C
100
AcDbEntity
  8
0
100
AcDbSpline
 62
7
  6
CONTINUOUS
 70
0
 71
3
 72
49
 73
45
 74
0
 42
0.0000001
 43
0.0000001
 44
0.0000000001
 40
0.0
 40
0.0
 40
0.0
 40
0.0
 40
0.0053769914
 40
0.0108201207
 40
0.0163928903
 40
0.0221541641
 40
0.0344344282
 40
0.0410502321
 40
0.0480248322
 40
0.055384819
 40
0.0631518945
 40
0.0713431339
 40
0.0799717068
 40
0.0890478105
 40
0.0985785974
 40
0.1085688347
 40
0.1190215006
 40
0.1299374584
 40
0.1413161038
 40
0.1531556776
 40
0.1654528566
 40
0.1782034014
 40
0.1914022274
 40
0.2191178302
 40
0.2485424947
 40
0.2796065
 40
0.3122304882
 40
0.3463268751
 40
0.3818006099
 40
0.4185499633
 40
0.4564675352
 40
0.4954407822
 40
0.5353525277
 40
0.5760817445
 40
0.6175040611
 40
0.6594922522
 40
0.7019168385
 40
0.744646594
 40
0.7875490537
 40
0.8304913689
 40
0.8733399293
 40
0.9159611301
 40
0.9582272401
 40
1.0
 40
1.0
 40
1.0
 40
1.0
 10
7.0270362198
 20
9.695042819
 30
0.0
 10
7.0261546677
 20
9.6951039522
 30
0.0
 10
7.0243719243
 20
9.6951242999
 30
0.0
 10
7.0216867882
 20
9.6948470198
 30
0.0
 10
7.0189864967
 20
9.6942632114
 30
0.0
 10
7.0152932358
 20
9.6930526532
 30
0.0
 10
7.0116470256
 20
9.6912275864
 30
0.0
 10
7.0080906379
 20
9.6888939626
 30
0.0
 10
7.0053523141
 20
9.6868017195
 30
0.0
 10
7.0026126139
 20
9.6844136891
 30
0.0
 10
6.9998728888
 20
9.6817314162
 30
0.0
 10
6.9971352848
 20
9.6787572465
 30
0.0
 10
6.9944017121
 20
9.6754936029
 30
0.0
 10
6.9916744096
 20
9.6719430123
 30
0.0
 10
6.9889554401
 20
9.6681083804
 30
0.0
 10
6.9862469231
 20
9.6639928166
 30
0.0
 10
6.9835511566
 20
9.6595995774
 30
0.0
 10
6.9808702386
 20
9.654932286
 30
0.0
 10
6.9782063476
 20
9.649994746
 30
0.0
 10
6.9755617691
 20
9.6447909425
 30
0.0
 10
6.9729385868
 20
9.6393251849
 30
0.0
 10
6.9703389501
 20
9.6336019411
 30
0.0
 10
6.9668502012
 20
9.6255013449
 30
0.0
 10
6.9625752181
 20
9.6147583975
 30
0.0
 10
6.9576526742
 20
9.6011218074
 30
0.0
 10
6.9528737787
 20
9.5865827395
 30
0.0
 10
6.9482544353
 20
9.5711891016
 30
0.0
 10
6.9438100928
 20
9.5549914563
 30
0.0
 10
6.9395555687
 20
9.5380431897
 30
0.0
 10
6.935504997
 20
9.5204002234
 30
0.0
 10
6.9316718934
 20
9.5021208027
 30
0.0
 10
6.9280690488
 20
9.4832653047
 30
0.0
 10
6.9247084026
 20
9.4638960575
 30
0.0
 10
6.9216011326
 20
9.4440770993
 30
0.0
 10
6.9187576109
 20
9.4238739563
 30
0.0
 10
6.9161872472
 20
9.4033534506
 30
0.0
 10
6.9138985587
 20
9.3825834645
 30
0.0
 10
6.9118991821
 20
9.3616327097
 30
0.0
 10
6.9101957254
 20
9.3405704662
 30
0.0
 10
6.9087938175
 20
9.3194664377
 30
0.0
 10
6.9076981185
 20
9.2983905818
 30
0.0
 10
6.9069121935
 20
9.2774120831
 30
0.0
 10
6.9064387552
 20
9.2566010857
 30
0.0
 10
6.906331611
 20
9.2427896947
 30
0.0
 10
6.906331611
 20
9.235924646
 30
0.0
  0
SPLINE
  5
35D
100
AcDbEntity
  8
0
100
AcDbSpline
 62
7
  6
CONTINUOUS
 70
0
 71
3
 72
29
 73
25
 74
0
 42
0.0000001
 43
0.0000001
 44
0.0000000001
 40
0.0
 40
0.0
 40
0.0
 40
0.0
 40
0.0582644817
 40
0.1166982363
 40
0.175375961
 40
0.2343880954
 40
0.264054254
 40
0.2938441347
 40
0.3237722395
 40
0.353853095
 40
0.3841010331
 40
0.4145299411
 40
0.4451526715
 40
0.4759811148
 40
0.5070253962
 40
0.5382941829
 40
0.5697939784
 40
0.6015294815
 40
0.6657111529
 40
0.7308418783
 40
0.7968920427
 40
0.8638116473
 40
0.9315375482
 40
1.0
 40
1.0
 40
1.0
 40
1.0
 10
7.9320683681
 20
8.6336028037
 30
0.0
 10
7.9340410861
 20
8.6427407245
 30
0.0
 10
7.9376654473
 20
8.661115861
 30
0.0
 10
7.9420118526
 20
8.6889249554
 30
0.0
 10
7.9451517391
 20
8.717018361
 30
0.0
 10
7.946656752
 20
8.7406240376
 30
0.0
 10
7.9471404859
 20
8.7596276934
 30
0.0
 10
7.9471292985
 20
8.7739709689
 30
0.0
 10
7.9467311033
 20
8.7883752824
 30
0.0
 10
7.9459350879
 20
8.8028367865
 30
0.0
 10
7.9447324762
 20
8.8173508394
 30
0.0
 10
7.9431158816
 20
8.8319121364
 30
0.0
 10
7.9410810697
 20
8.8465149548
 30
0.0
 10
7.9386249458
 20
8.8611529489
 30
0.0
 10
7.935748267
 20
8.8758197474
 30
0.0
 10
7.932452786
 20
8.8905084934
 30
0.0
 10
7.9287439617
 20
8.9052127583
 30
0.0
 10
7.9232363745
 20
8.9249026822
 30
0.0
 10
7.915347487
 20
8.9495202889
 30
0.0
 10
7.9044217202
 20
8.9789103635
 30
0.0
 10
7.8921155993
 20
9.0082252701
 30
0.0
 10
7.8785531524
 20
9.0374384019
 30
0.0
 10
7.8638606079
 20
9.0665323083
 30
0.0
 10
7.8534460612
 20
9.0857455438
 30
0.0
 10
7.8480892016
 20
9.0953354995
 30
0.0
  0
SPLINE
  5
35E
100
AcDbEntity
  8
0
100
AcDbSpline
 62
7
  6
CONTINUOUS
 70
0
 71
3
 72
29
 73
25
 74
0
 42
0.0000001
 43
0.0000001
 44
0.0000000001
 40
0.0
 40
0.0
 40
0.0
 40
0.0
 40
0.0635184226
 40
0.126944235
 40
0.1902638447
 40
0.2534629547
 40
0.3165272906
 40
0.3480061542
 40
0.3794465653
 40
0.410847234
 40
0.4422070592
 40
0.4735251995
 40
0.5048010749
 40
0.5360344288
 40
0.5672252527
 40
0.5983739129
 40
0.6294809905
 40
0.6605473877
 40
0.6915742286
 40
0.7535118997
 40
0.8153094741
 40
0.8769807182
 40
0.938539702
 40
1.0
 40
1.0
 40
1.0
 40
1.0
 10
7.8480892016
 20
9.0953354995
 30
0.0
 10
7.8534694745
 20
9.1077524035
 30
0.0
 10
7.8639318943
 20
9.1326953883
 30
0.0
 10
7.878626158
 20
9.1704788046
 30
0.0
 10
7.8921881365
 20
9.2086126551
 30
0.0
 10
7.9044909886
 20
9.2470912644
 30
0.0
 10
7.913595987
 20
9.2794495368
 30
0.0
 10
7.9201303656
 20
9.3054839163
 30
0.0
 10
7.9246418815
 20
9.3250669309
 30
0.0
 10
7.928756028
 20
9.3447113549
 30
0.0
 10
7.9324633383
 20
9.3644101634
 30
0.0
 10
7.9357573007
 20
9.3841553706
 30
0.0
 10
7.9386324223
 20
9.4039386952
 30
0.0
 10
7.9410870446
 20
9.4237512561
 30
0.0
 10
7.9431204249
 20
9.443584215
 30
0.0
 10
7.9447357189
 20
9.463428581
 30
0.0
 10
7.9459371824
 20
9.4832756821
 30
0.0
 10
7.9467322109
 20
9.5031172548
 30
0.0
 10
7.9472618103
 20
9.5295378693
 30
0.0
 10
7.9469579908
 20
9.5625168372
 30
0.0
 10
7.9451469714
 20
9.6019836062
 30
0.0
 10
7.9420073238
 20
9.6412851092
 30
0.0
 10
7.93766216
 20
9.680397782
 30
0.0
 10
7.9340404294
 20
9.7063588947
 30
0.0
 10
7.9320683681
 20
9.7193034968
 30
0.0
  0
SPLINE
  5
35F
100
AcDbEntity
  8
0
100
AcDbSpline
 62
7
  6
CONTINUOUS
 70
0
 71
3
 72
32
 73
28
 74
0
 42
0.0000001
 43
0.0000001
 44
0.0000000001
 40
0.0
 40
0.0
 40
0.0
 40
0.0
 40
0.0609093661
 40
0.1219318533
 40
0.1830950671
 40
0.213742312
 40
0.2444375051
 40
0.275185035
 40
0.3059897239
 40
0.3368557449
 40
0.3677873726
 40
0.3987883245
 40
0.4298614529
 40
0.4610090887
 40
0.4922323529
 40
0.5235314044
 40
0.5549053877
 40
0.5863522805
 40
0.6178693844
 40
0.6494530233
 40
0.6810990891
 40
0.7128032296
 40
0.7445605234
 40
0.8082108086
 40
0.8720212305
 40
0.9359598562
 40
1.0
 40
1.0
 40
1.0
 40
1.0
 10
7.6517015201
 20
9.1089550315
 30
0.0
 10
7.6472312961
 20
9.1215356355
 30
0.0
 10
7.6387449315
 20
9.146888325
 30
0.0
 10
7.6276170884
 20
9.1854618497
 30
0.0
 10
7.6198865435
 20
9.218075276
 30
0.0
 10
7.6147641894
 20
9.2444382735
 30
0.0
 10
7.6114870106
 20
9.2643594824
 30
0.0
 10
7.6088132144
 20
9.2844056413
 30
0.0
 10
7.6067783919
 20
9.3045647047
 30
0.0
 10
7.6054158074
 20
9.3248210872
 30
0.0
 10
7.6047559146
 20
9.3451558625
 30
0.0
 10
7.6048254972
 20
9.3655468707
 30
0.0
 10
7.6056450143
 20
9.385969102
 30
0.0
 10
7.607229503
 20
9.4063952695
 30
0.0
 10
7.6095866303
 20
9.4267966464
 30
0.0
 10
7.6127157292
 20
9.4471441243
 30
0.0
 10
7.6166095901
 20
9.4674089976
 30
0.0
 10
7.6212529509
 20
9.487564228
 30
0.0
 10
7.6266237403
 20
9.5075852581
 30
0.0
 10
7.6326951728
 20
9.5274504263
 30
0.0
 10
7.6394350516
 20
9.5471418265
 30
0.0
 10
7.6468085384
 20
9.5666453208
 30
0.0
 10
7.6574426771
 20
9.5924025328
 30
0.0
 10
7.6721336268
 20
9.6240806055
 30
0.0
 10
7.6916820714
 20
9.6612191755
 30
0.0
 10
7.7128852493
 20
9.6975335858
 30
0.0
 10
7.7279493406
 20
9.7212065227
 30
0.0
 10
7.7356806867
 20
9.7329230287
 30
0.0
  0
SPLINE
  5
360
100
AcDbEntity
  8
0
100
AcDbSpline
 62
7
  6
CONTINUOUS
 70
0
 71
3
 72
38
 73
34
 74
0
 42
0.0000001
 43
0.0000001
 44
0.0000000001
 40
0.0
 40
0.0
 40
0.0
 40
0.0
 40
0.0913052871
 40
0.1357379052
 40
0.1792944147
 40
0.2219285519
 40
0.263593761
 40
0.3042450538
 40
0.343839651
 40
0.3823382789
 40
0.4197063122
 40
0.4559151975
 40
0.4909436705
 40
0.5247796123
 40
0.5574203632
 40
0.5888753794
 40
0.6191649414
 40
0.6483232506
 40
0.6763956462
 40
0.7034409943
 40
0.7295283036
 40
0.7547372039
 40
0.7791548014
 40
0.8028740718
 40
0.8259912345
 40
0.8486029434
 40
0.8708042666
 40
0.8926859057
 40
0.9143328512
 40
0.9358225623
 40
0.9572246645
 40
0.9785998758
 40
1.0
 40
1.0
 40
1.0
 40
1.0
 10
7.9320683681
 20
9.7193034968
 30
0.0
 10
7.939041467
 20
9.722295049
 30
0.0
 10
7.9493651709
 20
9.7268437891
 30
0.0
 10
7.9628901574
 20
9.7330959594
 30
0.0
 10
7.9726834588
 20
9.737779251
 30
0.0
 10
7.9822027668
 20
9.7424999932
 30
0.0
 10
7.9914322859
 20
9.7472589617
 30
0.0
 10
8.0003559976
 20
9.7520567361
 30
0.0
 10
8.0089580086
 20
9.7568936251
 30
0.0
 10
8.0172226503
 20
9.761769803
 30
0.0
 10
8.025134858
 20
9.7666850961
 30
0.0
 10
8.0326803554
 20
9.7716390996
 30
0.0
 10
8.039845962
 20
9.7766311773
 30
0.0
 10
8.0466200075
 20
9.7816602054
 30
0.0
 10
8.0529922795
 20
9.7867251536
 30
0.0
 10
8.058954856
 20
9.791824151
 30
0.0
 10
8.0645014323
 20
9.7969558166
 30
0.0
 10
8.0696286271
 20
9.8021176814
 30
0.0
 10
8.0743346899
 20
9.8073079816
 30
0.0
 10
8.0786209996
 20
9.8125239383
 30
0.0
 10
8.0824905783
 20
9.8177633625
 30
0.0
 10
8.0859492364
 20
9.8230234283
 30
0.0
 10
8.0890044637
 20
9.828301601
 30
0.0
 10
8.091665823
 20
9.8335951607
 30
0.0
 10
8.0939444929
 20
9.8389014633
 30
0.0
 10
8.0958529356
 20
9.8442180048
 30
0.0
 10
8.0974049126
 20
9.8495423495
 30
0.0
 10
8.0986148326
 20
9.8548723447
 30
0.0
 10
8.0994978311
 20
9.8602060112
 30
0.0
 10
8.1000692779
 20
9.8655416728
 30
0.0
 10
8.1003445718
 20
9.8708779514
 30
0.0
 10
8.1003391612
 20
9.8762135033
 30
0.0
 10
8.1001585275
 20
9.8797652817
 30
0.0
 10
8.1000267013
 20
9.8815387981
 30
0.0
  0
SPLINE
  5
361
100
AcDbEntity
  8
0
100
AcDbSpline
 62
7
  6
CONTINUOUS
 70
0
 71
3
 72
28
 73
24
 74
0
 42
0.0000001
 43
0.0000001
 44
0.0000000001
 40
0.0
 40
0.0
 40
0.0
 40
0.0
 40
0.0686352108
 40
0.1350707068
 40
0.1993192401
 40
0.261448237
 40
0.3216017905
 40
0.3800152512
 40
0.437040777
 40
0.4651896145
 40
0.4931849242
 40
0.5211085715
 40
0.5490509453
 40
0.5771096561
 40
0.605387603
 40
0.6339926828
 40
0.6630357924
 40
0.6926272862
 40
0.7228771193
 40
0.7857513305
 40
0.8524726285
 40
0.9237118939
 40
1.0
 40
1.0
 40
1.0
 40
1.0
 10
7.7356806867
 20
9.7329230287
 30
0.0
 10
7.7342652783
 20
9.7347132116
 30
0.0
 10
7.7315554058
 20
9.7382970762
 30
0.0
 10
7.7278276019
 20
9.7437803953
 30
0.0
 10
7.7245324179
 20
9.7492845839
 30
0.0
 10
7.7217033196
 20
9.7548097229
 30
0.0
 10
7.719374911
 20
9.7603555539
 30
0.0
 10
7.7175846156
 20
9.765921043
 30
0.0
 10
7.7165690258
 20
9.7705956166
 30
0.0
 10
7.7160707062
 20
9.7743270601
 30
0.0
 10
7.7158566978
 20
9.7771157053
 30
0.0
 10
7.7158055717
 20
9.7799052576
 30
0.0
 10
7.715921954
 20
9.7826950643
 30
0.0
 10
7.7162103298
 20
9.7854842712
 30
0.0
 10
7.7166747294
 20
9.7882720063
 30
0.0
 10
7.7173192424
 20
9.7910573214
 30
0.0
 10
7.7181477413
 20
9.7938391276
 30
0.0
 10
7.7191633578
 20
9.7966165419
 30
0.0
 10
7.7207917805
 20
9.8003600869
 30
0.0
 10
7.7233388725
 20
9.8050388433
 30
0.0
 10
7.7271454317
 20
9.8105389569
 30
0.0
 10
7.7317470961
 20
9.8159894354
 30
0.0
 10
7.735221058
 20
9.8194609921
 30
0.0
 10
7.7370778597
 20
9.8211891697
 30
0.0
  0
SPLINE
  5
362
100
AcDbEntity
  8
0
100
AcDbSpline
 62
7
  6
CONTINUOUS
 70
0
 71
3
 72
50
 73
46
 74
0
 42
0.0000001
 43
0.0000001
 44
0.0000000001
 40
0.0
 40
0.0
 40
0.0
 40
0.0
 40
0.0405523733
 40
0.0815669832
 40
0.1229227569
 40
0.1645058066
 40
0.2061973442
 40
0.247879068
 40
0.2894328551
 40
0.3307408256
 40
0.3716860853
 40
0.4121530427
 40
0.4520278551
 40
0.491198844
 40
0.5295569496
 40
0.5669962611
 40
0.6034143714
 40
0.6387128396
 40
0.6727978983
 40
0.7055808847
 40
0.7369788082
 40
0.7669151246
 40
0.7953206567
 40
0.8089304551
 40
0.8221354344
 40
0.8349294934
 40
0.8473073151
 40
0.8592641167
 40
0.8707961784
 40
0.8819006343
 40
0.8925755024
 40
0.9028202065
 40
0.9126352619
 40
0.9220226688
 40
0.93098628
 40
0.9395316363
 40
0.9476666791
 40
0.9554019621
 40
0.9627508718
 40
0.9697305358
 40
0.9763620103
 40
0.982670926
 40
0.9886882693
 40
0.9944504995
 40
1.0
 40
1.0
 40
1.0
 40
1.0
 10
7.5239222904
 20
9.1464714687
 30
0.0
 10
7.5239222904
 20
9.1561373282
 30
0.0
 10
7.5240664696
 20
9.175579502
 30
0.0
 10
7.5247041572
 20
9.2048727441
 30
0.0
 10
7.5257629899
 20
9.2343996571
 30
0.0
 10
7.5272396139
 20
9.2640701429
 30
0.0
 10
7.5291296921
 20
9.2937950091
 30
0.0
 10
7.5314274579
 20
9.3234841459
 30
0.0
 10
7.5341259411
 20
9.3530477511
 30
0.0
 10
7.5372169996
 20
9.3823964037
 30
0.0
 10
7.54069126
 20
9.4114413078
 30
0.0
 10
7.5445381531
 20
9.4400946169
 30
0.0
 10
7.5487460024
 20
9.4682696666
 30
0.0
 10
7.5533020558
 20
9.4958812387
 30
0.0
 10
7.5581924592
 20
9.5228458488
 30
0.0
 10
7.563402325
 20
9.5490819938
 30
0.0
 10
7.5689158094
 20
9.5745103832
 30
0.0
 10
7.5747161697
 20
9.5990541896
 30
0.0
 10
7.5807857226
 20
9.6226393276
 30
0.0
 10
7.5871059665
 20
9.6451946501
 30
0.0
 10
7.5936576529
 20
9.6666522377
 30
0.0
 10
7.6004208602
 20
9.686947325
 30
0.0
 10
7.6062966352
 20
9.7030623762
 30
0.0
 10
7.6110982322
 20
9.7153178704
 30
0.0
 10
7.6146880523
 20
9.7240502195
 30
0.0
 10
7.6183152064
 20
9.7324482156
 30
0.0
 10
7.6219768898
 20
9.7405055761
 30
0.0
 10
7.6256704463
 20
9.7482161986
 30
0.0
 10
7.6293930194
 20
9.7555743195
 30
0.0
 10
7.6331417747
 20
9.7625744403
 30
0.0
 10
7.6369140143
 20
9.7692112708
 30
0.0
 10
7.6407067862
 20
9.7754799182
 30
0.0
 10
7.6445173195
 20
9.7813756988
 30
0.0
 10
7.6483428552
 20
9.7868942003
 30
0.0
 10
7.6521804563
 20
9.7920314273
 30
0.0
 10
7.6560274723
 20
9.7967835191
 30
0.0
 10
7.6598811295
 20
9.8011469962
 30
0.0
 10
7.6637386577
 20
9.8051187223
 30
0.0
 10
7.6675975914
 20
9.8086956091
 30
0.0
 10
7.6714552573
 20
9.8118750523
 30
0.0
 10
7.6753092148
 20
9.8146545479
 30
0.0
 10
7.6791571033
 20
9.817031558
 30
0.0
 10
7.6829965318
 20
9.8190040338
 30
0.0
 10
7.6868245374
 20
9.8205694738
 30
0.0
 10
7.689409663
 20
9.8213530512
 30
0.0
 10
7.6906934531
 20
9.8216717254
 30
0.0
  0
SPLINE
  5
363
100
AcDbEntity
  8
0
100
AcDbSpline
 62
7
  6
CONTINUOUS
 70
0
 71
3
 72
11
 73
7
 74
0
 42
0.0000001
 43
0.0000001
 44
0.0000000001
 40
0.0
 40
0.0
 40
0.0
 40
0.0
 40
0.2551267507
 40
0.5058873237
 40
0.7536900882
 40
1.0
 40
1.0
 40
1.0
 40
1.0
 10
7.6906934531
 20
9.8216717254
 30
0.0
 10
7.6916091521
 20
9.8218990286
 30
0.0
 10
7.6934420793
 20
9.8222838569
 30
0.0
 10
7.6962083744
 20
9.8226465296
 30
0.0
 10
7.6989621561
 20
9.8227884185
 30
0.0
 10
7.7007910148
 20
9.8227356635
 30
0.0
 10
7.7016997162
 20
9.8226726558
 30
0.0
  0
SPLINE
  5
364
100
AcDbEntity
  8
0
100
AcDbSpline
 62
7
  6
CONTINUOUS
 70
0
 71
3
 72
51
 73
47
 74
0
 42
0.0000001
 43
0.0000001
 44
0.0000000001
 40
0.0
 40
0.0
 40
0.0
 40
0.0
 40
0.0417735363
 40
0.0840385911
 40
0.1266599962
 40
0.1695087201
 40
0.212450884
 40
0.2553533712
 40
0.2980831301
 40
0.3405077005
 40
0.3824958772
 40
0.4239181609
 40
0.4646473566
 40
0.5045590791
 40
0.5435322786
 40
0.5814498129
 40
0.6181991128
 40
0.6536727576
 40
0.6877691104
 40
0.7203930517
 40
0.7514569172
 40
0.7663791578
 40
0.7808823362
 40
0.7949581877
 40
0.808598944
 40
0.8217976252
 40
0.8345482068
 40
0.8468453073
 40
0.8586847759
 40
0.8700634469
 40
0.8809792868
 40
0.8914318782
 40
0.9014221013
 40
0.9109527856
 40
0.920028839
 40
0.9286573638
 40
0.936848521
 40
0.9446155303
 40
0.9519754727
 40
0.9589500094
 40
0.9655657417
 40
0.9778459246
 40
0.9836071538
 40
0.9891799161
 40
0.9946230112
 40
1.0
 40
1.0
 40
1.0
 40
1.0
 10
7.5123311798
 20
9.1472753149
 30
0.0
 10
7.5123311798
 20
9.1573865542
 30
0.0
 10
7.5124889606
 20
9.1777283218
 30
0.0
 10
7.5131862918
 20
9.2083793698
 30
0.0
 10
7.5143438305
 20
9.2392769705
 30
0.0
 10
7.5159575847
 20
9.2703181827
 30
0.0
 10
7.5180223652
 20
9.3014008438
 30
0.0
 10
7.5205312938
 20
9.3324219221
 30
0.0
 10
7.5234760498
 20
9.3632788299
 30
0.0
 10
7.5268468762
 20
9.3938694901
 30
0.0
 10
7.5306326002
 20
9.4240926948
 30
0.0
 10
7.5348206641
 20
9.4538484729
 30
0.0
 10
7.5393971345
 20
9.483038417
 30
0.0
 10
7.5443467991
 20
9.5115660075
 30
0.0
 10
7.549653205
 20
9.5393369239
 30
0.0
 10
7.5552987192
 20
9.5662593721
 30
0.0
 10
7.5612645277
 20
9.5922444234
 30
0.0
 10
7.5675307536
 20
9.6172062827
 30
0.0
 10
7.5740765129
 20
9.641062649
 30
0.0
 10
7.5808800145
 20
9.6637347188
 30
0.0
 10
7.5868222825
 20
9.68181332
 30
0.0
 10
7.5916985553
 20
9.6956193158
 30
0.0
 10
7.595357044
 20
9.7054932154
 30
0.0
 10
7.5990626818
 20
9.7150174499
 30
0.0
 10
7.6028124816
 20
9.7241841678
 30
0.0
 10
7.606603367
 20
9.7329858027
 30
0.0
 10
7.6104320913
 20
9.7414151471
 30
0.0
 10
7.6142956254
 20
9.7494652313
 30
0.0
 10
7.6181906911
 20
9.7571294797
 30
0.0
 10
7.6221140751
 20
9.7644016248
 30
0.0
 10
7.626062664
 20
9.7712756776
 30
0.0
 10
7.6300330789
 20
9.7777461079
 30
0.0
 10
7.6340222208
 20
9.7838076091
 30
0.0
 10
7.6380268478
 20
9.7894552888
 30
0.0
 10
7.6420436875
 20
9.7946846546
 30
0.0
 10
7.6460697653
 20
9.7994914005
 30
0.0
 10
7.6501018058
 20
9.8038717702
 30
0.0
 10
7.6541369573
 20
9.8078222338
 30
0.0
 10
7.6581720559
 20
9.8113393499
 30
0.0
 10
7.6622051421
 20
9.8144208003
 30
0.0
 10
7.667443118
 20
9.8178576999
 30
0.0
 10
7.6728133365
 20
9.8205456849
 30
0.0
 10
7.6782529044
 20
9.8223284471
 30
0.0
 10
7.6822299424
 20
9.8231883623
 30
0.0
 10
7.6861847091
 20
9.8235965322
 30
0.0
 10
7.6888103711
 20
9.8235665246
 30
0.0
 10
7.6901087476
 20
9.823476492
 30
0.0
  0
SPLINE
  5
365
100
AcDbEntity
  8
0
100
AcDbSpline
 62
7
  6
CONTINUOUS
 70
0
 71
3
 72
46
 73
42
 74
0
 42
0.0000001
 43
0.0000001
 44
0.0000000001
 40
0.0
 40
0.0
 40
0.0
 40
0.0
 40
0.0379389002
 40
0.0762773618
 40
0.1149218296
 40
0.1537873814
 40
0.1927851256
 40
0.2318254774
 40
0.2708194188
 40
0.3096778516
 40
0.3483120428
 40
0.3866339282
 40
0.4245563982
 40
0.4619934842
 40
0.4988606231
 40
0.5350750525
 40
0.5705559197
 40
0.6052246063
 40
0.6390051662
 40
0.6718243963
 40
0.7036122648
 40
0.7343023995
 40
0.7638321852
 40
0.7921433659
 40
0.819182656
 40
0.8449020068
 40
0.869259563
 40
0.8809169902
 40
0.8922215429
 40
0.9031701677
 40
0.9137605075
 40
0.9239906743
 40
0.9338596017
 40
0.94336714
 40
0.9525138484
 40
0.9613013803
 40
0.9697326505
 40
0.9778116805
 40
0.9855440367
 40
0.9929370989
 40
1.0
 40
1.0
 40
1.0
 40
1.0
 10
7.5683041105
 20
9.1463410175
 30
0.0
 10
7.5683041105
 20
9.1548342219
 30
0.0
 10
7.5684177185
 20
9.1719102773
 30
0.0
 10
7.5689210124
 20
9.1976330315
 30
0.0
 10
7.5697571952
 20
9.2235547019
 30
0.0
 10
7.5709241497
 20
9.2496113032
 30
0.0
 10
7.5724190207
 20
9.2757399167
 30
0.0
 10
7.5742382045
 20
9.3018767635
 30
0.0
 10
7.5763772881
 20
9.3279580865
 30
0.0
 10
7.578831003
 20
9.35392037
 30
0.0
 10
7.5815933782
 20
9.3797003342
 30
0.0
 10
7.5846577074
 20
9.4052351486
 30
0.0
 10
7.588016446
 20
9.4304626003
 30
0.0
 10
7.5916614071
 20
9.4553212144
 30
0.0
 10
7.5955837172
 20
9.4797504216
 30
0.0
 10
7.5997737233
 20
9.5036907187
 30
0.0
 10
7.6042212026
 20
9.5270837872
 30
0.0
 10
7.6089153044
 20
9.5498726545
 30
0.0
 10
7.613844474
 20
9.5720018496
 30
0.0
 10
7.618996675
 20
9.5934175067
 30
0.0
 10
7.6243593146
 20
9.6140675229
 30
0.0
 10
7.6299191846
 20
9.6339017078
 30
0.0
 10
7.635662701
 20
9.6528718732
 30
0.0
 10
7.6415758073
 20
9.6709319676
 30
0.0
 10
7.6476439414
 20
9.6880383113
 30
0.0
 10
7.6538522897
 20
9.7041493573
 30
0.0
 10
7.6592055238
 20
9.7168934369
 30
0.0
 10
7.6635557134
 20
9.7265527192
 30
0.0
 10
7.6667961786
 20
9.7334182516
 30
0.0
 10
7.6700603001
 20
9.7400070298
 30
0.0
 10
7.6733460491
 20
9.7463151114
 30
0.0
 10
7.676651491
 20
9.7523386484
 30
0.0
 10
7.6799746382
 20
9.7580739978
 30
0.0
 10
7.6833134052
 20
9.763517754
 30
0.0
 10
7.686665852
 20
9.7686666066
 30
0.0
 10
7.6900299917
 20
9.7735174516
 30
0.0
 10
7.6934037419
 20
9.7780674543
 30
0.0
 10
7.6967851731
 20
9.7823138445
 30
0.0
 10
7.7001723775
 20
9.7862540983
 30
0.0
 10
7.7035631957
 20
9.7898858345
 30
0.0
 10
7.7058768252
 20
9.7921506367
 30
0.0
 10
7.7070342536
 20
9.7932278363
 30
0.0
  0
SPLINE
  5
366
100
AcDbEntity
  8
0
100
AcDbSpline
 62
7
  6
CONTINUOUS
 70
0
 71
3
 72
33
 73
29
 74
0
 42
0.0000001
 43
0.0000001
 44
0.0000000001
 40
0.0
 40
0.0
 40
0.0
 40
0.0
 40
0.0851775187
 40
0.1685809748
 40
0.2498825197
 40
0.3287735459
 40
0.4049537265
 40
0.4781398435
 40
0.5135267959
 40
0.5480669566
 40
0.58173001
 40
0.6144874831
 40
0.6463119298
 40
0.6771780578
 40
0.7070619549
 40
0.7359418695
 40
0.7637981425
 40
0.7906132057
 40
0.8163724577
 40
0.8410635738
 40
0.8646780096
 40
0.8872102856
 40
0.9086594097
 40
0.9290289867
 40
0.9483280681
 40
0.9665725433
 40
0.9837855445
 40
1.0
 40
1.0
 40
1.0
 40
1.0
 10
7.5683041105
 20
9.1463410175
 30
0.0
 10
7.5683041105
 20
9.1353390538
 30
0.0
 10
7.5684916082
 20
9.1135637438
 30
0.0
 10
7.5693514418
 20
9.0812973445
 30
0.0
 10
7.5707836269
 20
9.0498638618
 30
0.0
 10
7.5727817803
 20
9.0193960237
 30
0.0
 10
7.5753374157
 20
8.9900218044
 30
0.0
 10
7.5779506925
 20
8.966299095
 30
0.0
 10
7.5803229849
 20
8.9479662687
 30
0.0
 10
7.5822142231
 20
8.9347199465
 30
0.0
 10
7.584235472
 20
8.9218365061
 30
0.0
 10
7.5863844684
 20
8.9093294904
 30
0.0
 10
7.5886590783
 20
8.8972120571
 30
0.0
 10
7.5910567594
 20
8.8854969451
 30
0.0
 10
7.5935750563
 20
8.8741964612
 30
0.0
 10
7.5962112744
 20
8.8633224712
 30
0.0
 10
7.5989625778
 20
8.8528863728
 30
0.0
 10
7.6018261674
 20
8.8428991101
 30
0.0
 10
7.6047988531
 20
8.8333711063
 30
0.0
 10
7.6078776962
 20
8.8243123316
 30
0.0
 10
7.6110592739
 20
8.8157321825
 30
0.0
 10
7.6143404118
 20
8.8076395821
 30
0.0
 10
7.6177176241
 20
8.8000428754
 30
0.0
 10
7.6211874466
 20
8.792949847
 30
0.0
 10
7.6247464506
 20
8.786367804
 30
0.0
 10
7.6283910148
 20
8.7803032505
 30
0.0
 10
7.6321176273
 20
8.7747627194
 30
0.0
 10
7.6347306717
 20
8.771321494
 30
0.0
 10
7.6360521266
 20
8.7696966786
 30
0.0
  0
SPLINE
  5
367
100
AcDbEntity
  8
0
100
AcDbSpline
 62
7
  6
CONTINUOUS
 70
0
 71
3
 72
46
 73
42
 74
0
 42
0.0000001
 43
0.0000001
 44
0.0000000001
 40
0.0
 40
0.0
 40
0.0
 40
0.0
 40
0.0379508459
 40
0.0763015451
 40
0.1149584217
 40
0.1538364289
 40
0.1928465424
 40
0.2318990518
 40
0.2709048121
 40
0.3097745976
 40
0.3484195518
 40
0.3867514881
 40
0.4246831778
 40
0.462128538
 40
0.4990028943
 40
0.5352233786
 40
0.5707090404
 40
0.6053811669
 40
0.6391637267
 40
0.6719834428
 40
0.7037702127
 40
0.7344576085
 40
0.7639829739
 40
0.7922880174
 40
0.8193194398
 40
0.8450292009
 40
0.869375465
 40
0.8810266278
 40
0.8923245107
 40
0.90326608
 40
0.9138489898
 40
0.9240713661
 40
0.9339321729
 40
0.9434312825
 40
0.9525692808
 40
0.9613478668
 40
0.9697699955
 40
0.977839735
 40
0.9855627224
 40
0.9929464063
 40
1.0
 40
1.0
 40
1.0
 40
1.0
 10
7.9354067168
 20
9.1179349268
 30
0.0
 10
7.9354067168
 20
9.1266089381
 30
0.0
 10
7.9355228085
 20
9.144048554
 30
0.0
 10
7.9360371015
 20
9.1703189934
 30
0.0
 10
7.936891556
 20
9.1967926238
 30
0.0
 10
7.938084006
 20
9.2234040262
 30
0.0
 10
7.9396115315
 20
9.2500888696
 30
0.0
 10
7.941470445
 20
9.2767819442
 30
0.0
 10
7.9436562324
 20
9.303418064
 30
0.0
 10
7.9461635046
 20
9.3299322898
 30
0.0
 10
7.9489861527
 20
9.3562599242
 30
0.0
 10
7.9521173167
 20
9.3823367305
 30
0.0
 10
7.9555492794
 20
9.4080991044
 30
0.0
 10
7.9592736648
 20
9.4334841976
 30
0.0
 10
7.9632813969
 20
9.4584300889
 30
0.0
 10
7.9675626017
 20
9.4828759489
 30
0.0
 10
7.9721068203
 20
9.5067621616
 30
0.0
 10
7.9769029556
 20
9.530030488
 30
0.0
 10
7.9819391883
 20
9.5526242276
 30
0.0
 10
7.9872032045
 20
9.5744883227
 30
0.0
 10
7.9926821263
 20
9.5955695199
 30
0.0
 10
7.9983624435
 20
9.6158165245
 30
0.0
 10
8.0042302596
 20
9.6351800918
 30
0.0
 10
8.0102712012
 20
9.6536131627
 30
0.0
 10
8.0164703743
 20
9.6710711073
 30
0.0
 10
8.0228126245
 20
9.6875114798
 30
0.0
 10
8.0282813006
 20
9.7005146992
 30
0.0
 10
8.0327252267
 20
9.7103692975
 30
0.0
 10
8.0360353876
 20
9.7173729005
 30
0.0
 10
8.0393696603
 20
9.7240935818
 30
0.0
 10
8.0427259726
 20
9.7305273147
 30
0.0
 10
8.04610235
 20
9.7366701681
 30
0.0
 10
8.0494967537
 20
9.7425184268
 30
0.0
 10
8.0529070542
 20
9.748068613
 30
0.0
 10
8.0563312719
 20
9.7533173453
 30
0.0
 10
8.0597673687
 20
9.7582614609
 30
0.0
 10
8.0632132185
 20
9.7628980663
 30
0.0
 10
8.0666668539
 20
9.7672243315
 30
0.0
 10
8.0701263175
 20
9.7712376885
 30
0.0
 10
8.0735894047
 20
9.7749357073
 30
0.0
 10
8.0759523502
 20
9.7772410734
 30
0.0
 10
8.0771344277
 20
9.7783373226
 30
0.0
  0
SPLINE
  5
368
100
AcDbEntity
  8
0
100
AcDbSpline
 62
7
  6
CONTINUOUS
 70
0
 71
3
 72
33
 73
29
 74
0
 42
0.0000001
 43
0.0000001
 44
0.0000000001
 40
0.0
 40
0.0
 40
0.0
 40
0.0
 40
0.0851578421
 40
0.1685430469
 40
0.2498281235
 40
0.3287048309
 40
0.4048731684
 40
0.4780502196
 40
0.5134337634
 40
0.5479713082
 40
0.5816325624
 40
0.6143890782
 40
0.6462134312
 40
0.6770803424
 40
0.7069659176
 40
0.7358484069
 40
0.7637081611
 40
0.7905276027
 40
0.8162921248
 40
0.8409893841
 40
0.8646108063
 40
0.8871508801
 40
0.9086085521
 40
0.928987369
 40
0.9482962833
 40
0.966551078
 40
0.9837747357
 40
1.0
 40
1.0
 40
1.0
 40
1.0
 10
7.9354067168
 20
9.1179349268
 30
0.0
 10
7.9354067168
 20
9.1067103265
 30
0.0
 10
7.9355979203
 20
9.0844942364
 30
0.0
 10
7.93647474
 20
9.0515744437
 30
0.0
 10
7.9379352212
 20
9.0195038871
 30
0.0
 10
7.93997286
 20
8.9884178581
 30
0.0
 10
7.9425790115
 20
8.9584468027
 30
0.0
 10
7.9452439386
 20
8.9342414716
 30
0.0
 10
7.9476631224
 20
8.915535129
 30
0.0
 10
7.9495917693
 20
8.9020184862
 30
0.0
 10
7.9516530091
 20
8.8888717983
 30
0.0
 10
7.9538445353
 20
8.876108872
 30
0.0
 10
7.9561641733
 20
8.8637431213
 30
0.0
 10
7.9586093347
 20
8.8517875341
 30
0.0
 10
7.9611775148
 20
8.8402546579
 30
0.0
 10
7.9638659724
 20
8.8291565913
 30
0.0
 10
7.9666718135
 20
8.8185049559
 30
0.0
 10
7.9695921903
 20
8.8083109115
 30
0.0
 10
7.97262385
 20
8.7985850874
 30
0.0
 10
7.9757637984
 20
8.7893376513
 30
0.0
 10
7.9790085504
 20
8.7805781872
 30
0.0
 10
7.9823548665
 20
8.7723157955
 30
0.0
 10
7.9857992015
 20
8.7645589906
 30
0.0
 10
7.989338017
 20
8.7573157122
 30
0.0
 10
7.9929678263
 20
8.7505934185
 30
0.0
 10
7.9966849317
 20
8.7443987449
 30
0.0
 10
8.0004857566
 20
8.7387383583
 30
0.0
 10
8.0031508105
 20
8.7352220237
 30
0.0
 10
8.0044985816
 20
8.7335615114
 30
0.0
  0
SPLINE
  5
369
100
AcDbEntity
  8
0
100
AcDbSpline
 62
7
  6
CONTINUOUS
 70
0
 71
3
 72
51
 73
47
 74
0
 42
0.0000001
 43
0.0000001
 44
0.0000000001
 40
0.0
 40
0.0
 40
0.0
 40
0.0
 40
0.0417735363
 40
0.0840385911
 40
0.1266599962
 40
0.1695087201
 40
0.212450884
 40
0.2553533712
 40
0.2980831301
 40
0.3405077005
 40
0.3824958772
 40
0.4239181609
 40
0.4646473566
 40
0.5045590791
 40
0.5435322786
 40
0.5814498129
 40
0.6181991128
 40
0.6536727576
 40
0.6877691104
 40
0.7203930517
 40
0.7514569172
 40
0.7663791578
 40
0.7808823362
 40
0.7949581877
 40
0.808598944
 40
0.8217976252
 40
0.8345482068
 40
0.8468453073
 40
0.8586847759
 40
0.8700634469
 40
0.8809792868
 40
0.8914318782
 40
0.9014221013
 40
0.9109527856
 40
0.920028839
 40
0.9286573638
 40
0.936848521
 40
0.9446155303
 40
0.9519754727
 40
0.9589500094
 40
0.9655657417
 40
0.9778459246
 40
0.9836071538
 40
0.9891799161
 40
0.9946230112
 40
1.0
 40
1.0
 40
1.0
 40
1.0
 10
7.5373944822
 20
9.1484846075
 30
0.0
 10
7.5373944822
 20
9.1583906372
 30
0.0
 10
7.5375490608
 20
9.1783195644
 30
0.0
 10
7.5382322396
 20
9.2083485432
 30
0.0
 10
7.5393662859
 20
9.2386190709
 30
0.0
 10
7.5409472886
 20
9.2690302953
 30
0.0
 10
7.5429701639
 20
9.2994821275
 30
0.0
 10
7.5454281733
 20
9.3298736267
 30
0.0
 10
7.5483131648
 20
9.3601042873
 30
0.0
 10
7.5516155797
 20
9.3900741038
 30
0.0
 10
7.5553244716
 20
9.4196839225
 30
0.0
 10
7.5594275379
 20
9.448835801
 30
0.0
 10
7.5639111279
 20
9.4774333293
 30
0.0
 10
7.568760338
 20
9.5053819465
 30
0.0
 10
7.5739590494
 20
9.5325892465
 30
0.0
 10
7.5794899868
 20
9.5589652982
 30
0.0
 10
7.5853347179
 20
9.5844229776
 30
0.0
 10
7.5914737695
 20
9.608878231
 30
0.0
 10
7.5978866813
 20
9.6322504275
 30
0.0
 10
7.6045521045
 20
9.654462363
 30
0.0
 10
7.6103737729
 20
9.6721740553
 30
0.0
 10
7.6151510808
 20
9.6856998556
 30
0.0
 10
7.6187353197
 20
9.6953733624
 30
0.0
 10
7.6223657509
 20
9.7047043006
 30
0.0
 10
7.6260394476
 20
9.7136849781
 30
0.0
 10
7.6297533963
 20
9.7223079821
 30
0.0
 10
7.6335044159
 20
9.7305662512
 30
0.0
 10
7.6372895387
 20
9.7384529573
 30
0.0
 10
7.6411055533
 20
9.7459616582
 30
0.0
 10
7.6449493114
 20
9.7530862136
 30
0.0
 10
7.6488177629
 20
9.7598207561
 30
0.0
 10
7.6527075974
 20
9.7661598678
 30
0.0
 10
7.6566157789
 20
9.7720983496
 30
0.0
 10
7.6605391312
 20
9.7776314085
 30
0.0
 10
7.6644744483
 20
9.7827546433
 30
0.0
 10
7.6684188161
 20
9.7874638353
 30
0.0
 10
7.6723690254
 20
9.7917553044
 30
0.0
 10
7.6763222827
 20
9.7956255926
 30
0.0
 10
7.6802754882
 20
9.7990713281
 30
0.0
 10
7.6842267221
 20
9.8020902398
 30
0.0
 10
7.6893583922
 20
9.8054573868
 30
0.0
 10
7.694619621
 20
9.8080908187
 30
0.0
 10
7.6999487918
 20
9.8098373993
 30
0.0
 10
7.703845115
 20
9.8106798624
 30
0.0
 10
7.7077196189
 20
9.8110797484
 30
0.0
 10
7.7102919926
 20
9.8110503498
 30
0.0
 10
7.7115640183
 20
9.8109621444
 30
0.0
  0
SPLINE
  5
36A
100
AcDbEntity
  8
0
100
AcDbSpline
 62
7
  6
CONTINUOUS
 70
0
 71
3
 72
46
 73
42
 74
0
 42
0.0000001
 43
0.0000001
 44
0.0000000001
 40
0.0
 40
0.0
 40
0.0
 40
0.0
 40
0.0964112573
 40
0.1436642632
 40
0.1901845353
 40
0.2359039915
 40
0.2807534489
 40
0.3246659085
 40
0.3675769896
 40
0.4094245194
 40
0.4501483608
 40
0.4896914132
 40
0.5279990476
 40
0.5650202109
 40
0.6007067812
 40
0.6350148403
 40
0.6679042138
 40
0.6993396091
 40
0.7292907139
 40
0.7577330783
 40
0.7846490658
 40
0.8100285665
 40
0.8338710597
 40
0.8561865721
 40
0.8667797492
 40
0.8770014518
 40
0.8868571961
 40
0.8963539924
 40
0.9055001914
 40
0.9143056193
 40
0.9227819967
 40
0.9309431475
 40
0.938804972
 40
0.9463857028
 40
0.960783574
 40
0.9676579658
 40
0.9743518441
 40
0.9808974094
 40
0.9873292816
 40
0.9936840962
 40
1.0
 40
1.0
 40
1.0
 40
1.0
 10
7.5373944822
 20
9.1484846075
 30
0.0
 10
7.5373944822
 20
9.1347516771
 30
0.0
 10
7.5376141503
 20
9.1142868999
 30
0.0
 10
7.5383714228
 20
9.0872069498
 30
0.0
 10
7.5391604863
 20
9.0673526109
 30
0.0
 10
7.5401730405
 20
9.0478512497
 30
0.0
 10
7.5414074136
 20
9.0287348494
 30
0.0
 10
7.5428615551
 20
9.0100350883
 30
0.0
 10
7.5445330579
 20
8.9917828074
 30
0.0
 10
7.5464190691
 20
8.9740080723
 30
0.0
 10
7.548516551
 20
8.9567401707
 30
0.0
 10
7.5508218766
 20
8.9400075709
 30
0.0
 10
7.5533313553
 20
8.9238378194
 30
0.0
 10
7.5560406419
 20
8.9082575344
 30
0.0
 10
7.5589453845
 20
8.8932923367
 30
0.0
 10
7.5620405963
 20
8.8789668132
 30
0.0
 10
7.5653212459
 20
8.8653044689
 30
0.0
 10
7.5687817947
 20
8.8523276733
 30
0.0
 10
7.5724165374
 20
8.8400576263
 30
0.0
 10
7.5762194811
 20
8.8285142976
 30
0.0
 10
7.5801842942
 20
8.8177163987
 30
0.0
 10
7.5843046688
 20
8.8076812545
 30
0.0
 10
7.5885737409
 20
8.7984251174
 30
0.0
 10
7.5923120971
 20
8.7912531668
 30
0.0
 10
7.5953801122
 20
8.7859296547
 30
0.0
 10
7.5976739565
 20
8.7822107087
 30
0.0
 10
7.5999997508
 20
8.7786974342
 30
0.0
 10
7.6023565533
 20
8.7753911973
 30
0.0
 10
7.6047434308
 20
8.7722933209
 30
0.0
 10
7.6071595124
 20
8.7694051215
 30
0.0
 10
7.6096039157
 20
8.7667277843
 30
0.0
 10
7.6120755979
 20
8.7642624117
 30
0.0
 10
7.614573928
 20
8.7620098632
 30
0.0
 10
7.61788156
 20
8.7593382458
 30
0.0
 10
7.6212994172
 20
8.7570328302
 30
0.0
 10
7.6248126456
 20
8.7551494843
 30
0.0
 10
7.6274291681
 20
8.7539759979
 30
0.0
 10
7.6300661312
 20
8.7530207734
 30
0.0
 10
7.6327225154
 20
8.7522843526
 30
0.0
 10
7.6353967862
 20
8.7517673974
 30
0.0
 10
7.6371930558
 20
8.7515691013
 30
0.0
 10
7.6380905453
 20
8.7515068672
 30
0.0
  0
SPLINE
  5
36B
100
AcDbEntity
  8
0
100
AcDbSpline
 62
7
  6
CONTINUOUS
 70
0
 71
3
 72
9
 73
5
 74
0
 42
0.0000001
 43
0.0000001
 44
0.0000000001
 40
0.0
 40
0.0
 40
0.0
 40
0.0
 40
0.5141854272
 40
1.0
 40
1.0
 40
1.0
 40
1.0
 10
9.886797555
 20
10.0725093604
 30
0.0
 10
9.8892825032
 20
10.0749096362
 30
0.0
 10
9.8942489608
 20
10.0794421051
 30
0.0
 10
9.8995021823
 20
10.083641479
 30
0.0
 10
9.9021267662
 20
10.0855823522
 30
0.0
  0
SPLINE
  5
36C
100
AcDbEntity
  8
0
100
AcDbSpline
 62
7
  6
CONTINUOUS
 70
0
 71
3
 72
9
 73
5
 74
0
 42
0.0000001
 43
0.0000001
 44
0.0000000001
 40
0.0
 40
0.0
 40
0.0
 40
0.0
 40
0.4861313864
 40
1.0
 40
1.0
 40
1.0
 40
1.0
 10
9.886797555
 20
10.0725093604
 30
0.0
 10
9.8841682316
 20
10.0699696289
 30
0.0
 10
9.8789155134
 20
10.0645822805
 30
0.0
 10
9.8739514705
 20
10.0589293551
 30
0.0
 10
9.8714683439
 20
10.0559685885
 30
0.0
  0
SPLINE
  5
36D
100
AcDbEntity
  8
0
100
AcDbSpline
 62
7
  6
CONTINUOUS
 70
0
 71
3
 72
11
 73
7
 74
0
 42
0.0000001
 43
0.0000001
 44
0.0000000001
 40
0.0
 40
0.0
 40
0.0
 40
0.0
 40
0.2600900101
 40
0.5135755945
 40
0.760270387
 40
1.0
 40
1.0
 40
1.0
 40
1.0
 10
9.6603227777
 20
8.487150018
 30
0.0
 10
9.6614505042
 20
8.479808238
 30
0.0
 10
9.6637708172
 20
8.4653252591
 30
0.0
 10
9.6674995026
 20
8.4439346155
 30
0.0
 10
9.6714291259
 20
8.4231714418
 30
0.0
 10
9.6742209628
 20
8.4095624242
 30
0.0
 10
9.6756519888
 20
8.4028672337
 30
0.0
  0
SPLINE
  5
36E
100
AcDbEntity
  8
0
100
AcDbSpline
 62
7
  6
CONTINUOUS
 70
0
 71
3
 72
11
 73
7
 74
0
 42
0.0000001
 43
0.0000001
 44
0.0000000001
 40
0.0
 40
0.0
 40
0.0
 40
0.0
 40
0.2600900101
 40
0.5135755945
 40
0.760270387
 40
1.0
 40
1.0
 40
1.0
 40
1.0
 10
8.9408309875
 20
8.5370469431
 30
0.0
 10
8.941958714
 20
8.5297051631
 30
0.0
 10
8.944279027
 20
8.5152221842
 30
0.0
 10
8.9480077124
 20
8.4938315406
 30
0.0
 10
8.9519373357
 20
8.4730683669
 30
0.0
 10
8.9547291727
 20
8.4594593494
 30
0.0
 10
8.9561601986
 20
8.4527641588
 30
0.0
  0
SPLINE
  5
36F
100
AcDbEntity
  8
0
100
AcDbSpline
 62
7
  6
CONTINUOUS
 70
0
 71
3
 72
18
 73
14
 74
0
 42
0.0000001
 43
0.0000001
 44
0.0000000001
 40
0.0
 40
0.0
 40
0.0
 40
0.0
 40
0.1504599197
 40
0.2917085115
 40
0.4244384276
 40
0.549563224
 40
0.6682130765
 40
0.7255490886
 40
0.7817910816
 40
0.8371402773
 40
0.8918094052
 40
0.9460201134
 40
1.0
 40
1.0
 40
1.0
 40
1.0
 10
10.0056064387
 20
9.9454610527
 30
0.0
 10
10.0080234916
 20
9.9477957467
 30
0.0
 10
10.0128544569
 20
9.9521763536
 30
0.0
 10
10.0203350478
 20
9.9580145544
 30
0.0
 10
10.027807092
 20
9.962897258
 30
0.0
 10
10.035262413
 20
9.966816551
 30
0.0
 10
10.0415285369
 20
9.9693016006
 30
0.0
 10
10.0465035357
 20
9.9707781878
 30
0.0
 10
10.0501818274
 20
9.9716292968
 30
0.0
 10
10.0538479174
 20
9.9722358824
 30
0.0
 10
10.0575007721
 20
9.9725977012
 30
0.0
 10
10.0611389318
 20
9.9727146329
 30
0.0
 10
10.0635560203
 20
9.9726291627
 30
0.0
 10
10.0647587639
 20
9.9725457629
 30
0.0
  0
SPLINE
  5
370
100
AcDbEntity
  8
0
100
AcDbSpline
 62
7
  6
CONTINUOUS
 70
0
 71
3
 72
50
 73
46
 74
0
 42
0.0000001
 43
0.0000001
 44
0.0000000001
 40
0.0
 40
0.0
 40
0.0
 40
0.0
 40
0.0063158585
 40
0.0126706381
 40
0.0191024587
 40
0.0256479745
 40
0.0323418444
 40
0.0392161911
 40
0.0536139397
 40
0.0611946788
 40
0.0690564144
 40
0.077217467
 40
0.0856938549
 40
0.0944992567
 40
0.1036453229
 40
0.113142048
 40
0.1229978275
 40
0.1332194361
 40
0.1438124634
 40
0.1547814765
 40
0.1661298506
 40
0.1778599887
 40
0.1899736119
 40
0.2024717
 40
0.2153543471
 40
0.2422700901
 40
0.2707123147
 40
0.3006632398
 40
0.3320983914
 40
0.3649876409
 40
0.3992953885
 40
0.4349818445
 40
0.472002683
 40
0.5103101606
 40
0.5498529145
 40
0.5905765202
 40
0.6324237876
 40
0.6753346162
 40
0.7192468079
 40
0.7640958781
 40
0.8098151776
 40
0.8563353393
 40
0.9035877416
 40
0.9515032748
 40
1.0
 40
1.0
 40
1.0
 40
1.0
 10
8.2790104604
 20
8.4905401015
 30
0.0
 10
8.2777478915
 20
8.4906276481
 30
0.0
 10
8.2752209386
 20
8.4909066418
 30
0.0
 10
8.2714588434
 20
8.4916339329
 30
0.0
 10
8.2677218839
 20
8.4926698506
 30
0.0
 10
8.2640122373
 20
8.4940136022
 30
0.0
 10
8.2603314037
 20
8.4956645332
 30
0.0
 10
8.2553890547
 20
8.4983139552
 30
0.0
 10
8.2505808309
 20
8.5015571104
 30
0.0
 10
8.2459278034
 20
8.5053155827
 30
0.0
 10
8.2424131664
 20
8.5084843675
 30
0.0
 10
8.2389360171
 20
8.5119525626
 30
0.0
 10
8.2354973309
 20
8.5157190455
 30
0.0
 10
8.2320984534
 20
8.5197821217
 30
0.0
 10
8.2287405907
 20
8.5241400962
 30
0.0
 10
8.2254250808
 20
8.5287912393
 30
0.0
 10
8.2221532613
 20
8.5337337024
 30
0.0
 10
8.2189263319
 20
8.5389654099
 30
0.0
 10
8.2157455739
 20
8.5444842449
 30
0.0
 10
8.2126123368
 20
8.550288025
 30
0.0
 10
8.209527844
 20
8.5563743629
 30
0.0
 10
8.206493298
 20
8.5627407455
 30
0.0
 10
8.203509977
 20
8.5693846053
 30
0.0
 10
8.2005791202
 20
8.576303267
 30
0.0
 10
8.196685848
 20
8.586033258
 30
0.0
 10
8.1919714767
 20
8.5988727188
 30
0.0
 10
8.1866216128
 20
8.6151115046
 30
0.0
 10
8.1815083365
 20
8.6323727976
 30
0.0
 10
8.1766400601
 20
8.6506282743
 30
0.0
 10
8.1720249852
 20
8.6698481899
 30
0.0
 10
8.1676706102
 20
8.6900010422
 30
0.0
 10
8.1635843759
 20
8.71105378
 30
0.0
 10
8.159772917
 20
8.7329718111
 30
0.0
 10
8.156242706
 20
8.7557190869
 30
0.0
 10
8.1529995714
 20
8.77925817
 30
0.0
 10
8.1500488996
 20
8.8035502983
 30
0.0
 10
8.1473956944
 20
8.8285554394
 30
0.0
 10
8.1450442442
 20
8.854232379
 30
0.0
 10
8.1429986145
 20
8.8805388076
 30
0.0
 10
8.1412620889
 20
8.9074313698
 30
0.0
 10
8.1398376743
 20
8.9348655423
 30
0.0
 10
8.1387276435
 20
8.962796172
 30
0.0
 10
8.1379338899
 20
8.9911778242
 30
0.0
 10
8.1374578737
 20
9.0199626494
 30
0.0
 10
8.1373532895
 20
9.0392823537
 30
0.0
 10
8.1373532895
 20
9.0490003485
 30
0.0
  0
SPLINE
  5
371
100
AcDbEntity
  8
0
100
AcDbSpline
 62
7
  6
CONTINUOUS
 70
0
 71
3
 72
23
 73
19
 74
0
 42
0.0000001
 43
0.0000001
 44
0.0000000001
 40
0.0
 40
0.0
 40
0.0
 40
0.0
 40
0.06350184
 40
0.1269026
 40
0.1901908638
 40
0.2533553875
 40
0.3163854289
 40
0.3792715515
 40
0.4420063089
 40
0.5045849307
 40
0.5670057766
 40
0.6292705131
 40
0.691383957
 40
0.7533536037
 40
0.8151889903
 40
0.8769009107
 40
0.9385008193
 40
1.0
 40
1.0
 40
1.0
 40
1.0
 10
8.9408309875
 20
8.5370469431
 30
0.0
 10
8.936392187
 20
8.5545684123
 30
0.0
 10
8.9279223045
 20
8.5896866941
 30
0.0
 10
8.9165550619
 20
8.6426212929
 30
0.0
 10
8.9066588441
 20
8.6957542799
 30
0.0
 10
8.8983556904
 20
8.7490536862
 30
0.0
 10
8.8917592892
 20
8.8024769261
 30
0.0
 10
8.8869684236
 20
8.8559704184
 30
0.0
 10
8.884060065
 20
8.9094713024
 30
0.0
 10
8.8830833135
 20
8.9629102752
 30
0.0
 10
8.8840551763
 20
9.0162156209
 30
0.0
 10
8.8869590304
 20
9.069317795
 30
0.0
 10
8.8917460871
 20
9.1221538379
 30
0.0
 10
8.8983395657
 20
9.1746709224
 30
0.0
 10
8.9066407396
 20
9.2268284678
 30
0.0
 10
8.9165358691
 20
9.2785990287
 30
0.0
 10
8.9279027733
 20
9.3299669901
 30
0.0
 10
8.9363855524
 20
9.3639678267
 30
0.0
 10
8.9408309875
 20
9.380898901
 30
0.0
  0
SPLINE
  5
372
100
AcDbEntity
  8
0
100
AcDbSpline
 62
7
  6
CONTINUOUS
 70
0
 71
3
 72
92
 73
88
 74
0
 42
0.0000001
 43
0.0000001
 44
0.0000000001
 40
0.0
 40
0.0
 40
0.0
 40
0.0
 40
0.0039882018
 40
0.0081451501
 40
0.0124744754
 40
0.0169791359
 40
0.0216616024
 40
0.0265238558
 40
0.0315673913
 40
0.0367930595
 40
0.0422012446
 40
0.0477920185
 40
0.0535650467
 40
0.0595196674
 40
0.0656550079
 40
0.0719698706
 40
0.0851316892
 40
0.0989914312
 40
0.113531724
 40
0.1287323873
 40
0.1445708566
 40
0.1610222718
 40
0.1780598164
 40
0.1956549132
 40
0.2137772368
 40
0.2323950402
 40
0.2514752325
 40
0.2709834065
 40
0.2908840966
 40
0.3111408066
 40
0.3317161297
 40
0.3525719085
 40
0.3736692349
 40
0.3949686318
 40
0.4164301619
 40
0.4380134596
 40
0.4596778762
 40
0.4813825638
 40
0.5030865944
 40
0.5247490435
 40
0.5463290555
 40
0.5677859972
 40
0.5890795264
 40
0.610169697
 40
0.6310170656
 40
0.6515827436
 40
0.671828579
 40
0.6917172306
 40
0.7112121972
 40
0.7302780411
 40
0.7488804504
 40
0.7669863115
 40
0.7845639417
 40
0.8015831095
 40
0.8180152153
 40
0.8338335632
 40
0.8490133657
 40
0.8635320611
 40
0.8773696413
 40
0.8840276479
 40
0.8905091747
 40
0.896812535
 40
0.9029362785
 40
0.9088792795
 40
0.9146406082
 40
0.9202196157
 40
0.9256160678
 40
0.9308300203
 40
0.9358618903
 40
0.9407126294
 40
0.9453836247
 40
0.9498767658
 40
0.954194658
 40
0.9583405687
 40
0.9623184982
 40
0.9661334272
 40
0.9697913271
 40
0.9732992451
 40
0.9766655655
 40
0.97990007
 40
0.9830140063
 40
0.9860202835
 40
0.9889334771
 40
0.9917697503
 40
0.9945467971
 40
0.9972835883
 40
1.0
 40
1.0
 40
1.0
 40
1.0
 10
10.0056064387
 20
9.9454610527
 30
0.0
 10
10.0039172773
 20
9.9438294479
 30
0.0
 10
10.0005407416
 20
9.9404206719
 30
0.0
 10
9.9955817358
 20
9.9349992195
 30
0.0
 10
9.9906277537
 20
9.9291680445
 30
0.0
 10
9.9856817428
 20
9.9229303068
 30
0.0
 10
9.9807460535
 20
9.9162892293
 30
0.0
 10
9.975823002
 20
9.9092480558
 30
0.0
 10
9.9709150193
 20
9.9018101205
 30
0.0
 10
9.9660244382
 20
9.8939791302
 30
0.0
 10
9.9611536662
 20
9.8857590119
 30
0.0
 10
9.9563052572
 20
9.8771538124
 30
0.0
 10
9.9514815968
 20
9.8681678584
 30
0.0
 10
9.9466850448
 20
9.8588056689
 30
0.0
 10
9.9419180515
 20
9.8490718567
 30
0.0
 10
9.9355161884
 20
9.8354154515
 30
0.0
 10
9.9276191021
 20
9.8174398
 30
0.0
 10
9.9184240976
 20
9.7947555397
 30
0.0
 10
9.9094028912
 20
9.7707150619
 30
0.0
 10
9.9005736419
 20
9.7453665588
 30
0.0
 10
9.8919542983
 20
9.7187606033
 30
0.0
 10
9.8835621977
 20
9.6909504972
 30
0.0
 10
9.8754142859
 20
9.6619919677
 30
0.0
 10
9.8675271228
 20
9.631943086
 30
0.0
 10
9.859916546
 20
9.6008641887
 30
0.0
 10
9.8525979606
 20
9.5688176807
 30
0.0
 10
9.8455861998
 20
9.5358679228
 30
0.0
 10
9.8388953268
 20
9.5020811377
 30
0.0
 10
9.8325389098
 20
9.4675252346
 30
0.0
 10
9.8265297882
 20
9.4322696748
 30
0.0
 10
9.8208800112
 20
9.3963853417
 30
0.0
 10
9.8156010517
 20
9.3599443802
 30
0.0
 10
9.8107035287
 20
9.3230200734
 30
0.0
 10
9.8061972705
 20
9.2856866852
 30
0.0
 10
9.8020914407
 20
9.2480192825
 30
0.0
 10
9.7983942535
 20
9.2100936215
 30
0.0
 10
9.795113142
 20
9.1719859926
 30
0.0
 10
9.7922547868
 20
9.1337730348
 30
0.0
 10
9.7898248603
 20
9.0955316047
 30
0.0
 10
9.7878282679
 20
9.0573386145
 30
0.0
 10
9.7862690714
 20
9.0192708819
 30
0.0
 10
9.7851503132
 20
8.9814049827
 30
0.0
 10
9.7844742817
 20
8.9438170672
 30
0.0
 10
9.784242334
 20
8.9065827234
 30
0.0
 10
9.7844548383
 20
8.8697768417
 30
0.0
 10
9.7851114169
 20
8.8334734401
 30
0.0
 10
9.7862106903
 20
8.7977455131
 30
0.0
 10
9.7877503557
 20
8.7626648943
 30
0.0
 10
9.7897273615
 20
8.7283021137
 30
0.0
 10
9.7921376125
 20
8.6947262471
 30
0.0
 10
9.7949761821
 20
8.6620047699
 30
0.0
 10
9.7982373798
 20
8.6302034217
 30
0.0
 10
9.8019144728
 20
8.5993860714
 30
0.0
 10
9.8059999996
 20
8.5696145973
 30
0.0
 10
9.810485709
 20
8.5409487316
 30
0.0
 10
9.8153623671
 20
8.5134459451
 30
0.0
 10
9.8206201066
 20
8.4871612667
 30
0.0
 10
9.8262482923
 20
8.4621474591
 30
0.0
 10
9.8313001634
 20
8.4421544498
 30
0.0
 10
9.835530015
 20
8.4268416817
 30
0.0
 10
9.8387470084
 20
8.4158533011
 30
0.0
 10
9.8420477911
 20
8.4052187496
 30
0.0
 10
9.8454307831
 20
8.3949433575
 30
0.0
 10
9.8488941772
 20
8.3850322323
 30
0.0
 10
9.8524362693
 20
8.3754903388
 30
0.0
 10
9.8560553632
 20
8.3663224733
 30
0.0
 10
9.8597495435
 20
8.3575331591
 30
0.0
 10
9.8635169838
 20
8.3491267727
 30
0.0
 10
9.8673559166
 20
8.3411075405
 30
0.0
 10
9.8712643353
 20
8.3334793848
 30
0.0
 10
9.8752403133
 20
8.3262460709
 30
0.0
 10
9.8792820351
 20
8.3194112437
 30
0.0
 10
9.8833874471
 20
8.3129782117
 30
0.0
 10
9.8875545627
 20
8.3069501102
 30
0.0
 10
9.8917815568
 20
8.3013300048
 30
0.0
 10
9.8960663905
 20
8.2961206138
 30
0.0
 10
9.9004070719
 20
8.291324475
 30
0.0
 10
9.9048018054
 20
8.2869441441
 30
0.0
 10
9.9092486095
 20
8.2829818595
 30
0.0
 10
9.9137454962
 20
8.2794396868
 30
0.0
 10
9.9182906379
 20
8.2763198393
 30
0.0
 10
9.9228819824
 20
8.2736242822
 30
0.0
 10
9.9275173358
 20
8.2713547701
 30
0.0
 10
9.9321944251
 20
8.2695132638
 30
0.0
 10
9.9369107995
 20
8.2681013938
 30
0.0
 10
9.9416630588
 20
8.267120351
 30
0.0
 10
9.9448583615
 20
8.2667537333
 30
0.0
 10
9.9464541135
 20
8.2666430817
 30
0.0
  0
SPLINE
  5
373
100
AcDbEntity
  8
0
100
AcDbSpline
 62
7
  6
CONTINUOUS
 70
0
 71
3
 72
32
 73
28
 74
0
 42
0.0000001
 43
0.0000001
 44
0.0000000001
 40
0.0
 40
0.0
 40
0.0
 40
0.0
 40
0.0609405812
 40
0.1220034504
 40
0.1832138233
 40
0.2138856192
 40
0.2446050863
 40
0.2753760131
 40
0.3062020517
 40
0.3370865232
 40
0.3680328139
 40
0.3990435233
 40
0.4301211149
 40
0.4612672289
 40
0.4924829369
 40
0.5237686136
 40
0.5551238429
 40
0.5865475943
 40
0.6180380455
 40
0.6495930117
 40
0.6812095429
 40
0.7128846373
 40
0.7446147675
 40
0.808221033
 40
0.872005333
 40
0.9359399848
 40
1.0
 40
1.0
 40
1.0
 40
1.0
 10
9.6603227777
 20
8.487150018
 30
0.0
 10
9.6677503476
 20
8.5032649484
 30
0.0
 10
9.6820235623
 20
8.5358073246
 30
0.0
 10
9.7014115341
 20
8.5855234993
 30
0.0
 10
9.7156644907
 20
8.6277352985
 30
0.0
 10
9.7257860324
 20
8.6619723325
 30
0.0
 10
9.7327066502
 20
8.6879033305
 30
0.0
 10
9.7389154444
 20
8.7140602096
 30
0.0
 10
9.7443777632
 20
8.7404324765
 30
0.0
 10
9.7490619748
 20
8.7670061015
 30
0.0
 10
9.7529379576
 20
8.793764149
 30
0.0
 10
9.7559810062
 20
8.8206864406
 30
0.0
 10
9.7581698183
 20
8.8477501277
 30
0.0
 10
9.7594888723
 20
8.8749299615
 30
0.0
 10
9.7599293082
 20
8.9021988485
 30
0.0
 10
9.7594869033
 20
8.9295285685
 30
0.0
 10
9.7581659554
 20
8.956890483
 30
0.0
 10
9.7559753908
 20
8.9842562194
 30
0.0
 10
9.7529307941
 20
9.011598461
 30
0.0
 10
9.7490534907
 20
9.0388915777
 30
0.0
 10
9.7443682429
 20
9.0661119177
 30
0.0
 10
9.7389050956
 20
9.0932387605
 30
0.0
 10
9.7306199547
 20
9.1292850215
 30
0.0
 10
9.7184810752
 20
9.1740201412
 30
0.0
 10
9.7013678926
 20
9.2270542739
 30
0.0
 10
9.6819828959
 20
9.2794379915
 30
0.0
 10
9.667737512
 20
9.3138864666
 30
0.0
 10
9.6603227777
 20
9.3310019759
 30
0.0
  0
SPLINE
  5
374
100
AcDbEntity
  8
0
100
AcDbSpline
 62
7
  6
CONTINUOUS
 70
0
 71
3
 72
23
 73
19
 74
0
 42
0.0000001
 43
0.0000001
 44
0.0000000001
 40
0.0
 40
0.0
 40
0.0
 40
0.0
 40
0.0600358675
 40
0.1202169046
 40
0.1805756916
 40
0.2411503749
 40
0.3019819165
 40
0.3631141575
 40
0.4245928764
 40
0.4864643691
 40
0.5487737482
 40
0.6115631535
 40
0.6748701842
 40
0.7387263174
 40
0.8031555931
 40
0.8681738906
 40
0.9337888367
 40
1.0
 40
1.0
 40
1.0
 40
1.0
 10
8.9561601986
 20
9.4947954489
 30
0.0
 10
8.9558284712
 20
9.5043307219
 30
0.0
 10
8.9554059895
 20
9.523433749
 30
0.0
 10
8.9555445435
 20
9.5521344602
 30
0.0
 10
8.9565051968
 20
9.5809057381
 30
0.0
 10
8.9583378137
 20
9.6097386468
 30
0.0
 10
8.9610904191
 20
9.6386222414
 30
0.0
 10
8.9648074779
 20
9.6675428771
 30
0.0
 10
8.9695285061
 20
9.6964844934
 30
0.0
 10
8.9752866334
 20
9.7254287712
 30
0.0
 10
8.982107001
 20
9.7543555233
 30
0.0
 10
8.9900052662
 20
9.7832433588
 30
0.0
 10
8.9989871332
 20
9.8120703423
 30
0.0
 10
9.0090480182
 20
9.8408147708
 30
0.0
 10
9.0201730489
 20
9.8694559475
 30
0.0
 10
9.0323375141
 20
9.8979751536
 30
0.0
 10
9.0455081785
 20
9.9263556177
 30
0.0
 10
9.0548910147
 20
9.9450909818
 30
0.0
 10
9.0597341943
 20
9.9544325679
 30
0.0
  0
LINE
  5
375
100
AcDbEntity
  8
0
100
AcDbLine
 62
7
  6
CONTINUOUS
 10
9.0597341943
 20
9.9544325679
 11
9.0602857945
 21
9.9554951201
  0
SPLINE
  5
376
100
AcDbEntity
  8
0
100
AcDbSpline
 62
7
  6
CONTINUOUS
 70
0
 71
3
 72
35
 73
31
 74
0
 42
0.0000001
 43
0.0000001
 44
0.0000000001
 40
0.0
 40
0.0
 40
0.0
 40
0.0
 40
0.070816789
 40
0.1058535329
 40
0.140620425
 40
0.1751029104
 40
0.209285476
 40
0.2431538762
 40
0.2766946639
 40
0.3427417653
 40
0.3752398832
 40
0.4073798072
 40
0.4391622219
 40
0.4705922148
 40
0.5016792263
 40
0.5324374235
 40
0.5628849843
 40
0.5930442111
 40
0.6229403947
 40
0.6526011611
 40
0.6820558448
 40
0.7113339041
 40
0.7404649528
 40
0.7694771562
 40
0.7983972064
 40
0.827249741
 40
0.8560567838
 40
0.8848381217
 40
0.9423827608
 40
1.0
 40
1.0
 40
1.0
 40
1.0
 10
9.6756519888
 20
9.4448985238
 30
0.0
 10
9.6868547261
 20
9.4563403231
 30
0.0
 10
9.7033209748
 20
9.4737211774
 30
0.0
 10
9.7245165031
 20
9.4974255013
 30
0.0
 10
9.7398707426
 20
9.515325251
 30
0.0
 10
9.7547037447
 20
9.5334103459
 30
0.0
 10
9.7689794964
 20
9.5516815939
 30
0.0
 10
9.7826611115
 20
9.5701383317
 30
0.0
 10
9.7999697247
 20
9.5948609874
 30
0.0
 10
9.8160410694
 20
9.6200623272
 30
0.0
 10
9.8306908992
 20
9.6457309198
 30
0.0
 10
9.8408428997
 20
9.6650308984
 30
0.0
 10
9.8501875059
 20
9.6844669876
 30
0.0
 10
9.8586978699
 20
9.7040236469
 30
0.0
 10
9.8663520881
 20
9.7236829717
 30
0.0
 10
9.8731345473
 20
9.7434253536
 30
0.0
 10
9.8790342
 20
9.7632306632
 30
0.0
 10
9.8840483614
 20
9.7830775798
 30
0.0
 10
9.8881793023
 20
9.8029452907
 30
0.0
 10
9.8914362691
 20
9.8228133294
 30
0.0
 10
9.8938348273
 20
9.8426622342
 30
0.0
 10
9.8953945815
 20
9.8624742177
 30
0.0
 10
9.8961412628
 20
9.8822330524
 30
0.0
 10
9.8961028087
 20
9.9019246642
 30
0.0
 10
9.8953110127
 20
9.9215369991
 30
0.0
 10
9.8937990405
 20
9.9410600467
 30
0.0
 10
9.8916014747
 20
9.9604860339
 30
0.0
 10
9.8878046736
 20
9.9862456083
 30
0.0
 10
9.8815149537
 20
10.0182022118
 30
0.0
 10
9.8750296582
 20
10.0434364497
 30
0.0
 10
9.8714683439
 20
10.0559685885
 30
0.0
  0
SPLINE
  5
377
100
AcDbEntity
  8
0
100
AcDbSpline
 62
7
  6
CONTINUOUS
 70
0
 71
3
 72
45
 73
41
 74
0
 42
0.0000001
 43
0.0000001
 44
0.0000000001
 40
0.0
 40
0.0
 40
0.0
 40
0.0
 40
0.022417854
 40
0.0441386198
 40
0.0651985285
 40
0.0856562486
 40
0.105598012
 40
0.1251401116
 40
0.1348100254
 40
0.1444391683
 40
0.1540515511
 40
0.1636731618
 40
0.1733315103
 40
0.1830554904
 40
0.1928752199
 40
0.2028214343
 40
0.2129249026
 40
0.223216465
 40
0.2444774118
 40
0.266840237
 40
0.2905097424
 40
0.315659252
 40
0.3424272045
 40
0.3709180507
 40
0.4012006684
 40
0.4170284993
 40
0.4333160751
 40
0.467270004
 40
0.503050434
 40
0.5406236536
 40
0.579938782
 40
0.6209332538
 40
0.6635348538
 40
0.7076658588
 40
0.7532445987
 40
0.800188581
 40
0.8484148564
 40
0.8978441249
 40
0.9483978928
 40
1.0
 40
1.0
 40
1.0
 40
1.0
 10
9.8714683439
 20
8.1700853405
 30
0.0
 10
9.8732230348
 20
8.1720877717
 30
0.0
 10
9.8765786075
 20
8.1761191585
 30
0.0
 10
9.8811795356
 20
8.1823532746
 30
0.0
 10
9.8852356551
 20
8.1886815766
 30
0.0
 10
9.8887125423
 20
8.1951080622
 30
0.0
 10
9.891574907
 20
8.201635701
 30
0.0
 10
9.8934241634
 20
8.207183176
 30
0.0
 10
9.8945519623
 20
8.2116579074
 30
0.0
 10
9.8952191893
 20
8.2150277684
 30
0.0
 10
9.8957061331
 20
8.2184225858
 30
0.0
 10
9.8960084406
 20
8.2218423689
 30
0.0
 10
9.8961220626
 20
8.2252869157
 30
0.0
 10
9.8960430468
 20
8.2287560035
 30
0.0
 10
9.8957673778
 20
8.232249344
 30
0.0
 10
9.8952913878
 20
8.2357665258
 30
0.0
 10
9.8946118471
 20
8.2393072368
 30
0.0
 10
9.8934174065
 20
8.2441102656
 30
0.0
 10
9.891374746
 20
8.2501920914
 30
0.0
 10
9.8880888079
 20
8.2574901361
 30
0.0
 10
9.883929268
 20
8.2648620828
 30
0.0
 10
9.8788894762
 20
8.2723016725
 30
0.0
 10
9.8729683909
 20
8.279803683
 30
0.0
 10
9.8661698957
 20
8.287361185
 30
0.0
 10
9.8598780237
 20
8.2936054401
 30
0.0
 10
9.8544288202
 20
8.2986286397
 30
0.0
 10
9.848536154
 20
8.3038110901
 30
0.0
 10
9.8406417108
 20
8.3103009051
 30
0.0
 10
9.8304915846
 20
8.318012009
 30
0.0
 10
9.8195670793
 20
8.3257431131
 30
0.0
 10
9.8079016641
 20
8.3334877017
 30
0.0
 10
9.795530439
 20
8.3412391367
 30
0.0
 10
9.7824902543
 20
8.348991838
 30
0.0
 10
9.768818495
 20
8.3567405684
 30
0.0
 10
9.7545525763
 20
8.364480899
 30
0.0
 10
9.7397294012
 20
8.3722089397
 30
0.0
 10
9.7243847361
 20
8.3799215822
 30
0.0
 10
9.708552998
 20
8.38761611
 30
0.0
 10
9.6922672526
 20
8.3952905007
 30
0.0
 10
9.6812363343
 20
8.4003425802
 30
0.0
 10
9.6756519888
 20
8.4028672337
 30
0.0
  0
SPLINE
  5
378
100
AcDbEntity
  8
0
100
AcDbSpline
 62
7
  6
CONTINUOUS
 70
0
 71
3
 72
75
 73
71
 74
0
 42
0.0000001
 43
0.0000001
 44
0.0000000001
 40
0.0
 40
0.0
 40
0.0
 40
0.0
 40
0.003689916
 40
0.0075220309
 40
0.0114998729
 40
0.0156263427
 40
0.0199037469
 40
0.0243339669
 40
0.0289184996
 40
0.0336583755
 40
0.0385542799
 40
0.0436066485
 40
0.0488156258
 40
0.0541810175
 40
0.0653789372
 40
0.0771953877
 40
0.0896218069
 40
0.1026470757
 40
0.1162578714
 40
0.1304387525
 40
0.145172645
 40
0.1604406907
 40
0.1762227338
 40
0.1924971148
 40
0.209241057
 40
0.2264306152
 40
0.2440407977
 40
0.2620457049
 40
0.2804184812
 40
0.2991315853
 40
0.3181566454
 40
0.3374647328
 40
0.3570262405
 40
0.376811105
 40
0.4169278282
 40
0.4575669139
 40
0.4984756463
 40
0.5393991484
 40
0.5800824309
 40
0.6202724234
 40
0.6597199648
 40
0.6790893606
 40
0.698182535
 40
0.7169703812
 40
0.7354244295
 40
0.7535168843
 40
0.7712207939
 40
0.788509948
 40
0.8053592201
 40
0.821744356
 40
0.8376423241
 40
0.853031201
 40
0.8678904424
 40
0.8822009424
 40
0.8959451016
 40
0.9091071971
 40
0.9216732816
 40
0.9336317933
 40
0.9449734793
 40
0.9556921477
 40
0.9608170146
 40
0.9657853448
 40
0.9705973551
 40
0.9752535838
 40
0.9797550426
 40
0.9841030754
 40
0.9882993688
 40
0.9923459367
 40
0.9962451792
 40
1.0
 40
1.0
 40
1.0
 40
1.0
 10
8.1341352147
 20
8.5259776794
 30
0.0
 10
8.1329808985
 20
8.5273969941
 30
0.0
 10
8.1306876115
 20
8.5303394169
 30
0.0
 10
8.1273541109
 20
8.5349664661
 30
0.0
 10
8.124064348
 20
8.5398872801
 30
0.0
 10
8.1208197183
 20
8.5450997536
 30
0.0
 10
8.1176214165
 20
8.550601721
 30
0.0
 10
8.1144707498
 20
8.5563909416
 30
0.0
 10
8.1113690748
 20
8.5624651041
 30
0.0
 10
8.1083175945
 20
8.5688216762
 30
0.0
 10
8.1053175253
 20
8.5754580211
 30
0.0
 10
8.1023701496
 20
8.5823714445
 30
0.0
 10
8.0994766957
 20
8.5895591313
 30
0.0
 10
8.0956373998
 20
8.599648548
 30
0.0
 10
8.0909938155
 20
8.6129340798
 30
0.0
 10
8.0857315395
 20
8.6297018058
 30
0.0
 10
8.0807114935
 20
8.6474867404
 30
0.0
 10
8.075942025
 20
8.66625947
 30
0.0
 10
8.0714312207
 20
8.6859891358
 30
0.0
 10
8.067186475
 20
8.7066431386
 30
0.0
 10
8.063215111
 20
8.7281873317
 30
0.0
 10
8.0595235846
 20
8.7505860482
 30
0.0
 10
8.0561182794
 20
8.7738021655
 30
0.0
 10
8.0530047678
 20
8.7977971859
 30
0.0
 10
8.0501883633
 20
8.8225312895
 30
0.0
 10
8.0476737739
 20
8.8479634276
 30
0.0
 10
8.0454651757
 20
8.8740513776
 30
0.0
 10
8.0435663792
 20
8.9007518032
 30
0.0
 10
8.0419804332
 20
8.9280203607
 30
0.0
 10
8.0407101654
 20
8.9558117342
 30
0.0
 10
8.0397575519
 20
8.9840797704
 30
0.0
 10
8.0391243424
 20
9.0127774689
 30
0.0
 10
8.0388114842
 20
9.041857186
 30
0.0
 10
8.0388224433
 20
9.0812554961
 30
0.0
 10
8.039646881
 20
9.1311006698
 30
0.0
 10
8.0419033794
 20
9.1913836641
 30
0.0
 10
8.0454169905
 20
9.2520072215
 30
0.0
 10
8.0501643869
 20
9.3125685766
 30
0.0
 10
8.0561139968
 20
9.3726657173
 30
0.0
 10
8.0632261652
 20
9.4318993941
 30
0.0
 10
8.0701231958
 20
9.4805042822
 30
0.0
 10
8.0761971035
 20
9.5186521599
 30
0.0
 10
8.0809838409
 20
9.546630969
 30
0.0
 10
8.0860213414
 20
9.5741044487
 30
0.0
 10
8.091301238
 20
9.6010269893
 30
0.0
 10
8.0968147831
 20
9.6273538586
 30
0.0
 10
8.1025526697
 20
9.6530413295
 30
0.0
 10
8.1085054831
 20
9.678046734
 30
0.0
 10
8.1146631195
 20
9.702328571
 30
0.0
 10
8.1210154797
 20
9.7258465308
 30
0.0
 10
8.1275518154
 20
9.7485616067
 30
0.0
 10
8.1342613186
 20
9.7704361209
 30
0.0
 10
8.1411327573
 20
9.7914338339
 30
0.0
 10
8.1481546284
 20
9.8115199926
 30
0.0
 10
8.1553153291
 20
9.8306613642
 30
0.0
 10
8.1626027493
 20
9.8488263835
 30
0.0
 10
8.1700049751
 20
9.865985057
 30
0.0
 10
8.1775094777
 20
9.8821093309
 30
0.0
 10
8.1851040289
 20
9.8971725393
 30
0.0
 10
8.1915907315
 20
9.9089912973
 30
0.0
 10
8.1968245197
 20
9.9178846441
 30
0.0
 10
8.2007056573
 20
9.9241740961
 30
0.0
 10
8.2045998005
 20
9.9301804464
 30
0.0
 10
8.2085054513
 20
9.9359012109
 30
0.0
 10
8.2124209954
 20
9.9413341438
 30
0.0
 10
8.2163449042
 20
9.9464771073
 30
0.0
 10
8.2202756664
 20
9.9513279108
 30
0.0
 10
8.224211579
 20
9.9558844942
 30
0.0
 10
8.2281506732
 20
9.9601447537
 30
0.0
 10
8.2308275284
 20
9.9628361703
 30
0.0
 10
8.2321665166
 20
9.9641295336
 30
0.0
  0
SPLINE
  5
379
100
AcDbEntity
  8
0
100
AcDbSpline
 62
7
  6
CONTINUOUS
 70
0
 71
3
 72
15
 73
11
 74
0
 42
0.0000001
 43
0.0000001
 44
0.0000000001
 40
0.0
 40
0.0
 40
0.0
 40
0.0
 40
0.1344306999
 40
0.2650166706
 40
0.3923539477
 40
0.5170313586
 40
0.6396187843
 40
0.760654304
 40
0.880633523
 40
1.0
 40
1.0
 40
1.0
 40
1.0
 10
8.9657224905
 20
8.3894836821
 30
0.0
 10
8.9646098318
 20
8.392159183
 30
0.0
 10
8.9625722492
 20
8.397500351
 30
0.0
 10
8.9600537731
 20
8.4055793933
 30
0.0
 10
8.9581020845
 20
8.4135978624
 30
0.0
 10
8.9566968815
 20
8.4215547287
 30
0.0
 10
8.9558159351
 20
8.4294496949
 30
0.0
 10
8.9554364402
 20
8.4372829829
 30
0.0
 10
8.9555348523
 20
8.4450548073
 30
0.0
 10
8.9559040113
 20
8.4502040131
 30
0.0
 10
8.9561601986
 20
8.4527641588
 30
0.0
  0
SPLINE
  5
37A
100
AcDbEntity
  8
0
100
AcDbSpline
 62
7
  6
CONTINUOUS
 70
0
 71
3
 72
50
 73
46
 74
0
 42
0.0000001
 43
0.0000001
 44
0.0000000001
 40
0.0
 40
0.0
 40
0.0
 40
0.0
 40
0.0063158585
 40
0.0126706381
 40
0.0191024587
 40
0.0256479745
 40
0.0323418444
 40
0.0392161911
 40
0.0536139397
 40
0.0611946788
 40
0.0690564144
 40
0.077217467
 40
0.0856938549
 40
0.0944992567
 40
0.1036453229
 40
0.113142048
 40
0.1229978275
 40
0.1332194361
 40
0.1438124634
 40
0.1547814765
 40
0.1661298506
 40
0.1778599887
 40
0.1899736119
 40
0.2024717
 40
0.2153543471
 40
0.2422700901
 40
0.2707123147
 40
0.3006632398
 40
0.3320983914
 40
0.3649876409
 40
0.3992953885
 40
0.4349818445
 40
0.472002683
 40
0.5103101606
 40
0.5498529145
 40
0.5905765202
 40
0.6324237876
 40
0.6753346162
 40
0.7192468079
 40
0.7640958781
 40
0.8098151776
 40
0.8563353393
 40
0.9035877416
 40
0.9515032748
 40
1.0
 40
1.0
 40
1.0
 40
1.0
 10
8.3717393453
 20
8.4841093315
 30
0.0
 10
8.3704767763
 20
8.484196878
 30
0.0
 10
8.3679498234
 20
8.4844758718
 30
0.0
 10
8.3641877282
 20
8.4852031629
 30
0.0
 10
8.3604507687
 20
8.4862390806
 30
0.0
 10
8.3567411221
 20
8.4875828322
 30
0.0
 10
8.3530602885
 20
8.4892337631
 30
0.0
 10
8.3481179395
 20
8.4918831852
 30
0.0
 10
8.3433097157
 20
8.4951263404
 30
0.0
 10
8.3386566882
 20
8.4988848127
 30
0.0
 10
8.3351420512
 20
8.5020535975
 30
0.0
 10
8.3316649019
 20
8.5055217926
 30
0.0
 10
8.3282262157
 20
8.5092882754
 30
0.0
 10
8.3248273383
 20
8.5133513517
 30
0.0
 10
8.3214694755
 20
8.5177093262
 30
0.0
 10
8.3181539656
 20
8.5223604693
 30
0.0
 10
8.3148821461
 20
8.5273029324
 30
0.0
 10
8.3116552168
 20
8.5325346399
 30
0.0
 10
8.3084744587
 20
8.5380534749
 30
0.0
 10
8.3053412216
 20
8.543857255
 30
0.0
 10
8.3022567288
 20
8.5499435929
 30
0.0
 10
8.2992221828
 20
8.5563099755
 30
0.0
 10
8.2962388618
 20
8.5629538353
 30
0.0
 10
8.2933080051
 20
8.569872497
 30
0.0
 10
8.2894147328
 20
8.579602488
 30
0.0
 10
8.2847003615
 20
8.5924419488
 30
0.0
 10
8.2793504976
 20
8.6086807346
 30
0.0
 10
8.2742372213
 20
8.6259420276
 30
0.0
 10
8.2693689449
 20
8.6441975043
 30
0.0
 10
8.26475387
 20
8.6634174199
 30
0.0
 10
8.260399495
 20
8.6835702722
 30
0.0
 10
8.2563132607
 20
8.70462301
 30
0.0
 10
8.2525018018
 20
8.7265410411
 30
0.0
 10
8.2489715908
 20
8.7492883169
 30
0.0
 10
8.2457284562
 20
8.7728274
 30
0.0
 10
8.2427777844
 20
8.7971195283
 30
0.0
 10
8.2401245793
 20
8.8221246694
 30
0.0
 10
8.2377731291
 20
8.847801609
 30
0.0
 10
8.2357274993
 20
8.8741080376
 30
0.0
 10
8.2339909737
 20
8.9010005998
 30
0.0
 10
8.2325665592
 20
8.9284347723
 30
0.0
 10
8.2314565284
 20
8.956365402
 30
0.0
 10
8.2306627747
 20
8.9847470542
 30
0.0
 10
8.2301867585
 20
9.0135318794
 30
0.0
 10
8.2300821744
 20
9.0328515837
 30
0.0
 10
8.2300821744
 20
9.0425695785
 30
0.0
  0
SPLINE
  5
37B
100
AcDbEntity
  8
0
100
AcDbSpline
 62
7
  6
CONTINUOUS
 70
0
 71
3
 72
18
 73
14
 74
0
 42
0.0000001
 43
0.0000001
 44
0.0000000001
 40
0.0
 40
0.0
 40
0.0
 40
0.0
 40
0.1504590508
 40
0.2917080413
 40
0.4244386532
 40
0.5495634263
 40
0.6682129981
 40
0.7255489145
 40
0.7817909345
 40
0.8371402578
 40
0.8918094179
 40
0.9460201193
 40
1.0
 40
1.0
 40
1.0
 40
1.0
 10
8.3306909567
 20
9.9572968405
 30
0.0
 10
8.332802687
 20
9.9593366154
 30
0.0
 10
8.337023427
 20
9.9631638729
 30
0.0
 10
8.343559106
 20
9.9682646263
 30
0.0
 10
8.3500873296
 20
9.9725305914
 30
0.0
 10
8.356600941
 20
9.9759548144
 30
0.0
 10
8.3620755506
 20
9.9781259647
 30
0.0
 10
8.3664221317
 20
9.9794160132
 30
0.0
 10
8.3696358008
 20
9.9801596097
 30
0.0
 10
8.3728388072
 20
9.9806896027
 30
0.0
 10
8.3760302554
 20
9.9810057111
 30
0.0
 10
8.3792088613
 20
9.9811078541
 30
0.0
 10
8.3813206341
 20
9.9810331733
 30
0.0
 10
8.3823714529
 20
9.9809603095
 30
0.0
  0
SPLINE
  5
37C
100
AcDbEntity
  8
0
100
AcDbSpline
 62
7
  6
CONTINUOUS
 70
0
 71
3
 72
47
 73
43
 74
0
 42
0.0000001
 43
0.0000001
 44
0.0000000001
 40
0.0
 40
0.0
 40
0.0
 40
0.0
 40
0.0378119144
 40
0.0760195639
 40
0.1145317603
 40
0.1532646769
 40
0.1921305095
 40
0.2310412342
 40
0.2699091719
 40
0.3086465168
 40
0.3471658896
 40
0.385380543
 40
0.4232045841
 40
0.4605533018
 40
0.4973433438
 40
0.5334929835
 40
0.5689224881
 40
0.6035542759
 40
0.6373131806
 40
0.6701269041
 40
0.7019261975
 40
0.7326451352
 40
0.7622216786
 40
0.7905979859
 40
0.8177207648
 40
0.8435420289
 40
0.8559515871
 40
0.8680204894
 40
0.8797445506
 40
0.8911201303
 40
0.902143943
 40
0.9128134236
 40
0.9231266674
 40
0.9330822902
 40
0.9426797976
 40
0.9519195107
 40
0.9608025733
 40
0.9693315516
 40
0.9775102484
 40
0.9853435987
 40
0.9928376619
 40
1.0
 40
1.0
 40
1.0
 40
1.0
 10
8.1373532895
 20
9.0490003485
 30
0.0
 10
8.1373532895
 20
9.0608767374
 30
0.0
 10
8.1375111833
 20
9.0847540866
 30
0.0
 10
8.1382107961
 20
9.1207216169
 30
0.0
 10
8.1393731553
 20
9.1569666388
 30
0.0
 10
8.1409953439
 20
9.1934008944
 30
0.0
 10
8.1430735046
 20
9.2299373606
 30
0.0
 10
8.1456026264
 20
9.2664878883
 30
0.0
 10
8.1485766416
 20
9.3029644215
 30
0.0
 10
8.1519883838
 20
9.3392791686
 30
0.0
 10
8.1558295853
 20
9.3753446748
 30
0.0
 10
8.1600910146
 20
9.4110740904
 30
0.0
 10
8.1647624009
 20
9.4463813888
 30
0.0
 10
8.1698324138
 20
9.4811815703
 30
0.0
 10
8.1752888303
 20
9.51539085
 30
0.0
 10
8.1811185039
 20
9.5489268749
 30
0.0
 10
8.1873072884
 20
9.5817089433
 30
0.0
 10
8.1938402254
 20
9.6136581673
 30
0.0
 10
8.20070157
 20
9.6446976716
 30
0.0
 10
8.2078746684
 20
9.6747528228
 30
0.0
 10
8.2153421459
 20
9.7037513733
 30
0.0
 10
8.2230859874
 20
9.7316236371
 30
0.0
 10
8.2310874022
 20
9.7583026992
 30
0.0
 10
8.2393269776
 20
9.7837246522
 30
0.0
 10
8.2477848208
 20
9.8078283996
 30
0.0
 10
8.255091254
 20
9.8270141938
 30
0.0
 10
8.26104111
 20
9.8416502721
 30
0.0
 10
8.265486205
 20
9.8521168654
 30
0.0
 10
8.2699704496
 20
9.8622124098
 30
0.0
 10
8.2744910886
 20
9.8719308972
 30
0.0
 10
8.2790454958
 20
9.8812664629
 30
0.0
 10
8.2836309132
 20
9.8902135372
 30
0.0
 10
8.2882445239
 20
9.898766818
 30
0.0
 10
8.2928836874
 20
9.9069211395
 30
0.0
 10
8.2975455573
 20
9.9146716566
 30
0.0
 10
8.3022272688
 20
9.9220137786
 30
0.0
 10
8.306926176
 20
9.9289430928
 30
0.0
 10
8.3116395211
 20
9.9354556103
 30
0.0
 10
8.3163646021
 20
9.9415475981
 30
0.0
 10
8.3210988269
 20
9.9472153301
 30
0.0
 10
8.3258388998
 20
9.9524551598
 30
0.0
 10
8.329072902
 20
9.9557339196
 30
0.0
 10
8.3306909567
 20
9.9572968405
 30
0.0
  0
SPLINE
  5
37D
100
AcDbEntity
  8
0
100
AcDbSpline
 62
7
  6
CONTINUOUS
 70
0
 71
3
 72
64
 73
60
 74
0
 42
0.0000001
 43
0.0000001
 44
0.0000000001
 40
0.0
 40
0.0
 40
0.0
 40
0.0
 40
0.0443525503
 40
0.0892621958
 40
0.1345585848
 40
0.1800732132
 40
0.2256343161
 40
0.271070826
 40
0.3162119748
 40
0.3608885109
 40
0.4049333955
 40
0.4481826511
 40
0.4904762017
 40
0.5316587359
 40
0.5715805929
 40
0.5910240521
 40
0.6100992765
 40
0.628789532
 40
0.6470787428
 40
0.6649512233
 40
0.6823921283
 40
0.6993870506
 40
0.7159224642
 40
0.7319855015
 40
0.7475641067
 40
0.7626472094
 40
0.7772244927
 40
0.7912869394
 40
0.8048263975
 40
0.817836212
 40
0.8303109672
 40
0.8422468689
 40
0.8536419661
 40
0.8644961624
 40
0.8748119586
 40
0.884594294
 40
0.8938515795
 40
0.9025958099
 40
0.9108435825
 40
0.9186168542
 40
0.9259438185
 40
0.9328602773
 40
0.9394103322
 40
0.9456476638
 40
0.9486696563
 40
0.9516380112
 40
0.9545620913
 40
0.9574517199
 40
0.9603171004
 40
0.9631687235
 40
0.9660172553
 40
0.9688733938
 40
0.9717477406
 40
0.9746506872
 40
0.9775923029
 40
0.9805822084
 40
0.9867405295
 40
0.9931943402
 40
1.0
 40
1.0
 40
1.0
 40
1.0
 10
8.1496007367
 20
9.0508304747
 30
0.0
 10
8.1496007367
 20
9.0659738931
 30
0.0
 10
8.1498610255
 20
9.0964515116
 30
0.0
 10
8.1510094763
 20
9.1423817977
 30
0.0
 10
8.1529145013
 20
9.1886841264
 30
0.0
 10
8.1555683504
 20
9.235172303
 30
0.0
 10
8.1589605261
 20
9.2816604169
 30
0.0
 10
8.1630773637
 20
9.3279619614
 30
0.0
 10
8.167902362
 20
9.3738914431
 30
0.0
 10
8.1734161185
 20
9.4192647957
 30
0.0
 10
8.1795964527
 20
9.4639002317
 30
0.0
 10
8.1864184738
 20
9.5076189245
 30
0.0
 10
8.1938546811
 20
9.5502458131
 30
0.0
 10
8.2018751145
 20
9.5916100603
 30
0.0
 10
8.2090804144
 20
9.6251785087
 30
0.0
 10
8.2151226141
 20
9.6512706765
 30
0.0
 10
8.2197398135
 20
9.6702505812
 30
0.0
 10
8.2244777527
 20
9.6887942235
 30
0.0
 10
8.2293315584
 20
9.7068830556
 30
0.0
 10
8.2342965187
 20
9.7244989401
 30
0.0
 10
8.2393674661
 20
9.7416242555
 30
0.0
 10
8.244539456
 20
9.7582418444
 30
0.0
 10
8.2498071912
 20
9.7743350869
 30
0.0
 10
8.2551654026
 20
9.7898878862
 30
0.0
 10
8.2606087623
 20
9.8048846818
 30
0.0
 10
8.2661316683
 20
9.8193105164
 30
0.0
 10
8.2717287663
 20
9.8331509514
 30
0.0
 10
8.2773942209
 20
9.8463922331
 30
0.0
 10
8.2831225589
 20
9.8590211295
 30
0.0
 10
8.2889078894
 20
9.8710251241
 30
0.0
 10
8.2947445098
 20
9.8823922944
 30
0.0
 10
8.3006266327
 20
9.8931113801
 30
0.0
 10
8.3065483045
 20
9.903171866
 30
0.0
 10
8.3125039079
 20
9.9125637805
 30
0.0
 10
8.3184873713
 20
9.9212780707
 30
0.0
 10
8.3244932128
 20
9.9293061275
 30
0.0
 10
8.3305155317
 20
9.9366403121
 30
0.0
 10
8.3365489382
 20
9.9432734675
 30
0.0
 10
8.3425880347
 20
9.9491991674
 30
0.0
 10
8.3486276168
 20
9.9544116554
 30
0.0
 10
8.3546629262
 20
9.9589052959
 30
0.0
 10
8.3606892056
 20
9.9626752935
 30
0.0
 10
8.3667014211
 20
9.9657160589
 30
0.0
 10
8.3717495359
 20
9.9676587374
 30
0.0
 10
8.3757595029
 20
9.9688276552
 30
0.0
 10
8.3787273354
 20
9.9695108779
 30
0.0
 10
8.3816858957
 20
9.9700094761
 30
0.0
 10
8.3846344465
 20
9.9703232956
 30
0.0
 10
8.387572132
 20
9.9704521631
 30
0.0
 10
8.3904981006
 20
9.9703959104
 30
0.0
 10
8.3934114795
 20
9.9701545627
 30
0.0
 10
8.3963114135
 20
9.969728269
 30
0.0
 10
8.3991970653
 20
9.9691171821
 30
0.0
 10
8.4020675864
 20
9.9683215029
 30
0.0
 10
8.4049222299
 20
9.9673413927
 30
0.0
 10
8.4087431729
 20
9.9657742254
 30
0.0
 10
8.4134912941
 20
9.9633334351
 30
0.0
 10
8.4190501879
 20
9.959702136
 30
0.0
 10
8.4225977227
 20
9.9568782874
 30
0.0
 10
8.4243553862
 20
9.9553583899
 30
0.0
  0
SPLINE
  5
37E
100
AcDbEntity
  8
0
100
AcDbSpline
 62
7
  6
CONTINUOUS
 70
0
 71
3
 72
56
 73
52
 74
0
 42
0.0000001
 43
0.0000001
 44
0.0000000001
 40
0.0
 40
0.0
 40
0.0
 40
0.0
 40
0.0521241248
 40
0.1035192538
 40
0.1540745686
 40
0.2036940563
 40
0.252280682
 40
0.2997390959
 40
0.3459782235
 40
0.3909104545
 40
0.4344516971
 40
0.476522435
 40
0.5170478482
 40
0.5559580904
 40
0.5931894027
 40
0.6286842748
 40
0.6623923786
 40
0.678563575
 40
0.6942730733
 40
0.7095171567
 40
0.7242929044
 40
0.7385979238
 40
0.7524307382
 40
0.765790962
 40
0.7786790007
 40
0.7910963949
 40
0.8030461821
 40
0.814532621
 40
0.8255615053
 40
0.836140707
 40
0.8462800013
 40
0.8559913839
 40
0.8652897612
 40
0.874192949
 40
0.8827220006
 40
0.8909019386
 40
0.8987618717
 40
0.906335188
 40
0.9136599911
 40
0.920778937
 40
0.9277388282
 40
0.9345901501
 40
0.9413860505
 40
0.9481810652
 40
0.955029783
 40
0.9619853742
 40
0.9690984226
 40
0.9764159599
 40
0.9839806712
 40
0.9918307781
 40
1.0
 40
1.0
 40
1.0
 40
1.0
 10
8.1496007367
 20
9.0508304747
 30
0.0
 10
8.1496007367
 20
9.0398850592
 30
0.0
 10
8.1497350324
 20
9.0181470462
 30
0.0
 10
8.1503474175
 20
8.9857982436
 30
0.0
 10
8.1513683464
 20
8.9539858677
 30
0.0
 10
8.1527954871
 20
8.9227794407
 30
0.0
 10
8.1546256359
 20
8.8922454381
 30
0.0
 10
8.1568549102
 20
8.8624496722
 30
0.0
 10
8.1594784209
 20
8.8334563669
 30
0.0
 10
8.1624903586
 20
8.8053278496
 30
0.0
 10
8.165884267
 20
8.7781246093
 30
0.0
 10
8.1696526814
 20
8.7519051158
 30
0.0
 10
8.1737873392
 20
8.7267256653
 30
0.0
 10
8.178279342
 20
8.7026403033
 30
0.0
 10
8.1831187751
 20
8.6797005659
 30
0.0
 10
8.1882951348
 20
8.6579557139
 30
0.0
 10
8.1929421673
 20
8.6406378338
 30
0.0
 10
8.1968314902
 20
8.6274250021
 30
0.0
 10
8.1997853221
 20
8.6179799964
 30
0.0
 10
8.2028147562
 20
8.6088672281
 30
0.0
 10
8.2059181103
 20
8.6000915292
 30
0.0
 10
8.2090937799
 20
8.591657625
 30
0.0
 10
8.2123400961
 20
8.5835700343
 30
0.0
 10
8.2156552216
 20
8.5758330225
 30
0.0
 10
8.2190374404
 20
8.5684507302
 30
0.0
 10
8.2224850291
 20
8.5614271163
 30
0.0
 10
8.2259960544
 20
8.5547658409
 30
0.0
 10
8.2295687038
 20
8.5484704346
 30
0.0
 10
8.2332012315
 20
8.5425442855
 30
0.0
 10
8.2368916567
 20
8.5369904383
 30
0.0
 10
8.2406381144
 20
8.5318118024
 30
0.0
 10
8.244438877
 20
8.5270112121
 30
0.0
 10
8.2482919886
 20
8.5225911344
 30
0.0
 10
8.252195589
 20
8.5185539047
 30
0.0
 10
8.2561479968
 20
8.5149018955
 30
0.0
 10
8.2601473189
 20
8.5116371456
 30
0.0
 10
8.2641916775
 20
8.5087615771
 30
0.0
 10
8.2682793061
 20
8.5062772961
 30
0.0
 10
8.2724081576
 20
8.504186135
 30
0.0
 10
8.2765759942
 20
8.5024897238
 30
0.0
 10
8.2807804638
 20
8.5011898618
 30
0.0
 10
8.2850188242
 20
8.5002879338
 30
0.0
 10
8.2892880632
 20
8.4997847193
 30
0.0
 10
8.2935850647
 20
8.4996808728
 30
0.0
 10
8.2979066055
 20
8.499976438
 30
0.0
 10
8.3022496084
 20
8.5006706306
 30
0.0
 10
8.3066111984
 20
8.5017626023
 30
0.0
 10
8.3109886639
 20
8.5032512101
 30
0.0
 10
8.3153797103
 20
8.5051348046
 30
0.0
 10
8.3197818934
 20
8.5074117482
 30
0.0
 10
8.3226622877
 20
8.5091544491
 30
0.0
 10
8.3241026277
 20
8.5100861877
 30
0.0
  0
SPLINE
  5
37F
100
AcDbEntity
  8
0
100
AcDbSpline
 62
7
  6
CONTINUOUS
 70
0
 71
3
 72
60
 73
56
 74
0
 42
0.0000001
 43
0.0000001
 44
0.0000000001
 40
0.0
 40
0.0
 40
0.0
 40
0.0
 40
0.0435181675
 40
0.0875710722
 40
0.1320013779
 40
0.1766546668
 40
0.2213728208
 40
0.2659984893
 40
0.3103744203
 40
0.3543445736
 40
0.3977547392
 40
0.4404532356
 40
0.4822916361
 40
0.5231255015
 40
0.5628151375
 40
0.601226396
 40
0.6382315094
 40
0.6737099655
 40
0.6908416478
 40
0.707550255
 40
0.723823285
 40
0.7396488612
 40
0.7550157481
 40
0.7699136684
 40
0.7843329315
 40
0.7982650089
 40
0.8117021748
 40
0.8246378666
 40
0.8370667872
 40
0.848984797
 40
0.860389533
 40
0.8712800677
 40
0.8816576489
 40
0.8915256798
 40
0.900890158
 40
0.9097603251
 40
0.9181488128
 40
0.9260728197
 40
0.9335544156
 40
0.9406217599
 40
0.9473099356
 40
0.9536617545
 40
0.9597286776
 40
0.9626748341
 40
0.9655729773
 40
0.9684318657
 40
0.9712606453
 40
0.9740687797
 40
0.9768659665
 40
0.9796620345
 40
0.9824668183
 40
0.9852900513
 40
0.9881412686
 40
0.9939618799
 40
1.0
 40
1.0
 40
1.0
 40
1.0
 10
8.1550359322
 20
9.0560804707
 30
0.0
 10
8.1550359322
 20
9.0703207424
 30
0.0
 10
8.1552728413
 20
9.0989767707
 30
0.0
 10
8.1563187705
 20
9.1421600712
 30
0.0
 10
8.1580541635
 20
9.1856929789
 30
0.0
 10
8.1604723574
 20
9.2294112625
 30
0.0
 10
8.1635644186
 20
9.2731511477
 30
0.0
 10
8.1673186659
 20
9.3167480925
 30
0.0
 10
8.1717210079
 20
9.3600383783
 30
0.0
 10
8.1767548486
 20
9.4028593751
 30
0.0
 10
8.1824012047
 20
9.4450502584
 30
0.0
 10
8.1886387723
 20
9.4864525859
 30
0.0
 10
8.1954440031
 20
9.5269108943
 30
0.0
 10
8.2027911906
 20
9.5662733019
 30
0.0
 10
8.2106525718
 20
9.6043920689
 30
0.0
 10
8.2189984033
 20
9.6411242749
 30
0.0
 10
8.2277971097
 20
9.6763320406
 30
0.0
 10
8.2355667164
 20
9.7046117898
 30
0.0
 10
8.241996974
 20
9.7263647387
 30
0.0
 10
8.2468556793
 20
9.7420273405
 30
0.0
 10
8.251801975
 20
9.7572136542
 30
0.0
 10
8.2568312078
 20
9.7719094617
 30
0.0
 10
8.2619387421
 20
9.7861009636
 30
0.0
 10
8.2671196012
 20
9.7997748978
 30
0.0
 10
8.2723690979
 20
9.8129184273
 30
0.0
 10
8.2776821318
 20
9.8255192937
 30
0.0
 10
8.2830537979
 20
9.8375657105
 30
0.0
 10
8.2884790628
 20
9.849046433
 30
0.0
 10
8.2939527301
 20
9.8599508097
 30
0.0
 10
8.2994698767
 20
9.8702686431
 30
0.0
 10
8.3050251368
 20
9.8799904585
 30
0.0
 10
8.3106135683
 20
9.8891072043
 30
0.0
 10
8.3162299051
 20
9.8976105476
 30
0.0
 10
8.3218690489
 20
9.9054927132
 30
0.0
 10
8.3275260533
 20
9.9127464477
 30
0.0
 10
8.3331957319
 20
9.9193653101
 30
0.0
 10
8.3388734978
 20
9.9253431063
 30
0.0
 10
8.3445544035
 20
9.9306745561
 30
0.0
 10
8.3502341262
 20
9.9353545251
 30
0.0
 10
8.3559082532
 20
9.9393783677
 30
0.0
 10
8.3615726951
 20
9.942741787
 30
0.0
 10
8.3672228307
 20
9.9454399852
 30
0.0
 10
8.3719625647
 20
9.9471474146
 30
0.0
 10
8.37572733
 20
9.9481631896
 30
0.0
 10
8.3785158049
 20
9.9487497751
 30
0.0
 10
8.3812955873
 20
9.9491682122
 30
0.0
 10
8.3840660302
 20
9.9494183761
 30
0.0
 10
8.3868263796
 20
9.9495001197
 30
0.0
 10
8.3895758857
 20
9.9494133102
 30
0.0
 10
8.392313793
 20
9.9491580134
 30
0.0
 10
8.3950393392
 20
9.9487343673
 30
0.0
 10
8.3977518596
 20
9.9481424646
 30
0.0
 10
8.4013744078
 20
9.9471224672
 30
0.0
 10
8.4058850854
 20
9.9454109814
 30
0.0
 10
8.4093478773
 20
9.9436417634
 30
0.0
 10
8.4110609778
 20
9.9426572899
 30
0.0
  0
SPLINE
  5
380
100
AcDbEntity
  8
0
100
AcDbSpline
 62
7
  6
CONTINUOUS
 70
0
 71
3
 72
57
 73
53
 74
0
 42
0.0000001
 43
0.0000001
 44
0.0000000001
 40
0.0
 40
0.0
 40
0.0
 40
0.0
 40
0.0415950807
 40
0.0836770183
 40
0.126113404
 40
0.168777164
 40
0.2115367338
 40
0.2542612943
 40
0.2968199995
 40
0.3390826074
 40
0.3809200743
 40
0.4222049868
 40
0.4628121404
 40
0.5026190567
 40
0.541506492
 40
0.579358973
 40
0.6160653873
 40
0.6515196359
 40
0.6856212294
 40
0.7021353666
 40
0.7182765932
 40
0.7340341899
 40
0.7493981233
 40
0.7643586797
 40
0.7789068789
 40
0.793034333
 40
0.8067331844
 40
0.8199965273
 40
0.8328180099
 40
0.8451922499
 40
0.8571148443
 40
0.8685822317
 40
0.8795922665
 40
0.8901438954
 40
0.9002375871
 40
0.9098755934
 40
0.9190618559
 40
0.9278027881
 40
0.9361072367
 40
0.9439870565
 40
0.951457792
 40
0.9585388909
 40
0.9652547793
 40
0.9716352765
 40
0.9747114184
 40
0.9777177523
 40
0.9835418563
 40
0.9891582787
 40
0.991906775
 40
0.9946246931
 40
0.9973197803
 40
1.0
 40
1.0
 40
1.0
 40
1.0
 10
8.1746318476
 20
9.0590086727
 30
0.0
 10
8.1746318476
 20
9.0719833167
 30
0.0
 10
8.1748329968
 20
9.0980848712
 30
0.0
 10
8.1757221314
 20
9.137414393
 30
0.0
 10
8.1771980988
 20
9.1770599108
 30
0.0
 10
8.1792558897
 20
9.216891097
 30
0.0
 10
8.1818889567
 20
9.2567784782
 30
0.0
 10
8.1850886524
 20
9.2965915347
 30
0.0
 10
8.1888445049
 20
9.3362002876
 30
0.0
 10
8.1931442236
 20
9.3754753749
 30
0.0
 10
8.1979737264
 20
9.4142885214
 30
0.0
 10
8.2033172104
 20
9.4525129754
 30
0.0
 10
8.2091571396
 20
9.4900239275
 30
0.0
 10
8.215474342
 20
9.526698926
 30
0.0
 10
8.2222480806
 20
9.5624182714
 30
0.0
 10
8.2294561225
 20
9.5970653883
 30
0.0
 10
8.2370747906
 20
9.6305273064
 30
0.0
 10
8.2450790381
 20
9.6626948008
 30
0.0
 10
8.2521217346
 20
9.6886047925
 30
0.0
 10
8.2579391683
 20
9.7085994477
 30
0.0
 10
8.262335332
 20
9.7230471516
 30
0.0
 10
8.2668077349
 20
9.7370953804
 30
0.0
 10
8.2713525998
 20
9.7507327134
 30
0.0
 10
8.2759663243
 20
9.7639480073
 30
0.0
 10
8.2806450809
 20
9.7767305014
 30
0.0
 10
8.2853849919
 20
9.7890697961
 30
0.0
 10
8.2901823136
 20
9.8009558121
 30
0.0
 10
8.2950329638
 20
9.8123789219
 30
0.0
 10
8.2999330918
 20
9.8233298162
 30
0.0
 10
8.3048786846
 20
9.8337996066
 30
0.0
 10
8.3098656126
 20
9.8437798432
 30
0.0
 10
8.3148899937
 20
9.8532623878
 30
0.0
 10
8.3199475816
 20
9.8622396512
 30
0.0
 10
8.3250343786
 20
9.8707043781
 30
0.0
 10
8.3301463364
 20
9.8786497498
 30
0.0
 10
8.3352792264
 20
9.8860694967
 30
0.0
 10
8.3404292037
 20
9.892957594
 30
0.0
 10
8.3455920957
 20
9.8993086705
 30
0.0
 10
8.3507640029
 20
9.9051176805
 30
0.0
 10
8.3559411717
 20
9.9103799258
 30
0.0
 10
8.3611196335
 20
9.9150913472
 30
0.0
 10
8.3662960634
 20
9.9192479121
 30
0.0
 10
8.3714665215
 20
9.9228459656
 30
0.0
 10
8.3758197947
 20
9.9254068459
 30
0.0
 10
8.3792907722
 20
9.9271601703
 30
0.0
 10
8.3826774718
 20
9.9286871033
 30
0.0
 10
8.3869096258
 20
9.9302560046
 30
0.0
 10
8.3912012702
 20
9.9313728921
 30
0.0
 10
8.394607666
 20
9.9319709697
 30
0.0
 10
8.397136789
 20
9.9322735246
 30
0.0
 10
8.3996575016
 20
9.9324330334
 30
0.0
 10
8.4013352457
 20
9.9324439744
 30
0.0
 10
8.4021710756
 20
9.9324255079
 30
0.0
  0
SPLINE
  5
381
100
AcDbEntity
  8
0
100
AcDbSpline
 62
7
  6
CONTINUOUS
 70
0
 71
3
 72
30
 73
26
 74
0
 42
0.0000001
 43
0.0000001
 44
0.0000000001
 40
0.0
 40
0.0
 40
0.0
 40
0.0
 40
0.0677347341
 40
0.1364158618
 40
0.2056850065
 40
0.2751791627
 40
0.3445342299
 40
0.4133868726
 40
0.4813771612
 40
0.5481509368
 40
0.6133622982
 40
0.6452773403
 40
0.6766771091
 40
0.7075218202
 40
0.7377726871
 40
0.767392036
 40
0.7963433384
 40
0.8245914077
 40
0.8521023618
 40
0.8788439225
 40
0.9047853027
 40
0.9298976275
 40
0.9541537484
 40
0.9775288087
 40
1.0
 40
1.0
 40
1.0
 40
1.0
 10
8.2171325865
 20
9.0560612364
 30
0.0
 10
8.2171325865
 20
9.0730658262
 30
0.0
 10
8.2174781916
 20
9.1073134748
 30
0.0
 10
8.2189977118
 20
9.1589306491
 30
0.0
 10
8.2215145018
 20
9.2109511763
 30
0.0
 10
8.2250146012
 20
9.2630842887
 30
0.0
 10
8.2294784517
 20
9.3150388279
 30
0.0
 10
8.2348810721
 20
9.3665246044
 30
0.0
 10
8.2411921415
 20
9.417254138
 30
0.0
 10
8.2483762442
 20
9.4669439865
 30
0.0
 10
8.2551039919
 20
9.5075403182
 30
0.0
 10
8.2609026593
 20
9.5392816507
 30
0.0
 10
8.2654123338
 20
9.5624864859
 30
0.0
 10
8.2701074046
 20
9.5852280894
 30
0.0
 10
8.2749813155
 20
9.6074747174
 30
0.0
 10
8.2800272206
 20
9.6291952853
 30
0.0
 10
8.2852380677
 20
9.6503594612
 30
0.0
 10
8.2906065162
 20
9.6709376922
 30
0.0
 10
8.2961250863
 20
9.6909012523
 30
0.0
 10
8.3017859749
 20
9.7102222853
 30
0.0
 10
8.307581322
 20
9.7288738402
 30
0.0
 10
8.3135029008
 20
9.7468299139
 30
0.0
 10
8.3195425301
 20
9.7640655177
 30
0.0
 10
8.3256915734
 20
9.7805565546
 30
0.0
 10
8.3299433871
 20
9.791253205
 30
0.0
 10
8.3320892432
 20
9.7964704654
 30
0.0
  0
SPLINE
  5
382
100
AcDbEntity
  8
0
100
AcDbSpline
 62
7
  6
CONTINUOUS
 70
0
 71
3
 72
18
 73
14
 74
0
 42
0.0000001
 43
0.0000001
 44
0.0000000001
 40
0.0
 40
0.0
 40
0.0
 40
0.0
 40
0.1504590508
 40
0.2917080413
 40
0.4244386532
 40
0.5495634263
 40
0.6682129981
 40
0.7255489145
 40
0.7817909345
 40
0.8371402578
 40
0.8918094179
 40
0.9460201193
 40
1.0
 40
1.0
 40
1.0
 40
1.0
 10
8.4234198415
 20
9.9508660705
 30
0.0
 10
8.4255315718
 20
9.9529058454
 30
0.0
 10
8.4297523118
 20
9.9567331029
 30
0.0
 10
8.4362879908
 20
9.9618338563
 30
0.0
 10
8.4428162144
 20
9.9660998214
 30
0.0
 10
8.4493298258
 20
9.9695240444
 30
0.0
 10
8.4548044354
 20
9.9716951947
 30
0.0
 10
8.4591510166
 20
9.9729852432
 30
0.0
 10
8.4623646856
 20
9.9737288397
 30
0.0
 10
8.465567692
 20
9.9742588327
 30
0.0
 10
8.4687591402
 20
9.9745749411
 30
0.0
 10
8.4719377461
 20
9.9746770841
 30
0.0
 10
8.4740495189
 20
9.9746024033
 30
0.0
 10
8.4751003377
 20
9.9745295395
 30
0.0
  0
SPLINE
  5
383
100
AcDbEntity
  8
0
100
AcDbSpline
 62
7
  6
CONTINUOUS
 70
0
 71
3
 72
47
 73
43
 74
0
 42
0.0000001
 43
0.0000001
 44
0.0000000001
 40
0.0
 40
0.0
 40
0.0
 40
0.0
 40
0.0378119144
 40
0.0760195639
 40
0.1145317603
 40
0.1532646769
 40
0.1921305095
 40
0.2310412342
 40
0.2699091719
 40
0.3086465168
 40
0.3471658896
 40
0.385380543
 40
0.4232045841
 40
0.4605533018
 40
0.4973433438
 40
0.5334929835
 40
0.5689224881
 40
0.6035542759
 40
0.6373131806
 40
0.6701269041
 40
0.7019261975
 40
0.7326451352
 40
0.7622216786
 40
0.7905979859
 40
0.8177207648
 40
0.8435420289
 40
0.8559515871
 40
0.8680204894
 40
0.8797445506
 40
0.8911201303
 40
0.902143943
 40
0.9128134236
 40
0.9231266674
 40
0.9330822902
 40
0.9426797976
 40
0.9519195107
 40
0.9608025733
 40
0.9693315516
 40
0.9775102484
 40
0.9853435987
 40
0.9928376619
 40
1.0
 40
1.0
 40
1.0
 40
1.0
 10
8.2300821744
 20
9.0425695785
 30
0.0
 10
8.2300821744
 20
9.0544459674
 30
0.0
 10
8.2302400681
 20
9.0783233166
 30
0.0
 10
8.2309396809
 20
9.1142908469
 30
0.0
 10
8.2321020401
 20
9.1505358688
 30
0.0
 10
8.2337242288
 20
9.1869701244
 30
0.0
 10
8.2358023894
 20
9.2235065906
 30
0.0
 10
8.2383315113
 20
9.2600571183
 30
0.0
 10
8.2413055265
 20
9.2965336515
 30
0.0
 10
8.2447172686
 20
9.3328483986
 30
0.0
 10
8.2485584701
 20
9.3689139048
 30
0.0
 10
8.2528198994
 20
9.4046433204
 30
0.0
 10
8.2574912857
 20
9.4399506188
 30
0.0
 10
8.2625612987
 20
9.4747508003
 30
0.0
 10
8.2680177151
 20
9.50896008
 30
0.0
 10
8.2738473888
 20
9.5424961049
 30
0.0
 10
8.2800361732
 20
9.5752781733
 30
0.0
 10
8.2865691102
 20
9.6072273973
 30
0.0
 10
8.2934304548
 20
9.6382669016
 30
0.0
 10
8.3006035532
 20
9.6683220528
 30
0.0
 10
8.3080710307
 20
9.6973206033
 30
0.0
 10
8.3158148722
 20
9.7251928671
 30
0.0
 10
8.323816287
 20
9.7518719292
 30
0.0
 10
8.3320558625
 20
9.7772938822
 30
0.0
 10
8.3405137056
 20
9.8013976296
 30
0.0
 10
8.3478201388
 20
9.8205834238
 30
0.0
 10
8.3537699949
 20
9.8352195021
 30
0.0
 10
8.3582150898
 20
9.8456860954
 30
0.0
 10
8.3626993345
 20
9.8557816398
 30
0.0
 10
8.3672199734
 20
9.8655001272
 30
0.0
 10
8.3717743806
 20
9.8748356929
 30
0.0
 10
8.376359798
 20
9.8837827672
 30
0.0
 10
8.3809734087
 20
9.892336048
 30
0.0
 10
8.3856125722
 20
9.9004903695
 30
0.0
 10
8.3902744421
 20
9.9082408866
 30
0.0
 10
8.3949561536
 20
9.9155830086
 30
0.0
 10
8.3996550608
 20
9.9225123227
 30
0.0
 10
8.4043684059
 20
9.9290248403
 30
0.0
 10
8.4090934869
 20
9.9351168281
 30
0.0
 10
8.4138277117
 20
9.9407845601
 30
0.0
 10
8.4185677846
 20
9.9460243898
 30
0.0
 10
8.4218017868
 20
9.9493031496
 30
0.0
 10
8.4234198415
 20
9.9508660705
 30
0.0
  0
SPLINE
  5
384
100
AcDbEntity
  8
0
100
AcDbSpline
 62
7
  6
CONTINUOUS
 70
0
 71
3
 72
54
 73
50
 74
0
 42
0.0000001
 43
0.0000001
 44
0.0000000001
 40
0.0
 40
0.0
 40
0.0
 40
0.0
 40
0.0509817738
 40
0.1012869014
 40
0.1508149365
 40
0.1994798281
 40
0.2471950454
 40
0.2938745411
 40
0.3394362082
 40
0.3838007739
 40
0.4268919112
 40
0.4686371286
 40
0.5089675273
 40
0.5478187166
 40
0.5851308963
 40
0.6208493157
 40
0.6549253392
 40
0.6873164604
 40
0.7179878506
 40
0.7326706354
 40
0.7469144467
 40
0.760717425
 40
0.7740786911
 40
0.7869981549
 40
0.799476427
 40
0.8115152551
 40
0.8231176102
 40
0.8342875055
 40
0.8450303553
 40
0.8553533654
 40
0.8652653588
 40
0.8747770618
 40
0.8839017022
 40
0.8926549861
 40
0.901055327
 40
0.9091244637
 40
0.9168876369
 40
0.9243736683
 40
0.9316153243
 40
0.9386493854
 40
0.9455162877
 40
0.9522598126
 40
0.9589264918
 40
0.9655645778
 40
0.9722230122
 40
0.9789502556
 40
0.9857931442
 40
0.9927960317
 40
1.0
 40
1.0
 40
1.0
 40
1.0
 10
8.1550359322
 20
9.0560804707
 30
0.0
 10
8.1550359322
 20
9.0459101674
 30
0.0
 10
8.1551553381
 20
9.0257043225
 30
0.0
 10
8.1556994674
 20
8.9956225914
 30
0.0
 10
8.1566066775
 20
8.9660119456
 30
0.0
 10
8.1578750599
 20
8.9369316814
 30
0.0
 10
8.1595019763
 20
8.9084383759
 30
0.0
 10
8.1614843565
 20
8.8805881241
 30
0.0
 10
8.1638181277
 20
8.8534358661
 30
0.0
 10
8.1664986563
 20
8.8270349803
 30
0.0
 10
8.1695206693
 20
8.8014373728
 30
0.0
 10
8.1728780221
 20
8.7766933769
 30
0.0
 10
8.1765641574
 20
8.7528515996
 30
0.0
 10
8.1805716464
 20
8.7299588398
 30
0.0
 10
8.1848924987
 20
8.708059987
 30
0.0
 10
8.1895182167
 20
8.687197955
 30
0.0
 10
8.1944394322
 20
8.6674134461
 30
0.0
 10
8.1996465428
 20
8.6487452676
 30
0.0
 10
8.2042802313
 20
8.633940971
 30
0.0
 10
8.2081336892
 20
8.6226930238
 30
0.0
 10
8.2110466639
 20
8.6146815486
 30
0.0
 10
8.2140232606
 20
8.6069754188
 30
0.0
 10
8.2170619934
 20
8.599578361
 30
0.0
 10
8.220161324
 20
8.5924939565
 30
0.0
 10
8.2233198242
 20
8.5857256978
 30
0.0
 10
8.2265359639
 20
8.5792768781
 30
0.0
 10
8.2298081102
 20
8.5731505713
 30
0.0
 10
8.2331347411
 20
8.5673497704
 30
0.0
 10
8.2365143459
 20
8.5618773245
 30
0.0
 10
8.2399452332
 20
8.5567358006
 30
0.0
 10
8.2434258162
 20
8.5519276728
 30
0.0
 10
8.2469546169
 20
8.5474553557
 30
0.0
 10
8.2505299619
 20
8.5433209529
 30
0.0
 10
8.2541502436
 20
8.5395264488
 30
0.0
 10
8.2578140033
 20
8.5360738608
 30
0.0
 10
8.2615196478
 20
8.5329649685
 30
0.0
 10
8.2652655364
 20
8.5302013753
 30
0.0
 10
8.2690501346
 20
8.5277848044
 30
0.0
 10
8.2728717918
 20
8.5257169049
 30
0.0
 10
8.2767286219
 20
8.5239990099
 30
0.0
 10
8.2806186911
 20
8.5226325373
 30
0.0
 10
8.2845398666
 20
8.5216188857
 30
0.0
 10
8.2884896982
 20
8.5209588282
 30
0.0
 10
8.2924656512
 20
8.5206529465
 30
0.0
 10
8.2964650946
 20
8.5207016744
 30
0.0
 10
8.3004853572
 20
8.5211046913
 30
0.0
 10
8.3045240155
 20
8.5218613505
 30
0.0
 10
8.3085784256
 20
8.5229708525
 30
0.0
 10
8.311248631
 20
8.5239300477
 30
0.0
 10
8.3125828025
 20
8.5244641626
 30
0.0
  0
SPLINE
  5
385
100
AcDbEntity
  8
0
100
AcDbSpline
 62
7
  6
CONTINUOUS
 70
0
 71
3
 72
23
 73
19
 74
0
 42
0.0000001
 43
0.0000001
 44
0.0000000001
 40
0.0
 40
0.0
 40
0.0
 40
0.0
 40
0.0764224449
 40
0.1504663304
 40
0.2222018644
 40
0.2917109085
 40
0.3590900072
 40
0.4244474941
 40
0.4879039322
 40
0.5495927797
 40
0.6096609977
 40
0.6682702188
 40
0.7255962294
 40
0.7818281329
 40
0.8371677443
 40
0.8918276443
 40
0.9460291863
 40
1.0
 40
1.0
 40
1.0
 40
1.0
 10
15.1984239885
 20
9.8393764048
 30
0.0
 10
15.2001186324
 20
9.8410133053
 30
0.0
 10
15.2035072484
 20
9.84418287
 30
0.0
 10
15.2086709155
 20
9.8486867854
 30
0.0
 10
15.2138322428
 20
9.8528625428
 30
0.0
 10
15.2189896879
 20
9.8567086761
 30
0.0
 10
15.2241418182
 20
9.8602241068
 30
0.0
 10
15.2292873292
 20
9.8634077756
 30
0.0
 10
15.2344248752
 20
9.8662586994
 30
0.0
 10
15.2395530447
 20
9.8687759917
 30
0.0
 10
15.2446704663
 20
9.8709586928
 30
0.0
 10
15.2497756929
 20
9.8728060147
 30
0.0
 10
15.2548672525
 20
9.8743172646
 30
0.0
 10
15.2599436697
 20
9.8754917042
 30
0.0
 10
15.2650033363
 20
9.8763288507
 30
0.0
 10
15.2700447191
 20
9.8768282581
 30
0.0
 10
15.2750658464
 20
9.8769895758
 30
0.0
 10
15.278401732
 20
9.8768715601
 30
0.0
 10
15.2800616702
 20
9.8767564375
 30
0.0
  0
SPLINE
  5
386
100
AcDbEntity
  8
0
100
AcDbSpline
 62
7
  6
CONTINUOUS
 70
0
 71
3
 72
23
 73
19
 74
0
 42
0.0000001
 43
0.0000001
 44
0.0000000001
 40
0.0
 40
0.0
 40
0.0
 40
0.0
 40
0.063776909
 40
0.1273449468
 40
0.1907019575
 40
0.2538561145
 40
0.3168131979
 40
0.3795820804
 40
0.4421733815
 40
0.5045993354
 40
0.5668738682
 40
0.6290123838
 40
0.6910316538
 40
0.75294965
 40
0.8147853622
 40
0.8765586114
 40
0.9382898593
 40
1.0
 40
1.0
 40
1.0
 40
1.0
 10
14.6643286291
 20
7.0126858639
 30
0.0
 10
14.6643286291
 20
7.0073784152
 30
0.0
 10
14.6640745851
 20
6.9967791015
 30
0.0
 10
14.6629280088
 20
6.9809446166
 30
0.0
 10
14.6610189267
 20
6.9652356388
 30
0.0
 10
14.6583519266
 20
6.9496890673
 30
0.0
 10
14.6549329543
 20
6.9343404343
 30
0.0
 10
14.6507699173
 20
6.9192252211
 30
0.0
 10
14.6458723917
 20
6.9043782484
 30
0.0
 10
14.640251626
 20
6.8898337536
 30
0.0
 10
14.6339205313
 20
6.8756252906
 30
0.0
 10
14.6268936784
 20
6.8617856325
 30
0.0
 10
14.6191872715
 20
6.8483466952
 30
0.0
 10
14.6108190551
 20
6.8353394719
 30
0.0
 10
14.601808323
 20
6.822794009
 30
0.0
 10
14.5921757347
 20
6.8107391583
 30
0.0
 10
14.5819438988
 20
6.7992030959
 30
0.0
 10
14.5747375623
 20
6.7918746191
 30
0.0
 10
14.5710438708
 20
6.7883067717
 30
0.0
  0
SPLINE
  5
387
100
AcDbEntity
  8
0
100
AcDbSpline
 62
7
  6
CONTINUOUS
 70
0
 71
3
 72
48
 73
44
 74
0
 42
0.0000001
 43
0.0000001
 44
0.0000000001
 40
0.0
 40
0.0
 40
0.0
 40
0.0
 40
0.0149718897
 40
0.0299468369
 40
0.0449278839
 40
0.0599180336
 40
0.0749202322
 40
0.0899373568
 40
0.1049721887
 40
0.1200274064
 40
0.1351055645
 40
0.1502090774
 40
0.1653402142
 40
0.180501073
 40
0.1956935825
 40
0.2109194836
 40
0.2261803205
 40
0.2414774416
 40
0.2568119786
 40
0.2721848576
 40
0.3030428416
 40
0.3340598877
 40
0.365235493
 40
0.3965657058
 40
0.4280432614
 40
0.4596577825
 40
0.4913960356
 40
0.5232422374
 40
0.5551784039
 40
0.5871847345
 40
0.6192400218
 40
0.6513220815
 40
0.6834081967
 40
0.7154755701
 40
0.7475017768
 40
0.7794652126
 40
0.8113455287
 40
0.8431240501
 40
0.8747841728
 40
0.9063117021
 40
0.9376953081
 40
0.9689262526
 40
1.0
 40
1.0
 40
1.0
 40
1.0
 10
14.0930563795
 20
7.2831521411
 30
0.0
 10
14.0959100731
 20
7.2859086093
 30
0.0
 10
14.1017282781
 20
7.2913092886
 30
0.0
 10
14.1107716106
 20
7.2990579224
 30
0.0
 10
14.120119404
 20
7.3064445161
 30
0.0
 10
14.1297586964
 20
7.3134586312
 30
0.0
 10
14.1396761932
 20
7.3200907651
 30
0.0
 10
14.1498582815
 20
7.3263317118
 30
0.0
 10
14.1602909354
 20
7.3321729093
 30
0.0
 10
14.1709597757
 20
7.3376063659
 30
0.0
 10
14.1818501638
 20
7.3426245189
 30
0.0
 10
14.19294706
 20
7.3472205841
 30
0.0
 10
14.204235236
 20
7.3513881454
 30
0.0
 10
14.215699135
 20
7.3551215316
 30
0.0
 10
14.2273229842
 20
7.3584156244
 30
0.0
 10
14.2390908034
 20
7.3612658288
 30
0.0
 10
14.2509863926
 20
7.3636683455
 30
0.0
 10
14.2629933521
 20
7.3656197611
 30
0.0
 10
14.2750953675
 20
7.3671174875
 30
0.0
 10
14.2913541145
 20
7.3685084225
 30
0.0
 10
14.3118373232
 20
7.3690998125
 30
0.0
 10
14.3364922502
 20
7.3679749975
 30
0.0
 10
14.3611221319
 20
7.365023512
 30
0.0
 10
14.385590712
 20
7.3602617665
 30
0.0
 10
14.409763856
 20
7.353716216
 30
0.0
 10
14.4335087765
 20
7.3454230389
 30
0.0
 10
14.4566951525
 20
7.335427974
 30
0.0
 10
14.4791957354
 20
7.3237860787
 30
0.0
 10
14.5008870674
 20
7.3105614178
 30
0.0
 10
14.5216501341
 20
7.2958266971
 30
0.0
 10
14.541371012
 20
7.2796628712
 30
0.0
 10
14.5599414832
 20
7.2621587009
 30
0.0
 10
14.5772596232
 20
7.2434102747
 30
0.0
 10
14.5932303756
 20
7.2235205029
 30
0.0
 10
14.6077660479
 20
7.2025985353
 30
0.0
 10
14.6207867886
 20
7.1807591734
 30
0.0
 10
14.6322210217
 20
7.1581222443
 30
0.0
 10
14.642005835
 20
7.1348119663
 30
0.0
 10
14.650087334
 20
7.110956232
 30
0.0
 10
14.656420981
 20
7.0866861009
 30
0.0
 10
14.6609716981
 20
7.062134393
 30
0.0
 10
14.6637143466
 20
7.0374376642
 30
0.0
 10
14.6643286291
 20
7.0209204659
 30
0.0
 10
14.6643286291
 20
7.0126858639
 30
0.0
  0
SPLINE
  5
388
100
AcDbEntity
  8
0
100
AcDbSpline
 62
7
  6
CONTINUOUS
 70
0
 71
3
 72
107
 73
103
 74
0
 42
0.0000001
 43
0.0000001
 44
0.0000000001
 40
0.0
 40
0.0
 40
0.0
 40
0.0
 40
0.0013572612
 40
0.0027170797
 40
0.0040819966
 40
0.0054545211
 40
0.0068371186
 40
0.0082321971
 40
0.0110684612
 40
0.013981638
 40
0.0169879164
 40
0.0201018459
 40
0.0233363318
 40
0.0267026481
 40
0.0302105686
 40
0.0338684409
 40
0.0376833717
 40
0.0416613006
 40
0.0458071887
 40
0.0501250693
 40
0.0546182177
 40
0.0592891779
 40
0.0641399047
 40
0.0691717748
 40
0.0743856998
 40
0.0797821307
 40
0.085361142
 40
0.0911224386
 40
0.0970654107
 40
0.1031891498
 40
0.1094924768
 40
0.1159739692
 40
0.1226319653
 40
0.129464604
 40
0.1364698079
 40
0.1436453353
 40
0.1509887461
 40
0.1584974632
 40
0.1661687264
 40
0.1739996594
 40
0.1819872169
 40
0.190128253
 40
0.198419467
 40
0.2068574681
 40
0.2154387256
 40
0.2330162676
 40
0.251122054
 40
0.2697243673
 40
0.2887901232
 40
0.3082849955
 40
0.3281735335
 40
0.3484192745
 40
0.368984852
 40
0.3898321014
 40
0.4109221623
 40
0.4322155806
 40
0.4536724082
 40
0.4752523025
 40
0.4969146253
 40
0.5186185408
 40
0.5403231135
 40
0.5619874067
 40
0.5835705797
 40
0.6050319862
 40
0.6263312728
 40
0.647428477
 40
0.6682841272
 40
0.6888593425
 40
0.7091159341
 40
0.7290165084
 40
0.748524572
 40
0.7676046402
 40
0.7862223487
 40
0.8043445717
 40
0.8219395458
 40
0.8389770046
 40
0.8472777515
 40
0.8554285212
 40
0.8634260347
 40
0.8712671072
 40
0.8789487159
 40
0.8864679446
 40
0.8938220534
 40
0.9010084264
 40
0.9080246393
 40
0.914868415
 40
0.9215376844
 40
0.9280305565
 40
0.9343453681
 40
0.9404806728
 40
0.9464352792
 40
0.9522082616
 40
0.9577989849
 40
0.9632071405
 40
0.9684327659
 40
0.9734763106
 40
0.9783386302
 40
0.9830210709
 40
0.9875255286
 40
0.9918546207
 40
0.996011541
 40
1.0
 40
1.0
 40
1.0
 40
1.0
 10
15.1167863069
 20
7.5224112871
 30
0.0
 10
15.1156859061
 20
7.5224876038
 30
0.0
 10
15.1134861421
 20
7.5226898637
 30
0.0
 10
15.1101985308
 20
7.5231414578
 30
0.0
 10
15.1069220355
 20
7.5237412765
 30
0.0
 10
15.1036572007
 20
7.5244892025
 30
0.0
 10
15.1004043831
 20
7.5253851616
 30
0.0
 10
15.0960605945
 20
7.5267844436
 30
0.0
 10
15.0906512086
 20
7.528914207
 30
0.0
 10
15.0842540624
 20
7.5320463029
 30
0.0
 10
15.0779174613
 20
7.5357666334
 30
0.0
 10
15.0716446604
 20
7.5400724205
 30
0.0
 10
15.0654383986
 20
7.5449610248
 30
0.0
 10
15.0593013143
 20
7.5504295066
 30
0.0
 10
15.0532361318
 20
7.5564749625
 30
0.0
 10
15.0472454054
 20
7.5630941567
 30
0.0
 10
15.0413318936
 20
7.5702838089
 30
0.0
 10
15.0354981719
 20
7.5780402655
 30
0.0
 10
15.0297470366
 20
7.5863597563
 30
0.0
 10
15.0240810879
 20
7.5952381299
 30
0.0
 10
15.0185031223
 20
7.6046710642
 30
0.0
 10
15.0130157407
 20
7.6146538723
 30
0.0
 10
15.0076216979
 20
7.625181659
 30
0.0
 10
15.0023235698
 20
7.6362491905
 30
0.0
 10
14.9971240359
 20
7.6478509999
 30
0.0
 10
14.9920256262
 20
7.6599813086
 30
0.0
 10
14.9870309214
 20
7.6726340904
 30
0.0
 10
14.9821423891
 20
7.6858030311
 30
0.0
 10
14.9773624959
 20
7.6994815612
 30
0.0
 10
14.9726936337
 20
7.7136628433
 30
0.0
 10
14.968138145
 20
7.7283397833
 30
0.0
 10
14.963698335
 20
7.743505034
 30
0.0
 10
14.9593764163
 20
7.7591509957
 30
0.0
 10
14.9551745969
 20
7.7752698268
 30
0.0
 10
14.9510949561
 20
7.7918534408
 30
0.0
 10
14.9471395957
 20
7.8088935178
 30
0.0
 10
14.9433104596
 20
7.8263815034
 30
0.0
 10
14.9396095342
 20
7.8443086174
 30
0.0
 10
14.9360386281
 20
7.8626658559
 30
0.0
 10
14.932599603
 20
7.8814439969
 30
0.0
 10
14.929294133
 20
7.9006336063
 30
0.0
 10
14.9261239456
 20
7.9202250403
 30
0.0
 10
14.9230905851
 20
7.940208451
 30
0.0
 10
14.9201956225
 20
7.9605738056
 30
0.0
 10
14.9164925571
 20
7.9884459786
 30
0.0
 10
14.9122302851
 20
8.0241682954
 30
0.0
 10
14.9077294963
 20
8.0680578207
 30
0.0
 10
14.903811923
 20
8.1132173146
 30
0.0
 10
14.9004855183
 20
8.1595559355
 30
0.0
 10
14.8977570653
 20
8.2069805876
 30
0.0
 10
14.8956321249
 20
8.2553959346
 30
0.0
 10
14.8941150365
 20
8.3047046446
 30
0.0
 10
14.8932089074
 20
8.3548075749
 30
0.0
 10
14.8929156078
 20
8.4056039774
 30
0.0
 10
14.8932357679
 20
8.4569917017
 30
0.0
 10
14.8941687764
 20
8.508867403
 30
0.0
 10
14.8957127832
 20
8.5611267503
 30
0.0
 10
14.8978647029
 20
8.613664638
 30
0.0
 10
14.9006202214
 20
8.6663753983
 30
0.0
 10
14.9039738049
 20
8.719153014
 30
0.0
 10
14.9079187113
 20
8.7718913332
 30
0.0
 10
14.9124470035
 20
8.8244842833
 30
0.0
 10
14.9175495657
 20
8.8768260853
 30
0.0
 10
14.9232161215
 20
8.9288114674
 30
0.0
 10
14.9294352547
 20
8.9803358774
 30
0.0
 10
14.9361944318
 20
9.0312956943
 30
0.0
 10
14.9434800273
 20
9.0815884378
 30
0.0
 10
14.9512773503
 20
9.1311129757
 30
0.0
 10
14.9595706743
 20
9.1797697291
 30
0.0
 10
14.9683432681
 20
9.2274608744
 30
0.0
 10
14.977577429
 20
9.2740905414
 30
0.0
 10
14.987254518
 20
9.3195650133
 30
0.0
 10
14.9973549974
 20
9.363792903
 30
0.0
 10
15.0078584684
 20
9.4066853974
 30
0.0
 10
15.0187437154
 20
9.4481562409
 30
0.0
 10
15.0281945593
 20
9.4817458678
 30
0.0
 10
15.0359382369
 20
9.5078378112
 30
0.0
 10
15.0417773114
 20
9.526830525
 30
0.0
 10
15.0476950242
 20
9.545407189
 30
0.0
 10
15.053688473
 20
9.5635584754
 30
0.0
 10
15.0597545734
 20
9.5812752691
 30
0.0
 10
15.0658903329
 20
9.5985486641
 30
0.0
 10
15.0720926021
 20
9.6153699941
 30
0.0
 10
15.0783583148
 20
9.6317308054
 30
0.0
 10
15.084684264
 20
9.6476228954
 30
0.0
 10
15.0910673137
 20
9.6630382824
 30
0.0
 10
15.0975042105
 20
9.6779692437
 30
0.0
 10
15.1039917518
 20
9.6924082884
 30
0.0
 10
15.1105266494
 20
9.706348189
 30
0.0
 10
15.1171056386
 20
9.7197819636
 30
0.0
 10
15.1237254091
 20
9.7327028951
 30
0.0
 10
15.130382642
 20
9.7451045283
 30
0.0
 10
15.1370740155
 20
9.7569806676
 30
0.0
 10
15.1437961633
 20
9.7683254027
 30
0.0
 10
15.150545772
 20
9.7791330775
 30
0.0
 10
15.1573194528
 20
9.7893983419
 30
0.0
 10
15.1641138976
 20
9.7991160639
 30
0.0
 10
15.170925682
 20
9.8082814664
 30
0.0
 10
15.1777515712
 20
9.8168900077
 30
0.0
 10
15.1845883081
 20
9.824937571
 30
0.0
 10
15.1914323826
 20
9.8324198149
 30
0.0
 10
15.1960925864
 20
9.8371244432
 30
0.0
 10
15.1984239885
 20
9.8393764048
 30
0.0
  0
SPLINE
  5
389
100
AcDbEntity
  8
0
100
AcDbSpline
 62
7
  6
CONTINUOUS
 70
0
 71
3
 72
98
 73
94
 74
0
 42
0.0000001
 43
0.0000001
 44
0.0000000001
 40
0.0
 40
0.0
 40
0.0
 40
0.0
 40
0.0027966045
 40
0.0056681121
 40
0.0086296107
 40
0.0116947045
 40
0.014875484
 40
0.0181825443
 40
0.021625117
 40
0.0252111069
 40
0.0289472819
 40
0.0328393376
 40
0.0368920304
 40
0.0411093052
 40
0.0454943274
 40
0.0500496538
 40
0.0547772165
 40
0.0596784556
 40
0.0647543461
 40
0.0700054263
 40
0.0754319028
 40
0.0810335948
 40
0.0868100596
 40
0.0927605472
 40
0.0988840563
 40
0.1051793695
 40
0.1116450131
 40
0.1182793584
 40
0.1250805445
 40
0.1320465633
 40
0.139175235
 40
0.1464642086
 40
0.1539110212
 40
0.1615130276
 40
0.177171325
 40
0.193415837
 40
0.2102212685
 40
0.2275606856
 40
0.2454056599
 40
0.2637263978
 40
0.2824918559
 40
0.3016698555
 40
0.32122719
 40
0.3411297247
 40
0.3613424931
 40
0.3818297904
 40
0.4025552635
 40
0.4234820031
 40
0.4445726354
 40
0.4657894103
 40
0.4870942885
 40
0.5084490293
 40
0.5298152772
 40
0.5511546512
 40
0.5724288324
 40
0.5935996502
 40
0.6146291701
 40
0.6354797806
 40
0.6561142829
 40
0.676495982
 40
0.6965887744
 40
0.7163572392
 40
0.7357667302
 40
0.7547834701
 40
0.7733746514
 40
0.7915085412
 40
0.8091545847
 40
0.8262835188
 40
0.8428674946
 40
0.8588802131
 40
0.8742970796
 40
0.8817750094
 40
0.8890956221
 40
0.8962564144
 40
0.9032549999
 40
0.9100891883
 40
0.9167569064
 40
0.9232562918
 40
0.9295856493
 40
0.9357434777
 40
0.9417285187
 40
0.9475397016
 40
0.9531762551
 40
0.9586376421
 40
0.9639236514
 40
0.9690344089
 40
0.9739703719
 40
0.9787324276
 40
0.9833218732
 40
0.9877406246
 40
0.9919911728
 40
0.9960764748
 40
1.0
 40
1.0
 40
1.0
 40
1.0
 10
15.0667237293
 20
7.8987173192
 30
0.0
 10
15.0652652832
 20
7.8992329572
 30
0.0
 10
15.0623513562
 20
7.9004007907
 30
0.0
 10
15.058068589
 20
7.9025184197
 30
0.0
 10
15.0538252096
 20
7.9050205213
 30
0.0
 10
15.0496235196
 20
7.9079053362
 30
0.0
 10
15.045465213
 20
7.9111711935
 30
0.0
 10
15.0413519877
 20
7.9148162155
 30
0.0
 10
15.0372856213
 20
7.9188385932
 30
0.0
 10
15.0332677307
 20
7.9232362471
 30
0.0
 10
15.0293000855
 20
7.928007105
 30
0.0
 10
15.0253843764
 20
7.9331488739
 30
0.0
 10
15.0215223099
 20
7.9386591234
 30
0.0
 10
15.0177156719
 20
7.9445352958
 30
0.0
 10
15.0139661102
 20
7.9507745944
 30
0.0
 10
15.0102754292
 20
7.9573741284
 30
0.0
 10
15.006645277
 20
7.9643307655
 30
0.0
 10
15.0030773784
 20
7.9716412404
 30
0.0
 10
14.9995734225
 20
7.9793021029
 30
0.0
 10
14.996135018
 20
7.9873097161
 30
0.0
 10
14.9927638646
 20
7.9956603035
 30
0.0
 10
14.9894614938
 20
8.0043498827
 30
0.0
 10
14.9862295365
 20
8.0133743366
 30
0.0
 10
14.9830695091
 20
8.0227293636
 30
0.0
 10
14.9799829163
 20
8.0324105079
 30
0.0
 10
14.9769712742
 20
8.0424131589
 30
0.0
 10
14.9740359683
 20
8.0527325373
 30
0.0
 10
14.9711784689
 20
8.0633637243
 30
0.0
 10
14.9684000961
 20
8.0743016363
 30
0.0
 10
14.9657022103
 20
8.0855410495
 30
0.0
 10
14.9630861088
 20
8.0970765917
 30
0.0
 10
14.9605530215
 20
8.1089027435
 30
0.0
 10
14.9581041993
 20
8.1210138616
 30
0.0
 10
14.9549216537
 20
8.1376986855
 30
0.0
 10
14.9511714665
 20
8.1592278959
 30
0.0
 10
14.9470682865
 20
8.185857685
 30
0.0
 10
14.9433270384
 20
8.2134793326
 30
0.0
 10
14.9399549509
 20
8.2420399497
 30
0.0
 10
14.9369585646
 20
8.2714849537
 30
0.0
 10
14.9343436876
 20
8.3017580106
 30
0.0
 10
14.9321153867
 20
8.3328011913
 30
0.0
 10
14.9302779798
 20
8.3645550746
 30
0.0
 10
14.9288350313
 20
8.3969588696
 30
0.0
 10
14.9277893453
 20
8.4299505343
 30
0.0
 10
14.9271429605
 20
8.463466895
 30
0.0
 10
14.9268971478
 20
8.4974437666
 30
0.0
 10
14.9270524019
 20
8.531816076
 30
0.0
 10
14.9276084434
 20
8.5665179885
 30
0.0
 10
14.9285642229
 20
8.6014830365
 30
0.0
 10
14.9299179227
 20
8.6366442472
 30
0.0
 10
14.9316669599
 20
8.6719342709
 30
0.0
 10
14.9338079933
 20
8.7072855094
 30
0.0
 10
14.9363369241
 20
8.7426302462
 30
0.0
 10
14.9392489046
 20
8.7779007782
 30
0.0
 10
14.942538352
 20
8.8130295454
 30
0.0
 10
14.9461989583
 20
8.8479492604
 30
0.0
 10
14.9502237019
 20
8.8825930371
 30
0.0
 10
14.9546048623
 20
8.9168945188
 30
0.0
 10
14.9593340307
 20
8.950788008
 30
0.0
 10
14.9644021243
 20
8.9842085938
 30
0.0
 10
14.9697994096
 20
9.0170922764
 30
0.0
 10
14.9755155191
 20
9.0493760885
 30
0.0
 10
14.9815394711
 20
9.0809982168
 30
0.0
 10
14.9878596914
 20
9.1118981216
 30
0.0
 10
14.9944640324
 20
9.1420166581
 30
0.0
 10
15.0013397928
 20
9.1712961926
 30
0.0
 10
15.0084737486
 20
9.1996807173
 30
0.0
 10
15.0158521768
 20
9.2271159447
 30
0.0
 10
15.0234608815
 20
9.2535494641
 30
0.0
 10
15.0312852244
 20
9.2789306739
 30
0.0
 10
15.038039369
 20
9.2993665403
 30
0.0
 10
15.0435461587
 20
9.3151469735
 30
0.0
 10
15.0476788191
 20
9.3265692275
 30
0.0
 10
15.0518539659
 20
9.3376932571
 30
0.0
 10
15.0560696619
 20
9.3485137428
 30
0.0
 10
15.0603238247
 20
9.3590255224
 30
0.0
 10
15.064614469
 20
9.369223563
 30
0.0
 10
15.0689395048
 20
9.3791030015
 30
0.0
 10
15.0732968664
 20
9.3886591219
 30
0.0
 10
15.0776844936
 20
9.3978873574
 30
0.0
 10
15.0821002373
 20
9.4067833243
 30
0.0
 10
15.0865420519
 20
9.4153427638
 30
0.0
 10
15.0910077546
 20
9.4235616224
 30
0.0
 10
15.0954952573
 20
9.4314359803
 30
0.0
 10
15.1000024191
 20
9.438962104
 30
0.0
 10
15.1045270812
 20
9.4461364397
 30
0.0
 10
15.1090671543
 20
9.4529555566
 30
0.0
 10
15.1136204074
 20
9.4594162565
 30
0.0
 10
15.1181847803
 20
9.4655154713
 30
0.0
 10
15.1227581471
 20
9.4712503896
 30
0.0
 10
15.1273384808
 20
9.476618347
 30
0.0
 10
15.131923447
 20
9.4816165653
 30
0.0
 10
15.1350437603
 20
9.4847632265
 30
0.0
 10
15.1366047305
 20
9.486271008
 30
0.0
  0
SPLINE
  5
38A
100
AcDbEntity
  8
0
100
AcDbSpline
 62
7
  6
CONTINUOUS
 70
0
 71
3
 72
15
 73
11
 74
0
 42
0.0000001
 43
0.0000001
 44
0.0000000001
 40
0.0
 40
0.0
 40
0.0
 40
0.0
 40
0.1084409435
 40
0.2203195104
 40
0.3363915019
 40
0.457322426
 40
0.5836916023
 40
0.7159967326
 40
0.8546555032
 40
1.0
 40
1.0
 40
1.0
 40
1.0
 10
15.1785337862
 20
9.5109633669
 30
0.0
 10
15.1767877766
 20
9.5106069724
 30
0.0
 10
15.1732730738
 20
9.5097132784
 30
0.0
 10
15.1680518864
 20
9.5078779883
 30
0.0
 10
15.1628137988
 20
9.5055321643
 30
0.0
 10
15.1575624656
 20
9.502678429
 30
0.0
 10
15.1523006425
 20
9.4993190667
 30
0.0
 10
15.1470310834
 20
9.4954566274
 30
0.0
 10
15.1417569927
 20
9.4910939616
 30
0.0
 10
15.1383226332
 20
9.4879303747
 30
0.0
 10
15.1366047305
 20
9.486271008
 30
0.0
  0
SPLINE
  5
38B
100
AcDbEntity
  8
0
100
AcDbSpline
 62
7
  6
CONTINUOUS
 70
0
 71
3
 72
23
 73
19
 74
0
 42
0.0000001
 43
0.0000001
 44
0.0000000001
 40
0.0
 40
0.0
 40
0.0
 40
0.0
 40
0.063776909
 40
0.1273449468
 40
0.1907019575
 40
0.2538561145
 40
0.3168131979
 40
0.3795820804
 40
0.4421733815
 40
0.5045993354
 40
0.5668738682
 40
0.6290123838
 40
0.6910316538
 40
0.75294965
 40
0.8147853622
 40
0.8765586114
 40
0.9382898593
 40
1.0
 40
1.0
 40
1.0
 40
1.0
 10
13.9997716212
 20
7.0587730489
 30
0.0
 10
13.9997716212
 20
7.0640804977
 30
0.0
 10
14.0000256652
 20
7.0746798113
 30
0.0
 10
14.0011722415
 20
7.0905142962
 30
0.0
 10
14.0030813237
 20
7.106223274
 30
0.0
 10
14.0057483238
 20
7.1217698456
 30
0.0
 10
14.009167296
 20
7.1371184785
 30
0.0
 10
14.013330333
 20
7.1522336917
 30
0.0
 10
14.0182278587
 20
7.1670806645
 30
0.0
 10
14.0238486243
 20
7.1816251592
 30
0.0
 10
14.030179719
 20
7.1958336222
 30
0.0
 10
14.0372065719
 20
7.2096732803
 30
0.0
 10
14.0449129788
 20
7.2231122177
 30
0.0
 10
14.0532811953
 20
7.2361194409
 30
0.0
 10
14.0622919273
 20
7.2486649039
 30
0.0
 10
14.0719245156
 20
7.2607197546
 30
0.0
 10
14.0821563516
 20
7.2722558169
 30
0.0
 10
14.089362688
 20
7.2795842937
 30
0.0
 10
14.0930563795
 20
7.2831521411
 30
0.0
  0
SPLINE
  5
38C
100
AcDbEntity
  8
0
100
AcDbSpline
 62
7
  6
CONTINUOUS
 70
0
 71
3
 72
48
 73
44
 74
0
 42
0.0000001
 43
0.0000001
 44
0.0000000001
 40
0.0
 40
0.0
 40
0.0
 40
0.0
 40
0.0149718897
 40
0.0299468369
 40
0.0449278839
 40
0.0599180336
 40
0.0749202322
 40
0.0899373568
 40
0.1049721887
 40
0.1200274064
 40
0.1351055645
 40
0.1502090774
 40
0.1653402142
 40
0.180501073
 40
0.1956935825
 40
0.2109194836
 40
0.2261803205
 40
0.2414774416
 40
0.2568119786
 40
0.2721848576
 40
0.3030428416
 40
0.3340598877
 40
0.365235493
 40
0.3965657058
 40
0.4280432614
 40
0.4596577825
 40
0.4913960356
 40
0.5232422374
 40
0.5551784039
 40
0.5871847345
 40
0.6192400218
 40
0.6513220815
 40
0.6834081967
 40
0.7154755701
 40
0.7475017768
 40
0.7794652126
 40
0.8113455287
 40
0.8431240501
 40
0.8747841728
 40
0.9063117021
 40
0.9376953081
 40
0.9689262526
 40
1.0
 40
1.0
 40
1.0
 40
1.0
 10
14.5710438708
 20
6.7883067717
 30
0.0
 10
14.5681901772
 20
6.7855503035
 30
0.0
 10
14.5623719723
 20
6.7801496243
 30
0.0
 10
14.5533286398
 20
6.7724009905
 30
0.0
 10
14.5439808464
 20
6.7650143967
 30
0.0
 10
14.5343415539
 20
6.7580002816
 30
0.0
 10
14.5244240572
 20
6.7513681477
 30
0.0
 10
14.5142419689
 20
6.745127201
 30
0.0
 10
14.5038093149
 20
6.7392860035
 30
0.0
 10
14.4931404747
 20
6.7338525469
 30
0.0
 10
14.4822500866
 20
6.728834394
 30
0.0
 10
14.4711531903
 20
6.7242383288
 30
0.0
 10
14.4598650143
 20
6.7200707675
 30
0.0
 10
14.4484011153
 20
6.7163373812
 30
0.0
 10
14.4367772662
 20
6.7130432884
 30
0.0
 10
14.4250094469
 20
6.7101930841
 30
0.0
 10
14.4131138578
 20
6.7077905674
 30
0.0
 10
14.4011068983
 20
6.7058391518
 30
0.0
 10
14.3890048828
 20
6.7043414253
 30
0.0
 10
14.3727461359
 20
6.7029504903
 30
0.0
 10
14.3522629272
 20
6.7023591003
 30
0.0
 10
14.3276080002
 20
6.7034839154
 30
0.0
 10
14.3029781185
 20
6.7064354008
 30
0.0
 10
14.2785095384
 20
6.7111971463
 30
0.0
 10
14.2543363943
 20
6.7177426968
 30
0.0
 10
14.2305914739
 20
6.726035874
 30
0.0
 10
14.2074050979
 20
6.7360309388
 30
0.0
 10
14.1849045149
 20
6.7476728342
 30
0.0
 10
14.1632131829
 20
6.7608974951
 30
0.0
 10
14.1424501162
 20
6.7756322157
 30
0.0
 10
14.1227292383
 20
6.7917960417
 30
0.0
 10
14.1041587671
 20
6.8093002119
 30
0.0
 10
14.0868406271
 20
6.8280486381
 30
0.0
 10
14.0708698747
 20
6.84793841
 30
0.0
 10
14.0563342025
 20
6.8688603775
 30
0.0
 10
14.0433134617
 20
6.8906997394
 30
0.0
 10
14.0318792286
 20
6.9133366686
 30
0.0
 10
14.0220944154
 20
6.9366469466
 30
0.0
 10
14.0140129163
 20
6.9605026809
 30
0.0
 10
14.0076792694
 20
6.984772812
 30
0.0
 10
14.0031285523
 20
7.0093245198
 30
0.0
 10
14.0003859037
 20
7.0340212487
 30
0.0
 10
13.9997716212
 20
7.050538447
 30
0.0
 10
13.9997716212
 20
7.0587730489
 30
0.0
  0
SPLINE
  5
38D
100
AcDbEntity
  8
0
100
AcDbSpline
 62
7
  6
CONTINUOUS
 70
0
 71
3
 72
100
 73
96
 74
0
 42
0.0000001
 43
0.0000001
 44
0.0000000001
 40
0.0
 40
0.0
 40
0.0
 40
0.0
 40
0.0038893829
 40
0.0079369618
 40
0.0121461202
 40
0.0165197828
 40
0.0210603963
 40
0.0257697902
 40
0.0306492656
 40
0.0356997065
 40
0.0409216052
 40
0.0463151263
 40
0.0518800783
 40
0.0576160156
 40
0.0635221917
 40
0.069597652
 40
0.0758411882
 40
0.0822514058
 40
0.0888267062
 40
0.0955653125
 40
0.1024652887
 40
0.1095245232
 40
0.1167407814
 40
0.1241116581
 40
0.1316346488
 40
0.1393070907
 40
0.1471262312
 40
0.1550891806
 40
0.1714343012
 40
0.1883175276
 40
0.205712244
 40
0.223590461
 40
0.2419229336
 40
0.2606792702
 40
0.2798280351
 40
0.2993368452
 40
0.3191724631
 40
0.3393008874
 40
0.35968744
 40
0.3802968532
 40
0.4010933542
 40
0.4220407496
 40
0.443102508
 40
0.4642418433
 40
0.485421797
 40
0.5066053204
 40
0.5277553567
 40
0.5488349235
 40
0.5698071946
 40
0.5906355832
 40
0.6112838243
 40
0.6317160577
 40
0.6518969122
 40
0.6717915901
 40
0.691365953
 40
0.7105866093
 40
0.7294210039
 40
0.7478375105
 40
0.765805528
 40
0.7832955821
 40
0.8002794331
 40
0.8167301915
 40
0.8326224453
 40
0.8403517343
 40
0.8479326081
 40
0.8553623896
 40
0.8626384924
 40
0.8697584898
 40
0.8767200671
 40
0.8835210723
 40
0.8901594987
 40
0.8966335023
 40
0.9029414251
 40
0.909081776
 40
0.9150532939
 40
0.9208549007
 40
0.926485791
 40
0.9319453793
 40
0.9372333924
 40
0.9423498387
 40
0.9472950827
 40
0.9520698565
 40
0.9566753064
 40
0.9611130575
 40
0.9653852342
 40
0.9694945761
 40
0.9734444483
 40
0.9772389936
 40
0.9808831575
 40
0.984382851
 40
0.9877450116
 40
0.9909777484
 40
0.9940904332
 40
0.9970937955
 40
1.0
 40
1.0
 40
1.0
 40
1.0
 10
15.1366047305
 20
7.5640784998
 30
0.0
 10
15.1388482351
 20
7.566245559
 30
0.0
 10
15.1433329501
 20
7.5707655246
 30
0.0
 10
15.149924533
 20
7.5779403011
 30
0.0
 10
15.1565095878
 20
7.5856397202
 30
0.0
 10
15.1630849336
 20
7.5938599099
 30
0.0
 10
15.1696476756
 20
7.6025972039
 30
0.0
 10
15.176194899
 20
7.6118476113
 30
0.0
 10
15.1827236041
 20
7.62160689
 30
0.0
 10
15.1892307521
 20
7.6318705428
 30
0.0
 10
15.1957133954
 20
7.6426338155
 30
0.0
 10
15.2021684814
 20
7.6538917672
 30
0.0
 10
15.2085930946
 20
7.6656391667
 30
0.0
 10
15.2149841723
 20
7.6778706024
 30
0.0
 10
15.2213388209
 20
7.6905803797
 30
0.0
 10
15.227654016
 20
7.7037626236
 30
0.0
 10
15.23392687
 20
7.7174111987
 30
0.0
 10
15.2401544235
 20
7.7315197742
 30
0.0
 10
15.2463337879
 20
7.7460817869
 30
0.0
 10
15.2524620847
 20
7.7610904643
 30
0.0
 10
15.2585364307
 20
7.7765388269
 30
0.0
 10
15.2645540299
 20
7.7924196776
 30
0.0
 10
15.2705120205
 20
7.808725631
 30
0.0
 10
15.2764076805
 20
7.8254490835
 30
0.0
 10
15.2822381946
 20
7.8425822549
 30
0.0
 10
15.2880008957
 20
7.8601171512
 30
0.0
 10
15.2936930579
 20
7.8780456196
 30
0.0
 10
15.3012506955
 20
7.9026780095
 30
0.0
 10
15.3104920035
 20
7.9343957603
 30
0.0
 10
15.3211645735
 20
7.9735684913
 30
0.0
 10
15.331494199
 20
8.0141030247
 30
0.0
 10
15.3414615364
 20
8.0559237577
 30
0.0
 10
15.3510479173
 20
8.0989528125
 30
0.0
 10
15.360235393
 20
8.1431099944
 30
0.0
 10
15.3690067648
 20
8.188312999
 30
0.0
 10
15.3773456171
 20
8.2344775542
 30
0.0
 10
15.3852363468
 20
8.2815175833
 30
0.0
 10
15.3926641932
 20
8.3293453663
 30
0.0
 10
15.3996152652
 20
8.377871706
 30
0.0
 10
15.4060765662
 20
8.4270060958
 30
0.0
 10
15.4120360181
 20
8.4766568902
 30
0.0
 10
15.4174824837
 20
8.5267314766
 30
0.0
 10
15.4224057873
 20
8.5771364489
 30
0.0
 10
15.4267967332
 20
8.6277777825
 30
0.0
 10
15.4306471234
 20
8.67856101
 30
0.0
 10
15.4339497723
 20
8.7293913985
 30
0.0
 10
15.4366985203
 20
8.7801741261
 30
0.0
 10
15.4388882454
 20
8.8308144602
 30
0.0
 10
15.4405148734
 20
8.8812179346
 30
0.0
 10
15.4415753861
 20
8.9312905267
 30
0.0
 10
15.4420678258
 20
8.9809388339
 30
0.0
 10
15.4419912996
 20
9.0300702482
 30
0.0
 10
15.4413459815
 20
9.07859313
 30
0.0
 10
15.4401331126
 20
9.1264169799
 30
0.0
 10
15.4383549986
 20
9.1734526092
 30
0.0
 10
15.4360150069
 20
9.2196123068
 30
0.0
 10
15.4331175602
 20
9.2648100057
 30
0.0
 10
15.4296681295
 20
9.3089614444
 30
0.0
 10
15.4256732245
 20
9.3519843319
 30
0.0
 10
15.4211403812
 20
9.3937984894
 30
0.0
 10
15.416078156
 20
9.4343260624
 30
0.0
 10
15.4104960817
 20
9.473491465
 30
0.0
 10
15.4053737611
 20
9.5052200212
 30
0.0
 10
15.401014237
 20
9.5298614426
 30
0.0
 10
15.3976515566
 20
9.5477860823
 30
0.0
 10
15.3941672523
 20
9.5653170749
 30
0.0
 10
15.3905628774
 20
9.5824462676
 30
0.0
 10
15.386840174
 20
9.5991656777
 30
0.0
 10
15.3830008426
 20
9.6154675194
 30
0.0
 10
15.3790467021
 20
9.6313442029
 30
0.0
 10
15.3749795961
 20
9.6467883395
 30
0.0
 10
15.3708014101
 20
9.6617927418
 30
0.0
 10
15.3665141307
 20
9.6763504362
 30
0.0
 10
15.3621197067
 20
9.6904546503
 30
0.0
 10
15.3576202554
 20
9.7040988418
 30
0.0
 10
15.3530177974
 20
9.7172766665
 30
0.0
 10
15.3483145547
 20
9.7299820269
 30
0.0
 10
15.3435126379
 20
9.7422090236
 30
0.0
 10
15.338614339
 20
9.7539520125
 30
0.0
 10
15.3336218767
 20
9.7652055579
 30
0.0
 10
15.3285375791
 20
9.7759644741
 30
0.0
 10
15.32336378
 20
9.7862238086
 30
0.0
 10
15.318102818
 20
9.7959788359
 30
0.0
 10
15.3127571309
 20
9.8052251025
 30
0.0
 10
15.3073290523
 20
9.8139583426
 30
0.0
 10
15.3018210907
 20
9.8221746063
 30
0.0
 10
15.2962355708
 20
9.8298700843
 30
0.0
 10
15.2905750175
 20
9.8370413101
 30
0.0
 10
15.2848417534
 20
9.8436849226
 30
0.0
 10
15.279038263
 20
9.8497978781
 30
0.0
 10
15.2731668748
 20
9.855377238
 30
0.0
 10
15.2672300423
 20
9.860420264
 30
0.0
 10
15.2612300324
 20
9.8649244346
 30
0.0
 10
15.255169746
 20
9.8688869914
 30
0.0
 10
15.2510282257
 20
9.87120115
 30
0.0
 10
15.2489523439
 20
9.8722608495
 30
0.0
  0
SPLINE
  5
38E
100
AcDbEntity
  8
0
100
AcDbSpline
 62
7
  6
CONTINUOUS
 70
0
 71
3
 72
15
 73
11
 74
0
 42
0.0000001
 43
0.0000001
 44
0.0000000001
 40
0.0
 40
0.0
 40
0.0
 40
0.0
 40
0.1421390837
 40
0.2788503626
 40
0.4103426683
 40
0.5368711805
 40
0.6587359391
 40
0.7762792764
 40
0.8898886928
 40
1.0
 40
1.0
 40
1.0
 40
1.0
 10
15.1366047305
 20
7.5640784998
 30
0.0
 10
15.1345269144
 20
7.5620714835
 30
0.0
 10
15.1303725285
 20
7.5582137543
 30
0.0
 10
15.124018848
 20
7.5528073754
 30
0.0
 10
15.1176692699
 20
7.5478986241
 30
0.0
 10
15.1113265726
 20
7.5434899495
 30
0.0
 10
15.1049932007
 20
7.5395833724
 30
0.0
 10
15.0986714426
 20
7.5361807816
 30
0.0
 10
15.0923642855
 20
7.5332841079
 30
0.0
 10
15.0881094869
 20
7.5316682414
 30
0.0
 10
15.0859898813
 20
7.5309502448
 30
0.0
  0
SPLINE
  5
38F
100
AcDbEntity
  8
0
100
AcDbSpline
 62
7
  6
CONTINUOUS
 70
0
 71
3
 72
23
 73
19
 74
0
 42
0.0000001
 43
0.0000001
 44
0.0000000001
 40
0.0
 40
0.0
 40
0.0
 40
0.0
 40
0.0781377872
 40
0.1532326428
 40
0.2254045199
 40
0.2947995079
 40
0.3615913906
 40
0.4259789214
 40
0.4881875913
 40
0.5484706304
 40
0.6071105645
 40
0.6644174891
 40
0.7207257753
 40
0.7763897945
 40
0.8317772593
 40
0.887261997
 40
0.9432156672
 40
1.0
 40
1.0
 40
1.0
 40
1.0
 10
15.1366047305
 20
7.9214710767
 30
0.0
 10
15.1351497329
 20
7.9200656568
 30
0.0
 10
15.13224062
 20
7.917366424
 30
0.0
 10
15.1277896416
 20
7.9135894503
 30
0.0
 10
15.1233416211
 20
7.9101682524
 30
0.0
 10
15.1188985775
 20
7.9071046858
 30
0.0
 10
15.1144623136
 20
7.9044001704
 30
0.0
 10
15.1100345311
 20
7.9020561659
 30
0.0
 10
15.105617094
 20
7.9000739115
 30
0.0
 10
15.1012118511
 20
7.8984547772
 30
0.0
 10
15.0968208119
 20
7.8971999254
 30
0.0
 10
15.0924460991
 20
7.8963103492
 30
0.0
 10
15.088089967
 20
7.8957870107
 30
0.0
 10
15.0837548499
 20
7.8956303792
 30
0.0
 10
15.0794432965
 20
7.8958408446
 30
0.0
 10
15.0751577975
 20
7.8964182896
 30
0.0
 10
15.0709011982
 20
7.8973621231
 30
0.0
 10
15.0681097537
 20
7.8982272862
 30
0.0
 10
15.0667237293
 20
7.8987173192
 30
0.0
  0
SPLINE
  5
390
100
AcDbEntity
  8
0
100
AcDbSpline
 62
7
  6
CONTINUOUS
 70
0
 71
3
 72
23
 73
19
 74
0
 42
0.0000001
 43
0.0000001
 44
0.0000000001
 40
0.0
 40
0.0
 40
0.0
 40
0.0
 40
0.0764224449
 40
0.1504663304
 40
0.2222018644
 40
0.2917109085
 40
0.3590900072
 40
0.4244474941
 40
0.4879039322
 40
0.5495927797
 40
0.6096609977
 40
0.6682702188
 40
0.7255962294
 40
0.7818281329
 40
0.8371677443
 40
0.8918276443
 40
0.9460291863
 40
1.0
 40
1.0
 40
1.0
 40
1.0
 10
15.1984239885
 20
7.5597913197
 30
0.0
 10
15.1967293446
 20
7.5581544193
 30
0.0
 10
15.1933407286
 20
7.5549848546
 30
0.0
 10
15.1881770616
 20
7.5504809392
 30
0.0
 10
15.1830157343
 20
7.5463051818
 30
0.0
 10
15.1778582892
 20
7.5424590484
 30
0.0
 10
15.1727061588
 20
7.5389436178
 30
0.0
 10
15.1675606479
 20
7.535759949
 30
0.0
 10
15.1624231018
 20
7.5329090252
 30
0.0
 10
15.1572949324
 20
7.5303917329
 30
0.0
 10
15.1521775107
 20
7.5282090318
 30
0.0
 10
15.1470722842
 20
7.5263617099
 30
0.0
 10
15.1419807246
 20
7.52485046
 30
0.0
 10
15.1369043073
 20
7.5236760204
 30
0.0
 10
15.1318446408
 20
7.5228388738
 30
0.0
 10
15.1268032579
 20
7.5223394664
 30
0.0
 10
15.1217821307
 20
7.5221781488
 30
0.0
 10
15.118446245
 20
7.5222961644
 30
0.0
 10
15.1167863069
 20
7.5224112871
 30
0.0
  0
SPLINE
  5
391
100
AcDbEntity
  8
0
100
AcDbSpline
 62
7
  6
CONTINUOUS
 70
0
 71
3
 72
101
 73
97
 74
0
 42
0.0000001
 43
0.0000001
 44
0.0000000001
 40
0.0
 40
0.0
 40
0.0
 40
0.0
 40
0.0040523204
 40
0.0082800102
 40
0.0126869618
 40
0.0172764741
 40
0.0220512743
 40
0.0270133701
 40
0.0321640975
 40
0.0375043108
 40
0.0430343724
 40
0.0487542797
 40
0.0546635975
 40
0.0607615842
 40
0.067047165
 40
0.0735189838
 40
0.0801754365
 40
0.087014644
 40
0.0940345454
 40
0.1012328208
 40
0.1086070004
 40
0.1161543931
 40
0.1238721575
 40
0.1317572831
 40
0.1480165659
 40
0.1649054499
 40
0.1823947749
 40
0.2004534686
 40
0.2190487217
 40
0.2381461467
 40
0.257709921
 40
0.2777029247
 40
0.2980868697
 40
0.3188224229
 40
0.3398693251
 40
0.3611865075
 40
0.3827322047
 40
0.4044640677
 40
0.4263392743
 40
0.4483146404
 40
0.4703467305
 40
0.4923919669
 40
0.514406739
 40
0.5363475128
 40
0.5581709395
 40
0.5798339656
 40
0.6012939432
 40
0.6225087417
 40
0.6434368587
 40
0.6640375334
 40
0.6842708604
 40
0.7040979076
 40
0.7234808361
 40
0.7423830252
 40
0.7607692049
 40
0.7786055963
 40
0.7958600603
 40
0.812502262
 40
0.8205849436
 40
0.8285040926
 40
0.8362565301
 40
0.8438391998
 40
0.8512492221
 40
0.8584838906
 40
0.8655406607
 40
0.8724172169
 40
0.8791114049
 40
0.8856213423
 40
0.8919453402
 40
0.8980820034
 40
0.9040301982
 40
0.909789098
 40
0.9153582309
 40
0.9207374596
 40
0.9259271041
 40
0.9309278891
 40
0.9357410979
 40
0.9403685491
 40
0.9448127297
 40
0.9490768541
 40
0.9531649513
 40
0.9570820214
 40
0.9608340901
 40
0.9644284321
 40
0.9678736327
 40
0.9711798082
 40
0.9743586939
 40
0.9774237776
 40
0.9803903591
 40
0.9832755083
 40
0.9860979693
 40
0.9888778739
 40
0.9916363888
 40
0.9943952128
 40
0.9971760375
 40
1.0
 40
1.0
 40
1.0
 40
1.0
 10
15.1366047305
 20
7.9214710767
 30
0.0
 10
15.138244497
 20
7.9230549696
 30
0.0
 10
15.1415221217
 20
7.9263674379
 30
0.0
 10
15.1463332538
 20
7.9316421562
 30
0.0
 10
15.1511389982
 20
7.9373237248
 30
0.0
 10
15.1559367144
 20
7.943408915
 30
0.0
 10
15.1607240375
 20
7.9498946485
 30
0.0
 10
15.1654985462
 20
7.9567776021
 30
0.0
 10
15.170257813
 20
7.9640541962
 30
0.0
 10
15.1749992857
 20
7.9717206624
 30
0.0
 10
15.1797205714
 20
7.9797729685
 30
0.0
 10
15.1844191308
 20
7.9882069466
 30
0.0
 10
15.1890925702
 20
7.9970181646
 30
0.0
 10
15.1937383865
 20
8.0062020272
 30
0.0
 10
15.1983541581
 20
8.0157537126
 30
0.0
 10
15.2029374605
 20
8.0256682099
 30
0.0
 10
15.2074858484
 20
8.0359403211
 30
0.0
 10
15.2119969736
 20
8.0465646378
 30
0.0
 10
15.2164683935
 20
8.0575355887
 30
0.0
 10
15.2208978129
 20
8.0688473891
 30
0.0
 10
15.2252828369
 20
8.0804940986
 30
0.0
 10
15.2296211878
 20
8.0924695755
 30
0.0
 10
15.2339105702
 20
8.104767528
 30
0.0
 10
15.2396197407
 20
8.121759885
 30
0.0
 10
15.2466078548
 20
8.1437638931
 30
0.0
 10
15.2546796122
 20
8.1710866644
 30
0.0
 10
15.2625035675
 20
8.1995326744
 30
0.0
 10
15.270063139
 20
8.2290419596
 30
0.0
 10
15.2773423033
 20
8.2595524292
 30
0.0
 10
15.284325636
 20
8.2909998123
 30
0.0
 10
15.2909983452
 20
8.3233178507
 30
0.0
 10
15.2973463015
 20
8.3564384289
 30
0.0
 10
15.3033560663
 20
8.3902917267
 30
0.0
 10
15.3090149205
 20
8.4248063681
 30
0.0
 10
15.3143108907
 20
8.4599095742
 30
0.0
 10
15.3192327739
 20
8.4955273177
 30
0.0
 10
15.323770161
 20
8.5315844802
 30
0.0
 10
15.3279134582
 20
8.5680050114
 30
0.0
 10
15.3316539088
 20
8.6047120905
 30
0.0
 10
15.3349836119
 20
8.6416282889
 30
0.0
 10
15.3378955364
 20
8.6786757358
 30
0.0
 10
15.3403835369
 20
8.7157762827
 30
0.0
 10
15.3424423658
 20
8.752851669
 30
0.0
 10
15.3440676852
 20
8.7898236871
 30
0.0
 10
15.3452560757
 20
8.8266143477
 30
0.0
 10
15.3460050435
 20
8.8631460451
 30
0.0
 10
15.3463130276
 20
8.8993417227
 30
0.0
 10
15.3461794042
 20
8.935125036
 30
0.0
 10
15.3456044859
 20
8.9704205155
 30
0.0
 10
15.344589522
 20
9.0051537261
 30
0.0
 10
15.343136696
 20
9.0392514254
 30
0.0
 10
15.341249122
 20
9.0726417196
 30
0.0
 10
15.3389308385
 20
9.1052542163
 30
0.0
 10
15.336186801
 20
9.1370201796
 30
0.0
 10
15.3330228708
 20
9.1678726665
 30
0.0
 10
15.3294458133
 20
9.1977467213
 30
0.0
 10
15.3254632547
 20
9.2265793474
 30
0.0
 10
15.3217787897
 20
9.2499093252
 30
0.0
 10
15.3186270097
 20
9.2680025217
 30
0.0
 10
15.3161901875
 20
9.2811427895
 30
0.0
 10
15.3136587532
 20
9.2939785606
 30
0.0
 10
15.3110340053
 20
9.3065030857
 30
0.0
 10
15.3083173419
 20
9.3187097647
 30
0.0
 10
15.3055102169
 20
9.3305921725
 30
0.0
 10
15.3026140755
 20
9.3421440519
 30
0.0
 10
15.2996305062
 20
9.3533593293
 30
0.0
 10
15.2965610188
 20
9.3642321009
 30
0.0
 10
15.2934073018
 20
9.3747566588
 30
0.0
 10
15.2901709637
 20
9.3849274693
 30
0.0
 10
15.2868537481
 20
9.3947391992
 30
0.0
 10
15.2834573912
 20
9.4041867038
 30
0.0
 10
15.2799836613
 20
9.4132650309
 30
0.0
 10
15.2764344264
 20
9.4219694437
 30
0.0
 10
15.2728114754
 20
9.4302953797
 30
0.0
 10
15.269116779
 20
9.4382385223
 30
0.0
 10
15.2653521707
 20
9.4457947153
 30
0.0
 10
15.2615196647
 20
9.4529600614
 30
0.0
 10
15.2576211728
 20
9.4597308347
 30
0.0
 10
15.25365869
 20
9.4661035432
 30
0.0
 10
15.2496342165
 20
9.4720749111
 30
0.0
 10
15.2455496877
 20
9.4776418295
 30
0.0
 10
15.2414071614
 20
9.4828014689
 30
0.0
 10
15.2372085103
 20
9.4875510764
 30
0.0
 10
15.2329557839
 20
9.491888211
 30
0.0
 10
15.2286508352
 20
9.4958104444
 30
0.0
 10
15.2242956591
 20
9.4993155964
 30
0.0
 10
15.219892184
 20
9.5024015139
 30
0.0
 10
15.2154424254
 20
9.5050661277
 30
0.0
 10
15.210948563
 20
9.5073075255
 30
0.0
 10
15.2064128887
 20
9.5091237281
 30
0.0
 10
15.2018380676
 20
9.5105131736
 30
0.0
 10
15.1972269434
 20
9.5114742858
 30
0.0
 10
15.1925827528
 20
9.512006195
 30
0.0
 10
15.1879087067
 20
9.5121082662
 30
0.0
 10
15.1832086391
 20
9.5117806908
 30
0.0
 10
15.1800904346
 20
9.5112811092
 30
0.0
 10
15.1785337862
 20
9.5109633669
 30
0.0
  0
SPLINE
  5
392
100
AcDbEntity
  8
0
100
AcDbSpline
 62
7
  6
CONTINUOUS
 70
0
 71
3
 72
107
 73
103
 74
0
 42
0.0000001
 43
0.0000001
 44
0.0000000001
 40
0.0
 40
0.0
 40
0.0
 40
0.0
 40
0.0013572612
 40
0.0027170797
 40
0.0040819966
 40
0.0054545211
 40
0.0068371186
 40
0.0082321971
 40
0.0110684612
 40
0.013981638
 40
0.0169879164
 40
0.0201018459
 40
0.0233363318
 40
0.0267026481
 40
0.0302105686
 40
0.0338684409
 40
0.0376833717
 40
0.0416613006
 40
0.0458071887
 40
0.0501250693
 40
0.0546182177
 40
0.0592891779
 40
0.0641399047
 40
0.0691717748
 40
0.0743856998
 40
0.0797821307
 40
0.085361142
 40
0.0911224386
 40
0.0970654107
 40
0.1031891498
 40
0.1094924768
 40
0.1159739692
 40
0.1226319653
 40
0.129464604
 40
0.1364698079
 40
0.1436453353
 40
0.1509887461
 40
0.1584974632
 40
0.1661687264
 40
0.1739996594
 40
0.1819872169
 40
0.190128253
 40
0.198419467
 40
0.2068574681
 40
0.2154387256
 40
0.2330162676
 40
0.251122054
 40
0.2697243673
 40
0.2887901232
 40
0.3082849955
 40
0.3281735335
 40
0.3484192745
 40
0.368984852
 40
0.3898321014
 40
0.4109221623
 40
0.4322155806
 40
0.4536724082
 40
0.4752523025
 40
0.4969146253
 40
0.5186185408
 40
0.5403231135
 40
0.5619874067
 40
0.5835705797
 40
0.6050319862
 40
0.6263312728
 40
0.647428477
 40
0.6682841272
 40
0.6888593425
 40
0.7091159341
 40
0.7290165084
 40
0.748524572
 40
0.7676046402
 40
0.7862223487
 40
0.8043445717
 40
0.8219395458
 40
0.8389770046
 40
0.8472777515
 40
0.8554285212
 40
0.8634260347
 40
0.8712671072
 40
0.8789487159
 40
0.8864679446
 40
0.8938220534
 40
0.9010084264
 40
0.9080246393
 40
0.914868415
 40
0.9215376844
 40
0.9280305565
 40
0.9343453681
 40
0.9404806728
 40
0.9464352792
 40
0.9522082616
 40
0.9577989849
 40
0.9632071405
 40
0.9684327659
 40
0.9734763106
 40
0.9783386302
 40
0.9830210709
 40
0.9875255286
 40
0.9918546207
 40
0.996011541
 40
1.0
 40
1.0
 40
1.0
 40
1.0
 10
15.2800616702
 20
9.8767564375
 30
0.0
 10
15.2811620709
 20
9.8766801207
 30
0.0
 10
15.2833618349
 20
9.8764778609
 30
0.0
 10
15.2866494462
 20
9.8760262668
 30
0.0
 10
15.2899259416
 20
9.8754264481
 30
0.0
 10
15.2931907763
 20
9.8746785221
 30
0.0
 10
15.2964435939
 20
9.873782563
 30
0.0
 10
15.3007873825
 20
9.8723832809
 30
0.0
 10
15.3061967684
 20
9.8702535175
 30
0.0
 10
15.3125939147
 20
9.8671214217
 30
0.0
 10
15.3189305158
 20
9.8634010912
 30
0.0
 10
15.3252033167
 20
9.8590953041
 30
0.0
 10
15.3314095784
 20
9.8542066998
 30
0.0
 10
15.3375466627
 20
9.8487382179
 30
0.0
 10
15.3436118452
 20
9.8426927621
 30
0.0
 10
15.3496025716
 20
9.8360735679
 30
0.0
 10
15.3555160835
 20
9.8288839157
 30
0.0
 10
15.3613498052
 20
9.821127459
 30
0.0
 10
15.3671009404
 20
9.8128079682
 30
0.0
 10
15.3727668892
 20
9.8039295947
 30
0.0
 10
15.3783448547
 20
9.7944966603
 30
0.0
 10
15.3838322364
 20
9.7845138522
 30
0.0
 10
15.3892262792
 20
9.7739860655
 30
0.0
 10
15.3945244073
 20
9.7629185341
 30
0.0
 10
15.3997239412
 20
9.7513167247
 30
0.0
 10
15.4048223509
 20
9.7391864159
 30
0.0
 10
15.4098170556
 20
9.7265336341
 30
0.0
 10
15.4147055879
 20
9.7133646935
 30
0.0
 10
15.4194854811
 20
9.6996861633
 30
0.0
 10
15.4241543434
 20
9.6855048813
 30
0.0
 10
15.428709832
 20
9.6708279413
 30
0.0
 10
15.433149642
 20
9.6556626906
 30
0.0
 10
15.4374715608
 20
9.6400167288
 30
0.0
 10
15.4416733801
 20
9.6238978977
 30
0.0
 10
15.4457530209
 20
9.6073142838
 30
0.0
 10
15.4497083814
 20
9.5902742067
 30
0.0
 10
15.4535375174
 20
9.5727862211
 30
0.0
 10
15.4572384428
 20
9.5548591072
 30
0.0
 10
15.4608093489
 20
9.5365018686
 30
0.0
 10
15.464248374
 20
9.5177237277
 30
0.0
 10
15.467553844
 20
9.4985341182
 30
0.0
 10
15.4707240315
 20
9.4789426842
 30
0.0
 10
15.473757392
 20
9.4589592735
 30
0.0
 10
15.4766523545
 20
9.4385939189
 30
0.0
 10
15.48035542
 20
9.4107217459
 30
0.0
 10
15.484617692
 20
9.3749994292
 30
0.0
 10
15.4891184808
 20
9.3311099038
 30
0.0
 10
15.4930360541
 20
9.28595041
 30
0.0
 10
15.4963624587
 20
9.239611789
 30
0.0
 10
15.4990909117
 20
9.192187137
 30
0.0
 10
15.5012158522
 20
9.14377179
 30
0.0
 10
15.5027329406
 20
9.09446308
 30
0.0
 10
15.5036390697
 20
9.0443601497
 30
0.0
 10
15.5039323692
 20
8.9935637472
 30
0.0
 10
15.5036122092
 20
8.9421760228
 30
0.0
 10
15.5026792007
 20
8.8903003216
 30
0.0
 10
15.5011351938
 20
8.8380409743
 30
0.0
 10
15.4989832742
 20
8.7855030865
 30
0.0
 10
15.4962277557
 20
8.7327923263
 30
0.0
 10
15.4928741721
 20
8.6800147106
 30
0.0
 10
15.4889292657
 20
8.6272763914
 30
0.0
 10
15.4844009736
 20
8.5746834412
 30
0.0
 10
15.4792984114
 20
8.5223416392
 30
0.0
 10
15.4736318556
 20
8.4703562572
 30
0.0
 10
15.4674127224
 20
8.4188318472
 30
0.0
 10
15.4606535452
 20
8.3678720303
 30
0.0
 10
15.4533679498
 20
8.3175792868
 30
0.0
 10
15.4455706267
 20
8.2680547488
 30
0.0
 10
15.4372773027
 20
8.2193979954
 30
0.0
 10
15.428504709
 20
8.1717068502
 30
0.0
 10
15.4192705481
 20
8.1250771832
 30
0.0
 10
15.409593459
 20
8.0796027113
 30
0.0
 10
15.3994929796
 20
8.0353748215
 30
0.0
 10
15.3889895086
 20
7.9924823272
 30
0.0
 10
15.3781042616
 20
7.9510114837
 30
0.0
 10
15.3686534178
 20
7.9174218568
 30
0.0
 10
15.3609097402
 20
7.8913299134
 30
0.0
 10
15.3550706656
 20
7.8723371995
 30
0.0
 10
15.3491529528
 20
7.8537605356
 30
0.0
 10
15.3431595041
 20
7.8356092491
 30
0.0
 10
15.3370934036
 20
7.8178924554
 30
0.0
 10
15.3309576441
 20
7.8006190605
 30
0.0
 10
15.324755375
 20
7.7837977305
 30
0.0
 10
15.3184896623
 20
7.7674369192
 30
0.0
 10
15.312163713
 20
7.7515448292
 30
0.0
 10
15.3057806633
 20
7.7361294422
 30
0.0
 10
15.2993437665
 20
7.7211984808
 30
0.0
 10
15.2928562253
 20
7.7067594362
 30
0.0
 10
15.2863213277
 20
7.6928195356
 30
0.0
 10
15.2797423385
 20
7.679385761
 30
0.0
 10
15.2731225679
 20
7.6664648294
 30
0.0
 10
15.2664653351
 20
7.6540631963
 30
0.0
 10
15.2597739615
 20
7.642187057
 30
0.0
 10
15.2530518138
 20
7.6308423218
 30
0.0
 10
15.246302205
 20
7.620034647
 30
0.0
 10
15.2395285242
 20
7.6097693827
 30
0.0
 10
15.2327340794
 20
7.6000516607
 30
0.0
 10
15.225922295
 20
7.5908862581
 30
0.0
 10
15.2190964059
 20
7.5822777168
 30
0.0
 10
15.212259669
 20
7.5742301536
 30
0.0
 10
15.2054155945
 20
7.5667479097
 30
0.0
 10
15.2007553907
 20
7.5620432814
 30
0.0
 10
15.1984239885
 20
7.5597913197
 30
0.0
  0
SPLINE
  5
393
100
AcDbEntity
  8
0
100
AcDbSpline
 62
7
  6
CONTINUOUS
 70
0
 71
3
 72
61
 73
57
 74
0
 42
0.0000001
 43
0.0000001
 44
0.0000000001
 40
0.0
 40
0.0
 40
0.0
 40
0.0
 40
0.0103068114
 40
0.0210668586
 40
0.0322750661
 40
0.0439250788
 40
0.056009478
 40
0.0685198016
 40
0.0814466755
 40
0.0947799139
 40
0.1085085091
 40
0.1226207763
 40
0.1371043528
 40
0.151946239
 40
0.1671328956
 40
0.182650206
 40
0.1984835694
 40
0.2146179236
 40
0.231037739
 40
0.2477271102
 40
0.2646697322
 40
0.2818489485
 40
0.2992477969
 40
0.3168489917
 40
0.3525876602
 40
0.3889221694
 40
0.4257062273
 40
0.4627912022
 40
0.5000269037
 40
0.5372623674
 40
0.5743466309
 40
0.6111295077
 40
0.6474623698
 40
0.6831989345
 40
0.7007989138
 40
0.7181964315
 40
0.7353742126
 40
0.7523152958
 40
0.7690030171
 40
0.7854210897
 40
0.8015535971
 40
0.8173850167
 40
0.8329002969
 40
0.8480848222
 40
0.862924499
 40
0.8774057815
 40
0.8915156673
 40
0.905241817
 40
0.918572528
 40
0.9314968125
 40
0.94400449
 40
0.9560861741
 40
0.9677334349
 40
0.978938841
 40
0.9896960473
 40
1.0
 40
1.0
 40
1.0
 40
1.0
 10
14.9717825391
 20
8.061368727
 30
0.0
 10
14.9738952194
 20
8.0654044044
 30
0.0
 10
14.9780954481
 20
8.0737154488
 30
0.0
 10
14.9842013133
 20
8.0866084425
 30
0.0
 10
14.9902426067
 20
8.1001842426
 30
0.0
 10
14.9962127828
 20
8.1144281385
 30
0.0
 10
15.0021053584
 20
8.1293248851
 30
0.0
 10
15.0079139686
 20
8.1448584429
 30
0.0
 10
15.0136323329
 20
8.1610120887
 30
0.0
 10
15.0192542161
 20
8.1777684226
 30
0.0
 10
15.0247735648
 20
8.1951093674
 30
0.0
 10
15.0301843703
 20
8.2130162178
 30
0.0
 10
15.0354807623
 20
8.231469646
 30
0.0
 10
15.0406570262
 20
8.2504497229
 30
0.0
 10
15.0457075124
 20
8.2699359541
 30
0.0
 10
15.0506267732
 20
8.2899072847
 30
0.0
 10
15.0554094731
 20
8.3103421355
 30
0.0
 10
15.0600504063
 20
8.3312184261
 30
0.0
 10
15.064544577
 20
8.3525135895
 30
0.0
 10
15.0688870867
 20
8.3742046093
 30
0.0
 10
15.0730732398
 20
8.3962680379
 30
0.0
 10
15.0770985118
 20
8.4186800159
 30
0.0
 10
15.0809585269
 20
8.4414163347
 30
0.0
 10
15.0859042374
 20
8.4722869365
 30
0.0
 10
15.0916366299
 20
8.5115052784
 30
0.0
 10
15.09776009
 20
8.5592271964
 30
0.0
 10
15.1031357736
 20
8.6076378485
 30
0.0
 10
15.1077403688
 20
8.6565279091
 30
0.0
 10
15.1115539225
 20
8.705686111
 30
0.0
 10
15.1145599411
 20
8.7548999796
 30
0.0
 10
15.1167454465
 20
8.803956798
 30
0.0
 10
15.1181010466
 20
8.8526445704
 30
0.0
 10
15.1186209418
 20
8.9007527634
 30
0.0
 10
15.1183547762
 20
8.9403847436
 30
0.0
 10
15.1177159239
 20
8.9716404228
 30
0.0
 10
15.1170299833
 20
8.9946901135
 30
0.0
 10
15.1161356112
 20
9.0174412241
 30
0.0
 10
15.1150337955
 20
9.0398691751
 30
0.0
 10
15.1137257078
 20
9.0619497144
 30
0.0
 10
15.1122127952
 20
9.0836589719
 30
0.0
 10
15.1104967055
 20
9.1049734792
 30
0.0
 10
15.1085792831
 20
9.1258701982
 30
0.0
 10
15.1064626505
 20
9.1463265433
 30
0.0
 10
15.1041490835
 20
9.1663204094
 30
0.0
 10
15.1016411071
 20
9.1858301947
 30
0.0
 10
15.098941471
 20
9.204834824
 30
0.0
 10
15.0960530759
 20
9.223313773
 30
0.0
 10
15.0929791016
 20
9.2412470934
 30
0.0
 10
15.0897228798
 20
9.2586154325
 30
0.0
 10
15.0862879381
 20
9.2754000558
 30
0.0
 10
15.0826780524
 20
9.2915828733
 30
0.0
 10
15.0788971052
 20
9.3071464556
 30
0.0
 10
15.0749492326
 20
9.3220740485
 30
0.0
 10
15.0708387182
 20
9.3363496586
 30
0.0
 10
15.0665700188
 20
9.3499578151
 30
0.0
 10
15.0635565676
 20
9.3587661977
 30
0.0
 10
15.0620208497
 20
9.3630534079
 30
0.0
  0
SPLINE
  5
394
100
AcDbEntity
  8
0
100
AcDbSpline
 62
7
  6
CONTINUOUS
 70
0
 71
3
 72
45
 73
41
 74
0
 42
0.0000001
 43
0.0000001
 44
0.0000000001
 40
0.0
 40
0.0
 40
0.0
 40
0.0
 40
0.0122750545
 40
0.02485071
 40
0.037720311
 40
0.0508769427
 40
0.0643132999
 40
0.0780218492
 40
0.1062234351
 40
0.1354161664
 40
0.1655302728
 40
0.1964925443
 40
0.2282266982
 40
0.2606537235
 40
0.2936922087
 40
0.3272586582
 40
0.3612678003
 40
0.3956328901
 40
0.4302660073
 40
0.4650783519
 40
0.4999805386
 40
0.5348828889
 40
0.569695724
 40
0.6043296568
 40
0.6386958847
 40
0.6727064838
 40
0.7062747041
 40
0.7393152681
 40
0.7717446733
 40
0.8034814999
 40
0.8344467274
 40
0.8645640628
 40
0.8937602842
 40
0.9219656079
 40
0.9356761143
 40
0.949114485
 40
0.9622731843
 40
0.9751449049
 40
0.9877227295
 40
1.0
 40
1.0
 40
1.0
 40
1.0
 10
14.9447843995
 20
8.2031185017
 30
0.0
 10
14.9461967982
 20
8.207109637
 30
0.0
 10
14.9490007398
 20
8.2152093681
 30
0.0
 10
14.9530976705
 20
8.2275575565
 30
0.0
 10
14.9571344861
 20
8.240244986
 30
0.0
 10
14.9611083385
 20
8.253262948
 30
0.0
 10
14.9650165799
 20
8.2666025458
 30
0.0
 10
14.9701851714
 20
8.2849788797
 30
0.0
 10
14.9764532878
 20
8.3086896263
 30
0.0
 10
14.9836025212
 20
8.3380141546
 30
0.0
 10
14.9904286908
 20
8.3683921729
 30
0.0
 10
14.9969129985
 20
8.3997404755
 30
0.0
 10
15.0030375874
 20
8.4319733047
 30
0.0
 10
15.0087856001
 20
8.4650024162
 30
0.0
 10
15.0141412218
 20
8.4987373754
 30
0.0
 10
15.0190897231
 20
8.5330857957
 30
0.0
 10
15.0236174999
 20
8.5679535986
 30
0.0
 10
15.0277121099
 20
8.6032452732
 30
0.0
 10
15.0313623064
 20
8.6388641406
 30
0.0
 10
15.0345580685
 20
8.6747126199
 30
0.0
 10
15.0372906285
 20
8.710692498
 30
0.0
 10
15.0395524958
 20
8.7467051996
 30
0.0
 10
15.0413374775
 20
8.7826520589
 30
0.0
 10
15.0426406956
 20
8.8184345914
 30
0.0
 10
15.0434586004
 20
8.8539547652
 30
0.0
 10
15.0437889809
 20
8.889115271
 30
0.0
 10
15.0436309713
 20
8.9238197908
 30
0.0
 10
15.0429850543
 20
8.9579732637
 30
0.0
 10
15.0418530606
 20
8.9914821485
 30
0.0
 10
15.0402381656
 20
9.0242546861
 30
0.0
 10
15.0381448793
 20
9.0562011421
 30
0.0
 10
15.0355790454
 20
9.0872341061
 30
0.0
 10
15.0325477915
 20
9.1172685646
 30
0.0
 10
15.029614027
 20
9.1416209191
 30
0.0
 10
15.0270326239
 20
9.1605376274
 30
0.0
 10
15.0250039519
 20
9.1742912309
 30
0.0
 10
15.0228658888
 20
9.1877354021
 30
0.0
 10
15.0206198286
 20
9.2008609627
 30
0.0
 10
15.0182673897
 20
9.2136588923
 30
0.0
 10
15.0166088677
 20
9.222069776
 30
0.0
 10
15.0157611702
 20
9.2262185002
 30
0.0
  0
SPLINE
  5
395
100
AcDbEntity
  8
0
100
AcDbSpline
 62
4
  6
CONTINUOUS
 70
0
 71
3
 72
403
 73
399
 74
0
 42
0.0000001
 43
0.0000001
 44
0.0000000001
 40
0.0
 40
0.0
 40
0.0
 40
0.0
 40
0.015625
 40
0.0234375
 40
0.03125
 40
0.0390625
 40
0.04296875
 40
0.046875
 40
0.05078125
 40
0.0546875
 40
0.056640625
 40
0.05859375
 40
0.0595703125
 40
0.060546875
 40
0.0615234375
 40
0.0620117188
 40
0.0622558594
 40
0.0625
 40
0.0627441406
 40
0.0629882812
 40
0.0634765625
 40
0.064453125
 40
0.0654296875
 40
0.06640625
 40
0.068359375
 40
0.0703125
 40
0.07421875
 40
0.078125
 40
0.08203125
 40
0.0859375
 40
0.09375
 40
0.1015625
 40
0.10546875
 40
0.109375
 40
0.11328125
 40
0.1171875
 40
0.119140625
 40
0.12109375
 40
0.1220703125
 40
0.123046875
 40
0.1240234375
 40
0.1245117188
 40
0.1247558594
 40
0.125
 40
0.1252441406
 40
0.1254882812
 40
0.1259765625
 40
0.126953125
 40
0.1279296875
 40
0.12890625
 40
0.130859375
 40
0.1328125
 40
0.13671875
 40
0.140625
 40
0.14453125
 40
0.1484375
 40
0.15625
 40
0.1640625
 40
0.16796875
 40
0.171875
 40
0.17578125
 40
0.1796875
 40
0.181640625
 40
0.18359375
 40
0.1845703125
 40
0.185546875
 40
0.1865234375
 40
0.1870117188
 40
0.1872558594
 40
0.1875
 40
0.1877441406
 40
0.1879882812
 40
0.1884765625
 40
0.189453125
 40
0.1904296875
 40
0.19140625
 40
0.193359375
 40
0.1953125
 40
0.19921875
 40
0.203125
 40
0.20703125
 40
0.2109375
 40
0.21875
 40
0.2265625
 40
0.23046875
 40
0.234375
 40
0.23828125
 40
0.2421875
 40
0.244140625
 40
0.24609375
 40
0.2470703125
 40
0.248046875
 40
0.2490234375
 40
0.2495117188
 40
0.2497558594
 40
0.25
 40
0.2502441406
 40
0.2504882812
 40
0.2509765625
 40
0.251953125
 40
0.2529296875
 40
0.25390625
 40
0.255859375
 40
0.2578125
 40
0.26171875
 40
0.265625
 40
0.26953125
 40
0.2734375
 40
0.28125
 40
0.2890625
 40
0.29296875
 40
0.296875
 40
0.30078125
 40
0.3046875
 40
0.306640625
 40
0.30859375
 40
0.3095703125
 40
0.310546875
 40
0.3115234375
 40
0.3120117188
 40
0.3122558594
 40
0.3125
 40
0.3127441406
 40
0.3129882812
 40
0.3134765625
 40
0.314453125
 40
0.3154296875
 40
0.31640625
 40
0.318359375
 40
0.3203125
 40
0.32421875
 40
0.328125
 40
0.33203125
 40
0.3359375
 40
0.34375
 40
0.3515625
 40
0.35546875
 40
0.359375
 40
0.36328125
 40
0.3671875
 40
0.369140625
 40
0.37109375
 40
0.3720703125
 40
0.373046875
 40
0.3740234375
 40
0.3745117188
 40
0.3747558594
 40
0.375
 40
0.3752441406
 40
0.3754882812
 40
0.3759765625
 40
0.376953125
 40
0.3779296875
 40
0.37890625
 40
0.380859375
 40
0.3828125
 40
0.38671875
 40
0.390625
 40
0.39453125
 40
0.3984375
 40
0.40625
 40
0.4140625
 40
0.41796875
 40
0.421875
 40
0.42578125
 40
0.4296875
 40
0.431640625
 40
0.43359375
 40
0.4345703125
 40
0.435546875
 40
0.4365234375
 40
0.4370117188
 40
0.4372558594
 40
0.4375
 40
0.4377441406
 40
0.4379882812
 40
0.4384765625
 40
0.439453125
 40
0.4404296875
 40
0.44140625
 40
0.443359375
 40
0.4453125
 40
0.44921875
 40
0.453125
 40
0.45703125
 40
0.4609375
 40
0.46875
 40
0.4765625
 40
0.48046875
 40
0.484375
 40
0.48828125
 40
0.4921875
 40
0.494140625
 40
0.49609375
 40
0.4970703125
 40
0.498046875
 40
0.4990234375
 40
0.4995117188
 40
0.4997558594
 40
0.5
 40
0.5002441406
 40
0.5004882812
 40
0.5009765625
 40
0.501953125
 40
0.5029296875
 40
0.50390625
 40
0.505859375
 40
0.5078125
 40
0.51171875
 40
0.515625
 40
0.51953125
 40
0.5234375
 40
0.53125
 40
0.5390625
 40
0.54296875
 40
0.546875
 40
0.55078125
 40
0.5546875
 40
0.556640625
 40
0.55859375
 40
0.5595703125
 40
0.560546875
 40
0.5615234375
 40
0.5620117188
 40
0.5622558594
 40
0.5625
 40
0.5627441406
 40
0.5629882812
 40
0.5634765625
 40
0.564453125
 40
0.5654296875
 40
0.56640625
 40
0.568359375
 40
0.5703125
 40
0.57421875
 40
0.578125
 40
0.58203125
 40
0.5859375
 40
0.59375
 40
0.6015625
 40
0.60546875
 40
0.609375
 40
0.61328125
 40
0.6171875
 40
0.619140625
 40
0.62109375
 40
0.6220703125
 40
0.623046875
 40
0.6240234375
 40
0.6245117188
 40
0.6247558594
 40
0.625
 40
0.6252441406
 40
0.6254882812
 40
0.6259765625
 40
0.626953125
 40
0.6279296875
 40
0.62890625
 40
0.630859375
 40
0.6328125
 40
0.63671875
 40
0.640625
 40
0.64453125
 40
0.6484375
 40
0.65625
 40
0.6640625
 40
0.66796875
 40
0.671875
 40
0.67578125
 40
0.6796875
 40
0.681640625
 40
0.68359375
 40
0.6845703125
 40
0.685546875
 40
0.6865234375
 40
0.6870117188
 40
0.6872558594
 40
0.6875
 40
0.6877441406
 40
0.6879882812
 40
0.6884765625
 40
0.689453125
 40
0.6904296875
 40
0.69140625
 40
0.693359375
 40
0.6953125
 40
0.69921875
 40
0.703125
 40
0.70703125
 40
0.7109375
 40
0.71875
 40
0.7265625
 40
0.73046875
 40
0.734375
 40
0.73828125
 40
0.7421875
 40
0.744140625
 40
0.74609375
 40
0.7470703125
 40
0.748046875
 40
0.7490234375
 40
0.7495117188
 40
0.7497558594
 40
0.75
 40
0.7502441406
 40
0.7504882812
 40
0.7509765625
 40
0.751953125
 40
0.7529296875
 40
0.75390625
 40
0.755859375
 40
0.7578125
 40
0.76171875
 40
0.765625
 40
0.76953125
 40
0.7734375
 40
0.78125
 40
0.7890625
 40
0.79296875
 40
0.796875
 40
0.80078125
 40
0.8046875
 40
0.806640625
 40
0.80859375
 40
0.8095703125
 40
0.810546875
 40
0.8115234375
 40
0.8120117188
 40
0.8122558594
 40
0.8125
 40
0.8127441406
 40
0.8129882812
 40
0.8134765625
 40
0.814453125
 40
0.8154296875
 40
0.81640625
 40
0.818359375
 40
0.8203125
 40
0.82421875
 40
0.828125
 40
0.83203125
 40
0.8359375
 40
0.84375
 40
0.8515625
 40
0.85546875
 40
0.859375
 40
0.86328125
 40
0.8671875
 40
0.869140625
 40
0.87109375
 40
0.8720703125
 40
0.873046875
 40
0.8740234375
 40
0.8745117188
 40
0.8747558594
 40
0.875
 40
0.8752441406
 40
0.8754882812
 40
0.8759765625
 40
0.876953125
 40
0.8779296875
 40
0.87890625
 40
0.880859375
 40
0.8828125
 40
0.88671875
 40
0.890625
 40
0.89453125
 40
0.8984375
 40
0.90625
 40
0.9140625
 40
0.91796875
 40
0.921875
 40
0.92578125
 40
0.9296875
 40
0.931640625
 40
0.93359375
 40
0.9345703125
 40
0.935546875
 40
0.9365234375
 40
0.9370117188
 40
0.9372558594
 40
0.9375
 40
0.9377441406
 40
0.9379882812
 40
0.9384765625
 40
0.939453125
 40
0.9404296875
 40
0.94140625
 40
0.943359375
 40
0.9453125
 40
0.94921875
 40
0.953125
 40
0.95703125
 40
0.9609375
 40
0.96875
 40
0.9765625
 40
0.984375
 40
1.0
 40
1.0
 40
1.0
 40
1.0
 10
12.4600857403
 20
6.9762291317
 30
0.0
 10
12.46571422
 20
6.9763906726
 30
0.0
 10
12.4741569394
 20
6.9766329839
 30
0.0
 10
12.4854138986
 20
6.9769560656
 30
0.0
 10
12.493856618
 20
6.977198377
 30
0.0
 10
12.5008922176
 20
6.9774003028
 30
0.0
 10
12.5065206971
 20
6.9775618442
 30
0.0
 10
12.5107420572
 20
6.9776829981
 30
0.0
 10
12.5149634156
 20
6.9778041604
 30
0.0
 10
12.5184812194
 20
6.9779051026
 30
0.0
 10
12.5212954509
 20
6.9779859156
 30
0.0
 10
12.523054372
 20
6.9780362888
 30
0.0
 10
12.5244614484
 20
6.9780768963
 30
0.0
 10
12.525516921
 20
6.9781065061
 30
0.0
 10
12.5263959559
 20
6.9781338718
 30
0.0
 10
12.5270123118
 20
6.9781477469
 30
0.0
 10
12.5273629046
 20
6.9781639212
 30
0.0
 10
12.5276303862
 20
6.9781528239
 30
0.0
 10
12.5278805252
 20
6.9782305157
 30
0.0
 10
12.5282200932
 20
6.9783031341
 30
0.0
 10
12.5288115186
 20
6.9784446462
 30
0.0
 10
12.5296578856
 20
6.9786392623
 30
0.0
 10
12.5306728953
 20
6.9788760306
 30
0.0
 10
12.5320264619
 20
6.9791905939
 30
0.0
 10
12.5337183447
 20
6.9795841842
 30
0.0
 10
12.5364253993
 20
6.9802137128
 30
0.0
 10
12.539809203
 20
6.9810006976
 30
0.0
 10
12.5438697738
 20
6.9819450476
 30
0.0
 10
12.5479303429
 20
6.9828894062
 30
0.0
 10
12.5533444356
 20
6.9841485479
 30
0.0
 10
12.5601120512
 20
6.9857224762
 30
0.0
 10
12.5668796671
 20
6.9872964037
 30
0.0
 10
12.5722937594
 20
6.9885555466
 30
0.0
 10
12.5763543295
 20
6.9894999017
 30
0.0
 10
12.5804148964
 20
6.9904442648
 30
0.0
 10
12.5837987123
 20
6.9912312088
 30
0.0
 10
12.5865057422
 20
6.9918608207
 30
0.0
 10
12.5881976877
 20
6.9922541991
 30
0.0
 10
12.5895511256
 20
6.9925691973
 30
0.0
 10
12.5905665282
 20
6.992804637
 30
0.0
 10
12.5914116659
 20
6.99300341
 30
0.0
 10
12.5920052859
 20
6.9931375011
 30
0.0
 10
12.5923413376
 20
6.9932220099
 30
0.0
 10
12.5926022775
 20
6.9932631784
 30
0.0
 10
12.5928291928
 20
6.9933892564
 30
0.0
 10
12.5931436147
 20
6.993527743
 30
0.0
 10
12.5936883234
 20
6.9937838938
 30
0.0
 10
12.5944693696
 20
6.9941426091
 30
0.0
 10
12.5954053877
 20
6.9945761555
 30
0.0
 10
12.596653844
 20
6.9951531388
 30
0.0
 10
12.5982142664
 20
6.9958747372
 30
0.0
 10
12.6007110249
 20
6.9970290882
 30
0.0
 10
12.6038319447
 20
6.9984720978
 30
0.0
 10
12.6075770606
 20
7.000203679
 30
0.0
 10
12.6113221732
 20
7.0019352683
 30
0.0
 10
12.6163156579
 20
7.0042440512
 30
0.0
 10
12.6225575133
 20
7.0071300308
 30
0.0
 10
12.628799369
 20
7.0100160098
 30
0.0
 10
12.6337928531
 20
7.0123247938
 30
0.0
 10
12.6375379673
 20
7.0140563797
 30
0.0
 10
12.6412830774
 20
7.0157879736
 30
0.0
 10
12.6444040154
 20
7.0172309437
 30
0.0
 10
12.6469007367
 20
7.0183853753
 30
0.0
 10
12.6484612538
 20
7.0191067687
 30
0.0
 10
12.6497095157
 20
7.0196841728
 30
0.0
 10
12.6506461276
 20
7.0201164335
 30
0.0
 10
12.6514253158
 20
7.0204791713
 30
0.0
 10
12.6519733415
 20
7.0207281412
 30
0.0
 10
12.6522824487
 20
7.0208781335
 30
0.0
 10
12.652525689
 20
7.0209688698
 30
0.0
 10
12.6527253148
 20
7.0211427756
 30
0.0
 10
12.6530066957
 20
7.0213456395
 30
0.0
 10
12.6534920242
 20
7.0217141678
 30
0.0
 10
12.6541890564
 20
7.0222335703
 30
0.0
 10
12.6550239089
 20
7.022859878
 30
0.0
 10
12.6561375995
 20
7.0236938985
 30
0.0
 10
12.657529523
 20
7.0247367858
 30
0.0
 10
12.6597567068
 20
7.0264052033
 30
0.0
 10
12.66254065
 20
7.0284907946
 30
0.0
 10
12.6658813976
 20
7.0309934743
 30
0.0
 10
12.6692221409
 20
7.0334961621
 30
0.0
 10
12.6736764668
 20
7.0368330763
 30
0.0
 10
12.6792443737
 20
7.0410042201
 30
0.0
 10
12.684812281
 20
7.0451753632
 30
0.0
 10
12.6892666062
 20
7.0485122784
 30
0.0
 10
12.6926073518
 20
7.0510149632
 30
0.0
 10
12.6959480907
 20
7.0535176541
 30
0.0
 10
12.6987320607
 20
7.0556032109
 30
0.0
 10
12.70095919
 20
7.0572716987
 30
0.0
 10
12.7023512521
 20
7.0583144071
 30
0.0
 10
12.7034646584
 20
7.0591487947
 30
0.0
 10
12.7043003794
 20
7.0597739809
 30
0.0
 10
12.7049946939
 20
7.0602968922
 30
0.0
 10
12.705484874
 20
7.0606591566
 30
0.0
 10
12.7057584815
 20
7.0608720569
 30
0.0
 10
12.7059819847
 20
7.0610151342
 30
0.0
 10
12.7061355452
 20
7.0612216573
 30
0.0
 10
12.7063646893
 20
7.0614748908
 30
0.0
 10
12.7067543245
 20
7.0619283605
 30
0.0
 10
12.707316889
 20
7.0625707836
 30
0.0
 10
12.7079894228
 20
7.0633439987
 30
0.0
 10
12.7088870229
 20
7.0643741463
 30
0.0
 10
12.7100087188
 20
7.0656621067
 30
0.0
 10
12.7118036023
 20
7.0677226891
 30
0.0
 10
12.7140471483
 20
7.0702984701
 30
0.0
 10
12.7167394286
 20
7.0733893846
 30
0.0
 10
12.7194317021
 20
7.0764803052
 30
0.0
 10
12.7230214026
 20
7.0806015305
 30
0.0
 10
12.7275085272
 20
7.0857530629
 30
0.0
 10
12.7319956525
 20
7.0909045948
 30
0.0
 10
12.7355853519
 20
7.0950258209
 30
0.0
 10
12.7382776284
 20
7.098116739
 30
0.0
 10
12.7409698978
 20
7.1012076625
 30
0.0
 10
12.7432134777
 20
7.1037834157
 30
0.0
 10
12.7450082921
 20
7.1058440548
 30
0.0
 10
12.7461301638
 20
7.107131871
 30
0.0
 10
12.7470274031
 20
7.1081623146
 30
0.0
 10
12.7477010393
 20
7.1089346252
 30
0.0
 10
12.7482601543
 20
7.1095798786
 30
0.0
 10
12.7486559476
 20
7.1100282957
 30
0.0
 10
12.7488752249
 20
7.1102896246
 30
0.0
 10
12.7490590931
 20
7.1104712812
 30
0.0
 10
12.7491687654
 20
7.1107077531
 30
0.0
 10
12.7493408754
 20
7.1110039287
 30
0.0
 10
12.7496300099
 20
7.1115311446
 30
0.0
 10
12.7500493632
 20
7.1122796527
 30
0.0
 10
12.7505498889
 20
7.113179856
 30
0.0
 10
12.751218199
 20
7.1143794307
 30
0.0
 10
12.7520532638
 20
7.1158791374
 30
0.0
 10
12.7533895479
 20
7.118278535
 30
0.0
 10
12.7550598412
 20
7.1212778278
 30
0.0
 10
12.7570642196
 20
7.1248769594
 30
0.0
 10
12.7590685909
 20
7.1284760963
 30
0.0
 10
12.7617410886
 20
7.1332749437
 30
0.0
 10
12.7650817096
 20
7.1392735036
 30
0.0
 10
12.7684223313
 20
7.1452720631
 30
0.0
 10
12.7710948279
 20
7.1500709111
 30
0.0
 10
12.7730992024
 20
7.1536700461
 30
0.0
 10
12.775103569
 20
7.1572691849
 30
0.0
 10
12.7767738991
 20
7.1602684554
 30
0.0
 10
12.7781101081
 20
7.1626678984
 30
0.0
 10
12.778945364
 20
7.1641674895
 30
0.0
 10
12.7796132819
 20
7.1653673017
 30
0.0
 10
12.7801150056
 20
7.1662667794
 30
0.0
 10
12.7805306105
 20
7.1670175574
 30
0.0
 10
12.7808264366
 20
7.1675407212
 30
0.0
 10
12.780987825
 20
7.1678433893
 30
0.0
 10
12.7811304308
 20
7.1680599184
 30
0.0
 10
12.7811906061
 20
7.1683164767
 30
0.0
 10
12.7812995925
 20
7.1686445917
 30
0.0
 10
12.7814769223
 20
7.1692252985
 30
0.0
 10
12.7817372544
 20
7.1700514785
 30
0.0
 10
12.7820466551
 20
7.1710443503
 30
0.0
 10
12.7824602364
 20
7.1723676709
 30
0.0
 10
12.7829768545
 20
7.1740219957
 30
0.0
 10
12.7838036438
 20
7.1766688181
 30
0.0
 10
12.7848370618
 20
7.1799773794
 30
0.0
 10
12.7860771927
 20
7.1839476388
 30
0.0
 10
12.7873173158
 20
7.1879179019
 30
0.0
 10
12.7889708161
 20
7.1932115848
 30
0.0
 10
12.7910376903
 20
7.1998286889
 30
0.0
 10
12.7931045653
 20
7.2064457927
 30
0.0
 10
12.7947580644
 20
7.2117394761
 30
0.0
 10
12.7959981909
 20
7.2157097378
 30
0.0
 10
12.797238309
 20
7.2196800025
 30
0.0
 10
12.7982717669
 20
7.222988547
 30
0.0
 10
12.7990984748
 20
7.2256354039
 30
0.0
 10
12.7996153002
 20
7.2272896409
 30
0.0
 10
12.800028456
 20
7.2286131416
 30
0.0
 10
12.8003391566
 20
7.2296054632
 30
0.0
 10
12.8005954215
 20
7.2304333646
 30
0.0
 10
12.8007800118
 20
7.2310109983
 30
0.0
 10
12.8008773651
 20
7.2313440372
 30
0.0
 10
12.8009732737
 20
7.2315854711
 30
0.0
 10
12.8009816712
 20
7.2318588047
 30
0.0
 10
12.8010233928
 20
7.2322121224
 30
0.0
 10
12.8010821834
 20
7.2328356128
 30
0.0
 10
12.8011736055
 20
7.2337236029
 30
0.0
 10
12.8012801294
 20
7.2347903512
 30
0.0
 10
12.8014232729
 20
7.2362122771
 30
0.0
 10
12.8016018216
 20
7.2379898231
 30
0.0
 10
12.8018877123
 20
7.2408338193
 30
0.0
 10
12.8022450026
 20
7.2443888411
 30
0.0
 10
12.8026737824
 20
7.2486548558
 30
0.0
 10
12.8031025537
 20
7.2529208736
 30
0.0
 10
12.8036742518
 20
7.2586088963
 30
0.0
 10
12.8043888733
 20
7.265718925
 30
0.0
 10
12.8051034955
 20
7.2728289536
 30
0.0
 10
12.8056751924
 20
7.2785169765
 30
0.0
 10
12.8061039674
 20
7.2827829936
 30
0.0
 10
12.8065327336
 20
7.2870490107
 30
0.0
 10
12.8068900659
 20
7.2906040254
 30
0.0
 10
12.8071758711
 20
7.293448036
 30
0.0
 10
12.8073546374
 20
7.2952255452
 30
0.0
 10
12.8074973342
 20
7.2966475467
 30
0.0
 10
12.8076052228
 20
7.2977140641
 30
0.0
 10
12.8076923753
 20
7.2986027765
 30
0.0
 10
12.8077587878
 20
7.2992249775
 30
0.0
 10
12.8077882971
 20
7.2995803612
 30
0.0
 10
12.8078342068
 20
7.299847349
 30
0.0
 10
12.8077892262
 20
7.3001126163
 30
0.0
 10
12.8077609557
 20
7.3004669061
 30
0.0
 10
12.8076967109
 20
7.3010866336
 30
0.0
 10
12.8076126554
 20
7.3019721048
 30
0.0
 10
12.8075084831
 20
7.3030346078
 30
0.0
 10
12.8073707414
 20
7.3044513002
 30
0.0
 10
12.8071981689
 20
7.3062221582
 30
0.0
 10
12.8069222738
 20
7.3090555353
 30
0.0
 10
12.8065773292
 20
7.3125972551
 30
0.0
 10
12.8061634281
 20
7.3168473196
 30
0.0
 10
12.8057495183
 20
7.3210973839
 30
0.0
 10
12.8051976417
 20
7.3267641363
 30
0.0
 10
12.8045077947
 20
7.3338475769
 30
0.0
 10
12.8038179486
 20
7.3409310174
 30
0.0
 10
12.8032660707
 20
7.3465977698
 30
0.0
 10
12.8028521645
 20
7.3508478344
 30
0.0
 10
12.80243825
 20
7.3550978978
 30
0.0
 10
12.8020933473
 20
7.3586396208
 30
0.0
 10
12.8018173667
 20
7.3614729916
 30
0.0
 10
12.8016450119
 20
7.3632438655
 30
0.0
 10
12.8015068233
 20
7.3646605254
 30
0.0
 10
12.8014040162
 20
7.3657231276
 30
0.0
 10
12.8013156893
 20
7.366608288
 30
0.0
 10
12.8012590697
 20
7.3672285705
 30
0.0
 10
12.8012185817
 20
7.3675819712
 30
0.0
 10
12.8012111291
 20
7.3678499696
 30
0.0
 10
12.8011160901
 20
7.3681066995
 30
0.0
 10
12.8010199225
 20
7.3684529367
 30
0.0
 10
12.800837395
 20
7.3690570205
 30
0.0
 10
12.8005840832
 20
7.3699209548
 30
0.0
 10
12.8002769237
 20
7.370957266
 30
0.0
 10
12.7998684902
 20
7.3723391576
 30
0.0
 10
12.7993575675
 20
7.374066473
 30
0.0
 10
12.798540304
 20
7.376830205
 30
0.0
 10
12.7975186516
 20
7.3802848606
 30
0.0
 10
12.7962927
 20
7.3844304514
 30
0.0
 10
12.7950667401
 20
7.3885760411
 30
0.0
 10
12.7934321297
 20
7.3941034944
 30
0.0
 10
12.7913888657
 20
7.4010128109
 30
0.0
 10
12.7893456024
 20
7.4079221275
 30
0.0
 10
12.7877109909
 20
7.4134495805
 30
0.0
 10
12.7864850344
 20
7.417595171
 30
0.0
 10
12.78525907
 20
7.4217407588
 30
0.0
 10
12.7842374575
 20
7.4251954237
 30
0.0
 10
12.7834201125
 20
7.4279591368
 30
0.0
 10
12.7829093973
 20
7.4296865004
 30
0.0
 10
12.7825005379
 20
7.4310682929
 30
0.0
 10
12.7821946798
 20
7.4321049069
 30
0.0
 10
12.7819372962
 20
7.4329678941
 30
0.0
 10
12.7817620374
 20
7.4335736684
 30
0.0
 10
12.7816542234
 20
7.433917197
 30
0.0
 10
12.7815949586
 20
7.4341822469
 30
0.0
 10
12.781453144
 20
7.4344189971
 30
0.0
 10
12.7812928522
 20
7.4347445352
 30
0.0
 10
12.7809989257
 20
7.4353096278
 30
0.0
 10
12.7805860446
 20
7.4361193075
 30
0.0
 10
12.7800875852
 20
7.4370898938
 30
0.0
 10
12.7794240212
 20
7.4383843684
 30
0.0
 10
12.7785942071
 20
7.4400023386
 30
0.0
 10
12.7772667053
 20
7.4425911597
 30
0.0
 10
12.7756072592
 20
7.4458271625
 30
0.0
 10
12.7736159533
 20
7.4497103759
 30
0.0
 10
12.7716246396
 20
7.4535935866
 30
0.0
 10
12.7689695574
 20
7.4587712018
 30
0.0
 10
12.7656507035
 20
7.4652432205
 30
0.0
 10
12.7623318504
 20
7.4717152395
 30
0.0
 10
12.7596767671
 20
7.4768928543
 30
0.0
 10
12.7576854567
 20
7.4807760663
 30
0.0
 10
12.7556941385
 20
7.4846592748
 30
0.0
 10
12.7540347306
 20
7.4878952931
 30
0.0
 10
12.7527071508
 20
7.4904840824
 30
0.0
 10
12.7518775352
 20
7.4921021335
 30
0.0
 10
12.7512135639
 20
7.493396442
 30
0.0
 10
12.7507163489
 20
7.4943675359
 30
0.0
 10
12.7502995741
 20
7.4951756275
 30
0.0
 10
12.7500125985
 20
7.495743555
 30
0.0
 10
12.7498411696
 20
7.4960645509
 30
0.0
 10
12.7497335645
 20
7.4963152536
 30
0.0
 10
12.7495458147
 20
7.4965278999
 30
0.0
 10
12.7493234369
 20
7.4968247028
 30
0.0
 10
12.7489212509
 20
7.497337923
 30
0.0
 10
12.7483535091
 20
7.4980743282
 30
0.0
 10
12.7476693042
 20
7.4989566304
 30
0.0
 10
12.746758049
 20
7.5001335168
 30
0.0
 10
12.7456186315
 20
7.5016044592
 30
0.0
 10
12.7437957583
 20
7.5039580596
 30
0.0
 10
12.7415170999
 20
7.5069000284
 30
0.0
 10
12.7387827385
 20
7.5104304045
 30
0.0
 10
12.7360483694
 20
7.513960777
 30
0.0
 10
12.7324025466
 20
7.5186679416
 30
0.0
 10
12.7278452672
 20
7.5245518968
 30
0.0
 10
12.7232879884
 20
7.5304358525
 30
0.0
 10
12.7196421647
 20
7.5351430164
 30
0.0
 10
12.7169077984
 20
7.538673391
 30
0.0
 10
12.7141734265
 20
7.5422037593
 30
0.0
 10
12.7118948007
 20
7.5451457525
 30
0.0
 10
12.710071861
 20
7.5474993031
 30
0.0
 10
12.7089326127
 20
7.5489703723
 30
0.0
 10
12.7080210101
 20
7.5501469984
 30
0.0
 10
12.7073378665
 20
7.5510300957
 30
0.0
 10
12.7067668043
 20
7.5517640134
 30
0.0
 10
12.7063705457
 20
7.5522816741
 30
0.0
 10
12.7061386707
 20
7.5525713622
 30
0.0
 10
12.7059800935
 20
7.5528058628
 30
0.0
 10
12.7057629209
 20
7.5529744843
 30
0.0
 10
12.7054937962
 20
7.5532222922
 30
0.0
 10
12.7050133052
 20
7.5536452496
 30
0.0
 10
12.7043318682
 20
7.554255072
 30
0.0
 10
12.7035120127
 20
7.5549844629
 30
0.0
 10
12.7024196163
 20
7.5559578209
 30
0.0
 10
12.701053866
 20
7.5571742319
 30
0.0
 10
12.698868808
 20
7.5591206497
 30
0.0
 10
12.6961374365
 20
7.561553617
 30
0.0
 10
12.6928598118
 20
7.5644732013
 30
0.0
 10
12.6895821814
 20
7.5673927793
 30
0.0
 10
12.6852120095
 20
7.5712855522
 30
0.0
 10
12.679749294
 20
7.5761515175
 30
0.0
 10
12.6742865789
 20
7.5810174833
 30
0.0
 10
12.6699164063
 20
7.5849102553
 30
0.0
 10
12.6666387781
 20
7.587829836
 30
0.0
 10
12.6633611452
 20
7.59074941
 30
0.0
 10
12.6606297992
 20
7.5931824094
 30
0.0
 10
12.6584446892
 20
7.5951287617
 30
0.0
 10
12.657079071
 20
7.5963453394
 30
0.0
 10
12.6559864036
 20
7.5973183554
 30
0.0
 10
12.6551673762
 20
7.5980487914
 30
0.0
 10
12.6544833481
 20
7.5986553438
 30
0.0
 10
12.6540074825
 20
7.5990841385
 30
0.0
 10
12.6537309467
 20
7.5993225936
 30
0.0
 10
12.6535365389
 20
7.5995199441
 30
0.0
 10
12.6532924611
 20
7.5996465432
 30
0.0
 10
12.6529843496
 20
7.5998400209
 30
0.0
 10
12.6524370822
 20
7.6001671084
 30
0.0
 10
12.6516594918
 20
7.6006403879
 30
0.0
 10
12.650724577
 20
7.6012057501
 30
0.0
 10
12.6494786549
 20
7.6019604652
 30
0.0
 10
12.6479210361
 20
7.6029035512
 30
0.0
 10
12.6454289669
 20
7.6044126609
 30
0.0
 10
12.642313839
 20
7.606298989
 30
0.0
 10
12.6385757032
 20
7.6085626081
 30
0.0
 10
12.6348375627
 20
7.6108262203
 30
0.0
 10
12.629853377
 20
7.6138443724
 30
0.0
 10
12.6236231442
 20
7.6176170616
 30
0.0
 10
12.6173929118
 20
7.6213897514
 30
0.0
 10
12.6124087255
 20
7.6244079024
 30
0.0
 10
12.6086705867
 20
7.6266715177
 30
0.0
 10
12.6049324446
 20
7.6289351254
 30
0.0
 10
12.6018173363
 20
7.6308214889
 30
0.0
 10
12.5993252269
 20
7.6323305264
 30
0.0
 10
12.5977677106
 20
7.6332737964
 30
0.0
 10
12.5965215782
 20
7.6340281338
 30
0.0
 10
12.5955873058
 20
7.6345946496
 30
0.0
 10
12.5948077055
 20
7.63506432
 30
0.0
 10
12.5942640261
 20
7.6353978503
 30
0.0
 10
12.5939501657
 20
7.635581005
 30
0.0
 10
12.5937237468
 20
7.635739313
 30
0.0
 10
12.5934630153
 20
7.6358175701
 30
0.0
 10
12.5931273421
 20
7.6359498355
 30
0.0
 10
12.5925343374
 20
7.6361682904
 30
0.0
 10
12.5916901033
 20
7.6364871703
 30
0.0
 10
12.5906757745
 20
7.6368669149
 30
0.0
 10
12.589323772
 20
7.6373742579
 30
0.0
 10
12.5876336196
 20
7.6380080885
 30
0.0
 10
12.5849294592
 20
7.639022412
 30
0.0
 10
12.58154923
 20
7.6402902496
 30
0.0
 10
12.5774929673
 20
7.6418116833
 30
0.0
 10
12.5734367013
 20
7.6433331094
 30
0.0
 10
12.5680283478
 20
7.6453616802
 30
0.0
 10
12.5612679055
 20
7.6478973928
 30
0.0
 10
12.5545074635
 20
7.650433106
 30
0.0
 10
12.5490991096
 20
7.6524616757
 30
0.0
 10
12.5450428448
 20
7.6539831051
 30
0.0
 10
12.5409865775
 20
7.6555045263
 30
0.0
 10
12.5376063625
 20
7.6567724029
 30
0.0
 10
12.5349021733
 20
7.657786647
 30
0.0
 10
12.5332120942
 20
7.6584206797
 30
0.0
 10
12.5318599411
 20
7.6589276077
 30
0.0
 10
12.5308460724
 20
7.6593086203
 30
0.0
 10
12.5300003989
 20
7.6596235329
 30
0.0
 10
12.5294099638
 20
7.65984907
 30
0.0
 10
12.5290701735
 20
7.6599699878
 30
0.0
 10
12.5288220883
 20
7.6600831012
 30
0.0
 10
12.5285481722
 20
7.6601104949
 30
0.0
 10
12.5281919609
 20
7.6601769198
 30
0.0
 10
12.5275643931
 20
7.6602792324
 30
0.0
 10
12.5266700624
 20
7.6604326765
 30
0.0
 10
12.5255959262
 20
7.660613692
 30
0.0
 10
12.5241640727
 20
7.6608561348
 30
0.0
 10
12.5223741434
 20
7.6611588156
 30
0.0
 10
12.5195103194
 20
7.6616433131
 30
0.0
 10
12.5159305179
 20
7.6622488636
 30
0.0
 10
12.5116347653
 20
7.6629755548
 30
0.0
 10
12.5073390102
 20
7.6637022378
 30
0.0
 10
12.5016113376
 20
7.6646711513
 30
0.0
 10
12.4944517465
 20
7.6658822922
 30
0.0
 10
12.4858602374
 20
7.6673356617
 30
0.0
 10
12.4744048919
 20
7.6692734876
 30
0.0
 10
12.4658133827
 20
7.670726857
 30
0.0
 10
12.4600857099
 20
7.6716957699
 30
0.0
  0
SPLINE
  5
396
100
AcDbEntity
  8
0
100
AcDbSpline
 62
4
  6
CONTINUOUS
 70
0
 71
3
 72
403
 73
399
 74
0
 42
0.0000001
 43
0.0000001
 44
0.0000000001
 40
0.0
 40
0.0
 40
0.0
 40
0.0
 40
0.015625
 40
0.0234375
 40
0.03125
 40
0.0390625
 40
0.04296875
 40
0.046875
 40
0.05078125
 40
0.0546875
 40
0.056640625
 40
0.05859375
 40
0.0595703125
 40
0.060546875
 40
0.0615234375
 40
0.0620117188
 40
0.0622558594
 40
0.0625
 40
0.0627441406
 40
0.0629882812
 40
0.0634765625
 40
0.064453125
 40
0.0654296875
 40
0.06640625
 40
0.068359375
 40
0.0703125
 40
0.07421875
 40
0.078125
 40
0.08203125
 40
0.0859375
 40
0.09375
 40
0.1015625
 40
0.10546875
 40
0.109375
 40
0.11328125
 40
0.1171875
 40
0.119140625
 40
0.12109375
 40
0.1220703125
 40
0.123046875
 40
0.1240234375
 40
0.1245117188
 40
0.1247558594
 40
0.125
 40
0.1252441406
 40
0.1254882812
 40
0.1259765625
 40
0.126953125
 40
0.1279296875
 40
0.12890625
 40
0.130859375
 40
0.1328125
 40
0.13671875
 40
0.140625
 40
0.14453125
 40
0.1484375
 40
0.15625
 40
0.1640625
 40
0.16796875
 40
0.171875
 40
0.17578125
 40
0.1796875
 40
0.181640625
 40
0.18359375
 40
0.1845703125
 40
0.185546875
 40
0.1865234375
 40
0.1870117188
 40
0.1872558594
 40
0.1875
 40
0.1877441406
 40
0.1879882812
 40
0.1884765625
 40
0.189453125
 40
0.1904296875
 40
0.19140625
 40
0.193359375
 40
0.1953125
 40
0.19921875
 40
0.203125
 40
0.20703125
 40
0.2109375
 40
0.21875
 40
0.2265625
 40
0.23046875
 40
0.234375
 40
0.23828125
 40
0.2421875
 40
0.244140625
 40
0.24609375
 40
0.2470703125
 40
0.248046875
 40
0.2490234375
 40
0.2495117188
 40
0.2497558594
 40
0.25
 40
0.2502441406
 40
0.2504882812
 40
0.2509765625
 40
0.251953125
 40
0.2529296875
 40
0.25390625
 40
0.255859375
 40
0.2578125
 40
0.26171875
 40
0.265625
 40
0.26953125
 40
0.2734375
 40
0.28125
 40
0.2890625
 40
0.29296875
 40
0.296875
 40
0.30078125
 40
0.3046875
 40
0.306640625
 40
0.30859375
 40
0.3095703125
 40
0.310546875
 40
0.3115234375
 40
0.3120117188
 40
0.3122558594
 40
0.3125
 40
0.3127441406
 40
0.3129882812
 40
0.3134765625
 40
0.314453125
 40
0.3154296875
 40
0.31640625
 40
0.318359375
 40
0.3203125
 40
0.32421875
 40
0.328125
 40
0.33203125
 40
0.3359375
 40
0.34375
 40
0.3515625
 40
0.35546875
 40
0.359375
 40
0.36328125
 40
0.3671875
 40
0.369140625
 40
0.37109375
 40
0.3720703125
 40
0.373046875
 40
0.3740234375
 40
0.3745117188
 40
0.3747558594
 40
0.375
 40
0.3752441406
 40
0.3754882812
 40
0.3759765625
 40
0.376953125
 40
0.3779296875
 40
0.37890625
 40
0.380859375
 40
0.3828125
 40
0.38671875
 40
0.390625
 40
0.39453125
 40
0.3984375
 40
0.40625
 40
0.4140625
 40
0.41796875
 40
0.421875
 40
0.42578125
 40
0.4296875
 40
0.431640625
 40
0.43359375
 40
0.4345703125
 40
0.435546875
 40
0.4365234375
 40
0.4370117188
 40
0.4372558594
 40
0.4375
 40
0.4377441406
 40
0.4379882812
 40
0.4384765625
 40
0.439453125
 40
0.4404296875
 40
0.44140625
 40
0.443359375
 40
0.4453125
 40
0.44921875
 40
0.453125
 40
0.45703125
 40
0.4609375
 40
0.46875
 40
0.4765625
 40
0.48046875
 40
0.484375
 40
0.48828125
 40
0.4921875
 40
0.494140625
 40
0.49609375
 40
0.4970703125
 40
0.498046875
 40
0.4990234375
 40
0.4995117188
 40
0.4997558594
 40
0.5
 40
0.5002441406
 40
0.5004882812
 40
0.5009765625
 40
0.501953125
 40
0.5029296875
 40
0.50390625
 40
0.505859375
 40
0.5078125
 40
0.51171875
 40
0.515625
 40
0.51953125
 40
0.5234375
 40
0.53125
 40
0.5390625
 40
0.54296875
 40
0.546875
 40
0.55078125
 40
0.5546875
 40
0.556640625
 40
0.55859375
 40
0.5595703125
 40
0.560546875
 40
0.5615234375
 40
0.5620117188
 40
0.5622558594
 40
0.5625
 40
0.5627441406
 40
0.5629882812
 40
0.5634765625
 40
0.564453125
 40
0.5654296875
 40
0.56640625
 40
0.568359375
 40
0.5703125
 40
0.57421875
 40
0.578125
 40
0.58203125
 40
0.5859375
 40
0.59375
 40
0.6015625
 40
0.60546875
 40
0.609375
 40
0.61328125
 40
0.6171875
 40
0.619140625
 40
0.62109375
 40
0.6220703125
 40
0.623046875
 40
0.6240234375
 40
0.6245117188
 40
0.6247558594
 40
0.625
 40
0.6252441406
 40
0.6254882812
 40
0.6259765625
 40
0.626953125
 40
0.6279296875
 40
0.62890625
 40
0.630859375
 40
0.6328125
 40
0.63671875
 40
0.640625
 40
0.64453125
 40
0.6484375
 40
0.65625
 40
0.6640625
 40
0.66796875
 40
0.671875
 40
0.67578125
 40
0.6796875
 40
0.681640625
 40
0.68359375
 40
0.6845703125
 40
0.685546875
 40
0.6865234375
 40
0.6870117188
 40
0.6872558594
 40
0.6875
 40
0.6877441406
 40
0.6879882812
 40
0.6884765625
 40
0.689453125
 40
0.6904296875
 40
0.69140625
 40
0.693359375
 40
0.6953125
 40
0.69921875
 40
0.703125
 40
0.70703125
 40
0.7109375
 40
0.71875
 40
0.7265625
 40
0.73046875
 40
0.734375
 40
0.73828125
 40
0.7421875
 40
0.744140625
 40
0.74609375
 40
0.7470703125
 40
0.748046875
 40
0.7490234375
 40
0.7495117188
 40
0.7497558594
 40
0.75
 40
0.7502441406
 40
0.7504882812
 40
0.7509765625
 40
0.751953125
 40
0.7529296875
 40
0.75390625
 40
0.755859375
 40
0.7578125
 40
0.76171875
 40
0.765625
 40
0.76953125
 40
0.7734375
 40
0.78125
 40
0.7890625
 40
0.79296875
 40
0.796875
 40
0.80078125
 40
0.8046875
 40
0.806640625
 40
0.80859375
 40
0.8095703125
 40
0.810546875
 40
0.8115234375
 40
0.8120117188
 40
0.8122558594
 40
0.8125
 40
0.8127441406
 40
0.8129882812
 40
0.8134765625
 40
0.814453125
 40
0.8154296875
 40
0.81640625
 40
0.818359375
 40
0.8203125
 40
0.82421875
 40
0.828125
 40
0.83203125
 40
0.8359375
 40
0.84375
 40
0.8515625
 40
0.85546875
 40
0.859375
 40
0.86328125
 40
0.8671875
 40
0.869140625
 40
0.87109375
 40
0.8720703125
 40
0.873046875
 40
0.8740234375
 40
0.8745117188
 40
0.8747558594
 40
0.875
 40
0.8752441406
 40
0.8754882812
 40
0.8759765625
 40
0.876953125
 40
0.8779296875
 40
0.87890625
 40
0.880859375
 40
0.8828125
 40
0.88671875
 40
0.890625
 40
0.89453125
 40
0.8984375
 40
0.90625
 40
0.9140625
 40
0.91796875
 40
0.921875
 40
0.92578125
 40
0.9296875
 40
0.931640625
 40
0.93359375
 40
0.9345703125
 40
0.935546875
 40
0.9365234375
 40
0.9370117188
 40
0.9372558594
 40
0.9375
 40
0.9377441406
 40
0.9379882812
 40
0.9384765625
 40
0.939453125
 40
0.9404296875
 40
0.94140625
 40
0.943359375
 40
0.9453125
 40
0.94921875
 40
0.953125
 40
0.95703125
 40
0.9609375
 40
0.96875
 40
0.9765625
 40
0.984375
 40
1.0
 40
1.0
 40
1.0
 40
1.0
 10
12.4600857403
 20
7.6716957678
 30
0.0
 10
12.4544572607
 20
7.671534227
 30
0.0
 10
12.4460145413
 20
7.6712919157
 30
0.0
 10
12.434757582
 20
7.670968834
 30
0.0
 10
12.4263148626
 20
7.6707265226
 30
0.0
 10
12.4192792631
 20
7.6705245968
 30
0.0
 10
12.4136507836
 20
7.6703630553
 30
0.0
 10
12.4094294235
 20
7.6702419015
 30
0.0
 10
12.4052080651
 20
7.6701207391
 30
0.0
 10
12.4016902612
 20
7.6700197969
 30
0.0
 10
12.3988760297
 20
7.669938984
 30
0.0
 10
12.3971171087
 20
7.6698886107
 30
0.0
 10
12.3957100322
 20
7.6698480032
 30
0.0
 10
12.3946545596
 20
7.6698183935
 30
0.0
 10
12.3937755248
 20
7.6697910278
 30
0.0
 10
12.3931591689
 20
7.6697771526
 30
0.0
 10
12.392808576
 20
7.6697609784
 30
0.0
 10
12.3925410945
 20
7.6697720756
 30
0.0
 10
12.3922909555
 20
7.6696943838
 30
0.0
 10
12.3919513875
 20
7.6696217654
 30
0.0
 10
12.3913599621
 20
7.6694802533
 30
0.0
 10
12.3905135951
 20
7.6692856373
 30
0.0
 10
12.3894985854
 20
7.6690488689
 30
0.0
 10
12.3881450188
 20
7.6687343056
 30
0.0
 10
12.386453136
 20
7.6683407154
 30
0.0
 10
12.3837460814
 20
7.6677111868
 30
0.0
 10
12.3803622776
 20
7.6669242019
 30
0.0
 10
12.3763017069
 20
7.6659798519
 30
0.0
 10
12.3722411378
 20
7.6650354934
 30
0.0
 10
12.3668270451
 20
7.6637763516
 30
0.0
 10
12.3600594295
 20
7.6622024234
 30
0.0
 10
12.3532918136
 20
7.6606284958
 30
0.0
 10
12.3478777213
 20
7.6593693529
 30
0.0
 10
12.3438171511
 20
7.6584249979
 30
0.0
 10
12.3397565843
 20
7.6574806347
 30
0.0
 10
12.3363727684
 20
7.6566936907
 30
0.0
 10
12.3336657384
 20
7.6560640789
 30
0.0
 10
12.331973793
 20
7.6556707004
 30
0.0
 10
12.3306203551
 20
7.6553557023
 30
0.0
 10
12.3296049524
 20
7.6551202626
 30
0.0
 10
12.3287598148
 20
7.6549214895
 30
0.0
 10
12.3281661947
 20
7.6547873984
 30
0.0
 10
12.3278301431
 20
7.6547028897
 30
0.0
 10
12.3275692032
 20
7.6546617211
 30
0.0
 10
12.3273422879
 20
7.6545356431
 30
0.0
 10
12.327027866
 20
7.6543971566
 30
0.0
 10
12.3264831573
 20
7.6541410057
 30
0.0
 10
12.3257021111
 20
7.6537822904
 30
0.0
 10
12.324766093
 20
7.653348744
 30
0.0
 10
12.3235176367
 20
7.6527717608
 30
0.0
 10
12.3219572143
 20
7.6520501624
 30
0.0
 10
12.3194604558
 20
7.6508958113
 30
0.0
 10
12.316339536
 20
7.6494528017
 30
0.0
 10
12.3125944201
 20
7.6477212205
 30
0.0
 10
12.3088493075
 20
7.6459896312
 30
0.0
 10
12.3038558228
 20
7.6436808484
 30
0.0
 10
12.2976139674
 20
7.6407948687
 30
0.0
 10
12.2913721117
 20
7.6379088897
 30
0.0
 10
12.2863786275
 20
7.6356001057
 30
0.0
 10
12.2826335133
 20
7.6338685198
 30
0.0
 10
12.2788884033
 20
7.632136926
 30
0.0
 10
12.2757674653
 20
7.6306939558
 30
0.0
 10
12.273270744
 20
7.6295395243
 30
0.0
 10
12.2717102269
 20
7.6288181309
 30
0.0
 10
12.270461965
 20
7.6282407268
 30
0.0
 10
12.269525353
 20
7.6278084661
 30
0.0
 10
12.2687461649
 20
7.6274457282
 30
0.0
 10
12.2681981392
 20
7.6271967583
 30
0.0
 10
12.267889032
 20
7.6270467661
 30
0.0
 10
12.2676457916
 20
7.6269560297
 30
0.0
 10
12.2674461659
 20
7.626782124
 30
0.0
 10
12.2671647849
 20
7.6265792601
 30
0.0
 10
12.2666794564
 20
7.6262107317
 30
0.0
 10
12.2659824243
 20
7.6256913292
 30
0.0
 10
12.2651475718
 20
7.6250650215
 30
0.0
 10
12.2640338812
 20
7.6242310011
 30
0.0
 10
12.2626419576
 20
7.6231881138
 30
0.0
 10
12.2604147739
 20
7.6215196963
 30
0.0
 10
12.2576308306
 20
7.619434105
 30
0.0
 10
12.2542900831
 20
7.6169314252
 30
0.0
 10
12.2509493398
 20
7.6144287375
 30
0.0
 10
12.2464950138
 20
7.6110918233
 30
0.0
 10
12.240927107
 20
7.6069206795
 30
0.0
 10
12.2353591997
 20
7.6027495363
 30
0.0
 10
12.2309048745
 20
7.5994126211
 30
0.0
 10
12.2275641289
 20
7.5969099363
 30
0.0
 10
12.2242233899
 20
7.5944072455
 30
0.0
 10
12.22143942
 20
7.5923216887
 30
0.0
 10
12.2192122907
 20
7.5906532009
 30
0.0
 10
12.2178202286
 20
7.5896104924
 30
0.0
 10
12.2167068223
 20
7.5887761049
 30
0.0
 10
12.2158711013
 20
7.5881509187
 30
0.0
 10
12.2151767868
 20
7.5876280073
 30
0.0
 10
12.2146866067
 20
7.5872657429
 30
0.0
 10
12.2144129992
 20
7.5870528426
 30
0.0
 10
12.214189496
 20
7.5869097654
 30
0.0
 10
12.2140359355
 20
7.5867032423
 30
0.0
 10
12.2138067914
 20
7.5864500088
 30
0.0
 10
12.2134171562
 20
7.5859965391
 30
0.0
 10
12.2128545917
 20
7.585354116
 30
0.0
 10
12.2121820579
 20
7.5845809009
 30
0.0
 10
12.2112844578
 20
7.5835507533
 30
0.0
 10
12.2101627619
 20
7.5822627929
 30
0.0
 10
12.2083678784
 20
7.5802022104
 30
0.0
 10
12.2061243323
 20
7.5776264294
 30
0.0
 10
12.2034320521
 20
7.5745355149
 30
0.0
 10
12.2007397785
 20
7.5714445944
 30
0.0
 10
12.1971500781
 20
7.5673233691
 30
0.0
 10
12.1926629535
 20
7.5621718367
 30
0.0
 10
12.1881758282
 20
7.5570203048
 30
0.0
 10
12.1845861287
 20
7.5528990787
 30
0.0
 10
12.1818938523
 20
7.5498081605
 30
0.0
 10
12.1792015829
 20
7.5467172371
 30
0.0
 10
12.176958003
 20
7.5441414839
 30
0.0
 10
12.1751631886
 20
7.5420808447
 30
0.0
 10
12.1740413168
 20
7.5407930286
 30
0.0
 10
12.1731440776
 20
7.5397625849
 30
0.0
 10
12.1724704413
 20
7.5389902744
 30
0.0
 10
12.1719113264
 20
7.538345021
 30
0.0
 10
12.1715155331
 20
7.5378966038
 30
0.0
 10
12.1712962558
 20
7.5376352749
 30
0.0
 10
12.1711123876
 20
7.5374536184
 30
0.0
 10
12.1710027153
 20
7.5372171465
 30
0.0
 10
12.1708306053
 20
7.5369209708
 30
0.0
 10
12.1705414708
 20
7.5363937549
 30
0.0
 10
12.1701221174
 20
7.5356452468
 30
0.0
 10
12.1696215918
 20
7.5347450436
 30
0.0
 10
12.1689532817
 20
7.5335454689
 30
0.0
 10
12.1681182169
 20
7.5320457621
 30
0.0
 10
12.1667819328
 20
7.5296463645
 30
0.0
 10
12.1651116395
 20
7.5266470718
 30
0.0
 10
12.1631072611
 20
7.5230479401
 30
0.0
 10
12.1611028897
 20
7.5194488032
 30
0.0
 10
12.1584303921
 20
7.5146499558
 30
0.0
 10
12.1550897711
 20
7.5086513959
 30
0.0
 10
12.1517491493
 20
7.5026528365
 30
0.0
 10
12.1490766528
 20
7.4978539884
 30
0.0
 10
12.1470722783
 20
7.4942548534
 30
0.0
 10
12.1450679117
 20
7.4906557146
 30
0.0
 10
12.1433975816
 20
7.4876564442
 30
0.0
 10
12.1420613726
 20
7.4852570011
 30
0.0
 10
12.1412261167
 20
7.48375741
 30
0.0
 10
12.1405581988
 20
7.4825575979
 30
0.0
 10
12.140056475
 20
7.4816581201
 30
0.0
 10
12.1396408701
 20
7.4809073422
 30
0.0
 10
12.139345044
 20
7.4803841784
 30
0.0
 10
12.1391836557
 20
7.4800815102
 30
0.0
 10
12.1390410498
 20
7.4798649811
 30
0.0
 10
12.1389808746
 20
7.4796084229
 30
0.0
 10
12.1388718881
 20
7.4792803078
 30
0.0
 10
12.1386945583
 20
7.478699601
 30
0.0
 10
12.1384342262
 20
7.477873421
 30
0.0
 10
12.1381248256
 20
7.4768805493
 30
0.0
 10
12.1377112443
 20
7.4755572287
 30
0.0
 10
12.1371946262
 20
7.4739029039
 30
0.0
 10
12.1363678368
 20
7.4712560815
 30
0.0
 10
12.1353344189
 20
7.4679475201
 30
0.0
 10
12.1340942879
 20
7.4639772608
 30
0.0
 10
12.1328541648
 20
7.4600069976
 30
0.0
 10
12.1312006646
 20
7.4547133147
 30
0.0
 10
12.1291337904
 20
7.4480962106
 30
0.0
 10
12.1270669154
 20
7.4414791069
 30
0.0
 10
12.1254134163
 20
7.4361854235
 30
0.0
 10
12.1241732898
 20
7.4322151618
 30
0.0
 10
12.1229331717
 20
7.428244897
 30
0.0
 10
12.1218997138
 20
7.4249363525
 30
0.0
 10
12.1210730059
 20
7.4222894957
 30
0.0
 10
12.1205561805
 20
7.4206352586
 30
0.0
 10
12.1201430247
 20
7.4193117579
 30
0.0
 10
12.1198323241
 20
7.4183194364
 30
0.0
 10
12.1195760592
 20
7.4174915349
 30
0.0
 10
12.1193914689
 20
7.4169139012
 30
0.0
 10
12.1192941156
 20
7.4165808624
 30
0.0
 10
12.119198207
 20
7.4163394284
 30
0.0
 10
12.1191898095
 20
7.4160660949
 30
0.0
 10
12.1191480879
 20
7.4157127771
 30
0.0
 10
12.1190892973
 20
7.4150892867
 30
0.0
 10
12.1189978752
 20
7.4142012966
 30
0.0
 10
12.1188913513
 20
7.4131345483
 30
0.0
 10
12.1187482078
 20
7.4117126225
 30
0.0
 10
12.1185696591
 20
7.4099350764
 30
0.0
 10
12.1182837684
 20
7.4070910802
 30
0.0
 10
12.117926478
 20
7.4035360584
 30
0.0
 10
12.1174976983
 20
7.3992700437
 30
0.0
 10
12.117068927
 20
7.3950040259
 30
0.0
 10
12.1164972289
 20
7.3893160032
 30
0.0
 10
12.1157826074
 20
7.3822059745
 30
0.0
 10
12.1150679851
 20
7.375095946
 30
0.0
 10
12.1144962882
 20
7.3694079231
 30
0.0
 10
12.1140675133
 20
7.3651419059
 30
0.0
 10
12.113638747
 20
7.3608758889
 30
0.0
 10
12.1132814148
 20
7.3573208742
 30
0.0
 10
12.1129956096
 20
7.3544768635
 30
0.0
 10
12.1128168432
 20
7.3526993543
 30
0.0
 10
12.1126741464
 20
7.3512773529
 30
0.0
 10
12.1125662579
 20
7.3502108354
 30
0.0
 10
12.1124791054
 20
7.349322123
 30
0.0
 10
12.1124126928
 20
7.348699922
 30
0.0
 10
12.1123831835
 20
7.3483445384
 30
0.0
 10
12.1123372739
 20
7.3480775505
 30
0.0
 10
12.1123822545
 20
7.3478122833
 30
0.0
 10
12.112410525
 20
7.3474579935
 30
0.0
 10
12.1124747697
 20
7.3468382659
 30
0.0
 10
12.1125588253
 20
7.3459527947
 30
0.0
 10
12.1126629975
 20
7.3448902918
 30
0.0
 10
12.1128007393
 20
7.3434735994
 30
0.0
 10
12.1129733118
 20
7.3417027413
 30
0.0
 10
12.1132492069
 20
7.3388693643
 30
0.0
 10
12.1135941515
 20
7.3353276444
 30
0.0
 10
12.1140080526
 20
7.3310775799
 30
0.0
 10
12.1144219623
 20
7.3268275157
 30
0.0
 10
12.114973839
 20
7.3211607632
 30
0.0
 10
12.1156636859
 20
7.3140773227
 30
0.0
 10
12.1163535321
 20
7.3069938821
 30
0.0
 10
12.11690541
 20
7.3013271297
 30
0.0
 10
12.1173193161
 20
7.2970770652
 30
0.0
 10
12.1177332307
 20
7.2928270017
 30
0.0
 10
12.1180781334
 20
7.2892852788
 30
0.0
 10
12.118354114
 20
7.286451908
 30
0.0
 10
12.1185264688
 20
7.2846810341
 30
0.0
 10
12.1186646574
 20
7.2832643742
 30
0.0
 10
12.1187674644
 20
7.2822017719
 30
0.0
 10
12.1188557914
 20
7.2813166115
 30
0.0
 10
12.118912411
 20
7.280696329
 30
0.0
 10
12.1189528989
 20
7.2803429284
 30
0.0
 10
12.1189603516
 20
7.28007493
 30
0.0
 10
12.1190553906
 20
7.2798182
 30
0.0
 10
12.1191515581
 20
7.2794719628
 30
0.0
 10
12.1193340857
 20
7.278867879
 30
0.0
 10
12.1195873975
 20
7.2780039448
 30
0.0
 10
12.119894557
 20
7.2769676335
 30
0.0
 10
12.1203029904
 20
7.275585742
 30
0.0
 10
12.1208139132
 20
7.2738584266
 30
0.0
 10
12.1216311767
 20
7.2710946946
 30
0.0
 10
12.1226528291
 20
7.2676400389
 30
0.0
 10
12.1238787807
 20
7.2634944482
 30
0.0
 10
12.1251047406
 20
7.2593488585
 30
0.0
 10
12.126739351
 20
7.2538214052
 30
0.0
 10
12.128782615
 20
7.2469120887
 30
0.0
 10
12.1308258783
 20
7.240002772
 30
0.0
 10
12.1324604898
 20
7.234475319
 30
0.0
 10
12.1336864463
 20
7.2303297285
 30
0.0
 10
12.1349124107
 20
7.2261841407
 30
0.0
 10
12.1359340231
 20
7.2227294758
 30
0.0
 10
12.1367513682
 20
7.2199657627
 30
0.0
 10
12.1372620834
 20
7.2182383991
 30
0.0
 10
12.1376709428
 20
7.2168566066
 30
0.0
 10
12.1379768009
 20
7.2158199927
 30
0.0
 10
12.1382341845
 20
7.2149570054
 30
0.0
 10
12.1384094432
 20
7.2143512311
 30
0.0
 10
12.1385172573
 20
7.2140077025
 30
0.0
 10
12.1385765221
 20
7.2137426526
 30
0.0
 10
12.1387183367
 20
7.2135059025
 30
0.0
 10
12.1388786285
 20
7.2131803643
 30
0.0
 10
12.139172555
 20
7.2126152717
 30
0.0
 10
12.139585436
 20
7.2118055921
 30
0.0
 10
12.1400838955
 20
7.2108350057
 30
0.0
 10
12.1407474595
 20
7.2095405311
 30
0.0
 10
12.1415772736
 20
7.2079225609
 30
0.0
 10
12.1429047754
 20
7.2053337398
 30
0.0
 10
12.1445642215
 20
7.2020977371
 30
0.0
 10
12.1465555274
 20
7.1982145237
 30
0.0
 10
12.1485468411
 20
7.1943313129
 30
0.0
 10
12.1512019233
 20
7.1891536977
 30
0.0
 10
12.1545207771
 20
7.182681679
 30
0.0
 10
12.1578396303
 20
7.17620966
 30
0.0
 10
12.1604947136
 20
7.1710320453
 30
0.0
 10
12.162486024
 20
7.1671488332
 30
0.0
 10
12.1644773422
 20
7.1632656248
 30
0.0
 10
12.1661367501
 20
7.1600296064
 30
0.0
 10
12.1674643299
 20
7.1574408171
 30
0.0
 10
12.1682939455
 20
7.155822766
 30
0.0
 10
12.1689579168
 20
7.1545284575
 30
0.0
 10
12.1694551318
 20
7.1535573636
 30
0.0
 10
12.1698719065
 20
7.1527492721
 30
0.0
 10
12.1701588822
 20
7.1521813445
 30
0.0
 10
12.170330311
 20
7.1518603487
 30
0.0
 10
12.1704379162
 20
7.1516096459
 30
0.0
 10
12.170625666
 20
7.1513969996
 30
0.0
 10
12.1708480438
 20
7.1511001968
 30
0.0
 10
12.1712502297
 20
7.1505869766
 30
0.0
 10
12.1718179716
 20
7.1498505713
 30
0.0
 10
12.1725021765
 20
7.1489682691
 30
0.0
 10
12.1734134316
 20
7.1477913828
 30
0.0
 10
12.1745528492
 20
7.1463204403
 30
0.0
 10
12.1763757224
 20
7.1439668399
 30
0.0
 10
12.1786543808
 20
7.1410248712
 30
0.0
 10
12.1813887422
 20
7.137494495
 30
0.0
 10
12.1841231113
 20
7.1339641225
 30
0.0
 10
12.187768934
 20
7.1292569579
 30
0.0
 10
12.1923262135
 20
7.1233730027
 30
0.0
 10
12.1968834923
 20
7.117489047
 30
0.0
 10
12.200529316
 20
7.1127818831
 30
0.0
 10
12.2032636823
 20
7.1092515085
 30
0.0
 10
12.2059980542
 20
7.1057211403
 30
0.0
 10
12.20827668
 20
7.1027791471
 30
0.0
 10
12.2100996197
 20
7.1004255965
 30
0.0
 10
12.211238868
 20
7.0989545273
 30
0.0
 10
12.2121504705
 20
7.0977779011
 30
0.0
 10
12.2128336142
 20
7.0968948039
 30
0.0
 10
12.2134046764
 20
7.0961608861
 30
0.0
 10
12.2138009349
 20
7.0956432254
 30
0.0
 10
12.21403281
 20
7.0953535373
 30
0.0
 10
12.2141913872
 20
7.0951190367
 30
0.0
 10
12.2144085597
 20
7.0949504153
 30
0.0
 10
12.2146776844
 20
7.0947026073
 30
0.0
 10
12.2151581754
 20
7.0942796499
 30
0.0
 10
12.2158396125
 20
7.0936698276
 30
0.0
 10
12.216659468
 20
7.0929404367
 30
0.0
 10
12.2177518644
 20
7.0919670786
 30
0.0
 10
12.2191176147
 20
7.0907506676
 30
0.0
 10
12.2213026727
 20
7.0888042498
 30
0.0
 10
12.2240340442
 20
7.0863712825
 30
0.0
 10
12.2273116689
 20
7.0834516982
 30
0.0
 10
12.2305892993
 20
7.0805321202
 30
0.0
 10
12.2349594711
 20
7.0766393473
 30
0.0
 10
12.2404221867
 20
7.0717733821
 30
0.0
 10
12.2458849018
 20
7.0669074162
 30
0.0
 10
12.2502550744
 20
7.0630146443
 30
0.0
 10
12.2535327026
 20
7.0600950635
 30
0.0
 10
12.2568103355
 20
7.0571754895
 30
0.0
 10
12.2595416815
 20
7.0547424901
 30
0.0
 10
12.2617267914
 20
7.0527961378
 30
0.0
 10
12.2630924097
 20
7.0515795601
 30
0.0
 10
12.2641850771
 20
7.0506065442
 30
0.0
 10
12.2650041045
 20
7.0498761082
 30
0.0
 10
12.2656881326
 20
7.0492695557
 30
0.0
 10
12.2661639981
 20
7.048840761
 30
0.0
 10
12.266440534
 20
7.0486023059
 30
0.0
 10
12.2666349418
 20
7.0484049555
 30
0.0
 10
12.2668790195
 20
7.0482783563
 30
0.0
 10
12.2671871311
 20
7.0480848787
 30
0.0
 10
12.2677343985
 20
7.0477577911
 30
0.0
 10
12.2685119888
 20
7.0472845117
 30
0.0
 10
12.2694469037
 20
7.0467191494
 30
0.0
 10
12.2706928258
 20
7.0459644344
 30
0.0
 10
12.2722504445
 20
7.0450213483
 30
0.0
 10
12.2747425137
 20
7.0435122386
 30
0.0
 10
12.2778576417
 20
7.0416259105
 30
0.0
 10
12.2815957775
 20
7.0393622915
 30
0.0
 10
12.285333918
 20
7.0370986792
 30
0.0
 10
12.2903181037
 20
7.0340805271
 30
0.0
 10
12.2965483365
 20
7.030307838
 30
0.0
 10
12.3027785689
 20
7.0265351482
 30
0.0
 10
12.3077627551
 20
7.0235169971
 30
0.0
 10
12.311500894
 20
7.0212533818
 30
0.0
 10
12.3152390361
 20
7.0189897742
 30
0.0
 10
12.3183541443
 20
7.0171034106
 30
0.0
 10
12.3208462538
 20
7.0155943732
 30
0.0
 10
12.3224037701
 20
7.0146511032
 30
0.0
 10
12.3236499025
 20
7.0138967657
 30
0.0
 10
12.3245841749
 20
7.01333025
 30
0.0
 10
12.3253637752
 20
7.0128605796
 30
0.0
 10
12.3259074546
 20
7.0125270492
 30
0.0
 10
12.326221315
 20
7.0123438945
 30
0.0
 10
12.3264477339
 20
7.0121855865
 30
0.0
 10
12.3267084653
 20
7.0121073294
 30
0.0
 10
12.3270441386
 20
7.011975064
 30
0.0
 10
12.3276371433
 20
7.0117566092
 30
0.0
 10
12.3284813773
 20
7.0114377293
 30
0.0
 10
12.3294957061
 20
7.0110579847
 30
0.0
 10
12.3308477087
 20
7.0105506417
 30
0.0
 10
12.3325378611
 20
7.0099168111
 30
0.0
 10
12.3352420215
 20
7.0089024876
 30
0.0
 10
12.3386222506
 20
7.00763465
 30
0.0
 10
12.3426785133
 20
7.0061132162
 30
0.0
 10
12.3467347793
 20
7.0045917901
 30
0.0
 10
12.3521431328
 20
7.0025632193
 30
0.0
 10
12.3589035752
 20
7.0000275068
 30
0.0
 10
12.3656640172
 20
6.9974917936
 30
0.0
 10
12.3710723711
 20
6.9954632239
 30
0.0
 10
12.3751286359
 20
6.9939417944
 30
0.0
 10
12.3791849032
 20
6.9924203732
 30
0.0
 10
12.3825651182
 20
6.9911524966
 30
0.0
 10
12.3852693074
 20
6.9901382526
 30
0.0
 10
12.3869593865
 20
6.9895042198
 30
0.0
 10
12.3883115396
 20
6.9889972919
 30
0.0
 10
12.3893254083
 20
6.9886162792
 30
0.0
 10
12.3901710818
 20
6.9883013666
 30
0.0
 10
12.3907615169
 20
6.9880758295
 30
0.0
 10
12.3911013072
 20
6.9879549117
 30
0.0
 10
12.3913493924
 20
6.9878417984
 30
0.0
 10
12.3916233085
 20
6.9878144047
 30
0.0
 10
12.3919795198
 20
6.9877479798
 30
0.0
 10
12.3926070876
 20
6.9876456672
 30
0.0
 10
12.3935014182
 20
6.987492223
 30
0.0
 10
12.3945755545
 20
6.9873112075
 30
0.0
 10
12.396007408
 20
6.9870687647
 30
0.0
 10
12.3977973372
 20
6.986766084
 30
0.0
 10
12.4006611612
 20
6.9862815864
 30
0.0
 10
12.4042409628
 20
6.9856760359
 30
0.0
 10
12.4085367154
 20
6.9849493448
 30
0.0
 10
12.4128324705
 20
6.9842226618
 30
0.0
 10
12.4185601431
 20
6.9832537483
 30
0.0
 10
12.4257197342
 20
6.9820426074
 30
0.0
 10
12.4343112433
 20
6.9805892378
 30
0.0
 10
12.4457665888
 20
6.978651412
 30
0.0
 10
12.454358098
 20
6.9771980425
 30
0.0
 10
12.4600857707
 20
6.9762291296
 30
0.0
  0
ENDSEC
  0
SECTION
  2
OBJECTS
  0
DICTIONARY
  5
C
100
AcDbDictionary
280
0
281
1
  3
ACAD_GROUP
350
D
  3
ACAD_MLINESTYLE
350
17
  3
ACAD_LAYOUT
350
1A
  3
ACAD_PLOTSETTINGS
350
19
  3
ACAD_PLOTSTYLENAME
350
E
  3
ACAD_IMAGE_DICT
350
       398
  3
ACAD_IMAGE_VARS
350
       399
  3
ACAD_TABLESTYLE
350
       39A
  0
IMAGEDEF_REACTOR
  5
397
100
AcDbRasterImageDefReactor
 90
2
330
27F
  0
DICTIONARY
  5
D
102
{ACAD_REACTORS
330
C
102
}
100
AcDbDictionary
280
0
281
1
  0
ACDBDICTIONARYWDFLT
  5
E
102
{ACAD_REACTORS
330
C
102
}
100
AcDbDictionary
281
1
  3
Normal
350
F
100
AcDbDictionaryWithDefault
340
F
  0
DICTIONARY
  5
398
330
C
100
AcDbDictionary
281
1
  3
RPECLCN-FAJ-S_assy_2_img_1
350
       39D
  0
RASTERVARIABLES
  5
399
330
C
100
AcDbRasterVariables
 90
0
 70
0
 71
1
 72
5
  0
DICTIONARY
  5
17
102
{ACAD_REACTORS
330
C
102
}
100
AcDbDictionary
280
0
281
1
  3
Standard
350
18
  0
DICTIONARY
  5
39A
330
C
100
AcDbDictionary
281
1
  3
Standard
350
       39E
  3
Standard1
350
       39F
  0
DICTIONARY
  5
19
102
{ACAD_REACTORS
330
C
102
}
100
AcDbDictionary
281
1
  0
DICTIONARY
  5
1A
102
{ACAD_REACTORS
330
C
102
}
100
AcDbDictionary
281
1
  3
Model
350
39B
  3
Layout1
350
39C
  0
ACDBPLACEHOLDER
  5
F
102
{ACAD_REACTORS
330
E
102
}
  0
MLINESTYLE
  5
18
102
{ACAD_REACTORS
330
17
102
}
100
AcDbMlineStyle
  2
STANDARD
 70
0
  3

 62
256
 51
90.0
 52
90.0
 71
2
 49
0.5
 62
256
  6
BYLAYER
 49
-0.5
 62
256
  6
BYLAYER
  0
LAYOUT
  5
39B
102
{ACAD_REACTORS
330
1A
102
}
100
AcDbPlotSettings
  1

  2
none_device
  4
ANSI_C_(22.00_x_17.00_Inches)
  6

 40
0.0
 41
0.0
 42
0.0
 43
0.0
 44
558.8
 45
431.8
 46
0.0
 47
0.0
 48
0.0
 49
0.0
140
0.0
141
0.0
142
1.0
143
1.0
 70
1024
 72
0
 73
0
 74
0
  7

 75
0
147
1.0
148
0.0
149
0.0
100
AcDbLayout
  1
Model
 70
0
 71
0
 10
0.0
 20
0.0
 11
22.0
 21
17.0
 12
0.0
 22
0.0
 32
0.0
 14
0.0
 24
0.0
 34
0.0
 15
0.0
 25
0.0
 35
0.0
146
0.0
 13
0.0
 23
0.0
 33
0.0
 16
1.0
 26
0.0
 36
0.0
 17
0.0
 27
1.0
 37
0.0
 76
0
330
204
345
0
346
0
  0
LAYOUT
  5
39C
102
{ACAD_REACTORS
330
1A
102
}
100
AcDbPlotSettings
  1

  2
none_device
  4
ANSI_C_(22.00_x_17.00_Inches)
  6

 40
0.0
 41
0.0
 42
0.0
 43
0.0
 44
558.8
 45
431.8
 46
0.0
 47
0.0
 48
0.0
 49
0.0
140
0.0
141
0.0
142
1.0
143
1.0
 70
0
 72
0
 73
0
 74
0
  7

 75
0
147
1.0
148
0.0
149
0.0
100
AcDbLayout
  1
Layout1
 70
0
 71
1
 10
0.0
 20
0.0
 11
22.0
 21
17.0
 12
0.0
 22
0.0
 32
0.0
 14
0.0
 24
0.0
 34
0.0
 15
0.0
 25
0.0
 35
0.0
146
0.0
 13
0.0
 23
0.0
 33
0.0
 16
1.0
 26
0.0
 36
0.0
 17
0.0
 27
1.0
 37
0.0
 76
0
330
205
345
0
346
0
  0
IMAGEDEF
  5
39D
102
{ACAD_REACTORS
330
398
330
397
102
}
100
AcDbRasterImageDef
 90
0
  1
RPECLCN-FAJ-S_assy_2_img_1.png
 10
369.0
 20
92.0
 11
0.0066666667
 21
0.0066666667
280
1
281
0
  0
TABLESTYLE
  5
39E
102
{ACAD_REACTORS
330
39A
330
282
330
283
102
}
330
39A
100
AcDbTableStyle
  3
Standard
 70
0
 71
0
 40
0.06
 41
0.06
280
1
281
1
  7
Standard
140
0.18
170
1
 62
0
 63
7
283
0
  7
Standard
140
0.18
170
1
 62
0
 63
7
283
0
  7
Standard
140
0.18
170
1
 62
0
 63
7
283
0
  0
TABLESTYLE
  5
39F
102
{ACAD_REACTORS
330
39A
330
281
102
}
330
39A
100
AcDbTableStyle
  3
Standard1
 70
1
 71
0
 40
0.06
 41
0.06
280
1
281
1
  7
Standard
140
0.18
170
1
 62
0
 63
7
283
0
  7
Standard
140
0.18
170
1
 62
0
 63
7
283
0
  7
Standard
140
0.18
170
1
 62
0
 63
7
283
0
  0
ENDSEC
  0
EOF
