999
DXF file: RPECLAN-CBF-T_assy_2.dxf
999
Pro/ENGINEER 2014200 by Parametric Technology Corporation
  0
SECTION
  2
HEADER
  9
$ACADVER
  1
AC1021
  9
$DWGCODEPAGE
  3
ANSI_1252
  9
$EXTMAX
 10
22.0
 20
17.0
 30
0.0
  9
$EXTMIN
 10
0.0
 20
0.0
 30
0.0
  9
$LIMMIN
 10
0.0
 20
0.0
  9
$LIMMAX
 10
22.0
 20
17.0
  9
$VIEWCTR
 10
11.0
 20
8.5
  9
$VIEWSIZE
 40
17.0
  9
$CLAYER
  8
0
  9
$LTSCALE
 40
1.21
  9
$CELTYPE
  6
BYLAYER
  9
$DIMSCALE
 40
1.0
  9
$DIMASZ
 40
0.1875
  9
$DIMEXO
 40
0.0625
  9
$DIMDLI
 40
0.836
  9
$DIMEXE
 40
0.125
  9
$DIMCEN
 40
0.198
  9
$DIMLFAC
 40
1.0
  9
$DIMBLK
  1
_FILLED
  9
$DIMTXT
 40
0.1
  9
$DIMTOL
 70
0
  9
$DIMLIM
 70
0
  9
$DIMTFAC
 40
1.0
  9
$DIMGAP
 40
0.09
  9
$DIMDSEP
 70
46
  9
$AUNITS
 70
0
  9
$PDMODE
 70
3
  9
$PDSIZE
 40
0.3125
  9
$HANDSEED
  5
3ED
  9
$TILEMODE
 70
1
  9
$MEASUREMENT
 70
0
  9
$INSUNITS
 70
1
  0
ENDSEC
  0
SECTION
  2
CLASSES
  0
CLASS
  1
ACDBDICTIONARYWDFLT
  2
AcDbDictionaryWithDefault
  3
AutoCAD 2000
 90
0
 91
1
280
0
281
0
  0
CLASS
  1
ACDBPLACEHOLDER
  2
AcDbPlaceHolder
  3
AutoCAD 2000
 90
0
 91
1
280
0
281
0
  0
CLASS
  1
LAYOUT
  2
AcDbLayout
  3
AutoCAD 2000
 90
0
 91
0
280
0
281
0
  0
CLASS
  1
RASTERVARIABLES
  2
AcDbRasterVariables
  3
ISM
 90
0
 91
1
280
0
281
0
  0
CLASS
  1
IMAGEDEF
  2
AcDbRasterImageDef
  3
ISM
 90
0
 91
1
280
0
281
0
  0
CLASS
  1
IMAGEDEF_REACTOR
  2
AcDbRasterImageDefReactor
  3
ISM
 90
0
 91
1
280
0
281
0
  0
CLASS
  1
IMAGE
  2
AcDbRasterImage
  3
ISM
 90
127
 91
1
280
0
281
1
  0
CLASS
  1
TABLESTYLE
  2
AcDbTableStyle
  3
ObjectDBX Classes
 90
2047
 91
1
280
0
281
0
  0
CLASS
  1
ACAD_TABLE
  2
AcDbTable
  3
ObjectDBX Classes
 90
1025
 91
3
280
0
281
1
  0
ENDSEC
  0
SECTION
  2
TABLES
  0
TABLE
  2
VPORT
  5
8
100
AcDbSymbolTable
 70
2
  0
VPORT
  5
1F4
100
AcDbSymbolTableRecord
100
AcDbViewportTableRecord
  2
*ACTIVE
 70
0
 10
0.0
 20
0.0
 11
1.0
 21
1.0
 12
11.0
 22
8.5
 13
0.0
 23
0.0
 14
1.0
 24
1.0
 15
0.0
 25
0.0
 16
0.0
 26
0.0
 36
1.0
 17
0.0
 27
0.0
 37
0.0
 40
17.0
 41
1.2941176471
 42
50.0
 43
0.0
 44
0.0
 50
0.0
 51
0.0
 71
0
 72
100
 73
1
 74
1
 75
0
 76
0
 77
0
 78
0
  0
ENDTAB
  0
TABLE
  2
LTYPE
  5
5
100
AcDbSymbolTable
 70
6
  0
LTYPE
  5
14
100
AcDbSymbolTableRecord
100
AcDbLinetypeTableRecord
  2
BYBLOCK
 70
0
  3

 72
65
 73
0
 40
0.0
  0
LTYPE
  5
15
100
AcDbSymbolTableRecord
100
AcDbLinetypeTableRecord
  2
BYLAYER
 70
0
  3

 72
65
 73
0
 40
0.0
  0
LTYPE
  5
16
100
AcDbSymbolTableRecord
100
AcDbLinetypeTableRecord
  2
CONTINUOUS
 70
64
  3
Solid line
 72
65
 73
0
 40
0.0
  0
LTYPE
  5
1F5
100
AcDbSymbolTableRecord
100
AcDbLinetypeTableRecord
  2
CENTER
 70
64
  3
____ _ ____ _ ____ _ ____ _ ____ _ ____ _ ____
 72
65
 73
4
 40
0.6
 49
0.375
 74
0
 49
-0.075
 74
0
 49
0.075
 74
0
 49
-0.075
 74
0
  0
LTYPE
  5
1F6
100
AcDbSymbolTableRecord
100
AcDbLinetypeTableRecord
  2
HIDDEN
 70
64
  3
- - - - - - - - - - - - - - - - - - - -
 72
65
 73
2
 40
0.2
 49
0.1
 74
0
 49
-0.1
 74
0
  0
LTYPE
  5
1F7
100
AcDbSymbolTableRecord
100
AcDbLinetypeTableRecord
  2
PHANTOM
 70
64
  3
_____ _ _ _____ _ _ _____ _ _ _____
 72
65
 73
6
 40
0.8
 49
0.45
 74
0
 49
-0.05
 74
0
 49
0.1
 74
0
 49
-0.05
 74
0
 49
0.1
 74
0
 49
-0.05
 74
0
  0
LTYPE
  5
1F8
100
AcDbSymbolTableRecord
100
AcDbLinetypeTableRecord
  2
DOT
 70
64
  3
. . . . . . . . . . . . . . . . . . . .
 72
65
 73
2
 40
0.2
 49
0.1
 74
0
 49
-0.1
 74
0
  0
LTYPE
  5
1F9
100
AcDbSymbolTableRecord
100
AcDbLinetypeTableRecord
  2
DASHED
 70
64
  3
- - - - - - - - - - - - - - - - - - - -
 72
65
 73
2
 40
0.2
 49
0.1
 74
0
 49
-0.1
 74
0
  0
ENDTAB
  0
TABLE
  2
LAYER
  5
2
100
AcDbSymbolTable
 70
36
  0
LAYER
  5
10
100
AcDbSymbolTableRecord
100
AcDbLayerTableRecord
  2
0
 70
0
 62
7
  6
CONTINUOUS
370
-3
390
F
  0
LAYER
  5
1FA
100
AcDbSymbolTableRecord
100
AcDbLayerTableRecord
  2
DEFAULT_1
 70
0
 62
7
  6
CENTER
370
-3
390
F
  0
LAYER
  5
1FB
100
AcDbSymbolTableRecord
100
AcDbLayerTableRecord
  2
DEFAULT_2
 70
0
 62
8
  6
HIDDEN
370
-3
390
F
  0
LAYER
  5
1FC
100
AcDbSymbolTableRecord
100
AcDbLayerTableRecord
  2
DEFAULT_3
 70
0
 62
7
  6
PHANTOM
370
-3
390
F
  0
LAYER
  5
1FD
100
AcDbSymbolTableRecord
100
AcDbLayerTableRecord
  2
DATUM_PLANES
 70
0
 62
7
  6
CONTINUOUS
370
-3
390
F
  0
LAYER
  5
1FE
100
AcDbSymbolTableRecord
100
AcDbLayerTableRecord
  2
DIMENSIONS
 70
0
 62
7
  6
CONTINUOUS
370
-3
390
F
  0
LAYER
  5
1FF
100
AcDbSymbolTableRecord
100
AcDbLayerTableRecord
  2
DTM_500001
 70
0
 62
7
  6
CONTINUOUS
370
-3
390
F
  0
LAYER
  5
200
100
AcDbSymbolTableRecord
100
AcDbLayerTableRecord
  2
PARAMETERDIMENSIONS
 70
0
 62
7
  6
CONTINUOUS
370
-3
390
F
  0
LAYER
  5
201
100
AcDbSymbolTableRecord
100
AcDbLayerTableRecord
  2
PORT_AREAS
 70
0
 62
7
  6
CONTINUOUS
370
-3
390
F
  0
LAYER
  5
202
100
AcDbSymbolTableRecord
100
AcDbLayerTableRecord
  2
SUNNBOMCOSMETIC
 70
0
 62
7
  6
CONTINUOUS
370
-3
390
F
  0
LAYER
  5
203
100
AcDbSymbolTableRecord
100
AcDbLayerTableRecord
  2
SUNNBOMSTAMPING
 70
0
 62
7
  6
CONTINUOUS
370
-3
390
F
  0
LAYER
  5
204
100
AcDbSymbolTableRecord
100
AcDbLayerTableRecord
  2
THREADS
 70
0
 62
7
  6
CONTINUOUS
370
-3
390
F
  0
ENDTAB
  0
TABLE
  2
STYLE
  5
3
100
AcDbSymbolTable
 70
1
  0
STYLE
  5
11
100
AcDbSymbolTableRecord
100
AcDbTextStyleTableRecord
  2
STANDARD
 70
0
 40
0.0
 41
0.8
 50
0.0
 71
0
 42
0.2
  3
txt
  4

  0
STYLE
  5
205
100
AcDbSymbolTableRecord
100
AcDbTextStyleTableRecord
  2
TEXTSTYLE_1
 70
0
 40
0.0
 41
0.8
 50
0.0
 71
0
 42
0.2
  3
gdt
  4

  0
ENDTAB
  0
TABLE
  2
VIEW
  5
6
100
AcDbSymbolTable
 70
0
  0
ENDTAB
  0
TABLE
  2
UCS
  5
7
100
AcDbSymbolTable
 70
0
  0
ENDTAB
  0
TABLE
  2
APPID
  5
9
100
AcDbSymbolTable
 70
1
  0
APPID
  5
206
100
AcDbSymbolTableRecord
100
AcDbRegAppTableRecord
  2
ACAD
 70
0
  0
ENDTAB
  0
TABLE
  2
BLOCK_RECORD
  5
1
100
AcDbSymbolTable
 70
0
  0
BLOCK_RECORD
  5
207
100
AcDbSymbolTableRecord
100
AcDbBlockTableRecord
  2
*Model_Space
  0
BLOCK_RECORD
  5
208
100
AcDbSymbolTableRecord
100
AcDbBlockTableRecord
  2
*Paper_Space
  0
BLOCK_RECORD
  5
209
100
AcDbSymbolTableRecord
100
AcDbBlockTableRecord
  2
SUN_FIRST_THIRD_ANGLE_BL0
  0
BLOCK_RECORD
  5
20A
100
AcDbSymbolTableRecord
100
AcDbBlockTableRecord
  2
*T1
  0
BLOCK_RECORD
  5
20B
100
AcDbSymbolTableRecord
100
AcDbBlockTableRecord
  2
*T2
  0
BLOCK_RECORD
  5
20C
100
AcDbSymbolTableRecord
100
AcDbBlockTableRecord
  2
*T3
  0
ENDTAB
  0
TABLE
  2
DIMSTYLE
  5
A
100
AcDbSymbolTable
 70
1
100
AcDbDimStyleTable
 71
0
  0
DIMSTYLE
105
20D
100
AcDbSymbolTableRecord
100
AcDbDimStyleTableRecord
  2
STANDARD
 70
0
  3

  4

 40
1.0
 41
0.1875
 42
0.0625
 43
0.38
 44
0.125
 45
0.0
 46
0.0
 47
0.001
 48
0.001
140
0.1
141
0.09
142
0.0
143
25.4
144
1.0
145
0.0
146
1.0
147
0.09
 71
0.0
 72
0.0
 73
1
 74
1
 75
0
 76
0
 77
0
 78
4
170
0
171
2
172
0
173
0
174
0
175
0
176
0
177
0
178
0
270
2
271
3
272
3
273
2
274
2
275
0
280
0
281
0
282
0
283
1
284
4
285
0
286
0
287
3
288
0
340
11
278
46
  0
ENDTAB
  0
ENDSEC
  0
SECTION
  2
BLOCKS
  0
BLOCK
  5
20
100
AcDbEntity
  8
0
100
AcDbBlockBegin
  2
*Model_Space
 70
0
 10
0.0
 20
0.0
 30
0.0
  3
*Model_Space
  1

  0
ENDBLK
  5
21
100
AcDbEntity
  8
0
100
AcDbBlockEnd
  0
BLOCK
  5
1C
100
AcDbEntity
  8
0
100
AcDbBlockBegin
  2
*Paper_Space
 70
0
 10
0.0
 20
0.0
 30
0.0
  3
*Paper_Space
  1

  0
ENDBLK
  5
1D
100
AcDbEntity
  8
0
100
AcDbBlockEnd
  0
BLOCK
  5
20E
100
AcDbEntity
  8
0
100
AcDbBlockBegin
 62
2
  6
CONTINUOUS
  2
SUN_FIRST_THIRD_ANGLE_BL0
 70
64
 10
20.4816717061
 20
1.2289683772
  3
SUN_FIRST_THIRD_ANGLE_BL0
  1

  0
TEXT
  5
20F
100
AcDbEntity
  8
0
100
AcDbText
 62
2
  6
CONTINUOUS
 10
19.4750896608
 20
1.4136269581
  7
STANDARD
 40
0.08
  1
FIRST ANGLE
 41
0.8
 72
0
100
AcDbText
  0
TEXT
  5
210
100
AcDbEntity
  8
0
100
AcDbText
 62
2
  6
CONTINUOUS
 10
20.7842537513
 20
1.4047600029
  7
STANDARD
 40
0.08
  1
THIRD ANGLE
 41
0.8
 72
0
100
AcDbText
  0
LINE
  5
211
100
AcDbEntity
  8
0
100
AcDbLine
 62
7
  6
CONTINUOUS
 10
19.4767170086
 20
1.1727031207
 11
19.6334271527
 21
1.1717972817
  0
LINE
  5
212
100
AcDbEntity
  8
0
100
AcDbLine
 62
7
  6
CONTINUOUS
 10
19.6596964832
 20
1.1717972817
 11
19.6950230232
 21
1.171593082
  0
LINE
  5
213
100
AcDbEntity
  8
0
100
AcDbLine
 62
7
  6
CONTINUOUS
 10
19.7194818561
 20
1.1708914427
 11
19.8852396156
 21
1.1699333054
  0
LINE
  5
214
100
AcDbEntity
  8
0
100
AcDbLine
 62
7
  6
CONTINUOUS
 10
19.4758111696
 20
1.2723454088
 11
19.88525039
 21
1.3511534004
  0
LINE
  5
215
100
AcDbEntity
  8
0
100
AcDbLine
 62
7
  6
CONTINUOUS
 10
19.88525039
 20
1.3511534004
 11
19.8831348489
 21
0.9851647912
  0
LINE
  5
216
100
AcDbEntity
  8
0
100
AcDbLine
 62
7
  6
CONTINUOUS
 10
19.8831348489
 20
0.9851647912
 11
19.4767170086
 21
1.0658141206
  0
LINE
  5
217
100
AcDbEntity
  8
0
100
AcDbLine
 62
7
  6
CONTINUOUS
 10
19.4767170086
 20
1.0658141206
 11
19.4779056764
 21
1.2714536432
  0
CIRCLE
  5
218
100
AcDbEntity
  8
0
100
AcDbCircle
 62
7
  6
CONTINUOUS
 10
20.2068232291
 20
1.1717972817
 40
0.175742101
  0
CIRCLE
  5
219
100
AcDbEntity
  8
0
100
AcDbCircle
 62
7
  6
CONTINUOUS
 10
20.2068232291
 20
1.1717972817
 40
0.1005522074
  0
LINE
  5
21A
100
AcDbEntity
  8
0
100
AcDbLine
 62
7
  6
CONTINUOUS
 10
20.2077290681
 20
1.3756110529
 11
20.2071171714
 21
1.2379342989
  0
LINE
  5
21B
100
AcDbEntity
  8
0
100
AcDbLine
 62
7
  6
CONTINUOUS
 10
20.2077290681
 20
1.2016899681
 11
20.2074674401
 21
1.1428236749
  0
LINE
  5
21C
100
AcDbEntity
  8
0
100
AcDbLine
 62
7
  6
CONTINUOUS
 10
20.208634907
 20
1.101141841
 11
20.2080230104
 21
0.963465087
  0
LINE
  5
21D
100
AcDbEntity
  8
0
100
AcDbLine
 62
7
  6
CONTINUOUS
 10
20.0066328138
 20
1.1745147986
 11
20.1443095678
 21
1.1739029019
  0
LINE
  5
21E
100
AcDbEntity
  8
0
100
AcDbLine
 62
7
  6
CONTINUOUS
 10
20.1832714155
 20
1.1727031207
 11
20.238153505
 21
1.172335442
  0
LINE
  5
21F
100
AcDbEntity
  8
0
100
AcDbLine
 62
7
  6
CONTINUOUS
 10
20.2756669918
 20
1.1717972817
 11
20.407916871
 21
1.1712095044
  0
CIRCLE
  5
220
100
AcDbEntity
  8
0
100
AcDbCircle
 62
7
  6
CONTINUOUS
 10
20.7509457401
 20
1.1693297793
 40
0.1722024983
  0
CIRCLE
  5
221
100
AcDbEntity
  8
0
100
AcDbCircle
 62
7
  6
CONTINUOUS
 10
20.7509457401
 20
1.1693297793
 40
0.0985164967
  0
LINE
  5
222
100
AcDbEntity
  8
0
100
AcDbLine
 62
7
  6
CONTINUOUS
 10
20.7169767782
 20
1.170462078
 11
20.7825395137
 21
1.1682766535
  0
LINE
  5
223
100
AcDbEntity
  8
0
100
AcDbLine
 62
7
  6
CONTINUOUS
 10
20.8177513651
 20
1.1693297793
 11
20.947965719
 21
1.1693297793
  0
LINE
  5
224
100
AcDbEntity
  8
0
100
AcDbLine
 62
7
  6
CONTINUOUS
 10
20.6875370113
 20
1.170462078
 11
20.5573226574
 21
1.170462078
  0
LINE
  5
225
100
AcDbEntity
  8
0
100
AcDbLine
 62
7
  6
CONTINUOUS
 10
20.7486811426
 20
1.1987695462
 11
20.7486811426
 21
1.1432869085
  0
LINE
  5
226
100
AcDbEntity
  8
0
100
AcDbLine
 62
7
  6
CONTINUOUS
 10
20.7498134414
 20
1.1059210505
 11
20.7498134414
 21
0.9757066966
  0
LINE
  5
227
100
AcDbEntity
  8
0
100
AcDbLine
 62
7
  6
CONTINUOUS
 10
20.7486811426
 20
1.2338708068
 11
20.7486811426
 21
1.3640851607
  0
LINE
  5
228
100
AcDbEntity
  8
0
100
AcDbLine
 62
7
  6
CONTINUOUS
 10
21.0702539817
 20
1.2701043662
 11
21.4790138229
 21
1.3448360823
  0
LINE
  5
229
100
AcDbEntity
  8
0
100
AcDbLine
 62
7
  6
CONTINUOUS
 10
21.4790138229
 20
1.3448360823
 11
21.4790138229
 21
0.9779712941
  0
LINE
  5
22A
100
AcDbEntity
  8
0
100
AcDbLine
 62
7
  6
CONTINUOUS
 10
21.4790138229
 20
0.9779712941
 11
21.069121683
 21
1.0617614
  0
LINE
  5
22B
100
AcDbEntity
  8
0
100
AcDbLine
 62
7
  6
CONTINUOUS
 10
21.0702539817
 20
1.2701043662
 11
21.069121683
 21
1.0617614
  0
LINE
  5
22C
100
AcDbEntity
  8
0
100
AcDbLine
 62
7
  6
CONTINUOUS
 10
21.4790138229
 20
1.1693297793
 11
21.3159628059
 21
1.1693297793
  0
LINE
  5
22D
100
AcDbEntity
  8
0
100
AcDbLine
 62
7
  6
CONTINUOUS
 10
21.2876553377
 20
1.1693297793
 11
21.2502894796
 21
1.1693297793
  0
LINE
  5
22E
100
AcDbEntity
  8
0
100
AcDbLine
 62
7
  6
CONTINUOUS
 10
21.2208497126
 20
1.1659328831
 11
21.0713862804
 21
1.1659328831
  0
LINE
  5
22F
100
AcDbEntity
  8
0
100
AcDbLine
 62
7
  6
CONTINUOUS
 10
20.4796138713
 20
1.5284908897
 11
20.4766766948
 21
0.9294458646
  0
ENDBLK
  5
230
100
AcDbEntity
  8
0
  6
BYBLOCK
 62
0
100
AcDbBlockEnd
  0
BLOCK
  5
231
100
AcDbEntity
  8
0
100
AcDbBlockBegin
  2
*T1
 70
1
 10
0.0
 20
0.0
  3
*T1
  1

  0
LINE
  5
232
100
AcDbEntity
  8
0
100
AcDbLine
 62
2
  6
CONTINUOUS
 10
9.275
 20
0.0
 11
-0.0
 21
0.0
  0
LINE
  5
233
100
AcDbEntity
  8
0
100
AcDbLine
 62
2
  6
CONTINUOUS
 10
9.275
 20
0.0
 11
9.275
 21
1.25
  0
LINE
  5
234
100
AcDbEntity
  8
0
100
AcDbLine
 62
2
  6
CONTINUOUS
 10
9.275
 20
0.625
 11
-0.0
 21
0.625
  0
LINE
  5
235
100
AcDbEntity
  8
0
100
AcDbLine
 62
2
  6
CONTINUOUS
 10
9.275
 20
1.25
 11
-0.0
 21
1.25
  0
LINE
  5
236
100
AcDbEntity
  8
0
100
AcDbLine
 62
2
  6
CONTINUOUS
 10
6.8
 20
0.0
 11
6.8
 21
1.25
  0
LINE
  5
237
100
AcDbEntity
  8
0
100
AcDbLine
 62
2
  6
CONTINUOUS
 10
6.4
 20
0.0
 11
6.4
 21
0.625
  0
LINE
  5
238
100
AcDbEntity
  8
0
100
AcDbLine
 62
2
  6
CONTINUOUS
 10
5.9
 20
0.0
 11
5.9
 21
0.625
  0
LINE
  5
239
100
AcDbEntity
  8
0
100
AcDbLine
 62
2
  6
CONTINUOUS
 10
5.2
 20
0.0
 11
5.2
 21
0.625
  0
LINE
  5
23A
100
AcDbEntity
  8
0
100
AcDbLine
 62
2
  6
CONTINUOUS
 10
4.1
 20
0.0
 11
4.1
 21
1.25
  0
LINE
  5
23B
100
AcDbEntity
  8
0
100
AcDbLine
 62
2
  6
CONTINUOUS
 10
-0.0
 20
0.0
 11
-0.0
 21
1.25
  0
MTEXT
  5
23C
100
AcDbEntity
  8
0
100
AcDbMText
 62
2
  6
CONTINUOUS
  7
STANDARD
 71
2
 72
1
 10
6.6
 20
0.325
 30
0.0
 11
1.0
 21
0.0
 31
0.0
 44
0.9
  1
2
 40
0.125
 41
0.2
  0
MTEXT
  5
23D
100
AcDbEntity
  8
0
100
AcDbMText
 62
2
  6
CONTINUOUS
  7
STANDARD
 71
2
 72
1
 10
6.15
 20
0.325
 30
0.0
 11
1.0
 21
0.0
 31
0.0
 44
0.9
  1
C
 40
0.125
 41
0.2
  0
MTEXT
  5
23E
100
AcDbEntity
  8
0
100
AcDbMText
 62
2
  6
CONTINUOUS
  7
STANDARD
 71
2
 72
1
 10
5.55
 20
0.325
 30
0.0
 11
1.0
 21
0.0
 31
0.0
 44
0.9
  1
1.000
 40
0.125
 41
1.0
  0
MTEXT
  5
23F
100
AcDbEntity
  8
0
100
AcDbMText
 62
2
  6
CONTINUOUS
  7
STANDARD
 71
2
 72
1
 10
4.65
 20
0.325
 30
0.0
 11
1.0
 21
0.0
 31
0.0
 44
0.9
  1
Mar-05-24
 40
0.125
 41
1.8
  0
MTEXT
  5
240
100
AcDbEntity
  8
0
100
AcDbMText
 62
2
  6
CONTINUOUS
  7
STANDARD
 71
2
 72
1
 10
2.05
 20
0.4625
 30
0.0
 11
1.0
 21
0.0
 31
0.0
 44
0.9
  1
Relief manifold assembly
 40
0.125
 41
4.8
  0
MTEXT
  5
241
100
AcDbEntity
  8
0
100
AcDbMText
 62
2
  6
CONTINUOUS
  7
STANDARD
 71
1
 72
1
 10
6.45
 20
0.5625
 30
0.0
 11
1.0
 21
0.0
 31
0.0
 44
0.9
  1
SHEET
 40
0.06
 41
0.48
  0
MTEXT
  5
242
100
AcDbEntity
  8
0
100
AcDbMText
 62
2
  6
CONTINUOUS
  7
STANDARD
 71
1
 72
1
 10
5.95
 20
0.5625
 30
0.0
 11
1.0
 21
0.0
 31
0.0
 44
0.9
  1
DWG SIZE
 40
0.06
 41
0.768
  0
MTEXT
  5
243
100
AcDbEntity
  8
0
100
AcDbMText
 62
2
  6
CONTINUOUS
  7
STANDARD
 71
1
 72
1
 10
5.25
 20
0.5625
 30
0.0
 11
1.0
 21
0.0
 31
0.0
 44
0.9
  1
SCALE
 40
0.06
 41
0.48
  0
MTEXT
  5
244
100
AcDbEntity
  8
0
100
AcDbMText
 62
2
  6
CONTINUOUS
  7
STANDARD
 71
1
 72
1
 10
4.15
 20
0.5625
 30
0.0
 11
1.0
 21
0.0
 31
0.0
 44
0.9
  1
DATE
 40
0.06
 41
0.384
  0
MTEXT
  5
245
100
AcDbEntity
  8
0
100
AcDbMText
 62
2
  6
CONTINUOUS
  7
STANDARD
 71
1
 72
1
 10
0.05
 20
0.5625
 30
0.0
 11
1.0
 21
0.0
 31
0.0
 44
0.9
  1
DESCRIPTION
 40
0.06
 41
1.056
  0
MTEXT
  5
246
100
AcDbEntity
  8
0
100
AcDbMText
 62
2
  6
CONTINUOUS
  7
STANDARD
 71
2
 72
1
 10
5.45
 20
1.0375
 30
0.0
 11
1.0
 21
0.0
 31
0.0
 44
0.9
  1
ALL DIMENSIONS IN INCH\PVIEWS ARE THIRD ANGLE
 40
0.12
 41
4.224
  0
MTEXT
  5
247
100
AcDbEntity
  8
0
100
AcDbMText
 62
2
  6
CONTINUOUS
  7
STANDARD
 71
2
 72
1
 10
2.05
 20
0.95
 30
0.0
 11
1.0
 21
0.0
 31
0.0
 44
0.9
  1
RPECLAN-CBF/T
 40
0.125
 41
2.6
  0
MTEXT
  5
248
100
AcDbEntity
  8
0
100
AcDbMText
 62
2
  6
CONTINUOUS
  7
STANDARD
 71
1
 72
1
 10
0.05
 20
1.1875
 30
0.0
 11
1.0
 21
0.0
 31
0.0
 44
0.9
  1
MODEL
 40
0.06
 41
0.48
  0
ENDBLK
  5
249
100
AcDbEntity
  8
0
  6
BYBLOCK
 62
0
100
AcDbBlockEnd
  0
BLOCK
  5
24A
100
AcDbEntity
  8
0
100
AcDbBlockBegin
  2
*T2
 70
1
 10
0.0
 20
0.0
  3
*T2
  1

  0
LINE
  5
24B
100
AcDbEntity
  8
0
100
AcDbLine
 62
2
  6
CONTINUOUS
 10
0.0
 20
0.0
 11
9.055
 21
0.0
  0
LINE
  5
24C
100
AcDbEntity
  8
0
100
AcDbLine
 62
2
  6
CONTINUOUS
 10
0.0
 20
0.0
 11
0.0
 21
-2.344
  0
LINE
  5
24D
100
AcDbEntity
  8
0
100
AcDbLine
 62
2
  6
CONTINUOUS
 10
0.0
 20
-0.344
 11
9.055
 21
-0.344
  0
LINE
  5
24E
100
AcDbEntity
  8
0
100
AcDbLine
 62
2
  6
CONTINUOUS
 10
0.0
 20
-0.594
 11
9.055
 21
-0.594
  0
LINE
  5
24F
100
AcDbEntity
  8
0
100
AcDbLine
 62
2
  6
CONTINUOUS
 10
0.0
 20
-0.844
 11
9.055
 21
-0.844
  0
LINE
  5
250
100
AcDbEntity
  8
0
100
AcDbLine
 62
2
  6
CONTINUOUS
 10
0.0
 20
-1.094
 11
9.055
 21
-1.094
  0
LINE
  5
251
100
AcDbEntity
  8
0
100
AcDbLine
 62
2
  6
CONTINUOUS
 10
0.0
 20
-1.344
 11
9.055
 21
-1.344
  0
LINE
  5
252
100
AcDbEntity
  8
0
100
AcDbLine
 62
2
  6
CONTINUOUS
 10
0.0
 20
-1.594
 11
9.055
 21
-1.594
  0
LINE
  5
253
100
AcDbEntity
  8
0
100
AcDbLine
 62
2
  6
CONTINUOUS
 10
0.0
 20
-1.844
 11
9.055
 21
-1.844
  0
LINE
  5
254
100
AcDbEntity
  8
0
100
AcDbLine
 62
2
  6
CONTINUOUS
 10
0.0
 20
-2.094
 11
9.055
 21
-2.094
  0
LINE
  5
255
100
AcDbEntity
  8
0
100
AcDbLine
 62
2
  6
CONTINUOUS
 10
0.0
 20
-2.344
 11
9.055
 21
-2.344
  0
LINE
  5
256
100
AcDbEntity
  8
0
100
AcDbLine
 62
2
  6
CONTINUOUS
 10
3.055
 20
0.0
 11
3.055
 21
-2.344
  0
LINE
  5
257
100
AcDbEntity
  8
0
100
AcDbLine
 62
2
  6
CONTINUOUS
 10
9.055
 20
0.0
 11
9.055
 21
-2.344
  0
MTEXT
  5
258
100
AcDbEntity
  8
0
100
AcDbMText
 62
2
  6
CONTINUOUS
  7
STANDARD
 71
2
 72
1
 10
1.5275
 20
-0.0995
 30
0.0
 11
1.0
 21
0.0
 31
0.0
 44
0.9
  1
Technical Data
 40
0.145
 41
3.248
  0
MTEXT
  5
259
100
AcDbEntity
  8
0
100
AcDbMText
 62
2
  6
CONTINUOUS
  7
STANDARD
 71
2
 72
1
 10
4.555
 20
-0.0995
 30
0.0
 11
1.0
 21
0.0
 31
0.0
 44
0.9
  1
U.S. Units
 40
0.145
 41
2.32
  0
MTEXT
  5
25A
100
AcDbEntity
  8
0
100
AcDbMText
 62
2
  6
CONTINUOUS
  7
STANDARD
 71
2
 72
1
 10
7.555
 20
-0.0995
 30
0.0
 11
1.0
 21
0.0
 31
0.0
 44
0.9
  1
Metric Units
 40
0.145
 41
2.784
  0
MTEXT
  5
25B
100
AcDbEntity
  8
0
100
AcDbMText
 62
2
  6
CONTINUOUS
  7
STANDARD
 71
2
 72
1
 10
1.5275
 20
-0.4065
 30
0.0
 11
1.0
 21
0.0
 31
0.0
 44
0.9
  1
Cavity
 40
0.125
 41
1.2
  0
MTEXT
  5
25C
100
AcDbEntity
  8
0
100
AcDbMText
 62
2
  6
CONTINUOUS
  7
STANDARD
 71
2
 72
1
 10
6.055
 20
-0.4065
 30
0.0
 11
1.0
 21
0.0
 31
0.0
 44
0.9
  1
T-10A
 40
0.125
 41
1.0
  0
MTEXT
  5
25D
100
AcDbEntity
  8
0
100
AcDbMText
 62
2
  6
CONTINUOUS
  7
STANDARD
 71
2
 72
1
 10
1.5275
 20
-0.6565
 30
0.0
 11
1.0
 21
0.0
 31
0.0
 44
0.9
  1
Body Features
 40
0.125
 41
2.6
  0
MTEXT
  5
25E
100
AcDbEntity
  8
0
100
AcDbMText
 62
2
  6
CONTINUOUS
  7
STANDARD
 71
2
 72
1
 10
6.055
 20
-0.6565
 30
0.0
 11
1.0
 21
0.0
 31
0.0
 44
0.9
  1
A to T
 40
0.125
 41
1.2
  0
MTEXT
  5
25F
100
AcDbEntity
  8
0
100
AcDbMText
 62
2
  6
CONTINUOUS
  7
STANDARD
 71
2
 72
1
 10
1.5275
 20
-0.9065
 30
0.0
 11
1.0
 21
0.0
 31
0.0
 44
0.9
  1
Body Type
 40
0.125
 41
1.8
  0
MTEXT
  5
260
100
AcDbEntity
  8
0
100
AcDbMText
 62
2
  6
CONTINUOUS
  7
STANDARD
 71
2
 72
1
 10
6.055
 20
-0.9065
 30
0.0
 11
1.0
 21
0.0
 31
0.0
 44
0.9
  1
Sandwich
 40
0.125
 41
1.6
  0
MTEXT
  5
261
100
AcDbEntity
  8
0
100
AcDbMText
 62
2
  6
CONTINUOUS
  7
STANDARD
 71
2
 72
1
 10
1.5275
 20
-1.1565
 30
0.0
 11
1.0
 21
0.0
 31
0.0
 44
0.9
  1
Interface
 40
0.125
 41
1.8
  0
MTEXT
  5
262
100
AcDbEntity
  8
0
100
AcDbMText
 62
2
  6
CONTINUOUS
  7
STANDARD
 71
2
 72
1
 10
6.055
 20
-1.1565
 30
0.0
 11
1.0
 21
0.0
 31
0.0
 44
0.9
  1
ISO 05
 40
0.125
 41
1.2
  0
MTEXT
  5
263
100
AcDbEntity
  8
0
100
AcDbMText
 62
2
  6
CONTINUOUS
  7
STANDARD
 71
2
 72
1
 10
1.5275
 20
-1.4065
 30
0.0
 11
1.0
 21
0.0
 31
0.0
 44
0.9
  1
Open Cavity Quantity
 40
0.125
 41
4.0
  0
MTEXT
  5
264
100
AcDbEntity
  8
0
100
AcDbMText
 62
2
  6
CONTINUOUS
  7
STANDARD
 71
2
 72
1
 10
6.055
 20
-1.4065
 30
0.0
 11
1.0
 21
0.0
 31
0.0
 44
0.9
  1
1
 40
0.125
 41
0.2
  0
MTEXT
  5
265
100
AcDbEntity
  8
0
100
AcDbMText
 62
2
  6
CONTINUOUS
  7
STANDARD
 71
2
 72
1
 10
1.5275
 20
-1.6565
 30
0.0
 11
1.0
 21
0.0
 31
0.0
 44
0.9
  1
Stack Height
 40
0.125
 41
2.4
  0
MTEXT
  5
266
100
AcDbEntity
  8
0
100
AcDbMText
 62
2
  6
CONTINUOUS
  7
STANDARD
 71
2
 72
1
 10
4.555
 20
-1.6565
 30
0.0
 11
1.0
 21
0.0
 31
0.0
 44
0.9
  1
1.94 in.
 40
0.125
 41
1.6
  0
MTEXT
  5
267
100
AcDbEntity
  8
0
100
AcDbMText
 62
2
  6
CONTINUOUS
  7
STANDARD
 71
2
 72
1
 10
7.555
 20
-1.6565
 30
0.0
 11
1.0
 21
0.0
 31
0.0
 44
0.9
  1
49 mm
 40
0.125
 41
1.0
  0
MTEXT
  5
268
100
AcDbEntity
  8
0
100
AcDbMText
 62
2
  6
CONTINUOUS
  7
STANDARD
 71
2
 72
1
 10
1.5275
 20
-1.9065
 30
0.0
 11
1.0
 21
0.0
 31
0.0
 44
0.9
  1
Weight
 40
0.125
 41
1.2
  0
MTEXT
  5
269
100
AcDbEntity
  8
0
100
AcDbMText
 62
2
  6
CONTINUOUS
  7
STANDARD
 71
2
 72
1
 10
4.555
 20
-1.9065
 30
0.0
 11
1.0
 21
0.0
 31
0.0
 44
0.9
  1
4.236 lb.
 40
0.125
 41
1.8
  0
MTEXT
  5
26A
100
AcDbEntity
  8
0
100
AcDbMText
 62
2
  6
CONTINUOUS
  7
STANDARD
 71
2
 72
1
 10
7.555
 20
-1.9065
 30
0.0
 11
1.0
 21
0.0
 31
0.0
 44
0.9
  1
1,922 kg.
 40
0.125
 41
1.8
  0
MTEXT
  5
26B
100
AcDbEntity
  8
0
100
AcDbMText
 62
2
  6
CONTINUOUS
  7
STANDARD
 71
2
 72
1
 10
1.5275
 20
-2.1565
 30
0.0
 11
1.0
 21
0.0
 31
0.0
 44
0.9
  1
Seal Plate Included (see notes)
 40
0.125
 41
6.2
  0
MTEXT
  5
26C
100
AcDbEntity
  8
0
100
AcDbMText
 62
2
  6
CONTINUOUS
  7
STANDARD
 71
2
 72
1
 10
6.055
 20
-2.1565
 30
0.0
 11
1.0
 21
0.0
 31
0.0
 44
0.9
  1
No
 40
0.125
 41
0.4
  0
ENDBLK
  5
26D
100
AcDbEntity
  8
0
  6
BYBLOCK
 62
0
100
AcDbBlockEnd
  0
BLOCK
  5
26E
100
AcDbEntity
  8
0
100
AcDbBlockBegin
  2
*T3
 70
1
 10
0.0
 20
0.0
  3
*T3
  1

  0
LINE
  5
26F
100
AcDbEntity
  8
0
100
AcDbLine
 62
2
  6
CONTINUOUS
 10
0.0
 20
0.0
 11
4.6
 21
0.0
  0
LINE
  5
270
100
AcDbEntity
  8
0
100
AcDbLine
 62
2
  6
CONTINUOUS
 10
0.0
 20
0.0
 11
0.0
 21
-0.93775
  0
LINE
  5
271
100
AcDbEntity
  8
0
100
AcDbLine
 62
2
  6
CONTINUOUS
 10
0.0
 20
-0.34375
 11
4.6
 21
-0.34375
  0
LINE
  5
272
100
AcDbEntity
  8
0
100
AcDbLine
 62
2
  6
CONTINUOUS
 10
0.0
 20
-0.68775
 11
4.6
 21
-0.68775
  0
LINE
  5
273
100
AcDbEntity
  8
0
100
AcDbLine
 62
2
  6
CONTINUOUS
 10
0.0
 20
-0.93775
 11
4.6
 21
-0.93775
  0
LINE
  5
274
100
AcDbEntity
  8
0
100
AcDbLine
 62
2
  6
CONTINUOUS
 10
1.3
 20
-0.34375
 11
1.3
 21
-0.93775
  0
LINE
  5
275
100
AcDbEntity
  8
0
100
AcDbLine
 62
2
  6
CONTINUOUS
 10
3.3
 20
-0.34375
 11
3.3
 21
-0.93775
  0
LINE
  5
276
100
AcDbEntity
  8
0
100
AcDbLine
 62
2
  6
CONTINUOUS
 10
4.6
 20
0.0
 11
4.6
 21
-0.93775
  0
MTEXT
  5
277
100
AcDbEntity
  8
0
100
AcDbMText
 62
2
  6
CONTINUOUS
  7
STANDARD
 71
2
 72
1
 10
2.3
 20
-0.099375
 30
0.0
 11
1.0
 21
0.0
 31
0.0
 44
0.9
  1
Port Headings
 40
0.145
 41
3.016
  0
MTEXT
  5
278
100
AcDbEntity
  8
0
100
AcDbMText
 62
2
  6
CONTINUOUS
  7
STANDARD
 71
2
 72
1
 10
0.65
 20
-0.44325
 30
0.0
 11
1.0
 21
0.0
 31
0.0
 44
0.9
  1
Product
 40
0.145
 41
1.624
  0
MTEXT
  5
279
100
AcDbEntity
  8
0
100
AcDbMText
 62
2
  6
CONTINUOUS
  7
STANDARD
 71
2
 72
1
 10
2.3
 20
-0.44325
 30
0.0
 11
1.0
 21
0.0
 31
0.0
 44
0.9
  1
Port
 40
0.145
 41
0.928
  0
MTEXT
  5
27A
100
AcDbEntity
  8
0
100
AcDbMText
 62
2
  6
CONTINUOUS
  7
STANDARD
 71
2
 72
1
 10
3.95
 20
-0.44325
 30
0.0
 11
1.0
 21
0.0
 31
0.0
 44
0.9
  1
Size
 40
0.145
 41
0.928
  0
MTEXT
  5
27B
100
AcDbEntity
  8
0
100
AcDbMText
 62
2
  6
CONTINUOUS
  7
STANDARD
 71
2
 72
1
 10
0.65
 20
-0.75025
 30
0.0
 11
1.0
 21
0.0
 31
0.0
 44
0.9
  1
CBF/T
 40
0.125
 41
1.0
  0
MTEXT
  5
27C
100
AcDbEntity
  8
0
100
AcDbMText
 62
2
  6
CONTINUOUS
  7
STANDARD
 71
2
 72
1
 10
2.3
 20
-0.75025
 30
0.0
 11
1.0
 21
0.0
 31
0.0
 44
0.9
  1
Gage Port (Plugged)
 40
0.125
 41
3.8
  0
MTEXT
  5
27D
100
AcDbEntity
  8
0
100
AcDbMText
 62
2
  6
CONTINUOUS
  7
STANDARD
 71
2
 72
1
 10
3.95
 20
-0.75025
 30
0.0
 11
1.0
 21
0.0
 31
0.0
 44
0.9
  1
1/4" BSPP
 40
0.125
 41
1.8
  0
ENDBLK
  5
27E
100
AcDbEntity
  8
0
  6
BYBLOCK
 62
0
100
AcDbBlockEnd
  0
ENDSEC
  0
SECTION
  2
ENTITIES
  0
IMAGE
  5
27F
100
AcDbEntity
  8
0
100
AcDbRasterImage
 62
7
  6
CONTINUOUS
 10
19.2297077316
 20
0.3094318264
 30
0.0
 11
0.0066666667
 21
0.0
 31
0.0
 12
0.0
 22
0.0066666667
 32
0.0
 13
369.0
 23
92.0
340
       3EA
 70
9
280
0
281
50
282
50
283
0
360
       3E4
 71
1
 91
2
 14
-0.5
 24
-0.5
 14
368.5
 24
91.5
  0
INSERT
  5
280
100
AcDbEntity
  8
0
100
AcDbBlockReference
 62
2
  6
CONTINUOUS
  2
SUN_FIRST_THIRD_ANGLE_BL0
 10
20.4816717061
 20
1.2289683772
  0
ACAD_TABLE
  5
281
100
AcDbEntity
  8
0
 62
2
  6
CONTINUOUS
100
AcDbBlockReference
  2
*T1
 10
12.42375
 20
0.30125
 30
0.0
100
AcDbTable
342
       3EC
343
20A
 11
1.0
 21
0.0
 31
0.0
 90
6
 91
4
 92
6
 93
20
 94
0
 95
0
 96
0
 70
1
 41
0.0
141
0.525
141
0.1
141
0.525
141
0.1
142
4.1
142
1.1
142
0.7
142
0.5
142
0.4
142
2.475
171
1
172
0
173
0
174
0
175
1
176
1
 91
33
178
0
145
0.0
301
CELL_VALUE
 90
4
  1
Relief manifold assembly
304
ACVALUE_END
170
2
140
0.125
171
1
172
0
173
0
174
0
175
1
176
1
 91
33
178
0
145
0.0
301
CELL_VALUE
 90
4
  1
Mar-05-24
304
ACVALUE_END
170
5
140
0.125
171
1
172
0
173
0
174
0
175
1
176
1
 91
33
178
0
145
0.0
301
CELL_VALUE
 90
4
  1
1.000
304
ACVALUE_END
170
5
140
0.125
171
1
172
0
173
0
174
0
175
1
176
1
 91
33
178
0
145
0.0
301
CELL_VALUE
 90
4
  1
C
304
ACVALUE_END
170
5
140
0.125
171
1
172
0
173
0
174
0
175
1
176
1
 91
33
178
0
145
0.0
301
CELL_VALUE
 90
4
  1
2
304
ACVALUE_END
170
5
140
0.125
171
1
172
0
173
0
174
0
175
1
176
1
 91
33
178
0
145
0.0
301
CELL_VALUE
 90
4
  1
 
304
ACVALUE_END
170
1
140
0.125
171
1
172
0
173
0
174
0
175
1
176
1
 91
33
178
0
145
0.0
301
CELL_VALUE
 90
4
  1
DESCRIPTION
304
ACVALUE_END
170
1
140
0.06
171
1
172
0
173
0
174
0
175
1
176
1
 91
33
178
0
145
0.0
301
CELL_VALUE
 90
4
  1
DATE
304
ACVALUE_END
170
1
140
0.06
171
1
172
0
173
0
174
0
175
1
176
1
 91
33
178
0
145
0.0
301
CELL_VALUE
 90
4
  1
SCALE
304
ACVALUE_END
170
1
140
0.06
171
1
172
0
173
0
174
0
175
1
176
1
 91
33
178
0
145
0.0
301
CELL_VALUE
 90
4
  1
DWG SIZE
304
ACVALUE_END
170
1
140
0.06
171
1
172
0
173
0
174
0
175
1
176
1
 91
33
178
0
145
0.0
301
CELL_VALUE
 90
4
  1
SHEET
304
ACVALUE_END
170
1
140
0.06
171
1
172
0
173
0
174
0
175
1
176
1
 91
33
178
0
145
0.0
301
CELL_VALUE
 90
4
  1
 
304
ACVALUE_END
170
1
140
0.125
171
1
172
0
173
0
174
0
175
1
176
1
 91
33
178
0
145
0.0
301
CELL_VALUE
 90
4
  1
RPECLAN-CBF/T
304
ACVALUE_END
170
5
140
0.125
171
1
172
0
173
0
174
0
175
4
176
1
 91
33
178
0
145
0.0
301
CELL_VALUE
 90
4
  1
ALL DIMENSIONS IN INCH\PVIEWS ARE THIRD ANGLE
304
ACVALUE_END
170
5
140
0.12
171
1
172
0
173
1
174
0
175
1
176
1
 91
1
178
0
145
0.0
170
1
171
1
172
0
173
1
174
0
175
1
176
1
 91
1
178
0
145
0.0
170
1
171
1
172
0
173
1
174
0
175
1
176
1
 91
1
178
0
145
0.0
170
5
171
1
172
0
173
0
174
0
175
1
176
1
 91
33
178
0
145
0.0
301
CELL_VALUE
 90
4
  1
 
304
ACVALUE_END
170
1
140
0.125
171
1
172
0
173
0
174
0
175
1
176
1
 91
33
178
0
145
0.0
301
CELL_VALUE
 90
4
  1
MODEL
304
ACVALUE_END
170
1
140
0.06
171
1
172
0
173
0
174
0
175
1
176
1
 91
33
178
0
145
0.0
301
CELL_VALUE
 90
4
  1
 
304
ACVALUE_END
170
1
140
0.125
171
1
172
0
173
0
174
0
175
1
176
1
 91
33
178
0
145
0.0
301
CELL_VALUE
 90
4
  1
 
304
ACVALUE_END
170
1
140
0.125
171
1
172
0
173
0
174
0
175
1
176
1
 91
33
178
0
145
0.0
301
CELL_VALUE
 90
4
  1
 
304
ACVALUE_END
170
1
140
0.125
171
1
172
0
173
0
174
0
175
1
176
1
 91
33
178
0
145
0.0
301
CELL_VALUE
 90
4
  1
 
304
ACVALUE_END
170
1
140
0.125
171
1
172
0
173
0
174
0
175
1
176
1
 91
33
178
0
145
0.0
301
CELL_VALUE
 90
4
  1
 
304
ACVALUE_END
170
1
140
0.125
  0
ACAD_TABLE
  5
282
100
AcDbEntity
  8
0
 62
2
  6
CONTINUOUS
100
AcDbBlockReference
  2
*T2
 10
12.4237499994
 20
16.47875
 30
0.0
100
AcDbTable
342
       3EB
343
20B
 11
1.0
 21
0.0
 31
0.0
 90
22
 91
9
 92
3
 93
16
 94
0
 95
0
 96
0
 41
0.028
141
0.344
141
0.25
141
0.25
141
0.25
141
0.25
141
0.25
141
0.25
141
0.25
141
0.25
142
3.055
142
3.0
142
3.0
171
1
172
0
173
0
174
0
175
1
176
1
 91
33
178
0
145
0.0
301
CELL_VALUE
 90
4
  1
Technical Data
304
ACVALUE_END
170
5
140
0.145
171
1
172
0
173
0
174
0
175
1
176
1
 91
33
178
0
145
0.0
301
CELL_VALUE
 90
4
  1
U.S. Units
304
ACVALUE_END
170
5
140
0.145
171
1
172
0
173
0
174
0
175
1
176
1
 91
33
178
0
145
0.0
301
CELL_VALUE
 90
4
  1
Metric Units
304
ACVALUE_END
170
5
140
0.145
171
1
172
0
173
0
174
0
175
1
176
1
 91
33
178
0
145
0.0
301
CELL_VALUE
 90
4
  1
Cavity
304
ACVALUE_END
170
5
140
0.125
171
1
172
0
173
0
174
0
175
2
176
1
 91
33
178
0
145
0.0
301
CELL_VALUE
 90
4
  1
T-10A
304
ACVALUE_END
170
5
140
0.125
171
1
172
0
173
1
174
0
175
1
176
1
 91
1
178
0
145
0.0
170
1
171
1
172
0
173
0
174
0
175
1
176
1
 91
33
178
0
145
0.0
301
CELL_VALUE
 90
4
  1
Body Features
304
ACVALUE_END
170
5
140
0.125
171
1
172
0
173
0
174
0
175
2
176
1
 91
33
178
0
145
0.0
301
CELL_VALUE
 90
4
  1
A to T
304
ACVALUE_END
170
5
140
0.125
171
1
172
0
173
1
174
0
175
1
176
1
 91
1
178
0
145
0.0
170
1
171
1
172
0
173
0
174
0
175
1
176
1
 91
33
178
0
145
0.0
301
CELL_VALUE
 90
4
  1
Body Type
304
ACVALUE_END
170
5
140
0.125
171
1
172
0
173
0
174
0
175
2
176
1
 91
33
178
0
145
0.0
301
CELL_VALUE
 90
4
  1
Sandwich
304
ACVALUE_END
170
5
140
0.125
171
1
172
0
173
1
174
0
175
1
176
1
 91
1
178
0
145
0.0
170
1
171
1
172
0
173
0
174
0
175
1
176
1
 91
33
178
0
145
0.0
301
CELL_VALUE
 90
4
  1
Interface
304
ACVALUE_END
170
5
140
0.125
171
1
172
0
173
0
174
0
175
2
176
1
 91
33
178
0
145
0.0
301
CELL_VALUE
 90
4
  1
ISO 05
304
ACVALUE_END
170
5
140
0.125
171
1
172
0
173
1
174
0
175
1
176
1
 91
1
178
0
145
0.0
170
1
171
1
172
0
173
0
174
0
175
1
176
1
 91
33
178
0
145
0.0
301
CELL_VALUE
 90
4
  1
Open Cavity Quantity
304
ACVALUE_END
170
5
140
0.125
171
1
172
0
173
0
174
0
175
2
176
1
 91
33
178
0
145
0.0
301
CELL_VALUE
 90
4
  1
1
304
ACVALUE_END
170
5
140
0.125
171
1
172
0
173
1
174
0
175
1
176
1
 91
1
178
0
145
0.0
170
1
171
1
172
0
173
0
174
0
175
1
176
1
 91
33
178
0
145
0.0
301
CELL_VALUE
 90
4
  1
Stack Height
304
ACVALUE_END
170
5
140
0.125
171
1
172
0
173
0
174
0
175
1
176
1
 91
33
178
0
145
0.0
301
CELL_VALUE
 90
4
  1
1.94 in.
304
ACVALUE_END
170
5
140
0.125
171
1
172
0
173
0
174
0
175
1
176
1
 91
33
178
0
145
0.0
301
CELL_VALUE
 90
4
  1
49 mm
304
ACVALUE_END
170
5
140
0.125
171
1
172
0
173
0
174
0
175
1
176
1
 91
33
178
0
145
0.0
301
CELL_VALUE
 90
4
  1
Weight
304
ACVALUE_END
170
5
140
0.125
171
1
172
0
173
0
174
0
175
1
176
1
 91
33
178
0
145
0.0
301
CELL_VALUE
 90
4
  1
4.236 lb.
304
ACVALUE_END
170
5
140
0.125
171
1
172
0
173
0
174
0
175
1
176
1
 91
33
178
0
145
0.0
301
CELL_VALUE
 90
4
  1
1,922 kg.
304
ACVALUE_END
170
5
140
0.125
171
1
172
0
173
0
174
0
175
1
176
1
 91
33
178
0
145
0.0
301
CELL_VALUE
 90
4
  1
Seal Plate Included (see notes)
304
ACVALUE_END
170
5
140
0.125
171
1
172
0
173
0
174
0
175
2
176
1
 91
33
178
0
145
0.0
301
CELL_VALUE
 90
4
  1
No
304
ACVALUE_END
170
5
140
0.125
171
1
172
0
173
1
174
0
175
1
176
1
 91
1
178
0
145
0.0
170
1
  0
ACAD_TABLE
  5
283
100
AcDbEntity
  8
0
 62
2
  6
CONTINUOUS
100
AcDbBlockReference
  2
*T3
 10
0.52125
 20
1.459
 30
0.0
100
AcDbTable
342
       3EB
343
20C
 11
1.0
 21
0.0
 31
0.0
 90
22
 91
3
 92
3
 93
16
 94
0
 95
0
 96
0
 41
0.05
141
0.34375
141
0.344
141
0.25
142
1.3
142
2.0
142
1.3
171
1
172
0
173
0
174
0
175
3
176
1
 91
33
178
0
145
0.0
301
CELL_VALUE
 90
4
  1
Port Headings
304
ACVALUE_END
170
5
140
0.145
171
1
172
0
173
1
174
0
175
1
176
1
 91
1
178
0
145
0.0
170
1
171
1
172
0
173
1
174
0
175
1
176
1
 91
1
178
0
145
0.0
170
1
171
1
172
0
173
0
174
0
175
1
176
1
 91
33
178
0
145
0.0
301
CELL_VALUE
 90
4
  1
Product
304
ACVALUE_END
170
5
140
0.145
171
1
172
0
173
0
174
0
175
1
176
1
 91
33
178
0
145
0.0
301
CELL_VALUE
 90
4
  1
Port
304
ACVALUE_END
170
5
140
0.145
171
1
172
0
173
0
174
0
175
1
176
1
 91
33
178
0
145
0.0
301
CELL_VALUE
 90
4
  1
Size
304
ACVALUE_END
170
5
140
0.145
171
1
172
0
173
0
174
0
175
1
176
1
 91
33
178
0
145
0.0
301
CELL_VALUE
 90
4
  1
CBF/T
304
ACVALUE_END
170
5
140
0.125
171
1
172
0
173
0
174
0
175
1
176
1
 91
33
178
0
145
0.0
301
CELL_VALUE
 90
4
  1
Gage Port (Plugged)
304
ACVALUE_END
170
5
140
0.125
171
1
172
0
173
0
174
0
175
1
176
1
 91
33
178
0
145
0.0
301
CELL_VALUE
 90
4
  1
1/4" BSPP
304
ACVALUE_END
170
5
140
0.125
  0
MTEXT
  5
284
100
AcDbEntity
  8
0
100
AcDbMText
 62
2
  6
CONTINUOUS
  7
STANDARD
 71
1
 72
1
 10
0.52125
 20
5.75995
 30
0.0
 11
1.0
 21
0.0
 31
0.0
 44
0.6
  3
Notes\P \P1. Important: Carefully consider\P   the maximum system pressure. The\P   pressure rating of the manifold is\P   dependent on the manifold material,\P   with the port type/size a secondary\P   consideration. Manifolds\P   constructed of alu
  3
minum are not\P   rated for pressures higher than\P   3000 psi (210 bar), regardless of\P   the port type/size specified.\P2. Seal retainer plate is not\P   required for this model.\P3. This drawing is for reference\P   only. It is generated by an\P 
  1
  automated process and does not fall\P   under Sun's document control\P   process.
 40
0.1
 41
3.04
  0
LINE
  5
285
100
AcDbEntity
  8
0
100
AcDbLine
 62
7
  6
CONTINUOUS
 10
0.30125
 20
0.30125
 11
0.30125
 21
16.69875
  0
LINE
  5
286
100
AcDbEntity
  8
0
100
AcDbLine
 62
7
  6
CONTINUOUS
 10
0.30125
 20
0.30125
 11
21.69875
 21
0.30125
  0
LINE
  5
287
100
AcDbEntity
  8
0
100
AcDbLine
 62
7
  6
CONTINUOUS
 10
0.30125
 20
16.69875
 11
21.69875
 21
16.69875
  0
LINE
  5
288
100
AcDbEntity
  8
0
100
AcDbLine
 62
7
  6
CONTINUOUS
 10
21.69875
 20
0.30125
 11
21.69875
 21
16.69875
  0
LINE
  5
289
100
AcDbEntity
  8
0
100
AcDbLine
 62
7
  6
CONTINUOUS
 10
9.5417972026
 20
5.6886711848
 11
11.9566119114
 21
5.5212032159
  0
LINE
  5
28A
100
AcDbEntity
  8
0
100
AcDbLine
 62
7
  6
CONTINUOUS
 10
10.7623821976
 20
11.4216034296
 11
10.762840868
 21
11.4220382304
  0
LINE
  5
28B
100
AcDbEntity
  8
0
100
AcDbLine
 62
7
  6
CONTINUOUS
 10
10.7927179838
 20
11.4498377725
 11
10.762840868
 21
11.4220382304
  0
LINE
  5
28C
100
AcDbEntity
  8
0
100
AcDbLine
 62
7
  6
CONTINUOUS
 10
11.0367051486
 20
11.4325227707
 11
11.0389124822
 21
11.4352480057
  0
LINE
  5
28D
100
AcDbEntity
  8
0
100
AcDbLine
 62
7
  6
CONTINUOUS
 10
10.6994096858
 20
10.9664996186
 11
10.7008970675
 21
10.9680185691
  0
LINE
  5
28E
100
AcDbEntity
  8
0
100
AcDbLine
 62
7
  6
CONTINUOUS
 10
10.6732831222
 20
10.8731190705
 11
10.6288963291
 21
10.8318124999
  0
LINE
  5
28F
100
AcDbEntity
  8
0
100
AcDbLine
 62
7
  6
CONTINUOUS
 10
10.6284419492
 20
10.6724948439
 11
10.5802702937
 21
10.6276660615
  0
LINE
  5
290
100
AcDbEntity
  8
0
100
AcDbLine
 62
7
  6
CONTINUOUS
 10
9.7038486916
 20
9.4343667132
 11
10.0030432609
 21
9.7233664918
  0
LINE
  5
291
100
AcDbEntity
  8
0
100
AcDbLine
 62
7
  6
CONTINUOUS
 10
9.733792394
 20
9.4622338127
 11
10.0329869633
 21
9.7512335914
  0
LINE
  5
292
100
AcDbEntity
  8
0
100
AcDbLine
 62
7
  6
CONTINUOUS
 10
11.201202933
 20
10.8669520444
 11
11.2018784747
 21
10.8675924304
  0
LINE
  5
293
100
AcDbEntity
  8
0
100
AcDbLine
 62
7
  6
CONTINUOUS
 10
10.0030432609
 20
9.7233664918
 11
10.003978051
 21
9.7242526348
  0
LINE
  5
294
100
AcDbEntity
  8
0
100
AcDbLine
 62
7
  6
CONTINUOUS
 10
10.0329869633
 20
9.7512335914
 11
10.0338455078
 21
9.7520473087
  0
LINE
  5
295
100
AcDbEntity
  8
0
100
AcDbLine
 62
7
  6
CONTINUOUS
 10
11.1327888482
 20
10.9375528268
 11
11.1332977369
 21
10.9380314808
  0
LINE
  5
296
100
AcDbEntity
  8
0
100
AcDbLine
 62
7
  6
CONTINUOUS
 10
10.0329795417
 20
9.7512415664
 11
10.0030432609
 21
9.7233664918
  0
LINE
  5
297
100
AcDbEntity
  8
0
100
AcDbLine
 62
7
  6
CONTINUOUS
 10
9.733792394
 20
9.4622338127
 11
9.7038486916
 21
9.4343667132
  0
LINE
  5
298
100
AcDbEntity
  8
0
100
AcDbLine
 62
7
  6
CONTINUOUS
 10
10.5592262225
 20
10.2187478974
 11
10.5416685962
 21
10.2100747662
  0
LINE
  5
299
100
AcDbEntity
  8
0
100
AcDbLine
 62
7
  6
CONTINUOUS
 10
9.5417972026
 20
5.6886711848
 11
9.5417972026
 21
8.5864488929
  0
LINE
  5
29A
100
AcDbEntity
  8
0
100
AcDbLine
 62
7
  6
CONTINUOUS
 10
9.691070898
 20
8.6548584254
 11
9.691070898
 21
9.4092465178
  0
LINE
  5
29B
100
AcDbEntity
  8
0
100
AcDbLine
 62
7
  6
CONTINUOUS
 10
9.9770372199
 20
9.3531902861
 11
9.9690138362
 21
9.3154965896
  0
LINE
  5
29C
100
AcDbEntity
  8
0
100
AcDbLine
 62
7
  6
CONTINUOUS
 10
9.9690138362
 20
9.3154965896
 11
9.9690138362
 21
8.5611084972
  0
LINE
  5
29D
100
AcDbEntity
  8
0
100
AcDbLine
 62
7
  6
CONTINUOUS
 10
9.691070898
 20
8.7306362191
 11
9.5417972026
 21
8.5864488929
  0
LINE
  5
29E
100
AcDbEntity
  8
0
100
AcDbLine
 62
7
  6
CONTINUOUS
 10
10.4609771859
 20
9.7491550034
 11
10.4609771859
 21
10.1089008985
  0
LINE
  5
29F
100
AcDbEntity
  8
0
100
AcDbLine
 62
7
  6
CONTINUOUS
 10
10.4763064223
 20
10.0940940185
 11
10.4763064223
 21
9.7343481234
  0
LINE
  5
2A0
100
AcDbEntity
  8
0
100
AcDbLine
 62
7
  6
CONTINUOUS
 10
10.5126125602
 20
9.5206189548
 11
10.5126125602
 21
9.5547000907
  0
LINE
  5
2A1
100
AcDbEntity
  8
0
100
AcDbLine
 62
7
  6
CONTINUOUS
 10
10.5126125602
 20
9.5740186084
 11
10.5126125602
 21
9.6999441003
  0
LINE
  5
2A2
100
AcDbEntity
  8
0
100
AcDbLine
 62
7
  6
CONTINUOUS
 10
10.5666125602
 20
10.1670971009
 11
10.5666125602
 21
10.506137086
  0
LINE
  5
2A3
100
AcDbEntity
  8
0
100
AcDbLine
 62
7
  6
CONTINUOUS
 10
10.5666125602
 20
10.5525015284
 11
10.5666125602
 21
10.6017637485
  0
LINE
  5
2A4
100
AcDbEntity
  8
0
100
AcDbLine
 62
7
  6
CONTINUOUS
 10
11.3519802147
 20
9.6853965617
 11
11.3626187827
 21
9.6952968661
  0
LINE
  5
2A5
100
AcDbEntity
  8
0
100
AcDbLine
 62
7
  6
CONTINUOUS
 10
11.3487323211
 20
9.541499857
 11
11.3530458754
 21
9.5453815857
  0
LINE
  5
2A6
100
AcDbEntity
  8
0
100
AcDbLine
 62
7
  6
CONTINUOUS
 10
11.3397976923
 20
9.533979235
 11
11.3427311366
 21
9.5364484284
  0
LINE
  5
2A7
100
AcDbEntity
  8
0
100
AcDbLine
 62
7
  6
CONTINUOUS
 10
10.6266977665
 20
10.8297524699
 11
10.6266977665
 21
10.7315586292
  0
LINE
  5
2A8
100
AcDbEntity
  8
0
100
AcDbLine
 62
7
  6
CONTINUOUS
 10
10.6691125602
 20
10.6500600427
 11
10.6691125602
 21
10.6668588529
  0
LINE
  5
2A9
100
AcDbEntity
  8
0
100
AcDbLine
 62
7
  6
CONTINUOUS
 10
10.6691125602
 20
10.8857459582
 11
10.6691125602
 21
10.8915415135
  0
LINE
  5
2AA
100
AcDbEntity
  8
0
100
AcDbLine
 62
7
  6
CONTINUOUS
 10
10.6746125602
 20
10.8649785517
 11
10.6746125602
 21
10.8725511146
  0
LINE
  5
2AB
100
AcDbEntity
  8
0
100
AcDbLine
 62
7
  6
CONTINUOUS
 10
10.7106770717
 20
10.7486348288
 11
10.7106770717
 21
10.6504409881
  0
LINE
  5
2AC
100
AcDbEntity
  8
0
100
AcDbLine
 62
7
  6
CONTINUOUS
 10
10.7561125602
 20
11.4092777871
 11
10.7561125602
 21
11.2170585363
  0
LINE
  5
2AD
100
AcDbEntity
  8
0
100
AcDbLine
 62
7
  6
CONTINUOUS
 10
10.7561125602
 20
11.1803533527
 11
10.7561125602
 21
10.9359741042
  0
LINE
  5
2AE
100
AcDbEntity
  8
0
100
AcDbLine
 62
7
  6
CONTINUOUS
 10
10.7851777259
 20
9.6544064488
 11
10.7851777259
 21
10.0141523439
  0
LINE
  5
2AF
100
AcDbEntity
  8
0
100
AcDbLine
 62
7
  6
CONTINUOUS
 10
10.8423871713
 20
10.0101848554
 11
10.8423871713
 21
9.6504389603
  0
LINE
  5
2B0
100
AcDbEntity
  8
0
100
AcDbLine
 62
7
  6
CONTINUOUS
 10
10.8898784335
 20
11.4228778226
 11
10.8898784335
 21
11.4168432165
  0
LINE
  5
2B1
100
AcDbEntity
  8
0
100
AcDbLine
 62
7
  6
CONTINUOUS
 10
10.9162038612
 20
11.4141650843
 11
10.9162038612
 21
11.4495603505
  0
LINE
  5
2B2
100
AcDbEntity
  8
0
100
AcDbLine
 62
7
  6
CONTINUOUS
 10
10.9521650743
 20
11.4137498026
 11
10.9521650743
 21
11.4271974235
  0
LINE
  5
2B3
100
AcDbEntity
  8
0
100
AcDbLine
 62
7
  6
CONTINUOUS
 10
10.9694710592
 20
11.4259972493
 11
10.9694710592
 21
11.4146104088
  0
LINE
  5
2B4
100
AcDbEntity
  8
0
100
AcDbLine
 62
7
  6
CONTINUOUS
 10
11.0054322722
 20
11.4198422313
 11
11.0054322722
 21
11.4433723392
  0
LINE
  5
2B5
100
AcDbEntity
  8
0
100
AcDbLine
 62
7
  6
CONTINUOUS
 10
11.0240918654
 20
10.726899439
 11
11.0240918654
 21
10.6287055983
  0
LINE
  5
2B6
100
AcDbEntity
  8
0
100
AcDbLine
 62
7
  6
CONTINUOUS
 10
9.5417972026
 20
8.5864488929
 11
11.9566119114
 21
8.4189809241
  0
LINE
  5
2B7
100
AcDbEntity
  8
0
100
AcDbLine
 62
7
  6
CONTINUOUS
 10
11.5386433969
 20
8.4522543174
 11
9.9690138362
 21
8.5611084972
  0
LINE
  5
2B8
100
AcDbEntity
  8
0
100
AcDbLine
 62
7
  6
CONTINUOUS
 10
11.1241125602
 20
11.4092777871
 11
11.1241125602
 21
11.2170585363
  0
LINE
  5
2B9
100
AcDbEntity
  8
0
100
AcDbLine
 62
7
  6
CONTINUOUS
 10
11.1241125602
 20
11.1803533527
 11
11.1241125602
 21
10.9359741042
  0
LINE
  5
2BA
100
AcDbEntity
  8
0
100
AcDbLine
 62
7
  6
CONTINUOUS
 10
11.2056125602
 20
10.8649785517
 11
11.2056125602
 21
10.8734461499
  0
LINE
  5
2BB
100
AcDbEntity
  8
0
100
AcDbLine
 62
7
  6
CONTINUOUS
 10
11.2111125602
 20
10.6500600427
 11
11.2111125602
 21
10.6630566256
  0
LINE
  5
2BC
100
AcDbEntity
  8
0
100
AcDbLine
 62
7
  6
CONTINUOUS
 10
11.2111125602
 20
10.8857459582
 11
11.2111125602
 21
10.8915415135
  0
LINE
  5
2BD
100
AcDbEntity
  8
0
100
AcDbLine
 62
7
  6
CONTINUOUS
 10
12.2671735318
 20
9.5962922266
 11
11.9679789626
 21
9.307292448
  0
LINE
  5
2BE
100
AcDbEntity
  8
0
100
AcDbLine
 62
7
  6
CONTINUOUS
 10
12.2971172342
 20
9.5642719214
 11
11.997922665
 21
9.2752721428
  0
LINE
  5
2BF
100
AcDbEntity
  8
0
100
AcDbLine
 62
7
  6
CONTINUOUS
 10
11.2535273539
 20
10.7862816903
 11
11.2535273539
 21
10.6880878496
  0
LINE
  5
2C0
100
AcDbEntity
  8
0
100
AcDbLine
 62
7
  6
CONTINUOUS
 10
11.2643131003
 20
9.6796996747
 11
11.2643131003
 21
10.0394455697
  0
LINE
  5
2C1
100
AcDbEntity
  8
0
100
AcDbLine
 62
7
  6
CONTINUOUS
 10
11.3061933092
 20
10.0502849613
 11
11.3061933092
 21
9.6905390662
  0
LINE
  5
2C2
100
AcDbEntity
  8
0
100
AcDbLine
 62
7
  6
CONTINUOUS
 10
11.3136125602
 20
10.1670971009
 11
11.3136125602
 21
10.506137086
  0
LINE
  5
2C3
100
AcDbEntity
  8
0
100
AcDbLine
 62
7
  6
CONTINUOUS
 10
11.3136125602
 20
10.5525015284
 11
11.3136125602
 21
10.6017637485
  0
LINE
  5
2C4
100
AcDbEntity
  8
0
100
AcDbLine
 62
7
  6
CONTINUOUS
 10
11.3676125602
 20
9.5206747476
 11
11.3676125602
 21
9.5547000907
  0
LINE
  5
2C5
100
AcDbEntity
  8
0
100
AcDbLine
 62
7
  6
CONTINUOUS
 10
11.3676125602
 20
9.5740186084
 11
11.3676125602
 21
9.7008109753
  0
LINE
  5
2C6
100
AcDbEntity
  8
0
100
AcDbLine
 62
7
  6
CONTINUOUS
 10
11.4192479346
 20
9.799741455
 11
11.4192479346
 21
10.1594873501
  0
LINE
  5
2C7
100
AcDbEntity
  8
0
100
AcDbLine
 62
7
  6
CONTINUOUS
 10
11.5466667807
 20
9.2443361063
 11
11.5386433969
 21
9.2066424099
  0
LINE
  5
2C8
100
AcDbEntity
  8
0
100
AcDbLine
 62
7
  6
CONTINUOUS
 10
11.5386433969
 20
9.2066424099
 11
11.5386433969
 21
8.4522543174
  0
LINE
  5
2C9
100
AcDbEntity
  8
0
100
AcDbLine
 62
7
  6
CONTINUOUS
 10
12.2971172342
 20
8.8098838289
 11
11.997922665
 21
8.5208840503
  0
LINE
  5
2CA
100
AcDbEntity
  8
0
100
AcDbLine
 62
7
  6
CONTINUOUS
 10
12.4582027974
 20
8.9034805439
 11
12.3098950279
 21
8.9137657226
  0
LINE
  5
2CB
100
AcDbEntity
  8
0
100
AcDbLine
 62
7
  6
CONTINUOUS
 10
10.5404274282
 20
9.533979235
 11
10.5404573456
 21
9.5339540633
  0
LINE
  5
2CC
100
AcDbEntity
  8
0
100
AcDbLine
 62
7
  6
CONTINUOUS
 10
10.5282449057
 20
9.6853965617
 11
10.4689937695
 21
9.7405359641
  0
LINE
  5
2CD
100
AcDbEntity
  8
0
100
AcDbLine
 62
7
  6
CONTINUOUS
 10
11.9566119114
 20
8.4189809241
 11
12.4582027974
 21
8.9034805439
  0
LINE
  5
2CE
100
AcDbEntity
  8
0
100
AcDbLine
 62
7
  6
CONTINUOUS
 10
11.5386433969
 20
9.2066424099
 11
9.9690138362
 21
9.3154965896
  0
LINE
  5
2CF
100
AcDbEntity
  8
0
100
AcDbLine
 62
7
  6
CONTINUOUS
 10
11.5466667807
 20
9.2443361063
 11
9.9770372199
 21
9.3531902861
  0
LINE
  5
2D0
100
AcDbEntity
  8
0
100
AcDbLine
 62
7
  6
CONTINUOUS
 10
11.9566119114
 20
5.5212032159
 11
11.9566119114
 21
8.4189809241
  0
LINE
  5
2D1
100
AcDbEntity
  8
0
100
AcDbLine
 62
7
  6
CONTINUOUS
 10
11.997922665
 20
9.2752721428
 11
11.997922665
 21
8.5208840503
  0
LINE
  5
2D2
100
AcDbEntity
  8
0
100
AcDbLine
 62
7
  6
CONTINUOUS
 10
10.2218410588
 20
7.1653557512
 11
10.2315606215
 21
7.1694165839
  0
LINE
  5
2D3
100
AcDbEntity
  8
0
100
AcDbLine
 62
7
  6
CONTINUOUS
 10
12.2971172342
 20
9.5642719214
 11
12.2971172342
 21
8.8098838289
  0
LINE
  5
2D4
100
AcDbEntity
  8
0
100
AcDbLine
 62
7
  6
CONTINUOUS
 10
12.3098950279
 20
8.8350040242
 11
12.3098950279
 21
9.5893921167
  0
LINE
  5
2D5
100
AcDbEntity
  8
0
100
AcDbLine
 62
7
  6
CONTINUOUS
 10
10.4542991452
 20
9.814189933
 11
10.4609771859
 21
9.8137268093
  0
LINE
  5
2D6
100
AcDbEntity
  8
0
100
AcDbLine
 62
7
  6
CONTINUOUS
 10
11.3972580982
 20
9.7487955075
 11
12.023928706
 21
9.7053357532
  0
LINE
  5
2D7
100
AcDbEntity
  8
0
100
AcDbLine
 62
7
  6
CONTINUOUS
 10
11.9679789626
 20
9.307292448
 11
11.997922665
 21
9.2752721428
  0
LINE
  5
2D8
100
AcDbEntity
  8
0
100
AcDbLine
 62
7
  6
CONTINUOUS
 10
12.4582027974
 20
6.0057028357
 11
12.4582027974
 21
8.9034805439
  0
LINE
  5
2D9
100
AcDbEntity
  8
0
100
AcDbLine
 62
7
  6
CONTINUOUS
 10
11.320998898
 20
10.2187478974
 11
11.3466319969
 21
10.2060856374
  0
LINE
  5
2DA
100
AcDbEntity
  8
0
100
AcDbLine
 62
7
  6
CONTINUOUS
 10
10.7000655892
 20
10.6474517314
 11
10.6846820497
 21
10.6550509054
  0
LINE
  5
2DB
100
AcDbEntity
  8
0
100
AcDbLine
 62
7
  6
CONTINUOUS
 10
12.2961824441
 20
9.615398455
 11
12.2663160177
 21
9.6431923001
  0
LINE
  5
2DC
100
AcDbEntity
  8
0
100
AcDbLine
 62
7
  6
CONTINUOUS
 10
11.2517831713
 20
10.6724948439
 11
11.2999548268
 21
10.6276660615
  0
LINE
  5
2DD
100
AcDbEntity
  8
0
100
AcDbLine
 62
7
  6
CONTINUOUS
 10
12.2671735318
 20
9.5962922266
 11
12.2971172342
 21
9.5642719214
  0
LINE
  5
2DE
100
AcDbEntity
  8
0
100
AcDbLine
 62
7
  6
CONTINUOUS
 10
11.2069846532
 20
10.8730793756
 11
11.2116603331
 21
10.8687281646
  0
LINE
  5
2DF
100
AcDbEntity
  8
0
100
AcDbLine
 62
7
  6
CONTINUOUS
 10
11.087517826
 20
11.4498320755
 11
11.1173842524
 21
11.4220382304
  0
LINE
  5
2E0
100
AcDbEntity
  8
0
100
AcDbLine
 62
7
  6
CONTINUOUS
 10
11.9566119114
 20
5.5212032159
 11
12.4582027974
 21
6.0057028357
  0
ARC
  5
2E1
100
AcDbEntity
  8
0
100
AcDbCircle
 62
7
  6
CONTINUOUS
 10
10.9349750441
 20
11.7649640716
 40
1.7572201376
100
AcDbArc
 50
266.0376720962
 51
266.9796885984
  0
ARC
  5
2E2
100
AcDbEntity
  8
0
100
AcDbCircle
 62
7
  6
CONTINUOUS
 10
10.9342667871
 20
11.3936094143
 40
1.7455901854
100
AcDbArc
 50
266.0345339438
 51
266.9828267508
  0
ARC
  5
2E3
100
AcDbEntity
  8
0
100
AcDbCircle
 62
7
  6
CONTINUOUS
 10
10.9297912444
 20
11.6889214435
 40
1.6810010728
100
AcDbArc
 50
265.064846266
 51
266.0348369886
  0
ARC
  5
2E4
100
AcDbEntity
  8
0
100
AcDbCircle
 62
7
  6
CONTINUOUS
 10
10.9286935689
 20
11.3150714087
 40
1.6668547945
100
AcDbArc
 50
265.0607301034
 51
266.0389531512
  0
ARC
  5
2E5
100
AcDbEntity
  8
0
100
AcDbCircle
 62
7
  6
CONTINUOUS
 10
10.9328353172
 20
10.9169005882
 40
1.4591478523
100
AcDbArc
 50
265.9141232122
 51
266.0329259868
  0
ARC
  5
2E6
100
AcDbEntity
  8
0
100
AcDbCircle
 62
7
  6
CONTINUOUS
 10
10.9085551611
 20
11.2160643488
 40
0.6306861323
100
AcDbArc
 50
302.2808830424
 51
303.1600189139
  0
ARC
  5
2E7
100
AcDbEntity
  8
0
100
AcDbCircle
 62
7
  6
CONTINUOUS
 10
11.1759519887
 20
11.5098687482
 40
0.3341124964
100
AcDbArc
 50
193.3620145084
 51
194.3635179688
  0
ARC
  5
2E8
100
AcDbEntity
  8
0
100
AcDbCircle
 62
7
  6
CONTINUOUS
 10
10.9416376481
 20
11.1500241071
 40
0.2773731675
100
AcDbArc
 50
84.2408793892
 51
87.8248725318
  0
ARC
  5
2E9
100
AcDbEntity
  8
0
100
AcDbCircle
 62
7
  6
CONTINUOUS
 10
11.2103034323
 20
9.9943373689
 40
0.2502265402
100
AcDbArc
 50
63.7428774911
 51
65.4648298874
  0
ARC
  5
2EA
100
AcDbEntity
  8
0
100
AcDbCircle
 62
7
  6
CONTINUOUS
 10
10.6674511047
 20
9.9995430307
 40
0.244464974
100
AcDbArc
 50
114.5134895605
 51
116.280158328
  0
ARC
  5
2EB
100
AcDbEntity
  8
0
100
AcDbCircle
 62
7
  6
CONTINUOUS
 10
10.8828528373
 20
7.6357522729
 40
0.2039157443
100
AcDbArc
 50
271.8607101226
 51
278.4952398681
  0
ARC
  5
2EC
100
AcDbEntity
  8
0
100
AcDbCircle
 62
7
  6
CONTINUOUS
 10
10.105460645
 20
7.3368560208
 40
0.1960981126
100
AcDbArc
 50
212.5105979792
 51
243.7912122242
  0
ARC
  5
2ED
100
AcDbEntity
  8
0
100
AcDbCircle
 62
7
  6
CONTINUOUS
 10
11.271103959
 20
9.6355736682
 40
0.1219912769
100
AcDbArc
 50
304.4086047634
 51
306.9592256088
  0
ARC
  5
2EE
100
AcDbEntity
  8
0
100
AcDbCircle
 62
7
  6
CONTINUOUS
 10
11.0408385136
 20
11.2653219081
 40
0.1133674669
100
AcDbArc
 50
294.7011438536
 51
295.7923472329
  0
ARC
  5
2EF
100
AcDbEntity
  8
0
100
AcDbCircle
 62
7
  6
CONTINUOUS
 10
10.6516308153
 20
10.6012863025
 40
0.1048346314
100
AcDbArc
 50
233.0371538371
 51
234.3705798257
  0
ARC
  5
2F0
100
AcDbEntity
  8
0
100
AcDbCircle
 62
7
  6
CONTINUOUS
 10
11.2820900655
 20
9.6208844767
 40
0.1036483342
100
AcDbArc
 50
306.9886493633
 51
310.0126248412
  0
ARC
  5
2F1
100
AcDbEntity
  8
0
100
AcDbCircle
 62
7
  6
CONTINUOUS
 10
11.2839918214
 20
9.6003305545
 40
0.0866988214
100
AcDbArc
 50
310.0656525353
 51
312.5827772523
  0
ARC
  5
2F2
100
AcDbEntity
  8
0
100
AcDbCircle
 62
7
  6
CONTINUOUS
 10
10.5922462924
 20
9.5930119454
 40
0.0807145594
100
AcDbArc
 50
226.0305747535
 51
228.5007158439
  0
ARC
  5
2F3
100
AcDbEntity
  8
0
100
AcDbCircle
 62
7
  6
CONTINUOUS
 10
11.2891844049
 20
9.5917141601
 40
0.0789435358
100
AcDbArc
 50
311.4679172754
 51
313.9936804756
  0
ARC
  5
2F4
100
AcDbEntity
  8
0
100
AcDbCircle
 62
7
  6
CONTINUOUS
 10
10.7295780473
 20
10.9295636615
 40
0.0761062547
100
AcDbArc
 50
232.7340387723
 51
235.4790864686
  0
ARC
  5
2F5
100
AcDbEntity
  8
0
100
AcDbCircle
 62
7
  6
CONTINUOUS
 10
11.2514620215
 20
10.5786995625
 40
0.0711756653
100
AcDbArc
 50
311.8803669322
 51
313.9788360221
  0
ARC
  5
2F6
100
AcDbEntity
  8
0
100
AcDbCircle
 62
7
  6
CONTINUOUS
 10
11.2948471622
 20
9.5858714529
 40
0.0708069656
100
AcDbArc
 50
313.9810098171
 51
316.167296057
  0
ARC
  5
2F7
100
AcDbEntity
  8
0
100
AcDbCircle
 62
7
  6
CONTINUOUS
 10
11.2523101411
 20
10.5731343958
 40
0.0679873868
100
AcDbArc
 50
313.9904325931
 51
316.9619485353
  0
ARC
  5
2F8
100
AcDbEntity
  8
0
100
AcDbCircle
 62
7
  6
CONTINUOUS
 10
10.6713525153
 20
10.7802423706
 40
0.0666730569
100
AcDbArc
 50
129.3027729831
 51
132.0483152829
  0
ARC
  5
2F9
100
AcDbEntity
  8
0
100
AcDbCircle
 62
7
  6
CONTINUOUS
 10
10.723862364
 20
10.921947097
 40
0.0665838325
100
AcDbArc
 50
231.193312289
 51
232.6796392964
  0
ARC
  5
2FA
100
AcDbEntity
  8
0
100
AcDbCircle
 62
7
  6
CONTINUOUS
 10
10.7205314037
 20
10.9177882064
 40
0.0612554609
100
AcDbArc
 50
229.5978079167
 51
231.1833462093
  0
ARC
  5
2FB
100
AcDbEntity
  8
0
100
AcDbCircle
 62
7
  6
CONTINUOUS
 10
11.1619517314
 20
10.9151395665
 40
0.0577748292
100
AcDbArc
 50
310.1002504489
 51
310.9140659849
  0
ARC
  5
2FC
100
AcDbEntity
  8
0
100
AcDbCircle
 62
7
  6
CONTINUOUS
 10
11.3069425894
 20
9.5750854715
 40
0.0545930271
100
AcDbArc
 50
321.3190376515
 51
322.0783491358
  0
ARC
  5
2FD
100
AcDbEntity
  8
0
100
AcDbCircle
 62
7
  6
CONTINUOUS
 10
10.5732652317
 20
9.5750775095
 40
0.0545749879
100
AcDbArc
 50
217.9258634099
 51
218.6854864673
  0
ARC
  5
2FE
100
AcDbEntity
  8
0
100
AcDbCircle
 62
7
  6
CONTINUOUS
 10
11.1642517053
 20
10.912503634
 40
0.054276562
100
AcDbArc
 50
310.9016814591
 51
312.3738641816
  0
ARC
  5
2FF
100
AcDbEntity
  8
0
100
AcDbCircle
 62
7
  6
CONTINUOUS
 10
11.2626204554
 20
10.4948500912
 40
0.0540719636
100
AcDbArc
 50
38.7225016002
 51
39.2121554641
  0
ARC
  5
300
100
AcDbEntity
  8
0
100
AcDbCircle
 62
7
  6
CONTINUOUS
 10
11.1670416434
 20
10.9094607534
 40
0.050148274
100
AcDbArc
 50
312.3620891128
 51
314.0014500849
  0
ARC
  5
301
100
AcDbEntity
  8
0
100
AcDbCircle
 62
7
  6
CONTINUOUS
 10
10.7125785079
 20
10.9030164981
 40
0.0492605467
100
AcDbArc
 50
225.5317723323
 51
227.0639943409
  0
ARC
  5
302
100
AcDbEntity
  8
0
100
AcDbCircle
 62
7
  6
CONTINUOUS
 10
11.2697219227
 20
10.5048243425
 40
0.040295556
100
AcDbArc
 50
32.592823208
 51
33.5832626544
  0
ARC
  5
303
100
AcDbEntity
  8
0
100
AcDbCircle
 62
7
  6
CONTINUOUS
 10
10.7896673656
 20
11.1984686964
 40
0.0284898437
100
AcDbArc
 50
191.8728124624
 51
195.2729413033
  0
ARC
  5
304
100
AcDbEntity
  8
0
100
AcDbCircle
 62
7
  6
CONTINUOUS
 10
10.877332164
 20
11.4443426106
 40
0.0247440318
100
AcDbArc
 50
264.3196585715
 51
269.7161435268
  0
SPLINE
  5
305
100
AcDbEntity
  8
0
100
AcDbSpline
 62
7
  6
CONTINUOUS
 70
0
 71
3
 72
56
 73
52
 74
0
 42
0.0000001
 43
0.0000001
 44
0.0000000001
 40
0.0
 40
0.0
 40
0.0
 40
0.0
 40
0.0310723444
 40
0.0465152282
 40
0.0618873079
 40
0.0924244521
 40
0.1227285817
 40
0.1378086463
 40
0.1528438045
 40
0.1678401149
 40
0.1828038444
 40
0.2126503405
 40
0.227557511
 40
0.2424602055
 40
0.2573657799
 40
0.272281562
 40
0.2872148089
 40
0.3021724291
 40
0.3171611937
 40
0.3321875071
 40
0.3472571476
 40
0.362375664
 40
0.3927682619
 40
0.4234071812
 40
0.4388308394
 40
0.454323239
 40
0.4855077933
 40
0.5169699546
 40
0.532806559
 40
0.5487076994
 40
0.5806824153
 40
0.6128739824
 40
0.6290441709
 40
0.6452543843
 40
0.6777639093
 40
0.7103643307
 40
0.7266873141
 40
0.7430142241
 40
0.7756456098
 40
0.7919458916
 40
0.8082247496
 40
0.8244760379
 40
0.8406940714
 40
0.8568734332
 40
0.8730088968
 40
0.8890954876
 40
0.905128265
 40
0.9370074719
 40
0.9528594107
 40
0.9686481654
 40
1.0
 40
1.0
 40
1.0
 40
1.0
 10
9.873096203
 20
7.1207628275
 30
0.0
 10
9.8730963377
 20
7.1287764575
 30
0.0
 10
9.8736844534
 20
7.1407841969
 30
0.0
 10
9.8756539286
 20
7.1566279785
 30
0.0
 10
9.8783927261
 20
7.1722181288
 30
0.0
 10
9.8832540501
 20
7.1912999255
 30
0.0
 10
9.89001517
 20
7.2097153332
 30
0.0
 10
9.8965069241
 20
7.2238874548
 30
0.0
 10
9.9018983203
 20
7.2342033142
 30
0.0
 10
9.907805141
 20
7.2441983418
 30
0.0
 10
9.9163402377
 20
7.2570522461
 30
0.0
 10
9.9258649159
 20
7.2691985769
 30
0.0
 10
9.9362907402
 20
7.2805203224
 30
0.0
 10
9.9445439674
 20
7.2885830846
 30
0.0
 10
9.9532123122
 20
7.2962004611
 30
0.0
 10
9.9622769645
 20
7.3033545972
 30
0.0
 10
9.9717171236
 20
7.3100285567
 30
0.0
 10
9.9815106211
 20
7.3162076299
 30
0.0
 10
9.9916357222
 20
7.3218761957
 30
0.0
 10
10.0020690559
 20
7.3270205449
 30
0.0
 10
10.0127865482
 20
7.3316291966
 30
0.0
 10
10.0274456663
 20
7.3370513596
 30
0.0
 10
10.0463722639
 20
7.342430319
 30
0.0
 10
10.0658241909
 20
7.3458689183
 30
0.0
 10
10.0816259561
 20
7.3474523009
 30
0.0
 10
10.0976277138
 20
7.3482522946
 30
0.0
 10
10.1178086491
 20
7.3477591875
 30
0.0
 10
10.1379321388
 20
7.3452887054
 30
0.0
 10
10.1539307662
 20
7.3421438022
 30
0.0
 10
10.1698890346
 20
7.3382052731
 30
0.0
 10
10.1895648384
 20
7.3318318398
 30
0.0
 10
10.208618898
 20
7.3236135253
 30
0.0
 10
10.2234201809
 20
7.3159698679
 30
0.0
 10
10.2379227423
 20
7.3076080429
 30
0.0
 10
10.2553512122
 20
7.2958854332
 30
0.0
 10
10.2716554732
 20
7.2825982999
 30
0.0
 10
10.2839473677
 20
7.2710972591
 30
0.0
 10
10.2957065127
 20
7.2590417741
 30
0.0
 10
10.3066263862
 20
7.2461981252
 30
0.0
 10
10.3166180155
 20
7.2326644937
 30
0.0
 10
10.3236297867
 20
7.2221979264
 30
0.0
 10
10.3301423707
 20
7.2114388359
 30
0.0
 10
10.3361402503
 20
7.2004136502
 30
0.0
 10
10.3416100204
 20
7.1891503144
 30
0.0
 10
10.3465373379
 20
7.177676278
 30
0.0
 10
10.3509109916
 20
7.1660199269
 30
0.0
 10
10.3559816352
 20
7.1503079973
 30
0.0
 10
10.3599219678
 20
7.1343119042
 30
0.0
 10
10.3626913166
 20
7.1181603507
 30
0.0
 10
10.364663724
 20
7.1020300939
 30
0.0
 10
10.3652648945
 20
7.0898620215
 30
0.0
 10
10.3652650419
 20
7.0817763103
 30
0.0
  0
SPLINE
  5
306
100
AcDbEntity
  8
0
100
AcDbSpline
 62
7
  6
CONTINUOUS
 70
0
 71
3
 72
56
 73
52
 74
0
 42
0.0000001
 43
0.0000001
 44
0.0000000001
 40
0.0
 40
0.0
 40
0.0
 40
0.0
 40
0.031072346
 40
0.0465152317
 40
0.0618873124
 40
0.0924244558
 40
0.1227285839
 40
0.1378086476
 40
0.152843805
 40
0.1678401144
 40
0.1828038429
 40
0.2126503375
 40
0.2275575076
 40
0.2424602021
 40
0.2573657768
 40
0.2722815596
 40
0.2872148075
 40
0.3021724288
 40
0.3171611944
 40
0.3321875086
 40
0.3472571497
 40
0.3623756664
 40
0.3927682644
 40
0.4234071833
 40
0.4388308412
 40
0.4543232404
 40
0.485507794
 40
0.5169699549
 40
0.5328065592
 40
0.5487076996
 40
0.5806824155
 40
0.6128739827
 40
0.6290441713
 40
0.6452543848
 40
0.6777639099
 40
0.7103643313
 40
0.7266873147
 40
0.7430142246
 40
0.7756456102
 40
0.791945892
 40
0.80822475
 40
0.8244760382
 40
0.8406940716
 40
0.8568734333
 40
0.8730088969
 40
0.8890954876
 40
0.905128265
 40
0.9370074718
 40
0.9528594107
 40
0.9686481654
 40
1.0
 40
1.0
 40
1.0
 40
1.0
 10
10.365265044
 20
7.081776411
 30
0.0
 10
10.3652649093
 20
7.0737627805
 30
0.0
 10
10.3646767932
 20
7.0617550403
 30
0.0
 10
10.3627073181
 20
7.0459112575
 30
0.0
 10
10.3599685204
 20
7.0303211067
 30
0.0
 10
10.3551071962
 20
7.0112393104
 30
0.0
 10
10.3483460762
 20
6.9928239036
 30
0.0
 10
10.3418543225
 20
6.9786517827
 30
0.0
 10
10.3364629267
 20
6.9683359239
 30
0.0
 10
10.3305561063
 20
6.958340897
 30
0.0
 10
10.3220210101
 20
6.9454869935
 30
0.0
 10
10.3124963325
 20
6.933340663
 30
0.0
 10
10.3020705086
 20
6.9220189179
 30
0.0
 10
10.2938172816
 20
6.9139561556
 30
0.0
 10
10.2851489367
 20
6.9063387787
 30
0.0
 10
10.276084284
 20
6.8991846424
 30
0.0
 10
10.2666441243
 20
6.8925106824
 30
0.0
 10
10.2568506262
 20
6.8863316087
 30
0.0
 10
10.2467255244
 20
6.8806630425
 30
0.0
 10
10.2362921902
 20
6.8755186931
 30
0.0
 10
10.2255746974
 20
6.8709100413
 30
0.0
 10
10.210915579
 20
6.8654878782
 30
0.0
 10
10.1919889814
 20
6.8601089191
 30
0.0
 10
10.1725370546
 20
6.8566703198
 30
0.0
 10
10.1567352897
 20
6.8550869374
 30
0.0
 10
10.1407335323
 20
6.8542869438
 30
0.0
 10
10.1205525973
 20
6.8547800509
 30
0.0
 10
10.1004291079
 20
6.857250533
 30
0.0
 10
10.0844304807
 20
6.8603954362
 30
0.0
 10
10.0684722123
 20
6.8643339653
 30
0.0
 10
10.0487964084
 20
6.8707073987
 30
0.0
 10
10.0297423489
 20
6.8789257132
 30
0.0
 10
10.0149410659
 20
6.8865693706
 30
0.0
 10
10.0004385044
 20
6.8949311956
 30
0.0
 10
9.9830100345
 20
6.9066538054
 30
0.0
 10
9.9667057735
 20
6.9199409387
 30
0.0
 10
9.954413879
 20
6.9314419796
 30
0.0
 10
9.942654734
 20
6.9434974646
 30
0.0
 10
9.9317348606
 20
6.9563411135
 30
0.0
 10
9.9217432313
 20
6.9698747449
 30
0.0
 10
9.9147314602
 20
6.9803413123
 30
0.0
 10
9.9082188762
 20
6.9911004027
 30
0.0
 10
9.9022209966
 20
7.0021255883
 30
0.0
 10
9.8967512266
 20
7.0133889241
 30
0.0
 10
9.891823909
 20
7.0248629604
 30
0.0
 10
9.8874502554
 20
7.0365193115
 30
0.0
 10
9.8823796118
 20
7.0522312411
 30
0.0
 10
9.8784392792
 20
7.0682273341
 30
0.0
 10
9.8756699304
 20
7.0843788876
 30
0.0
 10
9.8736975231
 20
7.1005091445
 30
0.0
 10
9.8730963525
 20
7.1126772168
 30
0.0
 10
9.8730962051
 20
7.1207629281
 30
0.0
  0
SPLINE
  5
307
100
AcDbEntity
  8
0
100
AcDbSpline
 62
7
  6
CONTINUOUS
 70
0
 71
3
 72
56
 73
52
 74
0
 42
0.0000001
 43
0.0000001
 44
0.0000000001
 40
0.0
 40
0.0
 40
0.0
 40
0.0
 40
0.0310723444
 40
0.0465152282
 40
0.0618873079
 40
0.0924244521
 40
0.1227285817
 40
0.1378086463
 40
0.1528438045
 40
0.1678401149
 40
0.1828038444
 40
0.2126503405
 40
0.227557511
 40
0.2424602055
 40
0.2573657799
 40
0.272281562
 40
0.2872148089
 40
0.3021724291
 40
0.3171611937
 40
0.3321875071
 40
0.3472571476
 40
0.362375664
 40
0.3927682619
 40
0.4234071812
 40
0.4388308394
 40
0.454323239
 40
0.4855077933
 40
0.5169699546
 40
0.532806559
 40
0.5487076994
 40
0.5806824153
 40
0.6128739824
 40
0.6290441709
 40
0.6452543843
 40
0.6777639093
 40
0.7103643307
 40
0.7266873141
 40
0.7430142241
 40
0.7756456098
 40
0.7919458916
 40
0.8082247496
 40
0.8244760379
 40
0.8406940714
 40
0.8568734332
 40
0.8730088968
 40
0.8890954876
 40
0.905128265
 40
0.9370074719
 40
0.9528594107
 40
0.9686481654
 40
1.0
 40
1.0
 40
1.0
 40
1.0
 10
10.8689658065
 20
6.1456605346
 30
0.0
 10
10.8689659411
 20
6.1536741647
 30
0.0
 10
10.8695540568
 20
6.165681904
 30
0.0
 10
10.871523532
 20
6.1815256857
 30
0.0
 10
10.8742623295
 20
6.1971158359
 30
0.0
 10
10.8791236535
 20
6.2161976326
 30
0.0
 10
10.8858847734
 20
6.2346130403
 30
0.0
 10
10.8923765275
 20
6.2487851619
 30
0.0
 10
10.8977679237
 20
6.2591010213
 30
0.0
 10
10.9036747445
 20
6.2690960489
 30
0.0
 10
10.9122098411
 20
6.2819499532
 30
0.0
 10
10.9217345194
 20
6.294096284
 30
0.0
 10
10.9321603436
 20
6.3054180295
 30
0.0
 10
10.9404135708
 20
6.3134807917
 30
0.0
 10
10.9490819156
 20
6.3210981683
 30
0.0
 10
10.9581465679
 20
6.3282523043
 30
0.0
 10
10.967586727
 20
6.3349262638
 30
0.0
 10
10.9773802245
 20
6.341105337
 30
0.0
 10
10.9875053256
 20
6.3467739028
 30
0.0
 10
10.9979386593
 20
6.351918252
 30
0.0
 10
11.0086561516
 20
6.3565269037
 30
0.0
 10
11.0233152697
 20
6.3619490667
 30
0.0
 10
11.0422418673
 20
6.3673280261
 30
0.0
 10
11.0616937943
 20
6.3707666254
 30
0.0
 10
11.0774955595
 20
6.3723500081
 30
0.0
 10
11.0934973172
 20
6.3731500017
 30
0.0
 10
11.1136782526
 20
6.3726568947
 30
0.0
 10
11.1338017422
 20
6.3701864125
 30
0.0
 10
11.1498003696
 20
6.3670415093
 30
0.0
 10
11.165758638
 20
6.3631029802
 30
0.0
 10
11.1854344419
 20
6.3567295469
 30
0.0
 10
11.2044885014
 20
6.3485112324
 30
0.0
 10
11.2192897843
 20
6.3408675751
 30
0.0
 10
11.2337923457
 20
6.3325057501
 30
0.0
 10
11.2512208156
 20
6.3207831403
 30
0.0
 10
11.2675250766
 20
6.3074960071
 30
0.0
 10
11.2798169711
 20
6.2959949662
 30
0.0
 10
11.2915761162
 20
6.2839394812
 30
0.0
 10
11.3024959896
 20
6.2710958323
 30
0.0
 10
11.3124876189
 20
6.2575622008
 30
0.0
 10
11.3194993901
 20
6.2470956335
 30
0.0
 10
11.3260119741
 20
6.236336543
 30
0.0
 10
11.3320098538
 20
6.2253113573
 30
0.0
 10
11.3374796238
 20
6.2140480215
 30
0.0
 10
11.3424069414
 20
6.2025739852
 30
0.0
 10
11.346780595
 20
6.1909176341
 30
0.0
 10
11.3518512387
 20
6.1752057044
 30
0.0
 10
11.3557915712
 20
6.1592096113
 30
0.0
 10
11.3585609201
 20
6.1430580579
 30
0.0
 10
11.3605333274
 20
6.126927801
 30
0.0
 10
11.3611344979
 20
6.1147597287
 30
0.0
 10
11.3611346453
 20
6.1066740174
 30
0.0
  0
SPLINE
  5
308
100
AcDbEntity
  8
0
100
AcDbSpline
 62
7
  6
CONTINUOUS
 70
0
 71
3
 72
56
 73
52
 74
0
 42
0.0000001
 43
0.0000001
 44
0.0000000001
 40
0.0
 40
0.0
 40
0.0
 40
0.0
 40
0.031072346
 40
0.0465152317
 40
0.0618873124
 40
0.0924244558
 40
0.1227285839
 40
0.1378086476
 40
0.152843805
 40
0.1678401144
 40
0.1828038429
 40
0.2126503375
 40
0.2275575076
 40
0.2424602021
 40
0.2573657768
 40
0.2722815596
 40
0.2872148075
 40
0.3021724288
 40
0.3171611944
 40
0.3321875086
 40
0.3472571497
 40
0.3623756664
 40
0.3927682644
 40
0.4234071833
 40
0.4388308412
 40
0.4543232404
 40
0.485507794
 40
0.5169699549
 40
0.5328065592
 40
0.5487076996
 40
0.5806824155
 40
0.6128739827
 40
0.6290441713
 40
0.6452543848
 40
0.6777639099
 40
0.7103643313
 40
0.7266873147
 40
0.7430142246
 40
0.7756456102
 40
0.791945892
 40
0.80822475
 40
0.8244760382
 40
0.8406940716
 40
0.8568734333
 40
0.8730088969
 40
0.8890954876
 40
0.905128265
 40
0.9370074718
 40
0.9528594107
 40
0.9686481654
 40
1.0
 40
1.0
 40
1.0
 40
1.0
 10
11.3611346474
 20
6.1066741181
 30
0.0
 10
11.3611345127
 20
6.0986604876
 30
0.0
 10
11.3605463966
 20
6.0866527474
 30
0.0
 10
11.3585769215
 20
6.0708089646
 30
0.0
 10
11.3558381238
 20
6.0552188138
 30
0.0
 10
11.3509767996
 20
6.0361370175
 30
0.0
 10
11.3442156797
 20
6.0177216107
 30
0.0
 10
11.3377239259
 20
6.0035494898
 30
0.0
 10
11.3323325301
 20
5.993233631
 30
0.0
 10
11.3264257097
 20
5.9832386041
 30
0.0
 10
11.3178906135
 20
5.9703847006
 30
0.0
 10
11.3083659359
 20
5.9582383701
 30
0.0
 10
11.297940112
 20
5.946916625
 30
0.0
 10
11.289686885
 20
5.9388538627
 30
0.0
 10
11.2810185401
 20
5.9312364858
 30
0.0
 10
11.2719538874
 20
5.9240823495
 30
0.0
 10
11.2625137277
 20
5.9174083896
 30
0.0
 10
11.2527202296
 20
5.9112293158
 30
0.0
 10
11.2425951279
 20
5.9055607496
 30
0.0
 10
11.2321617936
 20
5.9004164002
 30
0.0
 10
11.2214443008
 20
5.8958077484
 30
0.0
 10
11.2067851824
 20
5.8903855853
 30
0.0
 10
11.1878585848
 20
5.8850066262
 30
0.0
 10
11.168406658
 20
5.8815680269
 30
0.0
 10
11.1526048931
 20
5.8799846445
 30
0.0
 10
11.1366031357
 20
5.8791846509
 30
0.0
 10
11.1164222007
 20
5.8796777581
 30
0.0
 10
11.0962987114
 20
5.8821482401
 30
0.0
 10
11.0803000841
 20
5.8852931434
 30
0.0
 10
11.0643418157
 20
5.8892316725
 30
0.0
 10
11.0446660119
 20
5.8956051058
 30
0.0
 10
11.0256119523
 20
5.9038234203
 30
0.0
 10
11.0108106693
 20
5.9114670777
 30
0.0
 10
10.9963081078
 20
5.9198289028
 30
0.0
 10
10.9788796379
 20
5.9315515125
 30
0.0
 10
10.9625753769
 20
5.9448386459
 30
0.0
 10
10.9502834825
 20
5.9563396867
 30
0.0
 10
10.9385243374
 20
5.9683951718
 30
0.0
 10
10.927604464
 20
5.9812388206
 30
0.0
 10
10.9176128347
 20
5.994772452
 30
0.0
 10
10.9106010636
 20
6.0052390194
 30
0.0
 10
10.9040884796
 20
6.0159981098
 30
0.0
 10
10.8980906
 20
6.0270232955
 30
0.0
 10
10.89262083
 20
6.0382866312
 30
0.0
 10
10.8876935125
 20
6.0497606675
 30
0.0
 10
10.8833198589
 20
6.0614170186
 30
0.0
 10
10.8782492152
 20
6.0771289482
 30
0.0
 10
10.8743088826
 20
6.0931250413
 30
0.0
 10
10.8715395338
 20
6.1092765947
 30
0.0
 10
10.8695671265
 20
6.1254068516
 30
0.0
 10
10.8689659559
 20
6.137574924
 30
0.0
 10
10.8689658085
 20
6.1456606352
 30
0.0
  0
SPLINE
  5
309
100
AcDbEntity
  8
0
100
AcDbSpline
 62
7
  6
CONTINUOUS
 70
0
 71
3
 72
56
 73
52
 74
0
 42
0.0000001
 43
0.0000001
 44
0.0000000001
 40
0.0
 40
0.0
 40
0.0
 40
0.0
 40
0.0310723444
 40
0.0465152282
 40
0.0618873079
 40
0.0924244521
 40
0.1227285817
 40
0.1378086463
 40
0.1528438045
 40
0.1678401149
 40
0.1828038444
 40
0.2126503405
 40
0.227557511
 40
0.2424602055
 40
0.2573657799
 40
0.272281562
 40
0.2872148089
 40
0.3021724291
 40
0.3171611937
 40
0.3321875071
 40
0.3472571476
 40
0.362375664
 40
0.3927682619
 40
0.4234071812
 40
0.4388308394
 40
0.454323239
 40
0.4855077933
 40
0.5169699546
 40
0.532806559
 40
0.5487076994
 40
0.5806824153
 40
0.6128739824
 40
0.6290441709
 40
0.6452543843
 40
0.6777639093
 40
0.7103643307
 40
0.7266873141
 40
0.7430142241
 40
0.7756456098
 40
0.7919458916
 40
0.8082247496
 40
0.8244760379
 40
0.8406940714
 40
0.8568734332
 40
0.8730088968
 40
0.8890954876
 40
0.905128265
 40
0.9370074719
 40
0.9528594107
 40
0.9686481654
 40
1.0
 40
1.0
 40
1.0
 40
1.0
 10
10.4468561604
 20
6.6888065131
 30
0.0
 10
10.446856295
 20
6.6968201431
 30
0.0
 10
10.4474444107
 20
6.7088278825
 30
0.0
 10
10.4494138859
 20
6.7246716641
 30
0.0
 10
10.4521526834
 20
6.7402618144
 30
0.0
 10
10.4570140074
 20
6.7593436111
 30
0.0
 10
10.4637751273
 20
6.7777590188
 30
0.0
 10
10.4702668814
 20
6.7919311404
 30
0.0
 10
10.4756582776
 20
6.8022469998
 30
0.0
 10
10.4815650983
 20
6.8122420274
 30
0.0
 10
10.490100195
 20
6.8250959317
 30
0.0
 10
10.4996248733
 20
6.8372422625
 30
0.0
 10
10.5100506975
 20
6.848564008
 30
0.0
 10
10.5183039247
 20
6.8566267702
 30
0.0
 10
10.5269722695
 20
6.8642441467
 30
0.0
 10
10.5360369218
 20
6.8713982828
 30
0.0
 10
10.5454770809
 20
6.8780722423
 30
0.0
 10
10.5552705784
 20
6.8842513155
 30
0.0
 10
10.5653956795
 20
6.8899198813
 30
0.0
 10
10.5758290132
 20
6.8950642305
 30
0.0
 10
10.5865465055
 20
6.8996728822
 30
0.0
 10
10.6012056236
 20
6.9050950452
 30
0.0
 10
10.6201322212
 20
6.9104740046
 30
0.0
 10
10.6395841482
 20
6.9139126039
 30
0.0
 10
10.6553859134
 20
6.9154959865
 30
0.0
 10
10.6713876711
 20
6.9162959802
 30
0.0
 10
10.6915686065
 20
6.9158028731
 30
0.0
 10
10.7116920961
 20
6.913332391
 30
0.0
 10
10.7276907235
 20
6.9101874878
 30
0.0
 10
10.7436489919
 20
6.9062489587
 30
0.0
 10
10.7633247958
 20
6.8998755254
 30
0.0
 10
10.7823788553
 20
6.8916572109
 30
0.0
 10
10.7971801382
 20
6.8840135535
 30
0.0
 10
10.8116826996
 20
6.8756517285
 30
0.0
 10
10.8291111695
 20
6.8639291188
 30
0.0
 10
10.8454154305
 20
6.8506419855
 30
0.0
 10
10.857707325
 20
6.8391409447
 30
0.0
 10
10.8694664701
 20
6.8270854597
 30
0.0
 10
10.8803863435
 20
6.8142418108
 30
0.0
 10
10.8903779728
 20
6.8007081793
 30
0.0
 10
10.897389744
 20
6.790241612
 30
0.0
 10
10.903902328
 20
6.7794825215
 30
0.0
 10
10.9099002077
 20
6.7684573358
 30
0.0
 10
10.9153699777
 20
6.757194
 30
0.0
 10
10.9202972953
 20
6.7457199636
 30
0.0
 10
10.9246709489
 20
6.7340636125
 30
0.0
 10
10.9297415925
 20
6.7183516829
 30
0.0
 10
10.9336819251
 20
6.7023555898
 30
0.0
 10
10.9364512739
 20
6.6862040363
 30
0.0
 10
10.9384236813
 20
6.6700737795
 30
0.0
 10
10.9390248518
 20
6.6579057071
 30
0.0
 10
10.9390249992
 20
6.6498199959
 30
0.0
  0
SPLINE
  5
30A
100
AcDbEntity
  8
0
100
AcDbSpline
 62
7
  6
CONTINUOUS
 70
0
 71
3
 72
56
 73
52
 74
0
 42
0.0000001
 43
0.0000001
 44
0.0000000001
 40
0.0
 40
0.0
 40
0.0
 40
0.0
 40
0.031072346
 40
0.0465152317
 40
0.0618873124
 40
0.0924244558
 40
0.1227285839
 40
0.1378086476
 40
0.152843805
 40
0.1678401144
 40
0.1828038429
 40
0.2126503375
 40
0.2275575076
 40
0.2424602021
 40
0.2573657768
 40
0.2722815596
 40
0.2872148075
 40
0.3021724288
 40
0.3171611944
 40
0.3321875086
 40
0.3472571497
 40
0.3623756664
 40
0.3927682644
 40
0.4234071833
 40
0.4388308412
 40
0.4543232404
 40
0.485507794
 40
0.5169699549
 40
0.5328065592
 40
0.5487076996
 40
0.5806824155
 40
0.6128739827
 40
0.6290441713
 40
0.6452543848
 40
0.6777639099
 40
0.7103643313
 40
0.7266873147
 40
0.7430142246
 40
0.7756456102
 40
0.791945892
 40
0.80822475
 40
0.8244760382
 40
0.8406940716
 40
0.8568734333
 40
0.8730088969
 40
0.8890954876
 40
0.905128265
 40
0.9370074718
 40
0.9528594107
 40
0.9686481654
 40
1.0
 40
1.0
 40
1.0
 40
1.0
 10
10.9390250013
 20
6.6498200966
 30
0.0
 10
10.9390248666
 20
6.6418064661
 30
0.0
 10
10.9384367505
 20
6.6297987259
 30
0.0
 10
10.9364672754
 20
6.6139549431
 30
0.0
 10
10.9337284777
 20
6.5983647923
 30
0.0
 10
10.9288671535
 20
6.579282996
 30
0.0
 10
10.9221060335
 20
6.5608675892
 30
0.0
 10
10.9156142798
 20
6.5466954683
 30
0.0
 10
10.910222884
 20
6.5363796095
 30
0.0
 10
10.9043160636
 20
6.5263845826
 30
0.0
 10
10.8957809674
 20
6.5135306791
 30
0.0
 10
10.8862562898
 20
6.5013843486
 30
0.0
 10
10.8758304659
 20
6.4900626035
 30
0.0
 10
10.8675772389
 20
6.4819998412
 30
0.0
 10
10.858908894
 20
6.4743824643
 30
0.0
 10
10.8498442413
 20
6.467228328
 30
0.0
 10
10.8404040816
 20
6.460554368
 30
0.0
 10
10.8306105835
 20
6.4543752943
 30
0.0
 10
10.8204854818
 20
6.4487067281
 30
0.0
 10
10.8100521475
 20
6.4435623787
 30
0.0
 10
10.7993346547
 20
6.4389537269
 30
0.0
 10
10.7846755363
 20
6.4335315638
 30
0.0
 10
10.7657489387
 20
6.4281526047
 30
0.0
 10
10.7462970119
 20
6.4247140054
 30
0.0
 10
10.730495247
 20
6.423130623
 30
0.0
 10
10.7144934896
 20
6.4223306294
 30
0.0
 10
10.6943125546
 20
6.4228237365
 30
0.0
 10
10.6741890653
 20
6.4252942186
 30
0.0
 10
10.658190438
 20
6.4284391218
 30
0.0
 10
10.6422321696
 20
6.4323776509
 30
0.0
 10
10.6225563658
 20
6.4387510843
 30
0.0
 10
10.6035023062
 20
6.4469693988
 30
0.0
 10
10.5887010232
 20
6.4546130562
 30
0.0
 10
10.5741984617
 20
6.4629748812
 30
0.0
 10
10.5567699918
 20
6.474697491
 30
0.0
 10
10.5404657308
 20
6.4879846243
 30
0.0
 10
10.5281738363
 20
6.4994856652
 30
0.0
 10
10.5164146913
 20
6.5115411502
 30
0.0
 10
10.5054948179
 20
6.5243847991
 30
0.0
 10
10.4955031886
 20
6.5379184305
 30
0.0
 10
10.4884914175
 20
6.5483849979
 30
0.0
 10
10.4819788335
 20
6.5591440883
 30
0.0
 10
10.4759809539
 20
6.5701692739
 30
0.0
 10
10.4705111839
 20
6.5814326097
 30
0.0
 10
10.4655838664
 20
6.592906646
 30
0.0
 10
10.4612102128
 20
6.6045629971
 30
0.0
 10
10.4561395691
 20
6.6202749267
 30
0.0
 10
10.4521992365
 20
6.6362710197
 30
0.0
 10
10.4494298877
 20
6.6524225732
 30
0.0
 10
10.4474574804
 20
6.6685528301
 30
0.0
 10
10.4468563098
 20
6.6807209024
 30
0.0
 10
10.4468561624
 20
6.6888066137
 30
0.0
  0
SPLINE
  5
30B
100
AcDbEntity
  8
0
100
AcDbSpline
 62
7
  6
CONTINUOUS
 70
0
 71
3
 72
56
 73
52
 74
0
 42
0.0000001
 43
0.0000001
 44
0.0000000001
 40
0.0
 40
0.0
 40
0.0
 40
0.0
 40
0.0310723444
 40
0.0465152282
 40
0.0618873079
 40
0.0924244521
 40
0.1227285817
 40
0.1378086463
 40
0.1528438045
 40
0.1678401149
 40
0.1828038444
 40
0.2126503405
 40
0.227557511
 40
0.2424602055
 40
0.2573657799
 40
0.272281562
 40
0.2872148089
 40
0.3021724291
 40
0.3171611937
 40
0.3321875071
 40
0.3472571476
 40
0.362375664
 40
0.3927682619
 40
0.4234071812
 40
0.4388308394
 40
0.454323239
 40
0.4855077933
 40
0.5169699546
 40
0.532806559
 40
0.5487076994
 40
0.5806824153
 40
0.6128739824
 40
0.6290441709
 40
0.6452543843
 40
0.6777639093
 40
0.7103643307
 40
0.7266873141
 40
0.7430142241
 40
0.7756456098
 40
0.7919458916
 40
0.8082247496
 40
0.8244760379
 40
0.8406940714
 40
0.8568734332
 40
0.8730088968
 40
0.8890954876
 40
0.905128265
 40
0.9370074719
 40
0.9528594107
 40
0.9686481654
 40
1.0
 40
1.0
 40
1.0
 40
1.0
 10
10.4468561604
 20
7.4731383655
 30
0.0
 10
10.446856295
 20
7.4811519956
 30
0.0
 10
10.4474444107
 20
7.4931597349
 30
0.0
 10
10.4494138859
 20
7.5090035166
 30
0.0
 10
10.4521526834
 20
7.5245936668
 30
0.0
 10
10.4570140074
 20
7.5436754635
 30
0.0
 10
10.4637751273
 20
7.5620908712
 30
0.0
 10
10.4702668814
 20
7.5762629928
 30
0.0
 10
10.4756582776
 20
7.5865788522
 30
0.0
 10
10.4815650983
 20
7.5965738798
 30
0.0
 10
10.490100195
 20
7.6094277841
 30
0.0
 10
10.4996248733
 20
7.6215741149
 30
0.0
 10
10.5100506975
 20
7.6328958604
 30
0.0
 10
10.5183039247
 20
7.6409586226
 30
0.0
 10
10.5269722695
 20
7.6485759992
 30
0.0
 10
10.5360369218
 20
7.6557301352
 30
0.0
 10
10.5454770809
 20
7.6624040947
 30
0.0
 10
10.5552705784
 20
7.6685831679
 30
0.0
 10
10.5653956795
 20
7.6742517337
 30
0.0
 10
10.5758290132
 20
7.6793960829
 30
0.0
 10
10.5865465055
 20
7.6840047346
 30
0.0
 10
10.6012056236
 20
7.6894268976
 30
0.0
 10
10.6201322212
 20
7.694805857
 30
0.0
 10
10.6395841482
 20
7.6982444564
 30
0.0
 10
10.6553859134
 20
7.699827839
 30
0.0
 10
10.6713876711
 20
7.7006278326
 30
0.0
 10
10.6915686065
 20
7.7001347256
 30
0.0
 10
10.7116920961
 20
7.6976642434
 30
0.0
 10
10.7276907235
 20
7.6945193402
 30
0.0
 10
10.7436489919
 20
7.6905808111
 30
0.0
 10
10.7633247958
 20
7.6842073778
 30
0.0
 10
10.7823788553
 20
7.6759890633
 30
0.0
 10
10.7971801382
 20
7.668345406
 30
0.0
 10
10.8116826996
 20
7.659983581
 30
0.0
 10
10.8291111695
 20
7.6482609712
 30
0.0
 10
10.8454154305
 20
7.634973838
 30
0.0
 10
10.857707325
 20
7.6234727971
 30
0.0
 10
10.8694664701
 20
7.6114173121
 30
0.0
 10
10.8803863435
 20
7.5985736632
 30
0.0
 10
10.8903779728
 20
7.5850400317
 30
0.0
 10
10.897389744
 20
7.5745734644
 30
0.0
 10
10.903902328
 20
7.5638143739
 30
0.0
 10
10.9099002077
 20
7.5527891882
 30
0.0
 10
10.9153699777
 20
7.5415258524
 30
0.0
 10
10.9202972953
 20
7.5300518161
 30
0.0
 10
10.9246709489
 20
7.518395465
 30
0.0
 10
10.9297415925
 20
7.5026835353
 30
0.0
 10
10.9336819251
 20
7.4866874422
 30
0.0
 10
10.9364512739
 20
7.4705358888
 30
0.0
 10
10.9384236813
 20
7.4544056319
 30
0.0
 10
10.9390248518
 20
7.4422375596
 30
0.0
 10
10.9390249992
 20
7.4341518483
 30
0.0
  0
SPLINE
  5
30C
100
AcDbEntity
  8
0
100
AcDbSpline
 62
7
  6
CONTINUOUS
 70
0
 71
3
 72
56
 73
52
 74
0
 42
0.0000001
 43
0.0000001
 44
0.0000000001
 40
0.0
 40
0.0
 40
0.0
 40
0.0
 40
0.031072346
 40
0.0465152317
 40
0.0618873124
 40
0.0924244558
 40
0.1227285839
 40
0.1378086476
 40
0.152843805
 40
0.1678401144
 40
0.1828038429
 40
0.2126503375
 40
0.2275575076
 40
0.2424602021
 40
0.2573657768
 40
0.2722815596
 40
0.2872148075
 40
0.3021724288
 40
0.3171611944
 40
0.3321875086
 40
0.3472571497
 40
0.3623756664
 40
0.3927682644
 40
0.4234071833
 40
0.4388308412
 40
0.4543232404
 40
0.485507794
 40
0.5169699549
 40
0.5328065592
 40
0.5487076996
 40
0.5806824155
 40
0.6128739827
 40
0.6290441713
 40
0.6452543848
 40
0.6777639099
 40
0.7103643313
 40
0.7266873147
 40
0.7430142246
 40
0.7756456102
 40
0.791945892
 40
0.80822475
 40
0.8244760382
 40
0.8406940716
 40
0.8568734333
 40
0.8730088969
 40
0.8890954876
 40
0.905128265
 40
0.9370074718
 40
0.9528594107
 40
0.9686481654
 40
1.0
 40
1.0
 40
1.0
 40
1.0
 10
10.9390250013
 20
7.4341519491
 30
0.0
 10
10.9390248666
 20
7.4261383186
 30
0.0
 10
10.9384367505
 20
7.4141305783
 30
0.0
 10
10.9364672754
 20
7.3982867955
 30
0.0
 10
10.9337284777
 20
7.3826966447
 30
0.0
 10
10.9288671535
 20
7.3636148484
 30
0.0
 10
10.9221060335
 20
7.3451994416
 30
0.0
 10
10.9156142798
 20
7.3310273208
 30
0.0
 10
10.910222884
 20
7.320711462
 30
0.0
 10
10.9043160636
 20
7.310716435
 30
0.0
 10
10.8957809674
 20
7.2978625315
 30
0.0
 10
10.8862562898
 20
7.285716201
 30
0.0
 10
10.8758304659
 20
7.274394456
 30
0.0
 10
10.8675772389
 20
7.2663316936
 30
0.0
 10
10.858908894
 20
7.2587143168
 30
0.0
 10
10.8498442413
 20
7.2515601804
 30
0.0
 10
10.8404040816
 20
7.2448862205
 30
0.0
 10
10.8306105835
 20
7.2387071467
 30
0.0
 10
10.8204854818
 20
7.2330385805
 30
0.0
 10
10.8100521475
 20
7.2278942311
 30
0.0
 10
10.7993346547
 20
7.2232855793
 30
0.0
 10
10.7846755363
 20
7.2178634162
 30
0.0
 10
10.7657489387
 20
7.2124844572
 30
0.0
 10
10.7462970119
 20
7.2090458578
 30
0.0
 10
10.730495247
 20
7.2074624754
 30
0.0
 10
10.7144934896
 20
7.2066624818
 30
0.0
 10
10.6943125546
 20
7.207155589
 30
0.0
 10
10.6741890653
 20
7.209626071
 30
0.0
 10
10.658190438
 20
7.2127709743
 30
0.0
 10
10.6422321696
 20
7.2167095034
 30
0.0
 10
10.6225563658
 20
7.2230829367
 30
0.0
 10
10.6035023062
 20
7.2313012512
 30
0.0
 10
10.5887010232
 20
7.2389449086
 30
0.0
 10
10.5741984617
 20
7.2473067337
 30
0.0
 10
10.5567699918
 20
7.2590293434
 30
0.0
 10
10.5404657308
 20
7.2723164768
 30
0.0
 10
10.5281738363
 20
7.2838175177
 30
0.0
 10
10.5164146913
 20
7.2958730027
 30
0.0
 10
10.5054948179
 20
7.3087166515
 30
0.0
 10
10.4955031886
 20
7.3222502829
 30
0.0
 10
10.4884914175
 20
7.3327168503
 30
0.0
 10
10.4819788335
 20
7.3434759407
 30
0.0
 10
10.4759809539
 20
7.3545011264
 30
0.0
 10
10.4705111839
 20
7.3657644621
 30
0.0
 10
10.4655838664
 20
7.3772384984
 30
0.0
 10
10.4612102128
 20
7.3888948495
 30
0.0
 10
10.4561395691
 20
7.4046067791
 30
0.0
 10
10.4521992365
 20
7.4206028722
 30
0.0
 10
10.4494298877
 20
7.4367544256
 30
0.0
 10
10.4474574804
 20
7.4528846825
 30
0.0
 10
10.4468563098
 20
7.4650527549
 30
0.0
 10
10.4468561624
 20
7.4731384661
 30
0.0
  0
SPLINE
  5
30D
100
AcDbEntity
  8
0
100
AcDbSpline
 62
7
  6
CONTINUOUS
 70
0
 71
3
 72
15
 73
11
 74
0
 42
0.0000001
 43
0.0000001
 44
0.0000000001
 40
0.0
 40
0.0
 40
0.0
 40
0.0
 40
0.1317297384
 40
0.2638320909
 40
0.3951341714
 40
0.5244721333
 40
0.6507056918
 40
0.7727301976
 40
0.889490839
 40
1.0
 40
1.0
 40
1.0
 40
1.0
 10
10.9077836495
 20
5.5937575929
 30
0.0
 10
10.8966692593
 20
5.5933856446
 30
0.0
 10
10.874398468
 20
5.5929269613
 30
0.0
 10
10.8410382858
 20
5.5930799896
 30
0.0
 10
10.8078941559
 20
5.5940700423
 30
0.0
 10
10.7752811678
 20
5.5958873164
 30
0.0
 10
10.7435089402
 20
5.5985140242
 30
0.0
 10
10.7128788437
 20
5.6019247565
 30
0.0
 10
10.6836818867
 20
5.6060865065
 30
0.0
 10
10.6647852519
 20
5.6094353804
 30
0.0
 10
10.6556331311
 20
5.6112442908
 30
0.0
  0
SPLINE
  5
30E
100
AcDbEntity
  8
0
100
AcDbSpline
 62
7
  6
CONTINUOUS
 70
0
 71
3
 72
56
 73
52
 74
0
 42
0.0000001
 43
0.0000001
 44
0.0000000001
 40
0.0
 40
0.0
 40
0.0
 40
0.0
 40
0.0310723444
 40
0.0465152282
 40
0.0618873079
 40
0.0924244521
 40
0.1227285817
 40
0.1378086463
 40
0.1528438045
 40
0.1678401149
 40
0.1828038444
 40
0.2126503405
 40
0.227557511
 40
0.2424602055
 40
0.2573657799
 40
0.272281562
 40
0.2872148089
 40
0.3021724291
 40
0.3171611937
 40
0.3321875071
 40
0.3472571476
 40
0.362375664
 40
0.3927682619
 40
0.4234071812
 40
0.4388308394
 40
0.454323239
 40
0.4855077933
 40
0.5169699546
 40
0.532806559
 40
0.5487076994
 40
0.5806824153
 40
0.6128739824
 40
0.6290441709
 40
0.6452543843
 40
0.6777639093
 40
0.7103643307
 40
0.7266873141
 40
0.7430142241
 40
0.7756456098
 40
0.7919458916
 40
0.8082247496
 40
0.8244760379
 40
0.8406940714
 40
0.8568734332
 40
0.8730088968
 40
0.8890954876
 40
0.905128265
 40
0.9370074719
 40
0.9528594107
 40
0.9686481654
 40
1.0
 40
1.0
 40
1.0
 40
1.0
 10
10.8689658065
 20
7.9577374796
 30
0.0
 10
10.8689659411
 20
7.9657511097
 30
0.0
 10
10.8695540568
 20
7.9777588491
 30
0.0
 10
10.871523532
 20
7.9936026307
 30
0.0
 10
10.8742623295
 20
8.009192781
 30
0.0
 10
10.8791236535
 20
8.0282745777
 30
0.0
 10
10.8858847734
 20
8.0466899854
 30
0.0
 10
10.8923765275
 20
8.060862107
 30
0.0
 10
10.8977679237
 20
8.0711779664
 30
0.0
 10
10.9036747445
 20
8.081172994
 30
0.0
 10
10.9122098411
 20
8.0940268982
 30
0.0
 10
10.9217345194
 20
8.1061732291
 30
0.0
 10
10.9321603436
 20
8.1174949745
 30
0.0
 10
10.9404135708
 20
8.1255577368
 30
0.0
 10
10.9490819156
 20
8.1331751133
 30
0.0
 10
10.9581465679
 20
8.1403292493
 30
0.0
 10
10.967586727
 20
8.1470032088
 30
0.0
 10
10.9773802245
 20
8.153182282
 30
0.0
 10
10.9875053256
 20
8.1588508479
 30
0.0
 10
10.9979386593
 20
8.1639951971
 30
0.0
 10
11.0086561516
 20
8.1686038487
 30
0.0
 10
11.0233152697
 20
8.1740260117
 30
0.0
 10
11.0422418673
 20
8.1794049711
 30
0.0
 10
11.0616937943
 20
8.1828435705
 30
0.0
 10
11.0774955595
 20
8.1844269531
 30
0.0
 10
11.0934973172
 20
8.1852269467
 30
0.0
 10
11.1136782526
 20
8.1847338397
 30
0.0
 10
11.1338017422
 20
8.1822633576
 30
0.0
 10
11.1498003696
 20
8.1791184544
 30
0.0
 10
11.165758638
 20
8.1751799252
 30
0.0
 10
11.1854344419
 20
8.168806492
 30
0.0
 10
11.2044885014
 20
8.1605881775
 30
0.0
 10
11.2192897843
 20
8.1529445201
 30
0.0
 10
11.2337923457
 20
8.1445826951
 30
0.0
 10
11.2512208156
 20
8.1328600854
 30
0.0
 10
11.2675250766
 20
8.1195729521
 30
0.0
 10
11.2798169711
 20
8.1080719112
 30
0.0
 10
11.2915761162
 20
8.0960164262
 30
0.0
 10
11.3024959896
 20
8.0831727774
 30
0.0
 10
11.3124876189
 20
8.0696391459
 30
0.0
 10
11.3194993901
 20
8.0591725785
 30
0.0
 10
11.3260119741
 20
8.048413488
 30
0.0
 10
11.3320098538
 20
8.0373883024
 30
0.0
 10
11.3374796238
 20
8.0261249666
 30
0.0
 10
11.3424069414
 20
8.0146509302
 30
0.0
 10
11.346780595
 20
8.0029945791
 30
0.0
 10
11.3518512387
 20
7.9872826495
 30
0.0
 10
11.3557915712
 20
7.9712865564
 30
0.0
 10
11.3585609201
 20
7.9551350029
 30
0.0
 10
11.3605333274
 20
7.9390047461
 30
0.0
 10
11.3611344979
 20
7.9268366737
 30
0.0
 10
11.3611346453
 20
7.9187509625
 30
0.0
  0
SPLINE
  5
30F
100
AcDbEntity
  8
0
100
AcDbSpline
 62
7
  6
CONTINUOUS
 70
0
 71
3
 72
56
 73
52
 74
0
 42
0.0000001
 43
0.0000001
 44
0.0000000001
 40
0.0
 40
0.0
 40
0.0
 40
0.0
 40
0.031072346
 40
0.0465152317
 40
0.0618873124
 40
0.0924244558
 40
0.1227285839
 40
0.1378086476
 40
0.152843805
 40
0.1678401144
 40
0.1828038429
 40
0.2126503375
 40
0.2275575076
 40
0.2424602021
 40
0.2573657768
 40
0.2722815596
 40
0.2872148075
 40
0.3021724288
 40
0.3171611944
 40
0.3321875086
 40
0.3472571497
 40
0.3623756664
 40
0.3927682644
 40
0.4234071833
 40
0.4388308412
 40
0.4543232404
 40
0.485507794
 40
0.5169699549
 40
0.5328065592
 40
0.5487076996
 40
0.5806824155
 40
0.6128739827
 40
0.6290441713
 40
0.6452543848
 40
0.6777639099
 40
0.7103643313
 40
0.7266873147
 40
0.7430142246
 40
0.7756456102
 40
0.791945892
 40
0.80822475
 40
0.8244760382
 40
0.8406940716
 40
0.8568734333
 40
0.8730088969
 40
0.8890954876
 40
0.905128265
 40
0.9370074718
 40
0.9528594107
 40
0.9686481654
 40
1.0
 40
1.0
 40
1.0
 40
1.0
 10
11.3611346474
 20
7.9187510632
 30
0.0
 10
11.3611345127
 20
7.9107374327
 30
0.0
 10
11.3605463966
 20
7.8987296925
 30
0.0
 10
11.3585769215
 20
7.8828859096
 30
0.0
 10
11.3558381238
 20
7.8672957589
 30
0.0
 10
11.3509767996
 20
7.8482139626
 30
0.0
 10
11.3442156797
 20
7.8297985557
 30
0.0
 10
11.3377239259
 20
7.8156264349
 30
0.0
 10
11.3323325301
 20
7.8053105761
 30
0.0
 10
11.3264257097
 20
7.7953155492
 30
0.0
 10
11.3178906135
 20
7.7824616456
 30
0.0
 10
11.3083659359
 20
7.7703153152
 30
0.0
 10
11.297940112
 20
7.7589935701
 30
0.0
 10
11.289686885
 20
7.7509308078
 30
0.0
 10
11.2810185401
 20
7.7433134309
 30
0.0
 10
11.2719538874
 20
7.7361592946
 30
0.0
 10
11.2625137277
 20
7.7294853346
 30
0.0
 10
11.2527202296
 20
7.7233062609
 30
0.0
 10
11.2425951279
 20
7.7176376946
 30
0.0
 10
11.2321617936
 20
7.7124933452
 30
0.0
 10
11.2214443008
 20
7.7078846935
 30
0.0
 10
11.2067851824
 20
7.7024625304
 30
0.0
 10
11.1878585848
 20
7.6970835713
 30
0.0
 10
11.168406658
 20
7.693644972
 30
0.0
 10
11.1526048931
 20
7.6920615896
 30
0.0
 10
11.1366031357
 20
7.691261596
 30
0.0
 10
11.1164222007
 20
7.6917547031
 30
0.0
 10
11.0962987114
 20
7.6942251852
 30
0.0
 10
11.0803000841
 20
7.6973700884
 30
0.0
 10
11.0643418157
 20
7.7013086175
 30
0.0
 10
11.0446660119
 20
7.7076820508
 30
0.0
 10
11.0256119523
 20
7.7159003653
 30
0.0
 10
11.0108106693
 20
7.7235440227
 30
0.0
 10
10.9963081078
 20
7.7319058478
 30
0.0
 10
10.9788796379
 20
7.7436284576
 30
0.0
 10
10.9625753769
 20
7.7569155909
 30
0.0
 10
10.9502834825
 20
7.7684166318
 30
0.0
 10
10.9385243374
 20
7.7804721168
 30
0.0
 10
10.927604464
 20
7.7933157656
 30
0.0
 10
10.9176128347
 20
7.8068493971
 30
0.0
 10
10.9106010636
 20
7.8173159644
 30
0.0
 10
10.9040884796
 20
7.8280750549
 30
0.0
 10
10.8980906
 20
7.8391002405
 30
0.0
 10
10.89262083
 20
7.8503635763
 30
0.0
 10
10.8876935125
 20
7.8618376126
 30
0.0
 10
10.8833198589
 20
7.8734939637
 30
0.0
 10
10.8782492152
 20
7.8892058933
 30
0.0
 10
10.8743088826
 20
7.9052019863
 30
0.0
 10
10.8715395338
 20
7.9213535398
 30
0.0
 10
10.8695671265
 20
7.9374837966
 30
0.0
 10
10.8689659559
 20
7.949651869
 30
0.0
 10
10.8689658085
 20
7.9577375803
 30
0.0
  0
LINE
  5
310
100
AcDbEntity
  8
0
100
AcDbLine
 62
7
  6
CONTINUOUS
 10
11.2018784747
 20
10.8675924304
 11
11.2055854542
 21
10.8716545103
  0
SPLINE
  5
311
100
AcDbEntity
  8
0
100
AcDbSpline
 62
7
  6
CONTINUOUS
 70
0
 71
3
 72
9
 73
5
 74
0
 42
0.0000001
 43
0.0000001
 44
0.0000000001
 40
0.0
 40
0.0
 40
0.0
 40
0.0
 40
0.2651159046
 40
1.0
 40
1.0
 40
1.0
 40
1.0
 10
11.2055854542
 20
10.8716545103
 30
0.0
 10
11.2060168711
 20
10.8721992835
 30
0.0
 10
11.2075830941
 20
10.8743003156
 30
0.0
 10
11.2088889512
 20
10.8766061222
 30
0.0
 10
11.2096166099
 20
10.8783896361
 30
0.0
  0
LINE
  5
312
100
AcDbEntity
  8
0
100
AcDbLine
 62
7
  6
CONTINUOUS
 10
11.2096166099
 20
10.8783896361
 11
11.2105323323
 21
10.8811586045
  0
SPLINE
  5
313
100
AcDbEntity
  8
0
100
AcDbSpline
 62
7
  6
CONTINUOUS
 70
0
 71
3
 72
9
 73
5
 74
0
 42
0.0000001
 43
0.0000001
 44
0.0000000001
 40
0.0
 40
0.0
 40
0.0
 40
0.0
 40
0.5037106514
 40
1.0
 40
1.0
 40
1.0
 40
1.0
 10
11.2105323323
 20
10.8811586045
 30
0.0
 10
11.2107235246
 20
10.8819126252
 30
0.0
 10
11.2110145531
 20
10.8834336856
 30
0.0
 10
11.2111127842
 20
10.8849795362
 30
0.0
 10
11.211112714
 20
10.8857459582
 30
0.0
  0
SPLINE
  5
314
100
AcDbEntity
  8
0
100
AcDbSpline
 62
7
  6
CONTINUOUS
 70
0
 71
3
 72
15
 73
11
 74
0
 42
0.0000001
 43
0.0000001
 44
0.0000000001
 40
0.0
 40
0.0
 40
0.0
 40
0.0
 40
0.0899041496
 40
0.1895642192
 40
0.2993130377
 40
0.4193005592
 40
0.549525891
 40
0.6898605051
 40
0.8401051331
 40
1.0
 40
1.0
 40
1.0
 40
1.0
 10
10.7008970675
 20
10.9680185691
 30
0.0
 10
10.7022105271
 20
10.9692872738
 30
0.0
 10
10.7051447907
 20
10.9717936958
 30
0.0
 10
10.7101214632
 20
10.9752969679
 30
0.0
 10
10.7158761466
 20
10.9787211325
 30
0.0
 10
10.7223896786
 20
10.9820517896
 30
0.0
 10
10.7296407394
 20
10.9852773219
 30
0.0
 10
10.7376045365
 20
10.9883887316
 30
0.0
 10
10.7462555324
 20
10.9913756661
 30
0.0
 10
10.7522802345
 20
10.9932208312
 30
0.0
 10
10.7553997262
 20
10.9941246881
 30
0.0
  0
SPLINE
  5
315
100
AcDbEntity
  8
0
100
AcDbSpline
 62
7
  6
CONTINUOUS
 70
0
 71
3
 72
15
 73
11
 74
0
 42
0.0000001
 43
0.0000001
 44
0.0000000001
 40
0.0
 40
0.0
 40
0.0
 40
0.0
 40
0.1622967315
 40
0.3142934846
 40
0.4556358964
 40
0.5861031128
 40
0.7056160733
 40
0.8142148679
 40
0.9121492663
 40
1.0
 40
1.0
 40
1.0
 40
1.0
 10
11.1249378741
 20
10.9940920125
 30
0.0
 10
11.1282082621
 20
10.9931428045
 30
0.0
 10
11.134512872
 20
10.9912034601
 30
0.0
 10
11.1435422484
 20
10.9880545569
 30
0.0
 10
11.1518088176
 20
10.9847690041
 30
0.0
 10
11.1592824291
 20
10.9813590039
 30
0.0
 10
11.1659373527
 20
10.9778383851
 30
0.0
 10
11.1717506166
 20
10.9742182202
 30
0.0
 10
11.1767002097
 20
10.9705091272
 30
0.0
 10
11.1795627307
 20
10.9678464995
 30
0.0
 10
11.1808215876
 20
10.9664999993
 30
0.0
  0
SPLINE
  5
316
100
AcDbEntity
  8
0
100
AcDbSpline
 62
7
  6
CONTINUOUS
 70
0
 71
3
 72
11
 73
7
 74
0
 42
0.0000001
 43
0.0000001
 44
0.0000000001
 40
0.0
 40
0.0
 40
0.0
 40
0.0
 40
0.2842417896
 40
0.5403824531
 40
0.7757570965
 40
1.0
 40
1.0
 40
1.0
 40
1.0
 10
11.1186410927
 20
11.1918789541
 30
0.0
 10
11.1195008297
 20
11.1909873443
 30
0.0
 10
11.1210356361
 20
11.1891892128
 30
0.0
 10
11.1227976776
 20
11.1862836146
 30
0.0
 10
11.1238709911
 20
11.183331167
 30
0.0
 10
11.1241135694
 20
11.1813210498
 30
0.0
 10
11.1241128361
 20
11.1803439032
 30
0.0
  0
SPLINE
  5
317
100
AcDbEntity
  8
0
100
AcDbSpline
 62
7
  6
CONTINUOUS
 70
0
 71
3
 72
12
 73
8
 74
0
 42
0.0000001
 43
0.0000001
 44
0.0000000001
 40
0.0
 40
0.0
 40
0.0
 40
0.0
 40
0.2873512618
 40
0.5443085362
 40
0.7782937686
 40
0.8899805628
 40
1.0
 40
1.0
 40
1.0
 40
1.0
 10
11.1178429228
 20
11.2047328938
 30
0.0
 10
11.118820292
 20
11.20567696
 30
0.0
 10
11.1205659929
 20
11.2075830634
 30
0.0
 10
11.1225873325
 20
11.2106814545
 30
0.0
 10
11.1236367937
 20
11.213359674
 30
0.0
 10
11.1240448392
 20
11.2154804666
 30
0.0
 10
11.1241125171
 20
11.2165301078
 30
0.0
 10
11.1241128514
 20
11.217050382
 30
0.0
  0
SPLINE
  5
318
100
AcDbEntity
  8
0
100
AcDbSpline
 62
7
  6
CONTINUOUS
 70
0
 71
3
 72
13
 73
9
 74
0
 42
0.0000001
 43
0.0000001
 44
0.0000000001
 40
0.0
 40
0.0
 40
0.0
 40
0.0
 40
0.2823245124
 40
0.5452107505
 40
0.6682971541
 40
0.7852860773
 40
0.8959078516
 40
1.0
 40
1.0
 40
1.0
 40
1.0
 10
10.6266977665
 20
10.7315586292
 30
0.0
 10
10.6295527596
 20
10.7257250971
 30
0.0
 10
10.6352431675
 20
10.7145447581
 30
0.0
 10
10.6428155814
 20
10.7011560891
 30
0.0
 10
10.6489754774
 20
10.6913594214
 30
0.0
 10
10.6535165228
 20
10.6846886355
 30
0.0
 10
10.6580762628
 20
10.6785671874
 30
0.0
 10
10.6612218077
 20
10.6747551418
 30
0.0
 10
10.6628011288
 20
10.672955217
 30
0.0
  0
SPLINE
  5
319
100
AcDbEntity
  8
0
100
AcDbSpline
 62
7
  6
CONTINUOUS
 70
0
 71
3
 72
10
 73
6
 74
0
 42
0.0000001
 43
0.0000001
 44
0.0000000001
 40
0.0
 40
0.0
 40
0.0
 40
0.0
 40
0.2812274414
 40
0.6619223112
 40
1.0
 40
1.0
 40
1.0
 40
1.0
 10
10.6628011288
 20
10.672955217
 30
0.0
 10
10.6645832082
 20
10.6709242123
 30
0.0
 10
10.6689428013
 20
10.666285877
 30
0.0
 10
10.6762249229
 20
10.6599722507
 30
0.0
 10
10.6821286841
 20
10.6563110063
 30
0.0
 10
10.685041541
 20
10.654873609
 30
0.0
  0
SPLINE
  5
31A
100
AcDbEntity
  8
0
100
AcDbSpline
 62
7
  6
CONTINUOUS
 70
0
 71
3
 72
9
 73
5
 74
0
 42
0.0000001
 43
0.0000001
 44
0.0000000001
 40
0.0
 40
0.0
 40
0.0
 40
0.0
 40
0.5216818461
 40
1.0
 40
1.0
 40
1.0
 40
1.0
 10
11.2416511661
 20
10.6803827588
 30
0.0
 10
11.2435093404
 20
10.6791451869
 30
0.0
 10
11.2469962714
 20
10.6766571204
 30
0.0
 10
11.2502750929
 20
10.6738968112
 30
0.0
 10
11.2517737007
 20
10.6725024027
 30
0.0
  0
SPLINE
  5
31B
100
AcDbEntity
  8
0
100
AcDbSpline
 62
7
  6
CONTINUOUS
 70
0
 71
3
 72
18
 73
14
 74
0
 42
0.0000001
 43
0.0000001
 44
0.0000000001
 40
0.0
 40
0.0
 40
0.0
 40
0.0
 40
0.1599552401
 40
0.3111326467
 40
0.4524918517
 40
0.5832092464
 40
0.6444263162
 40
0.7028712828
 40
0.8115487142
 40
0.862017487
 40
0.9101145284
 40
0.9560313144
 40
1.0
 40
1.0
 40
1.0
 40
1.0
 10
10.4609771859
 20
10.1089008985
 30
0.0
 10
10.4642362807
 20
10.1151853893
 30
0.0
 10
10.470747166
 20
10.1273220288
 30
0.0
 10
10.480847201
 20
10.1446213006
 30
0.0
 10
10.4910238818
 20
10.1603572391
 30
0.0
 10
10.499739225
 20
10.1722727759
 30
0.0
 10
10.5067750681
 20
10.1808378033
 30
0.0
 10
10.513503813
 20
10.1883798513
 30
0.0
 10
10.5203937398
 20
10.1951367429
 30
0.0
 10
10.5274710077
 20
10.2009784059
 30
0.0
 10
10.532642622
 20
10.2047467282
 30
0.0
 10
10.5378068187
 20
10.2080145372
 30
0.0
 10
10.5413130075
 20
10.2099025675
 30
0.0
 10
10.5430594784
 20
10.2107608373
 30
0.0
  0
SPLINE
  5
31C
100
AcDbEntity
  8
0
100
AcDbSpline
 62
7
  6
CONTINUOUS
 70
0
 71
3
 72
9
 73
5
 74
0
 42
0.0000001
 43
0.0000001
 44
0.0000000001
 40
0.0
 40
0.0
 40
0.0
 40
0.0
 40
0.5271976036
 40
1.0
 40
1.0
 40
1.0
 40
1.0
 10
11.4039186981
 20
10.1742942302
 30
0.0
 10
11.4068848087
 20
10.1719961242
 30
0.0
 10
11.4123172369
 20
10.16737616
 30
0.0
 10
11.4171651074
 20
10.1621303613
 30
0.0
 10
11.4192479346
 20
10.1594873501
 30
0.0
  0
SPLINE
  5
31D
100
AcDbEntity
  8
0
100
AcDbSpline
 62
7
  6
CONTINUOUS
 70
0
 71
3
 72
9
 73
5
 74
0
 42
0.0000001
 43
0.0000001
 44
0.0000000001
 40
0.0
 40
0.0
 40
0.0
 40
0.0
 40
0.2384461001
 40
1.0
 40
1.0
 40
1.0
 40
1.0
 10
10.4609771859
 20
9.7491550034
 30
0.0
 10
10.4615565944
 20
9.7484197609
 30
0.0
 10
10.4640546247
 20
9.7453900692
 30
0.0
 10
10.4668051124
 20
9.7425727346
 30
0.0
 10
10.4689937666
 20
9.7405359639
 30
0.0
  0
SPLINE
  5
31E
100
AcDbEntity
  8
0
100
AcDbSpline
 62
7
  6
CONTINUOUS
 70
0
 71
3
 72
9
 73
5
 74
0
 42
0.0000001
 43
0.0000001
 44
0.0000000001
 40
0.0
 40
0.0
 40
0.0
 40
0.0
 40
0.5260945944
 40
1.0
 40
1.0
 40
1.0
 40
1.0
 10
11.3530458754
 20
9.5453815857
 30
0.0
 10
11.3551548306
 20
9.5474186801
 30
0.0
 10
11.3589497754
 20
9.551523914
 30
0.0
 10
11.3621002358
 20
9.5561579647
 30
0.0
 10
11.3633704916
 20
9.5584737257
 30
0.0
  0
SPLINE
  5
31F
100
AcDbEntity
  8
0
100
AcDbSpline
 62
7
  6
CONTINUOUS
 70
0
 71
3
 72
11
 73
7
 74
0
 42
0.0000001
 43
0.0000001
 44
0.0000000001
 40
0.0
 40
0.0
 40
0.0
 40
0.0
 40
0.2636815526
 40
0.515854445
 40
0.7599908367
 40
1.0
 40
1.0
 40
1.0
 40
1.0
 10
11.3633704916
 20
9.5584737257
 30
0.0
 10
11.3640584928
 20
9.5597279978
 30
0.0
 10
11.3652784389
 20
9.5622544357
 30
0.0
 10
11.3666236855
 20
9.5661629326
 30
0.0
 10
11.3674322707
 20
9.5700864051
 30
0.0
 10
11.3676125921
 20
9.5727164656
 30
0.0
 10
11.367612557
 20
9.5740186084
 30
0.0
  0
SPLINE
  5
320
100
AcDbEntity
  8
0
100
AcDbSpline
 62
7
  6
CONTINUOUS
 70
0
 71
3
 72
10
 73
6
 74
0
 42
0.0000001
 43
0.0000001
 44
0.0000000001
 40
0.0
 40
0.0
 40
0.0
 40
0.0
 40
0.2415601822
 40
0.4866587845
 40
1.0
 40
1.0
 40
1.0
 40
1.0
 10
10.6691124064
 20
10.8857459582
 30
0.0
 10
10.6691124766
 20
10.8849793922
 30
0.0
 10
10.6692112134
 20
10.8834330831
 30
0.0
 10
10.6698077299
 20
10.8803101278
 30
0.0
 10
10.6706922345
 20
10.8780427314
 30
0.0
 10
10.6714310106
 20
10.8765908484
 30
0.0
  0
SPLINE
  5
321
100
AcDbEntity
  8
0
100
AcDbSpline
 62
7
  6
CONTINUOUS
 70
0
 71
3
 72
9
 73
5
 74
0
 42
0.0000001
 43
0.0000001
 44
0.0000000001
 40
0.0
 40
0.0
 40
0.0
 40
0.0
 40
0.4726236204
 40
1.0
 40
1.0
 40
1.0
 40
1.0
 10
10.6714310106
 20
10.8765908484
 30
0.0
 10
10.6722171068
 20
10.8750459693
 30
0.0
 10
10.67422276
 20
10.8719476337
 30
0.0
 10
10.6766906209
 20
10.8692172855
 30
0.0
 10
10.6780708232
 20
10.86786225
 30
0.0
  0
SPLINE
  5
322
100
AcDbEntity
  8
0
100
AcDbSpline
 62
7
  6
CONTINUOUS
 70
0
 71
3
 72
15
 73
11
 74
0
 42
0.0000001
 43
0.0000001
 44
0.0000000001
 40
0.0
 40
0.0
 40
0.0
 40
0.0
 40
0.1201479955
 40
0.2413653272
 40
0.3644023025
 40
0.4896181322
 40
0.6162466771
 40
0.7435146583
 40
0.871312601
 40
1.0
 40
1.0
 40
1.0
 40
1.0
 10
10.6994016693
 20
10.9665001186
 30
0.0
 10
10.6971380462
 20
10.964078288
 30
0.0
 10
10.6927835699
 20
10.9590278994
 30
0.0
 10
10.6868867763
 20
10.9508689627
 30
0.0
 10
10.6816810534
 20
10.9420872381
 30
0.0
 10
10.6772504191
 20
10.9327244099
 30
0.0
 10
10.6736710724
 20
10.9228789646
 30
0.0
 10
10.6710539082
 20
10.9126596694
 30
0.0
 10
10.6694670651
 20
10.9021739613
 30
0.0
 10
10.6691125602
 20
10.8950921285
 30
0.0
 10
10.6691125602
 20
10.8915415135
 30
0.0
  0
SPLINE
  5
323
100
AcDbEntity
  8
0
100
AcDbSpline
 62
7
  6
CONTINUOUS
 70
0
 71
3
 72
15
 73
11
 74
0
 42
0.0000001
 43
0.0000001
 44
0.0000000001
 40
0.0
 40
0.0
 40
0.0
 40
0.0
 40
0.1286897306
 40
0.2564775125
 40
0.383743583
 40
0.5103755693
 40
0.6355889953
 40
0.7586170111
 40
0.8798348038
 40
1.0
 40
1.0
 40
1.0
 40
1.0
 10
11.2111125602
 20
10.8915415135
 30
0.0
 10
11.2111125602
 20
10.8950921931
 30
0.0
 10
11.2107582506
 20
10.9021738151
 30
0.0
 10
11.2091714494
 20
10.9126592801
 30
0.0
 10
11.2065538444
 20
10.9228782123
 30
0.0
 10
11.2029747279
 20
10.9327236912
 30
0.0
 10
11.1985446104
 20
10.9420865294
 30
0.0
 10
11.1933391553
 20
10.9508680719
 30
0.0
 10
11.1874422378
 20
10.95902722
 30
0.0
 10
11.1830873985
 20
10.9640779411
 30
0.0
 10
11.1808234511
 20
10.9665001186
 30
0.0
  0
SPLINE
  5
324
100
AcDbEntity
  8
0
100
AcDbSpline
 62
7
  6
CONTINUOUS
 70
0
 71
3
 72
9
 73
5
 74
0
 42
0.0000001
 43
0.0000001
 44
0.0000000001
 40
0.0
 40
0.0
 40
0.0
 40
0.0
 40
0.4771389502
 40
1.0
 40
1.0
 40
1.0
 40
1.0
 10
10.7474353333
 20
10.9375516832
 30
0.0
 10
10.7484193074
 20
10.9366364164
 30
0.0
 10
10.7505830716
 20
10.9348261584
 30
0.0
 10
10.752888871
 20
10.933203852
 30
0.0
 10
10.7541209666
 20
10.9323972864
 30
0.0
  0
SPLINE
  5
325
100
AcDbEntity
  8
0
100
AcDbSpline
 62
7
  6
CONTINUOUS
 70
0
 71
3
 72
32
 73
28
 74
0
 42
0.0000001
 43
0.0000001
 44
0.0000000001
 40
0.0
 40
0.0
 40
0.0
 40
0.0
 40
0.0183162172
 40
0.0388073947
 40
0.0614657233
 40
0.0862434232
 40
0.1130552625
 40
0.1418010421
 40
0.172356446
 40
0.2045777465
 40
0.2383144276
 40
0.2733981575
 40
0.3468860271
 40
0.4235415422
 40
0.5017701987
 40
0.5799323074
 40
0.6563926819
 40
0.7295612309
 40
0.7979374703
 40
0.8299039884
 40
0.8601773672
 40
0.8886232825
 40
0.9151174417
 40
0.9395567686
 40
0.961873949
 40
0.9820241127
 40
1.0
 40
1.0
 40
1.0
 40
1.0
 10
10.7541209666
 20
10.9323972864
 30
0.0
 10
10.7560742265
 20
10.9311186258
 30
0.0
 10
10.7603563536
 20
10.9286270318
 30
0.0
 10
10.7674191669
 20
10.9252239093
 30
0.0
 10
10.7754458362
 20
10.9219652719
 30
0.0
 10
10.7843926763
 20
10.9188700702
 30
0.0
 10
10.7942109901
 20
10.9159534821
 30
0.0
 10
10.8048471552
 20
10.9132343669
 30
0.0
 10
10.816241999
 20
10.9107276121
 30
0.0
 10
10.8283318294
 20
10.9084464266
 30
0.0
 10
10.8410493275
 20
10.9064057715
 30
0.0
 10
10.8590267132
 20
10.9039821116
 30
0.0
 10
10.8825294204
 20
10.9016575708
 30
0.0
 10
10.9115977617
 20
10.9000001666
 30
0.0
 10
10.9413044785
 20
10.8994744412
 30
0.0
 10
10.9709843737
 20
10.900091866
 30
0.0
 10
10.9999739379
 20
10.901837554
 30
0.0
 10
11.0276242899
 20
10.9046710451
 30
0.0
 10
11.0495059503
 20
10.9079522763
 30
0.0
 10
11.0658535747
 20
10.911112807
 30
0.0
 10
11.0771312115
 20
10.9136557642
 30
0.0
 10
11.0876405409
 20
10.9164074725
 30
0.0
 10
11.0973231969
 20
10.9193525539
 30
0.0
 10
11.1061256515
 20
10.9224759172
 30
0.0
 10
11.114001996
 20
10.9257585955
 30
0.0
 10
11.1209091351
 20
10.9291842607
 30
0.0
 10
11.1250803193
 20
10.9316937214
 30
0.0
 10
11.1269763544
 20
10.9329800308
 30
0.0
  0
SPLINE
  5
326
100
AcDbEntity
  8
0
100
AcDbSpline
 62
7
  6
CONTINUOUS
 70
0
 71
3
 72
9
 73
5
 74
0
 42
0.0000001
 43
0.0000001
 44
0.0000000001
 40
0.0
 40
0.0
 40
0.0
 40
0.0
 40
0.5205655444
 40
1.0
 40
1.0
 40
1.0
 40
1.0
 10
11.1269763544
 20
10.9329800308
 30
0.0
 10
11.1280394754
 20
10.933701274
 30
0.0
 10
11.1300397212
 20
10.9351503061
 30
0.0
 10
11.1319259076
 20
10.9367468491
 30
0.0
 10
11.1327923493
 20
10.9375525746
 30
0.0
  0
SPLINE
  5
327
100
AcDbEntity
  8
0
100
AcDbSpline
 62
7
  6
CONTINUOUS
 70
0
 71
3
 72
11
 73
7
 74
0
 42
0.0000001
 43
0.0000001
 44
0.0000000001
 40
0.0
 40
0.0
 40
0.0
 40
0.0
 40
0.2228828912
 40
0.4577557899
 40
0.7143972687
 40
1.0
 40
1.0
 40
1.0
 40
1.0
 10
10.7561122843
 20
11.1803628022
 30
0.0
 10
10.7561130423
 20
11.1813728336
 30
0.0
 10
10.7563770362
 20
11.1834548693
 30
0.0
 10
10.7575323009
 20
11.1865053723
 30
0.0
 10
10.7594168326
 20
11.1895024993
 30
0.0
 10
10.7610498649
 20
11.1913517873
 30
0.0
 10
10.7619641786
 20
11.1922678292
 30
0.0
  0
SPLINE
  5
328
100
AcDbEntity
  8
0
100
AcDbSpline
 62
7
  6
CONTINUOUS
 70
0
 71
3
 72
10
 73
6
 74
0
 42
0.0000001
 43
0.0000001
 44
0.0000000001
 40
0.0
 40
0.0
 40
0.0
 40
0.0
 40
0.247787662
 40
0.6243214063
 40
1.0
 40
1.0
 40
1.0
 40
1.0
 10
10.7620163872
 20
11.2058436181
 30
0.0
 10
10.7617438156
 20
11.2047761784
 30
0.0
 10
10.7612219983
 20
11.2020422714
 30
0.0
 10
10.761035373
 20
11.1975791759
 30
0.0
 10
10.7614432007
 20
11.1942417405
 30
0.0
 10
10.761787013
 20
11.1926072003
 30
0.0
  0
SPLINE
  5
329
100
AcDbEntity
  8
0
100
AcDbSpline
 62
7
  6
CONTINUOUS
 70
0
 71
3
 72
32
 73
28
 74
0
 42
0.0000001
 43
0.0000001
 44
0.0000000001
 40
0.0
 40
0.0
 40
0.0
 40
0.0
 40
0.0107403801
 40
0.0213203848
 40
0.0420994718
 40
0.0624246512
 40
0.0828572279
 40
0.0933108332
 40
0.1039931837
 40
0.1261903511
 40
0.1497191224
 40
0.1747756392
 40
0.2014197032
 40
0.2296646432
 40
0.2594985623
 40
0.2908415394
 40
0.3576306568
 40
0.4290286301
 40
0.5037734579
 40
0.5804518932
 40
0.6575757336
 40
0.7336319839
 40
0.8071590684
 40
0.8767949263
 40
0.9413633496
 40
0.9714644669
 40
1.0
 40
1.0
 40
1.0
 40
1.0
 10
10.7621837282
 20
11.1909639731
 30
0.0
 10
10.7624865916
 20
11.1898562573
 30
0.0
 10
10.7632256244
 20
11.1876926643
 30
0.0
 10
10.7651638047
 20
11.18362148
 30
0.0
 10
10.768293487
 20
11.1790249185
 30
0.0
 10
10.7728420751
 20
11.1742393119
 30
0.0
 10
10.7771444722
 20
11.1708281043
 30
0.0
 10
10.7808332444
 20
11.1683471959
 30
0.0
 10
10.7847897507
 20
11.1659333868
 30
0.0
 10
10.7901317974
 20
11.1631197379
 30
0.0
 10
10.7970593885
 20
11.1600613314
 30
0.0
 10
10.8045905093
 20
11.1572260856
 30
0.0
 10
10.8127272135
 20
11.154597901
 30
0.0
 10
10.8214565938
 20
11.1521695549
 30
0.0
 10
10.8307549645
 20
11.1499359321
 30
0.0
 10
10.8441551317
 20
11.1471626136
 30
0.0
 10
10.8620576354
 20
11.1442638511
 30
0.0
 10
10.8846872073
 20
11.1417023647
 30
0.0
 10
10.908459839
 20
11.1400346271
 30
0.0
 10
10.9328910628
 20
11.1392896087
 30
0.0
 10
10.9574730841
 20
11.1394838099
 30
0.0
 10
10.9816927579
 20
11.140613213
 30
0.0
 10
11.0050500746
 20
11.1426541817
 30
0.0
 10
11.0270761241
 20
11.1455722947
 30
0.0
 10
11.0443624533
 20
11.148762922
 30
0.0
 10
11.0571906723
 20
11.151766905
 30
0.0
 10
11.0632430786
 20
11.1534092097
 30
0.0
 10
11.0661707533
 20
11.1542680612
 30
0.0
  0
SPLINE
  5
32A
100
AcDbEntity
  8
0
100
AcDbSpline
 62
7
  6
CONTINUOUS
 70
0
 71
3
 72
12
 73
8
 74
0
 42
0.0000001
 43
0.0000001
 44
0.0000000001
 40
0.0
 40
0.0
 40
0.0
 40
0.0
 40
0.1100240407
 40
0.2217093667
 40
0.4556837812
 40
0.7126357676
 40
1.0
 40
1.0
 40
1.0
 40
1.0
 10
10.756112212
 20
11.4092777871
 30
0.0
 10
10.7561122048
 20
11.4097983815
 30
0.0
 10
10.7561792727
 20
11.4108486858
 30
0.0
 10
10.7565864431
 20
11.4129708791
 30
0.0
 10
10.7576355515
 20
11.415650971
 30
0.0
 10
10.7596575552
 20
11.4187514831
 30
0.0
 10
10.7614042239
 20
11.4206587794
 30
0.0
 10
10.7623821976
 20
11.4216034296
 30
0.0
  0
SPLINE
  5
32B
100
AcDbEntity
  8
0
100
AcDbSpline
 62
7
  6
CONTINUOUS
 70
0
 71
3
 72
17
 73
13
 74
0
 42
0.0000001
 43
0.0000001
 44
0.0000000001
 40
0.0
 40
0.0
 40
0.0
 40
0.0
 40
0.0394995817
 40
0.0798387137
 40
0.1659383534
 40
0.2131608157
 40
0.2637705049
 40
0.3763773526
 40
0.505706929
 40
0.6526926732
 40
0.8175346022
 40
1.0
 40
1.0
 40
1.0
 40
1.0
 10
10.756112269
 20
11.2170666906
 30
0.0
 10
10.7561118636
 20
11.2164356804
 30
0.0
 10
10.7562102168
 20
11.2151580154
 30
0.0
 10
10.7568106239
 20
11.212567529
 30
0.0
 10
10.7580214645
 20
11.2100307829
 30
0.0
 10
10.7597109047
 20
11.2076236122
 30
0.0
 10
10.7619088468
 20
11.2050726627
 30
0.0
 10
10.7654148057
 20
11.2019531377
 30
0.0
 10
10.7705521189
 20
11.1984385048
 30
0.0
 10
10.7767386827
 20
11.1950439664
 30
0.0
 10
10.7839376872
 20
11.1917852455
 30
0.0
 10
10.7891275384
 20
11.1898136839
 30
0.0
 10
10.7918771163
 20
11.1888459568
 30
0.0
  0
SPLINE
  5
32C
100
AcDbEntity
  8
0
100
AcDbSpline
 62
7
  6
CONTINUOUS
 70
0
 71
3
 72
23
 73
19
 74
0
 42
0.0000001
 43
0.0000001
 44
0.0000000001
 40
0.0
 40
0.0
 40
0.0
 40
0.0
 40
0.0477812065
 40
0.1009895471
 40
0.1590815911
 40
0.2213923773
 40
0.2871947826
 40
0.3556861579
 40
0.4260299889
 40
0.4973507705
 40
0.5687632446
 40
0.6393771374
 40
0.708316479
 40
0.774731478
 40
0.8378153873
 40
0.8968219632
 40
0.9510773837
 40
1.0
 40
1.0
 40
1.0
 40
1.0
 10
10.7918771163
 20
11.1888459568
 30
0.0
 10
10.7963457794
 20
11.1872731896
 30
0.0
 10
10.8059236252
 20
11.1843232749
 30
0.0
 10
10.8212493188
 20
11.1805686676
 30
0.0
 10
10.838153432
 20
11.177290682
 30
0.0
 10
10.8564121704
 20
11.1745301752
 30
0.0
 10
10.8757843239
 20
11.1723295727
 30
0.0
 10
10.8960127294
 20
11.1707153688
 30
0.0
 10
10.9168282134
 20
11.169713233
 30
0.0
 10
10.9379538776
 20
11.169333789
 30
0.0
 10
10.9591082268
 20
11.169585032
 30
0.0
 10
10.980009709
 20
11.1704610644
 30
0.0
 10
11.000379792
 20
11.1719520602
 30
0.0
 10
11.0199476209
 20
11.1740354638
 30
0.0
 10
11.0384531677
 20
11.1766842782
 30
0.0
 10
11.0556521331
 20
11.1798609149
 30
0.0
 10
11.0713161702
 20
11.1835221576
 30
0.0
 10
11.0811391356
 20
11.1864082871
 30
0.0
 10
11.0857382531
 20
11.1879496172
 30
0.0
  0
SPLINE
  5
32D
100
AcDbEntity
  8
0
100
AcDbSpline
 62
7
  6
CONTINUOUS
 70
0
 71
3
 72
14
 73
10
 74
0
 42
0.0000001
 43
0.0000001
 44
0.0000000001
 40
0.0
 40
0.0
 40
0.0
 40
0.0
 40
0.3040337172
 40
0.442667581
 40
0.5721935126
 40
0.6925787787
 40
0.8038834351
 40
0.9062618446
 40
1.0
 40
1.0
 40
1.0
 40
1.0
 10
11.0857382531
 20
11.1879496172
 30
0.0
 10
11.0892443618
 20
11.1891246406
 30
0.0
 10
11.0943039211
 20
11.1909820593
 30
0.0
 10
11.1006846177
 20
11.1937642443
 30
0.0
 10
11.1049299911
 20
11.1958440684
 30
0.0
 10
11.1087736669
 20
11.1979760667
 30
0.0
 10
11.1122070199
 20
11.2001540277
 30
0.0
 10
11.1152211521
 20
11.2023718125
 30
0.0
 10
11.1170229172
 20
11.2039408292
 30
0.0
 10
11.1178429228
 20
11.2047328938
 30
0.0
  0
SPLINE
  5
32E
100
AcDbEntity
  8
0
100
AcDbSpline
 62
7
  6
CONTINUOUS
 70
0
 71
3
 72
12
 73
8
 74
0
 42
0.0000001
 43
0.0000001
 44
0.0000000001
 40
0.0
 40
0.0
 40
0.0
 40
0.0
 40
0.2897930635
 40
0.5471313041
 40
0.7800006396
 40
0.8908553456
 40
1.0
 40
1.0
 40
1.0
 40
1.0
 10
11.1173826958
 20
11.4220381184
 30
0.0
 10
11.1184313116
 20
11.4210625031
 30
0.0
 10
11.1203040817
 20
11.4190961942
 30
0.0
 10
11.1224776757
 20
11.4158872189
 30
0.0
 10
11.1236045421
 20
11.4131066226
 30
0.0
 10
11.1240407901
 20
11.4109059181
 30
0.0
 10
11.1241129009
 20
11.4098172254
 30
0.0
 10
11.1241129084
 20
11.4092777871
 30
0.0
  0
SPLINE
  5
32F
100
AcDbEntity
  8
0
100
AcDbSpline
 62
7
  6
CONTINUOUS
 70
0
 71
3
 72
33
 73
29
 74
0
 42
0.0000001
 43
0.0000001
 44
0.0000000001
 40
0.0
 40
0.0
 40
0.0
 40
0.0
 40
0.0160415973
 40
0.0344659802
 40
0.0553356433
 40
0.0786441895
 40
0.1043326407
 40
0.1323140325
 40
0.1624603056
 40
0.1946119714
 40
0.2285983709
 40
0.2642238987
 40
0.3395466805
 40
0.418791588
 40
0.500029925
 40
0.5812662197
 40
0.6605085722
 40
0.7358296209
 40
0.7714513999
 40
0.8054345612
 40
0.8375838808
 40
0.8677222065
 40
0.8957014066
 40
0.9213878034
 40
0.9446858995
 40
0.9655441826
 40
0.9839546888
 40
1.0
 40
1.0
 40
1.0
 40
1.0
 10
10.7927137997
 20
11.4498380739
 30
0.0
 10
10.7939067953
 20
11.4509472949
 30
0.0
 10
10.7966685817
 20
11.4531183161
 30
0.0
 10
10.8014620831
 20
11.4560657631
 30
0.0
 10
10.8071581113
 20
11.4589044024
 30
0.0
 10
10.8137203765
 20
11.4616132912
 30
0.0
 10
10.8211082172
 20
11.4641786318
 30
0.0
 10
10.8292761273
 20
11.4665818125
 30
0.0
 10
10.8381716769
 20
11.4688079919
 30
0.0
 10
10.8477368921
 20
11.4708430047
 30
0.0
 10
10.857909451
 20
11.4726708887
 30
0.0
 10
10.8724655087
 20
11.4748580556
 30
0.0
 10
10.8916728303
 20
11.4769636708
 30
0.0
 10
10.9155775649
 20
11.4784821643
 30
0.0
 10
10.940125651
 20
11.4789922617
 30
0.0
 10
10.9646734392
 20
11.478480712
 30
0.0
 10
10.98857748
 20
11.4769615643
 30
0.0
 10
11.0077839223
 20
11.4748552809
 30
0.0
 10
11.0223389069
 20
11.4726668756
 30
0.0
 10
11.0325103424
 20
11.4708381878
 30
0.0
 10
11.0420743166
 20
11.4688039005
 30
0.0
 10
11.050968209
 20
11.4665762544
 30
0.0
 10
11.0591346463
 20
11.4641725559
 30
0.0
 10
11.066520957
 20
11.4616072347
 30
0.0
 10
11.073080045
 20
11.4588970848
 30
0.0
 10
11.0787732673
 20
11.4560610861
 30
0.0
 10
11.0835646675
 20
11.4531140795
 30
0.0
 10
11.0863238217
 20
11.4509414185
 30
0.0
 10
11.0875167427
 20
11.4498315635
 30
0.0
  0
SPLINE
  5
330
100
AcDbEntity
  8
0
100
AcDbSpline
 62
7
  6
CONTINUOUS
 70
0
 71
3
 72
32
 73
28
 74
0
 42
0.0000001
 43
0.0000001
 44
0.0000000001
 40
0.0
 40
0.0
 40
0.0
 40
0.0
 40
0.0134411726
 40
0.0290994848
 40
0.0472525781
 40
0.0680161724
 40
0.0914193895
 40
0.1174078895
 40
0.1458725467
 40
0.1766813316
 40
0.2096609783
 40
0.2446077022
 40
0.3195243184
 40
0.3994980782
 40
0.4824098798
 40
0.5660261258
 40
0.6480947045
 40
0.7264136345
 40
0.798918715
 40
0.8324111133
 40
0.8637795038
 40
0.8928404101
 40
0.919458768
 40
0.9435228605
 40
0.9649588588
 40
0.9837610363
 40
1.0
 40
1.0
 40
1.0
 40
1.0
 10
10.8413197746
 20
11.4352123366
 30
0.0
 10
10.8417916842
 20
11.4344333604
 30
0.0
 10
10.8430352584
 20
11.4328798204
 30
0.0
 10
10.845462608
 20
11.4307754198
 30
0.0
 10
10.8485576763
 20
11.4287364139
 30
0.0
 10
10.8523022592
 20
11.4267732903
 30
0.0
 10
10.8566753235
 20
11.4248996208
 30
0.0
 10
10.8616471229
 20
11.4231272549
 30
0.0
 10
10.8671832195
 20
11.4214678116
 30
0.0
 10
10.8732452857
 20
11.4199354699
 30
0.0
 10
10.8797899581
 20
11.418540605
 30
0.0
 10
10.8893193939
 20
11.4168373509
 30
0.0
 10
10.9020792708
 20
11.4151529534
 30
0.0
 10
10.9181452589
 20
11.4138457847
 30
0.0
 10
10.9348432455
 20
11.4132524847
 30
0.0
 10
10.951692794
 20
11.4133904833
 30
0.0
 10
10.968209641
 20
11.4142541434
 30
0.0
 10
10.9839186154
 20
11.415819139
 30
0.0
 10
10.9962715368
 20
11.4177131893
 30
0.0
 10
11.0053930223
 20
11.4195748715
 30
0.0
 10
11.0115797975
 20
11.4210737109
 30
0.0
 10
11.0172508416
 20
11.4227025144
 30
0.0
 10
11.0223672409
 20
11.42444813
 30
0.0
 10
11.0268938179
 20
11.4262984135
 30
0.0
 10
11.0307988431
 20
11.4282429058
 30
0.0
 10
11.0340559806
 20
11.4302631767
 30
0.0
 10
11.0359137183
 20
11.4317583078
 30
0.0
 10
11.0367051486
 20
11.4325227707
 30
0.0
  0
SPLINE
  5
331
100
AcDbEntity
  8
0
100
AcDbSpline
 62
7
  6
CONTINUOUS
 70
0
 71
3
 72
15
 73
11
 74
0
 42
0.0000001
 43
0.0000001
 44
0.0000000001
 40
0.0
 40
0.0
 40
0.0
 40
0.0
 40
0.0866924773
 40
0.1857932671
 40
0.2971180556
 40
0.4198356505
 40
0.5527914465
 40
0.6946351292
 40
0.8440946367
 40
1.0
 40
1.0
 40
1.0
 40
1.0
 10
11.21084975
 20
10.869478915
 30
0.0
 10
11.2128421474
 20
10.8676241867
 30
0.0
 10
11.216795337
 20
10.8633059756
 30
0.0
 10
11.2222842208
 20
10.8557470565
 30
0.0
 10
11.2277182872
 20
10.846798032
 30
0.0
 10
11.2330753464
 20
10.8365893633
 30
0.0
 10
11.2383476058
 20
10.8252719348
 30
0.0
 10
11.2435319384
 20
10.8129983157
 30
0.0
 10
11.2486244257
 20
10.7999107387
 30
0.0
 10
11.2518973925
 20
10.7908976566
 30
0.0
 10
11.2535273539
 20
10.7862816903
 30
0.0
  0
SPLINE
  5
332
100
AcDbEntity
  8
0
100
AcDbSpline
 62
7
  6
CONTINUOUS
 70
0
 71
3
 72
9
 73
5
 74
0
 42
0.0000001
 43
0.0000001
 44
0.0000000001
 40
0.0
 40
0.0
 40
0.0
 40
0.0
 40
0.4953603871
 40
1.0
 40
1.0
 40
1.0
 40
1.0
 10
11.2011583394
 20
10.6578251597
 30
0.0
 10
11.2086814168
 20
10.6615488859
 30
0.0
 10
11.2236365777
 20
10.6695402515
 30
0.0
 10
11.2381558984
 20
10.6782903299
 30
0.0
 10
11.2453858897
 20
10.6828570179
 30
0.0
  0
SPLINE
  5
333
100
AcDbEntity
  8
0
100
AcDbSpline
 62
7
  6
CONTINUOUS
 70
0
 71
3
 72
9
 73
5
 74
0
 42
0.0000001
 43
0.0000001
 44
0.0000000001
 40
0.0
 40
0.0
 40
0.0
 40
0.0
 40
0.493519834
 40
1.0
 40
1.0
 40
1.0
 40
1.0
 10
10.5126125634
 20
9.5547000907
 30
0.0
 10
10.5126125198
 20
9.5563170975
 30
0.0
 10
10.5128927796
 20
9.5595993039
 30
0.0
 10
10.5137122142
 20
9.5627877573
 30
0.0
 10
10.5142447495
 20
9.5643594602
 30
0.0
  0
SPLINE
  5
334
100
AcDbEntity
  8
0
100
AcDbSpline
 62
7
  6
CONTINUOUS
 70
0
 71
3
 72
13
 73
9
 74
0
 42
0.0000001
 43
0.0000001
 44
0.0000000001
 40
0.0
 40
0.0
 40
0.0
 40
0.0
 40
0.2896577938
 40
0.54690939
 40
0.6659283285
 40
0.7801043755
 40
0.8909164426
 40
1.0
 40
1.0
 40
1.0
 40
1.0
 10
11.2999538536
 20
10.6276659914
 30
0.0
 10
11.3020819961
 20
10.6256857503
 30
0.0
 10
11.3058820672
 20
10.6216964428
 30
0.0
 10
11.3096504302
 20
10.6161242321
 30
0.0
 10
11.3117251892
 20
10.6116505456
 30
0.0
 10
11.3128122329
 20
10.6083649192
 30
0.0
 10
11.3134666643
 20
10.6050680049
 30
0.0
 10
11.3136125965
 20
10.6028584893
 30
0.0
 10
11.3136124543
 20
10.6017637485
 30
0.0
  0
SPLINE
  5
335
100
AcDbEntity
  8
0
100
AcDbSpline
 62
7
  6
CONTINUOUS
 70
0
 71
3
 72
11
 73
7
 74
0
 42
0.0000001
 43
0.0000001
 44
0.0000000001
 40
0.0
 40
0.0
 40
0.0
 40
0.0
 40
0.2199283841
 40
0.4594886952
 40
0.7193740721
 40
1.0
 40
1.0
 40
1.0
 40
1.0
 10
10.6284386244
 20
10.6724911096
 30
0.0
 10
10.6299166345
 20
10.6738666605
 30
0.0
 10
10.6331468655
 20
10.6765895259
 30
0.0
 10
10.638520204
 20
10.6804382768
 30
0.0
 10
10.6446108367
 20
10.684214007
 30
0.0
 10
10.6489728985
 20
10.686585169
 30
0.0
 10
10.6512650052
 20
10.687761447
 30
0.0
  0
SPLINE
  5
336
100
AcDbEntity
  8
0
100
AcDbSpline
 62
7
  6
CONTINUOUS
 70
0
 71
3
 72
13
 73
9
 74
0
 42
0.0000001
 43
0.0000001
 44
0.0000000001
 40
0.0
 40
0.0
 40
0.0
 40
0.0
 40
0.1090848757
 40
0.2198961709
 40
0.3340672584
 40
0.453080713
 40
0.7103474673
 40
1.0
 40
1.0
 40
1.0
 40
1.0
 10
10.5666126661
 20
10.6017637485
 30
0.0
 10
10.5666128083
 20
10.6028585021
 30
0.0
 10
10.5667591591
 20
10.6050679668
 30
0.0
 10
10.5674132738
 20
10.6083648714
 30
0.0
 10
10.5684997591
 20
10.611650557
 30
0.0
 10
10.5705739622
 20
10.6161245978
 30
0.0
 10
10.5743437103
 20
10.6216959926
 30
0.0
 10
10.5781434313
 20
10.6256856067
 30
0.0
 10
10.5802713737
 20
10.6276659837
 30
0.0
  0
SPLINE
  5
337
100
AcDbEntity
  8
0
100
AcDbSpline
 62
7
  6
CONTINUOUS
 70
0
 71
3
 72
11
 73
7
 74
0
 42
0.0000001
 43
0.0000001
 44
0.0000000001
 40
0.0
 40
0.0
 40
0.0
 40
0.0
 40
0.2385726038
 40
0.4802198836
 40
0.7322606703
 40
1.0
 40
1.0
 40
1.0
 40
1.0
 10
10.5666125602
 20
10.5525015284
 30
0.0
 10
10.5666125602
 20
10.5504228766
 30
0.0
 10
10.56705761
 20
10.5462261565
 30
0.0
 10
10.5690122415
 20
10.540113371
 30
0.0
 10
10.5721433668
 20
10.5342306678
 30
0.0
 10
10.5748628844
 20
10.530588314
 30
0.0
 10
10.5763710798
 20
10.5288086515
 30
0.0
  0
SPLINE
  5
338
100
AcDbEntity
  8
0
100
AcDbSpline
 62
7
  6
CONTINUOUS
 70
0
 71
3
 72
9
 73
5
 74
0
 42
0.0000001
 43
0.0000001
 44
0.0000000001
 40
0.0
 40
0.0
 40
0.0
 40
0.0
 40
0.4789075422
 40
1.0
 40
1.0
 40
1.0
 40
1.0
 10
10.5763710798
 20
10.5288086515
 30
0.0
 10
10.5780908806
 20
10.5267792959
 30
0.0
 10
10.5819817361
 20
10.5227922369
 30
0.0
 10
10.5862815084
 20
10.519261317
 30
0.0
 10
10.5885940642
 20
10.517520749
 30
0.0
  0
SPLINE
  5
339
100
AcDbEntity
  8
0
100
AcDbSpline
 62
7
  6
CONTINUOUS
 70
0
 71
3
 72
19
 73
15
 74
0
 42
0.0000001
 43
0.0000001
 44
0.0000000001
 40
0.0
 40
0.0
 40
0.0
 40
0.0
 40
0.0384543876
 40
0.0803323066
 40
0.1257470124
 40
0.1747535568
 40
0.2273143581
 40
0.2833506426
 40
0.3427620785
 40
0.4054065701
 40
0.5397259259
 40
0.6848114205
 40
0.8388918897
 40
1.0
 40
1.0
 40
1.0
 40
1.0
 10
10.5905604068
 20
10.5160765311
 30
0.0
 10
10.5932889666
 20
10.5141200028
 30
0.0
 10
10.5991763911
 20
10.5102911167
 30
0.0
 10
10.6087942736
 20
10.5049810561
 30
0.0
 10
10.6195458192
 20
10.4998647441
 30
0.0
 10
10.6314037137
 20
10.4949450592
 30
0.0
 10
10.6443355215
 20
10.4902301708
 30
0.0
 10
10.658301503
 20
10.4857327049
 30
0.0
 10
10.6732571744
 20
10.4814664607
 30
0.0
 10
10.6949604467
 20
10.4759741356
 30
0.0
 10
10.7242042246
 20
10.4698468205
 30
0.0
 10
10.7615703839
 20
10.463758087
 30
0.0
 10
10.8014677484
 20
10.4588620876
 30
0.0
 10
10.8288905495
 20
10.4564805004
 30
0.0
 10
10.8429224345
 20
10.4554915122
 30
0.0
  0
SPLINE
  5
33A
100
AcDbEntity
  8
0
100
AcDbSpline
 62
7
  6
CONTINUOUS
 70
0
 71
3
 72
22
 73
18
 74
0
 42
0.0000001
 43
0.0000001
 44
0.0000000001
 40
0.0
 40
0.0
 40
0.0
 40
0.0
 40
0.1438044883
 40
0.2167761149
 40
0.2897850835
 40
0.3623269077
 40
0.4338998988
 40
0.5040127267
 40
0.5721887983
 40
0.6379689849
 40
0.7009217296
 40
0.7606425478
 40
0.8167758079
 40
0.8689989097
 40
0.9170470899
 40
0.9607235883
 40
1.0
 40
1.0
 40
1.0
 40
1.0
 10
10.8429224345
 20
10.4554915122
 30
0.0
 10
10.8638487664
 20
10.4540165929
 30
0.0
 10
10.8954530968
 20
10.4525530482
 30
0.0
 10
10.9377256763
 20
10.4520100294
 30
0.0
 10
10.9696053042
 20
10.4523125397
 30
0.0
 10
11.0012658548
 20
10.4533243468
 30
0.0
 10
11.0324733205
 20
10.4550372016
 30
0.0
 10
11.0629966325
 20
10.4574395651
 30
0.0
 10
11.0926105907
 20
10.4605121176
 30
0.0
 10
11.1210972223
 20
10.4642341651
 30
0.0
 10
11.1482481343
 20
10.4685756459
 30
0.0
 10
11.173866854
 20
10.4735079974
 30
0.0
 10
11.1977703728
 20
10.4789942736
 30
0.0
 10
11.2197893781
 20
10.4850003428
 30
0.0
 10
11.2397738387
 20
10.4914804451
 30
0.0
 10
11.2575994179
 20
10.4983999429
 30
0.0
 10
11.2685592112
 20
10.5035673786
 30
0.0
 10
11.273620501
 20
10.5062529505
 30
0.0
  0
LINE
  5
33B
100
AcDbEntity
  8
0
100
AcDbLine
 62
7
  6
CONTINUOUS
 10
11.273620501
 20
10.5062529505
 11
11.2827047845
 21
10.5114498222
  0
SPLINE
  5
33C
100
AcDbEntity
  8
0
100
AcDbSpline
 62
7
  6
CONTINUOUS
 70
0
 71
3
 72
9
 73
5
 74
0
 42
0.0000001
 43
0.0000001
 44
0.0000000001
 40
0.0
 40
0.0
 40
0.0
 40
0.0
 40
0.2596647872
 40
1.0
 40
1.0
 40
1.0
 40
1.0
 10
11.2827047845
 20
10.5114498222
 30
0.0
 10
11.2835298314
 20
10.5119605321
 30
0.0
 10
11.2866862659
 20
10.5139606691
 30
0.0
 10
11.2897563683
 20
10.5160990569
 30
0.0
 10
11.2919593282
 20
10.5177725343
 30
0.0
  0
SPLINE
  5
33D
100
AcDbEntity
  8
0
100
AcDbSpline
 62
7
  6
CONTINUOUS
 70
0
 71
3
 72
9
 73
5
 74
0
 42
0.0000001
 43
0.0000001
 44
0.0000000001
 40
0.0
 40
0.0
 40
0.0
 40
0.0
 40
0.2601002608
 40
1.0
 40
1.0
 40
1.0
 40
1.0
 10
11.2919593282
 20
10.5177725343
 30
0.0
 10
11.2926460963
 20
10.5182942374
 30
0.0
 10
11.29526019
 20
10.5203340801
 30
0.0
 10
11.2977653664
 20
10.5225159897
 30
0.0
 10
11.2995299814
 20
10.5242204769
 30
0.0
  0
SPLINE
  5
33E
100
AcDbEntity
  8
0
100
AcDbSpline
 62
7
  6
CONTINUOUS
 70
0
 71
3
 72
13
 73
9
 74
0
 42
0.0000001
 43
0.0000001
 44
0.0000000001
 40
0.0
 40
0.0
 40
0.0
 40
0.0
 40
0.2711199345
 40
0.5242213536
 40
0.6457177041
 40
0.7647648628
 40
0.8824370165
 40
1.0
 40
1.0
 40
1.0
 40
1.0
 10
11.3020021636
 20
10.5267340976
 30
0.0
 10
11.3037848591
 20
10.528646641
 30
0.0
 10
11.3070085802
 20
10.532565478
 30
0.0
 10
11.3101630603
 20
10.5379750667
 30
0.0
 10
11.3119449367
 20
10.5423972296
 30
0.0
 10
11.3129012239
 20
10.5457236773
 30
0.0
 10
11.3134825039
 20
10.549097192
 30
0.0
 10
11.3136125602
 20
10.5513678115
 30
0.0
 10
11.3136125602
 20
10.5525015284
 30
0.0
  0
SPLINE
  5
33F
100
AcDbEntity
  8
0
100
AcDbSpline
 62
7
  6
CONTINUOUS
 70
0
 71
3
 72
9
 73
5
 74
0
 42
0.0000001
 43
0.0000001
 44
0.0000000001
 40
0.0
 40
0.0
 40
0.0
 40
0.0
 40
0.5064251975
 40
1.0
 40
1.0
 40
1.0
 40
1.0
 10
11.3659803644
 20
9.5643594845
 30
0.0
 10
11.3665126902
 20
9.562787902
 30
0.0
 10
11.3673320467
 20
9.5595994606
 30
0.0
 10
11.3676125134
 20
9.5563172765
 30
0.0
 10
11.367612557
 20
9.5547000907
 30
0.0
  0
LINE
  5
340
100
AcDbEntity
  8
0
100
AcDbLine
 62
7
  6
CONTINUOUS
 10
11.3532392727
 20
9.5462063131
 11
11.3500084027
 21
9.5415335069
  0
LINE
  5
341
100
AcDbEntity
  8
0
100
AcDbLine
 62
7
  6
CONTINUOUS
 10
11.3495599871
 20
9.5409657408
 11
11.3459248318
 21
9.5368337323
  0
SPLINE
  5
342
100
AcDbEntity
  8
0
100
AcDbSpline
 62
7
  6
CONTINUOUS
 70
0
 71
3
 72
21
 73
17
 74
0
 42
0.0000001
 43
0.0000001
 44
0.0000000001
 40
0.0
 40
0.0
 40
0.0
 40
0.0
 40
0.0353901365
 40
0.074705913
 40
0.1180520713
 40
0.1654418827
 40
0.2168310988
 40
0.272137201
 40
0.3312267494
 40
0.3939428116
 40
0.4601050203
 40
0.5295000795
 40
0.6019042226
 40
0.6770743569
 40
0.8346450825
 40
1.0
 40
1.0
 40
1.0
 40
1.0
 10
10.5404576487
 20
9.5339540874
 30
0.0
 10
10.5431728301
 20
9.5316708987
 30
0.0
 10
10.5491825135
 20
9.5271785242
 30
0.0
 10
10.5592510562
 20
9.5209401669
 30
0.0
 10
10.5708033335
 20
9.514878418
 30
0.0
 10
10.5837947214
 20
9.5090141093
 30
0.0
 10
10.5981777723
 20
9.5033688712
 30
0.0
 10
10.6138985288
 20
9.4979670922
 30
0.0
 10
10.6308960131
 20
9.4928274589
 30
0.0
 10
10.6491047875
 20
9.4879712832
 30
0.0
 10
10.6684542886
 20
9.4834189706
 30
0.0
 10
10.6888687341
 20
9.4791865143
 30
0.0
 10
10.710268621
 20
9.4752921638
 30
0.0
 10
10.740480662
 20
9.4704961061
 30
0.0
 10
10.7800832773
 20
9.4654968742
 30
0.0
 10
10.8123354526
 20
9.4626423788
 30
0.0
 10
10.8288687325
 20
9.4614613403
 30
0.0
  0
SPLINE
  5
343
100
AcDbEntity
  8
0
100
AcDbSpline
 62
7
  6
CONTINUOUS
 70
0
 71
3
 72
27
 73
23
 74
0
 42
0.0000001
 43
0.0000001
 44
0.0000000001
 40
0.0
 40
0.0
 40
0.0
 40
0.0
 40
0.0753848422
 40
0.1519053919
 40
0.2289081882
 40
0.3057324691
 40
0.3817208704
 40
0.4562239309
 40
0.5286108215
 40
0.5982719135
 40
0.6646340703
 40
0.7271583803
 40
0.7853642687
 40
0.8388232101
 40
0.8636647561
 40
0.8871950086
 40
0.9093867784
 40
0.9302238445
 40
0.9496967231
 40
0.9678051925
 40
0.9845631401
 40
1.0
 40
1.0
 40
1.0
 40
1.0
 10
10.8318868065
 20
9.4612488945
 30
0.0
 10
10.8449323767
 20
9.4603441812
 30
0.0
 10
10.8712455498
 20
9.458872245
 30
0.0
 10
10.9109393283
 20
9.4576593075
 30
0.0
 10
10.9509009131
 20
9.4574324916
 30
0.0
 10
10.9907635374
 20
9.4581918903
 30
0.0
 10
11.0301615386
 20
9.4599316962
 30
0.0
 10
11.0687338002
 20
9.4626351626
 30
0.0
 10
11.1061266282
 20
9.4662764681
 30
0.0
 10
11.1419977622
 20
9.4708228908
 30
0.0
 10
11.176018898
 20
9.4762293193
 30
0.0
 10
11.2078800731
 20
9.4824477645
 30
0.0
 10
11.2372907764
 20
9.4894163965
 30
0.0
 10
11.2600642457
 20
9.4959470637
 30
0.0
 10
11.2768212584
 20
9.5015434088
 30
0.0
 10
11.2883061556
 20
9.5057841976
 30
0.0
 10
11.2989927859
 20
9.5101619809
 30
0.0
 10
11.3088583151
 20
9.5146666131
 30
0.0
 10
11.3178811376
 20
9.5192883633
 30
0.0
 10
11.3260402875
 20
9.5240186938
 30
0.0
 10
11.3333170788
 20
9.5288445819
 30
0.0
 10
11.3377478825
 20
9.5322551978
 30
0.0
 10
11.339796815
 20
9.5339793049
 30
0.0
  0
SPLINE
  5
344
100
AcDbEntity
  8
0
100
AcDbSpline
 62
7
  6
CONTINUOUS
 70
0
 71
3
 72
11
 73
7
 74
0
 42
0.0000001
 43
0.0000001
 44
0.0000000001
 40
0.0
 40
0.0
 40
0.0
 40
0.0
 40
0.2441798076
 40
0.4891913086
 40
0.7398651529
 40
1.0
 40
1.0
 40
1.0
 40
1.0
 10
11.3136125602
 20
10.506137086
 30
0.0
 10
11.3136125602
 20
10.5077247515
 30
0.0
 10
11.3133561049
 20
10.5109112527
 30
0.0
 10
11.3122185608
 20
10.5156037464
 30
0.0
 10
11.3103729126
 20
10.5201750385
 30
0.0
 10
11.3087331475
 20
10.5230744077
 30
0.0
 10
11.3078192406
 20
10.5244976531
 30
0.0
  0
LINE
  5
345
100
AcDbEntity
  8
0
100
AcDbLine
 62
7
  6
CONTINUOUS
 10
11.3078192406
 20
10.5244976531
 11
11.3048065794
 21
10.5286747596
  0
SPLINE
  5
346
100
AcDbEntity
  8
0
100
AcDbSpline
 62
7
  6
CONTINUOUS
 70
0
 71
3
 72
11
 73
7
 74
0
 42
0.0000001
 43
0.0000001
 44
0.0000000001
 40
0.0
 40
0.0
 40
0.0
 40
0.0
 40
0.2400687165
 40
0.4842249775
 40
0.736369767
 40
1.0
 40
1.0
 40
1.0
 40
1.0
 10
10.5126125634
 20
9.5740186084
 30
0.0
 10
10.5126125985
 20
9.5727161684
 30
0.0
 10
10.5127931256
 20
9.5700857387
 30
0.0
 10
10.5136018914
 20
9.5661621161
 30
0.0
 10
10.5149466643
 20
9.5622539046
 30
0.0
 10
10.5161661083
 20
9.5597277595
 30
0.0
 10
10.5168538777
 20
9.5584737103
 30
0.0
  0
SPLINE
  5
347
100
AcDbEntity
  8
0
100
AcDbSpline
 62
7
  6
CONTINUOUS
 70
0
 71
3
 72
10
 73
6
 74
0
 42
0.0000001
 43
0.0000001
 44
0.0000000001
 40
0.0
 40
0.0
 40
0.0
 40
0.0
 40
0.4650134304
 40
0.723026348
 40
1.0
 40
1.0
 40
1.0
 40
1.0
 10
10.5168538777
 20
9.5584737103
 30
0.0
 10
10.5185323224
 20
9.5554133062
 30
0.0
 10
10.5217474135
 20
9.5509766622
 30
0.0
 10
10.5269134223
 20
9.5455284855
 30
0.0
 10
10.5299024732
 20
9.5428385944
 30
0.0
 10
10.5314930982
 20
9.5414998808
 30
0.0
  0
SPLINE
  5
348
100
AcDbEntity
  8
0
100
AcDbSpline
 62
7
  6
CONTINUOUS
 70
0
 71
3
 72
11
 73
7
 74
0
 42
0.0000001
 43
0.0000001
 44
0.0000000001
 40
0.0
 40
0.0
 40
0.0
 40
0.0
 40
0.2681273005
 40
0.5208344953
 40
0.7625395304
 40
1.0
 40
1.0
 40
1.0
 40
1.0
 10
10.5764010807
 20
10.5298593988
 30
0.0
 10
10.5748858382
 20
10.5280764302
 30
0.0
 10
10.572151426
 20
10.524424397
 30
0.0
 10
10.5690108215
 20
10.5185233288
 30
0.0
 10
10.5670559173
 20
10.5124034229
 30
0.0
 10
10.5666125602
 20
10.5082093251
 30
0.0
 10
10.5666125602
 20
10.506137086
 30
0.0
  0
SPLINE
  5
349
100
AcDbEntity
  8
0
100
AcDbSpline
 62
7
  6
CONTINUOUS
 70
0
 71
3
 72
9
 73
5
 74
0
 42
0.0000001
 43
0.0000001
 44
0.0000000001
 40
0.0
 40
0.0
 40
0.0
 40
0.0
 40
0.496043051
 40
1.0
 40
1.0
 40
1.0
 40
1.0
 10
11.3462678884
 20
10.2062651539
 30
0.0
 10
11.3560421435
 20
10.2014344599
 30
0.0
 10
11.3754940815
 20
10.1911794874
 30
0.0
 10
11.3944669132
 20
10.1800699255
 30
0.0
 10
11.4039186981
 20
10.1742942302
 30
0.0
  0
SPLINE
  5
34A
100
AcDbEntity
  8
0
100
AcDbSpline
 62
7
  6
CONTINUOUS
 70
0
 71
3
 72
9
 73
5
 74
0
 42
0.0000001
 43
0.0000001
 44
0.0000000001
 40
0.0
 40
0.0
 40
0.0
 40
0.0
 40
0.4740458241
 40
1.0
 40
1.0
 40
1.0
 40
1.0
 10
11.3616492936
 20
9.6943977561
 30
0.0
 10
11.3639616288
 20
9.6965501369
 30
0.0
 10
11.3685676886
 20
9.7013856964
 30
0.0
 10
11.3727025658
 20
9.7066217146
 30
0.0
 10
11.3747773649
 20
9.7094466146
 30
0.0
  0
SPLINE
  5
34B
100
AcDbEntity
  8
0
100
AcDbSpline
 62
7
  6
CONTINUOUS
 70
0
 71
3
 72
14
 73
10
 74
0
 42
0.0000001
 43
0.0000001
 44
0.0000000001
 40
0.0
 40
0.0
 40
0.0
 40
0.0
 40
0.1006478115
 40
0.20918055
 40
0.32525299
 40
0.4483789285
 40
0.5779948027
 40
0.7135148625
 40
1.0
 40
1.0
 40
1.0
 40
1.0
 10
11.3747773649
 20
9.7094466146
 30
0.0
 10
11.3767816294
 20
9.7121754796
 30
0.0
 10
11.380756234
 20
9.7179883915
 30
0.0
 10
11.3864467153
 20
9.7273382806
 30
0.0
 10
11.392083127
 20
9.7375922784
 30
0.0
 10
11.3976622058
 20
9.748676601
 30
0.0
 10
11.4031797154
 20
9.760517124
 30
0.0
 10
11.4105866632
 20
9.7775330461
 30
0.0
 10
11.4158259267
 20
9.7907320094
 30
0.0
 10
11.4192479346
 20
9.799741455
 30
0.0
  0
SPLINE
  5
34C
100
AcDbEntity
  8
0
100
AcDbSpline
 62
7
  6
CONTINUOUS
 70
0
 71
3
 72
9
 73
5
 74
0
 42
0.0000001
 43
0.0000001
 44
0.0000000001
 40
0.0
 40
0.0
 40
0.0
 40
0.0
 40
0.5221465188
 40
1.0
 40
1.0
 40
1.0
 40
1.0
 10
11.0661707533
 20
11.1542680612
 30
0.0
 10
11.0700929963
 20
11.1554186755
 30
0.0
 10
11.0775473016
 20
11.1578269518
 30
0.0
 10
11.0848147104
 20
11.1607641097
 30
0.0
 10
11.0882131014
 20
11.1623275831
 30
0.0
  0
SPLINE
  5
34D
100
AcDbEntity
  8
0
100
AcDbSpline
 62
7
  6
CONTINUOUS
 70
0
 71
3
 72
12
 73
8
 74
0
 42
0.0000001
 43
0.0000001
 44
0.0000000001
 40
0.0
 40
0.0
 40
0.0
 40
0.0
 40
0.2633179345
 40
0.5154895651
 40
0.6384418815
 40
0.7598889158
 40
1.0
 40
1.0
 40
1.0
 40
1.0
 10
11.0901659277
 20
11.1632484602
 30
0.0
 10
11.0920085376
 20
11.1641394183
 30
0.0
 10
11.0955673394
 20
11.1659870959
 30
0.0
 10
11.0998019559
 20
11.1685846327
 30
0.0
 10
11.1029587382
 20
11.170807736
 30
0.0
 10
11.1059399088
 20
11.173109701
 30
0.0
 10
11.1080325155
 20
11.1749982354
 30
0.0
 10
11.1093318852
 20
11.176337943
 30
0.0
  0
SPLINE
  5
34E
100
AcDbEntity
  8
0
100
AcDbSpline
 62
7
  6
CONTINUOUS
 70
0
 71
3
 72
16
 73
12
 74
0
 42
0.0000001
 43
0.0000001
 44
0.0000000001
 40
0.0
 40
0.0
 40
0.0
 40
0.0
 40
0.1185693215
 40
0.2388105293
 40
0.3617153323
 40
0.4865814813
 40
0.6130225177
 40
0.6769822671
 40
0.7414514813
 40
0.8710719167
 40
1.0
 40
1.0
 40
1.0
 40
1.0
 10
11.1093318852
 20
11.176337943
 30
0.0
 10
11.1101909016
 20
11.1772236269
 30
0.0
 10
11.1118439966
 20
11.1790847192
 30
0.0
 10
11.1140596315
 20
11.1821351576
 30
0.0
 10
11.1159780894
 20
11.1854585278
 30
0.0
 10
11.1175255791
 20
11.1890421277
 30
0.0
 10
11.1184259611
 20
11.1922090283
 30
0.0
 10
11.1188660665
 20
11.1948267286
 30
0.0
 10
11.1191120111
 20
11.1975028975
 30
0.0
 10
11.1190682549
 20
11.2008744886
 30
0.0
 10
11.118684347
 20
11.2035460343
 30
0.0
 10
11.118407476
 20
11.2048587815
 30
0.0
  0
SPLINE
  5
34F
100
AcDbEntity
  8
0
100
AcDbSpline
 62
7
  6
CONTINUOUS
 70
0
 71
3
 72
10
 73
6
 74
0
 42
0.0000001
 43
0.0000001
 44
0.0000000001
 40
0.0
 40
0.0
 40
0.0
 40
0.0
 40
0.2749083428
 40
0.5320582903
 40
1.0
 40
1.0
 40
1.0
 40
1.0
 10
11.1965658823
 20
10.8471934534
 30
0.0
 10
11.1974027442
 20
10.8480018
 30
0.0
 10
11.1989664906
 20
10.8496271933
 30
0.0
 10
11.2016282934
 20
10.8529198345
 30
0.0
 10
11.2032136788
 20
10.8555863801
 30
0.0
 10
11.2039942632
 20
10.8574065643
 30
0.0
  0
LINE
  5
350
100
AcDbEntity
  8
0
100
AcDbLine
 62
7
  6
CONTINUOUS
 10
11.2039942632
 20
10.8574065643
 11
11.2050441082
 21
10.8604842993
  0
SPLINE
  5
351
100
AcDbEntity
  8
0
100
AcDbSpline
 62
7
  6
CONTINUOUS
 70
0
 71
3
 72
9
 73
5
 74
0
 42
0.0000001
 43
0.0000001
 44
0.0000000001
 40
0.0
 40
0.0
 40
0.0
 40
0.0
 40
0.5037106514
 40
1.0
 40
1.0
 40
1.0
 40
1.0
 10
11.2050441082
 20
10.8604842993
 30
0.0
 10
11.2052314202
 20
10.861223017
 30
0.0
 10
11.2055165421
 20
10.8627132072
 30
0.0
 10
11.2056127797
 20
10.8642276844
 30
0.0
 10
11.2056127109
 20
10.8649785517
 30
0.0
  0
SPLINE
  5
352
100
AcDbEntity
  8
0
100
AcDbSpline
 62
7
  6
CONTINUOUS
 70
0
 71
3
 72
21
 73
17
 74
0
 42
0.0000001
 43
0.0000001
 44
0.0000000001
 40
0.0
 40
0.0
 40
0.0
 40
0.0
 40
0.0681623088
 40
0.1315674176
 40
0.2462159417
 40
0.2992456529
 40
0.3506585088
 40
0.4016232308
 40
0.4533383312
 40
0.5069424707
 40
0.5634515684
 40
0.6237237668
 40
0.6884316756
 40
0.7580847799
 40
0.8330664765
 40
1.0
 40
1.0
 40
1.0
 40
1.0
 10
11.1332977369
 20
10.9380314808
 30
0.0
 10
11.1339807494
 20
10.9386912202
 30
0.0
 10
11.1352498572
 20
10.9400185204
 30
0.0
 10
11.137376566
 20
10.9427124609
 30
0.0
 10
11.1389654233
 20
10.9455591951
 30
0.0
 10
11.1398477759
 20
10.9484919619
 30
0.0
 10
11.1401473683
 20
10.9506454746
 30
0.0
 10
11.1400996326
 20
10.9528008906
 30
0.0
 10
11.139706131
 20
10.9549512386
 30
0.0
 10
11.138969988
 20
10.9570904477
 30
0.0
 10
11.1378950427
 20
10.9592142743
 30
0.0
 10
11.1364847316
 20
10.9613193838
 30
0.0
 10
11.1347436783
 20
10.9634037504
 30
0.0
 10
11.1326759069
 20
10.9654655166
 30
0.0
 10
11.1293686491
 20
10.9682818935
 30
0.0
 10
11.1265795539
 20
10.9701933258
 30
0.0
 10
11.1246013986
 20
10.9714162617
 30
0.0
  0
SPLINE
  5
353
100
AcDbEntity
  8
0
100
AcDbSpline
 62
7
  6
CONTINUOUS
 70
0
 71
3
 72
9
 73
5
 74
0
 42
0.0000001
 43
0.0000001
 44
0.0000000001
 40
0.0
 40
0.0
 40
0.0
 40
0.0
 40
0.5281037819
 40
1.0
 40
1.0
 40
1.0
 40
1.0
 10
10.7551374905
 20
10.9711116052
 30
0.0
 10
10.7535952195
 20
10.9701405289
 30
0.0
 10
10.7507434543
 20
10.9681886617
 30
0.0
 10
10.748098723
 20
10.965957783
 30
0.0
 10
10.7469273835
 20
10.9648263558
 30
0.0
  0
SPLINE
  5
354
100
AcDbEntity
  8
0
100
AcDbSpline
 62
7
  6
CONTINUOUS
 70
0
 71
3
 72
22
 73
18
 74
0
 42
0.0000001
 43
0.0000001
 44
0.0000000001
 40
0.0
 40
0.0
 40
0.0
 40
0.0
 40
0.1140608699
 40
0.1709870289
 40
0.2280144683
 40
0.2853620718
 40
0.3433341997
 40
0.4022312525
 40
0.4623909047
 40
0.5240588777
 40
0.587406775
 40
0.6524836718
 40
0.7192213361
 40
0.7875163354
 40
0.8571954171
 40
0.9280815484
 40
1.0
 40
1.0
 40
1.0
 40
1.0
 10
11.2535273539
 20
10.7862816903
 30
0.0
 10
11.2446299334
 20
10.7900559223
 30
0.0
 10
11.2309832185
 20
10.7950550952
 30
0.0
 10
11.2122476032
 20
10.7998305587
 30
0.0
 10
11.1979330257
 20
10.8023320463
 30
0.0
 10
11.1833647176
 20
10.8036013772
 30
0.0
 10
11.1685802292
 20
10.8034965165
 30
0.0
 10
11.1536375299
 20
10.8019211728
 30
0.0
 10
11.1386232985
 20
10.7987837589
 30
0.0
 10
11.123619551
 20
10.7941139891
 30
0.0
 10
11.1087216079
 20
10.787937919
 30
0.0
 10
11.0939904613
 20
10.7803891851
 30
0.0
 10
11.079480159
 20
10.7715923921
 30
0.0
 10
11.0652182784
 20
10.7617029914
 30
0.0
 10
11.051212731
 20
10.7508730508
 30
0.0
 10
11.0374666634
 20
10.7392375976
 30
0.0
 10
11.0285280176
 20
10.7310775484
 30
0.0
 10
11.0240918654
 20
10.726899439
 30
0.0
  0
SPLINE
  5
355
100
AcDbEntity
  8
0
100
AcDbSpline
 62
7
  6
CONTINUOUS
 70
0
 71
3
 72
21
 73
17
 74
0
 42
0.0000001
 43
0.0000001
 44
0.0000000001
 40
0.0
 40
0.0
 40
0.0
 40
0.0
 40
0.1281528662
 40
0.1920647694
 40
0.2558071539
 40
0.3193353342
 40
0.3826307252
 40
0.4456370041
 40
0.5083361809
 40
0.5707125208
 40
0.6327627441
 40
0.6945219466
 40
0.7560019561
 40
0.8172620296
 40
0.8783352349
 40
1.0
 40
1.0
 40
1.0
 40
1.0
 10
11.0240918654
 20
10.726899439
 30
0.0
 10
11.0119128271
 20
10.7338335774
 30
0.0
 10
10.9933060288
 20
10.7436375441
 30
0.0
 10
10.967744439
 20
10.7550250563
 30
0.0
 10
10.9482361675
 20
10.7625734222
 30
0.0
 10
10.9283928487
 20
10.7689825859
 30
0.0
 10
10.9082587021
 20
10.7741013397
 30
0.0
 10
10.8879082052
 20
10.7778156873
 30
0.0
 10
10.8674373979
 20
10.780004467
 30
0.0
 10
10.8469647218
 20
10.7806630587
 30
0.0
 10
10.8266042488
 20
10.7797783343
 30
0.0
 10
10.8064582347
 20
10.7774570049
 30
0.0
 10
10.7866011265
 20
10.773802634
 30
0.0
 10
10.7670795259
 20
10.7689604475
 30
0.0
 10
10.7415592448
 20
10.7611349644
 30
0.0
 10
10.722897217
 20
10.7538974315
 30
0.0
 10
10.7106770717
 20
10.7486348288
 30
0.0
  0
SPLINE
  5
356
100
AcDbEntity
  8
0
100
AcDbSpline
 62
7
  6
CONTINUOUS
 70
0
 71
3
 72
28
 73
24
 74
0
 42
0.0000001
 43
0.0000001
 44
0.0000000001
 40
0.0
 40
0.0
 40
0.0
 40
0.0
 40
0.1018354911
 40
0.1997051988
 40
0.2929179859
 40
0.3807376669
 40
0.4623581556
 40
0.5370622431
 40
0.5716493809
 40
0.6043193629
 40
0.663813289
 40
0.6907528081
 40
0.7159286067
 40
0.7614832688
 40
0.7823337289
 40
0.802222675
 40
0.8214207671
 40
0.8402021273
 40
0.8588370586
 40
0.8775649255
 40
0.9159984035
 40
0.9566319579
 40
1.0
 40
1.0
 40
1.0
 40
1.0
 10
10.7106770717
 20
10.7486348288
 30
0.0
 10
10.7091249907
 20
10.7530302418
 30
0.0
 10
10.7060082023
 20
10.7616244302
 30
0.0
 10
10.7011675605
 20
10.7741294226
 30
0.0
 10
10.6962430216
 20
10.7859097882
 30
0.0
 10
10.6912376317
 20
10.7968440894
 30
0.0
 10
10.6861546612
 20
10.806801157
 30
0.0
 10
10.6817514408
 20
10.8143572478
 30
0.0
 10
10.6781702433
 20
10.8197817672
 30
0.0
 10
10.674771094
 20
10.82448456
 30
0.0
 10
10.6712628202
 20
10.8286757793
 30
0.0
 10
10.6676081153
 20
10.8322518766
 30
0.0
 10
10.6641897556
 20
10.8351363918
 30
0.0
 10
10.6606510953
 20
10.8374409672
 30
0.0
 10
10.6570283892
 20
10.839033354
 30
0.0
 10
10.6544021676
 20
10.8398486655
 30
0.0
 10
10.6517906227
 20
10.8403288992
 30
0.0
 10
10.6491974052
 20
10.8404836659
 30
0.0
 10
10.6466261823
 20
10.8403289353
 30
0.0
 10
10.6432024453
 20
10.8397292911
 30
0.0
 10
10.6389420206
 20
10.8382596284
 30
0.0
 10
10.6340113053
 20
10.8355563154
 30
0.0
 10
10.6309018191
 20
10.8332778517
 30
0.0
 10
10.6293590163
 20
10.8320286686
 30
0.0
  0
LINE
  5
357
100
AcDbEntity
  8
0
100
AcDbLine
 62
7
  6
CONTINUOUS
 10
10.6293590163
 20
10.8320286686
 11
10.6291205793
 21
10.8318346191
  0
SPLINE
  5
358
100
AcDbEntity
  8
0
100
AcDbSpline
 62
7
  6
CONTINUOUS
 70
0
 71
3
 72
19
 73
15
 74
0
 42
0.0000001
 43
0.0000001
 44
0.0000000001
 40
0.0
 40
0.0
 40
0.0
 40
0.0
 40
0.1270716233
 40
0.253692597
 40
0.3168021613
 40
0.3797575371
 40
0.4425420301
 40
0.505149353
 40
0.5675750787
 40
0.6298178115
 40
0.6918874238
 40
0.7537889248
 40
0.8771381565
 40
1.0
 40
1.0
 40
1.0
 40
1.0
 10
10.7106770717
 20
10.6504409881
 30
0.0
 10
10.723394335
 20
10.6458878852
 30
0.0
 10
10.749000907
 20
10.6373866717
 30
0.0
 10
10.781550203
 20
10.6286490705
 30
0.0
 10
10.8078284863
 20
10.6230600812
 30
0.0
 10
10.8276130038
 20
10.6196285603
 30
0.0
 10
10.8474658128
 20
10.6169932797
 30
0.0
 10
10.8673555745
 20
10.6151946181
 30
0.0
 10
10.8872456898
 20
10.6142320961
 30
0.0
 10
10.9071013682
 20
10.6141114043
 30
0.0
 10
10.9268894805
 20
10.614796845
 30
0.0
 10
10.9531139632
 20
10.6167344104
 30
0.0
 10
10.9856226458
 20
10.6209425081
 30
0.0
 10
11.011334833
 20
10.6259076635
 30
0.0
 10
11.0240918654
 20
10.6287055983
 30
0.0
  0
SPLINE
  5
359
100
AcDbEntity
  8
0
100
AcDbSpline
 62
7
  6
CONTINUOUS
 70
0
 71
3
 72
16
 73
12
 74
0
 42
0.0000001
 43
0.0000001
 44
0.0000000001
 40
0.0
 40
0.0
 40
0.0
 40
0.0
 40
0.1192675873
 40
0.2392704308
 40
0.3604142913
 40
0.483222709
 40
0.5454292021
 40
0.6082511479
 40
0.7358990726
 40
0.8664695554
 40
1.0
 40
1.0
 40
1.0
 40
1.0
 10
11.0240918654
 20
10.6287055983
 30
0.0
 10
11.0312765613
 20
10.6277319374
 30
0.0
 10
11.0457477581
 20
10.6261704925
 30
0.0
 10
11.0676535173
 20
10.6252162012
 30
0.0
 10
11.0897906886
 20
10.625864739
 30
0.0
 10
11.1083128014
 20
10.6279119792
 30
0.0
 10
11.1231580453
 20
10.6305057975
 30
0.0
 10
11.1381665242
 20
10.6337939976
 30
0.0
 10
11.1569524894
 20
10.6391719181
 30
0.0
 10
11.1792729469
 20
10.6475358504
 30
0.0
 10
11.1938833303
 20
10.6542242208
 30
0.0
 10
11.2011583394
 20
10.6578251597
 30
0.0
  0
SPLINE
  5
35A
100
AcDbEntity
  8
0
100
AcDbSpline
 62
7
  6
CONTINUOUS
 70
0
 71
3
 72
26
 73
22
 74
0
 42
0.0000001
 43
0.0000001
 44
0.0000000001
 40
0.0
 40
0.0
 40
0.0
 40
0.0
 40
0.0144368264
 40
0.0304323125
 40
0.0480386998
 40
0.0672792575
 40
0.0881550265
 40
0.1106450614
 40
0.1603190494
 40
0.2159203796
 40
0.2768665544
 40
0.3424797144
 40
0.4119811972
 40
0.4845351077
 40
0.5592404139
 40
0.6351688021
 40
0.7113657327
 40
0.7868777568
 40
0.8607581508
 40
0.9320914419
 40
1.0
 40
1.0
 40
1.0
 40
1.0
 10
11.0878992204
 20
11.4289724498
 30
0.0
 10
11.0870935408
 20
11.428194223
 30
0.0
 10
11.0852947234
 20
11.4266565676
 30
0.0
 10
11.08224545
 20
11.4245062225
 30
0.0
 10
11.0787215203
 20
11.4224037164
 30
0.0
 10
11.0747347131
 20
11.4203575443
 30
0.0
 10
11.070297555
 20
11.4183755614
 30
0.0
 10
11.0635754807
 20
11.4157378628
 30
0.0
 10
11.054133739
 20
11.4126858762
 30
0.0
 10
11.0416353504
 20
11.4094795078
 30
0.0
 10
11.0277801742
 20
11.4066600402
 30
0.0
 10
11.0127525426
 20
11.4042702987
 30
0.0
 10
10.9967519322
 20
11.402340733
 30
0.0
 10
10.9799921405
 20
11.4009001904
 30
0.0
 10
10.9626972983
 20
11.3999669284
 30
0.0
 10
10.9450995681
 20
11.3995553798
 30
0.0
 10
10.9274348309
 20
11.3996700706
 30
0.0
 10
10.9099402839
 20
11.4003102318
 30
0.0
 10
10.8928502093
 20
11.4014664938
 30
0.0
 10
10.8763941943
 20
11.4031231541
 30
0.0
 10
10.8656869249
 20
11.4045873282
 30
0.0
 10
10.8604822621
 20
11.405408547
 30
0.0
  0
SPLINE
  5
35B
100
AcDbEntity
  8
0
100
AcDbSpline
 62
7
  6
CONTINUOUS
 70
0
 71
3
 72
27
 73
23
 74
0
 42
0.0000001
 43
0.0000001
 44
0.0000000001
 40
0.0
 40
0.0
 40
0.0
 40
0.0
 40
0.1074812976
 40
0.2094642908
 40
0.3053834983
 40
0.3947678255
 40
0.4771942229
 40
0.5156893788
 40
0.5523318143
 40
0.6199709593
 40
0.6800399084
 40
0.7326813431
 40
0.7783616133
 40
0.8179732938
 40
0.8360059337
 40
0.8531874428
 40
0.8698388069
 40
0.886316104
 40
0.9029903145
 40
0.9202154811
 40
0.9574465059
 40
1.0
 40
1.0
 40
1.0
 40
1.0
 10
10.8604822621
 20
11.405408547
 30
0.0
 10
10.8570656625
 20
11.405947636
 30
0.0
 10
10.8504209624
 20
11.4070883117
 30
0.0
 10
10.8407885043
 20
11.4090450962
 30
0.0
 10
10.8317946297
 20
11.4111951201
 30
0.0
 10
10.8234966284
 20
11.4135223916
 30
0.0
 10
10.8170660959
 20
11.4156423361
 30
0.0
 10
10.8123195583
 20
11.4174279341
 30
0.0
 10
10.8080687594
 20
11.4191733488
 30
0.0
 10
10.8032727487
 20
11.4214145461
 30
0.0
 10
10.7982243309
 20
11.42429364
 30
0.0
 10
10.7940740436
 20
11.4272738402
 30
0.0
 10
10.7908413082
 20
11.4303397064
 30
0.0
 10
10.7888718642
 20
11.4330549617
 30
0.0
 10
10.7878460478
 20
11.435240694
 30
0.0
 10
10.7873478938
 20
11.4368397283
 30
0.0
 10
10.7870999216
 20
11.43844605
 30
0.0
 10
10.7871043302
 20
11.4400553454
 30
0.0
 10
10.787362371
 20
11.4416623547
 30
0.0
 10
10.7880586065
 20
11.4438508392
 30
0.0
 10
10.7896192939
 20
11.4465938805
 30
0.0
 10
10.7913409391
 20
11.44851913
 30
0.0
 10
10.7923259
 20
11.4494705292
 30
0.0
  0
SPLINE
  5
35C
100
AcDbEntity
  8
0
100
AcDbSpline
 62
7
  6
CONTINUOUS
 70
0
 71
3
 72
15
 73
11
 74
0
 42
0.0000001
 43
0.0000001
 44
0.0000000001
 40
0.0
 40
0.0
 40
0.0
 40
0.0
 40
0.1495180866
 40
0.2861006757
 40
0.4119209156
 40
0.5298592312
 40
0.6435165525
 40
0.7570308818
 40
0.8746152328
 40
1.0
 40
1.0
 40
1.0
 40
1.0
 10
10.8435199719
 20
11.4459202082
 30
0.0
 10
10.8430916082
 20
11.4455064407
 30
0.0
 10
10.8423103592
 20
11.4446728265
 30
0.0
 10
10.8413437227
 20
11.4433409133
 30
0.0
 10
10.8406430845
 20
11.4419901929
 30
0.0
 10
10.8402147121
 20
11.4406239027
 30
0.0
 10
10.8400657897
 20
11.4392478327
 30
0.0
 10
10.8402018204
 20
11.4378717016
 30
0.0
 10
10.8406183241
 20
11.4365057591
 30
0.0
 10
10.8410609945
 20
11.4356395023
 30
0.0
 10
10.8413197746
 20
11.4352123366
 30
0.0
  0
SPLINE
  5
35D
100
AcDbEntity
  8
0
100
AcDbSpline
 62
7
  6
CONTINUOUS
 70
0
 71
3
 72
33
 73
29
 74
0
 42
0.0000001
 43
0.0000001
 44
0.0000000001
 40
0.0
 40
0.0
 40
0.0
 40
0.0
 40
0.1049823824
 40
0.2065190823
 40
0.3035590107
 40
0.3952811374
 40
0.4809453974
 40
0.5598759263
 40
0.5966265526
 40
0.6314863095
 40
0.664407928
 40
0.6953508014
 40
0.7242874498
 40
0.7512137388
 40
0.7761422958
 40
0.7991059125
 40
0.8201697532
 40
0.8394477623
 40
0.8571037911
 40
0.8733647211
 40
0.8885375632
 40
0.9030142658
 40
0.9172480134
 40
0.9317171487
 40
0.9468778988
 40
0.9631192817
 40
0.9807490485
 40
1.0
 40
1.0
 40
1.0
 40
1.0
 10
10.8563846682
 20
10.5691851046
 30
0.0
 10
10.8462449207
 20
10.5698882985
 30
0.0
 10
10.8263156431
 20
10.5715403818
 30
0.0
 10
10.7971037266
 20
10.5748064048
 30
0.0
 10
10.7692779569
 20
10.5788000383
 30
0.0
 10
10.7431173449
 20
10.5834758477
 30
0.0
 10
10.7188705412
 20
10.5887910978
 30
0.0
 10
10.7000264965
 20
10.5938167478
 30
0.0
 10
10.6861100929
 20
10.5981544992
 30
0.0
 10
10.6765413087
 20
10.6014556348
 30
0.0
 10
10.6676130403
 20
10.6048737138
 30
0.0
 10
10.6593469554
 20
10.6084008891
 30
0.0
 10
10.6517632051
 20
10.612029717
 30
0.0
 10
10.6448787142
 20
10.6157505085
 30
0.0
 10
10.6387088406
 20
10.6195544643
 30
0.0
 10
10.6332681661
 20
10.6234336684
 30
0.0
 10
10.6285701395
 20
10.6273817267
 30
0.0
 10
10.6246241691
 20
10.6313905696
 30
0.0
 10
10.6214394922
 20
10.6354545307
 30
0.0
 10
10.6190279058
 20
10.6395696094
 30
0.0
 10
10.6174055267
 20
10.6437305714
 30
0.0
 10
10.6165854339
 20
10.6479243413
 30
0.0
 10
10.616578159
 20
10.6521308833
 30
0.0
 10
10.6173855851
 20
10.6563254266
 30
0.0
 10
10.6189981363
 20
10.6604861704
 30
0.0
 10
10.6213970957
 20
10.6646021248
 30
0.0
 10
10.6245683032
 20
10.6686672878
 30
0.0
 10
10.6270742605
 20
10.6712213266
 30
0.0
 10
10.6284386244
 20
10.6724911096
 30
0.0
  0
SPLINE
  5
35E
100
AcDbEntity
  8
0
100
AcDbSpline
 62
7
  6
CONTINUOUS
 70
0
 71
3
 72
12
 73
8
 74
0
 42
0.0000001
 43
0.0000001
 44
0.0000000001
 40
0.0
 40
0.0
 40
0.0
 40
0.0
 40
0.2874685694
 40
0.5444548533
 40
0.7783736625
 40
0.8900113355
 40
1.0
 40
1.0
 40
1.0
 40
1.0
 10
11.2018784747
 20
10.6319065148
 30
0.0
 10
11.2033189155
 20
10.633297874
 30
0.0
 10
11.2058915957
 20
10.6361064398
 30
0.0
 10
11.2088702334
 20
10.6406711259
 30
0.0
 10
11.2104152366
 20
10.6446166759
 30
0.0
 10
11.2110134503
 20
10.6477405381
 30
0.0
 10
11.2111124246
 20
10.6492863131
 30
0.0
 10
11.2111126669
 20
10.6500525629
 30
0.0
  0
SPLINE
  5
35F
100
AcDbEntity
  8
0
100
AcDbSpline
 62
7
  6
CONTINUOUS
 70
0
 71
3
 72
29
 73
25
 74
0
 42
0.0000001
 43
0.0000001
 44
0.0000000001
 40
0.0
 40
0.0
 40
0.0
 40
0.0
 40
0.0957838288
 40
0.1891006487
 40
0.2792692482
 40
0.3657359342
 40
0.448019315
 40
0.525662664
 40
0.5982378778
 40
0.6653671997
 40
0.7267609918
 40
0.7821965565
 40
0.8076513503
 40
0.8315918597
 40
0.8540265742
 40
0.8749801814
 40
0.894497366
 40
0.9126410708
 40
0.9294975248
 40
0.9451838595
 40
0.9598583764
 40
0.9737202251
 40
0.9870089761
 40
1.0
 40
1.0
 40
1.0
 40
1.0
 10
10.8434437266
 20
10.50838882
 30
0.0
 10
10.833720944
 20
10.5090630973
 30
0.0
 10
10.8145399134
 20
10.5106092444
 30
0.0
 10
10.7862745869
 20
10.5135576913
 30
0.0
 10
10.7590319077
 20
10.517093097
 30
0.0
 10
10.733003419
 20
10.5211891453
 30
0.0
 10
10.7083595105
 20
10.5258182783
 30
0.0
 10
10.6852603318
 20
10.5309492453
 30
0.0
 10
10.6638586861
 20
10.5365455614
 30
0.0
 10
10.6442964543
 20
10.5425724526
 30
0.0
 10
10.6267015982
 20
10.5489846242
 30
0.0
 10
10.6134162821
 20
10.5547706948
 30
0.0
 10
10.603901518
 20
10.559598311
 30
0.0
 10
10.5975306122
 20
10.5631855516
 30
0.0
 10
10.591730675
 20
10.5668375478
 30
0.0
 10
10.5865112404
 20
10.5705491379
 30
0.0
 10
10.5818796047
 20
10.5743140996
 30
0.0
 10
10.5778427485
 20
10.578127334
 30
0.0
 10
10.5744076832
 20
10.5819842473
 30
0.0
 10
10.5715823069
 20
10.5858815437
 30
0.0
 10
10.5693725349
 20
10.5898142189
 30
0.0
 10
10.5677847837
 20
10.5937775234
 30
0.0
 10
10.5668268033
 20
10.5977632467
 30
0.0
 10
10.5666124945
 20
10.6004418941
 30
0.0
 10
10.5666126661
 20
10.6017637485
 30
0.0
  0
SPLINE
  5
360
100
AcDbEntity
  8
0
100
AcDbSpline
 62
7
  6
CONTINUOUS
 70
0
 71
3
 72
28
 73
24
 74
0
 42
0.0000001
 43
0.0000001
 44
0.0000000001
 40
0.0
 40
0.0
 40
0.0
 40
0.0
 40
0.0758229167
 40
0.1528479974
 40
0.2303204111
 40
0.3075802533
 40
0.383967201
 40
0.4588062155
 40
0.5314473219
 40
0.6012670482
 40
0.667679321
 40
0.7301335952
 40
0.7881412474
 40
0.815341078
 40
0.8412754143
 40
0.865902866
 40
0.8891867069
 40
0.9111030459
 40
0.9316372377
 40
0.950782075
 40
0.9685416126
 40
0.9849353473
 40
1.0
 40
1.0
 40
1.0
 40
1.0
 10
10.8434437266
 20
10.4591265999
 30
0.0
 10
10.8552260938
 20
10.45830949
 30
0.0
 10
10.8790009658
 20
10.4569836506
 30
0.0
 10
10.914864476
 20
10.4559022837
 30
0.0
 10
10.9509678883
 20
10.4557227319
 30
0.0
 10
10.9869650425
 20
10.4564445979
 30
0.0
 10
11.0225226922
 20
10.458060724
 30
0.0
 10
11.0573084265
 20
10.4605563561
 30
0.0
 10
11.0909948261
 20
10.4639067107
 30
0.0
 10
11.1232664372
 20
10.4680812346
 30
0.0
 10
11.153821861
 20
10.4730370499
 30
0.0
 10
11.1823752977
 20
10.4787297956
 30
0.0
 10
11.2047374845
 20
10.484148679
 30
0.0
 10
11.2214015761
 20
10.4888474033
 30
0.0
 10
11.232969653
 20
10.4924438623
 30
0.0
 10
11.2438506729
 20
10.4961797421
 30
0.0
 10
11.2540189385
 20
10.5000473593
 30
0.0
 10
11.2634515448
 20
10.5040373753
 30
0.0
 10
11.2721279153
 20
10.5081404723
 30
0.0
 10
11.2800281612
 20
10.5123480677
 30
0.0
 10
11.2871336344
 20
10.5166515375
 30
0.0
 10
11.2934278586
 20
10.521038263
 30
0.0
 10
11.2972304295
 20
10.5241396121
 30
0.0
 10
11.298977292
 20
10.5257064082
 30
0.0
  0
SPLINE
  5
361
100
AcDbEntity
  8
0
100
AcDbSpline
 62
7
  6
CONTINUOUS
 70
0
 71
3
 72
13
 73
9
 74
0
 42
0.0000001
 43
0.0000001
 44
0.0000000001
 40
0.0
 40
0.0
 40
0.0
 40
0.0
 40
0.287451684
 40
0.5443544397
 40
0.6637241962
 40
0.7784894085
 40
0.8900618141
 40
1.0
 40
1.0
 40
1.0
 40
1.0
 10
11.3008858777
 20
10.5274818139
 30
0.0
 10
11.3028724758
 20
10.5294007204
 30
0.0
 10
11.3064199052
 20
10.5332713058
 30
0.0
 10
11.3099245409
 20
10.538647358
 30
0.0
 10
11.3118565163
 20
10.5429612561
 30
0.0
 10
11.3128689276
 20
10.546133069
 30
0.0
 10
11.3134770488
 20
10.549314357
 30
0.0
 10
11.3136125859
 20
10.5514451705
 30
0.0
 10
11.3136125574
 20
10.5525015284
 30
0.0
  0
SPLINE
  5
362
100
AcDbEntity
  8
0
100
AcDbSpline
 62
7
  6
CONTINUOUS
 70
0
 71
3
 72
42
 73
38
 74
0
 42
0.0000001
 43
0.0000001
 44
0.0000000001
 40
0.0
 40
0.0
 40
0.0
 40
0.0
 40
0.0081130194
 40
0.0169062389
 40
0.0264017121
 40
0.0366123603
 40
0.059193268
 40
0.0846362791
 40
0.1128537746
 40
0.1437152347
 40
0.1770294264
 40
0.2125807397
 40
0.250124474
 40
0.2893899235
 40
0.3300958015
 40
0.3719377864
 40
0.4577695173
 40
0.5443130049
 40
0.6289627139
 40
0.6697834217
 40
0.7091939152
 40
0.7469030375
 40
0.7826466412
 40
0.8161729548
 40
0.8472636541
 40
0.8757337996
 40
0.9014303578
 40
0.9242674181
 40
0.9442174133
 40
0.9531360867
 40
0.9613789806
 40
0.9689827377
 40
0.9759988625
 40
0.9824994418
 40
0.9885821247
 40
0.9943681974
 40
1.0
 40
1.0
 40
1.0
 40
1.0
 10
11.1178429228
 20
11.3969521446
 30
0.0
 10
11.1171001752
 20
11.3962347055
 30
0.0
 10
11.1154819024
 20
11.394811769
 30
0.0
 10
11.1127950024
 20
11.3927892764
 30
0.0
 10
11.1097596836
 20
11.3907987301
 30
0.0
 10
11.1050985569
 20
11.3881024888
 30
0.0
 10
11.0984127524
 20
11.3848778505
 30
0.0
 10
11.0893764206
 20
11.3813221399
 30
0.0
 10
11.0791427201
 20
11.3779858743
 30
0.0
 10
11.0677908271
 20
11.3748986835
 30
0.0
 10
11.0554101797
 20
11.3720823619
 30
0.0
 10
11.0420995269
 20
11.3695632239
 30
0.0
 10
11.0279659124
 20
11.3673618013
 30
0.0
 10
11.0131230425
 20
11.3654947231
 30
0.0
 10
10.9976903808
 20
11.3639799441
 30
0.0
 10
10.9763124545
 20
11.3624304044
 30
0.0
 10
10.949051873
 20
11.3614588857
 30
0.0
 10
10.9163276144
 20
11.3618005347
 30
0.0
 10
10.8893736167
 20
11.3633414879
 30
0.0
 10
10.8684804097
 20
11.3653431511
 30
0.0
 10
10.8535788678
 20
11.3671775852
 30
0.0
 10
10.8393761512
 20
11.3693505294
 30
0.0
 10
10.8259864017
 20
11.3718410801
 30
0.0
 10
10.8135170868
 20
11.374630642
 30
0.0
 10
10.8020678144
 20
11.3776959697
 30
0.0
 10
10.7917288316
 20
11.3810094433
 30
0.0
 10
10.782580737
 20
11.384547983
 30
0.0
 10
10.7746932018
 20
11.3882790136
 30
0.0
 10
10.7690194058
 20
11.3916439566
 30
0.0
 10
10.7652078349
 20
11.3944401654
 30
0.0
 10
10.762808271
 20
11.3964895419
 30
0.0
 10
10.7607640507
 20
11.3985666632
 30
0.0
 10
10.7590801024
 20
11.4006692694
 30
0.0
 10
10.7577618878
 20
11.4027953946
 30
0.0
 10
10.7568136911
 20
11.4049421304
 30
0.0
 10
10.7562408256
 20
11.4071046359
 30
0.0
 10
10.756112222
 20
11.408560945
 30
0.0
 10
10.756112212
 20
11.4092777871
 30
0.0
  0
SPLINE
  5
363
100
AcDbEntity
  8
0
100
AcDbSpline
 62
7
  6
CONTINUOUS
 70
0
 71
3
 72
27
 73
23
 74
0
 42
0.0000001
 43
0.0000001
 44
0.0000000001
 40
0.0
 40
0.0
 40
0.0
 40
0.0
 40
0.0229914344
 40
0.0474142412
 40
0.0732101343
 40
0.100316258
 40
0.1286589989
 40
0.1581577927
 40
0.2202826234
 40
0.2859569596
 40
0.3543840038
 40
0.4247163182
 40
0.4960773969
 40
0.5675730852
 40
0.6383070307
 40
0.7073960514
 40
0.7739818639
 40
0.837252034
 40
0.8964479647
 40
0.9508890996
 40
0.9761432786
 40
1.0
 40
1.0
 40
1.0
 40
1.0
 10
11.2238674795
 20
10.4869130313
 30
0.0
 10
11.2197760865
 20
10.4854466362
 30
0.0
 10
11.2112776108
 20
10.4825909452
 30
0.0
 10
11.198014813
 20
10.478630039
 30
0.0
 10
11.1838865763
 20
10.4748725948
 30
0.0
 10
11.1689399091
 20
10.4713332037
 30
0.0
 10
11.153224925
 20
10.4680229506
 30
0.0
 10
11.1309310318
 20
10.4638570885
 30
0.0
 10
11.1015318633
 20
10.4593412752
 30
0.0
 10
11.0646767466
 20
10.4550733018
 30
0.0
 10
11.0261521827
 20
10.451929945
 30
0.0
 10
10.9864744992
 20
10.4499530456
 30
0.0
 10
10.9461753289
 20
10.4491695906
 30
0.0
 10
10.9057948754
 20
10.4495921246
 30
0.0
 10
10.8658744323
 20
10.451212968
 30
0.0
 10
10.8269491568
 20
10.4540104409
 30
0.0
 10
10.7895402948
 20
10.4579467475
 30
0.0
 10
10.7541475952
 20
10.4629651168
 30
0.0
 10
10.7212443775
 20
10.4689983077
 30
0.0
 10
10.6956559319
 20
10.4749389884
 30
0.0
 10
10.6767958836
 20
10.4801911426
 30
0.0
 10
10.6679338144
 20
10.4829646967
 30
0.0
 10
10.6636554651
 20
10.4843909289
 30
0.0
  0
SPLINE
  5
364
100
AcDbEntity
  8
0
100
AcDbSpline
 62
7
  6
CONTINUOUS
 70
0
 71
3
 72
12
 73
8
 74
0
 42
0.0000001
 43
0.0000001
 44
0.0000000001
 40
0.0
 40
0.0
 40
0.0
 40
0.0
 40
0.2864384822
 40
0.5438114483
 40
0.7785561375
 40
0.8903204578
 40
1.0
 40
1.0
 40
1.0
 40
1.0
 10
11.2781866194
 20
10.4952486069
 30
0.0
 10
11.2799576679
 20
10.4969593084
 30
0.0
 10
11.2831370749
 20
10.5004100805
 30
0.0
 10
11.2868832877
 20
10.5059922711
 30
0.0
 10
11.2889246178
 20
10.5108112601
 30
0.0
 10
11.2898184887
 20
10.5146373259
 30
0.0
 10
11.2900322013
 20
10.5165343616
 30
0.0
 10
11.2900810572
 20
10.5174759438
 30
0.0
  0
SPLINE
  5
365
100
AcDbEntity
  8
0
100
AcDbSpline
 62
7
  6
CONTINUOUS
 70
0
 71
3
 72
9
 73
5
 74
0
 42
0.0000001
 43
0.0000001
 44
0.0000000001
 40
0.0
 40
0.0
 40
0.0
 40
0.0
 40
0.2579291561
 40
1.0
 40
1.0
 40
1.0
 40
1.0
 10
11.3036717296
 20
10.5265301585
 30
0.0
 10
11.3039418981
 20
10.5261075497
 30
0.0
 10
11.3049581643
 20
10.5244495381
 30
0.0
 10
11.3058444806
 20
10.5227104435
 30
0.0
 10
11.3064085124
 20
10.5213821539
 30
0.0
  0
SPLINE
  5
366
100
AcDbEntity
  8
0
100
AcDbSpline
 62
7
  6
CONTINUOUS
 70
0
 71
3
 72
15
 73
11
 74
0
 42
0.0000001
 43
0.0000001
 44
0.0000000001
 40
0.0
 40
0.0
 40
0.0
 40
0.0
 40
0.1187229294
 40
0.2329941463
 40
0.3460713221
 40
0.4613273039
 40
0.581945228
 40
0.7106028916
 40
0.8494165537
 40
1.0
 40
1.0
 40
1.0
 40
1.0
 10
11.3064085124
 20
10.5213821539
 30
0.0
 10
11.3070140263
 20
10.519956174
 30
0.0
 10
11.3079941575
 20
10.5170614918
 30
0.0
 10
11.3086947184
 20
10.5125772202
 30
0.0
 10
11.3085793974
 20
10.5080833486
 30
0.0
 10
11.3076476494
 20
10.5036026261
 30
0.0
 10
11.3059078101
 20
10.4991540663
 30
0.0
 10
11.3033776757
 20
10.4947486518
 30
0.0
 10
11.3000717517
 20
10.4903939083
 30
0.0
 10
11.2974695564
 20
10.4876470877
 30
0.0
 10
11.2960562483
 20
10.4862819368
 30
0.0
  0
SPLINE
  5
367
100
AcDbEntity
  8
0
100
AcDbSpline
 62
7
  6
CONTINUOUS
 70
0
 71
3
 72
54
 73
50
 74
0
 42
0.0000001
 43
0.0000001
 44
0.0000000001
 40
0.0
 40
0.0
 40
0.0
 40
0.0
 40
0.0084377577
 40
0.0176233223
 40
0.0275821369
 40
0.0383288649
 40
0.0498696518
 40
0.0622026261
 40
0.0753208154
 40
0.08921367
 40
0.1038654126
 40
0.1192533185
 40
0.1521340559
 40
0.1876318262
 40
0.2254773623
 40
0.2653747802
 40
0.3069973538
 40
0.3500015843
 40
0.3940255626
 40
0.4386982405
 40
0.4836394905
 40
0.5284678107
 40
0.5728016088
 40
0.6162661469
 40
0.6584947784
 40
0.699136869
 40
0.7187583077
 40
0.7378591457
 40
0.7743508754
 40
0.80833017
 40
0.8395539399
 40
0.8540678795
 40
0.8678206492
 40
0.8807973033
 40
0.8929858084
 40
0.9043783614
 40
0.9149763149
 40
0.9247896885
 40
0.9338370611
 40
0.9421494517
 40
0.94977741
 40
0.9567925149
 40
0.9632912338
 40
0.9694001161
 40
0.9752767509
 40
0.9810991867
 40
0.9870511177
 40
0.9933040145
 40
1.0
 40
1.0
 40
1.0
 40
1.0
 10
11.2960562483
 20
10.4862819368
 30
0.0
 10
11.2944727345
 20
10.4847523798
 30
0.0
 10
11.2910055155
 20
10.4817211516
 30
0.0
 10
11.2852223911
 20
10.4774277453
 30
0.0
 10
11.2786563017
 20
10.4732091528
 30
0.0
 10
11.2713226151
 20
10.4690767779
 30
0.0
 10
11.2632371596
 20
10.4650413096
 30
0.0
 10
11.2544189609
 20
10.4611103127
 30
0.0
 10
11.244887282
 20
10.4572921248
 30
0.0
 10
11.2346623227
 20
10.45359555
 30
0.0
 10
11.2237665489
 20
10.4500290643
 30
0.0
 10
11.208027337
 20
10.445353214
 30
0.0
 10
11.1868445698
 20
10.4399326619
 30
0.0
 10
11.1597207605
 20
10.4342001813
 30
0.0
 10
11.1306014717
 20
10.4291550956
 30
0.0
 10
11.0997506385
 20
10.4248468047
 30
0.0
 10
11.0674476337
 20
10.4213133933
 30
0.0
 10
11.0339863117
 20
10.4185898453
 30
0.0
 10
10.9996707707
 20
10.4166998613
 30
0.0
 10
10.9648134042
 20
10.415662234
 30
0.0
 10
10.929731239
 20
10.4154857136
 30
0.0
 10
10.8947437558
 20
10.4161724784
 30
0.0
 10
10.8601691767
 20
10.4177159564
 30
0.0
 10
10.8263221715
 20
10.4201016162
 30
0.0
 10
10.793510571
 20
10.4233078115
 30
0.0
 10
10.7669764936
 20
10.4266761586
 30
0.0
 10
10.7465007138
 20
10.4297743889
 30
0.0
 10
10.7271475846
 20
10.4330341784
 30
0.0
 10
10.7042030026
 20
10.4375109316
 30
0.0
 10
10.6783754503
 20
10.4436273549
 30
0.0
 10
10.6583686828
 20
10.4493541234
 30
0.0
 10
10.6436406096
 20
10.4542627179
 30
0.0
 10
10.6335407004
 20
10.4579830139
 30
0.0
 10
10.6241375465
 20
10.4618225988
 30
0.0
 10
10.6154521621
 20
10.4657728736
 30
0.0
 10
10.607504584
 20
10.4698261288
 30
0.0
 10
10.6003118755
 20
10.4739731029
 30
0.0
 10
10.5938886234
 20
10.4782044365
 30
0.0
 10
10.5882484595
 20
10.4825118553
 30
0.0
 10
10.5834047608
 20
10.4868892098
 30
0.0
 10
10.5793673027
 20
10.4913287499
 30
0.0
 10
10.5761453154
 20
10.4958243182
 30
0.0
 10
10.5737508118
 20
10.500371028
 30
0.0
 10
10.5722007074
 20
10.5049622274
 30
0.0
 10
10.5715084225
 20
10.5095830477
 30
0.0
 10
10.5716824464
 20
10.5142120378
 30
0.0
 10
10.5727224752
 20
10.5188251691
 30
0.0
 10
10.5746171145
 20
10.5234006184
 30
0.0
 10
10.5763680432
 20
10.5263048925
 30
0.0
 10
10.5773605009
 20
10.5277427768
 30
0.0
  0
SPLINE
  5
368
100
AcDbEntity
  8
0
100
AcDbSpline
 62
7
  6
CONTINUOUS
 70
0
 71
3
 72
51
 73
47
 74
0
 42
0.0000001
 43
0.0000001
 44
0.0000000001
 40
0.0
 40
0.0
 40
0.0
 40
0.0
 40
0.0060568996
 40
0.0118751406
 40
0.0176228535
 40
0.0234739718
 40
0.0295929692
 40
0.0361220198
 40
0.0431737255
 40
0.0508339324
 40
0.0591664499
 40
0.0682155639
 40
0.0780083965
 40
0.0885613951
 40
0.0998833345
 40
0.1119744939
 40
0.1248270909
 40
0.1384296607
 40
0.1678204726
 40
0.1999822654
 40
0.234705053
 40
0.2717382079
 40
0.3108048946
 40
0.3516006487
 40
0.3938039011
 40
0.4370754158
 40
0.481065923
 40
0.5254176949
 40
0.5697692873
 40
0.6137599346
 40
0.657031174
 40
0.699234586
 40
0.7400300195
 40
0.7790966049
 40
0.8161284062
 40
0.8508506738
 40
0.8830121217
 40
0.9124030338
 40
0.9260048516
 40
0.9388560766
 40
0.9509470937
 40
0.9622717079
 40
0.9728287222
 40
0.9826245574
 40
0.9916735098
 40
1.0
 40
1.0
 40
1.0
 40
1.0
 10
10.5843652975
 20
10.52134195
 30
0.0
 10
10.5837573846
 20
10.5199470408
 30
0.0
 10
10.5827681813
 20
10.51711603
 30
0.0
 10
10.5820438522
 20
10.5127254518
 30
0.0
 10
10.5821250783
 20
10.5083261242
 30
0.0
 10
10.5830103088
 20
10.5039405747
 30
0.0
 10
10.5846905664
 20
10.4995862369
 30
0.0
 10
10.5871526819
 20
10.4952746219
 30
0.0
 10
10.5903822443
 20
10.4910109345
 30
0.0
 10
10.5943693188
 20
10.4867999887
 30
0.0
 10
10.5991058393
 20
10.4826480636
 30
0.0
 10
10.6045821252
 20
10.4785619412
 30
0.0
 10
10.6107858368
 20
10.4745475387
 30
0.0
 10
10.6177044826
 20
10.470612621
 30
0.0
 10
10.6253246448
 20
10.4667659085
 30
0.0
 10
10.6336303871
 20
10.4630155902
 30
0.0
 10
10.642603316
 20
10.4593686289
 30
0.0
 10
10.6557743289
 20
10.4545292839
 30
0.0
 10
10.6737910549
 20
10.4488475166
 30
0.0
 10
10.6971967836
 20
10.4427214977
 30
0.0
 10
10.7227156439
 20
10.4371820337
 30
0.0
 10
10.7501263678
 20
10.4322752958
 30
0.0
 10
10.7791919863
 20
10.4280483163
 30
0.0
 10
10.809659823
 20
10.4245359911
 30
0.0
 10
10.8412648087
 20
10.4217724596
 30
0.0
 10
10.8737315968
 20
10.4197795695
 30
0.0
 10
10.9067772375
 20
10.4185778297
 30
0.0
 10
10.9401135488
 20
10.4181751211
 30
0.0
 10
10.9734498935
 20
10.4185778905
 30
0.0
 10
11.0064954572
 20
10.4197796023
 30
0.0
 10
11.0389622421
 20
10.4217726211
 30
0.0
 10
11.07056713
 20
10.4245360355
 30
0.0
 10
11.1010348687
 20
10.4280486207
 30
0.0
 10
11.1301000747
 20
10.4322753429
 30
0.0
 10
11.1575102786
 20
10.4371821524
 30
0.0
 10
11.1830286532
 20
10.4427212529
 30
0.0
 10
11.2064340394
 20
10.4488478387
 30
0.0
 10
11.2244505761
 20
10.4545292914
 30
0.0
 10
11.2376213832
 20
10.4593677263
 30
0.0
 10
11.2465937828
 20
10.4630145047
 30
0.0
 10
11.2548996515
 20
10.466765226
 30
0.0
 10
11.2625213803
 20
10.4706125298
 30
0.0
 10
11.2694417048
 20
10.4745493609
 30
0.0
 10
11.275646412
 20
10.4785656882
 30
0.0
 10
11.2811214394
 20
10.482651208
 30
0.0
 10
11.2844094971
 20
10.4855320384
 30
0.0
 10
11.2859140265
 20
10.4869853023
 30
0.0
  0
SPLINE
  5
369
100
AcDbEntity
  8
0
100
AcDbSpline
 62
7
  6
CONTINUOUS
 70
0
 71
3
 72
15
 73
11
 74
0
 42
0.0000001
 43
0.0000001
 44
0.0000000001
 40
0.0
 40
0.0
 40
0.0
 40
0.0
 40
0.1505951843
 40
0.2894703795
 40
0.4182203286
 40
0.5389346478
 40
0.6542571488
 40
0.7673333908
 40
0.8815028401
 40
1.0
 40
1.0
 40
1.0
 40
1.0
 10
11.2859140265
 20
10.4869853023
 30
0.0
 10
11.2872808222
 20
10.4883055257
 30
0.0
 10
11.2897983055
 20
10.4909618531
 30
0.0
 10
11.292999741
 20
10.4951719437
 30
0.0
 10
11.2954546925
 20
10.4994307046
 30
0.0
 10
11.2971493478
 20
10.5037309289
 30
0.0
 10
11.2980667807
 20
10.508062213
 30
0.0
 10
11.298198948
 20
10.5124065706
 30
0.0
 10
11.2975460985
 20
10.5167423381
 30
0.0
 10
11.2966161312
 20
10.5195431025
 30
0.0
 10
11.2960397814
 20
10.5209228252
 30
0.0
  0
SPLINE
  5
36A
100
AcDbEntity
  8
0
100
AcDbSpline
 62
7
  6
CONTINUOUS
 70
0
 71
3
 72
28
 73
24
 74
0
 42
0.0000001
 43
0.0000001
 44
0.0000000001
 40
0.0
 40
0.0
 40
0.0
 40
0.0
 40
0.0146617336
 40
0.0306577312
 40
0.0480340576
 40
0.0668168133
 40
0.0870155947
 40
0.1086262635
 40
0.1316359761
 40
0.1560239631
 40
0.1817555578
 40
0.2087890121
 40
0.2665723456
 40
0.3289450531
 40
0.3954092542
 40
0.4654028287
 40
0.5383246977
 40
0.6135339199
 40
0.6903623631
 40
0.7681141367
 40
0.8461069849
 40
0.9236610764
 40
1.0
 40
1.0
 40
1.0
 40
1.0
 10
11.3008858777
 20
10.4811173715
 30
0.0
 10
11.2992340826
 20
10.4795218598
 30
0.0
 10
11.2956085397
 20
10.4763611346
 30
0.0
 10
11.2895481602
 20
10.4718918427
 30
0.0
 10
11.2826508041
 20
10.4675036294
 30
0.0
 10
11.2749331585
 20
10.4632093809
 30
0.0
 10
11.2664133158
 20
10.4590194855
 30
0.0
 10
11.257111859
 20
10.4549423888
 30
0.0
 10
11.2470496795
 20
10.4509875365
 30
0.0
 10
11.2362496195
 20
10.447164982
 30
0.0
 10
11.2247375754
 20
10.443482848
 30
0.0
 10
11.2081036807
 20
10.4386650361
 30
0.0
 10
11.1857196408
 20
10.433104947
 30
0.0
 10
11.1570714976
 20
10.427260212
 30
0.0
 10
11.1263409846
 20
10.422164341
 30
0.0
 10
11.093822591
 20
10.4178643869
 30
0.0
 10
11.0598273905
 20
10.4144057167
 30
0.0
 10
11.0246815281
 20
10.4118203232
 30
0.0
 10
10.9887238876
 20
10.410135042
 30
0.0
 10
10.9522990745
 20
10.4093651717
 30
0.0
 10
10.9157527201
 20
10.4095188471
 30
0.0
 10
10.87944357
 20
10.410596545
 30
0.0
 10
10.8553724067
 20
10.4119349008
 30
0.0
 10
10.8434437266
 20
10.4127621575
 30
0.0
  0
SPLINE
  5
36B
100
AcDbEntity
  8
0
100
AcDbSpline
 62
7
  6
CONTINUOUS
 70
0
 71
3
 72
30
 73
26
 74
0
 42
0.0000001
 43
0.0000001
 44
0.0000000001
 40
0.0
 40
0.0
 40
0.0
 40
0.0
 40
0.0957928417
 40
0.1891065961
 40
0.2792667168
 40
0.3657319871
 40
0.4480177312
 40
0.5256637383
 40
0.5982352804
 40
0.6653659111
 40
0.7267568607
 40
0.7552322204
 40
0.7822027328
 40
0.8076582834
 40
0.8315962778
 40
0.8540291865
 40
0.8749843187
 40
0.8945031058
 40
0.9126455639
 40
0.9294994489
 40
0.9451862142
 40
0.9598621288
 40
0.9737235437
 40
0.9870101906
 40
1.0
 40
1.0
 40
1.0
 40
1.0
 10
10.8434437266
 20
10.4127621575
 30
0.0
 10
10.833719943
 20
10.4134365042
 30
0.0
 10
10.8145381298
 20
10.4149825858
 30
0.0
 10
10.786272807
 20
10.4179310542
 30
0.0
 10
10.7590312433
 20
10.4214666719
 30
0.0
 10
10.733003241
 20
10.4255623815
 30
0.0
 10
10.708358827
 20
10.4301920588
 30
0.0
 10
10.6852591709
 20
10.4353222325
 30
0.0
 10
10.6638573763
 20
10.4409197237
 30
0.0
 10
10.6442959827
 20
10.4469456655
 30
0.0
 10
10.6292778032
 20
10.4524185553
 30
0.0
 10
10.6183113433
 20
10.4570139102
 30
0.0
 10
10.6108311765
 20
10.4604550432
 30
0.0
 10
10.6038999687
 20
10.463971834
 30
0.0
 10
10.5975296195
 20
10.4675594086
 30
0.0
 10
10.5917302267
 20
10.4712118389
 30
0.0
 10
10.586510327
 20
10.4749230698
 30
0.0
 10
10.5818780541
 20
10.4786876485
 30
0.0
 10
10.5778415565
 20
10.482501081
 30
0.0
 10
10.5744079916
 20
10.4863589175
 30
0.0
 10
10.5715826189
 20
10.4902560917
 30
0.0
 10
10.5693717118
 20
10.4941883096
 30
0.0
 10
10.5677832585
 20
10.4981513333
 30
0.0
 10
10.5668265585
 20
10.5021370594
 30
0.0
 10
10.5666125986
 20
10.5048153435
 30
0.0
 10
10.566612563
 20
10.506137086
 30
0.0
  0
SPLINE
  5
36C
100
AcDbEntity
  8
0
100
AcDbSpline
 62
7
  6
CONTINUOUS
 70
0
 71
3
 72
35
 73
31
 74
0
 42
0.0000001
 43
0.0000001
 44
0.0000000001
 40
0.0
 40
0.0
 40
0.0
 40
0.0
 40
0.1070369048
 40
0.2101584198
 40
0.3081983805
 40
0.4002179915
 40
0.4436984869
 40
0.4853519567
 40
0.5250831305
 40
0.5628138926
 40
0.59847314
 40
0.6319985853
 40
0.6633487316
 40
0.6924973257
 40
0.7194340272
 40
0.7441804839
 40
0.7667946621
 40
0.7873736051
 40
0.8060750394
 40
0.8231382219
 40
0.8388928744
 40
0.8537724872
 40
0.8683026634
 40
0.8830479508
 40
0.898548843
 40
0.9152640204
 40
0.9335471215
 40
0.9536576976
 40
0.9757723548
 40
1.0
 40
1.0
 40
1.0
 40
1.0
 10
10.8288204627
 20
10.0595971832
 30
0.0
 10
10.8143231755
 20
10.0606025735
 30
0.0
 10
10.7858853823
 20
10.0629878853
 30
0.0
 10
10.7443100786
 20
10.0677784221
 30
0.0
 10
10.7049369347
 20
10.0736768418
 30
0.0
 10
10.6737706585
 20
10.0795614687
 30
0.0
 10
10.6502968825
 20
10.0848107129
 30
0.0
 10
10.6338440278
 20
10.0889039913
 30
0.0
 10
10.6182558573
 20
10.0932175207
 30
0.0
 10
10.6035755227
 20
10.0977377484
 30
0.0
 10
10.5898437081
 20
10.102451674
 30
0.0
 10
10.5770990581
 20
10.1073475527
 30
0.0
 10
10.5653762033
 20
10.112410524
 30
0.0
 10
10.554706677
 20
10.1176257452
 30
0.0
 10
10.5451201992
 20
10.1229806971
 30
0.0
 10
10.536642086
 20
10.1284613642
 30
0.0
 10
10.5292928398
 20
10.1340531534
 30
0.0
 10
10.5230918663
 20
10.1397456092
 30
0.0
 10
10.5180576907
 20
10.1455307331
 30
0.0
 10
10.514205927
 20
10.1513997441
 30
0.0
 10
10.5115589121
 20
10.1573461543
 30
0.0
 10
10.5101491681
 20
10.1633550599
 30
0.0
 10
10.5099976786
 20
10.1693913076
 30
0.0
 10
10.5111066978
 20
10.1754105511
 30
0.0
 10
10.5134595788
 20
10.181374061
 30
0.0
 10
10.5170247438
 20
10.1872621964
 30
0.0
 10
10.5217766129
 20
10.1930679903
 30
0.0
 10
10.5276989458
 20
10.1987835458
 30
0.0
 10
10.5347739741
 20
10.2043999533
 30
0.0
 10
10.5400039097
 20
10.2079093492
 30
0.0
 10
10.5427926409
 20
10.2096536575
 30
0.0
  0
SPLINE
  5
36D
100
AcDbEntity
  8
0
100
AcDbSpline
 62
7
  6
CONTINUOUS
 70
0
 71
3
 72
9
 73
5
 74
0
 42
0.0000001
 43
0.0000001
 44
0.0000000001
 40
0.0
 40
0.0
 40
0.0
 40
0.0
 40
0.4827712621
 40
1.0
 40
1.0
 40
1.0
 40
1.0
 10
10.5427926409
 20
10.2096536575
 30
0.0
 10
10.5453536827
 20
10.2112555495
 30
0.0
 10
10.5507572668
 20
10.2144172479
 30
0.0
 10
10.5563100267
 20
10.2173065958
 30
0.0
 10
10.5592116195
 20
10.2187400594
 30
0.0
  0
SPLINE
  5
36E
100
AcDbEntity
  8
0
100
AcDbSpline
 62
7
  6
CONTINUOUS
 70
0
 71
3
 72
32
 73
28
 74
0
 42
0.0000001
 43
0.0000001
 44
0.0000000001
 40
0.0
 40
0.0
 40
0.0
 40
0.0
 40
0.0840433738
 40
0.1694847532
 40
0.2551892831
 40
0.3401459811
 40
0.4233256043
 40
0.5037099271
 40
0.5803413203
 40
0.6523247816
 40
0.6863144885
 40
0.7188440774
 40
0.7498295698
 40
0.7791912138
 40
0.8068635139
 40
0.8327933429
 40
0.8569355536
 40
0.8792635282
 40
0.8997747544
 40
0.918486842
 40
0.9354505612
 40
0.9507673888
 40
0.9645947933
 40
0.9771676201
 40
0.9888210331
 40
0.9944419459
 40
1.0
 40
1.0
 40
1.0
 40
1.0
 10
10.8434437266
 20
10.0737221724
 30
0.0
 10
10.8573818418
 20
10.0727555609
 30
0.0
 10
10.8855227619
 20
10.0712554182
 30
0.0
 10
10.9279405207
 20
10.0702691837
 30
0.0
 10
10.9705211476
 20
10.0705384982
 30
0.0
 10
11.0126992658
 20
10.0720582615
 30
0.0
 10
11.0539292741
 20
10.0748056447
 30
0.0
 10
11.093672664
 20
10.0787466891
 30
0.0
 10
11.1314097307
 20
10.0838272031
 30
0.0
 10
11.1613245356
 20
10.0890463205
 30
0.0
 10
11.1838593372
 20
10.0937817969
 30
0.0
 10
11.1996374144
 20
10.0975043397
 30
0.0
 10
11.2145663109
 20
10.1014523619
 30
0.0
 10
11.2285969964
 20
10.1056144797
 30
0.0
 10
11.2416841574
 20
10.1099765506
 30
0.0
 10
11.2537862626
 20
10.1145229237
 30
0.0
 10
11.2648640967
 20
10.11923993
 30
0.0
 10
11.2748823283
 20
10.1241130957
 30
0.0
 10
11.2838110749
 20
10.1291253405
 30
0.0
 10
11.2916232509
 20
10.1342624603
 30
0.0
 10
11.2982944874
 20
10.1395128116
 30
0.0
 10
11.30380695
 20
10.1448626675
 30
0.0
 10
11.3081429785
 20
10.1503050894
 30
0.0
 10
11.3112773584
 20
10.1558348005
 30
0.0
 10
11.3128831231
 20
10.1605692496
 30
0.0
 10
11.3135085572
 20
10.16431947
 30
0.0
 10
11.3136120383
 20
10.1661796125
 30
0.0
 10
11.313611919
 20
10.1671035981
 30
0.0
  0
SPLINE
  5
36F
100
AcDbEntity
  8
0
100
AcDbSpline
 62
7
  6
CONTINUOUS
 70
0
 71
3
 72
9
 73
5
 74
0
 42
0.0000001
 43
0.0000001
 44
0.0000000001
 40
0.0
 40
0.0
 40
0.0
 40
0.0
 40
0.5125091234
 40
1.0
 40
1.0
 40
1.0
 40
1.0
 10
11.1227094802
 20
10.9301097337
 30
0.0
 10
11.1231579227
 20
10.9310444706
 30
0.0
 10
11.1238637132
 20
10.9329583969
 30
0.0
 10
11.1241129221
 20
10.9349879711
 30
0.0
 10
11.1241129084
 20
10.9359741042
 30
0.0
  0
SPLINE
  5
370
100
AcDbEntity
  8
0
100
AcDbSpline
 62
7
  6
CONTINUOUS
 70
0
 71
3
 72
15
 73
11
 74
0
 42
0.0000001
 43
0.0000001
 44
0.0000000001
 40
0.0
 40
0.0
 40
0.0
 40
0.0
 40
0.0866590216
 40
0.1840748228
 40
0.292603119
 40
0.4123607392
 40
0.543259234
 40
0.6850615061
 40
0.8374512045
 40
1.0
 40
1.0
 40
1.0
 40
1.0
 10
11.1178429228
 20
11.1680277102
 30
0.0
 10
11.1167181574
 20
11.1669412702
 30
0.0
 10
11.1141656171
 20
11.1648009757
 30
0.0
 10
11.1097853274
 20
11.1618409956
 30
0.0
 10
11.1046553901
 20
11.158960955
 30
0.0
 10
11.0987975858
 20
11.1561771765
 30
0.0
 10
11.0922372868
 20
11.153500931
 30
0.0
 10
11.0850029998
 20
11.1509424765
 30
0.0
 10
11.0771249094
 20
11.1485137072
 30
0.0
 10
11.0716363794
 20
11.1470342878
 30
0.0
 10
11.0687928648
 20
11.1463142959
 30
0.0
  0
SPLINE
  5
371
100
AcDbEntity
  8
0
100
AcDbSpline
 62
7
  6
CONTINUOUS
 70
0
 71
3
 72
33
 73
29
 74
0
 42
0.0000001
 43
0.0000001
 44
0.0000000001
 40
0.0
 40
0.0
 40
0.0
 40
0.0
 40
0.0312747158
 40
0.0643205239
 40
0.0989924163
 40
0.1351250317
 40
0.2110762359
 40
0.2907047959
 40
0.3724330911
 40
0.4546262323
 40
0.5356425621
 40
0.6138655521
 40
0.687758095
 40
0.7226330877
 40
0.7559070114
 40
0.7874241613
 40
0.8170521328
 40
0.8446737519
 40
0.8701836155
 40
0.8935109221
 40
0.9146155583
 40
0.9334886974
 40
0.9501875868
 40
0.964850311
 40
0.9777232801
 40
0.9892259032
 40
0.9946614814
 40
1.0
 40
1.0
 40
1.0
 40
1.0
 10
11.0687928648
 20
11.1463142959
 30
0.0
 10
11.0654809552
 20
11.1454757041
 30
0.0
 10
11.0586384533
 20
11.1438723888
 30
0.0
 10
11.0480373736
 20
11.1417305342
 30
0.0
 10
11.0368576953
 20
11.1397952942
 30
0.0
 10
11.0209952783
 20
11.1374633985
 30
0.0
 10
11.0001718836
 20
11.1351617762
 30
0.0
 10
10.9743026327
 20
11.1333883979
 30
0.0
 10
10.9477024363
 20
11.1326029843
 30
0.0
 10
10.9209402331
 20
11.1328208878
 30
0.0
 10
10.8945876429
 20
11.1340373658
 30
0.0
 10
10.8692078804
 20
11.1362272299
 30
0.0
 10
10.848944065
 20
11.1388675608
 30
0.0
 10
10.8336442715
 20
11.1414614344
 30
0.0
 10
10.8229624518
 20
11.1435754108
 30
0.0
 10
10.8129084349
 20
11.1458857129
 30
0.0
 10
10.8035354172
 20
11.1483788574
 30
0.0
 10
10.7948926569
 20
11.1510400687
 30
0.0
 10
10.7870261688
 20
11.1538569564
 30
0.0
 10
10.7799764664
 20
11.1568137419
 30
0.0
 10
10.7737782562
 20
11.1598934428
 30
0.0
 10
10.7684627352
 20
11.1630837507
 30
0.0
 10
10.7640540091
 20
11.1663704035
 30
0.0
 10
10.7605692692
 20
11.1697430276
 30
0.0
 10
10.7580295526
 20
11.1731996325
 30
0.0
 10
10.7567055879
 20
11.1762146136
 30
0.0
 10
10.7561954319
 20
11.1786009086
 30
0.0
 10
10.7561118467
 20
11.1797796263
 30
0.0
 10
10.7561122843
 20
11.1803628022
 30
0.0
  0
SPLINE
  5
372
100
AcDbEntity
  8
0
100
AcDbSpline
 62
7
  6
CONTINUOUS
 70
0
 71
3
 72
10
 73
6
 74
0
 42
0.0000001
 43
0.0000001
 44
0.0000000001
 40
0.0
 40
0.0
 40
0.0
 40
0.0
 40
0.2550402757
 40
0.5069166557
 40
1.0
 40
1.0
 40
1.0
 40
1.0
 10
10.7851777259
 20
10.0141523439
 30
0.0
 10
10.7775170404
 20
10.0188335535
 30
0.0
 10
10.7621466614
 20
10.0279068924
 30
0.0
 10
10.7312229709
 20
10.0447314678
 30
0.0
 10
10.707446868
 20
10.055900414
 30
0.0
 10
10.6913905318
 20
10.0624932131
 30
0.0
  0
SPLINE
  5
373
100
AcDbEntity
  8
0
100
AcDbSpline
 62
7
  6
CONTINUOUS
 70
0
 71
3
 72
14
 73
10
 74
0
 42
0.0000001
 43
0.0000001
 44
0.0000000001
 40
0.0
 40
0.0
 40
0.0
 40
0.0
 40
0.2606805495
 40
0.3877429821
 40
0.5128591054
 40
0.6363142967
 40
0.758456378
 40
0.87959437
 40
1.0
 40
1.0
 40
1.0
 40
1.0
 10
10.6913905318
 20
10.0624932131
 30
0.0
 10
10.673738269
 20
10.0697413063
 30
0.0
 10
10.6468402642
 20
10.0790906914
 30
0.0
 10
10.6103237659
 20
10.087896334
 30
0.0
 10
10.5832062307
 20
10.0925762763
 30
0.0
 10
10.5562006543
 20
10.0954260583
 30
0.0
 10
10.5293624203
 20
10.0965680679
 30
0.0
 10
10.502729853
 20
10.0961395498
 30
0.0
 10
10.4850821543
 20
10.0949139512
 30
0.0
 10
10.4763064223
 20
10.0940940185
 30
0.0
  0
SPLINE
  5
374
100
AcDbEntity
  8
0
100
AcDbSpline
 62
7
  6
CONTINUOUS
 70
0
 71
3
 72
9
 73
5
 74
0
 42
0.0000001
 43
0.0000001
 44
0.0000000001
 40
0.0
 40
0.0
 40
0.0
 40
0.0
 40
0.5271976036
 40
1.0
 40
1.0
 40
1.0
 40
1.0
 10
10.4763064223
 20
10.0940940185
 30
0.0
 10
10.4733403117
 20
10.0963921245
 30
0.0
 10
10.4679078835
 20
10.1010120887
 30
0.0
 10
10.4630600131
 20
10.1062578874
 30
0.0
 10
10.4609771859
 20
10.1089008985
 30
0.0
  0
SPLINE
  5
375
100
AcDbEntity
  8
0
100
AcDbSpline
 62
7
  6
CONTINUOUS
 70
0
 71
3
 72
20
 73
16
 74
0
 42
0.0000001
 43
0.0000001
 44
0.0000000001
 40
0.0
 40
0.0
 40
0.0
 40
0.0
 40
0.1219423262
 40
0.2445175436
 40
0.306124643
 40
0.3679808306
 40
0.4300946649
 40
0.4924878269
 40
0.555158081
 40
0.6180954563
 40
0.6812870021
 40
0.7446954476
 40
0.8083051964
 40
0.8720856221
 40
1.0
 40
1.0
 40
1.0
 40
1.0
 10
10.8423871713
 20
9.6504389603
 30
0.0
 10
10.8590295981
 20
9.6441600128
 30
0.0
 10
10.8928837798
 20
9.6327938461
 30
0.0
 10
10.9364261814
 20
9.6225205823
 30
0.0
 10
10.9719362652
 20
9.6171949201
 30
0.0
 10
10.9989150007
 20
9.6147772674
 30
0.0
 10
11.0261076187
 20
9.6140335087
 30
0.0
 10
11.0534106987
 20
9.615055103
 30
0.0
 10
11.0807122418
 20
9.6178281454
 30
0.0
 10
11.1078962804
 20
9.6223495642
 30
0.0
 10
11.1348640073
 20
9.6285130849
 30
0.0
 10
11.1615325731
 20
9.636217399
 30
0.0
 10
11.1878455495
 20
9.6453206311
 30
0.0
 10
11.2224399153
 20
9.6591357238
 30
0.0
 10
11.2477316795
 20
9.6711438889
 30
0.0
 10
11.2643131003
 20
9.6796996747
 30
0.0
  0
SPLINE
  5
376
100
AcDbEntity
  8
0
100
AcDbSpline
 62
7
  6
CONTINUOUS
 70
0
 71
3
 72
9
 73
5
 74
0
 42
0.0000001
 43
0.0000001
 44
0.0000000001
 40
0.0
 40
0.0
 40
0.0
 40
0.0
 40
0.5132482981
 40
1.0
 40
1.0
 40
1.0
 40
1.0
 10
11.2643131003
 20
9.6796996747
 30
0.0
 10
11.2715278786
 20
9.6813533714
 30
0.0
 10
11.2855441169
 20
9.6847572324
 30
0.0
 10
11.2994554124
 20
9.6885698944
 30
0.0
 10
11.3061933092
 20
9.6905390662
 30
0.0
  0
SPLINE
  5
377
100
AcDbEntity
  8
0
100
AcDbSpline
 62
7
  6
CONTINUOUS
 70
0
 71
3
 72
17
 73
13
 74
0
 42
0.0000001
 43
0.0000001
 44
0.0000000001
 40
0.0
 40
0.0
 40
0.0
 40
0.0
 40
0.1269993665
 40
0.2473160423
 40
0.3626355925
 40
0.4193576622
 40
0.4760404256
 40
0.5332497793
 40
0.5916153482
 40
0.714249598
 40
0.848991115
 40
1.0
 40
1.0
 40
1.0
 40
1.0
 10
11.3061933092
 20
9.6905390662
 30
0.0
 10
11.3083159787
 20
9.6890511951
 30
0.0
 10
11.3125998461
 20
9.6863561691
 30
0.0
 10
11.3193438919
 20
9.6832481672
 30
0.0
 10
11.3251278775
 20
9.6816450623
 30
0.0
 10
11.3297655782
 20
9.6810538274
 30
0.0
 10
11.3332529918
 20
9.680961537
 30
0.0
 10
11.3367649177
 20
9.6812358146
 30
0.0
 10
11.3415531918
 20
9.6821255505
 30
0.0
 10
11.3476656984
 20
9.6843143108
 30
0.0
 10
11.3548814378
 20
9.6885654148
 30
0.0
 10
11.3593931726
 20
9.6922977008
 30
0.0
 10
11.3616492936
 20
9.6943977561
 30
0.0
  0
SPLINE
  5
378
100
AcDbEntity
  8
0
100
AcDbSpline
 62
7
  6
CONTINUOUS
 70
0
 71
3
 72
18
 73
14
 74
0
 42
0.0000001
 43
0.0000001
 44
0.0000000001
 40
0.0
 40
0.0
 40
0.0
 40
0.0
 40
0.1230787767
 40
0.1847963409
 40
0.2466410297
 40
0.3086190412
 40
0.3707448717
 40
0.4954416645
 40
0.6207641673
 40
0.6836588272
 40
0.746692776
 40
0.8731335466
 40
1.0
 40
1.0
 40
1.0
 40
1.0
 10
11.2643131003
 20
10.0394455697
 30
0.0
 10
11.2470617816
 20
10.0426977024
 30
0.0
 10
11.2210318891
 20
10.0469488618
 30
0.0
 10
11.186096054
 20
10.0511155766
 30
0.0
 10
11.1597290643
 20
10.0534360388
 30
0.0
 10
11.1332416587
 20
10.0548984964
 30
0.0
 10
11.0977559227
 20
10.0556299295
 30
0.0
 10
11.0532156032
 20
10.0541720553
 30
0.0
 10
11.0087932456
 20
10.0494485701
 30
0.0
 10
10.9733974859
 20
10.0438065582
 30
0.0
 10
10.9380538183
 20
10.0369508742
 30
0.0
 10
10.8941862736
 20
10.0262700511
 30
0.0
 10
10.8595853066
 20
10.0158123559
 30
0.0
 10
10.8423871713
 20
10.0101848554
 30
0.0
  0
SPLINE
  5
379
100
AcDbEntity
  8
0
100
AcDbSpline
 62
7
  6
CONTINUOUS
 70
0
 71
3
 72
23
 73
19
 74
0
 42
0.0000001
 43
0.0000001
 44
0.0000000001
 40
0.0
 40
0.0
 40
0.0
 40
0.0
 40
0.0421733208
 40
0.0850466658
 40
0.1291177721
 40
0.1749448605
 40
0.2231022777
 40
0.2741704126
 40
0.3286439447
 40
0.3869152914
 40
0.4492944071
 40
0.5159081884
 40
0.5867896161
 40
0.6618724711
 40
0.7409779358
 40
0.823883449
 40
0.9103230917
 40
1.0
 40
1.0
 40
1.0
 40
1.0
 10
11.4192479346
 20
10.1594873501
 30
0.0
 10
11.4169301774
 20
10.1594791025
 30
0.0
 10
11.4122535021
 20
10.1592401489
 30
0.0
 10
11.4052275399
 20
10.1581612604
 30
0.0
 10
11.3981584862
 20
10.1562966592
 30
0.0
 10
11.3910558986
 20
10.1535890338
 30
0.0
 10
11.383926079
 20
10.1499930133
 30
0.0
 10
11.3767819589
 20
10.1454626297
 30
0.0
 10
11.3696302673
 20
10.1399766295
 30
0.0
 10
11.3624763352
 20
10.1335247416
 30
0.0
 10
11.3553353638
 20
10.1261033071
 30
0.0
 10
11.3482068288
 20
10.1177382722
 30
0.0
 10
11.3411007343
 20
10.1084592266
 30
0.0
 10
11.3340247097
 20
10.0983094289
 30
0.0
 10
11.326979316
 20
10.0873450224
 30
0.0
 10
11.3199711239
 20
10.0756239588
 30
0.0
 10
11.3130024458
 20
10.0632092289
 30
0.0
 10
11.3084622337
 20
10.0546601131
 30
0.0
 10
11.3061933092
 20
10.0502849613
 30
0.0
  0
SPLINE
  5
37A
100
AcDbEntity
  8
0
100
AcDbSpline
 62
7
  6
CONTINUOUS
 70
0
 71
3
 72
9
 73
5
 74
0
 42
0.0000001
 43
0.0000001
 44
0.0000000001
 40
0.0
 40
0.0
 40
0.0
 40
0.0
 40
0.4867517019
 40
1.0
 40
1.0
 40
1.0
 40
1.0
 10
11.3061933092
 20
10.0502849613
 30
0.0
 10
11.2994554124
 20
10.0483157895
 30
0.0
 10
11.2855441169
 20
10.0445031275
 30
0.0
 10
11.2715278786
 20
10.0410992665
 30
0.0
 10
11.2643131003
 20
10.0394455697
 30
0.0
  0
SPLINE
  5
37B
100
AcDbEntity
  8
0
100
AcDbSpline
 62
7
  6
CONTINUOUS
 70
0
 71
3
 72
10
 73
6
 74
0
 42
0.0000001
 43
0.0000001
 44
0.0000000001
 40
0.0
 40
0.0
 40
0.0
 40
0.0
 40
0.2561306049
 40
0.5083222399
 40
1.0
 40
1.0
 40
1.0
 40
1.0
 10
10.8508841492
 20
11.4326543715
 30
0.0
 10
10.8521343145
 20
11.4314989761
 30
0.0
 10
10.8546797972
 20
11.4292719004
 30
0.0
 10
10.8599724464
 20
11.4252539816
 30
0.0
 10
10.8643171431
 20
11.422775587
 30
0.0
 10
10.8673596016
 20
11.4215830907
 30
0.0
  0
SPLINE
  5
37C
100
AcDbEntity
  8
0
100
AcDbSpline
 62
7
  6
CONTINUOUS
 70
0
 71
3
 72
22
 73
18
 74
0
 42
0.0000001
 43
0.0000001
 44
0.0000000001
 40
0.0
 40
0.0
 40
0.0
 40
0.0
 40
0.0711708454
 40
0.1413108293
 40
0.210281305
 40
0.2779534729
 40
0.3442186106
 40
0.4090200527
 40
0.4723339958
 40
0.5342133972
 40
0.5947910793
 40
0.6542464189
 40
0.7128222001
 40
0.7707462173
 40
0.8282588056
 40
0.8855544636
 40
1.0
 40
1.0
 40
1.0
 40
1.0
 10
10.4763064223
 20
9.7343481234
 30
0.0
 10
10.4823457578
 20
9.7291003359
 30
0.0
 10
10.4945073262
 20
9.7188742418
 30
0.0
 10
10.5131689386
 20
9.7043534697
 30
0.0
 10
10.5321288742
 20
9.6908891863
 30
0.0
 10
10.5513738424
 20
9.6786240228
 30
0.0
 10
10.5708836539
 20
9.6677089698
 30
0.0
 10
10.5906209044
 20
9.6582924168
 30
0.0
 10
10.6105243179
 20
9.650487696
 30
0.0
 10
10.630529002
 20
9.644413677
 30
0.0
 10
10.6505422692
 20
9.6400929728
 30
0.0
 10
10.6704847011
 20
9.6375548405
 30
0.0
 10
10.6902707045
 20
9.6367229387
 30
0.0
 10
10.7098374821
 20
9.6375169094
 30
0.0
 10
10.7291385878
 20
9.6398087017
 30
0.0
 10
10.754465327
 20
9.6446656177
 30
0.0
 10
10.7730393321
 20
9.6501422658
 30
0.0
 10
10.7851777259
 20
9.6544064488
 30
0.0
  0
SPLINE
  5
37D
100
AcDbEntity
  8
0
100
AcDbSpline
 62
7
  6
CONTINUOUS
 70
0
 71
3
 72
21
 73
17
 74
0
 42
0.0000001
 43
0.0000001
 44
0.0000000001
 40
0.0
 40
0.0
 40
0.0
 40
0.0
 40
0.1672787927
 40
0.3265463204
 40
0.4023708807
 40
0.4752926048
 40
0.5450550917
 40
0.6114127979
 40
0.6741349027
 40
0.7330325806
 40
0.7879408702
 40
0.8387285414
 40
0.8853189351
 40
0.9276785793
 40
0.9658553063
 40
1.0
 40
1.0
 40
1.0
 40
1.0
 10
10.8294675097
 20
9.6081688693
 30
0.0
 10
10.8119502623
 20
9.6093836945
 30
0.0
 10
10.7777928068
 20
9.6123540701
 30
0.0
 10
10.7358735413
 20
9.6176281355
 30
0.0
 10
10.7039425721
 20
9.6227226958
 30
0.0
 10
10.6813807973
 20
9.6268671503
 30
0.0
 10
10.6599039542
 20
9.6313796041
 30
0.0
 10
10.639602023
 20
9.6362397125
 30
0.0
 10
10.6205609422
 20
9.6414293236
 30
0.0
 10
10.602859725
 20
9.6469242047
 30
0.0
 10
10.5865711176
 20
9.6527011864
 30
0.0
 10
10.5717620905
 20
9.6587380397
 30
0.0
 10
10.558491423
 20
9.6650065314
 30
0.0
 10
10.5468111768
 20
9.6714846558
 30
0.0
 10
10.5367681155
 20
9.6781465812
 30
0.0
 10
10.5308688432
 20
9.6829549412
 30
0.0
 10
10.5282449461
 20
9.6853965646
 30
0.0
  0
SPLINE
  5
37E
100
AcDbEntity
  8
0
100
AcDbSpline
 62
7
  6
CONTINUOUS
 70
0
 71
3
 72
27
 73
23
 74
0
 42
0.0000001
 43
0.0000001
 44
0.0000000001
 40
0.0
 40
0.0
 40
0.0
 40
0.0
 40
0.0737570226
 40
0.1486614401
 40
0.2240444921
 40
0.2993242434
 40
0.373926675
 40
0.4472607618
 40
0.5187486029
 40
0.5878381148
 40
0.6540019521
 40
0.7167434291
 40
0.7756077742
 40
0.830186925
 40
0.8557605745
 40
0.8801389692
 40
0.9032880321
 40
0.9251821742
 40
0.9458060177
 40
0.9651499101
 40
0.9832115293
 40
1.0
 40
1.0
 40
1.0
 40
1.0
 10
10.8294675097
 20
9.4671436903
 30
0.0
 10
10.8422494775
 20
9.4662572578
 30
0.0
 10
10.8680362031
 20
9.4648011638
 30
0.0
 10
10.9069394535
 20
9.4635509918
 30
0.0
 10
10.9461261952
 20
9.4632293496
 30
0.0
 10
10.985257021
 20
9.4638360937
 30
0.0
 10
11.0240064951
 20
9.4653672554
 30
0.0
 10
11.0620494853
 20
9.4678078961
 30
0.0
 10
11.0990637128
 20
9.4711392348
 30
0.0
 10
11.1347370148
 20
9.4753309183
 30
0.0
 10
11.1687691951
 20
9.480347632
 30
0.0
 10
11.2008746511
 20
9.4861455256
 30
0.0
 10
11.2307833436
 20
9.4926746571
 30
0.0
 10
11.2541516094
 20
9.4988036205
 30
0.0
 10
11.2715321647
 20
9.5040683354
 30
0.0
 10
11.2835833509
 20
9.5080771413
 30
0.0
 10
11.2949095116
 20
9.5122242312
 30
0.0
 10
11.3054871549
 20
9.5165014029
 30
0.0
 10
11.3152954038
 20
9.5208992102
 30
0.0
 10
11.3243148345
 20
9.525408955
 30
0.0
 10
11.332525592
 20
9.5300224638
 30
0.0
 10
11.3376344768
 20
9.5332786521
 30
0.0
 10
11.3400401212
 20
9.5349273708
 30
0.0
  0
SPLINE
  5
37F
100
AcDbEntity
  8
0
100
AcDbSpline
 62
7
  6
CONTINUOUS
 70
0
 71
3
 72
9
 73
5
 74
0
 42
0.0000001
 43
0.0000001
 44
0.0000000001
 40
0.0
 40
0.0
 40
0.0
 40
0.0
 40
0.4952810102
 40
1.0
 40
1.0
 40
1.0
 40
1.0
 10
11.211112714
 20
10.8915415135
 30
0.0
 10
11.2111127934
 20
10.8906742719
 30
0.0
 10
11.2109865361
 20
10.888921027
 30
0.0
 10
11.2106139782
 20
10.8872037741
 30
0.0
 10
11.2103702118
 20
10.88635429
 30
0.0
  0
SPLINE
  5
380
100
AcDbEntity
  8
0
100
AcDbSpline
 62
7
  6
CONTINUOUS
 70
0
 71
3
 72
9
 73
5
 74
0
 42
0.0000001
 43
0.0000001
 44
0.0000000001
 40
0.0
 40
0.0
 40
0.0
 40
0.0
 40
0.4845108358
 40
1.0
 40
1.0
 40
1.0
 40
1.0
 10
11.2103702118
 20
10.88635429
 30
0.0
 10
11.2100589775
 20
10.8852696913
 30
0.0
 10
11.2092274132
 20
10.8830826694
 30
0.0
 10
11.2080865602
 20
10.8810433986
 30
0.0
 10
11.2074375919
 20
10.8800334091
 30
0.0
  0
SPLINE
  5
381
100
AcDbEntity
  8
0
100
AcDbSpline
 62
7
  6
CONTINUOUS
 70
0
 71
3
 72
9
 73
5
 74
0
 42
0.0000001
 43
0.0000001
 44
0.0000000001
 40
0.0
 40
0.0
 40
0.0
 40
0.0
 40
0.2346563998
 40
1.0
 40
1.0
 40
1.0
 40
1.0
 10
11.2074375919
 20
10.8800334091
 30
0.0
 10
11.2070707725
 20
10.8794625281
 30
0.0
 10
11.2054230937
 20
10.8770839921
 30
0.0
 10
11.2034703292
 20
10.8749255992
 30
0.0
 10
11.2018784747
 20
10.8733879857
 30
0.0
  0
SPLINE
  5
382
100
AcDbEntity
  8
0
100
AcDbSpline
 62
7
  6
CONTINUOUS
 70
0
 71
3
 72
46
 73
42
 74
0
 42
0.0000001
 43
0.0000001
 44
0.0000000001
 40
0.0
 40
0.0
 40
0.0
 40
0.0
 40
0.005630682
 40
0.0114156637
 40
0.0174978852
 40
0.0239989961
 40
0.0310140986
 40
0.0386151258
 40
0.0468554969
 40
0.0557739133
 40
0.0653943281
 40
0.0757297575
 40
0.0867865439
 40
0.098566043
 40
0.1242633558
 40
0.1527280452
 40
0.1838186023
 40
0.2173428879
 40
0.2530843759
 40
0.2907932274
 40
0.3302015092
 40
0.3710212539
 40
0.412949915
 40
0.4556751528
 40
0.5422177779
 40
0.6280489368
 40
0.6698918472
 40
0.7105967726
 40
0.7498649174
 40
0.7874070865
 40
0.8229589755
 40
0.8562742245
 40
0.8871363032
 40
0.9153588422
 40
0.9407995665
 40
0.9524522341
 40
0.9633836611
 40
0.973593861
 40
0.9830895177
 40
0.9918840669
 40
1.0
 40
1.0
 40
1.0
 40
1.0
 10
10.6691124535
 20
10.6500675224
 30
0.0
 10
10.6691121197
 20
10.6490119091
 30
0.0
 10
10.6693003889
 20
10.6468672899
 30
0.0
 10
10.6701422336
 20
10.6436821635
 30
0.0
 10
10.6715378749
 20
10.6405199878
 30
0.0
 10
10.6734795565
 20
10.6373887524
 30
0.0
 10
10.6759579991
 20
10.6342912813
 30
0.0
 10
10.6789664041
 20
10.6312310872
 30
0.0
 10
10.6824989594
 20
10.6282121822
 30
0.0
 10
10.6865499539
 20
10.625240057
 30
0.0
 10
10.6911111634
 20
10.6223191432
 30
0.0
 10
10.6961733049
 20
10.6194542883
 30
0.0
 10
10.701726744
 20
10.6166507984
 30
0.0
 10
10.7100159389
 20
10.6128933733
 30
0.0
 10
10.7215562552
 20
10.608432079
 30
0.0
 10
10.7367818359
 20
10.6035483924
 30
0.0
 10
10.7536444284
 20
10.5990352124
 30
0.0
 10
10.7720090604
 20
10.5949252691
 30
0.0
 10
10.7917296941
 20
10.5912565773
 30
0.0
 10
10.8126477931
 20
10.5880563894
 30
0.0
 10
10.8345951322
 20
10.5853534457
 30
0.0
 10
10.8573946325
 20
10.5831687251
 30
0.0
 10
10.8808625364
 20
10.5815206154
 30
0.0
 10
10.9129266218
 20
10.5800515362
 30
0.0
 10
10.9532655306
 20
10.5796309276
 30
0.0
 10
10.99341635
 20
10.5810622232
 30
0.0
 10
11.0249036478
 20
10.5833423245
 30
0.0
 10
11.0476344407
 20
10.5855751256
 30
0.0
 10
11.0694965122
 20
10.5883231211
 30
0.0
 10
11.0903138439
 20
10.5915664509
 30
0.0
 10
11.1099190013
 20
10.5952761196
 30
0.0
 10
11.1281548401
 20
10.5994232272
 30
0.0
 10
11.1448758607
 20
10.6039723366
 30
0.0
 10
11.1599490119
 20
10.6088848883
 30
0.0
 10
11.1713536796
 20
10.6133721428
 30
0.0
 10
11.1795296032
 20
10.6171480208
 30
0.0
 10
11.1849974351
 20
10.6199638617
 30
0.0
 10
11.189971436
 20
10.6228412274
 30
0.0
 10
11.1944422147
 20
10.6257732086
 30
0.0
 10
11.1984001229
 20
10.6287529425
 30
0.0
 10
11.2007841026
 20
10.6308494325
 30
0.0
 10
11.2018784747
 20
10.6319065148
 30
0.0
  0
SPLINE
  5
383
100
AcDbEntity
  8
0
100
AcDbSpline
 62
7
  6
CONTINUOUS
 70
0
 71
3
 72
36
 73
32
 74
0
 42
0.0000001
 43
0.0000001
 44
0.0000000001
 40
0.0
 40
0.0
 40
0.0
 40
0.0
 40
0.0160448203
 40
0.03445864
 40
0.0553144726
 40
0.0786162815
 40
0.1043039564
 40
0.132282694
 40
0.1624249834
 40
0.1945741413
 40
0.2285590081
 40
0.2641832
 40
0.3012410767
 40
0.3395119467
 40
0.4187564756
 40
0.4999938552
 40
0.581231624
 40
0.6212282414
 40
0.6604817299
 40
0.6987518502
 40
0.7358104234
 40
0.7714349737
 40
0.8054188458
 40
0.8375704005
 40
0.8677115845
 40
0.8956918507
 40
0.9213777502
 40
0.9446780479
 40
0.9655406657
 40
0.9839595462
 40
1.0
 40
1.0
 40
1.0
 40
1.0
 10
10.6790231556
 20
10.8669521141
 30
0.0
 10
10.6811356078
 20
10.8649856875
 30
0.0
 10
10.6860238355
 20
10.8611372041
 30
0.0
 10
10.6945123287
 20
10.8559194409
 30
0.0
 10
10.7045963332
 20
10.8508930879
 30
0.0
 10
10.7162160548
 20
10.8460946247
 30
0.0
 10
10.7293000959
 20
10.8415497809
 30
0.0
 10
10.7437662058
 20
10.8372911909
 30
0.0
 10
10.7595212309
 20
10.8333471053
 30
0.0
 10
10.7764628595
 20
10.8297423684
 30
0.0
 10
10.7944806186
 20
10.8265040745
 30
0.0
 10
10.8134563317
 20
10.8236509173
 30
0.0
 10
10.8332656133
 20
10.8212043517
 30
0.0
 10
10.8609372109
 20
10.8184735476
 30
0.0
 10
10.8966289275
 20
10.8162073783
 30
0.0
 10
10.940110486
 20
10.8153023367
 30
0.0
 10
10.976534063
 20
10.8160592685
 30
0.0
 10
11.0053629481
 20
10.8175907752
 30
0.0
 10
11.026443948
 20
10.8191790502
 30
0.0
 10
11.0469565209
 20
10.8212043274
 30
0.0
 10
11.066765811
 20
10.8236506324
 30
0.0
 10
11.085741669
 20
10.8265031271
 30
0.0
 10
11.1037595327
 20
10.8297425154
 30
0.0
 10
11.1207015473
 20
10.8333457428
 30
0.0
 10
11.136456711
 20
10.837291403
 30
0.0
 10
11.1509228057
 20
10.8415490433
 30
0.0
 10
11.1640068572
 20
10.8460930502
 30
0.0
 10
11.1756268035
 20
10.8508924473
 30
0.0
 10
11.1857131648
 20
10.8559185109
 30
0.0
 10
11.194200908
 20
10.8611399342
 30
0.0
 10
11.1990905025
 20
10.8649866786
 30
0.0
 10
11.2012028643
 20
10.8669520494
 30
0.0
  0
SPLINE
  5
384
100
AcDbEntity
  8
0
100
AcDbSpline
 62
7
  6
CONTINUOUS
 70
0
 71
3
 72
41
 73
37
 74
0
 42
0.0000001
 43
0.0000001
 44
0.0000000001
 40
0.0
 40
0.0
 40
0.0
 40
0.0
 40
0.0078775931
 40
0.0163299734
 40
0.0253716216
 40
0.0350115502
 40
0.0452541115
 40
0.0560992047
 40
0.0795798883
 40
0.1054042769
 40
0.1334709479
 40
0.1636534704
 40
0.1957977988
 40
0.229733021
 40
0.2652697764
 40
0.3022042956
 40
0.3403220493
 40
0.4191926332
 40
0.5000056138
 40
0.5808184525
 40
0.6596886291
 40
0.6978060779
 40
0.7347402073
 40
0.7702765229
 40
0.8042113249
 40
0.8363551871
 40
0.8665369336
 40
0.8946026424
 40
0.9204268815
 40
0.9439083533
 40
0.9547531463
 40
0.9649942003
 40
0.9746310364
 40
0.9836692747
 40
0.9921200426
 40
1.0
 40
1.0
 40
1.0
 40
1.0
 10
11.3414608591
 20
9.532559666
 30
0.0
 10
11.339831497
 20
9.5311177747
 30
0.0
 10
11.3363388682
 20
9.5282572623
 30
0.0
 10
11.330642514
 20
9.524169533
 30
0.0
 10
11.3243174946
 20
9.5201433799
 30
0.0
 10
11.317374262
 20
9.5161867677
 30
0.0
 10
11.3098237001
 20
9.512306694
 30
0.0
 10
11.2986649726
 20
9.507103964
 30
0.0
 10
11.2832493241
 20
9.5008786114
 30
0.0
 10
11.2630125035
 20
9.4939870889
 30
0.0
 10
11.2407001156
 20
9.4875298655
 30
0.0
 10
11.2164538825
 20
9.4815536187
 30
0.0
 10
11.190428377
 20
9.4760948305
 30
0.0
 10
11.1627900634
 20
9.4711912876
 30
0.0
 10
11.1337164446
 20
9.4668741456
 30
0.0
 10
11.1033942886
 20
9.4631718857
 30
0.0
 10
11.0610792824
 20
9.4590425403
 30
0.0
 10
11.0065359461
 20
9.4556151295
 30
0.0
 10
10.9401077989
 20
9.4542461949
 30
0.0
 10
10.8736797721
 20
9.4556155171
 30
0.0
 10
10.8191366922
 20
9.4590432549
 30
0.0
 10
10.7768220172
 20
9.4631728594
 30
0.0
 10
10.7465001968
 20
9.466875282
 30
0.0
 10
10.7174269496
 20
9.4711925789
 30
0.0
 10
10.6897890445
 20
9.4760963328
 30
0.0
 10
10.6637640545
 20
9.4815553405
 30
0.0
 10
10.6395184566
 20
9.4875316094
 30
0.0
 10
10.6172065788
 20
9.4939887196
 30
0.0
 10
10.5969699762
 20
9.500880655
 30
0.0
 10
10.5815545994
 20
9.5071069263
 30
0.0
 10
10.5703962573
 20
9.5123098052
 30
0.0
 10
10.5628468614
 20
9.5161891735
 30
0.0
 10
10.5559053081
 20
9.5201442551
 30
0.0
 10
10.5495819556
 20
9.52416886
 30
0.0
 10
10.5438862268
 20
9.5282562206
 30
0.0
 10
10.540393688
 20
9.5311171803
 30
0.0
 10
10.5387639624
 20
9.5325596461
 30
0.0
  0
SPLINE
  5
385
100
AcDbEntity
  8
0
100
AcDbSpline
 62
7
  6
CONTINUOUS
 70
0
 71
3
 72
9
 73
5
 74
0
 42
0.0000001
 43
0.0000001
 44
0.0000000001
 40
0.0
 40
0.0
 40
0.0
 40
0.0
 40
0.2598250865
 40
1.0
 40
1.0
 40
1.0
 40
1.0
 10
10.5362082392
 20
9.5349208385
 30
0.0
 10
10.5356971332
 20
9.5354145521
 30
0.0
 10
10.5337572224
 20
9.5373424553
 30
0.0
 10
10.5319298876
 20
9.5393854439
 30
0.0
 10
10.5306646095
 20
9.5409656891
 30
0.0
  0
SPLINE
  5
386
100
AcDbEntity
  8
0
100
AcDbSpline
 62
7
  6
CONTINUOUS
 70
0
 71
3
 72
36
 73
32
 74
0
 42
0.0000001
 43
0.0000001
 44
0.0000000001
 40
0.0
 40
0.0
 40
0.0
 40
0.0
 40
0.0160404538
 40
0.0344593343
 40
0.0553219521
 40
0.0786222498
 40
0.1043081493
 40
0.1322884155
 40
0.1624295995
 40
0.1945811542
 40
0.2285650263
 40
0.2641895766
 40
0.3012481498
 40
0.3395182701
 40
0.3787717586
 40
0.418768376
 40
0.5000061448
 40
0.5812435244
 40
0.6604880533
 40
0.6987589233
 40
0.7358168
 40
0.7714409919
 40
0.8054258587
 40
0.8375750166
 40
0.867717306
 40
0.8956960436
 40
0.9213837185
 40
0.9446855274
 40
0.96554136
 40
0.9839551797
 40
1.0
 40
1.0
 40
1.0
 40
1.0
 10
11.1959039836
 20
10.8620208832
 30
0.0
 10
11.1938344926
 20
10.8600954
 30
0.0
 10
11.1890441334
 20
10.8563267261
 30
0.0
 10
11.1807286507
 20
10.8512112727
 30
0.0
 10
11.1708469941
 20
10.846287214
 30
0.0
 10
11.1594628771
 20
10.8415852216
 30
0.0
 10
11.146644369
 20
10.8371334363
 30
0.0
 10
11.1324718666
 20
10.8329622057
 30
0.0
 10
11.1170364571
 20
10.8290966235
 30
0.0
 10
11.1004382842
 20
10.8255665242
 30
0.0
 10
11.0827860967
 20
10.82239288
 30
0.0
 10
11.0641953576
 20
10.8195982773
 30
0.0
 10
11.044788101
 20
10.8172016205
 30
0.0
 10
11.0246918349
 20
10.8152174468
 30
0.0
 10
11.0040386782
 20
10.8136614062
 30
0.0
 10
10.9757948812
 20
10.8121609816
 30
0.0
 10
10.9401105281
 20
10.811419412
 30
0.0
 10
10.8975114367
 20
10.8123060855
 30
0.0
 10
10.8625440906
 20
10.8145262624
 30
0.0
 10
10.8354340938
 20
10.8172016443
 30
0.0
 10
10.8160268455
 20
10.8195985564
 30
0.0
 10
10.7974362484
 20
10.8223938082
 30
0.0
 10
10.7797841634
 20
10.8255663803
 30
0.0
 10
10.7631863686
 20
10.8290979583
 30
0.0
 10
10.7477510949
 20
10.8329619978
 30
0.0
 10
10.7335785776
 20
10.8371341589
 30
0.0
 10
10.7207600798
 20
10.8415867642
 30
0.0
 10
10.7093761829
 20
10.8462878416
 30
0.0
 10
10.6994968352
 20
10.8512121838
 30
0.0
 10
10.6911806177
 20
10.8563240514
 30
0.0
 10
10.6863915976
 20
10.8600944291
 30
0.0
 10
10.6843220181
 20
10.8620209466
 30
0.0
  0
SPLINE
  5
387
100
AcDbEntity
  8
0
100
AcDbSpline
 62
7
  6
CONTINUOUS
 70
0
 71
3
 72
28
 73
24
 74
0
 42
0.0000001
 43
0.0000001
 44
0.0000000001
 40
0.0
 40
0.0
 40
0.0
 40
0.0
 40
0.0146617336
 40
0.0306577312
 40
0.0480340576
 40
0.0668168133
 40
0.0870155947
 40
0.1086262635
 40
0.1316359761
 40
0.1560239631
 40
0.1817555578
 40
0.2087890121
 40
0.2665723456
 40
0.3289450531
 40
0.3954092542
 40
0.4654028287
 40
0.5383246977
 40
0.6135339199
 40
0.6903623631
 40
0.7681141367
 40
0.8461069849
 40
0.9236610764
 40
1.0
 40
1.0
 40
1.0
 40
1.0
 10
11.3530458754
 20
9.5260630681
 30
0.0
 10
11.3511552666
 20
9.52423688
 30
0.0
 10
11.3470055488
 20
9.5206191825
 30
0.0
 10
11.3400689698
 20
9.5155037279
 30
0.0
 10
11.3321744056
 20
9.5104810742
 30
0.0
 10
11.3233409558
 20
9.5055659704
 30
0.0
 10
11.3135893287
 20
9.5007703071
 30
0.0
 10
11.302943083
 20
9.4961037506
 30
0.0
 10
11.2914261305
 20
9.4915771124
 30
0.0
 10
11.279064616
 20
9.4872018993
 30
0.0
 10
11.26588818
 20
9.4829874087
 30
0.0
 10
11.2468493849
 20
9.4774730456
 30
0.0
 10
11.2212290982
 20
9.4711090883
 30
0.0
 10
11.1884390548
 20
9.4644193314
 30
0.0
 10
11.1532655761
 20
9.458586708
 30
0.0
 10
11.116045728
 20
9.4536650736
 30
0.0
 10
11.0771355587
 20
9.4497063548
 30
0.0
 10
11.0369083668
 20
9.4467471695
 30
0.0
 10
10.9957520313
 20
9.4448182331
 30
0.0
 10
10.9540609802
 20
9.4439370563
 30
0.0
 10
10.9122308156
 20
9.4441129498
 30
0.0
 10
10.8706721498
 20
9.4453464595
 30
0.0
 10
10.8431208182
 20
9.4468783125
 30
0.0
 10
10.8294675097
 20
9.4478251726
 30
0.0
  0
SPLINE
  5
388
100
AcDbEntity
  8
0
100
AcDbSpline
 62
7
  6
CONTINUOUS
 70
0
 71
3
 72
23
 73
19
 74
0
 42
0.0000001
 43
0.0000001
 44
0.0000000001
 40
0.0
 40
0.0
 40
0.0
 40
0.0
 40
0.1740883193
 40
0.3388546529
 40
0.4167858808
 40
0.4913097006
 40
0.5621187058
 40
0.6289187803
 40
0.6914586426
 40
0.7495296194
 40
0.8029598922
 40
0.8516483494
 40
0.8955532939
 40
0.9157328426
 40
0.9347530118
 40
0.9526434634
 40
0.9694448525
 40
1.0
 40
1.0
 40
1.0
 40
1.0
 10
10.8294675097
 20
9.4478251726
 30
0.0
 10
10.8105012511
 20
9.4491404871
 30
0.0
 10
10.7736284232
 20
9.4523998099
 30
0.0
 10
10.7284803885
 20
9.4583078683
 30
0.0
 10
10.6943150238
 20
9.4640613673
 30
0.0
 10
10.6703832132
 20
9.4687423595
 30
0.0
 10
10.6477814911
 20
9.4738430156
 30
0.0
 10
10.626621741
 20
9.4793399084
 30
0.0
 10
10.6070080696
 20
9.4852052525
 30
0.0
 10
10.5890352284
 20
9.491407753
 30
0.0
 10
10.5727895098
 20
9.4979201144
 30
0.0
 10
10.5583477745
 20
9.5047066669
 30
0.0
 10
10.5475857591
 20
9.5107247632
 30
0.0
 10
10.5399806473
 20
9.5156834302
 30
0.0
 10
10.5349316562
 20
9.519345716
 30
0.0
 10
10.5303804634
 20
9.5230531178
 30
0.0
 10
10.5251520691
 20
9.527896558
 30
0.0
 10
10.5217256397
 20
9.5318108325
 30
0.0
 10
10.519782127
 20
9.5345232867
 30
0.0
  0
SPLINE
  5
389
100
AcDbEntity
  8
0
100
AcDbSpline
 62
7
  6
CONTINUOUS
 70
0
 71
3
 72
11
 73
7
 74
0
 42
0.0000001
 43
0.0000001
 44
0.0000000001
 40
0.0
 40
0.0
 40
0.0
 40
0.0
 40
0.2715657869
 40
0.5251678015
 40
0.7659303677
 40
1.0
 40
1.0
 40
1.0
 40
1.0
 10
10.519782127
 20
9.5345232867
 30
0.0
 10
10.5186355118
 20
9.5361235547
 30
0.0
 10
10.5165943354
 20
9.5393518777
 30
0.0
 10
10.514304629
 20
9.5444327682
 30
0.0
 10
10.5129223097
 20
9.549553763
 30
0.0
 10
10.5126126091
 20
9.5530032597
 30
0.0
 10
10.5126125634
 20
9.5547000907
 30
0.0
  0
SPLINE
  5
38A
100
AcDbEntity
  8
0
100
AcDbSpline
 62
7
  6
CONTINUOUS
 70
0
 71
3
 72
9
 73
5
 74
0
 42
0.0000001
 43
0.0000001
 44
0.0000000001
 40
0.0
 40
0.0
 40
0.0
 40
0.0
 40
0.524385547
 40
1.0
 40
1.0
 40
1.0
 40
1.0
 10
10.8898784335
 20
11.4228778226
 30
0.0
 10
10.8876375368
 20
11.4224146472
 30
0.0
 10
10.8833823919
 20
11.4214394098
 30
0.0
 10
10.8791839181
 20
11.4202387509
 30
0.0
 10
10.8772095769
 20
11.4195988825
 30
0.0
  0
SPLINE
  5
38B
100
AcDbEntity
  8
0
100
AcDbSpline
 62
7
  6
CONTINUOUS
 70
0
 71
3
 72
15
 73
11
 74
0
 42
0.0000001
 43
0.0000001
 44
0.0000000001
 40
0.0
 40
0.0
 40
0.0
 40
0.0
 40
0.1395108201
 40
0.265197499
 40
0.3810200347
 40
0.4921537702
 40
0.6044986876
 40
0.7237462088
 40
0.8544732942
 40
1.0
 40
1.0
 40
1.0
 40
1.0
 10
11.1808215876
 20
10.9664999993
 30
0.0
 10
11.1819672324
 20
10.9652745931
 30
0.0
 10
11.18400207
 20
10.9628012489
 30
0.0
 10
11.1862883548
 20
10.9588008663
 30
0.0
 10
11.1876034305
 20
10.9547324732
 30
0.0
 10
11.1879145521
 20
10.9506235034
 30
0.0
 10
11.1872057666
 20
10.9465236197
 30
0.0
 10
11.1855018215
 20
10.9424791893
 30
0.0
 10
11.1828451301
 20
10.9385075702
 30
0.0
 10
11.1805866564
 20
10.9360549852
 30
0.0
 10
11.1793280529
 20
10.9348392675
 30
0.0
  0
SPLINE
  5
38C
100
AcDbEntity
  8
0
100
AcDbSpline
 62
7
  6
CONTINUOUS
 70
0
 71
3
 72
12
 73
8
 74
0
 42
0.0000001
 43
0.0000001
 44
0.0000000001
 40
0.0
 40
0.0
 40
0.0
 40
0.0
 40
0.2314875511
 40
0.3533737903
 40
0.478448154
 40
0.7358043404
 40
1.0
 40
1.0
 40
1.0
 40
1.0
 10
10.8898784335
 20
11.4228778226
 30
0.0
 10
10.8924640784
 20
11.4242278294
 30
0.0
 10
10.8961596469
 20
11.4267812667
 30
0.0
 10
10.9006789812
 20
11.4307717124
 30
0.0
 10
10.9051591665
 20
11.4352851841
 30
0.0
 10
10.9104266291
 20
11.4415160418
 30
0.0
 10
10.9143066424
 20
11.4468248798
 30
0.0
 10
10.9162038612
 20
11.4495603505
 30
0.0
  0
SPLINE
  5
38D
100
AcDbEntity
  8
0
100
AcDbSpline
 62
7
  6
CONTINUOUS
 70
0
 71
3
 72
9
 73
5
 74
0
 42
0.0000001
 43
0.0000001
 44
0.0000000001
 40
0.0
 40
0.0
 40
0.0
 40
0.0
 40
0.4890020459
 40
1.0
 40
1.0
 40
1.0
 40
1.0
 10
10.756112212
 20
10.9359741042
 30
0.0
 10
10.7561122249
 20
10.9350475503
 30
0.0
 10
10.7563304877
 20
10.9331471896
 30
0.0
 10
10.7569528204
 20
10.9313421938
 30
0.0
 10
10.7573504269
 20
10.9304593681
 30
0.0
  0
SPLINE
  5
38E
100
AcDbEntity
  8
0
100
AcDbSpline
 62
7
  6
CONTINUOUS
 70
0
 71
3
 72
12
 73
8
 74
0
 42
0.0000001
 43
0.0000001
 44
0.0000000001
 40
0.0
 40
0.0
 40
0.0
 40
0.0
 40
0.1100207931
 40
0.2217099603
 40
0.4556987732
 40
0.7126552044
 40
1.0
 40
1.0
 40
1.0
 40
1.0
 10
11.1241128361
 20
11.1803439032
 30
0.0
 10
11.1241124457
 20
11.1798236709
 30
0.0
 10
11.1240446553
 20
11.1787741167
 30
0.0
 10
11.123636421
 20
11.1766535309
 30
0.0
 10
11.1225869051
 20
11.1739756057
 30
0.0
 10
11.1205656995
 20
11.1708775627
 30
0.0
 10
11.1188201795
 20
11.1689716678
 30
0.0
 10
11.1178429228
 20
11.1680277102
 30
0.0
  0
SPLINE
  5
38F
100
AcDbEntity
  8
0
100
AcDbSpline
 62
7
  6
CONTINUOUS
 70
0
 71
3
 72
11
 73
7
 74
0
 42
0.0000001
 43
0.0000001
 44
0.0000000001
 40
0.0
 40
0.0
 40
0.0
 40
0.0
 40
0.2513521944
 40
0.5022838914
 40
0.7521876694
 40
1.0
 40
1.0
 40
1.0
 40
1.0
 10
10.9162038612
 20
11.4495603505
 30
0.0
 10
10.9188193561
 20
11.4471138803
 30
0.0
 10
10.9241956105
 20
11.4423803307
 30
0.0
 10
10.9328107356
 20
11.4359766142
 30
0.0
 10
10.9420714228
 20
11.4306244796
 30
0.0
 10
10.9487495334
 20
11.4280926267
 30
0.0
 10
10.9521650743
 20
11.4271974235
 30
0.0
  0
SPLINE
  5
390
100
AcDbEntity
  8
0
100
AcDbSpline
 62
7
  6
CONTINUOUS
 70
0
 71
3
 72
12
 73
8
 74
0
 42
0.0000001
 43
0.0000001
 44
0.0000000001
 40
0.0
 40
0.0
 40
0.0
 40
0.0
 40
0.1100240407
 40
0.2217093667
 40
0.4556837812
 40
0.7126357676
 40
1.0
 40
1.0
 40
1.0
 40
1.0
 10
11.1241129084
 20
11.4092777871
 30
0.0
 10
11.1241129156
 20
11.4087571928
 30
0.0
 10
11.1240458477
 20
11.4077068884
 30
0.0
 10
11.1236386773
 20
11.4055846951
 30
0.0
 10
11.1225895689
 20
11.4029046032
 30
0.0
 10
11.1205675652
 20
11.3998040911
 30
0.0
 10
11.1188208966
 20
11.3978967948
 30
0.0
 10
11.1178429228
 20
11.3969521446
 30
0.0
  0
SPLINE
  5
391
100
AcDbEntity
  8
0
100
AcDbSpline
 62
7
  6
CONTINUOUS
 70
0
 71
3
 72
11
 73
7
 74
0
 42
0.0000001
 43
0.0000001
 44
0.0000000001
 40
0.0
 40
0.0
 40
0.0
 40
0.0
 40
0.2688755688
 40
0.5277450221
 40
0.7730660461
 40
1.0
 40
1.0
 40
1.0
 40
1.0
 10
11.0054322722
 20
11.4433723392
 30
0.0
 10
11.0059110459
 20
11.4413624605
 30
0.0
 10
11.0068812256
 20
11.437424641
 30
0.0
 10
11.0084214066
 20
11.4316866797
 30
0.0
 10
11.0100303969
 20
11.4263030267
 30
0.0
 10
11.0112074474
 20
11.4228682953
 30
0.0
 10
11.0118245588
 20
11.4212373143
 30
0.0
  0
SPLINE
  5
392
100
AcDbEntity
  8
0
100
AcDbSpline
 62
7
  6
CONTINUOUS
 70
0
 71
3
 72
15
 73
11
 74
0
 42
0.0000001
 43
0.0000001
 44
0.0000000001
 40
0.0
 40
0.0
 40
0.0
 40
0.0
 40
0.1456828554
 40
0.2752941493
 40
0.3926674898
 40
0.5031418144
 40
0.6131864723
 40
0.7293446562
 40
0.856989485
 40
1.0
 40
1.0
 40
1.0
 40
1.0
 10
11.0875167427
 20
11.4498315635
 30
0.0
 10
11.0883743343
 20
11.449033688
 30
0.0
 10
11.0899086356
 20
11.4474261527
 30
0.0
 10
11.0916999468
 20
11.4448057121
 30
0.0
 10
11.0928161558
 20
11.4421308459
 30
0.0
 10
11.0932294362
 20
11.4394151431
 30
0.0
 10
11.092917979
 20
11.4366950283
 30
0.0
 10
11.0918965488
 20
11.4340125096
 30
0.0
 10
11.0902007767
 20
11.4313844044
 30
0.0
 10
11.0887262672
 20
11.4297713157
 30
0.0
 10
11.0878992204
 20
11.4289724498
 30
0.0
  0
SPLINE
  5
393
100
AcDbEntity
  8
0
100
AcDbSpline
 62
7
  6
CONTINUOUS
 70
0
 71
3
 72
12
 73
8
 74
0
 42
0.0000001
 43
0.0000001
 44
0.0000000001
 40
0.0
 40
0.0
 40
0.0
 40
0.0
 40
0.1266592603
 40
0.2525899869
 40
0.5026599416
 40
0.751594112
 40
1.0
 40
1.0
 40
1.0
 40
1.0
 10
10.9694710592
 20
11.4259972493
 30
0.0
 10
10.9711648543
 20
11.4262062579
 30
0.0
 10
10.9745221293
 20
11.4268106428
 30
0.0
 10
10.9810415578
 20
11.4286792889
 30
0.0
 10
10.9887905794
 20
11.4320714574
 30
0.0
 10
10.9974247161
 20
11.4372900701
 30
0.0
 10
11.002814394
 20
11.4412867406
 30
0.0
 10
11.0054322722
 20
11.4433723392
 30
0.0
  0
SPLINE
  5
394
100
AcDbEntity
  8
0
100
AcDbSpline
 62
7
  6
CONTINUOUS
 70
0
 71
3
 72
37
 73
33
 74
0
 42
0.0000001
 43
0.0000001
 44
0.0000000001
 40
0.0
 40
0.0
 40
0.0
 40
0.0
 40
0.0124788864
 40
0.0183310323
 40
0.0241350862
 40
0.0300717502
 40
0.0363081337
 40
0.0429855768
 40
0.0502166312
 40
0.0666428865
 40
0.0860230846
 40
0.1085144968
 40
0.1341443216
 40
0.1628203599
 40
0.1943872348
 40
0.2286488861
 40
0.265347909
 40
0.3449124958
 40
0.4305519524
 40
0.5194487491
 40
0.6086357764
 40
0.6951325932
 40
0.7364773323
 40
0.776094175
 40
0.8136651404
 40
0.8489041008
 40
0.8815389927
 40
0.9113524355
 40
0.9381814857
 40
0.961903927
 40
0.9824852491
 40
1.0
 40
1.0
 40
1.0
 40
1.0
 10
11.0389241951
 20
11.4352475352
 30
0.0
 10
11.0393770718
 20
11.4360027448
 30
0.0
 10
11.039905057
 20
11.4372153508
 30
0.0
 10
11.0401433465
 20
11.438909961
 30
0.0
 10
11.0400858815
 20
11.4401575127
 30
0.0
 10
11.0397961618
 20
11.4413992878
 30
0.0
 10
11.0392790371
 20
11.4426309057
 30
0.0
 10
11.0385387895
 20
11.443849766
 30
0.0
 10
11.0372011402
 20
11.4455270875
 30
0.0
 10
11.0349255294
 20
11.4475675021
 30
0.0
 10
11.031480582
 20
11.4498328695
 30
0.0
 10
11.0272330851
 20
11.4520054117
 30
0.0
 10
11.0222148092
 20
11.4540636957
 30
0.0
 10
11.0164669753
 20
11.4559936948
 30
0.0
 10
11.010038385
 20
11.4577774065
 30
0.0
 10
11.0029847755
 20
11.4593967549
 30
0.0
 10
10.9925461013
 20
11.4613732717
 30
0.0
 10
10.9784179699
 20
11.4632921807
 30
0.0
 10
10.9605357141
 20
11.4647129241
 30
0.0
 10
10.9419257574
 20
11.4652512269
 30
0.0
 10
10.9232518113
 20
11.4648863928
 30
0.0
 10
10.9079657386
 20
11.4638277465
 30
0.0
 10
10.896220004
 20
11.4625196348
 30
0.0
 10
10.8879368876
 20
11.4613462507
 30
0.0
 10
10.8801210172
 20
11.4599757713
 30
0.0
 10
10.872841961
 20
11.4584233722
 30
0.0
 10
10.8661645254
 20
11.4567016712
 30
0.0
 10
10.8601469801
 20
11.4548259587
 30
0.0
 10
10.8548400798
 20
11.4528150147
 30
0.0
 10
10.8502888189
 20
11.4506822251
 30
0.0
 10
10.8465318677
 20
11.4484508286
 30
0.0
 10
10.8444089367
 20
11.4467788824
 30
0.0
 10
10.8435199719
 20
11.4459202082
 30
0.0
  0
SPLINE
  5
395
100
AcDbEntity
  8
0
100
AcDbSpline
 62
7
  6
CONTINUOUS
 70
0
 71
3
 72
9
 73
5
 74
0
 42
0.0000001
 43
0.0000001
 44
0.0000000001
 40
0.0
 40
0.0
 40
0.0
 40
0.0
 40
0.4953370983
 40
1.0
 40
1.0
 40
1.0
 40
1.0
 10
10.6746124095
 20
10.8649785517
 30
0.0
 10
10.6746124876
 20
10.8641256391
 30
0.0
 10
10.6747374542
 20
10.8624015796
 30
0.0
 10
10.6751048128
 20
10.8607131159
 30
0.0
 10
10.6753449393
 20
10.8598779818
 30
0.0
  0
SPLINE
  5
396
100
AcDbEntity
  8
0
100
AcDbSpline
 62
7
  6
CONTINUOUS
 70
0
 71
3
 72
43
 73
39
 74
0
 42
0.0000001
 43
0.0000001
 44
0.0000000001
 40
0.0
 40
0.0
 40
0.0
 40
0.0
 40
0.0058611643
 40
0.0120831203
 40
0.01876419
 40
0.0259798167
 40
0.0337869312
 40
0.0422277689
 40
0.0513314916
 40
0.0611146018
 40
0.0715860806
 40
0.0827496287
 40
0.1071398179
 40
0.134217478
 40
0.1638640475
 40
0.1959163569
 40
0.2301797736
 40
0.2664352886
 40
0.304437658
 40
0.3439289582
 40
0.3846308348
 40
0.4262579
 40
0.4685129122
 40
0.5536912564
 40
0.6377356649
 40
0.7182525956
 40
0.7564789093
 40
0.7929903016
 40
0.8275451993
 40
0.8599162948
 40
0.8899075608
 40
0.9173490959
 40
0.9421151569
 40
0.9641355985
 40
0.9741121986
 40
0.9834050652
 40
0.9920272093
 40
1.0
 40
1.0
 40
1.0
 40
1.0
 10
10.6753449393
 20
10.8598779818
 30
0.0
 10
10.6756396255
 20
10.8588530948
 30
0.0
 10
10.6764189982
 20
10.8567867953
 30
0.0
 10
10.6780707889
 20
10.8537881332
 30
0.0
 10
10.6802251221
 20
10.8508185638
 30
0.0
 10
10.6828747933
 20
10.8478821152
 30
0.0
 10
10.6860143999
 20
10.84498197
 30
0.0
 10
10.6896389273
 20
10.8421226483
 30
0.0
 10
10.693742213
 20
10.8393089792
 30
0.0
 10
10.6983159609
 20
10.8365448212
 30
0.0
 10
10.7033515854
 20
10.833834927
 30
0.0
 10
10.7108947131
 20
10.8301930084
 30
0.0
 10
10.7214428761
 20
10.8258537154
 30
0.0
 10
10.7354149902
 20
10.8210795461
 30
0.0
 10
10.7509505534
 20
10.8166363697
 30
0.0
 10
10.7679318175
 20
10.8125569239
 30
0.0
 10
10.7862309834
 20
10.8088737411
 30
0.0
 10
10.8057086468
 20
10.8056165859
 30
0.0
 10
10.826216288
 20
10.8028091553
 30
0.0
 10
10.8475969855
 20
10.8004760669
 30
0.0
 10
10.8696870627
 20
10.7986326002
 30
0.0
 10
10.8923173246
 20
10.7972960355
 30
0.0
 10
10.9230596907
 20
10.7961981782
 30
0.0
 10
10.9615515476
 20
10.796139425
 30
0.0
 10
11.0069622185
 20
10.798119108
 30
0.0
 10
11.0437229179
 20
10.8014792597
 30
0.0
 10
11.0717281583
 20
10.8051987054
 30
0.0
 10
11.0913579412
 20
10.8083961159
 30
0.0
 10
11.1098292275
 20
10.8120209372
 30
0.0
 10
11.1270015238
 20
10.8160478645
 30
0.0
 10
11.1427444033
 20
10.8204428512
 30
0.0
 10
11.1569407313
 20
10.8251717373
 30
0.0
 10
11.1694848993
 20
10.8301994808
 30
0.0
 10
11.1787747482
 20
10.8347444045
 30
0.0
 10
11.1852622796
 20
10.8385386845
 30
0.0
 10
11.189497153
 20
10.8413404989
 30
0.0
 10
11.1932546682
 20
10.8441862678
 30
0.0
 10
11.1955225231
 20
10.8461856458
 30
0.0
 10
11.1965658823
 20
10.8471934534
 30
0.0
  0
SPLINE
  5
397
100
AcDbEntity
  8
0
100
AcDbSpline
 62
7
  6
CONTINUOUS
 70
0
 71
3
 72
11
 73
7
 74
0
 42
0.0000001
 43
0.0000001
 44
0.0000000001
 40
0.0
 40
0.0
 40
0.0
 40
0.0
 40
0.2400711544
 40
0.4842430464
 40
0.7364012167
 40
1.0
 40
1.0
 40
1.0
 40
1.0
 10
11.367612557
 20
9.5547000907
 30
0.0
 10
11.367612592
 20
9.5534023837
 30
0.0
 10
11.3674335166
 20
9.5507814536
 30
0.0
 10
11.3666304904
 20
9.5468714354
 30
0.0
 10
11.3652944579
 20
9.5429762012
 30
0.0
 10
11.3640826376
 20
9.5404578758
 30
0.0
 10
11.3633991812
 20
9.539207601
 30
0.0
  0
SPLINE
  5
398
100
AcDbEntity
  8
0
100
AcDbSpline
 62
7
  6
CONTINUOUS
 70
0
 71
3
 72
9
 73
5
 74
0
 42
0.0000001
 43
0.0000001
 44
0.0000000001
 40
0.0
 40
0.0
 40
0.0
 40
0.0
 40
0.4738105827
 40
1.0
 40
1.0
 40
1.0
 40
1.0
 10
11.3633991812
 20
9.539207601
 30
0.0
 10
11.3621280225
 20
9.5368822185
 30
0.0
 10
11.3589704328
 20
9.5322285131
 30
0.0
 10
11.3551627201
 20
9.5281077831
 30
0.0
 10
11.3530458754
 20
9.5260630681
 30
0.0
  0
SPLINE
  5
399
100
AcDbEntity
  8
0
100
AcDbSpline
 62
7
  6
CONTINUOUS
 70
0
 71
3
 72
11
 73
7
 74
0
 42
0.0000001
 43
0.0000001
 44
0.0000000001
 40
0.0
 40
0.0
 40
0.0
 40
0.0
 40
0.2654871086
 40
0.5165923815
 40
0.7596856437
 40
1.0
 40
1.0
 40
1.0
 40
1.0
 10
10.685041541
 20
10.654873609
 30
0.0
 10
10.68713375
 20
10.653841174
 30
0.0
 10
10.6913541068
 20
10.6521151711
 30
0.0
 10
10.6978694518
 20
10.6505490866
 30
0.0
 10
10.7043220377
 20
10.6499893953
 30
0.0
 10
10.7085781975
 20
10.6502071205
 30
0.0
 10
10.7106770717
 20
10.6504409881
 30
0.0
  0
SPLINE
  5
39A
100
AcDbEntity
  8
0
100
AcDbSpline
 62
7
  6
CONTINUOUS
 70
0
 71
3
 72
34
 73
30
 74
0
 42
0.0000001
 43
0.0000001
 44
0.0000000001
 40
0.0
 40
0.0
 40
0.0
 40
0.0
 40
0.0204483939
 40
0.0427678924
 40
0.0669175181
 40
0.0928318099
 40
0.1204229197
 40
0.1495955092
 40
0.1802393866
 40
0.2122324062
 40
0.2454486551
 40
0.2797508122
 40
0.3510289009
 40
0.4248658521
 40
0.4999968816
 40
0.5751274159
 40
0.6489649481
 40
0.6850023123
 40
0.720246916
 40
0.7545489189
 40
0.7877643296
 40
0.8197591643
 40
0.8504025395
 40
0.8795739562
 40
0.9071667795
 40
0.9330801848
 40
0.9572306495
 40
0.9795541333
 40
1.0
 40
1.0
 40
1.0
 40
1.0
 10
11.1801597909
 20
10.6474516962
 30
0.0
 10
11.1771702052
 20
10.6459748532
 30
0.0
 10
11.1708111744
 20
10.6430991057
 30
0.0
 10
11.1606367497
 20
10.6391440788
 30
0.0
 10
11.149447286
 20
10.6353754503
 30
0.0
 10
11.1372935259
 20
10.6318104173
 30
0.0
 10
11.1242308292
 20
10.6284641695
 30
0.0
 10
11.1103187442
 20
10.6253545972
 30
0.0
 10
11.0956213087
 20
10.6224957639
 30
0.0
 10
11.0802062872
 20
10.6198998883
 30
0.0
 10
11.0641443377
 20
10.6175807904
 30
0.0
 10
11.0416766965
 20
10.6148359915
 30
0.0
 10
11.0125308458
 20
10.6121928817
 30
0.0
 10
10.9766588171
 20
10.610288345
 30
0.0
 10
10.940113512
 20
10.6096499387
 30
0.0
 10
10.9035685842
 20
10.6102888817
 30
0.0
 10
10.8734351448
 20
10.6118872776
 30
0.0
 10
10.849848024
 20
10.6138120676
 30
0.0
 10
10.8327172524
 20
10.6155480909
 30
0.0
 10
10.8160825256
 20
10.6175802636
 30
0.0
 10
10.8000206012
 20
10.6199001747
 30
0.0
 10
10.784605354
 20
10.6224951974
 30
0.0
 10
10.7699079055
 20
10.6253541498
 30
0.0
 10
10.7559959647
 20
10.6284643325
 30
0.0
 10
10.7429330034
 20
10.6318093045
 30
0.0
 10
10.7307790728
 20
10.6353748205
 30
0.0
 10
10.7195893438
 20
10.6391446029
 30
0.0
 10
10.7094142321
 20
10.6430988867
 30
0.0
 10
10.7030550871
 20
10.6459749974
 30
0.0
 10
10.70006593
 20
10.6474517776
 30
0.0
  0
LINE
  5
39B
100
AcDbEntity
  8
0
100
AcDbLine
 62
7
  6
CONTINUOUS
 10
11.1991660572
 20
10.8709465259
 11
11.1937341116
 21
10.8668303204
  0
SPLINE
  5
39C
100
AcDbEntity
  8
0
100
AcDbSpline
 62
7
  6
CONTINUOUS
 70
0
 71
3
 72
33
 73
29
 74
0
 42
0.0000001
 43
0.0000001
 44
0.0000000001
 40
0.0
 40
0.0
 40
0.0
 40
0.0
 40
0.017930032
 40
0.0380604986
 40
0.0603864584
 40
0.0848662483
 40
0.1114297748
 40
0.1399696361
 40
0.1703639308
 40
0.2024716661
 40
0.2711823573
 40
0.3447229692
 40
0.4215614112
 40
0.500070238
 40
0.578575993
 40
0.6554063955
 40
0.6926838398
 40
0.7289396522
 40
0.7639833517
 40
0.7976386104
 40
0.8297354795
 40
0.8601173997
 40
0.8886465956
 40
0.9151955511
 40
0.9396649739
 40
0.9619783439
 40
0.9820885473
 40
1.0
 40
1.0
 40
1.0
 40
1.0
 10
11.1937341116
 20
10.8668303204
 30
0.0
 10
11.1911700462
 20
10.8650675881
 30
0.0
 10
11.1855167327
 20
10.8616292107
 30
0.0
 10
11.1761358823
 20
10.8569397381
 30
0.0
 10
11.1654167919
 20
10.8524452128
 30
0.0
 10
11.1534181298
 20
10.8481700575
 30
0.0
 10
11.1402041874
 20
10.8441398258
 30
0.0
 10
11.1258492625
 20
10.8403750101
 30
0.0
 10
11.1104340357
 20
10.8368998988
 30
0.0
 10
11.0880738315
 20
10.8325818777
 30
0.0
 10
11.0581331285
 20
10.8281102176
 30
0.0
 10
11.0202959572
 20
10.8242654024
 30
0.0
 10
10.9806332374
 20
10.8219226629
 30
0.0
 10
10.9400481598
 20
10.8211372233
 30
0.0
 10
10.8994650021
 20
10.8219281395
 30
0.0
 10
10.8660872792
 20
10.8239029378
 30
0.0
 10
10.8401003566
 20
10.8262813967
 30
0.0
 10
10.8213779288
 20
10.8284177192
 30
0.0
 10
10.8033343415
 20
10.8309139544
 30
0.0
 10
10.7860724075
 20
10.8337536229
 30
0.0
 10
10.7696904963
 20
10.8369208758
 30
0.0
 10
10.7542819221
 20
10.8403984026
 30
0.0
 10
10.7399337691
 20
10.8441634294
 30
0.0
 10
10.726727232
 20
10.8481968401
 30
0.0
 10
10.7147360966
 20
10.8524736165
 30
0.0
 10
10.7040253599
 20
10.8569688248
 30
0.0
 10
10.6946551262
 20
10.8616594502
 30
0.0
 10
10.6890085108
 20
10.8650958879
 30
0.0
 10
10.686448099
 20
10.8668582426
 30
0.0
  0
SPLINE
  5
39D
100
AcDbEntity
  8
0
100
AcDbSpline
 62
7
  6
CONTINUOUS
 70
0
 71
3
 72
9
 73
5
 74
0
 42
0.0000001
 43
0.0000001
 44
0.0000000001
 40
0.0
 40
0.0
 40
0.0
 40
0.0
 40
0.527961903
 40
1.0
 40
1.0
 40
1.0
 40
1.0
 10
10.6808287357
 20
10.8711413453
 30
0.0
 10
10.6792728015
 20
10.8724664455
 30
0.0
 10
10.6764521863
 20
10.875132114
 30
0.0
 10
10.674019457
 20
10.8781667543
 30
0.0
 10
10.6730100565
 20
10.8796898909
 30
0.0
  0
LINE
  5
39E
100
AcDbEntity
  8
0
100
AcDbLine
 62
7
  6
CONTINUOUS
 10
10.6730100565
 20
10.8796898909
 11
10.6714310106
 21
10.8823864037
  0
SPLINE
  5
39F
100
AcDbEntity
  8
0
100
AcDbSpline
 62
7
  6
CONTINUOUS
 70
0
 71
3
 72
10
 73
6
 74
0
 42
0.0000001
 43
0.0000001
 44
0.0000000001
 40
0.0
 40
0.0
 40
0.0
 40
0.0
 40
0.5133412155
 40
0.7584398178
 40
1.0
 40
1.0
 40
1.0
 40
1.0
 10
10.6714310106
 20
10.8823864037
 30
0.0
 10
10.6706922345
 20
10.8838382867
 30
0.0
 10
10.6698077299
 20
10.8861056831
 30
0.0
 10
10.6692112134
 20
10.8892286384
 30
0.0
 10
10.6691124766
 20
10.8907749475
 30
0.0
 10
10.6691124064
 20
10.8915415135
 30
0.0
  0
SPLINE
  5
3A0
100
AcDbEntity
  8
0
100
AcDbSpline
 62
7
  6
CONTINUOUS
 70
0
 71
3
 72
38
 73
34
 74
0
 42
0.0000001
 43
0.0000001
 44
0.0000000001
 40
0.0
 40
0.0
 40
0.0
 40
0.0
 40
0.0160190347
 40
0.0302961319
 40
0.0369087498
 40
0.0432502002
 40
0.0493964515
 40
0.0554311159
 40
0.061442746
 40
0.0675212008
 40
0.0737536768
 40
0.0802202511
 40
0.0941108323
 40
0.1096552687
 40
0.127151854
 40
0.1467755778
 40
0.1686202647
 40
0.1927270381
 40
0.2190845525
 40
0.2476518127
 40
0.2783684276
 40
0.3111445255
 40
0.3458761704
 40
0.3824499214
 40
0.4207315852
 40
0.4605786536
 40
0.5018434653
 40
0.5443651757
 40
0.6325090556
 40
0.7236139914
 40
0.8162164988
 40
0.9088761909
 40
1.0
 40
1.0
 40
1.0
 40
1.0
 10
11.2517737007
 20
10.6725024027
 30
0.0
 10
11.2535642838
 20
10.6708363202
 30
0.0
 10
11.2567711766
 20
10.6674801564
 30
0.0
 10
11.2599872615
 20
10.6628115782
 30
0.0
 10
11.2617965099
 20
10.6590600369
 30
0.0
 10
11.2627691912
 20
10.6563039434
 30
0.0
 10
11.2633903049
 20
10.6535378161
 30
0.0
 10
11.2636581306
 20
10.6507656419
 30
0.0
 10
11.2635715742
 20
10.647992163
 30
0.0
 10
11.2631305232
 20
10.6452222704
 30
0.0
 10
11.262335438
 20
10.6424606256
 30
0.0
 10
11.2607706095
 20
10.6387062565
 30
0.0
 10
11.2578576105
 20
10.6340188612
 30
0.0
 10
11.2530866286
 20
10.6286390456
 30
0.0
 10
11.2469840008
 20
10.6233739244
 30
0.0
 10
11.239577519
 20
10.6182331435
 30
0.0
 10
11.2308935492
 20
10.6132307753
 30
0.0
 10
11.2209640329
 20
10.6083883015
 30
0.0
 10
11.2098300317
 20
10.6037224644
 30
0.0
 10
11.1975370973
 20
10.5992530605
 30
0.0
 10
11.1841359145
 20
10.5950016592
 30
0.0
 10
11.1696839046
 20
10.5909845213
 30
0.0
 10
11.1542425511
 20
10.5872192897
 30
0.0
 10
11.1378775252
 20
10.5837244345
 30
0.0
 10
11.120659611
 20
10.5805132811
 30
0.0
 10
11.1026630597
 20
10.577599957
 30
0.0
 10
11.0839649994
 20
10.5749989021
 30
0.0
 10
11.0578935585
 20
10.5719233632
 30
0.0
 10
11.0241541774
 20
10.5689603663
 30
0.0
 10
10.9826945213
 20
10.5668195037
 30
0.0
 10
10.9404961593
 20
10.5660927338
 30
0.0
 10
10.8982952587
 20
10.5667948108
 30
0.0
 10
10.8702642872
 20
10.5682225498
 30
0.0
 10
10.8563846682
 20
10.5691851046
 30
0.0
  0
SPLINE
  5
3A1
100
AcDbEntity
  8
0
100
AcDbSpline
 62
7
  6
CONTINUOUS
 70
0
 71
3
 72
10
 73
6
 74
0
 42
0.0000001
 43
0.0000001
 44
0.0000000001
 40
0.0
 40
0.0
 40
0.0
 40
0.0
 40
0.2424955282
 40
0.4881301065
 40
1.0
 40
1.0
 40
1.0
 40
1.0
 10
10.566612563
 20
10.5525015284
 30
0.0
 10
10.5666125897
 20
10.5515110436
 30
0.0
 10
10.5667318302
 20
10.549515008
 30
0.0
 10
10.567452289
 20
10.5454876097
 30
0.0
 10
10.5685238955
 20
10.5425516629
 30
0.0
 10
10.5694239092
 20
10.5406645374
 30
0.0
  0
SPLINE
  5
3A2
100
AcDbEntity
  8
0
100
AcDbSpline
 62
7
  6
CONTINUOUS
 70
0
 71
3
 72
11
 73
7
 74
0
 42
0.0000001
 43
0.0000001
 44
0.0000000001
 40
0.0
 40
0.0
 40
0.0
 40
0.0
 40
0.2141990182
 40
0.4499619414
 40
0.7110684696
 40
1.0
 40
1.0
 40
1.0
 40
1.0
 10
10.5694239092
 20
10.5406645374
 30
0.0
 10
10.5703294895
 20
10.53876574
 30
0.0
 10
10.5726128536
 20
10.5349533817
 30
0.0
 10
10.5770777032
 20
10.5295577685
 30
0.0
 10
10.5827049962
 20
10.5242530214
 30
0.0
 10
10.5869950169
 20
10.5209561959
 30
0.0
 10
10.5893108397
 20
10.5193163093
 30
0.0
  0
SPLINE
  5
3A3
100
AcDbEntity
  8
0
100
AcDbSpline
 62
7
  6
CONTINUOUS
 70
0
 71
3
 72
20
 73
16
 74
0
 42
0.0000001
 43
0.0000001
 44
0.0000000001
 40
0.0
 40
0.0
 40
0.0
 40
0.0
 40
0.0375467448
 40
0.0788326407
 40
0.1238877397
 40
0.1726826513
 40
0.2251564505
 40
0.2812063885
 40
0.3406996603
 40
0.403489004
 40
0.4693948377
 40
0.5382179401
 40
0.6837752728
 40
0.8384150719
 40
1.0
 40
1.0
 40
1.0
 40
1.0
 10
10.5893108397
 20
10.5193163093
 30
0.0
 10
10.5920024635
 20
10.5174103095
 30
0.0
 10
10.5978372276
 20
10.5136648682
 30
0.0
 10
10.6073967866
 20
10.5084504338
 30
0.0
 10
10.6181423678
 20
10.5033924095
 30
0.0
 10
10.6300360179
 20
10.4985074963
 30
0.0
 10
10.6430378134
 20
10.4938147917
 30
0.0
 10
10.6571019203
 20
10.4893302642
 30
0.0
 10
10.6721787778
 20
10.4850691926
 30
0.0
 10
10.6882153117
 20
10.48104891
 30
0.0
 10
10.7051537382
 20
10.4772827115
 30
0.0
 10
10.7293130705
 20
10.4725290279
 30
0.0
 10
10.76132531
 20
10.4673666179
 30
0.0
 10
10.8016015641
 20
10.4624796913
 30
0.0
 10
10.829284005
 20
10.46010858
 30
0.0
 10
10.8434437266
 20
10.4591265999
 30
0.0
  0
SPLINE
  5
3A4
100
AcDbEntity
  8
0
100
AcDbSpline
 62
7
  6
CONTINUOUS
 70
0
 71
3
 72
49
 73
45
 74
0
 42
0.0000001
 43
0.0000001
 44
0.0000000001
 40
0.0
 40
0.0
 40
0.0
 40
0.0
 40
0.0085307867
 40
0.0178344227
 40
0.0279367614
 40
0.0388521624
 40
0.0505865318
 40
0.063137155
 40
0.0764948373
 40
0.0906465795
 40
0.1212598791
 40
0.1547843644
 40
0.1909735465
 40
0.229541678
 40
0.270170433
 40
0.3125174156
 40
0.3562139158
 40
0.4008800677
 40
0.4915305751
 40
0.5812798791
 40
0.6248297402
 40
0.6669813116
 40
0.7073743346
 40
0.7456638573
 40
0.7815382402
 40
0.8147140826
 40
0.8449526934
 40
0.8720661866
 40
0.8844117594
 40
0.8959396331
 40
0.9066499034
 40
0.9165498339
 40
0.9256599442
 40
0.9340168935
 40
0.9416737838
 40
0.9487056033
 40
0.9552169014
 40
0.9613469631
 40
0.9672646216
 40
0.9731589081
 40
0.9792223926
 40
0.9856281379
 40
0.9925175083
 40
1.0
 40
1.0
 40
1.0
 40
1.0
 10
11.1793280529
 20
10.9348392675
 30
0.0
 10
11.1782421334
 20
10.9337903498
 30
0.0
 10
11.1758598152
 20
10.931712117
 30
0.0
 10
11.171879733
 20
10.928771825
 30
0.0
 10
11.167352634
 20
10.9258835941
 30
0.0
 10
11.1622897724
 20
10.9230553074
 30
0.0
 10
11.1567022153
 20
10.9202951741
 30
0.0
 10
11.1506035603
 20
10.9176093304
 30
0.0
 10
11.144008406
 20
10.9150031348
 30
0.0
 10
11.1343163816
 20
10.9115516053
 30
0.0
 10
11.1210523224
 20
10.9075181689
 30
0.0
 10
11.1038235992
 20
10.9032000133
 30
0.0
 10
11.0850492606
 20
10.8993309527
 30
0.0
 10
11.064906247
 20
10.8959478247
 30
0.0
 10
11.0435833557
 20
10.8930832133
 30
0.0
 10
11.0212818148
 20
10.8907658512
 30
0.0
 10
10.9982120342
 20
10.8890163807
 30
0.0
 10
10.9665653443
 20
10.8874599512
 30
0.0
 10
10.9267176347
 20
10.8870282845
 30
0.0
 10
10.8870942705
 20
10.8885716915
 30
0.0
 10
10.8561362701
 20
10.8910215819
 30
0.0
 10
10.8339448227
 20
10.8934092691
 30
0.0
 10
10.8127575571
 20
10.8963388567
 30
0.0
 10
10.7927738824
 20
10.8997846154
 30
0.0
 10
10.774181938
 20
10.9037110449
 30
0.0
 10
10.7571549561
 20
10.908080949
 30
0.0
 10
10.7418522181
 20
10.9128520013
 30
0.0
 10
10.7303147994
 20
10.9172488652
 30
0.0
 10
10.722092354
 20
10.9209723917
 30
0.0
 10
10.7166348759
 20
10.9237487061
 30
0.0
 10
10.7117041022
 20
10.9265899503
 30
0.0
 10
10.7073119302
 20
10.9294909301
 30
0.0
 10
10.7034682211
 20
10.9324458841
 30
0.0
 10
10.700180137
 20
10.9354484143
 30
0.0
 10
10.6974547644
 20
10.9384937979
 30
0.0
 10
10.6953002878
 20
10.9415786601
 30
0.0
 10
10.6937271755
 20
10.9447001411
 30
0.0
 10
10.6927446907
 20
10.9478517449
 30
0.0
 10
10.6923630731
 20
10.9510229477
 30
0.0
 10
10.6925889474
 20
10.9541976547
 30
0.0
 10
10.6934216856
 20
10.957357141
 30
0.0
 10
10.6948479272
 20
10.9604881291
 30
0.0
 10
10.6968539088
 20
10.9635831403
 30
0.0
 10
10.6984981045
 20
10.9655323864
 30
0.0
 10
10.6994020948
 20
10.9665000936
 30
0.0
  0
SPLINE
  5
3A5
100
AcDbEntity
  8
0
100
AcDbSpline
 62
7
  6
CONTINUOUS
 70
0
 71
3
 72
32
 73
28
 74
0
 42
0.0000001
 43
0.0000001
 44
0.0000000001
 40
0.0
 40
0.0
 40
0.0
 40
0.0
 40
0.0055580328
 40
0.0111790647
 40
0.0228330841
 40
0.0354068773
 40
0.0492354925
 40
0.0645536673
 40
0.081518729
 40
0.1002320902
 40
0.1207445376
 40
0.1430735739
 40
0.1672166113
 40
0.193147102
 40
0.220819878
 40
0.250181778
 40
0.2811673063
 40
0.3136967138
 40
0.3476860199
 40
0.4196681375
 40
0.496299053
 40
0.5766834676
 40
0.6598619375
 40
0.7448164996
 40
0.8305188845
 40
0.9159584618
 40
1.0
 40
1.0
 40
1.0
 40
1.0
 10
11.3136124543
 20
10.6017637485
 30
0.0
 10
11.3136123343
 20
10.6008397774
 30
0.0
 10
11.3135083732
 20
10.598979668
 30
0.0
 10
11.3128819926
 20
10.5952295334
 30
0.0
 10
11.311275079
 20
10.5904952516
 30
0.0
 10
11.3081394928
 20
10.5849657938
 30
0.0
 10
11.3038023393
 20
10.5795236347
 30
0.0
 10
11.2982888377
 20
10.5741740595
 30
0.0
 10
11.2916166821
 20
10.5689239825
 30
0.0
 10
11.2838036965
 20
10.5637871395
 30
0.0
 10
11.2748742345
 20
10.5587752133
 30
0.0
 10
11.2648554213
 20
10.5539023688
 30
0.0
 10
11.2537771508
 20
10.5491856727
 30
0.0
 10
11.241674733
 20
10.5446396406
 30
0.0
 10
11.2285873863
 20
10.5402779139
 30
0.0
 10
11.2145566493
 20
10.5361161329
 30
0.0
 10
11.1996278361
 20
10.5321684418
 30
0.0
 10
11.1838499736
 20
10.5284462222
 30
0.0
 10
11.1613156844
 20
10.523711195
 30
0.0
 10
11.1314015523
 20
10.5184924725
 30
0.0
 10
11.0936651652
 20
10.5134124512
 30
0.0
 10
11.0539224823
 20
10.5094716862
 30
0.0
 10
11.0126934789
 20
10.5067245777
 30
0.0
 10
10.9705167574
 20
10.5052050543
 30
0.0
 10
10.9279376465
 20
10.5049358553
 30
0.0
 10
10.8855213539
 20
10.5059221404
 30
0.0
 10
10.8573813722
 20
10.507422241
 30
0.0
 10
10.8434437266
 20
10.50838882
 30
0.0
  0
SPLINE
  5
3A6
100
AcDbEntity
  8
0
100
AcDbSpline
 62
7
  6
CONTINUOUS
 70
0
 71
3
 72
49
 73
45
 74
0
 42
0.0000001
 43
0.0000001
 44
0.0000000001
 40
0.0
 40
0.0
 40
0.0
 40
0.0
 40
0.0056766403
 40
0.0115987793
 40
0.0178925588
 40
0.0246592599
 40
0.0319773326
 40
0.0399061303
 40
0.0484886486
 40
0.0577521284
 40
0.0677135925
 40
0.0783829754
 40
0.0897641102
 40
0.101852807
 40
0.1281125436
 40
0.1570644549
 40
0.1885514498
 40
0.2223858719
 40
0.2583444141
 40
0.2961833941
 40
0.3356353022
 40
0.3764180257
 40
0.418234881
 40
0.4607793277
 40
0.503738191
 40
0.5467934196
 40
0.5896272321
 40
0.6319227117
 40
0.6733691933
 40
0.713663623
 40
0.75251436
 40
0.7896451585
 40
0.8247964188
 40
0.8577337282
 40
0.8882450288
 40
0.9161547535
 40
0.9290892705
 40
0.9413270081
 40
0.952860373
 40
0.963684882
 40
0.9738007487
 40
0.9832147745
 40
0.9919404489
 40
1.0
 40
1.0
 40
1.0
 40
1.0
 10
10.5902660065
 20
10.5160122627
 30
0.0
 10
10.5904216986
 20
10.5146517478
 30
0.0
 10
10.5909818544
 20
10.5118946919
 30
0.0
 10
10.5925151891
 20
10.507842885
 30
0.0
 10
10.5947427471
 20
10.5038257912
 30
0.0
 10
10.597652523
 20
10.4998499143
 30
0.0
 10
10.6012361049
 20
10.4959191788
 30
0.0
 10
10.6054865595
 20
10.4920388786
 30
0.0
 10
10.6103965063
 20
10.4882153199
 30
0.0
 10
10.615955577
 20
10.4844533945
 30
0.0
 10
10.6221532012
 20
10.4807595216
 30
0.0
 10
10.6289782916
 20
10.4771406762
 30
0.0
 10
10.6364185201
 20
10.4736043778
 30
0.0
 10
10.6474466527
 20
10.4688764452
 30
0.0
 10
10.6626947204
 20
10.4632678647
 30
0.0
 10
10.6827003846
 20
10.4571413961
 30
0.0
 10
10.7047363355
 20
10.4514907072
 30
0.0
 10
10.728630446
 20
10.446365465
 30
0.0
 10
10.7541957215
 20
10.4418037632
 30
0.0
 10
10.7812310515
 20
10.4378456654
 30
0.0
 10
10.8095231537
 20
10.4345206237
 30
0.0
 10
10.8388485881
 20
10.431857672
 30
0.0
 10
10.8689754025
 20
10.4298765734
 30
0.0
 10
10.899665337
 20
10.428594647
 30
0.0
 10
10.9306753845
 20
10.4280212646
 30
0.0
 10
10.9617602065
 20
10.4281616386
 30
0.0
 10
10.9926735927
 20
10.4290144106
 30
0.0
 10
11.0231709882
 20
10.4305725626
 30
0.0
 10
11.0530109308
 20
10.4328240528
 30
0.0
 10
11.0819574948
 20
10.4357498298
 30
0.0
 10
11.109781745
 20
10.4393275687
 30
0.0
 10
11.1362641106
 20
10.4435264972
 30
0.0
 10
11.1611957738
 20
10.4483148712
 30
0.0
 10
11.1843813582
 20
10.4536512292
 30
0.0
 10
11.2056381751
 20
10.4594957942
 30
0.0
 10
11.2220001157
 20
10.4648736047
 30
0.0
 10
11.2339690902
 20
10.4694306333
 30
0.0
 10
11.2421353661
 20
10.4728583946
 30
0.0
 10
11.2497056333
 20
10.4763764996
 30
0.0
 10
11.2566650181
 20
10.4799788636
 30
0.0
 10
11.2629992084
 20
10.4836591541
 30
0.0
 10
11.2686964648
 20
10.4874086285
 30
0.0
 10
11.2737448531
 20
10.4912186628
 30
0.0
 10
11.276788222
 20
10.4938978585
 30
0.0
 10
11.2781866194
 20
10.4952486069
 30
0.0
  0
SPLINE
  5
3A7
100
AcDbEntity
  8
0
100
AcDbSpline
 62
7
  6
CONTINUOUS
 70
0
 71
3
 72
9
 73
5
 74
0
 42
0.0000001
 43
0.0000001
 44
0.0000000001
 40
0.0
 40
0.0
 40
0.0
 40
0.0
 40
0.2398884352
 40
1.0
 40
1.0
 40
1.0
 40
1.0
 10
10.5314930982
 20
9.5414998808
 30
0.0
 10
10.5321598632
 20
9.5409387132
 30
0.0
 10
10.5349719915
 20
9.5386382982
 30
0.0
 10
10.5379057989
 20
9.5364883065
 30
0.0
 10
10.5401835876
 20
9.5349272346
 30
0.0
  0
SPLINE
  5
3A8
100
AcDbEntity
  8
0
100
AcDbSpline
 62
7
  6
CONTINUOUS
 70
0
 71
3
 72
21
 73
17
 74
0
 42
0.0000001
 43
0.0000001
 44
0.0000000001
 40
0.0
 40
0.0
 40
0.0
 40
0.0
 40
0.0380053678
 40
0.0797013315
 40
0.1251049585
 40
0.1741822157
 40
0.2268693722
 40
0.2830608713
 40
0.3426257448
 40
0.405418524
 40
0.4712612356
 40
0.5399594182
 40
0.6113124939
 40
0.6851096753
 40
0.8391502926
 40
1.0
 40
1.0
 40
1.0
 40
1.0
 10
10.5401835876
 20
9.5349272346
 30
0.0
 10
10.5433152588
 20
9.5327809583
 30
0.0
 10
10.5500794243
 20
9.5285640107
 30
0.0
 10
10.561118162
 20
9.5226892017
 30
0.0
 10
10.5734782297
 20
9.5169920182
 30
0.0
 10
10.5871171759
 20
9.5114916278
 30
0.0
 10
10.6019900468
 20
9.5062091554
 30
0.0
 10
10.6180453432
 20
9.5011616483
 30
0.0
 10
10.6352278011
 20
9.4963664181
 30
0.0
 10
10.6534781948
 20
9.4918424644
 30
0.0
 10
10.6727320415
 20
9.4876042822
 30
0.0
 10
10.6929213066
 20
9.4836666383
 30
0.0
 10
10.713976232
 20
9.480044952
 30
0.0
 10
10.743531815
 20
9.4755890289
 30
0.0
 10
10.7820895022
 20
9.4709352945
 30
0.0
 10
10.8134378712
 20
9.4682553495
 30
0.0
 10
10.8294675097
 20
9.4671436903
 30
0.0
  0
SPLINE
  5
3A9
100
AcDbEntity
  8
0
100
AcDbSpline
 62
7
  6
CONTINUOUS
 70
0
 71
3
 72
15
 73
11
 74
0
 42
0.0000001
 43
0.0000001
 44
0.0000000001
 40
0.0
 40
0.0
 40
0.0
 40
0.0
 40
0.1430343556
 40
0.2706766748
 40
0.3868049293
 40
0.4968167934
 40
0.6072768327
 40
0.7246542585
 40
0.8543011757
 40
1.0
 40
1.0
 40
1.0
 40
1.0
 10
10.7469273835
 20
10.9648263558
 30
0.0
 10
10.7458457024
 20
10.9637815321
 30
0.0
 10
10.7439173024
 20
10.9616720727
 30
0.0
 10
10.7416997086
 20
10.9582355323
 30
0.0
 10
10.7403650546
 20
10.9547278775
 30
0.0
 10
10.739960249
 20
10.9511714482
 30
0.0
 10
10.7405012543
 20
10.9476208736
 30
0.0
 10
10.7419620821
 20
10.9441231213
 30
0.0
 10
10.7443069221
 20
10.9406974382
 30
0.0
 10
10.7463136587
 20
10.9385950354
 30
0.0
 10
10.7474353333
 20
10.9375516832
 30
0.0
  0
SPLINE
  5
3AA
100
AcDbEntity
  8
0
100
AcDbSpline
 62
7
  6
CONTINUOUS
 70
0
 71
3
 72
13
 73
9
 74
0
 42
0.0000001
 43
0.0000001
 44
0.0000000001
 40
0.0
 40
0.0
 40
0.0
 40
0.0
 40
0.1099381859
 40
0.2215105915
 40
0.3362758038
 40
0.4556455603
 40
0.712548316
 40
1.0
 40
1.0
 40
1.0
 40
1.0
 10
11.3136125574
 20
10.506137086
 30
0.0
 10
11.3136125859
 20
10.5050807281
 30
0.0
 10
11.3134770488
 20
10.5029499146
 30
0.0
 10
11.3128689276
 20
10.4997686266
 30
0.0
 10
11.3118565163
 20
10.4965968137
 30
0.0
 10
11.3099245409
 20
10.4922829155
 30
0.0
 10
11.3064199052
 20
10.4869068634
 30
0.0
 10
11.3028724758
 20
10.483036278
 30
0.0
 10
11.3008858777
 20
10.4811173715
 30
0.0
  0
SPLINE
  5
3AB
100
AcDbEntity
  8
0
100
AcDbSpline
 62
7
  6
CONTINUOUS
 70
0
 71
3
 72
9
 73
5
 74
0
 42
0.0000001
 43
0.0000001
 44
0.0000000001
 40
0.0
 40
0.0
 40
0.0
 40
0.0
 40
0.2415602784
 40
1.0
 40
1.0
 40
1.0
 40
1.0
 10
10.4689937666
 20
9.7405359639
 30
0.0
 10
10.4695585308
 20
9.7400103919
 30
0.0
 10
10.4719236779
 20
9.737863909
 30
0.0
 10
10.4743916321
 20
9.7358316793
 30
0.0
 10
10.4763064223
 20
9.7343481234
 30
0.0
  0
SPLINE
  5
3AC
100
AcDbEntity
  8
0
100
AcDbSpline
 62
7
  6
CONTINUOUS
 70
0
 71
3
 72
29
 73
25
 74
0
 42
0.0000001
 43
0.0000001
 44
0.0000000001
 40
0.0
 40
0.0
 40
0.0
 40
0.0
 40
0.0129907987
 40
0.0262797487
 40
0.0401421326
 40
0.0548174343
 40
0.0705047278
 40
0.0873621989
 40
0.1055069136
 40
0.1250251082
 40
0.1459797541
 40
0.1684155409
 40
0.1923569935
 40
0.2178125275
 40
0.273248761
 40
0.3346417519
 40
0.4017697837
 40
0.4743441605
 40
0.5519864656
 40
0.6342689295
 40
0.7207348176
 40
0.8109029365
 40
0.9042185143
 40
1.0
 40
1.0
 40
1.0
 40
1.0
 10
10.5666132014
 20
10.1670906037
 30
0.0
 10
10.5666133721
 20
10.1657688024
 30
0.0
 10
10.5668283587
 20
10.1630902763
 30
0.0
 10
10.5677872511
 20
10.1591048205
 30
0.0
 10
10.5693758286
 20
10.1551417911
 30
0.0
 10
10.5715863472
 20
10.1512093925
 30
0.0
 10
10.5744124025
 20
10.1473123821
 30
0.0
 10
10.5778480521
 20
10.1434557454
 30
0.0
 10
10.5818854077
 20
10.1396427777
 30
0.0
 10
10.5865174813
 20
10.1358780798
 30
0.0
 10
10.5917373118
 20
10.1321667518
 30
0.0
 10
10.5975376022
 20
10.1285150287
 30
0.0
 10
10.6039087781
 20
10.1249280389
 30
0.0
 10
10.6134237256
 20
10.1201007944
 30
0.0
 10
10.6267089609
 20
10.1143152219
 30
0.0
 10
10.6443033959
 20
10.1079035712
 30
0.0
 10
10.6638649919
 20
10.1018772137
 30
0.0
 10
10.6852659093
 20
10.0962813912
 30
0.0
 10
10.7083643003
 20
10.0911506833
 30
0.0
 10
10.7330074008
 20
10.086521864
 30
0.0
 10
10.7590350846
 20
10.0824260064
 30
0.0
 10
10.7862769008
 20
10.0788908087
 30
0.0
 10
10.8145411741
 20
10.0759425031
 30
0.0
 10
10.8337214035
 20
10.0743964178
 30
0.0
 10
10.8434437266
 20
10.0737221724
 30
0.0
  0
SPLINE
  5
3AD
100
AcDbEntity
  8
0
100
AcDbSpline
 62
7
  6
CONTINUOUS
 70
0
 71
3
 72
9
 73
5
 74
0
 42
0.0000001
 43
0.0000001
 44
0.0000000001
 40
0.0
 40
0.0
 40
0.0
 40
0.0
 40
0.528908314
 40
1.0
 40
1.0
 40
1.0
 40
1.0
 10
11.3210036983
 20
10.2187449725
 30
0.0
 10
11.3256050781
 20
10.2164720587
 30
0.0
 10
11.3341673662
 20
10.2118861733
 30
0.0
 10
11.3423079661
 20
10.2065712929
 30
0.0
 10
11.3459830253
 20
10.2038529948
 30
0.0
  0
SPLINE
  5
3AE
100
AcDbEntity
  8
0
100
AcDbSpline
 62
7
  6
CONTINUOUS
 70
0
 71
3
 72
41
 73
37
 74
0
 42
0.0000001
 43
0.0000001
 44
0.0000000001
 40
0.0
 40
0.0
 40
0.0
 40
0.0
 40
0.0182071335
 40
0.0343275907
 40
0.0416980908
 40
0.0486691068
 40
0.0553017244
 40
0.0616684819
 40
0.0678533628
 40
0.0739486455
 40
0.0800506517
 40
0.086255378
 40
0.0926541884
 40
0.0993296282
 40
0.1063526272
 40
0.1137827108
 40
0.1300399183
 40
0.1483987328
 40
0.1690172375
 40
0.1919772015
 40
0.2172981486
 40
0.2449552798
 40
0.2748970269
 40
0.3070386119
 40
0.341279666
 40
0.3775013173
 40
0.4155665303
 40
0.4553309145
 40
0.4966333947
 40
0.5393054081
 40
0.5831718438
 40
0.6280483481
 40
0.7200699859
 40
0.8137966981
 40
0.9076598469
 40
1.0
 40
1.0
 40
1.0
 40
1.0
 10
11.3459830253
 20
10.2038529948
 30
0.0
 10
11.3490069434
 20
10.2016163204
 30
0.0
 10
11.3545121466
 20
10.1971202449
 30
0.0
 10
11.3604411508
 20
10.1908223013
 30
0.0
 10
11.3641338391
 20
10.1857170321
 30
0.0
 10
11.3663344883
 20
10.1819762817
 30
0.0
 10
11.3680452154
 20
10.1782130292
 30
0.0
 10
11.3692606263
 20
10.1744308754
 30
0.0
 10
11.3699770687
 20
10.170635391
 30
0.0
 10
11.3701929114
 20
10.1668332282
 30
0.0
 10
11.3699074699
 20
10.163031583
 30
0.0
 10
11.3691216772
 20
10.1592375839
 30
0.0
 10
11.3678373146
 20
10.1554577718
 30
0.0
 10
11.3660583278
 20
10.1516974829
 30
0.0
 10
11.3637900216
 20
10.147960186
 30
0.0
 10
11.360004636
 20
10.1428595728
 30
0.0
 10
11.3539621835
 20
10.1365705775
 30
0.0
 10
11.3450510651
 20
10.1294086689
 30
0.0
 10
11.3343088969
 20
10.1224252248
 30
0.0
 10
11.3217777392
 20
10.1156500064
 30
0.0
 10
11.3075093944
 20
10.1091081284
 30
0.0
 10
11.2915652442
 20
10.1028271764
 30
0.0
 10
11.2740145766
 20
10.0968386539
 30
0.0
 10
11.2549365974
 20
10.0911668658
 30
0.0
 10
11.2344169382
 20
10.0858401186
 30
0.0
 10
11.2125488194
 20
10.0808832471
 30
0.0
 10
11.1894319334
 20
10.0763175427
 30
0.0
 10
11.1651717205
 20
10.072166933
 30
0.0
 10
11.1398794849
 20
10.068448523
 30
0.0
 10
11.1136711687
 20
10.0651803308
 30
0.0
 10
11.0866666063
 20
10.0623783482
 30
0.0
 10
11.0494533308
 20
10.0592534357
 30
0.0
 10
11.0018721725
 20
10.0566187843
 30
0.0
 10
10.9441099227
 20
10.0554717852
 30
0.0
 10
10.8862774077
 20
10.0563412719
 30
0.0
 10
10.8478503478
 20
10.0582774562
 30
0.0
 10
10.8288204627
 20
10.0595971832
 30
0.0
  0
SPLINE
  5
3AF
100
AcDbEntity
  8
0
100
AcDbSpline
 62
7
  6
CONTINUOUS
 70
0
 71
3
 72
28
 73
24
 74
0
 42
0.0000001
 43
0.0000001
 44
0.0000000001
 40
0.0
 40
0.0
 40
0.0
 40
0.0
 40
0.0148684899
 40
0.031059345
 40
0.0486199445
 40
0.0675787006
 40
0.0879437904
 40
0.1097079079
 40
0.1328557265
 40
0.1573638985
 40
0.1831967052
 40
0.210312966
 40
0.2682084012
 40
0.3306226203
 40
0.3970617341
 40
0.4669693084
 40
0.5397518996
 40
0.614777215
 40
0.6913861548
 40
0.7688932193
 40
0.8466271002
 40
0.9239179123
 40
1.0
 40
1.0
 40
1.0
 40
1.0
 10
11.3519801726
 20
9.6853965647
 30
0.0
 10
11.3500340451
 20
9.6835856318
 30
0.0
 10
11.3457822372
 20
9.6800006544
 30
0.0
 10
11.3387115608
 20
9.6749321741
 30
0.0
 10
11.3306990048
 20
9.6699593858
 30
0.0
 10
11.3217619929
 20
9.6650949385
 30
0.0
 10
11.3119208289
 20
9.6603488743
 30
0.0
 10
11.3011987628
 20
9.6557313413
 30
0.0
 10
11.289620073
 20
9.651253637
 30
0.0
 10
11.2772112276
 20
9.6469274236
 30
0.0
 10
11.2640019323
 20
9.6427616255
 30
0.0
 10
11.2449448488
 20
9.6373151766
 30
0.0
 10
11.2193356919
 20
9.6310316588
 30
0.0
 10
11.1865980589
 20
9.6244282186
 30
0.0
 10
11.1515227977
 20
9.6186752957
 30
0.0
 10
11.114442141
 20
9.6138250795
 30
0.0
 10
11.0757066116
 20
9.609928047
 30
0.0
 10
11.0356833908
 20
9.6070199894
 30
0.0
 10
10.9947538263
 20
9.6051304734
 30
0.0
 10
10.9533053878
 20
9.6042766782
 30
0.0
 10
10.9117266031
 20
9.6044673558
 30
0.0
 10
10.8704208968
 20
9.6057030073
 30
0.0
 10
10.8430377604
 20
9.6072277692
 30
0.0
 10
10.8294675097
 20
9.6081688693
 30
0.0
  0
SPLINE
  5
3B0
100
AcDbEntity
  8
0
100
AcDbSpline
 62
7
  6
CONTINUOUS
 70
0
 71
3
 72
83
 73
79
 74
0
 42
0.0000001
 43
0.0000001
 44
0.0000000001
 40
0.0
 40
0.0
 40
0.0
 40
0.0
 40
0.003980149
 40
0.0081240919
 40
0.0124359835
 40
0.0169193603
 40
0.0215772246
 40
0.0264119606
 40
0.0314252324
 40
0.0366182158
 40
0.0419916195
 40
0.0475457334
 40
0.0532805161
 40
0.0591955185
 40
0.0715625327
 40
0.0846382143
 40
0.0984095328
 40
0.1128601134
 40
0.1279706583
 40
0.1437192718
 40
0.1600817502
 40
0.1770318183
 40
0.1945413264
 40
0.2125804203
 40
0.2311176863
 40
0.2501203005
 40
0.269554164
 40
0.2893840224
 40
0.3095735802
 40
0.3300856048
 40
0.3508820422
 40
0.3719241252
 40
0.4145864312
 40
0.4577527569
 40
0.5010975799
 40
0.5442936399
 40
0.5870151259
 40
0.6080976714
 40
0.6289416876
 40
0.6495082871
 40
0.6697592834
 40
0.6896572915
 40
0.7091658343
 40
0.7282494515
 40
0.7468738239
 40
0.7650058946
 40
0.78261399
 40
0.7996679565
 40
0.8161393115
 40
0.8320014232
 40
0.8472297058
 40
0.8618018332
 40
0.8756980061
 40
0.8889012771
 40
0.9013979681
 40
0.9131781873
 40
0.9187980573
 40
0.924237173
 40
0.9294957148
 40
0.9345742409
 40
0.9394737433
 40
0.9441957547
 40
0.948742307
 40
0.9531161074
 40
0.9573205402
 40
0.9613597705
 40
0.9652388909
 40
0.9689639409
 40
0.9725421207
 40
0.975981843
 40
0.9792928682
 40
0.9824864417
 40
0.9855753029
 40
0.9885737828
 40
0.9914977139
 40
0.9943643205
 40
0.9971920042
 40
1.0
 40
1.0
 40
1.0
 40
1.0
 10
11.3559436531
 20
9.5046117371
 30
0.0
 10
11.3550910288
 20
9.5037881652
 30
0.0
 10
11.3533119704
 20
9.5021468388
 30
0.0
 10
11.3504873629
 20
9.4997495456
 30
0.0
 10
11.3474553271
 20
9.4973694272
 30
0.0
 10
11.3442175278
 20
9.495007787
 30
0.0
 10
11.3407755684
 20
9.4926657056
 30
0.0
 10
11.3371311121
 20
9.4903443434
 30
0.0
 10
11.3332859854
 20
9.4880447887
 30
0.0
 10
11.3292420984
 20
9.4857682262
 30
0.0
 10
11.3250014809
 20
9.483515791
 30
0.0
 10
11.3205662658
 20
9.4812885894
 30
0.0
 10
11.315938653
 20
9.4790877566
 30
0.0
 10
11.309417995
 20
9.4761461866
 30
0.0
 10
11.3007956519
 20
9.4725515374
 30
0.0
 10
11.2898687634
 20
9.4684219702
 30
0.0
 10
11.2782352674
 20
9.4644231338
 30
0.0
 10
11.2659185777
 20
9.4605631442
 30
0.0
 10
11.2529433528
 20
9.4568498498
 30
0.0
 10
11.2393356938
 20
9.4532908044
 30
0.0
 10
11.2251230024
 20
9.4498932545
 30
0.0
 10
11.2103339344
 20
9.4466641211
 30
0.0
 10
11.1949983298
 20
9.4436099836
 30
0.0
 10
11.1791471531
 20
9.440737067
 30
0.0
 10
11.1628124302
 20
9.438051219
 30
0.0
 10
11.1460271778
 20
9.4355579059
 30
0.0
 10
11.1288253299
 20
9.4332622028
 30
0.0
 10
11.1112416695
 20
9.4311687834
 30
0.0
 10
11.0933117558
 20
9.4292819095
 30
0.0
 10
11.0750718661
 20
9.4276054232
 30
0.0
 10
11.0565588709
 20
9.4261427086
 30
0.0
 10
11.0314464152
 20
9.4244739323
 30
0.0
 10
10.999649817
 20
9.4229477432
 30
0.0
 10
10.9611854191
 20
9.4220118608
 30
0.0
 10
10.9225505636
 20
9.4219710931
 30
0.0
 10
10.8840577941
 20
9.4228257981
 30
0.0
 10
10.8522194756
 20
9.4242846085
 30
0.0
 10
10.8270595889
 20
9.4258999036
 30
0.0
 10
10.8085009393
 20
9.4273234045
 30
0.0
 10
10.7902086249
 20
9.4289612543
 30
0.0
 10
10.7722196192
 20
9.4308101416
 30
0.0
 10
10.7545703175
 20
9.4328662989
 30
0.0
 10
10.7372964155
 20
9.4351255449
 30
0.0
 10
10.7204328475
 20
9.4375832852
 30
0.0
 10
10.7040137076
 20
9.4402345167
 30
0.0
 10
10.6880721796
 20
9.4430738382
 30
0.0
 10
10.6726404708
 20
9.4460954672
 30
0.0
 10
10.6577497467
 20
9.4492932496
 30
0.0
 10
10.6434300636
 20
9.4526606749
 30
0.0
 10
10.629710297
 20
9.4561908833
 30
0.0
 10
10.6166180788
 20
9.4598766809
 30
0.0
 10
10.6041797319
 20
9.4637105653
 30
0.0
 10
10.5924202347
 20
9.4676847395
 30
0.0
 10
10.58136307
 20
9.4717911512
 30
0.0
 10
10.5710304537
 20
9.4760214797
 30
0.0
 10
10.5629179587
 20
9.4796984378
 30
0.0
 10
10.5568144799
 20
9.4827026809
 30
0.0
 10
10.5525028285
 20
9.4849460918
 30
0.0
 10
10.5483871498
 20
9.4872140045
 30
0.0
 10
10.5444694942
 20
9.4895053126
 30
0.0
 10
10.5407518331
 20
9.4918188983
 30
0.0
 10
10.5372359958
 20
9.4941535738
 30
0.0
 10
10.5339237576
 20
9.4965082416
 30
0.0
 10
10.5308167475
 20
9.4988817231
 30
0.0
 10
10.5279165104
 20
9.501272879
 30
0.0
 10
10.5252245135
 20
9.5036805988
 30
0.0
 10
10.5227420684
 20
9.5061037045
 30
0.0
 10
10.5204704771
 20
9.5085411271
 30
0.0
 10
10.5184108847
 20
9.5109917193
 30
0.0
 10
10.5165643937
 20
9.513454384
 30
0.0
 10
10.514932074
 20
9.5159280378
 30
0.0
 10
10.5135148451
 20
9.5184115203
 30
0.0
 10
10.5123137051
 20
9.5209037216
 30
0.0
 10
10.5113294764
 20
9.5234034041
 30
0.0
 10
10.5105629696
 20
9.5259092632
 30
0.0
 10
10.5100149246
 20
9.5284199724
 30
0.0
 10
10.5096858133
 20
9.5309337516
 30
0.0
 10
10.5096125728
 20
9.5326131589
 30
0.0
 10
10.5096125695
 20
9.5334494784
 30
0.0
  0
SPLINE
  5
3B1
100
AcDbEntity
  8
0
100
AcDbSpline
 62
7
  6
CONTINUOUS
 70
0
 71
3
 72
41
 73
37
 74
0
 42
0.0000001
 43
0.0000001
 44
0.0000000001
 40
0.0
 40
0.0
 40
0.0
 40
0.0
 40
0.0310748272
 40
0.0623072483
 40
0.0936920359
 40
0.1252208484
 40
0.156882237
 40
0.188662033
 40
0.2205436266
 40
0.2525083437
 40
0.2845358343
 40
0.3166044929
 40
0.3486918936
 40
0.3807752384
 40
0.4128318095
 40
0.4448394218
 40
0.4767768664
 40
0.5086243418
 40
0.5403638639
 40
0.5719796493
 40
0.6034584635
 40
0.6347899281
 40
0.6659667781
 40
0.6969850622
 40
0.7278442783
 40
0.7585474376
 40
0.7891010512
 40
0.8195150346
 40
0.8498025274
 40
0.8649066426
 40
0.8799854039
 40
0.9100708284
 40
0.9400854823
 40
0.9550762294
 40
0.970057877
 40
1.0
 40
1.0
 40
1.0
 40
1.0
 10
11.7600458964
 20
8.009537264
 30
0.0
 10
11.7600458964
 20
8.0129005099
 30
0.0
 10
11.7597949984
 20
8.0196466458
 30
0.0
 10
11.7586748366
 20
8.0297335475
 30
0.0
 10
11.7568161678
 20
8.0397612333
 30
0.0
 10
11.7542293149
 20
8.0496738927
 30
0.0
 10
11.7509285735
 20
8.0594173048
 30
0.0
 10
11.7469321527
 20
8.0689379351
 30
0.0
 10
11.74226206
 20
8.0781835503
 30
0.0
 10
11.7369439874
 20
8.0871034135
 30
0.0
 10
11.7310071676
 20
8.0956485825
 30
0.0
 10
11.7244842149
 20
8.1037721688
 30
0.0
 10
11.7174109479
 20
8.1114295933
 30
0.0
 10
11.7098261942
 20
8.1185788283
 30
0.0
 10
11.7017715795
 20
8.1251806255
 30
0.0
 10
11.6932913017
 20
8.1311987295
 30
0.0
 10
11.6844318907
 20
8.1366000754
 30
0.0
 10
11.6752419566
 20
8.1413549685
 30
0.0
 10
11.665771926
 20
8.145437247
 30
0.0
 10
11.6560737692
 20
8.1488244252
 30
0.0
 10
11.6462007187
 20
8.1514978179
 30
0.0
 10
11.6362069817
 20
8.1534426439
 30
0.0
 10
11.6261474456
 20
8.1546481095
 30
0.0
 10
11.6160773837
 20
8.1551074728
 30
0.0
 10
11.6060521438
 20
8.1548180802
 30
0.0
 10
11.5961268882
 20
8.153781405
 30
0.0
 10
11.5863561392
 20
8.1520029786
 30
0.0
 10
11.5767940437
 20
8.1494926168
 30
0.0
 10
11.5690348091
 20
8.1467990335
 30
0.0
 10
11.5629868623
 20
8.1442940683
 30
0.0
 10
11.5570613379
 20
8.1415636775
 30
0.0
 10
11.5498766197
 20
8.1377256733
 30
0.0
 10
11.5430250482
 20
8.1333379272
 30
0.0
 10
11.5377741379
 20
8.1295169465
 30
0.0
 10
11.5326852944
 20
8.1254958619
 30
0.0
 10
11.5290516639
 20
8.122255089
 30
0.0
 10
11.5267208172
 20
8.1200036486
 30
0.0
  0
SPLINE
  5
3B2
100
AcDbEntity
  8
0
100
AcDbSpline
 62
7
  6
CONTINUOUS
 70
0
 71
3
 72
41
 73
37
 74
0
 42
0.0000001
 43
0.0000001
 44
0.0000000001
 40
0.0
 40
0.0
 40
0.0
 40
0.0
 40
0.0310748272
 40
0.0623072483
 40
0.0936920359
 40
0.1252208484
 40
0.156882237
 40
0.188662033
 40
0.2205436266
 40
0.2525083437
 40
0.2845358343
 40
0.3166044929
 40
0.3486918936
 40
0.3807752384
 40
0.4128318095
 40
0.4448394218
 40
0.4767768664
 40
0.5086243418
 40
0.5403638639
 40
0.5719796493
 40
0.6034584635
 40
0.6347899281
 40
0.6659667781
 40
0.6969850622
 40
0.7278442783
 40
0.7585474376
 40
0.7891010512
 40
0.8195150346
 40
0.8498025274
 40
0.8649066426
 40
0.8799854039
 40
0.9100708284
 40
0.9400854823
 40
0.9550762294
 40
0.970057877
 40
1.0
 40
1.0
 40
1.0
 40
1.0
 10
10.0097883044
 20
8.1309180402
 30
0.0
 10
10.0097883044
 20
8.1342812862
 30
0.0
 10
10.0095374064
 20
8.141027422
 30
0.0
 10
10.0084172445
 20
8.1511143237
 30
0.0
 10
10.0065585757
 20
8.1611420096
 30
0.0
 10
10.0039717229
 20
8.1710546689
 30
0.0
 10
10.0006709815
 20
8.1807980811
 30
0.0
 10
9.9966745607
 20
8.1903187113
 30
0.0
 10
9.992004468
 20
8.1995643265
 30
0.0
 10
9.9866863954
 20
8.2084841898
 30
0.0
 10
9.9807495755
 20
8.2170293588
 30
0.0
 10
9.9742266229
 20
8.2251529451
 30
0.0
 10
9.9671533559
 20
8.2328103696
 30
0.0
 10
9.9595686022
 20
8.2399596046
 30
0.0
 10
9.9515139875
 20
8.2465614017
 30
0.0
 10
9.9430337097
 20
8.2525795058
 30
0.0
 10
9.9341742987
 20
8.2579808517
 30
0.0
 10
9.9249843646
 20
8.2627357447
 30
0.0
 10
9.915514334
 20
8.2668180232
 30
0.0
 10
9.9058161772
 20
8.2702052015
 30
0.0
 10
9.8959431267
 20
8.2728785942
 30
0.0
 10
9.8859493897
 20
8.2748234201
 30
0.0
 10
9.8758898536
 20
8.2760288857
 30
0.0
 10
9.8658197917
 20
8.2764882491
 30
0.0
 10
9.8557945518
 20
8.2761988565
 30
0.0
 10
9.8458692962
 20
8.2751621813
 30
0.0
 10
9.8360985472
 20
8.2733837548
 30
0.0
 10
9.8265364517
 20
8.2708733931
 30
0.0
 10
9.818777217
 20
8.2681798097
 30
0.0
 10
9.8127292702
 20
8.2656748446
 30
0.0
 10
9.8068037459
 20
8.2629444537
 30
0.0
 10
9.7996190276
 20
8.2591064496
 30
0.0
 10
9.7927674562
 20
8.2547187035
 30
0.0
 10
9.7875165459
 20
8.2508977228
 30
0.0
 10
9.7824277024
 20
8.2468766382
 30
0.0
 10
9.7787940719
 20
8.2436358652
 30
0.0
 10
9.7764632252
 20
8.2413844248
 30
0.0
  0
SPLINE
  5
3B3
100
AcDbEntity
  8
0
100
AcDbSpline
 62
7
  6
CONTINUOUS
 70
0
 71
3
 72
41
 73
37
 74
0
 42
0.0000001
 43
0.0000001
 44
0.0000000001
 40
0.0
 40
0.0
 40
0.0
 40
0.0
 40
0.0310748272
 40
0.0623072483
 40
0.0936920359
 40
0.1252208484
 40
0.156882237
 40
0.188662033
 40
0.2205436266
 40
0.2525083437
 40
0.2845358343
 40
0.3166044929
 40
0.3486918936
 40
0.3807752384
 40
0.4128318095
 40
0.4448394218
 40
0.4767768664
 40
0.5086243418
 40
0.5403638639
 40
0.5719796493
 40
0.6034584635
 40
0.6347899281
 40
0.6659667781
 40
0.6969850622
 40
0.7278442783
 40
0.7585474376
 40
0.7891010512
 40
0.8195150346
 40
0.8498025274
 40
0.8649066426
 40
0.8799854039
 40
0.9100708284
 40
0.9400854823
 40
0.9550762294
 40
0.970057877
 40
1.0
 40
1.0
 40
1.0
 40
1.0
 10
10.0097883044
 20
6.0792914224
 30
0.0
 10
10.0097883044
 20
6.0826546683
 30
0.0
 10
10.0095374064
 20
6.0894008042
 30
0.0
 10
10.0084172445
 20
6.0994877059
 30
0.0
 10
10.0065585757
 20
6.1095153918
 30
0.0
 10
10.0039717229
 20
6.1194280511
 30
0.0
 10
10.0006709815
 20
6.1291714633
 30
0.0
 10
9.9966745607
 20
6.1386920935
 30
0.0
 10
9.992004468
 20
6.1479377087
 30
0.0
 10
9.9866863954
 20
6.1568575719
 30
0.0
 10
9.9807495755
 20
6.165402741
 30
0.0
 10
9.9742266229
 20
6.1735263272
 30
0.0
 10
9.9671533559
 20
6.1811837518
 30
0.0
 10
9.9595686022
 20
6.1883329867
 30
0.0
 10
9.9515139875
 20
6.1949347839
 30
0.0
 10
9.9430337097
 20
6.200952888
 30
0.0
 10
9.9341742987
 20
6.2063542338
 30
0.0
 10
9.9249843646
 20
6.2111091269
 30
0.0
 10
9.915514334
 20
6.2151914054
 30
0.0
 10
9.9058161772
 20
6.2185785837
 30
0.0
 10
9.8959431267
 20
6.2212519764
 30
0.0
 10
9.8859493897
 20
6.2231968023
 30
0.0
 10
9.8758898536
 20
6.2244022679
 30
0.0
 10
9.8658197917
 20
6.2248616312
 30
0.0
 10
9.8557945518
 20
6.2245722387
 30
0.0
 10
9.8458692962
 20
6.2235355635
 30
0.0
 10
9.8360985472
 20
6.221757137
 30
0.0
 10
9.8265364517
 20
6.2192467753
 30
0.0
 10
9.818777217
 20
6.2165531919
 30
0.0
 10
9.8127292702
 20
6.2140482267
 30
0.0
 10
9.8068037459
 20
6.2113178359
 30
0.0
 10
9.7996190276
 20
6.2074798318
 30
0.0
 10
9.7927674562
 20
6.2030920856
 30
0.0
 10
9.7875165459
 20
6.199271105
 30
0.0
 10
9.7824277024
 20
6.1952500203
 30
0.0
 10
9.7787940719
 20
6.1920092474
 30
0.0
 10
9.7764632252
 20
6.189757807
 30
0.0
  0
SPLINE
  5
3B4
100
AcDbEntity
  8
0
100
AcDbSpline
 62
7
  6
CONTINUOUS
 70
0
 71
3
 72
41
 73
37
 74
0
 42
0.0000001
 43
0.0000001
 44
0.0000000001
 40
0.0
 40
0.0
 40
0.0
 40
0.0
 40
0.0310748272
 40
0.0623072483
 40
0.0936920359
 40
0.1252208484
 40
0.156882237
 40
0.188662033
 40
0.2205436266
 40
0.2525083437
 40
0.2845358343
 40
0.3166044929
 40
0.3486918936
 40
0.3807752384
 40
0.4128318095
 40
0.4448394218
 40
0.4767768664
 40
0.5086243418
 40
0.5403638639
 40
0.5719796493
 40
0.6034584635
 40
0.6347899281
 40
0.6659667781
 40
0.6969850622
 40
0.7278442783
 40
0.7585474376
 40
0.7891010512
 40
0.8195150346
 40
0.8498025274
 40
0.8649066426
 40
0.8799854039
 40
0.9100708284
 40
0.9400854823
 40
0.9550762294
 40
0.970057877
 40
1.0
 40
1.0
 40
1.0
 40
1.0
 10
11.7600458964
 20
5.9579106461
 30
0.0
 10
11.7600458964
 20
5.9612738921
 30
0.0
 10
11.7597949984
 20
5.9680200279
 30
0.0
 10
11.7586748366
 20
5.9781069296
 30
0.0
 10
11.7568161678
 20
5.9881346155
 30
0.0
 10
11.7542293149
 20
5.9980472748
 30
0.0
 10
11.7509285735
 20
6.007790687
 30
0.0
 10
11.7469321527
 20
6.0173113173
 30
0.0
 10
11.74226206
 20
6.0265569324
 30
0.0
 10
11.7369439874
 20
6.0354767957
 30
0.0
 10
11.7310071676
 20
6.0440219647
 30
0.0
 10
11.7244842149
 20
6.052145551
 30
0.0
 10
11.7174109479
 20
6.0598029755
 30
0.0
 10
11.7098261942
 20
6.0669522105
 30
0.0
 10
11.7017715795
 20
6.0735540076
 30
0.0
 10
11.6932913017
 20
6.0795721117
 30
0.0
 10
11.6844318907
 20
6.0849734576
 30
0.0
 10
11.6752419566
 20
6.0897283506
 30
0.0
 10
11.665771926
 20
6.0938106291
 30
0.0
 10
11.6560737692
 20
6.0971978074
 30
0.0
 10
11.6462007187
 20
6.0998712001
 30
0.0
 10
11.6362069817
 20
6.101816026
 30
0.0
 10
11.6261474456
 20
6.1030214916
 30
0.0
 10
11.6160773837
 20
6.103480855
 30
0.0
 10
11.6060521438
 20
6.1031914624
 30
0.0
 10
11.5961268882
 20
6.1021547872
 30
0.0
 10
11.5863561392
 20
6.1003763607
 30
0.0
 10
11.5767940437
 20
6.097865999
 30
0.0
 10
11.5690348091
 20
6.0951724156
 30
0.0
 10
11.5629868623
 20
6.0926674505
 30
0.0
 10
11.5570613379
 20
6.0899370596
 30
0.0
 10
11.5498766197
 20
6.0860990555
 30
0.0
 10
11.5430250482
 20
6.0817113094
 30
0.0
 10
11.5377741379
 20
6.0778903287
 30
0.0
 10
11.5326852944
 20
6.0738692441
 30
0.0
 10
11.5290516639
 20
6.0706284712
 30
0.0
 10
11.5267208172
 20
6.0683770307
 30
0.0
  0
SPLINE
  5
3B5
100
AcDbEntity
  8
0
100
AcDbSpline
 62
7
  6
CONTINUOUS
 70
0
 71
3
 72
32
 73
28
 74
0
 42
0.0000001
 43
0.0000001
 44
0.0000000001
 40
0.0
 40
0.0
 40
0.0
 40
0.0
 40
0.0845017374
 40
0.167300855
 40
0.2480795303
 40
0.3265298693
 40
0.4023572177
 40
0.4752815404
 40
0.545039923
 40
0.5786558619
 40
0.6113908052
 40
0.6432178835
 40
0.6741118203
 40
0.704049142
 40
0.7330081882
 40
0.760969474
 40
0.7879156344
 40
0.8138319636
 40
0.8387063238
 40
0.8625298908
 40
0.8852970833
 40
0.9070065571
 40
0.9276612459
 40
0.94726967
 40
0.9658462264
 40
0.9834129037
 40
1.0
 40
1.0
 40
1.0
 40
1.0
 10
12.023928706
 20
9.7053357532
 30
0.0
 10
12.0310497101
 20
9.7048419099
 30
0.0
 10
12.0451399343
 20
9.7037391905
 30
0.0
 10
12.065999356
 20
9.7017171652
 30
0.0
 10
12.0863080997
 20
9.6993504499
 30
0.0
 10
12.105980852
 20
9.6966490918
 30
0.0
 10
12.1249351238
 20
9.6936245921
 30
0.0
 10
12.1430913381
 20
9.6902897875
 30
0.0
 10
12.1576675741
 20
9.6872275383
 30
0.0
 10
12.1688670913
 20
9.6846251617
 30
0.0
 10
12.1769169808
 20
9.6826289611
 30
0.0
 10
12.1847125208
 20
9.6805663921
 30
0.0
 10
12.1922455468
 20
9.6784396027
 30
0.0
 10
12.1995081627
 20
9.6762508539
 30
0.0
 10
12.2064927624
 20
9.6740024327
 30
0.0
 10
12.2131920416
 20
9.6716967338
 30
0.0
 10
12.2195989956
 20
9.6693361513
 30
0.0
 10
12.225706947
 20
9.6669232059
 30
0.0
 10
12.231509526
 20
9.6644603813
 30
0.0
 10
12.2370007181
 20
9.6619503067
 30
0.0
 10
12.2421748201
 20
9.6593955334
 30
0.0
 10
12.2470265143
 20
9.6567987733
 30
0.0
 10
12.2515507947
 20
9.6541626096
 30
0.0
 10
12.2557430563
 20
9.6514898053
 30
0.0
 10
12.2595990485
 20
9.6487828828
 30
0.0
 10
12.2631147315
 20
9.646044727
 30
0.0
 10
12.2652903147
 20
9.6441468116
 30
0.0
 10
12.2663160348
 20
9.6431922707
 30
0.0
  0
SPLINE
  5
3B6
100
AcDbEntity
  8
0
100
AcDbSpline
 62
7
  6
CONTINUOUS
 70
0
 71
3
 72
15
 73
11
 74
0
 42
0.0000001
 43
0.0000001
 44
0.0000000001
 40
0.0
 40
0.0
 40
0.0
 40
0.0
 40
0.1243549666
 40
0.249094514
 40
0.3741492552
 40
0.4994228186
 40
0.6247937844
 40
0.7501201867
 40
0.8752447611
 40
1.0
 40
1.0
 40
1.0
 40
1.0
 10
10.8091936457
 20
7.4476420533
 30
0.0
 10
10.8123058098
 20
7.4462225264
 30
0.0
 10
10.8186260119
 20
7.4435639473
 30
0.0
 10
10.8283390227
 20
7.4401440554
 30
0.0
 10
10.8382628649
 20
7.4373009192
 30
0.0
 10
10.8483539848
 20
7.4350448388
 30
0.0
 10
10.8585665748
 20
7.433379168
 30
0.0
 10
10.8688534118
 20
7.4323002895
 30
0.0
 10
10.8791669
 20
7.4317975876
 30
0.0
 10
10.8860440406
 20
7.4318352445
 30
0.0
 10
10.8894739427
 20
7.43194405
 30
0.0
  0
SPLINE
  5
3B7
100
AcDbEntity
  8
0
100
AcDbSpline
 62
7
  6
CONTINUOUS
 70
0
 71
3
 72
41
 73
37
 74
0
 42
0.0000001
 43
0.0000001
 44
0.0000000001
 40
0.0
 40
0.0
 40
0.0
 40
0.0
 40
0.0311447108
 40
0.0467774295
 40
0.0624475249
 40
0.0938924651
 40
0.1254747955
 40
0.1571823865
 40
0.1890004527
 40
0.2209120576
 40
0.2528984154
 40
0.2689156901
 40
0.2849439669
 40
0.3170180467
 40
0.3491033961
 40
0.3811778561
 40
0.4132194776
 40
0.4452069463
 40
0.4771199982
 40
0.5089398211
 40
0.5406494354
 40
0.5722340478
 40
0.6036813723
 40
0.6349819093
 40
0.666129179
 40
0.6971198991
 40
0.7279541027
 40
0.7586351871
 40
0.7891698911
 40
0.819568195
 40
0.8498431417
 40
0.8800105805
 40
0.9100888347
 40
0.9400983003
 40
0.9700609852
 40
1.0
 40
1.0
 40
1.0
 40
1.0
 10
10.7019992396
 20
7.6739329187
 30
0.0
 10
10.7071647935
 20
7.6735746863
 30
0.0
 10
10.7149072544
 20
7.6727532595
 30
0.0
 10
10.7251589753
 20
7.6711025231
 30
0.0
 10
10.7353944134
 20
7.6690759172
 30
0.0
 10
10.74808621
 20
7.66584838
 30
0.0
 10
10.7630503277
 20
7.660894347
 30
0.0
 10
10.7776883968
 20
7.6548810243
 30
0.0
 10
10.7919220326
 20
7.6478405747
 30
0.0
 10
10.8056751507
 20
7.6398108869
 30
0.0
 10
10.8166710538
 20
7.6323331289
 30
0.0
 10
10.8251566479
 20
7.625901806
 30
0.0
 10
10.8334288265
 20
7.6191750509
 30
0.0
 10
10.8433363217
 20
7.6102378723
 30
0.0
 10
10.8544669477
 20
7.5987280423
 30
0.0
 10
10.8647843198
 20
7.5864904696
 30
0.0
 10
10.8742330671
 20
7.5735906644
 30
0.0
 10
10.8827628921
 20
7.5600972858
 30
0.0
 10
10.8903282513
 20
7.5460822518
 30
0.0
 10
10.8968887535
 20
7.5316202346
 30
0.0
 10
10.9024093321
 20
7.5167883011
 30
0.0
 10
10.9068604433
 20
7.501665499
 30
0.0
 10
10.9102182222
 20
7.4863324432
 30
0.0
 10
10.9124646131
 20
7.4708708918
 30
0.0
 10
10.9135874695
 20
7.455363316
 30
0.0
 10
10.9135806237
 20
7.4398924654
 30
0.0
 10
10.9124439301
 20
7.4245409317
 30
0.0
 10
10.9101832728
 20
7.4093907101
 30
0.0
 10
10.9068105428
 20
7.3945227634
 30
0.0
 10
10.9023435827
 20
7.380016588
 30
0.0
 10
10.8968061099
 20
7.3659497922
 30
0.0
 10
10.8902275716
 20
7.3523976498
 30
0.0
 10
10.8826430972
 20
7.3394327862
 30
0.0
 10
10.8740929414
 20
7.3271244183
 30
0.0
 10
10.8646236658
 20
7.3155393161
 30
0.0
 10
10.8577287778
 20
7.3083364402
 30
0.0
 10
10.8541486816
 20
7.3048783343
 30
0.0
  0
SPLINE
  5
3B8
100
AcDbEntity
  8
0
100
AcDbSpline
 62
7
  6
CONTINUOUS
 70
0
 71
3
 72
41
 73
37
 74
0
 42
0.0000001
 43
0.0000001
 44
0.0000000001
 40
0.0
 40
0.0
 40
0.0
 40
0.0
 40
0.0311447108
 40
0.0467774295
 40
0.0624475249
 40
0.0938924651
 40
0.1254747955
 40
0.1571823865
 40
0.1890004527
 40
0.2209120576
 40
0.2528984154
 40
0.2689156901
 40
0.2849439669
 40
0.3170180467
 40
0.3491033961
 40
0.3811778561
 40
0.4132194776
 40
0.4452069463
 40
0.4771199982
 40
0.5089398211
 40
0.5406494354
 40
0.5722340478
 40
0.6036813723
 40
0.6349819093
 40
0.666129179
 40
0.6971198991
 40
0.7279541027
 40
0.7586351871
 40
0.7891698911
 40
0.819568195
 40
0.8498431417
 40
0.8800105805
 40
0.9100888347
 40
0.9400983003
 40
0.9700609852
 40
1.0
 40
1.0
 40
1.0
 40
1.0
 10
11.1241088857
 20
6.3464550878
 30
0.0
 10
11.1292744396
 20
6.3460968554
 30
0.0
 10
11.1370169005
 20
6.3452754286
 30
0.0
 10
11.1472686214
 20
6.3436246922
 30
0.0
 10
11.1575040595
 20
6.3415980863
 30
0.0
 10
11.1701958561
 20
6.338370549
 30
0.0
 10
11.1851599738
 20
6.3334165161
 30
0.0
 10
11.1997980429
 20
6.3274031934
 30
0.0
 10
11.2140316787
 20
6.3203627438
 30
0.0
 10
11.2277847968
 20
6.312333056
 30
0.0
 10
11.2387806999
 20
6.304855298
 30
0.0
 10
11.247266294
 20
6.2984239751
 30
0.0
 10
11.2555384726
 20
6.29169722
 30
0.0
 10
11.2654459678
 20
6.2827600414
 30
0.0
 10
11.2765765938
 20
6.2712502114
 30
0.0
 10
11.2868939659
 20
6.2590126387
 30
0.0
 10
11.2963427132
 20
6.2461128335
 30
0.0
 10
11.3048725382
 20
6.2326194549
 30
0.0
 10
11.3124378974
 20
6.2186044209
 30
0.0
 10
11.3189983996
 20
6.2041424037
 30
0.0
 10
11.3245189782
 20
6.1893104702
 30
0.0
 10
11.3289700894
 20
6.1741876681
 30
0.0
 10
11.3323278683
 20
6.1588546123
 30
0.0
 10
11.3345742592
 20
6.1433930609
 30
0.0
 10
11.3356971156
 20
6.127885485
 30
0.0
 10
11.3356902698
 20
6.1124146345
 30
0.0
 10
11.3345535762
 20
6.0970631008
 30
0.0
 10
11.3322929189
 20
6.0819128791
 30
0.0
 10
11.3289201889
 20
6.0670449325
 30
0.0
 10
11.3244532288
 20
6.0525387571
 30
0.0
 10
11.318915756
 20
6.0384719613
 30
0.0
 10
11.3123372177
 20
6.0249198189
 30
0.0
 10
11.3047527434
 20
6.0119549553
 30
0.0
 10
11.2962025875
 20
5.9996465874
 30
0.0
 10
11.2867333119
 20
5.9880614851
 30
0.0
 10
11.2798384239
 20
5.9808586093
 30
0.0
 10
11.2762583277
 20
5.9774005034
 30
0.0
  0
SPLINE
  5
3B9
100
AcDbEntity
  8
0
100
AcDbSpline
 62
7
  6
CONTINUOUS
 70
0
 71
3
 72
18
 73
14
 74
0
 42
0.0000001
 43
0.0000001
 44
0.0000000001
 40
0.0
 40
0.0
 40
0.0
 40
0.0
 40
0.0548627003
 40
0.1099292984
 40
0.1654013502
 40
0.22147558
 40
0.3361333207
 40
0.4553633897
 40
0.5171049197
 40
0.5804365965
 40
0.7123310206
 40
0.851957275
 40
1.0
 40
1.0
 40
1.0
 40
1.0
 10
11.370612551
 20
9.5334499642
 30
0.0
 10
11.3706125534
 20
9.5328419733
 30
0.0
 10
11.3705739729
 20
9.5316233806
 30
0.0
 10
11.3704004964
 20
9.5297974823
 30
0.0
 10
11.3701113798
 20
9.5279725993
 30
0.0
 10
11.3695680943
 20
9.5255240154
 30
0.0
 10
11.3685893557
 20
9.5224550897
 30
0.0
 10
11.3672488519
 20
9.5194586189
 30
0.0
 10
11.3659589768
 20
9.5170772386
 30
0.0
 10
11.3644820155
 20
9.5146412828
 30
0.0
 10
11.3623374299
 20
9.5116064264
 30
0.0
 10
11.3593474844
 20
9.5080399885
 30
0.0
 10
11.3571236739
 20
9.5057515497
 30
0.0
 10
11.3559436531
 20
9.5046117371
 30
0.0
  0
SPLINE
  5
3BA
100
AcDbEntity
  8
0
100
AcDbSpline
 62
7
  6
CONTINUOUS
 70
0
 71
3
 72
18
 73
14
 74
0
 42
0.0000001
 43
0.0000001
 44
0.0000000001
 40
0.0
 40
0.0
 40
0.0
 40
0.0
 40
0.0548626221
 40
0.1099291996
 40
0.1654012684
 40
0.2214754896
 40
0.3361336267
 40
0.4553633642
 40
0.5171046005
 40
0.5804361693
 40
0.7123314363
 40
0.8519591016
 40
1.0
 40
1.0
 40
1.0
 40
1.0
 10
9.691070909
 20
9.4092465178
 30
0.0
 10
9.6910709062
 20
9.4097761221
 30
0.0
 10
9.6911045087
 20
9.4108376057
 30
0.0
 10
9.6912556523
 20
9.4124280943
 30
0.0
 10
9.6915075098
 20
9.4140176985
 30
0.0
 10
9.6919807421
 20
9.4161506023
 30
0.0
 10
9.6928333463
 20
9.4188238474
 30
0.0
 10
9.6940010037
 20
9.4214339993
 30
0.0
 10
9.6951245877
 20
9.4235083456
 30
0.0
 10
9.6964111408
 20
9.4256302408
 30
0.0
 10
9.6982792442
 20
9.4282738424
 30
0.0
 10
9.7008837265
 20
9.4313804618
 30
0.0
 10
9.7028208192
 20
9.4333738646
 30
0.0
 10
9.7038486916
 20
9.4343667132
 30
0.0
  0
SPLINE
  5
3BB
100
AcDbEntity
  8
0
100
AcDbSpline
 62
7
  6
CONTINUOUS
 70
0
 71
3
 72
18
 73
14
 74
0
 42
0.0000001
 43
0.0000001
 44
0.0000000001
 40
0.0
 40
0.0
 40
0.0
 40
0.0
 40
0.1492375281
 40
0.289655037
 40
0.421961834
 40
0.4853619434
 40
0.5470838486
 40
0.6660306073
 40
0.780131264
 40
0.8358489547
 40
0.8909261061
 40
0.94557164
 40
1.0
 40
1.0
 40
1.0
 40
1.0
 10
12.2961824399
 20
9.6153984547
 30
0.0
 10
12.2972839335
 20
9.6143733924
 30
0.0
 10
12.2993597869
 20
9.612315263
 30
0.0
 10
12.3021545047
 20
9.6091022271
 30
0.0
 10
12.3041609233
 20
9.6063649298
 30
0.0
 10
12.3055428349
 20
9.6041667682
 30
0.0
 10
12.3067481356
 20
9.6020203934
 30
0.0
 10
12.3080013451
 20
9.5993187724
 30
0.0
 10
12.3089177252
 20
9.5965473551
 30
0.0
 10
12.3094261722
 20
9.5943362898
 30
0.0
 10
12.309696626
 20
9.5926891185
 30
0.0
 10
12.3098589126
 20
9.5910409522
 30
0.0
 10
12.3098950139
 20
9.5899408854
 30
0.0
 10
12.3098950169
 20
9.5893921167
 30
0.0
  0
SPLINE
  5
3BC
100
AcDbEntity
  8
0
100
AcDbSpline
 62
7
  6
CONTINUOUS
 70
0
 71
3
 72
40
 73
36
 74
0
 42
0.0000001
 43
0.0000001
 44
0.0000000001
 40
0.0
 40
0.0
 40
0.0
 40
0.0
 40
0.0072740528
 40
0.0148710823
 40
0.0227989803
 40
0.0310643696
 40
0.0396726394
 40
0.0486277804
 40
0.0579322968
 40
0.06758775
 40
0.0775946908
 40
0.087952845
 40
0.0986612591
 40
0.1097181257
 40
0.1328664065
 40
0.1573731659
 40
0.183204926
 40
0.2103214309
 40
0.2386764685
 40
0.2682185483
 40
0.2988915156
 40
0.3306350296
 40
0.3633849648
 40
0.3970737454
 40
0.4316307205
 40
0.466982487
 40
0.5030531739
 40
0.5397646988
 40
0.5770370433
 40
0.6147885387
 40
0.6913939367
 40
0.768905648
 40
0.8466362492
 40
0.9238955648
 40
1.0
 40
1.0
 40
1.0
 40
1.0
 10
10.0338453853
 20
9.7520473175
 30
0.0
 10
10.0346115264
 20
9.7527602546
 30
0.0
 10
10.0362130563
 20
9.7541802893
 30
0.0
 10
10.038759525
 20
9.7562492721
 30
0.0
 10
10.0414999705
 20
9.7583013924
 30
0.0
 10
10.0444326359
 20
9.7603354132
 30
0.0
 10
10.0475558599
 20
9.7623502238
 30
0.0
 10
10.0508678554
 20
9.7643446606
 30
0.0
 10
10.0543666691
 20
9.7663176191
 30
0.0
 10
10.0580502631
 20
9.7682678837
 30
0.0
 10
10.0619164568
 20
9.7701943292
 30
0.0
 10
10.0659629706
 20
9.7720958313
 30
0.0
 10
10.0701874405
 20
9.7739712472
 30
0.0
 10
10.076145389
 20
9.7764739006
 30
0.0
 10
10.0840258945
 20
9.7795209488
 30
0.0
 10
10.0940107913
 20
9.7830025213
 30
0.0
 10
10.1046399933
 20
9.7863546185
 30
0.0
 10
10.115888343
 20
9.7895692225
 30
0.0
 10
10.1277293258
 20
9.7926386314
 30
0.0
 10
10.1401349113
 20
9.7955554954
 30
0.0
 10
10.1530757091
 20
9.7983128208
 30
0.0
 10
10.1665210299
 20
9.8009039946
 30
0.0
 10
10.1804389632
 20
9.803322798
 30
0.0
 10
10.194796451
 20
9.8055634401
 30
0.0
 10
10.2095593761
 20
9.8076205556
 30
0.0
 10
10.224692651
 20
9.8094892164
 30
0.0
 10
10.2401603032
 20
9.8111649439
 30
0.0
 10
10.2559255449
 20
9.8126437191
 30
0.0
 10
10.2719509117
 20
9.8139220338
 30
0.0
 10
10.2937193001
 20
9.8153619382
 30
0.0
 10
10.3212981275
 20
9.8166351582
 30
0.0
 10
10.3546512154
 20
9.8173219327
 30
0.0
 10
10.3881052762
 20
9.8171681027
 30
0.0
 10
10.421342164
 20
9.8161752053
 30
0.0
 10
10.4433759784
 20
9.8149474572
 30
0.0
 10
10.4542991452
 20
9.814189933
 30
0.0
  0
SPLINE
  5
3BD
100
AcDbEntity
  8
0
100
AcDbSpline
 62
7
  6
CONTINUOUS
 70
0
 71
3
 72
15
 73
11
 74
0
 42
0.0000001
 43
0.0000001
 44
0.0000000001
 40
0.0
 40
0.0
 40
0.0
 40
0.0
 40
0.1234394136
 40
0.2470466177
 40
0.370982561
 40
0.4953948844
 40
0.6204121622
 40
0.7461393429
 40
0.8726517211
 40
1.0
 40
1.0
 40
1.0
 40
1.0
 10
11.7219458023
 20
7.9178942791
 30
0.0
 10
11.7249625381
 20
7.9208082421
 30
0.0
 10
11.7307040605
 20
7.9269558214
 30
0.0
 10
11.7383294299
 20
7.9370196663
 30
0.0
 10
11.7449041141
 20
7.9478393878
 30
0.0
 10
11.7503663144
 20
7.9593136044
 30
0.0
 10
11.7546662023
 20
7.9713363767
 30
0.0
 10
11.7577643415
 20
7.9837968314
 30
0.0
 10
11.7596327461
 20
7.9965784334
 30
0.0
 10
11.7600458964
 20
8.0052101802
 30
0.0
 10
11.7600458964
 20
8.009537264
 30
0.0
  0
SPLINE
  5
3BE
100
AcDbEntity
  8
0
100
AcDbSpline
 62
7
  6
CONTINUOUS
 70
0
 71
3
 72
15
 73
11
 74
0
 42
0.0000001
 43
0.0000001
 44
0.0000000001
 40
0.0
 40
0.0
 40
0.0
 40
0.0
 40
0.1234394136
 40
0.2470466177
 40
0.370982561
 40
0.4953948844
 40
0.6204121622
 40
0.7461393429
 40
0.8726517211
 40
1.0
 40
1.0
 40
1.0
 40
1.0
 10
9.9716882103
 20
8.0392750553
 30
0.0
 10
9.9747049461
 20
8.0421890183
 30
0.0
 10
9.9804464685
 20
8.0483365977
 30
0.0
 10
9.9880718378
 20
8.0584004425
 30
0.0
 10
9.9946465221
 20
8.0692201641
 30
0.0
 10
10.0001087224
 20
8.0806943807
 30
0.0
 10
10.0044086102
 20
8.092717153
 30
0.0
 10
10.0075067495
 20
8.1051776077
 30
0.0
 10
10.0093751541
 20
8.1179592097
 30
0.0
 10
10.0097883044
 20
8.1265909565
 30
0.0
 10
10.0097883044
 20
8.1309180402
 30
0.0
  0
SPLINE
  5
3BF
100
AcDbEntity
  8
0
100
AcDbSpline
 62
7
  6
CONTINUOUS
 70
0
 71
3
 72
15
 73
11
 74
0
 42
0.0000001
 43
0.0000001
 44
0.0000000001
 40
0.0
 40
0.0
 40
0.0
 40
0.0
 40
0.1234394136
 40
0.2470466177
 40
0.370982561
 40
0.4953948844
 40
0.6204121622
 40
0.7461393429
 40
0.8726517211
 40
1.0
 40
1.0
 40
1.0
 40
1.0
 10
9.9716882103
 20
5.9876484375
 30
0.0
 10
9.9747049461
 20
5.9905624005
 30
0.0
 10
9.9804464685
 20
5.9967099799
 30
0.0
 10
9.9880718378
 20
6.0067738247
 30
0.0
 10
9.9946465221
 20
6.0175935463
 30
0.0
 10
10.0001087224
 20
6.0290677628
 30
0.0
 10
10.0044086102
 20
6.0410905352
 30
0.0
 10
10.0075067495
 20
6.0535509899
 30
0.0
 10
10.0093751541
 20
6.0663325919
 30
0.0
 10
10.0097883044
 20
6.0749643387
 30
0.0
 10
10.0097883044
 20
6.0792914224
 30
0.0
  0
SPLINE
  5
3C0
100
AcDbEntity
  8
0
100
AcDbSpline
 62
7
  6
CONTINUOUS
 70
0
 71
3
 72
15
 73
11
 74
0
 42
0.0000001
 43
0.0000001
 44
0.0000000001
 40
0.0
 40
0.0
 40
0.0
 40
0.0
 40
0.1234394136
 40
0.2470466177
 40
0.370982561
 40
0.4953948844
 40
0.6204121622
 40
0.7461393429
 40
0.8726517211
 40
1.0
 40
1.0
 40
1.0
 40
1.0
 10
11.7219458023
 20
5.8662676612
 30
0.0
 10
11.7249625381
 20
5.8691816242
 30
0.0
 10
11.7307040605
 20
5.8753292036
 30
0.0
 10
11.7383294299
 20
5.8853930484
 30
0.0
 10
11.7449041141
 20
5.89621277
 30
0.0
 10
11.7503663144
 20
5.9076869866
 30
0.0
 10
11.7546662023
 20
5.9197097589
 30
0.0
 10
11.7577643415
 20
5.9321702136
 30
0.0
 10
11.7596327461
 20
5.9449518156
 30
0.0
 10
11.7600458964
 20
5.9535835624
 30
0.0
 10
11.7600458964
 20
5.9579106461
 30
0.0
  0
SPLINE
  5
3C1
100
AcDbEntity
  8
0
100
AcDbSpline
 62
7
  6
CONTINUOUS
 70
0
 71
3
 72
15
 73
11
 74
0
 42
0.0000001
 43
0.0000001
 44
0.0000000001
 40
0.0
 40
0.0
 40
0.0
 40
0.0
 40
0.1255532398
 40
0.2508475503
 40
0.3759333112
 40
0.5008572641
 40
0.625671414
 40
0.7504294667
 40
0.8751868456
 40
1.0
 40
1.0
 40
1.0
 40
1.0
 10
10.231560481
 20
7.1694165341
 30
0.0
 10
10.2350500278
 20
7.1709808926
 30
0.0
 10
10.2419357507
 20
7.1743029768
 30
0.0
 10
10.2519549365
 20
7.1798582825
 30
0.0
 10
10.2616241121
 20
7.1859676565
 30
0.0
 10
10.270912819
 20
7.1926161956
 30
0.0
 10
10.2797916101
 20
7.199787265
 30
0.0
 10
10.2882317179
 20
7.2074625648
 30
0.0
 10
10.2962048295
 20
7.2156214095
 30
0.0
 10
10.3011898475
 20
7.2213671216
 30
0.0
 10
10.3035947185
 20
7.224311413
 30
0.0
  0
SPLINE
  5
3C2
100
AcDbEntity
  8
0
100
AcDbSpline
 62
7
  6
CONTINUOUS
 70
0
 71
3
 72
23
 73
19
 74
0
 42
0.0000001
 43
0.0000001
 44
0.0000000001
 40
0.0
 40
0.0
 40
0.0
 40
0.0
 40
0.0616482102
 40
0.1233194434
 40
0.1850364728
 40
0.2468215621
 40
0.3086962116
 40
0.370680925
 40
0.4327950032
 40
0.4950563306
 40
0.5574811832
 40
0.6200840863
 40
0.6828775763
 40
0.7458723561
 40
0.8090769818
 40
0.8724965655
 40
0.9361390263
 40
1.0
 40
1.0
 40
1.0
 40
1.0
 10
10.5498497976
 20
7.6199119661
 30
0.0
 10
10.552307428
 20
7.6222858538
 30
0.0
 10
10.557352379
 20
7.626903252
 30
0.0
 10
10.565282634
 20
7.6334139651
 30
0.0
 10
10.5735572458
 20
7.6394943372
 30
0.0
 10
10.582155086
 20
7.6451287793
 30
0.0
 10
10.5910545729
 20
7.6503031568
 30
0.0
 10
10.6002332429
 20
7.6550044501
 30
0.0
 10
10.6096679687
 20
7.6592208458
 30
0.0
 10
10.6193349805
 20
7.662941734
 30
0.0
 10
10.6292099312
 20
7.6661577438
 30
0.0
 10
10.639267934
 20
7.6688608198
 30
0.0
 10
10.6494836549
 20
7.6710441983
 30
0.0
 10
10.6598313875
 20
7.6727023972
 30
0.0
 10
10.6702850038
 20
7.6738312209
 30
0.0
 10
10.6808184249
 20
7.6744279704
 30
0.0
 10
10.6914046084
 20
7.6744910307
 30
0.0
 10
10.6984681636
 20
7.6741777996
 30
0.0
 10
10.7019992396
 20
7.6739329187
 30
0.0
  0
SPLINE
  5
3C3
100
AcDbEntity
  8
0
100
AcDbSpline
 62
7
  6
CONTINUOUS
 70
0
 71
3
 72
30
 73
26
 74
0
 42
0.0000001
 43
0.0000001
 44
0.0000000001
 40
0.0
 40
0.0
 40
0.0
 40
0.0
 40
0.0615434569
 40
0.1242480927
 40
0.1876149764
 40
0.2512053136
 40
0.3146982161
 40
0.3779011586
 40
0.4407301296
 40
0.4720052418
 40
0.5031906997
 40
0.5653176814
 40
0.6272080043
 40
0.6581042577
 40
0.6889839903
 40
0.7198626694
 40
0.7507558852
 40
0.7816786109
 40
0.8126456428
 40
0.8436703478
 40
0.8747647689
 40
0.9059390481
 40
0.9372000866
 40
0.9685545706
 40
1.0
 40
1.0
 40
1.0
 40
1.0
 10
10.6878024921
 20
7.6744656232
 30
0.0
 10
10.6876623252
 20
7.668889335
 30
0.0
 10
10.6877288322
 20
7.657620174
 30
0.0
 10
10.6888242446
 20
7.6406419343
 30
0.0
 10
10.6909085257
 20
7.6235691123
 30
0.0
 10
10.6939719146
 20
7.6065720013
 30
0.0
 10
10.6980071497
 20
7.5897937324
 30
0.0
 10
10.7030127519
 20
7.5733507735
 30
0.0
 10
10.7080061626
 20
7.5599848756
 30
0.0
 10
10.712496888
 20
7.5495528043
 30
0.0
 10
10.717307215
 20
7.539334492
 30
0.0
 10
10.7239523568
 20
7.5269221373
 30
0.0
 10
10.7314713802
 20
7.5150474511
 30
0.0
 10
10.7380079867
 20
7.5059391538
 30
0.0
 10
10.7431732719
 20
7.49931471
 30
0.0
 10
10.7486051517
 20
7.4929073726
 30
0.0
 10
10.7543045513
 20
7.4867312601
 30
0.0
 10
10.7602712359
 20
7.4808014149
 30
0.0
 10
10.7665037603
 20
7.4751336929
 30
0.0
 10
10.7729991295
 20
7.4697446
 30
0.0
 10
10.7797524962
 20
7.4646510833
 30
0.0
 10
10.7867569285
 20
7.4598704485
 30
0.0
 10
10.7940033404
 20
7.4554196904
 30
0.0
 10
10.8014795854
 20
7.4513157918
 30
0.0
 10
10.806600565
 20
7.4488248148
 30
0.0
 10
10.8091936457
 20
7.4476420533
 30
0.0
  0
SPLINE
  5
3C4
100
AcDbEntity
  8
0
100
AcDbSpline
 62
7
  6
CONTINUOUS
 70
0
 71
3
 72
23
 73
19
 74
0
 42
0.0000001
 43
0.0000001
 44
0.0000000001
 40
0.0
 40
0.0
 40
0.0
 40
0.0
 40
0.0616482102
 40
0.1233194434
 40
0.1850364728
 40
0.2468215621
 40
0.3086962116
 40
0.370680925
 40
0.4327950032
 40
0.4950563306
 40
0.5574811832
 40
0.6200840863
 40
0.6828775763
 40
0.7458723561
 40
0.8090769818
 40
0.8724965655
 40
0.9361390263
 40
1.0
 40
1.0
 40
1.0
 40
1.0
 10
10.9719594437
 20
6.2924341352
 30
0.0
 10
10.9744170741
 20
6.2948080229
 30
0.0
 10
10.9794620251
 20
6.2994254211
 30
0.0
 10
10.9873922801
 20
6.3059361342
 30
0.0
 10
10.9956668919
 20
6.3120165063
 30
0.0
 10
11.0042647321
 20
6.3176509484
 30
0.0
 10
11.013164219
 20
6.3228253258
 30
0.0
 10
11.022342889
 20
6.3275266192
 30
0.0
 10
11.0317776148
 20
6.3317430149
 30
0.0
 10
11.0414446266
 20
6.3354639031
 30
0.0
 10
11.0513195773
 20
6.3386799129
 30
0.0
 10
11.0613775801
 20
6.3413829889
 30
0.0
 10
11.071593301
 20
6.3435663674
 30
0.0
 10
11.0819410336
 20
6.3452245663
 30
0.0
 10
11.0923946499
 20
6.34635339
 30
0.0
 10
11.102928071
 20
6.3469501395
 30
0.0
 10
11.1135142545
 20
6.3470131998
 30
0.0
 10
11.1205778098
 20
6.3466999687
 30
0.0
 10
11.1241088857
 20
6.3464550878
 30
0.0
  0
SPLINE
  5
3C5
100
AcDbEntity
  8
0
100
AcDbSpline
 62
7
  6
CONTINUOUS
 70
0
 71
3
 72
41
 73
37
 74
0
 42
0.0000001
 43
0.0000001
 44
0.0000000001
 40
0.0
 40
0.0
 40
0.0
 40
0.0
 40
0.0310748272
 40
0.0623072483
 40
0.0936920359
 40
0.1252208484
 40
0.156882237
 40
0.188662033
 40
0.2205436266
 40
0.2525083437
 40
0.2845358343
 40
0.3166044929
 40
0.3486918936
 40
0.3807752384
 40
0.4128318095
 40
0.4448394218
 40
0.4767768664
 40
0.5086243418
 40
0.5403638639
 40
0.5719796493
 40
0.6034584635
 40
0.6347899281
 40
0.6659667781
 40
0.6969850622
 40
0.7278442783
 40
0.7585474376
 40
0.7891010512
 40
0.8195150346
 40
0.8498025274
 40
0.8649066426
 40
0.8799854039
 40
0.9100708284
 40
0.9400854823
 40
0.9550762294
 40
0.970057877
 40
1.0
 40
1.0
 40
1.0
 40
1.0
 10
11.4886207232
 20
8.0283606637
 30
0.0
 10
11.4886207232
 20
8.0249974177
 30
0.0
 10
11.4888716212
 20
8.0182512818
 30
0.0
 10
11.489991783
 20
8.0081643802
 30
0.0
 10
11.4918504518
 20
7.9981366943
 30
0.0
 10
11.4944373047
 20
7.9882240349
 30
0.0
 10
11.497738046
 20
7.9784806228
 30
0.0
 10
11.5017344669
 20
7.9689599925
 30
0.0
 10
11.5064045596
 20
7.9597143773
 30
0.0
 10
11.5117226321
 20
7.9507945141
 30
0.0
 10
11.517659452
 20
7.9422493451
 30
0.0
 10
11.5241824047
 20
7.9341257588
 30
0.0
 10
11.5312556717
 20
7.9264683343
 30
0.0
 10
11.5388404254
 20
7.9193190993
 30
0.0
 10
11.5468950401
 20
7.9127173021
 30
0.0
 10
11.5553753179
 20
7.9066991981
 30
0.0
 10
11.5642347289
 20
7.9012978522
 30
0.0
 10
11.573424663
 20
7.8965429591
 30
0.0
 10
11.5828946936
 20
7.8924606806
 30
0.0
 10
11.5925928504
 20
7.8890735024
 30
0.0
 10
11.6024659009
 20
7.8864001097
 30
0.0
 10
11.6124596379
 20
7.8844552838
 30
0.0
 10
11.6225191739
 20
7.8832498181
 30
0.0
 10
11.6325892359
 20
7.8827904548
 30
0.0
 10
11.6426144757
 20
7.8830798474
 30
0.0
 10
11.6525397314
 20
7.8841165226
 30
0.0
 10
11.6623104803
 20
7.885894949
 30
0.0
 10
11.6718725759
 20
7.8884053108
 30
0.0
 10
11.6796318105
 20
7.8910988942
 30
0.0
 10
11.6856797573
 20
7.8936038593
 30
0.0
 10
11.6916052817
 20
7.8963342501
 30
0.0
 10
11.6987899999
 20
7.9001722543
 30
0.0
 10
11.7056415714
 20
7.9045600004
 30
0.0
 10
11.7108924816
 20
7.9083809811
 30
0.0
 10
11.7159813252
 20
7.9124020657
 30
0.0
 10
11.7196149557
 20
7.9156428386
 30
0.0
 10
11.7219458023
 20
7.9178942791
 30
0.0
  0
SPLINE
  5
3C6
100
AcDbEntity
  8
0
100
AcDbSpline
 62
7
  6
CONTINUOUS
 70
0
 71
3
 72
41
 73
37
 74
0
 42
0.0000001
 43
0.0000001
 44
0.0000000001
 40
0.0
 40
0.0
 40
0.0
 40
0.0
 40
0.0071757878
 40
0.0146740945
 40
0.0225035609
 40
0.0306713549
 40
0.0391834197
 40
0.0480443679
 40
0.0572572149
 40
0.0668238567
 40
0.076745221
 40
0.0870212626
 40
0.0976512706
 40
0.1086336674
 40
0.131645286
 40
0.1560326206
 40
0.1817627982
 40
0.2087958624
 40
0.2370856423
 40
0.2665805176
 40
0.2972240341
 40
0.3289554007
 40
0.3617098966
 40
0.3954192459
 40
0.4300120062
 40
0.4654138894
 40
0.5015480547
 40
0.5383353725
 40
0.5756947244
 40
0.6135432851
 40
0.6517967806
 40
0.6903697378
 40
0.7681261148
 40
0.8461161177
 40
0.9236388544
 40
1.0
 40
1.0
 40
1.0
 40
1.0
 10
11.9679789626
 20
9.307292448
 30
0.0
 10
11.9672343651
 20
9.3065732219
 30
0.0
 10
11.9656746731
 20
9.305140399
 30
0.0
 10
11.9631871247
 20
9.3030527812
 30
0.0
 10
11.9605026344
 20
9.3009817146
 30
0.0
 10
11.9576229482
 20
9.2989285599
 30
0.0
 10
11.9545497701
 20
9.2968944194
 30
0.0
 10
11.9512848564
 20
9.294880495
 30
0.0
 10
11.9478301466
 20
9.2928879068
 30
0.0
 10
11.9441876858
 20
9.2909178593
 30
0.0
 10
11.9403596375
 20
9.28897155
 30
0.0
 10
11.9363483009
 20
9.2870500949
 30
0.0
 10
11.9321560417
 20
9.2851546695
 30
0.0
 10
11.9262359991
 20
9.2826241725
 30
0.0
 10
11.9183951762
 20
9.279542613
 30
0.0
 10
11.9084481116
 20
9.2760213742
 30
0.0
 10
11.8978453604
 20
9.2726299706
 30
0.0
 10
11.886612314
 20
9.2693766154
 30
0.0
 10
11.8747757639
 20
9.2662691883
 30
0.0
 10
11.8623640621
 20
9.2633152259
 30
0.0
 10
11.8494069617
 20
9.2605218979
 30
0.0
 10
11.8359355592
 20
9.2578959886
 30
0.0
 10
11.8219822151
 20
9.2554438732
 30
0.0
 10
11.8075804733
 20
9.2531714938
 30
0.0
 10
11.7927649693
 20
9.2510843609
 30
0.0
 10
11.7775713409
 20
9.2491875363
 30
0.0
 10
11.7620361449
 20
9.247485624
 30
0.0
 10
11.7461967721
 20
9.2459827457
 30
0.0
 10
11.7300913495
 20
9.2446825366
 30
0.0
 10
11.7137586569
 20
9.2435881521
 30
0.0
 10
11.6972379822
 20
9.2427022237
 30
0.0
 10
11.674954414
 20
9.2417995347
 30
0.0
 10
11.6469233235
 20
9.2412074254
 30
0.0
 10
11.6132668469
 20
9.2413493016
 30
0.0
 10
11.579826117
 20
9.2423404874
 30
0.0
 10
11.5576568377
 20
9.2435739433
 30
0.0
 10
11.5466667807
 20
9.2443361063
 30
0.0
  0
SPLINE
  5
3C7
100
AcDbEntity
  8
0
100
AcDbSpline
 62
7
  6
CONTINUOUS
 70
0
 71
3
 72
41
 73
37
 74
0
 42
0.0000001
 43
0.0000001
 44
0.0000000001
 40
0.0
 40
0.0
 40
0.0
 40
0.0
 40
0.0071758425
 40
0.0146741453
 40
0.0225035656
 40
0.0306713257
 40
0.0391834036
 40
0.0480443729
 40
0.0572572157
 40
0.0668238661
 40
0.0767452117
 40
0.087021259
 40
0.0976512753
 40
0.1086336553
 40
0.1316452786
 40
0.1560326285
 40
0.1817628121
 40
0.2087958578
 40
0.2370856249
 40
0.2665805114
 40
0.2972240455
 40
0.3289554128
 40
0.3617098907
 40
0.3954192316
 40
0.4300120033
 40
0.4654138991
 40
0.5015480605
 40
0.5383353682
 40
0.5756947176
 40
0.6135432851
 40
0.6517967846
 40
0.6903697386
 40
0.7681261117
 40
0.8461161118
 40
0.923638923
 40
1.0
 40
1.0
 40
1.0
 40
1.0
 10
11.997922665
 20
9.2752721428
 30
0.0
 10
11.9971109609
 20
9.2744880968
 30
0.0
 10
11.995410711
 20
9.2729261461
 30
0.0
 10
11.9926989945
 20
9.270650398
 30
0.0
 10
11.9897725931
 20
9.2683927096
 30
0.0
 10
11.9866334113
 20
9.266154535
 30
0.0
 10
11.983283288
 20
9.2639370878
 30
0.0
 10
11.9797241492
 20
9.2617416724
 30
0.0
 10
11.9759581146
 20
9.2595695099
 30
0.0
 10
11.971987404
 20
9.2574219427
 30
0.0
 10
11.9678143918
 20
9.2553002299
 30
0.0
 10
11.963441567
 20
9.253205625
 30
0.0
 10
11.9588715165
 20
9.2511393934
 30
0.0
 10
11.9524179867
 20
9.2483808472
 30
0.0
 10
11.9438705747
 20
9.2450215955
 30
0.0
 10
11.9330271129
 20
9.2411830373
 30
0.0
 10
11.9214688797
 20
9.2374860163
 30
0.0
 10
11.9092235587
 20
9.2339394752
 30
0.0
 10
11.8963203469
 20
9.2305520148
 30
0.0
 10
11.8827901454
 20
9.2273318552
 30
0.0
 10
11.8686653935
 20
9.2242868077
 30
0.0
 10
11.8539799981
 20
9.2214242623
 30
0.0
 10
11.8387692357
 20
9.2187511655
 30
0.0
 10
11.8230696654
 20
9.2162740044
 30
0.0
 10
11.8069190403
 20
9.2139987905
 30
0.0
 10
11.7903562147
 20
9.2119310366
 30
0.0
 10
11.773421045
 20
9.2100757531
 30
0.0
 10
11.7561542899
 20
9.2084374363
 30
0.0
 10
11.7385975076
 20
9.2070200546
 30
0.0
 10
11.7207929719
 20
9.2058270519
 30
0.0
 10
11.7027835141
 20
9.2048612914
 30
0.0
 10
11.6784918343
 20
9.2038772522
 30
0.0
 10
11.6479346878
 20
9.2032317792
 30
0.0
 10
11.6112452041
 20
9.2033864483
 30
0.0
 10
11.5747909194
 20
9.2044669528
 30
0.0
 10
11.5506238262
 20
9.2058115643
 30
0.0
 10
11.5386433969
 20
9.2066424099
 30
0.0
  0
SPLINE
  5
3C8
100
AcDbEntity
  8
0
100
AcDbSpline
 62
7
  6
CONTINUOUS
 70
0
 71
3
 72
11
 73
7
 74
0
 42
0.0000001
 43
0.0000001
 44
0.0000000001
 40
0.0
 40
0.0
 40
0.0
 40
0.0
 40
0.2432170288
 40
0.4892057127
 40
0.7406376369
 40
1.0
 40
1.0
 40
1.0
 40
1.0
 10
10.5096125695
 20
9.5334494784
 30
0.0
 10
10.5096125652
 20
9.5345183201
 30
0.0
 10
10.5097326415
 20
9.536670047
 30
0.0
 10
10.5102717243
 20
9.5398861359
 30
0.0
 10
10.511168663
 20
9.5430947219
 30
0.0
 10
10.5119892972
 20
9.545188529
 30
0.0
 10
10.5124536539
 20
9.5462294436
 30
0.0
  0
SPLINE
  5
3C9
100
AcDbEntity
  8
0
100
AcDbSpline
 62
7
  6
CONTINUOUS
 70
0
 71
3
 72
41
 73
37
 74
0
 42
0.0000001
 43
0.0000001
 44
0.0000000001
 40
0.0
 40
0.0
 40
0.0
 40
0.0
 40
0.0310748272
 40
0.0623072483
 40
0.0936920359
 40
0.1252208484
 40
0.156882237
 40
0.188662033
 40
0.2205436266
 40
0.2525083437
 40
0.2845358343
 40
0.3166044929
 40
0.3486918936
 40
0.3807752384
 40
0.4128318095
 40
0.4448394218
 40
0.4767768664
 40
0.5086243418
 40
0.5403638639
 40
0.5719796493
 40
0.6034584635
 40
0.6347899281
 40
0.6659667781
 40
0.6969850622
 40
0.7278442783
 40
0.7585474376
 40
0.7891010512
 40
0.8195150346
 40
0.8498025274
 40
0.8649066426
 40
0.8799854039
 40
0.9100708284
 40
0.9400854823
 40
0.9550762294
 40
0.970057877
 40
1.0
 40
1.0
 40
1.0
 40
1.0
 10
11.4886207232
 20
5.9767340458
 30
0.0
 10
11.4886207232
 20
5.9733707999
 30
0.0
 10
11.4888716212
 20
5.966624664
 30
0.0
 10
11.489991783
 20
5.9565377623
 30
0.0
 10
11.4918504518
 20
5.9465100765
 30
0.0
 10
11.4944373047
 20
5.9365974171
 30
0.0
 10
11.497738046
 20
5.926854005
 30
0.0
 10
11.5017344669
 20
5.9173333747
 30
0.0
 10
11.5064045596
 20
5.9080877595
 30
0.0
 10
11.5117226321
 20
5.8991678963
 30
0.0
 10
11.517659452
 20
5.8906227273
 30
0.0
 10
11.5241824047
 20
5.882499141
 30
0.0
 10
11.5312556717
 20
5.8748417165
 30
0.0
 10
11.5388404254
 20
5.8676924815
 30
0.0
 10
11.5468950401
 20
5.8610906843
 30
0.0
 10
11.5553753179
 20
5.8550725803
 30
0.0
 10
11.5642347289
 20
5.8496712344
 30
0.0
 10
11.573424663
 20
5.8449163413
 30
0.0
 10
11.5828946936
 20
5.8408340628
 30
0.0
 10
11.5925928504
 20
5.8374468845
 30
0.0
 10
11.6024659009
 20
5.8347734919
 30
0.0
 10
11.6124596379
 20
5.8328286659
 30
0.0
 10
11.6225191739
 20
5.8316232003
 30
0.0
 10
11.6325892359
 20
5.831163837
 30
0.0
 10
11.6426144757
 20
5.8314532296
 30
0.0
 10
11.6525397314
 20
5.8324899048
 30
0.0
 10
11.6623104803
 20
5.8342683312
 30
0.0
 10
11.6718725759
 20
5.8367786929
 30
0.0
 10
11.6796318105
 20
5.8394722763
 30
0.0
 10
11.6856797573
 20
5.8419772415
 30
0.0
 10
11.6916052817
 20
5.8447076323
 30
0.0
 10
11.6987899999
 20
5.8485456365
 30
0.0
 10
11.7056415714
 20
5.8529333826
 30
0.0
 10
11.7108924816
 20
5.8567543633
 30
0.0
 10
11.7159813252
 20
5.8607754479
 30
0.0
 10
11.7196149557
 20
5.8640162208
 30
0.0
 10
11.7219458023
 20
5.8662676612
 30
0.0
  0
SPLINE
  5
3CA
100
AcDbEntity
  8
0
100
AcDbSpline
 62
7
  6
CONTINUOUS
 70
0
 71
3
 72
23
 73
19
 74
0
 42
0.0000001
 43
0.0000001
 44
0.0000000001
 40
0.0
 40
0.0
 40
0.0
 40
0.0
 40
0.0580027411
 40
0.1166070964
 40
0.1758432367
 40
0.2357332261
 40
0.2962873501
 40
0.3575062496
 40
0.4193804513
 40
0.4818910935
 40
0.5450103843
 40
0.60870226
 40
0.6729230733
 40
0.7376223431
 40
0.8027435406
 40
0.8682249062
 40
0.9340002883
 40
1.0
 40
1.0
 40
1.0
 40
1.0
 10
10.1213846845
 20
7.1451034549
 30
0.0
 10
10.1174787924
 20
7.1455531828
 30
0.0
 10
10.1096548725
 20
7.1467252018
 30
0.0
 10
10.0980022325
 20
7.1492716089
 30
0.0
 10
10.0864165444
 20
7.1526055513
 30
0.0
 10
10.0749423358
 20
7.1567140439
 30
0.0
 10
10.0636226975
 20
7.1615814459
 30
0.0
 10
10.0525003989
 20
7.16718915
 30
0.0
 10
10.0416173639
 20
7.1735158381
 30
0.0
 10
10.031014621
 20
7.1805374779
 30
0.0
 10
10.0207321291
 20
7.1882274476
 30
0.0
 10
10.0108086356
 20
7.1965566216
 30
0.0
 10
10.0012815357
 20
7.20549348
 30
0.0
 10
9.9921867261
 20
7.2150042354
 30
0.0
 10
9.983558498
 20
7.2250529123
 30
0.0
 10
9.9754293114
 20
7.2356016547
 30
0.0
 10
9.967830037
 20
7.2466102104
 30
0.0
 10
9.9631419247
 20
7.2542189332
 30
0.0
 10
9.9608941725
 20
7.2580870372
 30
0.0
  0
SPLINE
  5
3CB
100
AcDbEntity
  8
0
100
AcDbSpline
 62
7
  6
CONTINUOUS
 70
0
 71
3
 72
54
 73
50
 74
0
 42
0.0000001
 43
0.0000001
 44
0.0000000001
 40
0.0
 40
0.0
 40
0.0
 40
0.0
 40
0.052784991
 40
0.1048060923
 40
0.1559445044
 40
0.2060905216
 40
0.2551340321
 40
0.3029694639
 40
0.3494949945
 40
0.3946130603
 40
0.438230921
 40
0.4802611185
 40
0.5206221511
 40
0.559239105
 40
0.5960444107
 40
0.6309787921
 40
0.663992489
 40
0.6950468015
 40
0.709831479
 40
0.7241178387
 40
0.7379051855
 40
0.751193962
 40
0.7639858374
 40
0.7762841535
 40
0.7880937245
 40
0.7994213683
 40
0.8102760565
 40
0.8206690605
 40
0.830614617
 40
0.8401299511
 40
0.8492359035
 40
0.8579573592
 40
0.8663234793
 40
0.8743683592
 40
0.8821310443
 40
0.8896557027
 40
0.8969914552
 40
0.9041916844
 40
0.9113132101
 40
0.9184149027
 40
0.9255561887
 40
0.9327954181
 40
0.9401884307
 40
0.9477872381
 40
0.9637758035
 40
0.972256837
 40
0.9811038595
 40
0.9903441354
 40
1.0
 40
1.0
 40
1.0
 40
1.0
 10
9.9770372199
 20
9.3531902861
 30
0.0
 10
9.9716356614
 20
9.3535648855
 30
0.0
 10
9.9609155646
 20
9.3543808297
 30
0.0
 10
9.9449832748
 20
9.3558165132
 30
0.0
 10
9.9293424011
 20
9.3574525394
 30
0.0
 10
9.9140308501
 20
9.3592848614
 30
0.0
 10
9.8990852787
 20
9.3613090975
 30
0.0
 10
9.8845417176
 20
9.3635203203
 30
0.0
 10
9.8704351251
 20
9.365913165
 30
0.0
 10
9.8567994129
 20
9.3684818279
 30
0.0
 10
9.8436673498
 20
9.3712200755
 30
0.0
 10
9.8310704686
 20
9.3741212704
 30
0.0
 10
9.8190389833
 20
9.3771783656
 30
0.0
 10
9.8076017019
 20
9.3803839393
 30
0.0
 10
9.7967859797
 20
9.3837302168
 30
0.0
 10
9.7866175569
 20
9.3872091036
 30
0.0
 10
9.7771207535
 20
9.3908121946
 30
0.0
 10
9.7696675788
 20
9.3939605344
 30
0.0
 10
9.764065796
 20
9.396541874
 30
0.0
 10
9.7601152889
 20
9.398471761
 30
0.0
 10
9.75634886
 20
9.4004261143
 30
0.0
 10
9.7527687382
 20
9.4024037837
 30
0.0
 10
9.7493770709
 20
9.4044036351
 30
0.0
 10
9.7461758405
 20
9.4064244359
 30
0.0
 10
9.7431669599
 20
9.4084650491
 30
0.0
 10
9.7403522009
 20
9.410524282
 30
0.0
 10
9.7377332027
 20
9.4126009289
 30
0.0
 10
9.7353115524
 20
9.4146938762
 30
0.0
 10
9.7330886435
 20
9.4168019046
 30
0.0
 10
9.7310658352
 20
9.4189239034
 30
0.0
 10
9.7292443812
 20
9.4210587454
 30
0.0
 10
9.7276253964
 20
9.4232052697
 30
0.0
 10
9.7262100507
 20
9.4253624157
 30
0.0
 10
9.7249993271
 20
9.4275289968
 30
0.0
 10
9.7239942448
 20
9.4297038504
 30
0.0
 10
9.7231957899
 20
9.4318857188
 30
0.0
 10
9.7226047389
 20
9.4340731821
 30
0.0
 10
9.722221922
 20
9.4362647321
 30
0.0
 10
9.7220477907
 20
9.4384586647
 30
0.0
 10
9.7220825988
 20
9.4406532038
 30
0.0
 10
9.7223263682
 20
9.442846537
 30
0.0
 10
9.7227786277
 20
9.4450368921
 30
0.0
 10
9.7234389596
 20
9.4472227354
 30
0.0
 10
9.724615113
 20
9.4501783493
 30
0.0
 10
9.7262029756
 20
9.4530760677
 30
0.0
 10
9.7281423642
 20
9.4558917101
 30
0.0
 10
9.7298291492
 20
9.4580347497
 30
0.0
 10
9.7317178094
 20
9.4601653216
 30
0.0
 10
9.7330799934
 20
9.4615456865
 30
0.0
 10
9.733792394
 20
9.4622338127
 30
0.0
  0
SPLINE
  5
3CC
100
AcDbEntity
  8
0
100
AcDbSpline
 62
7
  6
CONTINUOUS
 70
0
 71
3
 72
11
 73
7
 74
0
 42
0.0000001
 43
0.0000001
 44
0.0000000001
 40
0.0
 40
0.0
 40
0.0
 40
0.0
 40
0.2594369939
 40
0.5108815754
 40
0.7568383928
 40
1.0
 40
1.0
 40
1.0
 40
1.0
 10
11.3677468512
 20
9.5462845183
 30
0.0
 10
11.3682151363
 20
9.5452393393
 30
0.0
 10
11.3690427817
 20
9.5431368909
 30
0.0
 10
11.3699475578
 20
9.5399145153
 30
0.0
 10
11.3704913718
 20
9.5366845157
 30
0.0
 10
11.3706125467
 20
9.5345234066
 30
0.0
 10
11.370612551
 20
9.5334499642
 30
0.0
  0
SPLINE
  5
3CD
100
AcDbEntity
  8
0
100
AcDbSpline
 62
7
  6
CONTINUOUS
 70
0
 71
3
 72
36
 73
32
 74
0
 42
0.0000001
 43
0.0000001
 44
0.0000000001
 40
0.0
 40
0.0
 40
0.0
 40
0.0
 40
0.0031312529
 40
0.006651404
 40
0.0105856716
 40
0.0149445231
 40
0.0197285022
 40
0.0249236011
 40
0.0305084011
 40
0.0364533539
 40
0.049289489
 40
0.0631593884
 40
0.077812226
 40
0.0930435321
 40
0.1086958682
 40
0.1246516549
 40
0.1571586633
 40
0.1901225591
 40
0.2233039112
 40
0.2565692183
 40
0.2898416109
 40
0.3562431265
 40
0.4223219603
 40
0.4880127949
 40
0.5532988723
 40
0.6181839952
 40
0.6826812224
 40
0.7468082457
 40
0.8105839089
 40
0.8740294413
 40
1.0
 40
1.0
 40
1.0
 40
1.0
 10
10.1213846845
 20
7.1451034549
 30
0.0
 10
10.1214631265
 20
7.1451768948
 30
0.0
 10
10.1216396131
 20
7.14532249
 30
0.0
 10
10.1219412754
 20
7.1455256427
 30
0.0
 10
10.1222949955
 20
7.1457244611
 30
0.0
 10
10.1227000688
 20
7.1459182211
 30
0.0
 10
10.1231551478
 20
7.1461058462
 30
0.0
 10
10.1236578095
 20
7.1462868479
 30
0.0
 10
10.124204993
 20
7.1464604573
 30
0.0
 10
10.1250098183
 20
7.1466876488
 30
0.0
 10
10.1261003021
 20
7.1469471951
 30
0.0
 10
10.1274929189
 20
7.1472223152
 30
0.0
 10
10.1289738322
 20
7.1474710883
 30
0.0
 10
10.1305201538
 20
7.1476971306
 30
0.0
 10
10.1321141919
 20
7.1479042382
 30
0.0
 10
10.1342993512
 20
7.1481616776
 30
0.0
 10
10.1370786522
 20
7.1484518653
 30
0.0
 10
10.1404487951
 20
7.1487734324
 30
0.0
 10
10.1438459582
 20
7.1490855013
 30
0.0
 10
10.1472535778
 20
7.1493994745
 30
0.0
 10
10.1517951395
 20
7.1498315469
 30
0.0
 10
10.1574535765
 20
7.1504135833
 30
0.0
 10
10.1642069433
 20
7.1512170162
 30
0.0
 10
10.1709054891
 20
7.1521473732
 30
0.0
 10
10.1775413538
 20
7.1532199779
 30
0.0
 10
10.1841091036
 20
7.1544455464
 30
0.0
 10
10.1906042485
 20
7.1558317884
 30
0.0
 10
10.1970225425
 20
7.1573842752
 30
0.0
 10
10.2033600223
 20
7.1591070714
 30
0.0
 10
10.2116756674
 20
7.1616286214
 30
0.0
 10
10.2178109356
 20
7.1637918572
 30
0.0
 10
10.2218410588
 20
7.1653557512
 30
0.0
  0
SPLINE
  5
3CE
100
AcDbEntity
  8
0
100
AcDbSpline
 62
7
  6
CONTINUOUS
 70
0
 71
3
 72
40
 73
36
 74
0
 42
0.0000001
 43
0.0000001
 44
0.0000000001
 40
0.0
 40
0.0
 40
0.0
 40
0.0
 40
0.0958312793
 40
0.1891000446
 40
0.2345965891
 40
0.279241512
 40
0.3229681675
 40
0.3657118109
 40
0.4074099461
 40
0.4480024746
 40
0.4874320226
 40
0.5256441407
 40
0.5625874576
 40
0.5982141394
 40
0.6324802032
 40
0.6653457683
 40
0.6967756912
 40
0.7267401448
 40
0.7552151418
 40
0.7821835616
 40
0.8076363113
 40
0.8315735468
 40
0.8540066404
 40
0.8749606632
 40
0.8944772684
 40
0.9126187468
 40
0.9294730511
 40
0.9451593172
 40
0.9598338268
 40
0.9668558706
 40
0.9737029056
 40
0.980406309
 40
0.9869997194
 40
0.9935186515
 40
1.0
 40
1.0
 40
1.0
 40
1.0
 10
9.9690138362
 20
9.3154965896
 30
0.0
 10
9.9592465654
 20
9.3161739522
 30
0.0
 10
9.9399873574
 20
9.3177254086
 30
0.0
 10
9.9161464324
 20
9.3202133397
 30
0.0
 10
9.8975491234
 20
9.322511779
 30
0.0
 10
9.8839981955
 20
9.3243662192
 30
0.0
 10
9.8707517617
 20
9.3263623252
 30
0.0
 10
9.8578319274
 20
9.3284967577
 30
0.0
 10
9.8452602856
 20
9.3307659144
 30
0.0
 10
9.8330578385
 20
9.333165999
 30
0.0
 10
9.8212449583
 20
9.3356929676
 30
0.0
 10
9.8098413569
 20
9.3383425589
 30
0.0
 10
9.7988660592
 20
9.3411103348
 30
0.0
 10
9.788337355
 20
9.3439916371
 30
0.0
 10
9.7782727671
 20
9.3469816066
 30
0.0
 10
9.7686890326
 20
9.350075238
 30
0.0
 10
9.7596020544
 20
9.3532673416
 30
0.0
 10
9.7510268637
 20
9.356552553
 30
0.0
 10
9.7429776109
 20
9.3599254071
 30
0.0
 10
9.7354675154
 20
9.363380314
 30
0.0
 10
9.7285088197
 20
9.3669115677
 30
0.0
 10
9.7221127956
 20
9.3705134546
 30
0.0
 10
9.7162897066
 20
9.3741802747
 30
0.0
 10
9.7110487744
 20
9.37790637
 30
0.0
 10
9.7063982542
 20
9.3816863408
 30
0.0
 10
9.7023455656
 20
9.3855150413
 30
0.0
 10
9.6988973421
 20
9.3893879649
 30
0.0
 10
9.6960602897
 20
9.3933002035
 30
0.0
 10
9.6941837617
 20
9.3966390771
 30
0.0
 10
9.6930139669
 20
9.3993125125
 30
0.0
 10
9.6923057324
 20
9.4012933207
 30
0.0
 10
9.6917543499
 20
9.4032780288
 30
0.0
 10
9.6913601659
 20
9.4052658236
 30
0.0
 10
9.691123561
 20
9.4072555592
 30
0.0
 10
9.6910709126
 20
9.4085843422
 30
0.0
 10
9.691070909
 20
9.4092465178
 30
0.0
  0
SPLINE
  5
3CF
100
AcDbEntity
  8
0
100
AcDbSpline
 62
7
  6
CONTINUOUS
 70
0
 71
3
 72
12
 73
8
 74
0
 42
0.0000001
 43
0.0000001
 44
0.0000000001
 40
0.0
 40
0.0
 40
0.0
 40
0.0
 40
0.2558984375
 40
0.3824427209
 40
0.5079544132
 40
0.7558429743
 40
1.0
 40
1.0
 40
1.0
 40
1.0
 10
10.8679761926
 20
7.5817457607
 30
0.0
 10
10.8622055288
 20
7.5857474657
 30
0.0
 10
10.85378078
 20
7.5920252404
 30
0.0
 10
10.8430702812
 20
7.6009503388
 30
0.0
 10
10.8328622984
 20
7.6101211018
 30
0.0
 10
10.8209128875
 20
7.6221637257
 30
0.0
 10
10.8122138635
 20
7.6325166924
 30
0.0
 10
10.8081396774
 20
7.6378358704
 30
0.0
  0
SPLINE
  5
3D0
100
AcDbEntity
  8
0
100
AcDbSpline
 62
7
  6
CONTINUOUS
 70
0
 71
3
 72
18
 73
14
 74
0
 42
0.0000001
 43
0.0000001
 44
0.0000000001
 40
0.0
 40
0.0
 40
0.0
 40
0.0
 40
0.054862568
 40
0.1099291209
 40
0.1654011893
 40
0.2214754292
 40
0.336133642
 40
0.4553634706
 40
0.5171047465
 40
0.5804363458
 40
0.712331634
 40
0.8519592464
 40
1.0
 40
1.0
 40
1.0
 40
1.0
 10
12.3098950169
 20
8.8350037599
 30
0.0
 10
12.3098950141
 20
8.8344741611
 30
0.0
 10
12.3098614011
 20
8.8334126882
 30
0.0
 10
12.3097102439
 20
8.8318222164
 30
0.0
 10
12.3094583749
 20
8.8302326289
 30
0.0
 10
12.3089851299
 20
8.8280997474
 30
0.0
 10
12.3081325153
 20
8.8254265308
 30
0.0
 10
12.3069648549
 20
8.8228164068
 30
0.0
 10
12.3058412724
 20
8.8207420824
 30
0.0
 10
12.3045547238
 20
8.81862021
 30
0.0
 10
12.3026866317
 20
8.8159766367
 30
0.0
 10
12.3000821706
 20
8.81287005
 30
0.0
 10
12.2981450963
 20
8.8108766675
 30
0.0
 10
12.2971172342
 20
8.8098838289
 30
0.0
  0
SPLINE
  5
3D1
100
AcDbEntity
  8
0
100
AcDbSpline
 62
7
  6
CONTINUOUS
 70
0
 71
3
 72
18
 73
14
 74
0
 42
0.0000001
 43
0.0000001
 44
0.0000000001
 40
0.0
 40
0.0
 40
0.0
 40
0.0
 40
0.0548626221
 40
0.1099291996
 40
0.1654012684
 40
0.2214754896
 40
0.3361336267
 40
0.4553633642
 40
0.5171046005
 40
0.5804361693
 40
0.7123314363
 40
0.8519591016
 40
1.0
 40
1.0
 40
1.0
 40
1.0
 10
12.3098950169
 20
9.5893921167
 30
0.0
 10
12.3098950197
 20
9.5888625125
 30
0.0
 10
12.3098614172
 20
9.5878010288
 30
0.0
 10
12.3097102736
 20
9.5862105403
 30
0.0
 10
12.3094584161
 20
9.584620936
 30
0.0
 10
12.3089851837
 20
9.5824880323
 30
0.0
 10
12.3081325795
 20
9.5798147872
 30
0.0
 10
12.3069649222
 20
9.5772046352
 30
0.0
 10
12.3058413382
 20
9.5751302889
 30
0.0
 10
12.3045547851
 20
9.5730083937
 30
0.0
 10
12.3026866817
 20
9.5703647922
 30
0.0
 10
12.3000821994
 20
9.5672581727
 30
0.0
 10
12.2981451067
 20
9.56526477
 30
0.0
 10
12.2971172342
 20
9.5642719214
 30
0.0
  0
SPLINE
  5
3D2
100
AcDbEntity
  8
0
100
AcDbSpline
 62
7
  6
CONTINUOUS
 70
0
 71
3
 72
23
 73
19
 74
0
 42
0.0000001
 43
0.0000001
 44
0.0000000001
 40
0.0
 40
0.0
 40
0.0
 40
0.0
 40
0.0749625009
 40
0.1455684839
 40
0.2121600745
 40
0.2751631548
 40
0.3350982506
 40
0.3925832742
 40
0.4483295117
 40
0.5031237972
 40
0.5577983643
 40
0.613191491
 40
0.670106811
 40
0.729278715
 40
0.7913522906
 40
0.8568775564
 40
0.9263090861
 40
1.0
 40
1.0
 40
1.0
 40
1.0
 10
12.2663160348
 20
9.6431922707
 30
0.0
 10
12.2673093799
 20
9.6422678583
 30
0.0
 10
12.2691832736
 20
9.6404119662
 30
0.0
 10
12.2717117214
 20
9.6375165011
 30
0.0
 10
12.2738678324
 20
9.6345981149
 30
0.0
 10
12.2756483634
 20
9.6316593175
 30
0.0
 10
12.2770503737
 20
9.6287027277
 30
0.0
 10
12.2780706901
 20
9.6257313566
 30
0.0
 10
12.2787064585
 20
9.6227490351
 30
0.0
 10
12.2789554141
 20
9.6197604847
 30
0.0
 10
12.2788165771
 20
9.6167711411
 30
0.0
 10
12.2782905235
 20
9.6137865221
 30
0.0
 10
12.2773791308
 20
9.6108116229
 30
0.0
 10
12.2760852674
 20
9.6078504952
 30
0.0
 10
12.274411944
 20
9.6049063858
 30
0.0
 10
12.2723621944
 20
9.6019818674
 30
0.0
 10
12.2699391738
 20
9.5990797263
 30
0.0
 10
12.268132958
 20
9.5972189612
 30
0.0
 10
12.2671735318
 20
9.5962922266
 30
0.0
  0
SPLINE
  5
3D3
100
AcDbEntity
  8
0
100
AcDbSpline
 62
7
  6
CONTINUOUS
 70
0
 71
3
 72
15
 73
11
 74
0
 42
0.0000001
 43
0.0000001
 44
0.0000000001
 40
0.0
 40
0.0
 40
0.0
 40
0.0
 40
0.1234394136
 40
0.2470466177
 40
0.370982561
 40
0.4953948844
 40
0.6204121622
 40
0.7461393429
 40
0.8726517211
 40
1.0
 40
1.0
 40
1.0
 40
1.0
 10
11.5267208172
 20
8.1200036486
 30
0.0
 10
11.5237040814
 20
8.1170896855
 30
0.0
 10
11.5179625591
 20
8.1109421062
 30
0.0
 10
11.5103371897
 20
8.1008782613
 30
0.0
 10
11.5037625054
 20
8.0900585398
 30
0.0
 10
11.4983003052
 20
8.0785843232
 30
0.0
 10
11.4940004173
 20
8.0665615509
 30
0.0
 10
11.4909022781
 20
8.0541010962
 30
0.0
 10
11.4890338735
 20
8.0413194942
 30
0.0
 10
11.4886207232
 20
8.0326877474
 30
0.0
 10
11.4886207232
 20
8.0283606637
 30
0.0
  0
SPLINE
  5
3D4
100
AcDbEntity
  8
0
100
AcDbSpline
 62
7
  6
CONTINUOUS
 70
0
 71
3
 72
41
 73
37
 74
0
 42
0.0000001
 43
0.0000001
 44
0.0000000001
 40
0.0
 40
0.0
 40
0.0
 40
0.0
 40
0.0310748272
 40
0.0623072483
 40
0.0936920359
 40
0.1252208484
 40
0.156882237
 40
0.188662033
 40
0.2205436266
 40
0.2525083437
 40
0.2845358343
 40
0.3166044929
 40
0.3486918936
 40
0.3807752384
 40
0.4128318095
 40
0.4448394218
 40
0.4767768664
 40
0.5086243418
 40
0.5403638639
 40
0.5719796493
 40
0.6034584635
 40
0.6347899281
 40
0.6659667781
 40
0.6969850622
 40
0.7278442783
 40
0.7585474376
 40
0.7891010512
 40
0.8195150346
 40
0.8498025274
 40
0.8649066426
 40
0.8799854039
 40
0.9100708284
 40
0.9400854823
 40
0.9550762294
 40
0.970057877
 40
1.0
 40
1.0
 40
1.0
 40
1.0
 10
9.7383631311
 20
8.1497414399
 30
0.0
 10
9.7383631311
 20
8.146378194
 30
0.0
 10
9.7386140292
 20
8.1396320581
 30
0.0
 10
9.739734191
 20
8.1295451564
 30
0.0
 10
9.7415928598
 20
8.1195174706
 30
0.0
 10
9.7441797127
 20
8.1096048112
 30
0.0
 10
9.747480454
 20
8.0998613991
 30
0.0
 10
9.7514768749
 20
8.0903407688
 30
0.0
 10
9.7561469676
 20
8.0810951536
 30
0.0
 10
9.7614650401
 20
8.0721752904
 30
0.0
 10
9.76740186
 20
8.0636301213
 30
0.0
 10
9.7739248127
 20
8.0555065351
 30
0.0
 10
9.7809980797
 20
8.0478491106
 30
0.0
 10
9.7885828334
 20
8.0406998756
 30
0.0
 10
9.796637448
 20
8.0340980784
 30
0.0
 10
9.8051177259
 20
8.0280799744
 30
0.0
 10
9.8139771368
 20
8.0226786285
 30
0.0
 10
9.823167071
 20
8.0179237354
 30
0.0
 10
9.8326371016
 20
8.0138414569
 30
0.0
 10
9.8423352584
 20
8.0104542786
 30
0.0
 10
9.8522083089
 20
8.007780886
 30
0.0
 10
9.8622020458
 20
8.00583606
 30
0.0
 10
9.8722615819
 20
8.0046305944
 30
0.0
 10
9.8823316438
 20
8.0041712311
 30
0.0
 10
9.8923568837
 20
8.0044606237
 30
0.0
 10
9.9022821394
 20
8.0054972989
 30
0.0
 10
9.9120528883
 20
8.0072757253
 30
0.0
 10
9.9216149839
 20
8.009786087
 30
0.0
 10
9.9293742185
 20
8.0124796704
 30
0.0
 10
9.9354221653
 20
8.0149846356
 30
0.0
 10
9.9413476897
 20
8.0177150264
 30
0.0
 10
9.9485324079
 20
8.0215530306
 30
0.0
 10
9.9553839794
 20
8.0259407767
 30
0.0
 10
9.9606348896
 20
8.0297617574
 30
0.0
 10
9.9657237331
 20
8.033782842
 30
0.0
 10
9.9693573637
 20
8.0370236149
 30
0.0
 10
9.9716882103
 20
8.0392750553
 30
0.0
  0
SPLINE
  5
3D5
100
AcDbEntity
  8
0
100
AcDbSpline
 62
7
  6
CONTINUOUS
 70
0
 71
3
 72
15
 73
11
 74
0
 42
0.0000001
 43
0.0000001
 44
0.0000000001
 40
0.0
 40
0.0
 40
0.0
 40
0.0
 40
0.1234394136
 40
0.2470466177
 40
0.370982561
 40
0.4953948844
 40
0.6204121622
 40
0.7461393429
 40
0.8726517211
 40
1.0
 40
1.0
 40
1.0
 40
1.0
 10
9.7764632252
 20
8.2413844248
 30
0.0
 10
9.7734464894
 20
8.2384704618
 30
0.0
 10
9.7677049671
 20
8.2323228825
 30
0.0
 10
9.7600795977
 20
8.2222590376
 30
0.0
 10
9.7535049134
 20
8.2114393161
 30
0.0
 10
9.7480427131
 20
8.1999650995
 30
0.0
 10
9.7437428253
 20
8.1879423272
 30
0.0
 10
9.7406446861
 20
8.1754818724
 30
0.0
 10
9.7387762815
 20
8.1627002704
 30
0.0
 10
9.7383631311
 20
8.1540685237
 30
0.0
 10
9.7383631311
 20
8.1497414399
 30
0.0
  0
SPLINE
  5
3D6
100
AcDbEntity
  8
0
100
AcDbSpline
 62
7
  6
CONTINUOUS
 70
0
 71
3
 72
15
 73
11
 74
0
 42
0.0000001
 43
0.0000001
 44
0.0000000001
 40
0.0
 40
0.0
 40
0.0
 40
0.0
 40
0.1234394136
 40
0.2470466177
 40
0.370982561
 40
0.4953948844
 40
0.6204121622
 40
0.7461393429
 40
0.8726517211
 40
1.0
 40
1.0
 40
1.0
 40
1.0
 10
9.7764632252
 20
6.189757807
 30
0.0
 10
9.7734464894
 20
6.186843844
 30
0.0
 10
9.7677049671
 20
6.1806962646
 30
0.0
 10
9.7600795977
 20
6.1706324198
 30
0.0
 10
9.7535049134
 20
6.1598126982
 30
0.0
 10
9.7480427131
 20
6.1483384817
 30
0.0
 10
9.7437428253
 20
6.1363157093
 30
0.0
 10
9.7406446861
 20
6.1238552546
 30
0.0
 10
9.7387762815
 20
6.1110736526
 30
0.0
 10
9.7383631311
 20
6.1024419058
 30
0.0
 10
9.7383631311
 20
6.0981148221
 30
0.0
  0
SPLINE
  5
3D7
100
AcDbEntity
  8
0
100
AcDbSpline
 62
7
  6
CONTINUOUS
 70
0
 71
3
 72
15
 73
11
 74
0
 42
0.0000001
 43
0.0000001
 44
0.0000000001
 40
0.0
 40
0.0
 40
0.0
 40
0.0
 40
0.1234394136
 40
0.2470466177
 40
0.370982561
 40
0.4953948844
 40
0.6204121622
 40
0.7461393429
 40
0.8726517211
 40
1.0
 40
1.0
 40
1.0
 40
1.0
 10
11.5267208172
 20
6.0683770307
 30
0.0
 10
11.5237040814
 20
6.0654630677
 30
0.0
 10
11.5179625591
 20
6.0593154884
 30
0.0
 10
11.5103371897
 20
6.0492516435
 30
0.0
 10
11.5037625054
 20
6.038431922
 30
0.0
 10
11.4983003052
 20
6.0269577054
 30
0.0
 10
11.4940004173
 20
6.0149349331
 30
0.0
 10
11.4909022781
 20
6.0024744784
 30
0.0
 10
11.4890338735
 20
5.9896928763
 30
0.0
 10
11.4886207232
 20
5.9810611296
 30
0.0
 10
11.4886207232
 20
5.9767340458
 30
0.0
  0
SPLINE
  5
3D8
100
AcDbEntity
  8
0
100
AcDbSpline
 62
7
  6
CONTINUOUS
 70
0
 71
3
 72
15
 73
11
 74
0
 42
0.0000001
 43
0.0000001
 44
0.0000000001
 40
0.0
 40
0.0
 40
0.0
 40
0.0
 40
0.1245676747
 40
0.2493107727
 40
0.374201511
 40
0.4992188383
 40
0.6243354593
 40
0.7495227423
 40
0.8747557072
 40
1.0
 40
1.0
 40
1.0
 40
1.0
 10
10.2218410588
 20
7.1653557512
 30
0.0
 10
10.217937959
 20
7.1635704676
 30
0.0
 10
10.210020981
 20
7.1602226305
 30
0.0
 10
10.1978698805
 20
7.1558912457
 30
0.0
 10
10.1854746891
 20
7.1522608084
 30
0.0
 10
10.1728793361
 20
7.1493441095
 30
0.0
 10
10.1601276374
 20
7.1471513673
 30
0.0
 10
10.1472639876
 20
7.1456901215
 30
0.0
 10
10.1343339325
 20
7.1449655988
 30
0.0
 10
10.1256981152
 20
7.1449753703
 30
0.0
 10
10.1213846845
 20
7.1451034549
 30
0.0
  0
SPLINE
  5
3D9
100
AcDbEntity
  8
0
100
AcDbSpline
 62
7
  6
CONTINUOUS
 70
0
 71
3
 72
34
 73
30
 74
0
 42
0.0000001
 43
0.0000001
 44
0.0000000001
 40
0.0
 40
0.0
 40
0.0
 40
0.0
 40
0.1343464694
 40
0.2014131772
 40
0.2683723372
 40
0.3351932014
 40
0.4018356827
 40
0.468246468
 40
0.5343520252
 40
0.6000483192
 40
0.6651824034
 40
0.7295181974
 40
0.76127649
 40
0.7926712398
 40
0.8236045287
 40
0.8539393566
 40
0.8834768667
 40
0.9119168849
 40
0.9255886641
 40
0.9387900909
 40
0.9514149302
 40
0.963328906
 40
0.9743582885
 40
0.979478065
 40
0.9842952574
 40
0.988781121
 40
0.9929069382
 40
0.9966507205
 40
1.0
 40
1.0
 40
1.0
 40
1.0
 10
10.0188551356
 20
7.1609185082
 30
0.0
 10
10.0231165878
 20
7.1588213083
 30
0.0
 10
10.0296234103
 20
7.1559086821
 30
0.0
 10
10.0384846183
 20
7.1525140001
 30
0.0
 10
10.0452058902
 20
7.1502190142
 30
0.0
 10
10.0519929817
 20
7.1481787274
 30
0.0
 10
10.058832749
 20
7.1463978398
 30
0.0
 10
10.0657101077
 20
7.1448814496
 30
0.0
 10
10.072607564
 20
7.1436351592
 30
0.0
 10
10.0795038301
 20
7.1426654356
 30
0.0
 10
10.0863713039
 20
7.1419802032
 30
0.0
 10
10.0920637956
 20
7.1416530302
 30
0.0
 10
10.096570014
 20
7.1415474109
 30
0.0
 10
10.099896591
 20
7.1415484937
 30
0.0
 10
10.1031717944
 20
7.1416324895
 30
0.0
 10
10.1063779699
 20
7.141803087
 30
0.0
 10
10.1094895987
 20
7.1420649366
 30
0.0
 10
10.11200525
 20
7.1423675236
 30
0.0
 10
10.1139378849
 20
7.1426667495
 30
0.0
 10
10.1153119838
 20
7.1429161911
 30
0.0
 10
10.1166170807
 20
7.1431947553
 30
0.0
 10
10.1178363689
 20
7.143503499
 30
0.0
 10
10.1187858567
 20
7.1437933314
 30
0.0
 10
10.1194830068
 20
7.1440455719
 30
0.0
 10
10.1199552436
 20
7.144238324
 30
0.0
 10
10.120385665
 20
7.1444391739
 30
0.0
 10
10.1207697309
 20
7.1446480106
 30
0.0
 10
10.1211025706
 20
7.1448645266
 30
0.0
 10
10.1212982474
 20
7.1450225298
 30
0.0
 10
10.1213846845
 20
7.1451034549
 30
0.0
  0
SPLINE
  5
3DA
100
AcDbEntity
  8
0
100
AcDbSpline
 62
7
  6
CONTINUOUS
 70
0
 71
3
 72
41
 73
37
 74
0
 42
0.0000001
 43
0.0000001
 44
0.0000000001
 40
0.0
 40
0.0
 40
0.0
 40
0.0
 40
0.0311447108
 40
0.0467774295
 40
0.0624475249
 40
0.0938924651
 40
0.1254747955
 40
0.1571823865
 40
0.1890004527
 40
0.2209120576
 40
0.2528984154
 40
0.2689156901
 40
0.2849439669
 40
0.3170180467
 40
0.3491033961
 40
0.3811778561
 40
0.4132194776
 40
0.4452069463
 40
0.4771199982
 40
0.5089398211
 40
0.5406494354
 40
0.5722340478
 40
0.6036813723
 40
0.6349819093
 40
0.666129179
 40
0.6971198991
 40
0.7279541027
 40
0.7586351871
 40
0.7891698911
 40
0.819568195
 40
0.8498431417
 40
0.8800105805
 40
0.9100888347
 40
0.9400983003
 40
0.9700609852
 40
1.0
 40
1.0
 40
1.0
 40
1.0
 10
10.7019992396
 20
7.2508573817
 30
0.0
 10
10.6968336857
 20
7.2512156141
 30
0.0
 10
10.6890912248
 20
7.2520370409
 30
0.0
 10
10.6788395039
 20
7.2536877773
 30
0.0
 10
10.6686040657
 20
7.2557143832
 30
0.0
 10
10.6559122692
 20
7.2589419205
 30
0.0
 10
10.6409481515
 20
7.2638959534
 30
0.0
 10
10.6263100824
 20
7.2699092761
 30
0.0
 10
10.6120764466
 20
7.2769497257
 30
0.0
 10
10.5983233285
 20
7.2849794135
 30
0.0
 10
10.5873274254
 20
7.2924571715
 30
0.0
 10
10.5788418313
 20
7.2988884944
 30
0.0
 10
10.5705696527
 20
7.3056152495
 30
0.0
 10
10.5606621574
 20
7.3145524281
 30
0.0
 10
10.5495315315
 20
7.3260622581
 30
0.0
 10
10.5392141594
 20
7.3382998308
 30
0.0
 10
10.5297654121
 20
7.351199636
 30
0.0
 10
10.5212355871
 20
7.3646930146
 30
0.0
 10
10.5136702278
 20
7.3787080486
 30
0.0
 10
10.5071097257
 20
7.3931700658
 30
0.0
 10
10.5015891471
 20
7.4080019993
 30
0.0
 10
10.4971380359
 20
7.4231248014
 30
0.0
 10
10.493780257
 20
7.4384578572
 30
0.0
 10
10.4915338661
 20
7.4539194086
 30
0.0
 10
10.4904110097
 20
7.4694269845
 30
0.0
 10
10.4904178555
 20
7.484897835
 30
0.0
 10
10.4915545491
 20
7.5002493687
 30
0.0
 10
10.4938152064
 20
7.5153995904
 30
0.0
 10
10.4971879364
 20
7.530267537
 30
0.0
 10
10.5016548965
 20
7.5447737124
 30
0.0
 10
10.5071923693
 20
7.5588405082
 30
0.0
 10
10.5137709076
 20
7.5723926506
 30
0.0
 10
10.5213553819
 20
7.5853575142
 30
0.0
 10
10.5299055378
 20
7.5976658821
 30
0.0
 10
10.5393748134
 20
7.6092509844
 30
0.0
 10
10.5462697014
 20
7.6164538602
 30
0.0
 10
10.5498497976
 20
7.6199119661
 30
0.0
  0
SPLINE
  5
3DB
100
AcDbEntity
  8
0
100
AcDbSpline
 62
7
  6
CONTINUOUS
 70
0
 71
3
 72
41
 73
37
 74
0
 42
0.0000001
 43
0.0000001
 44
0.0000000001
 40
0.0
 40
0.0
 40
0.0
 40
0.0
 40
0.0311447108
 40
0.0467774295
 40
0.0624475249
 40
0.0938924651
 40
0.1254747955
 40
0.1571823865
 40
0.1890004527
 40
0.2209120576
 40
0.2528984154
 40
0.2689156901
 40
0.2849439669
 40
0.3170180467
 40
0.3491033961
 40
0.3811778561
 40
0.4132194776
 40
0.4452069463
 40
0.4771199982
 40
0.5089398211
 40
0.5406494354
 40
0.5722340478
 40
0.6036813723
 40
0.6349819093
 40
0.666129179
 40
0.6971198991
 40
0.7279541027
 40
0.7586351871
 40
0.7891698911
 40
0.819568195
 40
0.8498431417
 40
0.8800105805
 40
0.9100888347
 40
0.9400983003
 40
0.9700609852
 40
1.0
 40
1.0
 40
1.0
 40
1.0
 10
11.1241088857
 20
5.9233795508
 30
0.0
 10
11.1189433318
 20
5.9237377832
 30
0.0
 10
11.1112008709
 20
5.92455921
 30
0.0
 10
11.10094915
 20
5.9262099464
 30
0.0
 10
11.0907137119
 20
5.9282365523
 30
0.0
 10
11.0780219153
 20
5.9314640895
 30
0.0
 10
11.0630577976
 20
5.9364181225
 30
0.0
 10
11.0484197285
 20
5.9424314452
 30
0.0
 10
11.0341860927
 20
5.9494718948
 30
0.0
 10
11.0204329746
 20
5.9575015826
 30
0.0
 10
11.0094370715
 20
5.9649793406
 30
0.0
 10
11.0009514774
 20
5.9714106635
 30
0.0
 10
10.9926792988
 20
5.9781374186
 30
0.0
 10
10.9827718035
 20
5.9870745972
 30
0.0
 10
10.9716411776
 20
5.9985844272
 30
0.0
 10
10.9613238055
 20
6.0108219999
 30
0.0
 10
10.9518750582
 20
6.0237218051
 30
0.0
 10
10.9433452332
 20
6.0372151837
 30
0.0
 10
10.935779874
 20
6.0512302177
 30
0.0
 10
10.9292193718
 20
6.0656922349
 30
0.0
 10
10.9236987932
 20
6.0805241683
 30
0.0
 10
10.919247682
 20
6.0956469705
 30
0.0
 10
10.9158899031
 20
6.1109800263
 30
0.0
 10
10.9136435122
 20
6.1264415777
 30
0.0
 10
10.9125206558
 20
6.1419491535
 30
0.0
 10
10.9125275016
 20
6.1574200041
 30
0.0
 10
10.9136641952
 20
6.1727715378
 30
0.0
 10
10.9159248525
 20
6.1879217594
 30
0.0
 10
10.9192975825
 20
6.2027897061
 30
0.0
 10
10.9237645426
 20
6.2172958815
 30
0.0
 10
10.9293020154
 20
6.2313626773
 30
0.0
 10
10.9358805537
 20
6.2449148197
 30
0.0
 10
10.943465028
 20
6.2578796833
 30
0.0
 10
10.9520151839
 20
6.2701880512
 30
0.0
 10
10.9614844595
 20
6.2817731534
 30
0.0
 10
10.9683793475
 20
6.2889760293
 30
0.0
 10
10.9719594437
 20
6.2924341352
 30
0.0
  0
SPLINE
  5
3DC
100
AcDbEntity
  8
0
100
AcDbSpline
 62
7
  6
CONTINUOUS
 70
0
 71
3
 72
41
 73
37
 74
0
 42
0.0000001
 43
0.0000001
 44
0.0000000001
 40
0.0
 40
0.0
 40
0.0
 40
0.0
 40
0.0310748272
 40
0.0623072483
 40
0.0936920359
 40
0.1252208484
 40
0.156882237
 40
0.188662033
 40
0.2205436266
 40
0.2525083437
 40
0.2845358343
 40
0.3166044929
 40
0.3486918936
 40
0.3807752384
 40
0.4128318095
 40
0.4448394218
 40
0.4767768664
 40
0.5086243418
 40
0.5403638639
 40
0.5719796493
 40
0.6034584635
 40
0.6347899281
 40
0.6659667781
 40
0.6969850622
 40
0.7278442783
 40
0.7585474376
 40
0.7891010512
 40
0.8195150346
 40
0.8498025274
 40
0.8649066426
 40
0.8799854039
 40
0.9100708284
 40
0.9400854823
 40
0.9550762294
 40
0.970057877
 40
1.0
 40
1.0
 40
1.0
 40
1.0
 10
9.7383631311
 20
6.0981148221
 30
0.0
 10
9.7383631311
 20
6.0947515762
 30
0.0
 10
9.7386140292
 20
6.0880054403
 30
0.0
 10
9.739734191
 20
6.0779185386
 30
0.0
 10
9.7415928598
 20
6.0678908527
 30
0.0
 10
9.7441797127
 20
6.0579781934
 30
0.0
 10
9.747480454
 20
6.0482347812
 30
0.0
 10
9.7514768749
 20
6.038714151
 30
0.0
 10
9.7561469676
 20
6.0294685358
 30
0.0
 10
9.7614650401
 20
6.0205486726
 30
0.0
 10
9.76740186
 20
6.0120035035
 30
0.0
 10
9.7739248127
 20
6.0038799173
 30
0.0
 10
9.7809980797
 20
5.9962224927
 30
0.0
 10
9.7885828334
 20
5.9890732578
 30
0.0
 10
9.796637448
 20
5.9824714606
 30
0.0
 10
9.8051177259
 20
5.9764533565
 30
0.0
 10
9.8139771368
 20
5.9710520107
 30
0.0
 10
9.823167071
 20
5.9662971176
 30
0.0
 10
9.8326371016
 20
5.9622148391
 30
0.0
 10
9.8423352584
 20
5.9588276608
 30
0.0
 10
9.8522083089
 20
5.9561542681
 30
0.0
 10
9.8622020458
 20
5.9542094422
 30
0.0
 10
9.8722615819
 20
5.9530039766
 30
0.0
 10
9.8823316438
 20
5.9525446133
 30
0.0
 10
9.8923568837
 20
5.9528340058
 30
0.0
 10
9.9022821394
 20
5.953870681
 30
0.0
 10
9.9120528883
 20
5.9556491075
 30
0.0
 10
9.9216149839
 20
5.9581594692
 30
0.0
 10
9.9293742185
 20
5.9608530526
 30
0.0
 10
9.9354221653
 20
5.9633580178
 30
0.0
 10
9.9413476897
 20
5.9660884086
 30
0.0
 10
9.9485324079
 20
5.9699264127
 30
0.0
 10
9.9553839794
 20
5.9743141589
 30
0.0
 10
9.9606348896
 20
5.9781351395
 30
0.0
 10
9.9657237331
 20
5.9821562242
 30
0.0
 10
9.9693573637
 20
5.9853969971
 30
0.0
 10
9.9716882103
 20
5.9876484375
 30
0.0
  0
SPLINE
  5
3DD
100
AcDbEntity
  8
0
100
AcDbSpline
 62
7
  6
CONTINUOUS
 70
0
 71
3
 72
40
 73
36
 74
0
 42
0.0000001
 43
0.0000001
 44
0.0000000001
 40
0.0
 40
0.0
 40
0.0
 40
0.0
 40
0.0958313936
 40
0.1891002636
 40
0.2345968559
 40
0.2792418231
 40
0.3229685191
 40
0.3657121987
 40
0.4074103657
 40
0.4480029213
 40
0.4874324913
 40
0.5256446262
 40
0.5625879545
 40
0.5982146421
 40
0.632480706
 40
0.6653462654
 40
0.6967761768
 40
0.726740613
 40
0.7552155871
 40
0.7821839784
 40
0.8076366943
 40
0.8315738914
 40
0.8540069425
 40
0.8749609194
 40
0.8944774765
 40
0.9126189061
 40
0.9294731629
 40
0.9451593854
 40
0.9598338584
 40
0.9668558876
 40
0.9737029112
 40
0.9804063068
 40
0.9869997133
 40
0.9935186461
 40
1.0
 40
1.0
 40
1.0
 40
1.0
 10
9.9690138362
 20
8.5611084972
 30
0.0
 10
9.9592465453
 20
8.5617858611
 30
0.0
 10
9.9399872984
 20
8.5633373211
 30
0.0
 10
9.916146326
 20
8.565825259
 30
0.0
 10
9.8975489812
 20
8.5681237049
 30
0.0
 10
9.8839980286
 20
8.5699781506
 30
0.0
 10
9.8707515715
 20
8.5719742627
 30
0.0
 10
9.8578317157
 20
8.5741087016
 30
0.0
 10
9.845260054
 20
8.5763778655
 30
0.0
 10
9.8330575891
 20
8.5787779576
 30
0.0
 10
9.821244693
 20
8.5813049341
 30
0.0
 10
9.8098410779
 20
8.5839545338
 30
0.0
 10
9.7988657688
 20
8.5867223184
 30
0.0
 10
9.7883370556
 20
8.5896036298
 30
0.0
 10
9.7782724609
 20
8.5925936088
 30
0.0
 10
9.7686887223
 20
8.5956872498
 30
0.0
 10
9.7596017425
 20
8.5988793633
 30
0.0
 10
9.7510265529
 20
8.6021645849
 30
0.0
 10
9.7429773038
 20
8.6055374492
 30
0.0
 10
9.7354672148
 20
8.6089923665
 30
0.0
 10
9.7285085283
 20
8.6125236306
 30
0.0
 10
9.7221125163
 20
8.616125528
 30
0.0
 10
9.7162894422
 20
8.6197923586
 30
0.0
 10
9.7110485277
 20
8.6235184644
 30
0.0
 10
9.706398028
 20
8.6272984456
 30
0.0
 10
9.7023453628
 20
8.6311271566
 30
0.0
 10
9.6988971656
 20
8.6350000905
 30
0.0
 10
9.6960601422
 20
8.6389123394
 30
0.0
 10
9.6941836417
 20
8.6422512214
 30
0.0
 10
9.6930138703
 20
8.6449246628
 30
0.0
 10
9.6923056537
 20
8.6469054756
 30
0.0
 10
9.6917542898
 20
8.6488901884
 30
0.0
 10
9.6913601251
 20
8.6508779876
 30
0.0
 10
9.6911235402
 20
8.6528677276
 30
0.0
 10
9.6910709056
 20
8.654196513
 30
0.0
 10
9.691070909
 20
8.6548586897
 30
0.0
  0
SPLINE
  5
3DE
100
AcDbEntity
  8
0
100
AcDbSpline
 62
7
  6
CONTINUOUS
 70
0
 71
3
 72
41
 73
37
 74
0
 42
0.0000001
 43
0.0000001
 44
0.0000000001
 40
0.0
 40
0.0
 40
0.0
 40
0.0
 40
0.0071758425
 40
0.0146741453
 40
0.0225035656
 40
0.0306713257
 40
0.0391834036
 40
0.0480443729
 40
0.0572572157
 40
0.0668238661
 40
0.0767452117
 40
0.087021259
 40
0.0976512753
 40
0.1086336553
 40
0.1316452786
 40
0.1560326285
 40
0.1817628121
 40
0.2087958578
 40
0.2370856249
 40
0.2665805114
 40
0.2972240455
 40
0.3289554128
 40
0.3617098907
 40
0.3954192316
 40
0.4300120033
 40
0.4654138991
 40
0.5015480605
 40
0.5383353682
 40
0.5756947176
 40
0.6135432851
 40
0.6517967846
 40
0.6903697386
 40
0.7681261117
 40
0.8461161118
 40
0.923638923
 40
1.0
 40
1.0
 40
1.0
 40
1.0
 10
11.997922665
 20
8.5208840503
 30
0.0
 10
11.9971109609
 20
8.5201000043
 30
0.0
 10
11.995410711
 20
8.5185380537
 30
0.0
 10
11.9926989945
 20
8.5162623056
 30
0.0
 10
11.9897725931
 20
8.5140046172
 30
0.0
 10
11.9866334113
 20
8.5117664425
 30
0.0
 10
11.983283288
 20
8.5095489953
 30
0.0
 10
11.9797241492
 20
8.5073535799
 30
0.0
 10
11.9759581146
 20
8.5051814174
 30
0.0
 10
11.971987404
 20
8.5030338502
 30
0.0
 10
11.9678143918
 20
8.5009121375
 30
0.0
 10
11.963441567
 20
8.4988175326
 30
0.0
 10
11.9588715165
 20
8.4967513009
 30
0.0
 10
11.9524179867
 20
8.4939927547
 30
0.0
 10
11.9438705747
 20
8.490633503
 30
0.0
 10
11.9330271129
 20
8.4867949448
 30
0.0
 10
11.9214688797
 20
8.4830979238
 30
0.0
 10
11.9092235587
 20
8.4795513828
 30
0.0
 10
11.8963203469
 20
8.4761639224
 30
0.0
 10
11.8827901454
 20
8.4729437628
 30
0.0
 10
11.8686653935
 20
8.4698987153
 30
0.0
 10
11.8539799981
 20
8.4670361698
 30
0.0
 10
11.8387692357
 20
8.4643630731
 30
0.0
 10
11.8230696654
 20
8.4618859119
 30
0.0
 10
11.8069190403
 20
8.459610698
 30
0.0
 10
11.7903562147
 20
8.4575429442
 30
0.0
 10
11.773421045
 20
8.4556876607
 30
0.0
 10
11.7561542899
 20
8.4540493438
 30
0.0
 10
11.7385975076
 20
8.4526319622
 30
0.0
 10
11.7207929719
 20
8.4514389594
 30
0.0
 10
11.7027835141
 20
8.4504731989
 30
0.0
 10
11.6784918343
 20
8.4494891598
 30
0.0
 10
11.6479346878
 20
8.4488436868
 30
0.0
 10
11.6112452041
 20
8.4489983559
 30
0.0
 10
11.5747909194
 20
8.4500788603
 30
0.0
 10
11.5506238262
 20
8.4514234718
 30
0.0
 10
11.5386433969
 20
8.4522543174
 30
0.0
  0
SPLINE
  5
3DF
100
AcDbEntity
  8
0
100
AcDbSpline
 62
7
  6
CONTINUOUS
 70
0
 71
3
 72
23
 73
19
 74
0
 42
0.0000001
 43
0.0000001
 44
0.0000000001
 40
0.0
 40
0.0
 40
0.0
 40
0.0
 40
0.0616482102
 40
0.1233194434
 40
0.1850364728
 40
0.2468215621
 40
0.3086962116
 40
0.370680925
 40
0.4327950032
 40
0.4950563306
 40
0.5574811832
 40
0.6200840863
 40
0.6828775763
 40
0.7458723561
 40
0.8090769818
 40
0.8724965655
 40
0.9361390263
 40
1.0
 40
1.0
 40
1.0
 40
1.0
 10
11.2762583277
 20
5.9774005034
 30
0.0
 10
11.2738006972
 20
5.9750266157
 30
0.0
 10
11.2687557462
 20
5.9704092175
 30
0.0
 10
11.2608254913
 20
5.9638985044
 30
0.0
 10
11.2525508795
 20
5.9578181323
 30
0.0
 10
11.2439530392
 20
5.9521836902
 30
0.0
 10
11.2350535524
 20
5.9470093127
 30
0.0
 10
11.2258748824
 20
5.9423080194
 30
0.0
 10
11.2164401566
 20
5.9380916237
 30
0.0
 10
11.2067731448
 20
5.9343707355
 30
0.0
 10
11.1968981941
 20
5.9311547257
 30
0.0
 10
11.1868401913
 20
5.9284516497
 30
0.0
 10
11.1766244704
 20
5.9262682712
 30
0.0
 10
11.1662767378
 20
5.9246100723
 30
0.0
 10
11.1558231215
 20
5.9234812486
 30
0.0
 10
11.1452897004
 20
5.9228844991
 30
0.0
 10
11.1347035169
 20
5.9228214388
 30
0.0
 10
11.1276399616
 20
5.9231346699
 30
0.0
 10
11.1241088857
 20
5.9233795508
 30
0.0
  0
SPLINE
  5
3E0
100
AcDbEntity
  8
0
100
AcDbSpline
 62
7
  6
CONTINUOUS
 70
0
 71
3
 72
23
 73
19
 74
0
 42
0.0000001
 43
0.0000001
 44
0.0000000001
 40
0.0
 40
0.0
 40
0.0
 40
0.0
 40
0.0616482102
 40
0.1233194434
 40
0.1850364728
 40
0.2468215621
 40
0.3086962116
 40
0.370680925
 40
0.4327950032
 40
0.4950563306
 40
0.5574811832
 40
0.6200840863
 40
0.6828775763
 40
0.7458723561
 40
0.8090769818
 40
0.8724965655
 40
0.9361390263
 40
1.0
 40
1.0
 40
1.0
 40
1.0
 10
10.8541486816
 20
7.3048783343
 30
0.0
 10
10.8516910511
 20
7.3025044466
 30
0.0
 10
10.8466461001
 20
7.2978870484
 30
0.0
 10
10.8387158452
 20
7.2913763353
 30
0.0
 10
10.8304412334
 20
7.2852959632
 30
0.0
 10
10.8218433931
 20
7.2796615211
 30
0.0
 10
10.8129439063
 20
7.2744871436
 30
0.0
 10
10.8037652363
 20
7.2697858503
 30
0.0
 10
10.7943305105
 20
7.2655694546
 30
0.0
 10
10.7846634987
 20
7.2618485664
 30
0.0
 10
10.774788548
 20
7.2586325566
 30
0.0
 10
10.7647305452
 20
7.2559294806
 30
0.0
 10
10.7545148243
 20
7.2537461021
 30
0.0
 10
10.7441670917
 20
7.2520879032
 30
0.0
 10
10.7337134754
 20
7.2509590795
 30
0.0
 10
10.7231800543
 20
7.25036233
 30
0.0
 10
10.7125938708
 20
7.2502992697
 30
0.0
 10
10.7055303155
 20
7.2506125008
 30
0.0
 10
10.7019992396
 20
7.2508573817
 30
0.0
  0
ELLIPSE
  5
3E1
100
AcDbEntity
  8
0
100
AcDbEllipse
 62
7
  6
CONTINUOUS
 10
10.1281141962
 20
7.1100282869
 30
0.0
 11
0.1879032895
 21
-0.1216853831
 31
0.0
 40
0.9244097329
 41
0.0
 42
6.2831853072
  0
ELLIPSE
  5
3E2
100
AcDbEntity
  8
0
100
AcDbEllipse
 62
7
  6
CONTINUOUS
 10
11.1241088857
 20
7.946962282
 30
0.0
 11
-0.053095879
 21
0.2155295841
 31
0.0
 40
0.8757841375
 41
0.0
 42
6.2831853072
  0
ELLIPSE
  5
3E3
100
AcDbEntity
  8
0
100
AcDbEllipse
 62
7
  6
CONTINUOUS
 10
10.7019671421
 20
6.6780655237
 30
0.0
 11
0.2123866522
 21
-0.0660860982
 31
0.0
 40
0.8721856509
 41
0.0
 42
6.2831853072
  0
ENDSEC
  0
SECTION
  2
OBJECTS
  0
DICTIONARY
  5
C
100
AcDbDictionary
280
0
281
1
  3
ACAD_GROUP
350
D
  3
ACAD_MLINESTYLE
350
17
  3
ACAD_LAYOUT
350
1A
  3
ACAD_PLOTSETTINGS
350
19
  3
ACAD_PLOTSTYLENAME
350
E
  3
ACAD_IMAGE_DICT
350
       3E5
  3
ACAD_IMAGE_VARS
350
       3E6
  3
ACAD_TABLESTYLE
350
       3E7
  0
IMAGEDEF_REACTOR
  5
3E4
100
AcDbRasterImageDefReactor
 90
2
330
27F
  0
DICTIONARY
  5
D
102
{ACAD_REACTORS
330
C
102
}
100
AcDbDictionary
280
0
281
1
  0
ACDBDICTIONARYWDFLT
  5
E
102
{ACAD_REACTORS
330
C
102
}
100
AcDbDictionary
281
1
  3
Normal
350
F
100
AcDbDictionaryWithDefault
340
F
  0
DICTIONARY
  5
3E5
330
C
100
AcDbDictionary
281
1
  3
RPECLAN-CBF-T_assy_2_img_1
350
       3EA
  0
RASTERVARIABLES
  5
3E6
330
C
100
AcDbRasterVariables
 90
0
 70
0
 71
1
 72
5
  0
DICTIONARY
  5
17
102
{ACAD_REACTORS
330
C
102
}
100
AcDbDictionary
280
0
281
1
  3
Standard
350
18
  0
DICTIONARY
  5
3E7
330
C
100
AcDbDictionary
281
1
  3
Standard
350
       3EB
  3
Standard1
350
       3EC
  0
DICTIONARY
  5
19
102
{ACAD_REACTORS
330
C
102
}
100
AcDbDictionary
281
1
  0
DICTIONARY
  5
1A
102
{ACAD_REACTORS
330
C
102
}
100
AcDbDictionary
281
1
  3
Model
350
3E8
  3
Layout1
350
3E9
  0
ACDBPLACEHOLDER
  5
F
102
{ACAD_REACTORS
330
E
102
}
  0
MLINESTYLE
  5
18
102
{ACAD_REACTORS
330
17
102
}
100
AcDbMlineStyle
  2
STANDARD
 70
0
  3

 62
256
 51
90.0
 52
90.0
 71
2
 49
0.5
 62
256
  6
BYLAYER
 49
-0.5
 62
256
  6
BYLAYER
  0
LAYOUT
  5
3E8
102
{ACAD_REACTORS
330
1A
102
}
100
AcDbPlotSettings
  1

  2
none_device
  4
ANSI_C_(22.00_x_17.00_Inches)
  6

 40
0.0
 41
0.0
 42
0.0
 43
0.0
 44
558.8
 45
431.8
 46
0.0
 47
0.0
 48
0.0
 49
0.0
140
0.0
141
0.0
142
1.0
143
1.0
 70
1024
 72
0
 73
0
 74
0
  7

 75
0
147
1.0
148
0.0
149
0.0
100
AcDbLayout
  1
Model
 70
0
 71
0
 10
0.0
 20
0.0
 11
22.0
 21
17.0
 12
0.0
 22
0.0
 32
0.0
 14
0.0
 24
0.0
 34
0.0
 15
0.0
 25
0.0
 35
0.0
146
0.0
 13
0.0
 23
0.0
 33
0.0
 16
1.0
 26
0.0
 36
0.0
 17
0.0
 27
1.0
 37
0.0
 76
0
330
207
345
0
346
0
  0
LAYOUT
  5
3E9
102
{ACAD_REACTORS
330
1A
102
}
100
AcDbPlotSettings
  1

  2
none_device
  4
ANSI_C_(22.00_x_17.00_Inches)
  6

 40
0.0
 41
0.0
 42
0.0
 43
0.0
 44
558.8
 45
431.8
 46
0.0
 47
0.0
 48
0.0
 49
0.0
140
0.0
141
0.0
142
1.0
143
1.0
 70
0
 72
0
 73
0
 74
0
  7

 75
0
147
1.0
148
0.0
149
0.0
100
AcDbLayout
  1
Layout1
 70
0
 71
1
 10
0.0
 20
0.0
 11
22.0
 21
17.0
 12
0.0
 22
0.0
 32
0.0
 14
0.0
 24
0.0
 34
0.0
 15
0.0
 25
0.0
 35
0.0
146
0.0
 13
0.0
 23
0.0
 33
0.0
 16
1.0
 26
0.0
 36
0.0
 17
0.0
 27
1.0
 37
0.0
 76
0
330
208
345
0
346
0
  0
IMAGEDEF
  5
3EA
102
{ACAD_REACTORS
330
3E5
330
3E4
102
}
100
AcDbRasterImageDef
 90
0
  1
RPECLAN-CBF-T_assy_2_img_1.png
 10
369.0
 20
92.0
 11
0.0066666667
 21
0.0066666667
280
1
281
0
  0
TABLESTYLE
  5
3EB
102
{ACAD_REACTORS
330
3E7
330
282
330
283
102
}
330
3E7
100
AcDbTableStyle
  3
Standard
 70
0
 71
0
 40
0.06
 41
0.06
280
1
281
1
  7
Standard
140
0.18
170
1
 62
0
 63
7
283
0
  7
Standard
140
0.18
170
1
 62
0
 63
7
283
0
  7
Standard
140
0.18
170
1
 62
0
 63
7
283
0
  0
TABLESTYLE
  5
3EC
102
{ACAD_REACTORS
330
3E7
330
281
102
}
330
3E7
100
AcDbTableStyle
  3
Standard1
 70
1
 71
0
 40
0.06
 41
0.06
280
1
281
1
  7
Standard
140
0.18
170
1
 62
0
 63
7
283
0
  7
Standard
140
0.18
170
1
 62
0
 63
7
283
0
  7
Standard
140
0.18
170
1
 62
0
 63
7
283
0
  0
ENDSEC
  0
EOF
