999
DXF file: FSFDXAN-QMX_assy_2.dxf
999
Pro/ENGINEER 2014200 by Parametric Technology Corporation
  0
SECTION
  2
HEADER
  9
$ACADVER
  1
AC1021
  9
$DWGCODEPAGE
  3
ANSI_1252
  9
$EXTMAX
 10
22.0
 20
17.0
 30
0.0
  9
$EXTMIN
 10
0.0
 20
0.0
 30
0.0
  9
$LIMMIN
 10
0.0
 20
0.0
  9
$LIMMAX
 10
22.0
 20
17.0
  9
$VIEWCTR
 10
11.0
 20
8.5
  9
$VIEWSIZE
 40
17.0
  9
$CLAYER
  8
0
  9
$LTSCALE
 40
1.21
  9
$CELTYPE
  6
BYLAYER
  9
$DIMSCALE
 40
1.0
  9
$DIMASZ
 40
0.1875
  9
$DIMEXO
 40
0.0625
  9
$DIMDLI
 40
0.836
  9
$DIMEXE
 40
0.125
  9
$DIMCEN
 40
0.198
  9
$DIMLFAC
 40
1.0
  9
$DIMBLK
  1
_FILLED
  9
$DIMTXT
 40
0.1
  9
$DIMTOL
 70
0
  9
$DIMLIM
 70
0
  9
$DIMTFAC
 40
1.0
  9
$DIMGAP
 40
0.09
  9
$DIMDSEP
 70
46
  9
$AUNITS
 70
0
  9
$PDMODE
 70
3
  9
$PDSIZE
 40
0.3125
  9
$HANDSEED
  5
391
  9
$TILEMODE
 70
1
  9
$MEASUREMENT
 70
0
  9
$INSUNITS
 70
1
  0
ENDSEC
  0
SECTION
  2
CLASSES
  0
CLASS
  1
ACDBDICTIONARYWDFLT
  2
AcDbDictionaryWithDefault
  3
AutoCAD 2000
 90
0
 91
1
280
0
281
0
  0
CLASS
  1
ACDBPLACEHOLDER
  2
AcDbPlaceHolder
  3
AutoCAD 2000
 90
0
 91
1
280
0
281
0
  0
CLASS
  1
LAYOUT
  2
AcDbLayout
  3
AutoCAD 2000
 90
0
 91
0
280
0
281
0
  0
CLASS
  1
RASTERVARIABLES
  2
AcDbRasterVariables
  3
ISM
 90
0
 91
1
280
0
281
0
  0
CLASS
  1
IMAGEDEF
  2
AcDbRasterImageDef
  3
ISM
 90
0
 91
1
280
0
281
0
  0
CLASS
  1
IMAGEDEF_REACTOR
  2
AcDbRasterImageDefReactor
  3
ISM
 90
0
 91
1
280
0
281
0
  0
CLASS
  1
IMAGE
  2
AcDbRasterImage
  3
ISM
 90
127
 91
1
280
0
281
1
  0
CLASS
  1
TABLESTYLE
  2
AcDbTableStyle
  3
ObjectDBX Classes
 90
2047
 91
1
280
0
281
0
  0
CLASS
  1
ACAD_TABLE
  2
AcDbTable
  3
ObjectDBX Classes
 90
1025
 91
3
280
0
281
1
  0
ENDSEC
  0
SECTION
  2
TABLES
  0
TABLE
  2
VPORT
  5
8
100
AcDbSymbolTable
 70
2
  0
VPORT
  5
1F4
100
AcDbSymbolTableRecord
100
AcDbViewportTableRecord
  2
*ACTIVE
 70
0
 10
0.0
 20
0.0
 11
1.0
 21
1.0
 12
11.0
 22
8.5
 13
0.0
 23
0.0
 14
1.0
 24
1.0
 15
0.0
 25
0.0
 16
0.0
 26
0.0
 36
1.0
 17
0.0
 27
0.0
 37
0.0
 40
17.0
 41
1.2941176471
 42
50.0
 43
0.0
 44
0.0
 50
0.0
 51
0.0
 71
0
 72
100
 73
1
 74
1
 75
0
 76
0
 77
0
 78
0
  0
ENDTAB
  0
TABLE
  2
LTYPE
  5
5
100
AcDbSymbolTable
 70
6
  0
LTYPE
  5
14
100
AcDbSymbolTableRecord
100
AcDbLinetypeTableRecord
  2
BYBLOCK
 70
0
  3

 72
65
 73
0
 40
0.0
  0
LTYPE
  5
15
100
AcDbSymbolTableRecord
100
AcDbLinetypeTableRecord
  2
BYLAYER
 70
0
  3

 72
65
 73
0
 40
0.0
  0
LTYPE
  5
16
100
AcDbSymbolTableRecord
100
AcDbLinetypeTableRecord
  2
CONTINUOUS
 70
64
  3
Solid line
 72
65
 73
0
 40
0.0
  0
LTYPE
  5
1F5
100
AcDbSymbolTableRecord
100
AcDbLinetypeTableRecord
  2
CENTER
 70
64
  3
____ _ ____ _ ____ _ ____ _ ____ _ ____ _ ____
 72
65
 73
4
 40
0.6
 49
0.375
 74
0
 49
-0.075
 74
0
 49
0.075
 74
0
 49
-0.075
 74
0
  0
LTYPE
  5
1F6
100
AcDbSymbolTableRecord
100
AcDbLinetypeTableRecord
  2
HIDDEN
 70
64
  3
- - - - - - - - - - - - - - - - - - - -
 72
65
 73
2
 40
0.2
 49
0.1
 74
0
 49
-0.1
 74
0
  0
LTYPE
  5
1F7
100
AcDbSymbolTableRecord
100
AcDbLinetypeTableRecord
  2
PHANTOM
 70
64
  3
_____ _ _ _____ _ _ _____ _ _ _____
 72
65
 73
6
 40
0.8
 49
0.45
 74
0
 49
-0.05
 74
0
 49
0.1
 74
0
 49
-0.05
 74
0
 49
0.1
 74
0
 49
-0.05
 74
0
  0
LTYPE
  5
1F8
100
AcDbSymbolTableRecord
100
AcDbLinetypeTableRecord
  2
DOT
 70
64
  3
. . . . . . . . . . . . . . . . . . . .
 72
65
 73
2
 40
0.2
 49
0.1
 74
0
 49
-0.1
 74
0
  0
LTYPE
  5
1F9
100
AcDbSymbolTableRecord
100
AcDbLinetypeTableRecord
  2
DASHED
 70
64
  3
- - - - - - - - - - - - - - - - - - - -
 72
65
 73
2
 40
0.2
 49
0.1
 74
0
 49
-0.1
 74
0
  0
ENDTAB
  0
TABLE
  2
LAYER
  5
2
100
AcDbSymbolTable
 70
36
  0
LAYER
  5
10
100
AcDbSymbolTableRecord
100
AcDbLayerTableRecord
  2
0
 70
0
 62
7
  6
CONTINUOUS
370
-3
390
F
  0
LAYER
  5
1FA
100
AcDbSymbolTableRecord
100
AcDbLayerTableRecord
  2
DEFAULT_1
 70
0
 62
7
  6
CENTER
370
-3
390
F
  0
LAYER
  5
1FB
100
AcDbSymbolTableRecord
100
AcDbLayerTableRecord
  2
DEFAULT_2
 70
0
 62
8
  6
HIDDEN
370
-3
390
F
  0
LAYER
  5
1FC
100
AcDbSymbolTableRecord
100
AcDbLayerTableRecord
  2
DEFAULT_3
 70
0
 62
7
  6
PHANTOM
370
-3
390
F
  0
LAYER
  5
1FD
100
AcDbSymbolTableRecord
100
AcDbLayerTableRecord
  2
01___PRT_ALL_DTM_PLN
 70
0
 62
7
  6
CONTINUOUS
370
-3
390
F
  0
LAYER
  5
1FE
100
AcDbSymbolTableRecord
100
AcDbLayerTableRecord
  2
01___PRT_DEF_DTM_PLN
 70
0
 62
7
  6
CONTINUOUS
370
-3
390
F
  0
LAYER
  5
1FF
100
AcDbSymbolTableRecord
100
AcDbLayerTableRecord
  2
02___PRT_ALL_AXES
 70
0
 62
7
  6
CONTINUOUS
370
-3
390
F
  0
LAYER
  5
200
100
AcDbSymbolTableRecord
100
AcDbLayerTableRecord
  2
03___PRT_ALL_CURVES
 70
0
 62
7
  6
CONTINUOUS
370
-3
390
F
  0
LAYER
  5
201
100
AcDbSymbolTableRecord
100
AcDbLayerTableRecord
  2
04___PRT_ALL_DTM_PNT
 70
0
 62
7
  6
CONTINUOUS
370
-3
390
F
  0
LAYER
  5
202
100
AcDbSymbolTableRecord
100
AcDbLayerTableRecord
  2
05___PRT_ALL_DTM_CSYS
 70
0
 62
7
  6
CONTINUOUS
370
-3
390
F
  0
LAYER
  5
203
100
AcDbSymbolTableRecord
100
AcDbLayerTableRecord
  2
05___PRT_DEF_DTM_CSYS
 70
0
 62
7
  6
CONTINUOUS
370
-3
390
F
  0
LAYER
  5
204
100
AcDbSymbolTableRecord
100
AcDbLayerTableRecord
  2
06___PRT_ALL_SURFS
 70
0
 62
7
  6
CONTINUOUS
370
-3
390
F
  0
LAYER
  5
205
100
AcDbSymbolTableRecord
100
AcDbLayerTableRecord
  2
DATUM_PLANES
 70
0
 62
7
  6
CONTINUOUS
370
-3
390
F
  0
LAYER
  5
206
100
AcDbSymbolTableRecord
100
AcDbLayerTableRecord
  2
PORT_AREAS
 70
0
 62
7
  6
CONTINUOUS
370
-3
390
F
  0
LAYER
  5
207
100
AcDbSymbolTableRecord
100
AcDbLayerTableRecord
  2
SUNNBOMCOSMETIC
 70
0
 62
7
  6
CONTINUOUS
370
-3
390
F
  0
LAYER
  5
208
100
AcDbSymbolTableRecord
100
AcDbLayerTableRecord
  2
SUNNBOMSTAMPING
 70
0
 62
7
  6
CONTINUOUS
370
-3
390
F
  0
LAYER
  5
209
100
AcDbSymbolTableRecord
100
AcDbLayerTableRecord
  2
THREADS
 70
0
 62
7
  6
CONTINUOUS
370
-3
390
F
  0
ENDTAB
  0
TABLE
  2
STYLE
  5
3
100
AcDbSymbolTable
 70
1
  0
STYLE
  5
11
100
AcDbSymbolTableRecord
100
AcDbTextStyleTableRecord
  2
STANDARD
 70
0
 40
0.0
 41
0.8
 50
0.0
 71
0
 42
0.2
  3
txt
  4

  0
STYLE
  5
20A
100
AcDbSymbolTableRecord
100
AcDbTextStyleTableRecord
  2
TEXTSTYLE_1
 70
0
 40
0.0
 41
0.8
 50
0.0
 71
0
 42
0.2
  3
gdt
  4

  0
ENDTAB
  0
TABLE
  2
VIEW
  5
6
100
AcDbSymbolTable
 70
0
  0
ENDTAB
  0
TABLE
  2
UCS
  5
7
100
AcDbSymbolTable
 70
0
  0
ENDTAB
  0
TABLE
  2
APPID
  5
9
100
AcDbSymbolTable
 70
1
  0
APPID
  5
20B
100
AcDbSymbolTableRecord
100
AcDbRegAppTableRecord
  2
ACAD
 70
0
  0
ENDTAB
  0
TABLE
  2
BLOCK_RECORD
  5
1
100
AcDbSymbolTable
 70
0
  0
BLOCK_RECORD
  5
20C
100
AcDbSymbolTableRecord
100
AcDbBlockTableRecord
  2
*Model_Space
  0
BLOCK_RECORD
  5
20D
100
AcDbSymbolTableRecord
100
AcDbBlockTableRecord
  2
*Paper_Space
  0
BLOCK_RECORD
  5
20E
100
AcDbSymbolTableRecord
100
AcDbBlockTableRecord
  2
SUN_FIRST_THIRD_ANGLE_BL0
  0
BLOCK_RECORD
  5
20F
100
AcDbSymbolTableRecord
100
AcDbBlockTableRecord
  2
*T1
  0
BLOCK_RECORD
  5
210
100
AcDbSymbolTableRecord
100
AcDbBlockTableRecord
  2
*T2
  0
BLOCK_RECORD
  5
211
100
AcDbSymbolTableRecord
100
AcDbBlockTableRecord
  2
*T3
  0
ENDTAB
  0
TABLE
  2
DIMSTYLE
  5
A
100
AcDbSymbolTable
 70
1
100
AcDbDimStyleTable
 71
0
  0
DIMSTYLE
105
212
100
AcDbSymbolTableRecord
100
AcDbDimStyleTableRecord
  2
STANDARD
 70
0
  3

  4

 40
1.0
 41
0.1875
 42
0.0625
 43
0.38
 44
0.125
 45
0.0
 46
0.0
 47
0.001
 48
0.001
140
0.1
141
0.09
142
0.0
143
25.4
144
1.0
145
0.0
146
1.0
147
0.09
 71
0.0
 72
0.0
 73
1
 74
1
 75
0
 76
0
 77
0
 78
4
170
0
171
2
172
0
173
0
174
0
175
0
176
0
177
0
178
0
270
2
271
3
272
3
273
2
274
2
275
0
280
0
281
0
282
0
283
1
284
4
285
0
286
0
287
3
288
0
340
11
278
46
  0
ENDTAB
  0
ENDSEC
  0
SECTION
  2
BLOCKS
  0
BLOCK
  5
20
100
AcDbEntity
  8
0
100
AcDbBlockBegin
  2
*Model_Space
 70
0
 10
0.0
 20
0.0
 30
0.0
  3
*Model_Space
  1

  0
ENDBLK
  5
21
100
AcDbEntity
  8
0
100
AcDbBlockEnd
  0
BLOCK
  5
1C
100
AcDbEntity
  8
0
100
AcDbBlockBegin
  2
*Paper_Space
 70
0
 10
0.0
 20
0.0
 30
0.0
  3
*Paper_Space
  1

  0
ENDBLK
  5
1D
100
AcDbEntity
  8
0
100
AcDbBlockEnd
  0
BLOCK
  5
213
100
AcDbEntity
  8
0
100
AcDbBlockBegin
 62
2
  6
CONTINUOUS
  2
SUN_FIRST_THIRD_ANGLE_BL0
 70
64
 10
20.4816717061
 20
1.2289683772
  3
SUN_FIRST_THIRD_ANGLE_BL0
  1

  0
TEXT
  5
214
100
AcDbEntity
  8
0
100
AcDbText
 62
2
  6
CONTINUOUS
 10
19.4750896608
 20
1.4136269581
  7
STANDARD
 40
0.08
  1
FIRST ANGLE
 41
0.8
 72
0
100
AcDbText
  0
TEXT
  5
215
100
AcDbEntity
  8
0
100
AcDbText
 62
2
  6
CONTINUOUS
 10
20.7842537513
 20
1.4047600029
  7
STANDARD
 40
0.08
  1
THIRD ANGLE
 41
0.8
 72
0
100
AcDbText
  0
LINE
  5
216
100
AcDbEntity
  8
0
100
AcDbLine
 62
7
  6
CONTINUOUS
 10
19.4767170086
 20
1.1727031207
 11
19.6334271527
 21
1.1717972817
  0
LINE
  5
217
100
AcDbEntity
  8
0
100
AcDbLine
 62
7
  6
CONTINUOUS
 10
19.6596964832
 20
1.1717972817
 11
19.6950230232
 21
1.171593082
  0
LINE
  5
218
100
AcDbEntity
  8
0
100
AcDbLine
 62
7
  6
CONTINUOUS
 10
19.7194818561
 20
1.1708914427
 11
19.8852396156
 21
1.1699333054
  0
LINE
  5
219
100
AcDbEntity
  8
0
100
AcDbLine
 62
7
  6
CONTINUOUS
 10
19.4758111696
 20
1.2723454088
 11
19.88525039
 21
1.3511534004
  0
LINE
  5
21A
100
AcDbEntity
  8
0
100
AcDbLine
 62
7
  6
CONTINUOUS
 10
19.88525039
 20
1.3511534004
 11
19.8831348489
 21
0.9851647912
  0
LINE
  5
21B
100
AcDbEntity
  8
0
100
AcDbLine
 62
7
  6
CONTINUOUS
 10
19.8831348489
 20
0.9851647912
 11
19.4767170086
 21
1.0658141206
  0
LINE
  5
21C
100
AcDbEntity
  8
0
100
AcDbLine
 62
7
  6
CONTINUOUS
 10
19.4767170086
 20
1.0658141206
 11
19.4779056764
 21
1.2714536432
  0
CIRCLE
  5
21D
100
AcDbEntity
  8
0
100
AcDbCircle
 62
7
  6
CONTINUOUS
 10
20.2068232291
 20
1.1717972817
 40
0.175742101
  0
CIRCLE
  5
21E
100
AcDbEntity
  8
0
100
AcDbCircle
 62
7
  6
CONTINUOUS
 10
20.2068232291
 20
1.1717972817
 40
0.1005522074
  0
LINE
  5
21F
100
AcDbEntity
  8
0
100
AcDbLine
 62
7
  6
CONTINUOUS
 10
20.2077290681
 20
1.3756110529
 11
20.2071171714
 21
1.2379342989
  0
LINE
  5
220
100
AcDbEntity
  8
0
100
AcDbLine
 62
7
  6
CONTINUOUS
 10
20.2077290681
 20
1.2016899681
 11
20.2074674401
 21
1.1428236749
  0
LINE
  5
221
100
AcDbEntity
  8
0
100
AcDbLine
 62
7
  6
CONTINUOUS
 10
20.208634907
 20
1.101141841
 11
20.2080230104
 21
0.963465087
  0
LINE
  5
222
100
AcDbEntity
  8
0
100
AcDbLine
 62
7
  6
CONTINUOUS
 10
20.0066328138
 20
1.1745147986
 11
20.1443095678
 21
1.1739029019
  0
LINE
  5
223
100
AcDbEntity
  8
0
100
AcDbLine
 62
7
  6
CONTINUOUS
 10
20.1832714155
 20
1.1727031207
 11
20.238153505
 21
1.172335442
  0
LINE
  5
224
100
AcDbEntity
  8
0
100
AcDbLine
 62
7
  6
CONTINUOUS
 10
20.2756669918
 20
1.1717972817
 11
20.407916871
 21
1.1712095044
  0
CIRCLE
  5
225
100
AcDbEntity
  8
0
100
AcDbCircle
 62
7
  6
CONTINUOUS
 10
20.7509457401
 20
1.1693297793
 40
0.1722024983
  0
CIRCLE
  5
226
100
AcDbEntity
  8
0
100
AcDbCircle
 62
7
  6
CONTINUOUS
 10
20.7509457401
 20
1.1693297793
 40
0.0985164967
  0
LINE
  5
227
100
AcDbEntity
  8
0
100
AcDbLine
 62
7
  6
CONTINUOUS
 10
20.7169767782
 20
1.170462078
 11
20.7825395137
 21
1.1682766535
  0
LINE
  5
228
100
AcDbEntity
  8
0
100
AcDbLine
 62
7
  6
CONTINUOUS
 10
20.8177513651
 20
1.1693297793
 11
20.947965719
 21
1.1693297793
  0
LINE
  5
229
100
AcDbEntity
  8
0
100
AcDbLine
 62
7
  6
CONTINUOUS
 10
20.6875370113
 20
1.170462078
 11
20.5573226574
 21
1.170462078
  0
LINE
  5
22A
100
AcDbEntity
  8
0
100
AcDbLine
 62
7
  6
CONTINUOUS
 10
20.7486811426
 20
1.1987695462
 11
20.7486811426
 21
1.1432869085
  0
LINE
  5
22B
100
AcDbEntity
  8
0
100
AcDbLine
 62
7
  6
CONTINUOUS
 10
20.7498134414
 20
1.1059210505
 11
20.7498134414
 21
0.9757066966
  0
LINE
  5
22C
100
AcDbEntity
  8
0
100
AcDbLine
 62
7
  6
CONTINUOUS
 10
20.7486811426
 20
1.2338708068
 11
20.7486811426
 21
1.3640851607
  0
LINE
  5
22D
100
AcDbEntity
  8
0
100
AcDbLine
 62
7
  6
CONTINUOUS
 10
21.0702539817
 20
1.2701043662
 11
21.4790138229
 21
1.3448360823
  0
LINE
  5
22E
100
AcDbEntity
  8
0
100
AcDbLine
 62
7
  6
CONTINUOUS
 10
21.4790138229
 20
1.3448360823
 11
21.4790138229
 21
0.9779712941
  0
LINE
  5
22F
100
AcDbEntity
  8
0
100
AcDbLine
 62
7
  6
CONTINUOUS
 10
21.4790138229
 20
0.9779712941
 11
21.069121683
 21
1.0617614
  0
LINE
  5
230
100
AcDbEntity
  8
0
100
AcDbLine
 62
7
  6
CONTINUOUS
 10
21.0702539817
 20
1.2701043662
 11
21.069121683
 21
1.0617614
  0
LINE
  5
231
100
AcDbEntity
  8
0
100
AcDbLine
 62
7
  6
CONTINUOUS
 10
21.4790138229
 20
1.1693297793
 11
21.3159628059
 21
1.1693297793
  0
LINE
  5
232
100
AcDbEntity
  8
0
100
AcDbLine
 62
7
  6
CONTINUOUS
 10
21.2876553377
 20
1.1693297793
 11
21.2502894796
 21
1.1693297793
  0
LINE
  5
233
100
AcDbEntity
  8
0
100
AcDbLine
 62
7
  6
CONTINUOUS
 10
21.2208497126
 20
1.1659328831
 11
21.0713862804
 21
1.1659328831
  0
LINE
  5
234
100
AcDbEntity
  8
0
100
AcDbLine
 62
7
  6
CONTINUOUS
 10
20.4796138713
 20
1.5284908897
 11
20.4766766948
 21
0.9294458646
  0
ENDBLK
  5
235
100
AcDbEntity
  8
0
  6
BYBLOCK
 62
0
100
AcDbBlockEnd
  0
BLOCK
  5
236
100
AcDbEntity
  8
0
100
AcDbBlockBegin
  2
*T1
 70
1
 10
0.0
 20
0.0
  3
*T1
  1

  0
LINE
  5
237
100
AcDbEntity
  8
0
100
AcDbLine
 62
2
  6
CONTINUOUS
 10
9.275
 20
0.0
 11
-0.0
 21
0.0
  0
LINE
  5
238
100
AcDbEntity
  8
0
100
AcDbLine
 62
2
  6
CONTINUOUS
 10
9.275
 20
0.0
 11
9.275
 21
1.25
  0
LINE
  5
239
100
AcDbEntity
  8
0
100
AcDbLine
 62
2
  6
CONTINUOUS
 10
9.275
 20
0.625
 11
-0.0
 21
0.625
  0
LINE
  5
23A
100
AcDbEntity
  8
0
100
AcDbLine
 62
2
  6
CONTINUOUS
 10
9.275
 20
1.25
 11
-0.0
 21
1.25
  0
LINE
  5
23B
100
AcDbEntity
  8
0
100
AcDbLine
 62
2
  6
CONTINUOUS
 10
6.8
 20
0.0
 11
6.8
 21
1.25
  0
LINE
  5
23C
100
AcDbEntity
  8
0
100
AcDbLine
 62
2
  6
CONTINUOUS
 10
6.4
 20
0.0
 11
6.4
 21
0.625
  0
LINE
  5
23D
100
AcDbEntity
  8
0
100
AcDbLine
 62
2
  6
CONTINUOUS
 10
5.9
 20
0.0
 11
5.9
 21
0.625
  0
LINE
  5
23E
100
AcDbEntity
  8
0
100
AcDbLine
 62
2
  6
CONTINUOUS
 10
5.2
 20
0.0
 11
5.2
 21
0.625
  0
LINE
  5
23F
100
AcDbEntity
  8
0
100
AcDbLine
 62
2
  6
CONTINUOUS
 10
4.1
 20
0.0
 11
4.1
 21
1.25
  0
LINE
  5
240
100
AcDbEntity
  8
0
100
AcDbLine
 62
2
  6
CONTINUOUS
 10
-0.0
 20
0.0
 11
-0.0
 21
1.25
  0
MTEXT
  5
241
100
AcDbEntity
  8
0
100
AcDbMText
 62
2
  6
CONTINUOUS
  7
STANDARD
 71
2
 72
1
 10
6.6
 20
0.325
 30
0.0
 11
1.0
 21
0.0
 31
0.0
 44
0.9
  1
2
 40
0.125
 41
0.2
  0
MTEXT
  5
242
100
AcDbEntity
  8
0
100
AcDbMText
 62
2
  6
CONTINUOUS
  7
STANDARD
 71
2
 72
1
 10
6.15
 20
0.325
 30
0.0
 11
1.0
 21
0.0
 31
0.0
 44
0.9
  1
C
 40
0.125
 41
0.2
  0
MTEXT
  5
243
100
AcDbEntity
  8
0
100
AcDbMText
 62
2
  6
CONTINUOUS
  7
STANDARD
 71
2
 72
1
 10
5.55
 20
0.325
 30
0.0
 11
1.0
 21
0.0
 31
0.0
 44
0.9
  1
0.800
 40
0.125
 41
1.0
  0
MTEXT
  5
244
100
AcDbEntity
  8
0
100
AcDbMText
 62
2
  6
CONTINUOUS
  7
STANDARD
 71
2
 72
1
 10
4.65
 20
0.325
 30
0.0
 11
1.0
 21
0.0
 31
0.0
 44
0.9
  1
Aug-18-23
 40
0.125
 41
1.8
  0
MTEXT
  5
245
100
AcDbEntity
  8
0
100
AcDbMText
 62
2
  6
CONTINUOUS
  7
STANDARD
 71
2
 72
1
 10
2.05
 20
0.4625
 30
0.0
 11
1.0
 21
0.0
 31
0.0
 44
0.9
  1
Flow divider manifold assembly
 40
0.125
 41
6.0
  0
MTEXT
  5
246
100
AcDbEntity
  8
0
100
AcDbMText
 62
2
  6
CONTINUOUS
  7
STANDARD
 71
1
 72
1
 10
6.45
 20
0.5625
 30
0.0
 11
1.0
 21
0.0
 31
0.0
 44
0.9
  1
SHEET
 40
0.06
 41
0.48
  0
MTEXT
  5
247
100
AcDbEntity
  8
0
100
AcDbMText
 62
2
  6
CONTINUOUS
  7
STANDARD
 71
1
 72
1
 10
5.95
 20
0.5625
 30
0.0
 11
1.0
 21
0.0
 31
0.0
 44
0.9
  1
DWG SIZE
 40
0.06
 41
0.768
  0
MTEXT
  5
248
100
AcDbEntity
  8
0
100
AcDbMText
 62
2
  6
CONTINUOUS
  7
STANDARD
 71
1
 72
1
 10
5.25
 20
0.5625
 30
0.0
 11
1.0
 21
0.0
 31
0.0
 44
0.9
  1
SCALE
 40
0.06
 41
0.48
  0
MTEXT
  5
249
100
AcDbEntity
  8
0
100
AcDbMText
 62
2
  6
CONTINUOUS
  7
STANDARD
 71
1
 72
1
 10
4.15
 20
0.5625
 30
0.0
 11
1.0
 21
0.0
 31
0.0
 44
0.9
  1
DATE
 40
0.06
 41
0.384
  0
MTEXT
  5
24A
100
AcDbEntity
  8
0
100
AcDbMText
 62
2
  6
CONTINUOUS
  7
STANDARD
 71
1
 72
1
 10
0.05
 20
0.5625
 30
0.0
 11
1.0
 21
0.0
 31
0.0
 44
0.9
  1
DESCRIPTION
 40
0.06
 41
1.056
  0
MTEXT
  5
24B
100
AcDbEntity
  8
0
100
AcDbMText
 62
2
  6
CONTINUOUS
  7
STANDARD
 71
2
 72
1
 10
5.45
 20
1.0375
 30
0.0
 11
1.0
 21
0.0
 31
0.0
 44
0.9
  1
ALL DIMENSIONS IN INCH\PVIEWS ARE THIRD ANGLE
 40
0.12
 41
4.224
  0
MTEXT
  5
24C
100
AcDbEntity
  8
0
100
AcDbMText
 62
2
  6
CONTINUOUS
  7
STANDARD
 71
2
 72
1
 10
2.05
 20
0.95
 30
0.0
 11
1.0
 21
0.0
 31
0.0
 44
0.9
  1
FSFDXAN-QMX
 40
0.125
 41
2.2
  0
MTEXT
  5
24D
100
AcDbEntity
  8
0
100
AcDbMText
 62
2
  6
CONTINUOUS
  7
STANDARD
 71
1
 72
1
 10
0.05
 20
1.1875
 30
0.0
 11
1.0
 21
0.0
 31
0.0
 44
0.9
  1
MODEL
 40
0.06
 41
0.48
  0
ENDBLK
  5
24E
100
AcDbEntity
  8
0
  6
BYBLOCK
 62
0
100
AcDbBlockEnd
  0
BLOCK
  5
24F
100
AcDbEntity
  8
0
100
AcDbBlockBegin
  2
*T2
 70
1
 10
0.0
 20
0.0
  3
*T2
  1

  0
LINE
  5
250
100
AcDbEntity
  8
0
100
AcDbLine
 62
2
  6
CONTINUOUS
 10
0.0
 20
0.0
 11
9.055
 21
0.0
  0
LINE
  5
251
100
AcDbEntity
  8
0
100
AcDbLine
 62
2
  6
CONTINUOUS
 10
0.0
 20
0.0
 11
0.0
 21
-2.594
  0
LINE
  5
252
100
AcDbEntity
  8
0
100
AcDbLine
 62
2
  6
CONTINUOUS
 10
0.0
 20
-0.344
 11
9.055
 21
-0.344
  0
LINE
  5
253
100
AcDbEntity
  8
0
100
AcDbLine
 62
2
  6
CONTINUOUS
 10
0.0
 20
-0.594
 11
9.055
 21
-0.594
  0
LINE
  5
254
100
AcDbEntity
  8
0
100
AcDbLine
 62
2
  6
CONTINUOUS
 10
0.0
 20
-0.844
 11
9.055
 21
-0.844
  0
LINE
  5
255
100
AcDbEntity
  8
0
100
AcDbLine
 62
2
  6
CONTINUOUS
 10
0.0
 20
-1.094
 11
9.055
 21
-1.094
  0
LINE
  5
256
100
AcDbEntity
  8
0
100
AcDbLine
 62
2
  6
CONTINUOUS
 10
0.0
 20
-1.344
 11
9.055
 21
-1.344
  0
LINE
  5
257
100
AcDbEntity
  8
0
100
AcDbLine
 62
2
  6
CONTINUOUS
 10
0.0
 20
-1.594
 11
9.055
 21
-1.594
  0
LINE
  5
258
100
AcDbEntity
  8
0
100
AcDbLine
 62
2
  6
CONTINUOUS
 10
0.0
 20
-1.844
 11
9.055
 21
-1.844
  0
LINE
  5
259
100
AcDbEntity
  8
0
100
AcDbLine
 62
2
  6
CONTINUOUS
 10
0.0
 20
-2.094
 11
9.055
 21
-2.094
  0
LINE
  5
25A
100
AcDbEntity
  8
0
100
AcDbLine
 62
2
  6
CONTINUOUS
 10
0.0
 20
-2.344
 11
9.055
 21
-2.344
  0
LINE
  5
25B
100
AcDbEntity
  8
0
100
AcDbLine
 62
2
  6
CONTINUOUS
 10
0.0
 20
-2.594
 11
9.055
 21
-2.594
  0
LINE
  5
25C
100
AcDbEntity
  8
0
100
AcDbLine
 62
2
  6
CONTINUOUS
 10
3.055
 20
0.0
 11
3.055
 21
-2.594
  0
LINE
  5
25D
100
AcDbEntity
  8
0
100
AcDbLine
 62
2
  6
CONTINUOUS
 10
9.055
 20
0.0
 11
9.055
 21
-2.594
  0
MTEXT
  5
25E
100
AcDbEntity
  8
0
100
AcDbMText
 62
2
  6
CONTINUOUS
  7
STANDARD
 71
2
 72
1
 10
1.5275
 20
-0.0995
 30
0.0
 11
1.0
 21
0.0
 31
0.0
 44
0.9
  1
Technical Data
 40
0.145
 41
3.248
  0
MTEXT
  5
25F
100
AcDbEntity
  8
0
100
AcDbMText
 62
2
  6
CONTINUOUS
  7
STANDARD
 71
2
 72
1
 10
4.555
 20
-0.0995
 30
0.0
 11
1.0
 21
0.0
 31
0.0
 44
0.9
  1
U.S. Units
 40
0.145
 41
2.32
  0
MTEXT
  5
260
100
AcDbEntity
  8
0
100
AcDbMText
 62
2
  6
CONTINUOUS
  7
STANDARD
 71
2
 72
1
 10
7.555
 20
-0.0995
 30
0.0
 11
1.0
 21
0.0
 31
0.0
 44
0.9
  1
Metric Units
 40
0.145
 41
2.784
  0
MTEXT
  5
261
100
AcDbEntity
  8
0
100
AcDbMText
 62
2
  6
CONTINUOUS
  7
STANDARD
 71
2
 72
1
 10
1.5275
 20
-0.4065
 30
0.0
 11
1.0
 21
0.0
 31
0.0
 44
0.9
  1
Cavity
 40
0.125
 41
1.2
  0
MTEXT
  5
262
100
AcDbEntity
  8
0
100
AcDbMText
 62
2
  6
CONTINUOUS
  7
STANDARD
 71
2
 72
1
 10
6.055
 20
-0.4065
 30
0.0
 11
1.0
 21
0.0
 31
0.0
 44
0.9
  1
T-34A
 40
0.125
 41
1.0
  0
MTEXT
  5
263
100
AcDbEntity
  8
0
100
AcDbMText
 62
2
  6
CONTINUOUS
  7
STANDARD
 71
2
 72
1
 10
1.5275
 20
-0.6565
 30
0.0
 11
1.0
 21
0.0
 31
0.0
 44
0.9
  1
Body Features
 40
0.125
 41
2.6
  0
MTEXT
  5
264
100
AcDbEntity
  8
0
100
AcDbMText
 62
2
  6
CONTINUOUS
  7
STANDARD
 71
2
 72
1
 10
6.055
 20
-0.6565
 30
0.0
 11
1.0
 21
0.0
 31
0.0
 44
0.9
  1
Ninety degree
 40
0.125
 41
2.6
  0
MTEXT
  5
265
100
AcDbEntity
  8
0
100
AcDbMText
 62
2
  6
CONTINUOUS
  7
STANDARD
 71
2
 72
1
 10
1.5275
 20
-0.9065
 30
0.0
 11
1.0
 21
0.0
 31
0.0
 44
0.9
  1
Body Type
 40
0.125
 41
1.8
  0
MTEXT
  5
266
100
AcDbEntity
  8
0
100
AcDbMText
 62
2
  6
CONTINUOUS
  7
STANDARD
 71
2
 72
1
 10
6.055
 20
-0.9065
 30
0.0
 11
1.0
 21
0.0
 31
0.0
 44
0.9
  1
Line mount
 40
0.125
 41
2.0
  0
MTEXT
  5
267
100
AcDbEntity
  8
0
100
AcDbMText
 62
2
  6
CONTINUOUS
  7
STANDARD
 71
2
 72
1
 10
1.5275
 20
-1.1565
 30
0.0
 11
1.0
 21
0.0
 31
0.0
 44
0.9
  1
Interface
 40
0.125
 41
1.8
  0
MTEXT
  5
268
100
AcDbEntity
  8
0
100
AcDbMText
 62
2
  6
CONTINUOUS
  7
STANDARD
 71
2
 72
1
 10
6.055
 20
-1.1565
 30
0.0
 11
1.0
 21
0.0
 31
0.0
 44
0.9
  1
None
 40
0.125
 41
0.8
  0
MTEXT
  5
269
100
AcDbEntity
  8
0
100
AcDbMText
 62
2
  6
CONTINUOUS
  7
STANDARD
 71
2
 72
1
 10
1.5275
 20
-1.4065
 30
0.0
 11
1.0
 21
0.0
 31
0.0
 44
0.9
  1
Open Cavity Quantity
 40
0.125
 41
4.0
  0
MTEXT
  5
26A
100
AcDbEntity
  8
0
100
AcDbMText
 62
2
  6
CONTINUOUS
  7
STANDARD
 71
2
 72
1
 10
6.055
 20
-1.4065
 30
0.0
 11
1.0
 21
0.0
 31
0.0
 44
0.9
  1
1
 40
0.125
 41
0.2
  0
MTEXT
  5
26B
100
AcDbEntity
  8
0
100
AcDbMText
 62
2
  6
CONTINUOUS
  7
STANDARD
 71
2
 72
1
 10
1.5275
 20
-1.6565
 30
0.0
 11
1.0
 21
0.0
 31
0.0
 44
0.9
  1
Weight
 40
0.125
 41
1.2
  0
MTEXT
  5
26C
100
AcDbEntity
  8
0
100
AcDbMText
 62
2
  6
CONTINUOUS
  7
STANDARD
 71
2
 72
1
 10
4.555
 20
-1.6565
 30
0.0
 11
1.0
 21
0.0
 31
0.0
 44
0.9
  1
11.870 lb.
 40
0.125
 41
2.0
  0
MTEXT
  5
26D
100
AcDbEntity
  8
0
100
AcDbMText
 62
2
  6
CONTINUOUS
  7
STANDARD
 71
2
 72
1
 10
7.555
 20
-1.6565
 30
0.0
 11
1.0
 21
0.0
 31
0.0
 44
0.9
  1
5,384 kg.
 40
0.125
 41
1.8
  0
MTEXT
  5
26E
100
AcDbEntity
  8
0
100
AcDbMText
 62
2
  6
CONTINUOUS
  7
STANDARD
 71
2
 72
1
 10
1.5275
 20
-1.9065
 30
0.0
 11
1.0
 21
0.0
 31
0.0
 44
0.9
  1
Mounting Hole Diameter
 40
0.125
 41
4.4
  0
MTEXT
  5
26F
100
AcDbEntity
  8
0
100
AcDbMText
 62
2
  6
CONTINUOUS
  7
STANDARD
 71
2
 72
1
 10
4.555
 20
-1.9065
 30
0.0
 11
1.0
 21
0.0
 31
0.0
 44
0.9
  1
.42 in.
 40
0.125
 41
1.4
  0
MTEXT
  5
270
100
AcDbEntity
  8
0
100
AcDbMText
 62
2
  6
CONTINUOUS
  7
STANDARD
 71
2
 72
1
 10
7.555
 20
-1.9065
 30
0.0
 11
1.0
 21
0.0
 31
0.0
 44
0.9
  1
10,7 mm
 40
0.125
 41
1.4
  0
MTEXT
  5
271
100
AcDbEntity
  8
0
100
AcDbMText
 62
2
  6
CONTINUOUS
  7
STANDARD
 71
2
 72
1
 10
1.5275
 20
-2.1565
 30
0.0
 11
1.0
 21
0.0
 31
0.0
 44
0.9
  1
Mounting Hole Depth
 40
0.125
 41
3.8
  0
MTEXT
  5
272
100
AcDbEntity
  8
0
100
AcDbMText
 62
2
  6
CONTINUOUS
  7
STANDARD
 71
2
 72
1
 10
6.055
 20
-2.1565
 30
0.0
 11
1.0
 21
0.0
 31
0.0
 44
0.9
  1
Through
 40
0.125
 41
1.4
  0
MTEXT
  5
273
100
AcDbEntity
  8
0
100
AcDbMText
 62
2
  6
CONTINUOUS
  7
STANDARD
 71
2
 72
1
 10
1.5275
 20
-2.4065
 30
0.0
 11
1.0
 21
0.0
 31
0.0
 44
0.9
  1
Mounting Hole Quantity
 40
0.125
 41
4.4
  0
MTEXT
  5
274
100
AcDbEntity
  8
0
100
AcDbMText
 62
2
  6
CONTINUOUS
  7
STANDARD
 71
2
 72
1
 10
6.055
 20
-2.4065
 30
0.0
 11
1.0
 21
0.0
 31
0.0
 44
0.9
  1
2
 40
0.125
 41
0.2
  0
ENDBLK
  5
275
100
AcDbEntity
  8
0
  6
BYBLOCK
 62
0
100
AcDbBlockEnd
  0
BLOCK
  5
276
100
AcDbEntity
  8
0
100
AcDbBlockBegin
  2
*T3
 70
1
 10
0.0
 20
0.0
  3
*T3
  1

  0
LINE
  5
277
100
AcDbEntity
  8
0
100
AcDbLine
 62
2
  6
CONTINUOUS
 10
0.0
 20
0.0
 11
4.6
 21
0.0
  0
LINE
  5
278
100
AcDbEntity
  8
0
100
AcDbLine
 62
2
  6
CONTINUOUS
 10
0.0
 20
0.0
 11
0.0
 21
-0.93775
  0
LINE
  5
279
100
AcDbEntity
  8
0
100
AcDbLine
 62
2
  6
CONTINUOUS
 10
0.0
 20
-0.34375
 11
4.6
 21
-0.34375
  0
LINE
  5
27A
100
AcDbEntity
  8
0
100
AcDbLine
 62
2
  6
CONTINUOUS
 10
0.0
 20
-0.68775
 11
4.6
 21
-0.68775
  0
LINE
  5
27B
100
AcDbEntity
  8
0
100
AcDbLine
 62
2
  6
CONTINUOUS
 10
0.0
 20
-0.93775
 11
4.6
 21
-0.93775
  0
LINE
  5
27C
100
AcDbEntity
  8
0
100
AcDbLine
 62
2
  6
CONTINUOUS
 10
1.3
 20
-0.34375
 11
1.3
 21
-0.93775
  0
LINE
  5
27D
100
AcDbEntity
  8
0
100
AcDbLine
 62
2
  6
CONTINUOUS
 10
3.3
 20
-0.34375
 11
3.3
 21
-0.93775
  0
LINE
  5
27E
100
AcDbEntity
  8
0
100
AcDbLine
 62
2
  6
CONTINUOUS
 10
4.6
 20
0.0
 11
4.6
 21
-0.93775
  0
MTEXT
  5
27F
100
AcDbEntity
  8
0
100
AcDbMText
 62
2
  6
CONTINUOUS
  7
STANDARD
 71
2
 72
1
 10
2.3
 20
-0.099375
 30
0.0
 11
1.0
 21
0.0
 31
0.0
 44
0.9
  1
Port Headings
 40
0.145
 41
3.016
  0
MTEXT
  5
280
100
AcDbEntity
  8
0
100
AcDbMText
 62
2
  6
CONTINUOUS
  7
STANDARD
 71
2
 72
1
 10
0.65
 20
-0.44325
 30
0.0
 11
1.0
 21
0.0
 31
0.0
 44
0.9
  1
Product
 40
0.145
 41
1.624
  0
MTEXT
  5
281
100
AcDbEntity
  8
0
100
AcDbMText
 62
2
  6
CONTINUOUS
  7
STANDARD
 71
2
 72
1
 10
2.3
 20
-0.44325
 30
0.0
 11
1.0
 21
0.0
 31
0.0
 44
0.9
  1
Port
 40
0.145
 41
0.928
  0
MTEXT
  5
282
100
AcDbEntity
  8
0
100
AcDbMText
 62
2
  6
CONTINUOUS
  7
STANDARD
 71
2
 72
1
 10
3.95
 20
-0.44325
 30
0.0
 11
1.0
 21
0.0
 31
0.0
 44
0.9
  1
Size
 40
0.145
 41
0.928
  0
MTEXT
  5
283
100
AcDbEntity
  8
0
100
AcDbMText
 62
2
  6
CONTINUOUS
  7
STANDARD
 71
2
 72
1
 10
0.65
 20
-0.75025
 30
0.0
 11
1.0
 21
0.0
 31
0.0
 44
0.9
  1
QMX
 40
0.125
 41
0.6
  0
MTEXT
  5
284
100
AcDbEntity
  8
0
100
AcDbMText
 62
2
  6
CONTINUOUS
  7
STANDARD
 71
2
 72
1
 10
2.3
 20
-0.75025
 30
0.0
 11
1.0
 21
0.0
 31
0.0
 44
0.9
  1
All Ports
 40
0.125
 41
1.8
  0
MTEXT
  5
285
100
AcDbEntity
  8
0
100
AcDbMText
 62
2
  6
CONTINUOUS
  7
STANDARD
 71
2
 72
1
 10
3.95
 20
-0.75025
 30
0.0
 11
1.0
 21
0.0
 31
0.0
 44
0.9
  1
1" BSPP
 40
0.125
 41
1.4
  0
ENDBLK
  5
286
100
AcDbEntity
  8
0
  6
BYBLOCK
 62
0
100
AcDbBlockEnd
  0
ENDSEC
  0
SECTION
  2
ENTITIES
  0
IMAGE
  5
287
100
AcDbEntity
  8
0
100
AcDbRasterImage
 62
7
  6
CONTINUOUS
 10
19.2297077316
 20
0.3094318264
 30
0.0
 11
0.0066666667
 21
0.0
 31
0.0
 12
0.0
 22
0.0066666667
 32
0.0
 13
369.0
 23
92.0
340
       38E
 70
9
280
0
281
50
282
50
283
0
360
       388
 71
1
 91
2
 14
-0.5
 24
-0.5
 14
368.5
 24
91.5
  0
INSERT
  5
288
100
AcDbEntity
  8
0
100
AcDbBlockReference
 62
2
  6
CONTINUOUS
  2
SUN_FIRST_THIRD_ANGLE_BL0
 10
20.4816717061
 20
1.2289683772
  0
ACAD_TABLE
  5
289
100
AcDbEntity
  8
0
 62
2
  6
CONTINUOUS
100
AcDbBlockReference
  2
*T1
 10
12.42375
 20
0.30125
 30
0.0
100
AcDbTable
342
       390
343
20F
 11
1.0
 21
0.0
 31
0.0
 90
6
 91
4
 92
6
 93
20
 94
0
 95
0
 96
0
 70
1
 41
0.0
141
0.525
141
0.1
141
0.525
141
0.1
142
4.1
142
1.1
142
0.7
142
0.5
142
0.4
142
2.475
171
1
172
0
173
0
174
0
175
1
176
1
 91
33
178
0
145
0.0
301
CELL_VALUE
 90
4
  1
Flow divider manifold assembly
304
ACVALUE_END
170
2
140
0.125
171
1
172
0
173
0
174
0
175
1
176
1
 91
33
178
0
145
0.0
301
CELL_VALUE
 90
4
  1
Aug-18-23
304
ACVALUE_END
170
5
140
0.125
171
1
172
0
173
0
174
0
175
1
176
1
 91
33
178
0
145
0.0
301
CELL_VALUE
 90
4
  1
0.800
304
ACVALUE_END
170
5
140
0.125
171
1
172
0
173
0
174
0
175
1
176
1
 91
33
178
0
145
0.0
301
CELL_VALUE
 90
4
  1
C
304
ACVALUE_END
170
5
140
0.125
171
1
172
0
173
0
174
0
175
1
176
1
 91
33
178
0
145
0.0
301
CELL_VALUE
 90
4
  1
2
304
ACVALUE_END
170
5
140
0.125
171
1
172
0
173
0
174
0
175
1
176
1
 91
33
178
0
145
0.0
301
CELL_VALUE
 90
4
  1
 
304
ACVALUE_END
170
1
140
0.125
171
1
172
0
173
0
174
0
175
1
176
1
 91
33
178
0
145
0.0
301
CELL_VALUE
 90
4
  1
DESCRIPTION
304
ACVALUE_END
170
1
140
0.06
171
1
172
0
173
0
174
0
175
1
176
1
 91
33
178
0
145
0.0
301
CELL_VALUE
 90
4
  1
DATE
304
ACVALUE_END
170
1
140
0.06
171
1
172
0
173
0
174
0
175
1
176
1
 91
33
178
0
145
0.0
301
CELL_VALUE
 90
4
  1
SCALE
304
ACVALUE_END
170
1
140
0.06
171
1
172
0
173
0
174
0
175
1
176
1
 91
33
178
0
145
0.0
301
CELL_VALUE
 90
4
  1
DWG SIZE
304
ACVALUE_END
170
1
140
0.06
171
1
172
0
173
0
174
0
175
1
176
1
 91
33
178
0
145
0.0
301
CELL_VALUE
 90
4
  1
SHEET
304
ACVALUE_END
170
1
140
0.06
171
1
172
0
173
0
174
0
175
1
176
1
 91
33
178
0
145
0.0
301
CELL_VALUE
 90
4
  1
 
304
ACVALUE_END
170
1
140
0.125
171
1
172
0
173
0
174
0
175
1
176
1
 91
33
178
0
145
0.0
301
CELL_VALUE
 90
4
  1
FSFDXAN-QMX
304
ACVALUE_END
170
5
140
0.125
171
1
172
0
173
0
174
0
175
4
176
1
 91
33
178
0
145
0.0
301
CELL_VALUE
 90
4
  1
ALL DIMENSIONS IN INCH\PVIEWS ARE THIRD ANGLE
304
ACVALUE_END
170
5
140
0.12
171
1
172
0
173
1
174
0
175
1
176
1
 91
1
178
0
145
0.0
170
1
171
1
172
0
173
1
174
0
175
1
176
1
 91
1
178
0
145
0.0
170
1
171
1
172
0
173
1
174
0
175
1
176
1
 91
1
178
0
145
0.0
170
5
171
1
172
0
173
0
174
0
175
1
176
1
 91
33
178
0
145
0.0
301
CELL_VALUE
 90
4
  1
 
304
ACVALUE_END
170
1
140
0.125
171
1
172
0
173
0
174
0
175
1
176
1
 91
33
178
0
145
0.0
301
CELL_VALUE
 90
4
  1
MODEL
304
ACVALUE_END
170
1
140
0.06
171
1
172
0
173
0
174
0
175
1
176
1
 91
33
178
0
145
0.0
301
CELL_VALUE
 90
4
  1
 
304
ACVALUE_END
170
1
140
0.125
171
1
172
0
173
0
174
0
175
1
176
1
 91
33
178
0
145
0.0
301
CELL_VALUE
 90
4
  1
 
304
ACVALUE_END
170
1
140
0.125
171
1
172
0
173
0
174
0
175
1
176
1
 91
33
178
0
145
0.0
301
CELL_VALUE
 90
4
  1
 
304
ACVALUE_END
170
1
140
0.125
171
1
172
0
173
0
174
0
175
1
176
1
 91
33
178
0
145
0.0
301
CELL_VALUE
 90
4
  1
 
304
ACVALUE_END
170
1
140
0.125
171
1
172
0
173
0
174
0
175
1
176
1
 91
33
178
0
145
0.0
301
CELL_VALUE
 90
4
  1
 
304
ACVALUE_END
170
1
140
0.125
  0
ACAD_TABLE
  5
28A
100
AcDbEntity
  8
0
 62
2
  6
CONTINUOUS
100
AcDbBlockReference
  2
*T2
 10
12.4237499994
 20
16.47875
 30
0.0
100
AcDbTable
342
       38F
343
210
 11
1.0
 21
0.0
 31
0.0
 90
22
 91
10
 92
3
 93
16
 94
0
 95
0
 96
0
 41
0.028
141
0.344
141
0.25
141
0.25
141
0.25
141
0.25
141
0.25
141
0.25
141
0.25
141
0.25
141
0.25
142
3.055
142
3.0
142
3.0
171
1
172
0
173
0
174
0
175
1
176
1
 91
33
178
0
145
0.0
301
CELL_VALUE
 90
4
  1
Technical Data
304
ACVALUE_END
170
5
140
0.145
171
1
172
0
173
0
174
0
175
1
176
1
 91
33
178
0
145
0.0
301
CELL_VALUE
 90
4
  1
U.S. Units
304
ACVALUE_END
170
5
140
0.145
171
1
172
0
173
0
174
0
175
1
176
1
 91
33
178
0
145
0.0
301
CELL_VALUE
 90
4
  1
Metric Units
304
ACVALUE_END
170
5
140
0.145
171
1
172
0
173
0
174
0
175
1
176
1
 91
33
178
0
145
0.0
301
CELL_VALUE
 90
4
  1
Cavity
304
ACVALUE_END
170
5
140
0.125
171
1
172
0
173
0
174
0
175
2
176
1
 91
33
178
0
145
0.0
301
CELL_VALUE
 90
4
  1
T-34A
304
ACVALUE_END
170
5
140
0.125
171
1
172
0
173
1
174
0
175
1
176
1
 91
1
178
0
145
0.0
170
1
171
1
172
0
173
0
174
0
175
1
176
1
 91
33
178
0
145
0.0
301
CELL_VALUE
 90
4
  1
Body Features
304
ACVALUE_END
170
5
140
0.125
171
1
172
0
173
0
174
0
175
2
176
1
 91
33
178
0
145
0.0
301
CELL_VALUE
 90
4
  1
Ninety degree
304
ACVALUE_END
170
5
140
0.125
171
1
172
0
173
1
174
0
175
1
176
1
 91
1
178
0
145
0.0
170
1
171
1
172
0
173
0
174
0
175
1
176
1
 91
33
178
0
145
0.0
301
CELL_VALUE
 90
4
  1
Body Type
304
ACVALUE_END
170
5
140
0.125
171
1
172
0
173
0
174
0
175
2
176
1
 91
33
178
0
145
0.0
301
CELL_VALUE
 90
4
  1
Line mount
304
ACVALUE_END
170
5
140
0.125
171
1
172
0
173
1
174
0
175
1
176
1
 91
1
178
0
145
0.0
170
1
171
1
172
0
173
0
174
0
175
1
176
1
 91
33
178
0
145
0.0
301
CELL_VALUE
 90
4
  1
Interface
304
ACVALUE_END
170
5
140
0.125
171
1
172
0
173
0
174
0
175
2
176
1
 91
33
178
0
145
0.0
301
CELL_VALUE
 90
4
  1
None
304
ACVALUE_END
170
5
140
0.125
171
1
172
0
173
1
174
0
175
1
176
1
 91
1
178
0
145
0.0
170
1
171
1
172
0
173
0
174
0
175
1
176
1
 91
33
178
0
145
0.0
301
CELL_VALUE
 90
4
  1
Open Cavity Quantity
304
ACVALUE_END
170
5
140
0.125
171
1
172
0
173
0
174
0
175
2
176
1
 91
33
178
0
145
0.0
301
CELL_VALUE
 90
4
  1
1
304
ACVALUE_END
170
5
140
0.125
171
1
172
0
173
1
174
0
175
1
176
1
 91
1
178
0
145
0.0
170
1
171
1
172
0
173
0
174
0
175
1
176
1
 91
33
178
0
145
0.0
301
CELL_VALUE
 90
4
  1
Weight
304
ACVALUE_END
170
5
140
0.125
171
1
172
0
173
0
174
0
175
1
176
1
 91
33
178
0
145
0.0
301
CELL_VALUE
 90
4
  1
11.870 lb.
304
ACVALUE_END
170
5
140
0.125
171
1
172
0
173
0
174
0
175
1
176
1
 91
33
178
0
145
0.0
301
CELL_VALUE
 90
4
  1
5,384 kg.
304
ACVALUE_END
170
5
140
0.125
171
1
172
0
173
0
174
0
175
1
176
1
 91
33
178
0
145
0.0
301
CELL_VALUE
 90
4
  1
Mounting Hole Diameter
304
ACVALUE_END
170
5
140
0.125
171
1
172
0
173
0
174
0
175
1
176
1
 91
33
178
0
145
0.0
301
CELL_VALUE
 90
4
  1
.42 in.
304
ACVALUE_END
170
5
140
0.125
171
1
172
0
173
0
174
0
175
1
176
1
 91
33
178
0
145
0.0
301
CELL_VALUE
 90
4
  1
10,7 mm
304
ACVALUE_END
170
5
140
0.125
171
1
172
0
173
0
174
0
175
1
176
1
 91
33
178
0
145
0.0
301
CELL_VALUE
 90
4
  1
Mounting Hole Depth
304
ACVALUE_END
170
5
140
0.125
171
1
172
0
173
0
174
0
175
2
176
1
 91
33
178
0
145
0.0
301
CELL_VALUE
 90
4
  1
Through
304
ACVALUE_END
170
5
140
0.125
171
1
172
0
173
1
174
0
175
1
176
1
 91
1
178
0
145
0.0
170
1
171
1
172
0
173
0
174
0
175
1
176
1
 91
33
178
0
145
0.0
301
CELL_VALUE
 90
4
  1
Mounting Hole Quantity
304
ACVALUE_END
170
5
140
0.125
171
1
172
0
173
0
174
0
175
2
176
1
 91
33
178
0
145
0.0
301
CELL_VALUE
 90
4
  1
2
304
ACVALUE_END
170
5
140
0.125
171
1
172
0
173
1
174
0
175
1
176
1
 91
1
178
0
145
0.0
170
1
  0
ACAD_TABLE
  5
28B
100
AcDbEntity
  8
0
 62
2
  6
CONTINUOUS
100
AcDbBlockReference
  2
*T3
 10
0.52125
 20
1.459
 30
0.0
100
AcDbTable
342
       38F
343
211
 11
1.0
 21
0.0
 31
0.0
 90
22
 91
3
 92
3
 93
16
 94
0
 95
0
 96
0
 41
0.05
141
0.34375
141
0.344
141
0.25
142
1.3
142
2.0
142
1.3
171
1
172
0
173
0
174
0
175
3
176
1
 91
33
178
0
145
0.0
301
CELL_VALUE
 90
4
  1
Port Headings
304
ACVALUE_END
170
5
140
0.145
171
1
172
0
173
1
174
0
175
1
176
1
 91
1
178
0
145
0.0
170
1
171
1
172
0
173
1
174
0
175
1
176
1
 91
1
178
0
145
0.0
170
1
171
1
172
0
173
0
174
0
175
1
176
1
 91
33
178
0
145
0.0
301
CELL_VALUE
 90
4
  1
Product
304
ACVALUE_END
170
5
140
0.145
171
1
172
0
173
0
174
0
175
1
176
1
 91
33
178
0
145
0.0
301
CELL_VALUE
 90
4
  1
Port
304
ACVALUE_END
170
5
140
0.145
171
1
172
0
173
0
174
0
175
1
176
1
 91
33
178
0
145
0.0
301
CELL_VALUE
 90
4
  1
Size
304
ACVALUE_END
170
5
140
0.145
171
1
172
0
173
0
174
0
175
1
176
1
 91
33
178
0
145
0.0
301
CELL_VALUE
 90
4
  1
QMX
304
ACVALUE_END
170
5
140
0.125
171
1
172
0
173
0
174
0
175
1
176
1
 91
33
178
0
145
0.0
301
CELL_VALUE
 90
4
  1
All Ports
304
ACVALUE_END
170
5
140
0.125
171
1
172
0
173
0
174
0
175
1
176
1
 91
33
178
0
145
0.0
301
CELL_VALUE
 90
4
  1
1" BSPP
304
ACVALUE_END
170
5
140
0.125
  0
MTEXT
  5
28C
100
AcDbEntity
  8
0
100
AcDbMText
 62
2
  6
CONTINUOUS
  7
STANDARD
 71
1
 72
1
 10
0.52125
 20
5.75995
 30
0.0
 11
1.0
 21
0.0
 31
0.0
 44
0.6
  3
Notes\P \P1. Important: Carefully consider\P   the maximum system pressure. The\P   pressure rating of the manifold is\P   dependent on the manifold material,\P   with the port type/size a secondary\P   consideration. Manifolds\P   constructed of alu
  3
minum are not\P   rated for pressures higher than\P   3000 psi (210 bar), regardless of\P   the port type/size specified.\P2. This drawing is for reference\P   only. It is generated by an\P   automated process and does not fall\P   under Sun's docume
  1
nt control\P   process.
 40
0.1
 41
3.04
  0
LINE
  5
28D
100
AcDbEntity
  8
0
100
AcDbLine
 62
7
  6
CONTINUOUS
 10
0.30125
 20
0.30125
 11
0.30125
 21
16.69875
  0
LINE
  5
28E
100
AcDbEntity
  8
0
100
AcDbLine
 62
7
  6
CONTINUOUS
 10
0.30125
 20
0.30125
 11
21.69875
 21
0.30125
  0
LINE
  5
28F
100
AcDbEntity
  8
0
100
AcDbLine
 62
7
  6
CONTINUOUS
 10
0.30125
 20
16.69875
 11
21.69875
 21
16.69875
  0
LINE
  5
290
100
AcDbEntity
  8
0
100
AcDbLine
 62
7
  6
CONTINUOUS
 10
21.69875
 20
0.30125
 11
21.69875
 21
16.69875
  0
LINE
  5
291
100
AcDbEntity
  8
0
100
AcDbLine
 62
7
  6
CONTINUOUS
 10
10.4093343652
 20
4.8442404283
 11
10.4281390241
 21
4.8349512868
  0
LINE
  5
292
100
AcDbEntity
  8
0
100
AcDbLine
 62
7
  6
CONTINUOUS
 10
10.3585266028
 20
12.2543649792
 11
9.3232512768
 21
11.2543657452
  0
LINE
  5
293
100
AcDbEntity
  8
0
100
AcDbLine
 62
7
  6
CONTINUOUS
 10
9.3232512768
 20
5.3622178557
 11
11.6414733972
 21
5.2014486056
  0
LINE
  5
294
100
AcDbEntity
  8
0
100
AcDbLine
 62
7
  6
CONTINUOUS
 10
9.3232512768
 20
11.2543657452
 11
9.3232512768
 21
5.3622178557
  0
LINE
  5
295
100
AcDbEntity
  8
0
100
AcDbLine
 62
7
  6
CONTINUOUS
 10
12.6767487232
 20
12.0935957291
 11
11.6414733972
 21
11.0935964951
  0
LINE
  5
296
100
AcDbEntity
  8
0
100
AcDbLine
 62
7
  6
CONTINUOUS
 10
10.2814728684
 20
5.2957649626
 11
10.2814728684
 21
5.0082918033
  0
LINE
  5
297
100
AcDbEntity
  8
0
100
AcDbLine
 62
7
  6
CONTINUOUS
 10
10.426
 20
6.8740142666
 11
10.426
 21
6.6576766422
  0
LINE
  5
298
100
AcDbEntity
  8
0
100
AcDbLine
 62
7
  6
CONTINUOUS
 10
10.4628158521
 20
5.283188784
 11
10.4628158521
 21
4.8331282314
  0
LINE
  5
299
100
AcDbEntity
  8
0
100
AcDbLine
 62
7
  6
CONTINUOUS
 10
10.493376362
 20
5.2810694054
 11
10.493376362
 21
4.8252185994
  0
LINE
  5
29A
100
AcDbEntity
  8
0
100
AcDbLine
 62
7
  6
CONTINUOUS
 10
11.1701570725
 20
5.2341345038
 11
11.1701570725
 21
4.7782836978
  0
LINE
  5
29B
100
AcDbEntity
  8
0
100
AcDbLine
 62
7
  6
CONTINUOUS
 10
11.2119034936
 20
5.2312393796
 11
11.2119034936
 21
4.781178827
  0
LINE
  5
29C
100
AcDbEntity
  8
0
100
AcDbLine
 62
4
  6
CONTINUOUS
 10
11.699655899
 20
8.8192106669
 11
11.6830914941
 21
8.8032106796
  0
LINE
  5
29D
100
AcDbEntity
  8
0
100
AcDbLine
 62
4
  6
CONTINUOUS
 10
11.6934442472
 20
8.6895721614
 11
11.6893031459
 21
8.6855721645
  0
LINE
  5
29E
100
AcDbEntity
  8
0
100
AcDbLine
 62
4
  6
CONTINUOUS
 10
12.0653446995
 20
8.0046067923
 11
12.0558793256
 21
8.0131265892
  0
LINE
  5
29F
100
AcDbEntity
  8
0
100
AcDbLine
 62
7
  6
CONTINUOUS
 10
11.6414733972
 20
5.2014486056
 11
11.6414733972
 21
11.0935964951
  0
LINE
  5
2A0
100
AcDbEntity
  8
0
100
AcDbLine
 62
4
  6
CONTINUOUS
 10
11.6830914941
 20
8.7001785901
 11
11.6830914941
 21
8.7207850036
  0
LINE
  5
2A1
100
AcDbEntity
  8
0
100
AcDbLine
 62
4
  6
CONTINUOUS
 10
11.6851620447
 20
6.4027596613
 11
11.6851620447
 21
6.279121151
  0
LINE
  5
2A2
100
AcDbEntity
  8
0
100
AcDbLine
 62
7
  6
CONTINUOUS
 10
11.7073412203
 20
5.2650720409
 11
11.7073412203
 21
4.9094074972
  0
LINE
  5
2A3
100
AcDbEntity
  8
0
100
AcDbLine
 62
7
  6
CONTINUOUS
 10
11.7185271316
 20
5.2758768021
 11
11.7185271316
 21
4.9202122585
  0
LINE
  5
2A4
100
AcDbEntity
  8
0
100
AcDbLine
 62
4
  6
CONTINUOUS
 10
11.6975853484
 20
8.7863010409
 11
11.699655899
 21
8.8192106669
  0
LINE
  5
2A5
100
AcDbEntity
  8
0
100
AcDbLine
 62
4
  6
CONTINUOUS
 10
11.6830914941
 20
8.7207850036
 11
11.6851620447
 21
8.7330882161
  0
LINE
  5
2A6
100
AcDbEntity
  8
0
100
AcDbLine
 62
4
  6
CONTINUOUS
 10
11.6934442472
 20
8.7616946269
 11
11.6975853484
 21
8.7863010409
  0
LINE
  5
2A7
100
AcDbEntity
  8
0
100
AcDbLine
 62
4
  6
CONTINUOUS
 10
11.699655899
 20
8.7161785775
 11
11.6975853484
 21
8.7038753649
  0
LINE
  5
2A8
100
AcDbEntity
  8
0
100
AcDbLine
 62
4
  6
CONTINUOUS
 10
11.6851620447
 20
8.7330882161
 11
11.6934442472
 21
8.7616946269
  0
LINE
  5
2A9
100
AcDbEntity
  8
0
100
AcDbLine
 62
4
  6
CONTINUOUS
 10
11.6975853484
 20
8.7038753649
 11
11.6934442472
 21
8.6895721614
  0
LINE
  5
2AA
100
AcDbEntity
  8
0
100
AcDbLine
 62
4
  6
CONTINUOUS
 10
12.2623427993
 20
8.2125550024
 11
12.2528774247
 21
8.2210747971
  0
LINE
  5
2AB
100
AcDbEntity
  8
0
100
AcDbLine
 62
4
  6
CONTINUOUS
 10
11.6893031459
 20
8.6855721645
 11
11.6851620447
 21
8.6918753744
  0
LINE
  5
2AC
100
AcDbEntity
  8
0
100
AcDbLine
 62
4
  6
CONTINUOUS
 10
12.1821829092
 20
7.9443699259
 11
12.1733091201
 21
7.9622924716
  0
LINE
  5
2AD
100
AcDbEntity
  8
0
100
AcDbLine
 62
4
  6
CONTINUOUS
 10
11.6851620447
 20
8.6918753744
 11
11.6830914941
 21
8.7001785901
  0
LINE
  5
2AE
100
AcDbEntity
  8
0
100
AcDbLine
 62
4
  6
CONTINUOUS
 10
12.0265958185
 20
7.5284823089
 11
12.0265958185
 21
7.5516645301
  0
LINE
  5
2AF
100
AcDbEntity
  8
0
100
AcDbLine
 62
4
  6
CONTINUOUS
 10
12.0390191224
 20
7.5173000785
 11
12.0390191224
 21
7.5404822997
  0
LINE
  5
2B0
100
AcDbEntity
  8
0
100
AcDbLine
 62
4
  6
CONTINUOUS
 10
12.0597246289
 20
7.5373000632
 11
12.0597246289
 21
7.5836645056
  0
LINE
  5
2B1
100
AcDbEntity
  8
0
100
AcDbLine
 62
4
  6
CONTINUOUS
 10
12.0680068315
 20
7.5916644995
 11
12.0680068315
 21
7.5453000571
  0
LINE
  5
2B2
100
AcDbEntity
  8
0
100
AcDbLine
 62
4
  6
CONTINUOUS
 10
12.0762890341
 20
7.5996644934
 11
12.0762890341
 21
7.5069356085
  0
LINE
  5
2B3
100
AcDbEntity
  8
0
100
AcDbLine
 62
4
  6
CONTINUOUS
 10
12.083092268
 20
8.0791532256
 11
12.083092268
 21
7.9864243408
  0
LINE
  5
2B4
100
AcDbEntity
  8
0
100
AcDbLine
 62
4
  6
CONTINUOUS
 10
12.0845712368
 20
7.6076644872
 11
12.0845712368
 21
7.5613000448
  0
LINE
  5
2B5
100
AcDbEntity
  8
0
100
AcDbLine
 62
4
  6
CONTINUOUS
 10
12.0931492374
 20
8.0093856105
 11
12.0931492374
 21
8.0756205285
  0
LINE
  5
2B6
100
AcDbEntity
  8
0
100
AcDbLine
 62
4
  6
CONTINUOUS
 10
12.0969945407
 20
7.5733000356
 11
12.0969945407
 21
7.619664478
  0
LINE
  5
2B7
100
AcDbEntity
  8
0
100
AcDbLine
 62
4
  6
CONTINUOUS
 10
12.1052767433
 20
7.5813000295
 11
12.1052767433
 21
7.6276644719
  0
LINE
  5
2B8
100
AcDbEntity
  8
0
100
AcDbLine
 62
4
  6
CONTINUOUS
 10
12.1055725413
 20
8.1008675034
 11
12.1055725413
 21
8.0081386186
  0
LINE
  5
2B9
100
AcDbEntity
  8
0
100
AcDbLine
 62
4
  6
CONTINUOUS
 10
12.1126715687
 20
8.0282427357
 11
12.1126715687
 21
8.0944776536
  0
LINE
  5
2BA
100
AcDbEntity
  8
0
100
AcDbLine
 62
4
  6
CONTINUOUS
 10
12.1177000472
 20
7.6396644627
 11
12.1177000472
 21
7.6087548344
  0
LINE
  5
2BB
100
AcDbEntity
  8
0
100
AcDbLine
 62
4
  6
CONTINUOUS
 10
12.1250948726
 20
8.1064776444
 11
12.1250948726
 21
8.0402427265
  0
LINE
  5
2BC
100
AcDbEntity
  8
0
100
AcDbLine
 62
4
  6
CONTINUOUS
 10
11.6851620447
 20
6.279121151
 11
11.699655899
 21
6.3858500227
  0
LINE
  5
2BD
100
AcDbEntity
  8
0
100
AcDbLine
 62
4
  6
CONTINUOUS
 10
12.1830702889
 20
8.1757245838
 11
12.1724217418
 21
8.1654388765
  0
LINE
  5
2BE
100
AcDbEntity
  8
0
100
AcDbLine
 62
4
  6
CONTINUOUS
 10
12.083092268
 20
8.0791532256
 11
12.0724437269
 21
8.0688675241
  0
LINE
  5
2BF
100
AcDbEntity
  8
0
100
AcDbLine
 62
4
  6
CONTINUOUS
 10
12.0966987511
 20
8.0922960798
 11
12.1055725413
 21
8.1008675034
  0
LINE
  5
2C0
100
AcDbEntity
  8
0
100
AcDbLine
 62
4
  6
CONTINUOUS
 10
12.1162210824
 20
8.1111532049
 11
12.1215453589
 21
8.1162960614
  0
LINE
  5
2C1
100
AcDbEntity
  8
0
100
AcDbLine
 62
4
  6
CONTINUOUS
 10
12.1351518301
 20
8.1294389041
 11
12.1422508575
 21
8.1362960384
  0
LINE
  5
2C2
100
AcDbEntity
  8
0
100
AcDbLine
 62
4
  6
CONTINUOUS
 10
12.2392709498
 20
8.2300102568
 11
12.248144737
 21
8.2385816776
  0
LINE
  5
2C3
100
AcDbEntity
  8
0
100
AcDbLine
 62
4
  6
CONTINUOUS
 10
12.2232981307
 20
8.1880877291
 11
12.2138327568
 21
8.1789448795
  0
LINE
  5
2C4
100
AcDbEntity
  8
0
100
AcDbLine
 62
4
  6
CONTINUOUS
 10
12.6274696193
 20
8.5686625864
 11
12.6316107205
 21
8.5726625832
  0
LINE
  5
2C5
100
AcDbEntity
  8
0
100
AcDbLine
 62
4
  6
CONTINUOUS
 10
12.0759932406
 20
8.0193081547
 11
12.083092268
 21
8.0261652891
  0
LINE
  5
2C6
100
AcDbEntity
  8
0
100
AcDbLine
 62
4
  6
CONTINUOUS
 10
12.1759712555
 20
8.1158795071
 11
12.1830702889
 21
8.1227366472
  0
LINE
  5
2C7
100
AcDbEntity
  8
0
100
AcDbLine
 62
4
  6
CONTINUOUS
 10
12.248144737
 20
8.1458527928
 11
12.2392709498
 21
8.137281372
  0
LINE
  5
2C8
100
AcDbEntity
  8
0
100
AcDbLine
 62
4
  6
CONTINUOUS
 10
12.204367383
 20
8.1035671134
 11
12.1901693222
 21
8.089852839
  0
LINE
  5
2C9
100
AcDbEntity
  8
0
100
AcDbLine
 62
4
  6
CONTINUOUS
 10
12.1830702889
 20
8.0829956989
 11
12.1724217418
 21
8.0727099917
  0
LINE
  5
2CA
100
AcDbEntity
  8
0
100
AcDbLine
 62
4
  6
CONTINUOUS
 10
12.1422508575
 20
8.0435671536
 11
12.1351518301
 21
8.0367100193
  0
LINE
  5
2CB
100
AcDbEntity
  8
0
100
AcDbLine
 62
4
  6
CONTINUOUS
 10
12.1215453589
 20
8.0235671766
 11
12.1162210824
 21
8.0184243201
  0
LINE
  5
2CC
100
AcDbEntity
  8
0
100
AcDbLine
 62
4
  6
CONTINUOUS
 10
12.1055725413
 20
8.0081386186
 11
12.0966987511
 21
7.999567195
  0
LINE
  5
2CD
100
AcDbEntity
  8
0
100
AcDbLine
 62
4
  6
CONTINUOUS
 10
12.083092268
 20
7.9864243408
 11
12.0724437269
 21
7.9761386393
  0
LINE
  5
2CE
100
AcDbEntity
  8
0
100
AcDbLine
 62
4
  6
CONTINUOUS
 10
12.6316107205
 20
8.5005401213
 11
12.6274696193
 21
8.4965401245
  0
LINE
  5
2CF
100
AcDbEntity
  8
0
100
AcDbLine
 62
4
  6
CONTINUOUS
 10
12.0966987511
 20
7.999567195
 11
12.0931492374
 21
8.0093856105
  0
LINE
  5
2D0
100
AcDbEntity
  8
0
100
AcDbLine
 62
4
  6
CONTINUOUS
 10
12.1162210824
 20
8.0184243201
 11
12.1126715687
 21
8.0282427357
  0
LINE
  5
2D1
100
AcDbEntity
  8
0
100
AcDbLine
 62
4
  6
CONTINUOUS
 10
12.1786333937
 20
7.8747064404
 11
12.1750838785
 21
7.8845248546
  0
LINE
  5
2D2
100
AcDbEntity
  8
0
100
AcDbLine
 62
4
  6
CONTINUOUS
 10
12.1215453589
 20
8.1162960614
 11
12.1250948726
 21
8.1064776444
  0
LINE
  5
2D3
100
AcDbEntity
  8
0
100
AcDbLine
 62
4
  6
CONTINUOUS
 10
12.1839576668
 20
7.9725781785
 11
12.1875071824
 21
7.9627597633
  0
LINE
  5
2D4
100
AcDbEntity
  8
0
100
AcDbLine
 62
4
  6
CONTINUOUS
 10
12.1422508575
 20
8.1362960384
 11
12.1458003712
 21
8.1264776215
  0
LINE
  5
2D5
100
AcDbEntity
  8
0
100
AcDbLine
 62
4
  6
CONTINUOUS
 10
12.2392709498
 20
8.137281372
 11
12.2357214346
 21
8.1470997861
  0
LINE
  5
2D6
100
AcDbEntity
  8
0
100
AcDbLine
 62
4
  6
CONTINUOUS
 10
12.1449129971
 20
7.8421350366
 11
12.1307149334
 21
7.9211496441
  0
LINE
  5
2D7
100
AcDbEntity
  8
0
100
AcDbLine
 62
4
  6
CONTINUOUS
 10
12.1662100897
 20
7.8627064496
 11
12.1591110579
 21
7.9088372447
  0
LINE
  5
2D8
100
AcDbEntity
  8
0
100
AcDbLine
 62
4
  6
CONTINUOUS
 10
12.2185654438
 20
8.1172813878
 11
12.2114664104
 21
8.2031531325
  0
LINE
  5
2D9
100
AcDbEntity
  8
0
100
AcDbLine
 62
4
  6
CONTINUOUS
 10
12.1384055537
 20
7.613300005
 11
12.1384055537
 21
7.6596644474
  0
LINE
  5
2DA
100
AcDbEntity
  8
0
100
AcDbLine
 62
4
  6
CONTINUOUS
 10
12.1458003712
 20
8.1264776215
 11
12.1458003712
 21
8.0602427035
  0
LINE
  5
2DB
100
AcDbEntity
  8
0
100
AcDbLine
 62
4
  6
CONTINUOUS
 10
12.1466877563
 20
7.5749355564
 11
12.1466877563
 21
7.6676644413
  0
LINE
  5
2DC
100
AcDbEntity
  8
0
100
AcDbLine
 62
4
  6
CONTINUOUS
 10
12.1520120275
 20
7.8489921738
 11
12.1520120275
 21
7.9417210586
  0
LINE
  5
2DD
100
AcDbEntity
  8
0
100
AcDbLine
 62
4
  6
CONTINUOUS
 10
12.1591110602
 20
7.6796644321
 11
12.1591110602
 21
7.6332999897
  0
LINE
  5
2DE
100
AcDbEntity
  8
0
100
AcDbLine
 62
4
  6
CONTINUOUS
 10
12.1662100897
 20
7.9554353344
 11
12.1662100897
 21
7.8627064496
  0
LINE
  5
2DF
100
AcDbEntity
  8
0
100
AcDbLine
 62
4
  6
CONTINUOUS
 10
12.1673932628
 20
7.6412999835
 11
12.1673932628
 21
7.7340288684
  0
LINE
  5
2E0
100
AcDbEntity
  8
0
100
AcDbLine
 62
4
  6
CONTINUOUS
 10
12.1750838785
 20
7.8845248546
 11
12.1750838785
 21
7.9507597725
  0
LINE
  5
2E1
100
AcDbEntity
  8
0
100
AcDbLine
 62
4
  6
CONTINUOUS
 10
12.1798165667
 20
7.6996644167
 11
12.1798165667
 21
7.6532999743
  0
LINE
  5
2E2
100
AcDbEntity
  8
0
100
AcDbLine
 62
4
  6
CONTINUOUS
 10
12.1830702889
 20
8.1757245838
 11
12.1830702889
 21
8.0829956989
  0
LINE
  5
2E3
100
AcDbEntity
  8
0
100
AcDbLine
 62
4
  6
CONTINUOUS
 10
12.1875071824
 20
7.9627597633
 11
12.1875071824
 21
7.8965248454
  0
LINE
  5
2E4
100
AcDbEntity
  8
0
100
AcDbLine
 62
4
  6
CONTINUOUS
 10
12.1899622649
 20
7.7094644092
 11
12.1899622649
 21
7.6630999668
  0
LINE
  5
2E5
100
AcDbEntity
  8
0
100
AcDbLine
 62
4
  6
CONTINUOUS
 10
12.1972683497
 20
8.1894388581
 11
12.1972683497
 21
8.0967099733
  0
LINE
  5
2E6
100
AcDbEntity
  8
0
100
AcDbLine
 62
4
  6
CONTINUOUS
 10
12.2023855689
 20
7.7214644001
 11
12.2023855689
 21
7.6287355152
  0
LINE
  5
2E7
100
AcDbEntity
  8
0
100
AcDbLine
 62
4
  6
CONTINUOUS
 10
12.2272321767
 20
7.6527354968
 11
12.2272321767
 21
7.7454643817
  0
LINE
  5
2E8
100
AcDbEntity
  8
0
100
AcDbLine
 62
4
  6
CONTINUOUS
 10
12.2357214346
 20
8.1470997861
 11
12.2357214346
 21
8.2133347041
  0
LINE
  5
2E9
100
AcDbEntity
  8
0
100
AcDbLine
 62
4
  6
CONTINUOUS
 10
12.2396554806
 20
7.6647354877
 11
12.2396554806
 21
7.7574643725
  0
LINE
  5
2EA
100
AcDbEntity
  8
0
100
AcDbLine
 62
4
  6
CONTINUOUS
 10
12.2458671325
 20
7.6707354831
 11
12.2458671325
 21
7.7634643679
  0
LINE
  5
2EB
100
AcDbEntity
  8
0
100
AcDbLine
 62
4
  6
CONTINUOUS
 10
12.248144737
 20
8.2385816776
 11
12.248144737
 21
8.1458527928
  0
LINE
  5
2EC
100
AcDbEntity
  8
0
100
AcDbLine
 62
4
  6
CONTINUOUS
 10
12.2582904365
 20
7.7754643587
 11
12.2582904365
 21
7.6827354739
  0
LINE
  5
2ED
100
AcDbEntity
  8
0
100
AcDbLine
 62
4
  6
CONTINUOUS
 10
12.2645020884
 20
7.7350999117
 11
12.2645020884
 21
7.7814643541
  0
LINE
  5
2EE
100
AcDbEntity
  8
0
100
AcDbLine
 62
4
  6
CONTINUOUS
 10
12.2769253923
 20
7.7007354601
 11
12.2769253923
 21
7.7470999025
  0
LINE
  5
2EF
100
AcDbEntity
  8
0
100
AcDbLine
 62
4
  6
CONTINUOUS
 10
12.2256644741
 20
8.2168674098
 11
12.2185654438
 21
8.1172813878
  0
LINE
  5
2F0
100
AcDbEntity
  8
0
100
AcDbLine
 62
4
  6
CONTINUOUS
 10
12.1591110579
 20
7.9088372447
 11
12.1520120275
 21
7.8489921738
  0
LINE
  5
2F1
100
AcDbEntity
  8
0
100
AcDbLine
 62
4
  6
CONTINUOUS
 10
12.1449129971
 20
7.9348639214
 11
12.1307149334
 21
7.8284207593
  0
LINE
  5
2F2
100
AcDbEntity
  8
0
100
AcDbLine
 62
4
  6
CONTINUOUS
 10
12.0931492374
 20
8.0756205285
 11
12.0966987511
 21
8.0922960798
  0
LINE
  5
2F3
100
AcDbEntity
  8
0
100
AcDbLine
 62
4
  6
CONTINUOUS
 10
12.1126715687
 20
8.0944776536
 11
12.1162210824
 21
8.1111532049
  0
LINE
  5
2F4
100
AcDbEntity
  8
0
100
AcDbLine
 62
4
  6
CONTINUOUS
 10
12.1250948726
 20
8.0402427265
 11
12.1215453589
 21
8.0235671766
  0
LINE
  5
2F5
100
AcDbEntity
  8
0
100
AcDbLine
 62
4
  6
CONTINUOUS
 10
12.1458003712
 20
8.0602427035
 11
12.1422508575
 21
8.0435671536
  0
LINE
  5
2F6
100
AcDbEntity
  8
0
100
AcDbLine
 62
4
  6
CONTINUOUS
 10
12.1750838785
 20
7.9507597725
 11
12.1786333937
 21
7.9674353252
  0
LINE
  5
2F7
100
AcDbEntity
  8
0
100
AcDbLine
 62
4
  6
CONTINUOUS
 10
12.2357214346
 20
8.2133347041
 11
12.2392709498
 21
8.2300102568
  0
LINE
  5
2F8
100
AcDbEntity
  8
0
100
AcDbLine
 62
4
  6
CONTINUOUS
 10
12.1875071824
 20
7.8965248454
 11
12.1839576668
 21
7.8798492936
  0
LINE
  5
2F9
100
AcDbEntity
  8
0
100
AcDbLine
 62
4
  6
CONTINUOUS
 10
12.0558793256
 20
8.0131265892
 11
12.0653446995
 21
8.0399320838
  0
LINE
  5
2FA
100
AcDbEntity
  8
0
100
AcDbLine
 62
4
  6
CONTINUOUS
 10
12.2528774247
 20
8.1857495056
 11
12.2623427993
 21
8.2125550024
  0
LINE
  5
2FB
100
AcDbEntity
  8
0
100
AcDbLine
 62
4
  6
CONTINUOUS
 10
12.6316107205
 20
8.4490240729
 11
12.6274696193
 21
8.4450240761
  0
LINE
  5
2FC
100
AcDbEntity
  8
0
100
AcDbLine
 62
4
  6
CONTINUOUS
 10
12.1786333937
 20
7.9674353252
 11
12.1839576668
 21
7.9725781785
  0
LINE
  5
2FD
100
AcDbEntity
  8
0
100
AcDbLine
 62
4
  6
CONTINUOUS
 10
12.1839576668
 20
7.8798492936
 11
12.1786333937
 21
7.8747064404
  0
LINE
  5
2FE
100
AcDbEntity
  8
0
100
AcDbLine
 62
4
  6
CONTINUOUS
 10
12.1673932628
 20
7.7340288684
 11
12.1756754654
 21
7.7420288622
  0
LINE
  5
2FF
100
AcDbEntity
  8
0
100
AcDbLine
 62
4
  6
CONTINUOUS
 10
12.0969945407
 20
7.619664478
 11
12.0845712368
 21
7.6076644872
  0
LINE
  5
300
100
AcDbEntity
  8
0
100
AcDbLine
 62
4
  6
CONTINUOUS
 10
12.0597246289
 20
7.5836645056
 11
12.047301325
 21
7.5716645148
  0
LINE
  5
301
100
AcDbEntity
  8
0
100
AcDbLine
 62
4
  6
CONTINUOUS
 10
12.0265958185
 20
7.5516645301
 11
12.0390191224
 21
7.5636645209
  0
LINE
  5
302
100
AcDbEntity
  8
0
100
AcDbLine
 62
4
  6
CONTINUOUS
 10
12.1052767433
 20
7.6276644719
 11
12.1177000472
 21
7.6396644627
  0
LINE
  5
303
100
AcDbEntity
  8
0
100
AcDbLine
 62
4
  6
CONTINUOUS
 10
12.1466877563
 20
7.6676644413
 11
12.1591110602
 21
7.6796644321
  0
LINE
  5
304
100
AcDbEntity
  8
0
100
AcDbLine
 62
4
  6
CONTINUOUS
 10
12.1673932628
 20
7.6876644259
 11
12.1798165667
 21
7.6996644167
  0
LINE
  5
305
100
AcDbEntity
  8
0
100
AcDbLine
 62
4
  6
CONTINUOUS
 10
12.2458671325
 20
7.7634643679
 11
12.2582904365
 21
7.7754643587
  0
LINE
  5
306
100
AcDbEntity
  8
0
100
AcDbLine
 62
4
  6
CONTINUOUS
 10
12.2645020884
 20
7.7814643541
 11
12.2769253923
 21
7.7934643449
  0
LINE
  5
307
100
AcDbEntity
  8
0
100
AcDbLine
 62
4
  6
CONTINUOUS
 10
12.6274696193
 20
8.4450240761
 11
12.6233285181
 21
8.4513272859
  0
LINE
  5
308
100
AcDbEntity
  8
0
100
AcDbLine
 62
4
  6
CONTINUOUS
 10
12.6274696193
 20
8.4965401245
 11
12.6233285181
 21
8.5028433344
  0
LINE
  5
309
100
AcDbEntity
  8
0
100
AcDbLine
 62
4
  6
CONTINUOUS
 10
12.6316107205
 20
8.5726625832
 11
12.6357518217
 21
8.5663593706
  0
LINE
  5
30A
100
AcDbEntity
  8
0
100
AcDbLine
 62
4
  6
CONTINUOUS
 10
12.6191874169
 20
8.5194497547
 11
12.6191874169
 21
8.5297529651
  0
LINE
  5
30B
100
AcDbEntity
  8
0
100
AcDbLine
 62
4
  6
CONTINUOUS
 10
12.6212579675
 20
8.4596305016
 11
12.6212579675
 21
8.4699337084
  0
LINE
  5
30C
100
AcDbEntity
  8
0
100
AcDbLine
 62
7
  6
CONTINUOUS
 10
12.6767487232
 20
6.2014478396
 11
12.6767487232
 21
12.0935957291
  0
LINE
  5
30D
100
AcDbEntity
  8
0
100
AcDbLine
 62
4
  6
CONTINUOUS
 10
12.6191874169
 20
8.5297529651
 11
12.6233285181
 21
8.55435938
  0
LINE
  5
30E
100
AcDbEntity
  8
0
100
AcDbLine
 62
4
  6
CONTINUOUS
 10
12.6212579675
 20
8.4699337084
 11
12.6233285181
 21
8.4822369135
  0
LINE
  5
30F
100
AcDbEntity
  8
0
100
AcDbLine
 62
4
  6
CONTINUOUS
 10
12.6233285181
 20
8.55435938
 11
12.6274696193
 21
8.5686625864
  0
LINE
  5
310
100
AcDbEntity
  8
0
100
AcDbLine
 62
4
  6
CONTINUOUS
 10
12.6233285181
 20
8.4822369135
 11
12.6274696193
 21
8.4965401245
  0
LINE
  5
311
100
AcDbEntity
  8
0
100
AcDbLine
 62
4
  6
CONTINUOUS
 10
12.6357518217
 20
8.4633272765
 11
12.6316107205
 21
8.4490240729
  0
LINE
  5
312
100
AcDbEntity
  8
0
100
AcDbLine
 62
4
  6
CONTINUOUS
 10
12.0390191224
 20
7.5404822997
 11
12.0265958185
 21
7.5284823089
  0
LINE
  5
313
100
AcDbEntity
  8
0
100
AcDbLine
 62
4
  6
CONTINUOUS
 10
12.1177000472
 20
7.6087548344
 11
12.1052767433
 21
7.5967548436
  0
LINE
  5
314
100
AcDbEntity
  8
0
100
AcDbLine
 62
4
  6
CONTINUOUS
 10
12.2769253923
 20
7.7470999025
 11
12.2645020884
 21
7.7350999117
  0
LINE
  5
315
100
AcDbEntity
  8
0
100
AcDbLine
 62
4
  6
CONTINUOUS
 10
12.1591110602
 20
7.6332999897
 11
12.1466877563
 21
7.6212999989
  0
LINE
  5
316
100
AcDbEntity
  8
0
100
AcDbLine
 62
4
  6
CONTINUOUS
 10
12.1384055537
 20
7.613300005
 11
12.1259822498
 21
7.6013000142
  0
LINE
  5
317
100
AcDbEntity
  8
0
100
AcDbLine
 62
4
  6
CONTINUOUS
 10
12.0597246289
 20
7.5373000632
 11
12.047301325
 21
7.5253000724
  0
LINE
  5
318
100
AcDbEntity
  8
0
100
AcDbLine
 62
4
  6
CONTINUOUS
 10
12.0390191224
 20
7.5173000785
 11
12.0265958185
 21
7.5053000877
  0
LINE
  5
319
100
AcDbEntity
  8
0
100
AcDbLine
 62
4
  6
CONTINUOUS
 10
12.1052767433
 20
7.5813000295
 11
12.1135589459
 21
7.5893000234
  0
LINE
  5
31A
100
AcDbEntity
  8
0
100
AcDbLine
 62
4
  6
CONTINUOUS
 10
12.1899622649
 20
7.6630999668
 11
12.2023855689
 21
7.6750999576
  0
LINE
  5
31B
100
AcDbEntity
  8
0
100
AcDbLine
 62
4
  6
CONTINUOUS
 10
12.0695597445
 20
7.5236178347
 11
12.0664539185
 21
7.520617837
  0
LINE
  5
31C
100
AcDbEntity
  8
0
100
AcDbLine
 62
4
  6
CONTINUOUS
 10
12.2396554806
 20
7.6647354877
 11
12.2272321767
 21
7.6527354968
  0
LINE
  5
31D
100
AcDbEntity
  8
0
100
AcDbLine
 62
4
  6
CONTINUOUS
 10
12.2645020884
 20
7.6887354693
 11
12.2769253923
 21
7.7007354601
  0
LINE
  5
31E
100
AcDbEntity
  8
0
100
AcDbLine
 62
4
  6
CONTINUOUS
 10
12.6233285181
 20
8.4513272859
 11
12.6212579675
 21
8.4596305016
  0
LINE
  5
31F
100
AcDbEntity
  8
0
100
AcDbLine
 62
4
  6
CONTINUOUS
 10
12.6233285181
 20
8.5028433344
 11
12.6191874169
 21
8.5194497547
  0
LINE
  5
320
100
AcDbEntity
  8
0
100
AcDbLine
 62
4
  6
CONTINUOUS
 10
12.6357518217
 20
8.5663593706
 11
12.6378223723
 21
8.5580561595
  0
LINE
  5
321
100
AcDbEntity
  8
0
100
AcDbLine
 62
4
  6
CONTINUOUS
 10
11.699655899
 20
6.3858500227
 11
11.6810209435
 21
6.3678500369
  0
LINE
  5
322
100
AcDbEntity
  8
0
100
AcDbLine
 62
7
  6
CONTINUOUS
 10
11.6414733972
 20
11.0935964951
 11
9.3232512768
 21
11.2543657452
  0
LINE
  5
323
100
AcDbEntity
  8
0
100
AcDbLine
 62
7
  6
CONTINUOUS
 10
12.6767487232
 20
6.2014478396
 11
11.6414733972
 21
5.2014486056
  0
LINE
  5
324
100
AcDbEntity
  8
0
100
AcDbLine
 62
7
  6
CONTINUOUS
 10
11.6037950463
 20
4.8507261061
 11
11.5718609759
 21
4.8349512868
  0
LINE
  5
325
100
AcDbEntity
  8
0
100
AcDbLine
 62
7
  6
CONTINUOUS
 10
12.6767487232
 20
12.0935957291
 11
10.3585266028
 21
12.2543649792
  0
ARC
  5
326
100
AcDbEntity
  8
0
100
AcDbCircle
 62
7
  6
CONTINUOUS
 10
11.0125665683
 20
7.3530952553
 40
2.5796296874
100
AcDbArc
 50
273.5024005705
 51
274.4318614998
  0
ARC
  5
327
100
AcDbEntity
  8
0
100
AcDbCircle
 62
7
  6
CONTINUOUS
 10
10.9951198163
 20
11.0119083931
 40
2.2741207827
100
AcDbArc
 50
266.0442744915
 51
267.4997050866
  0
ARC
  5
328
100
AcDbEntity
  8
0
100
AcDbCircle
 62
7
  6
CONTINUOUS
 10
10.997251104
 20
8.6205980462
 40
2.1187279962
100
AcDbArc
 50
266.053724197
 51
268.6401907233
  0
ARC
  5
329
100
AcDbEntity
  8
0
100
AcDbCircle
 62
7
  6
CONTINUOUS
 10
10.9782330707
 20
10.7788306403
 40
2.0404335034
100
AcDbArc
 50
263.3822589342
 51
266.06582624
  0
ARC
  5
32A
100
AcDbEntity
  8
0
100
AcDbCircle
 62
7
  6
CONTINUOUS
 10
10.9978850821
 20
10.8690979846
 40
2.0392789671
100
AcDbArc
 50
266.0582773048
 51
268.9723369998
  0
ARC
  5
32B
100
AcDbEntity
  8
0
100
AcDbCircle
 62
7
  6
CONTINUOUS
 10
10.7600937785
 20
5.9187301317
 40
1.1255690345
100
AcDbArc
 50
254.6857191954
 51
256.2926786396
  0
ARC
  5
32C
100
AcDbEntity
  8
0
100
AcDbCircle
 62
7
  6
CONTINUOUS
 10
11.2100338037
 20
5.6459935612
 40
0.8874105718
100
AcDbArc
 50
294.0392515475
 51
296.3128472127
  0
ARC
  5
32D
100
AcDbEntity
  8
0
100
AcDbCircle
 62
7
  6
CONTINUOUS
 10
10.8071373518
 20
7.1140319643
 40
0.4514940858
100
AcDbArc
 50
251.1814304975
 51
252.1638764559
  0
ARC
  5
32E
100
AcDbEntity
  8
0
100
AcDbCircle
 62
7
  6
CONTINUOUS
 10
10.5858241102
 20
6.3757327579
 40
0.3952213025
100
AcDbArc
 50
113.9775833838
 51
115.6916275648
  0
ARC
  5
32F
100
AcDbEntity
  8
0
100
AcDbCircle
 62
7
  6
CONTINUOUS
 10
10.7951093116
 20
7.0484688326
 40
0.3868698659
100
AcDbArc
 50
249.757569083
 51
250.7647805543
  0
ARC
  5
330
100
AcDbEntity
  8
0
100
AcDbCircle
 62
7
  6
CONTINUOUS
 10
10.8268406893
 20
6.8309910326
 40
0.2422530853
100
AcDbArc
 50
187.0885359985
 51
187.2778360133
  0
ARC
  5
331
100
AcDbEntity
  8
0
100
AcDbCircle
 62
7
  6
CONTINUOUS
 10
10.8259748256
 20
6.8308784734
 40
0.2413799383
100
AcDbArc
 50
187.2773698416
 51
188.7108279705
  0
ARC
  5
332
100
AcDbEntity
  8
0
100
AcDbCircle
 62
7
  6
CONTINUOUS
 10
11.6146414608
 20
5.016941168
 40
0.1419744194
100
AcDbArc
 50
310.7630914437
 51
313.9856916519
  0
ARC
  5
333
100
AcDbEntity
  8
0
100
AcDbCircle
 62
7
  6
CONTINUOUS
 10
11.6291317397
 20
5.0020750523
 40
0.1212149046
100
AcDbArc
 50
313.9375979844
 51
317.5184669645
  0
ARC
  5
334
100
AcDbEntity
  8
0
100
AcDbCircle
 62
7
  6
CONTINUOUS
 10
10.4561671017
 20
4.9350313605
 40
0.1020761607
100
AcDbArc
 50
254.4393123298
 51
256.2247467287
  0
ARC
  5
335
100
AcDbEntity
  8
0
100
AcDbCircle
 62
7
  6
CONTINUOUS
 10
10.616682894
 20
6.7446251175
 40
0.0802397728
100
AcDbArc
 50
320.776907686
 51
322.5650699543
  0
ARC
  5
336
100
AcDbEntity
  8
0
100
AcDbCircle
 62
7
  6
CONTINUOUS
 10
10.6183708187
 20
6.7432426324
 40
0.0780579522
100
AcDbArc
 50
319.1380370545
 51
320.7795883089
  0
ARC
  5
337
100
AcDbEntity
  8
0
100
AcDbCircle
 62
7
  6
CONTINUOUS
 10
10.6772399824
 20
6.7461419102
 40
0.0641764164
100
AcDbArc
 50
255.484336068
 51
261.6330889378
  0
SPLINE
  5
338
100
AcDbEntity
  8
0
100
AcDbSpline
 62
7
  6
CONTINUOUS
 70
0
 71
3
 72
19
 73
15
 74
0
 42
0.0000001
 43
0.0000001
 44
0.0000000001
 40
0.0
 40
0.0
 40
0.0
 40
0.0
 40
0.0524585976
 40
0.1056934037
 40
0.1599308091
 40
0.215422086
 40
0.2723794067
 40
0.330952639
 40
0.4531616347
 40
0.5169062869
 40
0.5823099427
 40
0.7175411716
 40
0.8574688261
 40
1.0
 40
1.0
 40
1.0
 40
1.0
 10
10.6611545054
 20
6.6840140593
 30
0.0
 10
10.6587840799
 20
6.6846275698
 30
0.0
 10
10.6540747961
 20
6.6861376249
 30
0.0
 10
10.6472470424
 20
6.6891893864
 30
0.0
 10
10.6406603708
 20
6.6930214925
 30
0.0
 10
10.6343533084
 20
6.6975978483
 30
0.0
 10
10.6283572815
 20
6.7028848105
 30
0.0
 10
10.6207031474
 20
6.7109349794
 30
0.0
 10
10.613890263
 20
6.7201565193
 30
0.0
 10
10.6079120399
 20
6.7302570984
 30
0.0
 10
10.602309325
 20
6.7412607107
 30
0.0
 10
10.596363613
 20
6.7560401514
 30
0.0
 10
10.5909243446
 20
6.7747891622
 30
0.0
 10
10.5883868796
 20
6.7877461056
 30
0.0
 10
10.5873791365
 20
6.7943220546
 30
0.0
  0
SPLINE
  5
339
100
AcDbEntity
  8
0
100
AcDbSpline
 62
7
  6
CONTINUOUS
 70
0
 71
3
 72
11
 73
7
 74
0
 42
0.0000001
 43
0.0000001
 44
0.0000000001
 40
0.0
 40
0.0
 40
0.0
 40
0.0
 40
0.2598360442
 40
0.515126105
 40
0.7627693968
 40
1.0
 40
1.0
 40
1.0
 40
1.0
 10
10.5864392294
 20
6.8010962935
 30
0.0
 10
10.5858102224
 20
6.8061545057
 30
0.0
 10
10.5848780235
 20
6.8162244573
 30
0.0
 10
10.5844398662
 20
6.8311911441
 30
0.0
 10
10.5849682991
 20
6.8457117284
 30
0.0
 10
10.5859905077
 20
6.855179275
 30
0.0
 10
10.5866798187
 20
6.859781665
 30
0.0
  0
SPLINE
  5
33A
100
AcDbEntity
  8
0
100
AcDbSpline
 62
7
  6
CONTINUOUS
 70
0
 71
3
 72
15
 73
11
 74
0
 42
0.0000001
 43
0.0000001
 44
0.0000000001
 40
0.0
 40
0.0
 40
0.0
 40
0.0
 40
0.161263429
 40
0.3126376309
 40
0.4537495801
 40
0.5843074511
 40
0.7041432422
 40
0.813221821
 40
0.9117050738
 40
1.0
 40
1.0
 40
1.0
 40
1.0
 10
10.6938028522
 20
6.7309920009
 30
0.0
 10
10.6878086741
 20
6.7326040632
 30
0.0
 10
10.6762343253
 20
6.7359065634
 30
0.0
 10
10.6596156668
 20
6.741291044
 30
0.0
 10
10.6443352291
 20
6.746932042
 30
0.0
 10
10.6304519121
 20
6.7528085347
 30
0.0
 10
10.6180178409
 20
6.758896497
 30
0.0
 10
10.6070784443
 20
6.7651751476
 30
0.0
 10
10.5976739553
 20
6.7716199926
 30
0.0
 10
10.5921593488
 20
6.7762604321
 30
0.0
 10
10.5897069367
 20
6.778613259
 30
0.0
  0
SPLINE
  5
33B
100
AcDbEntity
  8
0
100
AcDbSpline
 62
7
  6
CONTINUOUS
 70
0
 71
3
 72
9
 73
5
 74
0
 42
0.0000001
 43
0.0000001
 44
0.0000000001
 40
0.0
 40
0.0
 40
0.0
 40
0.0
 40
0.5166711484
 40
1.0
 40
1.0
 40
1.0
 40
1.0
 10
10.661497782
 20
6.6866726012
 30
0.0
 10
10.6569045436
 20
6.6882389334
 30
0.0
 10
10.6480648081
 20
6.6914210913
 30
0.0
 10
10.6393572836
 20
6.6949516942
 30
0.0
 10
10.6351915874
 20
6.6967563076
 30
0.0
  0
SPLINE
  5
33C
100
AcDbEntity
  8
0
100
AcDbSpline
 62
7
  6
CONTINUOUS
 70
0
 71
3
 72
9
 73
5
 74
0
 42
0.0000001
 43
0.0000001
 44
0.0000000001
 40
0.0
 40
0.0
 40
0.0
 40
0.0
 40
0.5047191163
 40
1.0
 40
1.0
 40
1.0
 40
1.0
 10
11.7073412203
 20
4.9094074972
 30
0.0
 10
11.6903537026
 20
4.8986544137
 30
0.0
 10
11.6562389625
 20
4.8780596659
 30
0.0
 10
11.6210845871
 20
4.8592721569
 30
0.0
 10
11.603398236
 20
4.850530208
 30
0.0
  0
SPLINE
  5
33D
100
AcDbEntity
  8
0
100
AcDbSpline
 62
7
  6
CONTINUOUS
 70
0
 71
3
 72
21
 73
17
 74
0
 42
0.0000001
 43
0.0000001
 44
0.0000000001
 40
0.0
 40
0.0
 40
0.0
 40
0.0
 40
0.0432896214
 40
0.0886095538
 40
0.1862743787
 40
0.2390579894
 40
0.2946394317
 40
0.3530874696
 40
0.4144237277
 40
0.478624368
 40
0.5456272697
 40
0.6153397427
 40
0.6876446841
 40
0.7624086267
 40
0.8394895082
 40
1.0
 40
1.0
 40
1.0
 40
1.0
 10
10.4099704104
 20
4.8439264119
 30
0.0
 10
10.4072292343
 20
4.8452785213
 30
0.0
 10
10.4017251319
 20
4.8482680892
 30
0.0
 10
10.3906516283
 20
4.8553812824
 30
0.0
 10
10.3798353774
 20
4.8640588871
 30
0.0
 10
10.3692889696
 20
4.8740834228
 30
0.0
 10
10.3611805188
 20
4.8826335726
 30
0.0
 10
10.3530840385
 20
4.892006414
 30
0.0
 10
10.3450038
 20
4.9021822916
 30
0.0
 10
10.3369446914
 20
4.9131336898
 30
0.0
 10
10.3289104951
 20
4.9248278523
 30
0.0
 10
10.3209049574
 20
4.9372280712
 30
0.0
 10
10.3129305642
 20
4.95029439
 30
0.0
 10
10.3049894983
 20
4.9639856381
 30
0.0
 10
10.2943033984
 20
4.9832791624
 30
0.0
 10
10.2865651616
 20
4.9981672943
 30
0.0
 10
10.2814728684
 20
5.0082918033
 30
0.0
  0
SPLINE
  5
33E
100
AcDbEntity
  8
0
100
AcDbSpline
 62
7
  6
CONTINUOUS
 70
0
 71
3
 72
39
 73
35
 74
0
 42
0.0000001
 43
0.0000001
 44
0.0000000001
 40
0.0
 40
0.0
 40
0.0
 40
0.0
 40
0.0099876075
 40
0.0204479777
 40
0.0427696939
 40
0.0669203754
 40
0.0928333707
 40
0.1204246084
 40
0.1495963027
 40
0.1802390512
 40
0.2122326266
 40
0.245448257
 40
0.279749551
 40
0.3149931912
 40
0.3510306016
 40
0.3877085097
 40
0.4248698733
 40
0.4999997958
 40
0.5751297496
 40
0.612291124
 40
0.6489690335
 40
0.685006452
 40
0.7202501201
 40
0.754551454
 40
0.7877671157
 40
0.8197607132
 40
0.8504034866
 40
0.8795752254
 40
0.9071665082
 40
0.9330795531
 40
0.9572303028
 40
0.9795519774
 40
0.9900123159
 40
1.0
 40
1.0
 40
1.0
 40
1.0
 10
11.5718654956
 20
4.8349535606
 30
0.0
 10
11.5683867767
 20
4.8332351272
 30
0.0
 10
11.5612052528
 20
4.8298361641
 30
0.0
 10
11.5459802539
 20
4.8231780452
 30
0.0
 10
11.5253554021
 20
4.8151618955
 30
0.0
 10
11.4986988077
 20
4.8061824529
 30
0.0
 10
11.4697445037
 20
4.7976881041
 30
0.0
 10
11.4386250962
 20
4.7897181227
 30
0.0
 10
11.4054825487
 20
4.7823098855
 30
0.0
 10
11.3704689453
 20
4.7754984644
 30
0.0
 10
11.3337453274
 20
4.7693154356
 30
0.0
 10
11.2954808445
 20
4.7637898461
 30
0.0
 10
11.2558518794
 20
4.7589478107
 30
0.0
 10
11.2150412778
 20
4.7548116282
 30
0.0
 10
11.1732374549
 20
4.7514008233
 30
0.0
 10
11.13063328
 20
4.7487313447
 30
0.0
 10
11.0728154367
 20
4.746168148
 30
0.0
 10
11.0000005472
 20
4.7448963649
 30
0.0
 10
10.9271856531
 20
4.7461681164
 30
0.0
 10
10.8693677917
 20
4.7487312872
 30
0.0
 10
10.8267636077
 20
4.751400747
 30
0.0
 10
10.7849597686
 20
4.7548115322
 30
0.0
 10
10.7441491357
 20
4.7589476978
 30
0.0
 10
10.7045201297
 20
4.7637897161
 30
0.0
 10
10.666255608
 20
4.7693152901
 30
0.0
 10
10.6295319562
 20
4.7754983005
 30
0.0
 10
10.5945183133
 20
4.782309705
 30
0.0
 10
10.5613757177
 20
4.7897179308
 30
0.0
 10
10.5302562503
 20
4.7976878953
 30
0.0
 10
10.5013018752
 20
4.8061822282
 30
0.0
 10
10.4746452559
 20
4.8151616887
 30
0.0
 10
10.4540203827
 20
4.8231777744
 30
0.0
 10
10.4387953545
 20
4.8298358298
 30
0.0
 10
10.4316138134
 20
4.8332347989
 30
0.0
 10
10.4281350728
 20
4.8349532554
 30
0.0
  0
SPLINE
  5
33F
100
AcDbEntity
  8
0
100
AcDbSpline
 62
7
  6
CONTINUOUS
 70
0
 71
3
 72
19
 73
15
 74
0
 42
0.0000001
 43
0.0000001
 44
0.0000000001
 40
0.0
 40
0.0
 40
0.0
 40
0.0
 40
0.0331645707
 40
0.0684970933
 40
0.1069220171
 40
0.1491180986
 40
0.1955221083
 40
0.2464035242
 40
0.3019151962
 40
0.3620978808
 40
0.4962866427
 40
0.6482857862
 40
0.8167800829
 40
1.0
 40
1.0
 40
1.0
 40
1.0
 10
10.5951827062
 20
6.815852329
 30
0.0
 10
10.5956508634
 20
6.8158847947
 30
0.0
 10
10.5966126352
 20
6.8160583898
 30
0.0
 10
10.5980288744
 20
6.8166119206
 30
0.0
 10
10.5994432699
 20
6.8174560792
 30
0.0
 10
10.6008480611
 20
6.8185848818
 30
0.0
 10
10.6022371422
 20
6.8199920507
 30
0.0
 10
10.6036026151
 20
6.8216720222
 30
0.0
 10
10.604935723
 20
6.8236186421
 30
0.0
 10
10.6067238435
 20
6.8266718397
 30
0.0
 10
10.6087919762
 20
6.8311278049
 30
0.0
 10
10.6109207422
 20
6.837207615
 30
0.0
 10
10.6127099227
 20
6.8441143714
 30
0.0
 10
10.6136031768
 20
6.8490150704
 30
0.0
 10
10.6139858979
 20
6.8515792432
 30
0.0
  0
SPLINE
  5
340
100
AcDbEntity
  8
0
100
AcDbSpline
 62
7
  6
CONTINUOUS
 70
0
 71
3
 72
11
 73
7
 74
0
 42
0.0000001
 43
0.0000001
 44
0.0000000001
 40
0.0
 40
0.0
 40
0.0
 40
0.0
 40
0.242176672
 40
0.4876475913
 40
0.739419113
 40
1.0
 40
1.0
 40
1.0
 40
1.0
 10
10.645189404
 20
6.671517464
 30
0.0
 10
10.6482239085
 20
6.672303056
 30
0.0
 10
10.6542168551
 20
6.6743842031
 30
0.0
 10
10.6626743577
 20
6.6789439275
 30
0.0
 10
10.6705240497
 20
6.6848844631
 30
0.0
 10
10.6751984463
 20
6.6896233763
 30
0.0
 10
10.6774051087
 20
6.6921740852
 30
0.0
  0
SPLINE
  5
341
100
AcDbEntity
  8
0
100
AcDbSpline
 62
7
  6
CONTINUOUS
 70
0
 71
3
 72
17
 73
13
 74
0
 42
0.0000001
 43
0.0000001
 44
0.0000000001
 40
0.0
 40
0.0
 40
0.0
 40
0.0
 40
0.1320071062
 40
0.197661826
 40
0.262973477
 40
0.3922641515
 40
0.5194528936
 40
0.582155887
 40
0.6441885007
 40
0.7660288555
 40
0.8847201378
 40
1.0
 40
1.0
 40
1.0
 40
1.0
 10
10.6894470362
 20
6.8200406355
 30
0.0
 10
10.691291763
 20
6.8144798453
 30
0.0
 10
10.6936571962
 20
6.8060129831
 30
0.0
 10
10.6959534914
 20
6.7945660455
 30
0.0
 10
10.6976544409
 20
6.7831367064
 30
0.0
 10
10.6986742222
 20
6.7688642934
 30
0.0
 10
10.6981873594
 20
6.7546771904
 30
0.0
 10
10.6968831552
 20
6.7435673052
 30
0.0
 10
10.6950052085
 20
6.7327812804
 30
0.0
 10
10.6915838307
 20
6.7197620287
 30
0.0
 10
10.6857925105
 20
6.7050328262
 30
0.0
 10
10.6808191471
 20
6.6958793084
 30
0.0
 10
10.678085414
 20
6.6915544743
 30
0.0
  0
SPLINE
  5
342
100
AcDbEntity
  8
0
100
AcDbSpline
 62
7
  6
CONTINUOUS
 70
0
 71
3
 72
11
 73
7
 74
0
 42
0.0000001
 43
0.0000001
 44
0.0000000001
 40
0.0
 40
0.0
 40
0.0
 40
0.0
 40
0.2572953849
 40
0.5086398793
 40
0.7555289299
 40
1.0
 40
1.0
 40
1.0
 40
1.0
 10
10.6310317632
 20
9.2363076846
 30
0.0
 10
10.633578482
 20
9.2356485461
 30
0.0
 10
10.6386909605
 20
9.234624823
 30
0.0
 10
10.6464099862
 20
9.2340133252
 30
0.0
 10
10.6540151256
 20
9.2343577784
 30
0.0
 10
10.658980053
 20
9.2352247623
 30
0.0
 10
10.6614093887
 20
9.2358129056
 30
0.0
  0
SPLINE
  5
343
100
AcDbEntity
  8
0
100
AcDbSpline
 62
7
  6
CONTINUOUS
 70
0
 71
3
 72
14
 73
10
 74
0
 42
0.0000001
 43
0.0000001
 44
0.0000000001
 40
0.0
 40
0.0
 40
0.0
 40
0.0
 40
0.1124710735
 40
0.2275177437
 40
0.3458429421
 40
0.4680837265
 40
0.7252796178
 40
0.8605860237
 40
1.0
 40
1.0
 40
1.0
 40
1.0
 10
10.6112327777
 20
9.2155683601
 30
0.0
 10
10.608266539
 20
9.2163360782
 30
0.0
 10
10.6023701055
 20
9.2183219874
 30
0.0
 10
10.593907595
 20
9.2225218061
 30
0.0
 10
10.5858286494
 20
9.2279138459
 30
0.0
 10
10.5754891106
 20
9.2367259344
 30
0.0
 10
10.5663521853
 20
9.2474999973
 30
0.0
 10
10.5584373584
 20
9.2596464185
 30
0.0
 10
10.5548392714
 20
9.266219183
 30
0.0
 10
10.5531296881
 20
9.2696106247
 30
0.0
  0
SPLINE
  5
344
100
AcDbEntity
  8
0
100
AcDbSpline
 62
7
  6
CONTINUOUS
 70
0
 71
3
 72
29
 73
25
 74
0
 42
0.0000001
 43
0.0000001
 44
0.0000000001
 40
0.0
 40
0.0
 40
0.0
 40
0.0
 40
0.0895506406
 40
0.1770507968
 40
0.2620483556
 40
0.3441544824
 40
0.4229839746
 40
0.4981742989
 40
0.5693929277
 40
0.6363395087
 40
0.698751191
 40
0.7281879105
 40
0.7564138161
 40
0.7834102096
 40
0.8091622454
 40
0.8336615237
 40
0.8569041625
 40
0.8788924446
 40
0.8996379226
 40
0.9191602075
 40
0.9374896541
 40
0.954671417
 40
0.9707657039
 40
1.0
 40
1.0
 40
1.0
 40
1.0
 10
10.8514379907
 20
6.5068935121
 30
0.0
 10
10.8381489947
 20
6.5078151071
 30
0.0
 10
10.8118925038
 20
6.5098978203
 30
0.0
 10
10.7731039166
 20
6.5137890141
 30
0.0
 10
10.7355088663
 20
6.5183963301
 30
0.0
 10
10.699307685
 20
6.5236944902
 30
0.0
 10
10.6646886498
 20
6.5296552567
 30
0.0
 10
10.6318338709
 20
6.5362467828
 30
0.0
 10
10.6009154129
 20
6.5434338796
 30
0.0
 10
10.5720951589
 20
6.5511780107
 30
0.0
 10
10.5495307531
 20
6.5581907549
 30
0.0
 10
10.5326660384
 20
6.5640784183
 30
0.0
 10
10.5208809081
 20
6.5685210133
 30
0.0
 10
10.5097264177
 20
6.5730708654
 30
0.0
 10
10.4992172276
 20
6.5777224883
 30
0.0
 10
10.4893667683
 20
6.5824693394
 30
0.0
 10
10.4801877502
 20
6.5873053408
 30
0.0
 10
10.4716921539
 20
6.5922247211
 30
0.0
 10
10.4638905614
 20
6.5972207444
 30
0.0
 10
10.4567926929
 20
6.602287547
 30
0.0
 10
10.4504083195
 20
6.6074189788
 30
0.0
 10
10.4447433939
 20
6.6126107036
 30
0.0
 10
10.438368122
 20
6.6193835804
 30
0.0
 10
10.4343472236
 20
6.6248633163
 30
0.0
 10
10.43218804
 20
6.6286380997
 30
0.0
  0
SPLINE
  5
345
100
AcDbEntity
  8
0
100
AcDbSpline
 62
7
  6
CONTINUOUS
 70
0
 71
3
 72
20
 73
16
 74
0
 42
0.0000001
 43
0.0000001
 44
0.0000000001
 40
0.0
 40
0.0
 40
0.0
 40
0.0
 40
0.1229707425
 40
0.1846327203
 40
0.2464266267
 40
0.3083647845
 40
0.3704579689
 40
0.4327147201
 40
0.4951402582
 40
0.5577356228
 40
0.6204976429
 40
0.6834195576
 40
0.7464915229
 40
0.8730203364
 40
1.0
 40
1.0
 40
1.0
 40
1.0
 10
11.1701570725
 20
4.7782836978
 30
0.0
 10
11.1425472841
 20
4.7726356027
 30
0.0
 10
11.1008665885
 20
4.7651861186
 30
0.0
 10
11.0448758207
 20
4.7577562224
 30
0.0
 10
11.0025900055
 20
4.7535374493
 30
0.0
 10
10.9600837245
 20
4.7507871055
 30
0.0
 10
10.917397931
 20
4.749599478
 30
0.0
 10
10.874585626
 20
4.7500475234
 30
0.0
 10
10.8317083789
 20
4.7521764354
 30
0.0
 10
10.7888326642
 20
4.755999084
 30
0.0
 10
10.7460247863
 20
4.7614929409
 30
0.0
 10
10.703345513
 20
4.7686041618
 30
0.0
 10
10.6466260155
 20
4.7801456279
 30
0.0
 10
10.576297814
 20
4.7981742292
 30
0.0
 10
10.5209002075
 20
4.8157705153
 30
0.0
 10
10.493376362
 20
4.8252185994
 30
0.0
  0
SPLINE
  5
346
100
AcDbEntity
  8
0
100
AcDbSpline
 62
7
  6
CONTINUOUS
 70
0
 71
3
 72
11
 73
7
 74
0
 42
0.0000001
 43
0.0000001
 44
0.0000000001
 40
0.0
 40
0.0
 40
0.0
 40
0.0
 40
0.2465215427
 40
0.4944166391
 40
0.7450505153
 40
1.0
 40
1.0
 40
1.0
 40
1.0
 10
10.4628158521
 20
4.8331282314
 30
0.0
 10
10.4602572418
 20
4.8329840436
 30
0.0
 10
10.4551141974
 20
4.8328664929
 30
0.0
 10
10.4473715189
 20
4.8332422941
 30
0.0
 10
10.4395912691
 20
4.834208202
 30
0.0
 10
10.4344353976
 20
4.8352601514
 30
0.0
 10
10.4318613397
 20
4.8358911945
 30
0.0
  0
SPLINE
  5
347
100
AcDbEntity
  8
0
100
AcDbSpline
 62
7
  6
CONTINUOUS
 70
0
 71
3
 72
9
 73
5
 74
0
 42
0.0000001
 43
0.0000001
 44
0.0000000001
 40
0.0
 40
0.0
 40
0.0
 40
0.0
 40
0.4899275343
 40
1.0
 40
1.0
 40
1.0
 40
1.0
 10
10.4287842628
 20
4.8366966122
 30
0.0
 10
10.4256098768
 20
4.8375804549
 30
0.0
 10
10.4192143362
 20
4.839698557
 30
0.0
 10
10.4130471045
 20
4.8424088053
 30
0.0
 10
10.4099704104
 20
4.8439264119
 30
0.0
  0
SPLINE
  5
348
100
AcDbEntity
  8
0
100
AcDbSpline
 62
7
  6
CONTINUOUS
 70
0
 71
3
 72
11
 73
7
 74
0
 42
0.0000001
 43
0.0000001
 44
0.0000000001
 40
0.0
 40
0.0
 40
0.0
 40
0.0
 40
0.2573836131
 40
0.5086694388
 40
0.7554789019
 40
1.0
 40
1.0
 40
1.0
 40
1.0
 10
10.6139197828
 20
6.6717888182
 30
0.0
 10
10.6165435958
 20
6.6711097263
 30
0.0
 10
10.6218119764
 20
6.6700639588
 30
0.0
 10
10.6297660598
 20
6.6694781417
 30
0.0
 10
10.6375953725
 20
6.6699083878
 30
0.0
 10
10.6426967547
 20
6.6708721509
 30
0.0
 10
10.645189404
 20
6.671517464
 30
0.0
  0
SPLINE
  5
349
100
AcDbEntity
  8
0
100
AcDbSpline
 62
7
  6
CONTINUOUS
 70
0
 71
3
 72
20
 73
16
 74
0
 42
0.0000001
 43
0.0000001
 44
0.0000000001
 40
0.0
 40
0.0
 40
0.0
 40
0.0
 40
0.1448827459
 40
0.2870635554
 40
0.424944108
 40
0.4917918516
 40
0.5569957735
 40
0.6203791493
 40
0.6817714172
 40
0.7410118145
 40
0.7979472495
 40
0.8524370363
 40
0.904350376
 40
0.9535719976
 40
1.0
 40
1.0
 40
1.0
 40
1.0
 10
10.9528888352
 20
6.4787632439
 30
0.0
 10
10.9286480992
 20
6.479209027
 30
0.0
 10
10.8806281225
 20
6.4807750243
 30
0.0
 10
10.8096439555
 20
6.4851738326
 30
0.0
 10
10.751829649
 20
6.4905441388
 30
0.0
 10
10.7069697447
 20
6.495850218
 30
0.0
 10
10.6745619005
 20
6.5002571435
 30
0.0
 10
10.6431424404
 20
6.5051181012
 30
0.0
 10
10.6128065571
 20
6.5104189038
 30
0.0
 10
10.5836462315
 20
6.5161425734
 30
0.0
 10
10.5557497716
 20
6.5222723336
 30
0.0
 10
10.5292015806
 20
6.5287885297
 30
0.0
 10
10.5040817348
 20
6.5356720847
 30
0.0
 10
10.4804662885
 20
6.5429008543
 30
0.0
 10
10.4653207925
 20
6.5480909435
 30
0.0
 10
10.4580209299
 20
6.5507506826
 30
0.0
  0
SPLINE
  5
34A
100
AcDbEntity
  8
0
100
AcDbSpline
 62
7
  6
CONTINUOUS
 70
0
 71
3
 72
19
 73
15
 74
0
 42
0.0000001
 43
0.0000001
 44
0.0000000001
 40
0.0
 40
0.0
 40
0.0
 40
0.0
 40
0.1430602577
 40
0.2836932973
 40
0.4204425837
 40
0.5519053695
 40
0.6152383541
 40
0.6767592406
 40
0.7363173925
 40
0.7937704318
 40
0.8489838855
 40
0.9018338663
 40
0.9522060893
 40
1.0
 40
1.0
 40
1.0
 40
1.0
 10
10.9554234508
 20
6.4659746036
 30
0.0
 10
10.9317834613
 20
6.4663794093
 30
0.0
 10
10.8849128443
 20
6.4678218262
 30
0.0
 10
10.8155375217
 20
6.4719046089
 30
0.0
 10
10.7482200193
 20
6.4778492155
 30
0.0
 10
10.6938048982
 20
6.4843755306
 30
0.0
 10
10.6518889003
 20
6.4905146369
 30
0.0
 10
10.6218165023
 20
6.4954793599
 30
0.0
 10
10.5928011041
 20
6.5008474972
 30
0.0
 10
10.5649235782
 20
6.5066038151
 30
0.0
 10
10.5382616557
 20
6.5127323488
 30
0.0
 10
10.512889434
 20
6.5192154267
 30
0.0
 10
10.4888778048
 20
6.5260351486
 30
0.0
 10
10.4734049605
 20
6.5309244809
 30
0.0
 10
10.465914339
 20
6.5334309933
 30
0.0
  0
SPLINE
  5
34B
100
AcDbEntity
  8
0
100
AcDbSpline
 62
7
  6
CONTINUOUS
 70
0
 71
3
 72
23
 73
19
 74
0
 42
0.0000001
 43
0.0000001
 44
0.0000000001
 40
0.0
 40
0.0
 40
0.0
 40
0.0
 40
0.0511623965
 40
0.1041802151
 40
0.1596322192
 40
0.2178432158
 40
0.2788444356
 40
0.3424437623
 40
0.4082745935
 40
0.4758417656
 40
0.5445530075
 40
0.6137457534
 40
0.6827112909
 40
0.7507221988
 40
0.8170658086
 40
0.8810809083
 40
0.9422017091
 40
1.0
 40
1.0
 40
1.0
 40
1.0
 10
10.5941207974
 20
6.6510494938
 30
0.0
 10
10.5899292807
 20
6.6521343367
 30
0.0
 10
10.581597491
 20
6.6552095609
 30
0.0
 10
10.5699507645
 20
6.6621839421
 30
0.0
 10
10.5591733619
 20
6.6713736785
 30
0.0
 10
10.5494009519
 20
6.6825220575
 30
0.0
 10
10.5407107004
 20
6.6953626108
 30
0.0
 10
10.5331435929
 20
6.7096207238
 30
0.0
 10
10.5267149699
 20
6.7250247886
 30
0.0
 10
10.5214250025
 20
6.7413072796
 30
0.0
 10
10.5172659368
 20
6.758205022
 30
0.0
 10
10.5142269816
 20
6.7754581322
 30
0.0
 10
10.5122979355
 20
6.79280983
 30
0.0
 10
10.5114716785
 20
6.8100074699
 30
0.0
 10
10.5117448496
 20
6.8268043994
 30
0.0
 10
10.5131187979
 20
6.8429644016
 30
0.0
 10
10.5155991832
 20
6.8582608584
 30
0.0
 10
10.5180719572
 20
6.8680346591
 30
0.0
 10
10.519520612
 20
6.8727064017
 30
0.0
  0
SPLINE
  5
34C
100
AcDbEntity
  8
0
100
AcDbSpline
 62
7
  6
CONTINUOUS
 70
0
 71
3
 72
15
 73
11
 74
0
 42
0.0000001
 43
0.0000001
 44
0.0000000001
 40
0.0
 40
0.0
 40
0.0
 40
0.0
 40
0.144226355
 40
0.2845945107
 40
0.4201871872
 40
0.5502080515
 40
0.6738765558
 40
0.7904779298
 40
0.8993715018
 40
1.0
 40
1.0
 40
1.0
 40
1.0
 10
10.8577014064
 20
8.8346429611
 30
0.0
 10
10.8432900993
 20
8.8356423886
 30
0.0
 10
10.814873928
 20
8.8379337328
 30
0.0
 10
10.7730116817
 20
8.8423119601
 30
0.0
 10
10.7326837127
 20
8.8475630219
 30
0.0
 10
10.6941653245
 20
8.8536496029
 30
0.0
 10
10.6577141674
 20
8.8605302651
 30
0.0
 10
10.6235755937
 20
8.8681572978
 30
0.0
 10
10.591979671
 20
8.8764775268
 30
0.0
 10
10.5719284605
 20
8.8827036946
 30
0.0
 10
10.562386711
 20
8.8859507237
 30
0.0
  0
SPLINE
  5
34D
100
AcDbEntity
  8
0
100
AcDbSpline
 62
7
  6
CONTINUOUS
 70
0
 71
3
 72
19
 73
15
 74
0
 42
0.0000001
 43
0.0000001
 44
0.0000000001
 40
0.0
 40
0.0
 40
0.0
 40
0.0
 40
0.132392472
 40
0.1976120755
 40
0.2621838757
 40
0.3261276496
 40
0.3894717073
 40
0.4522541629
 40
0.5145190467
 40
0.5763160441
 40
0.6376973123
 40
0.7594047185
 40
0.8800592662
 40
1.0
 40
1.0
 40
1.0
 40
1.0
 10
11.5715314942
 20
4.8355511249
 30
0.0
 10
11.5566796564
 20
4.8289363458
 30
0.0
 10
11.5342122188
 20
4.8197083331
 30
0.0
 10
11.5038523481
 20
4.808973538
 30
0.0
 10
11.481156063
 20
4.8018210627
 30
0.0
 10
11.4584411606
 20
4.795544296
 30
0.0
 10
11.4357250849
 20
4.790154761
 30
0.0
 10
11.4130272839
 20
4.7856499324
 30
0.0
 10
11.3903653859
 20
4.7820223211
 30
0.0
 10
11.367756041
 20
4.7792523692
 30
0.0
 10
11.3377882729
 20
4.7766760683
 30
0.0
 10
11.3004761841
 20
4.7754393438
 30
0.0
 10
11.2559802905
 20
4.776848552
 30
0.0
 10
11.2265356327
 20
4.7794908457
 30
0.0
 10
11.2119034936
 20
4.781178827
 30
0.0
  0
SPLINE
  5
34E
100
AcDbEntity
  8
0
100
AcDbSpline
 62
7
  6
CONTINUOUS
 70
0
 71
3
 72
15
 73
11
 74
0
 42
0.0000001
 43
0.0000001
 44
0.0000000001
 40
0.0
 40
0.0
 40
0.0
 40
0.0
 40
0.1706879297
 40
0.3254727862
 40
0.4649230268
 40
0.5901710096
 40
0.7030863519
 40
0.8064206464
 40
0.9039092059
 40
1.0
 40
1.0
 40
1.0
 40
1.0
 10
10.5848047174
 20
6.8258354632
 30
0.0
 10
10.5851364944
 20
6.8250281956
 30
0.0
 10
10.5858178694
 20
6.8235079723
 30
0.0
 10
10.5869618696
 20
6.8214205905
 30
0.0
 10
10.5881763128
 20
6.8196472395
 30
0.0
 10
10.5894596877
 20
6.8181965448
 30
0.0
 10
10.5908089432
 20
6.8170749755
 30
0.0
 10
10.5922230823
 20
6.8162935295
 30
0.0
 10
10.5936928721
 20
6.815864114
 30
0.0
 10
10.5946925377
 20
6.8158183369
 30
0.0
 10
10.5951827062
 20
6.815852329
 30
0.0
  0
SPLINE
  5
34F
100
AcDbEntity
  8
0
100
AcDbSpline
 62
7
  6
CONTINUOUS
 70
0
 71
3
 72
11
 73
7
 74
0
 42
0.0000001
 43
0.0000001
 44
0.0000000001
 40
0.0
 40
0.0
 40
0.0
 40
0.0
 40
0.2370899626
 40
0.4846770969
 40
0.7399551172
 40
1.0
 40
1.0
 40
1.0
 40
1.0
 10
10.6701263294
 20
6.3093658009
 30
0.0
 10
10.6925639156
 20
6.3061141622
 30
0.0
 10
10.7385612392
 20
6.3003337719
 30
0.0
 10
10.8090341274
 20
6.293851949
 30
0.0
 10
10.8818643691
 20
6.2894218985
 30
0.0
 10
10.9311267708
 20
6.2878821776
 30
0.0
 10
10.9559902809
 20
6.287461856
 30
0.0
  0
SPLINE
  5
350
100
AcDbEntity
  8
0
100
AcDbSpline
 62
7
  6
CONTINUOUS
 70
0
 71
3
 72
15
 73
11
 74
0
 42
0.0000001
 43
0.0000001
 44
0.0000000001
 40
0.0
 40
0.0
 40
0.0
 40
0.0
 40
0.1545074165
 40
0.3009392752
 40
0.4390462768
 40
0.5686190452
 40
0.6895216486
 40
0.8016826275
 40
0.9051282094
 40
1.0
 40
1.0
 40
1.0
 40
1.0
 10
10.6885058711
 20
6.7138968859
 30
0.0
 10
10.6835630479
 20
6.7152753866
 30
0.0
 10
10.6739706483
 20
6.7180881575
 30
0.0
 10
10.6601061496
 20
6.7226118158
 30
0.0
 10
10.6471792937
 20
6.7273162226
 30
0.0
 10
10.6352254281
 20
6.7321893674
 30
0.0
 10
10.624276535
 20
6.7372169661
 30
0.0
 10
10.61436154
 20
6.7423862955
 30
0.0
 10
10.6055071881
 20
6.7476831125
 30
0.0
 10
10.6000955983
 20
6.7514510142
 30
0.0
 10
10.597590071
 20
6.7533615612
 30
0.0
  0
SPLINE
  5
351
100
AcDbEntity
  8
0
100
AcDbSpline
 62
7
  6
CONTINUOUS
 70
0
 71
3
 72
15
 73
11
 74
0
 42
0.0000001
 43
0.0000001
 44
0.0000000001
 40
0.0
 40
0.0
 40
0.0
 40
0.0
 40
0.1606278017
 40
0.3114443758
 40
0.4521311253
 40
0.5824570896
 40
0.7022994631
 40
0.8116705591
 40
0.9107616729
 40
1.0
 40
1.0
 40
1.0
 40
1.0
 10
10.6892008688
 20
6.7158452974
 30
0.0
 10
10.6837488537
 20
6.717402966
 30
0.0
 10
10.673223159
 20
6.720585817
 30
0.0
 10
10.6581166833
 20
6.7257473581
 30
0.0
 10
10.6442285122
 20
6.7311314719
 30
0.0
 10
10.6316069461
 20
6.7367191245
 30
0.0
 10
10.6202950489
 20
6.7424905973
 30
0.0
 10
10.6103300213
 20
6.7484274264
 30
0.0
 10
10.6017454494
 20
6.7545094281
 30
0.0
 10
10.5967070366
 20
6.7588709204
 30
0.0
 10
10.5944605362
 20
6.7610791933
 30
0.0
  0
SPLINE
  5
352
100
AcDbEntity
  8
0
100
AcDbSpline
 62
7
  6
CONTINUOUS
 70
0
 71
3
 72
19
 73
15
 74
0
 42
0.0000001
 43
0.0000001
 44
0.0000000001
 40
0.0
 40
0.0
 40
0.0
 40
0.0
 40
0.1700331399
 40
0.3274867502
 40
0.4719272157
 40
0.5391910231
 40
0.6031222695
 40
0.6637246752
 40
0.721023278
 40
0.7750613943
 40
0.8259079195
 40
0.8736685363
 40
0.9184847648
 40
1.0
 40
1.0
 40
1.0
 40
1.0
 10
10.6914232058
 20
6.7227822537
 30
0.0
 10
10.6851421321
 20
6.7246021108
 30
0.0
 10
10.6731068073
 20
6.7283289121
 30
0.0
 10
10.6560140578
 20
6.7344513459
 30
0.0
 10
10.6429030915
 20
6.7399212838
 30
0.0
 10
10.6333221701
 20
6.7444621854
 30
0.0
 10
10.6267672662
 20
6.7478488001
 30
0.0
 10
10.6206791113
 20
6.7512933886
 30
0.0
 10
10.6150648916
 20
6.7547915706
 30
0.0
 10
10.6099313421
 20
6.7583393799
 30
0.0
 10
10.6052852541
 20
6.7619327775
 30
0.0
 10
10.6011307821
 20
6.7655686045
 30
0.0
 10
10.596405675
 20
6.7703148219
 30
0.0
 10
10.5933683424
 20
6.7741498471
 30
0.0
 10
10.5916907817
 20
6.7767982939
 30
0.0
  0
SPLINE
  5
353
100
AcDbEntity
  8
0
100
AcDbSpline
 62
7
  6
CONTINUOUS
 70
0
 71
3
 72
11
 73
7
 74
0
 42
0.0000001
 43
0.0000001
 44
0.0000000001
 40
0.0
 40
0.0
 40
0.0
 40
0.0
 40
0.2822294866
 40
0.5434257864
 40
0.7828319836
 40
1.0
 40
1.0
 40
1.0
 40
1.0
 10
10.6933554763
 20
6.7291809894
 30
0.0
 10
10.6869179375
 20
6.7310201705
 30
0.0
 10
10.6745857335
 20
6.7347893385
 30
0.0
 10
10.657074595
 20
6.740992886
 30
0.0
 10
10.641332305
 20
6.7475026852
 30
0.0
 10
10.6315891396
 20
6.752257357
 30
0.0
 10
10.6270536617
 20
6.7547006185
 30
0.0
  0
SPLINE
  5
354
100
AcDbEntity
  8
0
100
AcDbSpline
 62
7
  6
CONTINUOUS
 70
0
 71
3
 72
9
 73
5
 74
0
 42
0.0000001
 43
0.0000001
 44
0.0000000001
 40
0.0
 40
0.0
 40
0.0
 40
0.0
 40
0.5176597403
 40
1.0
 40
1.0
 40
1.0
 40
1.0
 10
10.661255002
 20
6.6854931902
 30
0.0
 10
10.6570220008
 20
6.6870551717
 30
0.0
 10
10.6488992339
 20
6.6902231395
 30
0.0
 10
10.6409205445
 20
6.6937411874
 30
0.0
 10
10.6371193061
 20
6.6955371311
 30
0.0
  0
SPLINE
  5
355
100
AcDbEntity
  8
0
100
AcDbSpline
 62
7
  6
CONTINUOUS
 70
0
 71
3
 72
11
 73
7
 74
0
 42
0.0000001
 43
0.0000001
 44
0.0000000001
 40
0.0
 40
0.0
 40
0.0
 40
0.0
 40
0.2678133563
 40
0.5235091254
 40
0.7673066701
 40
1.0
 40
1.0
 40
1.0
 40
1.0
 10
10.589333686
 20
9.2614062542
 30
0.0
 10
10.592452987
 20
9.2583144918
 30
0.0
 10
10.5988792805
 20
9.2525894122
 30
0.0
 10
10.6092276668
 20
9.2453744001
 30
0.0
 10
10.6199211455
 20
9.2398352627
 30
0.0
 10
10.6273375042
 20
9.237263828
 30
0.0
 10
10.6310317632
 20
9.2363076846
 30
0.0
  0
SPLINE
  5
356
100
AcDbEntity
  8
0
100
AcDbSpline
 62
7
  6
CONTINUOUS
 70
0
 71
3
 72
14
 73
10
 74
0
 42
0.0000001
 43
0.0000001
 44
0.0000000001
 40
0.0
 40
0.0
 40
0.0
 40
0.0
 40
0.2607373122
 40
0.3873462694
 40
0.5117799801
 40
0.6345405815
 40
0.7563120868
 40
0.8778891449
 40
1.0
 40
1.0
 40
1.0
 40
1.0
 10
10.672559229
 20
9.2305261803
 30
0.0
 10
10.6681114619
 20
9.2269805824
 30
0.0
 10
10.660973857
 20
9.2223137174
 30
0.0
 10
10.6507475783
 20
9.2177906334
 30
0.0
 10
10.6429474389
 20
9.2153470999
 30
0.0
 10
10.6350162443
 20
9.2138653494
 30
0.0
 10
10.627023559
 20
9.2133716114
 30
0.0
 10
10.619047387
 20
9.2138888095
 30
0.0
 10
10.6138116794
 20
9.2149008921
 30
0.0
 10
10.6112327777
 20
9.2155683601
 30
0.0
  0
SPLINE
  5
357
100
AcDbEntity
  8
0
100
AcDbSpline
 62
7
  6
CONTINUOUS
 70
0
 71
3
 72
19
 73
15
 74
0
 42
0.0000001
 43
0.0000001
 44
0.0000000001
 40
0.0
 40
0.0
 40
0.0
 40
0.0
 40
0.1137125753
 40
0.1735355487
 40
0.2350756326
 40
0.298101502
 40
0.3623407819
 40
0.4274910151
 40
0.4932258034
 40
0.6250101282
 40
0.7550276933
 40
0.8185978812
 40
0.8807925461
 40
1.0
 40
1.0
 40
1.0
 40
1.0
 10
10.5365535773
 20
6.8703473251
 30
0.0
 10
10.5336458636
 20
6.8638606134
 30
0.0
 10
10.5302018019
 20
6.8534905581
 30
0.0
 10
10.5273407221
 20
6.8390680063
 30
0.0
 10
10.5260043681
 20
6.8276054073
 30
0.0
 10
10.5255298331
 20
6.8158016738
 30
0.0
 10
10.5259192657
 20
6.8037691338
 30
0.0
 10
10.5271704028
 20
6.7916252899
 30
0.0
 10
10.5299711476
 20
6.7754346342
 30
0.0
 10
10.5355039121
 20
6.7556521057
 30
0.0
 10
10.543605916
 20
6.736919357
 30
0.0
 10
10.5515012151
 20
6.7229983683
 30
0.0
 10
10.5600291562
 20
6.7102686018
 30
0.0
 10
10.5674245239
 20
6.7015821227
 30
0.0
 10
10.5727487897
 20
6.6963680929
 30
0.0
  0
SPLINE
  5
358
100
AcDbEntity
  8
0
100
AcDbSpline
 62
7
  6
CONTINUOUS
 70
0
 71
3
 72
11
 73
7
 74
0
 42
0.0000001
 43
0.0000001
 44
0.0000000001
 40
0.0
 40
0.0
 40
0.0
 40
0.0
 40
0.2675874483
 40
0.5231981067
 40
0.7670756642
 40
1.0
 40
1.0
 40
1.0
 40
1.0
 10
10.5727487897
 20
6.6963680929
 30
0.0
 10
10.5758369508
 20
6.6933438704
 30
0.0
 10
10.5821937714
 20
6.6877434146
 30
0.0
 10
10.5924141871
 20
6.6806838857
 30
0.0
 10
10.6029656069
 20
6.6752575051
 30
0.0
 10
10.6102773723
 20
6.6727315423
 30
0.0
 10
10.6139197828
 20
6.6717888182
 30
0.0
  0
SPLINE
  5
359
100
AcDbEntity
  8
0
100
AcDbSpline
 62
7
  6
CONTINUOUS
 70
0
 71
3
 72
18
 73
14
 74
0
 42
0.0000001
 43
0.0000001
 44
0.0000000001
 40
0.0
 40
0.0
 40
0.0
 40
0.0
 40
0.1373416532
 40
0.2704500243
 40
0.3993187053
 40
0.5241596967
 40
0.645493327
 40
0.7051655216
 40
0.7643382258
 40
0.8232024594
 40
0.8819703407
 40
0.9408433534
 40
1.0
 40
1.0
 40
1.0
 40
1.0
 10
10.678085414
 20
6.6915544743
 30
0.0
 10
10.6756448792
 20
6.6876934872
 30
0.0
 10
10.6703846806
 20
6.6803646068
 30
0.0
 10
10.6613122408
 20
6.6706162712
 30
0.0
 10
10.6513176291
 20
6.662447424
 30
0.0
 10
10.6405666605
 20
6.6560306087
 30
0.0
 10
10.6310656405
 20
6.6522561834
 30
0.0
 10
10.6233152725
 20
6.6502874463
 30
0.0
 10
10.6174726248
 20
6.6493437794
 30
0.0
 10
10.6115986958
 20
6.6489339589
 30
0.0
 10
10.6057215241
 20
6.6490676018
 30
0.0
 10
10.5998729068
 20
6.6497460516
 30
0.0
 10
10.5960254446
 20
6.6505565354
 30
0.0
 10
10.5941207974
 20
6.6510494938
 30
0.0
  0
SPLINE
  5
35A
100
AcDbEntity
  8
0
100
AcDbSpline
 62
7
  6
CONTINUOUS
 70
0
 71
3
 72
39
 73
35
 74
0
 42
0.0000001
 43
0.0000001
 44
0.0000000001
 40
0.0
 40
0.0
 40
0.0
 40
0.0
 40
0.0311450333
 40
0.0624431288
 40
0.0938883325
 40
0.1254709893
 40
0.1571788812
 40
0.1889972568
 40
0.2209091708
 40
0.2528958386
 40
0.2849370172
 40
0.3170114072
 40
0.3490970669
 40
0.3811718372
 40
0.413213769
 40
0.4452015481
 40
0.4771149106
 40
0.5089350428
 40
0.5406449654
 40
0.5722298856
 40
0.6036775156
 40
0.6349783564
 40
0.6661259294
 40
0.6971169509
 40
0.7279514545
 40
0.7586328388
 40
0.7891678409
 40
0.8195664412
 40
0.8498416838
 40
0.8800094165
 40
0.9100879631
 40
0.9400977203
 40
0.9700606956
 40
1.0
 40
1.0
 40
1.0
 40
1.0
 10
10.482362337
 20
9.47163329
 30
0.0
 10
10.4988732417
 20
9.4704882549
 30
0.0
 10
10.5319046673
 20
9.4669840193
 30
0.0
 10
10.5810513303
 20
9.4581567722
 30
0.0
 10
10.6296715928
 20
9.4457924648
 30
0.0
 10
10.6775028533
 20
9.4299575279
 30
0.0
 10
10.7242910198
 20
9.4107368718
 30
0.0
 10
10.7697865123
 20
9.3882333395
 30
0.0
 10
10.8137469376
 20
9.3625671148
 30
0.0
 10
10.8559380735
 20
9.3338752916
 30
0.0
 10
10.8961351428
 20
9.3023109823
 30
0.0
 10
10.9341239111
 20
9.2680424735
 30
0.0
 10
10.9697019647
 20
9.2312525063
 30
0.0
 10
11.0026796959
 20
9.1921371912
 30
0.0
 10
11.0328812244
 20
9.1509049299
 30
0.0
 10
11.060145496
 20
9.1077754565
 30
0.0
 10
11.0843270543
 20
9.0629785936
 30
0.0
 10
11.1052967067
 20
9.0167530014
 30
0.0
 10
11.1229423965
 20
8.9693450247
 30
0.0
 10
11.137169736
 20
8.9210073408
 30
0.0
 10
11.1479023789
 20
8.8719976026
 30
0.0
 10
11.1550826307
 20
8.8225771466
 30
0.0
 10
11.1586717246
 20
8.7730095827
 30
0.0
 10
11.1586498866
 20
8.7235593997
 30
0.0
 10
11.1550166548
 20
8.6744905932
 30
0.0
 10
11.147790893
 20
8.6260652392
 30
0.0
 10
11.1370105435
 20
8.5785421298
 30
0.0
 10
11.1227326305
 20
8.5321753709
 30
0.0
 10
11.1050330255
 20
8.4872130041
 30
0.0
 10
11.0840057988
 20
8.4438956476
 30
0.0
 10
11.0597632223
 20
8.4024554525
 30
0.0
 10
11.0324340298
 20
8.3631136183
 30
0.0
 10
11.0021670014
 20
8.3260835931
 30
0.0
 10
10.9801285848
 20
8.3030606896
 30
0.0
 10
10.9686853695
 20
8.2920073813
 30
0.0
  0
SPLINE
  5
35B
100
AcDbEntity
  8
0
100
AcDbSpline
 62
7
  6
CONTINUOUS
 70
0
 71
3
 72
39
 73
35
 74
0
 42
0.0000001
 43
0.0000001
 44
0.0000000001
 40
0.0
 40
0.0
 40
0.0
 40
0.0
 40
0.0311450333
 40
0.0624431288
 40
0.0938883325
 40
0.1254709893
 40
0.1571788812
 40
0.1889972568
 40
0.2209091708
 40
0.2528958386
 40
0.2849370172
 40
0.3170114072
 40
0.3490970669
 40
0.3811718372
 40
0.413213769
 40
0.4452015481
 40
0.4771149106
 40
0.5089350428
 40
0.5406449654
 40
0.5722298856
 40
0.6036775156
 40
0.6349783564
 40
0.6661259294
 40
0.6971169509
 40
0.7279514545
 40
0.7586328388
 40
0.7891678409
 40
0.8195664412
 40
0.8498416838
 40
0.8800094165
 40
0.9100879631
 40
0.9400977203
 40
0.9700606956
 40
1.0
 40
1.0
 40
1.0
 40
1.0
 10
10.482362337
 20
7.0691824575
 30
0.0
 10
10.4988732417
 20
7.0680374224
 30
0.0
 10
10.5319046673
 20
7.0645331869
 30
0.0
 10
10.5810513303
 20
7.0557059398
 30
0.0
 10
10.6296715928
 20
7.0433416324
 30
0.0
 10
10.6775028533
 20
7.0275066954
 30
0.0
 10
10.7242910198
 20
7.0082860394
 30
0.0
 10
10.7697865123
 20
6.9857825071
 30
0.0
 10
10.8137469376
 20
6.9601162824
 30
0.0
 10
10.8559380735
 20
6.9314244591
 30
0.0
 10
10.8961351428
 20
6.8998601499
 30
0.0
 10
10.9341239111
 20
6.8655916411
 30
0.0
 10
10.9697019647
 20
6.8288016739
 30
0.0
 10
11.0026796959
 20
6.7896863588
 30
0.0
 10
11.0328812244
 20
6.7484540975
 30
0.0
 10
11.060145496
 20
6.7053246241
 30
0.0
 10
11.0843270543
 20
6.6605277611
 30
0.0
 10
11.1052967067
 20
6.6143021689
 30
0.0
 10
11.1229423965
 20
6.5668941922
 30
0.0
 10
11.137169736
 20
6.5185565084
 30
0.0
 10
11.1479023789
 20
6.4695467701
 30
0.0
 10
11.1550826307
 20
6.4201263141
 30
0.0
 10
11.1586717246
 20
6.3705587503
 30
0.0
 10
11.1586498866
 20
6.3211085673
 30
0.0
 10
11.1550166548
 20
6.2720397607
 30
0.0
 10
11.147790893
 20
6.2236144067
 30
0.0
 10
11.1370105435
 20
6.1760912973
 30
0.0
 10
11.1227326305
 20
6.1297245384
 30
0.0
 10
11.1050330255
 20
6.0847621717
 30
0.0
 10
11.0840057988
 20
6.0414448152
 30
0.0
 10
11.0597632223
 20
6.00000462
 30
0.0
 10
11.0324340298
 20
5.9606627858
 30
0.0
 10
11.0021670014
 20
5.9236327606
 30
0.0
 10
10.9801285848
 20
5.9006098572
 30
0.0
 10
10.9686853695
 20
5.8895565488
 30
0.0
  0
SPLINE
  5
35C
100
AcDbEntity
  8
0
100
AcDbSpline
 62
7
  6
CONTINUOUS
 70
0
 71
3
 72
36
 73
32
 74
0
 42
0.0000001
 43
0.0000001
 44
0.0000000001
 40
0.0
 40
0.0
 40
0.0
 40
0.0
 40
0.084039477
 40
0.1695103585
 40
0.2553560057
 40
0.340511238
 40
0.4239223757
 40
0.5045636384
 40
0.5435382671
 40
0.5814572504
 40
0.6182079766
 40
0.6536829341
 40
0.6877805404
 40
0.7204057561
 40
0.7514708524
 40
0.7808965051
 40
0.808613118
 40
0.8345621594
 40
0.858698135
 40
0.8809915133
 40
0.9014325509
 40
0.9200366324
 40
0.9368523647
 40
0.9519735562
 40
0.9589483805
 40
0.9655643882
 40
0.9778450686
 40
0.983606525
 40
0.9891794977
 40
0.9946228116
 40
1.0
 40
1.0
 40
1.0
 40
1.0
 10
12.4777688056
 20
9.9208612885
 30
0.0
 10
12.4777688056
 20
9.9271962356
 30
0.0
 10
12.4779676015
 20
9.9399747615
 30
0.0
 10
12.478830286
 20
9.9592068403
 30
0.0
 10
12.4802500634
 20
9.9784903195
 30
0.0
 10
12.4822081116
 20
9.9975705744
 30
0.0
 10
12.484678436
 20
10.0161956542
 30
0.0
 10
12.4871635626
 20
10.0312998797
 30
0.0
 10
12.4893923062
 20
10.0429644652
 30
0.0
 10
12.4911505538
 20
10.0513491772
 30
0.0
 10
12.4930085235
 20
10.0594419349
 30
0.0
 10
12.4949600743
 20
10.0672160308
 30
0.0
 10
12.4969986818
 20
10.0746458199
 30
0.0
 10
12.4991175478
 20
10.0817068263
 30
0.0
 10
12.5013096139
 20
10.0883758163
 30
0.0
 10
12.5035675809
 20
10.0946309028
 30
0.0
 10
12.5058839169
 20
10.1004516456
 30
0.0
 10
12.5082509327
 20
10.1058191259
 30
0.0
 10
12.5106608353
 20
10.1107160277
 30
0.0
 10
12.5131057986
 20
10.1151267864
 30
0.0
 10
12.5155780341
 20
10.1190376185
 30
0.0
 10
12.5180702411
 20
10.1224368174
 30
0.0
 10
12.520575324
 20
10.1253139328
 30
0.0
 10
12.5227241464
 20
10.1273212107
 30
0.0
 10
12.5244453097
 20
10.1286364288
 30
0.0
 10
12.5260766563
 20
10.1297068234
 30
0.0
 10
12.5277491361
 20
10.1305439781
 30
0.0
 10
12.5294432302
 20
10.1310992173
 30
0.0
 10
12.530681837
 20
10.1313670195
 30
0.0
 10
12.531913502
 20
10.1314941787
 30
0.0
 10
12.5327312371
 20
10.1314848276
 30
0.0
 10
12.5331356018
 20
10.1314567866
 30
0.0
  0
SPLINE
  5
35D
100
AcDbEntity
  8
0
100
AcDbSpline
 62
7
  6
CONTINUOUS
 70
0
 71
3
 72
36
 73
32
 74
0
 42
0.0000001
 43
0.0000001
 44
0.0000000001
 40
0.0
 40
0.0
 40
0.0
 40
0.0
 40
0.084039477
 40
0.1695103585
 40
0.2553560057
 40
0.340511238
 40
0.4239223757
 40
0.5045636384
 40
0.5435382671
 40
0.5814572504
 40
0.6182079766
 40
0.6536829341
 40
0.6877805404
 40
0.7204057561
 40
0.7514708524
 40
0.7808965051
 40
0.808613118
 40
0.8345621594
 40
0.858698135
 40
0.8809915133
 40
0.9014325509
 40
0.9200366324
 40
0.9368523647
 40
0.9519735562
 40
0.9589483805
 40
0.9655643882
 40
0.9778450686
 40
0.983606525
 40
0.9891794977
 40
0.9946228116
 40
1.0
 40
1.0
 40
1.0
 40
1.0
 10
12.4777688056
 20
6.8298986455
 30
0.0
 10
12.4777688056
 20
6.8362335926
 30
0.0
 10
12.4779676015
 20
6.8490121185
 30
0.0
 10
12.478830286
 20
6.8682441973
 30
0.0
 10
12.4802500634
 20
6.8875276765
 30
0.0
 10
12.4822081116
 20
6.9066079313
 30
0.0
 10
12.484678436
 20
6.9252330111
 30
0.0
 10
12.4871635626
 20
6.9403372367
 30
0.0
 10
12.4893923062
 20
6.9520018221
 30
0.0
 10
12.4911505538
 20
6.9603865342
 30
0.0
 10
12.4930085235
 20
6.9684792918
 30
0.0
 10
12.4949600743
 20
6.9762533878
 30
0.0
 10
12.4969986818
 20
6.9836831769
 30
0.0
 10
12.4991175478
 20
6.9907441833
 30
0.0
 10
12.5013096139
 20
6.9974131732
 30
0.0
 10
12.5035675809
 20
7.0036682598
 30
0.0
 10
12.5058839169
 20
7.0094890026
 30
0.0
 10
12.5082509327
 20
7.0148564829
 30
0.0
 10
12.5106608353
 20
7.0197533847
 30
0.0
 10
12.5131057986
 20
7.0241641434
 30
0.0
 10
12.5155780341
 20
7.0280749754
 30
0.0
 10
12.5180702411
 20
7.0314741744
 30
0.0
 10
12.520575324
 20
7.0343512898
 30
0.0
 10
12.5227241464
 20
7.0363585676
 30
0.0
 10
12.5244453097
 20
7.0376737858
 30
0.0
 10
12.5260766563
 20
7.0387441804
 30
0.0
 10
12.5277491361
 20
7.0395813351
 30
0.0
 10
12.5294432302
 20
7.0401365742
 30
0.0
 10
12.530681837
 20
7.0404043765
 30
0.0
 10
12.531913502
 20
7.0405315356
 30
0.0
 10
12.5327312371
 20
7.0405221845
 30
0.0
 10
12.5331356018
 20
7.0404941435
 30
0.0
  0
SPLINE
  5
35E
100
AcDbEntity
  8
0
100
AcDbSpline
 62
7
  6
CONTINUOUS
 70
0
 71
3
 72
37
 73
33
 74
0
 42
0.0000001
 43
0.0000001
 44
0.0000000001
 40
0.0
 40
0.0
 40
0.0
 40
0.0
 40
0.0313390487
 40
0.0625418909
 40
0.0936160254
 40
0.1245738514
 40
0.1554325566
 40
0.1862134262
 40
0.2169410421
 40
0.2476423594
 40
0.2783458286
 40
0.3090804454
 40
0.3398749206
 40
0.3707568616
 40
0.4017520216
 40
0.4328835298
 40
0.4641710518
 40
0.4956299093
 40
0.527269969
 40
0.5590942685
 40
0.6232477316
 40
0.6555508799
 40
0.6879494942
 40
0.7203878796
 40
0.7527952235
 40
0.7850867325
 40
0.8171667443
 40
0.8489338791
 40
0.8802878643
 40
0.9111373257
 40
0.9414071082
 40
1.0
 40
1.0
 40
1.0
 40
1.0
 10
10.8218291164
 20
8.7369759299
 30
0.0
 10
10.8143172916
 20
8.7374968767
 30
0.0
 10
10.7993562971
 20
8.7390426002
 30
0.0
 10
10.7771747694
 20
8.7428729374
 30
0.0
 10
10.7553936971
 20
8.7481837313
 30
0.0
 10
10.734102984
 20
8.754936588
 30
0.0
 10
10.7133817019
 20
8.7630831722
 30
0.0
 10
10.6932992044
 20
8.7725672363
 30
0.0
 10
10.6739142098
 20
8.7833268957
 30
0.0
 10
10.6552751728
 20
8.7952968236
 30
0.0
 10
10.6374209552
 20
8.8084102231
 30
0.0
 10
10.6203818903
 20
8.8226004596
 30
0.0
 10
10.6041810743
 20
8.837802296
 30
0.0
 10
10.5888357506
 20
8.853952707
 30
0.0
 10
10.5743587174
 20
8.870991301
 30
0.0
 10
10.5607596896
 20
8.8888603207
 30
0.0
 10
10.548046525
 20
8.9075044047
 30
0.0
 10
10.5362265183
 20
8.926869621
 30
0.0
 10
10.5253068968
 20
8.9469036373
 30
0.0
 10
10.5119269723
 20
8.9745030785
 30
0.0
 10
10.5004298914
 20
9.0031558436
 30
0.0
 10
10.4908428894
 20
9.0326019027
 30
0.0
 10
10.4846015149
 20
9.0551003048
 30
0.0
 10
10.4793467632
 20
9.0778742489
 30
0.0
 10
10.4750987091
 20
9.1008313194
 30
0.0
 10
10.471877085
 20
9.1238678892
 30
0.0
 10
10.469699054
 20
9.1468721033
 30
0.0
 10
10.4685776276
 20
9.1697267964
 30
0.0
 10
10.4685200599
 20
9.1923132071
 30
0.0
 10
10.4695274388
 20
9.2145188708
 30
0.0
 10
10.4722519974
 20
9.243159916
 30
0.0
 10
10.4758950325
 20
9.2642521795
 30
0.0
 10
10.4790738547
 20
9.2779667763
 30
0.0
  0
SPLINE
  5
35F
100
AcDbEntity
  8
0
100
AcDbSpline
 62
7
  6
CONTINUOUS
 70
0
 71
3
 72
38
 73
34
 74
0
 42
0.0000001
 43
0.0000001
 44
0.0000000001
 40
0.0
 40
0.0
 40
0.0
 40
0.0
 40
0.0313937109
 40
0.0626299432
 40
0.0937142126
 40
0.1246572247
 40
0.1554751601
 40
0.186188803
 40
0.2168228325
 40
0.247404843
 40
0.2779643949
 40
0.3085320933
 40
0.3391387954
 40
0.3698148207
 40
0.400589257
 40
0.4314893071
 40
0.4625395771
 40
0.4937612615
 40
0.5251712061
 40
0.556780736
 40
0.6205910593
 40
0.652786871
 40
0.6851366633
 40
0.7175952636
 40
0.7500998434
 40
0.782569318
 40
0.8149056717
 40
0.8469979996
 40
0.8787292325
 40
0.9099851576
 40
0.9406642693
 40
0.9706865826
 40
1.0
 40
1.0
 40
1.0
 40
1.0
 10
10.8118904733
 20
6.270485522
 30
0.0
 10
10.8034863611
 20
6.2710683492
 30
0.0
 10
10.7867535949
 20
6.2727923364
 30
0.0
 10
10.7619514564
 20
6.2770557468
 30
0.0
 10
10.7376112955
 20
6.2829600345
 30
0.0
 10
10.7138331865
 20
6.29046117
 30
0.0
 10
10.6907046163
 20
6.299503696
 30
0.0
 10
10.6683015817
 20
6.3100232359
 30
0.0
 10
10.6466875853
 20
6.3219491461
 30
0.0
 10
10.625914079
 20
6.3352071448
 30
0.0
 10
10.6060212656
 20
6.3497216284
 30
0.0
 10
10.5870393401
 20
6.3654176165
 30
0.0
 10
10.5689899653
 20
6.382222236
 30
0.0
 10
10.5518878659
 20
6.4000657413
 30
0.0
 10
10.5357424302
 20
6.4188820847
 30
0.0
 10
10.5205592564
 20
6.4386090402
 30
0.0
 10
10.5063415471
 20
6.4591880404
 30
0.0
 10
10.4930915684
 20
6.4805632549
 30
0.0
 10
10.4808112637
 20
6.5026818128
 30
0.0
 10
10.4656907966
 20
6.5331829771
 30
0.0
 10
10.4525827733
 20
6.5648776896
 30
0.0
 10
10.4414954616
 20
6.597495659
 30
0.0
 10
10.4341677682
 20
6.6224821026
 30
0.0
 10
10.4278725263
 20
6.6478328559
 30
0.0
 10
10.4226300204
 20
6.6734550077
 30
0.0
 10
10.4184620659
 20
6.6992404869
 30
0.0
 10
10.4153895958
 20
6.7250680544
 30
0.0
 10
10.4134306321
 20
6.7508053913
 30
0.0
 10
10.4125980858
 20
6.7763139819
 30
0.0
 10
10.4128980586
 20
6.8014554753
 30
0.0
 10
10.4143290775
 20
6.8260993257
 30
0.0
 10
10.4168820898
 20
6.8501280348
 30
0.0
 10
10.4193525821
 20
6.8658658593
 30
0.0
 10
10.4207766488
 20
6.8736019436
 30
0.0
  0
SPLINE
  5
360
100
AcDbEntity
  8
0
100
AcDbSpline
 62
7
  6
CONTINUOUS
 70
0
 71
3
 72
23
 73
19
 74
0
 42
0.0000001
 43
0.0000001
 44
0.0000000001
 40
0.0
 40
0.0
 40
0.0
 40
0.0
 40
0.0616482082
 40
0.1233194433
 40
0.1850364753
 40
0.2468215633
 40
0.3086962098
 40
0.3706809249
 40
0.4327950058
 40
0.4950563324
 40
0.5574811837
 40
0.6200840682
 40
0.6828776059
 40
0.7458723334
 40
0.8090768587
 40
0.8724970864
 40
0.9361379291
 40
1.0
 40
1.0
 40
1.0
 40
1.0
 10
9.9960393045
 20
9.2989629618
 30
0.0
 10
10.0038947517
 20
9.3065507488
 30
0.0
 10
10.0200201457
 20
9.3213096303
 30
0.0
 10
10.0453679975
 20
9.3421202109
 30
0.0
 10
10.0718165589
 20
9.3615552425
 30
0.0
 10
10.0992982806
 20
9.3795649102
 30
0.0
 10
10.1277441398
 20
9.396104104
 30
0.0
 10
10.1570823825
 20
9.4111311362
 30
0.0
 10
10.1872390906
 20
9.4246082248
 30
0.0
 10
10.2181382704
 20
9.436501483
 30
0.0
 10
10.2497020725
 20
9.4467810283
 30
0.0
 10
10.2818509869
 20
9.4554210566
 30
0.0
 10
10.3145040309
 20
9.462399885
 30
0.0
 10
10.3475790121
 20
9.4677000565
 30
0.0
 10
10.3809925316
 20
9.4713082676
 30
0.0
 10
10.4146608701
 20
9.4732156047
 30
0.0
 10
10.448498063
 20
9.4734173011
 30
0.0
 10
10.4710755803
 20
9.4724160292
 30
0.0
 10
10.482362337
 20
9.47163329
 30
0.0
  0
SPLINE
  5
361
100
AcDbEntity
  8
0
100
AcDbSpline
 62
7
  6
CONTINUOUS
 70
0
 71
3
 72
23
 73
19
 74
0
 42
0.0000001
 43
0.0000001
 44
0.0000000001
 40
0.0
 40
0.0
 40
0.0
 40
0.0
 40
0.0616482098
 40
0.1233194446
 40
0.1850364747
 40
0.2468215611
 40
0.3086962076
 40
0.3706809245
 40
0.4327950062
 40
0.4950563328
 40
0.5574811797
 40
0.6200840705
 40
0.6828776046
 40
0.7458723228
 40
0.8090769537
 40
0.8724968135
 40
0.9361384451
 40
1.0
 40
1.0
 40
1.0
 40
1.0
 10
10.1608058868
 20
9.1578043754
 30
0.0
 10
10.166237361
 20
9.1630507832
 30
0.0
 10
10.1773869318
 20
9.1732554581
 30
0.0
 10
10.194913158
 20
9.1876444513
 30
0.0
 10
10.2132004423
 20
9.2010823539
 30
0.0
 10
10.2322020739
 20
9.2135347304
 30
0.0
 10
10.2518703346
 20
9.2249703849
 30
0.0
 10
10.2721556204
 20
9.2353604771
 30
0.0
 10
10.2930068162
 20
9.2446788915
 30
0.0
 10
10.3143713725
 20
9.2529022087
 30
0.0
 10
10.3361954633
 20
9.2600097721
 30
0.0
 10
10.3584241158
 20
9.2659837317
 30
0.0
 10
10.381001339
 20
9.2708090824
 30
0.0
 10
10.4038703148
 20
9.2744737575
 30
0.0
 10
10.4269733216
 20
9.2769685348
 30
0.0
 10
10.4502526097
 20
9.278287362
 30
0.0
 10
10.473648575
 20
9.2784267754
 30
0.0
 10
10.4892593323
 20
9.2777344917
 30
0.0
 10
10.4970632468
 20
9.2771932884
 30
0.0
  0
SPLINE
  5
362
100
AcDbEntity
  8
0
100
AcDbSpline
 62
7
  6
CONTINUOUS
 70
0
 71
3
 72
39
 73
35
 74
0
 42
0.0000001
 43
0.0000001
 44
0.0000000001
 40
0.0
 40
0.0
 40
0.0
 40
0.0
 40
0.0299393049
 40
0.0599022804
 40
0.0899120371
 40
0.1199905832
 40
0.1501583152
 40
0.180433557
 40
0.2108321574
 40
0.2413671588
 40
0.2720485413
 40
0.302883044
 40
0.333874065
 40
0.3650216373
 40
0.3963224782
 40
0.4277701076
 40
0.4593550264
 40
0.4910649489
 40
0.5228850817
 40
0.5547984441
 40
0.5867862233
 40
0.6188281554
 40
0.650902926
 40
0.6829885863
 40
0.7150629768
 40
0.747104156
 40
0.7790908244
 40
0.8110027393
 40
0.8428211159
 40
0.8745290106
 40
0.906111654
 40
0.9375568948
 40
0.9688549538
 40
1.0
 40
1.0
 40
1.0
 40
1.0
 10
10.8333206068
 20
8.4615659462
 30
0.0
 10
10.8412327748
 20
8.4692085231
 30
0.0
 10
10.8564707815
 20
8.4851272119
 30
0.0
 10
10.8773982938
 20
8.5107308246
 30
0.0
 10
10.8962945193
 20
8.5379328784
 30
0.0
 10
10.9130565517
 20
8.5665858132
 30
0.0
 10
10.9275954201
 20
8.596536662
 30
0.0
 10
10.9398334674
 20
8.6276249266
 30
0.0
 10
10.9497056245
 20
8.6596842406
 30
0.0
 10
10.957159489
 20
8.6925430815
 30
0.0
 10
10.9621556317
 20
8.7260257592
 30
0.0
 10
10.9646677719
 20
8.7599533439
 30
0.0
 10
10.9646828914
 20
8.7941446243
 30
0.0
 10
10.9622013111
 20
8.828417068
 30
0.0
 10
10.9572366764
 20
8.862587795
 30
0.0
 10
10.9498158336
 20
8.8964745422
 30
0.0
 10
10.9399786832
 20
8.9298966214
 30
0.0
 10
10.9277779559
 20
8.9626758673
 30
0.0
 10
10.9132789317
 20
8.9946375726
 30
0.0
 10
10.8965591239
 20
9.0256114246
 30
0.0
 10
10.8777078224
 20
9.055432387
 30
0.0
 10
10.8568256241
 20
9.0839415664
 30
0.0
 10
10.8340239004
 20
9.1109870485
 30
0.0
 10
10.8094242063
 20
9.1364246916
 30
0.0
 10
10.7831576676
 20
9.1601189156
 30
0.0
 10
10.7553642684
 20
9.1819434054
 30
0.0
 10
10.7261921041
 20
9.2017817653
 30
0.0
 10
10.6957966009
 20
9.2195281364
 30
0.0
 10
10.6643397165
 20
9.2350877523
 30
0.0
 10
10.6319890269
 20
9.2483774528
 30
0.0
 10
10.5989171032
 20
9.2593261785
 30
0.0
 10
10.5652996591
 20
9.2678752209
 30
0.0
 10
10.531318239
 20
9.2739786578
 30
0.0
 10
10.5084793668
 20
9.2764015778
 30
0.0
 10
10.4970632468
 20
9.2771932884
 30
0.0
  0
SPLINE
  5
363
100
AcDbEntity
  8
0
100
AcDbSpline
 62
7
  6
CONTINUOUS
 70
0
 71
3
 72
15
 73
11
 74
0
 42
0.0000001
 43
0.0000001
 44
0.0000000001
 40
0.0
 40
0.0
 40
0.0
 40
0.0
 40
0.1261525048
 40
0.2520381749
 40
0.3776227669
 40
0.5028733031
 40
0.6277598136
 40
0.7522539762
 40
0.8763414317
 40
1.0
 40
1.0
 40
1.0
 40
1.0
 10
10.964023865
 20
8.7567452033
 30
0.0
 10
10.9582856248
 20
8.7547420155
 30
0.0
 10
10.9467246233
 20
8.7510105244
 30
0.0
 10
10.9291549004
 20
8.7462617595
 30
0.0
 10
10.911415012
 20
8.7423905213
 30
0.0
 10
10.8935511975
 20
8.7394184257
 30
0.0
 10
10.8756114695
 20
8.7373634347
 30
0.0
 10
10.8576452634
 20
8.7362392949
 30
0.0
 10
10.8397043786
 20
8.7360555511
 30
0.0
 10
10.8277725289
 20
8.7365637528
 30
0.0
 10
10.8218291164
 20
8.7369759299
 30
0.0
  0
SPLINE
  5
364
100
AcDbEntity
  8
0
100
AcDbSpline
 62
7
  6
CONTINUOUS
 70
0
 71
3
 72
23
 73
19
 74
0
 42
0.0000001
 43
0.0000001
 44
0.0000000001
 40
0.0
 40
0.0
 40
0.0
 40
0.0
 40
0.0616482082
 40
0.1233194433
 40
0.1850364753
 40
0.2468215633
 40
0.3086962098
 40
0.3706809249
 40
0.4327950058
 40
0.4950563324
 40
0.5574811837
 40
0.6200840682
 40
0.6828776059
 40
0.7458723334
 40
0.8090768587
 40
0.8724970864
 40
0.9361379291
 40
1.0
 40
1.0
 40
1.0
 40
1.0
 10
9.9960393045
 20
6.8965121293
 30
0.0
 10
10.0038947517
 20
6.9040999163
 30
0.0
 10
10.0200201457
 20
6.9188587979
 30
0.0
 10
10.0453679975
 20
6.9396693784
 30
0.0
 10
10.0718165589
 20
6.9591044101
 30
0.0
 10
10.0992982806
 20
6.9771140778
 30
0.0
 10
10.1277441398
 20
6.9936532716
 30
0.0
 10
10.1570823825
 20
7.0086803038
 30
0.0
 10
10.1872390906
 20
7.0221573923
 30
0.0
 10
10.2181382704
 20
7.0340506505
 30
0.0
 10
10.2497020725
 20
7.0443301959
 30
0.0
 10
10.2818509869
 20
7.0529702242
 30
0.0
 10
10.3145040309
 20
7.0599490526
 30
0.0
 10
10.3475790121
 20
7.0652492241
 30
0.0
 10
10.3809925316
 20
7.0688574351
 30
0.0
 10
10.4146608701
 20
7.0707647723
 30
0.0
 10
10.448498063
 20
7.0709664687
 30
0.0
 10
10.4710755803
 20
7.0699651968
 30
0.0
 10
10.482362337
 20
7.0691824575
 30
0.0
  0
SPLINE
  5
365
100
AcDbEntity
  8
0
100
AcDbSpline
 62
7
  6
CONTINUOUS
 70
0
 71
3
 72
23
 73
19
 74
0
 42
0.0000001
 43
0.0000001
 44
0.0000000001
 40
0.0
 40
0.0
 40
0.0
 40
0.0
 40
0.0616482098
 40
0.1233194446
 40
0.1850364747
 40
0.2468215611
 40
0.3086962076
 40
0.3706809245
 40
0.4327950062
 40
0.4950563328
 40
0.5574811797
 40
0.6200840705
 40
0.6828776046
 40
0.7458723228
 40
0.8090769537
 40
0.8724968135
 40
0.9361384451
 40
1.0
 40
1.0
 40
1.0
 40
1.0
 10
10.1608058868
 20
6.755353543
 30
0.0
 10
10.166237361
 20
6.7605999508
 30
0.0
 10
10.1773869318
 20
6.7708046257
 30
0.0
 10
10.194913158
 20
6.7851936189
 30
0.0
 10
10.2132004423
 20
6.7986315214
 30
0.0
 10
10.2322020739
 20
6.8110838979
 30
0.0
 10
10.2518703346
 20
6.8225195525
 30
0.0
 10
10.2721556204
 20
6.8329096446
 30
0.0
 10
10.2930068162
 20
6.8422280591
 30
0.0
 10
10.3143713725
 20
6.8504513763
 30
0.0
 10
10.3361954633
 20
6.8575589396
 30
0.0
 10
10.3584241158
 20
6.8635328992
 30
0.0
 10
10.381001339
 20
6.86835825
 30
0.0
 10
10.4038703148
 20
6.872022925
 30
0.0
 10
10.4269733216
 20
6.8745177024
 30
0.0
 10
10.4502526097
 20
6.8758365295
 30
0.0
 10
10.473648575
 20
6.8759759429
 30
0.0
 10
10.4892593323
 20
6.8752836593
 30
0.0
 10
10.4970632468
 20
6.874742456
 30
0.0
  0
SPLINE
  5
366
100
AcDbEntity
  8
0
100
AcDbSpline
 62
7
  6
CONTINUOUS
 70
0
 71
3
 72
39
 73
35
 74
0
 42
0.0000001
 43
0.0000001
 44
0.0000000001
 40
0.0
 40
0.0
 40
0.0
 40
0.0
 40
0.0299393049
 40
0.0599022804
 40
0.0899120371
 40
0.1199905832
 40
0.1501583152
 40
0.180433557
 40
0.2108321574
 40
0.2413671588
 40
0.2720485413
 40
0.302883044
 40
0.333874065
 40
0.3650216373
 40
0.3963224782
 40
0.4277701076
 40
0.4593550264
 40
0.4910649489
 40
0.5228850817
 40
0.5547984441
 40
0.5867862233
 40
0.6188281554
 40
0.650902926
 40
0.6829885863
 40
0.7150629768
 40
0.747104156
 40
0.7790908244
 40
0.8110027393
 40
0.8428211159
 40
0.8745290106
 40
0.906111654
 40
0.9375568948
 40
0.9688549538
 40
1.0
 40
1.0
 40
1.0
 40
1.0
 10
10.8333206068
 20
6.0591151137
 30
0.0
 10
10.8412327748
 20
6.0667576907
 30
0.0
 10
10.8564707815
 20
6.0826763795
 30
0.0
 10
10.8773982938
 20
6.1082799921
 30
0.0
 10
10.8962945193
 20
6.1354820459
 30
0.0
 10
10.9130565517
 20
6.1641349808
 30
0.0
 10
10.9275954201
 20
6.1940858296
 30
0.0
 10
10.9398334674
 20
6.2251740942
 30
0.0
 10
10.9497056245
 20
6.2572334082
 30
0.0
 10
10.957159489
 20
6.290092249
 30
0.0
 10
10.9621556317
 20
6.3235749267
 30
0.0
 10
10.9646677719
 20
6.3575025114
 30
0.0
 10
10.9646828914
 20
6.3916937919
 30
0.0
 10
10.9622013111
 20
6.4259662355
 30
0.0
 10
10.9572366764
 20
6.4601369625
 30
0.0
 10
10.9498158336
 20
6.4940237097
 30
0.0
 10
10.9399786832
 20
6.527445789
 30
0.0
 10
10.9277779559
 20
6.5602250349
 30
0.0
 10
10.9132789317
 20
6.5921867401
 30
0.0
 10
10.8965591239
 20
6.6231605922
 30
0.0
 10
10.8777078224
 20
6.6529815546
 30
0.0
 10
10.8568256241
 20
6.681490734
 30
0.0
 10
10.8340239004
 20
6.7085362161
 30
0.0
 10
10.8094242063
 20
6.7339738592
 30
0.0
 10
10.7831576676
 20
6.7576680831
 30
0.0
 10
10.7553642684
 20
6.779492573
 30
0.0
 10
10.7261921041
 20
6.7993309329
 30
0.0
 10
10.6957966009
 20
6.8170773039
 30
0.0
 10
10.6643397165
 20
6.8326369199
 30
0.0
 10
10.6319890269
 20
6.8459266204
 30
0.0
 10
10.5989171032
 20
6.856875346
 30
0.0
 10
10.5652996591
 20
6.8654243885
 30
0.0
 10
10.531318239
 20
6.8715278253
 30
0.0
 10
10.5084793668
 20
6.8739507454
 30
0.0
 10
10.4970632468
 20
6.874742456
 30
0.0
  0
SPLINE
  5
367
100
AcDbEntity
  8
0
100
AcDbSpline
 62
7
  6
CONTINUOUS
 70
0
 71
3
 72
13
 73
9
 74
0
 42
0.0000001
 43
0.0000001
 44
0.0000000001
 40
0.0
 40
0.0
 40
0.0
 40
0.0
 40
0.2520284351
 40
0.5028332399
 40
0.6277330959
 40
0.7522391778
 40
0.8763373148
 40
1.0
 40
1.0
 40
1.0
 40
1.0
 10
10.9560364078
 20
6.2873577216
 30
0.0
 10
10.9443050507
 20
6.2838062021
 30
0.0
 10
10.9205856019
 20
6.2777118989
 30
0.0
 10
10.8904196484
 20
6.2727437853
 30
0.0
 10
10.8661943326
 20
6.2704399786
 30
0.0
 10
10.8480439428
 20
6.2695565014
 30
0.0
 10
10.8299328532
 20
6.26952265
 30
0.0
 10
10.8178902793
 20
6.2700694341
 30
0.0
 10
10.8118904733
 20
6.270485522
 30
0.0
  0
SPLINE
  5
368
100
AcDbEntity
  8
0
100
AcDbSpline
 62
7
  6
CONTINUOUS
 70
0
 71
3
 72
32
 73
28
 74
0
 42
0.0000001
 43
0.0000001
 44
0.0000000001
 40
0.0
 40
0.0
 40
0.0
 40
0.0
 40
0.0126611774
 40
0.0256298199
 40
0.0391904615
 40
0.0535892497
 40
0.0690269367
 40
0.0856610084
 40
0.1036099491
 40
0.1229608929
 40
0.143774547
 40
0.1660915428
 40
0.1899353405
 40
0.2153164908
 40
0.2422340212
 40
0.2706781842
 40
0.300631083
 40
0.3320684159
 40
0.3649598281
 40
0.3992699628
 40
0.4719786899
 40
0.5498313613
 40
0.6324054861
 40
0.7192324275
 40
0.8098050997
 40
0.9035829078
 40
1.0
 40
1.0
 40
1.0
 40
1.0
 10
12.5097792469
 20
9.7946657258
 30
0.0
 10
12.509207348
 20
9.7947053846
 30
0.0
 10
12.508054165
 20
9.7948811516
 30
0.0
 10
12.5063586582
 20
9.7954270416
 30
0.0
 10
12.5046926625
 20
9.796252752
 30
0.0
 10
12.5030595761
 20
9.797354534
 30
0.0
 10
12.5014608251
 20
9.7987287555
 30
0.0
 10
12.4998979806
 20
9.8003724607
 30
0.0
 10
12.4983724332
 20
9.8022826456
 30
0.0
 10
12.4968860331
 20
9.8044563569
 30
0.0
 10
12.495440606
 20
9.8068901981
 30
0.0
 10
12.4940383002
 20
9.8095804693
 30
0.0
 10
12.4926811485
 20
9.8125229492
 30
0.0
 10
12.4913713493
 20
9.8157130171
 30
0.0
 10
12.490110944
 20
9.8191455675
 30
0.0
 10
12.4889020358
 20
9.822815085
 30
0.0
 10
12.4877465714
 20
9.8267156193
 30
0.0
 10
12.4866464985
 20
9.8308408226
 30
0.0
 10
12.4856035901
 20
9.8351839623
 30
0.0
 10
12.4842657286
 20
9.8413764023
 30
0.0
 10
12.4827611379
 20
9.8496131134
 30
0.0
 10
12.4812407698
 20
9.8600608807
 30
0.0
 10
12.4799829517
 20
9.8711868829
 30
0.0
 10
12.4789962208
 20
9.8829179906
 30
0.0
 10
12.4782873779
 20
9.8951771839
 30
0.0
 10
12.4778612827
 20
9.907883742
 30
0.0
 10
12.4777688056
 20
9.9164957185
 30
0.0
 10
12.4777688056
 20
9.9208612885
 30
0.0
  0
SPLINE
  5
369
100
AcDbEntity
  8
0
100
AcDbSpline
 62
7
  6
CONTINUOUS
 70
0
 71
3
 72
32
 73
28
 74
0
 42
0.0000001
 43
0.0000001
 44
0.0000000001
 40
0.0
 40
0.0
 40
0.0
 40
0.0
 40
0.0126611774
 40
0.0256298199
 40
0.0391904615
 40
0.0535892497
 40
0.0690269367
 40
0.0856610084
 40
0.1036099491
 40
0.1229608929
 40
0.143774547
 40
0.1660915428
 40
0.1899353405
 40
0.2153164908
 40
0.2422340212
 40
0.2706781842
 40
0.300631083
 40
0.3320684159
 40
0.3649598281
 40
0.3992699628
 40
0.4719786899
 40
0.5498313613
 40
0.6324054861
 40
0.7192324275
 40
0.8098050997
 40
0.9035829078
 40
1.0
 40
1.0
 40
1.0
 40
1.0
 10
12.5097792469
 20
6.7037030828
 30
0.0
 10
12.509207348
 20
6.7037427416
 30
0.0
 10
12.508054165
 20
6.7039185085
 30
0.0
 10
12.5063586582
 20
6.7044643986
 30
0.0
 10
12.5046926625
 20
6.705290109
 30
0.0
 10
12.5030595761
 20
6.706391891
 30
0.0
 10
12.5014608251
 20
6.7077661124
 30
0.0
 10
12.4998979806
 20
6.7094098177
 30
0.0
 10
12.4983724332
 20
6.7113200026
 30
0.0
 10
12.4968860331
 20
6.7134937138
 30
0.0
 10
12.495440606
 20
6.7159275551
 30
0.0
 10
12.4940383002
 20
6.7186178263
 30
0.0
 10
12.4926811485
 20
6.7215603061
 30
0.0
 10
12.4913713493
 20
6.7247503741
 30
0.0
 10
12.490110944
 20
6.7281829245
 30
0.0
 10
12.4889020358
 20
6.731852442
 30
0.0
 10
12.4877465714
 20
6.7357529762
 30
0.0
 10
12.4866464985
 20
6.7398781795
 30
0.0
 10
12.4856035901
 20
6.7442213192
 30
0.0
 10
12.4842657286
 20
6.7504137592
 30
0.0
 10
12.4827611379
 20
6.7586504703
 30
0.0
 10
12.4812407698
 20
6.7690982376
 30
0.0
 10
12.4799829517
 20
6.7802242398
 30
0.0
 10
12.4789962208
 20
6.7919553476
 30
0.0
 10
12.4782873779
 20
6.8042145409
 30
0.0
 10
12.4778612827
 20
6.816921099
 30
0.0
 10
12.4777688056
 20
6.8255330754
 30
0.0
 10
12.4777688056
 20
6.8298986455
 30
0.0
  0
SPLINE
  5
36A
100
AcDbEntity
  8
0
100
AcDbSpline
 62
7
  6
CONTINUOUS
 70
0
 71
3
 72
71
 73
67
 74
0
 42
0.0000001
 43
0.0000001
 44
0.0000000001
 40
0.0
 40
0.0
 40
0.0
 40
0.0
 40
0.0156746951
 40
0.0314022331
 40
0.0471806321
 40
0.0630088952
 40
0.0788847436
 40
0.0948057516
 40
0.1107690095
 40
0.1267712322
 40
0.14280879
 40
0.1588777348
 40
0.1749738409
 40
0.1910926421
 40
0.2072294728
 40
0.2233795103
 40
0.2395378174
 40
0.2556993841
 40
0.2718591714
 40
0.2880121558
 40
0.304153374
 40
0.3202779653
 40
0.3363812143
 40
0.3524585919
 40
0.3685057968
 40
0.3845187959
 40
0.4004938609
 40
0.4164276037
 40
0.432317008
 40
0.4481594611
 40
0.4639527821
 40
0.4796952457
 40
0.4953856016
 40
0.5110230909
 40
0.526607458
 40
0.5421389596
 40
0.5576183676
 40
0.5730469657
 40
0.5884265418
 40
0.603759374
 40
0.6190482142
 40
0.6342962641
 40
0.6495071459
 40
0.6646848671
 40
0.6798337811
 40
0.6949585445
 40
0.7100640694
 40
0.7251554729
 40
0.7402380227
 40
0.7553170806
 40
0.7703980454
 40
0.7854862954
 40
0.8005871315
 40
0.8157057208
 40
0.8308470413
 40
0.8460158304
 40
0.861216535
 40
0.8764532684
 40
0.8917297685
 40
0.9070493664
 40
0.922414947
 40
0.9378289216
 40
0.9532932848
 40
0.9688092399
 40
0.9843783001
 40
1.0
 40
1.0
 40
1.0
 40
1.0
 10
10.4856752182
 20
8.2886763027
 30
0.0
 10
10.4773170465
 20
8.2892559439
 30
0.0
 10
10.4605981298
 20
8.2908272209
 30
0.0
 10
10.4356251066
 20
8.2944032332
 30
0.0
 10
10.4107722981
 20
8.2991941207
 30
0.0
 10
10.3861005594
 20
8.3051879472
 30
0.0
 10
10.3616688857
 20
8.3123704508
 30
0.0
 10
10.3375362311
 20
8.3207242161
 30
0.0
 10
10.3137606496
 20
8.3302291126
 30
0.0
 10
10.2903993721
 20
8.3408622009
 30
0.0
 10
10.2675086224
 20
8.3525978466
 30
0.0
 10
10.2451434944
 20
8.3654077756
 30
0.0
 10
10.2233578226
 20
8.3792611397
 30
0.0
 10
10.2022040447
 20
8.3941245769
 30
0.0
 10
10.1817330618
 20
8.4099622763
 30
0.0
 10
10.1619941387
 20
8.4267360992
 30
0.0
 10
10.1430347836
 20
8.4444056633
 30
0.0
 10
10.1249006367
 20
8.4629284394
 30
0.0
 10
10.1076353625
 20
8.4822598516
 30
0.0
 10
10.0912805115
 20
8.5023533562
 30
0.0
 10
10.0758754504
 20
8.5231605847
 30
0.0
 10
10.0614572701
 20
8.5446314585
 30
0.0
 10
10.0480606957
 20
8.566714306
 30
0.0
 10
10.0357180114
 20
8.5893559883
 30
0.0
 10
10.0244589466
 20
8.6125020066
 30
0.0
 10
10.0143106185
 20
8.6360966458
 30
0.0
 10
10.0052974859
 20
8.6600831159
 30
0.0
 10
9.9974412861
 20
8.6844036832
 30
0.0
 10
9.9907609883
 20
8.7089998086
 30
0.0
 10
9.9852727286
 20
8.7338122806
 30
0.0
 10
9.9809897503
 20
8.7587813575
 30
0.0
 10
9.9779224126
 20
8.7838469197
 30
0.0
 10
9.9760781575
 20
8.8089486099
 30
0.0
 10
9.9754614938
 20
8.8340259757
 30
0.0
 10
9.9760739846
 20
8.8590186125
 30
0.0
 10
9.9779141973
 20
8.8838663116
 30
0.0
 10
9.9809777503
 20
8.9085092073
 30
0.0
 10
9.9852573232
 20
8.9328879176
 30
0.0
 10
9.9907426707
 20
8.9569436856
 30
0.0
 10
9.9974206524
 20
8.9806185173
 30
0.0
 10
10.0052752223
 20
9.0038553336
 30
0.0
 10
10.0142874848
 20
9.0265981084
 30
0.0
 10
10.0244357603
 20
9.0487919961
 30
0.0
 10
10.0356956285
 20
9.0703834652
 30
0.0
 10
10.048039992
 20
9.091320424
 30
0.0
 10
10.0614391202
 20
9.1115523573
 30
0.0
 10
10.075860707
 20
9.1310304653
 30
0.0
 10
10.0912699855
 20
9.1497077597
 30
0.0
 10
10.1076298041
 20
9.1675391814
 30
0.0
 10
10.1249007173
 20
9.1844817079
 30
0.0
 10
10.1430410794
 20
9.2004944572
 30
0.0
 10
10.1620071166
 20
9.2155388238
 30
0.0
 10
10.1817530682
 20
9.2295785412
 30
0.0
 10
10.2022312968
 20
9.2425797671
 30
0.0
 10
10.2233924029
 20
9.2545111667
 30
0.0
 10
10.2451853464
 20
9.2653439794
 30
0.0
 10
10.2675575523
 20
9.2750521272
 30
0.0
 10
10.2904550522
 20
9.2836122602
 30
0.0
 10
10.3138226246
 20
9.2910037949
 30
0.0
 10
10.3376039259
 20
9.2972089618
 30
0.0
 10
10.3617416156
 20
9.3022128417
 30
0.0
 10
10.3861775463
 20
9.3060034525
 30
0.0
 10
10.410852676
 20
9.3085716627
 30
0.0
 10
10.4357079646
 20
9.3099115117
 30
0.0
 10
10.4606824864
 20
9.3100196234
 30
0.0
 10
10.4773453049
 20
9.3092717172
 30
0.0
 10
10.4856752182
 20
9.3086940357
 30
0.0
  0
SPLINE
  5
36B
100
AcDbEntity
  8
0
100
AcDbSpline
 62
7
  6
CONTINUOUS
 70
0
 71
3
 72
39
 73
35
 74
0
 42
0.0000001
 43
0.0000001
 44
0.0000000001
 40
0.0
 40
0.0
 40
0.0
 40
0.0
 40
0.0311450462
 40
0.0624431052
 40
0.093888346
 40
0.1254709894
 40
0.1571788841
 40
0.1889972607
 40
0.2209091756
 40
0.252895844
 40
0.2849370232
 40
0.3170114137
 40
0.349097074
 40
0.3811718446
 40
0.4132137767
 40
0.4452015559
 40
0.4771149183
 40
0.5089350511
 40
0.5406449736
 40
0.5722298924
 40
0.6036775218
 40
0.6349783627
 40
0.666125935
 40
0.697116956
 40
0.7279514587
 40
0.7586328412
 40
0.7891678426
 40
0.819566443
 40
0.8498416848
 40
0.8800094168
 40
0.9100879629
 40
0.9400977196
 40
0.9700606951
 40
1.0
 40
1.0
 40
1.0
 40
1.0
 10
10.4970632468
 20
8.3421770332
 30
0.0
 10
10.4856471267
 20
8.3429687438
 30
0.0
 10
10.4628082546
 20
8.3453916638
 30
0.0
 10
10.4288268345
 20
8.3514951007
 30
0.0
 10
10.3952093904
 20
8.3600441431
 30
0.0
 10
10.3621374667
 20
8.3709928688
 30
0.0
 10
10.329786777
 20
8.3842825692
 30
0.0
 10
10.2983298926
 20
8.3998421852
 30
0.0
 10
10.2679343895
 20
8.4175885563
 30
0.0
 10
10.2387622252
 20
8.4374269162
 30
0.0
 10
10.210968826
 20
8.459251406
 30
0.0
 10
10.1847022873
 20
8.48294563
 30
0.0
 10
10.1601025931
 20
8.5083832731
 30
0.0
 10
10.1373008695
 20
8.5354287551
 30
0.0
 10
10.1164186711
 20
8.5639379346
 30
0.0
 10
10.0975673697
 20
8.593758897
 30
0.0
 10
10.0808475618
 20
8.624732749
 30
0.0
 10
10.0663485377
 20
8.6566944543
 30
0.0
 10
10.0541478103
 20
8.6894737002
 30
0.0
 10
10.04431066
 20
8.7228957794
 30
0.0
 10
10.0368898172
 20
8.7567825266
 30
0.0
 10
10.0319251825
 20
8.7909532536
 30
0.0
 10
10.0294436022
 20
8.8252256973
 30
0.0
 10
10.0294587217
 20
8.8594169777
 30
0.0
 10
10.0319708618
 20
8.8933445624
 30
0.0
 10
10.0369670046
 20
8.9268272401
 30
0.0
 10
10.0444208691
 20
8.959686081
 30
0.0
 10
10.0542930262
 20
8.991745395
 30
0.0
 10
10.0665310734
 20
9.0228336596
 30
0.0
 10
10.0810699419
 20
9.0527845083
 30
0.0
 10
10.0978319743
 20
9.0814374432
 30
0.0
 10
10.1167281998
 20
9.108639497
 30
0.0
 10
10.1376557121
 20
9.1342431097
 30
0.0
 10
10.1528937188
 20
9.1501617985
 30
0.0
 10
10.1608058868
 20
9.1578043754
 30
0.0
  0
SPLINE
  5
36C
100
AcDbEntity
  8
0
100
AcDbSpline
 62
7
  6
CONTINUOUS
 70
0
 71
3
 72
42
 73
38
 74
0
 42
0.0000001
 43
0.0000001
 44
0.0000000001
 40
0.0
 40
0.0
 40
0.0
 40
0.0
 40
0.0311030991
 40
0.0467131204
 40
0.0623594931
 40
0.0937542931
 40
0.1252832296
 40
0.1569351415
 40
0.1886964037
 40
0.2205513799
 40
0.2524826856
 40
0.2844715325
 40
0.3164980784
 40
0.3485417938
 40
0.3805818371
 40
0.412597434
 40
0.4445682546
 40
0.4764747866
 40
0.5082986966
 40
0.5400231764
 40
0.571633269
 40
0.6031161673
 40
0.6344614827
 40
0.6656614747
 40
0.6967112373
 40
0.7276088361
 40
0.7583553904
 40
0.788955095
 40
0.8194151789
 40
0.8497457968
 40
0.8648690973
 40
0.8799650892
 40
0.9100779929
 40
0.9401073536
 40
0.9550994019
 40
0.9700779821
 40
1.0
 40
1.0
 40
1.0
 40
1.0
 10
10.6990647005
 20
8.618394603
 30
0.0
 10
10.6899045579
 20
8.6190298611
 30
0.0
 10
10.6761746425
 20
8.6204717316
 30
0.0
 10
10.6579890191
 20
8.6233511014
 30
0.0
 10
10.6398292779
 20
8.6268778793
 30
0.0
 10
10.6173008789
 20
8.6324827022
 30
0.0
 10
10.5907127104
 20
8.6410733433
 30
0.0
 10
10.5646699477
 20
8.6514936682
 30
0.0
 10
10.5393042165
 20
8.6636910176
 30
0.0
 10
10.5147427216
 20
8.6776039742
 30
0.0
 10
10.4911088911
 20
8.6931625038
 30
0.0
 10
10.468521417
 20
8.7102883452
 30
0.0
 10
10.4470937617
 20
8.7288953923
 30
0.0
 10
10.4269335632
 20
8.7488901214
 30
0.0
 10
10.4081421082
 20
8.7701720588
 30
0.0
 10
10.3908138283
 20
8.7926342851
 30
0.0
 10
10.3750358302
 20
8.8161639655
 30
0.0
 10
10.3608874612
 20
8.8406429112
 30
0.0
 10
10.3484399136
 20
8.8659481666
 30
0.0
 10
10.3377558681
 20
8.8919526193
 30
0.0
 10
10.3288891797
 20
8.918525631
 30
0.0
 10
10.3218846064
 20
8.9455336853
 30
0.0
 10
10.3167775784
 20
8.9728410492
 30
0.0
 10
10.3135940119
 20
9.0003104483
 30
0.0
 10
10.3123501766
 20
9.0278037429
 30
0.0
 10
10.3130526147
 20
9.0551826427
 30
0.0
 10
10.3156980559
 20
9.0823092921
 30
0.0
 10
10.3202735754
 20
9.1090473418
 30
0.0
 10
10.3267560708
 20
9.1352612187
 30
0.0
 10
10.3337284631
 20
9.1565834578
 30
0.0
 10
10.3402229063
 20
9.1732410956
 30
0.0
 10
10.3473071854
 20
9.1895865817
 30
0.0
 10
10.3572769039
 20
9.2094596968
 30
0.0
 10
10.3686963993
 20
9.228501128
 30
0.0
 10
10.3786550837
 20
9.2431541735
 30
0.0
 10
10.3891416979
 20
9.2573937171
 30
0.0
 10
10.3976067529
 20
9.2676159169
 30
0.0
 10
10.4034953781
 20
9.2742003131
 30
0.0
  0
SPLINE
  5
36D
100
AcDbEntity
  8
0
100
AcDbSpline
 62
7
  6
CONTINUOUS
 70
0
 71
3
 72
23
 73
19
 74
0
 42
0.0000001
 43
0.0000001
 44
0.0000000001
 40
0.0
 40
0.0
 40
0.0
 40
0.0
 40
0.0616482082
 40
0.1233194433
 40
0.1850364753
 40
0.2468215633
 40
0.3086962098
 40
0.3706809249
 40
0.4327950058
 40
0.4950563324
 40
0.5574811837
 40
0.6200840682
 40
0.6828776059
 40
0.7458723334
 40
0.8090768587
 40
0.8724970864
 40
0.9361379291
 40
1.0
 40
1.0
 40
1.0
 40
1.0
 10
10.9686853695
 20
5.8895565488
 30
0.0
 10
10.9608299222
 20
5.8819687618
 30
0.0
 10
10.9447045282
 20
5.8672098803
 30
0.0
 10
10.9193566765
 20
5.8463992997
 30
0.0
 10
10.8929081151
 20
5.8269642681
 30
0.0
 10
10.8654263934
 20
5.8089546004
 30
0.0
 10
10.8369805342
 20
5.7924154066
 30
0.0
 10
10.8076422915
 20
5.7773883744
 30
0.0
 10
10.7774855833
 20
5.7639112858
 30
0.0
 10
10.7465864036
 20
5.7520180276
 30
0.0
 10
10.7150226014
 20
5.7417384823
 30
0.0
 10
10.6828736871
 20
5.733098454
 30
0.0
 10
10.6502206431
 20
5.7261196256
 30
0.0
 10
10.6171456619
 20
5.7208194541
 30
0.0
 10
10.5837321424
 20
5.717211243
 30
0.0
 10
10.5500638039
 20
5.7153039059
 30
0.0
 10
10.5162266109
 20
5.7151022095
 30
0.0
 10
10.4936490937
 20
5.7161034814
 30
0.0
 10
10.482362337
 20
5.7168862206
 30
0.0
  0
SPLINE
  5
36E
100
AcDbEntity
  8
0
100
AcDbSpline
 62
7
  6
CONTINUOUS
 70
0
 71
3
 72
36
 73
32
 74
0
 42
0.0000001
 43
0.0000001
 44
0.0000000001
 40
0.0
 40
0.0
 40
0.0
 40
0.0
 40
0.084039477
 40
0.1695103585
 40
0.2553560057
 40
0.340511238
 40
0.4239223757
 40
0.5045636384
 40
0.5435382671
 40
0.5814572504
 40
0.6182079766
 40
0.6536829341
 40
0.6877805404
 40
0.7204057561
 40
0.7514708524
 40
0.7808965051
 40
0.808613118
 40
0.8345621594
 40
0.858698135
 40
0.8809915133
 40
0.9014325509
 40
0.9200366324
 40
0.9368523647
 40
0.9519735562
 40
0.9589483805
 40
0.9655643882
 40
0.9778450686
 40
0.983606525
 40
0.9891794977
 40
0.9946228116
 40
1.0
 40
1.0
 40
1.0
 40
1.0
 10
12.5651460431
 20
6.9142985808
 30
0.0
 10
12.5651460431
 20
6.9079636337
 30
0.0
 10
12.5649472472
 20
6.8951851078
 30
0.0
 10
12.5640845627
 20
6.875953029
 30
0.0
 10
12.5626647853
 20
6.8566695498
 30
0.0
 10
12.5607067371
 20
6.837589295
 30
0.0
 10
12.5582364127
 20
6.8189642152
 30
0.0
 10
12.5557512861
 20
6.8038599896
 30
0.0
 10
12.5535225425
 20
6.7921954042
 30
0.0
 10
12.5517642949
 20
6.7838106921
 30
0.0
 10
12.5499063252
 20
6.7757179345
 30
0.0
 10
12.5479547743
 20
6.7679438385
 30
0.0
 10
12.5459161669
 20
6.7605140494
 30
0.0
 10
12.5437973008
 20
6.7534530431
 30
0.0
 10
12.5416052348
 20
6.7467840531
 30
0.0
 10
12.5393472678
 20
6.7405289666
 30
0.0
 10
12.5370309317
 20
6.7347082237
 30
0.0
 10
12.534663916
 20
6.7293407434
 30
0.0
 10
12.5322540134
 20
6.7244438416
 30
0.0
 10
12.52980905
 20
6.720033083
 30
0.0
 10
12.5273368146
 20
6.7161222509
 30
0.0
 10
12.5248446076
 20
6.7127230519
 30
0.0
 10
12.5223395247
 20
6.7098459366
 30
0.0
 10
12.5201907023
 20
6.7078386587
 30
0.0
 10
12.5184695389
 20
6.7065234405
 30
0.0
 10
12.5168381924
 20
6.7054530459
 30
0.0
 10
12.5151657126
 20
6.7046158912
 30
0.0
 10
12.5134716185
 20
6.7040606521
 30
0.0
 10
12.5122330117
 20
6.7037928498
 30
0.0
 10
12.5110013467
 20
6.7036656907
 30
0.0
 10
12.5101836116
 20
6.7036750418
 30
0.0
 10
12.5097792469
 20
6.7037030828
 30
0.0
  0
SPLINE
  5
36F
100
AcDbEntity
  8
0
100
AcDbSpline
 62
7
  6
CONTINUOUS
 70
0
 71
3
 72
41
 73
37
 74
0
 42
0.0000001
 43
0.0000001
 44
0.0000000001
 40
0.0
 40
0.0
 40
0.0
 40
0.0
 40
0.0309552856
 40
0.062044163
 40
0.0932624089
 40
0.1246034294
 40
0.1560589052
 40
0.1876186829
 40
0.2192710436
 40
0.2510028624
 40
0.2827998259
 40
0.3146466505
 40
0.3465273142
 40
0.3784252959
 40
0.4103238195
 40
0.4422061009
 40
0.4740555953
 40
0.5058562411
 40
0.5375927002
 40
0.5692505895
 40
0.6008167028
 40
0.6322792192
 40
0.6636278959
 40
0.6948542417
 40
0.7259516686
 40
0.7569156183
 40
0.78774366
 40
0.818435558
 40
0.8489933039
 40
0.8642251311
 40
0.8794251882
 40
0.9097294601
 40
0.9399186935
 40
0.954975475
 40
0.9700075842
 40
1.0
 40
1.0
 40
1.0
 40
1.0
 10
10.6865186314
 20
8.525176893
 30
0.0
 10
10.6765507835
 20
8.5258681656
 30
0.0
 10
10.6566105439
 20
8.5278903781
 30
0.0
 10
10.6268928466
 20
8.5328097231
 30
0.0
 10
10.5974176717
 20
8.5396018494
 30
0.0
 10
10.5683065275
 20
8.5482388855
 30
0.0
 10
10.5396774411
 20
8.558685523
 30
0.0
 10
10.5116469758
 20
8.5708991301
 30
0.0
 10
10.4843291088
 20
8.5848298914
 30
0.0
 10
10.4578349473
 20
8.6004210374
 30
0.0
 10
10.4322722331
 20
8.6176090625
 30
0.0
 10
10.4077449221
 20
8.636323988
 30
0.0
 10
10.3843527616
 20
8.6564896432
 30
0.0
 10
10.3621908892
 20
8.6780239745
 30
0.0
 10
10.3413494483
 20
8.7008393766
 30
0.0
 10
10.321913225
 20
8.7248430463
 30
0.0
 10
10.3039613052
 20
8.7499373574
 30
0.0
 10
10.2875667552
 20
8.7760202541
 30
0.0
 10
10.2727963261
 20
8.8029856629
 30
0.0
 10
10.2597101832
 20
8.83072392
 30
0.0
 10
10.2483616625
 20
8.8591222131
 30
0.0
 10
10.238797053
 20
8.8880650356
 30
0.0
 10
10.2310554087
 20
8.9174346532
 30
0.0
 10
10.225168386
 20
8.9471115711
 30
0.0
 10
10.2211601174
 20
8.9769750405
 30
0.0
 10
10.2190470932
 20
9.0069034517
 30
0.0
 10
10.2188381498
 20
9.0367751698
 30
0.0
 10
10.2205342028
 20
9.0664677462
 30
0.0
 10
10.2235332057
 20
9.0909907264
 30
0.0
 10
10.2268766386
 20
9.1103941272
 30
0.0
 10
10.2308365192
 20
9.1295976638
 30
0.0
 10
10.2369476471
 20
9.1532729658
 30
0.0
 10
10.244598809
 20
9.1764479226
 30
0.0
 10
10.2516174131
 20
9.1945981462
 30
0.0
 10
10.2592142411
 20
9.2124441678
 30
0.0
 10
10.2655787195
 20
9.2255256404
 30
0.0
 10
10.2701061628
 20
9.2340827356
 30
0.0
  0
SPLINE
  5
370
100
AcDbEntity
  8
0
100
AcDbSpline
 62
7
  6
CONTINUOUS
 70
0
 71
3
 72
23
 73
19
 74
0
 42
0.0000001
 43
0.0000001
 44
0.0000000001
 40
0.0
 40
0.0
 40
0.0
 40
0.0
 40
0.0638615549
 40
0.1275031865
 40
0.1909230463
 40
0.2541276772
 40
0.3171223954
 40
0.3799159295
 40
0.4425188203
 40
0.5049436672
 40
0.5672049938
 40
0.6293190755
 40
0.6913037924
 40
0.7531784389
 40
0.8149635253
 40
0.8766805554
 40
0.9383517902
 40
1.0
 40
1.0
 40
1.0
 40
1.0
 10
10.4970632468
 20
5.9397262007
 30
0.0
 10
10.5048671612
 20
5.9391849974
 30
0.0
 10
10.5204779185
 20
5.9384927138
 30
0.0
 10
10.5438738838
 20
5.9386321272
 30
0.0
 10
10.5671531719
 20
5.9399509543
 30
0.0
 10
10.5902561788
 20
5.9424457317
 30
0.0
 10
10.6131251546
 20
5.9461104067
 30
0.0
 10
10.6357023777
 20
5.9509357575
 30
0.0
 10
10.6579310302
 20
5.9569097171
 30
0.0
 10
10.6797551211
 20
5.9640172804
 30
0.0
 10
10.7011196774
 20
5.9722405976
 30
0.0
 10
10.7219708731
 20
5.9815590121
 30
0.0
 10
10.7422561589
 20
5.9919491042
 30
0.0
 10
10.7619244196
 20
6.0033847588
 30
0.0
 10
10.7809260512
 20
6.0158371353
 30
0.0
 10
10.7992133356
 20
6.0292750378
 30
0.0
 10
10.8167395617
 20
6.043664031
 30
0.0
 10
10.8278891325
 20
6.0538687059
 30
0.0
 10
10.8333206068
 20
6.0591151137
 30
0.0
  0
SPLINE
  5
371
100
AcDbEntity
  8
0
100
AcDbSpline
 62
7
  6
CONTINUOUS
 70
0
 71
3
 72
15
 73
11
 74
0
 42
0.0000001
 43
0.0000001
 44
0.0000000001
 40
0.0
 40
0.0
 40
0.0
 40
0.0
 40
0.1232966715
 40
0.2469580152
 40
0.371058807
 40
0.495663764
 40
0.6208261055
 40
0.746587031
 40
0.8729728354
 40
1.0
 40
1.0
 40
1.0
 40
1.0
 10
10.9334675997
 20
6.2094328412
 30
0.0
 10
10.9245154103
 20
6.2041456923
 30
0.0
 10
10.9061650728
 20
6.1942485169
 30
0.0
 10
10.8775351836
 20
6.1815525357
 30
0.0
 10
10.8479110923
 20
6.1710504184
 30
0.0
 10
10.8174526944
 20
6.1627990262
 30
0.0
 10
10.7863217174
 20
6.1568415173
 30
0.0
 10
10.7546834698
 20
6.1532094073
 30
0.0
 10
10.7227082571
 20
6.1519213091
 30
0.0
 10
10.701328686
 20
6.1526282652
 30
0.0
 10
10.6906428752
 20
6.1533693287
 30
0.0
  0
SPLINE
  5
372
100
AcDbEntity
  8
0
100
AcDbSpline
 62
7
  6
CONTINUOUS
 70
0
 71
3
 72
39
 73
35
 74
0
 42
0.0000001
 43
0.0000001
 44
0.0000000001
 40
0.0
 40
0.0
 40
0.0
 40
0.0
 40
0.0311450333
 40
0.0624431288
 40
0.0938883325
 40
0.1254709893
 40
0.1571788812
 40
0.1889972568
 40
0.2209091708
 40
0.2528958386
 40
0.2849370172
 40
0.3170114072
 40
0.3490970669
 40
0.3811718372
 40
0.413213769
 40
0.4452015481
 40
0.4771149106
 40
0.5089350428
 40
0.5406449654
 40
0.5722298856
 40
0.6036775156
 40
0.6349783564
 40
0.6661259294
 40
0.6971169509
 40
0.7279514545
 40
0.7586328388
 40
0.7891678409
 40
0.8195664412
 40
0.8498416838
 40
0.8800094165
 40
0.9100879631
 40
0.9400977203
 40
0.9700606956
 40
1.0
 40
1.0
 40
1.0
 40
1.0
 10
10.482362337
 20
8.1193370531
 30
0.0
 10
10.4658514323
 20
8.1204820882
 30
0.0
 10
10.4328200066
 20
8.1239863237
 30
0.0
 10
10.3836733437
 20
8.1328135708
 30
0.0
 10
10.3350530812
 20
8.1451778782
 30
0.0
 10
10.2872218207
 20
8.1610128152
 30
0.0
 10
10.2404336542
 20
8.1802334712
 30
0.0
 10
10.1949381617
 20
8.2027370035
 30
0.0
 10
10.1509777363
 20
8.2284032282
 30
0.0
 10
10.1087866005
 20
8.2570950515
 30
0.0
 10
10.0685895311
 20
8.2886593607
 30
0.0
 10
10.0306007629
 20
8.3229278695
 30
0.0
 10
9.9950227093
 20
8.3597178367
 30
0.0
 10
9.9620449781
 20
8.3988331518
 30
0.0
 10
9.9318434495
 20
8.4400654131
 30
0.0
 10
9.904579178
 20
8.4831948865
 30
0.0
 10
9.8803976196
 20
8.5279917495
 30
0.0
 10
9.8594279673
 20
8.5742173417
 30
0.0
 10
9.8417822775
 20
8.6216253184
 30
0.0
 10
9.827554938
 20
8.6699630022
 30
0.0
 10
9.8168222951
 20
8.7189727405
 30
0.0
 10
9.8096420433
 20
8.7683931965
 30
0.0
 10
9.8060529493
 20
8.8179607603
 30
0.0
 10
9.8060747874
 20
8.8674109433
 30
0.0
 10
9.8097080192
 20
8.9164797499
 30
0.0
 10
9.816933781
 20
8.9649051039
 30
0.0
 10
9.8277141305
 20
9.0124282133
 30
0.0
 10
9.8419920435
 20
9.0587949722
 30
0.0
 10
9.8596916484
 20
9.1037573389
 30
0.0
 10
9.8807188752
 20
9.1470746954
 30
0.0
 10
9.9049614517
 20
9.1885148906
 30
0.0
 10
9.9322906441
 20
9.2278567248
 30
0.0
 10
9.9625576726
 20
9.26488675
 30
0.0
 10
9.9845960892
 20
9.2879096534
 30
0.0
 10
9.9960393045
 20
9.2989629618
 30
0.0
  0
SPLINE
  5
373
100
AcDbEntity
  8
0
100
AcDbSpline
 62
7
  6
CONTINUOUS
 70
0
 71
3
 72
32
 73
28
 74
0
 42
0.0000001
 43
0.0000001
 44
0.0000000001
 40
0.0
 40
0.0
 40
0.0
 40
0.0
 40
0.0126611774
 40
0.0256298199
 40
0.0391904615
 40
0.0535892497
 40
0.0690269367
 40
0.0856610084
 40
0.1036099491
 40
0.1229608929
 40
0.143774547
 40
0.1660915428
 40
0.1899353405
 40
0.2153164908
 40
0.2422340212
 40
0.2706781842
 40
0.300631083
 40
0.3320684159
 40
0.3649598281
 40
0.3992699628
 40
0.4719786899
 40
0.5498313613
 40
0.6324054861
 40
0.7192324275
 40
0.8098050997
 40
0.9035829078
 40
1.0
 40
1.0
 40
1.0
 40
1.0
 10
12.5331356018
 20
10.1314567866
 30
0.0
 10
12.5337075007
 20
10.1314171277
 30
0.0
 10
12.5348606836
 20
10.1312413608
 30
0.0
 10
12.5365561905
 20
10.1306954707
 30
0.0
 10
12.5382221862
 20
10.1298697604
 30
0.0
 10
12.5398552725
 20
10.1287679784
 30
0.0
 10
12.5414540235
 20
10.1273937569
 30
0.0
 10
12.5430168681
 20
10.1257500517
 30
0.0
 10
12.5445424155
 20
10.1238398668
 30
0.0
 10
12.5460288155
 20
10.1216661555
 30
0.0
 10
12.5474742427
 20
10.1192323142
 30
0.0
 10
12.5488765485
 20
10.1165420431
 30
0.0
 10
12.5502337002
 20
10.1135995632
 30
0.0
 10
12.5515434994
 20
10.1104094952
 30
0.0
 10
12.5528039046
 20
10.1069769449
 30
0.0
 10
12.5540128129
 20
10.1033074274
 30
0.0
 10
12.5551682772
 20
10.0994068931
 30
0.0
 10
12.5562683501
 20
10.0952816898
 30
0.0
 10
12.5573112586
 20
10.0909385501
 30
0.0
 10
12.55864912
 20
10.0847461101
 30
0.0
 10
12.5601537108
 20
10.076509399
 30
0.0
 10
12.5616740789
 20
10.0660616317
 30
0.0
 10
12.562931897
 20
10.0549356295
 30
0.0
 10
12.5639186278
 20
10.0432045218
 30
0.0
 10
12.5646274707
 20
10.0309453285
 30
0.0
 10
12.565053566
 20
10.0182387703
 30
0.0
 10
12.5651460431
 20
10.0096267939
 30
0.0
 10
12.5651460431
 20
10.0052612239
 30
0.0
  0
SPLINE
  5
374
100
AcDbEntity
  8
0
100
AcDbSpline
 62
7
  6
CONTINUOUS
 70
0
 71
3
 72
71
 73
67
 74
0
 42
0.0000001
 43
0.0000001
 44
0.0000000001
 40
0.0
 40
0.0
 40
0.0
 40
0.0
 40
0.0156216999
 40
0.0311907601
 40
0.0467067152
 40
0.0621710784
 40
0.077585053
 40
0.0929506336
 40
0.1082702315
 40
0.1235467316
 40
0.138783465
 40
0.1539841696
 40
0.1691529587
 40
0.1842942792
 40
0.1994128685
 40
0.2145137046
 40
0.2296019546
 40
0.2446829194
 40
0.2597619773
 40
0.2748445271
 40
0.2899359306
 40
0.3050414555
 40
0.3201662189
 40
0.3353151329
 40
0.3504928541
 40
0.3657037359
 40
0.3809517858
 40
0.396240626
 40
0.4115734582
 40
0.4269530343
 40
0.4423816324
 40
0.4578610404
 40
0.473392542
 40
0.4889769091
 40
0.5046143984
 40
0.5203047543
 40
0.5360472179
 40
0.5518405389
 40
0.567682992
 40
0.5835723963
 40
0.5995061391
 40
0.6154812041
 40
0.6314942032
 40
0.6475414081
 40
0.6636187857
 40
0.6797220347
 40
0.695846626
 40
0.7119878442
 40
0.7281408286
 40
0.7443006159
 40
0.7604621826
 40
0.7766204897
 40
0.7927705272
 40
0.8089073579
 40
0.8250261591
 40
0.8411222652
 40
0.85719121
 40
0.8732287678
 40
0.8892309905
 40
0.9051942484
 40
0.9211152564
 40
0.9369911048
 40
0.9528193679
 40
0.9685977669
 40
0.9843253049
 40
1.0
 40
1.0
 40
1.0
 40
1.0
 10
10.4856752182
 20
8.2886763027
 30
0.0
 10
10.4940051314
 20
8.2880986213
 30
0.0
 10
10.51066795
 20
8.287350715
 30
0.0
 10
10.5356424717
 20
8.2874588268
 30
0.0
 10
10.5604977604
 20
8.2887986757
 30
0.0
 10
10.5851728901
 20
8.291366886
 30
0.0
 10
10.6096088208
 20
8.2951574967
 30
0.0
 10
10.6337465105
 20
8.3001613766
 30
0.0
 10
10.6575278118
 20
8.3063665436
 30
0.0
 10
10.6808953841
 20
8.3137580783
 30
0.0
 10
10.7037928841
 20
8.3223182112
 30
0.0
 10
10.72616509
 20
8.3320263591
 30
0.0
 10
10.7479580335
 20
8.3428591718
 30
0.0
 10
10.7691191396
 20
8.3547905713
 30
0.0
 10
10.7895973682
 20
8.3677917972
 30
0.0
 10
10.8093433198
 20
8.3818315146
 30
0.0
 10
10.828309357
 20
8.3968758812
 30
0.0
 10
10.8464497191
 20
8.4128886305
 30
0.0
 10
10.8637206323
 20
8.429831157
 30
0.0
 10
10.8800804509
 20
8.4476625787
 30
0.0
 10
10.8954897293
 20
8.4663398732
 30
0.0
 10
10.9099113161
 20
8.4858179811
 30
0.0
 10
10.9233104444
 20
8.5060499145
 30
0.0
 10
10.9356548078
 20
8.5269868732
 30
0.0
 10
10.9469146761
 20
8.5485783423
 30
0.0
 10
10.9570629516
 20
8.5707722301
 30
0.0
 10
10.9660752141
 20
8.5935150048
 30
0.0
 10
10.9739297839
 20
8.6167518211
 30
0.0
 10
10.9806077657
 20
8.6404266529
 30
0.0
 10
10.9860931132
 20
8.6644824208
 30
0.0
 10
10.9903726861
 20
8.6888611311
 30
0.0
 10
10.9934362391
 20
8.7135040268
 30
0.0
 10
10.9952764518
 20
8.7383517259
 30
0.0
 10
10.9958889426
 20
8.7633443627
 30
0.0
 10
10.9952722789
 20
8.7884217285
 30
0.0
 10
10.9934280238
 20
8.8135234187
 30
0.0
 10
10.9903606861
 20
8.838588981
 30
0.0
 10
10.9860777078
 20
8.8635580578
 30
0.0
 10
10.9805894481
 20
8.8883705299
 30
0.0
 10
10.9739091503
 20
8.9129666552
 30
0.0
 10
10.9660529504
 20
8.9372872226
 30
0.0
 10
10.9570398179
 20
8.9612736927
 30
0.0
 10
10.9468914898
 20
8.9848683319
 30
0.0
 10
10.935632425
 20
9.0080143502
 30
0.0
 10
10.9232897407
 20
9.0306560325
 30
0.0
 10
10.9098931663
 20
9.05273888
 30
0.0
 10
10.8954749859
 20
9.0742097538
 30
0.0
 10
10.8800699249
 20
9.0950169823
 30
0.0
 10
10.8637150739
 20
9.1151104868
 30
0.0
 10
10.8464497997
 20
9.134441899
 30
0.0
 10
10.8283156528
 20
9.1529646752
 30
0.0
 10
10.8093562976
 20
9.1706342392
 30
0.0
 10
10.7896173745
 20
9.1874080622
 30
0.0
 10
10.7691463917
 20
9.2032457615
 30
0.0
 10
10.7479926138
 20
9.2181091987
 30
0.0
 10
10.726206942
 20
9.2319625629
 30
0.0
 10
10.703841814
 20
9.2447724918
 30
0.0
 10
10.6809510643
 20
9.2565081376
 30
0.0
 10
10.6575897867
 20
9.2671412258
 30
0.0
 10
10.6338142053
 20
9.2766461223
 30
0.0
 10
10.6096815507
 20
9.2849998876
 30
0.0
 10
10.585249877
 20
9.2921823912
 30
0.0
 10
10.5605781382
 20
9.2981762177
 30
0.0
 10
10.5357253298
 20
9.3029671053
 30
0.0
 10
10.5107523066
 20
9.3065431175
 30
0.0
 10
10.4940333899
 20
9.3081143945
 30
0.0
 10
10.4856752182
 20
9.3086940357
 30
0.0
  0
SPLINE
  5
375
100
AcDbEntity
  8
0
100
AcDbSpline
 62
7
  6
CONTINUOUS
 70
0
 71
3
 72
41
 73
37
 74
0
 42
0.0000001
 43
0.0000001
 44
0.0000000001
 40
0.0
 40
0.0
 40
0.0
 40
0.0
 40
0.0309552856
 40
0.062044163
 40
0.0932624089
 40
0.1246034294
 40
0.1560589052
 40
0.1876186829
 40
0.2192710436
 40
0.2510028624
 40
0.2827998259
 40
0.3146466505
 40
0.3465273142
 40
0.3784252959
 40
0.4103238195
 40
0.4422061009
 40
0.4740555953
 40
0.5058562411
 40
0.5375927002
 40
0.5692505895
 40
0.6008167028
 40
0.6322792192
 40
0.6636278959
 40
0.6948542417
 40
0.7259516686
 40
0.7569156183
 40
0.78774366
 40
0.818435558
 40
0.8489933039
 40
0.8642251311
 40
0.8794251882
 40
0.9097294601
 40
0.9399186935
 40
0.954975475
 40
0.9700075842
 40
1.0
 40
1.0
 40
1.0
 40
1.0
 10
10.6865186314
 20
6.1227260605
 30
0.0
 10
10.6765507835
 20
6.1234173332
 30
0.0
 10
10.6566105439
 20
6.1254395456
 30
0.0
 10
10.6268928466
 20
6.1303588906
 30
0.0
 10
10.5974176717
 20
6.137151017
 30
0.0
 10
10.5683065275
 20
6.145788053
 30
0.0
 10
10.5396774411
 20
6.1562346906
 30
0.0
 10
10.5116469758
 20
6.1684482977
 30
0.0
 10
10.4843291088
 20
6.182379059
 30
0.0
 10
10.4578349473
 20
6.197970205
 30
0.0
 10
10.4322722331
 20
6.2151582301
 30
0.0
 10
10.4077449221
 20
6.2338731555
 30
0.0
 10
10.3843527616
 20
6.2540388107
 30
0.0
 10
10.3621908892
 20
6.275573142
 30
0.0
 10
10.3413494483
 20
6.2983885441
 30
0.0
 10
10.321913225
 20
6.3223922139
 30
0.0
 10
10.3039613052
 20
6.347486525
 30
0.0
 10
10.2875667552
 20
6.3735694217
 30
0.0
 10
10.2727963261
 20
6.4005348305
 30
0.0
 10
10.2597101832
 20
6.4282730875
 30
0.0
 10
10.2483616625
 20
6.4566713807
 30
0.0
 10
10.238797053
 20
6.4856142032
 30
0.0
 10
10.2310554087
 20
6.5149838208
 30
0.0
 10
10.225168386
 20
6.5446607387
 30
0.0
 10
10.2211601174
 20
6.5745242081
 30
0.0
 10
10.2190470932
 20
6.6044526193
 30
0.0
 10
10.2188381498
 20
6.6343243374
 30
0.0
 10
10.2205342028
 20
6.6640169138
 30
0.0
 10
10.2235332057
 20
6.688539894
 30
0.0
 10
10.2268766386
 20
6.7079432948
 30
0.0
 10
10.2308365192
 20
6.7271468313
 30
0.0
 10
10.2369476471
 20
6.7508221334
 30
0.0
 10
10.244598809
 20
6.7739970902
 30
0.0
 10
10.2516174131
 20
6.7921473137
 30
0.0
 10
10.2592142411
 20
6.8099933353
 30
0.0
 10
10.2655787195
 20
6.8230748079
 30
0.0
 10
10.2701061628
 20
6.8316319031
 30
0.0
  0
SPLINE
  5
376
100
AcDbEntity
  8
0
100
AcDbSpline
 62
7
  6
CONTINUOUS
 70
0
 71
3
 72
32
 73
28
 74
0
 42
0.0000001
 43
0.0000001
 44
0.0000000001
 40
0.0
 40
0.0
 40
0.0
 40
0.0
 40
0.0126611774
 40
0.0256298199
 40
0.0391904615
 40
0.0535892497
 40
0.0690269367
 40
0.0856610084
 40
0.1036099491
 40
0.1229608929
 40
0.143774547
 40
0.1660915428
 40
0.1899353405
 40
0.2153164908
 40
0.2422340212
 40
0.2706781842
 40
0.300631083
 40
0.3320684159
 40
0.3649598281
 40
0.3992699628
 40
0.4719786899
 40
0.5498313613
 40
0.6324054861
 40
0.7192324275
 40
0.8098050997
 40
0.9035829078
 40
1.0
 40
1.0
 40
1.0
 40
1.0
 10
12.5331356018
 20
7.0404941435
 30
0.0
 10
12.5337075007
 20
7.0404544847
 30
0.0
 10
12.5348606836
 20
7.0402787178
 30
0.0
 10
12.5365561905
 20
7.0397328277
 30
0.0
 10
12.5382221862
 20
7.0389071174
 30
0.0
 10
12.5398552725
 20
7.0378053353
 30
0.0
 10
12.5414540235
 20
7.0364311139
 30
0.0
 10
12.5430168681
 20
7.0347874086
 30
0.0
 10
12.5445424155
 20
7.0328772237
 30
0.0
 10
12.5460288155
 20
7.0307035125
 30
0.0
 10
12.5474742427
 20
7.0282696712
 30
0.0
 10
12.5488765485
 20
7.0255794
 30
0.0
 10
12.5502337002
 20
7.0226369202
 30
0.0
 10
12.5515434994
 20
7.0194468522
 30
0.0
 10
12.5528039046
 20
7.0160143018
 30
0.0
 10
12.5540128129
 20
7.0123447843
 30
0.0
 10
12.5551682772
 20
7.0084442501
 30
0.0
 10
12.5562683501
 20
7.0043190468
 30
0.0
 10
12.5573112586
 20
6.9999759071
 30
0.0
 10
12.55864912
 20
6.9937834671
 30
0.0
 10
12.5601537108
 20
6.985546756
 30
0.0
 10
12.5616740789
 20
6.9750989887
 30
0.0
 10
12.562931897
 20
6.9639729865
 30
0.0
 10
12.5639186278
 20
6.9522418788
 30
0.0
 10
12.5646274707
 20
6.9399826854
 30
0.0
 10
12.565053566
 20
6.9272761273
 30
0.0
 10
12.5651460431
 20
6.9186641509
 30
0.0
 10
12.5651460431
 20
6.9142985808
 30
0.0
  0
SPLINE
  5
377
100
AcDbEntity
  8
0
100
AcDbSpline
 62
7
  6
CONTINUOUS
 70
0
 71
3
 72
17
 73
13
 74
0
 42
0.0000001
 43
0.0000001
 44
0.0000000001
 40
0.0
 40
0.0
 40
0.0
 40
0.0
 40
0.1268045722
 40
0.2530530868
 40
0.3787547606
 40
0.4414137422
 40
0.5039431616
 40
0.6286116902
 40
0.7528115011
 40
0.814757202
 40
0.8766023477
 40
1.0
 40
1.0
 40
1.0
 40
1.0
 10
10.6865186314
 20
6.1227260605
 30
0.0
 10
10.6963678859
 20
6.1220430124
 30
0.0
 10
10.7160720091
 20
6.1212980765
 30
0.0
 10
10.7455703526
 20
6.1220598962
 30
0.0
 10
10.7699851106
 20
6.124262819
 30
0.0
 10
10.7893348653
 20
6.1269616143
 30
0.0
 10
10.8085075587
 20
6.1302737438
 30
0.0
 10
10.8321865712
 20
6.1355677843
 30
0.0
 10
10.8554229814
 20
6.1423942452
 30
0.0
 10
10.8736580847
 20
6.148751941
 30
0.0
 10
10.8916129792
 20
6.1556890171
 30
0.0
 10
10.9048030663
 20
6.1615583711
 30
0.0
 10
10.9134448098
 20
6.1657568492
 30
0.0
  0
SPLINE
  5
378
100
AcDbEntity
  8
0
100
AcDbSpline
 62
7
  6
CONTINUOUS
 70
0
 71
3
 72
23
 73
19
 74
0
 42
0.0000001
 43
0.0000001
 44
0.0000000001
 40
0.0
 40
0.0
 40
0.0
 40
0.0
 40
0.0638615549
 40
0.1275031865
 40
0.1909230463
 40
0.2541276772
 40
0.3171223954
 40
0.3799159295
 40
0.4425188203
 40
0.5049436672
 40
0.5672049938
 40
0.6293190755
 40
0.6913037924
 40
0.7531784389
 40
0.8149635253
 40
0.8766805554
 40
0.9383517902
 40
1.0
 40
1.0
 40
1.0
 40
1.0
 10
10.4970632468
 20
8.3421770332
 30
0.0
 10
10.5048671612
 20
8.3416358299
 30
0.0
 10
10.5204779185
 20
8.3409435462
 30
0.0
 10
10.5438738838
 20
8.3410829596
 30
0.0
 10
10.5671531719
 20
8.3424017868
 30
0.0
 10
10.5902561788
 20
8.3448965641
 30
0.0
 10
10.6131251546
 20
8.3485612392
 30
0.0
 10
10.6357023777
 20
8.3533865899
 30
0.0
 10
10.6579310302
 20
8.3593605495
 30
0.0
 10
10.6797551211
 20
8.3664681128
 30
0.0
 10
10.7011196774
 20
8.3746914301
 30
0.0
 10
10.7219708731
 20
8.3840098445
 30
0.0
 10
10.7422561589
 20
8.3943999366
 30
0.0
 10
10.7619244196
 20
8.4058355912
 30
0.0
 10
10.7809260512
 20
8.4182879677
 30
0.0
 10
10.7992133356
 20
8.4317258703
 30
0.0
 10
10.8167395617
 20
8.4461148635
 30
0.0
 10
10.8278891325
 20
8.4563195384
 30
0.0
 10
10.8333206068
 20
8.4615659462
 30
0.0
  0
SPLINE
  5
379
100
AcDbEntity
  8
0
100
AcDbSpline
 62
7
  6
CONTINUOUS
 70
0
 71
3
 72
39
 73
35
 74
0
 42
0.0000001
 43
0.0000001
 44
0.0000000001
 40
0.0
 40
0.0
 40
0.0
 40
0.0
 40
0.0311450333
 40
0.0624431288
 40
0.0938883325
 40
0.1254709893
 40
0.1571788812
 40
0.1889972568
 40
0.2209091708
 40
0.2528958386
 40
0.2849370172
 40
0.3170114072
 40
0.3490970669
 40
0.3811718372
 40
0.413213769
 40
0.4452015481
 40
0.4771149106
 40
0.5089350428
 40
0.5406449654
 40
0.5722298856
 40
0.6036775156
 40
0.6349783564
 40
0.6661259294
 40
0.6971169509
 40
0.7279514545
 40
0.7586328388
 40
0.7891678409
 40
0.8195664412
 40
0.8498416838
 40
0.8800094165
 40
0.9100879631
 40
0.9400977203
 40
0.9700606956
 40
1.0
 40
1.0
 40
1.0
 40
1.0
 10
10.482362337
 20
5.7168862206
 30
0.0
 10
10.4658514323
 20
5.7180312557
 30
0.0
 10
10.4328200066
 20
5.7215354913
 30
0.0
 10
10.3836733437
 20
5.7303627384
 30
0.0
 10
10.3350530812
 20
5.7427270458
 30
0.0
 10
10.2872218207
 20
5.7585619827
 30
0.0
 10
10.2404336542
 20
5.7777826388
 30
0.0
 10
10.1949381617
 20
5.8002861711
 30
0.0
 10
10.1509777363
 20
5.8259523958
 30
0.0
 10
10.1087866005
 20
5.854644219
 30
0.0
 10
10.0685895311
 20
5.8862085283
 30
0.0
 10
10.0306007629
 20
5.9204770371
 30
0.0
 10
9.9950227093
 20
5.9572670043
 30
0.0
 10
9.9620449781
 20
5.9963823194
 30
0.0
 10
9.9318434495
 20
6.0376145807
 30
0.0
 10
9.904579178
 20
6.0807440541
 30
0.0
 10
9.8803976196
 20
6.125540917
 30
0.0
 10
9.8594279673
 20
6.1717665092
 30
0.0
 10
9.8417822775
 20
6.2191744859
 30
0.0
 10
9.827554938
 20
6.2675121698
 30
0.0
 10
9.8168222951
 20
6.316521908
 30
0.0
 10
9.8096420433
 20
6.365942364
 30
0.0
 10
9.8060529493
 20
6.4155099279
 30
0.0
 10
9.8060747874
 20
6.4649601109
 30
0.0
 10
9.8097080192
 20
6.5140289174
 30
0.0
 10
9.816933781
 20
6.5624542714
 30
0.0
 10
9.8277141305
 20
6.6099773808
 30
0.0
 10
9.8419920435
 20
6.6563441397
 30
0.0
 10
9.8596916484
 20
6.7013065065
 30
0.0
 10
9.8807188752
 20
6.744623863
 30
0.0
 10
9.9049614517
 20
6.7860640581
 30
0.0
 10
9.9322906441
 20
6.8254058923
 30
0.0
 10
9.9625576726
 20
6.8624359175
 30
0.0
 10
9.9845960892
 20
6.885458821
 30
0.0
 10
9.9960393045
 20
6.8965121293
 30
0.0
  0
SPLINE
  5
37A
100
AcDbEntity
  8
0
100
AcDbSpline
 62
7
  6
CONTINUOUS
 70
0
 71
3
 72
17
 73
13
 74
0
 42
0.0000001
 43
0.0000001
 44
0.0000000001
 40
0.0
 40
0.0
 40
0.0
 40
0.0
 40
0.1268045722
 40
0.2530530868
 40
0.3787547606
 40
0.4414137422
 40
0.5039431616
 40
0.6286116902
 40
0.7528115011
 40
0.814757202
 40
0.8766023477
 40
1.0
 40
1.0
 40
1.0
 40
1.0
 10
10.6865186314
 20
8.525176893
 30
0.0
 10
10.6963678859
 20
8.5244938449
 30
0.0
 10
10.7160720091
 20
8.5237489089
 30
0.0
 10
10.7455703526
 20
8.5245107286
 30
0.0
 10
10.7699851106
 20
8.5267136514
 30
0.0
 10
10.7893348653
 20
8.5294124468
 30
0.0
 10
10.8085075587
 20
8.5327245762
 30
0.0
 10
10.8321865712
 20
8.5380186168
 30
0.0
 10
10.8554229814
 20
8.5448450777
 30
0.0
 10
10.8736580847
 20
8.5512027734
 30
0.0
 10
10.8916129792
 20
8.5581398496
 30
0.0
 10
10.9048030663
 20
8.5640092035
 30
0.0
 10
10.9134448098
 20
8.5682076816
 30
0.0
  0
SPLINE
  5
37B
100
AcDbEntity
  8
0
100
AcDbSpline
 62
7
  6
CONTINUOUS
 70
0
 71
3
 72
23
 73
19
 74
0
 42
0.0000001
 43
0.0000001
 44
0.0000000001
 40
0.0
 40
0.0
 40
0.0
 40
0.0
 40
0.0638551967
 40
0.1274913695
 40
0.1909086168
 40
0.2541120483
 40
0.3171072588
 40
0.3799026662
 40
0.4425085118
 40
0.5049370844
 40
0.5672025173
 40
0.6293206779
 40
0.6913090067
 40
0.7531863416
 40
0.8149727217
 40
0.8766891756
 40
0.9383574953
 40
1.0
 40
1.0
 40
1.0
 40
1.0
 10
10.4856752182
 20
5.7200862183
 30
0.0
 10
10.496862994
 20
5.7193103434
 30
0.0
 10
10.5192424858
 20
5.7183129601
 30
0.0
 10
10.5527838832
 20
5.7184906323
 30
0.0
 10
10.5861608477
 20
5.7203441703
 30
0.0
 10
10.6192896027
 20
5.7238689722
 30
0.0
 10
10.6520886344
 20
5.7290565177
 30
0.0
 10
10.6844766708
 20
5.7358939954
 30
0.0
 10
10.7163736192
 20
5.74436461
 30
0.0
 10
10.7477005367
 20
5.754447475
 30
0.0
 10
10.7783798909
 20
5.7661177263
 30
0.0
 10
10.8083357392
 20
5.7793465565
 30
0.0
 10
10.8374939185
 20
5.7941012799
 30
0.0
 10
10.8657822548
 20
5.8103454444
 30
0.0
 10
10.8931306415
 20
5.8280388248
 30
0.0
 10
10.9194715988
 20
5.8471378778
 30
0.0
 10
10.9447390121
 20
5.867594525
 30
0.0
 10
10.9608301635
 20
5.8821069123
 30
0.0
 10
10.968673451
 20
5.8895692171
 30
0.0
  0
SPLINE
  5
37C
100
AcDbEntity
  8
0
100
AcDbSpline
 62
7
  6
CONTINUOUS
 70
0
 71
3
 72
39
 73
35
 74
0
 42
0.0000001
 43
0.0000001
 44
0.0000000001
 40
0.0
 40
0.0
 40
0.0
 40
0.0
 40
0.0311408439
 40
0.0624342694
 40
0.0938744065
 40
0.1254516552
 40
0.1571539109
 40
0.1889665425
 40
0.2208727414
 40
0.2528538717
 40
0.2848898427
 40
0.3169595069
 40
0.34904107
 40
0.3811125095
 40
0.4131519968
 40
0.4451383164
 40
0.4770512783
 40
0.5088721147
 40
0.540583856
 40
0.5721716831
 40
0.6036232475
 40
0.6349289466
 40
0.6660821571
 40
0.6970794183
 40
0.7279205475
 40
0.7586086928
 40
0.7891503193
 40
0.8195551139
 40
0.8498358127
 40
0.8800079557
 40
0.9100895652
 40
0.9401007523
 40
0.9700632669
 40
1.0
 40
1.0
 40
1.0
 40
1.0
 10
10.4856752182
 20
5.7200862183
 30
0.0
 10
10.469214183
 20
5.721227795
 30
0.0
 10
10.4362825871
 20
5.7247177701
 30
0.0
 10
10.3872824226
 20
5.7335022705
 30
0.0
 10
10.3388039187
 20
5.7458028681
 30
0.0
 10
10.2911073269
 20
5.7615538792
 30
0.0
 10
10.2444445235
 20
5.7806713794
 30
0.0
 10
10.1990629137
 20
5.8030536677
 30
0.0
 10
10.1552028133
 20
5.8285818959
 30
0.0
 10
10.1130965496
 20
5.8571205985
 30
0.0
 10
10.0729670832
 20
5.8885183558
 30
0.0
 10
10.0350269586
 20
5.9226087276
 30
0.0
 10
9.9994771869
 20
5.959211095
 30
0.0
 10
9.9665060732
 20
5.9981314931
 30
0.0
 10
9.9362883302
 20
6.0391637484
 30
0.0
 10
9.908984204
 20
6.0820905668
 30
0.0
 10
9.8847385071
 20
6.1266845821
 30
0.0
 10
9.8636798858
 20
6.1727095874
 30
0.0
 10
9.8459202445
 20
6.2199218159
 30
0.0
 10
9.8315540785
 20
6.268071166
 30
0.0
 10
9.820657876
 20
6.3169024936
 30
0.0
 10
9.8132898657
 20
6.3661569991
 30
0.0
 10
9.8094896869
 20
6.4155735524
 30
0.0
 10
9.8092779872
 20
6.464890048
 30
0.0
 10
9.812656442
 20
6.5138448077
 30
0.0
 10
9.819607769
 20
6.5621779354
 30
0.0
 10
9.8300956342
 20
6.6096326991
 30
0.0
 10
9.844064855
 20
6.6559569186
 30
0.0
 10
9.8614417578
 20
6.7009042548
 30
0.0
 10
9.8821345393
 20
6.7442356266
 30
0.0
 10
9.9060333146
 20
6.7857202572
 30
0.0
 10
9.9330120279
 20
6.8251380164
 30
0.0
 10
9.9629247016
 20
6.8622763186
 30
0.0
 10
9.9847268565
 20
6.8853942679
 30
0.0
 10
9.9960524531
 20
6.8965006348
 30
0.0
  0
SPLINE
  5
37D
100
AcDbEntity
  8
0
100
AcDbSpline
 62
7
  6
CONTINUOUS
 70
0
 71
3
 72
23
 73
19
 74
0
 42
0.0000001
 43
0.0000001
 44
0.0000000001
 40
0.0
 40
0.0
 40
0.0
 40
0.0
 40
0.0616482082
 40
0.1233194433
 40
0.1850364753
 40
0.2468215633
 40
0.3086962098
 40
0.3706809249
 40
0.4327950058
 40
0.4950563324
 40
0.5574811837
 40
0.6200840682
 40
0.6828776059
 40
0.7458723334
 40
0.8090768587
 40
0.8724970864
 40
0.9361379291
 40
1.0
 40
1.0
 40
1.0
 40
1.0
 10
10.9686853695
 20
8.2920073813
 30
0.0
 10
10.9608299222
 20
8.2844195943
 30
0.0
 10
10.9447045282
 20
8.2696607127
 30
0.0
 10
10.9193566765
 20
8.2488501322
 30
0.0
 10
10.8929081151
 20
8.2294151005
 30
0.0
 10
10.8654263934
 20
8.2114054328
 30
0.0
 10
10.8369805342
 20
8.194866239
 30
0.0
 10
10.8076422915
 20
8.1798392068
 30
0.0
 10
10.7774855833
 20
8.1663621183
 30
0.0
 10
10.7465864036
 20
8.1544688601
 30
0.0
 10
10.7150226014
 20
8.1441893147
 30
0.0
 10
10.6828736871
 20
8.1355492864
 30
0.0
 10
10.6502206431
 20
8.128570458
 30
0.0
 10
10.6171456619
 20
8.1232702865
 30
0.0
 10
10.5837321424
 20
8.1196620755
 30
0.0
 10
10.5500638039
 20
8.1177547383
 30
0.0
 10
10.5162266109
 20
8.1175530419
 30
0.0
 10
10.4936490937
 20
8.1185543138
 30
0.0
 10
10.482362337
 20
8.1193370531
 30
0.0
  0
SPLINE
  5
37E
100
AcDbEntity
  8
0
100
AcDbSpline
 62
7
  6
CONTINUOUS
 70
0
 71
3
 72
36
 73
32
 74
0
 42
0.0000001
 43
0.0000001
 44
0.0000000001
 40
0.0
 40
0.0
 40
0.0
 40
0.0
 40
0.084039477
 40
0.1695103585
 40
0.2553560057
 40
0.340511238
 40
0.4239223757
 40
0.5045636384
 40
0.5435382671
 40
0.5814572504
 40
0.6182079766
 40
0.6536829341
 40
0.6877805404
 40
0.7204057561
 40
0.7514708524
 40
0.7808965051
 40
0.808613118
 40
0.8345621594
 40
0.858698135
 40
0.8809915133
 40
0.9014325509
 40
0.9200366324
 40
0.9368523647
 40
0.9519735562
 40
0.9589483805
 40
0.9655643882
 40
0.9778450686
 40
0.983606525
 40
0.9891794977
 40
0.9946228116
 40
1.0
 40
1.0
 40
1.0
 40
1.0
 10
12.5651460431
 20
10.0052612239
 30
0.0
 10
12.5651460431
 20
9.9989262768
 30
0.0
 10
12.5649472472
 20
9.9861477508
 30
0.0
 10
12.5640845627
 20
9.9669156721
 30
0.0
 10
12.5626647853
 20
9.9476321928
 30
0.0
 10
12.5607067371
 20
9.928551938
 30
0.0
 10
12.5582364127
 20
9.9099268582
 30
0.0
 10
12.5557512861
 20
9.8948226327
 30
0.0
 10
12.5535225425
 20
9.8831580472
 30
0.0
 10
12.5517642949
 20
9.8747733351
 30
0.0
 10
12.5499063252
 20
9.8666805775
 30
0.0
 10
12.5479547743
 20
9.8589064816
 30
0.0
 10
12.5459161669
 20
9.8514766925
 30
0.0
 10
12.5437973008
 20
9.8444156861
 30
0.0
 10
12.5416052348
 20
9.8377466961
 30
0.0
 10
12.5393472678
 20
9.8314916096
 30
0.0
 10
12.5370309317
 20
9.8256708667
 30
0.0
 10
12.534663916
 20
9.8203033864
 30
0.0
 10
12.5322540134
 20
9.8154064846
 30
0.0
 10
12.52980905
 20
9.810995726
 30
0.0
 10
12.5273368146
 20
9.8070848939
 30
0.0
 10
12.5248446076
 20
9.8036856949
 30
0.0
 10
12.5223395247
 20
9.8008085796
 30
0.0
 10
12.5201907023
 20
9.7988013017
 30
0.0
 10
12.5184695389
 20
9.7974860836
 30
0.0
 10
12.5168381924
 20
9.7964156889
 30
0.0
 10
12.5151657126
 20
9.7955785342
 30
0.0
 10
12.5134716185
 20
9.7950232951
 30
0.0
 10
12.5122330117
 20
9.7947554929
 30
0.0
 10
12.5110013467
 20
9.7946283337
 30
0.0
 10
12.5101836116
 20
9.7946376848
 30
0.0
 10
12.5097792469
 20
9.7946657258
 30
0.0
  0
SPLINE
  5
37F
100
AcDbEntity
  8
0
100
AcDbSpline
 62
7
  6
CONTINUOUS
 70
0
 71
3
 72
23
 73
19
 74
0
 42
0.0000001
 43
0.0000001
 44
0.0000000001
 40
0.0
 40
0.0
 40
0.0
 40
0.0
 40
0.0638551967
 40
0.1274913695
 40
0.1909086168
 40
0.2541120483
 40
0.3171072588
 40
0.3799026662
 40
0.4425085118
 40
0.5049370844
 40
0.5672025173
 40
0.6293206779
 40
0.6913090067
 40
0.7531863416
 40
0.8149727217
 40
0.8766891756
 40
0.9383574953
 40
1.0
 40
1.0
 40
1.0
 40
1.0
 10
10.4856752182
 20
8.1225370508
 30
0.0
 10
10.496862994
 20
8.1217611759
 30
0.0
 10
10.5192424858
 20
8.1207637925
 30
0.0
 10
10.5527838832
 20
8.1209414647
 30
0.0
 10
10.5861608477
 20
8.1227950028
 30
0.0
 10
10.6192896027
 20
8.1263198046
 30
0.0
 10
10.6520886344
 20
8.1315073501
 30
0.0
 10
10.6844766708
 20
8.1383448278
 30
0.0
 10
10.7163736192
 20
8.1468154425
 30
0.0
 10
10.7477005367
 20
8.1568983075
 30
0.0
 10
10.7783798909
 20
8.1685685587
 30
0.0
 10
10.8083357392
 20
8.181797389
 30
0.0
 10
10.8374939185
 20
8.1965521123
 30
0.0
 10
10.8657822548
 20
8.2127962768
 30
0.0
 10
10.8931306415
 20
8.2304896573
 30
0.0
 10
10.9194715988
 20
8.2495887102
 30
0.0
 10
10.9447390121
 20
8.2700453575
 30
0.0
 10
10.9608301635
 20
8.2845577448
 30
0.0
 10
10.968673451
 20
8.2920200496
 30
0.0
  0
SPLINE
  5
380
100
AcDbEntity
  8
0
100
AcDbSpline
 62
7
  6
CONTINUOUS
 70
0
 71
3
 72
71
 73
67
 74
0
 42
0.0000001
 43
0.0000001
 44
0.0000000001
 40
0.0
 40
0.0
 40
0.0
 40
0.0
 40
0.0156216999
 40
0.0311907601
 40
0.0467067152
 40
0.0621710784
 40
0.077585053
 40
0.0929506336
 40
0.1082702315
 40
0.1235467316
 40
0.138783465
 40
0.1539841696
 40
0.1691529587
 40
0.1842942792
 40
0.1994128685
 40
0.2145137046
 40
0.2296019546
 40
0.2446829194
 40
0.2597619773
 40
0.2748445271
 40
0.2899359306
 40
0.3050414555
 40
0.3201662189
 40
0.3353151329
 40
0.3504928541
 40
0.3657037359
 40
0.3809517858
 40
0.396240626
 40
0.4115734582
 40
0.4269530343
 40
0.4423816324
 40
0.4578610404
 40
0.473392542
 40
0.4889769091
 40
0.5046143984
 40
0.5203047543
 40
0.5360472179
 40
0.5518405389
 40
0.567682992
 40
0.5835723963
 40
0.5995061391
 40
0.6154812041
 40
0.6314942032
 40
0.6475414081
 40
0.6636187857
 40
0.6797220347
 40
0.695846626
 40
0.7119878442
 40
0.7281408286
 40
0.7443006159
 40
0.7604621826
 40
0.7766204897
 40
0.7927705272
 40
0.8089073579
 40
0.8250261591
 40
0.8411222652
 40
0.85719121
 40
0.8732287678
 40
0.8892309905
 40
0.9051942484
 40
0.9211152564
 40
0.9369911048
 40
0.9528193679
 40
0.9685977669
 40
0.9843253049
 40
1.0
 40
1.0
 40
1.0
 40
1.0
 10
10.4856752182
 20
5.8862254703
 30
0.0
 10
10.4940051314
 20
5.8856477888
 30
0.0
 10
10.51066795
 20
5.8848998826
 30
0.0
 10
10.5356424717
 20
5.8850079943
 30
0.0
 10
10.5604977604
 20
5.8863478433
 30
0.0
 10
10.5851728901
 20
5.8889160535
 30
0.0
 10
10.6096088208
 20
5.8927066643
 30
0.0
 10
10.6337465105
 20
5.8977105442
 30
0.0
 10
10.6575278118
 20
5.9039157111
 30
0.0
 10
10.6808953841
 20
5.9113072458
 30
0.0
 10
10.7037928841
 20
5.9198673788
 30
0.0
 10
10.72616509
 20
5.9295755266
 30
0.0
 10
10.7479580335
 20
5.9404083393
 30
0.0
 10
10.7691191396
 20
5.9523397389
 30
0.0
 10
10.7895973682
 20
5.9653409648
 30
0.0
 10
10.8093433198
 20
5.9793806822
 30
0.0
 10
10.828309357
 20
5.9944250488
 30
0.0
 10
10.8464497191
 20
6.0104377981
 30
0.0
 10
10.8637206323
 20
6.0273803246
 30
0.0
 10
10.8800804509
 20
6.0452117463
 30
0.0
 10
10.8954897293
 20
6.0638890407
 30
0.0
 10
10.9099113161
 20
6.0833671487
 30
0.0
 10
10.9233104444
 20
6.103599082
 30
0.0
 10
10.9356548078
 20
6.1245360408
 30
0.0
 10
10.9469146761
 20
6.1461275099
 30
0.0
 10
10.9570629516
 20
6.1683213976
 30
0.0
 10
10.9660752141
 20
6.1910641724
 30
0.0
 10
10.9739297839
 20
6.2143009887
 30
0.0
 10
10.9806077657
 20
6.2379758204
 30
0.0
 10
10.9860931132
 20
6.2620315884
 30
0.0
 10
10.9903726861
 20
6.2864102987
 30
0.0
 10
10.9934362391
 20
6.3110531944
 30
0.0
 10
10.9952764518
 20
6.3359008935
 30
0.0
 10
10.9958889426
 20
6.3608935303
 30
0.0
 10
10.9952722789
 20
6.3859708961
 30
0.0
 10
10.9934280238
 20
6.4110725863
 30
0.0
 10
10.9903606861
 20
6.4361381485
 30
0.0
 10
10.9860777078
 20
6.4611072254
 30
0.0
 10
10.9805894481
 20
6.4859196974
 30
0.0
 10
10.9739091503
 20
6.5105158228
 30
0.0
 10
10.9660529504
 20
6.5348363901
 30
0.0
 10
10.9570398179
 20
6.5588228602
 30
0.0
 10
10.9468914898
 20
6.5824174994
 30
0.0
 10
10.935632425
 20
6.6055635178
 30
0.0
 10
10.9232897407
 20
6.6282052
 30
0.0
 10
10.9098931663
 20
6.6502880475
 30
0.0
 10
10.8954749859
 20
6.6717589213
 30
0.0
 10
10.8800699249
 20
6.6925661498
 30
0.0
 10
10.8637150739
 20
6.7126596544
 30
0.0
 10
10.8464497997
 20
6.7319910666
 30
0.0
 10
10.8283156528
 20
6.7505138427
 30
0.0
 10
10.8093562976
 20
6.7681834068
 30
0.0
 10
10.7896173745
 20
6.7849572297
 30
0.0
 10
10.7691463917
 20
6.8007949291
 30
0.0
 10
10.7479926138
 20
6.8156583663
 30
0.0
 10
10.726206942
 20
6.8295117304
 30
0.0
 10
10.703841814
 20
6.8423216594
 30
0.0
 10
10.6809510643
 20
6.8540573051
 30
0.0
 10
10.6575897867
 20
6.8646903934
 30
0.0
 10
10.6338142053
 20
6.8741952899
 30
0.0
 10
10.6096815507
 20
6.8825490552
 30
0.0
 10
10.585249877
 20
6.8897315588
 30
0.0
 10
10.5605781382
 20
6.8957253853
 30
0.0
 10
10.5357253298
 20
6.9005162728
 30
0.0
 10
10.5107523066
 20
6.9040922851
 30
0.0
 10
10.4940333899
 20
6.9056635621
 30
0.0
 10
10.4856752182
 20
6.9062432033
 30
0.0
  0
SPLINE
  5
381
100
AcDbEntity
  8
0
100
AcDbSpline
 62
7
  6
CONTINUOUS
 70
0
 71
3
 72
39
 73
35
 74
0
 42
0.0000001
 43
0.0000001
 44
0.0000000001
 40
0.0
 40
0.0
 40
0.0
 40
0.0
 40
0.0311408439
 40
0.0624342694
 40
0.0938744065
 40
0.1254516552
 40
0.1571539109
 40
0.1889665425
 40
0.2208727414
 40
0.2528538717
 40
0.2848898427
 40
0.3169595069
 40
0.34904107
 40
0.3811125095
 40
0.4131519968
 40
0.4451383164
 40
0.4770512783
 40
0.5088721147
 40
0.540583856
 40
0.5721716831
 40
0.6036232475
 40
0.6349289466
 40
0.6660821571
 40
0.6970794183
 40
0.7279205475
 40
0.7586086928
 40
0.7891503193
 40
0.8195551139
 40
0.8498358127
 40
0.8800079557
 40
0.9100895652
 40
0.9401007523
 40
0.9700632669
 40
1.0
 40
1.0
 40
1.0
 40
1.0
 10
10.4856752182
 20
8.1225370508
 30
0.0
 10
10.469214183
 20
8.1236786274
 30
0.0
 10
10.4362825871
 20
8.1271686025
 30
0.0
 10
10.3872824226
 20
8.135953103
 30
0.0
 10
10.3388039187
 20
8.1482537005
 30
0.0
 10
10.2911073269
 20
8.1640047116
 30
0.0
 10
10.2444445235
 20
8.1831222118
 30
0.0
 10
10.1990629137
 20
8.2055045001
 30
0.0
 10
10.1552028133
 20
8.2310327284
 30
0.0
 10
10.1130965496
 20
8.2595714309
 30
0.0
 10
10.0729670832
 20
8.2909691882
 30
0.0
 10
10.0350269586
 20
8.32505956
 30
0.0
 10
9.9994771869
 20
8.3616619274
 30
0.0
 10
9.9665060732
 20
8.4005823256
 30
0.0
 10
9.9362883302
 20
8.4416145808
 30
0.0
 10
9.908984204
 20
8.4845413992
 30
0.0
 10
9.8847385071
 20
8.5291354145
 30
0.0
 10
9.8636798858
 20
8.5751604198
 30
0.0
 10
9.8459202445
 20
8.6223726483
 30
0.0
 10
9.8315540785
 20
8.6705219984
 30
0.0
 10
9.820657876
 20
8.7193533261
 30
0.0
 10
9.8132898657
 20
8.7686078315
 30
0.0
 10
9.8094896869
 20
8.8180243849
 30
0.0
 10
9.8092779872
 20
8.8673408805
 30
0.0
 10
9.812656442
 20
8.9162956402
 30
0.0
 10
9.819607769
 20
8.9646287679
 30
0.0
 10
9.8300956342
 20
9.0120835315
 30
0.0
 10
9.844064855
 20
9.058407751
 30
0.0
 10
9.8614417578
 20
9.1033550873
 30
0.0
 10
9.8821345393
 20
9.1466864591
 30
0.0
 10
9.9060333146
 20
9.1881710896
 30
0.0
 10
9.9330120279
 20
9.2275888488
 30
0.0
 10
9.9629247016
 20
9.264727151
 30
0.0
 10
9.9847268565
 20
9.2878451004
 30
0.0
 10
9.9960524531
 20
9.2989514672
 30
0.0
  0
SPLINE
  5
382
100
AcDbEntity
  8
0
100
AcDbSpline
 62
7
  6
CONTINUOUS
 70
0
 71
3
 72
71
 73
67
 74
0
 42
0.0000001
 43
0.0000001
 44
0.0000000001
 40
0.0
 40
0.0
 40
0.0
 40
0.0
 40
0.0156746951
 40
0.0314022331
 40
0.0471806321
 40
0.0630088952
 40
0.0788847436
 40
0.0948057516
 40
0.1107690095
 40
0.1267712322
 40
0.14280879
 40
0.1588777348
 40
0.1749738409
 40
0.1910926421
 40
0.2072294728
 40
0.2233795103
 40
0.2395378174
 40
0.2556993841
 40
0.2718591714
 40
0.2880121558
 40
0.304153374
 40
0.3202779653
 40
0.3363812143
 40
0.3524585919
 40
0.3685057968
 40
0.3845187959
 40
0.4004938609
 40
0.4164276037
 40
0.432317008
 40
0.4481594611
 40
0.4639527821
 40
0.4796952457
 40
0.4953856016
 40
0.5110230909
 40
0.526607458
 40
0.5421389596
 40
0.5576183676
 40
0.5730469657
 40
0.5884265418
 40
0.603759374
 40
0.6190482142
 40
0.6342962641
 40
0.6495071459
 40
0.6646848671
 40
0.6798337811
 40
0.6949585445
 40
0.7100640694
 40
0.7251554729
 40
0.7402380227
 40
0.7553170806
 40
0.7703980454
 40
0.7854862954
 40
0.8005871315
 40
0.8157057208
 40
0.8308470413
 40
0.8460158304
 40
0.861216535
 40
0.8764532684
 40
0.8917297685
 40
0.9070493664
 40
0.922414947
 40
0.9378289216
 40
0.9532932848
 40
0.9688092399
 40
0.9843783001
 40
1.0
 40
1.0
 40
1.0
 40
1.0
 10
10.4856752182
 20
5.8862254703
 30
0.0
 10
10.4773170465
 20
5.8868051115
 30
0.0
 10
10.4605981298
 20
5.8883763885
 30
0.0
 10
10.4356251066
 20
5.8919524007
 30
0.0
 10
10.4107722981
 20
5.8967432883
 30
0.0
 10
10.3861005594
 20
5.9027371148
 30
0.0
 10
10.3616688857
 20
5.9099196184
 30
0.0
 10
10.3375362311
 20
5.9182733837
 30
0.0
 10
10.3137606496
 20
5.9277782802
 30
0.0
 10
10.2903993721
 20
5.9384113684
 30
0.0
 10
10.2675086224
 20
5.9501470142
 30
0.0
 10
10.2451434944
 20
5.9629569431
 30
0.0
 10
10.2233578226
 20
5.9768103073
 30
0.0
 10
10.2022040447
 20
5.9916737445
 30
0.0
 10
10.1817330618
 20
6.0075114438
 30
0.0
 10
10.1619941387
 20
6.0242852668
 30
0.0
 10
10.1430347836
 20
6.0419548308
 30
0.0
 10
10.1249006367
 20
6.060477607
 30
0.0
 10
10.1076353625
 20
6.0798090192
 30
0.0
 10
10.0912805115
 20
6.0999025237
 30
0.0
 10
10.0758754504
 20
6.1207097522
 30
0.0
 10
10.0614572701
 20
6.142180626
 30
0.0
 10
10.0480606957
 20
6.1642634735
 30
0.0
 10
10.0357180114
 20
6.1869051558
 30
0.0
 10
10.0244589466
 20
6.2100511741
 30
0.0
 10
10.0143106185
 20
6.2336458133
 30
0.0
 10
10.0052974859
 20
6.2576322834
 30
0.0
 10
9.9974412861
 20
6.2819528508
 30
0.0
 10
9.9907609883
 20
6.3065489761
 30
0.0
 10
9.9852727286
 20
6.3313614482
 30
0.0
 10
9.9809897503
 20
6.356330525
 30
0.0
 10
9.9779224126
 20
6.3813960873
 30
0.0
 10
9.9760781575
 20
6.4064977775
 30
0.0
 10
9.9754614938
 20
6.4315751433
 30
0.0
 10
9.9760739846
 20
6.4565677801
 30
0.0
 10
9.9779141973
 20
6.4814154792
 30
0.0
 10
9.9809777503
 20
6.5060583749
 30
0.0
 10
9.9852573232
 20
6.5304370852
 30
0.0
 10
9.9907426707
 20
6.5544928531
 30
0.0
 10
9.9974206524
 20
6.5781676849
 30
0.0
 10
10.0052752223
 20
6.6014045012
 30
0.0
 10
10.0142874848
 20
6.6241472759
 30
0.0
 10
10.0244357603
 20
6.6463411637
 30
0.0
 10
10.0356956285
 20
6.6679326328
 30
0.0
 10
10.048039992
 20
6.6888695916
 30
0.0
 10
10.0614391202
 20
6.7091015249
 30
0.0
 10
10.075860707
 20
6.7285796328
 30
0.0
 10
10.0912699855
 20
6.7472569273
 30
0.0
 10
10.1076298041
 20
6.765088349
 30
0.0
 10
10.1249007173
 20
6.7820308755
 30
0.0
 10
10.1430410794
 20
6.7980436248
 30
0.0
 10
10.1620071166
 20
6.8130879914
 30
0.0
 10
10.1817530682
 20
6.8271277088
 30
0.0
 10
10.2022312968
 20
6.8401289347
 30
0.0
 10
10.2233924029
 20
6.8520603342
 30
0.0
 10
10.2451853464
 20
6.8628931469
 30
0.0
 10
10.2675575523
 20
6.8726012948
 30
0.0
 10
10.2904550522
 20
6.8811614277
 30
0.0
 10
10.3138226246
 20
6.8885529624
 30
0.0
 10
10.3376039259
 20
6.8947581294
 30
0.0
 10
10.3617416156
 20
6.8997620093
 30
0.0
 10
10.3861775463
 20
6.90355262
 30
0.0
 10
10.410852676
 20
6.9061208303
 30
0.0
 10
10.4357079646
 20
6.9074606792
 30
0.0
 10
10.4606824864
 20
6.907568791
 30
0.0
 10
10.4773453049
 20
6.9068208847
 30
0.0
 10
10.4856752182
 20
6.9062432033
 30
0.0
  0
SPLINE
  5
383
100
AcDbEntity
  8
0
100
AcDbSpline
 62
7
  6
CONTINUOUS
 70
0
 71
3
 72
21
 73
17
 74
0
 42
0.0000001
 43
0.0000001
 44
0.0000000001
 40
0.0
 40
0.0
 40
0.0
 40
0.0
 40
0.0616098126
 40
0.1232670756
 40
0.1849902853
 40
0.2467973215
 40
0.3087052963
 40
0.3707303906
 40
0.4328876988
 40
0.4951911074
 40
0.5576532013
 40
0.6202851302
 40
0.6830964348
 40
0.7460953604
 40
0.8726443422
 40
1.0
 40
1.0
 40
1.0
 40
1.0
 10
10.9580969471
 20
8.7001094766
 30
0.0
 10
10.9537074403
 20
8.6964484026
 30
0.0
 10
10.9447432717
 20
8.6893382717
 30
0.0
 10
10.9307840374
 20
8.6793423766
 30
0.0
 10
10.9163358928
 20
8.6700326039
 30
0.0
 10
10.9014297886
 20
8.6614288848
 30
0.0
 10
10.8860970748
 20
8.6535492536
 30
0.0
 10
10.8703701189
 20
8.6464103871
 30
0.0
 10
10.8542821081
 20
8.6400273102
 30
0.0
 10
10.8378670167
 20
8.6344134223
 30
0.0
 10
10.8211594403
 20
8.629580553
 30
0.0
 10
10.8041947261
 20
8.6255389234
 30
0.0
 10
10.7870082699
 20
8.6222969436
 30
0.0
 10
10.7638150032
 20
8.6190450693
 30
0.0
 10
10.7344395428
 20
8.6170177967
 30
0.0
 10
10.7108518627
 20
8.6175771606
 30
0.0
 10
10.6990647005
 20
8.618394603
 30
0.0
  0
SPLINE
  5
384
100
AcDbEntity
  8
0
100
AcDbSpline
 62
7
  6
CONTINUOUS
 70
0
 71
3
 72
39
 73
35
 74
0
 42
0.0000001
 43
0.0000001
 44
0.0000000001
 40
0.0
 40
0.0
 40
0.0
 40
0.0
 40
0.0311450462
 40
0.0624431052
 40
0.093888346
 40
0.1254709894
 40
0.1571788841
 40
0.1889972607
 40
0.2209091756
 40
0.252895844
 40
0.2849370232
 40
0.3170114137
 40
0.349097074
 40
0.3811718446
 40
0.4132137767
 40
0.4452015559
 40
0.4771149183
 40
0.5089350511
 40
0.5406449736
 40
0.5722298924
 40
0.6036775218
 40
0.6349783627
 40
0.666125935
 40
0.697116956
 40
0.7279514587
 40
0.7586328412
 40
0.7891678426
 40
0.819566443
 40
0.8498416848
 40
0.8800094168
 40
0.9100879629
 40
0.9400977196
 40
0.9700606951
 40
1.0
 40
1.0
 40
1.0
 40
1.0
 10
10.4970632468
 20
5.9397262007
 30
0.0
 10
10.4856471267
 20
5.9405179113
 30
0.0
 10
10.4628082546
 20
5.9429408314
 30
0.0
 10
10.4288268345
 20
5.9490442682
 30
0.0
 10
10.3952093904
 20
5.9575933107
 30
0.0
 10
10.3621374667
 20
5.9685420363
 30
0.0
 10
10.329786777
 20
5.9818317368
 30
0.0
 10
10.2983298926
 20
5.9973913528
 30
0.0
 10
10.2679343895
 20
6.0151377238
 30
0.0
 10
10.2387622252
 20
6.0349760837
 30
0.0
 10
10.210968826
 20
6.0568005736
 30
0.0
 10
10.1847022873
 20
6.0804947975
 30
0.0
 10
10.1601025931
 20
6.1059324406
 30
0.0
 10
10.1373008695
 20
6.1329779227
 30
0.0
 10
10.1164186711
 20
6.1614871021
 30
0.0
 10
10.0975673697
 20
6.1913080645
 30
0.0
 10
10.0808475618
 20
6.2222819166
 30
0.0
 10
10.0663485377
 20
6.2542436218
 30
0.0
 10
10.0541478103
 20
6.2870228678
 30
0.0
 10
10.04431066
 20
6.320444947
 30
0.0
 10
10.0368898172
 20
6.3543316942
 30
0.0
 10
10.0319251825
 20
6.3885024212
 30
0.0
 10
10.0294436022
 20
6.4227748648
 30
0.0
 10
10.0294587217
 20
6.4569661453
 30
0.0
 10
10.0319708618
 20
6.49089373
 30
0.0
 10
10.0369670046
 20
6.5243764077
 30
0.0
 10
10.0444208691
 20
6.5572352485
 30
0.0
 10
10.0542930262
 20
6.5892945625
 30
0.0
 10
10.0665310734
 20
6.6203828271
 30
0.0
 10
10.0810699419
 20
6.6503336759
 30
0.0
 10
10.0978319743
 20
6.6789866108
 30
0.0
 10
10.1167281998
 20
6.7061886646
 30
0.0
 10
10.1376557121
 20
6.7317922772
 30
0.0
 10
10.1528937188
 20
6.747710966
 30
0.0
 10
10.1608058868
 20
6.755353543
 30
0.0
  0
SPLINE
  5
385
100
AcDbEntity
  8
0
100
AcDbSpline
 62
7
  6
CONTINUOUS
 70
0
 71
3
 72
42
 73
38
 74
0
 42
0.0000001
 43
0.0000001
 44
0.0000000001
 40
0.0
 40
0.0
 40
0.0
 40
0.0
 40
0.0310059246
 40
0.0465632925
 40
0.0621545665
 40
0.0934331586
 40
0.1248384213
 40
0.1563611543
 40
0.1879901009
 40
0.2197122989
 40
0.2515132634
 40
0.2833772438
 40
0.3152874806
 40
0.3472264784
 40
0.379176285
 40
0.4111187774
 40
0.4430359481
 40
0.474910191
 40
0.5067245833
 40
0.5384631583
 40
0.5701111686
 40
0.6016553342
 40
0.6330840726
 40
0.6643877077
 40
0.6955586523
 40
0.7265915625
 40
0.7574834576
 40
0.7882338039
 40
0.8188445574
 40
0.8493201634
 40
0.8645115625
 40
0.8796719591
 40
0.9099002831
 40
0.9400210279
 40
0.9550474847
 40
0.9700522483
 40
1.0
 40
1.0
 40
1.0
 40
1.0
 10
10.6906428752
 20
6.1533693287
 30
0.0
 10
10.6808896122
 20
6.1540457198
 30
0.0
 10
10.6662703443
 20
6.1555460756
 30
0.0
 10
10.6468931877
 20
6.1584986475
 30
0.0
 10
10.6275370062
 20
6.1620952615
 30
0.0
 10
10.6035005987
 20
6.1677822719
 30
0.0
 10
10.5750732617
 20
6.1764681594
 30
0.0
 10
10.5471527824
 20
6.1869851191
 30
0.0
 10
10.519862142
 20
6.1992868365
 30
0.0
 10
10.493320617
 20
6.2133193311
 30
0.0
 10
10.467644447
 20
6.2290210428
 30
0.0
 10
10.4429460105
 20
6.2463231337
 30
0.0
 10
10.4193334253
 20
6.2651497823
 30
0.0
 10
10.3969100558
 20
6.2854185142
 30
0.0
 10
10.3757740715
 20
6.3070405613
 30
0.0
 10
10.3560180187
 20
6.3299212469
 30
0.0
 10
10.3377284194
 20
6.3539603979
 30
0.0
 10
10.3209853934
 20
6.3790527775
 30
0.0
 10
10.3058623104
 20
6.4050885432
 30
0.0
 10
10.2924254713
 20
6.431953724
 30
0.0
 10
10.2807338188
 20
6.4595307137
 30
0.0
 10
10.2708386799
 20
6.4876987811
 30
0.0
 10
10.2627835405
 20
6.5163345918
 30
0.0
 10
10.2566038533
 20
6.5453127443
 30
0.0
 10
10.2523268789
 20
6.574506306
 30
0.0
 10
10.2499715678
 20
6.6037873894
 30
0.0
 10
10.2495484481
 20
6.6330276086
 30
0.0
 10
10.2510596627
 20
6.6620989999
 30
0.0
 10
10.2544986135
 20
6.6908732345
 30
0.0
 10
10.2589639911
 20
6.7145272463
 30
0.0
 10
10.2634828863
 20
6.7331705392
 30
0.0
 10
10.268616326
 20
6.7515731566
 30
0.0
 10
10.2761929252
 20
6.7741660582
 30
0.0
 10
10.2853000102
 20
6.7961411787
 30
0.0
 10
10.2934701669
 20
6.8132621481
 30
0.0
 10
10.3022083881
 20
6.8300378568
 30
0.0
 10
10.3094161661
 20
6.8422605741
 30
0.0
 10
10.3144968721
 20
6.8502202992
 30
0.0
  0
SPLINE
  5
386
100
AcDbEntity
  8
0
100
AcDbSpline
 62
4
  6
CONTINUOUS
 70
0
 71
3
 72
250
 73
246
 74
0
 42
0.0000001
 43
0.0000001
 44
0.0000000001
 40
0.0
 40
0.0
 40
0.0
 40
0.0
 40
0.015625
 40
0.0234375
 40
0.03125
 40
0.0390625
 40
0.046875
 40
0.05078125
 40
0.0546875
 40
0.056640625
 40
0.05859375
 40
0.060546875
 40
0.0615234375
 40
0.0625
 40
0.0634765625
 40
0.064453125
 40
0.06640625
 40
0.068359375
 40
0.0703125
 40
0.07421875
 40
0.078125
 40
0.0859375
 40
0.09375
 40
0.1015625
 40
0.109375
 40
0.11328125
 40
0.1171875
 40
0.12109375
 40
0.123046875
 40
0.1240234375
 40
0.125
 40
0.1259765625
 40
0.126953125
 40
0.12890625
 40
0.1328125
 40
0.13671875
 40
0.140625
 40
0.1484375
 40
0.15625
 40
0.1640625
 40
0.171875
 40
0.17578125
 40
0.1796875
 40
0.18359375
 40
0.185546875
 40
0.1865234375
 40
0.1875
 40
0.1884765625
 40
0.189453125
 40
0.19140625
 40
0.1953125
 40
0.19921875
 40
0.203125
 40
0.2109375
 40
0.21875
 40
0.2265625
 40
0.234375
 40
0.23828125
 40
0.2421875
 40
0.24609375
 40
0.248046875
 40
0.2490234375
 40
0.25
 40
0.2509765625
 40
0.251953125
 40
0.25390625
 40
0.2578125
 40
0.26171875
 40
0.265625
 40
0.2734375
 40
0.28125
 40
0.2890625
 40
0.296875
 40
0.3046875
 40
0.30859375
 40
0.310546875
 40
0.3125
 40
0.314453125
 40
0.31640625
 40
0.3203125
 40
0.328125
 40
0.3359375
 40
0.34375
 40
0.359375
 40
0.3671875
 40
0.37109375
 40
0.373046875
 40
0.375
 40
0.376953125
 40
0.37890625
 40
0.3828125
 40
0.390625
 40
0.40625
 40
0.421875
 40
0.4296875
 40
0.43359375
 40
0.435546875
 40
0.4375
 40
0.439453125
 40
0.44140625
 40
0.4453125
 40
0.453125
 40
0.4609375
 40
0.46875
 40
0.4765625
 40
0.484375
 40
0.4921875
 40
0.49609375
 40
0.498046875
 40
0.5
 40
0.501953125
 40
0.50390625
 40
0.5078125
 40
0.515625
 40
0.5234375
 40
0.53125
 40
0.5390625
 40
0.546875
 40
0.55078125
 40
0.5546875
 40
0.55859375
 40
0.560546875
 40
0.5615234375
 40
0.5625
 40
0.5634765625
 40
0.564453125
 40
0.56640625
 40
0.5703125
 40
0.57421875
 40
0.578125
 40
0.5859375
 40
0.59375
 40
0.6015625
 40
0.609375
 40
0.61328125
 40
0.6171875
 40
0.62109375
 40
0.623046875
 40
0.6240234375
 40
0.625
 40
0.6259765625
 40
0.626953125
 40
0.62890625
 40
0.6328125
 40
0.63671875
 40
0.640625
 40
0.6484375
 40
0.65625
 40
0.6640625
 40
0.671875
 40
0.67578125
 40
0.6796875
 40
0.68359375
 40
0.685546875
 40
0.6865234375
 40
0.6875
 40
0.6884765625
 40
0.689453125
 40
0.69140625
 40
0.6953125
 40
0.69921875
 40
0.703125
 40
0.7109375
 40
0.71875
 40
0.7265625
 40
0.734375
 40
0.73828125
 40
0.7421875
 40
0.744140625
 40
0.74609375
 40
0.748046875
 40
0.7490234375
 40
0.75
 40
0.7509765625
 40
0.751953125
 40
0.75390625
 40
0.755859375
 40
0.7578125
 40
0.76171875
 40
0.765625
 40
0.7734375
 40
0.78125
 40
0.7890625
 40
0.796875
 40
0.80078125
 40
0.8046875
 40
0.806640625
 40
0.80859375
 40
0.810546875
 40
0.8115234375
 40
0.8120117188
 40
0.8125
 40
0.8129882812
 40
0.8134765625
 40
0.814453125
 40
0.81640625
 40
0.818359375
 40
0.8203125
 40
0.82421875
 40
0.828125
 40
0.8359375
 40
0.84375
 40
0.8515625
 40
0.859375
 40
0.86328125
 40
0.8671875
 40
0.869140625
 40
0.87109375
 40
0.873046875
 40
0.8740234375
 40
0.8745117188
 40
0.875
 40
0.8754882812
 40
0.8759765625
 40
0.876953125
 40
0.87890625
 40
0.880859375
 40
0.8828125
 40
0.88671875
 40
0.890625
 40
0.8984375
 40
0.90625
 40
0.9140625
 40
0.921875
 40
0.92578125
 40
0.9296875
 40
0.931640625
 40
0.93359375
 40
0.935546875
 40
0.9365234375
 40
0.9370117188
 40
0.9375
 40
0.9379882812
 40
0.9384765625
 40
0.939453125
 40
0.94140625
 40
0.943359375
 40
0.9453125
 40
0.94921875
 40
0.953125
 40
0.9609375
 40
0.96875
 40
0.9765625
 40
0.984375
 40
1.0
 40
1.0
 40
1.0
 40
1.0
 10
12.2520787845
 20
7.5840065936
 30
0.0
 10
12.2526820426
 20
7.5848100472
 30
0.0
 10
12.2535869297
 20
7.5860152279
 30
0.0
 10
12.254793446
 20
7.5876221336
 30
0.0
 10
12.2556983329
 20
7.5888273177
 30
0.0
 10
12.2566032208
 20
7.5900324838
 30
0.0
 10
12.257357291
 20
7.5910368447
 30
0.0
 10
12.2579605541
 20
7.5918402083
 30
0.0
 10
12.2583375776
 20
7.5923425956
 30
0.0
 10
12.2586392329
 20
7.5927438527
 30
0.0
 10
12.2588653745
 20
7.5930465826
 30
0.0
 10
12.2590541437
 20
7.5932931726
 30
0.0
 10
12.259204446
 20
7.5935031949
 30
0.0
 10
12.2593191211
 20
7.5936258715
 30
0.0
 10
12.2594263594
 20
7.5938815334
 30
0.0
 10
12.2595719417
 20
7.5941759625
 30
0.0
 10
12.2597530282
 20
7.5945599367
 30
0.0
 10
12.2599707135
 20
7.5950138839
 30
0.0
 10
12.2602608273
 20
7.5956215296
 30
0.0
 10
12.2606235152
 20
7.5963802708
 30
0.0
 10
12.2612037904
 20
7.5975947124
 30
0.0
 10
12.2619291427
 20
7.5991126113
 30
0.0
 10
12.2627995638
 20
7.600934141
 30
0.0
 10
12.2636699785
 20
7.6027557118
 30
0.0
 10
12.2643953466
 20
7.6042735078
 30
0.0
 10
12.2649755902
 20
7.6054881552
 30
0.0
 10
12.2654109119
 20
7.6063980167
 30
0.0
 10
12.265773238
 20
7.6071598105
 30
0.0
 10
12.2660277337
 20
7.6076860486
 30
0.0
 10
12.2661718052
 20
7.6079977134
 30
0.0
 10
12.266283675
 20
7.608200595
 30
0.0
 10
12.2663809577
 20
7.6085214662
 30
0.0
 10
12.2665157561
 20
7.6089081384
 30
0.0
 10
12.2667492827
 20
7.6096039902
 30
0.0
 10
12.2670841316
 20
7.6105880391
 30
0.0
 10
12.2674854197
 20
7.6117731889
 30
0.0
 10
12.2680206558
 20
7.6133518892
 30
0.0
 10
12.2686896369
 20
7.6153257822
 30
0.0
 10
12.269492444
 20
7.6176942182
 30
0.0
 10
12.2702952345
 20
7.6200627687
 30
0.0
 10
12.2709642573
 20
7.6220363756
 30
0.0
 10
12.27149941
 20
7.6236156482
 30
0.0
 10
12.2719009527
 20
7.6247990525
 30
0.0
 10
12.2722350049
 20
7.6257885619
 30
0.0
 10
12.2724699536
 20
7.6264746659
 30
0.0
 10
12.2726024735
 20
7.6268769565
 30
0.0
 10
12.2727067551
 20
7.627149853
 30
0.0
 10
12.2727923383
 20
7.6275329198
 30
0.0
 10
12.2729129715
 20
7.6280052469
 30
0.0
 10
12.2731210407
 20
7.6288497239
 30
0.0
 10
12.2734198712
 20
7.6300467589
 30
0.0
 10
12.2737777877
 20
7.6314872077
 30
0.0
 10
12.2742552474
 20
7.6334064061
 30
0.0
 10
12.2748519896
 20
7.6358058865
 30
0.0
 10
12.2755681193
 20
7.638685048
 30
0.0
 10
12.2762842246
 20
7.6415642973
 30
0.0
 10
12.2768810279
 20
7.6439635582
 30
0.0
 10
12.2773583655
 20
7.6458831956
 30
0.0
 10
12.2777166544
 20
7.6473223059
 30
0.0
 10
12.2780143198
 20
7.6485235281
 30
0.0
 10
12.278224469
 20
7.6493605303
 30
0.0
 10
12.2783417695
 20
7.649844834
 30
0.0
 10
12.2784375895
 20
7.6501911125
 30
0.0
 10
12.2785034236
 20
7.6506021795
 30
0.0
 10
12.2786016619
 20
7.6511276699
 30
0.0
 10
12.2787687057
 20
7.6520578074
 30
0.0
 10
12.2790098874
 20
7.6533810703
 30
0.0
 10
12.2792982147
 20
7.6549713425
 30
0.0
 10
12.2796830335
 20
7.6570908802
 30
0.0
 10
12.2801639163
 20
7.6597406
 30
0.0
 10
12.2807410774
 20
7.6629200727
 30
0.0
 10
12.2813180567
 20
7.6660998333
 30
0.0
 10
12.2818956612
 20
7.6692786333
 30
0.0
 10
12.2823750658
 20
7.6719305953
 30
0.0
 10
12.2827144337
 20
7.6737811688
 30
0.0
 10
12.28290245
 20
7.6748476935
 30
0.0
 10
12.2830601054
 20
7.6756220819
 30
0.0
 10
12.2831541424
 20
7.6764939634
 30
0.0
 10
12.2833017158
 20
7.6776224654
 30
0.0
 10
12.2835496313
 20
7.6796131876
 30
0.0
 10
12.2839091918
 20
7.6824487985
 30
0.0
 10
12.2843383956
 20
7.6858550512
 30
0.0
 10
12.2849112574
 20
7.6903956099
 30
0.0
 10
12.2854851165
 20
7.6949357994
 30
0.0
 10
12.285984238
 20
7.6989101638
 30
0.0
 10
12.2862378703
 20
7.7008949595
 30
0.0
 10
12.2863762525
 20
7.7020329769
 30
0.0
 10
12.2864985275
 20
7.7028756267
 30
0.0
 10
12.2865501244
 20
7.7037598053
 30
0.0
 10
12.2866435718
 20
7.7049242257
 30
0.0
 10
12.2867956369
 20
7.7069686974
 30
0.0
 10
12.2871079613
 20
7.7110528507
 30
0.0
 10
12.2875494329
 20
7.7168899219
 30
0.0
 10
12.2879941211
 20
7.7227258516
 30
0.0
 10
12.2883019423
 20
7.7268116029
 30
0.0
 10
12.2884601994
 20
7.7288538774
 30
0.0
 10
12.2885436753
 20
7.7300218363
 30
0.0
 10
12.2886259105
 20
7.7308951424
 30
0.0
 10
12.2886331109
 20
7.7317786283
 30
0.0
 10
12.2886688845
 20
7.7329530588
 30
0.0
 10
12.2887192933
 20
7.7350099659
 30
0.0
 10
12.2887976857
 20
7.737947544
 30
0.0
 10
12.2888890078
 20
7.7414729891
 30
0.0
 10
12.2889811171
 20
7.7449984057
 30
0.0
 10
12.2890728263
 20
7.7485235849
 30
0.0
 10
12.289165349
 20
7.7520497424
 30
0.0
 10
12.2892400731
 20
7.7549851436
 30
0.0
 10
12.2892970181
 20
7.7570459295
 30
0.0
 10
12.2893223204
 20
7.7582141461
 30
0.0
 10
12.289361685
 20
7.7591167189
 30
0.0
 10
12.289323117
 20
7.7599183381
 30
0.0
 10
12.2892988768
 20
7.7610223774
 30
0.0
 10
12.2892437909
 20
7.7629380393
 30
0.0
 10
12.2891717198
 20
7.7656832788
 30
0.0
 10
12.2890823937
 20
7.7689738857
 30
0.0
 10
12.2889938336
 20
7.7722654869
 30
0.0
 10
12.2889050504
 20
7.7755567915
 30
0.0
 10
12.2888311696
 20
7.7782997054
 30
0.0
 10
12.2887719242
 20
7.7804938006
 30
0.0
 10
12.2887278492
 20
7.7821399837
 30
0.0
 10
12.2886899817
 20
7.7835098623
 30
0.0
 10
12.2886657079
 20
7.784472585
 30
0.0
 10
12.28864835
 20
7.785016767
 30
0.0
 10
12.2886451549
 20
7.7854416513
 30
0.0
 10
12.2886044099
 20
7.7858025171
 30
0.0
 10
12.2885631811
 20
7.7863060019
 30
0.0
 10
12.2884849282
 20
7.7871766961
 30
0.0
 10
12.2883763288
 20
7.7884259843
 30
0.0
 10
12.2882446439
 20
7.7899228019
 30
0.0
 10
12.2880695411
 20
7.7919193724
 30
0.0
 10
12.2878504979
 20
7.7944148037
 30
0.0
 10
12.2875877212
 20
7.7974094531
 30
0.0
 10
12.2873249078
 20
7.800404026
 30
0.0
 10
12.2871059561
 20
7.8028996487
 30
0.0
 10
12.2869306704
 20
7.8048958363
 30
0.0
 10
12.2867995435
 20
7.8063938216
 30
0.0
 10
12.2866891984
 20
7.8076394568
 30
0.0
 10
12.2866140618
 20
7.8085166724
 30
0.0
 10
12.2865678399
 20
7.8090097082
 30
0.0
 10
12.286542432
 20
7.8094026698
 30
0.0
 10
12.2864816335
 20
7.8097070074
 30
0.0
 10
12.2864129134
 20
7.810143704
 30
0.0
 10
12.2862869018
 20
7.81089352
 30
0.0
 10
12.2861098921
 20
7.8119722158
 30
0.0
 10
12.2858961934
 20
7.8132634275
 30
0.0
 10
12.2856117115
 20
7.8149861694
 30
0.0
 10
12.2852559538
 20
7.8171392074
 30
0.0
 10
12.2848291154
 20
7.8197230328
 30
0.0
 10
12.2844022421
 20
7.8223067621
 30
0.0
 10
12.2840465719
 20
7.8244600404
 30
0.0
 10
12.283761915
 20
7.8261823017
 30
0.0
 10
12.2835487499
 20
7.8274749792
 30
0.0
 10
12.2833700709
 20
7.8285490895
 30
0.0
 10
12.2832470392
 20
7.8293070912
 30
0.0
 10
12.2831735445
 20
7.8297306723
 30
0.0
 10
12.2831274122
 20
7.8300752964
 30
0.0
 10
12.2830469204
 20
7.8303169485
 30
0.0
 10
12.282951583
 20
7.8306750691
 30
0.0
 10
12.2827791585
 20
7.8312850455
 30
0.0
 10
12.2825357572
 20
7.8321651893
 30
0.0
 10
12.282242426
 20
7.833217617
 30
0.0
 10
12.2818517542
 20
7.834622162
 30
0.0
 10
12.2813632649
 20
7.8363773954
 30
0.0
 10
12.280777141
 20
7.8384838629
 30
0.0
 10
12.2801910033
 20
7.8405902972
 30
0.0
 10
12.2797025486
 20
7.8423456137
 30
0.0
 10
12.2793118077
 20
7.8437499926
 30
0.0
 10
12.2790675408
 20
7.8446274378
 30
0.0
 10
12.2788722506
 20
7.8453300624
 30
0.0
 10
12.2787254454
 20
7.8458552005
 30
0.0
 10
12.2786041818
 20
7.8462986381
 30
0.0
 10
12.2785047618
 20
7.8466403294
 30
0.0
 10
12.2784367795
 20
7.8469322809
 30
0.0
 10
12.278343671
 20
7.8470880295
 30
0.0
 10
12.2782283032
 20
7.8473432718
 30
0.0
 10
12.2780810821
 20
7.847646001
 30
0.0
 10
12.2779057057
 20
7.8480162631
 30
0.0
 10
12.2776714204
 20
7.8485075055
 30
0.0
 10
12.2773787178
 20
7.8491223941
 30
0.0
 10
12.2769103076
 20
7.8501057489
 30
0.0
 10
12.2763248243
 20
7.8513351023
 30
0.0
 10
12.275622232
 20
7.8528102594
 30
0.0
 10
12.2749196421
 20
7.8542854283
 30
0.0
 10
12.2743341529
 20
7.8555147523
 30
0.0
 10
12.2738657545
 20
7.8564981659
 30
0.0
 10
12.2735730218
 20
7.8571129051
 30
0.0
 10
12.2733387985
 20
7.8576044541
 30
0.0
 10
12.2731632325
 20
7.8579737794
 30
0.0
 10
12.2730166048
 20
7.8582794398
 30
0.0
 10
12.2729145986
 20
7.8584975441
 30
0.0
 10
12.2728553206
 20
7.8586157078
 30
0.0
 10
12.2728136475
 20
7.8587225493
 30
0.0
 10
12.2727613272
 20
7.8587597495
 30
0.0
 10
12.2726952807
 20
7.8588336415
 30
0.0
 10
12.2725779689
 20
7.8589516346
 30
0.0
 10
12.2724112853
 20
7.8591261133
 30
0.0
 10
12.2722108777
 20
7.859332955
 30
0.0
 10
12.2719438029
 20
7.8596096285
 30
0.0
 10
12.2716099131
 20
7.8599551675
 30
0.0
 10
12.2710757152
 20
7.8605081993
 30
0.0
 10
12.2704079589
 20
7.8611994305
 30
0.0
 10
12.2696066554
 20
7.8620289348
 30
0.0
 10
12.2688053502
 20
7.8628584254
 30
0.0
 10
12.2681375982
 20
7.8635496909
 30
0.0
 10
12.2676033917
 20
7.8641026542
 30
0.0
 10
12.2672695238
 20
7.8644483673
 30
0.0
 10
12.2670024039
 20
7.8647246836
 30
0.0
 10
12.2668021341
 20
7.8649326167
 30
0.0
 10
12.2666350196
 20
7.8651036805
 30
0.0
 10
12.266518477
 20
7.8652277698
 30
0.0
 10
12.2664511981
 20
7.8652918941
 30
0.0
 10
12.2664026631
 20
7.8653590976
 30
0.0
 10
12.266346773
 20
7.865353252
 30
0.0
 10
12.2662748183
 20
7.8653709383
 30
0.0
 10
12.2661477023
 20
7.8653900175
 30
0.0
 10
12.265966733
 20
7.8654234803
 30
0.0
 10
12.2657493024
 20
7.8654609789
 30
0.0
 10
12.2654594882
 20
7.8655119049
 30
0.0
 10
12.2650971886
 20
7.8655752448
 30
0.0
 10
12.264517527
 20
7.8656767662
 30
0.0
 10
12.2637929439
 20
7.8658036066
 30
0.0
 10
12.2629234469
 20
7.8659558432
 30
0.0
 10
12.2620539487
 20
7.8661080655
 30
0.0
 10
12.2613293687
 20
7.8662349416
 30
0.0
 10
12.2607497009
 20
7.8663363917
 30
0.0
 10
12.260387417
 20
7.8663999126
 30
0.0
 10
12.2600975706
 20
7.8664504671
 30
0.0
 10
12.2598802385
 20
7.8664891009
 30
0.0
 10
12.2596989607
 20
7.8665190119
 30
0.0
 10
12.2595723955
 20
7.8665444316
 30
0.0
 10
12.2594995583
 20
7.8665519589
 30
0.0
 10
12.259446379
 20
7.8665773185
 30
0.0
 10
12.2593876626
 20
7.8665273208
 30
0.0
 10
12.2593113054
 20
7.8664869427
 30
0.0
 10
12.2591767805
 20
7.8664040341
 30
0.0
 10
12.2589850725
 20
7.8662919961
 30
0.0
 10
12.2587548216
 20
7.8661548098
 30
0.0
 10
12.2584478906
 20
7.8659728521
 30
0.0
 10
12.2580642029
 20
7.8657450772
 30
0.0
 10
12.257450316
 20
7.8653808205
 30
0.0
 10
12.2566829527
 20
7.8649254367
 30
0.0
 10
12.2557621188
 20
7.8643790031
 30
0.0
 10
12.2548412843
 20
7.8638325624
 30
0.0
 10
12.2536135052
 20
7.8631039772
 30
0.0
 10
12.2526926708
 20
7.8625575378
 30
0.0
 10
12.2520787812
 20
7.862193245
 30
0.0
  0
SPLINE
  5
387
100
AcDbEntity
  8
0
100
AcDbSpline
 62
4
  6
CONTINUOUS
 70
0
 71
3
 72
250
 73
246
 74
0
 42
0.0000001
 43
0.0000001
 44
0.0000000001
 40
0.0
 40
0.0
 40
0.0
 40
0.0
 40
0.015625
 40
0.0234375
 40
0.03125
 40
0.0390625
 40
0.046875
 40
0.05078125
 40
0.0546875
 40
0.056640625
 40
0.05859375
 40
0.060546875
 40
0.0615234375
 40
0.0625
 40
0.0634765625
 40
0.064453125
 40
0.06640625
 40
0.068359375
 40
0.0703125
 40
0.07421875
 40
0.078125
 40
0.0859375
 40
0.09375
 40
0.1015625
 40
0.109375
 40
0.11328125
 40
0.1171875
 40
0.12109375
 40
0.123046875
 40
0.1240234375
 40
0.125
 40
0.1259765625
 40
0.126953125
 40
0.12890625
 40
0.1328125
 40
0.13671875
 40
0.140625
 40
0.1484375
 40
0.15625
 40
0.1640625
 40
0.171875
 40
0.17578125
 40
0.1796875
 40
0.18359375
 40
0.185546875
 40
0.1865234375
 40
0.1875
 40
0.1884765625
 40
0.189453125
 40
0.19140625
 40
0.1953125
 40
0.19921875
 40
0.203125
 40
0.2109375
 40
0.21875
 40
0.2265625
 40
0.234375
 40
0.23828125
 40
0.2421875
 40
0.24609375
 40
0.248046875
 40
0.2490234375
 40
0.25
 40
0.2509765625
 40
0.251953125
 40
0.25390625
 40
0.2578125
 40
0.26171875
 40
0.265625
 40
0.2734375
 40
0.28125
 40
0.2890625
 40
0.296875
 40
0.3046875
 40
0.30859375
 40
0.310546875
 40
0.3125
 40
0.314453125
 40
0.31640625
 40
0.3203125
 40
0.328125
 40
0.3359375
 40
0.34375
 40
0.359375
 40
0.3671875
 40
0.37109375
 40
0.373046875
 40
0.375
 40
0.376953125
 40
0.37890625
 40
0.3828125
 40
0.390625
 40
0.40625
 40
0.421875
 40
0.4296875
 40
0.43359375
 40
0.435546875
 40
0.4375
 40
0.439453125
 40
0.44140625
 40
0.4453125
 40
0.453125
 40
0.4609375
 40
0.46875
 40
0.4765625
 40
0.484375
 40
0.4921875
 40
0.49609375
 40
0.498046875
 40
0.5
 40
0.501953125
 40
0.50390625
 40
0.5078125
 40
0.515625
 40
0.5234375
 40
0.53125
 40
0.5390625
 40
0.546875
 40
0.55078125
 40
0.5546875
 40
0.55859375
 40
0.560546875
 40
0.5615234375
 40
0.5625
 40
0.5634765625
 40
0.564453125
 40
0.56640625
 40
0.5703125
 40
0.57421875
 40
0.578125
 40
0.5859375
 40
0.59375
 40
0.6015625
 40
0.609375
 40
0.61328125
 40
0.6171875
 40
0.62109375
 40
0.623046875
 40
0.6240234375
 40
0.625
 40
0.6259765625
 40
0.626953125
 40
0.62890625
 40
0.6328125
 40
0.63671875
 40
0.640625
 40
0.6484375
 40
0.65625
 40
0.6640625
 40
0.671875
 40
0.67578125
 40
0.6796875
 40
0.68359375
 40
0.685546875
 40
0.6865234375
 40
0.6875
 40
0.6884765625
 40
0.689453125
 40
0.69140625
 40
0.6953125
 40
0.69921875
 40
0.703125
 40
0.7109375
 40
0.71875
 40
0.7265625
 40
0.734375
 40
0.73828125
 40
0.7421875
 40
0.744140625
 40
0.74609375
 40
0.748046875
 40
0.7490234375
 40
0.75
 40
0.7509765625
 40
0.751953125
 40
0.75390625
 40
0.755859375
 40
0.7578125
 40
0.76171875
 40
0.765625
 40
0.7734375
 40
0.78125
 40
0.7890625
 40
0.796875
 40
0.80078125
 40
0.8046875
 40
0.806640625
 40
0.80859375
 40
0.810546875
 40
0.8115234375
 40
0.8120117188
 40
0.8125
 40
0.8129882812
 40
0.8134765625
 40
0.814453125
 40
0.81640625
 40
0.818359375
 40
0.8203125
 40
0.82421875
 40
0.828125
 40
0.8359375
 40
0.84375
 40
0.8515625
 40
0.859375
 40
0.86328125
 40
0.8671875
 40
0.869140625
 40
0.87109375
 40
0.873046875
 40
0.8740234375
 40
0.8745117188
 40
0.875
 40
0.8754882812
 40
0.8759765625
 40
0.876953125
 40
0.87890625
 40
0.880859375
 40
0.8828125
 40
0.88671875
 40
0.890625
 40
0.8984375
 40
0.90625
 40
0.9140625
 40
0.921875
 40
0.92578125
 40
0.9296875
 40
0.931640625
 40
0.93359375
 40
0.935546875
 40
0.9365234375
 40
0.9370117188
 40
0.9375
 40
0.9379882812
 40
0.9384765625
 40
0.939453125
 40
0.94140625
 40
0.943359375
 40
0.9453125
 40
0.94921875
 40
0.953125
 40
0.9609375
 40
0.96875
 40
0.9765625
 40
0.984375
 40
1.0
 40
1.0
 40
1.0
 40
1.0
 10
12.2520787845
 20
7.8621932481
 30
0.0
 10
12.2514755264
 20
7.8613897946
 30
0.0
 10
12.2505706393
 20
7.8601846139
 30
0.0
 10
12.249364123
 20
7.8585777081
 30
0.0
 10
12.2484592361
 20
7.8573725241
 30
0.0
 10
12.2475543482
 20
7.856167358
 30
0.0
 10
12.246800278
 20
7.855162997
 30
0.0
 10
12.2461970149
 20
7.8543596334
 30
0.0
 10
12.2458199914
 20
7.8538572462
 30
0.0
 10
12.2455183361
 20
7.853455989
 30
0.0
 10
12.2452921945
 20
7.8531532591
 30
0.0
 10
12.2451034253
 20
7.8529066692
 30
0.0
 10
12.244953123
 20
7.8526966469
 30
0.0
 10
12.2448384479
 20
7.8525739702
 30
0.0
 10
12.2447312096
 20
7.8523183083
 30
0.0
 10
12.2445856273
 20
7.8520238793
 30
0.0
 10
12.2444045408
 20
7.851639905
 30
0.0
 10
12.2441868555
 20
7.8511859578
 30
0.0
 10
12.2438967417
 20
7.8505783122
 30
0.0
 10
12.2435340538
 20
7.8498195709
 30
0.0
 10
12.2429537786
 20
7.8486051294
 30
0.0
 10
12.2422284263
 20
7.8470872304
 30
0.0
 10
12.2413580052
 20
7.8452657008
 30
0.0
 10
12.2404875905
 20
7.84344413
 30
0.0
 10
12.2397622224
 20
7.8419263339
 30
0.0
 10
12.2391819788
 20
7.8407116865
 30
0.0
 10
12.2387466571
 20
7.839801825
 30
0.0
 10
12.2383843311
 20
7.8390400312
 30
0.0
 10
12.2381298353
 20
7.8385137932
 30
0.0
 10
12.2379857638
 20
7.8382021283
 30
0.0
 10
12.2378738941
 20
7.8379992468
 30
0.0
 10
12.2377766113
 20
7.8376783755
 30
0.0
 10
12.2376418129
 20
7.8372917033
 30
0.0
 10
12.2374082863
 20
7.8365958515
 30
0.0
 10
12.2370734374
 20
7.8356118027
 30
0.0
 10
12.2366721493
 20
7.8344266529
 30
0.0
 10
12.2361369132
 20
7.8328479526
 30
0.0
 10
12.2354679321
 20
7.8308740595
 30
0.0
 10
12.234665125
 20
7.8285056235
 30
0.0
 10
12.2338623346
 20
7.8261370731
 30
0.0
 10
12.2331933117
 20
7.8241634661
 30
0.0
 10
12.2326581591
 20
7.8225841936
 30
0.0
 10
12.2322566163
 20
7.8214007892
 30
0.0
 10
12.2319225641
 20
7.8204112799
 30
0.0
 10
12.2316876154
 20
7.8197251759
 30
0.0
 10
12.2315550955
 20
7.8193228853
 30
0.0
 10
12.2314508139
 20
7.8190499888
 30
0.0
 10
12.2313652307
 20
7.818666922
 30
0.0
 10
12.2312445975
 20
7.8181945949
 30
0.0
 10
12.2310365283
 20
7.8173501179
 30
0.0
 10
12.2307376978
 20
7.8161530829
 30
0.0
 10
12.2303797813
 20
7.8147126341
 30
0.0
 10
12.2299023216
 20
7.8127934356
 30
0.0
 10
12.2293055794
 20
7.8103939553
 30
0.0
 10
12.2285894497
 20
7.8075147937
 30
0.0
 10
12.2278733444
 20
7.8046355444
 30
0.0
 10
12.2272765411
 20
7.8022362835
 30
0.0
 10
12.2267992035
 20
7.8003166462
 30
0.0
 10
12.2264409146
 20
7.7988775359
 30
0.0
 10
12.2261432492
 20
7.7976763136
 30
0.0
 10
12.2259331
 20
7.7968393115
 30
0.0
 10
12.2258157995
 20
7.7963550078
 30
0.0
 10
12.2257199796
 20
7.7960087292
 30
0.0
 10
12.2256541454
 20
7.7955976622
 30
0.0
 10
12.2255559071
 20
7.7950721718
 30
0.0
 10
12.2253888633
 20
7.7941420343
 30
0.0
 10
12.2251476816
 20
7.7928187714
 30
0.0
 10
12.2248593543
 20
7.7912284992
 30
0.0
 10
12.2244745355
 20
7.7891089615
 30
0.0
 10
12.2239936527
 20
7.7864592417
 30
0.0
 10
12.2234164916
 20
7.783279769
 30
0.0
 10
12.2228395123
 20
7.7801000084
 30
0.0
 10
12.2222619078
 20
7.7769212084
 30
0.0
 10
12.2217825032
 20
7.7742692464
 30
0.0
 10
12.2214431353
 20
7.7724186729
 30
0.0
 10
12.221255119
 20
7.7713521483
 30
0.0
 10
12.2210974636
 20
7.7705777598
 30
0.0
 10
12.2210034266
 20
7.7697058784
 30
0.0
 10
12.2208558532
 20
7.7685773763
 30
0.0
 10
12.2206079377
 20
7.7665866542
 30
0.0
 10
12.2202483772
 20
7.7637510432
 30
0.0
 10
12.2198191734
 20
7.7603447905
 30
0.0
 10
12.2192463116
 20
7.7558042319
 30
0.0
 10
12.2186724525
 20
7.7512640424
 30
0.0
 10
12.218173331
 20
7.747289678
 30
0.0
 10
12.2179196987
 20
7.7453048822
 30
0.0
 10
12.2177813165
 20
7.7441668648
 30
0.0
 10
12.2176590415
 20
7.7433242151
 30
0.0
 10
12.2176074446
 20
7.7424400364
 30
0.0
 10
12.2175139972
 20
7.7412756161
 30
0.0
 10
12.2173619321
 20
7.7392311443
 30
0.0
 10
12.2170496077
 20
7.735146991
 30
0.0
 10
12.2166081361
 20
7.7293099199
 30
0.0
 10
12.2161634479
 20
7.7234739902
 30
0.0
 10
12.2158556267
 20
7.7193882388
 30
0.0
 10
12.2156973696
 20
7.7173459644
 30
0.0
 10
12.2156138938
 20
7.7161780055
 30
0.0
 10
12.2155316586
 20
7.7153046994
 30
0.0
 10
12.2155244581
 20
7.7144212134
 30
0.0
 10
12.2154886845
 20
7.713246783
 30
0.0
 10
12.2154382757
 20
7.7111898758
 30
0.0
 10
12.2153598833
 20
7.7082522977
 30
0.0
 10
12.2152685612
 20
7.7047268526
 30
0.0
 10
12.2151764519
 20
7.701201436
 30
0.0
 10
12.2150847427
 20
7.6976762569
 30
0.0
 10
12.21499222
 20
7.6941500993
 30
0.0
 10
12.2149174959
 20
7.6912146981
 30
0.0
 10
12.2148605509
 20
7.6891539122
 30
0.0
 10
12.2148352486
 20
7.6879856956
 30
0.0
 10
12.214795884
 20
7.6870831229
 30
0.0
 10
12.214834452
 20
7.6862815037
 30
0.0
 10
12.2148586922
 20
7.6851774643
 30
0.0
 10
12.2149137781
 20
7.6832618024
 30
0.0
 10
12.2149858492
 20
7.680516563
 30
0.0
 10
12.2150751753
 20
7.677225956
 30
0.0
 10
12.2151637354
 20
7.6739343549
 30
0.0
 10
12.2152525186
 20
7.6706430503
 30
0.0
 10
12.2153263994
 20
7.6679001364
 30
0.0
 10
12.2153856449
 20
7.6657060412
 30
0.0
 10
12.2154297198
 20
7.6640598581
 30
0.0
 10
12.2154675873
 20
7.6626899794
 30
0.0
 10
12.2154918611
 20
7.6617272567
 30
0.0
 10
12.2155092191
 20
7.6611830747
 30
0.0
 10
12.2155124141
 20
7.6607581904
 30
0.0
 10
12.2155531591
 20
7.6603973246
 30
0.0
 10
12.2155943879
 20
7.6598938399
 30
0.0
 10
12.2156726408
 20
7.6590231457
 30
0.0
 10
12.2157812402
 20
7.6577738574
 30
0.0
 10
12.2159129252
 20
7.6562770398
 30
0.0
 10
12.2160880279
 20
7.6542804694
 30
0.0
 10
12.2163070711
 20
7.651785038
 30
0.0
 10
12.2165698478
 20
7.6487903886
 30
0.0
 10
12.2168326612
 20
7.6457958158
 30
0.0
 10
12.2170516129
 20
7.643300193
 30
0.0
 10
12.2172268986
 20
7.6413040054
 30
0.0
 10
12.2173580255
 20
7.6398060201
 30
0.0
 10
12.2174683706
 20
7.638560385
 30
0.0
 10
12.2175435072
 20
7.6376831694
 30
0.0
 10
12.2175897291
 20
7.6371901336
 30
0.0
 10
12.217615137
 20
7.6367971719
 30
0.0
 10
12.2176759355
 20
7.6364928343
 30
0.0
 10
12.2177446556
 20
7.6360561378
 30
0.0
 10
12.2178706672
 20
7.6353063218
 30
0.0
 10
12.2180476769
 20
7.634227626
 30
0.0
 10
12.2182613756
 20
7.6329364143
 30
0.0
 10
12.2185458575
 20
7.6312136723
 30
0.0
 10
12.2189016152
 20
7.6290606343
 30
0.0
 10
12.2193284536
 20
7.6264768089
 30
0.0
 10
12.2197553269
 20
7.6238930797
 30
0.0
 10
12.2201109971
 20
7.6217398014
 30
0.0
 10
12.220395654
 20
7.62001754
 30
0.0
 10
12.2206088191
 20
7.6187248626
 30
0.0
 10
12.2207874981
 20
7.6176507522
 30
0.0
 10
12.2209105298
 20
7.6168927506
 30
0.0
 10
12.2209840245
 20
7.6164691695
 30
0.0
 10
12.2210301568
 20
7.6161245453
 30
0.0
 10
12.2211106486
 20
7.6158828932
 30
0.0
 10
12.221205986
 20
7.6155247726
 30
0.0
 10
12.2213784105
 20
7.6149147963
 30
0.0
 10
12.2216218118
 20
7.6140346524
 30
0.0
 10
12.221915143
 20
7.6129822247
 30
0.0
 10
12.2223058148
 20
7.6115776797
 30
0.0
 10
12.2227943041
 20
7.6098224463
 30
0.0
 10
12.223380428
 20
7.6077159788
 30
0.0
 10
12.2239665657
 20
7.6056095445
 30
0.0
 10
12.2244550204
 20
7.603854228
 30
0.0
 10
12.2248457613
 20
7.6024498491
 30
0.0
 10
12.2250900282
 20
7.6015724039
 30
0.0
 10
12.2252853184
 20
7.6008697794
 30
0.0
 10
12.2254321236
 20
7.6003446412
 30
0.0
 10
12.2255533873
 20
7.5999012036
 30
0.0
 10
12.2256528072
 20
7.5995595124
 30
0.0
 10
12.2257207895
 20
7.5992675609
 30
0.0
 10
12.225813898
 20
7.5991118122
 30
0.0
 10
12.2259292658
 20
7.59885657
 30
0.0
 10
12.2260764869
 20
7.5985538407
 30
0.0
 10
12.2262518633
 20
7.5981835786
 30
0.0
 10
12.2264861486
 20
7.5976923362
 30
0.0
 10
12.2267788512
 20
7.5970774476
 30
0.0
 10
12.2272472614
 20
7.5960940928
 30
0.0
 10
12.2278327447
 20
7.5948647395
 30
0.0
 10
12.228535337
 20
7.5933895823
 30
0.0
 10
12.2292379269
 20
7.5919144134
 30
0.0
 10
12.2298234161
 20
7.5906850894
 30
0.0
 10
12.2302918145
 20
7.5897016759
 30
0.0
 10
12.2305845473
 20
7.5890869367
 30
0.0
 10
12.2308187705
 20
7.5885953876
 30
0.0
 10
12.2309943366
 20
7.5882260624
 30
0.0
 10
12.2311409643
 20
7.5879204019
 30
0.0
 10
12.2312429704
 20
7.5877022976
 30
0.0
 10
12.2313022484
 20
7.5875841339
 30
0.0
 10
12.2313439215
 20
7.5874772925
 30
0.0
 10
12.2313962418
 20
7.5874400922
 30
0.0
 10
12.2314622883
 20
7.5873662002
 30
0.0
 10
12.2315796001
 20
7.5872482071
 30
0.0
 10
12.2317462837
 20
7.5870737285
 30
0.0
 10
12.2319466913
 20
7.5868668868
 30
0.0
 10
12.2322137661
 20
7.5865902132
 30
0.0
 10
12.232547656
 20
7.5862446742
 30
0.0
 10
12.2330818538
 20
7.5856916424
 30
0.0
 10
12.2337496101
 20
7.5850004112
 30
0.0
 10
12.2345509136
 20
7.5841709069
 30
0.0
 10
12.2353522188
 20
7.5833414163
 30
0.0
 10
12.2360199708
 20
7.5826501508
 30
0.0
 10
12.2365541773
 20
7.5820971875
 30
0.0
 10
12.2368880452
 20
7.5817514745
 30
0.0
 10
12.2371551651
 20
7.5814751582
 30
0.0
 10
12.2373554349
 20
7.581267225
 30
0.0
 10
12.2375225494
 20
7.5810961613
 30
0.0
 10
12.2376390921
 20
7.580972072
 30
0.0
 10
12.2377063709
 20
7.5809079477
 30
0.0
 10
12.2377549059
 20
7.5808407442
 30
0.0
 10
12.237810796
 20
7.5808465897
 30
0.0
 10
12.2378827507
 20
7.5808289034
 30
0.0
 10
12.2380098667
 20
7.5808098242
 30
0.0
 10
12.238190836
 20
7.5807763615
 30
0.0
 10
12.2384082667
 20
7.5807388629
 30
0.0
 10
12.2386980808
 20
7.5806879368
 30
0.0
 10
12.2390603804
 20
7.5806245969
 30
0.0
 10
12.239640042
 20
7.5805230755
 30
0.0
 10
12.2403646251
 20
7.5803962351
 30
0.0
 10
12.2412341221
 20
7.5802439985
 30
0.0
 10
12.2421036203
 20
7.5800917762
 30
0.0
 10
12.2428282003
 20
7.5799649002
 30
0.0
 10
12.2434078681
 20
7.57986345
 30
0.0
 10
12.243770152
 20
7.5797999291
 30
0.0
 10
12.2440599984
 20
7.5797493746
 30
0.0
 10
12.2442773305
 20
7.5797107408
 30
0.0
 10
12.2444586083
 20
7.5796808298
 30
0.0
 10
12.2445851735
 20
7.5796554101
 30
0.0
 10
12.2446580107
 20
7.5796478828
 30
0.0
 10
12.24471119
 20
7.5796225233
 30
0.0
 10
12.2447699064
 20
7.5796725209
 30
0.0
 10
12.2448462636
 20
7.5797128991
 30
0.0
 10
12.2449807885
 20
7.5797958076
 30
0.0
 10
12.2451724965
 20
7.5799078457
 30
0.0
 10
12.2454027474
 20
7.5800450319
 30
0.0
 10
12.2457096784
 20
7.5802269896
 30
0.0
 10
12.2460933661
 20
7.5804547646
 30
0.0
 10
12.246707253
 20
7.5808190213
 30
0.0
 10
12.2474746163
 20
7.581274405
 30
0.0
 10
12.2483954502
 20
7.5818208386
 30
0.0
 10
12.2493162847
 20
7.5823672794
 30
0.0
 10
12.2505440638
 20
7.5830958645
 30
0.0
 10
12.2514648982
 20
7.583642304
 30
0.0
 10
12.2520787878
 20
7.5840065968
 30
0.0
  0
ENDSEC
  0
SECTION
  2
OBJECTS
  0
DICTIONARY
  5
C
100
AcDbDictionary
280
0
281
1
  3
ACAD_GROUP
350
D
  3
ACAD_MLINESTYLE
350
17
  3
ACAD_LAYOUT
350
1A
  3
ACAD_PLOTSETTINGS
350
19
  3
ACAD_PLOTSTYLENAME
350
E
  3
ACAD_IMAGE_DICT
350
       389
  3
ACAD_IMAGE_VARS
350
       38A
  3
ACAD_TABLESTYLE
350
       38B
  0
IMAGEDEF_REACTOR
  5
388
100
AcDbRasterImageDefReactor
 90
2
330
287
  0
DICTIONARY
  5
D
102
{ACAD_REACTORS
330
C
102
}
100
AcDbDictionary
280
0
281
1
  0
ACDBDICTIONARYWDFLT
  5
E
102
{ACAD_REACTORS
330
C
102
}
100
AcDbDictionary
281
1
  3
Normal
350
F
100
AcDbDictionaryWithDefault
340
F
  0
DICTIONARY
  5
389
330
C
100
AcDbDictionary
281
1
  3
FSFDXAN-QMX_assy_2_img_1
350
       38E
  0
RASTERVARIABLES
  5
38A
330
C
100
AcDbRasterVariables
 90
0
 70
0
 71
1
 72
5
  0
DICTIONARY
  5
17
102
{ACAD_REACTORS
330
C
102
}
100
AcDbDictionary
280
0
281
1
  3
Standard
350
18
  0
DICTIONARY
  5
38B
330
C
100
AcDbDictionary
281
1
  3
Standard
350
       38F
  3
Standard1
350
       390
  0
DICTIONARY
  5
19
102
{ACAD_REACTORS
330
C
102
}
100
AcDbDictionary
281
1
  0
DICTIONARY
  5
1A
102
{ACAD_REACTORS
330
C
102
}
100
AcDbDictionary
281
1
  3
Model
350
38C
  3
Layout1
350
38D
  0
ACDBPLACEHOLDER
  5
F
102
{ACAD_REACTORS
330
E
102
}
  0
MLINESTYLE
  5
18
102
{ACAD_REACTORS
330
17
102
}
100
AcDbMlineStyle
  2
STANDARD
 70
0
  3

 62
256
 51
90.0
 52
90.0
 71
2
 49
0.5
 62
256
  6
BYLAYER
 49
-0.5
 62
256
  6
BYLAYER
  0
LAYOUT
  5
38C
102
{ACAD_REACTORS
330
1A
102
}
100
AcDbPlotSettings
  1

  2
none_device
  4
ANSI_C_(22.00_x_17.00_Inches)
  6

 40
0.0
 41
0.0
 42
0.0
 43
0.0
 44
558.8
 45
431.8
 46
0.0
 47
0.0
 48
0.0
 49
0.0
140
0.0
141
0.0
142
1.0
143
1.0
 70
1024
 72
0
 73
0
 74
0
  7

 75
0
147
1.0
148
0.0
149
0.0
100
AcDbLayout
  1
Model
 70
0
 71
0
 10
0.0
 20
0.0
 11
22.0
 21
17.0
 12
0.0
 22
0.0
 32
0.0
 14
0.0
 24
0.0
 34
0.0
 15
0.0
 25
0.0
 35
0.0
146
0.0
 13
0.0
 23
0.0
 33
0.0
 16
1.0
 26
0.0
 36
0.0
 17
0.0
 27
1.0
 37
0.0
 76
0
330
20C
345
0
346
0
  0
LAYOUT
  5
38D
102
{ACAD_REACTORS
330
1A
102
}
100
AcDbPlotSettings
  1

  2
none_device
  4
ANSI_C_(22.00_x_17.00_Inches)
  6

 40
0.0
 41
0.0
 42
0.0
 43
0.0
 44
558.8
 45
431.8
 46
0.0
 47
0.0
 48
0.0
 49
0.0
140
0.0
141
0.0
142
1.0
143
1.0
 70
0
 72
0
 73
0
 74
0
  7

 75
0
147
1.0
148
0.0
149
0.0
100
AcDbLayout
  1
Layout1
 70
0
 71
1
 10
0.0
 20
0.0
 11
22.0
 21
17.0
 12
0.0
 22
0.0
 32
0.0
 14
0.0
 24
0.0
 34
0.0
 15
0.0
 25
0.0
 35
0.0
146
0.0
 13
0.0
 23
0.0
 33
0.0
 16
1.0
 26
0.0
 36
0.0
 17
0.0
 27
1.0
 37
0.0
 76
0
330
20D
345
0
346
0
  0
IMAGEDEF
  5
38E
102
{ACAD_REACTORS
330
389
330
388
102
}
100
AcDbRasterImageDef
 90
0
  1
FSFDXAN-QMX_assy_2_img_1.png
 10
369.0
 20
92.0
 11
0.0066666667
 21
0.0066666667
280
1
281
0
  0
TABLESTYLE
  5
38F
102
{ACAD_REACTORS
330
38B
330
28A
330
28B
102
}
330
38B
100
AcDbTableStyle
  3
Standard
 70
0
 71
0
 40
0.06
 41
0.06
280
1
281
1
  7
Standard
140
0.18
170
1
 62
0
 63
7
283
0
  7
Standard
140
0.18
170
1
 62
0
 63
7
283
0
  7
Standard
140
0.18
170
1
 62
0
 63
7
283
0
  0
TABLESTYLE
  5
390
102
{ACAD_REACTORS
330
38B
330
289
102
}
330
38B
100
AcDbTableStyle
  3
Standard1
 70
1
 71
0
 40
0.06
 41
0.06
280
1
281
1
  7
Standard
140
0.18
170
1
 62
0
 63
7
283
0
  7
Standard
140
0.18
170
1
 62
0
 63
7
283
0
  7
Standard
140
0.18
170
1
 62
0
 63
7
283
0
  0
ENDSEC
  0
EOF
