999
DXF file: FSFAXAN-QMX_assy_2.dxf
999
Pro/ENGINEER 2014200 by Parametric Technology Corporation
  0
SECTION
  2
HEADER
  9
$ACADVER
  1
AC1021
  9
$DWGCODEPAGE
  3
ANSI_1252
  9
$EXTMAX
 10
22.0
 20
17.0
 30
0.0
  9
$EXTMIN
 10
0.0
 20
0.0
 30
0.0
  9
$LIMMIN
 10
0.0
 20
0.0
  9
$LIMMAX
 10
22.0
 20
17.0
  9
$VIEWCTR
 10
11.0
 20
8.5
  9
$VIEWSIZE
 40
17.0
  9
$CLAYER
  8
0
  9
$LTSCALE
 40
1.21
  9
$CELTYPE
  6
BYLAYER
  9
$DIMSCALE
 40
1.0
  9
$DIMASZ
 40
0.1875
  9
$DIMEXO
 40
0.0625
  9
$DIMDLI
 40
0.836
  9
$DIMEXE
 40
0.125
  9
$DIMCEN
 40
0.198
  9
$DIMLFAC
 40
1.0
  9
$DIMBLK
  1
_FILLED
  9
$DIMTXT
 40
0.1
  9
$DIMTOL
 70
0
  9
$DIMLIM
 70
0
  9
$DIMTFAC
 40
1.0
  9
$DIMGAP
 40
0.09
  9
$DIMDSEP
 70
46
  9
$AUNITS
 70
0
  9
$PDMODE
 70
3
  9
$PDSIZE
 40
0.3125
  9
$HANDSEED
  5
3A4
  9
$TILEMODE
 70
1
  9
$MEASUREMENT
 70
0
  9
$INSUNITS
 70
1
  0
ENDSEC
  0
SECTION
  2
CLASSES
  0
CLASS
  1
ACDBDICTIONARYWDFLT
  2
AcDbDictionaryWithDefault
  3
AutoCAD 2000
 90
0
 91
1
280
0
281
0
  0
CLASS
  1
ACDBPLACEHOLDER
  2
AcDbPlaceHolder
  3
AutoCAD 2000
 90
0
 91
1
280
0
281
0
  0
CLASS
  1
LAYOUT
  2
AcDbLayout
  3
AutoCAD 2000
 90
0
 91
0
280
0
281
0
  0
CLASS
  1
RASTERVARIABLES
  2
AcDbRasterVariables
  3
ISM
 90
0
 91
1
280
0
281
0
  0
CLASS
  1
IMAGEDEF
  2
AcDbRasterImageDef
  3
ISM
 90
0
 91
1
280
0
281
0
  0
CLASS
  1
IMAGEDEF_REACTOR
  2
AcDbRasterImageDefReactor
  3
ISM
 90
0
 91
1
280
0
281
0
  0
CLASS
  1
IMAGE
  2
AcDbRasterImage
  3
ISM
 90
127
 91
1
280
0
281
1
  0
CLASS
  1
TABLESTYLE
  2
AcDbTableStyle
  3
ObjectDBX Classes
 90
2047
 91
1
280
0
281
0
  0
CLASS
  1
ACAD_TABLE
  2
AcDbTable
  3
ObjectDBX Classes
 90
1025
 91
3
280
0
281
1
  0
ENDSEC
  0
SECTION
  2
TABLES
  0
TABLE
  2
VPORT
  5
8
100
AcDbSymbolTable
 70
2
  0
VPORT
  5
1F4
100
AcDbSymbolTableRecord
100
AcDbViewportTableRecord
  2
*ACTIVE
 70
0
 10
0.0
 20
0.0
 11
1.0
 21
1.0
 12
11.0
 22
8.5
 13
0.0
 23
0.0
 14
1.0
 24
1.0
 15
0.0
 25
0.0
 16
0.0
 26
0.0
 36
1.0
 17
0.0
 27
0.0
 37
0.0
 40
17.0
 41
1.2941176471
 42
50.0
 43
0.0
 44
0.0
 50
0.0
 51
0.0
 71
0
 72
100
 73
1
 74
1
 75
0
 76
0
 77
0
 78
0
  0
ENDTAB
  0
TABLE
  2
LTYPE
  5
5
100
AcDbSymbolTable
 70
6
  0
LTYPE
  5
14
100
AcDbSymbolTableRecord
100
AcDbLinetypeTableRecord
  2
BYBLOCK
 70
0
  3

 72
65
 73
0
 40
0.0
  0
LTYPE
  5
15
100
AcDbSymbolTableRecord
100
AcDbLinetypeTableRecord
  2
BYLAYER
 70
0
  3

 72
65
 73
0
 40
0.0
  0
LTYPE
  5
16
100
AcDbSymbolTableRecord
100
AcDbLinetypeTableRecord
  2
CONTINUOUS
 70
64
  3
Solid line
 72
65
 73
0
 40
0.0
  0
LTYPE
  5
1F5
100
AcDbSymbolTableRecord
100
AcDbLinetypeTableRecord
  2
CENTER
 70
64
  3
____ _ ____ _ ____ _ ____ _ ____ _ ____ _ ____
 72
65
 73
4
 40
0.6
 49
0.375
 74
0
 49
-0.075
 74
0
 49
0.075
 74
0
 49
-0.075
 74
0
  0
LTYPE
  5
1F6
100
AcDbSymbolTableRecord
100
AcDbLinetypeTableRecord
  2
HIDDEN
 70
64
  3
- - - - - - - - - - - - - - - - - - - -
 72
65
 73
2
 40
0.2
 49
0.1
 74
0
 49
-0.1
 74
0
  0
LTYPE
  5
1F7
100
AcDbSymbolTableRecord
100
AcDbLinetypeTableRecord
  2
PHANTOM
 70
64
  3
_____ _ _ _____ _ _ _____ _ _ _____
 72
65
 73
6
 40
0.8
 49
0.45
 74
0
 49
-0.05
 74
0
 49
0.1
 74
0
 49
-0.05
 74
0
 49
0.1
 74
0
 49
-0.05
 74
0
  0
LTYPE
  5
1F8
100
AcDbSymbolTableRecord
100
AcDbLinetypeTableRecord
  2
DOT
 70
64
  3
. . . . . . . . . . . . . . . . . . . .
 72
65
 73
2
 40
0.2
 49
0.1
 74
0
 49
-0.1
 74
0
  0
LTYPE
  5
1F9
100
AcDbSymbolTableRecord
100
AcDbLinetypeTableRecord
  2
DASHED
 70
64
  3
- - - - - - - - - - - - - - - - - - - -
 72
65
 73
2
 40
0.2
 49
0.1
 74
0
 49
-0.1
 74
0
  0
ENDTAB
  0
TABLE
  2
LAYER
  5
2
100
AcDbSymbolTable
 70
36
  0
LAYER
  5
10
100
AcDbSymbolTableRecord
100
AcDbLayerTableRecord
  2
0
 70
0
 62
7
  6
CONTINUOUS
370
-3
390
F
  0
LAYER
  5
1FA
100
AcDbSymbolTableRecord
100
AcDbLayerTableRecord
  2
DEFAULT_1
 70
0
 62
7
  6
CENTER
370
-3
390
F
  0
LAYER
  5
1FB
100
AcDbSymbolTableRecord
100
AcDbLayerTableRecord
  2
DEFAULT_2
 70
0
 62
8
  6
HIDDEN
370
-3
390
F
  0
LAYER
  5
1FC
100
AcDbSymbolTableRecord
100
AcDbLayerTableRecord
  2
DEFAULT_3
 70
0
 62
7
  6
PHANTOM
370
-3
390
F
  0
LAYER
  5
1FD
100
AcDbSymbolTableRecord
100
AcDbLayerTableRecord
  2
01___PRT_ALL_DTM_PLN
 70
0
 62
7
  6
CONTINUOUS
370
-3
390
F
  0
LAYER
  5
1FE
100
AcDbSymbolTableRecord
100
AcDbLayerTableRecord
  2
01___PRT_DEF_DTM_PLN
 70
0
 62
7
  6
CONTINUOUS
370
-3
390
F
  0
LAYER
  5
1FF
100
AcDbSymbolTableRecord
100
AcDbLayerTableRecord
  2
02___PRT_ALL_AXES
 70
0
 62
7
  6
CONTINUOUS
370
-3
390
F
  0
LAYER
  5
200
100
AcDbSymbolTableRecord
100
AcDbLayerTableRecord
  2
03___PRT_ALL_CURVES
 70
0
 62
7
  6
CONTINUOUS
370
-3
390
F
  0
LAYER
  5
201
100
AcDbSymbolTableRecord
100
AcDbLayerTableRecord
  2
04___PRT_ALL_DTM_PNT
 70
0
 62
7
  6
CONTINUOUS
370
-3
390
F
  0
LAYER
  5
202
100
AcDbSymbolTableRecord
100
AcDbLayerTableRecord
  2
05___PRT_ALL_DTM_CSYS
 70
0
 62
7
  6
CONTINUOUS
370
-3
390
F
  0
LAYER
  5
203
100
AcDbSymbolTableRecord
100
AcDbLayerTableRecord
  2
05___PRT_DEF_DTM_CSYS
 70
0
 62
7
  6
CONTINUOUS
370
-3
390
F
  0
LAYER
  5
204
100
AcDbSymbolTableRecord
100
AcDbLayerTableRecord
  2
06___PRT_ALL_SURFS
 70
0
 62
7
  6
CONTINUOUS
370
-3
390
F
  0
LAYER
  5
205
100
AcDbSymbolTableRecord
100
AcDbLayerTableRecord
  2
DATUM_PLANES
 70
0
 62
7
  6
CONTINUOUS
370
-3
390
F
  0
LAYER
  5
206
100
AcDbSymbolTableRecord
100
AcDbLayerTableRecord
  2
PORT_AREAS
 70
0
 62
7
  6
CONTINUOUS
370
-3
390
F
  0
LAYER
  5
207
100
AcDbSymbolTableRecord
100
AcDbLayerTableRecord
  2
SUNNBOMCOSMETIC
 70
0
 62
7
  6
CONTINUOUS
370
-3
390
F
  0
LAYER
  5
208
100
AcDbSymbolTableRecord
100
AcDbLayerTableRecord
  2
SUNNBOMSTAMPING
 70
0
 62
7
  6
CONTINUOUS
370
-3
390
F
  0
LAYER
  5
209
100
AcDbSymbolTableRecord
100
AcDbLayerTableRecord
  2
THREADS
 70
0
 62
7
  6
CONTINUOUS
370
-3
390
F
  0
ENDTAB
  0
TABLE
  2
STYLE
  5
3
100
AcDbSymbolTable
 70
1
  0
STYLE
  5
11
100
AcDbSymbolTableRecord
100
AcDbTextStyleTableRecord
  2
STANDARD
 70
0
 40
0.0
 41
0.8
 50
0.0
 71
0
 42
0.2
  3
txt
  4

  0
STYLE
  5
20A
100
AcDbSymbolTableRecord
100
AcDbTextStyleTableRecord
  2
TEXTSTYLE_1
 70
0
 40
0.0
 41
0.8
 50
0.0
 71
0
 42
0.2
  3
gdt
  4

  0
ENDTAB
  0
TABLE
  2
VIEW
  5
6
100
AcDbSymbolTable
 70
0
  0
ENDTAB
  0
TABLE
  2
UCS
  5
7
100
AcDbSymbolTable
 70
0
  0
ENDTAB
  0
TABLE
  2
APPID
  5
9
100
AcDbSymbolTable
 70
1
  0
APPID
  5
20B
100
AcDbSymbolTableRecord
100
AcDbRegAppTableRecord
  2
ACAD
 70
0
  0
ENDTAB
  0
TABLE
  2
BLOCK_RECORD
  5
1
100
AcDbSymbolTable
 70
0
  0
BLOCK_RECORD
  5
20C
100
AcDbSymbolTableRecord
100
AcDbBlockTableRecord
  2
*Model_Space
  0
BLOCK_RECORD
  5
20D
100
AcDbSymbolTableRecord
100
AcDbBlockTableRecord
  2
*Paper_Space
  0
BLOCK_RECORD
  5
20E
100
AcDbSymbolTableRecord
100
AcDbBlockTableRecord
  2
SUN_FIRST_THIRD_ANGLE_BL0
  0
BLOCK_RECORD
  5
20F
100
AcDbSymbolTableRecord
100
AcDbBlockTableRecord
  2
*T1
  0
BLOCK_RECORD
  5
210
100
AcDbSymbolTableRecord
100
AcDbBlockTableRecord
  2
*T2
  0
BLOCK_RECORD
  5
211
100
AcDbSymbolTableRecord
100
AcDbBlockTableRecord
  2
*T3
  0
ENDTAB
  0
TABLE
  2
DIMSTYLE
  5
A
100
AcDbSymbolTable
 70
1
100
AcDbDimStyleTable
 71
0
  0
DIMSTYLE
105
212
100
AcDbSymbolTableRecord
100
AcDbDimStyleTableRecord
  2
STANDARD
 70
0
  3

  4

 40
1.0
 41
0.1875
 42
0.0625
 43
0.38
 44
0.125
 45
0.0
 46
0.0
 47
0.001
 48
0.001
140
0.1
141
0.09
142
0.0
143
25.4
144
1.0
145
0.0
146
1.0
147
0.09
 71
0.0
 72
0.0
 73
1
 74
1
 75
0
 76
0
 77
0
 78
4
170
0
171
2
172
0
173
0
174
0
175
0
176
0
177
0
178
0
270
2
271
3
272
3
273
2
274
2
275
0
280
0
281
0
282
0
283
1
284
4
285
0
286
0
287
3
288
0
340
11
278
46
  0
ENDTAB
  0
ENDSEC
  0
SECTION
  2
BLOCKS
  0
BLOCK
  5
20
100
AcDbEntity
  8
0
100
AcDbBlockBegin
  2
*Model_Space
 70
0
 10
0.0
 20
0.0
 30
0.0
  3
*Model_Space
  1

  0
ENDBLK
  5
21
100
AcDbEntity
  8
0
100
AcDbBlockEnd
  0
BLOCK
  5
1C
100
AcDbEntity
  8
0
100
AcDbBlockBegin
  2
*Paper_Space
 70
0
 10
0.0
 20
0.0
 30
0.0
  3
*Paper_Space
  1

  0
ENDBLK
  5
1D
100
AcDbEntity
  8
0
100
AcDbBlockEnd
  0
BLOCK
  5
213
100
AcDbEntity
  8
0
100
AcDbBlockBegin
 62
2
  6
CONTINUOUS
  2
SUN_FIRST_THIRD_ANGLE_BL0
 70
64
 10
20.4816717061
 20
1.2289683772
  3
SUN_FIRST_THIRD_ANGLE_BL0
  1

  0
TEXT
  5
214
100
AcDbEntity
  8
0
100
AcDbText
 62
2
  6
CONTINUOUS
 10
19.4750896608
 20
1.4136269581
  7
STANDARD
 40
0.08
  1
FIRST ANGLE
 41
0.8
 72
0
100
AcDbText
  0
TEXT
  5
215
100
AcDbEntity
  8
0
100
AcDbText
 62
2
  6
CONTINUOUS
 10
20.7842537513
 20
1.4047600029
  7
STANDARD
 40
0.08
  1
THIRD ANGLE
 41
0.8
 72
0
100
AcDbText
  0
LINE
  5
216
100
AcDbEntity
  8
0
100
AcDbLine
 62
7
  6
CONTINUOUS
 10
19.4767170086
 20
1.1727031207
 11
19.6334271527
 21
1.1717972817
  0
LINE
  5
217
100
AcDbEntity
  8
0
100
AcDbLine
 62
7
  6
CONTINUOUS
 10
19.6596964832
 20
1.1717972817
 11
19.6950230232
 21
1.171593082
  0
LINE
  5
218
100
AcDbEntity
  8
0
100
AcDbLine
 62
7
  6
CONTINUOUS
 10
19.7194818561
 20
1.1708914427
 11
19.8852396156
 21
1.1699333054
  0
LINE
  5
219
100
AcDbEntity
  8
0
100
AcDbLine
 62
7
  6
CONTINUOUS
 10
19.4758111696
 20
1.2723454088
 11
19.88525039
 21
1.3511534004
  0
LINE
  5
21A
100
AcDbEntity
  8
0
100
AcDbLine
 62
7
  6
CONTINUOUS
 10
19.88525039
 20
1.3511534004
 11
19.8831348489
 21
0.9851647912
  0
LINE
  5
21B
100
AcDbEntity
  8
0
100
AcDbLine
 62
7
  6
CONTINUOUS
 10
19.8831348489
 20
0.9851647912
 11
19.4767170086
 21
1.0658141206
  0
LINE
  5
21C
100
AcDbEntity
  8
0
100
AcDbLine
 62
7
  6
CONTINUOUS
 10
19.4767170086
 20
1.0658141206
 11
19.4779056764
 21
1.2714536432
  0
CIRCLE
  5
21D
100
AcDbEntity
  8
0
100
AcDbCircle
 62
7
  6
CONTINUOUS
 10
20.2068232291
 20
1.1717972817
 40
0.175742101
  0
CIRCLE
  5
21E
100
AcDbEntity
  8
0
100
AcDbCircle
 62
7
  6
CONTINUOUS
 10
20.2068232291
 20
1.1717972817
 40
0.1005522074
  0
LINE
  5
21F
100
AcDbEntity
  8
0
100
AcDbLine
 62
7
  6
CONTINUOUS
 10
20.2077290681
 20
1.3756110529
 11
20.2071171714
 21
1.2379342989
  0
LINE
  5
220
100
AcDbEntity
  8
0
100
AcDbLine
 62
7
  6
CONTINUOUS
 10
20.2077290681
 20
1.2016899681
 11
20.2074674401
 21
1.1428236749
  0
LINE
  5
221
100
AcDbEntity
  8
0
100
AcDbLine
 62
7
  6
CONTINUOUS
 10
20.208634907
 20
1.101141841
 11
20.2080230104
 21
0.963465087
  0
LINE
  5
222
100
AcDbEntity
  8
0
100
AcDbLine
 62
7
  6
CONTINUOUS
 10
20.0066328138
 20
1.1745147986
 11
20.1443095678
 21
1.1739029019
  0
LINE
  5
223
100
AcDbEntity
  8
0
100
AcDbLine
 62
7
  6
CONTINUOUS
 10
20.1832714155
 20
1.1727031207
 11
20.238153505
 21
1.172335442
  0
LINE
  5
224
100
AcDbEntity
  8
0
100
AcDbLine
 62
7
  6
CONTINUOUS
 10
20.2756669918
 20
1.1717972817
 11
20.407916871
 21
1.1712095044
  0
CIRCLE
  5
225
100
AcDbEntity
  8
0
100
AcDbCircle
 62
7
  6
CONTINUOUS
 10
20.7509457401
 20
1.1693297793
 40
0.1722024983
  0
CIRCLE
  5
226
100
AcDbEntity
  8
0
100
AcDbCircle
 62
7
  6
CONTINUOUS
 10
20.7509457401
 20
1.1693297793
 40
0.0985164967
  0
LINE
  5
227
100
AcDbEntity
  8
0
100
AcDbLine
 62
7
  6
CONTINUOUS
 10
20.7169767782
 20
1.170462078
 11
20.7825395137
 21
1.1682766535
  0
LINE
  5
228
100
AcDbEntity
  8
0
100
AcDbLine
 62
7
  6
CONTINUOUS
 10
20.8177513651
 20
1.1693297793
 11
20.947965719
 21
1.1693297793
  0
LINE
  5
229
100
AcDbEntity
  8
0
100
AcDbLine
 62
7
  6
CONTINUOUS
 10
20.6875370113
 20
1.170462078
 11
20.5573226574
 21
1.170462078
  0
LINE
  5
22A
100
AcDbEntity
  8
0
100
AcDbLine
 62
7
  6
CONTINUOUS
 10
20.7486811426
 20
1.1987695462
 11
20.7486811426
 21
1.1432869085
  0
LINE
  5
22B
100
AcDbEntity
  8
0
100
AcDbLine
 62
7
  6
CONTINUOUS
 10
20.7498134414
 20
1.1059210505
 11
20.7498134414
 21
0.9757066966
  0
LINE
  5
22C
100
AcDbEntity
  8
0
100
AcDbLine
 62
7
  6
CONTINUOUS
 10
20.7486811426
 20
1.2338708068
 11
20.7486811426
 21
1.3640851607
  0
LINE
  5
22D
100
AcDbEntity
  8
0
100
AcDbLine
 62
7
  6
CONTINUOUS
 10
21.0702539817
 20
1.2701043662
 11
21.4790138229
 21
1.3448360823
  0
LINE
  5
22E
100
AcDbEntity
  8
0
100
AcDbLine
 62
7
  6
CONTINUOUS
 10
21.4790138229
 20
1.3448360823
 11
21.4790138229
 21
0.9779712941
  0
LINE
  5
22F
100
AcDbEntity
  8
0
100
AcDbLine
 62
7
  6
CONTINUOUS
 10
21.4790138229
 20
0.9779712941
 11
21.069121683
 21
1.0617614
  0
LINE
  5
230
100
AcDbEntity
  8
0
100
AcDbLine
 62
7
  6
CONTINUOUS
 10
21.0702539817
 20
1.2701043662
 11
21.069121683
 21
1.0617614
  0
LINE
  5
231
100
AcDbEntity
  8
0
100
AcDbLine
 62
7
  6
CONTINUOUS
 10
21.4790138229
 20
1.1693297793
 11
21.3159628059
 21
1.1693297793
  0
LINE
  5
232
100
AcDbEntity
  8
0
100
AcDbLine
 62
7
  6
CONTINUOUS
 10
21.2876553377
 20
1.1693297793
 11
21.2502894796
 21
1.1693297793
  0
LINE
  5
233
100
AcDbEntity
  8
0
100
AcDbLine
 62
7
  6
CONTINUOUS
 10
21.2208497126
 20
1.1659328831
 11
21.0713862804
 21
1.1659328831
  0
LINE
  5
234
100
AcDbEntity
  8
0
100
AcDbLine
 62
7
  6
CONTINUOUS
 10
20.4796138713
 20
1.5284908897
 11
20.4766766948
 21
0.9294458646
  0
ENDBLK
  5
235
100
AcDbEntity
  8
0
  6
BYBLOCK
 62
0
100
AcDbBlockEnd
  0
BLOCK
  5
236
100
AcDbEntity
  8
0
100
AcDbBlockBegin
  2
*T1
 70
1
 10
0.0
 20
0.0
  3
*T1
  1

  0
LINE
  5
237
100
AcDbEntity
  8
0
100
AcDbLine
 62
2
  6
CONTINUOUS
 10
9.275
 20
0.0
 11
-0.0
 21
0.0
  0
LINE
  5
238
100
AcDbEntity
  8
0
100
AcDbLine
 62
2
  6
CONTINUOUS
 10
9.275
 20
0.0
 11
9.275
 21
1.25
  0
LINE
  5
239
100
AcDbEntity
  8
0
100
AcDbLine
 62
2
  6
CONTINUOUS
 10
9.275
 20
0.625
 11
-0.0
 21
0.625
  0
LINE
  5
23A
100
AcDbEntity
  8
0
100
AcDbLine
 62
2
  6
CONTINUOUS
 10
9.275
 20
1.25
 11
-0.0
 21
1.25
  0
LINE
  5
23B
100
AcDbEntity
  8
0
100
AcDbLine
 62
2
  6
CONTINUOUS
 10
6.8
 20
0.0
 11
6.8
 21
1.25
  0
LINE
  5
23C
100
AcDbEntity
  8
0
100
AcDbLine
 62
2
  6
CONTINUOUS
 10
6.4
 20
0.0
 11
6.4
 21
0.625
  0
LINE
  5
23D
100
AcDbEntity
  8
0
100
AcDbLine
 62
2
  6
CONTINUOUS
 10
5.9
 20
0.0
 11
5.9
 21
0.625
  0
LINE
  5
23E
100
AcDbEntity
  8
0
100
AcDbLine
 62
2
  6
CONTINUOUS
 10
5.2
 20
0.0
 11
5.2
 21
0.625
  0
LINE
  5
23F
100
AcDbEntity
  8
0
100
AcDbLine
 62
2
  6
CONTINUOUS
 10
4.1
 20
0.0
 11
4.1
 21
1.25
  0
LINE
  5
240
100
AcDbEntity
  8
0
100
AcDbLine
 62
2
  6
CONTINUOUS
 10
-0.0
 20
0.0
 11
-0.0
 21
1.25
  0
MTEXT
  5
241
100
AcDbEntity
  8
0
100
AcDbMText
 62
2
  6
CONTINUOUS
  7
STANDARD
 71
2
 72
1
 10
6.6
 20
0.325
 30
0.0
 11
1.0
 21
0.0
 31
0.0
 44
0.9
  1
2
 40
0.125
 41
0.2
  0
MTEXT
  5
242
100
AcDbEntity
  8
0
100
AcDbMText
 62
2
  6
CONTINUOUS
  7
STANDARD
 71
2
 72
1
 10
6.15
 20
0.325
 30
0.0
 11
1.0
 21
0.0
 31
0.0
 44
0.9
  1
C
 40
0.125
 41
0.2
  0
MTEXT
  5
243
100
AcDbEntity
  8
0
100
AcDbMText
 62
2
  6
CONTINUOUS
  7
STANDARD
 71
2
 72
1
 10
5.55
 20
0.325
 30
0.0
 11
1.0
 21
0.0
 31
0.0
 44
0.9
  1
0.800
 40
0.125
 41
1.0
  0
MTEXT
  5
244
100
AcDbEntity
  8
0
100
AcDbMText
 62
2
  6
CONTINUOUS
  7
STANDARD
 71
2
 72
1
 10
4.65
 20
0.325
 30
0.0
 11
1.0
 21
0.0
 31
0.0
 44
0.9
  1
Jun-26-20
 40
0.125
 41
1.8
  0
MTEXT
  5
245
100
AcDbEntity
  8
0
100
AcDbMText
 62
2
  6
CONTINUOUS
  7
STANDARD
 71
2
 72
1
 10
2.05
 20
0.4625
 30
0.0
 11
1.0
 21
0.0
 31
0.0
 44
0.9
  1
Flow divider-combiner manifold assembly
 40
0.125
 41
7.8
  0
MTEXT
  5
246
100
AcDbEntity
  8
0
100
AcDbMText
 62
2
  6
CONTINUOUS
  7
STANDARD
 71
1
 72
1
 10
6.45
 20
0.5625
 30
0.0
 11
1.0
 21
0.0
 31
0.0
 44
0.9
  1
SHEET
 40
0.06
 41
0.48
  0
MTEXT
  5
247
100
AcDbEntity
  8
0
100
AcDbMText
 62
2
  6
CONTINUOUS
  7
STANDARD
 71
1
 72
1
 10
5.95
 20
0.5625
 30
0.0
 11
1.0
 21
0.0
 31
0.0
 44
0.9
  1
DWG SIZE
 40
0.06
 41
0.768
  0
MTEXT
  5
248
100
AcDbEntity
  8
0
100
AcDbMText
 62
2
  6
CONTINUOUS
  7
STANDARD
 71
1
 72
1
 10
5.25
 20
0.5625
 30
0.0
 11
1.0
 21
0.0
 31
0.0
 44
0.9
  1
SCALE
 40
0.06
 41
0.48
  0
MTEXT
  5
249
100
AcDbEntity
  8
0
100
AcDbMText
 62
2
  6
CONTINUOUS
  7
STANDARD
 71
1
 72
1
 10
4.15
 20
0.5625
 30
0.0
 11
1.0
 21
0.0
 31
0.0
 44
0.9
  1
DATE
 40
0.06
 41
0.384
  0
MTEXT
  5
24A
100
AcDbEntity
  8
0
100
AcDbMText
 62
2
  6
CONTINUOUS
  7
STANDARD
 71
1
 72
1
 10
0.05
 20
0.5625
 30
0.0
 11
1.0
 21
0.0
 31
0.0
 44
0.9
  1
DESCRIPTION
 40
0.06
 41
1.056
  0
MTEXT
  5
24B
100
AcDbEntity
  8
0
100
AcDbMText
 62
2
  6
CONTINUOUS
  7
STANDARD
 71
2
 72
1
 10
5.45
 20
1.0375
 30
0.0
 11
1.0
 21
0.0
 31
0.0
 44
0.9
  1
ALL DIMENSIONS IN INCH\PVIEWS ARE THIRD ANGLE
 40
0.12
 41
4.224
  0
MTEXT
  5
24C
100
AcDbEntity
  8
0
100
AcDbMText
 62
2
  6
CONTINUOUS
  7
STANDARD
 71
2
 72
1
 10
2.05
 20
0.95
 30
0.0
 11
1.0
 21
0.0
 31
0.0
 44
0.9
  1
FSFAXAN-QMX
 40
0.125
 41
2.2
  0
MTEXT
  5
24D
100
AcDbEntity
  8
0
100
AcDbMText
 62
2
  6
CONTINUOUS
  7
STANDARD
 71
1
 72
1
 10
0.05
 20
1.1875
 30
0.0
 11
1.0
 21
0.0
 31
0.0
 44
0.9
  1
MODEL
 40
0.06
 41
0.48
  0
ENDBLK
  5
24E
100
AcDbEntity
  8
0
  6
BYBLOCK
 62
0
100
AcDbBlockEnd
  0
BLOCK
  5
24F
100
AcDbEntity
  8
0
100
AcDbBlockBegin
  2
*T2
 70
1
 10
0.0
 20
0.0
  3
*T2
  1

  0
LINE
  5
250
100
AcDbEntity
  8
0
100
AcDbLine
 62
2
  6
CONTINUOUS
 10
0.0
 20
0.0
 11
9.055
 21
0.0
  0
LINE
  5
251
100
AcDbEntity
  8
0
100
AcDbLine
 62
2
  6
CONTINUOUS
 10
0.0
 20
0.0
 11
0.0
 21
-2.594
  0
LINE
  5
252
100
AcDbEntity
  8
0
100
AcDbLine
 62
2
  6
CONTINUOUS
 10
0.0
 20
-0.344
 11
9.055
 21
-0.344
  0
LINE
  5
253
100
AcDbEntity
  8
0
100
AcDbLine
 62
2
  6
CONTINUOUS
 10
0.0
 20
-0.594
 11
9.055
 21
-0.594
  0
LINE
  5
254
100
AcDbEntity
  8
0
100
AcDbLine
 62
2
  6
CONTINUOUS
 10
0.0
 20
-0.844
 11
9.055
 21
-0.844
  0
LINE
  5
255
100
AcDbEntity
  8
0
100
AcDbLine
 62
2
  6
CONTINUOUS
 10
0.0
 20
-1.094
 11
9.055
 21
-1.094
  0
LINE
  5
256
100
AcDbEntity
  8
0
100
AcDbLine
 62
2
  6
CONTINUOUS
 10
0.0
 20
-1.344
 11
9.055
 21
-1.344
  0
LINE
  5
257
100
AcDbEntity
  8
0
100
AcDbLine
 62
2
  6
CONTINUOUS
 10
0.0
 20
-1.594
 11
9.055
 21
-1.594
  0
LINE
  5
258
100
AcDbEntity
  8
0
100
AcDbLine
 62
2
  6
CONTINUOUS
 10
0.0
 20
-1.844
 11
9.055
 21
-1.844
  0
LINE
  5
259
100
AcDbEntity
  8
0
100
AcDbLine
 62
2
  6
CONTINUOUS
 10
0.0
 20
-2.094
 11
9.055
 21
-2.094
  0
LINE
  5
25A
100
AcDbEntity
  8
0
100
AcDbLine
 62
2
  6
CONTINUOUS
 10
0.0
 20
-2.344
 11
9.055
 21
-2.344
  0
LINE
  5
25B
100
AcDbEntity
  8
0
100
AcDbLine
 62
2
  6
CONTINUOUS
 10
0.0
 20
-2.594
 11
9.055
 21
-2.594
  0
LINE
  5
25C
100
AcDbEntity
  8
0
100
AcDbLine
 62
2
  6
CONTINUOUS
 10
3.055
 20
0.0
 11
3.055
 21
-2.594
  0
LINE
  5
25D
100
AcDbEntity
  8
0
100
AcDbLine
 62
2
  6
CONTINUOUS
 10
9.055
 20
0.0
 11
9.055
 21
-2.594
  0
MTEXT
  5
25E
100
AcDbEntity
  8
0
100
AcDbMText
 62
2
  6
CONTINUOUS
  7
STANDARD
 71
2
 72
1
 10
1.5275
 20
-0.0995
 30
0.0
 11
1.0
 21
0.0
 31
0.0
 44
0.9
  1
Technical Data
 40
0.145
 41
3.248
  0
MTEXT
  5
25F
100
AcDbEntity
  8
0
100
AcDbMText
 62
2
  6
CONTINUOUS
  7
STANDARD
 71
2
 72
1
 10
4.555
 20
-0.0995
 30
0.0
 11
1.0
 21
0.0
 31
0.0
 44
0.9
  1
U.S. Units
 40
0.145
 41
2.32
  0
MTEXT
  5
260
100
AcDbEntity
  8
0
100
AcDbMText
 62
2
  6
CONTINUOUS
  7
STANDARD
 71
2
 72
1
 10
7.555
 20
-0.0995
 30
0.0
 11
1.0
 21
0.0
 31
0.0
 44
0.9
  1
Metric Units
 40
0.145
 41
2.784
  0
MTEXT
  5
261
100
AcDbEntity
  8
0
100
AcDbMText
 62
2
  6
CONTINUOUS
  7
STANDARD
 71
2
 72
1
 10
1.5275
 20
-0.4065
 30
0.0
 11
1.0
 21
0.0
 31
0.0
 44
0.9
  1
Cavity
 40
0.125
 41
1.2
  0
MTEXT
  5
262
100
AcDbEntity
  8
0
100
AcDbMText
 62
2
  6
CONTINUOUS
  7
STANDARD
 71
2
 72
1
 10
6.055
 20
-0.4065
 30
0.0
 11
1.0
 21
0.0
 31
0.0
 44
0.9
  1
T-34A
 40
0.125
 41
1.0
  0
MTEXT
  5
263
100
AcDbEntity
  8
0
100
AcDbMText
 62
2
  6
CONTINUOUS
  7
STANDARD
 71
2
 72
1
 10
1.5275
 20
-0.6565
 30
0.0
 11
1.0
 21
0.0
 31
0.0
 44
0.9
  1
Body Features
 40
0.125
 41
2.6
  0
MTEXT
  5
264
100
AcDbEntity
  8
0
100
AcDbMText
 62
2
  6
CONTINUOUS
  7
STANDARD
 71
2
 72
1
 10
6.055
 20
-0.6565
 30
0.0
 11
1.0
 21
0.0
 31
0.0
 44
0.9
  1
Ninety degree
 40
0.125
 41
2.6
  0
MTEXT
  5
265
100
AcDbEntity
  8
0
100
AcDbMText
 62
2
  6
CONTINUOUS
  7
STANDARD
 71
2
 72
1
 10
1.5275
 20
-0.9065
 30
0.0
 11
1.0
 21
0.0
 31
0.0
 44
0.9
  1
Body Type
 40
0.125
 41
1.8
  0
MTEXT
  5
266
100
AcDbEntity
  8
0
100
AcDbMText
 62
2
  6
CONTINUOUS
  7
STANDARD
 71
2
 72
1
 10
6.055
 20
-0.9065
 30
0.0
 11
1.0
 21
0.0
 31
0.0
 44
0.9
  1
Line mount
 40
0.125
 41
2.0
  0
MTEXT
  5
267
100
AcDbEntity
  8
0
100
AcDbMText
 62
2
  6
CONTINUOUS
  7
STANDARD
 71
2
 72
1
 10
1.5275
 20
-1.1565
 30
0.0
 11
1.0
 21
0.0
 31
0.0
 44
0.9
  1
Interface
 40
0.125
 41
1.8
  0
MTEXT
  5
268
100
AcDbEntity
  8
0
100
AcDbMText
 62
2
  6
CONTINUOUS
  7
STANDARD
 71
2
 72
1
 10
6.055
 20
-1.1565
 30
0.0
 11
1.0
 21
0.0
 31
0.0
 44
0.9
  1
None
 40
0.125
 41
0.8
  0
MTEXT
  5
269
100
AcDbEntity
  8
0
100
AcDbMText
 62
2
  6
CONTINUOUS
  7
STANDARD
 71
2
 72
1
 10
1.5275
 20
-1.4065
 30
0.0
 11
1.0
 21
0.0
 31
0.0
 44
0.9
  1
Open Cavity Quantity
 40
0.125
 41
4.0
  0
MTEXT
  5
26A
100
AcDbEntity
  8
0
100
AcDbMText
 62
2
  6
CONTINUOUS
  7
STANDARD
 71
2
 72
1
 10
6.055
 20
-1.4065
 30
0.0
 11
1.0
 21
0.0
 31
0.0
 44
0.9
  1
1
 40
0.125
 41
0.2
  0
MTEXT
  5
26B
100
AcDbEntity
  8
0
100
AcDbMText
 62
2
  6
CONTINUOUS
  7
STANDARD
 71
2
 72
1
 10
1.5275
 20
-1.6565
 30
0.0
 11
1.0
 21
0.0
 31
0.0
 44
0.9
  1
Weight
 40
0.125
 41
1.2
  0
MTEXT
  5
26C
100
AcDbEntity
  8
0
100
AcDbMText
 62
2
  6
CONTINUOUS
  7
STANDARD
 71
2
 72
1
 10
4.555
 20
-1.6565
 30
0.0
 11
1.0
 21
0.0
 31
0.0
 44
0.9
  1
12.045 lb.
 40
0.125
 41
2.0
  0
MTEXT
  5
26D
100
AcDbEntity
  8
0
100
AcDbMText
 62
2
  6
CONTINUOUS
  7
STANDARD
 71
2
 72
1
 10
7.555
 20
-1.6565
 30
0.0
 11
1.0
 21
0.0
 31
0.0
 44
0.9
  1
5,463 kg.
 40
0.125
 41
1.8
  0
MTEXT
  5
26E
100
AcDbEntity
  8
0
100
AcDbMText
 62
2
  6
CONTINUOUS
  7
STANDARD
 71
2
 72
1
 10
1.5275
 20
-1.9065
 30
0.0
 11
1.0
 21
0.0
 31
0.0
 44
0.9
  1
Mounting Hole Diameter
 40
0.125
 41
4.4
  0
MTEXT
  5
26F
100
AcDbEntity
  8
0
100
AcDbMText
 62
2
  6
CONTINUOUS
  7
STANDARD
 71
2
 72
1
 10
4.555
 20
-1.9065
 30
0.0
 11
1.0
 21
0.0
 31
0.0
 44
0.9
  1
.42 in.
 40
0.125
 41
1.4
  0
MTEXT
  5
270
100
AcDbEntity
  8
0
100
AcDbMText
 62
2
  6
CONTINUOUS
  7
STANDARD
 71
2
 72
1
 10
7.555
 20
-1.9065
 30
0.0
 11
1.0
 21
0.0
 31
0.0
 44
0.9
  1
10,7 mm
 40
0.125
 41
1.4
  0
MTEXT
  5
271
100
AcDbEntity
  8
0
100
AcDbMText
 62
2
  6
CONTINUOUS
  7
STANDARD
 71
2
 72
1
 10
1.5275
 20
-2.1565
 30
0.0
 11
1.0
 21
0.0
 31
0.0
 44
0.9
  1
Mounting Hole Depth
 40
0.125
 41
3.8
  0
MTEXT
  5
272
100
AcDbEntity
  8
0
100
AcDbMText
 62
2
  6
CONTINUOUS
  7
STANDARD
 71
2
 72
1
 10
6.055
 20
-2.1565
 30
0.0
 11
1.0
 21
0.0
 31
0.0
 44
0.9
  1
Through
 40
0.125
 41
1.4
  0
MTEXT
  5
273
100
AcDbEntity
  8
0
100
AcDbMText
 62
2
  6
CONTINUOUS
  7
STANDARD
 71
2
 72
1
 10
1.5275
 20
-2.4065
 30
0.0
 11
1.0
 21
0.0
 31
0.0
 44
0.9
  1
Mounting Hole Quantity
 40
0.125
 41
4.4
  0
MTEXT
  5
274
100
AcDbEntity
  8
0
100
AcDbMText
 62
2
  6
CONTINUOUS
  7
STANDARD
 71
2
 72
1
 10
6.055
 20
-2.4065
 30
0.0
 11
1.0
 21
0.0
 31
0.0
 44
0.9
  1
2
 40
0.125
 41
0.2
  0
ENDBLK
  5
275
100
AcDbEntity
  8
0
  6
BYBLOCK
 62
0
100
AcDbBlockEnd
  0
BLOCK
  5
276
100
AcDbEntity
  8
0
100
AcDbBlockBegin
  2
*T3
 70
1
 10
0.0
 20
0.0
  3
*T3
  1

  0
LINE
  5
277
100
AcDbEntity
  8
0
100
AcDbLine
 62
2
  6
CONTINUOUS
 10
0.0
 20
0.0
 11
4.6
 21
0.0
  0
LINE
  5
278
100
AcDbEntity
  8
0
100
AcDbLine
 62
2
  6
CONTINUOUS
 10
0.0
 20
0.0
 11
0.0
 21
-0.93775
  0
LINE
  5
279
100
AcDbEntity
  8
0
100
AcDbLine
 62
2
  6
CONTINUOUS
 10
0.0
 20
-0.34375
 11
4.6
 21
-0.34375
  0
LINE
  5
27A
100
AcDbEntity
  8
0
100
AcDbLine
 62
2
  6
CONTINUOUS
 10
0.0
 20
-0.68775
 11
4.6
 21
-0.68775
  0
LINE
  5
27B
100
AcDbEntity
  8
0
100
AcDbLine
 62
2
  6
CONTINUOUS
 10
0.0
 20
-0.93775
 11
4.6
 21
-0.93775
  0
LINE
  5
27C
100
AcDbEntity
  8
0
100
AcDbLine
 62
2
  6
CONTINUOUS
 10
1.3
 20
-0.34375
 11
1.3
 21
-0.93775
  0
LINE
  5
27D
100
AcDbEntity
  8
0
100
AcDbLine
 62
2
  6
CONTINUOUS
 10
3.3
 20
-0.34375
 11
3.3
 21
-0.93775
  0
LINE
  5
27E
100
AcDbEntity
  8
0
100
AcDbLine
 62
2
  6
CONTINUOUS
 10
4.6
 20
0.0
 11
4.6
 21
-0.93775
  0
MTEXT
  5
27F
100
AcDbEntity
  8
0
100
AcDbMText
 62
2
  6
CONTINUOUS
  7
STANDARD
 71
2
 72
1
 10
2.3
 20
-0.099375
 30
0.0
 11
1.0
 21
0.0
 31
0.0
 44
0.9
  1
Port Headings
 40
0.145
 41
3.016
  0
MTEXT
  5
280
100
AcDbEntity
  8
0
100
AcDbMText
 62
2
  6
CONTINUOUS
  7
STANDARD
 71
2
 72
1
 10
0.65
 20
-0.44325
 30
0.0
 11
1.0
 21
0.0
 31
0.0
 44
0.9
  1
Product
 40
0.145
 41
1.624
  0
MTEXT
  5
281
100
AcDbEntity
  8
0
100
AcDbMText
 62
2
  6
CONTINUOUS
  7
STANDARD
 71
2
 72
1
 10
2.3
 20
-0.44325
 30
0.0
 11
1.0
 21
0.0
 31
0.0
 44
0.9
  1
Port
 40
0.145
 41
0.928
  0
MTEXT
  5
282
100
AcDbEntity
  8
0
100
AcDbMText
 62
2
  6
CONTINUOUS
  7
STANDARD
 71
2
 72
1
 10
3.95
 20
-0.44325
 30
0.0
 11
1.0
 21
0.0
 31
0.0
 44
0.9
  1
Size
 40
0.145
 41
0.928
  0
MTEXT
  5
283
100
AcDbEntity
  8
0
100
AcDbMText
 62
2
  6
CONTINUOUS
  7
STANDARD
 71
2
 72
1
 10
0.65
 20
-0.75025
 30
0.0
 11
1.0
 21
0.0
 31
0.0
 44
0.9
  1
QMX
 40
0.125
 41
0.6
  0
MTEXT
  5
284
100
AcDbEntity
  8
0
100
AcDbMText
 62
2
  6
CONTINUOUS
  7
STANDARD
 71
2
 72
1
 10
2.3
 20
-0.75025
 30
0.0
 11
1.0
 21
0.0
 31
0.0
 44
0.9
  1
All Ports
 40
0.125
 41
1.8
  0
MTEXT
  5
285
100
AcDbEntity
  8
0
100
AcDbMText
 62
2
  6
CONTINUOUS
  7
STANDARD
 71
2
 72
1
 10
3.95
 20
-0.75025
 30
0.0
 11
1.0
 21
0.0
 31
0.0
 44
0.9
  1
1" BSPP
 40
0.125
 41
1.4
  0
ENDBLK
  5
286
100
AcDbEntity
  8
0
  6
BYBLOCK
 62
0
100
AcDbBlockEnd
  0
ENDSEC
  0
SECTION
  2
ENTITIES
  0
IMAGE
  5
287
100
AcDbEntity
  8
0
100
AcDbRasterImage
 62
7
  6
CONTINUOUS
 10
19.2297077316
 20
0.3094318264
 30
0.0
 11
0.0066666667
 21
0.0
 31
0.0
 12
0.0
 22
0.0066666667
 32
0.0
 13
369.0
 23
92.0
340
       3A1
 70
9
280
0
281
50
282
50
283
0
360
       39B
 71
1
 91
2
 14
-0.5
 24
-0.5
 14
368.5
 24
91.5
  0
INSERT
  5
288
100
AcDbEntity
  8
0
100
AcDbBlockReference
 62
2
  6
CONTINUOUS
  2
SUN_FIRST_THIRD_ANGLE_BL0
 10
20.4816717061
 20
1.2289683772
  0
ACAD_TABLE
  5
289
100
AcDbEntity
  8
0
 62
2
  6
CONTINUOUS
100
AcDbBlockReference
  2
*T1
 10
12.42375
 20
0.30125
 30
0.0
100
AcDbTable
342
       3A3
343
20F
 11
1.0
 21
0.0
 31
0.0
 90
6
 91
4
 92
6
 93
20
 94
0
 95
0
 96
0
 70
1
 41
0.0
141
0.525
141
0.1
141
0.525
141
0.1
142
4.1
142
1.1
142
0.7
142
0.5
142
0.4
142
2.475
171
1
172
0
173
0
174
0
175
1
176
1
 91
33
178
0
145
0.0
301
CELL_VALUE
 90
4
  1
Flow divider-combiner manifold assembly
304
ACVALUE_END
170
2
140
0.125
171
1
172
0
173
0
174
0
175
1
176
1
 91
33
178
0
145
0.0
301
CELL_VALUE
 90
4
  1
Jun-26-20
304
ACVALUE_END
170
5
140
0.125
171
1
172
0
173
0
174
0
175
1
176
1
 91
33
178
0
145
0.0
301
CELL_VALUE
 90
4
  1
0.800
304
ACVALUE_END
170
5
140
0.125
171
1
172
0
173
0
174
0
175
1
176
1
 91
33
178
0
145
0.0
301
CELL_VALUE
 90
4
  1
C
304
ACVALUE_END
170
5
140
0.125
171
1
172
0
173
0
174
0
175
1
176
1
 91
33
178
0
145
0.0
301
CELL_VALUE
 90
4
  1
2
304
ACVALUE_END
170
5
140
0.125
171
1
172
0
173
0
174
0
175
1
176
1
 91
33
178
0
145
0.0
301
CELL_VALUE
 90
4
  1
 
304
ACVALUE_END
170
1
140
0.125
171
1
172
0
173
0
174
0
175
1
176
1
 91
33
178
0
145
0.0
301
CELL_VALUE
 90
4
  1
DESCRIPTION
304
ACVALUE_END
170
1
140
0.06
171
1
172
0
173
0
174
0
175
1
176
1
 91
33
178
0
145
0.0
301
CELL_VALUE
 90
4
  1
DATE
304
ACVALUE_END
170
1
140
0.06
171
1
172
0
173
0
174
0
175
1
176
1
 91
33
178
0
145
0.0
301
CELL_VALUE
 90
4
  1
SCALE
304
ACVALUE_END
170
1
140
0.06
171
1
172
0
173
0
174
0
175
1
176
1
 91
33
178
0
145
0.0
301
CELL_VALUE
 90
4
  1
DWG SIZE
304
ACVALUE_END
170
1
140
0.06
171
1
172
0
173
0
174
0
175
1
176
1
 91
33
178
0
145
0.0
301
CELL_VALUE
 90
4
  1
SHEET
304
ACVALUE_END
170
1
140
0.06
171
1
172
0
173
0
174
0
175
1
176
1
 91
33
178
0
145
0.0
301
CELL_VALUE
 90
4
  1
 
304
ACVALUE_END
170
1
140
0.125
171
1
172
0
173
0
174
0
175
1
176
1
 91
33
178
0
145
0.0
301
CELL_VALUE
 90
4
  1
FSFAXAN-QMX
304
ACVALUE_END
170
5
140
0.125
171
1
172
0
173
0
174
0
175
4
176
1
 91
33
178
0
145
0.0
301
CELL_VALUE
 90
4
  1
ALL DIMENSIONS IN INCH\PVIEWS ARE THIRD ANGLE
304
ACVALUE_END
170
5
140
0.12
171
1
172
0
173
1
174
0
175
1
176
1
 91
1
178
0
145
0.0
170
1
171
1
172
0
173
1
174
0
175
1
176
1
 91
1
178
0
145
0.0
170
1
171
1
172
0
173
1
174
0
175
1
176
1
 91
1
178
0
145
0.0
170
5
171
1
172
0
173
0
174
0
175
1
176
1
 91
33
178
0
145
0.0
301
CELL_VALUE
 90
4
  1
 
304
ACVALUE_END
170
1
140
0.125
171
1
172
0
173
0
174
0
175
1
176
1
 91
33
178
0
145
0.0
301
CELL_VALUE
 90
4
  1
MODEL
304
ACVALUE_END
170
1
140
0.06
171
1
172
0
173
0
174
0
175
1
176
1
 91
33
178
0
145
0.0
301
CELL_VALUE
 90
4
  1
 
304
ACVALUE_END
170
1
140
0.125
171
1
172
0
173
0
174
0
175
1
176
1
 91
33
178
0
145
0.0
301
CELL_VALUE
 90
4
  1
 
304
ACVALUE_END
170
1
140
0.125
171
1
172
0
173
0
174
0
175
1
176
1
 91
33
178
0
145
0.0
301
CELL_VALUE
 90
4
  1
 
304
ACVALUE_END
170
1
140
0.125
171
1
172
0
173
0
174
0
175
1
176
1
 91
33
178
0
145
0.0
301
CELL_VALUE
 90
4
  1
 
304
ACVALUE_END
170
1
140
0.125
171
1
172
0
173
0
174
0
175
1
176
1
 91
33
178
0
145
0.0
301
CELL_VALUE
 90
4
  1
 
304
ACVALUE_END
170
1
140
0.125
  0
ACAD_TABLE
  5
28A
100
AcDbEntity
  8
0
 62
2
  6
CONTINUOUS
100
AcDbBlockReference
  2
*T2
 10
12.4237499994
 20
16.47875
 30
0.0
100
AcDbTable
342
       3A2
343
210
 11
1.0
 21
0.0
 31
0.0
 90
22
 91
10
 92
3
 93
16
 94
0
 95
0
 96
0
 41
0.028
141
0.344
141
0.25
141
0.25
141
0.25
141
0.25
141
0.25
141
0.25
141
0.25
141
0.25
141
0.25
142
3.055
142
3.0
142
3.0
171
1
172
0
173
0
174
0
175
1
176
1
 91
33
178
0
145
0.0
301
CELL_VALUE
 90
4
  1
Technical Data
304
ACVALUE_END
170
5
140
0.145
171
1
172
0
173
0
174
0
175
1
176
1
 91
33
178
0
145
0.0
301
CELL_VALUE
 90
4
  1
U.S. Units
304
ACVALUE_END
170
5
140
0.145
171
1
172
0
173
0
174
0
175
1
176
1
 91
33
178
0
145
0.0
301
CELL_VALUE
 90
4
  1
Metric Units
304
ACVALUE_END
170
5
140
0.145
171
1
172
0
173
0
174
0
175
1
176
1
 91
33
178
0
145
0.0
301
CELL_VALUE
 90
4
  1
Cavity
304
ACVALUE_END
170
5
140
0.125
171
1
172
0
173
0
174
0
175
2
176
1
 91
33
178
0
145
0.0
301
CELL_VALUE
 90
4
  1
T-34A
304
ACVALUE_END
170
5
140
0.125
171
1
172
0
173
1
174
0
175
1
176
1
 91
1
178
0
145
0.0
170
1
171
1
172
0
173
0
174
0
175
1
176
1
 91
33
178
0
145
0.0
301
CELL_VALUE
 90
4
  1
Body Features
304
ACVALUE_END
170
5
140
0.125
171
1
172
0
173
0
174
0
175
2
176
1
 91
33
178
0
145
0.0
301
CELL_VALUE
 90
4
  1
Ninety degree
304
ACVALUE_END
170
5
140
0.125
171
1
172
0
173
1
174
0
175
1
176
1
 91
1
178
0
145
0.0
170
1
171
1
172
0
173
0
174
0
175
1
176
1
 91
33
178
0
145
0.0
301
CELL_VALUE
 90
4
  1
Body Type
304
ACVALUE_END
170
5
140
0.125
171
1
172
0
173
0
174
0
175
2
176
1
 91
33
178
0
145
0.0
301
CELL_VALUE
 90
4
  1
Line mount
304
ACVALUE_END
170
5
140
0.125
171
1
172
0
173
1
174
0
175
1
176
1
 91
1
178
0
145
0.0
170
1
171
1
172
0
173
0
174
0
175
1
176
1
 91
33
178
0
145
0.0
301
CELL_VALUE
 90
4
  1
Interface
304
ACVALUE_END
170
5
140
0.125
171
1
172
0
173
0
174
0
175
2
176
1
 91
33
178
0
145
0.0
301
CELL_VALUE
 90
4
  1
None
304
ACVALUE_END
170
5
140
0.125
171
1
172
0
173
1
174
0
175
1
176
1
 91
1
178
0
145
0.0
170
1
171
1
172
0
173
0
174
0
175
1
176
1
 91
33
178
0
145
0.0
301
CELL_VALUE
 90
4
  1
Open Cavity Quantity
304
ACVALUE_END
170
5
140
0.125
171
1
172
0
173
0
174
0
175
2
176
1
 91
33
178
0
145
0.0
301
CELL_VALUE
 90
4
  1
1
304
ACVALUE_END
170
5
140
0.125
171
1
172
0
173
1
174
0
175
1
176
1
 91
1
178
0
145
0.0
170
1
171
1
172
0
173
0
174
0
175
1
176
1
 91
33
178
0
145
0.0
301
CELL_VALUE
 90
4
  1
Weight
304
ACVALUE_END
170
5
140
0.125
171
1
172
0
173
0
174
0
175
1
176
1
 91
33
178
0
145
0.0
301
CELL_VALUE
 90
4
  1
12.045 lb.
304
ACVALUE_END
170
5
140
0.125
171
1
172
0
173
0
174
0
175
1
176
1
 91
33
178
0
145
0.0
301
CELL_VALUE
 90
4
  1
5,463 kg.
304
ACVALUE_END
170
5
140
0.125
171
1
172
0
173
0
174
0
175
1
176
1
 91
33
178
0
145
0.0
301
CELL_VALUE
 90
4
  1
Mounting Hole Diameter
304
ACVALUE_END
170
5
140
0.125
171
1
172
0
173
0
174
0
175
1
176
1
 91
33
178
0
145
0.0
301
CELL_VALUE
 90
4
  1
.42 in.
304
ACVALUE_END
170
5
140
0.125
171
1
172
0
173
0
174
0
175
1
176
1
 91
33
178
0
145
0.0
301
CELL_VALUE
 90
4
  1
10,7 mm
304
ACVALUE_END
170
5
140
0.125
171
1
172
0
173
0
174
0
175
1
176
1
 91
33
178
0
145
0.0
301
CELL_VALUE
 90
4
  1
Mounting Hole Depth
304
ACVALUE_END
170
5
140
0.125
171
1
172
0
173
0
174
0
175
2
176
1
 91
33
178
0
145
0.0
301
CELL_VALUE
 90
4
  1
Through
304
ACVALUE_END
170
5
140
0.125
171
1
172
0
173
1
174
0
175
1
176
1
 91
1
178
0
145
0.0
170
1
171
1
172
0
173
0
174
0
175
1
176
1
 91
33
178
0
145
0.0
301
CELL_VALUE
 90
4
  1
Mounting Hole Quantity
304
ACVALUE_END
170
5
140
0.125
171
1
172
0
173
0
174
0
175
2
176
1
 91
33
178
0
145
0.0
301
CELL_VALUE
 90
4
  1
2
304
ACVALUE_END
170
5
140
0.125
171
1
172
0
173
1
174
0
175
1
176
1
 91
1
178
0
145
0.0
170
1
  0
ACAD_TABLE
  5
28B
100
AcDbEntity
  8
0
 62
2
  6
CONTINUOUS
100
AcDbBlockReference
  2
*T3
 10
0.52125
 20
1.459
 30
0.0
100
AcDbTable
342
       3A2
343
211
 11
1.0
 21
0.0
 31
0.0
 90
22
 91
3
 92
3
 93
16
 94
0
 95
0
 96
0
 41
0.05
141
0.34375
141
0.344
141
0.25
142
1.3
142
2.0
142
1.3
171
1
172
0
173
0
174
0
175
3
176
1
 91
33
178
0
145
0.0
301
CELL_VALUE
 90
4
  1
Port Headings
304
ACVALUE_END
170
5
140
0.145
171
1
172
0
173
1
174
0
175
1
176
1
 91
1
178
0
145
0.0
170
1
171
1
172
0
173
1
174
0
175
1
176
1
 91
1
178
0
145
0.0
170
1
171
1
172
0
173
0
174
0
175
1
176
1
 91
33
178
0
145
0.0
301
CELL_VALUE
 90
4
  1
Product
304
ACVALUE_END
170
5
140
0.145
171
1
172
0
173
0
174
0
175
1
176
1
 91
33
178
0
145
0.0
301
CELL_VALUE
 90
4
  1
Port
304
ACVALUE_END
170
5
140
0.145
171
1
172
0
173
0
174
0
175
1
176
1
 91
33
178
0
145
0.0
301
CELL_VALUE
 90
4
  1
Size
304
ACVALUE_END
170
5
140
0.145
171
1
172
0
173
0
174
0
175
1
176
1
 91
33
178
0
145
0.0
301
CELL_VALUE
 90
4
  1
QMX
304
ACVALUE_END
170
5
140
0.125
171
1
172
0
173
0
174
0
175
1
176
1
 91
33
178
0
145
0.0
301
CELL_VALUE
 90
4
  1
All Ports
304
ACVALUE_END
170
5
140
0.125
171
1
172
0
173
0
174
0
175
1
176
1
 91
33
178
0
145
0.0
301
CELL_VALUE
 90
4
  1
1" BSPP
304
ACVALUE_END
170
5
140
0.125
  0
MTEXT
  5
28C
100
AcDbEntity
  8
0
100
AcDbMText
 62
2
  6
CONTINUOUS
  7
STANDARD
 71
1
 72
1
 10
0.52125
 20
5.75995
 30
0.0
 11
1.0
 21
0.0
 31
0.0
 44
0.6
  3
Notes\P \P1. Important: Carefully consider\P   the maximum system pressure. The\P   pressure rating of the manifold is\P   dependent on the manifold material,\P   with the port type/size a secondary\P   consideration. Manifolds\P   constructed of alu
  1
minum are not\P   rated for pressures higher than\P   3000 psi (210 bar), regardless of\P   the port type/size specified.
 40
0.1
 41
3.04
  0
LINE
  5
28D
100
AcDbEntity
  8
0
100
AcDbLine
 62
7
  6
CONTINUOUS
 10
0.30125
 20
0.30125
 11
0.30125
 21
16.69875
  0
LINE
  5
28E
100
AcDbEntity
  8
0
100
AcDbLine
 62
7
  6
CONTINUOUS
 10
0.30125
 20
0.30125
 11
21.69875
 21
0.30125
  0
LINE
  5
28F
100
AcDbEntity
  8
0
100
AcDbLine
 62
7
  6
CONTINUOUS
 10
0.30125
 20
16.69875
 11
21.69875
 21
16.69875
  0
LINE
  5
290
100
AcDbEntity
  8
0
100
AcDbLine
 62
7
  6
CONTINUOUS
 10
21.69875
 20
0.30125
 11
21.69875
 21
16.69875
  0
LINE
  5
291
100
AcDbEntity
  8
0
100
AcDbLine
 62
7
  6
CONTINUOUS
 10
10.4096015098
 20
4.8442213617
 11
10.4281390241
 21
4.8350641846
  0
LINE
  5
292
100
AcDbEntity
  8
0
100
AcDbLine
 62
7
  6
CONTINUOUS
 10
10.3585266028
 20
12.254477877
 11
9.3232512768
 21
11.254478643
  0
LINE
  5
293
100
AcDbEntity
  8
0
100
AcDbLine
 62
7
  6
CONTINUOUS
 10
9.3232512768
 20
5.3623307535
 11
11.6414733972
 21
5.2015615034
  0
LINE
  5
294
100
AcDbEntity
  8
0
100
AcDbLine
 62
7
  6
CONTINUOUS
 10
9.3232512768
 20
11.254478643
 11
9.3232512768
 21
5.3623307535
  0
LINE
  5
295
100
AcDbEntity
  8
0
100
AcDbLine
 62
7
  6
CONTINUOUS
 10
12.6767487232
 20
12.0937086269
 11
11.6414733972
 21
11.0937093929
  0
LINE
  5
296
100
AcDbEntity
  8
0
100
AcDbLine
 62
7
  6
CONTINUOUS
 10
10.2814728684
 20
5.2958778604
 11
10.2814728684
 21
5.0084047011
  0
LINE
  5
297
100
AcDbEntity
  8
0
100
AcDbLine
 62
7
  6
CONTINUOUS
 10
10.426
 20
6.8741271644
 11
10.426
 21
6.65778954
  0
LINE
  5
298
100
AcDbEntity
  8
0
100
AcDbLine
 62
7
  6
CONTINUOUS
 10
10.4628158521
 20
5.2833016818
 11
10.4628158521
 21
4.8332411292
  0
LINE
  5
299
100
AcDbEntity
  8
0
100
AcDbLine
 62
7
  6
CONTINUOUS
 10
10.493376362
 20
5.2811823032
 11
10.493376362
 21
4.8253314972
  0
LINE
  5
29A
100
AcDbEntity
  8
0
100
AcDbLine
 62
7
  6
CONTINUOUS
 10
11.1701570725
 20
5.2342474015
 11
11.1701570725
 21
4.7783965955
  0
LINE
  5
29B
100
AcDbEntity
  8
0
100
AcDbLine
 62
7
  6
CONTINUOUS
 10
11.2119034936
 20
5.2313522774
 11
11.2119034936
 21
4.7812917248
  0
LINE
  5
29C
100
AcDbEntity
  8
0
100
AcDbLine
 62
4
  6
CONTINUOUS
 10
11.699655899
 20
8.8193235647
 11
11.6830914941
 21
8.8033235773
  0
LINE
  5
29D
100
AcDbEntity
  8
0
100
AcDbLine
 62
4
  6
CONTINUOUS
 10
12.1161224794
 20
7.6537083597
 11
12.1208551643
 21
7.6494484599
  0
LINE
  5
29E
100
AcDbEntity
  8
0
100
AcDbLine
 62
4
  6
CONTINUOUS
 10
12.1610830091
 20
7.6971368991
 11
12.165815694
 21
7.6928769993
  0
LINE
  5
29F
100
AcDbEntity
  8
0
100
AcDbLine
 62
4
  6
CONTINUOUS
 10
12.004115568
 20
7.5101926946
 11
12.0064819025
 21
7.5065908506
  0
LINE
  5
2A0
100
AcDbEntity
  8
0
100
AcDbLine
 62
4
  6
CONTINUOUS
 10
12.0159472722
 20
7.5098461484
 11
12.0183136067
 21
7.5062443044
  0
LINE
  5
2A1
100
AcDbEntity
  8
0
100
AcDbLine
 62
4
  6
CONTINUOUS
 10
11.6934442472
 20
8.6896850591
 11
11.6893031459
 21
8.6856850623
  0
LINE
  5
2A2
100
AcDbEntity
  8
0
100
AcDbLine
 62
4
  6
CONTINUOUS
 10
12.0340892764
 20
8.1284886401
 11
12.0214687783
 21
8.1398483689
  0
LINE
  5
2A3
100
AcDbEntity
  8
0
100
AcDbLine
 62
7
  6
CONTINUOUS
 10
11.6414733972
 20
5.2015615034
 11
11.6414733972
 21
11.0937093929
  0
LINE
  5
2A4
100
AcDbEntity
  8
0
100
AcDbLine
 62
4
  6
CONTINUOUS
 10
11.6830914941
 20
8.7002914879
 11
11.6830914941
 21
8.7208979013
  0
LINE
  5
2A5
100
AcDbEntity
  8
0
100
AcDbLine
 62
4
  6
CONTINUOUS
 10
11.6851620447
 20
6.4028725591
 11
11.6851620447
 21
6.2792340488
  0
LINE
  5
2A6
100
AcDbEntity
  8
0
100
AcDbLine
 62
7
  6
CONTINUOUS
 10
11.7073412203
 20
5.2651849386
 11
11.7073412203
 21
4.909520395
  0
LINE
  5
2A7
100
AcDbEntity
  8
0
100
AcDbLine
 62
7
  6
CONTINUOUS
 10
11.7185271316
 20
5.2759896999
 11
11.7185271316
 21
4.9203251562
  0
LINE
  5
2A8
100
AcDbEntity
  8
0
100
AcDbLine
 62
4
  6
CONTINUOUS
 10
11.6975853484
 20
8.7864139387
 11
11.699655899
 21
8.8193235647
  0
LINE
  5
2A9
100
AcDbEntity
  8
0
100
AcDbLine
 62
4
  6
CONTINUOUS
 10
11.6830914941
 20
8.7208979013
 11
11.6851620447
 21
8.7332011139
  0
LINE
  5
2AA
100
AcDbEntity
  8
0
100
AcDbLine
 62
4
  6
CONTINUOUS
 10
11.6934442472
 20
8.7618075247
 11
11.6975853484
 21
8.7864139387
  0
LINE
  5
2AB
100
AcDbEntity
  8
0
100
AcDbLine
 62
4
  6
CONTINUOUS
 10
11.699655899
 20
8.7162914752
 11
11.6975853484
 21
8.7039882627
  0
LINE
  5
2AC
100
AcDbEntity
  8
0
100
AcDbLine
 62
4
  6
CONTINUOUS
 10
11.6851620447
 20
8.7332011139
 11
11.6934442472
 21
8.7618075247
  0
LINE
  5
2AD
100
AcDbEntity
  8
0
100
AcDbLine
 62
4
  6
CONTINUOUS
 10
11.6975853484
 20
8.7039882627
 11
11.6934442472
 21
8.6896850591
  0
LINE
  5
2AE
100
AcDbEntity
  8
0
100
AcDbLine
 62
4
  6
CONTINUOUS
 10
12.2967534036
 20
8.4057529139
 11
12.2841329045
 21
8.41711264
  0
LINE
  5
2AF
100
AcDbEntity
  8
0
100
AcDbLine
 62
4
  6
CONTINUOUS
 10
11.6893031459
 20
8.6856850623
 11
11.6851620447
 21
8.6919882722
  0
LINE
  5
2B0
100
AcDbEntity
  8
0
100
AcDbLine
 62
4
  6
CONTINUOUS
 10
12.0064819025
 20
7.4594904648
 11
12.004115568
 21
7.4660360864
  0
LINE
  5
2B1
100
AcDbEntity
  8
0
100
AcDbLine
 62
4
  6
CONTINUOUS
 10
12.0183136067
 20
7.5504009154
 11
12.0159472722
 21
7.5569465341
  0
LINE
  5
2B2
100
AcDbEntity
  8
0
100
AcDbLine
 62
4
  6
CONTINUOUS
 10
12.0372443777
 20
7.5775179596
 11
12.0396107122
 21
7.5709723408
  0
LINE
  5
2B3
100
AcDbEntity
  8
0
100
AcDbLine
 62
4
  6
CONTINUOUS
 10
12.0711619497
 20
7.6102798203
 11
12.0735283001
 21
7.6037342168
  0
LINE
  5
2B4
100
AcDbEntity
  8
0
100
AcDbLine
 62
4
  6
CONTINUOUS
 10
12.0971917401
 20
7.626591346
 11
12.0948253897
 21
7.6331369495
  0
LINE
  5
2B5
100
AcDbEntity
  8
0
100
AcDbLine
 62
4
  6
CONTINUOUS
 10
12.1981557255
 20
7.6446331716
 11
12.1957893831
 21
7.6511787856
  0
LINE
  5
2B6
100
AcDbEntity
  8
0
100
AcDbLine
 62
4
  6
CONTINUOUS
 10
11.6851620447
 20
8.6919882722
 11
11.6830914941
 21
8.7002914879
  0
LINE
  5
2B7
100
AcDbEntity
  8
0
100
AcDbLine
 62
4
  6
CONTINUOUS
 10
12.1863240055
 20
7.633204607
 11
12.1792249703
 21
7.714660689
  0
LINE
  5
2B8
100
AcDbEntity
  8
0
100
AcDbLine
 62
4
  6
CONTINUOUS
 10
12.004115568
 20
7.5366866622
 11
12.004115568
 21
7.5101926946
  0
LINE
  5
2B9
100
AcDbEntity
  8
0
100
AcDbLine
 62
4
  6
CONTINUOUS
 10
12.0183136067
 20
7.5062443044
 11
12.0183136067
 21
7.4797503395
  0
LINE
  5
2BA
100
AcDbEntity
  8
0
100
AcDbLine
 62
4
  6
CONTINUOUS
 10
12.0396107122
 20
7.5709723408
 11
12.0396107122
 21
7.5003217649
  0
LINE
  5
2BB
100
AcDbEntity
  8
0
100
AcDbLine
 62
4
  6
CONTINUOUS
 10
12.0522312104
 20
7.5919941292
 11
12.0522312104
 21
7.5036809054
  0
LINE
  5
2BC
100
AcDbEntity
  8
0
100
AcDbLine
 62
4
  6
CONTINUOUS
 10
12.0522312104
 20
7.4771869442
 11
12.0522312104
 21
7.4683556189
  0
LINE
  5
2BD
100
AcDbEntity
  8
0
100
AcDbLine
 62
4
  6
CONTINUOUS
 10
12.0577527006
 20
8.2278838822
 11
12.0577527006
 21
8.1042453719
  0
LINE
  5
2BE
100
AcDbEntity
  8
0
100
AcDbLine
 62
4
  6
CONTINUOUS
 10
12.0711619928
 20
8.1348603976
 11
12.0711619928
 21
8.2231736195
  0
LINE
  5
2BF
100
AcDbEntity
  8
0
100
AcDbLine
 62
4
  6
CONTINUOUS
 10
12.0735283001
 20
7.6037342168
 11
12.0735283001
 21
7.488927029
  0
LINE
  5
2C0
100
AcDbEntity
  8
0
100
AcDbLine
 62
4
  6
CONTINUOUS
 10
12.0829936697
 20
7.6217083849
 11
12.0829936697
 21
7.5333951612
  0
LINE
  5
2C1
100
AcDbEntity
  8
0
100
AcDbLine
 62
4
  6
CONTINUOUS
 10
12.0877263976
 20
8.256836252
 11
12.0877263976
 21
8.1331977417
  0
LINE
  5
2C2
100
AcDbEntity
  8
0
100
AcDbLine
 62
4
  6
CONTINUOUS
 10
12.0971917401
 20
7.5471094448
 11
12.0971917401
 21
7.626591346
  0
LINE
  5
2C3
100
AcDbEntity
  8
0
100
AcDbLine
 62
4
  6
CONTINUOUS
 10
12.0971917673
 20
8.1600032305
 11
12.0971917673
 21
8.2483164524
  0
LINE
  5
2C4
100
AcDbEntity
  8
0
100
AcDbLine
 62
4
  6
CONTINUOUS
 10
12.1066571097
 20
7.6445655141
 11
12.1066571097
 21
7.5739149337
  0
LINE
  5
2C5
100
AcDbEntity
  8
0
100
AcDbLine
 62
4
  6
CONTINUOUS
 10
12.1137561722
 20
8.2643164398
 11
12.1137561722
 21
8.1760032179
  0
LINE
  5
2C6
100
AcDbEntity
  8
0
100
AcDbLine
 62
4
  6
CONTINUOUS
 10
12.1208551643
 20
7.6494484599
 11
12.1208551643
 21
7.6229544923
  0
LINE
  5
2C7
100
AcDbEntity
  8
0
100
AcDbLine
 62
4
  6
CONTINUOUS
 10
12.1311093279
 20
7.5887026462
 11
12.1311093279
 21
7.6063652894
  0
LINE
  5
2C8
100
AcDbEntity
  8
0
100
AcDbLine
 62
4
  6
CONTINUOUS
 10
12.0514424322
 20
7.4675937176
 11
12.0522312104
 21
7.4771869442
  0
LINE
  5
2C9
100
AcDbEntity
  8
0
100
AcDbLine
 62
4
  6
CONTINUOUS
 10
11.6851620447
 20
6.2792340488
 11
11.699655899
 21
6.3859629205
  0
LINE
  5
2CA
100
AcDbEntity
  8
0
100
AcDbLine
 62
4
  6
CONTINUOUS
 10
12.0711619928
 20
8.2231736195
 11
12.0758946776
 21
8.2454076874
  0
LINE
  5
2CB
100
AcDbEntity
  8
0
100
AcDbLine
 62
4
  6
CONTINUOUS
 10
12.0971917673
 20
8.2483164524
 11
12.1019244522
 21
8.2705505204
  0
LINE
  5
2CC
100
AcDbEntity
  8
0
100
AcDbLine
 62
4
  6
CONTINUOUS
 10
12.0214687783
 20
8.1398483689
 11
12.0340892764
 21
8.1755890277
  0
LINE
  5
2CD
100
AcDbEntity
  8
0
100
AcDbLine
 62
4
  6
CONTINUOUS
 10
12.1910567255
 20
8.3566456902
 11
12.1768586631
 21
8.3429314142
  0
LINE
  5
2CE
100
AcDbEntity
  8
0
100
AcDbLine
 62
4
  6
CONTINUOUS
 10
12.0577527006
 20
8.2278838822
 11
12.0435546461
 21
8.2141696139
  0
LINE
  5
2CF
100
AcDbEntity
  8
0
100
AcDbLine
 62
4
  6
CONTINUOUS
 10
12.0758946776
 20
8.2454076874
 11
12.0877263976
 21
8.256836252
  0
LINE
  5
2D0
100
AcDbEntity
  8
0
100
AcDbLine
 62
4
  6
CONTINUOUS
 10
12.1019244522
 20
8.2705505204
 11
12.1090234873
 21
8.2774076622
  0
LINE
  5
2D1
100
AcDbEntity
  8
0
100
AcDbLine
 62
4
  6
CONTINUOUS
 10
12.1271654485
 20
8.2949314521
 11
12.1366308182
 21
8.3040742976
  0
LINE
  5
2D2
100
AcDbEntity
  8
0
100
AcDbLine
 62
4
  6
CONTINUOUS
 10
12.2659909383
 20
8.429026586
 11
12.2778226544
 21
8.4404551468
  0
LINE
  5
2D3
100
AcDbEntity
  8
0
100
AcDbLine
 62
4
  6
CONTINUOUS
 10
12.2446938467
 20
8.3731298837
 11
12.2320733485
 21
8.3609394178
  0
LINE
  5
2D4
100
AcDbEntity
  8
0
100
AcDbLine
 62
4
  6
CONTINUOUS
 10
12.048287331
 20
8.1480904562
 11
12.0577527006
 21
8.1572333017
  0
LINE
  5
2D5
100
AcDbEntity
  8
0
100
AcDbLine
 62
4
  6
CONTINUOUS
 10
12.1815913479
 20
8.2768522565
 11
12.1910567255
 21
8.2859951097
  0
LINE
  5
2D6
100
AcDbEntity
  8
0
100
AcDbLine
 62
4
  6
CONTINUOUS
 10
12.2778226544
 20
8.3168166364
 11
12.2659909383
 21
8.3053880757
  0
LINE
  5
2D7
100
AcDbEntity
  8
0
100
AcDbLine
 62
4
  6
CONTINUOUS
 10
12.2194528503
 20
8.2604357319
 11
12.2005221031
 21
8.2421500331
  0
LINE
  5
2D8
100
AcDbEntity
  8
0
100
AcDbLine
 62
4
  6
CONTINUOUS
 10
12.1910567255
 20
8.2330071799
 11
12.1768586631
 21
8.2192929039
  0
LINE
  5
2D9
100
AcDbEntity
  8
0
100
AcDbLine
 62
4
  6
CONTINUOUS
 10
12.1366308182
 20
8.1804357873
 11
12.1271654485
 21
8.1712929417
  0
LINE
  5
2DA
100
AcDbEntity
  8
0
100
AcDbLine
 62
4
  6
CONTINUOUS
 10
12.1090234873
 20
8.1537691518
 11
12.1019244522
 21
8.14691201
  0
LINE
  5
2DB
100
AcDbEntity
  8
0
100
AcDbLine
 62
4
  6
CONTINUOUS
 10
12.0877263976
 20
8.1331977417
 11
12.0758946776
 21
8.1217691771
  0
LINE
  5
2DC
100
AcDbEntity
  8
0
100
AcDbLine
 62
4
  6
CONTINUOUS
 10
12.0577527006
 20
8.1042453719
 11
12.0435546461
 21
8.0905311035
  0
LINE
  5
2DD
100
AcDbEntity
  8
0
100
AcDbLine
 62
4
  6
CONTINUOUS
 10
12.6274696193
 20
8.5687754842
 11
12.6316107205
 21
8.572775481
  0
LINE
  5
2DE
100
AcDbEntity
  8
0
100
AcDbLine
 62
4
  6
CONTINUOUS
 10
12.1851408425
 20
8.078926663
 11
12.1922398732
 21
8.0857838005
  0
LINE
  5
2DF
100
AcDbEntity
  8
0
100
AcDbLine
 62
4
  6
CONTINUOUS
 10
12.6316107205
 20
8.5006530191
 11
12.6274696193
 21
8.4966530223
  0
LINE
  5
2E0
100
AcDbEntity
  8
0
100
AcDbLine
 62
4
  6
CONTINUOUS
 10
12.1898735298
 20
8.0481727979
 11
12.1780418113
 21
8.072069525
  0
LINE
  5
2E1
100
AcDbEntity
  8
0
100
AcDbLine
 62
4
  6
CONTINUOUS
 10
12.2975421546
 20
7.7936210295
 11
12.3141065594
 21
7.7566330833
  0
LINE
  5
2E2
100
AcDbEntity
  8
0
100
AcDbLine
 62
4
  6
CONTINUOUS
 10
12.0758946776
 20
8.1217691771
 11
12.0711619928
 21
8.1348603976
  0
LINE
  5
2E3
100
AcDbEntity
  8
0
100
AcDbLine
 62
4
  6
CONTINUOUS
 10
12.1019244522
 20
8.14691201
 11
12.0971917673
 21
8.1600032305
  0
LINE
  5
2E4
100
AcDbEntity
  8
0
100
AcDbLine
 62
4
  6
CONTINUOUS
 10
12.1851408425
 20
7.9552881527
 11
12.1804081557
 21
7.9683793713
  0
LINE
  5
2E5
100
AcDbEntity
  8
0
100
AcDbLine
 62
4
  6
CONTINUOUS
 10
12.299908498
 20
7.7075935217
 11
12.2975421546
 21
7.7141391347
  0
LINE
  5
2E6
100
AcDbEntity
  8
0
100
AcDbLine
 62
4
  6
CONTINUOUS
 10
12.1090234873
 20
8.2774076622
 11
12.1137561722
 21
8.2643164398
  0
LINE
  5
2E7
100
AcDbEntity
  8
0
100
AcDbLine
 62
4
  6
CONTINUOUS
 10
12.2880767809
 20
7.8021408252
 11
12.2833440941
 21
7.8152320456
  0
LINE
  5
2E8
100
AcDbEntity
  8
0
100
AcDbLine
 62
4
  6
CONTINUOUS
 10
12.1922398732
 20
8.0857838005
 11
12.1969725605
 21
8.0726925806
  0
LINE
  5
2E9
100
AcDbEntity
  8
0
100
AcDbLine
 62
4
  6
CONTINUOUS
 10
12.1366308182
 20
8.3040742976
 11
12.141363503
 21
8.2909830753
  0
LINE
  5
2EA
100
AcDbEntity
  8
0
100
AcDbLine
 62
4
  6
CONTINUOUS
 10
12.3141065594
 20
7.8361149845
 11
12.3117402158
 21
7.8426605945
  0
LINE
  5
2EB
100
AcDbEntity
  8
0
100
AcDbLine
 62
4
  6
CONTINUOUS
 10
12.2659909383
 20
8.3053880757
 11
12.2612582515
 21
8.3184792942
  0
LINE
  5
2EC
100
AcDbEntity
  8
0
100
AcDbLine
 62
4
  6
CONTINUOUS
 10
12.1326868843
 20
7.5813951233
 11
12.1311093279
 21
7.5887026462
  0
LINE
  5
2ED
100
AcDbEntity
  8
0
100
AcDbLine
 62
4
  6
CONTINUOUS
 10
12.1401803148
 20
7.9118596152
 11
12.1212495636
 21
8.017212423
  0
LINE
  5
2EE
100
AcDbEntity
  8
0
100
AcDbLine
 62
4
  6
CONTINUOUS
 10
12.1066571097
 20
7.5739149337
 11
12.1090234443
 21
7.5585379941
  0
LINE
  5
2EF
100
AcDbEntity
  8
0
100
AcDbLine
 62
4
  6
CONTINUOUS
 10
12.1685764377
 20
7.9392881653
 11
12.1591110621
 21
8.0007958908
  0
LINE
  5
2F0
100
AcDbEntity
  8
0
100
AcDbLine
 62
4
  6
CONTINUOUS
 10
12.2620470025
 20
7.6710221232
 11
12.2454825976
 21
7.7786606462
  0
LINE
  5
2F1
100
AcDbEntity
  8
0
100
AcDbLine
 62
4
  6
CONTINUOUS
 10
12.2383835976
 20
8.2787214306
 11
12.22891822
 21
8.3932170878
  0
LINE
  5
2F2
100
AcDbEntity
  8
0
100
AcDbLine
 62
4
  6
CONTINUOUS
 10
12.141363503
 20
8.2909830753
 11
12.141363503
 21
8.2026698534
  0
LINE
  5
2F3
100
AcDbEntity
  8
0
100
AcDbLine
 62
4
  6
CONTINUOUS
 10
12.142152254
 20
7.6788511927
 11
12.142152254
 21
7.5905379689
  0
LINE
  5
2F4
100
AcDbEntity
  8
0
100
AcDbLine
 62
4
  6
CONTINUOUS
 10
12.1496456884
 20
7.9210024646
 11
12.1496456884
 21
8.0446409749
  0
LINE
  5
2F5
100
AcDbEntity
  8
0
100
AcDbLine
 62
4
  6
CONTINUOUS
 10
12.1516176394
 20
7.5643555432
 11
12.1516176394
 21
7.6879940535
  0
LINE
  5
2F6
100
AcDbEntity
  8
0
100
AcDbLine
 62
4
  6
CONTINUOUS
 10
12.165815694
 20
7.6928769993
 11
12.165815694
 21
7.6222264234
  0
LINE
  5
2F7
100
AcDbEntity
  8
0
100
AcDbLine
 62
4
  6
CONTINUOUS
 10
12.1685764377
 20
8.0629266756
 11
12.1685764377
 21
7.9392881653
  0
LINE
  5
2F8
100
AcDbEntity
  8
0
100
AcDbLine
 62
4
  6
CONTINUOUS
 10
12.1804081557
 20
7.9683793713
 11
12.1804081557
 21
8.0566925932
  0
LINE
  5
2F9
100
AcDbEntity
  8
0
100
AcDbLine
 62
4
  6
CONTINUOUS
 10
12.1910567255
 20
8.3566456902
 11
12.1910567255
 21
8.2330071799
  0
LINE
  5
2FA
100
AcDbEntity
  8
0
100
AcDbLine
 62
4
  6
CONTINUOUS
 10
12.1957893831
 20
7.6511787856
 11
12.1957893831
 21
7.730660684
  0
LINE
  5
2FB
100
AcDbEntity
  8
0
100
AcDbLine
 62
4
  6
CONTINUOUS
 10
12.1969725605
 20
8.0726925806
 11
12.1969725605
 21
7.9843793587
  0
LINE
  5
2FC
100
AcDbEntity
  8
0
100
AcDbLine
 62
4
  6
CONTINUOUS
 10
12.2099874455
 20
7.74437496
 11
12.2099874455
 21
7.6207364497
  0
LINE
  5
2FD
100
AcDbEntity
  8
0
100
AcDbLine
 62
4
  6
CONTINUOUS
 10
12.2099874727
 20
8.374931389
 11
12.2099874727
 21
8.2512928787
  0
LINE
  5
2FE
100
AcDbEntity
  8
0
100
AcDbLine
 62
4
  6
CONTINUOUS
 10
12.2454825976
 20
7.7786606462
 11
12.2454825976
 21
7.6550221358
  0
LINE
  5
2FF
100
AcDbEntity
  8
0
100
AcDbLine
 62
4
  6
CONTINUOUS
 10
12.2612582515
 20
8.3184792942
 11
12.2612582515
 21
8.4067925162
  0
LINE
  5
300
100
AcDbEntity
  8
0
100
AcDbLine
 62
4
  6
CONTINUOUS
 10
12.2620470025
 20
7.7946606335
 11
12.2620470025
 21
7.6710221232
  0
LINE
  5
301
100
AcDbEntity
  8
0
100
AcDbLine
 62
4
  6
CONTINUOUS
 10
12.2715123761
 20
7.7861408378
 11
12.2715123761
 21
7.6801649726
  0
LINE
  5
302
100
AcDbEntity
  8
0
100
AcDbLine
 62
4
  6
CONTINUOUS
 10
12.2778226544
 20
8.4404551468
 11
12.2778226544
 21
8.3168166364
  0
LINE
  5
303
100
AcDbEntity
  8
0
100
AcDbLine
 62
4
  6
CONTINUOUS
 10
12.2880767809
 20
7.69616496
 11
12.2880767809
 21
7.8021408252
  0
LINE
  5
304
100
AcDbEntity
  8
0
100
AcDbLine
 62
4
  6
CONTINUOUS
 10
12.2975421546
 20
7.8112836746
 11
12.2975421546
 21
7.7936210295
  0
LINE
  5
305
100
AcDbEntity
  8
0
100
AcDbLine
 62
4
  6
CONTINUOUS
 10
12.3141065594
 20
7.7566330833
 11
12.3141065594
 21
7.73897044
  0
LINE
  5
306
100
AcDbEntity
  8
0
100
AcDbLine
 62
4
  6
CONTINUOUS
 10
12.2478489712
 20
8.4115027904
 11
12.2383835976
 21
8.2787214306
  0
LINE
  5
307
100
AcDbEntity
  8
0
100
AcDbLine
 62
4
  6
CONTINUOUS
 10
12.1815913206
 20
7.7463841486
 11
12.172125951
 21
7.6194903387
  0
LINE
  5
308
100
AcDbEntity
  8
0
100
AcDbLine
 62
4
  6
CONTINUOUS
 10
12.1591110621
 20
8.0007958908
 11
12.1496456884
 21
7.9210024646
  0
LINE
  5
309
100
AcDbEntity
  8
0
100
AcDbLine
 62
4
  6
CONTINUOUS
 10
12.1401803148
 20
8.0354981255
 11
12.1212495636
 21
7.8935739126
  0
LINE
  5
30A
100
AcDbEntity
  8
0
100
AcDbLine
 62
4
  6
CONTINUOUS
 10
12.1137561722
 20
8.1760032179
 11
12.1090234873
 21
8.1537691518
  0
LINE
  5
30B
100
AcDbEntity
  8
0
100
AcDbLine
 62
4
  6
CONTINUOUS
 10
12.141363503
 20
8.2026698534
 11
12.1366308182
 21
8.1804357873
  0
LINE
  5
30C
100
AcDbEntity
  8
0
100
AcDbLine
 62
4
  6
CONTINUOUS
 10
12.0064819025
 20
7.5478036886
 11
12.004115568
 21
7.5366866622
  0
LINE
  5
30D
100
AcDbEntity
  8
0
100
AcDbLine
 62
4
  6
CONTINUOUS
 10
12.0183136067
 20
7.4797503395
 11
12.0159472722
 21
7.4686333104
  0
LINE
  5
30E
100
AcDbEntity
  8
0
100
AcDbLine
 62
4
  6
CONTINUOUS
 10
12.0396107122
 20
7.5003217649
 11
12.0372443777
 21
7.4892047358
  0
LINE
  5
30F
100
AcDbEntity
  8
0
100
AcDbLine
 62
4
  6
CONTINUOUS
 10
12.1804081557
 20
8.0566925932
 11
12.1851408425
 21
8.078926663
  0
LINE
  5
310
100
AcDbEntity
  8
0
100
AcDbLine
 62
4
  6
CONTINUOUS
 10
12.2612582515
 20
8.4067925162
 11
12.2659909383
 21
8.429026586
  0
LINE
  5
311
100
AcDbEntity
  8
0
100
AcDbLine
 62
4
  6
CONTINUOUS
 10
12.1969725605
 20
7.9843793587
 11
12.1922398732
 21
7.9621452902
  0
LINE
  5
312
100
AcDbEntity
  8
0
100
AcDbLine
 62
4
  6
CONTINUOUS
 10
12.2762450609
 20
7.8083749057
 11
12.2715123761
 21
7.7861408378
  0
LINE
  5
313
100
AcDbEntity
  8
0
100
AcDbLine
 62
4
  6
CONTINUOUS
 10
12.2841329045
 20
8.3700122524
 11
12.2967534036
 21
8.4057529139
  0
LINE
  5
314
100
AcDbEntity
  8
0
100
AcDbLine
 62
4
  6
CONTINUOUS
 10
12.1208551643
 20
7.6229544923
 11
12.1161224794
 21
7.6095517478
  0
LINE
  5
315
100
AcDbEntity
  8
0
100
AcDbLine
 62
4
  6
CONTINUOUS
 10
12.165815694
 20
7.6222264234
 11
12.1610830091
 21
7.6088236753
  0
LINE
  5
316
100
AcDbEntity
  8
0
100
AcDbLine
 62
4
  6
CONTINUOUS
 10
12.6316107205
 20
8.4491369707
 11
12.6274696193
 21
8.4451369738
  0
LINE
  5
317
100
AcDbEntity
  8
0
100
AcDbLine
 62
4
  6
CONTINUOUS
 10
12.1922398732
 20
7.9621452902
 11
12.1851408425
 21
7.9552881527
  0
LINE
  5
318
100
AcDbEntity
  8
0
100
AcDbLine
 62
4
  6
CONTINUOUS
 10
12.1863240055
 20
7.7509555714
 11
12.1815913206
 21
7.7463841486
  0
LINE
  5
319
100
AcDbEntity
  8
0
100
AcDbLine
 62
4
  6
CONTINUOUS
 10
12.3117402158
 20
7.8426605945
 11
12.3022748414
 21
7.8335177444
  0
LINE
  5
31A
100
AcDbEntity
  8
0
100
AcDbLine
 62
4
  6
CONTINUOUS
 10
12.2833440941
 20
7.8152320456
 11
12.2762450609
 21
7.8083749057
  0
LINE
  5
31B
100
AcDbEntity
  8
0
100
AcDbLine
 62
4
  6
CONTINUOUS
 10
12.0948253897
 20
7.6331369495
 11
12.0829936697
 21
7.6217083849
  0
LINE
  5
31C
100
AcDbEntity
  8
0
100
AcDbLine
 62
4
  6
CONTINUOUS
 10
12.0159472722
 20
7.5569465341
 11
12.0064819025
 21
7.5478036886
  0
LINE
  5
31D
100
AcDbEntity
  8
0
100
AcDbLine
 62
4
  6
CONTINUOUS
 10
12.0277789764
 20
7.5683750835
 11
12.0372443777
 21
7.5775179596
  0
LINE
  5
31E
100
AcDbEntity
  8
0
100
AcDbLine
 62
4
  6
CONTINUOUS
 10
12.0664292649
 20
7.6057083976
 11
12.0711619497
 21
7.6102798203
  0
LINE
  5
31F
100
AcDbEntity
  8
0
100
AcDbLine
 62
4
  6
CONTINUOUS
 10
12.1066571097
 20
7.6445655141
 11
12.1161224794
 21
7.6537083597
  0
LINE
  5
320
100
AcDbEntity
  8
0
100
AcDbLine
 62
4
  6
CONTINUOUS
 10
12.1516176394
 20
7.6879940535
 11
12.1610830091
 21
7.6971368991
  0
LINE
  5
321
100
AcDbEntity
  8
0
100
AcDbLine
 62
4
  6
CONTINUOUS
 10
12.0064819025
 20
7.5065908506
 11
12.0159472722
 21
7.5098461484
  0
LINE
  5
322
100
AcDbEntity
  8
0
100
AcDbLine
 62
4
  6
CONTINUOUS
 10
12.6274696193
 20
8.4451369738
 11
12.6233285181
 21
8.4514401837
  0
LINE
  5
323
100
AcDbEntity
  8
0
100
AcDbLine
 62
4
  6
CONTINUOUS
 10
12.6274696193
 20
8.4966530223
 11
12.6233285181
 21
8.5029562322
  0
LINE
  5
324
100
AcDbEntity
  8
0
100
AcDbLine
 62
4
  6
CONTINUOUS
 10
12.6316107205
 20
8.572775481
 11
12.6357518217
 21
8.5664722684
  0
LINE
  5
325
100
AcDbEntity
  8
0
100
AcDbLine
 62
4
  6
CONTINUOUS
 10
12.6191874169
 20
8.5195626525
 11
12.6191874169
 21
8.5298658629
  0
LINE
  5
326
100
AcDbEntity
  8
0
100
AcDbLine
 62
4
  6
CONTINUOUS
 10
12.6212579675
 20
8.4597433994
 11
12.6212579675
 21
8.4700466061
  0
LINE
  5
327
100
AcDbEntity
  8
0
100
AcDbLine
 62
7
  6
CONTINUOUS
 10
12.6767487232
 20
6.2015607374
 11
12.6767487232
 21
12.0937086269
  0
LINE
  5
328
100
AcDbEntity
  8
0
100
AcDbLine
 62
4
  6
CONTINUOUS
 10
12.6191874169
 20
8.5298658629
 11
12.6233285181
 21
8.5544722778
  0
LINE
  5
329
100
AcDbEntity
  8
0
100
AcDbLine
 62
4
  6
CONTINUOUS
 10
12.6212579675
 20
8.4700466061
 11
12.6233285181
 21
8.4823498113
  0
LINE
  5
32A
100
AcDbEntity
  8
0
100
AcDbLine
 62
4
  6
CONTINUOUS
 10
12.3022748414
 20
7.8335177444
 11
12.2975421546
 21
7.8112836746
  0
LINE
  5
32B
100
AcDbEntity
  8
0
100
AcDbLine
 62
4
  6
CONTINUOUS
 10
12.3141065594
 20
7.73897044
 11
12.3093738721
 21
7.7167363716
  0
LINE
  5
32C
100
AcDbEntity
  8
0
100
AcDbLine
 62
4
  6
CONTINUOUS
 10
12.6233285181
 20
8.5544722778
 11
12.6274696193
 21
8.5687754842
  0
LINE
  5
32D
100
AcDbEntity
  8
0
100
AcDbLine
 62
4
  6
CONTINUOUS
 10
12.6233285181
 20
8.4823498113
 11
12.6274696193
 21
8.4966530223
  0
LINE
  5
32E
100
AcDbEntity
  8
0
100
AcDbLine
 62
4
  6
CONTINUOUS
 10
12.6357518217
 20
8.4634401743
 11
12.6316107205
 21
8.4491369707
  0
LINE
  5
32F
100
AcDbEntity
  8
0
100
AcDbLine
 62
4
  6
CONTINUOUS
 10
12.1161224794
 20
7.6095517478
 11
12.1066571097
 21
7.6004089023
  0
LINE
  5
330
100
AcDbEntity
  8
0
100
AcDbLine
 62
4
  6
CONTINUOUS
 10
12.2099874455
 20
7.6560617362
 11
12.1981557255
 21
7.6446331716
  0
LINE
  5
331
100
AcDbEntity
  8
0
100
AcDbLine
 62
4
  6
CONTINUOUS
 10
12.1610830091
 20
7.6088236753
 11
12.1516176394
 21
7.5996808297
  0
LINE
  5
332
100
AcDbEntity
  8
0
100
AcDbLine
 62
4
  6
CONTINUOUS
 10
12.142152254
 20
7.5905379689
 11
12.1326868843
 21
7.5813951233
  0
LINE
  5
333
100
AcDbEntity
  8
0
100
AcDbLine
 62
4
  6
CONTINUOUS
 10
12.0372443777
 20
7.4892047358
 11
12.0277789764
 21
7.4800618597
  0
LINE
  5
334
100
AcDbEntity
  8
0
100
AcDbLine
 62
4
  6
CONTINUOUS
 10
12.0159472722
 20
7.4686333104
 11
12.0064819025
 21
7.4594904648
  0
LINE
  5
335
100
AcDbEntity
  8
0
100
AcDbLine
 62
4
  6
CONTINUOUS
 10
12.1090234443
 20
7.5585379941
 11
12.1208551643
 21
7.5699665587
  0
LINE
  5
336
100
AcDbEntity
  8
0
100
AcDbLine
 62
4
  6
CONTINUOUS
 10
12.3093738721
 20
7.7167363716
 11
12.299908498
 21
7.7075935217
  0
LINE
  5
337
100
AcDbEntity
  8
0
100
AcDbLine
 62
4
  6
CONTINUOUS
 10
12.0522312104
 20
7.4683556189
 11
12.0514424322
 21
7.4675937176
  0
LINE
  5
338
100
AcDbEntity
  8
0
100
AcDbLine
 62
4
  6
CONTINUOUS
 10
12.6233285181
 20
8.4514401837
 11
12.6212579675
 21
8.4597433994
  0
LINE
  5
339
100
AcDbEntity
  8
0
100
AcDbLine
 62
4
  6
CONTINUOUS
 10
12.6233285181
 20
8.5029562322
 11
12.6191874169
 21
8.5195626525
  0
LINE
  5
33A
100
AcDbEntity
  8
0
100
AcDbLine
 62
4
  6
CONTINUOUS
 10
12.6357518217
 20
8.5664722684
 11
12.6378223723
 21
8.5581690573
  0
LINE
  5
33B
100
AcDbEntity
  8
0
100
AcDbLine
 62
4
  6
CONTINUOUS
 10
11.699655899
 20
6.3859629205
 11
11.6810209435
 21
6.3679629347
  0
LINE
  5
33C
100
AcDbEntity
  8
0
100
AcDbLine
 62
7
  6
CONTINUOUS
 10
11.6414733972
 20
11.0937093929
 11
9.3232512768
 21
11.254478643
  0
LINE
  5
33D
100
AcDbEntity
  8
0
100
AcDbLine
 62
7
  6
CONTINUOUS
 10
12.6767487232
 20
6.2015607374
 11
11.6414733972
 21
5.2015615034
  0
LINE
  5
33E
100
AcDbEntity
  8
0
100
AcDbLine
 62
7
  6
CONTINUOUS
 10
12.6767487232
 20
12.0937086269
 11
10.3585266028
 21
12.254477877
  0
ARC
  5
33F
100
AcDbEntity
  8
0
100
AcDbCircle
 62
7
  6
CONTINUOUS
 10
11.0125665683
 20
7.3532081531
 40
2.5796296874
100
AcDbArc
 50
273.5024005705
 51
274.4318614998
  0
ARC
  5
340
100
AcDbEntity
  8
0
100
AcDbCircle
 62
7
  6
CONTINUOUS
 10
10.995030592
 20
11.0104009085
 40
2.2724981055
100
AcDbArc
 50
266.0437003659
 51
267.4944905901
  0
ARC
  5
341
100
AcDbEntity
  8
0
100
AcDbCircle
 62
7
  6
CONTINUOUS
 10
10.9860433018
 20
10.8761885402
 40
2.1379855068
100
AcDbArc
 50
264.8323386748
 51
266.0358163998
  0
ARC
  5
342
100
AcDbEntity
  8
0
100
AcDbCircle
 62
7
  6
CONTINUOUS
 10
10.99789181
 20
8.6345385643
 40
2.1325669484
100
AcDbArc
 50
266.0621186627
 51
268.6339759087
  0
ARC
  5
343
100
AcDbEntity
  8
0
100
AcDbCircle
 62
7
  6
CONTINUOUS
 10
10.999104236
 20
10.9066741543
 40
2.0767581327
100
AcDbArc
 50
267.0333542448
 51
268.9585057599
  0
ARC
  5
344
100
AcDbEntity
  8
0
100
AcDbCircle
 62
7
  6
CONTINUOUS
 10
10.9943908047
 20
10.808473065
 40
1.9784447431
100
AcDbArc
 50
266.0383176501
 51
267.0224871758
  0
ARC
  5
345
100
AcDbEntity
  8
0
100
AcDbCircle
 62
7
  6
CONTINUOUS
 10
10.971736548
 20
10.7167802521
 40
1.9779363452
100
AcDbArc
 50
263.4112214459
 51
264.7736628215
  0
ARC
  5
346
100
AcDbEntity
  8
0
100
AcDbCircle
 62
7
  6
CONTINUOUS
 10
10.7600937785
 20
5.9188430294
 40
1.1255690345
100
AcDbArc
 50
254.6857191954
 51
256.2926786396
  0
ARC
  5
347
100
AcDbEntity
  8
0
100
AcDbCircle
 62
7
  6
CONTINUOUS
 10
11.210021704
 20
5.6461306371
 40
0.8874376453
100
AcDbArc
 50
294.0402245248
 51
296.3052161243
  0
ARC
  5
348
100
AcDbEntity
  8
0
100
AcDbCircle
 62
7
  6
CONTINUOUS
 10
10.5865073693
 20
6.3743854806
 40
0.396833478
100
AcDbArc
 50
113.9137582149
 51
115.6434792548
  0
ARC
  5
349
100
AcDbEntity
  8
0
100
AcDbCircle
 62
7
  6
CONTINUOUS
 10
11.6146414608
 20
5.0170540658
 40
0.1419744194
100
AcDbArc
 50
310.7630914436
 51
313.9856916519
  0
ARC
  5
34A
100
AcDbEntity
  8
0
100
AcDbCircle
 62
7
  6
CONTINUOUS
 10
11.6291317397
 20
5.0021879501
 40
0.1212149046
100
AcDbArc
 50
313.9375979844
 51
317.5184669645
  0
ARC
  5
34B
100
AcDbEntity
  8
0
100
AcDbCircle
 62
7
  6
CONTINUOUS
 10
10.7475593605
 20
6.6948231237
 40
0.0813333527
100
AcDbArc
 50
187.0307065788
 51
188.5075785319
  0
ARC
  5
34C
100
AcDbEntity
  8
0
100
AcDbCircle
 62
7
  6
CONTINUOUS
 10
10.7466226223
 20
6.6947124383
 40
0.0803901102
100
AcDbArc
 50
184.9178516341
 51
187.03413101
  0
ARC
  5
34D
100
AcDbEntity
  8
0
100
AcDbCircle
 62
7
  6
CONTINUOUS
 10
10.7435063772
 20
6.6944935593
 40
0.0772665888
100
AcDbArc
 50
180.0163605204
 51
184.9542418147
  0
ARC
  5
34E
100
AcDbEntity
  8
0
100
AcDbCircle
 62
7
  6
CONTINUOUS
 10
10.67725331
 20
6.7462951516
 40
0.0642188128
100
AcDbArc
 50
255.4818465892
 51
261.2262342127
  0
SPLINE
  5
34F
100
AcDbEntity
  8
0
100
AcDbSpline
 62
7
  6
CONTINUOUS
 70
0
 71
3
 72
23
 73
19
 74
0
 42
0.0000001
 43
0.0000001
 44
0.0000000001
 40
0.0
 40
0.0
 40
0.0
 40
0.0
 40
0.0510781073
 40
0.1033459956
 40
0.1573160695
 40
0.2133771342
 40
0.2717678084
 40
0.3325703772
 40
0.3957176888
 40
0.4610038459
 40
0.5280950234
 40
0.5965396027
 40
0.6657792277
 40
0.7351670211
 40
0.8039944217
 40
0.8715313223
 40
0.9370742636
 40
1.0
 40
1.0
 40
1.0
 40
1.0
 10
10.6611545054
 20
6.6841269571
 30
0.0
 10
10.657763286
 20
6.6850046682
 30
0.0
 10
10.6510354137
 20
6.6873440409
 30
0.0
 10
10.6414840085
 20
6.6924438863
 30
0.0
 10
10.6324987846
 20
6.6990748418
 30
0.0
 10
10.6241723482
 20
6.7071237162
 30
0.0
 10
10.616567852
 20
6.7164637645
 30
0.0
 10
10.6097294955
 20
6.72695797
 30
0.0
 10
10.6036858365
 20
6.7384617986
 30
0.0
 10
10.5984545716
 20
6.7508235213
 30
0.0
 10
10.5940460272
 20
6.7638835889
 30
0.0
 10
10.5904659949
 20
6.7774735003
 30
0.0
 10
10.5877176912
 20
6.7914151316
 30
0.0
 10
10.5858030243
 20
6.8055213524
 30
0.0
 10
10.5847231511
 20
6.8195985436
 30
0.0
 10
10.5844788043
 20
6.8334517719
 30
0.0
 10
10.5850701029
 20
6.8468893985
 30
0.0
 10
10.5860441051
 20
6.8556546701
 30
0.0
 10
10.5866840022
 20
6.8599224433
 30
0.0
  0
SPLINE
  5
350
100
AcDbEntity
  8
0
100
AcDbSpline
 62
7
  6
CONTINUOUS
 70
0
 71
3
 72
9
 73
5
 74
0
 42
0.0000001
 43
0.0000001
 44
0.0000000001
 40
0.0
 40
0.0
 40
0.0
 40
0.0
 40
0.5047256872
 40
1.0
 40
1.0
 40
1.0
 40
1.0
 10
11.7073412203
 20
4.909520395
 30
0.0
 10
11.6903366674
 20
4.8987565282
 30
0.0
 10
11.6561876936
 20
4.8781421131
 30
0.0
 10
11.6209969404
 20
4.8593388204
 30
0.0
 10
11.6032921847
 20
4.8505906297
 30
0.0
  0
SPLINE
  5
351
100
AcDbEntity
  8
0
100
AcDbSpline
 62
7
  6
CONTINUOUS
 70
0
 71
3
 72
9
 73
5
 74
0
 42
0.0000001
 43
0.0000001
 44
0.0000000001
 40
0.0
 40
0.0
 40
0.0
 40
0.0
 40
0.5071120902
 40
1.0
 40
1.0
 40
1.0
 40
1.0
 10
10.6947781663
 20
6.7338795337
 30
0.0
 10
10.6934995688
 20
6.7339795976
 30
0.0
 10
10.6909583595
 20
6.733984959
 30
0.0
 10
10.688449946
 20
6.7335660815
 30
0.0
 10
10.687243155
 20
6.7332538295
 30
0.0
  0
SPLINE
  5
352
100
AcDbEntity
  8
0
100
AcDbSpline
 62
7
  6
CONTINUOUS
 70
0
 71
3
 72
15
 73
11
 74
0
 42
0.0000001
 43
0.0000001
 44
0.0000000001
 40
0.0
 40
0.0
 40
0.0
 40
0.0
 40
0.0885703925
 40
0.1862570444
 40
0.2946070022
 40
0.4143865841
 40
0.5455922744
 40
0.6876166997
 40
0.8394717346
 40
1.0
 40
1.0
 40
1.0
 40
1.0
 10
10.4099435392
 20
4.8440524525
 30
0.0
 10
10.4043374657
 20
4.8468194301
 30
0.0
 10
10.3930073647
 20
4.8535985485
 30
0.0
 10
10.3767523848
 20
4.866649257
 30
0.0
 10
10.3605503219
 20
4.8830291213
 30
0.0
 10
10.3444314997
 20
4.9026482003
 30
0.0
 10
10.3284126222
 20
4.9253194764
 30
0.0
 10
10.312510322
 20
4.9507780777
 30
0.0
 10
10.2967354816
 20
4.9787141634
 30
0.0
 10
10.2865642048
 20
4.9982820943
 30
0.0
 10
10.2814728684
 20
5.0084047011
 30
0.0
  0
SPLINE
  5
353
100
AcDbEntity
  8
0
100
AcDbSpline
 62
7
  6
CONTINUOUS
 70
0
 71
3
 72
31
 73
27
 74
0
 42
0.0000001
 43
0.0000001
 44
0.0000000001
 40
0.0
 40
0.0
 40
0.0
 40
0.0
 40
0.0201104016
 40
0.0419931253
 40
0.0656072003
 40
0.0908936522
 40
0.1177787527
 40
0.1461763236
 40
0.1759895375
 40
0.2071123442
 40
0.272819559
 40
0.3423111961
 40
0.4145124135
 40
0.4882911514
 40
0.5624827844
 40
0.635914227
 40
0.7074279597
 40
0.7759062888
 40
0.8086768056
 40
0.8403003265
 40
0.8706597743
 40
0.8996457003
 40
0.92715734
 40
0.95310401
 40
0.9774066601
 40
1.0
 40
1.0
 40
1.0
 40
1.0
 10
11.5718614271
 20
4.8350644071
 30
0.0
 10
11.5650531879
 20
4.8317012536
 30
0.0
 10
11.5506058044
 20
4.8251412994
 30
0.0
 10
11.52753762
 20
4.8160865523
 30
0.0
 10
11.5022408056
 20
4.8074350138
 30
0.0
 10
11.4748213559
 20
4.7992240509
 30
0.0
 10
11.445393241
 20
4.7914886562
 30
0.0
 10
11.4140800462
 20
4.7842621783
 30
0.0
 10
11.3810134691
 20
4.7775753511
 30
0.0
 10
11.3339164376
 20
4.7692679614
 30
0.0
 10
11.2717041008
 20
4.7605225846
 30
0.0
 10
11.1937611008
 20
4.7527313508
 30
0.0
 10
11.1125444393
 20
4.7476019796
 30
0.0
 10
11.0294266465
 20
4.7452237142
 30
0.0
 10
10.9458115678
 20
4.7456385703
 30
0.0
 10
10.8631118955
 20
4.7488390475
 30
0.0
 10
10.7827258127
 20
4.7547696425
 30
0.0
 10
10.7178742576
 20
4.7620003673
 30
0.0
 10
10.668208787
 20
4.7691365769
 30
0.0
 10
10.6329132282
 20
4.7750156328
 30
0.0
 10
10.5991727159
 20
4.7814741308
 30
0.0
 10
10.567129599
 20
4.7884845735
 30
0.0
 10
10.536919012
 20
4.7960167468
 30
0.0
 10
10.5086676073
 20
4.804038382
 30
0.0
 10
10.4824944812
 20
4.8125147719
 30
0.0
 10
10.4658846521
 20
4.8186741601
 30
0.0
 10
10.4579637153
 20
4.8218426657
 30
0.0
  0
SPLINE
  5
354
100
AcDbEntity
  8
0
100
AcDbSpline
 62
7
  6
CONTINUOUS
 70
0
 71
3
 72
9
 73
5
 74
0
 42
0.0000001
 43
0.0000001
 44
0.0000000001
 40
0.0
 40
0.0
 40
0.0
 40
0.0
 40
0.2614798612
 40
1.0
 40
1.0
 40
1.0
 40
1.0
 10
10.4579637153
 20
4.8218426657
 30
0.0
 10
10.4553231219
 20
4.8228989467
 30
0.0
 10
10.4452595239
 20
4.8270248277
 30
0.0
 10
10.4353395492
 20
4.8315072611
 30
0.0
 10
10.4281377062
 20
4.8350648455
 30
0.0
  0
SPLINE
  5
355
100
AcDbEntity
  8
0
100
AcDbSpline
 62
7
  6
CONTINUOUS
 70
0
 71
3
 72
11
 73
7
 74
0
 42
0.0000001
 43
0.0000001
 44
0.0000000001
 40
0.0
 40
0.0
 40
0.0
 40
0.0
 40
0.2630377367
 40
0.519570627
 40
0.7660966423
 40
1.0
 40
1.0
 40
1.0
 40
1.0
 10
10.6894755844
 20
6.8200676157
 30
0.0
 10
10.6931383343
 20
6.8090090622
 30
0.0
 10
10.6983063987
 20
6.7864066252
 30
0.0
 10
10.6990257705
 20
6.7522388257
 30
0.0
 10
10.6926073096
 20
6.7199701923
 30
0.0
 10
10.6836105503
 20
6.7004052722
 30
0.0
 10
10.6780742342
 20
6.6916497489
 30
0.0
  0
SPLINE
  5
356
100
AcDbEntity
  8
0
100
AcDbSpline
 62
7
  6
CONTINUOUS
 70
0
 71
3
 72
11
 73
7
 74
0
 42
0.0000001
 43
0.0000001
 44
0.0000000001
 40
0.0
 40
0.0
 40
0.0
 40
0.0
 40
0.2452586079
 40
0.4924719081
 40
0.7434961892
 40
1.0
 40
1.0
 40
1.0
 40
1.0
 10
10.6451897451
 20
6.6716302766
 30
0.0
 10
10.6475017134
 20
6.6722286744
 30
0.0
 10
10.6520747965
 20
6.6737183573
 30
0.0
 10
10.6586483775
 20
6.6767919999
 30
0.0
 10
10.664901434
 20
6.6806843836
 30
0.0
 10
10.668778838
 20
6.6837680316
 30
0.0
 10
10.6706468776
 20
6.6854259491
 30
0.0
  0
SPLINE
  5
357
100
AcDbEntity
  8
0
100
AcDbSpline
 62
7
  6
CONTINUOUS
 70
0
 71
3
 72
9
 73
5
 74
0
 42
0.0000001
 43
0.0000001
 44
0.0000000001
 40
0.0
 40
0.0
 40
0.0
 40
0.0
 40
0.2463671302
 40
1.0
 40
1.0
 40
1.0
 40
1.0
 10
10.6706468776
 20
6.6854259491
 30
0.0
 10
10.6713049168
 20
6.6860099703
 30
0.0
 10
10.6739306363
 20
6.6884311657
 30
0.0
 10
10.6763737859
 20
6.6910490452
 30
0.0
 10
10.6781061337
 20
6.693108774
 30
0.0
  0
SPLINE
  5
358
100
AcDbEntity
  8
0
100
AcDbSpline
 62
7
  6
CONTINUOUS
 70
0
 71
3
 72
18
 73
14
 74
0
 42
0.0000001
 43
0.0000001
 44
0.0000000001
 40
0.0
 40
0.0
 40
0.0
 40
0.0
 40
0.1229762632
 40
0.2464210916
 40
0.3083612261
 40
0.3704562793
 40
0.4327147904
 40
0.4951419211
 40
0.557738854
 40
0.6205026267
 40
0.7464805047
 40
0.8730146352
 40
1.0
 40
1.0
 40
1.0
 40
1.0
 10
11.1701570725
 20
4.7783965955
 30
0.0
 10
11.1425470426
 20
4.7727484511
 30
0.0
 10
11.0869266729
 20
4.7628060666
 30
0.0
 10
11.0166891337
 20
4.7545621214
 30
0.0
 10
10.9600828583
 20
4.750899979
 30
0.0
 10
10.9173971162
 20
4.7497120747
 30
0.0
 10
10.8745851937
 20
4.7501603101
 30
0.0
 10
10.8317084577
 20
4.7522893552
 30
0.0
 10
10.7888328284
 20
4.7561120037
 30
0.0
 10
10.7316912408
 20
4.7634440774
 30
0.0
 10
10.6605933512
 20
4.7766758727
 30
0.0
 10
10.5763005361
 20
4.7982869766
 30
0.0
 10
10.5209004484
 20
4.8158833304
 30
0.0
 10
10.493376362
 20
4.8253314972
 30
0.0
  0
SPLINE
  5
359
100
AcDbEntity
  8
0
100
AcDbSpline
 62
7
  6
CONTINUOUS
 70
0
 71
3
 72
9
 73
5
 74
0
 42
0.0000001
 43
0.0000001
 44
0.0000000001
 40
0.0
 40
0.0
 40
0.0
 40
0.0
 40
0.4931575152
 40
1.0
 40
1.0
 40
1.0
 40
1.0
 10
10.4628158521
 20
4.8332411292
 30
0.0
 10
10.4571411889
 20
4.8329213394
 30
0.0
 10
10.4455644769
 20
4.8331320268
 30
0.0
 10
10.4341761053
 20
4.835294373
 30
0.0
 10
10.4285524367
 20
4.8368742939
 30
0.0
  0
LINE
  5
35A
100
AcDbEntity
  8
0
100
AcDbLine
 62
7
  6
CONTINUOUS
 10
10.4285524367
 20
4.8368742939
 11
10.4280882072
 21
4.837005893
  0
SPLINE
  5
35B
100
AcDbEntity
  8
0
100
AcDbSpline
 62
7
  6
CONTINUOUS
 70
0
 71
3
 72
9
 73
5
 74
0
 42
0.0000001
 43
0.0000001
 44
0.0000000001
 40
0.0
 40
0.0
 40
0.0
 40
0.0
 40
0.490209403
 40
1.0
 40
1.0
 40
1.0
 40
1.0
 10
10.4280882072
 20
4.837005893
 30
0.0
 10
10.4250270911
 20
4.837881426
 30
0.0
 10
10.4188627854
 20
4.8399594142
 30
0.0
 10
10.4129126248
 20
4.8425870074
 30
0.0
 10
10.4099435392
 20
4.8440524525
 30
0.0
  0
SPLINE
  5
35C
100
AcDbEntity
  8
0
100
AcDbSpline
 62
7
  6
CONTINUOUS
 70
0
 71
3
 72
11
 73
7
 74
0
 42
0.0000001
 43
0.0000001
 44
0.0000000001
 40
0.0
 40
0.0
 40
0.0
 40
0.0
 40
0.2573657527
 40
0.5086387732
 40
0.7555046781
 40
1.0
 40
1.0
 40
1.0
 40
1.0
 10
10.6310317632
 20
9.2364205824
 30
0.0
 10
10.6335805505
 20
9.2357609085
 30
0.0
 10
10.6386957008
 20
9.2347360277
 30
0.0
 10
10.6464188306
 20
9.2341262321
 30
0.0
 10
10.6540272846
 20
9.2344718102
 30
0.0
 10
10.6589946941
 20
9.2353405557
 30
0.0
 10
10.6614254555
 20
9.2359295855
 30
0.0
  0
SPLINE
  5
35D
100
AcDbEntity
  8
0
100
AcDbSpline
 62
7
  6
CONTINUOUS
 70
0
 71
3
 72
23
 73
19
 74
0
 42
0.0000001
 43
0.0000001
 44
0.0000000001
 40
0.0
 40
0.0
 40
0.0
 40
0.0
 40
0.1765731874
 40
0.2613732762
 40
0.343308239
 40
0.4219980442
 40
0.4970862516
 40
0.5682432649
 40
0.6351710374
 40
0.697608459
 40
0.7553384193
 40
0.8081973982
 40
0.8560892937
 40
0.8990062946
 40
0.9370614829
 40
0.9543563943
 40
0.9705621894
 40
1.0
 40
1.0
 40
1.0
 40
1.0
 10
10.8514379907
 20
6.5070064098
 30
0.0
 10
10.8252946713
 20
6.5088194552
 30
0.0
 10
10.7866401698
 20
6.5122532178
 30
0.0
 10
10.7360614043
 20
6.51843652
 30
0.0
 10
10.7000147185
 20
6.5236966229
 30
0.0
 10
10.6655313629
 20
6.5296132239
 30
0.0
 10
10.6327902414
 20
6.5361552079
 30
0.0
 10
10.6019611871
 20
6.5432878351
 30
0.0
 10
10.5732035389
 20
6.5509732939
 30
0.0
 10
10.5466652367
 20
6.5591708636
 30
0.0
 10
10.5224815632
 20
6.5678373406
 30
0.0
 10
10.5007744531
 20
6.576927447
 30
0.0
 10
10.4816495861
 20
6.5863953865
 30
0.0
 10
10.4652001883
 20
6.5961951178
 30
0.0
 10
10.4534287371
 20
6.6048622364
 30
0.0
 10
10.4455218524
 20
6.6119662419
 30
0.0
 10
10.4390399466
 20
6.6186961453
 30
0.0
 10
10.4349218279
 20
6.6241397124
 30
0.0
 10
10.4326877897
 20
6.6278943559
 30
0.0
  0
SPLINE
  5
35E
100
AcDbEntity
  8
0
100
AcDbSpline
 62
7
  6
CONTINUOUS
 70
0
 71
3
 72
17
 73
13
 74
0
 42
0.0000001
 43
0.0000001
 44
0.0000000001
 40
0.0
 40
0.0
 40
0.0
 40
0.0
 40
0.1447923804
 40
0.2868954728
 40
0.4247187597
 40
0.5567361535
 40
0.6815110473
 40
0.7977245795
 40
0.8522527699
 40
0.9042163059
 40
0.9534990522
 40
1.0
 40
1.0
 40
1.0
 40
1.0
 10
10.952936744
 20
6.4788752447
 30
0.0
 10
10.9287500453
 20
6.4793195065
 30
0.0
 10
10.8808353617
 20
6.4808798014
 30
0.0
 10
10.8100019278
 20
6.4852605497
 30
0.0
 10
10.7414598895
 20
6.491614416
 30
0.0
 10
10.6760351126
 20
6.4998620348
 30
0.0
 10
10.6145155071
 20
6.5099014727
 30
0.0
 10
10.5661376011
 20
6.519854751
 30
0.0
 10
10.5299920254
 20
6.5286972752
 30
0.0
 10
10.5048822798
 20
6.5355540705
 30
0.0
 10
10.4812678305
 20
6.5427554478
 30
0.0
 10
10.4661189259
 20
6.5479251512
 30
0.0
 10
10.4588156282
 20
6.5505745722
 30
0.0
  0
SPLINE
  5
35F
100
AcDbEntity
  8
0
100
AcDbSpline
 62
7
  6
CONTINUOUS
 70
0
 71
3
 72
16
 73
12
 74
0
 42
0.0000001
 43
0.0000001
 44
0.0000000001
 40
0.0
 40
0.0
 40
0.0
 40
0.0
 40
0.1430807459
 40
0.2837327659
 40
0.4204975382
 40
0.5519703653
 40
0.6768218884
 40
0.7938208388
 40
0.9018604705
 40
0.9522209378
 40
1.0
 40
1.0
 40
1.0
 40
1.0
 10
10.955490079
 20
6.4660863193
 30
0.0
 10
10.9318347899
 20
6.4664907778
 30
0.0
 10
10.8849339876
 20
6.4679333131
 30
0.0
 10
10.8155147869
 20
6.4720187653
 30
0.0
 10
10.7481556979
 20
6.4779681263
 30
0.0
 10
10.6836090546
 20
6.4857131718
 30
0.0
 10
10.6225930406
 20
6.4951644359
 30
0.0
 10
10.5657873736
 20
6.5062137584
 30
0.0
 10
10.5214954005
 20
6.5168804642
 30
0.0
 10
10.4886982067
 20
6.5262014421
 30
0.0
 10
10.4732229857
 20
6.5310959848
 30
0.0
 10
10.4657316222
 20
6.5336050739
 30
0.0
  0
SPLINE
  5
360
100
AcDbEntity
  8
0
100
AcDbSpline
 62
7
  6
CONTINUOUS
 70
0
 71
3
 72
15
 73
11
 74
0
 42
0.0000001
 43
0.0000001
 44
0.0000000001
 40
0.0
 40
0.0
 40
0.0
 40
0.0
 40
0.1040838177
 40
0.2101099969
 40
0.3212916297
 40
0.4399763975
 40
0.5674221517
 40
0.7038301177
 40
0.8484898989
 40
1.0
 40
1.0
 40
1.0
 40
1.0
 10
10.687243155
 20
6.7332538295
 30
0.0
 10
10.6856540001
 20
6.7328426425
 30
0.0
 10
10.6825304522
 20
6.7316337506
 30
0.0
 10
10.6783210296
 20
6.7287403341
 30
0.0
 10
10.6746686282
 20
6.7248535525
 30
0.0
 10
10.671627787
 20
6.7200761233
 30
0.0
 10
10.6692307489
 20
6.7145161189
 30
0.0
 10
10.6675028154
 20
6.7082916786
 30
0.0
 10
10.666462547
 20
6.7015357433
 30
0.0
 10
10.6662397915
 20
6.6968609382
 30
0.0
 10
10.6662397915
 20
6.6944714962
 30
0.0
  0
SPLINE
  5
361
100
AcDbEntity
  8
0
100
AcDbSpline
 62
7
  6
CONTINUOUS
 70
0
 71
3
 72
15
 73
11
 74
0
 42
0.0000001
 43
0.0000001
 44
0.0000000001
 40
0.0
 40
0.0
 40
0.0
 40
0.0
 40
0.1324034518
 40
0.2621856194
 40
0.3894618203
 40
0.5144970829
 40
0.637665019
 40
0.7593826005
 40
0.8800478448
 40
1.0
 40
1.0
 40
1.0
 40
1.0
 10
11.5715441863
 20
4.8356696145
 30
0.0
 10
11.5566919285
 20
4.8290542381
 30
0.0
 10
11.5268879272
 20
4.8168113408
 30
0.0
 10
11.4815089367
 20
4.8015950471
 30
0.0
 10
11.4360278961
 20
4.7898900868
 30
0.0
 10
11.3906020153
 20
4.7817409451
 30
0.0
 10
11.3453801577
 20
4.7770399682
 30
0.0
 10
11.3004810635
 20
4.77555241
 30
0.0
 10
11.2559822324
 20
4.7769612116
 30
0.0
 10
11.2265363765
 20
4.7796036577
 30
0.0
 10
11.2119034936
 20
4.7812917248
 30
0.0
  0
SPLINE
  5
362
100
AcDbEntity
  8
0
100
AcDbSpline
 62
7
  6
CONTINUOUS
 70
0
 71
3
 72
23
 73
19
 74
0
 42
0.0000001
 43
0.0000001
 44
0.0000000001
 40
0.0
 40
0.0
 40
0.0
 40
0.0
 40
0.0511624277
 40
0.1041682659
 40
0.1596173563
 40
0.2178200074
 40
0.2788133283
 40
0.3424050214
 40
0.4082290594
 40
0.4757900167
 40
0.5444968892
 40
0.6136876266
 40
0.6826541873
 40
0.750669232
 40
0.8170202966
 40
0.8810471692
 40
0.9421836519
 40
1.0
 40
1.0
 40
1.0
 40
1.0
 10
10.5941207974
 20
6.6511623915
 30
0.0
 10
10.5899306445
 20
6.6522468815
 30
0.0
 10
10.5816022125
 20
6.6553198846
 30
0.0
 10
10.5699601256
 20
6.6622908186
 30
0.0
 10
10.5591856789
 20
6.6714737874
 30
0.0
 10
10.5494159422
 20
6.6826159692
 30
0.0
 10
10.5407269573
 20
6.6954487721
 30
0.0
 10
10.5331600711
 20
6.7096989152
 30
0.0
 10
10.5267308342
 20
6.7250949316
 30
0.0
 10
10.5214395405
 20
6.7413695764
 30
0.0
 10
10.5172783002
 20
6.7582598382
 30
0.0
 10
10.5142363892
 20
6.7755061657
 30
0.0
 10
10.5123037333
 20
6.7928519982
 30
0.0
 10
10.5114730753
 20
6.8100448637
 30
0.0
 10
10.5117410416
 20
6.8268383647
 30
0.0
 10
10.5131091019
 20
6.8429965023
 30
0.0
 10
10.5155827302
 20
6.858292809
 30
0.0
 10
10.5180502347
 20
6.8680674512
 30
0.0
 10
10.5194960289
 20
6.87274001
 30
0.0
  0
SPLINE
  5
363
100
AcDbEntity
  8
0
100
AcDbSpline
 62
7
  6
CONTINUOUS
 70
0
 71
3
 72
11
 73
7
 74
0
 42
0.0000001
 43
0.0000001
 44
0.0000000001
 40
0.0
 40
0.0
 40
0.0
 40
0.0
 40
0.2370894337
 40
0.4846765062
 40
0.7399548746
 40
1.0
 40
1.0
 40
1.0
 40
1.0
 10
10.6701220473
 20
6.3094793193
 30
0.0
 10
10.6925606422
 20
6.3062274699
 30
0.0
 10
10.7385600948
 20
6.3004467697
 30
0.0
 10
10.8090363122
 20
6.2939646112
 30
0.0
 10
10.88187008
 20
6.289534479
 30
0.0
 10
10.9311348871
 20
6.2879948034
 30
0.0
 10
10.9559996054
 20
6.2875745543
 30
0.0
  0
SPLINE
  5
364
100
AcDbEntity
  8
0
100
AcDbSpline
 62
7
  6
CONTINUOUS
 70
0
 71
3
 72
14
 73
10
 74
0
 42
0.0000001
 43
0.0000001
 44
0.0000000001
 40
0.0
 40
0.0
 40
0.0
 40
0.0
 40
0.1124611608
 40
0.2274441649
 40
0.3457458295
 40
0.4679805481
 40
0.5945083083
 40
0.7254646216
 40
1.0
 40
1.0
 40
1.0
 40
1.0
 10
10.6112327777
 20
9.2156812579
 30
0.0
 10
10.608260504
 20
9.216450538
 30
0.0
 10
10.602353214
 20
9.2184396042
 30
0.0
 10
10.5938772497
 20
9.2226520517
 30
0.0
 10
10.5857864668
 20
9.2280579098
 30
0.0
 10
10.5781482449
 20
9.2345763921
 30
0.0
 10
10.5710100895
 20
9.2421188327
 30
0.0
 10
10.5620699315
 20
9.2535862215
 30
0.0
 10
10.5564219207
 20
9.2631757631
 30
0.0
 10
10.5530549366
 20
9.2698717696
 30
0.0
  0
SPLINE
  5
365
100
AcDbEntity
  8
0
100
AcDbSpline
 62
7
  6
CONTINUOUS
 70
0
 71
3
 72
11
 73
7
 74
0
 42
0.0000001
 43
0.0000001
 44
0.0000000001
 40
0.0
 40
0.0
 40
0.0
 40
0.0
 40
0.2574495602
 40
0.5086633627
 40
0.7554567569
 40
1.0
 40
1.0
 40
1.0
 40
1.0
 10
10.6139197828
 20
6.671901716
 30
0.0
 10
10.6165442977
 20
6.6712224424
 30
0.0
 10
10.6218125588
 20
6.6701759045
 30
0.0
 10
10.6297666118
 20
6.6695913789
 30
0.0
 10
10.6375952831
 20
6.6700213158
 30
0.0
 10
10.6426968054
 20
6.6709850385
 30
0.0
 10
10.6451897451
 20
6.6716302766
 30
0.0
  0
SPLINE
  5
366
100
AcDbEntity
  8
0
100
AcDbSpline
 62
7
  6
CONTINUOUS
 70
0
 71
3
 72
9
 73
5
 74
0
 42
0.0000001
 43
0.0000001
 44
0.0000000001
 40
0.0
 40
0.0
 40
0.0
 40
0.0
 40
0.5118488083
 40
1.0
 40
1.0
 40
1.0
 40
1.0
 10
10.6780742342
 20
6.6916497489
 30
0.0
 10
10.6744843308
 20
6.6859724209
 30
0.0
 10
10.6664926364
 20
6.6754607346
 30
0.0
 10
10.6566006503
 20
6.666674926
 30
0.0
 10
10.6513693853
 20
6.6629773387
 30
0.0
  0
SPLINE
  5
367
100
AcDbEntity
  8
0
100
AcDbSpline
 62
7
  6
CONTINUOUS
 70
0
 71
3
 72
13
 73
9
 74
0
 42
0.0000001
 43
0.0000001
 44
0.0000000001
 40
0.0
 40
0.0
 40
0.0
 40
0.0
 40
0.2589481996
 40
0.5091749342
 40
0.6322471305
 40
0.7546020979
 40
0.8769552733
 40
1.0
 40
1.0
 40
1.0
 40
1.0
 10
10.6513693853
 20
6.6629773387
 30
0.0
 10
10.6471178758
 20
6.6599722667
 30
0.0
 10
10.6381965712
 20
6.6548039809
 30
0.0
 10
10.6260305829
 20
6.6507745504
 30
0.0
 10
10.616160903
 20
6.6492657737
 30
0.0
 10
10.6087543732
 20
6.6489903004
 30
0.0
 10
10.6013678873
 20
6.6495785904
 30
0.0
 10
10.5965157756
 20
6.6505425263
 30
0.0
 10
10.5941207974
 20
6.6511623915
 30
0.0
  0
SPLINE
  5
368
100
AcDbEntity
  8
0
100
AcDbSpline
 62
7
  6
CONTINUOUS
 70
0
 71
3
 72
21
 73
17
 74
0
 42
0.0000001
 43
0.0000001
 44
0.0000000001
 40
0.0
 40
0.0
 40
0.0
 40
0.0
 40
0.1192052075
 40
0.1826757174
 40
0.2481796982
 40
0.3152327724
 40
0.3832833357
 40
0.5198531888
 40
0.5872955301
 40
0.6533630297
 40
0.7175462481
 40
0.7794217438
 40
0.8386799874
 40
0.8951564108
 40
0.9488587555
 40
1.0
 40
1.0
 40
1.0
 40
1.0
 10
10.5364900819
 20
6.8703187375
 30
0.0
 10
10.5326702228
 20
6.8617632142
 30
0.0
 10
10.5285432728
 20
6.8478339369
 30
0.0
 10
10.5259626165
 20
6.8284832688
 30
0.0
 10
10.5254431378
 20
6.8130567527
 30
0.0
 10
10.5263930907
 20
6.7972950435
 30
0.0
 10
10.5295967326
 20
6.7761616579
 30
0.0
 10
10.5355952642
 20
6.7554959795
 30
0.0
 10
10.5441929911
 20
6.7360624061
 30
0.0
 10
10.5517767178
 20
6.7224719339
 30
0.0
 10
10.5603937559
 20
6.7100403576
 30
0.0
 10
10.5699050813
 20
6.6989711464
 30
0.0
 10
10.5801565991
 20
6.6894482894
 30
0.0
 10
10.5909856085
 20
6.681631123
 30
0.0
 10
10.6022147803
 20
6.6756549093
 30
0.0
 10
10.6100283029
 20
6.6729089039
 30
0.0
 10
10.6139197828
 20
6.671901716
 30
0.0
  0
SPLINE
  5
369
100
AcDbEntity
  8
0
100
AcDbSpline
 62
7
  6
CONTINUOUS
 70
0
 71
3
 72
13
 73
9
 74
0
 42
0.0000001
 43
0.0000001
 44
0.0000000001
 40
0.0
 40
0.0
 40
0.0
 40
0.0
 40
0.2608622545
 40
0.5116065247
 40
0.6344267567
 40
0.7562291524
 40
0.877813845
 40
1.0
 40
1.0
 40
1.0
 40
1.0
 10
10.6725990177
 20
9.2306708017
 30
0.0
 10
10.6681493084
 20
9.2271198369
 30
0.0
 10
10.6587379878
 20
9.220953745
 30
0.0
 10
10.645683147
 20
9.2159723222
 30
0.0
 10
10.6350335491
 20
9.2139801125
 30
0.0
 10
10.6270354054
 20
9.2134847936
 30
0.0
 10
10.6190536066
 20
9.2139993131
 30
0.0
 10
10.6138142397
 20
9.2150131272
 30
0.0
 10
10.6112327777
 20
9.2156812579
 30
0.0
  0
SPLINE
  5
36A
100
AcDbEntity
  8
0
100
AcDbSpline
 62
7
  6
CONTINUOUS
 70
0
 71
3
 72
11
 73
7
 74
0
 42
0.0000001
 43
0.0000001
 44
0.0000000001
 40
0.0
 40
0.0
 40
0.0
 40
0.0
 40
0.2677556359
 40
0.5234505347
 40
0.7672202272
 40
1.0
 40
1.0
 40
1.0
 40
1.0
 10
10.5894609922
 20
9.261393173
 30
0.0
 10
10.5925726738
 20
9.258317732
 30
0.0
 10
10.5989823426
 20
9.2526225365
 30
0.0
 10
10.6092997713
 20
9.245446081
 30
0.0
 10
10.6199585115
 20
9.2399333607
 30
0.0
 10
10.6273495561
 20
9.2373736065
 30
0.0
 10
10.6310317632
 20
9.2364205824
 30
0.0
  0
SPLINE
  5
36B
100
AcDbEntity
  8
0
100
AcDbSpline
 62
7
  6
CONTINUOUS
 70
0
 71
3
 72
14
 73
10
 74
0
 42
0.0000001
 43
0.0000001
 44
0.0000000001
 40
0.0
 40
0.0
 40
0.0
 40
0.0
 40
0.2843543643
 40
0.4198852552
 40
0.5498740516
 40
0.6735520822
 40
0.7902103913
 40
0.899210816
 40
1.0
 40
1.0
 40
1.0
 40
1.0
 10
10.8577014064
 20
8.8347558588
 30
0.0
 10
10.8293740709
 20
8.8367203662
 30
0.0
 10
10.7875973622
 20
8.8405359674
 30
0.0
 10
10.7331404269
 20
8.8476114899
 30
0.0
 10
10.6947441193
 20
8.853664024
 30
0.0
 10
10.6583960261
 20
8.8605047346
 30
0.0
 10
10.624338031
 20
8.8680871701
 30
0.0
 10
10.5927979628
 20
8.8763589288
 30
0.0
 10
10.5727734464
 20
8.882546857
 30
0.0
 10
10.5632400957
 20
8.8857738948
 30
0.0
  0
LINE
  5
36C
100
AcDbEntity
  8
0
100
AcDbLine
 62
7
  6
CONTINUOUS
 10
10.7934739374
 20
8.746893101
 11
10.7915656355
 21
8.7470669156
  0
SPLINE
  5
36D
100
AcDbEntity
  8
0
100
AcDbSpline
 62
7
  6
CONTINUOUS
 70
0
 71
3
 72
39
 73
35
 74
0
 42
0.0000001
 43
0.0000001
 44
0.0000000001
 40
0.0
 40
0.0
 40
0.0
 40
0.0
 40
0.0311450333
 40
0.0624431288
 40
0.0938883325
 40
0.1254709893
 40
0.1571788812
 40
0.1889972568
 40
0.2209091708
 40
0.2528958386
 40
0.2849370172
 40
0.3170114072
 40
0.3490970669
 40
0.3811718372
 40
0.413213769
 40
0.4452015481
 40
0.4771149106
 40
0.5089350428
 40
0.5406449654
 40
0.5722298856
 40
0.6036775156
 40
0.6349783564
 40
0.6661259294
 40
0.6971169509
 40
0.7279514545
 40
0.7586328388
 40
0.7891678409
 40
0.8195664412
 40
0.8498416838
 40
0.8800094165
 40
0.9100879631
 40
0.9400977203
 40
0.9700606956
 40
1.0
 40
1.0
 40
1.0
 40
1.0
 10
10.482362337
 20
9.4717461878
 30
0.0
 10
10.4988732417
 20
9.4706011526
 30
0.0
 10
10.5319046673
 20
9.4670969171
 30
0.0
 10
10.5810513303
 20
9.45826967
 30
0.0
 10
10.6296715928
 20
9.4459053626
 30
0.0
 10
10.6775028533
 20
9.4300704256
 30
0.0
 10
10.7242910198
 20
9.4108497696
 30
0.0
 10
10.7697865123
 20
9.3883462373
 30
0.0
 10
10.8137469376
 20
9.3626800126
 30
0.0
 10
10.8559380735
 20
9.3339881893
 30
0.0
 10
10.8961351428
 20
9.3024238801
 30
0.0
 10
10.9341239111
 20
9.2681553713
 30
0.0
 10
10.9697019647
 20
9.2313654041
 30
0.0
 10
11.0026796959
 20
9.192250089
 30
0.0
 10
11.0328812244
 20
9.1510178277
 30
0.0
 10
11.060145496
 20
9.1078883543
 30
0.0
 10
11.0843270543
 20
9.0630914914
 30
0.0
 10
11.1052967067
 20
9.0168658992
 30
0.0
 10
11.1229423965
 20
8.9694579225
 30
0.0
 10
11.137169736
 20
8.9211202386
 30
0.0
 10
11.1479023789
 20
8.8721105003
 30
0.0
 10
11.1550826307
 20
8.8226900443
 30
0.0
 10
11.1586717246
 20
8.7731224805
 30
0.0
 10
11.1586498866
 20
8.7236722975
 30
0.0
 10
11.1550166548
 20
8.6746034909
 30
0.0
 10
11.147790893
 20
8.6261781369
 30
0.0
 10
11.1370105435
 20
8.5786550276
 30
0.0
 10
11.1227326305
 20
8.5322882686
 30
0.0
 10
11.1050330255
 20
8.4873259019
 30
0.0
 10
11.0840057988
 20
8.4440085454
 30
0.0
 10
11.0597632223
 20
8.4025683503
 30
0.0
 10
11.0324340298
 20
8.3632265161
 30
0.0
 10
11.0021670014
 20
8.3261964909
 30
0.0
 10
10.9801285848
 20
8.3031735874
 30
0.0
 10
10.9686853695
 20
8.292120279
 30
0.0
  0
SPLINE
  5
36E
100
AcDbEntity
  8
0
100
AcDbSpline
 62
7
  6
CONTINUOUS
 70
0
 71
3
 72
39
 73
35
 74
0
 42
0.0000001
 43
0.0000001
 44
0.0000000001
 40
0.0
 40
0.0
 40
0.0
 40
0.0
 40
0.0311450333
 40
0.0624431288
 40
0.0938883325
 40
0.1254709893
 40
0.1571788812
 40
0.1889972568
 40
0.2209091708
 40
0.2528958386
 40
0.2849370172
 40
0.3170114072
 40
0.3490970669
 40
0.3811718372
 40
0.413213769
 40
0.4452015481
 40
0.4771149106
 40
0.5089350428
 40
0.5406449654
 40
0.5722298856
 40
0.6036775156
 40
0.6349783564
 40
0.6661259294
 40
0.6971169509
 40
0.7279514545
 40
0.7586328388
 40
0.7891678409
 40
0.8195664412
 40
0.8498416838
 40
0.8800094165
 40
0.9100879631
 40
0.9400977203
 40
0.9700606956
 40
1.0
 40
1.0
 40
1.0
 40
1.0
 10
10.482362337
 20
7.0692953553
 30
0.0
 10
10.4988732417
 20
7.0681503202
 30
0.0
 10
10.5319046673
 20
7.0646460847
 30
0.0
 10
10.5810513303
 20
7.0558188376
 30
0.0
 10
10.6296715928
 20
7.0434545302
 30
0.0
 10
10.6775028533
 20
7.0276195932
 30
0.0
 10
10.7242910198
 20
7.0083989372
 30
0.0
 10
10.7697865123
 20
6.9858954049
 30
0.0
 10
10.8137469376
 20
6.9602291802
 30
0.0
 10
10.8559380735
 20
6.9315373569
 30
0.0
 10
10.8961351428
 20
6.8999730477
 30
0.0
 10
10.9341239111
 20
6.8657045388
 30
0.0
 10
10.9697019647
 20
6.8289145717
 30
0.0
 10
11.0026796959
 20
6.7897992566
 30
0.0
 10
11.0328812244
 20
6.7485669953
 30
0.0
 10
11.060145496
 20
6.7054375219
 30
0.0
 10
11.0843270543
 20
6.6606406589
 30
0.0
 10
11.1052967067
 20
6.6144150667
 30
0.0
 10
11.1229423965
 20
6.56700709
 30
0.0
 10
11.137169736
 20
6.5186694062
 30
0.0
 10
11.1479023789
 20
6.4696596679
 30
0.0
 10
11.1550826307
 20
6.4202392119
 30
0.0
 10
11.1586717246
 20
6.3706716481
 30
0.0
 10
11.1586498866
 20
6.3212214651
 30
0.0
 10
11.1550166548
 20
6.2721526585
 30
0.0
 10
11.147790893
 20
6.2237273045
 30
0.0
 10
11.1370105435
 20
6.1762041951
 30
0.0
 10
11.1227326305
 20
6.1298374362
 30
0.0
 10
11.1050330255
 20
6.0848750695
 30
0.0
 10
11.0840057988
 20
6.0415577129
 30
0.0
 10
11.0597632223
 20
6.0001175178
 30
0.0
 10
11.0324340298
 20
5.9607756836
 30
0.0
 10
11.0021670014
 20
5.9237456584
 30
0.0
 10
10.9801285848
 20
5.9007227549
 30
0.0
 10
10.9686853695
 20
5.8896694466
 30
0.0
  0
SPLINE
  5
36F
100
AcDbEntity
  8
0
100
AcDbSpline
 62
7
  6
CONTINUOUS
 70
0
 71
3
 72
36
 73
32
 74
0
 42
0.0000001
 43
0.0000001
 44
0.0000000001
 40
0.0
 40
0.0
 40
0.0
 40
0.0
 40
0.084039477
 40
0.1695103585
 40
0.2553560057
 40
0.340511238
 40
0.4239223757
 40
0.5045636384
 40
0.5435382671
 40
0.5814572504
 40
0.6182079766
 40
0.6536829341
 40
0.6877805404
 40
0.7204057561
 40
0.7514708524
 40
0.7808965051
 40
0.808613118
 40
0.8345621594
 40
0.858698135
 40
0.8809915133
 40
0.9014325509
 40
0.9200366324
 40
0.9368523647
 40
0.9519735562
 40
0.9589483805
 40
0.9655643882
 40
0.9778450686
 40
0.983606525
 40
0.9891794977
 40
0.9946228116
 40
1.0
 40
1.0
 40
1.0
 40
1.0
 10
12.4777688056
 20
9.9209741863
 30
0.0
 10
12.4777688056
 20
9.9273091334
 30
0.0
 10
12.4779676015
 20
9.9400876593
 30
0.0
 10
12.478830286
 20
9.9593197381
 30
0.0
 10
12.4802500634
 20
9.9786032173
 30
0.0
 10
12.4822081116
 20
9.9976834721
 30
0.0
 10
12.484678436
 20
10.016308552
 30
0.0
 10
12.4871635626
 20
10.0314127775
 30
0.0
 10
12.4893923062
 20
10.043077363
 30
0.0
 10
12.4911505538
 20
10.051462075
 30
0.0
 10
12.4930085235
 20
10.0595548327
 30
0.0
 10
12.4949600743
 20
10.0673289286
 30
0.0
 10
12.4969986818
 20
10.0747587177
 30
0.0
 10
12.4991175478
 20
10.0818197241
 30
0.0
 10
12.5013096139
 20
10.088488714
 30
0.0
 10
12.5035675809
 20
10.0947438006
 30
0.0
 10
12.5058839169
 20
10.1005645434
 30
0.0
 10
12.5082509327
 20
10.1059320237
 30
0.0
 10
12.5106608353
 20
10.1108289255
 30
0.0
 10
12.5131057986
 20
10.1152396842
 30
0.0
 10
12.5155780341
 20
10.1191505163
 30
0.0
 10
12.5180702411
 20
10.1225497152
 30
0.0
 10
12.520575324
 20
10.1254268306
 30
0.0
 10
12.5227241464
 20
10.1274341084
 30
0.0
 10
12.5244453097
 20
10.1287493266
 30
0.0
 10
12.5260766563
 20
10.1298197212
 30
0.0
 10
12.5277491361
 20
10.1306568759
 30
0.0
 10
12.5294432302
 20
10.131212115
 30
0.0
 10
12.530681837
 20
10.1314799173
 30
0.0
 10
12.531913502
 20
10.1316070764
 30
0.0
 10
12.5327312371
 20
10.1315977254
 30
0.0
 10
12.5331356018
 20
10.1315696843
 30
0.0
  0
SPLINE
  5
370
100
AcDbEntity
  8
0
100
AcDbSpline
 62
7
  6
CONTINUOUS
 70
0
 71
3
 72
36
 73
32
 74
0
 42
0.0000001
 43
0.0000001
 44
0.0000000001
 40
0.0
 40
0.0
 40
0.0
 40
0.0
 40
0.084039477
 40
0.1695103585
 40
0.2553560057
 40
0.340511238
 40
0.4239223757
 40
0.5045636384
 40
0.5435382671
 40
0.5814572504
 40
0.6182079766
 40
0.6536829341
 40
0.6877805404
 40
0.7204057561
 40
0.7514708524
 40
0.7808965051
 40
0.808613118
 40
0.8345621594
 40
0.858698135
 40
0.8809915133
 40
0.9014325509
 40
0.9200366324
 40
0.9368523647
 40
0.9519735562
 40
0.9589483805
 40
0.9655643882
 40
0.9778450686
 40
0.983606525
 40
0.9891794977
 40
0.9946228116
 40
1.0
 40
1.0
 40
1.0
 40
1.0
 10
12.4777688056
 20
6.8300115433
 30
0.0
 10
12.4777688056
 20
6.8363464904
 30
0.0
 10
12.4779676015
 20
6.8491250163
 30
0.0
 10
12.478830286
 20
6.8683570951
 30
0.0
 10
12.4802500634
 20
6.8876405743
 30
0.0
 10
12.4822081116
 20
6.9067208291
 30
0.0
 10
12.484678436
 20
6.9253459089
 30
0.0
 10
12.4871635626
 20
6.9404501345
 30
0.0
 10
12.4893923062
 20
6.9521147199
 30
0.0
 10
12.4911505538
 20
6.960499432
 30
0.0
 10
12.4930085235
 20
6.9685921896
 30
0.0
 10
12.4949600743
 20
6.9763662855
 30
0.0
 10
12.4969986818
 20
6.9837960746
 30
0.0
 10
12.4991175478
 20
6.990857081
 30
0.0
 10
12.5013096139
 20
6.997526071
 30
0.0
 10
12.5035675809
 20
7.0037811575
 30
0.0
 10
12.5058839169
 20
7.0096019004
 30
0.0
 10
12.5082509327
 20
7.0149693807
 30
0.0
 10
12.5106608353
 20
7.0198662825
 30
0.0
 10
12.5131057986
 20
7.0242770411
 30
0.0
 10
12.5155780341
 20
7.0281878732
 30
0.0
 10
12.5180702411
 20
7.0315870722
 30
0.0
 10
12.520575324
 20
7.0344641875
 30
0.0
 10
12.5227241464
 20
7.0364714654
 30
0.0
 10
12.5244453097
 20
7.0377866835
 30
0.0
 10
12.5260766563
 20
7.0388570782
 30
0.0
 10
12.5277491361
 20
7.0396942329
 30
0.0
 10
12.5294432302
 20
7.040249472
 30
0.0
 10
12.530681837
 20
7.0405172743
 30
0.0
 10
12.531913502
 20
7.0406444334
 30
0.0
 10
12.5327312371
 20
7.0406350823
 30
0.0
 10
12.5331356018
 20
7.0406070413
 30
0.0
  0
SPLINE
  5
371
100
AcDbEntity
  8
0
100
AcDbSpline
 62
7
  6
CONTINUOUS
 70
0
 71
3
 72
37
 73
33
 74
0
 42
0.0000001
 43
0.0000001
 44
0.0000000001
 40
0.0
 40
0.0
 40
0.0
 40
0.0
 40
0.0313390487
 40
0.0625418909
 40
0.0936160254
 40
0.1245738514
 40
0.1554325566
 40
0.1862134262
 40
0.2169410421
 40
0.2476423594
 40
0.2783458286
 40
0.3090804454
 40
0.3398749206
 40
0.3707568616
 40
0.4017520216
 40
0.4328835298
 40
0.4641710518
 40
0.4956299093
 40
0.527269969
 40
0.5590942685
 40
0.6232477316
 40
0.6555508799
 40
0.6879494942
 40
0.7203878796
 40
0.7527952235
 40
0.7850867325
 40
0.8171667443
 40
0.8489338791
 40
0.8802878643
 40
0.9111373257
 40
0.9414071082
 40
1.0
 40
1.0
 40
1.0
 40
1.0
 10
10.8218291164
 20
8.7370888277
 30
0.0
 10
10.8143172916
 20
8.7376097745
 30
0.0
 10
10.7993562971
 20
8.739155498
 30
0.0
 10
10.7771747694
 20
8.7429858352
 30
0.0
 10
10.7553936971
 20
8.7482966291
 30
0.0
 10
10.734102984
 20
8.7550494858
 30
0.0
 10
10.7133817019
 20
8.7631960699
 30
0.0
 10
10.6932992044
 20
8.7726801341
 30
0.0
 10
10.6739142098
 20
8.7834397935
 30
0.0
 10
10.6552751728
 20
8.7954097214
 30
0.0
 10
10.6374209552
 20
8.8085231208
 30
0.0
 10
10.6203818903
 20
8.8227133574
 30
0.0
 10
10.6041810743
 20
8.8379151938
 30
0.0
 10
10.5888357506
 20
8.8540656047
 30
0.0
 10
10.5743587174
 20
8.8711041988
 30
0.0
 10
10.5607596896
 20
8.8889732185
 30
0.0
 10
10.548046525
 20
8.9076173025
 30
0.0
 10
10.5362265183
 20
8.9269825188
 30
0.0
 10
10.5253068968
 20
8.947016535
 30
0.0
 10
10.5119269723
 20
8.9746159763
 30
0.0
 10
10.5004298914
 20
9.0032687413
 30
0.0
 10
10.4908428894
 20
9.0327148004
 30
0.0
 10
10.4846015149
 20
9.0552132026
 30
0.0
 10
10.4793467632
 20
9.0779871467
 30
0.0
 10
10.4750987091
 20
9.1009442172
 30
0.0
 10
10.471877085
 20
9.123980787
 30
0.0
 10
10.469699054
 20
9.1469850011
 30
0.0
 10
10.4685776276
 20
9.1698396942
 30
0.0
 10
10.4685200599
 20
9.1924261048
 30
0.0
 10
10.4695274388
 20
9.2146317686
 30
0.0
 10
10.4722519974
 20
9.2432728137
 30
0.0
 10
10.4758950325
 20
9.2643650772
 30
0.0
 10
10.4790738547
 20
9.2780796741
 30
0.0
  0
SPLINE
  5
372
100
AcDbEntity
  8
0
100
AcDbSpline
 62
7
  6
CONTINUOUS
 70
0
 71
3
 72
38
 73
34
 74
0
 42
0.0000001
 43
0.0000001
 44
0.0000000001
 40
0.0
 40
0.0
 40
0.0
 40
0.0
 40
0.0313937109
 40
0.0626299432
 40
0.0937142126
 40
0.1246572247
 40
0.1554751601
 40
0.186188803
 40
0.2168228325
 40
0.247404843
 40
0.2779643949
 40
0.3085320933
 40
0.3391387954
 40
0.3698148207
 40
0.400589257
 40
0.4314893071
 40
0.4625395771
 40
0.4937612615
 40
0.5251712061
 40
0.556780736
 40
0.6205910593
 40
0.652786871
 40
0.6851366633
 40
0.7175952636
 40
0.7500998434
 40
0.782569318
 40
0.8149056717
 40
0.8469979996
 40
0.8787292325
 40
0.9099851576
 40
0.9406642693
 40
0.9706865826
 40
1.0
 40
1.0
 40
1.0
 40
1.0
 10
10.8118904733
 20
6.2705984198
 30
0.0
 10
10.8034863611
 20
6.271181247
 30
0.0
 10
10.7867535949
 20
6.2729052342
 30
0.0
 10
10.7619514564
 20
6.2771686446
 30
0.0
 10
10.7376112955
 20
6.2830729322
 30
0.0
 10
10.7138331865
 20
6.2905740678
 30
0.0
 10
10.6907046163
 20
6.2996165938
 30
0.0
 10
10.6683015817
 20
6.3101361337
 30
0.0
 10
10.6466875853
 20
6.3220620439
 30
0.0
 10
10.625914079
 20
6.3353200425
 30
0.0
 10
10.6060212656
 20
6.3498345262
 30
0.0
 10
10.5870393401
 20
6.3655305143
 30
0.0
 10
10.5689899653
 20
6.3823351338
 30
0.0
 10
10.5518878659
 20
6.4001786391
 30
0.0
 10
10.5357424302
 20
6.4189949824
 30
0.0
 10
10.5205592564
 20
6.438721938
 30
0.0
 10
10.5063415471
 20
6.4593009382
 30
0.0
 10
10.4930915684
 20
6.4806761526
 30
0.0
 10
10.4808112637
 20
6.5027947106
 30
0.0
 10
10.4656907966
 20
6.5332958749
 30
0.0
 10
10.4525827733
 20
6.5649905874
 30
0.0
 10
10.4414954616
 20
6.5976085567
 30
0.0
 10
10.4341677682
 20
6.6225950004
 30
0.0
 10
10.4278725263
 20
6.6479457537
 30
0.0
 10
10.4226300204
 20
6.6735679055
 30
0.0
 10
10.4184620659
 20
6.6993533847
 30
0.0
 10
10.4153895958
 20
6.7251809521
 30
0.0
 10
10.4134306321
 20
6.7509182891
 30
0.0
 10
10.4125980858
 20
6.7764268797
 30
0.0
 10
10.4128980586
 20
6.8015683731
 30
0.0
 10
10.4143290775
 20
6.8262122235
 30
0.0
 10
10.4168820898
 20
6.8502409326
 30
0.0
 10
10.4193525821
 20
6.865978757
 30
0.0
 10
10.4207766488
 20
6.8737148414
 30
0.0
  0
SPLINE
  5
373
100
AcDbEntity
  8
0
100
AcDbSpline
 62
7
  6
CONTINUOUS
 70
0
 71
3
 72
23
 73
19
 74
0
 42
0.0000001
 43
0.0000001
 44
0.0000000001
 40
0.0
 40
0.0
 40
0.0
 40
0.0
 40
0.0616482082
 40
0.1233194433
 40
0.1850364753
 40
0.2468215633
 40
0.3086962098
 40
0.3706809249
 40
0.4327950058
 40
0.4950563324
 40
0.5574811837
 40
0.6200840682
 40
0.6828776059
 40
0.7458723334
 40
0.8090768587
 40
0.8724970864
 40
0.9361379291
 40
1.0
 40
1.0
 40
1.0
 40
1.0
 10
9.9960393045
 20
9.2990758596
 30
0.0
 10
10.0038947517
 20
9.3066636466
 30
0.0
 10
10.0200201457
 20
9.3214225281
 30
0.0
 10
10.0453679975
 20
9.3422331086
 30
0.0
 10
10.0718165589
 20
9.3616681403
 30
0.0
 10
10.0992982806
 20
9.379677808
 30
0.0
 10
10.1277441398
 20
9.3962170018
 30
0.0
 10
10.1570823825
 20
9.411244034
 30
0.0
 10
10.1872390906
 20
9.4247211226
 30
0.0
 10
10.2181382704
 20
9.4366143807
 30
0.0
 10
10.2497020725
 20
9.4468939261
 30
0.0
 10
10.2818509869
 20
9.4555339544
 30
0.0
 10
10.3145040309
 20
9.4625127828
 30
0.0
 10
10.3475790121
 20
9.4678129543
 30
0.0
 10
10.3809925316
 20
9.4714211654
 30
0.0
 10
10.4146608701
 20
9.4733285025
 30
0.0
 10
10.448498063
 20
9.4735301989
 30
0.0
 10
10.4710755803
 20
9.472528927
 30
0.0
 10
10.482362337
 20
9.4717461878
 30
0.0
  0
SPLINE
  5
374
100
AcDbEntity
  8
0
100
AcDbSpline
 62
7
  6
CONTINUOUS
 70
0
 71
3
 72
23
 73
19
 74
0
 42
0.0000001
 43
0.0000001
 44
0.0000000001
 40
0.0
 40
0.0
 40
0.0
 40
0.0
 40
0.0616482098
 40
0.1233194446
 40
0.1850364747
 40
0.2468215611
 40
0.3086962076
 40
0.3706809245
 40
0.4327950062
 40
0.4950563328
 40
0.5574811797
 40
0.6200840705
 40
0.6828776046
 40
0.7458723228
 40
0.8090769537
 40
0.8724968135
 40
0.9361384451
 40
1.0
 40
1.0
 40
1.0
 40
1.0
 10
10.1608058868
 20
9.1579172732
 30
0.0
 10
10.166237361
 20
9.163163681
 30
0.0
 10
10.1773869318
 20
9.1733683559
 30
0.0
 10
10.194913158
 20
9.1877573491
 30
0.0
 10
10.2132004423
 20
9.2011952516
 30
0.0
 10
10.2322020739
 20
9.2136476282
 30
0.0
 10
10.2518703346
 20
9.2250832827
 30
0.0
 10
10.2721556204
 20
9.2354733748
 30
0.0
 10
10.2930068162
 20
9.2447917893
 30
0.0
 10
10.3143713725
 20
9.2530151065
 30
0.0
 10
10.3361954633
 20
9.2601226699
 30
0.0
 10
10.3584241158
 20
9.2660966294
 30
0.0
 10
10.381001339
 20
9.2709219802
 30
0.0
 10
10.4038703148
 20
9.2745866552
 30
0.0
 10
10.4269733216
 20
9.2770814326
 30
0.0
 10
10.4502526097
 20
9.2784002597
 30
0.0
 10
10.473648575
 20
9.2785396731
 30
0.0
 10
10.4892593323
 20
9.2778473895
 30
0.0
 10
10.4970632468
 20
9.2773061862
 30
0.0
  0
SPLINE
  5
375
100
AcDbEntity
  8
0
100
AcDbSpline
 62
7
  6
CONTINUOUS
 70
0
 71
3
 72
39
 73
35
 74
0
 42
0.0000001
 43
0.0000001
 44
0.0000000001
 40
0.0
 40
0.0
 40
0.0
 40
0.0
 40
0.0299393049
 40
0.0599022804
 40
0.0899120371
 40
0.1199905832
 40
0.1501583152
 40
0.180433557
 40
0.2108321574
 40
0.2413671588
 40
0.2720485413
 40
0.302883044
 40
0.333874065
 40
0.3650216373
 40
0.3963224782
 40
0.4277701076
 40
0.4593550264
 40
0.4910649489
 40
0.5228850817
 40
0.5547984441
 40
0.5867862233
 40
0.6188281554
 40
0.650902926
 40
0.6829885863
 40
0.7150629768
 40
0.747104156
 40
0.7790908244
 40
0.8110027393
 40
0.8428211159
 40
0.8745290106
 40
0.906111654
 40
0.9375568948
 40
0.9688549538
 40
1.0
 40
1.0
 40
1.0
 40
1.0
 10
10.8333206068
 20
8.4616788439
 30
0.0
 10
10.8412327748
 20
8.4693214209
 30
0.0
 10
10.8564707815
 20
8.4852401097
 30
0.0
 10
10.8773982938
 20
8.5108437223
 30
0.0
 10
10.8962945193
 20
8.5380457762
 30
0.0
 10
10.9130565517
 20
8.566698711
 30
0.0
 10
10.9275954201
 20
8.5966495598
 30
0.0
 10
10.9398334674
 20
8.6277378244
 30
0.0
 10
10.9497056245
 20
8.6597971384
 30
0.0
 10
10.957159489
 20
8.6926559792
 30
0.0
 10
10.9621556317
 20
8.7261386569
 30
0.0
 10
10.9646677719
 20
8.7600662417
 30
0.0
 10
10.9646828914
 20
8.7942575221
 30
0.0
 10
10.9622013111
 20
8.8285299658
 30
0.0
 10
10.9572366764
 20
8.8627006927
 30
0.0
 10
10.9498158336
 20
8.8965874399
 30
0.0
 10
10.9399786832
 20
8.9300095192
 30
0.0
 10
10.9277779559
 20
8.9627887651
 30
0.0
 10
10.9132789317
 20
8.9947504704
 30
0.0
 10
10.8965591239
 20
9.0257243224
 30
0.0
 10
10.8777078224
 20
9.0555452848
 30
0.0
 10
10.8568256241
 20
9.0840544642
 30
0.0
 10
10.8340239004
 20
9.1110999463
 30
0.0
 10
10.8094242063
 20
9.1365375894
 30
0.0
 10
10.7831576676
 20
9.1602318133
 30
0.0
 10
10.7553642684
 20
9.1820563032
 30
0.0
 10
10.7261921041
 20
9.2018946631
 30
0.0
 10
10.6957966009
 20
9.2196410341
 30
0.0
 10
10.6643397165
 20
9.2352006501
 30
0.0
 10
10.6319890269
 20
9.2484903506
 30
0.0
 10
10.5989171032
 20
9.2594390762
 30
0.0
 10
10.5652996591
 20
9.2679881187
 30
0.0
 10
10.531318239
 20
9.2740915556
 30
0.0
 10
10.5084793668
 20
9.2765144756
 30
0.0
 10
10.4970632468
 20
9.2773061862
 30
0.0
  0
SPLINE
  5
376
100
AcDbEntity
  8
0
100
AcDbSpline
 62
7
  6
CONTINUOUS
 70
0
 71
3
 72
15
 73
11
 74
0
 42
0.0000001
 43
0.0000001
 44
0.0000000001
 40
0.0
 40
0.0
 40
0.0
 40
0.0
 40
0.1261525048
 40
0.2520381749
 40
0.3776227669
 40
0.5028733031
 40
0.6277598136
 40
0.7522539762
 40
0.8763414317
 40
1.0
 40
1.0
 40
1.0
 40
1.0
 10
10.964023865
 20
8.7568581011
 30
0.0
 10
10.9582856248
 20
8.7548549133
 30
0.0
 10
10.9467246233
 20
8.7511234222
 30
0.0
 10
10.9291549004
 20
8.7463746573
 30
0.0
 10
10.911415012
 20
8.7425034191
 30
0.0
 10
10.8935511975
 20
8.7395313235
 30
0.0
 10
10.8756114695
 20
8.7374763325
 30
0.0
 10
10.8576452634
 20
8.7363521927
 30
0.0
 10
10.8397043786
 20
8.7361684489
 30
0.0
 10
10.8277725289
 20
8.7366766506
 30
0.0
 10
10.8218291164
 20
8.7370888277
 30
0.0
  0
SPLINE
  5
377
100
AcDbEntity
  8
0
100
AcDbSpline
 62
7
  6
CONTINUOUS
 70
0
 71
3
 72
23
 73
19
 74
0
 42
0.0000001
 43
0.0000001
 44
0.0000000001
 40
0.0
 40
0.0
 40
0.0
 40
0.0
 40
0.0616482082
 40
0.1233194433
 40
0.1850364753
 40
0.2468215633
 40
0.3086962098
 40
0.3706809249
 40
0.4327950058
 40
0.4950563324
 40
0.5574811837
 40
0.6200840682
 40
0.6828776059
 40
0.7458723334
 40
0.8090768587
 40
0.8724970864
 40
0.9361379291
 40
1.0
 40
1.0
 40
1.0
 40
1.0
 10
9.9960393045
 20
6.8966250271
 30
0.0
 10
10.0038947517
 20
6.9042128141
 30
0.0
 10
10.0200201457
 20
6.9189716956
 30
0.0
 10
10.0453679975
 20
6.9397822762
 30
0.0
 10
10.0718165589
 20
6.9592173079
 30
0.0
 10
10.0992982806
 20
6.9772269756
 30
0.0
 10
10.1277441398
 20
6.9937661693
 30
0.0
 10
10.1570823825
 20
7.0087932016
 30
0.0
 10
10.1872390906
 20
7.0222702901
 30
0.0
 10
10.2181382704
 20
7.0341635483
 30
0.0
 10
10.2497020725
 20
7.0444430937
 30
0.0
 10
10.2818509869
 20
7.053083122
 30
0.0
 10
10.3145040309
 20
7.0600619504
 30
0.0
 10
10.3475790121
 20
7.0653621219
 30
0.0
 10
10.3809925316
 20
7.0689703329
 30
0.0
 10
10.4146608701
 20
7.0708776701
 30
0.0
 10
10.448498063
 20
7.0710793665
 30
0.0
 10
10.4710755803
 20
7.0700780946
 30
0.0
 10
10.482362337
 20
7.0692953553
 30
0.0
  0
SPLINE
  5
378
100
AcDbEntity
  8
0
100
AcDbSpline
 62
7
  6
CONTINUOUS
 70
0
 71
3
 72
23
 73
19
 74
0
 42
0.0000001
 43
0.0000001
 44
0.0000000001
 40
0.0
 40
0.0
 40
0.0
 40
0.0
 40
0.0616482098
 40
0.1233194446
 40
0.1850364747
 40
0.2468215611
 40
0.3086962076
 40
0.3706809245
 40
0.4327950062
 40
0.4950563328
 40
0.5574811797
 40
0.6200840705
 40
0.6828776046
 40
0.7458723228
 40
0.8090769537
 40
0.8724968135
 40
0.9361384451
 40
1.0
 40
1.0
 40
1.0
 40
1.0
 10
10.1608058868
 20
6.7554664408
 30
0.0
 10
10.166237361
 20
6.7607128486
 30
0.0
 10
10.1773869318
 20
6.7709175235
 30
0.0
 10
10.194913158
 20
6.7853065167
 30
0.0
 10
10.2132004423
 20
6.7987444192
 30
0.0
 10
10.2322020739
 20
6.8111967957
 30
0.0
 10
10.2518703346
 20
6.8226324503
 30
0.0
 10
10.2721556204
 20
6.8330225424
 30
0.0
 10
10.2930068162
 20
6.8423409569
 30
0.0
 10
10.3143713725
 20
6.8505642741
 30
0.0
 10
10.3361954633
 20
6.8576718374
 30
0.0
 10
10.3584241158
 20
6.863645797
 30
0.0
 10
10.381001339
 20
6.8684711478
 30
0.0
 10
10.4038703148
 20
6.8721358228
 30
0.0
 10
10.4269733216
 20
6.8746306002
 30
0.0
 10
10.4502526097
 20
6.8759494273
 30
0.0
 10
10.473648575
 20
6.8760888407
 30
0.0
 10
10.4892593323
 20
6.8753965571
 30
0.0
 10
10.4970632468
 20
6.8748553538
 30
0.0
  0
SPLINE
  5
379
100
AcDbEntity
  8
0
100
AcDbSpline
 62
7
  6
CONTINUOUS
 70
0
 71
3
 72
39
 73
35
 74
0
 42
0.0000001
 43
0.0000001
 44
0.0000000001
 40
0.0
 40
0.0
 40
0.0
 40
0.0
 40
0.0299393049
 40
0.0599022804
 40
0.0899120371
 40
0.1199905832
 40
0.1501583152
 40
0.180433557
 40
0.2108321574
 40
0.2413671588
 40
0.2720485413
 40
0.302883044
 40
0.333874065
 40
0.3650216373
 40
0.3963224782
 40
0.4277701076
 40
0.4593550264
 40
0.4910649489
 40
0.5228850817
 40
0.5547984441
 40
0.5867862233
 40
0.6188281554
 40
0.650902926
 40
0.6829885863
 40
0.7150629768
 40
0.747104156
 40
0.7790908244
 40
0.8110027393
 40
0.8428211159
 40
0.8745290106
 40
0.906111654
 40
0.9375568948
 40
0.9688549538
 40
1.0
 40
1.0
 40
1.0
 40
1.0
 10
10.8333206068
 20
6.0592280115
 30
0.0
 10
10.8412327748
 20
6.0668705885
 30
0.0
 10
10.8564707815
 20
6.0827892772
 30
0.0
 10
10.8773982938
 20
6.1083928899
 30
0.0
 10
10.8962945193
 20
6.1355949437
 30
0.0
 10
10.9130565517
 20
6.1642478786
 30
0.0
 10
10.9275954201
 20
6.1941987274
 30
0.0
 10
10.9398334674
 20
6.225286992
 30
0.0
 10
10.9497056245
 20
6.257346306
 30
0.0
 10
10.957159489
 20
6.2902051468
 30
0.0
 10
10.9621556317
 20
6.3236878245
 30
0.0
 10
10.9646677719
 20
6.3576154092
 30
0.0
 10
10.9646828914
 20
6.3918066897
 30
0.0
 10
10.9622013111
 20
6.4260791333
 30
0.0
 10
10.9572366764
 20
6.4602498603
 30
0.0
 10
10.9498158336
 20
6.4941366075
 30
0.0
 10
10.9399786832
 20
6.5275586867
 30
0.0
 10
10.9277779559
 20
6.5603379327
 30
0.0
 10
10.9132789317
 20
6.5922996379
 30
0.0
 10
10.8965591239
 20
6.6232734899
 30
0.0
 10
10.8777078224
 20
6.6530944523
 30
0.0
 10
10.8568256241
 20
6.6816036318
 30
0.0
 10
10.8340239004
 20
6.7086491139
 30
0.0
 10
10.8094242063
 20
6.734086757
 30
0.0
 10
10.7831576676
 20
6.7577809809
 30
0.0
 10
10.7553642684
 20
6.7796054708
 30
0.0
 10
10.7261921041
 20
6.7994438307
 30
0.0
 10
10.6957966009
 20
6.8171902017
 30
0.0
 10
10.6643397165
 20
6.8327498177
 30
0.0
 10
10.6319890269
 20
6.8460395182
 30
0.0
 10
10.5989171032
 20
6.8569882438
 30
0.0
 10
10.5652996591
 20
6.8655372863
 30
0.0
 10
10.531318239
 20
6.8716407231
 30
0.0
 10
10.5084793668
 20
6.8740636431
 30
0.0
 10
10.4970632468
 20
6.8748553538
 30
0.0
  0
SPLINE
  5
37A
100
AcDbEntity
  8
0
100
AcDbSpline
 62
7
  6
CONTINUOUS
 70
0
 71
3
 72
13
 73
9
 74
0
 42
0.0000001
 43
0.0000001
 44
0.0000000001
 40
0.0
 40
0.0
 40
0.0
 40
0.0
 40
0.2520284351
 40
0.5028332399
 40
0.6277330959
 40
0.7522391778
 40
0.8763373148
 40
1.0
 40
1.0
 40
1.0
 40
1.0
 10
10.9560364078
 20
6.2874706193
 30
0.0
 10
10.9443050507
 20
6.2839190999
 30
0.0
 10
10.9205856019
 20
6.2778247967
 30
0.0
 10
10.8904196484
 20
6.2728566831
 30
0.0
 10
10.8661943326
 20
6.2705528763
 30
0.0
 10
10.8480439428
 20
6.2696693991
 30
0.0
 10
10.8299328532
 20
6.2696355478
 30
0.0
 10
10.8178902793
 20
6.2701823318
 30
0.0
 10
10.8118904733
 20
6.2705984198
 30
0.0
  0
SPLINE
  5
37B
100
AcDbEntity
  8
0
100
AcDbSpline
 62
7
  6
CONTINUOUS
 70
0
 71
3
 72
32
 73
28
 74
0
 42
0.0000001
 43
0.0000001
 44
0.0000000001
 40
0.0
 40
0.0
 40
0.0
 40
0.0
 40
0.0126611774
 40
0.0256298199
 40
0.0391904615
 40
0.0535892497
 40
0.0690269367
 40
0.0856610084
 40
0.1036099491
 40
0.1229608929
 40
0.143774547
 40
0.1660915428
 40
0.1899353405
 40
0.2153164908
 40
0.2422340212
 40
0.2706781842
 40
0.300631083
 40
0.3320684159
 40
0.3649598281
 40
0.3992699628
 40
0.4719786899
 40
0.5498313613
 40
0.6324054861
 40
0.7192324275
 40
0.8098050997
 40
0.9035829078
 40
1.0
 40
1.0
 40
1.0
 40
1.0
 10
12.5097792469
 20
9.7947786236
 30
0.0
 10
12.509207348
 20
9.7948182824
 30
0.0
 10
12.508054165
 20
9.7949940493
 30
0.0
 10
12.5063586582
 20
9.7955399394
 30
0.0
 10
12.5046926625
 20
9.7963656498
 30
0.0
 10
12.5030595761
 20
9.7974674318
 30
0.0
 10
12.5014608251
 20
9.7988416533
 30
0.0
 10
12.4998979806
 20
9.8004853585
 30
0.0
 10
12.4983724332
 20
9.8023955434
 30
0.0
 10
12.4968860331
 20
9.8045692547
 30
0.0
 10
12.495440606
 20
9.8070030959
 30
0.0
 10
12.4940383002
 20
9.8096933671
 30
0.0
 10
12.4926811485
 20
9.8126358469
 30
0.0
 10
12.4913713493
 20
9.8158259149
 30
0.0
 10
12.490110944
 20
9.8192584653
 30
0.0
 10
12.4889020358
 20
9.8229279828
 30
0.0
 10
12.4877465714
 20
9.8268285171
 30
0.0
 10
12.4866464985
 20
9.8309537204
 30
0.0
 10
12.4856035901
 20
9.8352968601
 30
0.0
 10
12.4842657286
 20
9.8414893
 30
0.0
 10
12.4827611379
 20
9.8497260112
 30
0.0
 10
12.4812407698
 20
9.8601737785
 30
0.0
 10
12.4799829517
 20
9.8712997807
 30
0.0
 10
12.4789962208
 20
9.8830308884
 30
0.0
 10
12.4782873779
 20
9.8952900817
 30
0.0
 10
12.4778612827
 20
9.9079966398
 30
0.0
 10
12.4777688056
 20
9.9166086163
 30
0.0
 10
12.4777688056
 20
9.9209741863
 30
0.0
  0
SPLINE
  5
37C
100
AcDbEntity
  8
0
100
AcDbSpline
 62
7
  6
CONTINUOUS
 70
0
 71
3
 72
32
 73
28
 74
0
 42
0.0000001
 43
0.0000001
 44
0.0000000001
 40
0.0
 40
0.0
 40
0.0
 40
0.0
 40
0.0126611774
 40
0.0256298199
 40
0.0391904615
 40
0.0535892497
 40
0.0690269367
 40
0.0856610084
 40
0.1036099491
 40
0.1229608929
 40
0.143774547
 40
0.1660915428
 40
0.1899353405
 40
0.2153164908
 40
0.2422340212
 40
0.2706781842
 40
0.300631083
 40
0.3320684159
 40
0.3649598281
 40
0.3992699628
 40
0.4719786899
 40
0.5498313613
 40
0.6324054861
 40
0.7192324275
 40
0.8098050997
 40
0.9035829078
 40
1.0
 40
1.0
 40
1.0
 40
1.0
 10
12.5097792469
 20
6.7038159806
 30
0.0
 10
12.509207348
 20
6.7038556394
 30
0.0
 10
12.508054165
 20
6.7040314063
 30
0.0
 10
12.5063586582
 20
6.7045772964
 30
0.0
 10
12.5046926625
 20
6.7054030067
 30
0.0
 10
12.5030595761
 20
6.7065047888
 30
0.0
 10
12.5014608251
 20
6.7078790102
 30
0.0
 10
12.4998979806
 20
6.7095227154
 30
0.0
 10
12.4983724332
 20
6.7114329003
 30
0.0
 10
12.4968860331
 20
6.7136066116
 30
0.0
 10
12.495440606
 20
6.7160404529
 30
0.0
 10
12.4940383002
 20
6.7187307241
 30
0.0
 10
12.4926811485
 20
6.7216732039
 30
0.0
 10
12.4913713493
 20
6.7248632719
 30
0.0
 10
12.490110944
 20
6.7282958223
 30
0.0
 10
12.4889020358
 20
6.7319653397
 30
0.0
 10
12.4877465714
 20
6.735865874
 30
0.0
 10
12.4866464985
 20
6.7399910773
 30
0.0
 10
12.4856035901
 20
6.744334217
 30
0.0
 10
12.4842657286
 20
6.750526657
 30
0.0
 10
12.4827611379
 20
6.7587633681
 30
0.0
 10
12.4812407698
 20
6.7692111354
 30
0.0
 10
12.4799829517
 20
6.7803371376
 30
0.0
 10
12.4789962208
 20
6.7920682453
 30
0.0
 10
12.4782873779
 20
6.8043274387
 30
0.0
 10
12.4778612827
 20
6.8170339968
 30
0.0
 10
12.4777688056
 20
6.8256459732
 30
0.0
 10
12.4777688056
 20
6.8300115433
 30
0.0
  0
SPLINE
  5
37D
100
AcDbEntity
  8
0
100
AcDbSpline
 62
7
  6
CONTINUOUS
 70
0
 71
3
 72
71
 73
67
 74
0
 42
0.0000001
 43
0.0000001
 44
0.0000000001
 40
0.0
 40
0.0
 40
0.0
 40
0.0
 40
0.0156216999
 40
0.0311907601
 40
0.0467067152
 40
0.0621710784
 40
0.077585053
 40
0.0929506336
 40
0.1082702315
 40
0.1235467316
 40
0.138783465
 40
0.1539841696
 40
0.1691529587
 40
0.1842942792
 40
0.1994128685
 40
0.2145137046
 40
0.2296019546
 40
0.2446829194
 40
0.2597619773
 40
0.2748445271
 40
0.2899359306
 40
0.3050414555
 40
0.3201662189
 40
0.3353151329
 40
0.3504928541
 40
0.3657037359
 40
0.3809517858
 40
0.396240626
 40
0.4115734582
 40
0.4269530343
 40
0.4423816324
 40
0.4578610404
 40
0.473392542
 40
0.4889769091
 40
0.5046143984
 40
0.5203047543
 40
0.5360472179
 40
0.5518405389
 40
0.567682992
 40
0.5835723963
 40
0.5995061391
 40
0.6154812041
 40
0.6314942032
 40
0.6475414081
 40
0.6636187857
 40
0.6797220347
 40
0.695846626
 40
0.7119878442
 40
0.7281408286
 40
0.7443006159
 40
0.7604621826
 40
0.7766204897
 40
0.7927705272
 40
0.8089073579
 40
0.8250261591
 40
0.8411222652
 40
0.85719121
 40
0.8732287678
 40
0.8892309905
 40
0.9051942484
 40
0.9211152564
 40
0.9369911048
 40
0.9528193679
 40
0.9685977669
 40
0.9843253049
 40
1.0
 40
1.0
 40
1.0
 40
1.0
 10
10.4856752182
 20
8.2887892005
 30
0.0
 10
10.4940051314
 20
8.2882115191
 30
0.0
 10
10.51066795
 20
8.2874636128
 30
0.0
 10
10.5356424717
 20
8.2875717246
 30
0.0
 10
10.5604977604
 20
8.2889115735
 30
0.0
 10
10.5851728901
 20
8.2914797837
 30
0.0
 10
10.6096088208
 20
8.2952703945
 30
0.0
 10
10.6337465105
 20
8.3002742744
 30
0.0
 10
10.6575278118
 20
8.3064794414
 30
0.0
 10
10.6808953841
 20
8.313870976
 30
0.0
 10
10.7037928841
 20
8.322431109
 30
0.0
 10
10.72616509
 20
8.3321392569
 30
0.0
 10
10.7479580335
 20
8.3429720695
 30
0.0
 10
10.7691191396
 20
8.3549034691
 30
0.0
 10
10.7895973682
 20
8.367904695
 30
0.0
 10
10.8093433198
 20
8.3819444124
 30
0.0
 10
10.828309357
 20
8.396988779
 30
0.0
 10
10.8464497191
 20
8.4130015283
 30
0.0
 10
10.8637206323
 20
8.4299440548
 30
0.0
 10
10.8800804509
 20
8.4477754765
 30
0.0
 10
10.8954897293
 20
8.466452771
 30
0.0
 10
10.9099113161
 20
8.4859308789
 30
0.0
 10
10.9233104444
 20
8.5061628122
 30
0.0
 10
10.9356548078
 20
8.527099771
 30
0.0
 10
10.9469146761
 20
8.5486912401
 30
0.0
 10
10.9570629516
 20
8.5708851278
 30
0.0
 10
10.9660752141
 20
8.5936279026
 30
0.0
 10
10.9739297839
 20
8.6168647189
 30
0.0
 10
10.9806077657
 20
8.6405395506
 30
0.0
 10
10.9860931132
 20
8.6645953186
 30
0.0
 10
10.9903726861
 20
8.6889740289
 30
0.0
 10
10.9934362391
 20
8.7136169246
 30
0.0
 10
10.9952764518
 20
8.7384646237
 30
0.0
 10
10.9958889426
 20
8.7634572605
 30
0.0
 10
10.9952722789
 20
8.7885346263
 30
0.0
 10
10.9934280238
 20
8.8136363165
 30
0.0
 10
10.9903606861
 20
8.8387018788
 30
0.0
 10
10.9860777078
 20
8.8636709556
 30
0.0
 10
10.9805894481
 20
8.8884834276
 30
0.0
 10
10.9739091503
 20
8.913079553
 30
0.0
 10
10.9660529504
 20
8.9374001203
 30
0.0
 10
10.9570398179
 20
8.9613865905
 30
0.0
 10
10.9468914898
 20
8.9849812297
 30
0.0
 10
10.935632425
 20
9.008127248
 30
0.0
 10
10.9232897407
 20
9.0307689302
 30
0.0
 10
10.9098931663
 20
9.0528517778
 30
0.0
 10
10.8954749859
 20
9.0743226516
 30
0.0
 10
10.8800699249
 20
9.0951298801
 30
0.0
 10
10.8637150739
 20
9.1152233846
 30
0.0
 10
10.8464497997
 20
9.1345547968
 30
0.0
 10
10.8283156528
 20
9.153077573
 30
0.0
 10
10.8093562976
 20
9.170747137
 30
0.0
 10
10.7896173745
 20
9.1875209599
 30
0.0
 10
10.7691463917
 20
9.2033586593
 30
0.0
 10
10.7479926138
 20
9.2182220965
 30
0.0
 10
10.726206942
 20
9.2320754607
 30
0.0
 10
10.703841814
 20
9.2448853896
 30
0.0
 10
10.6809510643
 20
9.2566210353
 30
0.0
 10
10.6575897867
 20
9.2672541236
 30
0.0
 10
10.6338142053
 20
9.2767590201
 30
0.0
 10
10.6096815507
 20
9.2851127854
 30
0.0
 10
10.585249877
 20
9.292295289
 30
0.0
 10
10.5605781382
 20
9.2982891155
 30
0.0
 10
10.5357253298
 20
9.3030800031
 30
0.0
 10
10.5107523066
 20
9.3066560153
 30
0.0
 10
10.4940333899
 20
9.3082272923
 30
0.0
 10
10.4856752182
 20
9.3088069335
 30
0.0
  0
SPLINE
  5
37E
100
AcDbEntity
  8
0
100
AcDbSpline
 62
7
  6
CONTINUOUS
 70
0
 71
3
 72
41
 73
37
 74
0
 42
0.0000001
 43
0.0000001
 44
0.0000000001
 40
0.0
 40
0.0
 40
0.0
 40
0.0
 40
0.0309552856
 40
0.062044163
 40
0.0932624089
 40
0.1246034294
 40
0.1560589052
 40
0.1876186829
 40
0.2192710436
 40
0.2510028624
 40
0.2827998259
 40
0.3146466505
 40
0.3465273142
 40
0.3784252959
 40
0.4103238195
 40
0.4422061009
 40
0.4740555953
 40
0.5058562411
 40
0.5375927002
 40
0.5692505895
 40
0.6008167028
 40
0.6322792192
 40
0.6636278959
 40
0.6948542417
 40
0.7259516686
 40
0.7569156183
 40
0.78774366
 40
0.818435558
 40
0.8489933039
 40
0.8642251311
 40
0.8794251882
 40
0.9097294601
 40
0.9399186935
 40
0.954975475
 40
0.9700075842
 40
1.0
 40
1.0
 40
1.0
 40
1.0
 10
10.6865186314
 20
6.1228389583
 30
0.0
 10
10.6765507835
 20
6.1235302309
 30
0.0
 10
10.6566105439
 20
6.1255524434
 30
0.0
 10
10.6268928466
 20
6.1304717884
 30
0.0
 10
10.5974176717
 20
6.1372639148
 30
0.0
 10
10.5683065275
 20
6.1459009508
 30
0.0
 10
10.5396774411
 20
6.1563475883
 30
0.0
 10
10.5116469758
 20
6.1685611955
 30
0.0
 10
10.4843291088
 20
6.1824919568
 30
0.0
 10
10.4578349473
 20
6.1980831028
 30
0.0
 10
10.4322722331
 20
6.2152711279
 30
0.0
 10
10.4077449221
 20
6.2339860533
 30
0.0
 10
10.3843527616
 20
6.2541517085
 30
0.0
 10
10.3621908892
 20
6.2756860398
 30
0.0
 10
10.3413494483
 20
6.2985014419
 30
0.0
 10
10.321913225
 20
6.3225051117
 30
0.0
 10
10.3039613052
 20
6.3475994228
 30
0.0
 10
10.2875667552
 20
6.3736823195
 30
0.0
 10
10.2727963261
 20
6.4006477282
 30
0.0
 10
10.2597101832
 20
6.4283859853
 30
0.0
 10
10.2483616625
 20
6.4567842784
 30
0.0
 10
10.238797053
 20
6.485727101
 30
0.0
 10
10.2310554087
 20
6.5150967186
 30
0.0
 10
10.225168386
 20
6.5447736365
 30
0.0
 10
10.2211601174
 20
6.5746371059
 30
0.0
 10
10.2190470932
 20
6.6045655171
 30
0.0
 10
10.2188381498
 20
6.6344372352
 30
0.0
 10
10.2205342028
 20
6.6641298116
 30
0.0
 10
10.2235332057
 20
6.6886527918
 30
0.0
 10
10.2268766386
 20
6.7080561925
 30
0.0
 10
10.2308365192
 20
6.7272597291
 30
0.0
 10
10.2369476471
 20
6.7509350311
 30
0.0
 10
10.244598809
 20
6.774109988
 30
0.0
 10
10.2516174131
 20
6.7922602115
 30
0.0
 10
10.2592142411
 20
6.8101062331
 30
0.0
 10
10.2655787195
 20
6.8231877057
 30
0.0
 10
10.2701061628
 20
6.8317448009
 30
0.0
  0
SPLINE
  5
37F
100
AcDbEntity
  8
0
100
AcDbSpline
 62
7
  6
CONTINUOUS
 70
0
 71
3
 72
32
 73
28
 74
0
 42
0.0000001
 43
0.0000001
 44
0.0000000001
 40
0.0
 40
0.0
 40
0.0
 40
0.0
 40
0.0126611774
 40
0.0256298199
 40
0.0391904615
 40
0.0535892497
 40
0.0690269367
 40
0.0856610084
 40
0.1036099491
 40
0.1229608929
 40
0.143774547
 40
0.1660915428
 40
0.1899353405
 40
0.2153164908
 40
0.2422340212
 40
0.2706781842
 40
0.300631083
 40
0.3320684159
 40
0.3649598281
 40
0.3992699628
 40
0.4719786899
 40
0.5498313613
 40
0.6324054861
 40
0.7192324275
 40
0.8098050997
 40
0.9035829078
 40
1.0
 40
1.0
 40
1.0
 40
1.0
 10
12.5331356018
 20
7.0406070413
 30
0.0
 10
12.5337075007
 20
7.0405673825
 30
0.0
 10
12.5348606836
 20
7.0403916156
 30
0.0
 10
12.5365561905
 20
7.0398457255
 30
0.0
 10
12.5382221862
 20
7.0390200151
 30
0.0
 10
12.5398552725
 20
7.0379182331
 30
0.0
 10
12.5414540235
 20
7.0365440116
 30
0.0
 10
12.5430168681
 20
7.0349003064
 30
0.0
 10
12.5445424155
 20
7.0329901215
 30
0.0
 10
12.5460288155
 20
7.0308164102
 30
0.0
 10
12.5474742427
 20
7.028382569
 30
0.0
 10
12.5488765485
 20
7.0256922978
 30
0.0
 10
12.5502337002
 20
7.022749818
 30
0.0
 10
12.5515434994
 20
7.01955975
 30
0.0
 10
12.5528039046
 20
7.0161271996
 30
0.0
 10
12.5540128129
 20
7.0124576821
 30
0.0
 10
12.5551682772
 20
7.0085571478
 30
0.0
 10
12.5562683501
 20
7.0044319446
 30
0.0
 10
12.5573112586
 20
7.0000888048
 30
0.0
 10
12.55864912
 20
6.9938963649
 30
0.0
 10
12.5601537108
 20
6.9856596537
 30
0.0
 10
12.5616740789
 20
6.9752118864
 30
0.0
 10
12.562931897
 20
6.9640858842
 30
0.0
 10
12.5639186278
 20
6.9523547765
 30
0.0
 10
12.5646274707
 20
6.9400955832
 30
0.0
 10
12.565053566
 20
6.9273890251
 30
0.0
 10
12.5651460431
 20
6.9187770486
 30
0.0
 10
12.5651460431
 20
6.9144114786
 30
0.0
  0
SPLINE
  5
380
100
AcDbEntity
  8
0
100
AcDbSpline
 62
7
  6
CONTINUOUS
 70
0
 71
3
 72
17
 73
13
 74
0
 42
0.0000001
 43
0.0000001
 44
0.0000000001
 40
0.0
 40
0.0
 40
0.0
 40
0.0
 40
0.1268045722
 40
0.2530530868
 40
0.3787547606
 40
0.4414137422
 40
0.5039431616
 40
0.6286116902
 40
0.7528115011
 40
0.814757202
 40
0.8766023477
 40
1.0
 40
1.0
 40
1.0
 40
1.0
 10
10.6865186314
 20
6.1228389583
 30
0.0
 10
10.6963678859
 20
6.1221559102
 30
0.0
 10
10.7160720091
 20
6.1214109743
 30
0.0
 10
10.7455703526
 20
6.122172794
 30
0.0
 10
10.7699851106
 20
6.1243757168
 30
0.0
 10
10.7893348653
 20
6.1270745121
 30
0.0
 10
10.8085075587
 20
6.1303866416
 30
0.0
 10
10.8321865712
 20
6.1356806821
 30
0.0
 10
10.8554229814
 20
6.142507143
 30
0.0
 10
10.8736580847
 20
6.1488648388
 30
0.0
 10
10.8916129792
 20
6.1558019149
 30
0.0
 10
10.9048030663
 20
6.1616712688
 30
0.0
 10
10.9134448098
 20
6.165869747
 30
0.0
  0
SPLINE
  5
381
100
AcDbEntity
  8
0
100
AcDbSpline
 62
7
  6
CONTINUOUS
 70
0
 71
3
 72
23
 73
19
 74
0
 42
0.0000001
 43
0.0000001
 44
0.0000000001
 40
0.0
 40
0.0
 40
0.0
 40
0.0
 40
0.0638615549
 40
0.1275031865
 40
0.1909230463
 40
0.2541276772
 40
0.3171223954
 40
0.3799159295
 40
0.4425188203
 40
0.5049436672
 40
0.5672049938
 40
0.6293190755
 40
0.6913037924
 40
0.7531784389
 40
0.8149635253
 40
0.8766805554
 40
0.9383517902
 40
1.0
 40
1.0
 40
1.0
 40
1.0
 10
10.4970632468
 20
8.342289931
 30
0.0
 10
10.5048671612
 20
8.3417487276
 30
0.0
 10
10.5204779185
 20
8.341056444
 30
0.0
 10
10.5438738838
 20
8.3411958574
 30
0.0
 10
10.5671531719
 20
8.3425146845
 30
0.0
 10
10.5902561788
 20
8.3450094619
 30
0.0
 10
10.6131251546
 20
8.348674137
 30
0.0
 10
10.6357023777
 20
8.3534994877
 30
0.0
 10
10.6579310302
 20
8.3594734473
 30
0.0
 10
10.6797551211
 20
8.3665810106
 30
0.0
 10
10.7011196774
 20
8.3748043278
 30
0.0
 10
10.7219708731
 20
8.3841227423
 30
0.0
 10
10.7422561589
 20
8.3945128344
 30
0.0
 10
10.7619244196
 20
8.405948489
 30
0.0
 10
10.7809260512
 20
8.4184008655
 30
0.0
 10
10.7992133356
 20
8.431838768
 30
0.0
 10
10.8167395617
 20
8.4462277612
 30
0.0
 10
10.8278891325
 20
8.4564324362
 30
0.0
 10
10.8333206068
 20
8.4616788439
 30
0.0
  0
SPLINE
  5
382
100
AcDbEntity
  8
0
100
AcDbSpline
 62
7
  6
CONTINUOUS
 70
0
 71
3
 72
39
 73
35
 74
0
 42
0.0000001
 43
0.0000001
 44
0.0000000001
 40
0.0
 40
0.0
 40
0.0
 40
0.0
 40
0.0311450333
 40
0.0624431288
 40
0.0938883325
 40
0.1254709893
 40
0.1571788812
 40
0.1889972568
 40
0.2209091708
 40
0.2528958386
 40
0.2849370172
 40
0.3170114072
 40
0.3490970669
 40
0.3811718372
 40
0.413213769
 40
0.4452015481
 40
0.4771149106
 40
0.5089350428
 40
0.5406449654
 40
0.5722298856
 40
0.6036775156
 40
0.6349783564
 40
0.6661259294
 40
0.6971169509
 40
0.7279514545
 40
0.7586328388
 40
0.7891678409
 40
0.8195664412
 40
0.8498416838
 40
0.8800094165
 40
0.9100879631
 40
0.9400977203
 40
0.9700606956
 40
1.0
 40
1.0
 40
1.0
 40
1.0
 10
10.482362337
 20
5.7169991184
 30
0.0
 10
10.4658514323
 20
5.7181441535
 30
0.0
 10
10.4328200066
 20
5.721648389
 30
0.0
 10
10.3836733437
 20
5.7304756361
 30
0.0
 10
10.3350530812
 20
5.7428399436
 30
0.0
 10
10.2872218207
 20
5.7586748805
 30
0.0
 10
10.2404336542
 20
5.7778955365
 30
0.0
 10
10.1949381617
 20
5.8003990689
 30
0.0
 10
10.1509777363
 20
5.8260652936
 30
0.0
 10
10.1087866005
 20
5.8547571168
 30
0.0
 10
10.0685895311
 20
5.8863214261
 30
0.0
 10
10.0306007629
 20
5.9205899349
 30
0.0
 10
9.9950227093
 20
5.957379902
 30
0.0
 10
9.9620449781
 20
5.9964952172
 30
0.0
 10
9.9318434495
 20
6.0377274784
 30
0.0
 10
9.904579178
 20
6.0808569519
 30
0.0
 10
9.8803976196
 20
6.1256538148
 30
0.0
 10
9.8594279673
 20
6.171879407
 30
0.0
 10
9.8417822775
 20
6.2192873837
 30
0.0
 10
9.827554938
 20
6.2676250675
 30
0.0
 10
9.8168222951
 20
6.3166348058
 30
0.0
 10
9.8096420433
 20
6.3660552618
 30
0.0
 10
9.8060529493
 20
6.4156228257
 30
0.0
 10
9.8060747874
 20
6.4650730087
 30
0.0
 10
9.8097080192
 20
6.5141418152
 30
0.0
 10
9.816933781
 20
6.5625671692
 30
0.0
 10
9.8277141305
 20
6.6100902786
 30
0.0
 10
9.8419920435
 20
6.6564570375
 30
0.0
 10
9.8596916484
 20
6.7014194043
 30
0.0
 10
9.8807188752
 20
6.7447367608
 30
0.0
 10
9.9049614517
 20
6.7861769559
 30
0.0
 10
9.9322906441
 20
6.8255187901
 30
0.0
 10
9.9625576726
 20
6.8625488153
 30
0.0
 10
9.9845960892
 20
6.8855717188
 30
0.0
 10
9.9960393045
 20
6.8966250271
 30
0.0
  0
SPLINE
  5
383
100
AcDbEntity
  8
0
100
AcDbSpline
 62
7
  6
CONTINUOUS
 70
0
 71
3
 72
17
 73
13
 74
0
 42
0.0000001
 43
0.0000001
 44
0.0000000001
 40
0.0
 40
0.0
 40
0.0
 40
0.0
 40
0.1268045722
 40
0.2530530868
 40
0.3787547606
 40
0.4414137422
 40
0.5039431616
 40
0.6286116902
 40
0.7528115011
 40
0.814757202
 40
0.8766023477
 40
1.0
 40
1.0
 40
1.0
 40
1.0
 10
10.6865186314
 20
8.5252897908
 30
0.0
 10
10.6963678859
 20
8.5246067426
 30
0.0
 10
10.7160720091
 20
8.5238618067
 30
0.0
 10
10.7455703526
 20
8.5246236264
 30
0.0
 10
10.7699851106
 20
8.5268265492
 30
0.0
 10
10.7893348653
 20
8.5295253446
 30
0.0
 10
10.8085075587
 20
8.532837474
 30
0.0
 10
10.8321865712
 20
8.5381315145
 30
0.0
 10
10.8554229814
 20
8.5449579755
 30
0.0
 10
10.8736580847
 20
8.5513156712
 30
0.0
 10
10.8916129792
 20
8.5582527474
 30
0.0
 10
10.9048030663
 20
8.5641221013
 30
0.0
 10
10.9134448098
 20
8.5683205794
 30
0.0
  0
SPLINE
  5
384
100
AcDbEntity
  8
0
100
AcDbSpline
 62
7
  6
CONTINUOUS
 70
0
 71
3
 72
23
 73
19
 74
0
 42
0.0000001
 43
0.0000001
 44
0.0000000001
 40
0.0
 40
0.0
 40
0.0
 40
0.0
 40
0.0638551967
 40
0.1274913695
 40
0.1909086168
 40
0.2541120483
 40
0.3171072588
 40
0.3799026662
 40
0.4425085118
 40
0.5049370844
 40
0.5672025173
 40
0.6293206779
 40
0.6913090067
 40
0.7531863416
 40
0.8149727217
 40
0.8766891756
 40
0.9383574953
 40
1.0
 40
1.0
 40
1.0
 40
1.0
 10
10.4856752182
 20
5.7201991161
 30
0.0
 10
10.496862994
 20
5.7194232412
 30
0.0
 10
10.5192424858
 20
5.7184258579
 30
0.0
 10
10.5527838832
 20
5.7186035301
 30
0.0
 10
10.5861608477
 20
5.7204570681
 30
0.0
 10
10.6192896027
 20
5.7239818699
 30
0.0
 10
10.6520886344
 20
5.7291694154
 30
0.0
 10
10.6844766708
 20
5.7360068932
 30
0.0
 10
10.7163736192
 20
5.7444775078
 30
0.0
 10
10.7477005367
 20
5.7545603728
 30
0.0
 10
10.7783798909
 20
5.766230624
 30
0.0
 10
10.8083357392
 20
5.7794594543
 30
0.0
 10
10.8374939185
 20
5.7942141777
 30
0.0
 10
10.8657822548
 20
5.8104583421
 30
0.0
 10
10.8931306415
 20
5.8281517226
 30
0.0
 10
10.9194715988
 20
5.8472507756
 30
0.0
 10
10.9447390121
 20
5.8677074228
 30
0.0
 10
10.9608301635
 20
5.8822198101
 30
0.0
 10
10.968673451
 20
5.8896821149
 30
0.0
  0
SPLINE
  5
385
100
AcDbEntity
  8
0
100
AcDbSpline
 62
7
  6
CONTINUOUS
 70
0
 71
3
 72
39
 73
35
 74
0
 42
0.0000001
 43
0.0000001
 44
0.0000000001
 40
0.0
 40
0.0
 40
0.0
 40
0.0
 40
0.0311408439
 40
0.0624342694
 40
0.0938744065
 40
0.1254516552
 40
0.1571539109
 40
0.1889665425
 40
0.2208727414
 40
0.2528538717
 40
0.2848898427
 40
0.3169595069
 40
0.34904107
 40
0.3811125095
 40
0.4131519968
 40
0.4451383164
 40
0.4770512783
 40
0.5088721147
 40
0.540583856
 40
0.5721716831
 40
0.6036232475
 40
0.6349289466
 40
0.6660821571
 40
0.6970794183
 40
0.7279205475
 40
0.7586086928
 40
0.7891503193
 40
0.8195551139
 40
0.8498358127
 40
0.8800079557
 40
0.9100895652
 40
0.9401007523
 40
0.9700632669
 40
1.0
 40
1.0
 40
1.0
 40
1.0
 10
10.4856752182
 20
5.7201991161
 30
0.0
 10
10.469214183
 20
5.7213406928
 30
0.0
 10
10.4362825871
 20
5.7248306678
 30
0.0
 10
10.3872824226
 20
5.7336151683
 30
0.0
 10
10.3388039187
 20
5.7459157659
 30
0.0
 10
10.2911073269
 20
5.761666777
 30
0.0
 10
10.2444445235
 20
5.7807842772
 30
0.0
 10
10.1990629137
 20
5.8031665654
 30
0.0
 10
10.1552028133
 20
5.8286947937
 30
0.0
 10
10.1130965496
 20
5.8572334962
 30
0.0
 10
10.0729670832
 20
5.8886312536
 30
0.0
 10
10.0350269586
 20
5.9227216254
 30
0.0
 10
9.9994771869
 20
5.9593239928
 30
0.0
 10
9.9665060732
 20
5.9982443909
 30
0.0
 10
9.9362883302
 20
6.0392766461
 30
0.0
 10
9.908984204
 20
6.0822034646
 30
0.0
 10
9.8847385071
 20
6.1267974799
 30
0.0
 10
9.8636798858
 20
6.1728224852
 30
0.0
 10
9.8459202445
 20
6.2200347137
 30
0.0
 10
9.8315540785
 20
6.2681840637
 30
0.0
 10
9.820657876
 20
6.3170153914
 30
0.0
 10
9.8132898657
 20
6.3662698968
 30
0.0
 10
9.8094896869
 20
6.4156864502
 30
0.0
 10
9.8092779872
 20
6.4650029458
 30
0.0
 10
9.812656442
 20
6.5139577055
 30
0.0
 10
9.819607769
 20
6.5622908332
 30
0.0
 10
9.8300956342
 20
6.6097455969
 30
0.0
 10
9.844064855
 20
6.6560698164
 30
0.0
 10
9.8614417578
 20
6.7010171526
 30
0.0
 10
9.8821345393
 20
6.7443485244
 30
0.0
 10
9.9060333146
 20
6.7858331549
 30
0.0
 10
9.9330120279
 20
6.8252509142
 30
0.0
 10
9.9629247016
 20
6.8623892163
 30
0.0
 10
9.9847268565
 20
6.8855071657
 30
0.0
 10
9.9960524531
 20
6.8966135326
 30
0.0
  0
SPLINE
  5
386
100
AcDbEntity
  8
0
100
AcDbSpline
 62
7
  6
CONTINUOUS
 70
0
 71
3
 72
23
 73
19
 74
0
 42
0.0000001
 43
0.0000001
 44
0.0000000001
 40
0.0
 40
0.0
 40
0.0
 40
0.0
 40
0.0616482082
 40
0.1233194433
 40
0.1850364753
 40
0.2468215633
 40
0.3086962098
 40
0.3706809249
 40
0.4327950058
 40
0.4950563324
 40
0.5574811837
 40
0.6200840682
 40
0.6828776059
 40
0.7458723334
 40
0.8090768587
 40
0.8724970864
 40
0.9361379291
 40
1.0
 40
1.0
 40
1.0
 40
1.0
 10
10.9686853695
 20
8.292120279
 30
0.0
 10
10.9608299222
 20
8.284532492
 30
0.0
 10
10.9447045282
 20
8.2697736105
 30
0.0
 10
10.9193566765
 20
8.24896303
 30
0.0
 10
10.8929081151
 20
8.2295279983
 30
0.0
 10
10.8654263934
 20
8.2115183306
 30
0.0
 10
10.8369805342
 20
8.1949791368
 30
0.0
 10
10.8076422915
 20
8.1799521046
 30
0.0
 10
10.7774855833
 20
8.166475016
 30
0.0
 10
10.7465864036
 20
8.1545817579
 30
0.0
 10
10.7150226014
 20
8.1443022125
 30
0.0
 10
10.6828736871
 20
8.1356621842
 30
0.0
 10
10.6502206431
 20
8.1286833558
 30
0.0
 10
10.6171456619
 20
8.1233831843
 30
0.0
 10
10.5837321424
 20
8.1197749732
 30
0.0
 10
10.5500638039
 20
8.1178676361
 30
0.0
 10
10.5162266109
 20
8.1176659397
 30
0.0
 10
10.4936490937
 20
8.1186672116
 30
0.0
 10
10.482362337
 20
8.1194499508
 30
0.0
  0
SPLINE
  5
387
100
AcDbEntity
  8
0
100
AcDbSpline
 62
7
  6
CONTINUOUS
 70
0
 71
3
 72
36
 73
32
 74
0
 42
0.0000001
 43
0.0000001
 44
0.0000000001
 40
0.0
 40
0.0
 40
0.0
 40
0.0
 40
0.084039477
 40
0.1695103585
 40
0.2553560057
 40
0.340511238
 40
0.4239223757
 40
0.5045636384
 40
0.5435382671
 40
0.5814572504
 40
0.6182079766
 40
0.6536829341
 40
0.6877805404
 40
0.7204057561
 40
0.7514708524
 40
0.7808965051
 40
0.808613118
 40
0.8345621594
 40
0.858698135
 40
0.8809915133
 40
0.9014325509
 40
0.9200366324
 40
0.9368523647
 40
0.9519735562
 40
0.9589483805
 40
0.9655643882
 40
0.9778450686
 40
0.983606525
 40
0.9891794977
 40
0.9946228116
 40
1.0
 40
1.0
 40
1.0
 40
1.0
 10
12.5651460431
 20
10.0053741216
 30
0.0
 10
12.5651460431
 20
9.9990391745
 30
0.0
 10
12.5649472472
 20
9.9862606486
 30
0.0
 10
12.5640845627
 20
9.9670285698
 30
0.0
 10
12.5626647853
 20
9.9477450906
 30
0.0
 10
12.5607067371
 20
9.9286648358
 30
0.0
 10
12.5582364127
 20
9.910039756
 30
0.0
 10
12.5557512861
 20
9.8949355304
 30
0.0
 10
12.5535225425
 20
9.883270945
 30
0.0
 10
12.5517642949
 20
9.8748862329
 30
0.0
 10
12.5499063252
 20
9.8667934753
 30
0.0
 10
12.5479547743
 20
9.8590193794
 30
0.0
 10
12.5459161669
 20
9.8515895903
 30
0.0
 10
12.5437973008
 20
9.8445285839
 30
0.0
 10
12.5416052348
 20
9.8378595939
 30
0.0
 10
12.5393472678
 20
9.8316045074
 30
0.0
 10
12.5370309317
 20
9.8257837645
 30
0.0
 10
12.534663916
 20
9.8204162842
 30
0.0
 10
12.5322540134
 20
9.8155193824
 30
0.0
 10
12.52980905
 20
9.8111086238
 30
0.0
 10
12.5273368146
 20
9.8071977917
 30
0.0
 10
12.5248446076
 20
9.8037985927
 30
0.0
 10
12.5223395247
 20
9.8009214774
 30
0.0
 10
12.5201907023
 20
9.7989141995
 30
0.0
 10
12.5184695389
 20
9.7975989814
 30
0.0
 10
12.5168381924
 20
9.7965285867
 30
0.0
 10
12.5151657126
 20
9.795691432
 30
0.0
 10
12.5134716185
 20
9.7951361929
 30
0.0
 10
12.5122330117
 20
9.7948683906
 30
0.0
 10
12.5110013467
 20
9.7947412315
 30
0.0
 10
12.5101836116
 20
9.7947505826
 30
0.0
 10
12.5097792469
 20
9.7947786236
 30
0.0
  0
SPLINE
  5
388
100
AcDbEntity
  8
0
100
AcDbSpline
 62
7
  6
CONTINUOUS
 70
0
 71
3
 72
23
 73
19
 74
0
 42
0.0000001
 43
0.0000001
 44
0.0000000001
 40
0.0
 40
0.0
 40
0.0
 40
0.0
 40
0.0638551967
 40
0.1274913695
 40
0.1909086168
 40
0.2541120483
 40
0.3171072588
 40
0.3799026662
 40
0.4425085118
 40
0.5049370844
 40
0.5672025173
 40
0.6293206779
 40
0.6913090067
 40
0.7531863416
 40
0.8149727217
 40
0.8766891756
 40
0.9383574953
 40
1.0
 40
1.0
 40
1.0
 40
1.0
 10
10.4856752182
 20
8.1226499485
 30
0.0
 10
10.496862994
 20
8.1218740736
 30
0.0
 10
10.5192424858
 20
8.1208766903
 30
0.0
 10
10.5527838832
 20
8.1210543625
 30
0.0
 10
10.5861608477
 20
8.1229079006
 30
0.0
 10
10.6192896027
 20
8.1264327024
 30
0.0
 10
10.6520886344
 20
8.1316202479
 30
0.0
 10
10.6844766708
 20
8.1384577256
 30
0.0
 10
10.7163736192
 20
8.1469283402
 30
0.0
 10
10.7477005367
 20
8.1570112052
 30
0.0
 10
10.7783798909
 20
8.1686814565
 30
0.0
 10
10.8083357392
 20
8.1819102868
 30
0.0
 10
10.8374939185
 20
8.1966650101
 30
0.0
 10
10.8657822548
 20
8.2129091746
 30
0.0
 10
10.8931306415
 20
8.230602555
 30
0.0
 10
10.9194715988
 20
8.249701608
 30
0.0
 10
10.9447390121
 20
8.2701582552
 30
0.0
 10
10.9608301635
 20
8.2846706426
 30
0.0
 10
10.968673451
 20
8.2921329474
 30
0.0
  0
SPLINE
  5
389
100
AcDbEntity
  8
0
100
AcDbSpline
 62
7
  6
CONTINUOUS
 70
0
 71
3
 72
71
 73
67
 74
0
 42
0.0000001
 43
0.0000001
 44
0.0000000001
 40
0.0
 40
0.0
 40
0.0
 40
0.0
 40
0.0156216999
 40
0.0311907601
 40
0.0467067152
 40
0.0621710784
 40
0.077585053
 40
0.0929506336
 40
0.1082702315
 40
0.1235467316
 40
0.138783465
 40
0.1539841696
 40
0.1691529587
 40
0.1842942792
 40
0.1994128685
 40
0.2145137046
 40
0.2296019546
 40
0.2446829194
 40
0.2597619773
 40
0.2748445271
 40
0.2899359306
 40
0.3050414555
 40
0.3201662189
 40
0.3353151329
 40
0.3504928541
 40
0.3657037359
 40
0.3809517858
 40
0.396240626
 40
0.4115734582
 40
0.4269530343
 40
0.4423816324
 40
0.4578610404
 40
0.473392542
 40
0.4889769091
 40
0.5046143984
 40
0.5203047543
 40
0.5360472179
 40
0.5518405389
 40
0.567682992
 40
0.5835723963
 40
0.5995061391
 40
0.6154812041
 40
0.6314942032
 40
0.6475414081
 40
0.6636187857
 40
0.6797220347
 40
0.695846626
 40
0.7119878442
 40
0.7281408286
 40
0.7443006159
 40
0.7604621826
 40
0.7766204897
 40
0.7927705272
 40
0.8089073579
 40
0.8250261591
 40
0.8411222652
 40
0.85719121
 40
0.8732287678
 40
0.8892309905
 40
0.9051942484
 40
0.9211152564
 40
0.9369911048
 40
0.9528193679
 40
0.9685977669
 40
0.9843253049
 40
1.0
 40
1.0
 40
1.0
 40
1.0
 10
10.4856752182
 20
5.8863383681
 30
0.0
 10
10.4940051314
 20
5.8857606866
 30
0.0
 10
10.51066795
 20
5.8850127804
 30
0.0
 10
10.5356424717
 20
5.8851208921
 30
0.0
 10
10.5604977604
 20
5.886460741
 30
0.0
 10
10.5851728901
 20
5.8890289513
 30
0.0
 10
10.6096088208
 20
5.8928195621
 30
0.0
 10
10.6337465105
 20
5.897823442
 30
0.0
 10
10.6575278118
 20
5.9040286089
 30
0.0
 10
10.6808953841
 20
5.9114201436
 30
0.0
 10
10.7037928841
 20
5.9199802766
 30
0.0
 10
10.72616509
 20
5.9296884244
 30
0.0
 10
10.7479580335
 20
5.9405212371
 30
0.0
 10
10.7691191396
 20
5.9524526367
 30
0.0
 10
10.7895973682
 20
5.9654538626
 30
0.0
 10
10.8093433198
 20
5.9794935799
 30
0.0
 10
10.828309357
 20
5.9945379466
 30
0.0
 10
10.8464497191
 20
6.0105506959
 30
0.0
 10
10.8637206323
 20
6.0274932223
 30
0.0
 10
10.8800804509
 20
6.0453246441
 30
0.0
 10
10.8954897293
 20
6.0640019385
 30
0.0
 10
10.9099113161
 20
6.0834800464
 30
0.0
 10
10.9233104444
 20
6.1037119798
 30
0.0
 10
10.9356548078
 20
6.1246489385
 30
0.0
 10
10.9469146761
 20
6.1462404077
 30
0.0
 10
10.9570629516
 20
6.1684342954
 30
0.0
 10
10.9660752141
 20
6.1911770702
 30
0.0
 10
10.9739297839
 20
6.2144138865
 30
0.0
 10
10.9806077657
 20
6.2380887182
 30
0.0
 10
10.9860931132
 20
6.2621444862
 30
0.0
 10
10.9903726861
 20
6.2865231964
 30
0.0
 10
10.9934362391
 20
6.3111660922
 30
0.0
 10
10.9952764518
 20
6.3360137913
 30
0.0
 10
10.9958889426
 20
6.3610064281
 30
0.0
 10
10.9952722789
 20
6.3860837938
 30
0.0
 10
10.9934280238
 20
6.4111854841
 30
0.0
 10
10.9903606861
 20
6.4362510463
 30
0.0
 10
10.9860777078
 20
6.4612201231
 30
0.0
 10
10.9805894481
 20
6.4860325952
 30
0.0
 10
10.9739091503
 20
6.5106287206
 30
0.0
 10
10.9660529504
 20
6.5349492879
 30
0.0
 10
10.9570398179
 20
6.558935758
 30
0.0
 10
10.9468914898
 20
6.5825303972
 30
0.0
 10
10.935632425
 20
6.6056764155
 30
0.0
 10
10.9232897407
 20
6.6283180978
 30
0.0
 10
10.9098931663
 20
6.6504009453
 30
0.0
 10
10.8954749859
 20
6.6718718191
 30
0.0
 10
10.8800699249
 20
6.6926790476
 30
0.0
 10
10.8637150739
 20
6.7127725522
 30
0.0
 10
10.8464497997
 20
6.7321039644
 30
0.0
 10
10.8283156528
 20
6.7506267405
 30
0.0
 10
10.8093562976
 20
6.7682963046
 30
0.0
 10
10.7896173745
 20
6.7850701275
 30
0.0
 10
10.7691463917
 20
6.8009078269
 30
0.0
 10
10.7479926138
 20
6.815771264
 30
0.0
 10
10.726206942
 20
6.8296246282
 30
0.0
 10
10.703841814
 20
6.8424345571
 30
0.0
 10
10.6809510643
 20
6.8541702029
 30
0.0
 10
10.6575897867
 20
6.8648032912
 30
0.0
 10
10.6338142053
 20
6.8743081876
 30
0.0
 10
10.6096815507
 20
6.8826619529
 30
0.0
 10
10.585249877
 20
6.8898444566
 30
0.0
 10
10.5605781382
 20
6.8958382831
 30
0.0
 10
10.5357253298
 20
6.9006291706
 30
0.0
 10
10.5107523066
 20
6.9042051829
 30
0.0
 10
10.4940333899
 20
6.9057764599
 30
0.0
 10
10.4856752182
 20
6.9063561011
 30
0.0
  0
SPLINE
  5
38A
100
AcDbEntity
  8
0
100
AcDbSpline
 62
7
  6
CONTINUOUS
 70
0
 71
3
 72
39
 73
35
 74
0
 42
0.0000001
 43
0.0000001
 44
0.0000000001
 40
0.0
 40
0.0
 40
0.0
 40
0.0
 40
0.0311408439
 40
0.0624342694
 40
0.0938744065
 40
0.1254516552
 40
0.1571539109
 40
0.1889665425
 40
0.2208727414
 40
0.2528538717
 40
0.2848898427
 40
0.3169595069
 40
0.34904107
 40
0.3811125095
 40
0.4131519968
 40
0.4451383164
 40
0.4770512783
 40
0.5088721147
 40
0.540583856
 40
0.5721716831
 40
0.6036232475
 40
0.6349289466
 40
0.6660821571
 40
0.6970794183
 40
0.7279205475
 40
0.7586086928
 40
0.7891503193
 40
0.8195551139
 40
0.8498358127
 40
0.8800079557
 40
0.9100895652
 40
0.9401007523
 40
0.9700632669
 40
1.0
 40
1.0
 40
1.0
 40
1.0
 10
10.4856752182
 20
8.1226499485
 30
0.0
 10
10.469214183
 20
8.1237915252
 30
0.0
 10
10.4362825871
 20
8.1272815003
 30
0.0
 10
10.3872824226
 20
8.1360660008
 30
0.0
 10
10.3388039187
 20
8.1483665983
 30
0.0
 10
10.2911073269
 20
8.1641176094
 30
0.0
 10
10.2444445235
 20
8.1832351096
 30
0.0
 10
10.1990629137
 20
8.2056173979
 30
0.0
 10
10.1552028133
 20
8.2311456261
 30
0.0
 10
10.1130965496
 20
8.2596843287
 30
0.0
 10
10.0729670832
 20
8.291082086
 30
0.0
 10
10.0350269586
 20
8.3251724578
 30
0.0
 10
9.9994771869
 20
8.3617748252
 30
0.0
 10
9.9665060732
 20
8.4006952234
 30
0.0
 10
9.9362883302
 20
8.4417274786
 30
0.0
 10
9.908984204
 20
8.484654297
 30
0.0
 10
9.8847385071
 20
8.5292483123
 30
0.0
 10
9.8636798858
 20
8.5752733176
 30
0.0
 10
9.8459202445
 20
8.6224855461
 30
0.0
 10
9.8315540785
 20
8.6706348962
 30
0.0
 10
9.820657876
 20
8.7194662239
 30
0.0
 10
9.8132898657
 20
8.7687207293
 30
0.0
 10
9.8094896869
 20
8.8181372827
 30
0.0
 10
9.8092779872
 20
8.8674537783
 30
0.0
 10
9.812656442
 20
8.916408538
 30
0.0
 10
9.819607769
 20
8.9647416657
 30
0.0
 10
9.8300956342
 20
9.0121964293
 30
0.0
 10
9.844064855
 20
9.0585206488
 30
0.0
 10
9.8614417578
 20
9.1034679851
 30
0.0
 10
9.8821345393
 20
9.1467993569
 30
0.0
 10
9.9060333146
 20
9.1882839874
 30
0.0
 10
9.9330120279
 20
9.2277017466
 30
0.0
 10
9.9629247016
 20
9.2648400488
 30
0.0
 10
9.9847268565
 20
9.2879579981
 30
0.0
 10
9.9960524531
 20
9.299064365
 30
0.0
  0
SPLINE
  5
38B
100
AcDbEntity
  8
0
100
AcDbSpline
 62
7
  6
CONTINUOUS
 70
0
 71
3
 72
71
 73
67
 74
0
 42
0.0000001
 43
0.0000001
 44
0.0000000001
 40
0.0
 40
0.0
 40
0.0
 40
0.0
 40
0.0156746951
 40
0.0314022331
 40
0.0471806321
 40
0.0630088952
 40
0.0788847436
 40
0.0948057516
 40
0.1107690095
 40
0.1267712322
 40
0.14280879
 40
0.1588777348
 40
0.1749738409
 40
0.1910926421
 40
0.2072294728
 40
0.2233795103
 40
0.2395378174
 40
0.2556993841
 40
0.2718591714
 40
0.2880121558
 40
0.304153374
 40
0.3202779653
 40
0.3363812143
 40
0.3524585919
 40
0.3685057968
 40
0.3845187959
 40
0.4004938609
 40
0.4164276037
 40
0.432317008
 40
0.4481594611
 40
0.4639527821
 40
0.4796952457
 40
0.4953856016
 40
0.5110230909
 40
0.526607458
 40
0.5421389596
 40
0.5576183676
 40
0.5730469657
 40
0.5884265418
 40
0.603759374
 40
0.6190482142
 40
0.6342962641
 40
0.6495071459
 40
0.6646848671
 40
0.6798337811
 40
0.6949585445
 40
0.7100640694
 40
0.7251554729
 40
0.7402380227
 40
0.7553170806
 40
0.7703980454
 40
0.7854862954
 40
0.8005871315
 40
0.8157057208
 40
0.8308470413
 40
0.8460158304
 40
0.861216535
 40
0.8764532684
 40
0.8917297685
 40
0.9070493664
 40
0.922414947
 40
0.9378289216
 40
0.9532932848
 40
0.9688092399
 40
0.9843783001
 40
1.0
 40
1.0
 40
1.0
 40
1.0
 10
10.4856752182
 20
5.8863383681
 30
0.0
 10
10.4773170465
 20
5.8869180092
 30
0.0
 10
10.4605981298
 20
5.8884892863
 30
0.0
 10
10.4356251066
 20
5.8920652985
 30
0.0
 10
10.4107722981
 20
5.8968561861
 30
0.0
 10
10.3861005594
 20
5.9028500125
 30
0.0
 10
10.3616688857
 20
5.9100325162
 30
0.0
 10
10.3375362311
 20
5.9183862815
 30
0.0
 10
10.3137606496
 20
5.927891178
 30
0.0
 10
10.2903993721
 20
5.9385242662
 30
0.0
 10
10.2675086224
 20
5.950259912
 30
0.0
 10
10.2451434944
 20
5.9630698409
 30
0.0
 10
10.2233578226
 20
5.9769232051
 30
0.0
 10
10.2022040447
 20
5.9917866423
 30
0.0
 10
10.1817330618
 20
6.0076243416
 30
0.0
 10
10.1619941387
 20
6.0243981645
 30
0.0
 10
10.1430347836
 20
6.0420677286
 30
0.0
 10
10.1249006367
 20
6.0605905047
 30
0.0
 10
10.1076353625
 20
6.0799219169
 30
0.0
 10
10.0912805115
 20
6.1000154215
 30
0.0
 10
10.0758754504
 20
6.12082265
 30
0.0
 10
10.0614572701
 20
6.1422935238
 30
0.0
 10
10.0480606957
 20
6.1643763713
 30
0.0
 10
10.0357180114
 20
6.1870180536
 30
0.0
 10
10.0244589466
 20
6.2101640719
 30
0.0
 10
10.0143106185
 20
6.2337587111
 30
0.0
 10
10.0052974859
 20
6.2577451812
 30
0.0
 10
9.9974412861
 20
6.2820657486
 30
0.0
 10
9.9907609883
 20
6.3066618739
 30
0.0
 10
9.9852727286
 20
6.331474346
 30
0.0
 10
9.9809897503
 20
6.3564434228
 30
0.0
 10
9.9779224126
 20
6.3815089851
 30
0.0
 10
9.9760781575
 20
6.4066106753
 30
0.0
 10
9.9754614938
 20
6.431688041
 30
0.0
 10
9.9760739846
 20
6.4566806779
 30
0.0
 10
9.9779141973
 20
6.481528377
 30
0.0
 10
9.9809777503
 20
6.5061712727
 30
0.0
 10
9.9852573232
 20
6.530549983
 30
0.0
 10
9.9907426707
 20
6.5546057509
 30
0.0
 10
9.9974206524
 20
6.5782805826
 30
0.0
 10
10.0052752223
 20
6.601517399
 30
0.0
 10
10.0142874848
 20
6.6242601737
 30
0.0
 10
10.0244357603
 20
6.6464540614
 30
0.0
 10
10.0356956285
 20
6.6680455306
 30
0.0
 10
10.048039992
 20
6.6889824893
 30
0.0
 10
10.0614391202
 20
6.7092144227
 30
0.0
 10
10.075860707
 20
6.7286925306
 30
0.0
 10
10.0912699855
 20
6.7473698251
 30
0.0
 10
10.1076298041
 20
6.7652012468
 30
0.0
 10
10.1249007173
 20
6.7821437733
 30
0.0
 10
10.1430410794
 20
6.7981565225
 30
0.0
 10
10.1620071166
 20
6.8132008892
 30
0.0
 10
10.1817530682
 20
6.8272406065
 30
0.0
 10
10.2022312968
 20
6.8402418325
 30
0.0
 10
10.2233924029
 20
6.852173232
 30
0.0
 10
10.2451853464
 20
6.8630060447
 30
0.0
 10
10.2675575523
 20
6.8727141926
 30
0.0
 10
10.2904550522
 20
6.8812743255
 30
0.0
 10
10.3138226246
 20
6.8886658602
 30
0.0
 10
10.3376039259
 20
6.8948710271
 30
0.0
 10
10.3617416156
 20
6.8998749071
 30
0.0
 10
10.3861775463
 20
6.9036655178
 30
0.0
 10
10.410852676
 20
6.9062337281
 30
0.0
 10
10.4357079646
 20
6.907573577
 30
0.0
 10
10.4606824864
 20
6.9076816887
 30
0.0
 10
10.4773453049
 20
6.9069337825
 30
0.0
 10
10.4856752182
 20
6.9063561011
 30
0.0
  0
SPLINE
  5
38C
100
AcDbEntity
  8
0
100
AcDbSpline
 62
7
  6
CONTINUOUS
 70
0
 71
3
 72
21
 73
17
 74
0
 42
0.0000001
 43
0.0000001
 44
0.0000000001
 40
0.0
 40
0.0
 40
0.0
 40
0.0
 40
0.0616098126
 40
0.1232670756
 40
0.1849902853
 40
0.2467973215
 40
0.3087052963
 40
0.3707303906
 40
0.4328876988
 40
0.4951911074
 40
0.5576532013
 40
0.6202851302
 40
0.6830964348
 40
0.7460953604
 40
0.8726443422
 40
1.0
 40
1.0
 40
1.0
 40
1.0
 10
10.9580969471
 20
8.7002223744
 30
0.0
 10
10.9537074403
 20
8.6965613004
 30
0.0
 10
10.9447432717
 20
8.6894511694
 30
0.0
 10
10.9307840374
 20
8.6794552744
 30
0.0
 10
10.9163358928
 20
8.6701455017
 30
0.0
 10
10.9014297886
 20
8.6615417826
 30
0.0
 10
10.8860970748
 20
8.6536621514
 30
0.0
 10
10.8703701189
 20
8.6465232849
 30
0.0
 10
10.8542821081
 20
8.640140208
 30
0.0
 10
10.8378670167
 20
8.6345263201
 30
0.0
 10
10.8211594403
 20
8.6296934508
 30
0.0
 10
10.8041947261
 20
8.6256518212
 30
0.0
 10
10.7870082699
 20
8.6224098414
 30
0.0
 10
10.7638150032
 20
8.6191579671
 30
0.0
 10
10.7344395428
 20
8.6171306945
 30
0.0
 10
10.7108518627
 20
8.6176900583
 30
0.0
 10
10.6990647005
 20
8.6185075008
 30
0.0
  0
SPLINE
  5
38D
100
AcDbEntity
  8
0
100
AcDbSpline
 62
7
  6
CONTINUOUS
 70
0
 71
3
 72
71
 73
67
 74
0
 42
0.0000001
 43
0.0000001
 44
0.0000000001
 40
0.0
 40
0.0
 40
0.0
 40
0.0
 40
0.0156746951
 40
0.0314022331
 40
0.0471806321
 40
0.0630088952
 40
0.0788847436
 40
0.0948057516
 40
0.1107690095
 40
0.1267712322
 40
0.14280879
 40
0.1588777348
 40
0.1749738409
 40
0.1910926421
 40
0.2072294728
 40
0.2233795103
 40
0.2395378174
 40
0.2556993841
 40
0.2718591714
 40
0.2880121558
 40
0.304153374
 40
0.3202779653
 40
0.3363812143
 40
0.3524585919
 40
0.3685057968
 40
0.3845187959
 40
0.4004938609
 40
0.4164276037
 40
0.432317008
 40
0.4481594611
 40
0.4639527821
 40
0.4796952457
 40
0.4953856016
 40
0.5110230909
 40
0.526607458
 40
0.5421389596
 40
0.5576183676
 40
0.5730469657
 40
0.5884265418
 40
0.603759374
 40
0.6190482142
 40
0.6342962641
 40
0.6495071459
 40
0.6646848671
 40
0.6798337811
 40
0.6949585445
 40
0.7100640694
 40
0.7251554729
 40
0.7402380227
 40
0.7553170806
 40
0.7703980454
 40
0.7854862954
 40
0.8005871315
 40
0.8157057208
 40
0.8308470413
 40
0.8460158304
 40
0.861216535
 40
0.8764532684
 40
0.8917297685
 40
0.9070493664
 40
0.922414947
 40
0.9378289216
 40
0.9532932848
 40
0.9688092399
 40
0.9843783001
 40
1.0
 40
1.0
 40
1.0
 40
1.0
 10
10.4856752182
 20
8.2887892005
 30
0.0
 10
10.4773170465
 20
8.2893688417
 30
0.0
 10
10.4605981298
 20
8.2909401187
 30
0.0
 10
10.4356251066
 20
8.2945161309
 30
0.0
 10
10.4107722981
 20
8.2993070185
 30
0.0
 10
10.3861005594
 20
8.305300845
 30
0.0
 10
10.3616688857
 20
8.3124833486
 30
0.0
 10
10.3375362311
 20
8.3208371139
 30
0.0
 10
10.3137606496
 20
8.3303420104
 30
0.0
 10
10.2903993721
 20
8.3409750987
 30
0.0
 10
10.2675086224
 20
8.3527107444
 30
0.0
 10
10.2451434944
 20
8.3655206733
 30
0.0
 10
10.2233578226
 20
8.3793740375
 30
0.0
 10
10.2022040447
 20
8.3942374747
 30
0.0
 10
10.1817330618
 20
8.4100751741
 30
0.0
 10
10.1619941387
 20
8.426848997
 30
0.0
 10
10.1430347836
 20
8.444518561
 30
0.0
 10
10.1249006367
 20
8.4630413372
 30
0.0
 10
10.1076353625
 20
8.4823727494
 30
0.0
 10
10.0912805115
 20
8.5024662539
 30
0.0
 10
10.0758754504
 20
8.5232734824
 30
0.0
 10
10.0614572701
 20
8.5447443562
 30
0.0
 10
10.0480606957
 20
8.5668272038
 30
0.0
 10
10.0357180114
 20
8.589468886
 30
0.0
 10
10.0244589466
 20
8.6126149043
 30
0.0
 10
10.0143106185
 20
8.6362095435
 30
0.0
 10
10.0052974859
 20
8.6601960137
 30
0.0
 10
9.9974412861
 20
8.684516581
 30
0.0
 10
9.9907609883
 20
8.7091127064
 30
0.0
 10
9.9852727286
 20
8.7339251784
 30
0.0
 10
9.9809897503
 20
8.7588942553
 30
0.0
 10
9.9779224126
 20
8.7839598175
 30
0.0
 10
9.9760781575
 20
8.8090615077
 30
0.0
 10
9.9754614938
 20
8.8341388735
 30
0.0
 10
9.9760739846
 20
8.8591315103
 30
0.0
 10
9.9779141973
 20
8.8839792094
 30
0.0
 10
9.9809777503
 20
8.9086221051
 30
0.0
 10
9.9852573232
 20
8.9330008154
 30
0.0
 10
9.9907426707
 20
8.9570565834
 30
0.0
 10
9.9974206524
 20
8.9807314151
 30
0.0
 10
10.0052752223
 20
9.0039682314
 30
0.0
 10
10.0142874848
 20
9.0267110062
 30
0.0
 10
10.0244357603
 20
9.0489048939
 30
0.0
 10
10.0356956285
 20
9.070496363
 30
0.0
 10
10.048039992
 20
9.0914333218
 30
0.0
 10
10.0614391202
 20
9.1116652551
 30
0.0
 10
10.075860707
 20
9.1311433631
 30
0.0
 10
10.0912699855
 20
9.1498206575
 30
0.0
 10
10.1076298041
 20
9.1676520792
 30
0.0
 10
10.1249007173
 20
9.1845946057
 30
0.0
 10
10.1430410794
 20
9.200607355
 30
0.0
 10
10.1620071166
 20
9.2156517216
 30
0.0
 10
10.1817530682
 20
9.229691439
 30
0.0
 10
10.2022312968
 20
9.2426926649
 30
0.0
 10
10.2233924029
 20
9.2546240645
 30
0.0
 10
10.2451853464
 20
9.2654568771
 30
0.0
 10
10.2675575523
 20
9.275165025
 30
0.0
 10
10.2904550522
 20
9.283725158
 30
0.0
 10
10.3138226246
 20
9.2911166926
 30
0.0
 10
10.3376039259
 20
9.2973218596
 30
0.0
 10
10.3617416156
 20
9.3023257395
 30
0.0
 10
10.3861775463
 20
9.3061163503
 30
0.0
 10
10.410852676
 20
9.3086845605
 30
0.0
 10
10.4357079646
 20
9.3100244094
 30
0.0
 10
10.4606824864
 20
9.3101325212
 30
0.0
 10
10.4773453049
 20
9.3093846149
 30
0.0
 10
10.4856752182
 20
9.3088069335
 30
0.0
  0
SPLINE
  5
38E
100
AcDbEntity
  8
0
100
AcDbSpline
 62
7
  6
CONTINUOUS
 70
0
 71
3
 72
39
 73
35
 74
0
 42
0.0000001
 43
0.0000001
 44
0.0000000001
 40
0.0
 40
0.0
 40
0.0
 40
0.0
 40
0.0311450462
 40
0.0624431052
 40
0.093888346
 40
0.1254709894
 40
0.1571788841
 40
0.1889972607
 40
0.2209091756
 40
0.252895844
 40
0.2849370232
 40
0.3170114137
 40
0.349097074
 40
0.3811718446
 40
0.4132137767
 40
0.4452015559
 40
0.4771149183
 40
0.5089350511
 40
0.5406449736
 40
0.5722298924
 40
0.6036775218
 40
0.6349783627
 40
0.666125935
 40
0.697116956
 40
0.7279514587
 40
0.7586328412
 40
0.7891678426
 40
0.819566443
 40
0.8498416848
 40
0.8800094168
 40
0.9100879629
 40
0.9400977196
 40
0.9700606951
 40
1.0
 40
1.0
 40
1.0
 40
1.0
 10
10.4970632468
 20
8.342289931
 30
0.0
 10
10.4856471267
 20
8.3430816416
 30
0.0
 10
10.4628082546
 20
8.3455045616
 30
0.0
 10
10.4288268345
 20
8.3516079984
 30
0.0
 10
10.3952093904
 20
8.3601570409
 30
0.0
 10
10.3621374667
 20
8.3711057666
 30
0.0
 10
10.329786777
 20
8.384395467
 30
0.0
 10
10.2983298926
 20
8.399955083
 30
0.0
 10
10.2679343895
 20
8.417701454
 30
0.0
 10
10.2387622252
 20
8.4375398139
 30
0.0
 10
10.210968826
 20
8.4593643038
 30
0.0
 10
10.1847022873
 20
8.4830585277
 30
0.0
 10
10.1601025931
 20
8.5084961708
 30
0.0
 10
10.1373008695
 20
8.5355416529
 30
0.0
 10
10.1164186711
 20
8.5640508324
 30
0.0
 10
10.0975673697
 20
8.5938717948
 30
0.0
 10
10.0808475618
 20
8.6248456468
 30
0.0
 10
10.0663485377
 20
8.656807352
 30
0.0
 10
10.0541478103
 20
8.689586598
 30
0.0
 10
10.04431066
 20
8.7230086772
 30
0.0
 10
10.0368898172
 20
8.7568954244
 30
0.0
 10
10.0319251825
 20
8.7910661514
 30
0.0
 10
10.0294436022
 20
8.825338595
 30
0.0
 10
10.0294587217
 20
8.8595298755
 30
0.0
 10
10.0319708618
 20
8.8934574602
 30
0.0
 10
10.0369670046
 20
8.9269401379
 30
0.0
 10
10.0444208691
 20
8.9597989787
 30
0.0
 10
10.0542930262
 20
8.9918582928
 30
0.0
 10
10.0665310734
 20
9.0229465573
 30
0.0
 10
10.0810699419
 20
9.0528974061
 30
0.0
 10
10.0978319743
 20
9.081550341
 30
0.0
 10
10.1167281998
 20
9.1087523948
 30
0.0
 10
10.1376557121
 20
9.1343560075
 30
0.0
 10
10.1528937188
 20
9.1502746962
 30
0.0
 10
10.1608058868
 20
9.1579172732
 30
0.0
  0
SPLINE
  5
38F
100
AcDbEntity
  8
0
100
AcDbSpline
 62
7
  6
CONTINUOUS
 70
0
 71
3
 72
42
 73
38
 74
0
 42
0.0000001
 43
0.0000001
 44
0.0000000001
 40
0.0
 40
0.0
 40
0.0
 40
0.0
 40
0.0311030991
 40
0.0467131204
 40
0.0623594931
 40
0.0937542931
 40
0.1252832296
 40
0.1569351415
 40
0.1886964037
 40
0.2205513799
 40
0.2524826856
 40
0.2844715325
 40
0.3164980784
 40
0.3485417938
 40
0.3805818371
 40
0.412597434
 40
0.4445682546
 40
0.4764747866
 40
0.5082986966
 40
0.5400231764
 40
0.571633269
 40
0.6031161673
 40
0.6344614827
 40
0.6656614747
 40
0.6967112373
 40
0.7276088361
 40
0.7583553904
 40
0.788955095
 40
0.8194151789
 40
0.8497457968
 40
0.8648690973
 40
0.8799650892
 40
0.9100779929
 40
0.9401073536
 40
0.9550994019
 40
0.9700779821
 40
1.0
 40
1.0
 40
1.0
 40
1.0
 10
10.6990647005
 20
8.6185075008
 30
0.0
 10
10.6899045579
 20
8.6191427589
 30
0.0
 10
10.6761746425
 20
8.6205846294
 30
0.0
 10
10.6579890191
 20
8.6234639991
 30
0.0
 10
10.6398292779
 20
8.6269907771
 30
0.0
 10
10.6173008789
 20
8.6325955999
 30
0.0
 10
10.5907127104
 20
8.6411862411
 30
0.0
 10
10.5646699477
 20
8.651606566
 30
0.0
 10
10.5393042165
 20
8.6638039154
 30
0.0
 10
10.5147427216
 20
8.677716872
 30
0.0
 10
10.4911088911
 20
8.6932754016
 30
0.0
 10
10.468521417
 20
8.710401243
 30
0.0
 10
10.4470937617
 20
8.7290082901
 30
0.0
 10
10.4269335632
 20
8.7490030191
 30
0.0
 10
10.4081421082
 20
8.7702849566
 30
0.0
 10
10.3908138283
 20
8.7927471829
 30
0.0
 10
10.3750358302
 20
8.8162768632
 30
0.0
 10
10.3608874612
 20
8.840755809
 30
0.0
 10
10.3484399136
 20
8.8660610644
 30
0.0
 10
10.3377558681
 20
8.8920655171
 30
0.0
 10
10.3288891797
 20
8.9186385287
 30
0.0
 10
10.3218846064
 20
8.9456465831
 30
0.0
 10
10.3167775784
 20
8.972953947
 30
0.0
 10
10.3135940119
 20
9.0004233461
 30
0.0
 10
10.3123501766
 20
9.0279166407
 30
0.0
 10
10.3130526147
 20
9.0552955405
 30
0.0
 10
10.3156980559
 20
9.0824221899
 30
0.0
 10
10.3202735754
 20
9.1091602395
 30
0.0
 10
10.3267560708
 20
9.1353741165
 30
0.0
 10
10.3337284631
 20
9.1566963556
 30
0.0
 10
10.3402229063
 20
9.1733539934
 30
0.0
 10
10.3473071854
 20
9.1896994795
 30
0.0
 10
10.3572769039
 20
9.2095725945
 30
0.0
 10
10.3686963993
 20
9.2286140258
 30
0.0
 10
10.3786550837
 20
9.2432670713
 30
0.0
 10
10.3891416979
 20
9.2575066149
 30
0.0
 10
10.3976067529
 20
9.2677288147
 30
0.0
 10
10.4034953781
 20
9.2743132109
 30
0.0
  0
SPLINE
  5
390
100
AcDbEntity
  8
0
100
AcDbSpline
 62
7
  6
CONTINUOUS
 70
0
 71
3
 72
39
 73
35
 74
0
 42
0.0000001
 43
0.0000001
 44
0.0000000001
 40
0.0
 40
0.0
 40
0.0
 40
0.0
 40
0.0311450462
 40
0.0624431052
 40
0.093888346
 40
0.1254709894
 40
0.1571788841
 40
0.1889972607
 40
0.2209091756
 40
0.252895844
 40
0.2849370232
 40
0.3170114137
 40
0.349097074
 40
0.3811718446
 40
0.4132137767
 40
0.4452015559
 40
0.4771149183
 40
0.5089350511
 40
0.5406449736
 40
0.5722298924
 40
0.6036775218
 40
0.6349783627
 40
0.666125935
 40
0.697116956
 40
0.7279514587
 40
0.7586328412
 40
0.7891678426
 40
0.819566443
 40
0.8498416848
 40
0.8800094168
 40
0.9100879629
 40
0.9400977196
 40
0.9700606951
 40
1.0
 40
1.0
 40
1.0
 40
1.0
 10
10.4970632468
 20
5.9398390985
 30
0.0
 10
10.4856471267
 20
5.9406308091
 30
0.0
 10
10.4628082546
 20
5.9430537291
 30
0.0
 10
10.4288268345
 20
5.949157166
 30
0.0
 10
10.3952093904
 20
5.9577062085
 30
0.0
 10
10.3621374667
 20
5.9686549341
 30
0.0
 10
10.329786777
 20
5.9819446346
 30
0.0
 10
10.2983298926
 20
5.9975042506
 30
0.0
 10
10.2679343895
 20
6.0152506216
 30
0.0
 10
10.2387622252
 20
6.0350889815
 30
0.0
 10
10.210968826
 20
6.0569134714
 30
0.0
 10
10.1847022873
 20
6.0806076953
 30
0.0
 10
10.1601025931
 20
6.1060453384
 30
0.0
 10
10.1373008695
 20
6.1330908205
 30
0.0
 10
10.1164186711
 20
6.1615999999
 30
0.0
 10
10.0975673697
 20
6.1914209623
 30
0.0
 10
10.0808475618
 20
6.2223948143
 30
0.0
 10
10.0663485377
 20
6.2543565196
 30
0.0
 10
10.0541478103
 20
6.2871357655
 30
0.0
 10
10.04431066
 20
6.3205578448
 30
0.0
 10
10.0368898172
 20
6.354444592
 30
0.0
 10
10.0319251825
 20
6.388615319
 30
0.0
 10
10.0294436022
 20
6.4228877626
 30
0.0
 10
10.0294587217
 20
6.457079043
 30
0.0
 10
10.0319708618
 20
6.4910066278
 30
0.0
 10
10.0369670046
 20
6.5244893055
 30
0.0
 10
10.0444208691
 20
6.5573481463
 30
0.0
 10
10.0542930262
 20
6.5894074603
 30
0.0
 10
10.0665310734
 20
6.6204957249
 30
0.0
 10
10.0810699419
 20
6.6504465737
 30
0.0
 10
10.0978319743
 20
6.6790995086
 30
0.0
 10
10.1167281998
 20
6.7063015624
 30
0.0
 10
10.1376557121
 20
6.731905175
 30
0.0
 10
10.1528937188
 20
6.7478238638
 30
0.0
 10
10.1608058868
 20
6.7554664408
 30
0.0
  0
SPLINE
  5
391
100
AcDbEntity
  8
0
100
AcDbSpline
 62
7
  6
CONTINUOUS
 70
0
 71
3
 72
23
 73
19
 74
0
 42
0.0000001
 43
0.0000001
 44
0.0000000001
 40
0.0
 40
0.0
 40
0.0
 40
0.0
 40
0.0616482082
 40
0.1233194433
 40
0.1850364753
 40
0.2468215633
 40
0.3086962098
 40
0.3706809249
 40
0.4327950058
 40
0.4950563324
 40
0.5574811837
 40
0.6200840682
 40
0.6828776059
 40
0.7458723334
 40
0.8090768587
 40
0.8724970864
 40
0.9361379291
 40
1.0
 40
1.0
 40
1.0
 40
1.0
 10
10.9686853695
 20
5.8896694466
 30
0.0
 10
10.9608299222
 20
5.8820816596
 30
0.0
 10
10.9447045282
 20
5.8673227781
 30
0.0
 10
10.9193566765
 20
5.8465121975
 30
0.0
 10
10.8929081151
 20
5.8270771659
 30
0.0
 10
10.8654263934
 20
5.8090674981
 30
0.0
 10
10.8369805342
 20
5.7925283044
 30
0.0
 10
10.8076422915
 20
5.7775012721
 30
0.0
 10
10.7774855833
 20
5.7640241836
 30
0.0
 10
10.7465864036
 20
5.7521309254
 30
0.0
 10
10.7150226014
 20
5.7418513801
 30
0.0
 10
10.6828736871
 20
5.7332113517
 30
0.0
 10
10.6502206431
 20
5.7262325233
 30
0.0
 10
10.6171456619
 20
5.7209323519
 30
0.0
 10
10.5837321424
 20
5.7173241408
 30
0.0
 10
10.5500638039
 20
5.7154168036
 30
0.0
 10
10.5162266109
 20
5.7152151072
 30
0.0
 10
10.4936490937
 20
5.7162163792
 30
0.0
 10
10.482362337
 20
5.7169991184
 30
0.0
  0
SPLINE
  5
392
100
AcDbEntity
  8
0
100
AcDbSpline
 62
7
  6
CONTINUOUS
 70
0
 71
3
 72
36
 73
32
 74
0
 42
0.0000001
 43
0.0000001
 44
0.0000000001
 40
0.0
 40
0.0
 40
0.0
 40
0.0
 40
0.084039477
 40
0.1695103585
 40
0.2553560057
 40
0.340511238
 40
0.4239223757
 40
0.5045636384
 40
0.5435382671
 40
0.5814572504
 40
0.6182079766
 40
0.6536829341
 40
0.6877805404
 40
0.7204057561
 40
0.7514708524
 40
0.7808965051
 40
0.808613118
 40
0.8345621594
 40
0.858698135
 40
0.8809915133
 40
0.9014325509
 40
0.9200366324
 40
0.9368523647
 40
0.9519735562
 40
0.9589483805
 40
0.9655643882
 40
0.9778450686
 40
0.983606525
 40
0.9891794977
 40
0.9946228116
 40
1.0
 40
1.0
 40
1.0
 40
1.0
 10
12.5651460431
 20
6.9144114786
 30
0.0
 10
12.5651460431
 20
6.9080765315
 30
0.0
 10
12.5649472472
 20
6.8952980056
 30
0.0
 10
12.5640845627
 20
6.8760659268
 30
0.0
 10
12.5626647853
 20
6.8567824476
 30
0.0
 10
12.5607067371
 20
6.8377021928
 30
0.0
 10
12.5582364127
 20
6.8190771129
 30
0.0
 10
12.5557512861
 20
6.8039728874
 30
0.0
 10
12.5535225425
 20
6.7923083019
 30
0.0
 10
12.5517642949
 20
6.7839235899
 30
0.0
 10
12.5499063252
 20
6.7758308322
 30
0.0
 10
12.5479547743
 20
6.7680567363
 30
0.0
 10
12.5459161669
 20
6.7606269472
 30
0.0
 10
12.5437973008
 20
6.7535659408
 30
0.0
 10
12.5416052348
 20
6.7468969509
 30
0.0
 10
12.5393472678
 20
6.7406418643
 30
0.0
 10
12.5370309317
 20
6.7348211215
 30
0.0
 10
12.534663916
 20
6.7294536412
 30
0.0
 10
12.5322540134
 20
6.7245567394
 30
0.0
 10
12.52980905
 20
6.7201459807
 30
0.0
 10
12.5273368146
 20
6.7162351486
 30
0.0
 10
12.5248446076
 20
6.7128359497
 30
0.0
 10
12.5223395247
 20
6.7099588343
 30
0.0
 10
12.5201907023
 20
6.7079515565
 30
0.0
 10
12.5184695389
 20
6.7066363383
 30
0.0
 10
12.5168381924
 20
6.7055659437
 30
0.0
 10
12.5151657126
 20
6.704728789
 30
0.0
 10
12.5134716185
 20
6.7041735499
 30
0.0
 10
12.5122330117
 20
6.7039057476
 30
0.0
 10
12.5110013467
 20
6.7037785885
 30
0.0
 10
12.5101836116
 20
6.7037879395
 30
0.0
 10
12.5097792469
 20
6.7038159806
 30
0.0
  0
SPLINE
  5
393
100
AcDbEntity
  8
0
100
AcDbSpline
 62
7
  6
CONTINUOUS
 70
0
 71
3
 72
41
 73
37
 74
0
 42
0.0000001
 43
0.0000001
 44
0.0000000001
 40
0.0
 40
0.0
 40
0.0
 40
0.0
 40
0.0309552856
 40
0.062044163
 40
0.0932624089
 40
0.1246034294
 40
0.1560589052
 40
0.1876186829
 40
0.2192710436
 40
0.2510028624
 40
0.2827998259
 40
0.3146466505
 40
0.3465273142
 40
0.3784252959
 40
0.4103238195
 40
0.4422061009
 40
0.4740555953
 40
0.5058562411
 40
0.5375927002
 40
0.5692505895
 40
0.6008167028
 40
0.6322792192
 40
0.6636278959
 40
0.6948542417
 40
0.7259516686
 40
0.7569156183
 40
0.78774366
 40
0.818435558
 40
0.8489933039
 40
0.8642251311
 40
0.8794251882
 40
0.9097294601
 40
0.9399186935
 40
0.954975475
 40
0.9700075842
 40
1.0
 40
1.0
 40
1.0
 40
1.0
 10
10.6865186314
 20
8.5252897908
 30
0.0
 10
10.6765507835
 20
8.5259810634
 30
0.0
 10
10.6566105439
 20
8.5280032759
 30
0.0
 10
10.6268928466
 20
8.5329226209
 30
0.0
 10
10.5974176717
 20
8.5397147472
 30
0.0
 10
10.5683065275
 20
8.5483517833
 30
0.0
 10
10.5396774411
 20
8.5587984208
 30
0.0
 10
10.5116469758
 20
8.5710120279
 30
0.0
 10
10.4843291088
 20
8.5849427892
 30
0.0
 10
10.4578349473
 20
8.6005339352
 30
0.0
 10
10.4322722331
 20
8.6177219603
 30
0.0
 10
10.4077449221
 20
8.6364368858
 30
0.0
 10
10.3843527616
 20
8.656602541
 30
0.0
 10
10.3621908892
 20
8.6781368723
 30
0.0
 10
10.3413494483
 20
8.7009522744
 30
0.0
 10
10.321913225
 20
8.7249559441
 30
0.0
 10
10.3039613052
 20
8.7500502552
 30
0.0
 10
10.2875667552
 20
8.7761331519
 30
0.0
 10
10.2727963261
 20
8.8030985607
 30
0.0
 10
10.2597101832
 20
8.8308368177
 30
0.0
 10
10.2483616625
 20
8.8592351109
 30
0.0
 10
10.238797053
 20
8.8881779334
 30
0.0
 10
10.2310554087
 20
8.917547551
 30
0.0
 10
10.225168386
 20
8.9472244689
 30
0.0
 10
10.2211601174
 20
8.9770879383
 30
0.0
 10
10.2190470932
 20
9.0070163495
 30
0.0
 10
10.2188381498
 20
9.0368880676
 30
0.0
 10
10.2205342028
 20
9.066580644
 30
0.0
 10
10.2235332057
 20
9.0911036242
 30
0.0
 10
10.2268766386
 20
9.110507025
 30
0.0
 10
10.2308365192
 20
9.1297105616
 30
0.0
 10
10.2369476471
 20
9.1533858636
 30
0.0
 10
10.244598809
 20
9.1765608204
 30
0.0
 10
10.2516174131
 20
9.194711044
 30
0.0
 10
10.2592142411
 20
9.2125570656
 30
0.0
 10
10.2655787195
 20
9.2256385381
 30
0.0
 10
10.2701061628
 20
9.2341956334
 30
0.0
  0
SPLINE
  5
394
100
AcDbEntity
  8
0
100
AcDbSpline
 62
7
  6
CONTINUOUS
 70
0
 71
3
 72
23
 73
19
 74
0
 42
0.0000001
 43
0.0000001
 44
0.0000000001
 40
0.0
 40
0.0
 40
0.0
 40
0.0
 40
0.0638615549
 40
0.1275031865
 40
0.1909230463
 40
0.2541276772
 40
0.3171223954
 40
0.3799159295
 40
0.4425188203
 40
0.5049436672
 40
0.5672049938
 40
0.6293190755
 40
0.6913037924
 40
0.7531784389
 40
0.8149635253
 40
0.8766805554
 40
0.9383517902
 40
1.0
 40
1.0
 40
1.0
 40
1.0
 10
10.4970632468
 20
5.9398390985
 30
0.0
 10
10.5048671612
 20
5.9392978952
 30
0.0
 10
10.5204779185
 20
5.9386056116
 30
0.0
 10
10.5438738838
 20
5.938745025
 30
0.0
 10
10.5671531719
 20
5.9400638521
 30
0.0
 10
10.5902561788
 20
5.9425586295
 30
0.0
 10
10.6131251546
 20
5.9462233045
 30
0.0
 10
10.6357023777
 20
5.9510486553
 30
0.0
 10
10.6579310302
 20
5.9570226148
 30
0.0
 10
10.6797551211
 20
5.9641301782
 30
0.0
 10
10.7011196774
 20
5.9723534954
 30
0.0
 10
10.7219708731
 20
5.9816719099
 30
0.0
 10
10.7422561589
 20
5.992062002
 30
0.0
 10
10.7619244196
 20
6.0034976566
 30
0.0
 10
10.7809260512
 20
6.0159500331
 30
0.0
 10
10.7992133356
 20
6.0293879356
 30
0.0
 10
10.8167395617
 20
6.0437769288
 30
0.0
 10
10.8278891325
 20
6.0539816037
 30
0.0
 10
10.8333206068
 20
6.0592280115
 30
0.0
  0
SPLINE
  5
395
100
AcDbEntity
  8
0
100
AcDbSpline
 62
7
  6
CONTINUOUS
 70
0
 71
3
 72
42
 73
38
 74
0
 42
0.0000001
 43
0.0000001
 44
0.0000000001
 40
0.0
 40
0.0
 40
0.0
 40
0.0
 40
0.0310059246
 40
0.0465632925
 40
0.0621545665
 40
0.0934331586
 40
0.1248384213
 40
0.1563611543
 40
0.1879901009
 40
0.2197122989
 40
0.2515132634
 40
0.2833772438
 40
0.3152874806
 40
0.3472264784
 40
0.379176285
 40
0.4111187774
 40
0.4430359481
 40
0.474910191
 40
0.5067245833
 40
0.5384631583
 40
0.5701111686
 40
0.6016553342
 40
0.6330840726
 40
0.6643877077
 40
0.6955586523
 40
0.7265915625
 40
0.7574834576
 40
0.7882338039
 40
0.8188445574
 40
0.8493201634
 40
0.8645115625
 40
0.8796719591
 40
0.9099002831
 40
0.9400210279
 40
0.9550474847
 40
0.9700522483
 40
1.0
 40
1.0
 40
1.0
 40
1.0
 10
10.6906428752
 20
6.1534822265
 30
0.0
 10
10.6808896122
 20
6.1541586176
 30
0.0
 10
10.6662703443
 20
6.1556589734
 30
0.0
 10
10.6468931877
 20
6.1586115453
 30
0.0
 10
10.6275370062
 20
6.1622081593
 30
0.0
 10
10.6035005987
 20
6.1678951697
 30
0.0
 10
10.5750732617
 20
6.1765810572
 30
0.0
 10
10.5471527824
 20
6.1870980169
 30
0.0
 10
10.519862142
 20
6.1993997342
 30
0.0
 10
10.493320617
 20
6.2134322289
 30
0.0
 10
10.467644447
 20
6.2291339406
 30
0.0
 10
10.4429460105
 20
6.2464360315
 30
0.0
 10
10.4193334253
 20
6.2652626801
 30
0.0
 10
10.3969100558
 20
6.285531412
 30
0.0
 10
10.3757740715
 20
6.307153459
 30
0.0
 10
10.3560180187
 20
6.3300341447
 30
0.0
 10
10.3377284194
 20
6.3540732957
 30
0.0
 10
10.3209853934
 20
6.3791656753
 30
0.0
 10
10.3058623104
 20
6.405201441
 30
0.0
 10
10.2924254713
 20
6.4320666218
 30
0.0
 10
10.2807338188
 20
6.4596436115
 30
0.0
 10
10.2708386799
 20
6.4878116789
 30
0.0
 10
10.2627835405
 20
6.5164474895
 30
0.0
 10
10.2566038533
 20
6.5454256421
 30
0.0
 10
10.2523268789
 20
6.5746192038
 30
0.0
 10
10.2499715678
 20
6.6039002872
 30
0.0
 10
10.2495484481
 20
6.6331405064
 30
0.0
 10
10.2510596627
 20
6.6622118977
 30
0.0
 10
10.2544986135
 20
6.6909861322
 30
0.0
 10
10.2589639911
 20
6.7146401441
 30
0.0
 10
10.2634828863
 20
6.733283437
 30
0.0
 10
10.268616326
 20
6.7516860543
 30
0.0
 10
10.2761929252
 20
6.774278956
 30
0.0
 10
10.2853000102
 20
6.7962540765
 30
0.0
 10
10.2934701669
 20
6.8133750459
 30
0.0
 10
10.3022083881
 20
6.8301507546
 30
0.0
 10
10.3094161661
 20
6.8423734718
 30
0.0
 10
10.3144968721
 20
6.850333197
 30
0.0
  0
SPLINE
  5
396
100
AcDbEntity
  8
0
100
AcDbSpline
 62
7
  6
CONTINUOUS
 70
0
 71
3
 72
15
 73
11
 74
0
 42
0.0000001
 43
0.0000001
 44
0.0000000001
 40
0.0
 40
0.0
 40
0.0
 40
0.0
 40
0.1232966715
 40
0.2469580152
 40
0.371058807
 40
0.495663764
 40
0.6208261055
 40
0.746587031
 40
0.8729728354
 40
1.0
 40
1.0
 40
1.0
 40
1.0
 10
10.9334675997
 20
6.209545739
 30
0.0
 10
10.9245154103
 20
6.2042585901
 30
0.0
 10
10.9061650728
 20
6.1943614147
 30
0.0
 10
10.8775351836
 20
6.1816654334
 30
0.0
 10
10.8479110923
 20
6.1711633162
 30
0.0
 10
10.8174526944
 20
6.1629119239
 30
0.0
 10
10.7863217174
 20
6.1569544151
 30
0.0
 10
10.7546834698
 20
6.1533223051
 30
0.0
 10
10.7227082571
 20
6.1520342068
 30
0.0
 10
10.701328686
 20
6.152741163
 30
0.0
 10
10.6906428752
 20
6.1534822265
 30
0.0
  0
SPLINE
  5
397
100
AcDbEntity
  8
0
100
AcDbSpline
 62
7
  6
CONTINUOUS
 70
0
 71
3
 72
39
 73
35
 74
0
 42
0.0000001
 43
0.0000001
 44
0.0000000001
 40
0.0
 40
0.0
 40
0.0
 40
0.0
 40
0.0311450333
 40
0.0624431288
 40
0.0938883325
 40
0.1254709893
 40
0.1571788812
 40
0.1889972568
 40
0.2209091708
 40
0.2528958386
 40
0.2849370172
 40
0.3170114072
 40
0.3490970669
 40
0.3811718372
 40
0.413213769
 40
0.4452015481
 40
0.4771149106
 40
0.5089350428
 40
0.5406449654
 40
0.5722298856
 40
0.6036775156
 40
0.6349783564
 40
0.6661259294
 40
0.6971169509
 40
0.7279514545
 40
0.7586328388
 40
0.7891678409
 40
0.8195664412
 40
0.8498416838
 40
0.8800094165
 40
0.9100879631
 40
0.9400977203
 40
0.9700606956
 40
1.0
 40
1.0
 40
1.0
 40
1.0
 10
10.482362337
 20
8.1194499508
 30
0.0
 10
10.4658514323
 20
8.120594986
 30
0.0
 10
10.4328200066
 20
8.1240992215
 30
0.0
 10
10.3836733437
 20
8.1329264686
 30
0.0
 10
10.3350530812
 20
8.145290776
 30
0.0
 10
10.2872218207
 20
8.161125713
 30
0.0
 10
10.2404336542
 20
8.180346369
 30
0.0
 10
10.1949381617
 20
8.2028499013
 30
0.0
 10
10.1509777363
 20
8.228516126
 30
0.0
 10
10.1087866005
 20
8.2572079493
 30
0.0
 10
10.0685895311
 20
8.2887722585
 30
0.0
 10
10.0306007629
 20
8.3230407673
 30
0.0
 10
9.9950227093
 20
8.3598307345
 30
0.0
 10
9.9620449781
 20
8.3989460496
 30
0.0
 10
9.9318434495
 20
8.4401783109
 30
0.0
 10
9.904579178
 20
8.4833077843
 30
0.0
 10
9.8803976196
 20
8.5281046472
 30
0.0
 10
9.8594279673
 20
8.5743302394
 30
0.0
 10
9.8417822775
 20
8.6217382161
 30
0.0
 10
9.827554938
 20
8.6700759
 30
0.0
 10
9.8168222951
 20
8.7190856383
 30
0.0
 10
9.8096420433
 20
8.7685060943
 30
0.0
 10
9.8060529493
 20
8.8180736581
 30
0.0
 10
9.8060747874
 20
8.8675238411
 30
0.0
 10
9.8097080192
 20
8.9165926477
 30
0.0
 10
9.816933781
 20
8.9650180017
 30
0.0
 10
9.8277141305
 20
9.012541111
 30
0.0
 10
9.8419920435
 20
9.05890787
 30
0.0
 10
9.8596916484
 20
9.1038702367
 30
0.0
 10
9.8807188752
 20
9.1471875932
 30
0.0
 10
9.9049614517
 20
9.1886277883
 30
0.0
 10
9.9322906441
 20
9.2279696225
 30
0.0
 10
9.9625576726
 20
9.2649996477
 30
0.0
 10
9.9845960892
 20
9.2880225512
 30
0.0
 10
9.9960393045
 20
9.2990758596
 30
0.0
  0
SPLINE
  5
398
100
AcDbEntity
  8
0
100
AcDbSpline
 62
7
  6
CONTINUOUS
 70
0
 71
3
 72
32
 73
28
 74
0
 42
0.0000001
 43
0.0000001
 44
0.0000000001
 40
0.0
 40
0.0
 40
0.0
 40
0.0
 40
0.0126611774
 40
0.0256298199
 40
0.0391904615
 40
0.0535892497
 40
0.0690269367
 40
0.0856610084
 40
0.1036099491
 40
0.1229608929
 40
0.143774547
 40
0.1660915428
 40
0.1899353405
 40
0.2153164908
 40
0.2422340212
 40
0.2706781842
 40
0.300631083
 40
0.3320684159
 40
0.3649598281
 40
0.3992699628
 40
0.4719786899
 40
0.5498313613
 40
0.6324054861
 40
0.7192324275
 40
0.8098050997
 40
0.9035829078
 40
1.0
 40
1.0
 40
1.0
 40
1.0
 10
12.5331356018
 20
10.1315696843
 30
0.0
 10
12.5337075007
 20
10.1315300255
 30
0.0
 10
12.5348606836
 20
10.1313542586
 30
0.0
 10
12.5365561905
 20
10.1308083685
 30
0.0
 10
12.5382221862
 20
10.1299826582
 30
0.0
 10
12.5398552725
 20
10.1288808761
 30
0.0
 10
12.5414540235
 20
10.1275066547
 30
0.0
 10
12.5430168681
 20
10.1258629495
 30
0.0
 10
12.5445424155
 20
10.1239527646
 30
0.0
 10
12.5460288155
 20
10.1217790533
 30
0.0
 10
12.5474742427
 20
10.119345212
 30
0.0
 10
12.5488765485
 20
10.1166549408
 30
0.0
 10
12.5502337002
 20
10.113712461
 30
0.0
 10
12.5515434994
 20
10.110522393
 30
0.0
 10
12.5528039046
 20
10.1070898426
 30
0.0
 10
12.5540128129
 20
10.1034203252
 30
0.0
 10
12.5551682772
 20
10.0995197909
 30
0.0
 10
12.5562683501
 20
10.0953945876
 30
0.0
 10
12.5573112586
 20
10.0910514479
 30
0.0
 10
12.55864912
 20
10.0848590079
 30
0.0
 10
12.5601537108
 20
10.0766222968
 30
0.0
 10
12.5616740789
 20
10.0661745295
 30
0.0
 10
12.562931897
 20
10.0550485273
 30
0.0
 10
12.5639186278
 20
10.0433174196
 30
0.0
 10
12.5646274707
 20
10.0310582262
 30
0.0
 10
12.565053566
 20
10.0183516681
 30
0.0
 10
12.5651460431
 20
10.0097396917
 30
0.0
 10
12.5651460431
 20
10.0053741216
 30
0.0
  0
SPLINE
  5
399
100
AcDbEntity
  8
0
100
AcDbSpline
 62
4
  6
CONTINUOUS
 70
0
 71
3
 72
281
 73
277
 74
0
 42
0.0000001
 43
0.0000001
 44
0.0000000001
 40
0.0
 40
0.0
 40
0.0
 40
0.0
 40
0.015625
 40
0.0234375
 40
0.03125
 40
0.0390625
 40
0.046875
 40
0.05078125
 40
0.0546875
 40
0.056640625
 40
0.05859375
 40
0.060546875
 40
0.0615234375
 40
0.0620117188
 40
0.0625
 40
0.0629882812
 40
0.0634765625
 40
0.064453125
 40
0.06640625
 40
0.068359375
 40
0.0703125
 40
0.07421875
 40
0.078125
 40
0.0859375
 40
0.09375
 40
0.1015625
 40
0.109375
 40
0.11328125
 40
0.1171875
 40
0.119140625
 40
0.12109375
 40
0.123046875
 40
0.1240234375
 40
0.1245117188
 40
0.125
 40
0.1254882812
 40
0.1259765625
 40
0.126953125
 40
0.12890625
 40
0.130859375
 40
0.1328125
 40
0.13671875
 40
0.140625
 40
0.1484375
 40
0.15625
 40
0.1640625
 40
0.171875
 40
0.17578125
 40
0.1796875
 40
0.181640625
 40
0.18359375
 40
0.185546875
 40
0.1865234375
 40
0.1870117188
 40
0.1875
 40
0.1879882812
 40
0.1884765625
 40
0.189453125
 40
0.19140625
 40
0.193359375
 40
0.1953125
 40
0.19921875
 40
0.203125
 40
0.2109375
 40
0.21875
 40
0.2265625
 40
0.234375
 40
0.23828125
 40
0.2421875
 40
0.24609375
 40
0.248046875
 40
0.2490234375
 40
0.25
 40
0.2509765625
 40
0.251953125
 40
0.25390625
 40
0.2578125
 40
0.26171875
 40
0.265625
 40
0.2734375
 40
0.28125
 40
0.2890625
 40
0.296875
 40
0.30078125
 40
0.3046875
 40
0.30859375
 40
0.310546875
 40
0.3115234375
 40
0.3125
 40
0.3134765625
 40
0.314453125
 40
0.31640625
 40
0.3203125
 40
0.32421875
 40
0.328125
 40
0.3359375
 40
0.34375
 40
0.3515625
 40
0.359375
 40
0.3671875
 40
0.37109375
 40
0.373046875
 40
0.375
 40
0.376953125
 40
0.37890625
 40
0.3828125
 40
0.390625
 40
0.3984375
 40
0.40625
 40
0.4140625
 40
0.421875
 40
0.4296875
 40
0.43359375
 40
0.435546875
 40
0.4375
 40
0.439453125
 40
0.44140625
 40
0.4453125
 40
0.453125
 40
0.4609375
 40
0.46875
 40
0.4765625
 40
0.484375
 40
0.48828125
 40
0.4921875
 40
0.49609375
 40
0.498046875
 40
0.4990234375
 40
0.5
 40
0.5009765625
 40
0.501953125
 40
0.50390625
 40
0.5078125
 40
0.51171875
 40
0.515625
 40
0.5234375
 40
0.53125
 40
0.5390625
 40
0.546875
 40
0.55078125
 40
0.5546875
 40
0.55859375
 40
0.560546875
 40
0.5615234375
 40
0.5625
 40
0.5634765625
 40
0.564453125
 40
0.56640625
 40
0.5703125
 40
0.57421875
 40
0.578125
 40
0.5859375
 40
0.59375
 40
0.6015625
 40
0.609375
 40
0.61328125
 40
0.6171875
 40
0.619140625
 40
0.62109375
 40
0.623046875
 40
0.6240234375
 40
0.6245117188
 40
0.625
 40
0.6254882812
 40
0.6259765625
 40
0.626953125
 40
0.62890625
 40
0.630859375
 40
0.6328125
 40
0.63671875
 40
0.640625
 40
0.6484375
 40
0.65625
 40
0.6640625
 40
0.671875
 40
0.67578125
 40
0.6796875
 40
0.681640625
 40
0.68359375
 40
0.685546875
 40
0.6865234375
 40
0.6870117188
 40
0.6875
 40
0.6879882812
 40
0.6884765625
 40
0.689453125
 40
0.69140625
 40
0.693359375
 40
0.6953125
 40
0.69921875
 40
0.703125
 40
0.7109375
 40
0.71875
 40
0.7265625
 40
0.734375
 40
0.73828125
 40
0.7421875
 40
0.744140625
 40
0.74609375
 40
0.748046875
 40
0.7490234375
 40
0.7495117188
 40
0.75
 40
0.7504882812
 40
0.7509765625
 40
0.751953125
 40
0.75390625
 40
0.755859375
 40
0.7578125
 40
0.76171875
 40
0.765625
 40
0.7734375
 40
0.78125
 40
0.7890625
 40
0.796875
 40
0.80078125
 40
0.8046875
 40
0.806640625
 40
0.80859375
 40
0.810546875
 40
0.8115234375
 40
0.8120117188
 40
0.8125
 40
0.8129882812
 40
0.8134765625
 40
0.814453125
 40
0.81640625
 40
0.818359375
 40
0.8203125
 40
0.82421875
 40
0.828125
 40
0.8359375
 40
0.84375
 40
0.8515625
 40
0.859375
 40
0.86328125
 40
0.8671875
 40
0.869140625
 40
0.87109375
 40
0.873046875
 40
0.8740234375
 40
0.8745117188
 40
0.875
 40
0.8754882812
 40
0.8759765625
 40
0.876953125
 40
0.87890625
 40
0.880859375
 40
0.8828125
 40
0.88671875
 40
0.890625
 40
0.8984375
 40
0.90625
 40
0.9140625
 40
0.921875
 40
0.92578125
 40
0.9296875
 40
0.931640625
 40
0.93359375
 40
0.935546875
 40
0.9365234375
 40
0.9370117188
 40
0.9375
 40
0.9379882812
 40
0.9384765625
 40
0.939453125
 40
0.94140625
 40
0.943359375
 40
0.9453125
 40
0.94921875
 40
0.953125
 40
0.9609375
 40
0.96875
 40
0.9765625
 40
0.984375
 40
1.0
 40
1.0
 40
1.0
 40
1.0
 10
12.2806937918
 20
7.5443764826
 30
0.0
 10
12.2815892949
 20
7.5455691647
 30
0.0
 10
12.2829325496
 20
7.5473581875
 30
0.0
 10
12.2847235558
 20
7.5497435523
 30
0.0
 10
12.2860668105
 20
7.5515325735
 30
0.0
 10
12.2874100648
 20
7.553321604
 30
0.0
 10
12.2885294449
 20
7.5548124334
 30
0.0
 10
12.2894249454
 20
7.5560051628
 30
0.0
 10
12.2899846416
 20
7.5567504687
 30
0.0
 10
12.2904323793
 20
7.5573470568
 30
0.0
 10
12.2907682352
 20
7.5577935577
 30
0.0
 10
12.2910479478
 20
7.5581686326
 30
0.0
 10
12.2912440749
 20
7.5584253157
 30
0.0
 10
12.291355635
 20
7.5585811562
 30
0.0
 10
12.2914407488
 20
7.5586722202
 30
0.0
 10
12.2915203441
 20
7.5588619675
 30
0.0
 10
12.2916283961
 20
7.559080542
 30
0.0
 10
12.2918165902
 20
7.5594790852
 30
0.0
 10
12.2920859078
 20
7.5600400478
 30
0.0
 10
12.2924088882
 20
7.560716792
 30
0.0
 10
12.2928395988
 20
7.5616178639
 30
0.0
 10
12.2933779632
 20
7.5627446331
 30
0.0
 10
12.2942393595
 20
7.5645472238
 30
0.0
 10
12.2953161002
 20
7.566800545
 30
0.0
 10
12.2966081914
 20
7.5695044928
 30
0.0
 10
12.2979002809
 20
7.5722084586
 30
0.0
 10
12.2989770256
 20
7.5744617351
 30
0.0
 10
12.2998384141
 20
7.5762644152
 30
0.0
 10
12.3003767983
 20
7.5773909571
 30
0.0
 10
12.300807468
 20
7.5782924954
 30
0.0
 10
12.3011305735
 20
7.5789678148
 30
0.0
 10
12.3013994999
 20
7.5795332351
 30
0.0
 10
12.3015883923
 20
7.5799238207
 30
0.0
 10
12.3016953254
 20
7.5801551452
 30
0.0
 10
12.3017783576
 20
7.5803057284
 30
0.0
 10
12.301850563
 20
7.5805438862
 30
0.0
 10
12.3019506134
 20
7.5808308829
 30
0.0
 10
12.302123942
 20
7.5813473596
 30
0.0
 10
12.3023724743
 20
7.5820777425
 30
0.0
 10
12.3026703192
 20
7.5829573869
 30
0.0
 10
12.3030675833
 20
7.5841291337
 30
0.0
 10
12.3035641164
 20
7.5855941981
 30
0.0
 10
12.3043585956
 20
7.5879380882
 30
0.0
 10
12.3053516855
 20
7.5908680244
 30
0.0
 10
12.3065433976
 20
7.5943839143
 30
0.0
 10
12.3077351074
 20
7.5978998204
 30
0.0
 10
12.3087282032
 20
7.6008297159
 30
0.0
 10
12.3095226706
 20
7.6031736873
 30
0.0
 10
12.3100192338
 20
7.6046385452
 30
0.0
 10
12.310416436
 20
7.6058107159
 30
0.0
 10
12.3107144699
 20
7.606689065
 30
0.0
 10
12.3109624109
 20
7.6074235008
 30
0.0
 10
12.3111367951
 20
7.6079327424
 30
0.0
 10
12.3112351543
 20
7.6082313314
 30
0.0
 10
12.3113125544
 20
7.6084338813
 30
0.0
 10
12.3113760762
 20
7.608718202
 30
0.0
 10
12.3114656128
 20
7.6090687736
 30
0.0
 10
12.3116200464
 20
7.6096955632
 30
0.0
 10
12.311841845
 20
7.6105840292
 30
0.0
 10
12.3121074986
 20
7.6116531622
 30
0.0
 10
12.3124618797
 20
7.6130776342
 30
0.0
 10
12.3129047957
 20
7.6148585799
 30
0.0
 10
12.3136134952
 20
7.6177078938
 30
0.0
 10
12.3144993567
 20
7.6212696073
 30
0.0
 10
12.3155624015
 20
7.625543621
 30
0.0
 10
12.3166254227
 20
7.6298176908
 30
0.0
 10
12.3175113433
 20
7.633379264
 30
0.0
 10
12.3182199245
 20
7.6362288584
 30
0.0
 10
12.3187517845
 20
7.6383651378
 30
0.0
 10
12.3191936522
 20
7.6401482854
 30
0.0
 10
12.319505607
 20
7.6413907686
 30
0.0
 10
12.3196797331
 20
7.6421096905
 30
0.0
 10
12.3198219725
 20
7.6426237218
 30
0.0
 10
12.3199196997
 20
7.6432339279
 30
0.0
 10
12.3200655289
 20
7.6440139892
 30
0.0
 10
12.3203134961
 20
7.6453947266
 30
0.0
 10
12.320671517
 20
7.6473590369
 30
0.0
 10
12.3210995231
 20
7.6497197071
 30
0.0
 10
12.3216707637
 20
7.6528660453
 30
0.0
 10
12.322384619
 20
7.6567993894
 30
0.0
 10
12.323241335
 20
7.6615192127
 30
0.0
 10
12.3240980049
 20
7.6662391205
 30
0.0
 10
12.3248119752
 20
7.6701722533
 30
0.0
 10
12.3253829857
 20
7.6733190142
 30
0.0
 10
12.3258116936
 20
7.6756783951
 30
0.0
 10
12.3261675191
 20
7.677646739
 30
0.0
 10
12.3264194054
 20
7.6790202759
 30
0.0
 10
12.3265589553
 20
7.6798118741
 30
0.0
 10
12.3266759706
 20
7.6803866424
 30
0.0
 10
12.326745767
 20
7.6810337722
 30
0.0
 10
12.3268552993
 20
7.6818713714
 30
0.0
 10
12.3270393069
 20
7.6833489301
 30
0.0
 10
12.3273061871
 20
7.6854535798
 30
0.0
 10
12.3276247255
 20
7.6879817914
 30
0.0
 10
12.3280500456
 20
7.6913518196
 30
0.0
 10
12.3285814735
 20
7.6955646799
 30
0.0
 10
12.3292193505
 20
7.7006199328
 30
0.0
 10
12.3298569289
 20
7.7056753835
 30
0.0
 10
12.330495538
 20
7.7107302226
 30
0.0
 10
12.3310245255
 20
7.7149444624
 30
0.0
 10
12.3314010581
 20
7.7178907626
 30
0.0
 10
12.331606476
 20
7.7195800879
 30
0.0
 10
12.3317879871
 20
7.7208309542
 30
0.0
 10
12.3318645793
 20
7.7221434687
 30
0.0
 10
12.3320032991
 20
7.7238719843
 30
0.0
 10
12.3322290068
 20
7.7269069058
 30
0.0
 10
12.3325603673
 20
7.7312372685
 30
0.0
 10
12.3329541558
 20
7.7364359525
 30
0.0
 10
12.3333490469
 20
7.7416340242
 30
0.0
 10
12.333743372
 20
7.7468322966
 30
0.0
 10
12.3341388582
 20
7.7520303783
 30
0.0
 10
12.3344650315
 20
7.7563625817
 30
0.0
 10
12.3346999818
 20
7.7593942233
 30
0.0
 10
12.3348238947
 20
7.7611279935
 30
0.0
 10
12.3349459688
 20
7.7624243678
 30
0.0
 10
12.3349566573
 20
7.7637358536
 30
0.0
 10
12.3350097612
 20
7.7654792303
 30
0.0
 10
12.3350845907
 20
7.7685325953
 30
0.0
 10
12.3352009561
 20
7.7728932617
 30
0.0
 10
12.3353365343
 20
7.7781266092
 30
0.0
 10
12.3354732077
 20
7.7833598192
 30
0.0
 10
12.3356095603
 20
7.7885930313
 30
0.0
 10
12.3357233442
 20
7.7929541491
 30
0.0
 10
12.3358141557
 20
7.7964427838
 30
0.0
 10
12.3358828172
 20
7.7990599736
 30
0.0
 10
12.3359382817
 20
7.8012386942
 30
0.0
 10
12.3359805473
 20
7.8027682552
 30
0.0
 10
12.3359993273
 20
7.8036353315
 30
0.0
 10
12.3360285445
 20
7.8043052411
 30
0.0
 10
12.3359999185
 20
7.8049002206
 30
0.0
 10
12.3359819269
 20
7.8057196631
 30
0.0
 10
12.335941041
 20
7.8071415101
 30
0.0
 10
12.3358875473
 20
7.8091790865
 30
0.0
 10
12.3358212512
 20
7.8116214531
 30
0.0
 10
12.3357335914
 20
7.8148788942
 30
0.0
 10
12.3356237629
 20
7.818950366
 30
0.0
 10
12.3354920844
 20
7.8238362854
 30
0.0
 10
12.3353603489
 20
7.8287221194
 30
0.0
 10
12.3352506628
 20
7.8327938044
 30
0.0
 10
12.3351627182
 20
7.8360508192
 30
0.0
 10
12.335097291
 20
7.838494486
 30
0.0
 10
12.3350410789
 20
7.8405279948
 30
0.0
 10
12.3350050457
 20
7.8419571031
 30
0.0
 10
12.3349792789
 20
7.8427649111
 30
0.0
 10
12.3349745359
 20
7.8433956282
 30
0.0
 10
12.3349140523
 20
7.8439313134
 30
0.0
 10
12.3348528504
 20
7.8446787086
 30
0.0
 10
12.3347366883
 20
7.8459712057
 30
0.0
 10
12.3345754786
 20
7.8478257047
 30
0.0
 10
12.3343799996
 20
7.8500476472
 30
0.0
 10
12.3341200692
 20
7.8530114447
 30
0.0
 10
12.333794913
 20
7.8567157768
 30
0.0
 10
12.3334048304
 20
7.8611611548
 30
0.0
 10
12.3330147174
 20
7.8656064787
 30
0.0
 10
12.3326896374
 20
7.8693109458
 30
0.0
 10
12.3324295545
 20
7.8722744733
 30
0.0
 10
12.3322670428
 20
7.8741267782
 30
0.0
 10
12.332136942
 20
7.8756083932
 30
0.0
 10
12.3320396166
 20
7.8767202311
 30
0.0
 10
12.3319577161
 20
7.8776447692
 30
0.0
 10
12.331901948
 20
7.8782958581
 30
0.0
 10
12.3318676411
 20
7.8786618002
 30
0.0
 10
12.3318487828
 20
7.8789534651
 30
0.0
 10
12.3318036568
 20
7.8791793512
 30
0.0
 10
12.3317526512
 20
7.8795034771
 30
0.0
 10
12.3316591226
 20
7.8800600072
 30
0.0
 10
12.331527742
 20
7.8808606391
 30
0.0
 10
12.3313691301
 20
7.8818190052
 30
0.0
 10
12.3311579812
 20
7.8830976622
 30
0.0
 10
12.3308939309
 20
7.8846956973
 30
0.0
 10
12.3304715141
 20
7.8872527135
 30
0.0
 10
12.3299434712
 20
7.8904489284
 30
0.0
 10
12.3293098297
 20
7.8942844118
 30
0.0
 10
12.3286761832
 20
7.8981198816
 30
0.0
 10
12.3281481527
 20
7.9013161307
 30
0.0
 10
12.3277257111
 20
7.9038730786
 30
0.0
 10
12.3274617239
 20
7.9054712872
 30
0.0
 10
12.3272504454
 20
7.9067495882
 30
0.0
 10
12.3270922295
 20
7.907709042
 30
0.0
 10
12.32695961
 20
7.9085062706
 30
0.0
 10
12.3268682931
 20
7.9090688762
 30
0.0
 10
12.3268137437
 20
7.9093832675
 30
0.0
 10
12.3267795033
 20
7.9096390552
 30
0.0
 10
12.3267197605
 20
7.9098184148
 30
0.0
 10
12.3266489989
 20
7.9100842198
 30
0.0
 10
12.3265210216
 20
7.9105369578
 30
0.0
 10
12.3263403638
 20
7.9111902201
 30
0.0
 10
12.3261226468
 20
7.9119713553
 30
0.0
 10
12.3258326816
 20
7.9130138398
 30
0.0
 10
12.3254701141
 20
7.914316613
 30
0.0
 10
12.324890068
 20
7.9164012359
 30
0.0
 10
12.3241649891
 20
7.9190069502
 30
0.0
 10
12.323294904
 20
7.9221338374
 30
0.0
 10
12.3224248147
 20
7.9252607076
 30
0.0
 10
12.3216997464
 20
7.9278664645
 30
0.0
 10
12.3211196792
 20
7.9299510022
 30
0.0
 10
12.3207571655
 20
7.9312539919
 30
0.0
 10
12.3204670897
 20
7.932296032
 30
0.0
 10
12.3202497105
 20
7.9330785249
 30
0.0
 10
12.3200679961
 20
7.9337275393
 30
0.0
 10
12.3199419049
 20
7.9341878606
 30
0.0
 10
12.3198681213
 20
7.9344415152
 30
0.0
 10
12.3198176613
 20
7.9346581971
 30
0.0
 10
12.3197485561
 20
7.9347738082
 30
0.0
 10
12.3196629195
 20
7.9349632109
 30
0.0
 10
12.3195100252
 20
7.9352782398
 30
0.0
 10
12.319293189
 20
7.9357368687
 30
0.0
 10
12.3190323075
 20
7.9362835477
 30
0.0
 10
12.3186847023
 20
7.9370137368
 30
0.0
 10
12.3182501148
 20
7.9379260336
 30
0.0
 10
12.31755482
 20
7.9393859543
 30
0.0
 10
12.3166856859
 20
7.9412107702
 30
0.0
 10
12.315642732
 20
7.9434005882
 30
0.0
 10
12.3145997749
 20
7.9455903866
 30
0.0
 10
12.313730649
 20
7.9474152515
 30
0.0
 10
12.3130353377
 20
7.9488750741
 30
0.0
 10
12.3126007922
 20
7.9497876203
 30
0.0
 10
12.3122531007
 20
7.9505172975
 30
0.0
 10
12.3119924827
 20
7.9510655404
 30
0.0
 10
12.3117748221
 20
7.9515192763
 30
0.0
 10
12.3116233996
 20
7.95184304
 30
0.0
 10
12.3115354047
 20
7.9520184474
 30
0.0
 10
12.3114735433
 20
7.9521770476
 30
0.0
 10
12.3113958768
 20
7.9522322694
 30
0.0
 10
12.3112978344
 20
7.9523419579
 30
0.0
 10
12.3111236915
 20
7.9525171121
 30
0.0
 10
12.310876259
 20
7.952776116
 30
0.0
 10
12.3105787651
 20
7.953083161
 30
0.0
 10
12.3101823073
 20
7.9534938674
 30
0.0
 10
12.3096866664
 20
7.9540068009
 30
0.0
 10
12.3088936794
 20
7.9548277459
 30
0.0
 10
12.3079024323
 20
7.9558538402
 30
0.0
 10
12.3067129418
 20
7.9570851932
 30
0.0
 10
12.3055234487
 20
7.9583165259
 30
0.0
 10
12.3045322081
 20
7.959342671
 30
0.0
 10
12.3037392082
 20
7.9601635143
 30
0.0
 10
12.3032435999
 20
7.9606767062
 30
0.0
 10
12.3028470753
 20
7.9610868823
 30
0.0
 10
12.3025497858
 20
7.9613955475
 30
0.0
 10
12.3023017137
 20
7.9616494822
 30
0.0
 10
12.3021287126
 20
7.9618336858
 30
0.0
 10
12.3020288408
 20
7.9619288748
 30
0.0
 10
12.3019567934
 20
7.9620286346
 30
0.0
 10
12.3018738275
 20
7.9620199573
 30
0.0
 10
12.3017670149
 20
7.9620462116
 30
0.0
 10
12.3015783182
 20
7.9620745336
 30
0.0
 10
12.3013096794
 20
7.9621242072
 30
0.0
 10
12.3009869156
 20
7.9621798718
 30
0.0
 10
12.3005567026
 20
7.9622554687
 30
0.0
 10
12.3000188889
 20
7.9623494932
 30
0.0
 10
12.2991584136
 20
7.9625001961
 30
0.0
 10
12.2980828102
 20
7.9626884836
 30
0.0
 10
12.2967920903
 20
7.9629144704
 30
0.0
 10
12.2955013685
 20
7.963140436
 30
0.0
 10
12.2944257698
 20
7.9633287764
 30
0.0
 10
12.2935652852
 20
7.9634793735
 30
0.0
 10
12.2930274948
 20
7.9635736668
 30
0.0
 10
12.292597234
 20
7.9636487121
 30
0.0
 10
12.2922746166
 20
7.9637060618
 30
0.0
 10
12.2920055197
 20
7.9637504631
 30
0.0
 10
12.2918176407
 20
7.9637881971
 30
0.0
 10
12.291709518
 20
7.963799371
 30
0.0
 10
12.2916305762
 20
7.9638370159
 30
0.0
 10
12.291543415
 20
7.9637627971
 30
0.0
 10
12.291430067
 20
7.963702858
 30
0.0
 10
12.2912303723
 20
7.9635797849
 30
0.0
 10
12.2909457924
 20
7.9634134706
 30
0.0
 10
12.2906039977
 20
7.9632098253
 30
0.0
 10
12.2901483758
 20
7.9629397191
 30
0.0
 10
12.2895788127
 20
7.9626015999
 30
0.0
 10
12.2886675317
 20
7.9620608811
 30
0.0
 10
12.2875284236
 20
7.9613848892
 30
0.0
 10
12.2861614968
 20
7.960573739
 30
0.0
 10
12.2847945692
 20
7.959762578
 30
0.0
 10
12.2829719993
 20
7.9586810339
 30
0.0
 10
12.2816050719
 20
7.9578698749
 30
0.0
 10
12.280693787
 20
7.9573291024
 30
0.0
  0
SPLINE
  5
39A
100
AcDbEntity
  8
0
100
AcDbSpline
 62
4
  6
CONTINUOUS
 70
0
 71
3
 72
281
 73
277
 74
0
 42
0.0000001
 43
0.0000001
 44
0.0000000001
 40
0.0
 40
0.0
 40
0.0
 40
0.0
 40
0.015625
 40
0.0234375
 40
0.03125
 40
0.0390625
 40
0.046875
 40
0.05078125
 40
0.0546875
 40
0.056640625
 40
0.05859375
 40
0.060546875
 40
0.0615234375
 40
0.0620117188
 40
0.0625
 40
0.0629882812
 40
0.0634765625
 40
0.064453125
 40
0.06640625
 40
0.068359375
 40
0.0703125
 40
0.07421875
 40
0.078125
 40
0.0859375
 40
0.09375
 40
0.1015625
 40
0.109375
 40
0.11328125
 40
0.1171875
 40
0.119140625
 40
0.12109375
 40
0.123046875
 40
0.1240234375
 40
0.1245117188
 40
0.125
 40
0.1254882812
 40
0.1259765625
 40
0.126953125
 40
0.12890625
 40
0.130859375
 40
0.1328125
 40
0.13671875
 40
0.140625
 40
0.1484375
 40
0.15625
 40
0.1640625
 40
0.171875
 40
0.17578125
 40
0.1796875
 40
0.181640625
 40
0.18359375
 40
0.185546875
 40
0.1865234375
 40
0.1870117188
 40
0.1875
 40
0.1879882812
 40
0.1884765625
 40
0.189453125
 40
0.19140625
 40
0.193359375
 40
0.1953125
 40
0.19921875
 40
0.203125
 40
0.2109375
 40
0.21875
 40
0.2265625
 40
0.234375
 40
0.23828125
 40
0.2421875
 40
0.24609375
 40
0.248046875
 40
0.2490234375
 40
0.25
 40
0.2509765625
 40
0.251953125
 40
0.25390625
 40
0.2578125
 40
0.26171875
 40
0.265625
 40
0.2734375
 40
0.28125
 40
0.2890625
 40
0.296875
 40
0.30078125
 40
0.3046875
 40
0.30859375
 40
0.310546875
 40
0.3115234375
 40
0.3125
 40
0.3134765625
 40
0.314453125
 40
0.31640625
 40
0.3203125
 40
0.32421875
 40
0.328125
 40
0.3359375
 40
0.34375
 40
0.3515625
 40
0.359375
 40
0.3671875
 40
0.37109375
 40
0.373046875
 40
0.375
 40
0.376953125
 40
0.37890625
 40
0.3828125
 40
0.390625
 40
0.3984375
 40
0.40625
 40
0.4140625
 40
0.421875
 40
0.4296875
 40
0.43359375
 40
0.435546875
 40
0.4375
 40
0.439453125
 40
0.44140625
 40
0.4453125
 40
0.453125
 40
0.4609375
 40
0.46875
 40
0.4765625
 40
0.484375
 40
0.48828125
 40
0.4921875
 40
0.49609375
 40
0.498046875
 40
0.4990234375
 40
0.5
 40
0.5009765625
 40
0.501953125
 40
0.50390625
 40
0.5078125
 40
0.51171875
 40
0.515625
 40
0.5234375
 40
0.53125
 40
0.5390625
 40
0.546875
 40
0.55078125
 40
0.5546875
 40
0.55859375
 40
0.560546875
 40
0.5615234375
 40
0.5625
 40
0.5634765625
 40
0.564453125
 40
0.56640625
 40
0.5703125
 40
0.57421875
 40
0.578125
 40
0.5859375
 40
0.59375
 40
0.6015625
 40
0.609375
 40
0.61328125
 40
0.6171875
 40
0.619140625
 40
0.62109375
 40
0.623046875
 40
0.6240234375
 40
0.6245117188
 40
0.625
 40
0.6254882812
 40
0.6259765625
 40
0.626953125
 40
0.62890625
 40
0.630859375
 40
0.6328125
 40
0.63671875
 40
0.640625
 40
0.6484375
 40
0.65625
 40
0.6640625
 40
0.671875
 40
0.67578125
 40
0.6796875
 40
0.681640625
 40
0.68359375
 40
0.685546875
 40
0.6865234375
 40
0.6870117188
 40
0.6875
 40
0.6879882812
 40
0.6884765625
 40
0.689453125
 40
0.69140625
 40
0.693359375
 40
0.6953125
 40
0.69921875
 40
0.703125
 40
0.7109375
 40
0.71875
 40
0.7265625
 40
0.734375
 40
0.73828125
 40
0.7421875
 40
0.744140625
 40
0.74609375
 40
0.748046875
 40
0.7490234375
 40
0.7495117188
 40
0.75
 40
0.7504882812
 40
0.7509765625
 40
0.751953125
 40
0.75390625
 40
0.755859375
 40
0.7578125
 40
0.76171875
 40
0.765625
 40
0.7734375
 40
0.78125
 40
0.7890625
 40
0.796875
 40
0.80078125
 40
0.8046875
 40
0.806640625
 40
0.80859375
 40
0.810546875
 40
0.8115234375
 40
0.8120117188
 40
0.8125
 40
0.8129882812
 40
0.8134765625
 40
0.814453125
 40
0.81640625
 40
0.818359375
 40
0.8203125
 40
0.82421875
 40
0.828125
 40
0.8359375
 40
0.84375
 40
0.8515625
 40
0.859375
 40
0.86328125
 40
0.8671875
 40
0.869140625
 40
0.87109375
 40
0.873046875
 40
0.8740234375
 40
0.8745117188
 40
0.875
 40
0.8754882812
 40
0.8759765625
 40
0.876953125
 40
0.87890625
 40
0.880859375
 40
0.8828125
 40
0.88671875
 40
0.890625
 40
0.8984375
 40
0.90625
 40
0.9140625
 40
0.921875
 40
0.92578125
 40
0.9296875
 40
0.931640625
 40
0.93359375
 40
0.935546875
 40
0.9365234375
 40
0.9370117188
 40
0.9375
 40
0.9379882812
 40
0.9384765625
 40
0.939453125
 40
0.94140625
 40
0.943359375
 40
0.9453125
 40
0.94921875
 40
0.953125
 40
0.9609375
 40
0.96875
 40
0.9765625
 40
0.984375
 40
1.0
 40
1.0
 40
1.0
 40
1.0
 10
12.2806937918
 20
7.9573291071
 30
0.0
 10
12.2797982887
 20
7.956136425
 30
0.0
 10
12.278455034
 20
7.9543474022
 30
0.0
 10
12.2766640278
 20
7.9519620374
 30
0.0
 10
12.2753207731
 20
7.9501730163
 30
0.0
 10
12.2739775188
 20
7.9483839857
 30
0.0
 10
12.2728581387
 20
7.9468931563
 30
0.0
 10
12.2719626382
 20
7.9457004269
 30
0.0
 10
12.271402942
 20
7.944955121
 30
0.0
 10
12.2709552043
 20
7.9443585329
 30
0.0
 10
12.2706193484
 20
7.943912032
 30
0.0
 10
12.2703396358
 20
7.9435369571
 30
0.0
 10
12.2701435087
 20
7.943280274
 30
0.0
 10
12.2700319486
 20
7.9431244335
 30
0.0
 10
12.2699468348
 20
7.9430333695
 30
0.0
 10
12.2698672395
 20
7.9428436222
 30
0.0
 10
12.2697591875
 20
7.9426250477
 30
0.0
 10
12.2695709934
 20
7.9422265045
 30
0.0
 10
12.2693016758
 20
7.9416655419
 30
0.0
 10
12.2689786954
 20
7.9409887978
 30
0.0
 10
12.2685479848
 20
7.9400877258
 30
0.0
 10
12.2680096204
 20
7.9389609566
 30
0.0
 10
12.2671482241
 20
7.9371583659
 30
0.0
 10
12.2660714834
 20
7.9349050447
 30
0.0
 10
12.2647793922
 20
7.9322010969
 30
0.0
 10
12.2634873027
 20
7.9294971311
 30
0.0
 10
12.262410558
 20
7.9272438546
 30
0.0
 10
12.2615491695
 20
7.9254411745
 30
0.0
 10
12.2610107853
 20
7.9243146326
 30
0.0
 10
12.2605801155
 20
7.9234130943
 30
0.0
 10
12.2602570101
 20
7.9227377749
 30
0.0
 10
12.2599880837
 20
7.9221723546
 30
0.0
 10
12.2597991913
 20
7.921781769
 30
0.0
 10
12.2596922582
 20
7.9215504445
 30
0.0
 10
12.259609226
 20
7.9213998613
 30
0.0
 10
12.2595370206
 20
7.9211617035
 30
0.0
 10
12.2594369702
 20
7.9208747068
 30
0.0
 10
12.2592636416
 20
7.9203582302
 30
0.0
 10
12.2590151093
 20
7.9196278472
 30
0.0
 10
12.2587172644
 20
7.9187482028
 30
0.0
 10
12.2583200003
 20
7.917576456
 30
0.0
 10
12.2578234672
 20
7.9161113916
 30
0.0
 10
12.257028988
 20
7.9137675015
 30
0.0
 10
12.2560358981
 20
7.9108375654
 30
0.0
 10
12.254844186
 20
7.9073216754
 30
0.0
 10
12.2536524762
 20
7.9038057693
 30
0.0
 10
12.2526593804
 20
7.9008758738
 30
0.0
 10
12.251864913
 20
7.8985319024
 30
0.0
 10
12.2513683498
 20
7.8970670446
 30
0.0
 10
12.2509711476
 20
7.8958948738
 30
0.0
 10
12.2506731136
 20
7.8950165247
 30
0.0
 10
12.2504251727
 20
7.8942820889
 30
0.0
 10
12.2502507885
 20
7.8937728473
 30
0.0
 10
12.2501524293
 20
7.8934742583
 30
0.0
 10
12.2500750292
 20
7.8932717084
 30
0.0
 10
12.2500115074
 20
7.8929873877
 30
0.0
 10
12.2499219708
 20
7.8926368161
 30
0.0
 10
12.2497675372
 20
7.8920100265
 30
0.0
 10
12.2495457386
 20
7.8911215605
 30
0.0
 10
12.249280085
 20
7.8900524275
 30
0.0
 10
12.2489257039
 20
7.8886279555
 30
0.0
 10
12.2484827879
 20
7.8868470098
 30
0.0
 10
12.2477740884
 20
7.8839976959
 30
0.0
 10
12.2468882269
 20
7.8804359824
 30
0.0
 10
12.2458251821
 20
7.8761619687
 30
0.0
 10
12.2447621609
 20
7.8718878989
 30
0.0
 10
12.2438762403
 20
7.8683263257
 30
0.0
 10
12.2431676591
 20
7.8654767313
 30
0.0
 10
12.242635799
 20
7.8633404519
 30
0.0
 10
12.2421939314
 20
7.8615573043
 30
0.0
 10
12.2418819766
 20
7.8603148211
 30
0.0
 10
12.2417078505
 20
7.8595958992
 30
0.0
 10
12.2415656111
 20
7.8590818679
 30
0.0
 10
12.2414678839
 20
7.8584716618
 30
0.0
 10
12.2413220547
 20
7.8576916005
 30
0.0
 10
12.2410740875
 20
7.8563108631
 30
0.0
 10
12.2407160666
 20
7.8543465528
 30
0.0
 10
12.2402880605
 20
7.8519858826
 30
0.0
 10
12.2397168199
 20
7.8488395444
 30
0.0
 10
12.2390029646
 20
7.8449062003
 30
0.0
 10
12.2381462486
 20
7.840186377
 30
0.0
 10
12.2372895787
 20
7.8354664692
 30
0.0
 10
12.2365756084
 20
7.8315333364
 30
0.0
 10
12.2360045979
 20
7.8283865755
 30
0.0
 10
12.23557589
 20
7.8260271946
 30
0.0
 10
12.2352200645
 20
7.8240588508
 30
0.0
 10
12.2349681782
 20
7.8226853138
 30
0.0
 10
12.2348286283
 20
7.8218937156
 30
0.0
 10
12.234711613
 20
7.8213189473
 30
0.0
 10
12.2346418166
 20
7.8206718175
 30
0.0
 10
12.2345322843
 20
7.8198342183
 30
0.0
 10
12.2343482767
 20
7.8183566596
 30
0.0
 10
12.2340813965
 20
7.8162520099
 30
0.0
 10
12.2337628581
 20
7.8137237983
 30
0.0
 10
12.233337538
 20
7.8103537701
 30
0.0
 10
12.2328061101
 20
7.8061409098
 30
0.0
 10
12.2321682331
 20
7.8010856569
 30
0.0
 10
12.2315306547
 20
7.7960302062
 30
0.0
 10
12.2308920456
 20
7.7909753671
 30
0.0
 10
12.2303630581
 20
7.7867611273
 30
0.0
 10
12.2299865255
 20
7.7838148271
 30
0.0
 10
12.2297811076
 20
7.7821255018
 30
0.0
 10
12.2295995965
 20
7.7808746355
 30
0.0
 10
12.2295230043
 20
7.779562121
 30
0.0
 10
12.2293842845
 20
7.7778336054
 30
0.0
 10
12.2291585768
 20
7.7747986839
 30
0.0
 10
12.2288272163
 20
7.7704683212
 30
0.0
 10
12.2284334278
 20
7.7652696372
 30
0.0
 10
12.2280385367
 20
7.7600715655
 30
0.0
 10
12.2276442115
 20
7.7548732931
 30
0.0
 10
12.2272487253
 20
7.7496752114
 30
0.0
 10
12.2269225521
 20
7.745343008
 30
0.0
 10
12.2266876018
 20
7.7423113664
 30
0.0
 10
12.2265636889
 20
7.7405775962
 30
0.0
 10
12.2264416148
 20
7.7392812219
 30
0.0
 10
12.2264309263
 20
7.7379697361
 30
0.0
 10
12.2263778224
 20
7.7362263594
 30
0.0
 10
12.2263029929
 20
7.7331729945
 30
0.0
 10
12.2261866275
 20
7.728812328
 30
0.0
 10
12.2260510493
 20
7.7235789805
 30
0.0
 10
12.2259143759
 20
7.7183457705
 30
0.0
 10
12.2257780233
 20
7.7131125584
 30
0.0
 10
12.2256642394
 20
7.7087514406
 30
0.0
 10
12.2255734279
 20
7.7052628059
 30
0.0
 10
12.2255047663
 20
7.7026456161
 30
0.0
 10
12.2254493018
 20
7.7004668955
 30
0.0
 10
12.2254070363
 20
7.6989373345
 30
0.0
 10
12.2253882563
 20
7.6980702582
 30
0.0
 10
12.2253590391
 20
7.6974003487
 30
0.0
 10
12.2253876651
 20
7.6968053691
 30
0.0
 10
12.2254056567
 20
7.6959859266
 30
0.0
 10
12.2254465426
 20
7.6945640796
 30
0.0
 10
12.2255000363
 20
7.6925265032
 30
0.0
 10
12.2255663324
 20
7.6900841366
 30
0.0
 10
12.2256539922
 20
7.6868266955
 30
0.0
 10
12.2257638207
 20
7.6827552237
 30
0.0
 10
12.2258954992
 20
7.6778693043
 30
0.0
 10
12.2260272347
 20
7.6729834703
 30
0.0
 10
12.2261369208
 20
7.6689117853
 30
0.0
 10
12.2262248654
 20
7.6656547705
 30
0.0
 10
12.2262902926
 20
7.6632111037
 30
0.0
 10
12.2263465047
 20
7.6611775949
 30
0.0
 10
12.2263825379
 20
7.6597484866
 30
0.0
 10
12.2264083047
 20
7.6589406786
 30
0.0
 10
12.2264130477
 20
7.6583099615
 30
0.0
 10
12.2264735313
 20
7.6577742763
 30
0.0
 10
12.2265347331
 20
7.6570268811
 30
0.0
 10
12.2266508952
 20
7.655734384
 30
0.0
 10
12.226812105
 20
7.6538798851
 30
0.0
 10
12.227007584
 20
7.6516579425
 30
0.0
 10
12.2272675144
 20
7.648694145
 30
0.0
 10
12.2275926706
 20
7.6449898129
 30
0.0
 10
12.2279827532
 20
7.6405444349
 30
0.0
 10
12.2283728662
 20
7.636099111
 30
0.0
 10
12.2286979462
 20
7.6323946439
 30
0.0
 10
12.2289580291
 20
7.6294311164
 30
0.0
 10
12.2291205408
 20
7.6275788115
 30
0.0
 10
12.2292506416
 20
7.6260971965
 30
0.0
 10
12.229347967
 20
7.6249853586
 30
0.0
 10
12.2294298675
 20
7.6240608205
 30
0.0
 10
12.2294856356
 20
7.6234097316
 30
0.0
 10
12.2295199425
 20
7.6230437895
 30
0.0
 10
12.2295388008
 20
7.6227521246
 30
0.0
 10
12.2295839268
 20
7.6225262385
 30
0.0
 10
12.2296349324
 20
7.6222021126
 30
0.0
 10
12.229728461
 20
7.6216455825
 30
0.0
 10
12.2298598415
 20
7.6208449506
 30
0.0
 10
12.2300184535
 20
7.6198865845
 30
0.0
 10
12.2302296024
 20
7.6186079275
 30
0.0
 10
12.2304936527
 20
7.6170098924
 30
0.0
 10
12.2309160695
 20
7.6144528762
 30
0.0
 10
12.2314441124
 20
7.6112566613
 30
0.0
 10
12.2320777539
 20
7.6074211779
 30
0.0
 10
12.2327114004
 20
7.6035857081
 30
0.0
 10
12.2332394309
 20
7.600389459
 30
0.0
 10
12.2336618725
 20
7.5978325111
 30
0.0
 10
12.2339258597
 20
7.5962343025
 30
0.0
 10
12.2341371382
 20
7.5949560016
 30
0.0
 10
12.2342953541
 20
7.5939965477
 30
0.0
 10
12.2344279736
 20
7.5931993191
 30
0.0
 10
12.2345192905
 20
7.5926367135
 30
0.0
 10
12.2345738399
 20
7.5923223222
 30
0.0
 10
12.2346080803
 20
7.5920665345
 30
0.0
 10
12.2346678231
 20
7.5918871749
 30
0.0
 10
12.2347385847
 20
7.5916213699
 30
0.0
 10
12.234866562
 20
7.5911686319
 30
0.0
 10
12.2350472198
 20
7.5905153696
 30
0.0
 10
12.2352649367
 20
7.5897342344
 30
0.0
 10
12.235554902
 20
7.5886917499
 30
0.0
 10
12.2359174695
 20
7.5873889767
 30
0.0
 10
12.2364975156
 20
7.5853043538
 30
0.0
 10
12.2372225945
 20
7.5826986395
 30
0.0
 10
12.2380926796
 20
7.5795717523
 30
0.0
 10
12.2389627689
 20
7.5764448821
 30
0.0
 10
12.2396878372
 20
7.5738391252
 30
0.0
 10
12.2402679044
 20
7.5717545875
 30
0.0
 10
12.2406304181
 20
7.5704515978
 30
0.0
 10
12.2409204939
 20
7.5694095577
 30
0.0
 10
12.2411378731
 20
7.5686270648
 30
0.0
 10
12.2413195875
 20
7.5679780504
 30
0.0
 10
12.2414456787
 20
7.5675177291
 30
0.0
 10
12.2415194623
 20
7.5672640745
 30
0.0
 10
12.2415699223
 20
7.5670473926
 30
0.0
 10
12.2416390275
 20
7.5669317815
 30
0.0
 10
12.2417246641
 20
7.5667423788
 30
0.0
 10
12.2418775584
 20
7.5664273499
 30
0.0
 10
12.2420943946
 20
7.565968721
 30
0.0
 10
12.2423552761
 20
7.565422042
 30
0.0
 10
12.2427028813
 20
7.5646918529
 30
0.0
 10
12.2431374688
 20
7.5637795561
 30
0.0
 10
12.2438327636
 20
7.5623196354
 30
0.0
 10
12.2447018977
 20
7.5604948195
 30
0.0
 10
12.2457448516
 20
7.5583050015
 30
0.0
 10
12.2467878087
 20
7.5561152032
 30
0.0
 10
12.2476569346
 20
7.5542903382
 30
0.0
 10
12.2483522459
 20
7.5528305156
 30
0.0
 10
12.2487867914
 20
7.5519179694
 30
0.0
 10
12.2491344829
 20
7.5511882922
 30
0.0
 10
12.2493951009
 20
7.5506400494
 30
0.0
 10
12.2496127615
 20
7.5501863134
 30
0.0
 10
12.249764184
 20
7.5498625497
 30
0.0
 10
12.2498521789
 20
7.5496871423
 30
0.0
 10
12.2499140403
 20
7.5495285421
 30
0.0
 10
12.2499917068
 20
7.5494733204
 30
0.0
 10
12.2500897492
 20
7.5493636318
 30
0.0
 10
12.2502638921
 20
7.5491884776
 30
0.0
 10
12.2505113246
 20
7.5489294737
 30
0.0
 10
12.2508088185
 20
7.5486224288
 30
0.0
 10
12.2512052763
 20
7.5482117223
 30
0.0
 10
12.2517009172
 20
7.5476987888
 30
0.0
 10
12.2524939042
 20
7.5468778438
 30
0.0
 10
12.2534851513
 20
7.5458517495
 30
0.0
 10
12.2546746418
 20
7.5446203965
 30
0.0
 10
12.2558641349
 20
7.5433890638
 30
0.0
 10
12.2568553755
 20
7.5423629187
 30
0.0
 10
12.2576483754
 20
7.5415420754
 30
0.0
 10
12.2581439837
 20
7.5410288835
 30
0.0
 10
12.2585405083
 20
7.5406187074
 30
0.0
 10
12.2588377978
 20
7.5403100422
 30
0.0
 10
12.2590858699
 20
7.5400561075
 30
0.0
 10
12.259258871
 20
7.5398719039
 30
0.0
 10
12.2593587428
 20
7.5397767149
 30
0.0
 10
12.2594307902
 20
7.5396769551
 30
0.0
 10
12.2595137561
 20
7.5396856324
 30
0.0
 10
12.2596205687
 20
7.5396593782
 30
0.0
 10
12.2598092653
 20
7.5396310561
 30
0.0
 10
12.2600779042
 20
7.5395813825
 30
0.0
 10
12.260400668
 20
7.5395257179
 30
0.0
 10
12.2608308809
 20
7.539450121
 30
0.0
 10
12.2613686946
 20
7.5393560965
 30
0.0
 10
12.26222917
 20
7.5392053936
 30
0.0
 10
12.2633047734
 20
7.5390171061
 30
0.0
 10
12.2645954933
 20
7.5387911193
 30
0.0
 10
12.2658862151
 20
7.5385651537
 30
0.0
 10
12.2669618138
 20
7.5383768133
 30
0.0
 10
12.2678222984
 20
7.5382262162
 30
0.0
 10
12.2683600887
 20
7.5381319229
 30
0.0
 10
12.2687903496
 20
7.5380568776
 30
0.0
 10
12.269112967
 20
7.5379995279
 30
0.0
 10
12.2693820639
 20
7.5379551266
 30
0.0
 10
12.2695699429
 20
7.5379173926
 30
0.0
 10
12.2696780656
 20
7.5379062187
 30
0.0
 10
12.2697570073
 20
7.5378685738
 30
0.0
 10
12.2698441686
 20
7.5379427926
 30
0.0
 10
12.2699575166
 20
7.5380027317
 30
0.0
 10
12.2701572113
 20
7.5381258049
 30
0.0
 10
12.2704417912
 20
7.5382921191
 30
0.0
 10
12.2707835859
 20
7.5384957644
 30
0.0
 10
12.2712392078
 20
7.5387658706
 30
0.0
 10
12.2718087709
 20
7.5391039898
 30
0.0
 10
12.2727200519
 20
7.5396447086
 30
0.0
 10
12.27385916
 20
7.5403207005
 30
0.0
 10
12.2752260868
 20
7.5411318507
 30
0.0
 10
12.2765930144
 20
7.5419430117
 30
0.0
 10
12.2784155842
 20
7.5430245559
 30
0.0
 10
12.2797825117
 20
7.5438357148
 30
0.0
 10
12.2806937966
 20
7.5443764873
 30
0.0
  0
ENDSEC
  0
SECTION
  2
OBJECTS
  0
DICTIONARY
  5
C
100
AcDbDictionary
280
0
281
1
  3
ACAD_GROUP
350
D
  3
ACAD_MLINESTYLE
350
17
  3
ACAD_LAYOUT
350
1A
  3
ACAD_PLOTSETTINGS
350
19
  3
ACAD_PLOTSTYLENAME
350
E
  3
ACAD_IMAGE_DICT
350
       39C
  3
ACAD_IMAGE_VARS
350
       39D
  3
ACAD_TABLESTYLE
350
       39E
  0
IMAGEDEF_REACTOR
  5
39B
100
AcDbRasterImageDefReactor
 90
2
330
287
  0
DICTIONARY
  5
D
102
{ACAD_REACTORS
330
C
102
}
100
AcDbDictionary
280
0
281
1
  0
ACDBDICTIONARYWDFLT
  5
E
102
{ACAD_REACTORS
330
C
102
}
100
AcDbDictionary
281
1
  3
Normal
350
F
100
AcDbDictionaryWithDefault
340
F
  0
DICTIONARY
  5
39C
330
C
100
AcDbDictionary
281
1
  3
FSFAXAN-QMX_assy_2_img_1
350
       3A1
  0
RASTERVARIABLES
  5
39D
330
C
100
AcDbRasterVariables
 90
0
 70
0
 71
1
 72
5
  0
DICTIONARY
  5
17
102
{ACAD_REACTORS
330
C
102
}
100
AcDbDictionary
280
0
281
1
  3
Standard
350
18
  0
DICTIONARY
  5
39E
330
C
100
AcDbDictionary
281
1
  3
Standard
350
       3A2
  3
Standard1
350
       3A3
  0
DICTIONARY
  5
19
102
{ACAD_REACTORS
330
C
102
}
100
AcDbDictionary
281
1
  0
DICTIONARY
  5
1A
102
{ACAD_REACTORS
330
C
102
}
100
AcDbDictionary
281
1
  3
Model
350
39F
  3
Layout1
350
3A0
  0
ACDBPLACEHOLDER
  5
F
102
{ACAD_REACTORS
330
E
102
}
  0
MLINESTYLE
  5
18
102
{ACAD_REACTORS
330
17
102
}
100
AcDbMlineStyle
  2
STANDARD
 70
0
  3

 62
256
 51
90.0
 52
90.0
 71
2
 49
0.5
 62
256
  6
BYLAYER
 49
-0.5
 62
256
  6
BYLAYER
  0
LAYOUT
  5
39F
102
{ACAD_REACTORS
330
1A
102
}
100
AcDbPlotSettings
  1

  2
none_device
  4
ANSI_C_(22.00_x_17.00_Inches)
  6

 40
0.0
 41
0.0
 42
0.0
 43
0.0
 44
558.8
 45
431.8
 46
0.0
 47
0.0
 48
0.0
 49
0.0
140
0.0
141
0.0
142
1.0
143
1.0
 70
1024
 72
0
 73
0
 74
0
  7

 75
0
147
1.0
148
0.0
149
0.0
100
AcDbLayout
  1
Model
 70
0
 71
0
 10
0.0
 20
0.0
 11
22.0
 21
17.0
 12
0.0
 22
0.0
 32
0.0
 14
0.0
 24
0.0
 34
0.0
 15
0.0
 25
0.0
 35
0.0
146
0.0
 13
0.0
 23
0.0
 33
0.0
 16
1.0
 26
0.0
 36
0.0
 17
0.0
 27
1.0
 37
0.0
 76
0
330
20C
345
0
346
0
  0
LAYOUT
  5
3A0
102
{ACAD_REACTORS
330
1A
102
}
100
AcDbPlotSettings
  1

  2
none_device
  4
ANSI_C_(22.00_x_17.00_Inches)
  6

 40
0.0
 41
0.0
 42
0.0
 43
0.0
 44
558.8
 45
431.8
 46
0.0
 47
0.0
 48
0.0
 49
0.0
140
0.0
141
0.0
142
1.0
143
1.0
 70
0
 72
0
 73
0
 74
0
  7

 75
0
147
1.0
148
0.0
149
0.0
100
AcDbLayout
  1
Layout1
 70
0
 71
1
 10
0.0
 20
0.0
 11
22.0
 21
17.0
 12
0.0
 22
0.0
 32
0.0
 14
0.0
 24
0.0
 34
0.0
 15
0.0
 25
0.0
 35
0.0
146
0.0
 13
0.0
 23
0.0
 33
0.0
 16
1.0
 26
0.0
 36
0.0
 17
0.0
 27
1.0
 37
0.0
 76
0
330
20D
345
0
346
0
  0
IMAGEDEF
  5
3A1
102
{ACAD_REACTORS
330
39C
330
39B
102
}
100
AcDbRasterImageDef
 90
0
  1
FSFAXAN-QMX_assy_2_img_1.png
 10
369.0
 20
92.0
 11
0.0066666667
 21
0.0066666667
280
1
281
0
  0
TABLESTYLE
  5
3A2
102
{ACAD_REACTORS
330
39E
330
28A
330
28B
102
}
330
39E
100
AcDbTableStyle
  3
Standard
 70
0
 71
0
 40
0.06
 41
0.06
280
1
281
1
  7
Standard
140
0.18
170
1
 62
0
 63
7
283
0
  7
Standard
140
0.18
170
1
 62
0
 63
7
283
0
  7
Standard
140
0.18
170
1
 62
0
 63
7
283
0
  0
TABLESTYLE
  5
3A3
102
{ACAD_REACTORS
330
39E
330
289
102
}
330
39E
100
AcDbTableStyle
  3
Standard1
 70
1
 71
0
 40
0.06
 41
0.06
280
1
281
1
  7
Standard
140
0.18
170
1
 62
0
 63
7
283
0
  7
Standard
140
0.18
170
1
 62
0
 63
7
283
0
  7
Standard
140
0.18
170
1
 62
0
 63
7
283
0
  0
ENDSEC
  0
EOF
