999
DXF file: FSEDXAN-PMX_assy_2.dxf
999
Pro/ENGINEER 2014200 by Parametric Technology Corporation
  0
SECTION
  2
HEADER
  9
$ACADVER
  1
AC1021
  9
$DWGCODEPAGE
  3
ANSI_1252
  9
$EXTMAX
 10
22.0
 20
17.0
 30
0.0
  9
$EXTMIN
 10
0.0
 20
0.0
 30
0.0
  9
$LIMMIN
 10
0.0
 20
0.0
  9
$LIMMAX
 10
22.0
 20
17.0
  9
$VIEWCTR
 10
11.0
 20
8.5
  9
$VIEWSIZE
 40
17.0
  9
$CLAYER
  8
0
  9
$LTSCALE
 40
1.21
  9
$CELTYPE
  6
BYLAYER
  9
$DIMSCALE
 40
1.0
  9
$DIMASZ
 40
0.1875
  9
$DIMEXO
 40
0.0625
  9
$DIMDLI
 40
0.836
  9
$DIMEXE
 40
0.125
  9
$DIMCEN
 40
0.198
  9
$DIMLFAC
 40
1.0
  9
$DIMBLK
  1
_FILLED
  9
$DIMTXT
 40
0.1
  9
$DIMTOL
 70
0
  9
$DIMLIM
 70
0
  9
$DIMTFAC
 40
1.0
  9
$DIMGAP
 40
0.09
  9
$DIMDSEP
 70
46
  9
$AUNITS
 70
0
  9
$PDMODE
 70
3
  9
$PDSIZE
 40
0.3125
  9
$HANDSEED
  5
373
  9
$TILEMODE
 70
1
  9
$MEASUREMENT
 70
0
  9
$INSUNITS
 70
1
  0
ENDSEC
  0
SECTION
  2
CLASSES
  0
CLASS
  1
ACDBDICTIONARYWDFLT
  2
AcDbDictionaryWithDefault
  3
AutoCAD 2000
 90
0
 91
1
280
0
281
0
  0
CLASS
  1
ACDBPLACEHOLDER
  2
AcDbPlaceHolder
  3
AutoCAD 2000
 90
0
 91
1
280
0
281
0
  0
CLASS
  1
LAYOUT
  2
AcDbLayout
  3
AutoCAD 2000
 90
0
 91
0
280
0
281
0
  0
CLASS
  1
RASTERVARIABLES
  2
AcDbRasterVariables
  3
ISM
 90
0
 91
1
280
0
281
0
  0
CLASS
  1
IMAGEDEF
  2
AcDbRasterImageDef
  3
ISM
 90
0
 91
1
280
0
281
0
  0
CLASS
  1
IMAGEDEF_REACTOR
  2
AcDbRasterImageDefReactor
  3
ISM
 90
0
 91
1
280
0
281
0
  0
CLASS
  1
IMAGE
  2
AcDbRasterImage
  3
ISM
 90
127
 91
1
280
0
281
1
  0
CLASS
  1
TABLESTYLE
  2
AcDbTableStyle
  3
ObjectDBX Classes
 90
2047
 91
1
280
0
281
0
  0
CLASS
  1
ACAD_TABLE
  2
AcDbTable
  3
ObjectDBX Classes
 90
1025
 91
3
280
0
281
1
  0
ENDSEC
  0
SECTION
  2
TABLES
  0
TABLE
  2
VPORT
  5
8
100
AcDbSymbolTable
 70
2
  0
VPORT
  5
1F4
100
AcDbSymbolTableRecord
100
AcDbViewportTableRecord
  2
*ACTIVE
 70
0
 10
0.0
 20
0.0
 11
1.0
 21
1.0
 12
11.0
 22
8.5
 13
0.0
 23
0.0
 14
1.0
 24
1.0
 15
0.0
 25
0.0
 16
0.0
 26
0.0
 36
1.0
 17
0.0
 27
0.0
 37
0.0
 40
17.0
 41
1.2941176471
 42
50.0
 43
0.0
 44
0.0
 50
0.0
 51
0.0
 71
0
 72
100
 73
1
 74
1
 75
0
 76
0
 77
0
 78
0
  0
ENDTAB
  0
TABLE
  2
LTYPE
  5
5
100
AcDbSymbolTable
 70
6
  0
LTYPE
  5
14
100
AcDbSymbolTableRecord
100
AcDbLinetypeTableRecord
  2
BYBLOCK
 70
0
  3

 72
65
 73
0
 40
0.0
  0
LTYPE
  5
15
100
AcDbSymbolTableRecord
100
AcDbLinetypeTableRecord
  2
BYLAYER
 70
0
  3

 72
65
 73
0
 40
0.0
  0
LTYPE
  5
16
100
AcDbSymbolTableRecord
100
AcDbLinetypeTableRecord
  2
CONTINUOUS
 70
64
  3
Solid line
 72
65
 73
0
 40
0.0
  0
LTYPE
  5
1F5
100
AcDbSymbolTableRecord
100
AcDbLinetypeTableRecord
  2
CENTER
 70
64
  3
____ _ ____ _ ____ _ ____ _ ____ _ ____ _ ____
 72
65
 73
4
 40
0.6
 49
0.375
 74
0
 49
-0.075
 74
0
 49
0.075
 74
0
 49
-0.075
 74
0
  0
LTYPE
  5
1F6
100
AcDbSymbolTableRecord
100
AcDbLinetypeTableRecord
  2
HIDDEN
 70
64
  3
- - - - - - - - - - - - - - - - - - - -
 72
65
 73
2
 40
0.2
 49
0.1
 74
0
 49
-0.1
 74
0
  0
LTYPE
  5
1F7
100
AcDbSymbolTableRecord
100
AcDbLinetypeTableRecord
  2
PHANTOM
 70
64
  3
_____ _ _ _____ _ _ _____ _ _ _____
 72
65
 73
6
 40
0.8
 49
0.45
 74
0
 49
-0.05
 74
0
 49
0.1
 74
0
 49
-0.05
 74
0
 49
0.1
 74
0
 49
-0.05
 74
0
  0
LTYPE
  5
1F8
100
AcDbSymbolTableRecord
100
AcDbLinetypeTableRecord
  2
DOT
 70
64
  3
. . . . . . . . . . . . . . . . . . . .
 72
65
 73
2
 40
0.2
 49
0.1
 74
0
 49
-0.1
 74
0
  0
LTYPE
  5
1F9
100
AcDbSymbolTableRecord
100
AcDbLinetypeTableRecord
  2
DASHED
 70
64
  3
- - - - - - - - - - - - - - - - - - - -
 72
65
 73
2
 40
0.2
 49
0.1
 74
0
 49
-0.1
 74
0
  0
ENDTAB
  0
TABLE
  2
LAYER
  5
2
100
AcDbSymbolTable
 70
36
  0
LAYER
  5
10
100
AcDbSymbolTableRecord
100
AcDbLayerTableRecord
  2
0
 70
0
 62
7
  6
CONTINUOUS
370
-3
390
F
  0
LAYER
  5
1FA
100
AcDbSymbolTableRecord
100
AcDbLayerTableRecord
  2
DEFAULT_1
 70
0
 62
7
  6
CENTER
370
-3
390
F
  0
LAYER
  5
1FB
100
AcDbSymbolTableRecord
100
AcDbLayerTableRecord
  2
DEFAULT_2
 70
0
 62
8
  6
HIDDEN
370
-3
390
F
  0
LAYER
  5
1FC
100
AcDbSymbolTableRecord
100
AcDbLayerTableRecord
  2
DEFAULT_3
 70
0
 62
7
  6
PHANTOM
370
-3
390
F
  0
LAYER
  5
1FD
100
AcDbSymbolTableRecord
100
AcDbLayerTableRecord
  2
01___PRT_ALL_DTM_PLN
 70
0
 62
7
  6
CONTINUOUS
370
-3
390
F
  0
LAYER
  5
1FE
100
AcDbSymbolTableRecord
100
AcDbLayerTableRecord
  2
01___PRT_DEF_DTM_PLN
 70
0
 62
7
  6
CONTINUOUS
370
-3
390
F
  0
LAYER
  5
1FF
100
AcDbSymbolTableRecord
100
AcDbLayerTableRecord
  2
02___PRT_ALL_AXES
 70
0
 62
7
  6
CONTINUOUS
370
-3
390
F
  0
LAYER
  5
200
100
AcDbSymbolTableRecord
100
AcDbLayerTableRecord
  2
03___PRT_ALL_CURVES
 70
0
 62
7
  6
CONTINUOUS
370
-3
390
F
  0
LAYER
  5
201
100
AcDbSymbolTableRecord
100
AcDbLayerTableRecord
  2
04___PRT_ALL_DTM_PNT
 70
0
 62
7
  6
CONTINUOUS
370
-3
390
F
  0
LAYER
  5
202
100
AcDbSymbolTableRecord
100
AcDbLayerTableRecord
  2
05___PRT_ALL_DTM_CSYS
 70
0
 62
7
  6
CONTINUOUS
370
-3
390
F
  0
LAYER
  5
203
100
AcDbSymbolTableRecord
100
AcDbLayerTableRecord
  2
05___PRT_DEF_DTM_CSYS
 70
0
 62
7
  6
CONTINUOUS
370
-3
390
F
  0
LAYER
  5
204
100
AcDbSymbolTableRecord
100
AcDbLayerTableRecord
  2
06___PRT_ALL_SURFS
 70
0
 62
7
  6
CONTINUOUS
370
-3
390
F
  0
LAYER
  5
205
100
AcDbSymbolTableRecord
100
AcDbLayerTableRecord
  2
DATUM_PLANES
 70
0
 62
7
  6
CONTINUOUS
370
-3
390
F
  0
LAYER
  5
206
100
AcDbSymbolTableRecord
100
AcDbLayerTableRecord
  2
PORT_AREAS
 70
0
 62
7
  6
CONTINUOUS
370
-3
390
F
  0
LAYER
  5
207
100
AcDbSymbolTableRecord
100
AcDbLayerTableRecord
  2
SUNNBOMCOSMETIC
 70
0
 62
7
  6
CONTINUOUS
370
-3
390
F
  0
LAYER
  5
208
100
AcDbSymbolTableRecord
100
AcDbLayerTableRecord
  2
SUNNBOMSTAMPING
 70
0
 62
7
  6
CONTINUOUS
370
-3
390
F
  0
LAYER
  5
209
100
AcDbSymbolTableRecord
100
AcDbLayerTableRecord
  2
THREADS
 70
0
 62
7
  6
CONTINUOUS
370
-3
390
F
  0
ENDTAB
  0
TABLE
  2
STYLE
  5
3
100
AcDbSymbolTable
 70
1
  0
STYLE
  5
11
100
AcDbSymbolTableRecord
100
AcDbTextStyleTableRecord
  2
STANDARD
 70
0
 40
0.0
 41
0.8
 50
0.0
 71
0
 42
0.2
  3
txt
  4

  0
STYLE
  5
20A
100
AcDbSymbolTableRecord
100
AcDbTextStyleTableRecord
  2
TEXTSTYLE_1
 70
0
 40
0.0
 41
0.8
 50
0.0
 71
0
 42
0.2
  3
gdt
  4

  0
ENDTAB
  0
TABLE
  2
VIEW
  5
6
100
AcDbSymbolTable
 70
0
  0
ENDTAB
  0
TABLE
  2
UCS
  5
7
100
AcDbSymbolTable
 70
0
  0
ENDTAB
  0
TABLE
  2
APPID
  5
9
100
AcDbSymbolTable
 70
1
  0
APPID
  5
20B
100
AcDbSymbolTableRecord
100
AcDbRegAppTableRecord
  2
ACAD
 70
0
  0
ENDTAB
  0
TABLE
  2
BLOCK_RECORD
  5
1
100
AcDbSymbolTable
 70
0
  0
BLOCK_RECORD
  5
20C
100
AcDbSymbolTableRecord
100
AcDbBlockTableRecord
  2
*Model_Space
  0
BLOCK_RECORD
  5
20D
100
AcDbSymbolTableRecord
100
AcDbBlockTableRecord
  2
*Paper_Space
  0
BLOCK_RECORD
  5
20E
100
AcDbSymbolTableRecord
100
AcDbBlockTableRecord
  2
SUN_FIRST_THIRD_ANGLE_BL0
  0
BLOCK_RECORD
  5
20F
100
AcDbSymbolTableRecord
100
AcDbBlockTableRecord
  2
*T1
  0
BLOCK_RECORD
  5
210
100
AcDbSymbolTableRecord
100
AcDbBlockTableRecord
  2
*T2
  0
BLOCK_RECORD
  5
211
100
AcDbSymbolTableRecord
100
AcDbBlockTableRecord
  2
*T3
  0
ENDTAB
  0
TABLE
  2
DIMSTYLE
  5
A
100
AcDbSymbolTable
 70
1
100
AcDbDimStyleTable
 71
0
  0
DIMSTYLE
105
212
100
AcDbSymbolTableRecord
100
AcDbDimStyleTableRecord
  2
STANDARD
 70
0
  3

  4

 40
1.0
 41
0.1875
 42
0.0625
 43
0.38
 44
0.125
 45
0.0
 46
0.0
 47
0.001
 48
0.001
140
0.1
141
0.09
142
0.0
143
25.4
144
1.0
145
0.0
146
1.0
147
0.09
 71
0.0
 72
0.0
 73
1
 74
1
 75
0
 76
0
 77
0
 78
4
170
0
171
2
172
0
173
0
174
0
175
0
176
0
177
0
178
0
270
2
271
3
272
3
273
2
274
2
275
0
280
0
281
0
282
0
283
1
284
4
285
0
286
0
287
3
288
0
340
11
278
46
  0
ENDTAB
  0
ENDSEC
  0
SECTION
  2
BLOCKS
  0
BLOCK
  5
20
100
AcDbEntity
  8
0
100
AcDbBlockBegin
  2
*Model_Space
 70
0
 10
0.0
 20
0.0
 30
0.0
  3
*Model_Space
  1

  0
ENDBLK
  5
21
100
AcDbEntity
  8
0
100
AcDbBlockEnd
  0
BLOCK
  5
1C
100
AcDbEntity
  8
0
100
AcDbBlockBegin
  2
*Paper_Space
 70
0
 10
0.0
 20
0.0
 30
0.0
  3
*Paper_Space
  1

  0
ENDBLK
  5
1D
100
AcDbEntity
  8
0
100
AcDbBlockEnd
  0
BLOCK
  5
213
100
AcDbEntity
  8
0
100
AcDbBlockBegin
 62
2
  6
CONTINUOUS
  2
SUN_FIRST_THIRD_ANGLE_BL0
 70
64
 10
20.4816717061
 20
1.2289683772
  3
SUN_FIRST_THIRD_ANGLE_BL0
  1

  0
TEXT
  5
214
100
AcDbEntity
  8
0
100
AcDbText
 62
2
  6
CONTINUOUS
 10
19.4750896608
 20
1.4136269581
  7
STANDARD
 40
0.08
  1
FIRST ANGLE
 41
0.8
 72
0
100
AcDbText
  0
TEXT
  5
215
100
AcDbEntity
  8
0
100
AcDbText
 62
2
  6
CONTINUOUS
 10
20.7842537513
 20
1.4047600029
  7
STANDARD
 40
0.08
  1
THIRD ANGLE
 41
0.8
 72
0
100
AcDbText
  0
LINE
  5
216
100
AcDbEntity
  8
0
100
AcDbLine
 62
7
  6
CONTINUOUS
 10
19.4767170086
 20
1.1727031207
 11
19.6334271527
 21
1.1717972817
  0
LINE
  5
217
100
AcDbEntity
  8
0
100
AcDbLine
 62
7
  6
CONTINUOUS
 10
19.6596964832
 20
1.1717972817
 11
19.6950230232
 21
1.171593082
  0
LINE
  5
218
100
AcDbEntity
  8
0
100
AcDbLine
 62
7
  6
CONTINUOUS
 10
19.7194818561
 20
1.1708914427
 11
19.8852396156
 21
1.1699333054
  0
LINE
  5
219
100
AcDbEntity
  8
0
100
AcDbLine
 62
7
  6
CONTINUOUS
 10
19.4758111696
 20
1.2723454088
 11
19.88525039
 21
1.3511534004
  0
LINE
  5
21A
100
AcDbEntity
  8
0
100
AcDbLine
 62
7
  6
CONTINUOUS
 10
19.88525039
 20
1.3511534004
 11
19.8831348489
 21
0.9851647912
  0
LINE
  5
21B
100
AcDbEntity
  8
0
100
AcDbLine
 62
7
  6
CONTINUOUS
 10
19.8831348489
 20
0.9851647912
 11
19.4767170086
 21
1.0658141206
  0
LINE
  5
21C
100
AcDbEntity
  8
0
100
AcDbLine
 62
7
  6
CONTINUOUS
 10
19.4767170086
 20
1.0658141206
 11
19.4779056764
 21
1.2714536432
  0
CIRCLE
  5
21D
100
AcDbEntity
  8
0
100
AcDbCircle
 62
7
  6
CONTINUOUS
 10
20.2068232291
 20
1.1717972817
 40
0.175742101
  0
CIRCLE
  5
21E
100
AcDbEntity
  8
0
100
AcDbCircle
 62
7
  6
CONTINUOUS
 10
20.2068232291
 20
1.1717972817
 40
0.1005522074
  0
LINE
  5
21F
100
AcDbEntity
  8
0
100
AcDbLine
 62
7
  6
CONTINUOUS
 10
20.2077290681
 20
1.3756110529
 11
20.2071171714
 21
1.2379342989
  0
LINE
  5
220
100
AcDbEntity
  8
0
100
AcDbLine
 62
7
  6
CONTINUOUS
 10
20.2077290681
 20
1.2016899681
 11
20.2074674401
 21
1.1428236749
  0
LINE
  5
221
100
AcDbEntity
  8
0
100
AcDbLine
 62
7
  6
CONTINUOUS
 10
20.208634907
 20
1.101141841
 11
20.2080230104
 21
0.963465087
  0
LINE
  5
222
100
AcDbEntity
  8
0
100
AcDbLine
 62
7
  6
CONTINUOUS
 10
20.0066328138
 20
1.1745147986
 11
20.1443095678
 21
1.1739029019
  0
LINE
  5
223
100
AcDbEntity
  8
0
100
AcDbLine
 62
7
  6
CONTINUOUS
 10
20.1832714155
 20
1.1727031207
 11
20.238153505
 21
1.172335442
  0
LINE
  5
224
100
AcDbEntity
  8
0
100
AcDbLine
 62
7
  6
CONTINUOUS
 10
20.2756669918
 20
1.1717972817
 11
20.407916871
 21
1.1712095044
  0
CIRCLE
  5
225
100
AcDbEntity
  8
0
100
AcDbCircle
 62
7
  6
CONTINUOUS
 10
20.7509457401
 20
1.1693297793
 40
0.1722024983
  0
CIRCLE
  5
226
100
AcDbEntity
  8
0
100
AcDbCircle
 62
7
  6
CONTINUOUS
 10
20.7509457401
 20
1.1693297793
 40
0.0985164967
  0
LINE
  5
227
100
AcDbEntity
  8
0
100
AcDbLine
 62
7
  6
CONTINUOUS
 10
20.7169767782
 20
1.170462078
 11
20.7825395137
 21
1.1682766535
  0
LINE
  5
228
100
AcDbEntity
  8
0
100
AcDbLine
 62
7
  6
CONTINUOUS
 10
20.8177513651
 20
1.1693297793
 11
20.947965719
 21
1.1693297793
  0
LINE
  5
229
100
AcDbEntity
  8
0
100
AcDbLine
 62
7
  6
CONTINUOUS
 10
20.6875370113
 20
1.170462078
 11
20.5573226574
 21
1.170462078
  0
LINE
  5
22A
100
AcDbEntity
  8
0
100
AcDbLine
 62
7
  6
CONTINUOUS
 10
20.7486811426
 20
1.1987695462
 11
20.7486811426
 21
1.1432869085
  0
LINE
  5
22B
100
AcDbEntity
  8
0
100
AcDbLine
 62
7
  6
CONTINUOUS
 10
20.7498134414
 20
1.1059210505
 11
20.7498134414
 21
0.9757066966
  0
LINE
  5
22C
100
AcDbEntity
  8
0
100
AcDbLine
 62
7
  6
CONTINUOUS
 10
20.7486811426
 20
1.2338708068
 11
20.7486811426
 21
1.3640851607
  0
LINE
  5
22D
100
AcDbEntity
  8
0
100
AcDbLine
 62
7
  6
CONTINUOUS
 10
21.0702539817
 20
1.2701043662
 11
21.4790138229
 21
1.3448360823
  0
LINE
  5
22E
100
AcDbEntity
  8
0
100
AcDbLine
 62
7
  6
CONTINUOUS
 10
21.4790138229
 20
1.3448360823
 11
21.4790138229
 21
0.9779712941
  0
LINE
  5
22F
100
AcDbEntity
  8
0
100
AcDbLine
 62
7
  6
CONTINUOUS
 10
21.4790138229
 20
0.9779712941
 11
21.069121683
 21
1.0617614
  0
LINE
  5
230
100
AcDbEntity
  8
0
100
AcDbLine
 62
7
  6
CONTINUOUS
 10
21.0702539817
 20
1.2701043662
 11
21.069121683
 21
1.0617614
  0
LINE
  5
231
100
AcDbEntity
  8
0
100
AcDbLine
 62
7
  6
CONTINUOUS
 10
21.4790138229
 20
1.1693297793
 11
21.3159628059
 21
1.1693297793
  0
LINE
  5
232
100
AcDbEntity
  8
0
100
AcDbLine
 62
7
  6
CONTINUOUS
 10
21.2876553377
 20
1.1693297793
 11
21.2502894796
 21
1.1693297793
  0
LINE
  5
233
100
AcDbEntity
  8
0
100
AcDbLine
 62
7
  6
CONTINUOUS
 10
21.2208497126
 20
1.1659328831
 11
21.0713862804
 21
1.1659328831
  0
LINE
  5
234
100
AcDbEntity
  8
0
100
AcDbLine
 62
7
  6
CONTINUOUS
 10
20.4796138713
 20
1.5284908897
 11
20.4766766948
 21
0.9294458646
  0
ENDBLK
  5
235
100
AcDbEntity
  8
0
  6
BYBLOCK
 62
0
100
AcDbBlockEnd
  0
BLOCK
  5
236
100
AcDbEntity
  8
0
100
AcDbBlockBegin
  2
*T1
 70
1
 10
0.0
 20
0.0
  3
*T1
  1

  0
LINE
  5
237
100
AcDbEntity
  8
0
100
AcDbLine
 62
2
  6
CONTINUOUS
 10
9.275
 20
0.0
 11
-0.0
 21
0.0
  0
LINE
  5
238
100
AcDbEntity
  8
0
100
AcDbLine
 62
2
  6
CONTINUOUS
 10
9.275
 20
0.0
 11
9.275
 21
1.25
  0
LINE
  5
239
100
AcDbEntity
  8
0
100
AcDbLine
 62
2
  6
CONTINUOUS
 10
9.275
 20
0.625
 11
-0.0
 21
0.625
  0
LINE
  5
23A
100
AcDbEntity
  8
0
100
AcDbLine
 62
2
  6
CONTINUOUS
 10
9.275
 20
1.25
 11
-0.0
 21
1.25
  0
LINE
  5
23B
100
AcDbEntity
  8
0
100
AcDbLine
 62
2
  6
CONTINUOUS
 10
6.8
 20
0.0
 11
6.8
 21
1.25
  0
LINE
  5
23C
100
AcDbEntity
  8
0
100
AcDbLine
 62
2
  6
CONTINUOUS
 10
6.4
 20
0.0
 11
6.4
 21
0.625
  0
LINE
  5
23D
100
AcDbEntity
  8
0
100
AcDbLine
 62
2
  6
CONTINUOUS
 10
5.9
 20
0.0
 11
5.9
 21
0.625
  0
LINE
  5
23E
100
AcDbEntity
  8
0
100
AcDbLine
 62
2
  6
CONTINUOUS
 10
5.2
 20
0.0
 11
5.2
 21
0.625
  0
LINE
  5
23F
100
AcDbEntity
  8
0
100
AcDbLine
 62
2
  6
CONTINUOUS
 10
4.1
 20
0.0
 11
4.1
 21
1.25
  0
LINE
  5
240
100
AcDbEntity
  8
0
100
AcDbLine
 62
2
  6
CONTINUOUS
 10
-0.0
 20
0.0
 11
-0.0
 21
1.25
  0
MTEXT
  5
241
100
AcDbEntity
  8
0
100
AcDbMText
 62
2
  6
CONTINUOUS
  7
STANDARD
 71
2
 72
1
 10
6.6
 20
0.325
 30
0.0
 11
1.0
 21
0.0
 31
0.0
 44
0.9
  1
2
 40
0.125
 41
0.2
  0
MTEXT
  5
242
100
AcDbEntity
  8
0
100
AcDbMText
 62
2
  6
CONTINUOUS
  7
STANDARD
 71
2
 72
1
 10
6.15
 20
0.325
 30
0.0
 11
1.0
 21
0.0
 31
0.0
 44
0.9
  1
C
 40
0.125
 41
0.2
  0
MTEXT
  5
243
100
AcDbEntity
  8
0
100
AcDbMText
 62
2
  6
CONTINUOUS
  7
STANDARD
 71
2
 72
1
 10
5.55
 20
0.325
 30
0.0
 11
1.0
 21
0.0
 31
0.0
 44
0.9
  1
1.000
 40
0.125
 41
1.0
  0
MTEXT
  5
244
100
AcDbEntity
  8
0
100
AcDbMText
 62
2
  6
CONTINUOUS
  7
STANDARD
 71
2
 72
1
 10
4.65
 20
0.325
 30
0.0
 11
1.0
 21
0.0
 31
0.0
 44
0.9
  1
Jan-20-21
 40
0.125
 41
1.8
  0
MTEXT
  5
245
100
AcDbEntity
  8
0
100
AcDbMText
 62
2
  6
CONTINUOUS
  7
STANDARD
 71
2
 72
1
 10
2.05
 20
0.4625
 30
0.0
 11
1.0
 21
0.0
 31
0.0
 44
0.9
  1
Flow divider manifold assembly
 40
0.125
 41
6.0
  0
MTEXT
  5
246
100
AcDbEntity
  8
0
100
AcDbMText
 62
2
  6
CONTINUOUS
  7
STANDARD
 71
1
 72
1
 10
6.45
 20
0.5625
 30
0.0
 11
1.0
 21
0.0
 31
0.0
 44
0.9
  1
SHEET
 40
0.06
 41
0.48
  0
MTEXT
  5
247
100
AcDbEntity
  8
0
100
AcDbMText
 62
2
  6
CONTINUOUS
  7
STANDARD
 71
1
 72
1
 10
5.95
 20
0.5625
 30
0.0
 11
1.0
 21
0.0
 31
0.0
 44
0.9
  1
DWG SIZE
 40
0.06
 41
0.768
  0
MTEXT
  5
248
100
AcDbEntity
  8
0
100
AcDbMText
 62
2
  6
CONTINUOUS
  7
STANDARD
 71
1
 72
1
 10
5.25
 20
0.5625
 30
0.0
 11
1.0
 21
0.0
 31
0.0
 44
0.9
  1
SCALE
 40
0.06
 41
0.48
  0
MTEXT
  5
249
100
AcDbEntity
  8
0
100
AcDbMText
 62
2
  6
CONTINUOUS
  7
STANDARD
 71
1
 72
1
 10
4.15
 20
0.5625
 30
0.0
 11
1.0
 21
0.0
 31
0.0
 44
0.9
  1
DATE
 40
0.06
 41
0.384
  0
MTEXT
  5
24A
100
AcDbEntity
  8
0
100
AcDbMText
 62
2
  6
CONTINUOUS
  7
STANDARD
 71
1
 72
1
 10
0.05
 20
0.5625
 30
0.0
 11
1.0
 21
0.0
 31
0.0
 44
0.9
  1
DESCRIPTION
 40
0.06
 41
1.056
  0
MTEXT
  5
24B
100
AcDbEntity
  8
0
100
AcDbMText
 62
2
  6
CONTINUOUS
  7
STANDARD
 71
2
 72
1
 10
5.45
 20
1.0375
 30
0.0
 11
1.0
 21
0.0
 31
0.0
 44
0.9
  1
ALL DIMENSIONS IN INCH\PVIEWS ARE THIRD ANGLE
 40
0.12
 41
4.224
  0
MTEXT
  5
24C
100
AcDbEntity
  8
0
100
AcDbMText
 62
2
  6
CONTINUOUS
  7
STANDARD
 71
2
 72
1
 10
2.05
 20
0.95
 30
0.0
 11
1.0
 21
0.0
 31
0.0
 44
0.9
  1
FSEDXAN-PMX
 40
0.125
 41
2.2
  0
MTEXT
  5
24D
100
AcDbEntity
  8
0
100
AcDbMText
 62
2
  6
CONTINUOUS
  7
STANDARD
 71
1
 72
1
 10
0.05
 20
1.1875
 30
0.0
 11
1.0
 21
0.0
 31
0.0
 44
0.9
  1
MODEL
 40
0.06
 41
0.48
  0
ENDBLK
  5
24E
100
AcDbEntity
  8
0
  6
BYBLOCK
 62
0
100
AcDbBlockEnd
  0
BLOCK
  5
24F
100
AcDbEntity
  8
0
100
AcDbBlockBegin
  2
*T2
 70
1
 10
0.0
 20
0.0
  3
*T2
  1

  0
LINE
  5
250
100
AcDbEntity
  8
0
100
AcDbLine
 62
2
  6
CONTINUOUS
 10
0.0
 20
0.0
 11
9.055
 21
0.0
  0
LINE
  5
251
100
AcDbEntity
  8
0
100
AcDbLine
 62
2
  6
CONTINUOUS
 10
0.0
 20
0.0
 11
0.0
 21
-2.594
  0
LINE
  5
252
100
AcDbEntity
  8
0
100
AcDbLine
 62
2
  6
CONTINUOUS
 10
0.0
 20
-0.344
 11
9.055
 21
-0.344
  0
LINE
  5
253
100
AcDbEntity
  8
0
100
AcDbLine
 62
2
  6
CONTINUOUS
 10
0.0
 20
-0.594
 11
9.055
 21
-0.594
  0
LINE
  5
254
100
AcDbEntity
  8
0
100
AcDbLine
 62
2
  6
CONTINUOUS
 10
0.0
 20
-0.844
 11
9.055
 21
-0.844
  0
LINE
  5
255
100
AcDbEntity
  8
0
100
AcDbLine
 62
2
  6
CONTINUOUS
 10
0.0
 20
-1.094
 11
9.055
 21
-1.094
  0
LINE
  5
256
100
AcDbEntity
  8
0
100
AcDbLine
 62
2
  6
CONTINUOUS
 10
0.0
 20
-1.344
 11
9.055
 21
-1.344
  0
LINE
  5
257
100
AcDbEntity
  8
0
100
AcDbLine
 62
2
  6
CONTINUOUS
 10
0.0
 20
-1.594
 11
9.055
 21
-1.594
  0
LINE
  5
258
100
AcDbEntity
  8
0
100
AcDbLine
 62
2
  6
CONTINUOUS
 10
0.0
 20
-1.844
 11
9.055
 21
-1.844
  0
LINE
  5
259
100
AcDbEntity
  8
0
100
AcDbLine
 62
2
  6
CONTINUOUS
 10
0.0
 20
-2.094
 11
9.055
 21
-2.094
  0
LINE
  5
25A
100
AcDbEntity
  8
0
100
AcDbLine
 62
2
  6
CONTINUOUS
 10
0.0
 20
-2.344
 11
9.055
 21
-2.344
  0
LINE
  5
25B
100
AcDbEntity
  8
0
100
AcDbLine
 62
2
  6
CONTINUOUS
 10
0.0
 20
-2.594
 11
9.055
 21
-2.594
  0
LINE
  5
25C
100
AcDbEntity
  8
0
100
AcDbLine
 62
2
  6
CONTINUOUS
 10
3.055
 20
0.0
 11
3.055
 21
-2.594
  0
LINE
  5
25D
100
AcDbEntity
  8
0
100
AcDbLine
 62
2
  6
CONTINUOUS
 10
9.055
 20
0.0
 11
9.055
 21
-2.594
  0
MTEXT
  5
25E
100
AcDbEntity
  8
0
100
AcDbMText
 62
2
  6
CONTINUOUS
  7
STANDARD
 71
2
 72
1
 10
1.5275
 20
-0.0995
 30
0.0
 11
1.0
 21
0.0
 31
0.0
 44
0.9
  1
Technical Data
 40
0.145
 41
3.248
  0
MTEXT
  5
25F
100
AcDbEntity
  8
0
100
AcDbMText
 62
2
  6
CONTINUOUS
  7
STANDARD
 71
2
 72
1
 10
4.555
 20
-0.0995
 30
0.0
 11
1.0
 21
0.0
 31
0.0
 44
0.9
  1
U.S. Units
 40
0.145
 41
2.32
  0
MTEXT
  5
260
100
AcDbEntity
  8
0
100
AcDbMText
 62
2
  6
CONTINUOUS
  7
STANDARD
 71
2
 72
1
 10
7.555
 20
-0.0995
 30
0.0
 11
1.0
 21
0.0
 31
0.0
 44
0.9
  1
Metric Units
 40
0.145
 41
2.784
  0
MTEXT
  5
261
100
AcDbEntity
  8
0
100
AcDbMText
 62
2
  6
CONTINUOUS
  7
STANDARD
 71
2
 72
1
 10
1.5275
 20
-0.4065
 30
0.0
 11
1.0
 21
0.0
 31
0.0
 44
0.9
  1
Cavity
 40
0.125
 41
1.2
  0
MTEXT
  5
262
100
AcDbEntity
  8
0
100
AcDbMText
 62
2
  6
CONTINUOUS
  7
STANDARD
 71
2
 72
1
 10
6.055
 20
-0.4065
 30
0.0
 11
1.0
 21
0.0
 31
0.0
 44
0.9
  1
T-33A
 40
0.125
 41
1.0
  0
MTEXT
  5
263
100
AcDbEntity
  8
0
100
AcDbMText
 62
2
  6
CONTINUOUS
  7
STANDARD
 71
2
 72
1
 10
1.5275
 20
-0.6565
 30
0.0
 11
1.0
 21
0.0
 31
0.0
 44
0.9
  1
Body Features
 40
0.125
 41
2.6
  0
MTEXT
  5
264
100
AcDbEntity
  8
0
100
AcDbMText
 62
2
  6
CONTINUOUS
  7
STANDARD
 71
2
 72
1
 10
6.055
 20
-0.6565
 30
0.0
 11
1.0
 21
0.0
 31
0.0
 44
0.9
  1
Ninety degree
 40
0.125
 41
2.6
  0
MTEXT
  5
265
100
AcDbEntity
  8
0
100
AcDbMText
 62
2
  6
CONTINUOUS
  7
STANDARD
 71
2
 72
1
 10
1.5275
 20
-0.9065
 30
0.0
 11
1.0
 21
0.0
 31
0.0
 44
0.9
  1
Body Type
 40
0.125
 41
1.8
  0
MTEXT
  5
266
100
AcDbEntity
  8
0
100
AcDbMText
 62
2
  6
CONTINUOUS
  7
STANDARD
 71
2
 72
1
 10
6.055
 20
-0.9065
 30
0.0
 11
1.0
 21
0.0
 31
0.0
 44
0.9
  1
Line mount
 40
0.125
 41
2.0
  0
MTEXT
  5
267
100
AcDbEntity
  8
0
100
AcDbMText
 62
2
  6
CONTINUOUS
  7
STANDARD
 71
2
 72
1
 10
1.5275
 20
-1.1565
 30
0.0
 11
1.0
 21
0.0
 31
0.0
 44
0.9
  1
Interface
 40
0.125
 41
1.8
  0
MTEXT
  5
268
100
AcDbEntity
  8
0
100
AcDbMText
 62
2
  6
CONTINUOUS
  7
STANDARD
 71
2
 72
1
 10
6.055
 20
-1.1565
 30
0.0
 11
1.0
 21
0.0
 31
0.0
 44
0.9
  1
None
 40
0.125
 41
0.8
  0
MTEXT
  5
269
100
AcDbEntity
  8
0
100
AcDbMText
 62
2
  6
CONTINUOUS
  7
STANDARD
 71
2
 72
1
 10
1.5275
 20
-1.4065
 30
0.0
 11
1.0
 21
0.0
 31
0.0
 44
0.9
  1
Open Cavity Quantity
 40
0.125
 41
4.0
  0
MTEXT
  5
26A
100
AcDbEntity
  8
0
100
AcDbMText
 62
2
  6
CONTINUOUS
  7
STANDARD
 71
2
 72
1
 10
6.055
 20
-1.4065
 30
0.0
 11
1.0
 21
0.0
 31
0.0
 44
0.9
  1
1
 40
0.125
 41
0.2
  0
MTEXT
  5
26B
100
AcDbEntity
  8
0
100
AcDbMText
 62
2
  6
CONTINUOUS
  7
STANDARD
 71
2
 72
1
 10
1.5275
 20
-1.6565
 30
0.0
 11
1.0
 21
0.0
 31
0.0
 44
0.9
  1
Weight
 40
0.125
 41
1.2
  0
MTEXT
  5
26C
100
AcDbEntity
  8
0
100
AcDbMText
 62
2
  6
CONTINUOUS
  7
STANDARD
 71
2
 72
1
 10
4.555
 20
-1.6565
 30
0.0
 11
1.0
 21
0.0
 31
0.0
 44
0.9
  1
5.667 lb.
 40
0.125
 41
1.8
  0
MTEXT
  5
26D
100
AcDbEntity
  8
0
100
AcDbMText
 62
2
  6
CONTINUOUS
  7
STANDARD
 71
2
 72
1
 10
7.555
 20
-1.6565
 30
0.0
 11
1.0
 21
0.0
 31
0.0
 44
0.9
  1
2,571 kg.
 40
0.125
 41
1.8
  0
MTEXT
  5
26E
100
AcDbEntity
  8
0
100
AcDbMText
 62
2
  6
CONTINUOUS
  7
STANDARD
 71
2
 72
1
 10
1.5275
 20
-1.9065
 30
0.0
 11
1.0
 21
0.0
 31
0.0
 44
0.9
  1
Mounting Hole Diameter
 40
0.125
 41
4.4
  0
MTEXT
  5
26F
100
AcDbEntity
  8
0
100
AcDbMText
 62
2
  6
CONTINUOUS
  7
STANDARD
 71
2
 72
1
 10
4.555
 20
-1.9065
 30
0.0
 11
1.0
 21
0.0
 31
0.0
 44
0.9
  1
.42 in.
 40
0.125
 41
1.4
  0
MTEXT
  5
270
100
AcDbEntity
  8
0
100
AcDbMText
 62
2
  6
CONTINUOUS
  7
STANDARD
 71
2
 72
1
 10
7.555
 20
-1.9065
 30
0.0
 11
1.0
 21
0.0
 31
0.0
 44
0.9
  1
10,7 mm
 40
0.125
 41
1.4
  0
MTEXT
  5
271
100
AcDbEntity
  8
0
100
AcDbMText
 62
2
  6
CONTINUOUS
  7
STANDARD
 71
2
 72
1
 10
1.5275
 20
-2.1565
 30
0.0
 11
1.0
 21
0.0
 31
0.0
 44
0.9
  1
Mounting Hole Depth
 40
0.125
 41
3.8
  0
MTEXT
  5
272
100
AcDbEntity
  8
0
100
AcDbMText
 62
2
  6
CONTINUOUS
  7
STANDARD
 71
2
 72
1
 10
6.055
 20
-2.1565
 30
0.0
 11
1.0
 21
0.0
 31
0.0
 44
0.9
  1
Through
 40
0.125
 41
1.4
  0
MTEXT
  5
273
100
AcDbEntity
  8
0
100
AcDbMText
 62
2
  6
CONTINUOUS
  7
STANDARD
 71
2
 72
1
 10
1.5275
 20
-2.4065
 30
0.0
 11
1.0
 21
0.0
 31
0.0
 44
0.9
  1
Mounting Hole Quantity
 40
0.125
 41
4.4
  0
MTEXT
  5
274
100
AcDbEntity
  8
0
100
AcDbMText
 62
2
  6
CONTINUOUS
  7
STANDARD
 71
2
 72
1
 10
6.055
 20
-2.4065
 30
0.0
 11
1.0
 21
0.0
 31
0.0
 44
0.9
  1
2
 40
0.125
 41
0.2
  0
ENDBLK
  5
275
100
AcDbEntity
  8
0
  6
BYBLOCK
 62
0
100
AcDbBlockEnd
  0
BLOCK
  5
276
100
AcDbEntity
  8
0
100
AcDbBlockBegin
  2
*T3
 70
1
 10
0.0
 20
0.0
  3
*T3
  1

  0
LINE
  5
277
100
AcDbEntity
  8
0
100
AcDbLine
 62
2
  6
CONTINUOUS
 10
0.0
 20
0.0
 11
4.6
 21
0.0
  0
LINE
  5
278
100
AcDbEntity
  8
0
100
AcDbLine
 62
2
  6
CONTINUOUS
 10
0.0
 20
0.0
 11
0.0
 21
-0.93775
  0
LINE
  5
279
100
AcDbEntity
  8
0
100
AcDbLine
 62
2
  6
CONTINUOUS
 10
0.0
 20
-0.34375
 11
4.6
 21
-0.34375
  0
LINE
  5
27A
100
AcDbEntity
  8
0
100
AcDbLine
 62
2
  6
CONTINUOUS
 10
0.0
 20
-0.68775
 11
4.6
 21
-0.68775
  0
LINE
  5
27B
100
AcDbEntity
  8
0
100
AcDbLine
 62
2
  6
CONTINUOUS
 10
0.0
 20
-0.93775
 11
4.6
 21
-0.93775
  0
LINE
  5
27C
100
AcDbEntity
  8
0
100
AcDbLine
 62
2
  6
CONTINUOUS
 10
1.3
 20
-0.34375
 11
1.3
 21
-0.93775
  0
LINE
  5
27D
100
AcDbEntity
  8
0
100
AcDbLine
 62
2
  6
CONTINUOUS
 10
3.3
 20
-0.34375
 11
3.3
 21
-0.93775
  0
LINE
  5
27E
100
AcDbEntity
  8
0
100
AcDbLine
 62
2
  6
CONTINUOUS
 10
4.6
 20
0.0
 11
4.6
 21
-0.93775
  0
MTEXT
  5
27F
100
AcDbEntity
  8
0
100
AcDbMText
 62
2
  6
CONTINUOUS
  7
STANDARD
 71
2
 72
1
 10
2.3
 20
-0.099375
 30
0.0
 11
1.0
 21
0.0
 31
0.0
 44
0.9
  1
Port Headings
 40
0.145
 41
3.016
  0
MTEXT
  5
280
100
AcDbEntity
  8
0
100
AcDbMText
 62
2
  6
CONTINUOUS
  7
STANDARD
 71
2
 72
1
 10
0.65
 20
-0.44325
 30
0.0
 11
1.0
 21
0.0
 31
0.0
 44
0.9
  1
Product
 40
0.145
 41
1.624
  0
MTEXT
  5
281
100
AcDbEntity
  8
0
100
AcDbMText
 62
2
  6
CONTINUOUS
  7
STANDARD
 71
2
 72
1
 10
2.3
 20
-0.44325
 30
0.0
 11
1.0
 21
0.0
 31
0.0
 44
0.9
  1
Port
 40
0.145
 41
0.928
  0
MTEXT
  5
282
100
AcDbEntity
  8
0
100
AcDbMText
 62
2
  6
CONTINUOUS
  7
STANDARD
 71
2
 72
1
 10
3.95
 20
-0.44325
 30
0.0
 11
1.0
 21
0.0
 31
0.0
 44
0.9
  1
Size
 40
0.145
 41
0.928
  0
MTEXT
  5
283
100
AcDbEntity
  8
0
100
AcDbMText
 62
2
  6
CONTINUOUS
  7
STANDARD
 71
2
 72
1
 10
0.65
 20
-0.75025
 30
0.0
 11
1.0
 21
0.0
 31
0.0
 44
0.9
  1
PMX
 40
0.125
 41
0.6
  0
MTEXT
  5
284
100
AcDbEntity
  8
0
100
AcDbMText
 62
2
  6
CONTINUOUS
  7
STANDARD
 71
2
 72
1
 10
2.3
 20
-0.75025
 30
0.0
 11
1.0
 21
0.0
 31
0.0
 44
0.9
  1
All Ports
 40
0.125
 41
1.8
  0
MTEXT
  5
285
100
AcDbEntity
  8
0
100
AcDbMText
 62
2
  6
CONTINUOUS
  7
STANDARD
 71
2
 72
1
 10
3.95
 20
-0.75025
 30
0.0
 11
1.0
 21
0.0
 31
0.0
 44
0.9
  1
1" BSPP
 40
0.125
 41
1.4
  0
ENDBLK
  5
286
100
AcDbEntity
  8
0
  6
BYBLOCK
 62
0
100
AcDbBlockEnd
  0
ENDSEC
  0
SECTION
  2
ENTITIES
  0
IMAGE
  5
287
100
AcDbEntity
  8
0
100
AcDbRasterImage
 62
7
  6
CONTINUOUS
 10
19.2297077316
 20
0.3094318264
 30
0.0
 11
0.0066666667
 21
0.0
 31
0.0
 12
0.0
 22
0.0066666667
 32
0.0
 13
369.0
 23
92.0
340
       370
 70
9
280
0
281
50
282
50
283
0
360
       36A
 71
1
 91
2
 14
-0.5
 24
-0.5
 14
368.5
 24
91.5
  0
INSERT
  5
288
100
AcDbEntity
  8
0
100
AcDbBlockReference
 62
2
  6
CONTINUOUS
  2
SUN_FIRST_THIRD_ANGLE_BL0
 10
20.4816717061
 20
1.2289683772
  0
ACAD_TABLE
  5
289
100
AcDbEntity
  8
0
 62
2
  6
CONTINUOUS
100
AcDbBlockReference
  2
*T1
 10
12.42375
 20
0.30125
 30
0.0
100
AcDbTable
342
       372
343
20F
 11
1.0
 21
0.0
 31
0.0
 90
6
 91
4
 92
6
 93
20
 94
0
 95
0
 96
0
 70
1
 41
0.0
141
0.525
141
0.1
141
0.525
141
0.1
142
4.1
142
1.1
142
0.7
142
0.5
142
0.4
142
2.475
171
1
172
0
173
0
174
0
175
1
176
1
 91
33
178
0
145
0.0
301
CELL_VALUE
 90
4
  1
Flow divider manifold assembly
304
ACVALUE_END
170
2
140
0.125
171
1
172
0
173
0
174
0
175
1
176
1
 91
33
178
0
145
0.0
301
CELL_VALUE
 90
4
  1
Jan-20-21
304
ACVALUE_END
170
5
140
0.125
171
1
172
0
173
0
174
0
175
1
176
1
 91
33
178
0
145
0.0
301
CELL_VALUE
 90
4
  1
1.000
304
ACVALUE_END
170
5
140
0.125
171
1
172
0
173
0
174
0
175
1
176
1
 91
33
178
0
145
0.0
301
CELL_VALUE
 90
4
  1
C
304
ACVALUE_END
170
5
140
0.125
171
1
172
0
173
0
174
0
175
1
176
1
 91
33
178
0
145
0.0
301
CELL_VALUE
 90
4
  1
2
304
ACVALUE_END
170
5
140
0.125
171
1
172
0
173
0
174
0
175
1
176
1
 91
33
178
0
145
0.0
301
CELL_VALUE
 90
4
  1
 
304
ACVALUE_END
170
1
140
0.125
171
1
172
0
173
0
174
0
175
1
176
1
 91
33
178
0
145
0.0
301
CELL_VALUE
 90
4
  1
DESCRIPTION
304
ACVALUE_END
170
1
140
0.06
171
1
172
0
173
0
174
0
175
1
176
1
 91
33
178
0
145
0.0
301
CELL_VALUE
 90
4
  1
DATE
304
ACVALUE_END
170
1
140
0.06
171
1
172
0
173
0
174
0
175
1
176
1
 91
33
178
0
145
0.0
301
CELL_VALUE
 90
4
  1
SCALE
304
ACVALUE_END
170
1
140
0.06
171
1
172
0
173
0
174
0
175
1
176
1
 91
33
178
0
145
0.0
301
CELL_VALUE
 90
4
  1
DWG SIZE
304
ACVALUE_END
170
1
140
0.06
171
1
172
0
173
0
174
0
175
1
176
1
 91
33
178
0
145
0.0
301
CELL_VALUE
 90
4
  1
SHEET
304
ACVALUE_END
170
1
140
0.06
171
1
172
0
173
0
174
0
175
1
176
1
 91
33
178
0
145
0.0
301
CELL_VALUE
 90
4
  1
 
304
ACVALUE_END
170
1
140
0.125
171
1
172
0
173
0
174
0
175
1
176
1
 91
33
178
0
145
0.0
301
CELL_VALUE
 90
4
  1
FSEDXAN-PMX
304
ACVALUE_END
170
5
140
0.125
171
1
172
0
173
0
174
0
175
4
176
1
 91
33
178
0
145
0.0
301
CELL_VALUE
 90
4
  1
ALL DIMENSIONS IN INCH\PVIEWS ARE THIRD ANGLE
304
ACVALUE_END
170
5
140
0.12
171
1
172
0
173
1
174
0
175
1
176
1
 91
1
178
0
145
0.0
170
1
171
1
172
0
173
1
174
0
175
1
176
1
 91
1
178
0
145
0.0
170
1
171
1
172
0
173
1
174
0
175
1
176
1
 91
1
178
0
145
0.0
170
5
171
1
172
0
173
0
174
0
175
1
176
1
 91
33
178
0
145
0.0
301
CELL_VALUE
 90
4
  1
 
304
ACVALUE_END
170
1
140
0.125
171
1
172
0
173
0
174
0
175
1
176
1
 91
33
178
0
145
0.0
301
CELL_VALUE
 90
4
  1
MODEL
304
ACVALUE_END
170
1
140
0.06
171
1
172
0
173
0
174
0
175
1
176
1
 91
33
178
0
145
0.0
301
CELL_VALUE
 90
4
  1
 
304
ACVALUE_END
170
1
140
0.125
171
1
172
0
173
0
174
0
175
1
176
1
 91
33
178
0
145
0.0
301
CELL_VALUE
 90
4
  1
 
304
ACVALUE_END
170
1
140
0.125
171
1
172
0
173
0
174
0
175
1
176
1
 91
33
178
0
145
0.0
301
CELL_VALUE
 90
4
  1
 
304
ACVALUE_END
170
1
140
0.125
171
1
172
0
173
0
174
0
175
1
176
1
 91
33
178
0
145
0.0
301
CELL_VALUE
 90
4
  1
 
304
ACVALUE_END
170
1
140
0.125
171
1
172
0
173
0
174
0
175
1
176
1
 91
33
178
0
145
0.0
301
CELL_VALUE
 90
4
  1
 
304
ACVALUE_END
170
1
140
0.125
  0
ACAD_TABLE
  5
28A
100
AcDbEntity
  8
0
 62
2
  6
CONTINUOUS
100
AcDbBlockReference
  2
*T2
 10
12.4237499994
 20
16.47875
 30
0.0
100
AcDbTable
342
       371
343
210
 11
1.0
 21
0.0
 31
0.0
 90
22
 91
10
 92
3
 93
16
 94
0
 95
0
 96
0
 41
0.028
141
0.344
141
0.25
141
0.25
141
0.25
141
0.25
141
0.25
141
0.25
141
0.25
141
0.25
141
0.25
142
3.055
142
3.0
142
3.0
171
1
172
0
173
0
174
0
175
1
176
1
 91
33
178
0
145
0.0
301
CELL_VALUE
 90
4
  1
Technical Data
304
ACVALUE_END
170
5
140
0.145
171
1
172
0
173
0
174
0
175
1
176
1
 91
33
178
0
145
0.0
301
CELL_VALUE
 90
4
  1
U.S. Units
304
ACVALUE_END
170
5
140
0.145
171
1
172
0
173
0
174
0
175
1
176
1
 91
33
178
0
145
0.0
301
CELL_VALUE
 90
4
  1
Metric Units
304
ACVALUE_END
170
5
140
0.145
171
1
172
0
173
0
174
0
175
1
176
1
 91
33
178
0
145
0.0
301
CELL_VALUE
 90
4
  1
Cavity
304
ACVALUE_END
170
5
140
0.125
171
1
172
0
173
0
174
0
175
2
176
1
 91
33
178
0
145
0.0
301
CELL_VALUE
 90
4
  1
T-33A
304
ACVALUE_END
170
5
140
0.125
171
1
172
0
173
1
174
0
175
1
176
1
 91
1
178
0
145
0.0
170
1
171
1
172
0
173
0
174
0
175
1
176
1
 91
33
178
0
145
0.0
301
CELL_VALUE
 90
4
  1
Body Features
304
ACVALUE_END
170
5
140
0.125
171
1
172
0
173
0
174
0
175
2
176
1
 91
33
178
0
145
0.0
301
CELL_VALUE
 90
4
  1
Ninety degree
304
ACVALUE_END
170
5
140
0.125
171
1
172
0
173
1
174
0
175
1
176
1
 91
1
178
0
145
0.0
170
1
171
1
172
0
173
0
174
0
175
1
176
1
 91
33
178
0
145
0.0
301
CELL_VALUE
 90
4
  1
Body Type
304
ACVALUE_END
170
5
140
0.125
171
1
172
0
173
0
174
0
175
2
176
1
 91
33
178
0
145
0.0
301
CELL_VALUE
 90
4
  1
Line mount
304
ACVALUE_END
170
5
140
0.125
171
1
172
0
173
1
174
0
175
1
176
1
 91
1
178
0
145
0.0
170
1
171
1
172
0
173
0
174
0
175
1
176
1
 91
33
178
0
145
0.0
301
CELL_VALUE
 90
4
  1
Interface
304
ACVALUE_END
170
5
140
0.125
171
1
172
0
173
0
174
0
175
2
176
1
 91
33
178
0
145
0.0
301
CELL_VALUE
 90
4
  1
None
304
ACVALUE_END
170
5
140
0.125
171
1
172
0
173
1
174
0
175
1
176
1
 91
1
178
0
145
0.0
170
1
171
1
172
0
173
0
174
0
175
1
176
1
 91
33
178
0
145
0.0
301
CELL_VALUE
 90
4
  1
Open Cavity Quantity
304
ACVALUE_END
170
5
140
0.125
171
1
172
0
173
0
174
0
175
2
176
1
 91
33
178
0
145
0.0
301
CELL_VALUE
 90
4
  1
1
304
ACVALUE_END
170
5
140
0.125
171
1
172
0
173
1
174
0
175
1
176
1
 91
1
178
0
145
0.0
170
1
171
1
172
0
173
0
174
0
175
1
176
1
 91
33
178
0
145
0.0
301
CELL_VALUE
 90
4
  1
Weight
304
ACVALUE_END
170
5
140
0.125
171
1
172
0
173
0
174
0
175
1
176
1
 91
33
178
0
145
0.0
301
CELL_VALUE
 90
4
  1
5.667 lb.
304
ACVALUE_END
170
5
140
0.125
171
1
172
0
173
0
174
0
175
1
176
1
 91
33
178
0
145
0.0
301
CELL_VALUE
 90
4
  1
2,571 kg.
304
ACVALUE_END
170
5
140
0.125
171
1
172
0
173
0
174
0
175
1
176
1
 91
33
178
0
145
0.0
301
CELL_VALUE
 90
4
  1
Mounting Hole Diameter
304
ACVALUE_END
170
5
140
0.125
171
1
172
0
173
0
174
0
175
1
176
1
 91
33
178
0
145
0.0
301
CELL_VALUE
 90
4
  1
.42 in.
304
ACVALUE_END
170
5
140
0.125
171
1
172
0
173
0
174
0
175
1
176
1
 91
33
178
0
145
0.0
301
CELL_VALUE
 90
4
  1
10,7 mm
304
ACVALUE_END
170
5
140
0.125
171
1
172
0
173
0
174
0
175
1
176
1
 91
33
178
0
145
0.0
301
CELL_VALUE
 90
4
  1
Mounting Hole Depth
304
ACVALUE_END
170
5
140
0.125
171
1
172
0
173
0
174
0
175
2
176
1
 91
33
178
0
145
0.0
301
CELL_VALUE
 90
4
  1
Through
304
ACVALUE_END
170
5
140
0.125
171
1
172
0
173
1
174
0
175
1
176
1
 91
1
178
0
145
0.0
170
1
171
1
172
0
173
0
174
0
175
1
176
1
 91
33
178
0
145
0.0
301
CELL_VALUE
 90
4
  1
Mounting Hole Quantity
304
ACVALUE_END
170
5
140
0.125
171
1
172
0
173
0
174
0
175
2
176
1
 91
33
178
0
145
0.0
301
CELL_VALUE
 90
4
  1
2
304
ACVALUE_END
170
5
140
0.125
171
1
172
0
173
1
174
0
175
1
176
1
 91
1
178
0
145
0.0
170
1
  0
ACAD_TABLE
  5
28B
100
AcDbEntity
  8
0
 62
2
  6
CONTINUOUS
100
AcDbBlockReference
  2
*T3
 10
0.52125
 20
1.459
 30
0.0
100
AcDbTable
342
       371
343
211
 11
1.0
 21
0.0
 31
0.0
 90
22
 91
3
 92
3
 93
16
 94
0
 95
0
 96
0
 41
0.05
141
0.34375
141
0.344
141
0.25
142
1.3
142
2.0
142
1.3
171
1
172
0
173
0
174
0
175
3
176
1
 91
33
178
0
145
0.0
301
CELL_VALUE
 90
4
  1
Port Headings
304
ACVALUE_END
170
5
140
0.145
171
1
172
0
173
1
174
0
175
1
176
1
 91
1
178
0
145
0.0
170
1
171
1
172
0
173
1
174
0
175
1
176
1
 91
1
178
0
145
0.0
170
1
171
1
172
0
173
0
174
0
175
1
176
1
 91
33
178
0
145
0.0
301
CELL_VALUE
 90
4
  1
Product
304
ACVALUE_END
170
5
140
0.145
171
1
172
0
173
0
174
0
175
1
176
1
 91
33
178
0
145
0.0
301
CELL_VALUE
 90
4
  1
Port
304
ACVALUE_END
170
5
140
0.145
171
1
172
0
173
0
174
0
175
1
176
1
 91
33
178
0
145
0.0
301
CELL_VALUE
 90
4
  1
Size
304
ACVALUE_END
170
5
140
0.145
171
1
172
0
173
0
174
0
175
1
176
1
 91
33
178
0
145
0.0
301
CELL_VALUE
 90
4
  1
PMX
304
ACVALUE_END
170
5
140
0.125
171
1
172
0
173
0
174
0
175
1
176
1
 91
33
178
0
145
0.0
301
CELL_VALUE
 90
4
  1
All Ports
304
ACVALUE_END
170
5
140
0.125
171
1
172
0
173
0
174
0
175
1
176
1
 91
33
178
0
145
0.0
301
CELL_VALUE
 90
4
  1
1" BSPP
304
ACVALUE_END
170
5
140
0.125
  0
MTEXT
  5
28C
100
AcDbEntity
  8
0
100
AcDbMText
 62
2
  6
CONTINUOUS
  7
STANDARD
 71
1
 72
1
 10
0.52125
 20
5.75995
 30
0.0
 11
1.0
 21
0.0
 31
0.0
 44
0.6
  3
Notes\P \P1. Important: Carefully consider\P   the maximum system pressure. The\P   pressure rating of the manifold is\P   dependent on the manifold material,\P   with the port type/size a secondary\P   consideration. Manifolds\P   constructed of alu
  1
minum are not\P   rated for pressures higher than\P   3000 psi (210 bar), regardless of\P   the port type/size specified.
 40
0.1
 41
3.04
  0
LINE
  5
28D
100
AcDbEntity
  8
0
100
AcDbLine
 62
7
  6
CONTINUOUS
 10
0.30125
 20
0.30125
 11
0.30125
 21
16.69875
  0
LINE
  5
28E
100
AcDbEntity
  8
0
100
AcDbLine
 62
7
  6
CONTINUOUS
 10
0.30125
 20
0.30125
 11
21.69875
 21
0.30125
  0
LINE
  5
28F
100
AcDbEntity
  8
0
100
AcDbLine
 62
7
  6
CONTINUOUS
 10
0.30125
 20
16.69875
 11
21.69875
 21
16.69875
  0
LINE
  5
290
100
AcDbEntity
  8
0
100
AcDbLine
 62
7
  6
CONTINUOUS
 10
21.69875
 20
0.30125
 11
21.69875
 21
16.69875
  0
LINE
  5
291
100
AcDbEntity
  8
0
100
AcDbLine
 62
7
  6
CONTINUOUS
 10
8.7769770475
 20
11.6519255243
 11
9.3593194184
 21
12.2144250934
  0
LINE
  5
292
100
AcDbEntity
  8
0
100
AcDbLine
 62
7
  6
CONTINUOUS
 10
10.4194322198
 20
4.8869858696
 11
10.4508150479
 21
4.8714833534
  0
LINE
  5
293
100
AcDbEntity
  8
0
100
AcDbLine
 62
7
  6
CONTINUOUS
 10
12.6406805816
 20
5.4068272116
 11
8.7769770475
 21
5.6747759618
  0
LINE
  5
294
100
AcDbEntity
  8
0
100
AcDbLine
 62
7
  6
CONTINUOUS
 10
8.7769770475
 20
5.6747759618
 11
8.7769770475
 21
11.6519255243
  0
LINE
  5
295
100
AcDbEntity
  8
0
100
AcDbLine
 62
4
  6
CONTINUOUS
 10
8.9605029667
 20
9.1876778754
 11
8.9605029667
 21
9.206996388
  0
LINE
  5
296
100
AcDbEntity
  8
0
100
AcDbLine
 62
4
  6
CONTINUOUS
 10
8.9677474106
 20
6.9269088443
 11
8.9677474106
 21
6.8109977409
  0
LINE
  5
297
100
AcDbEntity
  8
0
100
AcDbLine
 62
4
  6
CONTINUOUS
 10
9.0112140744
 20
9.2517758562
 11
9.0184585184
 21
9.2802512281
  0
LINE
  5
298
100
AcDbEntity
  8
0
100
AcDbLine
 62
4
  6
CONTINUOUS
 10
8.9605029667
 20
9.206996388
 11
8.9677474106
 21
9.2161532474
  0
LINE
  5
299
100
AcDbEntity
  8
0
100
AcDbLine
 62
4
  6
CONTINUOUS
 10
8.9967251865
 20
9.2334621479
 11
9.0112140744
 21
9.2517758562
  0
LINE
  5
29A
100
AcDbEntity
  8
0
100
AcDbLine
 62
4
  6
CONTINUOUS
 10
9.0184585184
 20
9.1836586442
 11
9.0112140744
 21
9.1745017849
  0
LINE
  5
29B
100
AcDbEntity
  8
0
100
AcDbLine
 62
4
  6
CONTINUOUS
 10
9.0184585184
 20
6.8944142412
 11
8.9532585227
 21
6.8989358763
  0
LINE
  5
29C
100
AcDbEntity
  8
0
100
AcDbLine
 62
4
  6
CONTINUOUS
 10
8.9677474106
 20
9.2161532474
 11
8.9967251865
 21
9.2334621479
  0
LINE
  5
29D
100
AcDbEntity
  8
0
100
AcDbLine
 62
4
  6
CONTINUOUS
 10
9.0112140744
 20
9.1745017849
 11
8.9967251865
 21
9.1658473364
  0
LINE
  5
29E
100
AcDbEntity
  8
0
100
AcDbLine
 62
4
  6
CONTINUOUS
 10
8.9677474106
 20
9.1775162083
 11
8.9605029667
 21
9.1876778754
  0
LINE
  5
29F
100
AcDbEntity
  8
0
100
AcDbLine
 62
4
  6
CONTINUOUS
 10
8.9677474106
 20
6.8109977409
 11
9.0184585184
 21
6.8944142412
  0
LINE
  5
2A0
100
AcDbEntity
  8
0
100
AcDbLine
 62
7
  6
CONTINUOUS
 10
12.6406805816
 20
11.3839767742
 11
13.2230229525
 21
11.9464763433
  0
LINE
  5
2A1
100
AcDbEntity
  8
0
100
AcDbLine
 62
4
  6
CONTINUOUS
 10
11.4277536727
 20
7.6063216647
 11
11.3946362148
 21
7.6086183682
  0
LINE
  5
2A2
100
AcDbEntity
  8
0
100
AcDbLine
 62
4
  6
CONTINUOUS
 10
10.5280627409
 20
7.6687154427
 11
10.5253029633
 21
7.6689068339
  0
LINE
  5
2A3
100
AcDbEntity
  8
0
100
AcDbLine
 62
4
  6
CONTINUOUS
 10
11.0800203711
 20
7.6635545072
 11
11.0386235405
 21
7.6664253871
  0
LINE
  5
2A4
100
AcDbEntity
  8
0
100
AcDbLine
 62
4
  6
CONTINUOUS
 10
10.9089134936
 20
7.6754208094
 11
10.8757960512
 21
7.6777175119
  0
LINE
  5
2A5
100
AcDbEntity
  8
0
100
AcDbLine
 62
4
  6
CONTINUOUS
 10
10.8426785536
 20
7.6800142181
 11
10.8095611113
 21
7.6823109206
  0
LINE
  5
2A6
100
AcDbEntity
  8
0
100
AcDbLine
 62
4
  6
CONTINUOUS
 10
10.4756267998
 20
7.7054693437
 11
10.4425092469
 21
7.7077660538
  0
LINE
  5
2A7
100
AcDbEntity
  8
0
100
AcDbLine
 62
4
  6
CONTINUOUS
 10
10.4011124716
 20
7.7106369299
 11
10.3679950293
 21
7.7129336324
  0
LINE
  5
2A8
100
AcDbEntity
  8
0
100
AcDbLine
 62
4
  6
CONTINUOUS
 10
10.7267674502
 20
7.6880526805
 11
10.7681642807
 21
7.6851818005
  0
LINE
  5
2A9
100
AcDbEntity
  8
0
100
AcDbLine
 62
4
  6
CONTINUOUS
 10
10.3679950293
 20
7.757090244
 11
10.4011124716
 21
7.7492739656
  0
LINE
  5
2AA
100
AcDbEntity
  8
0
100
AcDbLine
 62
4
  6
CONTINUOUS
 10
10.3597156964
 20
7.7631839937
 11
10.3679950293
 21
7.757090244
  0
LINE
  5
2AB
100
AcDbEntity
  8
0
100
AcDbLine
 62
4
  6
CONTINUOUS
 10
10.4011124716
 20
7.7492739656
 11
10.4093918046
 21
7.7431802158
  0
LINE
  5
2AC
100
AcDbEntity
  8
0
100
AcDbLine
 62
4
  6
CONTINUOUS
 10
10.3679950293
 20
7.7129336324
 11
10.3597156964
 21
7.7217871735
  0
LINE
  5
2AD
100
AcDbEntity
  8
0
100
AcDbLine
 62
4
  6
CONTINUOUS
 10
10.4093918046
 20
7.7845770386
 11
10.4011124716
 21
7.7934305772
  0
LINE
  5
2AE
100
AcDbEntity
  8
0
100
AcDbLine
 62
4
  6
CONTINUOUS
 10
10.4756267998
 20
7.788262991
 11
10.4839061327
 21
7.7794094524
  0
LINE
  5
2AF
100
AcDbEntity
  8
0
100
AcDbLine
 62
7
  6
CONTINUOUS
 10
10.3096522386
 20
5.5684845763
 11
10.3096522386
 21
4.953775661
  0
LINE
  5
2B0
100
AcDbEntity
  8
0
100
AcDbLine
 62
7
  6
CONTINUOUS
 10
10.3213624215
 20
5.5676724723
 11
10.3213624215
 21
4.9424645123
  0
LINE
  5
2B1
100
AcDbEntity
  8
0
100
AcDbLine
 62
4
  6
CONTINUOUS
 10
10.3597156964
 20
7.7880220884
 11
10.3597156964
 21
7.7631839937
  0
LINE
  5
2B2
100
AcDbEntity
  8
0
100
AcDbLine
 62
4
  6
CONTINUOUS
 10
10.4093918046
 20
7.7431802158
 11
10.4093918046
 21
7.7183421237
  0
LINE
  5
2B3
100
AcDbEntity
  8
0
100
AcDbLine
 62
4
  6
CONTINUOUS
 10
10.7516055596
 20
7.7277269754
 11
10.7184881173
 21
7.7300236778
  0
LINE
  5
2B4
100
AcDbEntity
  8
0
100
AcDbLine
 62
4
  6
CONTINUOUS
 10
11.4360330376
 20
7.7216585922
 11
11.4029155789
 21
7.7239552958
  0
LINE
  5
2B5
100
AcDbEntity
  8
0
100
AcDbLine
 62
4
  6
CONTINUOUS
 10
11.3366806666
 20
7.7285487025
 11
11.3118425641
 21
7.7302712308
  0
LINE
  5
2B6
100
AcDbEntity
  8
0
100
AcDbLine
 62
4
  6
CONTINUOUS
 10
10.6770912867
 20
7.7742913814
 11
10.6356944562
 21
7.7771622613
  0
LINE
  5
2B7
100
AcDbEntity
  8
0
100
AcDbLine
 62
4
  6
CONTINUOUS
 10
10.4011124716
 20
7.7934305772
 11
10.3679950293
 21
7.7957272796
  0
LINE
  5
2B8
100
AcDbEntity
  8
0
100
AcDbLine
 62
4
  6
CONTINUOUS
 10
10.4425092469
 20
7.7905597011
 11
10.4756267998
 21
7.788262991
  0
LINE
  5
2B9
100
AcDbEntity
  8
0
100
AcDbLine
 62
4
  6
CONTINUOUS
 10
10.5777389044
 20
7.7811814925
 11
10.5942976256
 21
7.7800331413
  0
LINE
  5
2BA
100
AcDbEntity
  8
0
100
AcDbLine
 62
4
  6
CONTINUOUS
 10
10.7184881173
 20
7.7714205014
 11
10.7516055596
 21
7.769123799
  0
LINE
  5
2BB
100
AcDbEntity
  8
0
100
AcDbLine
 62
4
  6
CONTINUOUS
 10
10.8757960512
 20
7.7605111592
 11
10.9089134936
 21
7.7582144567
  0
LINE
  5
2BC
100
AcDbEntity
  8
0
100
AcDbLine
 62
4
  6
CONTINUOUS
 10
10.99722671
 20
7.7796877962
 11
10.9806679888
 21
7.7808361474
  0
LINE
  5
2BD
100
AcDbEntity
  8
0
100
AcDbLine
 62
4
  6
CONTINUOUS
 10
12.3774657788
 20
7.7819403233
 11
12.3629768909
 21
7.7829451311
  0
LINE
  5
2BE
100
AcDbEntity
  8
0
100
AcDbLine
 62
4
  6
CONTINUOUS
 10
12.3774657788
 20
7.8302366187
 11
12.3629768909
 21
7.8312414265
  0
LINE
  5
2BF
100
AcDbEntity
  8
0
100
AcDbLine
 62
4
  6
CONTINUOUS
 10
10.7516055596
 20
7.769123799
 11
10.7681642807
 21
7.7596960829
  0
LINE
  5
2C0
100
AcDbEntity
  8
0
100
AcDbLine
 62
4
  6
CONTINUOUS
 10
10.9089134936
 20
7.7582144567
 11
10.9254722147
 21
7.7487867406
  0
LINE
  5
2C1
100
AcDbEntity
  8
0
100
AcDbLine
 62
4
  6
CONTINUOUS
 10
8.9822362986
 20
9.1668521442
 11
8.9677474106
 21
9.1775162083
  0
LINE
  5
2C2
100
AcDbEntity
  8
0
100
AcDbLine
 62
4
  6
CONTINUOUS
 10
10.5942976256
 20
7.7800331413
 11
10.6025770138
 21
7.7711795989
  0
LINE
  5
2C3
100
AcDbEntity
  8
0
100
AcDbLine
 62
4
  6
CONTINUOUS
 10
10.6853706749
 20
7.765437839
 11
10.6770912867
 21
7.7742913814
  0
LINE
  5
2C4
100
AcDbEntity
  8
0
100
AcDbLine
 62
4
  6
CONTINUOUS
 10
11.0386235405
 20
7.6664253871
 11
11.0303441799
 21
7.6752789302
  0
LINE
  5
2C5
100
AcDbEntity
  8
0
100
AcDbLine
 62
4
  6
CONTINUOUS
 10
10.8095611113
 20
7.6823109206
 11
10.804041556
 21
7.6909730705
  0
LINE
  5
2C6
100
AcDbEntity
  8
0
100
AcDbLine
 62
4
  6
CONTINUOUS
 10
10.7184881173
 20
7.7051855822
 11
10.7267674502
 21
7.6880526805
  0
LINE
  5
2C7
100
AcDbEntity
  8
0
100
AcDbLine
 62
4
  6
CONTINUOUS
 10
10.4839061327
 20
7.7794094524
 11
10.4839061327
 21
7.7131745375
  0
LINE
  5
2C8
100
AcDbEntity
  8
0
100
AcDbLine
 62
4
  6
CONTINUOUS
 10
10.5280627409
 20
7.7846265461
 11
10.5280627409
 21
7.7018328989
  0
LINE
  5
2C9
100
AcDbEntity
  8
0
100
AcDbLine
 62
4
  6
CONTINUOUS
 10
10.5280627409
 20
7.6769948102
 11
10.5280627409
 21
7.6687154427
  0
LINE
  5
2CA
100
AcDbEntity
  8
0
100
AcDbLine
 62
4
  6
CONTINUOUS
 10
10.54738122
 20
8.3744334326
 11
10.54738122
 21
8.2585223291
  0
LINE
  5
2CB
100
AcDbEntity
  8
0
100
AcDbLine
 62
4
  6
CONTINUOUS
 10
10.5942976611
 20
8.271827391
 11
10.5942976611
 21
8.3546210365
  0
LINE
  5
2CC
100
AcDbEntity
  8
0
100
AcDbLine
 62
4
  6
CONTINUOUS
 10
10.6025770138
 20
7.7711795989
 11
10.6025770138
 21
7.6635478603
  0
LINE
  5
2CD
100
AcDbEntity
  8
0
100
AcDbLine
 62
4
  6
CONTINUOUS
 10
10.6356944562
 20
7.7771622613
 11
10.6356944562
 21
7.694368614
  0
LINE
  5
2CE
100
AcDbEntity
  8
0
100
AcDbLine
 62
4
  6
CONTINUOUS
 10
10.6522532128
 20
8.3671605352
 11
10.6522532128
 21
8.2512494317
  0
LINE
  5
2CF
100
AcDbEntity
  8
0
100
AcDbLine
 62
4
  6
CONTINUOUS
 10
10.6853706749
 20
7.6909235566
 11
10.6853706749
 21
7.765437839
  0
LINE
  5
2D0
100
AcDbEntity
  8
0
100
AcDbLine
 62
4
  6
CONTINUOUS
 10
10.6853706551
 20
8.2655114574
 11
10.6853706551
 21
8.3483051029
  0
LINE
  5
2D1
100
AcDbEntity
  8
0
100
AcDbLine
 62
4
  6
CONTINUOUS
 10
10.7184881173
 20
7.7714205014
 11
10.7184881173
 21
7.7051855822
  0
LINE
  5
2D2
100
AcDbEntity
  8
0
100
AcDbLine
 62
4
  6
CONTINUOUS
 10
10.7433262069
 20
8.3442858718
 11
10.7433262069
 21
8.2614922262
  0
LINE
  5
2D3
100
AcDbEntity
  8
0
100
AcDbLine
 62
4
  6
CONTINUOUS
 10
11.0303441338
 20
7.9700243097
 11
10.9889473102
 21
7.9728951892
  0
LINE
  5
2D4
100
AcDbEntity
  8
0
100
AcDbLine
 62
4
  6
CONTINUOUS
 10
12.3629768909
 20
7.8988562345
 11
12.3774657788
 21
7.8978514267
  0
LINE
  5
2D5
100
AcDbEntity
  8
0
100
AcDbLine
 62
4
  6
CONTINUOUS
 10
10.9889473102
 20
8.039130105
 11
11.0303441338
 21
8.0362592255
  0
LINE
  5
2D6
100
AcDbEntity
  8
0
100
AcDbLine
 62
4
  6
CONTINUOUS
 10
11.3173621342
 20
8.2051239714
 11
11.2759653174
 21
8.2079948504
  0
LINE
  5
2D7
100
AcDbEntity
  8
0
100
AcDbLine
 62
4
  6
CONTINUOUS
 10
11.1131378212
 20
8.2192869756
 11
11.046902909
 21
8.2238803823
  0
LINE
  5
2D8
100
AcDbEntity
  8
0
100
AcDbLine
 62
4
  6
CONTINUOUS
 10
11.013785439
 20
8.2261770867
 11
10.9641092479
 21
8.2296221422
  0
LINE
  5
2D9
100
AcDbEntity
  8
0
100
AcDbLine
 62
4
  6
CONTINUOUS
 10
10.823360035
 20
8.2393831333
 11
10.7902425927
 21
8.2416798357
  0
LINE
  5
2DA
100
AcDbEntity
  8
0
100
AcDbLine
 62
4
  6
CONTINUOUS
 10
10.7267674857
 20
8.2460818494
 11
10.7019293763
 21
8.2478043781
  0
LINE
  5
2DB
100
AcDbEntity
  8
0
100
AcDbLine
 62
4
  6
CONTINUOUS
 10
10.6522532128
 20
8.2512494317
 11
10.6108563823
 21
8.2541203117
  0
LINE
  5
2DC
100
AcDbEntity
  8
0
100
AcDbLine
 62
4
  6
CONTINUOUS
 10
10.54738122
 20
8.2585223291
 11
10.4977050565
 21
8.2619673828
  0
LINE
  5
2DD
100
AcDbEntity
  8
0
100
AcDbLine
 62
4
  6
CONTINUOUS
 10
10.4645876141
 20
8.3084206934
 11
10.4204310059
 21
8.3335612721
  0
LINE
  5
2DE
100
AcDbEntity
  8
0
100
AcDbLine
 62
4
  6
CONTINUOUS
 10
11.3863568508
 20
7.6919861878
 11
11.4443124025
 21
7.638290769
  0
LINE
  5
2DF
100
AcDbEntity
  8
0
100
AcDbLine
 62
4
  6
CONTINUOUS
 10
10.6108563823
 20
8.2541203117
 11
10.5942976611
 21
8.271827391
  0
LINE
  5
2E0
100
AcDbEntity
  8
0
100
AcDbLine
 62
4
  6
CONTINUOUS
 10
10.7019293763
 20
8.2478043781
 11
10.6853706551
 21
8.2655114574
  0
LINE
  5
2E1
100
AcDbEntity
  8
0
100
AcDbLine
 62
4
  6
CONTINUOUS
 10
10.9889473102
 20
7.9728951892
 11
10.9723885821
 21
7.990602269
  0
LINE
  5
2E2
100
AcDbEntity
  8
0
100
AcDbLine
 62
4
  6
CONTINUOUS
 10
11.3946362148
 20
7.6086183682
 11
11.3863568508
 21
7.6174719115
  0
LINE
  5
2E3
100
AcDbEntity
  8
0
100
AcDbLine
 62
4
  6
CONTINUOUS
 10
10.7267674857
 20
8.3619929528
 11
10.7433262069
 21
8.3442858718
  0
LINE
  5
2E4
100
AcDbEntity
  8
0
100
AcDbLine
 62
4
  6
CONTINUOUS
 10
11.3532393947
 20
7.710841621
 11
11.3366806666
 21
7.7285487025
  0
LINE
  5
2E5
100
AcDbEntity
  8
0
100
AcDbLine
 62
4
  6
CONTINUOUS
 10
10.8399187437
 20
7.9832303554
 11
10.7736838452
 21
8.1037348646
  0
LINE
  5
2E6
100
AcDbEntity
  8
0
100
AcDbLine
 62
4
  6
CONTINUOUS
 10
10.939271126
 20
7.9763402443
 11
10.9061536698
 21
8.0448718634
  0
LINE
  5
2E7
100
AcDbEntity
  8
0
100
AcDbLine
 62
4
  6
CONTINUOUS
 10
10.7681642807
 20
7.7596960829
 11
10.7681642807
 21
7.7348579882
  0
LINE
  5
2E8
100
AcDbEntity
  8
0
100
AcDbLine
 62
7
  6
CONTINUOUS
 10
10.7947394003
 20
5.4902138622
 11
10.7947394003
 21
4.81994569
  0
LINE
  5
2E9
100
AcDbEntity
  8
0
100
AcDbLine
 62
4
  6
CONTINUOUS
 10
10.804041556
 20
7.6909730705
 11
10.804041556
 21
7.7075317986
  0
LINE
  5
2EA
100
AcDbEntity
  8
0
100
AcDbLine
 62
7
  6
CONTINUOUS
 10
10.8384423644
 20
5.4871830513
 11
10.8384423644
 21
4.8169148791
  0
LINE
  5
2EB
100
AcDbEntity
  8
0
100
AcDbLine
 62
4
  6
CONTINUOUS
 10
10.8399187562
 20
8.3375871557
 11
10.8399187562
 21
8.2547935102
  0
LINE
  5
2EC
100
AcDbEntity
  8
0
100
AcDbLine
 62
4
  6
CONTINUOUS
 10
10.8426785536
 20
7.7628078654
 11
10.8426785536
 21
7.6800142181
  0
LINE
  5
2ED
100
AcDbEntity
  8
0
100
AcDbLine
 62
4
  6
CONTINUOUS
 10
10.8730362137
 20
7.9809336511
 11
10.8730362137
 21
8.0968447545
  0
LINE
  5
2EE
100
AcDbEntity
  8
0
100
AcDbLine
 62
4
  6
CONTINUOUS
 10
10.8757960512
 20
7.6446000557
 11
10.8757960512
 21
7.7605111592
  0
LINE
  5
2EF
100
AcDbEntity
  8
0
100
AcDbLine
 62
4
  6
CONTINUOUS
 10
10.9254722147
 20
7.7487867406
 11
10.9254722147
 21
7.6825518257
  0
LINE
  5
2F0
100
AcDbEntity
  8
0
100
AcDbLine
 62
4
  6
CONTINUOUS
 10
10.939271126
 20
8.0922513477
 11
10.939271126
 21
7.9763402443
  0
LINE
  5
2F1
100
AcDbEntity
  8
0
100
AcDbLine
 62
4
  6
CONTINUOUS
 10
10.9723885821
 20
7.990602269
 11
10.9723885821
 21
8.0237197251
  0
LINE
  5
2F2
100
AcDbEntity
  8
0
100
AcDbLine
 62
4
  6
CONTINUOUS
 10
11.013785439
 20
8.3420881901
 11
11.013785439
 21
8.2261770867
  0
LINE
  5
2F3
100
AcDbEntity
  8
0
100
AcDbLine
 62
4
  6
CONTINUOUS
 10
11.0303441338
 20
8.0859354132
 11
11.0303441338
 21
7.9700243097
  0
LINE
  5
2F4
100
AcDbEntity
  8
0
100
AcDbLine
 62
4
  6
CONTINUOUS
 10
11.0303441799
 20
7.6752789302
 11
11.0303441799
 21
7.74979321
  0
LINE
  5
2F5
100
AcDbEntity
  8
0
100
AcDbLine
 62
4
  6
CONTINUOUS
 10
10.5253029633
 20
7.6689068339
 11
10.5280627409
 21
7.6769948102
  0
LINE
  5
2F6
100
AcDbEntity
  8
0
100
AcDbLine
 62
4
  6
CONTINUOUS
 10
10.5942976611
 20
8.3546210365
 11
10.6108563823
 21
8.3700314151
  0
LINE
  5
2F7
100
AcDbEntity
  8
0
100
AcDbLine
 62
4
  6
CONTINUOUS
 10
10.6853706551
 20
8.3483051029
 11
10.7019293763
 21
8.3637154815
  0
LINE
  5
2F8
100
AcDbEntity
  8
0
100
AcDbLine
 62
4
  6
CONTINUOUS
 10
10.7433262069
 20
8.2614922262
 11
10.7267674857
 21
8.2460818494
  0
LINE
  5
2F9
100
AcDbEntity
  8
0
100
AcDbLine
 62
4
  6
CONTINUOUS
 10
10.4204310059
 20
8.3335612721
 11
10.4645876141
 21
8.3525773068
  0
LINE
  5
2FA
100
AcDbEntity
  8
0
100
AcDbLine
 62
4
  6
CONTINUOUS
 10
10.5142637776
 20
8.3104952158
 11
10.54738122
 21
8.3081985134
  0
LINE
  5
2FB
100
AcDbEntity
  8
0
100
AcDbLine
 62
4
  6
CONTINUOUS
 10
10.980667969
 20
8.2781499753
 11
11.013785439
 21
8.2758532709
  0
LINE
  5
2FC
100
AcDbEntity
  8
0
100
AcDbLine
 62
4
  6
CONTINUOUS
 10
11.2014510376
 20
8.295956077
 11
11.1572944294
 21
8.2990183482
  0
LINE
  5
2FD
100
AcDbEntity
  8
0
100
AcDbLine
 62
4
  6
CONTINUOUS
 10
11.013785439
 20
8.3420881901
 11
10.9641092479
 21
8.3455332457
  0
LINE
  5
2FE
100
AcDbEntity
  8
0
100
AcDbLine
 62
4
  6
CONTINUOUS
 10
10.54738122
 20
8.3744334326
 11
10.4977050565
 21
8.3778784862
  0
LINE
  5
2FF
100
AcDbEntity
  8
0
100
AcDbLine
 62
4
  6
CONTINUOUS
 10
10.6108563823
 20
8.3700314151
 11
10.6522532128
 21
8.3671605352
  0
LINE
  5
300
100
AcDbEntity
  8
0
100
AcDbLine
 62
4
  6
CONTINUOUS
 10
10.7019293763
 20
8.3637154815
 11
10.7267674857
 21
8.3619929528
  0
LINE
  5
301
100
AcDbEntity
  8
0
100
AcDbLine
 62
4
  6
CONTINUOUS
 10
10.7902425927
 20
8.3575909392
 11
10.823360035
 21
8.3552942367
  0
LINE
  5
302
100
AcDbEntity
  8
0
100
AcDbLine
 62
4
  6
CONTINUOUS
 10
11.2759653174
 20
8.3239059538
 11
11.3173621342
 21
8.3210350748
  0
LINE
  5
303
100
AcDbEntity
  8
0
100
AcDbLine
 62
4
  6
CONTINUOUS
 10
11.3835970534
 20
8.2667654799
 11
11.3394404417
 21
8.2919060571
  0
LINE
  5
304
100
AcDbEntity
  8
0
100
AcDbLine
 62
4
  6
CONTINUOUS
 10
10.823360035
 20
8.3552942367
 11
10.8399187562
 21
8.3375871557
  0
LINE
  5
305
100
AcDbEntity
  8
0
100
AcDbLine
 62
4
  6
CONTINUOUS
 10
11.4443124025
 20
7.7128050514
 11
11.4360330376
 21
7.7216585922
  0
LINE
  5
306
100
AcDbEntity
  8
0
100
AcDbLine
 62
4
  6
CONTINUOUS
 10
11.2759653174
 20
8.2079948504
 11
11.2594065894
 21
8.2257019301
  0
LINE
  5
307
100
AcDbEntity
  8
0
100
AcDbLine
 62
4
  6
CONTINUOUS
 10
11.2621663868
 20
7.6178051819
 11
11.2042108351
 21
7.7377355165
  0
LINE
  5
308
100
AcDbEntity
  8
0
100
AcDbLine
 62
4
  6
CONTINUOUS
 10
10.99722671
 20
7.6692962671
 11
10.9723886006
 21
7.7538124431
  0
LINE
  5
309
100
AcDbEntity
  8
0
100
AcDbLine
 62
4
  6
CONTINUOUS
 10
11.0800203513
 20
8.3374947833
 11
11.0800203513
 21
8.2215836799
  0
LINE
  5
30A
100
AcDbEntity
  8
0
100
AcDbLine
 62
4
  6
CONTINUOUS
 10
11.0800203711
 20
7.7463481545
 11
11.0800203711
 21
7.630437051
  0
LINE
  5
30B
100
AcDbEntity
  8
0
100
AcDbLine
 62
4
  6
CONTINUOUS
 10
11.2042108351
 20
7.7377355165
 11
11.2042108351
 21
7.6218244131
  0
LINE
  5
30C
100
AcDbEntity
  8
0
100
AcDbLine
 62
4
  6
CONTINUOUS
 10
11.2594065894
 20
8.2257019301
 11
11.2594065894
 21
8.3084955757
  0
LINE
  5
30D
100
AcDbEntity
  8
0
100
AcDbLine
 62
4
  6
CONTINUOUS
 10
11.2621663868
 20
7.7337162854
 11
11.2621663868
 21
7.6178051819
  0
LINE
  5
30E
100
AcDbEntity
  8
0
100
AcDbLine
 62
4
  6
CONTINUOUS
 10
11.2952838429
 20
7.7148608522
 11
11.2952838429
 21
7.6155084786
  0
LINE
  5
30F
100
AcDbEntity
  8
0
100
AcDbLine
 62
4
  6
CONTINUOUS
 10
11.3173621342
 20
8.3210350748
 11
11.3173621342
 21
8.2051239714
  0
LINE
  5
310
100
AcDbEntity
  8
0
100
AcDbLine
 62
4
  6
CONTINUOUS
 10
11.2124901897
 20
8.3283079689
 11
11.1793727335
 21
8.2146935688
  0
LINE
  5
311
100
AcDbEntity
  8
0
100
AcDbLine
 62
4
  6
CONTINUOUS
 10
10.9806679888
 20
7.7808361474
 11
10.9475505465
 21
7.6727413207
  0
LINE
  5
312
100
AcDbEntity
  8
0
100
AcDbLine
 62
4
  6
CONTINUOUS
 10
10.9061536698
 20
8.0448718634
 11
10.8730362137
 21
7.9809336511
  0
LINE
  5
313
100
AcDbEntity
  8
0
100
AcDbLine
 62
4
  6
CONTINUOUS
 10
10.8399187437
 20
8.0991414588
 11
10.7736838452
 21
7.9878237612
  0
LINE
  5
314
100
AcDbEntity
  8
0
100
AcDbLine
 62
4
  6
CONTINUOUS
 10
10.8399187562
 20
8.2547935102
 11
10.823360035
 21
8.2393831333
  0
LINE
  5
315
100
AcDbEntity
  8
0
100
AcDbLine
 62
4
  6
CONTINUOUS
 10
10.3679950293
 20
7.7957272796
 11
10.3597156964
 21
7.7880220884
  0
LINE
  5
316
100
AcDbEntity
  8
0
100
AcDbLine
 62
4
  6
CONTINUOUS
 10
10.4093918046
 20
7.7183421237
 11
10.4011124716
 21
7.7106369299
  0
LINE
  5
317
100
AcDbEntity
  8
0
100
AcDbLine
 62
4
  6
CONTINUOUS
 10
10.4839061327
 20
7.7131745375
 11
10.4756267998
 21
7.7054693437
  0
LINE
  5
318
100
AcDbEntity
  8
0
100
AcDbLine
 62
4
  6
CONTINUOUS
 10
11.2594065894
 20
8.3084955757
 11
11.2759653174
 21
8.3239059538
  0
LINE
  5
319
100
AcDbEntity
  8
0
100
AcDbLine
 62
4
  6
CONTINUOUS
 10
12.3629768909
 20
7.7829451311
 11
12.348488003
 21
7.7936091952
  0
LINE
  5
31A
100
AcDbEntity
  8
0
100
AcDbLine
 62
4
  6
CONTINUOUS
 10
12.3629768909
 20
7.8312414265
 11
12.348488003
 21
7.8419054906
  0
LINE
  5
31B
100
AcDbEntity
  8
0
100
AcDbLine
 62
4
  6
CONTINUOUS
 10
11.1793727335
 20
8.2146935688
 11
11.1462552636
 21
8.3329013766
  0
LINE
  5
31C
100
AcDbEntity
  8
0
100
AcDbLine
 62
4
  6
CONTINUOUS
 10
11.3532393947
 20
7.6114892474
 11
11.3532393947
 21
7.710841621
  0
LINE
  5
31D
100
AcDbEntity
  8
0
100
AcDbLine
 62
4
  6
CONTINUOUS
 10
11.3863568508
 20
7.7085449176
 11
11.3863568508
 21
7.6919861878
  0
LINE
  5
31E
100
AcDbEntity
  8
0
100
AcDbLine
 62
4
  6
CONTINUOUS
 10
11.4443124025
 20
7.638290769
 11
11.4443124025
 21
7.6217320409
  0
LINE
  5
31F
100
AcDbEntity
  8
0
100
AcDbLine
 62
7
  6
CONTINUOUS
 10
11.4850871617
 20
5.4869678875
 11
11.4850871617
 21
4.8617599274
  0
LINE
  5
320
100
AcDbEntity
  8
0
100
AcDbLine
 62
7
  6
CONTINUOUS
 10
11.5170799429
 20
5.4847491806
 11
11.5170799429
 21
4.8700402653
  0
LINE
  5
321
100
AcDbEntity
  8
0
100
AcDbLine
 62
4
  6
CONTINUOUS
 10
10.9723885821
 20
8.0237197251
 11
10.9889473102
 21
8.039130105
  0
LINE
  5
322
100
AcDbEntity
  8
0
100
AcDbLine
 62
4
  6
CONTINUOUS
 10
11.3394404417
 20
8.2477494437
 11
11.3835970534
 21
8.2667654799
  0
LINE
  5
323
100
AcDbEntity
  8
0
100
AcDbLine
 62
4
  6
CONTINUOUS
 10
10.7681642807
 20
7.7348579882
 11
10.7516055596
 21
7.7277269754
  0
LINE
  5
324
100
AcDbEntity
  8
0
100
AcDbLine
 62
4
  6
CONTINUOUS
 10
8.9967251865
 20
9.1658473364
 11
8.9822362986
 21
9.1668521442
  0
LINE
  5
325
100
AcDbEntity
  8
0
100
AcDbLine
 62
4
  6
CONTINUOUS
 10
12.3774657788
 20
7.8978514267
 11
12.3919546668
 21
7.88718736
  0
LINE
  5
326
100
AcDbEntity
  8
0
100
AcDbLine
 62
7
  6
CONTINUOUS
 10
11.6903477614
 20
5.4727330166
 11
11.6903477614
 21
5.037404136
  0
LINE
  5
327
100
AcDbEntity
  8
0
100
AcDbLine
 62
4
  6
CONTINUOUS
 10
11.3118425641
 20
7.7302712308
 11
11.2952838429
 21
7.7148608522
  0
LINE
  5
328
100
AcDbEntity
  8
0
100
AcDbLine
 62
4
  6
CONTINUOUS
 10
11.4029155789
 20
7.7239552958
 11
11.3863568508
 21
7.7085449176
  0
LINE
  5
329
100
AcDbEntity
  8
0
100
AcDbLine
 62
4
  6
CONTINUOUS
 10
10.9254722147
 20
7.6825518257
 11
10.9089134936
 21
7.6754208094
  0
LINE
  5
32A
100
AcDbEntity
  8
0
100
AcDbLine
 62
4
  6
CONTINUOUS
 10
9.0184585184
 20
9.2802512281
 11
8.9605029667
 21
9.2842704593
  0
LINE
  5
32B
100
AcDbEntity
  8
0
100
AcDbLine
 62
4
  6
CONTINUOUS
 10
12.348488003
 20
7.7936091952
 11
12.341243559
 21
7.8037708623
  0
LINE
  5
32C
100
AcDbEntity
  8
0
100
AcDbLine
 62
4
  6
CONTINUOUS
 10
12.348488003
 20
7.8419054906
 11
12.333999115
 21
7.8622288145
  0
LINE
  5
32D
100
AcDbEntity
  8
0
100
AcDbLine
 62
4
  6
CONTINUOUS
 10
12.3919546668
 20
7.88718736
 11
12.3991991107
 21
7.8770256972
  0
LINE
  5
32E
100
AcDbEntity
  8
0
100
AcDbLine
 62
4
  6
CONTINUOUS
 10
11.4443124025
 20
7.6217320409
 11
11.4277536727
 21
7.6063216647
  0
LINE
  5
32F
100
AcDbEntity
  8
0
100
AcDbLine
 62
4
  6
CONTINUOUS
 10
12.333999115
 20
7.8622288145
 11
12.333999115
 21
7.8718880743
  0
LINE
  5
330
100
AcDbEntity
  8
0
100
AcDbLine
 62
4
  6
CONTINUOUS
 10
12.341243559
 20
7.8037708623
 11
12.341243559
 21
7.8134301186
  0
LINE
  5
331
100
AcDbEntity
  8
0
100
AcDbLine
 62
4
  6
CONTINUOUS
 10
12.333999115
 20
7.8718880743
 11
12.348488003
 21
7.8902017834
  0
LINE
  5
332
100
AcDbEntity
  8
0
100
AcDbLine
 62
4
  6
CONTINUOUS
 10
12.341243559
 20
7.8134301186
 11
12.348488003
 21
7.8225869711
  0
LINE
  5
333
100
AcDbEntity
  8
0
100
AcDbLine
 62
4
  6
CONTINUOUS
 10
12.348488003
 20
7.8902017834
 11
12.3629768909
 21
7.8988562345
  0
LINE
  5
334
100
AcDbEntity
  8
0
100
AcDbLine
 62
4
  6
CONTINUOUS
 10
12.348488003
 20
7.8225869711
 11
12.3629768909
 21
7.8312414265
  0
LINE
  5
335
100
AcDbEntity
  8
0
100
AcDbLine
 62
4
  6
CONTINUOUS
 10
12.3919546668
 20
7.7905947718
 11
12.3774657788
 21
7.7819403233
  0
LINE
  5
336
100
AcDbEntity
  8
0
100
AcDbLine
 62
7
  6
CONTINUOUS
 10
12.6406805816
 20
5.4068272116
 11
12.6406805816
 21
11.3839767742
  0
LINE
  5
337
100
AcDbEntity
  8
0
100
AcDbLine
 62
7
  6
CONTINUOUS
 10
13.2230229525
 20
11.9464763433
 11
13.2230229525
 21
5.9693267807
  0
LINE
  5
338
100
AcDbEntity
  8
0
100
AcDbLine
 62
7
  6
CONTINUOUS
 10
12.6406805816
 20
11.3839767742
 11
8.7769770475
 21
11.6519255243
  0
LINE
  5
339
100
AcDbEntity
  8
0
100
AcDbLine
 62
7
  6
CONTINUOUS
 10
13.2230229525
 20
5.9693267807
 11
12.6406805816
 21
5.4068272116
  0
LINE
  5
33A
100
AcDbEntity
  8
0
100
AcDbLine
 62
7
  6
CONTINUOUS
 10
11.5679440937
 20
4.8807500101
 11
11.5491849521
 21
4.8714833534
  0
LINE
  5
33B
100
AcDbEntity
  8
0
100
AcDbLine
 62
7
  6
CONTINUOUS
 10
13.2230229525
 20
11.9464763433
 11
9.3593194184
 21
12.2144250934
  0
ARC
  5
33C
100
AcDbEntity
  8
0
100
AcDbCircle
 62
7
  6
CONTINUOUS
 10
10.9907755278
 20
8.0025186578
 40
2.5199441672
100
AcDbArc
 50
266.0342868665
 51
266.534299421
  0
ARC
  5
33D
100
AcDbEntity
  8
0
100
AcDbCircle
 62
7
  6
CONTINUOUS
 10
10.9907755278
 20
7.3322504855
 40
2.5199441672
100
AcDbArc
 50
266.0342868665
 51
266.534299421
  0
ARC
  5
33E
100
AcDbEntity
  8
0
100
AcDbCircle
 62
7
  6
CONTINUOUS
 10
10.9867535631
 20
7.2736835402
 40
2.4612392969
100
AcDbArc
 50
265.5255095248
 51
266.0333993217
  0
ARC
  5
33F
100
AcDbEntity
  8
0
100
AcDbCircle
 62
7
  6
CONTINUOUS
 10
10.9859903955
 20
7.9336101203
 40
2.450869686
100
AcDbArc
 50
265.5244350788
 51
266.0344737677
  0
ARC
  5
340
100
AcDbEntity
  8
0
100
AcDbCircle
 62
7
  6
CONTINUOUS
 10
11.2374897691
 20
5.8843486581
 40
1.0521369592
100
AcDbArc
 50
283.610963992
 51
285.4106627597
  0
ARC
  5
341
100
AcDbEntity
  8
0
100
AcDbCircle
 62
7
  6
CONTINUOUS
 10
10.7908006472
 20
5.6362806325
 40
0.836275214
100
AcDbArc
 50
243.6645475227
 51
246.0369561006
  0
ARC
  5
342
100
AcDbEntity
  8
0
100
AcDbCircle
 62
7
  6
CONTINUOUS
 10
11.5229103349
 20
4.968097106
 40
0.0981951123
100
AcDbArc
 50
283.9847369138
 51
285.1263563299
  0
SPLINE
  5
343
100
AcDbEntity
  8
0
100
AcDbSpline
 62
7
  6
CONTINUOUS
 70
0
 71
3
 72
22
 73
18
 74
0
 42
0.0000001
 43
0.0000001
 44
0.0000000001
 40
0.0
 40
0.0
 40
0.0
 40
0.0
 40
0.1531489743
 40
0.2277588562
 40
0.300810106
 40
0.3721329919
 40
0.4415565195
 40
0.5089158241
 40
0.5740563519
 40
0.6368313793
 40
0.6971034135
 40
0.7547456024
 40
0.8096428016
 40
0.8616938828
 40
0.9108122258
 40
0.9569302493
 40
1.0
 40
1.0
 40
1.0
 40
1.0
 10
10.8395323245
 20
4.7909567136
 30
0.0
 10
10.8192109434
 20
4.7923660062
 30
0.0
 10
10.7890160617
 20
4.7948850238
 30
0.0
 10
10.7492295011
 20
4.7991226795
 30
0.0
 10
10.7203173598
 20
4.8026637648
 30
0.0
 10
10.692150752
 20
4.8065856691
 30
0.0
 10
10.6648041187
 20
4.8108777095
 30
0.0
 10
10.6383506424
 20
4.8155286699
 30
0.0
 10
10.6128607621
 20
4.8205257553
 30
0.0
 10
10.5884021518
 20
4.8258556991
 30
0.0
 10
10.5650397455
 20
4.8315041007
 30
0.0
 10
10.5428355416
 20
4.8374557624
 30
0.0
 10
10.5218483084
 20
4.8436947975
 30
0.0
 10
10.5021334719
 20
4.8502042207
 30
0.0
 10
10.483742725
 20
4.8569670169
 30
0.0
 10
10.4667246815
 20
4.8639644866
 30
0.0
 10
10.4559526903
 20
4.8689455448
 30
0.0
 10
10.4508165076
 20
4.8714827119
 30
0.0
  0
SPLINE
  5
344
100
AcDbEntity
  8
0
100
AcDbSpline
 62
7
  6
CONTINUOUS
 70
0
 71
3
 72
9
 73
5
 74
0
 42
0.0000001
 43
0.0000001
 44
0.0000000001
 40
0.0
 40
0.0
 40
0.0
 40
0.0
 40
0.5143582232
 40
1.0
 40
1.0
 40
1.0
 40
1.0
 10
10.3213624215
 20
4.9424645123
 30
0.0
 10
10.3192404394
 20
4.9442803175
 30
0.0
 10
10.315211105
 20
4.9479251679
 30
0.0
 10
10.3114207769
 20
4.9518197461
 30
0.0
 10
10.3096522386
 20
4.953775661
 30
0.0
  0
SPLINE
  5
345
100
AcDbEntity
  8
0
100
AcDbSpline
 62
7
  6
CONTINUOUS
 70
0
 71
3
 72
15
 73
11
 74
0
 42
0.0000001
 43
0.0000001
 44
0.0000000001
 40
0.0
 40
0.0
 40
0.0
 40
0.0
 40
0.1186014886
 40
0.2406342511
 40
0.3653179907
 40
0.491849681
 40
0.6194113837
 40
0.7471745467
 40
0.8743133888
 40
1.0
 40
1.0
 40
1.0
 40
1.0
 10
11.3003522197
 20
5.499634831
 30
0.0
 10
11.2821935816
 20
5.4974368958
 30
0.0
 10
11.2452909162
 20
5.4934616548
 30
0.0
 10
11.18913963
 20
5.4887856996
 30
0.0
 10
11.1316745549
 20
5.4853322167
 30
0.0
 10
11.0732951113
 20
5.4831255627
 30
0.0
 10
11.0144067305
 20
5.4821813784
 30
0.0
 10
10.9554179816
 20
5.482506202
 30
0.0
 10
10.8967393559
 20
5.4840979026
 30
0.0
 10
10.8577907742
 20
5.486011124
 30
0.0
 10
10.8384423644
 20
5.4871830513
 30
0.0
  0
SPLINE
  5
346
100
AcDbEntity
  8
0
100
AcDbSpline
 62
7
  6
CONTINUOUS
 70
0
 71
3
 72
22
 73
18
 74
0
 42
0.0000001
 43
0.0000001
 44
0.0000000001
 40
0.0
 40
0.0
 40
0.0
 40
0.0
 40
0.1604567716
 40
0.2375063621
 40
0.3122377474
 40
0.3845103684
 40
0.454192478
 40
0.5211688662
 40
0.5853486812
 40
0.6466717233
 40
0.7051156161
 40
0.7607033681
 40
0.8135042993
 40
0.8636420712
 40
0.911285529
 40
0.9566540767
 40
1.0
 40
1.0
 40
1.0
 40
1.0
 10
11.6903477614
 20
5.037404136
 30
0.0
 10
11.6854723352
 20
5.0277352466
 30
0.0
 10
11.6780635226
 20
5.013518054
 30
0.0
 10
11.6678322442
 20
4.9950959223
 30
0.0
 10
11.6602295684
 20
4.9820245342
 30
0.0
 10
11.6525952322
 20
4.9695507484
 30
0.0
 10
11.6449313285
 20
4.9577135664
 30
0.0
 10
11.637240279
 20
4.9465507787
 30
0.0
 10
11.6295256076
 20
4.9360970595
 30
0.0
 10
11.6217910645
 20
4.9263833358
 30
0.0
 10
11.6140409538
 20
4.9174353199
 30
0.0
 10
11.6062804143
 20
4.9092722136
 30
0.0
 10
11.598513844
 20
4.9019069842
 30
0.0
 10
11.5907474371
 20
4.8953437699
 30
0.0
 10
11.5829852023
 20
4.8895809239
 30
0.0
 10
11.5752342672
 20
4.884607327
 30
0.0
 10
11.569966881
 20
4.8817475468
 30
0.0
 10
11.5673434584
 20
4.8804534746
 30
0.0
  0
SPLINE
  5
347
100
AcDbEntity
  8
0
100
AcDbSpline
 62
7
  6
CONTINUOUS
 70
0
 71
3
 72
9
 73
5
 74
0
 42
0.0000001
 43
0.0000001
 44
0.0000000001
 40
0.0
 40
0.0
 40
0.0
 40
0.0
 40
0.4953420278
 40
1.0
 40
1.0
 40
1.0
 40
1.0
 10
10.4198073712
 20
4.8868006643
 30
0.0
 10
10.4030617899
 20
4.8950774895
 30
0.0
 10
10.3697734508
 20
4.912846788
 30
0.0
 10
10.3374557061
 20
4.9323070376
 30
0.0
 10
10.3213624215
 20
4.9424645123
 30
0.0
  0
SPLINE
  5
348
100
AcDbEntity
  8
0
100
AcDbSpline
 62
7
  6
CONTINUOUS
 70
0
 71
3
 72
28
 73
24
 74
0
 42
0.0000001
 43
0.0000001
 44
0.0000000001
 40
0.0
 40
0.0
 40
0.0
 40
0.0
 40
0.0193644933
 40
0.0398578972
 40
0.0614682673
 40
0.0841772471
 40
0.1079627201
 40
0.1327973283
 40
0.1586507541
 40
0.1854889036
 40
0.2132746405
 40
0.2419684861
 40
0.3019064521
 40
0.3649405041
 40
0.4306752674
 40
0.4986898562
 40
0.5685426137
 40
0.6397754666
 40
0.7119181217
 40
0.7844934255
 40
0.8570175564
 40
0.929014378
 40
1.0
 40
1.0
 40
1.0
 40
1.0
 10
11.5491899303
 20
4.8714858598
 30
0.0
 10
11.545021906
 20
4.869426885
 30
0.0
 10
11.5363536621
 20
4.8653678465
 30
0.0
 10
11.5227700025
 20
4.8595951742
 30
0.0
 10
11.508258004
 20
4.8539753448
 30
0.0
 10
11.4928435106
 20
4.8485179156
 30
0.0
 10
11.4765534248
 20
4.8432331825
 30
0.0
 10
11.459416593
 20
4.8381300294
 30
0.0
 10
11.4414632333
 20
4.8332179622
 30
0.0
 10
11.4227251676
 20
4.8285056167
 30
0.0
 10
11.4032355642
 20
4.8240012834
 30
0.0
 10
11.3758946087
 20
4.8181996754
 30
0.0
 10
11.3400878481
 20
4.8115582118
 30
0.0
 10
11.2953093561
 20
4.8046451621
 30
0.0
 10
11.2484338064
 20
4.7987277696
 30
0.0
 10
11.1997939874
 20
4.7938487859
 30
0.0
 10
11.1497349163
 20
4.7900435568
 30
0.0
 10
11.0986121277
 20
4.7873395829
 30
0.0
 10
11.0467886077
 20
4.7857563155
 30
0.0
 10
10.9946329566
 20
4.7853053443
 30
0.0
 10
10.9425147682
 20
4.7859896246
 30
0.0
 10
10.8908057745
 20
4.7878046452
 30
0.0
 10
10.8565330674
 20
4.7897777081
 30
0.0
 10
10.8395323245
 20
4.7909567136
 30
0.0
  0
SPLINE
  5
349
100
AcDbEntity
  8
0
100
AcDbSpline
 62
7
  6
CONTINUOUS
 70
0
 71
3
 72
19
 73
15
 74
0
 42
0.0000001
 43
0.0000001
 44
0.0000000001
 40
0.0
 40
0.0
 40
0.0
 40
0.0
 40
0.1461258384
 40
0.2878616458
 40
0.424309219
 40
0.5546271162
 40
0.6172403086
 40
0.6780310433
 40
0.736912054
 40
0.7938006527
 40
0.848620815
 40
0.9013015517
 40
0.951780144
 40
1.0
 40
1.0
 40
1.0
 40
1.0
 10
10.7947394003
 20
5.4902138622
 30
0.0
 10
10.7761108244
 20
5.4916721497
 30
0.0
 10
10.7394447973
 20
5.4949683574
 30
0.0
 10
10.6855353196
 20
5.501156052
 30
0.0
 10
10.6338084466
 20
5.5084790246
 30
0.0
 10
10.5922846296
 20
5.5155750703
 30
0.0
 10
10.5604436775
 20
5.5218090642
 30
0.0
 10
10.5376460387
 20
5.5266720934
 30
0.0
 10
10.5156519147
 20
5.5317761598
 30
0.0
 10
10.4944994339
 20
5.5371126998
 30
0.0
 10
10.474225241
 20
5.5426719906
 30
0.0
 10
10.4548643928
 20
5.5484447782
 30
0.0
 10
10.4364505032
 20
5.5544204028
 30
0.0
 10
10.4245505401
 20
5.5586306031
 30
0.0
 10
10.4187686218
 20
5.5607728612
 30
0.0
  0
SPLINE
  5
34A
100
AcDbEntity
  8
0
100
AcDbSpline
 62
7
  6
CONTINUOUS
 70
0
 71
3
 72
21
 73
17
 74
0
 42
0.0000001
 43
0.0000001
 44
0.0000000001
 40
0.0
 40
0.0
 40
0.0
 40
0.0
 40
0.1269687393
 40
0.190297651
 40
0.2535025489
 40
0.3165702103
 40
0.3794885762
 40
0.4422479702
 40
0.5048417502
 40
0.5672668003
 40
0.629524135
 40
0.6916188713
 40
0.7535593925
 40
0.8153562928
 40
0.8770217052
 40
1.0
 40
1.0
 40
1.0
 40
1.0
 10
11.4850871617
 20
4.8617599274
 30
0.0
 10
11.4587836832
 20
4.8527661142
 30
0.0
 10
11.4190364487
 20
4.840193315
 30
0.0
 10
11.3654514773
 20
4.8257078108
 30
0.0
 10
11.325056678
 20
4.8161121868
 30
0.0
 10
11.2844525738
 20
4.807882918
 30
0.0
 10
11.2436774323
 20
4.8011139909
 30
0.0
 10
11.2027807413
 20
4.7958808804
 30
0.0
 10
11.1618201379
 20
4.7922342555
 30
0.0
 10
11.1208580837
 20
4.7901952073
 30
0.0
 10
11.0799572867
 20
4.789751715
 30
0.0
 10
11.0391758614
 20
4.7908614407
 30
0.0
 10
10.9985639436
 20
4.7934559679
 30
0.0
 10
10.9581603988
 20
4.797446768
 30
0.0
 10
10.904658754
 20
4.8044855598
 30
0.0
 10
10.8648279354
 20
4.811552694
 30
0.0
 10
10.8384423644
 20
4.8169148791
 30
0.0
  0
SPLINE
  5
34B
100
AcDbEntity
  8
0
100
AcDbSpline
 62
7
  6
CONTINUOUS
 70
0
 71
3
 72
21
 73
17
 74
0
 42
0.0000001
 43
0.0000001
 44
0.0000000001
 40
0.0
 40
0.0
 40
0.0
 40
0.0
 40
0.1199495042
 40
0.2406168825
 40
0.3013306643
 40
0.3623558012
 40
0.4237433757
 40
0.485545303
 40
0.547813023
 40
0.6105955159
 40
0.6739361845
 40
0.7378726213
 40
0.8024328024
 40
0.8676363426
 40
0.9334920668
 40
1.0
 40
1.0
 40
1.0
 40
1.0
 10
10.7947394003
 20
4.81994569
 30
0.0
 10
10.78075629
 20
4.8183582591
 30
0.0
 10
10.7526195253
 20
4.8158834448
 30
0.0
 10
10.7172585381
 20
4.8148212165
 30
0.0
 10
10.6888186709
 20
4.8153385968
 30
0.0
 10
10.6673581156
 20
4.8164522461
 30
0.0
 10
10.6458222138
 20
4.8183260258
 30
0.0
 10
10.6242226093
 20
4.8209905495
 30
0.0
 10
10.6025731783
 20
4.8244693851
 30
0.0
 10
10.5808899324
 20
4.8287809458
 30
0.0
 10
10.5591894455
 20
4.8339321753
 30
0.0
 10
10.537489966
 20
4.8399254969
 30
0.0
 10
10.5158083392
 20
4.8467498213
 30
0.0
 10
10.4941620298
 20
4.8543903707
 30
0.0
 10
10.4725659906
 20
4.8628206142
 30
0.0
 10
10.4582807173
 20
4.8689181685
 30
0.0
 10
10.4511497131
 20
4.8720859737
 30
0.0
  0
SPLINE
  5
34C
100
AcDbEntity
  8
0
100
AcDbSpline
 62
7
  6
CONTINUOUS
 70
0
 71
3
 72
9
 73
5
 74
0
 42
0.0000001
 43
0.0000001
 44
0.0000000001
 40
0.0
 40
0.0
 40
0.0
 40
0.0
 40
0.5103834068
 40
1.0
 40
1.0
 40
1.0
 40
1.0
 10
11.5673434584
 20
4.8804534746
 30
0.0
 10
11.564269678
 20
4.8789372514
 30
0.0
 10
11.5581065155
 20
4.8762414794
 30
0.0
 10
11.5517082399
 20
4.874162159
 30
0.0
 10
11.5485342123
 20
4.8733041897
 30
0.0
  0
SPLINE
  5
34D
100
AcDbEntity
  8
0
100
AcDbSpline
 62
7
  6
CONTINUOUS
 70
0
 71
3
 72
11
 73
7
 74
0
 42
0.0000001
 43
0.0000001
 44
0.0000000001
 40
0.0
 40
0.0
 40
0.0
 40
0.0
 40
0.2550434453
 40
0.5057160268
 40
0.7535820415
 40
1.0
 40
1.0
 40
1.0
 40
1.0
 10
11.5466405005
 20
4.8728124834
 30
0.0
 10
11.5441827409
 20
4.8722004243
 30
0.0
 10
11.5392599467
 20
4.8711759153
 30
0.0
 10
11.531830395
 20
4.8702205864
 30
0.0
 10
11.5244363439
 20
4.8698268126
 30
0.0
 10
11.5195238895
 20
4.869914801
 30
0.0
 10
11.5170799429
 20
4.8700402653
 30
0.0
  0
SPLINE
  5
34E
100
AcDbEntity
  8
0
100
AcDbSpline
 62
7
  6
CONTINUOUS
 70
0
 71
3
 72
15
 73
11
 74
0
 42
0.0000001
 43
0.0000001
 44
0.0000000001
 40
0.0
 40
0.0
 40
0.0
 40
0.0
 40
0.1101370822
 40
0.2252928289
 40
0.3451099603
 40
0.4692064634
 40
0.5971734135
 40
0.7285884577
 40
0.8630287975
 40
1.0
 40
1.0
 40
1.0
 40
1.0
 10
10.4697170875
 20
5.5573028606
 30
0.0
 10
10.4815770091
 20
5.5544538018
 30
0.0
 10
10.5059206348
 20
5.5489687214
 30
0.0
 10
10.5434081586
 20
5.5415052904
 30
0.0
 10
10.5825807166
 20
5.5346427458
 30
0.0
 10
10.6232934263
 20
5.528406822
 30
0.0
 10
10.665396136
 20
5.5228204297
 30
0.0
 10
10.7087353074
 20
5.5179045517
 30
0.0
 10
10.7531486323
 20
5.5136779963
 30
0.0
 10
10.7831179433
 20
5.5113489503
 30
0.0
 10
10.7982507208
 20
5.5102994886
 30
0.0
  0
SPLINE
  5
34F
100
AcDbEntity
  8
0
100
AcDbSpline
 62
7
  6
CONTINUOUS
 70
0
 71
3
 72
15
 73
11
 74
0
 42
0.0000001
 43
0.0000001
 44
0.0000000001
 40
0.0
 40
0.0
 40
0.0
 40
0.0
 40
0.1239481359
 40
0.2490612649
 40
0.3749096113
 40
0.5010606235
 40
0.6270762548
 40
0.7525229971
 40
0.8769850587
 40
1.0
 40
1.0
 40
1.0
 40
1.0
 10
11.1735728132
 20
5.5084903002
 30
0.0
 10
11.1580826167
 20
5.5075745609
 30
0.0
 10
11.1269408056
 20
5.5059926
 30
0.0
 10
11.0800316299
 20
5.5043665322
 30
0.0
 10
11.0328267236
 20
5.5034798917
 30
0.0
 10
10.9855007734
 20
5.5033360127
 30
0.0
 10
10.9382286725
 20
5.5039350924
 30
0.0
 10
10.8911832374
 20
5.5052752286
 30
0.0
 10
10.8445406648
 20
5.5073515897
 30
0.0
 10
10.8136142331
 20
5.5092340254
 30
0.0
 10
10.7982507208
 20
5.5102994886
 30
0.0
  0
SPLINE
  5
350
100
AcDbEntity
  8
0
100
AcDbSpline
 62
7
  6
CONTINUOUS
 70
0
 71
3
 72
54
 73
50
 74
0
 42
0.0000001
 43
0.0000001
 44
0.0000000001
 40
0.0
 40
0.0
 40
0.0
 40
0.0
 40
0.0417740106
 40
0.0840368515
 40
0.1266583734
 40
0.1695063147
 40
0.2124478814
 40
0.2553497884
 40
0.2980789417
 40
0.340502919
 40
0.3824905067
 40
0.4239122259
 40
0.4646408671
 40
0.5045520317
 40
0.5435246831
 40
0.5814417135
 40
0.6181905344
 40
0.6536637003
 40
0.6877595809
 40
0.704261357
 40
0.7203837372
 40
0.736116
 40
0.7514479644
 40
0.7663699709
 40
0.7808730136
 40
0.7949486603
 40
0.8085892482
 40
0.8217877894
 40
0.8345381805
 40
0.8468351604
 40
0.8586744859
 40
0.8700529987
 40
0.8809687469
 40
0.891421194
 40
0.9014113064
 40
0.910941912
 40
0.9200178165
 40
0.9286462958
 40
0.9368373422
 40
0.9446042644
 40
0.9519641574
 40
0.9589385856
 40
0.9655542762
 40
0.9718437871
 40
0.9778461898
 40
0.9836073681
 40
0.9891800557
 40
0.994623083
 40
1.0
 40
1.0
 40
1.0
 40
1.0
 10
12.7053852895
 20
7.9440293123
 30
0.0
 10
12.7053852895
 20
7.9603532028
 30
0.0
 10
12.705639958
 20
7.9931925154
 30
0.0
 10
12.7067658103
 20
8.0426752962
 30
0.0
 10
12.7086344397
 20
8.0925556287
 30
0.0
 10
12.7112397303
 20
8.1426684358
 30
0.0
 10
12.7145730669
 20
8.1928478906
 30
0.0
 10
12.7186234336
 20
8.2429279961
 30
0.0
 10
12.7233774124
 20
8.2927430639
 30
0.0
 10
12.7288192444
 20
8.3421282948
 30
0.0
 10
12.734930875
 20
8.3909203194
 30
0.0
 10
12.7416920152
 20
8.4389577445
 30
0.0
 10
12.749080207
 20
8.486081693
 30
0.0
 10
12.7570708953
 20
8.5321363346
 30
0.0
 10
12.7656375077
 20
8.5769694158
 30
0.0
 10
12.7747515442
 20
8.620432748
 30
0.0
 10
12.7843826579
 20
8.6623828046
 30
0.0
 10
12.7944987957
 20
8.7026808786
 30
0.0
 10
12.8033990655
 20
8.7351188583
 30
0.0
 10
12.8107497139
 20
8.7601337462
 30
0.0
 10
12.8163026653
 20
8.7781960375
 30
0.0
 10
12.8219509988
 20
8.7957491413
 30
0.0
 10
12.8276900395
 20
8.8127785763
 30
0.0
 10
12.833515062
 20
8.8292702702
 30
0.0
 10
12.8394211821
 20
8.8452106201
 30
0.0
 10
12.8454035713
 20
8.8605864646
 30
0.0
 10
12.8514572012
 20
8.8753851416
 30
0.0
 10
12.8575771274
 20
8.889594448
 30
0.0
 10
12.8637582275
 20
8.9032027053
 30
0.0
 10
12.8699954351
 20
8.916198721
 30
0.0
 10
12.8762835831
 20
8.9285718379
 30
0.0
 10
12.8826174912
 20
8.9403119271
 30
0.0
 10
12.8889919915
 20
8.9514093874
 30
0.0
 10
12.895401823
 20
8.9618552021
 30
0.0
 10
12.9018418565
 20
8.9716408596
 30
0.0
 10
12.9083068193
 20
8.9807584901
 30
0.0
 10
12.9147916628
 20
8.9892006997
 30
0.0
 10
12.9212912165
 20
8.9969607642
 30
0.0
 10
12.9278005718
 20
9.0040324105
 30
0.0
 10
12.9343148089
 20
9.0104099804
 30
0.0
 10
12.9408292453
 20
9.0160882353
 30
0.0
 10
12.9473393309
 20
9.0210623533
 30
0.0
 10
12.9538406344
 20
9.0253278537
 30
0.0
 10
12.9603288502
 20
9.0288803114
 30
0.0
 10
12.9667994695
 20
9.0317155469
 30
0.0
 10
12.9732475896
 20
9.0338291652
 30
0.0
 10
12.9796678195
 20
9.0352172548
 30
0.0
 10
12.9860524201
 20
9.0358762786
 30
0.0
 10
12.990291254
 20
9.0358279506
 30
0.0
 10
12.99238734
 20
9.0356825959
 30
0.0
  0
SPLINE
  5
351
100
AcDbEntity
  8
0
100
AcDbSpline
 62
7
  6
CONTINUOUS
 70
0
 71
3
 72
15
 73
11
 74
0
 42
0.0000001
 43
0.0000001
 44
0.0000000001
 40
0.0
 40
0.0
 40
0.0
 40
0.0
 40
0.1273482789
 40
0.2538606571
 40
0.3795878378
 40
0.5046051156
 40
0.629017439
 40
0.7529533823
 40
0.8765605864
 40
1.0
 40
1.0
 40
1.0
 40
1.0
 10
12.2407872658
 20
9.2383760016
 30
0.0
 10
12.2407872658
 20
9.2318776765
 30
0.0
 10
12.2401668052
 20
9.2189146974
 30
0.0
 10
12.2373608737
 20
9.1997195513
 30
0.0
 10
12.2327081522
 20
9.1810066976
 30
0.0
 10
12.2262506694
 20
9.1629511463
 30
0.0
 10
12.2180476497
 20
9.1457194047
 30
0.0
 10
12.2081739246
 20
9.1294705702
 30
0.0
 10
12.1967223023
 20
9.1143568957
 30
0.0
 10
12.1880998025
 20
9.1051245879
 30
0.0
 10
12.183569331
 20
9.1007484584
 30
0.0
  0
SPLINE
  5
352
100
AcDbEntity
  8
0
100
AcDbSpline
 62
7
  6
CONTINUOUS
 70
0
 71
3
 72
15
 73
11
 74
0
 42
0.0000001
 43
0.0000001
 44
0.0000000001
 40
0.0
 40
0.0
 40
0.0
 40
0.0
 40
0.1273482789
 40
0.2538606571
 40
0.3795878378
 40
0.5046051156
 40
0.629017439
 40
0.7529533823
 40
0.8765605864
 40
1.0
 40
1.0
 40
1.0
 40
1.0
 10
12.2407872658
 20
6.3405984086
 30
0.0
 10
12.2407872658
 20
6.3341000836
 30
0.0
 10
12.2401668052
 20
6.3211371044
 30
0.0
 10
12.2373608737
 20
6.3019419583
 30
0.0
 10
12.2327081522
 20
6.2832291046
 30
0.0
 10
12.2262506694
 20
6.2651735533
 30
0.0
 10
12.2180476497
 20
6.2479418117
 30
0.0
 10
12.2081739246
 20
6.2316929772
 30
0.0
 10
12.1967223023
 20
6.2165793027
 30
0.0
 10
12.1880998025
 20
6.2073469949
 30
0.0
 10
12.183569331
 20
6.2029708654
 30
0.0
  0
SPLINE
  5
353
100
AcDbEntity
  8
0
100
AcDbSpline
 62
7
  6
CONTINUOUS
 70
0
 71
3
 72
41
 73
37
 74
0
 42
0.0000001
 43
0.0000001
 44
0.0000000001
 40
0.0
 40
0.0
 40
0.0
 40
0.0
 40
0.029942123
 40
0.0449237706
 40
0.0599145177
 40
0.0899291716
 40
0.1200145961
 40
0.1350933574
 40
0.1501974726
 40
0.1804849654
 40
0.2108989488
 40
0.2414525624
 40
0.2721557217
 40
0.3030149378
 40
0.3340332219
 40
0.3652100719
 40
0.3965415365
 40
0.4280203507
 40
0.4596361361
 40
0.4913756582
 40
0.5232231336
 40
0.5551605782
 40
0.5871681905
 40
0.6192247616
 40
0.6513081064
 40
0.6833955071
 40
0.7154641657
 40
0.7474916563
 40
0.7794563734
 40
0.811337967
 40
0.843117763
 40
0.8747791516
 40
0.9063079641
 40
0.9376927517
 40
0.9689251728
 40
1.0
 40
1.0
 40
1.0
 40
1.0
 10
11.8903844778
 20
9.4042721379
 30
0.0
 10
11.8938848952
 20
9.4076533046
 30
0.0
 10
11.8993418066
 20
9.4125202305
 30
0.0
 10
11.9069841268
 20
9.4185590124
 30
0.0
 10
11.9148698354
 20
9.4242972823
 30
0.0
 10
11.925159384
 20
9.4308867089
 30
0.0
 10
11.9359492455
 20
9.4366505443
 30
0.0
 10
11.9448480757
 20
9.4407509889
 30
0.0
 10
11.9539307574
 20
9.4445128939
 30
0.0
 10
11.9655834158
 20
9.4485580618
 30
0.0
 10
11.9799435735
 20
9.4523280712
 30
0.0
 10
11.9946170826
 20
9.4549988753
 30
0.0
 10
12.0095226267
 20
9.4565557327
 30
0.0
 10
12.024578325
 20
9.4569903365
 30
0.0
 10
12.0397013362
 20
9.4563004742
 30
0.0
 10
12.0548085398
 20
9.4544901308
 30
0.0
 10
12.0698169277
 20
9.4515694314
 30
0.0
 10
12.0846440711
 20
9.4475545854
 30
0.0
 10
12.0992085629
 20
9.442467791
 30
0.0
 10
12.1134304594
 20
9.4363371094
 30
0.0
 10
12.1272317128
 20
9.4291963091
 30
0.0
 10
12.1405365933
 20
9.4210846794
 30
0.0
 10
12.1532720995
 20
9.412046815
 30
0.0
 10
12.1653683535
 20
9.4021323722
 30
0.0
 10
12.1767589801
 20
9.3913957987
 30
0.0
 10
12.1873814665
 20
9.3798960366
 30
0.0
 10
12.1971775022
 20
9.3676962024
 30
0.0
 10
12.2060932958
 20
9.354863244
 30
0.0
 10
12.2140798673
 20
9.3414675775
 30
0.0
 10
12.2210933162
 20
9.3275827034
 30
0.0
 10
12.2270950585
 20
9.3132848174
 30
0.0
 10
12.2320520437
 20
9.2986523621
 30
0.0
 10
12.235936926
 20
9.2837657349
 30
0.0
 10
12.2387282364
 20
9.2687063633
 30
0.0
 10
12.2404104724
 20
9.2535580625
 30
0.0
 10
12.2407872658
 20
9.2434268549
 30
0.0
 10
12.2407872658
 20
9.2383760016
 30
0.0
  0
SPLINE
  5
354
100
AcDbEntity
  8
0
100
AcDbSpline
 62
7
  6
CONTINUOUS
 70
0
 71
3
 72
41
 73
37
 74
0
 42
0.0000001
 43
0.0000001
 44
0.0000000001
 40
0.0
 40
0.0
 40
0.0
 40
0.0
 40
0.029942123
 40
0.0449237706
 40
0.0599145177
 40
0.0899291716
 40
0.1200145961
 40
0.1350933574
 40
0.1501974726
 40
0.1804849654
 40
0.2108989488
 40
0.2414525624
 40
0.2721557217
 40
0.3030149378
 40
0.3340332219
 40
0.3652100719
 40
0.3965415365
 40
0.4280203507
 40
0.4596361361
 40
0.4913756582
 40
0.5232231336
 40
0.5551605782
 40
0.5871681905
 40
0.6192247616
 40
0.6513081064
 40
0.6833955071
 40
0.7154641657
 40
0.7474916563
 40
0.7794563734
 40
0.811337967
 40
0.843117763
 40
0.8747791516
 40
0.9063079641
 40
0.9376927517
 40
0.9689251728
 40
1.0
 40
1.0
 40
1.0
 40
1.0
 10
11.8903844778
 20
6.5064945449
 30
0.0
 10
11.8938848952
 20
6.5098757116
 30
0.0
 10
11.8993418066
 20
6.5147426375
 30
0.0
 10
11.9069841268
 20
6.5207814194
 30
0.0
 10
11.9148698354
 20
6.5265196893
 30
0.0
 10
11.925159384
 20
6.5331091159
 30
0.0
 10
11.9359492455
 20
6.5388729513
 30
0.0
 10
11.9448480757
 20
6.5429733959
 30
0.0
 10
11.9539307574
 20
6.5467353009
 30
0.0
 10
11.9655834158
 20
6.5507804688
 30
0.0
 10
11.9799435735
 20
6.5545504782
 30
0.0
 10
11.9946170826
 20
6.5572212823
 30
0.0
 10
12.0095226267
 20
6.5587781398
 30
0.0
 10
12.024578325
 20
6.5592127436
 30
0.0
 10
12.0397013362
 20
6.5585228812
 30
0.0
 10
12.0548085398
 20
6.5567125378
 30
0.0
 10
12.0698169277
 20
6.5537918384
 30
0.0
 10
12.0846440711
 20
6.5497769924
 30
0.0
 10
12.0992085629
 20
6.544690198
 30
0.0
 10
12.1134304594
 20
6.5385595164
 30
0.0
 10
12.1272317128
 20
6.5314187161
 30
0.0
 10
12.1405365933
 20
6.5233070864
 30
0.0
 10
12.1532720995
 20
6.514269222
 30
0.0
 10
12.1653683535
 20
6.5043547792
 30
0.0
 10
12.1767589801
 20
6.4936182057
 30
0.0
 10
12.1873814665
 20
6.4821184436
 30
0.0
 10
12.1971775022
 20
6.4699186094
 30
0.0
 10
12.2060932958
 20
6.457085651
 30
0.0
 10
12.2140798673
 20
6.4436899845
 30
0.0
 10
12.2210933162
 20
6.4298051104
 30
0.0
 10
12.2270950585
 20
6.4155072244
 30
0.0
 10
12.2320520437
 20
6.4008747691
 30
0.0
 10
12.235936926
 20
6.3859881419
 30
0.0
 10
12.2387282364
 20
6.3709287703
 30
0.0
 10
12.2404104724
 20
6.3557804695
 30
0.0
 10
12.2407872658
 20
6.3456492619
 30
0.0
 10
12.2407872658
 20
6.3405984086
 30
0.0
  0
SPLINE
  5
355
100
AcDbEntity
  8
0
100
AcDbSpline
 62
7
  6
CONTINUOUS
 70
0
 71
3
 72
48
 73
44
 74
0
 42
0.0000001
 43
0.0000001
 44
0.0000000001
 40
0.0
 40
0.0
 40
0.0
 40
0.0
 40
0.0063158899
 40
0.0126706797
 40
0.0191025165
 40
0.025648058
 40
0.0323419221
 40
0.0392162652
 40
0.0536140552
 40
0.0611947659
 40
0.0690564915
 40
0.0772175997
 40
0.0856939645
 40
0.0944993396
 40
0.103645447
 40
0.1131421893
 40
0.122997946
 40
0.1332195527
 40
0.1438126331
 40
0.1547816545
 40
0.1661299881
 40
0.1778601838
 40
0.1899738557
 40
0.215353302
 40
0.2422691224
 40
0.2707113841
 40
0.3006623731
 40
0.332097648
 40
0.3649869327
 40
0.3992948208
 40
0.434981328
 40
0.4720023222
 40
0.5103099054
 40
0.5498527799
 40
0.590576537
 40
0.632423903
 40
0.6753349407
 40
0.7192473098
 40
0.7640964278
 40
0.8098157282
 40
0.8563368617
 40
0.9035891153
 40
1.0
 40
1.0
 40
1.0
 40
1.0
 10
12.8713161941
 20
7.2898756936
 30
0.0
 10
12.8698372776
 20
7.2899782502
 30
0.0
 10
12.8668773262
 20
7.2903050564
 30
0.0
 10
12.862470555
 20
7.2911568202
 30
0.0
 10
12.8580932516
 20
7.2923702425
 30
0.0
 10
12.8537479644
 20
7.2939442809
 30
0.0
 10
12.8494363823
 20
7.2958780168
 30
0.0
 10
12.8436471208
 20
7.2989813601
 30
0.0
 10
12.8380150354
 20
7.302780269
 30
0.0
 10
12.8325646454
 20
7.3071826681
 30
0.0
 10
12.8284477376
 20
7.3108943895
 30
0.0
 10
12.8243748224
 20
7.3149569083
 30
0.0
 10
12.8203468635
 20
7.3193687262
 30
0.0
 10
12.816365548
 20
7.3241279736
 30
0.0
 10
12.8124323324
 20
7.3292327075
 30
0.0
 10
12.8085486937
 20
7.3346808196
 30
0.0
 10
12.8047162113
 20
7.3404701448
 30
0.0
 10
12.8009363199
 20
7.3465982945
 30
0.0
 10
12.797210554
 20
7.3530628041
 30
0.0
 10
12.7935404174
 20
7.3598610552
 30
0.0
 10
12.7899273419
 20
7.3669902584
 30
0.0
 10
12.7863728199
 20
7.3744475527
 30
0.0
 10
12.7816398105
 20
7.384988246
 30
0.0
 10
12.7758960591
 20
7.3989776506
 30
0.0
 10
12.769362636
 20
7.4167706056
 30
0.0
 10
12.7630960175
 20
7.4357921419
 30
0.0
 10
12.7571065438
 20
7.4560111335
 30
0.0
 10
12.7514041023
 20
7.4773947549
 30
0.0
 10
12.7459981531
 20
7.4999080439
 30
0.0
 10
12.740897685
 20
7.5235141428
 30
0.0
 10
12.7361111968
 20
7.5481743274
 30
0.0
 10
12.7316466634
 20
7.5738480839
 30
0.0
 10
12.7275115146
 20
7.6004931823
 30
0.0
 10
12.7237126413
 20
7.6280657653
 30
0.0
 10
12.7202563772
 20
7.6565204297
 30
0.0
 10
12.7171484914
 20
7.685810296
 30
0.0
 10
12.7143941547
 20
7.7158870884
 30
0.0
 10
12.7119979572
 20
7.746701212
 30
0.0
 10
12.7099638901
 20
7.7782018638
 30
0.0
 10
12.708295361
 20
7.810337095
 30
0.0
 10
12.7069951366
 20
7.8430538814
 30
0.0
 10
12.7057472662
 20
7.8876772747
 30
0.0
 10
12.7053852895
 20
7.9213997122
 30
0.0
 10
12.7053852895
 20
7.9440293123
 30
0.0
  0
SPLINE
  5
356
100
AcDbEntity
  8
0
100
AcDbSpline
 62
7
  6
CONTINUOUS
 70
0
 71
3
 72
33
 73
29
 74
0
 42
0.0000001
 43
0.0000001
 44
0.0000000001
 40
0.0
 40
0.0
 40
0.0
 40
0.0
 40
0.0162144692
 40
0.0334275894
 40
0.0516720786
 40
0.0709712473
 40
0.091340872
 40
0.1127900333
 40
0.1353223936
 40
0.1589368226
 40
0.183628034
 40
0.2093872636
 40
0.2362023918
 40
0.2640586644
 40
0.2929385944
 40
0.3228225234
 40
0.3536886216
 40
0.3855131152
 40
0.4182705339
 40
0.4519336172
 40
0.486473739
 40
0.521860682
 40
0.5950467061
 40
0.6712269155
 40
0.7501175304
 40
0.8314199122
 40
0.9148213441
 40
1.0
 40
1.0
 40
1.0
 40
1.0
 10
12.8297826602
 20
7.5307060959
 30
0.0
 10
12.8281401702
 20
7.5327256355
 30
0.0
 10
12.8248923206
 20
7.5370028857
 30
0.0
 10
12.8202604439
 20
7.5438894825
 30
0.0
 10
12.8157304511
 20
7.551427356
 30
0.0
 10
12.8113068833
 20
7.559608468
 30
0.0
 10
12.806994119
 20
7.5684246805
 30
0.0
 10
12.8027964655
 20
7.5778669342
 30
0.0
 10
12.7987182626
 20
7.5879255556
 30
0.0
 10
12.7947637398
 20
7.5985901531
 30
0.0
 10
12.790936994
 20
7.6098496624
 30
0.0
 10
12.7872421065
 20
7.6216923759
 30
0.0
 10
12.7836828939
 20
7.6341059259
 30
0.0
 10
12.7802631932
 20
7.6470773403
 30
0.0
 10
12.7769865589
 20
7.660593027
 30
0.0
 10
12.7738565003
 20
7.674638814
 30
0.0
 10
12.7708763245
 20
7.6891999553
 30
0.0
 10
12.7680491727
 20
7.7042611524
 30
0.0
 10
12.7653780841
 20
7.719806573
 30
0.0
 10
12.7628658414
 20
7.7358198621
 30
0.0
 10
12.7605151401
 20
7.752284189
 30
0.0
 10
12.7575665616
 20
7.7750707015
 30
0.0
 10
12.7543184196
 20
7.8045565004
 30
0.0
 10
12.7511419616
 20
7.8410667037
 30
0.0
 10
12.7486583567
 20
7.8789363506
 30
0.0
 10
12.7468783139
 20
7.9180059069
 30
0.0
 10
12.745809544
 20
7.9581109692
 30
0.0
 10
12.7455765234
 20
7.985176146
 30
0.0
 10
12.7455765234
 20
7.9988510662
 30
0.0
  0
SPLINE
  5
357
100
AcDbEntity
  8
0
100
AcDbSpline
 62
7
  6
CONTINUOUS
 70
0
 71
3
 72
11
 73
7
 74
0
 42
0.0000001
 43
0.0000001
 44
0.0000000001
 40
0.0
 40
0.0
 40
0.0
 40
0.0
 40
0.2450702049
 40
0.4921432446
 40
0.7431689699
 40
1.0
 40
1.0
 40
1.0
 40
1.0
 10
12.8214146695
 20
7.5639848833
 30
0.0
 10
12.8202356849
 20
7.5640666408
 30
0.0
 10
12.8178743358
 20
7.5643423033
 30
0.0
 10
12.814364073
 20
7.5650885561
 30
0.0
 10
12.8108820443
 20
7.5661671234
 30
0.0
 10
12.8086116597
 20
7.5670946283
 30
0.0
 10
12.8074852067
 20
7.5676094701
 30
0.0
  0
SPLINE
  5
358
100
AcDbEntity
  8
0
100
AcDbSpline
 62
7
  6
CONTINUOUS
 70
0
 71
3
 72
45
 73
41
 74
0
 42
0.0000001
 43
0.0000001
 44
0.0000000001
 40
0.0
 40
0.0
 40
0.0
 40
0.0
 40
0.0070628706
 40
0.0144558874
 40
0.0221882691
 40
0.0302672625
 40
0.038698503
 40
0.0474860403
 40
0.0566327429
 40
0.0661402303
 40
0.0760091809
 40
0.0862393412
 40
0.0968296272
 40
0.1077782911
 40
0.1307393107
 40
0.1550968896
 40
0.1808162276
 40
0.2078554948
 40
0.2361667238
 40
0.2656965207
 40
0.2963866609
 40
0.3281745856
 40
0.3609938312
 40
0.394774411
 40
0.4294431613
 40
0.4649240623
 40
0.5011385381
 40
0.5380057502
 40
0.575442881
 40
0.6133654064
 40
0.6516873629
 40
0.6903216122
 40
0.7291801017
 40
0.7681741235
 40
0.8072145862
 40
0.8462122195
 40
0.8850780457
 40
0.9237229577
 40
0.9620597573
 40
1.0
 40
1.0
 40
1.0
 40
1.0
 10
12.9180098602
 20
8.8028915396
 30
0.0
 10
12.9165712598
 20
8.8015526486
 30
0.0
 10
12.9136955456
 20
8.7987376906
 30
0.0
 10
12.9094809354
 20
8.794223719
 30
0.0
 10
12.905270895
 20
8.7893262137
 30
0.0
 10
12.9010679488
 20
8.7840482623
 30
0.0
 10
12.8968745758
 20
8.7783929226
 30
0.0
 10
12.8926931648
 20
8.7723636323
 30
0.0
 10
12.8885262861
 20
8.7659639457
 30
0.0
 10
12.8843763596
 20
8.7591977373
 30
0.0
 10
12.8802459201
 20
8.7520690512
 30
0.0
 10
12.8761374625
 20
8.7445821881
 30
0.0
 10
12.8720534059
 20
8.7367416653
 30
0.0
 10
12.866556583
 20
8.7256457223
 30
0.0
 10
12.8597798853
 20
8.7109127941
 30
0.0
 10
12.8519078795
 20
8.6921729911
 30
0.0
 10
12.8441912561
 20
8.6721477997
 30
0.0
 10
12.8366489043
 20
8.6508857471
 30
0.0
 10
12.8292992933
 20
8.6284381484
 30
0.0
 10
12.8221604352
 20
8.6048594119
 30
0.0
 10
12.8152498285
 20
8.5802067468
 30
0.0
 10
12.8085844114
 20
8.5545400428
 30
0.0
 10
12.8021805173
 20
8.5279217003
 30
0.0
 10
12.7960538341
 20
8.5004164725
 30
0.0
 10
12.7902193662
 20
8.4720912995
 30
0.0
 10
12.7846913986
 20
8.4430151419
 30
0.0
 10
12.779483458
 20
8.4132588093
 30
0.0
 10
12.7746082834
 20
8.382894783
 30
0.0
 10
12.7700777962
 20
8.3519970344
 30
0.0
 10
12.7659030719
 20
8.320640843
 30
0.0
 10
12.7620943128
 20
8.2889026112
 30
0.0
 10
12.7586608243
 20
8.2568596776
 30
0.0
 10
12.7556109926
 20
8.2245901284
 30
0.0
 10
12.7529522608
 20
8.192172603
 30
0.0
 10
12.7506911157
 20
8.1596861142
 30
0.0
 10
12.748833057
 20
8.1272098052
 30
0.0
 10
12.7473826298
 20
8.0948229074
 30
0.0
 10
12.7463433156
 20
8.0626041535
 30
0.0
 10
12.7457176908
 20
8.0306323435
 30
0.0
 10
12.7455765234
 20
8.0094079622
 30
0.0
 10
12.7455765234
 20
7.9988510662
 30
0.0
  0
SPLINE
  5
359
100
AcDbEntity
  8
0
100
AcDbSpline
 62
7
  6
CONTINUOUS
 70
0
 71
3
 72
11
 73
7
 74
0
 42
0.0000001
 43
0.0000001
 44
0.0000000001
 40
0.0
 40
0.0
 40
0.0
 40
0.0
 40
0.2450768387
 40
0.4921535645
 40
0.7431783294
 40
1.0
 40
1.0
 40
1.0
 40
1.0
 10
12.9051273876
 20
8.7710855869
 30
0.0
 10
12.9039492187
 20
8.7711672879
 30
0.0
 10
12.9015740912
 20
8.7712202478
 30
0.0
 10
12.8979969263
 20
8.7709662607
 30
0.0
 10
12.8944018911
 20
8.7703795904
 30
0.0
 10
12.8920268399
 20
8.769775334
 30
0.0
 10
12.890840916
 20
8.7694214603
 30
0.0
  0
SPLINE
  5
35A
100
AcDbEntity
  8
0
100
AcDbSpline
 62
7
  6
CONTINUOUS
 70
0
 71
3
 72
41
 73
37
 74
0
 42
0.0000001
 43
0.0000001
 44
0.0000000001
 40
0.0
 40
0.0
 40
0.0
 40
0.0
 40
0.029942123
 40
0.0449237706
 40
0.0599145177
 40
0.0899291716
 40
0.1200145961
 40
0.1350933574
 40
0.1501974726
 40
0.1804849654
 40
0.2108989488
 40
0.2414525624
 40
0.2721557217
 40
0.3030149378
 40
0.3340332219
 40
0.3652100719
 40
0.3965415365
 40
0.4280203507
 40
0.4596361361
 40
0.4913756582
 40
0.5232231336
 40
0.5551605782
 40
0.5871681905
 40
0.6192247616
 40
0.6513081064
 40
0.6833955071
 40
0.7154641657
 40
0.7474916563
 40
0.7794563734
 40
0.811337967
 40
0.843117763
 40
0.8747791516
 40
0.9063079641
 40
0.9376927517
 40
0.9689251728
 40
1.0
 40
1.0
 40
1.0
 40
1.0
 10
12.183569331
 20
6.2029708654
 30
0.0
 10
12.1800689136
 20
6.1995896987
 30
0.0
 10
12.1746120022
 20
6.1947227728
 30
0.0
 10
12.166969682
 20
6.1886839909
 30
0.0
 10
12.1590839734
 20
6.182945721
 30
0.0
 10
12.1487944248
 20
6.1763562944
 30
0.0
 10
12.1380045633
 20
6.170592459
 30
0.0
 10
12.1291057331
 20
6.1664920144
 30
0.0
 10
12.1200230514
 20
6.1627301094
 30
0.0
 10
12.108370393
 20
6.1586849415
 30
0.0
 10
12.0940102353
 20
6.1549149321
 30
0.0
 10
12.0793367262
 20
6.152244128
 30
0.0
 10
12.0644311821
 20
6.1506872705
 30
0.0
 10
12.0493754838
 20
6.1502526667
 30
0.0
 10
12.0342524726
 20
6.1509425291
 30
0.0
 10
12.019145269
 20
6.1527528725
 30
0.0
 10
12.0041368811
 20
6.1556735719
 30
0.0
 10
11.9893097377
 20
6.1596884179
 30
0.0
 10
11.9747452459
 20
6.1647752123
 30
0.0
 10
11.9605233494
 20
6.1709058939
 30
0.0
 10
11.946722096
 20
6.1780466942
 30
0.0
 10
11.9334172155
 20
6.1861583239
 30
0.0
 10
11.9206817093
 20
6.1951961883
 30
0.0
 10
11.9085854553
 20
6.2051106311
 30
0.0
 10
11.8971948287
 20
6.2158472046
 30
0.0
 10
11.8865723423
 20
6.2273469667
 30
0.0
 10
11.8767763066
 20
6.2395468009
 30
0.0
 10
11.867860513
 20
6.2523797593
 30
0.0
 10
11.8598739415
 20
6.2657754258
 30
0.0
 10
11.8528604927
 20
6.2796602999
 30
0.0
 10
11.8468587503
 20
6.2939581859
 30
0.0
 10
11.8419017651
 20
6.3085906412
 30
0.0
 10
11.8380168828
 20
6.3234772684
 30
0.0
 10
11.8352255724
 20
6.33853664
 30
0.0
 10
11.8335433364
 20
6.3536849408
 30
0.0
 10
11.833166543
 20
6.3638161484
 30
0.0
 10
11.833166543
 20
6.3688670017
 30
0.0
  0
SPLINE
  5
35B
100
AcDbEntity
  8
0
100
AcDbSpline
 62
7
  6
CONTINUOUS
 70
0
 71
3
 72
15
 73
11
 74
0
 42
0.0000001
 43
0.0000001
 44
0.0000000001
 40
0.0
 40
0.0
 40
0.0
 40
0.0
 40
0.1273482789
 40
0.2538606571
 40
0.3795878378
 40
0.5046051156
 40
0.629017439
 40
0.7529533823
 40
0.8765605864
 40
1.0
 40
1.0
 40
1.0
 40
1.0
 10
11.833166543
 20
9.2666445947
 30
0.0
 10
11.833166543
 20
9.2731429197
 30
0.0
 10
11.8337870036
 20
9.2861058989
 30
0.0
 10
11.8365929351
 20
9.305301045
 30
0.0
 10
11.8412456566
 20
9.3240138987
 30
0.0
 10
11.8477031394
 20
9.34206945
 30
0.0
 10
11.8559061591
 20
9.3593011916
 30
0.0
 10
11.8657798842
 20
9.3755500261
 30
0.0
 10
11.8772315065
 20
9.3906637006
 30
0.0
 10
11.8858540063
 20
9.3998960084
 30
0.0
 10
11.8903844778
 20
9.4042721379
 30
0.0
  0
SPLINE
  5
35C
100
AcDbEntity
  8
0
100
AcDbSpline
 62
7
  6
CONTINUOUS
 70
0
 71
3
 72
48
 73
44
 74
0
 42
0.0000001
 43
0.0000001
 44
0.0000000001
 40
0.0
 40
0.0
 40
0.0
 40
0.0
 40
0.0063158899
 40
0.0126706797
 40
0.0191025165
 40
0.025648058
 40
0.0323419221
 40
0.0392162652
 40
0.0536140552
 40
0.0611947659
 40
0.0690564915
 40
0.0772175997
 40
0.0856939645
 40
0.0944993396
 40
0.103645447
 40
0.1131421893
 40
0.122997946
 40
0.1332195527
 40
0.1438126331
 40
0.1547816545
 40
0.1661299881
 40
0.1778601838
 40
0.1899738557
 40
0.215353302
 40
0.2422691224
 40
0.2707113841
 40
0.3006623731
 40
0.332097648
 40
0.3649869327
 40
0.3992948208
 40
0.434981328
 40
0.4720023222
 40
0.5103099054
 40
0.5498527799
 40
0.590576537
 40
0.632423903
 40
0.6753349407
 40
0.7192473098
 40
0.7640964278
 40
0.8098157282
 40
0.8563368617
 40
0.9035891153
 40
1.0
 40
1.0
 40
1.0
 40
1.0
 10
12.99238734
 20
9.0356825959
 30
0.0
 10
12.9938662565
 20
9.0355800393
 30
0.0
 10
12.9968262078
 20
9.0352532331
 30
0.0
 10
13.0012329791
 20
9.0344014693
 30
0.0
 10
13.0056102825
 20
9.033188047
 30
0.0
 10
13.0099555696
 20
9.0316140087
 30
0.0
 10
13.0142671517
 20
9.0296802727
 30
0.0
 10
13.0200564133
 20
9.0265769295
 30
0.0
 10
13.0256884986
 20
9.0227780206
 30
0.0
 10
13.0311388886
 20
9.0183756214
 30
0.0
 10
13.0352557965
 20
9.0146639
 30
0.0
 10
13.0393287117
 20
9.0106013812
 30
0.0
 10
13.0433566705
 20
9.0061895634
 30
0.0
 10
13.0473379861
 20
9.0014303159
 30
0.0
 10
13.0512712017
 20
8.996325582
 30
0.0
 10
13.0551548404
 20
8.99087747
 30
0.0
 10
13.0589873228
 20
8.9850881447
 30
0.0
 10
13.0627672142
 20
8.9789599951
 30
0.0
 10
13.0664929801
 20
8.9724954855
 30
0.0
 10
13.0701631166
 20
8.9656972344
 30
0.0
 10
13.0737761922
 20
8.9585680311
 30
0.0
 10
13.0773307142
 20
8.9511107368
 30
0.0
 10
13.0820637236
 20
8.9405700435
 30
0.0
 10
13.087807475
 20
8.9265806389
 30
0.0
 10
13.0943408981
 20
8.9087876839
 30
0.0
 10
13.1006075166
 20
8.8897661476
 30
0.0
 10
13.1065969902
 20
8.8695471561
 30
0.0
 10
13.1122994318
 20
8.8481635347
 30
0.0
 10
13.117705381
 20
8.8256502456
 30
0.0
 10
13.1228058491
 20
8.8020441467
 30
0.0
 10
13.1275923373
 20
8.7773839622
 30
0.0
 10
13.1320568707
 20
8.7517102057
 30
0.0
 10
13.1361920195
 20
8.7250651072
 30
0.0
 10
13.1399908928
 20
8.6974925243
 30
0.0
 10
13.1434471569
 20
8.6690378599
 30
0.0
 10
13.1465550427
 20
8.6397479935
 30
0.0
 10
13.1493093794
 20
8.6096712011
 30
0.0
 10
13.1517055769
 20
8.5788570776
 30
0.0
 10
13.153739644
 20
8.5473564258
 30
0.0
 10
13.1554081731
 20
8.5152211946
 30
0.0
 10
13.1567083975
 20
8.4825044081
 30
0.0
 10
13.1579562679
 20
8.4378810149
 30
0.0
 10
13.1583182446
 20
8.4041585773
 30
0.0
 10
13.1583182446
 20
8.3815289772
 30
0.0
  0
SPLINE
  5
35D
100
AcDbEntity
  8
0
100
AcDbSpline
 62
7
  6
CONTINUOUS
 70
0
 71
3
 72
15
 73
11
 74
0
 42
0.0000001
 43
0.0000001
 44
0.0000000001
 40
0.0
 40
0.0
 40
0.0
 40
0.0
 40
0.1273482789
 40
0.2538606571
 40
0.3795878378
 40
0.5046051156
 40
0.629017439
 40
0.7529533823
 40
0.8765605864
 40
1.0
 40
1.0
 40
1.0
 40
1.0
 10
11.833166543
 20
6.3688670017
 30
0.0
 10
11.833166543
 20
6.3753653268
 30
0.0
 10
11.8337870036
 20
6.3883283059
 30
0.0
 10
11.8365929351
 20
6.407523452
 30
0.0
 10
11.8412456566
 20
6.4262363057
 30
0.0
 10
11.8477031394
 20
6.444291857
 30
0.0
 10
11.8559061591
 20
6.4615235986
 30
0.0
 10
11.8657798842
 20
6.4777724331
 30
0.0
 10
11.8772315065
 20
6.4928861076
 30
0.0
 10
11.8858540063
 20
6.5021184154
 30
0.0
 10
11.8903844778
 20
6.5064945449
 30
0.0
  0
SPLINE
  5
35E
100
AcDbEntity
  8
0
100
AcDbSpline
 62
7
  6
CONTINUOUS
 70
0
 71
3
 72
47
 73
43
 74
0
 42
0.0000001
 43
0.0000001
 44
0.0000000001
 40
0.0
 40
0.0
 40
0.0
 40
0.0
 40
0.0948218133
 40
0.1413265321
 40
0.187138264
 40
0.2321911647
 40
0.2764214714
 40
0.3197671223
 40
0.3621677342
 40
0.4035649433
 40
0.4439025545
 40
0.4831266859
 40
0.521185959
 40
0.5580317533
 40
0.5936184736
 40
0.627903771
 40
0.6608488544
 40
0.6924189194
 40
0.7225836014
 40
0.751317463
 40
0.7786006676
 40
0.8044198917
 40
0.8287693827
 40
0.8403942976
 40
0.8516538345
 40
0.8625500446
 40
0.8730858941
 40
0.883265152
 40
0.8930926224
 40
0.9025742694
 40
0.9117172013
 40
0.9205300006
 40
0.9290227643
 40
0.9372072491
 40
0.9450971965
 40
0.9527083497
 40
0.9600587173
 40
0.9740546739
 40
0.9807555038
 40
0.9872926294
 40
0.9936965611
 40
1.0
 40
1.0
 40
1.0
 40
1.0
 10
13.1428634297
 20
8.3826007723
 30
0.0
 10
13.1428634297
 20
8.4046051984
 30
0.0
 10
13.1425210515
 20
8.4374031665
 30
0.0
 10
13.1413419999
 20
8.4808152648
 30
0.0
 10
13.140113112
 20
8.5126703761
 30
0.0
 10
13.1385359405
 20
8.5439816552
 30
0.0
 10
13.1366129619
 20
8.5747002792
 30
0.0
 10
13.1343472208
 20
8.6047783691
 30
0.0
 10
13.1317422702
 20
8.6341690684
 30
0.0
 10
13.1288022056
 20
8.6628265804
 30
0.0
 10
13.1255316675
 20
8.6907062776
 30
0.0
 10
13.1219358052
 20
8.7177647523
 30
0.0
 10
13.118020268
 20
8.7439598831
 30
0.0
 10
13.1137912131
 20
8.7692509173
 30
0.0
 10
13.1092553096
 20
8.7935985431
 30
0.0
 10
13.1044196955
 20
8.8169649416
 30
0.0
 10
13.0992919618
 20
8.8393138505
 30
0.0
 10
13.0938801655
 20
8.8606106432
 30
0.0
 10
13.0881928104
 20
8.8808224099
 30
0.0
 10
13.0822388016
 20
8.8999179609
 30
0.0
 10
13.0760273925
 20
8.9178680421
 30
0.0
 10
13.0695682399
 20
8.9346449094
 30
0.0
 10
13.0639032285
 20
8.9478232488
 30
0.0
 10
13.0592429977
 20
8.9577452962
 30
0.0
 10
13.0557462424
 20
8.9647622256
 30
0.0
 10
13.0521951473
 20
8.9714671666
 30
0.0
 10
13.0485910956
 20
8.977857584
 30
0.0
 10
13.0449354228
 20
8.9839310028
 30
0.0
 10
13.0412294948
 20
8.9896850863
 30
0.0
 10
13.0374747524
 20
8.9951176614
 30
0.0
 10
13.0336725147
 20
9.0002266022
 30
0.0
 10
13.0298242106
 20
9.0050099703
 30
0.0
 10
13.0259312555
 20
9.0094659286
 30
0.0
 10
13.0219949375
 20
9.013592705
 30
0.0
 10
13.0180168368
 20
9.0173886504
 30
0.0
 10
13.0139978673
 20
9.0208524602
 30
0.0
 10
13.0086752668
 20
9.0249579782
 30
0.0
 10
13.0031825479
 20
9.0284871315
 30
0.0
 10
12.9975463376
 20
9.0313552946
 30
0.0
 10
12.9933464297
 20
9.0331368944
 30
0.0
 10
12.9891154656
 20
9.0345782789
 30
0.0
 10
12.9862569659
 20
9.0353166071
 30
0.0
 10
12.9848274781
 20
9.0356269185
 30
0.0
  0
SPLINE
  5
35F
100
AcDbEntity
  8
0
100
AcDbSpline
 62
7
  6
CONTINUOUS
 70
0
 71
3
 72
53
 73
49
 74
0
 42
0.0000001
 43
0.0000001
 44
0.0000000001
 40
0.0
 40
0.0
 40
0.0
 40
0.0
 40
0.0412318076
 40
0.082939274
 40
0.1249988229
 40
0.1672850374
 40
0.2096719146
 40
0.2520329686
 40
0.2942418443
 40
0.336172753
 40
0.3777009649
 40
0.4187032881
 40
0.4590585548
 40
0.4986481136
 40
0.53735633
 40
0.5750711004
 40
0.6116843848
 40
0.6470927668
 40
0.6811980529
 40
0.713907928
 40
0.7297128346
 40
0.7451373515
 40
0.7601719152
 40
0.7748075411
 40
0.7890357723
 40
0.8028487855
 40
0.816239401
 40
0.8292011442
 40
0.8417283316
 40
0.853816088
 40
0.8654605172
 40
0.8766586882
 40
0.8874088937
 40
0.8977106332
 40
0.9075649583
 40
0.9169744973
 40
0.9259438874
 40
0.9344798994
 40
0.9425919608
 40
0.9502924445
 40
0.95759729
 40
0.9645264906
 40
0.9711047849
 40
0.9773622714
 40
0.9833349947
 40
0.9890653581
 40
0.9946021312
 40
1.0
 40
1.0
 40
1.0
 40
1.0
 10
13.1428634297
 20
8.3826007723
 30
0.0
 10
13.1428634297
 20
8.3665968787
 30
0.0
 10
13.1426186582
 20
8.3344039829
 30
0.0
 10
13.1415361826
 20
8.2858968503
 30
0.0
 10
13.1397393225
 20
8.2370013101
 30
0.0
 10
13.1372337374
 20
8.1878729653
 30
0.0
 10
13.1340273898
 20
8.1386681014
 30
0.0
 10
13.1301304668
 20
8.0895432212
 30
0.0
 10
13.1255553786
 20
8.0406545872
 30
0.0
 10
13.1203167038
 20
7.9921577
 30
0.0
 10
13.11443115
 20
7.9442068076
 30
0.0
 10
13.1079174985
 20
7.8969544091
 30
0.0
 10
13.1007965466
 20
7.8505507659
 30
0.0
 10
13.093091042
 20
7.8051434177
 30
0.0
 10
13.084825612
 20
7.760876709
 30
0.0
 10
13.0760266877
 20
7.717891314
 30
0.0
 10
13.0667224176
 20
7.6763238058
 30
0.0
 10
13.0569425928
 20
7.6363061083
 30
0.0
 10
13.0467185058
 20
7.5979654101
 30
0.0
 10
13.037756146
 20
7.5671712676
 30
0.0
 10
13.030375087
 20
7.5434759951
 30
0.0
 10
13.0248121927
 20
7.5264017028
 30
0.0
 10
13.0191632611
 20
7.5098344637
 30
0.0
 10
13.0134328014
 20
7.4937874099
 30
0.0
 10
13.0076253584
 20
7.4782732844
 30
0.0
 10
13.0017455762
 20
7.4633043873
 30
0.0
 10
12.9957981337
 20
7.448892584
 30
0.0
 10
12.989787755
 20
7.4350492896
 30
0.0
 10
12.9837192468
 20
7.4217854496
 30
0.0
 10
12.9775973888
 20
7.4091115547
 30
0.0
 10
12.9714270939
 20
7.397037587
 30
0.0
 10
12.9652131741
 20
7.385573076
 30
0.0
 10
12.9589606159
 20
7.3747269985
 30
0.0
 10
12.9526742366
 20
7.3645078881
 30
0.0
 10
12.9463590469
 20
7.354923681
 30
0.0
 10
12.9400198334
 20
7.345981884
 30
0.0
 10
12.9336615574
 20
7.3376893741
 30
0.0
 10
12.9272889198
 20
7.330052617
 30
0.0
 10
12.9209067301
 20
7.3230774505
 30
0.0
 10
12.9145195223
 20
7.316769335
 30
0.0
 10
12.9081318368
 20
7.311133178
 30
0.0
 10
12.9017479626
 20
7.3061735865
 30
0.0
 10
12.8953721319
 20
7.3018948142
 30
0.0
 10
12.8890084518
 20
7.2983009461
 30
0.0
 10
12.8826612088
 20
7.2953960173
 30
0.0
 10
12.8763346582
 20
7.2931839093
 30
0.0
 10
12.8700349679
 20
7.291668571
 30
0.0
 10
12.8658162988
 20
7.2911198819
 30
0.0
 10
12.8637267798
 20
7.2909663459
 30
0.0
  0
SPLINE
  5
360
100
AcDbEntity
  8
0
100
AcDbSpline
 62
7
  6
CONTINUOUS
 70
0
 71
3
 72
57
 73
53
 74
0
 42
0.0000001
 43
0.0000001
 44
0.0000000001
 40
0.0
 40
0.0
 40
0.0
 40
0.0
 40
0.0452111151
 40
0.0910028922
 40
0.1371914731
 40
0.183589865
 40
0.2300105241
 40
0.2762656379
 40
0.3221682775
 40
0.3675333237
 40
0.4121784488
 40
0.4559250957
 40
0.4985994741
 40
0.5400335829
 40
0.5800662712
 40
0.6185443608
 40
0.637155417
 40
0.6553246567
 40
0.6730357378
 40
0.6902730659
 40
0.7070219026
 40
0.7232683064
 40
0.7389993698
 40
0.7542031206
 40
0.7688687611
 40
0.7829866902
 40
0.7965486293
 40
0.8095478594
 40
0.8219792442
 40
0.8338396478
 40
0.8451280137
 40
0.8558458432
 40
0.8659975471
 40
0.8755909364
 40
0.8846379793
 40
0.8931554241
 40
0.9011659533
 40
0.9086991512
 40
0.9157928765
 40
0.9224945133
 40
0.9288620062
 40
0.9349644242
 40
0.9408812842
 40
0.946700577
 40
0.9525151341
 40
0.9584180353
 40
0.9644979297
 40
0.9708353444
 40
0.9775004039
 40
0.9845522178
 40
0.9920391601
 40
1.0
 40
1.0
 40
1.0
 40
1.0
 10
13.087217381
 20
8.3288508134
 30
0.0
 10
13.087217381
 20
8.3147790796
 30
0.0
 10
13.0869664198
 20
8.2864543141
 30
0.0
 10
13.0858598078
 20
8.2437665805
 30
0.0
 10
13.0840248414
 20
8.2007339885
 30
0.0
 10
13.0814693497
 20
8.1575421525
 30
0.0
 10
13.0782043558
 20
8.1143773743
 30
0.0
 10
13.0742439403
 20
8.0714257736
 30
0.0
 10
13.0696052241
 20
8.0288725659
 30
0.0
 10
13.0643082808
 20
7.9869012283
 30
0.0
 10
13.058376059
 20
7.9456927059
 30
0.0
 10
13.0518342797
 20
7.9054246148
 30
0.0
 10
13.044711325
 20
7.8662704907
 30
0.0
 10
13.0370381352
 20
7.8283989314
 30
0.0
 10
13.0288480193
 20
7.7919731821
 30
0.0
 10
13.0215432251
 20
7.7626370829
 30
0.0
 10
13.0154547597
 20
7.7400178243
 30
0.0
 10
13.0108324714
 20
7.723699138
 30
0.0
 10
13.0061085956
 20
7.707855214
 30
0.0
 10
13.0012881894
 20
7.6925031026
 30
0.0
 10
12.9963765191
 20
7.6776593305
 30
0.0
 10
12.9913788354
 20
7.6633398782
 30
0.0
 10
12.9863006079
 20
7.6495601339
 30
0.0
 10
12.9811472729
 20
7.6363349129
 30
0.0
 10
12.9759244298
 20
7.6236784053
 30
0.0
 10
12.9706377172
 20
7.611604178
 30
0.0
 10
12.9652928019
 20
7.6001251628
 30
0.0
 10
12.9598954962
 20
7.5892536013
 30
0.0
 10
12.9544515132
 20
7.5790010982
 30
0.0
 10
12.9489667448
 20
7.5693785104
 30
0.0
 10
12.9434469553
 20
7.5603960305
 30
0.0
 10
12.9378979754
 20
7.5520630975
 30
0.0
 10
12.9323255799
 20
7.544388414
 30
0.0
 10
12.9267353905
 20
7.5373799936
 30
0.0
 10
12.9211330357
 20
7.5310450388
 30
0.0
 10
12.9155237808
 20
7.5253901935
 30
0.0
 10
12.9099128321
 20
7.5204213577
 30
0.0
 10
12.9043049835
 20
7.5161440698
 30
0.0
 10
12.898704865
 20
7.5125635391
 30
0.0
 10
12.8931170407
 20
7.5096848979
 30
0.0
 10
12.8875463171
 20
7.5075135866
 30
0.0
 10
12.8819985165
 20
7.5060549064
 30
0.0
 10
12.8764809034
 20
7.5053140488
 30
0.0
 10
12.8710025946
 20
7.5052944477
 30
0.0
 10
12.8655738424
 20
7.5059971642
 30
0.0
 10
12.8602047895
 20
7.5074200986
 30
0.0
 10
12.8549041018
 20
7.5095585838
 30
0.0
 10
12.8496785738
 20
7.5124068168
 30
0.0
 10
12.8445332265
 20
7.5159584426
 30
0.0
 10
12.8394722199
 20
7.520207676
 30
0.0
 10
12.8344995117
 20
7.5251483562
 30
0.0
 10
12.8313460501
 20
7.5287838148
 30
0.0
 10
12.8297826602
 20
7.5307060959
 30
0.0
  0
SPLINE
  5
361
100
AcDbEntity
  8
0
100
AcDbSpline
 62
7
  6
CONTINUOUS
 70
0
 71
3
 72
51
 73
47
 74
0
 42
0.0000001
 43
0.0000001
 44
0.0000000001
 40
0.0
 40
0.0
 40
0.0
 40
0.0
 40
0.0417744843
 40
0.0840380839
 40
0.1266601362
 40
0.1695087031
 40
0.212450867
 40
0.2553533782
 40
0.2980831295
 40
0.3405076991
 40
0.3824958705
 40
0.4239181636
 40
0.4646473676
 40
0.5045590818
 40
0.5435322671
 40
0.5814498133
 40
0.6181991296
 40
0.6536727683
 40
0.6877690975
 40
0.7203930432
 40
0.7514569337
 40
0.7663791342
 40
0.7808823543
 40
0.7949581844
 40
0.8085989353
 40
0.8217976447
 40
0.8345481875
 40
0.8468453172
 40
0.8586847848
 40
0.8700634277
 40
0.8809793084
 40
0.8914318672
 40
0.9014221009
 40
0.9109528038
 40
0.9200288152
 40
0.9286573828
 40
0.9368485186
 40
0.9446155236
 40
0.9519754893
 40
0.9589499968
 40
0.9655657475
 40
0.9778459114
 40
0.9836071632
 40
0.9891799111
 40
0.9946230109
 40
1.0
 40
1.0
 40
1.0
 40
1.0
 10
13.0198564216
 20
8.3187851193
 30
0.0
 10
13.0198564216
 20
8.3074983319
 30
0.0
 10
13.0196803335
 20
8.2847922515
 30
0.0
 10
13.0189018931
 20
8.250578406
 30
0.0
 10
13.0176098605
 20
8.216089645
 30
0.0
 10
13.0158084882
 20
8.1814401901
 30
0.0
 10
13.0135037169
 20
8.1467446345
 30
0.0
 10
13.0107031714
 20
8.1121177789
 30
0.0
 10
13.007416126
 20
8.0776741778
 30
0.0
 10
13.0036534782
 20
8.0435277807
 30
0.0
 10
12.9994277114
 20
8.0097915456
 30
0.0
 10
12.9947528546
 20
7.9765770644
 30
0.0
 10
12.9896444364
 20
7.9439941894
 30
0.0
 10
12.9841194346
 20
7.9121506656
 30
0.0
 10
12.9781962215
 20
7.8811517689
 30
0.0
 10
12.9718945039
 20
7.8510999521
 30
0.0
 10
12.9652352601
 20
7.8220944897
 30
0.0
 10
12.9582406682
 20
7.7942311636
 30
0.0
 10
12.9509340442
 20
7.7676018341
 30
0.0
 10
12.9433397239
 20
7.7422944502
 30
0.0
 10
12.936706788
 20
7.7221144509
 30
0.0
 10
12.9312636657
 20
7.706703709
 30
0.0
 10
12.9271799686
 20
7.6956820959
 30
0.0
 10
12.923043581
 20
7.685050804
 30
0.0
 10
12.9188579104
 20
7.6748185853
 30
0.0
 10
12.9146264196
 20
7.6649938722
 30
0.0
 10
12.9103526173
 20
7.6555847464
 30
0.0
 10
12.9060400293
 20
7.646598941
 30
0.0
 10
12.901692218
 20
7.6380438278
 30
0.0
 10
12.8973127614
 20
7.6299264114
 30
0.0
 10
12.8929052511
 20
7.6222533238
 30
0.0
 10
12.8884732929
 20
7.6150308116
 30
0.0
 10
12.8840204759
 20
7.608264742
 30
0.0
 10
12.8795503965
 20
7.6019605789
 30
0.0
 10
12.8750665967
 20
7.5961234104
 30
0.0
 10
12.8705726013
 20
7.5907579057
 30
0.0
 10
12.8660718607
 20
7.5858683987
 30
0.0
 10
12.8615676716
 20
7.5814587596
 30
0.0
 10
12.8570635854
 20
7.5775327859
 30
0.0
 10
12.8525616623
 20
7.5740932171
 30
0.0
 10
12.8467148918
 20
7.5702567624
 30
0.0
 10
12.8407204055
 20
7.5672564483
 30
0.0
 10
12.8346486092
 20
7.5652663275
 30
0.0
 10
12.8302092683
 20
7.5643065592
 30
0.0
 10
12.8257948271
 20
7.563850892
 30
0.0
 10
12.8228639641
 20
7.563884381
 30
0.0
 10
12.8214146695
 20
7.5639848833
 30
0.0
  0
SPLINE
  5
362
100
AcDbEntity
  8
0
100
AcDbSpline
 62
7
  6
CONTINUOUS
 70
0
 71
3
 72
56
 73
52
 74
0
 42
0.0000001
 43
0.0000001
 44
0.0000000001
 40
0.0
 40
0.0
 40
0.0
 40
0.0
 40
0.0532131131
 40
0.105633554
 40
0.1571443692
 40
0.2076346289
 40
0.2569945169
 40
0.3051184503
 40
0.3519044663
 40
0.3972549662
 40
0.4410771197
 40
0.4832833744
 40
0.5237920264
 40
0.5625278718
 40
0.5994229784
 40
0.6344176177
 40
0.6511866862
 40
0.6674626524
 40
0.683240886
 40
0.6985176179
 40
0.7132899542
 40
0.7275558774
 40
0.7413145617
 40
0.7545661886
 40
0.767312411
 40
0.7795562339
 40
0.7913023825
 40
0.8025574865
 40
0.8133302408
 40
0.823631933
 40
0.833476506
 40
0.8428812547
 40
0.8518670268
 40
0.8604588344
 40
0.8686863032
 40
0.876584014
 40
0.8841919771
 40
0.8915555538
 40
0.8987254324
 40
0.9057569207
 40
0.9127089848
 40
0.919642806
 40
0.9266200918
 40
0.9337012954
 40
0.9409440611
 40
0.9484018784
 40
0.9641402673
 40
0.9725130258
 40
0.9812628804
 40
0.9904174298
 40
1.0
 40
1.0
 40
1.0
 40
1.0
 10
13.087217381
 20
8.3288508134
 30
0.0
 10
13.087217381
 20
8.3391499366
 30
0.0
 10
13.0870847194
 20
8.3595950389
 30
0.0
 10
13.0864791267
 20
8.3900043904
 30
0.0
 10
13.0854697041
 20
8.4198758306
 30
0.0
 10
13.0840589687
 20
8.4491380281
 30
0.0
 10
13.0822502877
 20
8.4777216088
 30
0.0
 10
13.0800480562
 20
8.5055585311
 30
0.0
 10
13.0774575794
 20
8.5325826645
 30
0.0
 10
13.0744851112
 20
8.5587297982
 30
0.0
 10
13.0711378268
 20
8.5839378483
 30
0.0
 10
13.0674238059
 20
8.6081470091
 30
0.0
 10
13.0633520087
 20
8.6312998782
 30
0.0
 10
13.0589322672
 20
8.6533417059
 30
0.0
 10
13.0541752045
 20
8.6742202031
 30
0.0
 10
13.0498807054
 20
8.6908366656
 30
0.0
 10
13.0462731519
 20
8.703502176
 30
0.0
 10
13.0435288465
 20
8.7125449202
 30
0.0
 10
13.0407090323
 20
8.7212613485
 30
0.0
 10
13.0378153636
 20
8.729646318
 30
0.0
 10
13.0348495926
 20
8.7376948794
 30
0.0
 10
13.0318134143
 20
8.7454022728
 30
0.0
 10
13.0287087049
 20
8.75276398
 30
0.0
 10
13.0255372019
 20
8.7597756525
 30
0.0
 10
13.0223008386
 20
8.7664332021
 30
0.0
 10
13.0190014503
 20
8.772732724
 30
0.0
 10
13.0156409458
 20
8.7786705451
 30
0.0
 10
13.0122212793
 20
8.7842432329
 30
0.0
 10
13.0087442973
 20
8.7894475152
 30
0.0
 10
13.0052120217
 20
8.794280429
 30
0.0
 10
13.0016262597
 20
8.7987391025
 30
0.0
 10
12.9979889897
 20
8.802820973
 30
0.0
 10
12.9943020339
 20
8.8065235682
 30
0.0
 10
12.9905672465
 20
8.8098445867
 30
0.0
 10
12.9867865179
 20
8.8127818997
 30
0.0
 10
12.9829616524
 20
8.8153333124
 30
0.0
 10
12.9790947123
 20
8.817496914
 30
0.0
 10
12.9751877586
 20
8.8192705971
 30
0.0
 10
12.9712432617
 20
8.8206526204
 30
0.0
 10
12.9672639257
 20
8.8216412974
 30
0.0
 10
12.9632528317
 20
8.8222353678
 30
0.0
 10
12.9592133125
 20
8.8224341948
 30
0.0
 10
12.9551487766
 20
8.822237516
 30
0.0
 10
12.9510626132
 20
8.8216460368
 30
0.0
 10
12.9469577144
 20
8.8206604703
 30
0.0
 10
12.9413647284
 20
8.8187901906
 30
0.0
 10
12.9358306168
 20
8.8161349528
 30
0.0
 10
12.9304060138
 20
8.8128097204
 30
0.0
 10
12.9262457115
 20
8.8098780754
 30
0.0
 10
12.9220815814
 20
8.8065631261
 30
0.0
 10
12.9193675056
 20
8.8041550867
 30
0.0
 10
12.9180098602
 20
8.8028915396
 30
0.0
  0
SPLINE
  5
363
100
AcDbEntity
  8
0
100
AcDbSpline
 62
7
  6
CONTINUOUS
 70
0
 71
3
 72
40
 73
36
 74
0
 42
0.0000001
 43
0.0000001
 44
0.0000000001
 40
0.0
 40
0.0
 40
0.0
 40
0.0
 40
0.0964132781
 40
0.1901869921
 40
0.2359074318
 40
0.2807575844
 40
0.3246709866
 40
0.3675830148
 40
0.4094313598
 40
0.4501560995
 40
0.4896999016
 40
0.528008388
 40
0.5650302757
 40
0.6007176322
 40
0.6350263452
 40
0.6679164477
 40
0.699352486
 40
0.7293041846
 40
0.7577471706
 40
0.7846636899
 40
0.8100437507
 40
0.8338866661
 40
0.8562027356
 40
0.8770156382
 40
0.8963657406
 40
0.9143140809
 40
0.9309474397
 40
0.9463845834
 40
0.9607827633
 40
0.9676572724
 40
0.9743513226
 40
0.9808970232
 40
0.987329015
 40
0.9936839639
 40
1.0
 40
1.0
 40
1.0
 40
1.0
 10
13.0198564216
 20
8.3187851193
 30
0.0
 10
13.0198564216
 20
8.3344318711
 30
0.0
 10
13.0195249276
 20
8.3652981059
 30
0.0
 10
13.0182418631
 20
8.4035653804
 30
0.0
 10
13.0166906687
 20
8.4334427481
 30
0.0
 10
13.0152842465
 20
8.455223191
 30
0.0
 10
13.0136274615
 20
8.476528919
 30
0.0
 10
13.0117230305
 20
8.4973248417
 30
0.0
 10
13.0095741562
 20
8.5175766655
 30
0.0
 10
13.0071844142
 20
8.5372510122
 30
0.0
 10
13.0045577678
 20
8.5563154626
 30
0.0
 10
13.0016986146
 20
8.5747386247
 30
0.0
 10
12.998611724
 20
8.5924901777
 30
0.0
 10
12.9953022165
 20
8.6095409203
 30
0.0
 10
12.9917756158
 20
8.6258628425
 30
0.0
 10
12.9880378076
 20
8.6414291719
 30
0.0
 10
12.984094989
 20
8.6562144103
 30
0.0
 10
12.9799536955
 20
8.6701944042
 30
0.0
 10
12.9756207997
 20
8.6833464082
 30
0.0
 10
12.9711034189
 20
8.6956491122
 30
0.0
 10
12.9664088856
 20
8.7070827014
 30
0.0
 10
12.9615447633
 20
8.7176289442
 30
0.0
 10
12.9565186776
 20
8.7272712066
 30
0.0
 10
12.951338185
 20
8.7359944476
 30
0.0
 10
12.9460106409
 20
8.7437852706
 30
0.0
 10
12.9405430742
 20
8.7506316893
 30
0.0
 10
12.9349413662
 20
8.7565229672
 30
0.0
 10
12.9292120022
 20
8.7614481856
 30
0.0
 10
12.9242586565
 20
8.7647894765
 30
0.0
 10
12.9202556478
 20
8.7669352834
 30
0.0
 10
12.9172745491
 20
8.7682723719
 30
0.0
 10
12.9142700851
 20
8.7693607174
 30
0.0
 10
12.9112434974
 20
8.7701997103
 30
0.0
 10
12.9081965471
 20
8.7707887258
 30
0.0
 10
12.906149951
 20
8.7710146766
 30
0.0
 10
12.9051273876
 20
8.7710855869
 30
0.0
  0
SPLINE
  5
364
100
AcDbEntity
  8
0
100
AcDbSpline
 62
7
  6
CONTINUOUS
 70
0
 71
3
 72
41
 73
37
 74
0
 42
0.0000001
 43
0.0000001
 44
0.0000000001
 40
0.0
 40
0.0
 40
0.0
 40
0.0
 40
0.029942123
 40
0.0449237706
 40
0.0599145177
 40
0.0899291716
 40
0.1200145961
 40
0.1350933574
 40
0.1501974726
 40
0.1804849654
 40
0.2108989488
 40
0.2414525624
 40
0.2721557217
 40
0.3030149378
 40
0.3340332219
 40
0.3652100719
 40
0.3965415365
 40
0.4280203507
 40
0.4596361361
 40
0.4913756582
 40
0.5232231336
 40
0.5551605782
 40
0.5871681905
 40
0.6192247616
 40
0.6513081064
 40
0.6833955071
 40
0.7154641657
 40
0.7474916563
 40
0.7794563734
 40
0.811337967
 40
0.843117763
 40
0.8747791516
 40
0.9063079641
 40
0.9376927517
 40
0.9689251728
 40
1.0
 40
1.0
 40
1.0
 40
1.0
 10
12.183569331
 20
9.1007484584
 30
0.0
 10
12.1800689136
 20
9.0973672917
 30
0.0
 10
12.1746120022
 20
9.0925003658
 30
0.0
 10
12.166969682
 20
9.0864615839
 30
0.0
 10
12.1590839734
 20
9.080723314
 30
0.0
 10
12.1487944248
 20
9.0741338874
 30
0.0
 10
12.1380045633
 20
9.068370052
 30
0.0
 10
12.1291057331
 20
9.0642696074
 30
0.0
 10
12.1200230514
 20
9.0605077024
 30
0.0
 10
12.108370393
 20
9.0564625345
 30
0.0
 10
12.0940102353
 20
9.0526925251
 30
0.0
 10
12.0793367262
 20
9.0500217209
 30
0.0
 10
12.0644311821
 20
9.0484648635
 30
0.0
 10
12.0493754838
 20
9.0480302597
 30
0.0
 10
12.0342524726
 20
9.0487201221
 30
0.0
 10
12.019145269
 20
9.0505304655
 30
0.0
 10
12.0041368811
 20
9.0534511649
 30
0.0
 10
11.9893097377
 20
9.0574660109
 30
0.0
 10
11.9747452459
 20
9.0625528053
 30
0.0
 10
11.9605233494
 20
9.0686834869
 30
0.0
 10
11.946722096
 20
9.0758242872
 30
0.0
 10
11.9334172155
 20
9.0839359169
 30
0.0
 10
11.9206817093
 20
9.0929737813
 30
0.0
 10
11.9085854553
 20
9.1028882241
 30
0.0
 10
11.8971948287
 20
9.1136247976
 30
0.0
 10
11.8865723423
 20
9.1251245597
 30
0.0
 10
11.8767763066
 20
9.1373243939
 30
0.0
 10
11.867860513
 20
9.1501573523
 30
0.0
 10
11.8598739415
 20
9.1635530188
 30
0.0
 10
11.8528604927
 20
9.1774378929
 30
0.0
 10
11.8468587503
 20
9.1917357789
 30
0.0
 10
11.8419017651
 20
9.2063682342
 30
0.0
 10
11.8380168828
 20
9.2212548614
 30
0.0
 10
11.8352255724
 20
9.236314233
 30
0.0
 10
11.8335433364
 20
9.2514625338
 30
0.0
 10
11.833166543
 20
9.2615937414
 30
0.0
 10
11.833166543
 20
9.2666445947
 30
0.0
  0
SPLINE
  5
365
100
AcDbEntity
  8
0
100
AcDbSpline
 62
7
  6
CONTINUOUS
 70
0
 71
3
 72
54
 73
50
 74
0
 42
0.0000001
 43
0.0000001
 44
0.0000000001
 40
0.0
 40
0.0
 40
0.0
 40
0.0
 40
0.0417740106
 40
0.0840368515
 40
0.1266583734
 40
0.1695063147
 40
0.2124478814
 40
0.2553497884
 40
0.2980789417
 40
0.340502919
 40
0.3824905067
 40
0.4239122259
 40
0.4646408671
 40
0.5045520317
 40
0.5435246831
 40
0.5814417135
 40
0.6181905344
 40
0.6536637003
 40
0.6877595809
 40
0.704261357
 40
0.7203837372
 40
0.736116
 40
0.7514479644
 40
0.7663699709
 40
0.7808730136
 40
0.7949486603
 40
0.8085892482
 40
0.8217877894
 40
0.8345381805
 40
0.8468351604
 40
0.8586744859
 40
0.8700529987
 40
0.8809687469
 40
0.891421194
 40
0.9014113064
 40
0.910941912
 40
0.9200178165
 40
0.9286462958
 40
0.9368373422
 40
0.9446042644
 40
0.9519641574
 40
0.9589385856
 40
0.9655542762
 40
0.9718437871
 40
0.9778461898
 40
0.9836073681
 40
0.9891800557
 40
0.994623083
 40
1.0
 40
1.0
 40
1.0
 40
1.0
 10
13.1583182446
 20
8.3815289772
 30
0.0
 10
13.1583182446
 20
8.3652050867
 30
0.0
 10
13.1580635761
 20
8.3323657741
 30
0.0
 10
13.1569377238
 20
8.2828829934
 30
0.0
 10
13.1550690944
 20
8.2330026608
 30
0.0
 10
13.1524638038
 20
8.1828898537
 30
0.0
 10
13.1491304672
 20
8.1327103989
 30
0.0
 10
13.1450801005
 20
8.0826302934
 30
0.0
 10
13.1403261217
 20
8.0328152256
 30
0.0
 10
13.1348842897
 20
7.9834299947
 30
0.0
 10
13.1287726591
 20
7.9346379702
 30
0.0
 10
13.1220115189
 20
7.8866005451
 30
0.0
 10
13.1146233271
 20
7.8394765965
 30
0.0
 10
13.1066326388
 20
7.793421955
 30
0.0
 10
13.0980660264
 20
7.7485888737
 30
0.0
 10
13.0889519899
 20
7.7051255415
 30
0.0
 10
13.0793208762
 20
7.663175485
 30
0.0
 10
13.0692047384
 20
7.6228774109
 30
0.0
 10
13.0603044686
 20
7.5904394312
 30
0.0
 10
13.0529538202
 20
7.5654245434
 30
0.0
 10
13.0474008688
 20
7.547362252
 30
0.0
 10
13.0417525353
 20
7.5298091482
 30
0.0
 10
13.0360134946
 20
7.5127797132
 30
0.0
 10
13.0301884721
 20
7.4962880194
 30
0.0
 10
13.024282352
 20
7.4803476694
 30
0.0
 10
13.0182999628
 20
7.464971825
 30
0.0
 10
13.0122463329
 20
7.4501731479
 30
0.0
 10
13.0061264067
 20
7.4359638415
 30
0.0
 10
12.9999453065
 20
7.4223555842
 30
0.0
 10
12.9937080989
 20
7.4093595685
 30
0.0
 10
12.987419951
 20
7.3969864516
 30
0.0
 10
12.9810860428
 20
7.3852463625
 30
0.0
 10
12.9747115426
 20
7.3741489022
 30
0.0
 10
12.9683017111
 20
7.3637030874
 30
0.0
 10
12.9618616776
 20
7.35391743
 30
0.0
 10
12.9553967148
 20
7.3447997994
 30
0.0
 10
12.9489118713
 20
7.3363575899
 30
0.0
 10
12.9424123176
 20
7.3285975254
 30
0.0
 10
12.9359029623
 20
7.321525879
 30
0.0
 10
12.9293887251
 20
7.3151483091
 30
0.0
 10
12.9228742888
 20
7.3094700542
 30
0.0
 10
12.9163642032
 20
7.3044959363
 30
0.0
 10
12.9098628997
 20
7.3002304358
 30
0.0
 10
12.9033746839
 20
7.2966779781
 30
0.0
 10
12.8969040646
 20
7.2938427427
 30
0.0
 10
12.8904559444
 20
7.2917291244
 30
0.0
 10
12.8840357146
 20
7.2903410347
 30
0.0
 10
12.877651114
 20
7.289682011
 30
0.0
 10
12.8734122801
 20
7.2897303389
 30
0.0
 10
12.8713161941
 20
7.2898756936
 30
0.0
  0
SPLINE
  5
366
100
AcDbEntity
  8
0
100
AcDbSpline
 62
7
  6
CONTINUOUS
 70
0
 71
3
 72
118
 73
114
 74
0
 42
0.0000001
 43
0.0000001
 44
0.0000000001
 40
0.0
 40
0.0
 40
0.0
 40
0.0
 40
0.015625
 40
0.03125
 40
0.046875
 40
0.0546875
 40
0.05859375
 40
0.0625
 40
0.06640625
 40
0.0703125
 40
0.078125
 40
0.09375
 40
0.109375
 40
0.1171875
 40
0.12109375
 40
0.125
 40
0.12890625
 40
0.1328125
 40
0.140625
 40
0.15625
 40
0.171875
 40
0.1796875
 40
0.18359375
 40
0.1875
 40
0.19140625
 40
0.1953125
 40
0.203125
 40
0.21875
 40
0.234375
 40
0.2421875
 40
0.25
 40
0.2578125
 40
0.265625
 40
0.28125
 40
0.296875
 40
0.3046875
 40
0.3125
 40
0.3203125
 40
0.328125
 40
0.34375
 40
0.359375
 40
0.3671875
 40
0.375
 40
0.3828125
 40
0.390625
 40
0.40625
 40
0.421875
 40
0.4375
 40
0.453125
 40
0.46875
 40
0.484375
 40
0.4921875
 40
0.5
 40
0.5078125
 40
0.515625
 40
0.53125
 40
0.546875
 40
0.5546875
 40
0.5625
 40
0.5703125
 40
0.578125
 40
0.59375
 40
0.609375
 40
0.6171875
 40
0.62109375
 40
0.625
 40
0.62890625
 40
0.6328125
 40
0.640625
 40
0.65625
 40
0.671875
 40
0.6796875
 40
0.68359375
 40
0.6875
 40
0.69140625
 40
0.6953125
 40
0.703125
 40
0.71875
 40
0.734375
 40
0.7421875
 40
0.74609375
 40
0.75
 40
0.75390625
 40
0.7578125
 40
0.765625
 40
0.78125
 40
0.796875
 40
0.8046875
 40
0.80859375
 40
0.8125
 40
0.81640625
 40
0.8203125
 40
0.828125
 40
0.84375
 40
0.859375
 40
0.8671875
 40
0.87109375
 40
0.875
 40
0.87890625
 40
0.8828125
 40
0.890625
 40
0.90625
 40
0.921875
 40
0.9296875
 40
0.93359375
 40
0.9375
 40
0.94140625
 40
0.9453125
 40
0.953125
 40
0.9609375
 40
0.96875
 40
0.984375
 40
1.0
 40
1.0
 40
1.0
 40
1.0
 10
12.8914760246
 20
8.0938354677
 30
0.0
 10
12.8916058927
 20
8.0940084334
 30
0.0
 10
12.8918656177
 20
8.0943545645
 30
0.0
 10
12.8922552721
 20
8.094872563
 30
0.0
 10
12.8925797887
 20
8.0953077228
 30
0.0
 10
12.8928073314
 20
8.0956055205
 30
0.0
 10
12.8929367612
 20
8.0957863237
 30
0.0
 10
12.8930355085
 20
8.0958919739
 30
0.0
 10
12.8931278531
 20
8.0961121165
 30
0.0
 10
12.8932532139
 20
8.0963656937
 30
0.0
 10
12.8934715418
 20
8.0968281662
 30
0.0
 10
12.8937840881
 20
8.0974782476
 30
0.0
 10
12.8940960436
 20
8.098135061
 30
0.0
 10
12.8943151987
 20
8.0985881086
 30
0.0
 10
12.8944392597
 20
8.0988564963
 30
0.0
 10
12.8945355921
 20
8.0990311975
 30
0.0
 10
12.8946193631
 20
8.0993075055
 30
0.0
 10
12.8947354408
 20
8.0996404651
 30
0.0
 10
12.8949365189
 20
8.1002397556
 30
0.0
 10
12.8952249765
 20
8.1010864447
 30
0.0
 10
12.8955125413
 20
8.1019392544
 30
0.0
 10
12.8957148694
 20
8.1025299759
 30
0.0
 10
12.8958289828
 20
8.1028764011
 30
0.0
 10
12.8959187808
 20
8.1031113943
 30
0.0
 10
12.8959924786
 20
8.1034412553
 30
0.0
 10
12.8960963513
 20
8.1038479938
 30
0.0
 10
12.8962755848
 20
8.104575048
 30
0.0
 10
12.8965324016
 20
8.1056069179
 30
0.0
 10
12.8967909881
 20
8.1066368335
 30
0.0
 10
12.896992995
 20
8.1074708793
 30
0.0
 10
12.8971580251
 20
8.1080672465
 30
0.0
 10
12.8972713867
 20
8.1087752254
 30
0.0
 10
12.8974406697
 20
8.1096800775
 30
0.0
 10
12.8976454386
 20
8.1108255125
 30
0.0
 10
12.8978548787
 20
8.1119623673
 30
0.0
 10
12.8980166878
 20
8.1128809478
 30
0.0
 10
12.8981524707
 20
8.1135477411
 30
0.0
 10
12.8982334212
 20
8.1142985547
 30
0.0
 10
12.8983606038
 20
8.1152702323
 30
0.0
 10
12.8985122986
 20
8.1164953327
 30
0.0
 10
12.8986690665
 20
8.1177151784
 30
0.0
 10
12.8987881322
 20
8.1186952636
 30
0.0
 10
12.8988934336
 20
8.1194208542
 30
0.0
 10
12.8989379004
 20
8.1201822338
 30
0.0
 10
12.8990181642
 20
8.121184943
 30
0.0
 10
12.8991132703
 20
8.1224423332
 30
0.0
 10
12.899221009
 20
8.1239506792
 30
0.0
 10
12.8993626598
 20
8.1254547084
 30
0.0
 10
12.8993750508
 20
8.126976527
 30
0.0
 10
12.899421274
 20
8.1284924597
 30
0.0
 10
12.8994547358
 20
8.1297605322
 30
0.0
 10
12.8994767272
 20
8.1307664245
 30
0.0
 10
12.8995105893
 20
8.1315436635
 30
0.0
 10
12.899477366
 20
8.1322339064
 30
0.0
 10
12.8994566034
 20
8.1331847907
 30
0.0
 10
12.8994218504
 20
8.1343616827
 30
0.0
 10
12.8993928774
 20
8.1355472276
 30
0.0
 10
12.8993628667
 20
8.1364842672
 30
0.0
 10
12.8993573875
 20
8.1372160441
 30
0.0
 10
12.8992872091
 20
8.1378375303
 30
0.0
 10
12.8992162078
 20
8.1387046266
 30
0.0
 10
12.8991199293
 20
8.1397758637
 30
0.0
 10
12.899025546
 20
8.1408495739
 30
0.0
 10
12.8989607665
 20
8.1416048208
 30
0.0
 10
12.8989209717
 20
8.1420293918
 30
0.0
 10
12.8988990913
 20
8.1423677733
 30
0.0
 10
12.8988467369
 20
8.142629841
 30
0.0
 10
12.8987875637
 20
8.1430058924
 30
0.0
 10
12.8986790273
 20
8.1436514887
 30
0.0
 10
12.8985268161
 20
8.1445810034
 30
0.0
 10
12.8983727337
 20
8.1455053784
 30
0.0
 10
12.8982668169
 20
8.1461581704
 30
0.0
 10
12.8982035272
 20
8.1465229142
 30
0.0
 10
12.8981638028
 20
8.1468196757
 30
0.0
 10
12.8980944899
 20
8.1470277627
 30
0.0
 10
12.8980123957
 20
8.1473361542
 30
0.0
 10
12.8978638995
 20
8.1478613077
 30
0.0
 10
12.8976544617
 20
8.1486200507
 30
0.0
 10
12.8974434282
 20
8.1493723781
 30
0.0
 10
12.897297166
 20
8.1499065133
 30
0.0
 10
12.8972115612
 20
8.1502007906
 30
0.0
 10
12.8971530192
 20
8.1504521826
 30
0.0
 10
12.8970728443
 20
8.1505863098
 30
0.0
 10
12.896973492
 20
8.1508060611
 30
0.0
 10
12.8967960907
 20
8.1511714443
 30
0.0
 10
12.8965446548
 20
8.1517044019
 30
0.0
 10
12.8962919738
 20
8.1522299698
 30
0.0
 10
12.8961163157
 20
8.1526056986
 30
0.0
 10
12.896014224
 20
8.1528091927
 30
0.0
 10
12.8959424541
 20
8.1529931999
 30
0.0
 10
12.8958523466
 20
8.1530572644
 30
0.0
 10
12.8957386009
 20
8.1531845335
 30
0.0
 10
12.8955365525
 20
8.1533876318
 30
0.0
 10
12.8952495789
 20
8.1536890302
 30
0.0
 10
12.8949616393
 20
8.1539827727
 30
0.0
 10
12.8947609431
 20
8.1541965892
 30
0.0
 10
12.8946450725
 20
8.1543070153
 30
0.0
 10
12.8945614848
 20
8.1544227572
 30
0.0
 10
12.8944652293
 20
8.1544126872
 30
0.0
 10
12.8943413082
 20
8.1544431579
 30
0.0
 10
12.8941223777
 20
8.1544759009
 30
0.0
 10
12.8938107778
 20
8.1545344677
 30
0.0
 10
12.8934984861
 20
8.1545850715
 30
0.0
 10
12.893280524
 20
8.1546289627
 30
0.0
 10
12.8931550811
 20
8.1546419149
 30
0.0
 10
12.8930634949
 20
8.1546855948
 30
0.0
 10
12.8929623713
 20
8.154599476
 30
0.0
 10
12.8928308714
 20
8.1545299913
 30
0.0
 10
12.8926653534
 20
8.1544275794
 30
0.0
 10
12.8924672212
 20
8.1543113438
 30
0.0
 10
12.8922028739
 20
8.1541540363
 30
0.0
 10
12.8918724988
 20
8.1539582055
 30
0.0
 10
12.8916081807
 20
8.153801296
 30
0.0
 10
12.8914760239
 20
8.1537228718
 30
0.0
  0
SPLINE
  5
367
100
AcDbEntity
  8
0
100
AcDbSpline
 62
7
  6
CONTINUOUS
 70
0
 71
3
 72
118
 73
114
 74
0
 42
0.0000001
 43
0.0000001
 44
0.0000000001
 40
0.0
 40
0.0
 40
0.0
 40
0.0
 40
0.015625
 40
0.03125
 40
0.046875
 40
0.0546875
 40
0.05859375
 40
0.0625
 40
0.06640625
 40
0.0703125
 40
0.078125
 40
0.09375
 40
0.109375
 40
0.1171875
 40
0.12109375
 40
0.125
 40
0.12890625
 40
0.1328125
 40
0.140625
 40
0.15625
 40
0.171875
 40
0.1796875
 40
0.18359375
 40
0.1875
 40
0.19140625
 40
0.1953125
 40
0.203125
 40
0.21875
 40
0.234375
 40
0.2421875
 40
0.25
 40
0.2578125
 40
0.265625
 40
0.28125
 40
0.296875
 40
0.3046875
 40
0.3125
 40
0.3203125
 40
0.328125
 40
0.34375
 40
0.359375
 40
0.3671875
 40
0.375
 40
0.3828125
 40
0.390625
 40
0.40625
 40
0.421875
 40
0.4375
 40
0.453125
 40
0.46875
 40
0.484375
 40
0.4921875
 40
0.5
 40
0.5078125
 40
0.515625
 40
0.53125
 40
0.546875
 40
0.5546875
 40
0.5625
 40
0.5703125
 40
0.578125
 40
0.59375
 40
0.609375
 40
0.6171875
 40
0.62109375
 40
0.625
 40
0.62890625
 40
0.6328125
 40
0.640625
 40
0.65625
 40
0.671875
 40
0.6796875
 40
0.68359375
 40
0.6875
 40
0.69140625
 40
0.6953125
 40
0.703125
 40
0.71875
 40
0.734375
 40
0.7421875
 40
0.74609375
 40
0.75
 40
0.75390625
 40
0.7578125
 40
0.765625
 40
0.78125
 40
0.796875
 40
0.8046875
 40
0.80859375
 40
0.8125
 40
0.81640625
 40
0.8203125
 40
0.828125
 40
0.84375
 40
0.859375
 40
0.8671875
 40
0.87109375
 40
0.875
 40
0.87890625
 40
0.8828125
 40
0.890625
 40
0.90625
 40
0.921875
 40
0.9296875
 40
0.93359375
 40
0.9375
 40
0.94140625
 40
0.9453125
 40
0.953125
 40
0.9609375
 40
0.96875
 40
0.984375
 40
1.0
 40
1.0
 40
1.0
 40
1.0
 10
12.8914760246
 20
8.1537228725
 30
0.0
 10
12.8913461566
 20
8.1535499068
 30
0.0
 10
12.8910864316
 20
8.1532037758
 30
0.0
 10
12.8906967772
 20
8.1526857773
 30
0.0
 10
12.8903722606
 20
8.1522506174
 30
0.0
 10
12.8901447179
 20
8.1519528197
 30
0.0
 10
12.8900152881
 20
8.1517720165
 30
0.0
 10
12.8899165408
 20
8.1516663664
 30
0.0
 10
12.8898241961
 20
8.1514462237
 30
0.0
 10
12.8896988354
 20
8.1511926465
 30
0.0
 10
12.8894805075
 20
8.150730174
 30
0.0
 10
12.8891679612
 20
8.1500800927
 30
0.0
 10
12.8888560056
 20
8.1494232793
 30
0.0
 10
12.8886368506
 20
8.1489702316
 30
0.0
 10
12.8885127896
 20
8.1487018439
 30
0.0
 10
12.8884164572
 20
8.1485271427
 30
0.0
 10
12.8883326862
 20
8.1482508348
 30
0.0
 10
12.8882166085
 20
8.1479178751
 30
0.0
 10
12.8880155304
 20
8.1473185846
 30
0.0
 10
12.8877270727
 20
8.1464718956
 30
0.0
 10
12.887439508
 20
8.1456190858
 30
0.0
 10
12.8872371799
 20
8.1450283643
 30
0.0
 10
12.8871230664
 20
8.1446819391
 30
0.0
 10
12.8870332685
 20
8.1444469459
 30
0.0
 10
12.8869595707
 20
8.1441170849
 30
0.0
 10
12.886855698
 20
8.1437103464
 30
0.0
 10
12.8866764644
 20
8.1429832922
 30
0.0
 10
12.8864196476
 20
8.1419514224
 30
0.0
 10
12.8861610612
 20
8.1409215067
 30
0.0
 10
12.8859590543
 20
8.140087461
 30
0.0
 10
12.8857940241
 20
8.1394910937
 30
0.0
 10
12.8856806626
 20
8.1387831148
 30
0.0
 10
12.8855113796
 20
8.1378782628
 30
0.0
 10
12.8853066107
 20
8.1367328277
 30
0.0
 10
12.8850971706
 20
8.135595973
 30
0.0
 10
12.8849353614
 20
8.1346773924
 30
0.0
 10
12.8847995786
 20
8.1340105992
 30
0.0
 10
12.8847186281
 20
8.1332597855
 30
0.0
 10
12.8845914455
 20
8.132288108
 30
0.0
 10
12.8844397507
 20
8.1310630075
 30
0.0
 10
12.8842829828
 20
8.1298431619
 30
0.0
 10
12.8841639171
 20
8.1288630766
 30
0.0
 10
12.8840586156
 20
8.128137486
 30
0.0
 10
12.8840141489
 20
8.1273761065
 30
0.0
 10
12.8839338851
 20
8.1263733972
 30
0.0
 10
12.883838779
 20
8.125116007
 30
0.0
 10
12.8837310403
 20
8.123607661
 30
0.0
 10
12.8835893895
 20
8.1221036318
 30
0.0
 10
12.8835769985
 20
8.1205818132
 30
0.0
 10
12.8835307753
 20
8.1190658805
 30
0.0
 10
12.8834973135
 20
8.1177978081
 30
0.0
 10
12.8834753221
 20
8.1167919157
 30
0.0
 10
12.8834414599
 20
8.1160146767
 30
0.0
 10
12.8834746833
 20
8.1153244338
 30
0.0
 10
12.8834954459
 20
8.1143735495
 30
0.0
 10
12.8835301989
 20
8.1131966576
 30
0.0
 10
12.8835591719
 20
8.1120111126
 30
0.0
 10
12.8835891826
 20
8.111074073
 30
0.0
 10
12.8835946617
 20
8.1103422961
 30
0.0
 10
12.8836648402
 20
8.1097208099
 30
0.0
 10
12.8837358415
 20
8.1088537136
 30
0.0
 10
12.88383212
 20
8.1077824765
 30
0.0
 10
12.8839265033
 20
8.1067087663
 30
0.0
 10
12.8839912828
 20
8.1059535194
 30
0.0
 10
12.8840310776
 20
8.1055289485
 30
0.0
 10
12.884052958
 20
8.1051905669
 30
0.0
 10
12.8841053124
 20
8.1049284992
 30
0.0
 10
12.8841644856
 20
8.1045524478
 30
0.0
 10
12.884273022
 20
8.1039068515
 30
0.0
 10
12.8844252332
 20
8.1029773368
 30
0.0
 10
12.8845793155
 20
8.1020529619
 30
0.0
 10
12.8846852324
 20
8.1014001698
 30
0.0
 10
12.884748522
 20
8.101035426
 30
0.0
 10
12.8847882465
 20
8.1007386645
 30
0.0
 10
12.8848575593
 20
8.1005305775
 30
0.0
 10
12.8849396536
 20
8.100222186
 30
0.0
 10
12.8850881497
 20
8.0996970325
 30
0.0
 10
12.8852975876
 20
8.0989382896
 30
0.0
 10
12.8855086211
 20
8.0981859621
 30
0.0
 10
12.8856548833
 20
8.0976518269
 30
0.0
 10
12.885740488
 20
8.0973575496
 30
0.0
 10
12.8857990301
 20
8.0971061576
 30
0.0
 10
12.885879205
 20
8.0969720304
 30
0.0
 10
12.8859785573
 20
8.0967522791
 30
0.0
 10
12.8861559586
 20
8.0963868959
 30
0.0
 10
12.8864073945
 20
8.0958539383
 30
0.0
 10
12.8866600755
 20
8.0953283704
 30
0.0
 10
12.8868357335
 20
8.0949526416
 30
0.0
 10
12.8869378252
 20
8.0947491476
 30
0.0
 10
12.8870095952
 20
8.0945651403
 30
0.0
 10
12.8870997026
 20
8.0945010758
 30
0.0
 10
12.8872134484
 20
8.0943738067
 30
0.0
 10
12.8874154968
 20
8.0941707085
 30
0.0
 10
12.8877024704
 20
8.09386931
 30
0.0
 10
12.88799041
 20
8.0935755675
 30
0.0
 10
12.8881911061
 20
8.093361751
 30
0.0
 10
12.8883069768
 20
8.0932513249
 30
0.0
 10
12.8883905645
 20
8.093135583
 30
0.0
 10
12.88848682
 20
8.093145653
 30
0.0
 10
12.8886107411
 20
8.0931151823
 30
0.0
 10
12.8888296716
 20
8.0930824393
 30
0.0
 10
12.8891412715
 20
8.0930238725
 30
0.0
 10
12.8894535632
 20
8.0929732687
 30
0.0
 10
12.8896715253
 20
8.0929293776
 30
0.0
 10
12.8897969682
 20
8.0929164254
 30
0.0
 10
12.8898885544
 20
8.0928727455
 30
0.0
 10
12.889989678
 20
8.0929588642
 30
0.0
 10
12.8901211779
 20
8.0930283489
 30
0.0
 10
12.8902866958
 20
8.0931307608
 30
0.0
 10
12.8904848281
 20
8.0932469964
 30
0.0
 10
12.8907491754
 20
8.093404304
 30
0.0
 10
12.8910795505
 20
8.0936001347
 30
0.0
 10
12.8913438686
 20
8.0937570443
 30
0.0
 10
12.8914760253
 20
8.0938354684
 30
0.0
  0
SPLINE
  5
368
100
AcDbEntity
  8
0
100
AcDbSpline
 62
4
  6
CONTINUOUS
 70
0
 71
3
 72
313
 73
309
 74
0
 42
0.0000001
 43
0.0000001
 44
0.0000000001
 40
0.0
 40
0.0
 40
0.0
 40
0.0
 40
0.015625
 40
0.0234375
 40
0.03125
 40
0.0390625
 40
0.046875
 40
0.05078125
 40
0.0546875
 40
0.056640625
 40
0.05859375
 40
0.060546875
 40
0.0615234375
 40
0.0620117188
 40
0.0625
 40
0.0629882812
 40
0.0634765625
 40
0.064453125
 40
0.06640625
 40
0.068359375
 40
0.0703125
 40
0.07421875
 40
0.078125
 40
0.0859375
 40
0.09375
 40
0.1015625
 40
0.109375
 40
0.11328125
 40
0.1171875
 40
0.119140625
 40
0.12109375
 40
0.123046875
 40
0.1240234375
 40
0.1245117188
 40
0.125
 40
0.1254882812
 40
0.1259765625
 40
0.126953125
 40
0.12890625
 40
0.130859375
 40
0.1328125
 40
0.13671875
 40
0.140625
 40
0.1484375
 40
0.15625
 40
0.1640625
 40
0.171875
 40
0.17578125
 40
0.1796875
 40
0.181640625
 40
0.18359375
 40
0.185546875
 40
0.1865234375
 40
0.1870117188
 40
0.1875
 40
0.1879882812
 40
0.1884765625
 40
0.189453125
 40
0.19140625
 40
0.193359375
 40
0.1953125
 40
0.19921875
 40
0.203125
 40
0.2109375
 40
0.21875
 40
0.2265625
 40
0.234375
 40
0.23828125
 40
0.2421875
 40
0.244140625
 40
0.24609375
 40
0.248046875
 40
0.2490234375
 40
0.2495117188
 40
0.25
 40
0.2504882812
 40
0.2509765625
 40
0.251953125
 40
0.25390625
 40
0.255859375
 40
0.2578125
 40
0.26171875
 40
0.265625
 40
0.2734375
 40
0.28125
 40
0.2890625
 40
0.296875
 40
0.30078125
 40
0.3046875
 40
0.306640625
 40
0.30859375
 40
0.310546875
 40
0.3115234375
 40
0.3120117188
 40
0.3125
 40
0.3129882812
 40
0.3134765625
 40
0.314453125
 40
0.31640625
 40
0.318359375
 40
0.3203125
 40
0.32421875
 40
0.328125
 40
0.3359375
 40
0.34375
 40
0.3515625
 40
0.359375
 40
0.36328125
 40
0.3671875
 40
0.369140625
 40
0.37109375
 40
0.373046875
 40
0.3740234375
 40
0.3745117188
 40
0.375
 40
0.3754882812
 40
0.3759765625
 40
0.376953125
 40
0.37890625
 40
0.380859375
 40
0.3828125
 40
0.38671875
 40
0.390625
 40
0.3984375
 40
0.40625
 40
0.4140625
 40
0.421875
 40
0.42578125
 40
0.4296875
 40
0.431640625
 40
0.43359375
 40
0.435546875
 40
0.4365234375
 40
0.4370117188
 40
0.4375
 40
0.4379882812
 40
0.4384765625
 40
0.439453125
 40
0.44140625
 40
0.443359375
 40
0.4453125
 40
0.44921875
 40
0.453125
 40
0.4609375
 40
0.46875
 40
0.4765625
 40
0.484375
 40
0.48828125
 40
0.4921875
 40
0.494140625
 40
0.49609375
 40
0.498046875
 40
0.4990234375
 40
0.4995117188
 40
0.5
 40
0.5004882812
 40
0.5009765625
 40
0.501953125
 40
0.50390625
 40
0.505859375
 40
0.5078125
 40
0.51171875
 40
0.515625
 40
0.5234375
 40
0.53125
 40
0.5390625
 40
0.546875
 40
0.55078125
 40
0.5546875
 40
0.556640625
 40
0.55859375
 40
0.560546875
 40
0.5615234375
 40
0.5620117188
 40
0.5625
 40
0.5629882812
 40
0.5634765625
 40
0.564453125
 40
0.56640625
 40
0.568359375
 40
0.5703125
 40
0.57421875
 40
0.578125
 40
0.5859375
 40
0.59375
 40
0.6015625
 40
0.609375
 40
0.61328125
 40
0.6171875
 40
0.619140625
 40
0.62109375
 40
0.623046875
 40
0.6240234375
 40
0.6245117188
 40
0.625
 40
0.6254882812
 40
0.6259765625
 40
0.626953125
 40
0.62890625
 40
0.630859375
 40
0.6328125
 40
0.63671875
 40
0.640625
 40
0.6484375
 40
0.65625
 40
0.6640625
 40
0.671875
 40
0.67578125
 40
0.6796875
 40
0.681640625
 40
0.68359375
 40
0.685546875
 40
0.6865234375
 40
0.6870117188
 40
0.6875
 40
0.6879882812
 40
0.6884765625
 40
0.689453125
 40
0.69140625
 40
0.693359375
 40
0.6953125
 40
0.69921875
 40
0.703125
 40
0.7109375
 40
0.71875
 40
0.7265625
 40
0.734375
 40
0.73828125
 40
0.7421875
 40
0.744140625
 40
0.74609375
 40
0.748046875
 40
0.7490234375
 40
0.7495117188
 40
0.75
 40
0.7504882812
 40
0.7509765625
 40
0.751953125
 40
0.75390625
 40
0.755859375
 40
0.7578125
 40
0.76171875
 40
0.765625
 40
0.7734375
 40
0.78125
 40
0.7890625
 40
0.796875
 40
0.80078125
 40
0.8046875
 40
0.806640625
 40
0.80859375
 40
0.810546875
 40
0.8115234375
 40
0.8120117188
 40
0.8125
 40
0.8129882812
 40
0.8134765625
 40
0.814453125
 40
0.81640625
 40
0.818359375
 40
0.8203125
 40
0.82421875
 40
0.828125
 40
0.8359375
 40
0.84375
 40
0.8515625
 40
0.859375
 40
0.86328125
 40
0.8671875
 40
0.869140625
 40
0.87109375
 40
0.873046875
 40
0.8740234375
 40
0.8745117188
 40
0.875
 40
0.8754882812
 40
0.8759765625
 40
0.876953125
 40
0.87890625
 40
0.880859375
 40
0.8828125
 40
0.88671875
 40
0.890625
 40
0.8984375
 40
0.90625
 40
0.9140625
 40
0.921875
 40
0.92578125
 40
0.9296875
 40
0.931640625
 40
0.93359375
 40
0.935546875
 40
0.9365234375
 40
0.9370117188
 40
0.9375
 40
0.9379882812
 40
0.9384765625
 40
0.939453125
 40
0.94140625
 40
0.943359375
 40
0.9453125
 40
0.94921875
 40
0.953125
 40
0.9609375
 40
0.96875
 40
0.9765625
 40
0.984375
 40
1.0
 40
1.0
 40
1.0
 40
1.0
 10
11.3274077869
 20
7.4776646845
 30
0.0
 10
11.3305409738
 20
7.4777546089
 30
0.0
 10
11.3352407543
 20
7.4778894952
 30
0.0
 10
11.341507128
 20
7.4780693447
 30
0.0
 10
11.3462069087
 20
7.4782042294
 30
0.0
 10
11.3509066877
 20
7.4783391235
 30
0.0
 10
11.3548231758
 20
7.4784515057
 30
0.0
 10
11.3579563535
 20
7.4785414775
 30
0.0
 10
11.3599146189
 20
7.4785975597
 30
0.0
 10
11.361481164
 20
7.4786427694
 30
0.0
 10
11.3626562568
 20
7.4786757349
 30
0.0
 10
11.3636349156
 20
7.4787062021
 30
0.0
 10
11.3643211251
 20
7.4787216497
 30
0.0
 10
11.3647114518
 20
7.4787396571
 30
0.0
 10
11.3650092479
 20
7.4787273021
 30
0.0
 10
11.365287736
 20
7.478813799
 30
0.0
 10
11.3656657883
 20
7.4788946475
 30
0.0
 10
11.366324242
 20
7.4790521976
 30
0.0
 10
11.3672665306
 20
7.4792688702
 30
0.0
 10
11.3683965747
 20
7.4795324722
 30
0.0
 10
11.3699035454
 20
7.479882686
 30
0.0
 10
11.3717871749
 20
7.4803208832
 30
0.0
 10
11.3748010289
 20
7.4810217583
 30
0.0
 10
11.3785683302
 20
7.4818979352
 30
0.0
 10
11.3830890997
 20
7.4829493096
 30
0.0
 10
11.3876098636
 20
7.4840007026
 30
0.0
 10
11.3913771786
 20
7.4848768331
 30
0.0
 10
11.3943910052
 20
7.485577801
 30
0.0
 10
11.3962747044
 20
7.4860157623
 30
0.0
 10
11.397781532
 20
7.4863664602
 30
0.0
 10
11.3989120136
 20
7.4866285831
 30
0.0
 10
11.3998529335
 20
7.4868498838
 30
0.0
 10
11.4005138304
 20
7.4869991718
 30
0.0
 10
11.400887968
 20
7.4870932582
 30
0.0
 10
11.401178481
 20
7.4871390926
 30
0.0
 10
11.4014311134
 20
7.4872794594
 30
0.0
 10
11.4017811697
 20
7.4874336411
 30
0.0
 10
11.4023876121
 20
7.4877188223
 30
0.0
 10
11.4032571769
 20
7.488118192
 30
0.0
 10
11.404299277
 20
7.4886008737
 30
0.0
 10
11.4056892249
 20
7.4892432484
 30
0.0
 10
11.4074264952
 20
7.4900466279
 30
0.0
 10
11.4102062196
 20
7.4913318053
 30
0.0
 10
11.4136808433
 20
7.4929383564
 30
0.0
 10
11.4178504066
 20
7.4948661815
 30
0.0
 10
11.4220199615
 20
7.4967940246
 30
0.0
 10
11.425494606
 20
7.4984005308
 30
0.0
 10
11.428274289
 20
7.499685798
 30
0.0
 10
11.4300116646
 20
7.5004889493
 30
0.0
 10
11.4314013962
 20
7.5011317925
 30
0.0
 10
11.4324441575
 20
7.5016130427
 30
0.0
 10
11.4333116536
 20
7.5020168909
 30
0.0
 10
11.4339217889
 20
7.5022940774
 30
0.0
 10
11.4342659282
 20
7.5024610687
 30
0.0
 10
11.4345367358
 20
7.5025620885
 30
0.0
 10
11.4347589858
 20
7.5027557036
 30
0.0
 10
11.4350722565
 20
7.5029815587
 30
0.0
 10
11.4356125889
 20
7.5033918536
 30
0.0
 10
11.4363886181
 20
7.5039701217
 30
0.0
 10
11.4373180871
 20
7.5046674109
 30
0.0
 10
11.438557996
 20
7.5055959537
 30
0.0
 10
11.4401076708
 20
7.5067570349
 30
0.0
 10
11.4425872687
 20
7.5086145396
 30
0.0
 10
11.4456867251
 20
7.5109364982
 30
0.0
 10
11.4494060922
 20
7.5137228135
 30
0.0
 10
11.4531254471
 20
7.5165091445
 30
0.0
 10
11.4562249338
 20
7.5188310639
 30
0.0
 10
11.458704471
 20
7.520688647
 30
0.0
 10
11.4602543001
 20
7.521849529
 30
0.0
 10
11.4614938924
 20
7.5227784805
 30
0.0
 10
11.4624243285
 20
7.5234745211
 30
0.0
 10
11.4631973319
 20
7.5240566957
 30
0.0
 10
11.4637430657
 20
7.5244600168
 30
0.0
 10
11.4640476821
 20
7.5246970458
 30
0.0
 10
11.4642965157
 20
7.5248563384
 30
0.0
 10
11.4644674797
 20
7.5250862675
 30
0.0
 10
11.4647225934
 20
7.5253682007
 30
0.0
 10
11.4651563873
 20
7.5258730637
 30
0.0
 10
11.4657827091
 20
7.5265882947
 30
0.0
 10
11.4665314633
 20
7.5274491409
 30
0.0
 10
11.4675307914
 20
7.5285960385
 30
0.0
 10
11.4687796129
 20
7.5300299677
 30
0.0
 10
11.4707779165
 20
7.5323240827
 30
0.0
 10
11.4732757306
 20
7.5351917858
 30
0.0
 10
11.4762731376
 20
7.5386330026
 30
0.0
 10
11.4792705292
 20
7.5420742321
 30
0.0
 10
11.4817683818
 20
7.5449419035
 30
0.0
 10
11.4837666084
 20
7.5472360818
 30
0.0
 10
11.4850156256
 20
7.5486698504
 30
0.0
 10
11.4860145519
 20
7.5498170777
 30
0.0
 10
11.4867645336
 20
7.5506769167
 30
0.0
 10
11.4873870149
 20
7.5513952988
 30
0.0
 10
11.4878276648
 20
7.5518945366
 30
0.0
 10
11.4880717935
 20
7.5521854828
 30
0.0
 10
11.4882765001
 20
7.552387727
 30
0.0
 10
11.4883986019
 20
7.5526509991
 30
0.0
 10
11.4885902177
 20
7.5529807413
 30
0.0
 10
11.4889121208
 20
7.5535677083
 30
0.0
 10
11.4893790008
 20
7.5544010473
 30
0.0
 10
11.4899362527
 20
7.5554032736
 30
0.0
 10
11.4906803046
 20
7.5567388
 30
0.0
 10
11.4916100101
 20
7.5584084735
 30
0.0
 10
11.4930977397
 20
7.5610798028
 30
0.0
 10
11.4949573324
 20
7.5644190155
 30
0.0
 10
11.4971888756
 20
7.5684260477
 30
0.0
 10
11.499420402
 20
7.5724330901
 30
0.0
 10
11.5012800365
 20
7.5757722775
 30
0.0
 10
11.5027676825
 20
7.5784436574
 30
0.0
 10
11.5036976007
 20
7.5801132021
 30
0.0
 10
11.5044412159
 20
7.5814489929
 30
0.0
 10
11.5049998017
 20
7.5824504115
 30
0.0
 10
11.5054625084
 20
7.5832862776
 30
0.0
 10
11.5057918615
 20
7.5838687333
 30
0.0
 10
11.5059715406
 20
7.5842057038
 30
0.0
 10
11.5061303083
 20
7.5844467729
 30
0.0
 10
11.5061973035
 20
7.5847324077
 30
0.0
 10
11.5063186417
 20
7.5850977091
 30
0.0
 10
11.5065160689
 20
7.5857442293
 30
0.0
 10
11.5068059053
 20
7.586664043
 30
0.0
 10
11.5071503713
 20
7.5877694403
 30
0.0
 10
11.5076108252
 20
7.5892427371
 30
0.0
 10
11.5081859933
 20
7.591084552
 30
0.0
 10
11.5091064855
 20
7.5940313475
 30
0.0
 10
11.5102570236
 20
7.5977148793
 30
0.0
 10
11.5116377047
 20
7.6021351005
 30
0.0
 10
11.5130183677
 20
7.6065553295
 30
0.0
 10
11.5141689512
 20
7.610238842
 30
0.0
 10
11.5150893526
 20
7.6131856759
 30
0.0
 10
11.5156647515
 20
7.6150273932
 30
0.0
 10
11.5161247316
 20
7.6165008905
 30
0.0
 10
11.5164706449
 20
7.6176056752
 30
0.0
 10
11.5167559533
 20
7.6185274054
 30
0.0
 10
11.5169614638
 20
7.6191705043
 30
0.0
 10
11.5170698504
 20
7.6195412876
 30
0.0
 10
11.5171766286
 20
7.619810084
 30
0.0
 10
11.5171859779
 20
7.6201143953
 30
0.0
 10
11.5172324279
 20
7.6205077558
 30
0.0
 10
11.5172978815
 20
7.6212019084
 30
0.0
 10
11.5173996647
 20
7.6221905374
 30
0.0
 10
11.5175182613
 20
7.6233781838
 30
0.0
 10
11.5176776277
 20
7.6249612612
 30
0.0
 10
11.517876412
 20
7.6269402624
 30
0.0
 10
11.5181947037
 20
7.6301065781
 30
0.0
 10
11.5185924864
 20
7.6340645022
 30
0.0
 10
11.5190698632
 20
7.6388139986
 30
0.0
 10
11.519547221
 20
7.6435634982
 30
0.0
 10
11.5199450514
 20
7.6475214143
 30
0.0
 10
11.5202632478
 20
7.650687746
 30
0.0
 10
11.5204622743
 20
7.6526667063
 30
0.0
 10
11.5206211434
 20
7.6542498678
 30
0.0
 10
11.5207412593
 20
7.6554372572
 30
0.0
 10
11.5208382891
 20
7.6564266903
 30
0.0
 10
11.5209122284
 20
7.6571194075
 30
0.0
 10
11.5209450821
 20
7.6575150679
 30
0.0
 10
11.5209961948
 20
7.6578123144
 30
0.0
 10
11.5209461165
 20
7.6581076452
 30
0.0
 10
11.5209146419
 20
7.6585020879
 30
0.0
 10
11.5208431161
 20
7.6591920512
 30
0.0
 10
11.5207495343
 20
7.6601778758
 30
0.0
 10
11.5206335559
 20
7.6613607957
 30
0.0
 10
11.5204802034
 20
7.6629380466
 30
0.0
 10
11.5202880726
 20
7.6649096018
 30
0.0
 10
11.5199809095
 20
7.6680640948
 30
0.0
 10
11.5195968707
 20
7.6720072095
 30
0.0
 10
11.5191360628
 20
7.6767389481
 30
0.0
 10
11.5186752359
 20
7.6814706853
 30
0.0
 10
11.5182912448
 20
7.6854138034
 30
0.0
 10
11.5179839863
 20
7.6885682895
 30
0.0
 10
11.517792098
 20
7.6905398623
 30
0.0
 10
11.517638248
 20
7.692117077
 30
0.0
 10
11.5175237895
 20
7.6933001075
 30
0.0
 10
11.5174254521
 20
7.694285586
 30
0.0
 10
11.5173624157
 20
7.6949761672
 30
0.0
 10
11.5173173391
 20
7.6953696199
 30
0.0
 10
11.5173090418
 20
7.6956679915
 30
0.0
 10
11.5172032317
 20
7.6959538175
 30
0.0
 10
11.5170961652
 20
7.6963392949
 30
0.0
 10
11.5168929512
 20
7.6970118415
 30
0.0
 10
11.5166109307
 20
7.6979736883
 30
0.0
 10
11.5162689598
 20
7.6991274481
 30
0.0
 10
11.5158142372
 20
7.700665954
 30
0.0
 10
11.5152454099
 20
7.7025890317
 30
0.0
 10
11.5143355233
 20
7.7056659867
 30
0.0
 10
11.5131980832
 20
7.7095121697
 30
0.0
 10
11.5118331924
 20
7.7141275946
 30
0.0
 10
11.5104682833
 20
7.7187430153
 30
0.0
 10
11.5093308887
 20
7.7225892089
 30
0.0
 10
11.5084209112
 20
7.7256661427
 30
0.0
 10
11.5078523149
 20
7.7275892742
 30
0.0
 10
11.5073971181
 20
7.7291276698
 30
0.0
 10
11.5070565961
 20
7.7302817666
 30
0.0
 10
11.5067700424
 20
7.7312425591
 30
0.0
 10
11.506574921
 20
7.7319169878
 30
0.0
 10
11.506454888
 20
7.7322994496
 30
0.0
 10
11.5063889065
 20
7.7325945385
 30
0.0
 10
11.5062310196
 20
7.7328581203
 30
0.0
 10
11.5060525614
 20
7.7332205528
 30
0.0
 10
11.5057253232
 20
7.7338496892
 30
0.0
 10
11.505265649
 20
7.7347511325
 30
0.0
 10
11.5047106975
 20
7.7358317186
 30
0.0
 10
11.5039719296
 20
7.7372729003
 30
0.0
 10
11.5030480699
 20
7.7390742404
 30
0.0
 10
11.501570118
 20
7.7419564612
 30
0.0
 10
11.4997226009
 20
7.7455592107
 30
0.0
 10
11.4975056156
 20
7.7498825224
 30
0.0
 10
11.4952886129
 20
7.754205827
 30
0.0
 10
11.4934411393
 20
7.7578085942
 30
0.0
 10
11.4919631004
 20
7.7606907795
 30
0.0
 10
11.4910394617
 20
7.7624922097
 30
0.0
 10
11.4903002403
 20
7.7639332064
 30
0.0
 10
11.4897466743
 20
7.7650143577
 30
0.0
 10
11.4892826651
 20
7.7659140329
 30
0.0
 10
11.4889631656
 20
7.7665463256
 30
0.0
 10
11.4887723081
 20
7.7669037009
 30
0.0
 10
11.4886525077
 20
7.7671828167
 30
0.0
 10
11.4884434796
 20
7.7674195628
 30
0.0
 10
11.488195899
 20
7.7677500034
 30
0.0
 10
11.487748132
 20
7.7683213885
 30
0.0
 10
11.4871160461
 20
7.769141253
 30
0.0
 10
11.486354298
 20
7.7701235494
 30
0.0
 10
11.4853397673
 20
7.7714338162
 30
0.0
 10
11.4840712158
 20
7.7730714654
 30
0.0
 10
11.4820417503
 20
7.7756918072
 30
0.0
 10
11.4795048437
 20
7.7789671986
 30
0.0
 10
11.4764605894
 20
7.7828976855
 30
0.0
 10
11.4734163203
 20
7.7868281612
 30
0.0
 10
11.4708794507
 20
7.7901035804
 30
0.0
 10
11.4688499112
 20
7.7927238667
 30
0.0
 10
11.4675815481
 20
7.794361657
 30
0.0
 10
11.4665666306
 20
7.7956716341
 30
0.0
 10
11.465806064
 20
7.7966548157
 30
0.0
 10
11.4651702814
 20
7.7974719108
 30
0.0
 10
11.4647291136
 20
7.7980482397
 30
0.0
 10
11.4644709594
 20
7.7983707591
 30
0.0
 10
11.4642944101
 20
7.7986318364
 30
0.0
 10
11.4640526247
 20
7.7988195683
 30
0.0
 10
11.4637529992
 20
7.7990954611
 30
0.0
 10
11.4632180526
 20
7.7995663537
 30
0.0
 10
11.462459386
 20
7.8002452892
 30
0.0
 10
11.4615466135
 20
7.8010573444
 30
0.0
 10
11.4603304123
 20
7.8021410163
 30
0.0
 10
11.458809877
 20
7.8034952872
 30
0.0
 10
11.4563771791
 20
7.8056622991
 30
0.0
 10
11.453336252
 20
7.8083710022
 30
0.0
 10
11.4496871644
 20
7.8116214742
 30
0.0
 10
11.4460380651
 20
7.8148719317
 30
0.0
 10
11.442997167
 20
7.8175806713
 30
0.0
 10
11.4405644112
 20
7.8197476101
 30
0.0
 10
11.439044023
 20
7.8211020666
 30
0.0
 10
11.4378275199
 20
7.8221853577
 30
0.0
 10
11.4369156695
 20
7.8229985764
 30
0.0
 10
11.4361541182
 20
7.8236738715
 30
0.0
 10
11.4356243212
 20
7.8241512629
 30
0.0
 10
11.4353164447
 20
7.8244167429
 30
0.0
 10
11.4351000039
 20
7.8246364598
 30
0.0
 10
11.4348282641
 20
7.8247774068
 30
0.0
 10
11.4344852333
 20
7.8249928119
 30
0.0
 10
11.4338759422
 20
7.8253569694
 30
0.0
 10
11.433010225
 20
7.8258838872
 30
0.0
 10
11.4319693532
 20
7.8265133238
 30
0.0
 10
11.4305822265
 20
7.8273535732
 30
0.0
 10
11.4288480777
 20
7.8284035423
 30
0.0
 10
11.4260735741
 20
7.8300836844
 30
0.0
 10
11.4226053982
 20
7.8321837959
 30
0.0
 10
11.4184436079
 20
7.8347039602
 30
0.0
 10
11.4142818086
 20
7.8372241084
 30
0.0
 10
11.4108136552
 20
7.8393242601
 30
0.0
 10
11.4080391067
 20
7.8410043217
 30
0.0
 10
11.4063050719
 20
7.8420544957
 30
0.0
 10
11.4049177112
 20
7.8428943247
 30
0.0
 10
11.4038775546
 20
7.8435250455
 30
0.0
 10
11.4030095996
 20
7.8440479452
 30
0.0
 10
11.4024043033
 20
7.8444192757
 30
0.0
 10
11.402054872
 20
7.8446231879
 30
0.0
 10
11.4018027923
 20
7.8447994375
 30
0.0
 10
11.4015125113
 20
7.8448865637
 30
0.0
 10
11.4011387951
 20
7.8450338192
 30
0.0
 10
11.4004785832
 20
7.8452770322
 30
0.0
 10
11.3995386693
 20
7.8456320519
 30
0.0
 10
11.3984093833
 20
7.8460548342
 30
0.0
 10
11.3969041538
 20
7.846619676
 30
0.0
 10
11.3950224509
 20
7.8473253407
 30
0.0
 10
11.392011819
 20
7.8484546209
 30
0.0
 10
11.3882484972
 20
7.8498661463
 30
0.0
 10
11.3837325254
 20
7.8515600111
 30
0.0
 10
11.3792165472
 20
7.8532538582
 30
0.0
 10
11.3754532414
 20
7.8546654279
 30
0.0
 10
11.3724425774
 20
7.8557946195
 30
0.0
 10
11.3705609561
 20
7.8565005093
 30
0.0
 10
11.369055559
 20
7.8570648891
 30
0.0
 10
11.3679267852
 20
7.8574890831
 30
0.0
 10
11.3669852687
 20
7.8578396859
 30
0.0
 10
11.3663279177
 20
7.8580907838
 30
0.0
 10
11.3659496178
 20
7.8582254057
 30
0.0
 10
11.3656734163
 20
7.8583513385
 30
0.0
 10
11.3653684564
 20
7.8583818368
 30
0.0
 10
11.3649718745
 20
7.8584557899
 30
0.0
 10
11.3642731823
 20
7.8585696979
 30
0.0
 10
11.3632774942
 20
7.8587405324
 30
0.0
 10
11.3620816226
 20
7.8589420629
 30
0.0
 10
11.3604874924
 20
7.8592119826
 30
0.0
 10
11.3584947045
 20
7.8595489672
 30
0.0
 10
11.3553063139
 20
7.8600883745
 30
0.0
 10
11.3513208015
 20
7.8607625539
 30
0.0
 10
11.3465381971
 20
7.8615716035
 30
0.0
 10
11.3417555898
 20
7.8623806438
 30
0.0
 10
11.3353787812
 20
7.8634593675
 30
0.0
 10
11.3305961744
 20
7.8642684096
 30
0.0
 10
11.32740777
 20
7.8648077711
 30
0.0
  0
SPLINE
  5
369
100
AcDbEntity
  8
0
100
AcDbSpline
 62
4
  6
CONTINUOUS
 70
0
 71
3
 72
313
 73
309
 74
0
 42
0.0000001
 43
0.0000001
 44
0.0000000001
 40
0.0
 40
0.0
 40
0.0
 40
0.0
 40
0.015625
 40
0.0234375
 40
0.03125
 40
0.0390625
 40
0.046875
 40
0.05078125
 40
0.0546875
 40
0.056640625
 40
0.05859375
 40
0.060546875
 40
0.0615234375
 40
0.0620117188
 40
0.0625
 40
0.0629882812
 40
0.0634765625
 40
0.064453125
 40
0.06640625
 40
0.068359375
 40
0.0703125
 40
0.07421875
 40
0.078125
 40
0.0859375
 40
0.09375
 40
0.1015625
 40
0.109375
 40
0.11328125
 40
0.1171875
 40
0.119140625
 40
0.12109375
 40
0.123046875
 40
0.1240234375
 40
0.1245117188
 40
0.125
 40
0.1254882812
 40
0.1259765625
 40
0.126953125
 40
0.12890625
 40
0.130859375
 40
0.1328125
 40
0.13671875
 40
0.140625
 40
0.1484375
 40
0.15625
 40
0.1640625
 40
0.171875
 40
0.17578125
 40
0.1796875
 40
0.181640625
 40
0.18359375
 40
0.185546875
 40
0.1865234375
 40
0.1870117188
 40
0.1875
 40
0.1879882812
 40
0.1884765625
 40
0.189453125
 40
0.19140625
 40
0.193359375
 40
0.1953125
 40
0.19921875
 40
0.203125
 40
0.2109375
 40
0.21875
 40
0.2265625
 40
0.234375
 40
0.23828125
 40
0.2421875
 40
0.244140625
 40
0.24609375
 40
0.248046875
 40
0.2490234375
 40
0.2495117188
 40
0.25
 40
0.2504882812
 40
0.2509765625
 40
0.251953125
 40
0.25390625
 40
0.255859375
 40
0.2578125
 40
0.26171875
 40
0.265625
 40
0.2734375
 40
0.28125
 40
0.2890625
 40
0.296875
 40
0.30078125
 40
0.3046875
 40
0.306640625
 40
0.30859375
 40
0.310546875
 40
0.3115234375
 40
0.3120117188
 40
0.3125
 40
0.3129882812
 40
0.3134765625
 40
0.314453125
 40
0.31640625
 40
0.318359375
 40
0.3203125
 40
0.32421875
 40
0.328125
 40
0.3359375
 40
0.34375
 40
0.3515625
 40
0.359375
 40
0.36328125
 40
0.3671875
 40
0.369140625
 40
0.37109375
 40
0.373046875
 40
0.3740234375
 40
0.3745117188
 40
0.375
 40
0.3754882812
 40
0.3759765625
 40
0.376953125
 40
0.37890625
 40
0.380859375
 40
0.3828125
 40
0.38671875
 40
0.390625
 40
0.3984375
 40
0.40625
 40
0.4140625
 40
0.421875
 40
0.42578125
 40
0.4296875
 40
0.431640625
 40
0.43359375
 40
0.435546875
 40
0.4365234375
 40
0.4370117188
 40
0.4375
 40
0.4379882812
 40
0.4384765625
 40
0.439453125
 40
0.44140625
 40
0.443359375
 40
0.4453125
 40
0.44921875
 40
0.453125
 40
0.4609375
 40
0.46875
 40
0.4765625
 40
0.484375
 40
0.48828125
 40
0.4921875
 40
0.494140625
 40
0.49609375
 40
0.498046875
 40
0.4990234375
 40
0.4995117188
 40
0.5
 40
0.5004882812
 40
0.5009765625
 40
0.501953125
 40
0.50390625
 40
0.505859375
 40
0.5078125
 40
0.51171875
 40
0.515625
 40
0.5234375
 40
0.53125
 40
0.5390625
 40
0.546875
 40
0.55078125
 40
0.5546875
 40
0.556640625
 40
0.55859375
 40
0.560546875
 40
0.5615234375
 40
0.5620117188
 40
0.5625
 40
0.5629882812
 40
0.5634765625
 40
0.564453125
 40
0.56640625
 40
0.568359375
 40
0.5703125
 40
0.57421875
 40
0.578125
 40
0.5859375
 40
0.59375
 40
0.6015625
 40
0.609375
 40
0.61328125
 40
0.6171875
 40
0.619140625
 40
0.62109375
 40
0.623046875
 40
0.6240234375
 40
0.6245117188
 40
0.625
 40
0.6254882812
 40
0.6259765625
 40
0.626953125
 40
0.62890625
 40
0.630859375
 40
0.6328125
 40
0.63671875
 40
0.640625
 40
0.6484375
 40
0.65625
 40
0.6640625
 40
0.671875
 40
0.67578125
 40
0.6796875
 40
0.681640625
 40
0.68359375
 40
0.685546875
 40
0.6865234375
 40
0.6870117188
 40
0.6875
 40
0.6879882812
 40
0.6884765625
 40
0.689453125
 40
0.69140625
 40
0.693359375
 40
0.6953125
 40
0.69921875
 40
0.703125
 40
0.7109375
 40
0.71875
 40
0.7265625
 40
0.734375
 40
0.73828125
 40
0.7421875
 40
0.744140625
 40
0.74609375
 40
0.748046875
 40
0.7490234375
 40
0.7495117188
 40
0.75
 40
0.7504882812
 40
0.7509765625
 40
0.751953125
 40
0.75390625
 40
0.755859375
 40
0.7578125
 40
0.76171875
 40
0.765625
 40
0.7734375
 40
0.78125
 40
0.7890625
 40
0.796875
 40
0.80078125
 40
0.8046875
 40
0.806640625
 40
0.80859375
 40
0.810546875
 40
0.8115234375
 40
0.8120117188
 40
0.8125
 40
0.8129882812
 40
0.8134765625
 40
0.814453125
 40
0.81640625
 40
0.818359375
 40
0.8203125
 40
0.82421875
 40
0.828125
 40
0.8359375
 40
0.84375
 40
0.8515625
 40
0.859375
 40
0.86328125
 40
0.8671875
 40
0.869140625
 40
0.87109375
 40
0.873046875
 40
0.8740234375
 40
0.8745117188
 40
0.875
 40
0.8754882812
 40
0.8759765625
 40
0.876953125
 40
0.87890625
 40
0.880859375
 40
0.8828125
 40
0.88671875
 40
0.890625
 40
0.8984375
 40
0.90625
 40
0.9140625
 40
0.921875
 40
0.92578125
 40
0.9296875
 40
0.931640625
 40
0.93359375
 40
0.935546875
 40
0.9365234375
 40
0.9370117188
 40
0.9375
 40
0.9379882812
 40
0.9384765625
 40
0.939453125
 40
0.94140625
 40
0.943359375
 40
0.9453125
 40
0.94921875
 40
0.953125
 40
0.9609375
 40
0.96875
 40
0.9765625
 40
0.984375
 40
1.0
 40
1.0
 40
1.0
 40
1.0
 10
11.3274077869
 20
7.8648077699
 30
0.0
 10
11.3242746
 20
7.8647178455
 30
0.0
 10
11.3195748196
 20
7.8645829591
 30
0.0
 10
11.3133084459
 20
7.8644031097
 30
0.0
 10
11.3086086651
 20
7.864268225
 30
0.0
 10
11.3039088862
 20
7.8641333309
 30
0.0
 10
11.299992398
 20
7.8640209487
 30
0.0
 10
11.2968592203
 20
7.8639309769
 30
0.0
 10
11.294900955
 20
7.8638748947
 30
0.0
 10
11.2933344098
 20
7.863829685
 30
0.0
 10
11.2921593171
 20
7.8637967195
 30
0.0
 10
11.2911806582
 20
7.8637662523
 30
0.0
 10
11.2904944487
 20
7.8637508046
 30
0.0
 10
11.290104122
 20
7.8637327973
 30
0.0
 10
11.2898063259
 20
7.8637451523
 30
0.0
 10
11.2895278378
 20
7.8636586554
 30
0.0
 10
11.2891497855
 20
7.8635778069
 30
0.0
 10
11.2884913319
 20
7.8634202568
 30
0.0
 10
11.2875490433
 20
7.8632035842
 30
0.0
 10
11.2864189992
 20
7.8629399822
 30
0.0
 10
11.2849120284
 20
7.8625897684
 30
0.0
 10
11.283028399
 20
7.8621515712
 30
0.0
 10
11.2800145449
 20
7.8614506961
 30
0.0
 10
11.2762472436
 20
7.8605745192
 30
0.0
 10
11.2717264742
 20
7.8595231448
 30
0.0
 10
11.2672057102
 20
7.8584717518
 30
0.0
 10
11.2634383952
 20
7.8575956213
 30
0.0
 10
11.2604245686
 20
7.8568946534
 30
0.0
 10
11.2585408694
 20
7.8564566921
 30
0.0
 10
11.2570340418
 20
7.8561059942
 30
0.0
 10
11.2559035603
 20
7.8558438713
 30
0.0
 10
11.2549626403
 20
7.8556225706
 30
0.0
 10
11.2543017434
 20
7.8554732826
 30
0.0
 10
11.2539276059
 20
7.8553791962
 30
0.0
 10
11.2536370928
 20
7.8553333618
 30
0.0
 10
11.2533844605
 20
7.855192995
 30
0.0
 10
11.2530344041
 20
7.8550388133
 30
0.0
 10
11.2524279618
 20
7.8547536321
 30
0.0
 10
11.251558397
 20
7.8543542623
 30
0.0
 10
11.2505162969
 20
7.8538715807
 30
0.0
 10
11.2491263489
 20
7.853229206
 30
0.0
 10
11.2473890787
 20
7.8524258265
 30
0.0
 10
11.2446093542
 20
7.8511406491
 30
0.0
 10
11.2411347305
 20
7.849534098
 30
0.0
 10
11.2369651673
 20
7.8476062729
 30
0.0
 10
11.2327956123
 20
7.8456784298
 30
0.0
 10
11.2293209678
 20
7.8440719236
 30
0.0
 10
11.2265412849
 20
7.8427866564
 30
0.0
 10
11.2248039092
 20
7.8419835051
 30
0.0
 10
11.2234141777
 20
7.8413406619
 30
0.0
 10
11.2223714164
 20
7.8408594116
 30
0.0
 10
11.2215039203
 20
7.8404555635
 30
0.0
 10
11.220893785
 20
7.840178377
 30
0.0
 10
11.2205496456
 20
7.8400113857
 30
0.0
 10
11.2202788381
 20
7.8399103659
 30
0.0
 10
11.2200565881
 20
7.8397167508
 30
0.0
 10
11.2197433173
 20
7.8394908957
 30
0.0
 10
11.2192029849
 20
7.8390806008
 30
0.0
 10
11.2184269558
 20
7.8385023327
 30
0.0
 10
11.2174974867
 20
7.8378050435
 30
0.0
 10
11.2162575779
 20
7.8368765007
 30
0.0
 10
11.214707903
 20
7.8357154195
 30
0.0
 10
11.2122283051
 20
7.8338579148
 30
0.0
 10
11.2091288488
 20
7.8315359562
 30
0.0
 10
11.2054094817
 20
7.8287496409
 30
0.0
 10
11.2016901267
 20
7.8259633099
 30
0.0
 10
11.19859064
 20
7.8236413905
 30
0.0
 10
11.1961111028
 20
7.8217838074
 30
0.0
 10
11.1945612737
 20
7.8206229253
 30
0.0
 10
11.1933216814
 20
7.8196939739
 30
0.0
 10
11.1923912453
 20
7.8189979333
 30
0.0
 10
11.1916182419
 20
7.8184157587
 30
0.0
 10
11.1910725081
 20
7.8180124376
 30
0.0
 10
11.1907678917
 20
7.8177754086
 30
0.0
 10
11.1905190581
 20
7.817616116
 30
0.0
 10
11.1903480942
 20
7.8173861869
 30
0.0
 10
11.1900929804
 20
7.8171042536
 30
0.0
 10
11.1896591865
 20
7.8165993907
 30
0.0
 10
11.1890328647
 20
7.8158841597
 30
0.0
 10
11.1882841105
 20
7.8150233135
 30
0.0
 10
11.1872847824
 20
7.8138764159
 30
0.0
 10
11.186035961
 20
7.8124424867
 30
0.0
 10
11.1840376573
 20
7.8101483716
 30
0.0
 10
11.1815398432
 20
7.8072806686
 30
0.0
 10
11.1785424362
 20
7.8038394518
 30
0.0
 10
11.1755450447
 20
7.8003982223
 30
0.0
 10
11.173047192
 20
7.7975305508
 30
0.0
 10
11.1710489654
 20
7.7952363726
 30
0.0
 10
11.1697999482
 20
7.793802604
 30
0.0
 10
11.1688010219
 20
7.7926553767
 30
0.0
 10
11.1680510402
 20
7.7917955377
 30
0.0
 10
11.1674285589
 20
7.7910771556
 30
0.0
 10
11.166987909
 20
7.7905779178
 30
0.0
 10
11.1667437804
 20
7.7902869716
 30
0.0
 10
11.1665390737
 20
7.7900847274
 30
0.0
 10
11.166416972
 20
7.7898214553
 30
0.0
 10
11.1662253561
 20
7.7894917131
 30
0.0
 10
11.1659034531
 20
7.7889047461
 30
0.0
 10
11.165436573
 20
7.7880714071
 30
0.0
 10
11.1648793211
 20
7.7870691808
 30
0.0
 10
11.1641352693
 20
7.7857336544
 30
0.0
 10
11.1632055638
 20
7.7840639809
 30
0.0
 10
11.1617178341
 20
7.7813926516
 30
0.0
 10
11.1598582414
 20
7.7780534389
 30
0.0
 10
11.1576266983
 20
7.7740464067
 30
0.0
 10
11.1553951719
 20
7.7700393643
 30
0.0
 10
11.1535355374
 20
7.7667001769
 30
0.0
 10
11.1520478914
 20
7.764028797
 30
0.0
 10
11.1511179732
 20
7.7623592523
 30
0.0
 10
11.1503743579
 20
7.7610234615
 30
0.0
 10
11.1498157722
 20
7.7600220429
 30
0.0
 10
11.1493530654
 20
7.7591861768
 30
0.0
 10
11.1490237123
 20
7.7586037211
 30
0.0
 10
11.1488440333
 20
7.7582667506
 30
0.0
 10
11.1486852655
 20
7.7580256815
 30
0.0
 10
11.1486182703
 20
7.7577400467
 30
0.0
 10
11.1484969321
 20
7.7573747453
 30
0.0
 10
11.1482995049
 20
7.7567282251
 30
0.0
 10
11.1480096686
 20
7.7558084114
 30
0.0
 10
11.1476652025
 20
7.7547030141
 30
0.0
 10
11.1472047487
 20
7.7532297173
 30
0.0
 10
11.1466295805
 20
7.7513879023
 30
0.0
 10
11.1457090883
 20
7.7484411068
 30
0.0
 10
11.1445585502
 20
7.7447575751
 30
0.0
 10
11.1431778691
 20
7.7403373539
 30
0.0
 10
11.1417972061
 20
7.7359171249
 30
0.0
 10
11.1406466226
 20
7.7322336124
 30
0.0
 10
11.1397262213
 20
7.7292867785
 30
0.0
 10
11.1391508223
 20
7.7274450612
 30
0.0
 10
11.1386908422
 20
7.7259715639
 30
0.0
 10
11.1383449289
 20
7.7248667792
 30
0.0
 10
11.1380596206
 20
7.723945049
 30
0.0
 10
11.13785411
 20
7.7233019501
 30
0.0
 10
11.1377457234
 20
7.7229311668
 30
0.0
 10
11.1376389452
 20
7.7226623704
 30
0.0
 10
11.1376295959
 20
7.7223580591
 30
0.0
 10
11.1375831459
 20
7.7219646986
 30
0.0
 10
11.1375176924
 20
7.721270546
 30
0.0
 10
11.1374159091
 20
7.720281917
 30
0.0
 10
11.1372973125
 20
7.7190942706
 30
0.0
 10
11.1371379461
 20
7.7175111932
 30
0.0
 10
11.1369391619
 20
7.715532192
 30
0.0
 10
11.1366208702
 20
7.7123658763
 30
0.0
 10
11.1362230874
 20
7.7084079522
 30
0.0
 10
11.1357457106
 20
7.7036584558
 30
0.0
 10
11.1352683528
 20
7.6989089562
 30
0.0
 10
11.1348705224
 20
7.6949510401
 30
0.0
 10
11.134552326
 20
7.6917847084
 30
0.0
 10
11.1343532995
 20
7.6898057481
 30
0.0
 10
11.1341944304
 20
7.6882225866
 30
0.0
 10
11.1340743145
 20
7.6870351972
 30
0.0
 10
11.1339772847
 20
7.6860457641
 30
0.0
 10
11.1339033454
 20
7.6853530469
 30
0.0
 10
11.1338704917
 20
7.6849573865
 30
0.0
 10
11.133819379
 20
7.68466014
 30
0.0
 10
11.1338694573
 20
7.6843648092
 30
0.0
 10
11.1339009319
 20
7.6839703665
 30
0.0
 10
11.1339724577
 20
7.6832804032
 30
0.0
 10
11.1340660396
 20
7.6822945786
 30
0.0
 10
11.134182018
 20
7.6811116587
 30
0.0
 10
11.1343353705
 20
7.6795344078
 30
0.0
 10
11.1345275012
 20
7.6775628526
 30
0.0
 10
11.1348346643
 20
7.6744083596
 30
0.0
 10
11.1352187031
 20
7.6704652449
 30
0.0
 10
11.135679511
 20
7.6657335063
 30
0.0
 10
11.1361403379
 20
7.6610017691
 30
0.0
 10
11.1365243291
 20
7.657058651
 30
0.0
 10
11.1368315875
 20
7.6539041649
 30
0.0
 10
11.1370234759
 20
7.6519325921
 30
0.0
 10
11.1371773259
 20
7.6503553774
 30
0.0
 10
11.1372917843
 20
7.6491723469
 30
0.0
 10
11.1373901217
 20
7.6481868684
 30
0.0
 10
11.1374531582
 20
7.6474962872
 30
0.0
 10
11.1374982347
 20
7.6471028345
 30
0.0
 10
11.137506532
 20
7.6468044629
 30
0.0
 10
11.1376123421
 20
7.6465186369
 30
0.0
 10
11.1377194086
 20
7.6461331595
 30
0.0
 10
11.1379226227
 20
7.6454606129
 30
0.0
 10
11.1382046431
 20
7.6444987661
 30
0.0
 10
11.138546614
 20
7.6433450063
 30
0.0
 10
11.1390013366
 20
7.6418065004
 30
0.0
 10
11.1395701639
 20
7.6398834226
 30
0.0
 10
11.1404800505
 20
7.6368064677
 30
0.0
 10
11.1416174906
 20
7.6329602847
 30
0.0
 10
11.1429823815
 20
7.6283448598
 30
0.0
 10
11.1443472905
 20
7.6237294391
 30
0.0
 10
11.1454846852
 20
7.6198832455
 30
0.0
 10
11.1463946627
 20
7.6168063117
 30
0.0
 10
11.1469632589
 20
7.6148831802
 30
0.0
 10
11.1474184557
 20
7.6133447846
 30
0.0
 10
11.1477589777
 20
7.6121906878
 30
0.0
 10
11.1480455315
 20
7.6112298953
 30
0.0
 10
11.1482406529
 20
7.6105554666
 30
0.0
 10
11.1483606858
 20
7.6101730048
 30
0.0
 10
11.1484266673
 20
7.6098779159
 30
0.0
 10
11.1485845542
 20
7.6096143341
 30
0.0
 10
11.1487630124
 20
7.6092519016
 30
0.0
 10
11.1490902506
 20
7.6086227652
 30
0.0
 10
11.1495499248
 20
7.6077213219
 30
0.0
 10
11.1501048763
 20
7.6066407358
 30
0.0
 10
11.1508436443
 20
7.6051995541
 30
0.0
 10
11.1517675039
 20
7.603398214
 30
0.0
 10
11.1532454558
 20
7.6005159932
 30
0.0
 10
11.1550929729
 20
7.5969132437
 30
0.0
 10
11.1573099582
 20
7.592589932
 30
0.0
 10
11.1595269609
 20
7.5882666274
 30
0.0
 10
11.1613744345
 20
7.5846638602
 30
0.0
 10
11.1628524734
 20
7.5817816749
 30
0.0
 10
11.1637761121
 20
7.5799802447
 30
0.0
 10
11.1645153335
 20
7.5785392479
 30
0.0
 10
11.1650688995
 20
7.5774580967
 30
0.0
 10
11.1655329087
 20
7.5765584215
 30
0.0
 10
11.1658524082
 20
7.5759261288
 30
0.0
 10
11.1660432657
 20
7.5755687535
 30
0.0
 10
11.1661630661
 20
7.5752896377
 30
0.0
 10
11.1663720942
 20
7.5750528916
 30
0.0
 10
11.1666196748
 20
7.574722451
 30
0.0
 10
11.1670674418
 20
7.5741510659
 30
0.0
 10
11.1676995277
 20
7.5733312014
 30
0.0
 10
11.1684612758
 20
7.572348905
 30
0.0
 10
11.1694758066
 20
7.5710386382
 30
0.0
 10
11.1707443581
 20
7.569400989
 30
0.0
 10
11.1727738235
 20
7.5667806472
 30
0.0
 10
11.1753107301
 20
7.5635052558
 30
0.0
 10
11.1783549844
 20
7.5595747689
 30
0.0
 10
11.1813992535
 20
7.5556442932
 30
0.0
 10
11.1839361231
 20
7.552368874
 30
0.0
 10
11.1859656627
 20
7.5497485877
 30
0.0
 10
11.1872340257
 20
7.5481107974
 30
0.0
 10
11.1882489432
 20
7.5468008203
 30
0.0
 10
11.1890095098
 20
7.5458176387
 30
0.0
 10
11.1896452924
 20
7.5450005436
 30
0.0
 10
11.1900864602
 20
7.5444242147
 30
0.0
 10
11.1903446144
 20
7.5441016953
 30
0.0
 10
11.1905211637
 20
7.543840618
 30
0.0
 10
11.1907629491
 20
7.5436528861
 30
0.0
 10
11.1910625746
 20
7.5433769933
 30
0.0
 10
11.1915975213
 20
7.5429061007
 30
0.0
 10
11.1923561879
 20
7.5422271652
 30
0.0
 10
11.1932689603
 20
7.54141511
 30
0.0
 10
11.1944851616
 20
7.5403314381
 30
0.0
 10
11.1960056969
 20
7.5389771672
 30
0.0
 10
11.1984383947
 20
7.5368101553
 30
0.0
 10
11.2014793218
 20
7.5341014522
 30
0.0
 10
11.2051284095
 20
7.5308509802
 30
0.0
 10
11.2087775087
 20
7.5276005227
 30
0.0
 10
11.2118184069
 20
7.5248917831
 30
0.0
 10
11.2142511626
 20
7.5227248443
 30
0.0
 10
11.2157715509
 20
7.5213703878
 30
0.0
 10
11.2169880539
 20
7.5202870967
 30
0.0
 10
11.2178999043
 20
7.5194738779
 30
0.0
 10
11.2186614557
 20
7.5187985829
 30
0.0
 10
11.2191912526
 20
7.5183211915
 30
0.0
 10
11.2194991292
 20
7.5180557115
 30
0.0
 10
11.2197155699
 20
7.5178359946
 30
0.0
 10
11.2199873097
 20
7.5176950476
 30
0.0
 10
11.2203303406
 20
7.5174796425
 30
0.0
 10
11.2209396316
 20
7.517115485
 30
0.0
 10
11.2218053488
 20
7.5165885672
 30
0.0
 10
11.2228462207
 20
7.5159591306
 30
0.0
 10
11.2242333473
 20
7.5151188812
 30
0.0
 10
11.2259674961
 20
7.5140689121
 30
0.0
 10
11.2287419997
 20
7.51238877
 30
0.0
 10
11.2322101756
 20
7.5102886585
 30
0.0
 10
11.2363719659
 20
7.5077684942
 30
0.0
 10
11.2405337652
 20
7.505248346
 30
0.0
 10
11.2440019187
 20
7.5031481942
 30
0.0
 10
11.2467764672
 20
7.5014681327
 30
0.0
 10
11.2485105019
 20
7.5004179587
 30
0.0
 10
11.2498978627
 20
7.4995781297
 30
0.0
 10
11.2509380193
 20
7.4989474089
 30
0.0
 10
11.2518059742
 20
7.4984245092
 30
0.0
 10
11.2524112706
 20
7.4980531787
 30
0.0
 10
11.2527607019
 20
7.4978492665
 30
0.0
 10
11.2530127816
 20
7.4976730169
 30
0.0
 10
11.2533030625
 20
7.4975858907
 30
0.0
 10
11.2536767788
 20
7.4974386352
 30
0.0
 10
11.2543369906
 20
7.4971954222
 30
0.0
 10
11.2552769045
 20
7.4968404025
 30
0.0
 10
11.2564061906
 20
7.4964176202
 30
0.0
 10
11.25791142
 20
7.4958527784
 30
0.0
 10
11.259793123
 20
7.4951471137
 30
0.0
 10
11.2628037548
 20
7.4940178335
 30
0.0
 10
11.2665670767
 20
7.4926063081
 30
0.0
 10
11.2710830485
 20
7.4909124433
 30
0.0
 10
11.2755990267
 20
7.4892185962
 30
0.0
 10
11.2793623325
 20
7.4878070265
 30
0.0
 10
11.2823729964
 20
7.4866778349
 30
0.0
 10
11.2842546177
 20
7.4859719451
 30
0.0
 10
11.2857600148
 20
7.4854075653
 30
0.0
 10
11.2868887887
 20
7.4849833713
 30
0.0
 10
11.2878303051
 20
7.4846327685
 30
0.0
 10
11.2884876562
 20
7.4843816706
 30
0.0
 10
11.2888659561
 20
7.4842470487
 30
0.0
 10
11.2891421575
 20
7.4841211159
 30
0.0
 10
11.2894471174
 20
7.4840906176
 30
0.0
 10
11.2898436994
 20
7.4840166645
 30
0.0
 10
11.2905423915
 20
7.4839027565
 30
0.0
 10
11.2915380796
 20
7.483731922
 30
0.0
 10
11.2927339513
 20
7.4835303915
 30
0.0
 10
11.2943280815
 20
7.4832604717
 30
0.0
 10
11.2963208693
 20
7.4829234872
 30
0.0
 10
11.29950926
 20
7.4823840799
 30
0.0
 10
11.3034947723
 20
7.4817099004
 30
0.0
 10
11.3082773768
 20
7.4809008509
 30
0.0
 10
11.313059984
 20
7.4800918106
 30
0.0
 10
11.3194367927
 20
7.4790130869
 30
0.0
 10
11.3242193994
 20
7.4782040448
 30
0.0
 10
11.3274078038
 20
7.4776646833
 30
0.0
  0
ENDSEC
  0
SECTION
  2
OBJECTS
  0
DICTIONARY
  5
C
100
AcDbDictionary
280
0
281
1
  3
ACAD_GROUP
350
D
  3
ACAD_MLINESTYLE
350
17
  3
ACAD_LAYOUT
350
1A
  3
ACAD_PLOTSETTINGS
350
19
  3
ACAD_PLOTSTYLENAME
350
E
  3
ACAD_IMAGE_DICT
350
       36B
  3
ACAD_IMAGE_VARS
350
       36C
  3
ACAD_TABLESTYLE
350
       36D
  0
IMAGEDEF_REACTOR
  5
36A
100
AcDbRasterImageDefReactor
 90
2
330
287
  0
DICTIONARY
  5
D
102
{ACAD_REACTORS
330
C
102
}
100
AcDbDictionary
280
0
281
1
  0
ACDBDICTIONARYWDFLT
  5
E
102
{ACAD_REACTORS
330
C
102
}
100
AcDbDictionary
281
1
  3
Normal
350
F
100
AcDbDictionaryWithDefault
340
F
  0
DICTIONARY
  5
36B
330
C
100
AcDbDictionary
281
1
  3
FSEDXAN-PMX_assy_2_img_1
350
       370
  0
RASTERVARIABLES
  5
36C
330
C
100
AcDbRasterVariables
 90
0
 70
0
 71
1
 72
5
  0
DICTIONARY
  5
17
102
{ACAD_REACTORS
330
C
102
}
100
AcDbDictionary
280
0
281
1
  3
Standard
350
18
  0
DICTIONARY
  5
36D
330
C
100
AcDbDictionary
281
1
  3
Standard
350
       371
  3
Standard1
350
       372
  0
DICTIONARY
  5
19
102
{ACAD_REACTORS
330
C
102
}
100
AcDbDictionary
281
1
  0
DICTIONARY
  5
1A
102
{ACAD_REACTORS
330
C
102
}
100
AcDbDictionary
281
1
  3
Model
350
36E
  3
Layout1
350
36F
  0
ACDBPLACEHOLDER
  5
F
102
{ACAD_REACTORS
330
E
102
}
  0
MLINESTYLE
  5
18
102
{ACAD_REACTORS
330
17
102
}
100
AcDbMlineStyle
  2
STANDARD
 70
0
  3

 62
256
 51
90.0
 52
90.0
 71
2
 49
0.5
 62
256
  6
BYLAYER
 49
-0.5
 62
256
  6
BYLAYER
  0
LAYOUT
  5
36E
102
{ACAD_REACTORS
330
1A
102
}
100
AcDbPlotSettings
  1

  2
none_device
  4
ANSI_C_(22.00_x_17.00_Inches)
  6

 40
0.0
 41
0.0
 42
0.0
 43
0.0
 44
558.8
 45
431.8
 46
0.0
 47
0.0
 48
0.0
 49
0.0
140
0.0
141
0.0
142
1.0
143
1.0
 70
1024
 72
0
 73
0
 74
0
  7

 75
0
147
1.0
148
0.0
149
0.0
100
AcDbLayout
  1
Model
 70
0
 71
0
 10
0.0
 20
0.0
 11
22.0
 21
17.0
 12
0.0
 22
0.0
 32
0.0
 14
0.0
 24
0.0
 34
0.0
 15
0.0
 25
0.0
 35
0.0
146
0.0
 13
0.0
 23
0.0
 33
0.0
 16
1.0
 26
0.0
 36
0.0
 17
0.0
 27
1.0
 37
0.0
 76
0
330
20C
345
0
346
0
  0
LAYOUT
  5
36F
102
{ACAD_REACTORS
330
1A
102
}
100
AcDbPlotSettings
  1

  2
none_device
  4
ANSI_C_(22.00_x_17.00_Inches)
  6

 40
0.0
 41
0.0
 42
0.0
 43
0.0
 44
558.8
 45
431.8
 46
0.0
 47
0.0
 48
0.0
 49
0.0
140
0.0
141
0.0
142
1.0
143
1.0
 70
0
 72
0
 73
0
 74
0
  7

 75
0
147
1.0
148
0.0
149
0.0
100
AcDbLayout
  1
Layout1
 70
0
 71
1
 10
0.0
 20
0.0
 11
22.0
 21
17.0
 12
0.0
 22
0.0
 32
0.0
 14
0.0
 24
0.0
 34
0.0
 15
0.0
 25
0.0
 35
0.0
146
0.0
 13
0.0
 23
0.0
 33
0.0
 16
1.0
 26
0.0
 36
0.0
 17
0.0
 27
1.0
 37
0.0
 76
0
330
20D
345
0
346
0
  0
IMAGEDEF
  5
370
102
{ACAD_REACTORS
330
36B
330
36A
102
}
100
AcDbRasterImageDef
 90
0
  1
FSEDXAN-PMX_assy_2_img_1.png
 10
369.0
 20
92.0
 11
0.0066666667
 21
0.0066666667
280
1
281
0
  0
TABLESTYLE
  5
371
102
{ACAD_REACTORS
330
36D
330
28A
330
28B
102
}
330
36D
100
AcDbTableStyle
  3
Standard
 70
0
 71
0
 40
0.06
 41
0.06
280
1
281
1
  7
Standard
140
0.18
170
1
 62
0
 63
7
283
0
  7
Standard
140
0.18
170
1
 62
0
 63
7
283
0
  7
Standard
140
0.18
170
1
 62
0
 63
7
283
0
  0
TABLESTYLE
  5
372
102
{ACAD_REACTORS
330
36D
330
289
102
}
330
36D
100
AcDbTableStyle
  3
Standard1
 70
1
 71
0
 40
0.06
 41
0.06
280
1
281
1
  7
Standard
140
0.18
170
1
 62
0
 63
7
283
0
  7
Standard
140
0.18
170
1
 62
0
 63
7
283
0
  7
Standard
140
0.18
170
1
 62
0
 63
7
283
0
  0
ENDSEC
  0
EOF
