999
DXF file: FSEAXAN-PMX_assy_2.dxf
999
Pro/ENGINEER 2014200 by Parametric Technology Corporation
  0
SECTION
  2
HEADER
  9
$ACADVER
  1
AC1021
  9
$DWGCODEPAGE
  3
ANSI_1252
  9
$EXTMAX
 10
22.0
 20
17.0
 30
0.0
  9
$EXTMIN
 10
0.0
 20
0.0
 30
0.0
  9
$LIMMIN
 10
0.0
 20
0.0
  9
$LIMMAX
 10
22.0
 20
17.0
  9
$VIEWCTR
 10
11.0
 20
8.5
  9
$VIEWSIZE
 40
17.0
  9
$CLAYER
  8
0
  9
$LTSCALE
 40
1.21
  9
$CELTYPE
  6
BYLAYER
  9
$DIMSCALE
 40
1.0
  9
$DIMASZ
 40
0.1875
  9
$DIMEXO
 40
0.0625
  9
$DIMDLI
 40
0.836
  9
$DIMEXE
 40
0.125
  9
$DIMCEN
 40
0.198
  9
$DIMLFAC
 40
1.0
  9
$DIMBLK
  1
_FILLED
  9
$DIMTXT
 40
0.1
  9
$DIMTOL
 70
0
  9
$DIMLIM
 70
0
  9
$DIMTFAC
 40
1.0
  9
$DIMGAP
 40
0.09
  9
$DIMDSEP
 70
46
  9
$AUNITS
 70
0
  9
$PDMODE
 70
3
  9
$PDSIZE
 40
0.3125
  9
$HANDSEED
  5
372
  9
$TILEMODE
 70
1
  9
$MEASUREMENT
 70
0
  9
$INSUNITS
 70
1
  0
ENDSEC
  0
SECTION
  2
CLASSES
  0
CLASS
  1
ACDBDICTIONARYWDFLT
  2
AcDbDictionaryWithDefault
  3
AutoCAD 2000
 90
0
 91
1
280
0
281
0
  0
CLASS
  1
ACDBPLACEHOLDER
  2
AcDbPlaceHolder
  3
AutoCAD 2000
 90
0
 91
1
280
0
281
0
  0
CLASS
  1
LAYOUT
  2
AcDbLayout
  3
AutoCAD 2000
 90
0
 91
0
280
0
281
0
  0
CLASS
  1
RASTERVARIABLES
  2
AcDbRasterVariables
  3
ISM
 90
0
 91
1
280
0
281
0
  0
CLASS
  1
IMAGEDEF
  2
AcDbRasterImageDef
  3
ISM
 90
0
 91
1
280
0
281
0
  0
CLASS
  1
IMAGEDEF_REACTOR
  2
AcDbRasterImageDefReactor
  3
ISM
 90
0
 91
1
280
0
281
0
  0
CLASS
  1
IMAGE
  2
AcDbRasterImage
  3
ISM
 90
127
 91
1
280
0
281
1
  0
CLASS
  1
TABLESTYLE
  2
AcDbTableStyle
  3
ObjectDBX Classes
 90
2047
 91
1
280
0
281
0
  0
CLASS
  1
ACAD_TABLE
  2
AcDbTable
  3
ObjectDBX Classes
 90
1025
 91
3
280
0
281
1
  0
ENDSEC
  0
SECTION
  2
TABLES
  0
TABLE
  2
VPORT
  5
8
100
AcDbSymbolTable
 70
2
  0
VPORT
  5
1F4
100
AcDbSymbolTableRecord
100
AcDbViewportTableRecord
  2
*ACTIVE
 70
0
 10
0.0
 20
0.0
 11
1.0
 21
1.0
 12
11.0
 22
8.5
 13
0.0
 23
0.0
 14
1.0
 24
1.0
 15
0.0
 25
0.0
 16
0.0
 26
0.0
 36
1.0
 17
0.0
 27
0.0
 37
0.0
 40
17.0
 41
1.2941176471
 42
50.0
 43
0.0
 44
0.0
 50
0.0
 51
0.0
 71
0
 72
100
 73
1
 74
1
 75
0
 76
0
 77
0
 78
0
  0
ENDTAB
  0
TABLE
  2
LTYPE
  5
5
100
AcDbSymbolTable
 70
6
  0
LTYPE
  5
14
100
AcDbSymbolTableRecord
100
AcDbLinetypeTableRecord
  2
BYBLOCK
 70
0
  3

 72
65
 73
0
 40
0.0
  0
LTYPE
  5
15
100
AcDbSymbolTableRecord
100
AcDbLinetypeTableRecord
  2
BYLAYER
 70
0
  3

 72
65
 73
0
 40
0.0
  0
LTYPE
  5
16
100
AcDbSymbolTableRecord
100
AcDbLinetypeTableRecord
  2
CONTINUOUS
 70
64
  3
Solid line
 72
65
 73
0
 40
0.0
  0
LTYPE
  5
1F5
100
AcDbSymbolTableRecord
100
AcDbLinetypeTableRecord
  2
CENTER
 70
64
  3
____ _ ____ _ ____ _ ____ _ ____ _ ____ _ ____
 72
65
 73
4
 40
0.6
 49
0.375
 74
0
 49
-0.075
 74
0
 49
0.075
 74
0
 49
-0.075
 74
0
  0
LTYPE
  5
1F6
100
AcDbSymbolTableRecord
100
AcDbLinetypeTableRecord
  2
HIDDEN
 70
64
  3
- - - - - - - - - - - - - - - - - - - -
 72
65
 73
2
 40
0.2
 49
0.1
 74
0
 49
-0.1
 74
0
  0
LTYPE
  5
1F7
100
AcDbSymbolTableRecord
100
AcDbLinetypeTableRecord
  2
PHANTOM
 70
64
  3
_____ _ _ _____ _ _ _____ _ _ _____
 72
65
 73
6
 40
0.8
 49
0.45
 74
0
 49
-0.05
 74
0
 49
0.1
 74
0
 49
-0.05
 74
0
 49
0.1
 74
0
 49
-0.05
 74
0
  0
LTYPE
  5
1F8
100
AcDbSymbolTableRecord
100
AcDbLinetypeTableRecord
  2
DOT
 70
64
  3
. . . . . . . . . . . . . . . . . . . .
 72
65
 73
2
 40
0.2
 49
0.1
 74
0
 49
-0.1
 74
0
  0
LTYPE
  5
1F9
100
AcDbSymbolTableRecord
100
AcDbLinetypeTableRecord
  2
DASHED
 70
64
  3
- - - - - - - - - - - - - - - - - - - -
 72
65
 73
2
 40
0.2
 49
0.1
 74
0
 49
-0.1
 74
0
  0
ENDTAB
  0
TABLE
  2
LAYER
  5
2
100
AcDbSymbolTable
 70
36
  0
LAYER
  5
10
100
AcDbSymbolTableRecord
100
AcDbLayerTableRecord
  2
0
 70
0
 62
7
  6
CONTINUOUS
370
-3
390
F
  0
LAYER
  5
1FA
100
AcDbSymbolTableRecord
100
AcDbLayerTableRecord
  2
DEFAULT_1
 70
0
 62
7
  6
CENTER
370
-3
390
F
  0
LAYER
  5
1FB
100
AcDbSymbolTableRecord
100
AcDbLayerTableRecord
  2
DEFAULT_2
 70
0
 62
8
  6
HIDDEN
370
-3
390
F
  0
LAYER
  5
1FC
100
AcDbSymbolTableRecord
100
AcDbLayerTableRecord
  2
DEFAULT_3
 70
0
 62
7
  6
PHANTOM
370
-3
390
F
  0
LAYER
  5
1FD
100
AcDbSymbolTableRecord
100
AcDbLayerTableRecord
  2
01___PRT_ALL_DTM_PLN
 70
0
 62
7
  6
CONTINUOUS
370
-3
390
F
  0
LAYER
  5
1FE
100
AcDbSymbolTableRecord
100
AcDbLayerTableRecord
  2
01___PRT_DEF_DTM_PLN
 70
0
 62
7
  6
CONTINUOUS
370
-3
390
F
  0
LAYER
  5
1FF
100
AcDbSymbolTableRecord
100
AcDbLayerTableRecord
  2
02___PRT_ALL_AXES
 70
0
 62
7
  6
CONTINUOUS
370
-3
390
F
  0
LAYER
  5
200
100
AcDbSymbolTableRecord
100
AcDbLayerTableRecord
  2
03___PRT_ALL_CURVES
 70
0
 62
7
  6
CONTINUOUS
370
-3
390
F
  0
LAYER
  5
201
100
AcDbSymbolTableRecord
100
AcDbLayerTableRecord
  2
04___PRT_ALL_DTM_PNT
 70
0
 62
7
  6
CONTINUOUS
370
-3
390
F
  0
LAYER
  5
202
100
AcDbSymbolTableRecord
100
AcDbLayerTableRecord
  2
05___PRT_ALL_DTM_CSYS
 70
0
 62
7
  6
CONTINUOUS
370
-3
390
F
  0
LAYER
  5
203
100
AcDbSymbolTableRecord
100
AcDbLayerTableRecord
  2
05___PRT_DEF_DTM_CSYS
 70
0
 62
7
  6
CONTINUOUS
370
-3
390
F
  0
LAYER
  5
204
100
AcDbSymbolTableRecord
100
AcDbLayerTableRecord
  2
06___PRT_ALL_SURFS
 70
0
 62
7
  6
CONTINUOUS
370
-3
390
F
  0
LAYER
  5
205
100
AcDbSymbolTableRecord
100
AcDbLayerTableRecord
  2
DATUM_PLANES
 70
0
 62
7
  6
CONTINUOUS
370
-3
390
F
  0
LAYER
  5
206
100
AcDbSymbolTableRecord
100
AcDbLayerTableRecord
  2
PORT_AREAS
 70
0
 62
7
  6
CONTINUOUS
370
-3
390
F
  0
LAYER
  5
207
100
AcDbSymbolTableRecord
100
AcDbLayerTableRecord
  2
SUNNBOMCOSMETIC
 70
0
 62
7
  6
CONTINUOUS
370
-3
390
F
  0
LAYER
  5
208
100
AcDbSymbolTableRecord
100
AcDbLayerTableRecord
  2
SUNNBOMSTAMPING
 70
0
 62
7
  6
CONTINUOUS
370
-3
390
F
  0
LAYER
  5
209
100
AcDbSymbolTableRecord
100
AcDbLayerTableRecord
  2
THREADS
 70
0
 62
7
  6
CONTINUOUS
370
-3
390
F
  0
ENDTAB
  0
TABLE
  2
STYLE
  5
3
100
AcDbSymbolTable
 70
1
  0
STYLE
  5
11
100
AcDbSymbolTableRecord
100
AcDbTextStyleTableRecord
  2
STANDARD
 70
0
 40
0.0
 41
0.8
 50
0.0
 71
0
 42
0.2
  3
txt
  4

  0
STYLE
  5
20A
100
AcDbSymbolTableRecord
100
AcDbTextStyleTableRecord
  2
TEXTSTYLE_1
 70
0
 40
0.0
 41
0.8
 50
0.0
 71
0
 42
0.2
  3
gdt
  4

  0
ENDTAB
  0
TABLE
  2
VIEW
  5
6
100
AcDbSymbolTable
 70
0
  0
ENDTAB
  0
TABLE
  2
UCS
  5
7
100
AcDbSymbolTable
 70
0
  0
ENDTAB
  0
TABLE
  2
APPID
  5
9
100
AcDbSymbolTable
 70
1
  0
APPID
  5
20B
100
AcDbSymbolTableRecord
100
AcDbRegAppTableRecord
  2
ACAD
 70
0
  0
ENDTAB
  0
TABLE
  2
BLOCK_RECORD
  5
1
100
AcDbSymbolTable
 70
0
  0
BLOCK_RECORD
  5
20C
100
AcDbSymbolTableRecord
100
AcDbBlockTableRecord
  2
*Model_Space
  0
BLOCK_RECORD
  5
20D
100
AcDbSymbolTableRecord
100
AcDbBlockTableRecord
  2
*Paper_Space
  0
BLOCK_RECORD
  5
20E
100
AcDbSymbolTableRecord
100
AcDbBlockTableRecord
  2
SUN_FIRST_THIRD_ANGLE_BL0
  0
BLOCK_RECORD
  5
20F
100
AcDbSymbolTableRecord
100
AcDbBlockTableRecord
  2
*T1
  0
BLOCK_RECORD
  5
210
100
AcDbSymbolTableRecord
100
AcDbBlockTableRecord
  2
*T2
  0
BLOCK_RECORD
  5
211
100
AcDbSymbolTableRecord
100
AcDbBlockTableRecord
  2
*T3
  0
ENDTAB
  0
TABLE
  2
DIMSTYLE
  5
A
100
AcDbSymbolTable
 70
1
100
AcDbDimStyleTable
 71
0
  0
DIMSTYLE
105
212
100
AcDbSymbolTableRecord
100
AcDbDimStyleTableRecord
  2
STANDARD
 70
0
  3

  4

 40
1.0
 41
0.1875
 42
0.0625
 43
0.38
 44
0.125
 45
0.0
 46
0.0
 47
0.001
 48
0.001
140
0.1
141
0.09
142
0.0
143
25.4
144
1.0
145
0.0
146
1.0
147
0.09
 71
0.0
 72
0.0
 73
1
 74
1
 75
0
 76
0
 77
0
 78
4
170
0
171
2
172
0
173
0
174
0
175
0
176
0
177
0
178
0
270
2
271
3
272
3
273
2
274
2
275
0
280
0
281
0
282
0
283
1
284
4
285
0
286
0
287
3
288
0
340
11
278
46
  0
ENDTAB
  0
ENDSEC
  0
SECTION
  2
BLOCKS
  0
BLOCK
  5
20
100
AcDbEntity
  8
0
100
AcDbBlockBegin
  2
*Model_Space
 70
0
 10
0.0
 20
0.0
 30
0.0
  3
*Model_Space
  1

  0
ENDBLK
  5
21
100
AcDbEntity
  8
0
100
AcDbBlockEnd
  0
BLOCK
  5
1C
100
AcDbEntity
  8
0
100
AcDbBlockBegin
  2
*Paper_Space
 70
0
 10
0.0
 20
0.0
 30
0.0
  3
*Paper_Space
  1

  0
ENDBLK
  5
1D
100
AcDbEntity
  8
0
100
AcDbBlockEnd
  0
BLOCK
  5
213
100
AcDbEntity
  8
0
100
AcDbBlockBegin
 62
2
  6
CONTINUOUS
  2
SUN_FIRST_THIRD_ANGLE_BL0
 70
64
 10
20.4816717061
 20
1.2289683772
  3
SUN_FIRST_THIRD_ANGLE_BL0
  1

  0
TEXT
  5
214
100
AcDbEntity
  8
0
100
AcDbText
 62
2
  6
CONTINUOUS
 10
19.4750896608
 20
1.4136269581
  7
STANDARD
 40
0.08
  1
FIRST ANGLE
 41
0.8
 72
0
100
AcDbText
  0
TEXT
  5
215
100
AcDbEntity
  8
0
100
AcDbText
 62
2
  6
CONTINUOUS
 10
20.7842537513
 20
1.4047600029
  7
STANDARD
 40
0.08
  1
THIRD ANGLE
 41
0.8
 72
0
100
AcDbText
  0
LINE
  5
216
100
AcDbEntity
  8
0
100
AcDbLine
 62
7
  6
CONTINUOUS
 10
19.4767170086
 20
1.1727031207
 11
19.6334271527
 21
1.1717972817
  0
LINE
  5
217
100
AcDbEntity
  8
0
100
AcDbLine
 62
7
  6
CONTINUOUS
 10
19.6596964832
 20
1.1717972817
 11
19.6950230232
 21
1.171593082
  0
LINE
  5
218
100
AcDbEntity
  8
0
100
AcDbLine
 62
7
  6
CONTINUOUS
 10
19.7194818561
 20
1.1708914427
 11
19.8852396156
 21
1.1699333054
  0
LINE
  5
219
100
AcDbEntity
  8
0
100
AcDbLine
 62
7
  6
CONTINUOUS
 10
19.4758111696
 20
1.2723454088
 11
19.88525039
 21
1.3511534004
  0
LINE
  5
21A
100
AcDbEntity
  8
0
100
AcDbLine
 62
7
  6
CONTINUOUS
 10
19.88525039
 20
1.3511534004
 11
19.8831348489
 21
0.9851647912
  0
LINE
  5
21B
100
AcDbEntity
  8
0
100
AcDbLine
 62
7
  6
CONTINUOUS
 10
19.8831348489
 20
0.9851647912
 11
19.4767170086
 21
1.0658141206
  0
LINE
  5
21C
100
AcDbEntity
  8
0
100
AcDbLine
 62
7
  6
CONTINUOUS
 10
19.4767170086
 20
1.0658141206
 11
19.4779056764
 21
1.2714536432
  0
CIRCLE
  5
21D
100
AcDbEntity
  8
0
100
AcDbCircle
 62
7
  6
CONTINUOUS
 10
20.2068232291
 20
1.1717972817
 40
0.175742101
  0
CIRCLE
  5
21E
100
AcDbEntity
  8
0
100
AcDbCircle
 62
7
  6
CONTINUOUS
 10
20.2068232291
 20
1.1717972817
 40
0.1005522074
  0
LINE
  5
21F
100
AcDbEntity
  8
0
100
AcDbLine
 62
7
  6
CONTINUOUS
 10
20.2077290681
 20
1.3756110529
 11
20.2071171714
 21
1.2379342989
  0
LINE
  5
220
100
AcDbEntity
  8
0
100
AcDbLine
 62
7
  6
CONTINUOUS
 10
20.2077290681
 20
1.2016899681
 11
20.2074674401
 21
1.1428236749
  0
LINE
  5
221
100
AcDbEntity
  8
0
100
AcDbLine
 62
7
  6
CONTINUOUS
 10
20.208634907
 20
1.101141841
 11
20.2080230104
 21
0.963465087
  0
LINE
  5
222
100
AcDbEntity
  8
0
100
AcDbLine
 62
7
  6
CONTINUOUS
 10
20.0066328138
 20
1.1745147986
 11
20.1443095678
 21
1.1739029019
  0
LINE
  5
223
100
AcDbEntity
  8
0
100
AcDbLine
 62
7
  6
CONTINUOUS
 10
20.1832714155
 20
1.1727031207
 11
20.238153505
 21
1.172335442
  0
LINE
  5
224
100
AcDbEntity
  8
0
100
AcDbLine
 62
7
  6
CONTINUOUS
 10
20.2756669918
 20
1.1717972817
 11
20.407916871
 21
1.1712095044
  0
CIRCLE
  5
225
100
AcDbEntity
  8
0
100
AcDbCircle
 62
7
  6
CONTINUOUS
 10
20.7509457401
 20
1.1693297793
 40
0.1722024983
  0
CIRCLE
  5
226
100
AcDbEntity
  8
0
100
AcDbCircle
 62
7
  6
CONTINUOUS
 10
20.7509457401
 20
1.1693297793
 40
0.0985164967
  0
LINE
  5
227
100
AcDbEntity
  8
0
100
AcDbLine
 62
7
  6
CONTINUOUS
 10
20.7169767782
 20
1.170462078
 11
20.7825395137
 21
1.1682766535
  0
LINE
  5
228
100
AcDbEntity
  8
0
100
AcDbLine
 62
7
  6
CONTINUOUS
 10
20.8177513651
 20
1.1693297793
 11
20.947965719
 21
1.1693297793
  0
LINE
  5
229
100
AcDbEntity
  8
0
100
AcDbLine
 62
7
  6
CONTINUOUS
 10
20.6875370113
 20
1.170462078
 11
20.5573226574
 21
1.170462078
  0
LINE
  5
22A
100
AcDbEntity
  8
0
100
AcDbLine
 62
7
  6
CONTINUOUS
 10
20.7486811426
 20
1.1987695462
 11
20.7486811426
 21
1.1432869085
  0
LINE
  5
22B
100
AcDbEntity
  8
0
100
AcDbLine
 62
7
  6
CONTINUOUS
 10
20.7498134414
 20
1.1059210505
 11
20.7498134414
 21
0.9757066966
  0
LINE
  5
22C
100
AcDbEntity
  8
0
100
AcDbLine
 62
7
  6
CONTINUOUS
 10
20.7486811426
 20
1.2338708068
 11
20.7486811426
 21
1.3640851607
  0
LINE
  5
22D
100
AcDbEntity
  8
0
100
AcDbLine
 62
7
  6
CONTINUOUS
 10
21.0702539817
 20
1.2701043662
 11
21.4790138229
 21
1.3448360823
  0
LINE
  5
22E
100
AcDbEntity
  8
0
100
AcDbLine
 62
7
  6
CONTINUOUS
 10
21.4790138229
 20
1.3448360823
 11
21.4790138229
 21
0.9779712941
  0
LINE
  5
22F
100
AcDbEntity
  8
0
100
AcDbLine
 62
7
  6
CONTINUOUS
 10
21.4790138229
 20
0.9779712941
 11
21.069121683
 21
1.0617614
  0
LINE
  5
230
100
AcDbEntity
  8
0
100
AcDbLine
 62
7
  6
CONTINUOUS
 10
21.0702539817
 20
1.2701043662
 11
21.069121683
 21
1.0617614
  0
LINE
  5
231
100
AcDbEntity
  8
0
100
AcDbLine
 62
7
  6
CONTINUOUS
 10
21.4790138229
 20
1.1693297793
 11
21.3159628059
 21
1.1693297793
  0
LINE
  5
232
100
AcDbEntity
  8
0
100
AcDbLine
 62
7
  6
CONTINUOUS
 10
21.2876553377
 20
1.1693297793
 11
21.2502894796
 21
1.1693297793
  0
LINE
  5
233
100
AcDbEntity
  8
0
100
AcDbLine
 62
7
  6
CONTINUOUS
 10
21.2208497126
 20
1.1659328831
 11
21.0713862804
 21
1.1659328831
  0
LINE
  5
234
100
AcDbEntity
  8
0
100
AcDbLine
 62
7
  6
CONTINUOUS
 10
20.4796138713
 20
1.5284908897
 11
20.4766766948
 21
0.9294458646
  0
ENDBLK
  5
235
100
AcDbEntity
  8
0
  6
BYBLOCK
 62
0
100
AcDbBlockEnd
  0
BLOCK
  5
236
100
AcDbEntity
  8
0
100
AcDbBlockBegin
  2
*T1
 70
1
 10
0.0
 20
0.0
  3
*T1
  1

  0
LINE
  5
237
100
AcDbEntity
  8
0
100
AcDbLine
 62
2
  6
CONTINUOUS
 10
9.275
 20
0.0
 11
-0.0
 21
0.0
  0
LINE
  5
238
100
AcDbEntity
  8
0
100
AcDbLine
 62
2
  6
CONTINUOUS
 10
9.275
 20
0.0
 11
9.275
 21
1.25
  0
LINE
  5
239
100
AcDbEntity
  8
0
100
AcDbLine
 62
2
  6
CONTINUOUS
 10
9.275
 20
0.625
 11
-0.0
 21
0.625
  0
LINE
  5
23A
100
AcDbEntity
  8
0
100
AcDbLine
 62
2
  6
CONTINUOUS
 10
9.275
 20
1.25
 11
-0.0
 21
1.25
  0
LINE
  5
23B
100
AcDbEntity
  8
0
100
AcDbLine
 62
2
  6
CONTINUOUS
 10
6.8
 20
0.0
 11
6.8
 21
1.25
  0
LINE
  5
23C
100
AcDbEntity
  8
0
100
AcDbLine
 62
2
  6
CONTINUOUS
 10
6.4
 20
0.0
 11
6.4
 21
0.625
  0
LINE
  5
23D
100
AcDbEntity
  8
0
100
AcDbLine
 62
2
  6
CONTINUOUS
 10
5.9
 20
0.0
 11
5.9
 21
0.625
  0
LINE
  5
23E
100
AcDbEntity
  8
0
100
AcDbLine
 62
2
  6
CONTINUOUS
 10
5.2
 20
0.0
 11
5.2
 21
0.625
  0
LINE
  5
23F
100
AcDbEntity
  8
0
100
AcDbLine
 62
2
  6
CONTINUOUS
 10
4.1
 20
0.0
 11
4.1
 21
1.25
  0
LINE
  5
240
100
AcDbEntity
  8
0
100
AcDbLine
 62
2
  6
CONTINUOUS
 10
-0.0
 20
0.0
 11
-0.0
 21
1.25
  0
MTEXT
  5
241
100
AcDbEntity
  8
0
100
AcDbMText
 62
2
  6
CONTINUOUS
  7
STANDARD
 71
2
 72
1
 10
6.6
 20
0.325
 30
0.0
 11
1.0
 21
0.0
 31
0.0
 44
0.9
  1
2
 40
0.125
 41
0.2
  0
MTEXT
  5
242
100
AcDbEntity
  8
0
100
AcDbMText
 62
2
  6
CONTINUOUS
  7
STANDARD
 71
2
 72
1
 10
6.15
 20
0.325
 30
0.0
 11
1.0
 21
0.0
 31
0.0
 44
0.9
  1
C
 40
0.125
 41
0.2
  0
MTEXT
  5
243
100
AcDbEntity
  8
0
100
AcDbMText
 62
2
  6
CONTINUOUS
  7
STANDARD
 71
2
 72
1
 10
5.55
 20
0.325
 30
0.0
 11
1.0
 21
0.0
 31
0.0
 44
0.9
  1
1.000
 40
0.125
 41
1.0
  0
MTEXT
  5
244
100
AcDbEntity
  8
0
100
AcDbMText
 62
2
  6
CONTINUOUS
  7
STANDARD
 71
2
 72
1
 10
4.65
 20
0.325
 30
0.0
 11
1.0
 21
0.0
 31
0.0
 44
0.9
  1
Apr-17-20
 40
0.125
 41
1.8
  0
MTEXT
  5
245
100
AcDbEntity
  8
0
100
AcDbMText
 62
2
  6
CONTINUOUS
  7
STANDARD
 71
2
 72
1
 10
2.05
 20
0.4625
 30
0.0
 11
1.0
 21
0.0
 31
0.0
 44
0.9
  1
Flow divider-combiner manifold assembly
 40
0.125
 41
7.8
  0
MTEXT
  5
246
100
AcDbEntity
  8
0
100
AcDbMText
 62
2
  6
CONTINUOUS
  7
STANDARD
 71
1
 72
1
 10
6.45
 20
0.5625
 30
0.0
 11
1.0
 21
0.0
 31
0.0
 44
0.9
  1
SHEET
 40
0.06
 41
0.48
  0
MTEXT
  5
247
100
AcDbEntity
  8
0
100
AcDbMText
 62
2
  6
CONTINUOUS
  7
STANDARD
 71
1
 72
1
 10
5.95
 20
0.5625
 30
0.0
 11
1.0
 21
0.0
 31
0.0
 44
0.9
  1
DWG SIZE
 40
0.06
 41
0.768
  0
MTEXT
  5
248
100
AcDbEntity
  8
0
100
AcDbMText
 62
2
  6
CONTINUOUS
  7
STANDARD
 71
1
 72
1
 10
5.25
 20
0.5625
 30
0.0
 11
1.0
 21
0.0
 31
0.0
 44
0.9
  1
SCALE
 40
0.06
 41
0.48
  0
MTEXT
  5
249
100
AcDbEntity
  8
0
100
AcDbMText
 62
2
  6
CONTINUOUS
  7
STANDARD
 71
1
 72
1
 10
4.15
 20
0.5625
 30
0.0
 11
1.0
 21
0.0
 31
0.0
 44
0.9
  1
DATE
 40
0.06
 41
0.384
  0
MTEXT
  5
24A
100
AcDbEntity
  8
0
100
AcDbMText
 62
2
  6
CONTINUOUS
  7
STANDARD
 71
1
 72
1
 10
0.05
 20
0.5625
 30
0.0
 11
1.0
 21
0.0
 31
0.0
 44
0.9
  1
DESCRIPTION
 40
0.06
 41
1.056
  0
MTEXT
  5
24B
100
AcDbEntity
  8
0
100
AcDbMText
 62
2
  6
CONTINUOUS
  7
STANDARD
 71
2
 72
1
 10
5.45
 20
1.0375
 30
0.0
 11
1.0
 21
0.0
 31
0.0
 44
0.9
  1
ALL DIMENSIONS IN INCH\PVIEWS ARE THIRD ANGLE
 40
0.12
 41
4.224
  0
MTEXT
  5
24C
100
AcDbEntity
  8
0
100
AcDbMText
 62
2
  6
CONTINUOUS
  7
STANDARD
 71
2
 72
1
 10
2.05
 20
0.95
 30
0.0
 11
1.0
 21
0.0
 31
0.0
 44
0.9
  1
FSEAXAN-PMX
 40
0.125
 41
2.2
  0
MTEXT
  5
24D
100
AcDbEntity
  8
0
100
AcDbMText
 62
2
  6
CONTINUOUS
  7
STANDARD
 71
1
 72
1
 10
0.05
 20
1.1875
 30
0.0
 11
1.0
 21
0.0
 31
0.0
 44
0.9
  1
MODEL
 40
0.06
 41
0.48
  0
ENDBLK
  5
24E
100
AcDbEntity
  8
0
  6
BYBLOCK
 62
0
100
AcDbBlockEnd
  0
BLOCK
  5
24F
100
AcDbEntity
  8
0
100
AcDbBlockBegin
  2
*T2
 70
1
 10
0.0
 20
0.0
  3
*T2
  1

  0
LINE
  5
250
100
AcDbEntity
  8
0
100
AcDbLine
 62
2
  6
CONTINUOUS
 10
0.0
 20
0.0
 11
9.055
 21
0.0
  0
LINE
  5
251
100
AcDbEntity
  8
0
100
AcDbLine
 62
2
  6
CONTINUOUS
 10
0.0
 20
0.0
 11
0.0
 21
-2.594
  0
LINE
  5
252
100
AcDbEntity
  8
0
100
AcDbLine
 62
2
  6
CONTINUOUS
 10
0.0
 20
-0.344
 11
9.055
 21
-0.344
  0
LINE
  5
253
100
AcDbEntity
  8
0
100
AcDbLine
 62
2
  6
CONTINUOUS
 10
0.0
 20
-0.594
 11
9.055
 21
-0.594
  0
LINE
  5
254
100
AcDbEntity
  8
0
100
AcDbLine
 62
2
  6
CONTINUOUS
 10
0.0
 20
-0.844
 11
9.055
 21
-0.844
  0
LINE
  5
255
100
AcDbEntity
  8
0
100
AcDbLine
 62
2
  6
CONTINUOUS
 10
0.0
 20
-1.094
 11
9.055
 21
-1.094
  0
LINE
  5
256
100
AcDbEntity
  8
0
100
AcDbLine
 62
2
  6
CONTINUOUS
 10
0.0
 20
-1.344
 11
9.055
 21
-1.344
  0
LINE
  5
257
100
AcDbEntity
  8
0
100
AcDbLine
 62
2
  6
CONTINUOUS
 10
0.0
 20
-1.594
 11
9.055
 21
-1.594
  0
LINE
  5
258
100
AcDbEntity
  8
0
100
AcDbLine
 62
2
  6
CONTINUOUS
 10
0.0
 20
-1.844
 11
9.055
 21
-1.844
  0
LINE
  5
259
100
AcDbEntity
  8
0
100
AcDbLine
 62
2
  6
CONTINUOUS
 10
0.0
 20
-2.094
 11
9.055
 21
-2.094
  0
LINE
  5
25A
100
AcDbEntity
  8
0
100
AcDbLine
 62
2
  6
CONTINUOUS
 10
0.0
 20
-2.344
 11
9.055
 21
-2.344
  0
LINE
  5
25B
100
AcDbEntity
  8
0
100
AcDbLine
 62
2
  6
CONTINUOUS
 10
0.0
 20
-2.594
 11
9.055
 21
-2.594
  0
LINE
  5
25C
100
AcDbEntity
  8
0
100
AcDbLine
 62
2
  6
CONTINUOUS
 10
3.055
 20
0.0
 11
3.055
 21
-2.594
  0
LINE
  5
25D
100
AcDbEntity
  8
0
100
AcDbLine
 62
2
  6
CONTINUOUS
 10
9.055
 20
0.0
 11
9.055
 21
-2.594
  0
MTEXT
  5
25E
100
AcDbEntity
  8
0
100
AcDbMText
 62
2
  6
CONTINUOUS
  7
STANDARD
 71
2
 72
1
 10
1.5275
 20
-0.0995
 30
0.0
 11
1.0
 21
0.0
 31
0.0
 44
0.9
  1
Technical Data
 40
0.145
 41
3.248
  0
MTEXT
  5
25F
100
AcDbEntity
  8
0
100
AcDbMText
 62
2
  6
CONTINUOUS
  7
STANDARD
 71
2
 72
1
 10
4.555
 20
-0.0995
 30
0.0
 11
1.0
 21
0.0
 31
0.0
 44
0.9
  1
U.S. Units
 40
0.145
 41
2.32
  0
MTEXT
  5
260
100
AcDbEntity
  8
0
100
AcDbMText
 62
2
  6
CONTINUOUS
  7
STANDARD
 71
2
 72
1
 10
7.555
 20
-0.0995
 30
0.0
 11
1.0
 21
0.0
 31
0.0
 44
0.9
  1
Metric Units
 40
0.145
 41
2.784
  0
MTEXT
  5
261
100
AcDbEntity
  8
0
100
AcDbMText
 62
2
  6
CONTINUOUS
  7
STANDARD
 71
2
 72
1
 10
1.5275
 20
-0.4065
 30
0.0
 11
1.0
 21
0.0
 31
0.0
 44
0.9
  1
Cavity
 40
0.125
 41
1.2
  0
MTEXT
  5
262
100
AcDbEntity
  8
0
100
AcDbMText
 62
2
  6
CONTINUOUS
  7
STANDARD
 71
2
 72
1
 10
6.055
 20
-0.4065
 30
0.0
 11
1.0
 21
0.0
 31
0.0
 44
0.9
  1
T-33A
 40
0.125
 41
1.0
  0
MTEXT
  5
263
100
AcDbEntity
  8
0
100
AcDbMText
 62
2
  6
CONTINUOUS
  7
STANDARD
 71
2
 72
1
 10
1.5275
 20
-0.6565
 30
0.0
 11
1.0
 21
0.0
 31
0.0
 44
0.9
  1
Body Features
 40
0.125
 41
2.6
  0
MTEXT
  5
264
100
AcDbEntity
  8
0
100
AcDbMText
 62
2
  6
CONTINUOUS
  7
STANDARD
 71
2
 72
1
 10
6.055
 20
-0.6565
 30
0.0
 11
1.0
 21
0.0
 31
0.0
 44
0.9
  1
Ninety degree
 40
0.125
 41
2.6
  0
MTEXT
  5
265
100
AcDbEntity
  8
0
100
AcDbMText
 62
2
  6
CONTINUOUS
  7
STANDARD
 71
2
 72
1
 10
1.5275
 20
-0.9065
 30
0.0
 11
1.0
 21
0.0
 31
0.0
 44
0.9
  1
Body Type
 40
0.125
 41
1.8
  0
MTEXT
  5
266
100
AcDbEntity
  8
0
100
AcDbMText
 62
2
  6
CONTINUOUS
  7
STANDARD
 71
2
 72
1
 10
6.055
 20
-0.9065
 30
0.0
 11
1.0
 21
0.0
 31
0.0
 44
0.9
  1
Line mount
 40
0.125
 41
2.0
  0
MTEXT
  5
267
100
AcDbEntity
  8
0
100
AcDbMText
 62
2
  6
CONTINUOUS
  7
STANDARD
 71
2
 72
1
 10
1.5275
 20
-1.1565
 30
0.0
 11
1.0
 21
0.0
 31
0.0
 44
0.9
  1
Interface
 40
0.125
 41
1.8
  0
MTEXT
  5
268
100
AcDbEntity
  8
0
100
AcDbMText
 62
2
  6
CONTINUOUS
  7
STANDARD
 71
2
 72
1
 10
6.055
 20
-1.1565
 30
0.0
 11
1.0
 21
0.0
 31
0.0
 44
0.9
  1
None
 40
0.125
 41
0.8
  0
MTEXT
  5
269
100
AcDbEntity
  8
0
100
AcDbMText
 62
2
  6
CONTINUOUS
  7
STANDARD
 71
2
 72
1
 10
1.5275
 20
-1.4065
 30
0.0
 11
1.0
 21
0.0
 31
0.0
 44
0.9
  1
Open Cavity Quantity
 40
0.125
 41
4.0
  0
MTEXT
  5
26A
100
AcDbEntity
  8
0
100
AcDbMText
 62
2
  6
CONTINUOUS
  7
STANDARD
 71
2
 72
1
 10
6.055
 20
-1.4065
 30
0.0
 11
1.0
 21
0.0
 31
0.0
 44
0.9
  1
1
 40
0.125
 41
0.2
  0
MTEXT
  5
26B
100
AcDbEntity
  8
0
100
AcDbMText
 62
2
  6
CONTINUOUS
  7
STANDARD
 71
2
 72
1
 10
1.5275
 20
-1.6565
 30
0.0
 11
1.0
 21
0.0
 31
0.0
 44
0.9
  1
Weight
 40
0.125
 41
1.2
  0
MTEXT
  5
26C
100
AcDbEntity
  8
0
100
AcDbMText
 62
2
  6
CONTINUOUS
  7
STANDARD
 71
2
 72
1
 10
4.555
 20
-1.6565
 30
0.0
 11
1.0
 21
0.0
 31
0.0
 44
0.9
  1
5.766 lb.
 40
0.125
 41
1.8
  0
MTEXT
  5
26D
100
AcDbEntity
  8
0
100
AcDbMText
 62
2
  6
CONTINUOUS
  7
STANDARD
 71
2
 72
1
 10
7.555
 20
-1.6565
 30
0.0
 11
1.0
 21
0.0
 31
0.0
 44
0.9
  1
2,615 kg.
 40
0.125
 41
1.8
  0
MTEXT
  5
26E
100
AcDbEntity
  8
0
100
AcDbMText
 62
2
  6
CONTINUOUS
  7
STANDARD
 71
2
 72
1
 10
1.5275
 20
-1.9065
 30
0.0
 11
1.0
 21
0.0
 31
0.0
 44
0.9
  1
Mounting Hole Diameter
 40
0.125
 41
4.4
  0
MTEXT
  5
26F
100
AcDbEntity
  8
0
100
AcDbMText
 62
2
  6
CONTINUOUS
  7
STANDARD
 71
2
 72
1
 10
4.555
 20
-1.9065
 30
0.0
 11
1.0
 21
0.0
 31
0.0
 44
0.9
  1
.42 in.
 40
0.125
 41
1.4
  0
MTEXT
  5
270
100
AcDbEntity
  8
0
100
AcDbMText
 62
2
  6
CONTINUOUS
  7
STANDARD
 71
2
 72
1
 10
7.555
 20
-1.9065
 30
0.0
 11
1.0
 21
0.0
 31
0.0
 44
0.9
  1
10,7 mm
 40
0.125
 41
1.4
  0
MTEXT
  5
271
100
AcDbEntity
  8
0
100
AcDbMText
 62
2
  6
CONTINUOUS
  7
STANDARD
 71
2
 72
1
 10
1.5275
 20
-2.1565
 30
0.0
 11
1.0
 21
0.0
 31
0.0
 44
0.9
  1
Mounting Hole Depth
 40
0.125
 41
3.8
  0
MTEXT
  5
272
100
AcDbEntity
  8
0
100
AcDbMText
 62
2
  6
CONTINUOUS
  7
STANDARD
 71
2
 72
1
 10
6.055
 20
-2.1565
 30
0.0
 11
1.0
 21
0.0
 31
0.0
 44
0.9
  1
Through
 40
0.125
 41
1.4
  0
MTEXT
  5
273
100
AcDbEntity
  8
0
100
AcDbMText
 62
2
  6
CONTINUOUS
  7
STANDARD
 71
2
 72
1
 10
1.5275
 20
-2.4065
 30
0.0
 11
1.0
 21
0.0
 31
0.0
 44
0.9
  1
Mounting Hole Quantity
 40
0.125
 41
4.4
  0
MTEXT
  5
274
100
AcDbEntity
  8
0
100
AcDbMText
 62
2
  6
CONTINUOUS
  7
STANDARD
 71
2
 72
1
 10
6.055
 20
-2.4065
 30
0.0
 11
1.0
 21
0.0
 31
0.0
 44
0.9
  1
2
 40
0.125
 41
0.2
  0
ENDBLK
  5
275
100
AcDbEntity
  8
0
  6
BYBLOCK
 62
0
100
AcDbBlockEnd
  0
BLOCK
  5
276
100
AcDbEntity
  8
0
100
AcDbBlockBegin
  2
*T3
 70
1
 10
0.0
 20
0.0
  3
*T3
  1

  0
LINE
  5
277
100
AcDbEntity
  8
0
100
AcDbLine
 62
2
  6
CONTINUOUS
 10
0.0
 20
0.0
 11
4.6
 21
0.0
  0
LINE
  5
278
100
AcDbEntity
  8
0
100
AcDbLine
 62
2
  6
CONTINUOUS
 10
0.0
 20
0.0
 11
0.0
 21
-0.93775
  0
LINE
  5
279
100
AcDbEntity
  8
0
100
AcDbLine
 62
2
  6
CONTINUOUS
 10
0.0
 20
-0.34375
 11
4.6
 21
-0.34375
  0
LINE
  5
27A
100
AcDbEntity
  8
0
100
AcDbLine
 62
2
  6
CONTINUOUS
 10
0.0
 20
-0.68775
 11
4.6
 21
-0.68775
  0
LINE
  5
27B
100
AcDbEntity
  8
0
100
AcDbLine
 62
2
  6
CONTINUOUS
 10
0.0
 20
-0.93775
 11
4.6
 21
-0.93775
  0
LINE
  5
27C
100
AcDbEntity
  8
0
100
AcDbLine
 62
2
  6
CONTINUOUS
 10
1.3
 20
-0.34375
 11
1.3
 21
-0.93775
  0
LINE
  5
27D
100
AcDbEntity
  8
0
100
AcDbLine
 62
2
  6
CONTINUOUS
 10
3.3
 20
-0.34375
 11
3.3
 21
-0.93775
  0
LINE
  5
27E
100
AcDbEntity
  8
0
100
AcDbLine
 62
2
  6
CONTINUOUS
 10
4.6
 20
0.0
 11
4.6
 21
-0.93775
  0
MTEXT
  5
27F
100
AcDbEntity
  8
0
100
AcDbMText
 62
2
  6
CONTINUOUS
  7
STANDARD
 71
2
 72
1
 10
2.3
 20
-0.099375
 30
0.0
 11
1.0
 21
0.0
 31
0.0
 44
0.9
  1
Port Headings
 40
0.145
 41
3.016
  0
MTEXT
  5
280
100
AcDbEntity
  8
0
100
AcDbMText
 62
2
  6
CONTINUOUS
  7
STANDARD
 71
2
 72
1
 10
0.65
 20
-0.44325
 30
0.0
 11
1.0
 21
0.0
 31
0.0
 44
0.9
  1
Product
 40
0.145
 41
1.624
  0
MTEXT
  5
281
100
AcDbEntity
  8
0
100
AcDbMText
 62
2
  6
CONTINUOUS
  7
STANDARD
 71
2
 72
1
 10
2.3
 20
-0.44325
 30
0.0
 11
1.0
 21
0.0
 31
0.0
 44
0.9
  1
Port
 40
0.145
 41
0.928
  0
MTEXT
  5
282
100
AcDbEntity
  8
0
100
AcDbMText
 62
2
  6
CONTINUOUS
  7
STANDARD
 71
2
 72
1
 10
3.95
 20
-0.44325
 30
0.0
 11
1.0
 21
0.0
 31
0.0
 44
0.9
  1
Size
 40
0.145
 41
0.928
  0
MTEXT
  5
283
100
AcDbEntity
  8
0
100
AcDbMText
 62
2
  6
CONTINUOUS
  7
STANDARD
 71
2
 72
1
 10
0.65
 20
-0.75025
 30
0.0
 11
1.0
 21
0.0
 31
0.0
 44
0.9
  1
PMX
 40
0.125
 41
0.6
  0
MTEXT
  5
284
100
AcDbEntity
  8
0
100
AcDbMText
 62
2
  6
CONTINUOUS
  7
STANDARD
 71
2
 72
1
 10
2.3
 20
-0.75025
 30
0.0
 11
1.0
 21
0.0
 31
0.0
 44
0.9
  1
All Ports
 40
0.125
 41
1.8
  0
MTEXT
  5
285
100
AcDbEntity
  8
0
100
AcDbMText
 62
2
  6
CONTINUOUS
  7
STANDARD
 71
2
 72
1
 10
3.95
 20
-0.75025
 30
0.0
 11
1.0
 21
0.0
 31
0.0
 44
0.9
  1
1" BSPP
 40
0.125
 41
1.4
  0
ENDBLK
  5
286
100
AcDbEntity
  8
0
  6
BYBLOCK
 62
0
100
AcDbBlockEnd
  0
ENDSEC
  0
SECTION
  2
ENTITIES
  0
IMAGE
  5
287
100
AcDbEntity
  8
0
100
AcDbRasterImage
 62
7
  6
CONTINUOUS
 10
19.2297077316
 20
0.3094318264
 30
0.0
 11
0.0066666667
 21
0.0
 31
0.0
 12
0.0
 22
0.0066666667
 32
0.0
 13
369.0
 23
92.0
340
       36F
 70
9
280
0
281
50
282
50
283
0
360
       369
 71
1
 91
2
 14
-0.5
 24
-0.5
 14
368.5
 24
91.5
  0
INSERT
  5
288
100
AcDbEntity
  8
0
100
AcDbBlockReference
 62
2
  6
CONTINUOUS
  2
SUN_FIRST_THIRD_ANGLE_BL0
 10
20.4816717061
 20
1.2289683772
  0
ACAD_TABLE
  5
289
100
AcDbEntity
  8
0
 62
2
  6
CONTINUOUS
100
AcDbBlockReference
  2
*T1
 10
12.42375
 20
0.30125
 30
0.0
100
AcDbTable
342
       371
343
20F
 11
1.0
 21
0.0
 31
0.0
 90
6
 91
4
 92
6
 93
20
 94
0
 95
0
 96
0
 70
1
 41
0.0
141
0.525
141
0.1
141
0.525
141
0.1
142
4.1
142
1.1
142
0.7
142
0.5
142
0.4
142
2.475
171
1
172
0
173
0
174
0
175
1
176
1
 91
33
178
0
145
0.0
301
CELL_VALUE
 90
4
  1
Flow divider-combiner manifold assembly
304
ACVALUE_END
170
2
140
0.125
171
1
172
0
173
0
174
0
175
1
176
1
 91
33
178
0
145
0.0
301
CELL_VALUE
 90
4
  1
Apr-17-20
304
ACVALUE_END
170
5
140
0.125
171
1
172
0
173
0
174
0
175
1
176
1
 91
33
178
0
145
0.0
301
CELL_VALUE
 90
4
  1
1.000
304
ACVALUE_END
170
5
140
0.125
171
1
172
0
173
0
174
0
175
1
176
1
 91
33
178
0
145
0.0
301
CELL_VALUE
 90
4
  1
C
304
ACVALUE_END
170
5
140
0.125
171
1
172
0
173
0
174
0
175
1
176
1
 91
33
178
0
145
0.0
301
CELL_VALUE
 90
4
  1
2
304
ACVALUE_END
170
5
140
0.125
171
1
172
0
173
0
174
0
175
1
176
1
 91
33
178
0
145
0.0
301
CELL_VALUE
 90
4
  1
 
304
ACVALUE_END
170
1
140
0.125
171
1
172
0
173
0
174
0
175
1
176
1
 91
33
178
0
145
0.0
301
CELL_VALUE
 90
4
  1
DESCRIPTION
304
ACVALUE_END
170
1
140
0.06
171
1
172
0
173
0
174
0
175
1
176
1
 91
33
178
0
145
0.0
301
CELL_VALUE
 90
4
  1
DATE
304
ACVALUE_END
170
1
140
0.06
171
1
172
0
173
0
174
0
175
1
176
1
 91
33
178
0
145
0.0
301
CELL_VALUE
 90
4
  1
SCALE
304
ACVALUE_END
170
1
140
0.06
171
1
172
0
173
0
174
0
175
1
176
1
 91
33
178
0
145
0.0
301
CELL_VALUE
 90
4
  1
DWG SIZE
304
ACVALUE_END
170
1
140
0.06
171
1
172
0
173
0
174
0
175
1
176
1
 91
33
178
0
145
0.0
301
CELL_VALUE
 90
4
  1
SHEET
304
ACVALUE_END
170
1
140
0.06
171
1
172
0
173
0
174
0
175
1
176
1
 91
33
178
0
145
0.0
301
CELL_VALUE
 90
4
  1
 
304
ACVALUE_END
170
1
140
0.125
171
1
172
0
173
0
174
0
175
1
176
1
 91
33
178
0
145
0.0
301
CELL_VALUE
 90
4
  1
FSEAXAN-PMX
304
ACVALUE_END
170
5
140
0.125
171
1
172
0
173
0
174
0
175
4
176
1
 91
33
178
0
145
0.0
301
CELL_VALUE
 90
4
  1
ALL DIMENSIONS IN INCH\PVIEWS ARE THIRD ANGLE
304
ACVALUE_END
170
5
140
0.12
171
1
172
0
173
1
174
0
175
1
176
1
 91
1
178
0
145
0.0
170
1
171
1
172
0
173
1
174
0
175
1
176
1
 91
1
178
0
145
0.0
170
1
171
1
172
0
173
1
174
0
175
1
176
1
 91
1
178
0
145
0.0
170
5
171
1
172
0
173
0
174
0
175
1
176
1
 91
33
178
0
145
0.0
301
CELL_VALUE
 90
4
  1
 
304
ACVALUE_END
170
1
140
0.125
171
1
172
0
173
0
174
0
175
1
176
1
 91
33
178
0
145
0.0
301
CELL_VALUE
 90
4
  1
MODEL
304
ACVALUE_END
170
1
140
0.06
171
1
172
0
173
0
174
0
175
1
176
1
 91
33
178
0
145
0.0
301
CELL_VALUE
 90
4
  1
 
304
ACVALUE_END
170
1
140
0.125
171
1
172
0
173
0
174
0
175
1
176
1
 91
33
178
0
145
0.0
301
CELL_VALUE
 90
4
  1
 
304
ACVALUE_END
170
1
140
0.125
171
1
172
0
173
0
174
0
175
1
176
1
 91
33
178
0
145
0.0
301
CELL_VALUE
 90
4
  1
 
304
ACVALUE_END
170
1
140
0.125
171
1
172
0
173
0
174
0
175
1
176
1
 91
33
178
0
145
0.0
301
CELL_VALUE
 90
4
  1
 
304
ACVALUE_END
170
1
140
0.125
171
1
172
0
173
0
174
0
175
1
176
1
 91
33
178
0
145
0.0
301
CELL_VALUE
 90
4
  1
 
304
ACVALUE_END
170
1
140
0.125
  0
ACAD_TABLE
  5
28A
100
AcDbEntity
  8
0
 62
2
  6
CONTINUOUS
100
AcDbBlockReference
  2
*T2
 10
12.4237499994
 20
16.47875
 30
0.0
100
AcDbTable
342
       370
343
210
 11
1.0
 21
0.0
 31
0.0
 90
22
 91
10
 92
3
 93
16
 94
0
 95
0
 96
0
 41
0.028
141
0.344
141
0.25
141
0.25
141
0.25
141
0.25
141
0.25
141
0.25
141
0.25
141
0.25
141
0.25
142
3.055
142
3.0
142
3.0
171
1
172
0
173
0
174
0
175
1
176
1
 91
33
178
0
145
0.0
301
CELL_VALUE
 90
4
  1
Technical Data
304
ACVALUE_END
170
5
140
0.145
171
1
172
0
173
0
174
0
175
1
176
1
 91
33
178
0
145
0.0
301
CELL_VALUE
 90
4
  1
U.S. Units
304
ACVALUE_END
170
5
140
0.145
171
1
172
0
173
0
174
0
175
1
176
1
 91
33
178
0
145
0.0
301
CELL_VALUE
 90
4
  1
Metric Units
304
ACVALUE_END
170
5
140
0.145
171
1
172
0
173
0
174
0
175
1
176
1
 91
33
178
0
145
0.0
301
CELL_VALUE
 90
4
  1
Cavity
304
ACVALUE_END
170
5
140
0.125
171
1
172
0
173
0
174
0
175
2
176
1
 91
33
178
0
145
0.0
301
CELL_VALUE
 90
4
  1
T-33A
304
ACVALUE_END
170
5
140
0.125
171
1
172
0
173
1
174
0
175
1
176
1
 91
1
178
0
145
0.0
170
1
171
1
172
0
173
0
174
0
175
1
176
1
 91
33
178
0
145
0.0
301
CELL_VALUE
 90
4
  1
Body Features
304
ACVALUE_END
170
5
140
0.125
171
1
172
0
173
0
174
0
175
2
176
1
 91
33
178
0
145
0.0
301
CELL_VALUE
 90
4
  1
Ninety degree
304
ACVALUE_END
170
5
140
0.125
171
1
172
0
173
1
174
0
175
1
176
1
 91
1
178
0
145
0.0
170
1
171
1
172
0
173
0
174
0
175
1
176
1
 91
33
178
0
145
0.0
301
CELL_VALUE
 90
4
  1
Body Type
304
ACVALUE_END
170
5
140
0.125
171
1
172
0
173
0
174
0
175
2
176
1
 91
33
178
0
145
0.0
301
CELL_VALUE
 90
4
  1
Line mount
304
ACVALUE_END
170
5
140
0.125
171
1
172
0
173
1
174
0
175
1
176
1
 91
1
178
0
145
0.0
170
1
171
1
172
0
173
0
174
0
175
1
176
1
 91
33
178
0
145
0.0
301
CELL_VALUE
 90
4
  1
Interface
304
ACVALUE_END
170
5
140
0.125
171
1
172
0
173
0
174
0
175
2
176
1
 91
33
178
0
145
0.0
301
CELL_VALUE
 90
4
  1
None
304
ACVALUE_END
170
5
140
0.125
171
1
172
0
173
1
174
0
175
1
176
1
 91
1
178
0
145
0.0
170
1
171
1
172
0
173
0
174
0
175
1
176
1
 91
33
178
0
145
0.0
301
CELL_VALUE
 90
4
  1
Open Cavity Quantity
304
ACVALUE_END
170
5
140
0.125
171
1
172
0
173
0
174
0
175
2
176
1
 91
33
178
0
145
0.0
301
CELL_VALUE
 90
4
  1
1
304
ACVALUE_END
170
5
140
0.125
171
1
172
0
173
1
174
0
175
1
176
1
 91
1
178
0
145
0.0
170
1
171
1
172
0
173
0
174
0
175
1
176
1
 91
33
178
0
145
0.0
301
CELL_VALUE
 90
4
  1
Weight
304
ACVALUE_END
170
5
140
0.125
171
1
172
0
173
0
174
0
175
1
176
1
 91
33
178
0
145
0.0
301
CELL_VALUE
 90
4
  1
5.766 lb.
304
ACVALUE_END
170
5
140
0.125
171
1
172
0
173
0
174
0
175
1
176
1
 91
33
178
0
145
0.0
301
CELL_VALUE
 90
4
  1
2,615 kg.
304
ACVALUE_END
170
5
140
0.125
171
1
172
0
173
0
174
0
175
1
176
1
 91
33
178
0
145
0.0
301
CELL_VALUE
 90
4
  1
Mounting Hole Diameter
304
ACVALUE_END
170
5
140
0.125
171
1
172
0
173
0
174
0
175
1
176
1
 91
33
178
0
145
0.0
301
CELL_VALUE
 90
4
  1
.42 in.
304
ACVALUE_END
170
5
140
0.125
171
1
172
0
173
0
174
0
175
1
176
1
 91
33
178
0
145
0.0
301
CELL_VALUE
 90
4
  1
10,7 mm
304
ACVALUE_END
170
5
140
0.125
171
1
172
0
173
0
174
0
175
1
176
1
 91
33
178
0
145
0.0
301
CELL_VALUE
 90
4
  1
Mounting Hole Depth
304
ACVALUE_END
170
5
140
0.125
171
1
172
0
173
0
174
0
175
2
176
1
 91
33
178
0
145
0.0
301
CELL_VALUE
 90
4
  1
Through
304
ACVALUE_END
170
5
140
0.125
171
1
172
0
173
1
174
0
175
1
176
1
 91
1
178
0
145
0.0
170
1
171
1
172
0
173
0
174
0
175
1
176
1
 91
33
178
0
145
0.0
301
CELL_VALUE
 90
4
  1
Mounting Hole Quantity
304
ACVALUE_END
170
5
140
0.125
171
1
172
0
173
0
174
0
175
2
176
1
 91
33
178
0
145
0.0
301
CELL_VALUE
 90
4
  1
2
304
ACVALUE_END
170
5
140
0.125
171
1
172
0
173
1
174
0
175
1
176
1
 91
1
178
0
145
0.0
170
1
  0
ACAD_TABLE
  5
28B
100
AcDbEntity
  8
0
 62
2
  6
CONTINUOUS
100
AcDbBlockReference
  2
*T3
 10
0.52125
 20
1.459
 30
0.0
100
AcDbTable
342
       370
343
211
 11
1.0
 21
0.0
 31
0.0
 90
22
 91
3
 92
3
 93
16
 94
0
 95
0
 96
0
 41
0.05
141
0.34375
141
0.344
141
0.25
142
1.3
142
2.0
142
1.3
171
1
172
0
173
0
174
0
175
3
176
1
 91
33
178
0
145
0.0
301
CELL_VALUE
 90
4
  1
Port Headings
304
ACVALUE_END
170
5
140
0.145
171
1
172
0
173
1
174
0
175
1
176
1
 91
1
178
0
145
0.0
170
1
171
1
172
0
173
1
174
0
175
1
176
1
 91
1
178
0
145
0.0
170
1
171
1
172
0
173
0
174
0
175
1
176
1
 91
33
178
0
145
0.0
301
CELL_VALUE
 90
4
  1
Product
304
ACVALUE_END
170
5
140
0.145
171
1
172
0
173
0
174
0
175
1
176
1
 91
33
178
0
145
0.0
301
CELL_VALUE
 90
4
  1
Port
304
ACVALUE_END
170
5
140
0.145
171
1
172
0
173
0
174
0
175
1
176
1
 91
33
178
0
145
0.0
301
CELL_VALUE
 90
4
  1
Size
304
ACVALUE_END
170
5
140
0.145
171
1
172
0
173
0
174
0
175
1
176
1
 91
33
178
0
145
0.0
301
CELL_VALUE
 90
4
  1
PMX
304
ACVALUE_END
170
5
140
0.125
171
1
172
0
173
0
174
0
175
1
176
1
 91
33
178
0
145
0.0
301
CELL_VALUE
 90
4
  1
All Ports
304
ACVALUE_END
170
5
140
0.125
171
1
172
0
173
0
174
0
175
1
176
1
 91
33
178
0
145
0.0
301
CELL_VALUE
 90
4
  1
1" BSPP
304
ACVALUE_END
170
5
140
0.125
  0
MTEXT
  5
28C
100
AcDbEntity
  8
0
100
AcDbMText
 62
2
  6
CONTINUOUS
  7
STANDARD
 71
1
 72
1
 10
0.52125
 20
5.75995
 30
0.0
 11
1.0
 21
0.0
 31
0.0
 44
0.6
  3
Notes\P \P1. Important: Carefully consider\P   the maximum system pressure. The\P   pressure rating of the manifold is\P   dependent on the manifold material,\P   with the port type/size a secondary\P   consideration. Manifolds\P   constructed of alu
  1
minum are not\P   rated for pressures higher than\P   3000 psi (210 bar), regardless of\P   the port type/size specified.
 40
0.1
 41
3.04
  0
LINE
  5
28D
100
AcDbEntity
  8
0
100
AcDbLine
 62
7
  6
CONTINUOUS
 10
0.30125
 20
0.30125
 11
0.30125
 21
16.69875
  0
LINE
  5
28E
100
AcDbEntity
  8
0
100
AcDbLine
 62
7
  6
CONTINUOUS
 10
0.30125
 20
0.30125
 11
21.69875
 21
0.30125
  0
LINE
  5
28F
100
AcDbEntity
  8
0
100
AcDbLine
 62
7
  6
CONTINUOUS
 10
0.30125
 20
16.69875
 11
21.69875
 21
16.69875
  0
LINE
  5
290
100
AcDbEntity
  8
0
100
AcDbLine
 62
7
  6
CONTINUOUS
 10
21.69875
 20
0.30125
 11
21.69875
 21
16.69875
  0
LINE
  5
291
100
AcDbEntity
  8
0
100
AcDbLine
 62
7
  6
CONTINUOUS
 10
8.7769770475
 20
11.6519313096
 11
9.3593194184
 21
12.2144308787
  0
LINE
  5
292
100
AcDbEntity
  8
0
100
AcDbLine
 62
7
  6
CONTINUOUS
 10
10.4197116702
 20
4.8868536117
 11
10.4508150479
 21
4.8714891387
  0
LINE
  5
293
100
AcDbEntity
  8
0
100
AcDbLine
 62
7
  6
CONTINUOUS
 10
12.6406805816
 20
5.4068329969
 11
8.7769770475
 21
5.6747817471
  0
LINE
  5
294
100
AcDbEntity
  8
0
100
AcDbLine
 62
7
  6
CONTINUOUS
 10
8.7769770475
 20
5.6747817471
 11
8.7769770475
 21
11.6519313096
  0
LINE
  5
295
100
AcDbEntity
  8
0
100
AcDbLine
 62
4
  6
CONTINUOUS
 10
8.9605029667
 20
9.1876836607
 11
8.9605029667
 21
9.2070021733
  0
LINE
  5
296
100
AcDbEntity
  8
0
100
AcDbLine
 62
4
  6
CONTINUOUS
 10
8.9677474106
 20
6.9269146296
 11
8.9677474106
 21
6.8110035262
  0
LINE
  5
297
100
AcDbEntity
  8
0
100
AcDbLine
 62
4
  6
CONTINUOUS
 10
9.0112140744
 20
9.2517816415
 11
9.0184585184
 21
9.2802570134
  0
LINE
  5
298
100
AcDbEntity
  8
0
100
AcDbLine
 62
4
  6
CONTINUOUS
 10
8.9605029667
 20
9.2070021733
 11
8.9677474106
 21
9.2161590326
  0
LINE
  5
299
100
AcDbEntity
  8
0
100
AcDbLine
 62
4
  6
CONTINUOUS
 10
8.9967251865
 20
9.2334679332
 11
9.0112140744
 21
9.2517816415
  0
LINE
  5
29A
100
AcDbEntity
  8
0
100
AcDbLine
 62
4
  6
CONTINUOUS
 10
9.0184585184
 20
9.1836644295
 11
9.0112140744
 21
9.1745075702
  0
LINE
  5
29B
100
AcDbEntity
  8
0
100
AcDbLine
 62
4
  6
CONTINUOUS
 10
9.0184585184
 20
6.8944200265
 11
8.9532585227
 21
6.8989416615
  0
LINE
  5
29C
100
AcDbEntity
  8
0
100
AcDbLine
 62
4
  6
CONTINUOUS
 10
8.9677474106
 20
9.2161590326
 11
8.9967251865
 21
9.2334679332
  0
LINE
  5
29D
100
AcDbEntity
  8
0
100
AcDbLine
 62
4
  6
CONTINUOUS
 10
9.0112140744
 20
9.1745075702
 11
8.9967251865
 21
9.1658531217
  0
LINE
  5
29E
100
AcDbEntity
  8
0
100
AcDbLine
 62
4
  6
CONTINUOUS
 10
8.9677474106
 20
9.1775219936
 11
8.9605029667
 21
9.1876836607
  0
LINE
  5
29F
100
AcDbEntity
  8
0
100
AcDbLine
 62
4
  6
CONTINUOUS
 10
8.9677474106
 20
6.8110035262
 11
9.0184585184
 21
6.8944200265
  0
LINE
  5
2A0
100
AcDbEntity
  8
0
100
AcDbLine
 62
7
  6
CONTINUOUS
 10
12.6406805816
 20
11.3839825595
 11
13.2230229525
 21
11.9464821286
  0
LINE
  5
2A1
100
AcDbEntity
  8
0
100
AcDbLine
 62
4
  6
CONTINUOUS
 10
11.4277536727
 20
7.60632745
 11
11.3946362148
 21
7.6086241535
  0
LINE
  5
2A2
100
AcDbEntity
  8
0
100
AcDbLine
 62
4
  6
CONTINUOUS
 10
10.5280627409
 20
7.668721228
 11
10.5253029633
 21
7.6689126192
  0
LINE
  5
2A3
100
AcDbEntity
  8
0
100
AcDbLine
 62
4
  6
CONTINUOUS
 10
11.0800203711
 20
7.6635602925
 11
11.0386235405
 21
7.6664311724
  0
LINE
  5
2A4
100
AcDbEntity
  8
0
100
AcDbLine
 62
4
  6
CONTINUOUS
 10
10.9089134936
 20
7.6754265947
 11
10.8757960512
 21
7.6777232972
  0
LINE
  5
2A5
100
AcDbEntity
  8
0
100
AcDbLine
 62
4
  6
CONTINUOUS
 10
10.8426785536
 20
7.6800200034
 11
10.8095611113
 21
7.6823167059
  0
LINE
  5
2A6
100
AcDbEntity
  8
0
100
AcDbLine
 62
4
  6
CONTINUOUS
 10
10.4756267998
 20
7.705475129
 11
10.4425092469
 21
7.7077718391
  0
LINE
  5
2A7
100
AcDbEntity
  8
0
100
AcDbLine
 62
4
  6
CONTINUOUS
 10
10.4011124716
 20
7.7106427152
 11
10.3679950293
 21
7.7129394177
  0
LINE
  5
2A8
100
AcDbEntity
  8
0
100
AcDbLine
 62
4
  6
CONTINUOUS
 10
10.7267674502
 20
7.6880584658
 11
10.7681642807
 21
7.6851875858
  0
LINE
  5
2A9
100
AcDbEntity
  8
0
100
AcDbLine
 62
4
  6
CONTINUOUS
 10
10.3679950293
 20
7.7570960293
 11
10.4011124716
 21
7.7492797509
  0
LINE
  5
2AA
100
AcDbEntity
  8
0
100
AcDbLine
 62
4
  6
CONTINUOUS
 10
10.3597156964
 20
7.763189779
 11
10.3679950293
 21
7.7570960293
  0
LINE
  5
2AB
100
AcDbEntity
  8
0
100
AcDbLine
 62
4
  6
CONTINUOUS
 10
10.4011124716
 20
7.7492797509
 11
10.4093918046
 21
7.7431860011
  0
LINE
  5
2AC
100
AcDbEntity
  8
0
100
AcDbLine
 62
4
  6
CONTINUOUS
 10
10.3679950293
 20
7.7129394177
 11
10.3597156964
 21
7.7217929588
  0
LINE
  5
2AD
100
AcDbEntity
  8
0
100
AcDbLine
 62
4
  6
CONTINUOUS
 10
10.4093918046
 20
7.7845828239
 11
10.4011124716
 21
7.7934363625
  0
LINE
  5
2AE
100
AcDbEntity
  8
0
100
AcDbLine
 62
4
  6
CONTINUOUS
 10
10.4756267998
 20
7.7882687763
 11
10.4839061327
 21
7.7794152377
  0
LINE
  5
2AF
100
AcDbEntity
  8
0
100
AcDbLine
 62
7
  6
CONTINUOUS
 10
10.3096522386
 20
5.5684903616
 11
10.3096522386
 21
4.9537814463
  0
LINE
  5
2B0
100
AcDbEntity
  8
0
100
AcDbLine
 62
7
  6
CONTINUOUS
 10
10.3213624215
 20
5.5676782576
 11
10.3213624215
 21
4.9424702976
  0
LINE
  5
2B1
100
AcDbEntity
  8
0
100
AcDbLine
 62
4
  6
CONTINUOUS
 10
10.3597156964
 20
7.7880278737
 11
10.3597156964
 21
7.763189779
  0
LINE
  5
2B2
100
AcDbEntity
  8
0
100
AcDbLine
 62
4
  6
CONTINUOUS
 10
10.4093918046
 20
7.7431860011
 11
10.4093918046
 21
7.718347909
  0
LINE
  5
2B3
100
AcDbEntity
  8
0
100
AcDbLine
 62
4
  6
CONTINUOUS
 10
10.7516055596
 20
7.7277327607
 11
10.7184881173
 21
7.7300294631
  0
LINE
  5
2B4
100
AcDbEntity
  8
0
100
AcDbLine
 62
4
  6
CONTINUOUS
 10
11.4360330376
 20
7.7216643775
 11
11.4029155789
 21
7.7239610811
  0
LINE
  5
2B5
100
AcDbEntity
  8
0
100
AcDbLine
 62
4
  6
CONTINUOUS
 10
11.3366806666
 20
7.7285544878
 11
11.3118425641
 21
7.7302770161
  0
LINE
  5
2B6
100
AcDbEntity
  8
0
100
AcDbLine
 62
4
  6
CONTINUOUS
 10
10.6770912867
 20
7.7742971667
 11
10.6356944562
 21
7.7771680466
  0
LINE
  5
2B7
100
AcDbEntity
  8
0
100
AcDbLine
 62
4
  6
CONTINUOUS
 10
10.4011124716
 20
7.7934363625
 11
10.3679950293
 21
7.7957330649
  0
LINE
  5
2B8
100
AcDbEntity
  8
0
100
AcDbLine
 62
4
  6
CONTINUOUS
 10
10.4425092469
 20
7.7905654864
 11
10.4756267998
 21
7.7882687763
  0
LINE
  5
2B9
100
AcDbEntity
  8
0
100
AcDbLine
 62
4
  6
CONTINUOUS
 10
10.5777389044
 20
7.7811872778
 11
10.5942976256
 21
7.7800389266
  0
LINE
  5
2BA
100
AcDbEntity
  8
0
100
AcDbLine
 62
4
  6
CONTINUOUS
 10
10.7184881173
 20
7.7714262867
 11
10.7516055596
 21
7.7691295843
  0
LINE
  5
2BB
100
AcDbEntity
  8
0
100
AcDbLine
 62
4
  6
CONTINUOUS
 10
10.8757960512
 20
7.7605169445
 11
10.9089134936
 21
7.758220242
  0
LINE
  5
2BC
100
AcDbEntity
  8
0
100
AcDbLine
 62
4
  6
CONTINUOUS
 10
10.99722671
 20
7.7796935815
 11
10.9806679888
 21
7.7808419327
  0
LINE
  5
2BD
100
AcDbEntity
  8
0
100
AcDbLine
 62
4
  6
CONTINUOUS
 10
12.3774657788
 20
7.7819461086
 11
12.3629768909
 21
7.7829509164
  0
LINE
  5
2BE
100
AcDbEntity
  8
0
100
AcDbLine
 62
4
  6
CONTINUOUS
 10
12.3774657788
 20
7.830242404
 11
12.3629768909
 21
7.8312472118
  0
LINE
  5
2BF
100
AcDbEntity
  8
0
100
AcDbLine
 62
4
  6
CONTINUOUS
 10
10.7516055596
 20
7.7691295843
 11
10.7681642807
 21
7.7597018682
  0
LINE
  5
2C0
100
AcDbEntity
  8
0
100
AcDbLine
 62
4
  6
CONTINUOUS
 10
10.9089134936
 20
7.758220242
 11
10.9254722147
 21
7.7487925259
  0
LINE
  5
2C1
100
AcDbEntity
  8
0
100
AcDbLine
 62
4
  6
CONTINUOUS
 10
8.9822362986
 20
9.1668579295
 11
8.9677474106
 21
9.1775219936
  0
LINE
  5
2C2
100
AcDbEntity
  8
0
100
AcDbLine
 62
4
  6
CONTINUOUS
 10
10.5942976256
 20
7.7800389266
 11
10.6025770138
 21
7.7711853842
  0
LINE
  5
2C3
100
AcDbEntity
  8
0
100
AcDbLine
 62
4
  6
CONTINUOUS
 10
10.6853706749
 20
7.7654436243
 11
10.6770912867
 21
7.7742971667
  0
LINE
  5
2C4
100
AcDbEntity
  8
0
100
AcDbLine
 62
4
  6
CONTINUOUS
 10
11.0386235405
 20
7.6664311724
 11
11.0303441799
 21
7.6752847155
  0
LINE
  5
2C5
100
AcDbEntity
  8
0
100
AcDbLine
 62
4
  6
CONTINUOUS
 10
10.8095611113
 20
7.6823167059
 11
10.804041556
 21
7.6909788558
  0
LINE
  5
2C6
100
AcDbEntity
  8
0
100
AcDbLine
 62
4
  6
CONTINUOUS
 10
10.7184881173
 20
7.7051913675
 11
10.7267674502
 21
7.6880584658
  0
LINE
  5
2C7
100
AcDbEntity
  8
0
100
AcDbLine
 62
4
  6
CONTINUOUS
 10
10.4839061327
 20
7.7794152377
 11
10.4839061327
 21
7.7131803228
  0
LINE
  5
2C8
100
AcDbEntity
  8
0
100
AcDbLine
 62
4
  6
CONTINUOUS
 10
10.5280627409
 20
7.7846323314
 11
10.5280627409
 21
7.7018386842
  0
LINE
  5
2C9
100
AcDbEntity
  8
0
100
AcDbLine
 62
4
  6
CONTINUOUS
 10
10.5280627409
 20
7.6770005955
 11
10.5280627409
 21
7.668721228
  0
LINE
  5
2CA
100
AcDbEntity
  8
0
100
AcDbLine
 62
4
  6
CONTINUOUS
 10
10.54738122
 20
8.3744392179
 11
10.54738122
 21
8.2585281144
  0
LINE
  5
2CB
100
AcDbEntity
  8
0
100
AcDbLine
 62
4
  6
CONTINUOUS
 10
10.5942976611
 20
8.2718331763
 11
10.5942976611
 21
8.3546268218
  0
LINE
  5
2CC
100
AcDbEntity
  8
0
100
AcDbLine
 62
4
  6
CONTINUOUS
 10
10.6025770138
 20
7.7711853842
 11
10.6025770138
 21
7.6635536456
  0
LINE
  5
2CD
100
AcDbEntity
  8
0
100
AcDbLine
 62
4
  6
CONTINUOUS
 10
10.6356944562
 20
7.7771680466
 11
10.6356944562
 21
7.6943743993
  0
LINE
  5
2CE
100
AcDbEntity
  8
0
100
AcDbLine
 62
4
  6
CONTINUOUS
 10
10.6522532128
 20
8.3671663205
 11
10.6522532128
 21
8.251255217
  0
LINE
  5
2CF
100
AcDbEntity
  8
0
100
AcDbLine
 62
4
  6
CONTINUOUS
 10
10.6853706749
 20
7.6909293419
 11
10.6853706749
 21
7.7654436243
  0
LINE
  5
2D0
100
AcDbEntity
  8
0
100
AcDbLine
 62
4
  6
CONTINUOUS
 10
10.6853706551
 20
8.2655172427
 11
10.6853706551
 21
8.3483108882
  0
LINE
  5
2D1
100
AcDbEntity
  8
0
100
AcDbLine
 62
4
  6
CONTINUOUS
 10
10.7184881173
 20
7.7714262867
 11
10.7184881173
 21
7.7051913675
  0
LINE
  5
2D2
100
AcDbEntity
  8
0
100
AcDbLine
 62
4
  6
CONTINUOUS
 10
10.7433262069
 20
8.3442916571
 11
10.7433262069
 21
8.2614980115
  0
LINE
  5
2D3
100
AcDbEntity
  8
0
100
AcDbLine
 62
4
  6
CONTINUOUS
 10
11.0303441338
 20
7.970030095
 11
10.9889473102
 21
7.9729009745
  0
LINE
  5
2D4
100
AcDbEntity
  8
0
100
AcDbLine
 62
4
  6
CONTINUOUS
 10
12.3629768909
 20
7.8988620198
 11
12.3774657788
 21
7.897857212
  0
LINE
  5
2D5
100
AcDbEntity
  8
0
100
AcDbLine
 62
4
  6
CONTINUOUS
 10
10.9889473102
 20
8.0391358903
 11
11.0303441338
 21
8.0362650108
  0
LINE
  5
2D6
100
AcDbEntity
  8
0
100
AcDbLine
 62
4
  6
CONTINUOUS
 10
11.3173621342
 20
8.2051297567
 11
11.2759653174
 21
8.2080006357
  0
LINE
  5
2D7
100
AcDbEntity
  8
0
100
AcDbLine
 62
4
  6
CONTINUOUS
 10
11.1131378212
 20
8.2192927609
 11
11.046902909
 21
8.2238861676
  0
LINE
  5
2D8
100
AcDbEntity
  8
0
100
AcDbLine
 62
4
  6
CONTINUOUS
 10
11.013785439
 20
8.226182872
 11
10.9641092479
 21
8.2296279275
  0
LINE
  5
2D9
100
AcDbEntity
  8
0
100
AcDbLine
 62
4
  6
CONTINUOUS
 10
10.823360035
 20
8.2393889186
 11
10.7902425927
 21
8.241685621
  0
LINE
  5
2DA
100
AcDbEntity
  8
0
100
AcDbLine
 62
4
  6
CONTINUOUS
 10
10.7267674857
 20
8.2460876347
 11
10.7019293763
 21
8.2478101634
  0
LINE
  5
2DB
100
AcDbEntity
  8
0
100
AcDbLine
 62
4
  6
CONTINUOUS
 10
10.6522532128
 20
8.251255217
 11
10.6108563823
 21
8.254126097
  0
LINE
  5
2DC
100
AcDbEntity
  8
0
100
AcDbLine
 62
4
  6
CONTINUOUS
 10
10.54738122
 20
8.2585281144
 11
10.4977050565
 21
8.2619731681
  0
LINE
  5
2DD
100
AcDbEntity
  8
0
100
AcDbLine
 62
4
  6
CONTINUOUS
 10
10.4645876141
 20
8.3084264787
 11
10.4204310059
 21
8.3335670574
  0
LINE
  5
2DE
100
AcDbEntity
  8
0
100
AcDbLine
 62
4
  6
CONTINUOUS
 10
11.3863568508
 20
7.6919919731
 11
11.4443124025
 21
7.6382965543
  0
LINE
  5
2DF
100
AcDbEntity
  8
0
100
AcDbLine
 62
4
  6
CONTINUOUS
 10
10.6108563823
 20
8.254126097
 11
10.5942976611
 21
8.2718331763
  0
LINE
  5
2E0
100
AcDbEntity
  8
0
100
AcDbLine
 62
4
  6
CONTINUOUS
 10
10.7019293763
 20
8.2478101634
 11
10.6853706551
 21
8.2655172427
  0
LINE
  5
2E1
100
AcDbEntity
  8
0
100
AcDbLine
 62
4
  6
CONTINUOUS
 10
10.9889473102
 20
7.9729009745
 11
10.9723885821
 21
7.9906080543
  0
LINE
  5
2E2
100
AcDbEntity
  8
0
100
AcDbLine
 62
4
  6
CONTINUOUS
 10
11.3946362148
 20
7.6086241535
 11
11.3863568508
 21
7.6174776968
  0
LINE
  5
2E3
100
AcDbEntity
  8
0
100
AcDbLine
 62
4
  6
CONTINUOUS
 10
10.7267674857
 20
8.3619987381
 11
10.7433262069
 21
8.3442916571
  0
LINE
  5
2E4
100
AcDbEntity
  8
0
100
AcDbLine
 62
4
  6
CONTINUOUS
 10
11.3532393947
 20
7.7108474063
 11
11.3366806666
 21
7.7285544878
  0
LINE
  5
2E5
100
AcDbEntity
  8
0
100
AcDbLine
 62
4
  6
CONTINUOUS
 10
10.8399187437
 20
7.9832361407
 11
10.7736838452
 21
8.1037406499
  0
LINE
  5
2E6
100
AcDbEntity
  8
0
100
AcDbLine
 62
4
  6
CONTINUOUS
 10
10.939271126
 20
7.9763460296
 11
10.9061536698
 21
8.0448776487
  0
LINE
  5
2E7
100
AcDbEntity
  8
0
100
AcDbLine
 62
4
  6
CONTINUOUS
 10
10.7681642807
 20
7.7597018682
 11
10.7681642807
 21
7.7348637735
  0
LINE
  5
2E8
100
AcDbEntity
  8
0
100
AcDbLine
 62
7
  6
CONTINUOUS
 10
10.7947394003
 20
5.4902196475
 11
10.7947394003
 21
4.8199514752
  0
LINE
  5
2E9
100
AcDbEntity
  8
0
100
AcDbLine
 62
4
  6
CONTINUOUS
 10
10.804041556
 20
7.6909788558
 11
10.804041556
 21
7.7075375839
  0
LINE
  5
2EA
100
AcDbEntity
  8
0
100
AcDbLine
 62
7
  6
CONTINUOUS
 10
10.8384423644
 20
5.4871888366
 11
10.8384423644
 21
4.8169206644
  0
LINE
  5
2EB
100
AcDbEntity
  8
0
100
AcDbLine
 62
4
  6
CONTINUOUS
 10
10.8399187562
 20
8.337592941
 11
10.8399187562
 21
8.2547992955
  0
LINE
  5
2EC
100
AcDbEntity
  8
0
100
AcDbLine
 62
4
  6
CONTINUOUS
 10
10.8426785536
 20
7.7628136507
 11
10.8426785536
 21
7.6800200034
  0
LINE
  5
2ED
100
AcDbEntity
  8
0
100
AcDbLine
 62
4
  6
CONTINUOUS
 10
10.8730362137
 20
7.9809394364
 11
10.8730362137
 21
8.0968505398
  0
LINE
  5
2EE
100
AcDbEntity
  8
0
100
AcDbLine
 62
4
  6
CONTINUOUS
 10
10.8757960512
 20
7.644605841
 11
10.8757960512
 21
7.7605169445
  0
LINE
  5
2EF
100
AcDbEntity
  8
0
100
AcDbLine
 62
4
  6
CONTINUOUS
 10
10.9254722147
 20
7.7487925259
 11
10.9254722147
 21
7.682557611
  0
LINE
  5
2F0
100
AcDbEntity
  8
0
100
AcDbLine
 62
4
  6
CONTINUOUS
 10
10.939271126
 20
8.092257133
 11
10.939271126
 21
7.9763460296
  0
LINE
  5
2F1
100
AcDbEntity
  8
0
100
AcDbLine
 62
4
  6
CONTINUOUS
 10
10.9723885821
 20
7.9906080543
 11
10.9723885821
 21
8.0237255104
  0
LINE
  5
2F2
100
AcDbEntity
  8
0
100
AcDbLine
 62
4
  6
CONTINUOUS
 10
11.013785439
 20
8.3420939754
 11
11.013785439
 21
8.226182872
  0
LINE
  5
2F3
100
AcDbEntity
  8
0
100
AcDbLine
 62
4
  6
CONTINUOUS
 10
11.0303441338
 20
8.0859411985
 11
11.0303441338
 21
7.970030095
  0
LINE
  5
2F4
100
AcDbEntity
  8
0
100
AcDbLine
 62
4
  6
CONTINUOUS
 10
11.0303441799
 20
7.6752847155
 11
11.0303441799
 21
7.7497989953
  0
LINE
  5
2F5
100
AcDbEntity
  8
0
100
AcDbLine
 62
4
  6
CONTINUOUS
 10
10.5253029633
 20
7.6689126192
 11
10.5280627409
 21
7.6770005955
  0
LINE
  5
2F6
100
AcDbEntity
  8
0
100
AcDbLine
 62
4
  6
CONTINUOUS
 10
10.5942976611
 20
8.3546268218
 11
10.6108563823
 21
8.3700372004
  0
LINE
  5
2F7
100
AcDbEntity
  8
0
100
AcDbLine
 62
4
  6
CONTINUOUS
 10
10.6853706551
 20
8.3483108882
 11
10.7019293763
 21
8.3637212668
  0
LINE
  5
2F8
100
AcDbEntity
  8
0
100
AcDbLine
 62
4
  6
CONTINUOUS
 10
10.7433262069
 20
8.2614980115
 11
10.7267674857
 21
8.2460876347
  0
LINE
  5
2F9
100
AcDbEntity
  8
0
100
AcDbLine
 62
4
  6
CONTINUOUS
 10
10.4204310059
 20
8.3335670574
 11
10.4645876141
 21
8.3525830921
  0
LINE
  5
2FA
100
AcDbEntity
  8
0
100
AcDbLine
 62
4
  6
CONTINUOUS
 10
10.5142637776
 20
8.3105010011
 11
10.54738122
 21
8.3082042987
  0
LINE
  5
2FB
100
AcDbEntity
  8
0
100
AcDbLine
 62
4
  6
CONTINUOUS
 10
10.980667969
 20
8.2781557606
 11
11.013785439
 21
8.2758590562
  0
LINE
  5
2FC
100
AcDbEntity
  8
0
100
AcDbLine
 62
4
  6
CONTINUOUS
 10
11.2014510376
 20
8.2959618623
 11
11.1572944294
 21
8.2990241335
  0
LINE
  5
2FD
100
AcDbEntity
  8
0
100
AcDbLine
 62
4
  6
CONTINUOUS
 10
11.013785439
 20
8.3420939754
 11
10.9641092479
 21
8.345539031
  0
LINE
  5
2FE
100
AcDbEntity
  8
0
100
AcDbLine
 62
4
  6
CONTINUOUS
 10
10.54738122
 20
8.3744392179
 11
10.4977050565
 21
8.3778842715
  0
LINE
  5
2FF
100
AcDbEntity
  8
0
100
AcDbLine
 62
4
  6
CONTINUOUS
 10
10.6108563823
 20
8.3700372004
 11
10.6522532128
 21
8.3671663205
  0
LINE
  5
300
100
AcDbEntity
  8
0
100
AcDbLine
 62
4
  6
CONTINUOUS
 10
10.7019293763
 20
8.3637212668
 11
10.7267674857
 21
8.3619987381
  0
LINE
  5
301
100
AcDbEntity
  8
0
100
AcDbLine
 62
4
  6
CONTINUOUS
 10
10.7902425927
 20
8.3575967245
 11
10.823360035
 21
8.355300022
  0
LINE
  5
302
100
AcDbEntity
  8
0
100
AcDbLine
 62
4
  6
CONTINUOUS
 10
11.2759653174
 20
8.3239117391
 11
11.3173621342
 21
8.3210408601
  0
LINE
  5
303
100
AcDbEntity
  8
0
100
AcDbLine
 62
4
  6
CONTINUOUS
 10
11.3835970534
 20
8.2667712652
 11
11.3394404417
 21
8.2919118424
  0
LINE
  5
304
100
AcDbEntity
  8
0
100
AcDbLine
 62
4
  6
CONTINUOUS
 10
10.823360035
 20
8.355300022
 11
10.8399187562
 21
8.337592941
  0
LINE
  5
305
100
AcDbEntity
  8
0
100
AcDbLine
 62
4
  6
CONTINUOUS
 10
11.4443124025
 20
7.7128108367
 11
11.4360330376
 21
7.7216643775
  0
LINE
  5
306
100
AcDbEntity
  8
0
100
AcDbLine
 62
4
  6
CONTINUOUS
 10
11.2759653174
 20
8.2080006357
 11
11.2594065894
 21
8.2257077154
  0
LINE
  5
307
100
AcDbEntity
  8
0
100
AcDbLine
 62
4
  6
CONTINUOUS
 10
11.2621663868
 20
7.6178109672
 11
11.2042108351
 21
7.7377413018
  0
LINE
  5
308
100
AcDbEntity
  8
0
100
AcDbLine
 62
4
  6
CONTINUOUS
 10
10.99722671
 20
7.6693020524
 11
10.9723886006
 21
7.7538182284
  0
LINE
  5
309
100
AcDbEntity
  8
0
100
AcDbLine
 62
4
  6
CONTINUOUS
 10
11.0800203513
 20
8.3375005686
 11
11.0800203513
 21
8.2215894652
  0
LINE
  5
30A
100
AcDbEntity
  8
0
100
AcDbLine
 62
4
  6
CONTINUOUS
 10
11.0800203711
 20
7.7463539398
 11
11.0800203711
 21
7.6304428363
  0
LINE
  5
30B
100
AcDbEntity
  8
0
100
AcDbLine
 62
4
  6
CONTINUOUS
 10
11.2042108351
 20
7.7377413018
 11
11.2042108351
 21
7.6218301984
  0
LINE
  5
30C
100
AcDbEntity
  8
0
100
AcDbLine
 62
4
  6
CONTINUOUS
 10
11.2594065894
 20
8.2257077154
 11
11.2594065894
 21
8.308501361
  0
LINE
  5
30D
100
AcDbEntity
  8
0
100
AcDbLine
 62
4
  6
CONTINUOUS
 10
11.2621663868
 20
7.7337220707
 11
11.2621663868
 21
7.6178109672
  0
LINE
  5
30E
100
AcDbEntity
  8
0
100
AcDbLine
 62
4
  6
CONTINUOUS
 10
11.2952838429
 20
7.7148666375
 11
11.2952838429
 21
7.6155142639
  0
LINE
  5
30F
100
AcDbEntity
  8
0
100
AcDbLine
 62
4
  6
CONTINUOUS
 10
11.3173621342
 20
8.3210408601
 11
11.3173621342
 21
8.2051297567
  0
LINE
  5
310
100
AcDbEntity
  8
0
100
AcDbLine
 62
4
  6
CONTINUOUS
 10
11.2124901897
 20
8.3283137541
 11
11.1793727335
 21
8.2146993541
  0
LINE
  5
311
100
AcDbEntity
  8
0
100
AcDbLine
 62
4
  6
CONTINUOUS
 10
10.9806679888
 20
7.7808419327
 11
10.9475505465
 21
7.672747106
  0
LINE
  5
312
100
AcDbEntity
  8
0
100
AcDbLine
 62
4
  6
CONTINUOUS
 10
10.9061536698
 20
8.0448776487
 11
10.8730362137
 21
7.9809394364
  0
LINE
  5
313
100
AcDbEntity
  8
0
100
AcDbLine
 62
4
  6
CONTINUOUS
 10
10.8399187437
 20
8.0991472441
 11
10.7736838452
 21
7.9878295465
  0
LINE
  5
314
100
AcDbEntity
  8
0
100
AcDbLine
 62
4
  6
CONTINUOUS
 10
10.8399187562
 20
8.2547992955
 11
10.823360035
 21
8.2393889186
  0
LINE
  5
315
100
AcDbEntity
  8
0
100
AcDbLine
 62
4
  6
CONTINUOUS
 10
10.3679950293
 20
7.7957330649
 11
10.3597156964
 21
7.7880278737
  0
LINE
  5
316
100
AcDbEntity
  8
0
100
AcDbLine
 62
4
  6
CONTINUOUS
 10
10.4093918046
 20
7.718347909
 11
10.4011124716
 21
7.7106427152
  0
LINE
  5
317
100
AcDbEntity
  8
0
100
AcDbLine
 62
4
  6
CONTINUOUS
 10
10.4839061327
 20
7.7131803228
 11
10.4756267998
 21
7.705475129
  0
LINE
  5
318
100
AcDbEntity
  8
0
100
AcDbLine
 62
4
  6
CONTINUOUS
 10
11.2594065894
 20
8.308501361
 11
11.2759653174
 21
8.3239117391
  0
LINE
  5
319
100
AcDbEntity
  8
0
100
AcDbLine
 62
4
  6
CONTINUOUS
 10
12.3629768909
 20
7.7829509164
 11
12.348488003
 21
7.7936149805
  0
LINE
  5
31A
100
AcDbEntity
  8
0
100
AcDbLine
 62
4
  6
CONTINUOUS
 10
12.3629768909
 20
7.8312472118
 11
12.348488003
 21
7.8419112759
  0
LINE
  5
31B
100
AcDbEntity
  8
0
100
AcDbLine
 62
4
  6
CONTINUOUS
 10
11.1793727335
 20
8.2146993541
 11
11.1462552636
 21
8.3329071619
  0
LINE
  5
31C
100
AcDbEntity
  8
0
100
AcDbLine
 62
4
  6
CONTINUOUS
 10
11.3532393947
 20
7.6114950327
 11
11.3532393947
 21
7.7108474063
  0
LINE
  5
31D
100
AcDbEntity
  8
0
100
AcDbLine
 62
4
  6
CONTINUOUS
 10
11.3863568508
 20
7.7085507029
 11
11.3863568508
 21
7.6919919731
  0
LINE
  5
31E
100
AcDbEntity
  8
0
100
AcDbLine
 62
4
  6
CONTINUOUS
 10
11.4443124025
 20
7.6382965543
 11
11.4443124025
 21
7.6217378262
  0
LINE
  5
31F
100
AcDbEntity
  8
0
100
AcDbLine
 62
7
  6
CONTINUOUS
 10
11.4850871617
 20
5.4869736728
 11
11.4850871617
 21
4.8617657127
  0
LINE
  5
320
100
AcDbEntity
  8
0
100
AcDbLine
 62
7
  6
CONTINUOUS
 10
11.5170799429
 20
5.4847549659
 11
11.5170799429
 21
4.8700460506
  0
LINE
  5
321
100
AcDbEntity
  8
0
100
AcDbLine
 62
4
  6
CONTINUOUS
 10
10.9723885821
 20
8.0237255104
 11
10.9889473102
 21
8.0391358903
  0
LINE
  5
322
100
AcDbEntity
  8
0
100
AcDbLine
 62
4
  6
CONTINUOUS
 10
11.3394404417
 20
8.247755229
 11
11.3835970534
 21
8.2667712652
  0
LINE
  5
323
100
AcDbEntity
  8
0
100
AcDbLine
 62
4
  6
CONTINUOUS
 10
10.7681642807
 20
7.7348637735
 11
10.7516055596
 21
7.7277327607
  0
LINE
  5
324
100
AcDbEntity
  8
0
100
AcDbLine
 62
4
  6
CONTINUOUS
 10
8.9967251865
 20
9.1658531217
 11
8.9822362986
 21
9.1668579295
  0
LINE
  5
325
100
AcDbEntity
  8
0
100
AcDbLine
 62
4
  6
CONTINUOUS
 10
12.3774657788
 20
7.897857212
 11
12.3919546668
 21
7.8871931453
  0
LINE
  5
326
100
AcDbEntity
  8
0
100
AcDbLine
 62
7
  6
CONTINUOUS
 10
11.6903477614
 20
5.4727388018
 11
11.6903477614
 21
5.0374099213
  0
LINE
  5
327
100
AcDbEntity
  8
0
100
AcDbLine
 62
4
  6
CONTINUOUS
 10
11.3118425641
 20
7.7302770161
 11
11.2952838429
 21
7.7148666375
  0
LINE
  5
328
100
AcDbEntity
  8
0
100
AcDbLine
 62
4
  6
CONTINUOUS
 10
11.4029155789
 20
7.7239610811
 11
11.3863568508
 21
7.7085507029
  0
LINE
  5
329
100
AcDbEntity
  8
0
100
AcDbLine
 62
4
  6
CONTINUOUS
 10
10.9254722147
 20
7.682557611
 11
10.9089134936
 21
7.6754265947
  0
LINE
  5
32A
100
AcDbEntity
  8
0
100
AcDbLine
 62
4
  6
CONTINUOUS
 10
9.0184585184
 20
9.2802570134
 11
8.9605029667
 21
9.2842762446
  0
LINE
  5
32B
100
AcDbEntity
  8
0
100
AcDbLine
 62
4
  6
CONTINUOUS
 10
12.348488003
 20
7.7936149805
 11
12.341243559
 21
7.8037766476
  0
LINE
  5
32C
100
AcDbEntity
  8
0
100
AcDbLine
 62
4
  6
CONTINUOUS
 10
12.348488003
 20
7.8419112759
 11
12.333999115
 21
7.8622345998
  0
LINE
  5
32D
100
AcDbEntity
  8
0
100
AcDbLine
 62
4
  6
CONTINUOUS
 10
12.3919546668
 20
7.8871931453
 11
12.3991991107
 21
7.8770314825
  0
LINE
  5
32E
100
AcDbEntity
  8
0
100
AcDbLine
 62
4
  6
CONTINUOUS
 10
11.4443124025
 20
7.6217378262
 11
11.4277536727
 21
7.60632745
  0
LINE
  5
32F
100
AcDbEntity
  8
0
100
AcDbLine
 62
4
  6
CONTINUOUS
 10
12.333999115
 20
7.8622345998
 11
12.333999115
 21
7.8718938596
  0
LINE
  5
330
100
AcDbEntity
  8
0
100
AcDbLine
 62
4
  6
CONTINUOUS
 10
12.341243559
 20
7.8037766476
 11
12.341243559
 21
7.8134359039
  0
LINE
  5
331
100
AcDbEntity
  8
0
100
AcDbLine
 62
4
  6
CONTINUOUS
 10
12.333999115
 20
7.8718938596
 11
12.348488003
 21
7.8902075687
  0
LINE
  5
332
100
AcDbEntity
  8
0
100
AcDbLine
 62
4
  6
CONTINUOUS
 10
12.341243559
 20
7.8134359039
 11
12.348488003
 21
7.8225927564
  0
LINE
  5
333
100
AcDbEntity
  8
0
100
AcDbLine
 62
4
  6
CONTINUOUS
 10
12.348488003
 20
7.8902075687
 11
12.3629768909
 21
7.8988620198
  0
LINE
  5
334
100
AcDbEntity
  8
0
100
AcDbLine
 62
4
  6
CONTINUOUS
 10
12.348488003
 20
7.8225927564
 11
12.3629768909
 21
7.8312472118
  0
LINE
  5
335
100
AcDbEntity
  8
0
100
AcDbLine
 62
4
  6
CONTINUOUS
 10
12.3919546668
 20
7.7906005571
 11
12.3774657788
 21
7.7819461086
  0
LINE
  5
336
100
AcDbEntity
  8
0
100
AcDbLine
 62
7
  6
CONTINUOUS
 10
12.6406805816
 20
5.4068329969
 11
12.6406805816
 21
11.3839825595
  0
LINE
  5
337
100
AcDbEntity
  8
0
100
AcDbLine
 62
7
  6
CONTINUOUS
 10
13.2230229525
 20
11.9464821286
 11
13.2230229525
 21
5.969332566
  0
LINE
  5
338
100
AcDbEntity
  8
0
100
AcDbLine
 62
7
  6
CONTINUOUS
 10
12.6406805816
 20
11.3839825595
 11
8.7769770475
 21
11.6519313096
  0
LINE
  5
339
100
AcDbEntity
  8
0
100
AcDbLine
 62
7
  6
CONTINUOUS
 10
13.2230229525
 20
5.969332566
 11
12.6406805816
 21
5.4068329969
  0
LINE
  5
33A
100
AcDbEntity
  8
0
100
AcDbLine
 62
7
  6
CONTINUOUS
 10
11.567512655
 20
4.880542673
 11
11.5491849521
 21
4.8714891387
  0
LINE
  5
33B
100
AcDbEntity
  8
0
100
AcDbLine
 62
7
  6
CONTINUOUS
 10
13.2230229525
 20
11.9464821286
 11
9.3593194184
 21
12.2144308787
  0
ARC
  5
33C
100
AcDbEntity
  8
0
100
AcDbCircle
 62
7
  6
CONTINUOUS
 10
10.9907755278
 20
8.0025244431
 40
2.5199441672
100
AcDbArc
 50
266.0342868665
 51
266.534299421
  0
ARC
  5
33D
100
AcDbEntity
  8
0
100
AcDbCircle
 62
7
  6
CONTINUOUS
 10
10.9907755278
 20
7.3322562709
 40
2.5199441672
100
AcDbArc
 50
266.0342868665
 51
266.534299421
  0
ARC
  5
33E
100
AcDbEntity
  8
0
100
AcDbCircle
 62
7
  6
CONTINUOUS
 10
10.9867535631
 20
7.2736893256
 40
2.4612392969
100
AcDbArc
 50
265.5255095248
 51
266.0333993217
  0
ARC
  5
33F
100
AcDbEntity
  8
0
100
AcDbCircle
 62
7
  6
CONTINUOUS
 10
10.9859903956
 20
7.9336159058
 40
2.4508696861
100
AcDbArc
 50
265.5244350789
 51
266.0344737677
  0
ARC
  5
340
100
AcDbEntity
  8
0
100
AcDbCircle
 62
7
  6
CONTINUOUS
 10
11.2374897691
 20
5.8843544434
 40
1.0521369592
100
AcDbArc
 50
283.610963992
 51
285.4106627597
  0
ARC
  5
341
100
AcDbEntity
  8
0
100
AcDbCircle
 62
7
  6
CONTINUOUS
 10
10.790958028
 20
5.6366179924
 40
0.8366421934
100
AcDbArc
 50
243.671935337
 51
246.0355791739
  0
SPLINE
  5
342
100
AcDbEntity
  8
0
100
AcDbSpline
 62
7
  6
CONTINUOUS
 70
0
 71
3
 72
23
 73
19
 74
0
 42
0.0000001
 43
0.0000001
 44
0.0000000001
 40
0.0
 40
0.0
 40
0.0
 40
0.0
 40
0.077167249
 40
0.1531525861
 40
0.2277594917
 40
0.3008129245
 40
0.3721358508
 40
0.4415582079
 40
0.5089173277
 40
0.5740576649
 40
0.6368324252
 40
0.6971042331
 40
0.7547461302
 40
0.8096431938
 40
0.8616940365
 40
0.9108124511
 40
0.9569300917
 40
1.0
 40
1.0
 40
1.0
 40
1.0
 10
10.8395323245
 20
4.7909624989
 30
0.0
 10
10.8292929583
 20
4.7916726014
 30
0.0
 10
10.8089807043
 20
4.7932257646
 30
0.0
 10
10.7788107562
 20
4.7959776591
 30
0.0
 10
10.7492299428
 20
4.7991284523
 30
0.0
 10
10.7203179211
 20
4.8026694717
 30
0.0
 10
10.6921510805
 20
4.8065913321
 30
0.0
 10
10.664804583
 20
4.8108834514
 30
0.0
 10
10.6383512351
 20
4.8155342932
 30
0.0
 10
10.6128613914
 20
4.8205314108
 30
0.0
 10
10.5884028114
 20
4.8258613146
 30
0.0
 10
10.5650404473
 20
4.8315096676
 30
0.0
 10
10.5428362846
 20
4.8374613349
 30
0.0
 10
10.5218490729
 20
4.8437002983
 30
0.0
 10
10.5021342465
 20
4.8502097602
 30
0.0
 10
10.4837434738
 20
4.8569724011
 30
0.0
 10
10.4667254652
 20
4.8639700024
 30
0.0
 10
10.4559534199
 20
4.8689509295
 30
0.0
 10
10.4508171993
 20
4.871488095
 30
0.0
  0
SPLINE
  5
343
100
AcDbEntity
  8
0
100
AcDbSpline
 62
7
  6
CONTINUOUS
 70
0
 71
3
 72
9
 73
5
 74
0
 42
0.0000001
 43
0.0000001
 44
0.0000000001
 40
0.0
 40
0.0
 40
0.0
 40
0.0
 40
0.5143582232
 40
1.0
 40
1.0
 40
1.0
 40
1.0
 10
10.3213624215
 20
4.9424702976
 30
0.0
 10
10.3192404394
 20
4.9442861028
 30
0.0
 10
10.315211105
 20
4.9479309532
 30
0.0
 10
10.3114207769
 20
4.9518255314
 30
0.0
 10
10.3096522386
 20
4.9537814463
 30
0.0
  0
SPLINE
  5
344
100
AcDbEntity
  8
0
100
AcDbSpline
 62
7
  6
CONTINUOUS
 70
0
 71
3
 72
15
 73
11
 74
0
 42
0.0000001
 43
0.0000001
 44
0.0000000001
 40
0.0
 40
0.0
 40
0.0
 40
0.0
 40
0.1185876998
 40
0.2406125493
 40
0.3652934834
 40
0.4918265919
 40
0.6193921652
 40
0.7471623906
 40
0.8743055421
 40
1.0
 40
1.0
 40
1.0
 40
1.0
 10
11.3006403911
 20
5.4996755028
 30
0.0
 10
11.2824727801
 20
5.4974739138
 30
0.0
 10
11.2455507859
 20
5.4934918885
 30
0.0
 10
11.1893685136
 20
5.488807556
 30
0.0
 10
11.1318691011
 20
5.4853471926
 30
0.0
 10
11.0734527886
 20
5.4831353056
 30
0.0
 10
11.0145256002
 20
5.4821874793
 30
0.0
 10
10.9554974752
 20
5.4825104565
 30
0.0
 10
10.8967790298
 20
5.484101855
 30
0.0
 10
10.8578041211
 20
5.4860161009
 30
0.0
 10
10.8384423644
 20
5.4871888366
 30
0.0
  0
SPLINE
  5
345
100
AcDbEntity
  8
0
100
AcDbSpline
 62
7
  6
CONTINUOUS
 70
0
 71
3
 72
23
 73
19
 74
0
 42
0.0000001
 43
0.0000001
 44
0.0000000001
 40
0.0
 40
0.0
 40
0.0
 40
0.0
 40
0.0812339218
 40
0.1604464752
 40
0.2374889713
 40
0.3122154183
 40
0.3844837632
 40
0.4541625846
 40
0.5211372808
 40
0.5853166852
 40
0.64664047
 40
0.705086666
 40
0.7606774563
 40
0.8134833771
 40
0.8636254727
 40
0.9112749279
 40
0.9566483591
 40
1.0
 40
1.0
 40
1.0
 40
1.0
 10
11.6903477614
 20
5.0374099213
 30
0.0
 10
11.6878800845
 20
5.0325160527
 30
0.0
 10
11.6829400233
 20
5.0228832044
 30
0.0
 10
11.6754069203
 20
5.0087403469
 30
0.0
 10
11.6678399735
 20
4.9951154555
 30
0.0
 10
11.6602400453
 20
4.9820479683
 30
0.0
 10
11.6526084715
 20
4.9695775608
 30
0.0
 10
11.6449472747
 20
4.9577433857
 30
0.0
 10
11.6372591196
 20
4.9465829777
 30
0.0
 10
11.6295472778
 20
4.9361311401
 30
0.0
 10
11.6218155763
 20
4.9264187239
 30
0.0
 10
11.6140684255
 20
4.9174713401
 30
0.0
 10
11.6063106167
 20
4.9093084046
 30
0.0
 10
11.5985471786
 20
4.9019423738
 30
0.0
 10
11.5907833246
 20
4.8953783213
 30
0.0
 10
11.5830241946
 20
4.8896134523
 30
0.0
 10
11.5752757513
 20
4.8846379928
 30
0.0
 10
11.5700103638
 20
4.8817760576
 30
0.0
 10
11.5673877801
 20
4.8804809916
 30
0.0
  0
SPLINE
  5
346
100
AcDbEntity
  8
0
100
AcDbSpline
 62
7
  6
CONTINUOUS
 70
0
 71
3
 72
21
 73
17
 74
0
 42
0.0000001
 43
0.0000001
 44
0.0000000001
 40
0.0
 40
0.0
 40
0.0
 40
0.0
 40
0.1461495944
 40
0.2879001215
 40
0.3568478053
 40
0.4243641861
 40
0.490345297
 40
0.554690708
 40
0.6173037936
 40
0.6780923629
 40
0.7369687363
 40
0.793850838
 40
0.8486618096
 40
0.90133136
 40
0.9517960741
 40
1.0
 40
1.0
 40
1.0
 40
1.0
 10
10.7947394003
 20
5.4902196475
 30
0.0
 10
10.7760982316
 20
5.4916789208
 30
0.0
 10
10.7394086342
 20
5.4949775407
 30
0.0
 10
10.6940466379
 20
5.5001852064
 30
0.0
 10
10.6587717265
 20
5.5049509639
 30
0.0
 10
10.6331536686
 20
5.5087720823
 30
0.0
 10
10.608174239
 20
5.5128659966
 30
0.0
 10
10.5838768242
 20
5.5172256688
 30
0.0
 10
10.5603036587
 20
5.5218434354
 30
0.0
 10
10.5374957222
 20
5.5267111684
 30
0.0
 10
10.5154926458
 20
5.5318204491
 30
0.0
 10
10.4943326099
 20
5.5371621971
 30
0.0
 10
10.4740523466
 20
5.5427271708
 30
0.0
 10
10.454686925
 20
5.548505593
 30
0.0
 10
10.4362700561
 20
5.5544872573
 30
0.0
 10
10.4243687621
 20
5.5587017029
 30
0.0
 10
10.4185864536
 20
5.5608461511
 30
0.0
  0
SPLINE
  5
347
100
AcDbEntity
  8
0
100
AcDbSpline
 62
7
  6
CONTINUOUS
 70
0
 71
3
 72
30
 73
26
 74
0
 42
0.0000001
 43
0.0000001
 44
0.0000000001
 40
0.0
 40
0.0
 40
0.0
 40
0.0
 40
0.0193647175
 40
0.0398585218
 40
0.0614689981
 40
0.0841783327
 40
0.1079638904
 40
0.1327986839
 40
0.1586522312
 40
0.1854903935
 40
0.2132762735
 40
0.2419700325
 40
0.2715294045
 40
0.3019098878
 40
0.3330647196
 40
0.3649454281
 40
0.4306799191
 40
0.4986941087
 40
0.5685463607
 40
0.639778611
 40
0.7119208361
 40
0.7844950177
 40
0.857019867
 40
0.9290131489
 40
1.0
 40
1.0
 40
1.0
 40
1.0
 10
11.5491847573
 20
4.8714890683
 30
0.0
 10
11.5450166828
 20
4.8694301202
 30
0.0
 10
11.5363482852
 20
4.8653711516
 30
0.0
 10
11.5227643947
 20
4.8595987458
 30
0.0
 10
11.5082522571
 20
4.8539788945
 30
0.0
 10
11.4928375988
 20
4.8485217534
 30
0.0
 10
11.4765474312
 20
4.8432370375
 30
0.0
 10
11.4594105249
 20
4.8381340763
 30
0.0
 10
11.4414571375
 20
4.8332221446
 30
0.0
 10
11.422719066
 20
4.8285098643
 30
0.0
 10
11.403229507
 20
4.8240057968
 30
0.0
 10
11.3830230343
 20
4.819717931
 30
0.0
 10
11.3621355079
 20
4.8156539354
 30
0.0
 10
11.3406040239
 20
4.8118211614
 30
0.0
 10
11.3184668012
 20
4.8082262996
 30
0.0
 10
11.2878832991
 20
4.8037133065
 30
0.0
 10
11.2484285708
 20
4.7987330194
 30
0.0
 10
11.1997894039
 20
4.7938541633
 30
0.0
 10
11.1497308619
 20
4.7900490825
 30
0.0
 10
11.098608678
 20
4.7873451949
 30
0.0
 10
11.0467858987
 20
4.7857620526
 30
0.0
 10
10.9946306791
 20
4.7853110563
 30
0.0
 10
10.9425136709
 20
4.7859955099
 30
0.0
 10
10.8908052845
 20
4.7878103794
 30
0.0
 10
10.8565332865
 20
4.7897834782
 30
0.0
 10
10.8395323245
 20
4.7909624989
 30
0.0
  0
SPLINE
  5
348
100
AcDbEntity
  8
0
100
AcDbSpline
 62
7
  6
CONTINUOUS
 70
0
 71
3
 72
10
 73
6
 74
0
 42
0.0000001
 43
0.0000001
 44
0.0000000001
 40
0.0
 40
0.0
 40
0.0
 40
0.0
 40
0.4953186613
 40
0.7465724869
 40
1.0
 40
1.0
 40
1.0
 40
1.0
 10
10.4198986352
 20
4.8867612816
 30
0.0
 10
10.4031372489
 20
4.8950435479
 30
0.0
 10
10.3782588495
 20
4.9083209783
 30
0.0
 10
10.3456694441
 20
4.927367361
 30
0.0
 10
10.3294516501
 20
4.9373646814
 30
0.0
 10
10.3213624215
 20
4.9424702976
 30
0.0
  0
SPLINE
  5
349
100
AcDbEntity
  8
0
100
AcDbSpline
 62
7
  6
CONTINUOUS
 70
0
 71
3
 72
22
 73
18
 74
0
 42
0.0000001
 43
0.0000001
 44
0.0000000001
 40
0.0
 40
0.0
 40
0.0
 40
0.0
 40
0.0635388131
 40
0.1269791358
 40
0.1903081015
 40
0.2535124318
 40
0.3165791607
 40
0.3794964483
 40
0.4422545861
 40
0.5048469205
 40
0.5672705586
 40
0.6295266721
 40
0.6916203331
 40
0.7535599303
 40
0.8153562939
 40
0.8770217619
 40
1.0
 40
1.0
 40
1.0
 40
1.0
 10
11.4850871617
 20
4.8617657127
 30
0.0
 10
11.4719240056
 20
4.8572649024
 30
0.0
 10
11.4455126981
 20
4.8485743453
 30
0.0
 10
11.4056080867
 20
4.8365689632
 30
0.0
 10
11.3654500956
 20
4.8257131835
 30
0.0
 10
11.3250554774
 20
4.8161177613
 30
0.0
 10
11.2844514293
 20
4.8078884234
 30
0.0
 10
11.2436766039
 20
4.8011194508
 30
0.0
 10
11.2027802768
 20
4.7958865315
 30
0.0
 10
11.1618201257
 20
4.7922401806
 30
0.0
 10
11.1208585487
 20
4.790200924
 30
0.0
 10
11.0799581328
 20
4.7897572893
 30
0.0
 10
11.0391769853
 20
4.790867106
 30
0.0
 10
10.9985652034
 20
4.7934617042
 30
0.0
 10
10.9581615252
 20
4.7974523537
 30
0.0
 10
10.9046594374
 20
4.80449123
 30
0.0
 10
10.8648282001
 20
4.8115584255
 30
0.0
 10
10.8384423644
 20
4.8169206644
 30
0.0
  0
SPLINE
  5
34A
100
AcDbEntity
  8
0
100
AcDbSpline
 62
7
  6
CONTINUOUS
 70
0
 71
3
 72
21
 73
17
 74
0
 42
0.0000001
 43
0.0000001
 44
0.0000000001
 40
0.0
 40
0.0
 40
0.0
 40
0.0
 40
0.1199515686
 40
0.1801834105
 40
0.2406342436
 40
0.3013483223
 40
0.3623737173
 40
0.4237612516
 40
0.4855630188
 40
0.5478305547
 40
0.6106126102
 40
0.6739530407
 40
0.7378889247
 40
0.8024489308
 40
0.8676522133
 40
1.0
 40
1.0
 40
1.0
 40
1.0
 10
10.7947394003
 20
4.8199514752
 30
0.0
 10
10.7807556415
 20
4.8183639708
 30
0.0
 10
10.7596828434
 20
4.816510857
 30
0.0
 10
10.7314747662
 20
4.8152536342
 30
0.0
 10
10.7101903856
 20
4.8149556231
 30
0.0
 10
10.6888142298
 20
4.815344429
 30
0.0
 10
10.6673531028
 20
4.8164583415
 30
0.0
 10
10.6458165614
 20
4.8183324
 30
0.0
 10
10.6242163716
 20
4.8209969701
 30
0.0
 10
10.6025664921
 20
4.8244764635
 30
0.0
 10
10.5808826763
 20
4.8287879395
 30
0.0
 10
10.5591818906
 20
4.8339401792
 30
0.0
 10
10.5374818552
 20
4.8399332356
 30
0.0
 10
10.5157996995
 20
4.8467586889
 30
0.0
 10
10.4867961815
 20
4.8569957135
 30
0.0
 10
10.465330309
 20
4.86579183
 30
0.0
 10
10.4511396733
 20
4.8720961513
 30
0.0
  0
SPLINE
  5
34B
100
AcDbEntity
  8
0
100
AcDbSpline
 62
7
  6
CONTINUOUS
 70
0
 71
3
 72
15
 73
11
 74
0
 42
0.0000001
 43
0.0000001
 44
0.0000000001
 40
0.0
 40
0.0
 40
0.0
 40
0.0
 40
0.1239418977
 40
0.2490521083
 40
0.3748998029
 40
0.5010507503
 40
0.6270700045
 40
0.7525212532
 40
0.8769753889
 40
1.0
 40
1.0
 40
1.0
 40
1.0
 10
11.1738344141
 20
5.5085115586
 30
0.0
 10
11.1583342746
 20
5.5075937914
 30
0.0
 10
11.1271720187
 20
5.5060080117
 30
0.0
 10
11.0802314536
 20
5.5043774941
 30
0.0
 10
11.0329941186
 20
5.5034873533
 30
0.0
 10
10.9856347875
 20
5.5033408882
 30
0.0
 10
10.9383286677
 20
5.5039386822
 30
0.0
 10
10.8912503435
 20
5.5052784436
 30
0.0
 10
10.8445743953
 20
5.5073552643
 30
0.0
 10
10.8136261613
 20
5.5092389835
 30
0.0
 10
10.7982507208
 20
5.5103052739
 30
0.0
  0
SPLINE
  5
34C
100
AcDbEntity
  8
0
100
AcDbSpline
 62
7
  6
CONTINUOUS
 70
0
 71
3
 72
15
 73
11
 74
0
 42
0.0000001
 43
0.0000001
 44
0.0000000001
 40
0.0
 40
0.0
 40
0.0
 40
0.0
 40
0.1101200979
 40
0.225265339
 40
0.3450770297
 40
0.4691714873
 40
0.597143908
 40
0.7285681962
 40
0.8630069828
 40
1.0
 40
1.0
 40
1.0
 40
1.0
 10
10.469520426
 20
5.5573558996
 30
0.0
 10
10.4813852941
 20
5.5545037019
 30
0.0
 10
10.5057399899
 20
5.5490124693
 30
0.0
 10
10.5432459647
 20
5.5415411956
 30
0.0
 10
10.5824398201
 20
5.5346714551
 30
0.0
 10
10.6231766703
 20
5.5284289725
 30
0.0
 10
10.6653061588
 20
5.5228371248
 30
0.0
 10
10.708673005
 20
5.5179166927
 30
0.0
 10
10.7531165256
 20
5.5136862075
 30
0.0
 10
10.7831063199
 20
5.5113555417
 30
0.0
 10
10.7982507208
 20
5.5103052739
 30
0.0
  0
SPLINE
  5
34D
100
AcDbEntity
  8
0
100
AcDbSpline
 62
7
  6
CONTINUOUS
 70
0
 71
3
 72
9
 73
5
 74
0
 42
0.0000001
 43
0.0000001
 44
0.0000000001
 40
0.0
 40
0.0
 40
0.0
 40
0.0
 40
0.5104941895
 40
1.0
 40
1.0
 40
1.0
 40
1.0
 10
11.5673877801
 20
4.8804809916
 30
0.0
 10
11.5642756091
 20
4.878944161
 30
0.0
 10
11.5580348297
 20
4.8762155079
 30
0.0
 10
11.5515534325
 20
4.8741191429
 30
0.0
 10
11.5483387093
 20
4.8732573187
 30
0.0
  0
SPLINE
  5
34E
100
AcDbEntity
  8
0
100
AcDbSpline
 62
7
  6
CONTINUOUS
 70
0
 71
3
 72
11
 73
7
 74
0
 42
0.0000001
 43
0.0000001
 44
0.0000000001
 40
0.0
 40
0.0
 40
0.0
 40
0.0
 40
0.2556577238
 40
0.5063978101
 40
0.7539985926
 40
1.0
 40
1.0
 40
1.0
 40
1.0
 10
11.5483387093
 20
4.8732573187
 30
0.0
 10
11.5457421057
 20
4.8725612041
 30
0.0
 10
11.5405395342
 20
4.8713932328
 30
0.0
 10
11.5326790551
 20
4.8702955706
 30
0.0
 10
11.5248583332
 20
4.869830365
 30
0.0
 10
11.519663297
 20
4.8699134295
 30
0.0
 10
11.5170799429
 20
4.8700460506
 30
0.0
  0
SPLINE
  5
34F
100
AcDbEntity
  8
0
100
AcDbSpline
 62
7
  6
CONTINUOUS
 70
0
 71
3
 72
54
 73
50
 74
0
 42
0.0000001
 43
0.0000001
 44
0.0000000001
 40
0.0
 40
0.0
 40
0.0
 40
0.0
 40
0.0417740106
 40
0.0840368515
 40
0.1266583734
 40
0.1695063147
 40
0.2124478814
 40
0.2553497884
 40
0.2980789417
 40
0.340502919
 40
0.3824905067
 40
0.4239122259
 40
0.4646408671
 40
0.5045520317
 40
0.5435246831
 40
0.5814417135
 40
0.6181905344
 40
0.6536637003
 40
0.6877595809
 40
0.704261357
 40
0.7203837372
 40
0.736116
 40
0.7514479644
 40
0.7663699709
 40
0.7808730136
 40
0.7949486603
 40
0.8085892482
 40
0.8217877894
 40
0.8345381805
 40
0.8468351604
 40
0.8586744859
 40
0.8700529987
 40
0.8809687469
 40
0.891421194
 40
0.9014113064
 40
0.910941912
 40
0.9200178165
 40
0.9286462958
 40
0.9368373422
 40
0.9446042644
 40
0.9519641574
 40
0.9589385856
 40
0.9655542762
 40
0.9718437871
 40
0.9778461898
 40
0.9836073681
 40
0.9891800557
 40
0.994623083
 40
1.0
 40
1.0
 40
1.0
 40
1.0
 10
12.7053852895
 20
7.9440350976
 30
0.0
 10
12.7053852895
 20
7.9603589881
 30
0.0
 10
12.705639958
 20
7.9931983007
 30
0.0
 10
12.7067658103
 20
8.0426810815
 30
0.0
 10
12.7086344397
 20
8.092561414
 30
0.0
 10
12.7112397303
 20
8.1426742211
 30
0.0
 10
12.7145730669
 20
8.1928536759
 30
0.0
 10
12.7186234336
 20
8.2429337814
 30
0.0
 10
12.7233774124
 20
8.2927488492
 30
0.0
 10
12.7288192444
 20
8.3421340801
 30
0.0
 10
12.734930875
 20
8.3909261047
 30
0.0
 10
12.7416920152
 20
8.4389635298
 30
0.0
 10
12.749080207
 20
8.4860874783
 30
0.0
 10
12.7570708953
 20
8.5321421199
 30
0.0
 10
12.7656375077
 20
8.5769752011
 30
0.0
 10
12.7747515442
 20
8.6204385333
 30
0.0
 10
12.7843826579
 20
8.6623885899
 30
0.0
 10
12.7944987957
 20
8.7026866639
 30
0.0
 10
12.8033990655
 20
8.7351246436
 30
0.0
 10
12.8107497139
 20
8.7601395315
 30
0.0
 10
12.8163026653
 20
8.7782018228
 30
0.0
 10
12.8219509988
 20
8.7957549266
 30
0.0
 10
12.8276900395
 20
8.8127843616
 30
0.0
 10
12.833515062
 20
8.8292760555
 30
0.0
 10
12.8394211821
 20
8.8452164054
 30
0.0
 10
12.8454035713
 20
8.8605922499
 30
0.0
 10
12.8514572012
 20
8.8753909269
 30
0.0
 10
12.8575771274
 20
8.8896002333
 30
0.0
 10
12.8637582275
 20
8.9032084906
 30
0.0
 10
12.8699954351
 20
8.9162045063
 30
0.0
 10
12.8762835831
 20
8.9285776232
 30
0.0
 10
12.8826174912
 20
8.9403177124
 30
0.0
 10
12.8889919915
 20
8.9514151727
 30
0.0
 10
12.895401823
 20
8.9618609874
 30
0.0
 10
12.9018418565
 20
8.9716466449
 30
0.0
 10
12.9083068193
 20
8.9807642754
 30
0.0
 10
12.9147916628
 20
8.989206485
 30
0.0
 10
12.9212912165
 20
8.9969665495
 30
0.0
 10
12.9278005718
 20
9.0040381958
 30
0.0
 10
12.9343148089
 20
9.0104157657
 30
0.0
 10
12.9408292453
 20
9.0160940206
 30
0.0
 10
12.9473393309
 20
9.0210681386
 30
0.0
 10
12.9538406344
 20
9.025333639
 30
0.0
 10
12.9603288502
 20
9.0288860967
 30
0.0
 10
12.9667994695
 20
9.0317213322
 30
0.0
 10
12.9732475896
 20
9.0338349505
 30
0.0
 10
12.9796678195
 20
9.0352230401
 30
0.0
 10
12.9860524201
 20
9.0358820639
 30
0.0
 10
12.990291254
 20
9.0358337359
 30
0.0
 10
12.99238734
 20
9.0356883812
 30
0.0
  0
SPLINE
  5
350
100
AcDbEntity
  8
0
100
AcDbSpline
 62
7
  6
CONTINUOUS
 70
0
 71
3
 72
15
 73
11
 74
0
 42
0.0000001
 43
0.0000001
 44
0.0000000001
 40
0.0
 40
0.0
 40
0.0
 40
0.0
 40
0.1273482789
 40
0.2538606571
 40
0.3795878378
 40
0.5046051156
 40
0.629017439
 40
0.7529533823
 40
0.8765605864
 40
1.0
 40
1.0
 40
1.0
 40
1.0
 10
12.2407872658
 20
9.2383817869
 30
0.0
 10
12.2407872658
 20
9.2318834618
 30
0.0
 10
12.2401668052
 20
9.2189204827
 30
0.0
 10
12.2373608737
 20
9.1997253366
 30
0.0
 10
12.2327081522
 20
9.1810124829
 30
0.0
 10
12.2262506694
 20
9.1629569316
 30
0.0
 10
12.2180476497
 20
9.14572519
 30
0.0
 10
12.2081739246
 20
9.1294763555
 30
0.0
 10
12.1967223023
 20
9.114362681
 30
0.0
 10
12.1880998025
 20
9.1051303732
 30
0.0
 10
12.183569331
 20
9.1007542437
 30
0.0
  0
SPLINE
  5
351
100
AcDbEntity
  8
0
100
AcDbSpline
 62
7
  6
CONTINUOUS
 70
0
 71
3
 72
15
 73
11
 74
0
 42
0.0000001
 43
0.0000001
 44
0.0000000001
 40
0.0
 40
0.0
 40
0.0
 40
0.0
 40
0.1273482789
 40
0.2538606571
 40
0.3795878378
 40
0.5046051156
 40
0.629017439
 40
0.7529533823
 40
0.8765605864
 40
1.0
 40
1.0
 40
1.0
 40
1.0
 10
12.2407872658
 20
6.3406041939
 30
0.0
 10
12.2407872658
 20
6.3341058689
 30
0.0
 10
12.2401668052
 20
6.3211428897
 30
0.0
 10
12.2373608737
 20
6.3019477436
 30
0.0
 10
12.2327081522
 20
6.2832348899
 30
0.0
 10
12.2262506694
 20
6.2651793386
 30
0.0
 10
12.2180476497
 20
6.247947597
 30
0.0
 10
12.2081739246
 20
6.2316987625
 30
0.0
 10
12.1967223023
 20
6.216585088
 30
0.0
 10
12.1880998025
 20
6.2073527802
 30
0.0
 10
12.183569331
 20
6.2029766507
 30
0.0
  0
SPLINE
  5
352
100
AcDbEntity
  8
0
100
AcDbSpline
 62
7
  6
CONTINUOUS
 70
0
 71
3
 72
41
 73
37
 74
0
 42
0.0000001
 43
0.0000001
 44
0.0000000001
 40
0.0
 40
0.0
 40
0.0
 40
0.0
 40
0.029942123
 40
0.0449237706
 40
0.0599145177
 40
0.0899291716
 40
0.1200145961
 40
0.1350933574
 40
0.1501974726
 40
0.1804849654
 40
0.2108989488
 40
0.2414525624
 40
0.2721557217
 40
0.3030149378
 40
0.3340332219
 40
0.3652100719
 40
0.3965415365
 40
0.4280203507
 40
0.4596361361
 40
0.4913756582
 40
0.5232231336
 40
0.5551605782
 40
0.5871681905
 40
0.6192247616
 40
0.6513081064
 40
0.6833955071
 40
0.7154641657
 40
0.7474916563
 40
0.7794563734
 40
0.811337967
 40
0.843117763
 40
0.8747791516
 40
0.9063079641
 40
0.9376927517
 40
0.9689251728
 40
1.0
 40
1.0
 40
1.0
 40
1.0
 10
11.8903844778
 20
9.4042779232
 30
0.0
 10
11.8938848952
 20
9.4076590899
 30
0.0
 10
11.8993418066
 20
9.4125260158
 30
0.0
 10
11.9069841268
 20
9.4185647977
 30
0.0
 10
11.9148698354
 20
9.4243030676
 30
0.0
 10
11.925159384
 20
9.4308924942
 30
0.0
 10
11.9359492455
 20
9.4366563296
 30
0.0
 10
11.9448480757
 20
9.4407567742
 30
0.0
 10
11.9539307574
 20
9.4445186791
 30
0.0
 10
11.9655834158
 20
9.4485638471
 30
0.0
 10
11.9799435735
 20
9.4523338565
 30
0.0
 10
11.9946170826
 20
9.4550046606
 30
0.0
 10
12.0095226267
 20
9.456561518
 30
0.0
 10
12.024578325
 20
9.4569961218
 30
0.0
 10
12.0397013362
 20
9.4563062595
 30
0.0
 10
12.0548085398
 20
9.4544959161
 30
0.0
 10
12.0698169277
 20
9.4515752167
 30
0.0
 10
12.0846440711
 20
9.4475603707
 30
0.0
 10
12.0992085629
 20
9.4424735763
 30
0.0
 10
12.1134304594
 20
9.4363428947
 30
0.0
 10
12.1272317128
 20
9.4292020944
 30
0.0
 10
12.1405365933
 20
9.4210904647
 30
0.0
 10
12.1532720995
 20
9.4120526003
 30
0.0
 10
12.1653683535
 20
9.4021381575
 30
0.0
 10
12.1767589801
 20
9.391401584
 30
0.0
 10
12.1873814665
 20
9.3799018219
 30
0.0
 10
12.1971775022
 20
9.3677019877
 30
0.0
 10
12.2060932958
 20
9.3548690293
 30
0.0
 10
12.2140798673
 20
9.3414733627
 30
0.0
 10
12.2210933162
 20
9.3275884887
 30
0.0
 10
12.2270950585
 20
9.3132906027
 30
0.0
 10
12.2320520437
 20
9.2986581474
 30
0.0
 10
12.235936926
 20
9.2837715202
 30
0.0
 10
12.2387282364
 20
9.2687121486
 30
0.0
 10
12.2404104724
 20
9.2535638478
 30
0.0
 10
12.2407872658
 20
9.2434326402
 30
0.0
 10
12.2407872658
 20
9.2383817869
 30
0.0
  0
SPLINE
  5
353
100
AcDbEntity
  8
0
100
AcDbSpline
 62
7
  6
CONTINUOUS
 70
0
 71
3
 72
41
 73
37
 74
0
 42
0.0000001
 43
0.0000001
 44
0.0000000001
 40
0.0
 40
0.0
 40
0.0
 40
0.0
 40
0.029942123
 40
0.0449237706
 40
0.0599145177
 40
0.0899291716
 40
0.1200145961
 40
0.1350933574
 40
0.1501974726
 40
0.1804849654
 40
0.2108989488
 40
0.2414525624
 40
0.2721557217
 40
0.3030149378
 40
0.3340332219
 40
0.3652100719
 40
0.3965415365
 40
0.4280203507
 40
0.4596361361
 40
0.4913756582
 40
0.5232231336
 40
0.5551605782
 40
0.5871681905
 40
0.6192247616
 40
0.6513081064
 40
0.6833955071
 40
0.7154641657
 40
0.7474916563
 40
0.7794563734
 40
0.811337967
 40
0.843117763
 40
0.8747791516
 40
0.9063079641
 40
0.9376927517
 40
0.9689251728
 40
1.0
 40
1.0
 40
1.0
 40
1.0
 10
11.8903844778
 20
6.5065003302
 30
0.0
 10
11.8938848952
 20
6.5098814969
 30
0.0
 10
11.8993418066
 20
6.5147484228
 30
0.0
 10
11.9069841268
 20
6.5207872047
 30
0.0
 10
11.9148698354
 20
6.5265254746
 30
0.0
 10
11.925159384
 20
6.5331149012
 30
0.0
 10
11.9359492455
 20
6.5388787366
 30
0.0
 10
11.9448480757
 20
6.5429791812
 30
0.0
 10
11.9539307574
 20
6.5467410862
 30
0.0
 10
11.9655834158
 20
6.5507862541
 30
0.0
 10
11.9799435735
 20
6.5545562635
 30
0.0
 10
11.9946170826
 20
6.5572270676
 30
0.0
 10
12.0095226267
 20
6.5587839251
 30
0.0
 10
12.024578325
 20
6.5592185289
 30
0.0
 10
12.0397013362
 20
6.5585286665
 30
0.0
 10
12.0548085398
 20
6.5567183231
 30
0.0
 10
12.0698169277
 20
6.5537976237
 30
0.0
 10
12.0846440711
 20
6.5497827777
 30
0.0
 10
12.0992085629
 20
6.5446959833
 30
0.0
 10
12.1134304594
 20
6.5385653017
 30
0.0
 10
12.1272317128
 20
6.5314245014
 30
0.0
 10
12.1405365933
 20
6.5233128717
 30
0.0
 10
12.1532720995
 20
6.5142750073
 30
0.0
 10
12.1653683535
 20
6.5043605645
 30
0.0
 10
12.1767589801
 20
6.493623991
 30
0.0
 10
12.1873814665
 20
6.4821242289
 30
0.0
 10
12.1971775022
 20
6.4699243947
 30
0.0
 10
12.2060932958
 20
6.4570914363
 30
0.0
 10
12.2140798673
 20
6.4436957698
 30
0.0
 10
12.2210933162
 20
6.4298108957
 30
0.0
 10
12.2270950585
 20
6.4155130097
 30
0.0
 10
12.2320520437
 20
6.4008805544
 30
0.0
 10
12.235936926
 20
6.3859939272
 30
0.0
 10
12.2387282364
 20
6.3709345556
 30
0.0
 10
12.2404104724
 20
6.3557862548
 30
0.0
 10
12.2407872658
 20
6.3456550472
 30
0.0
 10
12.2407872658
 20
6.3406041939
 30
0.0
  0
SPLINE
  5
354
100
AcDbEntity
  8
0
100
AcDbSpline
 62
7
  6
CONTINUOUS
 70
0
 71
3
 72
48
 73
44
 74
0
 42
0.0000001
 43
0.0000001
 44
0.0000000001
 40
0.0
 40
0.0
 40
0.0
 40
0.0
 40
0.0063158899
 40
0.0126706797
 40
0.0191025165
 40
0.025648058
 40
0.0323419221
 40
0.0392162652
 40
0.0536140552
 40
0.0611947659
 40
0.0690564915
 40
0.0772175997
 40
0.0856939645
 40
0.0944993396
 40
0.103645447
 40
0.1131421893
 40
0.122997946
 40
0.1332195527
 40
0.1438126331
 40
0.1547816545
 40
0.1661299881
 40
0.1778601838
 40
0.1899738557
 40
0.215353302
 40
0.2422691224
 40
0.2707113841
 40
0.3006623731
 40
0.332097648
 40
0.3649869327
 40
0.3992948208
 40
0.434981328
 40
0.4720023222
 40
0.5103099054
 40
0.5498527799
 40
0.590576537
 40
0.632423903
 40
0.6753349407
 40
0.7192473098
 40
0.7640964278
 40
0.8098157282
 40
0.8563368617
 40
0.9035891153
 40
1.0
 40
1.0
 40
1.0
 40
1.0
 10
12.8713161941
 20
7.2898814789
 30
0.0
 10
12.8698372776
 20
7.2899840355
 30
0.0
 10
12.8668773262
 20
7.2903108417
 30
0.0
 10
12.862470555
 20
7.2911626055
 30
0.0
 10
12.8580932516
 20
7.2923760278
 30
0.0
 10
12.8537479644
 20
7.2939500662
 30
0.0
 10
12.8494363823
 20
7.2958838021
 30
0.0
 10
12.8436471208
 20
7.2989871454
 30
0.0
 10
12.8380150354
 20
7.3027860543
 30
0.0
 10
12.8325646454
 20
7.3071884534
 30
0.0
 10
12.8284477376
 20
7.3109001748
 30
0.0
 10
12.8243748224
 20
7.3149626936
 30
0.0
 10
12.8203468635
 20
7.3193745115
 30
0.0
 10
12.816365548
 20
7.3241337589
 30
0.0
 10
12.8124323324
 20
7.3292384928
 30
0.0
 10
12.8085486937
 20
7.3346866049
 30
0.0
 10
12.8047162113
 20
7.3404759301
 30
0.0
 10
12.8009363199
 20
7.3466040797
 30
0.0
 10
12.797210554
 20
7.3530685894
 30
0.0
 10
12.7935404174
 20
7.3598668405
 30
0.0
 10
12.7899273419
 20
7.3669960437
 30
0.0
 10
12.7863728199
 20
7.374453338
 30
0.0
 10
12.7816398105
 20
7.3849940313
 30
0.0
 10
12.7758960591
 20
7.3989834359
 30
0.0
 10
12.769362636
 20
7.4167763909
 30
0.0
 10
12.7630960175
 20
7.4357979272
 30
0.0
 10
12.7571065438
 20
7.4560169188
 30
0.0
 10
12.7514041023
 20
7.4774005402
 30
0.0
 10
12.7459981531
 20
7.4999138292
 30
0.0
 10
12.740897685
 20
7.5235199281
 30
0.0
 10
12.7361111968
 20
7.5481801127
 30
0.0
 10
12.7316466634
 20
7.5738538692
 30
0.0
 10
12.7275115146
 20
7.6004989676
 30
0.0
 10
12.7237126413
 20
7.6280715506
 30
0.0
 10
12.7202563772
 20
7.656526215
 30
0.0
 10
12.7171484914
 20
7.6858160813
 30
0.0
 10
12.7143941547
 20
7.7158928737
 30
0.0
 10
12.7119979572
 20
7.7467069973
 30
0.0
 10
12.7099638901
 20
7.7782076491
 30
0.0
 10
12.708295361
 20
7.8103428803
 30
0.0
 10
12.7069951366
 20
7.8430596667
 30
0.0
 10
12.7057472662
 20
7.8876830599
 30
0.0
 10
12.7053852895
 20
7.9214054975
 30
0.0
 10
12.7053852895
 20
7.9440350976
 30
0.0
  0
SPLINE
  5
355
100
AcDbEntity
  8
0
100
AcDbSpline
 62
7
  6
CONTINUOUS
 70
0
 71
3
 72
33
 73
29
 74
0
 42
0.0000001
 43
0.0000001
 44
0.0000000001
 40
0.0
 40
0.0
 40
0.0
 40
0.0
 40
0.0162144692
 40
0.0334275894
 40
0.0516720786
 40
0.0709712473
 40
0.091340872
 40
0.1127900333
 40
0.1353223936
 40
0.1589368226
 40
0.183628034
 40
0.2093872636
 40
0.2362023918
 40
0.2640586644
 40
0.2929385944
 40
0.3228225234
 40
0.3536886216
 40
0.3855131152
 40
0.4182705339
 40
0.4519336172
 40
0.486473739
 40
0.521860682
 40
0.5950467061
 40
0.6712269155
 40
0.7501175304
 40
0.8314199122
 40
0.9148213441
 40
1.0
 40
1.0
 40
1.0
 40
1.0
 10
12.8297826602
 20
7.5307118812
 30
0.0
 10
12.8281401702
 20
7.5327314208
 30
0.0
 10
12.8248923206
 20
7.537008671
 30
0.0
 10
12.8202604439
 20
7.5438952678
 30
0.0
 10
12.8157304511
 20
7.5514331413
 30
0.0
 10
12.8113068833
 20
7.5596142533
 30
0.0
 10
12.806994119
 20
7.5684304658
 30
0.0
 10
12.8027964655
 20
7.5778727195
 30
0.0
 10
12.7987182626
 20
7.5879313409
 30
0.0
 10
12.7947637398
 20
7.5985959384
 30
0.0
 10
12.790936994
 20
7.6098554477
 30
0.0
 10
12.7872421065
 20
7.6216981612
 30
0.0
 10
12.7836828939
 20
7.6341117112
 30
0.0
 10
12.7802631932
 20
7.6470831256
 30
0.0
 10
12.7769865589
 20
7.6605988123
 30
0.0
 10
12.7738565003
 20
7.6746445993
 30
0.0
 10
12.7708763245
 20
7.6892057406
 30
0.0
 10
12.7680491727
 20
7.7042669377
 30
0.0
 10
12.7653780841
 20
7.7198123583
 30
0.0
 10
12.7628658414
 20
7.7358256474
 30
0.0
 10
12.7605151401
 20
7.7522899743
 30
0.0
 10
12.7575665616
 20
7.7750764868
 30
0.0
 10
12.7543184196
 20
7.8045622857
 30
0.0
 10
12.7511419616
 20
7.841072489
 30
0.0
 10
12.7486583567
 20
7.8789421359
 30
0.0
 10
12.7468783139
 20
7.9180116922
 30
0.0
 10
12.745809544
 20
7.9581167545
 30
0.0
 10
12.7455765234
 20
7.9851819312
 30
0.0
 10
12.7455765234
 20
7.9988568515
 30
0.0
  0
SPLINE
  5
356
100
AcDbEntity
  8
0
100
AcDbSpline
 62
7
  6
CONTINUOUS
 70
0
 71
3
 72
11
 73
7
 74
0
 42
0.0000001
 43
0.0000001
 44
0.0000000001
 40
0.0
 40
0.0
 40
0.0
 40
0.0
 40
0.2450702049
 40
0.4921432446
 40
0.7431689699
 40
1.0
 40
1.0
 40
1.0
 40
1.0
 10
12.8214146695
 20
7.5639906686
 30
0.0
 10
12.8202356849
 20
7.5640724261
 30
0.0
 10
12.8178743358
 20
7.5643480886
 30
0.0
 10
12.814364073
 20
7.5650943414
 30
0.0
 10
12.8108820443
 20
7.5661729087
 30
0.0
 10
12.8086116597
 20
7.5671004136
 30
0.0
 10
12.8074852067
 20
7.5676152554
 30
0.0
  0
SPLINE
  5
357
100
AcDbEntity
  8
0
100
AcDbSpline
 62
7
  6
CONTINUOUS
 70
0
 71
3
 72
45
 73
41
 74
0
 42
0.0000001
 43
0.0000001
 44
0.0000000001
 40
0.0
 40
0.0
 40
0.0
 40
0.0
 40
0.0070628706
 40
0.0144558874
 40
0.0221882691
 40
0.0302672625
 40
0.038698503
 40
0.0474860403
 40
0.0566327429
 40
0.0661402303
 40
0.0760091809
 40
0.0862393412
 40
0.0968296272
 40
0.1077782911
 40
0.1307393107
 40
0.1550968896
 40
0.1808162276
 40
0.2078554948
 40
0.2361667238
 40
0.2656965207
 40
0.2963866609
 40
0.3281745856
 40
0.3609938312
 40
0.394774411
 40
0.4294431613
 40
0.4649240623
 40
0.5011385381
 40
0.5380057502
 40
0.575442881
 40
0.6133654064
 40
0.6516873629
 40
0.6903216122
 40
0.7291801017
 40
0.7681741235
 40
0.8072145862
 40
0.8462122195
 40
0.8850780457
 40
0.9237229577
 40
0.9620597573
 40
1.0
 40
1.0
 40
1.0
 40
1.0
 10
12.9180098602
 20
8.8028973249
 30
0.0
 10
12.9165712598
 20
8.8015584339
 30
0.0
 10
12.9136955456
 20
8.7987434759
 30
0.0
 10
12.9094809354
 20
8.7942295043
 30
0.0
 10
12.905270895
 20
8.789331999
 30
0.0
 10
12.9010679488
 20
8.7840540476
 30
0.0
 10
12.8968745758
 20
8.7783987079
 30
0.0
 10
12.8926931648
 20
8.7723694176
 30
0.0
 10
12.8885262861
 20
8.765969731
 30
0.0
 10
12.8843763596
 20
8.7592035226
 30
0.0
 10
12.8802459201
 20
8.7520748365
 30
0.0
 10
12.8761374625
 20
8.7445879734
 30
0.0
 10
12.8720534059
 20
8.7367474506
 30
0.0
 10
12.866556583
 20
8.7256515076
 30
0.0
 10
12.8597798853
 20
8.7109185794
 30
0.0
 10
12.8519078795
 20
8.6921787764
 30
0.0
 10
12.8441912561
 20
8.672153585
 30
0.0
 10
12.8366489043
 20
8.6508915324
 30
0.0
 10
12.8292992933
 20
8.6284439337
 30
0.0
 10
12.8221604352
 20
8.6048651972
 30
0.0
 10
12.8152498285
 20
8.5802125321
 30
0.0
 10
12.8085844114
 20
8.5545458281
 30
0.0
 10
12.8021805173
 20
8.5279274856
 30
0.0
 10
12.7960538341
 20
8.5004222578
 30
0.0
 10
12.7902193662
 20
8.4720970848
 30
0.0
 10
12.7846913986
 20
8.4430209272
 30
0.0
 10
12.779483458
 20
8.4132645946
 30
0.0
 10
12.7746082834
 20
8.3829005683
 30
0.0
 10
12.7700777962
 20
8.3520028197
 30
0.0
 10
12.7659030719
 20
8.3206466283
 30
0.0
 10
12.7620943128
 20
8.2889083965
 30
0.0
 10
12.7586608243
 20
8.2568654629
 30
0.0
 10
12.7556109926
 20
8.2245959137
 30
0.0
 10
12.7529522608
 20
8.1921783883
 30
0.0
 10
12.7506911157
 20
8.1596918995
 30
0.0
 10
12.748833057
 20
8.1272155905
 30
0.0
 10
12.7473826298
 20
8.0948286927
 30
0.0
 10
12.7463433156
 20
8.0626099388
 30
0.0
 10
12.7457176908
 20
8.0306381288
 30
0.0
 10
12.7455765234
 20
8.0094137475
 30
0.0
 10
12.7455765234
 20
7.9988568515
 30
0.0
  0
SPLINE
  5
358
100
AcDbEntity
  8
0
100
AcDbSpline
 62
7
  6
CONTINUOUS
 70
0
 71
3
 72
11
 73
7
 74
0
 42
0.0000001
 43
0.0000001
 44
0.0000000001
 40
0.0
 40
0.0
 40
0.0
 40
0.0
 40
0.2450768387
 40
0.4921535645
 40
0.7431783294
 40
1.0
 40
1.0
 40
1.0
 40
1.0
 10
12.9051273876
 20
8.7710913722
 30
0.0
 10
12.9039492187
 20
8.7711730732
 30
0.0
 10
12.9015740912
 20
8.7712260331
 30
0.0
 10
12.8979969263
 20
8.770972046
 30
0.0
 10
12.8944018911
 20
8.7703853757
 30
0.0
 10
12.8920268399
 20
8.7697811193
 30
0.0
 10
12.890840916
 20
8.7694272456
 30
0.0
  0
SPLINE
  5
359
100
AcDbEntity
  8
0
100
AcDbSpline
 62
7
  6
CONTINUOUS
 70
0
 71
3
 72
41
 73
37
 74
0
 42
0.0000001
 43
0.0000001
 44
0.0000000001
 40
0.0
 40
0.0
 40
0.0
 40
0.0
 40
0.029942123
 40
0.0449237706
 40
0.0599145177
 40
0.0899291716
 40
0.1200145961
 40
0.1350933574
 40
0.1501974726
 40
0.1804849654
 40
0.2108989488
 40
0.2414525624
 40
0.2721557217
 40
0.3030149378
 40
0.3340332219
 40
0.3652100719
 40
0.3965415365
 40
0.4280203507
 40
0.4596361361
 40
0.4913756582
 40
0.5232231336
 40
0.5551605782
 40
0.5871681905
 40
0.6192247616
 40
0.6513081064
 40
0.6833955071
 40
0.7154641657
 40
0.7474916563
 40
0.7794563734
 40
0.811337967
 40
0.843117763
 40
0.8747791516
 40
0.9063079641
 40
0.9376927517
 40
0.9689251728
 40
1.0
 40
1.0
 40
1.0
 40
1.0
 10
12.183569331
 20
6.2029766507
 30
0.0
 10
12.1800689136
 20
6.199595484
 30
0.0
 10
12.1746120022
 20
6.1947285581
 30
0.0
 10
12.166969682
 20
6.1886897762
 30
0.0
 10
12.1590839734
 20
6.1829515063
 30
0.0
 10
12.1487944248
 20
6.1763620797
 30
0.0
 10
12.1380045633
 20
6.1705982443
 30
0.0
 10
12.1291057331
 20
6.1664977997
 30
0.0
 10
12.1200230514
 20
6.1627358947
 30
0.0
 10
12.108370393
 20
6.1586907268
 30
0.0
 10
12.0940102353
 20
6.1549207174
 30
0.0
 10
12.0793367262
 20
6.1522499133
 30
0.0
 10
12.0644311821
 20
6.1506930558
 30
0.0
 10
12.0493754838
 20
6.150258452
 30
0.0
 10
12.0342524726
 20
6.1509483144
 30
0.0
 10
12.019145269
 20
6.1527586578
 30
0.0
 10
12.0041368811
 20
6.1556793572
 30
0.0
 10
11.9893097377
 20
6.1596942032
 30
0.0
 10
11.9747452459
 20
6.1647809976
 30
0.0
 10
11.9605233494
 20
6.1709116792
 30
0.0
 10
11.946722096
 20
6.1780524795
 30
0.0
 10
11.9334172155
 20
6.1861641092
 30
0.0
 10
11.9206817093
 20
6.1952019736
 30
0.0
 10
11.9085854553
 20
6.2051164164
 30
0.0
 10
11.8971948287
 20
6.2158529899
 30
0.0
 10
11.8865723423
 20
6.227352752
 30
0.0
 10
11.8767763066
 20
6.2395525862
 30
0.0
 10
11.867860513
 20
6.2523855446
 30
0.0
 10
11.8598739415
 20
6.2657812111
 30
0.0
 10
11.8528604927
 20
6.2796660852
 30
0.0
 10
11.8468587503
 20
6.2939639712
 30
0.0
 10
11.8419017651
 20
6.3085964265
 30
0.0
 10
11.8380168828
 20
6.3234830537
 30
0.0
 10
11.8352255724
 20
6.3385424253
 30
0.0
 10
11.8335433364
 20
6.3536907261
 30
0.0
 10
11.833166543
 20
6.3638219337
 30
0.0
 10
11.833166543
 20
6.368872787
 30
0.0
  0
SPLINE
  5
35A
100
AcDbEntity
  8
0
100
AcDbSpline
 62
7
  6
CONTINUOUS
 70
0
 71
3
 72
15
 73
11
 74
0
 42
0.0000001
 43
0.0000001
 44
0.0000000001
 40
0.0
 40
0.0
 40
0.0
 40
0.0
 40
0.1273482789
 40
0.2538606571
 40
0.3795878378
 40
0.5046051156
 40
0.629017439
 40
0.7529533823
 40
0.8765605864
 40
1.0
 40
1.0
 40
1.0
 40
1.0
 10
11.833166543
 20
9.26665038
 30
0.0
 10
11.833166543
 20
9.273148705
 30
0.0
 10
11.8337870036
 20
9.2861116842
 30
0.0
 10
11.8365929351
 20
9.3053068303
 30
0.0
 10
11.8412456566
 20
9.324019684
 30
0.0
 10
11.8477031394
 20
9.3420752353
 30
0.0
 10
11.8559061591
 20
9.3593069769
 30
0.0
 10
11.8657798842
 20
9.3755558114
 30
0.0
 10
11.8772315065
 20
9.3906694859
 30
0.0
 10
11.8858540063
 20
9.3999017937
 30
0.0
 10
11.8903844778
 20
9.4042779232
 30
0.0
  0
SPLINE
  5
35B
100
AcDbEntity
  8
0
100
AcDbSpline
 62
7
  6
CONTINUOUS
 70
0
 71
3
 72
48
 73
44
 74
0
 42
0.0000001
 43
0.0000001
 44
0.0000000001
 40
0.0
 40
0.0
 40
0.0
 40
0.0
 40
0.0063158899
 40
0.0126706797
 40
0.0191025165
 40
0.025648058
 40
0.0323419221
 40
0.0392162652
 40
0.0536140552
 40
0.0611947659
 40
0.0690564915
 40
0.0772175997
 40
0.0856939645
 40
0.0944993396
 40
0.103645447
 40
0.1131421893
 40
0.122997946
 40
0.1332195527
 40
0.1438126331
 40
0.1547816545
 40
0.1661299881
 40
0.1778601838
 40
0.1899738557
 40
0.215353302
 40
0.2422691224
 40
0.2707113841
 40
0.3006623731
 40
0.332097648
 40
0.3649869327
 40
0.3992948208
 40
0.434981328
 40
0.4720023222
 40
0.5103099054
 40
0.5498527799
 40
0.590576537
 40
0.632423903
 40
0.6753349407
 40
0.7192473098
 40
0.7640964278
 40
0.8098157282
 40
0.8563368617
 40
0.9035891153
 40
1.0
 40
1.0
 40
1.0
 40
1.0
 10
12.99238734
 20
9.0356883812
 30
0.0
 10
12.9938662565
 20
9.0355858246
 30
0.0
 10
12.9968262078
 20
9.0352590184
 30
0.0
 10
13.0012329791
 20
9.0344072546
 30
0.0
 10
13.0056102825
 20
9.0331938323
 30
0.0
 10
13.0099555696
 20
9.031619794
 30
0.0
 10
13.0142671517
 20
9.029686058
 30
0.0
 10
13.0200564133
 20
9.0265827148
 30
0.0
 10
13.0256884986
 20
9.0227838059
 30
0.0
 10
13.0311388886
 20
9.0183814067
 30
0.0
 10
13.0352557965
 20
9.0146696853
 30
0.0
 10
13.0393287117
 20
9.0106071665
 30
0.0
 10
13.0433566705
 20
9.0061953487
 30
0.0
 10
13.0473379861
 20
9.0014361012
 30
0.0
 10
13.0512712017
 20
8.9963313673
 30
0.0
 10
13.0551548404
 20
8.9908832553
 30
0.0
 10
13.0589873228
 20
8.98509393
 30
0.0
 10
13.0627672142
 20
8.9789657804
 30
0.0
 10
13.0664929801
 20
8.9725012708
 30
0.0
 10
13.0701631166
 20
8.9657030197
 30
0.0
 10
13.0737761922
 20
8.9585738164
 30
0.0
 10
13.0773307142
 20
8.9511165221
 30
0.0
 10
13.0820637236
 20
8.9405758288
 30
0.0
 10
13.087807475
 20
8.9265864242
 30
0.0
 10
13.0943408981
 20
8.9087934692
 30
0.0
 10
13.1006075166
 20
8.8897719329
 30
0.0
 10
13.1065969902
 20
8.8695529414
 30
0.0
 10
13.1122994318
 20
8.84816932
 30
0.0
 10
13.117705381
 20
8.8256560309
 30
0.0
 10
13.1228058491
 20
8.802049932
 30
0.0
 10
13.1275923373
 20
8.7773897475
 30
0.0
 10
13.1320568707
 20
8.751715991
 30
0.0
 10
13.1361920195
 20
8.7250708925
 30
0.0
 10
13.1399908928
 20
8.6974983096
 30
0.0
 10
13.1434471569
 20
8.6690436452
 30
0.0
 10
13.1465550427
 20
8.6397537788
 30
0.0
 10
13.1493093794
 20
8.6096769864
 30
0.0
 10
13.1517055769
 20
8.5788628629
 30
0.0
 10
13.153739644
 20
8.5473622111
 30
0.0
 10
13.1554081731
 20
8.5152269799
 30
0.0
 10
13.1567083975
 20
8.4825101934
 30
0.0
 10
13.1579562679
 20
8.4378868002
 30
0.0
 10
13.1583182446
 20
8.4041643626
 30
0.0
 10
13.1583182446
 20
8.3815347625
 30
0.0
  0
SPLINE
  5
35C
100
AcDbEntity
  8
0
100
AcDbSpline
 62
7
  6
CONTINUOUS
 70
0
 71
3
 72
15
 73
11
 74
0
 42
0.0000001
 43
0.0000001
 44
0.0000000001
 40
0.0
 40
0.0
 40
0.0
 40
0.0
 40
0.1273482789
 40
0.2538606571
 40
0.3795878378
 40
0.5046051156
 40
0.629017439
 40
0.7529533823
 40
0.8765605864
 40
1.0
 40
1.0
 40
1.0
 40
1.0
 10
11.833166543
 20
6.368872787
 30
0.0
 10
11.833166543
 20
6.375371112
 30
0.0
 10
11.8337870036
 20
6.3883340912
 30
0.0
 10
11.8365929351
 20
6.4075292373
 30
0.0
 10
11.8412456566
 20
6.426242091
 30
0.0
 10
11.8477031394
 20
6.4442976423
 30
0.0
 10
11.8559061591
 20
6.4615293839
 30
0.0
 10
11.8657798842
 20
6.4777782184
 30
0.0
 10
11.8772315065
 20
6.4928918929
 30
0.0
 10
11.8858540063
 20
6.5021242007
 30
0.0
 10
11.8903844778
 20
6.5065003302
 30
0.0
  0
SPLINE
  5
35D
100
AcDbEntity
  8
0
100
AcDbSpline
 62
7
  6
CONTINUOUS
 70
0
 71
3
 72
47
 73
43
 74
0
 42
0.0000001
 43
0.0000001
 44
0.0000000001
 40
0.0
 40
0.0
 40
0.0
 40
0.0
 40
0.0948218133
 40
0.1413265321
 40
0.187138264
 40
0.2321911647
 40
0.2764214714
 40
0.3197671223
 40
0.3621677342
 40
0.4035649433
 40
0.4439025545
 40
0.4831266859
 40
0.521185959
 40
0.5580317533
 40
0.5936184736
 40
0.627903771
 40
0.6608488544
 40
0.6924189194
 40
0.7225836014
 40
0.751317463
 40
0.7786006676
 40
0.8044198917
 40
0.8287693827
 40
0.8403942976
 40
0.8516538345
 40
0.8625500446
 40
0.8730858941
 40
0.883265152
 40
0.8930926224
 40
0.9025742694
 40
0.9117172013
 40
0.9205300006
 40
0.9290227643
 40
0.9372072491
 40
0.9450971965
 40
0.9527083497
 40
0.9600587173
 40
0.9740546739
 40
0.9807555038
 40
0.9872926294
 40
0.9936965611
 40
1.0
 40
1.0
 40
1.0
 40
1.0
 10
13.1428634297
 20
8.3826065576
 30
0.0
 10
13.1428634297
 20
8.4046109837
 30
0.0
 10
13.1425210515
 20
8.4374089518
 30
0.0
 10
13.1413419999
 20
8.4808210501
 30
0.0
 10
13.140113112
 20
8.5126761614
 30
0.0
 10
13.1385359405
 20
8.5439874405
 30
0.0
 10
13.1366129619
 20
8.5747060645
 30
0.0
 10
13.1343472208
 20
8.6047841544
 30
0.0
 10
13.1317422702
 20
8.6341748537
 30
0.0
 10
13.1288022056
 20
8.6628323657
 30
0.0
 10
13.1255316675
 20
8.6907120629
 30
0.0
 10
13.1219358052
 20
8.7177705376
 30
0.0
 10
13.118020268
 20
8.7439656684
 30
0.0
 10
13.1137912131
 20
8.7692567026
 30
0.0
 10
13.1092553096
 20
8.7936043284
 30
0.0
 10
13.1044196955
 20
8.8169707269
 30
0.0
 10
13.0992919618
 20
8.8393196358
 30
0.0
 10
13.0938801655
 20
8.8606164285
 30
0.0
 10
13.0881928104
 20
8.8808281952
 30
0.0
 10
13.0822388016
 20
8.8999237462
 30
0.0
 10
13.0760273925
 20
8.9178738274
 30
0.0
 10
13.0695682399
 20
8.9346506947
 30
0.0
 10
13.0639032285
 20
8.9478290341
 30
0.0
 10
13.0592429977
 20
8.9577510815
 30
0.0
 10
13.0557462424
 20
8.9647680109
 30
0.0
 10
13.0521951473
 20
8.9714729518
 30
0.0
 10
13.0485910956
 20
8.9778633693
 30
0.0
 10
13.0449354228
 20
8.9839367881
 30
0.0
 10
13.0412294948
 20
8.9896908716
 30
0.0
 10
13.0374747524
 20
8.9951234467
 30
0.0
 10
13.0336725147
 20
9.0002323875
 30
0.0
 10
13.0298242106
 20
9.0050157556
 30
0.0
 10
13.0259312555
 20
9.0094717139
 30
0.0
 10
13.0219949375
 20
9.0135984903
 30
0.0
 10
13.0180168368
 20
9.0173944357
 30
0.0
 10
13.0139978673
 20
9.0208582455
 30
0.0
 10
13.0086752668
 20
9.0249637634
 30
0.0
 10
13.0031825479
 20
9.0284929168
 30
0.0
 10
12.9975463376
 20
9.0313610799
 30
0.0
 10
12.9933464297
 20
9.0331426797
 30
0.0
 10
12.9891154656
 20
9.0345840642
 30
0.0
 10
12.9862569659
 20
9.0353223924
 30
0.0
 10
12.9848274781
 20
9.0356327038
 30
0.0
  0
SPLINE
  5
35E
100
AcDbEntity
  8
0
100
AcDbSpline
 62
7
  6
CONTINUOUS
 70
0
 71
3
 72
53
 73
49
 74
0
 42
0.0000001
 43
0.0000001
 44
0.0000000001
 40
0.0
 40
0.0
 40
0.0
 40
0.0
 40
0.0412318076
 40
0.082939274
 40
0.1249988229
 40
0.1672850374
 40
0.2096719146
 40
0.2520329686
 40
0.2942418443
 40
0.336172753
 40
0.3777009649
 40
0.4187032881
 40
0.4590585548
 40
0.4986481136
 40
0.53735633
 40
0.5750711004
 40
0.6116843848
 40
0.6470927668
 40
0.6811980529
 40
0.713907928
 40
0.7297128346
 40
0.7451373515
 40
0.7601719152
 40
0.7748075411
 40
0.7890357723
 40
0.8028487855
 40
0.816239401
 40
0.8292011442
 40
0.8417283316
 40
0.853816088
 40
0.8654605172
 40
0.8766586882
 40
0.8874088937
 40
0.8977106332
 40
0.9075649583
 40
0.9169744973
 40
0.9259438874
 40
0.9344798994
 40
0.9425919608
 40
0.9502924445
 40
0.95759729
 40
0.9645264906
 40
0.9711047849
 40
0.9773622714
 40
0.9833349947
 40
0.9890653581
 40
0.9946021312
 40
1.0
 40
1.0
 40
1.0
 40
1.0
 10
13.1428634297
 20
8.3826065576
 30
0.0
 10
13.1428634297
 20
8.366602664
 30
0.0
 10
13.1426186582
 20
8.3344097682
 30
0.0
 10
13.1415361826
 20
8.2859026356
 30
0.0
 10
13.1397393225
 20
8.2370070954
 30
0.0
 10
13.1372337374
 20
8.1878787506
 30
0.0
 10
13.1340273898
 20
8.1386738867
 30
0.0
 10
13.1301304668
 20
8.0895490065
 30
0.0
 10
13.1255553786
 20
8.0406603725
 30
0.0
 10
13.1203167038
 20
7.9921634853
 30
0.0
 10
13.11443115
 20
7.9442125929
 30
0.0
 10
13.1079174985
 20
7.8969601944
 30
0.0
 10
13.1007965466
 20
7.8505565512
 30
0.0
 10
13.093091042
 20
7.8051492029
 30
0.0
 10
13.084825612
 20
7.7608824943
 30
0.0
 10
13.0760266877
 20
7.7178970993
 30
0.0
 10
13.0667224176
 20
7.6763295911
 30
0.0
 10
13.0569425928
 20
7.6363118936
 30
0.0
 10
13.0467185058
 20
7.5979711954
 30
0.0
 10
13.037756146
 20
7.5671770529
 30
0.0
 10
13.030375087
 20
7.5434817804
 30
0.0
 10
13.0248121927
 20
7.5264074881
 30
0.0
 10
13.0191632611
 20
7.509840249
 30
0.0
 10
13.0134328014
 20
7.4937931952
 30
0.0
 10
13.0076253584
 20
7.4782790697
 30
0.0
 10
13.0017455762
 20
7.4633101726
 30
0.0
 10
12.9957981337
 20
7.4488983693
 30
0.0
 10
12.989787755
 20
7.4350550749
 30
0.0
 10
12.9837192468
 20
7.4217912349
 30
0.0
 10
12.9775973888
 20
7.40911734
 30
0.0
 10
12.9714270939
 20
7.3970433723
 30
0.0
 10
12.9652131741
 20
7.3855788612
 30
0.0
 10
12.9589606159
 20
7.3747327838
 30
0.0
 10
12.9526742366
 20
7.3645136734
 30
0.0
 10
12.9463590469
 20
7.3549294663
 30
0.0
 10
12.9400198334
 20
7.3459876693
 30
0.0
 10
12.9336615574
 20
7.3376951594
 30
0.0
 10
12.9272889198
 20
7.3300584023
 30
0.0
 10
12.9209067301
 20
7.3230832358
 30
0.0
 10
12.9145195223
 20
7.3167751203
 30
0.0
 10
12.9081318368
 20
7.3111389633
 30
0.0
 10
12.9017479626
 20
7.3061793718
 30
0.0
 10
12.8953721319
 20
7.3019005995
 30
0.0
 10
12.8890084518
 20
7.2983067314
 30
0.0
 10
12.8826612088
 20
7.2954018026
 30
0.0
 10
12.8763346582
 20
7.2931896946
 30
0.0
 10
12.8700349679
 20
7.2916743563
 30
0.0
 10
12.8658162988
 20
7.2911256672
 30
0.0
 10
12.8637267798
 20
7.2909721312
 30
0.0
  0
SPLINE
  5
35F
100
AcDbEntity
  8
0
100
AcDbSpline
 62
7
  6
CONTINUOUS
 70
0
 71
3
 72
57
 73
53
 74
0
 42
0.0000001
 43
0.0000001
 44
0.0000000001
 40
0.0
 40
0.0
 40
0.0
 40
0.0
 40
0.0452111151
 40
0.0910028922
 40
0.1371914731
 40
0.183589865
 40
0.2300105241
 40
0.2762656379
 40
0.3221682775
 40
0.3675333237
 40
0.4121784488
 40
0.4559250957
 40
0.4985994741
 40
0.5400335829
 40
0.5800662712
 40
0.6185443608
 40
0.637155417
 40
0.6553246567
 40
0.6730357378
 40
0.6902730659
 40
0.7070219026
 40
0.7232683064
 40
0.7389993698
 40
0.7542031206
 40
0.7688687611
 40
0.7829866902
 40
0.7965486293
 40
0.8095478594
 40
0.8219792442
 40
0.8338396478
 40
0.8451280137
 40
0.8558458432
 40
0.8659975471
 40
0.8755909364
 40
0.8846379793
 40
0.8931554241
 40
0.9011659533
 40
0.9086991512
 40
0.9157928765
 40
0.9224945133
 40
0.9288620062
 40
0.9349644242
 40
0.9408812842
 40
0.946700577
 40
0.9525151341
 40
0.9584180353
 40
0.9644979297
 40
0.9708353444
 40
0.9775004039
 40
0.9845522178
 40
0.9920391601
 40
1.0
 40
1.0
 40
1.0
 40
1.0
 10
13.087217381
 20
8.3288565987
 30
0.0
 10
13.087217381
 20
8.3147848649
 30
0.0
 10
13.0869664198
 20
8.2864600994
 30
0.0
 10
13.0858598078
 20
8.2437723658
 30
0.0
 10
13.0840248414
 20
8.2007397738
 30
0.0
 10
13.0814693497
 20
8.1575479378
 30
0.0
 10
13.0782043558
 20
8.1143831596
 30
0.0
 10
13.0742439403
 20
8.0714315589
 30
0.0
 10
13.0696052241
 20
8.0288783512
 30
0.0
 10
13.0643082808
 20
7.9869070136
 30
0.0
 10
13.058376059
 20
7.9456984912
 30
0.0
 10
13.0518342797
 20
7.9054304001
 30
0.0
 10
13.044711325
 20
7.866276276
 30
0.0
 10
13.0370381352
 20
7.8284047167
 30
0.0
 10
13.0288480193
 20
7.7919789674
 30
0.0
 10
13.0215432251
 20
7.7626428682
 30
0.0
 10
13.0154547597
 20
7.7400236096
 30
0.0
 10
13.0108324714
 20
7.7237049233
 30
0.0
 10
13.0061085956
 20
7.7078609993
 30
0.0
 10
13.0012881894
 20
7.6925088879
 30
0.0
 10
12.9963765191
 20
7.6776651158
 30
0.0
 10
12.9913788354
 20
7.6633456635
 30
0.0
 10
12.9863006079
 20
7.6495659192
 30
0.0
 10
12.9811472729
 20
7.6363406982
 30
0.0
 10
12.9759244298
 20
7.6236841906
 30
0.0
 10
12.9706377172
 20
7.6116099633
 30
0.0
 10
12.9652928019
 20
7.600130948
 30
0.0
 10
12.9598954962
 20
7.5892593866
 30
0.0
 10
12.9544515132
 20
7.5790068835
 30
0.0
 10
12.9489667448
 20
7.5693842957
 30
0.0
 10
12.9434469553
 20
7.5604018158
 30
0.0
 10
12.9378979754
 20
7.5520688828
 30
0.0
 10
12.9323255799
 20
7.5443941993
 30
0.0
 10
12.9267353905
 20
7.5373857789
 30
0.0
 10
12.9211330357
 20
7.5310508241
 30
0.0
 10
12.9155237808
 20
7.5253959788
 30
0.0
 10
12.9099128321
 20
7.520427143
 30
0.0
 10
12.9043049835
 20
7.5161498551
 30
0.0
 10
12.898704865
 20
7.5125693244
 30
0.0
 10
12.8931170407
 20
7.5096906832
 30
0.0
 10
12.8875463171
 20
7.5075193719
 30
0.0
 10
12.8819985165
 20
7.5060606917
 30
0.0
 10
12.8764809034
 20
7.5053198341
 30
0.0
 10
12.8710025946
 20
7.505300233
 30
0.0
 10
12.8655738424
 20
7.5060029495
 30
0.0
 10
12.8602047895
 20
7.5074258839
 30
0.0
 10
12.8549041018
 20
7.5095643691
 30
0.0
 10
12.8496785738
 20
7.5124126021
 30
0.0
 10
12.8445332265
 20
7.5159642279
 30
0.0
 10
12.8394722199
 20
7.5202134613
 30
0.0
 10
12.8344995117
 20
7.5251541415
 30
0.0
 10
12.8313460501
 20
7.5287896001
 30
0.0
 10
12.8297826602
 20
7.5307118812
 30
0.0
  0
SPLINE
  5
360
100
AcDbEntity
  8
0
100
AcDbSpline
 62
7
  6
CONTINUOUS
 70
0
 71
3
 72
51
 73
47
 74
0
 42
0.0000001
 43
0.0000001
 44
0.0000000001
 40
0.0
 40
0.0
 40
0.0
 40
0.0
 40
0.0417744843
 40
0.0840380839
 40
0.1266601362
 40
0.1695087031
 40
0.212450867
 40
0.2553533782
 40
0.2980831295
 40
0.3405076991
 40
0.3824958705
 40
0.4239181636
 40
0.4646473676
 40
0.5045590818
 40
0.5435322671
 40
0.5814498133
 40
0.6181991296
 40
0.6536727683
 40
0.6877690975
 40
0.7203930432
 40
0.7514569337
 40
0.7663791342
 40
0.7808823543
 40
0.7949581844
 40
0.8085989353
 40
0.8217976447
 40
0.8345481875
 40
0.8468453172
 40
0.8586847848
 40
0.8700634277
 40
0.8809793084
 40
0.8914318672
 40
0.9014221009
 40
0.9109528038
 40
0.9200288152
 40
0.9286573828
 40
0.9368485186
 40
0.9446155236
 40
0.9519754893
 40
0.9589499968
 40
0.9655657475
 40
0.9778459114
 40
0.9836071632
 40
0.9891799111
 40
0.9946230109
 40
1.0
 40
1.0
 40
1.0
 40
1.0
 10
13.0198564216
 20
8.3187909046
 30
0.0
 10
13.0198564216
 20
8.3075041172
 30
0.0
 10
13.0196803335
 20
8.2847980368
 30
0.0
 10
13.0189018931
 20
8.2505841913
 30
0.0
 10
13.0176098605
 20
8.2160954303
 30
0.0
 10
13.0158084882
 20
8.1814459754
 30
0.0
 10
13.0135037169
 20
8.1467504198
 30
0.0
 10
13.0107031714
 20
8.1121235642
 30
0.0
 10
13.007416126
 20
8.0776799631
 30
0.0
 10
13.0036534782
 20
8.043533566
 30
0.0
 10
12.9994277114
 20
8.0097973309
 30
0.0
 10
12.9947528546
 20
7.9765828497
 30
0.0
 10
12.9896444364
 20
7.9439999747
 30
0.0
 10
12.9841194346
 20
7.9121564509
 30
0.0
 10
12.9781962215
 20
7.8811575542
 30
0.0
 10
12.9718945039
 20
7.8511057374
 30
0.0
 10
12.9652352601
 20
7.822100275
 30
0.0
 10
12.9582406682
 20
7.7942369489
 30
0.0
 10
12.9509340442
 20
7.7676076194
 30
0.0
 10
12.9433397239
 20
7.7423002355
 30
0.0
 10
12.936706788
 20
7.7221202362
 30
0.0
 10
12.9312636657
 20
7.7067094943
 30
0.0
 10
12.9271799686
 20
7.6956878812
 30
0.0
 10
12.923043581
 20
7.6850565893
 30
0.0
 10
12.9188579104
 20
7.6748243706
 30
0.0
 10
12.9146264196
 20
7.6649996575
 30
0.0
 10
12.9103526173
 20
7.6555905317
 30
0.0
 10
12.9060400293
 20
7.6466047263
 30
0.0
 10
12.901692218
 20
7.6380496131
 30
0.0
 10
12.8973127614
 20
7.6299321967
 30
0.0
 10
12.8929052511
 20
7.6222591091
 30
0.0
 10
12.8884732929
 20
7.6150365969
 30
0.0
 10
12.8840204759
 20
7.6082705273
 30
0.0
 10
12.8795503965
 20
7.6019663642
 30
0.0
 10
12.8750665967
 20
7.5961291957
 30
0.0
 10
12.8705726013
 20
7.590763691
 30
0.0
 10
12.8660718607
 20
7.585874184
 30
0.0
 10
12.8615676716
 20
7.5814645449
 30
0.0
 10
12.8570635854
 20
7.5775385712
 30
0.0
 10
12.8525616623
 20
7.5740990024
 30
0.0
 10
12.8467148918
 20
7.5702625477
 30
0.0
 10
12.8407204055
 20
7.5672622336
 30
0.0
 10
12.8346486092
 20
7.5652721128
 30
0.0
 10
12.8302092683
 20
7.5643123445
 30
0.0
 10
12.8257948271
 20
7.5638566773
 30
0.0
 10
12.8228639641
 20
7.5638901663
 30
0.0
 10
12.8214146695
 20
7.5639906686
 30
0.0
  0
SPLINE
  5
361
100
AcDbEntity
  8
0
100
AcDbSpline
 62
7
  6
CONTINUOUS
 70
0
 71
3
 72
56
 73
52
 74
0
 42
0.0000001
 43
0.0000001
 44
0.0000000001
 40
0.0
 40
0.0
 40
0.0
 40
0.0
 40
0.0532131131
 40
0.105633554
 40
0.1571443692
 40
0.2076346289
 40
0.2569945169
 40
0.3051184503
 40
0.3519044663
 40
0.3972549662
 40
0.4410771197
 40
0.4832833744
 40
0.5237920264
 40
0.5625278718
 40
0.5994229784
 40
0.6344176177
 40
0.6511866862
 40
0.6674626524
 40
0.683240886
 40
0.6985176179
 40
0.7132899542
 40
0.7275558774
 40
0.7413145617
 40
0.7545661886
 40
0.767312411
 40
0.7795562339
 40
0.7913023825
 40
0.8025574865
 40
0.8133302408
 40
0.823631933
 40
0.833476506
 40
0.8428812547
 40
0.8518670268
 40
0.8604588344
 40
0.8686863032
 40
0.876584014
 40
0.8841919771
 40
0.8915555538
 40
0.8987254324
 40
0.9057569207
 40
0.9127089848
 40
0.919642806
 40
0.9266200918
 40
0.9337012954
 40
0.9409440611
 40
0.9484018784
 40
0.9641402673
 40
0.9725130258
 40
0.9812628804
 40
0.9904174298
 40
1.0
 40
1.0
 40
1.0
 40
1.0
 10
13.087217381
 20
8.3288565987
 30
0.0
 10
13.087217381
 20
8.3391557219
 30
0.0
 10
13.0870847194
 20
8.3596008242
 30
0.0
 10
13.0864791267
 20
8.3900101757
 30
0.0
 10
13.0854697041
 20
8.4198816159
 30
0.0
 10
13.0840589687
 20
8.4491438134
 30
0.0
 10
13.0822502877
 20
8.4777273941
 30
0.0
 10
13.0800480562
 20
8.5055643164
 30
0.0
 10
13.0774575794
 20
8.5325884498
 30
0.0
 10
13.0744851112
 20
8.5587355835
 30
0.0
 10
13.0711378268
 20
8.5839436336
 30
0.0
 10
13.0674238059
 20
8.6081527944
 30
0.0
 10
13.0633520087
 20
8.6313056635
 30
0.0
 10
13.0589322672
 20
8.6533474912
 30
0.0
 10
13.0541752045
 20
8.6742259884
 30
0.0
 10
13.0498807054
 20
8.6908424509
 30
0.0
 10
13.0462731519
 20
8.7035079613
 30
0.0
 10
13.0435288465
 20
8.7125507055
 30
0.0
 10
13.0407090323
 20
8.7212671338
 30
0.0
 10
13.0378153636
 20
8.7296521033
 30
0.0
 10
13.0348495926
 20
8.7377006647
 30
0.0
 10
13.0318134143
 20
8.7454080581
 30
0.0
 10
13.0287087049
 20
8.7527697653
 30
0.0
 10
13.0255372019
 20
8.7597814378
 30
0.0
 10
13.0223008386
 20
8.7664389874
 30
0.0
 10
13.0190014503
 20
8.7727385093
 30
0.0
 10
13.0156409458
 20
8.7786763304
 30
0.0
 10
13.0122212793
 20
8.7842490182
 30
0.0
 10
13.0087442973
 20
8.7894533005
 30
0.0
 10
13.0052120217
 20
8.7942862143
 30
0.0
 10
13.0016262597
 20
8.7987448878
 30
0.0
 10
12.9979889897
 20
8.8028267583
 30
0.0
 10
12.9943020339
 20
8.8065293535
 30
0.0
 10
12.9905672465
 20
8.809850372
 30
0.0
 10
12.9867865179
 20
8.812787685
 30
0.0
 10
12.9829616524
 20
8.8153390977
 30
0.0
 10
12.9790947123
 20
8.8175026993
 30
0.0
 10
12.9751877586
 20
8.8192763824
 30
0.0
 10
12.9712432617
 20
8.8206584057
 30
0.0
 10
12.9672639257
 20
8.8216470827
 30
0.0
 10
12.9632528317
 20
8.8222411531
 30
0.0
 10
12.9592133125
 20
8.8224399801
 30
0.0
 10
12.9551487766
 20
8.8222433013
 30
0.0
 10
12.9510626132
 20
8.8216518221
 30
0.0
 10
12.9469577144
 20
8.8206662556
 30
0.0
 10
12.9413647284
 20
8.8187959759
 30
0.0
 10
12.9358306168
 20
8.8161407381
 30
0.0
 10
12.9304060138
 20
8.8128155057
 30
0.0
 10
12.9262457115
 20
8.8098838607
 30
0.0
 10
12.9220815814
 20
8.8065689114
 30
0.0
 10
12.9193675056
 20
8.804160872
 30
0.0
 10
12.9180098602
 20
8.8028973249
 30
0.0
  0
SPLINE
  5
362
100
AcDbEntity
  8
0
100
AcDbSpline
 62
7
  6
CONTINUOUS
 70
0
 71
3
 72
40
 73
36
 74
0
 42
0.0000001
 43
0.0000001
 44
0.0000000001
 40
0.0
 40
0.0
 40
0.0
 40
0.0
 40
0.0964132781
 40
0.1901869921
 40
0.2359074318
 40
0.2807575844
 40
0.3246709866
 40
0.3675830148
 40
0.4094313598
 40
0.4501560995
 40
0.4896999016
 40
0.528008388
 40
0.5650302757
 40
0.6007176322
 40
0.6350263452
 40
0.6679164477
 40
0.699352486
 40
0.7293041846
 40
0.7577471706
 40
0.7846636899
 40
0.8100437507
 40
0.8338866661
 40
0.8562027356
 40
0.8770156382
 40
0.8963657406
 40
0.9143140809
 40
0.9309474397
 40
0.9463845834
 40
0.9607827633
 40
0.9676572724
 40
0.9743513226
 40
0.9808970232
 40
0.987329015
 40
0.9936839639
 40
1.0
 40
1.0
 40
1.0
 40
1.0
 10
13.0198564216
 20
8.3187909046
 30
0.0
 10
13.0198564216
 20
8.3344376564
 30
0.0
 10
13.0195249276
 20
8.3653038912
 30
0.0
 10
13.0182418631
 20
8.4035711657
 30
0.0
 10
13.0166906687
 20
8.4334485334
 30
0.0
 10
13.0152842465
 20
8.4552289763
 30
0.0
 10
13.0136274615
 20
8.4765347043
 30
0.0
 10
13.0117230305
 20
8.497330627
 30
0.0
 10
13.0095741562
 20
8.5175824508
 30
0.0
 10
13.0071844142
 20
8.5372567975
 30
0.0
 10
13.0045577678
 20
8.5563212479
 30
0.0
 10
13.0016986146
 20
8.57474441
 30
0.0
 10
12.998611724
 20
8.592495963
 30
0.0
 10
12.9953022165
 20
8.6095467056
 30
0.0
 10
12.9917756158
 20
8.6258686278
 30
0.0
 10
12.9880378076
 20
8.6414349572
 30
0.0
 10
12.984094989
 20
8.6562201956
 30
0.0
 10
12.9799536955
 20
8.6702001895
 30
0.0
 10
12.9756207997
 20
8.6833521935
 30
0.0
 10
12.9711034189
 20
8.6956548975
 30
0.0
 10
12.9664088856
 20
8.7070884867
 30
0.0
 10
12.9615447633
 20
8.7176347295
 30
0.0
 10
12.9565186776
 20
8.7272769919
 30
0.0
 10
12.951338185
 20
8.7360002329
 30
0.0
 10
12.9460106409
 20
8.7437910559
 30
0.0
 10
12.9405430742
 20
8.7506374746
 30
0.0
 10
12.9349413662
 20
8.7565287525
 30
0.0
 10
12.9292120022
 20
8.7614539709
 30
0.0
 10
12.9242586565
 20
8.7647952618
 30
0.0
 10
12.9202556478
 20
8.7669410687
 30
0.0
 10
12.9172745491
 20
8.7682781572
 30
0.0
 10
12.9142700851
 20
8.7693665027
 30
0.0
 10
12.9112434974
 20
8.7702054956
 30
0.0
 10
12.9081965471
 20
8.7707945111
 30
0.0
 10
12.906149951
 20
8.7710204619
 30
0.0
 10
12.9051273876
 20
8.7710913722
 30
0.0
  0
SPLINE
  5
363
100
AcDbEntity
  8
0
100
AcDbSpline
 62
7
  6
CONTINUOUS
 70
0
 71
3
 72
41
 73
37
 74
0
 42
0.0000001
 43
0.0000001
 44
0.0000000001
 40
0.0
 40
0.0
 40
0.0
 40
0.0
 40
0.029942123
 40
0.0449237706
 40
0.0599145177
 40
0.0899291716
 40
0.1200145961
 40
0.1350933574
 40
0.1501974726
 40
0.1804849654
 40
0.2108989488
 40
0.2414525624
 40
0.2721557217
 40
0.3030149378
 40
0.3340332219
 40
0.3652100719
 40
0.3965415365
 40
0.4280203507
 40
0.4596361361
 40
0.4913756582
 40
0.5232231336
 40
0.5551605782
 40
0.5871681905
 40
0.6192247616
 40
0.6513081064
 40
0.6833955071
 40
0.7154641657
 40
0.7474916563
 40
0.7794563734
 40
0.811337967
 40
0.843117763
 40
0.8747791516
 40
0.9063079641
 40
0.9376927517
 40
0.9689251728
 40
1.0
 40
1.0
 40
1.0
 40
1.0
 10
12.183569331
 20
9.1007542437
 30
0.0
 10
12.1800689136
 20
9.097373077
 30
0.0
 10
12.1746120022
 20
9.0925061511
 30
0.0
 10
12.166969682
 20
9.0864673692
 30
0.0
 10
12.1590839734
 20
9.0807290993
 30
0.0
 10
12.1487944248
 20
9.0741396727
 30
0.0
 10
12.1380045633
 20
9.0683758373
 30
0.0
 10
12.1291057331
 20
9.0642753927
 30
0.0
 10
12.1200230514
 20
9.0605134877
 30
0.0
 10
12.108370393
 20
9.0564683198
 30
0.0
 10
12.0940102353
 20
9.0526983104
 30
0.0
 10
12.0793367262
 20
9.0500275062
 30
0.0
 10
12.0644311821
 20
9.0484706488
 30
0.0
 10
12.0493754838
 20
9.048036045
 30
0.0
 10
12.0342524726
 20
9.0487259074
 30
0.0
 10
12.019145269
 20
9.0505362508
 30
0.0
 10
12.0041368811
 20
9.0534569502
 30
0.0
 10
11.9893097377
 20
9.0574717962
 30
0.0
 10
11.9747452459
 20
9.0625585906
 30
0.0
 10
11.9605233494
 20
9.0686892722
 30
0.0
 10
11.946722096
 20
9.0758300725
 30
0.0
 10
11.9334172155
 20
9.0839417022
 30
0.0
 10
11.9206817093
 20
9.0929795666
 30
0.0
 10
11.9085854553
 20
9.1028940094
 30
0.0
 10
11.8971948287
 20
9.1136305829
 30
0.0
 10
11.8865723423
 20
9.125130345
 30
0.0
 10
11.8767763066
 20
9.1373301792
 30
0.0
 10
11.867860513
 20
9.1501631376
 30
0.0
 10
11.8598739415
 20
9.1635588041
 30
0.0
 10
11.8528604927
 20
9.1774436782
 30
0.0
 10
11.8468587503
 20
9.1917415642
 30
0.0
 10
11.8419017651
 20
9.2063740195
 30
0.0
 10
11.8380168828
 20
9.2212606467
 30
0.0
 10
11.8352255724
 20
9.2363200183
 30
0.0
 10
11.8335433364
 20
9.2514683191
 30
0.0
 10
11.833166543
 20
9.2615995267
 30
0.0
 10
11.833166543
 20
9.26665038
 30
0.0
  0
SPLINE
  5
364
100
AcDbEntity
  8
0
100
AcDbSpline
 62
7
  6
CONTINUOUS
 70
0
 71
3
 72
54
 73
50
 74
0
 42
0.0000001
 43
0.0000001
 44
0.0000000001
 40
0.0
 40
0.0
 40
0.0
 40
0.0
 40
0.0417740106
 40
0.0840368515
 40
0.1266583734
 40
0.1695063147
 40
0.2124478814
 40
0.2553497884
 40
0.2980789417
 40
0.340502919
 40
0.3824905067
 40
0.4239122259
 40
0.4646408671
 40
0.5045520317
 40
0.5435246831
 40
0.5814417135
 40
0.6181905344
 40
0.6536637003
 40
0.6877595809
 40
0.704261357
 40
0.7203837372
 40
0.736116
 40
0.7514479644
 40
0.7663699709
 40
0.7808730136
 40
0.7949486603
 40
0.8085892482
 40
0.8217877894
 40
0.8345381805
 40
0.8468351604
 40
0.8586744859
 40
0.8700529987
 40
0.8809687469
 40
0.891421194
 40
0.9014113064
 40
0.910941912
 40
0.9200178165
 40
0.9286462958
 40
0.9368373422
 40
0.9446042644
 40
0.9519641574
 40
0.9589385856
 40
0.9655542762
 40
0.9718437871
 40
0.9778461898
 40
0.9836073681
 40
0.9891800557
 40
0.994623083
 40
1.0
 40
1.0
 40
1.0
 40
1.0
 10
13.1583182446
 20
8.3815347625
 30
0.0
 10
13.1583182446
 20
8.365210872
 30
0.0
 10
13.1580635761
 20
8.3323715594
 30
0.0
 10
13.1569377238
 20
8.2828887787
 30
0.0
 10
13.1550690944
 20
8.2330084461
 30
0.0
 10
13.1524638038
 20
8.182895639
 30
0.0
 10
13.1491304672
 20
8.1327161842
 30
0.0
 10
13.1450801005
 20
8.0826360787
 30
0.0
 10
13.1403261217
 20
8.0328210109
 30
0.0
 10
13.1348842897
 20
7.98343578
 30
0.0
 10
13.1287726591
 20
7.9346437555
 30
0.0
 10
13.1220115189
 20
7.8866063304
 30
0.0
 10
13.1146233271
 20
7.8394823818
 30
0.0
 10
13.1066326388
 20
7.7934277403
 30
0.0
 10
13.0980660264
 20
7.748594659
 30
0.0
 10
13.0889519899
 20
7.7051313268
 30
0.0
 10
13.0793208762
 20
7.6631812703
 30
0.0
 10
13.0692047384
 20
7.6228831962
 30
0.0
 10
13.0603044686
 20
7.5904452165
 30
0.0
 10
13.0529538202
 20
7.5654303287
 30
0.0
 10
13.0474008688
 20
7.5473680373
 30
0.0
 10
13.0417525353
 20
7.5298149335
 30
0.0
 10
13.0360134946
 20
7.5127854985
 30
0.0
 10
13.0301884721
 20
7.4962938047
 30
0.0
 10
13.024282352
 20
7.4803534547
 30
0.0
 10
13.0182999628
 20
7.4649776103
 30
0.0
 10
13.0122463329
 20
7.4501789332
 30
0.0
 10
13.0061264067
 20
7.4359696268
 30
0.0
 10
12.9999453065
 20
7.4223613695
 30
0.0
 10
12.9937080989
 20
7.4093653538
 30
0.0
 10
12.987419951
 20
7.3969922369
 30
0.0
 10
12.9810860428
 20
7.3852521478
 30
0.0
 10
12.9747115426
 20
7.3741546875
 30
0.0
 10
12.9683017111
 20
7.3637088727
 30
0.0
 10
12.9618616776
 20
7.3539232153
 30
0.0
 10
12.9553967148
 20
7.3448055847
 30
0.0
 10
12.9489118713
 20
7.3363633752
 30
0.0
 10
12.9424123176
 20
7.3286033107
 30
0.0
 10
12.9359029623
 20
7.3215316643
 30
0.0
 10
12.9293887251
 20
7.3151540944
 30
0.0
 10
12.9228742888
 20
7.3094758395
 30
0.0
 10
12.9163642032
 20
7.3045017216
 30
0.0
 10
12.9098628997
 20
7.3002362211
 30
0.0
 10
12.9033746839
 20
7.2966837634
 30
0.0
 10
12.8969040646
 20
7.293848528
 30
0.0
 10
12.8904559444
 20
7.2917349097
 30
0.0
 10
12.8840357146
 20
7.29034682
 30
0.0
 10
12.877651114
 20
7.2896877963
 30
0.0
 10
12.8734122801
 20
7.2897361242
 30
0.0
 10
12.8713161941
 20
7.2898814789
 30
0.0
  0
SPLINE
  5
365
100
AcDbEntity
  8
0
100
AcDbSpline
 62
7
  6
CONTINUOUS
 70
0
 71
3
 72
118
 73
114
 74
0
 42
0.0000001
 43
0.0000001
 44
0.0000000001
 40
0.0
 40
0.0
 40
0.0
 40
0.0
 40
0.015625
 40
0.03125
 40
0.046875
 40
0.0546875
 40
0.05859375
 40
0.0625
 40
0.06640625
 40
0.0703125
 40
0.078125
 40
0.09375
 40
0.109375
 40
0.1171875
 40
0.12109375
 40
0.125
 40
0.12890625
 40
0.1328125
 40
0.140625
 40
0.15625
 40
0.171875
 40
0.1796875
 40
0.18359375
 40
0.1875
 40
0.19140625
 40
0.1953125
 40
0.203125
 40
0.21875
 40
0.234375
 40
0.2421875
 40
0.25
 40
0.2578125
 40
0.265625
 40
0.28125
 40
0.296875
 40
0.3046875
 40
0.3125
 40
0.3203125
 40
0.328125
 40
0.34375
 40
0.359375
 40
0.3671875
 40
0.375
 40
0.3828125
 40
0.390625
 40
0.40625
 40
0.421875
 40
0.4375
 40
0.453125
 40
0.46875
 40
0.484375
 40
0.4921875
 40
0.5
 40
0.5078125
 40
0.515625
 40
0.53125
 40
0.546875
 40
0.5546875
 40
0.5625
 40
0.5703125
 40
0.578125
 40
0.59375
 40
0.609375
 40
0.6171875
 40
0.62109375
 40
0.625
 40
0.62890625
 40
0.6328125
 40
0.640625
 40
0.65625
 40
0.671875
 40
0.6796875
 40
0.68359375
 40
0.6875
 40
0.69140625
 40
0.6953125
 40
0.703125
 40
0.71875
 40
0.734375
 40
0.7421875
 40
0.74609375
 40
0.75
 40
0.75390625
 40
0.7578125
 40
0.765625
 40
0.78125
 40
0.796875
 40
0.8046875
 40
0.80859375
 40
0.8125
 40
0.81640625
 40
0.8203125
 40
0.828125
 40
0.84375
 40
0.859375
 40
0.8671875
 40
0.87109375
 40
0.875
 40
0.87890625
 40
0.8828125
 40
0.890625
 40
0.90625
 40
0.921875
 40
0.9296875
 40
0.93359375
 40
0.9375
 40
0.94140625
 40
0.9453125
 40
0.953125
 40
0.9609375
 40
0.96875
 40
0.984375
 40
1.0
 40
1.0
 40
1.0
 40
1.0
 10
12.8914760246
 20
8.093841253
 30
0.0
 10
12.8916058927
 20
8.0940142187
 30
0.0
 10
12.8918656177
 20
8.0943603498
 30
0.0
 10
12.8922552721
 20
8.0948783483
 30
0.0
 10
12.8925797887
 20
8.0953135081
 30
0.0
 10
12.8928073314
 20
8.0956113058
 30
0.0
 10
12.8929367612
 20
8.095792109
 30
0.0
 10
12.8930355085
 20
8.0958977592
 30
0.0
 10
12.8931278531
 20
8.0961179018
 30
0.0
 10
12.8932532139
 20
8.096371479
 30
0.0
 10
12.8934715418
 20
8.0968339515
 30
0.0
 10
12.8937840881
 20
8.0974840329
 30
0.0
 10
12.8940960436
 20
8.0981408463
 30
0.0
 10
12.8943151987
 20
8.0985938939
 30
0.0
 10
12.8944392597
 20
8.0988622816
 30
0.0
 10
12.8945355921
 20
8.0990369828
 30
0.0
 10
12.8946193631
 20
8.0993132908
 30
0.0
 10
12.8947354408
 20
8.0996462504
 30
0.0
 10
12.8949365189
 20
8.1002455409
 30
0.0
 10
12.8952249765
 20
8.10109223
 30
0.0
 10
12.8955125413
 20
8.1019450397
 30
0.0
 10
12.8957148694
 20
8.1025357612
 30
0.0
 10
12.8958289828
 20
8.1028821864
 30
0.0
 10
12.8959187808
 20
8.1031171796
 30
0.0
 10
12.8959924786
 20
8.1034470406
 30
0.0
 10
12.8960963513
 20
8.1038537791
 30
0.0
 10
12.8962755848
 20
8.1045808333
 30
0.0
 10
12.8965324016
 20
8.1056127032
 30
0.0
 10
12.8967909881
 20
8.1066426188
 30
0.0
 10
12.896992995
 20
8.1074766646
 30
0.0
 10
12.8971580251
 20
8.1080730318
 30
0.0
 10
12.8972713867
 20
8.1087810107
 30
0.0
 10
12.8974406697
 20
8.1096858628
 30
0.0
 10
12.8976454386
 20
8.1108312978
 30
0.0
 10
12.8978548787
 20
8.1119681526
 30
0.0
 10
12.8980166878
 20
8.1128867331
 30
0.0
 10
12.8981524707
 20
8.1135535264
 30
0.0
 10
12.8982334212
 20
8.11430434
 30
0.0
 10
12.8983606038
 20
8.1152760176
 30
0.0
 10
12.8985122986
 20
8.116501118
 30
0.0
 10
12.8986690665
 20
8.1177209637
 30
0.0
 10
12.8987881322
 20
8.1187010489
 30
0.0
 10
12.8988934336
 20
8.1194266395
 30
0.0
 10
12.8989379004
 20
8.1201880191
 30
0.0
 10
12.8990181642
 20
8.1211907283
 30
0.0
 10
12.8991132703
 20
8.1224481185
 30
0.0
 10
12.899221009
 20
8.1239564645
 30
0.0
 10
12.8993626598
 20
8.1254604937
 30
0.0
 10
12.8993750508
 20
8.1269823123
 30
0.0
 10
12.899421274
 20
8.128498245
 30
0.0
 10
12.8994547358
 20
8.1297663175
 30
0.0
 10
12.8994767272
 20
8.1307722098
 30
0.0
 10
12.8995105893
 20
8.1315494488
 30
0.0
 10
12.899477366
 20
8.1322396917
 30
0.0
 10
12.8994566034
 20
8.133190576
 30
0.0
 10
12.8994218504
 20
8.134367468
 30
0.0
 10
12.8993928774
 20
8.1355530129
 30
0.0
 10
12.8993628667
 20
8.1364900525
 30
0.0
 10
12.8993573875
 20
8.1372218294
 30
0.0
 10
12.8992872091
 20
8.1378433156
 30
0.0
 10
12.8992162078
 20
8.1387104119
 30
0.0
 10
12.8991199293
 20
8.139781649
 30
0.0
 10
12.899025546
 20
8.1408553592
 30
0.0
 10
12.8989607665
 20
8.1416106061
 30
0.0
 10
12.8989209717
 20
8.1420351771
 30
0.0
 10
12.8988990913
 20
8.1423735586
 30
0.0
 10
12.8988467369
 20
8.1426356263
 30
0.0
 10
12.8987875637
 20
8.1430116777
 30
0.0
 10
12.8986790273
 20
8.143657274
 30
0.0
 10
12.8985268161
 20
8.1445867887
 30
0.0
 10
12.8983727337
 20
8.1455111637
 30
0.0
 10
12.8982668169
 20
8.1461639557
 30
0.0
 10
12.8982035272
 20
8.1465286995
 30
0.0
 10
12.8981638028
 20
8.146825461
 30
0.0
 10
12.8980944899
 20
8.147033548
 30
0.0
 10
12.8980123957
 20
8.1473419395
 30
0.0
 10
12.8978638995
 20
8.147867093
 30
0.0
 10
12.8976544617
 20
8.148625836
 30
0.0
 10
12.8974434282
 20
8.1493781634
 30
0.0
 10
12.897297166
 20
8.1499122986
 30
0.0
 10
12.8972115612
 20
8.1502065759
 30
0.0
 10
12.8971530192
 20
8.1504579679
 30
0.0
 10
12.8970728443
 20
8.1505920951
 30
0.0
 10
12.896973492
 20
8.1508118464
 30
0.0
 10
12.8967960907
 20
8.1511772296
 30
0.0
 10
12.8965446548
 20
8.1517101872
 30
0.0
 10
12.8962919738
 20
8.1522357551
 30
0.0
 10
12.8961163157
 20
8.1526114839
 30
0.0
 10
12.896014224
 20
8.152814978
 30
0.0
 10
12.8959424541
 20
8.1529989852
 30
0.0
 10
12.8958523466
 20
8.1530630497
 30
0.0
 10
12.8957386009
 20
8.1531903188
 30
0.0
 10
12.8955365525
 20
8.1533934171
 30
0.0
 10
12.8952495789
 20
8.1536948155
 30
0.0
 10
12.8949616393
 20
8.153988558
 30
0.0
 10
12.8947609431
 20
8.1542023745
 30
0.0
 10
12.8946450725
 20
8.1543128006
 30
0.0
 10
12.8945614848
 20
8.1544285425
 30
0.0
 10
12.8944652293
 20
8.1544184725
 30
0.0
 10
12.8943413082
 20
8.1544489432
 30
0.0
 10
12.8941223777
 20
8.1544816862
 30
0.0
 10
12.8938107778
 20
8.154540253
 30
0.0
 10
12.8934984861
 20
8.1545908568
 30
0.0
 10
12.893280524
 20
8.154634748
 30
0.0
 10
12.8931550811
 20
8.1546477002
 30
0.0
 10
12.8930634949
 20
8.15469138
 30
0.0
 10
12.8929623713
 20
8.1546052613
 30
0.0
 10
12.8928308714
 20
8.1545357766
 30
0.0
 10
12.8926653534
 20
8.1544333647
 30
0.0
 10
12.8924672212
 20
8.1543171291
 30
0.0
 10
12.8922028739
 20
8.1541598216
 30
0.0
 10
12.8918724988
 20
8.1539639908
 30
0.0
 10
12.8916081807
 20
8.1538070813
 30
0.0
 10
12.8914760239
 20
8.1537286571
 30
0.0
  0
SPLINE
  5
366
100
AcDbEntity
  8
0
100
AcDbSpline
 62
7
  6
CONTINUOUS
 70
0
 71
3
 72
118
 73
114
 74
0
 42
0.0000001
 43
0.0000001
 44
0.0000000001
 40
0.0
 40
0.0
 40
0.0
 40
0.0
 40
0.015625
 40
0.03125
 40
0.046875
 40
0.0546875
 40
0.05859375
 40
0.0625
 40
0.06640625
 40
0.0703125
 40
0.078125
 40
0.09375
 40
0.109375
 40
0.1171875
 40
0.12109375
 40
0.125
 40
0.12890625
 40
0.1328125
 40
0.140625
 40
0.15625
 40
0.171875
 40
0.1796875
 40
0.18359375
 40
0.1875
 40
0.19140625
 40
0.1953125
 40
0.203125
 40
0.21875
 40
0.234375
 40
0.2421875
 40
0.25
 40
0.2578125
 40
0.265625
 40
0.28125
 40
0.296875
 40
0.3046875
 40
0.3125
 40
0.3203125
 40
0.328125
 40
0.34375
 40
0.359375
 40
0.3671875
 40
0.375
 40
0.3828125
 40
0.390625
 40
0.40625
 40
0.421875
 40
0.4375
 40
0.453125
 40
0.46875
 40
0.484375
 40
0.4921875
 40
0.5
 40
0.5078125
 40
0.515625
 40
0.53125
 40
0.546875
 40
0.5546875
 40
0.5625
 40
0.5703125
 40
0.578125
 40
0.59375
 40
0.609375
 40
0.6171875
 40
0.62109375
 40
0.625
 40
0.62890625
 40
0.6328125
 40
0.640625
 40
0.65625
 40
0.671875
 40
0.6796875
 40
0.68359375
 40
0.6875
 40
0.69140625
 40
0.6953125
 40
0.703125
 40
0.71875
 40
0.734375
 40
0.7421875
 40
0.74609375
 40
0.75
 40
0.75390625
 40
0.7578125
 40
0.765625
 40
0.78125
 40
0.796875
 40
0.8046875
 40
0.80859375
 40
0.8125
 40
0.81640625
 40
0.8203125
 40
0.828125
 40
0.84375
 40
0.859375
 40
0.8671875
 40
0.87109375
 40
0.875
 40
0.87890625
 40
0.8828125
 40
0.890625
 40
0.90625
 40
0.921875
 40
0.9296875
 40
0.93359375
 40
0.9375
 40
0.94140625
 40
0.9453125
 40
0.953125
 40
0.9609375
 40
0.96875
 40
0.984375
 40
1.0
 40
1.0
 40
1.0
 40
1.0
 10
12.8914760246
 20
8.1537286578
 30
0.0
 10
12.8913461566
 20
8.1535556921
 30
0.0
 10
12.8910864316
 20
8.1532095611
 30
0.0
 10
12.8906967772
 20
8.1526915626
 30
0.0
 10
12.8903722606
 20
8.1522564027
 30
0.0
 10
12.8901447179
 20
8.151958605
 30
0.0
 10
12.8900152881
 20
8.1517778018
 30
0.0
 10
12.8899165408
 20
8.1516721517
 30
0.0
 10
12.8898241961
 20
8.151452009
 30
0.0
 10
12.8896988354
 20
8.1511984318
 30
0.0
 10
12.8894805075
 20
8.1507359593
 30
0.0
 10
12.8891679612
 20
8.150085878
 30
0.0
 10
12.8888560056
 20
8.1494290646
 30
0.0
 10
12.8886368506
 20
8.1489760169
 30
0.0
 10
12.8885127896
 20
8.1487076292
 30
0.0
 10
12.8884164572
 20
8.148532928
 30
0.0
 10
12.8883326862
 20
8.1482566201
 30
0.0
 10
12.8882166085
 20
8.1479236604
 30
0.0
 10
12.8880155304
 20
8.1473243699
 30
0.0
 10
12.8877270727
 20
8.1464776809
 30
0.0
 10
12.887439508
 20
8.1456248711
 30
0.0
 10
12.8872371799
 20
8.1450341496
 30
0.0
 10
12.8871230664
 20
8.1446877244
 30
0.0
 10
12.8870332685
 20
8.1444527312
 30
0.0
 10
12.8869595707
 20
8.1441228702
 30
0.0
 10
12.886855698
 20
8.1437161317
 30
0.0
 10
12.8866764644
 20
8.1429890775
 30
0.0
 10
12.8864196476
 20
8.1419572077
 30
0.0
 10
12.8861610612
 20
8.140927292
 30
0.0
 10
12.8859590543
 20
8.1400932462
 30
0.0
 10
12.8857940241
 20
8.139496879
 30
0.0
 10
12.8856806626
 20
8.1387889001
 30
0.0
 10
12.8855113796
 20
8.1378840481
 30
0.0
 10
12.8853066107
 20
8.136738613
 30
0.0
 10
12.8850971706
 20
8.1356017583
 30
0.0
 10
12.8849353614
 20
8.1346831777
 30
0.0
 10
12.8847995786
 20
8.1340163845
 30
0.0
 10
12.8847186281
 20
8.1332655708
 30
0.0
 10
12.8845914455
 20
8.1322938933
 30
0.0
 10
12.8844397507
 20
8.1310687928
 30
0.0
 10
12.8842829828
 20
8.1298489472
 30
0.0
 10
12.8841639171
 20
8.1288688619
 30
0.0
 10
12.8840586156
 20
8.1281432713
 30
0.0
 10
12.8840141489
 20
8.1273818918
 30
0.0
 10
12.8839338851
 20
8.1263791825
 30
0.0
 10
12.883838779
 20
8.1251217923
 30
0.0
 10
12.8837310403
 20
8.1236134463
 30
0.0
 10
12.8835893895
 20
8.1221094171
 30
0.0
 10
12.8835769985
 20
8.1205875985
 30
0.0
 10
12.8835307753
 20
8.1190716658
 30
0.0
 10
12.8834973135
 20
8.1178035933
 30
0.0
 10
12.8834753221
 20
8.116797701
 30
0.0
 10
12.8834414599
 20
8.116020462
 30
0.0
 10
12.8834746833
 20
8.1153302191
 30
0.0
 10
12.8834954459
 20
8.1143793348
 30
0.0
 10
12.8835301989
 20
8.1132024429
 30
0.0
 10
12.8835591719
 20
8.1120168979
 30
0.0
 10
12.8835891826
 20
8.1110798583
 30
0.0
 10
12.8835946617
 20
8.1103480814
 30
0.0
 10
12.8836648402
 20
8.1097265952
 30
0.0
 10
12.8837358415
 20
8.1088594989
 30
0.0
 10
12.88383212
 20
8.1077882618
 30
0.0
 10
12.8839265033
 20
8.1067145516
 30
0.0
 10
12.8839912828
 20
8.1059593047
 30
0.0
 10
12.8840310776
 20
8.1055347337
 30
0.0
 10
12.884052958
 20
8.1051963522
 30
0.0
 10
12.8841053124
 20
8.1049342845
 30
0.0
 10
12.8841644856
 20
8.1045582331
 30
0.0
 10
12.884273022
 20
8.1039126368
 30
0.0
 10
12.8844252332
 20
8.1029831221
 30
0.0
 10
12.8845793155
 20
8.1020587472
 30
0.0
 10
12.8846852324
 20
8.1014059551
 30
0.0
 10
12.884748522
 20
8.1010412113
 30
0.0
 10
12.8847882465
 20
8.1007444498
 30
0.0
 10
12.8848575593
 20
8.1005363628
 30
0.0
 10
12.8849396536
 20
8.1002279713
 30
0.0
 10
12.8850881497
 20
8.0997028178
 30
0.0
 10
12.8852975876
 20
8.0989440749
 30
0.0
 10
12.8855086211
 20
8.0981917474
 30
0.0
 10
12.8856548833
 20
8.0976576122
 30
0.0
 10
12.885740488
 20
8.0973633349
 30
0.0
 10
12.8857990301
 20
8.0971119429
 30
0.0
 10
12.885879205
 20
8.0969778157
 30
0.0
 10
12.8859785573
 20
8.0967580644
 30
0.0
 10
12.8861559586
 20
8.0963926812
 30
0.0
 10
12.8864073945
 20
8.0958597236
 30
0.0
 10
12.8866600755
 20
8.0953341557
 30
0.0
 10
12.8868357335
 20
8.0949584269
 30
0.0
 10
12.8869378252
 20
8.0947549329
 30
0.0
 10
12.8870095952
 20
8.0945709256
 30
0.0
 10
12.8870997026
 20
8.0945068611
 30
0.0
 10
12.8872134484
 20
8.094379592
 30
0.0
 10
12.8874154968
 20
8.0941764938
 30
0.0
 10
12.8877024704
 20
8.0938750953
 30
0.0
 10
12.88799041
 20
8.0935813528
 30
0.0
 10
12.8881911061
 20
8.0933675363
 30
0.0
 10
12.8883069768
 20
8.0932571102
 30
0.0
 10
12.8883905645
 20
8.0931413683
 30
0.0
 10
12.88848682
 20
8.0931514383
 30
0.0
 10
12.8886107411
 20
8.0931209676
 30
0.0
 10
12.8888296716
 20
8.0930882246
 30
0.0
 10
12.8891412715
 20
8.0930296578
 30
0.0
 10
12.8894535632
 20
8.092979054
 30
0.0
 10
12.8896715253
 20
8.0929351629
 30
0.0
 10
12.8897969682
 20
8.0929222107
 30
0.0
 10
12.8898885544
 20
8.0928785308
 30
0.0
 10
12.889989678
 20
8.0929646495
 30
0.0
 10
12.8901211779
 20
8.0930341342
 30
0.0
 10
12.8902866958
 20
8.0931365461
 30
0.0
 10
12.8904848281
 20
8.0932527817
 30
0.0
 10
12.8907491754
 20
8.0934100893
 30
0.0
 10
12.8910795505
 20
8.09360592
 30
0.0
 10
12.8913438686
 20
8.0937628296
 30
0.0
 10
12.8914760253
 20
8.0938412537
 30
0.0
  0
SPLINE
  5
367
100
AcDbEntity
  8
0
100
AcDbSpline
 62
4
  6
CONTINUOUS
 70
0
 71
3
 72
313
 73
309
 74
0
 42
0.0000001
 43
0.0000001
 44
0.0000000001
 40
0.0
 40
0.0
 40
0.0
 40
0.0
 40
0.015625
 40
0.0234375
 40
0.03125
 40
0.0390625
 40
0.046875
 40
0.05078125
 40
0.0546875
 40
0.056640625
 40
0.05859375
 40
0.060546875
 40
0.0615234375
 40
0.0620117188
 40
0.0625
 40
0.0629882812
 40
0.0634765625
 40
0.064453125
 40
0.06640625
 40
0.068359375
 40
0.0703125
 40
0.07421875
 40
0.078125
 40
0.0859375
 40
0.09375
 40
0.1015625
 40
0.109375
 40
0.11328125
 40
0.1171875
 40
0.119140625
 40
0.12109375
 40
0.123046875
 40
0.1240234375
 40
0.1245117188
 40
0.125
 40
0.1254882812
 40
0.1259765625
 40
0.126953125
 40
0.12890625
 40
0.130859375
 40
0.1328125
 40
0.13671875
 40
0.140625
 40
0.1484375
 40
0.15625
 40
0.1640625
 40
0.171875
 40
0.17578125
 40
0.1796875
 40
0.181640625
 40
0.18359375
 40
0.185546875
 40
0.1865234375
 40
0.1870117188
 40
0.1875
 40
0.1879882812
 40
0.1884765625
 40
0.189453125
 40
0.19140625
 40
0.193359375
 40
0.1953125
 40
0.19921875
 40
0.203125
 40
0.2109375
 40
0.21875
 40
0.2265625
 40
0.234375
 40
0.23828125
 40
0.2421875
 40
0.244140625
 40
0.24609375
 40
0.248046875
 40
0.2490234375
 40
0.2495117188
 40
0.25
 40
0.2504882812
 40
0.2509765625
 40
0.251953125
 40
0.25390625
 40
0.255859375
 40
0.2578125
 40
0.26171875
 40
0.265625
 40
0.2734375
 40
0.28125
 40
0.2890625
 40
0.296875
 40
0.30078125
 40
0.3046875
 40
0.306640625
 40
0.30859375
 40
0.310546875
 40
0.3115234375
 40
0.3120117188
 40
0.3125
 40
0.3129882812
 40
0.3134765625
 40
0.314453125
 40
0.31640625
 40
0.318359375
 40
0.3203125
 40
0.32421875
 40
0.328125
 40
0.3359375
 40
0.34375
 40
0.3515625
 40
0.359375
 40
0.36328125
 40
0.3671875
 40
0.369140625
 40
0.37109375
 40
0.373046875
 40
0.3740234375
 40
0.3745117188
 40
0.375
 40
0.3754882812
 40
0.3759765625
 40
0.376953125
 40
0.37890625
 40
0.380859375
 40
0.3828125
 40
0.38671875
 40
0.390625
 40
0.3984375
 40
0.40625
 40
0.4140625
 40
0.421875
 40
0.42578125
 40
0.4296875
 40
0.431640625
 40
0.43359375
 40
0.435546875
 40
0.4365234375
 40
0.4370117188
 40
0.4375
 40
0.4379882812
 40
0.4384765625
 40
0.439453125
 40
0.44140625
 40
0.443359375
 40
0.4453125
 40
0.44921875
 40
0.453125
 40
0.4609375
 40
0.46875
 40
0.4765625
 40
0.484375
 40
0.48828125
 40
0.4921875
 40
0.494140625
 40
0.49609375
 40
0.498046875
 40
0.4990234375
 40
0.4995117188
 40
0.5
 40
0.5004882812
 40
0.5009765625
 40
0.501953125
 40
0.50390625
 40
0.505859375
 40
0.5078125
 40
0.51171875
 40
0.515625
 40
0.5234375
 40
0.53125
 40
0.5390625
 40
0.546875
 40
0.55078125
 40
0.5546875
 40
0.556640625
 40
0.55859375
 40
0.560546875
 40
0.5615234375
 40
0.5620117188
 40
0.5625
 40
0.5629882812
 40
0.5634765625
 40
0.564453125
 40
0.56640625
 40
0.568359375
 40
0.5703125
 40
0.57421875
 40
0.578125
 40
0.5859375
 40
0.59375
 40
0.6015625
 40
0.609375
 40
0.61328125
 40
0.6171875
 40
0.619140625
 40
0.62109375
 40
0.623046875
 40
0.6240234375
 40
0.6245117188
 40
0.625
 40
0.6254882812
 40
0.6259765625
 40
0.626953125
 40
0.62890625
 40
0.630859375
 40
0.6328125
 40
0.63671875
 40
0.640625
 40
0.6484375
 40
0.65625
 40
0.6640625
 40
0.671875
 40
0.67578125
 40
0.6796875
 40
0.681640625
 40
0.68359375
 40
0.685546875
 40
0.6865234375
 40
0.6870117188
 40
0.6875
 40
0.6879882812
 40
0.6884765625
 40
0.689453125
 40
0.69140625
 40
0.693359375
 40
0.6953125
 40
0.69921875
 40
0.703125
 40
0.7109375
 40
0.71875
 40
0.7265625
 40
0.734375
 40
0.73828125
 40
0.7421875
 40
0.744140625
 40
0.74609375
 40
0.748046875
 40
0.7490234375
 40
0.7495117188
 40
0.75
 40
0.7504882812
 40
0.7509765625
 40
0.751953125
 40
0.75390625
 40
0.755859375
 40
0.7578125
 40
0.76171875
 40
0.765625
 40
0.7734375
 40
0.78125
 40
0.7890625
 40
0.796875
 40
0.80078125
 40
0.8046875
 40
0.806640625
 40
0.80859375
 40
0.810546875
 40
0.8115234375
 40
0.8120117188
 40
0.8125
 40
0.8129882812
 40
0.8134765625
 40
0.814453125
 40
0.81640625
 40
0.818359375
 40
0.8203125
 40
0.82421875
 40
0.828125
 40
0.8359375
 40
0.84375
 40
0.8515625
 40
0.859375
 40
0.86328125
 40
0.8671875
 40
0.869140625
 40
0.87109375
 40
0.873046875
 40
0.8740234375
 40
0.8745117188
 40
0.875
 40
0.8754882812
 40
0.8759765625
 40
0.876953125
 40
0.87890625
 40
0.880859375
 40
0.8828125
 40
0.88671875
 40
0.890625
 40
0.8984375
 40
0.90625
 40
0.9140625
 40
0.921875
 40
0.92578125
 40
0.9296875
 40
0.931640625
 40
0.93359375
 40
0.935546875
 40
0.9365234375
 40
0.9370117188
 40
0.9375
 40
0.9379882812
 40
0.9384765625
 40
0.939453125
 40
0.94140625
 40
0.943359375
 40
0.9453125
 40
0.94921875
 40
0.953125
 40
0.9609375
 40
0.96875
 40
0.9765625
 40
0.984375
 40
1.0
 40
1.0
 40
1.0
 40
1.0
 10
11.3274077869
 20
7.4776704698
 30
0.0
 10
11.3305409738
 20
7.4777603942
 30
0.0
 10
11.3352407543
 20
7.4778952805
 30
0.0
 10
11.341507128
 20
7.47807513
 30
0.0
 10
11.3462069087
 20
7.4782100147
 30
0.0
 10
11.3509066877
 20
7.4783449088
 30
0.0
 10
11.3548231758
 20
7.478457291
 30
0.0
 10
11.3579563535
 20
7.4785472628
 30
0.0
 10
11.3599146189
 20
7.478603345
 30
0.0
 10
11.361481164
 20
7.4786485547
 30
0.0
 10
11.3626562568
 20
7.4786815202
 30
0.0
 10
11.3636349156
 20
7.4787119874
 30
0.0
 10
11.3643211251
 20
7.478727435
 30
0.0
 10
11.3647114518
 20
7.4787454424
 30
0.0
 10
11.3650092479
 20
7.4787330874
 30
0.0
 10
11.365287736
 20
7.4788195843
 30
0.0
 10
11.3656657883
 20
7.4789004328
 30
0.0
 10
11.366324242
 20
7.4790579829
 30
0.0
 10
11.3672665306
 20
7.4792746554
 30
0.0
 10
11.3683965747
 20
7.4795382575
 30
0.0
 10
11.3699035454
 20
7.4798884713
 30
0.0
 10
11.3717871749
 20
7.4803266685
 30
0.0
 10
11.3748010289
 20
7.4810275436
 30
0.0
 10
11.3785683302
 20
7.4819037205
 30
0.0
 10
11.3830890997
 20
7.4829550949
 30
0.0
 10
11.3876098636
 20
7.4840064879
 30
0.0
 10
11.3913771786
 20
7.4848826184
 30
0.0
 10
11.3943910052
 20
7.4855835863
 30
0.0
 10
11.3962747044
 20
7.4860215476
 30
0.0
 10
11.397781532
 20
7.4863722455
 30
0.0
 10
11.3989120136
 20
7.4866343684
 30
0.0
 10
11.3998529335
 20
7.4868556691
 30
0.0
 10
11.4005138304
 20
7.4870049571
 30
0.0
 10
11.400887968
 20
7.4870990435
 30
0.0
 10
11.401178481
 20
7.4871448779
 30
0.0
 10
11.4014311134
 20
7.4872852447
 30
0.0
 10
11.4017811697
 20
7.4874394264
 30
0.0
 10
11.4023876121
 20
7.4877246076
 30
0.0
 10
11.4032571769
 20
7.4881239773
 30
0.0
 10
11.404299277
 20
7.488606659
 30
0.0
 10
11.4056892249
 20
7.4892490337
 30
0.0
 10
11.4074264952
 20
7.4900524132
 30
0.0
 10
11.4102062196
 20
7.4913375906
 30
0.0
 10
11.4136808433
 20
7.4929441417
 30
0.0
 10
11.4178504066
 20
7.4948719668
 30
0.0
 10
11.4220199615
 20
7.4967998099
 30
0.0
 10
11.425494606
 20
7.4984063161
 30
0.0
 10
11.428274289
 20
7.4996915833
 30
0.0
 10
11.4300116646
 20
7.5004947346
 30
0.0
 10
11.4314013962
 20
7.5011375778
 30
0.0
 10
11.4324441575
 20
7.501618828
 30
0.0
 10
11.4333116536
 20
7.5020226762
 30
0.0
 10
11.4339217889
 20
7.5022998627
 30
0.0
 10
11.4342659282
 20
7.502466854
 30
0.0
 10
11.4345367358
 20
7.5025678738
 30
0.0
 10
11.4347589858
 20
7.5027614889
 30
0.0
 10
11.4350722565
 20
7.502987344
 30
0.0
 10
11.4356125889
 20
7.5033976389
 30
0.0
 10
11.4363886181
 20
7.503975907
 30
0.0
 10
11.4373180871
 20
7.5046731962
 30
0.0
 10
11.438557996
 20
7.505601739
 30
0.0
 10
11.4401076708
 20
7.5067628202
 30
0.0
 10
11.4425872687
 20
7.5086203249
 30
0.0
 10
11.4456867251
 20
7.5109422835
 30
0.0
 10
11.4494060922
 20
7.5137285988
 30
0.0
 10
11.4531254471
 20
7.5165149298
 30
0.0
 10
11.4562249338
 20
7.5188368492
 30
0.0
 10
11.458704471
 20
7.5206944323
 30
0.0
 10
11.4602543001
 20
7.5218553143
 30
0.0
 10
11.4614938924
 20
7.5227842658
 30
0.0
 10
11.4624243285
 20
7.5234803064
 30
0.0
 10
11.4631973319
 20
7.524062481
 30
0.0
 10
11.4637430657
 20
7.5244658021
 30
0.0
 10
11.4640476821
 20
7.5247028311
 30
0.0
 10
11.4642965157
 20
7.5248621237
 30
0.0
 10
11.4644674797
 20
7.5250920528
 30
0.0
 10
11.4647225934
 20
7.525373986
 30
0.0
 10
11.4651563873
 20
7.525878849
 30
0.0
 10
11.4657827091
 20
7.52659408
 30
0.0
 10
11.4665314633
 20
7.5274549262
 30
0.0
 10
11.4675307914
 20
7.5286018238
 30
0.0
 10
11.4687796129
 20
7.530035753
 30
0.0
 10
11.4707779165
 20
7.532329868
 30
0.0
 10
11.4732757306
 20
7.5351975711
 30
0.0
 10
11.4762731376
 20
7.5386387879
 30
0.0
 10
11.4792705292
 20
7.5420800174
 30
0.0
 10
11.4817683818
 20
7.5449476888
 30
0.0
 10
11.4837666084
 20
7.5472418671
 30
0.0
 10
11.4850156256
 20
7.5486756357
 30
0.0
 10
11.4860145519
 20
7.549822863
 30
0.0
 10
11.4867645336
 20
7.550682702
 30
0.0
 10
11.4873870149
 20
7.5514010841
 30
0.0
 10
11.4878276648
 20
7.5519003219
 30
0.0
 10
11.4880717935
 20
7.5521912681
 30
0.0
 10
11.4882765001
 20
7.5523935123
 30
0.0
 10
11.4883986019
 20
7.5526567844
 30
0.0
 10
11.4885902177
 20
7.5529865266
 30
0.0
 10
11.4889121208
 20
7.5535734936
 30
0.0
 10
11.4893790008
 20
7.5544068326
 30
0.0
 10
11.4899362527
 20
7.5554090588
 30
0.0
 10
11.4906803046
 20
7.5567445853
 30
0.0
 10
11.4916100101
 20
7.5584142588
 30
0.0
 10
11.4930977397
 20
7.5610855881
 30
0.0
 10
11.4949573324
 20
7.5644248008
 30
0.0
 10
11.4971888756
 20
7.568431833
 30
0.0
 10
11.499420402
 20
7.5724388754
 30
0.0
 10
11.5012800365
 20
7.5757780628
 30
0.0
 10
11.5027676825
 20
7.5784494427
 30
0.0
 10
11.5036976007
 20
7.5801189874
 30
0.0
 10
11.5044412159
 20
7.5814547782
 30
0.0
 10
11.5049998017
 20
7.5824561968
 30
0.0
 10
11.5054625084
 20
7.5832920629
 30
0.0
 10
11.5057918615
 20
7.5838745186
 30
0.0
 10
11.5059715406
 20
7.5842114891
 30
0.0
 10
11.5061303083
 20
7.5844525582
 30
0.0
 10
11.5061973035
 20
7.584738193
 30
0.0
 10
11.5063186417
 20
7.5851034944
 30
0.0
 10
11.5065160689
 20
7.5857500146
 30
0.0
 10
11.5068059053
 20
7.5866698283
 30
0.0
 10
11.5071503713
 20
7.5877752256
 30
0.0
 10
11.5076108252
 20
7.5892485224
 30
0.0
 10
11.5081859933
 20
7.5910903373
 30
0.0
 10
11.5091064855
 20
7.5940371328
 30
0.0
 10
11.5102570236
 20
7.5977206646
 30
0.0
 10
11.5116377047
 20
7.6021408858
 30
0.0
 10
11.5130183677
 20
7.6065611148
 30
0.0
 10
11.5141689512
 20
7.6102446273
 30
0.0
 10
11.5150893526
 20
7.6131914612
 30
0.0
 10
11.5156647515
 20
7.6150331785
 30
0.0
 10
11.5161247316
 20
7.6165066758
 30
0.0
 10
11.5164706449
 20
7.6176114605
 30
0.0
 10
11.5167559533
 20
7.6185331907
 30
0.0
 10
11.5169614638
 20
7.6191762896
 30
0.0
 10
11.5170698504
 20
7.6195470729
 30
0.0
 10
11.5171766286
 20
7.6198158693
 30
0.0
 10
11.5171859779
 20
7.6201201806
 30
0.0
 10
11.5172324279
 20
7.6205135411
 30
0.0
 10
11.5172978815
 20
7.6212076937
 30
0.0
 10
11.5173996647
 20
7.6221963227
 30
0.0
 10
11.5175182613
 20
7.6233839691
 30
0.0
 10
11.5176776277
 20
7.6249670465
 30
0.0
 10
11.517876412
 20
7.6269460477
 30
0.0
 10
11.5181947037
 20
7.6301123634
 30
0.0
 10
11.5185924864
 20
7.6340702875
 30
0.0
 10
11.5190698632
 20
7.6388197839
 30
0.0
 10
11.519547221
 20
7.6435692835
 30
0.0
 10
11.5199450514
 20
7.6475271996
 30
0.0
 10
11.5202632478
 20
7.6506935313
 30
0.0
 10
11.5204622743
 20
7.6526724916
 30
0.0
 10
11.5206211434
 20
7.6542556531
 30
0.0
 10
11.5207412593
 20
7.6554430425
 30
0.0
 10
11.5208382891
 20
7.6564324756
 30
0.0
 10
11.5209122284
 20
7.6571251928
 30
0.0
 10
11.5209450821
 20
7.6575208532
 30
0.0
 10
11.5209961948
 20
7.6578180997
 30
0.0
 10
11.5209461165
 20
7.6581134305
 30
0.0
 10
11.5209146419
 20
7.6585078732
 30
0.0
 10
11.5208431161
 20
7.6591978365
 30
0.0
 10
11.5207495343
 20
7.6601836611
 30
0.0
 10
11.5206335559
 20
7.661366581
 30
0.0
 10
11.5204802034
 20
7.6629438319
 30
0.0
 10
11.5202880726
 20
7.6649153871
 30
0.0
 10
11.5199809095
 20
7.6680698801
 30
0.0
 10
11.5195968707
 20
7.6720129948
 30
0.0
 10
11.5191360628
 20
7.6767447334
 30
0.0
 10
11.5186752359
 20
7.6814764706
 30
0.0
 10
11.5182912448
 20
7.6854195887
 30
0.0
 10
11.5179839863
 20
7.6885740748
 30
0.0
 10
11.517792098
 20
7.6905456476
 30
0.0
 10
11.517638248
 20
7.6921228623
 30
0.0
 10
11.5175237895
 20
7.6933058928
 30
0.0
 10
11.5174254521
 20
7.6942913713
 30
0.0
 10
11.5173624157
 20
7.6949819525
 30
0.0
 10
11.5173173391
 20
7.6953754052
 30
0.0
 10
11.5173090418
 20
7.6956737768
 30
0.0
 10
11.5172032317
 20
7.6959596028
 30
0.0
 10
11.5170961652
 20
7.6963450802
 30
0.0
 10
11.5168929512
 20
7.6970176268
 30
0.0
 10
11.5166109307
 20
7.6979794736
 30
0.0
 10
11.5162689598
 20
7.6991332334
 30
0.0
 10
11.5158142372
 20
7.7006717393
 30
0.0
 10
11.5152454099
 20
7.702594817
 30
0.0
 10
11.5143355233
 20
7.705671772
 30
0.0
 10
11.5131980832
 20
7.709517955
 30
0.0
 10
11.5118331924
 20
7.7141333799
 30
0.0
 10
11.5104682833
 20
7.7187488006
 30
0.0
 10
11.5093308887
 20
7.7225949942
 30
0.0
 10
11.5084209112
 20
7.725671928
 30
0.0
 10
11.5078523149
 20
7.7275950595
 30
0.0
 10
11.5073971181
 20
7.7291334551
 30
0.0
 10
11.5070565961
 20
7.7302875519
 30
0.0
 10
11.5067700424
 20
7.7312483444
 30
0.0
 10
11.506574921
 20
7.7319227731
 30
0.0
 10
11.506454888
 20
7.7323052349
 30
0.0
 10
11.5063889065
 20
7.7326003238
 30
0.0
 10
11.5062310196
 20
7.7328639056
 30
0.0
 10
11.5060525614
 20
7.7332263381
 30
0.0
 10
11.5057253232
 20
7.7338554745
 30
0.0
 10
11.505265649
 20
7.7347569178
 30
0.0
 10
11.5047106975
 20
7.7358375039
 30
0.0
 10
11.5039719296
 20
7.7372786856
 30
0.0
 10
11.5030480699
 20
7.7390800257
 30
0.0
 10
11.501570118
 20
7.7419622465
 30
0.0
 10
11.4997226009
 20
7.745564996
 30
0.0
 10
11.4975056156
 20
7.7498883077
 30
0.0
 10
11.4952886129
 20
7.7542116123
 30
0.0
 10
11.4934411393
 20
7.7578143795
 30
0.0
 10
11.4919631004
 20
7.7606965648
 30
0.0
 10
11.4910394617
 20
7.762497995
 30
0.0
 10
11.4903002403
 20
7.7639389917
 30
0.0
 10
11.4897466743
 20
7.765020143
 30
0.0
 10
11.4892826651
 20
7.7659198182
 30
0.0
 10
11.4889631656
 20
7.7665521109
 30
0.0
 10
11.4887723081
 20
7.7669094862
 30
0.0
 10
11.4886525077
 20
7.767188602
 30
0.0
 10
11.4884434796
 20
7.7674253481
 30
0.0
 10
11.488195899
 20
7.7677557887
 30
0.0
 10
11.487748132
 20
7.7683271738
 30
0.0
 10
11.4871160461
 20
7.7691470383
 30
0.0
 10
11.486354298
 20
7.7701293347
 30
0.0
 10
11.4853397673
 20
7.7714396015
 30
0.0
 10
11.4840712158
 20
7.7730772507
 30
0.0
 10
11.4820417503
 20
7.7756975925
 30
0.0
 10
11.4795048437
 20
7.7789729839
 30
0.0
 10
11.4764605894
 20
7.7829034708
 30
0.0
 10
11.4734163203
 20
7.7868339465
 30
0.0
 10
11.4708794507
 20
7.7901093657
 30
0.0
 10
11.4688499112
 20
7.792729652
 30
0.0
 10
11.4675815481
 20
7.7943674423
 30
0.0
 10
11.4665666306
 20
7.7956774194
 30
0.0
 10
11.465806064
 20
7.796660601
 30
0.0
 10
11.4651702814
 20
7.7974776961
 30
0.0
 10
11.4647291136
 20
7.798054025
 30
0.0
 10
11.4644709594
 20
7.7983765444
 30
0.0
 10
11.4642944101
 20
7.7986376217
 30
0.0
 10
11.4640526247
 20
7.7988253536
 30
0.0
 10
11.4637529992
 20
7.7991012464
 30
0.0
 10
11.4632180526
 20
7.799572139
 30
0.0
 10
11.462459386
 20
7.8002510745
 30
0.0
 10
11.4615466135
 20
7.8010631297
 30
0.0
 10
11.4603304123
 20
7.8021468016
 30
0.0
 10
11.458809877
 20
7.8035010725
 30
0.0
 10
11.4563771791
 20
7.8056680844
 30
0.0
 10
11.453336252
 20
7.8083767875
 30
0.0
 10
11.4496871644
 20
7.8116272595
 30
0.0
 10
11.4460380651
 20
7.814877717
 30
0.0
 10
11.442997167
 20
7.8175864566
 30
0.0
 10
11.4405644112
 20
7.8197533954
 30
0.0
 10
11.439044023
 20
7.8211078519
 30
0.0
 10
11.4378275199
 20
7.822191143
 30
0.0
 10
11.4369156695
 20
7.8230043617
 30
0.0
 10
11.4361541182
 20
7.8236796568
 30
0.0
 10
11.4356243212
 20
7.8241570482
 30
0.0
 10
11.4353164447
 20
7.8244225282
 30
0.0
 10
11.4351000039
 20
7.8246422451
 30
0.0
 10
11.4348282641
 20
7.8247831921
 30
0.0
 10
11.4344852333
 20
7.8249985972
 30
0.0
 10
11.4338759422
 20
7.8253627547
 30
0.0
 10
11.433010225
 20
7.8258896725
 30
0.0
 10
11.4319693532
 20
7.8265191091
 30
0.0
 10
11.4305822265
 20
7.8273593585
 30
0.0
 10
11.4288480777
 20
7.8284093276
 30
0.0
 10
11.4260735741
 20
7.8300894697
 30
0.0
 10
11.4226053982
 20
7.8321895812
 30
0.0
 10
11.4184436079
 20
7.8347097455
 30
0.0
 10
11.4142818086
 20
7.8372298937
 30
0.0
 10
11.4108136552
 20
7.8393300454
 30
0.0
 10
11.4080391067
 20
7.841010107
 30
0.0
 10
11.4063050719
 20
7.842060281
 30
0.0
 10
11.4049177112
 20
7.84290011
 30
0.0
 10
11.4038775546
 20
7.8435308308
 30
0.0
 10
11.4030095996
 20
7.8440537305
 30
0.0
 10
11.4024043033
 20
7.844425061
 30
0.0
 10
11.402054872
 20
7.8446289732
 30
0.0
 10
11.4018027923
 20
7.8448052228
 30
0.0
 10
11.4015125113
 20
7.844892349
 30
0.0
 10
11.4011387951
 20
7.8450396045
 30
0.0
 10
11.4004785832
 20
7.8452828175
 30
0.0
 10
11.3995386693
 20
7.8456378372
 30
0.0
 10
11.3984093833
 20
7.8460606195
 30
0.0
 10
11.3969041538
 20
7.8466254613
 30
0.0
 10
11.3950224509
 20
7.847331126
 30
0.0
 10
11.392011819
 20
7.8484604062
 30
0.0
 10
11.3882484972
 20
7.8498719316
 30
0.0
 10
11.3837325254
 20
7.8515657964
 30
0.0
 10
11.3792165472
 20
7.8532596435
 30
0.0
 10
11.3754532414
 20
7.8546712132
 30
0.0
 10
11.3724425774
 20
7.8558004048
 30
0.0
 10
11.3705609561
 20
7.8565062946
 30
0.0
 10
11.369055559
 20
7.8570706744
 30
0.0
 10
11.3679267852
 20
7.8574948684
 30
0.0
 10
11.3669852687
 20
7.8578454712
 30
0.0
 10
11.3663279177
 20
7.8580965691
 30
0.0
 10
11.3659496178
 20
7.858231191
 30
0.0
 10
11.3656734163
 20
7.8583571238
 30
0.0
 10
11.3653684564
 20
7.8583876221
 30
0.0
 10
11.3649718745
 20
7.8584615752
 30
0.0
 10
11.3642731823
 20
7.8585754832
 30
0.0
 10
11.3632774942
 20
7.8587463177
 30
0.0
 10
11.3620816226
 20
7.8589478482
 30
0.0
 10
11.3604874924
 20
7.8592177679
 30
0.0
 10
11.3584947045
 20
7.8595547525
 30
0.0
 10
11.3553063139
 20
7.8600941598
 30
0.0
 10
11.3513208015
 20
7.8607683392
 30
0.0
 10
11.3465381971
 20
7.8615773887
 30
0.0
 10
11.3417555898
 20
7.8623864291
 30
0.0
 10
11.3353787812
 20
7.8634651528
 30
0.0
 10
11.3305961744
 20
7.8642741949
 30
0.0
 10
11.32740777
 20
7.8648135564
 30
0.0
  0
SPLINE
  5
368
100
AcDbEntity
  8
0
100
AcDbSpline
 62
4
  6
CONTINUOUS
 70
0
 71
3
 72
313
 73
309
 74
0
 42
0.0000001
 43
0.0000001
 44
0.0000000001
 40
0.0
 40
0.0
 40
0.0
 40
0.0
 40
0.015625
 40
0.0234375
 40
0.03125
 40
0.0390625
 40
0.046875
 40
0.05078125
 40
0.0546875
 40
0.056640625
 40
0.05859375
 40
0.060546875
 40
0.0615234375
 40
0.0620117188
 40
0.0625
 40
0.0629882812
 40
0.0634765625
 40
0.064453125
 40
0.06640625
 40
0.068359375
 40
0.0703125
 40
0.07421875
 40
0.078125
 40
0.0859375
 40
0.09375
 40
0.1015625
 40
0.109375
 40
0.11328125
 40
0.1171875
 40
0.119140625
 40
0.12109375
 40
0.123046875
 40
0.1240234375
 40
0.1245117188
 40
0.125
 40
0.1254882812
 40
0.1259765625
 40
0.126953125
 40
0.12890625
 40
0.130859375
 40
0.1328125
 40
0.13671875
 40
0.140625
 40
0.1484375
 40
0.15625
 40
0.1640625
 40
0.171875
 40
0.17578125
 40
0.1796875
 40
0.181640625
 40
0.18359375
 40
0.185546875
 40
0.1865234375
 40
0.1870117188
 40
0.1875
 40
0.1879882812
 40
0.1884765625
 40
0.189453125
 40
0.19140625
 40
0.193359375
 40
0.1953125
 40
0.19921875
 40
0.203125
 40
0.2109375
 40
0.21875
 40
0.2265625
 40
0.234375
 40
0.23828125
 40
0.2421875
 40
0.244140625
 40
0.24609375
 40
0.248046875
 40
0.2490234375
 40
0.2495117188
 40
0.25
 40
0.2504882812
 40
0.2509765625
 40
0.251953125
 40
0.25390625
 40
0.255859375
 40
0.2578125
 40
0.26171875
 40
0.265625
 40
0.2734375
 40
0.28125
 40
0.2890625
 40
0.296875
 40
0.30078125
 40
0.3046875
 40
0.306640625
 40
0.30859375
 40
0.310546875
 40
0.3115234375
 40
0.3120117188
 40
0.3125
 40
0.3129882812
 40
0.3134765625
 40
0.314453125
 40
0.31640625
 40
0.318359375
 40
0.3203125
 40
0.32421875
 40
0.328125
 40
0.3359375
 40
0.34375
 40
0.3515625
 40
0.359375
 40
0.36328125
 40
0.3671875
 40
0.369140625
 40
0.37109375
 40
0.373046875
 40
0.3740234375
 40
0.3745117188
 40
0.375
 40
0.3754882812
 40
0.3759765625
 40
0.376953125
 40
0.37890625
 40
0.380859375
 40
0.3828125
 40
0.38671875
 40
0.390625
 40
0.3984375
 40
0.40625
 40
0.4140625
 40
0.421875
 40
0.42578125
 40
0.4296875
 40
0.431640625
 40
0.43359375
 40
0.435546875
 40
0.4365234375
 40
0.4370117188
 40
0.4375
 40
0.4379882812
 40
0.4384765625
 40
0.439453125
 40
0.44140625
 40
0.443359375
 40
0.4453125
 40
0.44921875
 40
0.453125
 40
0.4609375
 40
0.46875
 40
0.4765625
 40
0.484375
 40
0.48828125
 40
0.4921875
 40
0.494140625
 40
0.49609375
 40
0.498046875
 40
0.4990234375
 40
0.4995117188
 40
0.5
 40
0.5004882812
 40
0.5009765625
 40
0.501953125
 40
0.50390625
 40
0.505859375
 40
0.5078125
 40
0.51171875
 40
0.515625
 40
0.5234375
 40
0.53125
 40
0.5390625
 40
0.546875
 40
0.55078125
 40
0.5546875
 40
0.556640625
 40
0.55859375
 40
0.560546875
 40
0.5615234375
 40
0.5620117188
 40
0.5625
 40
0.5629882812
 40
0.5634765625
 40
0.564453125
 40
0.56640625
 40
0.568359375
 40
0.5703125
 40
0.57421875
 40
0.578125
 40
0.5859375
 40
0.59375
 40
0.6015625
 40
0.609375
 40
0.61328125
 40
0.6171875
 40
0.619140625
 40
0.62109375
 40
0.623046875
 40
0.6240234375
 40
0.6245117188
 40
0.625
 40
0.6254882812
 40
0.6259765625
 40
0.626953125
 40
0.62890625
 40
0.630859375
 40
0.6328125
 40
0.63671875
 40
0.640625
 40
0.6484375
 40
0.65625
 40
0.6640625
 40
0.671875
 40
0.67578125
 40
0.6796875
 40
0.681640625
 40
0.68359375
 40
0.685546875
 40
0.6865234375
 40
0.6870117188
 40
0.6875
 40
0.6879882812
 40
0.6884765625
 40
0.689453125
 40
0.69140625
 40
0.693359375
 40
0.6953125
 40
0.69921875
 40
0.703125
 40
0.7109375
 40
0.71875
 40
0.7265625
 40
0.734375
 40
0.73828125
 40
0.7421875
 40
0.744140625
 40
0.74609375
 40
0.748046875
 40
0.7490234375
 40
0.7495117188
 40
0.75
 40
0.7504882812
 40
0.7509765625
 40
0.751953125
 40
0.75390625
 40
0.755859375
 40
0.7578125
 40
0.76171875
 40
0.765625
 40
0.7734375
 40
0.78125
 40
0.7890625
 40
0.796875
 40
0.80078125
 40
0.8046875
 40
0.806640625
 40
0.80859375
 40
0.810546875
 40
0.8115234375
 40
0.8120117188
 40
0.8125
 40
0.8129882812
 40
0.8134765625
 40
0.814453125
 40
0.81640625
 40
0.818359375
 40
0.8203125
 40
0.82421875
 40
0.828125
 40
0.8359375
 40
0.84375
 40
0.8515625
 40
0.859375
 40
0.86328125
 40
0.8671875
 40
0.869140625
 40
0.87109375
 40
0.873046875
 40
0.8740234375
 40
0.8745117188
 40
0.875
 40
0.8754882812
 40
0.8759765625
 40
0.876953125
 40
0.87890625
 40
0.880859375
 40
0.8828125
 40
0.88671875
 40
0.890625
 40
0.8984375
 40
0.90625
 40
0.9140625
 40
0.921875
 40
0.92578125
 40
0.9296875
 40
0.931640625
 40
0.93359375
 40
0.935546875
 40
0.9365234375
 40
0.9370117188
 40
0.9375
 40
0.9379882812
 40
0.9384765625
 40
0.939453125
 40
0.94140625
 40
0.943359375
 40
0.9453125
 40
0.94921875
 40
0.953125
 40
0.9609375
 40
0.96875
 40
0.9765625
 40
0.984375
 40
1.0
 40
1.0
 40
1.0
 40
1.0
 10
11.3274077869
 20
7.8648135552
 30
0.0
 10
11.3242746
 20
7.8647236308
 30
0.0
 10
11.3195748196
 20
7.8645887444
 30
0.0
 10
11.3133084459
 20
7.864408895
 30
0.0
 10
11.3086086651
 20
7.8642740103
 30
0.0
 10
11.3039088862
 20
7.8641391162
 30
0.0
 10
11.299992398
 20
7.864026734
 30
0.0
 10
11.2968592203
 20
7.8639367622
 30
0.0
 10
11.294900955
 20
7.86388068
 30
0.0
 10
11.2933344098
 20
7.8638354703
 30
0.0
 10
11.2921593171
 20
7.8638025048
 30
0.0
 10
11.2911806582
 20
7.8637720376
 30
0.0
 10
11.2904944487
 20
7.8637565899
 30
0.0
 10
11.290104122
 20
7.8637385826
 30
0.0
 10
11.2898063259
 20
7.8637509376
 30
0.0
 10
11.2895278378
 20
7.8636644407
 30
0.0
 10
11.2891497855
 20
7.8635835922
 30
0.0
 10
11.2884913319
 20
7.8634260421
 30
0.0
 10
11.2875490433
 20
7.8632093695
 30
0.0
 10
11.2864189992
 20
7.8629457675
 30
0.0
 10
11.2849120284
 20
7.8625955537
 30
0.0
 10
11.283028399
 20
7.8621573565
 30
0.0
 10
11.2800145449
 20
7.8614564814
 30
0.0
 10
11.2762472436
 20
7.8605803045
 30
0.0
 10
11.2717264742
 20
7.8595289301
 30
0.0
 10
11.2672057102
 20
7.8584775371
 30
0.0
 10
11.2634383952
 20
7.8576014066
 30
0.0
 10
11.2604245686
 20
7.8569004387
 30
0.0
 10
11.2585408694
 20
7.8564624774
 30
0.0
 10
11.2570340418
 20
7.8561117795
 30
0.0
 10
11.2559035603
 20
7.8558496566
 30
0.0
 10
11.2549626403
 20
7.8556283559
 30
0.0
 10
11.2543017434
 20
7.8554790679
 30
0.0
 10
11.2539276059
 20
7.8553849815
 30
0.0
 10
11.2536370928
 20
7.8553391471
 30
0.0
 10
11.2533844605
 20
7.8551987803
 30
0.0
 10
11.2530344041
 20
7.8550445986
 30
0.0
 10
11.2524279618
 20
7.8547594174
 30
0.0
 10
11.251558397
 20
7.8543600476
 30
0.0
 10
11.2505162969
 20
7.853877366
 30
0.0
 10
11.2491263489
 20
7.8532349913
 30
0.0
 10
11.2473890787
 20
7.8524316118
 30
0.0
 10
11.2446093542
 20
7.8511464344
 30
0.0
 10
11.2411347305
 20
7.8495398833
 30
0.0
 10
11.2369651673
 20
7.8476120582
 30
0.0
 10
11.2327956123
 20
7.8456842151
 30
0.0
 10
11.2293209678
 20
7.8440777089
 30
0.0
 10
11.2265412849
 20
7.8427924417
 30
0.0
 10
11.2248039092
 20
7.8419892904
 30
0.0
 10
11.2234141777
 20
7.8413464472
 30
0.0
 10
11.2223714164
 20
7.8408651969
 30
0.0
 10
11.2215039203
 20
7.8404613488
 30
0.0
 10
11.220893785
 20
7.8401841623
 30
0.0
 10
11.2205496456
 20
7.840017171
 30
0.0
 10
11.2202788381
 20
7.8399161512
 30
0.0
 10
11.2200565881
 20
7.8397225361
 30
0.0
 10
11.2197433173
 20
7.839496681
 30
0.0
 10
11.2192029849
 20
7.8390863861
 30
0.0
 10
11.2184269558
 20
7.838508118
 30
0.0
 10
11.2174974867
 20
7.8378108288
 30
0.0
 10
11.2162575779
 20
7.836882286
 30
0.0
 10
11.214707903
 20
7.8357212048
 30
0.0
 10
11.2122283051
 20
7.8338637001
 30
0.0
 10
11.2091288488
 20
7.8315417415
 30
0.0
 10
11.2054094817
 20
7.8287554262
 30
0.0
 10
11.2016901267
 20
7.8259690952
 30
0.0
 10
11.19859064
 20
7.8236471758
 30
0.0
 10
11.1961111028
 20
7.8217895927
 30
0.0
 10
11.1945612737
 20
7.8206287106
 30
0.0
 10
11.1933216814
 20
7.8196997592
 30
0.0
 10
11.1923912453
 20
7.8190037186
 30
0.0
 10
11.1916182419
 20
7.818421544
 30
0.0
 10
11.1910725081
 20
7.8180182229
 30
0.0
 10
11.1907678917
 20
7.8177811939
 30
0.0
 10
11.1905190581
 20
7.8176219013
 30
0.0
 10
11.1903480942
 20
7.8173919722
 30
0.0
 10
11.1900929804
 20
7.8171100389
 30
0.0
 10
11.1896591865
 20
7.816605176
 30
0.0
 10
11.1890328647
 20
7.815889945
 30
0.0
 10
11.1882841105
 20
7.8150290988
 30
0.0
 10
11.1872847824
 20
7.8138822012
 30
0.0
 10
11.186035961
 20
7.812448272
 30
0.0
 10
11.1840376573
 20
7.8101541569
 30
0.0
 10
11.1815398432
 20
7.8072864539
 30
0.0
 10
11.1785424362
 20
7.8038452371
 30
0.0
 10
11.1755450447
 20
7.8004040076
 30
0.0
 10
11.173047192
 20
7.7975363361
 30
0.0
 10
11.1710489654
 20
7.7952421579
 30
0.0
 10
11.1697999482
 20
7.7938083893
 30
0.0
 10
11.1688010219
 20
7.792661162
 30
0.0
 10
11.1680510402
 20
7.791801323
 30
0.0
 10
11.1674285589
 20
7.7910829409
 30
0.0
 10
11.166987909
 20
7.7905837031
 30
0.0
 10
11.1667437804
 20
7.7902927569
 30
0.0
 10
11.1665390737
 20
7.7900905127
 30
0.0
 10
11.166416972
 20
7.7898272406
 30
0.0
 10
11.1662253561
 20
7.7894974984
 30
0.0
 10
11.1659034531
 20
7.7889105314
 30
0.0
 10
11.165436573
 20
7.7880771924
 30
0.0
 10
11.1648793211
 20
7.7870749661
 30
0.0
 10
11.1641352693
 20
7.7857394397
 30
0.0
 10
11.1632055638
 20
7.7840697662
 30
0.0
 10
11.1617178341
 20
7.7813984369
 30
0.0
 10
11.1598582414
 20
7.7780592242
 30
0.0
 10
11.1576266983
 20
7.774052192
 30
0.0
 10
11.1553951719
 20
7.7700451496
 30
0.0
 10
11.1535355374
 20
7.7667059622
 30
0.0
 10
11.1520478914
 20
7.7640345823
 30
0.0
 10
11.1511179732
 20
7.7623650376
 30
0.0
 10
11.1503743579
 20
7.7610292468
 30
0.0
 10
11.1498157722
 20
7.7600278282
 30
0.0
 10
11.1493530654
 20
7.7591919621
 30
0.0
 10
11.1490237123
 20
7.7586095064
 30
0.0
 10
11.1488440333
 20
7.7582725359
 30
0.0
 10
11.1486852655
 20
7.7580314668
 30
0.0
 10
11.1486182703
 20
7.757745832
 30
0.0
 10
11.1484969321
 20
7.7573805306
 30
0.0
 10
11.1482995049
 20
7.7567340104
 30
0.0
 10
11.1480096686
 20
7.7558141966
 30
0.0
 10
11.1476652025
 20
7.7547087994
 30
0.0
 10
11.1472047487
 20
7.7532355026
 30
0.0
 10
11.1466295805
 20
7.7513936876
 30
0.0
 10
11.1457090883
 20
7.7484468921
 30
0.0
 10
11.1445585502
 20
7.7447633604
 30
0.0
 10
11.1431778691
 20
7.7403431392
 30
0.0
 10
11.1417972061
 20
7.7359229102
 30
0.0
 10
11.1406466226
 20
7.7322393977
 30
0.0
 10
11.1397262213
 20
7.7292925638
 30
0.0
 10
11.1391508223
 20
7.7274508465
 30
0.0
 10
11.1386908422
 20
7.7259773492
 30
0.0
 10
11.1383449289
 20
7.7248725645
 30
0.0
 10
11.1380596206
 20
7.7239508343
 30
0.0
 10
11.13785411
 20
7.7233077354
 30
0.0
 10
11.1377457234
 20
7.7229369521
 30
0.0
 10
11.1376389452
 20
7.7226681557
 30
0.0
 10
11.1376295959
 20
7.7223638444
 30
0.0
 10
11.1375831459
 20
7.7219704839
 30
0.0
 10
11.1375176924
 20
7.7212763313
 30
0.0
 10
11.1374159091
 20
7.7202877023
 30
0.0
 10
11.1372973125
 20
7.7191000559
 30
0.0
 10
11.1371379461
 20
7.7175169785
 30
0.0
 10
11.1369391619
 20
7.7155379773
 30
0.0
 10
11.1366208702
 20
7.7123716616
 30
0.0
 10
11.1362230874
 20
7.7084137375
 30
0.0
 10
11.1357457106
 20
7.7036642411
 30
0.0
 10
11.1352683528
 20
7.6989147415
 30
0.0
 10
11.1348705224
 20
7.6949568254
 30
0.0
 10
11.134552326
 20
7.6917904937
 30
0.0
 10
11.1343532995
 20
7.6898115334
 30
0.0
 10
11.1341944304
 20
7.6882283719
 30
0.0
 10
11.1340743145
 20
7.6870409825
 30
0.0
 10
11.1339772847
 20
7.6860515494
 30
0.0
 10
11.1339033454
 20
7.6853588322
 30
0.0
 10
11.1338704917
 20
7.6849631718
 30
0.0
 10
11.133819379
 20
7.6846659253
 30
0.0
 10
11.1338694573
 20
7.6843705945
 30
0.0
 10
11.1339009319
 20
7.6839761518
 30
0.0
 10
11.1339724577
 20
7.6832861885
 30
0.0
 10
11.1340660396
 20
7.6823003639
 30
0.0
 10
11.134182018
 20
7.681117444
 30
0.0
 10
11.1343353705
 20
7.6795401931
 30
0.0
 10
11.1345275012
 20
7.6775686379
 30
0.0
 10
11.1348346643
 20
7.6744141448
 30
0.0
 10
11.1352187031
 20
7.6704710302
 30
0.0
 10
11.135679511
 20
7.6657392916
 30
0.0
 10
11.1361403379
 20
7.6610075544
 30
0.0
 10
11.1365243291
 20
7.6570644363
 30
0.0
 10
11.1368315875
 20
7.6539099502
 30
0.0
 10
11.1370234759
 20
7.6519383774
 30
0.0
 10
11.1371773259
 20
7.6503611627
 30
0.0
 10
11.1372917843
 20
7.6491781322
 30
0.0
 10
11.1373901217
 20
7.6481926537
 30
0.0
 10
11.1374531582
 20
7.6475020725
 30
0.0
 10
11.1374982347
 20
7.6471086198
 30
0.0
 10
11.137506532
 20
7.6468102482
 30
0.0
 10
11.1376123421
 20
7.6465244222
 30
0.0
 10
11.1377194086
 20
7.6461389448
 30
0.0
 10
11.1379226227
 20
7.6454663982
 30
0.0
 10
11.1382046431
 20
7.6445045514
 30
0.0
 10
11.138546614
 20
7.6433507916
 30
0.0
 10
11.1390013366
 20
7.6418122857
 30
0.0
 10
11.1395701639
 20
7.6398892079
 30
0.0
 10
11.1404800505
 20
7.636812253
 30
0.0
 10
11.1416174906
 20
7.63296607
 30
0.0
 10
11.1429823815
 20
7.6283506451
 30
0.0
 10
11.1443472905
 20
7.6237352244
 30
0.0
 10
11.1454846852
 20
7.6198890308
 30
0.0
 10
11.1463946627
 20
7.616812097
 30
0.0
 10
11.1469632589
 20
7.6148889655
 30
0.0
 10
11.1474184557
 20
7.6133505699
 30
0.0
 10
11.1477589777
 20
7.6121964731
 30
0.0
 10
11.1480455315
 20
7.6112356806
 30
0.0
 10
11.1482406529
 20
7.6105612519
 30
0.0
 10
11.1483606858
 20
7.6101787901
 30
0.0
 10
11.1484266673
 20
7.6098837012
 30
0.0
 10
11.1485845542
 20
7.6096201194
 30
0.0
 10
11.1487630124
 20
7.6092576869
 30
0.0
 10
11.1490902506
 20
7.6086285505
 30
0.0
 10
11.1495499248
 20
7.6077271072
 30
0.0
 10
11.1501048763
 20
7.6066465211
 30
0.0
 10
11.1508436443
 20
7.6052053393
 30
0.0
 10
11.1517675039
 20
7.6034039993
 30
0.0
 10
11.1532454558
 20
7.6005217785
 30
0.0
 10
11.1550929729
 20
7.596919029
 30
0.0
 10
11.1573099582
 20
7.5925957173
 30
0.0
 10
11.1595269609
 20
7.5882724127
 30
0.0
 10
11.1613744345
 20
7.5846696455
 30
0.0
 10
11.1628524734
 20
7.5817874602
 30
0.0
 10
11.1637761121
 20
7.57998603
 30
0.0
 10
11.1645153335
 20
7.5785450332
 30
0.0
 10
11.1650688995
 20
7.577463882
 30
0.0
 10
11.1655329087
 20
7.5765642068
 30
0.0
 10
11.1658524082
 20
7.5759319141
 30
0.0
 10
11.1660432657
 20
7.5755745388
 30
0.0
 10
11.1661630661
 20
7.575295423
 30
0.0
 10
11.1663720942
 20
7.5750586769
 30
0.0
 10
11.1666196748
 20
7.5747282363
 30
0.0
 10
11.1670674418
 20
7.5741568512
 30
0.0
 10
11.1676995277
 20
7.5733369867
 30
0.0
 10
11.1684612758
 20
7.5723546903
 30
0.0
 10
11.1694758066
 20
7.5710444235
 30
0.0
 10
11.1707443581
 20
7.5694067743
 30
0.0
 10
11.1727738235
 20
7.5667864325
 30
0.0
 10
11.1753107301
 20
7.5635110411
 30
0.0
 10
11.1783549844
 20
7.5595805542
 30
0.0
 10
11.1813992535
 20
7.5556500785
 30
0.0
 10
11.1839361231
 20
7.5523746593
 30
0.0
 10
11.1859656627
 20
7.549754373
 30
0.0
 10
11.1872340257
 20
7.5481165827
 30
0.0
 10
11.1882489432
 20
7.5468066056
 30
0.0
 10
11.1890095098
 20
7.545823424
 30
0.0
 10
11.1896452924
 20
7.5450063289
 30
0.0
 10
11.1900864602
 20
7.54443
 30
0.0
 10
11.1903446144
 20
7.5441074806
 30
0.0
 10
11.1905211637
 20
7.5438464033
 30
0.0
 10
11.1907629491
 20
7.5436586714
 30
0.0
 10
11.1910625746
 20
7.5433827786
 30
0.0
 10
11.1915975213
 20
7.542911886
 30
0.0
 10
11.1923561879
 20
7.5422329505
 30
0.0
 10
11.1932689603
 20
7.5414208953
 30
0.0
 10
11.1944851616
 20
7.5403372234
 30
0.0
 10
11.1960056969
 20
7.5389829525
 30
0.0
 10
11.1984383947
 20
7.5368159406
 30
0.0
 10
11.2014793218
 20
7.5341072375
 30
0.0
 10
11.2051284095
 20
7.5308567654
 30
0.0
 10
11.2087775087
 20
7.527606308
 30
0.0
 10
11.2118184069
 20
7.5248975684
 30
0.0
 10
11.2142511626
 20
7.5227306296
 30
0.0
 10
11.2157715509
 20
7.5213761731
 30
0.0
 10
11.2169880539
 20
7.520292882
 30
0.0
 10
11.2178999043
 20
7.5194796632
 30
0.0
 10
11.2186614557
 20
7.5188043682
 30
0.0
 10
11.2191912526
 20
7.5183269768
 30
0.0
 10
11.2194991292
 20
7.5180614968
 30
0.0
 10
11.2197155699
 20
7.5178417799
 30
0.0
 10
11.2199873097
 20
7.5177008329
 30
0.0
 10
11.2203303406
 20
7.5174854278
 30
0.0
 10
11.2209396316
 20
7.5171212703
 30
0.0
 10
11.2218053488
 20
7.5165943525
 30
0.0
 10
11.2228462207
 20
7.5159649159
 30
0.0
 10
11.2242333473
 20
7.5151246665
 30
0.0
 10
11.2259674961
 20
7.5140746974
 30
0.0
 10
11.2287419997
 20
7.5123945553
 30
0.0
 10
11.2322101756
 20
7.5102944438
 30
0.0
 10
11.2363719659
 20
7.5077742795
 30
0.0
 10
11.2405337652
 20
7.5052541313
 30
0.0
 10
11.2440019187
 20
7.5031539795
 30
0.0
 10
11.2467764672
 20
7.501473918
 30
0.0
 10
11.2485105019
 20
7.500423744
 30
0.0
 10
11.2498978627
 20
7.499583915
 30
0.0
 10
11.2509380193
 20
7.4989531942
 30
0.0
 10
11.2518059742
 20
7.4984302945
 30
0.0
 10
11.2524112706
 20
7.498058964
 30
0.0
 10
11.2527607019
 20
7.4978550518
 30
0.0
 10
11.2530127816
 20
7.4976788022
 30
0.0
 10
11.2533030625
 20
7.497591676
 30
0.0
 10
11.2536767788
 20
7.4974444205
 30
0.0
 10
11.2543369906
 20
7.4972012075
 30
0.0
 10
11.2552769045
 20
7.4968461878
 30
0.0
 10
11.2564061906
 20
7.4964234055
 30
0.0
 10
11.25791142
 20
7.4958585637
 30
0.0
 10
11.259793123
 20
7.495152899
 30
0.0
 10
11.2628037548
 20
7.4940236188
 30
0.0
 10
11.2665670767
 20
7.4926120934
 30
0.0
 10
11.2710830485
 20
7.4909182286
 30
0.0
 10
11.2755990267
 20
7.4892243815
 30
0.0
 10
11.2793623325
 20
7.4878128118
 30
0.0
 10
11.2823729964
 20
7.4866836202
 30
0.0
 10
11.2842546177
 20
7.4859777304
 30
0.0
 10
11.2857600148
 20
7.4854133506
 30
0.0
 10
11.2868887887
 20
7.4849891565
 30
0.0
 10
11.2878303051
 20
7.4846385538
 30
0.0
 10
11.2884876562
 20
7.4843874559
 30
0.0
 10
11.2888659561
 20
7.484252834
 30
0.0
 10
11.2891421575
 20
7.4841269012
 30
0.0
 10
11.2894471174
 20
7.4840964029
 30
0.0
 10
11.2898436994
 20
7.4840224498
 30
0.0
 10
11.2905423915
 20
7.4839085418
 30
0.0
 10
11.2915380796
 20
7.4837377073
 30
0.0
 10
11.2927339513
 20
7.4835361768
 30
0.0
 10
11.2943280815
 20
7.483266257
 30
0.0
 10
11.2963208693
 20
7.4829292725
 30
0.0
 10
11.29950926
 20
7.4823898652
 30
0.0
 10
11.3034947723
 20
7.4817156857
 30
0.0
 10
11.3082773768
 20
7.4809066362
 30
0.0
 10
11.313059984
 20
7.4800975959
 30
0.0
 10
11.3194367927
 20
7.4790188722
 30
0.0
 10
11.3242193994
 20
7.4782098301
 30
0.0
 10
11.3274078038
 20
7.4776704686
 30
0.0
  0
ENDSEC
  0
SECTION
  2
OBJECTS
  0
DICTIONARY
  5
C
100
AcDbDictionary
280
0
281
1
  3
ACAD_GROUP
350
D
  3
ACAD_MLINESTYLE
350
17
  3
ACAD_LAYOUT
350
1A
  3
ACAD_PLOTSETTINGS
350
19
  3
ACAD_PLOTSTYLENAME
350
E
  3
ACAD_IMAGE_DICT
350
       36A
  3
ACAD_IMAGE_VARS
350
       36B
  3
ACAD_TABLESTYLE
350
       36C
  0
IMAGEDEF_REACTOR
  5
369
100
AcDbRasterImageDefReactor
 90
2
330
287
  0
DICTIONARY
  5
D
102
{ACAD_REACTORS
330
C
102
}
100
AcDbDictionary
280
0
281
1
  0
ACDBDICTIONARYWDFLT
  5
E
102
{ACAD_REACTORS
330
C
102
}
100
AcDbDictionary
281
1
  3
Normal
350
F
100
AcDbDictionaryWithDefault
340
F
  0
DICTIONARY
  5
36A
330
C
100
AcDbDictionary
281
1
  3
FSEAXAN-PMX_assy_2_img_1
350
       36F
  0
RASTERVARIABLES
  5
36B
330
C
100
AcDbRasterVariables
 90
0
 70
0
 71
1
 72
5
  0
DICTIONARY
  5
17
102
{ACAD_REACTORS
330
C
102
}
100
AcDbDictionary
280
0
281
1
  3
Standard
350
18
  0
DICTIONARY
  5
36C
330
C
100
AcDbDictionary
281
1
  3
Standard
350
       370
  3
Standard1
350
       371
  0
DICTIONARY
  5
19
102
{ACAD_REACTORS
330
C
102
}
100
AcDbDictionary
281
1
  0
DICTIONARY
  5
1A
102
{ACAD_REACTORS
330
C
102
}
100
AcDbDictionary
281
1
  3
Model
350
36D
  3
Layout1
350
36E
  0
ACDBPLACEHOLDER
  5
F
102
{ACAD_REACTORS
330
E
102
}
  0
MLINESTYLE
  5
18
102
{ACAD_REACTORS
330
17
102
}
100
AcDbMlineStyle
  2
STANDARD
 70
0
  3

 62
256
 51
90.0
 52
90.0
 71
2
 49
0.5
 62
256
  6
BYLAYER
 49
-0.5
 62
256
  6
BYLAYER
  0
LAYOUT
  5
36D
102
{ACAD_REACTORS
330
1A
102
}
100
AcDbPlotSettings
  1

  2
none_device
  4
ANSI_C_(22.00_x_17.00_Inches)
  6

 40
0.0
 41
0.0
 42
0.0
 43
0.0
 44
558.8
 45
431.8
 46
0.0
 47
0.0
 48
0.0
 49
0.0
140
0.0
141
0.0
142
1.0
143
1.0
 70
1024
 72
0
 73
0
 74
0
  7

 75
0
147
1.0
148
0.0
149
0.0
100
AcDbLayout
  1
Model
 70
0
 71
0
 10
0.0
 20
0.0
 11
22.0
 21
17.0
 12
0.0
 22
0.0
 32
0.0
 14
0.0
 24
0.0
 34
0.0
 15
0.0
 25
0.0
 35
0.0
146
0.0
 13
0.0
 23
0.0
 33
0.0
 16
1.0
 26
0.0
 36
0.0
 17
0.0
 27
1.0
 37
0.0
 76
0
330
20C
345
0
346
0
  0
LAYOUT
  5
36E
102
{ACAD_REACTORS
330
1A
102
}
100
AcDbPlotSettings
  1

  2
none_device
  4
ANSI_C_(22.00_x_17.00_Inches)
  6

 40
0.0
 41
0.0
 42
0.0
 43
0.0
 44
558.8
 45
431.8
 46
0.0
 47
0.0
 48
0.0
 49
0.0
140
0.0
141
0.0
142
1.0
143
1.0
 70
0
 72
0
 73
0
 74
0
  7

 75
0
147
1.0
148
0.0
149
0.0
100
AcDbLayout
  1
Layout1
 70
0
 71
1
 10
0.0
 20
0.0
 11
22.0
 21
17.0
 12
0.0
 22
0.0
 32
0.0
 14
0.0
 24
0.0
 34
0.0
 15
0.0
 25
0.0
 35
0.0
146
0.0
 13
0.0
 23
0.0
 33
0.0
 16
1.0
 26
0.0
 36
0.0
 17
0.0
 27
1.0
 37
0.0
 76
0
330
20D
345
0
346
0
  0
IMAGEDEF
  5
36F
102
{ACAD_REACTORS
330
36A
330
369
102
}
100
AcDbRasterImageDef
 90
0
  1
FSEAXAN-PMX_assy_2_img_1.png
 10
369.0
 20
92.0
 11
0.0066666667
 21
0.0066666667
280
1
281
0
  0
TABLESTYLE
  5
370
102
{ACAD_REACTORS
330
36C
330
28A
330
28B
102
}
330
36C
100
AcDbTableStyle
  3
Standard
 70
0
 71
0
 40
0.06
 41
0.06
280
1
281
1
  7
Standard
140
0.18
170
1
 62
0
 63
7
283
0
  7
Standard
140
0.18
170
1
 62
0
 63
7
283
0
  7
Standard
140
0.18
170
1
 62
0
 63
7
283
0
  0
TABLESTYLE
  5
371
102
{ACAD_REACTORS
330
36C
330
289
102
}
330
36C
100
AcDbTableStyle
  3
Standard1
 70
1
 71
0
 40
0.06
 41
0.06
280
1
281
1
  7
Standard
140
0.18
170
1
 62
0
 63
7
283
0
  7
Standard
140
0.18
170
1
 62
0
 63
7
283
0
  7
Standard
140
0.18
170
1
 62
0
 63
7
283
0
  0
ENDSEC
  0
EOF
