999
DXF file: FSDDXAN-NMV_assy_2.dxf
999
Pro/ENGINEER 2014200 by Parametric Technology Corporation
  0
SECTION
  2
HEADER
  9
$ACADVER
  1
AC1021
  9
$DWGCODEPAGE
  3
ANSI_1252
  9
$EXTMAX
 10
22.0
 20
17.0
 30
0.0
  9
$EXTMIN
 10
0.0
 20
0.0
 30
0.0
  9
$LIMMIN
 10
0.0
 20
0.0
  9
$LIMMAX
 10
22.0
 20
17.0
  9
$VIEWCTR
 10
11.0
 20
8.5
  9
$VIEWSIZE
 40
17.0
  9
$CLAYER
  8
0
  9
$LTSCALE
 40
1.21
  9
$CELTYPE
  6
BYLAYER
  9
$DIMSCALE
 40
1.0
  9
$DIMASZ
 40
0.1875
  9
$DIMEXO
 40
0.0625
  9
$DIMDLI
 40
0.836
  9
$DIMEXE
 40
0.125
  9
$DIMCEN
 40
0.198
  9
$DIMLFAC
 40
1.0
  9
$DIMBLK
  1
_FILLED
  9
$DIMTXT
 40
0.1
  9
$DIMTOL
 70
0
  9
$DIMLIM
 70
0
  9
$DIMTFAC
 40
1.0
  9
$DIMGAP
 40
0.09
  9
$DIMDSEP
 70
46
  9
$AUNITS
 70
0
  9
$PDMODE
 70
3
  9
$PDSIZE
 40
0.3125
  9
$HANDSEED
  5
37A
  9
$TILEMODE
 70
1
  9
$MEASUREMENT
 70
0
  9
$INSUNITS
 70
1
  0
ENDSEC
  0
SECTION
  2
CLASSES
  0
CLASS
  1
ACDBDICTIONARYWDFLT
  2
AcDbDictionaryWithDefault
  3
AutoCAD 2000
 90
0
 91
1
280
0
281
0
  0
CLASS
  1
ACDBPLACEHOLDER
  2
AcDbPlaceHolder
  3
AutoCAD 2000
 90
0
 91
1
280
0
281
0
  0
CLASS
  1
LAYOUT
  2
AcDbLayout
  3
AutoCAD 2000
 90
0
 91
0
280
0
281
0
  0
CLASS
  1
RASTERVARIABLES
  2
AcDbRasterVariables
  3
ISM
 90
0
 91
1
280
0
281
0
  0
CLASS
  1
IMAGEDEF
  2
AcDbRasterImageDef
  3
ISM
 90
0
 91
1
280
0
281
0
  0
CLASS
  1
IMAGEDEF_REACTOR
  2
AcDbRasterImageDefReactor
  3
ISM
 90
0
 91
1
280
0
281
0
  0
CLASS
  1
IMAGE
  2
AcDbRasterImage
  3
ISM
 90
127
 91
1
280
0
281
1
  0
CLASS
  1
TABLESTYLE
  2
AcDbTableStyle
  3
ObjectDBX Classes
 90
2047
 91
1
280
0
281
0
  0
CLASS
  1
ACAD_TABLE
  2
AcDbTable
  3
ObjectDBX Classes
 90
1025
 91
3
280
0
281
1
  0
ENDSEC
  0
SECTION
  2
TABLES
  0
TABLE
  2
VPORT
  5
8
100
AcDbSymbolTable
 70
2
  0
VPORT
  5
1F4
100
AcDbSymbolTableRecord
100
AcDbViewportTableRecord
  2
*ACTIVE
 70
0
 10
0.0
 20
0.0
 11
1.0
 21
1.0
 12
11.0
 22
8.5
 13
0.0
 23
0.0
 14
1.0
 24
1.0
 15
0.0
 25
0.0
 16
0.0
 26
0.0
 36
1.0
 17
0.0
 27
0.0
 37
0.0
 40
17.0
 41
1.2941176471
 42
50.0
 43
0.0
 44
0.0
 50
0.0
 51
0.0
 71
0
 72
100
 73
1
 74
1
 75
0
 76
0
 77
0
 78
0
  0
ENDTAB
  0
TABLE
  2
LTYPE
  5
5
100
AcDbSymbolTable
 70
6
  0
LTYPE
  5
14
100
AcDbSymbolTableRecord
100
AcDbLinetypeTableRecord
  2
BYBLOCK
 70
0
  3

 72
65
 73
0
 40
0.0
  0
LTYPE
  5
15
100
AcDbSymbolTableRecord
100
AcDbLinetypeTableRecord
  2
BYLAYER
 70
0
  3

 72
65
 73
0
 40
0.0
  0
LTYPE
  5
16
100
AcDbSymbolTableRecord
100
AcDbLinetypeTableRecord
  2
CONTINUOUS
 70
64
  3
Solid line
 72
65
 73
0
 40
0.0
  0
LTYPE
  5
1F5
100
AcDbSymbolTableRecord
100
AcDbLinetypeTableRecord
  2
CENTER
 70
64
  3
____ _ ____ _ ____ _ ____ _ ____ _ ____ _ ____
 72
65
 73
4
 40
0.6
 49
0.375
 74
0
 49
-0.075
 74
0
 49
0.075
 74
0
 49
-0.075
 74
0
  0
LTYPE
  5
1F6
100
AcDbSymbolTableRecord
100
AcDbLinetypeTableRecord
  2
HIDDEN
 70
64
  3
- - - - - - - - - - - - - - - - - - - -
 72
65
 73
2
 40
0.2
 49
0.1
 74
0
 49
-0.1
 74
0
  0
LTYPE
  5
1F7
100
AcDbSymbolTableRecord
100
AcDbLinetypeTableRecord
  2
PHANTOM
 70
64
  3
_____ _ _ _____ _ _ _____ _ _ _____
 72
65
 73
6
 40
0.8
 49
0.45
 74
0
 49
-0.05
 74
0
 49
0.1
 74
0
 49
-0.05
 74
0
 49
0.1
 74
0
 49
-0.05
 74
0
  0
LTYPE
  5
1F8
100
AcDbSymbolTableRecord
100
AcDbLinetypeTableRecord
  2
DOT
 70
64
  3
. . . . . . . . . . . . . . . . . . . .
 72
65
 73
2
 40
0.2
 49
0.1
 74
0
 49
-0.1
 74
0
  0
LTYPE
  5
1F9
100
AcDbSymbolTableRecord
100
AcDbLinetypeTableRecord
  2
DASHED
 70
64
  3
- - - - - - - - - - - - - - - - - - - -
 72
65
 73
2
 40
0.2
 49
0.1
 74
0
 49
-0.1
 74
0
  0
ENDTAB
  0
TABLE
  2
LAYER
  5
2
100
AcDbSymbolTable
 70
36
  0
LAYER
  5
10
100
AcDbSymbolTableRecord
100
AcDbLayerTableRecord
  2
0
 70
0
 62
7
  6
CONTINUOUS
370
-3
390
F
  0
LAYER
  5
1FA
100
AcDbSymbolTableRecord
100
AcDbLayerTableRecord
  2
DEFAULT_1
 70
0
 62
7
  6
CENTER
370
-3
390
F
  0
LAYER
  5
1FB
100
AcDbSymbolTableRecord
100
AcDbLayerTableRecord
  2
DEFAULT_2
 70
0
 62
8
  6
HIDDEN
370
-3
390
F
  0
LAYER
  5
1FC
100
AcDbSymbolTableRecord
100
AcDbLayerTableRecord
  2
DEFAULT_3
 70
0
 62
7
  6
PHANTOM
370
-3
390
F
  0
LAYER
  5
1FD
100
AcDbSymbolTableRecord
100
AcDbLayerTableRecord
  2
01___PRT_ALL_DTM_PLN
 70
0
 62
7
  6
CONTINUOUS
370
-3
390
F
  0
LAYER
  5
1FE
100
AcDbSymbolTableRecord
100
AcDbLayerTableRecord
  2
01___PRT_DEF_DTM_PLN
 70
0
 62
7
  6
CONTINUOUS
370
-3
390
F
  0
LAYER
  5
1FF
100
AcDbSymbolTableRecord
100
AcDbLayerTableRecord
  2
02___PRT_ALL_AXES
 70
0
 62
7
  6
CONTINUOUS
370
-3
390
F
  0
LAYER
  5
200
100
AcDbSymbolTableRecord
100
AcDbLayerTableRecord
  2
03___PRT_ALL_CURVES
 70
0
 62
7
  6
CONTINUOUS
370
-3
390
F
  0
LAYER
  5
201
100
AcDbSymbolTableRecord
100
AcDbLayerTableRecord
  2
04___PRT_ALL_DTM_PNT
 70
0
 62
7
  6
CONTINUOUS
370
-3
390
F
  0
LAYER
  5
202
100
AcDbSymbolTableRecord
100
AcDbLayerTableRecord
  2
05___PRT_ALL_DTM_CSYS
 70
0
 62
7
  6
CONTINUOUS
370
-3
390
F
  0
LAYER
  5
203
100
AcDbSymbolTableRecord
100
AcDbLayerTableRecord
  2
05___PRT_DEF_DTM_CSYS
 70
0
 62
7
  6
CONTINUOUS
370
-3
390
F
  0
LAYER
  5
204
100
AcDbSymbolTableRecord
100
AcDbLayerTableRecord
  2
06___PRT_ALL_SURFS
 70
0
 62
7
  6
CONTINUOUS
370
-3
390
F
  0
LAYER
  5
205
100
AcDbSymbolTableRecord
100
AcDbLayerTableRecord
  2
DATUM_PLANES
 70
0
 62
7
  6
CONTINUOUS
370
-3
390
F
  0
LAYER
  5
206
100
AcDbSymbolTableRecord
100
AcDbLayerTableRecord
  2
PORT_AREAS
 70
0
 62
7
  6
CONTINUOUS
370
-3
390
F
  0
LAYER
  5
207
100
AcDbSymbolTableRecord
100
AcDbLayerTableRecord
  2
SUNNBOMCOSMETIC
 70
0
 62
7
  6
CONTINUOUS
370
-3
390
F
  0
LAYER
  5
208
100
AcDbSymbolTableRecord
100
AcDbLayerTableRecord
  2
SUNNBOMSTAMPING
 70
0
 62
7
  6
CONTINUOUS
370
-3
390
F
  0
LAYER
  5
209
100
AcDbSymbolTableRecord
100
AcDbLayerTableRecord
  2
THREADS
 70
0
 62
7
  6
CONTINUOUS
370
-3
390
F
  0
ENDTAB
  0
TABLE
  2
STYLE
  5
3
100
AcDbSymbolTable
 70
1
  0
STYLE
  5
11
100
AcDbSymbolTableRecord
100
AcDbTextStyleTableRecord
  2
STANDARD
 70
0
 40
0.0
 41
0.8
 50
0.0
 71
0
 42
0.2
  3
txt
  4

  0
STYLE
  5
20A
100
AcDbSymbolTableRecord
100
AcDbTextStyleTableRecord
  2
TEXTSTYLE_1
 70
0
 40
0.0
 41
0.8
 50
0.0
 71
0
 42
0.2
  3
gdt
  4

  0
ENDTAB
  0
TABLE
  2
VIEW
  5
6
100
AcDbSymbolTable
 70
0
  0
ENDTAB
  0
TABLE
  2
UCS
  5
7
100
AcDbSymbolTable
 70
0
  0
ENDTAB
  0
TABLE
  2
APPID
  5
9
100
AcDbSymbolTable
 70
1
  0
APPID
  5
20B
100
AcDbSymbolTableRecord
100
AcDbRegAppTableRecord
  2
ACAD
 70
0
  0
ENDTAB
  0
TABLE
  2
BLOCK_RECORD
  5
1
100
AcDbSymbolTable
 70
0
  0
BLOCK_RECORD
  5
20C
100
AcDbSymbolTableRecord
100
AcDbBlockTableRecord
  2
*Model_Space
  0
BLOCK_RECORD
  5
20D
100
AcDbSymbolTableRecord
100
AcDbBlockTableRecord
  2
*Paper_Space
  0
BLOCK_RECORD
  5
20E
100
AcDbSymbolTableRecord
100
AcDbBlockTableRecord
  2
SUN_FIRST_THIRD_ANGLE_BL0
  0
BLOCK_RECORD
  5
20F
100
AcDbSymbolTableRecord
100
AcDbBlockTableRecord
  2
*T1
  0
BLOCK_RECORD
  5
210
100
AcDbSymbolTableRecord
100
AcDbBlockTableRecord
  2
*T2
  0
BLOCK_RECORD
  5
211
100
AcDbSymbolTableRecord
100
AcDbBlockTableRecord
  2
*T3
  0
ENDTAB
  0
TABLE
  2
DIMSTYLE
  5
A
100
AcDbSymbolTable
 70
1
100
AcDbDimStyleTable
 71
0
  0
DIMSTYLE
105
212
100
AcDbSymbolTableRecord
100
AcDbDimStyleTableRecord
  2
STANDARD
 70
0
  3

  4

 40
1.0
 41
0.1875
 42
0.0625
 43
0.38
 44
0.125
 45
0.0
 46
0.0
 47
0.001
 48
0.001
140
0.1
141
0.09
142
0.0
143
25.4
144
1.0
145
0.0
146
1.0
147
0.09
 71
0.0
 72
0.0
 73
1
 74
1
 75
0
 76
0
 77
0
 78
4
170
0
171
2
172
0
173
0
174
0
175
0
176
0
177
0
178
0
270
2
271
3
272
3
273
2
274
2
275
0
280
0
281
0
282
0
283
1
284
4
285
0
286
0
287
3
288
0
340
11
278
46
  0
ENDTAB
  0
ENDSEC
  0
SECTION
  2
BLOCKS
  0
BLOCK
  5
20
100
AcDbEntity
  8
0
100
AcDbBlockBegin
  2
*Model_Space
 70
0
 10
0.0
 20
0.0
 30
0.0
  3
*Model_Space
  1

  0
ENDBLK
  5
21
100
AcDbEntity
  8
0
100
AcDbBlockEnd
  0
BLOCK
  5
1C
100
AcDbEntity
  8
0
100
AcDbBlockBegin
  2
*Paper_Space
 70
0
 10
0.0
 20
0.0
 30
0.0
  3
*Paper_Space
  1

  0
ENDBLK
  5
1D
100
AcDbEntity
  8
0
100
AcDbBlockEnd
  0
BLOCK
  5
213
100
AcDbEntity
  8
0
100
AcDbBlockBegin
 62
2
  6
CONTINUOUS
  2
SUN_FIRST_THIRD_ANGLE_BL0
 70
64
 10
20.4816717061
 20
1.2289683772
  3
SUN_FIRST_THIRD_ANGLE_BL0
  1

  0
TEXT
  5
214
100
AcDbEntity
  8
0
100
AcDbText
 62
2
  6
CONTINUOUS
 10
19.4750896608
 20
1.4136269581
  7
STANDARD
 40
0.08
  1
FIRST ANGLE
 41
0.8
 72
0
100
AcDbText
  0
TEXT
  5
215
100
AcDbEntity
  8
0
100
AcDbText
 62
2
  6
CONTINUOUS
 10
20.7842537513
 20
1.4047600029
  7
STANDARD
 40
0.08
  1
THIRD ANGLE
 41
0.8
 72
0
100
AcDbText
  0
LINE
  5
216
100
AcDbEntity
  8
0
100
AcDbLine
 62
7
  6
CONTINUOUS
 10
19.4767170086
 20
1.1727031207
 11
19.6334271527
 21
1.1717972817
  0
LINE
  5
217
100
AcDbEntity
  8
0
100
AcDbLine
 62
7
  6
CONTINUOUS
 10
19.6596964832
 20
1.1717972817
 11
19.6950230232
 21
1.171593082
  0
LINE
  5
218
100
AcDbEntity
  8
0
100
AcDbLine
 62
7
  6
CONTINUOUS
 10
19.7194818561
 20
1.1708914427
 11
19.8852396156
 21
1.1699333054
  0
LINE
  5
219
100
AcDbEntity
  8
0
100
AcDbLine
 62
7
  6
CONTINUOUS
 10
19.4758111696
 20
1.2723454088
 11
19.88525039
 21
1.3511534004
  0
LINE
  5
21A
100
AcDbEntity
  8
0
100
AcDbLine
 62
7
  6
CONTINUOUS
 10
19.88525039
 20
1.3511534004
 11
19.8831348489
 21
0.9851647912
  0
LINE
  5
21B
100
AcDbEntity
  8
0
100
AcDbLine
 62
7
  6
CONTINUOUS
 10
19.8831348489
 20
0.9851647912
 11
19.4767170086
 21
1.0658141206
  0
LINE
  5
21C
100
AcDbEntity
  8
0
100
AcDbLine
 62
7
  6
CONTINUOUS
 10
19.4767170086
 20
1.0658141206
 11
19.4779056764
 21
1.2714536432
  0
CIRCLE
  5
21D
100
AcDbEntity
  8
0
100
AcDbCircle
 62
7
  6
CONTINUOUS
 10
20.2068232291
 20
1.1717972817
 40
0.175742101
  0
CIRCLE
  5
21E
100
AcDbEntity
  8
0
100
AcDbCircle
 62
7
  6
CONTINUOUS
 10
20.2068232291
 20
1.1717972817
 40
0.1005522074
  0
LINE
  5
21F
100
AcDbEntity
  8
0
100
AcDbLine
 62
7
  6
CONTINUOUS
 10
20.2077290681
 20
1.3756110529
 11
20.2071171714
 21
1.2379342989
  0
LINE
  5
220
100
AcDbEntity
  8
0
100
AcDbLine
 62
7
  6
CONTINUOUS
 10
20.2077290681
 20
1.2016899681
 11
20.2074674401
 21
1.1428236749
  0
LINE
  5
221
100
AcDbEntity
  8
0
100
AcDbLine
 62
7
  6
CONTINUOUS
 10
20.208634907
 20
1.101141841
 11
20.2080230104
 21
0.963465087
  0
LINE
  5
222
100
AcDbEntity
  8
0
100
AcDbLine
 62
7
  6
CONTINUOUS
 10
20.0066328138
 20
1.1745147986
 11
20.1443095678
 21
1.1739029019
  0
LINE
  5
223
100
AcDbEntity
  8
0
100
AcDbLine
 62
7
  6
CONTINUOUS
 10
20.1832714155
 20
1.1727031207
 11
20.238153505
 21
1.172335442
  0
LINE
  5
224
100
AcDbEntity
  8
0
100
AcDbLine
 62
7
  6
CONTINUOUS
 10
20.2756669918
 20
1.1717972817
 11
20.407916871
 21
1.1712095044
  0
CIRCLE
  5
225
100
AcDbEntity
  8
0
100
AcDbCircle
 62
7
  6
CONTINUOUS
 10
20.7509457401
 20
1.1693297793
 40
0.1722024983
  0
CIRCLE
  5
226
100
AcDbEntity
  8
0
100
AcDbCircle
 62
7
  6
CONTINUOUS
 10
20.7509457401
 20
1.1693297793
 40
0.0985164967
  0
LINE
  5
227
100
AcDbEntity
  8
0
100
AcDbLine
 62
7
  6
CONTINUOUS
 10
20.7169767782
 20
1.170462078
 11
20.7825395137
 21
1.1682766535
  0
LINE
  5
228
100
AcDbEntity
  8
0
100
AcDbLine
 62
7
  6
CONTINUOUS
 10
20.8177513651
 20
1.1693297793
 11
20.947965719
 21
1.1693297793
  0
LINE
  5
229
100
AcDbEntity
  8
0
100
AcDbLine
 62
7
  6
CONTINUOUS
 10
20.6875370113
 20
1.170462078
 11
20.5573226574
 21
1.170462078
  0
LINE
  5
22A
100
AcDbEntity
  8
0
100
AcDbLine
 62
7
  6
CONTINUOUS
 10
20.7486811426
 20
1.1987695462
 11
20.7486811426
 21
1.1432869085
  0
LINE
  5
22B
100
AcDbEntity
  8
0
100
AcDbLine
 62
7
  6
CONTINUOUS
 10
20.7498134414
 20
1.1059210505
 11
20.7498134414
 21
0.9757066966
  0
LINE
  5
22C
100
AcDbEntity
  8
0
100
AcDbLine
 62
7
  6
CONTINUOUS
 10
20.7486811426
 20
1.2338708068
 11
20.7486811426
 21
1.3640851607
  0
LINE
  5
22D
100
AcDbEntity
  8
0
100
AcDbLine
 62
7
  6
CONTINUOUS
 10
21.0702539817
 20
1.2701043662
 11
21.4790138229
 21
1.3448360823
  0
LINE
  5
22E
100
AcDbEntity
  8
0
100
AcDbLine
 62
7
  6
CONTINUOUS
 10
21.4790138229
 20
1.3448360823
 11
21.4790138229
 21
0.9779712941
  0
LINE
  5
22F
100
AcDbEntity
  8
0
100
AcDbLine
 62
7
  6
CONTINUOUS
 10
21.4790138229
 20
0.9779712941
 11
21.069121683
 21
1.0617614
  0
LINE
  5
230
100
AcDbEntity
  8
0
100
AcDbLine
 62
7
  6
CONTINUOUS
 10
21.0702539817
 20
1.2701043662
 11
21.069121683
 21
1.0617614
  0
LINE
  5
231
100
AcDbEntity
  8
0
100
AcDbLine
 62
7
  6
CONTINUOUS
 10
21.4790138229
 20
1.1693297793
 11
21.3159628059
 21
1.1693297793
  0
LINE
  5
232
100
AcDbEntity
  8
0
100
AcDbLine
 62
7
  6
CONTINUOUS
 10
21.2876553377
 20
1.1693297793
 11
21.2502894796
 21
1.1693297793
  0
LINE
  5
233
100
AcDbEntity
  8
0
100
AcDbLine
 62
7
  6
CONTINUOUS
 10
21.2208497126
 20
1.1659328831
 11
21.0713862804
 21
1.1659328831
  0
LINE
  5
234
100
AcDbEntity
  8
0
100
AcDbLine
 62
7
  6
CONTINUOUS
 10
20.4796138713
 20
1.5284908897
 11
20.4766766948
 21
0.9294458646
  0
ENDBLK
  5
235
100
AcDbEntity
  8
0
  6
BYBLOCK
 62
0
100
AcDbBlockEnd
  0
BLOCK
  5
236
100
AcDbEntity
  8
0
100
AcDbBlockBegin
  2
*T1
 70
1
 10
0.0
 20
0.0
  3
*T1
  1

  0
LINE
  5
237
100
AcDbEntity
  8
0
100
AcDbLine
 62
2
  6
CONTINUOUS
 10
9.275
 20
0.0
 11
-0.0
 21
0.0
  0
LINE
  5
238
100
AcDbEntity
  8
0
100
AcDbLine
 62
2
  6
CONTINUOUS
 10
9.275
 20
0.0
 11
9.275
 21
1.25
  0
LINE
  5
239
100
AcDbEntity
  8
0
100
AcDbLine
 62
2
  6
CONTINUOUS
 10
9.275
 20
0.625
 11
-0.0
 21
0.625
  0
LINE
  5
23A
100
AcDbEntity
  8
0
100
AcDbLine
 62
2
  6
CONTINUOUS
 10
9.275
 20
1.25
 11
-0.0
 21
1.25
  0
LINE
  5
23B
100
AcDbEntity
  8
0
100
AcDbLine
 62
2
  6
CONTINUOUS
 10
6.8
 20
0.0
 11
6.8
 21
1.25
  0
LINE
  5
23C
100
AcDbEntity
  8
0
100
AcDbLine
 62
2
  6
CONTINUOUS
 10
6.4
 20
0.0
 11
6.4
 21
0.625
  0
LINE
  5
23D
100
AcDbEntity
  8
0
100
AcDbLine
 62
2
  6
CONTINUOUS
 10
5.9
 20
0.0
 11
5.9
 21
0.625
  0
LINE
  5
23E
100
AcDbEntity
  8
0
100
AcDbLine
 62
2
  6
CONTINUOUS
 10
5.2
 20
0.0
 11
5.2
 21
0.625
  0
LINE
  5
23F
100
AcDbEntity
  8
0
100
AcDbLine
 62
2
  6
CONTINUOUS
 10
4.1
 20
0.0
 11
4.1
 21
1.25
  0
LINE
  5
240
100
AcDbEntity
  8
0
100
AcDbLine
 62
2
  6
CONTINUOUS
 10
-0.0
 20
0.0
 11
-0.0
 21
1.25
  0
MTEXT
  5
241
100
AcDbEntity
  8
0
100
AcDbMText
 62
2
  6
CONTINUOUS
  7
STANDARD
 71
2
 72
1
 10
6.6
 20
0.325
 30
0.0
 11
1.0
 21
0.0
 31
0.0
 44
0.9
  1
2
 40
0.125
 41
0.2
  0
MTEXT
  5
242
100
AcDbEntity
  8
0
100
AcDbMText
 62
2
  6
CONTINUOUS
  7
STANDARD
 71
2
 72
1
 10
6.15
 20
0.325
 30
0.0
 11
1.0
 21
0.0
 31
0.0
 44
0.9
  1
C
 40
0.125
 41
0.2
  0
MTEXT
  5
243
100
AcDbEntity
  8
0
100
AcDbMText
 62
2
  6
CONTINUOUS
  7
STANDARD
 71
2
 72
1
 10
5.55
 20
0.325
 30
0.0
 11
1.0
 21
0.0
 31
0.0
 44
0.9
  1
1.000
 40
0.125
 41
1.0
  0
MTEXT
  5
244
100
AcDbEntity
  8
0
100
AcDbMText
 62
2
  6
CONTINUOUS
  7
STANDARD
 71
2
 72
1
 10
4.65
 20
0.325
 30
0.0
 11
1.0
 21
0.0
 31
0.0
 44
0.9
  1
Jan-18-21
 40
0.125
 41
1.8
  0
MTEXT
  5
245
100
AcDbEntity
  8
0
100
AcDbMText
 62
2
  6
CONTINUOUS
  7
STANDARD
 71
2
 72
1
 10
2.05
 20
0.4625
 30
0.0
 11
1.0
 21
0.0
 31
0.0
 44
0.9
  1
Flow divider manifold assembly
 40
0.125
 41
6.0
  0
MTEXT
  5
246
100
AcDbEntity
  8
0
100
AcDbMText
 62
2
  6
CONTINUOUS
  7
STANDARD
 71
1
 72
1
 10
6.45
 20
0.5625
 30
0.0
 11
1.0
 21
0.0
 31
0.0
 44
0.9
  1
SHEET
 40
0.06
 41
0.48
  0
MTEXT
  5
247
100
AcDbEntity
  8
0
100
AcDbMText
 62
2
  6
CONTINUOUS
  7
STANDARD
 71
1
 72
1
 10
5.95
 20
0.5625
 30
0.0
 11
1.0
 21
0.0
 31
0.0
 44
0.9
  1
DWG SIZE
 40
0.06
 41
0.768
  0
MTEXT
  5
248
100
AcDbEntity
  8
0
100
AcDbMText
 62
2
  6
CONTINUOUS
  7
STANDARD
 71
1
 72
1
 10
5.25
 20
0.5625
 30
0.0
 11
1.0
 21
0.0
 31
0.0
 44
0.9
  1
SCALE
 40
0.06
 41
0.48
  0
MTEXT
  5
249
100
AcDbEntity
  8
0
100
AcDbMText
 62
2
  6
CONTINUOUS
  7
STANDARD
 71
1
 72
1
 10
4.15
 20
0.5625
 30
0.0
 11
1.0
 21
0.0
 31
0.0
 44
0.9
  1
DATE
 40
0.06
 41
0.384
  0
MTEXT
  5
24A
100
AcDbEntity
  8
0
100
AcDbMText
 62
2
  6
CONTINUOUS
  7
STANDARD
 71
1
 72
1
 10
0.05
 20
0.5625
 30
0.0
 11
1.0
 21
0.0
 31
0.0
 44
0.9
  1
DESCRIPTION
 40
0.06
 41
1.056
  0
MTEXT
  5
24B
100
AcDbEntity
  8
0
100
AcDbMText
 62
2
  6
CONTINUOUS
  7
STANDARD
 71
2
 72
1
 10
5.45
 20
1.0375
 30
0.0
 11
1.0
 21
0.0
 31
0.0
 44
0.9
  1
ALL DIMENSIONS IN INCH\PVIEWS ARE THIRD ANGLE
 40
0.12
 41
4.224
  0
MTEXT
  5
24C
100
AcDbEntity
  8
0
100
AcDbMText
 62
2
  6
CONTINUOUS
  7
STANDARD
 71
2
 72
1
 10
2.05
 20
0.95
 30
0.0
 11
1.0
 21
0.0
 31
0.0
 44
0.9
  1
FSDDXAN-NMV
 40
0.125
 41
2.2
  0
MTEXT
  5
24D
100
AcDbEntity
  8
0
100
AcDbMText
 62
2
  6
CONTINUOUS
  7
STANDARD
 71
1
 72
1
 10
0.05
 20
1.1875
 30
0.0
 11
1.0
 21
0.0
 31
0.0
 44
0.9
  1
MODEL
 40
0.06
 41
0.48
  0
ENDBLK
  5
24E
100
AcDbEntity
  8
0
  6
BYBLOCK
 62
0
100
AcDbBlockEnd
  0
BLOCK
  5
24F
100
AcDbEntity
  8
0
100
AcDbBlockBegin
  2
*T2
 70
1
 10
0.0
 20
0.0
  3
*T2
  1

  0
LINE
  5
250
100
AcDbEntity
  8
0
100
AcDbLine
 62
2
  6
CONTINUOUS
 10
0.0
 20
0.0
 11
9.055
 21
0.0
  0
LINE
  5
251
100
AcDbEntity
  8
0
100
AcDbLine
 62
2
  6
CONTINUOUS
 10
0.0
 20
0.0
 11
0.0
 21
-2.594
  0
LINE
  5
252
100
AcDbEntity
  8
0
100
AcDbLine
 62
2
  6
CONTINUOUS
 10
0.0
 20
-0.344
 11
9.055
 21
-0.344
  0
LINE
  5
253
100
AcDbEntity
  8
0
100
AcDbLine
 62
2
  6
CONTINUOUS
 10
0.0
 20
-0.594
 11
9.055
 21
-0.594
  0
LINE
  5
254
100
AcDbEntity
  8
0
100
AcDbLine
 62
2
  6
CONTINUOUS
 10
0.0
 20
-0.844
 11
9.055
 21
-0.844
  0
LINE
  5
255
100
AcDbEntity
  8
0
100
AcDbLine
 62
2
  6
CONTINUOUS
 10
0.0
 20
-1.094
 11
9.055
 21
-1.094
  0
LINE
  5
256
100
AcDbEntity
  8
0
100
AcDbLine
 62
2
  6
CONTINUOUS
 10
0.0
 20
-1.344
 11
9.055
 21
-1.344
  0
LINE
  5
257
100
AcDbEntity
  8
0
100
AcDbLine
 62
2
  6
CONTINUOUS
 10
0.0
 20
-1.594
 11
9.055
 21
-1.594
  0
LINE
  5
258
100
AcDbEntity
  8
0
100
AcDbLine
 62
2
  6
CONTINUOUS
 10
0.0
 20
-1.844
 11
9.055
 21
-1.844
  0
LINE
  5
259
100
AcDbEntity
  8
0
100
AcDbLine
 62
2
  6
CONTINUOUS
 10
0.0
 20
-2.094
 11
9.055
 21
-2.094
  0
LINE
  5
25A
100
AcDbEntity
  8
0
100
AcDbLine
 62
2
  6
CONTINUOUS
 10
0.0
 20
-2.344
 11
9.055
 21
-2.344
  0
LINE
  5
25B
100
AcDbEntity
  8
0
100
AcDbLine
 62
2
  6
CONTINUOUS
 10
0.0
 20
-2.594
 11
9.055
 21
-2.594
  0
LINE
  5
25C
100
AcDbEntity
  8
0
100
AcDbLine
 62
2
  6
CONTINUOUS
 10
3.055
 20
0.0
 11
3.055
 21
-2.594
  0
LINE
  5
25D
100
AcDbEntity
  8
0
100
AcDbLine
 62
2
  6
CONTINUOUS
 10
9.055
 20
0.0
 11
9.055
 21
-2.594
  0
MTEXT
  5
25E
100
AcDbEntity
  8
0
100
AcDbMText
 62
2
  6
CONTINUOUS
  7
STANDARD
 71
2
 72
1
 10
1.5275
 20
-0.0995
 30
0.0
 11
1.0
 21
0.0
 31
0.0
 44
0.9
  1
Technical Data
 40
0.145
 41
3.248
  0
MTEXT
  5
25F
100
AcDbEntity
  8
0
100
AcDbMText
 62
2
  6
CONTINUOUS
  7
STANDARD
 71
2
 72
1
 10
4.555
 20
-0.0995
 30
0.0
 11
1.0
 21
0.0
 31
0.0
 44
0.9
  1
U.S. Units
 40
0.145
 41
2.32
  0
MTEXT
  5
260
100
AcDbEntity
  8
0
100
AcDbMText
 62
2
  6
CONTINUOUS
  7
STANDARD
 71
2
 72
1
 10
7.555
 20
-0.0995
 30
0.0
 11
1.0
 21
0.0
 31
0.0
 44
0.9
  1
Metric Units
 40
0.145
 41
2.784
  0
MTEXT
  5
261
100
AcDbEntity
  8
0
100
AcDbMText
 62
2
  6
CONTINUOUS
  7
STANDARD
 71
2
 72
1
 10
1.5275
 20
-0.4065
 30
0.0
 11
1.0
 21
0.0
 31
0.0
 44
0.9
  1
Cavity
 40
0.125
 41
1.2
  0
MTEXT
  5
262
100
AcDbEntity
  8
0
100
AcDbMText
 62
2
  6
CONTINUOUS
  7
STANDARD
 71
2
 72
1
 10
6.055
 20
-0.4065
 30
0.0
 11
1.0
 21
0.0
 31
0.0
 44
0.9
  1
T-32A
 40
0.125
 41
1.0
  0
MTEXT
  5
263
100
AcDbEntity
  8
0
100
AcDbMText
 62
2
  6
CONTINUOUS
  7
STANDARD
 71
2
 72
1
 10
1.5275
 20
-0.6565
 30
0.0
 11
1.0
 21
0.0
 31
0.0
 44
0.9
  1
Body Features
 40
0.125
 41
2.6
  0
MTEXT
  5
264
100
AcDbEntity
  8
0
100
AcDbMText
 62
2
  6
CONTINUOUS
  7
STANDARD
 71
2
 72
1
 10
6.055
 20
-0.6565
 30
0.0
 11
1.0
 21
0.0
 31
0.0
 44
0.9
  1
Ninety degree
 40
0.125
 41
2.6
  0
MTEXT
  5
265
100
AcDbEntity
  8
0
100
AcDbMText
 62
2
  6
CONTINUOUS
  7
STANDARD
 71
2
 72
1
 10
1.5275
 20
-0.9065
 30
0.0
 11
1.0
 21
0.0
 31
0.0
 44
0.9
  1
Body Type
 40
0.125
 41
1.8
  0
MTEXT
  5
266
100
AcDbEntity
  8
0
100
AcDbMText
 62
2
  6
CONTINUOUS
  7
STANDARD
 71
2
 72
1
 10
6.055
 20
-0.9065
 30
0.0
 11
1.0
 21
0.0
 31
0.0
 44
0.9
  1
Line mount
 40
0.125
 41
2.0
  0
MTEXT
  5
267
100
AcDbEntity
  8
0
100
AcDbMText
 62
2
  6
CONTINUOUS
  7
STANDARD
 71
2
 72
1
 10
1.5275
 20
-1.1565
 30
0.0
 11
1.0
 21
0.0
 31
0.0
 44
0.9
  1
Interface
 40
0.125
 41
1.8
  0
MTEXT
  5
268
100
AcDbEntity
  8
0
100
AcDbMText
 62
2
  6
CONTINUOUS
  7
STANDARD
 71
2
 72
1
 10
6.055
 20
-1.1565
 30
0.0
 11
1.0
 21
0.0
 31
0.0
 44
0.9
  1
None
 40
0.125
 41
0.8
  0
MTEXT
  5
269
100
AcDbEntity
  8
0
100
AcDbMText
 62
2
  6
CONTINUOUS
  7
STANDARD
 71
2
 72
1
 10
1.5275
 20
-1.4065
 30
0.0
 11
1.0
 21
0.0
 31
0.0
 44
0.9
  1
Open Cavity Quantity
 40
0.125
 41
4.0
  0
MTEXT
  5
26A
100
AcDbEntity
  8
0
100
AcDbMText
 62
2
  6
CONTINUOUS
  7
STANDARD
 71
2
 72
1
 10
6.055
 20
-1.4065
 30
0.0
 11
1.0
 21
0.0
 31
0.0
 44
0.9
  1
1
 40
0.125
 41
0.2
  0
MTEXT
  5
26B
100
AcDbEntity
  8
0
100
AcDbMText
 62
2
  6
CONTINUOUS
  7
STANDARD
 71
2
 72
1
 10
1.5275
 20
-1.6565
 30
0.0
 11
1.0
 21
0.0
 31
0.0
 44
0.9
  1
Weight
 40
0.125
 41
1.2
  0
MTEXT
  5
26C
100
AcDbEntity
  8
0
100
AcDbMText
 62
2
  6
CONTINUOUS
  7
STANDARD
 71
2
 72
1
 10
4.555
 20
-1.6565
 30
0.0
 11
1.0
 21
0.0
 31
0.0
 44
0.9
  1
3.075 lb.
 40
0.125
 41
1.8
  0
MTEXT
  5
26D
100
AcDbEntity
  8
0
100
AcDbMText
 62
2
  6
CONTINUOUS
  7
STANDARD
 71
2
 72
1
 10
7.555
 20
-1.6565
 30
0.0
 11
1.0
 21
0.0
 31
0.0
 44
0.9
  1
1,395 kg.
 40
0.125
 41
1.8
  0
MTEXT
  5
26E
100
AcDbEntity
  8
0
100
AcDbMText
 62
2
  6
CONTINUOUS
  7
STANDARD
 71
2
 72
1
 10
1.5275
 20
-1.9065
 30
0.0
 11
1.0
 21
0.0
 31
0.0
 44
0.9
  1
Mounting Hole Diameter
 40
0.125
 41
4.4
  0
MTEXT
  5
26F
100
AcDbEntity
  8
0
100
AcDbMText
 62
2
  6
CONTINUOUS
  7
STANDARD
 71
2
 72
1
 10
4.555
 20
-1.9065
 30
0.0
 11
1.0
 21
0.0
 31
0.0
 44
0.9
  1
.34 in.
 40
0.125
 41
1.4
  0
MTEXT
  5
270
100
AcDbEntity
  8
0
100
AcDbMText
 62
2
  6
CONTINUOUS
  7
STANDARD
 71
2
 72
1
 10
7.555
 20
-1.9065
 30
0.0
 11
1.0
 21
0.0
 31
0.0
 44
0.9
  1
8.6 mm
 40
0.125
 41
1.2
  0
MTEXT
  5
271
100
AcDbEntity
  8
0
100
AcDbMText
 62
2
  6
CONTINUOUS
  7
STANDARD
 71
2
 72
1
 10
1.5275
 20
-2.1565
 30
0.0
 11
1.0
 21
0.0
 31
0.0
 44
0.9
  1
Mounting Hole Depth
 40
0.125
 41
3.8
  0
MTEXT
  5
272
100
AcDbEntity
  8
0
100
AcDbMText
 62
2
  6
CONTINUOUS
  7
STANDARD
 71
2
 72
1
 10
6.055
 20
-2.1565
 30
0.0
 11
1.0
 21
0.0
 31
0.0
 44
0.9
  1
Through
 40
0.125
 41
1.4
  0
MTEXT
  5
273
100
AcDbEntity
  8
0
100
AcDbMText
 62
2
  6
CONTINUOUS
  7
STANDARD
 71
2
 72
1
 10
1.5275
 20
-2.4065
 30
0.0
 11
1.0
 21
0.0
 31
0.0
 44
0.9
  1
Mounting Hole Quantity
 40
0.125
 41
4.4
  0
MTEXT
  5
274
100
AcDbEntity
  8
0
100
AcDbMText
 62
2
  6
CONTINUOUS
  7
STANDARD
 71
2
 72
1
 10
6.055
 20
-2.4065
 30
0.0
 11
1.0
 21
0.0
 31
0.0
 44
0.9
  1
2
 40
0.125
 41
0.2
  0
ENDBLK
  5
275
100
AcDbEntity
  8
0
  6
BYBLOCK
 62
0
100
AcDbBlockEnd
  0
BLOCK
  5
276
100
AcDbEntity
  8
0
100
AcDbBlockBegin
  2
*T3
 70
1
 10
0.0
 20
0.0
  3
*T3
  1

  0
LINE
  5
277
100
AcDbEntity
  8
0
100
AcDbLine
 62
2
  6
CONTINUOUS
 10
0.0
 20
0.0
 11
4.6
 21
0.0
  0
LINE
  5
278
100
AcDbEntity
  8
0
100
AcDbLine
 62
2
  6
CONTINUOUS
 10
0.0
 20
0.0
 11
0.0
 21
-0.93775
  0
LINE
  5
279
100
AcDbEntity
  8
0
100
AcDbLine
 62
2
  6
CONTINUOUS
 10
0.0
 20
-0.34375
 11
4.6
 21
-0.34375
  0
LINE
  5
27A
100
AcDbEntity
  8
0
100
AcDbLine
 62
2
  6
CONTINUOUS
 10
0.0
 20
-0.68775
 11
4.6
 21
-0.68775
  0
LINE
  5
27B
100
AcDbEntity
  8
0
100
AcDbLine
 62
2
  6
CONTINUOUS
 10
0.0
 20
-0.93775
 11
4.6
 21
-0.93775
  0
LINE
  5
27C
100
AcDbEntity
  8
0
100
AcDbLine
 62
2
  6
CONTINUOUS
 10
1.3
 20
-0.34375
 11
1.3
 21
-0.93775
  0
LINE
  5
27D
100
AcDbEntity
  8
0
100
AcDbLine
 62
2
  6
CONTINUOUS
 10
3.3
 20
-0.34375
 11
3.3
 21
-0.93775
  0
LINE
  5
27E
100
AcDbEntity
  8
0
100
AcDbLine
 62
2
  6
CONTINUOUS
 10
4.6
 20
0.0
 11
4.6
 21
-0.93775
  0
MTEXT
  5
27F
100
AcDbEntity
  8
0
100
AcDbMText
 62
2
  6
CONTINUOUS
  7
STANDARD
 71
2
 72
1
 10
2.3
 20
-0.099375
 30
0.0
 11
1.0
 21
0.0
 31
0.0
 44
0.9
  1
Port Headings
 40
0.145
 41
3.016
  0
MTEXT
  5
280
100
AcDbEntity
  8
0
100
AcDbMText
 62
2
  6
CONTINUOUS
  7
STANDARD
 71
2
 72
1
 10
0.65
 20
-0.44325
 30
0.0
 11
1.0
 21
0.0
 31
0.0
 44
0.9
  1
Product
 40
0.145
 41
1.624
  0
MTEXT
  5
281
100
AcDbEntity
  8
0
100
AcDbMText
 62
2
  6
CONTINUOUS
  7
STANDARD
 71
2
 72
1
 10
2.3
 20
-0.44325
 30
0.0
 11
1.0
 21
0.0
 31
0.0
 44
0.9
  1
Port
 40
0.145
 41
0.928
  0
MTEXT
  5
282
100
AcDbEntity
  8
0
100
AcDbMText
 62
2
  6
CONTINUOUS
  7
STANDARD
 71
2
 72
1
 10
3.95
 20
-0.44325
 30
0.0
 11
1.0
 21
0.0
 31
0.0
 44
0.9
  1
Size
 40
0.145
 41
0.928
  0
MTEXT
  5
283
100
AcDbEntity
  8
0
100
AcDbMText
 62
2
  6
CONTINUOUS
  7
STANDARD
 71
2
 72
1
 10
0.65
 20
-0.75025
 30
0.0
 11
1.0
 21
0.0
 31
0.0
 44
0.9
  1
NMV
 40
0.125
 41
0.6
  0
MTEXT
  5
284
100
AcDbEntity
  8
0
100
AcDbMText
 62
2
  6
CONTINUOUS
  7
STANDARD
 71
2
 72
1
 10
2.3
 20
-0.75025
 30
0.0
 11
1.0
 21
0.0
 31
0.0
 44
0.9
  1
All Ports
 40
0.125
 41
1.8
  0
MTEXT
  5
285
100
AcDbEntity
  8
0
100
AcDbMText
 62
2
  6
CONTINUOUS
  7
STANDARD
 71
2
 72
1
 10
3.95
 20
-0.75025
 30
0.0
 11
1.0
 21
0.0
 31
0.0
 44
0.9
  1
1/2" BSPP
 40
0.125
 41
1.8
  0
ENDBLK
  5
286
100
AcDbEntity
  8
0
  6
BYBLOCK
 62
0
100
AcDbBlockEnd
  0
ENDSEC
  0
SECTION
  2
ENTITIES
  0
IMAGE
  5
287
100
AcDbEntity
  8
0
100
AcDbRasterImage
 62
7
  6
CONTINUOUS
 10
19.2297077316
 20
0.3094318264
 30
0.0
 11
0.0066666667
 21
0.0
 31
0.0
 12
0.0
 22
0.0066666667
 32
0.0
 13
369.0
 23
92.0
340
       377
 70
9
280
0
281
50
282
50
283
0
360
       371
 71
1
 91
2
 14
-0.5
 24
-0.5
 14
368.5
 24
91.5
  0
INSERT
  5
288
100
AcDbEntity
  8
0
100
AcDbBlockReference
 62
2
  6
CONTINUOUS
  2
SUN_FIRST_THIRD_ANGLE_BL0
 10
20.4816717061
 20
1.2289683772
  0
ACAD_TABLE
  5
289
100
AcDbEntity
  8
0
 62
2
  6
CONTINUOUS
100
AcDbBlockReference
  2
*T1
 10
12.42375
 20
0.30125
 30
0.0
100
AcDbTable
342
       379
343
20F
 11
1.0
 21
0.0
 31
0.0
 90
6
 91
4
 92
6
 93
20
 94
0
 95
0
 96
0
 70
1
 41
0.0
141
0.525
141
0.1
141
0.525
141
0.1
142
4.1
142
1.1
142
0.7
142
0.5
142
0.4
142
2.475
171
1
172
0
173
0
174
0
175
1
176
1
 91
33
178
0
145
0.0
301
CELL_VALUE
 90
4
  1
Flow divider manifold assembly
304
ACVALUE_END
170
2
140
0.125
171
1
172
0
173
0
174
0
175
1
176
1
 91
33
178
0
145
0.0
301
CELL_VALUE
 90
4
  1
Jan-18-21
304
ACVALUE_END
170
5
140
0.125
171
1
172
0
173
0
174
0
175
1
176
1
 91
33
178
0
145
0.0
301
CELL_VALUE
 90
4
  1
1.000
304
ACVALUE_END
170
5
140
0.125
171
1
172
0
173
0
174
0
175
1
176
1
 91
33
178
0
145
0.0
301
CELL_VALUE
 90
4
  1
C
304
ACVALUE_END
170
5
140
0.125
171
1
172
0
173
0
174
0
175
1
176
1
 91
33
178
0
145
0.0
301
CELL_VALUE
 90
4
  1
2
304
ACVALUE_END
170
5
140
0.125
171
1
172
0
173
0
174
0
175
1
176
1
 91
33
178
0
145
0.0
301
CELL_VALUE
 90
4
  1
 
304
ACVALUE_END
170
1
140
0.125
171
1
172
0
173
0
174
0
175
1
176
1
 91
33
178
0
145
0.0
301
CELL_VALUE
 90
4
  1
DESCRIPTION
304
ACVALUE_END
170
1
140
0.06
171
1
172
0
173
0
174
0
175
1
176
1
 91
33
178
0
145
0.0
301
CELL_VALUE
 90
4
  1
DATE
304
ACVALUE_END
170
1
140
0.06
171
1
172
0
173
0
174
0
175
1
176
1
 91
33
178
0
145
0.0
301
CELL_VALUE
 90
4
  1
SCALE
304
ACVALUE_END
170
1
140
0.06
171
1
172
0
173
0
174
0
175
1
176
1
 91
33
178
0
145
0.0
301
CELL_VALUE
 90
4
  1
DWG SIZE
304
ACVALUE_END
170
1
140
0.06
171
1
172
0
173
0
174
0
175
1
176
1
 91
33
178
0
145
0.0
301
CELL_VALUE
 90
4
  1
SHEET
304
ACVALUE_END
170
1
140
0.06
171
1
172
0
173
0
174
0
175
1
176
1
 91
33
178
0
145
0.0
301
CELL_VALUE
 90
4
  1
 
304
ACVALUE_END
170
1
140
0.125
171
1
172
0
173
0
174
0
175
1
176
1
 91
33
178
0
145
0.0
301
CELL_VALUE
 90
4
  1
FSDDXAN-NMV
304
ACVALUE_END
170
5
140
0.125
171
1
172
0
173
0
174
0
175
4
176
1
 91
33
178
0
145
0.0
301
CELL_VALUE
 90
4
  1
ALL DIMENSIONS IN INCH\PVIEWS ARE THIRD ANGLE
304
ACVALUE_END
170
5
140
0.12
171
1
172
0
173
1
174
0
175
1
176
1
 91
1
178
0
145
0.0
170
1
171
1
172
0
173
1
174
0
175
1
176
1
 91
1
178
0
145
0.0
170
1
171
1
172
0
173
1
174
0
175
1
176
1
 91
1
178
0
145
0.0
170
5
171
1
172
0
173
0
174
0
175
1
176
1
 91
33
178
0
145
0.0
301
CELL_VALUE
 90
4
  1
 
304
ACVALUE_END
170
1
140
0.125
171
1
172
0
173
0
174
0
175
1
176
1
 91
33
178
0
145
0.0
301
CELL_VALUE
 90
4
  1
MODEL
304
ACVALUE_END
170
1
140
0.06
171
1
172
0
173
0
174
0
175
1
176
1
 91
33
178
0
145
0.0
301
CELL_VALUE
 90
4
  1
 
304
ACVALUE_END
170
1
140
0.125
171
1
172
0
173
0
174
0
175
1
176
1
 91
33
178
0
145
0.0
301
CELL_VALUE
 90
4
  1
 
304
ACVALUE_END
170
1
140
0.125
171
1
172
0
173
0
174
0
175
1
176
1
 91
33
178
0
145
0.0
301
CELL_VALUE
 90
4
  1
 
304
ACVALUE_END
170
1
140
0.125
171
1
172
0
173
0
174
0
175
1
176
1
 91
33
178
0
145
0.0
301
CELL_VALUE
 90
4
  1
 
304
ACVALUE_END
170
1
140
0.125
171
1
172
0
173
0
174
0
175
1
176
1
 91
33
178
0
145
0.0
301
CELL_VALUE
 90
4
  1
 
304
ACVALUE_END
170
1
140
0.125
  0
ACAD_TABLE
  5
28A
100
AcDbEntity
  8
0
 62
2
  6
CONTINUOUS
100
AcDbBlockReference
  2
*T2
 10
12.4237499994
 20
16.47875
 30
0.0
100
AcDbTable
342
       378
343
210
 11
1.0
 21
0.0
 31
0.0
 90
22
 91
10
 92
3
 93
16
 94
0
 95
0
 96
0
 41
0.028
141
0.344
141
0.25
141
0.25
141
0.25
141
0.25
141
0.25
141
0.25
141
0.25
141
0.25
141
0.25
142
3.055
142
3.0
142
3.0
171
1
172
0
173
0
174
0
175
1
176
1
 91
33
178
0
145
0.0
301
CELL_VALUE
 90
4
  1
Technical Data
304
ACVALUE_END
170
5
140
0.145
171
1
172
0
173
0
174
0
175
1
176
1
 91
33
178
0
145
0.0
301
CELL_VALUE
 90
4
  1
U.S. Units
304
ACVALUE_END
170
5
140
0.145
171
1
172
0
173
0
174
0
175
1
176
1
 91
33
178
0
145
0.0
301
CELL_VALUE
 90
4
  1
Metric Units
304
ACVALUE_END
170
5
140
0.145
171
1
172
0
173
0
174
0
175
1
176
1
 91
33
178
0
145
0.0
301
CELL_VALUE
 90
4
  1
Cavity
304
ACVALUE_END
170
5
140
0.125
171
1
172
0
173
0
174
0
175
2
176
1
 91
33
178
0
145
0.0
301
CELL_VALUE
 90
4
  1
T-32A
304
ACVALUE_END
170
5
140
0.125
171
1
172
0
173
1
174
0
175
1
176
1
 91
1
178
0
145
0.0
170
1
171
1
172
0
173
0
174
0
175
1
176
1
 91
33
178
0
145
0.0
301
CELL_VALUE
 90
4
  1
Body Features
304
ACVALUE_END
170
5
140
0.125
171
1
172
0
173
0
174
0
175
2
176
1
 91
33
178
0
145
0.0
301
CELL_VALUE
 90
4
  1
Ninety degree
304
ACVALUE_END
170
5
140
0.125
171
1
172
0
173
1
174
0
175
1
176
1
 91
1
178
0
145
0.0
170
1
171
1
172
0
173
0
174
0
175
1
176
1
 91
33
178
0
145
0.0
301
CELL_VALUE
 90
4
  1
Body Type
304
ACVALUE_END
170
5
140
0.125
171
1
172
0
173
0
174
0
175
2
176
1
 91
33
178
0
145
0.0
301
CELL_VALUE
 90
4
  1
Line mount
304
ACVALUE_END
170
5
140
0.125
171
1
172
0
173
1
174
0
175
1
176
1
 91
1
178
0
145
0.0
170
1
171
1
172
0
173
0
174
0
175
1
176
1
 91
33
178
0
145
0.0
301
CELL_VALUE
 90
4
  1
Interface
304
ACVALUE_END
170
5
140
0.125
171
1
172
0
173
0
174
0
175
2
176
1
 91
33
178
0
145
0.0
301
CELL_VALUE
 90
4
  1
None
304
ACVALUE_END
170
5
140
0.125
171
1
172
0
173
1
174
0
175
1
176
1
 91
1
178
0
145
0.0
170
1
171
1
172
0
173
0
174
0
175
1
176
1
 91
33
178
0
145
0.0
301
CELL_VALUE
 90
4
  1
Open Cavity Quantity
304
ACVALUE_END
170
5
140
0.125
171
1
172
0
173
0
174
0
175
2
176
1
 91
33
178
0
145
0.0
301
CELL_VALUE
 90
4
  1
1
304
ACVALUE_END
170
5
140
0.125
171
1
172
0
173
1
174
0
175
1
176
1
 91
1
178
0
145
0.0
170
1
171
1
172
0
173
0
174
0
175
1
176
1
 91
33
178
0
145
0.0
301
CELL_VALUE
 90
4
  1
Weight
304
ACVALUE_END
170
5
140
0.125
171
1
172
0
173
0
174
0
175
1
176
1
 91
33
178
0
145
0.0
301
CELL_VALUE
 90
4
  1
3.075 lb.
304
ACVALUE_END
170
5
140
0.125
171
1
172
0
173
0
174
0
175
1
176
1
 91
33
178
0
145
0.0
301
CELL_VALUE
 90
4
  1
1,395 kg.
304
ACVALUE_END
170
5
140
0.125
171
1
172
0
173
0
174
0
175
1
176
1
 91
33
178
0
145
0.0
301
CELL_VALUE
 90
4
  1
Mounting Hole Diameter
304
ACVALUE_END
170
5
140
0.125
171
1
172
0
173
0
174
0
175
1
176
1
 91
33
178
0
145
0.0
301
CELL_VALUE
 90
4
  1
.34 in.
304
ACVALUE_END
170
5
140
0.125
171
1
172
0
173
0
174
0
175
1
176
1
 91
33
178
0
145
0.0
301
CELL_VALUE
 90
4
  1
8.6 mm
304
ACVALUE_END
170
5
140
0.125
171
1
172
0
173
0
174
0
175
1
176
1
 91
33
178
0
145
0.0
301
CELL_VALUE
 90
4
  1
Mounting Hole Depth
304
ACVALUE_END
170
5
140
0.125
171
1
172
0
173
0
174
0
175
2
176
1
 91
33
178
0
145
0.0
301
CELL_VALUE
 90
4
  1
Through
304
ACVALUE_END
170
5
140
0.125
171
1
172
0
173
1
174
0
175
1
176
1
 91
1
178
0
145
0.0
170
1
171
1
172
0
173
0
174
0
175
1
176
1
 91
33
178
0
145
0.0
301
CELL_VALUE
 90
4
  1
Mounting Hole Quantity
304
ACVALUE_END
170
5
140
0.125
171
1
172
0
173
0
174
0
175
2
176
1
 91
33
178
0
145
0.0
301
CELL_VALUE
 90
4
  1
2
304
ACVALUE_END
170
5
140
0.125
171
1
172
0
173
1
174
0
175
1
176
1
 91
1
178
0
145
0.0
170
1
  0
ACAD_TABLE
  5
28B
100
AcDbEntity
  8
0
 62
2
  6
CONTINUOUS
100
AcDbBlockReference
  2
*T3
 10
0.52125
 20
1.459
 30
0.0
100
AcDbTable
342
       378
343
211
 11
1.0
 21
0.0
 31
0.0
 90
22
 91
3
 92
3
 93
16
 94
0
 95
0
 96
0
 41
0.05
141
0.34375
141
0.344
141
0.25
142
1.3
142
2.0
142
1.3
171
1
172
0
173
0
174
0
175
3
176
1
 91
33
178
0
145
0.0
301
CELL_VALUE
 90
4
  1
Port Headings
304
ACVALUE_END
170
5
140
0.145
171
1
172
0
173
1
174
0
175
1
176
1
 91
1
178
0
145
0.0
170
1
171
1
172
0
173
1
174
0
175
1
176
1
 91
1
178
0
145
0.0
170
1
171
1
172
0
173
0
174
0
175
1
176
1
 91
33
178
0
145
0.0
301
CELL_VALUE
 90
4
  1
Product
304
ACVALUE_END
170
5
140
0.145
171
1
172
0
173
0
174
0
175
1
176
1
 91
33
178
0
145
0.0
301
CELL_VALUE
 90
4
  1
Port
304
ACVALUE_END
170
5
140
0.145
171
1
172
0
173
0
174
0
175
1
176
1
 91
33
178
0
145
0.0
301
CELL_VALUE
 90
4
  1
Size
304
ACVALUE_END
170
5
140
0.145
171
1
172
0
173
0
174
0
175
1
176
1
 91
33
178
0
145
0.0
301
CELL_VALUE
 90
4
  1
NMV
304
ACVALUE_END
170
5
140
0.125
171
1
172
0
173
0
174
0
175
1
176
1
 91
33
178
0
145
0.0
301
CELL_VALUE
 90
4
  1
All Ports
304
ACVALUE_END
170
5
140
0.125
171
1
172
0
173
0
174
0
175
1
176
1
 91
33
178
0
145
0.0
301
CELL_VALUE
 90
4
  1
1/2" BSPP
304
ACVALUE_END
170
5
140
0.125
  0
MTEXT
  5
28C
100
AcDbEntity
  8
0
100
AcDbMText
 62
2
  6
CONTINUOUS
  7
STANDARD
 71
1
 72
1
 10
0.52125
 20
5.75995
 30
0.0
 11
1.0
 21
0.0
 31
0.0
 44
0.6
  3
Notes\P \P1. Important: Carefully consider\P   the maximum system pressure. The\P   pressure rating of the manifold is\P   dependent on the manifold material,\P   with the port type/size a secondary\P   consideration. Manifolds\P   constructed of alu
  1
minum are not\P   rated for pressures higher than\P   3000 psi (210 bar), regardless of\P   the port type/size specified.
 40
0.1
 41
3.04
  0
LINE
  5
28D
100
AcDbEntity
  8
0
100
AcDbLine
 62
7
  6
CONTINUOUS
 10
0.30125
 20
0.30125
 11
0.30125
 21
16.69875
  0
LINE
  5
28E
100
AcDbEntity
  8
0
100
AcDbLine
 62
7
  6
CONTINUOUS
 10
0.30125
 20
0.30125
 11
21.69875
 21
0.30125
  0
LINE
  5
28F
100
AcDbEntity
  8
0
100
AcDbLine
 62
7
  6
CONTINUOUS
 10
0.30125
 20
16.69875
 11
21.69875
 21
16.69875
  0
LINE
  5
290
100
AcDbEntity
  8
0
100
AcDbLine
 62
7
  6
CONTINUOUS
 10
21.69875
 20
0.30125
 11
21.69875
 21
16.69875
  0
LINE
  5
291
100
AcDbEntity
  8
0
100
AcDbLine
 62
7
  6
CONTINUOUS
 10
8.226129588
 20
9.2421700175
 11
8.2058426653
 21
9.2077738489
  0
LINE
  5
292
100
AcDbEntity
  8
0
100
AcDbLine
 62
7
  6
CONTINUOUS
 10
8.1450310596
 20
8.1984171446
 11
8.1371557292
 21
8.2173383349
  0
LINE
  5
293
100
AcDbEntity
  8
0
100
AcDbLine
 62
7
  6
CONTINUOUS
 10
9.0804690008
 20
10.3663566026
 11
8.5628313378
 21
9.8663569856
  0
LINE
  5
294
100
AcDbEntity
  8
0
100
AcDbLine
 62
7
  6
CONTINUOUS
 10
8.5628313378
 20
6.9685793351
 11
8.5628313378
 21
9.8663569856
  0
LINE
  5
295
100
AcDbEntity
  8
0
100
AcDbLine
 62
7
  6
CONTINUOUS
 10
10.2183788992
 20
10.0040385129
 11
10.2173432672
 21
10.0030569325
  0
LINE
  5
296
100
AcDbEntity
  8
0
100
AcDbLine
 62
7
  6
CONTINUOUS
 10
8.5628313378
 20
6.9685793351
 11
13.3924607554
 21
6.6336433974
  0
LINE
  5
297
100
AcDbEntity
  8
0
100
AcDbLine
 62
4
  6
CONTINUOUS
 10
9.5905765762
 20
9.5835447451
 11
9.5905765762
 21
9.6487447408
  0
LINE
  5
298
100
AcDbEntity
  8
0
100
AcDbLine
 62
4
  6
CONTINUOUS
 10
10.5188312564
 20
7.0116265672
 11
10.5284905127
 21
7.0109566955
  0
LINE
  5
299
100
AcDbEntity
  8
0
100
AcDbLine
 62
4
  6
CONTINUOUS
 10
10.5767868046
 20
7.0148517802
 11
10.5864460644
 21
7.0141819083
  0
LINE
  5
29A
100
AcDbEntity
  8
0
100
AcDbLine
 62
4
  6
CONTINUOUS
 10
10.5284905127
 20
7.0109566955
 11
10.538149769
 21
7.0030423798
  0
LINE
  5
29B
100
AcDbEntity
  8
0
100
AcDbLine
 62
4
  6
CONTINUOUS
 10
10.5864460644
 20
7.0141819083
 11
10.6057645814
 21
6.9983532766
  0
LINE
  5
29C
100
AcDbEntity
  8
0
100
AcDbLine
 62
4
  6
CONTINUOUS
 10
9.8330238759
 20
7.8036403733
 11
9.8330238759
 21
7.8367578311
  0
LINE
  5
29D
100
AcDbEntity
  8
0
100
AcDbLine
 62
4
  6
CONTINUOUS
 10
9.8330238759
 20
8.703331305
 11
9.8330238759
 21
8.7060910827
  0
LINE
  5
29E
100
AcDbEntity
  8
0
100
AcDbLine
 62
4
  6
CONTINUOUS
 10
9.8661413321
 20
8.5023298924
 11
9.8661413321
 21
8.4609330618
  0
LINE
  5
29F
100
AcDbEntity
  8
0
100
AcDbLine
 62
4
  6
CONTINUOUS
 10
9.8661413321
 20
8.1490769715
 11
9.8661413321
 21
8.1904738021
  0
LINE
  5
2A0
100
AcDbEntity
  8
0
100
AcDbLine
 62
4
  6
CONTINUOUS
 10
9.8661413321
 20
8.320183849
 11
9.8661413321
 21
8.3533012914
  0
LINE
  5
2A1
100
AcDbEntity
  8
0
100
AcDbLine
 62
4
  6
CONTINUOUS
 10
9.8661413321
 20
8.386418789
 11
9.8661413321
 21
8.4195362313
  0
LINE
  5
2A2
100
AcDbEntity
  8
0
100
AcDbLine
 62
4
  6
CONTINUOUS
 10
9.8661413321
 20
8.7534705428
 11
9.8661413321
 21
8.7865880957
  0
LINE
  5
2A3
100
AcDbEntity
  8
0
100
AcDbLine
 62
4
  6
CONTINUOUS
 10
9.8661413321
 20
8.827984871
 11
9.8661413321
 21
8.8611023133
  0
LINE
  5
2A4
100
AcDbEntity
  8
0
100
AcDbLine
 62
4
  6
CONTINUOUS
 10
9.9102979437
 20
8.8580400419
 11
9.9047783677
 21
8.8253053834
  0
LINE
  5
2A5
100
AcDbEntity
  8
0
100
AcDbLine
 62
4
  6
CONTINUOUS
 10
9.849582604
 20
7.7859332918
 11
9.8330238759
 21
7.8036403733
  0
LINE
  5
2A6
100
AcDbEntity
  8
0
100
AcDbLine
 62
4
  6
CONTINUOUS
 10
9.9489349794
 20
7.8204400048
 11
9.9323762495
 21
7.8381470847
  0
LINE
  5
2A7
100
AcDbEntity
  8
0
100
AcDbLine
 62
4
  6
CONTINUOUS
 10
9.9489349794
 20
7.9115130195
 11
9.9323762495
 21
7.9292200925
  0
LINE
  5
2A8
100
AcDbEntity
  8
0
100
AcDbLine
 62
4
  6
CONTINUOUS
 10
10.5091719932
 20
6.9615853316
 11
10.4995127368
 21
6.9767440912
  0
LINE
  5
2A9
100
AcDbEntity
  8
0
100
AcDbLine
 62
4
  6
CONTINUOUS
 10
10.538149769
 20
7.0030423798
 11
10.5478090322
 21
6.9878836197
  0
LINE
  5
2AA
100
AcDbEntity
  8
0
100
AcDbLine
 62
4
  6
CONTINUOUS
 10
10.6057645814
 20
6.9983532766
 11
10.6154238403
 21
6.9831945168
  0
LINE
  5
2AB
100
AcDbEntity
  8
0
100
AcDbLine
 62
4
  6
CONTINUOUS
 10
9.9075381557
 20
8.4746209035
 11
9.9075381557
 21
8.5077383459
  0
LINE
  5
2AC
100
AcDbEntity
  8
0
100
AcDbLine
 62
4
  6
CONTINUOUS
 10
9.9489349794
 20
8.7808463367
 11
9.9489349794
 21
8.7477287839
  0
LINE
  5
2AD
100
AcDbEntity
  8
0
100
AcDbLine
 62
4
  6
CONTINUOUS
 10
9.9489349794
 20
8.6456166792
 11
9.9489349794
 21
8.629057958
  0
LINE
  5
2AE
100
AcDbEntity
  8
0
100
AcDbLine
 62
4
  6
CONTINUOUS
 10
9.9489349794
 20
8.5048674664
 11
9.9489349794
 21
8.4717500241
  0
LINE
  5
2AF
100
AcDbEntity
  8
0
100
AcDbLine
 62
4
  6
CONTINUOUS
 10
9.9489349794
 20
8.3475595324
 11
9.9489349794
 21
8.3144420901
  0
LINE
  5
2B0
100
AcDbEntity
  8
0
100
AcDbLine
 62
4
  6
CONTINUOUS
 10
9.9489349794
 20
7.787322546
 11
9.9489349794
 21
7.8204400048
  0
LINE
  5
2B1
100
AcDbEntity
  8
0
100
AcDbLine
 62
4
  6
CONTINUOUS
 10
9.9489349794
 20
7.8866749171
 11
9.9489349794
 21
7.9115130195
  0
LINE
  5
2B2
100
AcDbEntity
  8
0
100
AcDbLine
 62
4
  6
CONTINUOUS
 10
9.9489349794
 20
8.5462642969
 11
9.9489349794
 21
8.5876611275
  0
LINE
  5
2B3
100
AcDbEntity
  8
0
100
AcDbLine
 62
4
  6
CONTINUOUS
 10
9.9489349794
 20
8.822243112
 11
9.9489349794
 21
8.8553605543
  0
LINE
  5
2B4
100
AcDbEntity
  8
0
100
AcDbLine
 62
4
  6
CONTINUOUS
 10
9.9765328612
 20
8.2242149541
 11
9.9765328612
 21
8.2407736752
  0
LINE
  5
2B5
100
AcDbEntity
  8
0
100
AcDbLine
 62
4
  6
CONTINUOUS
 10
9.9489349794
 20
8.4717500241
 11
9.9406556145
 21
8.4557654788
  0
LINE
  5
2B6
100
AcDbEntity
  8
0
100
AcDbLine
 62
4
  6
CONTINUOUS
 10
9.9158175197
 20
8.8659365909
 11
9.9102979437
 21
8.8580400419
  0
LINE
  5
2B7
100
AcDbEntity
  8
0
100
AcDbLine
 62
4
  6
CONTINUOUS
 10
9.9047783677
 20
8.8253053834
 11
9.8992587917
 21
8.8174088344
  0
LINE
  5
2B8
100
AcDbEntity
  8
0
100
AcDbLine
 62
4
  6
CONTINUOUS
 10
9.8661413321
 20
8.8611023133
 11
9.8744206996
 21
8.8688074701
  0
LINE
  5
2B9
100
AcDbEntity
  8
0
100
AcDbLine
 62
4
  6
CONTINUOUS
 10
9.9406556145
 20
8.814537955
 11
9.9489349794
 21
8.822243112
  0
LINE
  5
2BA
100
AcDbEntity
  8
0
100
AcDbLine
 62
4
  6
CONTINUOUS
 10
9.9489349794
 20
8.7477287839
 11
9.9406556145
 21
8.7400236268
  0
LINE
  5
2BB
100
AcDbEntity
  8
0
100
AcDbLine
 62
4
  6
CONTINUOUS
 10
9.8744206996
 20
8.3030509518
 11
9.8661413321
 21
8.320183849
  0
LINE
  5
2BC
100
AcDbEntity
  8
0
100
AcDbLine
 62
4
  6
CONTINUOUS
 10
9.9158175197
 20
8.4574880065
 11
9.9075381557
 21
8.4746209035
  0
LINE
  5
2BD
100
AcDbEntity
  8
0
100
AcDbLine
 62
4
  6
CONTINUOUS
 10
9.9489349794
 20
8.3144420901
 11
9.9406556145
 21
8.2984575448
  0
LINE
  5
2BE
100
AcDbEntity
  8
0
100
AcDbLine
 62
4
  6
CONTINUOUS
 10
9.9489349794
 20
8.629057958
 11
9.9406556145
 21
8.6213527457
  0
LINE
  5
2BF
100
AcDbEntity
  8
0
100
AcDbLine
 62
4
  6
CONTINUOUS
 10
9.9406556145
 20
8.5385590846
 11
9.9489349794
 21
8.5462642969
  0
LINE
  5
2C0
100
AcDbEntity
  8
0
100
AcDbLine
 62
4
  6
CONTINUOUS
 10
9.8661413321
 20
7.7847849401
 11
9.849582604
 21
7.7859332918
  0
LINE
  5
2C1
100
AcDbEntity
  8
0
100
AcDbLine
 62
4
  6
CONTINUOUS
 10
9.9323762495
 20
7.8381470847
 11
9.9158175197
 21
7.8392954365
  0
LINE
  5
2C2
100
AcDbEntity
  8
0
100
AcDbLine
 62
4
  6
CONTINUOUS
 10
9.8330238759
 20
7.8781546513
 11
9.9323762495
 21
7.8712645408
  0
LINE
  5
2C3
100
AcDbEntity
  8
0
100
AcDbLine
 62
4
  6
CONTINUOUS
 10
10.5400816069
 20
7.8649972916
 11
10.4241705034
 21
7.8730357539
  0
LINE
  5
2C4
100
AcDbEntity
  8
0
100
AcDbLine
 62
4
  6
CONTINUOUS
 10
10.5235228771
 20
7.9241011882
 11
10.5400816069
 21
7.9063941084
  0
LINE
  5
2C5
100
AcDbEntity
  8
0
100
AcDbLine
 62
4
  6
CONTINUOUS
 10
10.4683271116
 20
7.8478951752
 11
10.4904054192
 21
7.8022074277
  0
LINE
  5
2C6
100
AcDbEntity
  8
0
100
AcDbLine
 62
4
  6
CONTINUOUS
 10
10.4241705034
 20
7.8730357539
 11
10.4241705034
 21
7.9144325707
  0
LINE
  5
2C7
100
AcDbEntity
  8
0
100
AcDbLine
 62
4
  6
CONTINUOUS
 10
10.4241705034
 20
8.0772600669
 11
10.4241705034
 21
8.1434949792
  0
LINE
  5
2C8
100
AcDbEntity
  8
0
100
AcDbLine
 62
4
  6
CONTINUOUS
 10
10.4241705034
 20
8.1766124491
 11
10.4241705034
 21
8.2262886403
  0
LINE
  5
2C9
100
AcDbEntity
  8
0
100
AcDbLine
 62
4
  6
CONTINUOUS
 10
10.4241705034
 20
8.3670378531
 11
10.4241705034
 21
8.4001552954
  0
LINE
  5
2CA
100
AcDbEntity
  8
0
100
AcDbLine
 62
4
  6
CONTINUOUS
 10
10.4241705034
 20
8.4636304024
 11
10.4241705034
 21
8.4884685118
  0
LINE
  5
2CB
100
AcDbEntity
  8
0
100
AcDbLine
 62
4
  6
CONTINUOUS
 10
10.4241705034
 20
8.5381446753
 11
10.4241705034
 21
8.5795415059
  0
LINE
  5
2CC
100
AcDbEntity
  8
0
100
AcDbLine
 62
4
  6
CONTINUOUS
 10
10.4241705034
 20
8.6430166681
 11
10.4241705034
 21
8.6926928316
  0
LINE
  5
2CD
100
AcDbEntity
  8
0
100
AcDbLine
 62
4
  6
CONTINUOUS
 10
10.4738466876
 20
8.6726890554
 11
10.4738466876
 21
8.6395716131
  0
LINE
  5
2CE
100
AcDbEntity
  8
0
100
AcDbLine
 62
4
  6
CONTINUOUS
 10
10.4738466876
 20
8.206284864
 11
10.4738466876
 21
8.1731673941
  0
LINE
  5
2CF
100
AcDbEntity
  8
0
100
AcDbLine
 62
4
  6
CONTINUOUS
 10
10.4995127368
 20
6.9767440912
 11
10.4995127368
 21
6.9912329791
  0
LINE
  5
2D0
100
AcDbEntity
  8
0
100
AcDbLine
 62
4
  6
CONTINUOUS
 10
10.5069641473
 20
7.9832050918
 11
10.5069641473
 21
8.0273617
  0
LINE
  5
2D1
100
AcDbEntity
  8
0
100
AcDbLine
 62
4
  6
CONTINUOUS
 10
10.5400816069
 20
8.5715030435
 11
10.5400816069
 21
8.530106213
  0
LINE
  5
2D2
100
AcDbEntity
  8
0
100
AcDbLine
 62
4
  6
CONTINUOUS
 10
10.5400816069
 20
8.4804300495
 11
10.5400816069
 21
8.4555919401
  0
LINE
  5
2D3
100
AcDbEntity
  8
0
100
AcDbLine
 62
4
  6
CONTINUOUS
 10
10.5400816069
 20
8.3921168331
 11
10.5400816069
 21
8.3589993908
  0
LINE
  5
2D4
100
AcDbEntity
  8
0
100
AcDbLine
 62
4
  6
CONTINUOUS
 10
10.5400816069
 20
7.9063941084
 11
10.5400816069
 21
7.8649972916
  0
LINE
  5
2D5
100
AcDbEntity
  8
0
100
AcDbLine
 62
4
  6
CONTINUOUS
 10
10.5400816069
 20
8.1685739868
 11
10.5400816069
 21
8.2182501779
  0
LINE
  5
2D6
100
AcDbEntity
  8
0
100
AcDbLine
 62
4
  6
CONTINUOUS
 10
10.5400816069
 20
8.6349782058
 11
10.5400816069
 21
8.6846543693
  0
LINE
  5
2D7
100
AcDbEntity
  8
0
100
AcDbLine
 62
4
  6
CONTINUOUS
 10
10.5478090322
 20
6.9733947317
 11
10.5478090322
 21
6.9878836197
  0
LINE
  5
2D8
100
AcDbEntity
  8
0
100
AcDbLine
 62
4
  6
CONTINUOUS
 10
10.4683271116
 20
8.7227480028
 11
10.4904054192
 21
8.7653734752
  0
LINE
  5
2D9
100
AcDbEntity
  8
0
100
AcDbLine
 62
4
  6
CONTINUOUS
 10
9.8661413321
 20
8.1904738021
 11
9.8744206996
 21
8.1981789866
  0
LINE
  5
2DA
100
AcDbEntity
  8
0
100
AcDbLine
 62
4
  6
CONTINUOUS
 10
10.4241705034
 20
8.5795415059
 11
10.4407292315
 21
8.5949518753
  0
LINE
  5
2DB
100
AcDbEntity
  8
0
100
AcDbLine
 62
4
  6
CONTINUOUS
 10
11.414244581
 20
9.5077840472
 11
11.4239038443
 21
9.514358619
  0
LINE
  5
2DC
100
AcDbEntity
  8
0
100
AcDbLine
 62
4
  6
CONTINUOUS
 10
9.8661413321
 20
8.4195362313
 11
9.8744206996
 21
8.4244816105
  0
LINE
  5
2DD
100
AcDbEntity
  8
0
100
AcDbLine
 62
4
  6
CONTINUOUS
 10
9.8827000601
 20
8.5094608736
 11
9.8661413321
 21
8.5023298924
  0
LINE
  5
2DE
100
AcDbEntity
  8
0
100
AcDbLine
 62
4
  6
CONTINUOUS
 10
9.9323762495
 20
7.9292200925
 11
9.8330238759
 21
7.936110203
  0
LINE
  5
2DF
100
AcDbEntity
  8
0
100
AcDbLine
 62
4
  6
CONTINUOUS
 10
9.9489349794
 20
7.9611891969
 11
9.8330238759
 21
7.9692276592
  0
LINE
  5
2E0
100
AcDbEntity
  8
0
100
AcDbLine
 62
4
  6
CONTINUOUS
 10
10.4407292315
 20
7.9298429471
 11
10.5235228771
 21
7.9241011882
  0
LINE
  5
2E1
100
AcDbEntity
  8
0
100
AcDbLine
 62
7
  6
CONTINUOUS
 10
8.5628313378
 20
8.0661350038
 11
8.270233822
 21
8.0864267105
  0
LINE
  5
2E2
100
AcDbEntity
  8
0
100
AcDbLine
 62
4
  6
CONTINUOUS
 10
9.9489349794
 20
8.0191447486
 11
9.8330238759
 21
8.0271832109
  0
LINE
  5
2E3
100
AcDbEntity
  8
0
100
AcDbLine
 62
7
  6
CONTINUOUS
 10
8.5235039655
 20
8.215656432
 11
8.1391005242
 21
8.2423149012
  0
LINE
  5
2E4
100
AcDbEntity
  8
0
100
AcDbLine
 62
4
  6
CONTINUOUS
 10
10.5400816069
 20
7.9698692361
 11
10.4241705034
 21
8.0110251546
  0
LINE
  5
2E5
100
AcDbEntity
  8
0
100
AcDbLine
 62
4
  6
CONTINUOUS
 10
9.9765328612
 20
8.2407736752
 11
9.8661413321
 21
8.2815467961
  0
LINE
  5
2E6
100
AcDbEntity
  8
0
100
AcDbLine
 62
4
  6
CONTINUOUS
 10
10.2354009916
 20
8.2973353708
 11
10.1691660759
 21
8.335046234
  0
LINE
  5
2E7
100
AcDbEntity
  8
0
100
AcDbLine
 62
4
  6
CONTINUOUS
 10
9.8744206996
 20
8.7446170338
 11
9.8661413321
 21
8.7534705428
  0
LINE
  5
2E8
100
AcDbEntity
  8
0
100
AcDbLine
 62
4
  6
CONTINUOUS
 10
9.8744206996
 20
8.8191313619
 11
9.8661413321
 21
8.827984871
  0
LINE
  5
2E9
100
AcDbEntity
  8
0
100
AcDbLine
 62
4
  6
CONTINUOUS
 10
9.9489349794
 20
8.8553605543
 11
9.9406556145
 21
8.8642140632
  0
LINE
  5
2EA
100
AcDbEntity
  8
0
100
AcDbLine
 62
4
  6
CONTINUOUS
 10
10.4407292315
 20
8.3493307802
 11
10.4241705034
 21
8.3670378531
  0
LINE
  5
2EB
100
AcDbEntity
  8
0
100
AcDbLine
 62
4
  6
CONTINUOUS
 10
10.4407292315
 20
8.4459233296
 11
10.4241705034
 21
8.4636304024
  0
LINE
  5
2EC
100
AcDbEntity
  8
0
100
AcDbLine
 62
4
  6
CONTINUOUS
 10
10.6154238403
 20
6.9831945168
 11
10.6154238403
 21
6.9687056289
  0
LINE
  5
2ED
100
AcDbEntity
  8
0
100
AcDbLine
 62
4
  6
CONTINUOUS
 10
11.4045853247
 20
9.493965031
 11
11.414244581
 21
9.5077840472
  0
LINE
  5
2EE
100
AcDbEntity
  8
0
100
AcDbLine
 62
4
  6
CONTINUOUS
 10
9.9158175197
 20
7.8392954365
 11
9.8661413321
 21
7.7847849401
  0
LINE
  5
2EF
100
AcDbEntity
  8
0
100
AcDbLine
 62
7
  6
CONTINUOUS
 10
12.1202870615
 20
9.8721407338
 11
12.1192514295
 21
9.8711591534
  0
LINE
  5
2F0
100
AcDbEntity
  8
0
100
AcDbLine
 62
4
  6
CONTINUOUS
 10
10.4241705034
 20
8.4884685118
 11
10.4407292315
 21
8.5038788813
  0
LINE
  5
2F1
100
AcDbEntity
  8
0
100
AcDbLine
 62
4
  6
CONTINUOUS
 10
9.8330238759
 20
7.8367578311
 11
9.8413032434
 21
7.8444630191
  0
LINE
  5
2F2
100
AcDbEntity
  8
0
100
AcDbLine
 62
4
  6
CONTINUOUS
 10
10.5400816069
 20
8.4555919401
 11
10.5235228771
 21
8.4401815707
  0
LINE
  5
2F3
100
AcDbEntity
  8
0
100
AcDbLine
 62
4
  6
CONTINUOUS
 10
9.9323762495
 20
7.8712645408
 11
9.9489349794
 21
7.8866749171
  0
LINE
  5
2F4
100
AcDbEntity
  8
0
100
AcDbLine
 62
4
  6
CONTINUOUS
 10
10.5400816069
 20
8.3589993908
 11
10.5235228771
 21
8.3435890214
  0
LINE
  5
2F5
100
AcDbEntity
  8
0
100
AcDbLine
 62
4
  6
CONTINUOUS
 10
10.4241705034
 20
8.0110251546
 11
10.5400816069
 21
8.0361041622
  0
LINE
  5
2F6
100
AcDbEntity
  8
0
100
AcDbLine
 62
4
  6
CONTINUOUS
 10
10.5400816069
 20
8.1023390745
 11
10.4241705034
 21
8.1103775368
  0
LINE
  5
2F7
100
AcDbEntity
  8
0
100
AcDbLine
 62
4
  6
CONTINUOUS
 10
9.9489349794
 20
8.1433352126
 11
9.8330238759
 21
8.1513736749
  0
LINE
  5
2F8
100
AcDbEntity
  8
0
100
AcDbLine
 62
7
  6
CONTINUOUS
 10
8.5162799534
 20
8.2553753618
 11
8.131876512
 21
8.282033831
  0
LINE
  5
2F9
100
AcDbEntity
  8
0
100
AcDbLine
 62
4
  6
CONTINUOUS
 10
10.2850771793
 20
8.1696998515
 11
10.1691660759
 21
8.1777383138
  0
LINE
  5
2FA
100
AcDbEntity
  8
0
100
AcDbLine
 62
4
  6
CONTINUOUS
 10
9.8744206996
 20
8.1981789866
 11
9.9489349794
 21
8.1930114037
  0
LINE
  5
2FB
100
AcDbEntity
  8
0
100
AcDbLine
 62
4
  6
CONTINUOUS
 10
10.5400816069
 20
8.1685739868
 11
10.4241705034
 21
8.1766124491
  0
LINE
  5
2FC
100
AcDbEntity
  8
0
100
AcDbLine
 62
4
  6
CONTINUOUS
 10
10.2850771793
 20
8.2276554032
 11
10.1691660759
 21
8.2356938655
  0
LINE
  5
2FD
100
AcDbEntity
  8
0
100
AcDbLine
 62
4
  6
CONTINUOUS
 10
10.2850771793
 20
8.2607728594
 11
10.1691660759
 21
8.2688113217
  0
LINE
  5
2FE
100
AcDbEntity
  8
0
100
AcDbLine
 62
4
  6
CONTINUOUS
 10
9.9406556145
 20
8.2984575448
 11
9.8744206996
 21
8.3030509518
  0
LINE
  5
2FF
100
AcDbEntity
  8
0
100
AcDbLine
 62
4
  6
CONTINUOUS
 10
9.8330238759
 20
8.3555979947
 11
9.9489349794
 21
8.3475595324
  0
LINE
  5
300
100
AcDbEntity
  8
0
100
AcDbLine
 62
4
  6
CONTINUOUS
 10
10.1691660759
 20
8.335046234
 11
10.2850771793
 21
8.3270077717
  0
LINE
  5
301
100
AcDbEntity
  8
0
100
AcDbLine
 62
4
  6
CONTINUOUS
 10
10.2850771793
 20
8.3932426978
 11
10.1691660759
 21
8.4343986024
  0
LINE
  5
302
100
AcDbEntity
  8
0
100
AcDbLine
 62
4
  6
CONTINUOUS
 10
9.8330238759
 20
8.7060910827
 11
9.8413032434
 21
8.702757129
  0
LINE
  5
303
100
AcDbEntity
  8
0
100
AcDbLine
 62
4
  6
CONTINUOUS
 10
10.5235228771
 20
8.4981371225
 11
10.5400816069
 21
8.4804300495
  0
LINE
  5
304
100
AcDbEntity
  8
0
100
AcDbLine
 62
4
  6
CONTINUOUS
 10
10.5235228771
 20
8.5892101165
 11
10.5400816069
 21
8.5715030435
  0
LINE
  5
305
100
AcDbEntity
  8
0
100
AcDbLine
 62
4
  6
CONTINUOUS
 10
10.4904054192
 20
8.7653734752
 11
10.512483725
 21
8.7196857313
  0
LINE
  5
306
100
AcDbEntity
  8
0
100
AcDbLine
 62
4
  6
CONTINUOUS
 10
10.4904054192
 20
7.8022074277
 11
10.512483725
 21
7.8448329037
  0
LINE
  5
307
100
AcDbEntity
  8
0
100
AcDbLine
 62
4
  6
CONTINUOUS
 10
9.9406556145
 20
7.779617357
 11
9.9489349794
 21
7.787322546
  0
LINE
  5
308
100
AcDbEntity
  8
0
100
AcDbLine
 62
4
  6
CONTINUOUS
 10
10.1691660759
 20
8.2688113217
 11
10.2354009916
 21
8.2973353708
  0
LINE
  5
309
100
AcDbEntity
  8
0
100
AcDbLine
 62
4
  6
CONTINUOUS
 10
10.1691660759
 20
8.1777383138
 11
10.2850771793
 21
8.2276554032
  0
LINE
  5
30A
100
AcDbEntity
  8
0
100
AcDbLine
 62
4
  6
CONTINUOUS
 10
9.8330238759
 20
7.9692276592
 11
9.9489349794
 21
8.0191447486
  0
LINE
  5
30B
100
AcDbEntity
  8
0
100
AcDbLine
 62
4
  6
CONTINUOUS
 10
9.8661413321
 20
8.2318706326
 11
9.9489349794
 21
8.2509669831
  0
LINE
  5
30C
100
AcDbEntity
  8
0
100
AcDbLine
 62
4
  6
CONTINUOUS
 10
9.9489349794
 20
8.38067703
 11
9.8661413321
 21
8.386418789
  0
LINE
  5
30D
100
AcDbEntity
  8
0
100
AcDbLine
 62
4
  6
CONTINUOUS
 10
10.5235228771
 20
8.3435890214
 11
10.4407292315
 21
8.3493307802
  0
LINE
  5
30E
100
AcDbEntity
  8
0
100
AcDbLine
 62
4
  6
CONTINUOUS
 10
9.8744206996
 20
8.4244816105
 11
9.8909794276
 21
8.4233332588
  0
LINE
  5
30F
100
AcDbEntity
  8
0
100
AcDbLine
 62
4
  6
CONTINUOUS
 10
9.9406556145
 20
8.4557654788
 11
9.9158175197
 21
8.4574880065
  0
LINE
  5
310
100
AcDbEntity
  8
0
100
AcDbLine
 62
4
  6
CONTINUOUS
 10
10.5235228771
 20
8.4401815707
 11
10.4407292315
 21
8.4459233296
  0
LINE
  5
311
100
AcDbEntity
  8
0
100
AcDbLine
 62
4
  6
CONTINUOUS
 10
9.9489349794
 20
8.5048674664
 11
9.8827000601
 21
8.5094608736
  0
LINE
  5
312
100
AcDbEntity
  8
0
100
AcDbLine
 62
4
  6
CONTINUOUS
 10
9.8661413321
 20
8.5437266677
 11
9.9406556145
 21
8.5385590846
  0
LINE
  5
313
100
AcDbEntity
  8
0
100
AcDbLine
 62
4
  6
CONTINUOUS
 10
10.4407292315
 20
8.5038788813
 11
10.5235228771
 21
8.4981371225
  0
LINE
  5
314
100
AcDbEntity
  8
0
100
AcDbLine
 62
4
  6
CONTINUOUS
 10
10.5400816069
 20
8.530106213
 11
10.4241705034
 21
8.5381446753
  0
LINE
  5
315
100
AcDbEntity
  8
0
100
AcDbLine
 62
4
  6
CONTINUOUS
 10
9.9489349794
 20
8.5876611275
 11
9.8661413321
 21
8.5934028864
  0
LINE
  5
316
100
AcDbEntity
  8
0
100
AcDbLine
 62
4
  6
CONTINUOUS
 10
10.4241705034
 20
7.9144325707
 11
10.4407292315
 21
7.9298429471
  0
LINE
  5
317
100
AcDbEntity
  8
0
100
AcDbLine
 62
4
  6
CONTINUOUS
 10
10.1691660759
 20
8.368163704
 11
10.2850771793
 21
8.3932426978
  0
LINE
  5
318
100
AcDbEntity
  8
0
100
AcDbLine
 62
4
  6
CONTINUOUS
 10
9.9406556145
 20
8.6213527457
 11
9.8330238759
 21
8.6288170322
  0
LINE
  5
319
100
AcDbEntity
  8
0
100
AcDbLine
 62
4
  6
CONTINUOUS
 10
10.4407292315
 20
8.5949518753
 11
10.5235228771
 21
8.5892101165
  0
LINE
  5
31A
100
AcDbEntity
  8
0
100
AcDbLine
 62
4
  6
CONTINUOUS
 10
10.5400816069
 20
8.6349782058
 11
10.4241705034
 21
8.6430166681
  0
LINE
  5
31B
100
AcDbEntity
  8
0
100
AcDbLine
 62
4
  6
CONTINUOUS
 10
9.9489349794
 20
8.6952928427
 11
9.8661413321
 21
8.7010346017
  0
LINE
  5
31C
100
AcDbEntity
  8
0
100
AcDbLine
 62
4
  6
CONTINUOUS
 10
9.8413032434
 20
8.702757129
 11
9.8330238759
 21
8.703331305
  0
LINE
  5
31D
100
AcDbEntity
  8
0
100
AcDbLine
 62
7
  6
CONTINUOUS
 10
8.5162799534
 20
8.8204818363
 11
8.131876512
 21
8.8471403055
  0
LINE
  5
31E
100
AcDbEntity
  8
0
100
AcDbLine
 62
4
  6
CONTINUOUS
 10
9.9406556145
 20
8.7400236268
 11
9.8744206996
 21
8.7446170338
  0
LINE
  5
31F
100
AcDbEntity
  8
0
100
AcDbLine
 62
7
  6
CONTINUOUS
 10
8.5235039655
 20
8.8741564868
 11
8.1391005242
 21
8.900814956
  0
LINE
  5
320
100
AcDbEntity
  8
0
100
AcDbLine
 62
4
  6
CONTINUOUS
 10
9.8992587917
 20
8.8174088344
 11
9.8744206996
 21
8.8191313619
  0
LINE
  5
321
100
AcDbEntity
  8
0
100
AcDbLine
 62
4
  6
CONTINUOUS
 10
9.5036432486
 20
9.6402846996
 11
9.5905765762
 21
9.5835447451
  0
LINE
  5
322
100
AcDbEntity
  8
0
100
AcDbLine
 62
4
  6
CONTINUOUS
 10
11.4045853247
 20
9.479476143
 11
11.4045853247
 21
9.493965031
  0
LINE
  5
323
100
AcDbEntity
  8
0
100
AcDbLine
 62
4
  6
CONTINUOUS
 10
10.4995127368
 20
6.9912329791
 11
10.5091719932
 21
7.0050519954
  0
LINE
  5
324
100
AcDbEntity
  8
0
100
AcDbLine
 62
4
  6
CONTINUOUS
 10
9.9406556145
 20
8.8642140632
 11
9.9158175197
 21
8.8659365909
  0
LINE
  5
325
100
AcDbEntity
  8
0
100
AcDbLine
 62
4
  6
CONTINUOUS
 10
11.5204964281
 20
9.4497043488
 11
11.5204964281
 21
9.5076599005
  0
LINE
  5
326
100
AcDbEntity
  8
0
100
AcDbLine
 62
4
  6
CONTINUOUS
 10
10.5478090322
 20
6.9878836197
 11
10.5574682886
 21
7.0017026359
  0
LINE
  5
327
100
AcDbEntity
  8
0
100
AcDbLine
 62
4
  6
CONTINUOUS
 10
10.6154238403
 20
6.9687056289
 11
10.6057645814
 21
6.9548866128
  0
LINE
  5
328
100
AcDbEntity
  8
0
100
AcDbLine
 62
7
  6
CONTINUOUS
 10
8.5628313378
 20
9.2897415331
 11
8.270233822
 21
9.3100332398
  0
LINE
  5
329
100
AcDbEntity
  8
0
100
AcDbLine
 62
7
  6
CONTINUOUS
 10
8.5628313378
 20
9.3046992277
 11
8.2846818463
 21
9.3239889605
  0
LINE
  5
32A
100
AcDbEntity
  8
0
100
AcDbLine
 62
7
  6
CONTINUOUS
 10
13.3924607554
 20
9.5314210479
 11
13.9100984184
 21
10.0314206649
  0
LINE
  5
32B
100
AcDbEntity
  8
0
100
AcDbLine
 62
4
  6
CONTINUOUS
 10
11.414244581
 20
9.4643173834
 11
11.4045853247
 21
9.479476143
  0
LINE
  5
32C
100
AcDbEntity
  8
0
100
AcDbLine
 62
4
  6
CONTINUOUS
 10
11.4528816201
 20
9.5051045594
 11
11.4722001362
 21
9.4747870399
  0
LINE
  5
32D
100
AcDbEntity
  8
0
100
AcDbLine
 62
4
  6
CONTINUOUS
 10
10.5091719932
 20
7.0050519954
 11
10.5188312564
 21
7.0116265672
  0
LINE
  5
32E
100
AcDbEntity
  8
0
100
AcDbLine
 62
4
  6
CONTINUOUS
 10
10.5574682886
 20
7.0017026359
 11
10.5767868046
 21
7.0148517802
  0
LINE
  5
32F
100
AcDbEntity
  8
0
100
AcDbLine
 62
4
  6
CONTINUOUS
 10
10.6057645814
 20
6.9548866128
 11
10.5961053225
 21
6.9483120408
  0
LINE
  5
330
100
AcDbEntity
  8
0
100
AcDbLine
 62
4
  6
CONTINUOUS
 10
9.619554352
 20
9.6322462373
 11
9.5036432486
 21
9.6402846996
  0
LINE
  5
331
100
AcDbEntity
  8
0
100
AcDbLine
 62
4
  6
CONTINUOUS
 10
11.4239038443
 20
9.514358619
 11
11.4432223569
 21
9.5130188756
  0
LINE
  5
332
100
AcDbEntity
  8
0
100
AcDbLine
 62
4
  6
CONTINUOUS
 10
11.4915186523
 20
9.4589584084
 11
11.5204964281
 21
9.4497043488
  0
LINE
  5
333
100
AcDbEntity
  8
0
100
AcDbLine
 62
4
  6
CONTINUOUS
 10
11.4239038443
 20
9.4564030673
 11
11.414244581
 21
9.4643173834
  0
LINE
  5
334
100
AcDbEntity
  8
0
100
AcDbLine
 62
4
  6
CONTINUOUS
 10
11.4722001362
 20
9.4747870399
 11
11.4915186523
 21
9.4589584084
  0
LINE
  5
335
100
AcDbEntity
  8
0
100
AcDbLine
 62
4
  6
CONTINUOUS
 10
11.4432223569
 20
9.5130188756
 11
11.4528816201
 21
9.5051045594
  0
LINE
  5
336
100
AcDbEntity
  8
0
100
AcDbLine
 62
7
  6
CONTINUOUS
 10
8.5628313378
 20
9.8663569856
 11
13.3924607554
 21
9.5314210479
  0
LINE
  5
337
100
AcDbEntity
  8
0
100
AcDbLine
 62
7
  6
CONTINUOUS
 10
13.9100984184
 20
10.0314206649
 11
9.0804690008
 21
10.3663566026
  0
LINE
  5
338
100
AcDbEntity
  8
0
100
AcDbLine
 62
7
  6
CONTINUOUS
 10
13.3924607554
 20
6.6336433974
 11
13.3924607554
 21
9.5314210479
  0
LINE
  5
339
100
AcDbEntity
  8
0
100
AcDbLine
 62
7
  6
CONTINUOUS
 10
13.9100984184
 20
7.1336430144
 11
13.9100984184
 21
10.0314206649
  0
LINE
  5
33A
100
AcDbEntity
  8
0
100
AcDbLine
 62
7
  6
CONTINUOUS
 10
13.3924607554
 20
6.6336433974
 11
13.9100984184
 21
7.1336430144
  0
ARC
  5
33B
100
AcDbEntity
  8
0
100
AcDbCircle
 62
7
  6
CONTINUOUS
 10
10.8257788307
 20
8.5369723833
 40
2.3268353346
100
AcDbArc
 50
171.6678728683
 51
173.0014994771
  0
ARC
  5
33C
100
AcDbEntity
  8
0
100
AcDbCircle
 62
7
  6
CONTINUOUS
 10
10.4413753894
 20
8.5636308525
 40
2.3268353346
100
AcDbArc
 50
171.6678728683
 51
173.0014994771
  0
ARC
  5
33D
100
AcDbEntity
  8
0
100
AcDbCircle
 62
7
  6
CONTINUOUS
 10
9.462670022
 20
8.4069867862
 40
0.9584571905
100
AcDbArc
 50
189.1014340788
 51
191.5149294916
  0
ARC
  5
33E
100
AcDbEntity
  8
0
100
AcDbCircle
 62
7
  6
CONTINUOUS
 10
9.0782665807
 20
8.4336452554
 40
0.9584571905
100
AcDbArc
 50
189.1014340788
 51
191.5149294916
  0
ARC
  5
33F
100
AcDbEntity
  8
0
100
AcDbCircle
 62
7
  6
CONTINUOUS
 10
8.8935023405
 20
8.8474318633
 40
0.7753736269
100
AcDbArc
 50
149.4093300326
 51
152.3477833389
  0
ARC
  5
340
100
AcDbEntity
  8
0
100
AcDbCircle
 62
7
  6
CONTINUOUS
 10
8.2192529887
 20
8.2308782045
 40
0.08092124
100
AcDbArc
 50
188.291723655
 51
189.2602270971
  0
SPLINE
  5
341
100
AcDbEntity
  8
0
100
AcDbSpline
 62
7
  6
CONTINUOUS
 70
0
 71
3
 72
9
 73
5
 74
0
 42
0.0000001
 43
0.0000001
 44
0.0000000001
 40
0.0
 40
0.0
 40
0.0
 40
0.0
 40
0.2576616456
 40
1.0
 40
1.0
 40
1.0
 40
1.0
 10
8.270233822
 20
9.3100332398
 30
0.0
 10
8.2708294463
 20
9.3107065256
 30
0.0
 10
8.2731644041
 20
9.3132987917
 30
0.0
 10
8.2755950503
 20
9.3158055345
 30
0.0
 10
8.2774578342
 20
9.3176048456
 30
0.0
  0
SPLINE
  5
342
100
AcDbEntity
  8
0
100
AcDbSpline
 62
7
  6
CONTINUOUS
 70
0
 71
3
 72
9
 73
5
 74
0
 42
0.0000001
 43
0.0000001
 44
0.0000000001
 40
0.0
 40
0.0
 40
0.0
 40
0.0
 40
0.2578199612
 40
1.0
 40
1.0
 40
1.0
 40
1.0
 10
8.2774578342
 20
9.3176048456
 30
0.0
 10
8.2780538694
 20
9.3181805715
 30
0.0
 10
8.2803890723
 20
9.3203891778
 30
0.0
 10
8.2828204037
 20
9.3224970793
 30
0.0
 10
8.2846818463
 20
9.3239889605
 30
0.0
  0
SPLINE
  5
343
100
AcDbEntity
  8
0
100
AcDbSpline
 62
7
  6
CONTINUOUS
 70
0
 71
3
 72
23
 73
19
 74
0
 42
0.0000001
 43
0.0000001
 44
0.0000000001
 40
0.0
 40
0.0
 40
0.0
 40
0.0
 40
0.0814271771
 40
0.1607810499
 40
0.2379168706
 40
0.3126938078
 40
0.3849779687
 40
0.4546446462
 40
0.5215874544
 40
0.5857216344
 40
0.64699488
 40
0.7053888281
 40
0.7609293554
 40
0.8136881642
 40
0.8637843189
 40
0.9113876181
 40
0.9567088658
 40
1.0
 40
1.0
 40
1.0
 40
1.0
 10
8.270233822
 20
8.0864267105
 30
0.0
 10
8.2662413318
 20
8.0887843157
 30
0.0
 10
8.2583899561
 20
8.0934939351
 30
0.0
 10
8.2468825217
 20
8.1006443731
 30
0.0
 10
8.2358209152
 20
8.1077912549
 30
0.0
 10
8.2252371913
 20
8.1149316412
 30
0.0
 10
8.2151632509
 20
8.1220620338
 30
0.0
 10
8.205630539
 20
8.1291787829
 30
0.0
 10
8.1966688166
 20
8.1362773438
 30
0.0
 10
8.1883059508
 20
8.1433535953
 30
0.0
 10
8.1805659343
 20
8.1504022864
 30
0.0
 10
8.1734693049
 20
8.1574190147
 30
0.0
 10
8.167031175
 20
8.164398724
 30
0.0
 10
8.1612612912
 20
8.1713367828
 30
0.0
 10
8.1561640316
 20
8.178229147
 30
0.0
 10
8.1517366886
 20
8.1850714726
 30
0.0
 10
8.147972572
 20
8.1918602059
 30
0.0
 10
8.1458511716
 20
8.196444558
 30
0.0
 10
8.1449047402
 20
8.1987207169
 30
0.0
  0
SPLINE
  5
344
100
AcDbEntity
  8
0
100
AcDbSpline
 62
7
  6
CONTINUOUS
 70
0
 71
3
 72
9
 73
5
 74
0
 42
0.0000001
 43
0.0000001
 44
0.0000000001
 40
0.0
 40
0.0
 40
0.0
 40
0.0
 40
0.4964554266
 40
1.0
 40
1.0
 40
1.0
 40
1.0
 10
8.2260414096
 20
9.2420204681
 30
0.0
 10
8.2328627914
 20
9.2535835257
 30
0.0
 10
8.2471585208
 20
9.2765500165
 30
0.0
 10
8.2623778915
 20
9.2989110092
 30
0.0
 10
8.270233822
 20
9.3100332398
 30
0.0
  0
SPLINE
  5
345
100
AcDbEntity
  8
0
100
AcDbSpline
 62
7
  6
CONTINUOUS
 70
0
 71
3
 72
47
 73
43
 74
0
 42
0.0000001
 43
0.0000001
 44
0.0000000001
 40
0.0
 40
0.0
 40
0.0
 40
0.0
 40
0.0097390009
 40
0.019969346
 40
0.0306881154
 40
0.0418902147
 40
0.0535691943
 40
0.0657173073
 40
0.0783252413
 40
0.0913829445
 40
0.1188004497
 40
0.1478701173
 40
0.1784781362
 40
0.2104997183
 40
0.2438006087
 40
0.2782383269
 40
0.313663267
 40
0.3499198552
 40
0.3868476166
 40
0.4242821709
 40
0.462056221
 40
0.5000004853
 40
0.5379447368
 40
0.5757187673
 40
0.6131533165
 40
0.6500810384
 40
0.686337576
 40
0.721762476
 40
0.7562001422
 40
0.7895009595
 40
0.8215224706
 40
0.8521304131
 40
0.881199988
 40
0.9086174096
 40
0.9216750606
 40
0.9342829562
 40
0.946431018
 40
0.9581099213
 40
0.9693119702
 40
0.9800307056
 40
0.9902610557
 40
1.0
 40
1.0
 40
1.0
 40
1.0
 10
8.1371566847
 20
8.2173360813
 30
0.0
 10
8.1358950582
 20
8.220367225
 30
0.0
 10
8.1334179701
 20
8.2266285736
 30
0.0
 10
8.1299131903
 20
8.2363639344
 30
0.0
 10
8.1265319295
 20
8.2466632988
 30
0.0
 10
8.1232780274
 20
8.2575142788
 30
0.0
 10
8.1201554359
 20
8.2689040902
 30
0.0
 10
8.1171680619
 20
8.2808192069
 30
0.0
 10
8.1143191728
 20
8.2932454513
 30
0.0
 10
8.110650589
 20
8.3107617237
 30
0.0
 10
8.1064609113
 20
8.3338342366
 30
0.0
 10
8.1021133462
 20
8.362876234
 30
0.0
 10
8.0983890364
 20
8.3935684996
 30
0.0
 10
8.0953061881
 20
8.4257645483
 30
0.0
 10
8.0928800014
 20
8.4593109823
 30
0.0
 10
8.0911224684
 20
8.4940476737
 30
0.0
 10
8.0900422801
 20
8.5298087126
 30
0.0
 10
8.0896447889
 20
8.5664231931
 30
0.0
 10
8.089932069
 20
8.6037160919
 30
0.0
 10
8.0909029024
 20
8.6415091159
 30
0.0
 10
8.0925527703
 20
8.6796215447
 30
0.0
 10
8.0948737899
 20
8.7178711153
 30
0.0
 10
8.0978548669
 20
8.7560749038
 30
0.0
 10
8.1014817359
 20
8.7940502136
 30
0.0
 10
8.1057370455
 20
8.8316154354
 30
0.0
 10
8.1106003335
 20
8.8685909525
 30
0.0
 10
8.1160481917
 20
8.9048000095
 30
0.0
 10
8.1220544016
 20
8.9400695531
 30
0.0
 10
8.1285900668
 20
8.9742310498
 30
0.0
 10
8.1356236889
 20
9.0071213726
 30
0.0
 10
8.1431212861
 20
9.0385835839
 30
0.0
 10
8.1510466227
 20
9.0684678555
 30
0.0
 10
8.1593614461
 20
9.09663162
 30
0.0
 10
8.1666958726
 20
9.1189048515
 30
0.0
 10
8.1727472515
 20
9.1357469718
 30
0.0
 10
8.1772841497
 20
9.1476609574
 30
0.0
 10
8.1818876476
 20
9.1590495852
 30
0.0
 10
8.1865525666
 20
9.1698992625
 30
0.0
 10
8.1912731381
 20
9.1801971566
 30
0.0
 10
8.1960437559
 20
9.1899311416
 30
0.0
 10
8.2008588568
 20
9.1990894675
 30
0.0
 10
8.2041765318
 20
9.2049489254
 30
0.0
 10
8.2058444844
 20
9.2077768827
 30
0.0
  0
SPLINE
  5
346
100
AcDbEntity
  8
0
100
AcDbSpline
 62
7
  6
CONTINUOUS
 70
0
 71
3
 72
9
 73
5
 74
0
 42
0.0000001
 43
0.0000001
 44
0.0000000001
 40
0.0
 40
0.0
 40
0.0
 40
0.0
 40
0.4880525371
 40
1.0
 40
1.0
 40
1.0
 40
1.0
 10
8.5628975151
 20
8.1909180306
 30
0.0
 10
8.5566216043
 20
8.1951481664
 30
0.0
 10
8.5436011213
 20
8.203577204
 30
0.0
 10
8.5303400357
 20
8.2116196644
 30
0.0
 10
8.5235039655
 20
8.215656432
 30
0.0
  0
SPLINE
  5
347
100
AcDbEntity
  8
0
100
AcDbSpline
 62
7
  6
CONTINUOUS
 70
0
 71
3
 72
21
 73
17
 74
0
 42
0.0000001
 43
0.0000001
 44
0.0000000001
 40
0.0
 40
0.0
 40
0.0
 40
0.0
 40
0.1269535346
 40
0.1902701665
 40
0.2534605795
 40
0.316512741
 40
0.3794161866
 40
0.4421624616
 40
0.5047461118
 40
0.567165277
 40
0.6294218309
 40
0.6915211226
 40
0.753471469
 40
0.8152835582
 40
0.8769691233
 40
1.0
 40
1.0
 40
1.0
 40
1.0
 10
8.131876512
 20
8.282033831
 30
0.0
 10
8.1257480237
 20
8.3054651423
 30
0.0
 10
8.1173708579
 20
8.3408056457
 30
0.0
 10
8.1081997693
 20
8.388287331
 30
0.0
 10
8.1024223145
 20
8.4239922919
 30
0.0
 10
8.0978247305
 20
8.4597892903
 30
0.0
 10
8.0944810323
 20
8.4956408735
 30
0.0
 10
8.0924492599
 20
8.5315017271
 30
0.0
 10
8.091766521
 20
8.5673215616
 30
0.0
 10
8.0924456999
 20
8.6030480904
 30
0.0
 10
8.094474214
 20
8.6386306614
 30
0.0
 10
8.0978152022
 20
8.674023765
 30
0.0
 10
8.1024107484
 20
8.7091896035
 30
0.0
 10
8.10818693
 20
8.7441004906
 30
0.0
 10
8.1173407846
 20
8.7902383705
 30
0.0
 10
8.1257288958
 20
8.8244885391
 30
0.0
 10
8.131876512
 20
8.8471403055
 30
0.0
  0
SPLINE
  5
348
100
AcDbEntity
  8
0
100
AcDbSpline
 62
7
  6
CONTINUOUS
 70
0
 71
3
 72
21
 73
17
 74
0
 42
0.0000001
 43
0.0000001
 44
0.0000000001
 40
0.0
 40
0.0
 40
0.0
 40
0.0
 40
0.1230308767
 40
0.1847164418
 40
0.2465285311
 40
0.3084788775
 40
0.3705781691
 40
0.432834723
 40
0.4952538883
 40
0.5578375385
 40
0.6205838134
 40
0.6834872591
 40
0.7465394205
 40
0.8097298335
 40
0.8730464654
 40
1.0
 40
1.0
 40
1.0
 40
1.0
 10
8.5162799534
 20
8.2553753618
 30
0.0
 10
8.5224275695
 20
8.2780271282
 30
0.0
 10
8.5308156808
 20
8.3122772969
 30
0.0
 10
8.5399695354
 20
8.3584151767
 30
0.0
 10
8.5457457169
 20
8.3933260638
 30
0.0
 10
8.5503412632
 20
8.4284919024
 30
0.0
 10
8.5536822513
 20
8.4638850059
 30
0.0
 10
8.5557107655
 20
8.4994675769
 30
0.0
 10
8.5563899444
 20
8.5351941057
 30
0.0
 10
8.5557072055
 20
8.5710139402
 30
0.0
 10
8.5536754331
 20
8.6068747938
 30
0.0
 10
8.5503317349
 20
8.642726377
 30
0.0
 10
8.5457341508
 20
8.6785233754
 30
0.0
 10
8.5399566961
 20
8.7142283363
 30
0.0
 10
8.5307856075
 20
8.7617100216
 30
0.0
 10
8.5224084417
 20
8.797050525
 30
0.0
 10
8.5162799534
 20
8.8204818363
 30
0.0
  0
SPLINE
  5
349
100
AcDbEntity
  8
0
100
AcDbSpline
 62
7
  6
CONTINUOUS
 70
0
 71
3
 72
22
 73
18
 74
0
 42
0.0000001
 43
0.0000001
 44
0.0000000001
 40
0.0
 40
0.0
 40
0.0
 40
0.0
 40
0.1201584371
 40
0.1804828939
 40
0.241017443
 40
0.301805331
 40
0.3628932208
 40
0.4243295628
 40
0.4861645836
 40
0.5484470356
 40
0.6112227423
 40
0.6745331205
 40
0.7384120307
 40
0.8028858292
 40
0.8679714287
 40
0.9336765455
 40
1.0
 40
1.0
 40
1.0
 40
1.0
 10
8.1391005242
 20
8.900814956
 30
0.0
 10
8.1385126508
 20
8.9135307675
 30
0.0
 10
8.138117521
 20
8.9326593339
 30
0.0
 10
8.1386992273
 20
8.9581885779
 30
0.0
 10
8.1397278841
 20
8.9774078192
 30
0.0
 10
8.1413830227
 20
8.9966645414
 30
0.0
 10
8.143697971
 20
9.0159497253
 30
0.0
 10
8.1467016022
 20
9.0352522329
 30
0.0
 10
8.1504190925
 20
9.0545591682
 30
0.0
 10
8.1548696155
 20
9.0738561849
 30
0.0
 10
8.1600648128
 20
9.0931281554
 30
0.0
 10
8.1660105797
 20
9.1123589895
 30
0.0
 10
8.1727030451
 20
9.131533369
 30
0.0
 10
8.1801320682
 20
9.1506362669
 30
0.0
 10
8.1882801193
 20
9.1696541206
 30
0.0
 10
8.1971223851
 20
9.1885752679
 30
0.0
 10
8.2034321341
 20
9.2010608
 30
0.0
 10
8.2066911253
 20
9.207285467
 30
0.0
  0
SPLINE
  5
34A
100
AcDbEntity
  8
0
100
AcDbSpline
 62
7
  6
CONTINUOUS
 70
0
 71
3
 72
9
 73
5
 74
0
 42
0.0000001
 43
0.0000001
 44
0.0000000001
 40
0.0
 40
0.0
 40
0.0
 40
0.0
 40
0.5030862484
 40
1.0
 40
1.0
 40
1.0
 40
1.0
 10
8.5235039655
 20
8.8741564868
 30
0.0
 10
8.5304475549
 20
8.8839870476
 30
0.0
 10
8.54395062
 20
8.9037409564
 30
0.0
 10
8.5567463146
 20
8.923962642
 30
0.0
 10
8.5628975165
 20
8.9341353207
 30
0.0
  0
SPLINE
  5
34B
100
AcDbEntity
  8
0
100
AcDbSpline
 62
7
  6
CONTINUOUS
 70
0
 71
3
 72
9
 73
5
 74
0
 42
0.0000001
 43
0.0000001
 44
0.0000000001
 40
0.0
 40
0.0
 40
0.0
 40
0.0
 40
0.5119177008
 40
1.0
 40
1.0
 40
1.0
 40
1.0
 10
8.1449047402
 20
8.1987207169
 30
0.0
 10
8.1435977609
 20
8.2018639901
 30
0.0
 10
8.1413761664
 20
8.2081491509
 30
0.0
 10
8.1399086233
 20
8.2146530914
 30
0.0
 10
8.1393863419
 20
8.2178564607
 30
0.0
  0
SPLINE
  5
34C
100
AcDbEntity
  8
0
100
AcDbSpline
 62
7
  6
CONTINUOUS
 70
0
 71
3
 72
11
 73
7
 74
0
 42
0.0000001
 43
0.0000001
 44
0.0000000001
 40
0.0
 40
0.0
 40
0.0
 40
0.0
 40
0.2540488282
 40
0.5045300441
 40
0.7527878922
 40
1.0
 40
1.0
 40
1.0
 40
1.0
 10
8.1391776483
 20
8.2192082885
 30
0.0
 10
8.1388946136
 20
8.2211504695
 30
0.0
 10
8.1384732157
 20
8.2250295823
 30
0.0
 10
8.1382646055
 20
8.2308463545
 30
0.0
 10
8.1384615533
 20
8.2366103511
 30
0.0
 10
8.1388480009
 20
8.2404217913
 30
0.0
 10
8.1391005242
 20
8.2423149012
 30
0.0
  0
SPLINE
  5
34D
100
AcDbEntity
  8
0
100
AcDbSpline
 62
7
  6
CONTINUOUS
 70
0
 71
3
 72
85
 73
81
 74
0
 42
0.0000001
 43
0.0000001
 44
0.0000000001
 40
0.0
 40
0.0
 40
0.0
 40
0.0
 40
0.0039801755
 40
0.0081241211
 40
0.0124359992
 40
0.0169193694
 40
0.0215772468
 40
0.0264119948
 40
0.0314252716
 40
0.036618263
 40
0.0419916661
 40
0.0475457929
 40
0.0532805805
 40
0.0591955875
 40
0.0715626143
 40
0.0846383153
 40
0.0984096556
 40
0.1128602549
 40
0.1279708112
 40
0.1437194381
 40
0.1600819386
 40
0.1770320333
 40
0.1945415658
 40
0.2125806771
 40
0.2311179593
 40
0.2501205956
 40
0.2695544871
 40
0.2893843733
 40
0.3095739538
 40
0.3300859996
 40
0.3508824608
 40
0.3719245709
 40
0.3931729488
 40
0.4145877017
 40
0.457754079
 40
0.5010989561
 40
0.5442950696
 40
0.5657357599
 40
0.5870173776
 40
0.6080999494
 40
0.6289439925
 40
0.6495106191
 40
0.6697616414
 40
0.689659674
 40
0.709168241
 40
0.7282518859
 40
0.7468762864
 40
0.7650083809
 40
0.7826164962
 40
0.7996704822
 40
0.8161418627
 40
0.8320040043
 40
0.8472323103
 40
0.861804453
 40
0.8757006387
 40
0.8889039295
 40
0.9014006481
 40
0.9073810513
 40
0.9131814645
 40
0.9188013272
 40
0.9242404634
 40
0.9294990094
 40
0.9345775386
 40
0.9394770609
 40
0.9441990652
 40
0.9487456382
 40
0.9531194389
 40
0.9573238773
 40
0.961363122
 40
0.9652422377
 40
0.9689673054
 40
0.9725454842
 40
0.9759852134
 40
0.9824864129
 40
0.9855752855
 40
0.9885737661
 40
0.9914977029
 40
0.9943643139
 40
0.9971920003
 40
1.0
 40
1.0
 40
1.0
 40
1.0
 10
10.3922455583
 20
10.007435634
 30
0.0
 10
10.3910671282
 20
10.0062973578
 30
0.0
 10
10.3886082629
 20
10.0040288512
 30
0.0
 10
10.3847043349
 20
10.0007155182
 30
0.0
 10
10.3805137227
 20
9.9974259389
 30
0.0
 10
10.3760387266
 20
9.9941618854
 30
0.0
 10
10.3712815442
 20
9.9909248664
 30
0.0
 10
10.3662444896
 20
9.9877164732
 30
0.0
 10
10.3609300876
 20
9.9845382212
 30
0.0
 10
10.3553409725
 20
9.9813917651
 30
0.0
 10
10.349479963
 20
9.9782786321
 30
0.0
 10
10.3433499873
 20
9.9752003976
 30
0.0
 10
10.3369541032
 20
9.9721585895
 30
0.0
 10
10.3279418158
 20
9.9680930053
 30
0.0
 10
10.316024759
 20
9.9631247899
 30
0.0
 10
10.3009225536
 20
9.9574172603
 30
0.0
 10
10.2848437348
 20
9.9518904164
 30
0.0
 10
10.2678206695
 20
9.9465554739
 30
0.0
 10
10.2498874402
 20
9.9414232739
 30
0.0
 10
10.2310801142
 20
9.9365042647
 30
0.0
 10
10.2114365578
 20
9.9318084659
 30
0.0
 10
10.1909963793
 20
9.92734544
 30
0.0
 10
10.1698008281
 20
9.9231242777
 30
0.0
 10
10.1478927041
 20
9.9191535769
 30
0.0
 10
10.1253162663
 20
9.9154414243
 30
0.0
 10
10.1021171408
 20
9.9119953805
 30
0.0
 10
10.0783422285
 20
9.9088224616
 30
0.0
 10
10.0540396077
 20
9.9059291216
 30
0.0
 10
10.0292584316
 20
9.9033212467
 30
0.0
 10
10.0040488278
 20
9.9010041424
 30
0.0
 10
9.9784617904
 20
9.8989825202
 30
0.0
 10
9.9525490973
 20
9.8972605015
 30
0.0
 10
9.9263631325
 20
9.8958415603
 30
0.0
 10
9.8910628045
 20
9.8943538406
 30
0.0
 10
9.8466446464
 20
9.8932732249
 30
0.0
 10
9.7932472243
 20
9.8932168827
 30
0.0
 10
9.7488039685
 20
9.8942035768
 30
0.0
 10
9.7134639336
 20
9.8956163086
 30
0.0
 10
9.6872339548
 20
9.8969797967
 30
0.0
 10
9.6612676482
 20
9.8986469302
 30
0.0
 10
9.6356175079
 20
9.90061435
 30
0.0
 10
9.6103354414
 20
9.9028780477
 30
0.0
 10
9.5854725909
 20
9.9054334181
 30
0.0
 10
9.5610792485
 20
9.9082752619
 30
0.0
 10
9.5372047505
 20
9.9113977972
 30
0.0
 10
9.5138973778
 20
9.9147946704
 30
0.0
 10
9.4912042547
 20
9.9184589701
 30
0.0
 10
9.4691712487
 20
9.9223832351
 30
0.0
 10
9.4478428737
 20
9.9265594714
 30
0.0
 10
9.4272621999
 20
9.9309791722
 30
0.0
 10
9.4074707631
 20
9.9356333343
 30
0.0
 10
9.3885084767
 20
9.9405124773
 30
0.0
 10
9.3704135331
 20
9.9456066674
 30
0.0
 10
9.3532223391
 20
9.950905533
 30
0.0
 10
9.3369693313
 20
9.9563983001
 30
0.0
 10
9.3216872351
 20
9.9620738176
 30
0.0
 10
9.3096157606
 20
9.9670158795
 30
0.0
 10
9.3004770153
 20
9.9710614826
 30
0.0
 10
9.2939851987
 20
9.9740896526
 30
0.0
 10
9.2877581442
 20
9.9771548247
 30
0.0
 10
9.2817989462
 20
9.9802554295
 30
0.0
 10
9.2761106083
 20
9.9833899546
 30
0.0
 10
9.270695967
 20
9.9865568139
 30
0.0
 10
9.2655577194
 20
9.9897544241
 30
0.0
 10
9.2606984479
 20
9.9929812457
 30
0.0
 10
9.2561205378
 20
9.9962356336
 30
0.0
 10
9.2518263027
 20
9.9995160698
 30
0.0
 10
9.2478178459
 20
10.0028209247
 30
0.0
 10
9.2440971832
 20
10.0061486397
 30
0.0
 10
9.2406661727
 20
10.0094976985
 30
0.0
 10
9.2375265879
 20
10.0128663923
 30
0.0
 10
9.2346798542
 20
10.0162536546
 30
0.0
 10
9.2313402992
 20
10.020707455
 30
0.0
 10
9.2285045146
 20
10.0252813478
 30
0.0
 10
9.2262529875
 20
10.0299528821
 30
0.0
 10
9.2248926445
 20
10.0334078421
 30
0.0
 10
9.2238332423
 20
10.036871192
 30
0.0
 10
9.2230757669
 20
10.0403412844
 30
0.0
 10
9.2226209232
 20
10.0438156135
 30
0.0
 10
9.2225196672
 20
10.0461367441
 30
0.0
 10
9.222519662
 20
10.0472926329
 30
0.0
  0
SPLINE
  5
34E
100
AcDbEntity
  8
0
100
AcDbSpline
 62
7
  6
CONTINUOUS
 70
0
 71
3
 72
85
 73
81
 74
0
 42
0.0000001
 43
0.0000001
 44
0.0000000001
 40
0.0
 40
0.0
 40
0.0
 40
0.0
 40
0.0039801755
 40
0.0081241211
 40
0.0124359992
 40
0.0169193694
 40
0.0215772468
 40
0.0264119948
 40
0.0314252716
 40
0.036618263
 40
0.0419916661
 40
0.0475457929
 40
0.0532805805
 40
0.0591955875
 40
0.0715626143
 40
0.0846383153
 40
0.0984096556
 40
0.1128602549
 40
0.1279708112
 40
0.1437194381
 40
0.1600819386
 40
0.1770320333
 40
0.1945415658
 40
0.2125806771
 40
0.2311179593
 40
0.2501205956
 40
0.2695544871
 40
0.2893843733
 40
0.3095739538
 40
0.3300859996
 40
0.3508824608
 40
0.3719245709
 40
0.3931729488
 40
0.4145877017
 40
0.457754079
 40
0.5010989561
 40
0.5442950696
 40
0.5657357599
 40
0.5870173776
 40
0.6080999494
 40
0.6289439925
 40
0.6495106191
 40
0.6697616414
 40
0.689659674
 40
0.709168241
 40
0.7282518859
 40
0.7468762864
 40
0.7650083809
 40
0.7826164962
 40
0.7996704822
 40
0.8161418627
 40
0.8320040043
 40
0.8472323103
 40
0.861804453
 40
0.8757006387
 40
0.8889039295
 40
0.9014006481
 40
0.9073810513
 40
0.9131814645
 40
0.9188013272
 40
0.9242404634
 40
0.9294990094
 40
0.9345775386
 40
0.9394770609
 40
0.9441990652
 40
0.9487456382
 40
0.9531194389
 40
0.9573238773
 40
0.961363122
 40
0.9652422377
 40
0.9689673054
 40
0.9725454842
 40
0.9759852134
 40
0.9824864129
 40
0.9855752855
 40
0.9885737661
 40
0.9914977029
 40
0.9943643139
 40
0.9971920003
 40
1.0
 40
1.0
 40
1.0
 40
1.0
 10
12.2941537206
 20
9.8755378549
 30
0.0
 10
12.2929752905
 20
9.8743995788
 30
0.0
 10
12.2905164252
 20
9.8721310722
 30
0.0
 10
12.2866124972
 20
9.8688177392
 30
0.0
 10
12.282421885
 20
9.8655281598
 30
0.0
 10
12.2779468889
 20
9.8622641064
 30
0.0
 10
12.2731897065
 20
9.8590270873
 30
0.0
 10
12.2681526519
 20
9.8558186942
 30
0.0
 10
12.2628382499
 20
9.8526404422
 30
0.0
 10
12.2572491348
 20
9.8494939861
 30
0.0
 10
12.2513881253
 20
9.8463808531
 30
0.0
 10
12.2452581496
 20
9.8433026185
 30
0.0
 10
12.2388622655
 20
9.8402608105
 30
0.0
 10
12.2298499781
 20
9.8361952263
 30
0.0
 10
12.2179329213
 20
9.8312270109
 30
0.0
 10
12.2028307159
 20
9.8255194812
 30
0.0
 10
12.1867518971
 20
9.8199926374
 30
0.0
 10
12.1697288318
 20
9.8146576948
 30
0.0
 10
12.1517956025
 20
9.8095254949
 30
0.0
 10
12.1329882765
 20
9.8046064856
 30
0.0
 10
12.1133447201
 20
9.7999106869
 30
0.0
 10
12.0929045416
 20
9.795447661
 30
0.0
 10
12.0717089904
 20
9.7912264987
 30
0.0
 10
12.0498008664
 20
9.7872557978
 30
0.0
 10
12.0272244286
 20
9.7835436453
 30
0.0
 10
12.0040253031
 20
9.7800976015
 30
0.0
 10
11.9802503908
 20
9.7769246825
 30
0.0
 10
11.95594777
 20
9.7740313426
 30
0.0
 10
11.9311665939
 20
9.7714234677
 30
0.0
 10
11.9059569901
 20
9.7691063633
 30
0.0
 10
11.8803699527
 20
9.7670847412
 30
0.0
 10
11.8544572596
 20
9.7653627224
 30
0.0
 10
11.8282712948
 20
9.7639437813
 30
0.0
 10
11.7929709668
 20
9.7624560616
 30
0.0
 10
11.7485528087
 20
9.7613754459
 30
0.0
 10
11.6951553866
 20
9.7613191036
 30
0.0
 10
11.6507121308
 20
9.7623057978
 30
0.0
 10
11.6153720959
 20
9.7637185296
 30
0.0
 10
11.5891421171
 20
9.7650820177
 30
0.0
 10
11.5631758106
 20
9.7667491511
 30
0.0
 10
11.5375256702
 20
9.768716571
 30
0.0
 10
11.5122436037
 20
9.7709802686
 30
0.0
 10
11.4873807532
 20
9.7735356391
 30
0.0
 10
11.4629874108
 20
9.7763774829
 30
0.0
 10
11.4391129128
 20
9.7795000182
 30
0.0
 10
11.4158055401
 20
9.7828968913
 30
0.0
 10
11.393112417
 20
9.7865611911
 30
0.0
 10
11.371079411
 20
9.7904854561
 30
0.0
 10
11.349751036
 20
9.7946616924
 30
0.0
 10
11.3291703622
 20
9.7990813932
 30
0.0
 10
11.3093789254
 20
9.8037355553
 30
0.0
 10
11.290416639
 20
9.8086146982
 30
0.0
 10
11.2723216954
 20
9.8137088884
 30
0.0
 10
11.2551305014
 20
9.8190077539
 30
0.0
 10
11.2388774936
 20
9.8245005211
 30
0.0
 10
11.2235953974
 20
9.8301760385
 30
0.0
 10
11.2115239229
 20
9.8351181005
 30
0.0
 10
11.2023851776
 20
9.8391637036
 30
0.0
 10
11.195893361
 20
9.8421918735
 30
0.0
 10
11.1896663065
 20
9.8452570457
 30
0.0
 10
11.1837071085
 20
9.8483576505
 30
0.0
 10
11.1780187706
 20
9.8514921755
 30
0.0
 10
11.1726041293
 20
9.8546590349
 30
0.0
 10
11.1674658817
 20
9.857856645
 30
0.0
 10
11.1626066102
 20
9.8610834666
 30
0.0
 10
11.1580287001
 20
9.8643378545
 30
0.0
 10
11.153734465
 20
9.8676182908
 30
0.0
 10
11.1497260082
 20
9.8709231457
 30
0.0
 10
11.1460053455
 20
9.8742508607
 30
0.0
 10
11.142574335
 20
9.8775999195
 30
0.0
 10
11.1394347502
 20
9.8809686132
 30
0.0
 10
11.1365880165
 20
9.8843558756
 30
0.0
 10
11.1332484615
 20
9.8888096759
 30
0.0
 10
11.1304126769
 20
9.8933835687
 30
0.0
 10
11.1281611498
 20
9.898055103
 30
0.0
 10
11.1268008068
 20
9.9015100631
 30
0.0
 10
11.1257414046
 20
9.904973413
 30
0.0
 10
11.1249839292
 20
9.9084435053
 30
0.0
 10
11.1245290855
 20
9.9119178345
 30
0.0
 10
11.1244278295
 20
9.9142389651
 30
0.0
 10
11.1244278243
 20
9.9153948538
 30
0.0
  0
SPLINE
  5
34F
100
AcDbEntity
  8
0
100
AcDbSpline
 62
7
  6
CONTINUOUS
 70
0
 71
3
 72
15
 73
11
 74
0
 42
0.0000001
 43
0.0000001
 44
0.0000000001
 40
0.0
 40
0.0
 40
0.0
 40
0.0
 40
0.1273482789
 40
0.2538606571
 40
0.3795878378
 40
0.5046051156
 40
0.629017439
 40
0.7529533823
 40
0.8765605864
 40
1.0
 40
1.0
 40
1.0
 40
1.0
 10
9.5133022119
 20
7.3856268978
 30
0.0
 10
9.5133022119
 20
7.380329685
 30
0.0
 10
9.5127964335
 20
7.3697627068
 30
0.0
 10
9.510509134
 20
7.3541154787
 30
0.0
 10
9.5067163941
 20
7.3388613989
 30
0.0
 10
9.5014524745
 20
7.3241431296
 30
0.0
 10
9.4947656528
 20
7.3100964018
 30
0.0
 10
9.486716929
 20
7.2968509064
 30
0.0
 10
9.4773819572
 20
7.2845307547
 30
0.0
 10
9.4703531897
 20
7.2770048924
 30
0.0
 10
9.4666601038
 20
7.273437621
 30
0.0
  0
SPLINE
  5
350
100
AcDbEntity
  8
0
100
AcDbSpline
 62
7
  6
CONTINUOUS
 70
0
 71
3
 72
15
 73
11
 74
0
 42
0.0000001
 43
0.0000001
 44
0.0000000001
 40
0.0
 40
0.0
 40
0.0
 40
0.0
 40
0.1273482789
 40
0.2538606571
 40
0.3795878378
 40
0.5046051156
 40
0.629017439
 40
0.7529533823
 40
0.8765605864
 40
1.0
 40
1.0
 40
1.0
 40
1.0
 10
11.6866356801
 20
7.2349057099
 30
0.0
 10
11.6866356801
 20
7.2296084971
 30
0.0
 10
11.6861299017
 20
7.2190415188
 30
0.0
 10
11.6838426022
 20
7.2033942907
 30
0.0
 10
11.6800498623
 20
7.1881402109
 30
0.0
 10
11.6747859427
 20
7.1734219416
 30
0.0
 10
11.668099121
 20
7.1593752139
 30
0.0
 10
11.6600503972
 20
7.1461297184
 30
0.0
 10
11.6507154255
 20
7.1338095667
 30
0.0
 10
11.6436866579
 20
7.1262837045
 30
0.0
 10
11.6399935721
 20
7.122716433
 30
0.0
  0
SPLINE
  5
351
100
AcDbEntity
  8
0
100
AcDbSpline
 62
7
  6
CONTINUOUS
 70
0
 71
3
 72
11
 73
7
 74
0
 42
0.0000001
 43
0.0000001
 44
0.0000000001
 40
0.0
 40
0.0
 40
0.0
 40
0.0
 40
0.2550970063
 40
0.5058528204
 40
0.7536686822
 40
1.0
 40
1.0
 40
1.0
 40
1.0
 10
10.1912160723
 20
9.9851154663
 30
0.0
 10
10.1914309616
 20
9.9857807311
 30
0.0
 10
10.1918092278
 20
9.9871160359
 30
0.0
 10
10.1922189171
 20
9.9891425378
 30
0.0
 10
10.1924649242
 20
9.9911712074
 30
0.0
 10
10.1925196575
 20
9.9925260733
 30
0.0
 10
10.1925196522
 20
9.9932011603
 30
0.0
  0
SPLINE
  5
352
100
AcDbEntity
  8
0
100
AcDbSpline
 62
7
  6
CONTINUOUS
 70
0
 71
3
 72
11
 73
7
 74
0
 42
0.0000001
 43
0.0000001
 44
0.0000000001
 40
0.0
 40
0.0
 40
0.0
 40
0.0
 40
0.2550970063
 40
0.5058528204
 40
0.7536686822
 40
1.0
 40
1.0
 40
1.0
 40
1.0
 10
12.0931242346
 20
9.8532176872
 30
0.0
 10
12.0933391239
 20
9.8538829521
 30
0.0
 10
12.0937173901
 20
9.8552182569
 30
0.0
 10
12.0941270794
 20
9.8572447588
 30
0.0
 10
12.0943730865
 20
9.8592734284
 30
0.0
 10
12.0944278198
 20
9.8606282943
 30
0.0
 10
12.0944278145
 20
9.8613033813
 30
0.0
  0
SPLINE
  5
353
100
AcDbEntity
  8
0
100
AcDbSpline
 62
7
  6
CONTINUOUS
 70
0
 71
3
 72
59
 73
55
 74
0
 42
0.0000001
 43
0.0000001
 44
0.0000000001
 40
0.0
 40
0.0
 40
0.0
 40
0.0
 40
0.0077405201
 40
0.0160541808
 40
0.0249603281
 40
0.0344717875
 40
0.0445950686
 40
0.0553319101
 40
0.0666801359
 40
0.0786341388
 40
0.0911853893
 40
0.1043228969
 40
0.1180334468
 40
0.1323018283
 40
0.1471111186
 40
0.1624427966
 40
0.1782768624
 40
0.1945920384
 40
0.2113658349
 40
0.2285746203
 40
0.246193781
 40
0.2641977689
 40
0.3012529955
 40
0.3395209141
 40
0.3787710432
 40
0.4187648303
 40
0.4592577177
 40
0.5000011422
 40
0.5407445567
 40
0.5812374106
 40
0.621231151
 40
0.6604812121
 40
0.6987490335
 40
0.7358041614
 40
0.7538080795
 40
0.7714271868
 40
0.7886359039
 40
0.8054096161
 40
0.8217247281
 40
0.8375587158
 40
0.8528902968
 40
0.8676995135
 40
0.8819678093
 40
0.8956782518
 40
0.9088156778
 40
0.9213668381
 40
0.9333207259
 40
0.9446688636
 40
0.9554056189
 40
0.9655287728
 40
0.9750401344
 40
0.9839462773
 40
0.9922596651
 40
1.0
 40
1.0
 40
1.0
 40
1.0
 10
10.2173433959
 20
10.0030569232
 30
0.0
 10
10.2157823997
 20
10.0016043223
 30
0.0
 10
10.2124220604
 20
9.9987218899
 30
0.0
 10
10.2069095379
 20
9.9946051541
 30
0.0
 10
10.2007580724
 20
9.9905504919
 30
0.0
 10
10.1939777535
 20
9.9865643148
 30
0.0
 10
10.1865790484
 20
9.982652669
 30
0.0
 10
10.1785738001
 20
9.9788217848
 30
0.0
 10
10.1699748294
 20
9.975077848
 30
0.0
 10
10.1607960198
 20
9.9714269717
 30
0.0
 10
10.1510522802
 20
9.9678751223
 30
0.0
 10
10.1407594784
 20
9.964428173
 30
0.0
 10
10.1299344296
 20
9.9610918252
 30
0.0
 10
10.1185948661
 20
9.9578715763
 30
0.0
 10
10.1067593788
 20
9.9547727759
 30
0.0
 10
10.094447398
 20
9.9518005672
 30
0.0
 10
10.0816791625
 20
9.9489598537
 30
0.0
 10
10.0684756664
 20
9.9462553568
 30
0.0
 10
10.0548586306
 20
9.9436915671
 30
0.0
 10
10.0408504785
 20
9.9412727189
 30
0.0
 10
10.0264742525
 20
9.9390028013
 30
0.0
 10
10.0066566238
 20
9.9361526359
 30
0.0
 10
9.9811382477
 20
9.9330008488
 30
0.0
 10
9.9497260485
 20
9.9299004012
 30
0.0
 10
9.917443357
 20
9.927467205
 30
0.0
 10
9.884502802
 20
9.9257174873
 30
0.0
 10
9.8511211802
 20
9.9246629806
 30
0.0
 10
9.8175182988
 20
9.9243107105
 30
0.0
 10
9.7839154269
 20
9.9246630316
 30
0.0
 10
9.7505338321
 20
9.9257176071
 30
0.0
 10
9.7175933207
 20
9.9274673733
 30
0.0
 10
9.6853106912
 20
9.9299006189
 30
0.0
 10
9.653898572
 20
9.9330011351
 30
0.0
 10
9.6283802728
 20
9.9361529485
 30
0.0
 10
9.6085627129
 20
9.9390031631
 30
0.0
 10
9.5941865425
 20
9.9412730936
 30
0.0
 10
9.5801784521
 20
9.9436919662
 30
0.0
 10
9.5665614834
 20
9.9462557899
 30
0.0
 10
9.5533580534
 20
9.9489602982
 30
0.0
 10
9.5405898897
 20
9.9518010324
 30
0.0
 10
9.5282779875
 20
9.9547732743
 30
0.0
 10
9.5164425757
 20
9.957872084
 30
0.0
 10
9.5051030931
 20
9.9610923494
 30
0.0
 10
9.4942781335
 20
9.9644287294
 30
0.0
 10
9.4839854152
 20
9.9678756857
 30
0.0
 10
9.4742417638
 20
9.9714275469
 30
0.0
 10
9.4650630535
 20
9.9750784542
 30
0.0
 10
9.4564641718
 20
9.9788223952
 30
0.0
 10
9.4484590191
 20
9.9826532878
 30
0.0
 10
9.4410604251
 20
9.98656496
 30
0.0
 10
9.4342801823
 20
9.9905511415
 30
0.0
 10
9.4281288449
 20
9.9946058123
 30
0.0
 10
9.422616471
 20
9.998722531
 30
0.0
 10
9.4192562349
 20
10.0016048921
 30
0.0
 10
9.4176953061
 20
10.0030574905
 30
0.0
  0
SPLINE
  5
354
100
AcDbEntity
  8
0
100
AcDbSpline
 62
7
  6
CONTINUOUS
 70
0
 71
3
 72
11
 73
7
 74
0
 42
0.0000001
 43
0.0000001
 44
0.0000000001
 40
0.0
 40
0.0
 40
0.0
 40
0.0
 40
0.2551236994
 40
0.5058838785
 40
0.7536881403
 40
1.0
 40
1.0
 40
1.0
 40
1.0
 10
9.4438304796
 20
9.9850931176
 30
0.0
 10
9.4436144172
 20
9.985760178
 30
0.0
 10
9.4432340524
 20
9.9870991016
 30
0.0
 10
9.4428220604
 20
9.9891312267
 30
0.0
 10
9.4425747183
 20
9.991165549
 30
0.0
 10
9.4425196682
 20
9.9925241994
 30
0.0
 10
9.4425196629
 20
9.9932011603
 30
0.0
  0
SPLINE
  5
355
100
AcDbEntity
  8
0
100
AcDbSpline
 62
7
  6
CONTINUOUS
 70
0
 71
3
 72
17
 73
13
 74
0
 42
0.0000001
 43
0.0000001
 44
0.0000000001
 40
0.0
 40
0.0
 40
0.0
 40
0.0
 40
0.0548647409
 40
0.1099334006
 40
0.1654074856
 40
0.2214837901
 40
0.3361456859
 40
0.4553801965
 40
0.5804212901
 40
0.7123203437
 40
0.8519511008
 40
1.0
 40
1.0
 40
1.0
 40
1.0
 10
10.4125196532
 20
10.0472933883
 30
0.0
 10
10.412519657
 20
10.0464530746
 30
0.0
 10
10.4124663283
 20
10.0447688383
 30
0.0
 10
10.4122265557
 20
10.0422452388
 30
0.0
 10
10.4118269834
 20
10.0397230333
 30
0.0
 10
10.4110761024
 20
10.0363388287
 30
0.0
 10
10.4097233053
 20
10.0320970813
 30
0.0
 10
10.4074742338
 20
10.0270695172
 30
0.0
 10
10.4045923979
 20
10.0220699497
 30
0.0
 10
10.4010825999
 20
10.0171032874
 30
0.0
 10
10.3969500255
 20
10.0121738197
 30
0.0
 10
10.3938764905
 20
10.0090109937
 30
0.0
 10
10.3922455583
 20
10.007435634
 30
0.0
  0
SPLINE
  5
356
100
AcDbEntity
  8
0
100
AcDbSpline
 62
7
  6
CONTINUOUS
 70
0
 71
3
 72
59
 73
55
 74
0
 42
0.0000001
 43
0.0000001
 44
0.0000000001
 40
0.0
 40
0.0
 40
0.0
 40
0.0
 40
0.0077405201
 40
0.0160541808
 40
0.0249603281
 40
0.0344717875
 40
0.0445950686
 40
0.0553319101
 40
0.0666801359
 40
0.0786341388
 40
0.0911853893
 40
0.1043228969
 40
0.1180334468
 40
0.1323018283
 40
0.1471111186
 40
0.1624427966
 40
0.1782768624
 40
0.1945920384
 40
0.2113658349
 40
0.2285746203
 40
0.246193781
 40
0.2641977689
 40
0.3012529955
 40
0.3395209141
 40
0.3787710432
 40
0.4187648303
 40
0.4592577177
 40
0.5000011422
 40
0.5407445567
 40
0.5812374106
 40
0.621231151
 40
0.6604812121
 40
0.6987490335
 40
0.7358041614
 40
0.7538080795
 40
0.7714271868
 40
0.7886359039
 40
0.8054096161
 40
0.8217247281
 40
0.8375587158
 40
0.8528902968
 40
0.8676995135
 40
0.8819678093
 40
0.8956782518
 40
0.9088156778
 40
0.9213668381
 40
0.9333207259
 40
0.9446688636
 40
0.9554056189
 40
0.9655287728
 40
0.9750401344
 40
0.9839462773
 40
0.9922596651
 40
1.0
 40
1.0
 40
1.0
 40
1.0
 10
12.1192515582
 20
9.8711591441
 30
0.0
 10
12.117690562
 20
9.8697065432
 30
0.0
 10
12.1143302227
 20
9.8668241109
 30
0.0
 10
12.1088177002
 20
9.862707375
 30
0.0
 10
12.1026662347
 20
9.8586527129
 30
0.0
 10
12.0958859158
 20
9.8546665358
 30
0.0
 10
12.0884872107
 20
9.85075489
 30
0.0
 10
12.0804819624
 20
9.8469240058
 30
0.0
 10
12.0718829917
 20
9.843180069
 30
0.0
 10
12.0627041821
 20
9.8395291926
 30
0.0
 10
12.0529604425
 20
9.8359773433
 30
0.0
 10
12.0426676407
 20
9.832530394
 30
0.0
 10
12.0318425919
 20
9.8291940461
 30
0.0
 10
12.0205030284
 20
9.8259737972
 30
0.0
 10
12.0086675411
 20
9.8228749969
 30
0.0
 10
11.9963555603
 20
9.8199027882
 30
0.0
 10
11.9835873248
 20
9.8170620746
 30
0.0
 10
11.9703838287
 20
9.8143575778
 30
0.0
 10
11.9567667929
 20
9.811793788
 30
0.0
 10
11.9427586408
 20
9.8093749399
 30
0.0
 10
11.9283824148
 20
9.8071050223
 30
0.0
 10
11.9085647861
 20
9.8042548569
 30
0.0
 10
11.88304641
 20
9.8011030698
 30
0.0
 10
11.8516342108
 20
9.7980026222
 30
0.0
 10
11.8193515193
 20
9.795569426
 30
0.0
 10
11.7864109643
 20
9.7938197083
 30
0.0
 10
11.7530293425
 20
9.7927652016
 30
0.0
 10
11.7194264611
 20
9.7924129314
 30
0.0
 10
11.6858235892
 20
9.7927652525
 30
0.0
 10
11.6524419944
 20
9.793819828
 30
0.0
 10
11.619501483
 20
9.7955695942
 30
0.0
 10
11.5872188535
 20
9.7980028398
 30
0.0
 10
11.5558067343
 20
9.801103356
 30
0.0
 10
11.5302884351
 20
9.8042551695
 30
0.0
 10
11.5104708752
 20
9.8071053841
 30
0.0
 10
11.4960947048
 20
9.8093753146
 30
0.0
 10
11.4820866144
 20
9.8117941871
 30
0.0
 10
11.4684696457
 20
9.8143580109
 30
0.0
 10
11.4552662157
 20
9.8170625192
 30
0.0
 10
11.442498052
 20
9.8199032534
 30
0.0
 10
11.4301861498
 20
9.8228754952
 30
0.0
 10
11.418350738
 20
9.8259743049
 30
0.0
 10
11.4070112554
 20
9.8291945703
 30
0.0
 10
11.3961862958
 20
9.8325309503
 30
0.0
 10
11.3858935775
 20
9.8359779066
 30
0.0
 10
11.3761499261
 20
9.8395297678
 30
0.0
 10
11.3669712158
 20
9.8431806751
 30
0.0
 10
11.3583723341
 20
9.8469246162
 30
0.0
 10
11.3503671814
 20
9.8507555088
 30
0.0
 10
11.3429685874
 20
9.8546671809
 30
0.0
 10
11.3361883446
 20
9.8586533624
 30
0.0
 10
11.3300370072
 20
9.8627080332
 30
0.0
 10
11.3245246333
 20
9.8668247519
 30
0.0
 10
11.3211643972
 20
9.869707113
 30
0.0
 10
11.3196034684
 20
9.8711597114
 30
0.0
  0
SPLINE
  5
357
100
AcDbEntity
  8
0
100
AcDbSpline
 62
7
  6
CONTINUOUS
 70
0
 71
3
 72
11
 73
7
 74
0
 42
0.0000001
 43
0.0000001
 44
0.0000000001
 40
0.0
 40
0.0
 40
0.0
 40
0.0
 40
0.2551236994
 40
0.5058838785
 40
0.7536881403
 40
1.0
 40
1.0
 40
1.0
 40
1.0
 10
11.3457386419
 20
9.8531953385
 30
0.0
 10
11.3455225795
 20
9.8538623989
 30
0.0
 10
11.3451422147
 20
9.8552013225
 30
0.0
 10
11.3447302227
 20
9.8572334477
 30
0.0
 10
11.3444828806
 20
9.8592677699
 30
0.0
 10
11.3444278305
 20
9.8606264203
 30
0.0
 10
11.3444278252
 20
9.8613033813
 30
0.0
  0
SPLINE
  5
358
100
AcDbEntity
  8
0
100
AcDbSpline
 62
7
  6
CONTINUOUS
 70
0
 71
3
 72
17
 73
13
 74
0
 42
0.0000001
 43
0.0000001
 44
0.0000000001
 40
0.0
 40
0.0
 40
0.0
 40
0.0
 40
0.0548647409
 40
0.1099334006
 40
0.1654074856
 40
0.2214837901
 40
0.3361456859
 40
0.4553801965
 40
0.5804212901
 40
0.7123203437
 40
0.8519511008
 40
1.0
 40
1.0
 40
1.0
 40
1.0
 10
12.3144278155
 20
9.9153956092
 30
0.0
 10
12.3144278193
 20
9.9145552955
 30
0.0
 10
12.3143744906
 20
9.9128710593
 30
0.0
 10
12.314134718
 20
9.9103474597
 30
0.0
 10
12.3137351457
 20
9.9078252543
 30
0.0
 10
12.3129842647
 20
9.9044410496
 30
0.0
 10
12.3116314676
 20
9.9001993022
 30
0.0
 10
12.3093823961
 20
9.8951717382
 30
0.0
 10
12.3065005602
 20
9.8901721707
 30
0.0
 10
12.3029907622
 20
9.8852055084
 30
0.0
 10
12.2988581878
 20
9.8802760407
 30
0.0
 10
12.2957846528
 20
9.8771132146
 30
0.0
 10
12.2941537206
 20
9.8755378549
 30
0.0
  0
SPLINE
  5
359
100
AcDbEntity
  8
0
100
AcDbSpline
 62
7
  6
CONTINUOUS
 70
0
 71
3
 72
41
 73
37
 74
0
 42
0.0000001
 43
0.0000001
 44
0.0000000001
 40
0.0
 40
0.0
 40
0.0
 40
0.0
 40
0.029942123
 40
0.0449237706
 40
0.0599145177
 40
0.0899291716
 40
0.1200145961
 40
0.1350933574
 40
0.1501974726
 40
0.1804849654
 40
0.2108989488
 40
0.2414525624
 40
0.2721557217
 40
0.3030149378
 40
0.3340332219
 40
0.3652100719
 40
0.3965415365
 40
0.4280203507
 40
0.4596361361
 40
0.4913756582
 40
0.5232231336
 40
0.5551605782
 40
0.5871681905
 40
0.6192247616
 40
0.6513081064
 40
0.6833955071
 40
0.7154641657
 40
0.7474916563
 40
0.7794563734
 40
0.811337967
 40
0.843117763
 40
0.8747791516
 40
0.9063079641
 40
0.9376927517
 40
0.9689251728
 40
1.0
 40
1.0
 40
1.0
 40
1.0
 10
9.227665816
 20
7.5208597672
 30
0.0
 10
9.2305192368
 20
7.523615979
 30
0.0
 10
9.2349675247
 20
7.5275833309
 30
0.0
 10
9.2411972834
 20
7.5325059398
 30
0.0
 10
9.247625444
 20
7.5371835817
 30
0.0
 10
9.2560131329
 20
7.5425550574
 30
0.0
 10
9.2648086598
 20
7.5472535393
 30
0.0
 10
9.2720626825
 20
7.5505960818
 30
0.0
 10
9.2794665747
 20
7.5536626584
 30
0.0
 10
9.2889654242
 20
7.5569601412
 30
0.0
 10
9.3006713348
 20
7.5600333243
 30
0.0
 10
9.3126326787
 20
7.5622104727
 30
0.0
 10
9.3247831696
 20
7.5634795697
 30
0.0
 10
9.3370560611
 20
7.5638338439
 30
0.0
 10
9.3493838237
 20
7.5632714916
 30
0.0
 10
9.3616987007
 20
7.5617957615
 30
0.0
 10
9.3739330263
 20
7.559414907
 30
0.0
 10
9.3860196077
 20
7.5561421416
 30
0.0
 10
9.3978920844
 20
7.5519955603
 30
0.0
 10
9.4094852891
 20
7.5469980379
 30
0.0
 10
9.4207355999
 20
7.5411771012
 30
0.0
 10
9.4315812845
 20
7.5345647774
 30
0.0
 10
9.4419628346
 20
7.5271974187
 30
0.0
 10
9.4518232881
 20
7.5191155033
 30
0.0
 10
9.4611085382
 20
7.5103634149
 30
0.0
 10
9.4697676266
 20
7.5009892013
 30
0.0
 10
9.4777530207
 20
7.4910443128
 30
0.0
 10
9.4850208714
 20
7.4805833229
 30
0.0
 10
9.491531252
 20
7.4696636327
 30
0.0
 10
9.4972483761
 20
7.4583451571
 30
0.0
 10
9.5021407917
 20
7.4466900084
 30
0.0
 10
9.5061815569
 20
7.4347621301
 30
0.0
 10
9.5093483804
 20
7.4226270596
 30
0.0
 10
9.5116237614
 20
7.4103511737
 30
0.0
 10
9.5129950627
 20
7.3980027959
 30
0.0
 10
9.5133022119
 20
7.3897441811
 30
0.0
 10
9.5133022119
 20
7.3856268978
 30
0.0
  0
SPLINE
  5
35A
100
AcDbEntity
  8
0
100
AcDbSpline
 62
7
  6
CONTINUOUS
 70
0
 71
3
 72
41
 73
37
 74
0
 42
0.0000001
 43
0.0000001
 44
0.0000000001
 40
0.0
 40
0.0
 40
0.0
 40
0.0
 40
0.029942123
 40
0.0449237706
 40
0.0599145177
 40
0.0899291716
 40
0.1200145961
 40
0.1350933574
 40
0.1501974726
 40
0.1804849654
 40
0.2108989488
 40
0.2414525624
 40
0.2721557217
 40
0.3030149378
 40
0.3340332219
 40
0.3652100719
 40
0.3965415365
 40
0.4280203507
 40
0.4596361361
 40
0.4913756582
 40
0.5232231336
 40
0.5551605782
 40
0.5871681905
 40
0.6192247616
 40
0.6513081064
 40
0.6833955071
 40
0.7154641657
 40
0.7474916563
 40
0.7794563734
 40
0.811337967
 40
0.843117763
 40
0.8747791516
 40
0.9063079641
 40
0.9376927517
 40
0.9689251728
 40
1.0
 40
1.0
 40
1.0
 40
1.0
 10
11.4009992842
 20
7.3701385793
 30
0.0
 10
11.403852705
 20
7.3728947911
 30
0.0
 10
11.408300993
 20
7.376862143
 30
0.0
 10
11.4145307516
 20
7.3817847519
 30
0.0
 10
11.4209589122
 20
7.3864623937
 30
0.0
 10
11.4293466011
 20
7.3918338694
 30
0.0
 10
11.438142128
 20
7.3965323513
 30
0.0
 10
11.4453961507
 20
7.3998748939
 30
0.0
 10
11.4528000429
 20
7.4029414704
 30
0.0
 10
11.4622988924
 20
7.4062389533
 30
0.0
 10
11.474004803
 20
7.4093121363
 30
0.0
 10
11.4859661469
 20
7.4114892847
 30
0.0
 10
11.4981166378
 20
7.4127583818
 30
0.0
 10
11.5103895293
 20
7.4131126559
 30
0.0
 10
11.522717292
 20
7.4125503037
 30
0.0
 10
11.5350321689
 20
7.4110745736
 30
0.0
 10
11.5472664946
 20
7.408693719
 30
0.0
 10
11.5593530759
 20
7.4054209536
 30
0.0
 10
11.5712255526
 20
7.4012743724
 30
0.0
 10
11.5828187573
 20
7.3962768499
 30
0.0
 10
11.5940690681
 20
7.3904559132
 30
0.0
 10
11.6049147528
 20
7.3838435895
 30
0.0
 10
11.6152963028
 20
7.3764762308
 30
0.0
 10
11.6251567564
 20
7.3683943154
 30
0.0
 10
11.6344420064
 20
7.359642227
 30
0.0
 10
11.6431010949
 20
7.3502680133
 30
0.0
 10
11.6510864889
 20
7.3403231248
 30
0.0
 10
11.6583543396
 20
7.329862135
 30
0.0
 10
11.6648647202
 20
7.3189424447
 30
0.0
 10
11.6705818444
 20
7.3076239692
 30
0.0
 10
11.6754742599
 20
7.2959688204
 30
0.0
 10
11.6795150251
 20
7.2840409422
 30
0.0
 10
11.6826818486
 20
7.2719058717
 30
0.0
 10
11.6849572296
 20
7.2596299858
 30
0.0
 10
11.6863285309
 20
7.2472816079
 30
0.0
 10
11.6866356801
 20
7.2390229932
 30
0.0
 10
11.6866356801
 20
7.2349057099
 30
0.0
  0
SPLINE
  5
35B
100
AcDbEntity
  8
0
100
AcDbSpline
 62
7
  6
CONTINUOUS
 70
0
 71
3
 72
71
 73
67
 74
0
 42
0.0000001
 43
0.0000001
 44
0.0000000001
 40
0.0
 40
0.0
 40
0.0
 40
0.0
 40
0.0028080355
 40
0.0056357542
 40
0.008502401
 40
0.0114263688
 40
0.0144248772
 40
0.0175137827
 40
0.0240150392
 40
0.0274548054
 40
0.0310330191
 40
0.0347581091
 40
0.0386372748
 40
0.0426765473
 40
0.0468810218
 40
0.0512548783
 40
0.0558014752
 40
0.0605235373
 40
0.0654231076
 40
0.0757594389
 40
0.0868178486
 40
0.0985982192
 40
0.1110950732
 40
0.1242984976
 40
0.1381948361
 40
0.1527671565
 40
0.1679956356
 40
0.1838579484
 40
0.200329525
 40
0.2173837183
 40
0.2349920403
 40
0.2531243542
 40
0.27174899
 40
0.2908328668
 40
0.3103416682
 40
0.3302399535
 40
0.3504912356
 40
0.3710581206
 40
0.4129844596
 40
0.4557065486
 40
0.4989032271
 40
0.5422486728
 40
0.5854156196
 40
0.6280785467
 40
0.6699168588
 40
0.7106181432
 40
0.7304482922
 40
0.7498824493
 40
0.7688853412
 40
0.7874228693
 40
0.8054622296
 40
0.8229720049
 40
0.8399223178
 40
0.8562850335
 40
0.8720338837
 40
0.8871446467
 40
0.9015954341
 40
0.9153669631
 40
0.9284428459
 40
0.9408100276
 40
0.9524593774
 40
0.9633863643
 40
0.9735918817
 40
0.983083481
 40
0.9918776223
 40
1.0
 40
1.0
 40
1.0
 40
1.0
 10
12.0944278145
 20
9.8613033813
 30
0.0
 10
12.0944278088
 20
9.8620318829
 30
0.0
 10
12.0943639997
 20
9.8634947792
 30
0.0
 10
12.0940773847
 20
9.8656844897
 30
0.0
 10
12.0935999788
 20
9.8678715203
 30
0.0
 10
12.0929323149
 20
9.8700543073
 30
0.0
 10
12.0920749833
 20
9.8722318093
 30
0.0
 10
12.0906559663
 20
9.875176049
 30
0.0
 10
12.0888687467
 20
9.8780587686
 30
0.0
 10
12.0867639967
 20
9.8808657831
 30
0.0
 10
12.0849698499
 20
9.8830006097
 30
0.0
 10
12.0829911537
 20
9.8851237573
 30
0.0
 10
12.0808287483
 20
9.887234489
 30
0.0
 10
12.0784838212
 20
9.8893318058
 30
0.0
 10
12.0759574993
 20
9.8914147038
 30
0.0
 10
12.0732510508
 20
9.89348219
 30
0.0
 10
12.0703658448
 20
9.8955332995
 30
0.0
 10
12.0673032788
 20
9.8975670143
 30
0.0
 10
12.0629066637
 20
9.9003030284
 30
0.0
 10
12.0569664615
 20
9.9036637667
 30
0.0
 10
12.0492801236
 20
9.9075422994
 30
0.0
 10
12.0409283148
 20
9.9113278283
 30
0.0
 10
12.0319277088
 20
9.915012793
 30
0.0
 10
12.0222960766
 20
9.9185898169
 30
0.0
 10
12.0120526241
 20
9.9220516534
 30
0.0
 10
12.0012178401
 20
9.9253912746
 30
0.0
 10
11.9898134788
 20
9.928601907
 30
0.0
 10
11.9778624731
 20
9.9316770129
 30
0.0
 10
11.9653888882
 20
9.9346103132
 30
0.0
 10
11.9524178811
 20
9.9373958437
 30
0.0
 10
11.9389756341
 20
9.9400279369
 30
0.0
 10
11.925089289
 20
9.9425012223
 30
0.0
 10
11.9107869006
 20
9.9448106566
 30
0.0
 10
11.8960973819
 20
9.9469515521
 30
0.0
 10
11.88105043
 20
9.9489195516
 30
0.0
 10
11.8656764756
 20
9.9507106301
 30
0.0
 10
11.8500065894
 20
9.9523211754
 30
0.0
 10
11.828624824
 20
9.9542355918
 30
0.0
 10
11.8013922447
 20
9.9561472902
 30
0.0
 10
11.7682565106
 20
9.9576657
 30
0.0
 10
11.7347260779
 20
9.9584101821
 30
0.0
 10
11.7010720512
 20
9.9583746977
 30
0.0
 10
11.6675663601
 20
9.9575594815
 30
0.0
 10
11.6344797041
 20
9.9559712955
 30
0.0
 10
11.6020795709
 20
9.9536231303
 30
0.0
 10
11.5756450501
 20
9.9510273255
 30
0.0
 10
11.5550441066
 20
9.9485747782
 30
0.0
 10
11.5400598837
 20
9.9465750255
 30
0.0
 10
11.5254385726
 20
9.944403154
 30
0.0
 10
11.5112097068
 20
9.9420635578
 30
0.0
 10
11.497402046
 20
9.9395610187
 30
0.0
 10
11.4840434871
 20
9.9369006267
 30
0.0
 10
11.4711610094
 20
9.9340877877
 30
0.0
 10
11.4587806034
 20
9.9311282468
 30
0.0
 10
11.4469272272
 20
9.9280280364
 30
0.0
 10
11.4356247572
 20
9.9247934558
 30
0.0
 10
11.4248959161
 20
9.9214310896
 30
0.0
 10
11.4147622162
 20
9.9179477856
 30
0.0
 10
11.405243925
 20
9.9143506035
 30
0.0
 10
11.3963600051
 20
9.9106467859
 30
0.0
 10
11.3881280288
 20
9.9068437853
 30
0.0
 10
11.3805641378
 20
9.9029491197
 30
0.0
 10
11.3736831121
 20
9.8989703966
 30
0.0
 10
11.3674978549
 20
9.894914932
 30
0.0
 10
11.3620208022
 20
9.8907905048
 30
0.0
 10
11.3587212455
 20
9.8878875648
 30
0.0
 10
11.3572056135
 20
9.8864235766
 30
0.0
  0
SPLINE
  5
35C
100
AcDbEntity
  8
0
100
AcDbSpline
 62
7
  6
CONTINUOUS
 70
0
 71
3
 72
89
 73
85
 74
0
 42
0.0000001
 43
0.0000001
 44
0.0000000001
 40
0.0
 40
0.0
 40
0.0
 40
0.0
 40
0.0040125533
 40
0.0078523717
 40
0.0115287418
 40
0.0150530435
 40
0.0216971463
 40
0.0248548549
 40
0.0279270327
 40
0.0309353122
 40
0.0339028911
 40
0.0368540184
 40
0.0398133854
 40
0.0428054615
 40
0.0458538479
 40
0.0489807397
 40
0.0522065462
 40
0.0555496073
 40
0.0590261823
 40
0.0626503947
 40
0.0664343977
 40
0.0703885264
 40
0.0745214109
 40
0.0788402697
 40
0.0833509485
 40
0.0880581803
 40
0.0929656887
 40
0.0980762636
 40
0.1033919823
 40
0.1089141521
 40
0.1146435185
 40
0.1205802651
 40
0.1267240517
 40
0.1396287586
 40
0.1533476966
 40
0.1678647632
 40
0.1831592875
 40
0.1992066539
 40
0.2159787906
 40
0.2334445531
 40
0.2515700594
 40
0.2703189789
 40
0.2896527744
 40
0.3095309176
 40
0.3299110797
 40
0.3507493148
 40
0.3720002446
 40
0.3936172239
 40
0.4155524993
 40
0.4377573633
 40
0.460182305
 40
0.5054903707
 40
0.5510713678
 40
0.5965158089
 40
0.6190596373
 40
0.641416762
 40
0.6635372256
 40
0.6853717674
 40
0.7068719814
 40
0.7279904662
 40
0.7486809811
 40
0.7688986061
 40
0.788599913
 40
0.8077431537
 40
0.8262884409
 40
0.8441979478
 40
0.8614361316
 40
0.8779699875
 40
0.8937693569
 40
0.9088072733
 40
0.923060375
 40
0.9365094382
 40
0.942928052
 40
0.949140728
 40
0.9551465281
 40
0.960945024
 40
0.9665362195
 40
0.9719206334
 40
0.9770993961
 40
0.9820742504
 40
0.9868478694
 40
0.9914237469
 40
0.9958061038
 40
1.0
 40
1.0
 40
1.0
 40
1.0
 10
10.2183788992
 20
10.0040385129
 30
0.0
 10
10.2192383434
 20
10.0048686723
 30
0.0
 10
10.2208816843
 20
10.0065339436
 30
0.0
 10
10.2231601583
 20
10.0091042538
 30
0.0
 10
10.2251950695
 20
10.0116896034
 30
0.0
 10
10.2275347399
 20
10.0150863698
 30
0.0
 10
10.2294503198
 20
10.0185821702
 30
0.0
 10
10.2308692506
 20
10.0221478042
 30
0.0
 10
10.231665844
 20
10.024784803
 30
0.0
 10
10.2322114683
 20
10.0274272298
 30
0.0
 10
10.2325055423
 20
10.0300732592
 30
0.0
 10
10.2325475248
 20
10.0327207396
 30
0.0
 10
10.2323374851
 20
10.0353674943
 30
0.0
 10
10.2318756143
 20
10.0380113622
 30
0.0
 10
10.2311626059
 20
10.0406503154
 30
0.0
 10
10.2301993433
 20
10.0432825096
 30
0.0
 10
10.2289868033
 20
10.0459062335
 30
0.0
 10
10.2275262244
 20
10.0485200085
 30
0.0
 10
10.2258187186
 20
10.0511223516
 30
0.0
 10
10.2238656113
 20
10.0537119302
 30
0.0
 10
10.2216682101
 20
10.0562873888
 30
0.0
 10
10.2192278921
 20
10.0588473432
 30
0.0
 10
10.2165462093
 20
10.0613904899
 30
0.0
 10
10.2136247143
 20
10.0639153759
 30
0.0
 10
10.2104651856
 20
10.0664206586
 30
0.0
 10
10.2070694696
 20
10.0689049032
 30
0.0
 10
10.2034395615
 20
10.0713666716
 30
0.0
 10
10.199577628
 20
10.0738045894
 30
0.0
 10
10.1954859195
 20
10.0762171653
 30
0.0
 10
10.1911668878
 20
10.07860304
 30
0.0
 10
10.1866230837
 20
10.08096076
 30
0.0
 10
10.1818572054
 20
10.0832889499
 30
0.0
 10
10.1750992542
 20
10.0864030962
 30
0.0
 10
10.1661077695
 20
10.0902012185
 30
0.0
 10
10.1546508631
 20
10.0945479688
 30
0.0
 10
10.1423837258
 20
10.0987448823
 30
0.0
 10
10.1293356971
 20
10.102781822
 30
0.0
 10
10.1155378174
 20
10.1066490139
 30
0.0
 10
10.1010230844
 20
10.1103370749
 30
0.0
 10
10.0858262604
 20
10.1138370576
 30
0.0
 10
10.0699838015
 20
10.1171404702
 30
0.0
 10
10.0535337467
 20
10.1202392958
 30
0.0
 10
10.0365156196
 20
10.1231260147
 30
0.0
 10
10.0189703302
 20
10.1257936205
 30
0.0
 10
10.0009400767
 20
10.1282356427
 30
0.0
 10
9.9824682398
 20
10.1304461652
 30
0.0
 10
9.963599273
 20
10.1324198309
 30
0.0
 10
9.9443785873
 20
10.1341518591
 30
0.0
 10
9.9248524589
 20
10.1356380442
 30
0.0
 10
9.9050678553
 20
10.136874811
 30
0.0
 10
9.8783167541
 20
10.1381916085
 30
0.0
 10
9.8445833677
 20
10.1391913553
 30
0.0
 10
9.8039804885
 20
10.1393625544
 30
0.0
 10
9.7701638632
 20
10.1386482232
 30
0.0
 10
9.7432810772
 20
10.1375592208
 30
0.0
 10
9.7233506094
 20
10.1364904457
 30
0.0
 10
9.7036469235
 20
10.1351701894
 30
0.0
 10
9.6842174177
 20
10.1336016204
 30
0.0
 10
9.6651088754
 20
10.1317885497
 30
0.0
 10
9.6463672876
 20
10.1297353693
 30
0.0
 10
9.6280377606
 20
10.127447055
 30
0.0
 10
9.6101644021
 20
10.1249291516
 30
0.0
 10
9.592790211
 20
10.12218776
 30
0.0
 10
9.5759569673
 20
10.1192295329
 30
0.0
 10
9.5597051297
 20
10.1160616493
 30
0.0
 10
9.5440737376
 20
10.1126917967
 30
0.0
 10
9.5291003146
 20
10.1091281534
 30
0.0
 10
9.5148207602
 20
10.1053793639
 30
0.0
 10
9.5012692717
 20
10.1014545251
 30
0.0
 10
9.4884781603
 20
10.0973631553
 30
0.0
 10
9.4764780625
 20
10.0931151508
 30
0.0
 10
9.4670189266
 20
10.0893975789
 30
0.0
 10
9.4598770203
 20
10.0863447878
 30
0.0
 10
9.4548194977
 20
10.0840581581
 30
0.0
 10
9.4499802382
 20
10.0817401287
 30
0.0
 10
9.4453621048
 20
10.0793921
 30
0.0
 10
9.4409678517
 20
10.0770154589
 30
0.0
 10
9.4368001067
 20
10.074611599
 30
0.0
 10
9.4328613265
 20
10.072182006
 30
0.0
 10
9.4291538567
 20
10.0697280311
 30
0.0
 10
9.4256798288
 20
10.0672511178
 30
0.0
 10
9.422441278
 20
10.0647526093
 30
0.0
 10
9.4194403117
 20
10.0622341148
 30
0.0
 10
9.4175587017
 20
10.0605055561
 30
0.0
 10
9.4166604159
 20
10.0596378785
 30
0.0
  0
SPLINE
  5
35D
100
AcDbEntity
  8
0
100
AcDbSpline
 62
7
  6
CONTINUOUS
 70
0
 71
3
 72
17
 73
13
 74
0
 42
0.0000001
 43
0.0000001
 44
0.0000000001
 40
0.0
 40
0.0
 40
0.0
 40
0.0
 40
0.0548647409
 40
0.1099334006
 40
0.1654074856
 40
0.2214837901
 40
0.3361456859
 40
0.4553801965
 40
0.5804212901
 40
0.7123203437
 40
0.8519511008
 40
1.0
 40
1.0
 40
1.0
 40
1.0
 10
9.222519662
 20
10.0472926329
 30
0.0
 10
9.2225196582
 20
10.0481329465
 30
0.0
 10
9.2225729868
 20
10.0498171828
 30
0.0
 10
9.2228127594
 20
10.0523407823
 30
0.0
 10
9.2232123318
 20
10.0548629878
 30
0.0
 10
9.2239632128
 20
10.0582471924
 30
0.0
 10
9.2253160098
 20
10.0624889398
 30
0.0
 10
9.2275650813
 20
10.0675165039
 30
0.0
 10
9.2304469172
 20
10.0725160714
 30
0.0
 10
9.2339567152
 20
10.0774827337
 30
0.0
 10
9.2380892896
 20
10.0824122014
 30
0.0
 10
9.2411628246
 20
10.0855750274
 30
0.0
 10
9.2427937569
 20
10.0871503871
 30
0.0
  0
SPLINE
  5
35E
100
AcDbEntity
  8
0
100
AcDbSpline
 62
7
  6
CONTINUOUS
 70
0
 71
3
 72
15
 73
11
 74
0
 42
0.0000001
 43
0.0000001
 44
0.0000000001
 40
0.0
 40
0.0
 40
0.0
 40
0.0
 40
0.1096432854
 40
0.2221776406
 40
0.3384665074
 40
0.4592812587
 40
0.5853006259
 40
0.7171123666
 40
0.8552128051
 40
1.0
 40
1.0
 40
1.0
 40
1.0
 10
9.2232873345
 20
10.0396583876
 30
0.0
 10
9.2235556505
 20
10.0410241264
 30
0.0
 10
9.2242376174
 20
10.0437661962
 30
0.0
 10
9.2256648182
 20
10.0478248612
 30
0.0
 10
9.2275051559
 20
10.0518698342
 30
0.0
 10
9.2297562789
 20
10.0558978911
 30
0.0
 10
9.232416101
 20
10.0599066501
 30
0.0
 10
9.2354823108
 20
10.0638938098
 30
0.0
 10
9.2389523418
 20
10.0678567247
 30
0.0
 10
9.2414717856
 20
10.070418646
 30
0.0
 10
9.2427937569
 20
10.0716955723
 30
0.0
  0
SPLINE
  5
35F
100
AcDbEntity
  8
0
100
AcDbSpline
 62
7
  6
CONTINUOUS
 70
0
 71
3
 72
85
 73
81
 74
0
 42
0.0000001
 43
0.0000001
 44
0.0000000001
 40
0.0
 40
0.0
 40
0.0
 40
0.0
 40
0.0039801755
 40
0.0081241211
 40
0.0124359992
 40
0.0169193694
 40
0.0215772468
 40
0.0264119948
 40
0.0314252716
 40
0.036618263
 40
0.0419916661
 40
0.0475457929
 40
0.0532805805
 40
0.0591955875
 40
0.0715626143
 40
0.0846383153
 40
0.0984096556
 40
0.1128602549
 40
0.1279708112
 40
0.1437194381
 40
0.1600819386
 40
0.1770320333
 40
0.1945415658
 40
0.2125806771
 40
0.2311179593
 40
0.2501205956
 40
0.2695544871
 40
0.2893843733
 40
0.3095739538
 40
0.3300859996
 40
0.3508824608
 40
0.3719245709
 40
0.3931729488
 40
0.4145877017
 40
0.457754079
 40
0.5010989561
 40
0.5442950696
 40
0.5657357599
 40
0.5870173776
 40
0.6080999494
 40
0.6289439925
 40
0.6495106191
 40
0.6697616414
 40
0.689659674
 40
0.709168241
 40
0.7282518859
 40
0.7468762864
 40
0.7650083809
 40
0.7826164962
 40
0.7996704822
 40
0.8161418627
 40
0.8320040043
 40
0.8472323103
 40
0.861804453
 40
0.8757006387
 40
0.8889039295
 40
0.9014006481
 40
0.9073810513
 40
0.9131814645
 40
0.9188013272
 40
0.9242404634
 40
0.9294990094
 40
0.9345775386
 40
0.9394770609
 40
0.9441990652
 40
0.9487456382
 40
0.9531194389
 40
0.9573238773
 40
0.961363122
 40
0.9652422377
 40
0.9689673054
 40
0.9725454842
 40
0.9759852134
 40
0.9824864129
 40
0.9855752855
 40
0.9885737661
 40
0.9914977029
 40
0.9943643139
 40
0.9971920003
 40
1.0
 40
1.0
 40
1.0
 40
1.0
 10
9.2427937569
 20
10.0871503871
 30
0.0
 10
9.243972187
 20
10.0882886633
 30
0.0
 10
9.2464310522
 20
10.0905571699
 30
0.0
 10
9.2503349802
 20
10.0938705029
 30
0.0
 10
9.2545255924
 20
10.0971600822
 30
0.0
 10
9.2590005885
 20
10.1004241357
 30
0.0
 10
9.263757771
 20
10.1036611547
 30
0.0
 10
9.2687948256
 20
10.1068695479
 30
0.0
 10
9.2741092275
 20
10.1100477999
 30
0.0
 10
9.2796983426
 20
10.113194256
 30
0.0
 10
9.2855593521
 20
10.116307389
 30
0.0
 10
9.2916893278
 20
10.1193856236
 30
0.0
 10
9.2980852119
 20
10.1224274316
 30
0.0
 10
9.3070974994
 20
10.1264930158
 30
0.0
 10
9.3190145562
 20
10.1314612312
 30
0.0
 10
9.3341167615
 20
10.1371687608
 30
0.0
 10
9.3501955804
 20
10.1426956047
 30
0.0
 10
9.3672186457
 20
10.1480305473
 30
0.0
 10
9.3851518749
 20
10.1531627472
 30
0.0
 10
9.4039592009
 20
10.1580817564
 30
0.0
 10
9.4236027574
 20
10.1627775552
 30
0.0
 10
9.4440429358
 20
10.1672405811
 30
0.0
 10
9.4652384871
 20
10.1714617434
 30
0.0
 10
9.487146611
 20
10.1754324442
 30
0.0
 10
9.5097230488
 20
10.1791445968
 30
0.0
 10
9.5329221743
 20
10.1825906406
 30
0.0
 10
9.5566970866
 20
10.1857635596
 30
0.0
 10
9.5809997075
 20
10.1886568995
 30
0.0
 10
9.6057808835
 20
10.1912647744
 30
0.0
 10
9.6309904874
 20
10.1935818787
 30
0.0
 10
9.6565775247
 20
10.1956035009
 30
0.0
 10
9.6824902179
 20
10.1973255196
 30
0.0
 10
9.7086761826
 20
10.1987444608
 30
0.0
 10
9.7439765106
 20
10.2002321805
 30
0.0
 10
9.7883946687
 20
10.2013127962
 30
0.0
 10
9.8417920909
 20
10.2013691384
 30
0.0
 10
9.8862353467
 20
10.2003824443
 30
0.0
 10
9.9215753815
 20
10.1989697125
 30
0.0
 10
9.9478053603
 20
10.1976062244
 30
0.0
 10
9.9737716669
 20
10.1959390909
 30
0.0
 10
9.9994218072
 20
10.1939716711
 30
0.0
 10
10.0247038737
 20
10.1917079735
 30
0.0
 10
10.0495667243
 20
10.189152603
 30
0.0
 10
10.0739600667
 20
10.1863107592
 30
0.0
 10
10.0978345647
 20
10.1831882239
 30
0.0
 10
10.1211419374
 20
10.1797913507
 30
0.0
 10
10.1438350604
 20
10.176127051
 30
0.0
 10
10.1658680665
 20
10.172202786
 30
0.0
 10
10.1871964414
 20
10.1680265497
 30
0.0
 10
10.2077771152
 20
10.1636068489
 30
0.0
 10
10.2275685521
 20
10.1589526868
 30
0.0
 10
10.2465308384
 20
10.1540735438
 30
0.0
 10
10.2646257821
 20
10.1489793537
 30
0.0
 10
10.281816976
 20
10.1436804881
 30
0.0
 10
10.2980699838
 20
10.138187721
 30
0.0
 10
10.31335208
 20
10.1325122035
 30
0.0
 10
10.3254235545
 20
10.1275701416
 30
0.0
 10
10.3345622998
 20
10.1235245385
 30
0.0
 10
10.3410541164
 20
10.1204963686
 30
0.0
 10
10.347281171
 20
10.1174311964
 30
0.0
 10
10.3532403689
 20
10.1143305916
 30
0.0
 10
10.3589287068
 20
10.1111960665
 30
0.0
 10
10.3643433482
 20
10.1080292072
 30
0.0
 10
10.3694815957
 20
10.104831597
 30
0.0
 10
10.3743408672
 20
10.1016047754
 30
0.0
 10
10.3789187774
 20
10.0983503876
 30
0.0
 10
10.3832130124
 20
10.0950699513
 30
0.0
 10
10.3872214692
 20
10.0917650964
 30
0.0
 10
10.3909421319
 20
10.0884373814
 30
0.0
 10
10.3943731424
 20
10.0850883226
 30
0.0
 10
10.3975127272
 20
10.0817196288
 30
0.0
 10
10.4003594609
 20
10.0783323665
 30
0.0
 10
10.403699016
 20
10.0738785662
 30
0.0
 10
10.4065348005
 20
10.0693046733
 30
0.0
 10
10.4087863277
 20
10.0646331391
 30
0.0
 10
10.4101466706
 20
10.061178179
 30
0.0
 10
10.4112060728
 20
10.0577148291
 30
0.0
 10
10.4119635482
 20
10.0542447367
 30
0.0
 10
10.412418392
 20
10.0507704076
 30
0.0
 10
10.4125196479
 20
10.048449277
 30
0.0
 10
10.4125196532
 20
10.0472933883
 30
0.0
  0
SPLINE
  5
360
100
AcDbEntity
  8
0
100
AcDbSpline
 62
7
  6
CONTINUOUS
 70
0
 71
3
 72
23
 73
19
 74
0
 42
0.0000001
 43
0.0000001
 44
0.0000000001
 40
0.0
 40
0.0
 40
0.0
 40
0.0
 40
0.0749626819
 40
0.1455691204
 40
0.2121609031
 40
0.2751642031
 40
0.3350994525
 40
0.392584508
 40
0.4483307774
 40
0.5031249976
 40
0.5577994745
 40
0.6131924637
 40
0.6701075145
 40
0.7292794073
 40
0.7913529093
 40
0.8568777123
 40
0.9263086925
 40
1.0
 40
1.0
 40
1.0
 40
1.0
 10
9.4176953061
 20
10.0030574905
 30
0.0
 10
9.4164969219
 20
10.0041727054
 30
0.0
 10
9.4142362328
 20
10.0064116699
 30
0.0
 10
9.4111858365
 20
10.0099047459
 30
0.0
 10
9.4085846664
 20
10.0134255097
 30
0.0
 10
9.4064365807
 20
10.0169708792
 30
0.0
 10
9.4047451453
 20
10.0205377178
 30
0.0
 10
9.403514215
 20
10.0241223959
 30
0.0
 10
9.402747161
 20
10.0277202744
 30
0.0
 10
9.4024468264
 20
10.0313256765
 30
0.0
 10
9.4026142614
 20
10.0349320346
 30
0.0
 10
9.4032489055
 20
10.0385326839
 30
0.0
 10
9.4043483628
 20
10.0421216256
 30
0.0
 10
9.4059092997
 20
10.0456939349
 30
0.0
 10
9.407927979
 20
10.0492457266
 30
0.0
 10
9.4104007952
 20
10.0527738639
 30
0.0
 10
9.4133239205
 20
10.0562750235
 30
0.0
 10
9.4155029524
 20
10.0585198545
 30
0.0
 10
9.4166604159
 20
10.0596378785
 30
0.0
  0
SPLINE
  5
361
100
AcDbEntity
  8
0
100
AcDbSpline
 62
7
  6
CONTINUOUS
 70
0
 71
3
 72
17
 73
13
 74
0
 42
0.0000001
 43
0.0000001
 44
0.0000000001
 40
0.0
 40
0.0
 40
0.0
 40
0.0
 40
0.0548654642
 40
0.1099349219
 40
0.2214349039
 40
0.3360992195
 40
0.4553348124
 40
0.517079118
 40
0.5804139608
 40
0.7123167483
 40
0.8519524535
 40
1.0
 40
1.0
 40
1.0
 40
1.0
 10
9.4425196629
 20
9.9932011603
 30
0.0
 10
9.4425196587
 20
9.9937307644
 30
0.0
 10
9.4425532859
 20
9.9947922806
 30
0.0
 10
9.4427555325
 20
9.9969212748
 30
0.0
 10
9.4432665805
 20
9.9995951057
 30
0.0
 10
9.444282108
 20
10.0027782567
 30
0.0
 10
9.4454497565
 20
10.005388673
 30
0.0
 10
9.4465733444
 20
10.007462975
 30
0.0
 10
9.4478598979
 20
10.0095848844
 30
0.0
 10
9.4497280092
 20
10.0122284921
 30
0.0
 10
9.4523325001
 20
10.01533511
 30
0.0
 10
9.4542695863
 20
10.0173285143
 30
0.0
 10
9.4552974512
 20
10.0183213557
 30
0.0
  0
SPLINE
  5
362
100
AcDbEntity
  8
0
100
AcDbSpline
 62
7
  6
CONTINUOUS
 70
0
 71
3
 72
15
 73
11
 74
0
 42
0.0000001
 43
0.0000001
 44
0.0000000001
 40
0.0
 40
0.0
 40
0.0
 40
0.0
 40
0.1273482789
 40
0.2538606571
 40
0.3795878378
 40
0.5046051156
 40
0.629017439
 40
0.7529533823
 40
0.8765605864
 40
1.0
 40
1.0
 40
1.0
 40
1.0
 10
9.181023708
 20
7.4086704904
 30
0.0
 10
9.181023708
 20
7.4139677032
 30
0.0
 10
9.1815294863
 20
7.4245346814
 30
0.0
 10
9.1838167859
 20
7.4401819095
 30
0.0
 10
9.1876095257
 20
7.4554359893
 30
0.0
 10
9.1928734453
 20
7.4701542586
 30
0.0
 10
9.1995602671
 20
7.4842009864
 30
0.0
 10
9.2076089909
 20
7.4974464818
 30
0.0
 10
9.2169439626
 20
7.5097666335
 30
0.0
 10
9.2239727302
 20
7.5172924958
 30
0.0
 10
9.227665816
 20
7.5208597672
 30
0.0
  0
SPLINE
  5
363
100
AcDbEntity
  8
0
100
AcDbSpline
 62
7
  6
CONTINUOUS
 70
0
 71
3
 72
85
 73
81
 74
0
 42
0.0000001
 43
0.0000001
 44
0.0000000001
 40
0.0
 40
0.0
 40
0.0
 40
0.0
 40
0.0039801755
 40
0.0081241211
 40
0.0124359992
 40
0.0169193694
 40
0.0215772468
 40
0.0264119948
 40
0.0314252716
 40
0.036618263
 40
0.0419916661
 40
0.0475457929
 40
0.0532805805
 40
0.0591955875
 40
0.0715626143
 40
0.0846383153
 40
0.0984096556
 40
0.1128602549
 40
0.1279708112
 40
0.1437194381
 40
0.1600819386
 40
0.1770320333
 40
0.1945415658
 40
0.2125806771
 40
0.2311179593
 40
0.2501205956
 40
0.2695544871
 40
0.2893843733
 40
0.3095739538
 40
0.3300859996
 40
0.3508824608
 40
0.3719245709
 40
0.3931729488
 40
0.4145877017
 40
0.457754079
 40
0.5010989561
 40
0.5442950696
 40
0.5657357599
 40
0.5870173776
 40
0.6080999494
 40
0.6289439925
 40
0.6495106191
 40
0.6697616414
 40
0.689659674
 40
0.709168241
 40
0.7282518859
 40
0.7468762864
 40
0.7650083809
 40
0.7826164962
 40
0.7996704822
 40
0.8161418627
 40
0.8320040043
 40
0.8472323103
 40
0.861804453
 40
0.8757006387
 40
0.8889039295
 40
0.9014006481
 40
0.9073810513
 40
0.9131814645
 40
0.9188013272
 40
0.9242404634
 40
0.9294990094
 40
0.9345775386
 40
0.9394770609
 40
0.9441990652
 40
0.9487456382
 40
0.9531194389
 40
0.9573238773
 40
0.961363122
 40
0.9652422377
 40
0.9689673054
 40
0.9725454842
 40
0.9759852134
 40
0.9824864129
 40
0.9855752855
 40
0.9885737661
 40
0.9914977029
 40
0.9943643139
 40
0.9971920003
 40
1.0
 40
1.0
 40
1.0
 40
1.0
 10
11.1447019192
 20
9.9552526081
 30
0.0
 10
11.1458803493
 20
9.9563908842
 30
0.0
 10
11.1483392145
 20
9.9586593908
 30
0.0
 10
11.1522431425
 20
9.9619727239
 30
0.0
 10
11.1564337547
 20
9.9652623032
 30
0.0
 10
11.1609087508
 20
9.9685263567
 30
0.0
 10
11.1656659333
 20
9.9717633757
 30
0.0
 10
11.1707029879
 20
9.9749717689
 30
0.0
 10
11.1760173898
 20
9.9781500209
 30
0.0
 10
11.1816065049
 20
9.9812964769
 30
0.0
 10
11.1874675144
 20
9.9844096099
 30
0.0
 10
11.1935974901
 20
9.9874878445
 30
0.0
 10
11.1999933742
 20
9.9905296526
 30
0.0
 10
11.2090056617
 20
9.9945952368
 30
0.0
 10
11.2209227185
 20
9.9995634521
 30
0.0
 10
11.2360249238
 20
10.0052709818
 30
0.0
 10
11.2521037427
 20
10.0107978257
 30
0.0
 10
11.269126808
 20
10.0161327682
 30
0.0
 10
11.2870600372
 20
10.0212649682
 30
0.0
 10
11.3058673632
 20
10.0261839774
 30
0.0
 10
11.3255109197
 20
10.0308797761
 30
0.0
 10
11.3459510981
 20
10.0353428021
 30
0.0
 10
11.3671466494
 20
10.0395639643
 30
0.0
 10
11.3890547733
 20
10.0435346652
 30
0.0
 10
11.4116312111
 20
10.0472468177
 30
0.0
 10
11.4348303366
 20
10.0506928616
 30
0.0
 10
11.4586052489
 20
10.0538657805
 30
0.0
 10
11.4829078698
 20
10.0567591204
 30
0.0
 10
11.5076890458
 20
10.0593669953
 30
0.0
 10
11.5328986497
 20
10.0616840997
 30
0.0
 10
11.558485687
 20
10.0637057219
 30
0.0
 10
11.5843983802
 20
10.0654277406
 30
0.0
 10
11.6105843449
 20
10.0668466818
 30
0.0
 10
11.6458846729
 20
10.0683344015
 30
0.0
 10
11.690302831
 20
10.0694150172
 30
0.0
 10
11.7437002532
 20
10.0694713594
 30
0.0
 10
11.788143509
 20
10.0684846652
 30
0.0
 10
11.8234835438
 20
10.0670719334
 30
0.0
 10
11.8497135226
 20
10.0657084454
 30
0.0
 10
11.8756798292
 20
10.0640413119
 30
0.0
 10
11.9013299695
 20
10.062073892
 30
0.0
 10
11.926612036
 20
10.0598101944
 30
0.0
 10
11.9514748866
 20
10.0572548239
 30
0.0
 10
11.975868229
 20
10.0544129801
 30
0.0
 10
11.999742727
 20
10.0512904448
 30
0.0
 10
12.0230500997
 20
10.0478935717
 30
0.0
 10
12.0457432227
 20
10.044229272
 30
0.0
 10
12.0677762288
 20
10.0403050069
 30
0.0
 10
12.0891046037
 20
10.0361287706
 30
0.0
 10
12.1096852775
 20
10.0317090699
 30
0.0
 10
12.1294767144
 20
10.0270549078
 30
0.0
 10
12.1484390007
 20
10.0221757648
 30
0.0
 10
12.1665339444
 20
10.0170815747
 30
0.0
 10
12.1837251383
 20
10.0117827091
 30
0.0
 10
12.1999781461
 20
10.006289942
 30
0.0
 10
12.2152602423
 20
10.0006144245
 30
0.0
 10
12.2273317168
 20
9.9956723625
 30
0.0
 10
12.2364704621
 20
9.9916267594
 30
0.0
 10
12.2429622787
 20
9.9885985895
 30
0.0
 10
12.2491893333
 20
9.9855334174
 30
0.0
 10
12.2551485312
 20
9.9824328125
 30
0.0
 10
12.2608368691
 20
9.9792982875
 30
0.0
 10
12.2662515105
 20
9.9761314282
 30
0.0
 10
12.271389758
 20
9.972933818
 30
0.0
 10
12.2762490295
 20
9.9697069964
 30
0.0
 10
12.2808269397
 20
9.9664526085
 30
0.0
 10
12.2851211747
 20
9.9631721723
 30
0.0
 10
12.2891296315
 20
9.9598673173
 30
0.0
 10
12.2928502942
 20
9.9565396023
 30
0.0
 10
12.2962813047
 20
9.9531905436
 30
0.0
 10
12.2994208895
 20
9.9498218498
 30
0.0
 10
12.3022676232
 20
9.9464345875
 30
0.0
 10
12.3056071783
 20
9.9419807871
 30
0.0
 10
12.3084429628
 20
9.9374068943
 30
0.0
 10
12.31069449
 20
9.93273536
 30
0.0
 10
12.3120548329
 20
9.9292803999
 30
0.0
 10
12.3131142351
 20
9.9258170501
 30
0.0
 10
12.3138717105
 20
9.9223469577
 30
0.0
 10
12.3143265543
 20
9.9188726285
 30
0.0
 10
12.3144278102
 20
9.9165514979
 30
0.0
 10
12.3144278155
 20
9.9153956092
 30
0.0
  0
SPLINE
  5
364
100
AcDbEntity
  8
0
100
AcDbSpline
 62
7
  6
CONTINUOUS
 70
0
 71
3
 72
83
 73
79
 74
0
 42
0.0000001
 43
0.0000001
 44
0.0000000001
 40
0.0
 40
0.0
 40
0.0
 40
0.0
 40
0.0028424983
 40
0.0057430134
 40
0.0087178572
 40
0.0117820342
 40
0.0149491026
 40
0.0182311486
 40
0.0216388476
 40
0.0251814695
 40
0.0288670532
 40
0.0327024553
 40
0.0366934788
 40
0.0408450189
 40
0.0451610809
 40
0.0496449701
 40
0.054299298
 40
0.0591260806
 40
0.0641268385
 40
0.0693025644
 40
0.0746538777
 40
0.0801809816
 40
0.0917611423
 40
0.1040389755
 40
0.1170054865
 40
0.1306480611
 40
0.1449509449
 40
0.1598956381
 40
0.175461216
 40
0.1916245845
 40
0.2083606937
 40
0.2256427111
 40
0.2434421885
 40
0.261729213
 40
0.2804725374
 40
0.299639699
 40
0.3191971261
 40
0.3391102496
 40
0.3593436119
 40
0.3798609669
 40
0.4006253758
 40
0.4215992994
 40
0.4640223894
 40
0.5068223227
 40
0.5496868594
 40
0.5923031534
 40
0.6134213714
 40
0.6343614405
 40
0.6550854028
 40
0.6755558195
 40
0.6957358636
 40
0.7155894154
 40
0.7350811634
 40
0.7541767119
 40
0.7728426783
 40
0.7910467999
 40
0.8087580472
 40
0.8259467513
 40
0.8425847446
 40
0.8586454986
 40
0.8741042852
 40
0.888938365
 40
0.903127214
 40
0.9166527988
 40
0.9294998884
 40
0.9416564566
 40
0.9474733034
 40
0.9531147662
 40
0.9585804708
 40
0.9638704321
 40
0.9689849824
 40
0.973924852
 40
0.9786912169
 40
0.9832857168
 40
0.9877106754
 40
0.9919690032
 40
0.9960641134
 40
1.0
 40
1.0
 40
1.0
 40
1.0
 10
10.4118253354
 20
10.0392755638
 30
0.0
 10
10.4116117636
 20
10.0404187937
 30
0.0
 10
10.4110834886
 20
10.0427115701
 30
0.0
 10
10.4100058849
 20
10.0461154308
 30
0.0
 10
10.4086375182
 20
10.0495111343
 30
0.0
 10
10.4069794163
 20
10.0528966425
 30
0.0
 10
10.405032734
 20
10.0562704651
 30
0.0
 10
10.4027987208
 20
10.0596310889
 30
0.0
 10
10.4002785911
 20
10.0629769916
 30
0.0
 10
10.3974737832
 20
10.0663067775
 30
0.0
 10
10.3943856852
 20
10.0696189398
 30
0.0
 10
10.3910158633
 20
10.0729120299
 30
0.0
 10
10.3873659845
 20
10.0761845955
 30
0.0
 10
10.3834377776
 20
10.0794350917
 30
0.0
 10
10.3792331846
 20
10.082662089
 30
0.0
 10
10.3747541918
 20
10.0858640297
 30
0.0
 10
10.3700029688
 20
10.0890394275
 30
0.0
 10
10.3649818096
 20
10.0921867941
 30
0.0
 10
10.3596931097
 20
10.0953045765
 30
0.0
 10
10.3541394532
 20
10.0983913317
 30
0.0
 10
10.3483234941
 20
10.1014455513
 30
0.0
 10
10.3400945915
 20
10.1055361676
 30
0.0
 10
10.329161203
 20
10.110545594
 30
0.0
 10
10.3152393493
 20
10.1163141134
 30
0.0
 10
10.3003456954
 20
10.1219184752
 30
0.0
 10
10.2845091671
 20
10.1273477029
 30
0.0
 10
10.2677603271
 20
10.1325911647
 30
0.0
 10
10.2501316909
 20
10.13763856
 30
0.0
 10
10.2316575237
 20
10.1424799602
 30
0.0
 10
10.2123737927
 20
10.1471058346
 30
0.0
 10
10.192318082
 20
10.1515070699
 30
0.0
 10
10.1715295206
 20
10.1556750021
 30
0.0
 10
10.1500486956
 20
10.1596014296
 30
0.0
 10
10.127917564
 20
10.163278624
 30
0.0
 10
10.1051793643
 20
10.1666993477
 30
0.0
 10
10.0818785344
 20
10.1698568656
 30
0.0
 10
10.0580606253
 20
10.1727449671
 30
0.0
 10
10.03377221
 20
10.175357976
 30
0.0
 10
10.0090607826
 20
10.1776907565
 30
0.0
 10
9.9839746804
 20
10.1797387141
 30
0.0
 10
9.9585629265
 20
10.181497847
 30
0.0
 10
9.9241835968
 20
10.1834608851
 30
0.0
 10
9.8807621871
 20
10.1851642328
 30
0.0
 10
9.8283575023
 20
10.1860100054
 30
0.0
 10
9.7758681371
 20
10.1856581741
 30
0.0
 10
9.7322680316
 20
10.1843656887
 30
0.0
 10
9.6976614078
 20
10.1827297571
 30
0.0
 10
9.6720183081
 20
10.1812116658
 30
0.0
 10
9.6466598741
 20
10.1794018575
 30
0.0
 10
9.6216356636
 20
10.1773038636
 30
0.0
 10
9.5969946314
 20
10.1749218152
 30
0.0
 10
9.5727849668
 20
10.1722603903
 30
0.0
 10
9.5490540127
 20
10.1693248204
 30
0.0
 10
9.5258481651
 20
10.1661208842
 30
0.0
 10
9.5032127842
 20
10.1626548856
 30
0.0
 10
9.4811921083
 20
10.1589336444
 30
0.0
 10
9.4598291641
 20
10.1549644812
 30
0.0
 10
9.4391656756
 20
10.1507552056
 30
0.0
 10
9.4192419749
 20
10.1463141102
 30
0.0
 10
9.4000969221
 20
10.1416499407
 30
0.0
 10
9.3817678308
 20
10.1367718802
 30
0.0
 10
9.3642903794
 20
10.1316895273
 30
0.0
 10
9.3476985527
 20
10.1264128744
 30
0.0
 10
9.3320244581
 20
10.1209522882
 30
0.0
 10
9.3172985937
 20
10.1153184794
 30
0.0
 10
9.3056758344
 20
10.110419106
 30
0.0
 10
9.2968831749
 20
10.1064123221
 30
0.0
 10
9.2906404529
 20
10.1034150641
 30
0.0
 10
9.2846553164
 20
10.1003828238
 30
0.0
 10
9.2789306354
 20
10.0973170932
 30
0.0
 10
9.2734691933
 20
10.0942193297
 30
0.0
 10
9.2682736415
 20
10.0910910252
 30
0.0
 10
9.2633464756
 20
10.0879337378
 30
0.0
 10
9.2586900835
 20
10.0847489001
 30
0.0
 10
9.2543066421
 20
10.0815380369
 30
0.0
 10
9.2501982504
 20
10.0783025715
 30
0.0
 10
9.2463670907
 20
10.0750442175
 30
0.0
 10
9.2439520212
 20
10.0728143698
 30
0.0
 10
9.2427937569
 20
10.0716955723
 30
0.0
  0
SPLINE
  5
365
100
AcDbEntity
  8
0
100
AcDbSpline
 62
7
  6
CONTINUOUS
 70
0
 71
3
 72
71
 73
67
 74
0
 42
0.0000001
 43
0.0000001
 44
0.0000000001
 40
0.0
 40
0.0
 40
0.0
 40
0.0
 40
0.0028080355
 40
0.0056357542
 40
0.008502401
 40
0.0114263688
 40
0.0144248772
 40
0.0175137827
 40
0.0240150392
 40
0.0274548054
 40
0.0310330191
 40
0.0347581091
 40
0.0386372748
 40
0.0426765473
 40
0.0468810218
 40
0.0512548783
 40
0.0558014752
 40
0.0605235373
 40
0.0654231076
 40
0.0757594389
 40
0.0868178486
 40
0.0985982192
 40
0.1110950732
 40
0.1242984976
 40
0.1381948361
 40
0.1527671565
 40
0.1679956356
 40
0.1838579484
 40
0.200329525
 40
0.2173837183
 40
0.2349920403
 40
0.2531243542
 40
0.27174899
 40
0.2908328668
 40
0.3103416682
 40
0.3302399535
 40
0.3504912356
 40
0.3710581206
 40
0.4129844596
 40
0.4557065486
 40
0.4989032271
 40
0.5422486728
 40
0.5854156196
 40
0.6280785467
 40
0.6699168588
 40
0.7106181432
 40
0.7304482922
 40
0.7498824493
 40
0.7688853412
 40
0.7874228693
 40
0.8054622296
 40
0.8229720049
 40
0.8399223178
 40
0.8562850335
 40
0.8720338837
 40
0.8871446467
 40
0.9015954341
 40
0.9153669631
 40
0.9284428459
 40
0.9408100276
 40
0.9524593774
 40
0.9633863643
 40
0.9735918817
 40
0.983083481
 40
0.9918776223
 40
1.0
 40
1.0
 40
1.0
 40
1.0
 10
10.1925196522
 20
9.9932011603
 30
0.0
 10
10.1925196465
 20
9.993929662
 30
0.0
 10
10.1924558374
 20
9.9953925582
 30
0.0
 10
10.1921692224
 20
9.9975822687
 30
0.0
 10
10.1916918165
 20
9.9997692994
 30
0.0
 10
10.1910241526
 20
10.0019520863
 30
0.0
 10
10.190166821
 20
10.0041295884
 30
0.0
 10
10.188747804
 20
10.007073828
 30
0.0
 10
10.1869605844
 20
10.0099565476
 30
0.0
 10
10.1848558344
 20
10.0127635622
 30
0.0
 10
10.1830616876
 20
10.0148983887
 30
0.0
 10
10.1810829914
 20
10.0170215364
 30
0.0
 10
10.178920586
 20
10.019132268
 30
0.0
 10
10.1765756589
 20
10.0212295849
 30
0.0
 10
10.174049337
 20
10.0233124828
 30
0.0
 10
10.1713428885
 20
10.025379969
 30
0.0
 10
10.1684576825
 20
10.0274310786
 30
0.0
 10
10.1653951165
 20
10.0294647933
 30
0.0
 10
10.1609985014
 20
10.0322008074
 30
0.0
 10
10.1550582992
 20
10.0355615457
 30
0.0
 10
10.1473719613
 20
10.0394400784
 30
0.0
 10
10.1390201525
 20
10.0432256073
 30
0.0
 10
10.1300195465
 20
10.046910572
 30
0.0
 10
10.1203879143
 20
10.050487596
 30
0.0
 10
10.1101444618
 20
10.0539494325
 30
0.0
 10
10.0993096778
 20
10.0572890536
 30
0.0
 10
10.0879053165
 20
10.0604996861
 30
0.0
 10
10.0759543108
 20
10.063574792
 30
0.0
 10
10.0634807259
 20
10.0665080922
 30
0.0
 10
10.0505097188
 20
10.0692936228
 30
0.0
 10
10.0370674718
 20
10.0719257159
 30
0.0
 10
10.0231811267
 20
10.0743990013
 30
0.0
 10
10.0088787383
 20
10.0767084356
 30
0.0
 10
9.9941892196
 20
10.0788493311
 30
0.0
 10
9.9791422677
 20
10.0808173306
 30
0.0
 10
9.9637683133
 20
10.0826084091
 30
0.0
 10
9.9480984271
 20
10.0842189545
 30
0.0
 10
9.9267166617
 20
10.0861333708
 30
0.0
 10
9.8994840824
 20
10.0880450692
 30
0.0
 10
9.8663483483
 20
10.0895634791
 30
0.0
 10
9.8328179156
 20
10.0903079611
 30
0.0
 10
9.7991638889
 20
10.0902724767
 30
0.0
 10
9.7656581978
 20
10.0894572605
 30
0.0
 10
9.7325715418
 20
10.0878690746
 30
0.0
 10
9.7001714086
 20
10.0855209093
 30
0.0
 10
9.6737368878
 20
10.0829251046
 30
0.0
 10
9.6531359443
 20
10.0804725572
 30
0.0
 10
9.6381517214
 20
10.0784728045
 30
0.0
 10
9.6235304103
 20
10.0763009331
 30
0.0
 10
9.6093015445
 20
10.0739613368
 30
0.0
 10
9.5954938837
 20
10.0714587978
 30
0.0
 10
9.5821353248
 20
10.0687984057
 30
0.0
 10
9.5692528471
 20
10.0659855668
 30
0.0
 10
9.5568724411
 20
10.0630260258
 30
0.0
 10
9.5450190649
 20
10.0599258154
 30
0.0
 10
9.5337165949
 20
10.0566912349
 30
0.0
 10
9.5229877538
 20
10.0533288687
 30
0.0
 10
9.5128540539
 20
10.0498455647
 30
0.0
 10
9.5033357627
 20
10.0462483825
 30
0.0
 10
9.4944518428
 20
10.0425445649
 30
0.0
 10
9.4862198665
 20
10.0387415643
 30
0.0
 10
9.4786559755
 20
10.0348468988
 30
0.0
 10
9.4717749498
 20
10.0308681756
 30
0.0
 10
9.4655896926
 20
10.0268127111
 30
0.0
 10
9.4601126399
 20
10.0226882838
 30
0.0
 10
9.4568130832
 20
10.0197853438
 30
0.0
 10
9.4552974512
 20
10.0183213557
 30
0.0
  0
SPLINE
  5
366
100
AcDbEntity
  8
0
100
AcDbSpline
 62
7
  6
CONTINUOUS
 70
0
 71
3
 72
15
 73
11
 74
0
 42
0.0000001
 43
0.0000001
 44
0.0000000001
 40
0.0
 40
0.0
 40
0.0
 40
0.0
 40
0.1273482789
 40
0.2538606571
 40
0.3795878378
 40
0.5046051156
 40
0.629017439
 40
0.7529533823
 40
0.8765605864
 40
1.0
 40
1.0
 40
1.0
 40
1.0
 10
11.3543571762
 20
7.2579493024
 30
0.0
 10
11.3543571762
 20
7.2632465152
 30
0.0
 10
11.3548629545
 20
7.2738134935
 30
0.0
 10
11.3571502541
 20
7.2894607216
 30
0.0
 10
11.3609429939
 20
7.3047148014
 30
0.0
 10
11.3662069136
 20
7.3194330707
 30
0.0
 10
11.3728937353
 20
7.3334797985
 30
0.0
 10
11.3809424591
 20
7.3467252939
 30
0.0
 10
11.3902774308
 20
7.3590454456
 30
0.0
 10
11.3973061984
 20
7.3665713079
 30
0.0
 10
11.4009992842
 20
7.3701385793
 30
0.0
  0
SPLINE
  5
367
100
AcDbEntity
  8
0
100
AcDbSpline
 62
7
  6
CONTINUOUS
 70
0
 71
3
 72
17
 73
13
 74
0
 42
0.0000001
 43
0.0000001
 44
0.0000000001
 40
0.0
 40
0.0
 40
0.0
 40
0.0
 40
0.0548647409
 40
0.1099334006
 40
0.1654074856
 40
0.2214837901
 40
0.3361456859
 40
0.4553801965
 40
0.5804212901
 40
0.7123203437
 40
0.8519511008
 40
1.0
 40
1.0
 40
1.0
 40
1.0
 10
11.1244278243
 20
9.9153948538
 30
0.0
 10
11.1244278205
 20
9.9162351675
 30
0.0
 10
11.1244811491
 20
9.9179194037
 30
0.0
 10
11.1247209217
 20
9.9204430033
 30
0.0
 10
11.1251204941
 20
9.9229652088
 30
0.0
 10
11.1258713751
 20
9.9263494134
 30
0.0
 10
11.1272241721
 20
9.9305911608
 30
0.0
 10
11.1294732436
 20
9.9356187248
 30
0.0
 10
11.1323550795
 20
9.9406182923
 30
0.0
 10
11.1358648775
 20
9.9455849547
 30
0.0
 10
11.1399974519
 20
9.9505144223
 30
0.0
 10
11.1430709869
 20
9.9536772484
 30
0.0
 10
11.1447019192
 20
9.9552526081
 30
0.0
  0
SPLINE
  5
368
100
AcDbEntity
  8
0
100
AcDbSpline
 62
7
  6
CONTINUOUS
 70
0
 71
3
 72
15
 73
11
 74
0
 42
0.0000001
 43
0.0000001
 44
0.0000000001
 40
0.0
 40
0.0
 40
0.0
 40
0.0
 40
0.1096432854
 40
0.2221776406
 40
0.3384665074
 40
0.4592812587
 40
0.5853006259
 40
0.7171123666
 40
0.8552128051
 40
1.0
 40
1.0
 40
1.0
 40
1.0
 10
11.1251954968
 20
9.9077606086
 30
0.0
 10
11.1254638128
 20
9.9091263473
 30
0.0
 10
11.1261457797
 20
9.9118684172
 30
0.0
 10
11.1275729805
 20
9.9159270821
 30
0.0
 10
11.1294133182
 20
9.9199720551
 30
0.0
 10
11.1316644412
 20
9.9240001121
 30
0.0
 10
11.1343242633
 20
9.928008871
 30
0.0
 10
11.1373904731
 20
9.9319960308
 30
0.0
 10
11.1408605041
 20
9.9359589456
 30
0.0
 10
11.1433799479
 20
9.938520867
 30
0.0
 10
11.1447019192
 20
9.9397977932
 30
0.0
  0
SPLINE
  5
369
100
AcDbEntity
  8
0
100
AcDbSpline
 62
7
  6
CONTINUOUS
 70
0
 71
3
 72
23
 73
19
 74
0
 42
0.0000001
 43
0.0000001
 44
0.0000000001
 40
0.0
 40
0.0
 40
0.0
 40
0.0
 40
0.0749626819
 40
0.1455691204
 40
0.2121609031
 40
0.2751642031
 40
0.3350994525
 40
0.392584508
 40
0.4483307774
 40
0.5031249976
 40
0.5577994745
 40
0.6131924637
 40
0.6701075145
 40
0.7292794073
 40
0.7913529093
 40
0.8568777123
 40
0.9263086925
 40
1.0
 40
1.0
 40
1.0
 40
1.0
 10
11.3196034684
 20
9.8711597114
 30
0.0
 10
11.3184050842
 20
9.8722749263
 30
0.0
 10
11.3161443951
 20
9.8745138909
 30
0.0
 10
11.3130939988
 20
9.8780069669
 30
0.0
 10
11.3104928287
 20
9.8815277307
 30
0.0
 10
11.308344743
 20
9.8850731002
 30
0.0
 10
11.3066533076
 20
9.8886399388
 30
0.0
 10
11.3054223773
 20
9.8922246168
 30
0.0
 10
11.3046553233
 20
9.8958224954
 30
0.0
 10
11.3043549887
 20
9.8994278975
 30
0.0
 10
11.3045224237
 20
9.9030342555
 30
0.0
 10
11.3051570678
 20
9.9066349049
 30
0.0
 10
11.3062565251
 20
9.9102238466
 30
0.0
 10
11.307817462
 20
9.9137961559
 30
0.0
 10
11.3098361413
 20
9.9173479475
 30
0.0
 10
11.3123089575
 20
9.9208760849
 30
0.0
 10
11.3152320828
 20
9.9243772444
 30
0.0
 10
11.3174111147
 20
9.9266220755
 30
0.0
 10
11.3185685782
 20
9.9277400995
 30
0.0
  0
SPLINE
  5
36A
100
AcDbEntity
  8
0
100
AcDbSpline
 62
7
  6
CONTINUOUS
 70
0
 71
3
 72
17
 73
13
 74
0
 42
0.0000001
 43
0.0000001
 44
0.0000000001
 40
0.0
 40
0.0
 40
0.0
 40
0.0
 40
0.0548654642
 40
0.1099349219
 40
0.2214349039
 40
0.3360992195
 40
0.4553348124
 40
0.517079118
 40
0.5804139608
 40
0.7123167483
 40
0.8519524535
 40
1.0
 40
1.0
 40
1.0
 40
1.0
 10
11.3444278252
 20
9.8613033813
 30
0.0
 10
11.344427821
 20
9.8618329853
 30
0.0
 10
11.3444614482
 20
9.8628945015
 30
0.0
 10
11.3446636948
 20
9.8650234958
 30
0.0
 10
11.3451747428
 20
9.8676973267
 30
0.0
 10
11.3461902703
 20
9.8708804776
 30
0.0
 10
11.3473579188
 20
9.873490894
 30
0.0
 10
11.3484815067
 20
9.8755651959
 30
0.0
 10
11.3497680602
 20
9.8776871054
 30
0.0
 10
11.3516361715
 20
9.880330713
 30
0.0
 10
11.3542406624
 20
9.883437331
 30
0.0
 10
11.3561777486
 20
9.8854307352
 30
0.0
 10
11.3572056135
 20
9.8864235766
 30
0.0
  0
SPLINE
  5
36B
100
AcDbEntity
  8
0
100
AcDbSpline
 62
7
  6
CONTINUOUS
 70
0
 71
3
 72
41
 73
37
 74
0
 42
0.0000001
 43
0.0000001
 44
0.0000000001
 40
0.0
 40
0.0
 40
0.0
 40
0.0
 40
0.029942123
 40
0.0449237706
 40
0.0599145177
 40
0.0899291716
 40
0.1200145961
 40
0.1350933574
 40
0.1501974726
 40
0.1804849654
 40
0.2108989488
 40
0.2414525624
 40
0.2721557217
 40
0.3030149378
 40
0.3340332219
 40
0.3652100719
 40
0.3965415365
 40
0.4280203507
 40
0.4596361361
 40
0.4913756582
 40
0.5232231336
 40
0.5551605782
 40
0.5871681905
 40
0.6192247616
 40
0.6513081064
 40
0.6833955071
 40
0.7154641657
 40
0.7474916563
 40
0.7794563734
 40
0.811337967
 40
0.843117763
 40
0.8747791516
 40
0.9063079641
 40
0.9376927517
 40
0.9689251728
 40
1.0
 40
1.0
 40
1.0
 40
1.0
 10
9.4666601038
 20
7.273437621
 30
0.0
 10
9.463806683
 20
7.2706814092
 30
0.0
 10
9.4593583951
 20
7.2667140573
 30
0.0
 10
9.4531286365
 20
7.2617914484
 30
0.0
 10
9.4467004759
 20
7.2571138065
 30
0.0
 10
9.438312787
 20
7.2517423308
 30
0.0
 10
9.4295172601
 20
7.2470438489
 30
0.0
 10
9.4222632373
 20
7.2437013064
 30
0.0
 10
9.4148593452
 20
7.2406347298
 30
0.0
 10
9.4053604956
 20
7.237337247
 30
0.0
 10
9.3936545851
 20
7.2342640639
 30
0.0
 10
9.3816932412
 20
7.2320869155
 30
0.0
 10
9.3695427503
 20
7.2308178185
 30
0.0
 10
9.3572698587
 20
7.2304635443
 30
0.0
 10
9.3449420961
 20
7.2310258966
 30
0.0
 10
9.3326272192
 20
7.2325016267
 30
0.0
 10
9.3203928935
 20
7.2348824812
 30
0.0
 10
9.3083063121
 20
7.2381552466
 30
0.0
 10
9.2964338354
 20
7.2423018279
 30
0.0
 10
9.2848406307
 20
7.2472993503
 30
0.0
 10
9.2735903199
 20
7.253120287
 30
0.0
 10
9.2627446353
 20
7.2597326108
 30
0.0
 10
9.2523630852
 20
7.2670999695
 30
0.0
 10
9.2425026317
 20
7.2751818849
 30
0.0
 10
9.2332173816
 20
7.2839339733
 30
0.0
 10
9.2245582932
 20
7.2933081869
 30
0.0
 10
9.2165728992
 20
7.3032530754
 30
0.0
 10
9.2093050485
 20
7.3137140653
 30
0.0
 10
9.2027946679
 20
7.3246337555
 30
0.0
 10
9.1970775437
 20
7.335952231
 30
0.0
 10
9.1921851281
 20
7.3476073798
 30
0.0
 10
9.1881443629
 20
7.359535258
 30
0.0
 10
9.1849775395
 20
7.3716703286
 30
0.0
 10
9.1827021585
 20
7.3839462145
 30
0.0
 10
9.1813308571
 20
7.3962945923
 30
0.0
 10
9.181023708
 20
7.4045532071
 30
0.0
 10
9.181023708
 20
7.4086704904
 30
0.0
  0
SPLINE
  5
36C
100
AcDbEntity
  8
0
100
AcDbSpline
 62
7
  6
CONTINUOUS
 70
0
 71
3
 72
41
 73
37
 74
0
 42
0.0000001
 43
0.0000001
 44
0.0000000001
 40
0.0
 40
0.0
 40
0.0
 40
0.0
 40
0.029942123
 40
0.0449237706
 40
0.0599145177
 40
0.0899291716
 40
0.1200145961
 40
0.1350933574
 40
0.1501974726
 40
0.1804849654
 40
0.2108989488
 40
0.2414525624
 40
0.2721557217
 40
0.3030149378
 40
0.3340332219
 40
0.3652100719
 40
0.3965415365
 40
0.4280203507
 40
0.4596361361
 40
0.4913756582
 40
0.5232231336
 40
0.5551605782
 40
0.5871681905
 40
0.6192247616
 40
0.6513081064
 40
0.6833955071
 40
0.7154641657
 40
0.7474916563
 40
0.7794563734
 40
0.811337967
 40
0.843117763
 40
0.8747791516
 40
0.9063079641
 40
0.9376927517
 40
0.9689251728
 40
1.0
 40
1.0
 40
1.0
 40
1.0
 10
11.6399935721
 20
7.122716433
 30
0.0
 10
11.6371401512
 20
7.1199602213
 30
0.0
 10
11.6326918633
 20
7.1159928694
 30
0.0
 10
11.6264621047
 20
7.1110702604
 30
0.0
 10
11.6200339441
 20
7.1063926186
 30
0.0
 10
11.6116462552
 20
7.1010211429
 30
0.0
 10
11.6028507283
 20
7.096322661
 30
0.0
 10
11.5955967055
 20
7.0929801185
 30
0.0
 10
11.5881928134
 20
7.0899135419
 30
0.0
 10
11.5786939639
 20
7.086616059
 30
0.0
 10
11.5669880533
 20
7.083542876
 30
0.0
 10
11.5550267094
 20
7.0813657276
 30
0.0
 10
11.5428762185
 20
7.0800966306
 30
0.0
 10
11.530603327
 20
7.0797423564
 30
0.0
 10
11.5182755643
 20
7.0803047086
 30
0.0
 10
11.5059606874
 20
7.0817804388
 30
0.0
 10
11.4937263617
 20
7.0841612933
 30
0.0
 10
11.4816397804
 20
7.0874340587
 30
0.0
 10
11.4697673037
 20
7.0915806399
 30
0.0
 10
11.4581740989
 20
7.0965781624
 30
0.0
 10
11.4469237881
 20
7.1023990991
 30
0.0
 10
11.4360781035
 20
7.1090114229
 30
0.0
 10
11.4256965535
 20
7.1163787816
 30
0.0
 10
11.4158360999
 20
7.124460697
 30
0.0
 10
11.4065508499
 20
7.1332127853
 30
0.0
 10
11.3978917614
 20
7.142586999
 30
0.0
 10
11.3899063674
 20
7.1525318875
 30
0.0
 10
11.3826385167
 20
7.1629928773
 30
0.0
 10
11.3761281361
 20
7.1739125676
 30
0.0
 10
11.3704110119
 20
7.1852310431
 30
0.0
 10
11.3655185964
 20
7.1968861919
 30
0.0
 10
11.3614778312
 20
7.2088140701
 30
0.0
 10
11.3583110077
 20
7.2209491406
 30
0.0
 10
11.3560356267
 20
7.2332250265
 30
0.0
 10
11.3546643254
 20
7.2455734044
 30
0.0
 10
11.3543571762
 20
7.2538320191
 30
0.0
 10
11.3543571762
 20
7.2579493024
 30
0.0
  0
SPLINE
  5
36D
100
AcDbEntity
  8
0
100
AcDbSpline
 62
7
  6
CONTINUOUS
 70
0
 71
3
 72
89
 73
85
 74
0
 42
0.0000001
 43
0.0000001
 44
0.0000000001
 40
0.0
 40
0.0
 40
0.0
 40
0.0
 40
0.0040125533
 40
0.0078523717
 40
0.0115287418
 40
0.0150530435
 40
0.0216971463
 40
0.0248548549
 40
0.0279270327
 40
0.0309353122
 40
0.0339028911
 40
0.0368540184
 40
0.0398133854
 40
0.0428054615
 40
0.0458538479
 40
0.0489807397
 40
0.0522065462
 40
0.0555496073
 40
0.0590261823
 40
0.0626503947
 40
0.0664343977
 40
0.0703885264
 40
0.0745214109
 40
0.0788402697
 40
0.0833509485
 40
0.0880581803
 40
0.0929656887
 40
0.0980762636
 40
0.1033919823
 40
0.1089141521
 40
0.1146435185
 40
0.1205802651
 40
0.1267240517
 40
0.1396287586
 40
0.1533476966
 40
0.1678647632
 40
0.1831592875
 40
0.1992066539
 40
0.2159787906
 40
0.2334445531
 40
0.2515700594
 40
0.2703189789
 40
0.2896527744
 40
0.3095309176
 40
0.3299110797
 40
0.3507493148
 40
0.3720002446
 40
0.3936172239
 40
0.4155524993
 40
0.4377573633
 40
0.460182305
 40
0.5054903707
 40
0.5510713678
 40
0.5965158089
 40
0.6190596373
 40
0.641416762
 40
0.6635372256
 40
0.6853717674
 40
0.7068719814
 40
0.7279904662
 40
0.7486809811
 40
0.7688986061
 40
0.788599913
 40
0.8077431537
 40
0.8262884409
 40
0.8441979478
 40
0.8614361316
 40
0.8779699875
 40
0.8937693569
 40
0.9088072733
 40
0.923060375
 40
0.9365094382
 40
0.942928052
 40
0.949140728
 40
0.9551465281
 40
0.960945024
 40
0.9665362195
 40
0.9719206334
 40
0.9770993961
 40
0.9820742504
 40
0.9868478694
 40
0.9914237469
 40
0.9958061038
 40
1.0
 40
1.0
 40
1.0
 40
1.0
 10
12.1202870615
 20
9.8721407338
 30
0.0
 10
12.1211465057
 20
9.8729708932
 30
0.0
 10
12.1227898466
 20
9.8746361646
 30
0.0
 10
12.1250683206
 20
9.8772064748
 30
0.0
 10
12.1271032318
 20
9.8797918243
 30
0.0
 10
12.1294429022
 20
9.8831885908
 30
0.0
 10
12.1313584821
 20
9.8866843911
 30
0.0
 10
12.1327774129
 20
9.8902500251
 30
0.0
 10
12.1335740063
 20
9.892887024
 30
0.0
 10
12.1341196306
 20
9.8955294508
 30
0.0
 10
12.1344137046
 20
9.8981754802
 30
0.0
 10
12.1344556871
 20
9.9008229606
 30
0.0
 10
12.1342456474
 20
9.9034697153
 30
0.0
 10
12.1337837766
 20
9.9061135831
 30
0.0
 10
12.1330707682
 20
9.9087525364
 30
0.0
 10
12.1321075056
 20
9.9113847305
 30
0.0
 10
12.1308949656
 20
9.9140084544
 30
0.0
 10
12.1294343867
 20
9.9166222294
 30
0.0
 10
12.1277268809
 20
9.9192245726
 30
0.0
 10
12.1257737736
 20
9.9218141512
 30
0.0
 10
12.1235763724
 20
9.9243896097
 30
0.0
 10
12.1211360544
 20
9.9269495641
 30
0.0
 10
12.1184543716
 20
9.9294927109
 30
0.0
 10
12.1155328766
 20
9.9320175968
 30
0.0
 10
12.1123733479
 20
9.9345228795
 30
0.0
 10
12.1089776319
 20
9.9370071242
 30
0.0
 10
12.1053477238
 20
9.9394688925
 30
0.0
 10
12.1014857903
 20
9.9419068104
 30
0.0
 10
12.0973940818
 20
9.9443193863
 30
0.0
 10
12.0930750501
 20
9.9467052609
 30
0.0
 10
12.088531246
 20
9.9490629809
 30
0.0
 10
12.0837653677
 20
9.9513911708
 30
0.0
 10
12.0770074166
 20
9.9545053172
 30
0.0
 10
12.0680159318
 20
9.9583034394
 30
0.0
 10
12.0565590254
 20
9.9626501898
 30
0.0
 10
12.0442918881
 20
9.9668471032
 30
0.0
 10
12.0312438594
 20
9.9708840429
 30
0.0
 10
12.0174459797
 20
9.9747512349
 30
0.0
 10
12.0029312467
 20
9.9784392959
 30
0.0
 10
11.9877344227
 20
9.9819392785
 30
0.0
 10
11.9718919638
 20
9.9852426912
 30
0.0
 10
11.955441909
 20
9.9883415168
 30
0.0
 10
11.9384237819
 20
9.9912282356
 30
0.0
 10
11.9208784925
 20
9.9938958415
 30
0.0
 10
11.902848239
 20
9.9963378636
 30
0.0
 10
11.8843764021
 20
9.9985483862
 30
0.0
 10
11.8655074353
 20
10.0005220519
 30
0.0
 10
11.8462867496
 20
10.0022540801
 30
0.0
 10
11.8267606212
 20
10.0037402651
 30
0.0
 10
11.8069760176
 20
10.004977032
 30
0.0
 10
11.7802249164
 20
10.0062938294
 30
0.0
 10
11.74649153
 20
10.0072935762
 30
0.0
 10
11.7058886508
 20
10.0074647754
 30
0.0
 10
11.6720720255
 20
10.0067504442
 30
0.0
 10
11.6451892395
 20
10.0056614418
 30
0.0
 10
11.6252587717
 20
10.0045926667
 30
0.0
 10
11.6055550858
 20
10.0032724103
 30
0.0
 10
11.58612558
 20
10.0017038413
 30
0.0
 10
11.5670170377
 20
9.9998907706
 30
0.0
 10
11.5482754499
 20
9.9978375903
 30
0.0
 10
11.5299459229
 20
9.995549276
 30
0.0
 10
11.5120725644
 20
9.9930313726
 30
0.0
 10
11.4946983733
 20
9.9902899809
 30
0.0
 10
11.4778651296
 20
9.9873317538
 30
0.0
 10
11.461613292
 20
9.9841638702
 30
0.0
 10
11.4459818999
 20
9.9807940176
 30
0.0
 10
11.4310084769
 20
9.9772303744
 30
0.0
 10
11.4167289225
 20
9.9734815849
 30
0.0
 10
11.403177434
 20
9.9695567461
 30
0.0
 10
11.3903863226
 20
9.9654653762
 30
0.0
 10
11.3783862248
 20
9.9612173718
 30
0.0
 10
11.3689270889
 20
9.9574997999
 30
0.0
 10
11.3617851826
 20
9.9544470087
 30
0.0
 10
11.35672766
 20
9.9521603791
 30
0.0
 10
11.3518884005
 20
9.9498423496
 30
0.0
 10
11.3472702671
 20
9.9474943209
 30
0.0
 10
11.342876014
 20
9.9451176799
 30
0.0
 10
11.338708269
 20
9.94271382
 30
0.0
 10
11.3347694888
 20
9.940284227
 30
0.0
 10
11.331062019
 20
9.9378302521
 30
0.0
 10
11.3275879911
 20
9.9353533388
 30
0.0
 10
11.3243494403
 20
9.9328548303
 30
0.0
 10
11.321348474
 20
9.9303363357
 30
0.0
 10
11.319466864
 20
9.928607777
 30
0.0
 10
11.3185685782
 20
9.9277400995
 30
0.0
  0
SPLINE
  5
36E
100
AcDbEntity
  8
0
100
AcDbSpline
 62
7
  6
CONTINUOUS
 70
0
 71
3
 72
83
 73
79
 74
0
 42
0.0000001
 43
0.0000001
 44
0.0000000001
 40
0.0
 40
0.0
 40
0.0
 40
0.0
 40
0.0028424983
 40
0.0057430134
 40
0.0087178572
 40
0.0117820342
 40
0.0149491026
 40
0.0182311486
 40
0.0216388476
 40
0.0251814695
 40
0.0288670532
 40
0.0327024553
 40
0.0366934788
 40
0.0408450189
 40
0.0451610809
 40
0.0496449701
 40
0.054299298
 40
0.0591260806
 40
0.0641268385
 40
0.0693025644
 40
0.0746538777
 40
0.0801809816
 40
0.0917611423
 40
0.1040389755
 40
0.1170054865
 40
0.1306480611
 40
0.1449509449
 40
0.1598956381
 40
0.175461216
 40
0.1916245845
 40
0.2083606937
 40
0.2256427111
 40
0.2434421885
 40
0.261729213
 40
0.2804725374
 40
0.299639699
 40
0.3191971261
 40
0.3391102496
 40
0.3593436119
 40
0.3798609669
 40
0.4006253758
 40
0.4215992994
 40
0.4640223894
 40
0.5068223227
 40
0.5496868594
 40
0.5923031534
 40
0.6134213714
 40
0.6343614405
 40
0.6550854028
 40
0.6755558195
 40
0.6957358636
 40
0.7155894154
 40
0.7350811634
 40
0.7541767119
 40
0.7728426783
 40
0.7910467999
 40
0.8087580472
 40
0.8259467513
 40
0.8425847446
 40
0.8586454986
 40
0.8741042852
 40
0.888938365
 40
0.903127214
 40
0.9166527988
 40
0.9294998884
 40
0.9416564566
 40
0.9474733034
 40
0.9531147662
 40
0.9585804708
 40
0.9638704321
 40
0.9689849824
 40
0.973924852
 40
0.9786912169
 40
0.9832857168
 40
0.9877106754
 40
0.9919690032
 40
0.9960641134
 40
1.0
 40
1.0
 40
1.0
 40
1.0
 10
12.3137334977
 20
9.9073777847
 30
0.0
 10
12.3135199259
 20
9.9085210147
 30
0.0
 10
12.3129916509
 20
9.9108137911
 30
0.0
 10
12.3119140472
 20
9.9142176517
 30
0.0
 10
12.3105456805
 20
9.9176133553
 30
0.0
 10
12.3088875786
 20
9.9209988634
 30
0.0
 10
12.3069408963
 20
9.9243726861
 30
0.0
 10
12.3047068831
 20
9.9277333099
 30
0.0
 10
12.3021867534
 20
9.9310792126
 30
0.0
 10
12.2993819455
 20
9.9344089985
 30
0.0
 10
12.2962938475
 20
9.9377211607
 30
0.0
 10
12.2929240256
 20
9.9410142509
 30
0.0
 10
12.2892741468
 20
9.9442868165
 30
0.0
 10
12.2853459399
 20
9.9475373126
 30
0.0
 10
12.2811413469
 20
9.9507643099
 30
0.0
 10
12.2766623541
 20
9.9539662506
 30
0.0
 10
12.2719111311
 20
9.9571416485
 30
0.0
 10
12.2668899719
 20
9.960289015
 30
0.0
 10
12.261601272
 20
9.9634067974
 30
0.0
 10
12.2560476155
 20
9.9664935526
 30
0.0
 10
12.2502316564
 20
9.9695477723
 30
0.0
 10
12.2420027538
 20
9.9736383886
 30
0.0
 10
12.2310693653
 20
9.978647815
 30
0.0
 10
12.2171475116
 20
9.9844163344
 30
0.0
 10
12.2022538577
 20
9.9900206961
 30
0.0
 10
12.1864173294
 20
9.9954499239
 30
0.0
 10
12.1696684894
 20
10.0006933857
 30
0.0
 10
12.1520398532
 20
10.0057407809
 30
0.0
 10
12.133565686
 20
10.0105821811
 30
0.0
 10
12.114281955
 20
10.0152080555
 30
0.0
 10
12.0942262443
 20
10.0196092909
 30
0.0
 10
12.0734376829
 20
10.023777223
 30
0.0
 10
12.0519568579
 20
10.0277036506
 30
0.0
 10
12.0298257263
 20
10.0313808449
 30
0.0
 10
12.0070875266
 20
10.0348015687
 30
0.0
 10
11.9837866967
 20
10.0379590866
 30
0.0
 10
11.9599687876
 20
10.0408471881
 30
0.0
 10
11.9356803723
 20
10.0434601969
 30
0.0
 10
11.9109689449
 20
10.0457929774
 30
0.0
 10
11.8858828427
 20
10.047840935
 30
0.0
 10
11.8604710888
 20
10.049600068
 30
0.0
 10
11.8260917591
 20
10.0515631061
 30
0.0
 10
11.7826703494
 20
10.0532664538
 30
0.0
 10
11.7302656646
 20
10.0541122263
 30
0.0
 10
11.6777762994
 20
10.0537603951
 30
0.0
 10
11.6341761939
 20
10.0524679097
 30
0.0
 10
11.5995695701
 20
10.0508319781
 30
0.0
 10
11.5739264704
 20
10.0493138868
 30
0.0
 10
11.5485680364
 20
10.0475040784
 30
0.0
 10
11.5235438259
 20
10.0454060846
 30
0.0
 10
11.4989027937
 20
10.0430240362
 30
0.0
 10
11.4746931291
 20
10.0403626113
 30
0.0
 10
11.450962175
 20
10.0374270414
 30
0.0
 10
11.4277563274
 20
10.0342231052
 30
0.0
 10
11.4051209465
 20
10.0307571066
 30
0.0
 10
11.3831002706
 20
10.0270358654
 30
0.0
 10
11.3617373264
 20
10.0230667022
 30
0.0
 10
11.3410738379
 20
10.0188574266
 30
0.0
 10
11.3211501372
 20
10.0144163312
 30
0.0
 10
11.3020050844
 20
10.0097521616
 30
0.0
 10
11.2836759931
 20
10.0048741011
 30
0.0
 10
11.2661985417
 20
9.9997917482
 30
0.0
 10
11.249606715
 20
9.9945150953
 30
0.0
 10
11.2339326204
 20
9.9890545091
 30
0.0
 10
11.219206756
 20
9.9834207004
 30
0.0
 10
11.2075839967
 20
9.978521327
 30
0.0
 10
11.1987913372
 20
9.9745145431
 30
0.0
 10
11.1925486152
 20
9.9715172851
 30
0.0
 10
11.1865634787
 20
9.9684850448
 30
0.0
 10
11.1808387977
 20
9.9654193142
 30
0.0
 10
11.1753773556
 20
9.9623215506
 30
0.0
 10
11.1701818038
 20
9.9591932462
 30
0.0
 10
11.1652546379
 20
9.9560359587
 30
0.0
 10
11.1605982458
 20
9.952851121
 30
0.0
 10
11.1562148044
 20
9.9496402579
 30
0.0
 10
11.1521064127
 20
9.9464047925
 30
0.0
 10
11.148275253
 20
9.9431464384
 30
0.0
 10
11.1458601835
 20
9.9409165908
 30
0.0
 10
11.1447019192
 20
9.9397977932
 30
0.0
  0
SPLINE
  5
36F
100
AcDbEntity
  8
0
100
AcDbSpline
 62
4
  6
CONTINUOUS
 70
0
 71
3
 72
335
 73
331
 74
0
 42
0.0000001
 43
0.0000001
 44
0.0000000001
 40
0.0
 40
0.0
 40
0.0
 40
0.0
 40
0.015625
 40
0.0234375
 40
0.03125
 40
0.0390625
 40
0.04296875
 40
0.046875
 40
0.05078125
 40
0.0546875
 40
0.056640625
 40
0.05859375
 40
0.060546875
 40
0.0615234375
 40
0.0620117188
 40
0.0625
 40
0.0629882812
 40
0.0634765625
 40
0.064453125
 40
0.06640625
 40
0.068359375
 40
0.0703125
 40
0.07421875
 40
0.078125
 40
0.08203125
 40
0.0859375
 40
0.09375
 40
0.1015625
 40
0.10546875
 40
0.109375
 40
0.11328125
 40
0.1171875
 40
0.119140625
 40
0.12109375
 40
0.123046875
 40
0.1240234375
 40
0.1245117188
 40
0.125
 40
0.1254882812
 40
0.1259765625
 40
0.126953125
 40
0.12890625
 40
0.130859375
 40
0.1328125
 40
0.13671875
 40
0.140625
 40
0.14453125
 40
0.1484375
 40
0.15625
 40
0.1640625
 40
0.16796875
 40
0.171875
 40
0.17578125
 40
0.1796875
 40
0.181640625
 40
0.18359375
 40
0.1845703125
 40
0.185546875
 40
0.1865234375
 40
0.1870117188
 40
0.1875
 40
0.1879882812
 40
0.1884765625
 40
0.189453125
 40
0.1904296875
 40
0.19140625
 40
0.193359375
 40
0.1953125
 40
0.19921875
 40
0.203125
 40
0.20703125
 40
0.2109375
 40
0.21875
 40
0.2265625
 40
0.23046875
 40
0.234375
 40
0.23828125
 40
0.2421875
 40
0.244140625
 40
0.24609375
 40
0.2470703125
 40
0.248046875
 40
0.2490234375
 40
0.2495117188
 40
0.25
 40
0.2504882812
 40
0.2509765625
 40
0.251953125
 40
0.2529296875
 40
0.25390625
 40
0.255859375
 40
0.2578125
 40
0.26171875
 40
0.265625
 40
0.26953125
 40
0.2734375
 40
0.28125
 40
0.2890625
 40
0.29296875
 40
0.296875
 40
0.30078125
 40
0.3046875
 40
0.306640625
 40
0.30859375
 40
0.310546875
 40
0.3115234375
 40
0.3120117188
 40
0.3125
 40
0.3129882812
 40
0.3134765625
 40
0.314453125
 40
0.31640625
 40
0.318359375
 40
0.3203125
 40
0.32421875
 40
0.328125
 40
0.33203125
 40
0.3359375
 40
0.34375
 40
0.3515625
 40
0.35546875
 40
0.359375
 40
0.36328125
 40
0.3671875
 40
0.369140625
 40
0.37109375
 40
0.373046875
 40
0.3740234375
 40
0.3745117188
 40
0.375
 40
0.3754882812
 40
0.3759765625
 40
0.376953125
 40
0.37890625
 40
0.380859375
 40
0.3828125
 40
0.38671875
 40
0.390625
 40
0.39453125
 40
0.3984375
 40
0.40625
 40
0.4140625
 40
0.41796875
 40
0.421875
 40
0.42578125
 40
0.4296875
 40
0.431640625
 40
0.43359375
 40
0.435546875
 40
0.4365234375
 40
0.4370117188
 40
0.4375
 40
0.4379882812
 40
0.4384765625
 40
0.439453125
 40
0.44140625
 40
0.443359375
 40
0.4453125
 40
0.44921875
 40
0.453125
 40
0.45703125
 40
0.4609375
 40
0.46875
 40
0.4765625
 40
0.48046875
 40
0.484375
 40
0.48828125
 40
0.4921875
 40
0.494140625
 40
0.49609375
 40
0.498046875
 40
0.4990234375
 40
0.4995117188
 40
0.5
 40
0.5004882812
 40
0.5009765625
 40
0.501953125
 40
0.50390625
 40
0.505859375
 40
0.5078125
 40
0.51171875
 40
0.515625
 40
0.51953125
 40
0.5234375
 40
0.53125
 40
0.5390625
 40
0.546875
 40
0.55078125
 40
0.5546875
 40
0.556640625
 40
0.55859375
 40
0.560546875
 40
0.5615234375
 40
0.5620117188
 40
0.5625
 40
0.5629882812
 40
0.5634765625
 40
0.564453125
 40
0.56640625
 40
0.568359375
 40
0.5703125
 40
0.57421875
 40
0.578125
 40
0.5859375
 40
0.59375
 40
0.6015625
 40
0.609375
 40
0.61328125
 40
0.6171875
 40
0.619140625
 40
0.62109375
 40
0.623046875
 40
0.6240234375
 40
0.6245117188
 40
0.625
 40
0.6254882812
 40
0.6259765625
 40
0.626953125
 40
0.62890625
 40
0.630859375
 40
0.6328125
 40
0.63671875
 40
0.640625
 40
0.6484375
 40
0.65625
 40
0.6640625
 40
0.671875
 40
0.67578125
 40
0.6796875
 40
0.681640625
 40
0.68359375
 40
0.685546875
 40
0.6865234375
 40
0.6870117188
 40
0.6875
 40
0.6879882812
 40
0.6884765625
 40
0.689453125
 40
0.69140625
 40
0.693359375
 40
0.6953125
 40
0.69921875
 40
0.703125
 40
0.7109375
 40
0.71875
 40
0.7265625
 40
0.734375
 40
0.73828125
 40
0.7421875
 40
0.744140625
 40
0.74609375
 40
0.748046875
 40
0.7490234375
 40
0.7495117188
 40
0.75
 40
0.7504882812
 40
0.7509765625
 40
0.751953125
 40
0.75390625
 40
0.755859375
 40
0.7578125
 40
0.76171875
 40
0.765625
 40
0.7734375
 40
0.78125
 40
0.7890625
 40
0.796875
 40
0.80078125
 40
0.8046875
 40
0.806640625
 40
0.80859375
 40
0.810546875
 40
0.8115234375
 40
0.8120117188
 40
0.8125
 40
0.8129882812
 40
0.8134765625
 40
0.814453125
 40
0.81640625
 40
0.818359375
 40
0.8203125
 40
0.82421875
 40
0.828125
 40
0.8359375
 40
0.84375
 40
0.8515625
 40
0.859375
 40
0.86328125
 40
0.8671875
 40
0.869140625
 40
0.87109375
 40
0.873046875
 40
0.8740234375
 40
0.8745117188
 40
0.875
 40
0.8754882812
 40
0.8759765625
 40
0.876953125
 40
0.87890625
 40
0.880859375
 40
0.8828125
 40
0.88671875
 40
0.890625
 40
0.8984375
 40
0.90625
 40
0.9140625
 40
0.91796875
 40
0.921875
 40
0.92578125
 40
0.9296875
 40
0.931640625
 40
0.93359375
 40
0.935546875
 40
0.9365234375
 40
0.9370117188
 40
0.9375
 40
0.9379882812
 40
0.9384765625
 40
0.939453125
 40
0.94140625
 40
0.943359375
 40
0.9453125
 40
0.94921875
 40
0.953125
 40
0.95703125
 40
0.9609375
 40
0.96875
 40
0.9765625
 40
0.984375
 40
1.0
 40
1.0
 40
1.0
 40
1.0
 10
9.8909794276
 20
7.7063954852
 30
0.0
 10
9.8941126146
 20
7.7064854096
 30
0.0
 10
9.8988123949
 20
7.7066202963
 30
0.0
 10
9.9050787688
 20
7.7068001449
 30
0.0
 10
9.9097785491
 20
7.7069350321
 30
0.0
 10
9.913695033
 20
7.7070474359
 30
0.0
 10
9.9168282193
 20
7.7071373637
 30
0.0
 10
9.9191781115
 20
7.7072047966
 30
0.0
 10
9.9215279941
 20
7.707272279
 30
0.0
 10
9.9234862596
 20
7.7073283603
 30
0.0
 10
9.9250528047
 20
7.7073735701
 30
0.0
 10
9.9262278975
 20
7.7074065356
 30
0.0
 10
9.9272065563
 20
7.7074370028
 30
0.0
 10
9.9278927659
 20
7.7074524504
 30
0.0
 10
9.9282830925
 20
7.7074704578
 30
0.0
 10
9.9285808887
 20
7.7074581028
 30
0.0
 10
9.9288593767
 20
7.7075445997
 30
0.0
 10
9.9292374291
 20
7.7076254482
 30
0.0
 10
9.9298958827
 20
7.7077829983
 30
0.0
 10
9.9308381713
 20
7.7079996708
 30
0.0
 10
9.9319682154
 20
7.708263273
 30
0.0
 10
9.9334751862
 20
7.7086134866
 30
0.0
 10
9.9353588154
 20
7.7090516846
 30
0.0
 10
9.9376192067
 20
7.7095773375
 30
0.0
 10
9.9398795882
 20
7.7101030398
 30
0.0
 10
9.9428934337
 20
7.7108039589
 30
0.0
 10
9.9466607392
 20
7.7116801142
 30
0.0
 10
9.950428046
 20
7.7125562653
 30
0.0
 10
9.9534418894
 20
7.7132571912
 30
0.0
 10
9.955702277
 20
7.7137828732
 30
0.0
 10
9.9579626457
 20
7.7143086024
 30
0.0
 10
9.9598463452
 20
7.7147465629
 30
0.0
 10
9.9613531727
 20
7.7150972609
 30
0.0
 10
9.9624836543
 20
7.7153593838
 30
0.0
 10
9.9634245742
 20
7.7155806845
 30
0.0
 10
9.9640854711
 20
7.7157299725
 30
0.0
 10
9.9644596087
 20
7.7158240589
 30
0.0
 10
9.9647501217
 20
7.7158698933
 30
0.0
 10
9.9650027541
 20
7.7160102601
 30
0.0
 10
9.9653528104
 20
7.7161644418
 30
0.0
 10
9.9659592528
 20
7.716449623
 30
0.0
 10
9.9668288176
 20
7.7168489927
 30
0.0
 10
9.9678709177
 20
7.7173316744
 30
0.0
 10
9.9692608657
 20
7.717974049
 30
0.0
 10
9.9709981356
 20
7.7187774293
 30
0.0
 10
9.9730829303
 20
7.7197413091
 30
0.0
 10
9.975167706
 20
7.7207052361
 30
0.0
 10
9.9779474135
 20
7.7219904556
 30
0.0
 10
9.9814220458
 20
7.7235969855
 30
0.0
 10
9.9848966786
 20
7.7252035139
 30
0.0
 10
9.9876763853
 20
7.7264887359
 30
0.0
 10
9.9897611636
 20
7.7274526556
 30
0.0
 10
9.9918459485
 20
7.7284165628
 30
0.0
 10
9.9935832488
 20
7.7292198577
 30
0.0
 10
9.9949731348
 20
7.7298624065
 30
0.0
 10
9.9958417095
 20
7.7302641979
 30
0.0
 10
9.9965368076
 20
7.7305851765
 30
0.0
 10
9.9970574785
 20
7.7308271551
 30
0.0
 10
9.9974934471
 20
7.7310248447
 30
0.0
 10
9.9978375654
 20
7.7311918761
 30
0.0
 10
9.9981083782
 20
7.7312928859
 30
0.0
 10
9.998330623
 20
7.731486511
 30
0.0
 10
9.9986439148
 20
7.731712326
 30
0.0
 10
9.9990297088
 20
7.7320056945
 30
0.0
 10
9.999495153
 20
7.7323529857
 30
0.0
 10
10.0001148751
 20
7.7328177001
 30
0.0
 10
10.0008898257
 20
7.7333980249
 30
0.0
 10
10.0021295802
 20
7.7343268621
 30
0.0
 10
10.0036793304
 20
7.7354877996
 30
0.0
 10
10.0055390061
 20
7.7368809714
 30
0.0
 10
10.0073986884
 20
7.7382741306
 30
0.0
 10
10.0098782625
 20
7.7401316807
 30
0.0
 10
10.012977731
 20
7.7424536166
 30
0.0
 10
10.0160771988
 20
7.7447755535
 30
0.0
 10
10.018556774
 20
7.746633102
 30
0.0
 10
10.0204164527
 20
7.7480262659
 30
0.0
 10
10.022276142
 20
7.7494194203
 30
0.0
 10
10.0238258502
 20
7.7505804119
 30
0.0
 10
10.0250656902
 20
7.7515091387
 30
0.0
 10
10.0258404232
 20
7.7520897444
 30
0.0
 10
10.0264605919
 20
7.7525538822
 30
0.0
 10
10.0269246718
 20
7.752902935
 30
0.0
 10
10.0273147346
 20
7.753190792
 30
0.0
 10
10.0276193172
 20
7.7534278516
 30
0.0
 10
10.0278681592
 20
7.7535871366
 30
0.0
 10
10.0280391148
 20
7.7538170733
 30
0.0
 10
10.0282942622
 20
7.754098976
 30
0.0
 10
10.0286038621
 20
7.7544598218
 30
0.0
 10
10.0289793774
 20
7.7548892124
 30
0.0
 10
10.0294786689
 20
7.7554629991
 30
0.0
 10
10.0301032611
 20
7.7561797991
 30
0.0
 10
10.0311023416
 20
7.7573269213
 30
0.0
 10
10.0323512838
 20
7.758760741
 30
0.0
 10
10.0338499752
 20
7.7604813602
 30
0.0
 10
10.0353486771
 20
7.7622019699
 30
0.0
 10
10.0373469427
 20
7.7644961195
 30
0.0
 10
10.0398447755
 20
7.7673638056
 30
0.0
 10
10.0423426096
 20
7.7702314908
 30
0.0
 10
10.044340873
 20
7.7725256419
 30
0.0
 10
10.0458395814
 20
7.7742462471
 30
0.0
 10
10.0473382485
 20
7.7759668829
 30
0.0
 10
10.0485872664
 20
7.7774006511
 30
0.0
 10
10.0495861926
 20
7.7785478784
 30
0.0
 10
10.0503361743
 20
7.7794077174
 30
0.0
 10
10.0509586556
 20
7.7801260995
 30
0.0
 10
10.0513993055
 20
7.7806253373
 30
0.0
 10
10.0516434342
 20
7.7809162835
 30
0.0
 10
10.0518481408
 20
7.7811185277
 30
0.0
 10
10.0519702426
 20
7.7813817998
 30
0.0
 10
10.0521618585
 20
7.781711542
 30
0.0
 10
10.0524837615
 20
7.782298509
 30
0.0
 10
10.0529506416
 20
7.783131848
 30
0.0
 10
10.0535078934
 20
7.7841340743
 30
0.0
 10
10.0542519454
 20
7.7854696007
 30
0.0
 10
10.0551816502
 20
7.7871392747
 30
0.0
 10
10.0562974503
 20
7.7891427695
 30
0.0
 10
10.0574132091
 20
7.7911462948
 30
0.0
 10
10.058900902
 20
7.7938176512
 30
0.0
 10
10.0607605127
 20
7.7971568506
 30
0.0
 10
10.0626201272
 20
7.8004960477
 30
0.0
 10
10.064107814
 20
7.8031674078
 30
0.0
 10
10.0652235912
 20
7.8051709219
 30
0.0
 10
10.0663393225
 20
7.8071744584
 30
0.0
 10
10.0672692415
 20
7.8088440028
 30
0.0
 10
10.0680128566
 20
7.8101797936
 30
0.0
 10
10.0685714424
 20
7.8111812122
 30
0.0
 10
10.0690341492
 20
7.8120170783
 30
0.0
 10
10.0693635022
 20
7.812599534
 30
0.0
 10
10.0695431813
 20
7.8129365045
 30
0.0
 10
10.0697019491
 20
7.8131775736
 30
0.0
 10
10.0697689442
 20
7.8134632084
 30
0.0
 10
10.0698902824
 20
7.8138285098
 30
0.0
 10
10.0700877096
 20
7.81447503
 30
0.0
 10
10.070377546
 20
7.8153948437
 30
0.0
 10
10.070722012
 20
7.816500241
 30
0.0
 10
10.071182466
 20
7.8179735378
 30
0.0
 10
10.0717576333
 20
7.8198153531
 30
0.0
 10
10.0724480057
 20
7.8220254482
 30
0.0
 10
10.0731383321
 20
7.8242355655
 30
0.0
 10
10.0740587835
 20
7.8271823808
 30
0.0
 10
10.0752093416
 20
7.8308659029
 30
0.0
 10
10.0763599039
 20
7.8345494232
 30
0.0
 10
10.0772803486
 20
7.8374962413
 30
0.0
 10
10.0779706949
 20
7.8397063502
 30
0.0
 10
10.0786609926
 20
7.8419164769
 30
0.0
 10
10.0792363923
 20
7.8437581938
 30
0.0
 10
10.0796963723
 20
7.8452316912
 30
0.0
 10
10.0800422857
 20
7.8463364759
 30
0.0
 10
10.080327594
 20
7.8472582061
 30
0.0
 10
10.0805331045
 20
7.847901305
 30
0.0
 10
10.0806414912
 20
7.8482720883
 30
0.0
 10
10.0807482694
 20
7.8485408847
 30
0.0
 10
10.0807576186
 20
7.848845196
 30
0.0
 10
10.0808040686
 20
7.8492385565
 30
0.0
 10
10.0808695222
 20
7.8499327091
 30
0.0
 10
10.0809713055
 20
7.8509213381
 30
0.0
 10
10.081089902
 20
7.8521089845
 30
0.0
 10
10.0812492685
 20
7.8536920619
 30
0.0
 10
10.081448052
 20
7.8556710634
 30
0.0
 10
10.0816867741
 20
7.8580457989
 30
0.0
 10
10.0819254476
 20
7.8604205521
 30
0.0
 10
10.0822436959
 20
7.8635868835
 30
0.0
 10
10.0826414999
 20
7.8675448
 30
0.0
 10
10.0830393083
 20
7.8715027157
 30
0.0
 10
10.0833575497
 20
7.8746690483
 30
0.0
 10
10.083596244
 20
7.877043798
 30
0.0
 10
10.0838348878
 20
7.8794185467
 30
0.0
 10
10.0840339151
 20
7.881397507
 30
0.0
 10
10.0841927841
 20
7.8829806685
 30
0.0
 10
10.0843129
 20
7.8841680579
 30
0.0
 10
10.0844099298
 20
7.885157491
 30
0.0
 10
10.0844838691
 20
7.8858502082
 30
0.0
 10
10.0845167228
 20
7.8862458686
 30
0.0
 10
10.0845678355
 20
7.8865431151
 30
0.0
 10
10.0845177572
 20
7.8868384459
 30
0.0
 10
10.0844862827
 20
7.8872328886
 30
0.0
 10
10.0844147569
 20
7.8879228519
 30
0.0
 10
10.084321175
 20
7.8889086765
 30
0.0
 10
10.0842051966
 20
7.8900915964
 30
0.0
 10
10.0840518442
 20
7.8916688473
 30
0.0
 10
10.0838597126
 20
7.8936404025
 30
0.0
 10
10.0836293438
 20
7.8960062723
 30
0.0
 10
10.0833989245
 20
7.8983721412
 30
0.0
 10
10.083091716
 20
7.9015266334
 30
0.0
 10
10.0827077015
 20
7.9054697487
 30
0.0
 10
10.0822468772
 20
7.910201486
 30
0.0
 10
10.0818628854
 20
7.9141446041
 30
0.0
 10
10.081555627
 20
7.9172990902
 30
0.0
 10
10.0813637387
 20
7.919270663
 30
0.0
 10
10.0812098887
 20
7.9208478777
 30
0.0
 10
10.0810954302
 20
7.9220309082
 30
0.0
 10
10.0809970928
 20
7.9230163867
 30
0.0
 10
10.0809340564
 20
7.9237069679
 30
0.0
 10
10.0808889798
 20
7.9241004206
 30
0.0
 10
10.0808806825
 20
7.9243987922
 30
0.0
 10
10.0807748725
 20
7.9246846182
 30
0.0
 10
10.0806678059
 20
7.9250700956
 30
0.0
 10
10.0804645919
 20
7.9257426422
 30
0.0
 10
10.0801825714
 20
7.926704489
 30
0.0
 10
10.0798406005
 20
7.9278582488
 30
0.0
 10
10.079385878
 20
7.9293967547
 30
0.0
 10
10.0788170506
 20
7.9313198324
 30
0.0
 10
10.077907164
 20
7.9343967874
 30
0.0
 10
10.0767697239
 20
7.9382429704
 30
0.0
 10
10.0754048331
 20
7.9428583953
 30
0.0
 10
10.0740399241
 20
7.947473816
 30
0.0
 10
10.0729025294
 20
7.9513200096
 30
0.0
 10
10.0719925519
 20
7.9543969434
 30
0.0
 10
10.0714239556
 20
7.9563200749
 30
0.0
 10
10.0709687588
 20
7.9578584705
 30
0.0
 10
10.0706282368
 20
7.9590125673
 30
0.0
 10
10.0703416831
 20
7.9599733598
 30
0.0
 10
10.0701465617
 20
7.9606477885
 30
0.0
 10
10.0700265287
 20
7.9610302503
 30
0.0
 10
10.0699605473
 20
7.9613253392
 30
0.0
 10
10.0698026604
 20
7.961588921
 30
0.0
 10
10.0696242021
 20
7.9619513535
 30
0.0
 10
10.069296964
 20
7.9625804899
 30
0.0
 10
10.0688372897
 20
7.9634819332
 30
0.0
 10
10.0682823382
 20
7.9645625193
 30
0.0
 10
10.0675435703
 20
7.966003701
 30
0.0
 10
10.0666197107
 20
7.9678050411
 30
0.0
 10
10.0651417587
 20
7.9706872619
 30
0.0
 10
10.0632942416
 20
7.9742900114
 30
0.0
 10
10.0610772563
 20
7.9786133231
 30
0.0
 10
10.0588602536
 20
7.9829366277
 30
0.0
 10
10.05701278
 20
7.9865393949
 30
0.0
 10
10.0555347411
 20
7.9894215802
 30
0.0
 10
10.0546111025
 20
7.9912230104
 30
0.0
 10
10.053871881
 20
7.9926640071
 30
0.0
 10
10.053318315
 20
7.9937451584
 30
0.0
 10
10.0528543058
 20
7.9946448336
 30
0.0
 10
10.0525348063
 20
7.9952771263
 30
0.0
 10
10.0523439488
 20
7.9956345016
 30
0.0
 10
10.0522241485
 20
7.9959136174
 30
0.0
 10
10.0520151203
 20
7.9961503635
 30
0.0
 10
10.0517675398
 20
7.9964808041
 30
0.0
 10
10.0513197727
 20
7.9970521892
 30
0.0
 10
10.0506876868
 20
7.9978720537
 30
0.0
 10
10.0499259387
 20
7.9988543501
 30
0.0
 10
10.048911408
 20
8.0001646169
 30
0.0
 10
10.0476428565
 20
8.0018022661
 30
0.0
 10
10.045613391
 20
8.0044226079
 30
0.0
 10
10.0430764844
 20
8.0076979993
 30
0.0
 10
10.0400322301
 20
8.0116284862
 30
0.0
 10
10.036987961
 20
8.0155589619
 30
0.0
 10
10.0344510915
 20
8.0188343811
 30
0.0
 10
10.0324215519
 20
8.0214546674
 30
0.0
 10
10.0311531888
 20
8.0230924577
 30
0.0
 10
10.0301382713
 20
8.0244024348
 30
0.0
 10
10.0293777048
 20
8.0253856164
 30
0.0
 10
10.0287419222
 20
8.0262027115
 30
0.0
 10
10.0283007543
 20
8.0267790404
 30
0.0
 10
10.0280426002
 20
8.0271015598
 30
0.0
 10
10.0278660508
 20
8.0273626371
 30
0.0
 10
10.0276242654
 20
8.027550369
 30
0.0
 10
10.0273246399
 20
8.0278262618
 30
0.0
 10
10.0267896933
 20
8.0282971544
 30
0.0
 10
10.0260310267
 20
8.0289760899
 30
0.0
 10
10.0251182542
 20
8.0297881451
 30
0.0
 10
10.023902053
 20
8.030871817
 30
0.0
 10
10.0223815177
 20
8.0322260879
 30
0.0
 10
10.0199488198
 20
8.0343930998
 30
0.0
 10
10.0169078928
 20
8.0371018029
 30
0.0
 10
10.0132588051
 20
8.0403522749
 30
0.0
 10
10.0096097058
 20
8.0436027324
 30
0.0
 10
10.0065688077
 20
8.046311472
 30
0.0
 10
10.004136052
 20
8.0484784108
 30
0.0
 10
10.0026156637
 20
8.0498328673
 30
0.0
 10
10.0013991606
 20
8.0509161584
 30
0.0
 10
10.0004873102
 20
8.0517293771
 30
0.0
 10
9.9997257589
 20
8.0524046722
 30
0.0
 10
9.999195962
 20
8.0528820636
 30
0.0
 10
9.9988880854
 20
8.0531475436
 30
0.0
 10
9.9986716447
 20
8.0533672605
 30
0.0
 10
9.9983999048
 20
8.0535082075
 30
0.0
 10
9.998056874
 20
8.0537236126
 30
0.0
 10
9.9974475829
 20
8.0540877701
 30
0.0
 10
9.9965818657
 20
8.0546146879
 30
0.0
 10
9.9955409939
 20
8.0552441245
 30
0.0
 10
9.9941538673
 20
8.0560843739
 30
0.0
 10
9.9924197185
 20
8.057134343
 30
0.0
 10
9.9896452148
 20
8.0588144851
 30
0.0
 10
9.9861770389
 20
8.0609145966
 30
0.0
 10
9.9820152486
 20
8.0634347609
 30
0.0
 10
9.9778534494
 20
8.0659549091
 30
0.0
 10
9.9743852959
 20
8.0680550608
 30
0.0
 10
9.9716107474
 20
8.0697351224
 30
0.0
 10
9.9698767126
 20
8.0707852964
 30
0.0
 10
9.9684893519
 20
8.0716251254
 30
0.0
 10
9.9674491953
 20
8.0722558462
 30
0.0
 10
9.9665812404
 20
8.0727787459
 30
0.0
 10
9.965975944
 20
8.0731500764
 30
0.0
 10
9.9656265127
 20
8.0733539886
 30
0.0
 10
9.965374433
 20
8.0735302382
 30
0.0
 10
9.965084152
 20
8.0736173644
 30
0.0
 10
9.9647104358
 20
8.0737646199
 30
0.0
 10
9.964050224
 20
8.0740078329
 30
0.0
 10
9.96311031
 20
8.0743628526
 30
0.0
 10
9.961981024
 20
8.0747856349
 30
0.0
 10
9.9604757946
 20
8.0753504767
 30
0.0
 10
9.9585940916
 20
8.0760561414
 30
0.0
 10
9.9555834597
 20
8.0771854216
 30
0.0
 10
9.951820138
 20
8.0785969475
 30
0.0
 10
9.9473041655
 20
8.0802908099
 30
0.0
 10
9.9435408526
 20
8.0817023567
 30
0.0
 10
9.9405302015
 20
8.082831591
 30
0.0
 10
9.9382722169
 20
8.0836785291
 30
0.0
 10
9.9360142179
 20
8.0845254195
 30
0.0
 10
9.9341325969
 20
8.0852313101
 30
0.0
 10
9.9326271997
 20
8.0857956898
 30
0.0
 10
9.9314984259
 20
8.0862198838
 30
0.0
 10
9.9305569095
 20
8.0865704866
 30
0.0
 10
9.9298995584
 20
8.0868215845
 30
0.0
 10
9.9295212585
 20
8.0869562064
 30
0.0
 10
9.929245057
 20
8.0870821392
 30
0.0
 10
9.9289400971
 20
8.0871126375
 30
0.0
 10
9.9285435152
 20
8.0871865906
 30
0.0
 10
9.9278448231
 20
8.0873004986
 30
0.0
 10
9.9268491349
 20
8.0874713331
 30
0.0
 10
9.9256532633
 20
8.0876728636
 30
0.0
 10
9.9240591331
 20
8.0879427834
 30
0.0
 10
9.922066345
 20
8.0882797672
 30
0.0
 10
9.919675053
 20
8.088684326
 30
0.0
 10
9.9172837467
 20
8.0890888371
 30
0.0
 10
9.9140953432
 20
8.0896282019
 30
0.0
 10
9.9101098372
 20
8.0903024022
 30
0.0
 10
9.9053272307
 20
8.091111445
 30
0.0
 10
9.8989504218
 20
8.0921901679
 30
0.0
 10
9.8941678151
 20
8.0929992103
 30
0.0
 10
9.8909794107
 20
8.0935385718
 30
0.0
  0
SPLINE
  5
370
100
AcDbEntity
  8
0
100
AcDbSpline
 62
4
  6
CONTINUOUS
 70
0
 71
3
 72
335
 73
331
 74
0
 42
0.0000001
 43
0.0000001
 44
0.0000000001
 40
0.0
 40
0.0
 40
0.0
 40
0.0
 40
0.015625
 40
0.0234375
 40
0.03125
 40
0.0390625
 40
0.04296875
 40
0.046875
 40
0.05078125
 40
0.0546875
 40
0.056640625
 40
0.05859375
 40
0.060546875
 40
0.0615234375
 40
0.0620117188
 40
0.0625
 40
0.0629882812
 40
0.0634765625
 40
0.064453125
 40
0.06640625
 40
0.068359375
 40
0.0703125
 40
0.07421875
 40
0.078125
 40
0.08203125
 40
0.0859375
 40
0.09375
 40
0.1015625
 40
0.10546875
 40
0.109375
 40
0.11328125
 40
0.1171875
 40
0.119140625
 40
0.12109375
 40
0.123046875
 40
0.1240234375
 40
0.1245117188
 40
0.125
 40
0.1254882812
 40
0.1259765625
 40
0.126953125
 40
0.12890625
 40
0.130859375
 40
0.1328125
 40
0.13671875
 40
0.140625
 40
0.14453125
 40
0.1484375
 40
0.15625
 40
0.1640625
 40
0.16796875
 40
0.171875
 40
0.17578125
 40
0.1796875
 40
0.181640625
 40
0.18359375
 40
0.1845703125
 40
0.185546875
 40
0.1865234375
 40
0.1870117188
 40
0.1875
 40
0.1879882812
 40
0.1884765625
 40
0.189453125
 40
0.1904296875
 40
0.19140625
 40
0.193359375
 40
0.1953125
 40
0.19921875
 40
0.203125
 40
0.20703125
 40
0.2109375
 40
0.21875
 40
0.2265625
 40
0.23046875
 40
0.234375
 40
0.23828125
 40
0.2421875
 40
0.244140625
 40
0.24609375
 40
0.2470703125
 40
0.248046875
 40
0.2490234375
 40
0.2495117188
 40
0.25
 40
0.2504882812
 40
0.2509765625
 40
0.251953125
 40
0.2529296875
 40
0.25390625
 40
0.255859375
 40
0.2578125
 40
0.26171875
 40
0.265625
 40
0.26953125
 40
0.2734375
 40
0.28125
 40
0.2890625
 40
0.29296875
 40
0.296875
 40
0.30078125
 40
0.3046875
 40
0.306640625
 40
0.30859375
 40
0.310546875
 40
0.3115234375
 40
0.3120117188
 40
0.3125
 40
0.3129882812
 40
0.3134765625
 40
0.314453125
 40
0.31640625
 40
0.318359375
 40
0.3203125
 40
0.32421875
 40
0.328125
 40
0.33203125
 40
0.3359375
 40
0.34375
 40
0.3515625
 40
0.35546875
 40
0.359375
 40
0.36328125
 40
0.3671875
 40
0.369140625
 40
0.37109375
 40
0.373046875
 40
0.3740234375
 40
0.3745117188
 40
0.375
 40
0.3754882812
 40
0.3759765625
 40
0.376953125
 40
0.37890625
 40
0.380859375
 40
0.3828125
 40
0.38671875
 40
0.390625
 40
0.39453125
 40
0.3984375
 40
0.40625
 40
0.4140625
 40
0.41796875
 40
0.421875
 40
0.42578125
 40
0.4296875
 40
0.431640625
 40
0.43359375
 40
0.435546875
 40
0.4365234375
 40
0.4370117188
 40
0.4375
 40
0.4379882812
 40
0.4384765625
 40
0.439453125
 40
0.44140625
 40
0.443359375
 40
0.4453125
 40
0.44921875
 40
0.453125
 40
0.45703125
 40
0.4609375
 40
0.46875
 40
0.4765625
 40
0.48046875
 40
0.484375
 40
0.48828125
 40
0.4921875
 40
0.494140625
 40
0.49609375
 40
0.498046875
 40
0.4990234375
 40
0.4995117188
 40
0.5
 40
0.5004882812
 40
0.5009765625
 40
0.501953125
 40
0.50390625
 40
0.505859375
 40
0.5078125
 40
0.51171875
 40
0.515625
 40
0.51953125
 40
0.5234375
 40
0.53125
 40
0.5390625
 40
0.546875
 40
0.55078125
 40
0.5546875
 40
0.556640625
 40
0.55859375
 40
0.560546875
 40
0.5615234375
 40
0.5620117188
 40
0.5625
 40
0.5629882812
 40
0.5634765625
 40
0.564453125
 40
0.56640625
 40
0.568359375
 40
0.5703125
 40
0.57421875
 40
0.578125
 40
0.5859375
 40
0.59375
 40
0.6015625
 40
0.609375
 40
0.61328125
 40
0.6171875
 40
0.619140625
 40
0.62109375
 40
0.623046875
 40
0.6240234375
 40
0.6245117188
 40
0.625
 40
0.6254882812
 40
0.6259765625
 40
0.626953125
 40
0.62890625
 40
0.630859375
 40
0.6328125
 40
0.63671875
 40
0.640625
 40
0.6484375
 40
0.65625
 40
0.6640625
 40
0.671875
 40
0.67578125
 40
0.6796875
 40
0.681640625
 40
0.68359375
 40
0.685546875
 40
0.6865234375
 40
0.6870117188
 40
0.6875
 40
0.6879882812
 40
0.6884765625
 40
0.689453125
 40
0.69140625
 40
0.693359375
 40
0.6953125
 40
0.69921875
 40
0.703125
 40
0.7109375
 40
0.71875
 40
0.7265625
 40
0.734375
 40
0.73828125
 40
0.7421875
 40
0.744140625
 40
0.74609375
 40
0.748046875
 40
0.7490234375
 40
0.7495117188
 40
0.75
 40
0.7504882812
 40
0.7509765625
 40
0.751953125
 40
0.75390625
 40
0.755859375
 40
0.7578125
 40
0.76171875
 40
0.765625
 40
0.7734375
 40
0.78125
 40
0.7890625
 40
0.796875
 40
0.80078125
 40
0.8046875
 40
0.806640625
 40
0.80859375
 40
0.810546875
 40
0.8115234375
 40
0.8120117188
 40
0.8125
 40
0.8129882812
 40
0.8134765625
 40
0.814453125
 40
0.81640625
 40
0.818359375
 40
0.8203125
 40
0.82421875
 40
0.828125
 40
0.8359375
 40
0.84375
 40
0.8515625
 40
0.859375
 40
0.86328125
 40
0.8671875
 40
0.869140625
 40
0.87109375
 40
0.873046875
 40
0.8740234375
 40
0.8745117188
 40
0.875
 40
0.8754882812
 40
0.8759765625
 40
0.876953125
 40
0.87890625
 40
0.880859375
 40
0.8828125
 40
0.88671875
 40
0.890625
 40
0.8984375
 40
0.90625
 40
0.9140625
 40
0.91796875
 40
0.921875
 40
0.92578125
 40
0.9296875
 40
0.931640625
 40
0.93359375
 40
0.935546875
 40
0.9365234375
 40
0.9370117188
 40
0.9375
 40
0.9379882812
 40
0.9384765625
 40
0.939453125
 40
0.94140625
 40
0.943359375
 40
0.9453125
 40
0.94921875
 40
0.953125
 40
0.95703125
 40
0.9609375
 40
0.96875
 40
0.9765625
 40
0.984375
 40
1.0
 40
1.0
 40
1.0
 40
1.0
 10
9.8909794276
 20
8.0935385706
 30
0.0
 10
9.8878462407
 20
8.0934486462
 30
0.0
 10
9.8831464604
 20
8.0933137595
 30
0.0
 10
9.8768800865
 20
8.0931339109
 30
0.0
 10
9.8721803062
 20
8.0929990237
 30
0.0
 10
9.8682638222
 20
8.0928866199
 30
0.0
 10
9.865130636
 20
8.0927966921
 30
0.0
 10
9.8627807438
 20
8.0927292592
 30
0.0
 10
9.8604308612
 20
8.0926617768
 30
0.0
 10
9.8584725957
 20
8.0926056955
 30
0.0
 10
9.8569060506
 20
8.0925604857
 30
0.0
 10
9.8557309578
 20
8.0925275202
 30
0.0
 10
9.854752299
 20
8.092497053
 30
0.0
 10
9.8540660894
 20
8.0924816053
 30
0.0
 10
9.8536757628
 20
8.092463598
 30
0.0
 10
9.8533779666
 20
8.092475953
 30
0.0
 10
9.8530994785
 20
8.0923894561
 30
0.0
 10
9.8527214262
 20
8.0923086076
 30
0.0
 10
9.8520629726
 20
8.0921510575
 30
0.0
 10
9.851120684
 20
8.0919343849
 30
0.0
 10
9.8499906399
 20
8.0916707828
 30
0.0
 10
9.8484836691
 20
8.0913205692
 30
0.0
 10
9.8466000398
 20
8.0908823712
 30
0.0
 10
9.8443396486
 20
8.0903567183
 30
0.0
 10
9.842079267
 20
8.089831016
 30
0.0
 10
9.8390654215
 20
8.0891300969
 30
0.0
 10
9.8352981161
 20
8.0882539415
 30
0.0
 10
9.8315308093
 20
8.0873777905
 30
0.0
 10
9.8285169658
 20
8.0866768646
 30
0.0
 10
9.8262565782
 20
8.0861511826
 30
0.0
 10
9.8239962096
 20
8.0856254534
 30
0.0
 10
9.8221125101
 20
8.0851874929
 30
0.0
 10
9.8206056826
 20
8.0848367949
 30
0.0
 10
9.819475201
 20
8.084574672
 30
0.0
 10
9.8185342811
 20
8.0843533713
 30
0.0
 10
9.8178733841
 20
8.0842040833
 30
0.0
 10
9.8174992466
 20
8.0841099969
 30
0.0
 10
9.8172087335
 20
8.0840641625
 30
0.0
 10
9.8169561012
 20
8.0839237957
 30
0.0
 10
9.8166060448
 20
8.083769614
 30
0.0
 10
9.8159996025
 20
8.0834844328
 30
0.0
 10
9.8151300377
 20
8.0830850631
 30
0.0
 10
9.8140879376
 20
8.0826023814
 30
0.0
 10
9.8126979896
 20
8.0819600068
 30
0.0
 10
9.8109607197
 20
8.0811566265
 30
0.0
 10
9.808875925
 20
8.0801927467
 30
0.0
 10
9.8067911493
 20
8.0792288197
 30
0.0
 10
9.8040114417
 20
8.0779436002
 30
0.0
 10
9.8005368095
 20
8.0763370703
 30
0.0
 10
9.7970621767
 20
8.0747305419
 30
0.0
 10
9.79428247
 20
8.0734453199
 30
0.0
 10
9.7921976916
 20
8.0724814002
 30
0.0
 10
9.7901129067
 20
8.071517493
 30
0.0
 10
9.7883756064
 20
8.0707141981
 30
0.0
 10
9.7869857205
 20
8.0700716493
 30
0.0
 10
9.7861171458
 20
8.0696698579
 30
0.0
 10
9.7854220477
 20
8.0693488793
 30
0.0
 10
9.7849013768
 20
8.0691069007
 30
0.0
 10
9.7844654082
 20
8.0689092111
 30
0.0
 10
9.7841212899
 20
8.0687421797
 30
0.0
 10
9.783850477
 20
8.0686411699
 30
0.0
 10
9.7836282323
 20
8.0684475448
 30
0.0
 10
9.7833149405
 20
8.0682217298
 30
0.0
 10
9.7829291465
 20
8.0679283612
 30
0.0
 10
9.7824637023
 20
8.06758107
 30
0.0
 10
9.7818439801
 20
8.0671163557
 30
0.0
 10
9.7810690295
 20
8.0665360309
 30
0.0
 10
9.7798292751
 20
8.0656071937
 30
0.0
 10
9.7782795249
 20
8.0644462562
 30
0.0
 10
9.7764198492
 20
8.0630530844
 30
0.0
 10
9.7745601669
 20
8.0616599252
 30
0.0
 10
9.7720805928
 20
8.0598023751
 30
0.0
 10
9.7689811243
 20
8.0574804392
 30
0.0
 10
9.7658816565
 20
8.0551585023
 30
0.0
 10
9.7634020812
 20
8.0533009538
 30
0.0
 10
9.7615424025
 20
8.0519077899
 30
0.0
 10
9.7596827133
 20
8.0505146355
 30
0.0
 10
9.758133005
 20
8.0493536439
 30
0.0
 10
9.7568931651
 20
8.048424917
 30
0.0
 10
9.7561184321
 20
8.0478443114
 30
0.0
 10
9.7554982634
 20
8.0473801736
 30
0.0
 10
9.7550341835
 20
8.0470311208
 30
0.0
 10
9.7546441207
 20
8.0467432638
 30
0.0
 10
9.7543395381
 20
8.0465062042
 30
0.0
 10
9.754090696
 20
8.0463469192
 30
0.0
 10
9.7539197405
 20
8.0461169825
 30
0.0
 10
9.753664593
 20
8.0458350798
 30
0.0
 10
9.7533549932
 20
8.045474234
 30
0.0
 10
9.7529794779
 20
8.0450448434
 30
0.0
 10
9.7524801864
 20
8.0444710567
 30
0.0
 10
9.7518555942
 20
8.0437542567
 30
0.0
 10
9.7508565137
 20
8.0426071344
 30
0.0
 10
9.7496075715
 20
8.0411733148
 30
0.0
 10
9.7481088801
 20
8.0394526956
 30
0.0
 10
9.7466101782
 20
8.0377320859
 30
0.0
 10
9.7446119126
 20
8.0354379363
 30
0.0
 10
9.7421140798
 20
8.0325702502
 30
0.0
 10
9.7396162457
 20
8.029702565
 30
0.0
 10
9.7376179822
 20
8.0274084139
 30
0.0
 10
9.7361192738
 20
8.0256878087
 30
0.0
 10
9.7346206068
 20
8.0239671729
 30
0.0
 10
9.7333715889
 20
8.0225334047
 30
0.0
 10
9.7323726627
 20
8.0213861774
 30
0.0
 10
9.7316226809
 20
8.0205263384
 30
0.0
 10
9.7310001997
 20
8.0198079563
 30
0.0
 10
9.7305595498
 20
8.0193087185
 30
0.0
 10
9.7303154211
 20
8.0190177723
 30
0.0
 10
9.7301107145
 20
8.0188155281
 30
0.0
 10
9.7299886127
 20
8.018552256
 30
0.0
 10
9.7297969968
 20
8.0182225138
 30
0.0
 10
9.7294750938
 20
8.0176355468
 30
0.0
 10
9.7290082137
 20
8.0168022078
 30
0.0
 10
9.7284509618
 20
8.0157999815
 30
0.0
 10
9.7277069099
 20
8.0144644551
 30
0.0
 10
9.7267772051
 20
8.0127947811
 30
0.0
 10
9.725661405
 20
8.0107912863
 30
0.0
 10
9.7245456462
 20
8.008787761
 30
0.0
 10
9.7230579532
 20
8.0061164046
 30
0.0
 10
9.7211983426
 20
8.0027772052
 30
0.0
 10
9.7193387281
 20
7.9994380081
 30
0.0
 10
9.7178510412
 20
7.996766648
 30
0.0
 10
9.7167352641
 20
7.9947631338
 30
0.0
 10
9.7156195328
 20
7.9927595974
 30
0.0
 10
9.7146896138
 20
7.991090053
 30
0.0
 10
9.7139459987
 20
7.9897542621
 30
0.0
 10
9.7133874129
 20
7.9887528436
 30
0.0
 10
9.7129247061
 20
7.9879169775
 30
0.0
 10
9.7125953531
 20
7.9873345218
 30
0.0
 10
9.712415674
 20
7.9869975513
 30
0.0
 10
9.7122569062
 20
7.9867564822
 30
0.0
 10
9.712189911
 20
7.9864708474
 30
0.0
 10
9.7120685728
 20
7.986105546
 30
0.0
 10
9.7118711457
 20
7.9854590258
 30
0.0
 10
9.7115813093
 20
7.9845392121
 30
0.0
 10
9.7112368432
 20
7.9834338148
 30
0.0
 10
9.7107763893
 20
7.981960518
 30
0.0
 10
9.7102012219
 20
7.9801187027
 30
0.0
 10
9.7095108496
 20
7.9779086076
 30
0.0
 10
9.7088205232
 20
7.9756984903
 30
0.0
 10
9.7079000718
 20
7.972751675
 30
0.0
 10
9.7067495137
 20
7.9690681529
 30
0.0
 10
9.7055989514
 20
7.9653846326
 30
0.0
 10
9.7046785067
 20
7.9624378145
 30
0.0
 10
9.7039881603
 20
7.9602277056
 30
0.0
 10
9.7032978627
 20
7.9580175789
 30
0.0
 10
9.702722463
 20
7.956175862
 30
0.0
 10
9.7022624829
 20
7.9547023646
 30
0.0
 10
9.7019165696
 20
7.9535975799
 30
0.0
 10
9.7016312613
 20
7.9526758497
 30
0.0
 10
9.7014257508
 20
7.9520327508
 30
0.0
 10
9.7013173641
 20
7.9516619675
 30
0.0
 10
9.7012105859
 20
7.9513931711
 30
0.0
 10
9.7012012366
 20
7.9510888598
 30
0.0
 10
9.7011547866
 20
7.9506954993
 30
0.0
 10
9.7010893331
 20
7.9500013467
 30
0.0
 10
9.7009875498
 20
7.9490127177
 30
0.0
 10
9.7008689532
 20
7.9478250713
 30
0.0
 10
9.7007095867
 20
7.9462419939
 30
0.0
 10
9.7005108033
 20
7.9442629924
 30
0.0
 10
9.7002720812
 20
7.9418882569
 30
0.0
 10
9.7000334077
 20
7.9395135037
 30
0.0
 10
9.6997151594
 20
7.9363471722
 30
0.0
 10
9.6993173554
 20
7.9323892558
 30
0.0
 10
9.698919547
 20
7.9284313401
 30
0.0
 10
9.6986013056
 20
7.9252650075
 30
0.0
 10
9.6983626113
 20
7.9228902578
 30
0.0
 10
9.6981239675
 20
7.9205155091
 30
0.0
 10
9.6979249401
 20
7.9185365488
 30
0.0
 10
9.6977660711
 20
7.9169533873
 30
0.0
 10
9.6976459552
 20
7.9157659979
 30
0.0
 10
9.6975489255
 20
7.9147765648
 30
0.0
 10
9.6974749861
 20
7.9140838476
 30
0.0
 10
9.6974421324
 20
7.9136881872
 30
0.0
 10
9.6973910197
 20
7.9133909407
 30
0.0
 10
9.6974410981
 20
7.9130956099
 30
0.0
 10
9.6974725726
 20
7.9127011672
 30
0.0
 10
9.6975440984
 20
7.9120112039
 30
0.0
 10
9.6976376803
 20
7.9110253793
 30
0.0
 10
9.6977536587
 20
7.9098424594
 30
0.0
 10
9.6979070111
 20
7.9082652085
 30
0.0
 10
9.6980991427
 20
7.9062936533
 30
0.0
 10
9.6983295115
 20
7.9039277835
 30
0.0
 10
9.6985599308
 20
7.9015619146
 30
0.0
 10
9.6988671392
 20
7.8984074224
 30
0.0
 10
9.6992511537
 20
7.8944643071
 30
0.0
 10
9.6997119781
 20
7.8897325698
 30
0.0
 10
9.7000959699
 20
7.8857894517
 30
0.0
 10
9.7004032282
 20
7.8826349656
 30
0.0
 10
9.7005951166
 20
7.8806633928
 30
0.0
 10
9.7007489666
 20
7.8790861781
 30
0.0
 10
9.7008634251
 20
7.8779031476
 30
0.0
 10
9.7009617624
 20
7.8769176691
 30
0.0
 10
9.7010247989
 20
7.8762270879
 30
0.0
 10
9.7010698755
 20
7.8758336352
 30
0.0
 10
9.7010781727
 20
7.8755352636
 30
0.0
 10
9.7011839828
 20
7.8752494376
 30
0.0
 10
9.7012910494
 20
7.8748639602
 30
0.0
 10
9.7014942634
 20
7.8741914136
 30
0.0
 10
9.7017762838
 20
7.8732295668
 30
0.0
 10
9.7021182548
 20
7.872075807
 30
0.0
 10
9.7025729773
 20
7.8705373011
 30
0.0
 10
9.7031418046
 20
7.8686142233
 30
0.0
 10
9.7040516912
 20
7.8655372684
 30
0.0
 10
9.7051891313
 20
7.8616910854
 30
0.0
 10
9.7065540222
 20
7.8570756605
 30
0.0
 10
9.7079189312
 20
7.8524602398
 30
0.0
 10
9.7090563259
 20
7.8486140462
 30
0.0
 10
9.7099663034
 20
7.8455371124
 30
0.0
 10
9.7105348996
 20
7.8436139809
 30
0.0
 10
9.7109900964
 20
7.8420755853
 30
0.0
 10
9.7113306185
 20
7.8409214885
 30
0.0
 10
9.7116171722
 20
7.839960696
 30
0.0
 10
9.7118122936
 20
7.8392862673
 30
0.0
 10
9.7119323265
 20
7.8389038055
 30
0.0
 10
9.711998308
 20
7.8386087166
 30
0.0
 10
9.7121561949
 20
7.8383451348
 30
0.0
 10
9.7123346531
 20
7.8379827023
 30
0.0
 10
9.7126618913
 20
7.8373535659
 30
0.0
 10
9.7131215655
 20
7.8364521226
 30
0.0
 10
9.7136765171
 20
7.8353715365
 30
0.0
 10
9.714415285
 20
7.8339303547
 30
0.0
 10
9.7153391446
 20
7.8321290147
 30
0.0
 10
9.7168170966
 20
7.8292467939
 30
0.0
 10
9.7186646136
 20
7.8256440444
 30
0.0
 10
9.7208815989
 20
7.8213207327
 30
0.0
 10
9.7230986016
 20
7.8169974281
 30
0.0
 10
9.7249460753
 20
7.8133946609
 30
0.0
 10
9.7264241141
 20
7.8105124756
 30
0.0
 10
9.7273477528
 20
7.8087110454
 30
0.0
 10
9.7280869742
 20
7.8072700486
 30
0.0
 10
9.7286405402
 20
7.8061888974
 30
0.0
 10
9.7291045494
 20
7.8052892222
 30
0.0
 10
9.7294240489
 20
7.8046569295
 30
0.0
 10
9.7296149064
 20
7.8042995542
 30
0.0
 10
9.7297347068
 20
7.8040204384
 30
0.0
 10
9.729943735
 20
7.8037836923
 30
0.0
 10
9.7301913155
 20
7.8034532517
 30
0.0
 10
9.7306390826
 20
7.8028818666
 30
0.0
 10
9.7312711684
 20
7.8020620021
 30
0.0
 10
9.7320329166
 20
7.8010797057
 30
0.0
 10
9.7330474473
 20
7.7997694389
 30
0.0
 10
9.7343159988
 20
7.7981317897
 30
0.0
 10
9.7363454642
 20
7.7955114479
 30
0.0
 10
9.7388823708
 20
7.7922360565
 30
0.0
 10
9.7419266251
 20
7.7883055696
 30
0.0
 10
9.7449708943
 20
7.7843750939
 30
0.0
 10
9.7475077638
 20
7.7810996747
 30
0.0
 10
9.7495373034
 20
7.7784793884
 30
0.0
 10
9.7508056665
 20
7.7768415981
 30
0.0
 10
9.7518205839
 20
7.775531621
 30
0.0
 10
9.7525811505
 20
7.7745484394
 30
0.0
 10
9.7532169331
 20
7.7737313443
 30
0.0
 10
9.7536581009
 20
7.7731550154
 30
0.0
 10
9.7539162551
 20
7.772832496
 30
0.0
 10
9.7540928044
 20
7.7725714187
 30
0.0
 10
9.7543345899
 20
7.7723836868
 30
0.0
 10
9.7546342154
 20
7.772107794
 30
0.0
 10
9.755169162
 20
7.7716369014
 30
0.0
 10
9.7559278286
 20
7.7709579659
 30
0.0
 10
9.756840601
 20
7.7701459107
 30
0.0
 10
9.7580568023
 20
7.7690622388
 30
0.0
 10
9.7595773376
 20
7.7677079679
 30
0.0
 10
9.7620100354
 20
7.765540956
 30
0.0
 10
9.7650509625
 20
7.7628322529
 30
0.0
 10
9.7687000502
 20
7.7595817808
 30
0.0
 10
9.7723491495
 20
7.7563313234
 30
0.0
 10
9.7753900476
 20
7.7536225838
 30
0.0
 10
9.7778228033
 20
7.751455645
 30
0.0
 10
9.7793431916
 20
7.7501011885
 30
0.0
 10
9.7805596946
 20
7.7490178974
 30
0.0
 10
9.7814715451
 20
7.7482046786
 30
0.0
 10
9.7822330964
 20
7.7475293836
 30
0.0
 10
9.7827628933
 20
7.7470519922
 30
0.0
 10
9.7830707699
 20
7.7467865122
 30
0.0
 10
9.7832872106
 20
7.7465667953
 30
0.0
 10
9.7835589505
 20
7.7464258483
 30
0.0
 10
9.7839019813
 20
7.7462104432
 30
0.0
 10
9.7845112723
 20
7.7458462857
 30
0.0
 10
9.7853769896
 20
7.7453193679
 30
0.0
 10
9.7864178614
 20
7.7446899313
 30
0.0
 10
9.787804988
 20
7.7438496819
 30
0.0
 10
9.7895391368
 20
7.7427997128
 30
0.0
 10
9.7923136405
 20
7.7411195707
 30
0.0
 10
9.7957818164
 20
7.7390194592
 30
0.0
 10
9.7999436067
 20
7.7364992949
 30
0.0
 10
9.8041054059
 20
7.7339791467
 30
0.0
 10
9.8075735594
 20
7.7318789949
 30
0.0
 10
9.8103481079
 20
7.7301989334
 30
0.0
 10
9.8120821426
 20
7.7291487594
 30
0.0
 10
9.8134695034
 20
7.7283089304
 30
0.0
 10
9.81450966
 20
7.7276782096
 30
0.0
 10
9.8153776149
 20
7.7271553099
 30
0.0
 10
9.8159829113
 20
7.7267839794
 30
0.0
 10
9.8163323426
 20
7.7265800672
 30
0.0
 10
9.8165844223
 20
7.7264038176
 30
0.0
 10
9.8168747032
 20
7.7263166914
 30
0.0
 10
9.8172484195
 20
7.7261694359
 30
0.0
 10
9.8179086313
 20
7.7259262229
 30
0.0
 10
9.8188485452
 20
7.7255712032
 30
0.0
 10
9.8199778313
 20
7.7251484209
 30
0.0
 10
9.8214830607
 20
7.7245835791
 30
0.0
 10
9.8233647637
 20
7.7238779144
 30
0.0
 10
9.8263753956
 20
7.7227486342
 30
0.0
 10
9.8301387172
 20
7.7213371083
 30
0.0
 10
9.8346546897
 20
7.7196432459
 30
0.0
 10
9.8384180027
 20
7.7182316991
 30
0.0
 10
9.8414286538
 20
7.7171024648
 30
0.0
 10
9.8436866384
 20
7.7162555267
 30
0.0
 10
9.8459446374
 20
7.7154086363
 30
0.0
 10
9.8478262584
 20
7.7147027457
 30
0.0
 10
9.8493316555
 20
7.714138366
 30
0.0
 10
9.8504604294
 20
7.7137141719
 30
0.0
 10
9.8514019458
 20
7.7133635692
 30
0.0
 10
9.8520592969
 20
7.7131124713
 30
0.0
 10
9.8524375968
 20
7.7129778494
 30
0.0
 10
9.8527137983
 20
7.7128519166
 30
0.0
 10
9.8530187581
 20
7.7128214183
 30
0.0
 10
9.8534153401
 20
7.7127474652
 30
0.0
 10
9.8541140322
 20
7.7126335572
 30
0.0
 10
9.8551097203
 20
7.7124627227
 30
0.0
 10
9.856305592
 20
7.7122611922
 30
0.0
 10
9.8578997222
 20
7.7119912724
 30
0.0
 10
9.8598925103
 20
7.7116542886
 30
0.0
 10
9.8622838022
 20
7.7112497298
 30
0.0
 10
9.8646751086
 20
7.7108452187
 30
0.0
 10
9.867863512
 20
7.7103058539
 30
0.0
 10
9.8718490181
 20
7.7096316536
 30
0.0
 10
9.8766316246
 20
7.7088226108
 30
0.0
 10
9.8830084335
 20
7.7077438879
 30
0.0
 10
9.8877910401
 20
7.7069348455
 30
0.0
 10
9.8909794446
 20
7.706395484
 30
0.0
  0
ENDSEC
  0
SECTION
  2
OBJECTS
  0
DICTIONARY
  5
C
100
AcDbDictionary
280
0
281
1
  3
ACAD_GROUP
350
D
  3
ACAD_MLINESTYLE
350
17
  3
ACAD_LAYOUT
350
1A
  3
ACAD_PLOTSETTINGS
350
19
  3
ACAD_PLOTSTYLENAME
350
E
  3
ACAD_IMAGE_DICT
350
       372
  3
ACAD_IMAGE_VARS
350
       373
  3
ACAD_TABLESTYLE
350
       374
  0
IMAGEDEF_REACTOR
  5
371
100
AcDbRasterImageDefReactor
 90
2
330
287
  0
DICTIONARY
  5
D
102
{ACAD_REACTORS
330
C
102
}
100
AcDbDictionary
280
0
281
1
  0
ACDBDICTIONARYWDFLT
  5
E
102
{ACAD_REACTORS
330
C
102
}
100
AcDbDictionary
281
1
  3
Normal
350
F
100
AcDbDictionaryWithDefault
340
F
  0
DICTIONARY
  5
372
330
C
100
AcDbDictionary
281
1
  3
FSDDXAN-NMV_assy_2_img_1
350
       377
  0
RASTERVARIABLES
  5
373
330
C
100
AcDbRasterVariables
 90
0
 70
0
 71
1
 72
5
  0
DICTIONARY
  5
17
102
{ACAD_REACTORS
330
C
102
}
100
AcDbDictionary
280
0
281
1
  3
Standard
350
18
  0
DICTIONARY
  5
374
330
C
100
AcDbDictionary
281
1
  3
Standard
350
       378
  3
Standard1
350
       379
  0
DICTIONARY
  5
19
102
{ACAD_REACTORS
330
C
102
}
100
AcDbDictionary
281
1
  0
DICTIONARY
  5
1A
102
{ACAD_REACTORS
330
C
102
}
100
AcDbDictionary
281
1
  3
Model
350
375
  3
Layout1
350
376
  0
ACDBPLACEHOLDER
  5
F
102
{ACAD_REACTORS
330
E
102
}
  0
MLINESTYLE
  5
18
102
{ACAD_REACTORS
330
17
102
}
100
AcDbMlineStyle
  2
STANDARD
 70
0
  3

 62
256
 51
90.0
 52
90.0
 71
2
 49
0.5
 62
256
  6
BYLAYER
 49
-0.5
 62
256
  6
BYLAYER
  0
LAYOUT
  5
375
102
{ACAD_REACTORS
330
1A
102
}
100
AcDbPlotSettings
  1

  2
none_device
  4
ANSI_C_(22.00_x_17.00_Inches)
  6

 40
0.0
 41
0.0
 42
0.0
 43
0.0
 44
558.8
 45
431.8
 46
0.0
 47
0.0
 48
0.0
 49
0.0
140
0.0
141
0.0
142
1.0
143
1.0
 70
1024
 72
0
 73
0
 74
0
  7

 75
0
147
1.0
148
0.0
149
0.0
100
AcDbLayout
  1
Model
 70
0
 71
0
 10
0.0
 20
0.0
 11
22.0
 21
17.0
 12
0.0
 22
0.0
 32
0.0
 14
0.0
 24
0.0
 34
0.0
 15
0.0
 25
0.0
 35
0.0
146
0.0
 13
0.0
 23
0.0
 33
0.0
 16
1.0
 26
0.0
 36
0.0
 17
0.0
 27
1.0
 37
0.0
 76
0
330
20C
345
0
346
0
  0
LAYOUT
  5
376
102
{ACAD_REACTORS
330
1A
102
}
100
AcDbPlotSettings
  1

  2
none_device
  4
ANSI_C_(22.00_x_17.00_Inches)
  6

 40
0.0
 41
0.0
 42
0.0
 43
0.0
 44
558.8
 45
431.8
 46
0.0
 47
0.0
 48
0.0
 49
0.0
140
0.0
141
0.0
142
1.0
143
1.0
 70
0
 72
0
 73
0
 74
0
  7

 75
0
147
1.0
148
0.0
149
0.0
100
AcDbLayout
  1
Layout1
 70
0
 71
1
 10
0.0
 20
0.0
 11
22.0
 21
17.0
 12
0.0
 22
0.0
 32
0.0
 14
0.0
 24
0.0
 34
0.0
 15
0.0
 25
0.0
 35
0.0
146
0.0
 13
0.0
 23
0.0
 33
0.0
 16
1.0
 26
0.0
 36
0.0
 17
0.0
 27
1.0
 37
0.0
 76
0
330
20D
345
0
346
0
  0
IMAGEDEF
  5
377
102
{ACAD_REACTORS
330
372
330
371
102
}
100
AcDbRasterImageDef
 90
0
  1
FSDDXAN-NMV_assy_2_img_1.png
 10
369.0
 20
92.0
 11
0.0066666667
 21
0.0066666667
280
1
281
0
  0
TABLESTYLE
  5
378
102
{ACAD_REACTORS
330
374
330
28A
330
28B
102
}
330
374
100
AcDbTableStyle
  3
Standard
 70
0
 71
0
 40
0.06
 41
0.06
280
1
281
1
  7
Standard
140
0.18
170
1
 62
0
 63
7
283
0
  7
Standard
140
0.18
170
1
 62
0
 63
7
283
0
  7
Standard
140
0.18
170
1
 62
0
 63
7
283
0
  0
TABLESTYLE
  5
379
102
{ACAD_REACTORS
330
374
330
289
102
}
330
374
100
AcDbTableStyle
  3
Standard1
 70
1
 71
0
 40
0.06
 41
0.06
280
1
281
1
  7
Standard
140
0.18
170
1
 62
0
 63
7
283
0
  7
Standard
140
0.18
170
1
 62
0
 63
7
283
0
  7
Standard
140
0.18
170
1
 62
0
 63
7
283
0
  0
ENDSEC
  0
EOF
