999
DXF file: FSDAXAN-NMV_assy_2.dxf
999
Pro/ENGINEER 2014200 by Parametric Technology Corporation
  0
SECTION
  2
HEADER
  9
$ACADVER
  1
AC1021
  9
$DWGCODEPAGE
  3
ANSI_1252
  9
$EXTMAX
 10
22.0
 20
17.0
 30
0.0
  9
$EXTMIN
 10
0.0
 20
0.0
 30
0.0
  9
$LIMMIN
 10
0.0
 20
0.0
  9
$LIMMAX
 10
22.0
 20
17.0
  9
$VIEWCTR
 10
11.0
 20
8.5
  9
$VIEWSIZE
 40
17.0
  9
$CLAYER
  8
0
  9
$LTSCALE
 40
1.21
  9
$CELTYPE
  6
BYLAYER
  9
$DIMSCALE
 40
1.0
  9
$DIMASZ
 40
0.1875
  9
$DIMEXO
 40
0.0625
  9
$DIMDLI
 40
0.836
  9
$DIMEXE
 40
0.125
  9
$DIMCEN
 40
0.198
  9
$DIMLFAC
 40
1.0
  9
$DIMBLK
  1
_FILLED
  9
$DIMTXT
 40
0.1
  9
$DIMTOL
 70
0
  9
$DIMLIM
 70
0
  9
$DIMTFAC
 40
1.0
  9
$DIMGAP
 40
0.09
  9
$DIMDSEP
 70
46
  9
$AUNITS
 70
0
  9
$PDMODE
 70
3
  9
$PDSIZE
 40
0.3125
  9
$HANDSEED
  5
378
  9
$TILEMODE
 70
1
  9
$MEASUREMENT
 70
0
  9
$INSUNITS
 70
1
  0
ENDSEC
  0
SECTION
  2
CLASSES
  0
CLASS
  1
ACDBDICTIONARYWDFLT
  2
AcDbDictionaryWithDefault
  3
AutoCAD 2000
 90
0
 91
1
280
0
281
0
  0
CLASS
  1
ACDBPLACEHOLDER
  2
AcDbPlaceHolder
  3
AutoCAD 2000
 90
0
 91
1
280
0
281
0
  0
CLASS
  1
LAYOUT
  2
AcDbLayout
  3
AutoCAD 2000
 90
0
 91
0
280
0
281
0
  0
CLASS
  1
RASTERVARIABLES
  2
AcDbRasterVariables
  3
ISM
 90
0
 91
1
280
0
281
0
  0
CLASS
  1
IMAGEDEF
  2
AcDbRasterImageDef
  3
ISM
 90
0
 91
1
280
0
281
0
  0
CLASS
  1
IMAGEDEF_REACTOR
  2
AcDbRasterImageDefReactor
  3
ISM
 90
0
 91
1
280
0
281
0
  0
CLASS
  1
IMAGE
  2
AcDbRasterImage
  3
ISM
 90
127
 91
1
280
0
281
1
  0
CLASS
  1
TABLESTYLE
  2
AcDbTableStyle
  3
ObjectDBX Classes
 90
2047
 91
1
280
0
281
0
  0
CLASS
  1
ACAD_TABLE
  2
AcDbTable
  3
ObjectDBX Classes
 90
1025
 91
3
280
0
281
1
  0
ENDSEC
  0
SECTION
  2
TABLES
  0
TABLE
  2
VPORT
  5
8
100
AcDbSymbolTable
 70
2
  0
VPORT
  5
1F4
100
AcDbSymbolTableRecord
100
AcDbViewportTableRecord
  2
*ACTIVE
 70
0
 10
0.0
 20
0.0
 11
1.0
 21
1.0
 12
11.0
 22
8.5
 13
0.0
 23
0.0
 14
1.0
 24
1.0
 15
0.0
 25
0.0
 16
0.0
 26
0.0
 36
1.0
 17
0.0
 27
0.0
 37
0.0
 40
17.0
 41
1.2941176471
 42
50.0
 43
0.0
 44
0.0
 50
0.0
 51
0.0
 71
0
 72
100
 73
1
 74
1
 75
0
 76
0
 77
0
 78
0
  0
ENDTAB
  0
TABLE
  2
LTYPE
  5
5
100
AcDbSymbolTable
 70
6
  0
LTYPE
  5
14
100
AcDbSymbolTableRecord
100
AcDbLinetypeTableRecord
  2
BYBLOCK
 70
0
  3

 72
65
 73
0
 40
0.0
  0
LTYPE
  5
15
100
AcDbSymbolTableRecord
100
AcDbLinetypeTableRecord
  2
BYLAYER
 70
0
  3

 72
65
 73
0
 40
0.0
  0
LTYPE
  5
16
100
AcDbSymbolTableRecord
100
AcDbLinetypeTableRecord
  2
CONTINUOUS
 70
64
  3
Solid line
 72
65
 73
0
 40
0.0
  0
LTYPE
  5
1F5
100
AcDbSymbolTableRecord
100
AcDbLinetypeTableRecord
  2
CENTER
 70
64
  3
____ _ ____ _ ____ _ ____ _ ____ _ ____ _ ____
 72
65
 73
4
 40
0.6
 49
0.375
 74
0
 49
-0.075
 74
0
 49
0.075
 74
0
 49
-0.075
 74
0
  0
LTYPE
  5
1F6
100
AcDbSymbolTableRecord
100
AcDbLinetypeTableRecord
  2
HIDDEN
 70
64
  3
- - - - - - - - - - - - - - - - - - - -
 72
65
 73
2
 40
0.2
 49
0.1
 74
0
 49
-0.1
 74
0
  0
LTYPE
  5
1F7
100
AcDbSymbolTableRecord
100
AcDbLinetypeTableRecord
  2
PHANTOM
 70
64
  3
_____ _ _ _____ _ _ _____ _ _ _____
 72
65
 73
6
 40
0.8
 49
0.45
 74
0
 49
-0.05
 74
0
 49
0.1
 74
0
 49
-0.05
 74
0
 49
0.1
 74
0
 49
-0.05
 74
0
  0
LTYPE
  5
1F8
100
AcDbSymbolTableRecord
100
AcDbLinetypeTableRecord
  2
DOT
 70
64
  3
. . . . . . . . . . . . . . . . . . . .
 72
65
 73
2
 40
0.2
 49
0.1
 74
0
 49
-0.1
 74
0
  0
LTYPE
  5
1F9
100
AcDbSymbolTableRecord
100
AcDbLinetypeTableRecord
  2
DASHED
 70
64
  3
- - - - - - - - - - - - - - - - - - - -
 72
65
 73
2
 40
0.2
 49
0.1
 74
0
 49
-0.1
 74
0
  0
ENDTAB
  0
TABLE
  2
LAYER
  5
2
100
AcDbSymbolTable
 70
36
  0
LAYER
  5
10
100
AcDbSymbolTableRecord
100
AcDbLayerTableRecord
  2
0
 70
0
 62
7
  6
CONTINUOUS
370
-3
390
F
  0
LAYER
  5
1FA
100
AcDbSymbolTableRecord
100
AcDbLayerTableRecord
  2
DEFAULT_1
 70
0
 62
7
  6
CENTER
370
-3
390
F
  0
LAYER
  5
1FB
100
AcDbSymbolTableRecord
100
AcDbLayerTableRecord
  2
DEFAULT_2
 70
0
 62
8
  6
HIDDEN
370
-3
390
F
  0
LAYER
  5
1FC
100
AcDbSymbolTableRecord
100
AcDbLayerTableRecord
  2
DEFAULT_3
 70
0
 62
7
  6
PHANTOM
370
-3
390
F
  0
LAYER
  5
1FD
100
AcDbSymbolTableRecord
100
AcDbLayerTableRecord
  2
01___PRT_ALL_DTM_PLN
 70
0
 62
7
  6
CONTINUOUS
370
-3
390
F
  0
LAYER
  5
1FE
100
AcDbSymbolTableRecord
100
AcDbLayerTableRecord
  2
01___PRT_DEF_DTM_PLN
 70
0
 62
7
  6
CONTINUOUS
370
-3
390
F
  0
LAYER
  5
1FF
100
AcDbSymbolTableRecord
100
AcDbLayerTableRecord
  2
02___PRT_ALL_AXES
 70
0
 62
7
  6
CONTINUOUS
370
-3
390
F
  0
LAYER
  5
200
100
AcDbSymbolTableRecord
100
AcDbLayerTableRecord
  2
03___PRT_ALL_CURVES
 70
0
 62
7
  6
CONTINUOUS
370
-3
390
F
  0
LAYER
  5
201
100
AcDbSymbolTableRecord
100
AcDbLayerTableRecord
  2
04___PRT_ALL_DTM_PNT
 70
0
 62
7
  6
CONTINUOUS
370
-3
390
F
  0
LAYER
  5
202
100
AcDbSymbolTableRecord
100
AcDbLayerTableRecord
  2
05___PRT_ALL_DTM_CSYS
 70
0
 62
7
  6
CONTINUOUS
370
-3
390
F
  0
LAYER
  5
203
100
AcDbSymbolTableRecord
100
AcDbLayerTableRecord
  2
05___PRT_DEF_DTM_CSYS
 70
0
 62
7
  6
CONTINUOUS
370
-3
390
F
  0
LAYER
  5
204
100
AcDbSymbolTableRecord
100
AcDbLayerTableRecord
  2
06___PRT_ALL_SURFS
 70
0
 62
7
  6
CONTINUOUS
370
-3
390
F
  0
LAYER
  5
205
100
AcDbSymbolTableRecord
100
AcDbLayerTableRecord
  2
DATUM_PLANES
 70
0
 62
7
  6
CONTINUOUS
370
-3
390
F
  0
LAYER
  5
206
100
AcDbSymbolTableRecord
100
AcDbLayerTableRecord
  2
PORT_AREAS
 70
0
 62
7
  6
CONTINUOUS
370
-3
390
F
  0
LAYER
  5
207
100
AcDbSymbolTableRecord
100
AcDbLayerTableRecord
  2
SUNNBOMCOSMETIC
 70
0
 62
7
  6
CONTINUOUS
370
-3
390
F
  0
LAYER
  5
208
100
AcDbSymbolTableRecord
100
AcDbLayerTableRecord
  2
SUNNBOMSTAMPING
 70
0
 62
7
  6
CONTINUOUS
370
-3
390
F
  0
LAYER
  5
209
100
AcDbSymbolTableRecord
100
AcDbLayerTableRecord
  2
THREADS
 70
0
 62
7
  6
CONTINUOUS
370
-3
390
F
  0
ENDTAB
  0
TABLE
  2
STYLE
  5
3
100
AcDbSymbolTable
 70
1
  0
STYLE
  5
11
100
AcDbSymbolTableRecord
100
AcDbTextStyleTableRecord
  2
STANDARD
 70
0
 40
0.0
 41
0.8
 50
0.0
 71
0
 42
0.2
  3
txt
  4

  0
STYLE
  5
20A
100
AcDbSymbolTableRecord
100
AcDbTextStyleTableRecord
  2
TEXTSTYLE_1
 70
0
 40
0.0
 41
0.8
 50
0.0
 71
0
 42
0.2
  3
gdt
  4

  0
ENDTAB
  0
TABLE
  2
VIEW
  5
6
100
AcDbSymbolTable
 70
0
  0
ENDTAB
  0
TABLE
  2
UCS
  5
7
100
AcDbSymbolTable
 70
0
  0
ENDTAB
  0
TABLE
  2
APPID
  5
9
100
AcDbSymbolTable
 70
1
  0
APPID
  5
20B
100
AcDbSymbolTableRecord
100
AcDbRegAppTableRecord
  2
ACAD
 70
0
  0
ENDTAB
  0
TABLE
  2
BLOCK_RECORD
  5
1
100
AcDbSymbolTable
 70
0
  0
BLOCK_RECORD
  5
20C
100
AcDbSymbolTableRecord
100
AcDbBlockTableRecord
  2
*Model_Space
  0
BLOCK_RECORD
  5
20D
100
AcDbSymbolTableRecord
100
AcDbBlockTableRecord
  2
*Paper_Space
  0
BLOCK_RECORD
  5
20E
100
AcDbSymbolTableRecord
100
AcDbBlockTableRecord
  2
SUN_FIRST_THIRD_ANGLE_BL0
  0
BLOCK_RECORD
  5
20F
100
AcDbSymbolTableRecord
100
AcDbBlockTableRecord
  2
*T1
  0
BLOCK_RECORD
  5
210
100
AcDbSymbolTableRecord
100
AcDbBlockTableRecord
  2
*T2
  0
BLOCK_RECORD
  5
211
100
AcDbSymbolTableRecord
100
AcDbBlockTableRecord
  2
*T3
  0
ENDTAB
  0
TABLE
  2
DIMSTYLE
  5
A
100
AcDbSymbolTable
 70
1
100
AcDbDimStyleTable
 71
0
  0
DIMSTYLE
105
212
100
AcDbSymbolTableRecord
100
AcDbDimStyleTableRecord
  2
STANDARD
 70
0
  3

  4

 40
1.0
 41
0.1875
 42
0.0625
 43
0.38
 44
0.125
 45
0.0
 46
0.0
 47
0.001
 48
0.001
140
0.1
141
0.09
142
0.0
143
25.4
144
1.0
145
0.0
146
1.0
147
0.09
 71
0.0
 72
0.0
 73
1
 74
1
 75
0
 76
0
 77
0
 78
4
170
0
171
2
172
0
173
0
174
0
175
0
176
0
177
0
178
0
270
2
271
3
272
3
273
2
274
2
275
0
280
0
281
0
282
0
283
1
284
4
285
0
286
0
287
3
288
0
340
11
278
46
  0
ENDTAB
  0
ENDSEC
  0
SECTION
  2
BLOCKS
  0
BLOCK
  5
20
100
AcDbEntity
  8
0
100
AcDbBlockBegin
  2
*Model_Space
 70
0
 10
0.0
 20
0.0
 30
0.0
  3
*Model_Space
  1

  0
ENDBLK
  5
21
100
AcDbEntity
  8
0
100
AcDbBlockEnd
  0
BLOCK
  5
1C
100
AcDbEntity
  8
0
100
AcDbBlockBegin
  2
*Paper_Space
 70
0
 10
0.0
 20
0.0
 30
0.0
  3
*Paper_Space
  1

  0
ENDBLK
  5
1D
100
AcDbEntity
  8
0
100
AcDbBlockEnd
  0
BLOCK
  5
213
100
AcDbEntity
  8
0
100
AcDbBlockBegin
 62
2
  6
CONTINUOUS
  2
SUN_FIRST_THIRD_ANGLE_BL0
 70
64
 10
20.4816717061
 20
1.2289683772
  3
SUN_FIRST_THIRD_ANGLE_BL0
  1

  0
TEXT
  5
214
100
AcDbEntity
  8
0
100
AcDbText
 62
2
  6
CONTINUOUS
 10
19.4750896608
 20
1.4136269581
  7
STANDARD
 40
0.08
  1
FIRST ANGLE
 41
0.8
 72
0
100
AcDbText
  0
TEXT
  5
215
100
AcDbEntity
  8
0
100
AcDbText
 62
2
  6
CONTINUOUS
 10
20.7842537513
 20
1.4047600029
  7
STANDARD
 40
0.08
  1
THIRD ANGLE
 41
0.8
 72
0
100
AcDbText
  0
LINE
  5
216
100
AcDbEntity
  8
0
100
AcDbLine
 62
7
  6
CONTINUOUS
 10
19.4767170086
 20
1.1727031207
 11
19.6334271527
 21
1.1717972817
  0
LINE
  5
217
100
AcDbEntity
  8
0
100
AcDbLine
 62
7
  6
CONTINUOUS
 10
19.6596964832
 20
1.1717972817
 11
19.6950230232
 21
1.171593082
  0
LINE
  5
218
100
AcDbEntity
  8
0
100
AcDbLine
 62
7
  6
CONTINUOUS
 10
19.7194818561
 20
1.1708914427
 11
19.8852396156
 21
1.1699333054
  0
LINE
  5
219
100
AcDbEntity
  8
0
100
AcDbLine
 62
7
  6
CONTINUOUS
 10
19.4758111696
 20
1.2723454088
 11
19.88525039
 21
1.3511534004
  0
LINE
  5
21A
100
AcDbEntity
  8
0
100
AcDbLine
 62
7
  6
CONTINUOUS
 10
19.88525039
 20
1.3511534004
 11
19.8831348489
 21
0.9851647912
  0
LINE
  5
21B
100
AcDbEntity
  8
0
100
AcDbLine
 62
7
  6
CONTINUOUS
 10
19.8831348489
 20
0.9851647912
 11
19.4767170086
 21
1.0658141206
  0
LINE
  5
21C
100
AcDbEntity
  8
0
100
AcDbLine
 62
7
  6
CONTINUOUS
 10
19.4767170086
 20
1.0658141206
 11
19.4779056764
 21
1.2714536432
  0
CIRCLE
  5
21D
100
AcDbEntity
  8
0
100
AcDbCircle
 62
7
  6
CONTINUOUS
 10
20.2068232291
 20
1.1717972817
 40
0.175742101
  0
CIRCLE
  5
21E
100
AcDbEntity
  8
0
100
AcDbCircle
 62
7
  6
CONTINUOUS
 10
20.2068232291
 20
1.1717972817
 40
0.1005522074
  0
LINE
  5
21F
100
AcDbEntity
  8
0
100
AcDbLine
 62
7
  6
CONTINUOUS
 10
20.2077290681
 20
1.3756110529
 11
20.2071171714
 21
1.2379342989
  0
LINE
  5
220
100
AcDbEntity
  8
0
100
AcDbLine
 62
7
  6
CONTINUOUS
 10
20.2077290681
 20
1.2016899681
 11
20.2074674401
 21
1.1428236749
  0
LINE
  5
221
100
AcDbEntity
  8
0
100
AcDbLine
 62
7
  6
CONTINUOUS
 10
20.208634907
 20
1.101141841
 11
20.2080230104
 21
0.963465087
  0
LINE
  5
222
100
AcDbEntity
  8
0
100
AcDbLine
 62
7
  6
CONTINUOUS
 10
20.0066328138
 20
1.1745147986
 11
20.1443095678
 21
1.1739029019
  0
LINE
  5
223
100
AcDbEntity
  8
0
100
AcDbLine
 62
7
  6
CONTINUOUS
 10
20.1832714155
 20
1.1727031207
 11
20.238153505
 21
1.172335442
  0
LINE
  5
224
100
AcDbEntity
  8
0
100
AcDbLine
 62
7
  6
CONTINUOUS
 10
20.2756669918
 20
1.1717972817
 11
20.407916871
 21
1.1712095044
  0
CIRCLE
  5
225
100
AcDbEntity
  8
0
100
AcDbCircle
 62
7
  6
CONTINUOUS
 10
20.7509457401
 20
1.1693297793
 40
0.1722024983
  0
CIRCLE
  5
226
100
AcDbEntity
  8
0
100
AcDbCircle
 62
7
  6
CONTINUOUS
 10
20.7509457401
 20
1.1693297793
 40
0.0985164967
  0
LINE
  5
227
100
AcDbEntity
  8
0
100
AcDbLine
 62
7
  6
CONTINUOUS
 10
20.7169767782
 20
1.170462078
 11
20.7825395137
 21
1.1682766535
  0
LINE
  5
228
100
AcDbEntity
  8
0
100
AcDbLine
 62
7
  6
CONTINUOUS
 10
20.8177513651
 20
1.1693297793
 11
20.947965719
 21
1.1693297793
  0
LINE
  5
229
100
AcDbEntity
  8
0
100
AcDbLine
 62
7
  6
CONTINUOUS
 10
20.6875370113
 20
1.170462078
 11
20.5573226574
 21
1.170462078
  0
LINE
  5
22A
100
AcDbEntity
  8
0
100
AcDbLine
 62
7
  6
CONTINUOUS
 10
20.7486811426
 20
1.1987695462
 11
20.7486811426
 21
1.1432869085
  0
LINE
  5
22B
100
AcDbEntity
  8
0
100
AcDbLine
 62
7
  6
CONTINUOUS
 10
20.7498134414
 20
1.1059210505
 11
20.7498134414
 21
0.9757066966
  0
LINE
  5
22C
100
AcDbEntity
  8
0
100
AcDbLine
 62
7
  6
CONTINUOUS
 10
20.7486811426
 20
1.2338708068
 11
20.7486811426
 21
1.3640851607
  0
LINE
  5
22D
100
AcDbEntity
  8
0
100
AcDbLine
 62
7
  6
CONTINUOUS
 10
21.0702539817
 20
1.2701043662
 11
21.4790138229
 21
1.3448360823
  0
LINE
  5
22E
100
AcDbEntity
  8
0
100
AcDbLine
 62
7
  6
CONTINUOUS
 10
21.4790138229
 20
1.3448360823
 11
21.4790138229
 21
0.9779712941
  0
LINE
  5
22F
100
AcDbEntity
  8
0
100
AcDbLine
 62
7
  6
CONTINUOUS
 10
21.4790138229
 20
0.9779712941
 11
21.069121683
 21
1.0617614
  0
LINE
  5
230
100
AcDbEntity
  8
0
100
AcDbLine
 62
7
  6
CONTINUOUS
 10
21.0702539817
 20
1.2701043662
 11
21.069121683
 21
1.0617614
  0
LINE
  5
231
100
AcDbEntity
  8
0
100
AcDbLine
 62
7
  6
CONTINUOUS
 10
21.4790138229
 20
1.1693297793
 11
21.3159628059
 21
1.1693297793
  0
LINE
  5
232
100
AcDbEntity
  8
0
100
AcDbLine
 62
7
  6
CONTINUOUS
 10
21.2876553377
 20
1.1693297793
 11
21.2502894796
 21
1.1693297793
  0
LINE
  5
233
100
AcDbEntity
  8
0
100
AcDbLine
 62
7
  6
CONTINUOUS
 10
21.2208497126
 20
1.1659328831
 11
21.0713862804
 21
1.1659328831
  0
LINE
  5
234
100
AcDbEntity
  8
0
100
AcDbLine
 62
7
  6
CONTINUOUS
 10
20.4796138713
 20
1.5284908897
 11
20.4766766948
 21
0.9294458646
  0
ENDBLK
  5
235
100
AcDbEntity
  8
0
  6
BYBLOCK
 62
0
100
AcDbBlockEnd
  0
BLOCK
  5
236
100
AcDbEntity
  8
0
100
AcDbBlockBegin
  2
*T1
 70
1
 10
0.0
 20
0.0
  3
*T1
  1

  0
LINE
  5
237
100
AcDbEntity
  8
0
100
AcDbLine
 62
2
  6
CONTINUOUS
 10
9.275
 20
0.0
 11
-0.0
 21
0.0
  0
LINE
  5
238
100
AcDbEntity
  8
0
100
AcDbLine
 62
2
  6
CONTINUOUS
 10
9.275
 20
0.0
 11
9.275
 21
1.25
  0
LINE
  5
239
100
AcDbEntity
  8
0
100
AcDbLine
 62
2
  6
CONTINUOUS
 10
9.275
 20
0.625
 11
-0.0
 21
0.625
  0
LINE
  5
23A
100
AcDbEntity
  8
0
100
AcDbLine
 62
2
  6
CONTINUOUS
 10
9.275
 20
1.25
 11
-0.0
 21
1.25
  0
LINE
  5
23B
100
AcDbEntity
  8
0
100
AcDbLine
 62
2
  6
CONTINUOUS
 10
6.8
 20
0.0
 11
6.8
 21
1.25
  0
LINE
  5
23C
100
AcDbEntity
  8
0
100
AcDbLine
 62
2
  6
CONTINUOUS
 10
6.4
 20
0.0
 11
6.4
 21
0.625
  0
LINE
  5
23D
100
AcDbEntity
  8
0
100
AcDbLine
 62
2
  6
CONTINUOUS
 10
5.9
 20
0.0
 11
5.9
 21
0.625
  0
LINE
  5
23E
100
AcDbEntity
  8
0
100
AcDbLine
 62
2
  6
CONTINUOUS
 10
5.2
 20
0.0
 11
5.2
 21
0.625
  0
LINE
  5
23F
100
AcDbEntity
  8
0
100
AcDbLine
 62
2
  6
CONTINUOUS
 10
4.1
 20
0.0
 11
4.1
 21
1.25
  0
LINE
  5
240
100
AcDbEntity
  8
0
100
AcDbLine
 62
2
  6
CONTINUOUS
 10
-0.0
 20
0.0
 11
-0.0
 21
1.25
  0
MTEXT
  5
241
100
AcDbEntity
  8
0
100
AcDbMText
 62
2
  6
CONTINUOUS
  7
STANDARD
 71
2
 72
1
 10
6.6
 20
0.325
 30
0.0
 11
1.0
 21
0.0
 31
0.0
 44
0.9
  1
2
 40
0.125
 41
0.2
  0
MTEXT
  5
242
100
AcDbEntity
  8
0
100
AcDbMText
 62
2
  6
CONTINUOUS
  7
STANDARD
 71
2
 72
1
 10
6.15
 20
0.325
 30
0.0
 11
1.0
 21
0.0
 31
0.0
 44
0.9
  1
C
 40
0.125
 41
0.2
  0
MTEXT
  5
243
100
AcDbEntity
  8
0
100
AcDbMText
 62
2
  6
CONTINUOUS
  7
STANDARD
 71
2
 72
1
 10
5.55
 20
0.325
 30
0.0
 11
1.0
 21
0.0
 31
0.0
 44
0.9
  1
1.000
 40
0.125
 41
1.0
  0
MTEXT
  5
244
100
AcDbEntity
  8
0
100
AcDbMText
 62
2
  6
CONTINUOUS
  7
STANDARD
 71
2
 72
1
 10
4.65
 20
0.325
 30
0.0
 11
1.0
 21
0.0
 31
0.0
 44
0.9
  1
Mar-16-20
 40
0.125
 41
1.8
  0
MTEXT
  5
245
100
AcDbEntity
  8
0
100
AcDbMText
 62
2
  6
CONTINUOUS
  7
STANDARD
 71
2
 72
1
 10
2.05
 20
0.4625
 30
0.0
 11
1.0
 21
0.0
 31
0.0
 44
0.9
  1
Flow divider-combiner manifold assembly
 40
0.125
 41
7.8
  0
MTEXT
  5
246
100
AcDbEntity
  8
0
100
AcDbMText
 62
2
  6
CONTINUOUS
  7
STANDARD
 71
1
 72
1
 10
6.45
 20
0.5625
 30
0.0
 11
1.0
 21
0.0
 31
0.0
 44
0.9
  1
SHEET
 40
0.06
 41
0.48
  0
MTEXT
  5
247
100
AcDbEntity
  8
0
100
AcDbMText
 62
2
  6
CONTINUOUS
  7
STANDARD
 71
1
 72
1
 10
5.95
 20
0.5625
 30
0.0
 11
1.0
 21
0.0
 31
0.0
 44
0.9
  1
DWG SIZE
 40
0.06
 41
0.768
  0
MTEXT
  5
248
100
AcDbEntity
  8
0
100
AcDbMText
 62
2
  6
CONTINUOUS
  7
STANDARD
 71
1
 72
1
 10
5.25
 20
0.5625
 30
0.0
 11
1.0
 21
0.0
 31
0.0
 44
0.9
  1
SCALE
 40
0.06
 41
0.48
  0
MTEXT
  5
249
100
AcDbEntity
  8
0
100
AcDbMText
 62
2
  6
CONTINUOUS
  7
STANDARD
 71
1
 72
1
 10
4.15
 20
0.5625
 30
0.0
 11
1.0
 21
0.0
 31
0.0
 44
0.9
  1
DATE
 40
0.06
 41
0.384
  0
MTEXT
  5
24A
100
AcDbEntity
  8
0
100
AcDbMText
 62
2
  6
CONTINUOUS
  7
STANDARD
 71
1
 72
1
 10
0.05
 20
0.5625
 30
0.0
 11
1.0
 21
0.0
 31
0.0
 44
0.9
  1
DESCRIPTION
 40
0.06
 41
1.056
  0
MTEXT
  5
24B
100
AcDbEntity
  8
0
100
AcDbMText
 62
2
  6
CONTINUOUS
  7
STANDARD
 71
2
 72
1
 10
5.45
 20
1.0375
 30
0.0
 11
1.0
 21
0.0
 31
0.0
 44
0.9
  1
ALL DIMENSIONS IN INCH\PVIEWS ARE THIRD ANGLE
 40
0.12
 41
4.224
  0
MTEXT
  5
24C
100
AcDbEntity
  8
0
100
AcDbMText
 62
2
  6
CONTINUOUS
  7
STANDARD
 71
2
 72
1
 10
2.05
 20
0.95
 30
0.0
 11
1.0
 21
0.0
 31
0.0
 44
0.9
  1
FSDAXAN-NMV
 40
0.125
 41
2.2
  0
MTEXT
  5
24D
100
AcDbEntity
  8
0
100
AcDbMText
 62
2
  6
CONTINUOUS
  7
STANDARD
 71
1
 72
1
 10
0.05
 20
1.1875
 30
0.0
 11
1.0
 21
0.0
 31
0.0
 44
0.9
  1
MODEL
 40
0.06
 41
0.48
  0
ENDBLK
  5
24E
100
AcDbEntity
  8
0
  6
BYBLOCK
 62
0
100
AcDbBlockEnd
  0
BLOCK
  5
24F
100
AcDbEntity
  8
0
100
AcDbBlockBegin
  2
*T2
 70
1
 10
0.0
 20
0.0
  3
*T2
  1

  0
LINE
  5
250
100
AcDbEntity
  8
0
100
AcDbLine
 62
2
  6
CONTINUOUS
 10
0.0
 20
0.0
 11
9.055
 21
0.0
  0
LINE
  5
251
100
AcDbEntity
  8
0
100
AcDbLine
 62
2
  6
CONTINUOUS
 10
0.0
 20
0.0
 11
0.0
 21
-2.594
  0
LINE
  5
252
100
AcDbEntity
  8
0
100
AcDbLine
 62
2
  6
CONTINUOUS
 10
0.0
 20
-0.344
 11
9.055
 21
-0.344
  0
LINE
  5
253
100
AcDbEntity
  8
0
100
AcDbLine
 62
2
  6
CONTINUOUS
 10
0.0
 20
-0.594
 11
9.055
 21
-0.594
  0
LINE
  5
254
100
AcDbEntity
  8
0
100
AcDbLine
 62
2
  6
CONTINUOUS
 10
0.0
 20
-0.844
 11
9.055
 21
-0.844
  0
LINE
  5
255
100
AcDbEntity
  8
0
100
AcDbLine
 62
2
  6
CONTINUOUS
 10
0.0
 20
-1.094
 11
9.055
 21
-1.094
  0
LINE
  5
256
100
AcDbEntity
  8
0
100
AcDbLine
 62
2
  6
CONTINUOUS
 10
0.0
 20
-1.344
 11
9.055
 21
-1.344
  0
LINE
  5
257
100
AcDbEntity
  8
0
100
AcDbLine
 62
2
  6
CONTINUOUS
 10
0.0
 20
-1.594
 11
9.055
 21
-1.594
  0
LINE
  5
258
100
AcDbEntity
  8
0
100
AcDbLine
 62
2
  6
CONTINUOUS
 10
0.0
 20
-1.844
 11
9.055
 21
-1.844
  0
LINE
  5
259
100
AcDbEntity
  8
0
100
AcDbLine
 62
2
  6
CONTINUOUS
 10
0.0
 20
-2.094
 11
9.055
 21
-2.094
  0
LINE
  5
25A
100
AcDbEntity
  8
0
100
AcDbLine
 62
2
  6
CONTINUOUS
 10
0.0
 20
-2.344
 11
9.055
 21
-2.344
  0
LINE
  5
25B
100
AcDbEntity
  8
0
100
AcDbLine
 62
2
  6
CONTINUOUS
 10
0.0
 20
-2.594
 11
9.055
 21
-2.594
  0
LINE
  5
25C
100
AcDbEntity
  8
0
100
AcDbLine
 62
2
  6
CONTINUOUS
 10
3.055
 20
0.0
 11
3.055
 21
-2.594
  0
LINE
  5
25D
100
AcDbEntity
  8
0
100
AcDbLine
 62
2
  6
CONTINUOUS
 10
9.055
 20
0.0
 11
9.055
 21
-2.594
  0
MTEXT
  5
25E
100
AcDbEntity
  8
0
100
AcDbMText
 62
2
  6
CONTINUOUS
  7
STANDARD
 71
2
 72
1
 10
1.5275
 20
-0.0995
 30
0.0
 11
1.0
 21
0.0
 31
0.0
 44
0.9
  1
Technical Data
 40
0.145
 41
3.248
  0
MTEXT
  5
25F
100
AcDbEntity
  8
0
100
AcDbMText
 62
2
  6
CONTINUOUS
  7
STANDARD
 71
2
 72
1
 10
4.555
 20
-0.0995
 30
0.0
 11
1.0
 21
0.0
 31
0.0
 44
0.9
  1
U.S. Units
 40
0.145
 41
2.32
  0
MTEXT
  5
260
100
AcDbEntity
  8
0
100
AcDbMText
 62
2
  6
CONTINUOUS
  7
STANDARD
 71
2
 72
1
 10
7.555
 20
-0.0995
 30
0.0
 11
1.0
 21
0.0
 31
0.0
 44
0.9
  1
Metric Units
 40
0.145
 41
2.784
  0
MTEXT
  5
261
100
AcDbEntity
  8
0
100
AcDbMText
 62
2
  6
CONTINUOUS
  7
STANDARD
 71
2
 72
1
 10
1.5275
 20
-0.4065
 30
0.0
 11
1.0
 21
0.0
 31
0.0
 44
0.9
  1
Cavity
 40
0.125
 41
1.2
  0
MTEXT
  5
262
100
AcDbEntity
  8
0
100
AcDbMText
 62
2
  6
CONTINUOUS
  7
STANDARD
 71
2
 72
1
 10
6.055
 20
-0.4065
 30
0.0
 11
1.0
 21
0.0
 31
0.0
 44
0.9
  1
T-32A
 40
0.125
 41
1.0
  0
MTEXT
  5
263
100
AcDbEntity
  8
0
100
AcDbMText
 62
2
  6
CONTINUOUS
  7
STANDARD
 71
2
 72
1
 10
1.5275
 20
-0.6565
 30
0.0
 11
1.0
 21
0.0
 31
0.0
 44
0.9
  1
Body Features
 40
0.125
 41
2.6
  0
MTEXT
  5
264
100
AcDbEntity
  8
0
100
AcDbMText
 62
2
  6
CONTINUOUS
  7
STANDARD
 71
2
 72
1
 10
6.055
 20
-0.6565
 30
0.0
 11
1.0
 21
0.0
 31
0.0
 44
0.9
  1
Ninety degree
 40
0.125
 41
2.6
  0
MTEXT
  5
265
100
AcDbEntity
  8
0
100
AcDbMText
 62
2
  6
CONTINUOUS
  7
STANDARD
 71
2
 72
1
 10
1.5275
 20
-0.9065
 30
0.0
 11
1.0
 21
0.0
 31
0.0
 44
0.9
  1
Body Type
 40
0.125
 41
1.8
  0
MTEXT
  5
266
100
AcDbEntity
  8
0
100
AcDbMText
 62
2
  6
CONTINUOUS
  7
STANDARD
 71
2
 72
1
 10
6.055
 20
-0.9065
 30
0.0
 11
1.0
 21
0.0
 31
0.0
 44
0.9
  1
Line mount
 40
0.125
 41
2.0
  0
MTEXT
  5
267
100
AcDbEntity
  8
0
100
AcDbMText
 62
2
  6
CONTINUOUS
  7
STANDARD
 71
2
 72
1
 10
1.5275
 20
-1.1565
 30
0.0
 11
1.0
 21
0.0
 31
0.0
 44
0.9
  1
Interface
 40
0.125
 41
1.8
  0
MTEXT
  5
268
100
AcDbEntity
  8
0
100
AcDbMText
 62
2
  6
CONTINUOUS
  7
STANDARD
 71
2
 72
1
 10
6.055
 20
-1.1565
 30
0.0
 11
1.0
 21
0.0
 31
0.0
 44
0.9
  1
None
 40
0.125
 41
0.8
  0
MTEXT
  5
269
100
AcDbEntity
  8
0
100
AcDbMText
 62
2
  6
CONTINUOUS
  7
STANDARD
 71
2
 72
1
 10
1.5275
 20
-1.4065
 30
0.0
 11
1.0
 21
0.0
 31
0.0
 44
0.9
  1
Open Cavity Quantity
 40
0.125
 41
4.0
  0
MTEXT
  5
26A
100
AcDbEntity
  8
0
100
AcDbMText
 62
2
  6
CONTINUOUS
  7
STANDARD
 71
2
 72
1
 10
6.055
 20
-1.4065
 30
0.0
 11
1.0
 21
0.0
 31
0.0
 44
0.9
  1
1
 40
0.125
 41
0.2
  0
MTEXT
  5
26B
100
AcDbEntity
  8
0
100
AcDbMText
 62
2
  6
CONTINUOUS
  7
STANDARD
 71
2
 72
1
 10
1.5275
 20
-1.6565
 30
0.0
 11
1.0
 21
0.0
 31
0.0
 44
0.9
  1
Weight
 40
0.125
 41
1.2
  0
MTEXT
  5
26C
100
AcDbEntity
  8
0
100
AcDbMText
 62
2
  6
CONTINUOUS
  7
STANDARD
 71
2
 72
1
 10
4.555
 20
-1.6565
 30
0.0
 11
1.0
 21
0.0
 31
0.0
 44
0.9
  1
3.112 lb.
 40
0.125
 41
1.8
  0
MTEXT
  5
26D
100
AcDbEntity
  8
0
100
AcDbMText
 62
2
  6
CONTINUOUS
  7
STANDARD
 71
2
 72
1
 10
7.555
 20
-1.6565
 30
0.0
 11
1.0
 21
0.0
 31
0.0
 44
0.9
  1
1,411 kg.
 40
0.125
 41
1.8
  0
MTEXT
  5
26E
100
AcDbEntity
  8
0
100
AcDbMText
 62
2
  6
CONTINUOUS
  7
STANDARD
 71
2
 72
1
 10
1.5275
 20
-1.9065
 30
0.0
 11
1.0
 21
0.0
 31
0.0
 44
0.9
  1
Mounting Hole Diameter
 40
0.125
 41
4.4
  0
MTEXT
  5
26F
100
AcDbEntity
  8
0
100
AcDbMText
 62
2
  6
CONTINUOUS
  7
STANDARD
 71
2
 72
1
 10
4.555
 20
-1.9065
 30
0.0
 11
1.0
 21
0.0
 31
0.0
 44
0.9
  1
.34 in.
 40
0.125
 41
1.4
  0
MTEXT
  5
270
100
AcDbEntity
  8
0
100
AcDbMText
 62
2
  6
CONTINUOUS
  7
STANDARD
 71
2
 72
1
 10
7.555
 20
-1.9065
 30
0.0
 11
1.0
 21
0.0
 31
0.0
 44
0.9
  1
8.6 mm
 40
0.125
 41
1.2
  0
MTEXT
  5
271
100
AcDbEntity
  8
0
100
AcDbMText
 62
2
  6
CONTINUOUS
  7
STANDARD
 71
2
 72
1
 10
1.5275
 20
-2.1565
 30
0.0
 11
1.0
 21
0.0
 31
0.0
 44
0.9
  1
Mounting Hole Depth
 40
0.125
 41
3.8
  0
MTEXT
  5
272
100
AcDbEntity
  8
0
100
AcDbMText
 62
2
  6
CONTINUOUS
  7
STANDARD
 71
2
 72
1
 10
6.055
 20
-2.1565
 30
0.0
 11
1.0
 21
0.0
 31
0.0
 44
0.9
  1
Through
 40
0.125
 41
1.4
  0
MTEXT
  5
273
100
AcDbEntity
  8
0
100
AcDbMText
 62
2
  6
CONTINUOUS
  7
STANDARD
 71
2
 72
1
 10
1.5275
 20
-2.4065
 30
0.0
 11
1.0
 21
0.0
 31
0.0
 44
0.9
  1
Mounting Hole Quantity
 40
0.125
 41
4.4
  0
MTEXT
  5
274
100
AcDbEntity
  8
0
100
AcDbMText
 62
2
  6
CONTINUOUS
  7
STANDARD
 71
2
 72
1
 10
6.055
 20
-2.4065
 30
0.0
 11
1.0
 21
0.0
 31
0.0
 44
0.9
  1
2
 40
0.125
 41
0.2
  0
ENDBLK
  5
275
100
AcDbEntity
  8
0
  6
BYBLOCK
 62
0
100
AcDbBlockEnd
  0
BLOCK
  5
276
100
AcDbEntity
  8
0
100
AcDbBlockBegin
  2
*T3
 70
1
 10
0.0
 20
0.0
  3
*T3
  1

  0
LINE
  5
277
100
AcDbEntity
  8
0
100
AcDbLine
 62
2
  6
CONTINUOUS
 10
0.0
 20
0.0
 11
4.6
 21
0.0
  0
LINE
  5
278
100
AcDbEntity
  8
0
100
AcDbLine
 62
2
  6
CONTINUOUS
 10
0.0
 20
0.0
 11
0.0
 21
-0.93775
  0
LINE
  5
279
100
AcDbEntity
  8
0
100
AcDbLine
 62
2
  6
CONTINUOUS
 10
0.0
 20
-0.34375
 11
4.6
 21
-0.34375
  0
LINE
  5
27A
100
AcDbEntity
  8
0
100
AcDbLine
 62
2
  6
CONTINUOUS
 10
0.0
 20
-0.68775
 11
4.6
 21
-0.68775
  0
LINE
  5
27B
100
AcDbEntity
  8
0
100
AcDbLine
 62
2
  6
CONTINUOUS
 10
0.0
 20
-0.93775
 11
4.6
 21
-0.93775
  0
LINE
  5
27C
100
AcDbEntity
  8
0
100
AcDbLine
 62
2
  6
CONTINUOUS
 10
1.3
 20
-0.34375
 11
1.3
 21
-0.93775
  0
LINE
  5
27D
100
AcDbEntity
  8
0
100
AcDbLine
 62
2
  6
CONTINUOUS
 10
3.3
 20
-0.34375
 11
3.3
 21
-0.93775
  0
LINE
  5
27E
100
AcDbEntity
  8
0
100
AcDbLine
 62
2
  6
CONTINUOUS
 10
4.6
 20
0.0
 11
4.6
 21
-0.93775
  0
MTEXT
  5
27F
100
AcDbEntity
  8
0
100
AcDbMText
 62
2
  6
CONTINUOUS
  7
STANDARD
 71
2
 72
1
 10
2.3
 20
-0.099375
 30
0.0
 11
1.0
 21
0.0
 31
0.0
 44
0.9
  1
Port Headings
 40
0.145
 41
3.016
  0
MTEXT
  5
280
100
AcDbEntity
  8
0
100
AcDbMText
 62
2
  6
CONTINUOUS
  7
STANDARD
 71
2
 72
1
 10
0.65
 20
-0.44325
 30
0.0
 11
1.0
 21
0.0
 31
0.0
 44
0.9
  1
Product
 40
0.145
 41
1.624
  0
MTEXT
  5
281
100
AcDbEntity
  8
0
100
AcDbMText
 62
2
  6
CONTINUOUS
  7
STANDARD
 71
2
 72
1
 10
2.3
 20
-0.44325
 30
0.0
 11
1.0
 21
0.0
 31
0.0
 44
0.9
  1
Port
 40
0.145
 41
0.928
  0
MTEXT
  5
282
100
AcDbEntity
  8
0
100
AcDbMText
 62
2
  6
CONTINUOUS
  7
STANDARD
 71
2
 72
1
 10
3.95
 20
-0.44325
 30
0.0
 11
1.0
 21
0.0
 31
0.0
 44
0.9
  1
Size
 40
0.145
 41
0.928
  0
MTEXT
  5
283
100
AcDbEntity
  8
0
100
AcDbMText
 62
2
  6
CONTINUOUS
  7
STANDARD
 71
2
 72
1
 10
0.65
 20
-0.75025
 30
0.0
 11
1.0
 21
0.0
 31
0.0
 44
0.9
  1
NMV
 40
0.125
 41
0.6
  0
MTEXT
  5
284
100
AcDbEntity
  8
0
100
AcDbMText
 62
2
  6
CONTINUOUS
  7
STANDARD
 71
2
 72
1
 10
2.3
 20
-0.75025
 30
0.0
 11
1.0
 21
0.0
 31
0.0
 44
0.9
  1
All Ports
 40
0.125
 41
1.8
  0
MTEXT
  5
285
100
AcDbEntity
  8
0
100
AcDbMText
 62
2
  6
CONTINUOUS
  7
STANDARD
 71
2
 72
1
 10
3.95
 20
-0.75025
 30
0.0
 11
1.0
 21
0.0
 31
0.0
 44
0.9
  1
1/2" BSPP
 40
0.125
 41
1.8
  0
ENDBLK
  5
286
100
AcDbEntity
  8
0
  6
BYBLOCK
 62
0
100
AcDbBlockEnd
  0
ENDSEC
  0
SECTION
  2
ENTITIES
  0
IMAGE
  5
287
100
AcDbEntity
  8
0
100
AcDbRasterImage
 62
7
  6
CONTINUOUS
 10
19.2297077316
 20
0.3094318264
 30
0.0
 11
0.0066666667
 21
0.0
 31
0.0
 12
0.0
 22
0.0066666667
 32
0.0
 13
369.0
 23
92.0
340
       375
 70
9
280
0
281
50
282
50
283
0
360
       36F
 71
1
 91
2
 14
-0.5
 24
-0.5
 14
368.5
 24
91.5
  0
INSERT
  5
288
100
AcDbEntity
  8
0
100
AcDbBlockReference
 62
2
  6
CONTINUOUS
  2
SUN_FIRST_THIRD_ANGLE_BL0
 10
20.4816717061
 20
1.2289683772
  0
ACAD_TABLE
  5
289
100
AcDbEntity
  8
0
 62
2
  6
CONTINUOUS
100
AcDbBlockReference
  2
*T1
 10
12.42375
 20
0.30125
 30
0.0
100
AcDbTable
342
       377
343
20F
 11
1.0
 21
0.0
 31
0.0
 90
6
 91
4
 92
6
 93
20
 94
0
 95
0
 96
0
 70
1
 41
0.0
141
0.525
141
0.1
141
0.525
141
0.1
142
4.1
142
1.1
142
0.7
142
0.5
142
0.4
142
2.475
171
1
172
0
173
0
174
0
175
1
176
1
 91
33
178
0
145
0.0
301
CELL_VALUE
 90
4
  1
Flow divider-combiner manifold assembly
304
ACVALUE_END
170
2
140
0.125
171
1
172
0
173
0
174
0
175
1
176
1
 91
33
178
0
145
0.0
301
CELL_VALUE
 90
4
  1
Mar-16-20
304
ACVALUE_END
170
5
140
0.125
171
1
172
0
173
0
174
0
175
1
176
1
 91
33
178
0
145
0.0
301
CELL_VALUE
 90
4
  1
1.000
304
ACVALUE_END
170
5
140
0.125
171
1
172
0
173
0
174
0
175
1
176
1
 91
33
178
0
145
0.0
301
CELL_VALUE
 90
4
  1
C
304
ACVALUE_END
170
5
140
0.125
171
1
172
0
173
0
174
0
175
1
176
1
 91
33
178
0
145
0.0
301
CELL_VALUE
 90
4
  1
2
304
ACVALUE_END
170
5
140
0.125
171
1
172
0
173
0
174
0
175
1
176
1
 91
33
178
0
145
0.0
301
CELL_VALUE
 90
4
  1
 
304
ACVALUE_END
170
1
140
0.125
171
1
172
0
173
0
174
0
175
1
176
1
 91
33
178
0
145
0.0
301
CELL_VALUE
 90
4
  1
DESCRIPTION
304
ACVALUE_END
170
1
140
0.06
171
1
172
0
173
0
174
0
175
1
176
1
 91
33
178
0
145
0.0
301
CELL_VALUE
 90
4
  1
DATE
304
ACVALUE_END
170
1
140
0.06
171
1
172
0
173
0
174
0
175
1
176
1
 91
33
178
0
145
0.0
301
CELL_VALUE
 90
4
  1
SCALE
304
ACVALUE_END
170
1
140
0.06
171
1
172
0
173
0
174
0
175
1
176
1
 91
33
178
0
145
0.0
301
CELL_VALUE
 90
4
  1
DWG SIZE
304
ACVALUE_END
170
1
140
0.06
171
1
172
0
173
0
174
0
175
1
176
1
 91
33
178
0
145
0.0
301
CELL_VALUE
 90
4
  1
SHEET
304
ACVALUE_END
170
1
140
0.06
171
1
172
0
173
0
174
0
175
1
176
1
 91
33
178
0
145
0.0
301
CELL_VALUE
 90
4
  1
 
304
ACVALUE_END
170
1
140
0.125
171
1
172
0
173
0
174
0
175
1
176
1
 91
33
178
0
145
0.0
301
CELL_VALUE
 90
4
  1
FSDAXAN-NMV
304
ACVALUE_END
170
5
140
0.125
171
1
172
0
173
0
174
0
175
4
176
1
 91
33
178
0
145
0.0
301
CELL_VALUE
 90
4
  1
ALL DIMENSIONS IN INCH\PVIEWS ARE THIRD ANGLE
304
ACVALUE_END
170
5
140
0.12
171
1
172
0
173
1
174
0
175
1
176
1
 91
1
178
0
145
0.0
170
1
171
1
172
0
173
1
174
0
175
1
176
1
 91
1
178
0
145
0.0
170
1
171
1
172
0
173
1
174
0
175
1
176
1
 91
1
178
0
145
0.0
170
5
171
1
172
0
173
0
174
0
175
1
176
1
 91
33
178
0
145
0.0
301
CELL_VALUE
 90
4
  1
 
304
ACVALUE_END
170
1
140
0.125
171
1
172
0
173
0
174
0
175
1
176
1
 91
33
178
0
145
0.0
301
CELL_VALUE
 90
4
  1
MODEL
304
ACVALUE_END
170
1
140
0.06
171
1
172
0
173
0
174
0
175
1
176
1
 91
33
178
0
145
0.0
301
CELL_VALUE
 90
4
  1
 
304
ACVALUE_END
170
1
140
0.125
171
1
172
0
173
0
174
0
175
1
176
1
 91
33
178
0
145
0.0
301
CELL_VALUE
 90
4
  1
 
304
ACVALUE_END
170
1
140
0.125
171
1
172
0
173
0
174
0
175
1
176
1
 91
33
178
0
145
0.0
301
CELL_VALUE
 90
4
  1
 
304
ACVALUE_END
170
1
140
0.125
171
1
172
0
173
0
174
0
175
1
176
1
 91
33
178
0
145
0.0
301
CELL_VALUE
 90
4
  1
 
304
ACVALUE_END
170
1
140
0.125
171
1
172
0
173
0
174
0
175
1
176
1
 91
33
178
0
145
0.0
301
CELL_VALUE
 90
4
  1
 
304
ACVALUE_END
170
1
140
0.125
  0
ACAD_TABLE
  5
28A
100
AcDbEntity
  8
0
 62
2
  6
CONTINUOUS
100
AcDbBlockReference
  2
*T2
 10
12.4237499994
 20
16.47875
 30
0.0
100
AcDbTable
342
       376
343
210
 11
1.0
 21
0.0
 31
0.0
 90
22
 91
10
 92
3
 93
16
 94
0
 95
0
 96
0
 41
0.028
141
0.344
141
0.25
141
0.25
141
0.25
141
0.25
141
0.25
141
0.25
141
0.25
141
0.25
141
0.25
142
3.055
142
3.0
142
3.0
171
1
172
0
173
0
174
0
175
1
176
1
 91
33
178
0
145
0.0
301
CELL_VALUE
 90
4
  1
Technical Data
304
ACVALUE_END
170
5
140
0.145
171
1
172
0
173
0
174
0
175
1
176
1
 91
33
178
0
145
0.0
301
CELL_VALUE
 90
4
  1
U.S. Units
304
ACVALUE_END
170
5
140
0.145
171
1
172
0
173
0
174
0
175
1
176
1
 91
33
178
0
145
0.0
301
CELL_VALUE
 90
4
  1
Metric Units
304
ACVALUE_END
170
5
140
0.145
171
1
172
0
173
0
174
0
175
1
176
1
 91
33
178
0
145
0.0
301
CELL_VALUE
 90
4
  1
Cavity
304
ACVALUE_END
170
5
140
0.125
171
1
172
0
173
0
174
0
175
2
176
1
 91
33
178
0
145
0.0
301
CELL_VALUE
 90
4
  1
T-32A
304
ACVALUE_END
170
5
140
0.125
171
1
172
0
173
1
174
0
175
1
176
1
 91
1
178
0
145
0.0
170
1
171
1
172
0
173
0
174
0
175
1
176
1
 91
33
178
0
145
0.0
301
CELL_VALUE
 90
4
  1
Body Features
304
ACVALUE_END
170
5
140
0.125
171
1
172
0
173
0
174
0
175
2
176
1
 91
33
178
0
145
0.0
301
CELL_VALUE
 90
4
  1
Ninety degree
304
ACVALUE_END
170
5
140
0.125
171
1
172
0
173
1
174
0
175
1
176
1
 91
1
178
0
145
0.0
170
1
171
1
172
0
173
0
174
0
175
1
176
1
 91
33
178
0
145
0.0
301
CELL_VALUE
 90
4
  1
Body Type
304
ACVALUE_END
170
5
140
0.125
171
1
172
0
173
0
174
0
175
2
176
1
 91
33
178
0
145
0.0
301
CELL_VALUE
 90
4
  1
Line mount
304
ACVALUE_END
170
5
140
0.125
171
1
172
0
173
1
174
0
175
1
176
1
 91
1
178
0
145
0.0
170
1
171
1
172
0
173
0
174
0
175
1
176
1
 91
33
178
0
145
0.0
301
CELL_VALUE
 90
4
  1
Interface
304
ACVALUE_END
170
5
140
0.125
171
1
172
0
173
0
174
0
175
2
176
1
 91
33
178
0
145
0.0
301
CELL_VALUE
 90
4
  1
None
304
ACVALUE_END
170
5
140
0.125
171
1
172
0
173
1
174
0
175
1
176
1
 91
1
178
0
145
0.0
170
1
171
1
172
0
173
0
174
0
175
1
176
1
 91
33
178
0
145
0.0
301
CELL_VALUE
 90
4
  1
Open Cavity Quantity
304
ACVALUE_END
170
5
140
0.125
171
1
172
0
173
0
174
0
175
2
176
1
 91
33
178
0
145
0.0
301
CELL_VALUE
 90
4
  1
1
304
ACVALUE_END
170
5
140
0.125
171
1
172
0
173
1
174
0
175
1
176
1
 91
1
178
0
145
0.0
170
1
171
1
172
0
173
0
174
0
175
1
176
1
 91
33
178
0
145
0.0
301
CELL_VALUE
 90
4
  1
Weight
304
ACVALUE_END
170
5
140
0.125
171
1
172
0
173
0
174
0
175
1
176
1
 91
33
178
0
145
0.0
301
CELL_VALUE
 90
4
  1
3.112 lb.
304
ACVALUE_END
170
5
140
0.125
171
1
172
0
173
0
174
0
175
1
176
1
 91
33
178
0
145
0.0
301
CELL_VALUE
 90
4
  1
1,411 kg.
304
ACVALUE_END
170
5
140
0.125
171
1
172
0
173
0
174
0
175
1
176
1
 91
33
178
0
145
0.0
301
CELL_VALUE
 90
4
  1
Mounting Hole Diameter
304
ACVALUE_END
170
5
140
0.125
171
1
172
0
173
0
174
0
175
1
176
1
 91
33
178
0
145
0.0
301
CELL_VALUE
 90
4
  1
.34 in.
304
ACVALUE_END
170
5
140
0.125
171
1
172
0
173
0
174
0
175
1
176
1
 91
33
178
0
145
0.0
301
CELL_VALUE
 90
4
  1
8.6 mm
304
ACVALUE_END
170
5
140
0.125
171
1
172
0
173
0
174
0
175
1
176
1
 91
33
178
0
145
0.0
301
CELL_VALUE
 90
4
  1
Mounting Hole Depth
304
ACVALUE_END
170
5
140
0.125
171
1
172
0
173
0
174
0
175
2
176
1
 91
33
178
0
145
0.0
301
CELL_VALUE
 90
4
  1
Through
304
ACVALUE_END
170
5
140
0.125
171
1
172
0
173
1
174
0
175
1
176
1
 91
1
178
0
145
0.0
170
1
171
1
172
0
173
0
174
0
175
1
176
1
 91
33
178
0
145
0.0
301
CELL_VALUE
 90
4
  1
Mounting Hole Quantity
304
ACVALUE_END
170
5
140
0.125
171
1
172
0
173
0
174
0
175
2
176
1
 91
33
178
0
145
0.0
301
CELL_VALUE
 90
4
  1
2
304
ACVALUE_END
170
5
140
0.125
171
1
172
0
173
1
174
0
175
1
176
1
 91
1
178
0
145
0.0
170
1
  0
ACAD_TABLE
  5
28B
100
AcDbEntity
  8
0
 62
2
  6
CONTINUOUS
100
AcDbBlockReference
  2
*T3
 10
0.52125
 20
1.459
 30
0.0
100
AcDbTable
342
       376
343
211
 11
1.0
 21
0.0
 31
0.0
 90
22
 91
3
 92
3
 93
16
 94
0
 95
0
 96
0
 41
0.05
141
0.34375
141
0.344
141
0.25
142
1.3
142
2.0
142
1.3
171
1
172
0
173
0
174
0
175
3
176
1
 91
33
178
0
145
0.0
301
CELL_VALUE
 90
4
  1
Port Headings
304
ACVALUE_END
170
5
140
0.145
171
1
172
0
173
1
174
0
175
1
176
1
 91
1
178
0
145
0.0
170
1
171
1
172
0
173
1
174
0
175
1
176
1
 91
1
178
0
145
0.0
170
1
171
1
172
0
173
0
174
0
175
1
176
1
 91
33
178
0
145
0.0
301
CELL_VALUE
 90
4
  1
Product
304
ACVALUE_END
170
5
140
0.145
171
1
172
0
173
0
174
0
175
1
176
1
 91
33
178
0
145
0.0
301
CELL_VALUE
 90
4
  1
Port
304
ACVALUE_END
170
5
140
0.145
171
1
172
0
173
0
174
0
175
1
176
1
 91
33
178
0
145
0.0
301
CELL_VALUE
 90
4
  1
Size
304
ACVALUE_END
170
5
140
0.145
171
1
172
0
173
0
174
0
175
1
176
1
 91
33
178
0
145
0.0
301
CELL_VALUE
 90
4
  1
NMV
304
ACVALUE_END
170
5
140
0.125
171
1
172
0
173
0
174
0
175
1
176
1
 91
33
178
0
145
0.0
301
CELL_VALUE
 90
4
  1
All Ports
304
ACVALUE_END
170
5
140
0.125
171
1
172
0
173
0
174
0
175
1
176
1
 91
33
178
0
145
0.0
301
CELL_VALUE
 90
4
  1
1/2" BSPP
304
ACVALUE_END
170
5
140
0.125
  0
MTEXT
  5
28C
100
AcDbEntity
  8
0
100
AcDbMText
 62
2
  6
CONTINUOUS
  7
STANDARD
 71
1
 72
1
 10
0.52125
 20
5.75995
 30
0.0
 11
1.0
 21
0.0
 31
0.0
 44
0.6
  3
Notes\P \P1. Important: Carefully consider\P   the maximum system pressure. The\P   pressure rating of the manifold is\P   dependent on the manifold material,\P   with the port type/size a secondary\P   consideration. Manifolds\P   constructed of alu
  1
minum are not\P   rated for pressures higher than\P   3000 psi (210 bar), regardless of\P   the port type/size specified.
 40
0.1
 41
3.04
  0
LINE
  5
28D
100
AcDbEntity
  8
0
100
AcDbLine
 62
7
  6
CONTINUOUS
 10
0.30125
 20
0.30125
 11
0.30125
 21
16.69875
  0
LINE
  5
28E
100
AcDbEntity
  8
0
100
AcDbLine
 62
7
  6
CONTINUOUS
 10
0.30125
 20
0.30125
 11
21.69875
 21
0.30125
  0
LINE
  5
28F
100
AcDbEntity
  8
0
100
AcDbLine
 62
7
  6
CONTINUOUS
 10
0.30125
 20
16.69875
 11
21.69875
 21
16.69875
  0
LINE
  5
290
100
AcDbEntity
  8
0
100
AcDbLine
 62
7
  6
CONTINUOUS
 10
21.69875
 20
0.30125
 11
21.69875
 21
16.69875
  0
LINE
  5
291
100
AcDbEntity
  8
0
100
AcDbLine
 62
7
  6
CONTINUOUS
 10
8.2261108646
 20
9.2420836348
 11
8.2058748906
 21
9.2077738489
  0
LINE
  5
292
100
AcDbEntity
  8
0
100
AcDbLine
 62
7
  6
CONTINUOUS
 10
8.144964831
 20
8.1986536889
 11
8.1371879544
 21
8.2173383349
  0
LINE
  5
293
100
AcDbEntity
  8
0
100
AcDbLine
 62
7
  6
CONTINUOUS
 10
9.0805012261
 20
10.3663566026
 11
8.5628635631
 21
9.8663569856
  0
LINE
  5
294
100
AcDbEntity
  8
0
100
AcDbLine
 62
7
  6
CONTINUOUS
 10
8.5628635631
 20
6.9685793351
 11
8.5628635631
 21
9.8663569856
  0
LINE
  5
295
100
AcDbEntity
  8
0
100
AcDbLine
 62
7
  6
CONTINUOUS
 10
10.2184111245
 20
9.9885836987
 11
10.2173754925
 21
9.9876021183
  0
LINE
  5
296
100
AcDbEntity
  8
0
100
AcDbLine
 62
7
  6
CONTINUOUS
 10
8.5628635631
 20
6.9685793351
 11
13.3924929807
 21
6.6336433974
  0
LINE
  5
297
100
AcDbEntity
  8
0
100
AcDbLine
 62
4
  6
CONTINUOUS
 10
9.5906088014
 20
9.5835447451
 11
9.5906088014
 21
9.6487447408
  0
LINE
  5
298
100
AcDbEntity
  8
0
100
AcDbLine
 62
4
  6
CONTINUOUS
 10
10.5188634817
 20
7.0116265672
 11
10.528522738
 21
7.0109566955
  0
LINE
  5
299
100
AcDbEntity
  8
0
100
AcDbLine
 62
4
  6
CONTINUOUS
 10
10.5768190299
 20
7.0148517802
 11
10.5864782897
 21
7.0141819083
  0
LINE
  5
29A
100
AcDbEntity
  8
0
100
AcDbLine
 62
4
  6
CONTINUOUS
 10
10.528522738
 20
7.0109566955
 11
10.5381819943
 21
7.0030423798
  0
LINE
  5
29B
100
AcDbEntity
  8
0
100
AcDbLine
 62
4
  6
CONTINUOUS
 10
10.5864782897
 20
7.0141819083
 11
10.6057968067
 21
6.9983532766
  0
LINE
  5
29C
100
AcDbEntity
  8
0
100
AcDbLine
 62
4
  6
CONTINUOUS
 10
9.8330561012
 20
7.8036403733
 11
9.8330561012
 21
7.8367578311
  0
LINE
  5
29D
100
AcDbEntity
  8
0
100
AcDbLine
 62
4
  6
CONTINUOUS
 10
9.8330561012
 20
8.703331305
 11
9.8330561012
 21
8.7060910827
  0
LINE
  5
29E
100
AcDbEntity
  8
0
100
AcDbLine
 62
4
  6
CONTINUOUS
 10
9.8661735574
 20
8.5023298924
 11
9.8661735574
 21
8.4609330618
  0
LINE
  5
29F
100
AcDbEntity
  8
0
100
AcDbLine
 62
4
  6
CONTINUOUS
 10
9.8661735574
 20
8.1490769715
 11
9.8661735574
 21
8.1904738021
  0
LINE
  5
2A0
100
AcDbEntity
  8
0
100
AcDbLine
 62
4
  6
CONTINUOUS
 10
9.8661735574
 20
8.320183849
 11
9.8661735574
 21
8.3533012914
  0
LINE
  5
2A1
100
AcDbEntity
  8
0
100
AcDbLine
 62
4
  6
CONTINUOUS
 10
9.8661735574
 20
8.386418789
 11
9.8661735574
 21
8.4195362313
  0
LINE
  5
2A2
100
AcDbEntity
  8
0
100
AcDbLine
 62
4
  6
CONTINUOUS
 10
9.8661735574
 20
8.7534705428
 11
9.8661735574
 21
8.7865880957
  0
LINE
  5
2A3
100
AcDbEntity
  8
0
100
AcDbLine
 62
4
  6
CONTINUOUS
 10
9.8661735574
 20
8.827984871
 11
9.8661735574
 21
8.8611023133
  0
LINE
  5
2A4
100
AcDbEntity
  8
0
100
AcDbLine
 62
4
  6
CONTINUOUS
 10
9.910330169
 20
8.8580400419
 11
9.904810593
 21
8.8253053834
  0
LINE
  5
2A5
100
AcDbEntity
  8
0
100
AcDbLine
 62
4
  6
CONTINUOUS
 10
9.8496148293
 20
7.7859332918
 11
9.8330561012
 21
7.8036403733
  0
LINE
  5
2A6
100
AcDbEntity
  8
0
100
AcDbLine
 62
4
  6
CONTINUOUS
 10
9.9489672046
 20
7.8204400048
 11
9.9324084748
 21
7.8381470847
  0
LINE
  5
2A7
100
AcDbEntity
  8
0
100
AcDbLine
 62
4
  6
CONTINUOUS
 10
9.9489672046
 20
7.9115130195
 11
9.9324084748
 21
7.9292200925
  0
LINE
  5
2A8
100
AcDbEntity
  8
0
100
AcDbLine
 62
4
  6
CONTINUOUS
 10
10.5092042185
 20
6.9615853316
 11
10.4995449621
 21
6.9767440912
  0
LINE
  5
2A9
100
AcDbEntity
  8
0
100
AcDbLine
 62
4
  6
CONTINUOUS
 10
10.5381819943
 20
7.0030423798
 11
10.5478412575
 21
6.9878836197
  0
LINE
  5
2AA
100
AcDbEntity
  8
0
100
AcDbLine
 62
4
  6
CONTINUOUS
 10
10.6057968067
 20
6.9983532766
 11
10.6154560656
 21
6.9831945168
  0
LINE
  5
2AB
100
AcDbEntity
  8
0
100
AcDbLine
 62
4
  6
CONTINUOUS
 10
9.907570381
 20
8.4746209035
 11
9.907570381
 21
8.5077383459
  0
LINE
  5
2AC
100
AcDbEntity
  8
0
100
AcDbLine
 62
4
  6
CONTINUOUS
 10
9.9489672046
 20
8.7808463367
 11
9.9489672046
 21
8.7477287839
  0
LINE
  5
2AD
100
AcDbEntity
  8
0
100
AcDbLine
 62
4
  6
CONTINUOUS
 10
9.9489672046
 20
8.6456166792
 11
9.9489672046
 21
8.629057958
  0
LINE
  5
2AE
100
AcDbEntity
  8
0
100
AcDbLine
 62
4
  6
CONTINUOUS
 10
9.9489672046
 20
8.5048674664
 11
9.9489672046
 21
8.4717500241
  0
LINE
  5
2AF
100
AcDbEntity
  8
0
100
AcDbLine
 62
4
  6
CONTINUOUS
 10
9.9489672046
 20
8.3475595324
 11
9.9489672046
 21
8.3144420901
  0
LINE
  5
2B0
100
AcDbEntity
  8
0
100
AcDbLine
 62
4
  6
CONTINUOUS
 10
9.9489672046
 20
7.787322546
 11
9.9489672046
 21
7.8204400048
  0
LINE
  5
2B1
100
AcDbEntity
  8
0
100
AcDbLine
 62
4
  6
CONTINUOUS
 10
9.9489672046
 20
7.8866749171
 11
9.9489672046
 21
7.9115130195
  0
LINE
  5
2B2
100
AcDbEntity
  8
0
100
AcDbLine
 62
4
  6
CONTINUOUS
 10
9.9489672046
 20
8.5462642969
 11
9.9489672046
 21
8.5876611275
  0
LINE
  5
2B3
100
AcDbEntity
  8
0
100
AcDbLine
 62
4
  6
CONTINUOUS
 10
9.9489672046
 20
8.822243112
 11
9.9489672046
 21
8.8553605543
  0
LINE
  5
2B4
100
AcDbEntity
  8
0
100
AcDbLine
 62
4
  6
CONTINUOUS
 10
9.9765650865
 20
8.2242149541
 11
9.9765650865
 21
8.2407736752
  0
LINE
  5
2B5
100
AcDbEntity
  8
0
100
AcDbLine
 62
4
  6
CONTINUOUS
 10
9.9489672046
 20
8.4717500241
 11
9.9406878397
 21
8.4557654788
  0
LINE
  5
2B6
100
AcDbEntity
  8
0
100
AcDbLine
 62
4
  6
CONTINUOUS
 10
9.915849745
 20
8.8659365909
 11
9.910330169
 21
8.8580400419
  0
LINE
  5
2B7
100
AcDbEntity
  8
0
100
AcDbLine
 62
4
  6
CONTINUOUS
 10
9.904810593
 20
8.8253053834
 11
9.899291017
 21
8.8174088344
  0
LINE
  5
2B8
100
AcDbEntity
  8
0
100
AcDbLine
 62
4
  6
CONTINUOUS
 10
9.8661735574
 20
8.8611023133
 11
9.8744529249
 21
8.8688074701
  0
LINE
  5
2B9
100
AcDbEntity
  8
0
100
AcDbLine
 62
4
  6
CONTINUOUS
 10
9.9406878397
 20
8.814537955
 11
9.9489672046
 21
8.822243112
  0
LINE
  5
2BA
100
AcDbEntity
  8
0
100
AcDbLine
 62
4
  6
CONTINUOUS
 10
9.9489672046
 20
8.7477287839
 11
9.9406878397
 21
8.7400236268
  0
LINE
  5
2BB
100
AcDbEntity
  8
0
100
AcDbLine
 62
4
  6
CONTINUOUS
 10
9.8744529249
 20
8.3030509518
 11
9.8661735574
 21
8.320183849
  0
LINE
  5
2BC
100
AcDbEntity
  8
0
100
AcDbLine
 62
4
  6
CONTINUOUS
 10
9.915849745
 20
8.4574880065
 11
9.907570381
 21
8.4746209035
  0
LINE
  5
2BD
100
AcDbEntity
  8
0
100
AcDbLine
 62
4
  6
CONTINUOUS
 10
9.9489672046
 20
8.3144420901
 11
9.9406878397
 21
8.2984575448
  0
LINE
  5
2BE
100
AcDbEntity
  8
0
100
AcDbLine
 62
4
  6
CONTINUOUS
 10
9.9489672046
 20
8.629057958
 11
9.9406878397
 21
8.6213527457
  0
LINE
  5
2BF
100
AcDbEntity
  8
0
100
AcDbLine
 62
4
  6
CONTINUOUS
 10
9.9406878397
 20
8.5385590846
 11
9.9489672046
 21
8.5462642969
  0
LINE
  5
2C0
100
AcDbEntity
  8
0
100
AcDbLine
 62
4
  6
CONTINUOUS
 10
9.8661735574
 20
7.7847849401
 11
9.8496148293
 21
7.7859332918
  0
LINE
  5
2C1
100
AcDbEntity
  8
0
100
AcDbLine
 62
4
  6
CONTINUOUS
 10
9.9324084748
 20
7.8381470847
 11
9.915849745
 21
7.8392954365
  0
LINE
  5
2C2
100
AcDbEntity
  8
0
100
AcDbLine
 62
4
  6
CONTINUOUS
 10
9.8330561012
 20
7.8781546513
 11
9.9324084748
 21
7.8712645408
  0
LINE
  5
2C3
100
AcDbEntity
  8
0
100
AcDbLine
 62
4
  6
CONTINUOUS
 10
10.5401138321
 20
7.8649972916
 11
10.4242027287
 21
7.8730357539
  0
LINE
  5
2C4
100
AcDbEntity
  8
0
100
AcDbLine
 62
4
  6
CONTINUOUS
 10
10.5235551023
 20
7.9241011882
 11
10.5401138321
 21
7.9063941084
  0
LINE
  5
2C5
100
AcDbEntity
  8
0
100
AcDbLine
 62
4
  6
CONTINUOUS
 10
10.4683593369
 20
7.8478951752
 11
10.4904376445
 21
7.8022074277
  0
LINE
  5
2C6
100
AcDbEntity
  8
0
100
AcDbLine
 62
4
  6
CONTINUOUS
 10
10.4242027287
 20
7.8730357539
 11
10.4242027287
 21
7.9144325707
  0
LINE
  5
2C7
100
AcDbEntity
  8
0
100
AcDbLine
 62
4
  6
CONTINUOUS
 10
10.4242027287
 20
8.0772600669
 11
10.4242027287
 21
8.1434949792
  0
LINE
  5
2C8
100
AcDbEntity
  8
0
100
AcDbLine
 62
4
  6
CONTINUOUS
 10
10.4242027287
 20
8.1766124491
 11
10.4242027287
 21
8.2262886403
  0
LINE
  5
2C9
100
AcDbEntity
  8
0
100
AcDbLine
 62
4
  6
CONTINUOUS
 10
10.4242027287
 20
8.3670378531
 11
10.4242027287
 21
8.4001552954
  0
LINE
  5
2CA
100
AcDbEntity
  8
0
100
AcDbLine
 62
4
  6
CONTINUOUS
 10
10.4242027287
 20
8.4636304024
 11
10.4242027287
 21
8.4884685118
  0
LINE
  5
2CB
100
AcDbEntity
  8
0
100
AcDbLine
 62
4
  6
CONTINUOUS
 10
10.4242027287
 20
8.5381446753
 11
10.4242027287
 21
8.5795415059
  0
LINE
  5
2CC
100
AcDbEntity
  8
0
100
AcDbLine
 62
4
  6
CONTINUOUS
 10
10.4242027287
 20
8.6430166681
 11
10.4242027287
 21
8.6926928316
  0
LINE
  5
2CD
100
AcDbEntity
  8
0
100
AcDbLine
 62
4
  6
CONTINUOUS
 10
10.4738789129
 20
8.6726890554
 11
10.4738789129
 21
8.6395716131
  0
LINE
  5
2CE
100
AcDbEntity
  8
0
100
AcDbLine
 62
4
  6
CONTINUOUS
 10
10.4738789129
 20
8.206284864
 11
10.4738789129
 21
8.1731673941
  0
LINE
  5
2CF
100
AcDbEntity
  8
0
100
AcDbLine
 62
4
  6
CONTINUOUS
 10
10.4995449621
 20
6.9767440912
 11
10.4995449621
 21
6.9912329791
  0
LINE
  5
2D0
100
AcDbEntity
  8
0
100
AcDbLine
 62
4
  6
CONTINUOUS
 10
10.5069963725
 20
7.9832050918
 11
10.5069963725
 21
8.0273617
  0
LINE
  5
2D1
100
AcDbEntity
  8
0
100
AcDbLine
 62
4
  6
CONTINUOUS
 10
10.5401138321
 20
8.5715030435
 11
10.5401138321
 21
8.530106213
  0
LINE
  5
2D2
100
AcDbEntity
  8
0
100
AcDbLine
 62
4
  6
CONTINUOUS
 10
10.5401138321
 20
8.4804300495
 11
10.5401138321
 21
8.4555919401
  0
LINE
  5
2D3
100
AcDbEntity
  8
0
100
AcDbLine
 62
4
  6
CONTINUOUS
 10
10.5401138321
 20
8.3921168331
 11
10.5401138321
 21
8.3589993908
  0
LINE
  5
2D4
100
AcDbEntity
  8
0
100
AcDbLine
 62
4
  6
CONTINUOUS
 10
10.5401138321
 20
7.9063941084
 11
10.5401138321
 21
7.8649972916
  0
LINE
  5
2D5
100
AcDbEntity
  8
0
100
AcDbLine
 62
4
  6
CONTINUOUS
 10
10.5401138321
 20
8.1685739868
 11
10.5401138321
 21
8.2182501779
  0
LINE
  5
2D6
100
AcDbEntity
  8
0
100
AcDbLine
 62
4
  6
CONTINUOUS
 10
10.5401138321
 20
8.6349782058
 11
10.5401138321
 21
8.6846543693
  0
LINE
  5
2D7
100
AcDbEntity
  8
0
100
AcDbLine
 62
4
  6
CONTINUOUS
 10
10.5478412575
 20
6.9733947317
 11
10.5478412575
 21
6.9878836197
  0
LINE
  5
2D8
100
AcDbEntity
  8
0
100
AcDbLine
 62
4
  6
CONTINUOUS
 10
10.4683593369
 20
8.7227480028
 11
10.4904376445
 21
8.7653734752
  0
LINE
  5
2D9
100
AcDbEntity
  8
0
100
AcDbLine
 62
4
  6
CONTINUOUS
 10
9.8661735574
 20
8.1904738021
 11
9.8744529249
 21
8.1981789866
  0
LINE
  5
2DA
100
AcDbEntity
  8
0
100
AcDbLine
 62
4
  6
CONTINUOUS
 10
10.4242027287
 20
8.5795415059
 11
10.4407614568
 21
8.5949518753
  0
LINE
  5
2DB
100
AcDbEntity
  8
0
100
AcDbLine
 62
4
  6
CONTINUOUS
 10
11.4142768063
 20
9.5077840472
 11
11.4239360695
 21
9.514358619
  0
LINE
  5
2DC
100
AcDbEntity
  8
0
100
AcDbLine
 62
4
  6
CONTINUOUS
 10
9.8661735574
 20
8.4195362313
 11
9.8744529249
 21
8.4244816105
  0
LINE
  5
2DD
100
AcDbEntity
  8
0
100
AcDbLine
 62
4
  6
CONTINUOUS
 10
9.8827322854
 20
8.5094608736
 11
9.8661735574
 21
8.5023298924
  0
LINE
  5
2DE
100
AcDbEntity
  8
0
100
AcDbLine
 62
4
  6
CONTINUOUS
 10
9.9324084748
 20
7.9292200925
 11
9.8330561012
 21
7.936110203
  0
LINE
  5
2DF
100
AcDbEntity
  8
0
100
AcDbLine
 62
4
  6
CONTINUOUS
 10
9.9489672046
 20
7.9611891969
 11
9.8330561012
 21
7.9692276592
  0
LINE
  5
2E0
100
AcDbEntity
  8
0
100
AcDbLine
 62
4
  6
CONTINUOUS
 10
10.4407614568
 20
7.9298429471
 11
10.5235551023
 21
7.9241011882
  0
LINE
  5
2E1
100
AcDbEntity
  8
0
100
AcDbLine
 62
7
  6
CONTINUOUS
 10
8.5628635631
 20
8.0661350038
 11
8.2702660473
 21
8.0864267105
  0
LINE
  5
2E2
100
AcDbEntity
  8
0
100
AcDbLine
 62
4
  6
CONTINUOUS
 10
9.9489672046
 20
8.0191447486
 11
9.8330561012
 21
8.0271832109
  0
LINE
  5
2E3
100
AcDbEntity
  8
0
100
AcDbLine
 62
7
  6
CONTINUOUS
 10
8.5235361908
 20
8.215656432
 11
8.1391327495
 21
8.2423149012
  0
LINE
  5
2E4
100
AcDbEntity
  8
0
100
AcDbLine
 62
4
  6
CONTINUOUS
 10
10.5401138321
 20
7.9698692361
 11
10.4242027287
 21
8.0110251546
  0
LINE
  5
2E5
100
AcDbEntity
  8
0
100
AcDbLine
 62
4
  6
CONTINUOUS
 10
9.9765650865
 20
8.2407736752
 11
9.8661735574
 21
8.2815467961
  0
LINE
  5
2E6
100
AcDbEntity
  8
0
100
AcDbLine
 62
4
  6
CONTINUOUS
 10
10.2354332169
 20
8.2973353708
 11
10.1691983012
 21
8.335046234
  0
LINE
  5
2E7
100
AcDbEntity
  8
0
100
AcDbLine
 62
4
  6
CONTINUOUS
 10
9.8744529249
 20
8.7446170338
 11
9.8661735574
 21
8.7534705428
  0
LINE
  5
2E8
100
AcDbEntity
  8
0
100
AcDbLine
 62
4
  6
CONTINUOUS
 10
9.8744529249
 20
8.8191313619
 11
9.8661735574
 21
8.827984871
  0
LINE
  5
2E9
100
AcDbEntity
  8
0
100
AcDbLine
 62
4
  6
CONTINUOUS
 10
9.9489672046
 20
8.8553605543
 11
9.9406878397
 21
8.8642140632
  0
LINE
  5
2EA
100
AcDbEntity
  8
0
100
AcDbLine
 62
4
  6
CONTINUOUS
 10
10.4407614568
 20
8.3493307802
 11
10.4242027287
 21
8.3670378531
  0
LINE
  5
2EB
100
AcDbEntity
  8
0
100
AcDbLine
 62
4
  6
CONTINUOUS
 10
10.4407614568
 20
8.4459233296
 11
10.4242027287
 21
8.4636304024
  0
LINE
  5
2EC
100
AcDbEntity
  8
0
100
AcDbLine
 62
4
  6
CONTINUOUS
 10
10.6154560656
 20
6.9831945168
 11
10.6154560656
 21
6.9687056289
  0
LINE
  5
2ED
100
AcDbEntity
  8
0
100
AcDbLine
 62
4
  6
CONTINUOUS
 10
11.40461755
 20
9.493965031
 11
11.4142768063
 21
9.5077840472
  0
LINE
  5
2EE
100
AcDbEntity
  8
0
100
AcDbLine
 62
4
  6
CONTINUOUS
 10
9.915849745
 20
7.8392954365
 11
9.8661735574
 21
7.7847849401
  0
LINE
  5
2EF
100
AcDbEntity
  8
0
100
AcDbLine
 62
7
  6
CONTINUOUS
 10
12.1203192868
 20
9.8566859197
 11
12.1192836548
 21
9.8557043393
  0
LINE
  5
2F0
100
AcDbEntity
  8
0
100
AcDbLine
 62
4
  6
CONTINUOUS
 10
10.4242027287
 20
8.4884685118
 11
10.4407614568
 21
8.5038788813
  0
LINE
  5
2F1
100
AcDbEntity
  8
0
100
AcDbLine
 62
4
  6
CONTINUOUS
 10
9.8330561012
 20
7.8367578311
 11
9.8413354687
 21
7.8444630191
  0
LINE
  5
2F2
100
AcDbEntity
  8
0
100
AcDbLine
 62
4
  6
CONTINUOUS
 10
10.5401138321
 20
8.4555919401
 11
10.5235551023
 21
8.4401815707
  0
LINE
  5
2F3
100
AcDbEntity
  8
0
100
AcDbLine
 62
4
  6
CONTINUOUS
 10
9.9324084748
 20
7.8712645408
 11
9.9489672046
 21
7.8866749171
  0
LINE
  5
2F4
100
AcDbEntity
  8
0
100
AcDbLine
 62
4
  6
CONTINUOUS
 10
10.5401138321
 20
8.3589993908
 11
10.5235551023
 21
8.3435890214
  0
LINE
  5
2F5
100
AcDbEntity
  8
0
100
AcDbLine
 62
4
  6
CONTINUOUS
 10
10.4242027287
 20
8.0110251546
 11
10.5401138321
 21
8.0361041622
  0
LINE
  5
2F6
100
AcDbEntity
  8
0
100
AcDbLine
 62
4
  6
CONTINUOUS
 10
10.5401138321
 20
8.1023390745
 11
10.4242027287
 21
8.1103775368
  0
LINE
  5
2F7
100
AcDbEntity
  8
0
100
AcDbLine
 62
4
  6
CONTINUOUS
 10
9.9489672046
 20
8.1433352126
 11
9.8330561012
 21
8.1513736749
  0
LINE
  5
2F8
100
AcDbEntity
  8
0
100
AcDbLine
 62
7
  6
CONTINUOUS
 10
8.5163121786
 20
8.2553753618
 11
8.1319087373
 21
8.282033831
  0
LINE
  5
2F9
100
AcDbEntity
  8
0
100
AcDbLine
 62
4
  6
CONTINUOUS
 10
10.2851094046
 20
8.1696998515
 11
10.1691983012
 21
8.1777383138
  0
LINE
  5
2FA
100
AcDbEntity
  8
0
100
AcDbLine
 62
4
  6
CONTINUOUS
 10
9.8744529249
 20
8.1981789866
 11
9.9489672046
 21
8.1930114037
  0
LINE
  5
2FB
100
AcDbEntity
  8
0
100
AcDbLine
 62
4
  6
CONTINUOUS
 10
10.5401138321
 20
8.1685739868
 11
10.4242027287
 21
8.1766124491
  0
LINE
  5
2FC
100
AcDbEntity
  8
0
100
AcDbLine
 62
4
  6
CONTINUOUS
 10
10.2851094046
 20
8.2276554032
 11
10.1691983012
 21
8.2356938655
  0
LINE
  5
2FD
100
AcDbEntity
  8
0
100
AcDbLine
 62
4
  6
CONTINUOUS
 10
10.2851094046
 20
8.2607728594
 11
10.1691983012
 21
8.2688113217
  0
LINE
  5
2FE
100
AcDbEntity
  8
0
100
AcDbLine
 62
4
  6
CONTINUOUS
 10
9.9406878397
 20
8.2984575448
 11
9.8744529249
 21
8.3030509518
  0
LINE
  5
2FF
100
AcDbEntity
  8
0
100
AcDbLine
 62
4
  6
CONTINUOUS
 10
9.8330561012
 20
8.3555979947
 11
9.9489672046
 21
8.3475595324
  0
LINE
  5
300
100
AcDbEntity
  8
0
100
AcDbLine
 62
4
  6
CONTINUOUS
 10
10.1691983012
 20
8.335046234
 11
10.2851094046
 21
8.3270077717
  0
LINE
  5
301
100
AcDbEntity
  8
0
100
AcDbLine
 62
4
  6
CONTINUOUS
 10
10.2851094046
 20
8.3932426978
 11
10.1691983012
 21
8.4343986024
  0
LINE
  5
302
100
AcDbEntity
  8
0
100
AcDbLine
 62
4
  6
CONTINUOUS
 10
9.8330561012
 20
8.7060910827
 11
9.8413354687
 21
8.702757129
  0
LINE
  5
303
100
AcDbEntity
  8
0
100
AcDbLine
 62
4
  6
CONTINUOUS
 10
10.5235551023
 20
8.4981371225
 11
10.5401138321
 21
8.4804300495
  0
LINE
  5
304
100
AcDbEntity
  8
0
100
AcDbLine
 62
4
  6
CONTINUOUS
 10
10.5235551023
 20
8.5892101165
 11
10.5401138321
 21
8.5715030435
  0
LINE
  5
305
100
AcDbEntity
  8
0
100
AcDbLine
 62
4
  6
CONTINUOUS
 10
10.4904376445
 20
8.7653734752
 11
10.5125159503
 21
8.7196857313
  0
LINE
  5
306
100
AcDbEntity
  8
0
100
AcDbLine
 62
4
  6
CONTINUOUS
 10
10.4904376445
 20
7.8022074277
 11
10.5125159503
 21
7.8448329037
  0
LINE
  5
307
100
AcDbEntity
  8
0
100
AcDbLine
 62
4
  6
CONTINUOUS
 10
9.9406878397
 20
7.779617357
 11
9.9489672046
 21
7.787322546
  0
LINE
  5
308
100
AcDbEntity
  8
0
100
AcDbLine
 62
4
  6
CONTINUOUS
 10
10.1691983012
 20
8.2688113217
 11
10.2354332169
 21
8.2973353708
  0
LINE
  5
309
100
AcDbEntity
  8
0
100
AcDbLine
 62
4
  6
CONTINUOUS
 10
10.1691983012
 20
8.1777383138
 11
10.2851094046
 21
8.2276554032
  0
LINE
  5
30A
100
AcDbEntity
  8
0
100
AcDbLine
 62
4
  6
CONTINUOUS
 10
9.8330561012
 20
7.9692276592
 11
9.9489672046
 21
8.0191447486
  0
LINE
  5
30B
100
AcDbEntity
  8
0
100
AcDbLine
 62
4
  6
CONTINUOUS
 10
9.8661735574
 20
8.2318706326
 11
9.9489672046
 21
8.2509669831
  0
LINE
  5
30C
100
AcDbEntity
  8
0
100
AcDbLine
 62
4
  6
CONTINUOUS
 10
9.9489672046
 20
8.38067703
 11
9.8661735574
 21
8.386418789
  0
LINE
  5
30D
100
AcDbEntity
  8
0
100
AcDbLine
 62
4
  6
CONTINUOUS
 10
10.5235551023
 20
8.3435890214
 11
10.4407614568
 21
8.3493307802
  0
LINE
  5
30E
100
AcDbEntity
  8
0
100
AcDbLine
 62
4
  6
CONTINUOUS
 10
9.8744529249
 20
8.4244816105
 11
9.8910116529
 21
8.4233332588
  0
LINE
  5
30F
100
AcDbEntity
  8
0
100
AcDbLine
 62
4
  6
CONTINUOUS
 10
9.9406878397
 20
8.4557654788
 11
9.915849745
 21
8.4574880065
  0
LINE
  5
310
100
AcDbEntity
  8
0
100
AcDbLine
 62
4
  6
CONTINUOUS
 10
10.5235551023
 20
8.4401815707
 11
10.4407614568
 21
8.4459233296
  0
LINE
  5
311
100
AcDbEntity
  8
0
100
AcDbLine
 62
4
  6
CONTINUOUS
 10
9.9489672046
 20
8.5048674664
 11
9.8827322854
 21
8.5094608736
  0
LINE
  5
312
100
AcDbEntity
  8
0
100
AcDbLine
 62
4
  6
CONTINUOUS
 10
9.8661735574
 20
8.5437266677
 11
9.9406878397
 21
8.5385590846
  0
LINE
  5
313
100
AcDbEntity
  8
0
100
AcDbLine
 62
4
  6
CONTINUOUS
 10
10.4407614568
 20
8.5038788813
 11
10.5235551023
 21
8.4981371225
  0
LINE
  5
314
100
AcDbEntity
  8
0
100
AcDbLine
 62
4
  6
CONTINUOUS
 10
10.5401138321
 20
8.530106213
 11
10.4242027287
 21
8.5381446753
  0
LINE
  5
315
100
AcDbEntity
  8
0
100
AcDbLine
 62
4
  6
CONTINUOUS
 10
9.9489672046
 20
8.5876611275
 11
9.8661735574
 21
8.5934028864
  0
LINE
  5
316
100
AcDbEntity
  8
0
100
AcDbLine
 62
4
  6
CONTINUOUS
 10
10.4242027287
 20
7.9144325707
 11
10.4407614568
 21
7.9298429471
  0
LINE
  5
317
100
AcDbEntity
  8
0
100
AcDbLine
 62
4
  6
CONTINUOUS
 10
10.1691983012
 20
8.368163704
 11
10.2851094046
 21
8.3932426978
  0
LINE
  5
318
100
AcDbEntity
  8
0
100
AcDbLine
 62
4
  6
CONTINUOUS
 10
9.9406878397
 20
8.6213527457
 11
9.8330561012
 21
8.6288170322
  0
LINE
  5
319
100
AcDbEntity
  8
0
100
AcDbLine
 62
4
  6
CONTINUOUS
 10
10.4407614568
 20
8.5949518753
 11
10.5235551023
 21
8.5892101165
  0
LINE
  5
31A
100
AcDbEntity
  8
0
100
AcDbLine
 62
4
  6
CONTINUOUS
 10
10.5401138321
 20
8.6349782058
 11
10.4242027287
 21
8.6430166681
  0
LINE
  5
31B
100
AcDbEntity
  8
0
100
AcDbLine
 62
4
  6
CONTINUOUS
 10
9.9489672046
 20
8.6952928427
 11
9.8661735574
 21
8.7010346017
  0
LINE
  5
31C
100
AcDbEntity
  8
0
100
AcDbLine
 62
4
  6
CONTINUOUS
 10
9.8413354687
 20
8.702757129
 11
9.8330561012
 21
8.703331305
  0
LINE
  5
31D
100
AcDbEntity
  8
0
100
AcDbLine
 62
7
  6
CONTINUOUS
 10
8.5163121786
 20
8.8204818363
 11
8.1319087373
 21
8.8471403055
  0
LINE
  5
31E
100
AcDbEntity
  8
0
100
AcDbLine
 62
4
  6
CONTINUOUS
 10
9.9406878397
 20
8.7400236268
 11
9.8744529249
 21
8.7446170338
  0
LINE
  5
31F
100
AcDbEntity
  8
0
100
AcDbLine
 62
7
  6
CONTINUOUS
 10
8.5235361908
 20
8.8741564868
 11
8.1391327495
 21
8.900814956
  0
LINE
  5
320
100
AcDbEntity
  8
0
100
AcDbLine
 62
4
  6
CONTINUOUS
 10
9.899291017
 20
8.8174088344
 11
9.8744529249
 21
8.8191313619
  0
LINE
  5
321
100
AcDbEntity
  8
0
100
AcDbLine
 62
4
  6
CONTINUOUS
 10
9.5036754739
 20
9.6402846996
 11
9.5906088014
 21
9.5835447451
  0
LINE
  5
322
100
AcDbEntity
  8
0
100
AcDbLine
 62
4
  6
CONTINUOUS
 10
11.40461755
 20
9.479476143
 11
11.40461755
 21
9.493965031
  0
LINE
  5
323
100
AcDbEntity
  8
0
100
AcDbLine
 62
4
  6
CONTINUOUS
 10
10.4995449621
 20
6.9912329791
 11
10.5092042185
 21
7.0050519954
  0
LINE
  5
324
100
AcDbEntity
  8
0
100
AcDbLine
 62
4
  6
CONTINUOUS
 10
9.9406878397
 20
8.8642140632
 11
9.915849745
 21
8.8659365909
  0
LINE
  5
325
100
AcDbEntity
  8
0
100
AcDbLine
 62
4
  6
CONTINUOUS
 10
11.5205286534
 20
9.4497043488
 11
11.5205286534
 21
9.5076599005
  0
LINE
  5
326
100
AcDbEntity
  8
0
100
AcDbLine
 62
4
  6
CONTINUOUS
 10
10.5478412575
 20
6.9878836197
 11
10.5575005139
 21
7.0017026359
  0
LINE
  5
327
100
AcDbEntity
  8
0
100
AcDbLine
 62
4
  6
CONTINUOUS
 10
10.6154560656
 20
6.9687056289
 11
10.6057968067
 21
6.9548866128
  0
LINE
  5
328
100
AcDbEntity
  8
0
100
AcDbLine
 62
7
  6
CONTINUOUS
 10
8.5628635631
 20
9.2897415331
 11
8.2702660473
 21
9.3100332398
  0
LINE
  5
329
100
AcDbEntity
  8
0
100
AcDbLine
 62
7
  6
CONTINUOUS
 10
8.5628635631
 20
9.3046992277
 11
8.2847140716
 21
9.3239889605
  0
LINE
  5
32A
100
AcDbEntity
  8
0
100
AcDbLine
 62
7
  6
CONTINUOUS
 10
13.3924929807
 20
9.5314210479
 11
13.9101306437
 21
10.0314206649
  0
LINE
  5
32B
100
AcDbEntity
  8
0
100
AcDbLine
 62
4
  6
CONTINUOUS
 10
11.4142768063
 20
9.4643173834
 11
11.40461755
 21
9.479476143
  0
LINE
  5
32C
100
AcDbEntity
  8
0
100
AcDbLine
 62
4
  6
CONTINUOUS
 10
11.4529138454
 20
9.5051045594
 11
11.4722323615
 21
9.4747870399
  0
LINE
  5
32D
100
AcDbEntity
  8
0
100
AcDbLine
 62
4
  6
CONTINUOUS
 10
10.5092042185
 20
7.0050519954
 11
10.5188634817
 21
7.0116265672
  0
LINE
  5
32E
100
AcDbEntity
  8
0
100
AcDbLine
 62
4
  6
CONTINUOUS
 10
10.5575005139
 20
7.0017026359
 11
10.5768190299
 21
7.0148517802
  0
LINE
  5
32F
100
AcDbEntity
  8
0
100
AcDbLine
 62
4
  6
CONTINUOUS
 10
10.6057968067
 20
6.9548866128
 11
10.5961375478
 21
6.9483120408
  0
LINE
  5
330
100
AcDbEntity
  8
0
100
AcDbLine
 62
4
  6
CONTINUOUS
 10
9.6195865773
 20
9.6322462373
 11
9.5036754739
 21
9.6402846996
  0
LINE
  5
331
100
AcDbEntity
  8
0
100
AcDbLine
 62
4
  6
CONTINUOUS
 10
11.4239360695
 20
9.514358619
 11
11.4432545822
 21
9.5130188756
  0
LINE
  5
332
100
AcDbEntity
  8
0
100
AcDbLine
 62
4
  6
CONTINUOUS
 10
11.4915508776
 20
9.4589584084
 11
11.5205286534
 21
9.4497043488
  0
LINE
  5
333
100
AcDbEntity
  8
0
100
AcDbLine
 62
4
  6
CONTINUOUS
 10
11.4239360695
 20
9.4564030673
 11
11.4142768063
 21
9.4643173834
  0
LINE
  5
334
100
AcDbEntity
  8
0
100
AcDbLine
 62
4
  6
CONTINUOUS
 10
11.4722323615
 20
9.4747870399
 11
11.4915508776
 21
9.4589584084
  0
LINE
  5
335
100
AcDbEntity
  8
0
100
AcDbLine
 62
4
  6
CONTINUOUS
 10
11.4432545822
 20
9.5130188756
 11
11.4529138454
 21
9.5051045594
  0
LINE
  5
336
100
AcDbEntity
  8
0
100
AcDbLine
 62
7
  6
CONTINUOUS
 10
8.5628635631
 20
9.8663569856
 11
13.3924929807
 21
9.5314210479
  0
LINE
  5
337
100
AcDbEntity
  8
0
100
AcDbLine
 62
7
  6
CONTINUOUS
 10
13.9101306437
 20
10.0314206649
 11
9.0805012261
 21
10.3663566026
  0
LINE
  5
338
100
AcDbEntity
  8
0
100
AcDbLine
 62
7
  6
CONTINUOUS
 10
13.3924929807
 20
6.6336433974
 11
13.3924929807
 21
9.5314210479
  0
LINE
  5
339
100
AcDbEntity
  8
0
100
AcDbLine
 62
7
  6
CONTINUOUS
 10
13.9101306437
 20
7.1336430144
 11
13.9101306437
 21
10.0314206649
  0
LINE
  5
33A
100
AcDbEntity
  8
0
100
AcDbLine
 62
7
  6
CONTINUOUS
 10
13.3924929807
 20
6.6336433974
 11
13.9101306437
 21
7.1336430144
  0
ARC
  5
33B
100
AcDbEntity
  8
0
100
AcDbCircle
 62
7
  6
CONTINUOUS
 10
10.825811056
 20
8.5369723833
 40
2.3268353346
100
AcDbArc
 50
171.6678728683
 51
173.0014994771
  0
ARC
  5
33C
100
AcDbEntity
  8
0
100
AcDbCircle
 62
7
  6
CONTINUOUS
 10
10.4414076147
 20
8.5636308525
 40
2.3268353346
100
AcDbArc
 50
171.6678728683
 51
173.0014994771
  0
ARC
  5
33D
100
AcDbEntity
  8
0
100
AcDbCircle
 62
7
  6
CONTINUOUS
 10
9.4627022473
 20
8.4069867862
 40
0.9584571905
100
AcDbArc
 50
189.1014340788
 51
191.5149294916
  0
ARC
  5
33E
100
AcDbEntity
  8
0
100
AcDbCircle
 62
7
  6
CONTINUOUS
 10
9.078298806
 20
8.4336452554
 40
0.9584571905
100
AcDbArc
 50
189.1014340788
 51
191.5149294916
  0
ARC
  5
33F
100
AcDbEntity
  8
0
100
AcDbCircle
 62
7
  6
CONTINUOUS
 10
8.8936349908
 20
8.8473748453
 40
0.7754890836
100
AcDbArc
 50
149.4115187964
 51
152.3464481002
  0
SPLINE
  5
340
100
AcDbEntity
  8
0
100
AcDbSpline
 62
7
  6
CONTINUOUS
 70
0
 71
3
 72
9
 73
5
 74
0
 42
0.0000001
 43
0.0000001
 44
0.0000000001
 40
0.0
 40
0.0
 40
0.0
 40
0.0
 40
0.2576616456
 40
1.0
 40
1.0
 40
1.0
 40
1.0
 10
8.2702660473
 20
9.3100332398
 30
0.0
 10
8.2708616716
 20
9.3107065256
 30
0.0
 10
8.2731966293
 20
9.3132987917
 30
0.0
 10
8.2756272756
 20
9.3158055345
 30
0.0
 10
8.2774900595
 20
9.3176048456
 30
0.0
  0
SPLINE
  5
341
100
AcDbEntity
  8
0
100
AcDbSpline
 62
7
  6
CONTINUOUS
 70
0
 71
3
 72
9
 73
5
 74
0
 42
0.0000001
 43
0.0000001
 44
0.0000000001
 40
0.0
 40
0.0
 40
0.0
 40
0.0
 40
0.2578199612
 40
1.0
 40
1.0
 40
1.0
 40
1.0
 10
8.2774900595
 20
9.3176048456
 30
0.0
 10
8.2780860947
 20
9.3181805715
 30
0.0
 10
8.2804212976
 20
9.3203891778
 30
0.0
 10
8.282852629
 20
9.3224970793
 30
0.0
 10
8.2847140716
 20
9.3239889605
 30
0.0
  0
SPLINE
  5
342
100
AcDbEntity
  8
0
100
AcDbSpline
 62
7
  6
CONTINUOUS
 70
0
 71
3
 72
23
 73
19
 74
0
 42
0.0000001
 43
0.0000001
 44
0.0000000001
 40
0.0
 40
0.0
 40
0.0
 40
0.0
 40
0.0814226266
 40
0.1607715574
 40
0.2379030573
 40
0.3126771007
 40
0.3849585468
 40
0.4546235222
 40
0.5215651585
 40
0.5856996722
 40
0.6469732623
 40
0.705368981
 40
0.7609120045
 40
0.8136736195
 40
0.8637735721
 40
0.9113800293
 40
0.9567054735
 40
1.0
 40
1.0
 40
1.0
 40
1.0
 10
8.2702660473
 20
8.0864267105
 30
0.0
 10
8.2662744158
 20
8.0887838087
 30
0.0
 10
8.258424754
 20
8.0934924003
 30
0.0
 10
8.2469197694
 20
8.1006412037
 30
0.0
 10
8.2358604417
 20
8.1077864723
 30
0.0
 10
8.2252787323
 20
8.1149251992
 30
0.0
 10
8.2152065947
 20
8.1220540144
 30
0.0
 10
8.2056753698
 20
8.1291690577
 30
0.0
 10
8.1967149424
 20
8.1362660843
 30
0.0
 10
8.1883528998
 20
8.1433405634
 30
0.0
 10
8.1806135953
 20
8.1503877663
 30
0.0
 10
8.1735171883
 20
8.1574028238
 30
0.0
 10
8.1670789583
 20
8.1643809333
 30
0.0
 10
8.1613087467
 20
8.1713175122
 30
0.0
 10
8.1562106152
 20
8.1782082269
 30
0.0
 10
8.1517824761
 20
8.1850492361
 30
0.0
 10
8.1480167857
 20
8.1918363779
 30
0.0
 10
8.1458944488
 20
8.1964198838
 30
0.0
 10
8.1449473996
 20
8.1986955698
 30
0.0
  0
SPLINE
  5
343
100
AcDbEntity
  8
0
100
AcDbSpline
 62
7
  6
CONTINUOUS
 70
0
 71
3
 72
53
 73
49
 74
0
 42
0.0000001
 43
0.0000001
 44
0.0000000001
 40
0.0
 40
0.0
 40
0.0
 40
0.0
 40
0.0097390266
 40
0.0199694544
 40
0.0306882231
 40
0.0418903263
 40
0.0535693616
 40
0.0657173907
 40
0.078325376
 40
0.0913830146
 40
0.1048791049
 40
0.1188014054
 40
0.1331369029
 40
0.1478717017
 40
0.1629912335
 40
0.1784801969
 40
0.2105015841
 40
0.2438022534
 40
0.27823969
 40
0.313664316
 40
0.3499205809
 40
0.3868480165
 40
0.4242822317
 40
0.4620559235
 40
0.4999998347
 40
0.5379437516
 40
0.5757174442
 40
0.6131516713
 40
0.6500791134
 40
0.686335396
 40
0.7217600343
 40
0.7561974925
 40
0.7894981813
 40
0.8215195912
 40
0.837008561
 40
0.8521281144
 40
0.8668629172
 40
0.8811984333
 40
0.8951207441
 40
0.9086168582
 40
0.9216745048
 40
0.9342825053
 40
0.9464305498
 40
0.9581096062
 40
0.9693117256
 40
0.9800305023
 40
0.9902609456
 40
1.0
 40
1.0
 40
1.0
 40
1.0
 10
8.1371878533
 20
8.2173385781
 30
0.0
 10
8.1359262373
 20
8.2203697288
 30
0.0
 10
8.1334491947
 20
8.2266311216
 30
0.0
 10
8.129944535
 20
8.2363665425
 30
0.0
 10
8.1265633063
 20
8.2466659251
 30
0.0
 10
8.1233094558
 20
8.25751692
 30
0.0
 10
8.1201870061
 20
8.2689067361
 30
0.0
 10
8.1171995815
 20
8.2808218292
 30
0.0
 10
8.1143508916
 20
8.2932480401
 30
0.0
 10
8.1116442599
 20
8.3061705656
 30
0.0
 10
8.1090830409
 20
8.3195740018
 30
0.0
 10
8.10667024
 20
8.3334423607
 30
0.0
 10
8.1044088305
 20
8.3477590866
 30
0.0
 10
8.1023014906
 20
8.3625070775
 30
0.0
 10
8.1003507737
 20
8.3776687282
 30
0.0
 10
8.0979350799
 20
8.3986443969
 30
0.0
 10
8.0953382822
 20
8.4257663669
 30
0.0
 10
8.0929121383
 20
8.4593123902
 30
0.0
 10
8.091154661
 20
8.4940487736
 30
0.0
 10
8.0900744761
 20
8.5298094247
 30
0.0
 10
8.0896769964
 20
8.5664235128
 30
0.0
 10
8.0899642929
 20
8.6037160059
 30
0.0
 10
8.090935126
 20
8.6415086122
 30
0.0
 10
8.0925849415
 20
8.6796206152
 30
0.0
 10
8.0949059039
 20
8.7178697623
 30
0.0
 10
8.0978869302
 20
8.7560731342
 30
0.0
 10
8.1015137476
 20
8.7940480382
 30
0.0
 10
8.1057689603
 20
8.8316128789
 30
0.0
 10
8.1106321317
 20
8.868588047
 30
0.0
 10
8.1160798808
 20
8.9047967803
 30
0.0
 10
8.1220859938
 20
8.9400660135
 30
0.0
 10
8.1286215299
 20
8.974227294
 30
0.0
 10
8.135655021
 20
9.0071173121
 30
0.0
 10
8.1419707707
 20
9.0336212142
 30
0.0
 10
8.1472587571
 20
9.0540626469
 30
0.0
 10
8.1512836469
 20
9.0688099023
 30
0.0
 10
8.1554065847
 20
9.0831258356
 30
0.0
 10
8.1596225628
 20
9.0969933683
 30
0.0
 10
8.163926616
 20
9.1103959282
 30
0.0
 10
8.1683134692
 20
9.1233175323
 30
0.0
 10
8.1727779771
 20
9.1357427529
 30
0.0
 10
8.1773146595
 20
9.1476568032
 30
0.0
 10
8.1819182074
 20
9.1590454786
 30
0.0
 10
8.1865829742
 20
9.16989527
 30
0.0
 10
8.1913035087
 20
9.1801932568
 30
0.0
 10
8.1960740596
 20
9.1899273269
 30
0.0
 10
8.2008890071
 20
9.1990858038
 30
0.0
 10
8.2042066395
 20
9.2049453511
 30
0.0
 10
8.205874596
 20
9.2077733418
 30
0.0
  0
SPLINE
  5
344
100
AcDbEntity
  8
0
100
AcDbSpline
 62
7
  6
CONTINUOUS
 70
0
 71
3
 72
9
 73
5
 74
0
 42
0.0000001
 43
0.0000001
 44
0.0000000001
 40
0.0
 40
0.0
 40
0.0
 40
0.0
 40
0.4964529577
 40
1.0
 40
1.0
 40
1.0
 40
1.0
 10
8.2260595964
 20
9.2419967043
 30
0.0
 10
8.2328829393
 20
9.2535638293
 30
0.0
 10
8.2471829658
 20
9.2765384918
 30
0.0
 10
8.2624074062
 20
9.2989071715
 30
0.0
 10
8.2702660473
 20
9.3100332398
 30
0.0
  0
SPLINE
  5
345
100
AcDbEntity
  8
0
100
AcDbSpline
 62
7
  6
CONTINUOUS
 70
0
 71
3
 72
11
 73
7
 74
0
 42
0.0000001
 43
0.0000001
 44
0.0000000001
 40
0.0
 40
0.0
 40
0.0
 40
0.0
 40
0.2408582389
 40
0.4880359374
 40
0.7411975838
 40
1.0
 40
1.0
 40
1.0
 40
1.0
 10
8.5629763718
 20
8.1908865886
 30
0.0
 10
8.5598755167
 20
8.192977066
 30
0.0
 10
8.5535532596
 20
8.1971549725
 30
0.0
 10
8.5438488609
 20
8.2033416413
 30
0.0
 10
8.5338169404
 20
8.2095303469
 30
0.0
 10
8.5269962716
 20
8.2136132199
 30
0.0
 10
8.5235361908
 20
8.215656432
 30
0.0
  0
SPLINE
  5
346
100
AcDbEntity
  8
0
100
AcDbSpline
 62
7
  6
CONTINUOUS
 70
0
 71
3
 72
22
 73
18
 74
0
 42
0.0000001
 43
0.0000001
 44
0.0000000001
 40
0.0
 40
0.0
 40
0.0
 40
0.0
 40
0.063532716
 40
0.1269633766
 40
0.1902797968
 40
0.2534696178
 40
0.3165210276
 40
0.3794235016
 40
0.4421686979
 40
0.5047512425
 40
0.5671692979
 40
0.6294247698
 40
0.6915231037
 40
0.7534727274
 40
0.8152842466
 40
0.8769696021
 40
1.0
 40
1.0
 40
1.0
 40
1.0
 10
8.1319087373
 20
8.282033831
 30
0.0
 10
8.1288417606
 20
8.2937599343
 30
0.0
 10
8.12298332
 20
8.3172652774
 30
0.0
 10
8.1151046601
 20
8.3527051701
 30
0.0
 10
8.1082317894
 20
8.388288192
 30
0.0
 10
8.1024544145
 20
8.4239929453
 30
0.0
 10
8.0978569143
 20
8.4597899654
 30
0.0
 10
8.0945132373
 20
8.4956413658
 30
0.0
 10
8.092481412
 20
8.5315019911
 30
0.0
 10
8.0917986412
 20
8.5673215667
 30
0.0
 10
8.0924778519
 20
8.6030478369
 30
0.0
 10
8.0945064185
 20
8.6386301723
 30
0.0
 10
8.0978473895
 20
8.6740231166
 30
0.0
 10
8.1024428379
 20
8.7091889049
 30
0.0
 10
8.1082189885
 20
8.7440998792
 30
0.0
 10
8.1173729368
 20
8.7902379923
 30
0.0
 10
8.1257610814
 20
8.8244883926
 30
0.0
 10
8.1319087373
 20
8.8471403055
 30
0.0
  0
SPLINE
  5
347
100
AcDbEntity
  8
0
100
AcDbSpline
 62
7
  6
CONTINUOUS
 70
0
 71
3
 72
22
 73
18
 74
0
 42
0.0000001
 43
0.0000001
 44
0.0000000001
 40
0.0
 40
0.0
 40
0.0
 40
0.0
 40
0.1230303979
 40
0.1847157534
 40
0.2465272726
 40
0.3084768963
 40
0.3705752303
 40
0.4328307021
 40
0.4952487575
 40
0.5578313021
 40
0.6205764984
 40
0.6834789724
 40
0.7465303822
 40
0.8097202033
 40
0.8730366234
 40
0.936467284
 40
1.0
 40
1.0
 40
1.0
 40
1.0
 10
8.5163121786
 20
8.2553753618
 30
0.0
 10
8.5224598346
 20
8.2780272747
 30
0.0
 10
8.5308479792
 20
8.312277675
 30
0.0
 10
8.5400019275
 20
8.3584157881
 30
0.0
 10
8.5457780781
 20
8.3933267624
 30
0.0
 10
8.5503735264
 20
8.4284925507
 30
0.0
 10
8.5537144974
 20
8.463885495
 30
0.0
 10
8.5557430641
 20
8.4994678304
 30
0.0
 10
8.5564222748
 20
8.5351941006
 30
0.0
 10
8.555739504
 20
8.5710136762
 30
0.0
 10
8.5537076786
 20
8.6068743016
 30
0.0
 10
8.5503640017
 20
8.6427257019
 30
0.0
 10
8.5457665014
 20
8.678522722
 30
0.0
 10
8.5399891266
 20
8.7142274753
 30
0.0
 10
8.5331162559
 20
8.7498104972
 30
0.0
 10
8.525237596
 20
8.7852503899
 30
0.0
 10
8.5193791554
 20
8.808755733
 30
0.0
 10
8.5163121786
 20
8.8204818363
 30
0.0
  0
SPLINE
  5
348
100
AcDbEntity
  8
0
100
AcDbSpline
 62
7
  6
CONTINUOUS
 70
0
 71
3
 72
22
 73
18
 74
0
 42
0.0000001
 43
0.0000001
 44
0.0000000001
 40
0.0
 40
0.0
 40
0.0
 40
0.0
 40
0.1201593475
 40
0.1804839999
 40
0.2410188667
 40
0.3018069073
 40
0.3628946539
 40
0.4243309922
 40
0.4861657368
 40
0.5484478462
 40
0.6112233708
 40
0.6745333505
 40
0.738412062
 40
0.8028856322
 40
0.8679711425
 40
0.9336763439
 40
1.0
 40
1.0
 40
1.0
 40
1.0
 10
8.1391327495
 20
8.900814956
 30
0.0
 10
8.1385448454
 20
8.9135314315
 30
0.0
 10
8.1381496856
 20
8.932660972
 30
0.0
 10
8.1387315895
 20
8.9581915015
 30
0.0
 10
8.1397602848
 20
8.9774116733
 30
0.0
 10
8.1414157754
 20
8.9966692661
 30
0.0
 10
8.1437308565
 20
9.0159553077
 30
0.0
 10
8.1467349369
 20
9.0352585857
 30
0.0
 10
8.1504528233
 20
9.054566267
 30
0.0
 10
8.1549035832
 20
9.073864054
 30
0.0
 10
8.160099588
 20
9.0931366279
 30
0.0
 10
8.1660456744
 20
9.1123682149
 30
0.0
 10
8.1727388812
 20
9.1315432084
 30
0.0
 10
8.1801686114
 20
9.1506467492
 30
0.0
 10
8.1883171752
 20
9.1696653645
 30
0.0
 10
8.1971604426
 20
9.1885870961
 30
0.0
 10
8.2034706078
 20
9.20107315
 30
0.0
 10
8.2067298939
 20
9.2072980407
 30
0.0
  0
SPLINE
  5
349
100
AcDbEntity
  8
0
100
AcDbSpline
 62
7
  6
CONTINUOUS
 70
0
 71
3
 72
9
 73
5
 74
0
 42
0.0000001
 43
0.0000001
 44
0.0000000001
 40
0.0
 40
0.0
 40
0.0
 40
0.0
 40
0.5030923351
 40
1.0
 40
1.0
 40
1.0
 40
1.0
 10
8.5235361908
 20
8.8741564868
 30
0.0
 10
8.5304885841
 20
8.883999512
 30
0.0
 10
8.5440082295
 20
8.903778501
 30
0.0
 10
8.556818564
 20
8.9240265094
 30
0.0
 10
8.5629763722
 20
8.9342124689
 30
0.0
  0
SPLINE
  5
34A
100
AcDbEntity
  8
0
100
AcDbSpline
 62
7
  6
CONTINUOUS
 70
0
 71
3
 72
15
 73
11
 74
0
 42
0.0000001
 43
0.0000001
 44
0.0000000001
 40
0.0
 40
0.0
 40
0.0
 40
0.0
 40
0.1347254433
 40
0.2653519635
 40
0.3925683796
 40
0.5170543447
 40
0.6394618777
 40
0.7603983368
 40
0.8804159625
 40
1.0
 40
1.0
 40
1.0
 40
1.0
 10
8.1449473996
 20
8.1986955698
 30
0.0
 10
8.1441790631
 20
8.2005418229
 30
0.0
 10
8.1427812106
 20
8.20422768
 30
0.0
 10
8.1410831631
 20
8.20980618
 30
0.0
 10
8.139804148
 20
8.2153397588
 30
0.0
 10
8.1389275979
 20
8.220827505
 30
0.0
 10
8.1384355984
 20
8.2262692146
 30
0.0
 10
8.1383097645
 20
8.2316651099
 30
0.0
 10
8.1385311644
 20
8.2370154775
 30
0.0
 10
8.1388980594
 20
8.240555483
 30
0.0
 10
8.1391327495
 20
8.2423149012
 30
0.0
  0
SPLINE
  5
34B
100
AcDbEntity
  8
0
100
AcDbSpline
 62
7
  6
CONTINUOUS
 70
0
 71
3
 72
85
 73
81
 74
0
 42
0.0000001
 43
0.0000001
 44
0.0000000001
 40
0.0
 40
0.0
 40
0.0
 40
0.0
 40
0.0039801755
 40
0.0081241211
 40
0.0124359992
 40
0.0169193694
 40
0.0215772468
 40
0.0264119948
 40
0.0314252716
 40
0.036618263
 40
0.0419916661
 40
0.0475457929
 40
0.0532805805
 40
0.0591955875
 40
0.0715626143
 40
0.0846383153
 40
0.0984096556
 40
0.1128602549
 40
0.1279708112
 40
0.1437194381
 40
0.1600819386
 40
0.1770320333
 40
0.1945415658
 40
0.2125806771
 40
0.2311179593
 40
0.2501205956
 40
0.2695544871
 40
0.2893843733
 40
0.3095739538
 40
0.3300859996
 40
0.3508824608
 40
0.3719245709
 40
0.3931729488
 40
0.4145877017
 40
0.457754079
 40
0.5010989561
 40
0.5442950696
 40
0.5657357599
 40
0.5870173776
 40
0.6080999494
 40
0.6289439925
 40
0.6495106191
 40
0.6697616414
 40
0.689659674
 40
0.709168241
 40
0.7282518859
 40
0.7468762864
 40
0.7650083809
 40
0.7826164962
 40
0.7996704822
 40
0.8161418627
 40
0.8320040043
 40
0.8472323103
 40
0.861804453
 40
0.8757006387
 40
0.8889039295
 40
0.9014006481
 40
0.9073810513
 40
0.9131814645
 40
0.9188013272
 40
0.9242404634
 40
0.9294990094
 40
0.9345775386
 40
0.9394770609
 40
0.9441990652
 40
0.9487456382
 40
0.9531194389
 40
0.9573238773
 40
0.961363122
 40
0.9652422377
 40
0.9689673054
 40
0.9725454842
 40
0.9759852134
 40
0.9824864129
 40
0.9855752855
 40
0.9885737661
 40
0.9914977029
 40
0.9943643139
 40
0.9971920003
 40
1.0
 40
1.0
 40
1.0
 40
1.0
 10
10.3922777836
 20
10.007435634
 30
0.0
 10
10.3910993534
 20
10.0062973578
 30
0.0
 10
10.3886404882
 20
10.0040288512
 30
0.0
 10
10.3847365602
 20
10.0007155182
 30
0.0
 10
10.380545948
 20
9.9974259389
 30
0.0
 10
10.3760709519
 20
9.9941618854
 30
0.0
 10
10.3713137695
 20
9.9909248664
 30
0.0
 10
10.3662767149
 20
9.9877164732
 30
0.0
 10
10.3609623129
 20
9.9845382212
 30
0.0
 10
10.3553731978
 20
9.9813917651
 30
0.0
 10
10.3495121883
 20
9.9782786321
 30
0.0
 10
10.3433822126
 20
9.9752003976
 30
0.0
 10
10.3369863285
 20
9.9721585895
 30
0.0
 10
10.3279740411
 20
9.9680930053
 30
0.0
 10
10.3160569843
 20
9.9631247899
 30
0.0
 10
10.3009547789
 20
9.9574172603
 30
0.0
 10
10.28487596
 20
9.9518904164
 30
0.0
 10
10.2678528948
 20
9.9465554739
 30
0.0
 10
10.2499196655
 20
9.9414232739
 30
0.0
 10
10.2311123395
 20
9.9365042647
 30
0.0
 10
10.2114687831
 20
9.9318084659
 30
0.0
 10
10.1910286046
 20
9.92734544
 30
0.0
 10
10.1698330534
 20
9.9231242777
 30
0.0
 10
10.1479249294
 20
9.9191535769
 30
0.0
 10
10.1253484916
 20
9.9154414243
 30
0.0
 10
10.1021493661
 20
9.9119953805
 30
0.0
 10
10.0783744538
 20
9.9088224616
 30
0.0
 10
10.054071833
 20
9.9059291216
 30
0.0
 10
10.0292906569
 20
9.9033212467
 30
0.0
 10
10.0040810531
 20
9.9010041424
 30
0.0
 10
9.9784940157
 20
9.8989825202
 30
0.0
 10
9.9525813225
 20
9.8972605015
 30
0.0
 10
9.9263953578
 20
9.8958415603
 30
0.0
 10
9.8910950298
 20
9.8943538406
 30
0.0
 10
9.8466768717
 20
9.8932732249
 30
0.0
 10
9.7932794496
 20
9.8932168827
 30
0.0
 10
9.7488361937
 20
9.8942035768
 30
0.0
 10
9.7134961589
 20
9.8956163086
 30
0.0
 10
9.6872661801
 20
9.8969797967
 30
0.0
 10
9.6612998735
 20
9.8986469302
 30
0.0
 10
9.6356497332
 20
9.90061435
 30
0.0
 10
9.6103676667
 20
9.9028780477
 30
0.0
 10
9.5855048162
 20
9.9054334181
 30
0.0
 10
9.5611114738
 20
9.9082752619
 30
0.0
 10
9.5372369757
 20
9.9113977972
 30
0.0
 10
9.5139296031
 20
9.9147946704
 30
0.0
 10
9.49123648
 20
9.9184589701
 30
0.0
 10
9.469203474
 20
9.9223832351
 30
0.0
 10
9.447875099
 20
9.9265594714
 30
0.0
 10
9.4272944252
 20
9.9309791722
 30
0.0
 10
9.4075029884
 20
9.9356333343
 30
0.0
 10
9.388540702
 20
9.9405124773
 30
0.0
 10
9.3704457584
 20
9.9456066674
 30
0.0
 10
9.3532545644
 20
9.950905533
 30
0.0
 10
9.3370015566
 20
9.9563983001
 30
0.0
 10
9.3217194604
 20
9.9620738176
 30
0.0
 10
9.3096479859
 20
9.9670158795
 30
0.0
 10
9.3005092406
 20
9.9710614826
 30
0.0
 10
9.294017424
 20
9.9740896526
 30
0.0
 10
9.2877903695
 20
9.9771548247
 30
0.0
 10
9.2818311715
 20
9.9802554295
 30
0.0
 10
9.2761428336
 20
9.9833899546
 30
0.0
 10
9.2707281923
 20
9.9865568139
 30
0.0
 10
9.2655899447
 20
9.9897544241
 30
0.0
 10
9.2607306732
 20
9.9929812457
 30
0.0
 10
9.2561527631
 20
9.9962356336
 30
0.0
 10
9.251858528
 20
9.9995160698
 30
0.0
 10
9.2478500712
 20
10.0028209247
 30
0.0
 10
9.2441294085
 20
10.0061486397
 30
0.0
 10
9.240698398
 20
10.0094976985
 30
0.0
 10
9.2375588132
 20
10.0128663923
 30
0.0
 10
9.2347120795
 20
10.0162536546
 30
0.0
 10
9.2313725245
 20
10.020707455
 30
0.0
 10
9.2285367399
 20
10.0252813478
 30
0.0
 10
9.2262852127
 20
10.0299528821
 30
0.0
 10
9.2249248698
 20
10.0334078421
 30
0.0
 10
9.2238654676
 20
10.036871192
 30
0.0
 10
9.2231079922
 20
10.0403412844
 30
0.0
 10
9.2226531485
 20
10.0438156135
 30
0.0
 10
9.2225518925
 20
10.0461367441
 30
0.0
 10
9.2225518873
 20
10.0472926329
 30
0.0
  0
SPLINE
  5
34C
100
AcDbEntity
  8
0
100
AcDbSpline
 62
7
  6
CONTINUOUS
 70
0
 71
3
 72
85
 73
81
 74
0
 42
0.0000001
 43
0.0000001
 44
0.0000000001
 40
0.0
 40
0.0
 40
0.0
 40
0.0
 40
0.0039801755
 40
0.0081241211
 40
0.0124359992
 40
0.0169193694
 40
0.0215772468
 40
0.0264119948
 40
0.0314252716
 40
0.036618263
 40
0.0419916661
 40
0.0475457929
 40
0.0532805805
 40
0.0591955875
 40
0.0715626143
 40
0.0846383153
 40
0.0984096556
 40
0.1128602549
 40
0.1279708112
 40
0.1437194381
 40
0.1600819386
 40
0.1770320333
 40
0.1945415658
 40
0.2125806771
 40
0.2311179593
 40
0.2501205956
 40
0.2695544871
 40
0.2893843733
 40
0.3095739538
 40
0.3300859996
 40
0.3508824608
 40
0.3719245709
 40
0.3931729488
 40
0.4145877017
 40
0.457754079
 40
0.5010989561
 40
0.5442950696
 40
0.5657357599
 40
0.5870173776
 40
0.6080999494
 40
0.6289439925
 40
0.6495106191
 40
0.6697616414
 40
0.689659674
 40
0.709168241
 40
0.7282518859
 40
0.7468762864
 40
0.7650083809
 40
0.7826164962
 40
0.7996704822
 40
0.8161418627
 40
0.8320040043
 40
0.8472323103
 40
0.861804453
 40
0.8757006387
 40
0.8889039295
 40
0.9014006481
 40
0.9073810513
 40
0.9131814645
 40
0.9188013272
 40
0.9242404634
 40
0.9294990094
 40
0.9345775386
 40
0.9394770609
 40
0.9441990652
 40
0.9487456382
 40
0.9531194389
 40
0.9573238773
 40
0.961363122
 40
0.9652422377
 40
0.9689673054
 40
0.9725454842
 40
0.9759852134
 40
0.9824864129
 40
0.9855752855
 40
0.9885737661
 40
0.9914977029
 40
0.9943643139
 40
0.9971920003
 40
1.0
 40
1.0
 40
1.0
 40
1.0
 10
12.2941859459
 20
9.8755378549
 30
0.0
 10
12.2930075157
 20
9.8743995788
 30
0.0
 10
12.2905486505
 20
9.8721310722
 30
0.0
 10
12.2866447225
 20
9.8688177392
 30
0.0
 10
12.2824541103
 20
9.8655281598
 30
0.0
 10
12.2779791142
 20
9.8622641064
 30
0.0
 10
12.2732219318
 20
9.8590270873
 30
0.0
 10
12.2681848772
 20
9.8558186942
 30
0.0
 10
12.2628704752
 20
9.8526404422
 30
0.0
 10
12.2572813601
 20
9.8494939861
 30
0.0
 10
12.2514203506
 20
9.8463808531
 30
0.0
 10
12.2452903749
 20
9.8433026185
 30
0.0
 10
12.2388944908
 20
9.8402608105
 30
0.0
 10
12.2298822034
 20
9.8361952263
 30
0.0
 10
12.2179651466
 20
9.8312270109
 30
0.0
 10
12.2028629412
 20
9.8255194812
 30
0.0
 10
12.1867841223
 20
9.8199926374
 30
0.0
 10
12.1697610571
 20
9.8146576948
 30
0.0
 10
12.1518278278
 20
9.8095254949
 30
0.0
 10
12.1330205018
 20
9.8046064856
 30
0.0
 10
12.1133769454
 20
9.7999106869
 30
0.0
 10
12.0929367669
 20
9.795447661
 30
0.0
 10
12.0717412157
 20
9.7912264987
 30
0.0
 10
12.0498330917
 20
9.7872557978
 30
0.0
 10
12.0272566539
 20
9.7835436453
 30
0.0
 10
12.0040575284
 20
9.7800976015
 30
0.0
 10
11.9802826161
 20
9.7769246825
 30
0.0
 10
11.9559799953
 20
9.7740313426
 30
0.0
 10
11.9311988192
 20
9.7714234677
 30
0.0
 10
11.9059892154
 20
9.7691063633
 30
0.0
 10
11.880402178
 20
9.7670847412
 30
0.0
 10
11.8544894848
 20
9.7653627224
 30
0.0
 10
11.8283035201
 20
9.7639437813
 30
0.0
 10
11.7930031921
 20
9.7624560616
 30
0.0
 10
11.748585034
 20
9.7613754459
 30
0.0
 10
11.6951876119
 20
9.7613191036
 30
0.0
 10
11.650744356
 20
9.7623057978
 30
0.0
 10
11.6154043212
 20
9.7637185296
 30
0.0
 10
11.5891743424
 20
9.7650820177
 30
0.0
 10
11.5632080358
 20
9.7667491511
 30
0.0
 10
11.5375578955
 20
9.768716571
 30
0.0
 10
11.512275829
 20
9.7709802686
 30
0.0
 10
11.4874129785
 20
9.7735356391
 30
0.0
 10
11.4630196361
 20
9.7763774829
 30
0.0
 10
11.439145138
 20
9.7795000182
 30
0.0
 10
11.4158377654
 20
9.7828968913
 30
0.0
 10
11.3931446423
 20
9.7865611911
 30
0.0
 10
11.3711116363
 20
9.7904854561
 30
0.0
 10
11.3497832613
 20
9.7946616924
 30
0.0
 10
11.3292025875
 20
9.7990813932
 30
0.0
 10
11.3094111507
 20
9.8037355553
 30
0.0
 10
11.2904488643
 20
9.8086146982
 30
0.0
 10
11.2723539207
 20
9.8137088884
 30
0.0
 10
11.2551627267
 20
9.8190077539
 30
0.0
 10
11.2389097189
 20
9.8245005211
 30
0.0
 10
11.2236276227
 20
9.8301760385
 30
0.0
 10
11.2115561482
 20
9.8351181005
 30
0.0
 10
11.2024174029
 20
9.8391637036
 30
0.0
 10
11.1959255863
 20
9.8421918735
 30
0.0
 10
11.1896985318
 20
9.8452570457
 30
0.0
 10
11.1837393338
 20
9.8483576505
 30
0.0
 10
11.1780509959
 20
9.8514921755
 30
0.0
 10
11.1726363546
 20
9.8546590349
 30
0.0
 10
11.167498107
 20
9.857856645
 30
0.0
 10
11.1626388355
 20
9.8610834666
 30
0.0
 10
11.1580609254
 20
9.8643378545
 30
0.0
 10
11.1537666903
 20
9.8676182908
 30
0.0
 10
11.1497582335
 20
9.8709231457
 30
0.0
 10
11.1460375708
 20
9.8742508607
 30
0.0
 10
11.1426065603
 20
9.8775999195
 30
0.0
 10
11.1394669755
 20
9.8809686132
 30
0.0
 10
11.1366202418
 20
9.8843558756
 30
0.0
 10
11.1332806868
 20
9.8888096759
 30
0.0
 10
11.1304449022
 20
9.8933835687
 30
0.0
 10
11.128193375
 20
9.898055103
 30
0.0
 10
11.1268330321
 20
9.9015100631
 30
0.0
 10
11.1257736299
 20
9.904973413
 30
0.0
 10
11.1250161545
 20
9.9084435053
 30
0.0
 10
11.1245613108
 20
9.9119178345
 30
0.0
 10
11.1244600548
 20
9.9142389651
 30
0.0
 10
11.1244600496
 20
9.9153948538
 30
0.0
  0
SPLINE
  5
34D
100
AcDbEntity
  8
0
100
AcDbSpline
 62
7
  6
CONTINUOUS
 70
0
 71
3
 72
15
 73
11
 74
0
 42
0.0000001
 43
0.0000001
 44
0.0000000001
 40
0.0
 40
0.0
 40
0.0
 40
0.0
 40
0.1273482789
 40
0.2538606571
 40
0.3795878378
 40
0.5046051156
 40
0.629017439
 40
0.7529533823
 40
0.8765605864
 40
1.0
 40
1.0
 40
1.0
 40
1.0
 10
9.5133344372
 20
7.3856268978
 30
0.0
 10
9.5133344372
 20
7.380329685
 30
0.0
 10
9.5128286588
 20
7.3697627068
 30
0.0
 10
9.5105413593
 20
7.3541154787
 30
0.0
 10
9.5067486194
 20
7.3388613989
 30
0.0
 10
9.5014846998
 20
7.3241431296
 30
0.0
 10
9.4947978781
 20
7.3100964018
 30
0.0
 10
9.4867491543
 20
7.2968509064
 30
0.0
 10
9.4774141825
 20
7.2845307547
 30
0.0
 10
9.470385415
 20
7.2770048924
 30
0.0
 10
9.4666923291
 20
7.273437621
 30
0.0
  0
SPLINE
  5
34E
100
AcDbEntity
  8
0
100
AcDbSpline
 62
7
  6
CONTINUOUS
 70
0
 71
3
 72
15
 73
11
 74
0
 42
0.0000001
 43
0.0000001
 44
0.0000000001
 40
0.0
 40
0.0
 40
0.0
 40
0.0
 40
0.1273482789
 40
0.2538606571
 40
0.3795878378
 40
0.5046051156
 40
0.629017439
 40
0.7529533823
 40
0.8765605864
 40
1.0
 40
1.0
 40
1.0
 40
1.0
 10
11.6866679054
 20
7.2349057099
 30
0.0
 10
11.6866679054
 20
7.2296084971
 30
0.0
 10
11.686162127
 20
7.2190415188
 30
0.0
 10
11.6838748275
 20
7.2033942907
 30
0.0
 10
11.6800820876
 20
7.1881402109
 30
0.0
 10
11.674818168
 20
7.1734219416
 30
0.0
 10
11.6681313463
 20
7.1593752139
 30
0.0
 10
11.6600826225
 20
7.1461297184
 30
0.0
 10
11.6507476508
 20
7.1338095667
 30
0.0
 10
11.6437188832
 20
7.1262837045
 30
0.0
 10
11.6400257974
 20
7.122716433
 30
0.0
  0
SPLINE
  5
34F
100
AcDbEntity
  8
0
100
AcDbSpline
 62
7
  6
CONTINUOUS
 70
0
 71
3
 72
11
 73
7
 74
0
 42
0.0000001
 43
0.0000001
 44
0.0000000001
 40
0.0
 40
0.0
 40
0.0
 40
0.0
 40
0.2550970063
 40
0.5058528204
 40
0.7536686822
 40
1.0
 40
1.0
 40
1.0
 40
1.0
 10
10.1912482976
 20
9.9696606521
 30
0.0
 10
10.1914631869
 20
9.970325917
 30
0.0
 10
10.1918414531
 20
9.9716612218
 30
0.0
 10
10.1922511424
 20
9.9736877237
 30
0.0
 10
10.1924971495
 20
9.9757163933
 30
0.0
 10
10.1925518828
 20
9.9770712592
 30
0.0
 10
10.1925518775
 20
9.9777463462
 30
0.0
  0
SPLINE
  5
350
100
AcDbEntity
  8
0
100
AcDbSpline
 62
7
  6
CONTINUOUS
 70
0
 71
3
 72
11
 73
7
 74
0
 42
0.0000001
 43
0.0000001
 44
0.0000000001
 40
0.0
 40
0.0
 40
0.0
 40
0.0
 40
0.2550970063
 40
0.5058528204
 40
0.7536686822
 40
1.0
 40
1.0
 40
1.0
 40
1.0
 10
12.0931564599
 20
9.8377628731
 30
0.0
 10
12.0933713492
 20
9.8384281379
 30
0.0
 10
12.0937496154
 20
9.8397634428
 30
0.0
 10
12.0941593047
 20
9.8417899447
 30
0.0
 10
12.0944053118
 20
9.8438186143
 30
0.0
 10
12.0944600451
 20
9.8451734801
 30
0.0
 10
12.0944600398
 20
9.8458485672
 30
0.0
  0
SPLINE
  5
351
100
AcDbEntity
  8
0
100
AcDbSpline
 62
7
  6
CONTINUOUS
 70
0
 71
3
 72
59
 73
55
 74
0
 42
0.0000001
 43
0.0000001
 44
0.0000000001
 40
0.0
 40
0.0
 40
0.0
 40
0.0
 40
0.0077405201
 40
0.0160541808
 40
0.0249603281
 40
0.0344717875
 40
0.0445950686
 40
0.0553319101
 40
0.0666801359
 40
0.0786341388
 40
0.0911853893
 40
0.1043228969
 40
0.1180334468
 40
0.1323018283
 40
0.1471111186
 40
0.1624427966
 40
0.1782768624
 40
0.1945920384
 40
0.2113658349
 40
0.2285746203
 40
0.246193781
 40
0.2641977689
 40
0.3012529955
 40
0.3395209141
 40
0.3787710432
 40
0.4187648303
 40
0.4592577177
 40
0.5000011422
 40
0.5407445567
 40
0.5812374106
 40
0.621231151
 40
0.6604812121
 40
0.6987490335
 40
0.7358041614
 40
0.7538080795
 40
0.7714271868
 40
0.7886359039
 40
0.8054096161
 40
0.8217247281
 40
0.8375587158
 40
0.8528902968
 40
0.8676995135
 40
0.8819678093
 40
0.8956782518
 40
0.9088156778
 40
0.9213668381
 40
0.9333207259
 40
0.9446688636
 40
0.9554056189
 40
0.9655287728
 40
0.9750401344
 40
0.9839462773
 40
0.9922596651
 40
1.0
 40
1.0
 40
1.0
 40
1.0
 10
10.2173756212
 20
9.987602109
 30
0.0
 10
10.215814625
 20
9.9861495081
 30
0.0
 10
10.2124542857
 20
9.9832670758
 30
0.0
 10
10.2069417632
 20
9.9791503399
 30
0.0
 10
10.2007902977
 20
9.9750956778
 30
0.0
 10
10.1940099788
 20
9.9711095007
 30
0.0
 10
10.1866112737
 20
9.9671978549
 30
0.0
 10
10.1786060254
 20
9.9633669707
 30
0.0
 10
10.1700070547
 20
9.9596230339
 30
0.0
 10
10.1608282451
 20
9.9559721575
 30
0.0
 10
10.1510845055
 20
9.9524203082
 30
0.0
 10
10.1407917037
 20
9.9489733589
 30
0.0
 10
10.1299666549
 20
9.945637011
 30
0.0
 10
10.1186270914
 20
9.9424167621
 30
0.0
 10
10.1067916041
 20
9.9393179618
 30
0.0
 10
10.0944796233
 20
9.9363457531
 30
0.0
 10
10.0817113878
 20
9.9335050395
 30
0.0
 10
10.0685078917
 20
9.9308005427
 30
0.0
 10
10.0548908559
 20
9.9282367529
 30
0.0
 10
10.0408827038
 20
9.9258179048
 30
0.0
 10
10.0265064778
 20
9.9235479872
 30
0.0
 10
10.0066888491
 20
9.9206978218
 30
0.0
 10
9.981170473
 20
9.9175460347
 30
0.0
 10
9.9497582738
 20
9.9144455871
 30
0.0
 10
9.9174755823
 20
9.9120123909
 30
0.0
 10
9.8845350273
 20
9.9102626732
 30
0.0
 10
9.8511534055
 20
9.9092081665
 30
0.0
 10
9.817550524
 20
9.9088558963
 30
0.0
 10
9.7839476522
 20
9.9092082174
 30
0.0
 10
9.7505660574
 20
9.9102627929
 30
0.0
 10
9.717625546
 20
9.9120125591
 30
0.0
 10
9.6853429165
 20
9.9144458047
 30
0.0
 10
9.6539307973
 20
9.9175463209
 30
0.0
 10
9.6284124981
 20
9.9206981344
 30
0.0
 10
9.6085949382
 20
9.923548349
 30
0.0
 10
9.5942187677
 20
9.9258182795
 30
0.0
 10
9.5802106774
 20
9.928237152
 30
0.0
 10
9.5665937087
 20
9.9308009758
 30
0.0
 10
9.5533902787
 20
9.9335054841
 30
0.0
 10
9.540622115
 20
9.9363462183
 30
0.0
 10
9.5283102128
 20
9.9393184601
 30
0.0
 10
9.516474801
 20
9.9424172698
 30
0.0
 10
9.5051353184
 20
9.9456375352
 30
0.0
 10
9.4943103588
 20
9.9489739153
 30
0.0
 10
9.4840176405
 20
9.9524208716
 30
0.0
 10
9.4742739891
 20
9.9559727327
 30
0.0
 10
9.4650952788
 20
9.95962364
 30
0.0
 10
9.4564963971
 20
9.9633675811
 30
0.0
 10
9.4484912444
 20
9.9671984737
 30
0.0
 10
9.4410926504
 20
9.9711101458
 30
0.0
 10
9.4343124076
 20
9.9750963273
 30
0.0
 10
9.4281610702
 20
9.9791509981
 30
0.0
 10
9.4226486963
 20
9.9832677168
 30
0.0
 10
9.4192884602
 20
9.9861500779
 30
0.0
 10
9.4177275314
 20
9.9876026763
 30
0.0
  0
SPLINE
  5
352
100
AcDbEntity
  8
0
100
AcDbSpline
 62
7
  6
CONTINUOUS
 70
0
 71
3
 72
11
 73
7
 74
0
 42
0.0000001
 43
0.0000001
 44
0.0000000001
 40
0.0
 40
0.0
 40
0.0
 40
0.0
 40
0.2551236994
 40
0.5058838785
 40
0.7536881403
 40
1.0
 40
1.0
 40
1.0
 40
1.0
 10
9.4438627049
 20
9.9696383034
 30
0.0
 10
9.4436466425
 20
9.9703053638
 30
0.0
 10
9.4432662777
 20
9.9716442874
 30
0.0
 10
9.4428542857
 20
9.9736764126
 30
0.0
 10
9.4426069436
 20
9.9757107348
 30
0.0
 10
9.4425518935
 20
9.9770693852
 30
0.0
 10
9.4425518882
 20
9.9777463462
 30
0.0
  0
SPLINE
  5
353
100
AcDbEntity
  8
0
100
AcDbSpline
 62
7
  6
CONTINUOUS
 70
0
 71
3
 72
17
 73
13
 74
0
 42
0.0000001
 43
0.0000001
 44
0.0000000001
 40
0.0
 40
0.0
 40
0.0
 40
0.0
 40
0.0548647409
 40
0.1099334006
 40
0.1654074856
 40
0.2214837901
 40
0.3361456859
 40
0.4553801965
 40
0.5804212901
 40
0.7123203437
 40
0.8519511008
 40
1.0
 40
1.0
 40
1.0
 40
1.0
 10
10.4125518785
 20
10.0472933883
 30
0.0
 10
10.4125518822
 20
10.0464530746
 30
0.0
 10
10.4124985536
 20
10.0447688383
 30
0.0
 10
10.412258781
 20
10.0422452388
 30
0.0
 10
10.4118592086
 20
10.0397230333
 30
0.0
 10
10.4111083277
 20
10.0363388287
 30
0.0
 10
10.4097555306
 20
10.0320970813
 30
0.0
 10
10.4075064591
 20
10.0270695172
 30
0.0
 10
10.4046246232
 20
10.0220699497
 30
0.0
 10
10.4011148252
 20
10.0171032874
 30
0.0
 10
10.3969822508
 20
10.0121738197
 30
0.0
 10
10.3939087158
 20
10.0090109937
 30
0.0
 10
10.3922777836
 20
10.007435634
 30
0.0
  0
SPLINE
  5
354
100
AcDbEntity
  8
0
100
AcDbSpline
 62
7
  6
CONTINUOUS
 70
0
 71
3
 72
59
 73
55
 74
0
 42
0.0000001
 43
0.0000001
 44
0.0000000001
 40
0.0
 40
0.0
 40
0.0
 40
0.0
 40
0.0077405201
 40
0.0160541808
 40
0.0249603281
 40
0.0344717875
 40
0.0445950686
 40
0.0553319101
 40
0.0666801359
 40
0.0786341388
 40
0.0911853893
 40
0.1043228969
 40
0.1180334468
 40
0.1323018283
 40
0.1471111186
 40
0.1624427966
 40
0.1782768624
 40
0.1945920384
 40
0.2113658349
 40
0.2285746203
 40
0.246193781
 40
0.2641977689
 40
0.3012529955
 40
0.3395209141
 40
0.3787710432
 40
0.4187648303
 40
0.4592577177
 40
0.5000011422
 40
0.5407445567
 40
0.5812374106
 40
0.621231151
 40
0.6604812121
 40
0.6987490335
 40
0.7358041614
 40
0.7538080795
 40
0.7714271868
 40
0.7886359039
 40
0.8054096161
 40
0.8217247281
 40
0.8375587158
 40
0.8528902968
 40
0.8676995135
 40
0.8819678093
 40
0.8956782518
 40
0.9088156778
 40
0.9213668381
 40
0.9333207259
 40
0.9446688636
 40
0.9554056189
 40
0.9655287728
 40
0.9750401344
 40
0.9839462773
 40
0.9922596651
 40
1.0
 40
1.0
 40
1.0
 40
1.0
 10
12.1192837835
 20
9.85570433
 30
0.0
 10
12.1177227873
 20
9.8542517291
 30
0.0
 10
12.114362448
 20
9.8513692967
 30
0.0
 10
12.1088499255
 20
9.8472525609
 30
0.0
 10
12.10269846
 20
9.8431978987
 30
0.0
 10
12.0959181411
 20
9.8392117217
 30
0.0
 10
12.088519436
 20
9.8353000759
 30
0.0
 10
12.0805141877
 20
9.8314691917
 30
0.0
 10
12.071915217
 20
9.8277252548
 30
0.0
 10
12.0627364074
 20
9.8240743785
 30
0.0
 10
12.0529926678
 20
9.8205225292
 30
0.0
 10
12.042699866
 20
9.8170755799
 30
0.0
 10
12.0318748172
 20
9.813739232
 30
0.0
 10
12.0205352537
 20
9.8105189831
 30
0.0
 10
12.0086997664
 20
9.8074201827
 30
0.0
 10
11.9963877856
 20
9.804447974
 30
0.0
 10
11.9836195501
 20
9.8016072605
 30
0.0
 10
11.970416054
 20
9.7989027636
 30
0.0
 10
11.9567990182
 20
9.7963389739
 30
0.0
 10
11.9427908661
 20
9.7939201257
 30
0.0
 10
11.9284146401
 20
9.7916502081
 30
0.0
 10
11.9085970114
 20
9.7888000427
 30
0.0
 10
11.8830786353
 20
9.7856482556
 30
0.0
 10
11.8516664361
 20
9.782547808
 30
0.0
 10
11.8193837446
 20
9.7801146119
 30
0.0
 10
11.7864431896
 20
9.7783648941
 30
0.0
 10
11.7530615678
 20
9.7773103874
 30
0.0
 10
11.7194586863
 20
9.7769581173
 30
0.0
 10
11.6858558145
 20
9.7773104384
 30
0.0
 10
11.6524742197
 20
9.7783650139
 30
0.0
 10
11.6195337083
 20
9.7801147801
 30
0.0
 10
11.5872510788
 20
9.7825480257
 30
0.0
 10
11.5558389596
 20
9.7856485419
 30
0.0
 10
11.5303206604
 20
9.7888003554
 30
0.0
 10
11.5105031005
 20
9.79165057
 30
0.0
 10
11.49612693
 20
9.7939205005
 30
0.0
 10
11.4821188397
 20
9.796339373
 30
0.0
 10
11.468501871
 20
9.7989031967
 30
0.0
 10
11.455298441
 20
9.801607705
 30
0.0
 10
11.4425302773
 20
9.8044484393
 30
0.0
 10
11.4302183751
 20
9.8074206811
 30
0.0
 10
11.4183829633
 20
9.8105194908
 30
0.0
 10
11.4070434807
 20
9.8137397562
 30
0.0
 10
11.3962185211
 20
9.8170761362
 30
0.0
 10
11.3859258028
 20
9.8205230925
 30
0.0
 10
11.3761821514
 20
9.8240749537
 30
0.0
 10
11.3670034411
 20
9.827725861
 30
0.0
 10
11.3584045594
 20
9.831469802
 30
0.0
 10
11.3503994067
 20
9.8353006946
 30
0.0
 10
11.3430008127
 20
9.8392123668
 30
0.0
 10
11.3362205699
 20
9.8431985483
 30
0.0
 10
11.3300692325
 20
9.8472532191
 30
0.0
 10
11.3245568586
 20
9.8513699378
 30
0.0
 10
11.3211966225
 20
9.8542522989
 30
0.0
 10
11.3196356937
 20
9.8557048973
 30
0.0
  0
SPLINE
  5
355
100
AcDbEntity
  8
0
100
AcDbSpline
 62
7
  6
CONTINUOUS
 70
0
 71
3
 72
11
 73
7
 74
0
 42
0.0000001
 43
0.0000001
 44
0.0000000001
 40
0.0
 40
0.0
 40
0.0
 40
0.0
 40
0.2551236994
 40
0.5058838785
 40
0.7536881403
 40
1.0
 40
1.0
 40
1.0
 40
1.0
 10
11.3457708672
 20
9.8377405244
 30
0.0
 10
11.3455548048
 20
9.8384075848
 30
0.0
 10
11.34517444
 20
9.8397465084
 30
0.0
 10
11.344762448
 20
9.8417786335
 30
0.0
 10
11.3445151059
 20
9.8438129558
 30
0.0
 10
11.3444600558
 20
9.8451716062
 30
0.0
 10
11.3444600505
 20
9.8458485672
 30
0.0
  0
SPLINE
  5
356
100
AcDbEntity
  8
0
100
AcDbSpline
 62
7
  6
CONTINUOUS
 70
0
 71
3
 72
17
 73
13
 74
0
 42
0.0000001
 43
0.0000001
 44
0.0000000001
 40
0.0
 40
0.0
 40
0.0
 40
0.0
 40
0.0548647409
 40
0.1099334006
 40
0.1654074856
 40
0.2214837901
 40
0.3361456859
 40
0.4553801965
 40
0.5804212901
 40
0.7123203437
 40
0.8519511008
 40
1.0
 40
1.0
 40
1.0
 40
1.0
 10
12.3144600408
 20
9.9153956092
 30
0.0
 10
12.3144600445
 20
9.9145552955
 30
0.0
 10
12.3144067159
 20
9.9128710593
 30
0.0
 10
12.3141669433
 20
9.9103474597
 30
0.0
 10
12.3137673709
 20
9.9078252543
 30
0.0
 10
12.31301649
 20
9.9044410496
 30
0.0
 10
12.3116636929
 20
9.9001993022
 30
0.0
 10
12.3094146214
 20
9.8951717382
 30
0.0
 10
12.3065327855
 20
9.8901721707
 30
0.0
 10
12.3030229875
 20
9.8852055084
 30
0.0
 10
12.2988904131
 20
9.8802760407
 30
0.0
 10
12.2958168781
 20
9.8771132146
 30
0.0
 10
12.2941859459
 20
9.8755378549
 30
0.0
  0
SPLINE
  5
357
100
AcDbEntity
  8
0
100
AcDbSpline
 62
7
  6
CONTINUOUS
 70
0
 71
3
 72
41
 73
37
 74
0
 42
0.0000001
 43
0.0000001
 44
0.0000000001
 40
0.0
 40
0.0
 40
0.0
 40
0.0
 40
0.029942123
 40
0.0449237706
 40
0.0599145177
 40
0.0899291716
 40
0.1200145961
 40
0.1350933574
 40
0.1501974726
 40
0.1804849654
 40
0.2108989488
 40
0.2414525624
 40
0.2721557217
 40
0.3030149378
 40
0.3340332219
 40
0.3652100719
 40
0.3965415365
 40
0.4280203507
 40
0.4596361361
 40
0.4913756582
 40
0.5232231336
 40
0.5551605782
 40
0.5871681905
 40
0.6192247616
 40
0.6513081064
 40
0.6833955071
 40
0.7154641657
 40
0.7474916563
 40
0.7794563734
 40
0.811337967
 40
0.843117763
 40
0.8747791516
 40
0.9063079641
 40
0.9376927517
 40
0.9689251728
 40
1.0
 40
1.0
 40
1.0
 40
1.0
 10
9.2276980413
 20
7.5208597672
 30
0.0
 10
9.2305514621
 20
7.523615979
 30
0.0
 10
9.23499975
 20
7.5275833309
 30
0.0
 10
9.2412295087
 20
7.5325059398
 30
0.0
 10
9.2476576693
 20
7.5371835817
 30
0.0
 10
9.2560453582
 20
7.5425550574
 30
0.0
 10
9.2648408851
 20
7.5472535393
 30
0.0
 10
9.2720949078
 20
7.5505960818
 30
0.0
 10
9.2794988
 20
7.5536626584
 30
0.0
 10
9.2889976495
 20
7.5569601412
 30
0.0
 10
9.3007035601
 20
7.5600333243
 30
0.0
 10
9.312664904
 20
7.5622104727
 30
0.0
 10
9.3248153949
 20
7.5634795697
 30
0.0
 10
9.3370882864
 20
7.5638338439
 30
0.0
 10
9.349416049
 20
7.5632714916
 30
0.0
 10
9.3617309259
 20
7.5617957615
 30
0.0
 10
9.3739652516
 20
7.559414907
 30
0.0
 10
9.386051833
 20
7.5561421416
 30
0.0
 10
9.3979243097
 20
7.5519955603
 30
0.0
 10
9.4095175144
 20
7.5469980379
 30
0.0
 10
9.4207678252
 20
7.5411771012
 30
0.0
 10
9.4316135098
 20
7.5345647774
 30
0.0
 10
9.4419950599
 20
7.5271974187
 30
0.0
 10
9.4518555134
 20
7.5191155033
 30
0.0
 10
9.4611407635
 20
7.5103634149
 30
0.0
 10
9.4697998519
 20
7.5009892013
 30
0.0
 10
9.477785246
 20
7.4910443128
 30
0.0
 10
9.4850530967
 20
7.4805833229
 30
0.0
 10
9.4915634773
 20
7.4696636327
 30
0.0
 10
9.4972806014
 20
7.4583451571
 30
0.0
 10
9.502173017
 20
7.4466900084
 30
0.0
 10
9.5062137822
 20
7.4347621301
 30
0.0
 10
9.5093806056
 20
7.4226270596
 30
0.0
 10
9.5116559867
 20
7.4103511737
 30
0.0
 10
9.513027288
 20
7.3980027959
 30
0.0
 10
9.5133344372
 20
7.3897441811
 30
0.0
 10
9.5133344372
 20
7.3856268978
 30
0.0
  0
SPLINE
  5
358
100
AcDbEntity
  8
0
100
AcDbSpline
 62
7
  6
CONTINUOUS
 70
0
 71
3
 72
41
 73
37
 74
0
 42
0.0000001
 43
0.0000001
 44
0.0000000001
 40
0.0
 40
0.0
 40
0.0
 40
0.0
 40
0.029942123
 40
0.0449237706
 40
0.0599145177
 40
0.0899291716
 40
0.1200145961
 40
0.1350933574
 40
0.1501974726
 40
0.1804849654
 40
0.2108989488
 40
0.2414525624
 40
0.2721557217
 40
0.3030149378
 40
0.3340332219
 40
0.3652100719
 40
0.3965415365
 40
0.4280203507
 40
0.4596361361
 40
0.4913756582
 40
0.5232231336
 40
0.5551605782
 40
0.5871681905
 40
0.6192247616
 40
0.6513081064
 40
0.6833955071
 40
0.7154641657
 40
0.7474916563
 40
0.7794563734
 40
0.811337967
 40
0.843117763
 40
0.8747791516
 40
0.9063079641
 40
0.9376927517
 40
0.9689251728
 40
1.0
 40
1.0
 40
1.0
 40
1.0
 10
11.4010315095
 20
7.3701385793
 30
0.0
 10
11.4038849303
 20
7.3728947911
 30
0.0
 10
11.4083332182
 20
7.376862143
 30
0.0
 10
11.4145629769
 20
7.3817847519
 30
0.0
 10
11.4209911375
 20
7.3864623937
 30
0.0
 10
11.4293788264
 20
7.3918338694
 30
0.0
 10
11.4381743533
 20
7.3965323513
 30
0.0
 10
11.445428376
 20
7.3998748939
 30
0.0
 10
11.4528322682
 20
7.4029414704
 30
0.0
 10
11.4623311177
 20
7.4062389533
 30
0.0
 10
11.4740370283
 20
7.4093121363
 30
0.0
 10
11.4859983722
 20
7.4114892847
 30
0.0
 10
11.4981488631
 20
7.4127583818
 30
0.0
 10
11.5104217546
 20
7.4131126559
 30
0.0
 10
11.5227495173
 20
7.4125503037
 30
0.0
 10
11.5350643942
 20
7.4110745736
 30
0.0
 10
11.5472987199
 20
7.408693719
 30
0.0
 10
11.5593853012
 20
7.4054209536
 30
0.0
 10
11.5712577779
 20
7.4012743724
 30
0.0
 10
11.5828509826
 20
7.3962768499
 30
0.0
 10
11.5941012934
 20
7.3904559132
 30
0.0
 10
11.604946978
 20
7.3838435895
 30
0.0
 10
11.6153285281
 20
7.3764762308
 30
0.0
 10
11.6251889817
 20
7.3683943154
 30
0.0
 10
11.6344742317
 20
7.359642227
 30
0.0
 10
11.6431333202
 20
7.3502680133
 30
0.0
 10
11.6511187142
 20
7.3403231248
 30
0.0
 10
11.6583865649
 20
7.329862135
 30
0.0
 10
11.6648969455
 20
7.3189424447
 30
0.0
 10
11.6706140697
 20
7.3076239692
 30
0.0
 10
11.6755064852
 20
7.2959688204
 30
0.0
 10
11.6795472504
 20
7.2840409422
 30
0.0
 10
11.6827140739
 20
7.2719058717
 30
0.0
 10
11.6849894549
 20
7.2596299858
 30
0.0
 10
11.6863607562
 20
7.2472816079
 30
0.0
 10
11.6866679054
 20
7.2390229932
 30
0.0
 10
11.6866679054
 20
7.2349057099
 30
0.0
  0
SPLINE
  5
359
100
AcDbEntity
  8
0
100
AcDbSpline
 62
7
  6
CONTINUOUS
 70
0
 71
3
 72
71
 73
67
 74
0
 42
0.0000001
 43
0.0000001
 44
0.0000000001
 40
0.0
 40
0.0
 40
0.0
 40
0.0
 40
0.0028080355
 40
0.0056357542
 40
0.008502401
 40
0.0114263688
 40
0.0144248772
 40
0.0175137827
 40
0.0240150392
 40
0.0274548054
 40
0.0310330191
 40
0.0347581091
 40
0.0386372748
 40
0.0426765473
 40
0.0468810218
 40
0.0512548783
 40
0.0558014752
 40
0.0605235373
 40
0.0654231076
 40
0.0757594389
 40
0.0868178486
 40
0.0985982192
 40
0.1110950732
 40
0.1242984976
 40
0.1381948361
 40
0.1527671565
 40
0.1679956356
 40
0.1838579484
 40
0.200329525
 40
0.2173837183
 40
0.2349920403
 40
0.2531243542
 40
0.27174899
 40
0.2908328668
 40
0.3103416682
 40
0.3302399535
 40
0.3504912356
 40
0.3710581206
 40
0.4129844596
 40
0.4557065486
 40
0.4989032271
 40
0.5422486728
 40
0.5854156196
 40
0.6280785467
 40
0.6699168588
 40
0.7106181432
 40
0.7304482922
 40
0.7498824493
 40
0.7688853412
 40
0.7874228693
 40
0.8054622296
 40
0.8229720049
 40
0.8399223178
 40
0.8562850335
 40
0.8720338837
 40
0.8871446467
 40
0.9015954341
 40
0.9153669631
 40
0.9284428459
 40
0.9408100276
 40
0.9524593774
 40
0.9633863643
 40
0.9735918817
 40
0.983083481
 40
0.9918776223
 40
1.0
 40
1.0
 40
1.0
 40
1.0
 10
12.0944600398
 20
9.8458485672
 30
0.0
 10
12.0944600341
 20
9.8465770688
 30
0.0
 10
12.0943962249
 20
9.848039965
 30
0.0
 10
12.09410961
 20
9.8502296755
 30
0.0
 10
12.0936322041
 20
9.8524167062
 30
0.0
 10
12.0929645402
 20
9.8545994932
 30
0.0
 10
12.0921072086
 20
9.8567769952
 30
0.0
 10
12.0906881916
 20
9.8597212348
 30
0.0
 10
12.088900972
 20
9.8626039544
 30
0.0
 10
12.086796222
 20
9.865410969
 30
0.0
 10
12.0850020752
 20
9.8675457955
 30
0.0
 10
12.083023379
 20
9.8696689432
 30
0.0
 10
12.0808609736
 20
9.8717796749
 30
0.0
 10
12.0785160465
 20
9.8738769917
 30
0.0
 10
12.0759897246
 20
9.8759598896
 30
0.0
 10
12.0732832761
 20
9.8780273758
 30
0.0
 10
12.0703980701
 20
9.8800784854
 30
0.0
 10
12.0673355041
 20
9.8821122001
 30
0.0
 10
12.062938889
 20
9.8848482142
 30
0.0
 10
12.0569986868
 20
9.8882089526
 30
0.0
 10
12.0493123489
 20
9.8920874853
 30
0.0
 10
12.0409605401
 20
9.8958730141
 30
0.0
 10
12.0319599341
 20
9.8995579788
 30
0.0
 10
12.0223283019
 20
9.9031350028
 30
0.0
 10
12.0120848494
 20
9.9065968393
 30
0.0
 10
12.0012500654
 20
9.9099364604
 30
0.0
 10
11.9898457041
 20
9.9131470929
 30
0.0
 10
11.9778946984
 20
9.9162221988
 30
0.0
 10
11.9654211135
 20
9.9191554991
 30
0.0
 10
11.9524501064
 20
9.9219410296
 30
0.0
 10
11.9390078594
 20
9.9245731227
 30
0.0
 10
11.9251215143
 20
9.9270464081
 30
0.0
 10
11.9108191259
 20
9.9293558424
 30
0.0
 10
11.8961296072
 20
9.9314967379
 30
0.0
 10
11.8810826552
 20
9.9334647374
 30
0.0
 10
11.8657087009
 20
9.935255816
 30
0.0
 10
11.8500388147
 20
9.9368663613
 30
0.0
 10
11.8286570493
 20
9.9387807777
 30
0.0
 10
11.80142447
 20
9.9406924761
 30
0.0
 10
11.7682887359
 20
9.9422108859
 30
0.0
 10
11.7347583031
 20
9.942955368
 30
0.0
 10
11.7011042765
 20
9.9429198836
 30
0.0
 10
11.6675985854
 20
9.9421046673
 30
0.0
 10
11.6345119294
 20
9.9405164814
 30
0.0
 10
11.6021117962
 20
9.9381683161
 30
0.0
 10
11.5756772754
 20
9.9355725114
 30
0.0
 10
11.5550763319
 20
9.933119964
 30
0.0
 10
11.540092109
 20
9.9311202113
 30
0.0
 10
11.5254707979
 20
9.9289483399
 30
0.0
 10
11.5112419321
 20
9.9266087437
 30
0.0
 10
11.4974342713
 20
9.9241062046
 30
0.0
 10
11.4840757124
 20
9.9214458126
 30
0.0
 10
11.4711932347
 20
9.9186329736
 30
0.0
 10
11.4588128287
 20
9.9156734326
 30
0.0
 10
11.4469594525
 20
9.9125732222
 30
0.0
 10
11.4356569825
 20
9.9093386417
 30
0.0
 10
11.4249281414
 20
9.9059762755
 30
0.0
 10
11.4147944415
 20
9.9024929715
 30
0.0
 10
11.4052761503
 20
9.8988957893
 30
0.0
 10
11.3963922304
 20
9.8951919717
 30
0.0
 10
11.3881602541
 20
9.8913889712
 30
0.0
 10
11.3805963631
 20
9.8874943056
 30
0.0
 10
11.3737153374
 20
9.8835155824
 30
0.0
 10
11.3675300802
 20
9.8794601179
 30
0.0
 10
11.3620530275
 20
9.8753356907
 30
0.0
 10
11.3587534708
 20
9.8724327506
 30
0.0
 10
11.3572378388
 20
9.8709687625
 30
0.0
  0
SPLINE
  5
35A
100
AcDbEntity
  8
0
100
AcDbSpline
 62
7
  6
CONTINUOUS
 70
0
 71
3
 72
89
 73
85
 74
0
 42
0.0000001
 43
0.0000001
 44
0.0000000001
 40
0.0
 40
0.0
 40
0.0
 40
0.0
 40
0.0040125533
 40
0.0078523717
 40
0.0115287418
 40
0.0150530435
 40
0.0216971463
 40
0.0248548549
 40
0.0279270327
 40
0.0309353122
 40
0.0339028911
 40
0.0368540184
 40
0.0398133854
 40
0.0428054615
 40
0.0458538479
 40
0.0489807397
 40
0.0522065462
 40
0.0555496073
 40
0.0590261823
 40
0.0626503947
 40
0.0664343977
 40
0.0703885264
 40
0.0745214109
 40
0.0788402697
 40
0.0833509485
 40
0.0880581803
 40
0.0929656887
 40
0.0980762636
 40
0.1033919823
 40
0.1089141521
 40
0.1146435185
 40
0.1205802651
 40
0.1267240517
 40
0.1396287586
 40
0.1533476966
 40
0.1678647632
 40
0.1831592875
 40
0.1992066539
 40
0.2159787906
 40
0.2334445531
 40
0.2515700594
 40
0.2703189789
 40
0.2896527744
 40
0.3095309176
 40
0.3299110797
 40
0.3507493148
 40
0.3720002446
 40
0.3936172239
 40
0.4155524993
 40
0.4377573633
 40
0.460182305
 40
0.5054903707
 40
0.5510713678
 40
0.5965158089
 40
0.6190596373
 40
0.641416762
 40
0.6635372256
 40
0.6853717674
 40
0.7068719814
 40
0.7279904662
 40
0.7486809811
 40
0.7688986061
 40
0.788599913
 40
0.8077431537
 40
0.8262884409
 40
0.8441979478
 40
0.8614361316
 40
0.8779699875
 40
0.8937693569
 40
0.9088072733
 40
0.923060375
 40
0.9365094382
 40
0.942928052
 40
0.949140728
 40
0.9551465281
 40
0.960945024
 40
0.9665362195
 40
0.9719206334
 40
0.9770993961
 40
0.9820742504
 40
0.9868478694
 40
0.9914237469
 40
0.9958061038
 40
1.0
 40
1.0
 40
1.0
 40
1.0
 10
10.2184111245
 20
9.9885836987
 30
0.0
 10
10.2192705687
 20
9.9894138581
 30
0.0
 10
10.2209139096
 20
9.9910791295
 30
0.0
 10
10.2231923835
 20
9.9936494397
 30
0.0
 10
10.2252272948
 20
9.9962347892
 30
0.0
 10
10.2275669652
 20
9.9996315557
 30
0.0
 10
10.2294825451
 20
10.003127356
 30
0.0
 10
10.2309014759
 20
10.00669299
 30
0.0
 10
10.2316980693
 20
10.0093299889
 30
0.0
 10
10.2322436936
 20
10.0119724157
 30
0.0
 10
10.2325377676
 20
10.0146184451
 30
0.0
 10
10.2325797501
 20
10.0172659255
 30
0.0
 10
10.2323697104
 20
10.0199126802
 30
0.0
 10
10.2319078396
 20
10.022556548
 30
0.0
 10
10.2311948312
 20
10.0251955013
 30
0.0
 10
10.2302315686
 20
10.0278276954
 30
0.0
 10
10.2290190286
 20
10.0304514193
 30
0.0
 10
10.2275584497
 20
10.0330651943
 30
0.0
 10
10.2258509439
 20
10.0356675375
 30
0.0
 10
10.2238978366
 20
10.0382571161
 30
0.0
 10
10.2217004354
 20
10.0408325746
 30
0.0
 10
10.2192601174
 20
10.043392529
 30
0.0
 10
10.2165784346
 20
10.0459356758
 30
0.0
 10
10.2136569396
 20
10.0484605617
 30
0.0
 10
10.2104974109
 20
10.0509658444
 30
0.0
 10
10.2071016949
 20
10.0534500891
 30
0.0
 10
10.2034717868
 20
10.0559118574
 30
0.0
 10
10.1996098532
 20
10.0583497753
 30
0.0
 10
10.1955181448
 20
10.0607623512
 30
0.0
 10
10.1911991131
 20
10.0631482258
 30
0.0
 10
10.186655309
 20
10.0655059458
 30
0.0
 10
10.1818894307
 20
10.0678341357
 30
0.0
 10
10.1751314795
 20
10.0709482821
 30
0.0
 10
10.1661399948
 20
10.0747464043
 30
0.0
 10
10.1546830884
 20
10.0790931547
 30
0.0
 10
10.1424159511
 20
10.0832900681
 30
0.0
 10
10.1293679224
 20
10.0873270078
 30
0.0
 10
10.1155700427
 20
10.0911941998
 30
0.0
 10
10.1010553097
 20
10.0948822608
 30
0.0
 10
10.0858584857
 20
10.0983822434
 30
0.0
 10
10.0700160268
 20
10.1016856561
 30
0.0
 10
10.053565972
 20
10.1047844817
 30
0.0
 10
10.0365478449
 20
10.1076712005
 30
0.0
 10
10.0190025555
 20
10.1103388064
 30
0.0
 10
10.000972302
 20
10.1127808285
 30
0.0
 10
9.9825004651
 20
10.1149913511
 30
0.0
 10
9.9636314983
 20
10.1169650168
 30
0.0
 10
9.9444108126
 20
10.118697045
 30
0.0
 10
9.9248846842
 20
10.12018323
 30
0.0
 10
9.9051000806
 20
10.1214199969
 30
0.0
 10
9.8783489793
 20
10.1227367944
 30
0.0
 10
9.844615593
 20
10.1237365411
 30
0.0
 10
9.8040127138
 20
10.1239077403
 30
0.0
 10
9.7701960885
 20
10.1231934091
 30
0.0
 10
9.7433133025
 20
10.1221044067
 30
0.0
 10
9.7233828347
 20
10.1210356316
 30
0.0
 10
9.7036791488
 20
10.1197153752
 30
0.0
 10
9.684249643
 20
10.1181468062
 30
0.0
 10
9.6651411007
 20
10.1163337356
 30
0.0
 10
9.6463995129
 20
10.1142805552
 30
0.0
 10
9.6280699859
 20
10.1119922409
 30
0.0
 10
9.6101966274
 20
10.1094743375
 30
0.0
 10
9.5928224363
 20
10.1067329458
 30
0.0
 10
9.5759891926
 20
10.1037747187
 30
0.0
 10
9.559737355
 20
10.1006068351
 30
0.0
 10
9.5441059629
 20
10.0972369825
 30
0.0
 10
9.5291325399
 20
10.0936733393
 30
0.0
 10
9.5148529855
 20
10.0899245498
 30
0.0
 10
9.501301497
 20
10.085999711
 30
0.0
 10
9.4885103856
 20
10.0819083411
 30
0.0
 10
9.4765102878
 20
10.0776603367
 30
0.0
 10
9.4670511519
 20
10.0739427648
 30
0.0
 10
9.4599092456
 20
10.0708899737
 30
0.0
 10
9.454851723
 20
10.068603344
 30
0.0
 10
9.4500124635
 20
10.0662853145
 30
0.0
 10
9.4453943301
 20
10.0639372858
 30
0.0
 10
9.441000077
 20
10.0615606448
 30
0.0
 10
9.436832332
 20
10.0591567849
 30
0.0
 10
9.4328935518
 20
10.0567271919
 30
0.0
 10
9.429186082
 20
10.054273217
 30
0.0
 10
9.4257120541
 20
10.0517963037
 30
0.0
 10
9.4224735033
 20
10.0492977952
 30
0.0
 10
9.419472537
 20
10.0467793006
 30
0.0
 10
9.417590927
 20
10.0450507419
 30
0.0
 10
9.4166926412
 20
10.0441830644
 30
0.0
  0
SPLINE
  5
35B
100
AcDbEntity
  8
0
100
AcDbSpline
 62
7
  6
CONTINUOUS
 70
0
 71
3
 72
17
 73
13
 74
0
 42
0.0000001
 43
0.0000001
 44
0.0000000001
 40
0.0
 40
0.0
 40
0.0
 40
0.0
 40
0.0548647409
 40
0.1099334006
 40
0.1654074856
 40
0.2214837901
 40
0.3361456859
 40
0.4553801965
 40
0.5804212901
 40
0.7123203437
 40
0.8519511008
 40
1.0
 40
1.0
 40
1.0
 40
1.0
 10
9.2225518873
 20
10.0472926329
 30
0.0
 10
9.2225518835
 20
10.0481329465
 30
0.0
 10
9.2226052121
 20
10.0498171828
 30
0.0
 10
9.2228449847
 20
10.0523407823
 30
0.0
 10
9.2232445571
 20
10.0548629878
 30
0.0
 10
9.2239954381
 20
10.0582471924
 30
0.0
 10
9.2253482351
 20
10.0624889398
 30
0.0
 10
9.2275973066
 20
10.0675165039
 30
0.0
 10
9.2304791425
 20
10.0725160714
 30
0.0
 10
9.2339889405
 20
10.0774827337
 30
0.0
 10
9.2381215149
 20
10.0824122014
 30
0.0
 10
9.2411950499
 20
10.0855750274
 30
0.0
 10
9.2428259822
 20
10.0871503871
 30
0.0
  0
SPLINE
  5
35C
100
AcDbEntity
  8
0
100
AcDbSpline
 62
7
  6
CONTINUOUS
 70
0
 71
3
 72
11
 73
7
 74
0
 42
0.0000001
 43
0.0000001
 44
0.0000000001
 40
0.0
 40
0.0
 40
0.0
 40
0.0
 40
0.226141941
 40
0.4664670609
 40
0.7237163824
 40
1.0
 40
1.0
 40
1.0
 40
1.0
 10
9.2256156234
 20
10.0319909539
 30
0.0
 10
9.2264424656
 20
10.0340915755
 30
0.0
 10
9.2284516598
 20
10.0383094086
 30
0.0
 10
9.2323333561
 20
10.044419853
 30
0.0
 10
9.2371511734
 20
10.0504745522
 30
0.0
 10
9.240842249
 20
10.0543246189
 30
0.0
 10
9.2428259822
 20
10.0562407581
 30
0.0
  0
SPLINE
  5
35D
100
AcDbEntity
  8
0
100
AcDbSpline
 62
7
  6
CONTINUOUS
 70
0
 71
3
 72
85
 73
81
 74
0
 42
0.0000001
 43
0.0000001
 44
0.0000000001
 40
0.0
 40
0.0
 40
0.0
 40
0.0
 40
0.0039801755
 40
0.0081241211
 40
0.0124359992
 40
0.0169193694
 40
0.0215772468
 40
0.0264119948
 40
0.0314252716
 40
0.036618263
 40
0.0419916661
 40
0.0475457929
 40
0.0532805805
 40
0.0591955875
 40
0.0715626143
 40
0.0846383153
 40
0.0984096556
 40
0.1128602549
 40
0.1279708112
 40
0.1437194381
 40
0.1600819386
 40
0.1770320333
 40
0.1945415658
 40
0.2125806771
 40
0.2311179593
 40
0.2501205956
 40
0.2695544871
 40
0.2893843733
 40
0.3095739538
 40
0.3300859996
 40
0.3508824608
 40
0.3719245709
 40
0.3931729488
 40
0.4145877017
 40
0.457754079
 40
0.5010989561
 40
0.5442950696
 40
0.5657357599
 40
0.5870173776
 40
0.6080999494
 40
0.6289439925
 40
0.6495106191
 40
0.6697616414
 40
0.689659674
 40
0.709168241
 40
0.7282518859
 40
0.7468762864
 40
0.7650083809
 40
0.7826164962
 40
0.7996704822
 40
0.8161418627
 40
0.8320040043
 40
0.8472323103
 40
0.861804453
 40
0.8757006387
 40
0.8889039295
 40
0.9014006481
 40
0.9073810513
 40
0.9131814645
 40
0.9188013272
 40
0.9242404634
 40
0.9294990094
 40
0.9345775386
 40
0.9394770609
 40
0.9441990652
 40
0.9487456382
 40
0.9531194389
 40
0.9573238773
 40
0.961363122
 40
0.9652422377
 40
0.9689673054
 40
0.9725454842
 40
0.9759852134
 40
0.9824864129
 40
0.9855752855
 40
0.9885737661
 40
0.9914977029
 40
0.9943643139
 40
0.9971920003
 40
1.0
 40
1.0
 40
1.0
 40
1.0
 10
9.2428259822
 20
10.0871503871
 30
0.0
 10
9.2440044123
 20
10.0882886633
 30
0.0
 10
9.2464632775
 20
10.0905571699
 30
0.0
 10
9.2503672055
 20
10.0938705029
 30
0.0
 10
9.2545578177
 20
10.0971600822
 30
0.0
 10
9.2590328138
 20
10.1004241357
 30
0.0
 10
9.2637899963
 20
10.1036611547
 30
0.0
 10
9.2688270509
 20
10.1068695479
 30
0.0
 10
9.2741414528
 20
10.1100477999
 30
0.0
 10
9.2797305679
 20
10.113194256
 30
0.0
 10
9.2855915774
 20
10.116307389
 30
0.0
 10
9.2917215531
 20
10.1193856236
 30
0.0
 10
9.2981174372
 20
10.1224274316
 30
0.0
 10
9.3071297246
 20
10.1264930158
 30
0.0
 10
9.3190467814
 20
10.1314612312
 30
0.0
 10
9.3341489868
 20
10.1371687608
 30
0.0
 10
9.3502278057
 20
10.1426956047
 30
0.0
 10
9.3672508709
 20
10.1480305473
 30
0.0
 10
9.3851841002
 20
10.1531627472
 30
0.0
 10
9.4039914262
 20
10.1580817564
 30
0.0
 10
9.4236349827
 20
10.1627775552
 30
0.0
 10
9.4440751611
 20
10.1672405811
 30
0.0
 10
9.4652707124
 20
10.1714617434
 30
0.0
 10
9.4871788363
 20
10.1754324442
 30
0.0
 10
9.5097552741
 20
10.1791445968
 30
0.0
 10
9.5329543996
 20
10.1825906406
 30
0.0
 10
9.5567293119
 20
10.1857635596
 30
0.0
 10
9.5810319328
 20
10.1886568995
 30
0.0
 10
9.6058131088
 20
10.1912647744
 30
0.0
 10
9.6310227126
 20
10.1935818787
 30
0.0
 10
9.65660975
 20
10.1956035009
 30
0.0
 10
9.6825224432
 20
10.1973255196
 30
0.0
 10
9.7087084079
 20
10.1987444608
 30
0.0
 10
9.7440087359
 20
10.2002321805
 30
0.0
 10
9.788426894
 20
10.2013127962
 30
0.0
 10
9.8418243162
 20
10.2013691384
 30
0.0
 10
9.886267572
 20
10.2003824443
 30
0.0
 10
9.9216076068
 20
10.1989697125
 30
0.0
 10
9.9478375856
 20
10.1976062244
 30
0.0
 10
9.9738038922
 20
10.1959390909
 30
0.0
 10
9.9994540325
 20
10.1939716711
 30
0.0
 10
10.024736099
 20
10.1917079735
 30
0.0
 10
10.0495989496
 20
10.189152603
 30
0.0
 10
10.073992292
 20
10.1863107592
 30
0.0
 10
10.09786679
 20
10.1831882239
 30
0.0
 10
10.1211741627
 20
10.1797913507
 30
0.0
 10
10.1438672857
 20
10.176127051
 30
0.0
 10
10.1659002918
 20
10.172202786
 30
0.0
 10
10.1872286667
 20
10.1680265497
 30
0.0
 10
10.2078093405
 20
10.1636068489
 30
0.0
 10
10.2276007774
 20
10.1589526868
 30
0.0
 10
10.2465630637
 20
10.1540735438
 30
0.0
 10
10.2646580074
 20
10.1489793537
 30
0.0
 10
10.2818492013
 20
10.1436804881
 30
0.0
 10
10.2981022091
 20
10.138187721
 30
0.0
 10
10.3133843053
 20
10.1325122035
 30
0.0
 10
10.3254557798
 20
10.1275701416
 30
0.0
 10
10.3345945251
 20
10.1235245385
 30
0.0
 10
10.3410863417
 20
10.1204963686
 30
0.0
 10
10.3473133963
 20
10.1174311964
 30
0.0
 10
10.3532725942
 20
10.1143305916
 30
0.0
 10
10.3589609321
 20
10.1111960665
 30
0.0
 10
10.3643755735
 20
10.1080292072
 30
0.0
 10
10.369513821
 20
10.104831597
 30
0.0
 10
10.3743730925
 20
10.1016047754
 30
0.0
 10
10.3789510027
 20
10.0983503876
 30
0.0
 10
10.3832452377
 20
10.0950699513
 30
0.0
 10
10.3872536945
 20
10.0917650964
 30
0.0
 10
10.3909743572
 20
10.0884373814
 30
0.0
 10
10.3944053677
 20
10.0850883226
 30
0.0
 10
10.3975449525
 20
10.0817196288
 30
0.0
 10
10.4003916862
 20
10.0783323665
 30
0.0
 10
10.4037312413
 20
10.0738785662
 30
0.0
 10
10.4065670258
 20
10.0693046733
 30
0.0
 10
10.408818553
 20
10.0646331391
 30
0.0
 10
10.4101788959
 20
10.061178179
 30
0.0
 10
10.4112382981
 20
10.0577148291
 30
0.0
 10
10.4119957735
 20
10.0542447367
 30
0.0
 10
10.4124506173
 20
10.0507704076
 30
0.0
 10
10.4125518732
 20
10.048449277
 30
0.0
 10
10.4125518785
 20
10.0472933883
 30
0.0
  0
SPLINE
  5
35E
100
AcDbEntity
  8
0
100
AcDbSpline
 62
7
  6
CONTINUOUS
 70
0
 71
3
 72
23
 73
19
 74
0
 42
0.0000001
 43
0.0000001
 44
0.0000000001
 40
0.0
 40
0.0
 40
0.0
 40
0.0
 40
0.0749626819
 40
0.1455691204
 40
0.2121609031
 40
0.2751642031
 40
0.3350994525
 40
0.392584508
 40
0.4483307774
 40
0.5031249976
 40
0.5577994745
 40
0.6131924637
 40
0.6701075145
 40
0.7292794073
 40
0.7913529093
 40
0.8568777123
 40
0.9263086925
 40
1.0
 40
1.0
 40
1.0
 40
1.0
 10
9.4177275314
 20
9.9876026763
 30
0.0
 10
9.4165291472
 20
9.9887178912
 30
0.0
 10
9.4142684581
 20
9.9909568558
 30
0.0
 10
9.4112180618
 20
9.9944499318
 30
0.0
 10
9.4086168917
 20
9.9979706956
 30
0.0
 10
9.406468806
 20
10.0015160651
 30
0.0
 10
9.4047773706
 20
10.0050829037
 30
0.0
 10
9.4035464403
 20
10.0086675817
 30
0.0
 10
9.4027793863
 20
10.0122654603
 30
0.0
 10
9.4024790517
 20
10.0158708624
 30
0.0
 10
9.4026464867
 20
10.0194772204
 30
0.0
 10
9.4032811308
 20
10.0230778698
 30
0.0
 10
9.4043805881
 20
10.0266668115
 30
0.0
 10
9.405941525
 20
10.0302391208
 30
0.0
 10
9.4079602043
 20
10.0337909124
 30
0.0
 10
9.4104330205
 20
10.0373190498
 30
0.0
 10
9.4133561458
 20
10.0408202093
 30
0.0
 10
9.4155351776
 20
10.0430650404
 30
0.0
 10
9.4166926412
 20
10.0441830644
 30
0.0
  0
SPLINE
  5
35F
100
AcDbEntity
  8
0
100
AcDbSpline
 62
7
  6
CONTINUOUS
 70
0
 71
3
 72
17
 73
13
 74
0
 42
0.0000001
 43
0.0000001
 44
0.0000000001
 40
0.0
 40
0.0
 40
0.0
 40
0.0
 40
0.0548654642
 40
0.1099349219
 40
0.2214349039
 40
0.3360992195
 40
0.4553348124
 40
0.517079118
 40
0.5804139608
 40
0.7123167483
 40
0.8519524535
 40
1.0
 40
1.0
 40
1.0
 40
1.0
 10
9.4425518882
 20
9.9777463462
 30
0.0
 10
9.442551884
 20
9.9782759502
 30
0.0
 10
9.4425855112
 20
9.9793374665
 30
0.0
 10
9.4427877577
 20
9.9814664607
 30
0.0
 10
9.4432988058
 20
9.9841402916
 30
0.0
 10
9.4443143333
 20
9.9873234425
 30
0.0
 10
9.4454819818
 20
9.9899338589
 30
0.0
 10
9.4466055697
 20
9.9920081608
 30
0.0
 10
9.4478921232
 20
9.9941300703
 30
0.0
 10
9.4497602345
 20
9.996773678
 30
0.0
 10
9.4523647254
 20
9.9998802959
 30
0.0
 10
9.4543018115
 20
10.0018737001
 30
0.0
 10
9.4553296765
 20
10.0028665415
 30
0.0
  0
SPLINE
  5
360
100
AcDbEntity
  8
0
100
AcDbSpline
 62
7
  6
CONTINUOUS
 70
0
 71
3
 72
15
 73
11
 74
0
 42
0.0000001
 43
0.0000001
 44
0.0000000001
 40
0.0
 40
0.0
 40
0.0
 40
0.0
 40
0.1273482789
 40
0.2538606571
 40
0.3795878378
 40
0.5046051156
 40
0.629017439
 40
0.7529533823
 40
0.8765605864
 40
1.0
 40
1.0
 40
1.0
 40
1.0
 10
9.1810559333
 20
7.4086704904
 30
0.0
 10
9.1810559333
 20
7.4139677032
 30
0.0
 10
9.1815617116
 20
7.4245346814
 30
0.0
 10
9.1838490112
 20
7.4401819095
 30
0.0
 10
9.187641751
 20
7.4554359893
 30
0.0
 10
9.1929056706
 20
7.4701542586
 30
0.0
 10
9.1995924924
 20
7.4842009864
 30
0.0
 10
9.2076412162
 20
7.4974464818
 30
0.0
 10
9.2169761879
 20
7.5097666335
 30
0.0
 10
9.2240049555
 20
7.5172924958
 30
0.0
 10
9.2276980413
 20
7.5208597672
 30
0.0
  0
SPLINE
  5
361
100
AcDbEntity
  8
0
100
AcDbSpline
 62
7
  6
CONTINUOUS
 70
0
 71
3
 72
85
 73
81
 74
0
 42
0.0000001
 43
0.0000001
 44
0.0000000001
 40
0.0
 40
0.0
 40
0.0
 40
0.0
 40
0.0039801755
 40
0.0081241211
 40
0.0124359992
 40
0.0169193694
 40
0.0215772468
 40
0.0264119948
 40
0.0314252716
 40
0.036618263
 40
0.0419916661
 40
0.0475457929
 40
0.0532805805
 40
0.0591955875
 40
0.0715626143
 40
0.0846383153
 40
0.0984096556
 40
0.1128602549
 40
0.1279708112
 40
0.1437194381
 40
0.1600819386
 40
0.1770320333
 40
0.1945415658
 40
0.2125806771
 40
0.2311179593
 40
0.2501205956
 40
0.2695544871
 40
0.2893843733
 40
0.3095739538
 40
0.3300859996
 40
0.3508824608
 40
0.3719245709
 40
0.3931729488
 40
0.4145877017
 40
0.457754079
 40
0.5010989561
 40
0.5442950696
 40
0.5657357599
 40
0.5870173776
 40
0.6080999494
 40
0.6289439925
 40
0.6495106191
 40
0.6697616414
 40
0.689659674
 40
0.709168241
 40
0.7282518859
 40
0.7468762864
 40
0.7650083809
 40
0.7826164962
 40
0.7996704822
 40
0.8161418627
 40
0.8320040043
 40
0.8472323103
 40
0.861804453
 40
0.8757006387
 40
0.8889039295
 40
0.9014006481
 40
0.9073810513
 40
0.9131814645
 40
0.9188013272
 40
0.9242404634
 40
0.9294990094
 40
0.9345775386
 40
0.9394770609
 40
0.9441990652
 40
0.9487456382
 40
0.9531194389
 40
0.9573238773
 40
0.961363122
 40
0.9652422377
 40
0.9689673054
 40
0.9725454842
 40
0.9759852134
 40
0.9824864129
 40
0.9855752855
 40
0.9885737661
 40
0.9914977029
 40
0.9943643139
 40
0.9971920003
 40
1.0
 40
1.0
 40
1.0
 40
1.0
 10
11.1447341445
 20
9.9552526081
 30
0.0
 10
11.1459125746
 20
9.9563908842
 30
0.0
 10
11.1483714398
 20
9.9586593908
 30
0.0
 10
11.1522753678
 20
9.9619727239
 30
0.0
 10
11.15646598
 20
9.9652623032
 30
0.0
 10
11.1609409761
 20
9.9685263567
 30
0.0
 10
11.1656981586
 20
9.9717633757
 30
0.0
 10
11.1707352132
 20
9.9749717689
 30
0.0
 10
11.1760496151
 20
9.9781500209
 30
0.0
 10
11.1816387302
 20
9.9812964769
 30
0.0
 10
11.1874997397
 20
9.9844096099
 30
0.0
 10
11.1936297154
 20
9.9874878445
 30
0.0
 10
11.2000255995
 20
9.9905296526
 30
0.0
 10
11.2090378869
 20
9.9945952368
 30
0.0
 10
11.2209549437
 20
9.9995634521
 30
0.0
 10
11.2360571491
 20
10.0052709818
 30
0.0
 10
11.252135968
 20
10.0107978257
 30
0.0
 10
11.2691590332
 20
10.0161327682
 30
0.0
 10
11.2870922625
 20
10.0212649682
 30
0.0
 10
11.3058995885
 20
10.0261839774
 30
0.0
 10
11.325543145
 20
10.0308797761
 30
0.0
 10
11.3459833234
 20
10.0353428021
 30
0.0
 10
11.3671788747
 20
10.0395639643
 30
0.0
 10
11.3890869986
 20
10.0435346652
 30
0.0
 10
11.4116634364
 20
10.0472468177
 30
0.0
 10
11.4348625619
 20
10.0506928616
 30
0.0
 10
11.4586374742
 20
10.0538657805
 30
0.0
 10
11.4829400951
 20
10.0567591204
 30
0.0
 10
11.5077212711
 20
10.0593669953
 30
0.0
 10
11.5329308749
 20
10.0616840997
 30
0.0
 10
11.5585179123
 20
10.0637057219
 30
0.0
 10
11.5844306055
 20
10.0654277406
 30
0.0
 10
11.6106165702
 20
10.0668466818
 30
0.0
 10
11.6459168982
 20
10.0683344015
 30
0.0
 10
11.6903350563
 20
10.0694150172
 30
0.0
 10
11.7437324785
 20
10.0694713594
 30
0.0
 10
11.7881757343
 20
10.0684846652
 30
0.0
 10
11.8235157691
 20
10.0670719334
 30
0.0
 10
11.8497457479
 20
10.0657084454
 30
0.0
 10
11.8757120545
 20
10.0640413119
 30
0.0
 10
11.9013621948
 20
10.062073892
 30
0.0
 10
11.9266442613
 20
10.0598101944
 30
0.0
 10
11.9515071119
 20
10.0572548239
 30
0.0
 10
11.9759004543
 20
10.0544129801
 30
0.0
 10
11.9997749523
 20
10.0512904448
 30
0.0
 10
12.023082325
 20
10.0478935717
 30
0.0
 10
12.045775448
 20
10.044229272
 30
0.0
 10
12.0678084541
 20
10.0403050069
 30
0.0
 10
12.089136829
 20
10.0361287706
 30
0.0
 10
12.1097175028
 20
10.0317090699
 30
0.0
 10
12.1295089397
 20
10.0270549078
 30
0.0
 10
12.148471226
 20
10.0221757648
 30
0.0
 10
12.1665661697
 20
10.0170815747
 30
0.0
 10
12.1837573636
 20
10.0117827091
 30
0.0
 10
12.2000103714
 20
10.006289942
 30
0.0
 10
12.2152924676
 20
10.0006144245
 30
0.0
 10
12.2273639421
 20
9.9956723625
 30
0.0
 10
12.2365026874
 20
9.9916267594
 30
0.0
 10
12.242994504
 20
9.9885985895
 30
0.0
 10
12.2492215586
 20
9.9855334174
 30
0.0
 10
12.2551807565
 20
9.9824328125
 30
0.0
 10
12.2608690944
 20
9.9792982875
 30
0.0
 10
12.2662837358
 20
9.9761314282
 30
0.0
 10
12.2714219833
 20
9.972933818
 30
0.0
 10
12.2762812548
 20
9.9697069964
 30
0.0
 10
12.280859165
 20
9.9664526085
 30
0.0
 10
12.2851534
 20
9.9631721723
 30
0.0
 10
12.2891618568
 20
9.9598673173
 30
0.0
 10
12.2928825195
 20
9.9565396023
 30
0.0
 10
12.29631353
 20
9.9531905436
 30
0.0
 10
12.2994531148
 20
9.9498218498
 30
0.0
 10
12.3022998485
 20
9.9464345875
 30
0.0
 10
12.3056394036
 20
9.9419807871
 30
0.0
 10
12.3084751881
 20
9.9374068943
 30
0.0
 10
12.3107267153
 20
9.93273536
 30
0.0
 10
12.3120870582
 20
9.9292803999
 30
0.0
 10
12.3131464604
 20
9.9258170501
 30
0.0
 10
12.3139039358
 20
9.9223469577
 30
0.0
 10
12.3143587796
 20
9.9188726285
 30
0.0
 10
12.3144600355
 20
9.9165514979
 30
0.0
 10
12.3144600408
 20
9.9153956092
 30
0.0
  0
SPLINE
  5
362
100
AcDbEntity
  8
0
100
AcDbSpline
 62
7
  6
CONTINUOUS
 70
0
 71
3
 72
80
 73
76
 74
0
 42
0.0000001
 43
0.0000001
 44
0.0000000001
 40
0.0
 40
0.0
 40
0.0
 40
0.0
 40
0.0029646151
 40
0.0060197331
 40
0.0091779004
 40
0.012450307
 40
0.0158468179
 40
0.0193760075
 40
0.0230453235
 40
0.0268611093
 40
0.030828758
 40
0.0349528134
 40
0.0392370024
 40
0.043684411
 40
0.0482974713
 40
0.0530780728
 40
0.0580276397
 40
0.0631471036
 40
0.0684370502
 40
0.0738976741
 40
0.0853296259
 40
0.0974391813
 40
0.1102179194
 40
0.1236540028
 40
0.137732621
 40
0.1524363692
 40
0.1677455464
 40
0.1836383941
 40
0.2000912901
 40
0.2170789147
 40
0.2345744178
 40
0.2525495535
 40
0.2709748012
 40
0.2898194684
 40
0.3090517996
 40
0.328639086
 40
0.34854776
 40
0.3687434851
 40
0.3891912405
 40
0.4306991939
 40
0.472782015
 40
0.5151440612
 40
0.5574871546
 40
0.5995132843
 40
0.6409273335
 40
0.6613144365
 40
0.6814405553
 40
0.7012708393
 40
0.7207711371
 40
0.7399080862
 40
0.7586492069
 40
0.776963011
 40
0.7948190973
 40
0.8121882538
 40
0.8290425708
 40
0.8453555724
 40
0.8611023658
 40
0.8762597856
 40
0.8908065688
 40
0.9047235656
 40
0.9179940043
 40
0.9306038027
 40
0.9425419414
 40
0.9482569106
 40
0.9538015024
 40
0.9591754227
 40
0.9643787444
 40
0.9694118308
 40
0.9742754392
 40
0.9789707353
 40
0.983499339
 40
0.9878635176
 40
0.9920660789
 40
0.9961102977
 40
1.0
 40
1.0
 40
1.0
 40
1.0
 10
10.4096363595
 20
10.0316096644
 30
0.0
 10
10.4092045067
 20
10.0327345769
 30
0.0
 10
10.4082417193
 20
10.0349866197
 30
0.0
 10
10.4065381151
 20
10.0383082324
 30
0.0
 10
10.404556432
 20
10.0416184419
 30
0.0
 10
10.4022978992
 20
10.0449155538
 30
0.0
 10
10.3997636886
 20
10.0481982156
 30
0.0
 10
10.3969551692
 20
10.0514650764
 30
0.0
 10
10.3938736578
 20
10.0547146932
 30
0.0
 10
10.3905206777
 20
10.0579457116
 30
0.0
 10
10.3868978034
 20
10.0611567246
 30
0.0
 10
10.3830067028
 20
10.0643462795
 30
0.0
 10
10.3788492272
 20
10.0675130156
 30
0.0
 10
10.3744272678
 20
10.0706554461
 30
0.0
 10
10.3697428991
 20
10.0737721739
 30
0.0
 10
10.3647982984
 20
10.0768617772
 30
0.0
 10
10.3595957448
 20
10.0799227891
 30
0.0
 10
10.3541376914
 20
10.0829538416
 30
0.0
 10
10.3484266537
 20
10.085953504
 30
0.0
 10
10.3403544438
 20
10.0899708143
 30
0.0
 10
10.3296397011
 20
10.094892645
 30
0.0
 10
10.3160076806
 20
10.1005648096
 30
0.0
 10
10.3014369136
 20
10.1060791585
 30
0.0
 10
10.2859547017
 20
10.1114252745
 30
0.0
 10
10.269589871
 20
10.1165930677
 30
0.0
 10
10.2523730661
 20
10.1215727477
 30
0.0
 10
10.234336562
 20
10.1263548694
 30
0.0
 10
10.2155142256
 20
10.1309303518
 30
0.0
 10
10.195941442
 20
10.1352905045
 30
0.0
 10
10.1756550449
 20
10.1394270561
 30
0.0
 10
10.1546932338
 20
10.1433321539
 30
0.0
 10
10.1330954937
 20
10.1469983849
 30
0.0
 10
10.1109025215
 20
10.1504187853
 30
0.0
 10
10.0881561522
 20
10.1535868659
 30
0.0
 10
10.0648992774
 20
10.1564966212
 30
0.0
 10
10.0411757535
 20
10.159142535
 30
0.0
 10
10.0170303317
 20
10.1615195802
 30
0.0
 10
9.9925085171
 20
10.1636232738
 30
0.0
 10
9.9592074364
 20
10.1660704161
 30
0.0
 10
9.9169818622
 20
10.1684108607
 30
0.0
 10
9.8658112371
 20
10.1700668805
 30
0.0
 10
9.8142767804
 20
10.1705712766
 30
0.0
 10
9.7627670046
 20
10.1699202672
 30
0.0
 10
9.7116702351
 20
10.1681187427
 30
0.0
 10
9.669537489
 20
10.1656577769
 30
0.0
 10
9.6363349293
 20
10.1631151799
 30
0.0
 10
9.6119043369
 20
10.1609416613
 30
0.0
 10
9.5878617714
 20
10.1584958945
 30
0.0
 10
9.564252543
 20
10.1557824866
 30
0.0
 10
9.5411211911
 20
10.1528065899
 30
0.0
 10
9.5185113351
 20
10.1495738405
 30
0.0
 10
9.4964656021
 20
10.146090377
 30
0.0
 10
9.4750255423
 20
10.1423628122
 30
0.0
 10
9.4542315556
 20
10.1383982209
 30
0.0
 10
9.4341228131
 20
10.1342041259
 30
0.0
 10
9.4147371739
 20
10.1297884849
 30
0.0
 10
9.3961111038
 20
10.1251596886
 30
0.0
 10
9.3782796085
 20
10.1203265261
 30
0.0
 10
9.3612761592
 20
10.1152981697
 30
0.0
 10
9.345132645
 20
10.1100841504
 30
0.0
 10
9.3298791976
 20
10.1046943358
 30
0.0
 10
9.3155444417
 20
10.0991389259
 30
0.0
 10
9.3042275155
 20
10.0943125019
 30
0.0
 10
9.2956631111
 20
10.0903678987
 30
0.0
 10
9.2895796145
 20
10.0874176925
 30
0.0
 10
9.2837450777
 20
10.0844339988
 30
0.0
 10
9.2781621955
 20
10.0814182389
 30
0.0
 10
9.2728335953
 20
10.0783717794
 30
0.0
 10
9.2677617646
 20
10.0752960572
 30
0.0
 10
9.2629490588
 20
10.0721925351
 30
0.0
 10
9.2583977256
 20
10.0690625729
 30
0.0
 10
9.2541098124
 20
10.0659076181
 30
0.0
 10
9.25008731
 20
10.0627290167
 30
0.0
 10
9.2463322805
 20
10.059528408
 30
0.0
 10
9.2439630929
 20
10.0573391228
 30
0.0
 10
9.2428259822
 20
10.0562407581
 30
0.0
  0
SPLINE
  5
363
100
AcDbEntity
  8
0
100
AcDbSpline
 62
7
  6
CONTINUOUS
 70
0
 71
3
 72
71
 73
67
 74
0
 42
0.0000001
 43
0.0000001
 44
0.0000000001
 40
0.0
 40
0.0
 40
0.0
 40
0.0
 40
0.0028080355
 40
0.0056357542
 40
0.008502401
 40
0.0114263688
 40
0.0144248772
 40
0.0175137827
 40
0.0240150392
 40
0.0274548054
 40
0.0310330191
 40
0.0347581091
 40
0.0386372748
 40
0.0426765473
 40
0.0468810218
 40
0.0512548783
 40
0.0558014752
 40
0.0605235373
 40
0.0654231076
 40
0.0757594389
 40
0.0868178486
 40
0.0985982192
 40
0.1110950732
 40
0.1242984976
 40
0.1381948361
 40
0.1527671565
 40
0.1679956356
 40
0.1838579484
 40
0.200329525
 40
0.2173837183
 40
0.2349920403
 40
0.2531243542
 40
0.27174899
 40
0.2908328668
 40
0.3103416682
 40
0.3302399535
 40
0.3504912356
 40
0.3710581206
 40
0.4129844596
 40
0.4557065486
 40
0.4989032271
 40
0.5422486728
 40
0.5854156196
 40
0.6280785467
 40
0.6699168588
 40
0.7106181432
 40
0.7304482922
 40
0.7498824493
 40
0.7688853412
 40
0.7874228693
 40
0.8054622296
 40
0.8229720049
 40
0.8399223178
 40
0.8562850335
 40
0.8720338837
 40
0.8871446467
 40
0.9015954341
 40
0.9153669631
 40
0.9284428459
 40
0.9408100276
 40
0.9524593774
 40
0.9633863643
 40
0.9735918817
 40
0.983083481
 40
0.9918776223
 40
1.0
 40
1.0
 40
1.0
 40
1.0
 10
10.1925518775
 20
9.9777463462
 30
0.0
 10
10.1925518718
 20
9.9784748479
 30
0.0
 10
10.1924880626
 20
9.9799377441
 30
0.0
 10
10.1922014477
 20
9.9821274546
 30
0.0
 10
10.1917240418
 20
9.9843144852
 30
0.0
 10
10.1910563779
 20
9.9864972722
 30
0.0
 10
10.1901990463
 20
9.9886747742
 30
0.0
 10
10.1887800293
 20
9.9916190139
 30
0.0
 10
10.1869928097
 20
9.9945017335
 30
0.0
 10
10.1848880597
 20
9.997308748
 30
0.0
 10
10.1830939129
 20
9.9994435746
 30
0.0
 10
10.1811152167
 20
10.0015667222
 30
0.0
 10
10.1789528113
 20
10.0036774539
 30
0.0
 10
10.1766078842
 20
10.0057747707
 30
0.0
 10
10.1740815623
 20
10.0078576687
 30
0.0
 10
10.1713751138
 20
10.0099251549
 30
0.0
 10
10.1684899078
 20
10.0119762644
 30
0.0
 10
10.1654273418
 20
10.0140099792
 30
0.0
 10
10.1610307267
 20
10.0167459933
 30
0.0
 10
10.1550905245
 20
10.0201067316
 30
0.0
 10
10.1474041866
 20
10.0239852643
 30
0.0
 10
10.1390523778
 20
10.0277707932
 30
0.0
 10
10.1300517718
 20
10.0314557579
 30
0.0
 10
10.1204201396
 20
10.0350327819
 30
0.0
 10
10.1101766871
 20
10.0384946183
 30
0.0
 10
10.0993419031
 20
10.0418342395
 30
0.0
 10
10.0879375418
 20
10.0450448719
 30
0.0
 10
10.0759865361
 20
10.0481199778
 30
0.0
 10
10.0635129512
 20
10.0510532781
 30
0.0
 10
10.0505419441
 20
10.0538388086
 30
0.0
 10
10.0370996971
 20
10.0564709018
 30
0.0
 10
10.023213352
 20
10.0589441872
 30
0.0
 10
10.0089109636
 20
10.0612536215
 30
0.0
 10
9.9942214449
 20
10.063394517
 30
0.0
 10
9.9791744929
 20
10.0653625165
 30
0.0
 10
9.9638005386
 20
10.067153595
 30
0.0
 10
9.9481306524
 20
10.0687641403
 30
0.0
 10
9.926748887
 20
10.0706785567
 30
0.0
 10
9.8995163077
 20
10.0725902551
 30
0.0
 10
9.8663805736
 20
10.0741086649
 30
0.0
 10
9.8328501408
 20
10.074853147
 30
0.0
 10
9.7991961142
 20
10.0748176626
 30
0.0
 10
9.7656904231
 20
10.0740024464
 30
0.0
 10
9.7326037671
 20
10.0724142604
 30
0.0
 10
9.7002036339
 20
10.0700660952
 30
0.0
 10
9.6737691131
 20
10.0674702904
 30
0.0
 10
9.6531681696
 20
10.0650177431
 30
0.0
 10
9.6381839467
 20
10.0630179904
 30
0.0
 10
9.6235626356
 20
10.0608461189
 30
0.0
 10
9.6093337698
 20
10.0585065227
 30
0.0
 10
9.595526109
 20
10.0560039836
 30
0.0
 10
9.5821675501
 20
10.0533435916
 30
0.0
 10
9.5692850724
 20
10.0505307526
 30
0.0
 10
9.5569046664
 20
10.0475712117
 30
0.0
 10
9.5450512902
 20
10.0444710013
 30
0.0
 10
9.5337488202
 20
10.0412364207
 30
0.0
 10
9.5230199791
 20
10.0378740545
 30
0.0
 10
9.5128862792
 20
10.0343907505
 30
0.0
 10
9.503367988
 20
10.0307935684
 30
0.0
 10
9.4944840681
 20
10.0270897508
 30
0.0
 10
9.4862520918
 20
10.0232867502
 30
0.0
 10
9.4786882008
 20
10.0193920846
 30
0.0
 10
9.4718071751
 20
10.0154133615
 30
0.0
 10
9.4656219179
 20
10.0113578969
 30
0.0
 10
9.4601448652
 20
10.0072334697
 30
0.0
 10
9.4568453085
 20
10.0043305297
 30
0.0
 10
9.4553296765
 20
10.0028665415
 30
0.0
  0
SPLINE
  5
364
100
AcDbEntity
  8
0
100
AcDbSpline
 62
7
  6
CONTINUOUS
 70
0
 71
3
 72
15
 73
11
 74
0
 42
0.0000001
 43
0.0000001
 44
0.0000000001
 40
0.0
 40
0.0
 40
0.0
 40
0.0
 40
0.1273482789
 40
0.2538606571
 40
0.3795878378
 40
0.5046051156
 40
0.629017439
 40
0.7529533823
 40
0.8765605864
 40
1.0
 40
1.0
 40
1.0
 40
1.0
 10
11.3543894015
 20
7.2579493024
 30
0.0
 10
11.3543894015
 20
7.2632465152
 30
0.0
 10
11.3548951798
 20
7.2738134935
 30
0.0
 10
11.3571824794
 20
7.2894607216
 30
0.0
 10
11.3609752192
 20
7.3047148014
 30
0.0
 10
11.3662391389
 20
7.3194330707
 30
0.0
 10
11.3729259606
 20
7.3334797985
 30
0.0
 10
11.3809746844
 20
7.3467252939
 30
0.0
 10
11.3903096561
 20
7.3590454456
 30
0.0
 10
11.3973384237
 20
7.3665713079
 30
0.0
 10
11.4010315095
 20
7.3701385793
 30
0.0
  0
SPLINE
  5
365
100
AcDbEntity
  8
0
100
AcDbSpline
 62
7
  6
CONTINUOUS
 70
0
 71
3
 72
17
 73
13
 74
0
 42
0.0000001
 43
0.0000001
 44
0.0000000001
 40
0.0
 40
0.0
 40
0.0
 40
0.0
 40
0.0548647409
 40
0.1099334006
 40
0.1654074856
 40
0.2214837901
 40
0.3361456859
 40
0.4553801965
 40
0.5804212901
 40
0.7123203437
 40
0.8519511008
 40
1.0
 40
1.0
 40
1.0
 40
1.0
 10
11.1244600496
 20
9.9153948538
 30
0.0
 10
11.1244600458
 20
9.9162351675
 30
0.0
 10
11.1245133744
 20
9.9179194037
 30
0.0
 10
11.124753147
 20
9.9204430033
 30
0.0
 10
11.1251527194
 20
9.9229652088
 30
0.0
 10
11.1259036004
 20
9.9263494134
 30
0.0
 10
11.1272563974
 20
9.9305911608
 30
0.0
 10
11.1295054689
 20
9.9356187248
 30
0.0
 10
11.1323873048
 20
9.9406182923
 30
0.0
 10
11.1358971028
 20
9.9455849547
 30
0.0
 10
11.1400296772
 20
9.9505144223
 30
0.0
 10
11.1431032122
 20
9.9536772484
 30
0.0
 10
11.1447341445
 20
9.9552526081
 30
0.0
  0
SPLINE
  5
366
100
AcDbEntity
  8
0
100
AcDbSpline
 62
7
  6
CONTINUOUS
 70
0
 71
3
 72
11
 73
7
 74
0
 42
0.0000001
 43
0.0000001
 44
0.0000000001
 40
0.0
 40
0.0
 40
0.0
 40
0.0
 40
0.226141941
 40
0.4664670609
 40
0.7237163824
 40
1.0
 40
1.0
 40
1.0
 40
1.0
 10
11.1275237857
 20
9.9000931749
 30
0.0
 10
11.1283506279
 20
9.9021937964
 30
0.0
 10
11.1303598221
 20
9.9064116296
 30
0.0
 10
11.1342415184
 20
9.912522074
 30
0.0
 10
11.1390593357
 20
9.9185767732
 30
0.0
 10
11.1427504113
 20
9.9224268399
 30
0.0
 10
11.1447341445
 20
9.9243429791
 30
0.0
  0
SPLINE
  5
367
100
AcDbEntity
  8
0
100
AcDbSpline
 62
7
  6
CONTINUOUS
 70
0
 71
3
 72
23
 73
19
 74
0
 42
0.0000001
 43
0.0000001
 44
0.0000000001
 40
0.0
 40
0.0
 40
0.0
 40
0.0
 40
0.0749626819
 40
0.1455691204
 40
0.2121609031
 40
0.2751642031
 40
0.3350994525
 40
0.392584508
 40
0.4483307774
 40
0.5031249976
 40
0.5577994745
 40
0.6131924637
 40
0.6701075145
 40
0.7292794073
 40
0.7913529093
 40
0.8568777123
 40
0.9263086925
 40
1.0
 40
1.0
 40
1.0
 40
1.0
 10
11.3196356937
 20
9.8557048973
 30
0.0
 10
11.3184373095
 20
9.8568201122
 30
0.0
 10
11.3161766204
 20
9.8590590768
 30
0.0
 10
11.3131262241
 20
9.8625521528
 30
0.0
 10
11.310525054
 20
9.8660729165
 30
0.0
 10
11.3083769683
 20
9.8696182861
 30
0.0
 10
11.3066855329
 20
9.8731851246
 30
0.0
 10
11.3054546026
 20
9.8767698027
 30
0.0
 10
11.3046875486
 20
9.8803676813
 30
0.0
 10
11.304387214
 20
9.8839730834
 30
0.0
 10
11.304554649
 20
9.8875794414
 30
0.0
 10
11.3051892931
 20
9.8911800907
 30
0.0
 10
11.3062887504
 20
9.8947690324
 30
0.0
 10
11.3078496873
 20
9.8983413417
 30
0.0
 10
11.3098683666
 20
9.9018931334
 30
0.0
 10
11.3123411828
 20
9.9054212708
 30
0.0
 10
11.3152643081
 20
9.9089224303
 30
0.0
 10
11.3174433399
 20
9.9111672613
 30
0.0
 10
11.3186008035
 20
9.9122852853
 30
0.0
  0
SPLINE
  5
368
100
AcDbEntity
  8
0
100
AcDbSpline
 62
7
  6
CONTINUOUS
 70
0
 71
3
 72
17
 73
13
 74
0
 42
0.0000001
 43
0.0000001
 44
0.0000000001
 40
0.0
 40
0.0
 40
0.0
 40
0.0
 40
0.0548654642
 40
0.1099349219
 40
0.2214349039
 40
0.3360992195
 40
0.4553348124
 40
0.517079118
 40
0.5804139608
 40
0.7123167483
 40
0.8519524535
 40
1.0
 40
1.0
 40
1.0
 40
1.0
 10
11.3444600505
 20
9.8458485672
 30
0.0
 10
11.3444600463
 20
9.8463781712
 30
0.0
 10
11.3444936735
 20
9.8474396874
 30
0.0
 10
11.34469592
 20
9.8495686816
 30
0.0
 10
11.3452069681
 20
9.8522425125
 30
0.0
 10
11.3462224956
 20
9.8554256635
 30
0.0
 10
11.3473901441
 20
9.8580360798
 30
0.0
 10
11.348513732
 20
9.8601103818
 30
0.0
 10
11.3498002855
 20
9.8622322912
 30
0.0
 10
11.3516683968
 20
9.8648758989
 30
0.0
 10
11.3542728877
 20
9.8679825168
 30
0.0
 10
11.3562099738
 20
9.8699759211
 30
0.0
 10
11.3572378388
 20
9.8709687625
 30
0.0
  0
SPLINE
  5
369
100
AcDbEntity
  8
0
100
AcDbSpline
 62
7
  6
CONTINUOUS
 70
0
 71
3
 72
41
 73
37
 74
0
 42
0.0000001
 43
0.0000001
 44
0.0000000001
 40
0.0
 40
0.0
 40
0.0
 40
0.0
 40
0.029942123
 40
0.0449237706
 40
0.0599145177
 40
0.0899291716
 40
0.1200145961
 40
0.1350933574
 40
0.1501974726
 40
0.1804849654
 40
0.2108989488
 40
0.2414525624
 40
0.2721557217
 40
0.3030149378
 40
0.3340332219
 40
0.3652100719
 40
0.3965415365
 40
0.4280203507
 40
0.4596361361
 40
0.4913756582
 40
0.5232231336
 40
0.5551605782
 40
0.5871681905
 40
0.6192247616
 40
0.6513081064
 40
0.6833955071
 40
0.7154641657
 40
0.7474916563
 40
0.7794563734
 40
0.811337967
 40
0.843117763
 40
0.8747791516
 40
0.9063079641
 40
0.9376927517
 40
0.9689251728
 40
1.0
 40
1.0
 40
1.0
 40
1.0
 10
9.4666923291
 20
7.273437621
 30
0.0
 10
9.4638389083
 20
7.2706814092
 30
0.0
 10
9.4593906204
 20
7.2667140573
 30
0.0
 10
9.4531608618
 20
7.2617914484
 30
0.0
 10
9.4467327012
 20
7.2571138065
 30
0.0
 10
9.4383450123
 20
7.2517423308
 30
0.0
 10
9.4295494854
 20
7.2470438489
 30
0.0
 10
9.4222954626
 20
7.2437013064
 30
0.0
 10
9.4148915705
 20
7.2406347298
 30
0.0
 10
9.4053927209
 20
7.237337247
 30
0.0
 10
9.3936868104
 20
7.2342640639
 30
0.0
 10
9.3817254665
 20
7.2320869155
 30
0.0
 10
9.3695749756
 20
7.2308178185
 30
0.0
 10
9.357302084
 20
7.2304635443
 30
0.0
 10
9.3449743214
 20
7.2310258966
 30
0.0
 10
9.3326594445
 20
7.2325016267
 30
0.0
 10
9.3204251188
 20
7.2348824812
 30
0.0
 10
9.3083385374
 20
7.2381552466
 30
0.0
 10
9.2964660607
 20
7.2423018279
 30
0.0
 10
9.284872856
 20
7.2472993503
 30
0.0
 10
9.2736225452
 20
7.253120287
 30
0.0
 10
9.2627768606
 20
7.2597326108
 30
0.0
 10
9.2523953105
 20
7.2670999695
 30
0.0
 10
9.242534857
 20
7.2751818849
 30
0.0
 10
9.2332496069
 20
7.2839339733
 30
0.0
 10
9.2245905185
 20
7.2933081869
 30
0.0
 10
9.2166051245
 20
7.3032530754
 30
0.0
 10
9.2093372738
 20
7.3137140653
 30
0.0
 10
9.2028268932
 20
7.3246337555
 30
0.0
 10
9.197109769
 20
7.335952231
 30
0.0
 10
9.1922173534
 20
7.3476073798
 30
0.0
 10
9.1881765882
 20
7.359535258
 30
0.0
 10
9.1850097648
 20
7.3716703286
 30
0.0
 10
9.1827343838
 20
7.3839462145
 30
0.0
 10
9.1813630824
 20
7.3962945923
 30
0.0
 10
9.1810559333
 20
7.4045532071
 30
0.0
 10
9.1810559333
 20
7.4086704904
 30
0.0
  0
SPLINE
  5
36A
100
AcDbEntity
  8
0
100
AcDbSpline
 62
7
  6
CONTINUOUS
 70
0
 71
3
 72
41
 73
37
 74
0
 42
0.0000001
 43
0.0000001
 44
0.0000000001
 40
0.0
 40
0.0
 40
0.0
 40
0.0
 40
0.029942123
 40
0.0449237706
 40
0.0599145177
 40
0.0899291716
 40
0.1200145961
 40
0.1350933574
 40
0.1501974726
 40
0.1804849654
 40
0.2108989488
 40
0.2414525624
 40
0.2721557217
 40
0.3030149378
 40
0.3340332219
 40
0.3652100719
 40
0.3965415365
 40
0.4280203507
 40
0.4596361361
 40
0.4913756582
 40
0.5232231336
 40
0.5551605782
 40
0.5871681905
 40
0.6192247616
 40
0.6513081064
 40
0.6833955071
 40
0.7154641657
 40
0.7474916563
 40
0.7794563734
 40
0.811337967
 40
0.843117763
 40
0.8747791516
 40
0.9063079641
 40
0.9376927517
 40
0.9689251728
 40
1.0
 40
1.0
 40
1.0
 40
1.0
 10
11.6400257974
 20
7.122716433
 30
0.0
 10
11.6371723765
 20
7.1199602213
 30
0.0
 10
11.6327240886
 20
7.1159928694
 30
0.0
 10
11.62649433
 20
7.1110702604
 30
0.0
 10
11.6200661694
 20
7.1063926186
 30
0.0
 10
11.6116784805
 20
7.1010211429
 30
0.0
 10
11.6028829536
 20
7.096322661
 30
0.0
 10
11.5956289308
 20
7.0929801185
 30
0.0
 10
11.5882250387
 20
7.0899135419
 30
0.0
 10
11.5787261892
 20
7.086616059
 30
0.0
 10
11.5670202786
 20
7.083542876
 30
0.0
 10
11.5550589347
 20
7.0813657276
 30
0.0
 10
11.5429084438
 20
7.0800966306
 30
0.0
 10
11.5306355523
 20
7.0797423564
 30
0.0
 10
11.5183077896
 20
7.0803047086
 30
0.0
 10
11.5059929127
 20
7.0817804388
 30
0.0
 10
11.493758587
 20
7.0841612933
 30
0.0
 10
11.4816720057
 20
7.0874340587
 30
0.0
 10
11.469799529
 20
7.0915806399
 30
0.0
 10
11.4582063242
 20
7.0965781624
 30
0.0
 10
11.4469560134
 20
7.1023990991
 30
0.0
 10
11.4361103288
 20
7.1090114229
 30
0.0
 10
11.4257287787
 20
7.1163787816
 30
0.0
 10
11.4158683252
 20
7.124460697
 30
0.0
 10
11.4065830752
 20
7.1332127853
 30
0.0
 10
11.3979239867
 20
7.142586999
 30
0.0
 10
11.3899385927
 20
7.1525318875
 30
0.0
 10
11.382670742
 20
7.1629928773
 30
0.0
 10
11.3761603614
 20
7.1739125676
 30
0.0
 10
11.3704432372
 20
7.1852310431
 30
0.0
 10
11.3655508217
 20
7.1968861919
 30
0.0
 10
11.3615100564
 20
7.2088140701
 30
0.0
 10
11.358343233
 20
7.2209491406
 30
0.0
 10
11.356067852
 20
7.2332250265
 30
0.0
 10
11.3546965506
 20
7.2455734044
 30
0.0
 10
11.3543894015
 20
7.2538320191
 30
0.0
 10
11.3543894015
 20
7.2579493024
 30
0.0
  0
SPLINE
  5
36B
100
AcDbEntity
  8
0
100
AcDbSpline
 62
7
  6
CONTINUOUS
 70
0
 71
3
 72
89
 73
85
 74
0
 42
0.0000001
 43
0.0000001
 44
0.0000000001
 40
0.0
 40
0.0
 40
0.0
 40
0.0
 40
0.0040125533
 40
0.0078523717
 40
0.0115287418
 40
0.0150530435
 40
0.0216971463
 40
0.0248548549
 40
0.0279270327
 40
0.0309353122
 40
0.0339028911
 40
0.0368540184
 40
0.0398133854
 40
0.0428054615
 40
0.0458538479
 40
0.0489807397
 40
0.0522065462
 40
0.0555496073
 40
0.0590261823
 40
0.0626503947
 40
0.0664343977
 40
0.0703885264
 40
0.0745214109
 40
0.0788402697
 40
0.0833509485
 40
0.0880581803
 40
0.0929656887
 40
0.0980762636
 40
0.1033919823
 40
0.1089141521
 40
0.1146435185
 40
0.1205802651
 40
0.1267240517
 40
0.1396287586
 40
0.1533476966
 40
0.1678647632
 40
0.1831592875
 40
0.1992066539
 40
0.2159787906
 40
0.2334445531
 40
0.2515700594
 40
0.2703189789
 40
0.2896527744
 40
0.3095309176
 40
0.3299110797
 40
0.3507493148
 40
0.3720002446
 40
0.3936172239
 40
0.4155524993
 40
0.4377573633
 40
0.460182305
 40
0.5054903707
 40
0.5510713678
 40
0.5965158089
 40
0.6190596373
 40
0.641416762
 40
0.6635372256
 40
0.6853717674
 40
0.7068719814
 40
0.7279904662
 40
0.7486809811
 40
0.7688986061
 40
0.788599913
 40
0.8077431537
 40
0.8262884409
 40
0.8441979478
 40
0.8614361316
 40
0.8779699875
 40
0.8937693569
 40
0.9088072733
 40
0.923060375
 40
0.9365094382
 40
0.942928052
 40
0.949140728
 40
0.9551465281
 40
0.960945024
 40
0.9665362195
 40
0.9719206334
 40
0.9770993961
 40
0.9820742504
 40
0.9868478694
 40
0.9914237469
 40
0.9958061038
 40
1.0
 40
1.0
 40
1.0
 40
1.0
 10
12.1203192868
 20
9.8566859197
 30
0.0
 10
12.121178731
 20
9.8575160791
 30
0.0
 10
12.1228220719
 20
9.8591813505
 30
0.0
 10
12.1251005458
 20
9.8617516607
 30
0.0
 10
12.1271354571
 20
9.8643370102
 30
0.0
 10
12.1294751275
 20
9.8677337766
 30
0.0
 10
12.1313907074
 20
9.871229577
 30
0.0
 10
12.1328096382
 20
9.874795211
 30
0.0
 10
12.1336062316
 20
9.8774322098
 30
0.0
 10
12.1341518559
 20
9.8800746366
 30
0.0
 10
12.1344459299
 20
9.882720666
 30
0.0
 10
12.1344879124
 20
9.8853681465
 30
0.0
 10
12.1342778727
 20
9.8880149011
 30
0.0
 10
12.1338160019
 20
9.890658769
 30
0.0
 10
12.1331029935
 20
9.8932977222
 30
0.0
 10
12.1321397309
 20
9.8959299164
 30
0.0
 10
12.1309271909
 20
9.8985536403
 30
0.0
 10
12.129466612
 20
9.9011674153
 30
0.0
 10
12.1277591062
 20
9.9037697584
 30
0.0
 10
12.1258059989
 20
9.9063593371
 30
0.0
 10
12.1236085977
 20
9.9089347956
 30
0.0
 10
12.1211682797
 20
9.91149475
 30
0.0
 10
12.1184865969
 20
9.9140378967
 30
0.0
 10
12.1155651019
 20
9.9165627827
 30
0.0
 10
12.1124055732
 20
9.9190680654
 30
0.0
 10
12.1090098572
 20
9.92155231
 30
0.0
 10
12.1053799491
 20
9.9240140784
 30
0.0
 10
12.1015180155
 20
9.9264519963
 30
0.0
 10
12.0974263071
 20
9.9288645722
 30
0.0
 10
12.0931072754
 20
9.9312504468
 30
0.0
 10
12.0885634713
 20
9.9336081668
 30
0.0
 10
12.083797593
 20
9.9359363567
 30
0.0
 10
12.0770396418
 20
9.9390505031
 30
0.0
 10
12.0680481571
 20
9.9428486253
 30
0.0
 10
12.0565912507
 20
9.9471953757
 30
0.0
 10
12.0443241134
 20
9.9513922891
 30
0.0
 10
12.0312760847
 20
9.9554292288
 30
0.0
 10
12.017478205
 20
9.9592964208
 30
0.0
 10
12.002963472
 20
9.9629844817
 30
0.0
 10
11.987766648
 20
9.9664844644
 30
0.0
 10
11.9719241891
 20
9.969787877
 30
0.0
 10
11.9554741343
 20
9.9728867027
 30
0.0
 10
11.9384560072
 20
9.9757734215
 30
0.0
 10
11.9209107178
 20
9.9784410273
 30
0.0
 10
11.9028804643
 20
9.9808830495
 30
0.0
 10
11.8844086274
 20
9.983093572
 30
0.0
 10
11.8655396606
 20
9.9850672377
 30
0.0
 10
11.8463189749
 20
9.9867992659
 30
0.0
 10
11.8267928465
 20
9.988285451
 30
0.0
 10
11.8070082429
 20
9.9895222178
 30
0.0
 10
11.7802571416
 20
9.9908390153
 30
0.0
 10
11.7465237553
 20
9.9918387621
 30
0.0
 10
11.7059208761
 20
9.9920099613
 30
0.0
 10
11.6721042508
 20
9.99129563
 30
0.0
 10
11.6452214648
 20
9.9902066277
 30
0.0
 10
11.625290997
 20
9.9891378525
 30
0.0
 10
11.6055873111
 20
9.9878175962
 30
0.0
 10
11.5861578053
 20
9.9862490272
 30
0.0
 10
11.567049263
 20
9.9844359565
 30
0.0
 10
11.5483076752
 20
9.9823827761
 30
0.0
 10
11.5299781482
 20
9.9800944618
 30
0.0
 10
11.5121047897
 20
9.9775765584
 30
0.0
 10
11.4947305986
 20
9.9748351668
 30
0.0
 10
11.4778973549
 20
9.9718769397
 30
0.0
 10
11.4616455173
 20
9.9687090561
 30
0.0
 10
11.4460141252
 20
9.9653392035
 30
0.0
 10
11.4310407022
 20
9.9617755603
 30
0.0
 10
11.4167611478
 20
9.9580267707
 30
0.0
 10
11.4032096593
 20
9.9541019319
 30
0.0
 10
11.3904185479
 20
9.9500105621
 30
0.0
 10
11.3784184501
 20
9.9457625576
 30
0.0
 10
11.3689593142
 20
9.9420449857
 30
0.0
 10
11.3618174079
 20
9.9389921946
 30
0.0
 10
11.3567598853
 20
9.9367055649
 30
0.0
 10
11.3519206258
 20
9.9343875355
 30
0.0
 10
11.3473024924
 20
9.9320395068
 30
0.0
 10
11.3429082393
 20
9.9296628657
 30
0.0
 10
11.3387404943
 20
9.9272590058
 30
0.0
 10
11.3348017141
 20
9.9248294129
 30
0.0
 10
11.3310942443
 20
9.9223754379
 30
0.0
 10
11.3276202164
 20
9.9198985247
 30
0.0
 10
11.3243816656
 20
9.9174000162
 30
0.0
 10
11.3213806993
 20
9.9148815216
 30
0.0
 10
11.3194990893
 20
9.9131529629
 30
0.0
 10
11.3186008035
 20
9.9122852853
 30
0.0
  0
SPLINE
  5
36C
100
AcDbEntity
  8
0
100
AcDbSpline
 62
7
  6
CONTINUOUS
 70
0
 71
3
 72
80
 73
76
 74
0
 42
0.0000001
 43
0.0000001
 44
0.0000000001
 40
0.0
 40
0.0
 40
0.0
 40
0.0
 40
0.0029646151
 40
0.0060197331
 40
0.0091779004
 40
0.012450307
 40
0.0158468179
 40
0.0193760075
 40
0.0230453235
 40
0.0268611093
 40
0.030828758
 40
0.0349528134
 40
0.0392370024
 40
0.043684411
 40
0.0482974713
 40
0.0530780728
 40
0.0580276397
 40
0.0631471036
 40
0.0684370502
 40
0.0738976741
 40
0.0853296259
 40
0.0974391813
 40
0.1102179194
 40
0.1236540028
 40
0.137732621
 40
0.1524363692
 40
0.1677455464
 40
0.1836383941
 40
0.2000912901
 40
0.2170789147
 40
0.2345744178
 40
0.2525495535
 40
0.2709748012
 40
0.2898194684
 40
0.3090517996
 40
0.328639086
 40
0.34854776
 40
0.3687434851
 40
0.3891912405
 40
0.4306991939
 40
0.472782015
 40
0.5151440612
 40
0.5574871546
 40
0.5995132843
 40
0.6409273335
 40
0.6613144365
 40
0.6814405553
 40
0.7012708393
 40
0.7207711371
 40
0.7399080862
 40
0.7586492069
 40
0.776963011
 40
0.7948190973
 40
0.8121882538
 40
0.8290425708
 40
0.8453555724
 40
0.8611023658
 40
0.8762597856
 40
0.8908065688
 40
0.9047235656
 40
0.9179940043
 40
0.9306038027
 40
0.9425419414
 40
0.9482569106
 40
0.9538015024
 40
0.9591754227
 40
0.9643787444
 40
0.9694118308
 40
0.9742754392
 40
0.9789707353
 40
0.983499339
 40
0.9878635176
 40
0.9920660789
 40
0.9961102977
 40
1.0
 40
1.0
 40
1.0
 40
1.0
 10
12.3115445218
 20
9.8997118854
 30
0.0
 10
12.311112669
 20
9.9008367978
 30
0.0
 10
12.3101498816
 20
9.9030888407
 30
0.0
 10
12.3084462774
 20
9.9064104534
 30
0.0
 10
12.3064645943
 20
9.9097206629
 30
0.0
 10
12.3042060615
 20
9.9130177748
 30
0.0
 10
12.3016718509
 20
9.9163004365
 30
0.0
 10
12.2988633315
 20
9.9195672973
 30
0.0
 10
12.2957818201
 20
9.9228169142
 30
0.0
 10
12.29242884
 20
9.9260479326
 30
0.0
 10
12.2888059657
 20
9.9292589455
 30
0.0
 10
12.2849148651
 20
9.9324485005
 30
0.0
 10
12.2807573895
 20
9.9356152365
 30
0.0
 10
12.2763354301
 20
9.938757667
 30
0.0
 10
12.2716510614
 20
9.9418743948
 30
0.0
 10
12.2667064607
 20
9.9449639981
 30
0.0
 10
12.2615039071
 20
9.94802501
 30
0.0
 10
12.2560458537
 20
9.9510560626
 30
0.0
 10
12.250334816
 20
9.954055725
 30
0.0
 10
12.2422626061
 20
9.9580730352
 30
0.0
 10
12.2315478634
 20
9.962994866
 30
0.0
 10
12.2179158429
 20
9.9686670306
 30
0.0
 10
12.2033450759
 20
9.9741813794
 30
0.0
 10
12.187862864
 20
9.9795274955
 30
0.0
 10
12.1714980333
 20
9.9846952887
 30
0.0
 10
12.1542812284
 20
9.9896749687
 30
0.0
 10
12.1362447243
 20
9.9944570904
 30
0.0
 10
12.1174223879
 20
9.9990325728
 30
0.0
 10
12.0978496043
 20
10.0033927255
 30
0.0
 10
12.0775632072
 20
10.007529277
 30
0.0
 10
12.0566013961
 20
10.0114343749
 30
0.0
 10
12.035003656
 20
10.0151006058
 30
0.0
 10
12.0128106838
 20
10.0185210063
 30
0.0
 10
11.9900643145
 20
10.0216890868
 30
0.0
 10
11.9668074397
 20
10.0245988422
 30
0.0
 10
11.9430839158
 20
10.0272447559
 30
0.0
 10
11.918938494
 20
10.0296218012
 30
0.0
 10
11.8944166794
 20
10.0317254948
 30
0.0
 10
11.8611155987
 20
10.0341726371
 30
0.0
 10
11.8188900245
 20
10.0365130817
 30
0.0
 10
11.7677193994
 20
10.0381691014
 30
0.0
 10
11.7161849427
 20
10.0386734976
 30
0.0
 10
11.6646751669
 20
10.0380224882
 30
0.0
 10
11.6135783974
 20
10.0362209637
 30
0.0
 10
11.5714456513
 20
10.0337599978
 30
0.0
 10
11.5382430916
 20
10.0312174009
 30
0.0
 10
11.5138124992
 20
10.0290438823
 30
0.0
 10
11.4897699337
 20
10.0265981154
 30
0.0
 10
11.4661607053
 20
10.0238847076
 30
0.0
 10
11.4430293534
 20
10.0209088108
 30
0.0
 10
11.4204194974
 20
10.0176760615
 30
0.0
 10
11.3983737644
 20
10.014192598
 30
0.0
 10
11.3769337046
 20
10.0104650332
 30
0.0
 10
11.3561397179
 20
10.0065004419
 30
0.0
 10
11.3360309754
 20
10.0023063468
 30
0.0
 10
11.3166453362
 20
9.9978907059
 30
0.0
 10
11.2980192661
 20
9.9932619096
 30
0.0
 10
11.2801877708
 20
9.9884287471
 30
0.0
 10
11.2631843215
 20
9.9834003907
 30
0.0
 10
11.2470408073
 20
9.9781863714
 30
0.0
 10
11.2317873599
 20
9.9727965567
 30
0.0
 10
11.217452604
 20
9.9672411468
 30
0.0
 10
11.2061356778
 20
9.9624147229
 30
0.0
 10
11.1975712734
 20
9.9584701197
 30
0.0
 10
11.1914877768
 20
9.9555199134
 30
0.0
 10
11.18565324
 20
9.9525362197
 30
0.0
 10
11.1800703578
 20
9.9495204599
 30
0.0
 10
11.1747417576
 20
9.9464740004
 30
0.0
 10
11.1696699269
 20
9.9433982782
 30
0.0
 10
11.1648572211
 20
9.9402947561
 30
0.0
 10
11.1603058879
 20
9.9371647939
 30
0.0
 10
11.1560179747
 20
9.9340098391
 30
0.0
 10
11.1519954723
 20
9.9308312377
 30
0.0
 10
11.1482404428
 20
9.927630629
 30
0.0
 10
11.1458712552
 20
9.9254413437
 30
0.0
 10
11.1447341445
 20
9.9243429791
 30
0.0
  0
SPLINE
  5
36D
100
AcDbEntity
  8
0
100
AcDbSpline
 62
4
  6
CONTINUOUS
 70
0
 71
3
 72
335
 73
331
 74
0
 42
0.0000001
 43
0.0000001
 44
0.0000000001
 40
0.0
 40
0.0
 40
0.0
 40
0.0
 40
0.015625
 40
0.0234375
 40
0.03125
 40
0.0390625
 40
0.04296875
 40
0.046875
 40
0.05078125
 40
0.0546875
 40
0.056640625
 40
0.05859375
 40
0.060546875
 40
0.0615234375
 40
0.0620117188
 40
0.0625
 40
0.0629882812
 40
0.0634765625
 40
0.064453125
 40
0.06640625
 40
0.068359375
 40
0.0703125
 40
0.07421875
 40
0.078125
 40
0.08203125
 40
0.0859375
 40
0.09375
 40
0.1015625
 40
0.10546875
 40
0.109375
 40
0.11328125
 40
0.1171875
 40
0.119140625
 40
0.12109375
 40
0.123046875
 40
0.1240234375
 40
0.1245117188
 40
0.125
 40
0.1254882812
 40
0.1259765625
 40
0.126953125
 40
0.12890625
 40
0.130859375
 40
0.1328125
 40
0.13671875
 40
0.140625
 40
0.14453125
 40
0.1484375
 40
0.15625
 40
0.1640625
 40
0.16796875
 40
0.171875
 40
0.17578125
 40
0.1796875
 40
0.181640625
 40
0.18359375
 40
0.1845703125
 40
0.185546875
 40
0.1865234375
 40
0.1870117188
 40
0.1875
 40
0.1879882812
 40
0.1884765625
 40
0.189453125
 40
0.1904296875
 40
0.19140625
 40
0.193359375
 40
0.1953125
 40
0.19921875
 40
0.203125
 40
0.20703125
 40
0.2109375
 40
0.21875
 40
0.2265625
 40
0.23046875
 40
0.234375
 40
0.23828125
 40
0.2421875
 40
0.244140625
 40
0.24609375
 40
0.2470703125
 40
0.248046875
 40
0.2490234375
 40
0.2495117188
 40
0.25
 40
0.2504882812
 40
0.2509765625
 40
0.251953125
 40
0.2529296875
 40
0.25390625
 40
0.255859375
 40
0.2578125
 40
0.26171875
 40
0.265625
 40
0.26953125
 40
0.2734375
 40
0.28125
 40
0.2890625
 40
0.29296875
 40
0.296875
 40
0.30078125
 40
0.3046875
 40
0.306640625
 40
0.30859375
 40
0.310546875
 40
0.3115234375
 40
0.3120117188
 40
0.3125
 40
0.3129882812
 40
0.3134765625
 40
0.314453125
 40
0.31640625
 40
0.318359375
 40
0.3203125
 40
0.32421875
 40
0.328125
 40
0.33203125
 40
0.3359375
 40
0.34375
 40
0.3515625
 40
0.35546875
 40
0.359375
 40
0.36328125
 40
0.3671875
 40
0.369140625
 40
0.37109375
 40
0.373046875
 40
0.3740234375
 40
0.3745117188
 40
0.375
 40
0.3754882812
 40
0.3759765625
 40
0.376953125
 40
0.37890625
 40
0.380859375
 40
0.3828125
 40
0.38671875
 40
0.390625
 40
0.39453125
 40
0.3984375
 40
0.40625
 40
0.4140625
 40
0.41796875
 40
0.421875
 40
0.42578125
 40
0.4296875
 40
0.431640625
 40
0.43359375
 40
0.435546875
 40
0.4365234375
 40
0.4370117188
 40
0.4375
 40
0.4379882812
 40
0.4384765625
 40
0.439453125
 40
0.44140625
 40
0.443359375
 40
0.4453125
 40
0.44921875
 40
0.453125
 40
0.45703125
 40
0.4609375
 40
0.46875
 40
0.4765625
 40
0.48046875
 40
0.484375
 40
0.48828125
 40
0.4921875
 40
0.494140625
 40
0.49609375
 40
0.498046875
 40
0.4990234375
 40
0.4995117188
 40
0.5
 40
0.5004882812
 40
0.5009765625
 40
0.501953125
 40
0.50390625
 40
0.505859375
 40
0.5078125
 40
0.51171875
 40
0.515625
 40
0.51953125
 40
0.5234375
 40
0.53125
 40
0.5390625
 40
0.546875
 40
0.55078125
 40
0.5546875
 40
0.556640625
 40
0.55859375
 40
0.560546875
 40
0.5615234375
 40
0.5620117188
 40
0.5625
 40
0.5629882812
 40
0.5634765625
 40
0.564453125
 40
0.56640625
 40
0.568359375
 40
0.5703125
 40
0.57421875
 40
0.578125
 40
0.5859375
 40
0.59375
 40
0.6015625
 40
0.609375
 40
0.61328125
 40
0.6171875
 40
0.619140625
 40
0.62109375
 40
0.623046875
 40
0.6240234375
 40
0.6245117188
 40
0.625
 40
0.6254882812
 40
0.6259765625
 40
0.626953125
 40
0.62890625
 40
0.630859375
 40
0.6328125
 40
0.63671875
 40
0.640625
 40
0.6484375
 40
0.65625
 40
0.6640625
 40
0.671875
 40
0.67578125
 40
0.6796875
 40
0.681640625
 40
0.68359375
 40
0.685546875
 40
0.6865234375
 40
0.6870117188
 40
0.6875
 40
0.6879882812
 40
0.6884765625
 40
0.689453125
 40
0.69140625
 40
0.693359375
 40
0.6953125
 40
0.69921875
 40
0.703125
 40
0.7109375
 40
0.71875
 40
0.7265625
 40
0.734375
 40
0.73828125
 40
0.7421875
 40
0.744140625
 40
0.74609375
 40
0.748046875
 40
0.7490234375
 40
0.7495117188
 40
0.75
 40
0.7504882812
 40
0.7509765625
 40
0.751953125
 40
0.75390625
 40
0.755859375
 40
0.7578125
 40
0.76171875
 40
0.765625
 40
0.7734375
 40
0.78125
 40
0.7890625
 40
0.796875
 40
0.80078125
 40
0.8046875
 40
0.806640625
 40
0.80859375
 40
0.810546875
 40
0.8115234375
 40
0.8120117188
 40
0.8125
 40
0.8129882812
 40
0.8134765625
 40
0.814453125
 40
0.81640625
 40
0.818359375
 40
0.8203125
 40
0.82421875
 40
0.828125
 40
0.8359375
 40
0.84375
 40
0.8515625
 40
0.859375
 40
0.86328125
 40
0.8671875
 40
0.869140625
 40
0.87109375
 40
0.873046875
 40
0.8740234375
 40
0.8745117188
 40
0.875
 40
0.8754882812
 40
0.8759765625
 40
0.876953125
 40
0.87890625
 40
0.880859375
 40
0.8828125
 40
0.88671875
 40
0.890625
 40
0.8984375
 40
0.90625
 40
0.9140625
 40
0.91796875
 40
0.921875
 40
0.92578125
 40
0.9296875
 40
0.931640625
 40
0.93359375
 40
0.935546875
 40
0.9365234375
 40
0.9370117188
 40
0.9375
 40
0.9379882812
 40
0.9384765625
 40
0.939453125
 40
0.94140625
 40
0.943359375
 40
0.9453125
 40
0.94921875
 40
0.953125
 40
0.95703125
 40
0.9609375
 40
0.96875
 40
0.9765625
 40
0.984375
 40
1.0
 40
1.0
 40
1.0
 40
1.0
 10
9.8910116529
 20
7.7063954852
 30
0.0
 10
9.8941448398
 20
7.7064854096
 30
0.0
 10
9.8988446202
 20
7.7066202963
 30
0.0
 10
9.9051109941
 20
7.7068001449
 30
0.0
 10
9.9098107744
 20
7.7069350321
 30
0.0
 10
9.9137272583
 20
7.7070474359
 30
0.0
 10
9.9168604446
 20
7.7071373637
 30
0.0
 10
9.9192103368
 20
7.7072047966
 30
0.0
 10
9.9215602194
 20
7.707272279
 30
0.0
 10
9.9235184849
 20
7.7073283603
 30
0.0
 10
9.92508503
 20
7.7073735701
 30
0.0
 10
9.9262601228
 20
7.7074065356
 30
0.0
 10
9.9272387816
 20
7.7074370028
 30
0.0
 10
9.9279249912
 20
7.7074524504
 30
0.0
 10
9.9283153178
 20
7.7074704578
 30
0.0
 10
9.928613114
 20
7.7074581028
 30
0.0
 10
9.928891602
 20
7.7075445997
 30
0.0
 10
9.9292696543
 20
7.7076254482
 30
0.0
 10
9.929928108
 20
7.7077829983
 30
0.0
 10
9.9308703966
 20
7.7079996708
 30
0.0
 10
9.9320004407
 20
7.708263273
 30
0.0
 10
9.9335074115
 20
7.7086134866
 30
0.0
 10
9.9353910407
 20
7.7090516846
 30
0.0
 10
9.937651432
 20
7.7095773375
 30
0.0
 10
9.9399118135
 20
7.7101030398
 30
0.0
 10
9.942925659
 20
7.7108039589
 30
0.0
 10
9.9466929645
 20
7.7116801142
 30
0.0
 10
9.9504602712
 20
7.7125562653
 30
0.0
 10
9.9534741147
 20
7.7132571912
 30
0.0
 10
9.9557345023
 20
7.7137828732
 30
0.0
 10
9.957994871
 20
7.7143086024
 30
0.0
 10
9.9598785705
 20
7.7147465629
 30
0.0
 10
9.961385398
 20
7.7150972609
 30
0.0
 10
9.9625158796
 20
7.7153593838
 30
0.0
 10
9.9634567995
 20
7.7155806845
 30
0.0
 10
9.9641176964
 20
7.7157299725
 30
0.0
 10
9.964491834
 20
7.7158240589
 30
0.0
 10
9.964782347
 20
7.7158698933
 30
0.0
 10
9.9650349794
 20
7.7160102601
 30
0.0
 10
9.9653850357
 20
7.7161644418
 30
0.0
 10
9.9659914781
 20
7.716449623
 30
0.0
 10
9.9668610429
 20
7.7168489927
 30
0.0
 10
9.967903143
 20
7.7173316744
 30
0.0
 10
9.969293091
 20
7.717974049
 30
0.0
 10
9.9710303609
 20
7.7187774293
 30
0.0
 10
9.9731151555
 20
7.7197413091
 30
0.0
 10
9.9751999313
 20
7.7207052361
 30
0.0
 10
9.9779796388
 20
7.7219904556
 30
0.0
 10
9.9814542711
 20
7.7235969855
 30
0.0
 10
9.9849289039
 20
7.7252035139
 30
0.0
 10
9.9877086106
 20
7.7264887359
 30
0.0
 10
9.9897933889
 20
7.7274526556
 30
0.0
 10
9.9918781738
 20
7.7284165628
 30
0.0
 10
9.9936154741
 20
7.7292198577
 30
0.0
 10
9.9950053601
 20
7.7298624065
 30
0.0
 10
9.9958739348
 20
7.7302641979
 30
0.0
 10
9.9965690329
 20
7.7305851765
 30
0.0
 10
9.9970897038
 20
7.7308271551
 30
0.0
 10
9.9975256724
 20
7.7310248447
 30
0.0
 10
9.9978697907
 20
7.7311918761
 30
0.0
 10
9.9981406035
 20
7.7312928859
 30
0.0
 10
9.9983628483
 20
7.731486511
 30
0.0
 10
9.9986761401
 20
7.731712326
 30
0.0
 10
9.9990619341
 20
7.7320056945
 30
0.0
 10
9.9995273783
 20
7.7323529857
 30
0.0
 10
10.0001471004
 20
7.7328177001
 30
0.0
 10
10.000922051
 20
7.7333980249
 30
0.0
 10
10.0021618055
 20
7.7343268621
 30
0.0
 10
10.0037115557
 20
7.7354877996
 30
0.0
 10
10.0055712314
 20
7.7368809714
 30
0.0
 10
10.0074309137
 20
7.7382741306
 30
0.0
 10
10.0099104878
 20
7.7401316807
 30
0.0
 10
10.0130099563
 20
7.7424536166
 30
0.0
 10
10.0161094241
 20
7.7447755535
 30
0.0
 10
10.0185889993
 20
7.746633102
 30
0.0
 10
10.020448678
 20
7.7480262659
 30
0.0
 10
10.0223083673
 20
7.7494194203
 30
0.0
 10
10.0238580755
 20
7.7505804119
 30
0.0
 10
10.0250979155
 20
7.7515091387
 30
0.0
 10
10.0258726485
 20
7.7520897444
 30
0.0
 10
10.0264928172
 20
7.7525538822
 30
0.0
 10
10.0269568971
 20
7.752902935
 30
0.0
 10
10.0273469599
 20
7.753190792
 30
0.0
 10
10.0276515425
 20
7.7534278516
 30
0.0
 10
10.0279003845
 20
7.7535871366
 30
0.0
 10
10.0280713401
 20
7.7538170733
 30
0.0
 10
10.0283264875
 20
7.754098976
 30
0.0
 10
10.0286360874
 20
7.7544598218
 30
0.0
 10
10.0290116027
 20
7.7548892124
 30
0.0
 10
10.0295108942
 20
7.7554629991
 30
0.0
 10
10.0301354864
 20
7.7561797991
 30
0.0
 10
10.0311345668
 20
7.7573269213
 30
0.0
 10
10.0323835091
 20
7.758760741
 30
0.0
 10
10.0338822005
 20
7.7604813602
 30
0.0
 10
10.0353809024
 20
7.7622019699
 30
0.0
 10
10.037379168
 20
7.7644961195
 30
0.0
 10
10.0398770008
 20
7.7673638056
 30
0.0
 10
10.0423748349
 20
7.7702314908
 30
0.0
 10
10.0443730983
 20
7.7725256419
 30
0.0
 10
10.0458718067
 20
7.7742462471
 30
0.0
 10
10.0473704738
 20
7.7759668829
 30
0.0
 10
10.0486194917
 20
7.7774006511
 30
0.0
 10
10.0496184179
 20
7.7785478784
 30
0.0
 10
10.0503683996
 20
7.7794077174
 30
0.0
 10
10.0509908809
 20
7.7801260995
 30
0.0
 10
10.0514315308
 20
7.7806253373
 30
0.0
 10
10.0516756595
 20
7.7809162835
 30
0.0
 10
10.0518803661
 20
7.7811185277
 30
0.0
 10
10.0520024679
 20
7.7813817998
 30
0.0
 10
10.0521940838
 20
7.781711542
 30
0.0
 10
10.0525159868
 20
7.782298509
 30
0.0
 10
10.0529828669
 20
7.783131848
 30
0.0
 10
10.0535401187
 20
7.7841340743
 30
0.0
 10
10.0542841707
 20
7.7854696007
 30
0.0
 10
10.0552138755
 20
7.7871392747
 30
0.0
 10
10.0563296756
 20
7.7891427695
 30
0.0
 10
10.0574454344
 20
7.7911462948
 30
0.0
 10
10.0589331273
 20
7.7938176512
 30
0.0
 10
10.060792738
 20
7.7971568506
 30
0.0
 10
10.0626523525
 20
7.8004960477
 30
0.0
 10
10.0641400393
 20
7.8031674078
 30
0.0
 10
10.0652558165
 20
7.8051709219
 30
0.0
 10
10.0663715478
 20
7.8071744584
 30
0.0
 10
10.0673014668
 20
7.8088440028
 30
0.0
 10
10.0680450819
 20
7.8101797936
 30
0.0
 10
10.0686036677
 20
7.8111812122
 30
0.0
 10
10.0690663745
 20
7.8120170783
 30
0.0
 10
10.0693957275
 20
7.812599534
 30
0.0
 10
10.0695754066
 20
7.8129365045
 30
0.0
 10
10.0697341744
 20
7.8131775736
 30
0.0
 10
10.0698011695
 20
7.8134632084
 30
0.0
 10
10.0699225077
 20
7.8138285098
 30
0.0
 10
10.0701199349
 20
7.81447503
 30
0.0
 10
10.0704097713
 20
7.8153948437
 30
0.0
 10
10.0707542373
 20
7.816500241
 30
0.0
 10
10.0712146913
 20
7.8179735378
 30
0.0
 10
10.0717898586
 20
7.8198153531
 30
0.0
 10
10.072480231
 20
7.8220254482
 30
0.0
 10
10.0731705574
 20
7.8242355655
 30
0.0
 10
10.0740910088
 20
7.8271823808
 30
0.0
 10
10.0752415669
 20
7.8308659029
 30
0.0
 10
10.0763921292
 20
7.8345494232
 30
0.0
 10
10.0773125739
 20
7.8374962413
 30
0.0
 10
10.0780029202
 20
7.8397063502
 30
0.0
 10
10.0786932179
 20
7.8419164769
 30
0.0
 10
10.0792686176
 20
7.8437581938
 30
0.0
 10
10.0797285976
 20
7.8452316912
 30
0.0
 10
10.080074511
 20
7.8463364759
 30
0.0
 10
10.0803598193
 20
7.8472582061
 30
0.0
 10
10.0805653298
 20
7.847901305
 30
0.0
 10
10.0806737164
 20
7.8482720883
 30
0.0
 10
10.0807804947
 20
7.8485408847
 30
0.0
 10
10.0807898439
 20
7.848845196
 30
0.0
 10
10.0808362939
 20
7.8492385565
 30
0.0
 10
10.0809017475
 20
7.8499327091
 30
0.0
 10
10.0810035308
 20
7.8509213381
 30
0.0
 10
10.0811221273
 20
7.8521089845
 30
0.0
 10
10.0812814938
 20
7.8536920619
 30
0.0
 10
10.0814802772
 20
7.8556710634
 30
0.0
 10
10.0817189994
 20
7.8580457989
 30
0.0
 10
10.0819576728
 20
7.8604205521
 30
0.0
 10
10.0822759212
 20
7.8635868835
 30
0.0
 10
10.0826737252
 20
7.8675448
 30
0.0
 10
10.0830715336
 20
7.8715027157
 30
0.0
 10
10.083389775
 20
7.8746690483
 30
0.0
 10
10.0836284693
 20
7.877043798
 30
0.0
 10
10.0838671131
 20
7.8794185467
 30
0.0
 10
10.0840661404
 20
7.881397507
 30
0.0
 10
10.0842250094
 20
7.8829806685
 30
0.0
 10
10.0843451253
 20
7.8841680579
 30
0.0
 10
10.0844421551
 20
7.885157491
 30
0.0
 10
10.0845160944
 20
7.8858502082
 30
0.0
 10
10.0845489481
 20
7.8862458686
 30
0.0
 10
10.0846000608
 20
7.8865431151
 30
0.0
 10
10.0845499825
 20
7.8868384459
 30
0.0
 10
10.0845185079
 20
7.8872328886
 30
0.0
 10
10.0844469822
 20
7.8879228519
 30
0.0
 10
10.0843534003
 20
7.8889086765
 30
0.0
 10
10.0842374218
 20
7.8900915964
 30
0.0
 10
10.0840840695
 20
7.8916688473
 30
0.0
 10
10.0838919379
 20
7.8936404025
 30
0.0
 10
10.0836615691
 20
7.8960062723
 30
0.0
 10
10.0834311498
 20
7.8983721412
 30
0.0
 10
10.0831239413
 20
7.9015266334
 30
0.0
 10
10.0827399268
 20
7.9054697487
 30
0.0
 10
10.0822791025
 20
7.910201486
 30
0.0
 10
10.0818951107
 20
7.9141446041
 30
0.0
 10
10.0815878523
 20
7.9172990902
 30
0.0
 10
10.081395964
 20
7.919270663
 30
0.0
 10
10.081242114
 20
7.9208478777
 30
0.0
 10
10.0811276555
 20
7.9220309082
 30
0.0
 10
10.0810293181
 20
7.9230163867
 30
0.0
 10
10.0809662817
 20
7.9237069679
 30
0.0
 10
10.0809212051
 20
7.9241004206
 30
0.0
 10
10.0809129078
 20
7.9243987922
 30
0.0
 10
10.0808070977
 20
7.9246846182
 30
0.0
 10
10.0807000312
 20
7.9250700956
 30
0.0
 10
10.0804968172
 20
7.9257426422
 30
0.0
 10
10.0802147967
 20
7.926704489
 30
0.0
 10
10.0798728258
 20
7.9278582488
 30
0.0
 10
10.0794181032
 20
7.9293967547
 30
0.0
 10
10.0788492759
 20
7.9313198324
 30
0.0
 10
10.0779393893
 20
7.9343967874
 30
0.0
 10
10.0768019492
 20
7.9382429704
 30
0.0
 10
10.0754370584
 20
7.9428583953
 30
0.0
 10
10.0740721493
 20
7.947473816
 30
0.0
 10
10.0729347547
 20
7.9513200096
 30
0.0
 10
10.0720247772
 20
7.9543969434
 30
0.0
 10
10.0714561809
 20
7.9563200749
 30
0.0
 10
10.0710009841
 20
7.9578584705
 30
0.0
 10
10.0706604621
 20
7.9590125673
 30
0.0
 10
10.0703739084
 20
7.9599733598
 30
0.0
 10
10.070178787
 20
7.9606477885
 30
0.0
 10
10.070058754
 20
7.9610302503
 30
0.0
 10
10.0699927726
 20
7.9613253392
 30
0.0
 10
10.0698348856
 20
7.961588921
 30
0.0
 10
10.0696564274
 20
7.9619513535
 30
0.0
 10
10.0693291893
 20
7.9625804899
 30
0.0
 10
10.068869515
 20
7.9634819332
 30
0.0
 10
10.0683145635
 20
7.9645625193
 30
0.0
 10
10.0675757956
 20
7.966003701
 30
0.0
 10
10.066651936
 20
7.9678050411
 30
0.0
 10
10.065173984
 20
7.9706872619
 30
0.0
 10
10.0633264669
 20
7.9742900114
 30
0.0
 10
10.0611094816
 20
7.9786133231
 30
0.0
 10
10.0588924789
 20
7.9829366277
 30
0.0
 10
10.0570450053
 20
7.9865393949
 30
0.0
 10
10.0555669664
 20
7.9894215802
 30
0.0
 10
10.0546433278
 20
7.9912230104
 30
0.0
 10
10.0539041063
 20
7.9926640071
 30
0.0
 10
10.0533505403
 20
7.9937451584
 30
0.0
 10
10.0528865311
 20
7.9946448336
 30
0.0
 10
10.0525670316
 20
7.9952771263
 30
0.0
 10
10.0523761741
 20
7.9956345016
 30
0.0
 10
10.0522563738
 20
7.9959136174
 30
0.0
 10
10.0520473456
 20
7.9961503635
 30
0.0
 10
10.0517997651
 20
7.9964808041
 30
0.0
 10
10.051351998
 20
7.9970521892
 30
0.0
 10
10.0507199121
 20
7.9978720537
 30
0.0
 10
10.049958164
 20
7.9988543501
 30
0.0
 10
10.0489436333
 20
8.0001646169
 30
0.0
 10
10.0476750818
 20
8.0018022661
 30
0.0
 10
10.0456456163
 20
8.0044226079
 30
0.0
 10
10.0431087097
 20
8.0076979993
 30
0.0
 10
10.0400644554
 20
8.0116284862
 30
0.0
 10
10.0370201863
 20
8.0155589619
 30
0.0
 10
10.0344833168
 20
8.0188343811
 30
0.0
 10
10.0324537772
 20
8.0214546674
 30
0.0
 10
10.0311854141
 20
8.0230924577
 30
0.0
 10
10.0301704966
 20
8.0244024348
 30
0.0
 10
10.02940993
 20
8.0253856164
 30
0.0
 10
10.0287741475
 20
8.0262027115
 30
0.0
 10
10.0283329796
 20
8.0267790404
 30
0.0
 10
10.0280748255
 20
8.0271015598
 30
0.0
 10
10.0278982761
 20
8.0273626371
 30
0.0
 10
10.0276564907
 20
8.027550369
 30
0.0
 10
10.0273568652
 20
8.0278262618
 30
0.0
 10
10.0268219186
 20
8.0282971544
 30
0.0
 10
10.026063252
 20
8.0289760899
 30
0.0
 10
10.0251504795
 20
8.0297881451
 30
0.0
 10
10.0239342783
 20
8.030871817
 30
0.0
 10
10.022413743
 20
8.0322260879
 30
0.0
 10
10.0199810451
 20
8.0343930998
 30
0.0
 10
10.0169401181
 20
8.0371018029
 30
0.0
 10
10.0132910304
 20
8.0403522749
 30
0.0
 10
10.0096419311
 20
8.0436027324
 30
0.0
 10
10.006601033
 20
8.046311472
 30
0.0
 10
10.0041682773
 20
8.0484784108
 30
0.0
 10
10.002647889
 20
8.0498328673
 30
0.0
 10
10.0014313859
 20
8.0509161584
 30
0.0
 10
10.0005195355
 20
8.0517293771
 30
0.0
 10
9.9997579842
 20
8.0524046722
 30
0.0
 10
9.9992281873
 20
8.0528820636
 30
0.0
 10
9.9989203107
 20
8.0531475436
 30
0.0
 10
9.99870387
 20
8.0533672605
 30
0.0
 10
9.9984321301
 20
8.0535082075
 30
0.0
 10
9.9980890993
 20
8.0537236126
 30
0.0
 10
9.9974798082
 20
8.0540877701
 30
0.0
 10
9.996614091
 20
8.0546146879
 30
0.0
 10
9.9955732192
 20
8.0552441245
 30
0.0
 10
9.9941860926
 20
8.0560843739
 30
0.0
 10
9.9924519437
 20
8.057134343
 30
0.0
 10
9.9896774401
 20
8.0588144851
 30
0.0
 10
9.9862092642
 20
8.0609145966
 30
0.0
 10
9.9820474739
 20
8.0634347609
 30
0.0
 10
9.9778856746
 20
8.0659549091
 30
0.0
 10
9.9744175212
 20
8.0680550608
 30
0.0
 10
9.9716429727
 20
8.0697351224
 30
0.0
 10
9.9699089379
 20
8.0707852964
 30
0.0
 10
9.9685215772
 20
8.0716251254
 30
0.0
 10
9.9674814206
 20
8.0722558462
 30
0.0
 10
9.9666134657
 20
8.0727787459
 30
0.0
 10
9.9660081693
 20
8.0731500764
 30
0.0
 10
9.965658738
 20
8.0733539886
 30
0.0
 10
9.9654066583
 20
8.0735302382
 30
0.0
 10
9.9651163773
 20
8.0736173644
 30
0.0
 10
9.9647426611
 20
8.0737646199
 30
0.0
 10
9.9640824492
 20
8.0740078329
 30
0.0
 10
9.9631425353
 20
8.0743628526
 30
0.0
 10
9.9620132493
 20
8.0747856349
 30
0.0
 10
9.9605080198
 20
8.0753504767
 30
0.0
 10
9.9586263169
 20
8.0760561414
 30
0.0
 10
9.955615685
 20
8.0771854216
 30
0.0
 10
9.9518523633
 20
8.0785969475
 30
0.0
 10
9.9473363908
 20
8.0802908099
 30
0.0
 10
9.9435730779
 20
8.0817023567
 30
0.0
 10
9.9405624268
 20
8.082831591
 30
0.0
 10
9.9383044422
 20
8.0836785291
 30
0.0
 10
9.9360464432
 20
8.0845254195
 30
0.0
 10
9.9341648221
 20
8.0852313101
 30
0.0
 10
9.932659425
 20
8.0857956898
 30
0.0
 10
9.9315306512
 20
8.0862198838
 30
0.0
 10
9.9305891347
 20
8.0865704866
 30
0.0
 10
9.9299317837
 20
8.0868215845
 30
0.0
 10
9.9295534838
 20
8.0869562064
 30
0.0
 10
9.9292772823
 20
8.0870821392
 30
0.0
 10
9.9289723224
 20
8.0871126375
 30
0.0
 10
9.9285757405
 20
8.0871865906
 30
0.0
 10
9.9278770484
 20
8.0873004986
 30
0.0
 10
9.9268813602
 20
8.0874713331
 30
0.0
 10
9.9256854886
 20
8.0876728636
 30
0.0
 10
9.9240913584
 20
8.0879427834
 30
0.0
 10
9.9220985703
 20
8.0882797672
 30
0.0
 10
9.9197072783
 20
8.088684326
 30
0.0
 10
9.917315972
 20
8.0890888371
 30
0.0
 10
9.9141275685
 20
8.0896282019
 30
0.0
 10
9.9101420625
 20
8.0903024022
 30
0.0
 10
9.905359456
 20
8.091111445
 30
0.0
 10
9.8989826471
 20
8.0921901679
 30
0.0
 10
9.8942000404
 20
8.0929992103
 30
0.0
 10
9.891011636
 20
8.0935385718
 30
0.0
  0
SPLINE
  5
36E
100
AcDbEntity
  8
0
100
AcDbSpline
 62
4
  6
CONTINUOUS
 70
0
 71
3
 72
335
 73
331
 74
0
 42
0.0000001
 43
0.0000001
 44
0.0000000001
 40
0.0
 40
0.0
 40
0.0
 40
0.0
 40
0.015625
 40
0.0234375
 40
0.03125
 40
0.0390625
 40
0.04296875
 40
0.046875
 40
0.05078125
 40
0.0546875
 40
0.056640625
 40
0.05859375
 40
0.060546875
 40
0.0615234375
 40
0.0620117188
 40
0.0625
 40
0.0629882812
 40
0.0634765625
 40
0.064453125
 40
0.06640625
 40
0.068359375
 40
0.0703125
 40
0.07421875
 40
0.078125
 40
0.08203125
 40
0.0859375
 40
0.09375
 40
0.1015625
 40
0.10546875
 40
0.109375
 40
0.11328125
 40
0.1171875
 40
0.119140625
 40
0.12109375
 40
0.123046875
 40
0.1240234375
 40
0.1245117188
 40
0.125
 40
0.1254882812
 40
0.1259765625
 40
0.126953125
 40
0.12890625
 40
0.130859375
 40
0.1328125
 40
0.13671875
 40
0.140625
 40
0.14453125
 40
0.1484375
 40
0.15625
 40
0.1640625
 40
0.16796875
 40
0.171875
 40
0.17578125
 40
0.1796875
 40
0.181640625
 40
0.18359375
 40
0.1845703125
 40
0.185546875
 40
0.1865234375
 40
0.1870117188
 40
0.1875
 40
0.1879882812
 40
0.1884765625
 40
0.189453125
 40
0.1904296875
 40
0.19140625
 40
0.193359375
 40
0.1953125
 40
0.19921875
 40
0.203125
 40
0.20703125
 40
0.2109375
 40
0.21875
 40
0.2265625
 40
0.23046875
 40
0.234375
 40
0.23828125
 40
0.2421875
 40
0.244140625
 40
0.24609375
 40
0.2470703125
 40
0.248046875
 40
0.2490234375
 40
0.2495117188
 40
0.25
 40
0.2504882812
 40
0.2509765625
 40
0.251953125
 40
0.2529296875
 40
0.25390625
 40
0.255859375
 40
0.2578125
 40
0.26171875
 40
0.265625
 40
0.26953125
 40
0.2734375
 40
0.28125
 40
0.2890625
 40
0.29296875
 40
0.296875
 40
0.30078125
 40
0.3046875
 40
0.306640625
 40
0.30859375
 40
0.310546875
 40
0.3115234375
 40
0.3120117188
 40
0.3125
 40
0.3129882812
 40
0.3134765625
 40
0.314453125
 40
0.31640625
 40
0.318359375
 40
0.3203125
 40
0.32421875
 40
0.328125
 40
0.33203125
 40
0.3359375
 40
0.34375
 40
0.3515625
 40
0.35546875
 40
0.359375
 40
0.36328125
 40
0.3671875
 40
0.369140625
 40
0.37109375
 40
0.373046875
 40
0.3740234375
 40
0.3745117188
 40
0.375
 40
0.3754882812
 40
0.3759765625
 40
0.376953125
 40
0.37890625
 40
0.380859375
 40
0.3828125
 40
0.38671875
 40
0.390625
 40
0.39453125
 40
0.3984375
 40
0.40625
 40
0.4140625
 40
0.41796875
 40
0.421875
 40
0.42578125
 40
0.4296875
 40
0.431640625
 40
0.43359375
 40
0.435546875
 40
0.4365234375
 40
0.4370117188
 40
0.4375
 40
0.4379882812
 40
0.4384765625
 40
0.439453125
 40
0.44140625
 40
0.443359375
 40
0.4453125
 40
0.44921875
 40
0.453125
 40
0.45703125
 40
0.4609375
 40
0.46875
 40
0.4765625
 40
0.48046875
 40
0.484375
 40
0.48828125
 40
0.4921875
 40
0.494140625
 40
0.49609375
 40
0.498046875
 40
0.4990234375
 40
0.4995117188
 40
0.5
 40
0.5004882812
 40
0.5009765625
 40
0.501953125
 40
0.50390625
 40
0.505859375
 40
0.5078125
 40
0.51171875
 40
0.515625
 40
0.51953125
 40
0.5234375
 40
0.53125
 40
0.5390625
 40
0.546875
 40
0.55078125
 40
0.5546875
 40
0.556640625
 40
0.55859375
 40
0.560546875
 40
0.5615234375
 40
0.5620117188
 40
0.5625
 40
0.5629882812
 40
0.5634765625
 40
0.564453125
 40
0.56640625
 40
0.568359375
 40
0.5703125
 40
0.57421875
 40
0.578125
 40
0.5859375
 40
0.59375
 40
0.6015625
 40
0.609375
 40
0.61328125
 40
0.6171875
 40
0.619140625
 40
0.62109375
 40
0.623046875
 40
0.6240234375
 40
0.6245117188
 40
0.625
 40
0.6254882812
 40
0.6259765625
 40
0.626953125
 40
0.62890625
 40
0.630859375
 40
0.6328125
 40
0.63671875
 40
0.640625
 40
0.6484375
 40
0.65625
 40
0.6640625
 40
0.671875
 40
0.67578125
 40
0.6796875
 40
0.681640625
 40
0.68359375
 40
0.685546875
 40
0.6865234375
 40
0.6870117188
 40
0.6875
 40
0.6879882812
 40
0.6884765625
 40
0.689453125
 40
0.69140625
 40
0.693359375
 40
0.6953125
 40
0.69921875
 40
0.703125
 40
0.7109375
 40
0.71875
 40
0.7265625
 40
0.734375
 40
0.73828125
 40
0.7421875
 40
0.744140625
 40
0.74609375
 40
0.748046875
 40
0.7490234375
 40
0.7495117188
 40
0.75
 40
0.7504882812
 40
0.7509765625
 40
0.751953125
 40
0.75390625
 40
0.755859375
 40
0.7578125
 40
0.76171875
 40
0.765625
 40
0.7734375
 40
0.78125
 40
0.7890625
 40
0.796875
 40
0.80078125
 40
0.8046875
 40
0.806640625
 40
0.80859375
 40
0.810546875
 40
0.8115234375
 40
0.8120117188
 40
0.8125
 40
0.8129882812
 40
0.8134765625
 40
0.814453125
 40
0.81640625
 40
0.818359375
 40
0.8203125
 40
0.82421875
 40
0.828125
 40
0.8359375
 40
0.84375
 40
0.8515625
 40
0.859375
 40
0.86328125
 40
0.8671875
 40
0.869140625
 40
0.87109375
 40
0.873046875
 40
0.8740234375
 40
0.8745117188
 40
0.875
 40
0.8754882812
 40
0.8759765625
 40
0.876953125
 40
0.87890625
 40
0.880859375
 40
0.8828125
 40
0.88671875
 40
0.890625
 40
0.8984375
 40
0.90625
 40
0.9140625
 40
0.91796875
 40
0.921875
 40
0.92578125
 40
0.9296875
 40
0.931640625
 40
0.93359375
 40
0.935546875
 40
0.9365234375
 40
0.9370117188
 40
0.9375
 40
0.9379882812
 40
0.9384765625
 40
0.939453125
 40
0.94140625
 40
0.943359375
 40
0.9453125
 40
0.94921875
 40
0.953125
 40
0.95703125
 40
0.9609375
 40
0.96875
 40
0.9765625
 40
0.984375
 40
1.0
 40
1.0
 40
1.0
 40
1.0
 10
9.8910116529
 20
8.0935385706
 30
0.0
 10
9.887878466
 20
8.0934486462
 30
0.0
 10
9.8831786856
 20
8.0933137595
 30
0.0
 10
9.8769123118
 20
8.0931339109
 30
0.0
 10
9.8722125315
 20
8.0929990237
 30
0.0
 10
9.8682960475
 20
8.0928866199
 30
0.0
 10
9.8651628613
 20
8.0927966921
 30
0.0
 10
9.8628129691
 20
8.0927292592
 30
0.0
 10
9.8604630865
 20
8.0926617768
 30
0.0
 10
9.858504821
 20
8.0926056955
 30
0.0
 10
9.8569382759
 20
8.0925604857
 30
0.0
 10
9.8557631831
 20
8.0925275202
 30
0.0
 10
9.8547845242
 20
8.092497053
 30
0.0
 10
9.8540983147
 20
8.0924816053
 30
0.0
 10
9.853707988
 20
8.092463598
 30
0.0
 10
9.8534101919
 20
8.092475953
 30
0.0
 10
9.8531317038
 20
8.0923894561
 30
0.0
 10
9.8527536515
 20
8.0923086076
 30
0.0
 10
9.8520951979
 20
8.0921510575
 30
0.0
 10
9.8511529093
 20
8.0919343849
 30
0.0
 10
9.8500228652
 20
8.0916707828
 30
0.0
 10
9.8485158944
 20
8.0913205692
 30
0.0
 10
9.8466322651
 20
8.0908823712
 30
0.0
 10
9.8443718739
 20
8.0903567183
 30
0.0
 10
9.8421114923
 20
8.089831016
 30
0.0
 10
9.8390976468
 20
8.0891300969
 30
0.0
 10
9.8353303414
 20
8.0882539415
 30
0.0
 10
9.8315630346
 20
8.0873777905
 30
0.0
 10
9.8285491911
 20
8.0866768646
 30
0.0
 10
9.8262888035
 20
8.0861511826
 30
0.0
 10
9.8240284349
 20
8.0856254534
 30
0.0
 10
9.8221447354
 20
8.0851874929
 30
0.0
 10
9.8206379078
 20
8.0848367949
 30
0.0
 10
9.8195074263
 20
8.084574672
 30
0.0
 10
9.8185665064
 20
8.0843533713
 30
0.0
 10
9.8179056094
 20
8.0842040833
 30
0.0
 10
9.8175314719
 20
8.0841099969
 30
0.0
 10
9.8172409588
 20
8.0840641625
 30
0.0
 10
9.8169883265
 20
8.0839237957
 30
0.0
 10
9.8166382701
 20
8.083769614
 30
0.0
 10
9.8160318278
 20
8.0834844328
 30
0.0
 10
9.815162263
 20
8.0830850631
 30
0.0
 10
9.8141201629
 20
8.0826023814
 30
0.0
 10
9.8127302149
 20
8.0819600068
 30
0.0
 10
9.810992945
 20
8.0811566265
 30
0.0
 10
9.8089081503
 20
8.0801927467
 30
0.0
 10
9.8068233746
 20
8.0792288197
 30
0.0
 10
9.804043667
 20
8.0779436002
 30
0.0
 10
9.8005690348
 20
8.0763370703
 30
0.0
 10
9.797094402
 20
8.0747305419
 30
0.0
 10
9.7943146953
 20
8.0734453199
 30
0.0
 10
9.7922299169
 20
8.0724814002
 30
0.0
 10
9.790145132
 20
8.071517493
 30
0.0
 10
9.7884078317
 20
8.0707141981
 30
0.0
 10
9.7870179457
 20
8.0700716493
 30
0.0
 10
9.7861493711
 20
8.0696698579
 30
0.0
 10
9.785454273
 20
8.0693488793
 30
0.0
 10
9.7849336021
 20
8.0691069007
 30
0.0
 10
9.7844976335
 20
8.0689092111
 30
0.0
 10
9.7841535152
 20
8.0687421797
 30
0.0
 10
9.7838827023
 20
8.0686411699
 30
0.0
 10
9.7836604576
 20
8.0684475448
 30
0.0
 10
9.7833471658
 20
8.0682217298
 30
0.0
 10
9.7829613718
 20
8.0679283612
 30
0.0
 10
9.7824959275
 20
8.06758107
 30
0.0
 10
9.7818762054
 20
8.0671163557
 30
0.0
 10
9.7811012548
 20
8.0665360309
 30
0.0
 10
9.7798615004
 20
8.0656071937
 30
0.0
 10
9.7783117502
 20
8.0644462562
 30
0.0
 10
9.7764520745
 20
8.0630530844
 30
0.0
 10
9.7745923922
 20
8.0616599252
 30
0.0
 10
9.7721128181
 20
8.0598023751
 30
0.0
 10
9.7690133496
 20
8.0574804392
 30
0.0
 10
9.7659138818
 20
8.0551585023
 30
0.0
 10
9.7634343065
 20
8.0533009538
 30
0.0
 10
9.7615746278
 20
8.0519077899
 30
0.0
 10
9.7597149386
 20
8.0505146355
 30
0.0
 10
9.7581652303
 20
8.0493536439
 30
0.0
 10
9.7569253904
 20
8.048424917
 30
0.0
 10
9.7561506574
 20
8.0478443114
 30
0.0
 10
9.7555304887
 20
8.0473801736
 30
0.0
 10
9.7550664088
 20
8.0470311208
 30
0.0
 10
9.754676346
 20
8.0467432638
 30
0.0
 10
9.7543717634
 20
8.0465062042
 30
0.0
 10
9.7541229213
 20
8.0463469192
 30
0.0
 10
9.7539519658
 20
8.0461169825
 30
0.0
 10
9.7536968183
 20
8.0458350798
 30
0.0
 10
9.7533872185
 20
8.045474234
 30
0.0
 10
9.7530117032
 20
8.0450448434
 30
0.0
 10
9.7525124117
 20
8.0444710567
 30
0.0
 10
9.7518878195
 20
8.0437542567
 30
0.0
 10
9.750888739
 20
8.0426071344
 30
0.0
 10
9.7496397968
 20
8.0411733148
 30
0.0
 10
9.7481411054
 20
8.0394526956
 30
0.0
 10
9.7466424035
 20
8.0377320859
 30
0.0
 10
9.7446441379
 20
8.0354379363
 30
0.0
 10
9.7421463051
 20
8.0325702502
 30
0.0
 10
9.739648471
 20
8.029702565
 30
0.0
 10
9.7376502075
 20
8.0274084139
 30
0.0
 10
9.7361514991
 20
8.0256878087
 30
0.0
 10
9.7346528321
 20
8.0239671729
 30
0.0
 10
9.7334038142
 20
8.0225334047
 30
0.0
 10
9.732404888
 20
8.0213861774
 30
0.0
 10
9.7316549062
 20
8.0205263384
 30
0.0
 10
9.731032425
 20
8.0198079563
 30
0.0
 10
9.730591775
 20
8.0193087185
 30
0.0
 10
9.7303476464
 20
8.0190177723
 30
0.0
 10
9.7301429398
 20
8.0188155281
 30
0.0
 10
9.730020838
 20
8.018552256
 30
0.0
 10
9.7298292221
 20
8.0182225138
 30
0.0
 10
9.7295073191
 20
8.0176355468
 30
0.0
 10
9.729040439
 20
8.0168022078
 30
0.0
 10
9.7284831871
 20
8.0157999815
 30
0.0
 10
9.7277391352
 20
8.0144644551
 30
0.0
 10
9.7268094304
 20
8.0127947811
 30
0.0
 10
9.7256936303
 20
8.0107912863
 30
0.0
 10
9.7245778714
 20
8.008787761
 30
0.0
 10
9.7230901785
 20
8.0061164046
 30
0.0
 10
9.7212305678
 20
8.0027772052
 30
0.0
 10
9.7193709534
 20
7.9994380081
 30
0.0
 10
9.7178832665
 20
7.996766648
 30
0.0
 10
9.7167674894
 20
7.9947631338
 30
0.0
 10
9.7156517581
 20
7.9927595974
 30
0.0
 10
9.7147218391
 20
7.991090053
 30
0.0
 10
9.713978224
 20
7.9897542621
 30
0.0
 10
9.7134196382
 20
7.9887528436
 30
0.0
 10
9.7129569314
 20
7.9879169775
 30
0.0
 10
9.7126275784
 20
7.9873345218
 30
0.0
 10
9.7124478993
 20
7.9869975513
 30
0.0
 10
9.7122891315
 20
7.9867564822
 30
0.0
 10
9.7122221363
 20
7.9864708474
 30
0.0
 10
9.7121007981
 20
7.986105546
 30
0.0
 10
9.711903371
 20
7.9854590258
 30
0.0
 10
9.7116135346
 20
7.9845392121
 30
0.0
 10
9.7112690685
 20
7.9834338148
 30
0.0
 10
9.7108086146
 20
7.981960518
 30
0.0
 10
9.7102334472
 20
7.9801187027
 30
0.0
 10
9.7095430749
 20
7.9779086076
 30
0.0
 10
9.7088527485
 20
7.9756984903
 30
0.0
 10
9.7079322971
 20
7.972751675
 30
0.0
 10
9.706781739
 20
7.9690681529
 30
0.0
 10
9.7056311767
 20
7.9653846326
 30
0.0
 10
9.704710732
 20
7.9624378145
 30
0.0
 10
9.7040203856
 20
7.9602277056
 30
0.0
 10
9.703330088
 20
7.9580175789
 30
0.0
 10
9.7027546883
 20
7.956175862
 30
0.0
 10
9.7022947082
 20
7.9547023646
 30
0.0
 10
9.7019487949
 20
7.9535975799
 30
0.0
 10
9.7016634866
 20
7.9526758497
 30
0.0
 10
9.7014579761
 20
7.9520327508
 30
0.0
 10
9.7013495894
 20
7.9516619675
 30
0.0
 10
9.7012428112
 20
7.9513931711
 30
0.0
 10
9.7012334619
 20
7.9510888598
 30
0.0
 10
9.7011870119
 20
7.9506954993
 30
0.0
 10
9.7011215584
 20
7.9500013467
 30
0.0
 10
9.7010197751
 20
7.9490127177
 30
0.0
 10
9.7009011785
 20
7.9478250713
 30
0.0
 10
9.700741812
 20
7.9462419939
 30
0.0
 10
9.7005430286
 20
7.9442629924
 30
0.0
 10
9.7003043065
 20
7.9418882569
 30
0.0
 10
9.700065633
 20
7.9395135037
 30
0.0
 10
9.6997473847
 20
7.9363471722
 30
0.0
 10
9.6993495807
 20
7.9323892558
 30
0.0
 10
9.6989517723
 20
7.9284313401
 30
0.0
 10
9.6986335309
 20
7.9252650075
 30
0.0
 10
9.6983948366
 20
7.9228902578
 30
0.0
 10
9.6981561928
 20
7.9205155091
 30
0.0
 10
9.6979571654
 20
7.9185365488
 30
0.0
 10
9.6977982964
 20
7.9169533873
 30
0.0
 10
9.6976781805
 20
7.9157659979
 30
0.0
 10
9.6975811508
 20
7.9147765648
 30
0.0
 10
9.6975072114
 20
7.9140838476
 30
0.0
 10
9.6974743577
 20
7.9136881872
 30
0.0
 10
9.697423245
 20
7.9133909407
 30
0.0
 10
9.6974733234
 20
7.9130956099
 30
0.0
 10
9.6975047979
 20
7.9127011672
 30
0.0
 10
9.6975763237
 20
7.9120112039
 30
0.0
 10
9.6976699056
 20
7.9110253793
 30
0.0
 10
9.697785884
 20
7.9098424594
 30
0.0
 10
9.6979392364
 20
7.9082652085
 30
0.0
 10
9.698131368
 20
7.9062936533
 30
0.0
 10
9.6983617368
 20
7.9039277835
 30
0.0
 10
9.6985921561
 20
7.9015619146
 30
0.0
 10
9.6988993645
 20
7.8984074224
 30
0.0
 10
9.699283379
 20
7.8944643071
 30
0.0
 10
9.6997442034
 20
7.8897325698
 30
0.0
 10
9.7001281952
 20
7.8857894517
 30
0.0
 10
9.7004354535
 20
7.8826349656
 30
0.0
 10
9.7006273419
 20
7.8806633928
 30
0.0
 10
9.7007811919
 20
7.8790861781
 30
0.0
 10
9.7008956504
 20
7.8779031476
 30
0.0
 10
9.7009939877
 20
7.8769176691
 30
0.0
 10
9.7010570242
 20
7.8762270879
 30
0.0
 10
9.7011021008
 20
7.8758336352
 30
0.0
 10
9.701110398
 20
7.8755352636
 30
0.0
 10
9.7012162081
 20
7.8752494376
 30
0.0
 10
9.7013232747
 20
7.8748639602
 30
0.0
 10
9.7015264887
 20
7.8741914136
 30
0.0
 10
9.7018085091
 20
7.8732295668
 30
0.0
 10
9.7021504801
 20
7.872075807
 30
0.0
 10
9.7026052026
 20
7.8705373011
 30
0.0
 10
9.7031740299
 20
7.8686142233
 30
0.0
 10
9.7040839165
 20
7.8655372684
 30
0.0
 10
9.7052213566
 20
7.8616910854
 30
0.0
 10
9.7065862475
 20
7.8570756605
 30
0.0
 10
9.7079511565
 20
7.8524602398
 30
0.0
 10
9.7090885512
 20
7.8486140462
 30
0.0
 10
9.7099985287
 20
7.8455371124
 30
0.0
 10
9.7105671249
 20
7.8436139809
 30
0.0
 10
9.7110223217
 20
7.8420755853
 30
0.0
 10
9.7113628438
 20
7.8409214885
 30
0.0
 10
9.7116493975
 20
7.839960696
 30
0.0
 10
9.7118445189
 20
7.8392862673
 30
0.0
 10
9.7119645518
 20
7.8389038055
 30
0.0
 10
9.7120305333
 20
7.8386087166
 30
0.0
 10
9.7121884202
 20
7.8383451348
 30
0.0
 10
9.7123668784
 20
7.8379827023
 30
0.0
 10
9.7126941166
 20
7.8373535659
 30
0.0
 10
9.7131537908
 20
7.8364521226
 30
0.0
 10
9.7137087424
 20
7.8353715365
 30
0.0
 10
9.7144475103
 20
7.8339303547
 30
0.0
 10
9.7153713699
 20
7.8321290147
 30
0.0
 10
9.7168493218
 20
7.8292467939
 30
0.0
 10
9.7186968389
 20
7.8256440444
 30
0.0
 10
9.7209138242
 20
7.8213207327
 30
0.0
 10
9.7231308269
 20
7.8169974281
 30
0.0
 10
9.7249783005
 20
7.8133946609
 30
0.0
 10
9.7264563394
 20
7.8105124756
 30
0.0
 10
9.7273799781
 20
7.8087110454
 30
0.0
 10
9.7281191995
 20
7.8072700486
 30
0.0
 10
9.7286727655
 20
7.8061888974
 30
0.0
 10
9.7291367747
 20
7.8052892222
 30
0.0
 10
9.7294562742
 20
7.8046569295
 30
0.0
 10
9.7296471317
 20
7.8042995542
 30
0.0
 10
9.7297669321
 20
7.8040204384
 30
0.0
 10
9.7299759602
 20
7.8037836923
 30
0.0
 10
9.7302235408
 20
7.8034532517
 30
0.0
 10
9.7306713079
 20
7.8028818666
 30
0.0
 10
9.7313033937
 20
7.8020620021
 30
0.0
 10
9.7320651419
 20
7.8010797057
 30
0.0
 10
9.7330796726
 20
7.7997694389
 30
0.0
 10
9.7343482241
 20
7.7981317897
 30
0.0
 10
9.7363776895
 20
7.7955114479
 30
0.0
 10
9.7389145961
 20
7.7922360565
 30
0.0
 10
9.7419588504
 20
7.7883055696
 30
0.0
 10
9.7450031196
 20
7.7843750939
 30
0.0
 10
9.7475399891
 20
7.7810996747
 30
0.0
 10
9.7495695287
 20
7.7784793884
 30
0.0
 10
9.7508378918
 20
7.7768415981
 30
0.0
 10
9.7518528092
 20
7.775531621
 30
0.0
 10
9.7526133758
 20
7.7745484394
 30
0.0
 10
9.7532491584
 20
7.7737313443
 30
0.0
 10
9.7536903262
 20
7.7731550154
 30
0.0
 10
9.7539484804
 20
7.772832496
 30
0.0
 10
9.7541250297
 20
7.7725714187
 30
0.0
 10
9.7543668152
 20
7.7723836868
 30
0.0
 10
9.7546664407
 20
7.772107794
 30
0.0
 10
9.7552013873
 20
7.7716369014
 30
0.0
 10
9.7559600539
 20
7.7709579659
 30
0.0
 10
9.7568728263
 20
7.7701459107
 30
0.0
 10
9.7580890276
 20
7.7690622388
 30
0.0
 10
9.7596095629
 20
7.7677079679
 30
0.0
 10
9.7620422607
 20
7.765540956
 30
0.0
 10
9.7650831878
 20
7.7628322529
 30
0.0
 10
9.7687322755
 20
7.7595817808
 30
0.0
 10
9.7723813748
 20
7.7563313234
 30
0.0
 10
9.7754222729
 20
7.7536225838
 30
0.0
 10
9.7778550286
 20
7.751455645
 30
0.0
 10
9.7793754169
 20
7.7501011885
 30
0.0
 10
9.7805919199
 20
7.7490178974
 30
0.0
 10
9.7815037704
 20
7.7482046786
 30
0.0
 10
9.7822653217
 20
7.7475293836
 30
0.0
 10
9.7827951186
 20
7.7470519922
 30
0.0
 10
9.7831029952
 20
7.7467865122
 30
0.0
 10
9.7833194359
 20
7.7465667953
 30
0.0
 10
9.7835911757
 20
7.7464258483
 30
0.0
 10
9.7839342066
 20
7.7462104432
 30
0.0
 10
9.7845434976
 20
7.7458462857
 30
0.0
 10
9.7854092149
 20
7.7453193679
 30
0.0
 10
9.7864500867
 20
7.7446899313
 30
0.0
 10
9.7878372133
 20
7.7438496819
 30
0.0
 10
9.7895713621
 20
7.7427997128
 30
0.0
 10
9.7923458658
 20
7.7411195707
 30
0.0
 10
9.7958140417
 20
7.7390194592
 30
0.0
 10
9.7999758319
 20
7.7364992949
 30
0.0
 10
9.8041376312
 20
7.7339791467
 30
0.0
 10
9.8076057847
 20
7.7318789949
 30
0.0
 10
9.8103803332
 20
7.7301989334
 30
0.0
 10
9.8121143679
 20
7.7291487594
 30
0.0
 10
9.8135017287
 20
7.7283089304
 30
0.0
 10
9.8145418853
 20
7.7276782096
 30
0.0
 10
9.8154098402
 20
7.7271553099
 30
0.0
 10
9.8160151366
 20
7.7267839794
 30
0.0
 10
9.8163645679
 20
7.7265800672
 30
0.0
 10
9.8166166476
 20
7.7264038176
 30
0.0
 10
9.8169069285
 20
7.7263166914
 30
0.0
 10
9.8172806448
 20
7.7261694359
 30
0.0
 10
9.8179408566
 20
7.7259262229
 30
0.0
 10
9.8188807705
 20
7.7255712032
 30
0.0
 10
9.8200100566
 20
7.7251484209
 30
0.0
 10
9.821515286
 20
7.7245835791
 30
0.0
 10
9.823396989
 20
7.7238779144
 30
0.0
 10
9.8264076208
 20
7.7227486342
 30
0.0
 10
9.8301709425
 20
7.7213371083
 30
0.0
 10
9.834686915
 20
7.7196432459
 30
0.0
 10
9.838450228
 20
7.7182316991
 30
0.0
 10
9.8414608791
 20
7.7171024648
 30
0.0
 10
9.8437188637
 20
7.7162555267
 30
0.0
 10
9.8459768627
 20
7.7154086363
 30
0.0
 10
9.8478584837
 20
7.7147027457
 30
0.0
 10
9.8493638808
 20
7.714138366
 30
0.0
 10
9.8504926547
 20
7.7137141719
 30
0.0
 10
9.8514341711
 20
7.7133635692
 30
0.0
 10
9.8520915222
 20
7.7131124713
 30
0.0
 10
9.8524698221
 20
7.7129778494
 30
0.0
 10
9.8527460236
 20
7.7128519166
 30
0.0
 10
9.8530509834
 20
7.7128214183
 30
0.0
 10
9.8534475654
 20
7.7127474652
 30
0.0
 10
9.8541462575
 20
7.7126335572
 30
0.0
 10
9.8551419456
 20
7.7124627227
 30
0.0
 10
9.8563378173
 20
7.7122611922
 30
0.0
 10
9.8579319475
 20
7.7119912724
 30
0.0
 10
9.8599247356
 20
7.7116542886
 30
0.0
 10
9.8623160275
 20
7.7112497298
 30
0.0
 10
9.8647073339
 20
7.7108452187
 30
0.0
 10
9.8678957373
 20
7.7103058539
 30
0.0
 10
9.8718812434
 20
7.7096316536
 30
0.0
 10
9.8766638499
 20
7.7088226108
 30
0.0
 10
9.8830406588
 20
7.7077438879
 30
0.0
 10
9.8878232654
 20
7.7069348455
 30
0.0
 10
9.8910116699
 20
7.706395484
 30
0.0
  0
ENDSEC
  0
SECTION
  2
OBJECTS
  0
DICTIONARY
  5
C
100
AcDbDictionary
280
0
281
1
  3
ACAD_GROUP
350
D
  3
ACAD_MLINESTYLE
350
17
  3
ACAD_LAYOUT
350
1A
  3
ACAD_PLOTSETTINGS
350
19
  3
ACAD_PLOTSTYLENAME
350
E
  3
ACAD_IMAGE_DICT
350
       370
  3
ACAD_IMAGE_VARS
350
       371
  3
ACAD_TABLESTYLE
350
       372
  0
IMAGEDEF_REACTOR
  5
36F
100
AcDbRasterImageDefReactor
 90
2
330
287
  0
DICTIONARY
  5
D
102
{ACAD_REACTORS
330
C
102
}
100
AcDbDictionary
280
0
281
1
  0
ACDBDICTIONARYWDFLT
  5
E
102
{ACAD_REACTORS
330
C
102
}
100
AcDbDictionary
281
1
  3
Normal
350
F
100
AcDbDictionaryWithDefault
340
F
  0
DICTIONARY
  5
370
330
C
100
AcDbDictionary
281
1
  3
FSDAXAN-NMV_assy_2_img_1
350
       375
  0
RASTERVARIABLES
  5
371
330
C
100
AcDbRasterVariables
 90
0
 70
0
 71
1
 72
5
  0
DICTIONARY
  5
17
102
{ACAD_REACTORS
330
C
102
}
100
AcDbDictionary
280
0
281
1
  3
Standard
350
18
  0
DICTIONARY
  5
372
330
C
100
AcDbDictionary
281
1
  3
Standard
350
       376
  3
Standard1
350
       377
  0
DICTIONARY
  5
19
102
{ACAD_REACTORS
330
C
102
}
100
AcDbDictionary
281
1
  0
DICTIONARY
  5
1A
102
{ACAD_REACTORS
330
C
102
}
100
AcDbDictionary
281
1
  3
Model
350
373
  3
Layout1
350
374
  0
ACDBPLACEHOLDER
  5
F
102
{ACAD_REACTORS
330
E
102
}
  0
MLINESTYLE
  5
18
102
{ACAD_REACTORS
330
17
102
}
100
AcDbMlineStyle
  2
STANDARD
 70
0
  3

 62
256
 51
90.0
 52
90.0
 71
2
 49
0.5
 62
256
  6
BYLAYER
 49
-0.5
 62
256
  6
BYLAYER
  0
LAYOUT
  5
373
102
{ACAD_REACTORS
330
1A
102
}
100
AcDbPlotSettings
  1

  2
none_device
  4
ANSI_C_(22.00_x_17.00_Inches)
  6

 40
0.0
 41
0.0
 42
0.0
 43
0.0
 44
558.8
 45
431.8
 46
0.0
 47
0.0
 48
0.0
 49
0.0
140
0.0
141
0.0
142
1.0
143
1.0
 70
1024
 72
0
 73
0
 74
0
  7

 75
0
147
1.0
148
0.0
149
0.0
100
AcDbLayout
  1
Model
 70
0
 71
0
 10
0.0
 20
0.0
 11
22.0
 21
17.0
 12
0.0
 22
0.0
 32
0.0
 14
0.0
 24
0.0
 34
0.0
 15
0.0
 25
0.0
 35
0.0
146
0.0
 13
0.0
 23
0.0
 33
0.0
 16
1.0
 26
0.0
 36
0.0
 17
0.0
 27
1.0
 37
0.0
 76
0
330
20C
345
0
346
0
  0
LAYOUT
  5
374
102
{ACAD_REACTORS
330
1A
102
}
100
AcDbPlotSettings
  1

  2
none_device
  4
ANSI_C_(22.00_x_17.00_Inches)
  6

 40
0.0
 41
0.0
 42
0.0
 43
0.0
 44
558.8
 45
431.8
 46
0.0
 47
0.0
 48
0.0
 49
0.0
140
0.0
141
0.0
142
1.0
143
1.0
 70
0
 72
0
 73
0
 74
0
  7

 75
0
147
1.0
148
0.0
149
0.0
100
AcDbLayout
  1
Layout1
 70
0
 71
1
 10
0.0
 20
0.0
 11
22.0
 21
17.0
 12
0.0
 22
0.0
 32
0.0
 14
0.0
 24
0.0
 34
0.0
 15
0.0
 25
0.0
 35
0.0
146
0.0
 13
0.0
 23
0.0
 33
0.0
 16
1.0
 26
0.0
 36
0.0
 17
0.0
 27
1.0
 37
0.0
 76
0
330
20D
345
0
346
0
  0
IMAGEDEF
  5
375
102
{ACAD_REACTORS
330
370
330
36F
102
}
100
AcDbRasterImageDef
 90
0
  1
FSDAXAN-NMV_assy_2_img_1.png
 10
369.0
 20
92.0
 11
0.0066666667
 21
0.0066666667
280
1
281
0
  0
TABLESTYLE
  5
376
102
{ACAD_REACTORS
330
372
330
28A
330
28B
102
}
330
372
100
AcDbTableStyle
  3
Standard
 70
0
 71
0
 40
0.06
 41
0.06
280
1
281
1
  7
Standard
140
0.18
170
1
 62
0
 63
7
283
0
  7
Standard
140
0.18
170
1
 62
0
 63
7
283
0
  7
Standard
140
0.18
170
1
 62
0
 63
7
283
0
  0
TABLESTYLE
  5
377
102
{ACAD_REACTORS
330
372
330
289
102
}
330
372
100
AcDbTableStyle
  3
Standard1
 70
1
 71
0
 40
0.06
 41
0.06
280
1
281
1
  7
Standard
140
0.18
170
1
 62
0
 63
7
283
0
  7
Standard
140
0.18
170
1
 62
0
 63
7
283
0
  7
Standard
140
0.18
170
1
 62
0
 63
7
283
0
  0
ENDSEC
  0
EOF
