999
DXF file: CBGGLJN-HCX_assy_2.dxf
999
Pro/ENGINEER 2014200 by Parametric Technology Corporation
  0
SECTION
  2
HEADER
  9
$ACADVER
  1
AC1021
  9
$DWGCODEPAGE
  3
ANSI_1252
  9
$EXTMAX
 10
22.0
 20
17.0
 30
0.0
  9
$EXTMIN
 10
0.0
 20
0.0
 30
0.0
  9
$LIMMIN
 10
0.0
 20
0.0
  9
$LIMMAX
 10
22.0
 20
17.0
  9
$VIEWCTR
 10
11.0
 20
8.5
  9
$VIEWSIZE
 40
17.0
  9
$CLAYER
  8
0
  9
$LTSCALE
 40
1.21
  9
$CELTYPE
  6
BYLAYER
  9
$DIMSCALE
 40
1.0
  9
$DIMASZ
 40
0.1875
  9
$DIMEXO
 40
0.0625
  9
$DIMDLI
 40
0.836
  9
$DIMEXE
 40
0.125
  9
$DIMCEN
 40
0.198
  9
$DIMLFAC
 40
1.0
  9
$DIMBLK
  1
_FILLED
  9
$DIMTXT
 40
0.1
  9
$DIMTOL
 70
0
  9
$DIMLIM
 70
0
  9
$DIMTFAC
 40
1.0
  9
$DIMGAP
 40
0.09
  9
$DIMDSEP
 70
46
  9
$AUNITS
 70
0
  9
$PDMODE
 70
3
  9
$PDSIZE
 40
0.3125
  9
$HANDSEED
  5
3B1
  9
$TILEMODE
 70
1
  9
$MEASUREMENT
 70
0
  9
$INSUNITS
 70
1
  0
ENDSEC
  0
SECTION
  2
CLASSES
  0
CLASS
  1
ACDBDICTIONARYWDFLT
  2
AcDbDictionaryWithDefault
  3
AutoCAD 2000
 90
0
 91
1
280
0
281
0
  0
CLASS
  1
ACDBPLACEHOLDER
  2
AcDbPlaceHolder
  3
AutoCAD 2000
 90
0
 91
1
280
0
281
0
  0
CLASS
  1
LAYOUT
  2
AcDbLayout
  3
AutoCAD 2000
 90
0
 91
0
280
0
281
0
  0
CLASS
  1
RASTERVARIABLES
  2
AcDbRasterVariables
  3
ISM
 90
0
 91
1
280
0
281
0
  0
CLASS
  1
IMAGEDEF
  2
AcDbRasterImageDef
  3
ISM
 90
0
 91
1
280
0
281
0
  0
CLASS
  1
IMAGEDEF_REACTOR
  2
AcDbRasterImageDefReactor
  3
ISM
 90
0
 91
1
280
0
281
0
  0
CLASS
  1
IMAGE
  2
AcDbRasterImage
  3
ISM
 90
127
 91
1
280
0
281
1
  0
CLASS
  1
TABLESTYLE
  2
AcDbTableStyle
  3
ObjectDBX Classes
 90
2047
 91
1
280
0
281
0
  0
CLASS
  1
ACAD_TABLE
  2
AcDbTable
  3
ObjectDBX Classes
 90
1025
 91
3
280
0
281
1
  0
ENDSEC
  0
SECTION
  2
TABLES
  0
TABLE
  2
VPORT
  5
8
100
AcDbSymbolTable
 70
2
  0
VPORT
  5
1F4
100
AcDbSymbolTableRecord
100
AcDbViewportTableRecord
  2
*ACTIVE
 70
0
 10
0.0
 20
0.0
 11
1.0
 21
1.0
 12
11.0
 22
8.5
 13
0.0
 23
0.0
 14
1.0
 24
1.0
 15
0.0
 25
0.0
 16
0.0
 26
0.0
 36
1.0
 17
0.0
 27
0.0
 37
0.0
 40
17.0
 41
1.2941176471
 42
50.0
 43
0.0
 44
0.0
 50
0.0
 51
0.0
 71
0
 72
100
 73
1
 74
1
 75
0
 76
0
 77
0
 78
0
  0
ENDTAB
  0
TABLE
  2
LTYPE
  5
5
100
AcDbSymbolTable
 70
6
  0
LTYPE
  5
14
100
AcDbSymbolTableRecord
100
AcDbLinetypeTableRecord
  2
BYBLOCK
 70
0
  3

 72
65
 73
0
 40
0.0
  0
LTYPE
  5
15
100
AcDbSymbolTableRecord
100
AcDbLinetypeTableRecord
  2
BYLAYER
 70
0
  3

 72
65
 73
0
 40
0.0
  0
LTYPE
  5
16
100
AcDbSymbolTableRecord
100
AcDbLinetypeTableRecord
  2
CONTINUOUS
 70
64
  3
Solid line
 72
65
 73
0
 40
0.0
  0
LTYPE
  5
1F5
100
AcDbSymbolTableRecord
100
AcDbLinetypeTableRecord
  2
CENTER
 70
64
  3
____ _ ____ _ ____ _ ____ _ ____ _ ____ _ ____
 72
65
 73
4
 40
0.6
 49
0.375
 74
0
 49
-0.075
 74
0
 49
0.075
 74
0
 49
-0.075
 74
0
  0
LTYPE
  5
1F6
100
AcDbSymbolTableRecord
100
AcDbLinetypeTableRecord
  2
HIDDEN
 70
64
  3
- - - - - - - - - - - - - - - - - - - -
 72
65
 73
2
 40
0.2
 49
0.1
 74
0
 49
-0.1
 74
0
  0
LTYPE
  5
1F7
100
AcDbSymbolTableRecord
100
AcDbLinetypeTableRecord
  2
PHANTOM
 70
64
  3
_____ _ _ _____ _ _ _____ _ _ _____
 72
65
 73
6
 40
0.8
 49
0.45
 74
0
 49
-0.05
 74
0
 49
0.1
 74
0
 49
-0.05
 74
0
 49
0.1
 74
0
 49
-0.05
 74
0
  0
LTYPE
  5
1F8
100
AcDbSymbolTableRecord
100
AcDbLinetypeTableRecord
  2
DOT
 70
64
  3
. . . . . . . . . . . . . . . . . . . .
 72
65
 73
2
 40
0.2
 49
0.1
 74
0
 49
-0.1
 74
0
  0
LTYPE
  5
1F9
100
AcDbSymbolTableRecord
100
AcDbLinetypeTableRecord
  2
DASHED
 70
64
  3
- - - - - - - - - - - - - - - - - - - -
 72
65
 73
2
 40
0.2
 49
0.1
 74
0
 49
-0.1
 74
0
  0
ENDTAB
  0
TABLE
  2
LAYER
  5
2
100
AcDbSymbolTable
 70
36
  0
LAYER
  5
10
100
AcDbSymbolTableRecord
100
AcDbLayerTableRecord
  2
0
 70
0
 62
7
  6
CONTINUOUS
370
-3
390
F
  0
LAYER
  5
1FA
100
AcDbSymbolTableRecord
100
AcDbLayerTableRecord
  2
DEFAULT_1
 70
0
 62
7
  6
CENTER
370
-3
390
F
  0
LAYER
  5
1FB
100
AcDbSymbolTableRecord
100
AcDbLayerTableRecord
  2
DEFAULT_2
 70
0
 62
8
  6
HIDDEN
370
-3
390
F
  0
LAYER
  5
1FC
100
AcDbSymbolTableRecord
100
AcDbLayerTableRecord
  2
DEFAULT_3
 70
0
 62
7
  6
PHANTOM
370
-3
390
F
  0
LAYER
  5
1FD
100
AcDbSymbolTableRecord
100
AcDbLayerTableRecord
  2
01___PRT_ALL_DTM_PLN
 70
0
 62
7
  6
CONTINUOUS
370
-3
390
F
  0
LAYER
  5
1FE
100
AcDbSymbolTableRecord
100
AcDbLayerTableRecord
  2
01___PRT_DEF_DTM_PLN
 70
0
 62
7
  6
CONTINUOUS
370
-3
390
F
  0
LAYER
  5
1FF
100
AcDbSymbolTableRecord
100
AcDbLayerTableRecord
  2
02___PRT_ALL_AXES
 70
0
 62
7
  6
CONTINUOUS
370
-3
390
F
  0
LAYER
  5
200
100
AcDbSymbolTableRecord
100
AcDbLayerTableRecord
  2
03___PRT_ALL_CURVES
 70
0
 62
7
  6
CONTINUOUS
370
-3
390
F
  0
LAYER
  5
201
100
AcDbSymbolTableRecord
100
AcDbLayerTableRecord
  2
04___PRT_ALL_DTM_PNT
 70
0
 62
7
  6
CONTINUOUS
370
-3
390
F
  0
LAYER
  5
202
100
AcDbSymbolTableRecord
100
AcDbLayerTableRecord
  2
05___PRT_ALL_DTM_CSYS
 70
0
 62
7
  6
CONTINUOUS
370
-3
390
F
  0
LAYER
  5
203
100
AcDbSymbolTableRecord
100
AcDbLayerTableRecord
  2
05___PRT_DEF_DTM_CSYS
 70
0
 62
7
  6
CONTINUOUS
370
-3
390
F
  0
LAYER
  5
204
100
AcDbSymbolTableRecord
100
AcDbLayerTableRecord
  2
06___PRT_ALL_SURFS
 70
0
 62
7
  6
CONTINUOUS
370
-3
390
F
  0
LAYER
  5
205
100
AcDbSymbolTableRecord
100
AcDbLayerTableRecord
  2
DATUM_PLANES
 70
0
 62
7
  6
CONTINUOUS
370
-3
390
F
  0
LAYER
  5
206
100
AcDbSymbolTableRecord
100
AcDbLayerTableRecord
  2
PORT_AREAS
 70
0
 62
7
  6
CONTINUOUS
370
-3
390
F
  0
LAYER
  5
207
100
AcDbSymbolTableRecord
100
AcDbLayerTableRecord
  2
SUNNBOMCOSMETIC
 70
0
 62
7
  6
CONTINUOUS
370
-3
390
F
  0
LAYER
  5
208
100
AcDbSymbolTableRecord
100
AcDbLayerTableRecord
  2
SUNNBOMSTAMPING
 70
0
 62
7
  6
CONTINUOUS
370
-3
390
F
  0
LAYER
  5
209
100
AcDbSymbolTableRecord
100
AcDbLayerTableRecord
  2
THREADS
 70
0
 62
7
  6
CONTINUOUS
370
-3
390
F
  0
ENDTAB
  0
TABLE
  2
STYLE
  5
3
100
AcDbSymbolTable
 70
1
  0
STYLE
  5
11
100
AcDbSymbolTableRecord
100
AcDbTextStyleTableRecord
  2
STANDARD
 70
0
 40
0.0
 41
0.8
 50
0.0
 71
0
 42
0.2
  3
txt
  4

  0
STYLE
  5
20A
100
AcDbSymbolTableRecord
100
AcDbTextStyleTableRecord
  2
TEXTSTYLE_1
 70
0
 40
0.0
 41
0.8
 50
0.0
 71
0
 42
0.2
  3
gdt
  4

  0
ENDTAB
  0
TABLE
  2
VIEW
  5
6
100
AcDbSymbolTable
 70
0
  0
ENDTAB
  0
TABLE
  2
UCS
  5
7
100
AcDbSymbolTable
 70
0
  0
ENDTAB
  0
TABLE
  2
APPID
  5
9
100
AcDbSymbolTable
 70
1
  0
APPID
  5
20B
100
AcDbSymbolTableRecord
100
AcDbRegAppTableRecord
  2
ACAD
 70
0
  0
ENDTAB
  0
TABLE
  2
BLOCK_RECORD
  5
1
100
AcDbSymbolTable
 70
0
  0
BLOCK_RECORD
  5
20C
100
AcDbSymbolTableRecord
100
AcDbBlockTableRecord
  2
*Model_Space
  0
BLOCK_RECORD
  5
20D
100
AcDbSymbolTableRecord
100
AcDbBlockTableRecord
  2
*Paper_Space
  0
BLOCK_RECORD
  5
20E
100
AcDbSymbolTableRecord
100
AcDbBlockTableRecord
  2
SUN_FIRST_THIRD_ANGLE_BL0
  0
BLOCK_RECORD
  5
20F
100
AcDbSymbolTableRecord
100
AcDbBlockTableRecord
  2
*T1
  0
BLOCK_RECORD
  5
210
100
AcDbSymbolTableRecord
100
AcDbBlockTableRecord
  2
*T2
  0
BLOCK_RECORD
  5
211
100
AcDbSymbolTableRecord
100
AcDbBlockTableRecord
  2
*T3
  0
ENDTAB
  0
TABLE
  2
DIMSTYLE
  5
A
100
AcDbSymbolTable
 70
1
100
AcDbDimStyleTable
 71
0
  0
DIMSTYLE
105
212
100
AcDbSymbolTableRecord
100
AcDbDimStyleTableRecord
  2
STANDARD
 70
0
  3

  4

 40
1.0
 41
0.1875
 42
0.0625
 43
0.38
 44
0.125
 45
0.0
 46
0.0
 47
0.001
 48
0.001
140
0.1
141
0.09
142
0.0
143
25.4
144
1.0
145
0.0
146
1.0
147
0.09
 71
0.0
 72
0.0
 73
1
 74
1
 75
0
 76
0
 77
0
 78
4
170
0
171
2
172
0
173
0
174
0
175
0
176
0
177
0
178
0
270
2
271
3
272
3
273
2
274
2
275
0
280
0
281
0
282
0
283
1
284
4
285
0
286
0
287
3
288
0
340
11
278
46
  0
ENDTAB
  0
ENDSEC
  0
SECTION
  2
BLOCKS
  0
BLOCK
  5
20
100
AcDbEntity
  8
0
100
AcDbBlockBegin
  2
*Model_Space
 70
0
 10
0.0
 20
0.0
 30
0.0
  3
*Model_Space
  1

  0
ENDBLK
  5
21
100
AcDbEntity
  8
0
100
AcDbBlockEnd
  0
BLOCK
  5
1C
100
AcDbEntity
  8
0
100
AcDbBlockBegin
  2
*Paper_Space
 70
0
 10
0.0
 20
0.0
 30
0.0
  3
*Paper_Space
  1

  0
ENDBLK
  5
1D
100
AcDbEntity
  8
0
100
AcDbBlockEnd
  0
BLOCK
  5
213
100
AcDbEntity
  8
0
100
AcDbBlockBegin
 62
2
  6
CONTINUOUS
  2
SUN_FIRST_THIRD_ANGLE_BL0
 70
64
 10
20.4816717061
 20
1.2289683772
  3
SUN_FIRST_THIRD_ANGLE_BL0
  1

  0
TEXT
  5
214
100
AcDbEntity
  8
0
100
AcDbText
 62
2
  6
CONTINUOUS
 10
19.4750896608
 20
1.4136269581
  7
STANDARD
 40
0.08
  1
FIRST ANGLE
 41
0.8
 72
0
100
AcDbText
  0
TEXT
  5
215
100
AcDbEntity
  8
0
100
AcDbText
 62
2
  6
CONTINUOUS
 10
20.7842537513
 20
1.4047600029
  7
STANDARD
 40
0.08
  1
THIRD ANGLE
 41
0.8
 72
0
100
AcDbText
  0
LINE
  5
216
100
AcDbEntity
  8
0
100
AcDbLine
 62
7
  6
CONTINUOUS
 10
19.4767170086
 20
1.1727031207
 11
19.6334271527
 21
1.1717972817
  0
LINE
  5
217
100
AcDbEntity
  8
0
100
AcDbLine
 62
7
  6
CONTINUOUS
 10
19.6596964832
 20
1.1717972817
 11
19.6950230232
 21
1.171593082
  0
LINE
  5
218
100
AcDbEntity
  8
0
100
AcDbLine
 62
7
  6
CONTINUOUS
 10
19.7194818561
 20
1.1708914427
 11
19.8852396156
 21
1.1699333054
  0
LINE
  5
219
100
AcDbEntity
  8
0
100
AcDbLine
 62
7
  6
CONTINUOUS
 10
19.4758111696
 20
1.2723454088
 11
19.88525039
 21
1.3511534004
  0
LINE
  5
21A
100
AcDbEntity
  8
0
100
AcDbLine
 62
7
  6
CONTINUOUS
 10
19.88525039
 20
1.3511534004
 11
19.8831348489
 21
0.9851647912
  0
LINE
  5
21B
100
AcDbEntity
  8
0
100
AcDbLine
 62
7
  6
CONTINUOUS
 10
19.8831348489
 20
0.9851647912
 11
19.4767170086
 21
1.0658141206
  0
LINE
  5
21C
100
AcDbEntity
  8
0
100
AcDbLine
 62
7
  6
CONTINUOUS
 10
19.4767170086
 20
1.0658141206
 11
19.4779056764
 21
1.2714536432
  0
CIRCLE
  5
21D
100
AcDbEntity
  8
0
100
AcDbCircle
 62
7
  6
CONTINUOUS
 10
20.2068232291
 20
1.1717972817
 40
0.175742101
  0
CIRCLE
  5
21E
100
AcDbEntity
  8
0
100
AcDbCircle
 62
7
  6
CONTINUOUS
 10
20.2068232291
 20
1.1717972817
 40
0.1005522074
  0
LINE
  5
21F
100
AcDbEntity
  8
0
100
AcDbLine
 62
7
  6
CONTINUOUS
 10
20.2077290681
 20
1.3756110529
 11
20.2071171714
 21
1.2379342989
  0
LINE
  5
220
100
AcDbEntity
  8
0
100
AcDbLine
 62
7
  6
CONTINUOUS
 10
20.2077290681
 20
1.2016899681
 11
20.2074674401
 21
1.1428236749
  0
LINE
  5
221
100
AcDbEntity
  8
0
100
AcDbLine
 62
7
  6
CONTINUOUS
 10
20.208634907
 20
1.101141841
 11
20.2080230104
 21
0.963465087
  0
LINE
  5
222
100
AcDbEntity
  8
0
100
AcDbLine
 62
7
  6
CONTINUOUS
 10
20.0066328138
 20
1.1745147986
 11
20.1443095678
 21
1.1739029019
  0
LINE
  5
223
100
AcDbEntity
  8
0
100
AcDbLine
 62
7
  6
CONTINUOUS
 10
20.1832714155
 20
1.1727031207
 11
20.238153505
 21
1.172335442
  0
LINE
  5
224
100
AcDbEntity
  8
0
100
AcDbLine
 62
7
  6
CONTINUOUS
 10
20.2756669918
 20
1.1717972817
 11
20.407916871
 21
1.1712095044
  0
CIRCLE
  5
225
100
AcDbEntity
  8
0
100
AcDbCircle
 62
7
  6
CONTINUOUS
 10
20.7509457401
 20
1.1693297793
 40
0.1722024983
  0
CIRCLE
  5
226
100
AcDbEntity
  8
0
100
AcDbCircle
 62
7
  6
CONTINUOUS
 10
20.7509457401
 20
1.1693297793
 40
0.0985164967
  0
LINE
  5
227
100
AcDbEntity
  8
0
100
AcDbLine
 62
7
  6
CONTINUOUS
 10
20.7169767782
 20
1.170462078
 11
20.7825395137
 21
1.1682766535
  0
LINE
  5
228
100
AcDbEntity
  8
0
100
AcDbLine
 62
7
  6
CONTINUOUS
 10
20.8177513651
 20
1.1693297793
 11
20.947965719
 21
1.1693297793
  0
LINE
  5
229
100
AcDbEntity
  8
0
100
AcDbLine
 62
7
  6
CONTINUOUS
 10
20.6875370113
 20
1.170462078
 11
20.5573226574
 21
1.170462078
  0
LINE
  5
22A
100
AcDbEntity
  8
0
100
AcDbLine
 62
7
  6
CONTINUOUS
 10
20.7486811426
 20
1.1987695462
 11
20.7486811426
 21
1.1432869085
  0
LINE
  5
22B
100
AcDbEntity
  8
0
100
AcDbLine
 62
7
  6
CONTINUOUS
 10
20.7498134414
 20
1.1059210505
 11
20.7498134414
 21
0.9757066966
  0
LINE
  5
22C
100
AcDbEntity
  8
0
100
AcDbLine
 62
7
  6
CONTINUOUS
 10
20.7486811426
 20
1.2338708068
 11
20.7486811426
 21
1.3640851607
  0
LINE
  5
22D
100
AcDbEntity
  8
0
100
AcDbLine
 62
7
  6
CONTINUOUS
 10
21.0702539817
 20
1.2701043662
 11
21.4790138229
 21
1.3448360823
  0
LINE
  5
22E
100
AcDbEntity
  8
0
100
AcDbLine
 62
7
  6
CONTINUOUS
 10
21.4790138229
 20
1.3448360823
 11
21.4790138229
 21
0.9779712941
  0
LINE
  5
22F
100
AcDbEntity
  8
0
100
AcDbLine
 62
7
  6
CONTINUOUS
 10
21.4790138229
 20
0.9779712941
 11
21.069121683
 21
1.0617614
  0
LINE
  5
230
100
AcDbEntity
  8
0
100
AcDbLine
 62
7
  6
CONTINUOUS
 10
21.0702539817
 20
1.2701043662
 11
21.069121683
 21
1.0617614
  0
LINE
  5
231
100
AcDbEntity
  8
0
100
AcDbLine
 62
7
  6
CONTINUOUS
 10
21.4790138229
 20
1.1693297793
 11
21.3159628059
 21
1.1693297793
  0
LINE
  5
232
100
AcDbEntity
  8
0
100
AcDbLine
 62
7
  6
CONTINUOUS
 10
21.2876553377
 20
1.1693297793
 11
21.2502894796
 21
1.1693297793
  0
LINE
  5
233
100
AcDbEntity
  8
0
100
AcDbLine
 62
7
  6
CONTINUOUS
 10
21.2208497126
 20
1.1659328831
 11
21.0713862804
 21
1.1659328831
  0
LINE
  5
234
100
AcDbEntity
  8
0
100
AcDbLine
 62
7
  6
CONTINUOUS
 10
20.4796138713
 20
1.5284908897
 11
20.4766766948
 21
0.9294458646
  0
ENDBLK
  5
235
100
AcDbEntity
  8
0
  6
BYBLOCK
 62
0
100
AcDbBlockEnd
  0
BLOCK
  5
236
100
AcDbEntity
  8
0
100
AcDbBlockBegin
  2
*T1
 70
1
 10
0.0
 20
0.0
  3
*T1
  1

  0
LINE
  5
237
100
AcDbEntity
  8
0
100
AcDbLine
 62
2
  6
CONTINUOUS
 10
9.275
 20
0.0
 11
-0.0
 21
0.0
  0
LINE
  5
238
100
AcDbEntity
  8
0
100
AcDbLine
 62
2
  6
CONTINUOUS
 10
9.275
 20
0.0
 11
9.275
 21
1.25
  0
LINE
  5
239
100
AcDbEntity
  8
0
100
AcDbLine
 62
2
  6
CONTINUOUS
 10
9.275
 20
0.625
 11
-0.0
 21
0.625
  0
LINE
  5
23A
100
AcDbEntity
  8
0
100
AcDbLine
 62
2
  6
CONTINUOUS
 10
9.275
 20
1.25
 11
-0.0
 21
1.25
  0
LINE
  5
23B
100
AcDbEntity
  8
0
100
AcDbLine
 62
2
  6
CONTINUOUS
 10
6.8
 20
0.0
 11
6.8
 21
1.25
  0
LINE
  5
23C
100
AcDbEntity
  8
0
100
AcDbLine
 62
2
  6
CONTINUOUS
 10
6.4
 20
0.0
 11
6.4
 21
0.625
  0
LINE
  5
23D
100
AcDbEntity
  8
0
100
AcDbLine
 62
2
  6
CONTINUOUS
 10
5.9
 20
0.0
 11
5.9
 21
0.625
  0
LINE
  5
23E
100
AcDbEntity
  8
0
100
AcDbLine
 62
2
  6
CONTINUOUS
 10
5.2
 20
0.0
 11
5.2
 21
0.625
  0
LINE
  5
23F
100
AcDbEntity
  8
0
100
AcDbLine
 62
2
  6
CONTINUOUS
 10
4.1
 20
0.0
 11
4.1
 21
1.25
  0
LINE
  5
240
100
AcDbEntity
  8
0
100
AcDbLine
 62
2
  6
CONTINUOUS
 10
-0.0
 20
0.0
 11
-0.0
 21
1.25
  0
MTEXT
  5
241
100
AcDbEntity
  8
0
100
AcDbMText
 62
2
  6
CONTINUOUS
  7
STANDARD
 71
2
 72
1
 10
6.6
 20
0.325
 30
0.0
 11
1.0
 21
0.0
 31
0.0
 44
0.9
  1
2
 40
0.125
 41
0.2
  0
MTEXT
  5
242
100
AcDbEntity
  8
0
100
AcDbMText
 62
2
  6
CONTINUOUS
  7
STANDARD
 71
2
 72
1
 10
6.15
 20
0.325
 30
0.0
 11
1.0
 21
0.0
 31
0.0
 44
0.9
  1
C
 40
0.125
 41
0.2
  0
MTEXT
  5
243
100
AcDbEntity
  8
0
100
AcDbMText
 62
2
  6
CONTINUOUS
  7
STANDARD
 71
2
 72
1
 10
5.55
 20
0.325
 30
0.0
 11
1.0
 21
0.0
 31
0.0
 44
0.9
  1
1.000
 40
0.125
 41
1.0
  0
MTEXT
  5
244
100
AcDbEntity
  8
0
100
AcDbMText
 62
2
  6
CONTINUOUS
  7
STANDARD
 71
2
 72
1
 10
4.65
 20
0.325
 30
0.0
 11
1.0
 21
0.0
 31
0.0
 44
0.9
  1
Jul-27-23
 40
0.125
 41
1.8
  0
MTEXT
  5
245
100
AcDbEntity
  8
0
100
AcDbMText
 62
2
  6
CONTINUOUS
  7
STANDARD
 71
2
 72
1
 10
2.05
 20
0.4625
 30
0.0
 11
1.0
 21
0.0
 31
0.0
 44
0.9
  1
Counterbalance manifold assembly
 40
0.125
 41
6.4
  0
MTEXT
  5
246
100
AcDbEntity
  8
0
100
AcDbMText
 62
2
  6
CONTINUOUS
  7
STANDARD
 71
1
 72
1
 10
6.45
 20
0.5625
 30
0.0
 11
1.0
 21
0.0
 31
0.0
 44
0.9
  1
SHEET
 40
0.06
 41
0.48
  0
MTEXT
  5
247
100
AcDbEntity
  8
0
100
AcDbMText
 62
2
  6
CONTINUOUS
  7
STANDARD
 71
1
 72
1
 10
5.95
 20
0.5625
 30
0.0
 11
1.0
 21
0.0
 31
0.0
 44
0.9
  1
DWG SIZE
 40
0.06
 41
0.768
  0
MTEXT
  5
248
100
AcDbEntity
  8
0
100
AcDbMText
 62
2
  6
CONTINUOUS
  7
STANDARD
 71
1
 72
1
 10
5.25
 20
0.5625
 30
0.0
 11
1.0
 21
0.0
 31
0.0
 44
0.9
  1
SCALE
 40
0.06
 41
0.48
  0
MTEXT
  5
249
100
AcDbEntity
  8
0
100
AcDbMText
 62
2
  6
CONTINUOUS
  7
STANDARD
 71
1
 72
1
 10
4.15
 20
0.5625
 30
0.0
 11
1.0
 21
0.0
 31
0.0
 44
0.9
  1
DATE
 40
0.06
 41
0.384
  0
MTEXT
  5
24A
100
AcDbEntity
  8
0
100
AcDbMText
 62
2
  6
CONTINUOUS
  7
STANDARD
 71
1
 72
1
 10
0.05
 20
0.5625
 30
0.0
 11
1.0
 21
0.0
 31
0.0
 44
0.9
  1
DESCRIPTION
 40
0.06
 41
1.056
  0
MTEXT
  5
24B
100
AcDbEntity
  8
0
100
AcDbMText
 62
2
  6
CONTINUOUS
  7
STANDARD
 71
2
 72
1
 10
5.45
 20
1.0375
 30
0.0
 11
1.0
 21
0.0
 31
0.0
 44
0.9
  1
ALL DIMENSIONS IN INCH\PVIEWS ARE THIRD ANGLE
 40
0.12
 41
4.224
  0
MTEXT
  5
24C
100
AcDbEntity
  8
0
100
AcDbMText
 62
2
  6
CONTINUOUS
  7
STANDARD
 71
2
 72
1
 10
2.05
 20
0.95
 30
0.0
 11
1.0
 21
0.0
 31
0.0
 44
0.9
  1
CBGGLJN-HCX
 40
0.125
 41
2.2
  0
MTEXT
  5
24D
100
AcDbEntity
  8
0
100
AcDbMText
 62
2
  6
CONTINUOUS
  7
STANDARD
 71
1
 72
1
 10
0.05
 20
1.1875
 30
0.0
 11
1.0
 21
0.0
 31
0.0
 44
0.9
  1
MODEL
 40
0.06
 41
0.48
  0
ENDBLK
  5
24E
100
AcDbEntity
  8
0
  6
BYBLOCK
 62
0
100
AcDbBlockEnd
  0
BLOCK
  5
24F
100
AcDbEntity
  8
0
100
AcDbBlockBegin
  2
*T2
 70
1
 10
0.0
 20
0.0
  3
*T2
  1

  0
LINE
  5
250
100
AcDbEntity
  8
0
100
AcDbLine
 62
2
  6
CONTINUOUS
 10
0.0
 20
0.0
 11
9.055
 21
0.0
  0
LINE
  5
251
100
AcDbEntity
  8
0
100
AcDbLine
 62
2
  6
CONTINUOUS
 10
0.0
 20
0.0
 11
0.0
 21
-2.594
  0
LINE
  5
252
100
AcDbEntity
  8
0
100
AcDbLine
 62
2
  6
CONTINUOUS
 10
0.0
 20
-0.344
 11
9.055
 21
-0.344
  0
LINE
  5
253
100
AcDbEntity
  8
0
100
AcDbLine
 62
2
  6
CONTINUOUS
 10
0.0
 20
-0.594
 11
9.055
 21
-0.594
  0
LINE
  5
254
100
AcDbEntity
  8
0
100
AcDbLine
 62
2
  6
CONTINUOUS
 10
0.0
 20
-0.844
 11
9.055
 21
-0.844
  0
LINE
  5
255
100
AcDbEntity
  8
0
100
AcDbLine
 62
2
  6
CONTINUOUS
 10
0.0
 20
-1.094
 11
9.055
 21
-1.094
  0
LINE
  5
256
100
AcDbEntity
  8
0
100
AcDbLine
 62
2
  6
CONTINUOUS
 10
0.0
 20
-1.344
 11
9.055
 21
-1.344
  0
LINE
  5
257
100
AcDbEntity
  8
0
100
AcDbLine
 62
2
  6
CONTINUOUS
 10
0.0
 20
-1.594
 11
9.055
 21
-1.594
  0
LINE
  5
258
100
AcDbEntity
  8
0
100
AcDbLine
 62
2
  6
CONTINUOUS
 10
0.0
 20
-1.844
 11
9.055
 21
-1.844
  0
LINE
  5
259
100
AcDbEntity
  8
0
100
AcDbLine
 62
2
  6
CONTINUOUS
 10
0.0
 20
-2.094
 11
9.055
 21
-2.094
  0
LINE
  5
25A
100
AcDbEntity
  8
0
100
AcDbLine
 62
2
  6
CONTINUOUS
 10
0.0
 20
-2.344
 11
9.055
 21
-2.344
  0
LINE
  5
25B
100
AcDbEntity
  8
0
100
AcDbLine
 62
2
  6
CONTINUOUS
 10
0.0
 20
-2.594
 11
9.055
 21
-2.594
  0
LINE
  5
25C
100
AcDbEntity
  8
0
100
AcDbLine
 62
2
  6
CONTINUOUS
 10
3.055
 20
0.0
 11
3.055
 21
-2.594
  0
LINE
  5
25D
100
AcDbEntity
  8
0
100
AcDbLine
 62
2
  6
CONTINUOUS
 10
9.055
 20
0.0
 11
9.055
 21
-2.594
  0
MTEXT
  5
25E
100
AcDbEntity
  8
0
100
AcDbMText
 62
2
  6
CONTINUOUS
  7
STANDARD
 71
2
 72
1
 10
1.5275
 20
-0.0995
 30
0.0
 11
1.0
 21
0.0
 31
0.0
 44
0.9
  1
Technical Data
 40
0.145
 41
3.248
  0
MTEXT
  5
25F
100
AcDbEntity
  8
0
100
AcDbMText
 62
2
  6
CONTINUOUS
  7
STANDARD
 71
2
 72
1
 10
4.555
 20
-0.0995
 30
0.0
 11
1.0
 21
0.0
 31
0.0
 44
0.9
  1
U.S. Units
 40
0.145
 41
2.32
  0
MTEXT
  5
260
100
AcDbEntity
  8
0
100
AcDbMText
 62
2
  6
CONTINUOUS
  7
STANDARD
 71
2
 72
1
 10
7.555
 20
-0.0995
 30
0.0
 11
1.0
 21
0.0
 31
0.0
 44
0.9
  1
Metric Units
 40
0.145
 41
2.784
  0
MTEXT
  5
261
100
AcDbEntity
  8
0
100
AcDbMText
 62
2
  6
CONTINUOUS
  7
STANDARD
 71
2
 72
1
 10
1.5275
 20
-0.4065
 30
0.0
 11
1.0
 21
0.0
 31
0.0
 44
0.9
  1
Cavity
 40
0.125
 41
1.2
  0
MTEXT
  5
262
100
AcDbEntity
  8
0
100
AcDbMText
 62
2
  6
CONTINUOUS
  7
STANDARD
 71
2
 72
1
 10
6.055
 20
-0.4065
 30
0.0
 11
1.0
 21
0.0
 31
0.0
 44
0.9
  1
T-17A
 40
0.125
 41
1.0
  0
MTEXT
  5
263
100
AcDbEntity
  8
0
100
AcDbMText
 62
2
  6
CONTINUOUS
  7
STANDARD
 71
2
 72
1
 10
1.5275
 20
-0.6565
 30
0.0
 11
1.0
 21
0.0
 31
0.0
 44
0.9
  1
Body Features
 40
0.125
 41
2.6
  0
MTEXT
  5
264
100
AcDbEntity
  8
0
100
AcDbMText
 62
2
  6
CONTINUOUS
  7
STANDARD
 71
2
 72
1
 10
6.055
 20
-0.6565
 30
0.0
 11
1.0
 21
0.0
 31
0.0
 44
0.9
  1
Ninety degree
 40
0.125
 41
2.6
  0
MTEXT
  5
265
100
AcDbEntity
  8
0
100
AcDbMText
 62
2
  6
CONTINUOUS
  7
STANDARD
 71
2
 72
1
 10
1.5275
 20
-0.9065
 30
0.0
 11
1.0
 21
0.0
 31
0.0
 44
0.9
  1
Body Type
 40
0.125
 41
1.8
  0
MTEXT
  5
266
100
AcDbEntity
  8
0
100
AcDbMText
 62
2
  6
CONTINUOUS
  7
STANDARD
 71
2
 72
1
 10
6.055
 20
-0.9065
 30
0.0
 11
1.0
 21
0.0
 31
0.0
 44
0.9
  1
Line mount
 40
0.125
 41
2.0
  0
MTEXT
  5
267
100
AcDbEntity
  8
0
100
AcDbMText
 62
2
  6
CONTINUOUS
  7
STANDARD
 71
2
 72
1
 10
1.5275
 20
-1.1565
 30
0.0
 11
1.0
 21
0.0
 31
0.0
 44
0.9
  1
Interface
 40
0.125
 41
1.8
  0
MTEXT
  5
268
100
AcDbEntity
  8
0
100
AcDbMText
 62
2
  6
CONTINUOUS
  7
STANDARD
 71
2
 72
1
 10
6.055
 20
-1.1565
 30
0.0
 11
1.0
 21
0.0
 31
0.0
 44
0.9
  1
None
 40
0.125
 41
0.8
  0
MTEXT
  5
269
100
AcDbEntity
  8
0
100
AcDbMText
 62
2
  6
CONTINUOUS
  7
STANDARD
 71
2
 72
1
 10
1.5275
 20
-1.4065
 30
0.0
 11
1.0
 21
0.0
 31
0.0
 44
0.9
  1
Open Cavity Quantity
 40
0.125
 41
4.0
  0
MTEXT
  5
26A
100
AcDbEntity
  8
0
100
AcDbMText
 62
2
  6
CONTINUOUS
  7
STANDARD
 71
2
 72
1
 10
6.055
 20
-1.4065
 30
0.0
 11
1.0
 21
0.0
 31
0.0
 44
0.9
  1
1
 40
0.125
 41
0.2
  0
MTEXT
  5
26B
100
AcDbEntity
  8
0
100
AcDbMText
 62
2
  6
CONTINUOUS
  7
STANDARD
 71
2
 72
1
 10
1.5275
 20
-1.6565
 30
0.0
 11
1.0
 21
0.0
 31
0.0
 44
0.9
  1
Weight
 40
0.125
 41
1.2
  0
MTEXT
  5
26C
100
AcDbEntity
  8
0
100
AcDbMText
 62
2
  6
CONTINUOUS
  7
STANDARD
 71
2
 72
1
 10
4.555
 20
-1.6565
 30
0.0
 11
1.0
 21
0.0
 31
0.0
 44
0.9
  1
4.263 lb.
 40
0.125
 41
1.8
  0
MTEXT
  5
26D
100
AcDbEntity
  8
0
100
AcDbMText
 62
2
  6
CONTINUOUS
  7
STANDARD
 71
2
 72
1
 10
7.555
 20
-1.6565
 30
0.0
 11
1.0
 21
0.0
 31
0.0
 44
0.9
  1
1,934 kg.
 40
0.125
 41
1.8
  0
MTEXT
  5
26E
100
AcDbEntity
  8
0
100
AcDbMText
 62
2
  6
CONTINUOUS
  7
STANDARD
 71
2
 72
1
 10
1.5275
 20
-1.9065
 30
0.0
 11
1.0
 21
0.0
 31
0.0
 44
0.9
  1
Mounting Hole Diameter
 40
0.125
 41
4.4
  0
MTEXT
  5
26F
100
AcDbEntity
  8
0
100
AcDbMText
 62
2
  6
CONTINUOUS
  7
STANDARD
 71
2
 72
1
 10
4.555
 20
-1.9065
 30
0.0
 11
1.0
 21
0.0
 31
0.0
 44
0.9
  1
.42 in.
 40
0.125
 41
1.4
  0
MTEXT
  5
270
100
AcDbEntity
  8
0
100
AcDbMText
 62
2
  6
CONTINUOUS
  7
STANDARD
 71
2
 72
1
 10
7.555
 20
-1.9065
 30
0.0
 11
1.0
 21
0.0
 31
0.0
 44
0.9
  1
10,7 mm
 40
0.125
 41
1.4
  0
MTEXT
  5
271
100
AcDbEntity
  8
0
100
AcDbMText
 62
2
  6
CONTINUOUS
  7
STANDARD
 71
2
 72
1
 10
1.5275
 20
-2.1565
 30
0.0
 11
1.0
 21
0.0
 31
0.0
 44
0.9
  1
Mounting Hole Depth
 40
0.125
 41
3.8
  0
MTEXT
  5
272
100
AcDbEntity
  8
0
100
AcDbMText
 62
2
  6
CONTINUOUS
  7
STANDARD
 71
2
 72
1
 10
6.055
 20
-2.1565
 30
0.0
 11
1.0
 21
0.0
 31
0.0
 44
0.9
  1
Through
 40
0.125
 41
1.4
  0
MTEXT
  5
273
100
AcDbEntity
  8
0
100
AcDbMText
 62
2
  6
CONTINUOUS
  7
STANDARD
 71
2
 72
1
 10
1.5275
 20
-2.4065
 30
0.0
 11
1.0
 21
0.0
 31
0.0
 44
0.9
  1
Mounting Hole Quantity
 40
0.125
 41
4.4
  0
MTEXT
  5
274
100
AcDbEntity
  8
0
100
AcDbMText
 62
2
  6
CONTINUOUS
  7
STANDARD
 71
2
 72
1
 10
6.055
 20
-2.4065
 30
0.0
 11
1.0
 21
0.0
 31
0.0
 44
0.9
  1
2
 40
0.125
 41
0.2
  0
ENDBLK
  5
275
100
AcDbEntity
  8
0
  6
BYBLOCK
 62
0
100
AcDbBlockEnd
  0
BLOCK
  5
276
100
AcDbEntity
  8
0
100
AcDbBlockBegin
  2
*T3
 70
1
 10
0.0
 20
0.0
  3
*T3
  1

  0
LINE
  5
277
100
AcDbEntity
  8
0
100
AcDbLine
 62
2
  6
CONTINUOUS
 10
0.0
 20
0.0
 11
4.6
 21
0.0
  0
LINE
  5
278
100
AcDbEntity
  8
0
100
AcDbLine
 62
2
  6
CONTINUOUS
 10
0.0
 20
0.0
 11
0.0
 21
-1.18775
  0
LINE
  5
279
100
AcDbEntity
  8
0
100
AcDbLine
 62
2
  6
CONTINUOUS
 10
0.0
 20
-0.34375
 11
4.6
 21
-0.34375
  0
LINE
  5
27A
100
AcDbEntity
  8
0
100
AcDbLine
 62
2
  6
CONTINUOUS
 10
0.0
 20
-0.68775
 11
4.6
 21
-0.68775
  0
LINE
  5
27B
100
AcDbEntity
  8
0
100
AcDbLine
 62
2
  6
CONTINUOUS
 10
0.0
 20
-0.93775
 11
4.6
 21
-0.93775
  0
LINE
  5
27C
100
AcDbEntity
  8
0
100
AcDbLine
 62
2
  6
CONTINUOUS
 10
0.0
 20
-1.18775
 11
4.6
 21
-1.18775
  0
LINE
  5
27D
100
AcDbEntity
  8
0
100
AcDbLine
 62
2
  6
CONTINUOUS
 10
1.3
 20
-0.34375
 11
1.3
 21
-1.18775
  0
LINE
  5
27E
100
AcDbEntity
  8
0
100
AcDbLine
 62
2
  6
CONTINUOUS
 10
3.3
 20
-0.34375
 11
3.3
 21
-1.18775
  0
LINE
  5
27F
100
AcDbEntity
  8
0
100
AcDbLine
 62
2
  6
CONTINUOUS
 10
4.6
 20
0.0
 11
4.6
 21
-1.18775
  0
MTEXT
  5
280
100
AcDbEntity
  8
0
100
AcDbMText
 62
2
  6
CONTINUOUS
  7
STANDARD
 71
2
 72
1
 10
2.3
 20
-0.099375
 30
0.0
 11
1.0
 21
0.0
 31
0.0
 44
0.9
  1
Port Headings
 40
0.145
 41
3.016
  0
MTEXT
  5
281
100
AcDbEntity
  8
0
100
AcDbMText
 62
2
  6
CONTINUOUS
  7
STANDARD
 71
2
 72
1
 10
0.65
 20
-0.44325
 30
0.0
 11
1.0
 21
0.0
 31
0.0
 44
0.9
  1
Product
 40
0.145
 41
1.624
  0
MTEXT
  5
282
100
AcDbEntity
  8
0
100
AcDbMText
 62
2
  6
CONTINUOUS
  7
STANDARD
 71
2
 72
1
 10
2.3
 20
-0.44325
 30
0.0
 11
1.0
 21
0.0
 31
0.0
 44
0.9
  1
Port
 40
0.145
 41
0.928
  0
MTEXT
  5
283
100
AcDbEntity
  8
0
100
AcDbMText
 62
2
  6
CONTINUOUS
  7
STANDARD
 71
2
 72
1
 10
3.95
 20
-0.44325
 30
0.0
 11
1.0
 21
0.0
 31
0.0
 44
0.9
  1
Size
 40
0.145
 41
0.928
  0
MTEXT
  5
284
100
AcDbEntity
  8
0
100
AcDbMText
 62
2
  6
CONTINUOUS
  7
STANDARD
 71
2
 72
1
 10
0.65
 20
-0.75025
 30
0.0
 11
1.0
 21
0.0
 31
0.0
 44
0.9
  1
HCX
 40
0.125
 41
0.6
  0
MTEXT
  5
285
100
AcDbEntity
  8
0
100
AcDbMText
 62
2
  6
CONTINUOUS
  7
STANDARD
 71
2
 72
1
 10
2.3
 20
-0.75025
 30
0.0
 11
1.0
 21
0.0
 31
0.0
 44
0.9
  1
Ports 1 &  2
 40
0.125
 41
2.4
  0
MTEXT
  5
286
100
AcDbEntity
  8
0
100
AcDbMText
 62
2
  6
CONTINUOUS
  7
STANDARD
 71
2
 72
1
 10
3.95
 20
-0.75025
 30
0.0
 11
1.0
 21
0.0
 31
0.0
 44
0.9
  1
1" BSPP
 40
0.125
 41
1.4
  0
MTEXT
  5
287
100
AcDbEntity
  8
0
100
AcDbMText
 62
2
  6
CONTINUOUS
  7
STANDARD
 71
2
 72
1
 10
0.65
 20
-1.00025
 30
0.0
 11
1.0
 21
0.0
 31
0.0
 44
0.9
  1
HCX
 40
0.125
 41
0.6
  0
MTEXT
  5
288
100
AcDbEntity
  8
0
100
AcDbMText
 62
2
  6
CONTINUOUS
  7
STANDARD
 71
2
 72
1
 10
2.3
 20
-1.00025
 30
0.0
 11
1.0
 21
0.0
 31
0.0
 44
0.9
  1
Port 3
 40
0.125
 41
1.2
  0
MTEXT
  5
289
100
AcDbEntity
  8
0
100
AcDbMText
 62
2
  6
CONTINUOUS
  7
STANDARD
 71
2
 72
1
 10
3.95
 20
-1.00025
 30
0.0
 11
1.0
 21
0.0
 31
0.0
 44
0.9
  1
1/4" BSPP
 40
0.125
 41
1.8
  0
ENDBLK
  5
28A
100
AcDbEntity
  8
0
  6
BYBLOCK
 62
0
100
AcDbBlockEnd
  0
ENDSEC
  0
SECTION
  2
ENTITIES
  0
IMAGE
  5
28B
100
AcDbEntity
  8
0
100
AcDbRasterImage
 62
7
  6
CONTINUOUS
 10
19.2297077316
 20
0.3094318264
 30
0.0
 11
0.0066666667
 21
0.0
 31
0.0
 12
0.0
 22
0.0066666667
 32
0.0
 13
369.0
 23
92.0
340
       3AE
 70
9
280
0
281
50
282
50
283
0
360
       3A8
 71
1
 91
2
 14
-0.5
 24
-0.5
 14
368.5
 24
91.5
  0
INSERT
  5
28C
100
AcDbEntity
  8
0
100
AcDbBlockReference
 62
2
  6
CONTINUOUS
  2
SUN_FIRST_THIRD_ANGLE_BL0
 10
20.4816717061
 20
1.2289683772
  0
ACAD_TABLE
  5
28D
100
AcDbEntity
  8
0
 62
2
  6
CONTINUOUS
100
AcDbBlockReference
  2
*T1
 10
12.42375
 20
0.30125
 30
0.0
100
AcDbTable
342
       3B0
343
20F
 11
1.0
 21
0.0
 31
0.0
 90
6
 91
4
 92
6
 93
20
 94
0
 95
0
 96
0
 70
1
 41
0.0
141
0.525
141
0.1
141
0.525
141
0.1
142
4.1
142
1.1
142
0.7
142
0.5
142
0.4
142
2.475
171
1
172
0
173
0
174
0
175
1
176
1
 91
33
178
0
145
0.0
301
CELL_VALUE
 90
4
  1
Counterbalance manifold assembly
304
ACVALUE_END
170
2
140
0.125
171
1
172
0
173
0
174
0
175
1
176
1
 91
33
178
0
145
0.0
301
CELL_VALUE
 90
4
  1
Jul-27-23
304
ACVALUE_END
170
5
140
0.125
171
1
172
0
173
0
174
0
175
1
176
1
 91
33
178
0
145
0.0
301
CELL_VALUE
 90
4
  1
1.000
304
ACVALUE_END
170
5
140
0.125
171
1
172
0
173
0
174
0
175
1
176
1
 91
33
178
0
145
0.0
301
CELL_VALUE
 90
4
  1
C
304
ACVALUE_END
170
5
140
0.125
171
1
172
0
173
0
174
0
175
1
176
1
 91
33
178
0
145
0.0
301
CELL_VALUE
 90
4
  1
2
304
ACVALUE_END
170
5
140
0.125
171
1
172
0
173
0
174
0
175
1
176
1
 91
33
178
0
145
0.0
301
CELL_VALUE
 90
4
  1
 
304
ACVALUE_END
170
1
140
0.125
171
1
172
0
173
0
174
0
175
1
176
1
 91
33
178
0
145
0.0
301
CELL_VALUE
 90
4
  1
DESCRIPTION
304
ACVALUE_END
170
1
140
0.06
171
1
172
0
173
0
174
0
175
1
176
1
 91
33
178
0
145
0.0
301
CELL_VALUE
 90
4
  1
DATE
304
ACVALUE_END
170
1
140
0.06
171
1
172
0
173
0
174
0
175
1
176
1
 91
33
178
0
145
0.0
301
CELL_VALUE
 90
4
  1
SCALE
304
ACVALUE_END
170
1
140
0.06
171
1
172
0
173
0
174
0
175
1
176
1
 91
33
178
0
145
0.0
301
CELL_VALUE
 90
4
  1
DWG SIZE
304
ACVALUE_END
170
1
140
0.06
171
1
172
0
173
0
174
0
175
1
176
1
 91
33
178
0
145
0.0
301
CELL_VALUE
 90
4
  1
SHEET
304
ACVALUE_END
170
1
140
0.06
171
1
172
0
173
0
174
0
175
1
176
1
 91
33
178
0
145
0.0
301
CELL_VALUE
 90
4
  1
 
304
ACVALUE_END
170
1
140
0.125
171
1
172
0
173
0
174
0
175
1
176
1
 91
33
178
0
145
0.0
301
CELL_VALUE
 90
4
  1
CBGGLJN-HCX
304
ACVALUE_END
170
5
140
0.125
171
1
172
0
173
0
174
0
175
4
176
1
 91
33
178
0
145
0.0
301
CELL_VALUE
 90
4
  1
ALL DIMENSIONS IN INCH\PVIEWS ARE THIRD ANGLE
304
ACVALUE_END
170
5
140
0.12
171
1
172
0
173
1
174
0
175
1
176
1
 91
1
178
0
145
0.0
170
1
171
1
172
0
173
1
174
0
175
1
176
1
 91
1
178
0
145
0.0
170
1
171
1
172
0
173
1
174
0
175
1
176
1
 91
1
178
0
145
0.0
170
5
171
1
172
0
173
0
174
0
175
1
176
1
 91
33
178
0
145
0.0
301
CELL_VALUE
 90
4
  1
 
304
ACVALUE_END
170
1
140
0.125
171
1
172
0
173
0
174
0
175
1
176
1
 91
33
178
0
145
0.0
301
CELL_VALUE
 90
4
  1
MODEL
304
ACVALUE_END
170
1
140
0.06
171
1
172
0
173
0
174
0
175
1
176
1
 91
33
178
0
145
0.0
301
CELL_VALUE
 90
4
  1
 
304
ACVALUE_END
170
1
140
0.125
171
1
172
0
173
0
174
0
175
1
176
1
 91
33
178
0
145
0.0
301
CELL_VALUE
 90
4
  1
 
304
ACVALUE_END
170
1
140
0.125
171
1
172
0
173
0
174
0
175
1
176
1
 91
33
178
0
145
0.0
301
CELL_VALUE
 90
4
  1
 
304
ACVALUE_END
170
1
140
0.125
171
1
172
0
173
0
174
0
175
1
176
1
 91
33
178
0
145
0.0
301
CELL_VALUE
 90
4
  1
 
304
ACVALUE_END
170
1
140
0.125
171
1
172
0
173
0
174
0
175
1
176
1
 91
33
178
0
145
0.0
301
CELL_VALUE
 90
4
  1
 
304
ACVALUE_END
170
1
140
0.125
  0
ACAD_TABLE
  5
28E
100
AcDbEntity
  8
0
 62
2
  6
CONTINUOUS
100
AcDbBlockReference
  2
*T2
 10
12.4237499994
 20
16.47875
 30
0.0
100
AcDbTable
342
       3AF
343
210
 11
1.0
 21
0.0
 31
0.0
 90
22
 91
10
 92
3
 93
16
 94
0
 95
0
 96
0
 41
0.028
141
0.344
141
0.25
141
0.25
141
0.25
141
0.25
141
0.25
141
0.25
141
0.25
141
0.25
141
0.25
142
3.055
142
3.0
142
3.0
171
1
172
0
173
0
174
0
175
1
176
1
 91
33
178
0
145
0.0
301
CELL_VALUE
 90
4
  1
Technical Data
304
ACVALUE_END
170
5
140
0.145
171
1
172
0
173
0
174
0
175
1
176
1
 91
33
178
0
145
0.0
301
CELL_VALUE
 90
4
  1
U.S. Units
304
ACVALUE_END
170
5
140
0.145
171
1
172
0
173
0
174
0
175
1
176
1
 91
33
178
0
145
0.0
301
CELL_VALUE
 90
4
  1
Metric Units
304
ACVALUE_END
170
5
140
0.145
171
1
172
0
173
0
174
0
175
1
176
1
 91
33
178
0
145
0.0
301
CELL_VALUE
 90
4
  1
Cavity
304
ACVALUE_END
170
5
140
0.125
171
1
172
0
173
0
174
0
175
2
176
1
 91
33
178
0
145
0.0
301
CELL_VALUE
 90
4
  1
T-17A
304
ACVALUE_END
170
5
140
0.125
171
1
172
0
173
1
174
0
175
1
176
1
 91
1
178
0
145
0.0
170
1
171
1
172
0
173
0
174
0
175
1
176
1
 91
33
178
0
145
0.0
301
CELL_VALUE
 90
4
  1
Body Features
304
ACVALUE_END
170
5
140
0.125
171
1
172
0
173
0
174
0
175
2
176
1
 91
33
178
0
145
0.0
301
CELL_VALUE
 90
4
  1
Ninety degree
304
ACVALUE_END
170
5
140
0.125
171
1
172
0
173
1
174
0
175
1
176
1
 91
1
178
0
145
0.0
170
1
171
1
172
0
173
0
174
0
175
1
176
1
 91
33
178
0
145
0.0
301
CELL_VALUE
 90
4
  1
Body Type
304
ACVALUE_END
170
5
140
0.125
171
1
172
0
173
0
174
0
175
2
176
1
 91
33
178
0
145
0.0
301
CELL_VALUE
 90
4
  1
Line mount
304
ACVALUE_END
170
5
140
0.125
171
1
172
0
173
1
174
0
175
1
176
1
 91
1
178
0
145
0.0
170
1
171
1
172
0
173
0
174
0
175
1
176
1
 91
33
178
0
145
0.0
301
CELL_VALUE
 90
4
  1
Interface
304
ACVALUE_END
170
5
140
0.125
171
1
172
0
173
0
174
0
175
2
176
1
 91
33
178
0
145
0.0
301
CELL_VALUE
 90
4
  1
None
304
ACVALUE_END
170
5
140
0.125
171
1
172
0
173
1
174
0
175
1
176
1
 91
1
178
0
145
0.0
170
1
171
1
172
0
173
0
174
0
175
1
176
1
 91
33
178
0
145
0.0
301
CELL_VALUE
 90
4
  1
Open Cavity Quantity
304
ACVALUE_END
170
5
140
0.125
171
1
172
0
173
0
174
0
175
2
176
1
 91
33
178
0
145
0.0
301
CELL_VALUE
 90
4
  1
1
304
ACVALUE_END
170
5
140
0.125
171
1
172
0
173
1
174
0
175
1
176
1
 91
1
178
0
145
0.0
170
1
171
1
172
0
173
0
174
0
175
1
176
1
 91
33
178
0
145
0.0
301
CELL_VALUE
 90
4
  1
Weight
304
ACVALUE_END
170
5
140
0.125
171
1
172
0
173
0
174
0
175
1
176
1
 91
33
178
0
145
0.0
301
CELL_VALUE
 90
4
  1
4.263 lb.
304
ACVALUE_END
170
5
140
0.125
171
1
172
0
173
0
174
0
175
1
176
1
 91
33
178
0
145
0.0
301
CELL_VALUE
 90
4
  1
1,934 kg.
304
ACVALUE_END
170
5
140
0.125
171
1
172
0
173
0
174
0
175
1
176
1
 91
33
178
0
145
0.0
301
CELL_VALUE
 90
4
  1
Mounting Hole Diameter
304
ACVALUE_END
170
5
140
0.125
171
1
172
0
173
0
174
0
175
1
176
1
 91
33
178
0
145
0.0
301
CELL_VALUE
 90
4
  1
.42 in.
304
ACVALUE_END
170
5
140
0.125
171
1
172
0
173
0
174
0
175
1
176
1
 91
33
178
0
145
0.0
301
CELL_VALUE
 90
4
  1
10,7 mm
304
ACVALUE_END
170
5
140
0.125
171
1
172
0
173
0
174
0
175
1
176
1
 91
33
178
0
145
0.0
301
CELL_VALUE
 90
4
  1
Mounting Hole Depth
304
ACVALUE_END
170
5
140
0.125
171
1
172
0
173
0
174
0
175
2
176
1
 91
33
178
0
145
0.0
301
CELL_VALUE
 90
4
  1
Through
304
ACVALUE_END
170
5
140
0.125
171
1
172
0
173
1
174
0
175
1
176
1
 91
1
178
0
145
0.0
170
1
171
1
172
0
173
0
174
0
175
1
176
1
 91
33
178
0
145
0.0
301
CELL_VALUE
 90
4
  1
Mounting Hole Quantity
304
ACVALUE_END
170
5
140
0.125
171
1
172
0
173
0
174
0
175
2
176
1
 91
33
178
0
145
0.0
301
CELL_VALUE
 90
4
  1
2
304
ACVALUE_END
170
5
140
0.125
171
1
172
0
173
1
174
0
175
1
176
1
 91
1
178
0
145
0.0
170
1
  0
ACAD_TABLE
  5
28F
100
AcDbEntity
  8
0
 62
2
  6
CONTINUOUS
100
AcDbBlockReference
  2
*T3
 10
0.52125
 20
1.709
 30
0.0
100
AcDbTable
342
       3AF
343
211
 11
1.0
 21
0.0
 31
0.0
 90
22
 91
4
 92
3
 93
16
 94
0
 95
0
 96
0
 41
0.05
141
0.34375
141
0.344
141
0.25
141
0.25
142
1.3
142
2.0
142
1.3
171
1
172
0
173
0
174
0
175
3
176
1
 91
33
178
0
145
0.0
301
CELL_VALUE
 90
4
  1
Port Headings
304
ACVALUE_END
170
5
140
0.145
171
1
172
0
173
1
174
0
175
1
176
1
 91
1
178
0
145
0.0
170
1
171
1
172
0
173
1
174
0
175
1
176
1
 91
1
178
0
145
0.0
170
1
171
1
172
0
173
0
174
0
175
1
176
1
 91
33
178
0
145
0.0
301
CELL_VALUE
 90
4
  1
Product
304
ACVALUE_END
170
5
140
0.145
171
1
172
0
173
0
174
0
175
1
176
1
 91
33
178
0
145
0.0
301
CELL_VALUE
 90
4
  1
Port
304
ACVALUE_END
170
5
140
0.145
171
1
172
0
173
0
174
0
175
1
176
1
 91
33
178
0
145
0.0
301
CELL_VALUE
 90
4
  1
Size
304
ACVALUE_END
170
5
140
0.145
171
1
172
0
173
0
174
0
175
1
176
1
 91
33
178
0
145
0.0
301
CELL_VALUE
 90
4
  1
HCX
304
ACVALUE_END
170
5
140
0.125
171
1
172
0
173
0
174
0
175
1
176
1
 91
33
178
0
145
0.0
301
CELL_VALUE
 90
4
  1
Ports 1 &  2
304
ACVALUE_END
170
5
140
0.125
171
1
172
0
173
0
174
0
175
1
176
1
 91
33
178
0
145
0.0
301
CELL_VALUE
 90
4
  1
1" BSPP
304
ACVALUE_END
170
5
140
0.125
171
1
172
0
173
0
174
0
175
1
176
1
 91
33
178
0
145
0.0
301
CELL_VALUE
 90
4
  1
HCX
304
ACVALUE_END
170
5
140
0.125
171
1
172
0
173
0
174
0
175
1
176
1
 91
33
178
0
145
0.0
301
CELL_VALUE
 90
4
  1
Port 3
304
ACVALUE_END
170
5
140
0.125
171
1
172
0
173
0
174
0
175
1
176
1
 91
33
178
0
145
0.0
301
CELL_VALUE
 90
4
  1
1/4" BSPP
304
ACVALUE_END
170
5
140
0.125
  0
MTEXT
  5
290
100
AcDbEntity
  8
0
100
AcDbMText
 62
2
  6
CONTINUOUS
  7
STANDARD
 71
1
 72
1
 10
0.52125
 20
5.75995
 30
0.0
 11
1.0
 21
0.0
 31
0.0
 44
0.6
  3
Notes\P \P1. Important: Carefully consider\P   the maximum system pressure. The\P   pressure rating of the manifold is\P   dependent on the manifold material,\P   with the port type/size a secondary\P   consideration. Manifolds\P   constructed of alu
  3
minum are not\P   rated for pressures higher than\P   3000 psi (210 bar), regardless of\P   the port type/size specified.\P2. This drawing is for reference\P   only. It is generated by an\P   automated process and does not fall\P   under Sun's docume
  1
nt control\P   process.
 40
0.1
 41
3.04
  0
LINE
  5
291
100
AcDbEntity
  8
0
100
AcDbLine
 62
7
  6
CONTINUOUS
 10
0.30125
 20
0.30125
 11
0.30125
 21
16.69875
  0
LINE
  5
292
100
AcDbEntity
  8
0
100
AcDbLine
 62
7
  6
CONTINUOUS
 10
0.30125
 20
0.30125
 11
21.69875
 21
0.30125
  0
LINE
  5
293
100
AcDbEntity
  8
0
100
AcDbLine
 62
7
  6
CONTINUOUS
 10
0.30125
 20
16.69875
 11
21.69875
 21
16.69875
  0
LINE
  5
294
100
AcDbEntity
  8
0
100
AcDbLine
 62
7
  6
CONTINUOUS
 10
21.69875
 20
0.30125
 11
21.69875
 21
16.69875
  0
LINE
  5
295
100
AcDbEntity
  8
0
100
AcDbLine
 62
7
  6
CONTINUOUS
 10
10.7533093668
 20
11.5060498782
 11
10.7447319446
 21
11.5018127959
  0
LINE
  5
296
100
AcDbEntity
  8
0
100
AcDbLine
 62
7
  6
CONTINUOUS
 10
8.7769770475
 20
5.7103943681
 11
12.6406805816
 21
5.442445618
  0
LINE
  5
297
100
AcDbEntity
  8
0
100
AcDbLine
 62
7
  6
CONTINUOUS
 10
9.3593194184
 20
10.3780789422
 11
8.7769770475
 21
9.8155793731
  0
LINE
  5
298
100
AcDbEntity
  8
0
100
AcDbLine
 62
7
  6
CONTINUOUS
 10
10.4277203723
 20
11.2423654697
 11
10.4262400252
 21
11.2409621546
  0
LINE
  5
299
100
AcDbEntity
  8
0
100
AcDbLine
 62
7
  6
CONTINUOUS
 10
10.4874560326
 20
11.2979554623
 11
10.48612743
 21
11.2966963538
  0
LINE
  5
29A
100
AcDbEntity
  8
0
100
AcDbLine
 62
7
  6
CONTINUOUS
 10
10.4277207327
 20
11.2423658052
 11
10.4874535855
 21
11.2979534953
  0
LINE
  5
29B
100
AcDbEntity
  8
0
100
AcDbLine
 62
7
  6
CONTINUOUS
 10
10.8227283078
 20
11.500812196
 11
10.8525947342
 21
11.5286060411
  0
LINE
  5
29C
100
AcDbEntity
  8
0
100
AcDbLine
 62
7
  6
CONTINUOUS
 10
11.2489047928
 20
11.2273059751
 11
11.2552849395
 21
11.2304576454
  0
LINE
  5
29D
100
AcDbEntity
  8
0
100
AcDbLine
 62
7
  6
CONTINUOUS
 10
8.7769770475
 20
5.7103943681
 11
8.7769770475
 21
9.8155793731
  0
LINE
  5
29E
100
AcDbEntity
  8
0
100
AcDbLine
 62
4
  6
CONTINUOUS
 10
9.0455044368
 20
7.8361272768
 11
9.0455044368
 21
7.8168087642
  0
LINE
  5
29F
100
AcDbEntity
  8
0
100
AcDbLine
 62
4
  6
CONTINUOUS
 10
8.994793329
 20
7.7720292961
 11
8.9875488851
 21
7.7435539241
  0
LINE
  5
2A0
100
AcDbEntity
  8
0
100
AcDbLine
 62
7
  6
CONTINUOUS
 10
11.271028854
 20
11.241840593
 11
11.2719729456
 21
11.2427550532
  0
LINE
  5
2A1
100
AcDbEntity
  8
0
100
AcDbLine
 62
4
  6
CONTINUOUS
 10
9.0382599928
 20
7.846288944
 11
9.0455044368
 21
7.8361272768
  0
LINE
  5
2A2
100
AcDbEntity
  8
0
100
AcDbLine
 62
7
  6
CONTINUOUS
 10
10.30953279
 20
9.9608602036
 11
10.3096521671
 21
9.9609191736
  0
LINE
  5
2A3
100
AcDbEntity
  8
0
100
AcDbLine
 62
4
  6
CONTINUOUS
 10
9.0237711049
 20
7.8569530081
 11
9.0382599928
 21
7.846288944
  0
LINE
  5
2A4
100
AcDbEntity
  8
0
100
AcDbLine
 62
4
  6
CONTINUOUS
 10
8.9875488851
 20
7.840146508
 11
8.994793329
 21
7.8493033673
  0
LINE
  5
2A5
100
AcDbEntity
  8
0
100
AcDbLine
 62
4
  6
CONTINUOUS
 10
9.0092822169
 20
7.7903430044
 11
8.994793329
 21
7.7720292961
  0
LINE
  5
2A6
100
AcDbEntity
  8
0
100
AcDbLine
 62
4
  6
CONTINUOUS
 10
9.0455044368
 20
7.8168087642
 11
9.0382599928
 21
7.8076519049
  0
LINE
  5
2A7
100
AcDbEntity
  8
0
100
AcDbLine
 62
4
  6
CONTINUOUS
 10
10.1592169868
 20
8.5702689063
 11
10.1592169868
 21
8.5123133533
  0
LINE
  5
2A8
100
AcDbEntity
  8
0
100
AcDbLine
 62
4
  6
CONTINUOUS
 10
10.2171725398
 20
8.5082941221
 11
10.2171725398
 21
8.4503385691
  0
LINE
  5
2A9
100
AcDbEntity
  8
0
100
AcDbLine
 62
7
  6
CONTINUOUS
 10
10.2205
 20
9.8600735509
 11
10.2205
 21
9.8672281201
  0
LINE
  5
2AA
100
AcDbEntity
  8
0
100
AcDbLine
 62
4
  6
CONTINUOUS
 10
10.2461503163
 20
8.4483289534
 11
10.2461503163
 21
8.5642400595
  0
LINE
  5
2AB
100
AcDbEntity
  8
0
100
AcDbLine
 62
4
  6
CONTINUOUS
 10
8.9875488851
 20
7.7435539241
 11
9.0455044368
 21
7.739534693
  0
LINE
  5
2AC
100
AcDbEntity
  8
0
100
AcDbLine
 62
4
  6
CONTINUOUS
 10
9.0092822169
 20
7.8579578159
 11
9.0237711049
 21
7.8569530081
  0
LINE
  5
2AD
100
AcDbEntity
  8
0
100
AcDbLine
 62
4
  6
CONTINUOUS
 10
10.2272457697
 20
7.9081695363
 11
10.2714023824
 21
7.8830289585
  0
LINE
  5
2AE
100
AcDbEntity
  8
0
100
AcDbLine
 62
4
  6
CONTINUOUS
 10
10.3348775081
 20
7.9669401671
 11
10.3514362365
 21
7.9492330869
  0
LINE
  5
2AF
100
AcDbEntity
  8
0
100
AcDbLine
 62
4
  6
CONTINUOUS
 10
10.2934806904
 20
7.8538999401
 11
10.2934806904
 21
7.9698110461
  0
LINE
  5
2B0
100
AcDbEntity
  8
0
100
AcDbLine
 62
4
  6
CONTINUOUS
 10
10.3041058694
 20
8.5602208282
 11
10.3041058694
 21
8.4443097222
  0
LINE
  5
2B1
100
AcDbEntity
  8
0
100
AcDbLine
 62
7
  6
CONTINUOUS
 10
10.3096521671
 20
9.9483585472
 11
10.3096521671
 21
10.6186267194
  0
LINE
  5
2B2
100
AcDbEntity
  8
0
100
AcDbLine
 62
4
  6
CONTINUOUS
 10
10.3330836459
 20
8.5582112126
 11
10.3330836459
 21
8.4423001065
  0
LINE
  5
2B3
100
AcDbEntity
  8
0
100
AcDbLine
 62
4
  6
CONTINUOUS
 10
10.3514362365
 20
7.9492330869
 11
10.3514362365
 21
7.8664394395
  0
LINE
  5
2B4
100
AcDbEntity
  8
0
100
AcDbLine
 62
4
  6
CONTINUOUS
 10
10.3910391989
 20
8.5541919813
 11
10.3910391989
 21
8.4382808753
  0
LINE
  5
2B5
100
AcDbEntity
  8
0
100
AcDbLine
 62
7
  6
CONTINUOUS
 10
10.406
 20
10.6264458645
 11
10.406
 21
11.2011717652
  0
LINE
  5
2B6
100
AcDbEntity
  8
0
100
AcDbLine
 62
7
  6
CONTINUOUS
 10
10.4829202716
 20
9.7809946963
 11
10.4829202716
 21
10.4512628685
  0
LINE
  5
2B7
100
AcDbEntity
  8
0
100
AcDbLine
 62
4
  6
CONTINUOUS
 10
10.5069503049
 20
8.4302424128
 11
10.5069503049
 21
8.5461535188
  0
LINE
  5
2B8
100
AcDbEntity
  8
0
100
AcDbLine
 62
7
  6
CONTINUOUS
 10
10.5149130669
 20
9.7744598177
 11
10.5149130669
 21
10.4429825343
  0
LINE
  5
2B9
100
AcDbEntity
  8
0
100
AcDbLine
 62
4
  6
CONTINUOUS
 10
10.9999864581
 20
7.8049035987
 11
10.9585896266
 21
7.8077744787
  0
LINE
  5
2BA
100
AcDbEntity
  8
0
100
AcDbLine
 62
4
  6
CONTINUOUS
 10
10.908913462
 20
7.8112195324
 11
10.8840753521
 21
7.8129420612
  0
LINE
  5
2BB
100
AcDbEntity
  8
0
100
AcDbLine
 62
4
  6
CONTINUOUS
 10
10.8206002437
 20
7.8173440749
 11
10.7874828006
 21
7.8196407774
  0
LINE
  5
2BC
100
AcDbEntity
  8
0
100
AcDbLine
 62
4
  6
CONTINUOUS
 10
10.3348775081
 20
7.8510290611
 11
10.2934806904
 21
7.8538999401
  0
LINE
  5
2BD
100
AcDbEntity
  8
0
100
AcDbLine
 62
4
  6
CONTINUOUS
 10
10.5970573924
 20
7.8328468243
 11
10.6467335846
 21
7.8294017687
  0
LINE
  5
2BE
100
AcDbEntity
  8
0
100
AcDbLine
 62
4
  6
CONTINUOUS
 10
11.0634616218
 20
7.8005015812
 11
11.1131377864
 21
7.7970565274
  0
LINE
  5
2BF
100
AcDbEntity
  8
0
100
AcDbLine
 62
4
  6
CONTINUOUS
 10
10.4093917895
 20
7.8789789384
 11
10.4535483987
 21
7.8759166672
  0
LINE
  5
2C0
100
AcDbEntity
  8
0
100
AcDbLine
 62
4
  6
CONTINUOUS
 10
11.0965790649
 20
7.8644397994
 11
11.0634616218
 21
7.8667365019
  0
LINE
  5
2C1
100
AcDbEntity
  8
0
100
AcDbLine
 62
4
  6
CONTINUOUS
 10
10.6301748631
 20
7.8967850406
 11
10.5970573924
 21
7.899081745
  0
LINE
  5
2C2
100
AcDbEntity
  8
0
100
AcDbLine
 62
4
  6
CONTINUOUS
 10
10.2934806904
 20
7.9698110461
 11
10.3348775081
 21
7.9669401671
  0
LINE
  5
2C3
100
AcDbEntity
  8
0
100
AcDbLine
 62
4
  6
CONTINUOUS
 10
10.4977050079
 20
7.9556480416
 11
10.5639399217
 21
7.9510546348
  0
LINE
  5
2C4
100
AcDbEntity
  8
0
100
AcDbLine
 62
4
  6
CONTINUOUS
 10
10.5970573924
 20
7.9487579304
 11
10.6467335846
 21
7.9453128747
  0
LINE
  5
2C5
100
AcDbEntity
  8
0
100
AcDbLine
 62
4
  6
CONTINUOUS
 10
10.7874828006
 20
7.9355518834
 11
10.8206002437
 21
7.933255181
  0
LINE
  5
2C6
100
AcDbEntity
  8
0
100
AcDbLine
 62
4
  6
CONTINUOUS
 10
10.8840753521
 20
7.9288531672
 11
10.908913462
 21
7.9271306385
  0
LINE
  5
2C7
100
AcDbEntity
  8
0
100
AcDbLine
 62
4
  6
CONTINUOUS
 10
10.9585896266
 20
7.9236855848
 11
10.9999864581
 21
7.9208147047
  0
LINE
  5
2C8
100
AcDbEntity
  8
0
100
AcDbLine
 62
4
  6
CONTINUOUS
 10
11.0634616218
 20
7.9164126872
 11
11.1131377864
 21
7.9129676335
  0
LINE
  5
2C9
100
AcDbEntity
  8
0
100
AcDbLine
 62
4
  6
CONTINUOUS
 10
11.1462552295
 20
7.8665143218
 11
11.1904118387
 21
7.8413737425
  0
LINE
  5
2CA
100
AcDbEntity
  8
0
100
AcDbLine
 62
4
  6
CONTINUOUS
 10
10.7874828006
 20
7.8196407774
 11
10.770924079
 21
7.8373478588
  0
LINE
  5
2CB
100
AcDbEntity
  8
0
100
AcDbLine
 62
4
  6
CONTINUOUS
 10
10.8840753521
 20
7.8129420612
 11
10.8675166305
 21
7.8306491426
  0
LINE
  5
2CC
100
AcDbEntity
  8
0
100
AcDbLine
 62
4
  6
CONTINUOUS
 10
10.6895102957
 20
8.081439627
 11
10.6729515673
 21
8.0991467088
  0
LINE
  5
2CD
100
AcDbEntity
  8
0
100
AcDbLine
 62
4
  6
CONTINUOUS
 10
10.4314700941
 20
7.9602414485
 11
10.4645875648
 21
7.8420336381
  0
LINE
  5
2CE
100
AcDbEntity
  8
0
100
AcDbLine
 62
4
  6
CONTINUOUS
 10
10.5308224786
 20
7.8374402312
 11
10.5308224786
 21
7.9533513372
  0
LINE
  5
2CF
100
AcDbEntity
  8
0
100
AcDbLine
 62
4
  6
CONTINUOUS
 10
10.5649058579
 20
8.4262231815
 11
10.5649058579
 21
8.4841787345
  0
LINE
  5
2D0
100
AcDbEntity
  8
0
100
AcDbLine
 62
4
  6
CONTINUOUS
 10
10.5818785574
 20
8.0889039134
 11
10.5818785574
 21
8.2048150194
  0
LINE
  5
2D1
100
AcDbEntity
  8
0
100
AcDbLine
 62
4
  6
CONTINUOUS
 10
10.5970573924
 20
7.8328468243
 11
10.5970573924
 21
7.9487579304
  0
LINE
  5
2D2
100
AcDbEntity
  8
0
100
AcDbLine
 62
4
  6
CONTINUOUS
 10
10.6122362262
 20
8.4229408093
 11
10.6122362262
 21
8.4808963624
  0
LINE
  5
2D3
100
AcDbEntity
  8
0
100
AcDbLine
 62
4
  6
CONTINUOUS
 10
10.6398341104
 20
8.2007957881
 11
10.6398341104
 21
8.0848846821
  0
LINE
  5
2D4
100
AcDbEntity
  8
0
100
AcDbLine
 62
4
  6
CONTINUOUS
 10
10.6701917792
 20
8.4768771311
 11
10.6701917792
 21
8.3609660251
  0
LINE
  5
2D5
100
AcDbEntity
  8
0
100
AcDbLine
 62
4
  6
CONTINUOUS
 10
10.6729515673
 20
8.0991467088
 11
10.6729515673
 21
8.1819403563
  0
LINE
  5
2D6
100
AcDbEntity
  8
0
100
AcDbLine
 62
7
  6
CONTINUOUS
 10
10.6865570879
 20
11.263580766
 11
10.6865570879
 21
11.4252065784
  0
LINE
  5
2D7
100
AcDbEntity
  8
0
100
AcDbLine
 62
4
  6
CONTINUOUS
 10
10.7088288146
 20
8.4162420906
 11
10.7088288146
 21
8.4741976436
  0
LINE
  5
2D8
100
AcDbEntity
  8
0
100
AcDbLine
 62
4
  6
CONTINUOUS
 10
10.7667843676
 20
8.5281339654
 11
10.7667843676
 21
8.4122228593
  0
LINE
  5
2D9
100
AcDbEntity
  8
0
100
AcDbLine
 62
4
  6
CONTINUOUS
 10
10.7667843663
 20
5.8988837028
 11
10.7667843663
 21
5.7829725994
  0
LINE
  5
2DA
100
AcDbEntity
  8
0
100
AcDbLine
 62
4
  6
CONTINUOUS
 10
10.770924079
 20
7.8373478588
 11
10.770924079
 21
7.9201415062
  0
LINE
  5
2DB
100
AcDbEntity
  8
0
100
AcDbLine
 62
4
  6
CONTINUOUS
 10
10.3983526372
 20
7.8466270459
 11
10.4314700941
 21
7.9602414485
  0
LINE
  5
2DC
100
AcDbEntity
  8
0
100
AcDbLine
 62
4
  6
CONTINUOUS
 10
8.994793329
 20
7.8493033673
 11
9.0092822169
 21
7.8579578159
  0
LINE
  5
2DD
100
AcDbEntity
  8
0
100
AcDbLine
 62
4
  6
CONTINUOUS
 10
9.0382599928
 20
7.8076519049
 11
9.0092822169
 21
7.7903430044
  0
LINE
  5
2DE
100
AcDbEntity
  8
0
100
AcDbLine
 62
4
  6
CONTINUOUS
 10
10.7226277595
 20
8.079142923
 11
10.6895102957
 21
8.081439627
  0
LINE
  5
2DF
100
AcDbEntity
  8
0
100
AcDbLine
 62
4
  6
CONTINUOUS
 10
10.5818785574
 20
8.1551388341
 11
10.6398341104
 21
8.1511196028
  0
LINE
  5
2E0
100
AcDbEntity
  8
0
100
AcDbLine
 62
4
  6
CONTINUOUS
 10
10.6895102957
 20
8.197350733
 11
10.7226277595
 21
8.1950540291
  0
LINE
  5
2E1
100
AcDbEntity
  8
0
100
AcDbLine
 62
4
  6
CONTINUOUS
 10
10.908913462
 20
7.9271306385
 11
10.9254721836
 21
7.9094235588
  0
LINE
  5
2E2
100
AcDbEntity
  8
0
100
AcDbLine
 62
4
  6
CONTINUOUS
 10
10.9999864581
 20
7.9208147047
 11
11.0165451796
 21
7.9031076251
  0
LINE
  5
2E3
100
AcDbEntity
  8
0
100
AcDbLine
 62
4
  6
CONTINUOUS
 10
10.7695441602
 20
8.1918003656
 11
10.835779074
 21
8.0712958527
  0
LINE
  5
2E4
100
AcDbEntity
  8
0
100
AcDbLine
 62
4
  6
CONTINUOUS
 10
10.8054214029
 20
8.4674989249
 11
10.8054214029
 21
8.4095433718
  0
LINE
  5
2E5
100
AcDbEntity
  8
0
100
AcDbLine
 62
7
  6
CONTINUOUS
 10
10.816
 20
11.4725969385
 11
10.816
 21
11.4880517526
  0
LINE
  5
2E6
100
AcDbEntity
  8
0
100
AcDbLine
 62
4
  6
CONTINUOUS
 10
10.8675166305
 20
7.8306491426
 11
10.8675166305
 21
7.91344279
  0
LINE
  5
2E7
100
AcDbEntity
  8
0
100
AcDbLine
 62
4
  6
CONTINUOUS
 10
10.9020139913
 20
8.4028446531
 11
10.9020139913
 21
8.4414816884
  0
LINE
  5
2E8
100
AcDbEntity
  8
0
100
AcDbLine
 62
7
  6
CONTINUOUS
 10
10.9160132892
 20
11.2041932064
 11
10.9160132892
 21
11.3658190188
  0
LINE
  5
2E9
100
AcDbEntity
  8
0
100
AcDbLine
 62
4
  6
CONTINUOUS
 10
10.9254721836
 20
7.9094235588
 11
10.9254721836
 21
7.8266299114
  0
LINE
  5
2EA
100
AcDbEntity
  8
0
100
AcDbLine
 62
7
  6
CONTINUOUS
 10
10.934680303
 20
11.5213096982
 11
10.934680303
 21
11.4982798745
  0
LINE
  5
2EB
100
AcDbEntity
  8
0
100
AcDbLine
 62
4
  6
CONTINUOUS
 10
10.9585896266
 20
7.8077744787
 11
10.9585896266
 21
7.9236855848
  0
LINE
  5
2EC
100
AcDbEntity
  8
0
100
AcDbLine
 62
4
  6
CONTINUOUS
 10
10.9599695443
 20
8.4567809748
 11
10.9599695443
 21
8.3988254218
  0
LINE
  5
2ED
100
AcDbEntity
  8
0
100
AcDbLine
 62
4
  6
CONTINUOUS
 10
10.9986065796
 20
8.4541014873
 11
10.9986065796
 21
8.3961459343
  0
LINE
  5
2EE
100
AcDbEntity
  8
0
100
AcDbLine
 62
4
  6
CONTINUOUS
 10
11.0165451796
 20
7.9031076251
 11
11.0165451796
 21
7.8203139777
  0
LINE
  5
2EF
100
AcDbEntity
  8
0
100
AcDbLine
 62
7
  6
CONTINUOUS
 10
11.0239086691
 20
11.5274978735
 11
11.0239086691
 21
11.4927568117
  0
LINE
  5
2F0
100
AcDbEntity
  8
0
100
AcDbLine
 62
4
  6
CONTINUOUS
 10
10.7695441602
 20
8.0758892596
 11
10.835779074
 21
8.1872069588
  0
LINE
  5
2F1
100
AcDbEntity
  8
0
100
AcDbLine
 62
4
  6
CONTINUOUS
 10
10.6729515673
 20
8.1819403563
 11
10.6895102957
 21
8.197350733
  0
LINE
  5
2F2
100
AcDbEntity
  8
0
100
AcDbLine
 62
4
  6
CONTINUOUS
 10
10.3514362365
 20
7.8664394395
 11
10.3348775081
 21
7.8510290611
  0
LINE
  5
2F3
100
AcDbEntity
  8
0
100
AcDbLine
 62
4
  6
CONTINUOUS
 10
10.6701917792
 20
8.3609660251
 11
10.6315547439
 21
8.3636455126
  0
LINE
  5
2F4
100
AcDbEntity
  8
0
100
AcDbLine
 62
4
  6
CONTINUOUS
 10
11.32702138
 20
8.3733702906
 11
11.269065827
 21
8.3773895218
  0
LINE
  5
2F5
100
AcDbEntity
  8
0
100
AcDbLine
 62
4
  6
CONTINUOUS
 10
10.9599695443
 20
8.3988254218
 11
10.9020139913
 21
8.4028446531
  0
LINE
  5
2F6
100
AcDbEntity
  8
0
100
AcDbLine
 62
4
  6
CONTINUOUS
 10
10.7667843676
 20
8.4122228593
 11
10.7088288146
 21
8.4162420906
  0
LINE
  5
2F7
100
AcDbEntity
  8
0
100
AcDbLine
 62
4
  6
CONTINUOUS
 10
10.6701917792
 20
8.4189215781
 11
10.6122362262
 21
8.4229408093
  0
LINE
  5
2F8
100
AcDbEntity
  8
0
100
AcDbLine
 62
4
  6
CONTINUOUS
 10
10.3041058694
 20
8.4443097222
 11
10.2461503163
 21
8.4483289534
  0
LINE
  5
2F9
100
AcDbEntity
  8
0
100
AcDbLine
 62
4
  6
CONTINUOUS
 10
10.2171725398
 20
8.4503385691
 11
10.1592169868
 21
8.4543578003
  0
LINE
  5
2FA
100
AcDbEntity
  8
0
100
AcDbLine
 62
4
  6
CONTINUOUS
 10
10.9986065796
 20
8.3961459343
 11
11.0565621326
 21
8.3921267031
  0
LINE
  5
2FB
100
AcDbEntity
  8
0
100
AcDbLine
 62
4
  6
CONTINUOUS
 10
11.1724732386
 20
8.3840882406
 11
11.2304287917
 21
8.3800690093
  0
LINE
  5
2FC
100
AcDbEntity
  8
0
100
AcDbLine
 62
4
  6
CONTINUOUS
 10
11.269065827
 20
8.4063672983
 11
11.32702138
 21
8.4023480671
  0
LINE
  5
2FD
100
AcDbEntity
  8
0
100
AcDbLine
 62
4
  6
CONTINUOUS
 10
10.9020139913
 20
8.4414816884
 11
10.9599695443
 21
8.4374624572
  0
LINE
  5
2FE
100
AcDbEntity
  8
0
100
AcDbLine
 62
4
  6
CONTINUOUS
 10
10.9599695443
 20
8.4567809748
 11
10.9213325089
 21
8.4594604623
  0
LINE
  5
2FF
100
AcDbEntity
  8
0
100
AcDbLine
 62
4
  6
CONTINUOUS
 10
10.5649058579
 20
8.4841787345
 11
10.5069503049
 21
8.4881979658
  0
LINE
  5
300
100
AcDbEntity
  8
0
100
AcDbLine
 62
4
  6
CONTINUOUS
 10
10.1592169868
 20
8.5123133533
 11
10.2171725398
 21
8.5082941221
  0
LINE
  5
301
100
AcDbEntity
  8
0
100
AcDbLine
 62
4
  6
CONTINUOUS
 10
10.7088288146
 20
8.4741976436
 11
10.7667843676
 21
8.4701784124
  0
LINE
  5
302
100
AcDbEntity
  8
0
100
AcDbLine
 62
4
  6
CONTINUOUS
 10
10.8054214029
 20
8.4674989249
 11
10.8633769559
 21
8.4634796936
  0
LINE
  5
303
100
AcDbEntity
  8
0
100
AcDbLine
 62
4
  6
CONTINUOUS
 10
11.1724732386
 20
8.4420437936
 11
11.2304287917
 21
8.4380245623
  0
LINE
  5
304
100
AcDbEntity
  8
0
100
AcDbLine
 62
4
  6
CONTINUOUS
 10
11.269065827
 20
8.4353450748
 11
11.32702138
 21
8.4313258436
  0
LINE
  5
305
100
AcDbEntity
  8
0
100
AcDbLine
 62
4
  6
CONTINUOUS
 10
11.1265917592
 20
8.4742034615
 11
11.1410806474
 21
8.4731986537
  0
LINE
  5
306
100
AcDbEntity
  8
0
100
AcDbLine
 62
4
  6
CONTINUOUS
 10
10.2171725398
 20
8.5662496751
 11
10.1592169868
 21
8.5702689063
  0
LINE
  5
307
100
AcDbEntity
  8
0
100
AcDbLine
 62
4
  6
CONTINUOUS
 10
10.3330836459
 20
8.5582112126
 11
10.3910391989
 21
8.5541919813
  0
LINE
  5
308
100
AcDbEntity
  8
0
100
AcDbLine
 62
4
  6
CONTINUOUS
 10
11.0565621326
 20
8.3921267031
 11
11.0565621326
 21
8.4500822561
  0
LINE
  5
309
100
AcDbEntity
  8
0
100
AcDbLine
 62
4
  6
CONTINUOUS
 10
11.0634616218
 20
7.8005015812
 11
11.0634616218
 21
7.9164126872
  0
LINE
  5
30A
100
AcDbEntity
  8
0
100
AcDbLine
 62
4
  6
CONTINUOUS
 10
11.095199168
 20
8.3894472156
 11
11.095199168
 21
8.5053583216
  0
LINE
  5
30B
100
AcDbEntity
  8
0
100
AcDbLine
 62
4
  6
CONTINUOUS
 10
11.1338362033
 20
8.3867677281
 11
11.1338362033
 21
8.4447232811
  0
LINE
  5
30C
100
AcDbEntity
  8
0
100
AcDbLine
 62
7
  6
CONTINUOUS
 10
11.1615579409
 20
9.7402892442
 11
11.1615579409
 21
10.39813756
  0
LINE
  5
30D
100
AcDbEntity
  8
0
100
AcDbLine
 62
4
  6
CONTINUOUS
 10
11.1724732386
 20
8.4420437936
 11
11.1724732386
 21
8.3840882406
  0
LINE
  5
30E
100
AcDbEntity
  8
0
100
AcDbLine
 62
7
  6
CONTINUOUS
 10
11.184
 20
11.4725969385
 11
11.184
 21
11.4880517526
  0
LINE
  5
30F
100
AcDbEntity
  8
0
100
AcDbLine
 62
7
  6
CONTINUOUS
 10
11.2052608998
 20
9.74270809
 11
11.2052608998
 21
10.4011683758
  0
LINE
  5
310
100
AcDbEntity
  8
0
100
AcDbLine
 62
7
  6
CONTINUOUS
 10
11.2294562012
 20
11.2259305846
 11
11.2294562012
 21
11.387556397
  0
LINE
  5
311
100
AcDbEntity
  8
0
100
AcDbLine
 62
4
  6
CONTINUOUS
 10
11.269065827
 20
8.4353450748
 11
11.269065827
 21
8.4063672983
  0
LINE
  5
312
100
AcDbEntity
  8
0
100
AcDbLine
 62
4
  6
CONTINUOUS
 10
10.770924079
 20
7.9201415062
 11
10.7874828006
 21
7.9355518834
  0
LINE
  5
313
100
AcDbEntity
  8
0
100
AcDbLine
 62
4
  6
CONTINUOUS
 10
10.2714023824
 20
7.9271855728
 11
10.2272457697
 21
7.9081695363
  0
LINE
  5
314
100
AcDbEntity
  8
0
100
AcDbLine
 62
7
  6
CONTINUOUS
 10
11.3134429121
 20
11.3070555225
 11
11.3134429121
 21
11.4686813348
  0
LINE
  5
315
100
AcDbEntity
  8
0
100
AcDbLine
 62
4
  6
CONTINUOUS
 10
11.32702138
 20
8.4023480671
 11
11.32702138
 21
8.3733702906
  0
LINE
  5
316
100
AcDbEntity
  8
0
100
AcDbLine
 62
7
  6
CONTINUOUS
 10
12.6406805816
 20
9.5476306229
 11
13.2230229525
 21
10.110130192
  0
LINE
  5
317
100
AcDbEntity
  8
0
100
AcDbLine
 62
4
  6
CONTINUOUS
 10
10.8675166305
 20
7.91344279
 11
10.8840753521
 21
7.9288531672
  0
LINE
  5
318
100
AcDbEntity
  8
0
100
AcDbLine
 62
4
  6
CONTINUOUS
 10
10.9254721836
 20
7.8266299114
 11
10.908913462
 21
7.8112195324
  0
LINE
  5
319
100
AcDbEntity
  8
0
100
AcDbLine
 62
4
  6
CONTINUOUS
 10
11.0165451796
 20
7.8203139777
 11
10.9999864581
 21
7.8049035987
  0
LINE
  5
31A
100
AcDbEntity
  8
0
100
AcDbLine
 62
4
  6
CONTINUOUS
 10
12.4064435547
 20
8.8877269526
 11
12.4209324426
 21
8.8963814012
  0
LINE
  5
31B
100
AcDbEntity
  8
0
100
AcDbLine
 62
4
  6
CONTINUOUS
 10
12.4499102185
 20
8.8557347534
 11
12.4354213305
 21
8.847080298
  0
LINE
  5
31C
100
AcDbEntity
  8
0
100
AcDbLine
 62
4
  6
CONTINUOUS
 10
12.4499102185
 20
8.7881199411
 11
12.4354213305
 21
8.77946549
  0
LINE
  5
31D
100
AcDbEntity
  8
0
100
AcDbLine
 62
4
  6
CONTINUOUS
 10
12.4354213305
 20
8.77946549
 11
12.4209324426
 21
8.7804702977
  0
LINE
  5
31E
100
AcDbEntity
  8
0
100
AcDbLine
 62
4
  6
CONTINUOUS
 10
12.4209324426
 20
8.8480851058
 11
12.4354213305
 21
8.847080298
  0
LINE
  5
31F
100
AcDbEntity
  8
0
100
AcDbLine
 62
4
  6
CONTINUOUS
 10
12.4209324426
 20
8.8963814012
 11
12.4354213305
 21
8.8953765934
  0
LINE
  5
320
100
AcDbEntity
  8
0
100
AcDbLine
 62
7
  6
CONTINUOUS
 10
11.594
 20
10.6264458645
 11
11.594
 21
11.2011717652
  0
LINE
  5
321
100
AcDbEntity
  8
0
100
AcDbLine
 62
7
  6
CONTINUOUS
 10
11.6786376693
 20
9.8534190801
 11
11.6786376693
 21
10.5236872523
  0
LINE
  5
322
100
AcDbEntity
  8
0
100
AcDbLine
 62
7
  6
CONTINUOUS
 10
11.6903478329
 20
9.8647302302
 11
11.6903478329
 21
10.5349984024
  0
LINE
  5
323
100
AcDbEntity
  8
0
100
AcDbLine
 62
7
  6
CONTINUOUS
 10
11.7795
 20
9.8601059328
 11
11.7795
 21
9.8672281201
  0
LINE
  5
324
100
AcDbEntity
  8
0
100
AcDbLine
 62
7
  6
CONTINUOUS
 10
12.9170452085
 20
9.3022053104
 11
12.9163969522
 21
9.3015907092
  0
LINE
  5
325
100
AcDbEntity
  8
0
100
AcDbLine
 62
4
  6
CONTINUOUS
 10
11.1904118387
 20
7.8413737425
 11
11.1462552295
 21
7.8223577074
  0
LINE
  5
326
100
AcDbEntity
  8
0
100
AcDbLine
 62
7
  6
CONTINUOUS
 10
10.3096521671
 20
9.9483585472
 11
10.4829202716
 21
9.7809946963
  0
LINE
  5
327
100
AcDbEntity
  8
0
100
AcDbLine
 62
4
  6
CONTINUOUS
 10
12.4571546624
 20
8.8648916058
 11
12.4499102185
 21
8.8557347534
  0
LINE
  5
328
100
AcDbEntity
  8
0
100
AcDbLine
 62
4
  6
CONTINUOUS
 10
12.4643991064
 20
8.8064336502
 11
12.4499102185
 21
8.7881199411
  0
LINE
  5
329
100
AcDbEntity
  8
0
100
AcDbLine
 62
7
  6
CONTINUOUS
 10
11.2691857956
 20
9.7474451777
 11
11.6786376693
 21
9.8534190801
  0
LINE
  5
32A
100
AcDbEntity
  8
0
100
AcDbLine
 62
7
  6
CONTINUOUS
 10
8.7769770475
 20
9.8155793731
 11
12.6406805816
 21
9.5476306229
  0
LINE
  5
32B
100
AcDbEntity
  8
0
100
AcDbLine
 62
7
  6
CONTINUOUS
 10
10.5319547826
 20
9.7715325151
 11
11.0357328914
 21
9.7365953846
  0
LINE
  5
32C
100
AcDbEntity
  8
0
100
AcDbLine
 62
4
  6
CONTINUOUS
 10
12.4209324426
 20
8.7804702977
 11
12.4064435547
 21
8.7911343644
  0
LINE
  5
32D
100
AcDbEntity
  8
0
100
AcDbLine
 62
4
  6
CONTINUOUS
 10
12.4354213305
 20
8.847080298
 11
12.4499102185
 21
8.8364162339
  0
LINE
  5
32E
100
AcDbEntity
  8
0
100
AcDbLine
 62
4
  6
CONTINUOUS
 10
12.4354213305
 20
8.8953765934
 11
12.4499102185
 21
8.8847125293
  0
LINE
  5
32F
100
AcDbEntity
  8
0
100
AcDbLine
 62
4
  6
CONTINUOUS
 10
12.4571546624
 20
8.8745508622
 11
12.4571546624
 21
8.8648916058
  0
LINE
  5
330
100
AcDbEntity
  8
0
100
AcDbLine
 62
4
  6
CONTINUOUS
 10
12.4643991064
 20
8.81609291
 11
12.4643991064
 21
8.8064336502
  0
LINE
  5
331
100
AcDbEntity
  8
0
100
AcDbLine
 62
4
  6
CONTINUOUS
 10
12.4064435547
 20
8.7911343644
 11
12.3991991107
 21
8.8012960272
  0
LINE
  5
332
100
AcDbEntity
  8
0
100
AcDbLine
 62
4
  6
CONTINUOUS
 10
12.4499102185
 20
8.8364162339
 11
12.4643991064
 21
8.81609291
  0
LINE
  5
333
100
AcDbEntity
  8
0
100
AcDbLine
 62
4
  6
CONTINUOUS
 10
12.4499102185
 20
8.8847125293
 11
12.4571546624
 21
8.8745508622
  0
LINE
  5
334
100
AcDbEntity
  8
0
100
AcDbLine
 62
7
  6
CONTINUOUS
 10
12.6406805816
 20
5.442445618
 11
12.6406805816
 21
9.5476306229
  0
LINE
  5
335
100
AcDbEntity
  8
0
100
AcDbLine
 62
7
  6
CONTINUOUS
 10
13.2230229525
 20
10.110130192
 11
11.6903478329
 21
10.2164215726
  0
LINE
  5
336
100
AcDbEntity
  8
0
100
AcDbLine
 62
7
  6
CONTINUOUS
 10
10.3096521671
 20
10.3121731422
 11
9.3593194184
 21
10.3780789422
  0
LINE
  5
337
100
AcDbEntity
  8
0
100
AcDbLine
 62
7
  6
CONTINUOUS
 10
11.69046721
 20
9.9608602036
 11
11.6903478329
 21
9.9609191736
  0
LINE
  5
338
100
AcDbEntity
  8
0
100
AcDbLine
 62
7
  6
CONTINUOUS
 10
13.2230229525
 20
6.0049451871
 11
13.2230229525
 21
10.110130192
  0
LINE
  5
339
100
AcDbEntity
  8
0
100
AcDbLine
 62
7
  6
CONTINUOUS
 10
11.1772716922
 20
11.500812196
 11
11.1474052658
 21
11.5286060411
  0
LINE
  5
33A
100
AcDbEntity
  8
0
100
AcDbLine
 62
7
  6
CONTINUOUS
 10
11.5722792673
 20
11.2423658052
 11
11.5125464145
 21
11.2979534953
  0
LINE
  5
33B
100
AcDbEntity
  8
0
100
AcDbLine
 62
7
  6
CONTINUOUS
 10
11.0712036508
 20
11.190700191
 11
11.0750684764
 21
11.1909691555
  0
LINE
  5
33C
100
AcDbEntity
  8
0
100
AcDbLine
 62
7
  6
CONTINUOUS
 10
10.7996618452
 20
11.2100545258
 11
10.8027675066
 21
11.2092500062
  0
LINE
  5
33D
100
AcDbEntity
  8
0
100
AcDbLine
 62
7
  6
CONTINUOUS
 10
11.2466906332
 20
11.5060498782
 11
11.2608966813
 21
11.4990323625
  0
LINE
  5
33E
100
AcDbEntity
  8
0
100
AcDbLine
 62
7
  6
CONTINUOUS
 10
12.6406805816
 20
5.442445618
 11
13.2230229525
 21
6.0049451871
  0
ARC
  5
33F
100
AcDbEntity
  8
0
100
AcDbCircle
 62
7
  6
CONTINUOUS
 10
11.010751391
 20
12.8893016707
 40
2.4957245926
100
AcDbArc
 50
273.4642627392
 51
274.4699993311
  0
ARC
  5
340
100
AcDbEntity
  8
0
100
AcDbCircle
 62
7
  6
CONTINUOUS
 10
10.7625105428
 20
11.4655725128
 40
1.0521381916
100
AcDbArc
 50
254.5893502397
 51
256.3890475954
  0
ARC
  5
341
100
AcDbEntity
  8
0
100
AcDbCircle
 62
7
  6
CONTINUOUS
 10
10.7491853867
 20
10.7461946948
 40
1.0012532889
100
AcDbArc
 50
254.57767062
 51
255.1371501476
  0
ARC
  5
342
100
AcDbEntity
  8
0
100
AcDbCircle
 62
7
  6
CONTINUOUS
 10
10.7595862479
 20
11.5889287355
 40
0.3388223711
100
AcDbArc
 50
345.7198599374
 51
346.6320519154
  0
ARC
  5
343
100
AcDbEntity
  8
0
100
AcDbCircle
 62
7
  6
CONTINUOUS
 10
11.5869364497
 20
10.6309420959
 40
0.1411124202
100
AcDbArc
 50
310.5299266376
 51
313.9323488091
  0
ARC
  5
344
100
AcDbEntity
  8
0
100
AcDbCircle
 62
7
  6
CONTINUOUS
 10
11.5869364497
 20
9.9606739237
 40
0.1411124202
100
AcDbArc
 50
310.5299266376
 51
313.932348809
  0
ARC
  5
345
100
AcDbEntity
  8
0
100
AcDbCircle
 62
7
  6
CONTINUOUS
 10
10.4103869515
 20
10.5256316812
 40
0.137131922
100
AcDbArc
 50
130.4805308011
 51
133.9817446455
  0
ARC
  5
346
100
AcDbEntity
  8
0
100
AcDbCircle
 62
7
  6
CONTINUOUS
 10
10.4833823464
 20
10.582766966
 40
0.118435726
100
AcDbArc
 50
131.0585480723
 51
133.9892579506
  0
ARC
  5
347
100
AcDbEntity
  8
0
100
AcDbCircle
 62
7
  6
CONTINUOUS
 10
11.7268456223
 20
9.8672413692
 40
0.0526543326
100
AcDbArc
 50
351.8600356266
 51
359.9859631851
  0
ARC
  5
348
100
AcDbEntity
  8
0
100
AcDbCircle
 62
7
  6
CONTINUOUS
 10
10.2731518776
 20
9.8672410486
 40
0.0526518325
100
AcDbArc
 50
180.014449022
 51
188.2100652913
  0
ARC
  5
349
100
AcDbEntity
  8
0
100
AcDbCircle
 62
7
  6
CONTINUOUS
 10
12.9026582136
 20
9.2673572408
 40
0.0147449102
100
AcDbArc
 50
86.0363634595
 51
92.4239511621
  0
ARC
  5
34A
100
AcDbEntity
  8
0
100
AcDbCircle
 62
7
  6
CONTINUOUS
 10
12.8721815058
 20
8.8278998619
 40
0.0147421829
100
AcDbArc
 50
259.5412445115
 51
266.0302990359
  0
SPLINE
  5
34B
100
AcDbEntity
  8
0
100
AcDbSpline
 62
7
  6
CONTINUOUS
 70
0
 71
3
 72
12
 73
8
 74
0
 42
0.0000001
 43
0.0000001
 44
0.0000000001
 40
0.0
 40
0.0
 40
0.0
 40
0.0
 40
0.22983306
 40
0.4721776983
 40
0.5984966803
 40
0.7284151433
 40
1.0
 40
1.0
 40
1.0
 40
1.0
 10
11.2551047395
 20
11.2303683559
 30
0.0
 10
11.2564577996
 20
11.2310358478
 30
0.0
 10
11.2591770918
 20
11.2325328991
 30
0.0
 10
11.2624515658
 20
11.2347114836
 30
0.0
 10
11.2650731936
 20
11.2366718673
 30
0.0
 10
11.2677743017
 20
11.2388428904
 30
0.0
 10
11.2697414871
 20
11.2406010029
 30
0.0
 10
11.2710321362
 20
11.2418309217
 30
0.0
  0
LINE
  5
34C
100
AcDbEntity
  8
0
100
AcDbLine
 62
7
  6
CONTINUOUS
 10
10.3151585486
 20
10.6243064769
 11
10.3096521671
 21
10.6186267194
  0
SPLINE
  5
34D
100
AcDbEntity
  8
0
100
AcDbSpline
 62
7
  6
CONTINUOUS
 70
0
 71
3
 72
18
 73
14
 74
0
 42
0.0000001
 43
0.0000001
 44
0.0000000001
 40
0.0
 40
0.0
 40
0.0
 40
0.0
 40
0.1480345107
 40
0.2876653479
 40
0.419565572
 40
0.4828974688
 40
0.5446382304
 40
0.6638657971
 40
0.7785236353
 40
0.8345983572
 40
0.8900706641
 40
0.9451373284
 40
1.0
 40
1.0
 40
1.0
 40
1.0
 10
10.2470607738
 20
9.9194446328
 30
0.0
 10
10.2449242499
 20
9.9173809091
 30
0.0
 10
10.2408977472
 20
9.9132372689
 30
0.0
 10
10.2354838146
 20
9.9067796102
 30
0.0
 10
10.2316004742
 20
9.9012843092
 30
0.0
 10
10.2289261459
 20
9.8968734584
 30
0.0
 10
10.226590563
 20
9.8925616207
 30
0.0
 10
10.2241634781
 20
9.8871359677
 30
0.0
 10
10.222391295
 20
9.8815791681
 30
0.0
 10
10.2214074907
 20
9.8771455621
 30
0.0
 10
10.2208839951
 20
9.8738412612
 30
0.0
 10
10.2205698969
 20
9.8705351331
 30
0.0
 10
10.2205000439
 20
9.8683286485
 30
0.0
 10
10.2205000467
 20
9.8672277707
 30
0.0
  0
SPLINE
  5
34E
100
AcDbEntity
  8
0
100
AcDbSpline
 62
7
  6
CONTINUOUS
 70
0
 71
3
 72
15
 73
11
 74
0
 42
0.0000001
 43
0.0000001
 44
0.0000000001
 40
0.0
 40
0.0
 40
0.0
 40
0.0
 40
0.1054828403
 40
0.2163061633
 40
0.3326232431
 40
0.4545563261
 40
0.5822026436
 40
0.715634463
 40
0.854893901
 40
1.0
 40
1.0
 40
1.0
 40
1.0
 10
10.2470607738
 20
9.9194446328
 30
0.0
 10
10.2489634551
 20
9.9212824819
 30
0.0
 10
10.2529721648
 20
9.9249416167
 30
0.0
 10
10.2594078516
 20
9.9302533292
 30
0.0
 10
10.2664065821
 20
9.9355166855
 30
0.0
 10
10.2739626487
 20
9.9407272595
 30
0.0
 10
10.2820703621
 20
9.9458815768
 30
0.0
 10
10.2907239211
 20
9.9509757981
 30
0.0
 10
10.2999167893
 20
9.9560062819
 30
0.0
 10
10.3062698787
 20
9.9592483851
 30
0.0
 10
10.3095325545
 20
9.9608600876
 30
0.0
  0
SPLINE
  5
34F
100
AcDbEntity
  8
0
100
AcDbSpline
 62
7
  6
CONTINUOUS
 70
0
 71
3
 72
16
 73
12
 74
0
 42
0.0000001
 43
0.0000001
 44
0.0000000001
 40
0.0
 40
0.0
 40
0.0
 40
0.0
 40
0.1480465501
 40
0.2876928288
 40
0.419610374
 40
0.4829496887
 40
0.5446972201
 40
0.663937031
 40
0.7786062397
 40
0.8901132773
 40
1.0
 40
1.0
 40
1.0
 40
1.0
 10
10.4262400252
 20
11.2409621546
 30
0.0
 10
10.4246120067
 20
11.2393896094
 30
0.0
 10
10.4215438022
 20
11.236232125
 30
0.0
 10
10.4174183119
 20
11.2313113046
 30
0.0
 10
10.4144590464
 20
11.2271238097
 30
0.0
 10
10.4124211298
 20
11.2237626236
 30
0.0
 10
10.4106413779
 20
11.2204769832
 30
0.0
 10
10.4087917862
 20
11.2163423537
 30
0.0
 10
10.4071834042
 20
11.2112997439
 30
0.0
 10
10.4062158031
 20
11.2062410493
 30
0.0
 10
10.406000042
 20
11.2028523678
 30
0.0
 10
10.4060000374
 20
11.2011723122
 30
0.0
  0
SPLINE
  5
350
100
AcDbEntity
  8
0
100
AcDbSpline
 62
7
  6
CONTINUOUS
 70
0
 71
3
 72
21
 73
17
 74
0
 42
0.0000001
 43
0.0000001
 44
0.0000000001
 40
0.0
 40
0.0
 40
0.0
 40
0.0
 40
0.1504269886
 40
0.2233723654
 40
0.2946908257
 40
0.3642992193
 40
0.4321159082
 40
0.4980636945
 40
0.5620724188
 40
0.6240804461
 40
0.6840384075
 40
0.7419102996
 40
0.7976776014
 40
0.8513402714
 40
0.9029193655
 40
1.0
 40
1.0
 40
1.0
 40
1.0
 10
11.6903478329
 20
10.5349984024
 30
0.0
 10
11.686500753
 20
10.5426278743
 30
0.0
 10
11.6806676497
 20
10.5538973112
 30
0.0
 10
11.6726804048
 20
10.5686082253
 30
0.0
 10
11.6667304321
 20
10.5792002666
 30
0.0
 10
11.6607600745
 20
10.589445082
 30
0.0
 10
11.6547700731
 20
10.5993234526
 30
0.0
 10
11.6487612733
 20
10.6088161497
 30
0.0
 10
11.642735068
 20
10.6179046092
 30
0.0
 10
11.6366927342
 20
10.626570879
 30
0.0
 10
11.6306362321
 20
10.6347984208
 30
0.0
 10
11.6245673068
 20
10.6425720417
 30
0.0
 10
11.6184884246
 20
10.6498785493
 30
0.0
 10
11.6124014838
 20
10.6567073789
 30
0.0
 10
11.6044394192
 20
10.6649964076
 30
0.0
 10
11.5982273632
 20
10.6707370624
 30
0.0
 10
11.5939981873
 20
10.6742757303
 30
0.0
  0
SPLINE
  5
351
100
AcDbEntity
  8
0
100
AcDbSpline
 62
7
  6
CONTINUOUS
 70
0
 71
3
 72
17
 73
13
 74
0
 42
0.0000001
 43
0.0000001
 44
0.0000000001
 40
0.0
 40
0.0
 40
0.0
 40
0.0
 40
0.1512359611
 40
0.2960797327
 40
0.4339038658
 40
0.5641317048
 40
0.6862490371
 40
0.7998146063
 40
0.8532800425
 40
0.9044827915
 40
0.9533954606
 40
1.0
 40
1.0
 40
1.0
 40
1.0
 10
11.1378997757
 20
11.5352215049
 30
0.0
 10
11.1435371695
 20
11.5343899703
 30
0.0
 10
11.1545552083
 20
11.5326328488
 30
0.0
 10
11.1706302346
 20
11.5296420164
 30
0.0
 10
11.1858407945
 20
11.5263642699
 30
0.0
 10
11.2001102483
 20
11.5228164999
 30
0.0
 10
11.2133666565
 20
11.5190169485
 30
0.0
 10
11.2237131783
 20
11.5155917921
 30
0.0
 10
11.2314211984
 20
11.5127259301
 30
0.0
 10
11.2367917898
 20
11.5105691596
 30
0.0
 10
11.2418621647
 20
11.5083644092
 30
0.0
 10
11.2451171596
 20
11.5068271502
 30
0.0
 10
11.2466915462
 20
11.5060494259
 30
0.0
  0
SPLINE
  5
352
100
AcDbEntity
  8
0
100
AcDbSpline
 62
7
  6
CONTINUOUS
 70
0
 71
3
 72
18
 73
14
 74
0
 42
0.0000001
 43
0.0000001
 44
0.0000000001
 40
0.0
 40
0.0
 40
0.0
 40
0.0
 40
0.0489678415
 40
0.099950135
 40
0.1527987925
 40
0.2075077401
 40
0.3226747218
 40
0.3830822028
 40
0.4452894349
 40
0.5748735753
 40
0.710913477
 40
0.8528201575
 40
1.0
 40
1.0
 40
1.0
 40
1.0
 10
11.272067202
 20
11.2428363516
 30
0.0
 10
11.2729617569
 20
11.2437126938
 30
0.0
 10
11.2747460943
 20
11.2455441741
 30
0.0
 10
11.2773646813
 20
11.2484455109
 30
0.0
 10
11.2799853264
 20
11.2515399786
 30
0.0
 10
11.2835374935
 20
11.2559933752
 30
0.0
 10
11.2870095839
 20
11.2607540776
 30
0.0
 10
11.29042173
 20
11.2657877551
 30
0.0
 10
11.293927032
 20
11.2712022114
 30
0.0
 10
11.2982757974
 20
11.2783721979
 30
0.0
 10
11.3033932371
 20
11.2874528857
 30
0.0
 10
11.3084774221
 20
11.297064016
 30
0.0
 10
11.3117883453
 20
11.3036747842
 30
0.0
 10
11.3134429121
 20
11.3070555225
 30
0.0
  0
SPLINE
  5
353
100
AcDbEntity
  8
0
100
AcDbSpline
 62
7
  6
CONTINUOUS
 70
0
 71
3
 72
22
 73
18
 74
0
 42
0.0000001
 43
0.0000001
 44
0.0000000001
 40
0.0
 40
0.0
 40
0.0
 40
0.0
 40
0.1609407188
 40
0.2382958339
 40
0.3133569846
 40
0.3859650162
 40
0.4559671099
 40
0.5232259926
 40
0.5876267806
 40
0.6490859111
 40
0.7075616904
 40
0.7630583107
 40
0.8156377422
 40
0.8654187188
 40
0.9125774533
 40
0.9573463221
 40
1.0
 40
1.0
 40
1.0
 40
1.0
 10
10.6865570879
 20
11.4252065784
 30
0.0
 10
10.6888646966
 20
11.4299216623
 30
0.0
 10
10.6923705824
 20
11.4368604376
 30
0.0
 10
10.6972110517
 20
11.4458630135
 30
0.0
 10
10.7008103466
 20
11.4522602327
 30
0.0
 10
10.7044259061
 20
11.4583713019
 30
0.0
 10
10.7080570564
 20
11.4641751969
 30
0.0
 10
10.7117024968
 20
11.4696515093
 30
0.0
 10
10.7153607455
 20
11.4747809206
 30
0.0
 10
10.7190299975
 20
11.479545992
 30
0.0
 10
10.722707873
 20
11.4839320458
 30
0.0
 10
10.7263922485
 20
11.487927295
 30
0.0
 10
10.7300803034
 20
11.4915241241
 30
0.0
 10
10.7337693596
 20
11.4947188097
 30
0.0
 10
10.7374569086
 20
11.4975117482
 30
0.0
 10
10.741139519
 20
11.4999078383
 30
0.0
 10
10.7436451764
 20
11.5012763947
 30
0.0
 10
10.7448927304
 20
11.5018921892
 30
0.0
  0
SPLINE
  5
354
100
AcDbEntity
  8
0
100
AcDbSpline
 62
7
  6
CONTINUOUS
 70
0
 71
3
 72
10
 73
6
 74
0
 42
0.0000001
 43
0.0000001
 44
0.0000000001
 40
0.0
 40
0.0
 40
0.0
 40
0.0
 40
0.2539425502
 40
0.5054168905
 40
1.0
 40
1.0
 40
1.0
 40
1.0
 10
10.6865570879
 20
11.263580766
 30
0.0
 10
10.6908645088
 20
11.2607673473
 30
0.0
 10
10.6995034241
 20
11.255267339
 30
0.0
 10
10.7168761225
 20
11.2448420212
 30
0.0
 10
10.730180892
 20
11.2376384882
 30
0.0
 10
10.7391642523
 20
11.2331997227
 30
0.0
  0
SPLINE
  5
355
100
AcDbEntity
  8
0
100
AcDbSpline
 62
7
  6
CONTINUOUS
 70
0
 71
3
 72
29
 73
25
 74
0
 42
0.0000001
 43
0.0000001
 44
0.0000000001
 40
0.0
 40
0.0
 40
0.0
 40
0.0
 40
0.0793864669
 40
0.1600161256
 40
0.2410531655
 40
0.3216754867
 40
0.4010552147
 40
0.4783857229
 40
0.552886288
 40
0.6238161111
 40
0.6904857372
 40
0.7522709392
 40
0.7811614091
 40
0.8086348185
 40
0.834640622
 40
0.8591345878
 40
0.8820844949
 40
0.9034677577
 40
0.9232772137
 40
0.9415226936
 40
0.9582359587
 40
0.9734790635
 40
0.9873503805
 40
1.0
 40
1.0
 40
1.0
 40
1.0
 10
10.9739887074
 20
11.4928704743
 30
0.0
 10
10.9774191142
 20
11.4926325748
 30
0.0
 10
10.9843410015
 20
11.4922539274
 30
0.0
 10
10.9947796969
 20
11.4919718367
 30
0.0
 10
11.0052758082
 20
11.4919726344
 30
0.0
 10
11.0157139231
 20
11.4922561509
 30
0.0
 10
11.0259799693
 20
11.492819318
 30
0.0
 10
11.0359614118
 20
11.4936557414
 30
0.0
 10
11.0455490514
 20
11.4947560491
 30
0.0
 10
11.0546381804
 20
11.4961078007
 30
0.0
 10
11.0631294872
 20
11.4976958114
 30
0.0
 10
11.0697720925
 20
11.4992333649
 30
0.0
 10
11.0747100742
 20
11.5005796277
 30
0.0
 10
11.0781251829
 20
11.5016142383
 30
0.0
 10
11.081326226
 20
11.5026933182
 30
0.0
 10
11.0843045104
 20
11.5038141707
 30
0.0
 10
11.087052079
 20
11.5049734917
 30
0.0
 10
11.0895615906
 20
11.5061683218
 30
0.0
 10
11.0918264727
 20
11.5073954048
 30
0.0
 10
11.0938409331
 20
11.5086515994
 30
0.0
 10
11.0955997812
 20
11.5099340082
 30
0.0
 10
11.0970989034
 20
11.5112398513
 30
0.0
 10
11.0983339098
 20
11.5125666437
 30
0.0
 10
11.0990068132
 20
11.5135032064
 30
0.0
 10
11.0992904269
 20
11.513972015
 30
0.0
  0
SPLINE
  5
356
100
AcDbEntity
  8
0
100
AcDbSpline
 62
7
  6
CONTINUOUS
 70
0
 71
3
 72
29
 73
25
 74
0
 42
0.0000001
 43
0.0000001
 44
0.0000000001
 40
0.0
 40
0.0
 40
0.0
 40
0.0
 40
0.0761046997
 40
0.1533681111
 40
0.2310995682
 40
0.3086134789
 40
0.385220541
 40
0.4602444706
 40
0.5330265029
 40
0.6029348521
 40
0.6693726761
 40
0.7317877571
 40
0.7613303593
 40
0.7896862171
 40
0.8168032419
 40
0.8426357713
 40
0.8671430833
 40
0.8902918937
 40
0.9120566636
 40
0.9324208315
 40
0.9513797612
 40
0.9689414104
 40
0.9851324517
 40
1.0
 40
1.0
 40
1.0
 40
1.0
 10
11.0395992812
 20
11.5562454257
 30
0.0
 10
11.0347411143
 20
11.5565823408
 30
0.0
 10
11.0249411526
 20
11.5571283905
 30
0.0
 10
11.0101584925
 20
11.5575700308
 30
0.0
 10
10.9952791349
 20
11.5576384124
 30
0.0
 10
10.9804447805
 20
11.5573329898
 30
0.0
 10
10.9657960758
 20
11.5566566388
 30
0.0
 10
10.9514721996
 20
11.5556159788
 30
0.0
 10
10.9376090622
 20
11.5542210839
 30
0.0
 10
10.9243380496
 20
11.5524855697
 30
0.0
 10
10.9117850224
 20
11.5504262396
 30
0.0
 10
10.9018466362
 20
11.5484222748
 30
0.0
 10
10.894351756
 20
11.5466601205
 30
0.0
 10
10.8890852699
 20
11.5452949688
 30
0.0
 10
10.8840823717
 20
11.5438651848
 30
0.0
 10
10.8793548535
 20
11.5423743106
 30
0.0
 10
10.8749138572
 20
11.5408258137
 30
0.0
 10
10.8707697941
 20
11.5392234221
 30
0.0
 10
10.866932306
 20
11.5375709694
 30
0.0
 10
10.8634102929
 20
11.5358722032
 30
0.0
 10
10.8602117564
 20
11.5341312592
 30
0.0
 10
10.8573439114
 20
11.5323516686
 30
0.0
 10
10.8548132501
 20
11.5305377765
 30
0.0
 10
10.8532917266
 20
11.5292545959
 30
0.0
 10
10.8525952778
 20
11.5286064959
 30
0.0
  0
SPLINE
  5
357
100
AcDbEntity
  8
0
100
AcDbSpline
 62
7
  6
CONTINUOUS
 70
0
 71
3
 72
15
 73
11
 74
0
 42
0.0000001
 43
0.0000001
 44
0.0000000001
 40
0.0
 40
0.0
 40
0.0
 40
0.0
 40
0.1492593393
 40
0.2896973215
 40
0.422025918
 40
0.5471282788
 40
0.6660922353
 40
0.7802113127
 40
0.890967562
 40
1.0
 40
1.0
 40
1.0
 40
1.0
 10
10.8227283138
 20
11.5008121956
 30
0.0
 10
10.8221878433
 20
11.5003092436
 30
0.0
 10
10.8211693275
 20
11.4992993929
 30
0.0
 10
10.8197980365
 20
11.4977227661
 30
0.0
 10
10.8186329985
 20
11.4961334789
 30
0.0
 10
10.8176761724
 20
11.4945328392
 30
0.0
 10
10.8169292617
 20
11.4929223705
 30
0.0
 10
10.8163938698
 20
11.491303767
 30
0.0
 10
10.8160718568
 20
11.4896795241
 30
0.0
 10
10.8160000578
 20
11.4885910645
 30
0.0
 10
10.8160000578
 20
11.4880517526
 30
0.0
  0
SPLINE
  5
358
100
AcDbEntity
  8
0
100
AcDbSpline
 62
7
  6
CONTINUOUS
 70
0
 71
3
 72
22
 73
18
 74
0
 42
0.0000001
 43
0.0000001
 44
0.0000000001
 40
0.0
 40
0.0
 40
0.0
 40
0.0
 40
0.0341418509
 40
0.0723196122
 40
0.114678847
 40
0.1612667997
 40
0.212056404
 40
0.2669633623
 40
0.3258606787
 40
0.388582933
 40
0.4549358228
 40
0.5246980826
 40
0.5976265306
 40
0.6734593248
 40
0.7519120165
 40
0.8326940674
 40
1.0
 40
1.0
 40
1.0
 40
1.0
 10
11.1474054351
 20
11.528605834
 30
0.0
 10
11.1464664594
 20
11.5294796537
 30
0.0
 10
11.1443554183
 20
11.5312008302
 30
0.0
 10
11.1407608684
 20
11.5335847804
 30
0.0
 10
11.1365806416
 20
11.5359033253
 30
0.0
 10
11.1318312279
 20
11.5381470564
 30
0.0
 10
11.1265310203
 20
11.540307274
 30
0.0
 10
11.1207014338
 20
11.5423750994
 30
0.0
 10
11.1143662301
 20
11.5443416687
 30
0.0
 10
11.1075515927
 20
11.546198812
 30
0.0
 10
11.1002858152
 20
11.5479385249
 30
0.0
 10
11.0925991828
 20
11.5495534112
 30
0.0
 10
11.0845237979
 20
11.5510366718
 30
0.0
 10
11.0760935777
 20
11.5523818114
 30
0.0
 10
11.0673438
 20
11.5535833621
 30
0.0
 10
11.0551579196
 20
11.5550033396
 30
0.0
 10
11.0458697
 20
11.5558105707
 30
0.0
 10
11.0395992812
 20
11.5562454257
 30
0.0
  0
SPLINE
  5
359
100
AcDbEntity
  8
0
100
AcDbSpline
 62
7
  6
CONTINUOUS
 70
0
 71
3
 72
15
 73
11
 74
0
 42
0.0000001
 43
0.0000001
 44
0.0000000001
 40
0.0
 40
0.0
 40
0.0
 40
0.0
 40
0.109032438
 40
0.2197886873
 40
0.3339077647
 40
0.4528717213
 40
0.5779740821
 40
0.7103026787
 40
0.850740661
 40
1.0
 40
1.0
 40
1.0
 40
1.0
 10
11.1839999422
 20
11.4880517526
 30
0.0
 10
11.1839999422
 20
11.4885910645
 30
0.0
 10
11.1839281432
 20
11.4896795241
 30
0.0
 10
11.1836061302
 20
11.491303767
 30
0.0
 10
11.1830707383
 20
11.4929223705
 30
0.0
 10
11.1823238276
 20
11.4945328392
 30
0.0
 10
11.1813670015
 20
11.4961334789
 30
0.0
 10
11.1802019635
 20
11.4977227661
 30
0.0
 10
11.1788306725
 20
11.4992993929
 30
0.0
 10
11.1778121567
 20
11.5003092436
 30
0.0
 10
11.1772716862
 20
11.5008121956
 30
0.0
  0
SPLINE
  5
35A
100
AcDbEntity
  8
0
100
AcDbSpline
 62
7
  6
CONTINUOUS
 70
0
 71
3
 72
25
 73
21
 74
0
 42
0.0000001
 43
0.0000001
 44
0.0000000001
 40
0.0
 40
0.0
 40
0.0
 40
0.0
 40
0.0295250364
 40
0.045778963
 40
0.0631219382
 40
0.0816097644
 40
0.1012842182
 40
0.1221728106
 40
0.1442926556
 40
0.1922503987
 40
0.2451560686
 40
0.3029141519
 40
0.365359346
 40
0.4322756095
 40
0.5034022864
 40
0.5784426196
 40
0.6570702121
 40
0.7389241274
 40
0.8236325023
 40
1.0
 40
1.0
 40
1.0
 40
1.0
 10
10.9007097928
 20
11.5139717291
 30
0.0
 10
10.9011065535
 20
11.5133159035
 30
0.0
 10
10.9018347453
 20
11.5123654439
 30
0.0
 10
10.9029777252
 20
11.5111905063
 30
0.0
 10
10.9039881528
 20
11.5102900513
 30
0.0
 10
10.9051224866
 20
11.5094001746
 30
0.0
 10
10.9063796912
 20
11.5085216671
 30
0.0
 10
10.9077580501
 20
11.5076555479
 30
0.0
 10
10.9098109574
 20
11.5064869674
 30
0.0
 10
10.9126775094
 20
11.5050742808
 30
0.0
 10
10.9164797952
 20
11.5034876671
 30
0.0
 10
10.920713618
 20
11.5019752095
 30
0.0
 10
10.9253574122
 20
11.5005445679
 30
0.0
 10
10.9303876888
 20
11.4992033591
 30
0.0
 10
10.9357786623
 20
11.4979586533
 30
0.0
 10
10.9415026169
 20
11.4968169308
 30
0.0
 10
10.9475299036
 20
11.4957844069
 30
0.0
 10
10.9538293935
 20
11.494866266
 30
0.0
 10
10.9626671275
 20
11.493786935
 30
0.0
 10
10.9694209829
 20
11.4931872471
 30
0.0
 10
10.9739887074
 20
11.4928704743
 30
0.0
  0
SPLINE
  5
35B
100
AcDbEntity
  8
0
100
AcDbSpline
 62
7
  6
CONTINUOUS
 70
0
 71
3
 72
18
 73
14
 74
0
 42
0.0000001
 43
0.0000001
 44
0.0000000001
 40
0.0
 40
0.0
 40
0.0
 40
0.0
 40
0.046599565
 40
0.0955085957
 40
0.1467085116
 40
0.2001711201
 40
0.2558627027
 40
0.3137410606
 40
0.4358581734
 40
0.5660871825
 40
0.7039135197
 40
0.8487609968
 40
1.0
 40
1.0
 40
1.0
 40
1.0
 10
10.7533082946
 20
11.5060493218
 30
0.0
 10
10.754883355
 20
11.5068273812
 30
0.0
 10
10.7581397855
 20
11.5083653521
 30
0.0
 10
10.7632125347
 20
11.5105709958
 30
0.0
 10
10.7685857438
 20
11.5127285829
 30
0.0
 10
10.7742525521
 20
11.5148354656
 30
0.0
 10
10.7802059024
 20
11.5168888461
 30
0.0
 10
10.7886677686
 20
11.5196005837
 30
0.0
 10
10.7999135589
 20
11.5228228281
 30
0.0
 10
10.8141907838
 20
11.5263716595
 30
0.0
 10
10.8294100339
 20
11.529650164
 30
0.0
 10
10.8454942072
 20
11.5326414477
 30
0.0
 10
10.8565185459
 20
11.5343986328
 30
0.0
 10
10.8621591361
 20
11.5352301886
 30
0.0
  0
SPLINE
  5
35C
100
AcDbEntity
  8
0
100
AcDbSpline
 62
7
  6
CONTINUOUS
 70
0
 71
3
 72
10
 73
6
 74
0
 42
0.0000001
 43
0.0000001
 44
0.0000000001
 40
0.0
 40
0.0
 40
0.0
 40
0.0
 40
0.4945818321
 40
0.746056728
 40
1.0
 40
1.0
 40
1.0
 40
1.0
 10
11.2608244414
 20
11.4990680342
 30
0.0
 10
11.269809705
 20
11.4946284753
 30
0.0
 10
11.2831174563
 20
11.487423871
 30
0.0
 10
11.3004938299
 20
11.4769964815
 30
0.0
 10
11.3091345831
 20
11.4714953467
 30
0.0
 10
11.3134429121
 20
11.4686813348
 30
0.0
  0
SPLINE
  5
35D
100
AcDbEntity
  8
0
100
AcDbSpline
 62
7
  6
CONTINUOUS
 70
0
 71
3
 72
23
 73
19
 74
0
 42
0.0000001
 43
0.0000001
 44
0.0000000001
 40
0.0
 40
0.0
 40
0.0
 40
0.0
 40
0.0393951462
 40
0.0817953987
 40
0.1273045512
 40
0.1759876581
 40
0.227877028
 40
0.2829794003
 40
0.3412794494
 40
0.4027437629
 40
0.4673232451
 40
0.5349552023
 40
0.605565412
 40
0.6790685806
 40
0.7553705309
 40
0.8343679136
 40
0.9159504877
 40
1.0
 40
1.0
 40
1.0
 40
1.0
 10
11.5125456279
 20
11.2979541771
 30
0.0
 10
11.5104821483
 20
11.2998744411
 30
0.0
 10
11.5060302518
 20
11.3036836171
 30
0.0
 10
11.498711324
 20
11.3091156545
 30
0.0
 10
11.4905243311
 20
11.3144628408
 30
0.0
 10
11.4814833392
 20
11.3197159928
 30
0.0
 10
11.4716032999
 20
11.3248668066
 30
0.0
 10
11.4609008892
 20
11.3299064517
 30
0.0
 10
11.4493943165
 20
11.3348263666
 30
0.0
 10
11.4371032979
 20
11.3396180086
 30
0.0
 10
11.4240490013
 20
11.3442730086
 30
0.0
 10
11.4102540049
 20
11.3487832682
 30
0.0
 10
11.3957422145
 20
11.3531407957
 30
0.0
 10
11.3805388592
 20
11.3573380429
 30
0.0
 10
11.3646703947
 20
11.3613674975
 30
0.0
 10
11.3481644651
 20
11.3652222218
 30
0.0
 10
11.3310499026
 20
11.3688952646
 30
0.0
 10
11.3194216029
 20
11.3711856907
 30
0.0
 10
11.3135121869
 20
11.3723013296
 30
0.0
  0
SPLINE
  5
35E
100
AcDbEntity
  8
0
100
AcDbSpline
 62
7
  6
CONTINUOUS
 70
0
 71
3
 72
23
 73
19
 74
0
 42
0.0000001
 43
0.0000001
 44
0.0000000001
 40
0.0
 40
0.0
 40
0.0
 40
0.0
 40
0.0840448348
 40
0.1656221817
 40
0.2446148952
 40
0.3209120206
 40
0.3944111517
 40
0.4650176884
 40
0.5326469949
 40
0.5972245415
 40
0.6586879643
 40
0.7169883758
 40
0.7720924677
 40
0.8239849352
 40
0.8726714541
 40
0.9181865404
 40
0.9605966893
 40
1.0
 40
1.0
 40
1.0
 40
1.0
 10
10.6863088968
 20
11.3722675209
 30
0.0
 10
10.6804050499
 20
11.3711519682
 30
0.0
 10
10.6687877643
 20
11.3688618451
 30
0.0
 10
10.6516894834
 20
11.3651893977
 30
0.0
 10
10.6351993069
 20
11.361335724
 30
0.0
 10
10.6193460189
 20
11.3573074448
 30
0.0
 10
10.6041571803
 20
11.3531117779
 30
0.0
 10
10.5896592062
 20
11.3487559678
 30
0.0
 10
10.5758772478
 20
11.3442477587
 30
0.0
 10
10.5628351871
 20
11.3395949755
 30
0.0
 10
10.5505555313
 20
11.3348058023
 30
0.0
 10
10.5390593906
 20
11.3298885528
 30
0.0
 10
10.5283664675
 20
11.3248516933
 30
0.0
 10
10.5184949401
 20
11.3197039386
 30
0.0
 10
10.5094614543
 20
11.3144539455
 30
0.0
 10
10.5012806662
 20
11.3091100684
 30
0.0
 10
10.4939670352
 20
11.30368113
 30
0.0
 10
10.4895179531
 20
11.2998744219
 30
0.0
 10
10.4874557429
 20
11.2979554831
 30
0.0
  0
SPLINE
  5
35F
100
AcDbEntity
  8
0
100
AcDbSpline
 62
7
  6
CONTINUOUS
 70
0
 71
3
 72
22
 73
18
 74
0
 42
0.0000001
 43
0.0000001
 44
0.0000000001
 40
0.0
 40
0.0
 40
0.0
 40
0.0
 40
0.0879356545
 40
0.1719927448
 40
0.2521886945
 40
0.3285572651
 40
0.4011547089
 40
0.4700591415
 40
0.5353781244
 40
0.5972514358
 40
0.6558566334
 40
0.7114169097
 40
0.8144471025
 40
0.8627357606
 40
0.909416532
 40
0.9549906398
 40
1.0
 40
1.0
 40
1.0
 40
1.0
 10
11.6904676918
 20
9.9608599533
 30
0.0
 10
11.6940263978
 20
9.9591020281
 30
0.0
 10
11.7009384857
 20
9.9555644326
 30
0.0
 10
11.7109037138
 20
9.9500582614
 30
0.0
 10
11.7202237873
 20
9.9444767878
 30
0.0
 10
11.728890219
 20
9.9388247273
 30
0.0
 10
11.736895536
 20
9.9331072149
 30
0.0
 10
11.7442325273
 20
9.9273288805
 30
0.0
 10
11.7508948682
 20
9.921494483
 30
0.0
 10
11.7568763895
 20
9.9156091312
 30
0.0
 10
11.762172375
 20
9.9096756384
 30
0.0
 10
11.7681598033
 20
9.9019067966
 30
0.0
 10
11.7729851024
 20
9.8938431801
 30
0.0
 10
11.7763925412
 20
9.8855663378
 30
0.0
 10
11.7781834943
 20
9.8794671484
 30
0.0
 10
11.779260059
 20
9.8733527641
 30
0.0
 10
11.7794999481
 20
9.8692600908
 30
0.0
 10
11.7794999533
 20
9.8672284695
 30
0.0
  0
SPLINE
  5
360
100
AcDbEntity
  8
0
100
AcDbSpline
 62
7
  6
CONTINUOUS
 70
0
 71
3
 72
9
 73
5
 74
0
 42
0.0000001
 43
0.0000001
 44
0.0000000001
 40
0.0
 40
0.0
 40
0.0
 40
0.0
 40
0.4960737723
 40
1.0
 40
1.0
 40
1.0
 40
1.0
 10
10.4059724566
 20
10.6786165614
 30
0.0
 10
10.3916216077
 20
10.671219531
 30
0.0
 10
10.3630718493
 20
10.6555653638
 30
0.0
 10
10.3352314806
 20
10.6386915596
 30
0.0
 10
10.3213623307
 20
10.6299378695
 30
0.0
  0
SPLINE
  5
361
100
AcDbEntity
  8
0
100
AcDbSpline
 62
7
  6
CONTINUOUS
 70
0
 71
3
 72
16
 73
12
 74
0
 42
0.0000001
 43
0.0000001
 44
0.0000000001
 40
0.0
 40
0.0
 40
0.0
 40
0.0
 40
0.1090281684
 40
0.2197798618
 40
0.3338935352
 40
0.4528530584
 40
0.5145823825
 40
0.5779899011
 40
0.7103110755
 40
0.8507453423
 40
1.0
 40
1.0
 40
1.0
 40
1.0
 10
11.5939999626
 20
11.2011712183
 30
0.0
 10
11.5939999674
 20
11.2029122917
 30
0.0
 10
11.5937681059
 20
11.2064261758
 30
0.0
 10
11.5927285581
 20
11.2116697796
 30
0.0
 10
11.5910004392
 20
11.2168950414
 30
0.0
 10
11.5890154501
 20
11.2211748626
 30
0.0
 10
11.5871061457
 20
11.224574703
 30
0.0
 10
11.5849171416
 20
11.2280566574
 30
0.0
 10
11.5817389914
 20
11.2323926813
 30
0.0
 10
11.5773119839
 20
11.2374821647
 30
0.0
 10
11.5740237691
 20
11.2407423235
 30
0.0
 10
11.5722789688
 20
11.2423660572
 30
0.0
  0
SPLINE
  5
362
100
AcDbEntity
  8
0
100
AcDbSpline
 62
7
  6
CONTINUOUS
 70
0
 71
3
 72
44
 73
40
 74
0
 42
0.0000001
 43
0.0000001
 44
0.0000000001
 40
0.0
 40
0.0
 40
0.0
 40
0.0
 40
0.107259606
 40
0.2104636201
 40
0.2602083151
 40
0.3085399523
 40
0.3553360788
 40
0.4004802407
 40
0.4438631051
 40
0.4853827596
 40
0.5249460866
 40
0.5624703226
 40
0.5978832132
 40
0.6311266002
 40
0.6621569308
 40
0.6909497844
 40
0.7175036577
 40
0.74184563
 40
0.7640411602
 40
0.7842042201
 40
0.8025150365
 40
0.8192379663
 40
0.8271220944
 40
0.8347561473
 40
0.8422027645
 40
0.8495297859
 40
0.8568087705
 40
0.8641128834
 40
0.8715144011
 40
0.8790826282
 40
0.8868819502
 40
0.8949704419
 40
0.9122021873
 40
0.9214397615
 40
0.9311321852
 40
0.941306026
 40
0.9519827122
 40
0.9749042872
 40
1.0
 40
1.0
 40
1.0
 40
1.0
 10
10.927918869
 20
11.4029719083
 30
0.0
 10
10.9184159219
 20
11.40363094
 30
0.0
 10
10.8997869271
 20
11.4051960091
 30
0.0
 10
10.8768267381
 20
11.4078555152
 30
0.0
 10
10.8591287778
 20
11.4103767046
 30
0.0
 10
10.8464257211
 20
11.4124239143
 30
0.0
 10
10.8341667509
 20
11.4146443581
 30
0.0
 10
10.8223872065
 20
11.4170317423
 30
0.0
 10
10.8111210308
 20
11.4195789782
 30
0.0
 10
10.8004006792
 20
11.4222786739
 30
0.0
 10
10.7902569782
 20
11.4251229902
 30
0.0
 10
10.7807189966
 20
11.4281034981
 30
0.0
 10
10.7718140113
 20
11.4312117128
 30
0.0
 10
10.7635672858
 20
11.4344384263
 30
0.0
 10
10.7560020906
 20
11.4377745164
 30
0.0
 10
10.749139484
 20
11.4412104866
 30
0.0
 10
10.7429982177
 20
11.4447368192
 30
0.0
 10
10.737594803
 20
11.4483445354
 30
0.0
 10
10.7329432558
 20
11.4520247153
 30
0.0
 10
10.72905584
 20
11.4557707042
 30
0.0
 10
10.7259441291
 20
11.4595754248
 30
0.0
 10
10.7239700214
 20
11.4628566631
 30
0.0
 10
10.7228247532
 20
11.4654847615
 30
0.0
 10
10.7221838985
 20
11.4674242421
 30
0.0
 10
10.7217453271
 20
11.4693687048
 30
0.0
 10
10.721509765
 20
11.4713164809
 30
0.0
 10
10.7214778629
 20
11.4732656011
 30
0.0
 10
10.721649523
 20
11.4752140065
 30
0.0
 10
10.7220243527
 20
11.4771597391
 30
0.0
 10
10.722601822
 20
11.4791009097
 30
0.0
 10
10.7233810692
 20
11.4810359657
 30
0.0
 10
10.7247153362
 20
11.4836607373
 30
0.0
 10
10.7264406049
 20
11.4862154024
 30
0.0
 10
10.7284927065
 20
11.4886872717
 30
0.0
 10
10.7302637128
 20
11.4905722521
 30
0.0
 10
10.7322292306
 20
11.4924434043
 30
0.0
 10
10.7351779259
 20
11.4949788234
 30
0.0
 10
10.7393644263
 20
11.4980956637
 30
0.0
 10
10.7429710711
 20
11.5003779878
 30
0.0
 10
10.7448897792
 20
11.5015119786
 30
0.0
  0
LINE
  5
363
100
AcDbEntity
  8
0
100
AcDbLine
 62
7
  6
CONTINUOUS
 10
10.7448897792
 20
11.5015119786
 11
10.7533082946
 21
11.5060493218
  0
SPLINE
  5
364
100
AcDbEntity
  8
0
100
AcDbSpline
 62
7
  6
CONTINUOUS
 70
0
 71
3
 72
35
 73
31
 74
0
 42
0.0000001
 43
0.0000001
 44
0.0000000001
 40
0.0
 40
0.0
 40
0.0
 40
0.0
 40
0.0840639305
 40
0.1694684439
 40
0.2551739831
 40
0.3401309213
 40
0.4233042755
 40
0.5036866168
 40
0.5803163696
 40
0.6169422482
 40
0.6522993214
 40
0.6862885106
 40
0.7188174605
 40
0.7498008759
 40
0.7791626399
 40
0.8068353896
 40
0.8327642138
 40
0.8569062722
 40
0.8792361096
 40
0.8997471582
 40
0.9184592557
 40
0.9354251658
 40
0.9507426754
 40
0.9578338934
 40
0.9645788057
 40
0.9771529245
 40
0.9830771542
 40
0.9888214463
 40
0.9944421618
 40
1.0
 40
1.0
 40
1.0
 40
1.0
 10
10.952377335
 20
11.4265969737
 30
0.0
 10
10.9592455643
 20
11.4261206604
 30
0.0
 10
10.9731077042
 20
11.4253811473
 30
0.0
 10
10.9940033918
 20
11.4248961431
 30
0.0
 10
11.0149776227
 20
11.425028578
 30
0.0
 10
11.0357560788
 20
11.4257767645
 30
0.0
 10
11.056067248
 20
11.4271305432
 30
0.0
 10
11.0756456209
 20
11.429071817
 30
0.0
 10
11.0913666236
 20
11.4311876257
 30
0.0
 10
11.1033761241
 20
11.4331694522
 30
0.0
 10
11.1119084384
 20
11.4347620822
 30
0.0
 10
11.1200743132
 20
11.436477982
 30
0.0
 10
11.1278471183
 20
11.4383114782
 30
0.0
 10
11.1352015213
 20
11.4402565886
 30
0.0
 10
11.142113636
 20
11.4423067138
 30
0.0
 10
11.1485610562
 20
11.4444552954
 30
0.0
 10
11.1545230637
 20
11.4466950053
 30
0.0
 10
11.1599805637
 20
11.4490188015
 30
0.0
 10
11.1649164375
 20
11.4514189539
 30
0.0
 10
11.1693153023
 20
11.4538881747
 30
0.0
 10
11.173164138
 20
11.4564191326
 30
0.0
 10
11.1764511254
 20
11.4590048697
 30
0.0
 10
11.1787713653
 20
11.4612559779
 30
0.0
 10
11.1803144631
 20
11.4630805496
 30
0.0
 10
11.1815909803
 20
11.4648279976
 30
0.0
 10
11.1826164601
 20
11.4666373137
 30
0.0
 10
11.1833395921
 20
11.4684893413
 30
0.0
 10
11.1837203329
 20
11.4698558929
 30
0.0
 10
11.1839490052
 20
11.4712254545
 30
0.0
 10
11.1839999422
 20
11.4721417588
 30
0.0
 10
11.1839999422
 20
11.4725969385
 30
0.0
  0
SPLINE
  5
365
100
AcDbEntity
  8
0
100
AcDbSpline
 62
7
  6
CONTINUOUS
 70
0
 71
3
 72
16
 73
12
 74
0
 42
0.0000001
 43
0.0000001
 44
0.0000000001
 40
0.0
 40
0.0
 40
0.0
 40
0.0
 40
0.24831113
 40
0.3728258821
 40
0.4976119089
 40
0.6226986718
 40
0.6853661241
 40
0.7481178922
 40
0.8109571445
 40
0.8738853832
 40
1.0
 40
1.0
 40
1.0
 40
1.0
 10
10.9160132892
 20
11.2041932064
 30
0.0
 10
10.9286470804
 20
11.2014223025
 30
0.0
 10
10.9477269922
 20
11.1977339635
 30
0.0
 10
10.9733778118
 20
11.1939851904
 30
0.0
 10
10.9927616574
 20
11.1918128182
 30
0.0
 10
11.0089991379
 20
11.1905855323
 30
0.0
 10
11.0220341198
 20
11.1899779814
 30
0.0
 10
11.0318373758
 20
11.1897171384
 30
0.0
 10
11.0416575436
 20
11.1896550888
 30
0.0
 10
11.0547769187
 20
11.189833564
 30
0.0
 10
11.0646183062
 20
11.1902628869
 30
0.0
 10
11.07117319
 20
11.1906946269
 30
0.0
  0
SPLINE
  5
366
100
AcDbEntity
  8
0
100
AcDbSpline
 62
7
  6
CONTINUOUS
 70
0
 71
3
 72
22
 73
18
 74
0
 42
0.0000001
 43
0.0000001
 44
0.0000000001
 40
0.0
 40
0.0
 40
0.0
 40
0.0
 40
0.1228656701
 40
0.184478374
 40
0.246227162
 40
0.308126565
 40
0.370189873
 40
0.4324274878
 40
0.4948457814
 40
0.5574462211
 40
0.6202251619
 40
0.6831743319
 40
0.7462818134
 40
0.8095334146
 40
0.8729136023
 40
0.9364076062
 40
1.0
 40
1.0
 40
1.0
 40
1.0
 10
11.2294562012
 20
11.387556397
 30
0.0
 10
11.216697047
 20
11.3903547961
 30
0.0
 10
11.1974263713
 20
11.3940751728
 30
0.0
 10
11.1715173198
 20
11.3978405919
 30
0.0
 10
11.1519370586
 20
11.400011479
 30
0.0
 10
11.1322421961
 20
11.4014666907
 30
0.0
 10
11.1124529585
 20
11.4021534386
 30
0.0
 10
11.0925966258
 20
11.4020302038
 30
0.0
 10
11.0727057105
 20
11.4010711148
 30
0.0
 10
11.052815667
 20
11.3992689438
 30
0.0
 10
11.0329618167
 20
11.3966360807
 30
0.0
 10
11.0131763623
 20
11.3932030806
 30
0.0
 10
10.9934860566
 20
11.3890152835
 30
0.0
 10
10.9739109807
 20
11.3841283347
 30
0.0
 10
10.9544641969
 20
11.3786035211
 30
0.0
 10
10.9351527495
 20
11.3725037833
 30
0.0
 10
10.9223784434
 20
11.3680979064
 30
0.0
 10
10.9160132892
 20
11.3658190188
 30
0.0
  0
SPLINE
  5
367
100
AcDbEntity
  8
0
100
AcDbSpline
 62
7
  6
CONTINUOUS
 70
0
 71
3
 72
16
 73
12
 74
0
 42
0.0000001
 43
0.0000001
 44
0.0000000001
 40
0.0
 40
0.0
 40
0.0
 40
0.0
 40
0.1239515506
 40
0.1860611449
 40
0.2482513908
 40
0.3105238626
 40
0.3728778637
 40
0.4978073937
 40
0.6230151683
 40
0.7484726901
 40
1.0
 40
1.0
 40
1.0
 40
1.0
 10
11.0750936443
 20
11.1909686472
 30
0.0
 10
11.0816346463
 20
11.1914565314
 30
0.0
 10
11.0914383406
 20
11.192406147
 30
0.0
 10
11.1044716176
 20
11.194055566
 30
0.0
 10
11.1142411712
 20
11.1954850902
 30
0.0
 10
11.1239934015
 20
11.1971086864
 30
0.0
 10
11.1369763298
 20
11.1995283995
 30
0.0
 10
11.1531460431
 20
11.2030086592
 30
0.0
 10
11.1724249079
 20
11.2078566717
 30
0.0
 10
11.1979828251
 20
11.2151490047
 30
0.0
 10
11.2169250039
 20
11.2214440961
 30
0.0
 10
11.2294562012
 20
11.2259305846
 30
0.0
  0
SPLINE
  5
368
100
AcDbEntity
  8
0
100
AcDbSpline
 62
7
  6
CONTINUOUS
 70
0
 71
3
 72
15
 73
11
 74
0
 42
0.0000001
 43
0.0000001
 44
0.0000000001
 40
0.0
 40
0.0
 40
0.0
 40
0.0
 40
0.1200697286
 40
0.2402945259
 40
0.3611924802
 40
0.4833770291
 40
0.6075512432
 40
0.7344911022
 40
0.8650253164
 40
1.0
 40
1.0
 40
1.0
 40
1.0
 10
11.2294562012
 20
11.2259305846
 30
0.0
 10
11.230506105
 20
11.2258135988
 30
0.0
 10
11.2326149207
 20
11.2256423281
 30
0.0
 10
11.2357945737
 20
11.2255892954
 30
0.0
 10
11.2389894151
 20
11.225754319
 30
0.0
 10
11.2421989496
 20
11.2261519791
 30
0.0
 10
11.2454225568
 20
11.2267966504
 30
0.0
 10
11.2486592214
 20
11.2277026832
 30
0.0
 10
11.2519072869
 20
11.2288832467
 30
0.0
 10
11.2540397424
 20
11.2298429714
 30
0.0
 10
11.2551047395
 20
11.2303683559
 30
0.0
  0
SPLINE
  5
369
100
AcDbEntity
  8
0
100
AcDbSpline
 62
7
  6
CONTINUOUS
 70
0
 71
3
 72
23
 73
19
 74
0
 42
0.0000001
 43
0.0000001
 44
0.0000000001
 40
0.0
 40
0.0
 40
0.0
 40
0.0
 40
0.041437135
 40
0.0831411687
 40
0.125664786
 40
0.1696844682
 40
0.2159573313
 40
0.2652545697
 40
0.3182829258
 40
0.3756143683
 40
0.4376388041
 40
0.5045466876
 40
0.5763400501
 40
0.6528639797
 40
0.7338486064
 40
0.8189515174
 40
0.9077966646
 40
1.0
 40
1.0
 40
1.0
 40
1.0
 10
11.3134429121
 20
11.4686813348
 30
0.0
 10
11.3117375053
 20
11.4688713604
 30
0.0
 10
11.3082941031
 20
11.4690860764
 30
0.0
 10
11.3030850151
 20
11.4688427002
 30
0.0
 10
11.2978331039
 20
11.46796966
 30
0.0
 10
11.2925458364
 20
11.4664045117
 30
0.0
 10
11.2872327619
 20
11.4640918486
 30
0.0
 10
11.2819044998
 20
11.4609875912
 30
0.0
 10
11.2765706798
 20
11.4570618186
 30
0.0
 10
11.2712395169
 20
11.452300543
 30
0.0
 10
11.2659181087
 20
11.4467067896
 30
0.0
 10
11.2606128051
 20
11.4403006508
 30
0.0
 10
11.2553292921
 20
11.4331177916
 30
0.0
 10
11.2500724088
 20
11.425206463
 30
0.0
 10
11.2448459339
 20
11.4166235811
 30
0.0
 10
11.239652415
 20
11.4074305451
 30
0.0
 10
11.2344932689
 20
11.397689713
 30
0.0
 10
11.231134657
 20
11.3909859473
 30
0.0
 10
11.2294562012
 20
11.387556397
 30
0.0
  0
SPLINE
  5
36A
100
AcDbEntity
  8
0
100
AcDbSpline
 62
7
  6
CONTINUOUS
 70
0
 71
3
 72
22
 73
18
 74
0
 42
0.0000001
 43
0.0000001
 44
0.0000000001
 40
0.0
 40
0.0
 40
0.0
 40
0.0
 40
0.0684413022
 40
0.1361601797
 40
0.2030858286
 40
0.2691549643
 40
0.3343158234
 40
0.3985363969
 40
0.4618106972
 40
0.5241632917
 40
0.5856499066
 40
0.6463534978
 40
0.7063763181
 40
0.7658298662
 40
0.824825195
 40
0.8834649068
 40
1.0
 40
1.0
 40
1.0
 40
1.0
 10
10.9160132892
 20
11.3658190188
 30
0.0
 10
10.9113732959
 20
11.3688496592
 30
0.0
 10
10.9020660167
 20
11.3747634202
 30
0.0
 10
10.8879361025
 20
11.3831814033
 30
0.0
 10
10.8737067345
 20
11.3910418032
 30
0.0
 10
10.8593824351
 20
11.3982811503
 30
0.0
 10
10.8449719711
 20
11.4048368171
 30
0.0
 10
10.8304892441
 20
11.4106507511
 30
0.0
 10
10.8159532239
 20
11.4156741052
 30
0.0
 10
10.8013872793
 20
11.4198718654
 30
0.0
 10
10.786817607
 20
11.4232266346
 30
0.0
 10
10.7722710261
 20
11.4257406531
 30
0.0
 10
10.7577724797
 20
11.4274353847
 30
0.0
 10
10.7433431559
 20
11.4283489138
 30
0.0
 10
10.728998559
 20
11.4285316487
 30
0.0
 10
10.7100426244
 20
11.4278802601
 30
0.0
 10
10.6959080674
 20
11.4264738118
 30
0.0
 10
10.6865570879
 20
11.4252065784
 30
0.0
  0
SPLINE
  5
36B
100
AcDbEntity
  8
0
100
AcDbSpline
 62
7
  6
CONTINUOUS
 70
0
 71
3
 72
19
 73
15
 74
0
 42
0.0000001
 43
0.0000001
 44
0.0000000001
 40
0.0
 40
0.0
 40
0.0
 40
0.0
 40
0.0647653636
 40
0.1290891498
 40
0.1930244684
 40
0.2565948119
 40
0.3198163794
 40
0.3827159287
 40
0.4453244899
 40
0.5076709553
 40
0.569783586
 40
0.6316885246
 40
0.7549689681
 40
1.0
 40
1.0
 40
1.0
 40
1.0
 10
10.802972873
 20
11.2091968807
 30
0.0
 10
10.8053552947
 20
11.208592227
 30
0.0
 10
10.8101227438
 20
11.2074601258
 30
0.0
 10
10.8172964571
 20
11.2059720238
 30
0.0
 10
10.8244614742
 20
11.2046773538
 30
0.0
 10
10.831616367
 20
11.2035753052
 30
0.0
 10
10.8387595114
 20
11.202672255
 30
0.0
 10
10.845888036
 20
11.2019657576
 30
0.0
 10
10.8529993693
 20
11.2014476873
 30
0.0
 10
10.860091677
 20
11.2011114742
 30
0.0
 10
10.8671633916
 20
11.2009511808
 30
0.0
 10
10.8765496176
 20
11.2009638842
 30
0.0
 10
10.892871185
 20
11.2015513403
 30
0.0
 10
10.9067981844
 20
11.2029443866
 30
0.0
 10
10.9160132892
 20
11.2041932064
 30
0.0
  0
SPLINE
  5
36C
100
AcDbEntity
  8
0
100
AcDbSpline
 62
7
  6
CONTINUOUS
 70
0
 71
3
 72
35
 73
31
 74
0
 42
0.0000001
 43
0.0000001
 44
0.0000000001
 40
0.0
 40
0.0
 40
0.0
 40
0.0
 40
0.0884646609
 40
0.178359019
 40
0.2683932536
 40
0.3572716696
 40
0.443722226
 40
0.5265177639
 40
0.6045028704
 40
0.6413590538
 40
0.6766257907
 40
0.7101913755
 40
0.7419547098
 40
0.7718267945
 40
0.7997324397
 40
0.8256136647
 40
0.8494323439
 40
0.8711766871
 40
0.8908670661
 40
0.9085693956
 40
0.9244092691
 40
0.938597446
 40
0.9514546338
 40
0.9575298532
 40
0.9634529826
 40
0.9692983687
 40
0.9751438013
 40
0.98106694
 40
0.9871421793
 40
1.0
 40
1.0
 40
1.0
 40
1.0
 10
11.0260112926
 20
11.5431204358
 30
0.0
 10
11.0219386034
 20
11.5434028777
 30
0.0
 10
11.013716974
 20
11.5438303127
 30
0.0
 10
11.001331476
 20
11.5440708328
 30
0.0
 10
10.9889253746
 20
11.5439151079
 30
0.0
 10
10.9766895308
 20
11.5433655717
 30
0.0
 10
10.9648118638
 20
11.5424310295
 30
0.0
 10
10.9534749
 20
11.5411262418
 30
0.0
 10
10.9444597848
 20
11.5397229107
 30
0.0
 10
10.9376559513
 20
11.5384182589
 30
0.0
 10
10.9328898493
 20
11.5373799679
 30
0.0
 10
10.9283821521
 20
11.5362675404
 30
0.0
 10
10.9241500855
 20
11.5350852894
 30
0.0
 10
10.9202097809
 20
11.5338378374
 30
0.0
 10
10.9165761684
 20
11.5325300047
 30
0.0
 10
10.9132628795
 20
11.5311668826
 30
0.0
 10
10.9102821889
 20
11.5297535584
 30
0.0
 10
10.9076448378
 20
11.5282953338
 30
0.0
 10
10.9053601172
 20
11.5267970308
 30
0.0
 10
10.9034356342
 20
11.5252633649
 30
0.0
 10
10.9018780426
 20
11.5236972489
 30
0.0
 10
10.9006936655
 20
11.5221016042
 30
0.0
 10
10.9000127406
 20
11.5207206553
 30
0.0
 10
10.8996801135
 20
11.5196206332
 30
0.0
 10
10.8995327876
 20
11.5188085248
 30
0.0
 10
10.8994837076
 20
11.5179951943
 30
0.0
 10
10.8995329172
 20
11.5171818913
 30
0.0
 10
10.8996802405
 20
11.5163697329
 30
0.0
 10
10.9000127873
 20
11.5152699185
 30
0.0
 10
10.9004026533
 20
11.5144794154
 30
0.0
 10
10.9007097928
 20
11.5139717291
 30
0.0
  0
SPLINE
  5
36D
100
AcDbEntity
  8
0
100
AcDbSpline
 62
7
  6
CONTINUOUS
 70
0
 71
3
 72
23
 73
19
 74
0
 42
0.0000001
 43
0.0000001
 44
0.0000000001
 40
0.0
 40
0.0
 40
0.0
 40
0.0
 40
0.0645836686
 40
0.1291329455
 40
0.1936047043
 40
0.2579525621
 40
0.3220962289
 40
0.3859269221
 40
0.4493180181
 40
0.5121573818
 40
0.5743946869
 40
0.6360670632
 40
0.6972774643
 40
0.7581482789
 40
0.8187863638
 40
0.8792716327
 40
0.939666504
 40
1.0
 40
1.0
 40
1.0
 40
1.0
 10
11.0239086691
 20
11.5274978735
 30
0.0
 10
11.0223264525
 20
11.5260179041
 30
0.0
 10
11.0191082174
 20
11.5231162662
 30
0.0
 10
11.0140946537
 20
11.5189839318
 30
0.0
 10
11.0088709833
 20
11.5151316813
 30
0.0
 10
11.0034145984
 20
11.5116384828
 30
0.0
 10
10.9977100804
 20
11.5086067297
 30
0.0
 10
10.9917612576
 20
11.5061612404
 30
0.0
 10
10.9856055149
 20
11.5044375201
 30
0.0
 10
10.9793251313
 20
11.5035516673
 30
0.0
 10
10.9730395764
 20
11.5035578228
 30
0.0
 10
10.966871529
 20
11.5044225518
 30
0.0
 10
10.9609092212
 20
11.5060419509
 30
0.0
 10
10.9551937394
 20
11.5082840095
 30
0.0
 10
10.9497297046
 20
11.5110226977
 30
0.0
 10
10.9445011107
 20
11.5141525534
 30
0.0
 10
10.9394845115
 20
11.5175911648
 30
0.0
 10
10.9362632877
 20
11.5200485757
 30
0.0
 10
10.934680303
 20
11.5213096982
 30
0.0
  0
SPLINE
  5
36E
100
AcDbEntity
  8
0
100
AcDbSpline
 62
7
  6
CONTINUOUS
 70
0
 71
3
 72
12
 73
8
 74
0
 42
0.0000001
 43
0.0000001
 44
0.0000000001
 40
0.0
 40
0.0
 40
0.0
 40
0.0
 40
0.2679446607
 40
0.5262980803
 40
0.7717913913
 40
0.8883891508
 40
1.0
 40
1.0
 40
1.0
 40
1.0
 10
10.934680303
 20
11.5213096982
 30
0.0
 10
10.934215331
 20
11.5193577546
 30
0.0
 10
10.9332732769
 20
11.5155304536
 30
0.0
 10
10.9317801278
 20
11.5099465012
 30
0.0
 10
10.9304599815
 20
11.5054906791
 30
0.0
 10
10.929354323
 20
11.5021197344
 30
0.0
 10
10.9287841014
 20
11.5005084377
 30
0.0
 10
10.9284938674
 20
11.4997246256
 30
0.0
  0
SPLINE
  5
36F
100
AcDbEntity
  8
0
100
AcDbSpline
 62
7
  6
CONTINUOUS
 70
0
 71
3
 72
11
 73
7
 74
0
 42
0.0000001
 43
0.0000001
 44
0.0000000001
 40
0.0
 40
0.0
 40
0.0
 40
0.0
 40
0.2549257071
 40
0.5066394303
 40
0.7549647225
 40
1.0
 40
1.0
 40
1.0
 40
1.0
 10
11.0892283517
 20
11.5105917546
 30
0.0
 10
11.0881880777
 20
11.5096303412
 30
0.0
 10
11.0860768788
 20
11.5077660545
 30
0.0
 10
11.0827806162
 20
11.5051670676
 30
0.0
 10
11.0793604788
 20
11.5028279132
 30
0.0
 10
11.0769722134
 20
11.5014722964
 30
0.0
 10
11.0757549614
 20
11.5008622873
 30
0.0
  0
SPLINE
  5
370
100
AcDbEntity
  8
0
100
AcDbSpline
 62
7
  6
CONTINUOUS
 70
0
 71
3
 72
22
 73
18
 74
0
 42
0.0000001
 43
0.0000001
 44
0.0000000001
 40
0.0
 40
0.0
 40
0.0
 40
0.0
 40
0.0524121143
 40
0.1059695898
 40
0.160954032
 40
0.2175576081
 40
0.2758695162
 40
0.3358722503
 40
0.39747908
 40
0.4605445808
 40
0.5249165784
 40
0.5904236954
 40
0.6569230432
 40
0.7242657056
 40
0.7923452217
 40
0.8610526818
 40
1.0
 40
1.0
 40
1.0
 40
1.0
 10
11.0622669171
 20
11.4975418947
 30
0.0
 10
11.0613866601
 20
11.497560922
 30
0.0
 10
11.0596075385
 20
11.4976969643
 30
0.0
 10
11.0569449443
 20
11.4981952667
 30
0.0
 10
11.0542822681
 20
11.4989914772
 30
0.0
 10
11.0516374239
 20
11.5000753664
 30
0.0
 10
11.0490261083
 20
11.50143038
 30
0.0
 10
11.046460076
 20
11.5030327772
 30
0.0
 10
11.043947693
 20
11.5048564721
 30
0.0
 10
11.0414937581
 20
11.5068748878
 30
0.0
 10
11.0391003732
 20
11.5090624783
 30
0.0
 10
11.0367671406
 20
11.5113959935
 30
0.0
 10
11.0344929059
 20
11.5138551429
 30
0.0
 10
11.0322743408
 20
11.5164217935
 30
0.0
 10
11.0301090864
 20
11.5190814432
 30
0.0
 10
11.0272772338
 20
11.522747442
 30
0.0
 10
11.0252389174
 20
11.5255798765
 30
0.0
 10
11.0239086691
 20
11.5274978735
 30
0.0
  0
SPLINE
  5
371
100
AcDbEntity
  8
0
100
AcDbSpline
 62
7
  6
CONTINUOUS
 70
0
 71
3
 72
44
 73
40
 74
0
 42
0.0000001
 43
0.0000001
 44
0.0000000001
 40
0.0
 40
0.0
 40
0.0
 40
0.0
 40
0.0911405417
 40
0.1837550565
 40
0.276358431
 40
0.3674574589
 40
0.4119869334
 40
0.4555977997
 40
0.4981176573
 40
0.5393804192
 40
0.579226986
 40
0.617506274
 40
0.654077321
 40
0.6888091979
 40
0.7215843491
 40
0.7522996241
 40
0.7808684424
 40
0.807226018
 40
0.83133198
 40
0.853179143
 40
0.8632673799
 40
0.8728091177
 40
0.8818179449
 40
0.8903132494
 40
0.8983203609
 40
0.9058713556
 40
0.913007076
 40
0.9197779562
 40
0.9262442518
 40
0.9324766016
 40
0.9385550597
 40
0.9445662921
 40
0.9506002386
 40
0.9567457282
 40
0.9630863745
 40
0.9696978291
 40
0.9766456172
 40
0.9839847595
 40
1.0
 40
1.0
 40
1.0
 40
1.0
 10
10.9604007188
 20
11.4797454843
 30
0.0
 10
10.9669665541
 20
11.4792901421
 30
0.0
 10
10.9802222507
 20
11.4786144191
 30
0.0
 10
11.000180043
 20
11.4782831679
 30
0.0
 10
11.0201347528
 20
11.4786266016
 30
0.0
 10
11.0365980939
 20
11.4794760478
 30
0.0
 10
11.0495020314
 20
11.4804960145
 30
0.0
 10
11.0588930996
 20
11.4814165104
 30
0.0
 10
11.0680299445
 20
11.482494273
 30
0.0
 10
11.0768731979
 20
11.4837245453
 30
0.0
 10
11.0853847338
 20
11.4851019512
 30
0.0
 10
11.0935279011
 20
11.4866205479
 30
0.0
 10
11.1012676806
 20
11.4882735511
 30
0.0
 10
11.1085708344
 20
11.490053861
 30
0.0
 10
11.1154061028
 20
11.4919536108
 30
0.0
 10
11.1217443719
 20
11.4939644625
 30
0.0
 10
11.1275587424
 20
11.4960777915
 30
0.0
 10
11.1328250529
 20
11.4982843196
 30
0.0
 10
11.1375211854
 20
11.5005748251
 30
0.0
 10
11.1410323434
 20
11.5025962399
 30
0.0
 10
11.1435261459
 20
11.5042569342
 30
0.0
 10
11.1451918682
 20
11.5054841728
 30
0.0
 10
11.1467012766
 20
11.5067252363
 30
0.0
 10
11.1480528434
 20
11.5079789208
 30
0.0
 10
11.14924519
 20
11.5092440439
 30
0.0
 10
11.1502768642
 20
11.5105196216
 30
0.0
 10
11.1511465712
 20
11.5118045838
 30
0.0
 10
11.151853161
 20
11.5130977889
 30
0.0
 10
11.1523952529
 20
11.5143981161
 30
0.0
 10
11.1527714402
 20
11.5157041573
 30
0.0
 10
11.1529807928
 20
11.517014065
 30
0.0
 10
11.1530225402
 20
11.5183257374
 30
0.0
 10
11.1528963078
 20
11.5196368101
 30
0.0
 10
11.1526027762
 20
11.5209449983
 30
0.0
 10
11.1521429441
 20
11.5222483829
 30
0.0
 10
11.1515178651
 20
11.5235452733
 30
0.0
 10
11.1507289042
 20
11.5248345097
 30
0.0
 10
11.1494223584
 20
11.5265926447
 30
0.0
 10
11.1482520656
 20
11.5278179516
 30
0.0
 10
11.1474054351
 20
11.528605834
 30
0.0
  0
SPLINE
  5
372
100
AcDbEntity
  8
0
100
AcDbSpline
 62
7
  6
CONTINUOUS
 70
0
 71
3
 72
35
 73
31
 74
0
 42
0.0000001
 43
0.0000001
 44
0.0000000001
 40
0.0
 40
0.0
 40
0.0
 40
0.0
 40
0.0840639305
 40
0.169468444
 40
0.2551739831
 40
0.3401309213
 40
0.4233042755
 40
0.5036866169
 40
0.5803163697
 40
0.6169422483
 40
0.6522993214
 40
0.6862885107
 40
0.7188174605
 40
0.7498008759
 40
0.7791626399
 40
0.8068353896
 40
0.8327642139
 40
0.8569062722
 40
0.8792361096
 40
0.8997471582
 40
0.9184592557
 40
0.9354251658
 40
0.9507426754
 40
0.9578338934
 40
0.9645788057
 40
0.9771529245
 40
0.9830771542
 40
0.9888214463
 40
0.9944421618
 40
1.0
 40
1.0
 40
1.0
 40
1.0
 10
10.952377335
 20
11.4420517879
 30
0.0
 10
10.9592455643
 20
11.4415754746
 30
0.0
 10
10.9731077042
 20
11.4408359615
 30
0.0
 10
10.9940033918
 20
11.4403509573
 30
0.0
 10
11.0149776227
 20
11.4404833922
 30
0.0
 10
11.0357560788
 20
11.4412315786
 30
0.0
 10
11.056067248
 20
11.4425853574
 30
0.0
 10
11.0756456209
 20
11.4445266312
 30
0.0
 10
11.0913666236
 20
11.4466424398
 30
0.0
 10
11.1033761241
 20
11.4486242664
 30
0.0
 10
11.1119084384
 20
11.4502168964
 30
0.0
 10
11.1200743132
 20
11.4519327961
 30
0.0
 10
11.1278471183
 20
11.4537662924
 30
0.0
 10
11.1352015214
 20
11.4557114027
 30
0.0
 10
11.1421136361
 20
11.457761528
 30
0.0
 10
11.1485610562
 20
11.4599101095
 30
0.0
 10
11.1545230637
 20
11.4621498194
 30
0.0
 10
11.1599805637
 20
11.4644736156
 30
0.0
 10
11.1649164375
 20
11.466873768
 30
0.0
 10
11.1693153023
 20
11.4693429888
 30
0.0
 10
11.173164138
 20
11.4718739467
 30
0.0
 10
11.1764511254
 20
11.4744596839
 30
0.0
 10
11.1787713653
 20
11.4767107921
 30
0.0
 10
11.1803144631
 20
11.4785353637
 30
0.0
 10
11.1815909803
 20
11.4802828117
 30
0.0
 10
11.1826164601
 20
11.4820921279
 30
0.0
 10
11.1833395921
 20
11.4839441554
 30
0.0
 10
11.1837203329
 20
11.4853107071
 30
0.0
 10
11.1839490052
 20
11.4866802687
 30
0.0
 10
11.1839999422
 20
11.487596573
 30
0.0
 10
11.1839999422
 20
11.4880517526
 30
0.0
  0
SPLINE
  5
373
100
AcDbEntity
  8
0
100
AcDbSpline
 62
7
  6
CONTINUOUS
 70
0
 71
3
 72
13
 73
9
 74
0
 42
0.0000001
 43
0.0000001
 44
0.0000000001
 40
0.0
 40
0.0
 40
0.0
 40
0.0
 40
0.1064743542
 40
0.2183900468
 40
0.458351551
 40
0.5862489632
 40
0.7192254298
 40
1.0
 40
1.0
 40
1.0
 40
1.0
 10
10.7510959336
 20
11.2273057249
 30
0.0
 10
10.7527384869
 20
11.2264943454
 30
0.0
 10
10.7561379938
 20
11.2248912064
 30
0.0
 10
10.7633759915
 20
11.221756841
 30
0.0
 10
10.771094175
 20
11.2188148445
 30
0.0
 10
10.7792508213
 20
11.2160331694
 30
0.0
 10
10.7881365814
 20
11.2132202139
 30
0.0
 10
10.7949897807
 20
11.2112838169
 30
0.0
 10
10.7996618452
 20
11.2100545258
 30
0.0
  0
LINE
  5
374
100
AcDbEntity
  8
0
100
AcDbLine
 62
7
  6
CONTINUOUS
 10
11.6903478329
 20
10.5349984024
 11
11.6848414514
 21
10.5293186449
  0
SPLINE
  5
375
100
AcDbEntity
  8
0
100
AcDbSpline
 62
7
  6
CONTINUOUS
 70
0
 71
3
 72
25
 73
21
 74
0
 42
0.0000001
 43
0.0000001
 44
0.0000000001
 40
0.0
 40
0.0
 40
0.0
 40
0.0
 40
0.0508117986
 40
0.0772113888
 40
0.1042161048
 40
0.1318124326
 40
0.1599877198
 40
0.2179750757
 40
0.2779512439
 40
0.3396935062
 40
0.4029698114
 40
0.4675375793
 40
0.5331487605
 40
0.5995496124
 40
0.666482072
 40
0.7336862083
 40
0.8009004574
 40
0.8678587957
 40
0.9343147821
 40
1.0
 40
1.0
 40
1.0
 40
1.0
 10
10.8027675066
 20
11.2092500062
 30
0.0
 10
10.8071992062
 20
11.2081175112
 30
0.0
 10
10.8139632194
 20
11.2065116674
 30
0.0
 10
10.8231331861
 20
11.2045296574
 30
0.0
 10
10.8302797275
 20
11.2030806628
 30
0.0
 10
10.8376008747
 20
11.2016915333
 30
0.0
 10
10.8476848348
 20
11.1999056689
 30
0.0
 10
10.8606786786
 20
11.1978417003
 30
0.0
 10
10.876707812
 20
11.1956492958
 30
0.0
 10
10.8932511581
 20
11.1937287432
 30
0.0
 10
10.9102398147
 20
11.1920880612
 30
0.0
 10
10.927603025
 20
11.1907340264
 30
0.0
 10
10.9452683125
 20
11.1896724716
 30
0.0
 10
10.9631619741
 20
11.1889077823
 30
0.0
 10
10.98120937
 20
11.1884432398
 30
0.0
 10
10.9993352248
 20
11.188280847
 30
0.0
 10
11.0174636011
 20
11.1884206583
 30
0.0
 10
11.0355197417
 20
11.1888643431
 30
0.0
 10
11.0534282607
 20
11.1896060809
 30
0.0
 10
11.0653041185
 20
11.1903009189
 30
0.0
 10
11.0712036508
 20
11.190700191
 30
0.0
  0
SPLINE
  5
376
100
AcDbEntity
  8
0
100
AcDbSpline
 62
7
  6
CONTINUOUS
 70
0
 71
3
 72
23
 73
19
 74
0
 42
0.0000001
 43
0.0000001
 44
0.0000000001
 40
0.0
 40
0.0
 40
0.0
 40
0.0
 40
0.0720327903
 40
0.140549181
 40
0.205865594
 40
0.2683660732
 40
0.328507931
 40
0.3868105814
 40
0.4438485632
 40
0.5002378537
 40
0.5566181765
 40
0.6136300938
 40
0.6718915351
 40
0.7319779037
 40
0.794407701
 40
0.859637671
 40
0.9280585927
 40
1.0
 40
1.0
 40
1.0
 40
1.0
 10
11.6903478329
 20
9.8647302302
 30
0.0
 10
11.6918534143
 20
9.8663953313
 30
0.0
 10
11.6946905045
 20
9.8697375437
 30
0.0
 10
11.6984878571
 20
9.8749157968
 30
0.0
 10
11.7017116646
 20
9.8801243739
 30
0.0
 10
11.7043574977
 20
9.8853591995
 30
0.0
 10
11.7064221904
 20
9.8906161877
 30
0.0
 10
11.7079021561
 20
9.8958910801
 30
0.0
 10
11.7087947406
 20
9.9011785831
 30
0.0
 10
11.7090979935
 20
9.9064727056
 30
0.0
 10
11.7088107392
 20
9.9117669099
 30
0.0
 10
11.7079341387
 20
9.9170546963
 30
0.0
 10
11.7064699187
 20
9.9223300364
 30
0.0
 10
11.7044209554
 20
9.9275876012
 30
0.0
 10
11.7017909007
 20
9.9328229867
 30
0.0
 10
11.6985829135
 20
9.9380321094
 30
0.0
 10
11.6948011306
 20
9.9432112339
 30
0.0
 10
11.6919738701
 20
9.9465541663
 30
0.0
 10
11.6904730932
 20
9.9482197676
 30
0.0
  0
SPLINE
  5
377
100
AcDbEntity
  8
0
100
AcDbSpline
 62
7
  6
CONTINUOUS
 70
0
 71
3
 72
23
 73
19
 74
0
 42
0.0000001
 43
0.0000001
 44
0.0000000001
 40
0.0
 40
0.0
 40
0.0
 40
0.0
 40
0.0771659698
 40
0.1531399362
 40
0.2277331012
 40
0.3007602442
 40
0.3720476916
 40
0.4414308611
 40
0.5087508267
 40
0.5738552433
 40
0.6366008705
 40
0.6968537341
 40
0.7544895889
 40
0.8093969795
 40
0.8614763705
 40
0.9106432537
 40
0.9568326557
 40
1.0
 40
1.0
 40
1.0
 40
1.0
 10
11.0750684764
 20
11.1909691555
 30
0.0
 10
11.0796481771
 20
11.1912983143
 30
0.0
 10
11.0887322722
 20
11.1920169939
 30
0.0
 10
11.1022241382
 20
11.1932814009
 30
0.0
 10
11.1154510744
 20
11.1947185408
 30
0.0
 10
11.1283771254
 20
11.1963288442
 30
0.0
 10
11.1409679929
 20
11.1981083856
 30
0.0
 10
11.1531909785
 20
11.2000514321
 30
0.0
 10
11.1650142751
 20
11.2021530288
 30
0.0
 10
11.1764070301
 20
11.2044078886
 30
0.0
 10
11.1873395918
 20
11.2068099502
 30
0.0
 10
11.197783536
 20
11.209352839
 30
0.0
 10
11.2077117266
 20
11.2120299921
 30
0.0
 10
11.2170984542
 20
11.2148342225
 30
0.0
 10
11.2259193841
 20
11.2177582323
 30
0.0
 10
11.2341518909
 20
11.2207944431
 30
0.0
 10
11.241774771
 20
11.2239348091
 30
0.0
 10
11.2466022232
 20
11.2261683885
 30
0.0
 10
11.2489051314
 20
11.2273059231
 30
0.0
  0
SPLINE
  5
378
100
AcDbEntity
  8
0
100
AcDbSpline
 62
7
  6
CONTINUOUS
 70
0
 71
3
 72
40
 73
36
 74
0
 42
0.0000001
 43
0.0000001
 44
0.0000000001
 40
0.0
 40
0.0
 40
0.0
 40
0.0
 40
0.0249823756
 40
0.0486637861
 40
0.0711730092
 40
0.0926686037
 40
0.1133392681
 40
0.133399526
 40
0.1530855933
 40
0.1726483315
 40
0.1923441085
 40
0.2124237383
 40
0.2331228539
 40
0.2546541485
 40
0.2657941843
 40
0.2772099051
 40
0.3009375846
 40
0.3259751149
 40
0.3524309279
 40
0.3803913409
 40
0.4099250688
 40
0.4410842716
 40
0.4739079909
 40
0.508424007
 40
0.5446495308
 40
0.5825943769
 40
0.6222602925
 40
0.6636432775
 40
0.7067334428
 40
0.7515148986
 40
0.7979686504
 40
0.8460728224
 40
0.8958030761
 40
0.9471262853
 40
1.0
 40
1.0
 40
1.0
 40
1.0
 10
10.3096521671
 20
9.9483585472
 30
0.0
 10
10.3080422784
 20
9.9465780872
 30
0.0
 10
10.305020986
 20
9.9430032829
 30
0.0
 10
10.3010156254
 20
9.9374516915
 30
0.0
 10
10.2976690076
 20
9.9318651556
 30
0.0
 10
10.2949865023
 20
9.9262486847
 30
0.0
 10
10.2929723426
 20
9.9206072515
 30
0.0
 10
10.2916311229
 20
9.9149465253
 30
0.0
 10
10.2909658337
 20
9.9092736515
 30
0.0
 10
10.2909789132
 20
9.9035966546
 30
0.0
 10
10.29167018
 20
9.8979241049
 30
0.0
 10
10.2930374671
 20
9.8922639184
 30
0.0
 10
10.29507746
 20
9.8866234809
 30
0.0
 10
10.2973088216
 20
9.8819966904
 30
0.0
 10
10.2994100847
 20
9.8783172795
 30
0.0
 10
10.3017864596
 20
9.8745568454
 30
0.0
 10
10.305188221
 20
9.8698724231
 30
0.0
 10
10.3098729373
 20
9.8643609237
 30
0.0
 10
10.3152072826
 20
9.8588922071
 30
0.0
 10
10.321185647
 20
9.8534705953
 30
0.0
 10
10.3278027628
 20
9.8481006787
 30
0.0
 10
10.3350523956
 20
9.8427868134
 30
0.0
 10
10.3429279812
 20
9.8375336497
 30
0.0
 10
10.3514223607
 20
9.8323459847
 30
0.0
 10
10.360527623
 20
9.8272282793
 30
0.0
 10
10.3702354888
 20
9.8221854936
 30
0.0
 10
10.3805369083
 20
9.8172220823
 30
0.0
 10
10.3914223614
 20
9.8123427639
 30
0.0
 10
10.402881651
 20
9.8075521822
 30
0.0
 10
10.4149039243
 20
9.8028546781
 30
0.0
 10
10.4274780621
 20
9.7982548682
 30
0.0
 10
10.4405925935
 20
9.793756825
 30
0.0
 10
10.4542353489
 20
9.7893649141
 30
0.0
 10
10.4683925406
 20
9.7850835143
 30
0.0
 10
10.478022989
 20
9.7823458003
 30
0.0
 10
10.4829202716
 20
9.7809946963
 30
0.0
  0
SPLINE
  5
379
100
AcDbEntity
  8
0
100
AcDbSpline
 62
7
  6
CONTINUOUS
 70
0
 71
3
 72
34
 73
30
 74
0
 42
0.0000001
 43
0.0000001
 44
0.0000000001
 40
0.0
 40
0.0
 40
0.0
 40
0.0
 40
0.0192545054
 40
0.0368872912
 40
0.0531295078
 40
0.0682903635
 40
0.082760429
 40
0.096994169
 40
0.1114706879
 40
0.1266436271
 40
0.1429029145
 40
0.1605561702
 40
0.1798338688
 40
0.200897882
 40
0.2238585777
 40
0.2487835194
 40
0.2757093679
 40
0.3046473292
 40
0.3355886367
 40
0.3685089973
 40
0.4033694029
 40
0.4401211507
 40
0.4787038582
 40
0.5190505901
 40
0.6047198208
 40
0.6964537429
 40
0.7934802829
 40
0.8949640338
 40
1.0
 40
1.0
 40
1.0
 40
1.0
 10
10.8525952778
 20
11.5286064959
 30
0.0
 10
10.851949825
 20
11.5280058517
 30
0.0
 10
10.8507640616
 20
11.5267979819
 30
0.0
 10
10.8492634523
 20
11.5248754124
 30
0.0
 10
10.8481285004
 20
11.522928627
 30
0.0
 10
10.847366046
 20
11.5209605646
 30
0.0
 10
10.846983431
 20
11.5189768261
 30
0.0
 10
10.84698597
 20
11.5169871888
 30
0.0
 10
10.8473738951
 20
11.5150036328
 30
0.0
 10
10.8481413334
 20
11.5130357828
 30
0.0
 10
10.8492813231
 20
11.5110893809
 30
0.0
 10
10.8507869302
 20
11.5091669927
 30
0.0
 10
10.8526532719
 20
11.5072711142
 30
0.0
 10
10.854875245
 20
11.5054039908
 30
0.0
 10
10.857448014
 20
11.5035690619
 30
0.0
 10
10.8603656903
 20
11.5017697216
 30
0.0
 10
10.8636217616
 20
11.5000100062
 30
0.0
 10
10.8672086946
 20
11.4982938831
 30
0.0
 10
10.8711181017
 20
11.4966253743
 30
0.0
 10
10.8753407418
 20
11.4950085884
 30
0.0
 10
10.8798665042
 20
11.4934472904
 30
0.0
 10
10.8846845454
 20
11.4919455072
 30
0.0
 10
10.8897832307
 20
11.4905066494
 30
0.0
 10
10.8970862437
 20
11.4886397345
 30
0.0
 10
10.906829483
 20
11.4865048001
 30
0.0
 10
10.9192025
 20
11.4842929207
 30
0.0
 10
10.9323608508
 20
11.4824046786
 30
0.0
 10
10.9461764674
 20
11.4808590212
 30
0.0
 10
10.9556024862
 20
11.4800782429
 30
0.0
 10
10.9604007188
 20
11.4797454843
 30
0.0
  0
SPLINE
  5
37A
100
AcDbEntity
  8
0
100
AcDbSpline
 62
7
  6
CONTINUOUS
 70
0
 71
3
 72
31
 73
27
 74
0
 42
0.0000001
 43
0.0000001
 44
0.0000000001
 40
0.0
 40
0.0
 40
0.0
 40
0.0
 40
0.0129908326
 40
0.0262789197
 40
0.0401403995
 40
0.0548154655
 40
0.070502624
 40
0.0873575324
 40
0.1054999135
 40
0.1250174976
 40
0.1459722218
 40
0.1684066225
 40
0.192344802
 40
0.2177986721
 40
0.2447685193
 40
0.273244546
 40
0.3032105757
 40
0.3346418891
 40
0.4017719984
 40
0.474341614
 40
0.5519836135
 40
0.6342754647
 40
0.7207484558
 40
0.8108891583
 40
0.9041690003
 40
1.0
 40
1.0
 40
1.0
 40
1.0
 10
10.8160000578
 20
11.4880517526
 30
0.0
 10
10.8160000578
 20
11.487400557
 30
0.0
 10
10.8161054332
 20
11.4860809869
 30
0.0
 10
10.8165769853
 20
11.4841173928
 30
0.0
 10
10.8173591551
 20
11.4821648871
 30
0.0
 10
10.8184480645
 20
11.4802275575
 30
0.0
 10
10.8198402557
 20
11.4783078115
 30
0.0
 10
10.8215321007
 20
11.4764075001
 30
0.0
 10
10.8235206556
 20
11.4745288924
 30
0.0
 10
10.8258025172
 20
11.4726742154
 30
0.0
 10
10.8283740308
 20
11.4708458786
 30
0.0
 10
10.8312312656
 20
11.4690467657
 30
0.0
 10
10.8343695597
 20
11.4672793961
 30
0.0
 10
10.8377839607
 20
11.4655467268
 30
0.0
 10
10.8414689252
 20
11.4638515581
 30
0.0
 10
10.8454184072
 20
11.4621965606
 30
0.0
 10
10.8496259818
 20
11.4605846341
 30
0.0
 10
10.8557052817
 20
11.4584492162
 30
0.0
 10
10.8639069854
 20
11.455923146
 30
0.0
 10
10.8744498
 20
11.4531656518
 30
0.0
 10
10.8858296699
 20
11.4506380801
 30
0.0
 10
10.8979710494
 20
11.448357606
 30
0.0
 10
10.9107932247
 20
11.4463398848
 30
0.0
 10
10.9242112639
 20
11.4445984327
 30
0.0
 10
10.9381351034
 20
11.4431454168
 30
0.0
 10
10.9475850942
 20
11.4423841309
 30
0.0
 10
10.952377335
 20
11.4420517879
 30
0.0
  0
SPLINE
  5
37B
100
AcDbEntity
  8
0
100
AcDbSpline
 62
7
  6
CONTINUOUS
 70
0
 71
3
 72
31
 73
27
 74
0
 42
0.0000001
 43
0.0000001
 44
0.0000000001
 40
0.0
 40
0.0
 40
0.0
 40
0.0
 40
0.0129908326
 40
0.0262789197
 40
0.0401403995
 40
0.0548154655
 40
0.070502624
 40
0.0873575324
 40
0.1054999135
 40
0.1250174976
 40
0.1459722218
 40
0.1684066225
 40
0.192344802
 40
0.2177986721
 40
0.2447685193
 40
0.2732445459
 40
0.3032105756
 40
0.334641889
 40
0.4017719984
 40
0.474341614
 40
0.5519836135
 40
0.6342754646
 40
0.7207484558
 40
0.8108891583
 40
0.9041690003
 40
1.0
 40
1.0
 40
1.0
 40
1.0
 10
10.8160000578
 20
11.4725969385
 30
0.0
 10
10.8160000578
 20
11.4719457429
 30
0.0
 10
10.8161054332
 20
11.4706261728
 30
0.0
 10
10.8165769853
 20
11.4686625787
 30
0.0
 10
10.8173591551
 20
11.466710073
 30
0.0
 10
10.8184480645
 20
11.4647727433
 30
0.0
 10
10.8198402557
 20
11.4628529974
 30
0.0
 10
10.8215321007
 20
11.460952686
 30
0.0
 10
10.8235206556
 20
11.4590740783
 30
0.0
 10
10.8258025172
 20
11.4572194012
 30
0.0
 10
10.8283740308
 20
11.4553910645
 30
0.0
 10
10.8312312656
 20
11.4535919516
 30
0.0
 10
10.8343695597
 20
11.4518245819
 30
0.0
 10
10.8377839606
 20
11.4500919127
 30
0.0
 10
10.8414689251
 20
11.4483967439
 30
0.0
 10
10.8454184072
 20
11.4467417465
 30
0.0
 10
10.8496259818
 20
11.44512982
 30
0.0
 10
10.8557052817
 20
11.4429944021
 30
0.0
 10
10.8639069854
 20
11.4404683319
 30
0.0
 10
10.8744498
 20
11.4377108376
 30
0.0
 10
10.8858296699
 20
11.435183266
 30
0.0
 10
10.8979710494
 20
11.4329027919
 30
0.0
 10
10.9107932247
 20
11.4308850706
 30
0.0
 10
10.9242112639
 20
11.4291436186
 30
0.0
 10
10.9381351034
 20
11.4276906026
 30
0.0
 10
10.9475850942
 20
11.4269293168
 30
0.0
 10
10.952377335
 20
11.4265969737
 30
0.0
  0
SPLINE
  5
37C
100
AcDbEntity
  8
0
100
AcDbSpline
 62
7
  6
CONTINUOUS
 70
0
 71
3
 72
32
 73
28
 74
0
 42
0.0000001
 43
0.0000001
 44
0.0000000001
 40
0.0
 40
0.0
 40
0.0
 40
0.0
 40
0.0153590139
 40
0.029837212
 40
0.0437740515
 40
0.0575535408
 40
0.0715741446
 40
0.0862127541
 40
0.1017969879
 40
0.1185910846
 40
0.1367993716
 40
0.1565704612
 40
0.1780092028
 40
0.2011868164
 40
0.2261442257
 40
0.2529028684
 40
0.2814658843
 40
0.3118208946
 40
0.3439462358
 40
0.3778077021
 40
0.4505595652
 40
0.5296635273
 40
0.6146048567
 40
0.7047918351
 40
0.7995611989
 40
0.8982244857
 40
1.0
 40
1.0
 40
1.0
 40
1.0
 10
11.0992904269
 20
11.513972015
 30
0.0
 10
11.0995193518
 20
11.5143504241
 30
0.0
 10
11.0999177484
 20
11.5151154538
 30
0.0
 10
11.1003253832
 20
11.5163137589
 30
0.0
 10
11.1005189878
 20
11.51751954
 30
0.0
 10
11.1004958682
 20
11.5187275485
 30
0.0
 10
11.1002567505
 20
11.5199321239
 30
0.0
 10
11.0998039677
 20
11.5211285772
 30
0.0
 10
11.0991409372
 20
11.5223138974
 30
0.0
 10
11.0982710731
 20
11.5234865372
 30
0.0
 10
11.0971968109
 20
11.5246449628
 30
0.0
 10
11.0959208187
 20
11.5257878872
 30
0.0
 10
11.0944456432
 20
11.5269136643
 30
0.0
 10
11.09277406
 20
11.5280202496
 30
0.0
 10
11.0909094505
 20
11.5291058374
 30
0.0
 10
11.0888554157
 20
11.530168175
 30
0.0
 10
11.0866160918
 20
11.5312051469
 30
0.0
 10
11.0841960527
 20
11.5322147426
 30
0.0
 10
11.0816001922
 20
11.5331947253
 30
0.0
 10
11.0778205774
 20
11.5344904232
 30
0.0
 10
11.072690388
 20
11.5360094695
 30
0.0
 10
11.0660685713
 20
11.5376438905
 30
0.0
 10
11.0588958282
 20
11.5391166628
 30
0.0
 10
11.0512319017
 20
11.5404151538
 30
0.0
 10
11.0431400061
 20
11.5415284323
 30
0.0
 10
11.0346881206
 20
11.5424466805
 30
0.0
 10
11.0289349241
 20
11.5429176813
 30
0.0
 10
11.0260112926
 20
11.5431204358
 30
0.0
  0
SPLINE
  5
37D
100
AcDbEntity
  8
0
100
AcDbSpline
 62
7
  6
CONTINUOUS
 70
0
 71
3
 72
9
 73
5
 74
0
 42
0.0000001
 43
0.0000001
 44
0.0000000001
 40
0.0
 40
0.0
 40
0.0
 40
0.0
 40
0.5232968201
 40
1.0
 40
1.0
 40
1.0
 40
1.0
 10
11.2466915462
 20
11.5060494259
 30
0.0
 10
11.249159732
 20
11.5048301777
 30
0.0
 10
11.2538138672
 20
11.5023702197
 30
0.0
 10
11.2582909361
 20
11.4995964827
 30
0.0
 10
11.2603631095
 20
11.4981839934
 30
0.0
  0
SPLINE
  5
37E
100
AcDbEntity
  8
0
100
AcDbSpline
 62
7
  6
CONTINUOUS
 70
0
 71
3
 72
53
 73
49
 74
0
 42
0.0000001
 43
0.0000001
 44
0.0000000001
 40
0.0
 40
0.0
 40
0.0
 40
0.0
 40
0.0098557715
 40
0.0191420107
 40
0.0278782461
 40
0.0360913361
 40
0.043815935
 40
0.0510961667
 40
0.0579873088
 40
0.0645560703
 40
0.0708811974
 40
0.0770519598
 40
0.0831650488
 40
0.0893202143
 40
0.0956149685
 40
0.1021400481
 40
0.1089758055
 40
0.1161910813
 40
0.1238427844
 40
0.1319765998
 40
0.1406288974
 40
0.149827313
 40
0.1595925852
 40
0.1699398867
 40
0.1808789608
 40
0.1924158714
 40
0.2045531373
 40
0.2172899753
 40
0.230623569
 40
0.2445484625
 40
0.2741393525
 40
0.3059867868
 40
0.339989877
 40
0.3760286617
 40
0.4139670922
 40
0.4536555149
 40
0.4949324449
 40
0.5376259395
 40
0.5815552489
 40
0.6265322531
 40
0.6723626356
 40
0.7188470199
 40
0.765782201
 40
0.8129627605
 40
0.8601816855
 40
0.9072301182
 40
0.9539072066
 40
1.0
 40
1.0
 40
1.0
 40
1.0
 10
11.2603631095
 20
11.4981839934
 30
0.0
 10
11.2614611422
 20
11.4974355234
 30
0.0
 10
11.2635604074
 20
11.4959318563
 30
0.0
 10
11.2664954849
 20
11.4935804378
 30
0.0
 10
11.2691184067
 20
11.491203297
 30
0.0
 10
11.2714261776
 20
11.4888029762
 30
0.0
 10
11.2734160035
 20
11.4863816156
 30
0.0
 10
11.2750850171
 20
11.4839412311
 30
0.0
 10
11.2764307592
 20
11.4814841492
 30
0.0
 10
11.2774502325
 20
11.4790126315
 30
0.0
 10
11.2781406572
 20
11.4765297133
 30
0.0
 10
11.2784998382
 20
11.4740392484
 30
0.0
 10
11.2785258979
 20
11.4715458466
 30
0.0
 10
11.2782190115
 20
11.4690545939
 30
0.0
 10
11.2775804554
 20
11.4665701958
 30
0.0
 10
11.2766123265
 20
11.4640967229
 30
0.0
 10
11.2753177116
 20
11.4616371441
 30
0.0
 10
11.273699187
 20
11.4591940282
 30
0.0
 10
11.2717595131
 20
11.4567695656
 30
0.0
 10
11.2695015199
 20
11.4543657247
 30
0.0
 10
11.2669277991
 20
11.4519848867
 30
0.0
 10
11.2640414786
 20
11.4496292074
 30
0.0
 10
11.2608458183
 20
11.4473010658
 30
0.0
 10
11.2573443346
 20
11.4450030877
 30
0.0
 10
11.2535411008
 20
11.4427375996
 30
0.0
 10
11.2494403788
 20
11.4405072564
 30
0.0
 10
11.2450468601
 20
11.4383146268
 30
0.0
 10
11.2403656536
 20
11.4361621127
 30
0.0
 10
11.2354021074
 20
11.4340523352
 30
0.0
 10
11.2282698622
 20
11.4312423697
 30
0.0
 10
11.2186799818
 20
11.4278710964
 30
0.0
 10
11.2063700234
 20
11.4241106914
 30
0.0
 10
11.1930920017
 20
11.4205755796
 30
0.0
 10
11.1789079194
 20
11.4172825621
 30
0.0
 10
11.1638838568
 20
11.41424734
 30
0.0
 10
11.1480900971
 20
11.4114843998
 30
0.0
 10
11.1316006084
 20
11.4090069581
 30
0.0
 10
11.1144927422
 20
11.4068268058
 30
0.0
 10
11.0968468176
 20
11.4049543015
 30
0.0
 10
11.0787457034
 20
11.4033983616
 30
0.0
 10
11.0602744347
 20
11.4021664218
 30
0.0
 10
11.0415198344
 20
11.4012643216
 30
0.0
 10
11.0225700459
 20
11.4006963183
 30
0.0
 10
11.0035141238
 20
11.4004651271
 30
0.0
 10
10.9844418365
 20
11.4005719015
 30
0.0
 10
10.9654422934
 20
11.401016017
 30
0.0
 10
10.9466055673
 20
11.4017955308
 30
0.0
 10
10.934118724
 20
11.4025419469
 30
0.0
 10
10.927918869
 20
11.4029719083
 30
0.0
  0
SPLINE
  5
37F
100
AcDbEntity
  8
0
100
AcDbSpline
 62
7
  6
CONTINUOUS
 70
0
 71
3
 72
24
 73
20
 74
0
 42
0.0000001
 43
0.0000001
 44
0.0000000001
 40
0.0
 40
0.0
 40
0.0
 40
0.0
 40
0.0768148423
 40
0.1490020095
 40
0.2168816466
 40
0.2493388967
 40
0.2808810514
 40
0.3414712848
 40
0.3992847651
 40
0.4550423042
 40
0.5095556744
 40
0.5636995012
 40
0.6183676553
 40
0.6744255891
 40
0.7326705108
 40
0.793806629
 40
0.8584335252
 40
0.9270392211
 40
1.0
 40
1.0
 40
1.0
 40
1.0
 10
11.594053559
 20
10.6723819185
 30
0.0
 10
11.5960328515
 20
10.6706672829
 30
0.0
 10
11.5997736549
 20
10.6672244033
 30
0.0
 10
11.6048535824
 20
10.6618434049
 30
0.0
 10
11.6085432
 20
10.6572530087
 30
0.0
 10
11.6111143634
 20
10.6535630073
 30
0.0
 10
11.6133743137
 20
10.6499652445
 30
0.0
 10
11.6157675506
 20
10.6454366284
 30
0.0
 10
11.6179421574
 20
10.6398974776
 30
0.0
 10
11.6193750314
 20
10.6343335678
 30
0.0
 10
11.6200601882
 20
10.6287540611
 30
0.0
 10
11.6199952657
 20
10.6231697836
 30
0.0
 10
11.6191799264
 20
10.6175922562
 30
0.0
 10
11.6176182318
 20
10.6120320514
 30
0.0
 10
11.6153154959
 20
10.6064978357
 30
0.0
 10
11.6122780309
 20
10.6009962268
 30
0.0
 10
11.6085120135
 20
10.5955324788
 30
0.0
 10
11.6040241248
 20
10.5901122065
 30
0.0
 10
11.6006630555
 20
10.5866418571
 30
0.0
 10
11.5988740478
 20
10.5849138083
 30
0.0
  0
SPLINE
  5
380
100
AcDbEntity
  8
0
100
AcDbSpline
 62
7
  6
CONTINUOUS
 70
0
 71
3
 72
83
 73
79
 74
0
 42
0.0000001
 43
0.0000001
 44
0.0000000001
 40
0.0
 40
0.0
 40
0.0
 40
0.0
 40
0.0040122636
 40
0.0078520577
 40
0.0115286803
 40
0.0150531945
 40
0.0216973117
 40
0.0248549564
 40
0.0279271287
 40
0.0309354499
 40
0.0339030631
 40
0.0368542102
 40
0.0398135895
 40
0.0428056724
 40
0.0458540815
 40
0.0489809907
 40
0.0522067954
 40
0.0555498964
 40
0.0590264898
 40
0.0626507014
 40
0.0664347415
 40
0.0703888936
 40
0.0745217853
 40
0.0788406638
 40
0.0833513905
 40
0.0880586315
 40
0.0929661511
 40
0.0980767897
 40
0.1033925121
 40
0.1089146969
 40
0.1146441228
 40
0.1267239218
 40
0.1396287237
 40
0.1533477147
 40
0.1678648441
 40
0.1831594818
 40
0.1992069134
 40
0.2159791434
 40
0.2334450012
 40
0.2515705829
 40
0.2703196206
 40
0.2896535112
 40
0.3095317591
 40
0.3299120371
 40
0.35075036
 40
0.3720014141
 40
0.3936185138
 40
0.4155538938
 40
0.4601829555
 40
0.5054912616
 40
0.5510725017
 40
0.5965171757
 40
0.6414174037
 40
0.6853716037
 40
0.7068719485
 40
0.727990537
 40
0.7486811476
 40
0.7688988968
 40
0.7886002932
 40
0.8077436429
 40
0.8262890372
 40
0.8441986152
 40
0.8614369085
 40
0.8779708378
 40
0.8937702847
 40
0.9088083169
 40
0.9230614618
 40
0.936510588
 40
0.9491412825
 40
0.9609448357
 40
0.9665360615
 40
0.9719204384
 40
0.9770991133
 40
0.9820740664
 40
0.9868479273
 40
0.9914240128
 40
0.9958063681
 40
1.0
 40
1.0
 40
1.0
 40
1.0
 10
10.4011259522
 20
10.6679779208
 30
0.0
 10
10.3998420628
 20
10.6667377788
 30
0.0
 10
10.3973870797
 20
10.664249997
 30
0.0
 10
10.393983177
 20
10.6604100192
 30
0.0
 10
10.3909428627
 20
10.6565475151
 30
0.0
 10
10.3874473282
 20
10.6514726922
 30
0.0
 10
10.3845854275
 20
10.6462500369
 30
0.0
 10
10.3824657018
 20
10.6409230719
 30
0.0
 10
10.381275691
 20
10.6369834752
 30
0.0
 10
10.380460434
 20
10.6330357666
 30
0.0
 10
10.3800210855
 20
10.629082638
 30
0.0
 10
10.3799583989
 20
10.6251273566
 30
0.0
 10
10.3802721999
 20
10.6211731761
 30
0.0
 10
10.3809621507
 20
10.6172232893
 30
0.0
 10
10.382027456
 20
10.6132807781
 30
0.0
 10
10.3834665526
 20
10.609348357
 30
0.0
 10
10.3852779487
 20
10.605428521
 30
0.0
 10
10.3874601276
 20
10.6015236606
 30
0.0
 10
10.3900110795
 20
10.5976358134
 30
0.0
 10
10.3929289201
 20
10.5937670028
 30
0.0
 10
10.3962118364
 20
10.589919373
 30
0.0
 10
10.3998576104
 20
10.5860948598
 30
0.0
 10
10.4038639571
 20
10.5822954456
 30
0.0
 10
10.4082285962
 20
10.5785233163
 30
0.0
 10
10.4129488918
 20
10.5747805263
 30
0.0
 10
10.418021984
 20
10.571069096
 30
0.0
 10
10.4234449644
 20
10.5673912449
 30
0.0
 10
10.4292146422
 20
10.563749121
 30
0.0
 10
10.4353275257
 20
10.560144753
 30
0.0
 10
10.4417800499
 20
10.5565802704
 30
0.0
 10
10.4509945039
 20
10.5517992449
 30
0.0
 10
10.4633519208
 20
10.5459550796
 30
0.0
 10
10.4792175911
 20
10.5392529529
 30
0.0
 10
10.4963341732
 20
10.5327589704
 30
0.0
 10
10.5146609013
 20
10.5264888703
 30
0.0
 10
10.5341543769
 20
10.5204578248
 30
0.0
 10
10.5547680671
 20
10.5146802936
 30
0.0
 10
10.5764527302
 20
10.5091704386
 30
0.0
 10
10.5991564147
 20
10.5039415594
 30
0.0
 10
10.622824659
 20
10.4990062993
 30
0.0
 10
10.6474006487
 20
10.4943767699
 30
0.0
 10
10.6728253235
 20
10.4900640702
 30
0.0
 10
10.6990375619
 20
10.4860787182
 30
0.0
 10
10.725974323
 20
10.4824304256
 30
0.0
 10
10.753570799
 20
10.4791279207
 30
0.0
 10
10.7817605724
 20
10.4761793358
 30
0.0
 10
10.81047585
 20
10.473591711
 30
0.0
 10
10.849595098
 20
10.4706143514
 30
0.0
 10
10.8992960422
 20
10.4678492994
 30
0.0
 10
10.9595672494
 20
10.4660628012
 30
0.0
 10
11.0202273719
 20
10.4658070551
 30
0.0
 10
11.0806930561
 20
10.4670844457
 30
0.0
 10
11.140382793
 20
10.4698826007
 30
0.0
 10
11.1893533075
 20
10.473484362
 30
0.0
 10
11.2276980044
 20
10.4771224059
 30
0.0
 10
11.2556975156
 20
10.4801898557
 30
0.0
 10
11.283081374
 20
10.4836085513
 30
0.0
 10
11.3097837431
 20
10.4873702069
 30
0.0
 10
11.3357403649
 20
10.491465813
 30
0.0
 10
11.3608888292
 20
10.4958853164
 30
0.0
 10
11.3851686842
 20
10.5006180389
 30
0.0
 10
11.4085215996
 20
10.5056525598
 30
0.0
 10
11.4308915331
 20
10.5109765216
 30
0.0
 10
11.4522248361
 20
10.5165771368
 30
0.0
 10
11.4724704472
 20
10.5224407678
 30
0.0
 10
11.4915800343
 20
10.5285531259
 30
0.0
 10
11.5095080135
 20
10.5348995883
 30
0.0
 10
11.526212051
 20
10.5414647027
 30
0.0
 10
11.5416523908
 20
10.5482327542
 30
0.0
 10
11.5536442452
 20
10.5541305971
 30
0.0
 10
11.5625592995
 20
10.5589521123
 30
0.0
 10
11.5687857807
 20
10.5625433574
 30
0.0
 10
11.5746701543
 20
10.5661731203
 30
0.0
 10
11.5802091101
 20
10.5698393129
 30
0.0
 10
11.5853993835
 20
10.5735399026
 30
0.0
 10
11.5902377701
 20
10.5772727966
 30
0.0
 10
11.5947211233
 20
10.5810352978
 30
0.0
 10
11.597532122
 20
10.5836176075
 30
0.0
 10
11.5988740478
 20
10.5849138083
 30
0.0
  0
SPLINE
  5
381
100
AcDbEntity
  8
0
100
AcDbSpline
 62
7
  6
CONTINUOUS
 70
0
 71
3
 72
16
 73
12
 74
0
 42
0.0000001
 43
0.0000001
 44
0.0000000001
 40
0.0
 40
0.0
 40
0.0
 40
0.0
 40
0.109886593
 40
0.2213936756
 40
0.3360630196
 40
0.4553029758
 40
0.5170505658
 40
0.5803899244
 40
0.7123074986
 40
0.8519536905
 40
1.0
 40
1.0
 40
1.0
 40
1.0
 10
11.5939999627
 20
10.6264446216
 30
0.0
 10
11.5939999288
 20
10.6247645935
 30
0.0
 10
11.593784115
 20
10.6213759685
 30
0.0
 10
11.5928164586
 20
10.6163173638
 30
0.0
 10
11.5912080444
 20
10.6112748438
 30
0.0
 10
11.5893584448
 20
10.6071402878
 30
0.0
 10
11.5875786969
 20
10.6038547054
 30
0.0
 10
11.5855407922
 20
10.6004935795
 30
0.0
 10
11.5825815562
 20
10.5963061595
 30
0.0
 10
11.578456122
 20
10.5913854253
 30
0.0
 10
11.575387966
 20
10.588227994
 30
0.0
 10
11.5737599748
 20
10.5866554751
 30
0.0
  0
SPLINE
  5
382
100
AcDbEntity
  8
0
100
AcDbSpline
 62
7
  6
CONTINUOUS
 70
0
 71
3
 72
66
 73
62
 74
0
 42
0.0000001
 43
0.0000001
 44
0.0000000001
 40
0.0
 40
0.0
 40
0.0
 40
0.0
 40
0.0028080572
 40
0.0056357887
 40
0.0085024501
 40
0.0114264369
 40
0.0144249559
 40
0.0175138575
 40
0.0240151607
 40
0.0310304282
 40
0.0347555509
 40
0.0386347004
 40
0.0468768128
 40
0.0557959509
 40
0.0654165868
 40
0.0757529258
 40
0.0868114156
 40
0.0985918137
 40
0.1110887282
 40
0.124292239
 40
0.1381886264
 40
0.1527610492
 40
0.1679895936
 40
0.1838520397
 40
0.2003237003
 40
0.2173779977
 40
0.2349864586
 40
0.2531188875
 40
0.2717436638
 40
0.290827655
 40
0.3103366294
 40
0.3302350559
 40
0.3710526562
 40
0.4129793345
 40
0.4557017641
 40
0.4988988068
 40
0.5422446076
 40
0.5854119368
 40
0.6280752214
 40
0.6699139042
 40
0.7106155441
 40
0.7304458832
 40
0.749880205
 40
0.7688832698
 40
0.7874209722
 40
0.8054604743
 40
0.8229704319
 40
0.8399208778
 40
0.8562837629
 40
0.872032731
 40
0.8871436343
 40
0.9015945766
 40
0.9153662015
 40
0.928442219
 40
0.9408094783
 40
0.9524589908
 40
0.9633860631
 40
0.9735915326
 40
0.9830833216
 40
0.9918778554
 40
1.0
 40
1.0
 40
1.0
 40
1.0
 10
10.4060000374
 20
11.2011723122
 30
0.0
 10
10.4060000342
 20
11.200018365
 30
0.0
 10
10.4061010646
 20
11.1977011391
 30
0.0
 10
10.4065549881
 20
11.1942326315
 30
0.0
 10
10.4073111667
 20
11.1907683759
 30
0.0
 10
10.4083687395
 20
11.1873108369
 30
0.0
 10
10.4097266827
 20
11.1838617092
 30
0.0
 10
10.4119743569
 20
11.1791977877
 30
0.0
 10
10.4155814142
 20
11.1733802204
 30
0.0
 10
10.4200180606
 20
11.1678372722
 30
0.0
 10
10.4241151757
 20
11.1634408294
 30
0.0
 10
10.4287767751
 20
11.1588906922
 30
0.0
 10
10.4353599953
 20
11.1532691963
 30
0.0
 10
10.4442408585
 20
11.1467549378
 30
0.0
 10
10.4542400418
 20
11.1403524324
 30
0.0
 10
10.465337818
 20
11.1340733423
 30
0.0
 10
10.4775131894
 20
11.1279297463
 30
0.0
 10
10.4907423151
 20
11.1219334233
 30
0.0
 10
10.5049992469
 20
11.1160964161
 30
0.0
 10
10.5202557112
 20
11.1104304248
 30
0.0
 10
10.5364812942
 20
11.1049468151
 30
0.0
 10
10.5536435579
 20
11.0996568836
 30
0.0
 10
10.571708033
 20
11.0945711671
 30
0.0
 10
10.5906384098
 20
11.0897002352
 30
0.0
 10
10.6103965416
 20
11.0850538389
 30
0.0
 10
10.6309425945
 20
11.0806415349
 30
0.0
 10
10.6522351057
 20
11.0764723088
 30
0.0
 10
10.6742310674
 20
11.0725545717
 30
0.0
 10
10.6968860416
 20
11.0688964444
 30
0.0
 10
10.7201542304
 20
11.0655052127
 30
0.0
 10
10.7439886318
 20
11.0623878982
 30
0.0
 10
10.7767358413
 20
11.0585729015
 30
0.0
 10
10.8187291076
 20
11.054550243
 30
0.0
 10
10.8701670807
 20
11.0509390355
 30
0.0
 10
10.9226543451
 20
11.0485339177
 30
0.0
 10
10.9757665437
 20
11.0473545935
 30
0.0
 10
11.0290746058
 20
11.0474107925
 30
0.0
 10
11.082147684
 20
11.0487020617
 30
0.0
 10
11.1345570259
 20
11.0512177513
 30
0.0
 10
11.1858789123
 20
11.0549372283
 30
0.0
 10
11.2277512651
 20
11.0590489939
 30
0.0
 10
11.26038322
 20
11.0629337853
 30
0.0
 10
11.2841182697
 20
11.0661014231
 30
0.0
 10
11.3072784695
 20
11.0695416578
 30
0.0
 10
11.3298170338
 20
11.0732475543
 30
0.0
 10
11.3516884065
 20
11.0772116142
 30
0.0
 10
11.3728484047
 20
11.0814256357
 30
0.0
 10
11.3932542892
 20
11.0858812165
 30
0.0
 10
11.4128648908
 20
11.0905690849
 30
0.0
 10
11.4316406657
 20
11.0954798578
 30
0.0
 10
11.4495438141
 20
11.1006034334
 30
0.0
 10
11.466538342
 20
11.1059293924
 30
0.0
 10
11.4825901405
 20
11.1114470033
 30
0.0
 10
11.497667144
 20
11.1171448901
 30
0.0
 10
11.5117392977
 20
11.1230117917
 30
0.0
 10
11.524778799
 20
11.1290357079
 30
0.0
 10
11.5367599571
 20
11.135204914
 30
0.0
 10
11.5476595373
 20
11.1415071494
 30
0.0
 10
11.5574571234
 20
11.14793105
 30
0.0
 10
11.5661327247
 20
11.1544643129
 30
0.0
 10
11.5713593
 20
11.1590625019
 30
0.0
 10
11.5737599748
 20
11.1613813758
 30
0.0
  0
SPLINE
  5
383
100
AcDbEntity
  8
0
100
AcDbSpline
 62
7
  6
CONTINUOUS
 70
0
 71
3
 72
66
 73
62
 74
0
 42
0.0000001
 43
0.0000001
 44
0.0000000001
 40
0.0
 40
0.0
 40
0.0
 40
0.0
 40
0.0028080578
 40
0.0056357861
 40
0.0085024407
 40
0.0114264174
 40
0.0144249233
 40
0.0175138096
 40
0.0240150757
 40
0.0310302972
 40
0.0347553944
 40
0.0386345179
 40
0.0468765809
 40
0.0557956695
 40
0.0654162492
 40
0.0757525343
 40
0.0868109793
 40
0.098591332
 40
0.1110881978
 40
0.124291665
 40
0.1381880158
 40
0.1527604055
 40
0.1679889152
 40
0.1838513246
 40
0.2003229614
 40
0.2173772459
 40
0.2349856817
 40
0.2531180841
 40
0.271742858
 40
0.2908268489
 40
0.3103358068
 40
0.3302342259
 40
0.3710518438
 40
0.4129785263
 40
0.4557009951
 40
0.4988980579
 40
0.5422439231
 40
0.5854112827
 40
0.6280746396
 40
0.6699133695
 40
0.7106150798
 40
0.7304454497
 40
0.7498797971
 40
0.7688828953
 40
0.7874206377
 40
0.8054601678
 40
0.8229701476
 40
0.8399206271
 40
0.8562835458
 40
0.8720325367
 40
0.8871434625
 40
0.9015944315
 40
0.9153660809
 40
0.9284421193
 40
0.9408093974
 40
0.9524589279
 40
0.9633860177
 40
0.9735915018
 40
0.9830833021
 40
0.9918778464
 40
1.0
 40
1.0
 40
1.0
 40
1.0
 10
10.4060000373
 20
10.6264471075
 30
0.0
 10
10.4060000139
 20
10.6252931594
 30
0.0
 10
10.4061010039
 20
10.6229759315
 30
0.0
 10
10.406554868
 20
10.619507418
 30
0.0
 10
10.4073109881
 20
10.616043156
 30
0.0
 10
10.4083685035
 20
10.6125856101
 30
0.0
 10
10.4097263907
 20
10.6091364749
 30
0.0
 10
10.4119739902
 20
10.6044725439
 30
0.0
 10
10.4155809574
 20
10.5986549633
 30
0.0
 10
10.4200175207
 20
10.5931120001
 30
0.0
 10
10.4241145705
 20
10.5887155465
 30
0.0
 10
10.428776105
 20
10.5841653969
 30
0.0
 10
10.4353592504
 20
10.5785438844
 30
0.0
 10
10.4442400275
 20
10.5720296055
 30
0.0
 10
10.4542391279
 20
10.5656270794
 30
0.0
 10
10.4653368282
 20
10.5593479699
 30
0.0
 10
10.4775121309
 20
10.5532043519
 30
0.0
 10
10.4907411922
 20
10.5472080051
 30
0.0
 10
10.5049980634
 20
10.5413709762
 30
0.0
 10
10.5202544728
 20
10.5357049627
 30
0.0
 10
10.5364800087
 20
10.5302213288
 30
0.0
 10
10.5536422308
 20
10.5249313737
 30
0.0
 10
10.5717066659
 20
10.5198456341
 30
0.0
 10
10.5906370076
 20
10.5149746787
 30
0.0
 10
10.6103951147
 20
10.5103282591
 30
0.0
 10
10.6309411486
 20
10.5059159311
 30
0.0
 10
10.6522336406
 20
10.5017466808
 30
0.0
 10
10.6742295886
 20
10.4978289216
 30
0.0
 10
10.6968845601
 20
10.4941707718
 30
0.0
 10
10.7201527508
 20
10.490779516
 30
0.0
 10
10.7439871531
 20
10.4876621796
 30
0.0
 10
10.7767343754
 20
10.4838471548
 30
0.0
 10
10.8187276681
 20
10.4798244604
 30
0.0
 10
10.8701656928
 20
10.4762132142
 30
0.0
 10
10.9226530115
 20
10.4738080622
 30
0.0
 10
10.9757652902
 20
10.4726287048
 30
0.0
 10
11.0290734296
 20
10.4726848764
 30
0.0
 10
11.0821466071
 20
10.4739761218
 30
0.0
 10
11.1345560413
 20
10.4764917904
 30
0.0
 10
11.185878036
 20
10.4802112525
 30
0.0
 10
11.2277504749
 20
10.4843230081
 30
0.0
 10
11.2603825016
 20
10.4882077938
 30
0.0
 10
11.2841176027
 20
10.4913754278
 30
0.0
 10
11.3072778571
 20
10.4948156614
 30
0.0
 10
11.3298164767
 20
10.4985215575
 30
0.0
 10
11.3516879
 20
10.5024856165
 30
0.0
 10
11.3728479455
 20
10.506699639
 30
0.0
 10
11.3932538791
 20
10.5111552225
 30
0.0
 10
11.4128645298
 20
10.5158430934
 30
0.0
 10
11.4316403486
 20
10.5207538698
 30
0.0
 10
11.4495435375
 20
10.52587745
 30
0.0
 10
11.4665381061
 20
10.5312034141
 30
0.0
 10
11.4825899438
 20
10.5367210314
 30
0.0
 10
11.4976669826
 20
10.5424189251
 30
0.0
 10
11.5117391684
 20
10.5482858339
 30
0.0
 10
11.5247786993
 20
10.5543097584
 30
0.0
 10
11.5367598844
 20
10.5604789735
 30
0.0
 10
11.5476594883
 20
10.566781218
 30
0.0
 10
11.5574570939
 20
10.5732051281
 30
0.0
 10
11.5661327113
 20
10.5797384009
 30
0.0
 10
11.571359296
 20
10.5843365973
 30
0.0
 10
11.5737599748
 20
10.5866554751
 30
0.0
  0
LINE
  5
384
100
AcDbEntity
  8
0
100
AcDbLine
 62
7
  6
CONTINUOUS
 10
11.6903478329
 20
9.8647302302
 11
11.6848414514
 21
9.8590504727
  0
SPLINE
  5
385
100
AcDbEntity
  8
0
100
AcDbSpline
 62
7
  6
CONTINUOUS
 70
0
 71
3
 72
23
 73
19
 74
0
 42
0.0000001
 43
0.0000001
 44
0.0000000001
 40
0.0
 40
0.0
 40
0.0
 40
0.0
 40
0.0736856646
 40
0.1431187294
 40
0.2086479799
 40
0.2707217134
 40
0.3298919998
 40
0.386806313
 40
0.4421997088
 40
0.4968743544
 40
0.551668535
 40
0.6074146351
 40
0.6648999164
 40
0.7248348785
 40
0.7878386231
 40
0.8544303399
 40
0.9250369109
 40
1.0
 40
1.0
 40
1.0
 40
1.0
 10
11.51387257
 20
11.2254219862
 30
0.0
 10
11.5153562468
 20
11.2268551081
 30
0.0
 10
11.5181494997
 20
11.229732808
 30
0.0
 10
11.5218967886
 20
11.234221052
 30
0.0
 10
11.525066977
 20
11.2387439798
 30
0.0
 10
11.5276547872
 20
11.2432972371
 30
0.0
 10
11.5296557975
 20
11.2478766402
 30
0.0
 10
11.5310650562
 20
11.2524774138
 30
0.0
 10
11.5318787522
 20
11.257093173
 30
0.0
 10
11.5320933496
 20
11.2617163072
 30
0.0
 10
11.5317082833
 20
11.2663381769
 30
0.0
 10
11.5307250494
 20
11.2709504379
 30
0.0
 10
11.5291469178
 20
11.2755456894
 30
0.0
 10
11.5269787482
 20
11.2801182109
 30
0.0
 10
11.5242249014
 20
11.2846630574
 30
0.0
 10
11.5208904193
 20
11.2891764818
 30
0.0
 10
11.5169799811
 20
11.2936543633
 30
0.0
 10
11.5140818871
 20
11.2965245419
 30
0.0
 10
11.5125456279
 20
11.2979541771
 30
0.0
  0
SPLINE
  5
386
100
AcDbEntity
  8
0
100
AcDbSpline
 62
7
  6
CONTINUOUS
 70
0
 71
3
 72
16
 73
12
 74
0
 42
0.0000001
 43
0.0000001
 44
0.0000000001
 40
0.0
 40
0.0
 40
0.0
 40
0.0
 40
0.1480465501
 40
0.2876928288
 40
0.419610374
 40
0.4829496887
 40
0.5446972201
 40
0.663937031
 40
0.7786062397
 40
0.8901132773
 40
1.0
 40
1.0
 40
1.0
 40
1.0
 10
11.5737599748
 20
11.1613813758
 30
0.0
 10
11.5753879933
 20
11.1629539211
 30
0.0
 10
11.5784561978
 20
11.1661114055
 30
0.0
 10
11.5825816881
 20
11.1710322259
 30
0.0
 10
11.5855409536
 20
11.1752197208
 30
0.0
 10
11.5875788702
 20
11.1785809069
 30
0.0
 10
11.5893586221
 20
11.1818665473
 30
0.0
 10
11.5912082138
 20
11.1860011767
 30
0.0
 10
11.5928165958
 20
11.1910437865
 30
0.0
 10
11.5937841969
 20
11.1961024811
 30
0.0
 10
11.593999958
 20
11.1994911627
 30
0.0
 10
11.5939999626
 20
11.2011712183
 30
0.0
  0
SPLINE
  5
387
100
AcDbEntity
  8
0
100
AcDbSpline
 62
7
  6
CONTINUOUS
 70
0
 71
3
 72
79
 73
75
 74
0
 42
0.0000001
 43
0.0000001
 44
0.0000000001
 40
0.0
 40
0.0
 40
0.0
 40
0.0
 40
0.0040122513
 40
0.0078520608
 40
0.0115287305
 40
0.0150533064
 40
0.0216974856
 40
0.0248551452
 40
0.0279273285
 40
0.0309356676
 40
0.0339033077
 40
0.0368544794
 40
0.0398138833
 40
0.0428059857
 40
0.0458544144
 40
0.0489813538
 40
0.0522071799
 40
0.0590226174
 40
0.062646862
 40
0.0664309072
 40
0.0703851026
 40
0.0745180413
 40
0.0788369212
 40
0.0833476849
 40
0.0880549861
 40
0.092962519
 40
0.0980731852
 40
0.1033889814
 40
0.1146396778
 40
0.126719604
 40
0.1396244807
 40
0.1533435598
 40
0.1678608371
 40
0.1831555353
 40
0.1992031189
 40
0.2159754786
 40
0.2334414226
 40
0.2515671841
 40
0.2703163344
 40
0.2896503741
 40
0.3095287796
 40
0.3299091739
 40
0.3507476923
 40
0.3719988844
 40
0.4155506386
 40
0.4601800159
 40
0.5054886565
 40
0.551070223
 40
0.5965152404
 40
0.6414157896
 40
0.6853703375
 40
0.70687081
 40
0.7279895712
 40
0.7486803339
 40
0.7688982181
 40
0.7885997802
 40
0.8077432445
 40
0.8262887959
 40
0.8441985091
 40
0.8614369017
 40
0.8779709846
 40
0.8937705315
 40
0.9088086721
 40
0.9230619338
 40
0.9365111397
 40
0.9491419502
 40
0.9609455832
 40
0.9719202071
 40
0.9770989218
 40
0.9820739354
 40
0.9868478619
 40
0.9914239971
 40
0.9958063758
 40
1.0
 40
1.0
 40
1.0
 40
1.0
 10
10.48612743
 20
11.2966963538
 30
0.0
 10
10.4850257815
 20
11.295632243
 30
0.0
 10
10.4829192644
 20
11.2934975784
 30
0.0
 10
10.4799985097
 20
11.2902026354
 30
0.0
 10
10.4773897104
 20
11.2868883483
 30
0.0
 10
10.4743902804
 20
11.2825338146
 30
0.0
 10
10.4719345992
 20
11.2780524147
 30
0.0
 10
10.470115714
 20
11.2734815475
 30
0.0
 10
10.4690946316
 20
11.2701011204
 30
0.0
 10
10.4683951143
 20
11.2667137324
 30
0.0
 10
10.4680180785
 20
11.2633216974
 30
0.0
 10
10.4679642957
 20
11.2599278037
 30
0.0
 10
10.4682335911
 20
11.2565348664
 30
0.0
 10
10.4688255845
 20
11.2531455978
 30
0.0
 10
10.4697396568
 20
11.2497626912
 30
0.0
 10
10.4709745999
 20
11.2463883246
 30
0.0
 10
10.4730851841
 20
11.2418209026
 30
0.0
 10
10.4758229088
 20
11.2373554245
 30
0.0
 10
10.4790937252
 20
11.2330188501
 30
0.0
 10
10.4819108179
 20
11.2297169933
 30
0.0
 10
10.4850391043
 20
11.2264354231
 30
0.0
 10
10.4884768464
 20
11.2231752821
 30
0.0
 10
10.4922219384
 20
11.2199385123
 30
0.0
 10
10.4962722689
 20
11.2167269678
 30
0.0
 10
10.5006253373
 20
11.2135423552
 30
0.0
 10
10.5052785767
 20
11.2103864959
 30
0.0
 10
10.5102293302
 20
11.2072612747
 30
0.0
 10
10.5173585966
 20
11.2030578421
 30
0.0
 10
10.5270124511
 20
11.1979088483
 30
0.0
 10
10.5395211323
 20
11.1919929488
 30
0.0
 10
10.5531351567
 20
11.1862420154
 30
0.0
 10
10.5678222042
 20
11.1806697457
 30
0.0
 10
10.5835477555
 20
11.1752896598
 30
0.0
 10
10.600274395
 20
11.1701145626
 30
0.0
 10
10.6179622813
 20
11.165157111
 30
0.0
 10
10.6365691205
 20
11.1604293063
 30
0.0
 10
10.6560503387
 20
11.1559425355
 30
0.0
 10
10.6763592267
 20
11.1517078394
 30
0.0
 10
10.6974470116
 20
11.1477353505
 30
0.0
 10
10.7192630212
 20
11.1440347816
 30
0.0
 10
10.7417548147
 20
11.1406151326
 30
0.0
 10
10.7648682852
 20
11.1374846032
 30
0.0
 10
10.7885478723
 20
11.1346508686
 30
0.0
 10
10.8210646078
 20
11.1312498088
 30
0.0
 10
10.8627033891
 20
11.1278043492
 30
0.0
 10
10.9135893287
 20
11.1249730269
 30
0.0
 10
10.9653061382
 20
11.1234401525
 30
0.0
 10
11.0173563742
 20
11.1232206981
 30
0.0
 10
11.0692398452
 20
11.1243168097
 30
0.0
 10
11.1204574944
 20
11.1267178047
 30
0.0
 10
11.1624773549
 20
11.1298083006
 30
0.0
 10
11.1953795771
 20
11.1329300363
 30
0.0
 10
11.219404964
 20
11.1355620593
 30
0.0
 10
11.2429020804
 20
11.1384955406
 30
0.0
 10
11.2658144352
 20
11.1417233038
 30
0.0
 10
11.2880868915
 20
11.1452375511
 30
0.0
 10
11.3096658941
 20
11.1490298169
 30
0.0
 10
11.3304995798
 20
11.1530907726
 30
0.0
 10
11.3505378882
 20
11.1574107108
 30
0.0
 10
11.3697327291
 20
11.1619790474
 30
0.0
 10
11.3880380858
 20
11.1667846921
 30
0.0
 10
11.4054101254
 20
11.1718160964
 30
0.0
 10
11.4218073738
 20
11.1770608913
 30
0.0
 10
11.4371907666
 20
11.1825065473
 30
0.0
 10
11.4515238155
 20
11.1881398561
 30
0.0
 10
11.4647729298
 20
11.1939472991
 30
0.0
 10
11.4769065832
 20
11.1999152494
 30
0.0
 10
11.4862383248
 20
11.2051062975
 30
0.0
 10
11.4931040494
 20
11.2093412304
 30
0.0
 10
11.4978568552
 20
11.2124871008
 30
0.0
 10
11.502310458
 20
11.2156624635
 30
0.0
 10
11.5064621142
 20
11.2188655423
 30
0.0
 10
11.5103091144
 20
11.2220939988
 30
0.0
 10
11.5127211217
 20
11.2243097725
 30
0.0
 10
11.51387257
 20
11.2254219862
 30
0.0
  0
SPLINE
  5
388
100
AcDbEntity
  8
0
100
AcDbSpline
 62
7
  6
CONTINUOUS
 70
0
 71
3
 72
22
 73
18
 74
0
 42
0.0000001
 43
0.0000001
 44
0.0000000001
 40
0.0
 40
0.0
 40
0.0
 40
0.0
 40
0.1587196863
 40
0.2346723563
 40
0.3082883758
 40
0.3795257016
 40
0.4483471391
 40
0.5147196531
 40
0.578617493
 40
0.6400199088
 40
0.6989134955
 40
0.7552927586
 40
0.8091604793
 40
0.8605328667
 40
0.9094369209
 40
0.9559095985
 40
1.0
 40
1.0
 40
1.0
 40
1.0
 10
11.5062906461
 20
9.7780829512
 30
0.0
 10
11.5159820641
 20
9.7806415622
 30
0.0
 10
11.5302584042
 20
9.7846311548
 30
0.0
 10
11.5488715392
 20
9.7903428444
 30
0.0
 10
11.5621287655
 20
9.7946687813
 30
0.0
 10
11.5748767897
 20
9.7990958214
 30
0.0
 10
11.5871041941
 20
9.8036198912
 30
0.0
 10
11.5987999113
 20
9.8082370777
 30
0.0
 10
11.6099534949
 20
9.8129430069
 30
0.0
 10
11.6205549032
 20
9.8177335834
 30
0.0
 10
11.630594615
 20
9.822604464
 30
0.0
 10
11.6400636916
 20
9.8275511028
 30
0.0
 10
11.6489536775
 20
9.8325693655
 30
0.0
 10
11.6572569122
 20
9.8376547297
 30
0.0
 10
11.6649660798
 20
9.8428030583
 30
0.0
 10
11.6720737619
 20
9.8480093368
 30
0.0
 10
11.6765221015
 20
9.8516087608
 30
0.0
 10
11.6786376693
 20
9.8534190801
 30
0.0
  0
SPLINE
  5
389
100
AcDbEntity
  8
0
100
AcDbSpline
 62
7
  6
CONTINUOUS
 70
0
 71
3
 72
29
 73
25
 74
0
 42
0.0000001
 43
0.0000001
 44
0.0000000001
 40
0.0
 40
0.0
 40
0.0
 40
0.0
 40
0.0208568394
 40
0.0417810564
 40
0.062828797
 40
0.0840632085
 40
0.105554185
 40
0.1273769225
 40
0.1496110871
 40
0.1723394258
 40
0.1956459892
 40
0.2196147482
 40
0.2443268154
 40
0.2698600258
 40
0.3236532016
 40
0.3814885156
 40
0.4436961707
 40
0.5104467636
 40
0.5817587749
 40
0.6575206346
 40
0.7375210847
 40
0.821481192
 40
0.9090845547
 40
1.0
 40
1.0
 40
1.0
 40
1.0
 10
10.3096521671
 20
10.6186267194
 30
0.0
 10
10.3114181774
 20
10.6187173807
 30
0.0
 10
10.3149609429
 20
10.6188136907
 30
0.0
 10
10.3202886573
 20
10.6186892757
 30
0.0
 10
10.3256347157
 20
10.6182826779
 30
0.0
 10
10.3309986167
 20
10.617580299
 30
0.0
 10
10.336379873
 20
10.6165684755
 30
0.0
 10
10.3417777861
 20
10.6152339844
 30
0.0
 10
10.3471914043
 20
10.6135637914
 30
0.0
 10
10.3526195908
 20
10.6115456058
 30
0.0
 10
10.3580610918
 20
10.6091679773
 30
0.0
 10
10.3635143252
 20
10.6064202786
 30
0.0
 10
10.3689779671
 20
10.6032934408
 30
0.0
 10
10.3764028864
 20
10.5985252559
 30
0.0
 10
10.3857097391
 20
10.591521769
 30
0.0
 10
10.3966866251
 20
10.581663374
 30
0.0
 10
10.4076483462
 20
10.570214783
 30
0.0
 10
10.4185818333
 20
10.557210576
 30
0.0
 10
10.4294764829
 20
10.5427108212
 30
0.0
 10
10.4403227337
 20
10.5267975526
 30
0.0
 10
10.4511129688
 20
10.5095685655
 30
0.0
 10
10.4618416527
 20
10.4911309966
 30
0.0
 10
10.4725052799
 20
10.4715955513
 30
0.0
 10
10.4794497292
 20
10.4581455968
 30
0.0
 10
10.4829202716
 20
10.4512628685
 30
0.0
  0
SPLINE
  5
38A
100
AcDbEntity
  8
0
100
AcDbSpline
 62
7
  6
CONTINUOUS
 70
0
 71
3
 72
11
 73
7
 74
0
 42
0.0000001
 43
0.0000001
 44
0.0000000001
 40
0.0
 40
0.0
 40
0.0
 40
0.0
 40
0.2557248483
 40
0.5076308187
 40
0.7556778343
 40
1.0
 40
1.0
 40
1.0
 40
1.0
 10
10.7391642523
 20
11.2331997227
 30
0.0
 10
10.7441211939
 20
11.2307504498
 30
0.0
 10
10.7540626182
 20
11.2260902576
 30
0.0
 10
10.769166174
 20
11.2198418287
 30
0.0
 10
10.784336084
 20
11.2144534642
 30
0.0
 10
10.7945436494
 20
11.2114085759
 30
0.0
 10
10.7996495007
 20
11.2100539388
 30
0.0
  0
SPLINE
  5
38B
100
AcDbEntity
  8
0
100
AcDbSpline
 62
7
  6
CONTINUOUS
 70
0
 71
3
 72
22
 73
18
 74
0
 42
0.0000001
 43
0.0000001
 44
0.0000000001
 40
0.0
 40
0.0
 40
0.0
 40
0.0
 40
0.1229778663
 40
0.1846431818
 40
0.2464395426
 40
0.3083791808
 40
0.3704729632
 40
0.4327292492
 40
0.4951530925
 40
0.5577456329
 40
0.6205039447
 40
0.6834213547
 40
0.7464881234
 40
0.809692448
 40
0.8730212535
 40
0.9364615255
 40
1.0
 40
1.0
 40
1.0
 40
1.0
 10
10.5149130669
 20
10.4429825343
 30
0.0
 10
10.5412988248
 20
10.4483447598
 30
0.0
 10
10.5811299493
 20
10.4554119555
 30
0.0
 10
10.6346319281
 20
10.4624508134
 30
0.0
 10
10.6750355846
 20
10.4664414658
 30
0.0
 10
10.7156474048
 20
10.4690360703
 30
0.0
 10
10.7564286289
 20
10.4701458985
 30
0.0
 10
10.797329158
 20
10.4697022737
 30
0.0
 10
10.8382908668
 20
10.4676630166
 30
0.0
 10
10.8792511497
 20
10.464016658
 30
0.0
 10
10.9201475895
 20
10.458783723
 30
0.0
 10
10.9609224913
 20
10.4520147385
 30
0.0
 10
11.0015265778
 20
10.4437853988
 30
0.0
 10
11.041921174
 20
10.4341899871
 30
0.0
 10
11.0820791259
 20
10.42333423
 30
0.0
 10
11.1219836256
 20
10.4113288802
 30
0.0
 10
11.1483948531
 20
10.4026383449
 30
0.0
 10
11.1615579409
 20
10.39813756
 30
0.0
  0
SPLINE
  5
38C
100
AcDbEntity
  8
0
100
AcDbSpline
 62
7
  6
CONTINUOUS
 70
0
 71
3
 72
23
 73
19
 74
0
 42
0.0000001
 43
0.0000001
 44
0.0000000001
 40
0.0
 40
0.0
 40
0.0
 40
0.0
 40
0.0681228184
 40
0.1355417701
 40
0.2021982427
 40
0.2680411541
 40
0.3330309238
 40
0.3971452702
 40
0.4603836558
 40
0.5227702187
 40
0.5843538447
 40
0.6452051027
 40
0.7054104614
 40
0.7650649329
 40
0.8242647583
 40
0.8831010739
 40
0.9416560979
 40
1.0
 40
1.0
 40
1.0
 40
1.0
 10
11.2052608998
 20
10.4011683758
 30
0.0
 10
11.2148570069
 20
10.4072250807
 30
0.0
 10
11.234102678
 20
10.4190366729
 30
0.0
 10
11.2633025164
 20
10.4358336254
 30
0.0
 10
11.2926889614
 20
10.4515134571
 30
0.0
 10
11.32225076
 20
10.4659638264
 30
0.0
 10
11.3519692793
 20
10.4790760025
 30
0.0
 10
11.3818173814
 20
10.4907509561
 30
0.0
 10
11.4117598356
 20
10.5009065393
 30
0.0
 10
11.4417546326
 20
10.5094843564
 30
0.0
 10
11.4717555231
 20
10.5164552208
 30
0.0
 10
11.5017154074
 20
10.5218219667
 30
0.0
 10
11.5315899702
 20
10.5256189903
 30
0.0
 10
11.5613408683
 20
10.5279085824
 30
0.0
 10
11.5909377528
 20
10.5287749311
 30
0.0
 10
11.6203593388
 20
10.528317061
 30
0.0
 10
11.6495922043
 20
10.5266419524
 30
0.0
 10
11.6689809915
 20
10.5247835249
 30
0.0
 10
11.6786376693
 20
10.5236872523
 30
0.0
  0
SPLINE
  5
38D
100
AcDbEntity
  8
0
100
AcDbSpline
 62
7
  6
CONTINUOUS
 70
0
 71
3
 72
50
 73
46
 74
0
 42
0.0000001
 43
0.0000001
 44
0.0000000001
 40
0.0
 40
0.0
 40
0.0
 40
0.0
 40
0.0481982083
 40
0.0958298701
 40
0.1428200524
 40
0.189098114
 40
0.2345932474
 40
0.2792369361
 40
0.3229623678
 40
0.3657048054
 40
0.4074017555
 40
0.4479931603
 40
0.4874216252
 40
0.5256326572
 40
0.5625749471
 40
0.5982006586
 40
0.6324657627
 40
0.6653304343
 40
0.6967595242
 40
0.7267231403
 40
0.7551973579
 40
0.7821650798
 40
0.795081438
 40
0.8076184763
 40
0.8197765388
 40
0.8315566783
 40
0.8429606516
 40
0.8539911544
 40
0.8646517245
 40
0.874947003
 40
0.8848827667
 40
0.8944660433
 40
0.903705364
 40
0.9126107643
 40
0.9211941226
 40
0.9294692285
 40
0.937452012
 40
0.9451607745
 40
0.9598349183
 40
0.966856766
 40
0.9737036278
 40
0.9804068575
 40
0.987000079
 40
0.9935188351
 40
1.0
 40
1.0
 40
1.0
 40
1.0
 10
10.7735335224
 20
9.7441049501
 30
0.0
 10
10.762070865
 20
9.7448998881
 30
0.0
 10
10.739288937
 20
9.7466083778
 30
0.0
 10
10.7053676489
 20
9.7495460625
 30
0.0
 10
10.6719389619
 20
9.7528399984
 30
0.0
 10
10.6390590666
 20
9.756484572
 30
0.0
 10
10.6067827224
 20
9.7604737169
 30
0.0
 10
10.5751639772
 20
9.764800708
 30
0.0
 10
10.5442556558
 20
9.7694582829
 30
0.0
 10
10.5141094146
 20
9.774438608
 30
0.0
 10
10.4847756196
 20
9.7797333097
 30
0.0
 10
10.4563032672
 20
9.7853334865
 30
0.0
 10
10.4287399014
 20
9.7912297218
 30
0.0
 10
10.4021315259
 20
9.797412104
 30
0.0
 10
10.3765225193
 20
9.8038702323
 30
0.0
 10
10.3519555552
 20
9.8105932444
 30
0.0
 10
10.3284715313
 20
9.8175698378
 30
0.0
 10
10.3061094832
 20
9.8247882936
 30
0.0
 10
10.2849065421
 20
9.8322365001
 30
0.0
 10
10.2648977246
 20
9.8399019998
 30
0.0
 10
10.2461162967
 20
9.8477719597
 30
0.0
 10
10.2313077841
 20
9.8545842057
 30
0.0
 10
10.2201116355
 20
9.8601373261
 30
0.0
 10
10.2121615685
 20
9.8642851391
 30
0.0
 10
10.204540771
 20
9.8684741332
 30
0.0
 10
10.1972523738
 20
9.8727025832
 30
0.0
 10
10.1902994209
 20
9.8769687927
 30
0.0
 10
10.1836847528
 20
9.8812709462
 30
0.0
 10
10.1774111261
 20
9.885607341
 30
0.0
 10
10.1714811141
 20
9.889976188
 30
0.0
 10
10.165897152
 20
9.8943757156
 30
0.0
 10
10.160661576
 20
9.8988042085
 30
0.0
 10
10.1557765005
 20
9.903259848
 30
0.0
 10
10.1512440143
 20
9.9077409449
 30
0.0
 10
10.1470659613
 20
9.9122457507
 30
0.0
 10
10.1432442038
 20
9.9167724165
 30
0.0
 10
10.1397801843
 20
9.9213197171
 30
0.0
 10
10.1357083514
 20
9.9273076852
 30
0.0
 10
10.1322634235
 20
9.9334371874
 30
0.0
 10
10.1295340156
 20
9.9396750134
 30
0.0
 10
10.1278814007
 20
9.9442969211
 30
0.0
 10
10.1265947779
 20
9.948927882
 30
0.0
 10
10.1256750642
 20
9.9535660803
 30
0.0
 10
10.1251228823
 20
9.9582087763
 30
0.0
 10
10.1250000137
 20
9.9613092695
 30
0.0
 10
10.1250000079
 20
9.9628543437
 30
0.0
  0
SPLINE
  5
38E
100
AcDbEntity
  8
0
100
AcDbSpline
 62
7
  6
CONTINUOUS
 70
0
 71
3
 72
42
 73
38
 74
0
 42
0.0000001
 43
0.0000001
 44
0.0000000001
 40
0.0
 40
0.0
 40
0.0
 40
0.0
 40
0.0311444347
 40
0.0467772112
 40
0.0624471461
 40
0.093891844
 40
0.1254739796
 40
0.1571813629
 40
0.1889992234
 40
0.2209106216
 40
0.2528967716
 40
0.2849374315
 40
0.3170113014
 40
0.34909644
 40
0.3811706886
 40
0.4132120984
 40
0.4451993552
 40
0.4771121951
 40
0.5089318057
 40
0.5406412074
 40
0.572225607
 40
0.6036727182
 40
0.6349730419
 40
0.6661200987
 40
0.6971106068
 40
0.7279445994
 40
0.7586254742
 40
0.7891599701
 40
0.8195580671
 40
0.8498328085
 40
0.864931571
 40
0.8800056544
 40
0.910083706
 40
0.9400929707
 40
0.9550814956
 40
0.9700611828
 40
1.0
 40
1.0
 40
1.0
 40
1.0
 10
9.5014214602
 20
9.2447049312
 30
0.0
 10
9.5063983177
 20
9.244359785
 30
0.0
 10
9.5138579797
 20
9.2435683596
 30
0.0
 10
9.5237352352
 20
9.2419779179
 30
0.0
 10
9.53359681
 20
9.2400253436
 30
0.0
 10
9.5458249922
 20
9.2369156905
 30
0.0
 10
9.5602424994
 20
9.232142619
 30
0.0
 10
9.5743458898
 20
9.2263489236
 30
0.0
 10
9.5880595421
 20
9.2195656766
 30
0.0
 10
9.6013105056
 20
9.2118291079
 30
0.0
 10
9.614028143
 20
9.2031805303
 30
0.0
 10
9.6261447019
 20
9.1936660917
 30
0.0
 10
9.637595618
 20
9.183336537
 30
0.0
 10
9.6483198693
 20
9.1722469382
 30
0.0
 10
9.6582602945
 20
9.1604564042
 30
0.0
 10
9.6673638955
 20
9.1480277684
 30
0.0
 10
9.6755821171
 20
9.1350272575
 30
0.0
 10
9.6828711038
 20
9.1215241423
 30
0.0
 10
9.6891919325
 20
9.1075903731
 30
0.0
 10
9.694510819
 20
9.093300201
 30
0.0
 10
9.6987992985
 20
9.0787297873
 30
0.0
 10
9.7020343785
 20
9.0639568028
 30
0.0
 10
9.7041986635
 20
9.04906002
 30
0.0
 10
9.7052804518
 20
9.0341188971
 30
0.0
 10
9.7052738043
 20
9.0192131641
 30
0.0
 10
9.7041785757
 20
9.0044223858
 30
0.0
 10
9.702000452
 20
8.9898255984
 30
0.0
 10
9.6987508219
 20
8.975500675
 30
0.0
 10
9.6944471257
 20
8.9615247008
 30
0.0
 10
9.6899963923
 20
8.9502189635
 30
0.0
 10
9.6859348828
 20
8.9414270034
 30
0.0
 10
9.6815517235
 20
8.9328262167
 30
0.0
 10
9.6754659705
 20
8.922423117
 30
0.0
 10
9.6685974961
 20
8.9125359131
 30
0.0
 10
9.6626621279
 20
8.9049783865
 30
0.0
 10
9.6564436287
 20
8.8976675365
 30
0.0
 10
9.6514615106
 20
8.8924628547
 30
0.0
 10
9.6480121772
 20
8.8891310748
 30
0.0
  0
SPLINE
  5
38F
100
AcDbEntity
  8
0
100
AcDbSpline
 62
7
  6
CONTINUOUS
 70
0
 71
3
 72
42
 73
38
 74
0
 42
0.0000001
 43
0.0000001
 44
0.0000000001
 40
0.0
 40
0.0
 40
0.0
 40
0.0
 40
0.0311444347
 40
0.0467772112
 40
0.0624471461
 40
0.093891844
 40
0.1254739796
 40
0.1571813629
 40
0.1889992234
 40
0.2209106216
 40
0.2528967716
 40
0.2849374315
 40
0.3170113014
 40
0.34909644
 40
0.3811706886
 40
0.4132120984
 40
0.4451993552
 40
0.4771121951
 40
0.5089318057
 40
0.5406412074
 40
0.572225607
 40
0.6036727182
 40
0.6349730419
 40
0.6661200987
 40
0.6971106068
 40
0.7279445994
 40
0.7586254742
 40
0.7891599701
 40
0.8195580671
 40
0.8498328085
 40
0.864931571
 40
0.8800056544
 40
0.910083706
 40
0.9400929707
 40
0.9550814956
 40
0.9700611828
 40
1.0
 40
1.0
 40
1.0
 40
1.0
 10
9.5014214602
 20
6.5884087515
 30
0.0
 10
9.5063983177
 20
6.5880636053
 30
0.0
 10
9.5138579797
 20
6.5872721799
 30
0.0
 10
9.5237352352
 20
6.5856817382
 30
0.0
 10
9.53359681
 20
6.5837291639
 30
0.0
 10
9.5458249922
 20
6.5806195108
 30
0.0
 10
9.5602424994
 20
6.5758464393
 30
0.0
 10
9.5743458898
 20
6.5700527439
 30
0.0
 10
9.5880595421
 20
6.5632694969
 30
0.0
 10
9.6013105056
 20
6.5555329282
 30
0.0
 10
9.614028143
 20
6.5468843507
 30
0.0
 10
9.6261447019
 20
6.537369912
 30
0.0
 10
9.637595618
 20
6.5270403573
 30
0.0
 10
9.6483198693
 20
6.5159507585
 30
0.0
 10
9.6582602945
 20
6.5041602245
 30
0.0
 10
9.6673638955
 20
6.4917315887
 30
0.0
 10
9.6755821171
 20
6.4787310778
 30
0.0
 10
9.6828711038
 20
6.4652279626
 30
0.0
 10
9.6891919325
 20
6.4512941934
 30
0.0
 10
9.694510819
 20
6.4370040214
 30
0.0
 10
9.6987992985
 20
6.4224336076
 30
0.0
 10
9.7020343785
 20
6.4076606231
 30
0.0
 10
9.7041986635
 20
6.3927638403
 30
0.0
 10
9.7052804518
 20
6.3778227174
 30
0.0
 10
9.7052738043
 20
6.3629169844
 30
0.0
 10
9.7041785757
 20
6.3481262062
 30
0.0
 10
9.702000452
 20
6.3335294187
 30
0.0
 10
9.6987508219
 20
6.3192044954
 30
0.0
 10
9.6944471257
 20
6.3052285211
 30
0.0
 10
9.6899963923
 20
6.2939227838
 30
0.0
 10
9.6859348828
 20
6.2851308237
 30
0.0
 10
9.6815517235
 20
6.276530037
 30
0.0
 10
9.6754659705
 20
6.2661269373
 30
0.0
 10
9.6685974961
 20
6.2562397334
 30
0.0
 10
9.6626621279
 20
6.2486822068
 30
0.0
 10
9.6564436287
 20
6.2413713568
 30
0.0
 10
9.6514615106
 20
6.2361666751
 30
0.0
 10
9.6480121772
 20
6.2328348951
 30
0.0
  0
SPLINE
  5
390
100
AcDbEntity
  8
0
100
AcDbSpline
 62
7
  6
CONTINUOUS
 70
0
 71
3
 72
18
 73
14
 74
0
 42
0.0000001
 43
0.0000001
 44
0.0000000001
 40
0.0
 40
0.0
 40
0.0
 40
0.0
 40
0.1504670735
 40
0.2917142314
 40
0.4244427084
 40
0.4879099971
 40
0.549609347
 40
0.6682624273
 40
0.7817883326
 40
0.8371380496
 40
0.8918079086
 40
0.9460193228
 40
1.0
 40
1.0
 40
1.0
 40
1.0
 10
12.931851767
 20
9.4695559438
 30
0.0
 10
12.9330956785
 20
9.4707574701
 30
0.0
 10
12.9355818331
 20
9.4730118916
 30
0.0
 10
12.9394313673
 20
9.4760162057
 30
0.0
 10
12.9426829745
 20
9.4781410081
 30
0.0
 10
12.9452758289
 20
9.479579866
 30
0.0
 10
12.9477924048
 20
9.4808151594
 30
0.0
 10
12.9509389252
 20
9.4820633793
 30
0.0
 10
12.9541414141
 20
9.4829151963
 30
0.0
 10
12.9566778872
 20
9.4833347934
 30
0.0
 10
12.9585577592
 20
9.4835210454
 30
0.0
 10
12.9604300294
 20
9.4835811884
 30
0.0
 10
12.9616739182
 20
9.4835371796
 30
0.0
 10
12.9622928771
 20
9.4834942534
 30
0.0
  0
SPLINE
  5
391
100
AcDbEntity
  8
0
100
AcDbSpline
 62
7
  6
CONTINUOUS
 70
0
 71
3
 72
57
 73
53
 74
0
 42
0.0000001
 43
0.0000001
 44
0.0000000001
 40
0.0
 40
0.0
 40
0.0
 40
0.0
 40
0.0027758556
 40
0.0055596162
 40
0.0083591163
 40
0.0111820474
 40
0.0169259367
 40
0.0228497814
 40
0.0290045027
 40
0.035434857
 40
0.0387662474
 40
0.0421804316
 40
0.0492712204
 40
0.0567352172
 40
0.0645942543
 40
0.0728658822
 40
0.0815638466
 40
0.0906987208
 40
0.1002782631
 40
0.1103078527
 40
0.1207908096
 40
0.1317286097
 40
0.1431212046
 40
0.1549670863
 40
0.1672635606
 40
0.1800067873
 40
0.1931919329
 40
0.2068132748
 40
0.2208642175
 40
0.2353374611
 40
0.2502249441
 40
0.2655180013
 40
0.2812073357
 40
0.2972830868
 40
0.3137348879
 40
0.3477220191
 40
0.3830769267
 40
0.4197005279
 40
0.4574878865
 40
0.4963288883
 40
0.5361088686
 40
0.5767092055
 40
0.6180078859
 40
0.6598800522
 40
0.7021985379
 40
0.7448343954
 40
0.7876574166
 40
0.8305366596
 40
0.8733409362
 40
0.9159394633
 40
0.9582018992
 40
1.0
 40
1.0
 40
1.0
 40
1.0
 10
11.8749999921
 20
9.9628552214
 30
0.0
 10
11.8749999961
 20
9.961774059
 30
0.0
 10
11.8749400181
 20
9.959608176
 30
0.0
 10
11.8746702815
 20
9.956362042
 30
0.0
 10
11.8742207317
 20
9.9531172268
 30
0.0
 10
11.8733771898
 20
9.9487694624
 30
0.0
 10
11.8718600046
 20
9.9433217514
 30
0.0
 10
11.8693310922
 20
9.9368457339
 30
0.0
 10
11.8660876004
 20
9.9303967862
 30
0.0
 10
11.8628315609
 20
9.9251126836
 30
0.0
 10
11.8598891402
 20
9.920906951
 30
0.0
 10
11.8566359303
 20
9.9166091267
 30
0.0
 10
11.852112763
 20
9.9112606999
 30
0.0
 10
11.8460554026
 20
9.9049670018
 30
0.0
 10
11.8393065145
 20
9.8987226632
 30
0.0
 10
11.8318717414
 20
9.8925324912
 30
0.0
 10
11.8237570254
 20
9.8864009015
 30
0.0
 10
11.8149688073
 20
9.8803326224
 30
0.0
 10
11.8055141062
 20
9.8743323043
 30
0.0
 10
11.7954004726
 20
9.8684046662
 30
0.0
 10
11.7846360026
 20
9.8625544518
 30
0.0
 10
11.7732293754
 20
9.8567863022
 30
0.0
 10
11.7611897735
 20
9.8511049443
 30
0.0
 10
11.7485269599
 20
9.8455149276
 30
0.0
 10
11.7352511921
 20
9.8400208544
 30
0.0
 10
11.7213732653
 20
9.834627191
 30
0.0
 10
11.7069044755
 20
9.8293383469
 30
0.0
 10
11.691856609
 20
9.824158688
 30
0.0
 10
11.6762419498
 20
9.8190924156
 30
0.0
 10
11.6600732393
 20
9.8141437441
 30
0.0
 10
11.6433636952
 20
9.8093166892
 30
0.0
 10
11.6261269731
 20
9.8046152486
 30
0.0
 10
11.6083771772
 20
9.8000432823
 30
0.0
 10
11.5901288111
 20
9.7956045049
 30
0.0
 10
11.5648788216
 20
9.7898058468
 30
0.0
 10
11.532173927
 20
9.7829336843
 30
0.0
 10
11.4915992282
 20
9.7753601713
 30
0.0
 10
11.4494144186
 20
9.7683981288
 30
0.0
 10
11.405757657
 20
9.7620705657
 30
0.0
 10
11.3607717304
 20
9.7563984225
 30
0.0
 10
11.3146039167
 20
9.7514004487
 30
0.0
 10
11.2674053881
 20
9.7470931631
 30
0.0
 10
11.2193307323
 20
9.743490796
 30
0.0
 10
11.1705374302
 20
9.7406052461
 30
0.0
 10
11.1211853372
 20
9.7384460429
 30
0.0
 10
11.0714361535
 20
9.7370203173
 30
0.0
 10
11.0214528896
 20
9.736332774
 30
0.0
 10
10.9713993327
 20
9.7363856833
 30
0.0
 10
10.9214394813
 20
9.7371788631
 30
0.0
 10
10.871737081
 20
9.7387097102
 30
0.0
 10
10.8224550394
 20
9.7409731398
 30
0.0
 10
10.7897743728
 20
9.7429786433
 30
0.0
 10
10.7735335224
 20
9.7441049501
 30
0.0
  0
SPLINE
  5
392
100
AcDbEntity
  8
0
100
AcDbSpline
 62
7
  6
CONTINUOUS
 70
0
 71
3
 72
21
 73
17
 74
0
 42
0.0000001
 43
0.0000001
 44
0.0000000001
 40
0.0
 40
0.0
 40
0.0
 40
0.0
 40
0.06165322
 40
0.1233294719
 40
0.1850515326
 40
0.2468416528
 40
0.308721334
 40
0.3707110997
 40
0.4328302469
 40
0.4950966389
 40
0.5575265783
 40
0.620134583
 40
0.6829331586
 40
0.745933179
 40
0.8725262751
 40
1.0
 40
1.0
 40
1.0
 40
1.0
 10
9.3548307431
 20
9.1926580648
 30
0.0
 10
9.3571985878
 20
9.1949452132
 30
0.0
 10
9.3620592536
 20
9.1993938692
 30
0.0
 10
9.3696997814
 20
9.2056666908
 30
0.0
 10
9.3776721052
 20
9.2115248682
 30
0.0
 10
9.3859558539
 20
9.2169533905
 30
0.0
 10
9.3945301999
 20
9.221938698
 30
0.0
 10
9.403373526
 20
9.2264682125
 30
0.0
 10
9.4124635711
 20
9.2305305047
 30
0.0
 10
9.4217774008
 20
9.234115408
 30
0.0
 10
9.431291572
 20
9.2372139216
 30
0.0
 10
9.4409820569
 20
9.2398182108
 30
0.0
 10
9.4508247194
 20
9.2419217913
 30
0.0
 10
9.464136835
 20
9.2440551094
 30
0.0
 10
9.4810410987
 20
9.2454410687
 30
0.0
 10
9.4946311071
 20
9.2451758438
 30
0.0
 10
9.5014214602
 20
9.2447049312
 30
0.0
  0
SPLINE
  5
393
100
AcDbEntity
  8
0
100
AcDbSpline
 62
7
  6
CONTINUOUS
 70
0
 71
3
 72
21
 73
17
 74
0
 42
0.0000001
 43
0.0000001
 44
0.0000000001
 40
0.0
 40
0.0
 40
0.0
 40
0.0
 40
0.06165322
 40
0.1233294719
 40
0.1850515326
 40
0.2468416528
 40
0.308721334
 40
0.3707110997
 40
0.4328302469
 40
0.4950966389
 40
0.5575265783
 40
0.620134583
 40
0.6829331586
 40
0.745933179
 40
0.8725262751
 40
1.0
 40
1.0
 40
1.0
 40
1.0
 10
9.3548307431
 20
6.5363618851
 30
0.0
 10
9.3571985878
 20
6.5386490335
 30
0.0
 10
9.3620592536
 20
6.5430976895
 30
0.0
 10
9.3696997814
 20
6.5493705111
 30
0.0
 10
9.3776721052
 20
6.5552286885
 30
0.0
 10
9.3859558539
 20
6.5606572108
 30
0.0
 10
9.3945301999
 20
6.5656425183
 30
0.0
 10
9.403373526
 20
6.5701720328
 30
0.0
 10
9.4124635711
 20
6.574234325
 30
0.0
 10
9.4217774008
 20
6.5778192283
 30
0.0
 10
9.431291572
 20
6.5809177419
 30
0.0
 10
9.4409820569
 20
6.5835220311
 30
0.0
 10
9.4508247194
 20
6.5856256116
 30
0.0
 10
9.464136835
 20
6.5877589297
 30
0.0
 10
9.4810410987
 20
6.589144889
 30
0.0
 10
9.4946311071
 20
6.5888796641
 30
0.0
 10
9.5014214602
 20
6.5884087515
 30
0.0
  0
SPLINE
  5
394
100
AcDbEntity
  8
0
100
AcDbSpline
 62
7
  6
CONTINUOUS
 70
0
 71
3
 72
78
 73
74
 74
0
 42
0.0000001
 43
0.0000001
 44
0.0000000001
 40
0.0
 40
0.0
 40
0.0
 40
0.0
 40
0.0027164367
 40
0.0054532514
 40
0.0082303279
 40
0.0110666264
 40
0.0139798478
 40
0.01698616
 40
0.0201001332
 40
0.023334663
 40
0.026701018
 40
0.0302089883
 40
0.0338669101
 40
0.0376818815
 40
0.0416598755
 40
0.0458058052
 40
0.0501237497
 40
0.0546169572
 40
0.0592879722
 40
0.0641387695
 40
0.0691707052
 40
0.0743846925
 40
0.0853596199
 40
0.0970635082
 40
0.1094902867
 40
0.1226295599
 40
0.1364672579
 40
0.1509861147
 40
0.1661660528
 40
0.1819845313
 40
0.1984168054
 40
0.215436125
 40
0.2330139089
 40
0.2511199382
 40
0.2697225034
 40
0.2887885258
 40
0.3082836681
 40
0.328172477
 40
0.3484184949
 40
0.3689843598
 40
0.4109214935
 40
0.4536716183
 40
0.4969137458
 40
0.5403221561
 40
0.5835695333
 40
0.6263301102
 40
0.6682827915
 40
0.6888582978
 40
0.7091151729
 40
0.7290160218
 40
0.7485243581
 40
0.7676046983
 40
0.786222669
 40
0.8043451405
 40
0.8219403599
 40
0.8389780633
 40
0.8554296169
 40
0.8712681983
 40
0.8864689974
 40
0.9010094047
 40
0.9148692631
 40
0.9280311977
 40
0.9404810329
 40
0.9522082461
 40
0.9632066295
 40
0.9684323353
 40
0.9734759499
 40
0.9783383088
 40
0.9830207669
 40
0.9875253485
 40
0.9918546163
 40
0.9960116159
 40
1.0
 40
1.0
 40
1.0
 40
1.0
 10
12.901410657
 20
8.6056028567
 30
0.0
 10
12.9005894516
 20
8.6056598092
 30
0.0
 10
12.8989450832
 20
8.6058484528
 30
0.0
 10
12.8964994737
 20
8.6063533252
 30
0.0
 10
12.8940723467
 20
8.6070799475
 30
0.0
 10
12.8916654202
 20
8.6080276182
 30
0.0
 10
12.8892799747
 20
8.609195562
 30
0.0
 10
12.8869171815
 20
8.6105827685
 30
0.0
 10
12.8845781714
 20
8.6121883257
 30
0.0
 10
12.8822639753
 20
8.6140111916
 30
0.0
 10
12.8799755605
 20
8.6160502728
 30
0.0
 10
12.8777139727
 20
8.6183045137
 30
0.0
 10
12.8754801463
 20
8.6207726861
 30
0.0
 10
12.8732750888
 20
8.6234535572
 30
0.0
 10
12.8710998276
 20
8.6263458076
 30
0.0
 10
12.868955311
 20
8.6294479724
 30
0.0
 10
12.8668425984
 20
8.6327585571
 30
0.0
 10
12.864762676
 20
8.6362759172
 30
0.0
 10
12.8627165239
 20
8.6399983132
 30
0.0
 10
12.8607051982
 20
8.6439239282
 30
0.0
 10
12.8587296037
 20
8.6480508046
 30
0.0
 10
12.856099465
 20
8.6539196469
 30
0.0
 10
12.8529188492
 20
8.6617541928
 30
0.0
 10
12.8493224385
 20
8.6717687329
 30
0.0
 10
12.8458910117
 20
8.6825312963
 30
0.0
 10
12.8426314713
 20
8.6940204547
 30
0.0
 10
12.8395504058
 20
8.7062135124
 30
0.0
 10
12.8366540672
 20
8.7190861901
 30
0.0
 10
12.8339483295
 20
8.7326127989
 30
0.0
 10
12.8314386965
 20
8.7467662877
 30
0.0
 10
12.8291302811
 20
8.7615183184
 30
0.0
 10
12.8270277872
 20
8.7768393178
 30
0.0
 10
12.8251354847
 20
8.7926985414
 30
0.0
 10
12.8234572249
 20
8.8090641484
 30
0.0
 10
12.8219964283
 20
8.8259032728
 30
0.0
 10
12.8207560767
 20
8.8431820832
 30
0.0
 10
12.8197386859
 20
8.8608658537
 30
0.0
 10
12.8189463353
 20
8.8789190284
 30
0.0
 10
12.8183806202
 20
8.8973053459
 30
0.0
 10
12.8179272605
 20
8.9223777261
 30
0.0
 10
12.817942373
 20
8.9542765774
 30
0.0
 10
12.8188693928
 20
8.9930360171
 30
0.0
 10
12.8206984791
 20
9.0322097407
 30
0.0
 10
12.8234150008
 20
9.0714829034
 30
0.0
 10
12.8269971582
 20
9.1105401364
 30
0.0
 10
12.8314160678
 20
9.149067542
 30
0.0
 10
12.8357936648
 20
9.1806754918
 30
0.0
 10
12.8396953667
 20
9.2054576308
 30
0.0
 10
12.8427878111
 20
9.2236008478
 30
0.0
 10
12.8460589462
 20
9.2413839851
 30
0.0
 10
12.8495021938
 20
9.2587713245
 30
0.0
 10
12.8531105961
 20
9.2757279135
 30
0.0
 10
12.8568768761
 20
9.2922196762
 30
0.0
 10
12.8607934287
 20
9.3082134817
 30
0.0
 10
12.8648523347
 20
9.3236772178
 30
0.0
 10
12.8690453926
 20
9.3385798479
 30
0.0
 10
12.8733641342
 20
9.3528914736
 30
0.0
 10
12.8777998353
 20
9.3665834094
 30
0.0
 10
12.8823435235
 20
9.3796282527
 30
0.0
 10
12.8869860196
 20
9.3919999312
 30
0.0
 10
12.8917179599
 20
9.4036737685
 30
0.0
 10
12.8965298156
 20
9.414626527
 30
0.0
 10
12.9014119286
 20
9.4248365854
 30
0.0
 10
12.9063545072
 20
9.4342836282
 30
0.0
 10
12.9105847312
 20
9.4416253861
 30
0.0
 10
12.913998864
 20
9.4470923242
 30
0.0
 10
12.9165246625
 20
9.4509200448
 30
0.0
 10
12.9190581467
 20
9.4545435974
 30
0.0
 10
12.9215981467
 20
9.457961192
 30
0.0
 10
12.9241434045
 20
9.4611711984
 30
0.0
 10
12.9266927588
 20
9.4641720115
 30
0.0
 10
12.9292447857
 20
9.4669620045
 30
0.0
 10
12.9309824589
 20
9.4687162566
 30
0.0
 10
12.931851767
 20
9.4695559438
 30
0.0
  0
SPLINE
  5
395
100
AcDbEntity
  8
0
100
AcDbSpline
 62
7
  6
CONTINUOUS
 70
0
 71
3
 72
55
 73
51
 74
0
 42
0.0000001
 43
0.0000001
 44
0.0000000001
 40
0.0
 40
0.0
 40
0.0
 40
0.0
 40
0.0075208779
 40
0.0156242627
 40
0.0243312555
 40
0.0336551233
 40
0.0436030591
 40
0.0541771463
 40
0.0653752896
 40
0.07719199
 40
0.0896186372
 40
0.1026441739
 40
0.1162552111
 40
0.1304363626
 40
0.1451705228
 40
0.1604388534
 40
0.1762211627
 40
0.1924958409
 40
0.2264289939
 40
0.2620438627
 40
0.29912964
 40
0.3374627617
 40
0.3768091792
 40
0.4169265335
 40
0.4575662562
 40
0.4984756157
 40
0.5393997412
 40
0.5800836423
 40
0.6202742353
 40
0.6597223685
 40
0.6981848647
 40
0.7354266023
 40
0.7712226774
 40
0.8053606869
 40
0.8217460903
 40
0.8376442647
 40
0.8530333782
 40
0.8678928482
 40
0.8822035297
 40
0.8959479262
 40
0.9091101711
 40
0.9216764757
 40
0.9336351494
 40
0.9449770057
 40
0.955695826
 40
0.9657886149
 40
0.9752563841
 40
0.984105112
 40
0.9923469969
 40
1.0
 40
1.0
 40
1.0
 40
1.0
 10
12.8816198754
 20
8.7914032618
 30
0.0
 10
12.8807852411
 20
8.792429499
 30
0.0
 10
12.8791407648
 20
8.7946351042
 30
0.0
 10
12.87682653
 20
8.7982380622
 30
0.0
 10
12.8745784063
 20
8.8022501709
 30
0.0
 10
12.8723998876
 20
8.8066648229
 30
0.0
 10
12.8702943218
 20
8.8114751751
 30
0.0
 10
12.8682650774
 20
8.8166735061
 30
0.0
 10
12.8663154308
 20
8.8222514333
 30
0.0
 10
12.8644486472
 20
8.828199893
 30
0.0
 10
12.86266777
 20
8.8345091476
 30
0.0
 10
12.8609758147
 20
8.8411688414
 30
0.0
 10
12.8593755952
 20
8.8481680016
 30
0.0
 10
12.8578697805
 20
8.8554950724
 30
0.0
 10
12.8564609322
 20
8.8631379403
 30
0.0
 10
12.8551513759
 20
8.8710839461
 30
0.0
 10
12.8539433192
 20
8.8793199357
 30
0.0
 10
12.8524498752
 20
8.8908304154
 30
0.0
 10
12.8508633974
 20
8.9058440117
 30
0.0
 10
12.8494165989
 20
8.9245453066
 30
0.0
 10
12.8484114518
 20
8.944050351
 30
0.0
 10
12.8478548787
 20
8.9642296961
 30
0.0
 10
12.8477508323
 20
8.9849495318
 30
0.0
 10
12.8481001696
 20
9.0060723349
 30
0.0
 10
12.8489006923
 20
9.0274578845
 30
0.0
 10
12.8501471558
 20
9.0489641882
 30
0.0
 10
12.8518313121
 20
9.070448442
 30
0.0
 10
12.8539419594
 20
9.0917679903
 30
0.0
 10
12.8564650153
 20
9.1127812861
 30
0.0
 10
12.8593836158
 20
9.1333488492
 30
0.0
 10
12.8626782268
 20
9.1533341859
 30
0.0
 10
12.8663267521
 20
9.1726047945
 30
0.0
 10
12.8703047374
 20
9.1910328046
 30
0.0
 10
12.8739195603
 20
9.2057807725
 30
0.0
 10
12.8769658885
 20
9.2170594472
 30
0.0
 10
12.8792847039
 20
9.225117658
 30
0.0
 10
12.8816649016
 20
9.2328776743
 30
0.0
 10
12.8841025525
 20
9.2403266464
 30
0.0
 10
12.8865935943
 20
9.2474522375
 30
0.0
 10
12.8891338372
 20
9.2542426726
 30
0.0
 10
12.8917190949
 20
9.2606867316
 30
0.0
 10
12.8943450214
 20
9.2667738088
 30
0.0
 10
12.8970072742
 20
9.2724939006
 30
0.0
 10
12.8997014571
 20
9.2778376475
 30
0.0
 10
12.9024231007
 20
9.2827963674
 30
0.0
 10
12.9051678338
 20
9.2873620128
 30
0.0
 10
12.9079311492
 20
9.2915272901
 30
0.0
 10
12.9107088941
 20
9.2952857274
 30
0.0
 10
12.9134965871
 20
9.2986310212
 30
0.0
 10
12.915428814
 20
9.3006555595
 30
0.0
 10
12.9163969522
 20
9.3015907092
 30
0.0
  0
SPLINE
  5
396
100
AcDbEntity
  8
0
100
AcDbSpline
 62
7
  6
CONTINUOUS
 70
0
 71
3
 72
74
 73
70
 74
0
 42
0.0000001
 43
0.0000001
 44
0.0000000001
 40
0.0
 40
0.0
 40
0.0
 40
0.0
 40
0.0039223496
 40
0.0080064566
 40
0.0122557627
 40
0.0166731355
 40
0.021261008
 40
0.0260213339
 40
0.0309554859
 40
0.0360642978
 40
0.0468068418
 40
0.0582493195
 40
0.0703865397
 40
0.0832092624
 40
0.0967047806
 40
0.1108574077
 40
0.1256488708
 40
0.1410585808
 40
0.1570638378
 40
0.1736400841
 40
0.1907610799
 40
0.2083990167
 40
0.2265246582
 40
0.245107497
 40
0.2641158558
 40
0.2835169629
 40
0.3032770843
 40
0.3233616302
 40
0.3643610915
 40
0.4062254572
 40
0.448656038
 40
0.4913489398
 40
0.5339978767
 40
0.5762969639
 40
0.6179435154
 40
0.6586408369
 40
0.6785435665
 40
0.6981019282
 40
0.7172817996
 40
0.7360500063
 40
0.7543743948
 40
0.7722239238
 40
0.7895688036
 40
0.8063806244
 40
0.8226324495
 40
0.8382989595
 40
0.8533566638
 40
0.86778406
 40
0.8815618297
 40
0.8946731329
 40
0.9071039754
 40
0.918843575
 40
0.9298848898
 40
0.9402253696
 40
0.9451338708
 40
0.9498687415
 40
0.9544314124
 40
0.9588238113
 40
0.9630484042
 40
0.9671083756
 40
0.9710075972
 40
0.9747507632
 40
0.9783435478
 40
0.9817926151
 40
0.9851058167
 40
0.9882923025
 40
0.9943250631
 40
0.9972003964
 40
1.0
 40
1.0
 40
1.0
 40
1.0
 10
12.9163969522
 20
8.6206129614
 30
0.0
 10
12.9172444887
 20
8.6214316189
 30
0.0
 10
12.9189386962
 20
8.6231401081
 30
0.0
 10
12.9214282017
 20
8.62585387
 30
0.0
 10
12.9239152476
 20
8.6287683192
 30
0.0
 10
12.9263984851
 20
8.6318819524
 30
0.0
 10
12.9288768316
 20
8.6351932703
 30
0.0
 10
12.9313491303
 20
8.638700768
 30
0.0
 10
12.9338142776
 20
8.6424028151
 30
0.0
 10
12.9371459845
 20
8.6476847468
 30
0.0
 10
12.941275803
 20
8.6547717328
 30
0.0
 10
12.946104851
 20
8.6638847741
 30
0.0
 10
12.9508777181
 20
8.6737266517
 30
0.0
 10
12.9555852859
 20
8.6842787372
 30
0.0
 10
12.9602185897
 20
8.6955211985
 30
0.0
 10
12.9647687577
 20
8.7074327417
 30
0.0
 10
12.9692270505
 20
8.719990776
 30
0.0
 10
12.9735848913
 20
8.7331714246
 30
0.0
 10
12.9778339181
 20
8.7469495762
 30
0.0
 10
12.9819659625
 20
8.7612989566
 30
0.0
 10
12.9859730693
 20
8.7761921877
 30
0.0
 10
12.9898475361
 20
8.7916008274
 30
0.0
 10
12.9935819274
 20
8.8074954293
 30
0.0
 10
12.9971690647
 20
8.8238456144
 30
0.0
 10
13.0006020465
 20
8.8406201287
 30
0.0
 10
13.0038742822
 20
8.8577868836
 30
0.0
 10
13.006979522
 20
8.8753130651
 30
0.0
 10
13.0109160108
 20
8.8992796922
 30
0.0
 10
13.0153677837
 20
8.9298886497
 30
0.0
 10
13.0199229342
 20
8.9672561671
 30
0.0
 10
13.0236917629
 20
9.0052224482
 30
0.0
 10
13.0266453641
 20
9.0434971502
 30
0.0
 10
13.0287611045
 20
9.0817877433
 30
0.0
 10
13.0300228929
 20
9.1198015746
 30
0.0
 10
13.030421231
 20
9.1572479269
 30
0.0
 10
13.0300286838
 20
9.187965666
 30
0.0
 10
13.0292709649
 20
9.2120355132
 30
0.0
 10
13.0284911778
 20
9.2296357093
 30
0.0
 10
13.0274972842
 20
9.2468837324
 30
0.0
 10
13.0262911974
 20
9.2637466217
 30
0.0
 10
13.0248752636
 20
9.2801921232
 30
0.0
 10
13.0232522123
 20
9.2961887924
 30
0.0
 10
13.0214251846
 20
9.3117060534
 30
0.0
 10
13.0193977293
 20
9.3267142643
 30
0.0
 10
13.0171737703
 20
9.3411847653
 30
0.0
 10
13.0147575973
 20
9.3550899389
 30
0.0
 10
13.0121538969
 20
9.3684032799
 30
0.0
 10
13.009367714
 20
9.3810994474
 30
0.0
 10
13.0064044273
 20
9.3931543061
 30
0.0
 10
13.003269743
 20
9.4045450038
 30
0.0
 10
12.9999697121
 20
9.4152500092
 30
0.0
 10
12.9965106456
 20
9.4252492668
 30
0.0
 10
12.9928991213
 20
9.4345238616
 30
0.0
 10
12.9897151194
 20
9.4417552865
 30
0.0
 10
12.9870886335
 20
9.4471545
 30
0.0
 10
12.9851191885
 20
9.4509413296
 30
0.0
 10
12.9831168617
 20
9.4545344226
 30
0.0
 10
12.9810825661
 20
9.4579321071
 30
0.0
 10
12.9790171927
 20
9.461132759
 30
0.0
 10
12.9769217287
 20
9.4641349065
 30
0.0
 10
12.9747970955
 20
9.466937137
 30
0.0
 10
12.9726442044
 20
9.4695381007
 30
0.0
 10
12.9704640173
 20
9.4719366208
 30
0.0
 10
12.968257508
 20
9.4741314547
 30
0.0
 10
12.9660252863
 20
9.4761216975
 30
0.0
 10
12.9630710813
 20
9.4784579518
 30
0.0
 10
12.9600104878
 20
9.4804416749
 30
0.0
 10
12.9568617259
 20
9.4820149552
 30
0.0
 10
12.9552800068
 20
9.482657068
 30
0.0
 10
12.9544883349
 20
9.4829410302
 30
0.0
  0
SPLINE
  5
397
100
AcDbEntity
  8
0
100
AcDbSpline
 62
7
  6
CONTINUOUS
 70
0
 71
3
 72
15
 73
11
 74
0
 42
0.0000001
 43
0.0000001
 44
0.0000000001
 40
0.0
 40
0.0
 40
0.0
 40
0.0
 40
0.1452809297
 40
0.2839056866
 40
0.4162013913
 40
0.5425768922
 40
0.6635265665
 40
0.779625595
 40
0.8915345969
 40
1.0
 40
1.0
 40
1.0
 40
1.0
 10
12.9163969522
 20
8.6206129614
 30
0.0
 10
12.9154668999
 20
8.6197145998
 30
0.0
 10
12.9136075385
 20
8.6180015769
 30
0.0
 10
12.9107523566
 20
8.6156384764
 30
0.0
 10
12.907899603
 20
8.6135452005
 30
0.0
 10
12.9050510005
 20
8.6117233838
 30
0.0
 10
12.9022081042
 20
8.6101743173
 30
0.0
 10
12.8993723034
 20
8.6088993321
 30
0.0
 10
12.8965456292
 20
8.6078996535
 30
0.0
 10
12.8946426654
 20
8.6074110592
 30
0.0
 10
12.8936972651
 20
8.6072155707
 30
0.0
  0
SPLINE
  5
398
100
AcDbEntity
  8
0
100
AcDbSpline
 62
7
  6
CONTINUOUS
 70
0
 71
3
 72
24
 73
20
 74
0
 42
0.0000001
 43
0.0000001
 44
0.0000000001
 40
0.0
 40
0.0
 40
0.0
 40
0.0
 40
0.0755929441
 40
0.1466353292
 40
0.2134607542
 40
0.2454342717
 40
0.2765268668
 40
0.3363370143
 40
0.3935561274
 40
0.4489310748
 40
0.5032948935
 40
0.557531619
 40
0.612531838
 40
0.6691469901
 40
0.7281515817
 40
0.7902214221
 40
0.8559247918
 40
0.9257271707
 40
1.0
 40
1.0
 40
1.0
 40
1.0
 10
12.9163969522
 20
8.789649991
 30
0.0
 10
12.9156604559
 20
8.7889385901
 30
0.0
 10
12.9141883784
 20
8.7876023302
 30
0.0
 10
12.9119103412
 20
8.7858172158
 30
0.0
 10
12.9099864802
 20
8.7845496207
 30
0.0
 10
12.908452152
 20
8.7836871193
 30
0.0
 10
12.9069624801
 20
8.7829434046
 30
0.0
 10
12.9050999369
 20
8.7821859202
 30
0.0
 10
12.9028449638
 20
8.7815577078
 30
0.0
 10
12.9006018271
 20
8.7812243195
 30
0.0
 10
12.89837441
 20
8.7811872745
 30
0.0
 10
12.8961669588
 20
8.7814472256
 30
0.0
 10
12.8939837463
 20
8.7820032763
 30
0.0
 10
12.8918285023
 20
8.7828536633
 30
0.0
 10
12.8897040535
 20
8.7839958133
 30
0.0
 10
12.8876125877
 20
8.7854271876
 30
0.0
 10
12.8855557517
 20
8.7871452407
 30
0.0
 10
12.8835352458
 20
8.7891474821
 30
0.0
 10
12.8822546821
 20
8.7906227257
 30
0.0
 10
12.8816198754
 20
8.7914032618
 30
0.0
  0
SPLINE
  5
399
100
AcDbEntity
  8
0
100
AcDbSpline
 62
7
  6
CONTINUOUS
 70
0
 71
3
 72
16
 73
12
 74
0
 42
0.0000001
 43
0.0000001
 44
0.0000000001
 40
0.0
 40
0.0
 40
0.0
 40
0.0
 40
0.1504799604
 40
0.291747358
 40
0.4244949035
 40
0.4879697429
 40
0.5496758902
 40
0.6683415374
 40
0.7818817037
 40
0.8918563365
 40
1.0
 40
1.0
 40
1.0
 40
1.0
 10
12.8874191757
 20
8.8206373831
 30
0.0
 10
12.8867548389
 20
8.819995683
 30
0.0
 10
12.8854270082
 20
8.8187916417
 30
0.0
 10
12.8833710221
 20
8.8171870471
 30
0.0
 10
12.8816343463
 20
8.8160521858
 30
0.0
 10
12.8802495109
 20
8.8152837052
 30
0.0
 10
12.8789054751
 20
8.8146239333
 30
0.0
 10
12.8772248208
 20
8.8139573205
 30
0.0
 10
12.8751900435
 20
8.8134159282
 30
0.0
 10
12.8731667483
 20
8.8131456112
 30
0.0
 10
12.8718231161
 20
8.8131471303
 30
0.0
 10
12.8711609202
 20
8.8131930485
 30
0.0
  0
SPLINE
  5
39A
100
AcDbEntity
  8
0
100
AcDbSpline
 62
7
  6
CONTINUOUS
 70
0
 71
3
 72
75
 73
71
 74
0
 42
0.0000001
 43
0.0000001
 44
0.0000000001
 40
0.0
 40
0.0
 40
0.0
 40
0.0
 40
0.0086055432
 40
0.0180051993
 40
0.0282249959
 40
0.0392795446
 40
0.0511726487
 40
0.0639001709
 40
0.0774515695
 40
0.0918108897
 40
0.106957556
 40
0.1228670737
 40
0.1395115417
 40
0.1568599821
 40
0.1748786595
 40
0.1935314284
 40
0.2127799498
 40
0.2325838426
 40
0.2529009396
 40
0.2736874829
 40
0.2948982496
 40
0.3164867135
 40
0.3606043047
 40
0.4056494466
 40
0.4512195514
 40
0.4969060152
 40
0.5422989117
 40
0.586991675
 40
0.6305857541
 40
0.65185016
 40
0.6726965375
 40
0.6930794844
 40
0.7129550365
 40
0.7322807957
 40
0.7510161303
 40
0.7691224214
 40
0.7865632095
 40
0.8033044131
 40
0.819314674
 40
0.8345656572
 40
0.8490323727
 40
0.8626936837
 40
0.8755329893
 40
0.8875389311
 40
0.8987064373
 40
0.9090382568
 40
0.9138949665
 40
0.9185484203
 40
0.923002208
 40
0.9272609172
 40
0.9313302255
 40
0.9352172309
 40
0.9424768788
 40
0.9458752935
 40
0.9491366095
 40
0.952277273
 40
0.9553160308
 40
0.9582737716
 40
0.9611733666
 40
0.9640392188
 40
0.9668966664
 40
0.9697713031
 40
0.972688225
 40
0.9756713805
 40
0.9787429605
 40
0.9852251164
 40
0.9886741028
 40
0.9922790265
 40
0.9960512651
 40
1.0
 40
1.0
 40
1.0
 40
1.0
 10
12.9163969522
 20
8.789649991
 30
0.0
 10
12.9175675952
 20
8.7907807453
 30
0.0
 10
12.9199014979
 20
8.7932675069
 30
0.0
 10
12.9232416322
 20
8.7974369542
 30
0.0
 10
12.9265647437
 20
8.80219678
 30
0.0
 10
12.9298632427
 20
8.8075358058
 30
0.0
 10
12.933129852
 20
8.8134422301
 30
0.0
 10
12.9363569517
 20
8.8199024141
 30
0.0
 10
12.9395369399
 20
8.8269013634
 30
0.0
 10
12.9426622149
 20
8.8344226839
 30
0.0
 10
12.9457253085
 20
8.8424486286
 30
0.0
 10
12.9487188656
 20
8.8509601873
 30
0.0
 10
12.9516356734
 20
8.8599371523
 30
0.0
 10
12.9544687092
 20
8.8693581581
 30
0.0
 10
12.9572111663
 20
8.8792007414
 30
0.0
 10
12.9598564403
 20
8.889441418
 30
0.0
 10
12.962398152
 20
8.9000557383
 30
0.0
 10
12.9648301979
 20
8.9110183353
 30
0.0
 10
12.9671467351
 20
8.9223030014
 30
0.0
 10
12.9693421791
 20
8.9338827508
 30
0.0
 10
12.9714112739
 20
8.9457299072
 30
0.0
 10
12.974013623
 20
8.9619617566
 30
0.0
 10
12.9769087579
 20
8.9827099135
 30
0.0
 10
12.9797850875
 20
9.008031865
 30
0.0
 10
12.9820603028
 20
9.0337128122
 30
0.0
 10
12.9837126123
 20
9.0595071949
 30
0.0
 10
12.984726229
 20
9.085168591
 30
0.0
 10
12.9850916083
 20
9.1104516229
 30
0.0
 10
12.984851452
 20
9.1311725595
 30
0.0
 10
12.9843244924
 20
9.1473739308
 30
0.0
 10
12.9837702415
 20
9.1591808928
 30
0.0
 10
12.9830551375
 20
9.1707160466
 30
0.0
 10
12.9821809033
 20
9.181951829
 30
0.0
 10
12.9811496631
 20
9.1928613662
 30
0.0
 10
12.9799639094
 20
9.2034185826
 30
0.0
 10
12.9786265359
 20
9.2135982615
 30
0.0
 10
12.977140792
 20
9.2233761028
 30
0.0
 10
12.9755102699
 20
9.2327287814
 30
0.0
 10
12.9737389319
 20
9.2416340226
 30
0.0
 10
12.9718310864
 20
9.2500706625
 30
0.0
 10
12.9697913501
 20
9.2580186929
 30
0.0
 10
12.9676246334
 20
9.2654593432
 30
0.0
 10
12.9653361643
 20
9.2723751239
 30
0.0
 10
12.9629313775
 20
9.2787500092
 30
0.0
 10
12.9604159249
 20
9.2845690545
 30
0.0
 10
12.9581884932
 20
9.289032199
 30
0.0
 10
12.9563484691
 20
9.2923036323
 30
0.0
 10
12.9549729963
 20
9.2945589063
 30
0.0
 10
12.953574349
 20
9.2966654781
 30
0.0
 10
12.9521533378
 20
9.298622084
 30
0.0
 10
12.9507105471
 20
9.3004277335
 30
0.0
 10
12.9488026068
 20
9.3025830714
 30
0.0
 10
12.9468130754
 20
9.3044946771
 30
0.0
 10
12.9447387277
 20
9.3061186738
 30
0.0
 10
12.9431991786
 20
9.3071541012
 30
0.0
 10
12.9416426065
 20
9.3080328343
 30
0.0
 10
12.9400698467
 20
9.3087541689
 30
0.0
 10
12.9384818509
 20
9.3093172781
 30
0.0
 10
12.936879733
 20
9.3097215051
 30
0.0
 10
12.9352647441
 20
9.3099663983
 30
0.0
 10
12.9336382179
 20
9.3100515636
 30
0.0
 10
12.932001548
 20
9.3099770007
 30
0.0
 10
12.9303561018
 20
9.3097429367
 30
0.0
 10
12.9287030681
 20
9.3093496375
 30
0.0
 10
12.9264507272
 20
9.3086006901
 30
0.0
 10
12.9242219799
 20
9.307534511
 30
0.0
 10
12.9220374598
 20
9.3061976013
 30
0.0
 10
12.9203619315
 20
9.3050181085
 30
0.0
 10
12.9186849085
 20
9.3036837561
 30
0.0
 10
12.9175919184
 20
9.3027142227
 30
0.0
 10
12.9170452088
 20
9.3022054368
 30
0.0
  0
SPLINE
  5
39B
100
AcDbEntity
  8
0
100
AcDbSpline
 62
7
  6
CONTINUOUS
 70
0
 71
3
 72
62
 73
58
 74
0
 42
0.0000001
 43
0.0000001
 44
0.0000000001
 40
0.0
 40
0.0
 40
0.0
 40
0.0
 40
0.0081438113
 40
0.0169768278
 40
0.0265208647
 40
0.0367896131
 40
0.0477882909
 40
0.0595157946
 40
0.0719659647
 40
0.0851282307
 40
0.0989884474
 40
0.113529232
 40
0.1287304073
 40
0.1445694158
 40
0.1610213924
 40
0.1780595147
 40
0.1956552032
 40
0.2137781425
 40
0.2323965838
 40
0.2514774225
 40
0.2908867049
 40
0.3317193113
 40
0.3736730778
 40
0.4164347485
 40
0.4596832327
 40
0.5030927524
 40
0.5463359834
 40
0.5890872005
 40
0.6310254005
 40
0.6718374884
 40
0.7112215247
 40
0.73028802
 40
0.7488910687
 40
0.7669975438
 40
0.7845757688
 40
0.8015955177
 40
0.8180281877
 40
0.8338470755
 40
0.8490273916
 40
0.8635465841
 40
0.877384641
 40
0.8905242378
 40
0.9029513084
 40
0.9146554932
 40
0.9256306718
 40
0.935876034
 40
0.9453970803
 40
0.9542071386
 40
0.9623296288
 40
0.9698006213
 40
0.9766724028
 40
0.9830176416
 40
0.9889331004
 40
0.9917694712
 40
0.9945466127
 40
0.9972834967
 40
1.0
 40
1.0
 40
1.0
 40
1.0
 10
12.8874191757
 20
8.8206373831
 30
0.0
 10
12.8883671765
 20
8.8215530816
 30
0.0
 10
12.8902582666
 20
8.8235511737
 30
0.0
 10
12.8929756524
 20
8.8268775135
 30
0.0
 10
12.8956813514
 20
8.8306455029
 30
0.0
 10
12.8983701132
 20
8.8348476061
 30
0.0
 10
12.9010370295
 20
8.8394759618
 30
0.0
 10
12.9036768308
 20
8.8445216146
 30
0.0
 10
12.906284309
 20
8.8499747017
 30
0.0
 10
12.9088542876
 20
8.8558244775
 30
0.0
 10
12.9113815723
 20
8.8620593702
 30
0.0
 10
12.9138610844
 20
8.868666975
 30
0.0
 10
12.9162878368
 20
8.8756341092
 30
0.0
 10
12.9186568961
 20
8.8829468556
 30
0.0
 10
12.920963497
 20
8.890590569
 30
0.0
 10
12.923202981
 20
8.8985499293
 30
0.0
 10
12.9253707986
 20
8.9068089774
 30
0.0
 10
12.9274625905
 20
8.9153511277
 30
0.0
 10
12.9294741468
 20
8.92415924
 30
0.0
 10
12.9320716779
 20
8.9363659169
 30
0.0
 10
12.9350800229
 20
8.9521589967
 30
0.0
 10
12.9382731136
 20
8.9716782818
 30
0.0
 10
12.9410609859
 20
8.9918073802
 30
0.0
 10
12.943421077
 20
9.0123845809
 30
0.0
 10
12.9453342779
 20
9.0332446864
 30
0.0
 10
12.9467851435
 20
9.0542201413
 30
0.0
 10
12.9477620313
 20
9.0751424633
 30
0.0
 10
12.9482571647
 20
9.0958435858
 30
0.0
 10
12.9482667187
 20
9.1161572949
 30
0.0
 10
12.9477907865
 20
9.1359203756
 30
0.0
 10
12.9469847819
 20
9.1519674722
 30
0.0
 10
12.9460919072
 20
9.1644065597
 30
0.0
 10
12.9453117024
 20
9.173400193
 30
0.0
 10
12.9444153538
 20
9.1821409119
 30
0.0
 10
12.9434046905
 20
9.1906111777
 30
0.0
 10
12.9422817688
 20
9.198793981
 30
0.0
 10
12.9410488545
 20
9.2066729038
 30
0.0
 10
12.9397084877
 20
9.2142321524
 30
0.0
 10
12.938263377
 20
9.2214565871
 30
0.0
 10
12.9367164548
 20
9.2283317605
 30
0.0
 10
12.9350708936
 20
9.2348439573
 30
0.0
 10
12.9333299993
 20
9.2409802147
 30
0.0
 10
12.9314972972
 20
9.2467283734
 30
0.0
 10
12.9295764898
 20
9.2520771142
 30
0.0
 10
12.9275713483
 20
9.2570159713
 30
0.0
 10
12.925485806
 20
9.2615354076
 30
0.0
 10
12.9233238068
 20
9.2656268277
 30
0.0
 10
12.9210891778
 20
9.2692825576
 30
0.0
 10
12.9187856026
 20
9.2724958937
 30
0.0
 10
12.9164163933
 20
9.27526087
 30
0.0
 10
12.9139840248
 20
9.2775719696
 30
0.0
 10
12.9114914171
 20
9.2794233578
 30
0.0
 10
12.9093347396
 20
9.2805937731
 30
0.0
 10
12.9075967859
 20
9.2812779762
 30
0.0
 10
12.9063004394
 20
9.281666064
 30
0.0
 10
12.9049942722
 20
9.2819357008
 30
0.0
 10
12.9041160294
 20
9.2820364695
 30
0.0
 10
12.9036774311
 20
9.2820668829
 30
0.0
  0
SPLINE
  5
39C
100
AcDbEntity
  8
0
100
AcDbSpline
 62
7
  6
CONTINUOUS
 70
0
 71
3
 72
18
 73
14
 74
0
 42
0.0000001
 43
0.0000001
 44
0.0000000001
 40
0.0
 40
0.0
 40
0.0
 40
0.0
 40
0.1504670735
 40
0.2917142314
 40
0.4244427084
 40
0.4879099971
 40
0.549609347
 40
0.6682624273
 40
0.7817883326
 40
0.8371380496
 40
0.8918079086
 40
0.9460193228
 40
1.0
 40
1.0
 40
1.0
 40
1.0
 10
12.931851767
 20
8.6195411663
 30
0.0
 10
12.9306078555
 20
8.61833964
 30
0.0
 10
12.928121701
 20
8.6160852185
 30
0.0
 10
12.9242721668
 20
8.6130809044
 30
0.0
 10
12.9210205596
 20
8.610956102
 30
0.0
 10
12.9184277051
 20
8.6095172441
 30
0.0
 10
12.9159111293
 20
8.6082819507
 30
0.0
 10
12.9127646089
 20
8.6070337308
 30
0.0
 10
12.90956212
 20
8.6061819138
 30
0.0
 10
12.9070256468
 20
8.6057623167
 30
0.0
 10
12.9051457748
 20
8.6055760647
 30
0.0
 10
12.9032735047
 20
8.6055159217
 30
0.0
 10
12.9020296158
 20
8.6055599305
 30
0.0
 10
12.901410657
 20
8.6056028567
 30
0.0
  0
SPLINE
  5
39D
100
AcDbEntity
  8
0
100
AcDbSpline
 62
7
  6
CONTINUOUS
 70
0
 71
3
 72
15
 73
11
 74
0
 42
0.0000001
 43
0.0000001
 44
0.0000000001
 40
0.0
 40
0.0
 40
0.0
 40
0.0
 40
0.1057836413
 40
0.2169780151
 40
0.3336546567
 40
0.4558565126
 40
0.5836028896
 40
0.7168919315
 40
0.855703076
 40
1.0
 40
1.0
 40
1.0
 40
1.0
 10
11.825184679
 20
9.8874929567
 30
0.0
 10
11.8222049582
 20
9.889679683
 30
0.0
 10
11.8159879829
 20
9.8940230457
 30
0.0
 10
11.8061633969
 20
9.9003034236
 30
0.0
 10
11.7956176533
 20
9.9065047589
 30
0.0
 10
11.7843602829
 20
9.9126215475
 30
0.0
 10
11.77240108
 20
9.918648452
 30
0.0
 10
11.7597505852
 20
9.9245801422
 30
0.0
 10
11.7464200731
 20
9.9304113655
 30
0.0
 10
11.7372636647
 20
9.934156336
 30
0.0
 10
11.7325765867
 20
9.9360136059
 30
0.0
  0
SPLINE
  5
39E
100
AcDbEntity
  8
0
100
AcDbSpline
 62
7
  6
CONTINUOUS
 70
0
 71
3
 72
35
 73
31
 74
0
 42
0.0000001
 43
0.0000001
 44
0.0000000001
 40
0.0
 40
0.0
 40
0.0
 40
0.0
 40
0.0940910303
 40
0.1837947942
 40
0.2690356376
 40
0.3099659665
 40
0.3497617301
 40
0.3884198852
 40
0.425939044
 40
0.4623196666
 40
0.4975645025
 40
0.5316783232
 40
0.564668723
 40
0.5965459025
 40
0.627323253
 40
0.6570177153
 40
0.6856498964
 40
0.7132449865
 40
0.73983273
 40
0.7654483848
 40
0.7901330787
 40
0.8139343664
 40
0.8369070653
 40
0.8806028738
 40
0.9014960065
 40
0.9218587393
 40
0.9417858939
 40
0.9613792947
 40
0.9807467013
 40
1.0
 40
1.0
 40
1.0
 40
1.0
 10
11.6903631586
 20
10.1019981813
 30
0.0
 10
11.6976068321
 20
10.099590686
 30
0.0
 10
11.7116987964
 20
10.0947115827
 30
0.0
 10
11.7321188059
 20
10.0869967621
 30
0.0
 10
11.7483066361
 20
10.0803044669
 30
0.0
 10
11.7606119858
 20
10.0748379768
 30
0.0
 10
11.7693908782
 20
10.070745821
 30
0.0
 10
11.7778411124
 20
10.0666076372
 30
0.0
 10
11.7859591181
 20
10.0624251518
 30
0.0
 10
11.793741438
 20
10.0582001137
 30
0.0
 10
11.8011848016
 20
10.0539343643
 30
0.0
 10
11.8082860336
 20
10.0496296353
 30
0.0
 10
11.8150421611
 20
10.0452877913
 30
0.0
 10
11.8214503226
 20
10.0409106153
 30
0.0
 10
11.8275078132
 20
10.0364999205
 30
0.0
 10
11.8332121083
 20
10.0320575661
 30
0.0
 10
11.8385607607
 20
10.027585304
 30
0.0
 10
11.843551564
 20
10.023085015
 30
0.0
 10
11.8481823524
 20
10.0185584552
 30
0.0
 10
11.8524511838
 20
10.0140074075
 30
0.0
 10
11.8563561386
 20
10.0094338025
 30
0.0
 10
11.8598956985
 20
10.0048388865
 30
0.0
 10
11.8640554083
 20
9.998789236
 30
0.0
 10
11.8675761126
 20
9.992594377
 30
0.0
 10
11.8703661723
 20
9.9862876423
 30
0.0
 10
11.8720551146
 20
9.9816156223
 30
0.0
 10
11.8733700611
 20
9.9769342251
 30
0.0
 10
11.874310044
 20
9.9722453273
 30
0.0
 10
11.8748744036
 20
9.967551763
 30
0.0
 10
11.8749999862
 20
9.9644171733
 30
0.0
 10
11.8749999921
 20
9.9628552214
 30
0.0
  0
SPLINE
  5
39F
100
AcDbEntity
  8
0
100
AcDbSpline
 62
7
  6
CONTINUOUS
 70
0
 71
3
 72
42
 73
38
 74
0
 42
0.0000001
 43
0.0000001
 44
0.0000000001
 40
0.0
 40
0.0
 40
0.0
 40
0.0
 40
0.0311444347
 40
0.0467772112
 40
0.0624471461
 40
0.093891844
 40
0.1254739796
 40
0.1571813629
 40
0.1889992234
 40
0.2209106216
 40
0.2528967716
 40
0.2849374315
 40
0.3170113014
 40
0.34909644
 40
0.3811706886
 40
0.4132120984
 40
0.4451993552
 40
0.4771121951
 40
0.5089318057
 40
0.5406412074
 40
0.572225607
 40
0.6036727182
 40
0.6349730419
 40
0.6661200987
 40
0.6971106068
 40
0.7279445994
 40
0.7586254742
 40
0.7891599701
 40
0.8195580671
 40
0.8498328085
 40
0.864931571
 40
0.8800056544
 40
0.910083706
 40
0.9400929707
 40
0.9550814956
 40
0.9700611828
 40
1.0
 40
1.0
 40
1.0
 40
1.0
 10
9.5014214602
 20
6.1807880287
 30
0.0
 10
9.4964446026
 20
6.1811331749
 30
0.0
 10
9.4889849406
 20
6.1819246003
 30
0.0
 10
9.4791076851
 20
6.183515042
 30
0.0
 10
9.4692461103
 20
6.1854676163
 30
0.0
 10
9.4570179281
 20
6.1885772694
 30
0.0
 10
9.4426004209
 20
6.1933503409
 30
0.0
 10
9.4284970305
 20
6.1991440363
 30
0.0
 10
9.4147833782
 20
6.2059272833
 30
0.0
 10
9.4015324147
 20
6.213663852
 30
0.0
 10
9.3888147773
 20
6.2223124296
 30
0.0
 10
9.3766982184
 20
6.2318268682
 30
0.0
 10
9.3652473023
 20
6.2421564229
 30
0.0
 10
9.354523051
 20
6.2532460217
 30
0.0
 10
9.3445826258
 20
6.2650365557
 30
0.0
 10
9.3354790248
 20
6.2774651915
 30
0.0
 10
9.3272608032
 20
6.2904657024
 30
0.0
 10
9.3199718165
 20
6.3039688176
 30
0.0
 10
9.3136509878
 20
6.3179025868
 30
0.0
 10
9.3083321013
 20
6.3321927589
 30
0.0
 10
9.3040436218
 20
6.3467631726
 30
0.0
 10
9.3008085419
 20
6.3615361571
 30
0.0
 10
9.2986442568
 20
6.37643294
 30
0.0
 10
9.2975624685
 20
6.3913740628
 30
0.0
 10
9.297569116
 20
6.4062797958
 30
0.0
 10
9.2986643446
 20
6.4210705741
 30
0.0
 10
9.3008424683
 20
6.4356673616
 30
0.0
 10
9.3040920984
 20
6.4499922849
 30
0.0
 10
9.3083957946
 20
6.4639682591
 30
0.0
 10
9.312846528
 20
6.4752739964
 30
0.0
 10
9.3169080376
 20
6.4840659565
 30
0.0
 10
9.3212911968
 20
6.4926667432
 30
0.0
 10
9.3273769498
 20
6.5030698429
 30
0.0
 10
9.3342454242
 20
6.5129570468
 30
0.0
 10
9.3401807924
 20
6.5205145734
 30
0.0
 10
9.3463992916
 20
6.5278254234
 30
0.0
 10
9.3513814097
 20
6.5330301052
 30
0.0
 10
9.3548307431
 20
6.5363618851
 30
0.0
  0
SPLINE
  5
3A0
100
AcDbEntity
  8
0
100
AcDbSpline
 62
7
  6
CONTINUOUS
 70
0
 71
3
 72
21
 73
17
 74
0
 42
0.0000001
 43
0.0000001
 44
0.0000000001
 40
0.0
 40
0.0
 40
0.0
 40
0.0
 40
0.06165322
 40
0.1233294719
 40
0.1850515326
 40
0.2468416528
 40
0.308721334
 40
0.3707110997
 40
0.4328302469
 40
0.4950966389
 40
0.5575265783
 40
0.620134583
 40
0.6829331586
 40
0.745933179
 40
0.8725262751
 40
1.0
 40
1.0
 40
1.0
 40
1.0
 10
9.6480121772
 20
8.8891310748
 30
0.0
 10
9.6456443325
 20
8.8868439264
 30
0.0
 10
9.6407836667
 20
8.8823952704
 30
0.0
 10
9.6331431389
 20
8.8761224488
 30
0.0
 10
9.6251708151
 20
8.8702642714
 30
0.0
 10
9.6168870664
 20
8.8648357491
 30
0.0
 10
9.6083127204
 20
8.8598504416
 30
0.0
 10
9.5994693943
 20
8.8553209271
 30
0.0
 10
9.5903793492
 20
8.8512586349
 30
0.0
 10
9.5810655195
 20
8.8476737316
 30
0.0
 10
9.5715513484
 20
8.844575218
 30
0.0
 10
9.5618608634
 20
8.8419709288
 30
0.0
 10
9.5520182009
 20
8.8398673483
 30
0.0
 10
9.5387060853
 20
8.8377340302
 30
0.0
 10
9.5218018216
 20
8.8363480709
 30
0.0
 10
9.5082118132
 20
8.8366132958
 30
0.0
 10
9.5014214602
 20
8.8370842084
 30
0.0
  0
SPLINE
  5
3A1
100
AcDbEntity
  8
0
100
AcDbSpline
 62
7
  6
CONTINUOUS
 70
0
 71
3
 72
21
 73
17
 74
0
 42
0.0000001
 43
0.0000001
 44
0.0000000001
 40
0.0
 40
0.0
 40
0.0
 40
0.0
 40
0.06165322
 40
0.1233294719
 40
0.1850515326
 40
0.2468416528
 40
0.308721334
 40
0.3707110997
 40
0.4328302469
 40
0.4950966389
 40
0.5575265783
 40
0.620134583
 40
0.6829331586
 40
0.745933179
 40
0.8725262751
 40
1.0
 40
1.0
 40
1.0
 40
1.0
 10
9.6480121772
 20
6.2328348951
 30
0.0
 10
9.6456443325
 20
6.2305477467
 30
0.0
 10
9.6407836667
 20
6.2260990907
 30
0.0
 10
9.6331431389
 20
6.2198262691
 30
0.0
 10
9.6251708151
 20
6.2139680917
 30
0.0
 10
9.6168870664
 20
6.2085395694
 30
0.0
 10
9.6083127204
 20
6.2035542619
 30
0.0
 10
9.5994693943
 20
6.1990247474
 30
0.0
 10
9.5903793492
 20
6.1949624552
 30
0.0
 10
9.5810655195
 20
6.1913775519
 30
0.0
 10
9.5715513484
 20
6.1882790383
 30
0.0
 10
9.5618608634
 20
6.1856747491
 30
0.0
 10
9.5520182009
 20
6.1835711686
 30
0.0
 10
9.5387060853
 20
6.1814378505
 30
0.0
 10
9.5218018216
 20
6.1800518912
 30
0.0
 10
9.5082118132
 20
6.1803171161
 30
0.0
 10
9.5014214602
 20
6.1807880287
 30
0.0
  0
SPLINE
  5
3A2
100
AcDbEntity
  8
0
100
AcDbSpline
 62
7
  6
CONTINUOUS
 70
0
 71
3
 72
42
 73
38
 74
0
 42
0.0000001
 43
0.0000001
 44
0.0000000001
 40
0.0
 40
0.0
 40
0.0
 40
0.0
 40
0.0311444347
 40
0.0467772112
 40
0.0624471461
 40
0.093891844
 40
0.1254739796
 40
0.1571813629
 40
0.1889992234
 40
0.2209106216
 40
0.2528967716
 40
0.2849374315
 40
0.3170113014
 40
0.34909644
 40
0.3811706886
 40
0.4132120984
 40
0.4451993552
 40
0.4771121951
 40
0.5089318057
 40
0.5406412074
 40
0.572225607
 40
0.6036727182
 40
0.6349730419
 40
0.6661200987
 40
0.6971106068
 40
0.7279445994
 40
0.7586254742
 40
0.7891599701
 40
0.8195580671
 40
0.8498328085
 40
0.864931571
 40
0.8800056544
 40
0.910083706
 40
0.9400929707
 40
0.9550814956
 40
0.9700611828
 40
1.0
 40
1.0
 40
1.0
 40
1.0
 10
9.5014214602
 20
8.8370842084
 30
0.0
 10
9.4964446026
 20
8.8374293546
 30
0.0
 10
9.4889849406
 20
8.83822078
 30
0.0
 10
9.4791076851
 20
8.8398112217
 30
0.0
 10
9.4692461103
 20
8.841763796
 30
0.0
 10
9.4570179281
 20
8.8448734491
 30
0.0
 10
9.4426004209
 20
8.8496465206
 30
0.0
 10
9.4284970305
 20
8.855440216
 30
0.0
 10
9.4147833782
 20
8.862223463
 30
0.0
 10
9.4015324147
 20
8.8699600317
 30
0.0
 10
9.3888147773
 20
8.8786086092
 30
0.0
 10
9.3766982184
 20
8.8881230479
 30
0.0
 10
9.3652473023
 20
8.8984526026
 30
0.0
 10
9.354523051
 20
8.9095422014
 30
0.0
 10
9.3445826258
 20
8.9213327354
 30
0.0
 10
9.3354790248
 20
8.9337613712
 30
0.0
 10
9.3272608032
 20
8.9467618821
 30
0.0
 10
9.3199718165
 20
8.9602649973
 30
0.0
 10
9.3136509878
 20
8.9741987665
 30
0.0
 10
9.3083321013
 20
8.9884889385
 30
0.0
 10
9.3040436218
 20
9.0030593523
 30
0.0
 10
9.3008085419
 20
9.0178323368
 30
0.0
 10
9.2986442568
 20
9.0327291196
 30
0.0
 10
9.2975624685
 20
9.0476702425
 30
0.0
 10
9.297569116
 20
9.0625759755
 30
0.0
 10
9.2986643446
 20
9.0773667537
 30
0.0
 10
9.3008424683
 20
9.0919635412
 30
0.0
 10
9.3040920984
 20
9.1062884645
 30
0.0
 10
9.3083957946
 20
9.1202644388
 30
0.0
 10
9.312846528
 20
9.1315701761
 30
0.0
 10
9.3169080376
 20
9.1403621362
 30
0.0
 10
9.3212911968
 20
9.1489629229
 30
0.0
 10
9.3273769498
 20
9.1593660226
 30
0.0
 10
9.3342454242
 20
9.1692532265
 30
0.0
 10
9.3401807924
 20
9.1768107531
 30
0.0
 10
9.3463992916
 20
9.1841216031
 30
0.0
 10
9.3513814097
 20
9.1893262848
 30
0.0
 10
9.3548307431
 20
9.1926580648
 30
0.0
  0
SPLINE
  5
3A3
100
AcDbEntity
  8
0
100
AcDbSpline
 62
7
  6
CONTINUOUS
 70
0
 71
3
 72
78
 73
74
 74
0
 42
0.0000001
 43
0.0000001
 44
0.0000000001
 40
0.0
 40
0.0
 40
0.0
 40
0.0
 40
0.0027164367
 40
0.0054532514
 40
0.0082303279
 40
0.0110666264
 40
0.0139798478
 40
0.01698616
 40
0.0201001332
 40
0.023334663
 40
0.026701018
 40
0.0302089883
 40
0.0338669101
 40
0.0376818815
 40
0.0416598755
 40
0.0458058052
 40
0.0501237497
 40
0.0546169572
 40
0.0592879722
 40
0.0641387695
 40
0.0691707052
 40
0.0743846925
 40
0.0853596199
 40
0.0970635082
 40
0.1094902867
 40
0.1226295599
 40
0.1364672579
 40
0.1509861147
 40
0.1661660528
 40
0.1819845313
 40
0.1984168054
 40
0.215436125
 40
0.2330139089
 40
0.2511199382
 40
0.2697225034
 40
0.2887885258
 40
0.3082836681
 40
0.328172477
 40
0.3484184949
 40
0.3689843598
 40
0.4109214935
 40
0.4536716183
 40
0.4969137458
 40
0.5403221561
 40
0.5835695333
 40
0.6263301102
 40
0.6682827915
 40
0.6888582978
 40
0.7091151729
 40
0.7290160218
 40
0.7485243581
 40
0.7676046983
 40
0.786222669
 40
0.8043451405
 40
0.8219403599
 40
0.8389780633
 40
0.8554296169
 40
0.8712681983
 40
0.8864689974
 40
0.9010094047
 40
0.9148692631
 40
0.9280311977
 40
0.9404810329
 40
0.9522082461
 40
0.9632066295
 40
0.9684323353
 40
0.9734759499
 40
0.9783383088
 40
0.9830207669
 40
0.9875253485
 40
0.9918546163
 40
0.9960116159
 40
1.0
 40
1.0
 40
1.0
 40
1.0
 10
12.9622928771
 20
9.4834942534
 30
0.0
 10
12.9631140825
 20
9.483437301
 30
0.0
 10
12.9647584508
 20
9.4832486574
 30
0.0
 10
12.9672040603
 20
9.4827437849
 30
0.0
 10
12.9696311874
 20
9.4820171626
 30
0.0
 10
12.9720381139
 20
9.4810694919
 30
0.0
 10
12.9744235594
 20
9.4799015481
 30
0.0
 10
12.9767863525
 20
9.4785143416
 30
0.0
 10
12.9791253627
 20
9.4769087844
 30
0.0
 10
12.9814395588
 20
9.4750859185
 30
0.0
 10
12.9837279736
 20
9.4730468373
 30
0.0
 10
12.9859895614
 20
9.4707925964
 30
0.0
 10
12.9882233878
 20
9.4683244241
 30
0.0
 10
12.9904284452
 20
9.4656435529
 30
0.0
 10
12.9926037064
 20
9.4627513025
 30
0.0
 10
12.9947482231
 20
9.4596491377
 30
0.0
 10
12.9968609357
 20
9.4563385531
 30
0.0
 10
12.9989408581
 20
9.4528211929
 30
0.0
 10
13.0009870102
 20
9.449098797
 30
0.0
 10
13.0029983359
 20
9.4451731819
 30
0.0
 10
13.0049739304
 20
9.4410463055
 30
0.0
 10
13.0076040691
 20
9.4351774632
 30
0.0
 10
13.0107846849
 20
9.4273429173
 30
0.0
 10
13.0143810956
 20
9.4173283773
 30
0.0
 10
13.0178125224
 20
9.4065658138
 30
0.0
 10
13.0210720627
 20
9.3950766554
 30
0.0
 10
13.0241531282
 20
9.3828835977
 30
0.0
 10
13.0270494669
 20
9.37001092
 30
0.0
 10
13.0297552046
 20
9.3564843112
 30
0.0
 10
13.0322648376
 20
9.3423308224
 30
0.0
 10
13.034573253
 20
9.3275787917
 30
0.0
 10
13.0366757469
 20
9.3122577923
 30
0.0
 10
13.0385680494
 20
9.2963985687
 30
0.0
 10
13.0402463092
 20
9.2800329617
 30
0.0
 10
13.0417071057
 20
9.2631938373
 30
0.0
 10
13.0429474574
 20
9.2459150269
 30
0.0
 10
13.0439648482
 20
9.2282312564
 30
0.0
 10
13.0447571988
 20
9.2101780817
 30
0.0
 10
13.0453229139
 20
9.1917917642
 30
0.0
 10
13.0457762736
 20
9.166719384
 30
0.0
 10
13.0457611611
 20
9.1348205328
 30
0.0
 10
13.0448341413
 20
9.096061093
 30
0.0
 10
13.043005055
 20
9.0568873694
 30
0.0
 10
13.0402885333
 20
9.0176142067
 30
0.0
 10
13.0367063759
 20
8.9785569737
 30
0.0
 10
13.0322874662
 20
8.9400295681
 30
0.0
 10
13.0279098693
 20
8.9084216183
 30
0.0
 10
13.0240081674
 20
8.8836394793
 30
0.0
 10
13.0209157229
 20
8.8654962623
 30
0.0
 10
13.0176445879
 20
8.847713125
 30
0.0
 10
13.0142013403
 20
8.8303257856
 30
0.0
 10
13.010592938
 20
8.8133691966
 30
0.0
 10
13.006826658
 20
8.796877434
 30
0.0
 10
13.0029101054
 20
8.7808836284
 30
0.0
 10
12.9988511994
 20
8.7654198923
 30
0.0
 10
12.9946581415
 20
8.7505172622
 30
0.0
 10
12.9903393999
 20
8.7362056365
 30
0.0
 10
12.9859036988
 20
8.7225137007
 30
0.0
 10
12.9813600106
 20
8.7094688574
 30
0.0
 10
12.9767175145
 20
8.6970971789
 30
0.0
 10
12.9719855742
 20
8.6854233416
 30
0.0
 10
12.9671737184
 20
8.6744705832
 30
0.0
 10
12.9622916055
 20
8.6642605248
 30
0.0
 10
12.9573490269
 20
8.6548134819
 30
0.0
 10
12.9531188029
 20
8.647471724
 30
0.0
 10
12.9497046701
 20
8.642004786
 30
0.0
 10
12.9471788715
 20
8.6381770653
 30
0.0
 10
12.9446453874
 20
8.6345535127
 30
0.0
 10
12.9421053874
 20
8.6311359181
 30
0.0
 10
12.9395601296
 20
8.6279259117
 30
0.0
 10
12.9370107752
 20
8.6249250986
 30
0.0
 10
12.9344587484
 20
8.6221351057
 30
0.0
 10
12.9327210752
 20
8.6203808535
 30
0.0
 10
12.931851767
 20
8.6195411663
 30
0.0
  0
SPLINE
  5
3A4
100
AcDbEntity
  8
0
100
AcDbSpline
 62
7
  6
CONTINUOUS
 70
0
 71
3
 72
35
 73
31
 74
0
 42
0.0000001
 43
0.0000001
 44
0.0000000001
 40
0.0
 40
0.0
 40
0.0
 40
0.0
 40
0.0192591422
 40
0.0386322686
 40
0.0582312195
 40
0.0781636007
 40
0.0985312632
 40
0.1194288957
 40
0.163132381
 40
0.1861081106
 40
0.2099120338
 40
0.2345987558
 40
0.2602159717
 40
0.2868047978
 40
0.3144003882
 40
0.34303273
 40
0.37272675
 40
0.4035033261
 40
0.4353792713
 40
0.4683679997
 40
0.5024798847
 40
0.5377222805
 40
0.5741002854
 40
0.6116164188
 40
0.6502712995
 40
0.6900635875
 40
0.7309900925
 40
0.8162228745
 40
0.9059180032
 40
1.0
 40
1.0
 40
1.0
 40
1.0
 10
10.1250000079
 20
9.9628543437
 30
0.0
 10
10.1250000021
 20
9.9644154278
 30
0.0
 10
10.1251254011
 20
9.9675482614
 30
0.0
 10
10.1256890158
 20
9.9722392214
 30
0.0
 10
10.1266279464
 20
9.9769255008
 30
0.0
 10
10.1279412971
 20
9.9816043269
 30
0.0
 10
10.129628338
 20
9.986273759
 30
0.0
 10
10.1324151429
 20
9.9925769691
 30
0.0
 10
10.1359318823
 20
9.9987684491
 30
0.0
 10
10.1400869146
 20
10.0048149757
 30
0.0
 10
10.1436225442
 20
10.0094074179
 30
0.0
 10
10.1475231104
 20
10.01397864
 30
0.0
 10
10.151787193
 20
10.0185273145
 30
0.0
 10
10.1564128504
 20
10.0230515302
 30
0.0
 10
10.1613981048
 20
10.0275495655
 30
0.0
 10
10.1667408803
 20
10.032019549
 30
0.0
 10
10.1724388748
 20
10.0364597477
 30
0.0
 10
10.1784897323
 20
10.0408682824
 30
0.0
 10
10.1848908825
 20
10.0452433763
 30
0.0
 10
10.1916396363
 20
10.0495832111
 30
0.0
 10
10.1987331653
 20
10.0538859433
 30
0.0
 10
10.2061684526
 20
10.0581498265
 30
0.0
 10
10.2139423865
 20
10.0623729984
 30
0.0
 10
10.2220516575
 20
10.0665537338
 30
0.0
 10
10.2304928414
 20
10.0706902233
 30
0.0
 10
10.2392623725
 20
10.0747807434
 30
0.0
 10
10.2515546232
 20
10.0802451676
 30
0.0
 10
10.2677253723
 20
10.0869350528
 30
0.0
 10
10.2881240522
 20
10.0946473839
 30
0.0
 10
10.302201432
 20
10.0995250888
 30
0.0
 10
10.3094376383
 20
10.1019319432
 30
0.0
  0
SPLINE
  5
3A5
100
AcDbEntity
  8
0
100
AcDbSpline
 62
7
  6
CONTINUOUS
 70
0
 71
3
 72
15
 73
11
 74
0
 42
0.0000001
 43
0.0000001
 44
0.0000000001
 40
0.0
 40
0.0
 40
0.0
 40
0.0
 40
0.1058368823
 40
0.217069948
 40
0.3337697024
 40
0.4559792048
 40
0.5837177751
 40
0.7169833572
 40
0.8557562812
 40
1.0
 40
1.0
 40
1.0
 40
1.0
 10
10.1748690436
 20
9.8875323616
 30
0.0
 10
10.1778409322
 20
9.8897120521
 30
0.0
 10
10.184040591
 20
9.8940415786
 30
0.0
 10
10.1938361266
 20
9.9003025822
 30
0.0
 10
10.2043483861
 20
9.9064850792
 30
0.0
 10
10.2155679627
 20
9.9125835464
 30
0.0
 10
10.2274851491
 20
9.9185926951
 30
0.0
 10
10.2400894864
 20
9.9245073054
 30
0.0
 10
10.2533698419
 20
9.9303220647
 30
0.0
 10
10.2624912719
 20
9.9340569498
 30
0.0
 10
10.2671602297
 20
9.9359092588
 30
0.0
  0
SPLINE
  5
3A6
100
AcDbEntity
  8
0
100
AcDbSpline
 62
4
  6
CONTINUOUS
 70
0
 71
3
 72
313
 73
309
 74
0
 42
0.0000001
 43
0.0000001
 44
0.0000000001
 40
0.0
 40
0.0
 40
0.0
 40
0.0
 40
0.015625
 40
0.0234375
 40
0.03125
 40
0.0390625
 40
0.046875
 40
0.05078125
 40
0.0546875
 40
0.056640625
 40
0.05859375
 40
0.060546875
 40
0.0615234375
 40
0.0620117188
 40
0.0625
 40
0.0629882812
 40
0.0634765625
 40
0.064453125
 40
0.06640625
 40
0.068359375
 40
0.0703125
 40
0.07421875
 40
0.078125
 40
0.0859375
 40
0.09375
 40
0.1015625
 40
0.109375
 40
0.11328125
 40
0.1171875
 40
0.119140625
 40
0.12109375
 40
0.123046875
 40
0.1240234375
 40
0.1245117188
 40
0.125
 40
0.1254882812
 40
0.1259765625
 40
0.126953125
 40
0.12890625
 40
0.130859375
 40
0.1328125
 40
0.13671875
 40
0.140625
 40
0.1484375
 40
0.15625
 40
0.1640625
 40
0.171875
 40
0.17578125
 40
0.1796875
 40
0.181640625
 40
0.18359375
 40
0.185546875
 40
0.1865234375
 40
0.1870117188
 40
0.1875
 40
0.1879882812
 40
0.1884765625
 40
0.189453125
 40
0.19140625
 40
0.193359375
 40
0.1953125
 40
0.19921875
 40
0.203125
 40
0.2109375
 40
0.21875
 40
0.2265625
 40
0.234375
 40
0.23828125
 40
0.2421875
 40
0.244140625
 40
0.24609375
 40
0.248046875
 40
0.2490234375
 40
0.2495117188
 40
0.25
 40
0.2504882812
 40
0.2509765625
 40
0.251953125
 40
0.25390625
 40
0.255859375
 40
0.2578125
 40
0.26171875
 40
0.265625
 40
0.2734375
 40
0.28125
 40
0.2890625
 40
0.296875
 40
0.30078125
 40
0.3046875
 40
0.306640625
 40
0.30859375
 40
0.310546875
 40
0.3115234375
 40
0.3120117188
 40
0.3125
 40
0.3129882812
 40
0.3134765625
 40
0.314453125
 40
0.31640625
 40
0.318359375
 40
0.3203125
 40
0.32421875
 40
0.328125
 40
0.3359375
 40
0.34375
 40
0.3515625
 40
0.359375
 40
0.36328125
 40
0.3671875
 40
0.369140625
 40
0.37109375
 40
0.373046875
 40
0.3740234375
 40
0.3745117188
 40
0.375
 40
0.3754882812
 40
0.3759765625
 40
0.376953125
 40
0.37890625
 40
0.380859375
 40
0.3828125
 40
0.38671875
 40
0.390625
 40
0.3984375
 40
0.40625
 40
0.4140625
 40
0.421875
 40
0.42578125
 40
0.4296875
 40
0.431640625
 40
0.43359375
 40
0.435546875
 40
0.4365234375
 40
0.4370117188
 40
0.4375
 40
0.4379882812
 40
0.4384765625
 40
0.439453125
 40
0.44140625
 40
0.443359375
 40
0.4453125
 40
0.44921875
 40
0.453125
 40
0.4609375
 40
0.46875
 40
0.4765625
 40
0.484375
 40
0.48828125
 40
0.4921875
 40
0.494140625
 40
0.49609375
 40
0.498046875
 40
0.4990234375
 40
0.4995117188
 40
0.5
 40
0.5004882812
 40
0.5009765625
 40
0.501953125
 40
0.50390625
 40
0.505859375
 40
0.5078125
 40
0.51171875
 40
0.515625
 40
0.5234375
 40
0.53125
 40
0.5390625
 40
0.546875
 40
0.55078125
 40
0.5546875
 40
0.556640625
 40
0.55859375
 40
0.560546875
 40
0.5615234375
 40
0.5620117188
 40
0.5625
 40
0.5629882812
 40
0.5634765625
 40
0.564453125
 40
0.56640625
 40
0.568359375
 40
0.5703125
 40
0.57421875
 40
0.578125
 40
0.5859375
 40
0.59375
 40
0.6015625
 40
0.609375
 40
0.61328125
 40
0.6171875
 40
0.619140625
 40
0.62109375
 40
0.623046875
 40
0.6240234375
 40
0.6245117188
 40
0.625
 40
0.6254882812
 40
0.6259765625
 40
0.626953125
 40
0.62890625
 40
0.630859375
 40
0.6328125
 40
0.63671875
 40
0.640625
 40
0.6484375
 40
0.65625
 40
0.6640625
 40
0.671875
 40
0.67578125
 40
0.6796875
 40
0.681640625
 40
0.68359375
 40
0.685546875
 40
0.6865234375
 40
0.6870117188
 40
0.6875
 40
0.6879882812
 40
0.6884765625
 40
0.689453125
 40
0.69140625
 40
0.693359375
 40
0.6953125
 40
0.69921875
 40
0.703125
 40
0.7109375
 40
0.71875
 40
0.7265625
 40
0.734375
 40
0.73828125
 40
0.7421875
 40
0.744140625
 40
0.74609375
 40
0.748046875
 40
0.7490234375
 40
0.7495117188
 40
0.75
 40
0.7504882812
 40
0.7509765625
 40
0.751953125
 40
0.75390625
 40
0.755859375
 40
0.7578125
 40
0.76171875
 40
0.765625
 40
0.7734375
 40
0.78125
 40
0.7890625
 40
0.796875
 40
0.80078125
 40
0.8046875
 40
0.806640625
 40
0.80859375
 40
0.810546875
 40
0.8115234375
 40
0.8120117188
 40
0.8125
 40
0.8129882812
 40
0.8134765625
 40
0.814453125
 40
0.81640625
 40
0.818359375
 40
0.8203125
 40
0.82421875
 40
0.828125
 40
0.8359375
 40
0.84375
 40
0.8515625
 40
0.859375
 40
0.86328125
 40
0.8671875
 40
0.869140625
 40
0.87109375
 40
0.873046875
 40
0.8740234375
 40
0.8745117188
 40
0.875
 40
0.8754882812
 40
0.8759765625
 40
0.876953125
 40
0.87890625
 40
0.880859375
 40
0.8828125
 40
0.88671875
 40
0.890625
 40
0.8984375
 40
0.90625
 40
0.9140625
 40
0.921875
 40
0.92578125
 40
0.9296875
 40
0.931640625
 40
0.93359375
 40
0.935546875
 40
0.9365234375
 40
0.9370117188
 40
0.9375
 40
0.9379882812
 40
0.9384765625
 40
0.939453125
 40
0.94140625
 40
0.943359375
 40
0.9453125
 40
0.94921875
 40
0.953125
 40
0.9609375
 40
0.96875
 40
0.9765625
 40
0.984375
 40
1.0
 40
1.0
 40
1.0
 40
1.0
 10
10.1012614338
 20
8.5163325846
 30
0.0
 10
10.1015373724
 20
8.5134992084
 30
0.0
 10
10.1019512802
 20
8.509249144
 30
0.0
 10
10.102503158
 20
8.5035823916
 30
0.0
 10
10.1029170642
 20
8.4993323271
 30
0.0
 10
10.1033309787
 20
8.4950822636
 30
0.0
 10
10.1036758814
 20
8.4915405407
 30
0.0
 10
10.103951862
 20
8.4887071699
 30
0.0
 10
10.1041242168
 20
8.486936296
 30
0.0
 10
10.1042624055
 20
8.4855196361
 30
0.0
 10
10.1043652125
 20
8.4844570338
 30
0.0
 10
10.1044535394
 20
8.4835718734
 30
0.0
 10
10.104510159
 20
8.4829515909
 30
0.0
 10
10.104550647
 20
8.4825981903
 30
0.0
 10
10.1045580996
 20
8.4823301919
 30
0.0
 10
10.1046531386
 20
8.4820734619
 30
0.0
 10
10.1047493062
 20
8.4817272247
 30
0.0
 10
10.1049318337
 20
8.4811231409
 30
0.0
 10
10.1051851455
 20
8.4802592067
 30
0.0
 10
10.105492305
 20
8.4792228954
 30
0.0
 10
10.1059007385
 20
8.4778410039
 30
0.0
 10
10.1064116612
 20
8.4761136885
 30
0.0
 10
10.1072289247
 20
8.4733499565
 30
0.0
 10
10.1082505775
 20
8.469895301
 30
0.0
 10
10.1094765274
 20
8.4657497096
 30
0.0
 10
10.1107024936
 20
8.4616041221
 30
0.0
 10
10.1117241056
 20
8.4581494571
 30
0.0
 10
10.1125414507
 20
8.455385744
 30
0.0
 10
10.1130521659
 20
8.4536583804
 30
0.0
 10
10.1134610253
 20
8.4522765879
 30
0.0
 10
10.1137668834
 20
8.451239974
 30
0.0
 10
10.114024267
 20
8.4503769867
 30
0.0
 10
10.1141995257
 20
8.4497712124
 30
0.0
 10
10.1143073398
 20
8.4494276838
 30
0.0
 10
10.1143666046
 20
8.4491626339
 30
0.0
 10
10.1145084192
 20
8.4489258838
 30
0.0
 10
10.114668711
 20
8.4486003456
 30
0.0
 10
10.1149626375
 20
8.448035253
 30
0.0
 10
10.1153755185
 20
8.4472255734
 30
0.0
 10
10.115873978
 20
8.446254987
 30
0.0
 10
10.116537542
 20
8.4449605124
 30
0.0
 10
10.1173673561
 20
8.4433425422
 30
0.0
 10
10.1186948578
 20
8.4407537211
 30
0.0
 10
10.1203543044
 20
8.4375177185
 30
0.0
 10
10.1223456086
 20
8.4336345043
 30
0.0
 10
10.1243369284
 20
8.4297512965
 30
0.0
 10
10.1259963359
 20
8.426515278
 30
0.0
 10
10.1273239157
 20
8.4239264888
 30
0.0
 10
10.1281535313
 20
8.4223084376
 30
0.0
 10
10.1288175027
 20
8.4210141291
 30
0.0
 10
10.1293147177
 20
8.4200430352
 30
0.0
 10
10.1297314924
 20
8.4192349437
 30
0.0
 10
10.130018468
 20
8.4186670161
 30
0.0
 10
10.1301898969
 20
8.4183460203
 30
0.0
 10
10.130297502
 20
8.4180953175
 30
0.0
 10
10.1304852519
 20
8.4178826712
 30
0.0
 10
10.1307076296
 20
8.4175858684
 30
0.0
 10
10.1311098156
 20
8.4170726482
 30
0.0
 10
10.1316775574
 20
8.416336243
 30
0.0
 10
10.1323617624
 20
8.4154539407
 30
0.0
 10
10.1332730175
 20
8.4142770544
 30
0.0
 10
10.1344124351
 20
8.4128061119
 30
0.0
 10
10.1362353082
 20
8.4104525115
 30
0.0
 10
10.1385139669
 20
8.407510543
 30
0.0
 10
10.1412483271
 20
8.4039801656
 30
0.0
 10
10.1439827007
 20
8.4004497981
 30
0.0
 10
10.1462613261
 20
8.3975078047
 30
0.0
 10
10.1480842658
 20
8.3951542541
 30
0.0
 10
10.1492235141
 20
8.3936831849
 30
0.0
 10
10.1501351167
 20
8.3925065588
 30
0.0
 10
10.1508182603
 20
8.3916234615
 30
0.0
 10
10.1513893225
 20
8.3908895437
 30
0.0
 10
10.1517855811
 20
8.3903718831
 30
0.0
 10
10.1520174561
 20
8.390082195
 30
0.0
 10
10.1521760333
 20
8.3898476943
 30
0.0
 10
10.1523932059
 20
8.3896790729
 30
0.0
 10
10.1526623306
 20
8.389431265
 30
0.0
 10
10.1531428216
 20
8.3890083076
 30
0.0
 10
10.1538242587
 20
8.3883984852
 30
0.0
 10
10.1546441142
 20
8.3876690943
 30
0.0
 10
10.1557365105
 20
8.3866957363
 30
0.0
 10
10.1571022608
 20
8.3854793252
 30
0.0
 10
10.1592873188
 20
8.3835329074
 30
0.0
 10
10.1620186905
 20
8.3810999405
 30
0.0
 10
10.1652963143
 20
8.3781803547
 30
0.0
 10
10.1685739484
 20
8.3752607821
 30
0.0
 10
10.1713052941
 20
8.3728277824
 30
0.0
 10
10.1734904041
 20
8.3708814301
 30
0.0
 10
10.1748560223
 20
8.3696648524
 30
0.0
 10
10.1759486897
 20
8.3686918364
 30
0.0
 10
10.1767677171
 20
8.3679614004
 30
0.0
 10
10.1774517452
 20
8.367354848
 30
0.0
 10
10.1779276107
 20
8.3669260532
 30
0.0
 10
10.1782041466
 20
8.3666875982
 30
0.0
 10
10.1783985544
 20
8.3664902477
 30
0.0
 10
10.1786426321
 20
8.3663636486
 30
0.0
 10
10.1789507437
 20
8.3661701709
 30
0.0
 10
10.1794980111
 20
8.3658430833
 30
0.0
 10
10.1802756015
 20
8.3653698039
 30
0.0
 10
10.1812105163
 20
8.3648044417
 30
0.0
 10
10.1824564384
 20
8.3640497266
 30
0.0
 10
10.1840140571
 20
8.3631066406
 30
0.0
 10
10.1865061263
 20
8.3615975308
 30
0.0
 10
10.1896212545
 20
8.3597112031
 30
0.0
 10
10.1933593895
 20
8.3574475824
 30
0.0
 10
10.1970975327
 20
8.3551839762
 30
0.0
 10
10.2002126407
 20
8.3532976123
 30
0.0
 10
10.2027047502
 20
8.351788575
 30
0.0
 10
10.2042622664
 20
8.3508453049
 30
0.0
 10
10.2055083989
 20
8.3500909675
 30
0.0
 10
10.2064426713
 20
8.3495244517
 30
0.0
 10
10.2072222715
 20
8.3490547813
 30
0.0
 10
10.2077659509
 20
8.348721251
 30
0.0
 10
10.2080798114
 20
8.3485380963
 30
0.0
 10
10.2083062303
 20
8.3483797883
 30
0.0
 10
10.2085669617
 20
8.3483015312
 30
0.0
 10
10.208902635
 20
8.3481692658
 30
0.0
 10
10.2094956396
 20
8.3479508109
 30
0.0
 10
10.2103398737
 20
8.347631931
 30
0.0
 10
10.2113542025
 20
8.3472521864
 30
0.0
 10
10.212706205
 20
8.3467448434
 30
0.0
 10
10.2143963574
 20
8.3461110129
 30
0.0
 10
10.2171005178
 20
8.3450966893
 30
0.0
 10
10.2204807471
 20
8.3438288521
 30
0.0
 10
10.2245370093
 20
8.3423074166
 30
0.0
 10
10.2285932772
 20
8.340785997
 30
0.0
 10
10.2319734921
 20
8.33951812
 30
0.0
 10
10.2346776813
 20
8.338503876
 30
0.0
 10
10.2363677604
 20
8.3378698433
 30
0.0
 10
10.2377199135
 20
8.3373629153
 30
0.0
 10
10.2387337822
 20
8.3369819027
 30
0.0
 10
10.2395794557
 20
8.3366669901
 30
0.0
 10
10.2401698908
 20
8.3364414529
 30
0.0
 10
10.2405096811
 20
8.3363205351
 30
0.0
 10
10.2407577663
 20
8.3362074218
 30
0.0
 10
10.2410316822
 20
8.3361800281
 30
0.0
 10
10.2413878934
 20
8.3361136032
 30
0.0
 10
10.2420154609
 20
8.3360112906
 30
0.0
 10
10.2429097912
 20
8.3358578465
 30
0.0
 10
10.243983927
 20
8.3356768311
 30
0.0
 10
10.2454157799
 20
8.3354343883
 30
0.0
 10
10.2472057083
 20
8.3351317076
 30
0.0
 10
10.2500695311
 20
8.3346472101
 30
0.0
 10
10.253649331
 20
8.3340416602
 30
0.0
 10
10.2579450819
 20
8.3333149673
 30
0.0
 10
10.2622408345
 20
8.3325882913
 30
0.0
 10
10.2658206301
 20
8.3319826989
 30
0.0
 10
10.2686844614
 20
8.3314982864
 30
0.0
 10
10.2704743681
 20
8.3311953896
 30
0.0
 10
10.2719062656
 20
8.3309533904
 30
0.0
 10
10.2729802652
 20
8.3307710198
 30
0.0
 10
10.2738750216
 20
8.3306218157
 30
0.0
 10
10.2745018283
 20
8.3305119339
 30
0.0
 10
10.2748592585
 20
8.3304576368
 30
0.0
 10
10.2751294302
 20
8.3303929907
 30
0.0
 10
10.275391578
 20
8.3304197912
 30
0.0
 10
10.2757439072
 20
8.3304236276
 30
0.0
 10
10.2763591794
 20
8.3304452031
 30
0.0
 10
10.2772388213
 20
8.3304682553
 30
0.0
 10
10.2782940999
 20
8.3304992437
 30
0.0
 10
10.2797012399
 20
8.3305394
 30
0.0
 10
10.28146013
 20
8.330589993
 30
0.0
 10
10.2842743737
 20
8.3306707196
 30
0.0
 10
10.2877921714
 20
8.3307717046
 30
0.0
 10
10.2920135321
 20
8.3308928515
 30
0.0
 10
10.2962348904
 20
8.3310140157
 30
0.0
 10
10.2997526942
 20
8.3311149574
 30
0.0
 10
10.3025669257
 20
8.3311957705
 30
0.0
 10
10.3043258468
 20
8.3312461437
 30
0.0
 10
10.3057329232
 20
8.3312867512
 30
0.0
 10
10.3067883958
 20
8.331316361
 30
0.0
 10
10.3076674307
 20
8.3313437267
 30
0.0
 10
10.3082837866
 20
8.3313576018
 30
0.0
 10
10.3086343794
 20
8.3313737761
 30
0.0
 10
10.308901861
 20
8.3313626788
 30
0.0
 10
10.309152
 20
8.3314403706
 30
0.0
 10
10.309491568
 20
8.331512989
 30
0.0
 10
10.3100829934
 20
8.3316545011
 30
0.0
 10
10.3109293604
 20
8.3318491172
 30
0.0
 10
10.3119443701
 20
8.3320858855
 30
0.0
 10
10.3132979367
 20
8.3324004488
 30
0.0
 10
10.3149898195
 20
8.3327940391
 30
0.0
 10
10.3176968741
 20
8.3334235676
 30
0.0
 10
10.3210806777
 20
8.3342105529
 30
0.0
 10
10.3251412491
 20
8.3351549012
 30
0.0
 10
10.3292018156
 20
8.3360992661
 30
0.0
 10
10.3325856316
 20
8.3368862097
 30
0.0
 10
10.3352926616
 20
8.3375158216
 30
0.0
 10
10.336984607
 20
8.3379092
 30
0.0
 10
10.3383380449
 20
8.3382241982
 30
0.0
 10
10.3393534476
 20
8.3384596379
 30
0.0
 10
10.3401985852
 20
8.338658411
 30
0.0
 10
10.3407922053
 20
8.338792502
 30
0.0
 10
10.3411282569
 20
8.3388770108
 30
0.0
 10
10.3413891968
 20
8.3389181794
 30
0.0
 10
10.3416161121
 20
8.3390442573
 30
0.0
 10
10.341930534
 20
8.3391827439
 30
0.0
 10
10.3424752427
 20
8.3394388947
 30
0.0
 10
10.3432562889
 20
8.3397976101
 30
0.0
 10
10.344192307
 20
8.3402311564
 30
0.0
 10
10.3454407633
 20
8.3408081397
 30
0.0
 10
10.3470011857
 20
8.3415297381
 30
0.0
 10
10.3494979442
 20
8.3426840891
 30
0.0
 10
10.3526188638
 20
8.3441270991
 30
0.0
 10
10.3563639806
 20
8.3458586786
 30
0.0
 10
10.3601090899
 20
8.3475902742
 30
0.0
 10
10.3632300281
 20
8.3490332439
 30
0.0
 10
10.3657267494
 20
8.3501876755
 30
0.0
 10
10.3672872665
 20
8.3509090689
 30
0.0
 10
10.3685355284
 20
8.351486473
 30
0.0
 10
10.3694721404
 20
8.3519187337
 30
0.0
 10
10.3702513285
 20
8.3522814716
 30
0.0
 10
10.3707993542
 20
8.3525304415
 30
0.0
 10
10.3711084614
 20
8.3526804337
 30
0.0
 10
10.3713517018
 20
8.3527711701
 30
0.0
 10
10.3715513275
 20
8.3529450758
 30
0.0
 10
10.3718327085
 20
8.3531479397
 30
0.0
 10
10.372318037
 20
8.3535164681
 30
0.0
 10
10.3730150691
 20
8.3540358705
 30
0.0
 10
10.3738499216
 20
8.3546621782
 30
0.0
 10
10.3749636122
 20
8.3554961987
 30
0.0
 10
10.3763555357
 20
8.356539086
 30
0.0
 10
10.3785827195
 20
8.3582075035
 30
0.0
 10
10.3813666624
 20
8.3602930951
 30
0.0
 10
10.3847074114
 20
8.3627957735
 30
0.0
 10
10.3880481494
 20
8.3652984661
 30
0.0
 10
10.3908321196
 20
8.3673840225
 30
0.0
 10
10.3930592489
 20
8.3690525104
 30
0.0
 10
10.394451311
 20
8.3700952188
 30
0.0
 10
10.3955647173
 20
8.3709296064
 30
0.0
 10
10.3964004383
 20
8.3715547926
 30
0.0
 10
10.3970947528
 20
8.3720777039
 30
0.0
 10
10.3975849329
 20
8.3724399683
 30
0.0
 10
10.3978585404
 20
8.3726528686
 30
0.0
 10
10.3980820436
 20
8.3727959459
 30
0.0
 10
10.3982356041
 20
8.3730024689
 30
0.0
 10
10.3984647482
 20
8.3732557024
 30
0.0
 10
10.3988543834
 20
8.3737091721
 30
0.0
 10
10.3994169479
 20
8.3743515952
 30
0.0
 10
10.4000894817
 20
8.3751248104
 30
0.0
 10
10.4009870818
 20
8.3761549579
 30
0.0
 10
10.4021087777
 20
8.3774429184
 30
0.0
 10
10.4039036612
 20
8.3795035008
 30
0.0
 10
10.4061472069
 20
8.382079282
 30
0.0
 10
10.4088394887
 20
8.3851701954
 30
0.0
 10
10.4115317566
 20
8.3882611201
 30
0.0
 10
10.4137753369
 20
8.390836873
 30
0.0
 10
10.4155701512
 20
8.3928975122
 30
0.0
 10
10.416692023
 20
8.3941853284
 30
0.0
 10
10.4175892622
 20
8.395215772
 30
0.0
 10
10.4182628985
 20
8.3959880826
 30
0.0
 10
10.4188220134
 20
8.3966333359
 30
0.0
 10
10.4192178068
 20
8.3970817531
 30
0.0
 10
10.419437084
 20
8.397343082
 30
0.0
 10
10.4196209522
 20
8.3975247386
 30
0.0
 10
10.4197306245
 20
8.3977612105
 30
0.0
 10
10.4199027346
 20
8.3980573861
 30
0.0
 10
10.420191869
 20
8.398584602
 30
0.0
 10
10.4206112224
 20
8.3993331101
 30
0.0
 10
10.4211117481
 20
8.4002333134
 30
0.0
 10
10.4217800581
 20
8.401432888
 30
0.0
 10
10.4226151229
 20
8.4029325948
 30
0.0
 10
10.4239514071
 20
8.4053319924
 30
0.0
 10
10.4256216999
 20
8.4083312853
 30
0.0
 10
10.4276260801
 20
8.4119304162
 30
0.0
 10
10.4296304452
 20
8.4155295561
 30
0.0
 10
10.4313007756
 20
8.4185288263
 30
0.0
 10
10.4326369846
 20
8.4209282694
 30
0.0
 10
10.4334722405
 20
8.4224278605
 30
0.0
 10
10.4341401584
 20
8.4236276726
 30
0.0
 10
10.4346418821
 20
8.4245271504
 30
0.0
 10
10.435057487
 20
8.4252779283
 30
0.0
 10
10.4353533131
 20
8.4258010921
 30
0.0
 10
10.4355147015
 20
8.4261037602
 30
0.0
 10
10.4356573073
 20
8.4263202894
 30
0.0
 10
10.4357174826
 20
8.4265768476
 30
0.0
 10
10.435826469
 20
8.4269049627
 30
0.0
 10
10.4360037988
 20
8.4274856695
 30
0.0
 10
10.4362641309
 20
8.4283118495
 30
0.0
 10
10.4365735316
 20
8.4293047212
 30
0.0
 10
10.4369871129
 20
8.4306280418
 30
0.0
 10
10.437503731
 20
8.4322823666
 30
0.0
 10
10.4383305204
 20
8.434929189
 30
0.0
 10
10.4393639379
 20
8.4382377505
 30
0.0
 10
10.4406040706
 20
8.4422080092
 30
0.0
 10
10.4418441871
 20
8.4461782748
 30
0.0
 10
10.4428776454
 20
8.4494868191
 30
0.0
 10
10.4437043532
 20
8.4521336759
 30
0.0
 10
10.4442211786
 20
8.453787913
 30
0.0
 10
10.4446343344
 20
8.4551114137
 30
0.0
 10
10.444945035
 20
8.4561037352
 30
0.0
 10
10.4452013
 20
8.4569316367
 30
0.0
 10
10.4453858903
 20
8.4575092704
 30
0.0
 10
10.4454832435
 20
8.4578423093
 30
0.0
 10
10.4455791521
 20
8.4580837431
 30
0.0
 10
10.4455875497
 20
8.4583570769
 30
0.0
 10
10.4456292712
 20
8.4587103948
 30
0.0
 10
10.4456880618
 20
8.4593338854
 30
0.0
 10
10.4457794839
 20
8.460221876
 30
0.0
 10
10.4458860078
 20
8.4612886247
 30
0.0
 10
10.4460291513
 20
8.4627105512
 30
0.0
 10
10.4462077
 20
8.4644880981
 30
0.0
 10
10.4464935907
 20
8.4673320955
 30
0.0
 10
10.4468508811
 20
8.4708871189
 30
0.0
 10
10.4472796608
 20
8.4751531355
 30
0.0
 10
10.4477084322
 20
8.4794191552
 30
0.0
 10
10.4482801302
 20
8.4851071804
 30
0.0
 10
10.4487089031
 20
8.4893731995
 30
0.0
 10
10.4489947519
 20
8.4922172123
 30
0.0
  0
SPLINE
  5
3A7
100
AcDbEntity
  8
0
100
AcDbSpline
 62
4
  6
CONTINUOUS
 70
0
 71
3
 72
313
 73
309
 74
0
 42
0.0000001
 43
0.0000001
 44
0.0000000001
 40
0.0
 40
0.0
 40
0.0
 40
0.0
 40
0.015625
 40
0.0234375
 40
0.03125
 40
0.0390625
 40
0.046875
 40
0.05078125
 40
0.0546875
 40
0.056640625
 40
0.05859375
 40
0.060546875
 40
0.0615234375
 40
0.0620117188
 40
0.0625
 40
0.0629882812
 40
0.0634765625
 40
0.064453125
 40
0.06640625
 40
0.068359375
 40
0.0703125
 40
0.07421875
 40
0.078125
 40
0.0859375
 40
0.09375
 40
0.1015625
 40
0.109375
 40
0.11328125
 40
0.1171875
 40
0.119140625
 40
0.12109375
 40
0.123046875
 40
0.1240234375
 40
0.1245117188
 40
0.125
 40
0.1254882812
 40
0.1259765625
 40
0.126953125
 40
0.12890625
 40
0.130859375
 40
0.1328125
 40
0.13671875
 40
0.140625
 40
0.1484375
 40
0.15625
 40
0.1640625
 40
0.171875
 40
0.17578125
 40
0.1796875
 40
0.181640625
 40
0.18359375
 40
0.185546875
 40
0.1865234375
 40
0.1870117188
 40
0.1875
 40
0.1879882812
 40
0.1884765625
 40
0.189453125
 40
0.19140625
 40
0.193359375
 40
0.1953125
 40
0.19921875
 40
0.203125
 40
0.2109375
 40
0.21875
 40
0.2265625
 40
0.234375
 40
0.23828125
 40
0.2421875
 40
0.244140625
 40
0.24609375
 40
0.248046875
 40
0.2490234375
 40
0.2495117188
 40
0.25
 40
0.2504882812
 40
0.2509765625
 40
0.251953125
 40
0.25390625
 40
0.255859375
 40
0.2578125
 40
0.26171875
 40
0.265625
 40
0.2734375
 40
0.28125
 40
0.2890625
 40
0.296875
 40
0.30078125
 40
0.3046875
 40
0.306640625
 40
0.30859375
 40
0.310546875
 40
0.3115234375
 40
0.3120117188
 40
0.3125
 40
0.3129882812
 40
0.3134765625
 40
0.314453125
 40
0.31640625
 40
0.318359375
 40
0.3203125
 40
0.32421875
 40
0.328125
 40
0.3359375
 40
0.34375
 40
0.3515625
 40
0.359375
 40
0.36328125
 40
0.3671875
 40
0.369140625
 40
0.37109375
 40
0.373046875
 40
0.3740234375
 40
0.3745117188
 40
0.375
 40
0.3754882812
 40
0.3759765625
 40
0.376953125
 40
0.37890625
 40
0.380859375
 40
0.3828125
 40
0.38671875
 40
0.390625
 40
0.3984375
 40
0.40625
 40
0.4140625
 40
0.421875
 40
0.42578125
 40
0.4296875
 40
0.431640625
 40
0.43359375
 40
0.435546875
 40
0.4365234375
 40
0.4370117188
 40
0.4375
 40
0.4379882812
 40
0.4384765625
 40
0.439453125
 40
0.44140625
 40
0.443359375
 40
0.4453125
 40
0.44921875
 40
0.453125
 40
0.4609375
 40
0.46875
 40
0.4765625
 40
0.484375
 40
0.48828125
 40
0.4921875
 40
0.494140625
 40
0.49609375
 40
0.498046875
 40
0.4990234375
 40
0.4995117188
 40
0.5
 40
0.5004882812
 40
0.5009765625
 40
0.501953125
 40
0.50390625
 40
0.505859375
 40
0.5078125
 40
0.51171875
 40
0.515625
 40
0.5234375
 40
0.53125
 40
0.5390625
 40
0.546875
 40
0.55078125
 40
0.5546875
 40
0.556640625
 40
0.55859375
 40
0.560546875
 40
0.5615234375
 40
0.5620117188
 40
0.5625
 40
0.5629882812
 40
0.5634765625
 40
0.564453125
 40
0.56640625
 40
0.568359375
 40
0.5703125
 40
0.57421875
 40
0.578125
 40
0.5859375
 40
0.59375
 40
0.6015625
 40
0.609375
 40
0.61328125
 40
0.6171875
 40
0.619140625
 40
0.62109375
 40
0.623046875
 40
0.6240234375
 40
0.6245117188
 40
0.625
 40
0.6254882812
 40
0.6259765625
 40
0.626953125
 40
0.62890625
 40
0.630859375
 40
0.6328125
 40
0.63671875
 40
0.640625
 40
0.6484375
 40
0.65625
 40
0.6640625
 40
0.671875
 40
0.67578125
 40
0.6796875
 40
0.681640625
 40
0.68359375
 40
0.685546875
 40
0.6865234375
 40
0.6870117188
 40
0.6875
 40
0.6879882812
 40
0.6884765625
 40
0.689453125
 40
0.69140625
 40
0.693359375
 40
0.6953125
 40
0.69921875
 40
0.703125
 40
0.7109375
 40
0.71875
 40
0.7265625
 40
0.734375
 40
0.73828125
 40
0.7421875
 40
0.744140625
 40
0.74609375
 40
0.748046875
 40
0.7490234375
 40
0.7495117188
 40
0.75
 40
0.7504882812
 40
0.7509765625
 40
0.751953125
 40
0.75390625
 40
0.755859375
 40
0.7578125
 40
0.76171875
 40
0.765625
 40
0.7734375
 40
0.78125
 40
0.7890625
 40
0.796875
 40
0.80078125
 40
0.8046875
 40
0.806640625
 40
0.80859375
 40
0.810546875
 40
0.8115234375
 40
0.8120117188
 40
0.8125
 40
0.8129882812
 40
0.8134765625
 40
0.814453125
 40
0.81640625
 40
0.818359375
 40
0.8203125
 40
0.82421875
 40
0.828125
 40
0.8359375
 40
0.84375
 40
0.8515625
 40
0.859375
 40
0.86328125
 40
0.8671875
 40
0.869140625
 40
0.87109375
 40
0.873046875
 40
0.8740234375
 40
0.8745117188
 40
0.875
 40
0.8754882812
 40
0.8759765625
 40
0.876953125
 40
0.87890625
 40
0.880859375
 40
0.8828125
 40
0.88671875
 40
0.890625
 40
0.8984375
 40
0.90625
 40
0.9140625
 40
0.921875
 40
0.92578125
 40
0.9296875
 40
0.931640625
 40
0.93359375
 40
0.935546875
 40
0.9365234375
 40
0.9370117188
 40
0.9375
 40
0.9379882812
 40
0.9384765625
 40
0.939453125
 40
0.94140625
 40
0.943359375
 40
0.9453125
 40
0.94921875
 40
0.953125
 40
0.9609375
 40
0.96875
 40
0.9765625
 40
0.984375
 40
1.0
 40
1.0
 40
1.0
 40
1.0
 10
10.4489947519
 20
8.4922171971
 30
0.0
 10
10.4487188133
 20
8.4950505733
 30
0.0
 10
10.4483049055
 20
8.4993006376
 30
0.0
 10
10.4477530277
 20
8.50496739
 30
0.0
 10
10.4473391215
 20
8.5092174545
 30
0.0
 10
10.446925207
 20
8.513467518
 30
0.0
 10
10.4465803043
 20
8.5170092409
 30
0.0
 10
10.4463043237
 20
8.5198426118
 30
0.0
 10
10.4461319689
 20
8.5216134856
 30
0.0
 10
10.4459937803
 20
8.5230301455
 30
0.0
 10
10.4458909732
 20
8.5240927478
 30
0.0
 10
10.4458026463
 20
8.5249779082
 30
0.0
 10
10.4457460267
 20
8.5255981907
 30
0.0
 10
10.4457055387
 20
8.5259515913
 30
0.0
 10
10.4456980861
 20
8.5262195897
 30
0.0
 10
10.4456030471
 20
8.5264763197
 30
0.0
 10
10.4455068795
 20
8.5268225569
 30
0.0
 10
10.445324352
 20
8.5274266407
 30
0.0
 10
10.4450710402
 20
8.5282905749
 30
0.0
 10
10.4447638807
 20
8.5293268862
 30
0.0
 10
10.4443554472
 20
8.5307087777
 30
0.0
 10
10.4438445245
 20
8.5324360931
 30
0.0
 10
10.443027261
 20
8.5351998252
 30
0.0
 10
10.4420056082
 20
8.5386544807
 30
0.0
 10
10.4407796583
 20
8.542800072
 30
0.0
 10
10.4395536921
 20
8.5469456596
 30
0.0
 10
10.4385320801
 20
8.5504003245
 30
0.0
 10
10.437714735
 20
8.5531640376
 30
0.0
 10
10.4372040198
 20
8.5548914012
 30
0.0
 10
10.4367951604
 20
8.5562731937
 30
0.0
 10
10.4364893023
 20
8.5573098076
 30
0.0
 10
10.4362319187
 20
8.5581727949
 30
0.0
 10
10.43605666
 20
8.5587785692
 30
0.0
 10
10.4359488459
 20
8.5591220978
 30
0.0
 10
10.4358895811
 20
8.5593871477
 30
0.0
 10
10.4357477666
 20
8.5596238979
 30
0.0
 10
10.4355874747
 20
8.559949436
 30
0.0
 10
10.4352935482
 20
8.5605145286
 30
0.0
 10
10.4348806672
 20
8.5613242082
 30
0.0
 10
10.4343822077
 20
8.5622947946
 30
0.0
 10
10.4337186437
 20
8.5635892692
 30
0.0
 10
10.4328888296
 20
8.5652072394
 30
0.0
 10
10.4315613279
 20
8.5677960605
 30
0.0
 10
10.4299018813
 20
8.5710320631
 30
0.0
 10
10.4279105771
 20
8.5749152773
 30
0.0
 10
10.4259192573
 20
8.5787984851
 30
0.0
 10
10.4242598498
 20
8.5820345036
 30
0.0
 10
10.42293227
 20
8.5846232929
 30
0.0
 10
10.4221026544
 20
8.586241344
 30
0.0
 10
10.421438683
 20
8.5875356525
 30
0.0
 10
10.420941468
 20
8.5885067464
 30
0.0
 10
10.4205246933
 20
8.589314838
 30
0.0
 10
10.4202377177
 20
8.5898827655
 30
0.0
 10
10.4200662888
 20
8.5902037613
 30
0.0
 10
10.4199586837
 20
8.5904544641
 30
0.0
 10
10.4197709338
 20
8.5906671104
 30
0.0
 10
10.4195485561
 20
8.5909639133
 30
0.0
 10
10.4191463701
 20
8.5914771335
 30
0.0
 10
10.4185786283
 20
8.5922135387
 30
0.0
 10
10.4178944234
 20
8.5930958409
 30
0.0
 10
10.4169831682
 20
8.5942727273
 30
0.0
 10
10.4158437507
 20
8.5957436697
 30
0.0
 10
10.4140208775
 20
8.5980972701
 30
0.0
 10
10.4117422188
 20
8.6010392386
 30
0.0
 10
10.4090078586
 20
8.6045696161
 30
0.0
 10
10.406273485
 20
8.6080999836
 30
0.0
 10
10.4039948596
 20
8.6110419769
 30
0.0
 10
10.4021719199
 20
8.6133955275
 30
0.0
 10
10.4010326716
 20
8.6148665967
 30
0.0
 10
10.400121069
 20
8.6160432229
 30
0.0
 10
10.3994379254
 20
8.6169263201
 30
0.0
 10
10.3988668632
 20
8.6176602379
 30
0.0
 10
10.3984706046
 20
8.6181778986
 30
0.0
 10
10.3982387296
 20
8.6184675867
 30
0.0
 10
10.3980801524
 20
8.6187020873
 30
0.0
 10
10.3978629798
 20
8.6188707087
 30
0.0
 10
10.3975938551
 20
8.6191185167
 30
0.0
 10
10.3971133641
 20
8.6195414741
 30
0.0
 10
10.3964319271
 20
8.6201512964
 30
0.0
 10
10.3956120715
 20
8.6208806873
 30
0.0
 10
10.3945196752
 20
8.6218540454
 30
0.0
 10
10.3931539249
 20
8.6230704564
 30
0.0
 10
10.3909688669
 20
8.6250168742
 30
0.0
 10
10.3882374952
 20
8.6274498412
 30
0.0
 10
10.3849598715
 20
8.6303694269
 30
0.0
 10
10.3816822373
 20
8.6332889995
 30
0.0
 10
10.3789508916
 20
8.6357219993
 30
0.0
 10
10.3767657816
 20
8.6376683515
 30
0.0
 10
10.3754001634
 20
8.6388849292
 30
0.0
 10
10.374307496
 20
8.6398579452
 30
0.0
 10
10.3734884686
 20
8.6405883812
 30
0.0
 10
10.3728044405
 20
8.6411949336
 30
0.0
 10
10.372328575
 20
8.6416237284
 30
0.0
 10
10.3720520391
 20
8.6418621835
 30
0.0
 10
10.3718576313
 20
8.6420595339
 30
0.0
 10
10.3716135536
 20
8.642186133
 30
0.0
 10
10.371305442
 20
8.6423796107
 30
0.0
 10
10.3707581746
 20
8.6427066983
 30
0.0
 10
10.3699805843
 20
8.6431799777
 30
0.0
 10
10.3690456694
 20
8.6437453399
 30
0.0
 10
10.3677997473
 20
8.644500055
 30
0.0
 10
10.3662421286
 20
8.6454431411
 30
0.0
 10
10.3637500594
 20
8.6469522508
 30
0.0
 10
10.3606349312
 20
8.6488385785
 30
0.0
 10
10.3568967962
 20
8.6511021992
 30
0.0
 10
10.353158653
 20
8.6533658054
 30
0.0
 10
10.3500435451
 20
8.6552521693
 30
0.0
 10
10.3475514356
 20
8.6567612067
 30
0.0
 10
10.3459939193
 20
8.6577044767
 30
0.0
 10
10.3447477869
 20
8.6584588142
 30
0.0
 10
10.3438135144
 20
8.6590253299
 30
0.0
 10
10.3430339142
 20
8.6594950003
 30
0.0
 10
10.3424902348
 20
8.6598285307
 30
0.0
 10
10.3421763743
 20
8.6600116853
 30
0.0
 10
10.3419499554
 20
8.6601699934
 30
0.0
 10
10.341689224
 20
8.6602482504
 30
0.0
 10
10.3413535507
 20
8.6603805159
 30
0.0
 10
10.3407605461
 20
8.6605989707
 30
0.0
 10
10.339916312
 20
8.6609178506
 30
0.0
 10
10.3389019832
 20
8.6612975952
 30
0.0
 10
10.3375499807
 20
8.6618049382
 30
0.0
 10
10.3358598283
 20
8.6624387688
 30
0.0
 10
10.3331556679
 20
8.6634530923
 30
0.0
 10
10.3297754386
 20
8.6647209295
 30
0.0
 10
10.3257191764
 20
8.666242365
 30
0.0
 10
10.3216629085
 20
8.6677637846
 30
0.0
 10
10.3182826936
 20
8.6690316616
 30
0.0
 10
10.3155785044
 20
8.6700459056
 30
0.0
 10
10.3138884253
 20
8.6706799384
 30
0.0
 10
10.3125362722
 20
8.6711868663
 30
0.0
 10
10.3115224035
 20
8.6715678789
 30
0.0
 10
10.31067673
 20
8.6718827916
 30
0.0
 10
10.3100862949
 20
8.6721083287
 30
0.0
 10
10.3097465046
 20
8.6722292465
 30
0.0
 10
10.3094984194
 20
8.6723423598
 30
0.0
 10
10.3092245035
 20
8.6723697535
 30
0.0
 10
10.3088682923
 20
8.6724361784
 30
0.0
 10
10.3082407248
 20
8.672538491
 30
0.0
 10
10.3073463945
 20
8.6726919351
 30
0.0
 10
10.3062722587
 20
8.6728729505
 30
0.0
 10
10.3048404059
 20
8.6731153934
 30
0.0
 10
10.3030504774
 20
8.673418074
 30
0.0
 10
10.3001866547
 20
8.6739025716
 30
0.0
 10
10.2966068547
 20
8.6745081214
 30
0.0
 10
10.2923111038
 20
8.6752348144
 30
0.0
 10
10.2880153512
 20
8.6759614903
 30
0.0
 10
10.2844355556
 20
8.6765670827
 30
0.0
 10
10.2815717243
 20
8.6770514952
 30
0.0
 10
10.2797818176
 20
8.677354392
 30
0.0
 10
10.2783499201
 20
8.6775963912
 30
0.0
 10
10.2772759206
 20
8.6777787618
 30
0.0
 10
10.2763811641
 20
8.6779279659
 30
0.0
 10
10.2757543574
 20
8.6780378477
 30
0.0
 10
10.2753969273
 20
8.6780921449
 30
0.0
 10
10.2751267555
 20
8.678156791
 30
0.0
 10
10.2748646077
 20
8.6781299904
 30
0.0
 10
10.2745122785
 20
8.678126154
 30
0.0
 10
10.2738970063
 20
8.6781045785
 30
0.0
 10
10.2730173644
 20
8.6780815263
 30
0.0
 10
10.2719620858
 20
8.6780505379
 30
0.0
 10
10.2705549458
 20
8.6780103817
 30
0.0
 10
10.2687960557
 20
8.6779597886
 30
0.0
 10
10.2659818121
 20
8.677879062
 30
0.0
 10
10.2624640143
 20
8.6777780771
 30
0.0
 10
10.2582426536
 20
8.6776569301
 30
0.0
 10
10.2540212954
 20
8.6775357659
 30
0.0
 10
10.2505034915
 20
8.6774348242
 30
0.0
 10
10.24768926
 20
8.6773540111
 30
0.0
 10
10.2459303389
 20
8.6773036379
 30
0.0
 10
10.2445232625
 20
8.6772630304
 30
0.0
 10
10.2434677899
 20
8.6772334207
 30
0.0
 10
10.242588755
 20
8.677206055
 30
0.0
 10
10.2419723991
 20
8.6771921798
 30
0.0
 10
10.2416218063
 20
8.6771760056
 30
0.0
 10
10.2413543247
 20
8.6771871028
 30
0.0
 10
10.2411041857
 20
8.677109411
 30
0.0
 10
10.2407646178
 20
8.6770367926
 30
0.0
 10
10.2401731923
 20
8.6768952805
 30
0.0
 10
10.2393268253
 20
8.6767006645
 30
0.0
 10
10.2383118156
 20
8.6764638961
 30
0.0
 10
10.236958249
 20
8.6761493328
 30
0.0
 10
10.2352663663
 20
8.6757557426
 30
0.0
 10
10.2325593116
 20
8.675126214
 30
0.0
 10
10.229175508
 20
8.6743392288
 30
0.0
 10
10.2251149366
 20
8.6733948805
 30
0.0
 10
10.2210543701
 20
8.6724505155
 30
0.0
 10
10.2176705541
 20
8.6716635719
 30
0.0
 10
10.2149635242
 20
8.67103396
 30
0.0
 10
10.2132715787
 20
8.6706405816
 30
0.0
 10
10.2119181408
 20
8.6703255834
 30
0.0
 10
10.2109027381
 20
8.6700901437
 30
0.0
 10
10.2100576005
 20
8.6698913707
 30
0.0
 10
10.2094639804
 20
8.6697572796
 30
0.0
 10
10.2091279288
 20
8.6696727708
 30
0.0
 10
10.2088669889
 20
8.6696316023
 30
0.0
 10
10.2086400736
 20
8.6695055243
 30
0.0
 10
10.2083256517
 20
8.6693670377
 30
0.0
 10
10.207780943
 20
8.6691108869
 30
0.0
 10
10.2069998968
 20
8.6687521716
 30
0.0
 10
10.2060638787
 20
8.6683186252
 30
0.0
 10
10.2048154224
 20
8.6677416419
 30
0.0
 10
10.203255
 20
8.6670200435
 30
0.0
 10
10.2007582415
 20
8.6658656925
 30
0.0
 10
10.1976373219
 20
8.6644226825
 30
0.0
 10
10.1938922051
 20
8.662691103
 30
0.0
 10
10.1901470958
 20
8.6609595074
 30
0.0
 10
10.1870261576
 20
8.6595165377
 30
0.0
 10
10.1845294363
 20
8.6583621061
 30
0.0
 10
10.1829689192
 20
8.6576407127
 30
0.0
 10
10.1817206573
 20
8.6570633086
 30
0.0
 10
10.1807840454
 20
8.6566310479
 30
0.0
 10
10.1800048572
 20
8.6562683101
 30
0.0
 10
10.1794568315
 20
8.6560193401
 30
0.0
 10
10.1791477243
 20
8.6558693479
 30
0.0
 10
10.178904484
 20
8.6557786116
 30
0.0
 10
10.1787048582
 20
8.6556047058
 30
0.0
 10
10.1784234773
 20
8.6554018419
 30
0.0
 10
10.1779381488
 20
8.6550333136
 30
0.0
 10
10.1772411166
 20
8.6545139111
 30
0.0
 10
10.1764062641
 20
8.6538876034
 30
0.0
 10
10.1752925735
 20
8.6530535829
 30
0.0
 10
10.17390065
 20
8.6520106956
 30
0.0
 10
10.1716734662
 20
8.6503422781
 30
0.0
 10
10.1688895233
 20
8.6482566866
 30
0.0
 10
10.1655487743
 20
8.6457540081
 30
0.0
 10
10.1622080363
 20
8.6432513155
 30
0.0
 10
10.1594240661
 20
8.6411657591
 30
0.0
 10
10.1571969368
 20
8.6394972713
 30
0.0
 10
10.1558048747
 20
8.6384545628
 30
0.0
 10
10.1546914685
 20
8.6376201753
 30
0.0
 10
10.1538557474
 20
8.6369949891
 30
0.0
 10
10.1531614329
 20
8.6364720777
 30
0.0
 10
10.1526712529
 20
8.6361098133
 30
0.0
 10
10.1523976453
 20
8.635896913
 30
0.0
 10
10.1521741421
 20
8.6357538358
 30
0.0
 10
10.1520205816
 20
8.6355473127
 30
0.0
 10
10.1517914376
 20
8.6352940792
 30
0.0
 10
10.1514018023
 20
8.6348406095
 30
0.0
 10
10.1508392378
 20
8.6341981864
 30
0.0
 10
10.1501667041
 20
8.6334249713
 30
0.0
 10
10.149269104
 20
8.6323948237
 30
0.0
 10
10.148147408
 20
8.6311068632
 30
0.0
 10
10.1463525245
 20
8.6290462808
 30
0.0
 10
10.1441089788
 20
8.6264704996
 30
0.0
 10
10.141416697
 20
8.6233795862
 30
0.0
 10
10.1387244291
 20
8.6202886615
 30
0.0
 10
10.1364808489
 20
8.6177129086
 30
0.0
 10
10.1346860345
 20
8.6156522694
 30
0.0
 10
10.1335641627
 20
8.6143644533
 30
0.0
 10
10.1326669235
 20
8.6133340096
 30
0.0
 10
10.1319932872
 20
8.6125616991
 30
0.0
 10
10.1314341723
 20
8.6119164457
 30
0.0
 10
10.131038379
 20
8.6114680285
 30
0.0
 10
10.1308191017
 20
8.6112066996
 30
0.0
 10
10.1306352335
 20
8.6110250431
 30
0.0
 10
10.1305255612
 20
8.6107885711
 30
0.0
 10
10.1303534512
 20
8.6104923955
 30
0.0
 10
10.1300643167
 20
8.6099651796
 30
0.0
 10
10.1296449633
 20
8.6092166715
 30
0.0
 10
10.1291444377
 20
8.6083164683
 30
0.0
 10
10.1284761276
 20
8.6071168936
 30
0.0
 10
10.1276410628
 20
8.6056171868
 30
0.0
 10
10.1263047786
 20
8.6032177892
 30
0.0
 10
10.1246344858
 20
8.6002184963
 30
0.0
 10
10.1226301056
 20
8.5966193655
 30
0.0
 10
10.1206257406
 20
8.5930202255
 30
0.0
 10
10.1189554101
 20
8.5900209553
 30
0.0
 10
10.1176192011
 20
8.5876215123
 30
0.0
 10
10.1167839452
 20
8.5861219212
 30
0.0
 10
10.1161160273
 20
8.584922109
 30
0.0
 10
10.1156143036
 20
8.5840226313
 30
0.0
 10
10.1151986987
 20
8.5832718533
 30
0.0
 10
10.1149028726
 20
8.5827486895
 30
0.0
 10
10.1147414842
 20
8.5824460214
 30
0.0
 10
10.1145988784
 20
8.5822294922
 30
0.0
 10
10.1145387031
 20
8.581972934
 30
0.0
 10
10.1144297167
 20
8.5816448189
 30
0.0
 10
10.1142523869
 20
8.5810641122
 30
0.0
 10
10.1139920548
 20
8.5802379322
 30
0.0
 10
10.1136826541
 20
8.5792450604
 30
0.0
 10
10.1132690728
 20
8.5779217398
 30
0.0
 10
10.1127524547
 20
8.576267415
 30
0.0
 10
10.1119256653
 20
8.5736205926
 30
0.0
 10
10.1108922479
 20
8.5703120311
 30
0.0
 10
10.1096521151
 20
8.5663417724
 30
0.0
 10
10.1084119986
 20
8.5623715068
 30
0.0
 10
10.1073785403
 20
8.5590629626
 30
0.0
 10
10.1065518325
 20
8.5564161057
 30
0.0
 10
10.1060350071
 20
8.5547618686
 30
0.0
 10
10.1056218513
 20
8.553438368
 30
0.0
 10
10.1053111507
 20
8.5524460464
 30
0.0
 10
10.1050548857
 20
8.5516181449
 30
0.0
 10
10.1048702954
 20
8.5510405112
 30
0.0
 10
10.1047729422
 20
8.5507074724
 30
0.0
 10
10.1046770336
 20
8.5504660385
 30
0.0
 10
10.1046686361
 20
8.5501927048
 30
0.0
 10
10.1046269145
 20
8.5498393868
 30
0.0
 10
10.1045681239
 20
8.5492158962
 30
0.0
 10
10.1044767018
 20
8.5483279057
 30
0.0
 10
10.1043701779
 20
8.5472611569
 30
0.0
 10
10.1042270344
 20
8.5458392304
 30
0.0
 10
10.1040484857
 20
8.5440616836
 30
0.0
 10
10.103762595
 20
8.5412176861
 30
0.0
 10
10.1034053046
 20
8.5376626628
 30
0.0
 10
10.1029765249
 20
8.5333966461
 30
0.0
 10
10.1025477535
 20
8.5291306264
 30
0.0
 10
10.1019760555
 20
8.5234426012
 30
0.0
 10
10.1015472826
 20
8.5191765821
 30
0.0
 10
10.1012614338
 20
8.5163325694
 30
0.0
  0
ENDSEC
  0
SECTION
  2
OBJECTS
  0
DICTIONARY
  5
C
100
AcDbDictionary
280
0
281
1
  3
ACAD_GROUP
350
D
  3
ACAD_MLINESTYLE
350
17
  3
ACAD_LAYOUT
350
1A
  3
ACAD_PLOTSETTINGS
350
19
  3
ACAD_PLOTSTYLENAME
350
E
  3
ACAD_IMAGE_DICT
350
       3A9
  3
ACAD_IMAGE_VARS
350
       3AA
  3
ACAD_TABLESTYLE
350
       3AB
  0
IMAGEDEF_REACTOR
  5
3A8
100
AcDbRasterImageDefReactor
 90
2
330
28B
  0
DICTIONARY
  5
D
102
{ACAD_REACTORS
330
C
102
}
100
AcDbDictionary
280
0
281
1
  0
ACDBDICTIONARYWDFLT
  5
E
102
{ACAD_REACTORS
330
C
102
}
100
AcDbDictionary
281
1
  3
Normal
350
F
100
AcDbDictionaryWithDefault
340
F
  0
DICTIONARY
  5
3A9
330
C
100
AcDbDictionary
281
1
  3
CBGGLJN-HCX_assy_2_img_1
350
       3AE
  0
RASTERVARIABLES
  5
3AA
330
C
100
AcDbRasterVariables
 90
0
 70
0
 71
1
 72
5
  0
DICTIONARY
  5
17
102
{ACAD_REACTORS
330
C
102
}
100
AcDbDictionary
280
0
281
1
  3
Standard
350
18
  0
DICTIONARY
  5
3AB
330
C
100
AcDbDictionary
281
1
  3
Standard
350
       3AF
  3
Standard1
350
       3B0
  0
DICTIONARY
  5
19
102
{ACAD_REACTORS
330
C
102
}
100
AcDbDictionary
281
1
  0
DICTIONARY
  5
1A
102
{ACAD_REACTORS
330
C
102
}
100
AcDbDictionary
281
1
  3
Model
350
3AC
  3
Layout1
350
3AD
  0
ACDBPLACEHOLDER
  5
F
102
{ACAD_REACTORS
330
E
102
}
  0
MLINESTYLE
  5
18
102
{ACAD_REACTORS
330
17
102
}
100
AcDbMlineStyle
  2
STANDARD
 70
0
  3

 62
256
 51
90.0
 52
90.0
 71
2
 49
0.5
 62
256
  6
BYLAYER
 49
-0.5
 62
256
  6
BYLAYER
  0
LAYOUT
  5
3AC
102
{ACAD_REACTORS
330
1A
102
}
100
AcDbPlotSettings
  1

  2
none_device
  4
ANSI_C_(22.00_x_17.00_Inches)
  6

 40
0.0
 41
0.0
 42
0.0
 43
0.0
 44
558.8
 45
431.8
 46
0.0
 47
0.0
 48
0.0
 49
0.0
140
0.0
141
0.0
142
1.0
143
1.0
 70
1024
 72
0
 73
0
 74
0
  7

 75
0
147
1.0
148
0.0
149
0.0
100
AcDbLayout
  1
Model
 70
0
 71
0
 10
0.0
 20
0.0
 11
22.0
 21
17.0
 12
0.0
 22
0.0
 32
0.0
 14
0.0
 24
0.0
 34
0.0
 15
0.0
 25
0.0
 35
0.0
146
0.0
 13
0.0
 23
0.0
 33
0.0
 16
1.0
 26
0.0
 36
0.0
 17
0.0
 27
1.0
 37
0.0
 76
0
330
20C
345
0
346
0
  0
LAYOUT
  5
3AD
102
{ACAD_REACTORS
330
1A
102
}
100
AcDbPlotSettings
  1

  2
none_device
  4
ANSI_C_(22.00_x_17.00_Inches)
  6

 40
0.0
 41
0.0
 42
0.0
 43
0.0
 44
558.8
 45
431.8
 46
0.0
 47
0.0
 48
0.0
 49
0.0
140
0.0
141
0.0
142
1.0
143
1.0
 70
0
 72
0
 73
0
 74
0
  7

 75
0
147
1.0
148
0.0
149
0.0
100
AcDbLayout
  1
Layout1
 70
0
 71
1
 10
0.0
 20
0.0
 11
22.0
 21
17.0
 12
0.0
 22
0.0
 32
0.0
 14
0.0
 24
0.0
 34
0.0
 15
0.0
 25
0.0
 35
0.0
146
0.0
 13
0.0
 23
0.0
 33
0.0
 16
1.0
 26
0.0
 36
0.0
 17
0.0
 27
1.0
 37
0.0
 76
0
330
20D
345
0
346
0
  0
IMAGEDEF
  5
3AE
102
{ACAD_REACTORS
330
3A9
330
3A8
102
}
100
AcDbRasterImageDef
 90
0
  1
CBGGLJN-HCX_assy_2_img_1.png
 10
369.0
 20
92.0
 11
0.0066666667
 21
0.0066666667
280
1
281
0
  0
TABLESTYLE
  5
3AF
102
{ACAD_REACTORS
330
3AB
330
28E
330
28F
102
}
330
3AB
100
AcDbTableStyle
  3
Standard
 70
0
 71
0
 40
0.06
 41
0.06
280
1
281
1
  7
Standard
140
0.18
170
1
 62
0
 63
7
283
0
  7
Standard
140
0.18
170
1
 62
0
 63
7
283
0
  7
Standard
140
0.18
170
1
 62
0
 63
7
283
0
  0
TABLESTYLE
  5
3B0
102
{ACAD_REACTORS
330
3AB
330
28D
102
}
330
3AB
100
AcDbTableStyle
  3
Standard1
 70
1
 71
0
 40
0.06
 41
0.06
280
1
281
1
  7
Standard
140
0.18
170
1
 62
0
 63
7
283
0
  7
Standard
140
0.18
170
1
 62
0
 63
7
283
0
  7
Standard
140
0.18
170
1
 62
0
 63
7
283
0
  0
ENDSEC
  0
EOF
