999
DXF file: CBCGLJNX4F_7.dxf
999
Pro/ENGINEER 2006240 by Parametric Technology Corporation
  0
SECTION
  2
HEADER
  9
$ACADVER
  1
AC1015
  9
$DWGCODEPAGE
  3
ANSI_1252
  9
$EXTMAX
 10
22.0
 20
17.0
 30
0.0
  9
$EXTMIN
 10
0.0
 20
0.0
 30
0.0
  9
$LIMMIN
 10
0.0
 20
0.0
  9
$LIMMAX
 10
22.0
 20
17.0
  9
$VIEWCTR
 10
11.0
 20
8.5
  9
$VIEWSIZE
 40
17.0
  9
$CLAYER
  8
0
  9
$LTSCALE
 40
1.21
  9
$CELTYPE
  6
BYLAYER
  9
$DIMSCALE
 40
1.0
  9
$DIMASZ
 40
0.1875
  9
$DIMEXO
 40
0.1375
  9
$DIMDLI
 40
0.836
  9
$DIMEXE
 40
0.396
  9
$DIMCEN
 40
0.198
  9
$DIMLFAC
 40
1.0
  9
$DIMBLK
  1
_CLOSED
  9
$DIMTXT
 40
0.15625
  9
$DIMTOL
 70
0
  9
$DIMLIM
 70
0
  9
$DIMTFAC
 40
1.0
  9
$PDMODE
 70
3
  9
$PDSIZE
 40
0.3125
  9
$HANDSEED
  5
531
  9
$MEASUREMENT
 70
0
  9
$INSUNITS
 70
1
  0
ENDSEC
  0
SECTION
  2
CLASSES
  0
CLASS
  1
ACDBDICTIONARYWDFLT
  2
AcDbDictionaryWithDefault
  3
AutoCAD 2000
 90
0
280
0
281
0
  0
CLASS
  1
ACDBPLACEHOLDER
  2
AcDbPlaceHolder
  3
AutoCAD 2000
 90
0
280
0
281
0
  0
CLASS
  1
LAYOUT
  2
AcDbLayout
  3
AutoCAD 2000
 90
0
280
0
281
0
  0
ENDSEC
  0
SECTION
  2
TABLES
  0
TABLE
  2
VPORT
  5
8
100
AcDbSymbolTable
 70
2
  0
VPORT
  5
1F4
100
AcDbSymbolTableRecord
100
AcDbViewportTableRecord
  2
*ACTIVE
 70
0
 10
0.0
 20
0.0
 11
1.0
 21
1.0
 12
11.0
 22
8.5
 13
0.0
 23
0.0
 14
1.0
 24
1.0
 15
0.0
 25
0.0
 16
0.0
 26
0.0
 36
1.0
 17
0.0
 27
0.0
 37
0.0
 40
17.0
 41
1.2941176471
 42
50.0
 43
0.0
 44
0.0
 50
0.0
 51
0.0
 71
0
 72
100
 73
1
 74
1
 75
0
 76
0
 77
0
 78
0
  0
ENDTAB
  0
TABLE
  2
LTYPE
  5
5
100
AcDbSymbolTable
 70
6
  0
LTYPE
  5
14
100
AcDbSymbolTableRecord
100
AcDbLinetypeTableRecord
  2
BYBLOCK
 70
0
  3

 72
65
 73
0
 40
0.0
  0
LTYPE
  5
15
100
AcDbSymbolTableRecord
100
AcDbLinetypeTableRecord
  2
BYLAYER
 70
0
  3

 72
65
 73
0
 40
0.0
  0
LTYPE
  5
16
100
AcDbSymbolTableRecord
100
AcDbLinetypeTableRecord
  2
CONTINUOUS
 70
64
  3
Solid line
 72
65
 73
0
 40
0.0
  0
LTYPE
  5
1F5
100
AcDbSymbolTableRecord
100
AcDbLinetypeTableRecord
  2
CENTER
 70
64
  3
____ _ ____ _ ____ _ ____ _ ____ _ ____ _ ____
 72
65
 73
4
 40
0.6
 49
0.375
 74
0
 49
-0.075
 74
0
 49
0.075
 74
0
 49
-0.075
 74
0
  0
LTYPE
  5
1F6
100
AcDbSymbolTableRecord
100
AcDbLinetypeTableRecord
  2
HIDDEN
 70
64
  3
- - - - - - - - - - - - - - - - - - - -
 72
65
 73
2
 40
0.2
 49
0.1
 74
0
 49
-0.1
 74
0
  0
LTYPE
  5
1F7
100
AcDbSymbolTableRecord
100
AcDbLinetypeTableRecord
  2
PHANTOM
 70
64
  3
_____ _ _ _____ _ _ _____ _ _ _____
 72
65
 73
6
 40
0.8
 49
0.45
 74
0
 49
-0.05
 74
0
 49
0.1
 74
0
 49
-0.05
 74
0
 49
0.1
 74
0
 49
-0.05
 74
0
  0
LTYPE
  5
1F8
100
AcDbSymbolTableRecord
100
AcDbLinetypeTableRecord
  2
DOT
 70
64
  3
. . . . . . . . . . . . . . . . . . . .
 72
65
 73
2
 40
0.2
 49
0.1
 74
0
 49
-0.1
 74
0
  0
LTYPE
  5
1F9
100
AcDbSymbolTableRecord
100
AcDbLinetypeTableRecord
  2
DASHED
 70
64
  3
- - - - - - - - - - - - - - - - - - - -
 72
65
 73
2
 40
0.2
 49
0.1
 74
0
 49
-0.1
 74
0
  0
ENDTAB
  0
TABLE
  2
LAYER
  5
2
100
AcDbSymbolTable
 70
36
  0
LAYER
  5
10
100
AcDbSymbolTableRecord
100
AcDbLayerTableRecord
  2
0
 70
0
 62
7
  6
CONTINUOUS
370
-3
390
F
  0
LAYER
  5
1FA
100
AcDbSymbolTableRecord
100
AcDbLayerTableRecord
  2
DEFAULT_1
 70
0
 62
7
  6
CENTER
370
-3
390
F
  0
LAYER
  5
1FB
100
AcDbSymbolTableRecord
100
AcDbLayerTableRecord
  2
DEFAULT_2
 70
0
 62
8
  6
HIDDEN
370
-3
390
F
  0
LAYER
  5
1FC
100
AcDbSymbolTableRecord
100
AcDbLayerTableRecord
  2
DEFAULT_3
 70
0
 62
7
  6
PHANTOM
370
-3
390
F
  0
LAYER
  5
1FD
100
AcDbSymbolTableRecord
100
AcDbLayerTableRecord
  2
01_ALL_DTM_PLN
 70
0
 62
7
  6
CONTINUOUS
370
-3
390
F
  0
LAYER
  5
1FE
100
AcDbSymbolTableRecord
100
AcDbLayerTableRecord
  2
01__ASM_ALL_DTM_PLN
 70
0
 62
7
  6
CONTINUOUS
370
-3
390
F
  0
LAYER
  5
1FF
100
AcDbSymbolTableRecord
100
AcDbLayerTableRecord
  2
01__ASM_DEF_DTM_PLN
 70
0
 62
7
  6
CONTINUOUS
370
-3
390
F
  0
LAYER
  5
200
100
AcDbSymbolTableRecord
100
AcDbLayerTableRecord
  2
01___PRT_ALL_DTM_PLN
 70
0
 62
7
  6
CONTINUOUS
370
-3
390
F
  0
LAYER
  5
201
100
AcDbSymbolTableRecord
100
AcDbLayerTableRecord
  2
01___PRT_DEF_DTM_PLN
 70
0
 62
7
  6
CONTINUOUS
370
-3
390
F
  0
LAYER
  5
202
100
AcDbSymbolTableRecord
100
AcDbLayerTableRecord
  2
02_ALL_AXES
 70
0
 62
7
  6
CONTINUOUS
370
-3
390
F
  0
LAYER
  5
203
100
AcDbSymbolTableRecord
100
AcDbLayerTableRecord
  2
02__ASM_ALL_AXES
 70
0
 62
7
  6
CONTINUOUS
370
-3
390
F
  0
LAYER
  5
204
100
AcDbSymbolTableRecord
100
AcDbLayerTableRecord
  2
02___PRT_ALL_AXES
 70
0
 62
7
  6
CONTINUOUS
370
-3
390
F
  0
LAYER
  5
205
100
AcDbSymbolTableRecord
100
AcDbLayerTableRecord
  2
03_ALL_CURVES
 70
0
 62
7
  6
CONTINUOUS
370
-3
390
F
  0
LAYER
  5
206
100
AcDbSymbolTableRecord
100
AcDbLayerTableRecord
  2
03__ASM_ALL_CURVES
 70
0
 62
7
  6
CONTINUOUS
370
-3
390
F
  0
LAYER
  5
207
100
AcDbSymbolTableRecord
100
AcDbLayerTableRecord
  2
03___PRT_ALL_CURVES
 70
0
 62
7
  6
CONTINUOUS
370
-3
390
F
  0
LAYER
  5
208
100
AcDbSymbolTableRecord
100
AcDbLayerTableRecord
  2
04_ALL_DTM_PNT
 70
0
 62
7
  6
CONTINUOUS
370
-3
390
F
  0
LAYER
  5
209
100
AcDbSymbolTableRecord
100
AcDbLayerTableRecord
  2
04__ASM_ALL_DTM_PNT
 70
0
 62
7
  6
CONTINUOUS
370
-3
390
F
  0
LAYER
  5
20A
100
AcDbSymbolTableRecord
100
AcDbLayerTableRecord
  2
04___PRT_ALL_DTM_PNT
 70
0
 62
7
  6
CONTINUOUS
370
-3
390
F
  0
LAYER
  5
20B
100
AcDbSymbolTableRecord
100
AcDbLayerTableRecord
  2
05_ALL_DTM_CSYS
 70
0
 62
7
  6
CONTINUOUS
370
-3
390
F
  0
LAYER
  5
20C
100
AcDbSymbolTableRecord
100
AcDbLayerTableRecord
  2
05__ASM_ALL_DTM_CSYS
 70
0
 62
7
  6
CONTINUOUS
370
-3
390
F
  0
LAYER
  5
20D
100
AcDbSymbolTableRecord
100
AcDbLayerTableRecord
  2
05__ASM_DEF_DTM_CSYS
 70
0
 62
7
  6
CONTINUOUS
370
-3
390
F
  0
LAYER
  5
20E
100
AcDbSymbolTableRecord
100
AcDbLayerTableRecord
  2
05___PRT_ALL_DTM_CSYS
 70
0
 62
7
  6
CONTINUOUS
370
-3
390
F
  0
LAYER
  5
20F
100
AcDbSymbolTableRecord
100
AcDbLayerTableRecord
  2
05___PRT_DEF_DTM_CSYS
 70
0
 62
7
  6
CONTINUOUS
370
-3
390
F
  0
LAYER
  5
210
100
AcDbSymbolTableRecord
100
AcDbLayerTableRecord
  2
06_ALL_SURFS
 70
0
 62
7
  6
CONTINUOUS
370
-3
390
F
  0
LAYER
  5
211
100
AcDbSymbolTableRecord
100
AcDbLayerTableRecord
  2
06__ASM_ALL_SURFS
 70
0
 62
7
  6
CONTINUOUS
370
-3
390
F
  0
LAYER
  5
212
100
AcDbSymbolTableRecord
100
AcDbLayerTableRecord
  2
06___PRT_ALL_SURFS
 70
0
 62
7
  6
CONTINUOUS
370
-3
390
F
  0
LAYER
  5
213
100
AcDbSymbolTableRecord
100
AcDbLayerTableRecord
  2
07__ASM_ALL_SKELETONS
 70
0
 62
7
  6
CONTINUOUS
370
-3
390
F
  0
LAYER
  5
214
100
AcDbSymbolTableRecord
100
AcDbLayerTableRecord
  2
CBCGLJNX4F_10
 70
0
 62
7
  6
CONTINUOUS
370
-3
390
F
  0
LAYER
  5
215
100
AcDbSymbolTableRecord
100
AcDbLayerTableRecord
  2
CBCGLJNX4F_5
 70
0
 62
7
  6
CONTINUOUS
370
-3
390
F
  0
LAYER
  5
216
100
AcDbSymbolTableRecord
100
AcDbLayerTableRecord
  2
CBCGLJNX4F_6
 70
0
 62
7
  6
CONTINUOUS
370
-3
390
F
  0
LAYER
  5
217
100
AcDbSymbolTableRecord
100
AcDbLayerTableRecord
  2
CBCGLJNX4F_7
 70
0
 62
7
  6
CONTINUOUS
370
-3
390
F
  0
LAYER
  5
218
100
AcDbSymbolTableRecord
100
AcDbLayerTableRecord
  2
CBCGLJNX4F_8
 70
0
 62
7
  6
CONTINUOUS
370
-3
390
F
  0
LAYER
  5
219
100
AcDbSymbolTableRecord
100
AcDbLayerTableRecord
  2
COPY_GEO_FET
 70
0
 62
7
  6
CONTINUOUS
370
-3
390
F
  0
LAYER
  5
21A
100
AcDbSymbolTableRecord
100
AcDbLayerTableRecord
  2
COSMETIC
 70
0
 62
7
  6
CONTINUOUS
370
-3
390
F
  0
LAYER
  5
21B
100
AcDbSymbolTableRecord
100
AcDbLayerTableRecord
  2
CUT_REF_SURF
 70
0
 62
7
  6
CONTINUOUS
370
-3
390
F
  0
LAYER
  5
21C
100
AcDbSymbolTableRecord
100
AcDbLayerTableRecord
  2
DATESTAMP
 70
0
 62
7
  6
CONTINUOUS
370
-3
390
F
  0
LAYER
  5
21D
100
AcDbSymbolTableRecord
100
AcDbLayerTableRecord
  2
DATUM
 70
0
 62
7
  6
CONTINUOUS
370
-3
390
F
  0
LAYER
  5
21E
100
AcDbSymbolTableRecord
100
AcDbLayerTableRecord
  2
DATUM_B
 70
0
 62
7
  6
CONTINUOUS
370
-3
390
F
  0
LAYER
  5
21F
100
AcDbSymbolTableRecord
100
AcDbLayerTableRecord
  2
DATUM_PLANES
 70
0
 62
7
  6
CONTINUOUS
370
-3
390
F
  0
LAYER
  5
220
100
AcDbSymbolTableRecord
100
AcDbLayerTableRecord
  2
DIM
 70
0
 62
7
  6
CONTINUOUS
370
-3
390
F
  0
LAYER
  5
221
100
AcDbSymbolTableRecord
100
AcDbLayerTableRecord
  2
DIMENSIONS
 70
0
 62
7
  6
CONTINUOUS
370
-3
390
F
  0
LAYER
  5
222
100
AcDbSymbolTableRecord
100
AcDbLayerTableRecord
  2
DIM_1
 70
0
 62
7
  6
CONTINUOUS
370
-3
390
F
  0
LAYER
  5
223
100
AcDbSymbolTableRecord
100
AcDbLayerTableRecord
  2
DIM_2
 70
0
 62
7
  6
CONTINUOUS
370
-3
390
F
  0
LAYER
  5
224
100
AcDbSymbolTableRecord
100
AcDbLayerTableRecord
  2
DIM_3
 70
0
 62
7
  6
CONTINUOUS
370
-3
390
F
  0
LAYER
  5
225
100
AcDbSymbolTableRecord
100
AcDbLayerTableRecord
  2
DTM
 70
0
 62
7
  6
CONTINUOUS
370
-3
390
F
  0
LAYER
  5
226
100
AcDbSymbolTableRecord
100
AcDbLayerTableRecord
  2
EXT_COPY_GEO
 70
0
 62
7
  6
CONTINUOUS
370
-3
390
F
  0
LAYER
  5
227
100
AcDbSymbolTableRecord
100
AcDbLayerTableRecord
  2
LS
 70
0
 62
7
  6
CONTINUOUS
370
-3
390
F
  0
LAYER
  5
228
100
AcDbSymbolTableRecord
100
AcDbLayerTableRecord
  2
ORIGIN
 70
0
 62
7
  6
CONTINUOUS
370
-3
390
F
  0
LAYER
  5
229
100
AcDbSymbolTableRecord
100
AcDbLayerTableRecord
  2
PARAMETERDIMENSIONS
 70
0
 62
7
  6
CONTINUOUS
370
-3
390
F
  0
LAYER
  5
22A
100
AcDbSymbolTableRecord
100
AcDbLayerTableRecord
  2
PARTNUMBER
 70
0
 62
7
  6
CONTINUOUS
370
-3
390
F
  0
LAYER
  5
22B
100
AcDbSymbolTableRecord
100
AcDbLayerTableRecord
  2
PORT_AREAS
 70
0
 62
7
  6
CONTINUOUS
370
-3
390
F
  0
LAYER
  5
22C
100
AcDbSymbolTableRecord
100
AcDbLayerTableRecord
  2
TEXT
 70
0
 62
7
  6
CONTINUOUS
370
-3
390
F
  0
LAYER
  5
22D
100
AcDbSymbolTableRecord
100
AcDbLayerTableRecord
  2
THREAD
 70
0
 62
7
  6
CONTINUOUS
370
-3
390
F
  0
LAYER
  5
22E
100
AcDbSymbolTableRecord
100
AcDbLayerTableRecord
  2
THREADS
 70
0
 62
7
  6
CONTINUOUS
370
-3
390
F
  0
ENDTAB
  0
TABLE
  2
STYLE
  5
3
100
AcDbSymbolTable
 70
1
  0
STYLE
  5
11
100
AcDbSymbolTableRecord
100
AcDbTextStyleTableRecord
  2
STANDARD
 70
0
 40
0.0
 41
0.8
 50
0.0
 71
0
 42
0.2
  3
txt
  4

  0
ENDTAB
  0
TABLE
  2
VIEW
  5
6
100
AcDbSymbolTable
 70
0
  0
ENDTAB
  0
TABLE
  2
UCS
  5
7
100
AcDbSymbolTable
 70
0
  0
ENDTAB
  0
TABLE
  2
APPID
  5
9
100
AcDbSymbolTable
 70
1
  0
APPID
  5
22F
100
AcDbSymbolTableRecord
100
AcDbRegAppTableRecord
  2
ACAD
 70
0
  0
ENDTAB
  0
TABLE
  2
BLOCK_RECORD
  5
1
100
AcDbSymbolTable
 70
0
  0
BLOCK_RECORD
  5
1F
100
AcDbSymbolTableRecord
100
AcDbBlockTableRecord
  2
*MODEL_SPACE
  0
BLOCK_RECORD
  5
1B
100
AcDbSymbolTableRecord
100
AcDbBlockTableRecord
  2
*PAPER_SPACE
  0
ENDTAB
  0
TABLE
  2
DIMSTYLE
  5
A
100
AcDbSymbolTable
 70
1
100
AcDbDimStyleTable
 71
0
  0
DIMSTYLE
105
230
100
AcDbSymbolTableRecord
100
AcDbDimStyleTableRecord
  2
STANDARD
 70
0
  3

  4

 40
1.0
 41
0.1875
 42
0.0625
 43
0.38
 44
0.18
 45
0.0
 46
0.0
 47
0.01
 48
0.01
140
0.15625
141
0.09
142
0.0
143
25.4
144
1.0
145
0.0
146
1.0
147
0.09
 71
0.0
 72
0.0
 73
1
 74
1
 75
0
 76
0
 77
0
 78
4
170
0
171
2
172
0
173
0
174
0
175
0
176
0
177
0
178
0
270
2
271
2
272
2
273
2
274
2
275
0
280
0
281
0
282
0
283
1
284
4
285
0
286
0
287
3
288
0
340
11
  0
ENDTAB
  0
ENDSEC
  0
SECTION
  2
BLOCKS
  0
BLOCK
  5
20
100
AcDbEntity
  8
0
100
AcDbBlockBegin
  2
*MODEL_SPACE
 70
0
 10
0.0
 20
0.0
 30
0.0
  3
*MODEL_SPACE
  1

  0
ENDBLK
  5
21
100
AcDbEntity
  8
0
100
AcDbBlockEnd
  0
BLOCK
  5
1C
100
AcDbEntity
  8
0
100
AcDbBlockBegin
  2
*PAPER_SPACE
 70
0
 10
0.0
 20
0.0
 30
0.0
  3
*PAPER_SPACE
  1

  0
ENDBLK
  5
1D
100
AcDbEntity
  8
0
100
AcDbBlockEnd
  0
ENDSEC
  0
SECTION
  2
ENTITIES
  0
LINE
  5
231
100
AcDbEntity
  8
03__ASM_ALL_CURVES
100
AcDbLine
 62
4
  6
CONTINUOUS
 10
8.7613820841
 20
11.9084518907
 11
8.7713820841
 21
11.9151185558
  0
LINE
  5
232
100
AcDbEntity
  8
03__ASM_ALL_CURVES
100
AcDbLine
 62
4
  6
CONTINUOUS
 10
8.7913820841
 20
11.8884518907
 11
8.7813820841
 21
11.8817852208
  0
LINE
  5
233
100
AcDbEntity
  8
03__ASM_ALL_CURVES
100
AcDbLine
 62
4
  6
CONTINUOUS
 10
8.7913820841
 20
11.8417852226
 11
8.7813820841
 21
11.8351185558
  0
LINE
  5
234
100
AcDbEntity
  8
03__ASM_ALL_CURVES
100
AcDbLine
 62
4
  6
CONTINUOUS
 10
9.1913820841
 20
11.8751185558
 11
9.1763820841
 21
11.8684518883
  0
LINE
  5
235
100
AcDbEntity
  8
03__ASM_ALL_CURVES
100
AcDbLine
 62
4
  6
CONTINUOUS
 10
10.6857154166
 20
5.7941185558
 11
10.6590487492
 21
5.7941185558
  0
LINE
  5
236
100
AcDbEntity
  8
03__ASM_ALL_CURVES
100
AcDbLine
 62
4
  6
CONTINUOUS
 10
9.1663820841
 20
11.9084518907
 11
9.1763820841
 21
11.9151185558
  0
LINE
  5
237
100
AcDbEntity
  8
03__ASM_ALL_CURVES
100
AcDbLine
 62
4
  6
CONTINUOUS
 10
9.2413820841
 20
11.9084518907
 11
9.2513820841
 21
11.9151185558
  0
LINE
  5
238
100
AcDbEntity
  8
03__ASM_ALL_CURVES
100
AcDbLine
 62
4
  6
CONTINUOUS
 10
9.1863820841
 20
11.8417852226
 11
9.1763820841
 21
11.8351185558
  0
LINE
  5
239
100
AcDbEntity
  8
03__ASM_ALL_CURVES
100
AcDbLine
 62
4
  6
CONTINUOUS
 10
9.2713820841
 20
11.8884518907
 11
9.2613820841
 21
11.8817852208
  0
LINE
  5
23A
100
AcDbEntity
  8
03__ASM_ALL_CURVES
100
AcDbLine
 62
4
  6
CONTINUOUS
 10
9.2713820841
 20
11.8417852226
 11
9.2613820841
 21
11.8351185558
  0
LINE
  5
23B
100
AcDbEntity
  8
03__ASM_ALL_CURVES
100
AcDbLine
 62
4
  6
CONTINUOUS
 10
9.4063820841
 20
11.9084518907
 11
9.4163820841
 21
11.9151185558
  0
LINE
  5
23C
100
AcDbEntity
  8
03__ASM_ALL_CURVES
100
AcDbLine
 62
4
  6
CONTINUOUS
 10
9.4813820841
 20
11.9084518907
 11
9.4913820841
 21
11.9151185558
  0
LINE
  5
23D
100
AcDbEntity
  8
03__ASM_ALL_CURVES
100
AcDbLine
 62
4
  6
CONTINUOUS
 10
9.4313820841
 20
11.8751185558
 11
9.4163820841
 21
11.8684518883
  0
LINE
  5
23E
100
AcDbEntity
  8
03__ASM_ALL_CURVES
100
AcDbLine
 62
4
  6
CONTINUOUS
 10
11.2730487516
 20
6.2041185558
 11
11.2930487504
 21
6.2091185558
  0
LINE
  5
23F
100
AcDbEntity
  8
03__ASM_ALL_CURVES
100
AcDbLine
 62
4
  6
CONTINUOUS
 10
11.2263820841
 20
5.8141185558
 11
11.3063820841
 21
5.8141185558
  0
LINE
  5
240
100
AcDbEntity
  8
03__ASM_ALL_CURVES
100
AcDbLine
 62
4
  6
CONTINUOUS
 10
10.6590487492
 20
5.8341185558
 11
10.6857154166
 21
5.8341185558
  0
LINE
  5
241
100
AcDbEntity
  8
03__ASM_ALL_CURVES
100
AcDbLine
 62
4
  6
CONTINUOUS
 10
11.3063820841
 20
5.9066185558
 11
11.2963820838
 21
5.9066185558
  0
LINE
  5
242
100
AcDbEntity
  8
03__ASM_ALL_CURVES
100
AcDbLine
 62
4
  6
CONTINUOUS
 10
10.7123820841
 20
5.9066185558
 11
10.7023820838
 21
5.9066185558
  0
LINE
  5
243
100
AcDbEntity
  8
03__ASM_ALL_CURVES
100
AcDbLine
 62
4
  6
CONTINUOUS
 10
10.6857154166
 20
5.9541185558
 11
10.6590487492
 21
5.9541185558
  0
LINE
  5
244
100
AcDbEntity
  8
03__ASM_ALL_CURVES
100
AcDbLine
 62
4
  6
CONTINUOUS
 10
11.239715419
 20
5.9941185558
 11
11.2530487492
 21
5.9941185558
  0
LINE
  5
245
100
AcDbEntity
  8
03__ASM_ALL_CURVES
100
AcDbLine
 62
4
  6
CONTINUOUS
 10
8.7963820841
 20
11.8951185558
 11
8.7913820841
 21
11.8884518907
  0
LINE
  5
246
100
AcDbEntity
  8
03__ASM_ALL_CURVES
100
AcDbLine
 62
4
  6
CONTINUOUS
 10
8.8013820841
 20
11.8551185558
 11
8.7913820841
 21
11.8417852226
  0
LINE
  5
247
100
AcDbEntity
  8
03__ASM_ALL_CURVES
100
AcDbLine
 62
4
  6
CONTINUOUS
 10
9.4263820841
 20
11.8417852226
 11
9.4163820841
 21
11.8351185558
  0
LINE
  5
248
100
AcDbEntity
  8
03__ASM_ALL_CURVES
100
AcDbLine
 62
4
  6
CONTINUOUS
 10
9.4813820841
 20
11.8751185558
 11
9.4913820841
 21
11.8817852208
  0
LINE
  5
249
100
AcDbEntity
  8
03__ASM_ALL_CURVES
100
AcDbLine
 62
4
  6
CONTINUOUS
 10
9.5113820841
 20
11.8884518907
 11
9.5013820841
 21
11.8817852208
  0
LINE
  5
24A
100
AcDbEntity
  8
03__ASM_ALL_CURVES
100
AcDbLine
 62
4
  6
CONTINUOUS
 10
9.5113820841
 20
11.8417852226
 11
9.5013820841
 21
11.8351185558
  0
LINE
  5
24B
100
AcDbEntity
  8
03__ASM_ALL_CURVES
100
AcDbLine
 62
4
  6
CONTINUOUS
 10
10.6790487516
 20
6.2041185558
 11
10.6990487504
 21
6.2091185558
  0
LINE
  5
24C
100
AcDbEntity
  8
03__ASM_ALL_CURVES
100
AcDbLine
 62
4
  6
CONTINUOUS
 10
10.665715419
 20
6.2041185558
 11
10.6790487516
 21
6.2041185558
  0
LINE
  5
24D
100
AcDbEntity
  8
03__ASM_ALL_CURVES
100
AcDbLine
 62
4
  6
CONTINUOUS
 10
11.259715419
 20
6.2041185558
 11
11.2730487516
 21
6.2041185558
  0
LINE
  5
24E
100
AcDbEntity
  8
03__ASM_ALL_CURVES
100
AcDbLine
 62
4
  6
CONTINUOUS
 10
10.6323820841
 20
6.0441185558
 11
10.665715419
 21
6.0391185558
  0
LINE
  5
24F
100
AcDbEntity
  8
03__ASM_ALL_CURVES
100
AcDbLine
 62
4
  6
CONTINUOUS
 10
11.2263820841
 20
6.0441185558
 11
11.259715419
 21
6.0391185558
  0
LINE
  5
250
100
AcDbEntity
  8
03__ASM_ALL_CURVES
100
AcDbLine
 62
4
  6
CONTINUOUS
 10
10.6590487492
 20
5.7941185558
 11
10.645715419
 21
5.7991185558
  0
LINE
  5
251
100
AcDbEntity
  8
03__ASM_ALL_CURVES
100
AcDbLine
 62
4
  6
CONTINUOUS
 10
10.6857154166
 20
5.8341185558
 11
10.6990487504
 21
5.8291185558
  0
LINE
  5
252
100
AcDbEntity
  8
03__ASM_ALL_CURVES
100
AcDbLine
 62
4
  6
CONTINUOUS
 10
9.1013820841
 20
11.9151185558
 11
9.0913820841
 21
11.9017852208
  0
LINE
  5
253
100
AcDbEntity
  8
03__ASM_ALL_CURVES
100
AcDbLine
 62
4
  6
CONTINUOUS
 10
9.1613820841
 20
11.9017852208
 11
9.1663820841
 21
11.9084518907
  0
LINE
  5
254
100
AcDbEntity
  8
03__ASM_ALL_CURVES
100
AcDbLine
 62
4
  6
CONTINUOUS
 10
9.1913820841
 20
11.8484518895
 11
9.1863820841
 21
11.8417852226
  0
LINE
  5
255
100
AcDbEntity
  8
03__ASM_ALL_CURVES
100
AcDbLine
 62
4
  6
CONTINUOUS
 10
9.2763820841
 20
11.8951185558
 11
9.2713820841
 21
11.8884518907
  0
LINE
  5
256
100
AcDbEntity
  8
03__ASM_ALL_CURVES
100
AcDbLine
 62
4
  6
CONTINUOUS
 10
9.2813820841
 20
11.8551185558
 11
9.2713820841
 21
11.8417852226
  0
LINE
  5
257
100
AcDbEntity
  8
03__ASM_ALL_CURVES
100
AcDbLine
 62
4
  6
CONTINUOUS
 10
11.239715419
 20
6.6991185558
 11
11.259715419
 21
6.7041185558
  0
LINE
  5
258
100
AcDbEntity
  8
03__ASM_ALL_CURVES
100
AcDbLine
 62
4
  6
CONTINUOUS
 10
10.6323820841
 20
6.2941185558
 11
10.7123820841
 21
6.2941185558
  0
LINE
  5
259
100
AcDbEntity
  8
03__ASM_ALL_CURVES
100
AcDbLine
 62
4
  6
CONTINUOUS
 10
11.239715419
 20
6.3141185558
 11
11.2463820841
 21
6.3141185558
  0
LINE
  5
25A
100
AcDbEntity
  8
03__ASM_ALL_CURVES
100
AcDbLine
 62
4
  6
CONTINUOUS
 10
11.2797154166
 20
6.3191185558
 11
11.2863820841
 21
6.3191185558
  0
LINE
  5
25B
100
AcDbEntity
  8
03__ASM_ALL_CURVES
100
AcDbLine
 62
4
  6
CONTINUOUS
 10
10.6857154166
 20
6.3541185558
 11
10.6590487492
 21
6.3541185558
  0
LINE
  5
25C
100
AcDbEntity
  8
03__ASM_ALL_CURVES
100
AcDbLine
 62
4
  6
CONTINUOUS
 10
11.2263820841
 20
6.3741185558
 11
11.3063820841
 21
6.3741185558
  0
LINE
  5
25D
100
AcDbEntity
  8
03__ASM_ALL_CURVES
100
AcDbLine
 62
4
  6
CONTINUOUS
 10
11.3063820841
 20
6.4666185558
 11
11.2963820838
 21
6.4666185558
  0
LINE
  5
25E
100
AcDbEntity
  8
03__ASM_ALL_CURVES
100
AcDbLine
 62
4
  6
CONTINUOUS
 10
10.7123820841
 20
6.4666185558
 11
10.7023820838
 21
6.4666185558
  0
LINE
  5
25F
100
AcDbEntity
  8
03__ASM_ALL_CURVES
100
AcDbLine
 62
4
  6
CONTINUOUS
 10
11.2863820841
 20
5.9591185558
 11
11.3063820841
 21
5.9541185558
  0
LINE
  5
260
100
AcDbEntity
  8
03__ASM_ALL_CURVES
100
AcDbLine
 62
4
  6
CONTINUOUS
 10
10.645715419
 20
6.2091185558
 11
10.665715419
 21
6.2041185558
  0
LINE
  5
261
100
AcDbEntity
  8
03__ASM_ALL_CURVES
100
AcDbLine
 62
4
  6
CONTINUOUS
 10
10.6590487492
 20
5.9541185558
 11
10.645715419
 21
5.9591185558
  0
LINE
  5
262
100
AcDbEntity
  8
03__ASM_ALL_CURVES
100
AcDbLine
 62
4
  6
CONTINUOUS
 10
10.6857154166
 20
5.9541185558
 11
10.6723820841
 21
5.9591185558
  0
LINE
  5
263
100
AcDbEntity
  8
03__ASM_ALL_CURVES
100
AcDbLine
 62
4
  6
CONTINUOUS
 10
10.6857154166
 20
5.9941185558
 11
10.6990487504
 21
5.9891185558
  0
LINE
  5
264
100
AcDbEntity
  8
03__ASM_ALL_CURVES
100
AcDbLine
 62
4
  6
CONTINUOUS
 10
10.6857154166
 20
6.0791185558
 11
10.6990487504
 21
6.0741185558
  0
LINE
  5
265
100
AcDbEntity
  8
03__ASM_ALL_CURVES
100
AcDbLine
 62
4
  6
CONTINUOUS
 10
8.7026369591
 20
6.8456855558
 11
8.6905287091
 21
6.8537577227
  0
LINE
  5
266
100
AcDbEntity
  8
03__ASM_ALL_CURVES
100
AcDbLine
 62
4
  6
CONTINUOUS
 10
8.6178792091
 20
6.9425515558
 11
8.6299874591
 21
6.934479391
  0
LINE
  5
267
100
AcDbEntity
  8
03__ASM_ALL_CURVES
100
AcDbLine
 62
4
  6
CONTINUOUS
 10
8.7026369591
 20
6.9021907205
 11
8.6905287091
 21
6.910262891
  0
LINE
  5
268
100
AcDbEntity
  8
03__ASM_ALL_CURVES
100
AcDbLine
 62
4
  6
CONTINUOUS
 10
8.7147452091
 20
6.9021907205
 11
8.7268534591
 21
6.8941185558
  0
LINE
  5
269
100
AcDbEntity
  8
03__ASM_ALL_CURVES
100
AcDbLine
 62
4
  6
CONTINUOUS
 10
8.5300943966
 20
6.8577938061
 11
8.5391755841
 21
6.8456855558
  0
LINE
  5
26A
100
AcDbEntity
  8
03__ASM_ALL_CURVES
100
AcDbLine
 62
4
  6
CONTINUOUS
 10
9.4013820841
 20
11.9017852208
 11
9.4063820841
 21
11.9084518907
  0
LINE
  5
26B
100
AcDbEntity
  8
03__ASM_ALL_CURVES
100
AcDbLine
 62
4
  6
CONTINUOUS
 10
9.4313820841
 20
11.8484518895
 11
9.4263820841
 21
11.8417852226
  0
LINE
  5
26C
100
AcDbEntity
  8
03__ASM_ALL_CURVES
100
AcDbLine
 62
4
  6
CONTINUOUS
 10
9.4763820841
 20
11.9017852208
 11
9.4813820841
 21
11.9084518907
  0
LINE
  5
26D
100
AcDbEntity
  8
03__ASM_ALL_CURVES
100
AcDbLine
 62
4
  6
CONTINUOUS
 10
9.4713820841
 20
11.8617852232
 11
9.4813820841
 21
11.8751185558
  0
LINE
  5
26E
100
AcDbEntity
  8
03__ASM_ALL_CURVES
100
AcDbLine
 62
4
  6
CONTINUOUS
 10
9.5163820841
 20
11.8951185558
 11
9.5113820841
 21
11.8884518907
  0
LINE
  5
26F
100
AcDbEntity
  8
03__ASM_ALL_CURVES
100
AcDbLine
 62
4
  6
CONTINUOUS
 10
9.5213820841
 20
11.8551185558
 11
9.5113820841
 21
11.8417852226
  0
LINE
  5
270
100
AcDbEntity
  8
03__ASM_ALL_CURVES
100
AcDbLine
 62
4
  6
CONTINUOUS
 10
9.5813820841
 20
11.8484518895
 11
9.5713820841
 21
11.8351185558
  0
LINE
  5
271
100
AcDbEntity
  8
03__ASM_ALL_CURVES
100
AcDbLine
 62
4
  6
CONTINUOUS
 10
10.645715419
 20
6.6991185558
 11
10.665715419
 21
6.7041185558
  0
LINE
  5
272
100
AcDbEntity
  8
03__ASM_ALL_CURVES
100
AcDbLine
 62
4
  6
CONTINUOUS
 10
10.6857154166
 20
6.5941185558
 11
10.6590487492
 21
6.5941185558
  0
LINE
  5
273
100
AcDbEntity
  8
03__ASM_ALL_CURVES
100
AcDbLine
 62
4
  6
CONTINUOUS
 10
10.6590487492
 20
6.6341185558
 11
10.6857154166
 21
6.6341185558
  0
LINE
  5
274
100
AcDbEntity
  8
03__ASM_ALL_CURVES
100
AcDbLine
 62
4
  6
CONTINUOUS
 10
10.665715419
 20
6.7041185558
 11
10.6790487516
 21
6.7041185558
  0
LINE
  5
275
100
AcDbEntity
  8
03__ASM_ALL_CURVES
100
AcDbLine
 62
4
  6
CONTINUOUS
 10
11.259715419
 20
6.7041185558
 11
11.2730487516
 21
6.7041185558
  0
LINE
  5
276
100
AcDbEntity
  8
03__ASM_ALL_CURVES
100
AcDbLine
 62
4
  6
CONTINUOUS
 10
10.6323820841
 20
6.5241185558
 11
10.665715419
 21
6.5191185558
  0
LINE
  5
277
100
AcDbEntity
  8
03__ASM_ALL_CURVES
100
AcDbLine
 62
4
  6
CONTINUOUS
 10
11.3063820841
 20
6.5341185558
 11
11.2730487516
 21
6.5391185558
  0
LINE
  5
278
100
AcDbEntity
  8
03__ASM_ALL_CURVES
100
AcDbLine
 62
4
  6
CONTINUOUS
 10
11.239715419
 20
6.2091185558
 11
11.259715419
 21
6.2041185558
  0
LINE
  5
279
100
AcDbEntity
  8
03__ASM_ALL_CURVES
100
AcDbLine
 62
4
  6
CONTINUOUS
 10
11.2797154166
 20
6.0791185558
 11
11.2930487504
 21
6.0741185558
  0
LINE
  5
27A
100
AcDbEntity
  8
03__ASM_ALL_CURVES
100
AcDbLine
 62
4
  6
CONTINUOUS
 10
10.6590487492
 20
6.3541185558
 11
10.645715419
 21
6.3591185558
  0
LINE
  5
27B
100
AcDbEntity
  8
03__ASM_ALL_CURVES
100
AcDbLine
 62
4
  6
CONTINUOUS
 10
10.6857154166
 20
6.3541185558
 11
10.6723820841
 21
6.3591185558
  0
LINE
  5
27C
100
AcDbEntity
  8
03__ASM_ALL_CURVES
100
AcDbLine
 62
4
  6
CONTINUOUS
 10
8.7147452091
 20
6.9425515558
 11
8.7268534591
 21
6.934479391
  0
LINE
  5
27D
100
AcDbEntity
  8
03__ASM_ALL_CURVES
100
AcDbLine
 62
4
  6
CONTINUOUS
 10
8.9932349591
 20
6.8456855558
 11
8.9811267091
 21
6.8537577227
  0
LINE
  5
27E
100
AcDbEntity
  8
03__ASM_ALL_CURVES
100
AcDbLine
 62
4
  6
CONTINUOUS
 10
9.0053432091
 20
6.9021907205
 11
9.0174514591
 21
6.8941185558
  0
LINE
  5
27F
100
AcDbEntity
  8
03__ASM_ALL_CURVES
100
AcDbLine
 62
4
  6
CONTINUOUS
 10
9.0053432091
 20
6.9425515558
 11
9.0174514591
 21
6.934479391
  0
LINE
  5
280
100
AcDbEntity
  8
03__ASM_ALL_CURVES
100
AcDbLine
 62
4
  6
CONTINUOUS
 10
8.6299874591
 20
6.934479391
 11
8.6360415841
 21
6.9264072205
  0
LINE
  5
281
100
AcDbEntity
  8
03__ASM_ALL_CURVES
100
AcDbLine
 62
4
  6
CONTINUOUS
 10
8.6905287091
 20
6.8537577227
 11
8.6784204591
 21
6.8699020558
  0
LINE
  5
282
100
AcDbEntity
  8
03__ASM_ALL_CURVES
100
AcDbLine
 62
4
  6
CONTINUOUS
 10
8.6905287091
 20
6.910262891
 11
8.6844745841
 21
6.9183350558
  0
LINE
  5
283
100
AcDbEntity
  8
03__ASM_ALL_CURVES
100
AcDbLine
 62
4
  6
CONTINUOUS
 10
8.7268534591
 20
6.8941185558
 11
8.7389617091
 21
6.8779742234
  0
LINE
  5
284
100
AcDbEntity
  8
03__ASM_ALL_CURVES
100
AcDbLine
 62
4
  6
CONTINUOUS
 10
8.7268534591
 20
6.934479391
 11
8.7329075841
 21
6.9264072205
  0
LINE
  5
285
100
AcDbEntity
  8
03__ASM_ALL_CURVES
100
AcDbLine
 62
4
  6
CONTINUOUS
 10
8.9463820841
 20
11.8884518907
 11
8.9563820841
 21
11.9151185558
  0
LINE
  5
286
100
AcDbEntity
  8
03__ASM_ALL_CURVES
100
AcDbLine
 62
4
  6
CONTINUOUS
 10
9.1563820841
 20
11.8884518907
 11
9.1613820841
 21
11.9017852208
  0
LINE
  5
287
100
AcDbEntity
  8
03__ASM_ALL_CURVES
100
AcDbLine
 62
4
  6
CONTINUOUS
 10
9.2959412091
 20
6.8456855558
 11
9.2838329591
 21
6.8456855558
  0
LINE
  5
288
100
AcDbEntity
  8
03__ASM_ALL_CURVES
100
AcDbLine
 62
4
  6
CONTINUOUS
 10
9.2172375841
 20
6.8456855558
 11
9.2081563966
 21
6.8456855558
  0
LINE
  5
289
100
AcDbEntity
  8
03__ASM_ALL_CURVES
100
AcDbLine
 62
4
  6
CONTINUOUS
 10
9.0053432091
 20
6.8456855558
 11
8.9932349591
 21
6.8456855558
  0
LINE
  5
28A
100
AcDbEntity
  8
03__ASM_ALL_CURVES
100
AcDbLine
 62
4
  6
CONTINUOUS
 10
8.7147452091
 20
6.8456855558
 11
8.7026369591
 21
6.8456855558
  0
LINE
  5
28B
100
AcDbEntity
  8
03__ASM_ALL_CURVES
100
AcDbLine
 62
4
  6
CONTINUOUS
 10
8.5391755841
 20
6.8456855558
 11
8.5300943966
 21
6.8456855558
  0
LINE
  5
28C
100
AcDbEntity
  8
03__ASM_ALL_CURVES
100
AcDbLine
 62
4
  6
CONTINUOUS
 10
8.5876085841
 20
6.8456855558
 11
8.6360415841
 21
6.8456855558
  0
LINE
  5
28D
100
AcDbEntity
  8
03__ASM_ALL_CURVES
100
AcDbLine
 62
4
  6
CONTINUOUS
 10
9.0719385841
 20
6.8456855558
 11
9.1203715841
 21
6.8456855558
  0
LINE
  5
28E
100
AcDbEntity
  8
0
100
AcDbLine
 62
7
  6
CONTINUOUS
 10
10.8258820841
 20
6.8941185558
 11
10.5188820841
 21
6.8941185558
  0
LINE
  5
28F
100
AcDbEntity
  8
03__ASM_ALL_CURVES
100
AcDbLine
 62
4
  6
CONTINUOUS
 10
9.9195160841
 20
6.8941185558
 11
9.6289180841
 21
6.8941185558
  0
LINE
  5
290
100
AcDbEntity
  8
03__ASM_ALL_CURVES
100
AcDbLine
 62
4
  6
CONTINUOUS
 10
8.7026369591
 20
6.9021907205
 11
8.7147452091
 21
6.9021907205
  0
LINE
  5
291
100
AcDbEntity
  8
03__ASM_ALL_CURVES
100
AcDbLine
 62
4
  6
CONTINUOUS
 10
8.9932349591
 20
6.9021907205
 11
9.0053432091
 21
6.9021907205
  0
LINE
  5
292
100
AcDbEntity
  8
03__ASM_ALL_CURVES
100
AcDbLine
 62
4
  6
CONTINUOUS
 10
9.2838329591
 20
6.910262891
 11
9.2959412091
 21
6.910262891
  0
LINE
  5
293
100
AcDbEntity
  8
0
100
AcDbLine
 62
7
  6
CONTINUOUS
 10
10.8568820841
 20
6.9251185558
 11
10.4878820841
 21
6.9251185558
  0
LINE
  5
294
100
AcDbEntity
  8
03__ASM_ALL_CURVES
100
AcDbLine
 62
4
  6
CONTINUOUS
 10
9.3141035841
 20
6.9425515558
 11
9.2777788341
 21
6.9425515558
  0
LINE
  5
295
100
AcDbEntity
  8
03__ASM_ALL_CURVES
100
AcDbLine
 62
4
  6
CONTINUOUS
 10
8.6057709591
 20
6.9425515558
 11
8.6178792091
 21
6.9425515558
  0
LINE
  5
296
100
AcDbEntity
  8
03__ASM_ALL_CURVES
100
AcDbLine
 62
4
  6
CONTINUOUS
 10
8.7026369591
 20
6.9425515558
 11
8.7147452091
 21
6.9425515558
  0
LINE
  5
297
100
AcDbEntity
  8
03__ASM_ALL_CURVES
100
AcDbLine
 62
4
  6
CONTINUOUS
 10
8.9932349591
 20
6.9425515558
 11
9.0053432091
 21
6.9425515558
  0
LINE
  5
298
100
AcDbEntity
  8
03__ASM_ALL_CURVES
100
AcDbLine
 62
4
  6
CONTINUOUS
 10
9.0901009591
 20
6.9425515558
 11
9.1022092091
 21
6.9425515558
  0
LINE
  5
299
100
AcDbEntity
  8
0
100
AcDbLine
 62
7
  6
CONTINUOUS
 10
10.6706892306
 20
6.9571236762
 11
10.6729984764
 21
6.9571185558
  0
LINE
  5
29A
100
AcDbEntity
  8
0
100
AcDbLine
 62
7
  6
CONTINUOUS
 10
10.391384656
 20
6.9571185558
 11
10.6706892306
 21
6.9571185558
  0
LINE
  5
29B
100
AcDbEntity
  8
0
100
AcDbLine
 62
7
  6
CONTINUOUS
 10
10.6718445957
 20
6.9571185558
 11
10.9533795375
 21
6.9571185558
  0
LINE
  5
29C
100
AcDbEntity
  8
03__ASM_ALL_CURVES
100
AcDbLine
 62
4
  6
CONTINUOUS
 10
11.2263820841
 20
6.6041185558
 11
11.259715419
 21
6.5991185558
  0
LINE
  5
29D
100
AcDbEntity
  8
03__ASM_ALL_CURVES
100
AcDbLine
 62
4
  6
CONTINUOUS
 10
11.2730487516
 20
6.5391185558
 11
11.2530487492
 21
6.5441185558
  0
LINE
  5
29E
100
AcDbEntity
  8
03__ASM_ALL_CURVES
100
AcDbLine
 62
4
  6
CONTINUOUS
 10
10.6790487516
 20
6.7041185558
 11
10.6990487504
 21
6.6991185558
  0
LINE
  5
29F
100
AcDbEntity
  8
03__ASM_ALL_CURVES
100
AcDbLine
 62
4
  6
CONTINUOUS
 10
10.6857154166
 20
6.3941185558
 11
10.6990487504
 21
6.3891185558
  0
LINE
  5
2A0
100
AcDbEntity
  8
03__ASM_ALL_CURVES
100
AcDbLine
 62
4
  6
CONTINUOUS
 10
10.6857154166
 20
6.5591185558
 11
10.6990487504
 21
6.5541185558
  0
LINE
  5
2A1
100
AcDbEntity
  8
03__ASM_ALL_CURVES
100
AcDbLine
 62
4
  6
CONTINUOUS
 10
10.6590487492
 20
6.5941185558
 11
10.645715419
 21
6.5991185558
  0
LINE
  5
2A2
100
AcDbEntity
  8
03__ASM_ALL_CURVES
100
AcDbLine
 62
4
  6
CONTINUOUS
 10
9.1022092091
 20
6.9425515558
 11
9.1143174591
 21
6.934479391
  0
LINE
  5
2A3
100
AcDbEntity
  8
03__ASM_ALL_CURVES
100
AcDbLine
 62
4
  6
CONTINUOUS
 10
9.2838329591
 20
6.8456855558
 11
9.2717247091
 21
6.8537577227
  0
LINE
  5
2A4
100
AcDbEntity
  8
03__ASM_ALL_CURVES
100
AcDbLine
 62
4
  6
CONTINUOUS
 10
9.2959412091
 20
6.910262891
 11
9.3080494591
 21
6.9021907205
  0
LINE
  5
2A5
100
AcDbEntity
  8
03__ASM_ALL_CURVES
100
AcDbLine
 62
4
  6
CONTINUOUS
 10
10.645715419
 20
5.7991185558
 11
10.6390487492
 21
5.8041185558
  0
LINE
  5
2A6
100
AcDbEntity
  8
03__ASM_ALL_CURVES
100
AcDbLine
 62
4
  6
CONTINUOUS
 10
10.6990487504
 20
5.8291185558
 11
10.7057154172
 21
5.8241185558
  0
LINE
  5
2A7
100
AcDbEntity
  8
03__ASM_ALL_CURVES
100
AcDbLine
 62
4
  6
CONTINUOUS
 10
10.645715419
 20
5.9591185558
 11
10.6390487492
 21
5.9641185558
  0
LINE
  5
2A8
100
AcDbEntity
  8
03__ASM_ALL_CURVES
100
AcDbLine
 62
4
  6
CONTINUOUS
 10
10.6990487504
 20
5.9891185558
 11
10.7057154172
 21
5.9841185558
  0
LINE
  5
2A9
100
AcDbEntity
  8
03__ASM_ALL_CURVES
100
AcDbLine
 62
4
  6
CONTINUOUS
 10
8.8963689591
 20
6.8618298896
 11
8.9084772091
 21
6.8456855558
  0
LINE
  5
2AA
100
AcDbEntity
  8
03__ASM_ALL_CURVES
100
AcDbLine
 62
4
  6
CONTINUOUS
 10
8.9811267091
 20
6.8537577227
 11
8.9750725841
 21
6.8618298896
  0
LINE
  5
2AB
100
AcDbEntity
  8
03__ASM_ALL_CURVES
100
AcDbLine
 62
4
  6
CONTINUOUS
 10
9.0174514591
 20
6.8941185558
 11
9.0295597091
 21
6.8779742234
  0
LINE
  5
2AC
100
AcDbEntity
  8
03__ASM_ALL_CURVES
100
AcDbLine
 62
4
  6
CONTINUOUS
 10
9.0174514591
 20
6.934479391
 11
9.0235055841
 21
6.9264072205
  0
LINE
  5
2AD
100
AcDbEntity
  8
03__ASM_ALL_CURVES
100
AcDbLine
 62
4
  6
CONTINUOUS
 10
9.1143174591
 20
6.934479391
 11
9.1203715841
 21
6.9264072205
  0
LINE
  5
2AE
100
AcDbEntity
  8
03__ASM_ALL_CURVES
100
AcDbLine
 62
4
  6
CONTINUOUS
 10
8.3563820841
 20
8.8497852232
 11
8.3563820841
 21
8.8764518907
  0
LINE
  5
2AF
100
AcDbEntity
  8
03__ASM_ALL_CURVES
100
AcDbLine
 62
4
  6
CONTINUOUS
 10
8.9413820841
 20
11.8684518883
 11
8.9463820841
 21
11.8884518907
  0
LINE
  5
2B0
100
AcDbEntity
  8
03__ASM_ALL_CURVES
100
AcDbLine
 62
4
  6
CONTINUOUS
 10
9.0913820841
 20
11.9017852208
 11
9.0863820841
 21
11.8817852208
  0
LINE
  5
2B1
100
AcDbEntity
  8
03__ASM_ALL_CURVES
100
AcDbLine
 62
4
  6
CONTINUOUS
 10
9.1963820841
 20
11.8884518907
 11
9.1913820841
 21
11.8751185558
  0
LINE
  5
2B2
100
AcDbEntity
  8
03__ASM_ALL_CURVES
100
AcDbLine
 62
4
  6
CONTINUOUS
 10
9.1963820841
 20
11.8617852232
 11
9.1913820841
 21
11.8484518895
  0
LINE
  5
2B3
100
AcDbEntity
  8
03__ASM_ALL_CURVES
100
AcDbLine
 62
4
  6
CONTINUOUS
 10
9.3963820841
 20
11.8884518907
 11
9.4013820841
 21
11.9017852208
  0
LINE
  5
2B4
100
AcDbEntity
  8
0
100
AcDbLine
 62
7
  6
CONTINUOUS
 10
10.9958820841
 20
7.1761185558
 11
10.3488820841
 21
7.1761185558
  0
LINE
  5
2B5
100
AcDbEntity
  8
0
100
AcDbLine
 62
7
  6
CONTINUOUS
 10
11.0458820841
 20
7.2261185558
 11
10.2988820841
 21
7.2261185558
  0
LINE
  5
2B6
100
AcDbEntity
  8
03__ASM_ALL_CURVES
100
AcDbLine
 62
4
  6
CONTINUOUS
 10
11.2730487516
 20
6.7041185558
 11
11.2930487504
 21
6.6991185558
  0
LINE
  5
2B7
100
AcDbEntity
  8
03__ASM_ALL_CURVES
100
AcDbLine
 62
4
  6
CONTINUOUS
 10
10.6857154166
 20
6.6341185558
 11
10.6990487504
 21
6.6291185558
  0
LINE
  5
2B8
100
AcDbEntity
  8
03__ASM_ALL_CURVES
100
AcDbLine
 62
4
  6
CONTINUOUS
 10
11.2530487492
 20
6.5441185558
 11
11.2263820841
 21
6.5541185558
  0
LINE
  5
2B9
100
AcDbEntity
  8
03__ASM_ALL_CURVES
100
AcDbLine
 62
4
  6
CONTINUOUS
 10
11.2797154166
 20
6.6391185558
 11
11.2930487504
 21
6.6341185558
  0
LINE
  5
2BA
100
AcDbEntity
  8
03__ASM_ALL_CURVES
100
AcDbLine
 62
4
  6
CONTINUOUS
 10
10.6990487504
 20
6.0741185558
 11
10.7057154172
 21
6.0691185558
  0
LINE
  5
2BB
100
AcDbEntity
  8
03__ASM_ALL_CURVES
100
AcDbLine
 62
4
  6
CONTINUOUS
 10
10.6323820841
 20
6.2191185558
 11
10.645715419
 21
6.2091185558
  0
LINE
  5
2BC
100
AcDbEntity
  8
03__ASM_ALL_CURVES
100
AcDbLine
 62
4
  6
CONTINUOUS
 10
9.2081563966
 20
6.8577938061
 11
9.2172375841
 21
6.8456855558
  0
LINE
  5
2BD
100
AcDbEntity
  8
03__ASM_ALL_CURVES
100
AcDbLine
 62
4
  6
CONTINUOUS
 10
9.2717247091
 20
6.8537577227
 11
9.2656705841
 21
6.8618298896
  0
LINE
  5
2BE
100
AcDbEntity
  8
03__ASM_ALL_CURVES
100
AcDbLine
 62
4
  6
CONTINUOUS
 10
9.3080494591
 20
6.9021907205
 11
9.3141035841
 21
6.8941185558
  0
LINE
  5
2BF
100
AcDbEntity
  8
03__ASM_ALL_CURVES
100
AcDbLine
 62
4
  6
CONTINUOUS
 10
8.3963820841
 20
8.8764518907
 11
8.3963820841
 21
8.8497852232
  0
LINE
  5
2C0
100
AcDbEntity
  8
03__ASM_ALL_CURVES
100
AcDbLine
 62
4
  6
CONTINUOUS
 10
8.4180930841
 20
6.9425515558
 11
8.4180930841
 21
6.8456855558
  0
LINE
  5
2C1
100
AcDbEntity
  8
03__ASM_ALL_CURVES
100
AcDbLine
 62
4
  6
CONTINUOUS
 10
8.4688820841
 20
8.8231185558
 11
8.4688820841
 21
8.8331185561
  0
LINE
  5
2C2
100
AcDbEntity
  8
03__ASM_ALL_CURVES
100
AcDbLine
 62
4
  6
CONTINUOUS
 10
8.5163820841
 20
8.8497852232
 11
8.5163820841
 21
8.8764518907
  0
LINE
  5
2C3
100
AcDbEntity
  8
03__ASM_ALL_CURVES
100
AcDbLine
 62
4
  6
CONTINUOUS
 10
8.5300943966
 20
6.8456855558
 11
8.5300943966
 21
6.8577938061
  0
LINE
  5
2C4
100
AcDbEntity
  8
03__ASM_ALL_CURVES
100
AcDbLine
 62
4
  6
CONTINUOUS
 10
8.5913820841
 20
8.8431185558
 11
8.5913820841
 21
8.8497852232
  0
LINE
  5
2C5
100
AcDbEntity
  8
03__ASM_ALL_CURVES
100
AcDbLine
 62
4
  6
CONTINUOUS
 10
8.5963820841
 20
8.8831185558
 11
8.5963820841
 21
8.8897852208
  0
LINE
  5
2C6
100
AcDbEntity
  8
03__ASM_ALL_CURVES
100
AcDbLine
 62
4
  6
CONTINUOUS
 10
8.9363820841
 20
11.8351185558
 11
8.9413820841
 21
11.8684518883
  0
LINE
  5
2C7
100
AcDbEntity
  8
03__ASM_ALL_CURVES
100
AcDbLine
 62
4
  6
CONTINUOUS
 10
9.4363820841
 20
11.8884518907
 11
9.4313820841
 21
11.8751185558
  0
LINE
  5
2C8
100
AcDbEntity
  8
03__ASM_ALL_CURVES
100
AcDbLine
 62
4
  6
CONTINUOUS
 10
9.4363820841
 20
11.8617852232
 11
9.4313820841
 21
11.8484518895
  0
LINE
  5
2C9
100
AcDbEntity
  8
03__ASM_ALL_CURVES
100
AcDbLine
 62
4
  6
CONTINUOUS
 10
8.3563820841
 20
8.8764518907
 11
8.3613820841
 21
8.8897852208
  0
LINE
  5
2CA
100
AcDbEntity
  8
03__ASM_ALL_CURVES
100
AcDbLine
 62
4
  6
CONTINUOUS
 10
8.3963820841
 20
8.8497852232
 11
8.3913820841
 21
8.8364518895
  0
LINE
  5
2CB
100
AcDbEntity
  8
03__ASM_ALL_CURVES
100
AcDbLine
 62
4
  6
CONTINUOUS
 10
8.5163820841
 20
8.8764518907
 11
8.5213820841
 21
8.8897852208
  0
LINE
  5
2CC
100
AcDbEntity
  8
03__ASM_ALL_CURVES
100
AcDbLine
 62
4
  6
CONTINUOUS
 10
8.5163820841
 20
8.8497852232
 11
8.5213820841
 21
8.8631185558
  0
LINE
  5
2CD
100
AcDbEntity
  8
0
100
AcDbLine
 62
7
  6
CONTINUOUS
 10
11.0458820841
 20
7.2771185558
 11
10.2988820841
 21
7.2771185558
  0
LINE
  5
2CE
100
AcDbEntity
  8
0
100
AcDbLine
 62
7
  6
CONTINUOUS
 10
11.0408820841
 20
7.2821185558
 11
10.3038820841
 21
7.2821185558
  0
LINE
  5
2CF
100
AcDbEntity
  8
0
100
AcDbLine
 62
7
  6
CONTINUOUS
 10
10.3223820841
 20
7.2901185558
 11
11.0223820841
 21
7.2901185558
  0
LINE
  5
2D0
100
AcDbEntity
  8
0
100
AcDbLine
 62
7
  6
CONTINUOUS
 10
10.3223820841
 20
7.3121185558
 11
11.0223820841
 21
7.3121185558
  0
LINE
  5
2D1
100
AcDbEntity
  8
0
100
AcDbLine
 62
7
  6
CONTINUOUS
 10
10.3038820841
 20
7.3201185558
 11
11.0408820841
 21
7.3201185558
  0
LINE
  5
2D2
100
AcDbEntity
  8
0
100
AcDbLine
 62
7
  6
CONTINUOUS
 10
11.0458820841
 20
7.3251185558
 11
10.2988820841
 21
7.3251185558
  0
LINE
  5
2D3
100
AcDbEntity
  8
0
100
AcDbLine
 62
7
  6
CONTINUOUS
 10
10.3913820841
 20
6.9571185558
 11
10.3478820841
 21
6.9822332925
  0
LINE
  5
2D4
100
AcDbEntity
  8
03__ASM_ALL_CURVES
100
AcDbLine
 62
4
  6
CONTINUOUS
 10
10.645715419
 20
6.3591185558
 11
10.6390487492
 21
6.3641185558
  0
LINE
  5
2D5
100
AcDbEntity
  8
03__ASM_ALL_CURVES
100
AcDbLine
 62
4
  6
CONTINUOUS
 10
11.239715419
 20
5.9541185558
 11
11.2330487492
 21
5.9591185558
  0
LINE
  5
2D6
100
AcDbEntity
  8
03__ASM_ALL_CURVES
100
AcDbLine
 62
4
  6
CONTINUOUS
 10
10.6990487504
 20
6.3891185558
 11
10.7057154172
 21
6.3841185558
  0
LINE
  5
2D7
100
AcDbEntity
  8
03__ASM_ALL_CURVES
100
AcDbLine
 62
4
  6
CONTINUOUS
 10
11.2730487516
 20
5.9691185558
 11
11.2863820841
 21
5.9591185558
  0
LINE
  5
2D8
100
AcDbEntity
  8
03__ASM_ALL_CURVES
100
AcDbLine
 62
4
  6
CONTINUOUS
 10
11.2530487492
 20
5.9941185558
 11
11.259715419
 21
5.9891185558
  0
LINE
  5
2D9
100
AcDbEntity
  8
03__ASM_ALL_CURVES
100
AcDbLine
 62
4
  6
CONTINUOUS
 10
11.2930487504
 20
6.0741185558
 11
11.2997154172
 21
6.0691185558
  0
LINE
  5
2DA
100
AcDbEntity
  8
03__ASM_ALL_CURVES
100
AcDbLine
 62
4
  6
CONTINUOUS
 10
10.6990487504
 20
6.5541185558
 11
10.7057154172
 21
6.5491185558
  0
LINE
  5
2DB
100
AcDbEntity
  8
03__ASM_ALL_CURVES
100
AcDbLine
 62
4
  6
CONTINUOUS
 10
10.645715419
 20
6.5991185558
 11
10.6390487492
 21
6.6041185558
  0
LINE
  5
2DC
100
AcDbEntity
  8
03__ASM_ALL_CURVES
100
AcDbLine
 62
4
  6
CONTINUOUS
 10
9.4775649591
 20
6.9425515558
 11
9.4896732091
 21
6.9264072205
  0
LINE
  5
2DD
100
AcDbEntity
  8
03__ASM_ALL_CURVES
100
AcDbLine
 62
4
  6
CONTINUOUS
 10
8.3613820841
 20
8.8364518895
 11
8.3563820841
 21
8.8497852232
  0
LINE
  5
2DE
100
AcDbEntity
  8
03__ASM_ALL_CURVES
100
AcDbLine
 62
4
  6
CONTINUOUS
 10
8.3913820841
 20
8.8897852208
 11
8.3963820841
 21
8.8764518907
  0
LINE
  5
2DF
100
AcDbEntity
  8
03__ASM_ALL_CURVES
100
AcDbLine
 62
4
  6
CONTINUOUS
 10
8.5213820841
 20
8.8364518895
 11
8.5163820841
 21
8.8497852232
  0
LINE
  5
2E0
100
AcDbEntity
  8
03__ASM_ALL_CURVES
100
AcDbLine
 62
4
  6
CONTINUOUS
 10
8.8903148341
 20
6.8860463881
 11
8.8963689591
 21
6.8618298896
  0
LINE
  5
2E1
100
AcDbEntity
  8
03__ASM_ALL_CURVES
100
AcDbLine
 62
4
  6
CONTINUOUS
 10
8.6360415841
 20
6.9264072205
 11
8.6360415841
 21
6.910262891
  0
LINE
  5
2E2
100
AcDbEntity
  8
03__ASM_ALL_CURVES
100
AcDbLine
 62
4
  6
CONTINUOUS
 10
8.6363820841
 20
8.8897852208
 11
8.6363820841
 21
8.8831185558
  0
LINE
  5
2E3
100
AcDbEntity
  8
03__ASM_ALL_CURVES
100
AcDbLine
 62
4
  6
CONTINUOUS
 10
8.6413820841
 20
8.8497852232
 11
8.6413820841
 21
8.8431185558
  0
LINE
  5
2E4
100
AcDbEntity
  8
03__ASM_ALL_CURVES
100
AcDbLine
 62
4
  6
CONTINUOUS
 10
8.6784204591
 20
6.8699020558
 11
8.6784204591
 21
6.8779742234
  0
LINE
  5
2E5
100
AcDbEntity
  8
03__ASM_ALL_CURVES
100
AcDbLine
 62
4
  6
CONTINUOUS
 10
8.6844745841
 20
6.9183350558
 11
8.6844745841
 21
6.9264072205
  0
LINE
  5
2E6
100
AcDbEntity
  8
03__ASM_ALL_CURVES
100
AcDbLine
 62
4
  6
CONTINUOUS
 10
8.6963820841
 20
9.6221185558
 11
8.6963820841
 21
9.5421185558
  0
LINE
  5
2E7
100
AcDbEntity
  8
03__ASM_ALL_CURVES
100
AcDbLine
 62
4
  6
CONTINUOUS
 10
8.7329075841
 20
6.9264072205
 11
8.7329075841
 21
6.9183350558
  0
LINE
  5
2E8
100
AcDbEntity
  8
03__ASM_ALL_CURVES
100
AcDbLine
 62
4
  6
CONTINUOUS
 10
8.7389617091
 20
6.8779742234
 11
8.7389617091
 21
6.8699020558
  0
LINE
  5
2E9
100
AcDbEntity
  8
03__ASM_ALL_CURVES
100
AcDbLine
 62
4
  6
CONTINUOUS
 10
8.7663820841
 20
8.8697852208
 11
8.7663820841
 21
8.8564518883
  0
LINE
  5
2EA
100
AcDbEntity
  8
03__ASM_ALL_CURVES
100
AcDbLine
 62
4
  6
CONTINUOUS
 10
8.7888820841
 20
9.5421185558
 11
8.7888820841
 21
9.5521185561
  0
LINE
  5
2EB
100
AcDbEntity
  8
03__ASM_ALL_CURVES
100
AcDbLine
 62
4
  6
CONTINUOUS
 10
8.7963820841
 20
11.9017852208
 11
8.7963820841
 21
11.8951185558
  0
LINE
  5
2EC
100
AcDbEntity
  8
03__ASM_ALL_CURVES
100
AcDbLine
 62
4
  6
CONTINUOUS
 10
8.8013820841
 20
11.8617852232
 11
8.8013820841
 21
11.8551185558
  0
LINE
  5
2ED
100
AcDbEntity
  8
03__ASM_ALL_CURVES
100
AcDbLine
 62
4
  6
CONTINUOUS
 10
8.8563820841
 20
8.9031185558
 11
8.8563820841
 21
8.8231185558
  0
LINE
  5
2EE
100
AcDbEntity
  8
03__ASM_ALL_CURVES
100
AcDbLine
 62
4
  6
CONTINUOUS
 10
8.7713820841
 20
8.8897852208
 11
8.7663820841
 21
8.8697852208
  0
LINE
  5
2EF
100
AcDbEntity
  8
03__ASM_ALL_CURVES
100
AcDbLine
 62
4
  6
CONTINUOUS
 10
8.5563820841
 20
8.8497852232
 11
8.5513820841
 21
8.8364518895
  0
LINE
  5
2F0
100
AcDbEntity
  8
03__ASM_ALL_CURVES
100
AcDbLine
 62
4
  6
CONTINUOUS
 10
8.9163820841
 20
9.5954518907
 11
8.9213820841
 21
9.6087852208
  0
LINE
  5
2F1
100
AcDbEntity
  8
03__ASM_ALL_CURVES
100
AcDbLine
 62
4
  6
CONTINUOUS
 10
8.9563820841
 20
9.5687852232
 11
8.9513820841
 21
9.5554518895
  0
LINE
  5
2F2
100
AcDbEntity
  8
03__ASM_ALL_CURVES
100
AcDbLine
 62
4
  6
CONTINUOUS
 10
8.8713820841
 20
9.6221185558
 11
8.8363820841
 21
9.5621185558
  0
LINE
  5
2F3
100
AcDbEntity
  8
03__ASM_ALL_CURVES
100
AcDbLine
 62
4
  6
CONTINUOUS
 10
8.3613820841
 20
8.8897852208
 11
8.3663820841
 21
8.8964518907
  0
LINE
  5
2F4
100
AcDbEntity
  8
03__ASM_ALL_CURVES
100
AcDbLine
 62
4
  6
CONTINUOUS
 10
8.9213820841
 20
9.6087852208
 11
8.9263820841
 21
9.6154518907
  0
LINE
  5
2F5
100
AcDbEntity
  8
03__ASM_ALL_CURVES
100
AcDbLine
 62
4
  6
CONTINUOUS
 10
8.3913820841
 20
8.8364518895
 11
8.3863820841
 21
8.8297852226
  0
LINE
  5
2F6
100
AcDbEntity
  8
03__ASM_ALL_CURVES
100
AcDbLine
 62
4
  6
CONTINUOUS
 10
8.9513820841
 20
9.5554518895
 11
8.9463820841
 21
9.5487852226
  0
LINE
  5
2F7
100
AcDbEntity
  8
03__ASM_ALL_CURVES
100
AcDbLine
 62
4
  6
CONTINUOUS
 10
8.5213820841
 20
8.8897852208
 11
8.5263820841
 21
8.8964518907
  0
LINE
  5
2F8
100
AcDbEntity
  8
03__ASM_ALL_CURVES
100
AcDbLine
 62
4
  6
CONTINUOUS
 10
9.1013820841
 20
9.6221185558
 11
9.0913820841
 21
9.6087852208
  0
LINE
  5
2F9
100
AcDbEntity
  8
03__ASM_ALL_CURVES
100
AcDbLine
 62
4
  6
CONTINUOUS
 10
8.5513820841
 20
8.8364518895
 11
8.5463820841
 21
8.8297852226
  0
LINE
  5
2FA
100
AcDbEntity
  8
03__ASM_ALL_CURVES
100
AcDbLine
 62
4
  6
CONTINUOUS
 10
8.5963820841
 20
8.8897852208
 11
8.6013820841
 21
8.8964518907
  0
LINE
  5
2FB
100
AcDbEntity
  8
03__ASM_ALL_CURVES
100
AcDbLine
 62
4
  6
CONTINUOUS
 10
8.9263820841
 20
9.6154518907
 11
8.9363820841
 21
9.6221185558
  0
LINE
  5
2FC
100
AcDbEntity
  8
03__ASM_ALL_CURVES
100
AcDbLine
 62
4
  6
CONTINUOUS
 10
8.9463820841
 20
9.5487852226
 11
8.9363820841
 21
9.5421185558
  0
LINE
  5
2FD
100
AcDbEntity
  8
03__ASM_ALL_CURVES
100
AcDbLine
 62
4
  6
CONTINUOUS
 10
10.0297154166
 20
7.6351185558
 11
10.0030487492
 21
7.6351185558
  0
LINE
  5
2FE
100
AcDbEntity
  8
03__ASM_ALL_CURVES
100
AcDbLine
 62
4
  6
CONTINUOUS
 10
10.0030487492
 20
7.6751185558
 11
10.0297154166
 21
7.6751185558
  0
LINE
  5
2FF
100
AcDbEntity
  8
0
100
AcDbLine
 62
7
  6
CONTINUOUS
 10
10.2423882836
 20
7.6761185558
 11
11.1023820841
 21
7.6761185558
  0
LINE
  5
300
100
AcDbEntity
  8
03__ASM_ALL_CURVES
100
AcDbLine
 62
4
  6
CONTINUOUS
 10
11.2263820841
 20
6.2191185558
 11
11.239715419
 21
6.2091185558
  0
LINE
  5
301
100
AcDbEntity
  8
03__ASM_ALL_CURVES
100
AcDbLine
 62
4
  6
CONTINUOUS
 10
10.6990487504
 20
6.6291185558
 11
10.7057154172
 21
6.6241185558
  0
LINE
  5
302
100
AcDbEntity
  8
03__ASM_ALL_CURVES
100
AcDbLine
 62
4
  6
CONTINUOUS
 10
10.6990487504
 20
6.6991185558
 11
10.7123820841
 21
6.6891185558
  0
LINE
  5
303
100
AcDbEntity
  8
03__ASM_ALL_CURVES
100
AcDbLine
 62
4
  6
CONTINUOUS
 10
11.2463820841
 20
6.3141185558
 11
11.2530487492
 21
6.3091185558
  0
LINE
  5
304
100
AcDbEntity
  8
03__ASM_ALL_CURVES
100
AcDbLine
 62
4
  6
CONTINUOUS
 10
11.2863820841
 20
6.3191185558
 11
11.2997154172
 21
6.3091185558
  0
LINE
  5
305
100
AcDbEntity
  8
03__ASM_ALL_CURVES
100
AcDbLine
 62
4
  6
CONTINUOUS
 10
8.3663820841
 20
8.8297852226
 11
8.3613820841
 21
8.8364518895
  0
LINE
  5
306
100
AcDbEntity
  8
03__ASM_ALL_CURVES
100
AcDbLine
 62
4
  6
CONTINUOUS
 10
8.3863820841
 20
8.8964518907
 11
8.3913820841
 21
8.8897852208
  0
LINE
  5
307
100
AcDbEntity
  8
03__ASM_ALL_CURVES
100
AcDbLine
 62
4
  6
CONTINUOUS
 10
8.4688820841
 20
8.8331185561
 11
8.4763820841
 21
8.8231185558
  0
LINE
  5
308
100
AcDbEntity
  8
03__ASM_ALL_CURVES
100
AcDbLine
 62
4
  6
CONTINUOUS
 10
8.5263820841
 20
8.8297852226
 11
8.5213820841
 21
8.8364518895
  0
LINE
  5
309
100
AcDbEntity
  8
03__ASM_ALL_CURVES
100
AcDbLine
 62
4
  6
CONTINUOUS
 10
10.6390487492
 20
5.8041185558
 11
10.6323820841
 21
5.8141185558
  0
LINE
  5
30A
100
AcDbEntity
  8
03__ASM_ALL_CURVES
100
AcDbLine
 62
4
  6
CONTINUOUS
 10
8.5513820841
 20
8.8631185558
 11
8.5563820841
 21
8.8497852232
  0
LINE
  5
30B
100
AcDbEntity
  8
03__ASM_ALL_CURVES
100
AcDbLine
 62
4
  6
CONTINUOUS
 10
9.3141035841
 20
6.8941185558
 11
9.3201577091
 21
6.8779742234
  0
LINE
  5
30C
100
AcDbEntity
  8
03__ASM_ALL_CURVES
100
AcDbLine
 62
4
  6
CONTINUOUS
 10
8.7663820841
 20
8.8564518883
 11
8.7713820841
 21
8.8364518895
  0
LINE
  5
30D
100
AcDbEntity
  8
03__ASM_ALL_CURVES
100
AcDbLine
 62
4
  6
CONTINUOUS
 10
8.8688820841
 20
11.8351185558
 11
8.8688820841
 21
11.8451185561
  0
LINE
  5
30E
100
AcDbEntity
  8
03__ASM_ALL_CURVES
100
AcDbLine
 62
4
  6
CONTINUOUS
 10
8.8713820841
 20
9.5421185558
 11
8.8713820841
 21
9.6221185558
  0
LINE
  5
30F
100
AcDbEntity
  8
03__ASM_ALL_CURVES
100
AcDbLine
 62
4
  6
CONTINUOUS
 10
8.8903148341
 20
6.9021907205
 11
8.8903148341
 21
6.8860463881
  0
LINE
  5
310
100
AcDbEntity
  8
03__ASM_ALL_CURVES
100
AcDbLine
 62
4
  6
CONTINUOUS
 10
8.9163820841
 20
9.5687852232
 11
8.9163820841
 21
9.5954518907
  0
LINE
  5
311
100
AcDbEntity
  8
03__ASM_ALL_CURVES
100
AcDbLine
 62
4
  6
CONTINUOUS
 10
8.9563820841
 20
9.5954518907
 11
8.9563820841
 21
9.5687852232
  0
LINE
  5
312
100
AcDbEntity
  8
03__ASM_ALL_CURVES
100
AcDbLine
 62
4
  6
CONTINUOUS
 10
9.0235055841
 20
6.9264072205
 11
9.0235055841
 21
6.9183350558
  0
LINE
  5
313
100
AcDbEntity
  8
03__ASM_ALL_CURVES
100
AcDbLine
 62
4
  6
CONTINUOUS
 10
9.0288820841
 20
8.8231185558
 11
9.0288820841
 21
8.8331185561
  0
LINE
  5
314
100
AcDbEntity
  8
03__ASM_ALL_CURVES
100
AcDbLine
 62
4
  6
CONTINUOUS
 10
9.0295597091
 20
6.8779742234
 11
9.0295597091
 21
6.8699020558
  0
LINE
  5
315
100
AcDbEntity
  8
03__ASM_ALL_CURVES
100
AcDbLine
 62
4
  6
CONTINUOUS
 10
9.0863820841
 20
11.8817852208
 11
9.0863820841
 21
11.8684518883
  0
LINE
  5
316
100
AcDbEntity
  8
03__ASM_ALL_CURVES
100
AcDbLine
 62
4
  6
CONTINUOUS
 10
9.0863820841
 20
9.5887852208
 11
9.0863820841
 21
9.5754518883
  0
LINE
  5
317
100
AcDbEntity
  8
03__ASM_ALL_CURVES
100
AcDbLine
 62
4
  6
CONTINUOUS
 10
8.9363820841
 20
8.8231185558
 11
8.9413820841
 21
8.8564518883
  0
LINE
  5
318
100
AcDbEntity
  8
03__ASM_ALL_CURVES
100
AcDbLine
 62
4
  6
CONTINUOUS
 10
9.5863820841
 20
11.8684518883
 11
9.5813820841
 21
11.8484518895
  0
LINE
  5
319
100
AcDbEntity
  8
03__ASM_ALL_CURVES
100
AcDbLine
 62
4
  6
CONTINUOUS
 10
9.0913820841
 20
9.6087852208
 11
9.0863820841
 21
9.5887852208
  0
LINE
  5
31A
100
AcDbEntity
  8
03__ASM_ALL_CURVES
100
AcDbLine
 62
4
  6
CONTINUOUS
 10
8.9413820841
 20
8.8564518883
 11
8.9463820841
 21
8.8764518907
  0
LINE
  5
31B
100
AcDbEntity
  8
03__ASM_ALL_CURVES
100
AcDbLine
 62
4
  6
CONTINUOUS
 10
8.9463820841
 20
8.8764518907
 11
8.9563820841
 21
8.9031185558
  0
LINE
  5
31C
100
AcDbEntity
  8
03__ASM_ALL_CURVES
100
AcDbLine
 62
4
  6
CONTINUOUS
 10
9.2813820841
 20
9.5687852232
 11
9.2763820841
 21
9.5554518895
  0
LINE
  5
31D
100
AcDbEntity
  8
03__ASM_ALL_CURVES
100
AcDbLine
 62
4
  6
CONTINUOUS
 10
8.5913820841
 20
8.8497852232
 11
8.6013820841
 21
8.8631185558
  0
LINE
  5
31E
100
AcDbEntity
  8
03__ASM_ALL_CURVES
100
AcDbLine
 62
4
  6
CONTINUOUS
 10
8.6363820841
 20
8.8831185558
 11
8.6313820841
 21
8.8764518907
  0
LINE
  5
31F
100
AcDbEntity
  8
03__ASM_ALL_CURVES
100
AcDbLine
 62
4
  6
CONTINUOUS
 10
9.1963820841
 20
9.6021185558
 11
9.1913820841
 21
9.5954518907
  0
LINE
  5
320
100
AcDbEntity
  8
03__ASM_ALL_CURVES
100
AcDbLine
 62
4
  6
CONTINUOUS
 10
8.6413820841
 20
8.8431185558
 11
8.6313820841
 21
8.8297852226
  0
LINE
  5
321
100
AcDbEntity
  8
03__ASM_ALL_CURVES
100
AcDbLine
 62
4
  6
CONTINUOUS
 10
9.2013820841
 20
9.5621185558
 11
9.1913820841
 21
9.5487852226
  0
LINE
  5
322
100
AcDbEntity
  8
03__ASM_ALL_CURVES
100
AcDbLine
 62
4
  6
CONTINUOUS
 10
8.7813820841
 20
8.9031185558
 11
8.7713820841
 21
8.8897852208
  0
LINE
  5
323
100
AcDbEntity
  8
03__ASM_ALL_CURVES
100
AcDbLine
 62
4
  6
CONTINUOUS
 10
9.2763820841
 20
9.5554518895
 11
9.2713820841
 21
9.5487852226
  0
LINE
  5
324
100
AcDbEntity
  8
03__ASM_ALL_CURVES
100
AcDbLine
 62
4
  6
CONTINUOUS
 10
9.1613820841
 20
9.6154518907
 11
9.1713820841
 21
9.6221185558
  0
LINE
  5
325
100
AcDbEntity
  8
03__ASM_ALL_CURVES
100
AcDbLine
 62
4
  6
CONTINUOUS
 10
9.1913820841
 20
9.5954518907
 11
9.1813820841
 21
9.5887852208
  0
LINE
  5
326
100
AcDbEntity
  8
03__ASM_ALL_CURVES
100
AcDbLine
 62
4
  6
CONTINUOUS
 10
9.2413820841
 20
9.5887852208
 11
9.2513820841
 21
9.5954518907
  0
LINE
  5
327
100
AcDbEntity
  8
03__ASM_ALL_CURVES
100
AcDbLine
 62
4
  6
CONTINUOUS
 10
9.1913820841
 20
9.5487852226
 11
9.1813820841
 21
9.5421185558
  0
LINE
  5
328
100
AcDbEntity
  8
03__ASM_ALL_CURVES
100
AcDbLine
 62
4
  6
CONTINUOUS
 10
9.2713820841
 20
9.5487852226
 11
9.2613820841
 21
9.5421185558
  0
LINE
  5
329
100
AcDbEntity
  8
03__ASM_ALL_CURVES
100
AcDbLine
 62
4
  6
CONTINUOUS
 10
9.4013820841
 20
9.5887852208
 11
9.4113820841
 21
9.5954518907
  0
LINE
  5
32A
100
AcDbEntity
  8
03__ASM_ALL_CURVES
100
AcDbLine
 62
4
  6
CONTINUOUS
 10
8.3663820841
 20
8.8964518907
 11
8.3763820841
 21
8.9031185558
  0
LINE
  5
32B
100
AcDbEntity
  8
0
100
AcDbLine
 62
7
  6
CONTINUOUS
 10
11.1098981181
 20
7.7101822216
 11
11.0802843318
 21
7.7101822216
  0
LINE
  5
32C
100
AcDbEntity
  8
0
100
AcDbLine
 62
7
  6
CONTINUOUS
 10
10.2348660501
 20
7.7101822216
 11
10.2644798364
 21
7.7101822216
  0
LINE
  5
32D
100
AcDbEntity
  8
0
100
AcDbLine
 62
7
  6
CONTINUOUS
 10
10.6427682978
 20
7.7101822216
 11
10.7019958704
 21
7.7101822216
  0
LINE
  5
32E
100
AcDbEntity
  8
03__ASM_ALL_CURVES
100
AcDbLine
 62
4
  6
CONTINUOUS
 10
10.0030487492
 20
7.6351185558
 11
9.989715419
 21
7.6401185558
  0
LINE
  5
32F
100
AcDbEntity
  8
03__ASM_ALL_CURVES
100
AcDbLine
 62
4
  6
CONTINUOUS
 10
10.0297154166
 20
7.6751185558
 11
10.0430487504
 21
7.6701185558
  0
LINE
  5
330
100
AcDbEntity
  8
0
100
AcDbLine
 62
7
  6
CONTINUOUS
 10
10.9533820841
 20
7.1761185558
 11
10.9968820841
 21
7.151003819
  0
LINE
  5
331
100
AcDbEntity
  8
03__ASM_ALL_CURVES
100
AcDbLine
 62
4
  6
CONTINUOUS
 10
8.3763820841
 20
8.8231185558
 11
8.3663820841
 21
8.8297852226
  0
LINE
  5
332
100
AcDbEntity
  8
03__ASM_ALL_CURVES
100
AcDbLine
 62
4
  6
CONTINUOUS
 10
11.2930487504
 20
6.6341185558
 11
11.2997154172
 21
6.6291185558
  0
LINE
  5
333
100
AcDbEntity
  8
03__ASM_ALL_CURVES
100
AcDbLine
 62
4
  6
CONTINUOUS
 10
9.989715419
 20
7.6401185558
 11
9.9830487492
 21
7.6451185558
  0
LINE
  5
334
100
AcDbEntity
  8
03__ASM_ALL_CURVES
100
AcDbLine
 62
4
  6
CONTINUOUS
 10
11.2930487504
 20
6.6991185558
 11
11.3063820841
 21
6.6891185558
  0
LINE
  5
335
100
AcDbEntity
  8
03__ASM_ALL_CURVES
100
AcDbLine
 62
4
  6
CONTINUOUS
 10
10.0430487504
 20
7.6701185558
 11
10.0497154172
 21
7.6651185558
  0
LINE
  5
336
100
AcDbEntity
  8
0
100
AcDbLine
 62
7
  6
CONTINUOUS
 10
10.4878820841
 20
6.9251185558
 11
10.5188820841
 21
6.8941185558
  0
LINE
  5
337
100
AcDbEntity
  8
0
100
AcDbLine
 62
7
  6
CONTINUOUS
 10
10.2988820841
 20
7.2261185558
 11
10.3488820841
 21
7.1761185558
  0
LINE
  5
338
100
AcDbEntity
  8
03__ASM_ALL_CURVES
100
AcDbLine
 62
4
  6
CONTINUOUS
 10
8.5463820841
 20
8.8964518907
 11
8.5513820841
 21
8.8897852208
  0
LINE
  5
339
100
AcDbEntity
  8
03__ASM_ALL_CURVES
100
AcDbLine
 62
4
  6
CONTINUOUS
 10
8.6013820841
 20
8.8297852226
 11
8.5913820841
 21
8.8431185558
  0
LINE
  5
33A
100
AcDbEntity
  8
03__ASM_ALL_CURVES
100
AcDbLine
 62
4
  6
CONTINUOUS
 10
8.6013820841
 20
8.8764518907
 11
8.5963820841
 21
8.8831185558
  0
LINE
  5
33B
100
AcDbEntity
  8
03__ASM_ALL_CURVES
100
AcDbLine
 62
4
  6
CONTINUOUS
 10
8.6313820841
 20
8.8631185558
 11
8.6413820841
 21
8.8497852232
  0
LINE
  5
33C
100
AcDbEntity
  8
03__ASM_ALL_CURVES
100
AcDbLine
 62
4
  6
CONTINUOUS
 10
8.6313820841
 20
8.8964518907
 11
8.6363820841
 21
8.8897852208
  0
LINE
  5
33D
100
AcDbEntity
  8
03__ASM_ALL_CURVES
100
AcDbLine
 62
4
  6
CONTINUOUS
 10
8.7713820841
 20
8.8364518895
 11
8.7813820841
 21
8.8231185558
  0
LINE
  5
33E
100
AcDbEntity
  8
03__ASM_ALL_CURVES
100
AcDbLine
 62
4
  6
CONTINUOUS
 10
10.7057154172
 20
5.8241185558
 11
10.7123820841
 21
5.8141185558
  0
LINE
  5
33F
100
AcDbEntity
  8
03__ASM_ALL_CURVES
100
AcDbLine
 62
4
  6
CONTINUOUS
 10
10.6390487492
 20
5.9641185558
 11
10.6323820841
 21
5.9741185558
  0
LINE
  5
340
100
AcDbEntity
  8
03__ASM_ALL_CURVES
100
AcDbLine
 62
4
  6
CONTINUOUS
 10
10.665715419
 20
6.0391185558
 11
10.6590487492
 21
6.0491185558
  0
LINE
  5
341
100
AcDbEntity
  8
03__ASM_ALL_CURVES
100
AcDbLine
 62
4
  6
CONTINUOUS
 10
10.7057154172
 20
5.9841185558
 11
10.7123820841
 21
5.9741185558
  0
LINE
  5
342
100
AcDbEntity
  8
03__ASM_ALL_CURVES
100
AcDbLine
 62
4
  6
CONTINUOUS
 10
10.7057154172
 20
6.0691185558
 11
10.7123820841
 21
6.0591185558
  0
LINE
  5
343
100
AcDbEntity
  8
03__ASM_ALL_CURVES
100
AcDbLine
 62
4
  6
CONTINUOUS
 10
9.4896732091
 20
6.9264072205
 11
9.4957273341
 21
6.9021907205
  0
LINE
  5
344
100
AcDbEntity
  8
03__ASM_ALL_CURVES
100
AcDbLine
 62
4
  6
CONTINUOUS
 10
9.1163820841
 20
8.8897852208
 11
9.1163820841
 21
8.8764518907
  0
LINE
  5
345
100
AcDbEntity
  8
03__ASM_ALL_CURVES
100
AcDbLine
 62
4
  6
CONTINUOUS
 10
9.1203715841
 20
6.9264072205
 11
9.1203715841
 21
6.910262891
  0
LINE
  5
346
100
AcDbEntity
  8
03__ASM_ALL_CURVES
100
AcDbLine
 62
4
  6
CONTINUOUS
 10
9.1963820841
 20
11.8884518907
 11
9.1963820841
 21
11.8617852232
  0
LINE
  5
347
100
AcDbEntity
  8
03__ASM_ALL_CURVES
100
AcDbLine
 62
4
  6
CONTINUOUS
 10
9.1963820841
 20
9.6087852208
 11
9.1963820841
 21
9.6021185558
  0
LINE
  5
348
100
AcDbEntity
  8
03__ASM_ALL_CURVES
100
AcDbLine
 62
4
  6
CONTINUOUS
 10
9.2013820841
 20
9.5687852232
 11
9.2013820841
 21
9.5621185558
  0
LINE
  5
349
100
AcDbEntity
  8
03__ASM_ALL_CURVES
100
AcDbLine
 62
4
  6
CONTINUOUS
 10
9.2081563966
 20
6.8456855558
 11
9.2081563966
 21
6.8577938061
  0
LINE
  5
34A
100
AcDbEntity
  8
03__ASM_ALL_CURVES
100
AcDbLine
 62
4
  6
CONTINUOUS
 10
9.2663820841
 20
8.8697852208
 11
9.2663820841
 21
8.8564518883
  0
LINE
  5
34B
100
AcDbEntity
  8
03__ASM_ALL_CURVES
100
AcDbLine
 62
4
  6
CONTINUOUS
 10
9.2763820841
 20
11.9017852208
 11
9.2763820841
 21
11.8951185558
  0
LINE
  5
34C
100
AcDbEntity
  8
03__ASM_ALL_CURVES
100
AcDbLine
 62
4
  6
CONTINUOUS
 10
9.2813820841
 20
11.8617852232
 11
9.2813820841
 21
11.8551185558
  0
LINE
  5
34D
100
AcDbEntity
  8
03__ASM_ALL_CURVES
100
AcDbLine
 62
4
  6
CONTINUOUS
 10
9.2463820841
 20
9.6221185558
 11
9.2413820841
 21
9.5887852208
  0
LINE
  5
34E
100
AcDbEntity
  8
03__ASM_ALL_CURVES
100
AcDbLine
 62
4
  6
CONTINUOUS
 10
9.1763820841
 20
8.8231185558
 11
9.1813820841
 21
8.8564518883
  0
LINE
  5
34F
100
AcDbEntity
  8
03__ASM_ALL_CURVES
100
AcDbLine
 62
4
  6
CONTINUOUS
 10
9.4063820841
 20
9.6221185558
 11
9.4013820841
 21
9.5887852208
  0
LINE
  5
350
100
AcDbEntity
  8
03__ASM_ALL_CURVES
100
AcDbLine
 62
4
  6
CONTINUOUS
 10
9.0813820841
 20
8.8431185558
 11
9.0763820841
 21
8.8231185558
  0
LINE
  5
351
100
AcDbEntity
  8
03__ASM_ALL_CURVES
100
AcDbLine
 62
4
  6
CONTINUOUS
 10
8.5936627091
 20
6.8699020558
 11
8.5876085841
 21
6.8456855558
  0
LINE
  5
352
100
AcDbEntity
  8
03__ASM_ALL_CURVES
100
AcDbLine
 62
4
  6
CONTINUOUS
 10
9.1813820841
 20
8.8564518883
 11
9.1863820841
 21
8.8764518907
  0
LINE
  5
353
100
AcDbEntity
  8
03__ASM_ALL_CURVES
100
AcDbLine
 62
4
  6
CONTINUOUS
 10
9.2663820841
 20
8.8564518883
 11
9.2613820841
 21
8.8364518895
  0
LINE
  5
354
100
AcDbEntity
  8
03__ASM_ALL_CURVES
100
AcDbLine
 62
4
  6
CONTINUOUS
 10
9.4413820841
 20
9.5687852232
 11
9.4363820841
 21
9.5554518895
  0
LINE
  5
355
100
AcDbEntity
  8
03__ASM_ALL_CURVES
100
AcDbLine
 62
4
  6
CONTINUOUS
 10
9.1863820841
 20
8.8764518907
 11
9.1963820841
 21
8.9031185558
  0
LINE
  5
356
100
AcDbEntity
  8
03__ASM_ALL_CURVES
100
AcDbLine
 62
4
  6
CONTINUOUS
 10
9.5213820841
 20
9.5687852232
 11
9.5163820841
 21
9.5554518895
  0
LINE
  5
357
100
AcDbEntity
  8
03__ASM_ALL_CURVES
100
AcDbLine
 62
4
  6
CONTINUOUS
 10
9.4363820841
 20
9.5554518895
 11
9.4313820841
 21
9.5487852226
  0
LINE
  5
358
100
AcDbEntity
  8
03__ASM_ALL_CURVES
100
AcDbLine
 62
4
  6
CONTINUOUS
 10
9.5163820841
 20
9.5554518895
 11
9.5113820841
 21
9.5487852226
  0
LINE
  5
359
100
AcDbEntity
  8
03__ASM_ALL_CURVES
100
AcDbLine
 62
4
  6
CONTINUOUS
 10
9.0763820841
 20
8.8897852208
 11
9.0813820841
 21
8.8964518907
  0
LINE
  5
35A
100
AcDbEntity
  8
03__ASM_ALL_CURVES
100
AcDbLine
 62
4
  6
CONTINUOUS
 10
9.5813820841
 20
9.5554518895
 11
9.5713820841
 21
9.5421185558
  0
LINE
  5
35B
100
AcDbEntity
  8
03__ASM_ALL_CURVES
100
AcDbLine
 62
4
  6
CONTINUOUS
 10
9.0913820841
 20
8.8564518883
 11
9.0813820841
 21
8.8431185558
  0
LINE
  5
35C
100
AcDbEntity
  8
03__ASM_ALL_CURVES
100
AcDbLine
 62
4
  6
CONTINUOUS
 10
9.1163820841
 20
8.8764518907
 11
9.1113820841
 21
8.8697852208
  0
LINE
  5
35D
100
AcDbEntity
  8
03__ASM_ALL_CURVES
100
AcDbLine
 62
4
  6
CONTINUOUS
 10
9.4813820841
 20
9.5887852208
 11
9.4913820841
 21
9.5954518907
  0
LINE
  5
35E
100
AcDbEntity
  8
03__ASM_ALL_CURVES
100
AcDbLine
 62
4
  6
CONTINUOUS
 10
9.4313820841
 20
9.5487852226
 11
9.4213820841
 21
9.5421185558
  0
LINE
  5
35F
100
AcDbEntity
  8
03__ASM_ALL_CURVES
100
AcDbLine
 62
4
  6
CONTINUOUS
 10
8.3863820841
 20
8.8297852226
 11
8.3763820841
 21
8.8231185558
  0
LINE
  5
360
100
AcDbEntity
  8
03__ASM_ALL_CURVES
100
AcDbLine
 62
4
  6
CONTINUOUS
 10
8.5263820841
 20
8.8964518907
 11
8.5363820841
 21
8.9031185558
  0
LINE
  5
361
100
AcDbEntity
  8
03__ASM_ALL_CURVES
100
AcDbLine
 62
4
  6
CONTINUOUS
 10
9.5113820841
 20
9.5487852226
 11
9.5013820841
 21
9.5421185558
  0
LINE
  5
362
100
AcDbEntity
  8
03__ASM_ALL_CURVES
100
AcDbLine
 62
4
  6
CONTINUOUS
 10
8.6013820841
 20
8.8964518907
 11
8.6113820841
 21
8.9031185558
  0
LINE
  5
363
100
AcDbEntity
  8
03__ASM_ALL_CURVES
100
AcDbLine
 62
4
  6
CONTINUOUS
 10
8.5463820841
 20
8.8297852226
 11
8.5363820841
 21
8.8231185558
  0
LINE
  5
364
100
AcDbEntity
  8
03__ASM_ALL_CURVES
100
AcDbLine
 62
4
  6
CONTINUOUS
 10
8.6013820841
 20
8.8631185558
 11
8.6113820841
 21
8.8697852208
  0
LINE
  5
365
100
AcDbEntity
  8
03__ASM_ALL_CURVES
100
AcDbLine
 62
4
  6
CONTINUOUS
 10
8.6313820841
 20
8.8764518907
 11
8.6213820841
 21
8.8697852208
  0
LINE
  5
366
100
AcDbEntity
  8
03__ASM_ALL_CURVES
100
AcDbLine
 62
4
  6
CONTINUOUS
 10
8.6313820841
 20
8.8297852226
 11
8.6213820841
 21
8.8231185558
  0
LINE
  5
367
100
AcDbEntity
  8
0
100
AcDbLine
 62
7
  6
CONTINUOUS
 10
11.1098981181
 20
8.0836185558
 11
11.0802843318
 21
8.0836185558
  0
LINE
  5
368
100
AcDbEntity
  8
0
100
AcDbLine
 62
7
  6
CONTINUOUS
 10
10.2348660501
 20
8.0836185558
 11
10.2644798364
 21
8.0836185558
  0
LINE
  5
369
100
AcDbEntity
  8
0
100
AcDbLine
 62
7
  6
CONTINUOUS
 10
10.6427682978
 20
8.0836185558
 11
10.7019958704
 21
8.0836185558
  0
LINE
  5
36A
100
AcDbEntity
  8
0
100
AcDbLine
 62
7
  6
CONTINUOUS
 10
10.2438820841
 20
8.1441185558
 11
11.1008820841
 21
8.1441185558
  0
LINE
  5
36B
100
AcDbEntity
  8
03__ASM_ALL_CURVES
100
AcDbLine
 62
4
  6
CONTINUOUS
 10
9.9363820841
 20
8.1751185558
 11
9.6963820841
 21
8.1751185558
  0
LINE
  5
36C
100
AcDbEntity
  8
0
100
AcDbLine
 62
7
  6
CONTINUOUS
 10
10.0163820841
 20
8.1751185558
 11
11.2663820841
 21
8.1751185558
  0
LINE
  5
36D
100
AcDbEntity
  8
0
100
AcDbLine
 62
7
  6
CONTINUOUS
 10
10.2345506722
 20
7.6806400235
 11
10.2423820841
 21
7.6761185558
  0
LINE
  5
36E
100
AcDbEntity
  8
03__ASM_ALL_CURVES
100
AcDbLine
 62
4
  6
CONTINUOUS
 10
9.4963820841
 20
8.1351185558
 11
9.4863820841
 21
8.1417852226
  0
LINE
  5
36F
100
AcDbEntity
  8
03__ASM_ALL_CURVES
100
AcDbLine
 62
4
  6
CONTINUOUS
 10
8.3763820841
 20
8.9031185558
 11
8.3863820841
 21
8.8964518907
  0
LINE
  5
370
100
AcDbEntity
  8
03__ASM_ALL_CURVES
100
AcDbLine
 62
4
  6
CONTINUOUS
 10
8.5363820841
 20
8.8231185558
 11
8.5263820841
 21
8.8297852226
  0
LINE
  5
371
100
AcDbEntity
  8
03__ASM_ALL_CURVES
100
AcDbLine
 62
4
  6
CONTINUOUS
 10
9.4963820841
 20
8.2151185558
 11
9.5063820841
 21
8.2084518907
  0
LINE
  5
372
100
AcDbEntity
  8
03__ASM_ALL_CURVES
100
AcDbLine
 62
4
  6
CONTINUOUS
 10
8.6113820841
 20
8.8231185558
 11
8.6013820841
 21
8.8297852226
  0
LINE
  5
373
100
AcDbEntity
  8
03__ASM_ALL_CURVES
100
AcDbLine
 62
4
  6
CONTINUOUS
 10
8.5363820841
 20
8.9031185558
 11
8.5463820841
 21
8.8964518907
  0
LINE
  5
374
100
AcDbEntity
  8
03__ASM_ALL_CURVES
100
AcDbLine
 62
4
  6
CONTINUOUS
 10
8.6113820841
 20
8.8697852208
 11
8.6013820841
 21
8.8764518907
  0
LINE
  5
375
100
AcDbEntity
  8
03__ASM_ALL_CURVES
100
AcDbLine
 62
4
  6
CONTINUOUS
 10
8.6213820841
 20
8.8697852208
 11
8.6313820841
 21
8.8631185558
  0
LINE
  5
376
100
AcDbEntity
  8
03__ASM_ALL_CURVES
100
AcDbLine
 62
4
  6
CONTINUOUS
 10
8.6213820841
 20
8.9031185558
 11
8.6313820841
 21
8.8964518907
  0
LINE
  5
377
100
AcDbEntity
  8
03__ASM_ALL_CURVES
100
AcDbLine
 62
4
  6
CONTINUOUS
 10
9.4863820841
 20
8.1417852226
 11
9.4813820841
 21
8.1484518895
  0
LINE
  5
378
100
AcDbEntity
  8
03__ASM_ALL_CURVES
100
AcDbLine
 62
4
  6
CONTINUOUS
 10
9.0288820841
 20
8.8331185561
 11
9.0363820841
 21
8.8231185558
  0
LINE
  5
379
100
AcDbEntity
  8
03__ASM_ALL_CURVES
100
AcDbLine
 62
4
  6
CONTINUOUS
 10
9.5063820841
 20
8.2084518907
 11
9.5113820841
 21
8.2017852208
  0
LINE
  5
37A
100
AcDbEntity
  8
03__ASM_ALL_CURVES
100
AcDbLine
 62
4
  6
CONTINUOUS
 10
9.1113820841
 20
8.8964518907
 11
9.1163820841
 21
8.8897852208
  0
LINE
  5
37B
100
AcDbEntity
  8
03__ASM_ALL_CURVES
100
AcDbLine
 62
4
  6
CONTINUOUS
 10
10.6390487492
 20
6.3641185558
 11
10.6323820841
 21
6.3741185558
  0
LINE
  5
37C
100
AcDbEntity
  8
03__ASM_ALL_CURVES
100
AcDbLine
 62
4
  6
CONTINUOUS
 10
10.7057154172
 20
6.3841185558
 11
10.7123820841
 21
6.3741185558
  0
LINE
  5
37D
100
AcDbEntity
  8
03__ASM_ALL_CURVES
100
AcDbLine
 62
4
  6
CONTINUOUS
 10
10.665715419
 20
6.5191185558
 11
10.6590487492
 21
6.5291185558
  0
LINE
  5
37E
100
AcDbEntity
  8
03__ASM_ALL_CURVES
100
AcDbLine
 62
4
  6
CONTINUOUS
 10
10.6390487492
 20
6.6041185558
 11
10.6323820841
 21
6.6141185558
  0
LINE
  5
37F
100
AcDbEntity
  8
03__ASM_ALL_CURVES
100
AcDbLine
 62
4
  6
CONTINUOUS
 10
10.7057154172
 20
6.5491185558
 11
10.7123820841
 21
6.5391185558
  0
LINE
  5
380
100
AcDbEntity
  8
03__ASM_ALL_CURVES
100
AcDbLine
 62
4
  6
CONTINUOUS
 10
9.9830487492
 20
7.6451185558
 11
9.9763820841
 21
7.6551185558
  0
LINE
  5
381
100
AcDbEntity
  8
03__ASM_ALL_CURVES
100
AcDbLine
 62
4
  6
CONTINUOUS
 10
8.9213820841
 20
9.5554518895
 11
8.9163820841
 21
9.5687852232
  0
LINE
  5
382
100
AcDbEntity
  8
03__ASM_ALL_CURVES
100
AcDbLine
 62
4
  6
CONTINUOUS
 10
9.4813820841
 20
8.1484518895
 11
9.4763820841
 21
8.1617852232
  0
LINE
  5
383
100
AcDbEntity
  8
03__ASM_ALL_CURVES
100
AcDbLine
 62
4
  6
CONTINUOUS
 10
8.9513820841
 20
9.6087852208
 11
8.9563820841
 21
9.5954518907
  0
LINE
  5
384
100
AcDbEntity
  8
03__ASM_ALL_CURVES
100
AcDbLine
 62
4
  6
CONTINUOUS
 10
9.5113820841
 20
8.2017852208
 11
9.5163820841
 21
8.1884518907
  0
LINE
  5
385
100
AcDbEntity
  8
03__ASM_ALL_CURVES
100
AcDbLine
 62
4
  6
CONTINUOUS
 10
9.0863820841
 20
9.5754518883
 11
9.0913820841
 21
9.5554518895
  0
LINE
  5
386
100
AcDbEntity
  8
03__ASM_ALL_CURVES
100
AcDbLine
 62
4
  6
CONTINUOUS
 10
9.2613820841
 20
8.8897852208
 11
9.2663820841
 21
8.8697852208
  0
LINE
  5
387
100
AcDbEntity
  8
03__ASM_ALL_CURVES
100
AcDbLine
 62
4
  6
CONTINUOUS
 10
9.3488820841
 20
9.5421185558
 11
9.3488820841
 21
9.5521185561
  0
LINE
  5
388
100
AcDbEntity
  8
03__ASM_ALL_CURVES
100
AcDbLine
 62
4
  6
CONTINUOUS
 10
9.3488820841
 20
11.8351185558
 11
9.3488820841
 21
11.8451185561
  0
LINE
  5
389
100
AcDbEntity
  8
03__ASM_ALL_CURVES
100
AcDbLine
 62
4
  6
CONTINUOUS
 10
9.3867530841
 20
6.9425515558
 11
9.3867530841
 21
6.8456855558
  0
LINE
  5
38A
100
AcDbEntity
  8
03__ASM_ALL_CURVES
100
AcDbLine
 62
4
  6
CONTINUOUS
 10
9.4063820841
 20
8.8697852208
 11
9.4063820841
 21
8.8564518883
  0
LINE
  5
38B
100
AcDbEntity
  8
03__ASM_ALL_CURVES
100
AcDbLine
 62
4
  6
CONTINUOUS
 10
9.4363820841
 20
11.8884518907
 11
9.4363820841
 21
11.8617852232
  0
LINE
  5
38C
100
AcDbEntity
  8
03__ASM_ALL_CURVES
100
AcDbLine
 62
4
  6
CONTINUOUS
 10
9.4713820841
 20
11.8551185558
 11
9.4713820841
 21
11.8617852232
  0
LINE
  5
38D
100
AcDbEntity
  8
03__ASM_ALL_CURVES
100
AcDbLine
 62
4
  6
CONTINUOUS
 10
9.4763820841
 20
8.9031185558
 11
9.4763820841
 21
8.8231185558
  0
LINE
  5
38E
100
AcDbEntity
  8
03__ASM_ALL_CURVES
100
AcDbLine
 62
4
  6
CONTINUOUS
 10
9.4763820841
 20
8.1617852232
 11
9.4763820841
 21
8.1884518907
  0
LINE
  5
38F
100
AcDbEntity
  8
03__ASM_ALL_CURVES
100
AcDbLine
 62
4
  6
CONTINUOUS
 10
9.4763820841
 20
11.8951185558
 11
9.4763820841
 21
11.9017852208
  0
LINE
  5
390
100
AcDbEntity
  8
03__ASM_ALL_CURVES
100
AcDbLine
 62
4
  6
CONTINUOUS
 10
9.4957273341
 20
6.9021907205
 11
9.4957273341
 21
6.8860463881
  0
LINE
  5
391
100
AcDbEntity
  8
03__ASM_ALL_CURVES
100
AcDbLine
 62
4
  6
CONTINUOUS
 10
9.5163820841
 20
11.9017852208
 11
9.5163820841
 21
11.8951185558
  0
LINE
  5
392
100
AcDbEntity
  8
03__ASM_ALL_CURVES
100
AcDbLine
 62
4
  6
CONTINUOUS
 10
9.5163820841
 20
8.1884518907
 11
9.5163820841
 21
8.1617852232
  0
LINE
  5
393
100
AcDbEntity
  8
03__ASM_ALL_CURVES
100
AcDbLine
 62
4
  6
CONTINUOUS
 10
9.5213820841
 20
11.8617852232
 11
9.5213820841
 21
11.8551185558
  0
LINE
  5
394
100
AcDbEntity
  8
03__ASM_ALL_CURVES
100
AcDbLine
 62
4
  6
CONTINUOUS
 10
9.5563820841
 20
8.8897852208
 11
9.5563820841
 21
8.8831185558
  0
LINE
  5
395
100
AcDbEntity
  8
03__ASM_ALL_CURVES
100
AcDbLine
 62
4
  6
CONTINUOUS
 10
9.4863820841
 20
9.6221185558
 11
9.4813820841
 21
9.5887852208
  0
LINE
  5
396
100
AcDbEntity
  8
03__ASM_ALL_CURVES
100
AcDbLine
 62
4
  6
CONTINUOUS
 10
9.2777788341
 20
6.9425515558
 11
9.2717247091
 21
6.9021907205
  0
LINE
  5
397
100
AcDbEntity
  8
0
100
AcDbLine
 62
7
  6
CONTINUOUS
 10
9.9482708818
 20
11.6457145601
 11
9.9353820841
 21
11.5726185558
  0
LINE
  5
398
100
AcDbEntity
  8
03__ASM_ALL_CURVES
100
AcDbLine
 62
4
  6
CONTINUOUS
 10
8.8963689591
 20
6.9264072205
 11
8.8903148341
 21
6.9021907205
  0
LINE
  5
399
100
AcDbEntity
  8
03__ASM_ALL_CURVES
100
AcDbLine
 62
4
  6
CONTINUOUS
 10
9.4113820841
 20
8.8897852208
 11
9.4063820841
 21
8.8697852208
  0
LINE
  5
39A
100
AcDbEntity
  8
03__ASM_ALL_CURVES
100
AcDbLine
 62
4
  6
CONTINUOUS
 10
9.5863820841
 20
9.5754518883
 11
9.5813820841
 21
9.5554518895
  0
LINE
  5
39B
100
AcDbEntity
  8
03__ASM_ALL_CURVES
100
AcDbLine
 62
4
  6
CONTINUOUS
 10
9.2613820841
 20
8.8364518895
 11
9.2513820841
 21
8.8231185558
  0
LINE
  5
39C
100
AcDbEntity
  8
03__ASM_ALL_CURVES
100
AcDbLine
 62
4
  6
CONTINUOUS
 10
9.4213820841
 20
8.9031185558
 11
9.4113820841
 21
8.8897852208
  0
LINE
  5
39D
100
AcDbEntity
  8
03__ASM_ALL_CURVES
100
AcDbLine
 62
4
  6
CONTINUOUS
 10
9.0813820841
 20
8.8964518907
 11
9.0913820841
 21
8.9031185558
  0
LINE
  5
39E
100
AcDbEntity
  8
03__ASM_ALL_CURVES
100
AcDbLine
 62
4
  6
CONTINUOUS
 10
9.1113820841
 20
8.8697852208
 11
9.0913820841
 21
8.8564518883
  0
LINE
  5
39F
100
AcDbEntity
  8
03__ASM_ALL_CURVES
100
AcDbLine
 62
4
  6
CONTINUOUS
 10
8.5213820841
 20
8.8631185558
 11
8.5363820841
 21
8.8697852208
  0
LINE
  5
3A0
100
AcDbEntity
  8
03__ASM_ALL_CURVES
100
AcDbLine
 62
4
  6
CONTINUOUS
 10
8.5363820841
 20
8.8697852208
 11
8.5513820841
 21
8.8631185558
  0
LINE
  5
3A1
100
AcDbEntity
  8
03__ASM_ALL_CURVES
100
AcDbLine
 62
4
  6
CONTINUOUS
 10
9.1013820841
 20
8.9031185558
 11
9.1113820841
 21
8.8964518907
  0
LINE
  5
3A2
100
AcDbEntity
  8
03__ASM_ALL_CURVES
100
AcDbLine
 62
4
  6
CONTINUOUS
 10
9.2513820841
 20
8.9031185558
 11
9.2613820841
 21
8.8897852208
  0
LINE
  5
3A3
100
AcDbEntity
  8
03__ASM_ALL_CURVES
100
AcDbLine
 62
4
  6
CONTINUOUS
 10
8.7888820841
 20
9.5521185561
 11
8.7963820841
 21
9.5421185558
  0
LINE
  5
3A4
100
AcDbEntity
  8
03__ASM_ALL_CURVES
100
AcDbLine
 62
4
  6
CONTINUOUS
 10
9.4113820841
 20
8.8364518895
 11
9.4213820841
 21
8.8231185558
  0
LINE
  5
3A5
100
AcDbEntity
  8
03__ASM_ALL_CURVES
100
AcDbLine
 62
4
  6
CONTINUOUS
 10
8.9263820841
 20
9.5487852226
 11
8.9213820841
 21
9.5554518895
  0
LINE
  5
3A6
100
AcDbEntity
  8
03__ASM_ALL_CURVES
100
AcDbLine
 62
4
  6
CONTINUOUS
 10
10.7057154172
 20
6.6241185558
 11
10.7123820841
 21
6.6141185558
  0
LINE
  5
3A7
100
AcDbEntity
  8
03__ASM_ALL_CURVES
100
AcDbLine
 62
4
  6
CONTINUOUS
 10
10.0497154172
 20
7.6651185558
 11
10.0563820841
 21
7.6551185558
  0
LINE
  5
3A8
100
AcDbEntity
  8
03__ASM_ALL_CURVES
100
AcDbLine
 62
4
  6
CONTINUOUS
 10
11.2330487492
 20
5.9591185558
 11
11.2263820841
 21
5.9691185558
  0
LINE
  5
3A9
100
AcDbEntity
  8
03__ASM_ALL_CURVES
100
AcDbLine
 62
4
  6
CONTINUOUS
 10
11.259715419
 20
5.9891185558
 11
11.2730487516
 21
5.9691185558
  0
LINE
  5
3AA
100
AcDbEntity
  8
03__ASM_ALL_CURVES
100
AcDbLine
 62
4
  6
CONTINUOUS
 10
11.259715419
 20
6.0391185558
 11
11.2530487492
 21
6.0491185558
  0
LINE
  5
3AB
100
AcDbEntity
  8
03__ASM_ALL_CURVES
100
AcDbLine
 62
4
  6
CONTINUOUS
 10
11.2997154172
 20
6.0691185558
 11
11.3063820841
 21
6.0591185558
  0
LINE
  5
3AC
100
AcDbEntity
  8
03__ASM_ALL_CURVES
100
AcDbLine
 62
4
  6
CONTINUOUS
 10
10.6723820841
 20
5.9591185558
 11
10.665715419
 21
5.9741185558
  0
LINE
  5
3AD
100
AcDbEntity
  8
03__ASM_ALL_CURVES
100
AcDbLine
 62
4
  6
CONTINUOUS
 10
9.4063820841
 20
8.8564518883
 11
9.4113820841
 21
8.8364518895
  0
LINE
  5
3AE
100
AcDbEntity
  8
03__ASM_ALL_CURVES
100
AcDbLine
 62
4
  6
CONTINUOUS
 10
9.5863820841
 20
11.8817852208
 11
9.5863820841
 21
11.8684518883
  0
LINE
  5
3AF
100
AcDbEntity
  8
03__ASM_ALL_CURVES
100
AcDbLine
 62
4
  6
CONTINUOUS
 10
9.5863820841
 20
9.5887852208
 11
9.5863820841
 21
9.5754518883
  0
LINE
  5
3B0
100
AcDbEntity
  8
03__ASM_ALL_CURVES
100
AcDbLine
 62
4
  6
CONTINUOUS
 10
9.5963820841
 20
8.8497852232
 11
9.5963820841
 21
8.8364518895
  0
LINE
  5
3B1
100
AcDbEntity
  8
03__ASM_ALL_CURVES
100
AcDbLine
 62
4
  6
CONTINUOUS
 10
9.6663820841
 20
8.8697852208
 11
9.6663820841
 21
8.8564518883
  0
LINE
  5
3B2
100
AcDbEntity
  8
03__ASM_ALL_CURVES
100
AcDbLine
 62
4
  6
CONTINUOUS
 10
9.0779927091
 20
6.8699020558
 11
9.0719385841
 21
6.8456855558
  0
LINE
  5
3B3
100
AcDbEntity
  8
03__ASM_ALL_CURVES
100
AcDbLine
 62
4
  6
CONTINUOUS
 10
9.6663820841
 20
8.8564518883
 11
9.6613820841
 21
8.8364518895
  0
LINE
  5
3B4
100
AcDbEntity
  8
03__ASM_ALL_CURVES
100
AcDbLine
 62
4
  6
CONTINUOUS
 10
9.4763820841
 20
8.1884518907
 11
9.4813820841
 21
8.2017852208
  0
LINE
  5
3B5
100
AcDbEntity
  8
03__ASM_ALL_CURVES
100
AcDbLine
 62
4
  6
CONTINUOUS
 10
9.5163820841
 20
8.1617852232
 11
9.5113820841
 21
8.1484518895
  0
LINE
  5
3B6
100
AcDbEntity
  8
03__ASM_ALL_CURVES
100
AcDbLine
 62
4
  6
CONTINUOUS
 10
9.5613820841
 20
8.8964518907
 11
9.5563820841
 21
8.8897852208
  0
LINE
  5
3B7
100
AcDbEntity
  8
03__ASM_ALL_CURVES
100
AcDbLine
 62
4
  6
CONTINUOUS
 10
9.5963820841
 20
8.8364518895
 11
9.5913820841
 21
8.8297852226
  0
LINE
  5
3B8
100
AcDbEntity
  8
03__ASM_ALL_CURVES
100
AcDbLine
 62
4
  6
CONTINUOUS
 10
9.6613820841
 20
8.8364518895
 11
9.6513820841
 21
8.8231185558
  0
LINE
  5
3B9
100
AcDbEntity
  8
03__ASM_ALL_CURVES
100
AcDbLine
 62
4
  6
CONTINUOUS
 10
9.5713820841
 20
8.9031185558
 11
9.5613820841
 21
8.8964518907
  0
LINE
  5
3BA
100
AcDbEntity
  8
03__ASM_ALL_CURVES
100
AcDbLine
 62
4
  6
CONTINUOUS
 10
9.5913820841
 20
8.8297852226
 11
9.5813820841
 21
8.8231185558
  0
LINE
  5
3BB
100
AcDbEntity
  8
03__ASM_ALL_CURVES
100
AcDbLine
 62
4
  6
CONTINUOUS
 10
9.5713820841
 20
8.8231185558
 11
9.5613820841
 21
8.8297852226
  0
LINE
  5
3BC
100
AcDbEntity
  8
03__ASM_ALL_CURVES
100
AcDbLine
 62
4
  6
CONTINUOUS
 10
9.5613820841
 20
8.8764518907
 11
9.5913820841
 21
8.8564518883
  0
LINE
  5
3BD
100
AcDbEntity
  8
03__ASM_ALL_CURVES
100
AcDbLine
 62
4
  6
CONTINUOUS
 10
8.9463820841
 20
9.6154518907
 11
8.9513820841
 21
9.6087852208
  0
LINE
  5
3BE
100
AcDbEntity
  8
03__ASM_ALL_CURVES
100
AcDbLine
 62
4
  6
CONTINUOUS
 10
9.5613820841
 20
8.8297852226
 11
9.5513820841
 21
8.8431185558
  0
LINE
  5
3BF
100
AcDbEntity
  8
03__ASM_ALL_CURVES
100
AcDbLine
 62
4
  6
CONTINUOUS
 10
9.5563820841
 20
8.8831185558
 11
9.5613820841
 21
8.8764518907
  0
LINE
  5
3C0
100
AcDbEntity
  8
03__ASM_ALL_CURVES
100
AcDbLine
 62
4
  6
CONTINUOUS
 10
9.5913820841
 20
8.8564518883
 11
9.5963820841
 21
8.8497852232
  0
LINE
  5
3C1
100
AcDbEntity
  8
03__ASM_ALL_CURVES
100
AcDbLine
 62
4
  6
CONTINUOUS
 10
9.0913820841
 20
9.5554518895
 11
9.1013820841
 21
9.5421185558
  0
LINE
  5
3C2
100
AcDbEntity
  8
03__ASM_ALL_CURVES
100
AcDbLine
 62
4
  6
CONTINUOUS
 10
9.5963820841
 20
8.8897852208
 11
9.5913820841
 21
8.8964518907
  0
LINE
  5
3C3
100
AcDbEntity
  8
03__ASM_ALL_CURVES
100
AcDbLine
 62
4
  6
CONTINUOUS
 10
9.1613820841
 20
9.5487852226
 11
9.1563820841
 21
9.5554518895
  0
LINE
  5
3C4
100
AcDbEntity
  8
03__ASM_ALL_CURVES
100
AcDbLine
 62
4
  6
CONTINUOUS
 10
9.6513820841
 20
8.9031185558
 11
9.6613820841
 21
8.8897852208
  0
LINE
  5
3C5
100
AcDbEntity
  8
03__ASM_ALL_CURVES
100
AcDbLine
 62
4
  6
CONTINUOUS
 10
9.1913820841
 20
9.5821185558
 11
9.2013820841
 21
9.5687852232
  0
LINE
  5
3C6
100
AcDbEntity
  8
03__ASM_ALL_CURVES
100
AcDbLine
 62
4
  6
CONTINUOUS
 10
11.2330487492
 20
6.2791185558
 11
11.2263820841
 21
6.2891185558
  0
LINE
  5
3C7
100
AcDbEntity
  8
03__ASM_ALL_CURVES
100
AcDbLine
 62
4
  6
CONTINUOUS
 10
11.2530487492
 20
6.3091185558
 11
11.259715419
 21
6.2991185558
  0
LINE
  5
3C8
100
AcDbEntity
  8
03__ASM_ALL_CURVES
100
AcDbLine
 62
4
  6
CONTINUOUS
 10
11.2997154172
 20
6.3091185558
 11
11.3063820841
 21
6.2991185558
  0
LINE
  5
3C9
100
AcDbEntity
  8
03__ASM_ALL_CURVES
100
AcDbLine
 62
4
  6
CONTINUOUS
 10
11.259715419
 20
6.5991185558
 11
11.2530487492
 21
6.6091185558
  0
LINE
  5
3CA
100
AcDbEntity
  8
03__ASM_ALL_CURVES
100
AcDbLine
 62
4
  6
CONTINUOUS
 10
10.6723820841
 20
6.3591185558
 11
10.665715419
 21
6.3741185558
  0
LINE
  5
3CB
100
AcDbEntity
  8
03__ASM_ALL_CURVES
100
AcDbLine
 62
4
  6
CONTINUOUS
 10
9.2763820841
 20
9.5821185558
 11
9.2813820841
 21
9.5687852232
  0
LINE
  5
3CC
100
AcDbEntity
  8
03__ASM_ALL_CURVES
100
AcDbLine
 62
4
  6
CONTINUOUS
 10
9.4363820841
 20
9.5821185558
 11
9.4413820841
 21
9.5687852232
  0
LINE
  5
3CD
100
AcDbEntity
  8
03__ASM_ALL_CURVES
100
AcDbLine
 62
4
  6
CONTINUOUS
 10
9.5163820841
 20
9.5821185558
 11
9.5213820841
 21
9.5687852232
  0
LINE
  5
3CE
100
AcDbEntity
  8
03__ASM_ALL_CURVES
100
AcDbLine
 62
4
  6
CONTINUOUS
 10
9.6613820841
 20
8.8897852208
 11
9.6663820841
 21
8.8697852208
  0
LINE
  5
3CF
100
AcDbEntity
  8
03__ASM_ALL_CURVES
100
AcDbLine
 62
4
  6
CONTINUOUS
 10
9.5813820841
 20
9.6087852208
 11
9.5863820841
 21
9.5887852208
  0
LINE
  5
3D0
100
AcDbEntity
  8
0
100
AcDbLine
 62
7
  6
CONTINUOUS
 10
9.9353820841
 20
10.6276240864
 11
9.9353820841
 21
10.6608931916
  0
LINE
  5
3D1
100
AcDbEntity
  8
0
100
AcDbLine
 62
7
  6
CONTINUOUS
 10
9.9353820841
 20
10.6909215524
 11
9.9353820841
 21
11.5726130251
  0
LINE
  5
3D2
100
AcDbEntity
  8
0
100
AcDbLine
 62
7
  6
CONTINUOUS
 10
10.0163820841
 20
11.8751186034
 11
10.0163820841
 21
8.1751185558
  0
LINE
  5
3D3
100
AcDbEntity
  8
03__ASM_ALL_CURVES
100
AcDbLine
 62
4
  6
CONTINUOUS
 10
10.0163820841
 20
8.0951185558
 11
10.0163820841
 21
7.8551185558
  0
LINE
  5
3D4
100
AcDbEntity
  8
03__ASM_ALL_CURVES
100
AcDbLine
 62
4
  6
CONTINUOUS
 10
9.4957273341
 20
6.8860463881
 11
9.4896732091
 21
6.8618298896
  0
LINE
  5
3D5
100
AcDbEntity
  8
03__ASM_ALL_CURVES
100
AcDbLine
 62
4
  6
CONTINUOUS
 10
9.4813820841
 20
8.2017852208
 11
9.4863820841
 21
8.2084518907
  0
LINE
  5
3D6
100
AcDbEntity
  8
03__ASM_ALL_CURVES
100
AcDbLine
 62
4
  6
CONTINUOUS
 10
8.5876085841
 20
6.9264072205
 11
8.5936627091
 21
6.934479391
  0
LINE
  5
3D7
100
AcDbEntity
  8
03__ASM_ALL_CURVES
100
AcDbLine
 62
4
  6
CONTINUOUS
 10
9.5113820841
 20
8.1484518895
 11
9.5063820841
 21
8.1417852226
  0
LINE
  5
3D8
100
AcDbEntity
  8
0
100
AcDbLine
 62
7
  6
CONTINUOUS
 10
11.8253820841
 20
10.7941185558
 11
11.8053820841
 21
10.7741185558
  0
LINE
  5
3D9
100
AcDbEntity
  8
03__ASM_ALL_CURVES
100
AcDbLine
 62
4
  6
CONTINUOUS
 10
9.5813820841
 20
8.8231185558
 11
9.5713820841
 21
8.8231185558
  0
LINE
  5
3DA
100
AcDbEntity
  8
03__ASM_ALL_CURVES
100
AcDbLine
 62
4
  6
CONTINUOUS
 10
9.0363820841
 20
8.8231185558
 11
9.0288820841
 21
8.8231185558
  0
LINE
  5
3DB
100
AcDbEntity
  8
03__ASM_ALL_CURVES
100
AcDbLine
 62
4
  6
CONTINUOUS
 10
8.6213820841
 20
8.8231185558
 11
8.6113820841
 21
8.8231185558
  0
LINE
  5
3DC
100
AcDbEntity
  8
03__ASM_ALL_CURVES
100
AcDbLine
 62
4
  6
CONTINUOUS
 10
8.4763820841
 20
8.8231185558
 11
8.4688820841
 21
8.8231185558
  0
LINE
  5
3DD
100
AcDbEntity
  8
03__ASM_ALL_CURVES
100
AcDbLine
 62
4
  6
CONTINUOUS
 10
9.0763820841
 20
8.8231185558
 11
9.1163820841
 21
8.8231185558
  0
LINE
  5
3DE
100
AcDbEntity
  8
03__ASM_ALL_CURVES
100
AcDbLine
 62
4
  6
CONTINUOUS
 10
9.4763820841
 20
8.8231185558
 11
9.5163820841
 21
8.8231185558
  0
LINE
  5
3DF
100
AcDbEntity
  8
03__ASM_ALL_CURVES
100
AcDbLine
 62
4
  6
CONTINUOUS
 10
9.9363820841
 20
8.8631185558
 11
9.6963820841
 21
8.8631185558
  0
LINE
  5
3E0
100
AcDbEntity
  8
03__ASM_ALL_CURVES
100
AcDbLine
 62
4
  6
CONTINUOUS
 10
8.6113820841
 20
8.8697852208
 11
8.6213820841
 21
8.8697852208
  0
LINE
  5
3E1
100
AcDbEntity
  8
03__ASM_ALL_CURVES
100
AcDbLine
 62
4
  6
CONTINUOUS
 10
9.5913820841
 20
8.8964518907
 11
9.5813820841
 21
8.9031185558
  0
LINE
  5
3E2
100
AcDbEntity
  8
03__ASM_ALL_CURVES
100
AcDbLine
 62
4
  6
CONTINUOUS
 10
8.9363820841
 20
9.5421185558
 11
8.9263820841
 21
9.5487852226
  0
LINE
  5
3E3
100
AcDbEntity
  8
03__ASM_ALL_CURVES
100
AcDbLine
 62
4
  6
CONTINUOUS
 10
9.1913820841
 20
9.6154518907
 11
9.1963820841
 21
9.6087852208
  0
LINE
  5
3E4
100
AcDbEntity
  8
03__ASM_ALL_CURVES
100
AcDbLine
 62
4
  6
CONTINUOUS
 10
9.2413820841
 20
9.5487852226
 11
9.2363820841
 21
9.5554518895
  0
LINE
  5
3E5
100
AcDbEntity
  8
03__ASM_ALL_CURVES
100
AcDbLine
 62
4
  6
CONTINUOUS
 10
9.2713820841
 20
9.5887852208
 11
9.2763820841
 21
9.5821185558
  0
LINE
  5
3E6
100
AcDbEntity
  8
03__ASM_ALL_CURVES
100
AcDbLine
 62
4
  6
CONTINUOUS
 10
9.3488820841
 20
9.5521185561
 11
9.3563820841
 21
9.5421185558
  0
LINE
  5
3E7
100
AcDbEntity
  8
03__ASM_ALL_CURVES
100
AcDbLine
 62
4
  6
CONTINUOUS
 10
9.4013820841
 20
9.5487852226
 11
9.3963820841
 21
9.5554518895
  0
LINE
  5
3E8
100
AcDbEntity
  8
03__ASM_ALL_CURVES
100
AcDbLine
 62
4
  6
CONTINUOUS
 10
9.4313820841
 20
9.5887852208
 11
9.4363820841
 21
9.5821185558
  0
LINE
  5
3E9
100
AcDbEntity
  8
03__ASM_ALL_CURVES
100
AcDbLine
 62
4
  6
CONTINUOUS
 10
9.4813820841
 20
9.5487852226
 11
9.4763820841
 21
9.5554518895
  0
LINE
  5
3EA
100
AcDbEntity
  8
03__ASM_ALL_CURVES
100
AcDbLine
 62
4
  6
CONTINUOUS
 10
11.2997154172
 20
6.6291185558
 11
11.3063820841
 21
6.6191185558
  0
LINE
  5
3EB
100
AcDbEntity
  8
03__ASM_ALL_CURVES
100
AcDbLine
 62
4
  6
CONTINUOUS
 10
9.0863820841
 20
11.8684518883
 11
9.0913820841
 21
11.8484518895
  0
LINE
  5
3EC
100
AcDbEntity
  8
0
100
AcDbLine
 62
7
  6
CONTINUOUS
 10
10.2348660501
 20
7.6804621679
 11
10.2348660501
 21
8.1351027026
  0
LINE
  5
3ED
100
AcDbEntity
  8
0
100
AcDbLine
 62
7
  6
CONTINUOUS
 10
10.2438820841
 20
8.1751185558
 11
10.2438820841
 21
8.1441185558
  0
LINE
  5
3EE
100
AcDbEntity
  8
0
100
AcDbLine
 62
7
  6
CONTINUOUS
 10
10.2644798364
 20
8.0836185558
 11
10.2644798364
 21
7.7101822216
  0
LINE
  5
3EF
100
AcDbEntity
  8
03__ASM_ALL_CURVES
100
AcDbLine
 62
4
  6
CONTINUOUS
 10
9.3201577091
 20
6.8779742234
 11
9.3141035841
 21
6.8618298896
  0
LINE
  5
3F0
100
AcDbEntity
  8
03__ASM_ALL_CURVES
100
AcDbLine
 62
4
  6
CONTINUOUS
 10
8.6057709591
 20
6.8860463881
 11
8.5936627091
 21
6.8699020558
  0
LINE
  5
3F1
100
AcDbEntity
  8
03__ASM_ALL_CURVES
100
AcDbLine
 62
4
  6
CONTINUOUS
 10
8.6360415841
 20
6.910262891
 11
8.6299874591
 21
6.9021907205
  0
LINE
  5
3F2
100
AcDbEntity
  8
03__ASM_ALL_CURVES
100
AcDbLine
 62
4
  6
CONTINUOUS
 10
8.6844745841
 20
6.9264072205
 11
8.6905287091
 21
6.934479391
  0
LINE
  5
3F3
100
AcDbEntity
  8
03__ASM_ALL_CURVES
100
AcDbLine
 62
4
  6
CONTINUOUS
 10
8.6784204591
 20
6.8779742234
 11
8.6905287091
 21
6.8941185558
  0
LINE
  5
3F4
100
AcDbEntity
  8
03__ASM_ALL_CURVES
100
AcDbLine
 62
4
  6
CONTINUOUS
 10
8.7329075841
 20
6.9183350558
 11
8.7268534591
 21
6.910262891
  0
LINE
  5
3F5
100
AcDbEntity
  8
03__ASM_ALL_CURVES
100
AcDbLine
 62
4
  6
CONTINUOUS
 10
8.7389617091
 20
6.8699020558
 11
8.7268534591
 21
6.8537577227
  0
LINE
  5
3F6
100
AcDbEntity
  8
03__ASM_ALL_CURVES
100
AcDbLine
 62
4
  6
CONTINUOUS
 10
8.9084772091
 20
6.9425515558
 11
8.8963689591
 21
6.9264072205
  0
LINE
  5
3F7
100
AcDbEntity
  8
03__ASM_ALL_CURVES
100
AcDbLine
 62
4
  6
CONTINUOUS
 10
9.4863820841
 20
8.2084518907
 11
9.4963820841
 21
8.2151185558
  0
LINE
  5
3F8
100
AcDbEntity
  8
03__ASM_ALL_CURVES
100
AcDbLine
 62
4
  6
CONTINUOUS
 10
9.5813820841
 20
8.9031185558
 11
9.5713820841
 21
8.9031185558
  0
LINE
  5
3F9
100
AcDbEntity
  8
03__ASM_ALL_CURVES
100
AcDbLine
 62
4
  6
CONTINUOUS
 10
9.1963820841
 20
8.9031185558
 11
9.1563820841
 21
8.9031185558
  0
LINE
  5
3FA
100
AcDbEntity
  8
03__ASM_ALL_CURVES
100
AcDbLine
 62
4
  6
CONTINUOUS
 10
8.9563820841
 20
8.9031185558
 11
8.9163820841
 21
8.9031185558
  0
LINE
  5
3FB
100
AcDbEntity
  8
03__ASM_ALL_CURVES
100
AcDbLine
 62
4
  6
CONTINUOUS
 10
8.6113820841
 20
8.9031185558
 11
8.6213820841
 21
8.9031185558
  0
LINE
  5
3FC
100
AcDbEntity
  8
03__ASM_ALL_CURVES
100
AcDbLine
 62
4
  6
CONTINUOUS
 10
9.0913820841
 20
8.9031185558
 11
9.1013820841
 21
8.9031185558
  0
LINE
  5
3FD
100
AcDbEntity
  8
03__ASM_ALL_CURVES
100
AcDbLine
 62
4
  6
CONTINUOUS
 10
8.9363820841
 20
9.6221185558
 11
8.9463820841
 21
9.6154518907
  0
LINE
  5
3FE
100
AcDbEntity
  8
03__ASM_ALL_CURVES
100
AcDbLine
 62
4
  6
CONTINUOUS
 10
9.1713820841
 20
9.5421185558
 11
9.1613820841
 21
9.5487852226
  0
LINE
  5
3FF
100
AcDbEntity
  8
03__ASM_ALL_CURVES
100
AcDbLine
 62
4
  6
CONTINUOUS
 10
9.2513820841
 20
9.5421185558
 11
9.2413820841
 21
9.5487852226
  0
LINE
  5
400
100
AcDbEntity
  8
03__ASM_ALL_CURVES
100
AcDbLine
 62
4
  6
CONTINUOUS
 10
9.1813820841
 20
9.5887852208
 11
9.1913820841
 21
9.5821185558
  0
LINE
  5
401
100
AcDbEntity
  8
03__ASM_ALL_CURVES
100
AcDbLine
 62
4
  6
CONTINUOUS
 10
9.1813820841
 20
9.6221185558
 11
9.1913820841
 21
9.6154518907
  0
LINE
  5
402
100
AcDbEntity
  8
03__ASM_ALL_CURVES
100
AcDbLine
 62
4
  6
CONTINUOUS
 10
9.2613820841
 20
9.5954518907
 11
9.2713820841
 21
9.5887852208
  0
LINE
  5
403
100
AcDbEntity
  8
03__ASM_ALL_CURVES
100
AcDbLine
 62
4
  6
CONTINUOUS
 10
9.4113820841
 20
9.5421185558
 11
9.4013820841
 21
9.5487852226
  0
LINE
  5
404
100
AcDbEntity
  8
0
100
AcDbLine
 62
7
  6
CONTINUOUS
 10
11.1008820841
 20
8.1441185558
 11
11.1101215055
 21
8.1348791343
  0
LINE
  5
405
100
AcDbEntity
  8
03__ASM_ALL_CURVES
100
AcDbLine
 62
4
  6
CONTINUOUS
 10
9.5113820841
 20
9.5887852208
 11
9.5163820841
 21
9.5821185558
  0
LINE
  5
406
100
AcDbEntity
  8
03__ASM_ALL_CURVES
100
AcDbLine
 62
4
  6
CONTINUOUS
 10
9.5713820841
 20
9.6221185558
 11
9.5813820841
 21
9.6087852208
  0
LINE
  5
407
100
AcDbEntity
  8
03__ASM_ALL_CURVES
100
AcDbLine
 62
4
  6
CONTINUOUS
 10
9.1613820841
 20
11.8751185558
 11
9.1563820841
 21
11.8884518907
  0
LINE
  5
408
100
AcDbEntity
  8
0
100
AcDbLine
 62
7
  6
CONTINUOUS
 10
9.9482708818
 20
10.5545225514
 11
9.9353820841
 21
10.6276185558
  0
LINE
  5
409
100
AcDbEntity
  8
0
100
AcDbLine
 62
7
  6
CONTINUOUS
 10
10.2988820841
 20
7.6761185558
 11
10.2988820841
 21
7.3251185558
  0
LINE
  5
40A
100
AcDbEntity
  8
0
100
AcDbLine
 62
7
  6
CONTINUOUS
 10
10.2988820841
 20
7.2771185558
 11
10.2988820841
 21
7.2261185558
  0
LINE
  5
40B
100
AcDbEntity
  8
0
100
AcDbLine
 62
7
  6
CONTINUOUS
 10
10.3223820841
 20
7.3121185558
 11
10.3223820841
 21
7.2901185558
  0
LINE
  5
40C
100
AcDbEntity
  8
0
100
AcDbLine
 62
7
  6
CONTINUOUS
 10
10.3478820841
 20
7.151003819
 11
10.3478820841
 21
6.9822332925
  0
LINE
  5
40D
100
AcDbEntity
  8
0
100
AcDbLine
 62
7
  6
CONTINUOUS
 10
10.3918820841
 20
9.5675195375
 11
10.3918820841
 21
9.5967174653
  0
LINE
  5
40E
100
AcDbEntity
  8
0
100
AcDbLine
 62
7
  6
CONTINUOUS
 10
10.4878820841
 20
6.9571185558
 11
10.4878820841
 21
6.9251185558
  0
LINE
  5
40F
100
AcDbEntity
  8
0
100
AcDbLine
 62
7
  6
CONTINUOUS
 10
10.5101320841
 20
7.151003819
 11
10.5101320841
 21
6.9822332925
  0
LINE
  5
410
100
AcDbEntity
  8
03__ASM_ALL_CURVES
100
AcDbLine
 62
4
  6
CONTINUOUS
 10
9.0235055841
 20
6.9183350558
 11
9.0174514591
 21
6.910262891
  0
LINE
  5
411
100
AcDbEntity
  8
03__ASM_ALL_CURVES
100
AcDbLine
 62
4
  6
CONTINUOUS
 10
9.0719385841
 20
6.9264072205
 11
9.0779927091
 21
6.934479391
  0
LINE
  5
412
100
AcDbEntity
  8
03__ASM_ALL_CURVES
100
AcDbLine
 62
4
  6
CONTINUOUS
 10
9.0295597091
 20
6.8699020558
 11
9.0174514591
 21
6.8537577227
  0
LINE
  5
413
100
AcDbEntity
  8
03__ASM_ALL_CURVES
100
AcDbLine
 62
4
  6
CONTINUOUS
 10
9.0901009591
 20
6.8860463881
 11
9.0779927091
 21
6.8699020558
  0
LINE
  5
414
100
AcDbEntity
  8
03__ASM_ALL_CURVES
100
AcDbLine
 62
4
  6
CONTINUOUS
 10
9.1203715841
 20
6.910262891
 11
9.1143174591
 21
6.9021907205
  0
LINE
  5
415
100
AcDbEntity
  8
03__ASM_ALL_CURVES
100
AcDbLine
 62
4
  6
CONTINUOUS
 10
9.5063820841
 20
8.1417852226
 11
9.4963820841
 21
8.1351185558
  0
LINE
  5
416
100
AcDbEntity
  8
0
100
AcDbLine
 62
7
  6
CONTINUOUS
 10
10.5747666391
 20
9.3186185558
 11
10.7699975654
 21
9.3186185558
  0
LINE
  5
417
100
AcDbEntity
  8
03__ASM_ALL_CURVES
100
AcDbLine
 62
4
  6
CONTINUOUS
 10
9.4913820841
 20
9.5421185558
 11
9.4813820841
 21
9.5487852226
  0
LINE
  5
418
100
AcDbEntity
  8
03__ASM_ALL_CURVES
100
AcDbLine
 62
4
  6
CONTINUOUS
 10
9.4213820841
 20
9.5954518907
 11
9.4313820841
 21
9.5887852208
  0
LINE
  5
419
100
AcDbEntity
  8
03__ASM_ALL_CURVES
100
AcDbLine
 62
4
  6
CONTINUOUS
 10
9.5013820841
 20
9.5954518907
 11
9.5113820841
 21
9.5887852208
  0
LINE
  5
41A
100
AcDbEntity
  8
03__ASM_ALL_CURVES
100
AcDbLine
 62
4
  6
CONTINUOUS
 10
9.1913820841
 20
11.9017852208
 11
9.1963820841
 21
11.8884518907
  0
LINE
  5
41B
100
AcDbEntity
  8
03__ASM_ALL_CURVES
100
AcDbLine
 62
4
  6
CONTINUOUS
 10
9.4013820841
 20
11.8751185558
 11
9.3963820841
 21
11.8884518907
  0
LINE
  5
41C
100
AcDbEntity
  8
03__ASM_ALL_CURVES
100
AcDbLine
 62
4
  6
CONTINUOUS
 10
9.5813820841
 20
11.9017852208
 11
9.5863820841
 21
11.8817852208
  0
LINE
  5
41D
100
AcDbEntity
  8
03__ASM_ALL_CURVES
100
AcDbLine
 62
4
  6
CONTINUOUS
 10
10.6323820841
 20
6.5541185558
 11
10.6323820841
 21
6.5241185558
  0
LINE
  5
41E
100
AcDbEntity
  8
03__ASM_ALL_CURVES
100
AcDbLine
 62
4
  6
CONTINUOUS
 10
10.6323820841
 20
6.0741185558
 11
10.6323820841
 21
6.0441185558
  0
LINE
  5
41F
100
AcDbEntity
  8
0
100
AcDbLine
 62
7
  6
CONTINUOUS
 10
10.6427682978
 20
8.0836185558
 11
10.6427682978
 21
7.7101822216
  0
LINE
  5
420
100
AcDbEntity
  8
03__ASM_ALL_CURVES
100
AcDbLine
 62
4
  6
CONTINUOUS
 10
10.6590487492
 20
6.0491185558
 11
10.6590487492
 21
6.0591185558
  0
LINE
  5
421
100
AcDbEntity
  8
03__ASM_ALL_CURVES
100
AcDbLine
 62
4
  6
CONTINUOUS
 10
10.6590487492
 20
6.5291185558
 11
10.6590487492
 21
6.5391185558
  0
LINE
  5
422
100
AcDbEntity
  8
03__ASM_ALL_CURVES
100
AcDbLine
 62
4
  6
CONTINUOUS
 10
10.6723820841
 20
8.0951185558
 11
10.6723820841
 21
6.8141185558
  0
LINE
  5
423
100
AcDbEntity
  8
0
100
AcDbLine
 62
7
  6
CONTINUOUS
 10
10.7019958704
 20
8.0836185558
 11
10.7019958704
 21
7.7101822216
  0
LINE
  5
424
100
AcDbEntity
  8
03__ASM_ALL_CURVES
100
AcDbLine
 62
4
  6
CONTINUOUS
 10
10.7123820841
 20
6.5391185558
 11
10.7123820841
 21
6.5291185558
  0
LINE
  5
425
100
AcDbEntity
  8
03__ASM_ALL_CURVES
100
AcDbLine
 62
4
  6
CONTINUOUS
 10
10.7123820841
 20
6.4741185558
 11
10.7123820841
 21
6.4666185558
  0
LINE
  5
426
100
AcDbEntity
  8
03__ASM_ALL_CURVES
100
AcDbLine
 62
4
  6
CONTINUOUS
 10
10.7123820841
 20
6.0591185558
 11
10.7123820841
 21
6.0491185558
  0
LINE
  5
427
100
AcDbEntity
  8
03__ASM_ALL_CURVES
100
AcDbLine
 62
4
  6
CONTINUOUS
 10
10.7123820841
 20
5.9141185558
 11
10.7123820841
 21
5.9066185558
  0
LINE
  5
428
100
AcDbEntity
  8
03__ASM_ALL_CURVES
100
AcDbLine
 62
4
  6
CONTINUOUS
 10
9.9763820841
 20
7.6551185558
 11
9.9830487492
 21
7.6651185558
  0
LINE
  5
429
100
AcDbEntity
  8
03__ASM_ALL_CURVES
100
AcDbLine
 62
4
  6
CONTINUOUS
 10
10.0563820841
 20
7.6551185558
 11
10.0497154172
 21
7.6451185558
  0
LINE
  5
42A
100
AcDbEntity
  8
03__ASM_ALL_CURVES
100
AcDbLine
 62
4
  6
CONTINUOUS
 10
9.3141035841
 20
6.8618298896
 11
9.3080494591
 21
6.8537577227
  0
LINE
  5
42B
100
AcDbEntity
  8
0
100
AcDbLine
 62
7
  6
CONTINUOUS
 10
10.2438820841
 20
8.1441185558
 11
10.2346426627
 21
8.1348791343
  0
LINE
  5
42C
100
AcDbEntity
  8
0
100
AcDbLine
 62
7
  6
CONTINUOUS
 10
10.4963202043
 20
9.3631185558
 11
10.8484440002
 21
9.3631185558
  0
LINE
  5
42D
100
AcDbEntity
  8
0
100
AcDbLine
 62
7
  6
CONTINUOUS
 10
10.9503170212
 20
9.5411185558
 11
10.3944471832
 21
9.5411185558
  0
LINE
  5
42E
100
AcDbEntity
  8
03__ASM_ALL_CURVES
100
AcDbLine
 62
4
  6
CONTINUOUS
 10
9.5013820841
 20
9.5421185558
 11
9.4913820841
 21
9.5421185558
  0
LINE
  5
42F
100
AcDbEntity
  8
03__ASM_ALL_CURVES
100
AcDbLine
 62
4
  6
CONTINUOUS
 10
9.4213820841
 20
9.5421185558
 11
9.4113820841
 21
9.5421185558
  0
LINE
  5
430
100
AcDbEntity
  8
03__ASM_ALL_CURVES
100
AcDbLine
 62
4
  6
CONTINUOUS
 10
9.3563820841
 20
9.5421185558
 11
9.3488820841
 21
9.5421185558
  0
LINE
  5
431
100
AcDbEntity
  8
03__ASM_ALL_CURVES
100
AcDbLine
 62
4
  6
CONTINUOUS
 10
9.2613820841
 20
9.5421185558
 11
9.2513820841
 21
9.5421185558
  0
LINE
  5
432
100
AcDbEntity
  8
03__ASM_ALL_CURVES
100
AcDbLine
 62
4
  6
CONTINUOUS
 10
9.1813820841
 20
9.5421185558
 11
9.1713820841
 21
9.5421185558
  0
LINE
  5
433
100
AcDbEntity
  8
03__ASM_ALL_CURVES
100
AcDbLine
 62
4
  6
CONTINUOUS
 10
8.7963820841
 20
9.5421185558
 11
8.7888820841
 21
9.5421185558
  0
LINE
  5
434
100
AcDbEntity
  8
0
100
AcDbLine
 62
7
  6
CONTINUOUS
 10
10.9515552896
 20
9.5511185558
 11
10.3932089148
 21
9.5511185558
  0
LINE
  5
435
100
AcDbEntity
  8
03__ASM_ALL_CURVES
100
AcDbLine
 62
4
  6
CONTINUOUS
 10
8.8363820841
 20
9.5621185558
 11
8.8813820841
 21
9.5621185558
  0
LINE
  5
436
100
AcDbEntity
  8
03__ASM_ALL_CURVES
100
AcDbLine
 62
4
  6
CONTINUOUS
 10
9.9363820841
 20
9.5821185558
 11
9.6963820841
 21
9.5821185558
  0
LINE
  5
437
100
AcDbEntity
  8
03__ASM_ALL_CURVES
100
AcDbLine
 62
4
  6
CONTINUOUS
 10
9.1713820841
 20
9.5887852208
 11
9.1813820841
 21
9.5887852208
  0
LINE
  5
438
100
AcDbEntity
  8
03__ASM_ALL_CURVES
100
AcDbLine
 62
4
  6
CONTINUOUS
 10
9.2513820841
 20
9.5954518907
 11
9.2613820841
 21
9.5954518907
  0
LINE
  5
439
100
AcDbEntity
  8
03__ASM_ALL_CURVES
100
AcDbLine
 62
4
  6
CONTINUOUS
 10
9.4113820841
 20
9.5954518907
 11
9.4213820841
 21
9.5954518907
  0
LINE
  5
43A
100
AcDbEntity
  8
03__ASM_ALL_CURVES
100
AcDbLine
 62
4
  6
CONTINUOUS
 10
9.4913820841
 20
9.5954518907
 11
9.5013820841
 21
9.5954518907
  0
LINE
  5
43B
100
AcDbEntity
  8
03__ASM_ALL_CURVES
100
AcDbLine
 62
4
  6
CONTINUOUS
 10
9.4313820841
 20
11.9017852208
 11
9.4363820841
 21
11.8884518907
  0
LINE
  5
43C
100
AcDbEntity
  8
0
100
AcDbLine
 62
7
  6
CONTINUOUS
 10
10.8346320841
 20
7.151003819
 11
10.8346320841
 21
6.9822332925
  0
LINE
  5
43D
100
AcDbEntity
  8
0
100
AcDbLine
 62
7
  6
CONTINUOUS
 10
10.8568820841
 20
6.9571185558
 11
10.8568820841
 21
6.9251185558
  0
LINE
  5
43E
100
AcDbEntity
  8
0
100
AcDbLine
 62
7
  6
CONTINUOUS
 10
10.9528820841
 20
9.56751895
 11
10.9528820841
 21
9.5967180528
  0
LINE
  5
43F
100
AcDbEntity
  8
03__ASM_ALL_CURVES
100
AcDbLine
 62
4
  6
CONTINUOUS
 10
9.4896732091
 20
6.8618298896
 11
9.4775649591
 21
6.8456855558
  0
LINE
  5
440
100
AcDbEntity
  8
03__ASM_ALL_CURVES
100
AcDbLine
 62
4
  6
CONTINUOUS
 10
9.9830487492
 20
7.6651185558
 11
9.989715419
 21
7.6701185558
  0
LINE
  5
441
100
AcDbEntity
  8
03__ASM_ALL_CURVES
100
AcDbLine
 62
4
  6
CONTINUOUS
 10
8.5936627091
 20
6.934479391
 11
8.6057709591
 21
6.9425515558
  0
LINE
  5
442
100
AcDbEntity
  8
03__ASM_ALL_CURVES
100
AcDbLine
 62
4
  6
CONTINUOUS
 10
8.6299874591
 20
6.9021907205
 11
8.6057709591
 21
6.8860463881
  0
LINE
  5
443
100
AcDbEntity
  8
03__ASM_ALL_CURVES
100
AcDbLine
 62
4
  6
CONTINUOUS
 10
8.6905287091
 20
6.934479391
 11
8.7026369591
 21
6.9425515558
  0
LINE
  5
444
100
AcDbEntity
  8
03__ASM_ALL_CURVES
100
AcDbLine
 62
4
  6
CONTINUOUS
 10
8.6905287091
 20
6.8941185558
 11
8.7026369591
 21
6.9021907205
  0
LINE
  5
445
100
AcDbEntity
  8
03__ASM_ALL_CURVES
100
AcDbLine
 62
4
  6
CONTINUOUS
 10
8.7268534591
 20
6.910262891
 11
8.7147452091
 21
6.9021907205
  0
LINE
  5
446
100
AcDbEntity
  8
03__ASM_ALL_CURVES
100
AcDbLine
 62
4
  6
CONTINUOUS
 10
8.7268534591
 20
6.8537577227
 11
8.7147452091
 21
6.8456855558
  0
LINE
  5
447
100
AcDbEntity
  8
03__ASM_ALL_CURVES
100
AcDbLine
 62
4
  6
CONTINUOUS
 10
9.5163820841
 20
9.6221185558
 11
9.4863820841
 21
9.6221185558
  0
LINE
  5
448
100
AcDbEntity
  8
03__ASM_ALL_CURVES
100
AcDbLine
 62
4
  6
CONTINUOUS
 10
9.4363820841
 20
9.6221185558
 11
9.4063820841
 21
9.6221185558
  0
LINE
  5
449
100
AcDbEntity
  8
03__ASM_ALL_CURVES
100
AcDbLine
 62
4
  6
CONTINUOUS
 10
9.2763820841
 20
9.6221185558
 11
9.2463820841
 21
9.6221185558
  0
LINE
  5
44A
100
AcDbEntity
  8
03__ASM_ALL_CURVES
100
AcDbLine
 62
4
  6
CONTINUOUS
 10
9.1713820841
 20
9.6221185558
 11
9.1813820841
 21
9.6221185558
  0
LINE
  5
44B
100
AcDbEntity
  8
0
100
AcDbLine
 62
7
  6
CONTINUOUS
 10
10.5033619114
 20
9.8064360974
 11
10.8414022931
 21
9.8064360974
  0
LINE
  5
44C
100
AcDbEntity
  8
0
100
AcDbLine
 62
7
  6
CONTINUOUS
 10
10.8120450637
 20
9.8258010141
 11
10.5327191407
 21
9.8258010141
  0
LINE
  5
44D
100
AcDbEntity
  8
03__ASM_ALL_CURVES
100
AcDbLine
 62
4
  6
CONTINUOUS
 10
8.7613820841
 20
11.8417852226
 11
8.7563820841
 21
11.8484518895
  0
LINE
  5
44E
100
AcDbEntity
  8
03__ASM_ALL_CURVES
100
AcDbLine
 62
4
  6
CONTINUOUS
 10
8.7913820841
 20
11.8751185558
 11
8.8013820841
 21
11.8617852232
  0
LINE
  5
44F
100
AcDbEntity
  8
03__ASM_ALL_CURVES
100
AcDbLine
 62
4
  6
CONTINUOUS
 10
8.7913820841
 20
11.9084518907
 11
8.7963820841
 21
11.9017852208
  0
LINE
  5
450
100
AcDbEntity
  8
03__ASM_ALL_CURVES
100
AcDbLine
 62
4
  6
CONTINUOUS
 10
8.8688820841
 20
11.8451185561
 11
8.8763820841
 21
11.8351185558
  0
LINE
  5
451
100
AcDbEntity
  8
0
100
AcDbLine
 62
7
  6
CONTINUOUS
 10
10.9968820841
 20
7.151003819
 11
10.9968820841
 21
6.9822332925
  0
LINE
  5
452
100
AcDbEntity
  8
0
100
AcDbLine
 62
7
  6
CONTINUOUS
 10
11.0223820841
 20
7.3121185558
 11
11.0223820841
 21
7.2901185558
  0
LINE
  5
453
100
AcDbEntity
  8
0
100
AcDbLine
 62
7
  6
CONTINUOUS
 10
11.0458820841
 20
7.6761185558
 11
11.0458820841
 21
7.3251185558
  0
LINE
  5
454
100
AcDbEntity
  8
0
100
AcDbLine
 62
7
  6
CONTINUOUS
 10
11.0458820841
 20
7.2771185558
 11
11.0458820841
 21
7.2261185558
  0
LINE
  5
455
100
AcDbEntity
  8
0
100
AcDbLine
 62
7
  6
CONTINUOUS
 10
11.0802843318
 20
8.0836185558
 11
11.0802843318
 21
7.7101822216
  0
LINE
  5
456
100
AcDbEntity
  8
0
100
AcDbLine
 62
7
  6
CONTINUOUS
 10
11.1008820841
 20
8.1751185558
 11
11.1008820841
 21
8.1441185558
  0
LINE
  5
457
100
AcDbEntity
  8
0
100
AcDbLine
 62
7
  6
CONTINUOUS
 10
11.1098981181
 20
7.6804621681
 11
11.1098981181
 21
8.1351027026
  0
LINE
  5
458
100
AcDbEntity
  8
03__ASM_ALL_CURVES
100
AcDbLine
 62
4
  6
CONTINUOUS
 10
11.2263820841
 20
6.6341185558
 11
11.2263820841
 21
6.6041185558
  0
LINE
  5
459
100
AcDbEntity
  8
03__ASM_ALL_CURVES
100
AcDbLine
 62
4
  6
CONTINUOUS
 10
11.2263820841
 20
6.5541185558
 11
11.2263820841
 21
6.5141185558
  0
LINE
  5
45A
100
AcDbEntity
  8
03__ASM_ALL_CURVES
100
AcDbLine
 62
4
  6
CONTINUOUS
 10
11.2263820841
 20
6.0741185558
 11
11.2263820841
 21
6.0441185558
  0
LINE
  5
45B
100
AcDbEntity
  8
03__ASM_ALL_CURVES
100
AcDbLine
 62
4
  6
CONTINUOUS
 10
11.2263820841
 20
5.9691185558
 11
11.2263820841
 21
5.9791185558
  0
LINE
  5
45C
100
AcDbEntity
  8
03__ASM_ALL_CURVES
100
AcDbLine
 62
4
  6
CONTINUOUS
 10
11.2263820841
 20
6.2891185558
 11
11.2263820841
 21
6.2991185558
  0
LINE
  5
45D
100
AcDbEntity
  8
03__ASM_ALL_CURVES
100
AcDbLine
 62
4
  6
CONTINUOUS
 10
10.0497154172
 20
7.6451185558
 11
10.0430487504
 21
7.6401185558
  0
LINE
  5
45E
100
AcDbEntity
  8
03__ASM_ALL_CURVES
100
AcDbLine
 62
4
  6
CONTINUOUS
 10
8.9811267091
 20
6.934479391
 11
8.9932349591
 21
6.9425515558
  0
LINE
  5
45F
100
AcDbEntity
  8
03__ASM_ALL_CURVES
100
AcDbLine
 62
4
  6
CONTINUOUS
 10
9.0174514591
 20
6.910262891
 11
9.0053432091
 21
6.9021907205
  0
LINE
  5
460
100
AcDbEntity
  8
03__ASM_ALL_CURVES
100
AcDbLine
 62
4
  6
CONTINUOUS
 10
9.0779927091
 20
6.934479391
 11
9.0901009591
 21
6.9425515558
  0
LINE
  5
461
100
AcDbEntity
  8
03__ASM_ALL_CURVES
100
AcDbLine
 62
4
  6
CONTINUOUS
 10
9.0174514591
 20
6.8537577227
 11
9.0053432091
 21
6.8456855558
  0
LINE
  5
462
100
AcDbEntity
  8
03__ASM_ALL_CURVES
100
AcDbLine
 62
4
  6
CONTINUOUS
 10
9.1143174591
 20
6.9021907205
 11
9.0901009591
 21
6.8860463881
  0
LINE
  5
463
100
AcDbEntity
  8
03__ASM_ALL_CURVES
100
AcDbLine
 62
4
  6
CONTINUOUS
 10
9.2717247091
 20
6.9021907205
 11
9.2838329591
 21
6.910262891
  0
LINE
  5
464
100
AcDbEntity
  8
03__ASM_ALL_CURVES
100
AcDbLine
 62
4
  6
CONTINUOUS
 10
9.989715419
 20
7.6701185558
 11
10.0030487492
 21
7.6751185558
  0
LINE
  5
465
100
AcDbEntity
  8
03__ASM_ALL_CURVES
100
AcDbLine
 62
4
  6
CONTINUOUS
 10
10.0430487504
 20
7.6401185558
 11
10.0297154166
 21
7.6351185558
  0
LINE
  5
466
100
AcDbEntity
  8
03__ASM_ALL_CURVES
100
AcDbLine
 62
4
  6
CONTINUOUS
 10
9.0913820841
 20
11.8484518895
 11
9.1013820841
 21
11.8351185558
  0
LINE
  5
467
100
AcDbEntity
  8
03__ASM_ALL_CURVES
100
AcDbLine
 62
4
  6
CONTINUOUS
 10
9.1663820841
 20
11.8417852226
 11
9.1613820841
 21
11.8484518895
  0
LINE
  5
468
100
AcDbEntity
  8
03__ASM_ALL_CURVES
100
AcDbLine
 62
4
  6
CONTINUOUS
 10
9.1863820841
 20
11.9084518907
 11
9.1913820841
 21
11.9017852208
  0
LINE
  5
469
100
AcDbEntity
  8
03__ASM_ALL_CURVES
100
AcDbLine
 62
4
  6
CONTINUOUS
 10
9.2413820841
 20
11.8417852226
 11
9.2363820841
 21
11.8484518895
  0
LINE
  5
46A
100
AcDbEntity
  8
03__ASM_ALL_CURVES
100
AcDbLine
 62
4
  6
CONTINUOUS
 10
9.2713820841
 20
11.8751185558
 11
9.2813820841
 21
11.8617852232
  0
LINE
  5
46B
100
AcDbEntity
  8
03__ASM_ALL_CURVES
100
AcDbLine
 62
4
  6
CONTINUOUS
 10
11.2530487492
 20
6.0491185558
 11
11.2530487492
 21
6.0591185558
  0
LINE
  5
46C
100
AcDbEntity
  8
03__ASM_ALL_CURVES
100
AcDbLine
 62
4
  6
CONTINUOUS
 10
11.2530487492
 20
6.6091185558
 11
11.2530487492
 21
6.6191185558
  0
LINE
  5
46D
100
AcDbEntity
  8
03__ASM_ALL_CURVES
100
AcDbLine
 62
4
  6
CONTINUOUS
 10
11.259715419
 20
6.2891185558
 11
11.259715419
 21
6.2991185558
  0
LINE
  5
46E
100
AcDbEntity
  8
03__ASM_ALL_CURVES
100
AcDbLine
 62
4
  6
CONTINUOUS
 10
11.2663820841
 20
8.0951185558
 11
11.2663820841
 21
6.8141185558
  0
LINE
  5
46F
100
AcDbEntity
  8
0
100
AcDbLine
 62
7
  6
CONTINUOUS
 10
11.2663820841
 20
8.1751185558
 11
11.2663820841
 21
11.8751186034
  0
LINE
  5
470
100
AcDbEntity
  8
03__ASM_ALL_CURVES
100
AcDbLine
 62
4
  6
CONTINUOUS
 10
11.3063820841
 20
6.6191185558
 11
11.3063820841
 21
6.6091185558
  0
LINE
  5
471
100
AcDbEntity
  8
03__ASM_ALL_CURVES
100
AcDbLine
 62
4
  6
CONTINUOUS
 10
11.3063820841
 20
6.4741185558
 11
11.3063820841
 21
6.4666185558
  0
LINE
  5
472
100
AcDbEntity
  8
03__ASM_ALL_CURVES
100
AcDbLine
 62
4
  6
CONTINUOUS
 10
11.3063820841
 20
6.2991185558
 11
11.3063820841
 21
6.2891185558
  0
LINE
  5
473
100
AcDbEntity
  8
03__ASM_ALL_CURVES
100
AcDbLine
 62
4
  6
CONTINUOUS
 10
11.3063820841
 20
6.0591185558
 11
11.3063820841
 21
6.0491185558
  0
LINE
  5
474
100
AcDbEntity
  8
03__ASM_ALL_CURVES
100
AcDbLine
 62
4
  6
CONTINUOUS
 10
11.3063820841
 20
5.9141185558
 11
11.3063820841
 21
5.9066185558
  0
LINE
  5
475
100
AcDbEntity
  8
03__ASM_ALL_CURVES
100
AcDbLine
 62
4
  6
CONTINUOUS
 10
11.3063820841
 20
5.9541185558
 11
11.3063820841
 21
5.9941185558
  0
LINE
  5
476
100
AcDbEntity
  8
0
100
AcDbLine
 62
7
  6
CONTINUOUS
 10
11.3183820841
 20
10.6691185558
 11
11.3183820841
 21
11.5311185558
  0
LINE
  5
477
100
AcDbEntity
  8
03__ASM_ALL_CURVES
100
AcDbLine
 62
4
  6
CONTINUOUS
 10
9.3080494591
 20
6.8537577227
 11
9.2959412091
 21
6.8456855558
  0
LINE
  5
478
100
AcDbEntity
  8
03__ASM_ALL_CURVES
100
AcDbLine
 62
4
  6
CONTINUOUS
 10
9.2713820841
 20
11.9084518907
 11
9.2763820841
 21
11.9017852208
  0
LINE
  5
479
100
AcDbEntity
  8
03__ASM_ALL_CURVES
100
AcDbLine
 62
4
  6
CONTINUOUS
 10
9.3488820841
 20
11.8451185561
 11
9.3563820841
 21
11.8351185558
  0
LINE
  5
47A
100
AcDbEntity
  8
03__ASM_ALL_CURVES
100
AcDbLine
 62
4
  6
CONTINUOUS
 10
9.4063820841
 20
11.8417852226
 11
9.4013820841
 21
11.8484518895
  0
LINE
  5
47B
100
AcDbEntity
  8
03__ASM_ALL_CURVES
100
AcDbLine
 62
4
  6
CONTINUOUS
 10
9.4263820841
 20
11.9084518907
 11
9.4313820841
 21
11.9017852208
  0
LINE
  5
47C
100
AcDbEntity
  8
03__ASM_ALL_CURVES
100
AcDbLine
 62
4
  6
CONTINUOUS
 10
9.4813820841
 20
11.8417852226
 11
9.4713820841
 21
11.8551185558
  0
LINE
  5
47D
100
AcDbEntity
  8
03__ASM_ALL_CURVES
100
AcDbLine
 62
4
  6
CONTINUOUS
 10
9.4813820841
 20
11.8884518907
 11
9.4763820841
 21
11.8951185558
  0
LINE
  5
47E
100
AcDbEntity
  8
03__ASM_ALL_CURVES
100
AcDbLine
 62
4
  6
CONTINUOUS
 10
9.5113820841
 20
11.8751185558
 11
9.5213820841
 21
11.8617852232
  0
LINE
  5
47F
100
AcDbEntity
  8
03__ASM_ALL_CURVES
100
AcDbLine
 62
4
  6
CONTINUOUS
 10
9.5113820841
 20
11.9084518907
 11
9.5163820841
 21
11.9017852208
  0
LINE
  5
480
100
AcDbEntity
  8
03__ASM_ALL_CURVES
100
AcDbLine
 62
4
  6
CONTINUOUS
 10
10.665715419
 20
6.3741185558
 11
10.6723820841
 21
6.3891185558
  0
LINE
  5
481
100
AcDbEntity
  8
0
100
AcDbLine
 62
7
  6
CONTINUOUS
 10
11.110213496
 20
7.6806400235
 11
11.1023820841
 21
7.6761185558
  0
LINE
  5
482
100
AcDbEntity
  8
0
100
AcDbLine
 62
7
  6
CONTINUOUS
 10
10.3913820841
 20
7.1761185558
 11
10.3478820841
 21
7.151003819
  0
LINE
  5
483
100
AcDbEntity
  8
03__ASM_ALL_CURVES
100
AcDbLine
 62
4
  6
CONTINUOUS
 10
9.5713820841
 20
11.9151185558
 11
9.5813820841
 21
11.9017852208
  0
LINE
  5
484
100
AcDbEntity
  8
0
100
AcDbLine
 62
7
  6
CONTINUOUS
 10
11.8053820841
 20
11.4261185558
 11
11.8053820841
 21
10.7741185558
  0
LINE
  5
485
100
AcDbEntity
  8
0
100
AcDbLine
 62
7
  6
CONTINUOUS
 10
11.8253820841
 20
11.4061102151
 11
11.8253820841
 21
10.7941268964
  0
LINE
  5
486
100
AcDbEntity
  8
03__ASM_ALL_CURVES
100
AcDbLine
 62
4
  6
CONTINUOUS
 10
10.665715419
 20
5.9741185558
 11
10.6723820841
 21
5.9891185558
  0
LINE
  5
487
100
AcDbEntity
  8
03__ASM_ALL_CURVES
100
AcDbLine
 62
4
  6
CONTINUOUS
 10
10.6323820841
 20
6.6141185558
 11
10.6390487492
 21
6.6241185558
  0
LINE
  5
488
100
AcDbEntity
  8
03__ASM_ALL_CURVES
100
AcDbLine
 62
4
  6
CONTINUOUS
 10
10.6590487492
 20
6.5391185558
 11
10.665715419
 21
6.5491185558
  0
LINE
  5
489
100
AcDbEntity
  8
03__ASM_ALL_CURVES
100
AcDbLine
 62
4
  6
CONTINUOUS
 10
10.7123820841
 20
6.6141185558
 11
10.7057154172
 21
6.6041185558
  0
LINE
  5
48A
100
AcDbEntity
  8
03__ASM_ALL_CURVES
100
AcDbLine
 62
4
  6
CONTINUOUS
 10
10.7123820841
 20
6.5291185558
 11
10.7057154172
 21
6.5191185558
  0
LINE
  5
48B
100
AcDbEntity
  8
03__ASM_ALL_CURVES
100
AcDbLine
 62
4
  6
CONTINUOUS
 10
10.6323820841
 20
6.3741185558
 11
10.6390487492
 21
6.3841185558
  0
LINE
  5
48C
100
AcDbEntity
  8
0
100
AcDbLine
 62
7
  6
CONTINUOUS
 10
11.0458820841
 20
7.2261185558
 11
10.9958820841
 21
7.1761185558
  0
LINE
  5
48D
100
AcDbEntity
  8
0
100
AcDbLine
 62
7
  6
CONTINUOUS
 10
10.0163820841
 20
10.5545225514
 11
9.9482708818
 21
10.5545225514
  0
LINE
  5
48E
100
AcDbEntity
  8
0
100
AcDbLine
 62
7
  6
CONTINUOUS
 10
11.2663820841
 20
10.6691185558
 11
11.3183820841
 21
10.6691185558
  0
LINE
  5
48F
100
AcDbEntity
  8
0
100
AcDbLine
 62
7
  6
CONTINUOUS
 10
11.8053820841
 20
10.7741185558
 11
11.3183820841
 21
10.7741185558
  0
LINE
  5
490
100
AcDbEntity
  8
03__ASM_ALL_CURVES
100
AcDbLine
 62
4
  6
CONTINUOUS
 10
8.7713820841
 20
11.8351185558
 11
8.7613820841
 21
11.8417852226
  0
LINE
  5
491
100
AcDbEntity
  8
03__ASM_ALL_CURVES
100
AcDbLine
 62
4
  6
CONTINUOUS
 10
8.7813820841
 20
11.8817852208
 11
8.7913820841
 21
11.8751185558
  0
LINE
  5
492
100
AcDbEntity
  8
03__ASM_ALL_CURVES
100
AcDbLine
 62
4
  6
CONTINUOUS
 10
8.7813820841
 20
11.9151185558
 11
8.7913820841
 21
11.9084518907
  0
LINE
  5
493
100
AcDbEntity
  8
03__ASM_ALL_CURVES
100
AcDbLine
 62
4
  6
CONTINUOUS
 10
10.7123820841
 20
6.3741185558
 11
10.7057154172
 21
6.3641185558
  0
LINE
  5
494
100
AcDbEntity
  8
03__ASM_ALL_CURVES
100
AcDbLine
 62
4
  6
CONTINUOUS
 10
10.6590487492
 20
6.0591185558
 11
10.665715419
 21
6.0691185558
  0
LINE
  5
495
100
AcDbEntity
  8
03__ASM_ALL_CURVES
100
AcDbLine
 62
4
  6
CONTINUOUS
 10
10.6323820841
 20
5.9741185558
 11
10.6390487492
 21
5.9841185558
  0
LINE
  5
496
100
AcDbEntity
  8
03__ASM_ALL_CURVES
100
AcDbLine
 62
4
  6
CONTINUOUS
 10
10.7123820841
 20
6.0491185558
 11
10.7057154172
 21
6.0391185558
  0
LINE
  5
497
100
AcDbEntity
  8
0
100
AcDbLine
 62
7
  6
CONTINUOUS
 10
10.8568820841
 20
6.9251185558
 11
10.8258820841
 21
6.8941185558
  0
LINE
  5
498
100
AcDbEntity
  8
03__ASM_ALL_CURVES
100
AcDbLine
 62
4
  6
CONTINUOUS
 10
10.6323820841
 20
6.6891185558
 11
10.645715419
 21
6.6991185558
  0
LINE
  5
499
100
AcDbEntity
  8
03__ASM_ALL_CURVES
100
AcDbLine
 62
4
  6
CONTINUOUS
 10
10.6390487492
 20
6.6241185558
 11
10.645715419
 21
6.6291185558
  0
LINE
  5
49A
100
AcDbEntity
  8
0
100
AcDbLine
 62
7
  6
CONTINUOUS
 10
10.9533820841
 20
6.9571185558
 11
10.9968820841
 21
6.9822332925
  0
LINE
  5
49B
100
AcDbEntity
  8
0
100
AcDbLine
 62
7
  6
CONTINUOUS
 10
10.0163820841
 20
10.8273205536
 11
9.9482708818
 21
10.8273205536
  0
LINE
  5
49C
100
AcDbEntity
  8
03__ASM_ALL_CURVES
100
AcDbLine
 62
4
  6
CONTINUOUS
 10
9.1763820841
 20
11.8351185558
 11
9.1663820841
 21
11.8417852226
  0
LINE
  5
49D
100
AcDbEntity
  8
03__ASM_ALL_CURVES
100
AcDbLine
 62
4
  6
CONTINUOUS
 10
9.2513820841
 20
11.8351185558
 11
9.2413820841
 21
11.8417852226
  0
LINE
  5
49E
100
AcDbEntity
  8
03__ASM_ALL_CURVES
100
AcDbLine
 62
4
  6
CONTINUOUS
 10
9.1763820841
 20
11.9151185558
 11
9.1863820841
 21
11.9084518907
  0
LINE
  5
49F
100
AcDbEntity
  8
03__ASM_ALL_CURVES
100
AcDbLine
 62
4
  6
CONTINUOUS
 10
9.2613820841
 20
11.8817852208
 11
9.2713820841
 21
11.8751185558
  0
LINE
  5
4A0
100
AcDbEntity
  8
03__ASM_ALL_CURVES
100
AcDbLine
 62
4
  6
CONTINUOUS
 10
9.2613820841
 20
11.9151185558
 11
9.2713820841
 21
11.9084518907
  0
LINE
  5
4A1
100
AcDbEntity
  8
03__ASM_ALL_CURVES
100
AcDbLine
 62
4
  6
CONTINUOUS
 10
9.4163820841
 20
11.8351185558
 11
9.4063820841
 21
11.8417852226
  0
LINE
  5
4A2
100
AcDbEntity
  8
03__ASM_ALL_CURVES
100
AcDbLine
 62
4
  6
CONTINUOUS
 10
10.7123820841
 20
5.9741185558
 11
10.7057154172
 21
5.9641185558
  0
LINE
  5
4A3
100
AcDbEntity
  8
03__ASM_ALL_CURVES
100
AcDbLine
 62
4
  6
CONTINUOUS
 10
10.6323820841
 20
5.8141185558
 11
10.6390487492
 21
5.8241185558
  0
LINE
  5
4A4
100
AcDbEntity
  8
03__ASM_ALL_CURVES
100
AcDbLine
 62
4
  6
CONTINUOUS
 10
10.7123820841
 20
5.8141185558
 11
10.7057154172
 21
5.8041185558
  0
LINE
  5
4A5
100
AcDbEntity
  8
03__ASM_ALL_CURVES
100
AcDbLine
 62
4
  6
CONTINUOUS
 10
11.2530487492
 20
6.6191185558
 11
11.259715419
 21
6.6291185558
  0
LINE
  5
4A6
100
AcDbEntity
  8
03__ASM_ALL_CURVES
100
AcDbLine
 62
4
  6
CONTINUOUS
 10
11.3063820841
 20
6.6091185558
 11
11.2997154172
 21
6.5991185558
  0
LINE
  5
4A7
100
AcDbEntity
  8
03__ASM_ALL_CURVES
100
AcDbLine
 62
4
  6
CONTINUOUS
 10
10.7057154172
 20
6.6041185558
 11
10.6990487504
 21
6.5991185558
  0
LINE
  5
4A8
100
AcDbEntity
  8
03__ASM_ALL_CURVES
100
AcDbLine
 62
4
  6
CONTINUOUS
 10
10.665715419
 20
6.5491185558
 11
10.6723820841
 21
6.5541185558
  0
LINE
  5
4A9
100
AcDbEntity
  8
03__ASM_ALL_CURVES
100
AcDbLine
 62
4
  6
CONTINUOUS
 10
10.7057154172
 20
6.5191185558
 11
10.6990487504
 21
6.5141185558
  0
LINE
  5
4AA
100
AcDbEntity
  8
03__ASM_ALL_CURVES
100
AcDbLine
 62
4
  6
CONTINUOUS
 10
10.7023820838
 20
6.4666185558
 11
10.7123820841
 21
6.4741185558
  0
LINE
  5
4AB
100
AcDbEntity
  8
03__ASM_ALL_CURVES
100
AcDbLine
 62
4
  6
CONTINUOUS
 10
10.6390487492
 20
6.3841185558
 11
10.645715419
 21
6.3891185558
  0
LINE
  5
4AC
100
AcDbEntity
  8
03__ASM_ALL_CURVES
100
AcDbLine
 62
4
  6
CONTINUOUS
 10
10.645715419
 20
6.6291185558
 11
10.6590487492
 21
6.6341185558
  0
LINE
  5
4AD
100
AcDbEntity
  8
03__ASM_ALL_CURVES
100
AcDbLine
 62
4
  6
CONTINUOUS
 10
10.6990487504
 20
6.5991185558
 11
10.6857154166
 21
6.5941185558
  0
LINE
  5
4AE
100
AcDbEntity
  8
03__ASM_ALL_CURVES
100
AcDbLine
 62
4
  6
CONTINUOUS
 10
10.6723820841
 20
6.5541185558
 11
10.6857154166
 21
6.5591185558
  0
LINE
  5
4AF
100
AcDbEntity
  8
03__ASM_ALL_CURVES
100
AcDbLine
 62
4
  6
CONTINUOUS
 10
9.4913820841
 20
11.8351185558
 11
9.4813820841
 21
11.8417852226
  0
LINE
  5
4B0
100
AcDbEntity
  8
03__ASM_ALL_CURVES
100
AcDbLine
 62
4
  6
CONTINUOUS
 10
9.4163820841
 20
11.9151185558
 11
9.4263820841
 21
11.9084518907
  0
LINE
  5
4B1
100
AcDbEntity
  8
03__ASM_ALL_CURVES
100
AcDbLine
 62
4
  6
CONTINUOUS
 10
9.4913820841
 20
11.8817852208
 11
9.4813820841
 21
11.8884518907
  0
LINE
  5
4B2
100
AcDbEntity
  8
03__ASM_ALL_CURVES
100
AcDbLine
 62
4
  6
CONTINUOUS
 10
9.5013820841
 20
11.8817852208
 11
9.5113820841
 21
11.8751185558
  0
LINE
  5
4B3
100
AcDbEntity
  8
03__ASM_ALL_CURVES
100
AcDbLine
 62
4
  6
CONTINUOUS
 10
9.5013820841
 20
11.9151185558
 11
9.5113820841
 21
11.9084518907
  0
LINE
  5
4B4
100
AcDbEntity
  8
03__ASM_ALL_CURVES
100
AcDbLine
 62
4
  6
CONTINUOUS
 10
11.2263820841
 20
6.2991185558
 11
11.2330487492
 21
6.3091185558
  0
LINE
  5
4B5
100
AcDbEntity
  8
03__ASM_ALL_CURVES
100
AcDbLine
 62
4
  6
CONTINUOUS
 10
11.259715419
 20
6.2991185558
 11
11.2663820841
 21
6.3091185558
  0
LINE
  5
4B6
100
AcDbEntity
  8
03__ASM_ALL_CURVES
100
AcDbLine
 62
4
  6
CONTINUOUS
 10
11.3063820841
 20
6.2891185558
 11
11.2997154172
 21
6.2791185558
  0
LINE
  5
4B7
100
AcDbEntity
  8
03__ASM_ALL_CURVES
100
AcDbLine
 62
4
  6
CONTINUOUS
 10
11.2530487492
 20
6.0591185558
 11
11.259715419
 21
6.0691185558
  0
LINE
  5
4B8
100
AcDbEntity
  8
03__ASM_ALL_CURVES
100
AcDbLine
 62
4
  6
CONTINUOUS
 10
11.2263820841
 20
5.9791185558
 11
11.2330487492
 21
5.9891185558
  0
LINE
  5
4B9
100
AcDbEntity
  8
03__ASM_ALL_CURVES
100
AcDbLine
 62
4
  6
CONTINUOUS
 10
11.3063820841
 20
6.0491185558
 11
11.2997154172
 21
6.0391185558
  0
LINE
  5
4BA
100
AcDbEntity
  8
03__ASM_ALL_CURVES
100
AcDbLine
 62
4
  6
CONTINUOUS
 10
10.7057154172
 20
6.3641185558
 11
10.6990487504
 21
6.3591185558
  0
LINE
  5
4BB
100
AcDbEntity
  8
03__ASM_ALL_CURVES
100
AcDbLine
 62
4
  6
CONTINUOUS
 10
11.2263820841
 20
6.6891185558
 11
11.239715419
 21
6.6991185558
  0
LINE
  5
4BC
100
AcDbEntity
  8
03__ASM_ALL_CURVES
100
AcDbLine
 62
4
  6
CONTINUOUS
 10
10.6990487504
 20
6.2091185558
 11
10.7123820841
 21
6.2191185558
  0
LINE
  5
4BD
100
AcDbEntity
  8
03__ASM_ALL_CURVES
100
AcDbLine
 62
4
  6
CONTINUOUS
 10
11.259715419
 20
6.6291185558
 11
11.2663820841
 21
6.6341185558
  0
LINE
  5
4BE
100
AcDbEntity
  8
03__ASM_ALL_CURVES
100
AcDbLine
 62
4
  6
CONTINUOUS
 10
11.2997154172
 20
6.5991185558
 11
11.2930487504
 21
6.5941185558
  0
LINE
  5
4BF
100
AcDbEntity
  8
03__ASM_ALL_CURVES
100
AcDbLine
 62
4
  6
CONTINUOUS
 10
10.665715419
 20
6.0691185558
 11
10.6723820841
 21
6.0741185558
  0
LINE
  5
4C0
100
AcDbEntity
  8
03__ASM_ALL_CURVES
100
AcDbLine
 62
4
  6
CONTINUOUS
 10
11.2663820841
 20
6.6341185558
 11
11.2797154166
 21
6.6391185558
  0
LINE
  5
4C1
100
AcDbEntity
  8
03__ASM_ALL_CURVES
100
AcDbLine
 62
4
  6
CONTINUOUS
 10
10.6723820841
 20
6.3891185558
 11
10.6857154166
 21
6.3941185558
  0
LINE
  5
4C2
100
AcDbEntity
  8
03__ASM_ALL_CURVES
100
AcDbLine
 62
4
  6
CONTINUOUS
 10
10.6990487504
 20
6.3591185558
 11
10.6857154166
 21
6.3541185558
  0
LINE
  5
4C3
100
AcDbEntity
  8
0
100
AcDbLine
 62
7
  6
CONTINUOUS
 10
10.0163820841
 20
11.372916558
 11
9.9482708818
 21
11.372916558
  0
LINE
  5
4C4
100
AcDbEntity
  8
0
100
AcDbLine
 62
7
  6
CONTINUOUS
 10
11.8053820841
 20
11.4261185558
 11
11.3183820841
 21
11.4261185558
  0
LINE
  5
4C5
100
AcDbEntity
  8
03__ASM_ALL_CURVES
100
AcDbLine
 62
4
  6
CONTINUOUS
 10
9.1763820841
 20
11.8684518883
 11
9.1613820841
 21
11.8751185558
  0
LINE
  5
4C6
100
AcDbEntity
  8
03__ASM_ALL_CURVES
100
AcDbLine
 62
4
  6
CONTINUOUS
 10
9.4163820841
 20
11.8684518883
 11
9.4013820841
 21
11.8751185558
  0
LINE
  5
4C7
100
AcDbEntity
  8
03__ASM_ALL_CURVES
100
AcDbLine
 62
4
  6
CONTINUOUS
 10
10.7057154172
 20
6.0391185558
 11
10.6990487504
 21
6.0341185558
  0
LINE
  5
4C8
100
AcDbEntity
  8
03__ASM_ALL_CURVES
100
AcDbLine
 62
4
  6
CONTINUOUS
 10
10.6390487492
 20
5.9841185558
 11
10.645715419
 21
5.9891185558
  0
LINE
  5
4C9
100
AcDbEntity
  8
03__ASM_ALL_CURVES
100
AcDbLine
 62
4
  6
CONTINUOUS
 10
11.2963820838
 20
6.4666185558
 11
11.3063820841
 21
6.4741185558
  0
LINE
  5
4CA
100
AcDbEntity
  8
03__ASM_ALL_CURVES
100
AcDbLine
 62
4
  6
CONTINUOUS
 10
10.7057154172
 20
5.9641185558
 11
10.6990487504
 21
5.9591185558
  0
LINE
  5
4CB
100
AcDbEntity
  8
03__ASM_ALL_CURVES
100
AcDbLine
 62
4
  6
CONTINUOUS
 10
11.2330487492
 20
6.3091185558
 11
11.239715419
 21
6.3141185558
  0
LINE
  5
4CC
100
AcDbEntity
  8
03__ASM_ALL_CURVES
100
AcDbLine
 62
4
  6
CONTINUOUS
 10
10.7023820838
 20
5.9066185558
 11
10.7123820841
 21
5.9141185558
  0
LINE
  5
4CD
100
AcDbEntity
  8
03__ASM_ALL_CURVES
100
AcDbLine
 62
4
  6
CONTINUOUS
 10
11.2663820841
 20
6.3091185558
 11
11.2797154166
 21
6.3191185558
  0
LINE
  5
4CE
100
AcDbEntity
  8
03__ASM_ALL_CURVES
100
AcDbLine
 62
4
  6
CONTINUOUS
 10
10.6390487492
 20
5.8241185558
 11
10.645715419
 21
5.8291185558
  0
LINE
  5
4CF
100
AcDbEntity
  8
03__ASM_ALL_CURVES
100
AcDbLine
 62
4
  6
CONTINUOUS
 10
11.2997154172
 20
6.2791185558
 11
11.2930487504
 21
6.2741185558
  0
LINE
  5
4D0
100
AcDbEntity
  8
03__ASM_ALL_CURVES
100
AcDbLine
 62
4
  6
CONTINUOUS
 10
10.7057154172
 20
5.8041185558
 11
10.6990487504
 21
5.7991185558
  0
LINE
  5
4D1
100
AcDbEntity
  8
03__ASM_ALL_CURVES
100
AcDbLine
 62
4
  6
CONTINUOUS
 10
10.6723820841
 20
6.0741185558
 11
10.6857154166
 21
6.0791185558
  0
LINE
  5
4D2
100
AcDbEntity
  8
0
100
AcDbLine
 62
7
  6
CONTINUOUS
 10
11.2663820841
 20
11.5311185558
 11
11.3183820841
 21
11.5311185558
  0
LINE
  5
4D3
100
AcDbEntity
  8
0
100
AcDbLine
 62
7
  6
CONTINUOUS
 10
10.0163820841
 20
11.6457145601
 11
9.9482708818
 21
11.6457145601
  0
LINE
  5
4D4
100
AcDbEntity
  8
03__ASM_ALL_CURVES
100
AcDbLine
 62
4
  6
CONTINUOUS
 10
11.2930487504
 20
6.2091185558
 11
11.3063820841
 21
6.2191185558
  0
LINE
  5
4D5
100
AcDbEntity
  8
03__ASM_ALL_CURVES
100
AcDbLine
 62
4
  6
CONTINUOUS
 10
11.259715419
 20
6.0691185558
 11
11.2663820841
 21
6.0741185558
  0
LINE
  5
4D6
100
AcDbEntity
  8
03__ASM_ALL_CURVES
100
AcDbLine
 62
4
  6
CONTINUOUS
 10
11.2997154172
 20
6.0391185558
 11
11.2930487504
 21
6.0341185558
  0
LINE
  5
4D7
100
AcDbEntity
  8
03__ASM_ALL_CURVES
100
AcDbLine
 62
4
  6
CONTINUOUS
 10
11.2330487492
 20
5.9891185558
 11
11.239715419
 21
5.9941185558
  0
LINE
  5
4D8
100
AcDbEntity
  8
03__ASM_ALL_CURVES
100
AcDbLine
 62
4
  6
CONTINUOUS
 10
10.6723820841
 20
5.9891185558
 11
10.6857154166
 21
5.9941185558
  0
LINE
  5
4D9
100
AcDbEntity
  8
03__ASM_ALL_CURVES
100
AcDbLine
 62
4
  6
CONTINUOUS
 10
10.6990487504
 20
5.9591185558
 11
10.6857154166
 21
5.9541185558
  0
LINE
  5
4DA
100
AcDbEntity
  8
03__ASM_ALL_CURVES
100
AcDbLine
 62
4
  6
CONTINUOUS
 10
11.2663820841
 20
6.0741185558
 11
11.2797154166
 21
6.0791185558
  0
LINE
  5
4DB
100
AcDbEntity
  8
03__ASM_ALL_CURVES
100
AcDbLine
 62
4
  6
CONTINUOUS
 10
10.645715419
 20
5.8291185558
 11
10.6590487492
 21
5.8341185558
  0
LINE
  5
4DC
100
AcDbEntity
  8
03__ASM_ALL_CURVES
100
AcDbLine
 62
4
  6
CONTINUOUS
 10
10.6990487504
 20
5.7991185558
 11
10.6857154166
 21
5.7941185558
  0
LINE
  5
4DD
100
AcDbEntity
  8
03__ASM_ALL_CURVES
100
AcDbLine
 62
4
  6
CONTINUOUS
 10
9.5013820841
 20
11.8351185558
 11
9.4913820841
 21
11.8351185558
  0
LINE
  5
4DE
100
AcDbEntity
  8
03__ASM_ALL_CURVES
100
AcDbLine
 62
4
  6
CONTINUOUS
 10
9.3563820841
 20
11.8351185558
 11
9.3488820841
 21
11.8351185558
  0
LINE
  5
4DF
100
AcDbEntity
  8
03__ASM_ALL_CURVES
100
AcDbLine
 62
4
  6
CONTINUOUS
 10
9.2613820841
 20
11.8351185558
 11
9.2513820841
 21
11.8351185558
  0
LINE
  5
4E0
100
AcDbEntity
  8
03__ASM_ALL_CURVES
100
AcDbLine
 62
4
  6
CONTINUOUS
 10
8.8763820841
 20
11.8351185558
 11
8.8688820841
 21
11.8351185558
  0
LINE
  5
4E1
100
AcDbEntity
  8
03__ASM_ALL_CURVES
100
AcDbLine
 62
4
  6
CONTINUOUS
 10
8.7813820841
 20
11.8351185558
 11
8.7713820841
 21
11.8351185558
  0
LINE
  5
4E2
100
AcDbEntity
  8
0
100
AcDbLine
 62
7
  6
CONTINUOUS
 10
11.2663820841
 20
11.8751186034
 11
10.0163820841
 21
11.8751186034
  0
LINE
  5
4E3
100
AcDbEntity
  8
03__ASM_ALL_CURVES
100
AcDbLine
 62
4
  6
CONTINUOUS
 10
9.9363820841
 20
11.8751185558
 11
9.6963820841
 21
11.8751185558
  0
LINE
  5
4E4
100
AcDbEntity
  8
03__ASM_ALL_CURVES
100
AcDbLine
 62
4
  6
CONTINUOUS
 10
8.7713820841
 20
11.8817852208
 11
8.7813820841
 21
11.8817852208
  0
LINE
  5
4E5
100
AcDbEntity
  8
03__ASM_ALL_CURVES
100
AcDbLine
 62
4
  6
CONTINUOUS
 10
9.2513820841
 20
11.8817852208
 11
9.2613820841
 21
11.8817852208
  0
LINE
  5
4E6
100
AcDbEntity
  8
03__ASM_ALL_CURVES
100
AcDbLine
 62
4
  6
CONTINUOUS
 10
9.4913820841
 20
11.8817852208
 11
9.5013820841
 21
11.8817852208
  0
LINE
  5
4E7
100
AcDbEntity
  8
03__ASM_ALL_CURVES
100
AcDbLine
 62
4
  6
CONTINUOUS
 10
8.9563820841
 20
11.9151185558
 11
8.9163820841
 21
11.9151185558
  0
LINE
  5
4E8
100
AcDbEntity
  8
03__ASM_ALL_CURVES
100
AcDbLine
 62
4
  6
CONTINUOUS
 10
8.7713820841
 20
11.9151185558
 11
8.7813820841
 21
11.9151185558
  0
LINE
  5
4E9
100
AcDbEntity
  8
03__ASM_ALL_CURVES
100
AcDbLine
 62
4
  6
CONTINUOUS
 10
9.2513820841
 20
11.9151185558
 11
9.2613820841
 21
11.9151185558
  0
LINE
  5
4EA
100
AcDbEntity
  8
03__ASM_ALL_CURVES
100
AcDbLine
 62
4
  6
CONTINUOUS
 10
9.4913820841
 20
11.9151185558
 11
9.5013820841
 21
11.9151185558
  0
LINE
  5
4EB
100
AcDbEntity
  8
0
100
AcDbLine
 62
7
  6
CONTINUOUS
 10
11.8253820841
 20
11.4061185558
 11
11.8053820841
 21
11.4261185558
  0
LINE
  5
4EC
100
AcDbEntity
  8
03__ASM_ALL_CURVES
100
AcDbLine
 62
4
  6
CONTINUOUS
 10
11.2963820838
 20
5.9066185558
 11
11.3063820841
 21
5.9141185558
  0
ARC
  5
4ED
100
AcDbEntity
  8
0
100
AcDbCircle
 62
7
  6
CONTINUOUS
 10
10.3038820841
 20
7.2771185558
 40
0.005
100
AcDbArc
 50
90.0
 51
180.0
  0
ARC
  5
4EE
100
AcDbEntity
  8
0
100
AcDbCircle
 62
7
  6
CONTINUOUS
 10
10.3038820841
 20
7.3251185558
 40
0.005
100
AcDbArc
 50
180.0
 51
270.0
  0
ARC
  5
4EF
100
AcDbEntity
  8
0
100
AcDbCircle
 62
7
  6
CONTINUOUS
 10
10.3143820841
 20
7.2901185558
 40
0.008
100
AcDbArc
 50
270.0
 51
360.0
  0
ARC
  5
4F0
100
AcDbEntity
  8
0
100
AcDbCircle
 62
7
  6
CONTINUOUS
 10
10.3143820841
 20
7.3121185558
 40
0.008
100
AcDbArc
 50
0.0
 51
90.0
  0
ARC
  5
4F1
100
AcDbEntity
  8
0
100
AcDbCircle
 62
7
  6
CONTINUOUS
 10
11.0303820841
 20
7.2901185558
 40
0.008
100
AcDbArc
 50
180.0
 51
270.0
  0
ARC
  5
4F2
100
AcDbEntity
  8
0
100
AcDbCircle
 62
7
  6
CONTINUOUS
 10
11.0303820841
 20
7.3121185558
 40
0.008
100
AcDbArc
 50
90.0
 51
180.0
  0
ARC
  5
4F3
100
AcDbEntity
  8
0
100
AcDbCircle
 62
7
  6
CONTINUOUS
 10
11.0408820841
 20
7.2771185558
 40
0.005
100
AcDbArc
 50
0.0
 51
90.0
  0
ARC
  5
4F4
100
AcDbEntity
  8
0
100
AcDbCircle
 62
7
  6
CONTINUOUS
 10
11.0408820841
 20
7.3251185558
 40
0.005
100
AcDbArc
 50
270.0
 51
360.0
  0
CIRCLE
  5
4F5
100
AcDbEntity
  8
0
100
AcDbCircle
 62
7
  6
CONTINUOUS
 10
10.6723821022
 20
9.5821185014
 40
0.4765
  0
CIRCLE
  5
4F6
100
AcDbEntity
  8
0
100
AcDbCircle
 62
7
  6
CONTINUOUS
 10
10.6723821022
 20
9.5821185014
 40
0.333
  0
CIRCLE
  5
4F7
100
AcDbEntity
  8
0
100
AcDbCircle
 62
7
  6
CONTINUOUS
 10
10.6723821022
 20
9.5821185014
 40
0.3
  0
CIRCLE
  5
4F8
100
AcDbEntity
  8
0
100
AcDbCircle
 62
7
  6
CONTINUOUS
 10
10.6723821022
 20
9.5821185014
 40
0.281
  0
SPLINE
  5
4F9
100
AcDbEntity
  8
0
100
AcDbSpline
 62
7
  6
CONTINUOUS
 70
0
 71
3
 72
10
 73
6
 74
4
 42
0.0000001
 43
0.0000001
 44
0.0000000001
 12
-0.0128627234
 22
0.0729481296
 32
0.0
 13
-0.0067058529
 23
0.0737731709
 33
0.0
 40
0.0
 40
0.0
 40
0.0
 40
0.0
 40
0.381050178
 40
0.7512646632
 40
1.0
 40
1.0
 40
1.0
 40
1.0
 10
9.9482708818
 20
10.5545225514
 30
0.0
 10
9.9466371008
 20
10.563788184
 30
0.0
 10
9.9436543223
 20
10.5820993254
 30
0.0
 10
9.9404212267
 20
10.6065819392
 30
0.0
 10
9.9388512891
 20
10.6217856782
 30
0.0
 10
9.9382952949
 20
10.627902343
 30
0.0
 11
9.9482708818
 21
10.5545225514
 31
0.0
 11
9.943753791
 21
10.5823844712
 31
0.0
 11
9.9401827357
 21
10.6095740365
 31
0.0
 11
9.9382952949
 21
10.627902343
 31
0.0
  0
SPLINE
  5
4FA
100
AcDbEntity
  8
0
100
AcDbSpline
 62
7
  6
CONTINUOUS
 70
0
 71
3
 72
10
 73
6
 74
4
 42
0.0000001
 43
0.0000001
 44
0.0000000001
 12
-0.0057128157
 22
0.0628484601
 32
0.0
 13
-0.0
 23
0.0631042911
 33
0.0
 40
0.0
 40
0.0
 40
0.0
 40
0.0
 40
0.1383868607
 40
0.5688576299
 40
1.0
 40
1.0
 40
1.0
 40
1.0
 10
9.9382952949
 20
10.627902343
 30
0.0
 10
9.9380317687
 20
10.6308014767
 30
0.0
 10
9.9370176865
 20
10.6427250205
 30
0.0
 10
9.9357515945
 20
10.6637266363
 30
0.0
 10
9.9353820841
 20
10.6818525746
 30
0.0
 10
9.9353820841
 20
10.6909215524
 30
0.0
 11
9.9382952949
 21
10.627902343
 31
0.0
 11
9.9375557648
 21
10.636604178
 31
0.0
 11
9.9359325065
 21
10.6637201872
 31
0.0
 11
9.9353820841
 21
10.6909215524
 31
0.0
  0
SPLINE
  5
4FB
100
AcDbEntity
  8
0
100
AcDbSpline
 62
7
  6
CONTINUOUS
 70
0
 71
3
 72
11
 73
7
 74
5
 42
0.0000001
 43
0.0000001
 44
0.0000000001
 12
-0.0239920357
 22
0.2721311912
 32
0.0
 13
-0.0
 23
0.2731867548
 33
0.0
 40
0.0
 40
0.0
 40
0.0
 40
0.0
 40
0.2530284046
 40
0.5010662045
 40
0.7496528308
 40
1.0
 40
1.0
 40
1.0
 40
1.0
 10
9.9482708818
 20
10.8273205536
 30
0.0
 10
9.9462473263
 20
10.8502728606
 30
0.0
 10
9.9426160916
 20
10.8957592544
 30
0.0
 10
9.9385208845
 20
10.9639063258
 30
0.0
 10
9.9359651094
 20
11.0318852881
 30
0.0
 10
9.9353820841
 20
11.0773213788
 30
0.0
 10
9.9353820841
 20
11.1001185558
 30
0.0
 11
9.9482708818
 21
10.8273205536
 31
0.0
 11
9.9428079009
 21
10.8962283501
 31
0.0
 11
9.9387767613
 21
10.9638689774
 31
0.0
 11
9.9362501745
 21
11.0317325346
 31
0.0
 11
9.9353820841
 21
11.1001185558
 31
0.0
  0
SPLINE
  5
4FC
100
AcDbEntity
  8
0
100
AcDbSpline
 62
7
  6
CONTINUOUS
 70
0
 71
3
 72
11
 73
7
 74
5
 42
0.0000001
 43
0.0000001
 44
0.0000000001
 12
0.0
 22
0.2731867474
 32
0.0
 13
0.023992035
 23
0.2721311839
 33
0.0
 40
0.0
 40
0.0
 40
0.0
 40
0.0
 40
0.2511399754
 40
0.5001719253
 40
0.7479893089
 40
1.0
 40
1.0
 40
1.0
 40
1.0
 10
9.9353820841
 20
11.1001185558
 30
0.0
 10
9.9353820841
 20
11.1229879268
 30
0.0
 10
9.9359684291
 20
11.1685367819
 30
0.0
 10
9.938534363
 20
11.2366081245
 30
0.0
 10
9.9426316969
 20
11.3046827206
 30
0.0
 10
9.9462554654
 20
11.3500565687
 30
0.0
 10
9.9482708818
 20
11.372916558
 30
0.0
 11
9.9353820841
 21
11.1001185558
 31
0.0
 11
9.9362556519
 21
11.1687211071
 31
0.0
 11
9.9387932861
 21
11.2367059916
 31
0.0
 11
9.9428272888
 21
11.3042861245
 31
0.0
 11
9.9482708818
 21
11.372916558
 31
0.0
  0
SPLINE
  5
4FD
100
AcDbEntity
  8
0
100
AcDbSpline
 62
7
  6
CONTINUOUS
 70
0
 71
3
 72
12
 73
8
 74
6
 42
0.0000001
 43
0.0000001
 44
0.0000000001
 12
-0.0238206686
 22
0.1350937247
 32
0.0
 13
-0.0
 23
0.1371777631
 33
0.0
 40
0.0
 40
0.0
 40
0.0
 40
0.0
 40
0.2057600961
 40
0.4056691171
 40
0.6036421279
 40
0.8016665897
 40
1.0
 40
1.0
 40
1.0
 40
1.0
 10
9.9482708818
 20
11.372916558
 30
0.0
 10
9.9466371008
 20
11.3821821905
 30
0.0
 10
9.9436543223
 20
11.400493332
 30
0.0
 10
9.9400400647
 20
11.4278622947
 30
0.0
 10
9.93738735
 20
11.454987142
 30
0.0
 10
9.9357515945
 20
11.4821206429
 30
0.0
 10
9.9353820841
 20
11.5002465812
 30
0.0
 10
9.9353820841
 20
11.509315559
 30
0.0
 11
9.9482708818
 21
11.372916558
 31
0.0
 11
9.943753791
 21
11.4007784778
 31
0.0
 11
9.9401827357
 21
11.4279680431
 31
0.0
 11
9.9375557648
 21
11.4549981846
 31
0.0
 11
9.9359325065
 21
11.4821141938
 31
0.0
 11
9.9353820841
 21
11.509315559
 31
0.0
  0
SPLINE
  5
4FE
100
AcDbEntity
  8
0
100
AcDbSpline
 62
7
  6
CONTINUOUS
 70
0
 71
3
 72
10
 73
6
 74
4
 42
0.0000001
 43
0.0000001
 44
0.0000000001
 12
-0.0
 22
0.0631042151
 32
0.0
 13
0.0057128035
 23
0.0628483856
 33
0.0
 40
0.0
 40
0.0
 40
0.0
 40
0.0
 40
0.4312735708
 40
0.8618818222
 40
1.0
 40
1.0
 40
1.0
 40
1.0
 10
9.9353820841
 20
11.509315559
 30
0.0
 10
9.9353820841
 20
11.5183872858
 30
0.0
 10
9.9357518222
 20
11.5365188558
 30
0.0
 10
9.937018294
 20
11.5575204262
 30
0.0
 10
9.9380322741
 20
11.5694411938
 30
0.0
 10
9.9382952881
 20
11.5723346953
 30
0.0
 11
9.9353820841
 21
11.509315559
 31
0.0
 11
9.935932839
 21
11.5365251658
 31
0.0
 11
9.9375570956
 21
11.5636497738
 31
0.0
 11
9.9382952881
 21
11.5723346953
 31
0.0
  0
SPLINE
  5
4FF
100
AcDbEntity
  8
0
100
AcDbSpline
 62
7
  6
CONTINUOUS
 70
0
 71
3
 72
10
 73
6
 74
4
 42
0.0000001
 43
0.0000001
 44
0.0000000001
 12
0.0067058535
 22
0.073773247
 32
0.0
 13
0.0128627365
 23
0.0729482035
 33
0.0
 40
0.0
 40
0.0
 40
0.0
 40
0.0
 40
0.2490139086
 40
0.6190218188
 40
1.0
 40
1.0
 40
1.0
 40
1.0
 10
9.9382952881
 20
11.5723346953
 30
0.0
 10
9.938851905
 20
11.5784582169
 30
0.0
 10
9.9404222354
 20
11.5936637208
 30
0.0
 10
9.9436556877
 20
11.6181463066
 30
0.0
 10
9.9466374079
 20
11.6364506688
 30
0.0
 10
9.9482708818
 20
11.6457145601
 30
0.0
 11
9.9382952881
 21
11.5723346953
 31
0.0
 11
9.9401850835
 21
11.5906835217
 31
0.0
 11
9.9437545637
 21
11.6178578887
 31
0.0
 11
9.9482708818
 21
11.6457145601
 31
0.0
  0
SPLINE
  5
500
100
AcDbEntity
  8
0
100
AcDbSpline
 62
7
  6
CONTINUOUS
 70
0
 71
3
 72
12
 73
8
 74
6
 42
0.0000001
 43
0.0000001
 44
0.0000000001
 12
-0.0
 22
0.1371777623
 32
0.0
 13
0.0238206684
 23
0.1350937238
 33
0.0
 40
0.0
 40
0.0
 40
0.0
 40
0.0
 40
0.1983935278
 40
0.3964809968
 40
0.5944808932
 40
0.7942785711
 40
1.0
 40
1.0
 40
1.0
 40
1.0
 10
9.9353820841
 20
10.6909215524
 30
0.0
 10
9.9353820841
 20
10.6999932792
 30
0.0
 10
9.9357518222
 20
10.7181248492
 30
0.0
 10
9.9373884833
 20
10.7452651725
 30
0.0
 10
9.9400417723
 20
10.7723889789
 30
0.0
 10
9.9436556877
 20
10.7997523
 30
0.0
 10
9.9466374079
 20
10.8180566623
 30
0.0
 10
9.9482708818
 20
10.8273205536
 30
0.0
 11
9.9353820841
 21
10.6909215524
 31
0.0
 11
9.935932839
 21
10.7181311592
 31
0.0
 11
9.9375570956
 21
10.7452557672
 31
0.0
 11
9.9401850835
 21
10.7722895151
 31
0.0
 11
9.9437545637
 21
10.7994638821
 31
0.0
 11
9.9482708818
 21
10.8273205536
 31
0.0
  0
SPLINE
  5
501
100
AcDbEntity
  8
0
100
AcDbSpline
 62
7
  6
CONTINUOUS
 70
0
 71
3
 72
8
 73
4
 74
2
 42
0.0000001
 43
0.0000001
 44
0.0000000001
 12
0.0006814093
 22
0.0
 32
0.0
 13
0.0006813968
 23
-0.000005341
 33
0.0
 40
0.0
 40
0.0
 40
0.0
 40
0.0
 40
1.0
 40
1.0
 40
1.0
 40
1.0
 10
10.9146004784
 20
6.9571238983
 30
0.0
 10
10.9148276148
 20
6.9571238983
 30
0.0
 10
10.9150547345
 20
6.9571203361
 30
0.0
 10
10.9152818668
 20
6.9571185558
 30
0.0
 11
10.9146004784
 21
6.9571238983
 31
0.0
 11
10.9152818668
 21
6.9571185558
 31
0.0
  0
SPLINE
  5
502
100
AcDbEntity
  8
0
100
AcDbSpline
 62
7
  6
CONTINUOUS
 70
0
 71
3
 72
8
 73
4
 74
2
 42
0.0000001
 43
0.0000001
 44
0.0000000001
 12
0.0011553764
 22
0.0
 32
0.0
 13
0.0011553698
 23
-0.0000051629
 33
0.0
 40
0.0
 40
0.0
 40
0.0
 40
0.0
 40
1.0
 40
1.0
 40
1.0
 40
1.0
 10
10.6706892306
 20
6.9571236762
 30
0.0
 10
10.6710743561
 20
6.9571236762
 30
0.0
 10
10.6714594724
 20
6.9571202767
 30
0.0
 10
10.6718445957
 20
6.9571185558
 30
0.0
 11
10.6706892306
 21
6.9571236762
 31
0.0
 11
10.6718445957
 21
6.9571185558
 31
0.0
  0
SPLINE
  5
503
100
AcDbEntity
  8
0
100
AcDbSpline
 62
7
  6
CONTINUOUS
 70
0
 71
3
 72
8
 73
4
 74
2
 42
0.0000001
 43
0.0000001
 44
0.0000000001
 12
0.0007028434
 22
0.0
 32
0.0
 13
0.0007028337
 23
-0.00000532
 33
0.0
 40
0.0
 40
0.0
 40
0.0
 40
0.0
 40
1.0
 40
1.0
 40
1.0
 40
1.0
 10
10.4281589347
 20
6.9571236828
 30
0.0
 10
10.4283932158
 20
6.9571236828
 30
0.0
 10
10.4286274815
 20
6.9571203291
 30
0.0
 10
10.4288617594
 20
6.9571185558
 30
0.0
 11
10.4281589347
 21
6.9571236828
 31
0.0
 11
10.4288617594
 21
6.9571185558
 31
0.0
  0
SPLINE
  5
504
100
AcDbEntity
  8
0
100
AcDbSpline
 62
7
  6
CONTINUOUS
 70
0
 71
3
 72
14
 73
10
 74
8
 42
0.0000001
 43
0.0000001
 44
0.0000000001
 12
0.0850151921
 22
0.000620093
 32
0.0
 13
0.0736272745
 23
0.0425087268
 33
0.0
 40
0.0
 40
0.0
 40
0.0
 40
0.0
 40
0.1323423341
 40
0.2668880288
 40
0.4039948203
 40
0.5442616037
 40
0.6891505537
 40
0.8404460629
 40
1.0
 40
1.0
 40
1.0
 40
1.0
 10
10.9166446401
 20
6.9571238911
 30
0.0
 10
10.9203950098
 20
6.957151246
 30
0.0
 10
10.9279591189
 20
6.9575761289
 30
0.0
 10
10.939302742
 20
6.9592239155
 30
0.0
 10
10.9506780671
 20
6.9619071157
 30
0.0
 10
10.9620817612
 20
6.9655702915
 30
0.0
 10
10.9735675883
 20
6.9701844218
 30
0.0
 10
10.9852321265
 20
6.9757456654
 30
0.0
 10
10.9929662436
 20
6.9799724809
 30
0.0
 10
10.9968820841
 20
6.9822332925
 30
0.0
 11
10.9166446401
 21
6.9571238911
 31
0.0
 11
10.9278793959
 21
6.9577358133
 31
0.0
 11
10.9391999622
 21
6.9593757456
 31
0.0
 11
10.9505495121
 21
6.9620330027
 31
0.0
 11
10.9619093426
 21
6.9656610672
 31
0.0
 11
10.9733478461
 21
6.970232278
 31
0.0
 11
10.9849681597
 21
6.9757476092
 31
0.0
 11
10.9968820841
 21
6.9822332925
 31
0.0
  0
SPLINE
  5
505
100
AcDbEntity
  8
0
100
AcDbSpline
 62
7
  6
CONTINUOUS
 70
0
 71
3
 72
14
 73
10
 74
8
 42
0.0000001
 43
0.0000001
 44
0.0000000001
 12
0.0733946274
 22
-0.0423744079
 32
0.0
 13
0.0847449878
 23
-0.0008054967
 33
0.0
 40
0.0
 40
0.0
 40
0.0
 40
0.0
 40
0.1605529058
 40
0.312341981
 40
0.4573374637
 40
0.5974173778
 40
0.7341061588
 40
0.8681276312
 40
1.0
 40
1.0
 40
1.0
 40
1.0
 10
10.8346320841
 20
6.9822332925
 30
0.0
 10
10.838559991
 20
6.9799655144
 30
0.0
 10
10.846307021
 20
6.9757323604
 30
0.0
 10
10.8579765868
 20
6.9701715006
 30
0.0
 10
10.8694376569
 20
6.9655693953
 30
0.0
 10
10.8807915411
 20
6.9619213981
 30
0.0
 10
10.8920982111
 20
6.9592476421
 30
0.0
 10
10.903364369
 20
6.9575988944
 30
0.0
 10
10.9108753043
 20
6.9571593059
 30
0.0
 10
10.9146004784
 20
6.9571238983
 30
0.0
 11
10.8346320841
 21
6.9822332925
 31
0.0
 11
10.8465832564
 21
6.9757286086
 31
0.0
 11
10.8582057149
 21
6.9702150324
 31
0.0
 11
10.8696171437
 21
6.9656566291
 31
0.0
 11
10.8809256681
 21
6.9620438289
 31
0.0
 11
10.8922034101
 21
6.9593968476
 31
0.0
 11
10.9034422883
 21
6.9577550678
 31
0.0
 11
10.9146004784
 21
6.9571238983
 31
0.0
  0
SPLINE
  5
506
100
AcDbEntity
  8
0
100
AcDbSpline
 62
7
  6
CONTINUOUS
 70
0
 71
3
 72
14
 73
10
 74
8
 42
0.0000001
 43
0.0000001
 44
0.0000000001
 12
-0.0846802458
 22
-0.0008589728
 32
0.0
 13
-0.0733390169
 23
-0.0423423011
 33
0.0
 40
0.0
 40
0.0
 40
0.0
 40
0.0
 40
0.1321943046
 40
0.2667051891
 40
0.403871002
 40
0.5441872747
 40
0.6891205934
 40
0.8404470687
 40
1.0
 40
1.0
 40
1.0
 40
1.0
 10
10.914536028
 20
7.176116345
 30
0.0
 10
10.9108046126
 20
7.1760784946
 30
0.0
 10
10.9032770078
 20
7.1756284639
 30
0.0
 10
10.8919844582
 20
7.1739688737
 30
0.0
 10
10.8806558056
 20
7.1712780492
 30
0.0
 10
10.8692965501
 20
7.1676163716
 30
0.0
 10
10.857855538
 20
7.1630114295
 30
0.0
 10
10.8462367305
 20
7.1574671278
 30
0.0
 10
10.8385325691
 20
7.1532557651
 30
0.0
 10
10.8346320841
 20
7.151003819
 30
0.0
 11
10.914536028
 21
7.176116345
 31
0.0
 11
10.9033596676
 21
7.1754736867
 31
0.0
 11
10.8920895659
 21
7.1738184805
 31
0.0
 11
10.8807835239
 21
7.1711537151
 31
0.0
 11
10.8694679862
 21
7.1675266711
 31
0.0
 11
10.8580738392
 21
7.1629643062
 31
0.0
 11
10.8464986126
 21
7.157465313
 31
0.0
 11
10.8346320841
 21
7.151003819
 31
0.0
  0
SPLINE
  5
507
100
AcDbEntity
  8
0
100
AcDbSpline
 62
7
  6
CONTINUOUS
 70
0
 71
3
 72
14
 73
10
 74
8
 42
0.0000001
 43
0.0000001
 44
0.0000000001
 12
-0.1567134905
 22
0.045239288
 32
0.0
 13
-0.1631115859
 23
0.0005672959
 33
0.0
 40
0.0
 40
0.0
 40
0.0
 40
0.0
 40
0.1525683772
 40
0.2996886364
 40
0.4430011222
 40
0.5840397245
 40
0.7239141414
 40
0.8626309336
 40
1.0
 40
1.0
 40
1.0
 40
1.0
 10
10.8346320841
 20
7.151003819
 30
0.0
 10
10.8266622431
 20
7.153304514
 30
0.0
 10
10.8109393351
 20
7.1575937981
 30
0.0
 10
10.7875012081
 20
7.1631639321
 30
0.0
 10
10.7644916062
 20
7.1677645929
 30
0.0
 10
10.7417083236
 20
7.1714010678
 30
0.0
 10
10.719039904
 20
7.1740535685
 30
0.0
 10
10.6964749243
 20
7.1756730348
 30
0.0
 10
10.6814635516
 20
7.1760925426
 30
0.0
 10
10.6739947228
 20
7.1761185189
 30
0.0
 11
10.8346320841
 21
7.151003819
 31
0.0
 11
10.8106190605
 21
7.1575367172
 31
0.0
 11
10.7872684011
 21
7.1630694001
 31
0.0
 11
10.7643430871
 21
7.1676378295
 31
0.0
 11
10.7416235339
 21
7.1712516516
 31
0.0
 11
10.7189613657
 21
7.1738903917
 31
0.0
 11
10.6963931568
 21
7.1755128327
 31
0.0
 11
10.6739947228
 21
7.1761185189
 31
0.0
  0
SPLINE
  5
508
100
AcDbEntity
  8
0
100
AcDbSpline
 62
7
  6
CONTINUOUS
 70
0
 71
3
 72
14
 73
10
 74
8
 42
0.0000001
 43
0.0000001
 44
0.0000000001
 12
0.1629507774
 22
0.0005936495
 32
0.0
 13
0.1565590818
 23
0.045194714
 33
0.0
 40
0.0
 40
0.0
 40
0.0
 40
0.0
 40
0.1379430275
 40
0.2772523043
 40
0.4175046123
 40
0.5586983528
 40
0.7018664494
 40
0.8484519209
 40
1.0
 40
1.0
 40
1.0
 40
1.0
 10
10.6741553307
 20
6.9571238888
 30
0.0
 10
10.6816479719
 20
6.9571511854
 30
0.0
 10
10.6967079663
 20
6.9575729094
 30
0.0
 10
10.7193334947
 20
6.9592111064
 30
0.0
 10
10.7420387024
 20
6.9618815817
 30
0.0
 10
10.764818145
 20
6.9655318566
 30
0.0
 10
10.787774738
 20
6.9701342511
 30
0.0
 10
10.8110979617
 20
6.97568567
 30
0.0
 10
10.8267233414
 20
6.9799502351
 30
0.0
 10
10.8346320841
 20
6.9822332925
 30
0.0
 11
10.6741553307
 21
6.9571238888
 31
0.0
 11
10.6966250748
 21
6.9577357323
 31
0.0
 11
10.7192664709
 21
6.9593756155
 31
0.0
 11
10.7419658438
 21
6.9620328505
 31
0.0
 11
10.7646857729
 21
6.965660918
 31
0.0
 11
10.7875630478
 21
6.9702321553
 31
0.0
 11
10.8108039489
 21
6.9757475362
 31
0.0
 11
10.8346320841
 21
6.9822332925
 31
0.0
  0
SPLINE
  5
509
100
AcDbEntity
  8
0
100
AcDbSpline
 62
7
  6
CONTINUOUS
 70
0
 71
3
 72
14
 73
10
 74
8
 42
0.0000001
 43
0.0000001
 44
0.0000000001
 12
0.1566363169
 22
-0.0452170099
 32
0.0
 13
0.1630312616
 23
-0.0005670167
 33
0.0
 40
0.0
 40
0.0
 40
0.0
 40
0.0
 40
0.1525692346
 40
0.2996906384
 40
0.443006627
 40
0.5840472953
 40
0.7239133513
 40
0.8626754892
 40
1.0
 40
1.0
 40
1.0
 40
1.0
 10
10.5101320841
 20
6.9822332925
 30
0.0
 10
10.5180980451
 20
6.9799337176
 30
0.0
 10
10.5338132817
 20
6.9756464084
 30
0.0
 10
10.5572400117
 20
6.9700783464
 30
0.0
 10
10.580238422
 20
6.9654788575
 30
0.0
 10
10.6030100667
 20
6.9618424408
 30
0.0
 10
10.6256691804
 20
6.959189353
 30
0.0
 10
10.6482223664
 20
6.9575658837
 30
0.0
 10
10.6632265012
 20
6.9571496313
 30
0.0
 10
10.6706892306
 20
6.9571236762
 30
0.0
 11
10.5101320841
 21
6.9822332925
 31
0.0
 11
10.5341333662
 21
6.9757033866
 31
0.0
 11
10.557472565
 21
6.970172781
 31
0.0
 11
10.580386935
 21
6.9656054143
 31
0.0
 11
10.6030953772
 21
6.9619917128
 31
0.0
 11
10.6257447719
 21
6.9593522016
 31
0.0
 11
10.6483090465
 21
6.9577273283
 31
0.0
 11
10.6706892306
 21
6.9571236762
 31
0.0
  0
SPLINE
  5
50A
100
AcDbEntity
  8
0
100
AcDbSpline
 62
7
  6
CONTINUOUS
 70
0
 71
3
 72
14
 73
10
 74
8
 42
0.0000001
 43
0.0000001
 44
0.0000000001
 12
-0.1623829372
 22
-0.0005850727
 32
0.0
 13
-0.1560134924
 23
-0.0450372159
 33
0.0
 40
0.0
 40
0.0
 40
0.0
 40
0.0
 40
0.1379684733
 40
0.277284632
 40
0.4175279597
 40
0.5587166182
 40
0.701884865
 40
0.8484677082
 40
1.0
 40
1.0
 40
1.0
 40
1.0
 10
10.6700407621
 20
7.176113357
 30
0.0
 10
10.6625728535
 20
7.1760864498
 30
0.0
 10
10.6475642661
 20
7.1756327872
 30
0.0
 10
10.6250178079
 20
7.1739866933
 30
0.0
 10
10.6023940849
 20
7.1713076947
 30
0.0
 10
10.5796966925
 20
7.1676591165
 30
0.0
 10
10.5568220983
 20
7.1630649973
 30
0.0
 10
10.5335821654
 20
7.1575289414
 30
0.0
 10
10.5180124448
 20
7.1532786832
 30
0.0
 10
10.5101320841
 20
7.151003819
 30
0.0
 11
10.6700407621
 21
7.176113357
 31
0.0
 11
10.6476459397
 21
7.1754766612
 31
0.0
 11
10.6250838188
 21
7.1738220054
 31
0.0
 11
10.6024668818
 21
7.1711581651
 31
0.0
 11
10.5798288148
 21
7.1675311734
 31
0.0
 11
10.5570327972
 21
7.1629680779
 31
0.0
 11
10.5338743371
 21
7.1574676603
 31
0.0
 11
10.5101320841
 21
7.151003819
 31
0.0
  0
SPLINE
  5
50B
100
AcDbEntity
  8
0
100
AcDbSpline
 62
7
  6
CONTINUOUS
 70
0
 71
3
 72
14
 73
10
 74
8
 42
0.0000001
 43
0.0000001
 44
0.0000000001
 12
-0.0733947583
 22
0.0423744835
 32
0.0
 13
-0.0847451389
 23
0.0008054982
 33
0.0
 40
0.0
 40
0.0
 40
0.0
 40
0.0
 40
0.1605526194
 40
0.3123414238
 40
0.4573366478
 40
0.597416312
 40
0.7341048491
 40
0.8681260825
 40
1.0
 40
1.0
 40
1.0
 40
1.0
 10
10.5101320841
 20
7.151003819
 30
0.0
 10
10.5062041772
 20
7.1532715972
 30
0.0
 10
10.4984571474
 20
7.1575047535
 30
0.0
 10
10.4867875809
 20
7.1630656032
 30
0.0
 10
10.4753265128
 20
7.1676677432
 30
0.0
 10
10.4639726217
 20
7.1713156174
 30
0.0
 10
10.4526659768
 20
7.1739898156
 30
0.0
 10
10.441399678
 20
7.1756369677
 30
0.0
 10
10.4338889143
 20
7.1760804764
 30
0.0
 10
10.4301636899
 20
7.1761158845
 30
0.0
 11
10.5101320841
 21
7.151003819
 31
0.0
 11
10.4981809118
 21
7.1575085029
 31
0.0
 11
10.4865584533
 21
7.1630220791
 31
0.0
 11
10.4751470245
 21
7.1675804824
 31
0.0
 11
10.4638385001
 21
7.1711932826
 31
0.0
 11
10.4525607581
 21
7.1738402639
 31
0.0
 11
10.44132188
 21
7.1754820437
 31
0.0
 11
10.4301636899
 21
7.1761158845
 31
0.0
  0
SPLINE
  5
50C
100
AcDbEntity
  8
0
100
AcDbSpline
 62
7
  6
CONTINUOUS
 70
0
 71
3
 72
14
 73
10
 74
8
 42
0.0000001
 43
0.0000001
 44
0.0000000001
 12
0.0846406263
 22
0.0008766395
 32
0.0
 13
0.073304864
 23
0.042322583
 33
0.0
 40
0.0
 40
0.0
 40
0.0
 40
0.0
 40
0.1324926697
 40
0.2670532852
 40
0.4041345336
 40
0.5443936626
 40
0.6892685607
 40
0.8405239772
 40
1.0
 40
1.0
 40
1.0
 40
1.0
 10
10.4302674068
 20
6.957124648
 30
0.0
 10
10.4340054943
 20
6.9571633641
 30
0.0
 10
10.4415395676
 20
6.9576122904
 30
0.0
 10
10.4528333187
 20
6.9592792522
 30
0.0
 10
10.4641531661
 20
6.9619718717
 30
0.0
 10
10.4755007887
 20
6.9656331197
 30
0.0
 10
10.4869308262
 20
6.9702357374
 30
0.0
 10
10.4985384866
 20
6.9757759202
 30
0.0
 10
10.5062352947
 20
6.9799834801
 30
0.0
 10
10.5101320841
 20
6.9822332925
 30
0.0
 11
10.4302674068
 21
6.957124648
 31
0.0
 11
10.441463719
 21
6.9577694489
 31
0.0
 11
10.4527319791
 21
6.9594296484
 31
0.0
 11
10.4640248011
 21
6.9620957189
 31
0.0
 11
10.4753295343
 21
6.9657224943
 31
0.0
 11
10.4867130363
 21
6.9702827645
 31
0.0
 11
10.4982769618
 21
6.9757776217
 31
0.0
 11
10.5101320841
 21
6.9822332925
 31
0.0
  0
SPLINE
  5
50D
100
AcDbEntity
  8
0
100
AcDbSpline
 62
7
  6
CONTINUOUS
 70
0
 71
3
 72
14
 73
10
 74
8
 42
0.0000001
 43
0.0000001
 44
0.0000000001
 12
-0.08501154
 22
-0.0006200663
 32
0.0
 13
-0.0736241116
 23
-0.0425069007
 33
0.0
 40
0.0
 40
0.0
 40
0.0
 40
0.0
 40
0.1323583666
 40
0.2669068208
 40
0.4040092121
 40
0.5442729838
 40
0.6891588106
 40
0.8404504407
 40
1.0
 40
1.0
 40
1.0
 40
1.0
 10
10.428115653
 20
7.1761172145
 30
0.0
 10
10.4243649902
 20
7.1760898575
 30
0.0
 10
10.4168010104
 20
7.1756586262
 30
0.0
 10
10.4054573963
 20
7.1740129474
 30
0.0
 10
10.394082801
 20
7.1713288986
 30
0.0
 10
10.3826799423
 20
7.1676659474
 30
0.0
 10
10.3711949317
 20
7.1630519312
 30
0.0
 10
10.3595312206
 20
7.1574910091
 30
0.0
 10
10.3517976489
 20
7.1532644715
 30
0.0
 10
10.3478820841
 20
7.151003819
 30
0.0
 11
10.428115653
 21
7.1761172145
 31
0.0
 11
10.4168802591
 21
7.1755008502
 31
0.0
 11
10.4055600031
 21
7.1738605672
 31
0.0
 11
10.3942113777
 21
7.1712031989
 31
0.0
 11
10.3828523483
 21
7.1675751517
 31
0.0
 11
10.3714146385
 21
7.1630040962
 31
0.0
 11
10.3597951577
 21
7.1574890681
 31
0.0
 11
10.3478820841
 21
7.151003819
 31
0.0
  0
SPLINE
  5
50E
100
AcDbEntity
  8
0
100
AcDbSpline
 62
7
  6
CONTINUOUS
 70
0
 71
3
 72
14
 73
10
 74
8
 42
0.0000001
 43
0.0000001
 44
0.0000000001
 12
-0.0736960916
 22
0.0425484583
 32
0.0
 13
-0.0850948497
 23
0.0005931054
 33
0.0
 40
0.0
 40
0.0
 40
0.0
 40
0.0
 40
0.160618908
 40
0.312438382
 40
0.457437829
 40
0.5975167165
 40
0.734228872
 40
0.8681919623
 40
1.0
 40
1.0
 40
1.0
 40
1.0
 10
10.9968820841
 20
7.151003819
 30
0.0
 10
10.9929364222
 20
7.153281848
 30
0.0
 10
10.9851546825
 20
7.1575329031
 30
0.0
 10
10.9734323237
 20
7.1631132061
 30
0.0
 10
10.9619196811
 20
7.1677258573
 30
0.0
 10
10.9505139179
 20
7.1713753489
 30
0.0
 10
10.9391570627
 20
7.1740406414
 30
0.0
 10
10.92784352
 20
7.1756697275
 30
0.0
 10
10.920304133
 20
7.1760924971
 30
0.0
 10
10.9165654046
 20
7.1761185558
 30
0.0
 11
10.9968820841
 21
7.151003819
 31
0.0
 11
10.9848760975
 21
7.1575364495
 31
0.0
 11
10.9732012726
 21
7.16306895
 31
0.0
 11
10.9617391009
 21
7.1676372853
 31
0.0
 11
10.9503798112
 21
7.1712510985
 31
0.0
 11
10.9390492527
 21
7.1738899144
 31
0.0
 11
10.9277654796
 21
7.1755125516
 31
0.0
 11
10.9165654046
 21
7.1761185558
 31
0.0
  0
SPLINE
  5
50F
100
AcDbEntity
  8
0
100
AcDbSpline
 62
7
  6
CONTINUOUS
 70
0
 71
3
 72
20
 73
16
 74
14
 42
0.0000001
 43
0.0000001
 44
0.0000000001
 12
-0.3682900609
 22
-0.1096610368
 32
0.0
 13
-0.3682900609
 23
0.1096610368
 33
0.0
 40
0.0
 40
0.0
 40
0.0
 40
0.0
 40
0.0808994998
 40
0.1595041732
 40
0.2364443629
 40
0.3123001971
 40
0.3875896994
 40
0.4625546174
 40
0.5374457684
 40
0.6124106919
 40
0.6877001886
 40
0.763556004
 40
0.8404960122
 40
0.9191005132
 40
1.0
 40
1.0
 40
1.0
 40
1.0
 10
11.0802843318
 20
7.7101822216
 30
0.0
 10
11.0703528379
 20
7.7072250473
 30
0.0
 10
11.0506688403
 20
7.7017314779
 30
0.0
 10
11.021199258
 20
7.6947127712
 30
0.0
 10
10.9920959567
 20
7.6890486911
 30
0.0
 10
10.9631876706
 20
7.6847526228
 30
0.0
 10
10.9343589007
 20
7.6818569615
 30
0.0
 10
10.9055448653
 20
7.6803973885
 30
0.0
 10
10.8767351879
 20
7.6803973922
 30
0.0
 10
10.8479211528
 20
7.6818569728
 30
0.0
 10
10.8190923861
 20
7.6847526411
 30
0.0
 10
10.7901841271
 20
7.6890487121
 30
0.0
 10
10.7610808736
 20
7.6947127874
 30
0.0
 10
10.7316113374
 20
7.7017314847
 30
0.0
 10
10.7119273627
 20
7.7072250478
 30
0.0
 10
10.7019958704
 20
7.7101822216
 30
0.0
 11
11.0802843318
 21
7.7101822216
 31
0.0
 11
11.0503352129
 21
7.7018476346
 31
0.0
 11
11.0209467681
 21
7.6948702001
 31
0.0
 11
10.9919218789
 21
7.6892407387
 31
0.0
 11
10.9630871284
 21
7.6849714772
 31
0.0
 11
10.934299376
 21
7.6820913699
 31
0.0
 11
10.9055292226
 21
7.6806400217
 31
0.0
 11
10.8767508313
 21
7.6806400254
 31
0.0
 11
10.8479806762
 21
7.6820913813
 31
0.0
 11
10.8191929267
 21
7.6849714955
 31
0.0
 11
10.7903581843
 21
7.6892407625
 31
0.0
 11
10.7613333645
 21
7.6948702151
 31
0.0
 11
10.7319449844
 21
7.7018476358
 31
0.0
 11
10.7019958704
 21
7.7101822216
 31
0.0
  0
SPLINE
  5
510
100
AcDbEntity
  8
0
100
AcDbSpline
 62
7
  6
CONTINUOUS
 70
0
 71
3
 72
22
 73
18
 74
16
 42
0.0000001
 43
0.0000001
 44
0.0000000001
 12
-0.3517854162
 22
0.1814265356
 32
0.0
 13
-0.3517854162
 23
-0.1814265356
 33
0.0
 40
0.0
 40
0.0
 40
0.0
 40
0.0
 40
0.0762692529
 40
0.1481294875
 40
0.2164524466
 40
0.28203266
 40
0.345672879
 40
0.40792517
 40
0.4694062844
 40
0.5305943147
 40
0.5920753794
 40
0.6543276175
 40
0.7179677727
 40
0.7835478851
 40
0.851870604
 40
0.9237306768
 40
1.0
 40
1.0
 40
1.0
 40
1.0
 10
11.0802843318
 20
8.0836185558
 30
0.0
 10
11.0713408615
 20
8.0882309779
 30
0.0
 10
11.0537602002
 20
8.0967899987
 30
0.0
 10
11.0274513506
 20
8.107934553
 30
0.0
 10
11.0018755781
 20
8.1170868238
 30
0.0
 10
10.9768248201
 20
8.1243450962
 30
0.0
 10
10.9521306854
 20
8.1297650733
 30
0.0
 10
10.9276526655
 20
8.133373485
 30
0.0
 10
10.9032992935
 20
8.1351767686
 30
0.0
 10
10.878980678
 20
8.1351767598
 30
0.0
 10
10.8546273207
 20
8.1333734605
 30
0.0
 10
10.8301493248
 20
8.1297650374
 30
0.0
 10
10.8054552209
 20
8.1243450542
 30
0.0
 10
10.780404517
 20
8.1170867875
 30
0.0
 10
10.7548288087
 20
8.1079345346
 30
0.0
 10
10.7285199996
 20
8.0967899973
 30
0.0
 10
10.7109393489
 20
8.0882309821
 30
0.0
 10
10.7019958704
 20
8.0836185558
 30
0.0
 11
11.0802843318
 21
8.0836185558
 31
0.0
 11
11.0531245592
 21
8.0967976165
 31
0.0
 11
11.0269200591
 21
8.107858536
 31
0.0
 11
11.001447007
 21
8.1169391019
 31
0.0
 11
10.9765069818
 21
8.1241356102
 31
0.0
 11
10.9518980232
 21
8.1295132483
 31
0.0
 11
10.9275187752
 21
8.1330906
 31
0.0
 11
10.903249516
 21
8.1348791387
 31
0.0
 11
10.8790304491
 21
8.13487913
 31
0.0
 11
10.8547612107
 21
8.1330905761
 31
0.0
 11
10.8303819856
 21
8.129513213
 31
0.0
 11
10.8057730543
 21
8.1241355681
 31
0.0
 11
10.7808330701
 21
8.1169390616
 31
0.0
 11
10.7553601093
 21
8.1078585228
 31
0.0
 11
10.7291556683
 21
8.096797628
 31
0.0
 11
10.7019958704
 21
8.0836185558
 31
0.0
  0
SPLINE
  5
511
100
AcDbEntity
  8
0
100
AcDbSpline
 62
7
  6
CONTINUOUS
 70
0
 71
3
 72
20
 73
16
 74
14
 42
0.0000001
 43
0.0000001
 44
0.0000000001
 12
-0.3682900609
 22
-0.1096610368
 32
0.0
 13
-0.3682900609
 23
0.1096610368
 33
0.0
 40
0.0
 40
0.0
 40
0.0
 40
0.0
 40
0.0808994998
 40
0.1595041732
 40
0.2364443629
 40
0.3123001971
 40
0.3875896994
 40
0.4625546174
 40
0.5374457684
 40
0.6124106919
 40
0.6877001886
 40
0.763556004
 40
0.8404960122
 40
0.9191005132
 40
1.0
 40
1.0
 40
1.0
 40
1.0
 10
10.6427682978
 20
7.7101822216
 30
0.0
 10
10.6328368039
 20
7.7072250473
 30
0.0
 10
10.6131528063
 20
7.7017314779
 30
0.0
 10
10.583683224
 20
7.6947127712
 30
0.0
 10
10.5545799227
 20
7.6890486911
 30
0.0
 10
10.5256716366
 20
7.6847526228
 30
0.0
 10
10.4968428668
 20
7.6818569615
 30
0.0
 10
10.4680288313
 20
7.6803973885
 30
0.0
 10
10.4392191539
 20
7.6803973922
 30
0.0
 10
10.4104051188
 20
7.6818569728
 30
0.0
 10
10.3815763521
 20
7.6847526411
 30
0.0
 10
10.3526680931
 20
7.6890487121
 30
0.0
 10
10.3235648396
 20
7.6947127874
 30
0.0
 10
10.2940953034
 20
7.7017314847
 30
0.0
 10
10.2744113287
 20
7.7072250478
 30
0.0
 10
10.2644798364
 20
7.7101822216
 30
0.0
 11
10.6427682978
 21
7.7101822216
 31
0.0
 11
10.6128191789
 21
7.7018476346
 31
0.0
 11
10.5834307341
 21
7.6948702001
 31
0.0
 11
10.5544058449
 21
7.6892407387
 31
0.0
 11
10.5255710944
 21
7.6849714772
 31
0.0
 11
10.496783342
 21
7.6820913699
 31
0.0
 11
10.4680131886
 21
7.6806400217
 31
0.0
 11
10.4392347973
 21
7.6806400254
 31
0.0
 11
10.4104646422
 21
7.6820913813
 31
0.0
 11
10.3816768927
 21
7.6849714955
 31
0.0
 11
10.3528421503
 21
7.6892407625
 31
0.0
 11
10.3238173305
 21
7.6948702151
 31
0.0
 11
10.2944289504
 21
7.7018476358
 31
0.0
 11
10.2644798364
 21
7.7101822216
 31
0.0
  0
SPLINE
  5
512
100
AcDbEntity
  8
0
100
AcDbSpline
 62
7
  6
CONTINUOUS
 70
0
 71
3
 72
22
 73
18
 74
16
 42
0.0000001
 43
0.0000001
 44
0.0000000001
 12
-0.3517854162
 22
0.1814265356
 32
0.0
 13
-0.3517854162
 23
-0.1814265356
 33
0.0
 40
0.0
 40
0.0
 40
0.0
 40
0.0
 40
0.0762692529
 40
0.1481294875
 40
0.2164524466
 40
0.28203266
 40
0.345672879
 40
0.40792517
 40
0.4694062844
 40
0.5305943147
 40
0.5920753794
 40
0.6543276175
 40
0.7179677727
 40
0.7835478851
 40
0.851870604
 40
0.9237306768
 40
1.0
 40
1.0
 40
1.0
 40
1.0
 10
10.6427682978
 20
8.0836185558
 30
0.0
 10
10.6338248275
 20
8.0882309779
 30
0.0
 10
10.6162441662
 20
8.0967899987
 30
0.0
 10
10.5899353166
 20
8.107934553
 30
0.0
 10
10.5643595441
 20
8.1170868238
 30
0.0
 10
10.5393087861
 20
8.1243450962
 30
0.0
 10
10.5146146514
 20
8.1297650733
 30
0.0
 10
10.4901366315
 20
8.133373485
 30
0.0
 10
10.4657832595
 20
8.1351767686
 30
0.0
 10
10.441464644
 20
8.1351767598
 30
0.0
 10
10.4171112867
 20
8.1333734605
 30
0.0
 10
10.3926332908
 20
8.1297650374
 30
0.0
 10
10.3679391869
 20
8.1243450542
 30
0.0
 10
10.342888483
 20
8.1170867875
 30
0.0
 10
10.3173127747
 20
8.1079345346
 30
0.0
 10
10.2910039656
 20
8.0967899973
 30
0.0
 10
10.273423315
 20
8.0882309821
 30
0.0
 10
10.2644798364
 20
8.0836185558
 30
0.0
 11
10.6427682978
 21
8.0836185558
 31
0.0
 11
10.6156085252
 21
8.0967976165
 31
0.0
 11
10.5894040251
 21
8.107858536
 31
0.0
 11
10.5639309731
 21
8.1169391019
 31
0.0
 11
10.5389909478
 21
8.1241356102
 31
0.0
 11
10.5143819892
 21
8.1295132483
 31
0.0
 11
10.4900027412
 21
8.1330906
 31
0.0
 11
10.465733482
 21
8.1348791387
 31
0.0
 11
10.4415144151
 21
8.13487913
 31
0.0
 11
10.4172451767
 21
8.1330905761
 31
0.0
 11
10.3928659516
 21
8.129513213
 31
0.0
 11
10.3682570203
 21
8.1241355681
 31
0.0
 11
10.3433170361
 21
8.1169390616
 31
0.0
 11
10.3178440753
 21
8.1078585228
 31
0.0
 11
10.2916396343
 21
8.096797628
 31
0.0
 11
10.2644798364
 21
8.0836185558
 31
0.0
  0
SPLINE
  5
513
100
AcDbEntity
  8
0
100
AcDbSpline
 62
7
  6
CONTINUOUS
 70
0
 71
3
 72
14
 73
10
 74
8
 42
0.0000001
 43
0.0000001
 44
0.0000000001
 12
0.0736614046
 22
-0.0425284318
 32
0.0
 13
0.0850547975
 23
-0.000592839
 33
0.0
 40
0.0
 40
0.0
 40
0.0
 40
0.0
 40
0.1606205661
 40
0.3124433728
 40
0.457449563
 40
0.5975344973
 40
0.7342430867
 40
0.868251285
 40
1.0
 40
1.0
 40
1.0
 40
1.0
 10
10.3478820841
 20
6.9822332925
 30
0.0
 10
10.3518259296
 20
6.9799563122
 30
0.0
 10
10.3596040811
 20
6.9757071116
 30
0.0
 10
10.3713209864
 20
6.9701288027
 30
0.0
 10
10.3828282641
 20
6.9655172974
 30
0.0
 10
10.3942284292
 20
6.9618678631
 30
0.0
 10
10.4055807949
 20
6.9592020777
 30
0.0
 10
10.4168879873
 20
6.9575691035
 30
0.0
 10
10.4244236479
 20
6.957149718
 30
0.0
 10
10.4281589347
 20
6.9571236828
 30
0.0
 11
10.3478820841
 21
6.9822332925
 31
0.0
 11
10.3598824626
 21
6.9757035204
 31
0.0
 11
10.3715518127
 21
6.9701730047
 31
0.0
 11
10.3830087547
 21
6.9656056855
 31
0.0
 11
10.3943627334
 21
6.9619919885
 31
0.0
 11
10.4056871864
 21
6.9593524363
 31
0.0
 11
10.4169690804
 21
6.9577274746
 31
0.0
 11
10.4281589347
 21
6.9571236828
 31
0.0
  0
SPLINE
  5
514
100
AcDbEntity
  8
0
100
AcDbSpline
 62
7
  6
CONTINUOUS
 70
0
 71
3
 72
8
 73
4
 74
2
 42
0.0000001
 43
0.0000001
 44
0.0000000001
 12
0.0006891995
 22
0.0000053464
 32
0.0
 13
0.0006892116
 23
0.0
 33
0.0
 40
0.0
 40
0.0
 40
0.0
 40
0.0
 40
1.0
 40
1.0
 40
1.0
 40
1.0
 10
10.9159554492
 20
6.9571185558
 30
0.0
 10
10.9161851823
 20
6.9571203379
 30
0.0
 10
10.9164149029
 20
6.9571238911
 30
0.0
 10
10.9166446401
 20
6.9571238911
 30
0.0
 11
10.9159554492
 21
6.9571185558
 31
0.0
 11
10.9166446401
 21
6.9571238911
 31
0.0
  0
SPLINE
  5
515
100
AcDbEntity
  8
0
100
AcDbSpline
 62
7
  6
CONTINUOUS
 70
0
 71
3
 72
8
 73
4
 74
2
 42
0.0000001
 43
0.0000001
 44
0.0000000001
 12
0.0011568591
 22
0.000005303
 32
0.0
 13
0.0011568666
 23
0.0
 33
0.0
 40
0.0
 40
0.0
 40
0.0
 40
0.0
 40
1.0
 40
1.0
 40
1.0
 40
1.0
 10
10.6729984764
 20
6.9571185558
 30
0.0
 10
10.6733840961
 20
6.9571203234
 30
0.0
 10
10.6737697085
 20
6.9571238888
 30
0.0
 10
10.6741553307
 20
6.9571238888
 30
0.0
 11
10.6729984764
 21
6.9571185558
 31
0.0
 11
10.6741553307
 21
6.9571238888
 31
0.0
  0
SPLINE
  5
516
100
AcDbEntity
  8
0
100
AcDbSpline
 62
7
  6
CONTINUOUS
 70
0
 71
3
 72
8
 73
4
 74
2
 42
0.0000001
 43
0.0000001
 44
0.0000000001
 12
0.0007094613
 22
0.0000059017
 32
0.0
 13
0.0007094783
 23
0.0
 33
0.0
 40
0.0
 40
0.0
 40
0.0
 40
0.0
 40
1.0
 40
1.0
 40
1.0
 40
1.0
 10
10.4295579546
 20
6.9571185558
 30
0.0
 10
10.4297944417
 20
6.957120523
 30
0.0
 10
10.430030914
 20
6.957124648
 30
0.0
 10
10.4302674068
 20
6.957124648
 30
0.0
 11
10.4295579546
 21
6.9571185558
 31
0.0
 11
10.4302674068
 21
6.957124648
 31
0.0
  0
SPLINE
  5
517
100
AcDbEntity
  8
0
100
AcDbSpline
 62
7
  6
CONTINUOUS
 70
0
 71
3
 72
18
 73
14
 74
12
 42
0.0000001
 43
0.0000001
 44
0.0000000001
 12
0.0736712861
 22
-0.0425341368
 32
0.0
 13
0.0850662074
 23
-0.0005929186
 33
0.0
 40
0.0
 40
0.0
 40
0.0
 40
0.0
 40
0.1030761857
 40
0.2022612966
 40
0.2981389843
 40
0.3912689757
 40
0.4821227709
 40
0.571121553
 40
0.6586296294
 40
0.7449896057
 40
0.8305103935
 40
0.9154259318
 40
1.0
 40
1.0
 40
1.0
 40
1.0
 10
10.3478820841
 20
6.9822332925
 30
0.0
 10
10.3504133358
 20
6.9807718736
 30
0.0
 10
10.3554242604
 20
6.9779793562
 30
0.0
 10
10.3629449277
 20
6.9741142833
 30
0.0
 10
10.3703467556
 20
6.9706462379
 30
0.0
 10
10.3776626777
 20
6.967565757
 30
0.0
 10
10.384921285
 20
6.9648692976
 30
0.0
 10
10.3921450233
 20
6.9625590437
 30
0.0
 10
10.3993512148
 20
6.9606407932
 30
0.0
 10
10.406551898
 20
6.9591239967
 30
0.0
 10
10.4137528874
 20
6.9580150861
 30
0.0
 10
10.4209553347
 20
6.9573344006
 30
0.0
 10
10.425760803
 20
6.957140398
 30
0.0
 10
10.4281589347
 20
6.9571236828
 30
0.0
 11
10.3478820841
 21
6.9822332925
 31
0.0
 11
10.3555443435
 21
6.9779698896
 31
0.0
 11
10.3630514685
 21
6.9741183205
 31
0.0
 11
10.3704395834
 21
6.9706631025
 31
0.0
 11
10.3777433361
 21
6.9675939433
 31
0.0
 11
10.3849902852
 21
6.964907738
 31
0.0
 11
10.3922030324
 21
6.9626064543
 31
0.0
 11
10.3993979425
 21
6.9606962705
 31
0.0
 11
10.4065874064
 21
6.9591854483
 31
0.0
 11
10.4137785322
 21
6.958083235
 31
0.0
 11
10.4209696097
 21
6.9573983514
 31
0.0
 11
10.4281589347
 21
6.9571236828
 31
0.0
  0
SPLINE
  5
518
100
AcDbEntity
  8
0
100
AcDbSpline
 62
7
  6
CONTINUOUS
 70
0
 71
3
 72
18
 73
14
 74
12
 42
0.0000001
 43
0.0000001
 44
0.0000000001
 12
-0.0737059242
 22
0.0425541352
 32
0.0
 13
-0.0851062032
 23
0.0005931846
 33
0.0
 40
0.0
 40
0.0
 40
0.0
 40
0.0
 40
0.1030435123
 40
0.2021962247
 40
0.2980422026
 40
0.3911413136
 40
0.481963589
 40
0.5709315395
 40
0.6584146629
 40
0.7447389618
 40
0.8302172341
 40
0.9151479864
 40
1.0
 40
1.0
 40
1.0
 40
1.0
 10
10.9968820841
 20
7.151003819
 30
0.0
 10
10.994350445
 20
7.1524654616
 30
0.0
 10
10.9893387705
 20
7.1552583817
 30
0.0
 10
10.9818169785
 20
7.159123957
 30
0.0
 10
10.9744140607
 20
7.1625923835
 30
0.0
 10
10.967097092
 20
7.1656731157
 30
0.0
 10
10.95983747
 20
7.1683697068
 30
0.0
 10
10.9526126037
 20
7.1706799977
 30
0.0
 10
10.9454054366
 20
7.1725981683
 30
0.0
 10
10.9382041323
 20
7.1741144659
 30
0.0
 10
10.9310014796
 20
7.1752237958
 30
0.0
 10
10.9237883992
 20
7.1759024987
 30
0.0
 10
10.9189725488
 20
7.1761017781
 30
0.0
 10
10.9165654046
 20
7.1761185558
 30
0.0
 11
10.9968820841
 21
7.151003819
 31
0.0
 11
10.9892186413
 21
7.155267855
 31
0.0
 11
10.9817104086
 21
7.1591199151
 31
0.0
 11
10.9743212142
 21
7.1625755064
 31
0.0
 11
10.9670163826
 21
7.1656449291
 31
0.0
 11
10.95976846
 21
7.1683312453
 31
0.0
 11
10.9525547313
 21
7.1706325309
 31
0.0
 11
10.9453583948
 21
7.1725427053
 31
0.0
 11
10.9381684307
 21
7.1740531787
 31
0.0
 11
10.9309774294
 21
7.1751548973
 31
0.0
 11
10.9237816235
 21
7.1758396124
 31
0.0
 11
10.9165654046
 21
7.1761185558
 31
0.0
  0
SPLINE
  5
519
100
AcDbEntity
  8
0
100
AcDbSpline
 62
7
  6
CONTINUOUS
 70
0
 71
3
 72
18
 73
14
 74
12
 42
0.0000001
 43
0.0000001
 44
0.0000000001
 12
-0.0239924614
 22
0.2721360204
 32
0.0
 13
-0.0
 23
0.2731916028
 33
0.0
 40
0.0
 40
0.0
 40
0.0
 40
0.0
 40
0.0926697386
 40
0.1843040557
 40
0.2751747868
 40
0.3655616141
 40
0.4557223048
 40
0.5459292529
 40
0.636326346
 40
0.7269181252
 40
0.8177226976
 40
0.9087484694
 40
1.0
 40
1.0
 40
1.0
 40
1.0
 10
9.9482708818
 20
10.8273205536
 30
0.0
 10
9.9475297568
 20
10.8357268115
 30
0.0
 10
9.9461064799
 20
10.852449924
 30
0.0
 10
9.9441428934
 20
10.8774315296
 30
0.0
 10
9.9423648333
 20
10.9022186335
 30
0.0
 10
9.9407739692
 20
10.9268840028
 30
0.0
 10
9.9393734778
 20
10.9515003926
 30
0.0
 10
9.9381686886
 20
10.9761280962
 30
0.0
 10
9.9371669899
 20
11.0008042097
 30
0.0
 10
9.9363766389
 20
11.0255424666
 30
0.0
 10
9.9358053337
 20
11.0503440409
 30
0.0
 10
9.9354593507
 20
11.075209859
 30
0.0
 10
9.9353820841
 20
11.0918088385
 30
0.0
 10
9.9353820841
 20
11.1001185558
 30
0.0
 11
9.9482708818
 21
10.8273205536
 31
0.0
 11
9.9461258195
 21
10.8525461093
 31
0.0
 11
9.9441659774
 21
10.8775030012
 31
0.0
 11
9.942391489
 21
10.9022646208
 31
0.0
 11
9.9408038097
 21
10.9269064487
 31
0.0
 11
9.9394063005
 21
10.9514979148
 31
0.0
 11
9.9382035945
 21
10.9761123298
 31
0.0
 11
9.9372031845
 21
11.0007877852
 31
0.0
 11
9.9364139395
 21
11.0255241108
 31
0.0
 11
9.9358434436
 21
11.0503245967
 31
0.0
 11
9.9354979593
 21
11.0751896732
 31
0.0
 11
9.9353820841
 21
11.1001185558
 31
0.0
  0
SPLINE
  5
51A
100
AcDbEntity
  8
0
100
AcDbSpline
 62
7
  6
CONTINUOUS
 70
0
 71
3
 72
18
 73
14
 74
12
 42
0.0000001
 43
0.0000001
 44
0.0000000001
 12
0.0
 22
0.2731916028
 32
0.0
 13
0.0239924614
 23
0.2721360204
 33
0.0
 40
0.0
 40
0.0
 40
0.0
 40
0.0
 40
0.0912547524
 40
0.1822827058
 40
0.2730889183
 40
0.3636820853
 40
0.4540809468
 40
0.5442901928
 40
0.6344511264
 40
0.7248364132
 40
0.8157043228
 40
0.907334712
 40
1.0
 40
1.0
 40
1.0
 40
1.0
 10
9.9353820841
 20
11.1001185558
 30
0.0
 10
9.9353820841
 20
11.1084285664
 30
0.0
 10
9.9354593557
 20
11.125028038
 30
0.0
 10
9.9358053585
 20
11.1498944973
 30
0.0
 10
9.9363766899
 20
11.1746965455
 30
0.0
 10
9.9371670735
 20
11.1994352384
 30
0.0
 10
9.938168814
 20
11.2241118473
 30
0.0
 10
9.9393736476
 20
11.2487399416
 30
0.0
 10
9.9407741709
 20
11.2733564209
 30
0.0
 10
9.9423650349
 20
11.2980214142
 30
0.0
 10
9.9441430597
 20
11.3228077638
 30
0.0
 10
9.9461065778
 20
11.3477883517
 30
0.0
 10
9.9475297924
 20
11.3645107037
 30
0.0
 10
9.9482708818
 20
11.372916558
 30
0.0
 11
9.9353820841
 21
11.1001185558
 31
0.0
 11
9.9354979675
 21
11.1250483185
 31
0.0
 11
9.9358434709
 21
11.1499139907
 31
0.0
 11
9.9364139924
 21
11.1747149242
 31
0.0
 11
9.937203268
 21
11.1994516281
 31
0.0
 11
9.9382037191
 21
11.2241275654
 31
0.0
 11
9.9394064809
 21
11.2487426062
 31
0.0
 11
9.9408040205
 21
11.273334137
 31
0.0
 11
9.9423916969
 21
11.2979755434
 31
0.0
 11
9.9441661489
 21
11.3227363929
 31
0.0
 11
9.9461259186
 21
11.3476922141
 31
0.0
 11
9.9482708818
 21
11.372916558
 31
0.0
  0
SPLINE
  5
51B
100
AcDbEntity
  8
0
100
AcDbSpline
 62
7
  6
CONTINUOUS
 70
0
 71
3
 72
18
 73
14
 74
12
 42
0.0000001
 43
0.0000001
 44
0.0000000001
 12
-0.0238216407
 22
0.1350992377
 32
0.0
 13
-0.0
 23
0.1371833612
 33
0.0
 40
0.0
 40
0.0
 40
0.0
 40
0.0
 40
0.0935326425
 40
0.185747259
 40
0.2769738114
 40
0.367533716
 40
0.4577490768
 40
0.5478521171
 40
0.6379996138
 40
0.7282881346
 40
0.8187160126
 40
0.9092874476
 40
1.0
 40
1.0
 40
1.0
 40
1.0
 10
9.9482708818
 20
11.372916558
 30
0.0
 10
9.9475281815
 20
11.3771286209
 30
0.0
 10
9.9461029146
 20
11.3855022541
 30
0.0
 10
9.9441364568
 20
11.3980144137
 30
0.0
 10
9.9423577507
 20
11.4104173865
 30
0.0
 10
9.9407672228
 20
11.4227537574
 30
0.0
 10
9.9393676487
 20
11.4350615914
 30
0.0
 10
9.9381641694
 20
11.4473712449
 30
0.0
 10
9.9371638383
 20
11.4597024764
 30
0.0
 10
9.9363746742
 20
11.4720639477
 30
0.0
 10
9.9358043329
 20
11.4844569028
 30
0.0
 10
9.9354591425
 20
11.4968775536
 30
0.0
 10
9.9353820841
 20
11.5051674747
 30
0.0
 10
9.9353820841
 20
11.509315559
 30
0.0
 11
9.9482708818
 21
11.372916558
 31
0.0
 11
9.9461198052
 21
11.3855660863
 31
0.0
 11
9.944157635
 21
11.3980632963
 31
0.0
 11
9.9423829109
 21
11.4104515851
 31
0.0
 11
9.9407960884
 21
11.4227731385
 31
0.0
 11
9.9393994374
 21
11.4350701256
 31
0.0
 11
9.9381982423
 21
11.4473722596
 31
0.0
 11
9.9371996717
 21
11.4596986147
 31
0.0
 11
9.9364116712
 21
11.4720596058
 31
0.0
 11
9.9358422192
 21
11.4844517291
 31
0.0
 11
9.9354975746
 21
11.4968718421
 31
0.0
 11
9.9353820841
 21
11.509315559
 31
0.0
  0
SPLINE
  5
51C
100
AcDbEntity
  8
0
100
AcDbSpline
 62
7
  6
CONTINUOUS
 70
0
 71
3
 72
12
 73
8
 74
6
 42
0.0000001
 43
0.0000001
 44
0.0000000001
 12
-0.0
 22
0.062214787
 32
0.0
 13
0.0055579659
 23
0.0619667383
 33
0.0
 40
0.0
 40
0.0
 40
0.0
 40
0.0
 40
0.2007886877
 40
0.4012219513
 40
0.601256329
 40
0.8008628156
 40
1.0
 40
1.0
 40
1.0
 40
1.0
 10
9.9353820841
 20
11.509315559
 30
0.0
 10
9.9353820841
 20
11.5134795675
 30
0.0
 10
9.9354597274
 20
11.5218004216
 30
0.0
 10
9.9358074452
 20
11.5342652554
 30
0.0
 10
9.9363816232
 20
11.5466971838
 30
0.0
 10
9.9371754122
 20
11.5590900381
 30
0.0
 10
9.9378460479
 20
11.5673324443
 30
0.0
 10
9.9382149805
 20
11.5714457383
 30
0.0
 11
9.9353820841
 21
11.509315559
 31
0.0
 11
9.9354984623
 21
11.5218070423
 31
0.0
 11
9.9358456483
 21
11.5342721211
 31
0.0
 11
9.9364189621
 21
11.5467040047
 31
0.0
 11
9.9372116252
 21
11.5590971564
 31
0.0
 11
9.9382149805
 21
11.5714457383
 31
0.0
  0
SPLINE
  5
51D
100
AcDbEntity
  8
0
100
AcDbSpline
 62
7
  6
CONTINUOUS
 70
0
 71
3
 72
8
 73
4
 74
2
 42
0.0000001
 43
0.0000001
 44
0.0000000001
 12
0.0000796153
 22
0.0008876452
 32
0.0
 13
0.0000806694
 23
0.0008875498
 33
0.0
 40
0.0
 40
0.0
 40
0.0
 40
0.0
 40
1.0
 40
1.0
 40
1.0
 40
1.0
 10
9.9382149805
 20
11.5714457383
 30
0.0
 10
9.9382415189
 20
11.57174162
 30
0.0
 10
9.9382682334
 20
11.5720374859
 30
0.0
 10
9.9382951231
 20
11.5723333358
 30
0.0
 11
9.9382149805
 21
11.5714457383
 31
0.0
 11
9.9382951231
 21
11.5723333358
 31
0.0
  0
SPLINE
  5
51E
100
AcDbEntity
  8
0
100
AcDbSpline
 62
7
  6
CONTINUOUS
 70
0
 71
3
 72
13
 73
9
 74
7
 42
0.0000001
 43
0.0000001
 44
0.0000000001
 12
0.0067053273
 22
0.0737740997
 32
0.0
 13
0.0128634009
 23
0.0729519717
 33
0.0
 40
0.0
 40
0.0
 40
0.0
 40
0.0
 40
0.1549753994
 40
0.3220022845
 40
0.4894536154
 40
0.6578930882
 40
0.8278828372
 40
1.0
 40
1.0
 40
1.0
 40
1.0
 10
9.9382951231
 20
11.5723333358
 30
0.0
 10
9.9386415101
 20
11.5761443927
 30
0.0
 10
9.9394216885
 20
11.5840573626
 30
0.0
 10
9.9407902043
 20
11.5960659232
 30
0.0
 10
9.9423808872
 20
11.60838234
 30
0.0
 10
9.9441563387
 20
11.6207473575
 30
0.0
 10
9.9461150765
 20
11.6332012495
 30
0.0
 10
9.9475328778
 20
11.6415291313
 30
0.0
 10
9.9482708818
 20
11.6457145601
 30
0.0
 11
9.9382951231
 21
11.5723333358
 31
0.0
 11
9.9394203184
 21
11.5837582494
 31
0.0
 11
9.9408196199
 21
11.5960517814
 31
0.0
 11
9.9424067055
 21
11.6083541867
 31
0.0
 11
9.9441783053
 21
11.6207053317
 31
0.0
 11
9.9461329108
 21
11.6331451028
 31
0.0
 11
9.9482708818
 21
11.6457145601
 31
0.0
  0
SPLINE
  5
51F
100
AcDbEntity
  8
0
100
AcDbSpline
 62
7
  6
CONTINUOUS
 70
0
 71
3
 72
13
 73
9
 74
7
 42
0.0000001
 43
0.0000001
 44
0.0000000001
 12
-0.0128632737
 22
0.07295125
 32
0.0
 13
-0.0067053375
 23
0.0737733589
 33
0.0
 40
0.0
 40
0.0
 40
0.0
 40
0.0
 40
0.1732141492
 40
0.3439874311
 40
0.5129309063
 40
0.6806398087
 40
0.8477106467
 40
1.0
 40
1.0
 40
1.0
 40
1.0
 10
9.9482708818
 20
10.5545225514
 30
0.0
 10
9.9475281815
 20
10.5587346143
 30
0.0
 10
9.9461029146
 20
10.5671082475
 30
0.0
 10
9.9441364568
 20
10.5796204071
 30
0.0
 10
9.9423577507
 20
10.5920233799
 30
0.0
 10
9.9407672228
 20
10.6043597509
 30
0.0
 10
9.9394083084
 20
10.6163100236
 30
0.0
 10
9.9386355731
 20
10.6241580829
 30
0.0
 10
9.9382951893
 20
10.6279030486
 30
0.0
 11
9.9482708818
 21
10.5545225514
 31
0.0
 11
9.9461198052
 21
10.5671720798
 31
0.0
 11
9.944157635
 21
10.5796692897
 31
0.0
 11
9.9423829109
 21
10.5920575786
 31
0.0
 11
9.9407960884
 21
10.604379132
 31
0.0
 11
9.9393994374
 21
10.616676119
 31
0.0
 11
9.9382951893
 21
10.6279030486
 31
0.0
  0
SPLINE
  5
520
100
AcDbEntity
  8
0
100
AcDbSpline
 62
7
  6
CONTINUOUS
 70
0
 71
3
 72
8
 73
4
 74
2
 42
0.0000001
 43
0.0000001
 44
0.0000000001
 12
-0.0000977201
 22
0.0010751344
 32
0.0
 13
-0.0000961729
 23
0.0010752742
 33
0.0
 40
0.0
 40
0.0
 40
0.0
 40
0.0
 40
1.0
 40
1.0
 40
1.0
 40
1.0
 10
9.9382951893
 20
10.6279030486
 30
0.0
 10
9.9382626159
 20
10.6282614267
 30
0.0
 10
9.9382302999
 20
10.6286198283
 30
0.0
 10
9.9381982423
 20
10.628978253
 30
0.0
 11
9.9382951893
 21
10.6279030486
 31
0.0
 11
9.9381982423
 21
10.628978253
 31
0.0
  0
SPLINE
  5
521
100
AcDbEntity
  8
0
100
AcDbSpline
 62
7
  6
CONTINUOUS
 70
0
 71
3
 72
12
 73
8
 74
6
 42
0.0000001
 43
0.0000001
 44
0.0000000001
 12
-0.0055257351
 22
0.0617812502
 32
0.0
 13
-0.0
 23
0.0620271663
 33
0.0
 40
0.0
 40
0.0
 40
0.0
 40
0.0
 40
0.1993761335
 40
0.3990641653
 40
0.5990604086
 40
0.7993741517
 40
1.0
 40
1.0
 40
1.0
 40
1.0
 10
9.9381982423
 20
10.628978253
 30
0.0
 10
9.9378310091
 20
10.6330841553
 30
0.0
 10
9.9371638383
 20
10.6413084698
 30
0.0
 10
9.9363746742
 20
10.6536699411
 30
0.0
 10
9.9358043329
 20
10.6660628962
 30
0.0
 10
9.9354591425
 20
10.678483547
 30
0.0
 10
9.9353820841
 20
10.6867734682
 30
0.0
 10
9.9353820841
 20
10.6909215524
 30
0.0
 11
9.9381982423
 21
10.628978253
 31
0.0
 11
9.9371996717
 21
10.6413046081
 31
0.0
 11
9.9364116712
 21
10.6536655993
 31
0.0
 11
9.9358422192
 21
10.6660577225
 31
0.0
 11
9.9354975746
 21
10.6784778355
 31
0.0
 11
9.9353820841
 21
10.6909215524
 31
0.0
  0
SPLINE
  5
522
100
AcDbEntity
  8
0
100
AcDbSpline
 62
7
  6
CONTINUOUS
 70
0
 71
3
 72
18
 73
14
 74
12
 42
0.0000001
 43
0.0000001
 44
0.0000000001
 12
-0.0
 22
0.1371833588
 32
0.0
 13
0.0238216403
 23
0.1350992354
 33
0.0
 40
0.0
 40
0.0
 40
0.0
 40
0.0
 40
0.091060793
 40
0.1819603957
 40
0.2726790973
 40
0.3632037437
 40
0.4535155543
 40
0.5436968198
 40
0.6338893406
 40
0.724311057
 40
0.8152663583
 40
0.9070587902
 40
1.0
 40
1.0
 40
1.0
 40
1.0
 10
9.9353820841
 20
10.6909215524
 30
0.0
 10
9.9353820841
 20
10.6950855609
 30
0.0
 10
9.9354597274
 20
10.703406415
 30
0.0
 10
9.9358074452
 20
10.7158712488
 30
0.0
 10
9.9363816232
 20
10.7283031772
 30
0.0
 10
9.9371754122
 20
10.7406960315
 30
0.0
 10
9.938180487
 20
10.7530488403
 30
0.0
 10
9.9393880507
 20
10.7653681887
 30
0.0
 10
9.9407902043
 20
10.7776719167
 30
0.0
 10
9.9423808872
 20
10.7899883334
 30
0.0
 10
9.9441563387
 20
10.8023533509
 30
0.0
 10
9.9461150765
 20
10.8148072429
 30
0.0
 10
9.9475328778
 20
10.8231351248
 30
0.0
 10
9.9482708818
 20
10.8273205536
 30
0.0
 11
9.9353820841
 21
10.6909215524
 31
0.0
 11
9.9354984623
 21
10.7034130358
 31
0.0
 11
9.9358456483
 21
10.7158781145
 31
0.0
 11
9.9364189621
 21
10.7283099981
 31
0.0
 11
9.9372116252
 21
10.7407031498
 31
0.0
 11
9.9382149805
 21
10.7530517317
 31
0.0
 11
9.9394203184
 21
10.7653642428
 31
0.0
 11
9.9408196199
 21
10.7776577748
 31
0.0
 11
9.9424067055
 21
10.7899601801
 31
0.0
 11
9.9441783053
 21
10.8023113251
 31
0.0
 11
9.9461329108
 21
10.8147510963
 31
0.0
 11
9.9482708818
 21
10.8273205536
 31
0.0
  0
SPLINE
  5
523
100
AcDbEntity
  8
0
100
AcDbSpline
 62
7
  6
CONTINUOUS
 70
0
 71
3
 72
29
 73
25
 74
23
 42
0.0000001
 43
0.0000001
 44
0.0000000001
 12
-0.368309993
 22
-0.1096669717
 32
0.0
 13
-0.368309993
 23
0.1096669717
 33
0.0
 40
0.0
 40
0.0
 40
0.0
 40
0.0
 40
0.0481532247
 40
0.0953500039
 40
0.1417627688
 40
0.1875563829
 40
0.2328736415
 40
0.2778306399
 40
0.3225218035
 40
0.367030389
 40
0.4114136483
 40
0.4557246731
 40
0.5000000002
 40
0.5442753274
 40
0.5885863522
 40
0.6329696115
 40
0.677478197
 40
0.7221693606
 40
0.767126359
 40
0.8124436174
 40
0.8582372315
 40
0.9046499962
 40
0.9518467752
 40
1.0
 40
1.0
 40
1.0
 40
1.0
 10
11.0802843318
 20
7.7101822216
 30
0.0
 10
11.0743725605
 20
7.7084219489
 30
0.0
 10
11.0626302431
 20
7.7050563872
 30
0.0
 10
11.0450671545
 20
7.7004354584
 30
0.0
 10
11.0276963459
 20
7.6962893348
 30
0.0
 10
11.0104660301
 20
7.6926131657
 30
0.0
 10
10.9933316743
 20
7.6894067707
 30
0.0
 10
10.9762582709
 20
7.6866741163
 30
0.0
 10
10.959219224
 20
7.6844218741
 30
0.0
 10
10.9421964599
 20
7.6826582051
 30
0.0
 10
10.9251782651
 20
7.6813912348
 30
0.0
 10
10.9081598885
 20
7.6806279452
 30
0.0
 10
10.891140101
 20
7.6803729717
 30
0.0
 10
10.8741203134
 20
7.6806279452
 30
0.0
 10
10.8571019369
 20
7.6813912348
 30
0.0
 10
10.8400837421
 20
7.6826582051
 30
0.0
 10
10.823060978
 20
7.6844218741
 30
0.0
 10
10.8060219311
 20
7.6866741163
 30
0.0
 10
10.7889485277
 20
7.6894067707
 30
0.0
 10
10.771814172
 20
7.6926131657
 30
0.0
 10
10.7545838562
 20
7.6962893349
 30
0.0
 10
10.7372130477
 20
7.7004354584
 30
0.0
 10
10.719649959
 20
7.7050563872
 30
0.0
 10
10.7079076417
 20
7.7084219489
 30
0.0
 10
10.7019958704
 20
7.7101822216
 30
0.0
 11
11.0802843318
 21
7.7101822216
 31
0.0
 11
11.0624944357
 21
7.7050883039
 31
0.0
 11
11.0449529433
 21
7.7004778222
 31
0.0
 11
11.027603275
 21
7.6963412586
 31
0.0
 11
11.0103917271
 21
7.6926733141
 31
0.0
 11
10.9932731825
 21
7.6894737536
 31
0.0
 11
10.9762132245
 21
7.6867467161
 31
0.0
 11
10.9591865499
 21
7.6844990896
 31
0.0
 11
10.9421731491
 21
7.6827388115
 31
0.0
 11
10.9251640282
 21
7.6814743061
 31
0.0
 11
10.9081527798
 21
7.6807124359
 31
0.0
 11
10.891140101
 21
7.68045794
 31
0.0
 11
10.8741274222
 21
7.6807124359
 31
0.0
 11
10.8571161737
 21
7.6814743061
 31
0.0
 11
10.8401070528
 21
7.6827388115
 31
0.0
 11
10.8230936521
 21
7.6844990896
 31
0.0
 11
10.8060669775
 21
7.6867467161
 31
0.0
 11
10.7890070195
 21
7.6894737536
 31
0.0
 11
10.771888475
 21
7.6926733141
 31
0.0
 11
10.7546769271
 21
7.6963412586
 31
0.0
 11
10.7373272588
 21
7.7004778223
 31
0.0
 11
10.7197857665
 21
7.7050883039
 31
0.0
 11
10.7019958704
 21
7.7101822216
 31
0.0
  0
SPLINE
  5
524
100
AcDbEntity
  8
0
100
AcDbSpline
 62
7
  6
CONTINUOUS
 70
0
 71
3
 72
31
 73
27
 74
25
 42
0.0000001
 43
0.0000001
 44
0.0000000001
 12
-0.3518213634
 22
0.1814450746
 32
0.0
 13
-0.3518213634
 23
-0.1814450746
 33
0.0
 40
0.0
 40
0.0
 40
0.0
 40
0.0
 40
0.0483022806
 40
0.0946851827
 40
0.1394052167
 40
0.182705807
 40
0.2248005411
 40
0.2658840025
 40
0.3061246961
 40
0.3456872828
 40
0.3847199113
 40
0.4233590145
 40
0.4617446074
 40
0.5000000004
 40
0.5382553935
 40
0.5766409863
 40
0.6152800894
 40
0.654312718
 40
0.6938753045
 40
0.734115998
 40
0.7751994593
 40
0.8172941933
 40
0.8605947834
 40
0.9053148173
 40
0.9516977193
 40
1.0
 40
1.0
 40
1.0
 40
1.0
 10
11.0802843318
 20
8.0836185558
 30
0.0
 10
11.0746197404
 20
8.0865399594
 30
0.0
 10
11.0634309348
 20
8.0921045521
 30
0.0
 10
11.0467067217
 20
8.0997714093
 30
0.0
 10
11.0303439418
 20
8.1066201263
 30
0.0
 10
11.0142791382
 20
8.112688185
 30
0.0
 10
10.998455211
 20
8.1180043355
 30
0.0
 10
10.9828240603
 20
8.1225887787
 30
0.0
 10
10.9673439458
 20
8.1264554062
 30
0.0
 10
10.9519796883
 20
8.129612916
 30
0.0
 10
10.9367011688
 20
8.1320662835
 30
0.0
 10
10.9214825337
 20
8.1338179837
 30
0.0
 10
10.9063021771
 20
8.1348688656
 30
0.0
 10
10.8911401009
 20
8.1352191514
 30
0.0
 10
10.8759780248
 20
8.1348688656
 30
0.0
 10
10.8607976682
 20
8.1338179836
 30
0.0
 10
10.8455790331
 20
8.1320662834
 30
0.0
 10
10.8303005136
 20
8.1296129159
 30
0.0
 10
10.8149362562
 20
8.1264554061
 30
0.0
 10
10.7994561417
 20
8.1225887787
 30
0.0
 10
10.783824991
 20
8.1180043355
 30
0.0
 10
10.7680010639
 20
8.1126881849
 30
0.0
 10
10.7519362603
 20
8.1066201263
 30
0.0
 10
10.7355734804
 20
8.0997714093
 30
0.0
 10
10.7188492674
 20
8.0921045521
 30
0.0
 10
10.7076604618
 20
8.0865399594
 30
0.0
 10
10.7019958704
 20
8.0836185558
 30
0.0
 11
11.0802843318
 21
8.0836185558
 31
0.0
 11
11.0631597752
 21
8.0921243959
 31
0.0
 11
11.0464653061
 21
8.0997674456
 31
0.0
 11
11.0301320047
 21
8.1065942942
 31
0.0
 11
11.0140941283
 21
8.112643335
 31
0.0
 11
10.9982958847
 21
8.1179427416
 31
0.0
 11
10.9826881938
 21
8.1225129929
 31
0.0
 11
10.9672320513
 21
8.1263672142
 31
0.0
 11
10.9518905596
 21
8.1295146128
 31
0.0
 11
10.9366340789
 21
8.1319600909
 31
0.0
 11
10.9214385903
 21
8.1337059472
 31
0.0
 11
10.9062796361
 21
8.1347534083
 31
0.0
 11
10.8911401009
 21
8.1351025218
 31
0.0
 11
10.8760005657
 21
8.1347534083
 31
0.0
 11
10.8608416116
 21
8.1337059472
 31
0.0
 11
10.845646123
 21
8.1319600908
 31
0.0
 11
10.8303896423
 21
8.1295146127
 31
0.0
 11
10.8150481506
 21
8.1263672141
 31
0.0
 11
10.7995920081
 21
8.1225129928
 31
0.0
 11
10.7839843173
 21
8.1179427416
 31
0.0
 11
10.7681860738
 21
8.1126433349
 31
0.0
 11
10.7521481974
 21
8.1065942942
 31
0.0
 11
10.7358148961
 21
8.0997674456
 31
0.0
 11
10.719120427
 21
8.0921243959
 31
0.0
 11
10.7019958704
 21
8.0836185558
 31
0.0
  0
SPLINE
  5
525
100
AcDbEntity
  8
0
100
AcDbSpline
 62
7
  6
CONTINUOUS
 70
0
 71
3
 72
29
 73
25
 74
23
 42
0.0000001
 43
0.0000001
 44
0.0000000001
 12
-0.368309993
 22
-0.1096669717
 32
0.0
 13
-0.368309993
 23
0.1096669717
 33
0.0
 40
0.0
 40
0.0
 40
0.0
 40
0.0
 40
0.0481532247
 40
0.0953500039
 40
0.1417627688
 40
0.1875563829
 40
0.2328736415
 40
0.2778306399
 40
0.3225218035
 40
0.367030389
 40
0.4114136483
 40
0.4557246731
 40
0.5000000002
 40
0.5442753274
 40
0.5885863522
 40
0.6329696115
 40
0.677478197
 40
0.7221693606
 40
0.767126359
 40
0.8124436174
 40
0.8582372315
 40
0.9046499962
 40
0.9518467752
 40
1.0
 40
1.0
 40
1.0
 40
1.0
 10
10.6427682978
 20
7.7101822216
 30
0.0
 10
10.6368565265
 20
7.7084219489
 30
0.0
 10
10.6251142091
 20
7.7050563872
 30
0.0
 10
10.6075511205
 20
7.7004354584
 30
0.0
 10
10.5901803119
 20
7.6962893348
 30
0.0
 10
10.5729499961
 20
7.6926131657
 30
0.0
 10
10.5558156403
 20
7.6894067707
 30
0.0
 10
10.5387422369
 20
7.6866741163
 30
0.0
 10
10.52170319
 20
7.6844218741
 30
0.0
 10
10.5046804259
 20
7.6826582051
 30
0.0
 10
10.4876622311
 20
7.6813912348
 30
0.0
 10
10.4706438545
 20
7.6806279452
 30
0.0
 10
10.453624067
 20
7.6803729717
 30
0.0
 10
10.4366042795
 20
7.6806279452
 30
0.0
 10
10.4195859029
 20
7.6813912348
 30
0.0
 10
10.4025677081
 20
7.6826582051
 30
0.0
 10
10.385544944
 20
7.6844218741
 30
0.0
 10
10.3685058971
 20
7.6866741163
 30
0.0
 10
10.3514324937
 20
7.6894067707
 30
0.0
 10
10.334298138
 20
7.6926131657
 30
0.0
 10
10.3170678222
 20
7.6962893349
 30
0.0
 10
10.2996970137
 20
7.7004354584
 30
0.0
 10
10.2821339251
 20
7.7050563872
 30
0.0
 10
10.2703916077
 20
7.7084219489
 30
0.0
 10
10.2644798364
 20
7.7101822216
 30
0.0
 11
10.6427682978
 21
7.7101822216
 31
0.0
 11
10.6249784017
 21
7.7050883039
 31
0.0
 11
10.6074369093
 21
7.7004778222
 31
0.0
 11
10.590087241
 21
7.6963412586
 31
0.0
 11
10.5728756931
 21
7.6926733141
 31
0.0
 11
10.5557571485
 21
7.6894737536
 31
0.0
 11
10.5386971905
 21
7.6867467161
 31
0.0
 11
10.5216705159
 21
7.6844990896
 31
0.0
 11
10.5046571152
 21
7.6827388115
 31
0.0
 11
10.4876479943
 21
7.6814743061
 31
0.0
 11
10.4706367458
 21
7.6807124359
 31
0.0
 11
10.453624067
 21
7.68045794
 31
0.0
 11
10.4366113882
 21
7.6807124359
 31
0.0
 11
10.4196001398
 21
7.6814743061
 31
0.0
 11
10.4025910188
 21
7.6827388115
 31
0.0
 11
10.3855776181
 21
7.6844990896
 31
0.0
 11
10.3685509435
 21
7.6867467161
 31
0.0
 11
10.3514909855
 21
7.6894737536
 31
0.0
 11
10.334372441
 21
7.6926733141
 31
0.0
 11
10.3171608931
 21
7.6963412586
 31
0.0
 11
10.2998112249
 21
7.7004778223
 31
0.0
 11
10.2822697325
 21
7.7050883039
 31
0.0
 11
10.2644798364
 21
7.7101822216
 31
0.0
  0
SPLINE
  5
526
100
AcDbEntity
  8
0
100
AcDbSpline
 62
7
  6
CONTINUOUS
 70
0
 71
3
 72
31
 73
27
 74
25
 42
0.0000001
 43
0.0000001
 44
0.0000000001
 12
-0.3518213634
 22
0.1814450746
 32
0.0
 13
-0.3518213634
 23
-0.1814450746
 33
0.0
 40
0.0
 40
0.0
 40
0.0
 40
0.0
 40
0.0483022806
 40
0.0946851827
 40
0.1394052167
 40
0.182705807
 40
0.2248005411
 40
0.2658840025
 40
0.3061246961
 40
0.3456872828
 40
0.3847199113
 40
0.4233590145
 40
0.4617446074
 40
0.5000000004
 40
0.5382553935
 40
0.5766409863
 40
0.6152800894
 40
0.654312718
 40
0.6938753045
 40
0.734115998
 40
0.7751994593
 40
0.8172941933
 40
0.8605947834
 40
0.9053148173
 40
0.9516977193
 40
1.0
 40
1.0
 40
1.0
 40
1.0
 10
10.6427682978
 20
8.0836185558
 30
0.0
 10
10.6371037064
 20
8.0865399594
 30
0.0
 10
10.6259149008
 20
8.0921045521
 30
0.0
 10
10.6091906877
 20
8.0997714093
 30
0.0
 10
10.5928279078
 20
8.1066201263
 30
0.0
 10
10.5767631042
 20
8.112688185
 30
0.0
 10
10.560939177
 20
8.1180043355
 30
0.0
 10
10.5453080263
 20
8.1225887787
 30
0.0
 10
10.5298279118
 20
8.1264554062
 30
0.0
 10
10.5144636543
 20
8.129612916
 30
0.0
 10
10.4991851348
 20
8.1320662835
 30
0.0
 10
10.4839664997
 20
8.1338179837
 30
0.0
 10
10.4687861431
 20
8.1348688656
 30
0.0
 10
10.4536240669
 20
8.1352191514
 30
0.0
 10
10.4384619908
 20
8.1348688656
 30
0.0
 10
10.4232816342
 20
8.1338179836
 30
0.0
 10
10.4080629991
 20
8.1320662834
 30
0.0
 10
10.3927844796
 20
8.1296129159
 30
0.0
 10
10.3774202222
 20
8.1264554061
 30
0.0
 10
10.3619401077
 20
8.1225887787
 30
0.0
 10
10.346308957
 20
8.1180043355
 30
0.0
 10
10.3304850299
 20
8.1126881849
 30
0.0
 10
10.3144202263
 20
8.1066201263
 30
0.0
 10
10.2980574465
 20
8.0997714093
 30
0.0
 10
10.2813332334
 20
8.0921045521
 30
0.0
 10
10.2701444278
 20
8.0865399594
 30
0.0
 10
10.2644798364
 20
8.0836185558
 30
0.0
 11
10.6427682978
 21
8.0836185558
 31
0.0
 11
10.6256437412
 21
8.0921243959
 31
0.0
 11
10.6089492721
 21
8.0997674456
 31
0.0
 11
10.5926159707
 21
8.1065942942
 31
0.0
 11
10.5765780943
 21
8.112643335
 31
0.0
 11
10.5607798507
 21
8.1179427416
 31
0.0
 11
10.5451721598
 21
8.1225129929
 31
0.0
 11
10.5297160173
 21
8.1263672142
 31
0.0
 11
10.5143745256
 21
8.1295146128
 31
0.0
 11
10.4991180449
 21
8.1319600909
 31
0.0
 11
10.4839225563
 21
8.1337059472
 31
0.0
 11
10.4687636021
 21
8.1347534083
 31
0.0
 11
10.4536240669
 21
8.1351025218
 31
0.0
 11
10.4384845317
 21
8.1347534083
 31
0.0
 11
10.4233255776
 21
8.1337059472
 31
0.0
 11
10.408130089
 21
8.1319600908
 31
0.0
 11
10.3928736083
 21
8.1295146127
 31
0.0
 11
10.3775321166
 21
8.1263672141
 31
0.0
 11
10.3620759741
 21
8.1225129928
 31
0.0
 11
10.3464682833
 21
8.1179427416
 31
0.0
 11
10.3306700398
 21
8.1126433349
 31
0.0
 11
10.3146321634
 21
8.1065942942
 31
0.0
 11
10.2982988621
 21
8.0997674456
 31
0.0
 11
10.2816043931
 21
8.0921243959
 31
0.0
 11
10.2644798364
 21
8.0836185558
 31
0.0
  0
SPLINE
  5
527
100
AcDbEntity
  8
0
100
AcDbSpline
 62
7
  6
CONTINUOUS
 70
0
 71
3
 72
18
 73
14
 74
12
 42
0.0000001
 43
0.0000001
 44
0.0000000001
 12
0.0850266118
 22
0.0006201763
 32
0.0
 13
0.0736371645
 23
0.0425144367
 33
0.0
 40
0.0
 40
0.0
 40
0.0
 40
0.0
 40
0.084837604
 40
0.1700194848
 40
0.2557885609
 40
0.342357511
 40
0.4300210903
 40
0.5191081727
 40
0.6099663674
 40
0.7029984892
 40
0.798654913
 40
0.8974698775
 40
1.0
 40
1.0
 40
1.0
 40
1.0
 10
10.9166446401
 20
6.9571238911
 30
0.0
 10
10.9190491248
 20
6.9571414292
 30
0.0
 10
10.9238673201
 20
6.9573379444
 30
0.0
 10
10.9310880423
 20
6.958024333
 30
0.0
 10
10.9383052443
 20
6.9591407138
 30
0.0
 10
10.945518454
 20
6.9606658311
 30
0.0
 10
10.9527322029
 20
6.9625921693
 30
0.0
 10
10.9599575174
 20
6.9649090412
 30
0.0
 10
10.9672107246
 20
6.9676092831
 30
0.0
 10
10.9745131974
 20
6.9706891989
 30
0.0
 10
10.9818923314
 20
6.9741506588
 30
0.0
 10
10.9893797475
 20
6.9780012812
 30
0.0
 10
10.9943654083
 20
6.980780289
 30
0.0
 10
10.9968820841
 20
6.9822332925
 30
0.0
 11
10.9166446401
 21
6.9571238911
 31
0.0
 11
10.9238529148
 21
6.9574022135
 31
0.0
 11
10.9310628304
 21
6.9580928633
 31
0.0
 11
10.9382707532
 21
6.9592025839
 31
0.0
 11
10.9454731375
 21
6.9607217694
 31
0.0
 11
10.9526759932
 21
6.962640108
 31
0.0
 11
10.9598907855
 21
6.9649481391
 31
0.0
 11
10.9671328422
 21
6.9676383149
 31
0.0
 11
10.9744237135
 21
6.970707172
 31
0.0
 11
10.9817897981
 21
6.9741561666
 31
0.0
 11
10.9892643497
 21
6.9779937159
 31
0.0
 11
10.9968820841
 21
6.9822332925
 31
0.0
  0
SPLINE
  5
528
100
AcDbEntity
  8
0
100
AcDbSpline
 62
7
  6
CONTINUOUS
 70
0
 71
3
 72
18
 73
14
 74
12
 42
0.0000001
 43
0.0000001
 44
0.0000000001
 12
0.0734043449
 22
-0.0423800183
 32
0.0
 13
0.0847562081
 23
-0.0008056034
 33
0.0
 40
0.0
 40
0.0
 40
0.0
 40
0.0
 40
0.1030219719
 40
0.2021705684
 40
0.2980249249
 40
0.3911402827
 40
0.4819835239
 40
0.5709737578
 40
0.6584765569
 40
0.7448202012
 40
0.8303143834
 40
0.9152601933
 40
1.0
 40
1.0
 40
1.0
 40
1.0
 10
10.8346320841
 20
6.9822332925
 30
0.0
 10
10.8371528375
 20
6.9807779348
 30
0.0
 10
10.8421431824
 20
6.9779964755
 30
0.0
 10
10.8496328839
 20
6.9741452645
 30
0.0
 10
10.8570046009
 20
6.9706877701
 30
0.0
 10
10.8642908828
 20
6.967614612
 30
0.0
 10
10.8715200239
 20
6.964922227
 30
0.0
 10
10.878714374
 20
6.962612687
 30
0.0
 10
10.8858909509
 20
6.9606916864
 30
0.0
 10
10.8930616234
 20
6.9591687161
 30
0.0
 10
10.9002338887
 20
6.9580491972
 30
0.0
 10
10.9074134582
 20
6.9573555029
 30
0.0
 10
10.9122064035
 20
6.9571466538
 30
0.0
 10
10.9146004784
 20
6.9571238983
 30
0.0
 11
10.8346320841
 21
6.9822332925
 31
0.0
 11
10.8422622739
 21
6.9779870496
 31
0.0
 11
10.8497385893
 21
6.9741491839
 31
0.0
 11
10.8570967595
 21
6.9707043672
 31
0.0
 11
10.8643710462
 21
6.9676423914
 31
0.0
 11
10.871588646
 21
6.9649601629
 31
0.0
 11
10.8787720404
 21
6.9626595303
 31
0.0
 11
10.8859378094
 21
6.9607464715
 31
0.0
 11
10.893097325
 21
6.9592293563
 31
0.0
 11
10.9002579613
 21
6.9581171939
 31
0.0
 11
10.9074239614
 21
6.9574182045
 31
0.0
 11
10.9146004784
 21
6.9571238983
 31
0.0
  0
SPLINE
  5
529
100
AcDbEntity
  8
0
100
AcDbSpline
 62
7
  6
CONTINUOUS
 70
0
 71
3
 72
18
 73
14
 74
12
 42
0.0000001
 43
0.0000001
 44
0.0000000001
 12
-0.084691399
 22
-0.0008590859
 32
0.0
 13
-0.0733486763
 23
-0.042347878
 33
0.0
 40
0.0
 40
0.0
 40
0.0
 40
0.0
 40
0.0853592229
 40
0.1706251339
 40
0.2563072108
 40
0.3428105734
 40
0.4304356034
 40
0.5194729135
 40
0.610278287
 40
0.7032538885
 40
0.7988428318
 40
0.897574259
 40
1.0
 40
1.0
 40
1.0
 40
1.0
 10
10.914536028
 20
7.176116345
 30
0.0
 10
10.9121262973
 20
7.1760919014
 30
0.0
 10
10.907310799
 20
7.1758735942
 30
0.0
 10
10.9001055638
 20
7.17517227
 30
0.0
 10
10.8929213227
 20
7.1740424818
 30
0.0
 10
10.8857447508
 20
7.172510313
 30
0.0
 10
10.8785666681
 20
7.1705807932
 30
0.0
 10
10.8713765071
 20
7.1682648659
 30
0.0
 10
10.8641586281
 20
7.1655696173
 30
0.0
 10
10.8568915788
 20
7.1624985381
 30
0.0
 10
10.8495482962
 20
7.1590496965
 30
0.0
 10
10.8420976261
 20
7.1552155561
 30
0.0
 10
10.8371363483
 20
7.1524496566
 30
0.0
 10
10.8346320841
 20
7.151003819
 30
0.0
 11
10.914536028
 21
7.176116345
 31
0.0
 11
10.907312904
 21
7.1758112647
 31
0.0
 11
10.9001260442
 21
7.1751031467
 31
0.0
 11
10.8929563029
 21
7.1739817514
 31
0.0
 11
10.8857906211
 21
7.1724552742
 31
0.0
 11
10.8786222941
 21
7.170533484
 31
0.0
 11
10.8714427987
 21
7.1682263714
 31
0.0
 11
10.864235986
 21
7.1655410944
 31
0.0
 11
10.8569802924
 21
7.1624808904
 31
0.0
 11
10.8496498764
 21
7.1590443431
 31
0.0
 11
10.8422119083
 21
7.1552231001
 31
0.0
 11
10.8346320841
 21
7.151003819
 31
0.0
  0
SPLINE
  5
52A
100
AcDbEntity
  8
0
100
AcDbSpline
 62
7
  6
CONTINUOUS
 70
0
 71
3
 72
18
 73
14
 74
12
 42
0.0000001
 43
0.0000001
 44
0.0000000001
 12
-0.1567195211
 22
0.0452410288
 32
0.0
 13
-0.1631178627
 23
0.0005673177
 33
0.0
 40
0.0
 40
0.0
 40
0.0
 40
0.0
 40
0.0975326745
 40
0.1925743317
 40
0.2856195106
 40
0.3771417956
 40
0.4675239943
 40
0.5570919663
 40
0.6461022487
 40
0.7347457782
 40
0.8231753902
 40
0.9115045968
 40
1.0
 40
1.0
 40
1.0
 40
1.0
 10
10.8346320841
 20
7.151003819
 30
0.0
 10
10.8295369927
 20
7.1524746452
 30
0.0
 10
10.8194492959
 20
7.1552841506
 30
0.0
 10
10.8044064022
 20
7.1591474189
 30
0.0
 10
10.7896022747
 20
7.16261324
 30
0.0
 10
10.7749713432
 20
7.1656910906
 30
0.0
 10
10.7604569063
 20
7.1683845375
 30
0.0
 10
10.7460142253
 20
7.1706915169
 30
0.0
 10
10.7316095402
 20
7.1726063561
 30
0.0
 10
10.7172193453
 20
7.1741195742
 30
0.0
 10
10.7028289822
 20
7.1752262745
 30
0.0
 10
10.6884205386
 20
7.1759032216
 30
0.0
 10
10.6788064498
 20
7.1761017839
 30
0.0
 10
10.6739947228
 20
7.1761185189
 30
0.0
 11
10.8346320841
 21
7.151003819
 31
0.0
 11
10.819304769
 21
7.1552679699
 31
0.0
 11
10.804287892
 21
7.1591201215
 31
0.0
 11
10.7895091043
 21
7.1625757818
 31
0.0
 11
10.77489905
 21
7.1656452518
 31
0.0
 11
10.7604028159
 21
7.1683315939
 31
0.0
 11
10.7459749703
 21
7.1706328831
 31
0.0
 11
10.731581914
 21
7.1725430375
 31
0.0
 11
10.7172015896
 21
7.1740534685
 31
0.0
 11
10.7028191831
 21
7.1751551206
 31
0.0
 11
10.6884272989
 21
7.1758397395
 31
0.0
 11
10.6739947228
 21
7.1761185189
 31
0.0
  0
SPLINE
  5
52B
100
AcDbEntity
  8
0
100
AcDbSpline
 62
7
  6
CONTINUOUS
 70
0
 71
3
 72
18
 73
14
 74
12
 42
0.0000001
 43
0.0000001
 44
0.0000000001
 12
0.1629570821
 22
0.0005936725
 32
0.0
 13
0.1565651393
 23
0.0451964627
 33
0.0
 40
0.0
 40
0.0
 40
0.0
 40
0.0
 40
0.0884851025
 40
0.1770754605
 40
0.2658017134
 40
0.3546884986
 40
0.4438711821
 40
0.5335455731
 40
0.6239490958
 40
0.7153918896
 40
0.8082420215
 40
0.902953395
 40
1.0
 40
1.0
 40
1.0
 40
1.0
 10
10.6741553307
 20
6.9571238888
 30
0.0
 10
10.6789617554
 20
6.9571413991
 30
0.0
 10
10.6885800618
 20
6.9573373007
 30
0.0
 10
10.7030037588
 20
6.9580219334
 30
0.0
 10
10.7174229388
 20
6.9591357151
 30
0.0
 10
10.7318367999
 20
6.9606577591
 30
0.0
 10
10.7462545624
 20
6.9625807838
 30
0.0
 10
10.7606981085
 20
6.9648943658
 30
0.0
 10
10.7751997306
 20
6.9675914962
 30
0.0
 10
10.7898017093
 20
6.9706685714
 30
0.0
 10
10.8045583186
 20
6.9741274731
 30
0.0
 10
10.819532507
 20
6.9779758384
 30
0.0
 10
10.829567379
 20
6.980771238
 30
0.0
 10
10.8346320841
 20
6.9822332925
 30
0.0
 11
10.6741553307
 21
6.9571238888
 31
0.0
 11
10.6885720152
 21
6.957402156
 31
0.0
 11
10.7029920093
 21
6.9580927653
 31
0.0
 11
10.7174080296
 21
6.9592024567
 31
0.0
 11
10.7318129716
 21
6.9607216237
 31
0.0
 11
10.7462188538
 21
6.9626399542
 31
0.0
 11
10.7606486092
 21
6.9649479873
 31
0.0
 11
10.7751328932
 21
6.9676381747
 31
0.0
 11
10.789714807
 21
6.9707070528
 31
0.0
 11
10.8044471495
 21
6.9741560775
 31
0.0
 11
10.8193964306
 21
6.9779936665
 31
0.0
 11
10.8346320841
 21
6.9822332925
 31
0.0
  0
SPLINE
  5
52C
100
AcDbEntity
  8
0
100
AcDbSpline
 62
7
  6
CONTINUOUS
 70
0
 71
3
 72
18
 73
14
 74
12
 42
0.0000001
 43
0.0000001
 44
0.0000000001
 12
0.1566423735
 22
-0.0452187583
 32
0.0
 13
0.1630375655
 23
-0.0005670386
 33
0.0
 40
0.0
 40
0.0
 40
0.0
 40
0.0
 40
0.0975650862
 40
0.1926390783
 40
0.2857161327
 40
0.3772696986
 40
0.4676840416
 40
0.5572837385
 40
0.6463200646
 40
0.7350008462
 40
0.8234751946
 40
0.9117902645
 40
1.0
 40
1.0
 40
1.0
 40
1.0
 10
10.5101320841
 20
6.9822332925
 30
0.0
 10
10.5152263597
 20
6.9807627018
 30
0.0
 10
10.5253124761
 20
6.9779536202
 30
0.0
 10
10.5403530317
 20
6.9740908732
 30
0.0
 10
10.5551548944
 20
6.9706254467
 30
0.0
 10
10.5697836523
 20
6.9675478559
 30
0.0
 10
10.5842959821
 20
6.9648545441
 30
0.0
 10
10.598736328
 20
6.9625476019
 30
0.0
 10
10.6131389893
 20
6.9606326742
 30
0.0
 10
10.6275278868
 20
6.9591189525
 30
0.0
 10
10.6419148186
 20
6.9580126415
 30
0.0
 10
10.6563022387
 20
6.9573337209
 30
0.0
 10
10.6658953971
 20
6.957140349
 30
0.0
 10
10.6706892306
 20
6.9571236762
 30
0.0
 11
10.5101320841
 21
6.9822332925
 31
0.0
 11
10.5254569383
 21
6.9779697999
 31
0.0
 11
10.5404715102
 21
6.9741181593
 31
0.0
 11
10.5552480529
 21
6.970662887
 31
0.0
 11
10.5698558665
 21
6.9675936903
 31
0.0
 11
10.584350071
 21
6.9649074645
 31
0.0
 11
10.5987758718
 21
6.9626061776
 31
0.0
 11
10.6131659996
 21
6.9606960088
 31
0.0
 11
10.6275452363
 21
6.9591852202
 31
0.0
 11
10.6419277975
 21
6.9580830597
 31
0.0
 11
10.6563102644
 21
6.9573982483
 31
0.0
 11
10.6706892306
 21
6.9571236762
 31
0.0
  0
SPLINE
  5
52D
100
AcDbEntity
  8
0
100
AcDbSpline
 62
7
  6
CONTINUOUS
 70
0
 71
3
 72
18
 73
14
 74
12
 42
0.0000001
 43
0.0000001
 44
0.0000000001
 12
-0.1623891424
 22
-0.000585095
 32
0.0
 13
-0.1560194541
 23
-0.0450389369
 33
0.0
 40
0.0
 40
0.0
 40
0.0
 40
0.0
 40
0.0902746746
 40
0.1794482706
 40
0.2678077157
 40
0.3564006321
 40
0.4453824165
 40
0.5348135463
 40
0.6249733552
 40
0.7161790306
 40
0.8087825339
 40
0.903232688
 40
1.0
 40
1.0
 40
1.0
 40
1.0
 10
10.6700407621
 20
7.176113357
 30
0.0
 10
10.6651542198
 20
7.1760957506
 30
0.0
 10
10.6554413379
 20
7.1758721458
 30
0.0
 10
10.6409605717
 20
7.1751650807
 30
0.0
 10
10.6265976477
 20
7.1740315664
 30
0.0
 10
10.6122824613
 20
7.1725010136
 30
0.0
 10
10.5979567092
 20
7.1705739919
 30
0.0
 10
10.5836023817
 20
7.1682614283
 30
0.0
 10
10.56919175
 20
7.1655707425
 30
0.0
 10
10.5546808032
 20
7.1625050086
 30
0.0
 10
10.5400161089
 20
7.1590622465
 30
0.0
 10
10.5251361471
 20
7.1552349788
 30
0.0
 10
10.5151646118
 20
7.1524565847
 30
0.0
 10
10.5101320841
 20
7.151003819
 30
0.0
 11
10.6700407621
 21
7.176113357
 31
0.0
 11
10.6553842318
 21
7.1758074604
 31
0.0
 11
10.640921078
 21
7.1750904088
 31
0.0
 11
10.6266164509
 21
7.1739665522
 31
0.0
 11
10.6123111946
 21
7.1724386423
 31
0.0
 11
10.5979899878
 21
7.1705153968
 31
0.0
 11
10.5836516148
 21
7.1682086674
 31
0.0
 11
10.5692586136
 21
7.1655249352
 31
0.0
 11
10.554766793
 21
7.1624671388
 31
0.0
 11
10.5401260033
 21
7.1590341011
 31
0.0
 11
10.5252706765
 21
7.1552174624
 31
0.0
 11
10.5101320841
 21
7.151003819
 31
0.0
  0
SPLINE
  5
52E
100
AcDbEntity
  8
0
100
AcDbSpline
 62
7
  6
CONTINUOUS
 70
0
 71
3
 72
18
 73
14
 74
12
 42
0.0000001
 43
0.0000001
 44
0.0000000001
 12
-0.0734044384
 22
0.0423800723
 32
0.0
 13
-0.084756316
 23
0.0008056044
 33
0.0
 40
0.0
 40
0.0
 40
0.0
 40
0.0
 40
0.1029589688
 40
0.2020485765
 40
0.2978476997
 40
0.3909108948
 40
0.481701751
 40
0.5706410579
 40
0.6581030454
 40
0.7443865134
 40
0.8298068634
 40
0.9148326426
 40
1.0
 40
1.0
 40
1.0
 40
1.0
 10
10.5101320841
 20
7.151003819
 30
0.0
 10
10.507612869
 20
7.1524582886
 30
0.0
 10
10.5026255559
 20
7.1552381182
 30
0.0
 10
10.4951404234
 20
7.1590872813
 30
0.0
 10
10.4877731582
 20
7.1625432119
 30
0.0
 10
10.4804913031
 20
7.1656152624
 30
0.0
 10
10.473266607
 20
7.1683070101
 30
0.0
 10
10.466076507
 20
7.17061647
 30
0.0
 10
10.4589044655
 20
7.172537851
 30
0.0
 10
10.4517389994
 20
7.1740614708
 30
0.0
 10
10.4445686033
 20
7.1751833603
 30
0.0
 10
10.4373769807
 20
7.1758790127
 30
0.0
 10
10.432569847
 20
7.1760930141
 30
0.0
 10
10.4301636899
 20
7.1761158845
 30
0.0
 11
10.5101320841
 21
7.151003819
 31
0.0
 11
10.5025065933
 21
7.155247547
 31
0.0
 11
10.4950348421
 21
7.1590833789
 31
0.0
 11
10.4876811064
 21
7.1625266503
 31
0.0
 11
10.4804111594
 21
7.1655875656
 31
0.0
 11
10.4731980458
 21
7.1682691478
 31
0.0
 11
10.4660191297
 21
7.1705696421
 31
0.0
 11
10.4588570838
 21
7.1724832713
 31
0.0
 11
10.4517029273
 21
7.1740011164
 31
0.0
 11
10.4445488074
 21
7.1751145171
 31
0.0
 11
10.4373762739
 21
7.1758164361
 31
0.0
 11
10.4301636899
 21
7.1761158845
 31
0.0
  0
SPLINE
  5
52F
100
AcDbEntity
  8
0
100
AcDbSpline
 62
7
  6
CONTINUOUS
 70
0
 71
3
 72
18
 73
14
 74
12
 42
0.0000001
 43
0.0000001
 44
0.0000000001
 12
0.0846518208
 22
0.0008767555
 32
0.0
 13
0.0733145593
 23
0.0423281805
 33
0.0
 40
0.0
 40
0.0
 40
0.0
 40
0.0
 40
0.0850369163
 40
0.1702552848
 40
0.2559921013
 40
0.3425407031
 40
0.4301971599
 40
0.5192732125
 40
0.6101180965
 40
0.7031323269
 40
0.7987609266
 40
0.8975329953
 40
1.0
 40
1.0
 40
1.0
 40
1.0
 10
10.4302674068
 20
6.957124648
 30
0.0
 10
10.4326669167
 20
6.9571495002
 30
0.0
 10
10.4374698754
 20
6.9573635661
 30
0.0
 10
10.4446627911
 20
6.9580658274
 30
0.0
 10
10.4518451583
 20
6.9591949373
 30
0.0
 10
10.4590219828
 20
6.9607274513
 30
0.0
 10
10.4661998391
 20
6.9626570113
 30
0.0
 10
10.4733895711
 20
6.9649729171
 30
0.0
 10
10.4806071541
 20
6.967668142
 30
0.0
 10
10.4878738604
 20
6.9707391474
 30
0.0
 10
10.4952167466
 20
6.9741878518
 30
0.0
 10
10.5026669897
 20
6.978021802
 30
0.0
 10
10.5076279763
 20
6.9807875452
 30
0.0
 10
10.5101320841
 20
6.9822332925
 30
0.0
 11
10.4302674068
 21
6.957124648
 31
0.0
 11
10.4374599935
 21
6.9574264517
 31
0.0
 11
10.4446394763
 21
6.9581341375
 31
0.0
 11
10.451810444
 21
6.9592558371
 31
0.0
 11
10.458976507
 21
6.9607825502
 31
0.0
 11
10.4661440348
 21
6.962704265
 31
0.0
 11
10.4733232822
 21
6.9650114044
 31
0.0
 11
10.4805298477
 21
6.9676966792
 31
0.0
 11
10.4877851541
 21
6.9707567908
 31
0.0
 11
10.4951151811
 21
6.9741932056
 31
0.0
 11
10.5025527376
 21
6.9780142672
 31
0.0
 11
10.5101320841
 21
6.9822332925
 31
0.0
  0
SPLINE
  5
530
100
AcDbEntity
  8
0
100
AcDbSpline
 62
7
  6
CONTINUOUS
 70
0
 71
3
 72
18
 73
14
 74
12
 42
0.0000001
 43
0.0000001
 44
0.0000000001
 12
-0.0850228926
 22
-0.0006201491
 32
0.0
 13
-0.0736339435
 23
-0.0425125771
 33
0.0
 40
0.0
 40
0.0
 40
0.0
 40
0.0
 40
0.0852711436
 40
0.1705381885
 40
0.2562321139
 40
0.3427391982
 40
0.4303609549
 40
0.5193959951
 40
0.6102006317
 40
0.7031794637
 40
0.7987794865
 40
0.8975342173
 40
1.0
 40
1.0
 40
1.0
 40
1.0
 10
10.428115653
 20
7.1761172145
 30
0.0
 10
10.4256989866
 20
7.1760995876
 30
0.0
 10
10.4208665303
 20
7.1758956872
 30
0.0
 10
10.4136337538
 20
7.1752079533
 30
0.0
 10
10.4064187324
 20
7.1740887699
 30
0.0
 10
10.3992112205
 20
7.1725629571
 30
0.0
 10
10.3920024931
 20
7.1706361763
 30
0.0
 10
10.3847818959
 20
7.1683193989
 30
0.0
 10
10.3775335994
 20
7.1656198585
 30
0.0
 10
10.3702360142
 20
7.1625411664
 30
0.0
 10
10.3628617888
 20
7.1590814321
 30
0.0
 10
10.3553793993
 20
7.1552330637
 30
0.0
 10
10.3503970706
 20
7.1524558472
 30
0.0
 10
10.3478820841
 20
7.151003819
 30
0.0
 11
10.428115653
 21
7.1761172145
 31
0.0
 11
10.4208710643
 21
7.1758322221
 31
0.0
 11
10.4136544987
 21
7.1751383827
 31
0.0
 11
10.4064535823
 21
7.1740272446
 31
0.0
 11
10.3992570789
 21
7.1725072261
 31
0.0
 11
10.3920584065
 21
7.1705882652
 31
0.0
 11
10.3848485609
 21
7.1682803815
 31
0.0
 11
10.3776114583
 21
7.1655909173
 31
0.0
 11
10.3703253842
 21
7.1625232341
 31
0.0
 11
10.3629641893
 21
7.1590759447
 31
0.0
 11
10.3554946586
 21
7.1552406337
 31
0.0
 11
10.3478820841
 21
7.151003819
 31
0.0
  0
ENDSEC
  0
SECTION
  2
OBJECTS
  0
DICTIONARY
  5
C
100
AcDbDictionary
280
0
281
1
  3
ACAD_GROUP
350
D
  3
ACAD_MLINESTYLE
350
17
  3
ACAD_LAYOUT
350
1A
  3
ACAD_PLOTSETTINGS
350
19
  3
ACAD_PLOTSTYLENAME
350
E
  0
DICTIONARY
  5
D
102
{ACAD_REACTORS
330
C
102
}
100
AcDbDictionary
280
0
281
1
  0
ACDBDICTIONARYWDFLT
  5
E
102
{ACAD_REACTORS
330
C
102
}
100
AcDbDictionary
281
1
  3
Normal
350
F
100
AcDbDictionaryWithDefault
340
F
  0
DICTIONARY
  5
17
102
{ACAD_REACTORS
330
C
102
}
100
AcDbDictionary
280
0
281
1
  3
Standard
350
18
  0
DICTIONARY
  5
19
102
{ACAD_REACTORS
330
C
102
}
100
AcDbDictionary
281
1
  0
DICTIONARY
  5
1A
102
{ACAD_REACTORS
330
C
102
}
100
AcDbDictionary
281
1
  3
Layout1
350
1E
  3
Model
350
22
  0
ACDBPLACEHOLDER
  5
F
102
{ACAD_REACTORS
330
E
102
}
  0
MLINESTYLE
  5
18
102
{ACAD_REACTORS
330
17
102
}
100
AcDbMlineStyle
  2
STANDARD
 70
0
  3

 62
256
 51
90.0
 52
90.0
 71
2
 49
0.5
 62
256
  6
BYLAYER
 49
-0.5
 62
256
  6
BYLAYER
  0
LAYOUT
  5
1E
102
{ACAD_REACTORS
330
1A
102
}
100
AcDbPlotSettings
  1

  2

  4

  6

 40
0.0
 41
0.0
 42
0.0
 43
0.0
 44
0.0
 45
0.0
 46
0.0
 47
0.0
 48
0.0
 49
0.0
140
0.0
141
0.0
142
1.0
143
1.0
 70
0
 72
0
 73
0
 74
0
  7

 75
0
147
1.0
148
0.0
149
0.0
100
AcDbLayout
  1
Layout1
 70
0
 71
0
 10
0.0
 20
0.0
 11
0.0
 21
0.0
 12
0.0
 22
0.0
 32
0.0
 14
0.0
 24
0.0
 34
0.0
 15
0.0
 25
0.0
 35
0.0
146
0.0
 13
0.0
 23
0.0
 33
0.0
 16
0.0
 26
0.0
 36
0.0
 17
0.0
 27
0.0
 37
0.0
 76
0
330
1B
331
0
345
0
346
0
  0
LAYOUT
  5
22
102
{ACAD_REACTORS
330
1A
102
}
100
AcDbPlotSettings
  1

  2

  4

  6

 40
0.0
 41
0.0
 42
0.0
 43
0.0
 44
0.0
 45
0.0
 46
0.0
 47
0.0
 48
0.0
 49
0.0
140
0.0
141
0.0
142
1.0
143
1.0
 70
0
 72
0
 73
0
 74
0
  7

 75
0
147
1.0
148
0.0
149
0.0
100
AcDbLayout
  1
Model
 70
0
 71
0
 10
0.0
 20
0.0
 11
0.0
 21
0.0
 12
0.0
 22
0.0
 32
0.0
 14
0.0
 24
0.0
 34
0.0
 15
0.0
 25
0.0
 35
0.0
146
0.0
 13
0.0
 23
0.0
 33
0.0
 16
0.0
 26
0.0
 36
0.0
 17
0.0
 27
0.0
 37
0.0
 76
0
330
1F
331
0
345
0
346
0
  0
ENDSEC
  0
EOF
