999
DXF file: CBBALHN-X4F_assy_2.dxf
999
Pro/ENGINEER 2014200 by Parametric Technology Corporation
  0
SECTION
  2
HEADER
  9
$ACADVER
  1
AC1021
  9
$DWGCODEPAGE
  3
ANSI_1252
  9
$EXTMAX
 10
22.0
 20
17.0
 30
0.0
  9
$EXTMIN
 10
0.0
 20
0.0
 30
0.0
  9
$LIMMIN
 10
0.0
 20
0.0
  9
$LIMMAX
 10
22.0
 20
17.0
  9
$VIEWCTR
 10
11.0
 20
8.5
  9
$VIEWSIZE
 40
17.0
  9
$CLAYER
  8
0
  9
$LTSCALE
 40
1.21
  9
$CELTYPE
  6
BYLAYER
  9
$DIMSCALE
 40
1.0
  9
$DIMASZ
 40
0.1875
  9
$DIMEXO
 40
0.0625
  9
$DIMDLI
 40
0.836
  9
$DIMEXE
 40
0.125
  9
$DIMCEN
 40
0.198
  9
$DIMLFAC
 40
1.0
  9
$DIMBLK
  1
_FILLED
  9
$DIMTXT
 40
0.1
  9
$DIMTOL
 70
0
  9
$DIMLIM
 70
0
  9
$DIMTFAC
 40
1.0
  9
$DIMGAP
 40
0.09
  9
$DIMDSEP
 70
46
  9
$AUNITS
 70
0
  9
$PDMODE
 70
3
  9
$PDSIZE
 40
0.3125
  9
$HANDSEED
  5
3D4
  9
$TILEMODE
 70
1
  9
$MEASUREMENT
 70
0
  9
$INSUNITS
 70
1
  0
ENDSEC
  0
SECTION
  2
CLASSES
  0
CLASS
  1
ACDBDICTIONARYWDFLT
  2
AcDbDictionaryWithDefault
  3
AutoCAD 2000
 90
0
 91
1
280
0
281
0
  0
CLASS
  1
ACDBPLACEHOLDER
  2
AcDbPlaceHolder
  3
AutoCAD 2000
 90
0
 91
1
280
0
281
0
  0
CLASS
  1
LAYOUT
  2
AcDbLayout
  3
AutoCAD 2000
 90
0
 91
0
280
0
281
0
  0
CLASS
  1
RASTERVARIABLES
  2
AcDbRasterVariables
  3
ISM
 90
0
 91
1
280
0
281
0
  0
CLASS
  1
IMAGEDEF
  2
AcDbRasterImageDef
  3
ISM
 90
0
 91
1
280
0
281
0
  0
CLASS
  1
IMAGEDEF_REACTOR
  2
AcDbRasterImageDefReactor
  3
ISM
 90
0
 91
1
280
0
281
0
  0
CLASS
  1
IMAGE
  2
AcDbRasterImage
  3
ISM
 90
127
 91
1
280
0
281
1
  0
CLASS
  1
TABLESTYLE
  2
AcDbTableStyle
  3
ObjectDBX Classes
 90
2047
 91
1
280
0
281
0
  0
CLASS
  1
ACAD_TABLE
  2
AcDbTable
  3
ObjectDBX Classes
 90
1025
 91
3
280
0
281
1
  0
ENDSEC
  0
SECTION
  2
TABLES
  0
TABLE
  2
VPORT
  5
8
100
AcDbSymbolTable
 70
2
  0
VPORT
  5
1F4
100
AcDbSymbolTableRecord
100
AcDbViewportTableRecord
  2
*ACTIVE
 70
0
 10
0.0
 20
0.0
 11
1.0
 21
1.0
 12
11.0
 22
8.5
 13
0.0
 23
0.0
 14
1.0
 24
1.0
 15
0.0
 25
0.0
 16
0.0
 26
0.0
 36
1.0
 17
0.0
 27
0.0
 37
0.0
 40
17.0
 41
1.2941176471
 42
50.0
 43
0.0
 44
0.0
 50
0.0
 51
0.0
 71
0
 72
100
 73
1
 74
1
 75
0
 76
0
 77
0
 78
0
  0
ENDTAB
  0
TABLE
  2
LTYPE
  5
5
100
AcDbSymbolTable
 70
6
  0
LTYPE
  5
14
100
AcDbSymbolTableRecord
100
AcDbLinetypeTableRecord
  2
BYBLOCK
 70
0
  3

 72
65
 73
0
 40
0.0
  0
LTYPE
  5
15
100
AcDbSymbolTableRecord
100
AcDbLinetypeTableRecord
  2
BYLAYER
 70
0
  3

 72
65
 73
0
 40
0.0
  0
LTYPE
  5
16
100
AcDbSymbolTableRecord
100
AcDbLinetypeTableRecord
  2
CONTINUOUS
 70
64
  3
Solid line
 72
65
 73
0
 40
0.0
  0
LTYPE
  5
1F5
100
AcDbSymbolTableRecord
100
AcDbLinetypeTableRecord
  2
CENTER
 70
64
  3
____ _ ____ _ ____ _ ____ _ ____ _ ____ _ ____
 72
65
 73
4
 40
0.6
 49
0.375
 74
0
 49
-0.075
 74
0
 49
0.075
 74
0
 49
-0.075
 74
0
  0
LTYPE
  5
1F6
100
AcDbSymbolTableRecord
100
AcDbLinetypeTableRecord
  2
HIDDEN
 70
64
  3
- - - - - - - - - - - - - - - - - - - -
 72
65
 73
2
 40
0.2
 49
0.1
 74
0
 49
-0.1
 74
0
  0
LTYPE
  5
1F7
100
AcDbSymbolTableRecord
100
AcDbLinetypeTableRecord
  2
PHANTOM
 70
64
  3
_____ _ _ _____ _ _ _____ _ _ _____
 72
65
 73
6
 40
0.8
 49
0.45
 74
0
 49
-0.05
 74
0
 49
0.1
 74
0
 49
-0.05
 74
0
 49
0.1
 74
0
 49
-0.05
 74
0
  0
LTYPE
  5
1F8
100
AcDbSymbolTableRecord
100
AcDbLinetypeTableRecord
  2
DOT
 70
64
  3
. . . . . . . . . . . . . . . . . . . .
 72
65
 73
2
 40
0.2
 49
0.1
 74
0
 49
-0.1
 74
0
  0
LTYPE
  5
1F9
100
AcDbSymbolTableRecord
100
AcDbLinetypeTableRecord
  2
DASHED
 70
64
  3
- - - - - - - - - - - - - - - - - - - -
 72
65
 73
2
 40
0.2
 49
0.1
 74
0
 49
-0.1
 74
0
  0
ENDTAB
  0
TABLE
  2
LAYER
  5
2
100
AcDbSymbolTable
 70
36
  0
LAYER
  5
10
100
AcDbSymbolTableRecord
100
AcDbLayerTableRecord
  2
0
 70
0
 62
7
  6
CONTINUOUS
370
-3
390
F
  0
LAYER
  5
1FA
100
AcDbSymbolTableRecord
100
AcDbLayerTableRecord
  2
DEFAULT_1
 70
0
 62
7
  6
CENTER
370
-3
390
F
  0
LAYER
  5
1FB
100
AcDbSymbolTableRecord
100
AcDbLayerTableRecord
  2
DEFAULT_2
 70
0
 62
8
  6
HIDDEN
370
-3
390
F
  0
LAYER
  5
1FC
100
AcDbSymbolTableRecord
100
AcDbLayerTableRecord
  2
DEFAULT_3
 70
0
 62
7
  6
PHANTOM
370
-3
390
F
  0
LAYER
  5
1FD
100
AcDbSymbolTableRecord
100
AcDbLayerTableRecord
  2
01___PRT_ALL_DTM_PLN
 70
0
 62
7
  6
CONTINUOUS
370
-3
390
F
  0
LAYER
  5
1FE
100
AcDbSymbolTableRecord
100
AcDbLayerTableRecord
  2
01___PRT_DEF_DTM_PLN
 70
0
 62
7
  6
CONTINUOUS
370
-3
390
F
  0
LAYER
  5
1FF
100
AcDbSymbolTableRecord
100
AcDbLayerTableRecord
  2
02___PRT_ALL_AXES
 70
0
 62
7
  6
CONTINUOUS
370
-3
390
F
  0
LAYER
  5
200
100
AcDbSymbolTableRecord
100
AcDbLayerTableRecord
  2
03___PRT_ALL_CURVES
 70
0
 62
7
  6
CONTINUOUS
370
-3
390
F
  0
LAYER
  5
201
100
AcDbSymbolTableRecord
100
AcDbLayerTableRecord
  2
04___PRT_ALL_DTM_PNT
 70
0
 62
7
  6
CONTINUOUS
370
-3
390
F
  0
LAYER
  5
202
100
AcDbSymbolTableRecord
100
AcDbLayerTableRecord
  2
05___PRT_ALL_DTM_CSYS
 70
0
 62
7
  6
CONTINUOUS
370
-3
390
F
  0
LAYER
  5
203
100
AcDbSymbolTableRecord
100
AcDbLayerTableRecord
  2
05___PRT_DEF_DTM_CSYS
 70
0
 62
7
  6
CONTINUOUS
370
-3
390
F
  0
LAYER
  5
204
100
AcDbSymbolTableRecord
100
AcDbLayerTableRecord
  2
06___PRT_ALL_SURFS
 70
0
 62
7
  6
CONTINUOUS
370
-3
390
F
  0
LAYER
  5
205
100
AcDbSymbolTableRecord
100
AcDbLayerTableRecord
  2
COSMETIC
 70
0
 62
7
  6
CONTINUOUS
370
-3
390
F
  0
LAYER
  5
206
100
AcDbSymbolTableRecord
100
AcDbLayerTableRecord
  2
DATUM_PLANES
 70
0
 62
7
  6
CONTINUOUS
370
-3
390
F
  0
LAYER
  5
207
100
AcDbSymbolTableRecord
100
AcDbLayerTableRecord
  2
DIMENSIONS
 70
0
 62
7
  6
CONTINUOUS
370
-3
390
F
  0
LAYER
  5
208
100
AcDbSymbolTableRecord
100
AcDbLayerTableRecord
  2
PARAMETERDIMENSIONS
 70
0
 62
7
  6
CONTINUOUS
370
-3
390
F
  0
LAYER
  5
209
100
AcDbSymbolTableRecord
100
AcDbLayerTableRecord
  2
PORT_AREAS
 70
0
 62
7
  6
CONTINUOUS
370
-3
390
F
  0
LAYER
  5
20A
100
AcDbSymbolTableRecord
100
AcDbLayerTableRecord
  2
SUNNBOMCOSMETIC
 70
0
 62
7
  6
CONTINUOUS
370
-3
390
F
  0
LAYER
  5
20B
100
AcDbSymbolTableRecord
100
AcDbLayerTableRecord
  2
SUNNBOMSTAMPING
 70
0
 62
7
  6
CONTINUOUS
370
-3
390
F
  0
LAYER
  5
20C
100
AcDbSymbolTableRecord
100
AcDbLayerTableRecord
  2
THREADS
 70
0
 62
7
  6
CONTINUOUS
370
-3
390
F
  0
ENDTAB
  0
TABLE
  2
STYLE
  5
3
100
AcDbSymbolTable
 70
1
  0
STYLE
  5
11
100
AcDbSymbolTableRecord
100
AcDbTextStyleTableRecord
  2
STANDARD
 70
0
 40
0.0
 41
0.8
 50
0.0
 71
0
 42
0.2
  3
txt
  4

  0
STYLE
  5
20D
100
AcDbSymbolTableRecord
100
AcDbTextStyleTableRecord
  2
TEXTSTYLE_1
 70
0
 40
0.0
 41
0.8
 50
0.0
 71
0
 42
0.2
  3
gdt
  4

  0
ENDTAB
  0
TABLE
  2
VIEW
  5
6
100
AcDbSymbolTable
 70
0
  0
ENDTAB
  0
TABLE
  2
UCS
  5
7
100
AcDbSymbolTable
 70
0
  0
ENDTAB
  0
TABLE
  2
APPID
  5
9
100
AcDbSymbolTable
 70
1
  0
APPID
  5
20E
100
AcDbSymbolTableRecord
100
AcDbRegAppTableRecord
  2
ACAD
 70
0
  0
ENDTAB
  0
TABLE
  2
BLOCK_RECORD
  5
1
100
AcDbSymbolTable
 70
0
  0
BLOCK_RECORD
  5
20F
100
AcDbSymbolTableRecord
100
AcDbBlockTableRecord
  2
*Model_Space
  0
BLOCK_RECORD
  5
210
100
AcDbSymbolTableRecord
100
AcDbBlockTableRecord
  2
*Paper_Space
  0
BLOCK_RECORD
  5
211
100
AcDbSymbolTableRecord
100
AcDbBlockTableRecord
  2
SUN_FIRST_THIRD_ANGLE_BL0
  0
BLOCK_RECORD
  5
212
100
AcDbSymbolTableRecord
100
AcDbBlockTableRecord
  2
*T1
  0
BLOCK_RECORD
  5
213
100
AcDbSymbolTableRecord
100
AcDbBlockTableRecord
  2
*T2
  0
BLOCK_RECORD
  5
214
100
AcDbSymbolTableRecord
100
AcDbBlockTableRecord
  2
*T3
  0
ENDTAB
  0
TABLE
  2
DIMSTYLE
  5
A
100
AcDbSymbolTable
 70
1
100
AcDbDimStyleTable
 71
0
  0
DIMSTYLE
105
215
100
AcDbSymbolTableRecord
100
AcDbDimStyleTableRecord
  2
STANDARD
 70
0
  3

  4

 40
1.0
 41
0.1875
 42
0.0625
 43
0.38
 44
0.125
 45
0.0
 46
0.0
 47
0.001
 48
0.001
140
0.1
141
0.09
142
0.0
143
25.4
144
1.0
145
0.0
146
1.0
147
0.09
 71
0.0
 72
0.0
 73
1
 74
1
 75
0
 76
0
 77
0
 78
4
170
0
171
2
172
0
173
0
174
0
175
0
176
0
177
0
178
0
270
2
271
3
272
3
273
2
274
2
275
0
280
0
281
0
282
0
283
1
284
4
285
0
286
0
287
3
288
0
340
11
278
46
  0
ENDTAB
  0
ENDSEC
  0
SECTION
  2
BLOCKS
  0
BLOCK
  5
20
100
AcDbEntity
  8
0
100
AcDbBlockBegin
  2
*Model_Space
 70
0
 10
0.0
 20
0.0
 30
0.0
  3
*Model_Space
  1

  0
ENDBLK
  5
21
100
AcDbEntity
  8
0
100
AcDbBlockEnd
  0
BLOCK
  5
1C
100
AcDbEntity
  8
0
100
AcDbBlockBegin
  2
*Paper_Space
 70
0
 10
0.0
 20
0.0
 30
0.0
  3
*Paper_Space
  1

  0
ENDBLK
  5
1D
100
AcDbEntity
  8
0
100
AcDbBlockEnd
  0
BLOCK
  5
216
100
AcDbEntity
  8
0
100
AcDbBlockBegin
 62
2
  6
CONTINUOUS
  2
SUN_FIRST_THIRD_ANGLE_BL0
 70
64
 10
20.4816717061
 20
1.2289683772
  3
SUN_FIRST_THIRD_ANGLE_BL0
  1

  0
TEXT
  5
217
100
AcDbEntity
  8
0
100
AcDbText
 62
2
  6
CONTINUOUS
 10
19.4750896608
 20
1.4136269581
  7
STANDARD
 40
0.08
  1
FIRST ANGLE
 41
0.8
 72
0
100
AcDbText
  0
TEXT
  5
218
100
AcDbEntity
  8
0
100
AcDbText
 62
2
  6
CONTINUOUS
 10
20.7842537513
 20
1.4047600029
  7
STANDARD
 40
0.08
  1
THIRD ANGLE
 41
0.8
 72
0
100
AcDbText
  0
LINE
  5
219
100
AcDbEntity
  8
0
100
AcDbLine
 62
7
  6
CONTINUOUS
 10
19.4767170086
 20
1.1727031207
 11
19.6334271527
 21
1.1717972817
  0
LINE
  5
21A
100
AcDbEntity
  8
0
100
AcDbLine
 62
7
  6
CONTINUOUS
 10
19.6596964832
 20
1.1717972817
 11
19.6950230232
 21
1.171593082
  0
LINE
  5
21B
100
AcDbEntity
  8
0
100
AcDbLine
 62
7
  6
CONTINUOUS
 10
19.7194818561
 20
1.1708914427
 11
19.8852396156
 21
1.1699333054
  0
LINE
  5
21C
100
AcDbEntity
  8
0
100
AcDbLine
 62
7
  6
CONTINUOUS
 10
19.4758111696
 20
1.2723454088
 11
19.88525039
 21
1.3511534004
  0
LINE
  5
21D
100
AcDbEntity
  8
0
100
AcDbLine
 62
7
  6
CONTINUOUS
 10
19.88525039
 20
1.3511534004
 11
19.8831348489
 21
0.9851647912
  0
LINE
  5
21E
100
AcDbEntity
  8
0
100
AcDbLine
 62
7
  6
CONTINUOUS
 10
19.8831348489
 20
0.9851647912
 11
19.4767170086
 21
1.0658141206
  0
LINE
  5
21F
100
AcDbEntity
  8
0
100
AcDbLine
 62
7
  6
CONTINUOUS
 10
19.4767170086
 20
1.0658141206
 11
19.4779056764
 21
1.2714536432
  0
CIRCLE
  5
220
100
AcDbEntity
  8
0
100
AcDbCircle
 62
7
  6
CONTINUOUS
 10
20.2068232291
 20
1.1717972817
 40
0.175742101
  0
CIRCLE
  5
221
100
AcDbEntity
  8
0
100
AcDbCircle
 62
7
  6
CONTINUOUS
 10
20.2068232291
 20
1.1717972817
 40
0.1005522074
  0
LINE
  5
222
100
AcDbEntity
  8
0
100
AcDbLine
 62
7
  6
CONTINUOUS
 10
20.2077290681
 20
1.3756110529
 11
20.2071171714
 21
1.2379342989
  0
LINE
  5
223
100
AcDbEntity
  8
0
100
AcDbLine
 62
7
  6
CONTINUOUS
 10
20.2077290681
 20
1.2016899681
 11
20.2074674401
 21
1.1428236749
  0
LINE
  5
224
100
AcDbEntity
  8
0
100
AcDbLine
 62
7
  6
CONTINUOUS
 10
20.208634907
 20
1.101141841
 11
20.2080230104
 21
0.963465087
  0
LINE
  5
225
100
AcDbEntity
  8
0
100
AcDbLine
 62
7
  6
CONTINUOUS
 10
20.0066328138
 20
1.1745147986
 11
20.1443095678
 21
1.1739029019
  0
LINE
  5
226
100
AcDbEntity
  8
0
100
AcDbLine
 62
7
  6
CONTINUOUS
 10
20.1832714155
 20
1.1727031207
 11
20.238153505
 21
1.172335442
  0
LINE
  5
227
100
AcDbEntity
  8
0
100
AcDbLine
 62
7
  6
CONTINUOUS
 10
20.2756669918
 20
1.1717972817
 11
20.407916871
 21
1.1712095044
  0
CIRCLE
  5
228
100
AcDbEntity
  8
0
100
AcDbCircle
 62
7
  6
CONTINUOUS
 10
20.7509457401
 20
1.1693297793
 40
0.1722024983
  0
CIRCLE
  5
229
100
AcDbEntity
  8
0
100
AcDbCircle
 62
7
  6
CONTINUOUS
 10
20.7509457401
 20
1.1693297793
 40
0.0985164967
  0
LINE
  5
22A
100
AcDbEntity
  8
0
100
AcDbLine
 62
7
  6
CONTINUOUS
 10
20.7169767782
 20
1.170462078
 11
20.7825395137
 21
1.1682766535
  0
LINE
  5
22B
100
AcDbEntity
  8
0
100
AcDbLine
 62
7
  6
CONTINUOUS
 10
20.8177513651
 20
1.1693297793
 11
20.947965719
 21
1.1693297793
  0
LINE
  5
22C
100
AcDbEntity
  8
0
100
AcDbLine
 62
7
  6
CONTINUOUS
 10
20.6875370113
 20
1.170462078
 11
20.5573226574
 21
1.170462078
  0
LINE
  5
22D
100
AcDbEntity
  8
0
100
AcDbLine
 62
7
  6
CONTINUOUS
 10
20.7486811426
 20
1.1987695462
 11
20.7486811426
 21
1.1432869085
  0
LINE
  5
22E
100
AcDbEntity
  8
0
100
AcDbLine
 62
7
  6
CONTINUOUS
 10
20.7498134414
 20
1.1059210505
 11
20.7498134414
 21
0.9757066966
  0
LINE
  5
22F
100
AcDbEntity
  8
0
100
AcDbLine
 62
7
  6
CONTINUOUS
 10
20.7486811426
 20
1.2338708068
 11
20.7486811426
 21
1.3640851607
  0
LINE
  5
230
100
AcDbEntity
  8
0
100
AcDbLine
 62
7
  6
CONTINUOUS
 10
21.0702539817
 20
1.2701043662
 11
21.4790138229
 21
1.3448360823
  0
LINE
  5
231
100
AcDbEntity
  8
0
100
AcDbLine
 62
7
  6
CONTINUOUS
 10
21.4790138229
 20
1.3448360823
 11
21.4790138229
 21
0.9779712941
  0
LINE
  5
232
100
AcDbEntity
  8
0
100
AcDbLine
 62
7
  6
CONTINUOUS
 10
21.4790138229
 20
0.9779712941
 11
21.069121683
 21
1.0617614
  0
LINE
  5
233
100
AcDbEntity
  8
0
100
AcDbLine
 62
7
  6
CONTINUOUS
 10
21.0702539817
 20
1.2701043662
 11
21.069121683
 21
1.0617614
  0
LINE
  5
234
100
AcDbEntity
  8
0
100
AcDbLine
 62
7
  6
CONTINUOUS
 10
21.4790138229
 20
1.1693297793
 11
21.3159628059
 21
1.1693297793
  0
LINE
  5
235
100
AcDbEntity
  8
0
100
AcDbLine
 62
7
  6
CONTINUOUS
 10
21.2876553377
 20
1.1693297793
 11
21.2502894796
 21
1.1693297793
  0
LINE
  5
236
100
AcDbEntity
  8
0
100
AcDbLine
 62
7
  6
CONTINUOUS
 10
21.2208497126
 20
1.1659328831
 11
21.0713862804
 21
1.1659328831
  0
LINE
  5
237
100
AcDbEntity
  8
0
100
AcDbLine
 62
7
  6
CONTINUOUS
 10
20.4796138713
 20
1.5284908897
 11
20.4766766948
 21
0.9294458646
  0
ENDBLK
  5
238
100
AcDbEntity
  8
0
  6
BYBLOCK
 62
0
100
AcDbBlockEnd
  0
BLOCK
  5
239
100
AcDbEntity
  8
0
100
AcDbBlockBegin
  2
*T1
 70
1
 10
0.0
 20
0.0
  3
*T1
  1

  0
LINE
  5
23A
100
AcDbEntity
  8
0
100
AcDbLine
 62
2
  6
CONTINUOUS
 10
9.275
 20
0.0
 11
-0.0
 21
0.0
  0
LINE
  5
23B
100
AcDbEntity
  8
0
100
AcDbLine
 62
2
  6
CONTINUOUS
 10
9.275
 20
0.0
 11
9.275
 21
1.25
  0
LINE
  5
23C
100
AcDbEntity
  8
0
100
AcDbLine
 62
2
  6
CONTINUOUS
 10
9.275
 20
0.625
 11
-0.0
 21
0.625
  0
LINE
  5
23D
100
AcDbEntity
  8
0
100
AcDbLine
 62
2
  6
CONTINUOUS
 10
9.275
 20
1.25
 11
-0.0
 21
1.25
  0
LINE
  5
23E
100
AcDbEntity
  8
0
100
AcDbLine
 62
2
  6
CONTINUOUS
 10
6.8
 20
0.0
 11
6.8
 21
1.25
  0
LINE
  5
23F
100
AcDbEntity
  8
0
100
AcDbLine
 62
2
  6
CONTINUOUS
 10
6.4
 20
0.0
 11
6.4
 21
0.625
  0
LINE
  5
240
100
AcDbEntity
  8
0
100
AcDbLine
 62
2
  6
CONTINUOUS
 10
5.9
 20
0.0
 11
5.9
 21
0.625
  0
LINE
  5
241
100
AcDbEntity
  8
0
100
AcDbLine
 62
2
  6
CONTINUOUS
 10
5.2
 20
0.0
 11
5.2
 21
0.625
  0
LINE
  5
242
100
AcDbEntity
  8
0
100
AcDbLine
 62
2
  6
CONTINUOUS
 10
4.1
 20
0.0
 11
4.1
 21
1.25
  0
LINE
  5
243
100
AcDbEntity
  8
0
100
AcDbLine
 62
2
  6
CONTINUOUS
 10
-0.0
 20
0.0
 11
-0.0
 21
1.25
  0
MTEXT
  5
244
100
AcDbEntity
  8
0
100
AcDbMText
 62
2
  6
CONTINUOUS
  7
STANDARD
 71
2
 72
1
 10
6.6
 20
0.325
 30
0.0
 11
1.0
 21
0.0
 31
0.0
 44
0.9
  1
2
 40
0.125
 41
0.2
  0
MTEXT
  5
245
100
AcDbEntity
  8
0
100
AcDbMText
 62
2
  6
CONTINUOUS
  7
STANDARD
 71
2
 72
1
 10
6.15
 20
0.325
 30
0.0
 11
1.0
 21
0.0
 31
0.0
 44
0.9
  1
C
 40
0.125
 41
0.2
  0
MTEXT
  5
246
100
AcDbEntity
  8
0
100
AcDbMText
 62
2
  6
CONTINUOUS
  7
STANDARD
 71
2
 72
1
 10
5.55
 20
0.325
 30
0.0
 11
1.0
 21
0.0
 31
0.0
 44
0.9
  1
1.000
 40
0.125
 41
1.0
  0
MTEXT
  5
247
100
AcDbEntity
  8
0
100
AcDbMText
 62
2
  6
CONTINUOUS
  7
STANDARD
 71
2
 72
1
 10
4.65
 20
0.325
 30
0.0
 11
1.0
 21
0.0
 31
0.0
 44
0.9
  1
Jan-26-22
 40
0.125
 41
1.8
  0
MTEXT
  5
248
100
AcDbEntity
  8
0
100
AcDbMText
 62
2
  6
CONTINUOUS
  7
STANDARD
 71
2
 72
1
 10
2.05
 20
0.4625
 30
0.0
 11
1.0
 21
0.0
 31
0.0
 44
0.9
  1
Counterbalance manifold assembly
 40
0.125
 41
6.4
  0
MTEXT
  5
249
100
AcDbEntity
  8
0
100
AcDbMText
 62
2
  6
CONTINUOUS
  7
STANDARD
 71
1
 72
1
 10
6.45
 20
0.5625
 30
0.0
 11
1.0
 21
0.0
 31
0.0
 44
0.9
  1
SHEET
 40
0.06
 41
0.48
  0
MTEXT
  5
24A
100
AcDbEntity
  8
0
100
AcDbMText
 62
2
  6
CONTINUOUS
  7
STANDARD
 71
1
 72
1
 10
5.95
 20
0.5625
 30
0.0
 11
1.0
 21
0.0
 31
0.0
 44
0.9
  1
DWG SIZE
 40
0.06
 41
0.768
  0
MTEXT
  5
24B
100
AcDbEntity
  8
0
100
AcDbMText
 62
2
  6
CONTINUOUS
  7
STANDARD
 71
1
 72
1
 10
5.25
 20
0.5625
 30
0.0
 11
1.0
 21
0.0
 31
0.0
 44
0.9
  1
SCALE
 40
0.06
 41
0.48
  0
MTEXT
  5
24C
100
AcDbEntity
  8
0
100
AcDbMText
 62
2
  6
CONTINUOUS
  7
STANDARD
 71
1
 72
1
 10
4.15
 20
0.5625
 30
0.0
 11
1.0
 21
0.0
 31
0.0
 44
0.9
  1
DATE
 40
0.06
 41
0.384
  0
MTEXT
  5
24D
100
AcDbEntity
  8
0
100
AcDbMText
 62
2
  6
CONTINUOUS
  7
STANDARD
 71
1
 72
1
 10
0.05
 20
0.5625
 30
0.0
 11
1.0
 21
0.0
 31
0.0
 44
0.9
  1
DESCRIPTION
 40
0.06
 41
1.056
  0
MTEXT
  5
24E
100
AcDbEntity
  8
0
100
AcDbMText
 62
2
  6
CONTINUOUS
  7
STANDARD
 71
2
 72
1
 10
5.45
 20
1.0375
 30
0.0
 11
1.0
 21
0.0
 31
0.0
 44
0.9
  1
ALL DIMENSIONS IN INCH\PVIEWS ARE THIRD ANGLE
 40
0.12
 41
4.224
  0
MTEXT
  5
24F
100
AcDbEntity
  8
0
100
AcDbMText
 62
2
  6
CONTINUOUS
  7
STANDARD
 71
2
 72
1
 10
2.05
 20
0.95
 30
0.0
 11
1.0
 21
0.0
 31
0.0
 44
0.9
  1
CBBALHN-X4F
 40
0.125
 41
2.2
  0
MTEXT
  5
250
100
AcDbEntity
  8
0
100
AcDbMText
 62
2
  6
CONTINUOUS
  7
STANDARD
 71
1
 72
1
 10
0.05
 20
1.1875
 30
0.0
 11
1.0
 21
0.0
 31
0.0
 44
0.9
  1
MODEL
 40
0.06
 41
0.48
  0
ENDBLK
  5
251
100
AcDbEntity
  8
0
  6
BYBLOCK
 62
0
100
AcDbBlockEnd
  0
BLOCK
  5
252
100
AcDbEntity
  8
0
100
AcDbBlockBegin
  2
*T2
 70
1
 10
0.0
 20
0.0
  3
*T2
  1

  0
LINE
  5
253
100
AcDbEntity
  8
0
100
AcDbLine
 62
2
  6
CONTINUOUS
 10
0.0
 20
0.0
 11
9.055
 21
0.0
  0
LINE
  5
254
100
AcDbEntity
  8
0
100
AcDbLine
 62
2
  6
CONTINUOUS
 10
0.0
 20
0.0
 11
0.0
 21
-2.344
  0
LINE
  5
255
100
AcDbEntity
  8
0
100
AcDbLine
 62
2
  6
CONTINUOUS
 10
0.0
 20
-0.344
 11
9.055
 21
-0.344
  0
LINE
  5
256
100
AcDbEntity
  8
0
100
AcDbLine
 62
2
  6
CONTINUOUS
 10
0.0
 20
-0.594
 11
9.055
 21
-0.594
  0
LINE
  5
257
100
AcDbEntity
  8
0
100
AcDbLine
 62
2
  6
CONTINUOUS
 10
0.0
 20
-0.844
 11
9.055
 21
-0.844
  0
LINE
  5
258
100
AcDbEntity
  8
0
100
AcDbLine
 62
2
  6
CONTINUOUS
 10
0.0
 20
-1.094
 11
9.055
 21
-1.094
  0
LINE
  5
259
100
AcDbEntity
  8
0
100
AcDbLine
 62
2
  6
CONTINUOUS
 10
0.0
 20
-1.344
 11
9.055
 21
-1.344
  0
LINE
  5
25A
100
AcDbEntity
  8
0
100
AcDbLine
 62
2
  6
CONTINUOUS
 10
0.0
 20
-1.594
 11
9.055
 21
-1.594
  0
LINE
  5
25B
100
AcDbEntity
  8
0
100
AcDbLine
 62
2
  6
CONTINUOUS
 10
0.0
 20
-1.844
 11
9.055
 21
-1.844
  0
LINE
  5
25C
100
AcDbEntity
  8
0
100
AcDbLine
 62
2
  6
CONTINUOUS
 10
0.0
 20
-2.094
 11
9.055
 21
-2.094
  0
LINE
  5
25D
100
AcDbEntity
  8
0
100
AcDbLine
 62
2
  6
CONTINUOUS
 10
0.0
 20
-2.344
 11
9.055
 21
-2.344
  0
LINE
  5
25E
100
AcDbEntity
  8
0
100
AcDbLine
 62
2
  6
CONTINUOUS
 10
3.055
 20
0.0
 11
3.055
 21
-2.344
  0
LINE
  5
25F
100
AcDbEntity
  8
0
100
AcDbLine
 62
2
  6
CONTINUOUS
 10
9.055
 20
0.0
 11
9.055
 21
-2.344
  0
MTEXT
  5
260
100
AcDbEntity
  8
0
100
AcDbMText
 62
2
  6
CONTINUOUS
  7
STANDARD
 71
2
 72
1
 10
1.5275
 20
-0.0995
 30
0.0
 11
1.0
 21
0.0
 31
0.0
 44
0.9
  1
Technical Data
 40
0.145
 41
3.248
  0
MTEXT
  5
261
100
AcDbEntity
  8
0
100
AcDbMText
 62
2
  6
CONTINUOUS
  7
STANDARD
 71
2
 72
1
 10
4.555
 20
-0.0995
 30
0.0
 11
1.0
 21
0.0
 31
0.0
 44
0.9
  1
U.S. Units
 40
0.145
 41
2.32
  0
MTEXT
  5
262
100
AcDbEntity
  8
0
100
AcDbMText
 62
2
  6
CONTINUOUS
  7
STANDARD
 71
2
 72
1
 10
7.555
 20
-0.0995
 30
0.0
 11
1.0
 21
0.0
 31
0.0
 44
0.9
  1
Metric Units
 40
0.145
 41
2.784
  0
MTEXT
  5
263
100
AcDbEntity
  8
0
100
AcDbMText
 62
2
  6
CONTINUOUS
  7
STANDARD
 71
2
 72
1
 10
1.5275
 20
-0.4065
 30
0.0
 11
1.0
 21
0.0
 31
0.0
 44
0.9
  1
Cavity
 40
0.125
 41
1.2
  0
MTEXT
  5
264
100
AcDbEntity
  8
0
100
AcDbMText
 62
2
  6
CONTINUOUS
  7
STANDARD
 71
2
 72
1
 10
6.055
 20
-0.4065
 30
0.0
 11
1.0
 21
0.0
 31
0.0
 44
0.9
  1
T-11A
 40
0.125
 41
1.0
  0
MTEXT
  5
265
100
AcDbEntity
  8
0
100
AcDbMText
 62
2
  6
CONTINUOUS
  7
STANDARD
 71
2
 72
1
 10
1.5275
 20
-0.6565
 30
0.0
 11
1.0
 21
0.0
 31
0.0
 44
0.9
  1
Body Features
 40
0.125
 41
2.6
  0
MTEXT
  5
266
100
AcDbEntity
  8
0
100
AcDbMText
 62
2
  6
CONTINUOUS
  7
STANDARD
 71
2
 72
1
 10
6.055
 20
-0.6565
 30
0.0
 11
1.0
 21
0.0
 31
0.0
 44
0.9
  1
Direct mount
 40
0.125
 41
2.4
  0
MTEXT
  5
267
100
AcDbEntity
  8
0
100
AcDbMText
 62
2
  6
CONTINUOUS
  7
STANDARD
 71
2
 72
1
 10
1.5275
 20
-0.9065
 30
0.0
 11
1.0
 21
0.0
 31
0.0
 44
0.9
  1
Body Type
 40
0.125
 41
1.8
  0
MTEXT
  5
268
100
AcDbEntity
  8
0
100
AcDbMText
 62
2
  6
CONTINUOUS
  7
STANDARD
 71
2
 72
1
 10
6.055
 20
-0.9065
 30
0.0
 11
1.0
 21
0.0
 31
0.0
 44
0.9
  1
Line mount
 40
0.125
 41
2.0
  0
MTEXT
  5
269
100
AcDbEntity
  8
0
100
AcDbMText
 62
2
  6
CONTINUOUS
  7
STANDARD
 71
2
 72
1
 10
1.5275
 20
-1.1565
 30
0.0
 11
1.0
 21
0.0
 31
0.0
 44
0.9
  1
Interface
 40
0.125
 41
1.8
  0
MTEXT
  5
26A
100
AcDbEntity
  8
0
100
AcDbMText
 62
2
  6
CONTINUOUS
  7
STANDARD
 71
2
 72
1
 10
6.055
 20
-1.1565
 30
0.0
 11
1.0
 21
0.0
 31
0.0
 44
0.9
  1
Banjo Bolt
 40
0.125
 41
2.0
  0
MTEXT
  5
26B
100
AcDbEntity
  8
0
100
AcDbMText
 62
2
  6
CONTINUOUS
  7
STANDARD
 71
2
 72
1
 10
1.5275
 20
-1.4065
 30
0.0
 11
1.0
 21
0.0
 31
0.0
 44
0.9
  1
Open Cavity Quantity
 40
0.125
 41
4.0
  0
MTEXT
  5
26C
100
AcDbEntity
  8
0
100
AcDbMText
 62
2
  6
CONTINUOUS
  7
STANDARD
 71
2
 72
1
 10
6.055
 20
-1.4065
 30
0.0
 11
1.0
 21
0.0
 31
0.0
 44
0.9
  1
1
 40
0.125
 41
0.2
  0
MTEXT
  5
26D
100
AcDbEntity
  8
0
100
AcDbMText
 62
2
  6
CONTINUOUS
  7
STANDARD
 71
2
 72
1
 10
1.5275
 20
-1.6565
 30
0.0
 11
1.0
 21
0.0
 31
0.0
 44
0.9
  1
Weight
 40
0.125
 41
1.2
  0
MTEXT
  5
26E
100
AcDbEntity
  8
0
100
AcDbMText
 62
2
  6
CONTINUOUS
  7
STANDARD
 71
2
 72
1
 10
4.555
 20
-1.6565
 30
0.0
 11
1.0
 21
0.0
 31
0.0
 44
0.9
  1
1.586 lb.
 40
0.125
 41
1.8
  0
MTEXT
  5
26F
100
AcDbEntity
  8
0
100
AcDbMText
 62
2
  6
CONTINUOUS
  7
STANDARD
 71
2
 72
1
 10
7.555
 20
-1.6565
 30
0.0
 11
1.0
 21
0.0
 31
0.0
 44
0.9
  1
0,720 kg.
 40
0.125
 41
1.8
  0
MTEXT
  5
270
100
AcDbEntity
  8
0
100
AcDbMText
 62
2
  6
CONTINUOUS
  7
STANDARD
 71
2
 72
1
 10
1.5275
 20
-1.9065
 30
0.0
 11
1.0
 21
0.0
 31
0.0
 44
0.9
  1
Banjo Bolt Installation Torque
 40
0.125
 41
6.0
  0
MTEXT
  5
271
100
AcDbEntity
  8
0
100
AcDbMText
 62
2
  6
CONTINUOUS
  7
STANDARD
 71
2
 72
1
 10
6.055
 20
-1.9065
 30
0.0
 11
1.0
 21
0.0
 31
0.0
 44
0.9
  1
53 lb. ft. to 58 lb. ft. (70 Nm to 77 Nm)
 40
0.125
 41
8.2
  0
MTEXT
  5
272
100
AcDbEntity
  8
0
100
AcDbMText
 62
2
  6
CONTINUOUS
  7
STANDARD
 71
2
 72
1
 10
1.5275
 20
-2.1565
 30
0.0
 11
1.0
 21
0.0
 31
0.0
 44
0.9
  1
Banjo Bolt Hex
 40
0.125
 41
2.8
  0
MTEXT
  5
273
100
AcDbEntity
  8
0
100
AcDbMText
 62
2
  6
CONTINUOUS
  7
STANDARD
 71
2
 72
1
 10
6.055
 20
-2.1565
 30
0.0
 11
1.0
 21
0.0
 31
0.0
 44
0.9
  1
.94
 40
0.125
 41
0.6
  0
ENDBLK
  5
274
100
AcDbEntity
  8
0
  6
BYBLOCK
 62
0
100
AcDbBlockEnd
  0
BLOCK
  5
275
100
AcDbEntity
  8
0
100
AcDbBlockBegin
  2
*T3
 70
1
 10
0.0
 20
0.0
  3
*T3
  1

  0
LINE
  5
276
100
AcDbEntity
  8
0
100
AcDbLine
 62
2
  6
CONTINUOUS
 10
0.0
 20
0.0
 11
4.6
 21
0.0
  0
LINE
  5
277
100
AcDbEntity
  8
0
100
AcDbLine
 62
2
  6
CONTINUOUS
 10
0.0
 20
0.0
 11
0.0
 21
-1.43775
  0
LINE
  5
278
100
AcDbEntity
  8
0
100
AcDbLine
 62
2
  6
CONTINUOUS
 10
0.0
 20
-0.34375
 11
4.6
 21
-0.34375
  0
LINE
  5
279
100
AcDbEntity
  8
0
100
AcDbLine
 62
2
  6
CONTINUOUS
 10
0.0
 20
-0.68775
 11
4.6
 21
-0.68775
  0
LINE
  5
27A
100
AcDbEntity
  8
0
100
AcDbLine
 62
2
  6
CONTINUOUS
 10
0.0
 20
-0.93775
 11
4.6
 21
-0.93775
  0
LINE
  5
27B
100
AcDbEntity
  8
0
100
AcDbLine
 62
2
  6
CONTINUOUS
 10
0.0
 20
-1.18775
 11
4.6
 21
-1.18775
  0
LINE
  5
27C
100
AcDbEntity
  8
0
100
AcDbLine
 62
2
  6
CONTINUOUS
 10
0.0
 20
-1.43775
 11
4.6
 21
-1.43775
  0
LINE
  5
27D
100
AcDbEntity
  8
0
100
AcDbLine
 62
2
  6
CONTINUOUS
 10
1.3
 20
-0.34375
 11
1.3
 21
-1.43775
  0
LINE
  5
27E
100
AcDbEntity
  8
0
100
AcDbLine
 62
2
  6
CONTINUOUS
 10
3.3
 20
-0.34375
 11
3.3
 21
-1.43775
  0
LINE
  5
27F
100
AcDbEntity
  8
0
100
AcDbLine
 62
2
  6
CONTINUOUS
 10
4.6
 20
0.0
 11
4.6
 21
-1.43775
  0
MTEXT
  5
280
100
AcDbEntity
  8
0
100
AcDbMText
 62
2
  6
CONTINUOUS
  7
STANDARD
 71
2
 72
1
 10
2.3
 20
-0.099375
 30
0.0
 11
1.0
 21
0.0
 31
0.0
 44
0.9
  1
Port Headings
 40
0.145
 41
3.016
  0
MTEXT
  5
281
100
AcDbEntity
  8
0
100
AcDbMText
 62
2
  6
CONTINUOUS
  7
STANDARD
 71
2
 72
1
 10
0.65
 20
-0.44325
 30
0.0
 11
1.0
 21
0.0
 31
0.0
 44
0.9
  1
Product
 40
0.145
 41
1.624
  0
MTEXT
  5
282
100
AcDbEntity
  8
0
100
AcDbMText
 62
2
  6
CONTINUOUS
  7
STANDARD
 71
2
 72
1
 10
2.3
 20
-0.44325
 30
0.0
 11
1.0
 21
0.0
 31
0.0
 44
0.9
  1
Port
 40
0.145
 41
0.928
  0
MTEXT
  5
283
100
AcDbEntity
  8
0
100
AcDbMText
 62
2
  6
CONTINUOUS
  7
STANDARD
 71
2
 72
1
 10
3.95
 20
-0.44325
 30
0.0
 11
1.0
 21
0.0
 31
0.0
 44
0.9
  1
Size
 40
0.145
 41
0.928
  0
MTEXT
  5
284
100
AcDbEntity
  8
0
100
AcDbMText
 62
2
  6
CONTINUOUS
  7
STANDARD
 71
2
 72
1
 10
0.65
 20
-0.75025
 30
0.0
 11
1.0
 21
0.0
 31
0.0
 44
0.9
  1
X4F
 40
0.125
 41
0.6
  0
MTEXT
  5
285
100
AcDbEntity
  8
0
100
AcDbMText
 62
2
  6
CONTINUOUS
  7
STANDARD
 71
2
 72
1
 10
2.3
 20
-0.75025
 30
0.0
 11
1.0
 21
0.0
 31
0.0
 44
0.9
  1
Port 1
 40
0.125
 41
1.2
  0
MTEXT
  5
286
100
AcDbEntity
  8
0
100
AcDbMText
 62
2
  6
CONTINUOUS
  7
STANDARD
 71
2
 72
1
 10
3.95
 20
-0.75025
 30
0.0
 11
1.0
 21
0.0
 31
0.0
 44
0.9
  1
3/8" BSPP
 40
0.125
 41
1.8
  0
MTEXT
  5
287
100
AcDbEntity
  8
0
100
AcDbMText
 62
2
  6
CONTINUOUS
  7
STANDARD
 71
2
 72
1
 10
0.65
 20
-1.00025
 30
0.0
 11
1.0
 21
0.0
 31
0.0
 44
0.9
  1
X4F
 40
0.125
 41
0.6
  0
MTEXT
  5
288
100
AcDbEntity
  8
0
100
AcDbMText
 62
2
  6
CONTINUOUS
  7
STANDARD
 71
2
 72
1
 10
2.3
 20
-1.00025
 30
0.0
 11
1.0
 21
0.0
 31
0.0
 44
0.9
  1
Port 2
 40
0.125
 41
1.2
  0
MTEXT
  5
289
100
AcDbEntity
  8
0
100
AcDbMText
 62
2
  6
CONTINUOUS
  7
STANDARD
 71
2
 72
1
 10
3.95
 20
-1.00025
 30
0.0
 11
1.0
 21
0.0
 31
0.0
 44
0.9
  1
3/8" BSPP
 40
0.125
 41
1.8
  0
MTEXT
  5
28A
100
AcDbEntity
  8
0
100
AcDbMText
 62
2
  6
CONTINUOUS
  7
STANDARD
 71
2
 72
1
 10
0.65
 20
-1.25025
 30
0.0
 11
1.0
 21
0.0
 31
0.0
 44
0.9
  1
X4F
 40
0.125
 41
0.6
  0
MTEXT
  5
28B
100
AcDbEntity
  8
0
100
AcDbMText
 62
2
  6
CONTINUOUS
  7
STANDARD
 71
2
 72
1
 10
2.3
 20
-1.25025
 30
0.0
 11
1.0
 21
0.0
 31
0.0
 44
0.9
  1
Port 3
 40
0.125
 41
1.2
  0
MTEXT
  5
28C
100
AcDbEntity
  8
0
100
AcDbMText
 62
2
  6
CONTINUOUS
  7
STANDARD
 71
2
 72
1
 10
3.95
 20
-1.25025
 30
0.0
 11
1.0
 21
0.0
 31
0.0
 44
0.9
  1
1/4" BSPP
 40
0.125
 41
1.8
  0
ENDBLK
  5
28D
100
AcDbEntity
  8
0
  6
BYBLOCK
 62
0
100
AcDbBlockEnd
  0
ENDSEC
  0
SECTION
  2
ENTITIES
  0
IMAGE
  5
28E
100
AcDbEntity
  8
0
100
AcDbRasterImage
 62
7
  6
CONTINUOUS
 10
19.2297077316
 20
0.3094318264
 30
0.0
 11
0.0066666667
 21
0.0
 31
0.0
 12
0.0
 22
0.0066666667
 32
0.0
 13
369.0
 23
92.0
340
       3D1
 70
9
280
0
281
50
282
50
283
0
360
       3CB
 71
1
 91
2
 14
-0.5
 24
-0.5
 14
368.5
 24
91.5
  0
INSERT
  5
28F
100
AcDbEntity
  8
0
100
AcDbBlockReference
 62
2
  6
CONTINUOUS
  2
SUN_FIRST_THIRD_ANGLE_BL0
 10
20.4816717061
 20
1.2289683772
  0
ACAD_TABLE
  5
290
100
AcDbEntity
  8
0
 62
2
  6
CONTINUOUS
100
AcDbBlockReference
  2
*T1
 10
12.42375
 20
0.30125
 30
0.0
100
AcDbTable
342
       3D3
343
212
 11
1.0
 21
0.0
 31
0.0
 90
6
 91
4
 92
6
 93
20
 94
0
 95
0
 96
0
 70
1
 41
0.0
141
0.525
141
0.1
141
0.525
141
0.1
142
4.1
142
1.1
142
0.7
142
0.5
142
0.4
142
2.475
171
1
172
0
173
0
174
0
175
1
176
1
 91
33
178
0
145
0.0
301
CELL_VALUE
 90
4
  1
Counterbalance manifold assembly
304
ACVALUE_END
170
2
140
0.125
171
1
172
0
173
0
174
0
175
1
176
1
 91
33
178
0
145
0.0
301
CELL_VALUE
 90
4
  1
Jan-26-22
304
ACVALUE_END
170
5
140
0.125
171
1
172
0
173
0
174
0
175
1
176
1
 91
33
178
0
145
0.0
301
CELL_VALUE
 90
4
  1
1.000
304
ACVALUE_END
170
5
140
0.125
171
1
172
0
173
0
174
0
175
1
176
1
 91
33
178
0
145
0.0
301
CELL_VALUE
 90
4
  1
C
304
ACVALUE_END
170
5
140
0.125
171
1
172
0
173
0
174
0
175
1
176
1
 91
33
178
0
145
0.0
301
CELL_VALUE
 90
4
  1
2
304
ACVALUE_END
170
5
140
0.125
171
1
172
0
173
0
174
0
175
1
176
1
 91
33
178
0
145
0.0
301
CELL_VALUE
 90
4
  1
 
304
ACVALUE_END
170
1
140
0.125
171
1
172
0
173
0
174
0
175
1
176
1
 91
33
178
0
145
0.0
301
CELL_VALUE
 90
4
  1
DESCRIPTION
304
ACVALUE_END
170
1
140
0.06
171
1
172
0
173
0
174
0
175
1
176
1
 91
33
178
0
145
0.0
301
CELL_VALUE
 90
4
  1
DATE
304
ACVALUE_END
170
1
140
0.06
171
1
172
0
173
0
174
0
175
1
176
1
 91
33
178
0
145
0.0
301
CELL_VALUE
 90
4
  1
SCALE
304
ACVALUE_END
170
1
140
0.06
171
1
172
0
173
0
174
0
175
1
176
1
 91
33
178
0
145
0.0
301
CELL_VALUE
 90
4
  1
DWG SIZE
304
ACVALUE_END
170
1
140
0.06
171
1
172
0
173
0
174
0
175
1
176
1
 91
33
178
0
145
0.0
301
CELL_VALUE
 90
4
  1
SHEET
304
ACVALUE_END
170
1
140
0.06
171
1
172
0
173
0
174
0
175
1
176
1
 91
33
178
0
145
0.0
301
CELL_VALUE
 90
4
  1
 
304
ACVALUE_END
170
1
140
0.125
171
1
172
0
173
0
174
0
175
1
176
1
 91
33
178
0
145
0.0
301
CELL_VALUE
 90
4
  1
CBBALHN-X4F
304
ACVALUE_END
170
5
140
0.125
171
1
172
0
173
0
174
0
175
4
176
1
 91
33
178
0
145
0.0
301
CELL_VALUE
 90
4
  1
ALL DIMENSIONS IN INCH\PVIEWS ARE THIRD ANGLE
304
ACVALUE_END
170
5
140
0.12
171
1
172
0
173
1
174
0
175
1
176
1
 91
1
178
0
145
0.0
170
1
171
1
172
0
173
1
174
0
175
1
176
1
 91
1
178
0
145
0.0
170
1
171
1
172
0
173
1
174
0
175
1
176
1
 91
1
178
0
145
0.0
170
5
171
1
172
0
173
0
174
0
175
1
176
1
 91
33
178
0
145
0.0
301
CELL_VALUE
 90
4
  1
 
304
ACVALUE_END
170
1
140
0.125
171
1
172
0
173
0
174
0
175
1
176
1
 91
33
178
0
145
0.0
301
CELL_VALUE
 90
4
  1
MODEL
304
ACVALUE_END
170
1
140
0.06
171
1
172
0
173
0
174
0
175
1
176
1
 91
33
178
0
145
0.0
301
CELL_VALUE
 90
4
  1
 
304
ACVALUE_END
170
1
140
0.125
171
1
172
0
173
0
174
0
175
1
176
1
 91
33
178
0
145
0.0
301
CELL_VALUE
 90
4
  1
 
304
ACVALUE_END
170
1
140
0.125
171
1
172
0
173
0
174
0
175
1
176
1
 91
33
178
0
145
0.0
301
CELL_VALUE
 90
4
  1
 
304
ACVALUE_END
170
1
140
0.125
171
1
172
0
173
0
174
0
175
1
176
1
 91
33
178
0
145
0.0
301
CELL_VALUE
 90
4
  1
 
304
ACVALUE_END
170
1
140
0.125
171
1
172
0
173
0
174
0
175
1
176
1
 91
33
178
0
145
0.0
301
CELL_VALUE
 90
4
  1
 
304
ACVALUE_END
170
1
140
0.125
  0
ACAD_TABLE
  5
291
100
AcDbEntity
  8
0
 62
2
  6
CONTINUOUS
100
AcDbBlockReference
  2
*T2
 10
12.4237499994
 20
16.47875
 30
0.0
100
AcDbTable
342
       3D2
343
213
 11
1.0
 21
0.0
 31
0.0
 90
22
 91
9
 92
3
 93
16
 94
0
 95
0
 96
0
 41
0.028
141
0.344
141
0.25
141
0.25
141
0.25
141
0.25
141
0.25
141
0.25
141
0.25
141
0.25
142
3.055
142
3.0
142
3.0
171
1
172
0
173
0
174
0
175
1
176
1
 91
33
178
0
145
0.0
301
CELL_VALUE
 90
4
  1
Technical Data
304
ACVALUE_END
170
5
140
0.145
171
1
172
0
173
0
174
0
175
1
176
1
 91
33
178
0
145
0.0
301
CELL_VALUE
 90
4
  1
U.S. Units
304
ACVALUE_END
170
5
140
0.145
171
1
172
0
173
0
174
0
175
1
176
1
 91
33
178
0
145
0.0
301
CELL_VALUE
 90
4
  1
Metric Units
304
ACVALUE_END
170
5
140
0.145
171
1
172
0
173
0
174
0
175
1
176
1
 91
33
178
0
145
0.0
301
CELL_VALUE
 90
4
  1
Cavity
304
ACVALUE_END
170
5
140
0.125
171
1
172
0
173
0
174
0
175
2
176
1
 91
33
178
0
145
0.0
301
CELL_VALUE
 90
4
  1
T-11A
304
ACVALUE_END
170
5
140
0.125
171
1
172
0
173
1
174
0
175
1
176
1
 91
1
178
0
145
0.0
170
1
171
1
172
0
173
0
174
0
175
1
176
1
 91
33
178
0
145
0.0
301
CELL_VALUE
 90
4
  1
Body Features
304
ACVALUE_END
170
5
140
0.125
171
1
172
0
173
0
174
0
175
2
176
1
 91
33
178
0
145
0.0
301
CELL_VALUE
 90
4
  1
Direct mount
304
ACVALUE_END
170
5
140
0.125
171
1
172
0
173
1
174
0
175
1
176
1
 91
1
178
0
145
0.0
170
1
171
1
172
0
173
0
174
0
175
1
176
1
 91
33
178
0
145
0.0
301
CELL_VALUE
 90
4
  1
Body Type
304
ACVALUE_END
170
5
140
0.125
171
1
172
0
173
0
174
0
175
2
176
1
 91
33
178
0
145
0.0
301
CELL_VALUE
 90
4
  1
Line mount
304
ACVALUE_END
170
5
140
0.125
171
1
172
0
173
1
174
0
175
1
176
1
 91
1
178
0
145
0.0
170
1
171
1
172
0
173
0
174
0
175
1
176
1
 91
33
178
0
145
0.0
301
CELL_VALUE
 90
4
  1
Interface
304
ACVALUE_END
170
5
140
0.125
171
1
172
0
173
0
174
0
175
2
176
1
 91
33
178
0
145
0.0
301
CELL_VALUE
 90
4
  1
Banjo Bolt
304
ACVALUE_END
170
5
140
0.125
171
1
172
0
173
1
174
0
175
1
176
1
 91
1
178
0
145
0.0
170
1
171
1
172
0
173
0
174
0
175
1
176
1
 91
33
178
0
145
0.0
301
CELL_VALUE
 90
4
  1
Open Cavity Quantity
304
ACVALUE_END
170
5
140
0.125
171
1
172
0
173
0
174
0
175
2
176
1
 91
33
178
0
145
0.0
301
CELL_VALUE
 90
4
  1
1
304
ACVALUE_END
170
5
140
0.125
171
1
172
0
173
1
174
0
175
1
176
1
 91
1
178
0
145
0.0
170
1
171
1
172
0
173
0
174
0
175
1
176
1
 91
33
178
0
145
0.0
301
CELL_VALUE
 90
4
  1
Weight
304
ACVALUE_END
170
5
140
0.125
171
1
172
0
173
0
174
0
175
1
176
1
 91
33
178
0
145
0.0
301
CELL_VALUE
 90
4
  1
1.586 lb.
304
ACVALUE_END
170
5
140
0.125
171
1
172
0
173
0
174
0
175
1
176
1
 91
33
178
0
145
0.0
301
CELL_VALUE
 90
4
  1
0,720 kg.
304
ACVALUE_END
170
5
140
0.125
171
1
172
0
173
0
174
0
175
1
176
1
 91
33
178
0
145
0.0
301
CELL_VALUE
 90
4
  1
Banjo Bolt Installation Torque
304
ACVALUE_END
170
5
140
0.125
171
1
172
0
173
0
174
0
175
2
176
1
 91
33
178
0
145
0.0
301
CELL_VALUE
 90
4
  1
53 lb. ft. to 58 lb. ft. (70 Nm to 77 Nm)
304
ACVALUE_END
170
5
140
0.125
171
1
172
0
173
1
174
0
175
1
176
1
 91
1
178
0
145
0.0
170
1
171
1
172
0
173
0
174
0
175
1
176
1
 91
33
178
0
145
0.0
301
CELL_VALUE
 90
4
  1
Banjo Bolt Hex
304
ACVALUE_END
170
5
140
0.125
171
1
172
0
173
0
174
0
175
2
176
1
 91
33
178
0
145
0.0
301
CELL_VALUE
 90
4
  1
.94
304
ACVALUE_END
170
5
140
0.125
171
1
172
0
173
1
174
0
175
1
176
1
 91
1
178
0
145
0.0
170
1
  0
ACAD_TABLE
  5
292
100
AcDbEntity
  8
0
 62
2
  6
CONTINUOUS
100
AcDbBlockReference
  2
*T3
 10
0.52125
 20
1.959
 30
0.0
100
AcDbTable
342
       3D2
343
214
 11
1.0
 21
0.0
 31
0.0
 90
22
 91
5
 92
3
 93
16
 94
0
 95
0
 96
0
 41
0.05
141
0.34375
141
0.344
141
0.25
141
0.25
141
0.25
142
1.3
142
2.0
142
1.3
171
1
172
0
173
0
174
0
175
3
176
1
 91
33
178
0
145
0.0
301
CELL_VALUE
 90
4
  1
Port Headings
304
ACVALUE_END
170
5
140
0.145
171
1
172
0
173
1
174
0
175
1
176
1
 91
1
178
0
145
0.0
170
1
171
1
172
0
173
1
174
0
175
1
176
1
 91
1
178
0
145
0.0
170
1
171
1
172
0
173
0
174
0
175
1
176
1
 91
33
178
0
145
0.0
301
CELL_VALUE
 90
4
  1
Product
304
ACVALUE_END
170
5
140
0.145
171
1
172
0
173
0
174
0
175
1
176
1
 91
33
178
0
145
0.0
301
CELL_VALUE
 90
4
  1
Port
304
ACVALUE_END
170
5
140
0.145
171
1
172
0
173
0
174
0
175
1
176
1
 91
33
178
0
145
0.0
301
CELL_VALUE
 90
4
  1
Size
304
ACVALUE_END
170
5
140
0.145
171
1
172
0
173
0
174
0
175
1
176
1
 91
33
178
0
145
0.0
301
CELL_VALUE
 90
4
  1
X4F
304
ACVALUE_END
170
5
140
0.125
171
1
172
0
173
0
174
0
175
1
176
1
 91
33
178
0
145
0.0
301
CELL_VALUE
 90
4
  1
Port 1
304
ACVALUE_END
170
5
140
0.125
171
1
172
0
173
0
174
0
175
1
176
1
 91
33
178
0
145
0.0
301
CELL_VALUE
 90
4
  1
3/8" BSPP
304
ACVALUE_END
170
5
140
0.125
171
1
172
0
173
0
174
0
175
1
176
1
 91
33
178
0
145
0.0
301
CELL_VALUE
 90
4
  1
X4F
304
ACVALUE_END
170
5
140
0.125
171
1
172
0
173
0
174
0
175
1
176
1
 91
33
178
0
145
0.0
301
CELL_VALUE
 90
4
  1
Port 2
304
ACVALUE_END
170
5
140
0.125
171
1
172
0
173
0
174
0
175
1
176
1
 91
33
178
0
145
0.0
301
CELL_VALUE
 90
4
  1
3/8" BSPP
304
ACVALUE_END
170
5
140
0.125
171
1
172
0
173
0
174
0
175
1
176
1
 91
33
178
0
145
0.0
301
CELL_VALUE
 90
4
  1
X4F
304
ACVALUE_END
170
5
140
0.125
171
1
172
0
173
0
174
0
175
1
176
1
 91
33
178
0
145
0.0
301
CELL_VALUE
 90
4
  1
Port 3
304
ACVALUE_END
170
5
140
0.125
171
1
172
0
173
0
174
0
175
1
176
1
 91
33
178
0
145
0.0
301
CELL_VALUE
 90
4
  1
1/4" BSPP
304
ACVALUE_END
170
5
140
0.125
  0
MTEXT
  5
293
100
AcDbEntity
  8
0
100
AcDbMText
 62
2
  6
CONTINUOUS
  7
STANDARD
 71
1
 72
1
 10
0.52125
 20
5.75995
 30
0.0
 11
1.0
 21
0.0
 31
0.0
 44
0.6
  3
Notes\P \P1. Important: Carefully consider\P   the maximum system pressure. The\P   pressure rating of the manifold is\P   dependent on the manifold material,\P   with the port type/size a secondary\P   consideration. Manifolds\P   constructed of alu
  1
minum are not\P   rated for pressures higher than\P   3000 psi (210 bar), regardless of\P   the port type/size specified.
 40
0.1
 41
3.04
  0
LINE
  5
294
100
AcDbEntity
  8
0
100
AcDbLine
 62
7
  6
CONTINUOUS
 10
0.30125
 20
0.30125
 11
0.30125
 21
16.69875
  0
LINE
  5
295
100
AcDbEntity
  8
0
100
AcDbLine
 62
7
  6
CONTINUOUS
 10
0.30125
 20
0.30125
 11
21.69875
 21
0.30125
  0
LINE
  5
296
100
AcDbEntity
  8
0
100
AcDbLine
 62
7
  6
CONTINUOUS
 10
0.30125
 20
16.69875
 11
21.69875
 21
16.69875
  0
LINE
  5
297
100
AcDbEntity
  8
0
100
AcDbLine
 62
7
  6
CONTINUOUS
 10
21.69875
 20
0.30125
 11
21.69875
 21
16.69875
  0
LINE
  5
298
100
AcDbEntity
  8
0
100
AcDbLine
 62
7
  6
CONTINUOUS
 10
9.9543544153
 20
11.0416113338
 11
9.6308308759
 21
10.7291115732
  0
LINE
  5
299
100
AcDbEntity
  8
0
100
AcDbLine
 62
7
  6
CONTINUOUS
 10
10.7613327552
 20
6.0255009867
 11
10.7528335074
 21
6.0296994524
  0
LINE
  5
29A
100
AcDbEntity
  8
0
100
AcDbLine
 62
7
  6
CONTINUOUS
 10
10.8463640862
 20
6.000271924
 11
10.8601364061
 21
5.9874553346
  0
LINE
  5
29B
100
AcDbEntity
  8
0
100
AcDbLine
 62
7
  6
CONTINUOUS
 10
10.6017832648
 20
6.7143281249
 11
10.6271370507
 21
6.7018038401
  0
LINE
  5
29C
100
AcDbEntity
  8
0
100
AcDbLine
 62
7
  6
CONTINUOUS
 10
10.6481811219
 20
6.2928856761
 11
10.6963527774
 21
6.2480568937
  0
LINE
  5
29D
100
AcDbEntity
  8
0
100
AcDbLine
 62
7
  6
CONTINUOUS
 10
10.4169770916
 20
10.2258805506
 11
10.3642097886
 21
10.1749112468
  0
LINE
  5
29E
100
AcDbEntity
  8
0
100
AcDbLine
 62
7
  6
CONTINUOUS
 10
9.6308308759
 20
10.7291115732
 11
9.6308308759
 21
7.1551857581
  0
LINE
  5
29F
100
AcDbEntity
  8
0
100
AcDbLine
 62
7
  6
CONTINUOUS
 10
10.8733770716
 20
10.4577317558
 11
10.8206097685
 21
10.406762452
  0
LINE
  5
2A0
100
AcDbEntity
  8
0
100
AcDbLine
 62
7
  6
CONTINUOUS
 10
9.6308308759
 20
7.1551857581
 11
12.0456455847
 21
6.9877177892
  0
LINE
  5
2A1
100
AcDbEntity
  8
0
100
AcDbLine
 62
4
  6
CONTINUOUS
 10
9.8783493949
 20
7.5147313568
 11
9.8614456919
 21
7.5271727653
  0
LINE
  5
2A2
100
AcDbEntity
  8
0
100
AcDbLine
 62
4
  6
CONTINUOUS
 10
9.8783493949
 20
7.5710770363
 11
9.8614456919
 21
7.5835184448
  0
LINE
  5
2A3
100
AcDbEntity
  8
0
100
AcDbLine
 62
4
  6
CONTINUOUS
 10
9.8952530979
 20
7.6487887053
 11
9.912156801
 21
7.6363472938
  0
LINE
  5
2A4
100
AcDbEntity
  8
0
100
AcDbLine
 62
4
  6
CONTINUOUS
 10
9.8614456919
 20
7.5271727653
 11
9.8529938403
 21
7.5390280439
  0
LINE
  5
2A5
100
AcDbEntity
  8
0
100
AcDbLine
 62
4
  6
CONTINUOUS
 10
9.8614456919
 20
7.5835184448
 11
9.8445419888
 21
7.6072289899
  0
LINE
  5
2A6
100
AcDbEntity
  8
0
100
AcDbLine
 62
4
  6
CONTINUOUS
 10
9.912156801
 20
7.6363472938
 11
9.9206086525
 21
7.6244920203
  0
LINE
  5
2A7
100
AcDbEntity
  8
0
100
AcDbLine
 62
4
  6
CONTINUOUS
 10
9.8445419888
 20
7.6072289899
 11
9.8445419888
 21
7.6184981266
  0
LINE
  5
2A8
100
AcDbEntity
  8
0
100
AcDbLine
 62
4
  6
CONTINUOUS
 10
9.8529938403
 20
7.5390280439
 11
9.8529938403
 21
7.5502971766
  0
LINE
  5
2A9
100
AcDbEntity
  8
0
100
AcDbLine
 62
4
  6
CONTINUOUS
 10
11.0700604525
 20
7.2099230002
 11
10.9855419373
 21
7.2157843792
  0
LINE
  5
2AA
100
AcDbEntity
  8
0
100
AcDbLine
 62
4
  6
CONTINUOUS
 10
10.9179271252
 20
7.2880882945
 11
10.8672160161
 21
7.2916051218
  0
LINE
  5
2AB
100
AcDbEntity
  8
0
100
AcDbLine
 62
4
  6
CONTINUOUS
 10
10.5122382524
 20
7.3387611827
 11
10.4615271433
 21
7.3422780101
  0
LINE
  5
2AC
100
AcDbEntity
  8
0
100
AcDbLine
 62
7
  6
CONTINUOUS
 10
11.3297770516
 20
10.1625776584
 11
11.2770097485
 21
10.1116083545
  0
LINE
  5
2AD
100
AcDbEntity
  8
0
100
AcDbLine
 62
4
  6
CONTINUOUS
 10
9.8952530979
 20
7.5135590811
 11
9.8783493949
 21
7.5147313568
  0
LINE
  5
2AE
100
AcDbEntity
  8
0
100
AcDbLine
 62
4
  6
CONTINUOUS
 10
9.8952530979
 20
7.5699047605
 11
9.8783493949
 21
7.5710770363
  0
LINE
  5
2AF
100
AcDbEntity
  8
0
100
AcDbLine
 62
4
  6
CONTINUOUS
 10
10.2055567989
 20
8.3806912872
 11
10.2055567989
 21
8.3517135092
  0
LINE
  5
2B0
100
AcDbEntity
  8
0
100
AcDbLine
 62
7
  6
CONTINUOUS
 10
12.3691691241
 20
10.8741433649
 11
12.0456455847
 21
10.5616436043
  0
LINE
  5
2B1
100
AcDbEntity
  8
0
100
AcDbLine
 62
4
  6
CONTINUOUS
 10
10.4792358436
 20
9.0417234054
 11
10.4985543522
 21
9.0597021809
  0
LINE
  5
2B2
100
AcDbEntity
  8
0
100
AcDbLine
 62
4
  6
CONTINUOUS
 10
10.2763914072
 20
9.0171536796
 11
10.3279074515
 21
9.039339054
  0
LINE
  5
2B3
100
AcDbEntity
  8
0
100
AcDbLine
 62
4
  6
CONTINUOUS
 10
9.8783493949
 20
7.6499609811
 11
9.8952530979
 21
7.6487887053
  0
LINE
  5
2B4
100
AcDbEntity
  8
0
100
AcDbLine
 62
4
  6
CONTINUOUS
 10
10.4868826978
 20
7.2503665149
 11
10.4446234402
 21
7.3885268286
  0
LINE
  5
2B5
100
AcDbEntity
  8
0
100
AcDbLine
 62
4
  6
CONTINUOUS
 10
10.26351226
 20
8.3283757678
 11
10.26351226
 21
8.2993979929
  0
LINE
  5
2B6
100
AcDbEntity
  8
0
100
AcDbLine
 62
4
  6
CONTINUOUS
 10
10.3504456451
 20
8.3706432116
 11
10.3504456451
 21
8.2933691421
  0
LINE
  5
2B7
100
AcDbEntity
  8
0
100
AcDbLine
 62
4
  6
CONTINUOUS
 10
10.4019616894
 20
8.3767298211
 11
10.4019616894
 21
8.28013723
  0
LINE
  5
2B8
100
AcDbEntity
  8
0
100
AcDbLine
 62
4
  6
CONTINUOUS
 10
10.4019616894
 20
8.2511594591
 11
10.4019616894
 21
8.2415001968
  0
LINE
  5
2B9
100
AcDbEntity
  8
0
100
AcDbLine
 62
4
  6
CONTINUOUS
 10
10.4244999942
 20
9.0648378681
 11
10.4244999942
 21
8.9296082438
  0
LINE
  5
2BA
100
AcDbEntity
  8
0
100
AcDbLine
 62
7
  6
CONTINUOUS
 10
11.3297770516
 20
9.6355723558
 11
11.2770097485
 21
9.584603052
  0
LINE
  5
2BB
100
AcDbEntity
  8
0
100
AcDbLine
 62
4
  6
CONTINUOUS
 10
10.5854876729
 20
9.034354816
 11
10.6048061814
 21
9.0523335915
  0
LINE
  5
2BC
100
AcDbEntity
  8
0
100
AcDbLine
 62
4
  6
CONTINUOUS
 10
10.653102485
 20
8.9330731238
 11
10.6337839764
 21
8.9150943503
  0
LINE
  5
2BD
100
AcDbEntity
  8
0
100
AcDbLine
 62
4
  6
CONTINUOUS
 10
10.2055567989
 20
8.3517135092
 11
10.2152160209
 21
8.3446041344
  0
LINE
  5
2BE
100
AcDbEntity
  8
0
100
AcDbLine
 62
4
  6
CONTINUOUS
 10
10.253853038
 20
8.3354851426
 11
10.26351226
 21
8.3283757678
  0
LINE
  5
2BF
100
AcDbEntity
  8
0
100
AcDbLine
 62
4
  6
CONTINUOUS
 10
10.2152160209
 20
8.2930880861
 11
10.2055567989
 21
8.3034172177
  0
LINE
  5
2C0
100
AcDbEntity
  8
0
100
AcDbLine
 62
4
  6
CONTINUOUS
 10
10.26351226
 20
8.3766720623
 11
10.253853038
 21
8.3870011909
  0
LINE
  5
2C1
100
AcDbEntity
  8
0
100
AcDbLine
 62
4
  6
CONTINUOUS
 10
10.3407864231
 20
8.3809723402
 11
10.3504456451
 21
8.3706432116
  0
LINE
  5
2C2
100
AcDbEntity
  8
0
100
AcDbLine
 62
4
  6
CONTINUOUS
 10
10.4792358436
 20
8.9451308164
 11
10.4792358436
 21
9.0417234054
  0
LINE
  5
2C3
100
AcDbEntity
  8
0
100
AcDbLine
 62
4
  6
CONTINUOUS
 10
10.4888950101
 20
8.3610417155
 11
10.4888950101
 21
8.2354713505
  0
LINE
  5
2C4
100
AcDbEntity
  8
0
100
AcDbLine
 62
4
  6
CONTINUOUS
 10
10.5275320272
 20
8.3680214886
 11
10.5275320272
 21
8.2714288975
  0
LINE
  5
2C5
100
AcDbEntity
  8
0
100
AcDbLine
 62
7
  6
CONTINUOUS
 10
10.5288880141
 20
7.092905284
 11
10.5288880141
 21
6.7610643874
  0
LINE
  5
2C6
100
AcDbEntity
  8
0
100
AcDbLine
 62
7
  6
CONTINUOUS
 10
10.5442172506
 20
7.0918421978
 11
10.5442172506
 21
6.7462575074
  0
LINE
  5
2C7
100
AcDbEntity
  8
0
100
AcDbLine
 62
4
  6
CONTINUOUS
 10
10.5468506558
 20
9.0563528209
 11
10.5468506558
 21
8.9211231966
  0
LINE
  5
2C8
100
AcDbEntity
  8
0
100
AcDbLine
 62
4
  6
CONTINUOUS
 10
10.5854876173
 20
8.2674096637
 11
10.5854876173
 21
8.3543429954
  0
LINE
  5
2C9
100
AcDbEntity
  8
0
100
AcDbLine
 62
4
  6
CONTINUOUS
 10
10.5854876729
 20
8.937762227
 11
10.5854876729
 21
9.034354816
  0
LINE
  5
2CA
100
AcDbEntity
  8
0
100
AcDbLine
 62
4
  6
CONTINUOUS
 10
10.6221123221
 20
7.2409883086
 11
10.6221123221
 21
7.3762179329
  0
LINE
  5
2CB
100
AcDbEntity
  8
0
100
AcDbLine
 62
4
  6
CONTINUOUS
 10
10.6241246344
 20
8.3613227685
 11
10.6241246344
 21
8.284048694
  0
LINE
  5
2CC
100
AcDbEntity
  8
0
100
AcDbLine
 62
7
  6
CONTINUOUS
 10
10.6345233885
 20
6.6985125575
 11
10.6345233885
 21
6.4144146516
  0
LINE
  5
2CD
100
AcDbEntity
  8
0
100
AcDbLine
 62
7
  6
CONTINUOUS
 10
10.6345233885
 20
6.3680502091
 11
10.6345233885
 21
6.3187879891
  0
LINE
  5
2CE
100
AcDbEntity
  8
0
100
AcDbLine
 62
4
  6
CONTINUOUS
 10
10.3987419487
 20
8.2417234866
 11
10.4019616894
 21
8.2511594591
  0
LINE
  5
2CF
100
AcDbEntity
  8
0
100
AcDbLine
 62
4
  6
CONTINUOUS
 10
9.8445419888
 20
7.6184981266
 11
9.8614456919
 21
7.6398641212
  0
LINE
  5
2D0
100
AcDbEntity
  8
0
100
AcDbLine
 62
4
  6
CONTINUOUS
 10
10.7657937956
 20
8.9252579549
 11
10.746475287
 21
8.9072791814
  0
LINE
  5
2D1
100
AcDbEntity
  8
0
100
AcDbLine
 62
4
  6
CONTINUOUS
 10
10.2152160209
 20
8.3896806772
 11
10.2055567989
 21
8.3806912872
  0
LINE
  5
2D2
100
AcDbEntity
  8
0
100
AcDbLine
 62
4
  6
CONTINUOUS
 10
10.4792357236
 20
8.3713708486
 11
10.4888950101
 21
8.3610417155
  0
LINE
  5
2D3
100
AcDbEntity
  8
0
100
AcDbLine
 62
4
  6
CONTINUOUS
 10
10.5854876173
 20
8.3543429954
 11
10.5758283308
 21
8.3646721285
  0
LINE
  5
2D4
100
AcDbEntity
  8
0
100
AcDbLine
 62
4
  6
CONTINUOUS
 10
10.6241246344
 20
8.284048694
 11
10.6337838564
 21
8.2640603081
  0
LINE
  5
2D5
100
AcDbEntity
  8
0
100
AcDbLine
 62
4
  6
CONTINUOUS
 10
10.653102485
 20
9.0296657129
 11
10.653102485
 21
8.9330731238
  0
LINE
  5
2D6
100
AcDbEntity
  8
0
100
AcDbLine
 62
4
  6
CONTINUOUS
 10
10.68208016
 20
8.3476442798
 11
10.68208016
 21
8.3186665019
  0
LINE
  5
2D7
100
AcDbEntity
  8
0
100
AcDbLine
 62
7
  6
CONTINUOUS
 10
10.6945804393
 20
6.2497062404
 11
10.6945804393
 21
6.1063442507
  0
LINE
  5
2D8
100
AcDbEntity
  8
0
100
AcDbLine
 62
4
  6
CONTINUOUS
 10
10.7239369822
 20
8.2674674299
 11
10.7239369822
 21
8.2867859465
  0
LINE
  5
2D9
100
AcDbEntity
  8
0
100
AcDbLine
 62
4
  6
CONTINUOUS
 10
10.7561345039
 20
8.7443337633
 11
10.7561345039
 21
8.6091041391
  0
LINE
  5
2DA
100
AcDbEntity
  8
0
100
AcDbLine
 62
4
  6
CONTINUOUS
 10
10.7573419463
 20
7.2316101023
 11
10.7573419463
 21
7.3668397266
  0
LINE
  5
2DB
100
AcDbEntity
  8
0
100
AcDbLine
 62
4
  6
CONTINUOUS
 10
10.7657937956
 20
9.0218505439
 11
10.7657937956
 21
8.9252579549
  0
LINE
  5
2DC
100
AcDbEntity
  8
0
100
AcDbLine
 62
4
  6
CONTINUOUS
 10
10.7690134807
 20
8.3512746929
 11
10.7690134807
 21
8.2546821018
  0
LINE
  5
2DD
100
AcDbEntity
  8
0
100
AcDbLine
 62
7
  6
CONTINUOUS
 10
10.7785672887
 20
6.1868451348
 11
10.7785672887
 21
6.0252193224
  0
LINE
  5
2DE
100
AcDbEntity
  8
0
100
AcDbLine
 62
4
  6
CONTINUOUS
 10
10.8076505622
 20
8.2133655779
 11
10.8076505622
 21
8.3485952022
  0
LINE
  5
2DF
100
AcDbEntity
  8
0
100
AcDbLine
 62
4
  6
CONTINUOUS
 10
10.8173098186
 20
8.7400912408
 11
10.8173098186
 21
8.6724764287
  0
LINE
  5
2E0
100
AcDbEntity
  8
0
100
AcDbLine
 62
4
  6
CONTINUOUS
 10
10.8623863573
 20
8.7079873953
 11
10.8334085865
 21
8.6037451632
  0
LINE
  5
2E1
100
AcDbEntity
  8
0
100
AcDbLine
 62
4
  6
CONTINUOUS
 10
9.8529938403
 20
7.5502971766
 11
9.8614456919
 21
7.5609801714
  0
LINE
  5
2E2
100
AcDbEntity
  8
0
100
AcDbLine
 62
4
  6
CONTINUOUS
 10
10.26351226
 20
8.2993979929
 11
10.253853038
 21
8.2904085999
  0
LINE
  5
2E3
100
AcDbEntity
  8
0
100
AcDbLine
 62
4
  6
CONTINUOUS
 10
10.3504456451
 20
8.2933691421
 11
10.3407864231
 21
8.2843797491
  0
LINE
  5
2E4
100
AcDbEntity
  8
0
100
AcDbLine
 62
4
  6
CONTINUOUS
 10
11.2551962806
 20
8.9879103663
 11
11.2745147972
 21
9.0058891413
  0
LINE
  5
2E5
100
AcDbEntity
  8
0
100
AcDbLine
 62
4
  6
CONTINUOUS
 10
11.3485691108
 20
8.9170398772
 11
11.4000851591
 21
8.9392252533
  0
LINE
  5
2E6
100
AcDbEntity
  8
0
100
AcDbLine
 62
4
  6
CONTINUOUS
 10
11.4516011378
 20
8.1687074538
 11
11.4129641025
 21
8.1713869413
  0
LINE
  5
2E7
100
AcDbEntity
  8
0
100
AcDbLine
 62
4
  6
CONTINUOUS
 10
10.4019616894
 20
8.2415001968
 11
10.3987419487
 21
8.2417234866
  0
LINE
  5
2E8
100
AcDbEntity
  8
0
100
AcDbLine
 62
4
  6
CONTINUOUS
 10
11.045912275
 20
8.2354791052
 11
10.9976159714
 21
8.2388284652
  0
LINE
  5
2E9
100
AcDbEntity
  8
0
100
AcDbLine
 62
4
  6
CONTINUOUS
 10
10.8462875793
 20
8.2493231249
 11
10.8076505622
 21
8.2520026111
  0
LINE
  5
2EA
100
AcDbEntity
  8
0
100
AcDbLine
 62
4
  6
CONTINUOUS
 10
10.7690134807
 20
8.2546821018
 11
10.7303764636
 21
8.257361588
  0
LINE
  5
2EB
100
AcDbEntity
  8
0
100
AcDbLine
 62
4
  6
CONTINUOUS
 10
10.3407864231
 20
8.2843797491
 11
10.3021492771
 21
8.2870592443
  0
LINE
  5
2EC
100
AcDbEntity
  8
0
100
AcDbLine
 62
4
  6
CONTINUOUS
 10
10.253853038
 20
8.2904085999
 11
10.2152160209
 21
8.2930880861
  0
LINE
  5
2ED
100
AcDbEntity
  8
0
100
AcDbLine
 62
4
  6
CONTINUOUS
 10
10.6337838564
 20
8.2640603081
 11
10.68208016
 21
8.2607109481
  0
LINE
  5
2EE
100
AcDbEntity
  8
0
100
AcDbLine
 62
4
  6
CONTINUOUS
 10
10.6627616514
 20
8.3103469867
 11
10.6241246344
 21
8.313026473
  0
LINE
  5
2EF
100
AcDbEntity
  8
0
100
AcDbLine
 62
4
  6
CONTINUOUS
 10
10.2152160209
 20
8.3446041344
 11
10.253853038
 21
8.3354851426
  0
LINE
  5
2F0
100
AcDbEntity
  8
0
100
AcDbLine
 62
4
  6
CONTINUOUS
 10
10.6627616514
 20
8.3586432823
 11
10.68208016
 21
8.3476442798
  0
LINE
  5
2F1
100
AcDbEntity
  8
0
100
AcDbLine
 62
4
  6
CONTINUOUS
 10
10.8462875793
 20
8.3459157159
 11
10.8656060878
 21
8.3349167135
  0
LINE
  5
2F2
100
AcDbEntity
  8
0
100
AcDbLine
 62
4
  6
CONTINUOUS
 10
10.9976159714
 20
8.2388284652
 11
10.9879567172
 21
8.2491575991
  0
LINE
  5
2F3
100
AcDbEntity
  8
0
100
AcDbLine
 62
4
  6
CONTINUOUS
 10
10.7303764636
 20
8.257361588
 11
10.7239369822
 21
8.2674674299
  0
LINE
  5
2F4
100
AcDbEntity
  8
0
100
AcDbLine
 62
7
  6
CONTINUOUS
 10
10.8530885542
 20
7.0270276538
 11
10.8530885542
 21
6.6663158328
  0
LINE
  5
2F5
100
AcDbEntity
  8
0
100
AcDbLine
 62
4
  6
CONTINUOUS
 10
10.8656060878
 20
8.3349167135
 11
10.8656060878
 21
8.2576426441
  0
LINE
  5
2F6
100
AcDbEntity
  8
0
100
AcDbLine
 62
7
  6
CONTINUOUS
 10
10.9102979996
 20
7.0230601653
 11
10.9102979996
 21
6.6623483443
  0
LINE
  5
2F7
100
AcDbEntity
  8
0
100
AcDbLine
 62
4
  6
CONTINUOUS
 10
10.9686382642
 20
9.0271017509
 11
10.9686382642
 21
8.8918721266
  0
LINE
  5
2F8
100
AcDbEntity
  8
0
100
AcDbLine
 62
4
  6
CONTINUOUS
 10
10.9879567172
 20
8.2491575991
 11
10.9879567172
 21
8.3360909279
  0
LINE
  5
2F9
100
AcDbEntity
  8
0
100
AcDbLine
 62
4
  6
CONTINUOUS
 10
10.9300011593
 20
8.3723076891
 11
10.8913641422
 21
8.2461970546
  0
LINE
  5
2FA
100
AcDbEntity
  8
0
100
AcDbLine
 62
4
  6
CONTINUOUS
 10
10.5291419554
 20
7.3826654497
 11
10.4868826978
 21
7.2503665149
  0
LINE
  5
2FB
100
AcDbEntity
  8
0
100
AcDbLine
 62
4
  6
CONTINUOUS
 10
10.978297465
 20
8.7289267096
 11
10.9010233905
 21
8.5990560606
  0
LINE
  5
2FC
100
AcDbEntity
  8
0
100
AcDbLine
 62
4
  6
CONTINUOUS
 10
11.4612603971
 20
8.3032672062
 11
11.4226233608
 21
8.3059466937
  0
LINE
  5
2FD
100
AcDbEntity
  8
0
100
AcDbLine
 62
4
  6
CONTINUOUS
 10
11.3453492944
 20
8.3113056684
 11
11.3163715075
 21
8.3133152848
  0
LINE
  5
2FE
100
AcDbEntity
  8
0
100
AcDbLine
 62
4
  6
CONTINUOUS
 10
10.5758283308
 20
8.3646721285
 11
10.5275320272
 21
8.3680214886
  0
LINE
  5
2FF
100
AcDbEntity
  8
0
100
AcDbLine
 62
4
  6
CONTINUOUS
 10
10.253853038
 20
8.3870011909
 11
10.2152160209
 21
8.3896806772
  0
LINE
  5
300
100
AcDbEntity
  8
0
100
AcDbLine
 62
4
  6
CONTINUOUS
 10
10.3021492771
 20
8.3836518354
 11
10.3407864231
 21
8.3809723402
  0
LINE
  5
301
100
AcDbEntity
  8
0
100
AcDbLine
 62
4
  6
CONTINUOUS
 10
10.459917215
 20
8.3727105917
 11
10.4792357236
 21
8.3713708486
  0
LINE
  5
302
100
AcDbEntity
  8
0
100
AcDbLine
 62
4
  6
CONTINUOUS
 10
10.6241246344
 20
8.3613227685
 11
10.6627616514
 21
8.3586432823
  0
LINE
  5
303
100
AcDbEntity
  8
0
100
AcDbLine
 62
4
  6
CONTINUOUS
 10
10.8076505622
 20
8.3485952022
 11
10.8462875793
 21
8.3459157159
  0
LINE
  5
304
100
AcDbEntity
  8
0
100
AcDbLine
 62
4
  6
CONTINUOUS
 10
11.8464233066
 20
8.2862153533
 11
11.8295196036
 21
8.2873876291
  0
LINE
  5
305
100
AcDbEntity
  8
0
100
AcDbLine
 62
4
  6
CONTINUOUS
 10
10.9493196678
 20
8.370967946
 11
10.9300011593
 21
8.3723076891
  0
LINE
  5
306
100
AcDbEntity
  8
0
100
AcDbLine
 62
4
  6
CONTINUOUS
 10
11.8717788612
 20
8.4196865639
 11
11.8041640491
 21
8.424375667
  0
LINE
  5
307
100
AcDbEntity
  8
0
100
AcDbLine
 62
4
  6
CONTINUOUS
 10
10.4985543522
 20
8.9244725566
 11
10.4792358436
 21
8.9451308164
  0
LINE
  5
308
100
AcDbEntity
  8
0
100
AcDbLine
 62
4
  6
CONTINUOUS
 10
10.6048061814
 20
8.9171039673
 11
10.5854876729
 21
8.937762227
  0
LINE
  5
309
100
AcDbEntity
  8
0
100
AcDbLine
 62
4
  6
CONTINUOUS
 10
10.9493196678
 20
8.2421778253
 11
10.9203418728
 21
8.3407800332
  0
LINE
  5
30A
100
AcDbEntity
  8
0
100
AcDbLine
 62
4
  6
CONTINUOUS
 10
11.0278011949
 20
7.2128536897
 11
11.0278011949
 21
7.348083314
  0
LINE
  5
30B
100
AcDbEntity
  8
0
100
AcDbLine
 62
4
  6
CONTINUOUS
 10
11.045912275
 20
8.3320716963
 11
11.045912275
 21
8.196842072
  0
LINE
  5
30C
100
AcDbEntity
  8
0
100
AcDbLine
 62
4
  6
CONTINUOUS
 10
11.0459123306
 20
9.0217427762
 11
11.0459123306
 21
8.8865131519
  0
LINE
  5
30D
100
AcDbEntity
  8
0
100
AcDbLine
 62
7
  6
CONTINUOUS
 10
11.0920102379
 20
6.1651077924
 11
11.0920102379
 21
6.0034819801
  0
LINE
  5
30E
100
AcDbEntity
  8
0
100
AcDbLine
 62
4
  6
CONTINUOUS
 10
11.1908011536
 20
8.3220236184
 11
11.1908011536
 21
8.1867939941
  0
LINE
  5
30F
100
AcDbEntity
  8
0
100
AcDbLine
 62
4
  6
CONTINUOUS
 10
11.2004604795
 20
9.0110248256
 11
11.1618234463
 21
8.8784746887
  0
LINE
  5
310
100
AcDbEntity
  8
0
100
AcDbLine
 62
4
  6
CONTINUOUS
 10
9.8614456919
 20
7.6398641212
 11
9.8783493949
 21
7.6499609811
  0
LINE
  5
311
100
AcDbEntity
  8
0
100
AcDbLine
 62
4
  6
CONTINUOUS
 10
10.68208016
 20
8.3186665019
 11
10.6627616514
 21
8.3103469867
  0
LINE
  5
312
100
AcDbEntity
  8
0
100
AcDbLine
 62
4
  6
CONTINUOUS
 10
10.8656060878
 20
8.2576426441
 11
10.8462875793
 21
8.2493231249
  0
LINE
  5
313
100
AcDbEntity
  8
0
100
AcDbLine
 62
4
  6
CONTINUOUS
 10
10.7561345039
 20
8.6091041391
 11
10.6981789622
 21
8.6131233695
  0
LINE
  5
314
100
AcDbEntity
  8
0
100
AcDbLine
 62
4
  6
CONTINUOUS
 10
10.6981789622
 20
8.6710789193
 11
10.7561345039
 21
8.6670596889
  0
LINE
  5
315
100
AcDbEntity
  8
0
100
AcDbLine
 62
4
  6
CONTINUOUS
 10
10.7947715533
 20
8.7126764979
 11
10.8623863573
 21
8.7079873953
  0
LINE
  5
316
100
AcDbEntity
  8
0
100
AcDbLine
 62
4
  6
CONTINUOUS
 10
10.3279074515
 20
8.9878230037
 11
10.2763914072
 21
9.0171536796
  0
LINE
  5
317
100
AcDbEntity
  8
0
100
AcDbLine
 62
4
  6
CONTINUOUS
 10
11.4033048442
 20
8.2686494002
 11
11.4709196564
 21
8.2060047432
  0
LINE
  5
318
100
AcDbEntity
  8
0
100
AcDbLine
 62
4
  6
CONTINUOUS
 10
11.4129641025
 20
8.1713869413
 11
11.4033048442
 21
8.1817160755
  0
LINE
  5
319
100
AcDbEntity
  8
0
100
AcDbLine
 62
4
  6
CONTINUOUS
 10
10.6337839764
 20
9.0503239746
 11
10.653102485
 21
9.0296657129
  0
LINE
  5
31A
100
AcDbEntity
  8
0
100
AcDbLine
 62
4
  6
CONTINUOUS
 10
11.364667811
 20
8.2906474061
 11
11.3453492944
 21
8.3113056684
  0
LINE
  5
31B
100
AcDbEntity
  8
0
100
AcDbLine
 62
4
  6
CONTINUOUS
 10
10.746475287
 20
9.0425088057
 11
10.7657937956
 21
9.0218505439
  0
LINE
  5
31C
100
AcDbEntity
  8
0
100
AcDbLine
 62
4
  6
CONTINUOUS
 10
11.4709196564
 20
8.2929380749
 11
11.4612603971
 21
8.3032672062
  0
LINE
  5
31D
100
AcDbEntity
  8
0
100
AcDbLine
 62
4
  6
CONTINUOUS
 10
10.978297465
 20
8.5936970854
 11
10.9010233905
 21
8.7342856849
  0
LINE
  5
31E
100
AcDbEntity
  8
0
100
AcDbLine
 62
4
  6
CONTINUOUS
 10
11.2584159657
 20
8.182104891
 11
11.1908011536
 21
8.3220236184
  0
LINE
  5
31F
100
AcDbEntity
  8
0
100
AcDbLine
 62
4
  6
CONTINUOUS
 10
11.2551962806
 20
8.8913177773
 11
11.2551962806
 21
8.9879103663
  0
LINE
  5
320
100
AcDbEntity
  8
0
100
AcDbLine
 62
4
  6
CONTINUOUS
 10
11.2584159657
 20
8.3173345153
 11
11.2584159657
 21
8.182104891
  0
LINE
  5
321
100
AcDbEntity
  8
0
100
AcDbLine
 62
4
  6
CONTINUOUS
 10
11.2970529989
 20
8.2953365093
 11
11.2970529989
 21
8.1794254036
  0
LINE
  5
322
100
AcDbEntity
  8
0
100
AcDbLine
 62
7
  6
CONTINUOUS
 10
11.3214663377
 20
6.2244953783
 11
11.3214663377
 21
6.062869566
  0
LINE
  5
323
100
AcDbEntity
  8
0
100
AcDbLine
 62
4
  6
CONTINUOUS
 10
11.3228110847
 20
9.0025397824
 11
11.3228110847
 21
8.8673101581
  0
LINE
  5
324
100
AcDbEntity
  8
0
100
AcDbLine
 62
7
  6
CONTINUOUS
 10
11.3322239285
 20
7.0371937491
 11
11.3322239285
 21
6.6916090586
  0
LINE
  5
325
100
AcDbEntity
  8
0
100
AcDbLine
 62
4
  6
CONTINUOUS
 10
11.364667811
 20
8.1747363005
 11
11.364667811
 21
8.2906474061
  0
LINE
  5
326
100
AcDbEntity
  8
0
100
AcDbLine
 62
7
  6
CONTINUOUS
 10
11.3741041375
 20
7.0342893468
 11
11.3741041375
 21
6.7024484502
  0
LINE
  5
327
100
AcDbEntity
  8
0
100
AcDbLine
 62
7
  6
CONTINUOUS
 10
11.3815233885
 20
6.6983927648
 11
11.3815233885
 21
6.4144146516
  0
LINE
  5
328
100
AcDbEntity
  8
0
100
AcDbLine
 62
7
  6
CONTINUOUS
 10
11.3815233885
 20
6.3680502091
 11
11.3815233885
 21
6.3187879891
  0
LINE
  5
329
100
AcDbEntity
  8
0
100
AcDbLine
 62
4
  6
CONTINUOUS
 10
11.4033048442
 20
8.2879679188
 11
11.4033048442
 21
8.2686494002
  0
LINE
  5
32A
100
AcDbEntity
  8
0
100
AcDbLine
 62
4
  6
CONTINUOUS
 10
11.3163715075
 20
8.3133152848
 11
11.2970529989
 21
8.2953365093
  0
LINE
  5
32B
100
AcDbEntity
  8
0
100
AcDbLine
 62
4
  6
CONTINUOUS
 10
9.8614456919
 20
7.5609801714
 11
9.8783493949
 21
7.5710770363
  0
LINE
  5
32C
100
AcDbEntity
  8
0
100
AcDbLine
 62
4
  6
CONTINUOUS
 10
9.912156801
 20
7.5236559379
 11
9.8952530979
 21
7.5135590811
  0
LINE
  5
32D
100
AcDbEntity
  8
0
100
AcDbLine
 62
4
  6
CONTINUOUS
 10
11.3228110847
 20
8.8673101581
 11
11.2745147972
 21
8.870659517
  0
LINE
  5
32E
100
AcDbEntity
  8
0
100
AcDbLine
 62
4
  6
CONTINUOUS
 10
11.0845493799
 20
8.8838336634
 11
11.0072753135
 21
8.8891926381
  0
LINE
  5
32F
100
AcDbEntity
  8
0
100
AcDbLine
 62
4
  6
CONTINUOUS
 10
10.9686382642
 20
8.8918721266
 11
10.9106827063
 21
8.8958913582
  0
LINE
  5
330
100
AcDbEntity
  8
0
100
AcDbLine
 62
4
  6
CONTINUOUS
 10
10.746475287
 20
8.9072791814
 11
10.7078382699
 21
8.9099586676
  0
LINE
  5
331
100
AcDbEntity
  8
0
100
AcDbLine
 62
4
  6
CONTINUOUS
 10
10.6337839764
 20
8.9150943503
 11
10.6048061814
 21
8.9171039673
  0
LINE
  5
332
100
AcDbEntity
  8
0
100
AcDbLine
 62
4
  6
CONTINUOUS
 10
10.5468506558
 20
8.9211231966
 11
10.4985543522
 21
8.9244725566
  0
LINE
  5
333
100
AcDbEntity
  8
0
100
AcDbLine
 62
4
  6
CONTINUOUS
 10
10.4244999942
 20
8.9296082438
 11
10.3665444686
 21
8.9336274732
  0
LINE
  5
334
100
AcDbEntity
  8
0
100
AcDbLine
 62
4
  6
CONTINUOUS
 10
11.8295196036
 20
8.2873876291
 11
11.8126159006
 21
8.2998290375
  0
LINE
  5
335
100
AcDbEntity
  8
0
100
AcDbLine
 62
4
  6
CONTINUOUS
 10
11.1618234463
 20
8.8784746887
 11
11.123186397
 21
9.0163838015
  0
LINE
  5
336
100
AcDbEntity
  8
0
100
AcDbLine
 62
4
  6
CONTINUOUS
 10
11.4709196564
 20
8.2060047432
 11
11.4709196564
 21
8.1866862266
  0
LINE
  5
337
100
AcDbEntity
  8
0
100
AcDbLine
 62
7
  6
CONTINUOUS
 10
11.4871587628
 20
7.0264489819
 11
11.4871587628
 21
6.811650839
  0
LINE
  5
338
100
AcDbEntity
  8
0
100
AcDbLine
 62
7
  6
CONTINUOUS
 10
12.2007951435
 20
8.836209054
 11
12.199975928
 21
8.8354322998
  0
LINE
  5
339
100
AcDbEntity
  8
0
100
AcDbLine
 62
4
  6
CONTINUOUS
 10
11.4226233608
 20
8.3059466937
 11
11.4033048442
 21
8.2879679188
  0
LINE
  5
33A
100
AcDbEntity
  8
0
100
AcDbLine
 62
4
  6
CONTINUOUS
 10
11.4709196564
 20
8.1866862266
 11
11.4516011378
 21
8.1687074538
  0
LINE
  5
33B
100
AcDbEntity
  8
0
100
AcDbLine
 62
4
  6
CONTINUOUS
 10
11.8126159006
 20
8.3449055843
 11
11.8464233066
 21
8.3650993021
  0
LINE
  5
33C
100
AcDbEntity
  8
0
100
AcDbLine
 62
4
  6
CONTINUOUS
 10
10.3858629771
 20
8.9902432798
 11
10.4244999942
 21
8.9875637936
  0
LINE
  5
33D
100
AcDbEntity
  8
0
100
AcDbLine
 62
4
  6
CONTINUOUS
 10
10.9300012149
 20
8.9525071649
 11
10.9686382642
 21
8.9498276764
  0
LINE
  5
33E
100
AcDbEntity
  8
0
100
AcDbLine
 62
4
  6
CONTINUOUS
 10
11.1875814685
 20
8.9732809509
 11
11.1360654242
 21
8.9768536007
  0
LINE
  5
33F
100
AcDbEntity
  8
0
100
AcDbLine
 62
4
  6
CONTINUOUS
 10
10.9686382642
 20
9.0271017509
 11
10.9106827063
 21
9.0311209825
  0
LINE
  5
340
100
AcDbEntity
  8
0
100
AcDbLine
 62
4
  6
CONTINUOUS
 10
10.4244999942
 20
9.0648378681
 11
10.3665444686
 21
9.0688570974
  0
LINE
  5
341
100
AcDbEntity
  8
0
100
AcDbLine
 62
4
  6
CONTINUOUS
 10
10.4985543522
 20
9.0597021809
 11
10.5468506558
 21
9.0563528209
  0
LINE
  5
342
100
AcDbEntity
  8
0
100
AcDbLine
 62
4
  6
CONTINUOUS
 10
10.6048061814
 20
9.0523335915
 11
10.6337839764
 21
9.0503239746
  0
LINE
  5
343
100
AcDbEntity
  8
0
100
AcDbLine
 62
4
  6
CONTINUOUS
 10
10.7078382699
 20
9.0451882919
 11
10.746475287
 21
9.0425088057
  0
LINE
  5
344
100
AcDbEntity
  8
0
100
AcDbLine
 62
4
  6
CONTINUOUS
 10
11.2745147972
 20
9.0058891413
 11
11.3228110847
 21
9.0025397824
  0
LINE
  5
345
100
AcDbEntity
  8
0
100
AcDbLine
 62
4
  6
CONTINUOUS
 10
11.4000851591
 20
8.9392252533
 11
11.3485691108
 21
8.9685559275
  0
LINE
  5
346
100
AcDbEntity
  8
0
100
AcDbLine
 62
4
  6
CONTINUOUS
 10
11.2745147972
 20
8.870659517
 11
11.2551962806
 21
8.8913177773
  0
LINE
  5
347
100
AcDbEntity
  8
0
100
AcDbLine
 62
4
  6
CONTINUOUS
 10
11.8126159006
 20
8.2998290375
 11
11.8041640491
 21
8.3116843161
  0
LINE
  5
348
100
AcDbEntity
  8
0
100
AcDbLine
 62
4
  6
CONTINUOUS
 10
11.7462085513
 20
10.1699593374
 11
11.7462085513
 21
10.3051889616
  0
LINE
  5
349
100
AcDbEntity
  8
0
100
AcDbLine
 62
4
  6
CONTINUOUS
 10
11.8041640491
 20
8.3342225815
 11
11.8126159006
 21
8.3449055843
  0
LINE
  5
34A
100
AcDbEntity
  8
0
100
AcDbLine
 62
4
  6
CONTINUOUS
 10
11.8464233066
 20
8.3650993021
 11
11.8633270097
 21
8.3864652957
  0
LINE
  5
34B
100
AcDbEntity
  8
0
100
AcDbLine
 62
4
  6
CONTINUOUS
 10
11.8633270097
 20
8.2963122102
 11
11.8464233066
 21
8.2862153533
  0
LINE
  5
34C
100
AcDbEntity
  8
0
100
AcDbLine
 62
4
  6
CONTINUOUS
 10
11.8041640491
 20
8.3116843161
 11
11.8041640491
 21
8.3342225815
  0
LINE
  5
34D
100
AcDbEntity
  8
0
100
AcDbLine
 62
4
  6
CONTINUOUS
 10
11.8633270097
 20
8.3864652957
 11
11.8717788612
 21
8.4196865639
  0
LINE
  5
34E
100
AcDbEntity
  8
0
100
AcDbLine
 62
4
  6
CONTINUOUS
 10
11.8717788612
 20
8.306995213
 11
11.8633270097
 21
8.2963122102
  0
LINE
  5
34F
100
AcDbEntity
  8
0
100
AcDbLine
 62
7
  6
CONTINUOUS
 10
12.0456455847
 20
10.5616436043
 11
12.0456455847
 21
6.9877177892
  0
LINE
  5
350
100
AcDbEntity
  8
0
100
AcDbLine
 62
7
  6
CONTINUOUS
 10
12.3691691241
 20
7.3002175498
 11
12.3691691241
 21
10.8741433649
  0
LINE
  5
351
100
AcDbEntity
  8
0
100
AcDbLine
 62
7
  6
CONTINUOUS
 10
12.0456455847
 20
6.9877177892
 11
12.3691691241
 21
7.3002175498
  0
LINE
  5
352
100
AcDbEntity
  8
0
100
AcDbLine
 62
7
  6
CONTINUOUS
 10
11.367865655
 20
6.2928856761
 11
11.3196939995
 21
6.2480568937
  0
LINE
  5
353
100
AcDbEntity
  8
0
100
AcDbLine
 62
7
  6
CONTINUOUS
 10
11.1697646569
 20
6.0003482022
 11
11.1559103708
 21
5.9874553346
  0
LINE
  5
354
100
AcDbEntity
  8
0
100
AcDbLine
 62
7
  6
CONTINUOUS
 10
11.4054770117
 20
6.7099877619
 11
11.3889097262
 21
6.7018038401
  0
LINE
  5
355
100
AcDbEntity
  8
0
100
AcDbLine
 62
7
  6
CONTINUOUS
 10
9.6308308759
 20
10.7291115732
 11
12.0456455847
 21
10.5616436043
  0
LINE
  5
356
100
AcDbEntity
  8
0
100
AcDbLine
 62
7
  6
CONTINUOUS
 10
11.2547140217
 20
6.0255009867
 11
11.2688867373
 21
6.0325020368
  0
LINE
  5
357
100
AcDbEntity
  8
0
100
AcDbLine
 62
7
  6
CONTINUOUS
 10
9.9543544153
 20
11.0416113338
 11
12.3691691241
 21
10.8741433649
  0
ARC
  5
358
100
AcDbEntity
  8
0
100
AcDbCircle
 62
7
  6
CONTINUOUS
 10
-1.5681596723
 20
34.1968936393
 40
26.8226014802
100
AcDbArc
 50
296.9521276837
 51
297.5083577492
  0
ARC
  5
359
100
AcDbEntity
  8
0
100
AcDbCircle
 62
7
  6
CONTINUOUS
 10
-1.1117596639
 20
33.3747341841
 40
26.8226014182
100
AcDbArc
 50
296.9521276829
 51
297.5083577498
  0
ARC
  5
35A
100
AcDbEntity
  8
0
100
AcDbCircle
 62
7
  6
CONTINUOUS
 10
11.0021776153
 20
8.7662306195
 40
1.7455901857
100
AcDbArc
 50
266.0345339438
 51
266.9828267507
  0
ARC
  5
35B
100
AcDbEntity
  8
0
100
AcDbCircle
 62
7
  6
CONTINUOUS
 10
11.0021776153
 20
8.4055187985
 40
1.7455901856
100
AcDbArc
 50
266.0345339438
 51
266.9828267507
  0
ARC
  5
35C
100
AcDbEntity
  8
0
100
AcDbCircle
 62
7
  6
CONTINUOUS
 10
10.9977020727
 20
8.3410849327
 40
1.6810010731
100
AcDbArc
 50
265.0648462661
 51
266.0348369885
  0
ARC
  5
35D
100
AcDbEntity
  8
0
100
AcDbCircle
 62
7
  6
CONTINUOUS
 10
10.9977020727
 20
8.7017967537
 40
1.681001073
100
AcDbArc
 50
265.0648462661
 51
266.0348369886
  0
ARC
  5
35E
100
AcDbEntity
  8
0
100
AcDbCircle
 62
7
  6
CONTINUOUS
 10
10.859003134
 20
7.2334531602
 40
0.5793553434
100
AcDbArc
 50
243.659265891
 51
246.4390959137
  0
ARC
  5
35F
100
AcDbEntity
  8
0
100
AcDbCircle
 62
7
  6
CONTINUOUS
 10
10.8675815807
 20
6.0030481443
 40
0.5050249995
100
AcDbArc
 50
26.0074281214
 51
28.2918853592
  0
ARC
  5
360
100
AcDbEntity
  8
0
100
AcDbCircle
 62
7
  6
CONTINUOUS
 10
10.8421064736
 20
9.9939403767
 40
0.4643107409
100
AcDbArc
 50
135.3971233476
 51
147.3206381201
  0
ARC
  5
361
100
AcDbEntity
  8
0
100
AcDbCircle
 62
7
  6
CONTINUOUS
 10
10.8337847378
 20
9.9864319802
 40
0.4639274632
100
AcDbArc
 50
134.0151029932
 51
146.5435312305
  0
ARC
  5
362
100
AcDbEntity
  8
0
100
AcDbCircle
 62
7
  6
CONTINUOUS
 10
10.927962355
 20
9.8887757447
 40
0.4634053338
100
AcDbArc
 50
318.9303994326
 51
319.2960896179
  0
ARC
  5
363
100
AcDbEntity
  8
0
100
AcDbCircle
 62
7
  6
CONTINUOUS
 10
10.9283587088
 20
9.8884236424
 40
0.4628751953
100
AcDbArc
 50
314.0075936097
 51
318.9310257132
  0
ARC
  5
364
100
AcDbEntity
  8
0
100
AcDbCircle
 62
7
  6
CONTINUOUS
 10
10.8409540961
 20
9.9949751869
 40
0.4627630516
100
AcDbArc
 50
134.6224743609
 51
135.3881579505
  0
ARC
  5
365
100
AcDbEntity
  8
0
100
AcDbCircle
 62
7
  6
CONTINUOUS
 10
10.93652407
 20
9.8960322853
 40
0.4626749008
100
AcDbArc
 50
312.6265262701
 51
313.314180478
  0
ARC
  5
366
100
AcDbEntity
  8
0
100
AcDbCircle
 62
7
  6
CONTINUOUS
 10
11.1021432096
 20
6.3693785743
 40
0.375884527
100
AcDbArc
 50
293.9199531602
 51
296.3261230062
  0
ARC
  5
367
100
AcDbEntity
  8
0
100
AcDbCircle
 62
7
  6
CONTINUOUS
 10
11.3198331989
 20
6.4401062051
 40
0.0704915437
100
AcDbArc
 50
311.6232752991
 51
313.9954422506
  0
ARC
  5
368
100
AcDbEntity
  8
0
100
AcDbCircle
 62
7
  6
CONTINUOUS
 10
11.3212923809
 20
6.4339937695
 40
0.0664851358
100
AcDbArc
 50
313.95685413
 51
316.9955239687
  0
ARC
  5
369
100
AcDbEntity
  8
0
100
AcDbCircle
 62
7
  6
CONTINUOUS
 10
12.1856185514
 20
8.7944930789
 40
0.0190245885
100
AcDbArc
 50
86.0661090632
 51
96.8404424095
  0
ARC
  5
36A
100
AcDbEntity
  8
0
100
AcDbCircle
 62
7
  6
CONTINUOUS
 10
12.1467397927
 20
8.2338829783
 40
0.0190187759
100
AcDbArc
 50
255.3762556387
 51
266.0005828945
  0
SPLINE
  5
36B
100
AcDbEntity
  8
0
100
AcDbSpline
 62
7
  6
CONTINUOUS
 70
0
 71
3
 72
11
 73
7
 74
0
 42
0.0000001
 43
0.0000001
 44
0.0000000001
 40
0.0
 40
0.0
 40
0.0
 40
0.0
 40
0.2609465779
 40
0.5147850326
 40
0.7610292873
 40
1.0
 40
1.0
 40
1.0
 40
1.0
 10
11.3406997233
 20
9.9096254985
 30
0.0
 10
11.3406997233
 20
9.9316544978
 30
0.0
 10
11.3402102818
 20
9.9751142135
 30
0.0
 10
11.3380120318
 20
10.0393275737
 30
0.0
 10
11.3345298657
 20
10.1016252126
 30
0.0
 10
11.3314576399
 20
10.1424739752
 30
0.0
 10
11.3297770516
 20
10.1625776584
 30
0.0
  0
SPLINE
  5
36C
100
AcDbEntity
  8
0
100
AcDbSpline
 62
7
  6
CONTINUOUS
 70
0
 71
3
 72
11
 73
7
 74
0
 42
0.0000001
 43
0.0000001
 44
0.0000000001
 40
0.0
 40
0.0
 40
0.0
 40
0.0
 40
0.2523439235
 40
0.5040233404
 40
0.7537952464
 40
1.0
 40
1.0
 40
1.0
 40
1.0
 10
11.3297770516
 20
9.6355723558
 30
0.0
 10
11.3314335312
 20
9.6585877165
 30
0.0
 10
11.3344630287
 20
9.7045786702
 30
0.0
 10
11.3379564056
 20
9.7734219785
 30
0.0
 10
11.3401780888
 20
9.8417573866
 30
0.0
 10
11.3406997233
 20
9.8871119835
 30
0.0
 10
11.3406997233
 20
9.9096254985
 30
0.0
  0
SPLINE
  5
36D
100
AcDbEntity
  8
0
100
AcDbSpline
 62
7
  6
CONTINUOUS
 70
0
 71
3
 72
18
 73
14
 74
0
 42
0.0000001
 43
0.0000001
 44
0.0000000001
 40
0.0
 40
0.0
 40
0.0
 40
0.0
 40
0.120474167
 40
0.2430351066
 40
0.3050795581
 40
0.3675833712
 40
0.4304829287
 40
0.4936969531
 40
0.5571297371
 40
0.620681295
 40
0.7477613678
 40
0.874320154
 40
1.0
 40
1.0
 40
1.0
 40
1.0
 10
11.3297770516
 20
10.1625776584
 30
0.0
 10
11.3127412471
 20
10.1762891068
 30
0.0
 10
11.2781046199
 20
10.2036165698
 30
0.0
 10
11.2338432319
 20
10.2369076814
 30
0.0
 10
11.1974655963
 20
10.2631515915
 30
0.0
 10
11.1695937708
 20
10.2826698097
 30
0.0
 10
11.1412653687
 20
10.3018999168
 30
0.0
 10
11.1125125413
 20
10.3207982702
 30
0.0
 10
11.0833821814
 20
10.3393308312
 30
0.0
 10
11.0441110898
 20
10.3635119176
 30
0.0
 10
10.994446265
 20
10.3926545563
 30
0.0
 10
10.934193871
 20
10.4259898554
 30
0.0
 10
10.8936630209
 20
10.4472951132
 30
0.0
 10
10.8733770716
 20
10.4577317558
 30
0.0
  0
SPLINE
  5
36E
100
AcDbEntity
  8
0
100
AcDbSpline
 62
7
  6
CONTINUOUS
 70
0
 71
3
 72
15
 73
11
 74
0
 42
0.0000001
 43
0.0000001
 44
0.0000000001
 40
0.0
 40
0.0
 40
0.0
 40
0.0
 40
0.1111083912
 40
0.2266287365
 40
0.3468606327
 40
0.4716565052
 40
0.6003583345
 40
0.731968372
 40
0.8654571391
 40
1.0
 40
1.0
 40
1.0
 40
1.0
 10
10.8733770716
 20
10.4577317558
 30
0.0
 10
10.8561695858
 20
10.449763168
 30
0.0
 10
10.8211327659
 20
10.4333764292
 30
0.0
 10
10.7677248077
 20
10.4078377659
 30
0.0
 10
10.7124624183
 20
10.3807679936
 30
0.0
 10
10.6554583454
 20
10.3521466295
 30
0.0
 10
10.5970034504
 20
10.3220939211
 30
0.0
 10
10.5374977901
 20
10.2908461626
 30
0.0
 10
10.4773461157
 20
10.2586889049
 30
0.0
 10
10.4371350816
 20
10.2368776765
 30
0.0
 10
10.4169770916
 20
10.2258805506
 30
0.0
  0
SPLINE
  5
36F
100
AcDbEntity
  8
0
100
AcDbSpline
 62
7
  6
CONTINUOUS
 70
0
 71
3
 72
10
 73
6
 74
0
 42
0.0000001
 43
0.0000001
 44
0.0000000001
 40
0.0
 40
0.0
 40
0.0
 40
0.0
 40
0.5023677594
 40
0.7518994837
 40
1.0
 40
1.0
 40
1.0
 40
1.0
 10
10.3642097886
 20
10.1749112468
 30
0.0
 10
10.3631783746
 20
10.1302541311
 30
0.0
 10
10.3619156596
 20
10.0634078577
 30
0.0
 10
10.3610262824
 20
9.9744948555
 30
0.0
 10
10.360873925
 20
9.9302467476
 30
0.0
 10
10.360873925
 20
9.9081863985
 30
0.0
  0
SPLINE
  5
370
100
AcDbEntity
  8
0
100
AcDbSpline
 62
7
  6
CONTINUOUS
 70
0
 71
3
 72
10
 73
6
 74
0
 42
0.0000001
 43
0.0000001
 44
0.0000000001
 40
0.0
 40
0.0
 40
0.0
 40
0.0
 40
0.2525790611
 40
0.5034028193
 40
1.0
 40
1.0
 40
1.0
 40
1.0
 10
10.360873925
 20
9.9081863985
 30
0.0
 10
10.360873925
 20
9.8862703288
 30
0.0
 10
10.3610234188
 20
9.8425903307
 30
0.0
 10
10.3619046517
 20
9.7558251737
 30
0.0
 10
10.3631684109
 20
9.6909826722
 30
0.0
 10
10.3642097886
 20
9.6479059442
 30
0.0
  0
SPLINE
  5
371
100
AcDbEntity
  8
0
100
AcDbSpline
 62
7
  6
CONTINUOUS
 70
0
 71
3
 72
10
 73
6
 74
0
 42
0.0000001
 43
0.0000001
 44
0.0000000001
 40
0.0
 40
0.0
 40
0.0
 40
0.0
 40
0.4986292176
 40
0.7489944319
 40
1.0
 40
1.0
 40
1.0
 40
1.0
 10
10.3642097886
 20
9.6479059442
 30
0.0
 10
10.4012171648
 20
9.6222996869
 30
0.0
 10
10.4570354341
 20
9.5841644906
 30
0.0
 10
10.53216501
 20
9.5341524158
 30
0.0
 10
10.5700512931
 20
9.5094086377
 30
0.0
 10
10.5890739149
 20
9.4971066985
 30
0.0
  0
SPLINE
  5
372
100
AcDbEntity
  8
0
100
AcDbSpline
 62
7
  6
CONTINUOUS
 70
0
 71
3
 72
10
 73
6
 74
0
 42
0.0000001
 43
0.0000001
 44
0.0000000001
 40
0.0
 40
0.0
 40
0.0
 40
0.0
 40
0.249589334
 40
0.4995460885
 40
1.0
 40
1.0
 40
1.0
 40
1.0
 10
10.5890739149
 20
9.4971066985
 30
0.0
 10
10.6081360704
 20
9.484779193
 30
0.0
 10
10.6464000108
 20
9.4602780441
 30
0.0
 10
10.7234201654
 20
9.4118989647
 30
0.0
 10
10.7816453497
 20
9.3762816637
 30
0.0
 10
10.8206097685
 20
9.3527518468
 30
0.0
  0
SPLINE
  5
373
100
AcDbEntity
  8
0
100
AcDbSpline
 62
7
  6
CONTINUOUS
 70
0
 71
3
 72
10
 73
6
 74
0
 42
0.0000001
 43
0.0000001
 44
0.0000000001
 40
0.0
 40
0.0
 40
0.0
 40
0.0
 40
0.495328681
 40
0.7464402078
 40
1.0
 40
1.0
 40
1.0
 40
1.0
 10
10.8206097685
 20
9.3527518468
 30
0.0
 10
10.8578268624
 20
9.3711802075
 30
0.0
 10
10.9138557049
 20
9.3990641048
 30
0.0
 10
10.9887681925
 20
9.4367169396
 30
0.0
 10
11.0265201773
 20
9.4558267632
 30
0.0
 10
11.0454738949
 20
9.4654552524
 30
0.0
  0
SPLINE
  5
374
100
AcDbEntity
  8
0
100
AcDbSpline
 62
7
  6
CONTINUOUS
 70
0
 71
3
 72
10
 73
6
 74
0
 42
0.0000001
 43
0.0000001
 44
0.0000000001
 40
0.0
 40
0.0
 40
0.0
 40
0.0
 40
0.5004539153
 40
0.7504106682
 40
1.0
 40
1.0
 40
1.0
 40
1.0
 10
11.2770097485
 20
10.1116083545
 30
0.0
 10
11.2380453293
 20
10.1351381716
 30
0.0
 10
11.179820145
 20
10.1707554727
 30
0.0
 10
11.1027999904
 20
10.2191345522
 30
0.0
 10
11.0645360503
 20
10.2436357008
 30
0.0
 10
11.045473895
 20
10.2559632063
 30
0.0
  0
SPLINE
  5
375
100
AcDbEntity
  8
0
100
AcDbSpline
 62
7
  6
CONTINUOUS
 70
0
 71
3
 72
10
 73
6
 74
0
 42
0.0000001
 43
0.0000001
 44
0.0000000001
 40
0.0
 40
0.0
 40
0.0
 40
0.0
 40
0.2510055704
 40
0.5013707862
 40
1.0
 40
1.0
 40
1.0
 40
1.0
 10
11.045473895
 20
10.2559632063
 30
0.0
 10
11.026451273
 20
10.2682651455
 30
0.0
 10
10.9885649895
 20
10.2930089238
 30
0.0
 10
10.9134354137
 20
10.3430209987
 30
0.0
 10
10.8576171445
 20
10.3811561948
 30
0.0
 10
10.8206097685
 20
10.406762452
 30
0.0
  0
SPLINE
  5
376
100
AcDbEntity
  8
0
100
AcDbSpline
 62
7
  6
CONTINUOUS
 70
0
 71
3
 72
22
 73
18
 74
0
 42
0.0000001
 43
0.0000001
 44
0.0000000001
 40
0.0
 40
0.0
 40
0.0
 40
0.0
 40
0.1224186908
 40
0.1840776587
 40
0.2459790759
 40
0.3081192232
 40
0.3704842195
 40
0.4330474473
 40
0.4957809248
 40
0.5586566264
 40
0.6216446003
 40
0.6847098555
 40
0.7478148234
 40
0.810930489
 40
0.8740341568
 40
0.937083699
 40
1.0
 40
1.0
 40
1.0
 40
1.0
 10
11.2736738849
 20
9.8448835063
 30
0.0
 10
11.2736738849
 20
9.8648727484
 30
0.0
 10
11.2716911468
 20
9.8949760615
 30
0.0
 10
11.2652120935
 20
9.9346329966
 30
0.0
 10
11.2584219544
 20
9.9642081235
 30
0.0
 10
11.249743942
 20
9.9934028588
 30
0.0
 10
11.2392144946
 20
10.0220976108
 30
0.0
 10
11.2268813014
 20
10.050170088
 30
0.0
 10
11.2127923776
 20
10.0774974815
 30
0.0
 10
11.197013226
 20
10.1039656327
 30
0.0
 10
11.1796063891
 20
10.1294584471
 30
0.0
 10
11.1606514495
 20
10.1538694195
 30
0.0
 10
11.1402271384
 20
10.1770927895
 30
0.0
 10
11.1184193619
 20
10.1990308575
 30
0.0
 10
11.0953193799
 20
10.2195908695
 30
0.0
 10
11.0710314851
 20
10.2386783466
 30
0.0
 10
11.0541004965
 20
10.2503843787
 30
0.0
 10
11.045473895
 20
10.2559632063
 30
0.0
  0
SPLINE
  5
377
100
AcDbEntity
  8
0
100
AcDbSpline
 62
7
  6
CONTINUOUS
 70
0
 71
3
 72
10
 73
6
 74
0
 42
0.0000001
 43
0.0000001
 44
0.0000000001
 40
0.0
 40
0.0
 40
0.0
 40
0.0
 40
0.2535597945
 40
0.5046713228
 40
1.0
 40
1.0
 40
1.0
 40
1.0
 10
10.589073915
 20
10.2876146524
 30
0.0
 10
10.5701201973
 20
10.2779861632
 30
0.0
 10
10.5323682121
 20
10.2588763393
 30
0.0
 10
10.4574557245
 20
10.2212235046
 30
0.0
 10
10.4014268822
 20
10.1933396074
 30
0.0
 10
10.3642097886
 20
10.1749112468
 30
0.0
  0
SPLINE
  5
378
100
AcDbEntity
  8
0
100
AcDbSpline
 62
7
  6
CONTINUOUS
 70
0
 71
3
 72
21
 73
17
 74
0
 42
0.0000001
 43
0.0000001
 44
0.0000000001
 40
0.0
 40
0.0
 40
0.0
 40
0.0
 40
0.1241326564
 40
0.1861000041
 40
0.2480042861
 40
0.3098967415
 40
0.3718224035
 40
0.4338166045
 40
0.4959150397
 40
0.5581542089
 40
0.6205682714
 40
0.6831847154
 40
0.7460260606
 40
0.8091198684
 40
0.8724957642
 40
1.0
 40
1.0
 40
1.0
 40
1.0
 10
11.0454738948
 20
9.4654552524
 30
0.0
 10
11.0626678124
 20
9.474189763
 30
0.0
 10
11.0875825361
 20
9.4891016856
 30
0.0
 10
11.1184044905
 20
9.5122579901
 30
0.0
 10
11.1402274793
 20
9.5311831688
 30
0.0
 10
11.1606630406
 20
9.5515859337
 30
0.0
 10
11.1796278523
 20
9.5733818209
 30
0.0
 10
11.1970422191
 20
9.5964752061
 30
0.0
 10
11.2128264375
 20
9.620770003
 30
0.0
 10
11.2269180467
 20
9.646158578
 30
0.0
 10
11.2392513562
 20
9.6725349055
 30
0.0
 10
11.2497787067
 20
9.6997827408
 30
0.0
 10
11.2584525117
 20
9.7277857667
 30
0.0
 10
11.2652366528
 20
9.7564289258
 30
0.0
 10
11.271734438
 20
9.7953682331
 30
0.0
 10
11.2736738849
 20
9.8250744049
 30
0.0
 10
11.2736738849
 20
9.8448835063
 30
0.0
  0
SPLINE
  5
379
100
AcDbEntity
  8
0
100
AcDbSpline
 62
7
  6
CONTINUOUS
 70
0
 71
3
 72
22
 73
18
 74
0
 42
0.0000001
 43
0.0000001
 44
0.0000000001
 40
0.0
 40
0.0
 40
0.0
 40
0.0
 40
0.0642421901
 40
0.1283649905
 40
0.192293236
 40
0.2559939319
 40
0.3194575949
 40
0.3826719375
 40
0.4456195614
 40
0.5082885916
 40
0.5706754868
 40
0.6327808984
 40
0.6946079471
 40
0.7561626673
 40
0.8174649735
 40
0.8785455494
 40
1.0
 40
1.0
 40
1.0
 40
1.0
 10
10.5890739149
 20
9.4971066985
 30
0.0
 10
10.5976832278
 20
9.4915390516
 30
0.0
 10
10.6152335705
 20
9.4809414898
 30
0.0
 10
10.6424484896
 20
9.4667177661
 30
0.0
 10
10.6704172837
 20
9.4542476881
 30
0.0
 10
10.6990121344
 20
9.4435870949
 30
0.0
 10
10.7281125482
 20
9.4347803329
 30
0.0
 10
10.7575961281
 20
9.4278646092
 30
0.0
 10
10.7873364541
 20
9.4228668927
 30
0.0
 10
10.8172064235
 20
9.4198145846
 30
0.0
 10
10.8470776014
 20
9.4187150343
 30
0.0
 10
10.8768223493
 20
9.4195791322
 30
0.0
 10
10.9063128601
 20
9.4223976955
 30
0.0
 10
10.9354220344
 20
9.427161335
 30
0.0
 10
10.9640303166
 20
9.4338516243
 30
0.0
 10
11.0012523118
 20
9.4452738995
 30
0.0
 10
11.0281923624
 20
9.4566762333
 30
0.0
 10
11.0454738948
 20
9.4654552524
 30
0.0
  0
SPLINE
  5
37A
100
AcDbEntity
  8
0
100
AcDbSpline
 62
7
  6
CONTINUOUS
 70
0
 71
3
 72
22
 73
18
 74
0
 42
0.0000001
 43
0.0000001
 44
0.0000000001
 40
0.0
 40
0.0
 40
0.0
 40
0.0
 40
0.1224186908
 40
0.1840776587
 40
0.2459790759
 40
0.3081192232
 40
0.3704842195
 40
0.4330474473
 40
0.4957809248
 40
0.5586566264
 40
0.6216446003
 40
0.6847098555
 40
0.7478148234
 40
0.810930489
 40
0.8740341568
 40
0.937083699
 40
1.0
 40
1.0
 40
1.0
 40
1.0
 10
10.360873925
 20
9.9081863985
 30
0.0
 10
10.360873925
 20
9.8881971564
 30
0.0
 10
10.3628566631
 20
9.8580938433
 30
0.0
 10
10.3693357164
 20
9.8184369082
 30
0.0
 10
10.3761258555
 20
9.7888617813
 30
0.0
 10
10.3848038679
 20
9.759667046
 30
0.0
 10
10.3953333153
 20
9.730972294
 30
0.0
 10
10.4076665085
 20
9.7028998168
 30
0.0
 10
10.4217554323
 20
9.6755724233
 30
0.0
 10
10.4375345839
 20
9.6491042721
 30
0.0
 10
10.4549414208
 20
9.6236114577
 30
0.0
 10
10.4738963604
 20
9.5992004853
 30
0.0
 10
10.4943206715
 20
9.5759771153
 30
0.0
 10
10.5161284481
 20
9.5540390473
 30
0.0
 10
10.53922843
 20
9.5334790353
 30
0.0
 10
10.5635163248
 20
9.5143915582
 30
0.0
 10
10.5804473134
 20
9.5026855261
 30
0.0
 10
10.5890739149
 20
9.4971066985
 30
0.0
  0
SPLINE
  5
37B
100
AcDbEntity
  8
0
100
AcDbSpline
 62
7
  6
CONTINUOUS
 70
0
 71
3
 72
21
 73
17
 74
0
 42
0.0000001
 43
0.0000001
 44
0.0000000001
 40
0.0
 40
0.0
 40
0.0
 40
0.0
 40
0.1241326564
 40
0.1861000041
 40
0.2480042861
 40
0.3098967415
 40
0.3718224035
 40
0.4338166045
 40
0.4959150397
 40
0.5581542089
 40
0.6205682714
 40
0.6831847154
 40
0.7460260606
 40
0.8091198684
 40
0.8724957642
 40
1.0
 40
1.0
 40
1.0
 40
1.0
 10
10.5890739151
 20
10.2876146524
 30
0.0
 10
10.5718799976
 20
10.2788801418
 30
0.0
 10
10.5469652738
 20
10.2639682192
 30
0.0
 10
10.5161433194
 20
10.2408119147
 30
0.0
 10
10.4943203307
 20
10.221886736
 30
0.0
 10
10.4738847693
 20
10.2014839711
 30
0.0
 10
10.4549199576
 20
10.1796880839
 30
0.0
 10
10.4375055908
 20
10.1565946987
 30
0.0
 10
10.4217213724
 20
10.1322999018
 30
0.0
 10
10.4076297632
 20
10.1069113268
 30
0.0
 10
10.3952964537
 20
10.0805349993
 30
0.0
 10
10.3847691033
 20
10.053287164
 30
0.0
 10
10.3760952983
 20
10.0252841381
 30
0.0
 10
10.3693111572
 20
9.996640979
 30
0.0
 10
10.362813372
 20
9.9577016717
 30
0.0
 10
10.360873925
 20
9.9279954999
 30
0.0
 10
10.360873925
 20
9.9081863985
 30
0.0
  0
SPLINE
  5
37C
100
AcDbEntity
  8
0
100
AcDbSpline
 62
7
  6
CONTINUOUS
 70
0
 71
3
 72
10
 73
6
 74
0
 42
0.0000001
 43
0.0000001
 44
0.0000000001
 40
0.0
 40
0.0
 40
0.0
 40
0.0
 40
0.4965972331
 40
0.7474209687
 40
1.0
 40
1.0
 40
1.0
 40
1.0
 10
11.2770097485
 20
9.584603052
 30
0.0
 10
11.2759683707
 20
9.6276797846
 30
0.0
 10
11.2747046111
 20
9.6925222886
 30
0.0
 10
11.2738233785
 20
9.7792874456
 30
0.0
 10
11.2736738849
 20
9.8229674392
 30
0.0
 10
11.2736738849
 20
9.8448835063
 30
0.0
  0
SPLINE
  5
37D
100
AcDbEntity
  8
0
100
AcDbSpline
 62
7
  6
CONTINUOUS
 70
0
 71
3
 72
10
 73
6
 74
0
 42
0.0000001
 43
0.0000001
 44
0.0000000001
 40
0.0
 40
0.0
 40
0.0
 40
0.0
 40
0.2481005473
 40
0.4976322953
 40
1.0
 40
1.0
 40
1.0
 40
1.0
 10
11.2736738849
 20
9.8448835063
 30
0.0
 10
11.2736738849
 20
9.8669438582
 30
0.0
 10
11.2738262427
 20
9.9111919709
 30
0.0
 10
11.2747156201
 20
10.0001049731
 30
0.0
 10
11.2759783347
 20
10.0669512438
 30
0.0
 10
11.2770097485
 20
10.1116083545
 30
0.0
  0
SPLINE
  5
37E
100
AcDbEntity
  8
0
100
AcDbSpline
 62
7
  6
CONTINUOUS
 70
0
 71
3
 72
22
 73
18
 74
0
 42
0.0000001
 43
0.0000001
 44
0.0000000001
 40
0.0
 40
0.0
 40
0.0
 40
0.0
 40
0.0642421901
 40
0.1283649905
 40
0.192293236
 40
0.2559939319
 40
0.3194575949
 40
0.3826719375
 40
0.4456195614
 40
0.5082885916
 40
0.5706754868
 40
0.6327808984
 40
0.6946079471
 40
0.7561626673
 40
0.8174649735
 40
0.8785455494
 40
1.0
 40
1.0
 40
1.0
 40
1.0
 10
11.045473895
 20
10.2559632063
 30
0.0
 10
11.0368645821
 20
10.2615308532
 30
0.0
 10
11.0193142395
 20
10.272128415
 30
0.0
 10
10.9920993203
 20
10.2863521387
 30
0.0
 10
10.9641305262
 20
10.2988222167
 30
0.0
 10
10.9355356755
 20
10.3094828099
 30
0.0
 10
10.9064352617
 20
10.3182895719
 30
0.0
 10
10.8769516818
 20
10.3252052956
 30
0.0
 10
10.8472113559
 20
10.3302030121
 30
0.0
 10
10.8173413864
 20
10.3332553202
 30
0.0
 10
10.7874702085
 20
10.3343548705
 30
0.0
 10
10.7577254606
 20
10.3334907726
 30
0.0
 10
10.7282349498
 20
10.3306722093
 30
0.0
 10
10.6991257756
 20
10.3259085698
 30
0.0
 10
10.6705174933
 20
10.3192182805
 30
0.0
 10
10.6332954981
 20
10.3077960053
 30
0.0
 10
10.6063554475
 20
10.2963936715
 30
0.0
 10
10.5890739151
 20
10.2876146524
 30
0.0
  0
SPLINE
  5
37F
100
AcDbEntity
  8
0
100
AcDbSpline
 62
7
  6
CONTINUOUS
 70
0
 71
3
 72
16
 73
12
 74
0
 42
0.0000001
 43
0.0000001
 44
0.0000000001
 40
0.0
 40
0.0
 40
0.0
 40
0.0
 40
0.109027985
 40
0.2197801228
 40
0.3338930628
 40
0.4528527497
 40
0.5145822387
 40
0.5779896389
 40
0.7103100515
 40
0.8507442947
 40
1.0
 40
1.0
 40
1.0
 40
1.0
 10
11.3815233443
 20
6.3187884299
 30
0.0
 10
11.3815233919
 20
6.3176936585
 30
0.0
 10
11.3813776156
 20
6.315484143
 30
0.0
 10
11.3807238277
 20
6.3121870429
 30
0.0
 10
11.3796373523
 20
6.3089013932
 30
0.0
 10
11.3783891503
 20
6.3062102987
 30
0.0
 10
11.3771885761
 20
6.3040725154
 30
0.0
 10
11.3758121537
 20
6.3018830946
 30
0.0
 10
11.3738137909
 20
6.2991566243
 30
0.0
 10
11.3710301166
 20
6.2959563963
 30
0.0
 10
11.3689624745
 20
6.2939064588
 30
0.0
 10
11.3678653479
 20
6.2928854629
 30
0.0
  0
SPLINE
  5
380
100
AcDbEntity
  8
0
100
AcDbSpline
 62
7
  6
CONTINUOUS
 70
0
 71
3
 72
23
 73
19
 74
0
 42
0.0000001
 43
0.0000001
 44
0.0000000001
 40
0.0
 40
0.0
 40
0.0
 40
0.0
 40
0.0771628525
 40
0.1531535438
 40
0.2277621883
 40
0.3008138876
 40
0.3721372383
 40
0.4415601858
 40
0.5089193898
 40
0.5740596104
 40
0.6368345953
 40
0.6971061242
 40
0.7547479941
 40
0.8096447976
 40
0.8616952929
 40
0.9108133495
 40
0.9569304569
 40
1.0
 40
1.0
 40
1.0
 40
1.0
 10
10.8967312909
 20
6.645954719
 30
0.0
 10
10.8896301217
 20
6.6464471868
 30
0.0
 10
10.8755423531
 20
6.6475244604
 30
0.0
 10
10.8546175491
 20
6.6494329855
 30
0.0
 10
10.8341011096
 20
6.6516183206
 30
0.0
 10
10.8140489715
 20
6.6540742759
 30
0.0
 10
10.7945137553
 20
6.6567942921
 30
0.0
 10
10.7755473359
 20
6.6597711827
 30
0.0
 10
10.7572004074
 20
6.6629968148
 30
0.0
 10
10.7395217759
 20
6.6664626975
 30
0.0
 10
10.7225583905
 20
6.6701592548
 30
0.0
 10
10.7063553248
 20
6.6740768459
 30
0.0
 10
10.6909555476
 20
6.6782046543
 30
0.0
 10
10.6763998262
 20
6.6825318085
 30
0.0
 10
10.6627266067
 20
6.6870465521
 30
0.0
 10
10.6499717131
 20
6.6917368656
 30
0.0
 10
10.6381689343
 20
6.6965901866
 30
0.0
 10
10.6306980266
 20
6.700044775
 30
0.0
 10
10.6271358135
 20
6.7018044533
 30
0.0
  0
SPLINE
  5
381
100
AcDbEntity
  8
0
100
AcDbSpline
 62
7
  6
CONTINUOUS
 70
0
 71
3
 72
29
 73
25
 74
0
 42
0.0000001
 43
0.0000001
 44
0.0000000001
 40
0.0
 40
0.0
 40
0.0
 40
0.0
 40
0.0709859962
 40
0.1429812832
 40
0.2155056278
 40
0.2880803717
 40
0.3602227472
 40
0.4314552603
 40
0.5013077011
 40
0.5693220938
 40
0.6350567411
 40
0.6980907471
 40
0.7284711715
 40
0.7580306551
 40
0.7867243267
 40
0.8145102714
 40
0.8413483392
 40
0.8672018885
 40
0.8920365998
 40
0.9158221032
 40
0.9385313477
 40
0.9601417225
 40
0.9806354379
 40
1.0
 40
1.0
 40
1.0
 40
1.0
 10
10.8967312909
 20
6.645954719
 30
0.0
 10
10.9085221574
 20
6.6451370196
 30
0.0
 10
10.9322916763
 20
6.6437685952
 30
0.0
 10
10.9681541068
 20
6.6425098299
 30
0.0
 10
11.0043001753
 20
6.6420351939
 30
0.0
 10
11.0404724365
 20
6.6423479694
 30
0.0
 10
11.0764142559
 20
6.6434460059
 30
0.0
 10
11.1118701328
 20
6.6453213092
 30
0.0
 10
11.1465882653
 20
6.6479603739
 30
0.0
 10
11.1803222017
 20
6.6513440826
 30
0.0
 10
11.2128322994
 20
6.6554480616
 30
0.0
 10
11.2390245415
 20
6.6594913022
 30
0.0
 10
11.2591835585
 20
6.6630797635
 30
0.0
 10
11.2736701093
 20
6.6658983225
 30
0.0
 10
11.2876842869
 20
6.6688722698
 30
0.0
 10
11.3012012495
 20
6.6719960299
 30
0.0
 10
11.3141970035
 20
6.6752643127
 30
0.0
 10
11.3266485365
 20
6.6786709779
 30
0.0
 10
11.3385337903
 20
6.6822101867
 30
0.0
 10
11.3498317797
 20
6.6858754234
 30
0.0
 10
11.3605225546
 20
6.6896602502
 30
0.0
 10
11.3705873715
 20
6.693557942
 30
0.0
 10
11.3800084081
 20
6.6975613955
 30
0.0
 10
11.3860202991
 20
6.7003765478
 30
0.0
 10
11.3889110368
 20
6.7018045288
 30
0.0
  0
SPLINE
  5
382
100
AcDbEntity
  8
0
100
AcDbSpline
 62
7
  6
CONTINUOUS
 70
0
 71
3
 72
28
 73
24
 74
0
 42
0.0000001
 43
0.0000001
 44
0.0000000001
 40
0.0
 40
0.0
 40
0.0
 40
0.0
 40
0.0844945756
 40
0.1673032995
 40
0.2480800036
 40
0.3265294377
 40
0.4023578434
 40
0.4752824323
 40
0.5450409857
 40
0.6113908406
 40
0.6741102639
 40
0.7330046816
 40
0.7879100712
 40
0.8138266185
 40
0.8387015327
 40
0.8625257927
 40
0.8852933641
 40
0.9070033717
 40
0.9276589285
 40
0.9472677464
 40
0.9658448862
 40
0.9834123596
 40
1.0
 40
1.0
 40
1.0
 40
1.0
 10
10.9242954965
 20
6.1896167569
 30
0.0
 10
10.9175995601
 20
6.1900811216
 30
0.0
 10
10.9043491019
 20
6.1911182045
 30
0.0
 10
10.8847331089
 20
6.1930195469
 30
0.0
 10
10.8656344883
 20
6.1952452431
 30
0.0
 10
10.8471346199
 20
6.1977855861
 30
0.0
 10
10.8293102304
 20
6.200629699
 30
0.0
 10
10.8122361532
 20
6.2037656645
 30
0.0
 10
10.7959839796
 20
6.2071801037
 30
0.0
 10
10.7806215863
 20
6.2108583236
 30
0.0
 10
10.7662129556
 20
6.2147848321
 30
0.0
 10
10.7528182441
 20
6.2189429137
 30
0.0
 10
10.7423542956
 20
6.2226540223
 30
0.0
 10
10.7345445524
 20
6.2257390966
 30
0.0
 10
10.7290877348
 20
6.2280550995
 30
0.0
 10
10.723923714
 20
6.2304154685
 30
0.0
 10
10.7190579179
 20
6.232817965
 30
0.0
 10
10.7144952911
 20
6.2352599338
 30
0.0
 10
10.7102404858
 20
6.2377388424
 30
0.0
 10
10.7062979902
 20
6.240252362
 30
0.0
 10
10.7026716823
 20
6.2427979021
 30
0.0
 10
10.6993653318
 20
6.2453727623
 30
0.0
 10
10.6973192967
 20
6.2471575378
 30
0.0
 10
10.6963546679
 20
6.2480551812
 30
0.0
  0
SPLINE
  5
383
100
AcDbEntity
  8
0
100
AcDbSpline
 62
7
  6
CONTINUOUS
 70
0
 71
3
 72
23
 73
19
 74
0
 42
0.0000001
 43
0.0000001
 44
0.0000000001
 40
0.0
 40
0.0
 40
0.0
 40
0.0
 40
0.0809801657
 40
0.1599037328
 40
0.236632697
 40
0.311034564
 40
0.3829852106
 40
0.4523712884
 40
0.5190976239
 40
0.5830924597
 40
0.644315174
 40
0.7027582447
 40
0.7584578402
 40
0.8114889503
 40
0.8619760163
 40
0.9100815363
 40
0.9560112388
 40
1.0
 40
1.0
 40
1.0
 40
1.0
 10
11.4871587628
 20
6.811650839
 30
0.0
 10
11.4855101535
 20
6.8084718367
 30
0.0
 10
11.4822100081
 20
6.8022176395
 30
0.0
 10
11.4771773071
 20
6.7930425458
 30
0.0
 10
11.4721234271
 20
6.7842126119
 30
0.0
 10
11.4670491527
 20
6.7757518436
 30
0.0
 10
11.4619554942
 20
6.767684057
 30
0.0
 10
11.4568439269
 20
6.7600323643
 30
0.0
 10
11.4517162818
 20
6.7528186873
 30
0.0
 10
11.4465746336
 20
6.7460630513
 30
0.0
 10
11.4414217446
 20
6.7397826743
 30
0.0
 10
11.4362599595
 20
6.73399201
 30
0.0
 10
11.4310928726
 20
6.7287010216
 30
0.0
 10
11.4259228723
 20
6.7239165814
 30
0.0
 10
11.4207539599
 20
6.719639926
 30
0.0
 10
11.4155885131
 20
6.7158692823
 30
0.0
 10
11.4104307424
 20
6.7125974416
 30
0.0
 10
11.4069293508
 20
6.7107044697
 30
0.0
 10
11.4051849809
 20
6.7098435683
 30
0.0
  0
SPLINE
  5
384
100
AcDbEntity
  8
0
100
AcDbSpline
 62
7
  6
CONTINUOUS
 70
0
 71
3
 72
22
 73
18
 74
0
 42
0.0000001
 43
0.0000001
 44
0.0000000001
 40
0.0
 40
0.0
 40
0.0
 40
0.0
 40
0.1609341701
 40
0.2382869685
 40
0.3133458037
 40
0.3859522804
 40
0.4559532986
 40
0.5232119333
 40
0.5876123756
 40
0.6490729993
 40
0.7075489483
 40
0.7630479437
 40
0.8156291511
 40
0.865411802
 40
0.9125736447
 40
0.9573438258
 40
1.0
 40
1.0
 40
1.0
 40
1.0
 10
10.6945804393
 20
6.1063442507
 30
0.0
 10
10.696887783
 20
6.1016297162
 30
0.0
 10
10.7003932676
 20
6.0946917202
 30
0.0
 10
10.7052331602
 20
6.0856901247
 30
0.0
 10
10.708832031
 20
6.0792935347
 30
0.0
 10
10.7124471749
 20
6.0731830298
 30
0.0
 10
10.7160779122
 20
6.0673795985
 30
0.0
 10
10.7197228869
 20
6.0619036363
 30
0.0
 10
10.7233808264
 20
6.0567745569
 30
0.0
 10
10.727049489
 20
6.0520095482
 30
0.0
 10
10.7307271501
 20
6.0476237082
 30
0.0
 10
10.7344109642
 20
6.0436283144
 30
0.0
 10
10.7380986528
 20
6.0400313857
 30
0.0
 10
10.7417873837
 20
6.0368365769
 30
0.0
 10
10.7454743692
 20
6.0340431338
 30
0.0
 10
10.7491567605
 20
6.0316469123
 30
0.0
 10
10.7516620338
 20
6.0302778494
 30
0.0
 10
10.7529094938
 20
6.0296619178
 30
0.0
  0
SPLINE
  5
385
100
AcDbEntity
  8
0
100
AcDbSpline
 62
7
  6
CONTINUOUS
 70
0
 71
3
 72
10
 73
6
 74
0
 42
0.0000001
 43
0.0000001
 44
0.0000000001
 40
0.0
 40
0.0
 40
0.0
 40
0.0
 40
0.4945811757
 40
0.7460568606
 40
1.0
 40
1.0
 40
1.0
 40
1.0
 10
11.2688404353
 20
6.0324791641
 30
0.0
 10
11.2778269797
 20
6.0369191903
 30
0.0
 10
11.2911366663
 20
6.0441245709
 30
0.0
 10
11.3085154781
 20
6.054553278
 30
0.0
 10
11.3171574235
 20
6.0600551701
 30
0.0
 10
11.3214663377
 20
6.062869566
 30
0.0
  0
SPLINE
  5
386
100
AcDbEntity
  8
0
100
AcDbSpline
 62
7
  6
CONTINUOUS
 70
0
 71
3
 72
43
 73
39
 74
0
 42
0.0000001
 43
0.0000001
 44
0.0000000001
 40
0.0
 40
0.0
 40
0.0
 40
0.0
 40
0.0099875179
 40
0.020447759
 40
0.0313774258
 40
0.0427710904
 40
0.0669217936
 40
0.0928344935
 40
0.1204256427
 40
0.1495972531
 40
0.1802396378
 40
0.2122330565
 40
0.245448502
 40
0.2797494342
 40
0.3149928682
 40
0.3510299878
 40
0.387707515
 40
0.4248685984
 40
0.4623535026
 40
0.500000775
 40
0.537648043
 40
0.5751329026
 40
0.612293946
 40
0.6489714575
 40
0.6850084871
 40
0.7202518388
 40
0.7545527069
 40
0.787767993
 40
0.8197613043
 40
0.8504036248
 40
0.8795750254
 40
0.9071660171
 40
0.9330786328
 40
0.9572290729
 40
0.9686227384
 40
0.9795522863
 40
0.9900125085
 40
1.0
 40
1.0
 40
1.0
 40
1.0
 10
10.7613314362
 20
6.0255016732
 30
0.0
 10
10.7628320927
 20
6.0247603694
 30
0.0
 10
10.7659300538
 20
6.0232941149
 30
0.0
 10
10.7707484829
 20
6.0211868363
 30
0.0
 10
10.7758409176
 20
6.0191230936
 30
0.0
 10
10.7831306327
 20
6.0163790671
 30
0.0
 10
10.7928945661
 20
6.0130904686
 30
0.0
 10
10.805384721
 20
6.0094260385
 30
0.0
 10
10.8188092175
 20
6.0059879948
 30
0.0
 10
10.8331063586
 20
6.0027922776
 30
0.0
 10
10.8482106351
 20
5.9998538831
 30
0.0
 10
10.8640525871
 20
5.9971866931
 30
0.0
 10
10.8805592455
 20
5.9948031131
 30
0.0
 10
10.8976544983
 20
5.9927142805
 30
0.0
 10
10.9152594865
 20
5.9909300722
 30
0.0
 10
10.9332929416
 20
5.9894587531
 30
0.0
 10
10.9516715903
 20
5.9883071685
 30
0.0
 10
10.9703105607
 20
5.9874807958
 30
0.0
 10
10.9891237571
 20
5.9869834309
 30
0.0
 10
11.0080242627
 20
5.986817357
 30
0.0
 10
11.0269247609
 20
5.9869834463
 30
0.0
 10
11.0457379408
 20
5.987480871
 30
0.0
 10
11.0643768933
 20
5.9883072621
 30
0.0
 10
11.0827555171
 20
5.9894588575
 30
0.0
 10
11.1007889357
 20
5.990930236
 30
0.0
 10
11.1183938818
 20
5.9927144647
 30
0.0
 10
11.1354890829
 20
5.9948033004
 30
0.0
 10
11.1519956769
 20
5.9971869388
 30
0.0
 10
11.1678375686
 20
5.9998541499
 30
0.0
 10
11.1829417812
 20
6.00279254
 30
0.0
 10
11.1972388364
 20
6.005988312
 30
0.0
 10
11.2106632469
 20
6.0094263819
 30
0.0
 10
11.2231533241
 20
6.0130907821
 30
0.0
 10
11.2329171672
 20
6.0163794631
 30
0.0
 10
11.2402068354
 20
6.0191234334
 30
0.0
 10
11.2452992171
 20
6.0211872474
 30
0.0
 10
11.2501176029
 20
6.0232945543
 30
0.0
 10
11.2532155623
 20
6.0247607944
 30
0.0
 10
11.254716214
 20
6.0255020979
 30
0.0
  0
SPLINE
  5
387
100
AcDbEntity
  8
0
100
AcDbSpline
 62
7
  6
CONTINUOUS
 70
0
 71
3
 72
11
 73
7
 74
0
 42
0.0000001
 43
0.0000001
 44
0.0000000001
 40
0.0
 40
0.0
 40
0.0
 40
0.0
 40
0.2706838103
 40
0.527147417
 40
0.7699959294
 40
1.0
 40
1.0
 40
1.0
 40
1.0
 10
10.5442172506
 20
6.7462575074
 30
0.0
 10
10.5426936265
 20
6.7474379925
 30
0.0
 10
10.5397802303
 20
6.7498077911
 30
0.0
 10
10.5357182297
 20
6.7534947684
 30
0.0
 10
10.5320882971
 20
6.7572131949
 30
0.0
 10
10.5299017171
 20
6.7597780454
 30
0.0
 10
10.5288880141
 20
6.7610643874
 30
0.0
  0
SPLINE
  5
388
100
AcDbEntity
  8
0
100
AcDbSpline
 62
7
  6
CONTINUOUS
 70
0
 71
3
 72
48
 73
44
 74
0
 42
0.0000001
 43
0.0000001
 44
0.0000000001
 40
0.0
 40
0.0
 40
0.0
 40
0.0
 40
0.0077399014
 40
0.0160549237
 40
0.0249627929
 40
0.0344750799
 40
0.0445984077
 40
0.0553354861
 40
0.0666843058
 40
0.0786387304
 40
0.0911905495
 40
0.1043285871
 40
0.1323065191
 40
0.1624468099
 40
0.1945957169
 40
0.2285779591
 40
0.2642007628
 40
0.3012565269
 40
0.3395249181
 40
0.3787753898
 40
0.4187694823
 40
0.4592626829
 40
0.5000063306
 40
0.5407499217
 40
0.5812429634
 40
0.6212368339
 40
0.6604870449
 40
0.698755004
 40
0.7358101977
 40
0.7714325597
 40
0.8054142103
 40
0.8375622064
 40
0.8677018405
 40
0.8956791694
 40
0.9213655929
 40
0.9333197621
 40
0.944667896
 40
0.955404818
 40
0.965528278
 40
0.9750396376
 40
0.9839459855
 40
0.992259642
 40
1.0
 40
1.0
 40
1.0
 40
1.0
 10
11.1559087795
 20
5.9874538667
 30
0.0
 10
11.1553314134
 20
5.9869166818
 30
0.0
 10
11.1540883408
 20
5.9858506477
 30
0.0
 10
11.1520492029
 20
5.9843278587
 30
0.0
 10
11.1497736136
 20
5.9828279385
 30
0.0
 10
11.1472654545
 20
5.9813535753
 30
0.0
 10
11.1445287523
 20
5.9799067805
 30
0.0
 10
11.1415677021
 20
5.9784899248
 30
0.0
 10
11.138387022
 20
5.9771052146
 30
0.0
 10
11.1349918931
 20
5.9757548077
 30
0.0
 10
11.1313877836
 20
5.9744410874
 30
0.0
 10
11.1262020338
 20
5.9727046809
 30
0.0
 10
11.1192345671
 20
5.970653907
 30
0.0
 10
11.1103105879
 20
5.9684196771
 30
0.0
 10
11.1007143021
 20
5.9663784721
 30
0.0
 10
11.0905086291
 20
5.9645438653
 30
0.0
 10
11.0797603505
 20
5.9629282027
 30
0.0
 10
11.0685400105
 20
5.9615424052
 30
0.0
 10
11.0569213513
 20
5.9603957092
 30
0.0
 10
11.0449808029
 20
5.9594957554
 30
0.0
 10
11.0327969299
 20
5.958848631
 30
0.0
 10
11.020449936
 20
5.9584586634
 30
0.0
 10
11.0080211186
 20
5.9583283923
 30
0.0
 10
10.9955923175
 20
5.9584587254
 30
0.0
 10
10.9832453726
 20
5.9588488414
 30
0.0
 10
10.9710615708
 20
5.959496057
 30
0.0
 10
10.9591211182
 20
5.9603960487
 30
0.0
 10
10.9475026004
 20
5.9615428694
 30
0.0
 10
10.9362824225
 20
5.9629287844
 30
0.0
 10
10.9255343181
 20
5.9645444729
 30
0.0
 10
10.9153288423
 20
5.9663791559
 30
0.0
 10
10.9057328691
 20
5.9684205071
 30
0.0
 10
10.8968089255
 20
5.9706547181
 30
0.0
 10
10.8886152879
 20
5.973066844
 30
0.0
 10
10.8822961391
 20
5.9752612645
 30
0.0
 10
10.8776573495
 20
5.9771060993
 30
0.0
 10
10.874476843
 20
5.9784909611
 30
0.0
 10
10.8715159191
 20
5.9799079
 30
0.0
 10
10.8687793045
 20
5.9813546589
 30
0.0
 10
10.8662714653
 20
5.9828291009
 30
0.0
 10
10.8639962008
 20
5.9843287974
 30
0.0
 10
10.8619572269
 20
5.9858514028
 30
0.0
 10
10.8607143778
 20
5.9869175591
 30
0.0
 10
10.8601370269
 20
5.9874548286
 30
0.0
  0
SPLINE
  5
389
100
AcDbEntity
  8
0
100
AcDbSpline
 62
7
  6
CONTINUOUS
 70
0
 71
3
 72
13
 73
9
 74
0
 42
0.0000001
 43
0.0000001
 44
0.0000000001
 40
0.0
 40
0.0
 40
0.0
 40
0.0
 40
0.1175631823
 40
0.2352351649
 40
0.3542821213
 40
0.4757784191
 40
0.7288799872
 40
1.0
 40
1.0
 40
1.0
 40
1.0
 10
11.3815233885
 20
6.4144146516
 30
0.0
 10
11.3815233885
 20
6.4132809325
 30
0.0
 10
11.381393333
 20
6.4110103124
 30
0.0
 10
11.3808120528
 20
6.4076367988
 30
0.0
 10
11.3798557646
 20
6.4043103551
 30
0.0
 10
11.3780738885
 20
6.3998881925
 30
0.0
 10
11.374919409
 20
6.3944786002
 30
0.0
 10
11.3716956852
 20
6.3905597616
 30
0.0
 10
11.3699129887
 20
6.3886472174
 30
0.0
  0
SPLINE
  5
38A
100
AcDbEntity
  8
0
100
AcDbSpline
 62
7
  6
CONTINUOUS
 70
0
 71
3
 72
13
 73
9
 74
0
 42
0.0000001
 43
0.0000001
 44
0.0000000001
 40
0.0
 40
0.0
 40
0.0
 40
0.0
 40
0.2673230109
 40
0.5197038653
 40
0.6417031356
 40
0.7617834498
 40
0.8808710629
 40
1.0
 40
1.0
 40
1.0
 40
1.0
 10
11.3721284916
 20
6.3913048536
 30
0.0
 10
11.3735855819
 20
6.389551414
 30
0.0
 10
11.3762127233
 20
6.385962217
 30
0.0
 10
11.3787525294
 20
6.3810842272
 30
0.0
 10
11.3801843183
 20
6.3771120632
 30
0.0
 10
11.3809526437
 20
6.374124132
 30
0.0
 10
11.3814191021
 20
6.3710993345
 30
0.0
 10
11.3815233885
 20
6.3690661887
 30
0.0
 10
11.3815233885
 20
6.3680502091
 30
0.0
  0
SPLINE
  5
38B
100
AcDbEntity
  8
0
100
AcDbSpline
 62
7
  6
CONTINUOUS
 70
0
 71
3
 72
9
 73
5
 74
0
 42
0.0000001
 43
0.0000001
 44
0.0000000001
 40
0.0
 40
0.0
 40
0.0
 40
0.0
 40
0.4865003251
 40
1.0
 40
1.0
 40
1.0
 40
1.0
 10
11.3674408096
 20
6.3861336001
 30
0.0
 10
11.3662059675
 20
6.3849408342
 30
0.0
 10
11.3635788293
 20
6.3825801677
 30
0.0
 10
11.3608113262
 20
6.3803871098
 30
0.0
 10
11.3593616176
 20
6.3792998626
 30
0.0
  0
SPLINE
  5
38C
100
AcDbEntity
  8
0
100
AcDbSpline
 62
7
  6
CONTINUOUS
 70
0
 71
3
 72
51
 73
47
 74
0
 42
0.0000001
 43
0.0000001
 44
0.0000000001
 40
0.0
 40
0.0
 40
0.0
 40
0.0
 40
0.0086805179
 40
0.0178626317
 40
0.0275647763
 40
0.0378014757
 40
0.0485785435
 40
0.0598965049
 40
0.0717532253
 40
0.084143566
 40
0.0970607151
 40
0.1104948709
 40
0.1244342522
 40
0.1388656623
 40
0.1691414672
 40
0.2011876519
 40
0.2348493563
 40
0.2699560481
 40
0.3063241341
 40
0.3437592691
 40
0.3820583446
 40
0.4210113325
 40
0.4604030406
 40
0.5000148771
 40
0.5396265901
 40
0.579017935
 40
0.6179703377
 40
0.6562685958
 40
0.6937026752
 40
0.7300694794
 40
0.765174691
 40
0.7988347555
 40
0.8308791151
 40
0.8611529203
 40
0.8755832648
 40
0.8895215087
 40
0.9029545938
 40
0.9158706059
 40
0.9282599672
 40
0.9401154323
 40
0.9514317411
 40
0.9622075048
 40
0.972443917
 40
0.9821467341
 40
0.9913268973
 40
1.0
 40
1.0
 40
1.0
 40
1.0
 10
11.3593616176
 20
6.3792998626
 30
0.0
 10
11.3576882966
 20
6.3780449114
 30
0.0
 10
11.3541650658
 20
6.3755678847
 30
0.0
 10
11.3485365146
 20
6.3720369638
 30
0.0
 10
11.3424237716
 20
6.3685868851
 30
0.0
 10
11.3358327491
 20
6.3652159405
 30
0.0
 10
11.3287698158
 20
6.3619247372
 30
0.0
 10
11.3212431185
 20
6.3587157129
 30
0.0
 10
11.3132620026
 20
6.3555915951
 30
0.0
 10
11.3048364711
 20
6.352555189
 30
0.0
 10
11.2959773687
 20
6.3496096743
 30
0.0
 10
11.2866964321
 20
6.3467582712
 30
0.0
 10
11.2770062469
 20
6.3440044345
 30
0.0
 10
11.2633389401
 20
6.3404100864
 30
0.0
 10
11.2453244213
 20
6.3362070087
 30
0.0
 10
11.2226398433
 20
6.3316827793
 30
0.0
 10
11.1986857595
 20
6.3276264808
 30
0.0
 10
11.1736017824
 20
6.3240614156
 30
0.0
 10
11.1475349324
 20
6.3210084014
 30
0.0
 10
11.1206389632
 20
6.3184854119
 30
0.0
 10
11.0930730927
 20
6.316507397
 30
0.0
 10
11.065000957
 20
6.3150861384
 30
0.0
 10
11.0365895067
 20
6.3142301171
 30
0.0
 10
11.0080078995
 20
6.3139444184
 30
0.0
 10
10.9794263862
 20
6.3142307426
 30
0.0
 10
10.9510152128
 20
6.3150873807
 30
0.0
 10
10.9229435332
 20
6.3165092333
 30
0.0
 10
10.895378299
 20
6.3184878437
 30
0.0
 10
10.8684831482
 20
6.3210114215
 30
0.0
 10
10.842417291
 20
6.3240650062
 30
0.0
 10
10.8173344626
 20
6.3276306176
 30
0.0
 10
10.7933816732
 20
6.3316874246
 30
0.0
 10
10.7706985329
 20
6.3362121352
 30
0.0
 10
10.7526853223
 20
6.3404156367
 30
0.0
 10
10.7390191395
 20
6.3440102779
 30
0.0
 10
10.7293298375
 20
6.3467643368
 30
0.0
 10
10.7200497955
 20
6.3496159081
 30
0.0
 10
10.7111915868
 20
6.3525616794
 30
0.0
 10
10.7027670044
 20
6.3555983225
 30
0.0
 10
10.6947869463
 20
6.3587225714
 30
0.0
 10
10.687261358
 20
6.361931609
 30
0.0
 10
10.6801993479
 20
6.3652229455
 30
0.0
 10
10.6736088462
 20
6.3685944355
 30
0.0
 10
10.6674969796
 20
6.3720453021
 30
0.0
 10
10.6618705398
 20
6.3755756211
 30
0.0
 10
10.6583491891
 20
6.3780513997
 30
0.0
 10
10.6566774095
 20
6.3793054281
 30
0.0
  0
SPLINE
  5
38D
100
AcDbEntity
  8
0
100
AcDbSpline
 62
7
  6
CONTINUOUS
 70
0
 71
3
 72
17
 73
13
 74
0
 42
0.0000001
 43
0.0000001
 44
0.0000000001
 40
0.0
 40
0.0
 40
0.0
 40
0.0
 40
0.1483163739
 40
0.2877869863
 40
0.419266677
 40
0.5439021745
 40
0.6629249683
 40
0.7774502639
 40
0.8335286971
 40
0.8891211404
 40
0.9445104004
 40
1.0
 40
1.0
 40
1.0
 40
1.0
 10
10.6566774095
 20
6.3793054281
 30
0.0
 10
10.6549751834
 20
6.380582295
 30
0.0
 10
10.6517485878
 20
6.3831646491
 30
0.0
 10
10.6473402258
 20
6.3872663677
 30
0.0
 10
10.6435302815
 20
6.3914842126
 30
0.0
 10
10.6403398193
 20
6.39583202
 30
0.0
 10
10.6377937478
 20
6.4003103094
 30
0.0
 10
10.6362266647
 20
6.4041749016
 30
0.0
 10
10.6353464308
 20
6.4073012433
 30
0.0
 10
10.6348735224
 20
6.4096534837
 30
0.0
 10
10.6345872752
 20
6.4120270131
 30
0.0
 10
10.6345233885
 20
6.41361854
 30
0.0
 10
10.6345233885
 20
6.4144146516
 30
0.0
  0
SPLINE
  5
38E
100
AcDbEntity
  8
0
100
AcDbSpline
 62
7
  6
CONTINUOUS
 70
0
 71
3
 72
13
 73
9
 74
0
 42
0.0000001
 43
0.0000001
 44
0.0000000001
 40
0.0
 40
0.0
 40
0.0
 40
0.0
 40
0.1190937108
 40
0.238161038
 40
0.3582474805
 40
0.4802826144
 40
0.7327134273
 40
1.0
 40
1.0
 40
1.0
 40
1.0
 10
10.6345233885
 20
6.3680502091
 30
0.0
 10
10.6345233885
 20
6.3690659901
 30
0.0
 10
10.6346276216
 20
6.3710988664
 30
0.0
 10
10.635094023
 20
6.374123559
 30
0.0
 10
10.6358625458
 20
6.3771119562
 30
0.0
 10
10.637294823
 20
6.3810852085
 30
0.0
 10
10.6398344259
 20
6.3859644475
 30
0.0
 10
10.6424628485
 20
6.3895534825
 30
0.0
 10
10.6439202375
 20
6.3913065671
 30
0.0
  0
SPLINE
  5
38F
100
AcDbEntity
  8
0
100
AcDbSpline
 62
7
  6
CONTINUOUS
 70
0
 71
3
 72
16
 73
12
 74
0
 42
0.0000001
 43
0.0000001
 44
0.0000000001
 40
0.0
 40
0.0
 40
0.0
 40
0.0
 40
0.1492531702
 40
0.2896858477
 40
0.4220087325
 40
0.4854157799
 40
0.547144337
 40
0.6661048749
 40
0.7802195759
 40
0.8909714685
 40
1.0
 40
1.0
 40
1.0
 40
1.0
 10
10.6481808163
 20
6.2928859707
 30
0.0
 10
10.647083763
 20
6.2939068857
 30
0.0
 10
10.6450163312
 20
6.2959567537
 30
0.0
 10
10.6422329301
 20
6.2991568723
 30
0.0
 10
10.6402345229
 20
6.3018830842
 30
0.0
 10
10.6388582032
 20
6.3040724172
 30
0.0
 10
10.6376577961
 20
6.3062101336
 30
0.0
 10
10.6364096374
 20
6.3089010691
 30
0.0
 10
10.6353229374
 20
6.3121864786
 30
0.0
 10
10.6346693831
 20
6.3154834604
 30
0.0
 10
10.6345234801
 20
6.3176928322
 30
0.0
 10
10.6345234326
 20
6.3187875482
 30
0.0
  0
SPLINE
  5
390
100
AcDbEntity
  8
0
100
AcDbSpline
 62
7
  6
CONTINUOUS
 70
0
 71
3
 72
31
 73
27
 74
0
 42
0.0000001
 43
0.0000001
 44
0.0000000001
 40
0.0
 40
0.0
 40
0.0
 40
0.0
 40
0.0148673689
 40
0.0310581468
 40
0.0486196176
 40
0.0675782717
 40
0.0879421447
 40
0.1097067944
 40
0.1328552628
 40
0.1573625411
 40
0.1831945863
 40
0.210311676
 40
0.2386670971
 40
0.2682097708
 40
0.2988832102
 40
0.330627375
 40
0.3633778905
 40
0.3970673189
 40
0.4669752575
 40
0.5397570093
 40
0.6147806187
 40
0.6913875445
 40
0.7689009383
 40
0.8466328943
 40
0.9238946583
 40
1.0
 40
1.0
 40
1.0
 40
1.0
 10
11.3196934738
 20
6.2480564831
 30
0.0
 10
11.31822094
 20
6.2466861426
 30
0.0
 10
11.3150038911
 20
6.2439730229
 30
0.0
 10
11.3096532103
 20
6.240137693
 30
0.0
 10
11.3035895438
 20
6.2363749703
 30
0.0
 10
11.2968266976
 20
6.2326939149
 30
0.0
 10
11.2893798815
 20
6.2291020337
 30
0.0
 10
11.2812660029
 20
6.2256081548
 30
0.0
 10
11.2725039268
 20
6.2222199651
 30
0.0
 10
11.2631139856
 20
6.2189459561
 30
0.0
 10
11.253118259
 20
6.2157935059
 30
0.0
 10
11.2425402237
 20
6.2127705361
 30
0.0
 10
11.2314048928
 20
6.2098839397
 30
0.0
 10
11.2197385895
 20
6.2071409452
 30
0.0
 10
11.2075689661
 20
6.2045478615
 30
0.0
 10
11.1949248779
 20
6.2021111417
 30
0.0
 10
11.1818363211
 20
6.1998363943
 30
0.0
 10
11.1636086767
 20
6.1969919264
 30
0.0
 10
11.1399422603
 20
6.1938971092
 30
0.0
 10
11.1106303949
 20
6.1909476886
 30
0.0
 10
11.0803441232
 20
6.1887473099
 30
0.0
 10
11.0493711175
 20
6.1873172404
 30
0.0
 10
11.0180054504
 20
6.1866714182
 30
0.0
 10
10.9865448369
 20
6.1868160506
 30
0.0
 10
10.9552885209
 20
6.1877497995
 30
0.0
 10
10.9345676672
 20
6.1889043794
 30
0.0
 10
10.9242954965
 20
6.1896167569
 30
0.0
  0
SPLINE
  5
391
100
AcDbEntity
  8
0
100
AcDbSpline
 62
7
  6
CONTINUOUS
 70
0
 71
3
 72
9
 73
5
 74
0
 42
0.0000001
 43
0.0000001
 44
0.0000000001
 40
0.0
 40
0.0
 40
0.0
 40
0.0
 40
0.4960119398
 40
1.0
 40
1.0
 40
1.0
 40
1.0
 10
10.6019382838
 20
6.714251584
 30
0.0
 10
10.59215266
 20
6.7190870021
 30
0.0
 10
10.5726766512
 20
6.7293524138
 30
0.0
 10
10.5536808631
 20
6.7404745845
 30
0.0
 10
10.5442172506
 20
6.7462575074
 30
0.0
  0
SPLINE
  5
392
100
AcDbEntity
  8
0
100
AcDbSpline
 62
7
  6
CONTINUOUS
 70
0
 71
3
 72
9
 73
5
 74
0
 42
0.0000001
 43
0.0000001
 44
0.0000000001
 40
0.0
 40
0.0
 40
0.0
 40
0.0
 40
0.4988449481
 40
1.0
 40
1.0
 40
1.0
 40
1.0
 10
11.3214663377
 20
6.2244953783
 30
0.0
 10
11.315486048
 20
6.2253058196
 30
0.0
 10
11.3034589298
 20
6.2266585582
 30
0.0
 10
11.291375891
 20
6.2273868191
 30
0.0
 10
11.2853159374
 20
6.2275758807
 30
0.0
  0
SPLINE
  5
393
100
AcDbEntity
  8
0
100
AcDbSpline
 62
7
  6
CONTINUOUS
 70
0
 71
3
 72
19
 73
15
 74
0
 42
0.0000001
 43
0.0000001
 44
0.0000000001
 40
0.0
 40
0.0
 40
0.0
 40
0.0
 40
0.1200230984
 40
0.2406872135
 40
0.3013730127
 40
0.3623561673
 40
0.4236912657
 40
0.4854363452
 40
0.5476485172
 40
0.6103842606
 40
0.6736941729
 40
0.7376222879
 40
0.8674385679
 40
1.0
 40
1.0
 40
1.0
 40
1.0
 10
11.0920102379
 20
6.0034819801
 30
0.0
 10
11.0986048501
 20
6.0025882866
 30
0.0
 10
11.1118770945
 20
6.0011267726
 30
0.0
 10
11.1285762999
 20
6.0002609747
 30
0.0
 10
11.1420150961
 20
6.0002245287
 30
0.0
 10
11.1521591066
 20
6.0005474971
 30
0.0
 10
11.1623435876
 20
6.0012401061
 30
0.0
 10
11.1725629822
 20
6.0023202939
 30
0.0
 10
11.1828105413
 20
6.0038018237
 30
0.0
 10
11.1930782019
 20
6.0056959427
 30
0.0
 10
11.2033573794
 20
6.0080087129
 30
0.0
 10
11.2171349168
 20
6.0116706094
 30
0.0
 10
11.23434425
 20
6.0173100133
 30
0.0
 10
11.2478299197
 20
6.0227988671
 30
0.0
 10
11.254549331
 20
6.0257777131
 30
0.0
  0
SPLINE
  5
394
100
AcDbEntity
  8
0
100
AcDbSpline
 62
7
  6
CONTINUOUS
 70
0
 71
3
 72
10
 73
6
 74
0
 42
0.0000001
 43
0.0000001
 44
0.0000000001
 40
0.0
 40
0.0
 40
0.0
 40
0.0
 40
0.4948061408
 40
0.7462187695
 40
1.0
 40
1.0
 40
1.0
 40
1.0
 10
11.1427605405
 20
6.1945651551
 30
0.0
 10
11.1341018912
 20
6.1902312096
 30
0.0
 10
11.1212719846
 20
6.1832307406
 30
0.0
 10
11.1045064371
 20
6.1731368549
 30
0.0
 10
11.096168091
 20
6.1678235217
 30
0.0
 10
11.0920102379
 20
6.1651077924
 30
0.0
  0
SPLINE
  5
395
100
AcDbEntity
  8
0
100
AcDbSpline
 62
7
  6
CONTINUOUS
 70
0
 71
3
 72
9
 73
5
 74
0
 42
0.0000001
 43
0.0000001
 44
0.0000000001
 40
0.0
 40
0.0
 40
0.0
 40
0.0
 40
0.500826775
 40
1.0
 40
1.0
 40
1.0
 40
1.0
 10
11.0920102379
 20
6.1651077924
 30
0.0
 10
11.0801701072
 20
6.1693468596
 30
0.0
 10
11.0563413408
 20
6.1772996146
 30
0.0
 10
11.0321152319
 20
6.183970326
 30
0.0
 10
11.0199300737
 20
6.1869093164
 30
0.0
  0
SPLINE
  5
396
100
AcDbEntity
  8
0
100
AcDbSpline
 62
7
  6
CONTINUOUS
 70
0
 71
3
 72
22
 73
18
 74
0
 42
0.0000001
 43
0.0000001
 44
0.0000000001
 40
0.0
 40
0.0
 40
0.0
 40
0.0
 40
0.0635920376
 40
0.1270860383
 40
0.1904660019
 40
0.2537175286
 40
0.3168250812
 40
0.3797744466
 40
0.442553588
 40
0.5051541863
 40
0.5675726549
 40
0.6298104995
 40
0.6918740127
 40
0.7537734737
 40
0.8155221806
 40
0.8771346709
 40
1.0
 40
1.0
 40
1.0
 40
1.0
 10
10.7785672887
 20
6.0252193224
 30
0.0
 10
10.7849324081
 20
6.0229404482
 30
0.0
 10
10.7977066751
 20
6.0185345714
 30
0.0
 10
10.81701807
 20
6.0124348666
 30
0.0
 10
10.8364648273
 20
6.0069100715
 30
0.0
 10
10.8560398744
 20
6.0020231023
 30
0.0
 10
10.8757301922
 20
5.9978352534
 30
0.0
 10
10.8955157041
 20
5.9944022772
 30
0.0
 10
10.9153696262
 20
5.991769492
 30
0.0
 10
10.9352597315
 20
5.9899673668
 30
0.0
 10
10.955150705
 20
5.9890082289
 30
0.0
 10
10.975007104
 20
5.988884911
 30
0.0
 10
10.9947963979
 20
5.9895716315
 30
0.0
 10
11.0144912779
 20
5.9910268981
 30
0.0
 10
11.0340715115
 20
5.9931978159
 30
0.0
 10
11.0599805002
 20
5.9969632122
 30
0.0
 10
11.0792511183
 20
6.0006835874
 30
0.0
 10
11.0920102379
 20
6.0034819801
 30
0.0
  0
SPLINE
  5
397
100
AcDbEntity
  8
0
100
AcDbSpline
 62
7
  6
CONTINUOUS
 70
0
 71
3
 72
10
 73
6
 74
0
 42
0.0000001
 43
0.0000001
 44
0.0000000001
 40
0.0
 40
0.0
 40
0.0
 40
0.0
 40
0.2506617301
 40
0.5008562224
 40
1.0
 40
1.0
 40
1.0
 40
1.0
 10
10.8464947689
 20
6.1982073926
 30
0.0
 10
10.8407725899
 20
6.1975770996
 30
0.0
 10
10.8293575995
 20
6.1961407646
 30
0.0
 10
10.806661026
 20
6.1926169437
 30
0.0
 10
10.7897646518
 20
6.1893009953
 30
0.0
 10
10.7785672887
 20
6.1868451348
 30
0.0
  0
SPLINE
  5
398
100
AcDbEntity
  8
0
100
AcDbSpline
 62
7
  6
CONTINUOUS
 70
0
 71
3
 72
11
 73
7
 74
0
 42
0.0000001
 43
0.0000001
 44
0.0000000001
 40
0.0
 40
0.0
 40
0.0
 40
0.0
 40
0.2609040448
 40
0.5149434728
 40
0.761513696
 40
1.0
 40
1.0
 40
1.0
 40
1.0
 10
10.7785672887
 20
6.1868451348
 30
0.0
 10
10.7773072042
 20
6.1894198321
 30
0.0
 10
10.7747845485
 20
6.1944841642
 30
0.0
 10
10.7709330315
 20
6.20191203
 30
0.0
 10
10.7670618434
 20
6.2090507712
 30
0.0
 10
10.7644218176
 20
6.2136807842
 30
0.0
 10
10.7630956146
 20
6.2159405819
 30
0.0
  0
SPLINE
  5
399
100
AcDbEntity
  8
0
100
AcDbSpline
 62
7
  6
CONTINUOUS
 70
0
 71
3
 72
9
 73
5
 74
0
 42
0.0000001
 43
0.0000001
 44
0.0000000001
 40
0.0
 40
0.0
 40
0.0
 40
0.0
 40
0.5106066669
 40
1.0
 40
1.0
 40
1.0
 40
1.0
 10
10.7529094938
 20
6.0296619178
 30
0.0
 10
10.7543282165
 20
6.0289614254
 30
0.0
 10
10.7571734906
 20
6.0277198108
 30
0.0
 10
10.7601295924
 20
6.0267706673
 30
0.0
 10
10.7615954972
 20
6.0263822175
 30
0.0
  0
SPLINE
  5
39A
100
AcDbEntity
  8
0
100
AcDbSpline
 62
7
  6
CONTINUOUS
 70
0
 71
3
 72
11
 73
7
 74
0
 42
0.0000001
 43
0.0000001
 44
0.0000000001
 40
0.0
 40
0.0
 40
0.0
 40
0.0
 40
0.2557547509
 40
0.5060810339
 40
0.7534782087
 40
1.0
 40
1.0
 40
1.0
 40
1.0
 10
10.7615954972
 20
6.0263822175
 30
0.0
 10
10.7630050377
 20
6.0260087036
 30
0.0
 10
10.7658329984
 20
6.0254076898
 30
0.0
 10
10.7701091407
 20
6.0249331718
 30
0.0
 10
10.7743576135
 20
6.0248632814
 30
0.0
 10
10.7771703859
 20
6.0250636722
 30
0.0
 10
10.7785672887
 20
6.0252193224
 30
0.0
  0
SPLINE
  5
39B
100
AcDbEntity
  8
0
100
AcDbSpline
 62
7
  6
CONTINUOUS
 70
0
 71
3
 72
9
 73
5
 74
0
 42
0.0000001
 43
0.0000001
 44
0.0000000001
 40
0.0
 40
0.0
 40
0.0
 40
0.0
 40
0.5132482981
 40
1.0
 40
1.0
 40
1.0
 40
1.0
 10
11.3322239285
 20
6.6916090586
 30
0.0
 10
11.3394387069
 20
6.6932627554
 30
0.0
 10
11.3534549451
 20
6.6966666164
 30
0.0
 10
11.3673662406
 20
6.7004792784
 30
0.0
 10
11.3741041375
 20
6.7024484502
 30
0.0
  0
SPLINE
  5
39C
100
AcDbEntity
  8
0
100
AcDbSpline
 62
7
  6
CONTINUOUS
 70
0
 71
3
 72
28
 73
24
 74
0
 42
0.0000001
 43
0.0000001
 44
0.0000000001
 40
0.0
 40
0.0
 40
0.0
 40
0.0
 40
0.024740625
 40
0.0506678257
 40
0.0777259918
 40
0.1058532628
 40
0.1349844774
 40
0.1650491854
 40
0.2276806614
 40
0.2931259915
 40
0.3607200943
 40
0.4297683156
 40
0.4995560132
 40
0.5693587106
 40
0.6384517094
 40
0.7061198067
 40
0.7716672695
 40
0.8344277069
 40
0.8937746963
 40
0.9219876856
 40
0.9491364647
 40
0.9751594112
 40
1.0
 40
1.0
 40
1.0
 40
1.0
 10
11.1462323572
 20
5.9964106173
 30
0.0
 10
11.1440275622
 20
5.9957653534
 30
0.0
 10
11.1394926867
 20
5.9945099683
 30
0.0
 10
11.1324889079
 20
5.9927649617
 30
0.0
 10
11.1251388927
 20
5.9911177348
 30
0.0
 10
11.1174631042
 20
5.9895726677
 30
0.0
 10
11.109482801
 20
5.9881343348
 30
0.0
 10
11.098313293
 20
5.9863395717
 30
0.0
 10
11.0837541196
 20
5.9844038241
 30
0.0
 10
11.0656731246
 20
5.9825904539
 30
0.0
 10
11.0469517134
 20
5.9812770979
 30
0.0
 10
11.0277979236
 20
5.9804786368
 30
0.0
 10
11.0084244274
 20
5.9802041912
 30
0.0
 10
10.9890464834
 20
5.9804568825
 30
0.0
 10
10.969879368
 20
5.9812338297
 30
0.0
 10
10.9511359929
 20
5.982526192
 30
0.0
 10
10.9330243405
 20
5.9843191953
 30
0.0
 10
10.9157455208
 20
5.986592469
 30
0.0
 10
10.9019762869
 20
5.9889024307
 30
0.0
 10
10.8915301525
 20
5.9909860593
 30
0.0
 10
10.8841524171
 20
5.9926250996
 30
0.0
 10
10.877119289
 20
5.9943621664
 30
0.0
 10
10.8725640993
 20
5.9956122143
 30
0.0
 10
10.8703488808
 20
5.996254886
 30
0.0
  0
SPLINE
  5
39D
100
AcDbEntity
  8
0
100
AcDbSpline
 62
7
  6
CONTINUOUS
 70
0
 71
3
 72
28
 73
24
 74
0
 42
0.0000001
 43
0.0000001
 44
0.0000000001
 40
0.0
 40
0.0
 40
0.0
 40
0.0
 40
0.0844973683
 40
0.1673048015
 40
0.2480820827
 40
0.326533057
 40
0.4023616029
 40
0.4752866349
 40
0.5450456892
 40
0.6113953475
 40
0.6741149449
 40
0.7330092728
 40
0.7879138712
 40
0.8138305364
 40
0.8387051164
 40
0.8625287128
 40
0.8852962922
 40
0.9070058517
 40
0.9276605976
 40
0.9472692819
 40
0.9658459338
 40
0.9834125928
 40
1.0
 40
1.0
 40
1.0
 40
1.0
 10
10.9113545549
 20
6.2254130606
 30
0.0
 10
10.9036233477
 20
6.2259492216
 30
0.0
 10
10.8883245784
 20
6.2271465965
 30
0.0
 10
10.8656762851
 20
6.2293419124
 30
0.0
 10
10.8436254503
 20
6.2319116847
 30
0.0
 10
10.8222657808
 20
6.234844703
 30
0.0
 10
10.801686036
 20
6.2381285864
 30
0.0
 10
10.7819726663
 20
6.2417493448
 30
0.0
 10
10.7632082732
 20
6.245691612
 30
0.0
 10
10.7454712587
 20
6.2499385776
 30
0.0
 10
10.7288354598
 20
6.2544720715
 30
0.0
 10
10.7133703594
 20
6.2592729374
 30
0.0
 10
10.7012891256
 20
6.2635579377
 30
0.0
 10
10.692272286
 20
6.267119842
 30
0.0
 10
10.6859720976
 20
6.2697938945
 30
0.0
 10
10.6800100377
 20
6.2725192927
 30
0.0
 10
10.6743922027
 20
6.2752930922
 30
0.0
 10
10.6691244684
 20
6.2781125776
 30
0.0
 10
10.6642122397
 20
6.2809748452
 30
0.0
 10
10.6596604567
 20
6.2838768264
 30
0.0
 10
10.6554738074
 20
6.2868158904
 30
0.0
 10
10.6516567046
 20
6.2897889385
 30
0.0
 10
10.6492945141
 20
6.2918495666
 30
0.0
 10
10.6481808163
 20
6.2928859707
 30
0.0
  0
SPLINE
  5
39E
100
AcDbEntity
  8
0
100
AcDbSpline
 62
7
  6
CONTINUOUS
 70
0
 71
3
 72
21
 73
17
 74
0
 42
0.0000001
 43
0.0000001
 44
0.0000000001
 40
0.0
 40
0.0
 40
0.0
 40
0.0
 40
0.1268695438
 40
0.1901517703
 40
0.2533142983
 40
0.3163458527
 40
0.3792363614
 40
0.4419778289
 40
0.5045647949
 40
0.5669946942
 40
0.6292683006
 40
0.6913897064
 40
0.7533657306
 40
0.8152051406
 40
0.8769181127
 40
1.0
 40
1.0
 40
1.0
 40
1.0
 10
11.3322239285
 20
6.6916090586
 30
0.0
 10
11.3150244358
 20
6.685981114
 30
0.0
 10
11.2890459113
 20
6.678131011
 30
0.0
 10
11.2540551295
 20
6.6691019887
 30
0.0
 10
11.2276932647
 20
6.663122124
 30
0.0
 10
11.2012104503
 20
6.6579874222
 30
0.0
 10
11.1746297984
 20
6.6537486941
 30
0.0
 10
11.1479801912
 20
6.6504463013
 30
0.0
 10
11.1212945397
 20
6.6481071524
 30
0.0
 10
11.0946081249
 20
6.6467424963
 30
0.0
 10
11.0679563462
 20
6.6463461774
 30
0.0
 10
11.0413723358
 20
6.646896022
 30
0.0
 10
11.0148852855
 20
6.6483557795
 30
0.0
 10
10.9885185876
 20
6.6506779398
 30
0.0
 10
10.9535819082
 20
6.6548451666
 30
0.0
 10
10.9275506957
 20
6.659095952
 30
0.0
 10
10.9102979996
 20
6.6623483443
 30
0.0
  0
SPLINE
  5
39F
100
AcDbEntity
  8
0
100
AcDbSpline
 62
7
  6
CONTINUOUS
 70
0
 71
3
 72
10
 73
6
 74
0
 42
0.0000001
 43
0.0000001
 44
0.0000000001
 40
0.0
 40
0.0
 40
0.0
 40
0.0
 40
0.4990787193
 40
0.7493587698
 40
1.0
 40
1.0
 40
1.0
 40
1.0
 10
10.99626849
 20
7.0606552256
 30
0.0
 10
10.9815393105
 20
7.0554562137
 30
0.0
 10
10.9597349429
 20
7.0467401028
 30
0.0
 10
10.9313031823
 20
7.0336518497
 30
0.0
 10
10.9172690924
 20
7.0266571536
 30
0.0
 10
10.9102979996
 20
7.0230601653
 30
0.0
  0
SPLINE
  5
3A0
100
AcDbEntity
  8
0
100
AcDbSpline
 62
7
  6
CONTINUOUS
 70
0
 71
3
 72
16
 73
12
 74
0
 42
0.0000001
 43
0.0000001
 44
0.0000000001
 40
0.0
 40
0.0
 40
0.0
 40
0.0
 40
0.1098876351
 40
0.2213929668
 40
0.3360595223
 40
0.4552990513
 40
0.5170479787
 40
0.5803904387
 40
0.7123174704
 40
0.8519636659
 40
1.0
 40
1.0
 40
1.0
 40
1.0
 10
11.3815233542
 20
6.3680502091
 30
0.0
 10
11.3815233201
 20
6.3669937898
 30
0.0
 10
11.3813875747
 20
6.3648630257
 30
0.0
 10
11.3807794218
 20
6.3616821277
 30
0.0
 10
11.3797680575
 20
6.3585114038
 30
0.0
 10
11.3786050694
 20
6.3559115792
 30
0.0
 10
11.3774859868
 20
6.3538455288
 30
0.0
 10
11.3762044823
 20
6.3517319164
 30
0.0
 10
11.3743435434
 20
6.3490988114
 30
0.0
 10
11.3717495094
 20
6.346004595
 30
0.0
 10
11.3698203253
 20
6.344019235
 30
0.0
 10
11.368796706
 20
6.3430304946
 30
0.0
  0
SPLINE
  5
3A1
100
AcDbEntity
  8
0
100
AcDbSpline
 62
7
  6
CONTINUOUS
 70
0
 71
3
 72
20
 73
16
 74
0
 42
0.0000001
 43
0.0000001
 44
0.0000000001
 40
0.0
 40
0.0
 40
0.0
 40
0.0
 40
0.1200442583
 40
0.2408538301
 40
0.3016489306
 40
0.3627568118
 40
0.424222813
 40
0.4860926791
 40
0.5484109093
 40
0.6112198085
 40
0.6745564899
 40
0.7384532761
 40
0.8029343812
 40
0.8680171665
 40
1.0
 40
1.0
 40
1.0
 40
1.0
 10
10.8530885542
 20
6.6663158328
 30
0.0
 10
10.8438796364
 20
6.6654554267
 30
0.0
 10
10.8253559987
 20
6.6641910104
 30
0.0
 10
10.8021020884
 20
6.6639124833
 30
0.0
 10
10.7834101478
 20
6.6645541129
 30
0.0
 10
10.7693107292
 20
6.6654919877
 30
0.0
 10
10.7551676589
 20
6.6669046965
 30
0.0
 10
10.7409880958
 20
6.6688088608
 30
0.0
 10
10.7267802995
 20
6.6712167304
 30
0.0
 10
10.7125537045
 20
6.6741380052
 30
0.0
 10
10.6983178812
 20
6.6775758022
 30
0.0
 10
10.6840833972
 20
6.6815309254
 30
0.0
 10
10.6698597286
 20
6.6859970724
 30
0.0
 10
10.6508362217
 20
6.6926516869
 30
0.0
 10
10.6367432835
 20
6.6983330527
 30
0.0
 10
10.6274210974
 20
6.7023953721
 30
0.0
  0
SPLINE
  5
3A2
100
AcDbEntity
  8
0
100
AcDbSpline
 62
7
  6
CONTINUOUS
 70
0
 71
3
 72
11
 73
7
 74
0
 42
0.0000001
 43
0.0000001
 44
0.0000000001
 40
0.0
 40
0.0
 40
0.0
 40
0.0
 40
0.2549350233
 40
0.5068019224
 40
0.7552606267
 40
1.0
 40
1.0
 40
1.0
 40
1.0
 10
10.8530885542
 20
7.0270276538
 30
0.0
 10
10.8480105307
 20
7.031440124
 30
0.0
 10
10.8377947333
 20
7.040074307
 30
0.0
 10
10.8221776763
 20
7.0524619378
 30
0.0
 10
10.8063520195
 20
7.0641352793
 30
0.0
 10
10.7955778884
 20
7.0714439651
 30
0.0
 10
10.7901537646
 20
7.0749493332
 30
0.0
  0
SPLINE
  5
3A3
100
AcDbEntity
  8
0
100
AcDbSpline
 62
7
  6
CONTINUOUS
 70
0
 71
3
 72
36
 73
32
 74
0
 42
0.0000001
 43
0.0000001
 44
0.0000000001
 40
0.0
 40
0.0
 40
0.0
 40
0.0
 40
0.0958308279
 40
0.1891037096
 40
0.2792433466
 40
0.3657131739
 40
0.4480023748
 40
0.4874326529
 40
0.5256452515
 40
0.5625891533
 40
0.5982163879
 40
0.6324828781
 40
0.6653490496
 40
0.6967793156
 40
0.7267443607
 40
0.7552196158
 40
0.7821885848
 40
0.8076416151
 40
0.8315792201
 40
0.8540127088
 40
0.8749669505
 40
0.8944839606
 40
0.912625593
 40
0.9294802796
 40
0.9451666555
 40
0.9598414677
 40
0.9737024546
 40
0.9804059317
 40
0.9869994498
 40
0.9935185139
 40
1.0
 40
1.0
 40
1.0
 40
1.0
 10
10.9113545549
 20
6.2746752807
 30
0.0
 10
10.9016265447
 20
6.2753499205
 30
0.0
 10
10.8824442148
 20
6.2768951828
 30
0.0
 10
10.8541803165
 20
6.279844743
 30
0.0
 10
10.8269433883
 20
6.2833795853
 30
0.0
 10
10.8009158356
 20
6.2874754665
 30
0.0
 10
10.7800915448
 20
6.2913866015
 30
0.0
 10
10.7641767949
 20
6.2947908306
 30
0.0
 10
10.7528187967
 20
6.2974298891
 30
0.0
 10
10.7418874045
 20
6.3001865736
 30
0.0
 10
10.7314008124
 20
6.3030563341
 30
0.0
 10
10.7213764913
 20
6.3060343862
 30
0.0
 10
10.711831082
 20
6.3091155818
 30
0.0
 10
10.7027804626
 20
6.3122949864
 30
0.0
 10
10.6942395584
 20
6.3155669776
 30
0.0
 10
10.6862225241
 20
6.3189264227
 30
0.0
 10
10.6787424493
 20
6.3223674363
 30
0.0
 10
10.6718116029
 20
6.325884609
 30
0.0
 10
10.6654411668
 20
6.3294720854
 30
0.0
 10
10.6596413458
 20
6.3331241979
 30
0.0
 10
10.6544214172
 20
6.3368354594
 30
0.0
 10
10.6497894425
 20
6.3406002108
 30
0.0
 10
10.6457530278
 20
6.3444137378
 30
0.0
 10
10.6423185379
 20
6.348270909
 30
0.0
 10
10.6394928055
 20
6.3521681249
 30
0.0
 10
10.6372822768
 20
6.356100155
 30
0.0
 10
10.6359443672
 20
6.3594407292
 30
0.0
 10
10.6352041926
 20
6.3621055444
 30
0.0
 10
10.6348115401
 20
6.364085432
 30
0.0
 10
10.6345758131
 20
6.3660671962
 30
0.0
 10
10.6345234014
 20
6.3673906781
 30
0.0
 10
10.6345234227
 20
6.3680502091
 30
0.0
  0
SPLINE
  5
3A4
100
AcDbEntity
  8
0
100
AcDbSpline
 62
7
  6
CONTINUOUS
 70
0
 71
3
 72
31
 73
27
 74
0
 42
0.0000001
 43
0.0000001
 44
0.0000000001
 40
0.0
 40
0.0
 40
0.0
 40
0.0
 40
0.0146695755
 40
0.0306654235
 40
0.0480370124
 40
0.0668146155
 40
0.0870110855
 40
0.1086228081
 40
0.1316349233
 40
0.1560227332
 40
0.1817534513
 40
0.2087870899
 40
0.2370774006
 40
0.2665729347
 40
0.2972170312
 40
0.3289491219
 40
0.3617042094
 40
0.3954143193
 40
0.4654082309
 40
0.5383292717
 40
0.6135369661
 40
0.6903633698
 40
0.76812126
 40
0.8461131336
 40
0.9236372113
 40
1.0
 40
1.0
 40
1.0
 40
1.0
 10
11.368796706
 20
6.3430304946
 30
0.0
 10
11.3671440109
 20
6.3414341136
 30
0.0
 10
11.3635179967
 20
6.3382720469
 30
0.0
 10
11.3574574204
 20
6.3338020362
 30
0.0
 10
11.3505605783
 20
6.3294157689
 30
0.0
 10
11.3428442212
 20
6.3251230125
 30
0.0
 10
11.3343253579
 20
6.3209331985
 30
0.0
 10
11.3250236796
 20
6.316855886
 30
0.0
 10
11.3149608691
 20
6.3129009571
 30
0.0
 10
11.3041606895
 20
6.3090777507
 30
0.0
 10
11.2926487204
 20
6.3053955113
 30
0.0
 10
11.2804523673
 20
6.3018631779
 30
0.0
 10
11.2676007737
 20
6.2984892356
 30
0.0
 10
11.2541246948
 20
6.2952819988
 30
0.0
 10
11.2400564469
 20
6.2922490757
 30
0.0
 10
11.2254297978
 20
6.2893980473
 30
0.0
 10
11.2102798585
 20
6.2867355508
 30
0.0
 10
11.1891656777
 20
6.2834042859
 30
0.0
 10
11.1617333484
 20
6.2797778034
 30
0.0
 10
11.1277383953
 20
6.2763185497
 30
0.0
 10
11.0925927855
 20
6.2737334472
 30
0.0
 10
11.0566344205
 20
6.2720478315
 30
0.0
 10
11.0202087363
 20
6.2712782693
 30
0.0
 10
10.9836659312
 20
6.2714323615
 30
0.0
 10
10.9473574823
 20
6.2725085148
 30
0.0
 10
10.9232870834
 20
6.273847757
 30
0.0
 10
10.9113545549
 20
6.2746752807
 30
0.0
  0
SPLINE
  5
3A5
100
AcDbEntity
  8
0
100
AcDbSpline
 62
7
  6
CONTINUOUS
 70
0
 71
3
 72
66
 73
62
 74
0
 42
0.0000001
 43
0.0000001
 44
0.0000000001
 40
0.0
 40
0.0
 40
0.0
 40
0.0
 40
0.0084458897
 40
0.0176352307
 40
0.0275954662
 40
0.0383436249
 40
0.0498877839
 40
0.0622267572
 40
0.0753534033
 40
0.0892548292
 40
0.1039142299
 40
0.1193103059
 40
0.1354189132
 40
0.1522123973
 40
0.1696609463
 40
0.1877318579
 40
0.2063907346
 40
0.22560079
 40
0.2453238867
 40
0.2655199138
 40
0.3071633247
 40
0.3501868824
 40
0.3942293597
 40
0.4389180846
 40
0.4838732273
 40
0.5287120279
 40
0.5730530036
 40
0.6165201676
 40
0.6587472867
 40
0.679285645
 40
0.699383396
 40
0.7189993319
 40
0.7380940115
 40
0.7566292948
 40
0.7745691942
 40
0.7918793445
 40
0.808527979
 40
0.82448537
 40
0.8397249497
 40
0.8542227798
 40
0.867958864
 40
0.88091675
 40
0.8930851376
 40
0.9044578085
 40
0.9150357549
 40
0.9248278126
 40
0.933853753
 40
0.9421462596
 40
0.9497555955
 40
0.9567534125
 40
0.9632383638
 40
0.9663300258
 40
0.9693442916
 40
0.9723017326
 40
0.9752242396
 40
0.9781346001
 40
0.9810558864
 40
0.9840108678
 40
0.9870215045
 40
0.9932859217
 40
1.0
 40
1.0
 40
1.0
 40
1.0
 10
11.3639670765
 20
6.34819506
 30
0.0
 10
11.3623815724
 20
6.3466635804
 30
0.0
 10
11.3589114056
 20
6.3436289655
 30
0.0
 10
11.3531238664
 20
6.3393320457
 30
0.0
 10
11.3465533184
 20
6.3351129103
 30
0.0
 10
11.3392150208
 20
6.3309804279
 30
0.0
 10
11.3311242721
 20
6.3269433565
 30
0.0
 10
11.3222988592
 20
6.3230101444
 30
0.0
 10
11.3127582034
 20
6.3191901132
 30
0.0
 10
11.3025237398
 20
6.3154915019
 30
0.0
 10
11.2916183813
 20
6.3119231281
 30
0.0
 10
11.2800667758
 20
6.3084927895
 30
0.0
 10
11.2678950305
 20
6.3052087289
 30
0.0
 10
11.2551307791
 20
6.3020781465
 30
0.0
 10
11.2418030025
 20
6.299108569
 30
0.0
 10
11.2279420238
 20
6.2963065078
 30
0.0
 10
11.2135793935
 20
6.2936787094
 30
0.0
 10
11.1987478351
 20
6.2912309313
 30
0.0
 10
11.1834811266
 20
6.2889690351
 30
0.0
 10
11.1623762187
 20
6.2861793262
 30
0.0
 10
11.1351646069
 20
6.2832079252
 30
0.0
 10
11.101677959
 20
6.2804874205
 30
0.0
 10
11.0673379355
 20
6.2786023633
 30
0.0
 10
11.0324575517
 20
6.277570193
 30
0.0
 10
10.9973545137
 20
6.2774005349
 30
0.0
 10
10.9623487059
 20
6.2780949653
 30
0.0
 10
10.9277590037
 20
6.2796470041
 30
0.0
 10
10.8939007245
 20
6.2820423049
 30
0.0
 10
10.8663022457
 20
6.2847466391
 30
0.0
 10
10.8448288475
 20
6.287327407
 30
0.0
 10
10.8292449803
 20
6.2894398489
 30
0.0
 10
10.8140690334
 20
6.2917422759
 30
0.0
 10
10.7993355759
 20
6.2942291891
 30
0.0
 10
10.7850781885
 20
6.2968951214
 30
0.0
 10
10.771329339
 20
6.2997336809
 30
0.0
 10
10.758120328
 20
6.3027386146
 30
0.0
 10
10.7454811809
 20
6.3059027303
 30
0.0
 10
10.7334406226
 20
6.3092190459
 30
0.0
 10
10.7220259265
 20
6.3126796378
 30
0.0
 10
10.7112629488
 20
6.3162768788
 30
0.0
 10
10.701175904
 20
6.3200022052
 30
0.0
 10
10.6917874892
 20
6.3238474663
 30
0.0
 10
10.6831185439
 20
6.3278036074
 30
0.0
 10
10.6751883162
 20
6.3318621682
 30
0.0
 10
10.6680139536
 20
6.3360139063
 30
0.0
 10
10.6616110221
 20
6.3402504974
 30
0.0
 10
10.6559928089
 20
6.344563219
 30
0.0
 10
10.6511714455
 20
6.3489447557
 30
0.0
 10
10.6471571677
 20
6.3533884712
 30
0.0
 10
10.6439612324
 20
6.3578881413
 30
0.0
 10
10.6419578576
 20
6.3617423955
 30
0.0
 10
10.6408052114
 20
6.3648233799
 30
0.0
 10
10.6401646026
 20
6.3671036285
 30
0.0
 10
10.6397351673
 20
6.3693880926
 30
0.0
 10
10.6395175284
 20
6.3716752579
 30
0.0
 10
10.6395120299
 20
6.3739633497
 30
0.0
 10
10.6397184529
 20
6.3762505668
 30
0.0
 10
10.6401365814
 20
6.3785352767
 30
0.0
 10
10.6409865759
 20
6.3816158197
 30
0.0
 10
10.6426106269
 20
6.3854808601
 30
0.0
 10
10.644380604
 20
6.3883831604
 30
0.0
 10
10.6453830392
 20
6.3898204924
 30
0.0
  0
SPLINE
  5
3A6
100
AcDbEntity
  8
0
100
AcDbSpline
 62
7
  6
CONTINUOUS
 70
0
 71
3
 72
22
 73
18
 74
0
 42
0.0000001
 43
0.0000001
 44
0.0000000001
 40
0.0
 40
0.0
 40
0.0
 40
0.0
 40
0.0763184211
 40
0.1489902014
 40
0.2182439885
 40
0.2843550352
 40
0.3476606196
 40
0.4085604737
 40
0.4675085323
 40
0.5250101069
 40
0.5816128025
 40
0.6378919577
 40
0.6944341595
 40
0.751817815
 40
0.8105934573
 40
0.8712705228
 40
1.0
 40
1.0
 40
1.0
 40
1.0
 10
11.3639670765
 20
6.34819506
 30
0.0
 10
11.364816955
 20
6.3490159795
 30
0.0
 10
11.366433786
 20
6.3506633552
 30
0.0
 10
11.3686523253
 20
6.3532148938
 30
0.0
 10
11.3706010955
 20
6.3557827361
 30
0.0
 10
11.3722778562
 20
6.3583650643
 30
0.0
 10
11.3736808412
 20
6.3609601307
 30
0.0
 10
11.3748086841
 20
6.363566106
 30
0.0
 10
11.375659896
 20
6.3661811789
 30
0.0
 10
11.3762329821
 20
6.3688032127
 30
0.0
 10
11.3765271249
 20
6.3714296282
 30
0.0
 10
11.376541758
 20
6.3740576607
 30
0.0
 10
11.3762765476
 20
6.3766844198
 30
0.0
 10
11.3757321521
 20
6.3793069926
 30
0.0
 10
11.3749096373
 20
6.3819231349
 30
0.0
 10
11.3734152385
 20
6.3854678383
 30
0.0
 10
11.3719151808
 20
6.3880077769
 30
0.0
 10
11.3707832292
 20
6.3896482092
 30
0.0
  0
SPLINE
  5
3A7
100
AcDbEntity
  8
0
100
AcDbSpline
 62
7
  6
CONTINUOUS
 70
0
 71
3
 72
65
 73
61
 74
0
 42
0.0000001
 43
0.0000001
 44
0.0000000001
 40
0.0
 40
0.0
 40
0.0
 40
0.0
 40
0.0083245133
 40
0.017365098
 40
0.0271478913
 40
0.0376892712
 40
0.0489976253
 40
0.0610726749
 40
0.0739083026
 40
0.0874931045
 40
0.1018118055
 40
0.1168452176
 40
0.1325710363
 40
0.1489641179
 40
0.165996728
 40
0.1836390138
 40
0.2018588433
 40
0.2206225151
 40
0.2596361973
 40
0.3003797506
 40
0.3425317031
 40
0.385755036
 40
0.4297011866
 40
0.4740139276
 40
0.5183331767
 40
0.5622987824
 40
0.6055543102
 40
0.6477508544
 40
0.6885509098
 40
0.7083264023
 40
0.7276335475
 40
0.7464349808
 40
0.7646952825
 40
0.7823802252
 40
0.7994579264
 40
0.8158980231
 40
0.8316729093
 40
0.8467570042
 40
0.8611279704
 40
0.8747662689
 40
0.8876562971
 40
0.8997864546
 40
0.9111502421
 40
0.921747124
 40
0.9315838177
 40
0.9406763679
 40
0.9490521344
 40
0.9567535974
 40
0.9638416104
 40
0.9704006251
 40
0.9735175939
 40
0.9765464339
 40
0.9795053895
 40
0.9824141442
 40
0.9852935411
 40
0.9881651402
 40
0.9910506537
 40
0.9939714516
 40
0.9969481126
 40
1.0
 40
1.0
 40
1.0
 40
1.0
 10
11.3538248548
 20
6.3488984254
 30
0.0
 10
11.3523213858
 20
6.3474461858
 30
0.0
 10
11.349037486
 20
6.3445677126
 30
0.0
 10
11.3435707445
 20
6.34048621
 30
0.0
 10
11.3373769935
 20
6.3364764115
 30
0.0
 10
11.3304700743
 20
6.332546418
 30
0.0
 10
11.322863745
 20
6.3287041951
 30
0.0
 10
11.3145739626
 20
6.3249573606
 30
0.0
 10
11.3056181313
 20
6.3213143336
 30
0.0
 10
11.2960154568
 20
6.3177827457
 30
0.0
 10
11.2857864856
 20
6.3143704605
 30
0.0
 10
11.2749532619
 20
6.3110847941
 30
0.0
 10
11.2635391686
 20
6.3079330194
 30
0.0
 10
11.2515689265
 20
6.3049220405
 30
0.0
 10
11.239068486
 20
6.3020584133
 30
0.0
 10
11.2260649946
 20
6.2993485272
 30
0.0
 10
11.2125866805
 20
6.2967981442
 30
0.0
 10
11.1937766516
 20
6.2935762633
 30
0.0
 10
11.1692920786
 20
6.2900065517
 30
0.0
 10
11.1388788586
 20
6.2864903176
 30
0.0
 10
11.1073276136
 20
6.2837192905
 30
0.0
 10
11.0749127843
 20
6.2817180079
 30
0.0
 10
11.0419161162
 20
6.280504263
 30
0.0
 10
11.0086246222
 20
6.2800888172
 30
0.0
 10
10.9753278906
 20
6.2804753548
 30
0.0
 10
10.9423155876
 20
6.2816604552
 30
0.0
 10
10.9098747749
 20
6.2836335782
 30
0.0
 10
10.8782877501
 20
6.2863773049
 30
0.0
 10
10.8526451515
 20
6.2893150415
 30
0.0
 10
10.8327723421
 20
6.2920454487
 30
0.0
 10
10.8184045838
 20
6.2942475626
 30
0.0
 10
10.8044498264
 20
6.2966206051
 30
0.0
 10
10.7909384047
 20
6.2991590997
 30
0.0
 10
10.7778997054
 20
6.3018577915
 30
0.0
 10
10.7653620561
 20
6.3047104363
 30
0.0
 10
10.7533526876
 20
6.3077110908
 30
0.0
 10
10.7418976318
 20
6.3108528714
 30
0.0
 10
10.7310217099
 20
6.3141291627
 30
0.0
 10
10.7207484
 20
6.3175325468
 30
0.0
 10
10.711099852
 20
6.3210557824
 30
0.0
 10
10.7020967427
 20
6.3246910499
 30
0.0
 10
10.6937582768
 20
6.3284305739
 30
0.0
 10
10.6861020908
 20
6.3322663356
 30
0.0
 10
10.6791441578
 20
6.3361902366
 30
0.0
 10
10.6728988874
 20
6.3401944331
 30
0.0
 10
10.6673788133
 20
6.3442710265
 30
0.0
 10
10.662595284
 20
6.3484130373
 30
0.0
 10
10.6585577999
 20
6.3526140277
 30
0.0
 10
10.6552765472
 20
6.3568680374
 30
0.0
 10
10.6531445567
 20
6.3605151711
 30
0.0
 10
10.6518549164
 20
6.3634362093
 30
0.0
 10
10.651098475
 20
6.3655963962
 30
0.0
 10
10.6505373326
 20
6.3677614982
 30
0.0
 10
10.6501721063
 20
6.3699302407
 30
0.0
 10
10.6500034178
 20
6.3721011268
 30
0.0
 10
10.650031288
 20
6.3742725646
 30
0.0
 10
10.6502555964
 20
6.3764429629
 30
0.0
 10
10.650676108
 20
6.3786108271
 30
0.0
 10
10.6512924438
 20
6.3807745109
 30
0.0
 10
10.6518258655
 20
6.3821932243
 30
0.0
 10
10.6521227871
 20
6.3828997047
 30
0.0
  0
SPLINE
  5
3A8
100
AcDbEntity
  8
0
100
AcDbSpline
 62
7
  6
CONTINUOUS
 70
0
 71
3
 72
60
 73
56
 74
0
 42
0.0000001
 43
0.0000001
 44
0.0000000001
 40
0.0
 40
0.0
 40
0.0
 40
0.0
 40
0.0080772119
 40
0.016818644
 40
0.0262481152
 40
0.0363809807
 40
0.047225804
 40
0.0587838278
 40
0.0710506043
 40
0.0840174099
 40
0.0976715579
 40
0.111997499
 40
0.126976245
 40
0.1425868573
 40
0.1588055575
 40
0.1756070644
 40
0.1929638172
 40
0.2108468878
 40
0.2480670334
 40
0.2870083285
 40
0.3273919876
 40
0.3689244758
 40
0.4113008232
 40
0.4542078232
 40
0.497327153
 40
0.5403384557
 40
0.582922412
 40
0.6247638158
 40
0.665554678
 40
0.7049973854
 40
0.7428079664
 40
0.761017583
 40
0.7787207912
 40
0.7958872978
 40
0.8124888803
 40
0.8284985318
 40
0.8438916371
 40
0.8586452867
 40
0.8727392101
 40
0.8861556437
 40
0.8988797892
 40
0.9109005084
 40
0.9222103091
 40
0.9328069879
 40
0.942693482
 40
0.9518804492
 40
0.9603867147
 40
0.9682427364
 40
0.9754925377
 40
0.9821978601
 40
0.9884413312
 40
0.9914242192
 40
0.9943335396
 40
0.9971861413
 40
1.0
 40
1.0
 40
1.0
 40
1.0
 10
11.3460974477
 20
6.35716173
 30
0.0
 10
11.3446947959
 20
6.3558068723
 30
0.0
 10
11.3416428736
 20
6.3531199465
 30
0.0
 10
11.336580212
 20
6.3493002377
 30
0.0
 10
11.3308665965
 20
6.3455438365
 30
0.0
 10
11.3245137904
 20
6.3418578472
 30
0.0
 10
11.3175334424
 20
6.3382489798
 30
0.0
 10
11.3099388763
 20
6.3347239026
 30
0.0
 10
11.3017447142
 20
6.3312895598
 30
0.0
 10
11.2929669498
 20
6.3279528754
 30
0.0
 10
11.2836228208
 20
6.3247202565
 30
0.0
 10
11.2737306639
 20
6.3215984155
 30
0.0
 10
11.2633100372
 20
6.3185932682
 30
0.0
 10
11.2523815241
 20
6.3157111912
 30
0.0
 10
11.2409668071
 20
6.3129576129
 30
0.0
 10
11.2290885177
 20
6.3103383681
 30
0.0
 10
11.2167702337
 20
6.3078584134
 30
0.0
 10
11.1995619203
 20
6.3047024462
 30
0.0
 10
11.1771300483
 20
6.3011593039
 30
0.0
 10
11.149215606
 20
6.2975877971
 30
0.0
 10
11.1201787463
 20
6.2946711108
 30
0.0
 10
11.0902503184
 20
6.292432835
 30
0.0
 10
11.0596680753
 20
6.2908911334
 30
0.0
 10
11.0286751651
 20
6.2900584839
 30
0.0
 10
10.9975180277
 20
6.2899416268
 30
0.0
 10
10.9664444372
 20
6.2905415067
 30
0.0
 10
10.9357014821
 20
6.2918532654
 30
0.0
 10
10.9055336033
 20
6.2938662889
 30
0.0
 10
10.876180494
 20
6.2965642363
 30
0.0
 10
10.8478755609
 20
6.2999253284
 30
0.0
 10
10.8250711954
 20
6.3032967274
 30
0.0
 10
10.807529457
 20
6.3063197645
 30
0.0
 10
10.7949375566
 20
6.3087060388
 30
0.0
 10
10.7827698055
 20
6.3112351364
 30
0.0
 10
10.7710503483
 20
6.3139017262
 30
0.0
 10
10.759802464
 20
6.3167007448
 30
0.0
 10
10.7490484465
 20
6.3196263334
 30
0.0
 10
10.7388096025
 20
6.3226728162
 30
0.0
 10
10.72910617
 20
6.3258339944
 30
0.0
 10
10.7199572732
 20
6.3291035514
 30
0.0
 10
10.7113809197
 20
6.3324750818
 30
0.0
 10
10.7033938236
 20
6.3359416819
 30
0.0
 10
10.6960115966
 20
6.3394968633
 30
0.0
 10
10.6892483143
 20
6.3431333233
 30
0.0
 10
10.6831170301
 20
6.3468446503
 30
0.0
 10
10.6776290335
 20
6.3506235779
 30
0.0
 10
10.6727947465
 20
6.3544641098
 30
0.0
 10
10.66862296
 20
6.3583597739
 30
0.0
 10
10.6651219879
 20
6.36230581
 30
0.0
 10
10.6623000139
 20
6.36629655
 30
0.0
 10
10.6604942328
 20
6.3697083216
 30
0.0
 10
10.6594206097
 20
6.372437237
 30
0.0
 10
10.6588015141
 20
6.3744581718
 30
0.0
 10
10.6583571482
 20
6.3764827258
 30
0.0
 10
10.6581768539
 20
6.377840867
 30
0.0
 10
10.6581165464
 20
6.3785175576
 30
0.0
  0
SPLINE
  5
3A9
100
AcDbEntity
  8
0
100
AcDbSpline
 62
7
  6
CONTINUOUS
 70
0
 71
3
 72
34
 73
30
 74
0
 42
0.0000001
 43
0.0000001
 44
0.0000000001
 40
0.0
 40
0.0
 40
0.0
 40
0.0
 40
0.0242183913
 40
0.0497188724
 40
0.0764429415
 40
0.1043266073
 40
0.1332997028
 40
0.1632877224
 40
0.194211458
 40
0.2259879885
 40
0.2585310136
 40
0.291751042
 40
0.3255562719
 40
0.359852367
 40
0.4295301221
 40
0.5000028609
 40
0.5704755295
 40
0.6401530815
 40
0.7082521006
 40
0.7414719681
 40
0.7740147527
 40
0.8057910021
 40
0.8367145228
 40
0.8667021234
 40
0.8956750187
 40
0.9235581723
 40
0.9502820018
 40
0.975781973
 40
1.0
 40
1.0
 40
1.0
 40
1.0
 10
11.2778722813
 20
6.3441685752
 30
0.0
 10
11.2736698745
 20
6.3428517966
 30
0.0
 10
11.2649979518
 20
6.3402895174
 30
0.0
 10
11.251558588
 20
6.336733019
 30
0.0
 10
11.2373831696
 20
6.3333720432
 30
0.0
 10
11.222514524
 20
6.3302172317
 30
0.0
 10
11.2069974143
 20
6.3272779362
 30
0.0
 10
11.1908786713
 20
6.3245633342
 30
0.0
 10
11.1742069544
 20
6.322081615
 30
0.0
 10
11.1570326364
 20
6.3198403495
 30
0.0
 10
11.1394076152
 20
6.3178464728
 30
0.0
 10
11.1213851866
 20
6.3161059002
 30
0.0
 10
11.1030198063
 20
6.3146241211
 30
0.0
 10
11.0780185289
 20
6.3129908361
 30
0.0
 10
11.0463212794
 20
6.3116322811
 30
0.0
 10
11.0080203812
 20
6.3110893653
 30
0.0
 10
10.9697192575
 20
6.3116324071
 30
0.0
 10
10.9318807956
 20
6.313254683
 30
0.0
 10
10.9008631016
 20
6.3155070678
 30
0.0
 10
10.876633503
 20
6.3178470214
 30
0.0
 10
10.8590085942
 20
6.3198410345
 30
0.0
 10
10.84183443
 20
6.3220823833
 30
0.0
 10
10.8251628815
 20
6.3245641219
 30
0.0
 10
10.8090443218
 20
6.3272788921
 30
0.0
 10
10.7935274109
 20
6.3302181353
 30
0.0
 10
10.7786589858
 20
6.3333731498
 30
0.0
 10
10.7644837871
 20
6.3367340598
 30
0.0
 10
10.7510446809
 20
6.3402907381
 30
0.0
 10
10.7423729077
 20
6.3428529631
 30
0.0
 10
10.7381705864
 20
6.3441697929
 30
0.0
  0
SPLINE
  5
3AA
100
AcDbEntity
  8
0
100
AcDbSpline
 62
7
  6
CONTINUOUS
 70
0
 71
3
 72
36
 73
32
 74
0
 42
0.0000001
 43
0.0000001
 44
0.0000000001
 40
0.0
 40
0.0
 40
0.0
 40
0.0
 40
0.0958308279
 40
0.1891037096
 40
0.2792433466
 40
0.3657131739
 40
0.4480023748
 40
0.4874326529
 40
0.5256452515
 40
0.5625891533
 40
0.5982163879
 40
0.6324828781
 40
0.6653490496
 40
0.6967793156
 40
0.7267443607
 40
0.7552196158
 40
0.7821885848
 40
0.8076416151
 40
0.8315792201
 40
0.8540127088
 40
0.8749669505
 40
0.8944839606
 40
0.912625593
 40
0.9294802796
 40
0.9451666555
 40
0.9598414677
 40
0.9737024546
 40
0.9804059317
 40
0.9869994498
 40
0.9935185139
 40
1.0
 40
1.0
 40
1.0
 40
1.0
 10
10.9113545549
 20
6.3210397231
 30
0.0
 10
10.9016265447
 20
6.3217143629
 30
0.0
 10
10.8824442148
 20
6.3232596252
 30
0.0
 10
10.8541803165
 20
6.3262091855
 30
0.0
 10
10.8269433883
 20
6.3297440277
 30
0.0
 10
10.8009158356
 20
6.3338399089
 30
0.0
 10
10.7800915448
 20
6.3377510439
 30
0.0
 10
10.7641767949
 20
6.341155273
 30
0.0
 10
10.7528187967
 20
6.3437943315
 30
0.0
 10
10.7418874045
 20
6.346551016
 30
0.0
 10
10.7314008124
 20
6.3494207766
 30
0.0
 10
10.7213764913
 20
6.3523988286
 30
0.0
 10
10.711831082
 20
6.3554800242
 30
0.0
 10
10.7027804626
 20
6.3586594288
 30
0.0
 10
10.6942395584
 20
6.36193142
 30
0.0
 10
10.6862225241
 20
6.3652908651
 30
0.0
 10
10.6787424493
 20
6.3687318787
 30
0.0
 10
10.6718116029
 20
6.3722490514
 30
0.0
 10
10.6654411668
 20
6.3758365278
 30
0.0
 10
10.6596413458
 20
6.3794886403
 30
0.0
 10
10.6544214172
 20
6.3831999018
 30
0.0
 10
10.6497894425
 20
6.3869646532
 30
0.0
 10
10.6457530278
 20
6.3907781802
 30
0.0
 10
10.6423185379
 20
6.3946353514
 30
0.0
 10
10.6394928055
 20
6.3985325673
 30
0.0
 10
10.6372822768
 20
6.4024645974
 30
0.0
 10
10.6359443672
 20
6.4058051717
 30
0.0
 10
10.6352041926
 20
6.4084699868
 30
0.0
 10
10.6348115401
 20
6.4104498744
 30
0.0
 10
10.6345758131
 20
6.4124316386
 30
0.0
 10
10.6345234014
 20
6.4137551205
 30
0.0
 10
10.6345234227
 20
6.4144146516
 30
0.0
  0
SPLINE
  5
3AB
100
AcDbEntity
  8
0
100
AcDbSpline
 62
7
  6
CONTINUOUS
 70
0
 71
3
 72
31
 73
27
 74
0
 42
0.0000001
 43
0.0000001
 44
0.0000000001
 40
0.0
 40
0.0
 40
0.0
 40
0.0
 40
0.0151160009
 40
0.0315536571
 40
0.0493524405
 40
0.0685350666
 40
0.0891070741
 40
0.1110608331
 40
0.1343780618
 40
0.159032454
 40
0.1849895212
 40
0.2122090027
 40
0.2406442675
 40
0.2702444316
 40
0.3009533817
 40
0.3327116873
 40
0.3654556258
 40
0.3991187912
 40
0.4689189602
 40
0.5415271014
 40
0.6163219044
 40
0.6926565501
 40
0.7698664034
 40
0.8472773959
 40
0.9242119047
 40
1.0
 40
1.0
 40
1.0
 40
1.0
 10
11.3666557925
 20
6.3874117797
 30
0.0
 10
11.3648977715
 20
6.3858477917
 30
0.0
 10
11.3610753206
 20
6.3827526585
 30
0.0
 10
11.3547546728
 20
6.3783761676
 30
0.0
 10
11.3476263763
 20
6.374084776
 30
0.0
 10
11.3397068242
 20
6.3698881056
 30
0.0
 10
11.3310133123
 20
6.3657949609
 30
0.0
 10
11.3215654358
 20
6.3618150053
 30
0.0
 10
11.311384837
 20
6.3579572287
 30
0.0
 10
11.3004948815
 20
6.3542308853
 30
0.0
 10
11.2889207712
 20
6.3506444405
 30
0.0
 10
11.2766893258
 20
6.3472066476
 30
0.0
 10
11.2638290313
 20
6.3439253151
 30
0.0
 10
11.2503698449
 20
6.3408084873
 30
0.0
 10
11.23634319
 20
6.3378632312
 30
0.0
 10
11.2217818409
 20
6.3350967885
 30
0.0
 10
11.206719815
 20
6.3325153874
 30
0.0
 10
11.1857631536
 20
6.3292899014
 30
0.0
 10
11.1585755833
 20
6.3257829366
 30
0.0
 10
11.1249256924
 20
6.3224446565
 30
0.0
 10
11.0901823481
 20
6.3199595154
 30
0.0
 10
11.0546706198
 20
6.3183511994
 30
0.0
 10
11.0187225056
 20
6.3176350825
 30
0.0
 10
10.9826743068
 20
6.3178180397
 30
0.0
 10
10.9468634511
 20
6.3188982573
 30
0.0
 10
10.9231237721
 20
6.3202235251
 30
0.0
 10
10.9113545549
 20
6.3210397231
 30
0.0
  0
SPLINE
  5
3AC
100
AcDbEntity
  8
0
100
AcDbSpline
 62
7
  6
CONTINUOUS
 70
0
 71
3
 72
20
 73
16
 74
0
 42
0.0000001
 43
0.0000001
 44
0.0000000001
 40
0.0
 40
0.0
 40
0.0
 40
0.0
 40
0.1506252674
 40
0.2893825515
 40
0.4178879263
 40
0.4790069488
 40
0.5384370555
 40
0.5965375294
 40
0.6536954755
 40
0.7103184456
 40
0.7668261669
 40
0.8236415562
 40
0.8811807033
 40
0.9398422001
 40
1.0
 40
1.0
 40
1.0
 40
1.0
 10
11.3538248548
 20
6.3488984254
 30
0.0
 10
11.3552003578
 20
6.3502270594
 30
0.0
 10
11.3577324518
 20
6.3528993707
 30
0.0
 10
11.3609478346
 20
6.3571340573
 30
0.0
 10
11.363029381
 20
6.3607639691
 30
0.0
 10
11.3642829582
 20
6.3636700181
 30
0.0
 10
11.3650150059
 20
6.3658195415
 30
0.0
 10
11.3655535459
 20
6.3679738263
 30
0.0
 10
11.3658981019
 20
6.3701315799
 30
0.0
 10
11.366048387
 20
6.3722913007
 30
0.0
 10
11.3660042096
 20
6.3744514677
 30
0.0
 10
11.3657654718
 20
6.3766105066
 30
0.0
 10
11.3653323832
 20
6.3787669115
 30
0.0
 10
11.3647056805
 20
6.3809191284
 30
0.0
 10
11.3641668951
 20
6.3823301944
 30
0.0
 10
11.3638676044
 20
6.3830329018
 30
0.0
  0
SPLINE
  5
3AD
100
AcDbEntity
  8
0
100
AcDbSpline
 62
7
  6
CONTINUOUS
 70
0
 71
3
 72
32
 73
28
 74
0
 42
0.0000001
 43
0.0000001
 44
0.0000000001
 40
0.0
 40
0.0
 40
0.0
 40
0.0
 40
0.0148673209
 40
0.0310579336
 40
0.0486193736
 40
0.0675778765
 40
0.0879417546
 40
0.1097061927
 40
0.1328546589
 40
0.1573617744
 40
0.1831938422
 40
0.2103107332
 40
0.2386661435
 40
0.2682086856
 40
0.2988821317
 40
0.3306261478
 40
0.3633766251
 40
0.3970659691
 40
0.4316235585
 40
0.4669759254
 40
0.5397575737
 40
0.61478107
 40
0.6913879507
 40
0.7689010976
 40
0.8466333633
 40
0.9238942204
 40
1.0
 40
1.0
 40
1.0
 40
1.0
 10
11.3678653479
 20
6.2928854629
 30
0.0
 10
11.3661652279
 20
6.2913033157
 30
0.0
 10
11.3624509636
 20
6.2881708763
 30
0.0
 10
11.3562733513
 20
6.2837426916
 30
0.0
 10
11.3492724852
 20
6.2793984634
 30
0.0
 10
11.3414644285
 20
6.2751483747
 30
0.0
 10
11.3328666328
 20
6.2710014025
 30
0.0
 10
11.3234987231
 20
6.2669674115
 30
0.0
 10
11.3133823824
 20
6.2630556229
 30
0.0
 10
11.3025411594
 20
6.2592754838
 30
0.0
 10
11.2910004933
 20
6.2556358626
 30
0.0
 10
11.2787875403
 20
6.2521455696
 30
0.0
 10
11.2659311346
 20
6.2488128894
 30
0.0
 10
11.2524616924
 20
6.2456458538
 30
0.0
 10
11.2384111273
 20
6.24265204
 30
0.0
 10
11.2238127684
 20
6.2398386207
 30
0.0
 10
11.2087012563
 20
6.2372123673
 30
0.0
 10
11.1931124943
 20
6.2347795322
 30
0.0
 10
11.1770834919
 20
6.2325459716
 30
0.0
 10
11.1549610126
 20
6.2298143625
 30
0.0
 10
11.1264894946
 20
6.2269497868
 30
0.0
 10
11.0915223429
 20
6.224409224
 30
0.0
 10
11.0557620618
 20
6.2227581487
 30
0.0
 10
11.0195484383
 20
6.2220124754
 30
0.0
 10
10.983225307
 20
6.2221794928
 30
0.0
 10
10.9471379476
 20
6.2232575263
 30
0.0
 10
10.9232144909
 20
6.2245905713
 30
0.0
 10
10.9113545549
 20
6.2254130606
 30
0.0
  0
SPLINE
  5
3AE
100
AcDbEntity
  8
0
100
AcDbSpline
 62
7
  6
CONTINUOUS
 70
0
 71
3
 72
15
 73
11
 74
0
 42
0.0000001
 43
0.0000001
 44
0.0000000001
 40
0.0
 40
0.0
 40
0.0
 40
0.0
 40
0.1465292552
 40
0.2855335305
 40
0.4175356066
 40
0.5431736906
 40
0.6632389378
 40
0.7786687242
 40
0.8905287005
 40
1.0
 40
1.0
 40
1.0
 40
1.0
 10
11.3460974477
 20
6.35716173
 30
0.0
 10
11.3469658836
 20
6.3580005747
 30
0.0
 10
11.3486117837
 20
6.3596843448
 30
0.0
 10
11.3508522328
 20
6.362298857
 30
0.0
 10
11.352794789
 20
6.3649313114
 30
0.0
 10
11.3544367319
 20
6.3675796588
 30
0.0
 10
11.3557759852
 20
6.3702417791
 30
0.0
 10
11.3568108448
 20
6.3729156322
 30
0.0
 10
11.3575393309
 20
6.3755984639
 30
0.0
 10
11.3578217134
 20
6.3774048245
 30
0.0
 10
11.3579099755
 20
6.3783025471
 30
0.0
  0
SPLINE
  5
3AF
100
AcDbEntity
  8
0
100
AcDbSpline
 62
7
  6
CONTINUOUS
 70
0
 71
3
 72
11
 73
7
 74
0
 42
0.0000001
 43
0.0000001
 44
0.0000000001
 40
0.0
 40
0.0
 40
0.0
 40
0.0
 40
0.2644484248
 40
0.5166924636
 40
0.760692632
 40
1.0
 40
1.0
 40
1.0
 40
1.0
 10
11.4051849809
 20
6.7098435683
 30
0.0
 10
11.4026384206
 20
6.7085867606
 30
0.0
 10
11.3975233008
 20
6.7064000775
 30
0.0
 10
11.3896705274
 20
6.7040842472
 30
0.0
 10
11.3818677838
 20
6.7027500934
 30
0.0
 10
11.3766739533
 20
6.7024575948
 30
0.0
 10
11.3741041375
 20
6.7024484502
 30
0.0
  0
SPLINE
  5
3B0
100
AcDbEntity
  8
0
100
AcDbSpline
 62
7
  6
CONTINUOUS
 70
0
 71
3
 72
9
 73
5
 74
0
 42
0.0000001
 43
0.0000001
 44
0.0000000001
 40
0.0
 40
0.0
 40
0.0
 40
0.0
 40
0.494694701
 40
1.0
 40
1.0
 40
1.0
 40
1.0
 10
11.3815233542
 20
6.4144146516
 30
0.0
 10
11.3815233128
 20
6.4131349169
 30
0.0
 10
11.3813229992
 20
6.4105442798
 30
0.0
 10
11.380735343
 20
6.4080144383
 30
0.0
 10
11.3803520463
 20
6.4067647135
 30
0.0
  0
SPLINE
  5
3B1
100
AcDbEntity
  8
0
100
AcDbSpline
 62
7
  6
CONTINUOUS
 70
0
 71
3
 72
11
 73
7
 74
0
 42
0.0000001
 43
0.0000001
 44
0.0000000001
 40
0.0
 40
0.0
 40
0.0
 40
0.0
 40
0.2240157223
 40
0.4629236323
 40
0.7206270888
 40
1.0
 40
1.0
 40
1.0
 40
1.0
 10
11.3803520463
 20
6.4067647135
 30
0.0
 10
11.3798907073
 20
6.4052605344
 30
0.0
 10
11.3786758151
 20
6.4022281401
 30
0.0
 10
11.3761247348
 20
6.3978401434
 30
0.0
 10
11.3728093207
 20
6.3934993485
 30
0.0
 10
11.3702079759
 20
6.3907581192
 30
0.0
 10
11.368796706
 20
6.389394937
 30
0.0
  0
SPLINE
  5
3B2
100
AcDbEntity
  8
0
100
AcDbSpline
 62
7
  6
CONTINUOUS
 70
0
 71
3
 72
19
 73
15
 74
0
 42
0.0000001
 43
0.0000001
 44
0.0000000001
 40
0.0
 40
0.0
 40
0.0
 40
0.0
 40
0.150460937
 40
0.2916987357
 40
0.424419542
 40
0.4878837275
 40
0.5495802504
 40
0.6682271673
 40
0.7255606103
 40
0.7817998831
 40
0.8371466721
 40
0.8918135967
 40
0.94602219
 40
1.0
 40
1.0
 40
1.0
 40
1.0
 10
12.2154307429
 20
8.9695901284
 30
0.0
 10
12.216773614
 20
8.9708872424
 30
0.0
 10
12.2194575094
 20
8.9733209973
 30
0.0
 10
12.2236132622
 20
8.9765642549
 30
0.0
 10
12.2271234495
 20
8.9788580671
 30
0.0
 10
12.2299225994
 20
8.9804113706
 30
0.0
 10
12.2326391698
 20
8.9817449149
 30
0.0
 10
12.2353875467
 20
8.9828349675
 30
0.0
 10
12.2381513861
 20
8.9836552371
 30
0.0
 10
12.2401948935
 20
8.9841280454
 30
0.0
 10
12.2422315983
 20
8.9844650418
 30
0.0
 10
12.2442609624
 20
8.9846660596
 30
0.0
 10
12.2462821655
 20
8.9847310209
 30
0.0
 10
12.2476249954
 20
8.9846835303
 30
0.0
 10
12.2482931875
 20
8.9846371909
 30
0.0
  0
SPLINE
  5
3B3
100
AcDbEntity
  8
0
100
AcDbSpline
 62
7
  6
CONTINUOUS
 70
0
 71
3
 72
64
 73
60
 74
0
 42
0.0000001
 43
0.0000001
 44
0.0000000001
 40
0.0
 40
0.0
 40
0.0
 40
0.0
 40
0.0155533866
 40
0.031146056
 40
0.0467767359
 40
0.0624452035
 40
0.0781504069
 40
0.0938912695
 40
0.1096665304
 40
0.1254747334
 40
0.1413142672
 40
0.1571833591
 40
0.1730800895
 40
0.1890024028
 40
0.2049481162
 40
0.2209149313
 40
0.2528974639
 40
0.2849345011
 40
0.3170047447
 40
0.3490862569
 40
0.3811568808
 40
0.413194671
 40
0.4451783152
 40
0.4611458137
 40
0.477092291
 40
0.4930154454
 40
0.5089130906
 40
0.5247831655
 40
0.5406237453
 40
0.5564330534
 40
0.5722094703
 40
0.5879515419
 40
0.6036579881
 40
0.6193277119
 40
0.6349598055
 40
0.6505535557
 40
0.6661084489
 40
0.6816241768
 40
0.6971006389
 40
0.7125379442
 40
0.7279364114
 40
0.7432965706
 40
0.7586191617
 40
0.7739051311
 40
0.7891556272
 40
0.8043719973
 40
0.8195557811
 40
0.8347087025
 40
0.8498326605
 40
0.8649297204
 40
0.8800021032
 40
0.8950521728
 40
0.9100824222
 40
0.9250954606
 40
0.9400939986
 40
0.9550808324
 40
0.9700588267
 40
0.9850308984
 40
1.0
 40
1.0
 40
1.0
 40
1.0
 10
10.8382382303
 20
10.6212293495
 30
0.0
 10
10.8470736339
 20
10.6206166122
 30
0.0
 10
10.8647460702
 20
10.6190672457
 30
0.0
 10
10.8911844732
 20
10.6157818351
 30
0.0
 10
10.91755247
 20
10.6115362427
 30
0.0
 10
10.9438141747
 20
10.6063363696
 30
0.0
 10
10.9699348307
 20
10.6001890307
 30
0.0
 10
10.9958794735
 20
10.5931025055
 30
0.0
 10
11.0216134952
 20
10.585086278
 30
0.0
 10
11.0471025444
 20
10.5761510527
 30
0.0
 10
11.0723125913
 20
10.566308752
 30
0.0
 10
11.0972099858
 20
10.5555725439
 30
0.0
 10
11.1217615261
 20
10.5439567646
 30
0.0
 10
11.1459343535
 20
10.531476992
 30
0.0
 10
11.1696965328
 20
10.5181496293
 30
0.0
 10
11.2008030352
 20
10.4992654887
 30
0.0
 10
11.2384986781
 20
10.4736310996
 30
0.0
 10
11.2815660102
 20
10.4398127039
 30
0.0
 10
11.3222685443
 20
10.4030963133
 30
0.0
 10
11.3603877787
 20
10.3636785932
 30
0.0
 10
11.395721209
 20
10.3217690611
 30
0.0
 10
11.4280794751
 20
10.2775925819
 30
0.0
 10
11.4524383958
 20
10.2390587239
 30
0.0
 10
11.4702714767
 20
10.2073362949
 30
0.0
 10
11.4827966727
 20
10.1831402171
 30
0.0
 10
11.4944611318
 20
10.1585620008
 30
0.0
 10
11.5052495101
 20
10.1336341042
 30
0.0
 10
11.5151473236
 20
10.1083898858
 30
0.0
 10
11.524141351
 20
10.0828630106
 30
0.0
 10
11.5322195914
 20
10.0570875655
 30
0.0
 10
11.5393712532
 20
10.0310979532
 30
0.0
 10
11.5455867655
 20
10.004928863
 30
0.0
 10
11.5508577973
 20
9.9786152239
 30
0.0
 10
11.5551773178
 20
9.9521921676
 30
0.0
 10
11.5585395492
 20
9.9256949681
 30
0.0
 10
11.5609399777
 20
9.8991589987
 30
0.0
 10
11.5623753584
 20
9.8726196867
 30
0.0
 10
11.5628437772
 20
9.846112469
 30
0.0
 10
11.562344597
 20
9.8196727384
 30
0.0
 10
11.5608784592
 20
9.7933357998
 30
0.0
 10
11.5584472781
 20
9.7671368267
 30
0.0
 10
11.5550542991
 20
9.7411108069
 30
0.0
 10
11.5507040434
 20
9.7152924984
 30
0.0
 10
11.5454022969
 20
9.6897163859
 30
0.0
 10
11.5391560977
 20
9.6644166391
 30
0.0
 10
11.5319737845
 20
9.6394270526
 30
0.0
 10
11.5238649446
 20
9.614781007
 30
0.0
 10
11.5148403895
 20
9.5905114301
 30
0.0
 10
11.5049121359
 20
9.566650758
 30
0.0
 10
11.4940934419
 20
9.5432308705
 30
0.0
 10
11.4823987606
 20
9.5202830555
 30
0.0
 10
11.469843702
 20
9.4978379785
 30
0.0
 10
11.456445009
 20
9.4759256454
 30
0.0
 10
11.4422205812
 20
9.4545753406
 30
0.0
 10
11.4271894247
 20
9.4338155798
 30
0.0
 10
11.4113716424
 20
9.4136741326
 30
0.0
 10
11.394788251
 20
9.3941778327
 30
0.0
 10
11.3774617739
 20
9.3753530987
 30
0.0
 10
11.365429533
 20
9.363266448
 30
0.0
 10
11.3592986725
 20
9.3573444851
 30
0.0
  0
SPLINE
  5
3B4
100
AcDbEntity
  8
0
100
AcDbSpline
 62
7
  6
CONTINUOUS
 70
0
 71
3
 72
13
 73
9
 74
0
 42
0.0000001
 43
0.0000001
 44
0.0000000001
 40
0.0
 40
0.0
 40
0.0
 40
0.0
 40
0.1251462154
 40
0.2503141957
 40
0.5005380083
 40
0.7504914793
 40
0.8753210193
 40
1.0
 40
1.0
 40
1.0
 40
1.0
 10
11.2106849982
 20
10.3081785514
 30
0.0
 10
11.2162352946
 20
10.3031363854
 30
0.0
 10
11.2271388616
 20
10.2928304103
 30
0.0
 10
11.2481089182
 20
10.2713799031
 30
0.0
 10
11.2726979278
 20
10.2430514259
 30
0.0
 10
11.2949599082
 20
10.2128848546
 30
0.0
 10
11.3112699965
 20
10.1877852756
 30
0.0
 10
11.3189139542
 20
10.1749312418
 30
0.0
 10
11.322603561
 20
10.168435324
 30
0.0
  0
SPLINE
  5
3B5
100
AcDbEntity
  8
0
100
AcDbSpline
 62
7
  6
CONTINUOUS
 70
0
 71
3
 72
29
 73
25
 74
0
 42
0.0000001
 43
0.0000001
 44
0.0000000001
 40
0.0
 40
0.0
 40
0.0
 40
0.0
 40
0.0642478435
 40
0.0963112034
 40
0.1283276822
 40
0.1922013927
 40
0.2558550626
 40
0.2875973441
 40
0.3192782467
 40
0.3824420747
 40
0.4453434483
 40
0.5079759507
 40
0.570337319
 40
0.6324295334
 40
0.6633804323
 40
0.6942667436
 40
0.7250899074
 40
0.7558516183
 40
0.8171906373
 40
0.8783102933
 40
0.9087987655
 40
0.93924099
 40
0.9696402457
 40
1.0
 40
1.0
 40
1.0
 40
1.0
 10
11.3304563555
 20
10.1541293516
 30
0.0
 10
11.3356152291
 20
10.1443979276
 30
0.0
 10
11.3429206433
 20
10.1295767909
 30
0.0
 10
11.3517592991
 20
10.1094280812
 30
0.0
 10
11.3599705821
 20
10.0890841169
 30
0.0
 10
11.3690685385
 20
10.063271962
 30
0.0
 10
11.3765862676
 20
10.0370046268
 30
0.0
 10
11.3816233575
 20
10.0158065675
 30
0.0
 10
11.3859971551
 20
9.9945476106
 30
0.0
 10
11.3902333051
 20
9.9678197353
 30
0.0
 10
11.393324961
 20
9.935598354
 30
0.0
 10
11.3944081473
 20
9.9033837329
 30
0.0
 10
11.3934784019
 20
9.8713036499
 30
0.0
 10
11.3910259836
 20
9.8447554801
 30
0.0
 10
11.3880624202
 20
9.8237144144
 30
0.0
 10
11.3853447884
 20
9.8080605774
 30
0.0
 10
11.3821325607
 20
9.7925338047
 30
0.0
 10
11.377199666
 20
9.7720427664
 30
0.0
 10
11.3698155692
 20
9.7468142997
 30
0.0
 10
11.3608184994
 20
9.7221645177
 30
0.0
 10
11.3526835326
 20
9.7028836388
 30
0.0
 10
11.3461241893
 20
9.6886634571
 30
0.0
 10
11.3391087856
 20
9.6746876936
 30
0.0
 10
11.3341291045
 20
9.6655363606
 30
0.0
 10
11.3315658142
 20
9.6610066245
 30
0.0
  0
SPLINE
  5
3B6
100
AcDbEntity
  8
0
100
AcDbSpline
 62
7
  6
CONTINUOUS
 70
0
 71
3
 72
28
 73
24
 74
0
 42
0.0000001
 43
0.0000001
 44
0.0000000001
 40
0.0
 40
0.0
 40
0.0
 40
0.0
 40
0.030824618
 40
0.0616521189
 40
0.0924853791
 40
0.1233272576
 40
0.1850426275
 40
0.2468260511
 40
0.2777527957
 40
0.3087045394
 40
0.3706875841
 40
0.4327999914
 40
0.4950596411
 40
0.5574828107
 40
0.620084013
 40
0.682875851
 40
0.7143492694
 40
0.7458741349
 40
0.8090768674
 40
0.8724956241
 40
0.9042896047
 40
0.9361393495
 40
1.0
 40
1.0
 40
1.0
 40
1.0
 10
10.3171777881
 20
10.4362253887
 30
0.0
 10
10.3213862472
 20
10.4402904525
 30
0.0
 10
10.3299132975
 20
10.4483082379
 30
0.0
 10
10.3430232201
 20
10.4599872488
 30
0.0
 10
10.3564449335
 20
10.4713120348
 30
0.0
 10
10.3747471659
 20
10.4859315405
 30
0.0
 10
10.3983676635
 20
10.503288584
 30
0.0
 10
10.4228976375
 20
10.519363727
 30
0.0
 10
10.4430328283
 20
10.5314342292
 30
0.0
 10
10.4635158937
 20
10.5429817545
 30
0.0
 10
10.4897242267
 20
10.5564057509
 30
0.0
 10
10.5220346537
 20
10.5708452936
 30
0.0
 10
10.5551409835
 20
10.5835881292
 30
0.0
 10
10.5889594173
 20
10.5946019376
 30
0.0
 10
10.6234043281
 20
10.6038590581
 30
0.0
 10
10.6525373211
 20
10.610085507
 30
0.0
 10
10.6760654076
 20
10.6141688615
 30
0.0
 10
10.6997680391
 20
10.6176566286
 30
0.0
 10
10.7296277981
 20
10.6208811808
 30
0.0
 10
10.7596638092
 20
10.6225826409
 30
0.0
 10
10.7837810054
 20
10.6230324526
 30
0.0
 10
10.8079852557
 20
10.6228733381
 30
0.0
 10
10.8261452187
 20
10.6220680027
 30
0.0
 10
10.8382382303
 20
10.6212293495
 30
0.0
  0
SPLINE
  5
3B7
100
AcDbEntity
  8
0
100
AcDbSpline
 62
7
  6
CONTINUOUS
 70
0
 71
3
 72
26
 73
22
 74
0
 42
0.0000001
 43
0.0000001
 44
0.0000000001
 40
0.0
 40
0.0
 40
0.0
 40
0.0
 40
0.0617145091
 40
0.0925808465
 40
0.123455023
 40
0.1852321547
 40
0.2470712743
 40
0.278022771
 40
0.3089970798
 40
0.371018404
 40
0.4331581145
 40
0.4954328844
 40
0.5578580487
 40
0.6204474627
 40
0.683213378
 40
0.7461663371
 40
0.8093150874
 40
0.872666514
 40
0.9044221874
 40
0.9362302295
 40
1.0
 40
1.0
 40
1.0
 40
1.0
 10
10.5114260758
 20
10.3200681036
 30
0.0
 10
10.5171109651
 20
10.3255592956
 30
0.0
 10
10.5258524616
 20
10.3335802759
 30
0.0
 10
10.5379054227
 20
10.3438152543
 30
0.0
 10
10.5502229518
 20
10.3537436076
 30
0.0
 10
10.5661002543
 20
10.3655652704
 30
0.0
 10
10.5825689789
 20
10.3765658879
 30
0.0
 10
10.5960777868
 20
10.3848608427
 30
0.0
 10
10.6098134459
 20
10.3928210808
 30
0.0
 10
10.6273793285
 20
10.4021249808
 30
0.0
 10
10.6490273061
 20
10.4122223038
 30
0.0
 10
10.6712050303
 20
10.4212347646
 30
0.0
 10
10.6938614058
 20
10.429141589
 30
0.0
 10
10.7169446837
 20
10.435924787
 30
0.0
 10
10.740402
 20
10.4415688753
 30
0.0
 10
10.7641797877
 20
10.446061005
 30
0.0
 10
10.7882233199
 20
10.4493909343
 30
0.0
 10
10.808420089
 20
10.4511896965
 30
0.0
 10
10.8246533213
 20
10.4520427003
 30
0.0
 10
10.8409556997
 20
10.4525049593
 30
0.0
 10
10.853202314
 20
10.4524093829
 30
0.0
 10
10.8613653057
 20
10.4521506787
 30
0.0
  0
SPLINE
  5
3B8
100
AcDbEntity
  8
0
100
AcDbSpline
 62
7
  6
CONTINUOUS
 70
0
 71
3
 72
23
 73
19
 74
0
 42
0.0000001
 43
0.0000001
 44
0.0000000001
 40
0.0
 40
0.0
 40
0.0
 40
0.0
 40
0.061405192
 40
0.122989191
 40
0.1847486063
 40
0.2466787932
 40
0.3087738947
 40
0.3710268917
 40
0.4334296599
 40
0.4959730388
 40
0.5586468971
 40
0.6214402192
 40
0.6843411663
 40
0.7473371398
 40
0.8104151271
 40
0.8735606904
 40
0.9367613519
 40
1.0
 40
1.0
 40
1.0
 40
1.0
 10
10.8868598191
 20
10.4507091128
 30
0.0
 10
10.8942078231
 20
10.4501111417
 30
0.0
 10
10.9089015597
 20
10.4485992283
 30
0.0
 10
10.9308562227
 20
10.4453957588
 30
0.0
 10
10.95271885
 20
10.4412590994
 30
0.0
 10
10.9744487356
 20
10.4361969286
 30
0.0
 10
10.9960060887
 20
10.4302185564
 30
0.0
 10
11.0173512552
 20
10.4233349887
 30
0.0
 10
11.0384450271
 20
10.4155589061
 30
0.0
 10
11.0592486461
 20
10.4069046228
 30
0.0
 10
11.0797238919
 20
10.3973880609
 30
0.0
 10
11.0998331462
 20
10.3870267201
 30
0.0
 10
11.1195394533
 20
10.3758396468
 30
0.0
 10
11.138806639
 20
10.3638474055
 30
0.0
 10
11.1575992105
 20
10.3510720745
 30
0.0
 10
11.1758829106
 20
10.3375370348
 30
0.0
 10
11.1936235697
 20
10.3232674837
 30
0.0
 10
11.2050652702
 20
10.3132837926
 30
0.0
 10
11.2106849982
 20
10.3081785514
 30
0.0
  0
SPLINE
  5
3B9
100
AcDbEntity
  8
0
100
AcDbSpline
 62
7
  6
CONTINUOUS
 70
0
 71
3
 72
85
 73
81
 74
0
 42
0.0000001
 43
0.0000001
 44
0.0000000001
 40
0.0
 40
0.0
 40
0.0
 40
0.0
 40
0.0027164321
 40
0.0054532385
 40
0.0082303085
 40
0.011066603
 40
0.0139798079
 40
0.0169861193
 40
0.0233311764
 40
0.0266975277
 40
0.0302054756
 40
0.033863392
 40
0.0376783486
 40
0.0416563264
 40
0.0458022472
 40
0.050120174
 40
0.0546133665
 40
0.0592843698
 40
0.0641351496
 40
0.0691670674
 40
0.0743810463
 40
0.0797775355
 40
0.0853565984
 40
0.0911179629
 40
0.0970609898
 40
0.1094877374
 40
0.1226269862
 40
0.1364646504
 40
0.1509834607
 40
0.1661633573
 40
0.1819818055
 40
0.1984140483
 40
0.2154333259
 40
0.233011069
 40
0.2511170619
 40
0.2697195894
 40
0.2887855696
 40
0.3082806737
 40
0.3281694478
 40
0.3484154285
 40
0.36898125
 40
0.3898287485
 40
0.4109190644
 40
0.4322127408
 40
0.4536698284
 40
0.4969118802
 40
0.5403202169
 40
0.5835675225
 40
0.6050291933
 40
0.6263287434
 40
0.6474262089
 40
0.6682821161
 40
0.6888575847
 40
0.7091144272
 40
0.7290152501
 40
0.748523559
 40
0.7676038654
 40
0.7862218038
 40
0.8043442504
 40
0.821939444
 40
0.838977118
 40
0.8554286471
 40
0.8712672105
 40
0.8864679851
 40
0.9010083612
 40
0.9148681946
 40
0.9280301198
 40
0.9404799413
 40
0.9464346146
 40
0.9522076736
 40
0.9577984609
 40
0.9632066809
 40
0.9684323855
 40
0.9734759888
 40
0.9783383641
 40
0.9830208263
 40
0.9875253632
 40
0.991854574
 40
0.996011563
 40
1.0
 40
1.0
 40
1.0
 40
1.0
 10
12.1825682983
 20
8.0369134765
 30
0.0
 10
12.1816817692
 20
8.0369749575
 30
0.0
 10
12.1799066034
 20
8.0371786392
 30
0.0
 10
12.1772664498
 20
8.037723619
 30
0.0
 10
12.1746462486
 20
8.0385080427
 30
0.0
 10
12.172047892
 20
8.0395310985
 30
0.0
 10
12.1694725954
 20
8.040791941
 30
0.0
 10
12.1660099275
 20
8.0428249302
 30
0.0
 10
12.1626580229
 20
8.0453137986
 30
0.0
 10
12.1594282784
 20
8.0481917584
 30
0.0
 10
12.1569865804
 20
8.0506254315
 30
0.0
 10
12.1545751317
 20
8.0532898995
 30
0.0
 10
12.1521946483
 20
8.0561840205
 30
0.0
 10
12.1498463536
 20
8.0593063228
 30
0.0
 10
12.1475312551
 20
8.0626552489
 30
0.0
 10
12.1452504779
 20
8.0662291639
 30
0.0
 10
12.1430051049
 20
8.070026307
 30
0.0
 10
12.1407961936
 20
8.0740447973
 30
0.0
 10
12.1386248662
 20
8.0782826696
 30
0.0
 10
12.1364921364
 20
8.0827378078
 30
0.0
 10
12.1343991015
 20
8.0874080184
 30
0.0
 10
12.132346776
 20
8.0922909734
 30
0.0
 10
12.1303361858
 20
8.0973842413
 30
0.0
 10
12.1283683391
 20
8.1026852966
 30
0.0
 10
12.125764041
 20
8.1101380876
 30
0.0
 10
12.1226322672
 20
8.1199610923
 30
0.0
 10
12.1191134393
 20
8.132364076
 30
0.0
 10
12.115787288
 20
8.1455270525
 30
0.0
 10
12.1126605469
 20
8.1594236728
 30
0.0
 10
12.1097395731
 20
8.1740262542
 30
0.0
 10
12.1070303099
 20
8.1893055861
 30
0.0
 10
12.1045382704
 20
8.2052310731
 30
0.0
 10
12.1022685246
 20
8.2217707841
 30
0.0
 10
12.1002256923
 20
8.2388915326
 30
0.0
 10
12.0984139321
 20
8.2565589478
 30
0.0
 10
12.0968369333
 20
8.2747375471
 30
0.0
 10
12.0954979096
 20
8.2933908078
 30
0.0
 10
12.0943995874
 20
8.3124812418
 30
0.0
 10
12.0935442041
 20
8.3319704738
 30
0.0
 10
12.0929335058
 20
8.351819322
 30
0.0
 10
12.0925687441
 20
8.3719878778
 30
0.0
 10
12.0924506716
 20
8.3924355892
 30
0.0
 10
12.0925795494
 20
8.4131213274
 30
0.0
 10
12.0929551103
 20
8.4340035258
 30
0.0
 10
12.0937859795
 20
8.462123601
 30
0.0
 10
12.0954357187
 20
8.4974548873
 30
0.0
 10
12.0983683154
 20
8.5398518905
 30
0.0
 10
12.101598935
 20
8.5750770531
 30
0.0
 10
12.104647873
 20
8.6030488626
 30
0.0
 10
12.1071513495
 20
8.6237896552
 30
0.0
 10
12.1098721989
 20
8.6443031496
 30
0.0
 10
12.1128049613
 20
8.6645481246
 30
0.0
 10
12.1159437144
 20
8.6844838623
 30
0.0
 10
12.1192821284
 20
8.7040702816
 30
0.0
 10
12.1228134679
 20
8.7232680041
 30
0.0
 10
12.1265306073
 20
8.7420384375
 30
0.0
 10
12.1304260459
 20
8.7603438534
 30
0.0
 10
12.1344919189
 20
8.778147468
 30
0.0
 10
12.138720013
 20
8.7954135183
 30
0.0
 10
12.1431017867
 20
8.8121073339
 30
0.0
 10
12.1476283868
 20
8.8281954079
 30
0.0
 10
12.1522906659
 20
8.8436454682
 30
0.0
 10
12.1570792039
 20
8.8584265461
 30
0.0
 10
12.1619843238
 20
8.8725090556
 30
0.0
 10
12.1669961143
 20
8.8858648391
 30
0.0
 10
12.1721044646
 20
8.8984673059
 30
0.0
 10
12.1772990733
 20
8.9102912378
 30
0.0
 10
12.1817547446
 20
8.9196096979
 30
0.0
 10
12.1853613775
 20
8.926649485
 30
0.0
 10
12.1880412038
 20
8.9316416764
 30
0.0
 10
12.1907347633
 20
8.9364223272
 30
0.0
 10
12.1934407207
 20
8.9409890664
 30
0.0
 10
12.1961577171
 20
8.9453396252
 30
0.0
 10
12.1988844313
 20
8.9494718218
 30
0.0
 10
12.201619456
 20
8.9533836218
 30
0.0
 10
12.2043614969
 20
8.9570730748
 30
0.0
 10
12.2071092104
 20
8.9605384
 30
0.0
 10
12.2098613225
 20
8.9637779042
 30
0.0
 10
12.212616357
 20
8.9667898285
 30
0.0
 10
12.2144922709
 20
8.968683634
 30
0.0
 10
12.2154307429
 20
8.9695901284
 30
0.0
  0
SPLINE
  5
3BA
100
AcDbEntity
  8
0
100
AcDbSpline
 62
7
  6
CONTINUOUS
 70
0
 71
3
 72
61
 73
57
 74
0
 42
0.0000001
 43
0.0000001
 44
0.0000000001
 40
0.0
 40
0.0
 40
0.0
 40
0.0
 40
0.0075207904
 40
0.0156241007
 40
0.0243309689
 40
0.0336547603
 40
0.0436025954
 40
0.0541765643
 40
0.0653746271
 40
0.0771912105
 40
0.08961776
 40
0.1026431866
 40
0.1162541224
 40
0.1304351787
 40
0.1451692134
 40
0.1604374622
 40
0.1762196584
 40
0.1924942253
 40
0.2092383649
 40
0.2264281143
 40
0.2440384956
 40
0.2620435953
 40
0.2804165963
 40
0.2991298957
 40
0.3374628296
 40
0.3768090534
 40
0.4169262264
 40
0.4575657766
 40
0.4984749676
 40
0.5393989304
 40
0.5800826787
 40
0.6202731264
 40
0.6597211135
 40
0.6981834743
 40
0.7169715328
 40
0.7354257875
 40
0.7535184594
 40
0.7712225432
 40
0.7885119167
 40
0.8053613716
 40
0.8217466988
 40
0.8376448326
 40
0.8530338991
 40
0.8678933099
 40
0.8822039526
 40
0.8959482935
 40
0.9091105101
 40
0.9216767558
 40
0.9336353927
 40
0.9449772332
 40
0.9556959738
 40
0.9657887367
 40
0.9752565375
 40
0.9841051853
 40
0.9923468797
 40
1.0
 40
1.0
 40
1.0
 40
1.0
 10
12.1560127654
 20
8.190477964
 30
0.0
 10
12.1549576626
 20
8.1917752705
 30
0.0
 10
12.1528787722
 20
8.1945634502
 30
0.0
 10
12.1499532445
 20
8.1991181028
 30
0.0
 10
12.1471112295
 20
8.2041899542
 30
0.0
 10
12.1443572645
 20
8.2097707118
 30
0.0
 10
12.1416954946
 20
8.2158516839
 30
0.0
 10
12.1391301953
 20
8.2224231197
 30
0.0
 10
12.136665555
 20
8.2294744345
 30
0.0
 10
12.1343056294
 20
8.2369941538
 30
0.0
 10
12.1320543277
 20
8.2449699765
 30
0.0
 10
12.1299154217
 20
8.2533888094
 30
0.0
 10
12.1278924898
 20
8.262236784
 30
0.0
 10
12.1259889087
 20
8.2714992882
 30
0.0
 10
12.1242078817
 20
8.2811610082
 30
0.0
 10
12.1225524043
 20
8.2912059487
 30
0.0
 10
12.1210252407
 20
8.3016174598
 30
0.0
 10
12.1196289592
 20
8.3123782769
 30
0.0
 10
12.1183659153
 20
8.3234705479
 30
0.0
 10
12.1172382158
 20
8.3348758585
 30
0.0
 10
12.116247753
 20
8.3465752725
 30
0.0
 10
12.1153962078
 20
8.3585493572
 30
0.0
 10
12.1146849828
 20
8.3707782388
 30
0.0
 10
12.1139193251
 20
8.3875300744
 30
0.0
 10
12.1133284405
 20
8.408956286
 30
0.0
 10
12.1131968551
 20
8.4351492336
 30
0.0
 10
12.1136384623
 20
8.4618516948
 30
0.0
 10
12.1146504314
 20
8.4888862889
 30
0.0
 10
12.1162261357
 20
8.5160735467
 30
0.0
 10
12.1183551584
 20
8.543232934
 30
0.0
 10
12.1210233235
 20
8.5701841072
 30
0.0
 10
12.1242128317
 20
8.5967481597
 30
0.0
 10
12.1279024029
 20
8.622748641
 30
0.0
 10
12.1313997947
 20
8.6439646674
 30
0.0
 10
12.1344355764
 20
8.6605214388
 30
0.0
 10
12.1368034181
 20
8.6725951456
 30
0.0
 10
12.1392760063
 20
8.6844017052
 30
0.0
 10
12.1418492452
 20
8.69592152
 30
0.0
 10
12.1445188261
 20
8.7071354596
 30
0.0
 10
12.1472802988
 20
8.7180249063
 30
0.0
 10
12.1501290685
 20
8.728571783
 30
0.0
 10
12.1530603695
 20
8.7387585963
 30
0.0
 10
12.1560693075
 20
8.748568456
 30
0.0
 10
12.1591508758
 20
8.7579851017
 30
0.0
 10
12.1622999231
 20
8.7669929475
 30
0.0
 10
12.1655111894
 20
8.7755771024
 30
0.0
 10
12.1687793361
 20
8.7837233886
 30
0.0
 10
12.1720989193
 20
8.7914183878
 30
0.0
 10
12.1754644128
 20
8.7986494672
 30
0.0
 10
12.1788702587
 20
8.8054047892
 30
0.0
 10
12.1823108546
 20
8.8116733593
 30
0.0
 10
12.1857805934
 20
8.8174450602
 30
0.0
 10
12.1892738699
 20
8.8227106041
 30
0.0
 10
12.1927853509
 20
8.8274618158
 30
0.0
 10
12.1963093833
 20
8.8316907959
 30
0.0
 10
12.1987520296
 20
8.8342501046
 30
0.0
 10
12.199975928
 20
8.8354322998
 30
0.0
  0
SPLINE
  5
3BB
100
AcDbEntity
  8
0
100
AcDbSpline
 62
7
  6
CONTINUOUS
 70
0
 71
3
 72
78
 73
74
 74
0
 42
0.0000001
 43
0.0000001
 44
0.0000000001
 40
0.0
 40
0.0
 40
0.0
 40
0.0
 40
0.0039883554
 40
0.0081453553
 40
0.0124746467
 40
0.0169792512
 40
0.0216617133
 40
0.0265240568
 40
0.0315676729
 40
0.0367933793
 40
0.047791777
 40
0.0595189865
 40
0.0719688206
 40
0.0851307713
 40
0.0989906392
 40
0.1135310421
 40
0.1287318425
 40
0.1445704447
 40
0.1610220068
 40
0.1780597051
 40
0.1956549308
 40
0.2137774227
 40
0.2323953998
 40
0.2514757371
 40
0.2709840836
 40
0.2908849487
 40
0.311141829
 40
0.3317173362
 40
0.3736700394
 40
0.4164306258
 40
0.4596780177
 40
0.5030864388
 40
0.5463285743
 40
0.5890787065
 40
0.6310158442
 40
0.65158171
 40
0.6718277262
 40
0.6917165359
 40
0.7112116803
 40
0.7302776962
 40
0.7488802549
 40
0.7669862863
 40
0.784564071
 40
0.8015833742
 40
0.8180156386
 40
0.8338341215
 40
0.849014056
 40
0.8635328876
 40
0.8773705748
 40
0.890509854
 40
0.9029366214
 40
0.9146404803
 40
0.9256153974
 40
0.9308293832
 40
0.9358613254
 40
0.940712094
 40
0.9453831192
 40
0.9498763187
 40
0.9541942438
 40
0.9583401856
 40
0.9623181598
 40
0.9661331256
 40
0.9697910534
 40
0.973299002
 40
0.9766653604
 40
0.9798998873
 40
0.9830138473
 40
0.9860201637
 40
0.9889333778
 40
0.9917696728
 40
0.9945467509
 40
0.9972835629
 40
1.0
 40
1.0
 40
1.0
 40
1.0
 10
12.1661685221
 20
8.2244139153
 30
0.0
 10
12.166761228
 20
8.2249864252
 30
0.0
 10
12.1679460003
 20
8.2261825032
 30
0.0
 10
12.1696860168
 20
8.2280847717
 30
0.0
 10
12.1714242235
 20
8.2301307848
 30
0.0
 10
12.1731596325
 20
8.2323194347
 30
0.0
 10
12.1748914512
 20
8.2346496158
 30
0.0
 10
12.1766188287
 20
8.2371202166
 30
0.0
 10
12.1783409566
 20
8.2397300283
 30
0.0
 10
12.1806687806
 20
8.2434574868
 30
0.0
 10
12.1835530215
 20
8.2484632361
 30
0.0
 10
12.1869229651
 20
8.2549044029
 30
0.0
 10
12.1902516831
 20
8.2618658079
 30
0.0
 10
12.1935324902
 20
8.2693336062
 30
0.0
 10
12.1967588127
 20
8.2772930467
 30
0.0
 10
12.1999241557
 20
8.2857282829
 30
0.0
 10
12.2030221289
 20
8.2946224981
 30
0.0
 10
12.2060464648
 20
8.3039579188
 30
0.0
 10
12.2089910617
 20
8.3137158519
 30
0.0
 10
12.2118499705
 20
8.3238767379
 30
0.0
 10
12.2146174082
 20
8.3344202001
 30
0.0
 10
12.2172877789
 20
8.3453250775
 30
0.0
 10
12.2198556977
 20
8.3565694676
 30
0.0
 10
12.2223159781
 20
8.3681307814
 30
0.0
 10
12.2246636461
 20
8.3799857924
 30
0.0
 10
12.2268939601
 20
8.392110668
 30
0.0
 10
12.2290024457
 20
8.4044810494
 30
0.0
 10
12.2316627045
 20
8.4213779694
 30
0.0
 10
12.2346474167
 20
8.4429288557
 30
0.0
 10
12.23766032
 20
8.4691975532
 30
0.0
 10
12.240102688
 20
8.4958274967
 30
0.0
 10
12.2419548669
 20
8.5226046631
 30
0.0
 10
12.2432019627
 20
8.5493140295
 30
0.0
 10
12.2438340208
 20
8.5757409278
 30
0.0
 10
12.2438443206
 20
8.59749015
 30
0.0
 10
12.2435352089
 20
8.6145849575
 30
0.0
 10
12.2431494902
 20
8.6271210846
 30
0.0
 10
12.2426092495
 20
8.6394300692
 30
0.0
 10
12.2419155737
 20
8.6514871863
 30
0.0
 10
12.241069874
 20
8.6632681923
 30
0.0
 10
12.2400738719
 20
8.6747494123
 30
0.0
 10
12.2389296037
 20
8.6859077814
 30
0.0
 10
12.2376393979
 20
8.6967208872
 30
0.0
 10
12.2362058706
 20
8.7071670181
 30
0.0
 10
12.2346319468
 20
8.7172252169
 30
0.0
 10
12.2329208351
 20
8.7268753226
 30
0.0
 10
12.2310760137
 20
8.7360980067
 30
0.0
 10
12.2291012262
 20
8.7448748227
 30
0.0
 10
12.2270004962
 20
8.7531882649
 30
0.0
 10
12.2247780865
 20
8.7610217809
 30
0.0
 10
12.2224384752
 20
8.7683598854
 30
0.0
 10
12.2199863635
 20
8.7751879658
 30
0.0
 10
12.2178177647
 20
8.7805296945
 30
0.0
 10
12.2160244825
 20
8.7845311745
 30
0.0
 10
12.2146774992
 20
8.7873449553
 30
0.0
 10
12.213306117
 20
8.7900214965
 30
0.0
 10
12.2119110283
 20
8.7925594959
 30
0.0
 10
12.210492897
 20
8.7949576914
 30
0.0
 10
12.2090523947
 20
8.7972148939
 30
0.0
 10
12.2075902442
 20
8.7993300138
 30
0.0
 10
12.206107095
 20
8.8013019877
 30
0.0
 10
12.2046036447
 20
8.8031298471
 30
0.0
 10
12.2030805958
 20
8.8048127002
 30
0.0
 10
12.2015385818
 20
8.8063496571
 30
0.0
 10
12.1999783099
 20
8.8077399447
 30
0.0
 10
12.19840045
 20
8.8089828071
 30
0.0
 10
12.1968056559
 20
8.8100774791
 30
0.0
 10
12.1951946732
 20
8.8110233167
 30
0.0
 10
12.1935682243
 20
8.8118196236
 30
0.0
 10
12.191927136
 20
8.81246575
 30
0.0
 10
12.1902722809
 20
8.8129611882
 30
0.0
 10
12.188604813
 20
8.8133053881
 30
0.0
 10
12.1874836541
 20
8.8134340107
 30
0.0
 10
12.1869237412
 20
8.813472843
 30
0.0
  0
SPLINE
  5
3BC
100
AcDbEntity
  8
0
100
AcDbSpline
 62
7
  6
CONTINUOUS
 70
0
 71
3
 72
27
 73
23
 74
0
 42
0.0000001
 43
0.0000001
 44
0.0000000001
 40
0.0
 40
0.0
 40
0.0
 40
0.0
 40
0.0638186118
 40
0.0956517271
 40
0.1274318138
 40
0.1908317103
 40
0.2540264214
 40
0.2855506926
 40
0.317025804
 40
0.3798276873
 40
0.4424456877
 40
0.5048905121
 40
0.5671745223
 40
0.6293116358
 40
0.6913171996
 40
0.722278264
 40
0.7532127786
 40
0.8150062881
 40
0.8767213896
 40
0.9075581011
 40
0.9383825819
 40
1.0
 40
1.0
 40
1.0
 40
1.0
 10
10.8806845198
 20
9.213340494
 30
0.0
 10
10.8921447295
 20
9.2125457257
 30
0.0
 10
10.909353218
 20
9.2117600997
 30
0.0
 10
10.9322921554
 20
9.2115336428
 30
0.0
 10
10.9551550183
 20
9.2118541106
 30
0.0
 10
10.9836394756
 20
9.2132778462
 30
0.0
 10
11.0119764905
 20
9.2160695518
 30
0.0
 10
11.0344885195
 20
9.2191193697
 30
0.0
 10
11.0568497229
 20
9.2227052957
 30
0.0
 10
11.0845650785
 20
9.2281976758
 30
0.0
 10
11.1173865981
 20
9.2363970144
 30
0.0
 10
11.1496739727
 20
9.2461817148
 30
0.0
 10
11.1813538139
 20
9.2575297136
 30
0.0
 10
11.2123541269
 20
9.2704151696
 30
0.0
 10
11.2375767905
 20
9.282416713
 30
0.0
 10
11.2573413267
 20
9.2927547871
 30
0.0
 10
11.2768053818
 20
9.3035697484
 30
0.0
 10
11.3005883914
 20
9.3179901898
 30
0.0
 10
11.3235952766
 20
9.3335878183
 30
0.0
 10
11.3414909896
 20
9.3467429453
 30
0.0
 10
11.3590321681
 20
9.3603377238
 30
0.0
 10
11.3717933325
 20
9.3710316933
 30
0.0
 10
11.3801102328
 20
9.3783699969
 30
0.0
  0
SPLINE
  5
3BD
100
AcDbEntity
  8
0
100
AcDbSpline
 62
7
  6
CONTINUOUS
 70
0
 71
3
 72
85
 73
81
 74
0
 42
0.0000001
 43
0.0000001
 44
0.0000000001
 40
0.0
 40
0.0
 40
0.0
 40
0.0
 40
0.0027164321
 40
0.0054532385
 40
0.0082303085
 40
0.011066603
 40
0.0139798079
 40
0.0169861193
 40
0.0233311764
 40
0.0266975277
 40
0.0302054756
 40
0.033863392
 40
0.0376783486
 40
0.0416563264
 40
0.0458022472
 40
0.050120174
 40
0.0546133665
 40
0.0592843698
 40
0.0641351496
 40
0.0691670674
 40
0.0743810463
 40
0.0797775355
 40
0.0853565984
 40
0.0911179629
 40
0.0970609898
 40
0.1094877374
 40
0.1226269862
 40
0.1364646504
 40
0.1509834607
 40
0.1661633573
 40
0.1819818055
 40
0.1984140483
 40
0.2154333259
 40
0.233011069
 40
0.2511170619
 40
0.2697195894
 40
0.2887855696
 40
0.3082806737
 40
0.3281694478
 40
0.3484154285
 40
0.36898125
 40
0.3898287485
 40
0.4109190644
 40
0.4322127408
 40
0.4536698284
 40
0.4969118802
 40
0.5403202169
 40
0.5835675225
 40
0.6050291933
 40
0.6263287434
 40
0.6474262089
 40
0.6682821161
 40
0.6888575847
 40
0.7091144272
 40
0.7290152501
 40
0.748523559
 40
0.7676038654
 40
0.7862218038
 40
0.8043442504
 40
0.821939444
 40
0.838977118
 40
0.8554286471
 40
0.8712672105
 40
0.8864679851
 40
0.9010083612
 40
0.9148681946
 40
0.9280301198
 40
0.9404799413
 40
0.9464346146
 40
0.9522076736
 40
0.9577984609
 40
0.9632066809
 40
0.9684323855
 40
0.9734759888
 40
0.9783383641
 40
0.9830208263
 40
0.9875253632
 40
0.991854574
 40
0.996011563
 40
1.0
 40
1.0
 40
1.0
 40
1.0
 10
12.2482931875
 20
8.9846371909
 30
0.0
 10
12.2491797165
 20
8.9845757099
 30
0.0
 10
12.2509548823
 20
8.9843720283
 30
0.0
 10
12.253595036
 20
8.9838270484
 30
0.0
 10
12.2562152371
 20
8.9830426248
 30
0.0
 10
12.2588135937
 20
8.982019569
 30
0.0
 10
12.2613888903
 20
8.9807587264
 30
0.0
 10
12.2648515583
 20
8.9787257372
 30
0.0
 10
12.2682034629
 20
8.9762368689
 30
0.0
 10
12.2714332074
 20
8.9733589091
 30
0.0
 10
12.2738749054
 20
8.9709252359
 30
0.0
 10
12.276286354
 20
8.9682607679
 30
0.0
 10
12.2786668375
 20
8.9653666469
 30
0.0
 10
12.2810151321
 20
8.9622443447
 30
0.0
 10
12.2833302306
 20
8.9588954186
 30
0.0
 10
12.2856110078
 20
8.9553215035
 30
0.0
 10
12.2878563808
 20
8.9515243604
 30
0.0
 10
12.2900652922
 20
8.9475058702
 30
0.0
 10
12.2922366195
 20
8.9432679978
 30
0.0
 10
12.2943693493
 20
8.9388128596
 30
0.0
 10
12.2964623842
 20
8.934142649
 30
0.0
 10
12.2985147098
 20
8.9292596941
 30
0.0
 10
12.3005252999
 20
8.9241664262
 30
0.0
 10
12.3024931466
 20
8.9188653708
 30
0.0
 10
12.3050974447
 20
8.9114125799
 30
0.0
 10
12.3082292185
 20
8.9015895751
 30
0.0
 10
12.3117480464
 20
8.8891865914
 30
0.0
 10
12.3150741977
 20
8.876023615
 30
0.0
 10
12.3182009388
 20
8.8621269947
 30
0.0
 10
12.3211219126
 20
8.8475244133
 30
0.0
 10
12.3238311758
 20
8.8322450813
 30
0.0
 10
12.3263232154
 20
8.8163195944
 30
0.0
 10
12.3285929611
 20
8.7997798834
 30
0.0
 10
12.3306357934
 20
8.7826591349
 30
0.0
 10
12.3324475537
 20
8.7649917196
 30
0.0
 10
12.3340245525
 20
8.7468131203
 30
0.0
 10
12.3353635761
 20
8.7281598596
 30
0.0
 10
12.3364618984
 20
8.7090694256
 30
0.0
 10
12.3373172816
 20
8.6895801937
 30
0.0
 10
12.3379279799
 20
8.6697313455
 30
0.0
 10
12.3382927417
 20
8.6495627897
 30
0.0
 10
12.3384108141
 20
8.6291150782
 30
0.0
 10
12.3382819363
 20
8.60842934
 30
0.0
 10
12.3379063754
 20
8.5875471416
 30
0.0
 10
12.3370755062
 20
8.5594270664
 30
0.0
 10
12.3354257671
 20
8.5240957802
 30
0.0
 10
12.3324931703
 20
8.481698777
 30
0.0
 10
12.3292625507
 20
8.4464736144
 30
0.0
 10
12.3262136127
 20
8.4185018048
 30
0.0
 10
12.3237101363
 20
8.3977610123
 30
0.0
 10
12.3209892868
 20
8.3772475178
 30
0.0
 10
12.3180565244
 20
8.3570025429
 30
0.0
 10
12.3149177713
 20
8.3370668052
 30
0.0
 10
12.3115793573
 20
8.3174803859
 30
0.0
 10
12.3080480179
 20
8.2982826633
 30
0.0
 10
12.3043308784
 20
8.27951223
 30
0.0
 10
12.3004354398
 20
8.261206814
 30
0.0
 10
12.2963695668
 20
8.2434031994
 30
0.0
 10
12.2921414728
 20
8.2261371492
 30
0.0
 10
12.287759699
 20
8.2094433336
 30
0.0
 10
12.2832330989
 20
8.1933552595
 30
0.0
 10
12.2785708198
 20
8.1779051993
 30
0.0
 10
12.2737822818
 20
8.1631241214
 30
0.0
 10
12.268877162
 20
8.1490416118
 30
0.0
 10
12.2638653714
 20
8.1356858283
 30
0.0
 10
12.2587570212
 20
8.1230833615
 30
0.0
 10
12.2535624125
 20
8.1112594297
 30
0.0
 10
12.2491067412
 20
8.1019409695
 30
0.0
 10
12.2455001082
 20
8.0949011825
 30
0.0
 10
12.242820282
 20
8.0899089911
 30
0.0
 10
12.2401267224
 20
8.0851283403
 30
0.0
 10
12.2374207651
 20
8.080561601
 30
0.0
 10
12.2347037686
 20
8.0762110422
 30
0.0
 10
12.2319770544
 20
8.0720788456
 30
0.0
 10
12.2292420298
 20
8.0681670457
 30
0.0
 10
12.2264999888
 20
8.0644775926
 30
0.0
 10
12.2237522754
 20
8.0610122675
 30
0.0
 10
12.2210001632
 20
8.0577727633
 30
0.0
 10
12.2182451287
 20
8.0547608389
 30
0.0
 10
12.2163692149
 20
8.0528670334
 30
0.0
 10
12.2154307429
 20
8.0519605391
 30
0.0
  0
SPLINE
  5
3BE
100
AcDbEntity
  8
0
100
AcDbSpline
 62
7
  6
CONTINUOUS
 70
0
 71
3
 72
59
 73
55
 74
0
 42
0.0000001
 43
0.0000001
 44
0.0000000001
 40
0.0
 40
0.0
 40
0.0
 40
0.0
 40
0.0155412851
 40
0.0311211974
 40
0.0467383691
 40
0.0623926625
 40
0.0780830812
 40
0.0938085819
 40
0.1095679789
 40
0.1253598867
 40
0.1570302942
 40
0.1888104957
 40
0.2206843636
 40
0.2526339946
 40
0.2846400576
 40
0.316682167
 40
0.3487392641
 40
0.3807900125
 40
0.4128131934
 40
0.4447881008
 40
0.4766949315
 40
0.5085151587
 40
0.5243897586
 40
0.5402365336
 40
0.5560536841
 40
0.5718395544
 40
0.5875926404
 40
0.6033115963
 40
0.6189952451
 40
0.6346425847
 40
0.6502527928
 40
0.6658252322
 40
0.6813594576
 40
0.6968552181
 40
0.7123124585
 40
0.727731322
 40
0.7431121526
 40
0.758455493
 40
0.7737620826
 40
0.7890328562
 40
0.8042689415
 40
0.8194716523
 40
0.8346424824
 40
0.8497831009
 40
0.8648953431
 40
0.8799812005
 40
0.8950428107
 40
0.9100824475
 40
0.9251025086
 40
0.940105501
 40
0.9550940281
 40
0.9700707762
 40
0.9850384988
 40
1.0
 40
1.0
 40
1.0
 40
1.0
 10
10.8806845198
 20
9.213340494
 30
0.0
 10
10.8720095615
 20
9.2139421044
 30
0.0
 10
10.8546580536
 20
9.2154575592
 30
0.0
 10
10.82869788
 20
9.2186576058
 30
0.0
 10
10.8028043314
 20
9.2227835023
 30
0.0
 10
10.7770114306
 20
9.2278297099
 30
0.0
 10
10.7513520301
 20
9.2337898599
 30
0.0
 10
10.7258593424
 20
9.240656168
 30
0.0
 10
10.7005657894
 20
9.2484199345
 30
0.0
 10
10.6671221131
 20
9.259964386
 30
0.0
 10
10.6259786517
 20
9.2765923044
 30
0.0
 10
10.5779719418
 20
9.2999259625
 30
0.0
 10
10.5315226416
 20
9.3265412069
 30
0.0
 10
10.4868709776
 20
9.3563004998
 30
0.0
 10
10.4442458791
 20
9.3890508573
 30
0.0
 10
10.4038664719
 20
9.4246238702
 30
0.0
 10
10.3659401371
 20
9.4628366233
 30
0.0
 10
10.3306618313
 20
9.5034928296
 30
0.0
 10
10.2982128408
 20
9.5463834094
 30
0.0
 10
10.26875994
 20
9.5912884954
 30
0.0
 10
10.2424551449
 20
9.6379757909
 30
0.0
 10
10.2232532062
 20
9.6782049285
 30
0.0
 10
10.20959686
 20
9.7110370517
 30
0.0
 10
10.200225254
 20
9.7359364223
 30
0.0
 10
10.1917296706
 20
9.7610954472
 30
0.0
 10
10.1841208493
 20
9.7864820973
 30
0.0
 10
10.1774086471
 20
9.8120636123
 30
0.0
 10
10.1716017336
 20
9.8378071039
 30
0.0
 10
10.1667075789
 20
9.8636794295
 30
0.0
 10
10.1627324811
 20
9.8896472923
 30
0.0
 10
10.1596815848
 20
9.9156772734
 30
0.0
 10
10.1575588582
 20
9.9417358716
 30
0.0
 10
10.1563670194
 20
9.9677895423
 30
0.0
 10
10.1561076135
 20
9.9938047505
 30
0.0
 10
10.1567810154
 20
10.0197480077
 30
0.0
 10
10.1583863842
 20
10.0455859136
 30
0.0
 10
10.160921642
 20
10.0712852059
 30
0.0
 10
10.164383544
 20
10.0968127978
 30
0.0
 10
10.1687676822
 20
10.1221358155
 30
0.0
 10
10.1740684171
 20
10.1472216517
 30
0.0
 10
10.1802789211
 20
10.1720380071
 30
0.0
 10
10.1873912226
 20
10.1965529216
 30
0.0
 10
10.1953962094
 20
10.2207348119
 30
0.0
 10
10.2042835613
 20
10.2445525395
 30
0.0
 10
10.2140418383
 20
10.2679754307
 30
0.0
 10
10.2246585042
 20
10.2909733071
 30
0.0
 10
10.2361199144
 20
10.3135165332
 30
0.0
 10
10.2484112897
 20
10.3355760824
 30
0.0
 10
10.2615168055
 20
10.3571235363
 30
0.0
 10
10.2754196209
 20
10.3781311264
 30
0.0
 10
10.290101808
 20
10.3985717617
 30
0.0
 10
10.3055445307
 20
10.4184192162
 30
0.0
 10
10.3217275622
 20
10.4376475705
 30
0.0
 10
10.332998393
 20
10.4500398653
 30
0.0
 10
10.3387490055
 20
10.4561234993
 30
0.0
  0
SPLINE
  5
3BF
100
AcDbEntity
  8
0
100
AcDbSpline
 62
7
  6
CONTINUOUS
 70
0
 71
3
 72
64
 73
60
 74
0
 42
0.0000001
 43
0.0000001
 44
0.0000000001
 40
0.0
 40
0.0
 40
0.0
 40
0.0
 40
0.0155533866
 40
0.031146056
 40
0.0467767359
 40
0.0624452035
 40
0.0781504069
 40
0.0938912695
 40
0.1096665304
 40
0.1254747334
 40
0.1413142672
 40
0.1571833591
 40
0.1730800895
 40
0.1890024028
 40
0.2049481162
 40
0.2209149313
 40
0.2528974639
 40
0.2849345011
 40
0.3170047447
 40
0.3490862569
 40
0.3811568808
 40
0.413194671
 40
0.4451783152
 40
0.4611458137
 40
0.477092291
 40
0.4930154454
 40
0.5089130906
 40
0.5247831655
 40
0.5406237453
 40
0.5564330534
 40
0.5722094703
 40
0.5879515419
 40
0.6036579881
 40
0.6193277119
 40
0.6349598055
 40
0.6505535557
 40
0.6661084489
 40
0.6816241768
 40
0.6971006389
 40
0.7125379442
 40
0.7279364114
 40
0.7432965706
 40
0.7586191617
 40
0.7739051311
 40
0.7891556272
 40
0.8043719973
 40
0.8195557811
 40
0.8347087025
 40
0.8498326605
 40
0.8649297204
 40
0.8800021032
 40
0.8950521728
 40
0.9100824222
 40
0.9250954606
 40
0.9400939986
 40
0.9550808324
 40
0.9700588267
 40
0.9850308984
 40
1.0
 40
1.0
 40
1.0
 40
1.0
 10
10.8382382303
 20
9.1723405242
 30
0.0
 10
10.8294028267
 20
9.1729532616
 30
0.0
 10
10.8117303904
 20
9.1745026281
 30
0.0
 10
10.7852919874
 20
9.1777880386
 30
0.0
 10
10.7589239906
 20
9.182033631
 30
0.0
 10
10.7326622859
 20
9.1872335042
 30
0.0
 10
10.7065416299
 20
9.1933808431
 30
0.0
 10
10.6805969871
 20
9.2004673683
 30
0.0
 10
10.6548629654
 20
9.2084835958
 30
0.0
 10
10.6293739162
 20
9.2174188211
 30
0.0
 10
10.6041638693
 20
9.2272611217
 30
0.0
 10
10.5792664748
 20
9.2379973299
 30
0.0
 10
10.5547149345
 20
9.2496131092
 30
0.0
 10
10.5305421071
 20
9.2620928818
 30
0.0
 10
10.5067799278
 20
9.2754202445
 30
0.0
 10
10.4756734254
 20
9.294304385
 30
0.0
 10
10.4379777825
 20
9.3199387742
 30
0.0
 10
10.3949104504
 20
9.3537571699
 30
0.0
 10
10.3542079164
 20
9.3904735605
 30
0.0
 10
10.3160886819
 20
9.4298912805
 30
0.0
 10
10.2807552516
 20
9.4718008126
 30
0.0
 10
10.2483969855
 20
9.5159772919
 30
0.0
 10
10.2240380648
 20
9.5545111498
 30
0.0
 10
10.206204984
 20
9.5862335788
 30
0.0
 10
10.1936797879
 20
9.6104296567
 30
0.0
 10
10.1820153288
 20
9.635007873
 30
0.0
 10
10.1712269505
 20
9.6599357696
 30
0.0
 10
10.161329137
 20
9.685179988
 30
0.0
 10
10.1523351096
 20
9.7107068632
 30
0.0
 10
10.1442568692
 20
9.7364823083
 30
0.0
 10
10.1371052075
 20
9.7624719205
 30
0.0
 10
10.1308896951
 20
9.7886410108
 30
0.0
 10
10.1256186633
 20
9.8149546499
 30
0.0
 10
10.1212991428
 20
9.8413777061
 30
0.0
 10
10.1179369114
 20
9.8678749056
 30
0.0
 10
10.1155364829
 20
9.8944108751
 30
0.0
 10
10.1141011023
 20
9.920950187
 30
0.0
 10
10.1136326834
 20
9.9474574047
 30
0.0
 10
10.1141318636
 20
9.9738971354
 30
0.0
 10
10.1155980015
 20
10.0002340739
 30
0.0
 10
10.1180291825
 20
10.0264330471
 30
0.0
 10
10.1214221615
 20
10.0524590669
 30
0.0
 10
10.1257724172
 20
10.0782773754
 30
0.0
 10
10.1310741637
 20
10.1038534879
 30
0.0
 10
10.1373203629
 20
10.1291532347
 30
0.0
 10
10.1445026761
 20
10.1541428212
 30
0.0
 10
10.152611516
 20
10.1787888667
 30
0.0
 10
10.1616360711
 20
10.2030584436
 30
0.0
 10
10.1715643247
 20
10.2269191158
 30
0.0
 10
10.1823830187
 20
10.2503390033
 30
0.0
 10
10.1940777
 20
10.2732868183
 30
0.0
 10
10.2066327586
 20
10.2957318953
 30
0.0
 10
10.2200314516
 20
10.3176442284
 30
0.0
 10
10.2342558794
 20
10.3389945332
 30
0.0
 10
10.249287036
 20
10.359754294
 30
0.0
 10
10.2651048182
 20
10.3798957411
 30
0.0
 10
10.2816882096
 20
10.3993920411
 30
0.0
 10
10.2990146867
 20
10.4182167751
 30
0.0
 10
10.3110469277
 20
10.4303034257
 30
0.0
 10
10.3171777881
 20
10.4362253887
 30
0.0
  0
SPLINE
  5
3C0
100
AcDbEntity
  8
0
100
AcDbSpline
 62
7
  6
CONTINUOUS
 70
0
 71
3
 72
83
 73
79
 74
0
 42
0.0000001
 43
0.0000001
 44
0.0000000001
 40
0.0
 40
0.0
 40
0.0
 40
0.0
 40
0.0039265923
 40
0.0080153119
 40
0.0122696277
 40
0.016692473
 40
0.0212863269
 40
0.0260531358
 40
0.0309942062
 40
0.0361104118
 40
0.0414022227
 40
0.0468697332
 40
0.052512755
 40
0.0583307369
 40
0.0704877281
 40
0.0833318886
 40
0.096850433
 40
0.1110275897
 40
0.1258449617
 40
0.1412818138
 40
0.1573153301
 40
0.1739208174
 40
0.191071878
 40
0.208740553
 40
0.2268974566
 40
0.2455119116
 40
0.2645520637
 40
0.283984987
 40
0.3037767797
 40
0.3238926641
 40
0.3442970897
 40
0.3649538252
 40
0.3858260476
 40
0.4068764287
 40
0.4493597314
 40
0.4920991512
 40
0.5347870764
 40
0.5771163712
 40
0.5980517122
 40
0.61878387
 40
0.6392758458
 40
0.6594912014
 40
0.6793941487
 40
0.6989496425
 40
0.7181234845
 40
0.7368824158
 40
0.7551942137
 40
0.7730277959
 40
0.7903533353
 40
0.8071423927
 40
0.8233680378
 40
0.8390049922
 40
0.8540297937
 40
0.8684209947
 40
0.8821594018
 40
0.8952283374
 40
0.9076139768
 40
0.9135473498
 40
0.9193062685
 40
0.9248899939
 40
0.9302981237
 40
0.9355305363
 40
0.9405874492
 40
0.9454694957
 40
0.9501776779
 40
0.9547135202
 40
0.9590790485
 40
0.963276875
 40
0.967310319
 40
0.9711834032
 40
0.9749010474
 40
0.9784691082
 40
0.981894506
 40
0.9883482488
 40
0.9913997923
 40
0.994349441
 40
0.9972110537
 40
1.0
 40
1.0
 40
1.0
 40
1.0
 10
12.199975928
 20
8.0530323341
 30
0.0
 10
12.2008923982
 20
8.0539175764
 30
0.0
 10
12.2027243869
 20
8.0557651322
 30
0.0
 10
12.2054162419
 20
8.0587000082
 30
0.0
 10
12.2081053875
 20
8.0618522154
 30
0.0
 10
12.2107904205
 20
8.0652201186
 30
0.0
 10
12.2134701613
 20
8.06880213
 30
0.0
 10
12.2161433485
 20
8.0725966105
 30
0.0
 10
12.2188087803
 20
8.0766017547
 30
0.0
 10
12.2214651608
 20
8.0808156732
 30
0.0
 10
12.2241112217
 20
8.0852363611
 30
0.0
 10
12.2267457301
 20
8.089861704
 30
0.0
 10
12.229367412
 20
8.094689526
 30
0.0
 10
12.2328960167
 20
8.1014934801
 30
0.0
 10
12.2372575814
 20
8.1104955939
 30
0.0
 10
12.2423468414
 20
8.1219144215
 30
0.0
 10
12.2473555582
 20
8.1340807438
 30
0.0
 10
12.2522740898
 20
8.1469713259
 30
0.0
 10
12.2570929662
 20
8.1605616726
 30
0.0
 10
12.2618029026
 20
8.1748258401
 30
0.0
 10
12.2663948163
 20
8.1897365741
 30
0.0
 10
12.2708598503
 20
8.2052653517
 30
0.0
 10
12.2751893891
 20
8.2213824455
 30
0.0
 10
12.2793750821
 20
8.2380569778
 30
0.0
 10
12.2834088628
 20
8.2552569833
 30
0.0
 10
12.2872829559
 20
8.2729494786
 30
0.0
 10
12.2909898949
 20
8.2911005296
 30
0.0
 10
12.294522534
 20
8.3096753157
 30
0.0
 10
12.2978740683
 20
8.3286381942
 30
0.0
 10
12.3010380467
 20
8.3479527695
 30
0.0
 10
12.3040083795
 20
8.3675819713
 30
0.0
 10
12.3067793427
 20
8.3874881149
 30
0.0
 10
12.3093456221
 20
8.4076330169
 30
0.0
 10
12.3124972326
 20
8.4348416273
 30
0.0
 10
12.3158876125
 20
8.4691637068
 30
0.0
 10
12.3190604101
 20
8.510553021
 30
0.0
 10
12.321325236
 20
8.5519518934
 30
0.0
 10
12.3224457848
 20
8.5863187784
 30
0.0
 10
12.3228700023
 20
8.6135732586
 30
0.0
 10
12.3229513556
 20
8.6337445606
 30
0.0
 10
12.3227969866
 20
8.6536817827
 30
0.0
 10
12.3224071874
 20
8.6733466836
 30
0.0
 10
12.3217827276
 20
8.6927015059
 30
0.0
 10
12.3209248209
 20
8.7117091015
 30
0.0
 10
12.3198351421
 20
8.730332992
 30
0.0
 10
12.3185158127
 20
8.7485374431
 30
0.0
 10
12.3169693968
 20
8.7662875301
 30
0.0
 10
12.3151988967
 20
8.783549205
 30
0.0
 10
12.313207747
 20
8.8002893678
 30
0.0
 10
12.3109998194
 20
8.8164759355
 30
0.0
 10
12.3085794035
 20
8.8320779052
 30
0.0
 10
12.3059512001
 20
8.8470654107
 30
0.0
 10
12.3031203099
 20
8.8614097914
 30
0.0
 10
12.3000922226
 20
8.8750836395
 30
0.0
 10
12.2968728182
 20
8.8880609335
 30
0.0
 10
12.2934683196
 20
8.9003168634
 30
0.0
 10
12.2904407671
 20
8.9100441281
 30
0.0
 10
12.287923907
 20
8.9174414285
 30
0.0
 10
12.2860211528
 20
8.922715146
 30
0.0
 10
12.2840771336
 20
8.9277917063
 30
0.0
 10
12.2820927916
 20
8.9326687065
 30
0.0
 10
12.2800690691
 20
8.9373438239
 30
0.0
 10
12.2780069056
 20
8.9418148308
 30
0.0
 10
12.2759073203
 20
8.9460796222
 30
0.0
 10
12.2737712528
 20
8.9501361624
 30
0.0
 10
12.2715997379
 20
8.9539825492
 30
0.0
 10
12.2693937779
 20
8.9576169692
 30
0.0
 10
12.2671543586
 20
8.9610376984
 30
0.0
 10
12.264882552
 20
8.9642431505
 30
0.0
 10
12.2625793023
 20
8.9672318044
 30
0.0
 10
12.260245728
 20
8.9700022014
 30
0.0
 10
12.2578825945
 20
8.9725532537
 30
0.0
 10
12.2547564251
 20
8.9755993256
 30
0.0
 10
12.2515132507
 20
8.9782809805
 30
0.0
 10
12.2481570334
 20
8.9805375796
 30
0.0
 10
12.2456621563
 20
8.9819735537
 30
0.0
 10
12.2431443521
 20
8.9831833014
 30
0.0
 10
12.2414320775
 20
8.9838458633
 30
0.0
 10
12.2405751741
 20
8.984137042
 30
0.0
  0
SPLINE
  5
3C1
100
AcDbEntity
  8
0
100
AcDbSpline
 62
7
  6
CONTINUOUS
 70
0
 71
3
 72
15
 73
11
 74
0
 42
0.0000001
 43
0.0000001
 44
0.0000000001
 40
0.0
 40
0.0
 40
0.0
 40
0.0
 40
0.1457213483
 40
0.2845991187
 40
0.4169826454
 40
0.5433126665
 40
0.664117082
 40
0.7800117701
 40
0.8917048522
 40
1.0
 40
1.0
 40
1.0
 40
1.0
 10
12.199975928
 20
8.0530323341
 30
0.0
 10
12.198947211
 20
8.0520386697
 30
0.0
 10
12.1968906645
 20
8.0501461649
 30
0.0
 10
12.1937308229
 20
8.0475417354
 30
0.0
 10
12.1905737715
 20
8.0452435401
 30
0.0
 10
12.1874215059
 20
8.043253376
 30
0.0
 10
12.184275743
 20
8.0415728369
 30
0.0
 10
12.1811381876
 20
8.0402033766
 30
0.0
 10
12.178011154
 20
8.0391466132
 30
0.0
 10
12.1759071273
 20
8.0386449536
 30
0.0
 10
12.1748623474
 20
8.0384494381
 30
0.0
  0
SPLINE
  5
3C2
100
AcDbEntity
  8
0
100
AcDbSpline
 62
7
  6
CONTINUOUS
 70
0
 71
3
 72
23
 73
19
 74
0
 42
0.0000001
 43
0.0000001
 44
0.0000000001
 40
0.0
 40
0.0
 40
0.0
 40
0.0
 40
0.0755966894
 40
0.1466391965
 40
0.2134647074
 40
0.2765134986
 40
0.3363257304
 40
0.3935458535
 40
0.4489219493
 40
0.5032869296
 40
0.5575247817
 40
0.6125261135
 40
0.6691421681
 40
0.7281478382
 40
0.7902185594
 40
0.8559229117
 40
0.9257262624
 40
1.0
 40
1.0
 40
1.0
 40
1.0
 10
12.199975928
 20
8.1882619578
 30
0.0
 10
12.199044866
 20
8.1873626209
 30
0.0
 10
12.1971839871
 20
8.1856733935
 30
0.0
 10
12.1943040875
 20
8.1834167015
 30
0.0
 10
12.191427572
 20
8.1815213943
 30
0.0
 10
12.1885570682
 20
8.1799903453
 30
0.0
 10
12.1856949939
 20
8.178826276
 30
0.0
 10
12.1828442723
 20
8.1780321352
 30
0.0
 10
12.1800086684
 20
8.1776106187
 30
0.0
 10
12.1771928924
 20
8.1775638307
 30
0.0
 10
12.1744023534
 20
8.1778923489
 30
0.0
 10
12.1716424772
 20
8.1785953099
 30
0.0
 10
12.1689179247
 20
8.179670241
 30
0.0
 10
12.1662323354
 20
8.1811140794
 30
0.0
 10
12.1635884107
 20
8.182923482
 30
0.0
 10
12.1609882809
 20
8.185095313
 30
0.0
 10
12.1584340743
 20
8.1876263885
 30
0.0
 10
12.1568152478
 20
8.1894912681
 30
0.0
 10
12.1560127654
 20
8.190477964
 30
0.0
  0
SPLINE
  5
3C3
100
AcDbEntity
  8
0
100
AcDbSpline
 62
7
  6
CONTINUOUS
 70
0
 71
3
 72
18
 73
14
 74
0
 42
0.0000001
 43
0.0000001
 44
0.0000000001
 40
0.0
 40
0.0
 40
0.0
 40
0.0
 40
0.1504660279
 40
0.2917139896
 40
0.4244429467
 40
0.4879101797
 40
0.5496093681
 40
0.668262238
 40
0.781788383
 40
0.8371380886
 40
0.8918079562
 40
0.9460193673
 40
1.0
 40
1.0
 40
1.0
 40
1.0
 10
12.1661685221
 20
8.2244139153
 30
0.0
 10
12.1653204095
 20
8.2235947014
 30
0.0
 10
12.1636253086
 20
8.2220576062
 30
0.0
 10
12.1610006401
 20
8.2200092086
 30
0.0
 10
12.1587836346
 20
8.2185604801
 30
0.0
 10
12.157015786
 20
8.2175794396
 30
0.0
 10
12.1552999503
 20
8.216737193
 30
0.0
 10
12.1531546006
 20
8.2158861485
 30
0.0
 10
12.1509710996
 20
8.2153053415
 30
0.0
 10
12.1492416891
 20
8.2150192592
 30
0.0
 10
12.1479599638
 20
8.2148922646
 30
0.0
 10
12.1466834212
 20
8.2148512403
 30
0.0
 10
12.1458353184
 20
8.2148812491
 30
0.0
 10
12.145413303
 20
8.2149105177
 30
0.0
  0
SPLINE
  5
3C4
100
AcDbEntity
  8
0
100
AcDbSpline
 62
7
  6
CONTINUOUS
 70
0
 71
3
 72
28
 73
24
 74
0
 42
0.0000001
 43
0.0000001
 44
0.0000000001
 40
0.0
 40
0.0
 40
0.0
 40
0.0
 40
0.030824618
 40
0.0616521189
 40
0.0924853791
 40
0.1233272576
 40
0.1850426275
 40
0.2468260511
 40
0.2777527957
 40
0.3087045394
 40
0.3706875841
 40
0.4327999914
 40
0.4950596411
 40
0.5574828107
 40
0.620084013
 40
0.682875851
 40
0.7143492694
 40
0.7458741349
 40
0.8090768674
 40
0.8724956241
 40
0.9042896047
 40
0.9361393495
 40
1.0
 40
1.0
 40
1.0
 40
1.0
 10
11.3592986725
 20
9.3573444851
 30
0.0
 10
11.3550902135
 20
9.3532794213
 30
0.0
 10
11.3465631631
 20
9.3452616359
 30
0.0
 10
11.3334532405
 20
9.3335826249
 30
0.0
 10
11.3200315271
 20
9.3222578389
 30
0.0
 10
11.3017292947
 20
9.3076383333
 30
0.0
 10
11.2781087971
 20
9.2902812897
 30
0.0
 10
11.2535788231
 20
9.2742061467
 30
0.0
 10
11.2334436323
 20
9.2621356445
 30
0.0
 10
11.2129605669
 20
9.2505881193
 30
0.0
 10
11.1867522339
 20
9.2371641229
 30
0.0
 10
11.154441807
 20
9.2227245802
 30
0.0
 10
11.1213354771
 20
9.2099817446
 30
0.0
 10
11.0875170433
 20
9.1989679362
 30
0.0
 10
11.0530721325
 20
9.1897108157
 30
0.0
 10
11.0239391395
 20
9.1834843667
 30
0.0
 10
11.000411053
 20
9.1794010123
 30
0.0
 10
10.9767084215
 20
9.1759132452
 30
0.0
 10
10.9468486626
 20
9.1726886929
 30
0.0
 10
10.9168126514
 20
9.1709872329
 30
0.0
 10
10.8926954552
 20
9.1705374212
 30
0.0
 10
10.8684912049
 20
9.1706965357
 30
0.0
 10
10.8503312419
 20
9.171501871
 30
0.0
 10
10.8382382303
 20
9.1723405242
 30
0.0
  0
SPLINE
  5
3C5
100
AcDbEntity
  8
0
100
AcDbSpline
 62
7
  6
CONTINUOUS
 70
0
 71
3
 72
23
 73
19
 74
0
 42
0.0000001
 43
0.0000001
 44
0.0000000001
 40
0.0
 40
0.0
 40
0.0
 40
0.0
 40
0.0619384714
 40
0.1238913549
 40
0.1858729597
 40
0.2478973977
 40
0.3099784852
 40
0.3721296462
 40
0.4343638176
 40
0.4966933671
 40
0.5591300129
 40
0.6216847441
 40
0.6843677469
 40
0.7471883433
 40
0.8101549398
 40
0.8732749744
 40
0.9365548695
 40
1.0
 40
1.0
 40
1.0
 40
1.0
 10
11.2499429639
 20
9.5555017096
 30
0.0
 10
11.245237428
 20
9.5509565022
 30
0.0
 10
11.2356311626
 20
9.5420635296
 30
0.0
 10
11.2206671927
 20
9.5293455572
 30
0.0
 10
11.2051703326
 20
9.51726726
 30
0.0
 10
11.1891652169
 20
9.5058478816
 30
0.0
 10
11.1726768489
 20
9.4951052277
 30
0.0
 10
11.1557310914
 20
9.4850561706
 30
0.0
 10
11.1383545075
 20
9.4757164445
 30
0.0
 10
11.1205743501
 20
9.4671006612
 30
0.0
 10
11.1024184909
 20
9.4592223093
 30
0.0
 10
11.0839153825
 20
9.4520937382
 30
0.0
 10
11.0650940303
 20
9.4457261069
 30
0.0
 10
11.0459839334
 20
9.4401293549
 30
0.0
 10
11.0266150713
 20
9.4353122353
 30
0.0
 10
11.0070176793
 20
9.431282279
 30
0.0
 10
10.9872228905
 20
9.4280458353
 30
0.0
 10
10.973932017
 20
9.4264226019
 30
0.0
 10
10.9672650501
 20
9.4257442723
 30
0.0
  0
SPLINE
  5
3C6
100
AcDbEntity
  8
0
100
AcDbSpline
 62
7
  6
CONTINUOUS
 70
0
 71
3
 72
23
 73
19
 74
0
 42
0.0000001
 43
0.0000001
 44
0.0000000001
 40
0.0
 40
0.0
 40
0.0
 40
0.0
 40
0.0619540982
 40
0.1239284223
 40
0.1859354136
 40
0.2479873199
 40
0.3100961135
 40
0.3722734189
 40
0.4345304539
 40
0.4968779584
 40
0.559326124
 40
0.6218845474
 40
0.6845621777
 40
0.747367255
 40
0.8103072728
 40
0.8733889482
 40
0.9366181766
 40
1.0
 40
1.0
 40
1.0
 40
1.0
 10
11.2498552342
 20
9.5556036652
 30
0.0
 10
11.245353999
 20
9.5514607176
 30
0.0
 10
11.2361846675
 20
9.5433511151
 30
0.0
 10
11.2219568698
 20
9.5317395287
 30
0.0
 10
11.2072724686
 20
9.5206944845
 30
0.0
 10
11.1921518552
 20
9.510231381
 30
0.0
 10
11.1766156556
 20
9.5003645152
 30
0.0
 10
11.1606852032
 20
9.491107388
 30
0.0
 10
11.1443823284
 20
9.4824726597
 30
0.0
 10
11.1277293541
 20
9.4744721916
 30
0.0
 10
11.1107491097
 20
9.4671169204
 30
0.0
 10
11.0934648728
 20
9.4604168857
 30
0.0
 10
11.0759003156
 20
9.454381284
 30
0.0
 10
11.058079496
 20
9.4490183807
 30
0.0
 10
11.0400268658
 20
9.4443354733
 30
0.0
 10
11.0217670579
 20
9.4403389635
 30
0.0
 10
11.003325427
 20
9.4370343941
 30
0.0
 10
10.9909409694
 20
9.4352976282
 30
0.0
 10
10.9847277297
 20
9.4345455799
 30
0.0
  0
SPLINE
  5
3C7
100
AcDbEntity
  8
0
100
AcDbSpline
 62
7
  6
CONTINUOUS
 70
0
 71
3
 72
19
 73
15
 74
0
 42
0.0000001
 43
0.0000001
 44
0.0000000001
 40
0.0
 40
0.0
 40
0.0
 40
0.0
 40
0.150460937
 40
0.2916987357
 40
0.424419542
 40
0.4878837275
 40
0.5495802504
 40
0.6682271673
 40
0.7255606103
 40
0.7817998831
 40
0.8371466721
 40
0.8918135967
 40
0.94602219
 40
1.0
 40
1.0
 40
1.0
 40
1.0
 10
12.2154307429
 20
8.0519605391
 30
0.0
 10
12.2140878717
 20
8.050663425
 30
0.0
 10
12.2114039764
 20
8.0482296701
 30
0.0
 10
12.2072482236
 20
8.0449864126
 30
0.0
 10
12.2037380363
 20
8.0426926004
 30
0.0
 10
12.2009388864
 20
8.0411392968
 30
0.0
 10
12.1982223159
 20
8.0398057526
 30
0.0
 10
12.1954739391
 20
8.0387157
 30
0.0
 10
12.1927100996
 20
8.0378954304
 30
0.0
 10
12.1906665922
 20
8.0374226221
 30
0.0
 10
12.1886298875
 20
8.0370856257
 30
0.0
 10
12.1866005233
 20
8.0368846079
 30
0.0
 10
12.1845793202
 20
8.0368196465
 30
0.0
 10
12.1832364904
 20
8.0368671372
 30
0.0
 10
12.1825682983
 20
8.0369134765
 30
0.0
  0
SPLINE
  5
3C8
100
AcDbEntity
  8
0
100
AcDbSpline
 62
7
  6
CONTINUOUS
 70
0
 71
3
 72
89
 73
85
 74
0
 42
0.0000001
 43
0.0000001
 44
0.0000000001
 40
0.0
 40
0.0
 40
0.0
 40
0.0
 40
0.0042067312
 40
0.0086075293
 40
0.0132068539
 40
0.0180083867
 40
0.0230151278
 40
0.0282292848
 40
0.0336521891
 40
0.0392846084
 40
0.0451267211
 40
0.0511782441
 40
0.0574384617
 40
0.0639061948
 40
0.0774573948
 40
0.0918164794
 40
0.1069629005
 40
0.1228721746
 40
0.1395163763
 40
0.1568645309
 40
0.1748829317
 40
0.1935354184
 40
0.2127836256
 40
0.2325871965
 40
0.2529039765
 40
0.2736901923
 40
0.2949006167
 40
0.3164887388
 40
0.3384069248
 40
0.3606065716
 40
0.383038256
 40
0.4056518828
 40
0.4512212465
 40
0.4969069626
 40
0.5422991122
 40
0.5647582359
 40
0.5869920364
 40
0.6089509909
 40
0.6305863744
 40
0.6518504102
 40
0.6726964287
 40
0.6930790271
 40
0.7129542265
 40
0.7322796411
 40
0.7510146561
 40
0.769120622
 40
0.7865610755
 40
0.8033019713
 40
0.8193119467
 40
0.834562639
 40
0.8490290691
 40
0.8626901233
 40
0.8755291723
 40
0.8816370224
 40
0.8875355927
 40
0.8932245052
 40
0.8987037916
 40
0.9039740757
 40
0.9090365708
 40
0.9138931509
 40
0.9185465243
 40
0.9230002124
 40
0.9272588158
 40
0.9313280509
 40
0.9352149632
 40
0.9389281337
 40
0.9424777932
 40
0.9458761324
 40
0.9491373738
 40
0.9522779783
 40
0.9553166717
 40
0.958274352
 40
0.9611738974
 40
0.9640396987
 40
0.9668971039
 40
0.9697716967
 40
0.9726885767
 40
0.9756716704
 40
0.9787432265
 40
0.9852253757
 40
0.9886742972
 40
0.9922790667
 40
0.9960512155
 40
1.0
 40
1.0
 40
1.0
 40
1.0
 10
12.199975928
 20
8.1882619578
 30
0.0
 10
12.2006993596
 20
8.1889607391
 30
0.0
 10
12.2021452637
 20
8.1904264226
 30
0.0
 10
12.2042646364
 20
8.1927683259
 30
0.0
 10
12.2063813266
 20
8.1953009627
 30
0.0
 10
12.2084939883
 20
8.1980227029
 30
0.0
 10
12.2106014636
 20
8.2009319673
 30
0.0
 10
12.2127025226
 20
8.2040270896
 30
0.0
 10
12.2147959875
 20
8.2073062362
 30
0.0
 10
12.2168805696
 20
8.2107674886
 30
0.0
 10
12.218955062
 20
8.2144087837
 30
0.0
 10
12.2210182268
 20
8.2182279689
 30
0.0
 10
12.2230688408
 20
8.2222227904
 30
0.0
 10
12.2258276268
 20
8.2278683252
 30
0.0
 10
12.2292283926
 20
8.2353534527
 30
0.0
 10
12.2331792215
 20
8.244861471
 30
0.0
 10
12.2370514409
 20
8.2550075157
 30
0.0
 10
12.2408357466
 20
8.2657674248
 30
0.0
 10
12.2445230356
 20
8.2771156837
 30
0.0
 10
12.24810443
 20
8.2890252741
 30
0.0
 10
12.2515713087
 20
8.3014678105
 30
0.0
 10
12.2549153287
 20
8.314413599
 30
0.0
 10
12.258128443
 20
8.3278317226
 30
0.0
 10
12.2612029217
 20
8.3416901201
 30
0.0
 10
12.26413137
 20
8.3559556652
 30
0.0
 10
12.266906745
 20
8.3705942461
 30
0.0
 10
12.2695223783
 20
8.3855708482
 30
0.0
 10
12.271971987
 20
8.40084964
 30
0.0
 10
12.2742496899
 20
8.4163940657
 30
0.0
 10
12.2763500119
 20
8.4321669213
 30
0.0
 10
12.2782679338
 20
8.4481304899
 30
0.0
 10
12.2805815208
 20
8.4696725666
 30
0.0
 10
12.282984348
 20
8.4967947729
 30
0.0
 10
12.2850730879
 20
8.529402641
 30
0.0
 10
12.2861447106
 20
8.5565306487
 30
0.0
 10
12.2865887893
 20
8.5780654173
 30
0.0
 10
12.2867136968
 20
8.5940015058
 30
0.0
 10
12.2866314101
 20
8.6097409088
 30
0.0
 10
12.2863421229
 20
8.6252459901
 30
0.0
 10
12.2858465513
 20
8.6404796378
 30
0.0
 10
12.2851459058
 20
8.6554054054
 30
0.0
 10
12.2842418956
 20
8.6699875875
 30
0.0
 10
12.2831367194
 20
8.6841913094
 30
0.0
 10
12.2818330623
 20
8.6979826094
 30
0.0
 10
12.2803340891
 20
8.7113285225
 30
0.0
 10
12.2786434365
 20
8.7241971648
 30
0.0
 10
12.2767652113
 20
8.7365578164
 30
0.0
 10
12.2747039755
 20
8.7483809994
 30
0.0
 10
12.2724647327
 20
8.7596385592
 30
0.0
 10
12.2700529144
 20
8.7703037189
 30
0.0
 10
12.2674743631
 20
8.7803512357
 30
0.0
 10
12.2647352996
 20
8.7897572182
 30
0.0
 10
12.262285435
 20
8.7971609952
 30
0.0
 10
12.260242807
 20
8.8027396242
 30
0.0
 10
12.2587003277
 20
8.8066796947
 30
0.0
 10
12.2571227876
 20
8.810443444
 30
0.0
 10
12.2555110586
 20
8.8140286437
 30
0.0
 10
12.2538661164
 20
8.8174331826
 30
0.0
 10
12.2521889287
 20
8.8206550627
 30
0.0
 10
12.2504804368
 20
8.8236923797
 30
0.0
 10
12.248741672
 20
8.8265433797
 30
0.0
 10
12.2469735645
 20
8.8292063731
 30
0.0
 10
12.2451771401
 20
8.8316798275
 30
0.0
 10
12.2433533613
 20
8.8339622901
 30
0.0
 10
12.2415031831
 20
8.8360524009
 30
0.0
 10
12.239627605
 20
8.8379489387
 30
0.0
 10
12.237727518
 20
8.8396506727
 30
0.0
 10
12.2358039222
 20
8.8411565355
 30
0.0
 10
12.2338577407
 20
8.842465413
 30
0.0
 10
12.2318899907
 20
8.8435762636
 30
0.0
 10
12.2299017789
 20
8.8444881071
 30
0.0
 10
12.2278943024
 20
8.8451999174
 30
0.0
 10
12.2258689899
 20
8.8457109417
 30
0.0
 10
12.2238273852
 20
8.8460204454
 30
0.0
 10
12.2217712098
 20
8.8461281002
 30
0.0
 10
12.219702204
 20
8.8460338341
 30
0.0
 10
12.2176221229
 20
8.845737864
 30
0.0
 10
12.2155324228
 20
8.8452407136
 30
0.0
 10
12.2126851205
 20
8.8442938384
 30
0.0
 10
12.2098676271
 20
8.8429460031
 30
0.0
 10
12.207106089
 20
8.8412559006
 30
0.0
 10
12.2049879883
 20
8.8397648664
 30
0.0
 10
12.202867988
 20
8.8380780283
 30
0.0
 10
12.201486282
 20
8.8368523594
 30
0.0
 10
12.2007951438
 20
8.8362091515
 30
0.0
  0
SPLINE
  5
3C9
100
AcDbEntity
  8
0
100
AcDbSpline
 62
4
  6
CONTINUOUS
 70
0
 71
3
 72
403
 73
399
 74
0
 42
0.0000001
 43
0.0000001
 44
0.0000000001
 40
0.0
 40
0.0
 40
0.0
 40
0.0
 40
0.015625
 40
0.0234375
 40
0.03125
 40
0.0390625
 40
0.04296875
 40
0.046875
 40
0.05078125
 40
0.0546875
 40
0.056640625
 40
0.05859375
 40
0.0595703125
 40
0.060546875
 40
0.0615234375
 40
0.0620117188
 40
0.0622558594
 40
0.0625
 40
0.0627441406
 40
0.0629882812
 40
0.0634765625
 40
0.064453125
 40
0.0654296875
 40
0.06640625
 40
0.068359375
 40
0.0703125
 40
0.07421875
 40
0.078125
 40
0.08203125
 40
0.0859375
 40
0.09375
 40
0.1015625
 40
0.10546875
 40
0.109375
 40
0.11328125
 40
0.1171875
 40
0.119140625
 40
0.12109375
 40
0.1220703125
 40
0.123046875
 40
0.1240234375
 40
0.1245117188
 40
0.1247558594
 40
0.125
 40
0.1252441406
 40
0.1254882812
 40
0.1259765625
 40
0.126953125
 40
0.1279296875
 40
0.12890625
 40
0.130859375
 40
0.1328125
 40
0.13671875
 40
0.140625
 40
0.14453125
 40
0.1484375
 40
0.15625
 40
0.1640625
 40
0.16796875
 40
0.171875
 40
0.17578125
 40
0.1796875
 40
0.181640625
 40
0.18359375
 40
0.1845703125
 40
0.185546875
 40
0.1865234375
 40
0.1870117188
 40
0.1872558594
 40
0.1875
 40
0.1877441406
 40
0.1879882812
 40
0.1884765625
 40
0.189453125
 40
0.1904296875
 40
0.19140625
 40
0.193359375
 40
0.1953125
 40
0.19921875
 40
0.203125
 40
0.20703125
 40
0.2109375
 40
0.21875
 40
0.2265625
 40
0.23046875
 40
0.234375
 40
0.23828125
 40
0.2421875
 40
0.244140625
 40
0.24609375
 40
0.2470703125
 40
0.248046875
 40
0.2490234375
 40
0.2495117188
 40
0.2497558594
 40
0.25
 40
0.2502441406
 40
0.2504882812
 40
0.2509765625
 40
0.251953125
 40
0.2529296875
 40
0.25390625
 40
0.255859375
 40
0.2578125
 40
0.26171875
 40
0.265625
 40
0.26953125
 40
0.2734375
 40
0.28125
 40
0.2890625
 40
0.29296875
 40
0.296875
 40
0.30078125
 40
0.3046875
 40
0.306640625
 40
0.30859375
 40
0.3095703125
 40
0.310546875
 40
0.3115234375
 40
0.3120117188
 40
0.3122558594
 40
0.3125
 40
0.3127441406
 40
0.3129882812
 40
0.3134765625
 40
0.314453125
 40
0.3154296875
 40
0.31640625
 40
0.318359375
 40
0.3203125
 40
0.32421875
 40
0.328125
 40
0.33203125
 40
0.3359375
 40
0.34375
 40
0.3515625
 40
0.35546875
 40
0.359375
 40
0.36328125
 40
0.3671875
 40
0.369140625
 40
0.37109375
 40
0.3720703125
 40
0.373046875
 40
0.3740234375
 40
0.3745117188
 40
0.3747558594
 40
0.375
 40
0.3752441406
 40
0.3754882812
 40
0.3759765625
 40
0.376953125
 40
0.3779296875
 40
0.37890625
 40
0.380859375
 40
0.3828125
 40
0.38671875
 40
0.390625
 40
0.39453125
 40
0.3984375
 40
0.40625
 40
0.4140625
 40
0.41796875
 40
0.421875
 40
0.42578125
 40
0.4296875
 40
0.431640625
 40
0.43359375
 40
0.4345703125
 40
0.435546875
 40
0.4365234375
 40
0.4370117188
 40
0.4372558594
 40
0.4375
 40
0.4377441406
 40
0.4379882812
 40
0.4384765625
 40
0.439453125
 40
0.4404296875
 40
0.44140625
 40
0.443359375
 40
0.4453125
 40
0.44921875
 40
0.453125
 40
0.45703125
 40
0.4609375
 40
0.46875
 40
0.4765625
 40
0.48046875
 40
0.484375
 40
0.48828125
 40
0.4921875
 40
0.494140625
 40
0.49609375
 40
0.4970703125
 40
0.498046875
 40
0.4990234375
 40
0.4995117188
 40
0.4997558594
 40
0.5
 40
0.5002441406
 40
0.5004882812
 40
0.5009765625
 40
0.501953125
 40
0.5029296875
 40
0.50390625
 40
0.505859375
 40
0.5078125
 40
0.51171875
 40
0.515625
 40
0.51953125
 40
0.5234375
 40
0.53125
 40
0.5390625
 40
0.54296875
 40
0.546875
 40
0.55078125
 40
0.5546875
 40
0.556640625
 40
0.55859375
 40
0.5595703125
 40
0.560546875
 40
0.5615234375
 40
0.5620117188
 40
0.5622558594
 40
0.5625
 40
0.5627441406
 40
0.5629882812
 40
0.5634765625
 40
0.564453125
 40
0.5654296875
 40
0.56640625
 40
0.568359375
 40
0.5703125
 40
0.57421875
 40
0.578125
 40
0.58203125
 40
0.5859375
 40
0.59375
 40
0.6015625
 40
0.60546875
 40
0.609375
 40
0.61328125
 40
0.6171875
 40
0.619140625
 40
0.62109375
 40
0.6220703125
 40
0.623046875
 40
0.6240234375
 40
0.6245117188
 40
0.6247558594
 40
0.625
 40
0.6252441406
 40
0.6254882812
 40
0.6259765625
 40
0.626953125
 40
0.6279296875
 40
0.62890625
 40
0.630859375
 40
0.6328125
 40
0.63671875
 40
0.640625
 40
0.64453125
 40
0.6484375
 40
0.65625
 40
0.6640625
 40
0.66796875
 40
0.671875
 40
0.67578125
 40
0.6796875
 40
0.681640625
 40
0.68359375
 40
0.6845703125
 40
0.685546875
 40
0.6865234375
 40
0.6870117188
 40
0.6872558594
 40
0.6875
 40
0.6877441406
 40
0.6879882812
 40
0.6884765625
 40
0.689453125
 40
0.6904296875
 40
0.69140625
 40
0.693359375
 40
0.6953125
 40
0.69921875
 40
0.703125
 40
0.70703125
 40
0.7109375
 40
0.71875
 40
0.7265625
 40
0.73046875
 40
0.734375
 40
0.73828125
 40
0.7421875
 40
0.744140625
 40
0.74609375
 40
0.7470703125
 40
0.748046875
 40
0.7490234375
 40
0.7495117188
 40
0.7497558594
 40
0.75
 40
0.7502441406
 40
0.7504882812
 40
0.7509765625
 40
0.751953125
 40
0.7529296875
 40
0.75390625
 40
0.755859375
 40
0.7578125
 40
0.76171875
 40
0.765625
 40
0.76953125
 40
0.7734375
 40
0.78125
 40
0.7890625
 40
0.79296875
 40
0.796875
 40
0.80078125
 40
0.8046875
 40
0.806640625
 40
0.80859375
 40
0.8095703125
 40
0.810546875
 40
0.8115234375
 40
0.8120117188
 40
0.8122558594
 40
0.8125
 40
0.8127441406
 40
0.8129882812
 40
0.8134765625
 40
0.814453125
 40
0.8154296875
 40
0.81640625
 40
0.818359375
 40
0.8203125
 40
0.82421875
 40
0.828125
 40
0.83203125
 40
0.8359375
 40
0.84375
 40
0.8515625
 40
0.85546875
 40
0.859375
 40
0.86328125
 40
0.8671875
 40
0.869140625
 40
0.87109375
 40
0.8720703125
 40
0.873046875
 40
0.8740234375
 40
0.8745117188
 40
0.8747558594
 40
0.875
 40
0.8752441406
 40
0.8754882812
 40
0.8759765625
 40
0.876953125
 40
0.8779296875
 40
0.87890625
 40
0.880859375
 40
0.8828125
 40
0.88671875
 40
0.890625
 40
0.89453125
 40
0.8984375
 40
0.90625
 40
0.9140625
 40
0.91796875
 40
0.921875
 40
0.92578125
 40
0.9296875
 40
0.931640625
 40
0.93359375
 40
0.9345703125
 40
0.935546875
 40
0.9365234375
 40
0.9370117188
 40
0.9372558594
 40
0.9375
 40
0.9377441406
 40
0.9379882812
 40
0.9384765625
 40
0.939453125
 40
0.9404296875
 40
0.94140625
 40
0.943359375
 40
0.9453125
 40
0.94921875
 40
0.953125
 40
0.95703125
 40
0.9609375
 40
0.96875
 40
0.9765625
 40
0.984375
 40
1.0
 40
1.0
 40
1.0
 40
1.0
 10
11.5603644239
 20
8.2287795064
 30
0.0
 10
11.5600060103
 20
8.2324597473
 30
0.0
 10
11.5594683899
 20
8.2379801087
 30
0.0
 10
11.5587515626
 20
8.2453405905
 30
0.0
 10
11.5582139422
 20
8.2508609518
 30
0.0
 10
11.5577659253
 20
8.255461253
 30
0.0
 10
11.5574075113
 20
8.2591414939
 30
0.0
 10
11.5571387023
 20
8.2619016747
 30
0.0
 10
11.5568698878
 20
8.2646618548
 30
0.0
 10
11.5566458926
 20
8.2669620071
 30
0.0
 10
11.5564666585
 20
8.268802124
 30
0.0
 10
11.5563547237
 20
8.2699522082
 30
0.0
 10
11.5562649778
 20
8.2708722501
 30
0.0
 10
11.5561982104
 20
8.2715623513
 30
0.0
 10
11.5561408469
 20
8.2721372138
 30
0.0
 10
11.5561040757
 20
8.2725400528
 30
0.0
 10
11.556077781
 20
8.2727695669
 30
0.0
 10
11.5560729409
 20
8.272943617
 30
0.0
 10
11.5560112184
 20
8.2731103488
 30
0.0
 10
11.5559487629
 20
8.2733352107
 30
0.0
 10
11.5558302214
 20
8.2737275295
 30
0.0
 10
11.5556657094
 20
8.2742886068
 30
0.0
 10
11.5554662264
 20
8.2749616334
 30
0.0
 10
11.5552009716
 20
8.2758590952
 30
0.0
 10
11.5548691556
 20
8.2769808906
 30
0.0
 10
11.5543383884
 20
8.278775781
 30
0.0
 10
11.5536748819
 20
8.2810193879
 30
0.0
 10
11.5528786945
 20
8.2837117188
 30
0.0
 10
11.5520825016
 20
8.286404049
 30
0.0
 10
11.551020913
 20
8.2899938229
 30
0.0
 10
11.5496939265
 20
8.2944810401
 30
0.0
 10
11.5483669405
 20
8.2989682574
 30
0.0
 10
11.5473053511
 20
8.3025580311
 30
0.0
 10
11.5465091605
 20
8.3052503618
 30
0.0
 10
11.5457129647
 20
8.3079426908
 30
0.0
 10
11.5450494842
 20
8.3101863038
 30
0.0
 10
11.544518664
 20
8.3119811819
 30
0.0
 10
11.5441869828
 20
8.3131030086
 30
0.0
 10
11.5439214513
 20
8.314000406
 30
0.0
 10
11.5437228135
 20
8.3146736292
 30
0.0
 10
11.5435556572
 20
8.3152340915
 30
0.0
 10
11.5434418363
 20
8.3156275082
 30
0.0
 10
11.5433718171
 20
8.315850611
 30
0.0
 10
11.5433333279
 20
8.3160227462
 30
0.0
 10
11.5432412272
 20
8.3161765022
 30
0.0
 10
11.5431371266
 20
8.3163879212
 30
0.0
 10
11.5429462376
 20
8.3167549174
 30
0.0
 10
11.5426780943
 20
8.3172807594
 30
0.0
 10
11.5423543726
 20
8.3179111013
 30
0.0
 10
11.5419234246
 20
8.3187517907
 30
0.0
 10
11.5413845065
 20
8.3198025724
 30
0.0
 10
11.5405223678
 20
8.3214838679
 30
0.0
 10
11.5394446497
 20
8.3235854719
 30
0.0
 10
11.5381514072
 20
8.3261074033
 30
0.0
 10
11.5368581596
 20
8.3286293329
 30
0.0
 10
11.5351338312
 20
8.3319919064
 30
0.0
 10
11.53297842
 20
8.336195123
 30
0.0
 10
11.5308230093
 20
8.3403983398
 30
0.0
 10
11.5290986802
 20
8.343760913
 30
0.0
 10
11.5278054346
 20
8.3462828435
 30
0.0
 10
11.5265121841
 20
8.3488047716
 30
0.0
 10
11.5254344909
 20
8.3509063858
 30
0.0
 10
11.5245723016
 20
8.3525876606
 30
0.0
 10
11.5240335123
 20
8.3536384949
 30
0.0
 10
11.5236022998
 20
8.3544790764
 30
0.0
 10
11.5232793863
 20
8.3551097479
 30
0.0
 10
11.5230087142
 20
8.3556345585
 30
0.0
 10
11.5228223395
 20
8.3560033959
 30
0.0
 10
11.522711006
 20
8.3562118649
 30
0.0
 10
11.5226411224
 20
8.3563746824
 30
0.0
 10
11.5225191893
 20
8.3565127843
 30
0.0
 10
11.5223747673
 20
8.3567055413
 30
0.0
 10
11.5221135699
 20
8.3570388493
 30
0.0
 10
11.5217448531
 20
8.3575171036
 30
0.0
 10
11.5213005
 20
8.3580901098
 30
0.0
 10
11.5207086904
 20
8.3588544322
 30
0.0
 10
11.519968702
 20
8.3598097276
 30
0.0
 10
11.5187848471
 20
8.3613382603
 30
0.0
 10
11.5173049851
 20
8.3632489056
 30
0.0
 10
11.5155291693
 20
8.3655416887
 30
0.0
 10
11.5137533485
 20
8.3678344695
 30
0.0
 10
11.5113855891
 20
8.3708915115
 30
0.0
 10
11.5084258893
 20
8.3747128135
 30
0.0
 10
11.5054661898
 20
8.3785341159
 30
0.0
 10
11.5030984299
 20
8.3815911573
 30
0.0
 10
11.5013226109
 20
8.3838839395
 30
0.0
 10
11.4995467883
 20
8.3861767176
 30
0.0
 10
11.4980669474
 20
8.3880873787
 30
0.0
 10
11.4968830493
 20
8.3896158791
 30
0.0
 10
11.4961431708
 20
8.3905712568
 30
0.0
 10
11.4955511356
 20
8.3913354101
 30
0.0
 10
11.4951074718
 20
8.3919089327
 30
0.0
 10
11.4947365986
 20
8.3923855715
 30
0.0
 10
11.4944792507
 20
8.3927217634
 30
0.0
 10
11.4943286607
 20
8.3929098997
 30
0.0
 10
11.4942256736
 20
8.3930621948
 30
0.0
 10
11.4940846321
 20
8.3931717051
 30
0.0
 10
11.4939098506
 20
8.3933326426
 30
0.0
 10
11.4935977984
 20
8.3936073299
 30
0.0
 10
11.4931552428
 20
8.3940033757
 30
0.0
 10
11.4926227922
 20
8.3944770745
 30
0.0
 10
11.4919133415
 20
8.3951092165
 30
0.0
 10
11.4910263625
 20
8.3958992079
 30
0.0
 10
11.4896072887
 20
8.3971632981
 30
0.0
 10
11.4878334147
 20
8.3987433752
 30
0.0
 10
11.4857047795
 20
8.400639483
 30
0.0
 10
11.4835761407
 20
8.4025355868
 30
0.0
 10
11.4807379568
 20
8.4050637265
 30
0.0
 10
11.4771902265
 20
8.4082239006
 30
0.0
 10
11.4736424966
 20
8.4113840751
 30
0.0
 10
11.4708043122
 20
8.4139122142
 30
0.0
 10
11.4686756748
 20
8.4158083197
 30
0.0
 10
11.4665470343
 20
8.4177044208
 30
0.0
 10
11.4647731768
 20
8.4192845188
 30
0.0
 10
11.4633540693
 20
8.4205485665
 30
0.0
 10
11.4624671761
 20
8.4213386661
 30
0.0
 10
11.4617575493
 20
8.4219705859
 30
0.0
 10
11.4612256365
 20
8.4224449636
 30
0.0
 10
11.4607813983
 20
8.4228388857
 30
0.0
 10
11.46047235
 20
8.423117364
 30
0.0
 10
11.4602927554
 20
8.4232722274
 30
0.0
 10
11.4601664983
 20
8.4234003955
 30
0.0
 10
11.4600079834
 20
8.4234826146
 30
0.0
 10
11.459807882
 20
8.4236082676
 30
0.0
 10
11.4594524623
 20
8.4238206928
 30
0.0
 10
11.4589474605
 20
8.4241280615
 30
0.0
 10
11.4583402853
 20
8.4244952329
 30
0.0
 10
11.4575311281
 20
8.4249853784
 30
0.0
 10
11.4565195412
 20
8.4255978604
 30
0.0
 10
11.4549010807
 20
8.4265779433
 30
0.0
 10
11.4528779782
 20
8.4278030086
 30
0.0
 10
11.4504502666
 20
8.4292731034
 30
0.0
 10
11.448022552
 20
8.4307431938
 30
0.0
 10
11.4447856003
 20
8.4327033159
 30
0.0
 10
11.4407394102
 20
8.435153468
 30
0.0
 10
11.4366932204
 20
8.4376036204
 30
0.0
 10
11.4334562683
 20
8.4395637419
 30
0.0
 10
11.4310285548
 20
8.4410338343
 30
0.0
 10
11.4286008391
 20
8.4425039217
 30
0.0
 10
11.4265777494
 20
8.44372901
 30
0.0
 10
11.4249592627
 20
8.444709046
 30
0.0
 10
11.4239477424
 20
8.4453216474
 30
0.0
 10
11.4231384487
 20
8.4458115477
 30
0.0
 10
11.4225316906
 20
8.4461794682
 30
0.0
 10
11.4220253836
 20
8.446484493
 30
0.0
 10
11.421672294
 20
8.4467011025
 30
0.0
 10
11.4214684591
 20
8.4468200513
 30
0.0
 10
11.4213214126
 20
8.4469228636
 30
0.0
 10
11.421152082
 20
8.4469736872
 30
0.0
 10
11.4209340809
 20
8.4470595862
 30
0.0
 10
11.4205489573
 20
8.4472014605
 30
0.0
 10
11.4200006742
 20
8.4474085553
 30
0.0
 10
11.419341924
 20
8.4476551783
 30
0.0
 10
11.4184638734
 20
8.4479846694
 30
0.0
 10
11.4173662133
 20
8.4483963072
 30
0.0
 10
11.4156100114
 20
8.4490550539
 30
0.0
 10
11.4134147403
 20
8.449878444
 30
0.0
 10
11.410780423
 20
8.4508665307
 30
0.0
 10
11.4081461036
 20
8.4518546125
 30
0.0
 10
11.4046336784
 20
8.4531720565
 30
0.0
 10
11.4002431467
 20
8.4548188609
 30
0.0
 10
11.3958526152
 20
8.4564656658
 30
0.0
 10
11.3923401897
 20
8.4577831091
 30
0.0
 10
11.3897058711
 20
8.458771193
 30
0.0
 10
11.3870715509
 20
8.4597592716
 30
0.0
 10
11.384876289
 20
8.460582687
 30
0.0
 10
11.3831200683
 20
8.4612413821
 30
0.0
 10
11.3820224558
 20
8.4616531512
 30
0.0
 10
11.3811443075
 20
8.4619823728
 30
0.0
 10
11.3804858561
 20
8.4622298193
 30
0.0
 10
11.3799366382
 20
8.4624343375
 30
0.0
 10
11.3795531834
 20
8.4625808114
 30
0.0
 10
11.3793325084
 20
8.4626593408
 30
0.0
 10
11.3791713909
 20
8.4627328016
 30
0.0
 10
11.3789934977
 20
8.4627505923
 30
0.0
 10
11.3787621583
 20
8.4627937315
 30
0.0
 10
11.3783545881
 20
8.4628601779
 30
0.0
 10
11.3777737702
 20
8.4629598313
 30
0.0
 10
11.3770761787
 20
8.4630773908
 30
0.0
 10
11.3761462698
 20
8.4632348439
 30
0.0
 10
11.3749838107
 20
8.4634314182
 30
0.0
 10
11.373123917
 20
8.4637460724
 30
0.0
 10
11.3707990358
 20
8.4641393437
 30
0.0
 10
11.3680091843
 20
8.4646112892
 30
0.0
 10
11.3652193312
 20
8.4650832293
 30
0.0
 10
11.3614995277
 20
8.4657124847
 30
0.0
 10
11.3568497731
 20
8.4664990533
 30
0.0
 10
11.3522000186
 20
8.4672856223
 30
0.0
 10
11.348480215
 20
8.4679148769
 30
0.0
 10
11.3456903622
 20
8.4683868194
 30
0.0
 10
11.3429005099
 20
8.4688587561
 30
0.0
 10
11.3405756314
 20
8.4692520545
 30
0.0
 10
11.338715732
 20
8.4695666535
 30
0.0
 10
11.3375532871
 20
8.4697633682
 30
0.0
 10
11.3366233492
 20
8.4699205332
 30
0.0
 10
11.3359258462
 20
8.4700389728
 30
0.0
 10
11.3353447515
 20
8.4701358726
 30
0.0
 10
11.3349376754
 20
8.4702072347
 30
0.0
 10
11.3347055444
 20
8.4702424977
 30
0.0
 10
11.3345300829
 20
8.4702844817
 30
0.0
 10
11.3343598324
 20
8.4702670763
 30
0.0
 10
11.3341310142
 20
8.4702645847
 30
0.0
 10
11.3337314291
 20
8.4702505727
 30
0.0
 10
11.3331601505
 20
8.4702356015
 30
0.0
 10
11.3324748057
 20
8.4702154763
 30
0.0
 10
11.3315609464
 20
8.470189397
 30
0.0
 10
11.330418645
 20
8.4701565396
 30
0.0
 10
11.3285909501
 20
8.4701041122
 30
0.0
 10
11.3263063358
 20
8.4700385283
 30
0.0
 10
11.3235647968
 20
8.469959849
 30
0.0
 10
11.3208232583
 20
8.4698811639
 30
0.0
 10
11.3171678734
 20
8.4697762525
 30
0.0
 10
11.3125986424
 20
8.4696451125
 30
0.0
 10
11.3080294113
 20
8.4695139729
 30
0.0
 10
11.3043740265
 20
8.4694090607
 30
0.0
 10
11.3016324877
 20
8.469330378
 30
0.0
 10
11.2988909499
 20
8.4692516898
 30
0.0
 10
11.2966063317
 20
8.4691861335
 30
0.0
 10
11.2947786447
 20
8.4691336499
 30
0.0
 10
11.2936363232
 20
8.4691009353
 30
0.0
 10
11.2927225052
 20
8.469074563
 30
0.0
 10
11.2920370344
 20
8.4690553331
 30
0.0
 10
11.2914661501
 20
8.4690375606
 30
0.0
 10
11.2910658612
 20
8.4690285495
 30
0.0
 10
11.2908381706
 20
8.4690180452
 30
0.0
 10
11.2906644562
 20
8.4690252523
 30
0.0
 10
11.2905020048
 20
8.4689747957
 30
0.0
 10
11.2902814743
 20
8.4689276341
 30
0.0
 10
11.2898973763
 20
8.4688357299
 30
0.0
 10
11.289347708
 20
8.4687093376
 30
0.0
 10
11.2886885155
 20
8.4685555697
 30
0.0
 10
11.2878094492
 20
8.4683512783
 30
0.0
 10
11.2867106654
 20
8.4680956633
 30
0.0
 10
11.2849525838
 20
8.4676868194
 30
0.0
 10
11.2827549912
 20
8.4671757165
 30
0.0
 10
11.2801178761
 20
8.4665624136
 30
0.0
 10
11.277480762
 20
8.4659491052
 30
0.0
 10
11.2739646096
 20
8.4651313626
 30
0.0
 10
11.2695694192
 20
8.4641091836
 30
0.0
 10
11.2651742287
 20
8.4630870051
 30
0.0
 10
11.2616580765
 20
8.4622692617
 30
0.0
 10
11.2590209617
 20
8.4616559556
 30
0.0
 10
11.2563838491
 20
8.4610426442
 30
0.0
 10
11.2541862487
 20
8.4605315678
 30
0.0
 10
11.2524281831
 20
8.4601226699
 30
0.0
 10
11.2513293586
 20
8.4598671924
 30
0.0
 10
11.2504503758
 20
8.4596626186
 30
0.0
 10
11.2497909282
 20
8.4595097136
 30
0.0
 10
11.2492420582
 20
8.4593806215
 30
0.0
 10
11.248856535
 20
8.4592935368
 30
0.0
 10
11.2486382881
 20
8.4592386531
 30
0.0
 10
11.2484688222
 20
8.4592119164
 30
0.0
 10
11.2483214533
 20
8.4591300358
 30
0.0
 10
11.2481172537
 20
8.4590400964
 30
0.0
 10
11.2477634957
 20
8.4588737407
 30
0.0
 10
11.2472562495
 20
8.458640775
 30
0.0
 10
11.2466483578
 20
8.4583592107
 30
0.0
 10
11.2458375548
 20
8.4579844922
 30
0.0
 10
11.2448241471
 20
8.4575158541
 30
0.0
 10
11.2432026412
 20
8.4567661672
 30
0.0
 10
11.2411757772
 20
8.4558290126
 30
0.0
 10
11.2387435324
 20
8.4547044469
 30
0.0
 10
11.2363112898
 20
8.4535798758
 30
0.0
 10
11.2330682989
 20
8.4520804496
 30
0.0
 10
11.2290145606
 20
8.4502061661
 30
0.0
 10
11.2249608221
 20
8.4483318831
 30
0.0
 10
11.2217178315
 20
8.4468324561
 30
0.0
 10
11.2192855879
 20
8.4457078873
 30
0.0
 10
11.216853347
 20
8.4445833133
 30
0.0
 10
11.2148264711
 20
8.4436461843
 30
0.0
 10
11.2132049893
 20
8.4428964452
 30
0.0
 10
11.2121915202
 20
8.4424279402
 30
0.0
 10
11.2113808434
 20
8.4420529484
 30
0.0
 10
11.210772566
 20
8.441772219
 30
0.0
 10
11.2102665266
 20
8.4415366409
 30
0.0
 10
11.2099106143
 20
8.4413749488
 30
0.0
 10
11.2097098664
 20
8.4412775372
 30
0.0
 10
11.2095518953
 20
8.441218609
 30
0.0
 10
11.2094222494
 20
8.4411056669
 30
0.0
 10
11.2092395081
 20
8.440973918
 30
0.0
 10
11.2089243142
 20
8.4407345793
 30
0.0
 10
11.2084716306
 20
8.4403972563
 30
0.0
 10
11.2079294403
 20
8.4399905042
 30
0.0
 10
11.2072061601
 20
8.4394488543
 30
0.0
 10
11.2063021831
 20
8.4387715569
 30
0.0
 10
11.204855751
 20
8.4376880124
 30
0.0
 10
11.2030477345
 20
8.4363335367
 30
0.0
 10
11.2008781045
 20
8.4347081852
 30
0.0
 10
11.1987084773
 20
8.4330828286
 30
0.0
 10
11.1958156401
 20
8.4309156882
 30
0.0
 10
11.1921995939
 20
8.428206762
 30
0.0
 10
11.1885835474
 20
8.4254978363
 30
0.0
 10
11.1856907107
 20
8.4233306952
 30
0.0
 10
11.183521082
 20
8.4217053405
 30
0.0
 10
11.1813514576
 20
8.4200799818
 30
0.0
 10
11.1795434238
 20
8.4187255285
 30
0.0
 10
11.178097027
 20
8.4176419384
 30
0.0
 10
11.17719296
 20
8.4169647571
 30
0.0
 10
11.1764698645
 20
8.4164228688
 30
0.0
 10
11.1759271101
 20
8.4160168451
 30
0.0
 10
11.1754761914
 20
8.4156772432
 30
0.0
 10
11.1751578467
 20
8.4154419726
 30
0.0
 10
11.1749801538
 20
8.4153037057
 30
0.0
 10
11.1748350009
 20
8.415210785
 30
0.0
 10
11.1747352719
 20
8.4150766597
 30
0.0
 10
11.1745864555
 20
8.4149121986
 30
0.0
 10
11.1743334091
 20
8.4146176952
 30
0.0
 10
11.1739680547
 20
8.4142004771
 30
0.0
 10
11.1735312814
 20
8.4136983168
 30
0.0
 10
11.17294834
 20
8.4130292932
 30
0.0
 10
11.1722198608
 20
8.4121928345
 30
0.0
 10
11.1710541837
 20
8.4108546006
 30
0.0
 10
11.1695971252
 20
8.409181774
 30
0.0
 10
11.1678486387
 20
8.4071743967
 30
0.0
 10
11.1661001566
 20
8.4051670155
 30
0.0
 10
11.1637688456
 20
8.4024905086
 30
0.0
 10
11.1608547074
 20
8.3991448745
 30
0.0
 10
11.1579405688
 20
8.3957992407
 30
0.0
 10
11.1556092584
 20
8.3931227333
 30
0.0
 10
11.1538607744
 20
8.3911153537
 30
0.0
 10
11.152112295
 20
8.3891079706
 30
0.0
 10
11.1506552145
 20
8.387435162
 30
0.0
 10
11.1494895822
 20
8.3860968914
 30
0.0
 10
11.1487609889
 20
8.3852605263
 30
0.0
 10
11.1481782818
 20
8.3845913104
 30
0.0
 10
11.1477407925
 20
8.3840897376
 30
0.0
 10
11.1473776784
 20
8.3836706814
 30
0.0
 10
11.1471206326
 20
8.3833794594
 30
0.0
 10
11.1469782242
 20
8.3832097407
 30
0.0
 10
11.146858812
 20
8.3830917649
 30
0.0
 10
11.146787586
 20
8.3829381895
 30
0.0
 10
11.1466758101
 20
8.3827458399
 30
0.0
 10
11.1464880333
 20
8.3824034425
 30
0.0
 10
11.1462156866
 20
8.3819173281
 30
0.0
 10
11.145890623
 20
8.3813326961
 30
0.0
 10
11.1454565927
 20
8.3805536389
 30
0.0
 10
11.1449142645
 20
8.3795796627
 30
0.0
 10
11.1440464222
 20
8.3780213872
 30
0.0
 10
11.1429616595
 20
8.3760735132
 30
0.0
 10
11.1416599271
 20
8.3737360772
 30
0.0
 10
11.1403581992
 20
8.3713986377
 30
0.0
 10
11.1386225605
 20
8.3682820529
 30
0.0
 10
11.1364530127
 20
8.3643863215
 30
0.0
 10
11.1342834645
 20
8.3604905903
 30
0.0
 10
11.1325478264
 20
8.3573740051
 30
0.0
 10
11.1312460965
 20
8.3550365669
 30
0.0
 10
11.1299443718
 20
8.3526991262
 30
0.0
 10
11.1288595852
 20
8.3507512667
 30
0.0
 10
11.1279917916
 20
8.3491929617
 30
0.0
 10
11.1274493393
 20
8.3482190606
 30
0.0
 10
11.1270155638
 20
8.3474398492
 30
0.0
 10
11.1266897221
 20
8.3468556884
 30
0.0
 10
11.1264198098
 20
8.3463680998
 30
0.0
 10
11.1262276872
 20
8.346028334
 30
0.0
 10
11.1261228744
 20
8.3458317679
 30
0.0
 10
11.1260302598
 20
8.3456911442
 30
0.0
 10
11.1259911793
 20
8.3455245239
 30
0.0
 10
11.1259203987
 20
8.3453114314
 30
0.0
 10
11.1258052328
 20
8.3449342946
 30
0.0
 10
11.1256361616
 20
8.3443977366
 30
0.0
 10
11.1254352231
 20
8.3437529215
 30
0.0
 10
11.125166625
 20
8.3428934983
 30
0.0
 10
11.1248311102
 20
8.3418191063
 30
0.0
 10
11.1242941565
 20
8.3401001422
 30
0.0
 10
11.123623009
 20
8.3379514154
 30
0.0
 10
11.1228176128
 20
8.3353729525
 30
0.0
 10
11.1220122217
 20
8.3327944871
 30
0.0
 10
11.1209383652
 20
8.3293565342
 30
0.0
 10
11.1195960452
 20
8.3250590927
 30
0.0
 10
11.1182537247
 20
8.3207616513
 30
0.0
 10
11.1171798689
 20
8.3173236981
 30
0.0
 10
11.1163744756
 20
8.3147452336
 30
0.0
 10
11.1155690878
 20
8.3121667672
 30
0.0
 10
11.1148979143
 20
8.3100180514
 30
0.0
 10
11.1143610135
 20
8.3082990649
 30
0.0
 10
11.1140253641
 20
8.3072247298
 30
0.0
 10
11.1137570423
 20
8.3063651897
 30
0.0
 10
11.1135552596
 20
8.3057207319
 30
0.0
 10
11.1133888297
 20
8.3051830559
 30
0.0
 10
11.1132689486
 20
8.3048079149
 30
0.0
 10
11.113205723
 20
8.3045916247
 30
0.0
 10
11.1131434357
 20
8.3044348268
 30
0.0
 10
11.113137982
 20
8.3042573117
 30
0.0
 10
11.1131108862
 20
8.3040278514
 30
0.0
 10
11.1130727049
 20
8.3036229288
 30
0.0
 10
11.1130133313
 20
8.3030462283
 30
0.0
 10
11.11294415
 20
8.3023534343
 30
0.0
 10
11.1128511863
 20
8.301429972
 30
0.0
 10
11.1127352288
 20
8.3002755541
 30
0.0
 10
11.1125495587
 20
8.2984285357
 30
0.0
 10
11.1123175184
 20
8.2961197455
 30
0.0
 10
11.1120390498
 20
8.2933492047
 30
0.0
 10
11.1117605866
 20
8.2905786619
 30
0.0
 10
11.1113893005
 20
8.2868846055
 30
0.0
 10
11.1109251935
 20
8.2822670348
 30
0.0
 10
11.1103682648
 20
8.2767259501
 30
0.0
 10
11.1096256933
 20
8.269337837
 30
0.0
 10
11.1090687646
 20
8.2637967522
 30
0.0
 10
11.1086974788
 20
8.2601026957
 30
0.0
  0
SPLINE
  5
3CA
100
AcDbEntity
  8
0
100
AcDbSpline
 62
4
  6
CONTINUOUS
 70
0
 71
3
 72
403
 73
399
 74
0
 42
0.0000001
 43
0.0000001
 44
0.0000000001
 40
0.0
 40
0.0
 40
0.0
 40
0.0
 40
0.015625
 40
0.0234375
 40
0.03125
 40
0.0390625
 40
0.04296875
 40
0.046875
 40
0.05078125
 40
0.0546875
 40
0.056640625
 40
0.05859375
 40
0.0595703125
 40
0.060546875
 40
0.0615234375
 40
0.0620117188
 40
0.0622558594
 40
0.0625
 40
0.0627441406
 40
0.0629882812
 40
0.0634765625
 40
0.064453125
 40
0.0654296875
 40
0.06640625
 40
0.068359375
 40
0.0703125
 40
0.07421875
 40
0.078125
 40
0.08203125
 40
0.0859375
 40
0.09375
 40
0.1015625
 40
0.10546875
 40
0.109375
 40
0.11328125
 40
0.1171875
 40
0.119140625
 40
0.12109375
 40
0.1220703125
 40
0.123046875
 40
0.1240234375
 40
0.1245117188
 40
0.1247558594
 40
0.125
 40
0.1252441406
 40
0.1254882812
 40
0.1259765625
 40
0.126953125
 40
0.1279296875
 40
0.12890625
 40
0.130859375
 40
0.1328125
 40
0.13671875
 40
0.140625
 40
0.14453125
 40
0.1484375
 40
0.15625
 40
0.1640625
 40
0.16796875
 40
0.171875
 40
0.17578125
 40
0.1796875
 40
0.181640625
 40
0.18359375
 40
0.1845703125
 40
0.185546875
 40
0.1865234375
 40
0.1870117188
 40
0.1872558594
 40
0.1875
 40
0.1877441406
 40
0.1879882812
 40
0.1884765625
 40
0.189453125
 40
0.1904296875
 40
0.19140625
 40
0.193359375
 40
0.1953125
 40
0.19921875
 40
0.203125
 40
0.20703125
 40
0.2109375
 40
0.21875
 40
0.2265625
 40
0.23046875
 40
0.234375
 40
0.23828125
 40
0.2421875
 40
0.244140625
 40
0.24609375
 40
0.2470703125
 40
0.248046875
 40
0.2490234375
 40
0.2495117188
 40
0.2497558594
 40
0.25
 40
0.2502441406
 40
0.2504882812
 40
0.2509765625
 40
0.251953125
 40
0.2529296875
 40
0.25390625
 40
0.255859375
 40
0.2578125
 40
0.26171875
 40
0.265625
 40
0.26953125
 40
0.2734375
 40
0.28125
 40
0.2890625
 40
0.29296875
 40
0.296875
 40
0.30078125
 40
0.3046875
 40
0.306640625
 40
0.30859375
 40
0.3095703125
 40
0.310546875
 40
0.3115234375
 40
0.3120117188
 40
0.3122558594
 40
0.3125
 40
0.3127441406
 40
0.3129882812
 40
0.3134765625
 40
0.314453125
 40
0.3154296875
 40
0.31640625
 40
0.318359375
 40
0.3203125
 40
0.32421875
 40
0.328125
 40
0.33203125
 40
0.3359375
 40
0.34375
 40
0.3515625
 40
0.35546875
 40
0.359375
 40
0.36328125
 40
0.3671875
 40
0.369140625
 40
0.37109375
 40
0.3720703125
 40
0.373046875
 40
0.3740234375
 40
0.3745117188
 40
0.3747558594
 40
0.375
 40
0.3752441406
 40
0.3754882812
 40
0.3759765625
 40
0.376953125
 40
0.3779296875
 40
0.37890625
 40
0.380859375
 40
0.3828125
 40
0.38671875
 40
0.390625
 40
0.39453125
 40
0.3984375
 40
0.40625
 40
0.4140625
 40
0.41796875
 40
0.421875
 40
0.42578125
 40
0.4296875
 40
0.431640625
 40
0.43359375
 40
0.4345703125
 40
0.435546875
 40
0.4365234375
 40
0.4370117188
 40
0.4372558594
 40
0.4375
 40
0.4377441406
 40
0.4379882812
 40
0.4384765625
 40
0.439453125
 40
0.4404296875
 40
0.44140625
 40
0.443359375
 40
0.4453125
 40
0.44921875
 40
0.453125
 40
0.45703125
 40
0.4609375
 40
0.46875
 40
0.4765625
 40
0.48046875
 40
0.484375
 40
0.48828125
 40
0.4921875
 40
0.494140625
 40
0.49609375
 40
0.4970703125
 40
0.498046875
 40
0.4990234375
 40
0.4995117188
 40
0.4997558594
 40
0.5
 40
0.5002441406
 40
0.5004882812
 40
0.5009765625
 40
0.501953125
 40
0.5029296875
 40
0.50390625
 40
0.505859375
 40
0.5078125
 40
0.51171875
 40
0.515625
 40
0.51953125
 40
0.5234375
 40
0.53125
 40
0.5390625
 40
0.54296875
 40
0.546875
 40
0.55078125
 40
0.5546875
 40
0.556640625
 40
0.55859375
 40
0.5595703125
 40
0.560546875
 40
0.5615234375
 40
0.5620117188
 40
0.5622558594
 40
0.5625
 40
0.5627441406
 40
0.5629882812
 40
0.5634765625
 40
0.564453125
 40
0.5654296875
 40
0.56640625
 40
0.568359375
 40
0.5703125
 40
0.57421875
 40
0.578125
 40
0.58203125
 40
0.5859375
 40
0.59375
 40
0.6015625
 40
0.60546875
 40
0.609375
 40
0.61328125
 40
0.6171875
 40
0.619140625
 40
0.62109375
 40
0.6220703125
 40
0.623046875
 40
0.6240234375
 40
0.6245117188
 40
0.6247558594
 40
0.625
 40
0.6252441406
 40
0.6254882812
 40
0.6259765625
 40
0.626953125
 40
0.6279296875
 40
0.62890625
 40
0.630859375
 40
0.6328125
 40
0.63671875
 40
0.640625
 40
0.64453125
 40
0.6484375
 40
0.65625
 40
0.6640625
 40
0.66796875
 40
0.671875
 40
0.67578125
 40
0.6796875
 40
0.681640625
 40
0.68359375
 40
0.6845703125
 40
0.685546875
 40
0.6865234375
 40
0.6870117188
 40
0.6872558594
 40
0.6875
 40
0.6877441406
 40
0.6879882812
 40
0.6884765625
 40
0.689453125
 40
0.6904296875
 40
0.69140625
 40
0.693359375
 40
0.6953125
 40
0.69921875
 40
0.703125
 40
0.70703125
 40
0.7109375
 40
0.71875
 40
0.7265625
 40
0.73046875
 40
0.734375
 40
0.73828125
 40
0.7421875
 40
0.744140625
 40
0.74609375
 40
0.7470703125
 40
0.748046875
 40
0.7490234375
 40
0.7495117188
 40
0.7497558594
 40
0.75
 40
0.7502441406
 40
0.7504882812
 40
0.7509765625
 40
0.751953125
 40
0.7529296875
 40
0.75390625
 40
0.755859375
 40
0.7578125
 40
0.76171875
 40
0.765625
 40
0.76953125
 40
0.7734375
 40
0.78125
 40
0.7890625
 40
0.79296875
 40
0.796875
 40
0.80078125
 40
0.8046875
 40
0.806640625
 40
0.80859375
 40
0.8095703125
 40
0.810546875
 40
0.8115234375
 40
0.8120117188
 40
0.8122558594
 40
0.8125
 40
0.8127441406
 40
0.8129882812
 40
0.8134765625
 40
0.814453125
 40
0.8154296875
 40
0.81640625
 40
0.818359375
 40
0.8203125
 40
0.82421875
 40
0.828125
 40
0.83203125
 40
0.8359375
 40
0.84375
 40
0.8515625
 40
0.85546875
 40
0.859375
 40
0.86328125
 40
0.8671875
 40
0.869140625
 40
0.87109375
 40
0.8720703125
 40
0.873046875
 40
0.8740234375
 40
0.8745117188
 40
0.8747558594
 40
0.875
 40
0.8752441406
 40
0.8754882812
 40
0.8759765625
 40
0.876953125
 40
0.8779296875
 40
0.87890625
 40
0.880859375
 40
0.8828125
 40
0.88671875
 40
0.890625
 40
0.89453125
 40
0.8984375
 40
0.90625
 40
0.9140625
 40
0.91796875
 40
0.921875
 40
0.92578125
 40
0.9296875
 40
0.931640625
 40
0.93359375
 40
0.9345703125
 40
0.935546875
 40
0.9365234375
 40
0.9370117188
 40
0.9372558594
 40
0.9375
 40
0.9377441406
 40
0.9379882812
 40
0.9384765625
 40
0.939453125
 40
0.9404296875
 40
0.94140625
 40
0.943359375
 40
0.9453125
 40
0.94921875
 40
0.953125
 40
0.95703125
 40
0.9609375
 40
0.96875
 40
0.9765625
 40
0.984375
 40
1.0
 40
1.0
 40
1.0
 40
1.0
 10
11.1086974788
 20
8.2601027155
 30
0.0
 10
11.1090558925
 20
8.2564224746
 30
0.0
 10
11.1095935129
 20
8.2509021132
 30
0.0
 10
11.1103103401
 20
8.2435416314
 30
0.0
 10
11.1108479606
 20
8.23802127
 30
0.0
 10
11.1112959774
 20
8.2334209689
 30
0.0
 10
11.1116543914
 20
8.229740728
 30
0.0
 10
11.1119232005
 20
8.2269805472
 30
0.0
 10
11.112192015
 20
8.2242203671
 30
0.0
 10
11.1124160101
 20
8.2219202148
 30
0.0
 10
11.1125952442
 20
8.2200800978
 30
0.0
 10
11.1127071791
 20
8.2189300136
 30
0.0
 10
11.1127969249
 20
8.2180099717
 30
0.0
 10
11.1128636924
 20
8.2173198706
 30
0.0
 10
11.1129210558
 20
8.2167450081
 30
0.0
 10
11.1129578271
 20
8.2163421691
 30
0.0
 10
11.1129841218
 20
8.216112655
 30
0.0
 10
11.1129889618
 20
8.2159386049
 30
0.0
 10
11.1130506844
 20
8.215771873
 30
0.0
 10
11.1131131399
 20
8.2155470112
 30
0.0
 10
11.1132316814
 20
8.2151546924
 30
0.0
 10
11.1133961933
 20
8.2145936151
 30
0.0
 10
11.1135956764
 20
8.2139205885
 30
0.0
 10
11.1138609312
 20
8.2130231267
 30
0.0
 10
11.1141927471
 20
8.2119013313
 30
0.0
 10
11.1147235144
 20
8.2101064409
 30
0.0
 10
11.1153870209
 20
8.207862834
 30
0.0
 10
11.1161832083
 20
8.2051705031
 30
0.0
 10
11.1169794012
 20
8.2024781729
 30
0.0
 10
11.1180409898
 20
8.198888399
 30
0.0
 10
11.1193679763
 20
8.1944011818
 30
0.0
 10
11.1206949623
 20
8.1899139645
 30
0.0
 10
11.1217565516
 20
8.1863241908
 30
0.0
 10
11.1225527423
 20
8.18363186
 30
0.0
 10
11.1233489381
 20
8.1809395311
 30
0.0
 10
11.1240124186
 20
8.1786959181
 30
0.0
 10
11.1245432388
 20
8.17690104
 30
0.0
 10
11.1248749199
 20
8.1757792133
 30
0.0
 10
11.1251404514
 20
8.1748818159
 30
0.0
 10
11.1253390893
 20
8.1742085927
 30
0.0
 10
11.1255062456
 20
8.1736481304
 30
0.0
 10
11.1256200664
 20
8.1732547137
 30
0.0
 10
11.1256900856
 20
8.1730316109
 30
0.0
 10
11.1257285748
 20
8.1728594757
 30
0.0
 10
11.1258206755
 20
8.1727057196
 30
0.0
 10
11.1259247762
 20
8.1724943007
 30
0.0
 10
11.1261156651
 20
8.1721273044
 30
0.0
 10
11.1263838084
 20
8.1716014625
 30
0.0
 10
11.1267075301
 20
8.1709711206
 30
0.0
 10
11.1271384781
 20
8.1701304312
 30
0.0
 10
11.1276773962
 20
8.1690796495
 30
0.0
 10
11.1285395349
 20
8.167398354
 30
0.0
 10
11.129617253
 20
8.16529675
 30
0.0
 10
11.1309104955
 20
8.1627748186
 30
0.0
 10
11.1322037432
 20
8.1602528889
 30
0.0
 10
11.1339280716
 20
8.1568903155
 30
0.0
 10
11.1360834828
 20
8.1526870989
 30
0.0
 10
11.1382388935
 20
8.1484838821
 30
0.0
 10
11.1399632226
 20
8.1451213089
 30
0.0
 10
11.1412564681
 20
8.1425993784
 30
0.0
 10
11.1425497186
 20
8.1400774503
 30
0.0
 10
11.1436274119
 20
8.1379758361
 30
0.0
 10
11.1444896012
 20
8.1362945613
 30
0.0
 10
11.1450283905
 20
8.135243727
 30
0.0
 10
11.145459603
 20
8.1344031455
 30
0.0
 10
11.1457825165
 20
8.133772474
 30
0.0
 10
11.1460531885
 20
8.1332476634
 30
0.0
 10
11.1462395632
 20
8.132878826
 30
0.0
 10
11.1463508968
 20
8.132670357
 30
0.0
 10
11.1464207803
 20
8.1325075395
 30
0.0
 10
11.1465427134
 20
8.1323694376
 30
0.0
 10
11.1466871354
 20
8.1321766806
 30
0.0
 10
11.1469483329
 20
8.1318433726
 30
0.0
 10
11.1473170496
 20
8.1313651183
 30
0.0
 10
11.1477614027
 20
8.130792112
 30
0.0
 10
11.1483532123
 20
8.1300277897
 30
0.0
 10
11.1490932007
 20
8.1290724943
 30
0.0
 10
11.1502770556
 20
8.1275439616
 30
0.0
 10
11.1517569176
 20
8.1256333163
 30
0.0
 10
11.1535327335
 20
8.1233405331
 30
0.0
 10
11.1553085543
 20
8.1210477523
 30
0.0
 10
11.1576763136
 20
8.1179907104
 30
0.0
 10
11.1606360135
 20
8.1141694084
 30
0.0
 10
11.1635957129
 20
8.110348106
 30
0.0
 10
11.1659634729
 20
8.1072910646
 30
0.0
 10
11.1677392919
 20
8.1049982824
 30
0.0
 10
11.1695151145
 20
8.1027055043
 30
0.0
 10
11.1709949554
 20
8.1007948432
 30
0.0
 10
11.1721788534
 20
8.0992663428
 30
0.0
 10
11.1729187319
 20
8.0983109651
 30
0.0
 10
11.1735107671
 20
8.0975468118
 30
0.0
 10
11.173954431
 20
8.0969732892
 30
0.0
 10
11.1743253042
 20
8.0964966503
 30
0.0
 10
11.1745826521
 20
8.0961604585
 30
0.0
 10
11.174733242
 20
8.0959723222
 30
0.0
 10
11.1748362291
 20
8.095820027
 30
0.0
 10
11.1749772706
 20
8.0957105168
 30
0.0
 10
11.1751520522
 20
8.0955495793
 30
0.0
 10
11.1754641044
 20
8.095274892
 30
0.0
 10
11.1759066599
 20
8.0948788462
 30
0.0
 10
11.1764391105
 20
8.0944051474
 30
0.0
 10
11.1771485613
 20
8.0937730054
 30
0.0
 10
11.1780355402
 20
8.092983014
 30
0.0
 10
11.179454614
 20
8.0917189238
 30
0.0
 10
11.181228488
 20
8.0901388467
 30
0.0
 10
11.1833571232
 20
8.0882427388
 30
0.0
 10
11.1854857621
 20
8.0863466351
 30
0.0
 10
11.1883239459
 20
8.0838184954
 30
0.0
 10
11.1918716762
 20
8.0806583213
 30
0.0
 10
11.1954194062
 20
8.0774981468
 30
0.0
 10
11.1982575905
 20
8.0749700076
 30
0.0
 10
11.2003862279
 20
8.0730739021
 30
0.0
 10
11.2025148685
 20
8.071177801
 30
0.0
 10
11.2042887259
 20
8.0695977031
 30
0.0
 10
11.2057078335
 20
8.0683336554
 30
0.0
 10
11.2065947266
 20
8.0675435558
 30
0.0
 10
11.2073043534
 20
8.0669116359
 30
0.0
 10
11.2078362662
 20
8.0664372583
 30
0.0
 10
11.2082805045
 20
8.0660433362
 30
0.0
 10
11.2085895527
 20
8.0657648579
 30
0.0
 10
11.2087691474
 20
8.0656099945
 30
0.0
 10
11.2088954045
 20
8.0654818264
 30
0.0
 10
11.2090539194
 20
8.0653996073
 30
0.0
 10
11.2092540207
 20
8.0652739543
 30
0.0
 10
11.2096094405
 20
8.0650615291
 30
0.0
 10
11.2101144422
 20
8.0647541604
 30
0.0
 10
11.2107216175
 20
8.064386989
 30
0.0
 10
11.2115307747
 20
8.0638968435
 30
0.0
 10
11.2125423615
 20
8.0632843615
 30
0.0
 10
11.214160822
 20
8.0623042786
 30
0.0
 10
11.2161839246
 20
8.0610792133
 30
0.0
 10
11.2186116361
 20
8.0596091185
 30
0.0
 10
11.2210393507
 20
8.058139028
 30
0.0
 10
11.2242763025
 20
8.0561789059
 30
0.0
 10
11.2283224925
 20
8.0537287539
 30
0.0
 10
11.2323686824
 20
8.0512786015
 30
0.0
 10
11.2356056345
 20
8.04931848
 30
0.0
 10
11.238033348
 20
8.0478483876
 30
0.0
 10
11.2404610636
 20
8.0463783002
 30
0.0
 10
11.2424841534
 20
8.0451532119
 30
0.0
 10
11.24410264
 20
8.0441731759
 30
0.0
 10
11.2451141603
 20
8.0435605744
 30
0.0
 10
11.2459234541
 20
8.0430706742
 30
0.0
 10
11.2465302121
 20
8.0427027536
 30
0.0
 10
11.2470365192
 20
8.0423977288
 30
0.0
 10
11.2473896088
 20
8.0421811194
 30
0.0
 10
11.2475934437
 20
8.0420621706
 30
0.0
 10
11.2477404902
 20
8.0419593583
 30
0.0
 10
11.2479098207
 20
8.0419085347
 30
0.0
 10
11.2481278219
 20
8.0418226356
 30
0.0
 10
11.2485129455
 20
8.0416807614
 30
0.0
 10
11.2490612286
 20
8.0414736666
 30
0.0
 10
11.2497199788
 20
8.0412270436
 30
0.0
 10
11.2505980293
 20
8.0408975525
 30
0.0
 10
11.2516956894
 20
8.0404859147
 30
0.0
 10
11.2534518914
 20
8.039827168
 30
0.0
 10
11.2556471624
 20
8.0390037779
 30
0.0
 10
11.2582814797
 20
8.0380156912
 30
0.0
 10
11.2609157992
 20
8.0370276094
 30
0.0
 10
11.2644282243
 20
8.0357101654
 30
0.0
 10
11.268818756
 20
8.034063361
 30
0.0
 10
11.2732092876
 20
8.0324165561
 30
0.0
 10
11.276721713
 20
8.0310991128
 30
0.0
 10
11.2793560316
 20
8.0301110289
 30
0.0
 10
11.2819903519
 20
8.0291229503
 30
0.0
 10
11.2841856138
 20
8.0282995349
 30
0.0
 10
11.2859418345
 20
8.0276408397
 30
0.0
 10
11.2870394469
 20
8.0272290707
 30
0.0
 10
11.2879175952
 20
8.0268998491
 30
0.0
 10
11.2885760467
 20
8.0266524026
 30
0.0
 10
11.2891252646
 20
8.0264478843
 30
0.0
 10
11.2895087194
 20
8.0263014105
 30
0.0
 10
11.2897293943
 20
8.0262228811
 30
0.0
 10
11.2898905119
 20
8.0261494203
 30
0.0
 10
11.2900684051
 20
8.0261316296
 30
0.0
 10
11.2902997444
 20
8.0260884903
 30
0.0
 10
11.2907073147
 20
8.026022044
 30
0.0
 10
11.2912881325
 20
8.0259223906
 30
0.0
 10
11.291985724
 20
8.0258048311
 30
0.0
 10
11.2929156329
 20
8.025647378
 30
0.0
 10
11.294078092
 20
8.0254508037
 30
0.0
 10
11.2959379858
 20
8.0251361495
 30
0.0
 10
11.298262867
 20
8.0247428782
 30
0.0
 10
11.3010527184
 20
8.0242709327
 30
0.0
 10
11.3038425715
 20
8.0237989926
 30
0.0
 10
11.307562375
 20
8.0231697372
 30
0.0
 10
11.3122121296
 20
8.0223831686
 30
0.0
 10
11.3168618841
 20
8.0215965996
 30
0.0
 10
11.3205816877
 20
8.020967345
 30
0.0
 10
11.3233715406
 20
8.0204954025
 30
0.0
 10
11.3261613929
 20
8.0200234657
 30
0.0
 10
11.3284862714
 20
8.0196301674
 30
0.0
 10
11.3303461707
 20
8.0193155684
 30
0.0
 10
11.3315086157
 20
8.0191188537
 30
0.0
 10
11.3324385536
 20
8.0189616887
 30
0.0
 10
11.3331360566
 20
8.0188432491
 30
0.0
 10
11.3337171512
 20
8.0187463493
 30
0.0
 10
11.3341242274
 20
8.0186749872
 30
0.0
 10
11.3343563584
 20
8.0186397242
 30
0.0
 10
11.3345318199
 20
8.0185977402
 30
0.0
 10
11.3347020703
 20
8.0186151456
 30
0.0
 10
11.3349308886
 20
8.0186176372
 30
0.0
 10
11.3353304737
 20
8.0186316492
 30
0.0
 10
11.3359017523
 20
8.0186466204
 30
0.0
 10
11.3365870971
 20
8.0186667456
 30
0.0
 10
11.3375009563
 20
8.0186928249
 30
0.0
 10
11.3386432577
 20
8.0187256823
 30
0.0
 10
11.3404709526
 20
8.0187781097
 30
0.0
 10
11.3427555669
 20
8.0188436935
 30
0.0
 10
11.345497106
 20
8.0189223729
 30
0.0
 10
11.3482386445
 20
8.019001058
 30
0.0
 10
11.3518940294
 20
8.0191059694
 30
0.0
 10
11.3564632604
 20
8.0192371094
 30
0.0
 10
11.3610324915
 20
8.0193682489
 30
0.0
 10
11.3646878762
 20
8.0194731611
 30
0.0
 10
11.3674294151
 20
8.0195518438
 30
0.0
 10
11.3701709528
 20
8.0196305321
 30
0.0
 10
11.372455571
 20
8.0196960884
 30
0.0
 10
11.374283258
 20
8.0197485719
 30
0.0
 10
11.3754255795
 20
8.0197812866
 30
0.0
 10
11.3763393975
 20
8.0198076589
 30
0.0
 10
11.3770248684
 20
8.0198268888
 30
0.0
 10
11.3775957527
 20
8.0198446613
 30
0.0
 10
11.3779960416
 20
8.0198536724
 30
0.0
 10
11.3782237321
 20
8.0198641767
 30
0.0
 10
11.3783974466
 20
8.0198569696
 30
0.0
 10
11.378559898
 20
8.0199074261
 30
0.0
 10
11.3787804285
 20
8.0199545878
 30
0.0
 10
11.3791645264
 20
8.020046492
 30
0.0
 10
11.3797141948
 20
8.0201728843
 30
0.0
 10
11.3803733872
 20
8.0203266522
 30
0.0
 10
11.3812524535
 20
8.0205309436
 30
0.0
 10
11.3823512374
 20
8.0207865586
 30
0.0
 10
11.384109319
 20
8.0211954025
 30
0.0
 10
11.3863069115
 20
8.0217065054
 30
0.0
 10
11.3889440267
 20
8.0223198083
 30
0.0
 10
11.3915811407
 20
8.0229331167
 30
0.0
 10
11.3950972931
 20
8.0237508593
 30
0.0
 10
11.3994924835
 20
8.0247730383
 30
0.0
 10
11.4038876741
 20
8.0257952168
 30
0.0
 10
11.4074038263
 20
8.0266129601
 30
0.0
 10
11.410040941
 20
8.0272262663
 30
0.0
 10
11.4126780536
 20
8.0278395777
 30
0.0
 10
11.414875654
 20
8.0283506541
 30
0.0
 10
11.4166337196
 20
8.028759552
 30
0.0
 10
11.4177325442
 20
8.0290150294
 30
0.0
 10
11.418611527
 20
8.0292196033
 30
0.0
 10
11.4192709745
 20
8.0293725083
 30
0.0
 10
11.4198198445
 20
8.0295016003
 30
0.0
 10
11.4202053677
 20
8.029588685
 30
0.0
 10
11.4204236146
 20
8.0296435688
 30
0.0
 10
11.4205930806
 20
8.0296703055
 30
0.0
 10
11.4207404495
 20
8.0297521861
 30
0.0
 10
11.420944649
 20
8.0298421255
 30
0.0
 10
11.4212984071
 20
8.0300084812
 30
0.0
 10
11.4218056532
 20
8.0302414469
 30
0.0
 10
11.4224135449
 20
8.0305230111
 30
0.0
 10
11.423224348
 20
8.0308977297
 30
0.0
 10
11.4242377556
 20
8.0313663678
 30
0.0
 10
11.4258592616
 20
8.0321160547
 30
0.0
 10
11.4278861256
 20
8.0330532092
 30
0.0
 10
11.4303183703
 20
8.034177775
 30
0.0
 10
11.4327506129
 20
8.0353023461
 30
0.0
 10
11.4359936038
 20
8.0368017723
 30
0.0
 10
11.4400473421
 20
8.0386760558
 30
0.0
 10
11.4441010807
 20
8.0405503388
 30
0.0
 10
11.4473440712
 20
8.0420497657
 30
0.0
 10
11.4497763148
 20
8.0431743346
 30
0.0
 10
11.4522085558
 20
8.0442989086
 30
0.0
 10
11.4542354316
 20
8.0452360375
 30
0.0
 10
11.4558569134
 20
8.0459857767
 30
0.0
 10
11.4568703826
 20
8.0464542816
 30
0.0
 10
11.4576810593
 20
8.0468292735
 30
0.0
 10
11.4582893368
 20
8.0471100029
 30
0.0
 10
11.4587953762
 20
8.0473455809
 30
0.0
 10
11.4591512884
 20
8.0475072731
 30
0.0
 10
11.4593520364
 20
8.0476046847
 30
0.0
 10
11.4595100075
 20
8.0476636129
 30
0.0
 10
11.4596396533
 20
8.047776555
 30
0.0
 10
11.4598223946
 20
8.0479083039
 30
0.0
 10
11.4601375885
 20
8.0481476426
 30
0.0
 10
11.4605902722
 20
8.0484849656
 30
0.0
 10
11.4611324625
 20
8.0488917177
 30
0.0
 10
11.4618557427
 20
8.0494333676
 30
0.0
 10
11.4627597197
 20
8.050110665
 30
0.0
 10
11.4642061518
 20
8.0511942095
 30
0.0
 10
11.4660141683
 20
8.0525486852
 30
0.0
 10
11.4681837982
 20
8.0541740366
 30
0.0
 10
11.4703534254
 20
8.0557993933
 30
0.0
 10
11.4732462627
 20
8.0579665337
 30
0.0
 10
11.4768623089
 20
8.0606754599
 30
0.0
 10
11.4804783553
 20
8.0633843856
 30
0.0
 10
11.4833711921
 20
8.0655515267
 30
0.0
 10
11.4855408208
 20
8.0671768814
 30
0.0
 10
11.4877104451
 20
8.0688022401
 30
0.0
 10
11.489518479
 20
8.0701566934
 30
0.0
 10
11.4909648757
 20
8.0712402835
 30
0.0
 10
11.4918689427
 20
8.0719174647
 30
0.0
 10
11.4925920383
 20
8.0724593531
 30
0.0
 10
11.4931347927
 20
8.0728653768
 30
0.0
 10
11.4935857113
 20
8.0732049787
 30
0.0
 10
11.4939040561
 20
8.0734402493
 30
0.0
 10
11.4940817489
 20
8.0735785162
 30
0.0
 10
11.4942269019
 20
8.0736714369
 30
0.0
 10
11.4943266309
 20
8.0738055622
 30
0.0
 10
11.4944754472
 20
8.0739700233
 30
0.0
 10
11.4947284937
 20
8.0742645267
 30
0.0
 10
11.4950938481
 20
8.0746817448
 30
0.0
 10
11.4955306214
 20
8.075183905
 30
0.0
 10
11.4961135628
 20
8.0758529287
 30
0.0
 10
11.496842042
 20
8.0766893874
 30
0.0
 10
11.4980077191
 20
8.0780276212
 30
0.0
 10
11.4994647776
 20
8.0797004479
 30
0.0
 10
11.5012132641
 20
8.0817078252
 30
0.0
 10
11.5029617462
 20
8.0837152064
 30
0.0
 10
11.5052930572
 20
8.0863917132
 30
0.0
 10
11.5082071954
 20
8.0897373473
 30
0.0
 10
11.511121334
 20
8.0930829811
 30
0.0
 10
11.5134526443
 20
8.0957594885
 30
0.0
 10
11.5152011283
 20
8.0977668682
 30
0.0
 10
11.5169496077
 20
8.0997742512
 30
0.0
 10
11.5184066882
 20
8.1014470598
 30
0.0
 10
11.5195723205
 20
8.1027853305
 30
0.0
 10
11.5203009139
 20
8.1036216956
 30
0.0
 10
11.5208836209
 20
8.1042909115
 30
0.0
 10
11.5213211102
 20
8.1047924843
 30
0.0
 10
11.5216842243
 20
8.1052115405
 30
0.0
 10
11.5219412701
 20
8.1055027625
 30
0.0
 10
11.5220836785
 20
8.1056724811
 30
0.0
 10
11.5222030907
 20
8.105790457
 30
0.0
 10
11.5222743168
 20
8.1059440323
 30
0.0
 10
11.5223860927
 20
8.106136382
 30
0.0
 10
11.5225738695
 20
8.1064787794
 30
0.0
 10
11.5228462162
 20
8.1069648938
 30
0.0
 10
11.5231712798
 20
8.1075495258
 30
0.0
 10
11.52360531
 20
8.1083285829
 30
0.0
 10
11.5241476383
 20
8.1093025592
 30
0.0
 10
11.5250154806
 20
8.1108608346
 30
0.0
 10
11.5261002432
 20
8.1128087086
 30
0.0
 10
11.5274019757
 20
8.1151461447
 30
0.0
 10
11.5287037035
 20
8.1174835842
 30
0.0
 10
11.5304393422
 20
8.120600169
 30
0.0
 10
11.5326088901
 20
8.1244959004
 30
0.0
 10
11.5347784383
 20
8.1283916315
 30
0.0
 10
11.5365140763
 20
8.1315082167
 30
0.0
 10
11.5378158062
 20
8.133845655
 30
0.0
 10
11.539117531
 20
8.1361830957
 30
0.0
 10
11.5402023176
 20
8.1381309552
 30
0.0
 10
11.5410701111
 20
8.1396892602
 30
0.0
 10
11.5416125634
 20
8.1406631613
 30
0.0
 10
11.542046339
 20
8.1414423726
 30
0.0
 10
11.5423721807
 20
8.1420265335
 30
0.0
 10
11.542642093
 20
8.1425141221
 30
0.0
 10
11.5428342156
 20
8.1428538879
 30
0.0
 10
11.5429390284
 20
8.143050454
 30
0.0
 10
11.5430316429
 20
8.1431910777
 30
0.0
 10
11.5430707234
 20
8.143357698
 30
0.0
 10
11.543141504
 20
8.1435707905
 30
0.0
 10
11.5432566699
 20
8.1439479273
 30
0.0
 10
11.5434257411
 20
8.1444844853
 30
0.0
 10
11.5436266797
 20
8.1451293004
 30
0.0
 10
11.5438952778
 20
8.1459887235
 30
0.0
 10
11.5442307925
 20
8.1470631156
 30
0.0
 10
11.5447677463
 20
8.1487820797
 30
0.0
 10
11.5454388938
 20
8.1509308065
 30
0.0
 10
11.54624429
 20
8.1535092694
 30
0.0
 10
11.547049681
 20
8.1560877348
 30
0.0
 10
11.5481235376
 20
8.1595256877
 30
0.0
 10
11.5494658576
 20
8.1638231292
 30
0.0
 10
11.550808178
 20
8.1681205705
 30
0.0
 10
11.5518820338
 20
8.1715585238
 30
0.0
 10
11.5526874271
 20
8.1741369882
 30
0.0
 10
11.553492815
 20
8.1767154546
 30
0.0
 10
11.5541639884
 20
8.1788641705
 30
0.0
 10
11.5547008893
 20
8.180583157
 30
0.0
 10
11.5550365387
 20
8.1816574921
 30
0.0
 10
11.5553048604
 20
8.1825170322
 30
0.0
 10
11.5555066432
 20
8.1831614899
 30
0.0
 10
11.555673073
 20
8.1836991659
 30
0.0
 10
11.5557929542
 20
8.1840743069
 30
0.0
 10
11.5558561797
 20
8.1842905972
 30
0.0
 10
11.555918467
 20
8.1844473951
 30
0.0
 10
11.5559239208
 20
8.1846249101
 30
0.0
 10
11.5559510166
 20
8.1848543705
 30
0.0
 10
11.5559891978
 20
8.185259293
 30
0.0
 10
11.5560485714
 20
8.1858359936
 30
0.0
 10
11.5561177528
 20
8.1865287876
 30
0.0
 10
11.5562107165
 20
8.1874522499
 30
0.0
 10
11.556326674
 20
8.1886066678
 30
0.0
 10
11.5565123441
 20
8.1904536861
 30
0.0
 10
11.5567443843
 20
8.1927624763
 30
0.0
 10
11.557022853
 20
8.1955330172
 30
0.0
 10
11.5573013161
 20
8.19830356
 30
0.0
 10
11.5576726023
 20
8.2019976164
 30
0.0
 10
11.5581367093
 20
8.2066151871
 30
0.0
 10
11.558693638
 20
8.2121562718
 30
0.0
 10
11.5594362095
 20
8.2195443849
 30
0.0
 10
11.5599931381
 20
8.2250854697
 30
0.0
 10
11.5603644239
 20
8.2287795262
 30
0.0
  0
ENDSEC
  0
SECTION
  2
OBJECTS
  0
DICTIONARY
  5
C
100
AcDbDictionary
280
0
281
1
  3
ACAD_GROUP
350
D
  3
ACAD_MLINESTYLE
350
17
  3
ACAD_LAYOUT
350
1A
  3
ACAD_PLOTSETTINGS
350
19
  3
ACAD_PLOTSTYLENAME
350
E
  3
ACAD_IMAGE_DICT
350
       3CC
  3
ACAD_IMAGE_VARS
350
       3CD
  3
ACAD_TABLESTYLE
350
       3CE
  0
IMAGEDEF_REACTOR
  5
3CB
100
AcDbRasterImageDefReactor
 90
2
330
28E
  0
DICTIONARY
  5
D
102
{ACAD_REACTORS
330
C
102
}
100
AcDbDictionary
280
0
281
1
  0
ACDBDICTIONARYWDFLT
  5
E
102
{ACAD_REACTORS
330
C
102
}
100
AcDbDictionary
281
1
  3
Normal
350
F
100
AcDbDictionaryWithDefault
340
F
  0
DICTIONARY
  5
3CC
330
C
100
AcDbDictionary
281
1
  3
CBBALHN-X4F_assy_2_img_1
350
       3D1
  0
RASTERVARIABLES
  5
3CD
330
C
100
AcDbRasterVariables
 90
0
 70
0
 71
1
 72
5
  0
DICTIONARY
  5
17
102
{ACAD_REACTORS
330
C
102
}
100
AcDbDictionary
280
0
281
1
  3
Standard
350
18
  0
DICTIONARY
  5
3CE
330
C
100
AcDbDictionary
281
1
  3
Standard
350
       3D2
  3
Standard1
350
       3D3
  0
DICTIONARY
  5
19
102
{ACAD_REACTORS
330
C
102
}
100
AcDbDictionary
281
1
  0
DICTIONARY
  5
1A
102
{ACAD_REACTORS
330
C
102
}
100
AcDbDictionary
281
1
  3
Model
350
3CF
  3
Layout1
350
3D0
  0
ACDBPLACEHOLDER
  5
F
102
{ACAD_REACTORS
330
E
102
}
  0
MLINESTYLE
  5
18
102
{ACAD_REACTORS
330
17
102
}
100
AcDbMlineStyle
  2
STANDARD
 70
0
  3

 62
256
 51
90.0
 52
90.0
 71
2
 49
0.5
 62
256
  6
BYLAYER
 49
-0.5
 62
256
  6
BYLAYER
  0
LAYOUT
  5
3CF
102
{ACAD_REACTORS
330
1A
102
}
100
AcDbPlotSettings
  1

  2
none_device
  4
ANSI_C_(22.00_x_17.00_Inches)
  6

 40
0.0
 41
0.0
 42
0.0
 43
0.0
 44
558.8
 45
431.8
 46
0.0
 47
0.0
 48
0.0
 49
0.0
140
0.0
141
0.0
142
1.0
143
1.0
 70
1024
 72
0
 73
0
 74
0
  7

 75
0
147
1.0
148
0.0
149
0.0
100
AcDbLayout
  1
Model
 70
0
 71
0
 10
0.0
 20
0.0
 11
22.0
 21
17.0
 12
0.0
 22
0.0
 32
0.0
 14
0.0
 24
0.0
 34
0.0
 15
0.0
 25
0.0
 35
0.0
146
0.0
 13
0.0
 23
0.0
 33
0.0
 16
1.0
 26
0.0
 36
0.0
 17
0.0
 27
1.0
 37
0.0
 76
0
330
20F
345
0
346
0
  0
LAYOUT
  5
3D0
102
{ACAD_REACTORS
330
1A
102
}
100
AcDbPlotSettings
  1

  2
none_device
  4
ANSI_C_(22.00_x_17.00_Inches)
  6

 40
0.0
 41
0.0
 42
0.0
 43
0.0
 44
558.8
 45
431.8
 46
0.0
 47
0.0
 48
0.0
 49
0.0
140
0.0
141
0.0
142
1.0
143
1.0
 70
0
 72
0
 73
0
 74
0
  7

 75
0
147
1.0
148
0.0
149
0.0
100
AcDbLayout
  1
Layout1
 70
0
 71
1
 10
0.0
 20
0.0
 11
22.0
 21
17.0
 12
0.0
 22
0.0
 32
0.0
 14
0.0
 24
0.0
 34
0.0
 15
0.0
 25
0.0
 35
0.0
146
0.0
 13
0.0
 23
0.0
 33
0.0
 16
1.0
 26
0.0
 36
0.0
 17
0.0
 27
1.0
 37
0.0
 76
0
330
210
345
0
346
0
  0
IMAGEDEF
  5
3D1
102
{ACAD_REACTORS
330
3CC
330
3CB
102
}
100
AcDbRasterImageDef
 90
0
  1
CBBALHN-X4F_assy_2_img_1.png
 10
369.0
 20
92.0
 11
0.0066666667
 21
0.0066666667
280
1
281
0
  0
TABLESTYLE
  5
3D2
102
{ACAD_REACTORS
330
3CE
330
291
330
292
102
}
330
3CE
100
AcDbTableStyle
  3
Standard
 70
0
 71
0
 40
0.06
 41
0.06
280
1
281
1
  7
Standard
140
0.18
170
1
 62
0
 63
7
283
0
  7
Standard
140
0.18
170
1
 62
0
 63
7
283
0
  7
Standard
140
0.18
170
1
 62
0
 63
7
283
0
  0
TABLESTYLE
  5
3D3
102
{ACAD_REACTORS
330
3CE
330
290
102
}
330
3CE
100
AcDbTableStyle
  3
Standard1
 70
1
 71
0
 40
0.06
 41
0.06
280
1
281
1
  7
Standard
140
0.18
170
1
 62
0
 63
7
283
0
  7
Standard
140
0.18
170
1
 62
0
 63
7
283
0
  7
Standard
140
0.18
170
1
 62
0
 63
7
283
0
  0
ENDSEC
  0
EOF
