999
DXF file: CBBALHN-ECV_assy_2.dxf
999
Pro/ENGINEER 2014200 by Parametric Technology Corporation
  0
SECTION
  2
HEADER
  9
$ACADVER
  1
AC1021
  9
$DWGCODEPAGE
  3
ANSI_1252
  9
$EXTMAX
 10
22.0
 20
17.0
 30
0.0
  9
$EXTMIN
 10
0.0
 20
0.0
 30
0.0
  9
$LIMMIN
 10
0.0
 20
0.0
  9
$LIMMAX
 10
22.0
 20
17.0
  9
$VIEWCTR
 10
11.0
 20
8.5
  9
$VIEWSIZE
 40
17.0
  9
$CLAYER
  8
0
  9
$LTSCALE
 40
1.21
  9
$CELTYPE
  6
BYLAYER
  9
$DIMSCALE
 40
1.0
  9
$DIMASZ
 40
0.1875
  9
$DIMEXO
 40
0.0625
  9
$DIMDLI
 40
0.836
  9
$DIMEXE
 40
0.125
  9
$DIMCEN
 40
0.198
  9
$DIMLFAC
 40
1.0
  9
$DIMBLK
  1
_FILLED
  9
$DIMTXT
 40
0.1
  9
$DIMTOL
 70
0
  9
$DIMLIM
 70
0
  9
$DIMTFAC
 40
1.0
  9
$DIMGAP
 40
0.09
  9
$DIMDSEP
 70
46
  9
$AUNITS
 70
0
  9
$PDMODE
 70
3
  9
$PDSIZE
 40
0.3125
  9
$HANDSEED
  5
3B7
  9
$TILEMODE
 70
1
  9
$MEASUREMENT
 70
0
  9
$INSUNITS
 70
1
  0
ENDSEC
  0
SECTION
  2
CLASSES
  0
CLASS
  1
ACDBDICTIONARYWDFLT
  2
AcDbDictionaryWithDefault
  3
AutoCAD 2000
 90
0
 91
1
280
0
281
0
  0
CLASS
  1
ACDBPLACEHOLDER
  2
AcDbPlaceHolder
  3
AutoCAD 2000
 90
0
 91
1
280
0
281
0
  0
CLASS
  1
LAYOUT
  2
AcDbLayout
  3
AutoCAD 2000
 90
0
 91
0
280
0
281
0
  0
CLASS
  1
RASTERVARIABLES
  2
AcDbRasterVariables
  3
ISM
 90
0
 91
1
280
0
281
0
  0
CLASS
  1
IMAGEDEF
  2
AcDbRasterImageDef
  3
ISM
 90
0
 91
1
280
0
281
0
  0
CLASS
  1
IMAGEDEF_REACTOR
  2
AcDbRasterImageDefReactor
  3
ISM
 90
0
 91
1
280
0
281
0
  0
CLASS
  1
IMAGE
  2
AcDbRasterImage
  3
ISM
 90
127
 91
1
280
0
281
1
  0
CLASS
  1
TABLESTYLE
  2
AcDbTableStyle
  3
ObjectDBX Classes
 90
2047
 91
1
280
0
281
0
  0
CLASS
  1
ACAD_TABLE
  2
AcDbTable
  3
ObjectDBX Classes
 90
1025
 91
3
280
0
281
1
  0
ENDSEC
  0
SECTION
  2
TABLES
  0
TABLE
  2
VPORT
  5
8
100
AcDbSymbolTable
 70
2
  0
VPORT
  5
1F4
100
AcDbSymbolTableRecord
100
AcDbViewportTableRecord
  2
*ACTIVE
 70
0
 10
0.0
 20
0.0
 11
1.0
 21
1.0
 12
11.0
 22
8.5
 13
0.0
 23
0.0
 14
1.0
 24
1.0
 15
0.0
 25
0.0
 16
0.0
 26
0.0
 36
1.0
 17
0.0
 27
0.0
 37
0.0
 40
17.0
 41
1.2941176471
 42
50.0
 43
0.0
 44
0.0
 50
0.0
 51
0.0
 71
0
 72
100
 73
1
 74
1
 75
0
 76
0
 77
0
 78
0
  0
ENDTAB
  0
TABLE
  2
LTYPE
  5
5
100
AcDbSymbolTable
 70
6
  0
LTYPE
  5
14
100
AcDbSymbolTableRecord
100
AcDbLinetypeTableRecord
  2
BYBLOCK
 70
0
  3

 72
65
 73
0
 40
0.0
  0
LTYPE
  5
15
100
AcDbSymbolTableRecord
100
AcDbLinetypeTableRecord
  2
BYLAYER
 70
0
  3

 72
65
 73
0
 40
0.0
  0
LTYPE
  5
16
100
AcDbSymbolTableRecord
100
AcDbLinetypeTableRecord
  2
CONTINUOUS
 70
64
  3
Solid line
 72
65
 73
0
 40
0.0
  0
LTYPE
  5
1F5
100
AcDbSymbolTableRecord
100
AcDbLinetypeTableRecord
  2
CENTER
 70
64
  3
____ _ ____ _ ____ _ ____ _ ____ _ ____ _ ____
 72
65
 73
4
 40
0.6
 49
0.375
 74
0
 49
-0.075
 74
0
 49
0.075
 74
0
 49
-0.075
 74
0
  0
LTYPE
  5
1F6
100
AcDbSymbolTableRecord
100
AcDbLinetypeTableRecord
  2
HIDDEN
 70
64
  3
- - - - - - - - - - - - - - - - - - - -
 72
65
 73
2
 40
0.2
 49
0.1
 74
0
 49
-0.1
 74
0
  0
LTYPE
  5
1F7
100
AcDbSymbolTableRecord
100
AcDbLinetypeTableRecord
  2
PHANTOM
 70
64
  3
_____ _ _ _____ _ _ _____ _ _ _____
 72
65
 73
6
 40
0.8
 49
0.45
 74
0
 49
-0.05
 74
0
 49
0.1
 74
0
 49
-0.05
 74
0
 49
0.1
 74
0
 49
-0.05
 74
0
  0
LTYPE
  5
1F8
100
AcDbSymbolTableRecord
100
AcDbLinetypeTableRecord
  2
DOT
 70
64
  3
. . . . . . . . . . . . . . . . . . . .
 72
65
 73
2
 40
0.2
 49
0.1
 74
0
 49
-0.1
 74
0
  0
LTYPE
  5
1F9
100
AcDbSymbolTableRecord
100
AcDbLinetypeTableRecord
  2
DASHED
 70
64
  3
- - - - - - - - - - - - - - - - - - - -
 72
65
 73
2
 40
0.2
 49
0.1
 74
0
 49
-0.1
 74
0
  0
ENDTAB
  0
TABLE
  2
LAYER
  5
2
100
AcDbSymbolTable
 70
36
  0
LAYER
  5
10
100
AcDbSymbolTableRecord
100
AcDbLayerTableRecord
  2
0
 70
0
 62
7
  6
CONTINUOUS
370
-3
390
F
  0
LAYER
  5
1FA
100
AcDbSymbolTableRecord
100
AcDbLayerTableRecord
  2
DEFAULT_1
 70
0
 62
7
  6
CENTER
370
-3
390
F
  0
LAYER
  5
1FB
100
AcDbSymbolTableRecord
100
AcDbLayerTableRecord
  2
DEFAULT_2
 70
0
 62
8
  6
HIDDEN
370
-3
390
F
  0
LAYER
  5
1FC
100
AcDbSymbolTableRecord
100
AcDbLayerTableRecord
  2
DEFAULT_3
 70
0
 62
7
  6
PHANTOM
370
-3
390
F
  0
LAYER
  5
1FD
100
AcDbSymbolTableRecord
100
AcDbLayerTableRecord
  2
01___PRT_ALL_DTM_PLN
 70
0
 62
7
  6
CONTINUOUS
370
-3
390
F
  0
LAYER
  5
1FE
100
AcDbSymbolTableRecord
100
AcDbLayerTableRecord
  2
01___PRT_DEF_DTM_PLN
 70
0
 62
7
  6
CONTINUOUS
370
-3
390
F
  0
LAYER
  5
1FF
100
AcDbSymbolTableRecord
100
AcDbLayerTableRecord
  2
02___PRT_ALL_AXES
 70
0
 62
7
  6
CONTINUOUS
370
-3
390
F
  0
LAYER
  5
200
100
AcDbSymbolTableRecord
100
AcDbLayerTableRecord
  2
03___PRT_ALL_CURVES
 70
0
 62
7
  6
CONTINUOUS
370
-3
390
F
  0
LAYER
  5
201
100
AcDbSymbolTableRecord
100
AcDbLayerTableRecord
  2
04___PRT_ALL_DTM_PNT
 70
0
 62
7
  6
CONTINUOUS
370
-3
390
F
  0
LAYER
  5
202
100
AcDbSymbolTableRecord
100
AcDbLayerTableRecord
  2
05___PRT_ALL_DTM_CSYS
 70
0
 62
7
  6
CONTINUOUS
370
-3
390
F
  0
LAYER
  5
203
100
AcDbSymbolTableRecord
100
AcDbLayerTableRecord
  2
05___PRT_DEF_DTM_CSYS
 70
0
 62
7
  6
CONTINUOUS
370
-3
390
F
  0
LAYER
  5
204
100
AcDbSymbolTableRecord
100
AcDbLayerTableRecord
  2
06___PRT_ALL_SURFS
 70
0
 62
7
  6
CONTINUOUS
370
-3
390
F
  0
LAYER
  5
205
100
AcDbSymbolTableRecord
100
AcDbLayerTableRecord
  2
DATUM_PLANES
 70
0
 62
7
  6
CONTINUOUS
370
-3
390
F
  0
LAYER
  5
206
100
AcDbSymbolTableRecord
100
AcDbLayerTableRecord
  2
PORT_AREAS
 70
0
 62
7
  6
CONTINUOUS
370
-3
390
F
  0
LAYER
  5
207
100
AcDbSymbolTableRecord
100
AcDbLayerTableRecord
  2
SUNNBOMCOSMETIC
 70
0
 62
7
  6
CONTINUOUS
370
-3
390
F
  0
LAYER
  5
208
100
AcDbSymbolTableRecord
100
AcDbLayerTableRecord
  2
SUNNBOMSTAMPING
 70
0
 62
7
  6
CONTINUOUS
370
-3
390
F
  0
LAYER
  5
209
100
AcDbSymbolTableRecord
100
AcDbLayerTableRecord
  2
THREADS
 70
0
 62
7
  6
CONTINUOUS
370
-3
390
F
  0
ENDTAB
  0
TABLE
  2
STYLE
  5
3
100
AcDbSymbolTable
 70
1
  0
STYLE
  5
11
100
AcDbSymbolTableRecord
100
AcDbTextStyleTableRecord
  2
STANDARD
 70
0
 40
0.0
 41
0.8
 50
0.0
 71
0
 42
0.2
  3
txt
  4

  0
STYLE
  5
20A
100
AcDbSymbolTableRecord
100
AcDbTextStyleTableRecord
  2
TEXTSTYLE_1
 70
0
 40
0.0
 41
0.8
 50
0.0
 71
0
 42
0.2
  3
gdt
  4

  0
ENDTAB
  0
TABLE
  2
VIEW
  5
6
100
AcDbSymbolTable
 70
0
  0
ENDTAB
  0
TABLE
  2
UCS
  5
7
100
AcDbSymbolTable
 70
0
  0
ENDTAB
  0
TABLE
  2
APPID
  5
9
100
AcDbSymbolTable
 70
1
  0
APPID
  5
20B
100
AcDbSymbolTableRecord
100
AcDbRegAppTableRecord
  2
ACAD
 70
0
  0
ENDTAB
  0
TABLE
  2
BLOCK_RECORD
  5
1
100
AcDbSymbolTable
 70
0
  0
BLOCK_RECORD
  5
20C
100
AcDbSymbolTableRecord
100
AcDbBlockTableRecord
  2
*Model_Space
  0
BLOCK_RECORD
  5
20D
100
AcDbSymbolTableRecord
100
AcDbBlockTableRecord
  2
*Paper_Space
  0
BLOCK_RECORD
  5
20E
100
AcDbSymbolTableRecord
100
AcDbBlockTableRecord
  2
SUN_FIRST_THIRD_ANGLE_BL0
  0
BLOCK_RECORD
  5
20F
100
AcDbSymbolTableRecord
100
AcDbBlockTableRecord
  2
*T1
  0
BLOCK_RECORD
  5
210
100
AcDbSymbolTableRecord
100
AcDbBlockTableRecord
  2
*T2
  0
BLOCK_RECORD
  5
211
100
AcDbSymbolTableRecord
100
AcDbBlockTableRecord
  2
*T3
  0
ENDTAB
  0
TABLE
  2
DIMSTYLE
  5
A
100
AcDbSymbolTable
 70
1
100
AcDbDimStyleTable
 71
0
  0
DIMSTYLE
105
212
100
AcDbSymbolTableRecord
100
AcDbDimStyleTableRecord
  2
STANDARD
 70
0
  3

  4

 40
1.0
 41
0.1875
 42
0.0625
 43
0.38
 44
0.125
 45
0.0
 46
0.0
 47
0.001
 48
0.001
140
0.1
141
0.09
142
0.0
143
25.4
144
1.0
145
0.0
146
1.0
147
0.09
 71
0.0
 72
0.0
 73
1
 74
1
 75
0
 76
0
 77
0
 78
4
170
0
171
2
172
0
173
0
174
0
175
0
176
0
177
0
178
0
270
2
271
3
272
3
273
2
274
2
275
0
280
0
281
0
282
0
283
1
284
4
285
0
286
0
287
3
288
0
340
11
278
46
  0
ENDTAB
  0
ENDSEC
  0
SECTION
  2
BLOCKS
  0
BLOCK
  5
20
100
AcDbEntity
  8
0
100
AcDbBlockBegin
  2
*Model_Space
 70
0
 10
0.0
 20
0.0
 30
0.0
  3
*Model_Space
  1

  0
ENDBLK
  5
21
100
AcDbEntity
  8
0
100
AcDbBlockEnd
  0
BLOCK
  5
1C
100
AcDbEntity
  8
0
100
AcDbBlockBegin
  2
*Paper_Space
 70
0
 10
0.0
 20
0.0
 30
0.0
  3
*Paper_Space
  1

  0
ENDBLK
  5
1D
100
AcDbEntity
  8
0
100
AcDbBlockEnd
  0
BLOCK
  5
213
100
AcDbEntity
  8
0
100
AcDbBlockBegin
 62
2
  6
CONTINUOUS
  2
SUN_FIRST_THIRD_ANGLE_BL0
 70
64
 10
20.4816717061
 20
1.2289683772
  3
SUN_FIRST_THIRD_ANGLE_BL0
  1

  0
TEXT
  5
214
100
AcDbEntity
  8
0
100
AcDbText
 62
2
  6
CONTINUOUS
 10
19.4750896608
 20
1.4136269581
  7
STANDARD
 40
0.08
  1
FIRST ANGLE
 41
0.8
 72
0
100
AcDbText
  0
TEXT
  5
215
100
AcDbEntity
  8
0
100
AcDbText
 62
2
  6
CONTINUOUS
 10
20.7842537513
 20
1.4047600029
  7
STANDARD
 40
0.08
  1
THIRD ANGLE
 41
0.8
 72
0
100
AcDbText
  0
LINE
  5
216
100
AcDbEntity
  8
0
100
AcDbLine
 62
7
  6
CONTINUOUS
 10
19.4767170086
 20
1.1727031207
 11
19.6334271527
 21
1.1717972817
  0
LINE
  5
217
100
AcDbEntity
  8
0
100
AcDbLine
 62
7
  6
CONTINUOUS
 10
19.6596964832
 20
1.1717972817
 11
19.6950230232
 21
1.171593082
  0
LINE
  5
218
100
AcDbEntity
  8
0
100
AcDbLine
 62
7
  6
CONTINUOUS
 10
19.7194818561
 20
1.1708914427
 11
19.8852396156
 21
1.1699333054
  0
LINE
  5
219
100
AcDbEntity
  8
0
100
AcDbLine
 62
7
  6
CONTINUOUS
 10
19.4758111696
 20
1.2723454088
 11
19.88525039
 21
1.3511534004
  0
LINE
  5
21A
100
AcDbEntity
  8
0
100
AcDbLine
 62
7
  6
CONTINUOUS
 10
19.88525039
 20
1.3511534004
 11
19.8831348489
 21
0.9851647912
  0
LINE
  5
21B
100
AcDbEntity
  8
0
100
AcDbLine
 62
7
  6
CONTINUOUS
 10
19.8831348489
 20
0.9851647912
 11
19.4767170086
 21
1.0658141206
  0
LINE
  5
21C
100
AcDbEntity
  8
0
100
AcDbLine
 62
7
  6
CONTINUOUS
 10
19.4767170086
 20
1.0658141206
 11
19.4779056764
 21
1.2714536432
  0
CIRCLE
  5
21D
100
AcDbEntity
  8
0
100
AcDbCircle
 62
7
  6
CONTINUOUS
 10
20.2068232291
 20
1.1717972817
 40
0.175742101
  0
CIRCLE
  5
21E
100
AcDbEntity
  8
0
100
AcDbCircle
 62
7
  6
CONTINUOUS
 10
20.2068232291
 20
1.1717972817
 40
0.1005522074
  0
LINE
  5
21F
100
AcDbEntity
  8
0
100
AcDbLine
 62
7
  6
CONTINUOUS
 10
20.2077290681
 20
1.3756110529
 11
20.2071171714
 21
1.2379342989
  0
LINE
  5
220
100
AcDbEntity
  8
0
100
AcDbLine
 62
7
  6
CONTINUOUS
 10
20.2077290681
 20
1.2016899681
 11
20.2074674401
 21
1.1428236749
  0
LINE
  5
221
100
AcDbEntity
  8
0
100
AcDbLine
 62
7
  6
CONTINUOUS
 10
20.208634907
 20
1.101141841
 11
20.2080230104
 21
0.963465087
  0
LINE
  5
222
100
AcDbEntity
  8
0
100
AcDbLine
 62
7
  6
CONTINUOUS
 10
20.0066328138
 20
1.1745147986
 11
20.1443095678
 21
1.1739029019
  0
LINE
  5
223
100
AcDbEntity
  8
0
100
AcDbLine
 62
7
  6
CONTINUOUS
 10
20.1832714155
 20
1.1727031207
 11
20.238153505
 21
1.172335442
  0
LINE
  5
224
100
AcDbEntity
  8
0
100
AcDbLine
 62
7
  6
CONTINUOUS
 10
20.2756669918
 20
1.1717972817
 11
20.407916871
 21
1.1712095044
  0
CIRCLE
  5
225
100
AcDbEntity
  8
0
100
AcDbCircle
 62
7
  6
CONTINUOUS
 10
20.7509457401
 20
1.1693297793
 40
0.1722024983
  0
CIRCLE
  5
226
100
AcDbEntity
  8
0
100
AcDbCircle
 62
7
  6
CONTINUOUS
 10
20.7509457401
 20
1.1693297793
 40
0.0985164967
  0
LINE
  5
227
100
AcDbEntity
  8
0
100
AcDbLine
 62
7
  6
CONTINUOUS
 10
20.7169767782
 20
1.170462078
 11
20.7825395137
 21
1.1682766535
  0
LINE
  5
228
100
AcDbEntity
  8
0
100
AcDbLine
 62
7
  6
CONTINUOUS
 10
20.8177513651
 20
1.1693297793
 11
20.947965719
 21
1.1693297793
  0
LINE
  5
229
100
AcDbEntity
  8
0
100
AcDbLine
 62
7
  6
CONTINUOUS
 10
20.6875370113
 20
1.170462078
 11
20.5573226574
 21
1.170462078
  0
LINE
  5
22A
100
AcDbEntity
  8
0
100
AcDbLine
 62
7
  6
CONTINUOUS
 10
20.7486811426
 20
1.1987695462
 11
20.7486811426
 21
1.1432869085
  0
LINE
  5
22B
100
AcDbEntity
  8
0
100
AcDbLine
 62
7
  6
CONTINUOUS
 10
20.7498134414
 20
1.1059210505
 11
20.7498134414
 21
0.9757066966
  0
LINE
  5
22C
100
AcDbEntity
  8
0
100
AcDbLine
 62
7
  6
CONTINUOUS
 10
20.7486811426
 20
1.2338708068
 11
20.7486811426
 21
1.3640851607
  0
LINE
  5
22D
100
AcDbEntity
  8
0
100
AcDbLine
 62
7
  6
CONTINUOUS
 10
21.0702539817
 20
1.2701043662
 11
21.4790138229
 21
1.3448360823
  0
LINE
  5
22E
100
AcDbEntity
  8
0
100
AcDbLine
 62
7
  6
CONTINUOUS
 10
21.4790138229
 20
1.3448360823
 11
21.4790138229
 21
0.9779712941
  0
LINE
  5
22F
100
AcDbEntity
  8
0
100
AcDbLine
 62
7
  6
CONTINUOUS
 10
21.4790138229
 20
0.9779712941
 11
21.069121683
 21
1.0617614
  0
LINE
  5
230
100
AcDbEntity
  8
0
100
AcDbLine
 62
7
  6
CONTINUOUS
 10
21.0702539817
 20
1.2701043662
 11
21.069121683
 21
1.0617614
  0
LINE
  5
231
100
AcDbEntity
  8
0
100
AcDbLine
 62
7
  6
CONTINUOUS
 10
21.4790138229
 20
1.1693297793
 11
21.3159628059
 21
1.1693297793
  0
LINE
  5
232
100
AcDbEntity
  8
0
100
AcDbLine
 62
7
  6
CONTINUOUS
 10
21.2876553377
 20
1.1693297793
 11
21.2502894796
 21
1.1693297793
  0
LINE
  5
233
100
AcDbEntity
  8
0
100
AcDbLine
 62
7
  6
CONTINUOUS
 10
21.2208497126
 20
1.1659328831
 11
21.0713862804
 21
1.1659328831
  0
LINE
  5
234
100
AcDbEntity
  8
0
100
AcDbLine
 62
7
  6
CONTINUOUS
 10
20.4796138713
 20
1.5284908897
 11
20.4766766948
 21
0.9294458646
  0
ENDBLK
  5
235
100
AcDbEntity
  8
0
  6
BYBLOCK
 62
0
100
AcDbBlockEnd
  0
BLOCK
  5
236
100
AcDbEntity
  8
0
100
AcDbBlockBegin
  2
*T1
 70
1
 10
0.0
 20
0.0
  3
*T1
  1

  0
LINE
  5
237
100
AcDbEntity
  8
0
100
AcDbLine
 62
2
  6
CONTINUOUS
 10
9.275
 20
0.0
 11
-0.0
 21
0.0
  0
LINE
  5
238
100
AcDbEntity
  8
0
100
AcDbLine
 62
2
  6
CONTINUOUS
 10
9.275
 20
0.0
 11
9.275
 21
1.25
  0
LINE
  5
239
100
AcDbEntity
  8
0
100
AcDbLine
 62
2
  6
CONTINUOUS
 10
9.275
 20
0.625
 11
-0.0
 21
0.625
  0
LINE
  5
23A
100
AcDbEntity
  8
0
100
AcDbLine
 62
2
  6
CONTINUOUS
 10
9.275
 20
1.25
 11
-0.0
 21
1.25
  0
LINE
  5
23B
100
AcDbEntity
  8
0
100
AcDbLine
 62
2
  6
CONTINUOUS
 10
6.8
 20
0.0
 11
6.8
 21
1.25
  0
LINE
  5
23C
100
AcDbEntity
  8
0
100
AcDbLine
 62
2
  6
CONTINUOUS
 10
6.4
 20
0.0
 11
6.4
 21
0.625
  0
LINE
  5
23D
100
AcDbEntity
  8
0
100
AcDbLine
 62
2
  6
CONTINUOUS
 10
5.9
 20
0.0
 11
5.9
 21
0.625
  0
LINE
  5
23E
100
AcDbEntity
  8
0
100
AcDbLine
 62
2
  6
CONTINUOUS
 10
5.2
 20
0.0
 11
5.2
 21
0.625
  0
LINE
  5
23F
100
AcDbEntity
  8
0
100
AcDbLine
 62
2
  6
CONTINUOUS
 10
4.1
 20
0.0
 11
4.1
 21
1.25
  0
LINE
  5
240
100
AcDbEntity
  8
0
100
AcDbLine
 62
2
  6
CONTINUOUS
 10
-0.0
 20
0.0
 11
-0.0
 21
1.25
  0
MTEXT
  5
241
100
AcDbEntity
  8
0
100
AcDbMText
 62
2
  6
CONTINUOUS
  7
STANDARD
 71
2
 72
1
 10
6.6
 20
0.325
 30
0.0
 11
1.0
 21
0.0
 31
0.0
 44
0.9
  1
2
 40
0.125
 41
0.2
  0
MTEXT
  5
242
100
AcDbEntity
  8
0
100
AcDbMText
 62
2
  6
CONTINUOUS
  7
STANDARD
 71
2
 72
1
 10
6.15
 20
0.325
 30
0.0
 11
1.0
 21
0.0
 31
0.0
 44
0.9
  1
C
 40
0.125
 41
0.2
  0
MTEXT
  5
243
100
AcDbEntity
  8
0
100
AcDbMText
 62
2
  6
CONTINUOUS
  7
STANDARD
 71
2
 72
1
 10
5.55
 20
0.325
 30
0.0
 11
1.0
 21
0.0
 31
0.0
 44
0.9
  1
2.000
 40
0.125
 41
1.0
  0
MTEXT
  5
244
100
AcDbEntity
  8
0
100
AcDbMText
 62
2
  6
CONTINUOUS
  7
STANDARD
 71
2
 72
1
 10
4.65
 20
0.325
 30
0.0
 11
1.0
 21
0.0
 31
0.0
 44
0.9
  1
Jun-23-22
 40
0.125
 41
1.8
  0
MTEXT
  5
245
100
AcDbEntity
  8
0
100
AcDbMText
 62
2
  6
CONTINUOUS
  7
STANDARD
 71
2
 72
1
 10
2.05
 20
0.4625
 30
0.0
 11
1.0
 21
0.0
 31
0.0
 44
0.9
  1
Counterbalance manifold assembly
 40
0.125
 41
6.4
  0
MTEXT
  5
246
100
AcDbEntity
  8
0
100
AcDbMText
 62
2
  6
CONTINUOUS
  7
STANDARD
 71
1
 72
1
 10
6.45
 20
0.5625
 30
0.0
 11
1.0
 21
0.0
 31
0.0
 44
0.9
  1
SHEET
 40
0.06
 41
0.48
  0
MTEXT
  5
247
100
AcDbEntity
  8
0
100
AcDbMText
 62
2
  6
CONTINUOUS
  7
STANDARD
 71
1
 72
1
 10
5.95
 20
0.5625
 30
0.0
 11
1.0
 21
0.0
 31
0.0
 44
0.9
  1
DWG SIZE
 40
0.06
 41
0.768
  0
MTEXT
  5
248
100
AcDbEntity
  8
0
100
AcDbMText
 62
2
  6
CONTINUOUS
  7
STANDARD
 71
1
 72
1
 10
5.25
 20
0.5625
 30
0.0
 11
1.0
 21
0.0
 31
0.0
 44
0.9
  1
SCALE
 40
0.06
 41
0.48
  0
MTEXT
  5
249
100
AcDbEntity
  8
0
100
AcDbMText
 62
2
  6
CONTINUOUS
  7
STANDARD
 71
1
 72
1
 10
4.15
 20
0.5625
 30
0.0
 11
1.0
 21
0.0
 31
0.0
 44
0.9
  1
DATE
 40
0.06
 41
0.384
  0
MTEXT
  5
24A
100
AcDbEntity
  8
0
100
AcDbMText
 62
2
  6
CONTINUOUS
  7
STANDARD
 71
1
 72
1
 10
0.05
 20
0.5625
 30
0.0
 11
1.0
 21
0.0
 31
0.0
 44
0.9
  1
DESCRIPTION
 40
0.06
 41
1.056
  0
MTEXT
  5
24B
100
AcDbEntity
  8
0
100
AcDbMText
 62
2
  6
CONTINUOUS
  7
STANDARD
 71
2
 72
1
 10
5.45
 20
1.0375
 30
0.0
 11
1.0
 21
0.0
 31
0.0
 44
0.9
  1
ALL DIMENSIONS IN INCH\PVIEWS ARE THIRD ANGLE
 40
0.12
 41
4.224
  0
MTEXT
  5
24C
100
AcDbEntity
  8
0
100
AcDbMText
 62
2
  6
CONTINUOUS
  7
STANDARD
 71
2
 72
1
 10
2.05
 20
0.95
 30
0.0
 11
1.0
 21
0.0
 31
0.0
 44
0.9
  1
CBBALHN-ECV
 40
0.125
 41
2.2
  0
MTEXT
  5
24D
100
AcDbEntity
  8
0
100
AcDbMText
 62
2
  6
CONTINUOUS
  7
STANDARD
 71
1
 72
1
 10
0.05
 20
1.1875
 30
0.0
 11
1.0
 21
0.0
 31
0.0
 44
0.9
  1
MODEL
 40
0.06
 41
0.48
  0
ENDBLK
  5
24E
100
AcDbEntity
  8
0
  6
BYBLOCK
 62
0
100
AcDbBlockEnd
  0
BLOCK
  5
24F
100
AcDbEntity
  8
0
100
AcDbBlockBegin
  2
*T2
 70
1
 10
0.0
 20
0.0
  3
*T2
  1

  0
LINE
  5
250
100
AcDbEntity
  8
0
100
AcDbLine
 62
2
  6
CONTINUOUS
 10
0.0
 20
0.0
 11
9.055
 21
0.0
  0
LINE
  5
251
100
AcDbEntity
  8
0
100
AcDbLine
 62
2
  6
CONTINUOUS
 10
0.0
 20
0.0
 11
0.0
 21
-2.594
  0
LINE
  5
252
100
AcDbEntity
  8
0
100
AcDbLine
 62
2
  6
CONTINUOUS
 10
0.0
 20
-0.344
 11
9.055
 21
-0.344
  0
LINE
  5
253
100
AcDbEntity
  8
0
100
AcDbLine
 62
2
  6
CONTINUOUS
 10
0.0
 20
-0.594
 11
9.055
 21
-0.594
  0
LINE
  5
254
100
AcDbEntity
  8
0
100
AcDbLine
 62
2
  6
CONTINUOUS
 10
0.0
 20
-0.844
 11
9.055
 21
-0.844
  0
LINE
  5
255
100
AcDbEntity
  8
0
100
AcDbLine
 62
2
  6
CONTINUOUS
 10
0.0
 20
-1.094
 11
9.055
 21
-1.094
  0
LINE
  5
256
100
AcDbEntity
  8
0
100
AcDbLine
 62
2
  6
CONTINUOUS
 10
0.0
 20
-1.344
 11
9.055
 21
-1.344
  0
LINE
  5
257
100
AcDbEntity
  8
0
100
AcDbLine
 62
2
  6
CONTINUOUS
 10
0.0
 20
-1.594
 11
9.055
 21
-1.594
  0
LINE
  5
258
100
AcDbEntity
  8
0
100
AcDbLine
 62
2
  6
CONTINUOUS
 10
0.0
 20
-1.844
 11
9.055
 21
-1.844
  0
LINE
  5
259
100
AcDbEntity
  8
0
100
AcDbLine
 62
2
  6
CONTINUOUS
 10
0.0
 20
-2.094
 11
9.055
 21
-2.094
  0
LINE
  5
25A
100
AcDbEntity
  8
0
100
AcDbLine
 62
2
  6
CONTINUOUS
 10
0.0
 20
-2.344
 11
9.055
 21
-2.344
  0
LINE
  5
25B
100
AcDbEntity
  8
0
100
AcDbLine
 62
2
  6
CONTINUOUS
 10
0.0
 20
-2.594
 11
9.055
 21
-2.594
  0
LINE
  5
25C
100
AcDbEntity
  8
0
100
AcDbLine
 62
2
  6
CONTINUOUS
 10
3.055
 20
0.0
 11
3.055
 21
-2.594
  0
LINE
  5
25D
100
AcDbEntity
  8
0
100
AcDbLine
 62
2
  6
CONTINUOUS
 10
9.055
 20
0.0
 11
9.055
 21
-2.594
  0
MTEXT
  5
25E
100
AcDbEntity
  8
0
100
AcDbMText
 62
2
  6
CONTINUOUS
  7
STANDARD
 71
2
 72
1
 10
1.5275
 20
-0.0995
 30
0.0
 11
1.0
 21
0.0
 31
0.0
 44
0.9
  1
Technical Data
 40
0.145
 41
3.248
  0
MTEXT
  5
25F
100
AcDbEntity
  8
0
100
AcDbMText
 62
2
  6
CONTINUOUS
  7
STANDARD
 71
2
 72
1
 10
4.555
 20
-0.0995
 30
0.0
 11
1.0
 21
0.0
 31
0.0
 44
0.9
  1
U.S. Units
 40
0.145
 41
2.32
  0
MTEXT
  5
260
100
AcDbEntity
  8
0
100
AcDbMText
 62
2
  6
CONTINUOUS
  7
STANDARD
 71
2
 72
1
 10
7.555
 20
-0.0995
 30
0.0
 11
1.0
 21
0.0
 31
0.0
 44
0.9
  1
Metric Units
 40
0.145
 41
2.784
  0
MTEXT
  5
261
100
AcDbEntity
  8
0
100
AcDbMText
 62
2
  6
CONTINUOUS
  7
STANDARD
 71
2
 72
1
 10
1.5275
 20
-0.4065
 30
0.0
 11
1.0
 21
0.0
 31
0.0
 44
0.9
  1
Cavity
 40
0.125
 41
1.2
  0
MTEXT
  5
262
100
AcDbEntity
  8
0
100
AcDbMText
 62
2
  6
CONTINUOUS
  7
STANDARD
 71
2
 72
1
 10
6.055
 20
-0.4065
 30
0.0
 11
1.0
 21
0.0
 31
0.0
 44
0.9
  1
T-11A
 40
0.125
 41
1.0
  0
MTEXT
  5
263
100
AcDbEntity
  8
0
100
AcDbMText
 62
2
  6
CONTINUOUS
  7
STANDARD
 71
2
 72
1
 10
1.5275
 20
-0.6565
 30
0.0
 11
1.0
 21
0.0
 31
0.0
 44
0.9
  1
Body Features
 40
0.125
 41
2.6
  0
MTEXT
  5
264
100
AcDbEntity
  8
0
100
AcDbMText
 62
2
  6
CONTINUOUS
  7
STANDARD
 71
2
 72
1
 10
6.055
 20
-0.6565
 30
0.0
 11
1.0
 21
0.0
 31
0.0
 44
0.9
  1
Ninety degree
 40
0.125
 41
2.6
  0
MTEXT
  5
265
100
AcDbEntity
  8
0
100
AcDbMText
 62
2
  6
CONTINUOUS
  7
STANDARD
 71
2
 72
1
 10
1.5275
 20
-0.9065
 30
0.0
 11
1.0
 21
0.0
 31
0.0
 44
0.9
  1
Body Type
 40
0.125
 41
1.8
  0
MTEXT
  5
266
100
AcDbEntity
  8
0
100
AcDbMText
 62
2
  6
CONTINUOUS
  7
STANDARD
 71
2
 72
1
 10
6.055
 20
-0.9065
 30
0.0
 11
1.0
 21
0.0
 31
0.0
 44
0.9
  1
Line mount
 40
0.125
 41
2.0
  0
MTEXT
  5
267
100
AcDbEntity
  8
0
100
AcDbMText
 62
2
  6
CONTINUOUS
  7
STANDARD
 71
2
 72
1
 10
1.5275
 20
-1.1565
 30
0.0
 11
1.0
 21
0.0
 31
0.0
 44
0.9
  1
Interface
 40
0.125
 41
1.8
  0
MTEXT
  5
268
100
AcDbEntity
  8
0
100
AcDbMText
 62
2
  6
CONTINUOUS
  7
STANDARD
 71
2
 72
1
 10
6.055
 20
-1.1565
 30
0.0
 11
1.0
 21
0.0
 31
0.0
 44
0.9
  1
None
 40
0.125
 41
0.8
  0
MTEXT
  5
269
100
AcDbEntity
  8
0
100
AcDbMText
 62
2
  6
CONTINUOUS
  7
STANDARD
 71
2
 72
1
 10
1.5275
 20
-1.4065
 30
0.0
 11
1.0
 21
0.0
 31
0.0
 44
0.9
  1
Open Cavity Quantity
 40
0.125
 41
4.0
  0
MTEXT
  5
26A
100
AcDbEntity
  8
0
100
AcDbMText
 62
2
  6
CONTINUOUS
  7
STANDARD
 71
2
 72
1
 10
6.055
 20
-1.4065
 30
0.0
 11
1.0
 21
0.0
 31
0.0
 44
0.9
  1
1
 40
0.125
 41
0.2
  0
MTEXT
  5
26B
100
AcDbEntity
  8
0
100
AcDbMText
 62
2
  6
CONTINUOUS
  7
STANDARD
 71
2
 72
1
 10
1.5275
 20
-1.6565
 30
0.0
 11
1.0
 21
0.0
 31
0.0
 44
0.9
  1
Weight
 40
0.125
 41
1.2
  0
MTEXT
  5
26C
100
AcDbEntity
  8
0
100
AcDbMText
 62
2
  6
CONTINUOUS
  7
STANDARD
 71
2
 72
1
 10
4.555
 20
-1.6565
 30
0.0
 11
1.0
 21
0.0
 31
0.0
 44
0.9
  1
1.054 lb.
 40
0.125
 41
1.8
  0
MTEXT
  5
26D
100
AcDbEntity
  8
0
100
AcDbMText
 62
2
  6
CONTINUOUS
  7
STANDARD
 71
2
 72
1
 10
7.555
 20
-1.6565
 30
0.0
 11
1.0
 21
0.0
 31
0.0
 44
0.9
  1
0,478 kg.
 40
0.125
 41
1.8
  0
MTEXT
  5
26E
100
AcDbEntity
  8
0
100
AcDbMText
 62
2
  6
CONTINUOUS
  7
STANDARD
 71
2
 72
1
 10
1.5275
 20
-1.9065
 30
0.0
 11
1.0
 21
0.0
 31
0.0
 44
0.9
  1
Mounting Hole Diameter
 40
0.125
 41
4.4
  0
MTEXT
  5
26F
100
AcDbEntity
  8
0
100
AcDbMText
 62
2
  6
CONTINUOUS
  7
STANDARD
 71
2
 72
1
 10
4.555
 20
-1.9065
 30
0.0
 11
1.0
 21
0.0
 31
0.0
 44
0.9
  1
.34 in.
 40
0.125
 41
1.4
  0
MTEXT
  5
270
100
AcDbEntity
  8
0
100
AcDbMText
 62
2
  6
CONTINUOUS
  7
STANDARD
 71
2
 72
1
 10
7.555
 20
-1.9065
 30
0.0
 11
1.0
 21
0.0
 31
0.0
 44
0.9
  1
8.6 mm
 40
0.125
 41
1.2
  0
MTEXT
  5
271
100
AcDbEntity
  8
0
100
AcDbMText
 62
2
  6
CONTINUOUS
  7
STANDARD
 71
2
 72
1
 10
1.5275
 20
-2.1565
 30
0.0
 11
1.0
 21
0.0
 31
0.0
 44
0.9
  1
Mounting Hole Depth
 40
0.125
 41
3.8
  0
MTEXT
  5
272
100
AcDbEntity
  8
0
100
AcDbMText
 62
2
  6
CONTINUOUS
  7
STANDARD
 71
2
 72
1
 10
6.055
 20
-2.1565
 30
0.0
 11
1.0
 21
0.0
 31
0.0
 44
0.9
  1
Through
 40
0.125
 41
1.4
  0
MTEXT
  5
273
100
AcDbEntity
  8
0
100
AcDbMText
 62
2
  6
CONTINUOUS
  7
STANDARD
 71
2
 72
1
 10
1.5275
 20
-2.4065
 30
0.0
 11
1.0
 21
0.0
 31
0.0
 44
0.9
  1
Mounting Hole Quantity
 40
0.125
 41
4.4
  0
MTEXT
  5
274
100
AcDbEntity
  8
0
100
AcDbMText
 62
2
  6
CONTINUOUS
  7
STANDARD
 71
2
 72
1
 10
6.055
 20
-2.4065
 30
0.0
 11
1.0
 21
0.0
 31
0.0
 44
0.9
  1
2
 40
0.125
 41
0.2
  0
ENDBLK
  5
275
100
AcDbEntity
  8
0
  6
BYBLOCK
 62
0
100
AcDbBlockEnd
  0
BLOCK
  5
276
100
AcDbEntity
  8
0
100
AcDbBlockBegin
  2
*T3
 70
1
 10
0.0
 20
0.0
  3
*T3
  1

  0
LINE
  5
277
100
AcDbEntity
  8
0
100
AcDbLine
 62
2
  6
CONTINUOUS
 10
0.0
 20
0.0
 11
4.6
 21
0.0
  0
LINE
  5
278
100
AcDbEntity
  8
0
100
AcDbLine
 62
2
  6
CONTINUOUS
 10
0.0
 20
0.0
 11
0.0
 21
-1.18775
  0
LINE
  5
279
100
AcDbEntity
  8
0
100
AcDbLine
 62
2
  6
CONTINUOUS
 10
0.0
 20
-0.34375
 11
4.6
 21
-0.34375
  0
LINE
  5
27A
100
AcDbEntity
  8
0
100
AcDbLine
 62
2
  6
CONTINUOUS
 10
0.0
 20
-0.68775
 11
4.6
 21
-0.68775
  0
LINE
  5
27B
100
AcDbEntity
  8
0
100
AcDbLine
 62
2
  6
CONTINUOUS
 10
0.0
 20
-0.93775
 11
4.6
 21
-0.93775
  0
LINE
  5
27C
100
AcDbEntity
  8
0
100
AcDbLine
 62
2
  6
CONTINUOUS
 10
0.0
 20
-1.18775
 11
4.6
 21
-1.18775
  0
LINE
  5
27D
100
AcDbEntity
  8
0
100
AcDbLine
 62
2
  6
CONTINUOUS
 10
1.3
 20
-0.34375
 11
1.3
 21
-1.18775
  0
LINE
  5
27E
100
AcDbEntity
  8
0
100
AcDbLine
 62
2
  6
CONTINUOUS
 10
3.3
 20
-0.34375
 11
3.3
 21
-1.18775
  0
LINE
  5
27F
100
AcDbEntity
  8
0
100
AcDbLine
 62
2
  6
CONTINUOUS
 10
4.6
 20
0.0
 11
4.6
 21
-1.18775
  0
MTEXT
  5
280
100
AcDbEntity
  8
0
100
AcDbMText
 62
2
  6
CONTINUOUS
  7
STANDARD
 71
2
 72
1
 10
2.3
 20
-0.099375
 30
0.0
 11
1.0
 21
0.0
 31
0.0
 44
0.9
  1
Port Headings
 40
0.145
 41
3.016
  0
MTEXT
  5
281
100
AcDbEntity
  8
0
100
AcDbMText
 62
2
  6
CONTINUOUS
  7
STANDARD
 71
2
 72
1
 10
0.65
 20
-0.44325
 30
0.0
 11
1.0
 21
0.0
 31
0.0
 44
0.9
  1
Product
 40
0.145
 41
1.624
  0
MTEXT
  5
282
100
AcDbEntity
  8
0
100
AcDbMText
 62
2
  6
CONTINUOUS
  7
STANDARD
 71
2
 72
1
 10
2.3
 20
-0.44325
 30
0.0
 11
1.0
 21
0.0
 31
0.0
 44
0.9
  1
Port
 40
0.145
 41
0.928
  0
MTEXT
  5
283
100
AcDbEntity
  8
0
100
AcDbMText
 62
2
  6
CONTINUOUS
  7
STANDARD
 71
2
 72
1
 10
3.95
 20
-0.44325
 30
0.0
 11
1.0
 21
0.0
 31
0.0
 44
0.9
  1
Size
 40
0.145
 41
0.928
  0
MTEXT
  5
284
100
AcDbEntity
  8
0
100
AcDbMText
 62
2
  6
CONTINUOUS
  7
STANDARD
 71
2
 72
1
 10
0.65
 20
-0.75025
 30
0.0
 11
1.0
 21
0.0
 31
0.0
 44
0.9
  1
ECV
 40
0.125
 41
0.6
  0
MTEXT
  5
285
100
AcDbEntity
  8
0
100
AcDbMText
 62
2
  6
CONTINUOUS
  7
STANDARD
 71
2
 72
1
 10
2.3
 20
-0.75025
 30
0.0
 11
1.0
 21
0.0
 31
0.0
 44
0.9
  1
Ports 1 &  2
 40
0.125
 41
2.4
  0
MTEXT
  5
286
100
AcDbEntity
  8
0
100
AcDbMText
 62
2
  6
CONTINUOUS
  7
STANDARD
 71
2
 72
1
 10
3.95
 20
-0.75025
 30
0.0
 11
1.0
 21
0.0
 31
0.0
 44
0.9
  1
1/2" BSPP
 40
0.125
 41
1.8
  0
MTEXT
  5
287
100
AcDbEntity
  8
0
100
AcDbMText
 62
2
  6
CONTINUOUS
  7
STANDARD
 71
2
 72
1
 10
0.65
 20
-1.00025
 30
0.0
 11
1.0
 21
0.0
 31
0.0
 44
0.9
  1
ECV
 40
0.125
 41
0.6
  0
MTEXT
  5
288
100
AcDbEntity
  8
0
100
AcDbMText
 62
2
  6
CONTINUOUS
  7
STANDARD
 71
2
 72
1
 10
2.3
 20
-1.00025
 30
0.0
 11
1.0
 21
0.0
 31
0.0
 44
0.9
  1
Port 3
 40
0.125
 41
1.2
  0
MTEXT
  5
289
100
AcDbEntity
  8
0
100
AcDbMText
 62
2
  6
CONTINUOUS
  7
STANDARD
 71
2
 72
1
 10
3.95
 20
-1.00025
 30
0.0
 11
1.0
 21
0.0
 31
0.0
 44
0.9
  1
1/4" BSPP
 40
0.125
 41
1.8
  0
ENDBLK
  5
28A
100
AcDbEntity
  8
0
  6
BYBLOCK
 62
0
100
AcDbBlockEnd
  0
ENDSEC
  0
SECTION
  2
ENTITIES
  0
IMAGE
  5
28B
100
AcDbEntity
  8
0
100
AcDbRasterImage
 62
7
  6
CONTINUOUS
 10
19.2297077316
 20
0.3094318264
 30
0.0
 11
0.0066666667
 21
0.0
 31
0.0
 12
0.0
 22
0.0066666667
 32
0.0
 13
369.0
 23
92.0
340
       3B4
 70
9
280
0
281
50
282
50
283
0
360
       3AE
 71
1
 91
2
 14
-0.5
 24
-0.5
 14
368.5
 24
91.5
  0
INSERT
  5
28C
100
AcDbEntity
  8
0
100
AcDbBlockReference
 62
2
  6
CONTINUOUS
  2
SUN_FIRST_THIRD_ANGLE_BL0
 10
20.4816717061
 20
1.2289683772
  0
ACAD_TABLE
  5
28D
100
AcDbEntity
  8
0
 62
2
  6
CONTINUOUS
100
AcDbBlockReference
  2
*T1
 10
12.42375
 20
0.30125
 30
0.0
100
AcDbTable
342
       3B6
343
20F
 11
1.0
 21
0.0
 31
0.0
 90
6
 91
4
 92
6
 93
20
 94
0
 95
0
 96
0
 70
1
 41
0.0
141
0.525
141
0.1
141
0.525
141
0.1
142
4.1
142
1.1
142
0.7
142
0.5
142
0.4
142
2.475
171
1
172
0
173
0
174
0
175
1
176
1
 91
33
178
0
145
0.0
301
CELL_VALUE
 90
4
  1
Counterbalance manifold assembly
304
ACVALUE_END
170
2
140
0.125
171
1
172
0
173
0
174
0
175
1
176
1
 91
33
178
0
145
0.0
301
CELL_VALUE
 90
4
  1
Jun-23-22
304
ACVALUE_END
170
5
140
0.125
171
1
172
0
173
0
174
0
175
1
176
1
 91
33
178
0
145
0.0
301
CELL_VALUE
 90
4
  1
2.000
304
ACVALUE_END
170
5
140
0.125
171
1
172
0
173
0
174
0
175
1
176
1
 91
33
178
0
145
0.0
301
CELL_VALUE
 90
4
  1
C
304
ACVALUE_END
170
5
140
0.125
171
1
172
0
173
0
174
0
175
1
176
1
 91
33
178
0
145
0.0
301
CELL_VALUE
 90
4
  1
2
304
ACVALUE_END
170
5
140
0.125
171
1
172
0
173
0
174
0
175
1
176
1
 91
33
178
0
145
0.0
301
CELL_VALUE
 90
4
  1
 
304
ACVALUE_END
170
1
140
0.125
171
1
172
0
173
0
174
0
175
1
176
1
 91
33
178
0
145
0.0
301
CELL_VALUE
 90
4
  1
DESCRIPTION
304
ACVALUE_END
170
1
140
0.06
171
1
172
0
173
0
174
0
175
1
176
1
 91
33
178
0
145
0.0
301
CELL_VALUE
 90
4
  1
DATE
304
ACVALUE_END
170
1
140
0.06
171
1
172
0
173
0
174
0
175
1
176
1
 91
33
178
0
145
0.0
301
CELL_VALUE
 90
4
  1
SCALE
304
ACVALUE_END
170
1
140
0.06
171
1
172
0
173
0
174
0
175
1
176
1
 91
33
178
0
145
0.0
301
CELL_VALUE
 90
4
  1
DWG SIZE
304
ACVALUE_END
170
1
140
0.06
171
1
172
0
173
0
174
0
175
1
176
1
 91
33
178
0
145
0.0
301
CELL_VALUE
 90
4
  1
SHEET
304
ACVALUE_END
170
1
140
0.06
171
1
172
0
173
0
174
0
175
1
176
1
 91
33
178
0
145
0.0
301
CELL_VALUE
 90
4
  1
 
304
ACVALUE_END
170
1
140
0.125
171
1
172
0
173
0
174
0
175
1
176
1
 91
33
178
0
145
0.0
301
CELL_VALUE
 90
4
  1
CBBALHN-ECV
304
ACVALUE_END
170
5
140
0.125
171
1
172
0
173
0
174
0
175
4
176
1
 91
33
178
0
145
0.0
301
CELL_VALUE
 90
4
  1
ALL DIMENSIONS IN INCH\PVIEWS ARE THIRD ANGLE
304
ACVALUE_END
170
5
140
0.12
171
1
172
0
173
1
174
0
175
1
176
1
 91
1
178
0
145
0.0
170
1
171
1
172
0
173
1
174
0
175
1
176
1
 91
1
178
0
145
0.0
170
1
171
1
172
0
173
1
174
0
175
1
176
1
 91
1
178
0
145
0.0
170
5
171
1
172
0
173
0
174
0
175
1
176
1
 91
33
178
0
145
0.0
301
CELL_VALUE
 90
4
  1
 
304
ACVALUE_END
170
1
140
0.125
171
1
172
0
173
0
174
0
175
1
176
1
 91
33
178
0
145
0.0
301
CELL_VALUE
 90
4
  1
MODEL
304
ACVALUE_END
170
1
140
0.06
171
1
172
0
173
0
174
0
175
1
176
1
 91
33
178
0
145
0.0
301
CELL_VALUE
 90
4
  1
 
304
ACVALUE_END
170
1
140
0.125
171
1
172
0
173
0
174
0
175
1
176
1
 91
33
178
0
145
0.0
301
CELL_VALUE
 90
4
  1
 
304
ACVALUE_END
170
1
140
0.125
171
1
172
0
173
0
174
0
175
1
176
1
 91
33
178
0
145
0.0
301
CELL_VALUE
 90
4
  1
 
304
ACVALUE_END
170
1
140
0.125
171
1
172
0
173
0
174
0
175
1
176
1
 91
33
178
0
145
0.0
301
CELL_VALUE
 90
4
  1
 
304
ACVALUE_END
170
1
140
0.125
171
1
172
0
173
0
174
0
175
1
176
1
 91
33
178
0
145
0.0
301
CELL_VALUE
 90
4
  1
 
304
ACVALUE_END
170
1
140
0.125
  0
ACAD_TABLE
  5
28E
100
AcDbEntity
  8
0
 62
2
  6
CONTINUOUS
100
AcDbBlockReference
  2
*T2
 10
12.4237499994
 20
16.47875
 30
0.0
100
AcDbTable
342
       3B5
343
210
 11
1.0
 21
0.0
 31
0.0
 90
22
 91
10
 92
3
 93
16
 94
0
 95
0
 96
0
 41
0.028
141
0.344
141
0.25
141
0.25
141
0.25
141
0.25
141
0.25
141
0.25
141
0.25
141
0.25
141
0.25
142
3.055
142
3.0
142
3.0
171
1
172
0
173
0
174
0
175
1
176
1
 91
33
178
0
145
0.0
301
CELL_VALUE
 90
4
  1
Technical Data
304
ACVALUE_END
170
5
140
0.145
171
1
172
0
173
0
174
0
175
1
176
1
 91
33
178
0
145
0.0
301
CELL_VALUE
 90
4
  1
U.S. Units
304
ACVALUE_END
170
5
140
0.145
171
1
172
0
173
0
174
0
175
1
176
1
 91
33
178
0
145
0.0
301
CELL_VALUE
 90
4
  1
Metric Units
304
ACVALUE_END
170
5
140
0.145
171
1
172
0
173
0
174
0
175
1
176
1
 91
33
178
0
145
0.0
301
CELL_VALUE
 90
4
  1
Cavity
304
ACVALUE_END
170
5
140
0.125
171
1
172
0
173
0
174
0
175
2
176
1
 91
33
178
0
145
0.0
301
CELL_VALUE
 90
4
  1
T-11A
304
ACVALUE_END
170
5
140
0.125
171
1
172
0
173
1
174
0
175
1
176
1
 91
1
178
0
145
0.0
170
1
171
1
172
0
173
0
174
0
175
1
176
1
 91
33
178
0
145
0.0
301
CELL_VALUE
 90
4
  1
Body Features
304
ACVALUE_END
170
5
140
0.125
171
1
172
0
173
0
174
0
175
2
176
1
 91
33
178
0
145
0.0
301
CELL_VALUE
 90
4
  1
Ninety degree
304
ACVALUE_END
170
5
140
0.125
171
1
172
0
173
1
174
0
175
1
176
1
 91
1
178
0
145
0.0
170
1
171
1
172
0
173
0
174
0
175
1
176
1
 91
33
178
0
145
0.0
301
CELL_VALUE
 90
4
  1
Body Type
304
ACVALUE_END
170
5
140
0.125
171
1
172
0
173
0
174
0
175
2
176
1
 91
33
178
0
145
0.0
301
CELL_VALUE
 90
4
  1
Line mount
304
ACVALUE_END
170
5
140
0.125
171
1
172
0
173
1
174
0
175
1
176
1
 91
1
178
0
145
0.0
170
1
171
1
172
0
173
0
174
0
175
1
176
1
 91
33
178
0
145
0.0
301
CELL_VALUE
 90
4
  1
Interface
304
ACVALUE_END
170
5
140
0.125
171
1
172
0
173
0
174
0
175
2
176
1
 91
33
178
0
145
0.0
301
CELL_VALUE
 90
4
  1
None
304
ACVALUE_END
170
5
140
0.125
171
1
172
0
173
1
174
0
175
1
176
1
 91
1
178
0
145
0.0
170
1
171
1
172
0
173
0
174
0
175
1
176
1
 91
33
178
0
145
0.0
301
CELL_VALUE
 90
4
  1
Open Cavity Quantity
304
ACVALUE_END
170
5
140
0.125
171
1
172
0
173
0
174
0
175
2
176
1
 91
33
178
0
145
0.0
301
CELL_VALUE
 90
4
  1
1
304
ACVALUE_END
170
5
140
0.125
171
1
172
0
173
1
174
0
175
1
176
1
 91
1
178
0
145
0.0
170
1
171
1
172
0
173
0
174
0
175
1
176
1
 91
33
178
0
145
0.0
301
CELL_VALUE
 90
4
  1
Weight
304
ACVALUE_END
170
5
140
0.125
171
1
172
0
173
0
174
0
175
1
176
1
 91
33
178
0
145
0.0
301
CELL_VALUE
 90
4
  1
1.054 lb.
304
ACVALUE_END
170
5
140
0.125
171
1
172
0
173
0
174
0
175
1
176
1
 91
33
178
0
145
0.0
301
CELL_VALUE
 90
4
  1
0,478 kg.
304
ACVALUE_END
170
5
140
0.125
171
1
172
0
173
0
174
0
175
1
176
1
 91
33
178
0
145
0.0
301
CELL_VALUE
 90
4
  1
Mounting Hole Diameter
304
ACVALUE_END
170
5
140
0.125
171
1
172
0
173
0
174
0
175
1
176
1
 91
33
178
0
145
0.0
301
CELL_VALUE
 90
4
  1
.34 in.
304
ACVALUE_END
170
5
140
0.125
171
1
172
0
173
0
174
0
175
1
176
1
 91
33
178
0
145
0.0
301
CELL_VALUE
 90
4
  1
8.6 mm
304
ACVALUE_END
170
5
140
0.125
171
1
172
0
173
0
174
0
175
1
176
1
 91
33
178
0
145
0.0
301
CELL_VALUE
 90
4
  1
Mounting Hole Depth
304
ACVALUE_END
170
5
140
0.125
171
1
172
0
173
0
174
0
175
2
176
1
 91
33
178
0
145
0.0
301
CELL_VALUE
 90
4
  1
Through
304
ACVALUE_END
170
5
140
0.125
171
1
172
0
173
1
174
0
175
1
176
1
 91
1
178
0
145
0.0
170
1
171
1
172
0
173
0
174
0
175
1
176
1
 91
33
178
0
145
0.0
301
CELL_VALUE
 90
4
  1
Mounting Hole Quantity
304
ACVALUE_END
170
5
140
0.125
171
1
172
0
173
0
174
0
175
2
176
1
 91
33
178
0
145
0.0
301
CELL_VALUE
 90
4
  1
2
304
ACVALUE_END
170
5
140
0.125
171
1
172
0
173
1
174
0
175
1
176
1
 91
1
178
0
145
0.0
170
1
  0
ACAD_TABLE
  5
28F
100
AcDbEntity
  8
0
 62
2
  6
CONTINUOUS
100
AcDbBlockReference
  2
*T3
 10
0.52125
 20
1.709
 30
0.0
100
AcDbTable
342
       3B5
343
211
 11
1.0
 21
0.0
 31
0.0
 90
22
 91
4
 92
3
 93
16
 94
0
 95
0
 96
0
 41
0.05
141
0.34375
141
0.344
141
0.25
141
0.25
142
1.3
142
2.0
142
1.3
171
1
172
0
173
0
174
0
175
3
176
1
 91
33
178
0
145
0.0
301
CELL_VALUE
 90
4
  1
Port Headings
304
ACVALUE_END
170
5
140
0.145
171
1
172
0
173
1
174
0
175
1
176
1
 91
1
178
0
145
0.0
170
1
171
1
172
0
173
1
174
0
175
1
176
1
 91
1
178
0
145
0.0
170
1
171
1
172
0
173
0
174
0
175
1
176
1
 91
33
178
0
145
0.0
301
CELL_VALUE
 90
4
  1
Product
304
ACVALUE_END
170
5
140
0.145
171
1
172
0
173
0
174
0
175
1
176
1
 91
33
178
0
145
0.0
301
CELL_VALUE
 90
4
  1
Port
304
ACVALUE_END
170
5
140
0.145
171
1
172
0
173
0
174
0
175
1
176
1
 91
33
178
0
145
0.0
301
CELL_VALUE
 90
4
  1
Size
304
ACVALUE_END
170
5
140
0.145
171
1
172
0
173
0
174
0
175
1
176
1
 91
33
178
0
145
0.0
301
CELL_VALUE
 90
4
  1
ECV
304
ACVALUE_END
170
5
140
0.125
171
1
172
0
173
0
174
0
175
1
176
1
 91
33
178
0
145
0.0
301
CELL_VALUE
 90
4
  1
Ports 1 &  2
304
ACVALUE_END
170
5
140
0.125
171
1
172
0
173
0
174
0
175
1
176
1
 91
33
178
0
145
0.0
301
CELL_VALUE
 90
4
  1
1/2" BSPP
304
ACVALUE_END
170
5
140
0.125
171
1
172
0
173
0
174
0
175
1
176
1
 91
33
178
0
145
0.0
301
CELL_VALUE
 90
4
  1
ECV
304
ACVALUE_END
170
5
140
0.125
171
1
172
0
173
0
174
0
175
1
176
1
 91
33
178
0
145
0.0
301
CELL_VALUE
 90
4
  1
Port 3
304
ACVALUE_END
170
5
140
0.125
171
1
172
0
173
0
174
0
175
1
176
1
 91
33
178
0
145
0.0
301
CELL_VALUE
 90
4
  1
1/4" BSPP
304
ACVALUE_END
170
5
140
0.125
  0
MTEXT
  5
290
100
AcDbEntity
  8
0
100
AcDbMText
 62
2
  6
CONTINUOUS
  7
STANDARD
 71
1
 72
1
 10
0.52125
 20
5.75995
 30
0.0
 11
1.0
 21
0.0
 31
0.0
 44
0.6
  3
Notes\P \P1. Important: Carefully consider\P   the maximum system pressure. The\P   pressure rating of the manifold is\P   dependent on the manifold material,\P   with the port type/size a secondary\P   consideration. Manifolds\P   constructed of alu
  1
minum are not\P   rated for pressures higher than\P   3000 psi (210 bar), regardless of\P   the port type/size specified.
 40
0.1
 41
3.04
  0
LINE
  5
291
100
AcDbEntity
  8
0
100
AcDbLine
 62
7
  6
CONTINUOUS
 10
0.30125
 20
0.30125
 11
0.30125
 21
16.69875
  0
LINE
  5
292
100
AcDbEntity
  8
0
100
AcDbLine
 62
7
  6
CONTINUOUS
 10
0.30125
 20
0.30125
 11
21.69875
 21
0.30125
  0
LINE
  5
293
100
AcDbEntity
  8
0
100
AcDbLine
 62
7
  6
CONTINUOUS
 10
0.30125
 20
16.69875
 11
21.69875
 21
16.69875
  0
LINE
  5
294
100
AcDbEntity
  8
0
100
AcDbLine
 62
7
  6
CONTINUOUS
 10
21.69875
 20
0.30125
 11
21.69875
 21
16.69875
  0
LINE
  5
295
100
AcDbEntity
  8
0
100
AcDbLine
 62
7
  6
CONTINUOUS
 10
6.8368197767
 20
9.3654536741
 11
6.8560131909
 21
9.3979958157
  0
LINE
  5
296
100
AcDbEntity
  8
0
100
AcDbLine
 62
7
  6
CONTINUOUS
 10
6.7678852373
 20
8.3714478309
 11
6.7747450376
 21
8.3549665433
  0
LINE
  5
297
100
AcDbEntity
  8
0
100
AcDbLine
 62
7
  6
CONTINUOUS
 10
9.5409967528
 20
11.428276032
 11
8.893949674
 21
10.8032765108
  0
LINE
  5
298
100
AcDbEntity
  8
0
100
AcDbLine
 62
7
  6
CONTINUOUS
 10
6.7427710998
 20
9.1691219833
 11
6.7435242046
 21
9.1698351561
  0
LINE
  5
299
100
AcDbEntity
  8
0
100
AcDbLine
 62
7
  6
CONTINUOUS
 10
6.7751383141
 20
9.1992591792
 11
6.7435211647
 21
9.1698332778
  0
LINE
  5
29A
100
AcDbEntity
  8
0
100
AcDbLine
 62
7
  6
CONTINUOUS
 10
7.385970963
 20
9.5513806188
 11
7.2891340538
 21
9.4612550572
  0
LINE
  5
29B
100
AcDbEntity
  8
0
100
AcDbLine
 62
7
  6
CONTINUOUS
 10
6.7295336778
 20
8.544813405
 11
6.7024825334
 21
8.5780742008
  0
LINE
  5
29C
100
AcDbEntity
  8
0
100
AcDbLine
 62
7
  6
CONTINUOUS
 10
7.2861147492
 20
8.1114977834
 11
7.2026454724
 21
8.2141276214
  0
LINE
  5
29D
100
AcDbEntity
  8
0
100
AcDbLine
 62
7
  6
CONTINUOUS
 10
8.2271871441
 20
9.5696566796
 11
8.2107757021
 21
9.5418313294
  0
LINE
  5
29E
100
AcDbEntity
  8
0
100
AcDbLine
 62
7
  6
CONTINUOUS
 10
8.1273656765
 20
7.9517857079
 11
8.104341891
 21
8.0071024248
  0
LINE
  5
29F
100
AcDbEntity
  8
0
100
AcDbLine
 62
7
  6
CONTINUOUS
 10
8.893949674
 20
5.9736470932
 11
14.6895049752
 21
5.571723968
  0
LINE
  5
2A0
100
AcDbEntity
  8
0
100
AcDbLine
 62
7
  6
CONTINUOUS
 10
8.893949674
 20
5.9736470932
 11
8.893949674
 21
10.8032765108
  0
LINE
  5
2A1
100
AcDbEntity
  8
0
100
AcDbLine
 62
4
  6
CONTINUOUS
 10
9.6860088484
 20
10.4344210146
 11
9.7053273611
 21
10.4620590471
  0
LINE
  5
2A2
100
AcDbEntity
  8
0
100
AcDbLine
 62
4
  6
CONTINUOUS
 10
9.7826014392
 20
10.4277222957
 11
9.8019199519
 21
10.4553603282
  0
LINE
  5
2A3
100
AcDbEntity
  8
0
100
AcDbLine
 62
4
  6
CONTINUOUS
 10
9.7053273611
 20
10.4620590471
 11
9.7246458875
 21
10.4752081906
  0
LINE
  5
2A4
100
AcDbEntity
  8
0
100
AcDbLine
 62
4
  6
CONTINUOUS
 10
9.8019199519
 20
10.4553603282
 11
9.840556984
 21
10.4816586167
  0
LINE
  5
2A5
100
AcDbEntity
  8
0
100
AcDbLine
 62
4
  6
CONTINUOUS
 10
9.8985125375
 20
10.361728282
 11
9.8791940197
 21
10.3485791378
  0
LINE
  5
2A6
100
AcDbEntity
  8
0
100
AcDbLine
 62
4
  6
CONTINUOUS
 10
11.1155792151
 20
6.2735617181
 11
11.1542162403
 21
6.2708822313
  0
LINE
  5
2A7
100
AcDbEntity
  8
0
100
AcDbLine
 62
4
  6
CONTINUOUS
 10
11.2508088311
 20
6.1627612969
 11
11.3087643828
 21
6.1442531778
  0
LINE
  5
2A8
100
AcDbEntity
  8
0
100
AcDbLine
 62
4
  6
CONTINUOUS
 10
9.9178310553
 20
10.3893663141
 11
9.8985125375
 21
10.361728282
  0
LINE
  5
2A9
100
AcDbEntity
  8
0
100
AcDbLine
 62
4
  6
CONTINUOUS
 10
11.1155792151
 20
6.1576506147
 11
11.0962606886
 21
6.173479247
  0
LINE
  5
2AA
100
AcDbEntity
  8
0
100
AcDbLine
 62
4
  6
CONTINUOUS
 10
11.2121717989
 20
6.1944185601
 11
11.2508088311
 21
6.1627612969
  0
LINE
  5
2AB
100
AcDbEntity
  8
0
100
AcDbLine
 62
4
  6
CONTINUOUS
 10
11.1542162403
 20
6.2708822313
 11
11.1735347668
 21
6.2550535991
  0
LINE
  5
2AC
100
AcDbEntity
  8
0
100
AcDbLine
 62
4
  6
CONTINUOUS
 10
9.6860088484
 20
10.4054432388
 11
9.6860088484
 21
10.4344210146
  0
LINE
  5
2AD
100
AcDbEntity
  8
0
100
AcDbLine
 62
4
  6
CONTINUOUS
 10
9.7826014392
 20
10.3987445198
 11
9.7826014392
 21
10.4277222957
  0
LINE
  5
2AE
100
AcDbEntity
  8
0
100
AcDbLine
 62
4
  6
CONTINUOUS
 10
9.9178310553
 20
10.41834409
 11
9.9178310553
 21
10.3893663141
  0
LINE
  5
2AF
100
AcDbEntity
  8
0
100
AcDbLine
 62
4
  6
CONTINUOUS
 10
11.8921835927
 20
7.6258161811
 11
12.1240057995
 21
7.6759741964
  0
LINE
  5
2B0
100
AcDbEntity
  8
0
100
AcDbLine
 62
4
  6
CONTINUOUS
 10
10.7761252499
 20
7.1733357521
 11
10.7430077938
 21
7.1756324555
  0
LINE
  5
2B1
100
AcDbEntity
  8
0
100
AcDbLine
 62
4
  6
CONTINUOUS
 10
10.9085950849
 20
7.2800600412
 11
10.8754776253
 21
7.2823567449
  0
LINE
  5
2B2
100
AcDbEntity
  8
0
100
AcDbLine
 62
4
  6
CONTINUOUS
 10
10.7098903376
 20
7.3600751746
 11
10.9085950849
 21
7.3462949535
  0
LINE
  5
2B3
100
AcDbEntity
  8
0
100
AcDbLine
 62
4
  6
CONTINUOUS
 10
12.1240057995
 20
7.3337604552
 11
11.8921835927
 21
7.3498373798
  0
LINE
  5
2B4
100
AcDbEntity
  8
0
100
AcDbLine
 62
4
  6
CONTINUOUS
 10
10.9085950849
 20
7.462206057
 11
10.7098903376
 21
7.475986278
  0
LINE
  5
2B5
100
AcDbEntity
  8
0
100
AcDbLine
 62
4
  6
CONTINUOUS
 10
10.7430077938
 20
7.1756324555
 11
10.7098903376
 21
7.2110466184
  0
LINE
  5
2B6
100
AcDbEntity
  8
0
100
AcDbLine
 62
4
  6
CONTINUOUS
 10
11.0962606886
 20
6.173479247
 11
11.076942176
 21
6.2037967663
  0
LINE
  5
2B7
100
AcDbEntity
  8
0
100
AcDbLine
 62
4
  6
CONTINUOUS
 10
11.1735347668
 20
6.2550535991
 11
11.2121717989
 21
6.1944185601
  0
LINE
  5
2B8
100
AcDbEntity
  8
0
100
AcDbLine
 62
4
  6
CONTINUOUS
 10
10.7761252499
 20
9.3259704985
 11
10.7926839849
 21
9.3413808122
  0
LINE
  5
2B9
100
AcDbEntity
  8
0
100
AcDbLine
 62
4
  6
CONTINUOUS
 10
10.9417125445
 20
7.5261442657
 11
10.7098903376
 21
7.5422211903
  0
LINE
  5
2BA
100
AcDbEntity
  8
0
100
AcDbLine
 62
4
  6
CONTINUOUS
 10
11.9253010488
 20
7.4634517661
 11
12.0908883399
 21
7.4519682484
  0
LINE
  5
2BB
100
AcDbEntity
  8
0
100
AcDbLine
 62
7
  6
CONTINUOUS
 10
8.893949674
 20
7.7611391192
 11
8.2062305095
 21
7.8088326052
  0
LINE
  5
2BC
100
AcDbEntity
  8
0
100
AcDbLine
 62
4
  6
CONTINUOUS
 10
10.9417125445
 20
7.6420553691
 11
10.7098903376
 21
7.6581322937
  0
LINE
  5
2BD
100
AcDbEntity
  8
0
100
AcDbLine
 62
7
  6
CONTINUOUS
 10
8.893949674
 20
7.7908609768
 11
8.1796795369
 21
7.840395779
  0
LINE
  5
2BE
100
AcDbEntity
  8
0
100
AcDbLine
 62
7
  6
CONTINUOUS
 10
8.096030386
 20
8.02993971
 11
7.5237187139
 21
8.0696296593
  0
LINE
  5
2BF
100
AcDbEntity
  8
0
100
AcDbLine
 62
7
  6
CONTINUOUS
 10
7.4309898291
 20
8.0760604293
 11
7.332465389
 21
8.0828931224
  0
LINE
  5
2C0
100
AcDbEntity
  8
0
100
AcDbLine
 62
4
  6
CONTINUOUS
 10
10.9417125445
 20
7.2446458815
 11
10.9085950849
 21
7.2800600412
  0
LINE
  5
2C1
100
AcDbEntity
  8
0
100
AcDbLine
 62
4
  6
CONTINUOUS
 10
10.9417125445
 20
7.426791911
 11
10.9085950849
 21
7.462206057
  0
LINE
  5
2C2
100
AcDbEntity
  8
0
100
AcDbLine
 62
4
  6
CONTINUOUS
 10
10.8754776253
 20
9.3356390538
 11
10.8644384733
 21
9.3198459557
  0
LINE
  5
2C3
100
AcDbEntity
  8
0
100
AcDbLine
 62
4
  6
CONTINUOUS
 10
10.8533993212
 20
9.2543766388
 11
10.8423601692
 21
9.2385835407
  0
LINE
  5
2C4
100
AcDbEntity
  8
0
100
AcDbLine
 62
4
  6
CONTINUOUS
 10
10.9251538147
 20
9.2328417819
 11
10.9417125445
 21
9.248252096
  0
LINE
  5
2C5
100
AcDbEntity
  8
0
100
AcDbLine
 62
4
  6
CONTINUOUS
 10
10.9417125445
 20
9.0992234397
 11
10.9251538147
 21
9.0838131256
  0
LINE
  5
2C6
100
AcDbEntity
  8
0
100
AcDbLine
 62
4
  6
CONTINUOUS
 10
10.9417125445
 20
8.861881788
 11
10.9251538147
 21
8.8464713634
  0
LINE
  5
2C7
100
AcDbEntity
  8
0
100
AcDbLine
 62
4
  6
CONTINUOUS
 10
10.7761252499
 20
8.0675071372
 11
10.9417125445
 21
8.1056998381
  0
LINE
  5
2C8
100
AcDbEntity
  8
0
100
AcDbLine
 62
4
  6
CONTINUOUS
 10
10.9417125445
 20
7.8904362971
 11
10.7098903376
 21
7.9065132218
  0
LINE
  5
2C9
100
AcDbEntity
  8
0
100
AcDbLine
 62
4
  6
CONTINUOUS
 10
12.1240057995
 20
7.808444021
 11
11.8921835927
 21
7.8245209456
  0
LINE
  5
2CA
100
AcDbEntity
  8
0
100
AcDbLine
 62
7
  6
CONTINUOUS
 10
7.2029240263
 20
8.2137851249
 11
6.9157837249
 21
8.2336983724
  0
LINE
  5
2CB
100
AcDbEntity
  8
0
100
AcDbLine
 62
4
  6
CONTINUOUS
 10
10.7926839849
 20
8.0001238451
 11
10.9417125445
 21
7.9897886794
  0
LINE
  5
2CC
100
AcDbEntity
  8
0
100
AcDbLine
 62
4
  6
CONTINUOUS
 10
11.6139969444
 20
7.9542047503
 11
11.3821747376
 21
7.9702816749
  0
LINE
  5
2CD
100
AcDbEntity
  8
0
100
AcDbLine
 62
4
  6
CONTINUOUS
 10
12.1240057995
 20
7.9409138456
 11
11.8921835927
 21
7.9569907702
  0
LINE
  5
2CE
100
AcDbEntity
  8
0
100
AcDbLine
 62
7
  6
CONTINUOUS
 10
7.0935660993
 20
8.3842112312
 11
6.7703144746
 21
8.4066288075
  0
LINE
  5
2CF
100
AcDbEntity
  8
0
100
AcDbLine
 62
4
  6
CONTINUOUS
 10
11.5808794848
 20
8.1220887485
 11
11.4152921937
 21
8.1335722661
  0
LINE
  5
2D0
100
AcDbEntity
  8
0
100
AcDbLine
 62
4
  6
CONTINUOUS
 10
10.9251538147
 20
8.2006809616
 11
10.7926839849
 21
8.2098677755
  0
LINE
  5
2D1
100
AcDbEntity
  8
0
100
AcDbLine
 62
4
  6
CONTINUOUS
 10
12.1240057995
 20
7.5435043441
 11
11.8921835927
 21
7.6258161811
  0
LINE
  5
2D2
100
AcDbEntity
  8
0
100
AcDbLine
 62
4
  6
CONTINUOUS
 10
10.9969083082
 20
8.0853132224
 11
10.7761252499
 21
8.1668594642
  0
LINE
  5
2D3
100
AcDbEntity
  8
0
100
AcDbLine
 62
4
  6
CONTINUOUS
 10
10.7926839849
 20
8.2098677755
 11
10.7761252499
 21
8.24413357
  0
LINE
  5
2D4
100
AcDbEntity
  8
0
100
AcDbLine
 62
4
  6
CONTINUOUS
 10
10.7098903376
 20
7.2110466184
 11
10.7098903376
 21
7.2772815342
  0
LINE
  5
2D5
100
AcDbEntity
  8
0
100
AcDbLine
 62
4
  6
CONTINUOUS
 10
10.7098903376
 20
9.010428482
 11
10.7098903376
 21
9.0159480373
  0
LINE
  5
2D6
100
AcDbEntity
  8
0
100
AcDbLine
 62
4
  6
CONTINUOUS
 10
10.7761252499
 20
8.6084256567
 11
10.7761252499
 21
8.5256319956
  0
LINE
  5
2D7
100
AcDbEntity
  8
0
100
AcDbLine
 62
4
  6
CONTINUOUS
 10
10.7761252499
 20
7.901919815
 11
10.7761252499
 21
7.9847134761
  0
LINE
  5
2D8
100
AcDbEntity
  8
0
100
AcDbLine
 62
4
  6
CONTINUOUS
 10
10.7761252499
 20
8.24413357
 11
10.7761252499
 21
8.3103684547
  0
LINE
  5
2D9
100
AcDbEntity
  8
0
100
AcDbLine
 62
4
  6
CONTINUOUS
 10
10.7761252499
 20
8.3766034499
 11
10.7761252499
 21
8.4428383345
  0
LINE
  5
2DA
100
AcDbEntity
  8
0
100
AcDbLine
 62
4
  6
CONTINUOUS
 10
10.7761252499
 20
9.1107069575
 11
10.7761252499
 21
9.1769420633
  0
LINE
  5
2DB
100
AcDbEntity
  8
0
100
AcDbLine
 62
4
  6
CONTINUOUS
 10
10.7761252499
 20
9.2597356138
 11
10.7761252499
 21
9.3259704985
  0
LINE
  5
2DC
100
AcDbEntity
  8
0
100
AcDbLine
 62
4
  6
CONTINUOUS
 10
10.8589188972
 20
8.553007679
 11
10.8589188972
 21
8.6192425637
  0
LINE
  5
2DD
100
AcDbEntity
  8
0
100
AcDbLine
 62
4
  6
CONTINUOUS
 10
10.9417125445
 20
9.1654585454
 11
10.9417125445
 21
9.0992234397
  0
LINE
  5
2DE
100
AcDbEntity
  8
0
100
AcDbLine
 62
4
  6
CONTINUOUS
 10
10.9417125445
 20
8.8949992304
 11
10.9417125445
 21
8.861881788
  0
LINE
  5
2DF
100
AcDbEntity
  8
0
100
AcDbLine
 62
4
  6
CONTINUOUS
 10
10.9417125445
 20
8.6135008047
 11
10.9417125445
 21
8.5472659201
  0
LINE
  5
2E0
100
AcDbEntity
  8
0
100
AcDbLine
 62
4
  6
CONTINUOUS
 10
10.9417125445
 20
8.2988849368
 11
10.9417125445
 21
8.2326500521
  0
LINE
  5
2E1
100
AcDbEntity
  8
0
100
AcDbLine
 62
4
  6
CONTINUOUS
 10
10.9417125445
 20
7.178410964
 11
10.9417125445
 21
7.2446458815
  0
LINE
  5
2E2
100
AcDbEntity
  8
0
100
AcDbLine
 62
4
  6
CONTINUOUS
 10
10.9417125445
 20
7.3771157061
 11
10.9417125445
 21
7.426791911
  0
LINE
  5
2E3
100
AcDbEntity
  8
0
100
AcDbLine
 62
4
  6
CONTINUOUS
 10
10.9417125445
 20
8.6962944658
 11
10.9417125445
 21
8.7790881269
  0
LINE
  5
2E4
100
AcDbEntity
  8
0
100
AcDbLine
 62
4
  6
CONTINUOUS
 10
10.9417125445
 20
9.248252096
 11
10.9417125445
 21
9.3144869806
  0
LINE
  5
2E5
100
AcDbEntity
  8
0
100
AcDbLine
 62
4
  6
CONTINUOUS
 10
10.9969083082
 20
8.0521957801
 11
10.9969083082
 21
8.0853132224
  0
LINE
  5
2E6
100
AcDbEntity
  8
0
100
AcDbLine
 62
4
  6
CONTINUOUS
 10
10.8644384733
 20
9.3198459557
 11
10.8533993212
 21
9.2543766388
  0
LINE
  5
2E7
100
AcDbEntity
  8
0
100
AcDbLine
 62
4
  6
CONTINUOUS
 10
10.9417125445
 20
8.5472659201
 11
10.9251538147
 21
8.5152968296
  0
LINE
  5
2E8
100
AcDbEntity
  8
0
100
AcDbLine
 62
4
  6
CONTINUOUS
 10
10.9251538147
 20
8.6808840412
 11
10.9417125445
 21
8.6962944658
  0
LINE
  5
2E9
100
AcDbEntity
  8
0
100
AcDbLine
 62
4
  6
CONTINUOUS
 10
10.7761252499
 20
8.4428383345
 11
10.7926839849
 21
8.4527290929
  0
LINE
  5
2EA
100
AcDbEntity
  8
0
100
AcDbLine
 62
4
  6
CONTINUOUS
 10
10.8092427061
 20
8.6226876192
 11
10.7761252499
 21
8.6084256567
  0
LINE
  5
2EB
100
AcDbEntity
  8
0
100
AcDbLine
 62
4
  6
CONTINUOUS
 10
11.3821747376
 20
8.3290541511
 11
11.6139969444
 21
8.3792121387
  0
LINE
  5
2EC
100
AcDbEntity
  8
0
100
AcDbLine
 62
7
  6
CONTINUOUS
 10
8.7880485536
 20
8.4119597232
 11
8.0666249116
 21
8.4619906227
  0
LINE
  5
2ED
100
AcDbEntity
  8
0
100
AcDbLine
 62
4
  6
CONTINUOUS
 10
10.7098903376
 20
8.3149618614
 11
10.9417125445
 21
8.2988849368
  0
LINE
  5
2EE
100
AcDbEntity
  8
0
100
AcDbLine
 62
4
  6
CONTINUOUS
 10
14.0230161322
 20
8.1486709384
 11
14.2548383391
 21
8.1325940138
  0
LINE
  5
2EF
100
AcDbEntity
  8
0
100
AcDbLine
 62
4
  6
CONTINUOUS
 10
10.9417125445
 20
8.365119932
 11
10.7761252499
 21
8.3766034499
  0
LINE
  5
2F0
100
AcDbEntity
  8
0
100
AcDbLine
 62
4
  6
CONTINUOUS
 10
12.0908883399
 20
8.2909439147
 11
11.9253010488
 21
8.3024274324
  0
LINE
  5
2F1
100
AcDbEntity
  8
0
100
AcDbLine
 62
7
  6
CONTINUOUS
 10
8.7880485536
 20
8.5263786141
 11
8.0666249116
 21
8.5764095136
  0
LINE
  5
2F2
100
AcDbEntity
  8
0
100
AcDbLine
 62
4
  6
CONTINUOUS
 10
10.7926839849
 20
8.4527290929
 11
10.8258014411
 21
8.4504323896
  0
LINE
  5
2F3
100
AcDbEntity
  8
0
100
AcDbLine
 62
4
  6
CONTINUOUS
 10
10.9251538147
 20
8.5152968296
 11
10.8754776253
 21
8.518741885
  0
LINE
  5
2F4
100
AcDbEntity
  8
0
100
AcDbLine
 62
4
  6
CONTINUOUS
 10
9.7053273611
 20
10.3751257195
 11
9.6860088484
 21
10.4054432388
  0
LINE
  5
2F5
100
AcDbEntity
  8
0
100
AcDbLine
 62
4
  6
CONTINUOUS
 10
9.7632829128
 20
10.4580398159
 11
9.7826014392
 21
10.4277222957
  0
LINE
  5
2F6
100
AcDbEntity
  8
0
100
AcDbLine
 62
4
  6
CONTINUOUS
 10
10.8754776253
 20
8.518741885
 11
10.8589188972
 21
8.553007679
  0
LINE
  5
2F7
100
AcDbEntity
  8
0
100
AcDbLine
 62
4
  6
CONTINUOUS
 10
11.076942176
 20
6.2037967663
 11
11.076942176
 21
6.2327745421
  0
LINE
  5
2F8
100
AcDbEntity
  8
0
100
AcDbLine
 62
4
  6
CONTINUOUS
 10
11.3087643828
 20
6.1442531778
 11
11.3087643828
 21
6.2601642813
  0
LINE
  5
2F9
100
AcDbEntity
  8
0
100
AcDbLine
 62
4
  6
CONTINUOUS
 10
11.3821747376
 20
7.9702816749
 11
11.3821747376
 21
8.0696340503
  0
LINE
  5
2FA
100
AcDbEntity
  8
0
100
AcDbLine
 62
4
  6
CONTINUOUS
 10
11.3821747376
 20
8.1689864256
 11
11.3821747376
 21
8.2352213518
  0
LINE
  5
2FB
100
AcDbEntity
  8
0
100
AcDbLine
 62
4
  6
CONTINUOUS
 10
10.9417125445
 20
8.2326500521
 11
10.9251538147
 21
8.2006809616
  0
LINE
  5
2FC
100
AcDbEntity
  8
0
100
AcDbLine
 62
4
  6
CONTINUOUS
 10
10.7761252499
 20
7.9847134761
 11
10.7926839849
 21
8.0001238451
  0
LINE
  5
2FD
100
AcDbEntity
  8
0
100
AcDbLine
 62
4
  6
CONTINUOUS
 10
12.0908883399
 20
8.4841290134
 11
11.9253010488
 21
8.4956125311
  0
LINE
  5
2FE
100
AcDbEntity
  8
0
100
AcDbLine
 62
4
  6
CONTINUOUS
 10
10.9417125445
 20
8.6135008047
 11
10.8092427061
 21
8.6226876192
  0
LINE
  5
2FF
100
AcDbEntity
  8
0
100
AcDbLine
 62
4
  6
CONTINUOUS
 10
10.7761252499
 20
8.6912192073
 11
10.9251538147
 21
8.6808840412
  0
LINE
  5
300
100
AcDbEntity
  8
0
100
AcDbLine
 62
4
  6
CONTINUOUS
 10
11.9253010488
 20
8.6115236345
 11
12.0908883399
 21
8.6000401169
  0
LINE
  5
301
100
AcDbEntity
  8
0
100
AcDbLine
 62
7
  6
CONTINUOUS
 10
7.0935660993
 20
9.0110971296
 11
6.7703144746
 21
9.0335147059
  0
LINE
  5
302
100
AcDbEntity
  8
0
100
AcDbLine
 62
4
  6
CONTINUOUS
 10
12.1240057995
 20
8.6639782979
 11
11.8921835927
 21
8.6800552226
  0
LINE
  5
303
100
AcDbEntity
  8
0
100
AcDbLine
 62
4
  6
CONTINUOUS
 10
10.9417125445
 20
8.7790881269
 11
10.7761252499
 21
8.7905716448
  0
LINE
  5
304
100
AcDbEntity
  8
0
100
AcDbLine
 62
4
  6
CONTINUOUS
 10
10.9251538147
 20
8.8464713634
 11
10.7098903376
 21
8.8613999363
  0
LINE
  5
305
100
AcDbEntity
  8
0
100
AcDbLine
 62
4
  6
CONTINUOUS
 10
11.9253010488
 20
8.7936696226
 11
12.0908883399
 21
8.782186105
  0
LINE
  5
306
100
AcDbEntity
  8
0
100
AcDbLine
 62
4
  6
CONTINUOUS
 10
11.6139969444
 20
8.3792121387
 11
11.3821747376
 21
8.4615239757
  0
LINE
  5
307
100
AcDbEntity
  8
0
100
AcDbLine
 62
4
  6
CONTINUOUS
 10
10.7098903376
 20
9.0159480373
 11
10.7264490726
 21
9.0092801298
  0
LINE
  5
308
100
AcDbEntity
  8
0
100
AcDbLine
 62
4
  6
CONTINUOUS
 10
11.4152921937
 20
8.1335722661
 11
11.3821747376
 21
8.1689864256
  0
LINE
  5
309
100
AcDbEntity
  8
0
100
AcDbLine
 62
4
  6
CONTINUOUS
 10
12.0908883399
 20
7.4519682484
 11
12.1240057995
 21
7.4165540886
  0
LINE
  5
30A
100
AcDbEntity
  8
0
100
AcDbLine
 62
4
  6
CONTINUOUS
 10
10.7926839849
 20
9.0929999395
 11
10.7761252499
 21
9.1107069575
  0
LINE
  5
30B
100
AcDbEntity
  8
0
100
AcDbLine
 62
4
  6
CONTINUOUS
 10
10.7926839849
 20
9.2420285958
 11
10.7761252499
 21
9.2597356138
  0
LINE
  5
30C
100
AcDbEntity
  8
0
100
AcDbLine
 62
4
  6
CONTINUOUS
 10
9.8985125375
 20
10.4486616096
 11
9.9178310553
 21
10.41834409
  0
LINE
  5
30D
100
AcDbEntity
  8
0
100
AcDbLine
 62
4
  6
CONTINUOUS
 10
11.980496809
 20
7.2995562224
 11
12.0246534242
 21
7.2081807274
  0
LINE
  5
30E
100
AcDbEntity
  8
0
100
AcDbLine
 62
4
  6
CONTINUOUS
 10
11.481527106
 20
8.029626484
 11
11.481527106
 21
7.9633915648
  0
LINE
  5
30F
100
AcDbEntity
  8
0
100
AcDbLine
 62
4
  6
CONTINUOUS
 10
11.6139969444
 20
8.2191444271
 11
11.6139969444
 21
8.152909501
  0
LINE
  5
310
100
AcDbEntity
  8
0
100
AcDbLine
 62
4
  6
CONTINUOUS
 10
11.6139969444
 20
7.9542047503
 11
11.6139969444
 21
8.0535571256
  0
LINE
  5
311
100
AcDbEntity
  8
0
100
AcDbLine
 62
4
  6
CONTINUOUS
 10
11.980496809
 20
9.0492618775
 11
12.0246534242
 21
9.1345128223
  0
LINE
  5
312
100
AcDbEntity
  8
0
100
AcDbLine
 62
4
  6
CONTINUOUS
 10
10.8754776253
 20
7.2823567449
 11
10.7761252499
 21
7.1733357521
  0
LINE
  5
313
100
AcDbEntity
  8
0
100
AcDbLine
 62
4
  6
CONTINUOUS
 10
11.8921835927
 20
8.7628488837
 11
11.9253010488
 21
8.7936696226
  0
LINE
  5
314
100
AcDbEntity
  8
0
100
AcDbLine
 62
4
  6
CONTINUOUS
 10
11.8921835927
 20
8.5807028956
 11
11.9253010488
 21
8.6115236345
  0
LINE
  5
315
100
AcDbEntity
  8
0
100
AcDbLine
 62
4
  6
CONTINUOUS
 10
11.6139969444
 20
8.152909501
 11
11.5808794848
 21
8.1220887485
  0
LINE
  5
316
100
AcDbEntity
  8
0
100
AcDbLine
 62
4
  6
CONTINUOUS
 10
10.7098903376
 20
7.2772815342
 11
10.7264490726
 21
7.2926919101
  0
LINE
  5
317
100
AcDbEntity
  8
0
100
AcDbLine
 62
4
  6
CONTINUOUS
 10
12.1240057995
 20
8.8737222836
 11
11.8921835927
 21
8.8897992082
  0
LINE
  5
318
100
AcDbEntity
  8
0
100
AcDbLine
 62
4
  6
CONTINUOUS
 10
10.9417125445
 20
8.9943515574
 11
10.7761252499
 21
9.0058350752
  0
LINE
  5
319
100
AcDbEntity
  8
0
100
AcDbLine
 62
4
  6
CONTINUOUS
 10
10.7264490726
 20
9.0092801298
 11
10.7098903376
 21
9.010428482
  0
LINE
  5
31A
100
AcDbEntity
  8
0
100
AcDbLine
 62
4
  6
CONTINUOUS
 10
10.9251538147
 20
9.0838131256
 11
10.7926839849
 21
9.0929999395
  0
LINE
  5
31B
100
AcDbEntity
  8
0
100
AcDbLine
 62
7
  6
CONTINUOUS
 10
7.2390353496
 20
9.4650525929
 11
6.9157837249
 21
9.4874701692
  0
LINE
  5
31C
100
AcDbEntity
  8
0
100
AcDbLine
 62
7
  6
CONTINUOUS
 10
8.893949674
 20
9.3668743327
 11
8.1796795369
 21
9.4164091349
  0
LINE
  5
31D
100
AcDbEntity
  8
0
100
AcDbLine
 62
4
  6
CONTINUOUS
 10
10.8423601692
 20
9.2385835407
 11
10.7926839849
 21
9.2420285958
  0
LINE
  5
31E
100
AcDbEntity
  8
0
100
AcDbLine
 62
4
  6
CONTINUOUS
 10
9.7439644001
 20
10.4738684472
 11
9.7632829128
 21
10.4580398159
  0
LINE
  5
31F
100
AcDbEntity
  8
0
100
AcDbLine
 62
4
  6
CONTINUOUS
 10
10.9417125445
 20
9.3144869806
 11
10.9251538147
 21
9.3321939983
  0
LINE
  5
320
100
AcDbEntity
  8
0
100
AcDbLine
 62
4
  6
CONTINUOUS
 10
11.9253010488
 20
8.3024274324
 11
11.8921835927
 21
8.3378415781
  0
LINE
  5
321
100
AcDbEntity
  8
0
100
AcDbLine
 62
4
  6
CONTINUOUS
 10
11.9253010488
 20
8.4956125311
 11
11.8921835927
 21
8.5310266768
  0
LINE
  5
322
100
AcDbEntity
  8
0
100
AcDbLine
 62
4
  6
CONTINUOUS
 10
11.8921835927
 20
7.3498373798
 11
11.8921835927
 21
7.4326310133
  0
LINE
  5
323
100
AcDbEntity
  8
0
100
AcDbLine
 62
4
  6
CONTINUOUS
 10
11.8921835927
 20
7.7582860057
 11
11.8921835927
 21
7.8907558303
  0
LINE
  5
324
100
AcDbEntity
  8
0
100
AcDbLine
 62
4
  6
CONTINUOUS
 10
11.8921835927
 20
7.9569907702
 11
11.8921835927
 21
8.0563431525
  0
LINE
  5
325
100
AcDbEntity
  8
0
100
AcDbLine
 62
4
  6
CONTINUOUS
 10
11.8921835927
 20
8.3378415781
 11
11.8921835927
 21
8.4040764628
  0
LINE
  5
326
100
AcDbEntity
  8
0
100
AcDbLine
 62
4
  6
CONTINUOUS
 10
11.8921835927
 20
8.5310266768
 11
11.8921835927
 21
8.5807028956
  0
LINE
  5
327
100
AcDbEntity
  8
0
100
AcDbLine
 62
4
  6
CONTINUOUS
 10
11.8921835927
 20
8.6800552226
 11
11.8921835927
 21
8.7628488837
  0
LINE
  5
328
100
AcDbEntity
  8
0
100
AcDbLine
 62
4
  6
CONTINUOUS
 10
11.8921835927
 20
8.8897992082
 11
11.8921835927
 21
8.9891515352
  0
LINE
  5
329
100
AcDbEntity
  8
0
100
AcDbLine
 62
4
  6
CONTINUOUS
 10
11.9915359611
 20
8.9491439827
 11
11.9915359611
 21
8.8829090981
  0
LINE
  5
32A
100
AcDbEntity
  8
0
100
AcDbLine
 62
4
  6
CONTINUOUS
 10
11.9915359611
 20
8.0163356
 11
11.9915359611
 21
7.9501006601
  0
LINE
  5
32B
100
AcDbEntity
  8
0
100
AcDbLine
 62
4
  6
CONTINUOUS
 10
12.0577708803
 20
7.5701760555
 11
12.0577708803
 21
7.6584892719
  0
LINE
  5
32C
100
AcDbEntity
  8
0
100
AcDbLine
 62
4
  6
CONTINUOUS
 10
12.1240057995
 20
8.5149497521
 11
12.0908883399
 21
8.4841290134
  0
LINE
  5
32D
100
AcDbEntity
  8
0
100
AcDbLine
 62
4
  6
CONTINUOUS
 10
10.9085950849
 20
7.3462949535
 11
10.9417125445
 21
7.3771157061
  0
LINE
  5
32E
100
AcDbEntity
  8
0
100
AcDbLine
 62
4
  6
CONTINUOUS
 10
12.1240057995
 20
8.3217646535
 11
12.0908883399
 21
8.2909439147
  0
LINE
  5
32F
100
AcDbEntity
  8
0
100
AcDbLine
 62
4
  6
CONTINUOUS
 10
10.9251538147
 20
7.163000586
 11
10.9417125445
 21
7.178410964
  0
LINE
  5
330
100
AcDbEntity
  8
0
100
AcDbLine
 62
4
  6
CONTINUOUS
 10
10.7098903376
 20
7.5422211903
 11
10.9417125445
 21
7.6420553691
  0
LINE
  5
331
100
AcDbEntity
  8
0
100
AcDbLine
 62
7
  6
CONTINUOUS
 10
8.893949674
 20
9.4515713659
 11
8.2062305095
 21
9.499264852
  0
LINE
  5
332
100
AcDbEntity
  8
0
100
AcDbLine
 62
7
  6
CONTINUOUS
 10
8.1992375335
 20
9.5203706237
 11
7.6270797089
 21
9.5600499036
  0
LINE
  5
333
100
AcDbEntity
  8
0
100
AcDbLine
 62
7
  6
CONTINUOUS
 10
7.5343508241
 20
9.5664806736
 11
7.435826384
 21
9.5733133667
  0
LINE
  5
334
100
AcDbEntity
  8
0
100
AcDbLine
 62
4
  6
CONTINUOUS
 10
10.9251538147
 20
9.3321939983
 11
10.8754776253
 21
9.3356390538
  0
LINE
  5
335
100
AcDbEntity
  8
0
100
AcDbLine
 62
7
  6
CONTINUOUS
 10
8.893949674
 20
9.6856568734
 11
8.4323397601
 21
9.7176696297
  0
LINE
  5
336
100
AcDbEntity
  8
0
100
AcDbLine
 62
4
  6
CONTINUOUS
 10
9.8598755036
 20
10.4803188728
 11
9.8985125375
 21
10.4486616096
  0
LINE
  5
337
100
AcDbEntity
  8
0
100
AcDbLine
 62
4
  6
CONTINUOUS
 10
12.0908883399
 20
8.6000401169
 11
12.1240057995
 21
8.5646259709
  0
LINE
  5
338
100
AcDbEntity
  8
0
100
AcDbLine
 62
4
  6
CONTINUOUS
 10
12.0908883399
 20
8.782186105
 11
12.1240057995
 21
8.746771959
  0
LINE
  5
339
100
AcDbEntity
  8
0
100
AcDbLine
 62
4
  6
CONTINUOUS
 10
12.1240057995
 20
8.746771959
 11
12.1240057995
 21
8.6639782979
  0
LINE
  5
33A
100
AcDbEntity
  8
0
100
AcDbLine
 62
4
  6
CONTINUOUS
 10
12.1240057995
 20
8.5646259709
 11
12.1240057995
 21
8.5149497521
  0
LINE
  5
33B
100
AcDbEntity
  8
0
100
AcDbLine
 62
4
  6
CONTINUOUS
 10
12.1240057995
 20
8.3879995381
 11
12.1240057995
 21
8.3217646535
  0
LINE
  5
33C
100
AcDbEntity
  8
0
100
AcDbLine
 62
4
  6
CONTINUOUS
 10
12.1240057995
 20
7.4165540886
 11
12.1240057995
 21
7.3337604552
  0
LINE
  5
33D
100
AcDbEntity
  8
0
100
AcDbLine
 62
4
  6
CONTINUOUS
 10
12.1240057995
 20
7.9409138456
 11
12.1240057995
 21
8.0402662278
  0
LINE
  5
33E
100
AcDbEntity
  8
0
100
AcDbLine
 62
4
  6
CONTINUOUS
 10
12.1240057995
 20
8.8737222836
 11
12.1240057995
 21
8.9730746106
  0
LINE
  5
33F
100
AcDbEntity
  8
0
100
AcDbLine
 62
4
  6
CONTINUOUS
 10
11.076942176
 20
6.2327745421
 11
11.0962606886
 21
6.2604125746
  0
LINE
  5
340
100
AcDbEntity
  8
0
100
AcDbLine
 62
7
  6
CONTINUOUS
 10
14.6895049752
 20
10.4013533856
 11
15.3365520539
 21
11.0263529068
  0
LINE
  5
341
100
AcDbEntity
  8
0
100
AcDbLine
 62
4
  6
CONTINUOUS
 10
11.8921835927
 20
7.4326310133
 11
11.9253010488
 21
7.4634517661
  0
LINE
  5
342
100
AcDbEntity
  8
0
100
AcDbLine
 62
4
  6
CONTINUOUS
 10
12.0246534242
 20
9.1345128223
 11
12.0688100358
 21
9.0431373345
  0
LINE
  5
343
100
AcDbEntity
  8
0
100
AcDbLine
 62
4
  6
CONTINUOUS
 10
12.0246534242
 20
7.2081807274
 11
12.0688100358
 21
7.2934316793
  0
LINE
  5
344
100
AcDbEntity
  8
0
100
AcDbLine
 62
4
  6
CONTINUOUS
 10
11.0962606886
 20
6.2604125746
 11
11.1155792151
 21
6.2735617181
  0
LINE
  5
345
100
AcDbEntity
  8
0
100
AcDbLine
 62
4
  6
CONTINUOUS
 10
9.7246458875
 20
10.4752081906
 11
9.7439644001
 21
10.4738684472
  0
LINE
  5
346
100
AcDbEntity
  8
0
100
AcDbLine
 62
4
  6
CONTINUOUS
 10
9.840556984
 20
10.4816586167
 11
9.8598755036
 21
10.4803188728
  0
LINE
  5
347
100
AcDbEntity
  8
0
100
AcDbLine
 62
7
  6
CONTINUOUS
 10
8.893949674
 20
10.8032765108
 11
14.6895049752
 21
10.4013533856
  0
LINE
  5
348
100
AcDbEntity
  8
0
100
AcDbLine
 62
7
  6
CONTINUOUS
 10
15.3365520539
 20
11.0263529068
 11
9.5409967528
 21
11.428276032
  0
LINE
  5
349
100
AcDbEntity
  8
0
100
AcDbLine
 62
7
  6
CONTINUOUS
 10
14.6895049752
 20
5.571723968
 11
14.6895049752
 21
10.4013533856
  0
LINE
  5
34A
100
AcDbEntity
  8
0
100
AcDbLine
 62
7
  6
CONTINUOUS
 10
15.3365520539
 20
6.1967234892
 11
15.3365520539
 21
11.0263529068
  0
LINE
  5
34B
100
AcDbEntity
  8
0
100
AcDbLine
 62
7
  6
CONTINUOUS
 10
14.6895049752
 20
5.571723968
 11
15.3365520539
 21
6.1967234892
  0
ARC
  5
34C
100
AcDbEntity
  8
0
100
AcDbCircle
 62
7
  6
CONTINUOUS
 10
11.6822537414
 20
8.5184447916
 40
3.6160934368
100
AcDbArc
 50
179.0815292162
 51
179.9951434028
  0
ARC
  5
34D
100
AcDbEntity
  8
0
100
AcDbCircle
 62
7
  6
CONTINUOUS
 10
12.4036773833
 20
8.4684138921
 40
3.6160934368
100
AcDbArc
 50
179.0815292162
 51
179.9951434028
  0
ARC
  5
34E
100
AcDbEntity
  8
0
100
AcDbCircle
 62
7
  6
CONTINUOUS
 10
11.4890112857
 20
8.5183855712
 40
3.4228509876
100
AcDbArc
 50
179.9938779146
 51
180.9440489097
  0
ARC
  5
34F
100
AcDbEntity
  8
0
100
AcDbCircle
 62
7
  6
CONTINUOUS
 10
12.2104349276
 20
8.4683546717
 40
3.4228509876
100
AcDbArc
 50
179.9938779146
 51
180.9440489097
  0
ARC
  5
350
100
AcDbEntity
  8
0
100
AcDbCircle
 62
7
  6
CONTINUOUS
 10
9.2114718084
 20
8.403613607
 40
1.1744932413
100
AcDbArc
 50
199.7034206742
 51
202.6179363172
  0
ARC
  5
351
100
AcDbEntity
  8
0
100
AcDbCircle
 62
7
  6
CONTINUOUS
 10
7.5419554746
 20
8.9925303254
 40
0.7968177665
100
AcDbArc
 50
149.4387751367
 51
152.1330596651
  0
ARC
  5
352
100
AcDbEntity
  8
0
100
AcDbCircle
 62
7
  6
CONTINUOUS
 10
7.6793236736
 20
9.4289327772
 40
0.1494877199
100
AcDbArc
 50
134.043476298
 51
136.3565354107
  0
ARC
  5
353
100
AcDbEntity
  8
0
100
AcDbCircle
 62
7
  6
CONTINUOUS
 10
7.6656579654
 20
9.4333489056
 40
0.1398697058
100
AcDbArc
 50
131.0159803523
 51
134.025379645
  0
ARC
  5
354
100
AcDbEntity
  8
0
100
AcDbCircle
 62
7
  6
CONTINUOUS
 10
10.5615969486
 20
10.9640940457
 40
0.0319149374
100
AcDbArc
 50
349.5538523992
 51
359.9695658375
  0
ARC
  5
355
100
AcDbEntity
  8
0
100
AcDbCircle
 62
7
  6
CONTINUOUS
 10
9.6854042259
 20
10.9640927939
 40
0.0318923364
100
AcDbArc
 50
180.0282069052
 51
190.1145709041
  0
SPLINE
  5
356
100
AcDbEntity
  8
0
100
AcDbSpline
 62
7
  6
CONTINUOUS
 70
0
 71
3
 72
18
 73
14
 74
0
 42
0.0000001
 43
0.0000001
 44
0.0000000001
 40
0.0
 40
0.0
 40
0.0
 40
0.0
 40
0.0544332456
 40
0.1090832771
 40
0.164164054
 40
0.2198844295
 40
0.3339883485
 40
0.4529318406
 40
0.5146499212
 40
0.5780457783
 40
0.7103454633
 40
0.8507577982
 40
1.0
 40
1.0
 40
1.0
 40
1.0
 10
7.3324647458
 20
8.082893295
 30
0.0
 10
7.3314506482
 20
8.0829636578
 30
0.0
 10
7.3294224023
 20
8.0831711763
 30
0.0
 10
7.3263973481
 20
8.0836813332
 30
0.0
 10
7.3233878022
 20
8.084390514
 30
0.0
 10
7.3193662928
 20
8.0856103737
 30
0.0
 10
7.3143607565
 20
8.0876538781
 30
0.0
 10
7.3095257017
 20
8.090308839
 30
0.0
 10
7.3057101811
 20
8.0928046382
 30
0.0
 10
7.3018207164
 20
8.0956327029
 30
0.0
 10
7.2970122085
 20
8.0996812562
 30
0.0
 10
7.291420924
 20
8.105244326
 30
0.0
 10
7.2878737804
 20
8.1093349639
 30
0.0
 10
7.2861152269
 20
8.1114972143
 30
0.0
  0
SPLINE
  5
357
100
AcDbEntity
  8
0
100
AcDbSpline
 62
7
  6
CONTINUOUS
 70
0
 71
3
 72
41
 73
37
 74
0
 42
0.0000001
 43
0.0000001
 44
0.0000000001
 40
0.0
 40
0.0
 40
0.0
 40
0.0
 40
0.0379354846
 40
0.0762771793
 40
0.1537874132
 40
0.231824398
 40
0.3096759902
 40
0.3483104203
 40
0.3866326983
 40
0.4245554341
 40
0.4619928286
 40
0.4988602241
 40
0.535074984
 40
0.5705560509
 40
0.6052250338
 40
0.6390057797
 40
0.671825263
 40
0.7036133423
 40
0.7343036379
 40
0.7638335775
 40
0.7921449493
 40
0.8191843722
 40
0.8449037794
 40
0.8692615074
 40
0.8922225696
 40
0.9137605657
 40
0.9239906444
 40
0.9338596336
 40
0.9433672587
 40
0.9525139586
 40
0.961301427
 40
0.9697326775
 40
0.9778118104
 40
0.9855442097
 40
0.9929371335
 40
1.0
 40
1.0
 40
1.0
 40
1.0
 10
7.1200975142
 20
8.6730520872
 30
0.0
 10
7.1200975142
 20
8.683399695
 30
0.0
 10
7.1202360362
 20
8.7042059846
 30
0.0
 10
7.1210565792
 20
8.7461472212
 30
0.0
 10
7.1230993223
 20
8.7990006842
 30
0.0
 10
7.1271297363
 20
8.8625429084
 30
0.0
 10
7.1317910029
 20
8.915403551
 30
0.0
 10
7.1362900562
 20
8.9573909534
 30
0.0
 10
7.1400237408
 20
8.9885041233
 30
0.0
 10
7.1441163271
 20
9.0192427333
 30
0.0
 10
7.1485575138
 20
9.0495319294
 30
0.0
 10
7.153336755
 20
9.079297911
 30
0.0
 10
7.1584420673
 20
9.1084681683
 30
0.0
 10
7.1638612243
 20
9.1369716423
 30
0.0
 10
7.1695807386
 20
9.1647389151
 30
0.0
 10
7.1755868005
 20
9.1917023981
 30
0.0
 10
7.1818645501
 20
9.2177964607
 30
0.0
 10
7.188398711
 20
9.2429576212
 30
0.0
 10
7.1951732168
 20
9.2671246966
 30
0.0
 10
7.2021714716
 20
9.2902390024
 30
0.0
 10
7.2093763673
 20
9.3122444345
 30
0.0
 10
7.216770133
 20
9.3330877075
 30
0.0
 10
7.2243348346
 20
9.3527183651
 30
0.0
 10
7.2320517391
 20
9.3710892709
 30
0.0
 10
7.2399023343
 20
9.3881559286
 30
0.0
 10
7.2466505457
 20
9.4014771589
 30
0.0
 10
7.2521147496
 20
9.411434558
 30
0.0
 10
7.2561638668
 20
9.4184228124
 30
0.0
 10
7.2602319787
 20
9.4250557974
 30
0.0
 10
7.2643168136
 20
9.4313293892
 30
0.0
 10
7.2684159113
 20
9.4372398234
 30
0.0
 10
7.2725267265
 20
9.4427837239
 30
0.0
 10
7.2766468163
 20
9.4479577879
 30
0.0
 10
7.2807739367
 20
9.4527588079
 30
0.0
 10
7.284905605
 20
9.4571837287
 30
0.0
 10
7.2877246587
 20
9.4599431906
 30
0.0
 10
7.2891349155
 20
9.4612557018
 30
0.0
  0
SPLINE
  5
358
100
AcDbEntity
  8
0
100
AcDbSpline
 62
7
  6
CONTINUOUS
 70
0
 71
3
 72
9
 73
5
 74
0
 42
0.0000001
 43
0.0000001
 44
0.0000000001
 40
0.0
 40
0.0
 40
0.0
 40
0.0
 40
0.5037870669
 40
1.0
 40
1.0
 40
1.0
 40
1.0
 10
8.1796795369
 20
7.840395779
 30
0.0
 10
8.1701413339
 20
7.8587618672
 30
0.0
 10
8.1518602349
 20
7.8955615227
 30
0.0
 10
8.1351427192
 20
7.9331032721
 30
0.0
 10
8.1273089961
 20
7.951921931
 30
0.0
  0
SPLINE
  5
359
100
AcDbEntity
  8
0
100
AcDbSpline
 62
7
  6
CONTINUOUS
 70
0
 71
3
 72
23
 73
19
 74
0
 42
0.0000001
 43
0.0000001
 44
0.0000000001
 40
0.0
 40
0.0
 40
0.0
 40
0.0
 40
0.0423096809
 40
0.0867811318
 40
0.1336953399
 40
0.1832840957
 40
0.235722584
 40
0.2911291154
 40
0.3495588739
 40
0.4110171476
 40
0.4754565349
 40
0.5427933859
 40
0.6129107636
 40
0.6856707965
 40
0.7609199529
 40
0.8384995808
 40
0.9182468081
 40
1.0
 40
1.0
 40
1.0
 40
1.0
 10
6.7747041665
 20
8.355064764
 30
0.0
 10
6.7757281926
 20
8.3526039432
 30
0.0
 10
6.778044178
 20
8.3476439683
 30
0.0
 10
6.7821976111
 20
8.3403082537
 30
0.0
 10
6.7871255173
 20
8.3329112252
 30
0.0
 10
6.7928356544
 20
8.3254582311
 30
0.0
 10
6.799327937
 20
8.3179537031
 30
0.0
 10
6.8065952116
 20
8.3104038986
 30
0.0
 10
6.8146211431
 20
8.3028136391
 30
0.0
 10
6.8233839226
 20
8.295189874
 30
0.0
 10
6.8328542987
 20
8.2875376892
 30
0.0
 10
6.8429992015
 20
8.279863427
 30
0.0
 10
6.853781438
 20
8.2721720673
 30
0.0
 10
6.86516191
 20
8.2644686918
 30
0.0
 10
6.8771004514
 20
8.2567574632
 30
0.0
 10
6.8895570228
 20
8.2490421742
 30
0.0
 10
6.9024922368
 20
8.2413258483
 30
0.0
 10
6.9113058778
 20
8.2362426821
 30
0.0
 10
6.9157837249
 20
8.2336983724
 30
0.0
  0
SPLINE
  5
35A
100
AcDbEntity
  8
0
100
AcDbSpline
 62
7
  6
CONTINUOUS
 70
0
 71
3
 72
48
 73
44
 74
0
 42
0.0000001
 43
0.0000001
 44
0.0000000001
 40
0.0
 40
0.0
 40
0.0
 40
0.0
 40
0.0097390981
 40
0.0199698058
 40
0.030688729
 40
0.0418911561
 40
0.0535704177
 40
0.0657185675
 40
0.0783268043
 40
0.0913846912
 40
0.1188025488
 40
0.1478723991
 40
0.1784807
 40
0.2105024901
 40
0.2438034905
 40
0.2782413351
 40
0.3136663149
 40
0.3499228746
 40
0.3868506405
 40
0.4242851384
 40
0.4620590536
 40
0.5000031861
 40
0.5379472742
 40
0.5757211195
 40
0.6131554637
 40
0.6500829397
 40
0.686339249
 40
0.7217639074
 40
0.7562012588
 40
0.7895018557
 40
0.8215231739
 40
0.8521307642
 40
0.8812000609
 40
0.8951222737
 40
0.908618305
 40
0.9216757388
 40
0.9342835882
 40
0.9464315537
 40
0.9581103199
 40
0.9693123137
 40
0.9800309478
 40
0.9902611247
 40
1.0
 40
1.0
 40
1.0
 40
1.0
 10
6.8368181068
 20
9.3654508603
 30
0.0
 10
6.8351441719
 20
9.3626126461
 30
0.0
 10
6.8318146438
 20
9.3567318364
 30
0.0
 10
6.8269824159
 20
9.347540159
 30
0.0
 10
6.8221944769
 20
9.3377708481
 30
0.0
 10
6.8174570069
 20
9.3274354821
 30
0.0
 10
6.8127754199
 20
9.3165463817
 30
0.0
 10
6.8081552379
 20
9.3051165025
 30
0.0
 10
6.8036022255
 20
9.293159292
 30
0.0
 10
6.7975290829
 20
9.276256156
 30
0.0
 10
6.7901684345
 20
9.2539023255
 30
0.0
 10
6.7818237149
 20
9.2256367625
 30
0.0
 10
6.7738700539
 20
9.1956445092
 30
0.0
 10
6.7663456269
 20
9.1640686877
 30
0.0
 10
6.7592867999
 20
9.1310596887
 30
0.0
 10
6.7527278106
 20
9.0967749941
 30
0.0
 10
6.7467001432
 20
9.0613783308
 30
0.0
 10
6.7412327759
 20
9.0250388293
 30
0.0
 10
6.7363521894
 20
8.9879301405
 30
0.0
 10
6.73208177
 20
8.9502296756
 30
0.0
 10
6.72844193
 20
8.9121177167
 30
0.0
 10
6.7254502738
 20
8.8737764939
 30
0.0
 10
6.723121111
 20
8.8353893543
 30
0.0
 10
6.7214654282
 20
8.7971398889
 30
0.0
 10
6.7204912081
 20
8.7592110169
 30
0.0
 10
6.7202030673
 20
8.721784098
 30
0.0
 10
6.7206020895
 20
8.6850380667
 30
0.0
 10
6.7216862673
 20
8.6491485805
 30
0.0
 10
6.7234502998
 20
8.6142871349
 30
0.0
 10
6.725885289
 20
8.5806202475
 30
0.0
 10
6.7289792345
 20
8.5483085402
 30
0.0
 10
6.7327172028
 20
8.5175063727
 30
0.0
 10
6.7364041787
 20
8.4928756425
 30
0.0
 10
6.7396801231
 20
8.4740460678
 30
0.0
 10
6.7422506087
 20
8.4605944538
 30
0.0
 10
6.7449671333
 20
8.4476255451
 30
0.0
 10
6.7478261777
 20
8.4351547286
 30
0.0
 10
6.7508243297
 20
8.4231968634
 30
0.0
 10
6.7539582443
 20
8.4117662277
 30
0.0
 10
6.7572238267
 20
8.4008763262
 30
0.0
 10
6.7606172721
 20
8.390540025
 30
0.0
 10
6.7641347089
 20
8.3807697777
 30
0.0
 10
6.7666207212
 20
8.3744859931
 30
0.0
 10
6.7678868858
 20
8.3714439792
 30
0.0
  0
SPLINE
  5
35B
100
AcDbEntity
  8
0
100
AcDbSpline
 62
7
  6
CONTINUOUS
 70
0
 71
3
 72
53
 73
49
 74
0
 42
0.0000001
 43
0.0000001
 44
0.0000000001
 40
0.0
 40
0.0
 40
0.0
 40
0.0
 40
0.0075208262
 40
0.0156244122
 40
0.0243315318
 40
0.0336553574
 40
0.0436035317
 40
0.0541777318
 40
0.0653758533
 40
0.0771927733
 40
0.0896194851
 40
0.1026450059
 40
0.1162562882
 40
0.130437486
 40
0.1451716562
 40
0.160440189
 40
0.1924960966
 40
0.2264294121
 40
0.262044463
 40
0.2991303031
 40
0.3374635115
 40
0.3768100221
 40
0.4169274336
 40
0.4575672201
 40
0.4984766011
 40
0.5394007547
 40
0.5800847069
 40
0.6202753037
 40
0.6597234128
 40
0.6981859189
 40
0.7354276954
 40
0.7712237202
 40
0.8053616884
 40
0.8376442625
 40
0.8530332517
 40
0.8678928142
 40
0.8822035113
 40
0.8959477363
 40
0.9091101238
 40
0.9216764591
 40
0.9336351128
 40
0.9449770825
 40
0.9556954725
 40
0.9657879271
 40
0.9752562969
 40
0.984106284
 40
0.9923485513
 40
1.0
 40
1.0
 40
1.0
 40
1.0
 10
6.7024817498
 20
8.5780753331
 30
0.0
 10
6.7015148542
 20
8.579264215
 30
0.0
 10
6.6996096408
 20
8.5818193356
 30
0.0
 10
6.6969287635
 20
8.5859934716
 30
0.0
 10
6.6943243628
 20
8.5906415159
 30
0.0
 10
6.6918004763
 20
8.5957558556
 30
0.0
 10
6.6893613312
 20
8.6013287079
 30
0.0
 10
6.6870104727
 20
8.6073509701
 30
0.0
 10
6.6847517622
 20
8.6138129665
 30
0.0
 10
6.682589229
 20
8.6207042672
 30
0.0
 10
6.6805260954
 20
8.6280135046
 30
0.0
 10
6.6785659369
 20
8.6357287188
 30
0.0
 10
6.6767122132
 20
8.6438372341
 30
0.0
 10
6.6749677184
 20
8.652325598
 30
0.0
 10
6.6733355363
 20
8.6611798153
 30
0.0
 10
6.6712794675
 20
8.6736570871
 30
0.0
 10
6.6690269936
 20
8.6900634745
 30
0.0
 10
6.666850924
 20
8.7106543081
 30
0.0
 10
6.6651749727
 20
8.7323197521
 30
0.0
 10
6.6640105171
 20
8.7549161026
 30
0.0
 10
6.6633657197
 20
8.7782936613
 30
0.0
 10
6.6632452558
 20
8.8022973542
 30
0.0
 10
6.663649993
 20
8.8267678774
 30
0.0
 10
6.6645773584
 20
8.8515427755
 30
0.0
 10
6.6660214193
 20
8.8764575563
 30
0.0
 10
6.6679725497
 20
8.9013467874
 30
0.0
 10
6.6704176816
 20
8.9260452127
 30
0.0
 10
6.6733406088
 20
8.9503888375
 30
0.0
 10
6.6767218398
 20
8.9742160635
 30
0.0
 10
6.6805386011
 20
8.9973688208
 30
0.0
 10
6.6847653471
 20
9.0196935186
 30
0.0
 10
6.6893738057
 20
9.0410422568
 30
0.0
 10
6.6943329441
 20
9.0612735307
 30
0.0
 10
6.6987980465
 20
9.0773371556
 30
0.0
 10
6.7025344745
 20
9.0895188099
 30
0.0
 10
6.7053584438
 20
9.0981483576
 30
0.0
 10
6.7082442346
 20
9.1064032581
 30
0.0
 10
6.7111871687
 20
9.1142698459
 30
0.0
 10
6.7141820662
 20
9.1217352354
 30
0.0
 10
6.7172242177
 20
9.1287870456
 30
0.0
 10
6.7203085176
 20
9.1354136659
 30
0.0
 10
6.7234295424
 20
9.1416043214
 30
0.0
 10
6.7265824659
 20
9.1473488165
 30
0.0
 10
6.7297621735
 20
9.1526380296
 30
0.0
 10
6.732963544
 20
9.1574637537
 30
0.0
 10
6.7361820442
 20
9.1618180393
 30
0.0
 10
6.7394115774
 20
9.1656935031
 30
0.0
 10
6.7416497527
 20
9.1680388452
 30
0.0
 10
6.7427710998
 20
9.1691219833
 30
0.0
  0
SPLINE
  5
35C
100
AcDbEntity
  8
0
100
AcDbSpline
 62
7
  6
CONTINUOUS
 70
0
 71
3
 72
10
 73
6
 74
0
 42
0.0000001
 43
0.0000001
 44
0.0000000001
 40
0.0
 40
0.0
 40
0.0
 40
0.0
 40
0.2533131178
 40
0.5045397835
 40
1.0
 40
1.0
 40
1.0
 40
1.0
 10
6.9157837249
 20
9.4874701692
 30
0.0
 10
6.9103609555
 20
9.4801375144
 30
0.0
 10
6.8997113116
 20
9.4654194263
 30
0.0
 10
6.8792889594
 20
9.435767529
 30
0.0
 10
6.8648922605
 20
9.413041842
 30
0.0
 10
6.8558265919
 20
9.3976793218
 30
0.0
  0
SPLINE
  5
35D
100
AcDbEntity
  8
0
100
AcDbSpline
 62
7
  6
CONTINUOUS
 70
0
 71
3
 72
9
 73
5
 74
0
 42
0.0000001
 43
0.0000001
 44
0.0000000001
 40
0.0
 40
0.0
 40
0.0
 40
0.0
 40
0.5087505491
 40
1.0
 40
1.0
 40
1.0
 40
1.0
 10
7.2390353496
 20
9.4650525929
 30
0.0
 10
7.2450841252
 20
9.4616156828
 30
0.0
 10
7.2569153168
 20
9.4547567895
 30
0.0
 10
7.2686015339
 20
9.4476527101
 30
0.0
 10
7.2742973587
 20
9.4440911158
 30
0.0
  0
SPLINE
  5
35E
100
AcDbEntity
  8
0
100
AcDbSpline
 62
7
  6
CONTINUOUS
 70
0
 71
3
 72
11
 73
7
 74
0
 42
0.0000001
 43
0.0000001
 44
0.0000000001
 40
0.0
 40
0.0
 40
0.0
 40
0.0
 40
0.2292230575
 40
0.4717687876
 40
0.7284756865
 40
1.0
 40
1.0
 40
1.0
 40
1.0
 10
8.2062305095
 20
7.8088326052
 30
0.0
 10
8.2038788939
 20
7.8109422147
 30
0.0
 10
8.1992120073
 20
7.8154797109
 30
0.0
 10
8.1925149106
 20
7.8229688403
 30
0.0
 10
8.1859367031
 20
7.83131774
 30
0.0
 10
8.1817537684
 20
7.8372810295
 30
0.0
 10
8.1796795369
 20
7.840395779
 30
0.0
  0
SPLINE
  5
35F
100
AcDbEntity
  8
0
100
AcDbSpline
 62
7
  6
CONTINUOUS
 70
0
 71
3
 72
19
 73
15
 74
0
 42
0.0000001
 43
0.0000001
 44
0.0000000001
 40
0.0
 40
0.0
 40
0.0
 40
0.0
 40
0.0551255562
 40
0.110120357
 40
0.1653172508
 40
0.2210239075
 40
0.2775150653
 40
0.3350147534
 40
0.4536804128
 40
0.5782611948
 40
0.7100897341
 40
0.7791260425
 40
0.8503952523
 40
1.0
 40
1.0
 40
1.0
 40
1.0
 10
7.5237187139
 20
8.0696296593
 30
0.0
 10
7.5221460364
 20
8.0697387248
 30
0.0
 10
7.5190119735
 20
8.0700889185
 30
0.0
 10
7.5143688571
 20
8.07100599
 30
0.0
 10
7.5098003286
 20
8.0723046209
 30
0.0
 10
7.50530942
 20
8.0739760293
 30
0.0
 10
7.5008988703
 20
8.07601126
 30
0.0
 10
7.4950693383
 20
8.0792281382
 30
0.0
 10
7.4879825215
 20
8.0841467235
 30
0.0
 10
7.4799400447
 20
8.0912748262
 30
0.0
 10
7.4736330883
 20
8.0981390989
 30
0.0
 10
7.4687452228
 20
8.1041970578
 30
0.0
 10
7.4638002584
 20
8.1108538947
 30
0.0
 10
7.4603226366
 20
8.1161348323
 30
0.0
 10
7.4580810168
 20
8.1197788984
 30
0.0
  0
SPLINE
  5
360
100
AcDbEntity
  8
0
100
AcDbSpline
 62
7
  6
CONTINUOUS
 70
0
 71
3
 72
57
 73
53
 74
0
 42
0.0000001
 43
0.0000001
 44
0.0000000001
 40
0.0
 40
0.0
 40
0.0
 40
0.0
 40
0.0086330707
 40
0.0177814635
 40
0.0274596255
 40
0.0376776041
 40
0.0484400386
 40
0.0597474122
 40
0.0715975847
 40
0.0839846244
 40
0.0969008486
 40
0.1103360987
 40
0.1242781432
 40
0.1387135581
 40
0.1536267615
 40
0.1690013078
 40
0.18481928
 40
0.201061535
 40
0.217708242
 40
0.2347381708
 40
0.2698591758
 40
0.3062412128
 40
0.3436896868
 40
0.3820014289
 40
0.4209664915
 40
0.4603698655
 40
0.4999932289
 40
0.5396166287
 40
0.5790201108
 40
0.6179853505
 40
0.6562973393
 40
0.6937461292
 40
0.7301285483
 40
0.7652499956
 40
0.7822801635
 40
0.7989271283
 40
0.8151696584
 40
0.8309879095
 40
0.8463627513
 40
0.8612762488
 40
0.8757119899
 40
0.8896543968
 40
0.9030899822
 40
0.9160064687
 40
0.9283937393
 40
0.94024439
 40
0.951552607
 40
0.9623155064
 40
0.9725326091
 40
0.982209431
 40
0.9913596934
 40
1.0
 40
1.0
 40
1.0
 40
1.0
 10
7.4580810168
 20
8.1197788984
 30
0.0
 10
7.4559093645
 20
8.1233092227
 30
0.0
 10
7.4516535828
 20
8.130715654
 30
0.0
 10
7.4456725657
 20
8.1424695476
 30
0.0
 10
7.4399107205
 20
8.1551725807
 30
0.0
 10
7.4343665613
 20
8.1688115706
 30
0.0
 10
7.4290408025
 20
8.1833726461
 30
0.0
 10
7.4239364803
 20
8.1988398318
 30
0.0
 10
7.4190570996
 20
8.2151947847
 30
0.0
 10
7.4144067274
 20
8.2324174382
 30
0.0
 10
7.4099901682
 20
8.250485705
 30
0.0
 10
7.4058120791
 20
8.2693757679
 30
0.0
 10
7.4018772485
 20
8.2890621983
 30
0.0
 10
7.3981907754
 20
8.3095179297
 30
0.0
 10
7.3947569541
 20
8.3307144948
 30
0.0
 10
7.3915805632
 20
8.3526220015
 30
0.0
 10
7.3886657223
 20
8.3752092906
 30
0.0
 10
7.386016265
 20
8.3984440061
 30
0.0
 10
7.383636108
 20
8.4222926535
 30
0.0
 10
7.3807965936
 20
8.4552013458
 30
0.0
 10
7.3779647045
 20
8.4976168783
 30
0.0
 10
7.3757154249
 20
8.5498811479
 30
0.0
 10
7.3745948612
 20
8.6037138678
 30
0.0
 10
7.3746095216
 20
8.6587980358
 30
0.0
 10
7.3757594588
 20
8.7148087865
 30
0.0
 10
7.3780378977
 20
8.7714150947
 30
0.0
 10
7.3814313554
 20
8.8282820921
 30
0.0
 10
7.3859197513
 20
8.8850732107
 30
0.0
 10
7.3914765182
 20
8.9414523314
 30
0.0
 10
7.3980687908
 20
8.9970859282
 30
0.0
 10
7.4056575802
 20
9.0516452095
 30
0.0
 10
7.4141979943
 20
9.1048084257
 30
0.0
 10
7.4236398336
 20
9.1562625029
 30
0.0
 10
7.4322992747
 20
9.1978816629
 30
0.0
 10
7.4396540353
 20
9.2300838701
 30
0.0
 10
7.4453032715
 20
9.2533760795
 30
0.0
 10
7.4511344856
 20
9.2760230838
 30
0.0
 10
7.4571391914
 20
9.2979922442
 30
0.0
 10
7.4633090906
 20
9.3192520445
 30
0.0
 10
7.4696358367
 20
9.3397721973
 30
0.0
 10
7.4761105711
 20
9.3595237657
 30
0.0
 10
7.4827251176
 20
9.378479133
 30
0.0
 10
7.4894706556
 20
9.3966121537
 30
0.0
 10
7.4963388473
 20
9.4138983035
 30
0.0
 10
7.503321896
 20
9.4303147412
 30
0.0
 10
7.5104122143
 20
9.4458403888
 30
0.0
 10
7.5176030262
 20
9.4604557279
 30
0.0
 10
7.5248876556
 20
9.4741425496
 30
0.0
 10
7.5322603006
 20
9.4868853464
 30
0.0
 10
7.5397195365
 20
9.4986718287
 30
0.0
 10
7.5472678376
 20
9.5094907307
 30
0.0
 10
7.5525082872
 20
9.5162419748
 30
0.0
 10
7.555148676
 20
9.5194414153
 30
0.0
  0
SPLINE
  5
361
100
AcDbEntity
  8
0
100
AcDbSpline
 62
7
  6
CONTINUOUS
 70
0
 71
3
 72
9
 73
5
 74
0
 42
0.0000001
 43
0.0000001
 44
0.0000000001
 40
0.0
 40
0.0
 40
0.0
 40
0.0
 40
0.5130508594
 40
1.0
 40
1.0
 40
1.0
 40
1.0
 10
7.555148676
 20
9.5194414153
 30
0.0
 10
7.5572897882
 20
9.5220358671
 30
0.0
 10
7.5615866676
 20
9.5269925323
 30
0.0
 10
7.5661553667
 20
9.5317015719
 30
0.0
 10
7.5684517453
 20
9.5339197034
 30
0.0
  0
SPLINE
  5
362
100
AcDbEntity
  8
0
100
AcDbSpline
 62
7
  6
CONTINUOUS
 70
0
 71
3
 72
14
 73
10
 74
0
 42
0.0000001
 43
0.0000001
 44
0.0000000001
 40
0.0
 40
0.0
 40
0.0
 40
0.0
 40
0.2689656152
 40
0.3971564998
 40
0.5217774276
 40
0.6434539583
 40
0.7629989522
 40
0.8814522576
 40
1.0
 40
1.0
 40
1.0
 40
1.0
 10
7.4789012661
 20
8.0928768909
 30
0.0
 10
7.4752177573
 20
8.0900317065
 30
0.0
 10
7.4695022874
 20
8.0861585383
 30
0.0
 10
7.4614713361
 20
8.082013839
 30
0.0
 10
7.4554722888
 20
8.0795394582
 30
0.0
 10
7.4494125231
 20
8.077673886
 30
0.0
 10
7.443300596
 20
8.0764404308
 30
0.0
 10
7.4371468749
 20
8.0758589635
 30
0.0
 10
7.4330363543
 20
8.0759185023
 30
0.0
 10
7.4309898291
 20
8.0760604293
 30
0.0
  0
SPLINE
  5
363
100
AcDbEntity
  8
0
100
AcDbSpline
 62
7
  6
CONTINUOUS
 70
0
 71
3
 72
15
 73
11
 74
0
 42
0.0000001
 43
0.0000001
 44
0.0000000001
 40
0.0
 40
0.0
 40
0.0
 40
0.0
 40
0.1394641698
 40
0.2732586031
 40
0.4021571635
 40
0.52680451
 40
0.6478707356
 40
0.7662535671
 40
0.8831532044
 40
1.0
 40
1.0
 40
1.0
 40
1.0
 10
7.5738657436
 20
9.5388843149
 30
0.0
 10
7.575929163
 20
9.5406754843
 30
0.0
 10
7.5800856032
 20
9.5440577126
 30
0.0
 10
7.58655164
 20
9.5485733545
 30
0.0
 10
7.5931165329
 20
9.5523990238
 30
0.0
 10
7.5997759068
 20
9.5555105766
 30
0.0
 10
7.6065188088
 20
9.5578774248
 30
0.0
 10
7.6133327174
 20
9.5594656889
 30
0.0
 10
7.620202993
 20
9.5602454382
 30
0.0
 10
7.6247959202
 20
9.5602082849
 30
0.0
 10
7.6270797089
 20
9.5600499036
 30
0.0
  0
SPLINE
  5
364
100
AcDbEntity
  8
0
100
AcDbSpline
 62
7
  6
CONTINUOUS
 70
0
 71
3
 72
14
 73
10
 74
0
 42
0.0000001
 43
0.0000001
 44
0.0000000001
 40
0.0
 40
0.0
 40
0.0
 40
0.0
 40
0.1185439342
 40
0.2370077373
 40
0.356565948
 40
0.4782503434
 40
0.6028740772
 40
0.7310621869
 40
1.0
 40
1.0
 40
1.0
 40
1.0
 10
7.5343508241
 20
9.5664806736
 30
0.0
 10
7.5363974671
 20
9.5663387384
 30
0.0
 10
7.540477332
 20
9.5658301851
 30
0.0
 10
7.5464927384
 20
9.564404574
 30
0.0
 10
7.5523769172
 20
9.5623388023
 30
0.0
 10
7.5581218541
 20
9.559653767
 30
0.0
 10
7.5637222205
 20
9.5563740765
 30
0.0
 10
7.5711040897
 20
9.5511598506
 30
0.0
 10
7.5762307461
 20
9.5465353181
 30
0.0
 10
7.5794862562
 20
9.5432090029
 30
0.0
  0
SPLINE
  5
365
100
AcDbEntity
  8
0
100
AcDbSpline
 62
7
  6
CONTINUOUS
 70
0
 71
3
 72
31
 73
27
 74
0
 42
0.0000001
 43
0.0000001
 44
0.0000000001
 40
0.0
 40
0.0
 40
0.0
 40
0.0
 40
0.0162147698
 40
0.0334285702
 40
0.0516734057
 40
0.0709728293
 40
0.0913430728
 40
0.1127926355
 40
0.1353251347
 40
0.158940079
 40
0.183631651
 40
0.2093908936
 40
0.2362064599
 40
0.2640630367
 40
0.2929429576
 40
0.3228271278
 40
0.3536934595
 40
0.3855178772
 40
0.4519369911
 40
0.5218622916
 40
0.5950481606
 40
0.6712290119
 40
0.7501183243
 40
0.8314182213
 40
0.9148291453
 40
1.0
 40
1.0
 40
1.0
 40
1.0
 10
7.2026424653
 20
8.2141314353
 30
0.0
 10
7.2010323615
 20
8.2161112449
 30
0.0
 10
7.1978484937
 20
8.2203043703
 30
0.0
 10
7.1933081596
 20
8.2270556628
 30
0.0
 10
7.1888674508
 20
8.2344452036
 30
0.0
 10
7.1845310603
 20
8.2424652934
 30
0.0
 10
7.1803034892
 20
8.2511080666
 30
0.0
 10
7.1761886323
 20
8.2603644494
 30
0.0
 10
7.1721907616
 20
8.2702249888
 30
0.0
 10
7.1683143559
 20
8.2806796364
 30
0.0
 10
7.1645631296
 20
8.2917174121
 30
0.0
 10
7.1609410024
 20
8.3033268339
 30
0.0
 10
7.1574521117
 20
8.3154959012
 30
0.0
 10
7.1540998914
 20
8.3282118024
 30
0.0
 10
7.1508878032
 20
8.3414611903
 30
0.0
 10
7.1478195567
 20
8.3552302484
 30
0.0
 10
7.144898192
 20
8.3695045033
 30
0.0
 10
7.1411494952
 20
8.3894757671
 30
0.0
 10
7.1368752819
 20
8.4155989612
 30
0.0
 10
7.1324463052
 20
8.448279644
 30
0.0
 10
7.1286668871
 20
8.4825875714
 30
0.0
 10
7.1255532542
 20
8.5183781874
 30
0.0
 10
7.1231185358
 20
8.5555009356
 30
0.0
 10
7.12137352
 20
8.5938013806
 30
0.0
 10
7.1203261105
 20
8.6331158962
 30
0.0
 10
7.1200975142
 20
8.6596479123
 30
0.0
 10
7.1200975142
 20
8.6730520872
 30
0.0
  0
SPLINE
  5
366
100
AcDbEntity
  8
0
100
AcDbSpline
 62
7
  6
CONTINUOUS
 70
0
 71
3
 72
17
 73
13
 74
0
 42
0.0000001
 43
0.0000001
 44
0.0000000001
 40
0.0
 40
0.0
 40
0.0
 40
0.0
 40
0.1492532234
 40
0.2896727382
 40
0.4219777839
 40
0.4853777463
 40
0.5471001207
 40
0.6660489968
 40
0.7801580331
 40
0.8909108437
 40
0.9455638012
 40
1.0
 40
1.0
 40
1.0
 40
1.0
 10
7.385971415
 20
9.5513808943
 30
0.0
 10
7.3880117013
 20
9.5532797857
 30
0.0
 10
7.3920895352
 20
9.5568419272
 30
0.0
 10
7.3983954367
 20
9.5615800312
 30
0.0
 10
7.4037170094
 20
9.5649259161
 30
0.0
 10
7.4079597023
 20
9.5671901521
 30
0.0
 10
7.4120831784
 20
9.5691355992
 30
0.0
 10
7.4172391681
 20
9.5710975903
 30
0.0
 10
7.4234754389
 20
9.5726842492
 30
0.0
 10
7.4286692679
 20
9.5733409822
 30
0.0
 10
7.4327753108
 20
9.5734581083
 30
0.0
 10
7.4348129025
 20
9.5733835589
 30
0.0
 10
7.4358270271
 20
9.5733131942
 30
0.0
  0
SPLINE
  5
367
100
AcDbEntity
  8
0
100
AcDbSpline
 62
7
  6
CONTINUOUS
 70
0
 71
3
 72
31
 73
27
 74
0
 42
0.0000001
 43
0.0000001
 44
0.0000000001
 40
0.0
 40
0.0
 40
0.0
 40
0.0
 40
0.0188525335
 40
0.0388799056
 40
0.0600712168
 40
0.0824084625
 40
0.1058692382
 40
0.1304256705
 40
0.156046537
 40
0.1826963761
 40
0.2103368846
 40
0.2389265206
 40
0.2684211414
 40
0.2987741927
 40
0.3299366694
 40
0.361857816
 40
0.3944845965
 40
0.427762719
 40
0.4960454926
 40
0.5662430781
 40
0.6378735137
 40
0.7104418152
 40
0.7834451052
 40
0.8563754769
 40
0.9287284377
 40
1.0
 40
1.0
 40
1.0
 40
1.0
 10
8.2107776214
 20
9.5418345666
 30
0.0
 10
8.2075415633
 20
9.5363479343
 30
0.0
 10
8.2011175509
 20
9.5248842019
 30
0.0
 10
8.1918697931
 20
9.5068121546
 30
0.0
 10
8.1827351428
 20
9.4873735736
 30
0.0
 10
8.1737299107
 20
9.4666045021
 30
0.0
 10
8.1648714424
 20
9.444542589
 30
0.0
 10
8.1561755205
 20
9.4212284836
 30
0.0
 10
8.1476588821
 20
9.396704941
 30
0.0
 10
8.1393369105
 20
9.3710172206
 30
0.0
 10
8.1312254241
 20
9.3442126603
 30
0.0
 10
8.1233393191
 20
9.3163407921
 30
0.0
 10
8.1156933399
 20
9.2874531091
 30
0.0
 10
8.1083017706
 20
9.2576030379
 30
0.0
 10
8.1011781862
 20
9.2268457979
 30
0.0
 10
8.0943361238
 20
9.195238317
 30
0.0
 10
8.087787895
 20
9.1628390663
 30
0.0
 10
8.0793938005
 20
9.1182826329
 30
0.0
 10
8.06974582
 20
9.0610501578
 30
0.0
 10
8.0596143462
 20
8.9907786641
 30
0.0
 10
8.0509079085
 20
8.9188577361
 30
0.0
 10
8.0436912985
 20
8.8458197085
 30
0.0
 10
8.038018324
 20
8.7722051789
 30
0.0
 10
8.0339308316
 20
8.6985583633
 30
0.0
 10
8.0314592321
 20
8.6254253466
 30
0.0
 10
8.0308949866
 20
8.5768960742
 30
0.0
 10
8.0308949866
 20
8.5528149405
 30
0.0
  0
SPLINE
  5
368
100
AcDbEntity
  8
0
100
AcDbSpline
 62
7
  6
CONTINUOUS
 70
0
 71
3
 72
23
 73
19
 74
0
 42
0.0000001
 43
0.0000001
 44
0.0000000001
 40
0.0
 40
0.0
 40
0.0
 40
0.0
 40
0.0451313148
 40
0.092131657
 40
0.1412062592
 40
0.1925313828
 40
0.2462467886
 40
0.3024542518
 40
0.3612171111
 40
0.4225601237
 40
0.4864751204
 40
0.5529219327
 40
0.6218365914
 40
0.6931332079
 40
0.7667115222
 40
0.8424614309
 40
0.9202652281
 40
1.0
 40
1.0
 40
1.0
 40
1.0
 10
8.2267892282
 20
9.5689817376
 30
0.0
 10
8.2287536201
 20
9.5723158404
 30
0.0
 10
8.2330043495
 20
9.5789829696
 30
0.0
 10
8.2401746665
 20
9.5887487067
 30
0.0
 10
8.2482736535
 20
9.5984614156
 30
0.0
 10
8.2573088944
 20
9.6081135479
 30
0.0
 10
8.2672806581
 20
9.617699368
 30
0.0
 10
8.278181631
 20
9.6272135119
 30
0.0
 10
8.2899975838
 20
9.6366509347
 30
0.0
 10
8.3027068807
 20
9.6460082351
 30
0.0
 10
8.3162825975
 20
9.6552816761
 30
0.0
 10
8.3306918761
 20
9.6644697646
 30
0.0
 10
8.3458985518
 20
9.6735705051
 30
0.0
 10
8.361862784
 20
9.6825840275
 30
0.0
 10
8.3785434408
 20
9.6915102416
 30
0.0
 10
8.3958980975
 20
9.7003505447
 30
0.0
 10
8.4138842422
 20
9.7091063924
 30
0.0
 10
8.4261243659
 20
9.714821645
 30
0.0
 10
8.4323397601
 20
9.7176696297
 30
0.0
  0
SPLINE
  5
369
100
AcDbEntity
  8
0
100
AcDbSpline
 62
7
  6
CONTINUOUS
 70
0
 71
3
 72
26
 73
22
 74
0
 42
0.0000001
 43
0.0000001
 44
0.0000000001
 40
0.0
 40
0.0
 40
0.0
 40
0.0
 40
0.0207063472
 40
0.0422079211
 40
0.0645014829
 40
0.0875825805
 40
0.1114451088
 40
0.136080918
 40
0.1876336476
 40
0.2421567641
 40
0.2995471836
 40
0.3596873284
 40
0.4224475744
 40
0.4876858211
 40
0.5552512164
 40
0.6249833027
 40
0.6967133512
 40
0.7702630195
 40
0.8454542015
 40
0.922105584
 40
1.0
 40
1.0
 40
1.0
 40
1.0
 10
8.1043409083
 20
8.0071047947
 30
0.0
 10
8.1028728741
 20
8.0106319087
 30
0.0
 10
8.0999760328
 20
8.0178617028
 30
0.0
 10
8.0958175012
 20
8.0290134191
 30
0.0
 10
8.0917663422
 20
8.0406694659
 30
0.0
 10
8.0878254951
 20
8.0528219305
 30
0.0
 10
8.0839976904
 20
8.065462659
 30
0.0
 10
8.0789717708
 20
8.0832261306
 30
0.0
 10
8.0730133712
 20
8.10660033
 30
0.0
 10
8.0664568369
 20
8.1360434929
 30
0.0
 10
8.0604082
 20
8.1672104057
 30
0.0
 10
8.0548839792
 20
8.2000162212
 30
0.0
 10
8.0498999227
 20
8.2343718711
 30
0.0
 10
8.0454693447
 20
8.2701838236
 30
0.0
 10
8.0416050663
 20
8.3073545803
 30
0.0
 10
8.0383174003
 20
8.345782854
 30
0.0
 10
8.0356158129
 20
8.3853633836
 30
0.0
 10
8.0335075045
 20
8.425988425
 30
0.0
 10
8.0319984467
 20
8.467548676
 30
0.0
 10
8.0310932832
 20
8.5099281007
 30
0.0
 10
8.0308949866
 20
8.5384430248
 30
0.0
 10
8.0308949866
 20
8.5528149405
 30
0.0
  0
SPLINE
  5
36A
100
AcDbEntity
  8
0
100
AcDbSpline
 62
7
  6
CONTINUOUS
 70
0
 71
3
 72
22
 73
18
 74
0
 42
0.0000001
 43
0.0000001
 44
0.0000000001
 40
0.0
 40
0.0
 40
0.0
 40
0.0
 40
0.0665327487
 40
0.1323945694
 40
0.197583871
 40
0.2621111026
 40
0.3259977793
 40
0.3892776344
 40
0.4519935872
 40
0.5141966264
 40
0.5759431901
 40
0.6372910208
 40
0.6982988752
 40
0.7590217287
 40
0.8195108943
 40
0.8798130484
 40
1.0
 40
1.0
 40
1.0
 40
1.0
 10
6.8375402992
 20
9.3649787293
 30
0.0
 10
6.8339889201
 20
9.358248857
 30
0.0
 10
6.8271287971
 20
9.3447464247
 30
0.0
 10
6.8175664675
 20
9.3242666958
 30
0.0
 10
6.8088202197
 20
9.3036736446
 30
0.0
 10
6.8009193532
 20
9.2829829723
 30
0.0
 10
6.7938862565
 20
9.2622116034
 30
0.0
 10
6.7877302528
 20
9.2413793905
 30
0.0
 10
6.7824530515
 20
9.2205059351
 30
0.0
 10
6.7780437463
 20
9.1996113952
 30
0.0
 10
6.7744820023
 20
9.1787147535
 30
0.0
 10
6.7717399395
 20
9.1578330532
 30
0.0
 10
6.7697808463
 20
9.1369813928
 30
0.0
 10
6.7685648203
 20
9.116172123
 30
0.0
 10
6.7680471018
 20
9.0954147344
 30
0.0
 10
6.7682270797
 20
9.0678510668
 30
0.0
 10
6.7692715405
 20
9.0472210151
 30
0.0
 10
6.7703144746
 20
9.0335147059
 30
0.0
  0
SPLINE
  5
36B
100
AcDbEntity
  8
0
100
AcDbSpline
 62
7
  6
CONTINUOUS
 70
0
 71
3
 72
33
 73
29
 74
0
 42
0.0000001
 43
0.0000001
 44
0.0000000001
 40
0.0
 40
0.0
 40
0.0
 40
0.0
 40
0.0237142577
 40
0.04879849
 40
0.0751922156
 40
0.1028283815
 40
0.1316330538
 40
0.1615272564
 40
0.192426581
 40
0.2242427658
 40
0.2568831509
 40
0.2902521144
 40
0.3587757955
 40
0.4289984143
 40
0.5000757614
 40
0.5711505344
 40
0.6413654405
 40
0.7098764211
 40
0.743237276
 40
0.7758682479
 40
0.8076739919
 40
0.8385617303
 40
0.8684434327
 40
0.8972344143
 40
0.9248561453
 40
0.9512344701
 40
0.9763027091
 40
1.0
 40
1.0
 40
1.0
 40
1.0
 10
6.7258985494
 20
8.5822155545
 30
0.0
 10
6.7247906423
 20
8.5867309243
 30
0.0
 10
6.7226724836
 20
8.5960627018
 30
0.0
 10
6.7198426604
 20
8.6105322464
 30
0.0
 10
6.7172775518
 20
8.6258311801
 30
0.0
 10
6.7149859448
 20
8.6419103242
 30
0.0
 10
6.7129750234
 20
8.6587182099
 30
0.0
 10
6.7112517128
 20
8.6762008496
 30
0.0
 10
6.7098213438
 20
8.6943021094
 30
0.0
 10
6.7086889505
 20
8.7129637739
 30
0.0
 10
6.7078578785
 20
8.7321259032
 30
0.0
 10
6.7071496253
 20
8.7584932761
 30
0.0
 10
6.707048889
 20
8.7922430285
 30
0.0
 10
6.7081442874
 20
8.8333710348
 30
0.0
 10
6.7104420325
 20
8.8749503781
 30
0.0
 10
6.7139126837
 20
8.9164467647
 30
0.0
 10
6.7185115468
 20
8.9573269873
 30
0.0
 10
6.7232753536
 20
8.990733347
 30
0.0
 10
6.7276205189
 20
9.0167438647
 30
0.0
 10
6.7310915696
 20
9.0356017394
 30
0.0
 10
6.7347917584
 20
9.0539216258
 30
0.0
 10
6.7387096635
 20
9.0716446569
 30
0.0
 10
6.7428320441
 20
9.0887138796
 30
0.0
 10
6.7471460959
 20
9.1050744494
 30
0.0
 10
6.7516372513
 20
9.1206738988
 30
0.0
 10
6.7562915704
 20
9.1354622686
 30
0.0
 10
6.7610932343
 20
9.1493921011
 30
0.0
 10
6.7644803891
 20
9.1583348256
 30
0.0
 10
6.7662015295
 20
9.1626502372
 30
0.0
  0
SPLINE
  5
36C
100
AcDbEntity
  8
0
100
AcDbSpline
 62
7
  6
CONTINUOUS
 70
0
 71
3
 72
11
 73
7
 74
0
 42
0.0000001
 43
0.0000001
 44
0.0000000001
 40
0.0
 40
0.0
 40
0.0
 40
0.0
 40
0.247093999
 40
0.4943919104
 40
0.7443474163
 40
1.0
 40
1.0
 40
1.0
 40
1.0
 10
6.7703144746
 20
8.4066288075
 30
0.0
 10
6.7696898109
 20
8.4038064998
 30
0.0
 10
6.7686837582
 20
8.3981015496
 30
0.0
 10
6.7680031351
 20
8.3894060532
 30
0.0
 10
6.7682363963
 20
8.380584967
 30
0.0
 10
6.7690450352
 20
8.3747110402
 30
0.0
 10
6.7696157318
 20
8.3717752639
 30
0.0
  0
SPLINE
  5
36D
100
AcDbEntity
  8
0
100
AcDbSpline
 62
7
  6
CONTINUOUS
 70
0
 71
3
 72
9
 73
5
 74
0
 42
0.0000001
 43
0.0000001
 44
0.0000000001
 40
0.0
 40
0.0
 40
0.0
 40
0.0
 40
0.4892255703
 40
1.0
 40
1.0
 40
1.0
 40
1.0
 10
6.7696157318
 20
8.3717752639
 30
0.0
 10
6.7701600076
 20
8.3689754015
 30
0.0
 10
6.7715750583
 20
8.3633075105
 30
0.0
 10
6.7735600702
 20
8.3578141234
 30
0.0
 10
6.7747041665
 20
8.355064764
 30
0.0
  0
SPLINE
  5
36E
100
AcDbEntity
  8
0
100
AcDbSpline
 62
7
  6
CONTINUOUS
 70
0
 71
3
 72
11
 73
7
 74
0
 42
0.0000001
 43
0.0000001
 44
0.0000000001
 40
0.0
 40
0.0
 40
0.0
 40
0.0
 40
0.2379444893
 40
0.4843543349
 40
0.7385855266
 40
1.0
 40
1.0
 40
1.0
 40
1.0
 10
7.1493215547
 20
8.3499496358
 30
0.0
 10
7.1450196897
 20
8.3528560248
 30
0.0
 10
7.1361863556
 20
8.3586594325
 30
0.0
 10
7.1225265137
 20
8.3672113081
 30
0.0
 10
7.1082677715
 20
8.3757656222
 30
0.0
 10
7.0985252041
 20
8.3813934713
 30
0.0
 10
7.0935660993
 20
8.3842112312
 30
0.0
  0
SPLINE
  5
36F
100
AcDbEntity
  8
0
100
AcDbSpline
 62
7
  6
CONTINUOUS
 70
0
 71
3
 72
9
 73
5
 74
0
 42
0.0000001
 43
0.0000001
 44
0.0000000001
 40
0.0
 40
0.0
 40
0.0
 40
0.0
 40
0.4991878817
 40
1.0
 40
1.0
 40
1.0
 40
1.0
 10
7.0935660993
 20
8.3842112312
 30
0.0
 10
7.1000820339
 20
8.406331209
 30
0.0
 10
7.1121456127
 20
8.4509429461
 30
0.0
 10
7.1217940268
 20
8.4961502678
 30
0.0
 10
7.1259081924
 20
8.5189162615
 30
0.0
  0
SPLINE
  5
370
100
AcDbEntity
  8
0
100
AcDbSpline
 62
7
  6
CONTINUOUS
 70
0
 71
3
 72
24
 73
20
 74
0
 42
0.0000001
 43
0.0000001
 44
0.0000000001
 40
0.0
 40
0.0
 40
0.0
 40
0.0
 40
0.1228755119
 40
0.1844878725
 40
0.2462332407
 40
0.3081266179
 40
0.3701819721
 40
0.4324104423
 40
0.4635937374
 40
0.4948228171
 40
0.5260976765
 40
0.5574181393
 40
0.6201904185
 40
0.6831357076
 40
0.7462426903
 40
0.8094976556
 40
0.8728853538
 40
0.9363914851
 40
1.0
 40
1.0
 40
1.0
 40
1.0
 10
6.7703144746
 20
9.0335147059
 30
0.0
 10
6.7629484335
 20
9.0085088276
 30
0.0
 10
6.7528349779
 20
8.9706700007
 30
0.0
 10
6.7417102203
 20
8.9196219809
 30
0.0
 10
6.7346525276
 20
8.8809508376
 30
0.0
 10
6.7290102763
 20
8.8419520813
 30
0.0
 10
6.7248918836
 20
8.8026591092
 30
0.0
 10
6.7228041567
 20
8.7697321784
 30
0.0
 10
6.7219645957
 20
8.7433011256
 30
0.0
 10
6.7217548913
 20
8.7234248051
 30
0.0
 10
6.7219652103
 20
8.703519401
 30
0.0
 10
6.7228067875
 20
8.6769341562
 30
0.0
 10
6.7249011642
 20
8.6436739375
 30
0.0
 10
6.7290230374
 20
8.6038171447
 30
0.0
 10
6.7346677134
 20
8.5640448241
 30
0.0
 10
6.7417266521
 20
8.5244051378
 30
0.0
 10
6.7500790137
 20
8.4849323626
 30
0.0
 10
6.7595999574
 20
8.4456493249
 30
0.0
 10
6.7666396941
 20
8.4196134676
 30
0.0
 10
6.7703144746
 20
8.4066288075
 30
0.0
  0
SPLINE
  5
371
100
AcDbEntity
  8
0
100
AcDbSpline
 62
7
  6
CONTINUOUS
 70
0
 71
3
 72
11
 73
7
 74
0
 42
0.0000001
 43
0.0000001
 44
0.0000000001
 40
0.0
 40
0.0
 40
0.0
 40
0.0
 40
0.2493235556
 40
0.4991318678
 40
0.7493775836
 40
1.0
 40
1.0
 40
1.0
 40
1.0
 10
7.1276051205
 20
8.8620355262
 30
0.0
 10
7.1255042383
 20
8.8745738095
 30
0.0
 10
7.1208870878
 20
8.8996074641
 30
0.0
 10
7.1128256919
 20
8.9369634803
 30
0.0
 10
7.1037282143
 20
8.9741482243
 30
0.0
 10
7.0970460827
 20
8.998800776
 30
0.0
 10
7.0935660993
 20
9.0110971296
 30
0.0
  0
SPLINE
  5
372
100
AcDbEntity
  8
0
100
AcDbSpline
 62
7
  6
CONTINUOUS
 70
0
 71
3
 72
11
 73
7
 74
0
 42
0.0000001
 43
0.0000001
 44
0.0000000001
 40
0.0
 40
0.0
 40
0.0
 40
0.0
 40
0.2537160465
 40
0.505093933
 40
0.7539173512
 40
1.0
 40
1.0
 40
1.0
 40
1.0
 10
7.0935660993
 20
9.0110971296
 30
0.0
 10
7.0995758911
 20
9.0192235545
 30
0.0
 10
7.1113542266
 20
9.0355402078
 30
0.0
 10
7.1282946466
 20
9.0603448357
 30
0.0
 10
7.1443397062
 20
9.0853781947
 30
0.0
 10
7.1544332807
 20
9.1023193701
 30
0.0
 10
7.1592977423
 20
9.1108304706
 30
0.0
  0
SPLINE
  5
373
100
AcDbEntity
  8
0
100
AcDbSpline
 62
7
  6
CONTINUOUS
 70
0
 71
3
 72
9
 73
5
 74
0
 42
0.0000001
 43
0.0000001
 44
0.0000000001
 40
0.0
 40
0.0
 40
0.0
 40
0.0
 40
0.5010793624
 40
1.0
 40
1.0
 40
1.0
 40
1.0
 10
7.2409142124
 20
9.3891505479
 30
0.0
 10
7.2413063236
 20
9.401830547
 30
0.0
 10
7.2413266915
 20
9.4271639584
 30
0.0
 10
7.2399937223
 20
9.4524575953
 30
0.0
 10
7.2390353496
 20
9.4650525929
 30
0.0
  0
SPLINE
  5
374
100
AcDbEntity
  8
0
100
AcDbSpline
 62
7
  6
CONTINUOUS
 70
0
 71
3
 72
9
 73
5
 74
0
 42
0.0000001
 43
0.0000001
 44
0.0000000001
 40
0.0
 40
0.0
 40
0.0
 40
0.0
 40
0.4868379223
 40
1.0
 40
1.0
 40
1.0
 40
1.0
 10
8.2062305095
 20
9.499264852
 30
0.0
 10
8.2015243871
 20
9.4859515085
 30
0.0
 10
8.1922967046
 20
9.4584485146
 30
0.0
 10
8.1838416008
 20
9.4306995481
 30
0.0
 10
8.1796795369
 20
9.4164091349
 30
0.0
  0
SPLINE
  5
375
100
AcDbEntity
  8
0
100
AcDbSpline
 62
7
  6
CONTINUOUS
 70
0
 71
3
 72
38
 73
34
 74
0
 42
0.0000001
 43
0.0000001
 44
0.0000000001
 40
0.0
 40
0.0
 40
0.0
 40
0.0
 40
0.0063160962
 40
0.012671092
 40
0.0191031094
 40
0.0256487999
 40
0.0323428282
 40
0.0392174136
 40
0.0536156671
 40
0.0690528137
 40
0.0856863497
 40
0.103634591
 40
0.1229849423
 40
0.1437978011
 40
0.1661140371
 40
0.1899570077
 40
0.215337166
 40
0.2422538508
 40
0.2706968034
 40
0.3006487958
 40
0.3320847866
 40
0.3649751484
 40
0.3992839084
 40
0.4349714554
 40
0.4719934689
 40
0.5103020671
 40
0.5498461539
 40
0.5905708688
 40
0.6324193885
 40
0.7192435421
 40
0.8098113955
 40
0.9035882777
 40
1.0
 40
1.0
 40
1.0
 40
1.0
 10
7.4309898305
 20
8.0760604492
 30
0.0
 10
7.4297272518
 20
8.0761479794
 30
0.0
 10
7.4272002883
 20
8.0764270088
 30
0.0
 10
7.4234381894
 20
8.0771543417
 30
0.0
 10
7.4197012389
 20
8.0781902762
 30
0.0
 10
7.4159915951
 20
8.0795340099
 30
0.0
 10
7.4123107601
 20
8.0811848293
 30
0.0
 10
7.4073682907
 20
8.0838344579
 30
0.0
 10
7.4012523234
 20
8.0879599326
 30
0.0
 10
7.3941781224
 20
8.0940410849
 30
0.0
 10
7.3872618099
 20
8.1013152379
 30
0.0
 10
7.3805107154
 20
8.1097684279
 30
0.0
 10
7.3739329742
 20
8.1193879773
 30
0.0
 10
7.3675363822
 20
8.1301585706
 30
0.0
 10
7.3613307407
 20
8.1420640244
 30
0.0
 10
7.3553248962
 20
8.1550855598
 30
0.0
 10
7.3495285112
 20
8.1692027443
 30
0.0
 10
7.3439509152
 20
8.1843930269
 30
0.0
 10
7.3386009141
 20
8.2006319252
 30
0.0
 10
7.3334877796
 20
8.217893193
 30
0.0
 10
7.3286193782
 20
8.2361486696
 30
0.0
 10
7.3240044001
 20
8.2553685901
 30
0.0
 10
7.3196499728
 20
8.2755214395
 30
0.0
 10
7.3155637512
 20
8.2965741758
 30
0.0
 10
7.3117523168
 20
8.3184922024
 30
0.0
 10
7.3082220494
 20
8.341239489
 30
0.0
 10
7.3049790025
 20
8.3647785571
 30
0.0
 10
7.3020282115
 20
8.3890706852
 30
0.0
 10
7.2984468288
 20
8.4228258839
 30
0.0
 10
7.2947645432
 20
8.4666084854
 30
0.0
 10
7.2916274388
 20
8.5208597819
 30
0.0
 10
7.2897419665
 20
8.5770907091
 30
0.0
 10
7.2893326595
 20
8.6152018701
 30
0.0
 10
7.2893326595
 20
8.6345206945
 30
0.0
  0
SPLINE
  5
376
100
AcDbEntity
  8
0
100
AcDbSpline
 62
7
  6
CONTINUOUS
 70
0
 71
3
 72
45
 73
41
 74
0
 42
0.0000001
 43
0.0000001
 44
0.0000000001
 40
0.0
 40
0.0
 40
0.0
 40
0.0
 40
0.0379362917
 40
0.0762771604
 40
0.1149231159
 40
0.1537876459
 40
0.1927851835
 40
0.2318259525
 40
0.2708199873
 40
0.3096783958
 40
0.3483126526
 40
0.3866346377
 40
0.4245571504
 40
0.4619942765
 40
0.4988615048
 40
0.5350759681
 40
0.570556873
 40
0.6052256012
 40
0.6390062364
 40
0.6718254366
 40
0.7036134077
 40
0.7343034803
 40
0.7638333671
 40
0.7921444959
 40
0.8191838559
 40
0.8449030956
 40
0.86926081
 40
0.8922217025
 40
0.9031704015
 40
0.9137607657
 40
0.9239908427
 40
0.9338597505
 40
0.9433673193
 40
0.9525140643
 40
0.9613015275
 40
0.9697327182
 40
0.9778117975
 40
0.9855441981
 40
0.9929371333
 40
1.0
 40
1.0
 40
1.0
 40
1.0
 10
7.1908082194
 20
8.6413533876
 30
0.0
 10
7.1908082194
 20
8.6533006288
 30
0.0
 10
7.190968146
 20
8.6773228025
 30
0.0
 10
7.1916760049
 20
8.7135094445
 30
0.0
 10
7.1928524241
 20
8.749976412
 30
0.0
 10
7.1944940226
 20
8.7866323789
 30
0.0
 10
7.1965970866
 20
8.8233893047
 30
0.0
 10
7.1991561759
 20
8.860158178
 30
0.0
 10
7.2021654704
 20
8.8968489865
 30
0.0
 10
7.2056172611
 20
8.9333722319
 30
0.0
 10
7.2095034029
 20
8.9696389825
 30
0.0
 10
7.2138141697
 20
9.0055609005
 30
0.0
 10
7.2185392365
 20
9.0410504028
 30
0.0
 10
7.2236669014
 20
9.0760210354
 30
0.0
 10
7.2291847254
 20
9.1103875865
 30
0.0
 10
7.2350791713
 20
9.1440663424
 30
0.0
 10
7.2413358067
 20
9.1769752566
 30
0.0
 10
7.2479393969
 20
9.2090342036
 30
0.0
 10
7.2548736361
 20
9.2401651251
 30
0.0
 10
7.262121744
 20
9.2702922481
 30
0.0
 10
7.2696656988
 20
9.299342288
 30
0.0
 10
7.277487353
 20
9.3272446122
 30
0.0
 10
7.285567125
 20
9.3539314623
 30
0.0
 10
7.2938856841
 20
9.3793380416
 30
0.0
 10
7.3024220997
 20
9.4034028372
 30
0.0
 10
7.3111560821
 20
9.4260676884
 30
0.0
 10
7.3200655824
 20
9.4472777802
 30
0.0
 10
7.3277357059
 20
9.4639527292
 30
0.0
 10
7.333957083
 20
9.4765113245
 30
0.0
 10
7.3385794169
 20
9.4853854202
 30
0.0
 10
7.3432295106
 20
9.4938591338
 30
0.0
 10
7.3479044501
 20
9.5019274727
 30
0.0
 10
7.3526013637
 20
9.5095856485
 30
0.0
 10
7.3573174838
 20
9.5168289676
 30
0.0
 10
7.3620501212
 20
9.5236529688
 30
0.0
 10
7.3667963027
 20
9.5300537334
 30
0.0
 10
7.3715531968
 20
9.5360274956
 30
0.0
 10
7.3763181765
 20
9.5415706108
 30
0.0
 10
7.3810884229
 20
9.5466795074
 30
0.0
 10
7.3843431889
 20
9.5498655067
 30
0.0
 10
7.385971415
 20
9.5513808943
 30
0.0
  0
SPLINE
  5
377
100
AcDbEntity
  8
0
100
AcDbSpline
 62
7
  6
CONTINUOUS
 70
0
 71
3
 72
11
 73
7
 74
0
 42
0.0000001
 43
0.0000001
 44
0.0000000001
 40
0.0
 40
0.0
 40
0.0
 40
0.0
 40
0.2464369184
 40
0.4944390096
 40
0.7451834725
 40
1.0
 40
1.0
 40
1.0
 40
1.0
 10
8.2062305095
 20
9.499264852
 30
0.0
 10
8.2063500389
 20
9.5025448288
 30
0.0
 10
8.2067973784
 20
9.5091201478
 30
0.0
 10
8.2081280136
 20
9.5189627193
 30
0.0
 10
8.2101594968
 20
9.528799376
 30
0.0
 10
8.2119893638
 20
9.535286356
 30
0.0
 10
8.2130269689
 20
9.5385176041
 30
0.0
  0
SPLINE
  5
378
100
AcDbEntity
  8
0
100
AcDbSpline
 62
7
  6
CONTINUOUS
 70
0
 71
3
 72
11
 73
7
 74
0
 42
0.0000001
 43
0.0000001
 44
0.0000000001
 40
0.0
 40
0.0
 40
0.0
 40
0.0
 40
0.2417916764
 40
0.4884640661
 40
0.7409060817
 40
1.0
 40
1.0
 40
1.0
 40
1.0
 10
8.2130269689
 20
9.5385176041
 30
0.0
 10
8.2138522988
 20
9.5410877976
 30
0.0
 10
8.2156677124
 20
9.5462337679
 30
0.0
 10
8.2188560889
 20
9.5538708882
 30
0.0
 10
8.2225503057
 20
9.5614918473
 30
0.0
 10
8.2253208573
 20
9.5664895163
 30
0.0
 10
8.2267892282
 20
9.5689817376
 30
0.0
  0
SPLINE
  5
379
100
AcDbEntity
  8
0
100
AcDbSpline
 62
7
  6
CONTINUOUS
 70
0
 71
3
 72
31
 73
27
 74
0
 42
0.0000001
 43
0.0000001
 44
0.0000000001
 40
0.0
 40
0.0
 40
0.0
 40
0.0
 40
0.0162145605
 40
0.0334275518
 40
0.0516718706
 40
0.0709711835
 40
0.0913406218
 40
0.1127897067
 40
0.1353222321
 40
0.1589365193
 40
0.1836277303
 40
0.2093871055
 40
0.2362021405
 40
0.2640584434
 40
0.2929386002
 40
0.3228224584
 40
0.3536886598
 40
0.3855133737
 40
0.4519322811
 40
0.5218580907
 40
0.5950443996
 40
0.6712253821
 40
0.7501162401
 40
0.8314167211
 40
0.9148263365
 40
1.0
 40
1.0
 40
1.0
 40
1.0
 10
7.2861152269
 20
8.1114972143
 30
0.0
 10
7.2842562193
 20
8.1137829793
 30
0.0
 10
7.2805802649
 20
8.1186240506
 30
0.0
 10
7.2753377227
 20
8.1264183037
 30
0.0
 10
7.2702104591
 20
8.1349496904
 30
0.0
 10
7.2652039067
 20
8.1442092377
 30
0.0
 10
7.2603224781
 20
8.1541874737
 30
0.0
 10
7.2555714383
 20
8.1648743396
 30
0.0
 10
7.2509557248
 20
8.1762588804
 30
0.0
 10
7.2464797707
 20
8.1883292053
 30
0.0
 10
7.2421485598
 20
8.2010729076
 30
0.0
 10
7.2379666512
 20
8.2144767177
 30
0.0
 10
7.2339381564
 20
8.2285265742
 30
0.0
 10
7.2300676319
 20
8.2432078687
 30
0.0
 10
7.2263591265
 20
8.2585052079
 30
0.0
 10
7.2228163422
 20
8.2744024903
 30
0.0
 10
7.21944328
 20
8.2908831066
 30
0.0
 10
7.2151151947
 20
8.3139413905
 30
0.0
 10
7.2101799028
 20
8.3441025671
 30
0.0
 10
7.2050662844
 20
8.3818349344
 30
0.0
 10
7.2007025657
 20
8.4214461233
 30
0.0
 10
7.1971073965
 20
8.462769366
 30
0.0
 10
7.1942963564
 20
8.5056307013
 30
0.0
 10
7.1922815371
 20
8.5498515044
 30
0.0
 10
7.1910721051
 20
8.5952433576
 30
0.0
 10
7.1908082194
 20
8.6258767793
 30
0.0
 10
7.1908082194
 20
8.6413533876
 30
0.0
  0
SPLINE
  5
37A
100
AcDbEntity
  8
0
100
AcDbSpline
 62
7
  6
CONTINUOUS
 70
0
 71
3
 72
13
 73
9
 74
0
 42
0.0000001
 43
0.0000001
 44
0.0000000001
 40
0.0
 40
0.0
 40
0.0
 40
0.0
 40
0.2425903112
 40
0.3659070907
 40
0.4904799381
 40
0.6162452816
 40
0.7431372665
 40
1.0
 40
1.0
 40
1.0
 40
1.0
 10
8.8943744452
 20
8.2422243154
 30
0.0
 10
8.8873292984
 20
8.2568357919
 30
0.0
 10
8.8759708283
 20
8.2785292178
 30
0.0
 10
8.8595385831
 20
8.3069150292
 30
0.0
 10
8.846452996
 20
8.3282030197
 30
0.0
 10
8.8327203467
 20
8.3493641436
 30
0.0
 10
8.8135295221
 20
8.3775177302
 30
0.0
 10
8.798410002
 20
8.3982614708
 30
0.0
 10
8.7880485536
 20
8.4119597232
 30
0.0
  0
SPLINE
  5
37B
100
AcDbEntity
  8
0
100
AcDbSpline
 62
7
  6
CONTINUOUS
 70
0
 71
3
 72
26
 73
22
 74
0
 42
0.0000001
 43
0.0000001
 44
0.0000000001
 40
0.0
 40
0.0
 40
0.0
 40
0.0
 40
0.1232094174
 40
0.1849745086
 40
0.2468573045
 40
0.3088673115
 40
0.3399237268
 40
0.3710151144
 40
0.4021419355
 40
0.4333048834
 40
0.4957378498
 40
0.5583173034
 40
0.5896625766
 40
0.6210433665
 40
0.6524589847
 40
0.6839083828
 40
0.7469028116
 40
0.8100195826
 40
0.8732481922
 40
0.9365791369
 40
1.0
 40
1.0
 40
1.0
 40
1.0
 10
8.0666249116
 20
8.5764095136
 30
0.0
 10
8.0623505013
 20
8.6113704138
 30
0.0
 10
8.0572134341
 20
8.664031288
 30
0.0
 10
8.0533941501
 20
8.7345038832
 30
0.0
 10
8.0521574512
 20
8.7875717078
 30
0.0
 10
8.0525773646
 20
8.8318732866
 30
0.0
 10
8.0538269603
 20
8.8673451409
 30
0.0
 10
8.0552324094
 20
8.8939734238
 30
0.0
 10
8.0571118615
 20
8.9206030366
 30
0.0
 10
8.060261419
 20
8.9561191073
 30
0.0
 10
8.0654126723
 20
9.0004765226
 30
0.0
 10
8.0721820517
 20
9.0446685834
 30
0.0
 10
8.078555704
 20
9.0799190089
 30
0.0
 10
8.083813242
 20
9.1063137084
 30
0.0
 10
8.0895356221
 20
9.1326419411
 30
0.0
 10
8.0977782046
 20
9.1676653216
 30
0.0
 10
8.1091942735
 20
9.2112446361
 30
0.0
 10
8.1245611144
 20
9.2631515102
 30
0.0
 10
8.1414837534
 20
9.3146726896
 30
0.0
 10
8.1598370509
 20
9.3657925467
 30
0.0
 10
8.172934148
 20
9.3995809141
 30
0.0
 10
8.1796795369
 20
9.4164091349
 30
0.0
  0
SPLINE
  5
37C
100
AcDbEntity
  8
0
100
AcDbSpline
 62
7
  6
CONTINUOUS
 70
0
 71
3
 72
12
 73
8
 74
0
 42
0.0000001
 43
0.0000001
 44
0.0000000001
 40
0.0
 40
0.0
 40
0.0
 40
0.0
 40
0.2508122493
 40
0.5011556829
 40
0.7509159383
 40
0.8755523835
 40
1.0
 40
1.0
 40
1.0
 40
1.0
 10
8.7880485536
 20
8.5263786141
 30
0.0
 10
8.7984794633
 20
8.5437055537
 30
0.0
 10
8.8186983391
 20
8.5787084637
 30
0.0
 10
8.8468088358
 20
8.6323586175
 30
0.0
 10
8.8680938494
 20
8.6780429157
 30
0.0
 10
8.8836398412
 20
8.7151462792
 30
0.0
 10
8.890888997
 20
8.7338810426
 30
0.0
 10
8.8943744479
 20
8.7432912042
 30
0.0
  0
SPLINE
  5
37D
100
AcDbEntity
  8
0
100
AcDbSpline
 62
7
  6
CONTINUOUS
 70
0
 71
3
 72
18
 73
14
 74
0
 42
0.0000001
 43
0.0000001
 44
0.0000000001
 40
0.0
 40
0.0
 40
0.0
 40
0.0
 40
0.1504461272
 40
0.2916986442
 40
0.4244448252
 40
0.4879154645
 40
0.5496152408
 40
0.6682647181
 40
0.7817873209
 40
0.8371365586
 40
0.8918066889
 40
0.9460187701
 40
1.0
 40
1.0
 40
1.0
 40
1.0
 10
7.4826703266
 20
9.5428171864
 30
0.0
 10
7.4847818455
 20
9.5448567572
 30
0.0
 10
7.4890025169
 20
9.5486838193
 30
0.0
 10
7.4955379794
 20
9.5537842995
 30
0.0
 10
7.5010585178
 20
9.5573922328
 30
0.0
 10
7.5054608539
 20
9.5598351662
 30
0.0
 10
7.5097332987
 20
9.5619323429
 30
0.0
 10
7.5150750893
 20
9.5640514286
 30
0.0
 10
7.5205119003
 20
9.5654974738
 30
0.0
 10
7.5248180734
 20
9.5662096953
 30
0.0
 10
7.5280095764
 20
9.5665258834
 30
0.0
 10
7.5311881885
 20
9.5666281217
 30
0.0
 10
7.5332999915
 20
9.5665535041
 30
0.0
 10
7.5343508227
 20
9.5664806537
 30
0.0
  0
SPLINE
  5
37E
100
AcDbEntity
  8
0
100
AcDbSpline
 62
7
  6
CONTINUOUS
 70
0
 71
3
 72
23
 73
19
 74
0
 42
0.0000001
 43
0.0000001
 44
0.0000000001
 40
0.0
 40
0.0
 40
0.0
 40
0.0
 40
0.0777337953
 40
0.1514344043
 40
0.2213397989
 40
0.2877430015
 40
0.351011961
 40
0.4115878239
 40
0.4699792938
 40
0.5267605007
 40
0.5825594199
 40
0.638039607
 40
0.6938779703
 40
0.7507375868
 40
0.8092433978
 40
0.869965859
 40
0.9334074637
 40
1.0
 40
1.0
 40
1.0
 40
1.0
 10
7.4923295854
 20
9.5324880557
 30
0.0
 10
7.4940979626
 20
9.534196177
 30
0.0
 10
7.4976332301
 20
9.53743239
 30
0.0
 10
7.5030802634
 20
9.5418375249
 30
0.0
 10
7.5085220076
 20
9.545656477
 30
0.0
 10
7.5139544243
 20
9.5488843901
 30
0.0
 10
7.5193735786
 20
9.5515176284
 30
0.0
 10
7.5247755489
 20
9.5535531415
 30
0.0
 10
7.5301563097
 20
9.554987367
 30
0.0
 10
7.5355108266
 20
9.5558171353
 30
0.0
 10
7.5408330802
 20
9.5560406312
 30
0.0
 10
7.5461164977
 20
9.5556565879
 30
0.0
 10
7.551354116
 20
9.5546649205
 30
0.0
 10
7.5565395971
 20
9.553068291
 30
0.0
 10
7.5616675233
 20
9.550869952
 30
0.0
 10
7.5667331973
 20
9.5480731221
 30
0.0
 10
7.5717325838
 20
9.5446823743
 30
0.0
 10
7.574936462
 20
9.5420955249
 30
0.0
 10
7.5765256022
 20
9.5407131783
 30
0.0
  0
SPLINE
  5
37F
100
AcDbEntity
  8
0
100
AcDbSpline
 62
7
  6
CONTINUOUS
 70
0
 71
3
 72
90
 73
86
 74
0
 42
0.0000001
 43
0.0000001
 44
0.0000000001
 40
0.0
 40
0.0
 40
0.0
 40
0.0
 40
0.0041518056
 40
0.0084911315
 40
0.0130221212
 40
0.0177480598
 40
0.0226715208
 40
0.0277944948
 40
0.0331184285
 40
0.0386442968
 40
0.0443725479
 40
0.0503028828
 40
0.0627661984
 40
0.0760258602
 40
0.0900672626
 40
0.1048721045
 40
0.1204177525
 40
0.136678867
 40
0.1536267048
 40
0.1712304568
 40
0.1894564979
 40
0.2082695713
 40
0.2276320862
 40
0.2475051477
 40
0.2678479308
 40
0.2886185703
 40
0.3097736359
 40
0.3312688872
 40
0.3530588656
 40
0.375097515
 40
0.3973378999
 40
0.4197326895
 40
0.4422340064
 40
0.4647937746
 40
0.4873637019
 40
0.5098954924
 40
0.532340963
 40
0.5546521225
 40
0.5767814218
 40
0.5986817019
 40
0.6203065747
 40
0.6416102472
 40
0.6625480287
 40
0.6830760388
 40
0.7031518377
 40
0.7227340289
 40
0.7417830107
 40
0.7602604892
 40
0.7781303494
 40
0.7953581032
 40
0.8119118864
 40
0.8277618771
 40
0.8428814401
 40
0.8572465757
 40
0.8708372614
 40
0.8836370397
 40
0.8956346694
 40
0.9013308621
 40
0.9068248891
 40
0.9121171225
 40
0.9172083563
 40
0.9221000527
 40
0.9267944819
 40
0.9312945792
 40
0.9356040458
 40
0.9397276477
 40
0.9436714014
 40
0.9474425145
 40
0.9510495628
 40
0.9545028279
 40
0.9578144915
 40
0.9609986109
 40
0.9640712438
 40
0.9670505871
 40
0.9699568602
 40
0.9728119498
 40
0.9756390409
 40
0.9784620983
 40
0.9813051654
 40
0.9841917213
 40
0.9871441466
 40
0.9901832675
 40
0.9933280073
 40
0.9965952807
 40
1.0
 40
1.0
 40
1.0
 40
1.0
 10
7.4923295854
 20
9.5324880557
 30
0.0
 10
7.4907767323
 20
9.5309881147
 30
0.0
 10
7.4876728325
 20
9.5278453034
 30
0.0
 10
7.4831204486
 20
9.5228299513
 30
0.0
 10
7.4785729959
 20
9.5174141187
 30
0.0
 10
7.4740335633
 20
9.5116012732
 30
0.0
 10
7.4695050444
 20
9.5053947132
 30
0.0
 10
7.4649898396
 20
9.4987981682
 30
0.0
 10
7.4604903452
 20
9.4918153
 30
0.0
 10
7.4560090247
 20
9.4844498359
 30
0.0
 10
7.4515483889
 20
9.4767057637
 30
0.0
 10
7.44553174
 20
9.4656983216
 30
0.0
 10
7.4380974953
 20
9.4510075518
 30
0.0
 10
7.4294406889
 20
9.432224771
 30
0.0
 10
7.4209252757
 20
9.41204926
 30
0.0
 10
7.4125714318
 20
9.3905265423
 30
0.0
 10
7.4043975471
 20
9.3677052092
 30
0.0
 10
7.3964230636
 20
9.3436368503
 30
0.0
 10
7.3886656074
 20
9.3183761387
 30
0.0
 10
7.3811436077
 20
9.291980404
 30
0.0
 10
7.3738737119
 20
9.264509731
 30
0.0
 10
7.3668731868
 20
9.2360266192
 30
0.0
 10
7.3601575171
 20
9.2065959765
 30
0.0
 10
7.3537426484
 20
9.1762848472
 30
0.0
 10
7.3476427483
 20
9.1451623421
 30
0.0
 10
7.3418723097
 20
9.1132994087
 30
0.0
 10
7.3364440434
 20
9.080768723
 30
0.0
 10
7.3313708709
 20
9.0476444729
 30
0.0
 10
7.3266639214
 20
9.0140022323
 30
0.0
 10
7.322334439
 20
8.9799187406
 30
0.0
 10
7.3183918613
 20
8.9454717754
 30
0.0
 10
7.3148456626
 20
8.9107399177
 30
0.0
 10
7.3117034947
 20
8.8758024358
 30
0.0
 10
7.3089729855
 20
8.8407390298
 30
0.0
 10
7.3066599232
 20
8.8056297338
 30
0.0
 10
7.3047700283
 20
8.7705546358
 30
0.0
 10
7.3033071641
 20
8.7355938033
 30
0.0
 10
7.3022750996
 20
8.7008269777
 30
0.0
 10
7.3016757292
 20
8.6663335265
 30
0.0
 10
7.3015108434
 20
8.6321921136
 30
0.0
 10
7.3017803408
 20
8.5984806777
 30
0.0
 10
7.302484024
 20
8.5652760847
 30
0.0
 10
7.3036197862
 20
8.5326541269
 30
0.0
 10
7.3051854507
 20
8.5006891664
 30
0.0
 10
7.3071769124
 20
8.4694541484
 30
0.0
 10
7.3095900419
 20
8.4390202462
 30
0.0
 10
7.31241876
 20
8.4094568771
 30
0.0
 10
7.3156570292
 20
8.3808313648
 30
0.0
 10
7.3192968375
 20
8.3532089414
 30
0.0
 10
7.323330303
 20
8.3266524475
 30
0.0
 10
7.3277475404
 20
8.301222294
 30
0.0
 10
7.3325389111
 20
8.276976231
 30
0.0
 10
7.337692741
 20
8.2539692181
 30
0.0
 10
7.3431977586
 20
8.232253348
 30
0.0
 10
7.3490406309
 20
8.2118774037
 30
0.0
 10
7.3552086628
 20
8.1928875516
 30
0.0
 10
7.3606981782
 20
8.1780054981
 30
0.0
 10
7.365258311
 20
8.1668420879
 30
0.0
 10
7.3686914921
 20
8.1589876933
 30
0.0
 10
7.3721950496
 20
8.1515103649
 30
0.0
 10
7.3757671802
 20
8.1444144007
 30
0.0
 10
7.3794059478
 20
8.137703829
 30
0.0
 10
7.3831091885
 20
8.1313822595
 30
0.0
 10
7.3868748673
 20
8.1254531813
 30
0.0
 10
7.3907010793
 20
8.1199200288
 30
0.0
 10
7.3945858679
 20
8.1147859512
 30
0.0
 10
7.3985270558
 20
8.1100536417
 30
0.0
 10
7.4025226441
 20
8.1057257332
 30
0.0
 10
7.4065707937
 20
8.1018049042
 30
0.0
 10
7.4106695978
 20
8.0982936046
 30
0.0
 10
7.4148169269
 20
8.0951938392
 30
0.0
 10
7.4190107795
 20
8.0925077158
 30
0.0
 10
7.4232491587
 20
8.0902375608
 30
0.0
 10
7.4275297679
 20
8.0883854976
 30
0.0
 10
7.431849905
 20
8.0869530908
 30
0.0
 10
7.4362066983
 20
8.085941914
 30
0.0
 10
7.4405969757
 20
8.0853534807
 30
0.0
 10
7.4450172049
 20
8.0851885222
 30
0.0
 10
7.4494637902
 20
8.085446669
 30
0.0
 10
7.4539333063
 20
8.0861273223
 30
0.0
 10
7.4584225206
 20
8.0872296948
 30
0.0
 10
7.462928497
 20
8.0887524494
 30
0.0
 10
7.4674488125
 20
8.0906937912
 30
0.0
 10
7.4719809531
 20
8.0930519648
 30
0.0
 10
7.4749444572
 20
8.0948617373
 30
0.0
 10
7.4764263676
 20
8.0958305283
 30
0.0
  0
SPLINE
  5
380
100
AcDbEntity
  8
0
100
AcDbSpline
 62
7
  6
CONTINUOUS
 70
0
 71
3
 72
23
 73
19
 74
0
 42
0.0000001
 43
0.0000001
 44
0.0000000001
 40
0.0
 40
0.0
 40
0.0
 40
0.0
 40
0.0784572649
 40
0.1534031432
 40
0.2250068351
 40
0.2934702731
 40
0.3590360563
 40
0.4219989505
 40
0.4826984116
 40
0.5415169907
 40
0.5988790333
 40
0.6552449802
 40
0.7111011872
 40
0.7669484423
 40
0.8232886707
 40
0.8806095041
 40
0.939371528
 40
1.0
 40
1.0
 40
1.0
 40
1.0
 10
7.4923295854
 20
9.5122036122
 30
0.0
 10
7.4938118866
 20
9.5136354052
 30
0.0
 10
7.49677559
 20
9.5163683836
 30
0.0
 10
7.5013246587
 20
9.5201461764
 30
0.0
 10
7.5058703412
 20
9.5235037365
 30
0.0
 10
7.5104097364
 20
9.5264382175
 30
0.0
 10
7.5149404311
 20
9.5289469115
 30
0.0
 10
7.5194597704
 20
9.531028045
 30
0.0
 10
7.5239653386
 20
9.5326799392
 30
0.0
 10
7.5284545861
 20
9.5339007839
 30
0.0
 10
7.5329246189
 20
9.534688716
 30
0.0
 10
7.53737203
 20
9.5350428324
 30
0.0
 10
7.5417931949
 20
9.5349624768
 30
0.0
 10
7.5461843254
 20
9.5344473483
 30
0.0
 10
7.550541532
 20
9.5334976566
 30
0.0
 10
7.5548614284
 20
9.5321150143
 30
0.0
 10
7.5591405966
 20
9.5303014138
 30
0.0
 10
7.561915911
 20
9.5288319167
 30
0.0
 10
7.5632928494
 20
9.528031726
 30
0.0
  0
SPLINE
  5
381
100
AcDbEntity
  8
0
100
AcDbSpline
 62
7
  6
CONTINUOUS
 70
0
 71
3
 72
15
 73
11
 74
0
 42
0.0000001
 43
0.0000001
 44
0.0000000001
 40
0.0
 40
0.0
 40
0.0
 40
0.0
 40
0.1498019901
 40
0.2908038304
 40
0.4236271714
 40
0.5490618913
 40
0.6681168558
 40
0.7820003535
 40
0.8921089719
 40
1.0
 40
1.0
 40
1.0
 40
1.0
 10
7.5077843996
 20
9.495677003
 30
0.0
 10
7.5096870364
 20
9.4975148092
 30
0.0
 10
7.5134903254
 20
9.5009717357
 30
0.0
 10
7.5193723815
 20
9.5056045019
 30
0.0
 10
7.5252478215
 20
9.509516804
 30
0.0
 10
7.5311115474
 20
9.5127016765
 30
0.0
 10
7.5369580541
 20
9.5151541434
 30
0.0
 10
7.5427822708
 20
9.5168690489
 30
0.0
 10
7.548576198
 20
9.5178406743
 30
0.0
 10
7.5524354508
 20
9.5179913047
 30
0.0
 10
7.5543399899
 20
9.5179410561
 30
0.0
  0
SPLINE
  5
382
100
AcDbEntity
  8
0
100
AcDbSpline
 62
7
  6
CONTINUOUS
 70
0
 71
3
 72
18
 73
14
 74
0
 42
0.0000001
 43
0.0000001
 44
0.0000000001
 40
0.0
 40
0.0
 40
0.0
 40
0.0
 40
0.1504461272
 40
0.2916986442
 40
0.4244448252
 40
0.4879154645
 40
0.5496152408
 40
0.6682647181
 40
0.7817873209
 40
0.8371365586
 40
0.8918066889
 40
0.9460187701
 40
1.0
 40
1.0
 40
1.0
 40
1.0
 10
7.5753992114
 20
9.5363864164
 30
0.0
 10
7.5775107303
 20
9.5384259872
 30
0.0
 10
7.5817314018
 20
9.5422530493
 30
0.0
 10
7.5882668642
 20
9.5473535295
 30
0.0
 10
7.5937874026
 20
9.5509614628
 30
0.0
 10
7.5981897387
 20
9.5534043962
 30
0.0
 10
7.6024621835
 20
9.5555015729
 30
0.0
 10
7.6078039741
 20
9.5576206586
 30
0.0
 10
7.6132407851
 20
9.5590667038
 30
0.0
 10
7.6175469582
 20
9.5597789253
 30
0.0
 10
7.6207384612
 20
9.5600951134
 30
0.0
 10
7.6239170733
 20
9.5601973517
 30
0.0
 10
7.6260288763
 20
9.5601227341
 30
0.0
 10
7.6270797075
 20
9.5600498837
 30
0.0
  0
SPLINE
  5
383
100
AcDbEntity
  8
0
100
AcDbSpline
 62
7
  6
CONTINUOUS
 70
0
 71
3
 72
41
 73
37
 74
0
 42
0.0000001
 43
0.0000001
 44
0.0000000001
 40
0.0
 40
0.0
 40
0.0
 40
0.0
 40
0.0378096202
 40
0.0760199482
 40
0.1145335628
 40
0.1532656603
 40
0.2310414864
 40
0.3086457531
 40
0.385378812
 40
0.4232031505
 40
0.4605520951
 40
0.4973424303
 40
0.5334922927
 40
0.5689221075
 40
0.6035540565
 40
0.6373132885
 40
0.6701271793
 40
0.701926741
 40
0.7326458487
 40
0.7622226663
 40
0.7905991082
 40
0.8177221104
 40
0.8435435825
 40
0.8680214174
 40
0.8911203675
 40
0.9128128465
 40
0.9231261482
 40
0.9330818645
 40
0.9426792478
 40
0.951918724
 40
0.9608019428
 40
0.96933143
 40
0.977510712
 40
0.9853443817
 40
0.9928383208
 40
1.0
 40
1.0
 40
1.0
 40
1.0
 10
7.2893326595
 20
8.6345206945
 30
0.0
 10
7.2893326595
 20
8.6463962777
 30
0.0
 10
7.289490651
 20
8.6702735783
 30
0.0
 10
7.2901901127
 20
8.7062414075
 30
0.0
 10
7.2913525185
 20
8.7424872445
 30
0.0
 10
7.2935184474
 20
8.7911306064
 30
0.0
 10
7.2973560472
 20
8.851984948
 30
0.0
 10
7.3037233783
 20
8.9246174885
 30
0.0
 10
7.3104837194
 20
8.9846006485
 30
0.0
 10
7.3167417148
 20
9.0319016937
 30
0.0
 10
7.3218118393
 20
9.0667019077
 30
0.0
 10
7.3272681736
 20
9.100911174
 30
0.0
 10
7.3330979281
 20
9.1344472036
 30
0.0
 10
7.339286603
 20
9.1672292711
 30
0.0
 10
7.3458196777
 20
9.1991784846
 30
0.0
 10
7.3526808818
 20
9.2302179978
 30
0.0
 10
7.3598540941
 20
9.2602731406
 30
0.0
 10
7.3673214826
 20
9.2892716899
 30
0.0
 10
7.3750654109
 20
9.3171439437
 30
0.0
 10
7.3830667285
 20
9.3438230269
 30
0.0
 10
7.391306388
 20
9.3692449248
 30
0.0
 10
7.3997641923
 20
9.3933488046
 30
0.0
 10
7.4084198171
 20
9.416077006
 30
0.0
 10
7.4172522898
 20
9.4373755081
 30
0.0
 10
7.4262402577
 20
9.4571934403
 30
0.0
 10
7.4339667119
 20
9.4726865189
 30
0.0
 10
7.4402239914
 20
9.4842871254
 30
0.0
 10
7.4448630536
 20
9.4924414596
 30
0.0
 10
7.449524773
 20
9.500191889
 30
0.0
 10
7.454206483
 20
9.5075338637
 30
0.0
 10
7.4589054062
 20
9.5144632547
 30
0.0
 10
7.4636189063
 20
9.5209760766
 30
0.0
 10
7.4683443877
 20
9.5270682473
 30
0.0
 10
7.4730787769
 20
9.5327360893
 30
0.0
 10
7.477818661
 20
9.5379758236
 30
0.0
 10
7.4810524324
 20
9.5412544205
 30
0.0
 10
7.4826703266
 20
9.5428171864
 30
0.0
  0
SPLINE
  5
384
100
AcDbEntity
  8
0
100
AcDbSpline
 62
7
  6
CONTINUOUS
 70
0
 71
3
 72
81
 73
77
 74
0
 42
0.0000001
 43
0.0000001
 44
0.0000000001
 40
0.0
 40
0.0
 40
0.0
 40
0.0
 40
0.004096374
 40
0.0083737365
 40
0.0128360222
 40
0.0174863664
 40
0.0223272323
 40
0.0273605314
 40
0.0325876689
 40
0.0380096039
 40
0.0494387138
 40
0.0616461988
 40
0.0746240015
 40
0.0883590063
 40
0.1028344316
 40
0.1180297189
 40
0.1339213307
 40
0.1504829737
 40
0.1676858607
 40
0.1854991372
 40
0.2038897427
 40
0.2228230797
 40
0.2422626021
 40
0.2621706223
 40
0.2825077595
 40
0.3032337839
 40
0.345684428
 40
0.3891811276
 40
0.4333703555
 40
0.4778913238
 40
0.5223797913
 40
0.5664718533
 40
0.6098077346
 40
0.6310821689
 40
0.6520364997
 40
0.6726285628
 40
0.6928173497
 40
0.7125627335
 40
0.7318261415
 40
0.7505700209
 40
0.7687587867
 40
0.7863580694
 40
0.8033358871
 40
0.8196617815
 40
0.8353081202
 40
0.8502492835
 40
0.8644629956
 40
0.877929763
 40
0.8906341736
 40
0.902564828
 40
0.9082382049
 40
0.9137164108
 40
0.9189995975
 40
0.9240883509
 40
0.9289839786
 40
0.9336883635
 40
0.9382039572
 40
0.9425339077
 40
0.9466823912
 40
0.9506546018
 40
0.954456756
 40
0.9580962665
 40
0.9615820808
 40
0.9649248048
 40
0.9681366993
 40
0.9712318233
 40
0.9742262097
 40
0.9771378574
 40
0.9799864603
 40
0.982793156
 40
0.9855801543
 40
0.9883701754
 40
0.9911858224
 40
0.9940490453
 40
0.9969806746
 40
1.0
 40
1.0
 40
1.0
 40
1.0
 10
7.4923295854
 20
9.5122036122
 30
0.0
 10
7.4908548758
 20
9.5107791519
 30
0.0
 10
7.487907071
 20
9.5077975255
 30
0.0
 10
7.4835814357
 20
9.5030450455
 30
0.0
 10
7.4792602098
 20
9.4979202039
 30
0.0
 10
7.4749461919
 20
9.4924261818
 30
0.0
 10
7.4706420739
 20
9.4865659565
 30
0.0
 10
7.4663501318
 20
9.4803429026
 30
0.0
 10
7.4620724754
 20
9.4737603999
 30
0.0
 10
7.4562891043
 20
9.464342778
 30
0.0
 10
7.4491287265
 20
9.4516768301
 30
0.0
 10
7.4407733127
 20
9.4353611565
 30
0.0
 10
7.4325292559
 20
9.4177067851
 30
0.0
 10
7.424414025
 20
9.3987520908
 30
0.0
 10
7.4164456566
 20
9.3785376082
 30
0.0
 10
7.4086413044
 20
9.3571070536
 30
0.0
 10
7.4010182357
 20
9.3345067717
 30
0.0
 10
7.393593137
 20
9.3107858224
 30
0.0
 10
7.3863822294
 20
9.2859957428
 30
0.0
 10
7.3794014942
 20
9.2601904601
 30
0.0
 10
7.3726659991
 20
9.2334261667
 30
0.0
 10
7.3661908449
 20
9.2057611666
 30
0.0
 10
7.3599898343
 20
9.1772557668
 30
0.0
 10
7.3540770184
 20
9.1479721209
 30
0.0
 10
7.3484648181
 20
9.1179740566
 30
0.0
 10
7.3413433046
 20
9.0767834573
 30
0.0
 10
7.3333002759
 20
9.0239936574
 30
0.0
 10
7.3250984272
 20
8.9593694086
 30
0.0
 10
7.3183434364
 20
8.8935361815
 30
0.0
 10
7.3130945115
 20
8.8270680611
 30
0.0
 10
7.3093974915
 20
8.7605441935
 30
0.0
 10
7.3072845751
 20
8.6945447455
 30
0.0
 10
7.3068558702
 20
8.6401322826
 30
0.0
 10
7.3073335905
 20
8.5973068568
 30
0.0
 10
7.308092731
 20
8.5658717861
 30
0.0
 10
7.3092533499
 20
8.5349927422
 30
0.0
 10
7.3108125272
 20
8.504737078
 30
0.0
 10
7.3127672519
 20
8.4751707685
 30
0.0
 10
7.3151126823
 20
8.4463583433
 30
0.0
 10
7.317844198
 20
8.4183625773
 30
0.0
 10
7.3209551473
 20
8.391244544
 30
0.0
 10
7.32443929
 20
8.3650632771
 30
0.0
 10
7.3282882675
 20
8.3398758235
 30
0.0
 10
7.3324942214
 20
8.3157369449
 30
0.0
 10
7.337047218
 20
8.2926991167
 30
0.0
 10
7.341937797
 20
8.2708123015
 30
0.0
 10
7.3471546158
 20
8.2501238973
 30
0.0
 10
7.3526866615
 20
8.2306784529
 30
0.0
 10
7.3585214294
 20
8.2125180581
 30
0.0
 10
7.3637089332
 20
8.1982574944
 30
0.0
 10
7.3680156609
 20
8.1875360837
 30
0.0
 10
7.3712591242
 20
8.179975648
 30
0.0
 10
7.3745685365
 20
8.1727645359
 30
0.0
 10
7.3779423272
 20
8.1659067327
 30
0.0
 10
7.3813785491
 20
8.1594058325
 30
0.0
 10
7.3848753327
 20
8.1532652164
 30
0.0
 10
7.3884308407
 20
8.1474881987
 30
0.0
 10
7.3920434064
 20
8.1420780261
 30
0.0
 10
7.3957111032
 20
8.1370375245
 30
0.0
 10
7.3994319995
 20
8.1323692428
 30
0.0
 10
7.4032042657
 20
8.1280756898
 30
0.0
 10
7.4070262441
 20
8.12415941
 30
0.0
 10
7.4108961312
 20
8.1206226264
 30
0.0
 10
7.4148119977
 20
8.1174672067
 30
0.0
 10
7.4187720385
 20
8.1146951
 30
0.0
 10
7.4227744817
 20
8.1123084186
 30
0.0
 10
7.4268173794
 20
8.1103091728
 30
0.0
 10
7.4308984081
 20
8.1086988228
 30
0.0
 10
7.4350151494
 20
8.1074789017
 30
0.0
 10
7.4391649291
 20
8.1066508958
 30
0.0
 10
7.4433447556
 20
8.1062160335
 30
0.0
 10
7.4475513881
 20
8.1061743277
 30
0.0
 10
7.4517816384
 20
8.1065255245
 30
0.0
 10
7.4560325502
 20
8.1072691129
 30
0.0
 10
7.4603009265
 20
8.1084042804
 30
0.0
 10
7.4631103944
 20
8.1094047099
 30
0.0
 10
7.4645138754
 20
8.1099651523
 30
0.0
  0
SPLINE
  5
385
100
AcDbEntity
  8
0
100
AcDbSpline
 62
7
  6
CONTINUOUS
 70
0
 71
3
 72
76
 73
72
 74
0
 42
0.0000001
 43
0.0000001
 44
0.0000000001
 40
0.0
 40
0.0
 40
0.0
 40
0.0
 40
0.0039784984
 40
0.0081251531
 40
0.0124435086
 40
0.0169364194
 40
0.0216061527
 40
0.0264544946
 40
0.0366912139
 40
0.0476537589
 40
0.0593412889
 40
0.0717475507
 40
0.0848622127
 40
0.098671165
 40
0.1131575556
 40
0.1283012129
 40
0.1440800998
 40
0.1604694094
 40
0.1774429035
 40
0.1949720965
 40
0.2130272036
 40
0.2315767582
 40
0.2505880035
 40
0.2700270147
 40
0.2898585888
 40
0.3100467583
 40
0.3305543791
 40
0.3513438027
 40
0.3723764246
 40
0.415013989
 40
0.4581498913
 40
0.5014614404
 40
0.5446242779
 40
0.5873154613
 40
0.629216554
 40
0.6700167422
 40
0.6899101762
 40
0.7094169055
 40
0.7285016642
 40
0.7471303247
 40
0.7652698067
 40
0.7828886469
 40
0.7999564455
 40
0.816444896
 40
0.8323269182
 40
0.847577916
 40
0.8621749544
 40
0.8760978956
 40
0.889329039
 40
0.9018538605
 40
0.9136614569
 40
0.9247448319
 40
0.9351023651
 40
0.9400102809
 40
0.9447388849
 40
0.9492899264
 40
0.9536656501
 40
0.9578689121
 40
0.9619034694
 40
0.9657739313
 40
0.9694857728
 40
0.9730454723
 40
0.9764607843
 40
0.9797408829
 40
0.9828963274
 40
0.9859391791
 40
0.9888831327
 40
0.9917436112
 40
0.9945375551
 40
0.9972832355
 40
1.0
 40
1.0
 40
1.0
 40
1.0
 10
7.5077843996
 20
9.495677003
 30
0.0
 10
7.5064064736
 20
9.4943460286
 30
0.0
 10
7.5036519716
 20
9.4915655743
 30
0.0
 10
7.4996060723
 20
9.4871440228
 30
0.0
 10
7.4955638771
 20
9.4823890215
 30
0.0
 10
7.4915278003
 20
9.477303311
 30
0.0
 10
7.4875001135
 20
9.4718894389
 30
0.0
 10
7.4820447737
 20
9.4640952864
 30
0.0
 10
7.4752751371
 20
9.4535293458
 30
0.0
 10
7.467357362
 20
9.4398094097
 30
0.0
 10
7.4595191236
 20
9.4248541157
 30
0.0
 10
7.4517761298
 20
9.4086928173
 30
0.0
 10
7.4441439571
 20
9.3913570537
 30
0.0
 10
7.4366374371
 20
9.3728810504
 30
0.0
 10
7.4292720661
 20
9.3533011725
 30
0.0
 10
7.4220619955
 20
9.3326562979
 30
0.0
 10
7.4150223688
 20
9.3109873172
 30
0.0
 10
7.4081666531
 20
9.288337401
 30
0.0
 10
7.4015092045
 20
9.2647515663
 30
0.0
 10
7.3950628888
 20
9.2402768501
 30
0.0
 10
7.3888410057
 20
9.2149620071
 30
0.0
 10
7.3828558253
 20
9.1888575494
 30
0.0
 10
7.3771194092
 20
9.1620155461
 30
0.0
 10
7.371643354
 20
9.1344895724
 30
0.0
 10
7.366438407
 20
9.1063345752
 30
0.0
 10
7.3615153442
 20
9.0776067582
 30
0.0
 10
7.3568836091
 20
9.0483635057
 30
0.0
 10
7.3525529151
 20
9.0186631603
 30
0.0
 10
7.3471669
 20
8.9783506698
 30
0.0
 10
7.3412559478
 20
8.9272560172
 30
0.0
 10
7.3355141361
 20
8.8653582727
 30
0.0
 10
7.3311382885
 20
8.8030952882
 30
0.0
 10
7.328163247
 20
8.7409640779
 30
0.0
 10
7.3266125365
 20
8.6794601495
 30
0.0
 10
7.3264982338
 20
8.6190744209
 30
0.0
 10
7.3276089652
 20
8.5696786272
 30
0.0
 10
7.3292347896
 20
8.5310929557
 30
0.0
 10
7.3308000027
 20
8.5029732714
 30
0.0
 10
7.3327180384
 20
8.4754859044
 30
0.0
 10
7.3349848631
 20
8.4486856846
 30
0.0
 10
7.3375962179
 20
8.4226260847
 30
0.0
 10
7.3405463661
 20
8.39735912
 30
0.0
 10
7.3438298992
 20
8.3729351428
 30
0.0
 10
7.3474395675
 20
8.3494028617
 30
0.0
 10
7.3513686937
 20
8.3268091141
 30
0.0
 10
7.3556087606
 20
8.3051988662
 30
0.0
 10
7.3601516824
 20
8.2846150389
 30
0.0
 10
7.3649879496
 20
8.2650984539
 30
0.0
 10
7.3701079805
 20
8.2466876846
 30
0.0
 10
7.3755015377
 20
8.2294190625
 30
0.0
 10
7.3811575934
 20
8.2133262409
 30
0.0
 10
7.3870654254
 20
8.1984410512
 30
0.0
 10
7.3922777722
 20
8.1868671753
 30
0.0
 10
7.3965789689
 20
8.1782524251
 30
0.0
 10
7.3998023703
 20
8.1722278032
 30
0.0
 10
7.4030796761
 20
8.1665260054
 30
0.0
 10
7.4064093667
 20
8.1611498634
 30
0.0
 10
7.4097900001
 20
8.1561021564
 30
0.0
 10
7.4132198969
 20
8.1513852774
 30
0.0
 10
7.4166974041
 20
8.1470014139
 30
0.0
 10
7.4202209392
 20
8.1429527244
 30
0.0
 10
7.4237890458
 20
8.1392413902
 30
0.0
 10
7.427400199
 20
8.1358693712
 30
0.0
 10
7.4310527042
 20
8.1328382562
 30
0.0
 10
7.4347449988
 20
8.130149694
 30
0.0
 10
7.4384755136
 20
8.1278054052
 30
0.0
 10
7.4422426871
 20
8.1258072084
 30
0.0
 10
7.4460445464
 20
8.1241563734
 30
0.0
 10
7.4498792121
 20
8.1228541489
 30
0.0
 10
7.4537440992
 20
8.1219018064
 30
0.0
 10
7.4563476871
 20
8.1214997367
 30
0.0
 10
7.4576482208
 20
8.1213582639
 30
0.0
  0
SPLINE
  5
386
100
AcDbEntity
  8
0
100
AcDbSpline
 62
7
  6
CONTINUOUS
 70
0
 71
3
 72
39
 73
35
 74
0
 42
0.0000001
 43
0.0000001
 44
0.0000000001
 40
0.0
 40
0.0
 40
0.0
 40
0.0
 40
0.0233052414
 40
0.04804473
 40
0.0741581785
 40
0.1015766179
 40
0.1302246109
 40
0.1600200054
 40
0.1908752908
 40
0.2226981798
 40
0.2553917234
 40
0.2888555945
 40
0.3229858309
 40
0.3576758945
 40
0.3928168881
 40
0.4282979967
 40
0.4640071577
 40
0.4998312551
 40
0.5356568197
 40
0.5713702828
 40
0.6068586339
 40
0.6420096302
 40
0.6767125513
 40
0.710858397
 40
0.7443404649
 40
0.7770549924
 40
0.8089011523
 40
0.8397823197
 40
0.869605796
 40
0.8982839711
 40
0.925734832
 40
0.9518822112
 40
0.9766576133
 40
1.0
 40
1.0
 40
1.0
 40
1.0
 10
7.4849303766
 20
9.3840765443
 30
0.0
 10
7.4815485412
 20
9.3759285086
 30
0.0
 10
7.474892764
 20
9.3589986731
 30
0.0
 10
7.4654655714
 20
9.3325528579
 30
0.0
 10
7.4563218384
 20
9.3043662334
 30
0.0
 10
7.4474922919
 20
9.2745339037
 30
0.0
 10
7.4390074145
 20
9.2431558862
 30
0.0
 10
7.4308958594
 20
9.2103378459
 30
0.0
 10
7.4231852116
 20
9.176190347
 30
0.0
 10
7.4159019601
 20
9.1408285054
 30
0.0
 10
7.4090704625
 20
9.1043716539
 30
0.0
 10
7.4027143355
 20
9.0669428216
 30
0.0
 10
7.3968548814
 20
9.0286683832
 30
0.0
 10
7.3915120537
 20
8.9896776028
 30
0.0
 10
7.3867041333
 20
8.9501021481
 30
0.0
 10
7.3824470954
 20
8.9100757286
 30
0.0
 10
7.3787557443
 20
8.8697335396
 30
0.0
 10
7.375642259
 20
8.8292118823
 30
0.0
 10
7.3731173064
 20
8.7886476667
 30
0.0
 10
7.3711894857
 20
8.7481779154
 30
0.0
 10
7.3698650198
 20
8.7079393883
 30
0.0
 10
7.3691487216
 20
8.6680679916
 30
0.0
 10
7.3690425935
 20
8.628698439
 30
0.0
 10
7.3695471358
 20
8.5899637071
 30
0.0
 10
7.3706605439
 20
8.5519946005
 30
0.0
 10
7.3723787158
 20
8.5149193616
 30
0.0
 10
7.3746960891
 20
8.4788631156
 30
0.0
 10
7.3776042356
 20
8.4439475634
 30
0.0
 10
7.3810934414
 20
8.4102904563
 30
0.0
 10
7.3851515819
 20
8.3780052166
 30
0.0
 10
7.3897644837
 20
8.3472005979
 30
0.0
 10
7.3949167058
 20
8.3179800058
 30
0.0
 10
7.4005898174
 20
8.2904419619
 30
0.0
 10
7.404836276
 20
8.2727249515
 30
0.0
 10
7.4070565157
 20
8.2641724009
 30
0.0
  0
SPLINE
  5
387
100
AcDbEntity
  8
0
100
AcDbSpline
 62
7
  6
CONTINUOUS
 70
0
 71
3
 72
40
 73
36
 74
0
 42
0.0000001
 43
0.0000001
 44
0.0000000001
 40
0.0
 40
0.0
 40
0.0
 40
0.0
 40
0.0375173595
 40
0.0754281855
 40
0.1520639382
 40
0.2292389129
 40
0.3062749507
 40
0.38249671
 40
0.4200940889
 40
0.4572390344
 40
0.4938509691
 40
0.5298506895
 40
0.5651609795
 40
0.5997063833
 40
0.6334140897
 40
0.6662134231
 40
0.6980370741
 40
0.7288203107
 40
0.7585025499
 40
0.7870263764
 40
0.8143394209
 40
0.8403933448
 40
0.865145927
 40
0.8885603791
 40
0.9106077173
 40
0.9211121266
 40
0.931267612
 40
0.9410730047
 40
0.9505277461
 40
0.9596325259
 40
0.968389089
 40
0.9768000238
 40
0.9848688872
 40
0.9926002624
 40
1.0
 40
1.0
 40
1.0
 40
1.0
 10
7.3820615443
 20
8.6280899245
 30
0.0
 10
7.3820615443
 20
8.6397982424
 30
0.0
 10
7.3822150899
 20
8.6633379662
 30
0.0
 10
7.3831252018
 20
8.7107859255
 30
0.0
 10
7.3853913798
 20
8.7705815533
 30
0.0
 10
7.3898639941
 20
8.8424914825
 30
0.0
 10
7.396058765
 20
8.9141439253
 30
0.0
 10
7.4026368104
 20
8.9733478771
 30
0.0
 10
7.408727355
 20
9.0200660887
 30
0.0
 10
7.4136640994
 20
9.0544658248
 30
0.0
 10
7.4189784995
 20
9.0883046218
 30
0.0
 10
7.4246582619
 20
9.1215033498
 30
0.0
 10
7.4306898321
 20
9.1539843033
 30
0.0
 10
7.4370592969
 20
9.1856714947
 30
0.0
 10
7.4437513606
 20
9.2164908084
 30
0.0
 10
7.4507506645
 20
9.2463701681
 30
0.0
 10
7.4580403092
 20
9.2752397479
 30
0.0
 10
7.465603623
 20
9.3030320745
 30
0.0
 10
7.4734222784
 20
9.3296822997
 30
0.0
 10
7.4814784229
 20
9.355128212
 30
0.0
 10
7.4897525206
 20
9.3793106096
 30
0.0
 10
7.498225683
 20
9.4021731475
 30
0.0
 10
7.5068774023
 20
9.4236629915
 30
0.0
 10
7.5156879377
 20
9.4437300552
 30
0.0
 10
7.5232620395
 20
9.4594730877
 30
0.0
 10
7.529398879
 20
9.471305069
 30
0.0
 10
7.5339538565
 20
9.4796513206
 30
0.0
 10
7.5385328748
 20
9.4876086659
 30
0.0
 10
7.5431334584
 20
9.4951723921
 30
0.0
 10
7.547752941
 20
9.5023382306
 30
0.0
 10
7.552388716
 20
9.5091022698
 30
0.0
 10
7.5570382452
 20
9.515460671
 30
0.0
 10
7.5616990604
 20
9.5214095803
 30
0.0
 10
7.5663679662
 20
9.5269453466
 30
0.0
 10
7.5695529628
 20
9.5304337377
 30
0.0
 10
7.5711471081
 20
9.5321045229
 30
0.0
  0
SPLINE
  5
388
100
AcDbEntity
  8
0
100
AcDbSpline
 62
7
  6
CONTINUOUS
 70
0
 71
3
 72
38
 73
34
 74
0
 42
0.0000001
 43
0.0000001
 44
0.0000000001
 40
0.0
 40
0.0
 40
0.0
 40
0.0
 40
0.0063160962
 40
0.012671092
 40
0.0191031094
 40
0.0256487999
 40
0.0323428282
 40
0.0392174136
 40
0.0536156671
 40
0.0690528137
 40
0.0856863497
 40
0.103634591
 40
0.1229849423
 40
0.1437978011
 40
0.1661140371
 40
0.1899570077
 40
0.215337166
 40
0.2422538508
 40
0.2706968034
 40
0.3006487958
 40
0.3320847866
 40
0.3649751484
 40
0.3992839084
 40
0.4349714554
 40
0.4719934689
 40
0.5103020671
 40
0.5498461539
 40
0.5905708688
 40
0.6324193885
 40
0.7192435421
 40
0.8098113955
 40
0.9035882777
 40
1.0
 40
1.0
 40
1.0
 40
1.0
 10
7.5237187153
 20
8.0696296792
 30
0.0
 10
7.5224561367
 20
8.0697172094
 30
0.0
 10
7.5199291731
 20
8.0699962388
 30
0.0
 10
7.5161670742
 20
8.0707235717
 30
0.0
 10
7.5124301238
 20
8.0717595062
 30
0.0
 10
7.5087204799
 20
8.0731032398
 30
0.0
 10
7.505039645
 20
8.0747540592
 30
0.0
 10
7.5000971755
 20
8.0774036879
 30
0.0
 10
7.4939812083
 20
8.0815291626
 30
0.0
 10
7.4869070072
 20
8.0876103149
 30
0.0
 10
7.4799906947
 20
8.0948844679
 30
0.0
 10
7.4732396002
 20
8.1033376579
 30
0.0
 10
7.466661859
 20
8.1129572073
 30
0.0
 10
7.4602652671
 20
8.1237278006
 30
0.0
 10
7.4540596255
 20
8.1356332544
 30
0.0
 10
7.448053781
 20
8.1486547898
 30
0.0
 10
7.442257396
 20
8.1627719743
 30
0.0
 10
7.4366798
 20
8.1779622569
 30
0.0
 10
7.4313297989
 20
8.1942011552
 30
0.0
 10
7.4262166644
 20
8.211462423
 30
0.0
 10
7.421348263
 20
8.2297178996
 30
0.0
 10
7.4167332849
 20
8.2489378201
 30
0.0
 10
7.4123788576
 20
8.2690906695
 30
0.0
 10
7.408292636
 20
8.2901434058
 30
0.0
 10
7.4044812017
 20
8.3120614324
 30
0.0
 10
7.4009509342
 20
8.334808719
 30
0.0
 10
7.3977078873
 20
8.358347787
 30
0.0
 10
7.3947570963
 20
8.3826399152
 30
0.0
 10
7.3911757137
 20
8.4163951139
 30
0.0
 10
7.3874934281
 20
8.4601777154
 30
0.0
 10
7.3843563236
 20
8.5144290119
 30
0.0
 10
7.3824708513
 20
8.5706599391
 30
0.0
 10
7.3820615443
 20
8.6087711001
 30
0.0
 10
7.3820615443
 20
8.6280899245
 30
0.0
  0
SPLINE
  5
389
100
AcDbEntity
  8
0
100
AcDbSpline
 62
7
  6
CONTINUOUS
 70
0
 71
3
 72
22
 73
18
 74
0
 42
0.0000001
 43
0.0000001
 44
0.0000000001
 40
0.0
 40
0.0
 40
0.0
 40
0.0
 40
0.0663156875
 40
0.132011433
 40
0.1970891096
 40
0.2615582592
 40
0.3254375784
 40
0.3887529755
 40
0.4515387459
 40
0.5138340448
 40
0.5756834711
 40
0.6371335661
 40
0.6982322044
 40
0.7590264556
 40
0.8195609062
 40
0.8798785881
 40
1.0
 40
1.0
 40
1.0
 40
1.0
 10
8.1057446556
 20
8.0076314895
 30
0.0
 10
8.1023142759
 20
8.0172381853
 30
0.0
 10
8.0957549245
 20
8.0364593931
 30
0.0
 10
8.0868272749
 20
8.0654364444
 30
0.0
 10
8.0788907525
 20
8.0944067674
 30
0.0
 10
8.0719740696
 20
8.1233504373
 30
0.0
 10
8.0660946738
 20
8.1522462185
 30
0.0
 10
8.0612646861
 20
8.1810734588
 30
0.0
 10
8.0574816249
 20
8.2098109987
 30
0.0
 10
8.0547383994
 20
8.2384397996
 30
0.0
 10
8.0530140166
 20
8.266941992
 30
0.0
 10
8.0522828774
 20
8.2953025543
 30
0.0
 10
8.0525098381
 20
8.3235090049
 30
0.0
 10
8.0536553532
 20
8.3515516663
 30
0.0
 10
8.0556753484
 20
8.3794244072
 30
0.0
 10
8.0594661638
 20
8.4163010159
 30
0.0
 10
8.0634861985
 20
8.443781883
 30
0.0
 10
8.0666249116
 20
8.4619906227
 30
0.0
  0
SPLINE
  5
38A
100
AcDbEntity
  8
0
100
AcDbSpline
 62
7
  6
CONTINUOUS
 70
0
 71
3
 72
55
 73
51
 74
0
 42
0.0000001
 43
0.0000001
 44
0.0000000001
 40
0.0
 40
0.0
 40
0.0
 40
0.0
 40
0.0481975415
 40
0.0958290817
 40
0.142818713
 40
0.1890963521
 40
0.2345910715
 40
0.279234315
 40
0.3229593385
 40
0.3657013756
 40
0.4073979227
 40
0.4479889149
 40
0.4874169784
 40
0.525627636
 40
0.5625695632
 40
0.5981948995
 40
0.6324596307
 40
0.6653239472
 40
0.681220104
 40
0.69675341
 40
0.7119202568
 40
0.7267175098
 40
0.7411423279
 40
0.7551923488
 40
0.7688656914
 40
0.782160877
 40
0.7950770786
 40
0.8076139743
 40
0.8197718786
 40
0.8315518771
 40
0.8429557109
 40
0.8539860605
 40
0.8646465134
 40
0.8749416424
 40
0.8848772785
 40
0.8944604376
 40
0.9036996141
 40
0.912604918
 40
0.921188144
 40
0.9294631376
 40
0.9374458256
 40
0.9451544636
 40
0.952609859
 40
0.9598353745
 40
0.966857131
 40
0.9737039172
 40
0.9804070573
 40
0.9870002114
 40
0.9935188976
 40
1.0
 40
1.0
 40
1.0
 40
1.0
 10
9.8957513157
 20
10.8329424445
 30
0.0
 10
9.8842231845
 20
10.8337419231
 30
0.0
 10
9.861311
 20
10.8354601865
 30
0.0
 10
9.8271958035
 20
10.8384146576
 30
0.0
 10
9.7935759713
 20
10.8417274342
 30
0.0
 10
9.7605081417
 20
10.8453928377
 30
0.0
 10
9.7280472944
 20
10.8494047935
 30
0.0
 10
9.6962478082
 20
10.8537565307
 30
0.0
 10
9.6651628086
 20
10.858440732
 30
0.0
 10
9.6348442419
 20
10.8634495272
 30
0.0
 10
9.6053427747
 20
10.8687745011
 30
0.0
 10
9.576707684
 20
10.8744067049
 30
0.0
 10
9.5489867775
 20
10.8803366571
 30
0.0
 10
9.5222263126
 20
10.8865543838
 30
0.0
 10
9.4964709399
 20
10.8930494313
 30
0.0
 10
9.4717635481
 20
10.8998108872
 30
0.0
 10
9.4481454018
 20
10.906827377
 30
0.0
 10
9.4291996902
 20
10.9129429752
 30
0.0
 10
9.4146242978
 20
10.9179622846
 30
0.0
 10
9.4041105849
 20
10.9217413688
 30
0.0
 10
9.3938976845
 20
10.9255752718
 30
0.0
 10
9.3839898286
 20
10.9294623504
 30
0.0
 10
9.3743911593
 20
10.9334010185
 30
0.0
 10
9.3651056732
 20
10.9373896271
 30
0.0
 10
9.3561372231
 20
10.941426474
 30
0.0
 10
9.3474895607
 20
10.9455099405
 30
0.0
 10
9.3391662595
 20
10.949638269
 30
0.0
 10
9.3311707805
 20
10.9538097647
 30
0.0
 10
9.3235064526
 20
10.9580227252
 30
0.0
 10
9.3161764228
 20
10.9622753457
 30
0.0
 10
9.3091837537
 20
10.9665659404
 30
0.0
 10
9.3025313173
 20
10.9708927097
 30
0.0
 10
9.2962218484
 20
10.9752538723
 30
0.0
 10
9.290257986
 20
10.9796477167
 30
0.0
 10
9.2846421408
 20
10.9840723948
 30
0.0
 10
9.2793766613
 20
10.9885261902
 30
0.0
 10
9.2744637268
 20
10.9930073339
 30
0.0
 10
9.2699053373
 20
10.9975140211
 30
0.0
 10
9.2657034757
 20
11.0020445814
 30
0.0
 10
9.2618598728
 20
11.0065972089
 30
0.0
 10
9.2583762244
 20
11.0111701942
 30
0.0
 10
9.2552541535
 20
11.0157618325
 30
0.0
 10
9.2524950559
 20
11.0203703127
 30
0.0
 10
9.2501004256
 20
11.0249939195
 30
0.0
 10
9.2480715252
 20
11.0296307761
 30
0.0
 10
9.2464095374
 20
11.0342789635
 30
0.0
 10
9.2451156591
 20
11.0389364515
 30
0.0
 10
9.244190686
 20
11.0436011423
 30
0.0
 10
9.2436354223
 20
11.0482703878
 30
0.0
 10
9.2435119018
 20
11.0513886021
 30
0.0
 10
9.2435119049
 20
11.0529425082
 30
0.0
  0
SPLINE
  5
38B
100
AcDbEntity
  8
0
100
AcDbSpline
 62
7
  6
CONTINUOUS
 70
0
 71
3
 72
23
 73
19
 74
0
 42
0.0000001
 43
0.0000001
 44
0.0000000001
 40
0.0
 40
0.0
 40
0.0
 40
0.0
 40
0.0637764154
 40
0.1273451281
 40
0.190701988
 40
0.253856063
 40
0.3168132283
 40
0.3795820791
 40
0.4421733864
 40
0.5045993414
 40
0.5668738629
 40
0.629012379
 40
0.6910316532
 40
0.7529496461
 40
0.8147853522
 40
0.8765586034
 40
0.9382898574
 40
1.0
 40
1.0
 40
1.0
 40
1.0
 10
10.0723791819
 20
6.6163671419
 30
0.0
 10
10.0723791819
 20
6.6110597088
 30
0.0
 10
10.0721251184
 20
6.6004603299
 30
0.0
 10
10.0709785553
 20
6.5846257654
 30
0.0
 10
10.0690694541
 20
6.5689166758
 30
0.0
 10
10.0664024139
 20
6.553370047
 30
0.0
 10
10.062983405
 20
6.5380213478
 30
0.0
 10
10.0588203366
 20
6.5229060607
 30
0.0
 10
10.0539227853
 20
6.5080590191
 30
0.0
 10
10.0483019372
 20
6.4935144758
 30
0.0
 10
10.041970773
 20
6.4793059639
 30
0.0
 10
10.0349438823
 20
6.4654662423
 30
0.0
 10
10.0272374104
 20
6.4520272554
 30
0.0
 10
10.0188690876
 20
6.4390200126
 30
0.0
 10
10.0098582718
 20
6.4264745204
 30
0.0
 10
10.0002256241
 20
6.4144196223
 30
0.0
 10
9.989993694
 20
6.4028835415
 30
0.0
 10
9.9827872698
 20
6.3955550818
 30
0.0
 10
9.9790935534
 20
6.3919872246
 30
0.0
  0
SPLINE
  5
38C
100
AcDbEntity
  8
0
100
AcDbSpline
 62
7
  6
CONTINUOUS
 70
0
 71
3
 72
23
 73
19
 74
0
 42
0.0000001
 43
0.0000001
 44
0.0000000001
 40
0.0
 40
0.0
 40
0.0
 40
0.0
 40
0.0637764154
 40
0.1273451281
 40
0.190701988
 40
0.253856063
 40
0.3168132283
 40
0.3795820791
 40
0.4421733864
 40
0.5045993414
 40
0.5668738629
 40
0.629012379
 40
0.6910316532
 40
0.7529496461
 40
0.8147853522
 40
0.8765586034
 40
0.9382898574
 40
1.0
 40
1.0
 40
1.0
 40
1.0
 10
14.1756324176
 20
6.3318055635
 30
0.0
 10
14.1756324176
 20
6.3264981304
 30
0.0
 10
14.175378354
 20
6.3158987515
 30
0.0
 10
14.1742317909
 20
6.300064187
 30
0.0
 10
14.1723226898
 20
6.2843550974
 30
0.0
 10
14.1696556496
 20
6.2688084686
 30
0.0
 10
14.1662366406
 20
6.2534597694
 30
0.0
 10
14.1620735723
 20
6.2383444823
 30
0.0
 10
14.1571760209
 20
6.2234974407
 30
0.0
 10
14.1515551729
 20
6.2089528974
 30
0.0
 10
14.1452240086
 20
6.1947443855
 30
0.0
 10
14.138197118
 20
6.1809046639
 30
0.0
 10
14.130490646
 20
6.167465677
 30
0.0
 10
14.1221223232
 20
6.1544584342
 30
0.0
 10
14.1131115074
 20
6.141912942
 30
0.0
 10
14.1034788597
 20
6.1298580439
 30
0.0
 10
14.0932469297
 20
6.1183219631
 30
0.0
 10
14.0860405055
 20
6.1109935034
 30
0.0
 10
14.082346789
 20
6.1074256462
 30
0.0
  0
SPLINE
  5
38D
100
AcDbEntity
  8
0
100
AcDbSpline
 62
7
  6
CONTINUOUS
 70
0
 71
3
 72
63
 73
59
 74
0
 42
0.0000001
 43
0.0000001
 44
0.0000000001
 40
0.0
 40
0.0
 40
0.0
 40
0.0
 40
0.0417736349
 40
0.0840360487
 40
0.1266571619
 40
0.1695046989
 40
0.2124458529
 40
0.2553473503
 40
0.2980760925
 40
0.3404996594
 40
0.382486839
 40
0.4239081548
 40
0.4646363987
 40
0.5045471706
 40
0.5241582135
 40
0.5435198048
 40
0.5626174303
 40
0.5814368567
 40
0.5999641709
 40
0.618185748
 40
0.6360883436
 40
0.6536590437
 40
0.6708853367
 40
0.6877551251
 40
0.7042567189
 40
0.7203789328
 40
0.7361110261
 40
0.751442819
 40
0.7663646737
 40
0.7808675409
 40
0.7949430485
 40
0.8085834666
 40
0.8217818693
 40
0.8345321082
 40
0.8468289437
 40
0.8586681372
 40
0.8700465022
 40
0.8809621306
 40
0.8914144367
 40
0.9014044339
 40
0.9109349132
 40
0.9200107044
 40
0.9286390713
 40
0.9368300099
 40
0.9445968283
 40
0.9519566244
 40
0.9589309575
 40
0.9655465609
 40
0.971835989
 40
0.9778383113
 40
0.9807467495
 40
0.9836012198
 40
0.986408517
 40
0.9891758243
 40
0.9919106831
 40
0.9946209265
 40
0.9973146208
 40
1.0
 40
1.0
 40
1.0
 40
1.0
 10
14.7050341051
 20
8.0015386653
 30
0.0
 10
14.7050341051
 20
8.0237391972
 30
0.0
 10
14.7053804552
 20
8.0684007195
 30
0.0
 10
14.7069116204
 20
8.1356973866
 30
0.0
 10
14.7094529616
 20
8.203534715
 30
0.0
 10
14.7129961624
 20
8.2716882204
 30
0.0
 10
14.7175295091
 20
8.3399323676
 30
0.0
 10
14.7230380201
 20
8.4080413953
 30
0.0
 10
14.7295034513
 20
8.4757899685
 30
0.0
 10
14.7369043647
 20
8.5429539609
 30
0.0
 10
14.7452162055
 20
8.6093111806
 30
0.0
 10
14.754411375
 20
8.6746421729
 30
0.0
 10
14.7644593468
 20
8.7387307207
 30
0.0
 10
14.7735675989
 20
8.7912268694
 30
0.0
 10
14.7812639996
 20
8.8324372447
 30
0.0
 10
14.7871943819
 20
8.8627238606
 30
0.0
 10
14.7933114456
 20
8.8925439814
 30
0.0
 10
14.799610152
 20
8.9218729561
 30
0.0
 10
14.8060852412
 20
8.9506865166
 30
0.0
 10
14.8127313939
 20
8.9789608249
 30
0.0
 10
14.819543052
 20
9.0066724967
 30
0.0
 10
14.8265146017
 20
9.0337986094
 30
0.0
 10
14.8336402521
 20
9.060316731
 30
0.0
 10
14.8409140769
 20
9.086204936
 30
0.0
 10
14.8483300859
 20
9.1114418172
 30
0.0
 10
14.8558820749
 20
9.1360065214
 30
0.0
 10
14.8635638325
 20
9.1598787431
 30
0.0
 10
14.8713689548
 20
9.1830387669
 30
0.0
 10
14.8792909748
 20
9.2054674671
 30
0.0
 10
14.8873233508
 20
9.2271463259
 30
0.0
 10
14.8954593735
 20
9.2480574695
 30
0.0
 10
14.903692365
 20
9.2681836455
 30
0.0
 10
14.9120154506
 20
9.2875082897
 30
0.0
 10
14.9204217763
 20
9.3060154945
 30
0.0
 10
14.9289043962
 20
9.32369005
 30
0.0
 10
14.9374562733
 20
9.340517468
 30
0.0
 10
14.946070433
 20
9.3564839468
 30
0.0
 10
14.9547397323
 20
9.3715764721
 30
0.0
 10
14.9634571514
 20
9.385782728
 30
0.0
 10
14.9722155823
 20
9.3990911949
 30
0.0
 10
14.9810079642
 20
9.4114911204
 30
0.0
 10
14.9898273535
 20
9.4229724854
 30
0.0
 10
14.9986667628
 20
9.4335261227
 30
0.0
 10
15.007519497
 20
9.4431435111
 30
0.0
 10
15.0163788712
 20
9.451816948
 30
0.0
 10
15.0252385208
 20
9.4595393257
 30
0.0
 10
15.0340922186
 20
9.4663040487
 30
0.0
 10
15.0429341185
 20
9.472105107
 30
0.0
 10
15.0517576829
 20
9.4769362598
 30
0.0
 10
15.0591683992
 20
9.4801831769
 30
0.0
 10
15.0650649827
 20
9.4822695333
 30
0.0
 10
15.0694312338
 20
9.4835729539
 30
0.0
 10
15.0737862672
 20
9.4846308152
 30
0.0
 10
15.078129232
 20
9.4854427975
 30
0.0
 10
15.0824591109
 20
9.4860086898
 30
0.0
 10
15.0867749771
 20
9.4863283001
 30
0.0
 10
15.0910756404
 20
9.4864014497
 30
0.0
 10
15.093933868
 20
9.4862858077
 30
0.0
 10
15.0953575889
 20
9.486187072
 30
0.0
  0
SPLINE
  5
38E
100
AcDbEntity
  8
0
100
AcDbSpline
 62
7
  6
CONTINUOUS
 70
0
 71
3
 72
61
 73
57
 74
0
 42
0.0000001
 43
0.0000001
 44
0.0000000001
 40
0.0
 40
0.0
 40
0.0
 40
0.0
 40
0.0027758433
 40
0.0055595941
 40
0.0083590873
 40
0.0111820092
 40
0.0140358402
 40
0.0169278032
 40
0.0228516385
 40
0.0290063602
 40
0.0354367082
 40
0.0387681006
 40
0.0421822872
 40
0.0492730731
 40
0.0567370731
 40
0.064596108
 40
0.072867737
 40
0.081565694
 40
0.09070057
 40
0.1002800962
 40
0.110309688
 40
0.1207926208
 40
0.131730418
 40
0.1431229861
 40
0.1549688512
 40
0.1672653029
 40
0.1800084954
 40
0.1931936241
 40
0.2068149163
 40
0.2208658417
 40
0.235339028
 40
0.2502264837
 40
0.2655194851
 40
0.2812087772
 40
0.2972844765
 40
0.3137362206
 40
0.3305531169
 40
0.3477238252
 40
0.3652365653
 40
0.3830791312
 40
0.4012389558
 40
0.4197030683
 40
0.4574902793
 40
0.4963311237
 40
0.5361109391
 40
0.5767111052
 40
0.6180096092
 40
0.6598815936
 40
0.7021998921
 40
0.7448355581
 40
0.7876583843
 40
0.8305374341
 40
0.8733415137
 40
0.9159398405
 40
0.9582021223
 40
1.0
 40
1.0
 40
1.0
 40
1.0
 10
11.00351187
 20
11.0529420437
 30
0.0
 10
11.0035118679
 20
11.0518547049
 30
0.0
 10
11.0034515437
 20
11.0496764508
 30
0.0
 10
11.0031802087
 20
11.0464117581
 30
0.0
 10
11.0027280571
 20
11.0431484642
 30
0.0
 10
11.0020952822
 20
11.0398874551
 30
0.0
 10
11.0012820193
 20
11.0366293413
 30
0.0
 10
10.9999468853
 20
11.0322557209
 30
0.0
 10
10.9978102589
 20
11.0267836361
 30
0.0
 10
10.9945482153
 20
11.0202982951
 30
0.0
 10
10.9912735234
 20
11.0149838864
 30
0.0
 10
10.9883142452
 20
11.0107541505
 30
0.0
 10
10.9850424006
 20
11.0064317765
 30
0.0
 10
10.9804933503
 20
11.0010527919
 30
0.0
 10
10.9744013156
 20
10.9947231529
 30
0.0
 10
10.9676138183
 20
10.9884431394
 30
0.0
 10
10.9601365082
 20
10.9822176189
 30
0.0
 10
10.9519753854
 20
10.9760509937
 30
0.0
 10
10.9431368982
 20
10.9699480721
 30
0.0
 10
10.9336281416
 20
10.9639134589
 30
0.0
 10
10.9234566681
 20
10.9579519911
 30
0.0
 10
10.9126306635
 20
10.952068335
 30
0.0
 10
10.9011588161
 20
10.9462672656
 30
0.0
 10
10.8890503946
 20
10.9405534403
 30
0.0
 10
10.8763151949
 20
10.9349315047
 30
0.0
 10
10.8629635431
 20
10.9294060563
 30
0.0
 10
10.8490062973
 20
10.9239815726
 30
0.0
 10
10.8344548074
 20
10.9186625481
 30
0.0
 10
10.819320944
 20
10.9134532745
 30
0.0
 10
10.8036170419
 20
10.9083581032
 30
0.0
 10
10.7873559341
 20
10.9033811355
 30
0.0
 10
10.7705508978
 20
10.8985265408
 30
0.0
 10
10.7532156788
 20
10.8937982315
 30
0.0
 10
10.7353644502
 20
10.8892001605
 30
0.0
 10
10.7170118213
 20
10.8847360523
 30
0.0
 10
10.6981728112
 20
10.8804096163
 30
0.0
 10
10.6788628431
 20
10.8762243844
 30
0.0
 10
10.6590977291
 20
10.8721838049
 30
0.0
 10
10.6388936547
 20
10.8682912058
 30
0.0
 10
10.6182671744
 20
10.8645497686
 30
0.0
 10
10.5972351665
 20
10.8609625838
 30
0.0
 10
10.5684534586
 20
10.8563538647
 30
0.0
 10
10.5315871571
 20
10.851010608
 30
0.0
 10
10.4863443044
 20
10.845306057
 30
0.0
 10
10.4399127047
 20
10.8402795483
 30
0.0
 10
10.3924445365
 20
10.8359476678
 30
0.0
 10
10.3440952305
 20
10.8323247346
 30
0.0
 10
10.295023179
 20
10.8294227129
 30
0.0
 10
10.2453891474
 20
10.8272511857
 30
0.0
 10
10.1953557606
 20
10.8258173226
 30
0.0
 10
10.1450869579
 20
10.8251258557
 30
0.0
 10
10.0947474624
 20
10.8251790707
 30
0.0
 10
10.0445022103
 20
10.8259767845
 30
0.0
 10
9.9945158659
 20
10.8275163793
 30
0.0
 10
9.9449522936
 20
10.829792744
 30
0.0
 10
9.9120849316
 20
10.8318097044
 30
0.0
 10
9.8957513157
 20
10.8329424445
 30
0.0
  0
SPLINE
  5
38F
100
AcDbEntity
  8
0
100
AcDbSpline
 62
7
  6
CONTINUOUS
 70
0
 71
3
 72
48
 73
44
 74
0
 42
0.0000001
 43
0.0000001
 44
0.0000000001
 40
0.0
 40
0.0
 40
0.0
 40
0.0
 40
0.0072739709
 40
0.0148704982
 40
0.0227980075
 40
0.0310632859
 40
0.039671503
 40
0.0486264503
 40
0.057930809
 40
0.0675860502
 40
0.0775928145
 40
0.0879508312
 40
0.0986590304
 40
0.1097157541
 40
0.1211185696
 40
0.1328645785
 40
0.1449503108
 40
0.15737176
 40
0.1701245782
 40
0.1832038596
 40
0.2103200335
 40
0.238674716
 40
0.2682164455
 40
0.2988890874
 40
0.3306322931
 40
0.3633819037
 40
0.3970703544
 40
0.4316270114
 40
0.4669784774
 40
0.5030488661
 40
0.5397600858
 40
0.5770321295
 40
0.6147833334
 40
0.6529306279
 40
0.6913897816
 40
0.7300756594
 40
0.7689024931
 40
0.8077840853
 40
0.846634092
 40
0.8853663969
 40
0.9238944839
 40
0.9621346801
 40
1.0
 40
1.0
 40
1.0
 40
1.0
 10
10.634131035
 20
10.9852766642
 30
0.0
 10
10.6329506679
 20
10.9841782146
 30
0.0
 10
10.6304833172
 20
10.9819903639
 30
0.0
 10
10.6265600841
 20
10.9788027996
 30
0.0
 10
10.6223380669
 20
10.9756411245
 30
0.0
 10
10.6178197933
 20
10.9725072961
 30
0.0
 10
10.6130078833
 20
10.969403046
 30
0.0
 10
10.6079051666
 20
10.9663301404
 30
0.0
 10
10.6025145928
 20
10.9632904339
 30
0.0
 10
10.5968393598
 20
10.9602856202
 30
0.0
 10
10.5908827765
 20
10.9573175224
 30
0.0
 10
10.5846483569
 20
10.9543878765
 30
0.0
 10
10.5781397858
 20
10.9514983785
 30
0.0
 10
10.5713608856
 20
10.9486508091
 30
0.0
 10
10.5643156847
 20
10.9458467857
 30
0.0
 10
10.5570083397
 20
10.9430880203
 30
0.0
 10
10.5494431803
 20
10.9403761496
 30
0.0
 10
10.5416246993
 20
10.9377127533
 30
0.0
 10
10.5335575121
 20
10.9350994633
 30
0.0
 10
10.5223409265
 20
10.9316423108
 30
0.0
 10
10.5077286381
 20
10.9274663935
 30
0.0
 10
10.4894853528
 20
10.9227372959
 30
0.0
 10
10.4703720718
 20
10.9182432376
 30
0.0
 10
10.450434196
 20
10.9139949851
 30
0.0
 10
10.4297189772
 20
10.910002733
 30
0.0
 10
10.4082756015
 20
10.9062760418
 30
0.0
 10
10.3861549985
 20
10.9028238421
 30
0.0
 10
10.3634097256
 20
10.8996544057
 30
0.0
 10
10.3400938395
 20
10.8967753309
 30
0.0
 10
10.3162627721
 20
10.8941935131
 30
0.0
 10
10.2919731944
 20
10.8919151256
 30
0.0
 10
10.2672828735
 20
10.8899456207
 30
0.0
 10
10.2422505322
 20
10.8882897127
 30
0.0
 10
10.2169357123
 20
10.8869513711
 30
0.0
 10
10.1913986351
 20
10.8859337958
 30
0.0
 10
10.165700052
 20
10.885239414
 30
0.0
 10
10.1399011019
 20
10.8848698872
 30
0.0
 10
10.1140631637
 20
10.8848261006
 30
0.0
 10
10.0882476805
 20
10.8851081632
 30
0.0
 10
10.0625161791
 20
10.8857154112
 30
0.0
 10
10.0369295947
 20
10.8866463511
 30
0.0
 10
10.0115491799
 20
10.8878988163
 30
0.0
 10
9.9947113298
 20
10.8889520489
 30
0.0
 10
9.9863379067
 20
10.8895327477
 30
0.0
  0
SPLINE
  5
390
100
AcDbEntity
  8
0
100
AcDbSpline
 62
7
  6
CONTINUOUS
 70
0
 71
3
 72
35
 73
31
 74
0
 42
0.0000001
 43
0.0000001
 44
0.0000000001
 40
0.0
 40
0.0
 40
0.0
 40
0.0
 40
0.0165870136
 40
0.0341534999
 40
0.0527299606
 40
0.0723382006
 40
0.0929927792
 40
0.114702082
 40
0.1374691495
 40
0.1612925617
 40
0.1861667833
 40
0.2120829741
 40
0.2390289852
 40
0.2669901473
 40
0.2959490377
 40
0.3258862467
 40
0.356780026
 40
0.3886069983
 40
0.4213417864
 40
0.4549576221
 40
0.4894260319
 40
0.5247173094
 40
0.560800303
 40
0.5976427469
 40
0.6352111758
 40
0.6734710674
 40
0.7519211576
 40
0.8326996299
 40
0.9154984376
 40
1.0
 40
1.0
 40
1.0
 40
1.0
 10
9.612891846
 20
10.9852774856
 30
0.0
 10
9.6144721673
 20
10.9838068207
 30
0.0
 10
9.6178240784
 20
10.9808827176
 30
0.0
 10
9.623240625
 20
10.976663987
 30
0.0
 10
9.6291815358
 20
10.9724934606
 30
0.0
 10
9.635640502
 20
10.9683754257
 30
0.0
 10
9.6426110403
 20
10.9643139045
 30
0.0
 10
9.6500860088
 20
10.9603130443
 30
0.0
 10
9.658057726
 20
10.9563769078
 30
0.0
 10
9.66651798
 20
10.9525096165
 30
0.0
 10
9.6754579935
 20
10.9487151337
 30
0.0
 10
9.6848684971
 20
10.9449975001
 30
0.0
 10
9.694739675
 20
10.9413605326
 30
0.0
 10
9.7050612441
 20
10.9378081419
 30
0.0
 10
9.7158224056
 20
10.9343439753
 30
0.0
 10
9.7270119133
 20
10.9309717746
 30
0.0
 10
9.7386180404
 20
10.9276950047
 30
0.0
 10
9.7506286313
 20
10.9245172065
 30
0.0
 10
9.7630310865
 20
10.9214416538
 30
0.0
 10
9.7758123979
 20
10.918471661
 30
0.0
 10
9.7889591495
 20
10.9156103017
 30
0.0
 10
9.8024575394
 20
10.9128606439
 30
0.0
 10
9.8162933936
 20
10.9102255498
 30
0.0
 10
9.8304521767
 20
10.9077078289
 30
0.0
 10
9.8449190303
 20
10.9053101064
 30
0.0
 10
9.8647640261
 20
10.902251105
 30
0.0
 10
9.8902299018
 20
10.8987543378
 30
0.0
 10
9.9215195406
 20
10.8951079161
 30
0.0
 10
9.9536577195
 20
10.8919925767
 30
0.0
 10
9.975366552
 20
10.8902936138
 30
0.0
 10
9.9863379067
 20
10.8895327477
 30
0.0
  0
SPLINE
  5
391
100
AcDbEntity
  8
0
100
AcDbSpline
 62
7
  6
CONTINUOUS
 70
0
 71
3
 72
42
 73
38
 74
0
 42
0.0000001
 43
0.0000001
 44
0.0000000001
 40
0.0
 40
0.0
 40
0.0
 40
0.0
 40
0.0149723971
 40
0.029947854
 40
0.0449294092
 40
0.0599200692
 40
0.0749227779
 40
0.0899404136
 40
0.1200256609
 40
0.1502025864
 40
0.1804899033
 40
0.2109037105
 40
0.2414571471
 40
0.2721601282
 40
0.3030191646
 40
0.3340372675
 40
0.3652139349
 40
0.3965452155
 40
0.4280238444
 40
0.459639443
 40
0.4913787765
 40
0.5232260611
 40
0.5551633129
 40
0.5871707307
 40
0.6192271064
 40
0.6513102549
 40
0.683397459
 40
0.7154659208
 40
0.7474932143
 40
0.7794577337
 40
0.8113391302
 40
0.8431187274
 40
0.8747799267
 40
0.906308519
 40
0.9376931951
 40
0.9689252215
 40
1.0
 40
1.0
 40
1.0
 40
1.0
 10
9.5011078026
 20
6.8868342442
 30
0.0
 10
9.5039614971
 20
6.8895907023
 30
0.0
 10
9.5097797057
 20
6.8949913609
 30
0.0
 10
9.5188230629
 20
6.9027399331
 30
0.0
 10
9.5281708808
 20
6.910126483
 30
0.0
 10
9.5378101407
 20
6.9171405455
 30
0.0
 10
9.5477277934
 20
6.9237726802
 30
0.0
 10
9.5613103144
 20
6.9320979276
 30
0.0
 10
9.5789254749
 20
6.9415081032
 30
0.0
 10
9.6009334517
 20
6.9511285745
 30
0.0
 10
9.6237067636
 20
6.9590339404
 30
0.0
 10
9.6471190584
 20
6.965180378
 30
0.0
 10
9.6710415806
 20
6.969534487
 30
0.0
 10
9.6953425548
 20
6.9720725763
 30
0.0
 10
9.7198882748
 20
6.9727810128
 30
0.0
 10
9.7445437411
 20
6.9716562142
 30
0.0
 10
9.769173426
 20
6.9687046703
 30
0.0
 10
9.7936420039
 20
6.9639428881
 30
0.0
 10
9.8178150875
 20
6.957397291
 30
0.0
 10
9.8415599561
 20
6.9491040672
 30
0.0
 10
9.8647462768
 20
6.9391089709
 30
0.0
 10
9.8872468076
 20
6.9274670579
 30
0.0
 10
9.9089380863
 20
6.9142423842
 30
0.0
 10
9.929701098
 20
6.899507654
 30
0.0
 10
9.9494219203
 20
6.8833438231
 30
0.0
 10
9.96799234
 20
6.8658396573
 30
0.0
 10
9.9853104406
 20
6.8470912498
 30
0.0
 10
10.0012811549
 20
6.8272014988
 30
0.0
 10
10.0158167828
 20
6.8062795495
 30
0.0
 10
10.0288374752
 20
6.7844402062
 30
0.0
 10
10.0402716602
 20
6.7618032994
 30
0.0
 10
10.0500564423
 20
6.7384930526
 30
0.0
 10
10.0581379223
 20
6.7146373561
 30
0.0
 10
10.0644715606
 20
6.6903672636
 30
0.0
 10
10.0690222669
 20
6.6658155882
 30
0.0
 10
10.0717649018
 20
6.6411188964
 30
0.0
 10
10.0723791819
 20
6.6246017247
 30
0.0
 10
10.0723791819
 20
6.6163671419
 30
0.0
  0
SPLINE
  5
392
100
AcDbEntity
  8
0
100
AcDbSpline
 62
7
  6
CONTINUOUS
 70
0
 71
3
 72
42
 73
38
 74
0
 42
0.0000001
 43
0.0000001
 44
0.0000000001
 40
0.0
 40
0.0
 40
0.0
 40
0.0
 40
0.0149723971
 40
0.029947854
 40
0.0449294092
 40
0.0599200692
 40
0.0749227779
 40
0.0899404136
 40
0.1200256609
 40
0.1502025864
 40
0.1804899033
 40
0.2109037105
 40
0.2414571471
 40
0.2721601282
 40
0.3030191646
 40
0.3340372675
 40
0.3652139349
 40
0.3965452155
 40
0.4280238444
 40
0.459639443
 40
0.4913787765
 40
0.5232260611
 40
0.5551633129
 40
0.5871707307
 40
0.6192271064
 40
0.6513102549
 40
0.683397459
 40
0.7154659208
 40
0.7474932143
 40
0.7794577337
 40
0.8113391302
 40
0.8431187274
 40
0.8747799267
 40
0.906308519
 40
0.9376931951
 40
0.9689252215
 40
1.0
 40
1.0
 40
1.0
 40
1.0
 10
13.6043610383
 20
6.6022726659
 30
0.0
 10
13.6072147328
 20
6.6050291239
 30
0.0
 10
13.6130329413
 20
6.6104297825
 30
0.0
 10
13.6220762986
 20
6.6181783547
 30
0.0
 10
13.6314241164
 20
6.6255649046
 30
0.0
 10
13.6410633763
 20
6.6325789671
 30
0.0
 10
13.650981029
 20
6.6392111018
 30
0.0
 10
13.66456355
 20
6.6475363492
 30
0.0
 10
13.6821787105
 20
6.6569465248
 30
0.0
 10
13.7041866874
 20
6.6665669961
 30
0.0
 10
13.7269599992
 20
6.674472362
 30
0.0
 10
13.750372294
 20
6.6806187996
 30
0.0
 10
13.7742948162
 20
6.6849729086
 30
0.0
 10
13.7985957905
 20
6.6875109979
 30
0.0
 10
13.8231415104
 20
6.6882194344
 30
0.0
 10
13.8477969768
 20
6.6870946359
 30
0.0
 10
13.8724266617
 20
6.684143092
 30
0.0
 10
13.8968952395
 20
6.6793813097
 30
0.0
 10
13.9210683231
 20
6.6728357126
 30
0.0
 10
13.9448131917
 20
6.6645424888
 30
0.0
 10
13.9679995124
 20
6.6545473925
 30
0.0
 10
13.9905000433
 20
6.6429054795
 30
0.0
 10
14.0121913219
 20
6.6296808058
 30
0.0
 10
14.0329543337
 20
6.6149460757
 30
0.0
 10
14.0526751559
 20
6.5987822447
 30
0.0
 10
14.0712455757
 20
6.5812780789
 30
0.0
 10
14.0885636762
 20
6.5625296714
 30
0.0
 10
14.1045343906
 20
6.5426399204
 30
0.0
 10
14.1190700185
 20
6.5217179711
 30
0.0
 10
14.1320907108
 20
6.4998786278
 30
0.0
 10
14.1435248958
 20
6.477241721
 30
0.0
 10
14.1533096779
 20
6.4539314742
 30
0.0
 10
14.1613911579
 20
6.4300757777
 30
0.0
 10
14.1677247963
 20
6.4058056852
 30
0.0
 10
14.1722755025
 20
6.3812540098
 30
0.0
 10
14.1750181375
 20
6.356557318
 30
0.0
 10
14.1756324176
 20
6.3400401463
 30
0.0
 10
14.1756324176
 20
6.3318055635
 30
0.0
  0
SPLINE
  5
393
100
AcDbEntity
  8
0
100
AcDbSpline
 62
7
  6
CONTINUOUS
 70
0
 71
3
 72
56
 73
52
 74
0
 42
0.0000001
 43
0.0000001
 44
0.0000000001
 40
0.0
 40
0.0
 40
0.0
 40
0.0
 40
0.0063157967
 40
0.0126705023
 40
0.0191022499
 40
0.0256477076
 40
0.0323414977
 40
0.0392157442
 40
0.0462998717
 40
0.0536203936
 40
0.0612010177
 40
0.0690626689
 40
0.0772236628
 40
0.0856999524
 40
0.0945052156
 40
0.1036512173
 40
0.1131478646
 40
0.1230034852
 40
0.1332249877
 40
0.1438179332
 40
0.1547868208
 40
0.1661350265
 40
0.1778650648
 40
0.1899785931
 40
0.2024764841
 40
0.2153589958
 40
0.2286256652
 40
0.2422755464
 40
0.2563071086
 40
0.2707183485
 40
0.2855068518
 40
0.3006697107
 40
0.316203721
 40
0.3321052322
 40
0.3483703015
 40
0.3649946632
 40
0.3993020867
 40
0.4349880912
 40
0.4720085479
 40
0.5103155846
 40
0.5498579056
 40
0.5905810854
 40
0.632427837
 40
0.6753382398
 40
0.71924996
 40
0.7640984402
 40
0.8098170543
 40
0.8563374841
 40
0.9035891491
 40
0.9515015246
 40
1.0
 40
1.0
 40
1.0
 40
1.0
 10
14.9306994402
 20
7.1118898027
 30
0.0
 10
14.9286881178
 20
7.1120292889
 30
0.0
 10
14.9246625851
 20
7.1124737341
 30
0.0
 10
14.9186694045
 20
7.11363227
 30
0.0
 10
14.9127162865
 20
7.1152825162
 30
0.0
 10
14.9068066663
 20
7.1174232872
 30
0.0
 10
14.9009431144
 20
7.1200531524
 30
0.0
 10
14.8951281073
 20
7.1231703522
 30
0.0
 10
14.8893640286
 20
7.1267732111
 30
0.0
 10
14.8836529939
 20
7.1308596976
 30
0.0
 10
14.8779971687
 20
7.1354278887
 30
0.0
 10
14.8723985986
 20
7.1404756489
 30
0.0
 10
14.8668592926
 20
7.146000736
 30
0.0
 10
14.8613813626
 20
7.1520008613
 30
0.0
 10
14.855966752
 20
7.1584734534
 30
0.0
 10
14.8506175974
 20
7.1654159226
 30
0.0
 10
14.8453358896
 20
7.1728253985
 30
0.0
 10
14.8401236909
 20
7.1806988857
 30
0.0
 10
14.8349830875
 20
7.1890332096
 30
0.0
 10
14.8299160425
 20
7.1978249568
 30
0.0
 10
14.8249246743
 20
7.2070705987
 30
0.0
 10
14.8200109126
 20
7.2167663428
 30
0.0
 10
14.8151767934
 20
7.22690826
 30
0.0
 10
14.8104242816
 20
7.237492211
 30
0.0
 10
14.8057552753
 20
7.2485138624
 30
0.0
 10
14.8011717583
 20
7.2599687255
 30
0.0
 10
14.7966755307
 20
7.271852089
 30
0.0
 10
14.7922685062
 20
7.2841590966
 30
0.0
 10
14.7879524657
 20
7.2968846903
 30
0.0
 10
14.7837291812
 20
7.3100236445
 30
0.0
 10
14.779600438
 20
7.3235705663
 30
0.0
 10
14.7755678752
 20
7.3375198765
 30
0.0
 10
14.7716332258
 20
7.3518658467
 30
0.0
 10
14.7677980679
 20
7.3666025619
 30
0.0
 10
14.7640639888
 20
7.3817239729
 30
0.0
 10
14.7591707897
 20
7.4026096982
 30
0.0
 10
14.7533308061
 20
7.4296389373
 30
0.0
 10
14.746821194
 20
7.463176668
 30
0.0
 10
14.7407494422
 20
7.4980929616
 30
0.0
 10
14.7351256577
 20
7.5343302483
 30
0.0
 10
14.7299592151
 20
7.5718289267
 30
0.0
 10
14.7252587195
 20
7.6105272257
 30
0.0
 10
14.7210320042
 20
7.6503613865
 30
0.0
 10
14.7172861136
 20
7.6912657562
 30
0.0
 10
14.7140272932
 20
7.7331729034
 30
0.0
 10
14.7112609831
 20
7.7760137182
 30
0.0
 10
14.7089917856
 20
7.8197175794
 30
0.0
 10
14.7072235108
 20
7.8642122824
 30
0.0
 10
14.7059590643
 20
7.909424698
 30
0.0
 10
14.7052006384
 20
7.9552798622
 30
0.0
 10
14.7050341051
 20
7.9860567924
 30
0.0
 10
14.7050341051
 20
8.0015386653
 30
0.0
  0
SPLINE
  5
394
100
AcDbEntity
  8
0
100
AcDbSpline
 62
7
  6
CONTINUOUS
 70
0
 71
3
 72
36
 73
32
 74
0
 42
0.0000001
 43
0.0000001
 44
0.0000000001
 40
0.0
 40
0.0
 40
0.0
 40
0.0
 40
0.0162142881
 40
0.0334272556
 40
0.0516715242
 40
0.0709705633
 40
0.0913399709
 40
0.1127889887
 40
0.1353211795
 40
0.1589354279
 40
0.1836265232
 40
0.2093855547
 40
0.2362005865
 40
0.2640566891
 40
0.2929365005
 40
0.322820313
 40
0.3536862669
 40
0.3855106858
 40
0.4182679638
 40
0.4519309768
 40
0.4864709887
 40
0.5218578435
 40
0.5580601152
 40
0.5950450205
 40
0.6327787347
 40
0.671226259
 40
0.7103515995
 40
0.7501178198
 40
0.8314200868
 40
0.9148214071
 40
1.0
 40
1.0
 40
1.0
 40
1.0
 10
14.8731958583
 20
7.5049531782
 30
0.0
 10
14.8711302991
 20
7.5074928783
 30
0.0
 10
14.8670458127
 20
7.5128717592
 30
0.0
 10
14.8612208712
 20
7.5215321162
 30
0.0
 10
14.8555239568
 20
7.531011461
 30
0.0
 10
14.8499609939
 20
7.5412997866
 30
0.0
 10
14.8445372677
 20
7.5523867674
 30
0.0
 10
14.8392583827
 20
7.5642610807
 30
0.0
 10
14.8341296814
 20
7.5769105207
 30
0.0
 10
14.8291565035
 20
7.59032203
 30
0.0
 10
14.8243440737
 20
7.6044817053
 30
0.0
 10
14.8196973819
 20
7.6193748006
 30
0.0
 10
14.8152214035
 20
7.6349857875
 30
0.0
 10
14.8109207985
 20
7.6512983319
 30
0.0
 10
14.8068001544
 20
7.6682953523
 30
0.0
 10
14.8028638369
 20
7.6859590223
 30
0.0
 10
14.7991159802
 20
7.7042707971
 30
0.0
 10
14.7955606188
 20
7.7232114403
 30
0.0
 10
14.7922014587
 20
7.7427610379
 30
0.0
 10
14.7890421104
 20
7.7628990273
 30
0.0
 10
14.7860859066
 20
7.7836042189
 30
0.0
 10
14.7833359679
 20
7.8048548197
 30
0.0
 10
14.7807952539
 20
7.8266284555
 30
0.0
 10
14.778466404
 20
7.8489021991
 30
0.0
 10
14.7763519384
 20
7.8716525916
 30
0.0
 10
14.774454074
 20
7.8948556633
 30
0.0
 10
14.7727748083
 20
7.9184869877
 30
0.0
 10
14.7708153311
 20
7.9507707755
 30
0.0
 10
14.7689363945
 20
7.9920128303
 30
0.0
 10
14.7675922926
 20
8.0424481365
 30
0.0
 10
14.7672992547
 20
8.0764848447
 30
0.0
 10
14.7672992547
 20
8.0936821864
 30
0.0
  0
SPLINE
  5
395
100
AcDbEntity
  8
0
100
AcDbSpline
 62
7
  6
CONTINUOUS
 70
0
 71
3
 72
11
 73
7
 74
0
 42
0.0000001
 43
0.0000001
 44
0.0000000001
 40
0.0
 40
0.0
 40
0.0
 40
0.0
 40
0.247615864
 40
0.49619268
 40
0.7466789575
 40
1.0
 40
1.0
 40
1.0
 40
1.0
 10
14.8529567649
 20
7.5583380751
 30
0.0
 10
14.8519518941
 20
7.5584077575
 30
0.0
 10
14.8499421673
 20
7.5586124556
 30
0.0
 10
14.8469444217
 20
7.5591141185
 30
0.0
 10
14.8439620016
 20
7.5598103412
 30
0.0
 10
14.8419976571
 20
7.5604001166
 30
0.0
 10
14.8410200708
 20
7.56072606
 30
0.0
  0
SPLINE
  5
396
100
AcDbEntity
  8
0
100
AcDbSpline
 62
7
  6
CONTINUOUS
 70
0
 71
3
 72
51
 73
47
 74
0
 42
0.0000001
 43
0.0000001
 44
0.0000000001
 40
0.0
 40
0.0
 40
0.0
 40
0.0
 40
0.0070628459
 40
0.0144558381
 40
0.022188189
 40
0.0302671581
 40
0.0386983641
 40
0.0474858712
 40
0.0566325421
 40
0.066139989
 40
0.0760089136
 40
0.0862390245
 40
0.0968292859
 40
0.1077778969
 40
0.1190823963
 40
0.130739751
 40
0.1427463135
 40
0.1550980115
 40
0.1677902029
 40
0.1808179085
 40
0.194175648
 40
0.2078576327
 40
0.2218576665
 40
0.2361692346
 40
0.2507855137
 40
0.2656993412
 40
0.2963893615
 40
0.3281771683
 40
0.3609962955
 40
0.394776753
 40
0.4294453738
 40
0.4649261365
 40
0.5011404682
 40
0.5380075344
 40
0.5754445195
 40
0.6133668997
 40
0.6516887108
 40
0.6903228125
 40
0.7291811519
 40
0.7681750214
 40
0.807215332
 40
0.8462128198
 40
0.8850784743
 40
0.9237233015
 40
0.9620598207
 40
1.0
 40
1.0
 40
1.0
 40
1.0
 10
14.9841472008
 20
9.1048239611
 30
0.0
 10
14.9823380517
 20
9.1031402034
 30
0.0
 10
14.9787216232
 20
9.0996001778
 30
0.0
 10
14.9734214357
 20
9.0939235114
 30
0.0
 10
14.9681269847
 20
9.0877645292
 30
0.0
 10
14.9628414708
 20
9.0811270972
 30
0.0
 10
14.9575679797
 20
9.0740150817
 30
0.0
 10
14.9523095424
 20
9.0664327884
 30
0.0
 10
14.9470693809
 20
9.0583846949
 30
0.0
 10
14.9418505234
 20
9.0498756774
 30
0.0
 10
14.9366562031
 20
9.0409108063
 30
0.0
 10
14.9314894768
 20
9.0314955128
 30
0.0
 10
14.9263535232
 20
9.0216354577
 30
0.0
 10
14.9212514363
 20
9.011336609
 30
0.0
 10
14.9161863076
 20
9.0006052
 30
0.0
 10
14.9111612561
 20
8.9894477242
 30
0.0
 10
14.9061792817
 20
8.977870962
 30
0.0
 10
14.9012434975
 20
8.965881923
 30
0.0
 10
14.8963568291
 20
8.9534879062
 30
0.0
 10
14.8915223397
 20
8.9406964275
 30
0.0
 10
14.8867429075
 20
8.9275152771
 30
0.0
 10
14.8820215035
 20
8.9139524629
 30
0.0
 10
14.8773609766
 20
8.9000162415
 30
0.0
 10
14.8727641842
 20
8.8857150952
 30
0.0
 10
14.8682339284
 20
8.8710577177
 30
0.0
 10
14.86222874
 20
8.8508587764
 30
0.0
 10
14.8549186972
 20
8.8247808844
 30
0.0
 10
14.8465364253
 20
8.7925031313
 30
0.0
 10
14.8384830493
 20
8.7590285235
 30
0.0
 10
14.8307782853
 20
8.7244386167
 30
0.0
 10
14.8234410043
 20
8.688817563
 30
0.0
 10
14.8164891668
 20
8.6522520967
 30
0.0
 10
14.8099397855
 20
8.6148312615
 30
0.0
 10
14.8038088821
 20
8.5766462055
 30
0.0
 10
14.7981114502
 20
8.5377899513
 30
0.0
 10
14.7928614188
 20
8.4983571681
 30
0.0
 10
14.7880716192
 20
8.4584439389
 30
0.0
 10
14.7837537519
 20
8.4181475246
 30
0.0
 10
14.7799183605
 20
8.3775661257
 30
0.0
 10
14.7765748037
 20
8.3367986368
 30
0.0
 10
14.7737312407
 20
8.2959444197
 30
0.0
 10
14.7713945916
 20
8.2551030111
 30
0.0
 10
14.7695705653
 20
8.2143740211
 30
0.0
 10
14.768263556
 20
8.1738565324
 30
0.0
 10
14.7674767801
 20
8.1336495582
 30
0.0
 10
14.7672992547
 20
8.1069583106
 30
0.0
 10
14.7672992547
 20
8.0936821864
 30
0.0
  0
SPLINE
  5
397
100
AcDbEntity
  8
0
100
AcDbSpline
 62
7
  6
CONTINUOUS
 70
0
 71
3
 72
11
 73
7
 74
0
 42
0.0000001
 43
0.0000001
 44
0.0000000001
 40
0.0
 40
0.0
 40
0.0
 40
0.0
 40
0.2475453865
 40
0.496080117
 40
0.7465808856
 40
1.0
 40
1.0
 40
1.0
 40
1.0
 10
14.9567328634
 20
9.0547439299
 30
0.0
 10
14.9557129314
 20
9.0548146567
 30
0.0
 10
14.9536637254
 20
9.0548894514
 30
0.0
 10
14.950579482
 20
9.0548007176
 30
0.0
 10
14.9474832397
 20
9.054511248
 30
0.0
 10
14.9454258668
 20
9.0541867136
 30
0.0
 10
14.9443974698
 20
9.0539921491
 30
0.0
  0
SPLINE
  5
398
100
AcDbEntity
  8
0
100
AcDbSpline
 62
7
  6
CONTINUOUS
 70
0
 71
3
 72
53
 73
49
 74
0
 42
0.0000001
 43
0.0000001
 44
0.0000000001
 40
0.0
 40
0.0
 40
0.0
 40
0.0
 40
0.0417980102
 40
0.084061146
 40
0.1266596798
 40
0.1694642645
 40
0.2123437092
 40
0.2551669658
 40
0.2978030491
 40
0.340121765
 40
0.3819941616
 40
0.4232930719
 40
0.4638936358
 40
0.5036738378
 40
0.5425150561
 40
0.5803026285
 40
0.616926442
 40
0.6522815588
 40
0.686268895
 40
0.7187959727
 40
0.7344854186
 40
0.7497785602
 40
0.7646661501
 40
0.7791394797
 40
0.7931905193
 40
0.8068119563
 40
0.8199971819
 40
0.8327405154
 40
0.8450370521
 40
0.8568830467
 40
0.8682756951
 40
0.8792136024
 40
0.8896966181
 40
0.8997262966
 40
0.9093059115
 40
0.9184408512
 40
0.9271389013
 40
0.9354105761
 40
0.9432697026
 40
0.9507337391
 40
0.9578246072
 40
0.9645690399
 40
0.9709994555
 40
0.9771542211
 40
0.9830781111
 40
0.9888220421
 40
0.9944424647
 40
1.0
 40
1.0
 40
1.0
 40
1.0
 10
10.2451567383
 20
11.0815770032
 30
0.0
 10
10.2364331563
 20
11.0821819857
 30
0.0
 10
10.2188789544
 20
11.0832592222
 30
0.0
 10
10.1924074992
 20
11.0844750218
 30
0.0
 10
10.1657101681
 20
11.0852972933
 30
0.0
 10
10.1388746547
 20
11.0857233517
 30
0.0
 10
10.1119887602
 20
11.0857517678
 30
0.0
 10
10.0851406402
 20
11.0853824623
 30
0.0
 10
10.0584182479
 20
11.084616647
 30
0.0
 10
10.0319091497
 20
11.0834568529
 30
0.0
 10
10.0057001992
 20
11.0819069077
 30
0.0
 10
9.9798772626
 20
11.0799719296
 30
0.0
 10
9.9545249307
 20
11.077658309
 30
0.0
 10
9.9297262387
 20
11.0749736894
 30
0.0
 10
9.9055623905
 20
11.0719269438
 30
0.0
 10
9.8821124818
 20
11.0685281469
 30
0.0
 10
9.8594532517
 20
11.0647885404
 30
0.0
 10
9.8376587585
 20
11.0607205059
 30
0.0
 10
9.8168003474
 20
11.0563374932
 30
0.0
 10
9.8000598451
 20
11.0523886809
 30
0.0
 10
9.7871926328
 20
11.0490744404
 30
0.0
 10
9.7779340438
 20
11.0465490769
 30
0.0
 10
9.7689586307
 20
11.0439562773
 30
0.0
 10
9.7602737206
 20
11.0412981316
 30
0.0
 10
9.7518864139
 20
11.0385768273
 30
0.0
 10
9.7438035538
 20
11.0357946209
 30
0.0
 10
9.736031743
 20
11.0329537493
 30
0.0
 10
9.7285773024
 20
11.0300566076
 30
0.0
 10
9.7214463172
 20
11.027105484
 30
0.0
 10
9.7146445605
 20
11.0241028835
 30
0.0
 10
9.7081775746
 20
11.0210511554
 30
0.0
 10
9.7020505661
 20
11.0179528707
 30
0.0
 10
9.6962685047
 20
11.014810452
 30
0.0
 10
9.6908360211
 20
11.0116264825
 30
0.0
 10
9.6857574824
 20
11.0084034585
 30
0.0
 10
9.6810369457
 20
11.0051439196
 30
0.0
 10
9.6766781556
 20
11.0018504099
 30
0.0
 10
9.6726846202
 20
10.9985253698
 30
0.0
 10
9.6690594766
 20
10.9951713344
 30
0.0
 10
9.6658057531
 20
10.9917906027
 30
0.0
 10
9.6629260768
 20
10.9883856333
 30
0.0
 10
9.660423137
 20
10.984958609
 30
0.0
 10
9.6582992697
 20
10.9815119386
 30
0.0
 10
9.6565570033
 20
10.9780479067
 30
0.0
 10
9.6551985908
 20
10.9745692259
 30
0.0
 10
9.6542263247
 20
10.9710786823
 30
0.0
 10
9.6536420892
 20
10.9675803382
 30
0.0
 10
9.6535118847
 20
10.9652397816
 30
0.0
 10
9.6535118933
 20
10.9640770932
 30
0.0
  0
SPLINE
  5
399
100
AcDbEntity
  8
0
100
AcDbSpline
 62
7
  6
CONTINUOUS
 70
0
 71
3
 72
23
 73
19
 74
0
 42
0.0000001
 43
0.0000001
 44
0.0000000001
 40
0.0
 40
0.0
 40
0.0
 40
0.0
 40
0.0637764154
 40
0.1273451281
 40
0.190701988
 40
0.253856063
 40
0.3168132283
 40
0.3795820791
 40
0.4421733864
 40
0.5045993414
 40
0.5668738629
 40
0.629012379
 40
0.6910316532
 40
0.7529496461
 40
0.8147853522
 40
0.8765586034
 40
0.9382898574
 40
1.0
 40
1.0
 40
1.0
 40
1.0
 10
9.4078221741
 20
6.6624543269
 30
0.0
 10
9.4078221741
 20
6.66776176
 30
0.0
 10
9.4080762376
 20
6.678361139
 30
0.0
 10
9.4092228007
 20
6.6941957034
 30
0.0
 10
9.4111319018
 20
6.7099047931
 30
0.0
 10
9.413798942
 20
6.7254514219
 30
0.0
 10
9.417217951
 20
6.740800121
 30
0.0
 10
9.4213810193
 20
6.7559154081
 30
0.0
 10
9.4262785707
 20
6.7707624497
 30
0.0
 10
9.4318994188
 20
6.7853069931
 30
0.0
 10
9.438230583
 20
6.799515505
 30
0.0
 10
9.4452574736
 20
6.8133552266
 30
0.0
 10
9.4529639456
 20
6.8267942135
 30
0.0
 10
9.4613322684
 20
6.8398014563
 30
0.0
 10
9.4703430842
 20
6.8523469484
 30
0.0
 10
9.4799757319
 20
6.8644018466
 30
0.0
 10
9.490207662
 20
6.8759379274
 30
0.0
 10
9.4974140862
 20
6.883266387
 30
0.0
 10
9.5011078026
 20
6.8868342442
 30
0.0
  0
SPLINE
  5
39A
100
AcDbEntity
  8
0
100
AcDbSpline
 62
7
  6
CONTINUOUS
 70
0
 71
3
 72
42
 73
38
 74
0
 42
0.0000001
 43
0.0000001
 44
0.0000000001
 40
0.0
 40
0.0
 40
0.0
 40
0.0
 40
0.0149723971
 40
0.029947854
 40
0.0449294092
 40
0.0599200692
 40
0.0749227779
 40
0.0899404136
 40
0.1200256609
 40
0.1502025864
 40
0.1804899033
 40
0.2109037105
 40
0.2414571471
 40
0.2721601282
 40
0.3030191646
 40
0.3340372675
 40
0.3652139349
 40
0.3965452155
 40
0.4280238444
 40
0.459639443
 40
0.4913787765
 40
0.5232260611
 40
0.5551633129
 40
0.5871707307
 40
0.6192271064
 40
0.6513102549
 40
0.683397459
 40
0.7154659208
 40
0.7474932143
 40
0.7794577337
 40
0.8113391302
 40
0.8431187274
 40
0.8747799267
 40
0.906308519
 40
0.9376931951
 40
0.9689252215
 40
1.0
 40
1.0
 40
1.0
 40
1.0
 10
9.9790935534
 20
6.3919872246
 30
0.0
 10
9.9762398589
 20
6.3892307665
 30
0.0
 10
9.9704216503
 20
6.383830108
 30
0.0
 10
9.961378293
 20
6.3760815357
 30
0.0
 10
9.9520304752
 20
6.3686949858
 30
0.0
 10
9.9423912153
 20
6.3616809233
 30
0.0
 10
9.9324735626
 20
6.3550487886
 30
0.0
 10
9.9188910416
 20
6.3467235412
 30
0.0
 10
9.9012758811
 20
6.3373133656
 30
0.0
 10
9.8792679043
 20
6.3276928943
 30
0.0
 10
9.8564945924
 20
6.3197875285
 30
0.0
 10
9.8330822976
 20
6.3136410909
 30
0.0
 10
9.8091597754
 20
6.3092869818
 30
0.0
 10
9.7848588011
 20
6.3067488925
 30
0.0
 10
9.7603130812
 20
6.3060404561
 30
0.0
 10
9.7356576149
 20
6.3071652546
 30
0.0
 10
9.71102793
 20
6.3101167985
 30
0.0
 10
9.6865593521
 20
6.3148785807
 30
0.0
 10
9.6623862685
 20
6.3214241779
 30
0.0
 10
9.6386413999
 20
6.3297174016
 30
0.0
 10
9.6154550792
 20
6.339712498
 30
0.0
 10
9.5929545483
 20
6.351354411
 30
0.0
 10
9.5712632697
 20
6.3645790847
 30
0.0
 10
9.550500258
 20
6.3793138148
 30
0.0
 10
9.5307794357
 20
6.3954776457
 30
0.0
 10
9.512209016
 20
6.4129818115
 30
0.0
 10
9.4948909154
 20
6.4317302191
 30
0.0
 10
9.478920201
 20
6.45161997
 30
0.0
 10
9.4643845732
 20
6.4725419193
 30
0.0
 10
9.4513638808
 20
6.4943812626
 30
0.0
 10
9.4399296958
 20
6.5170181694
 30
0.0
 10
9.4301449137
 20
6.5403284163
 30
0.0
 10
9.4220634337
 20
6.5641841127
 30
0.0
 10
9.4157297953
 20
6.5884542052
 30
0.0
 10
9.4111790891
 20
6.6130058806
 30
0.0
 10
9.4084364542
 20
6.6377025724
 30
0.0
 10
9.4078221741
 20
6.6542197442
 30
0.0
 10
9.4078221741
 20
6.6624543269
 30
0.0
  0
SPLINE
  5
39B
100
AcDbEntity
  8
0
100
AcDbSpline
 62
7
  6
CONTINUOUS
 70
0
 71
3
 72
23
 73
19
 74
0
 42
0.0000001
 43
0.0000001
 44
0.0000000001
 40
0.0
 40
0.0
 40
0.0
 40
0.0
 40
0.0637764154
 40
0.1273451281
 40
0.190701988
 40
0.253856063
 40
0.3168132283
 40
0.3795820791
 40
0.4421733864
 40
0.5045993414
 40
0.5668738629
 40
0.629012379
 40
0.6910316532
 40
0.7529496461
 40
0.8147853522
 40
0.8765586034
 40
0.9382898574
 40
1.0
 40
1.0
 40
1.0
 40
1.0
 10
13.5110754097
 20
6.3778927485
 30
0.0
 10
13.5110754097
 20
6.3832001816
 30
0.0
 10
13.5113294732
 20
6.3937995606
 30
0.0
 10
13.5124760363
 20
6.409634125
 30
0.0
 10
13.5143851375
 20
6.4253432147
 30
0.0
 10
13.5170521777
 20
6.4408898435
 30
0.0
 10
13.5204711867
 20
6.4562385426
 30
0.0
 10
13.524634255
 20
6.4713538297
 30
0.0
 10
13.5295318064
 20
6.4862008713
 30
0.0
 10
13.5351526544
 20
6.5007454147
 30
0.0
 10
13.5414838187
 20
6.5149539266
 30
0.0
 10
13.5485107093
 20
6.5287936482
 30
0.0
 10
13.5562171812
 20
6.5422326351
 30
0.0
 10
13.5645855041
 20
6.5552398779
 30
0.0
 10
13.5735963198
 20
6.56778537
 30
0.0
 10
13.5832289676
 20
6.5798402682
 30
0.0
 10
13.5934608976
 20
6.591376349
 30
0.0
 10
13.6006673218
 20
6.5987048086
 30
0.0
 10
13.6043610383
 20
6.6022726659
 30
0.0
  0
SPLINE
  5
39C
100
AcDbEntity
  8
0
100
AcDbSpline
 62
7
  6
CONTINUOUS
 70
0
 71
3
 72
42
 73
38
 74
0
 42
0.0000001
 43
0.0000001
 44
0.0000000001
 40
0.0
 40
0.0
 40
0.0
 40
0.0
 40
0.0149723971
 40
0.029947854
 40
0.0449294092
 40
0.0599200692
 40
0.0749227779
 40
0.0899404136
 40
0.1200256609
 40
0.1502025864
 40
0.1804899033
 40
0.2109037105
 40
0.2414571471
 40
0.2721601282
 40
0.3030191646
 40
0.3340372675
 40
0.3652139349
 40
0.3965452155
 40
0.4280238444
 40
0.459639443
 40
0.4913787765
 40
0.5232260611
 40
0.5551633129
 40
0.5871707307
 40
0.6192271064
 40
0.6513102549
 40
0.683397459
 40
0.7154659208
 40
0.7474932143
 40
0.7794577337
 40
0.8113391302
 40
0.8431187274
 40
0.8747799267
 40
0.906308519
 40
0.9376931951
 40
0.9689252215
 40
1.0
 40
1.0
 40
1.0
 40
1.0
 10
14.082346789
 20
6.1074256462
 30
0.0
 10
14.0794930945
 20
6.1046691881
 30
0.0
 10
14.073674886
 20
6.0992685296
 30
0.0
 10
14.0646315287
 20
6.0915199573
 30
0.0
 10
14.0552837109
 20
6.0841334074
 30
0.0
 10
14.0456444509
 20
6.0771193449
 30
0.0
 10
14.0357267983
 20
6.0704872103
 30
0.0
 10
14.0221442773
 20
6.0621619628
 30
0.0
 10
14.0045291167
 20
6.0527517872
 30
0.0
 10
13.9825211399
 20
6.0431313159
 30
0.0
 10
13.959747828
 20
6.0352259501
 30
0.0
 10
13.9363355333
 20
6.0290795125
 30
0.0
 10
13.9124130111
 20
6.0247254034
 30
0.0
 10
13.8881120368
 20
6.0221873141
 30
0.0
 10
13.8635663169
 20
6.0214788777
 30
0.0
 10
13.8389108505
 20
6.0226036762
 30
0.0
 10
13.8142811656
 20
6.0255552201
 30
0.0
 10
13.7898125878
 20
6.0303170023
 30
0.0
 10
13.7656395042
 20
6.0368625995
 30
0.0
 10
13.7418946356
 20
6.0451558232
 30
0.0
 10
13.7187083148
 20
6.0551509196
 30
0.0
 10
13.696207784
 20
6.0667928326
 30
0.0
 10
13.6745165053
 20
6.0800175063
 30
0.0
 10
13.6537534936
 20
6.0947522364
 30
0.0
 10
13.6340326713
 20
6.1109160673
 30
0.0
 10
13.6154622516
 20
6.1284202331
 30
0.0
 10
13.598144151
 20
6.1471686407
 30
0.0
 10
13.5821734367
 20
6.1670583917
 30
0.0
 10
13.5676378088
 20
6.1879803409
 30
0.0
 10
13.5546171164
 20
6.2098196842
 30
0.0
 10
13.5431829314
 20
6.232456591
 30
0.0
 10
13.5333981494
 20
6.2557668379
 30
0.0
 10
13.5253166693
 20
6.2796225343
 30
0.0
 10
13.518983031
 20
6.3038926268
 30
0.0
 10
13.5144323248
 20
6.3284443022
 30
0.0
 10
13.5116896898
 20
6.3531409941
 30
0.0
 10
13.5110754097
 20
6.3696581658
 30
0.0
 10
13.5110754097
 20
6.3778927485
 30
0.0
  0
SPLINE
  5
39D
100
AcDbEntity
  8
0
100
AcDbSpline
 62
7
  6
CONTINUOUS
 70
0
 71
3
 72
61
 73
57
 74
0
 42
0.0000001
 43
0.0000001
 44
0.0000000001
 40
0.0
 40
0.0
 40
0.0
 40
0.0
 40
0.0027758433
 40
0.0055595941
 40
0.0083590873
 40
0.0111820092
 40
0.0140358402
 40
0.0169278032
 40
0.0228516385
 40
0.0290063602
 40
0.0354367082
 40
0.0387681006
 40
0.0421822872
 40
0.0492730731
 40
0.0567370731
 40
0.064596108
 40
0.072867737
 40
0.081565694
 40
0.09070057
 40
0.1002800962
 40
0.110309688
 40
0.1207926208
 40
0.131730418
 40
0.1431229861
 40
0.1549688512
 40
0.1672653029
 40
0.1800084954
 40
0.1931936241
 40
0.2068149163
 40
0.2208658417
 40
0.235339028
 40
0.2502264837
 40
0.2655194851
 40
0.2812087772
 40
0.2972844765
 40
0.3137362206
 40
0.3305531169
 40
0.3477238252
 40
0.3652365653
 40
0.3830791312
 40
0.4012389558
 40
0.4197030683
 40
0.4574902793
 40
0.4963311237
 40
0.5361109391
 40
0.5767111052
 40
0.6180096092
 40
0.6598815936
 40
0.7021998921
 40
0.7448355581
 40
0.7876583843
 40
0.8305374341
 40
0.8733415137
 40
0.9159398405
 40
0.9582021223
 40
1.0
 40
1.0
 40
1.0
 40
1.0
 10
9.2435119049
 20
11.0529425082
 30
0.0
 10
9.243511907
 20
11.0540298471
 30
0.0
 10
9.2435722312
 20
11.0562081011
 30
0.0
 10
9.2438435662
 20
11.0594727939
 30
0.0
 10
9.2442957178
 20
11.0627360877
 30
0.0
 10
9.2449284927
 20
11.0659970969
 30
0.0
 10
9.2457417556
 20
11.0692552106
 30
0.0
 10
9.2470768896
 20
11.0736288311
 30
0.0
 10
9.249213516
 20
11.0791009159
 30
0.0
 10
9.2524755596
 20
11.0855862568
 30
0.0
 10
9.2557502515
 20
11.0909006656
 30
0.0
 10
9.2587095297
 20
11.0951304015
 30
0.0
 10
9.2619813743
 20
11.0994527755
 30
0.0
 10
9.2665304246
 20
11.1048317601
 30
0.0
 10
9.2726224593
 20
11.1111613991
 30
0.0
 10
9.2794099566
 20
11.1174414125
 30
0.0
 10
9.2868872667
 20
11.1236669331
 30
0.0
 10
9.2950483895
 20
11.1298335582
 30
0.0
 10
9.3038868767
 20
11.1359364799
 30
0.0
 10
9.3133956333
 20
11.1419710931
 30
0.0
 10
9.3235671068
 20
11.1479325608
 30
0.0
 10
9.3343931114
 20
11.1538162169
 30
0.0
 10
9.3458649588
 20
11.1596172864
 30
0.0
 10
9.3579733803
 20
11.1653311116
 30
0.0
 10
9.37070858
 20
11.1709530472
 30
0.0
 10
9.3840602318
 20
11.1764784956
 30
0.0
 10
9.3980174776
 20
11.1819029793
 30
0.0
 10
9.4125689675
 20
11.1872220039
 30
0.0
 10
9.4277028309
 20
11.1924312774
 30
0.0
 10
9.443406733
 20
11.1975264487
 30
0.0
 10
9.4596678408
 20
11.2025034165
 30
0.0
 10
9.4764728771
 20
11.2073580111
 30
0.0
 10
9.4938080961
 20
11.2120863204
 30
0.0
 10
9.5116593247
 20
11.2166843914
 30
0.0
 10
9.5300119536
 20
11.2211484996
 30
0.0
 10
9.5488509637
 20
11.2254749357
 30
0.0
 10
9.5681609318
 20
11.2296601675
 30
0.0
 10
9.5879260458
 20
11.2337007471
 30
0.0
 10
9.6081301202
 20
11.2375933462
 30
0.0
 10
9.6287566005
 20
11.2413347833
 30
0.0
 10
9.6497886084
 20
11.2449219682
 30
0.0
 10
9.6785703163
 20
11.2495306873
 30
0.0
 10
9.7154366178
 20
11.254873944
 30
0.0
 10
9.7606794705
 20
11.2605784949
 30
0.0
 10
9.8071110702
 20
11.2656050036
 30
0.0
 10
9.8545792384
 20
11.2699368842
 30
0.0
 10
9.9029285444
 20
11.2735598173
 30
0.0
 10
9.9520005959
 20
11.276461839
 30
0.0
 10
10.0016346275
 20
11.2786333662
 30
0.0
 10
10.0516680143
 20
11.2800672293
 30
0.0
 10
10.101936817
 20
11.2807586963
 30
0.0
 10
10.1522763125
 20
11.2807054813
 30
0.0
 10
10.2025215646
 20
11.2799077674
 30
0.0
 10
10.252507909
 20
11.2783681726
 30
0.0
 10
10.3020714813
 20
11.2760918079
 30
0.0
 10
10.3349388433
 20
11.2740748476
 30
0.0
 10
10.3512724592
 20
11.2729421074
 30
0.0
  0
SPLINE
  5
39E
100
AcDbEntity
  8
0
100
AcDbSpline
 62
7
  6
CONTINUOUS
 70
0
 71
3
 72
63
 73
59
 74
0
 42
0.0000001
 43
0.0000001
 44
0.0000000001
 40
0.0
 40
0.0
 40
0.0
 40
0.0
 40
0.0417736349
 40
0.0840360487
 40
0.1266571619
 40
0.1695046989
 40
0.2124458529
 40
0.2553473503
 40
0.2980760925
 40
0.3404996594
 40
0.382486839
 40
0.4239081548
 40
0.4646363987
 40
0.5045471706
 40
0.5241582135
 40
0.5435198048
 40
0.5626174303
 40
0.5814368567
 40
0.5999641709
 40
0.618185748
 40
0.6360883436
 40
0.6536590437
 40
0.6708853367
 40
0.6877551251
 40
0.7042567189
 40
0.7203789328
 40
0.7361110261
 40
0.751442819
 40
0.7663646737
 40
0.7808675409
 40
0.7949430485
 40
0.8085834666
 40
0.8217818693
 40
0.8345321082
 40
0.8468289437
 40
0.8586681372
 40
0.8700465022
 40
0.8809621306
 40
0.8914144367
 40
0.9014044339
 40
0.9109349132
 40
0.9200107044
 40
0.9286390713
 40
0.9368300099
 40
0.9445968283
 40
0.9519566244
 40
0.9589309575
 40
0.9655465609
 40
0.971835989
 40
0.9778383113
 40
0.9807467495
 40
0.9836012198
 40
0.986408517
 40
0.9891758243
 40
0.9919106831
 40
0.9946209265
 40
0.9973146208
 40
1.0
 40
1.0
 40
1.0
 40
1.0
 10
15.321022924
 20
8.5965382095
 30
0.0
 10
15.321022924
 20
8.5743376776
 30
0.0
 10
15.3206765739
 20
8.5296761552
 30
0.0
 10
15.3191454087
 20
8.4623794881
 30
0.0
 10
15.3166040675
 20
8.3945421597
 30
0.0
 10
15.3130608667
 20
8.3263886543
 30
0.0
 10
15.30852752
 20
8.2581445072
 30
0.0
 10
15.303019009
 20
8.1900354795
 30
0.0
 10
15.2965535778
 20
8.1222869062
 30
0.0
 10
15.2891526644
 20
8.0551229138
 30
0.0
 10
15.2808408236
 20
7.9887656942
 30
0.0
 10
15.2716456541
 20
7.9234347019
 30
0.0
 10
15.2615976823
 20
7.859346154
 30
0.0
 10
15.2524894302
 20
7.8068500054
 30
0.0
 10
15.2447930295
 20
7.7656396301
 30
0.0
 10
15.2388626472
 20
7.7353530141
 30
0.0
 10
15.2327455835
 20
7.7055328934
 30
0.0
 10
15.2264468771
 20
7.6762039187
 30
0.0
 10
15.2199717879
 20
7.6473903582
 30
0.0
 10
15.2133256352
 20
7.6191160499
 30
0.0
 10
15.2065139771
 20
7.591404378
 30
0.0
 10
15.1995424274
 20
7.5642782654
 30
0.0
 10
15.192416777
 20
7.5377601437
 30
0.0
 10
15.1851429522
 20
7.5118719388
 30
0.0
 10
15.1777269432
 20
7.4866350576
 30
0.0
 10
15.1701749542
 20
7.4620703534
 30
0.0
 10
15.1624931966
 20
7.4381981316
 30
0.0
 10
15.1546880743
 20
7.4150381078
 30
0.0
 10
15.1467660543
 20
7.3926094077
 30
0.0
 10
15.1387336783
 20
7.3709305488
 30
0.0
 10
15.1305976556
 20
7.3500194053
 30
0.0
 10
15.1223646641
 20
7.3298932292
 30
0.0
 10
15.1140415785
 20
7.310568585
 30
0.0
 10
15.1056352528
 20
7.2920613802
 30
0.0
 10
15.0971526329
 20
7.2743868248
 30
0.0
 10
15.0886007558
 20
7.2575594068
 30
0.0
 10
15.0799865961
 20
7.241592928
 30
0.0
 10
15.0713172968
 20
7.2265004026
 30
0.0
 10
15.0625998777
 20
7.2122941467
 30
0.0
 10
15.0538414468
 20
7.1989856798
 30
0.0
 10
15.0450490649
 20
7.1865857543
 30
0.0
 10
15.0362296756
 20
7.1751043893
 30
0.0
 10
15.0273902663
 20
7.1645507521
 30
0.0
 10
15.0185375321
 20
7.1549333636
 30
0.0
 10
15.0096781579
 20
7.1462599267
 30
0.0
 10
15.0008185083
 20
7.1385375491
 30
0.0
 10
14.9919648105
 20
7.1317728261
 30
0.0
 10
14.9831229106
 20
7.1259717678
 30
0.0
 10
14.9742993462
 20
7.121140615
 30
0.0
 10
14.9668886299
 20
7.1178936978
 30
0.0
 10
14.9609920464
 20
7.1158073415
 30
0.0
 10
14.9566257953
 20
7.1145039208
 30
0.0
 10
14.9522707619
 20
7.1134460595
 30
0.0
 10
14.9479277971
 20
7.1126340772
 30
0.0
 10
14.9435979182
 20
7.112068185
 30
0.0
 10
14.939282052
 20
7.1117485746
 30
0.0
 10
14.9349813887
 20
7.111675425
 30
0.0
 10
14.9321231611
 20
7.111791067
 30
0.0
 10
14.9306994402
 20
7.1118898027
 30
0.0
  0
SPLINE
  5
39F
100
AcDbEntity
  8
0
100
AcDbSpline
 62
7
  6
CONTINUOUS
 70
0
 71
3
 72
56
 73
52
 74
0
 42
0.0000001
 43
0.0000001
 44
0.0000000001
 40
0.0
 40
0.0
 40
0.0
 40
0.0
 40
0.0063157967
 40
0.0126705023
 40
0.0191022499
 40
0.0256477076
 40
0.0323414977
 40
0.0392157442
 40
0.0462998717
 40
0.0536203936
 40
0.0612010177
 40
0.0690626689
 40
0.0772236628
 40
0.0856999524
 40
0.0945052156
 40
0.1036512173
 40
0.1131478646
 40
0.1230034852
 40
0.1332249877
 40
0.1438179332
 40
0.1547868208
 40
0.1661350265
 40
0.1778650648
 40
0.1899785931
 40
0.2024764841
 40
0.2153589958
 40
0.2286256652
 40
0.2422755464
 40
0.2563071086
 40
0.2707183485
 40
0.2855068518
 40
0.3006697107
 40
0.316203721
 40
0.3321052322
 40
0.3483703015
 40
0.3649946632
 40
0.3993020867
 40
0.4349880912
 40
0.4720085479
 40
0.5103155846
 40
0.5498579056
 40
0.5905810854
 40
0.632427837
 40
0.6753382398
 40
0.71924996
 40
0.7640984402
 40
0.8098170543
 40
0.8563374841
 40
0.9035891491
 40
0.9515015246
 40
1.0
 40
1.0
 40
1.0
 40
1.0
 10
15.0953575889
 20
9.486187072
 30
0.0
 10
15.0973689113
 20
9.4860475858
 30
0.0
 10
15.1013944439
 20
9.4856031407
 30
0.0
 10
15.1073876246
 20
9.4844446048
 30
0.0
 10
15.1133407426
 20
9.4827943585
 30
0.0
 10
15.1192503628
 20
9.4806535876
 30
0.0
 10
15.1251139147
 20
9.4780237223
 30
0.0
 10
15.1309289218
 20
9.4749065225
 30
0.0
 10
15.1366930005
 20
9.4713036636
 30
0.0
 10
15.1424040352
 20
9.4672171771
 30
0.0
 10
15.1480598604
 20
9.4626489861
 30
0.0
 10
15.1536584305
 20
9.4576012258
 30
0.0
 10
15.1591977365
 20
9.4520761387
 30
0.0
 10
15.1646756665
 20
9.4460760135
 30
0.0
 10
15.170090277
 20
9.4396034213
 30
0.0
 10
15.1754394317
 20
9.4326609522
 30
0.0
 10
15.1807211395
 20
9.4252514762
 30
0.0
 10
15.1859333382
 20
9.4173779891
 30
0.0
 10
15.1910739416
 20
9.4090436651
 30
0.0
 10
15.1961409866
 20
9.400251918
 30
0.0
 10
15.2011323548
 20
9.3910062761
 30
0.0
 10
15.2060461165
 20
9.381310532
 30
0.0
 10
15.2108802357
 20
9.3711686148
 30
0.0
 10
15.2156327475
 20
9.3605846638
 30
0.0
 10
15.2203017538
 20
9.3495630123
 30
0.0
 10
15.2248852708
 20
9.3381081492
 30
0.0
 10
15.2293814984
 20
9.3262247857
 30
0.0
 10
15.2337885229
 20
9.3139177781
 30
0.0
 10
15.2381045634
 20
9.3011921845
 30
0.0
 10
15.2423278479
 20
9.2880532303
 30
0.0
 10
15.2464565911
 20
9.2745063085
 30
0.0
 10
15.2504891539
 20
9.2605569982
 30
0.0
 10
15.2544238033
 20
9.2462110281
 30
0.0
 10
15.2582589612
 20
9.2314743129
 30
0.0
 10
15.2619930403
 20
9.2163529019
 30
0.0
 10
15.2668862394
 20
9.1954671765
 30
0.0
 10
15.272726223
 20
9.1684379374
 30
0.0
 10
15.2792358351
 20
9.1349002067
 30
0.0
 10
15.2853075869
 20
9.0999839132
 30
0.0
 10
15.2909313714
 20
9.0637466265
 30
0.0
 10
15.296097814
 20
9.0262479481
 30
0.0
 10
15.3007983096
 20
8.9875496491
 30
0.0
 10
15.3050250249
 20
8.9477154883
 30
0.0
 10
15.3087709155
 20
8.9068111185
 30
0.0
 10
15.3120297359
 20
8.8649039714
 30
0.0
 10
15.314796046
 20
8.8220631566
 30
0.0
 10
15.3170652435
 20
8.7783592954
 30
0.0
 10
15.3188335183
 20
8.7338645923
 30
0.0
 10
15.3200979648
 20
8.6886521767
 30
0.0
 10
15.3208563907
 20
8.6427970125
 30
0.0
 10
15.321022924
 20
8.6120200823
 30
0.0
 10
15.321022924
 20
8.5965382095
 30
0.0
  0
SPLINE
  5
3A0
100
AcDbEntity
  8
0
100
AcDbSpline
 62
7
  6
CONTINUOUS
 70
0
 71
3
 72
55
 73
51
 74
0
 42
0.0000001
 43
0.0000001
 44
0.0000000001
 40
0.0
 40
0.0
 40
0.0
 40
0.0
 40
0.0407884447
 40
0.0820180483
 40
0.1235724386
 40
0.1653338624
 40
0.2071839136
 40
0.2490038195
 40
0.2906749325
 40
0.3320791448
 40
0.3730993305
 40
0.4136197821
 40
0.4535266521
 40
0.4927084011
 40
0.5310562534
 40
0.5684646648
 40
0.6048318082
 40
0.6400600835
 40
0.6572181794
 40
0.6740571591
 40
0.690566278
 40
0.7067351362
 40
0.7225537693
 40
0.7380125951
 40
0.7531025281
 40
0.7678149112
 40
0.7821416558
 40
0.7960751603
 40
0.8096084783
 40
0.8227352277
 40
0.8354497896
 40
0.8477472138
 40
0.8596234527
 40
0.8710752723
 40
0.8821005263
 40
0.892698087
 40
0.9028681685
 40
0.9126122955
 40
0.9219336907
 40
0.9308373074
 40
0.9393302984
 40
0.9474221451
 40
0.9551252252
 40
0.962455063
 40
0.9694309922
 40
0.9760765081
 40
0.9824199382
 40
0.9884947491
 40
0.9943399538
 40
1.0
 40
1.0
 40
1.0
 40
1.0
 10
10.3512724592
 20
11.2420324777
 30
0.0
 10
10.3355440102
 20
11.2431232493
 30
0.0
 10
10.3038997193
 20
11.2450744907
 30
0.0
 10
10.2561849978
 20
11.2473064661
 30
0.0
 10
10.2080668517
 20
11.2488552361
 30
0.0
 10
10.1596916759
 20
11.2497160455
 30
0.0
 10
10.111206511
 20
11.2498862659
 30
0.0
 10
10.0627587546
 20
11.2493653733
 30
0.0
 10
10.0144956888
 20
11.2481549634
 30
0.0
 10
9.9665640297
 20
11.2462587405
 30
0.0
 10
9.9191094803
 20
11.2436825097
 30
0.0
 10
9.8722762828
 20
11.2404341583
 30
0.0
 10
9.8262067781
 20
11.2365236335
 30
0.0
 10
9.7810409632
 20
11.231962914
 30
0.0
 10
9.7369160787
 20
11.2267659716
 30
0.0
 10
9.693966117
 20
11.220948741
 30
0.0
 10
9.6523216474
 20
11.2145290366
 30
0.0
 10
9.6185212232
 20
11.2086432851
 30
0.0
 10
9.5922349349
 20
11.2036381092
 30
0.0
 10
9.5730972165
 20
11.1997791745
 30
0.0
 10
9.5543780093
 20
11.1957852784
 30
0.0
 10
9.5360915173
 20
11.191659413
 30
0.0
 10
9.5182516349
 20
11.1874047656
 30
0.0
 10
9.5008719103
 20
11.1830245376
 30
0.0
 10
9.4839655371
 20
11.1785221144
 30
0.0
 10
9.4675453504
 20
11.1739008773
 30
0.0
 10
9.4516238041
 20
11.1691644046
 30
0.0
 10
9.4362129786
 20
11.1643162442
 30
0.0
 10
9.421324547
 20
11.159360156
 30
0.0
 10
9.4069697963
 20
11.1542998412
 30
0.0
 10
9.3931595785
 20
11.1491392277
 30
0.0
 10
9.3799043499
 20
11.1438821546
 30
0.0
 10
9.367214102
 20
11.1385327016
 30
0.0
 10
9.3550984258
 20
11.1330948268
 30
0.0
 10
9.3435664138
 20
11.1275727404
 30
0.0
 10
9.3326267586
 20
11.1219704952
 30
0.0
 10
9.3222876186
 20
11.1162924021
 30
0.0
 10
9.3125567605
 20
11.1105425745
 30
0.0
 10
9.3034413793
 20
11.1047253813
 30
0.0
 10
9.2949483012
 20
11.0988449469
 30
0.0
 10
9.287083748
 20
11.0929056348
 30
0.0
 10
9.2798536213
 20
11.0869115122
 30
0.0
 10
9.2732632076
 20
11.0808668537
 30
0.0
 10
9.2673175701
 20
11.0747755916
 30
0.0
 10
9.2620211973
 20
11.0686418449
 30
0.0
 10
9.257378521
 20
11.0624693808
 30
0.0
 10
9.2533935207
 20
11.0562622893
 30
0.0
 10
9.2500702581
 20
11.0500242024
 30
0.0
 10
9.2474126434
 20
11.0437603811
 30
0.0
 10
9.2460689713
 20
11.0395121833
 30
0.0
 10
9.2455160461
 20
11.0373953914
 30
0.0
  0
SPLINE
  5
3A1
100
AcDbEntity
  8
0
100
AcDbSpline
 62
7
  6
CONTINUOUS
 70
0
 71
3
 72
52
 73
48
 74
0
 42
0.0000001
 43
0.0000001
 44
0.0000000001
 40
0.0
 40
0.0
 40
0.0
 40
0.0
 40
0.0467165042
 40
0.0929172831
 40
0.1385350807
 40
0.1835092096
 40
0.227777734
 40
0.271280476
 40
0.313958923
 40
0.3557560294
 40
0.3966166259
 40
0.4364874837
 40
0.4753174411
 40
0.5130576482
 40
0.5496617794
 40
0.5850861781
 40
0.619290108
 40
0.6522361201
 40
0.6838903086
 40
0.714222653
 40
0.7432075445
 40
0.7571884623
 40
0.7708251981
 40
0.7841161092
 40
0.7970599101
 40
0.8096557022
 40
0.8219031694
 40
0.8338024247
 40
0.8453541378
 40
0.856559674
 40
0.8674209674
 40
0.8779407349
 40
0.8881225468
 40
0.8979707725
 40
0.9074908579
 40
0.9166893405
 40
0.9255738999
 40
0.9341536621
 40
0.9424391888
 40
0.950442638
 40
0.9581780347
 40
0.9656612603
 40
0.9729102607
 40
0.9799451954
 40
0.9867883846
 40
0.9934644072
 40
1.0
 40
1.0
 40
1.0
 40
1.0
 10
10.3512724592
 20
11.2420324777
 30
0.0
 10
10.3622021167
 20
11.2412745034
 30
0.0
 10
10.3839329404
 20
11.2396511916
 30
0.0
 10
10.4163040522
 20
11.2368773024
 30
0.0
 10
10.4482354672
 20
11.2337809787
 30
0.0
 10
10.479678727
 20
11.2303669968
 30
0.0
 10
10.5105869567
 20
11.2266404405
 30
0.0
 10
10.5409136337
 20
11.222606958
 30
0.0
 10
10.57061321
 20
11.2182726413
 30
0.0
 10
10.5996411001
 20
11.2136440056
 30
0.0
 10
10.6279537204
 20
11.2087280563
 30
0.0
 10
10.6555085789
 20
11.2035322213
 30
0.0
 10
10.6822643212
 20
11.1980643299
 30
0.0
 10
10.7081808107
 20
11.1923326353
 30
0.0
 10
10.7332191978
 20
11.1863458107
 30
0.0
 10
10.7573419595
 20
11.1801128944
 30
0.0
 10
10.7805129696
 20
11.1736432748
 30
0.0
 10
10.8026975609
 20
11.1669467357
 30
0.0
 10
10.8238626411
 20
11.1600333816
 30
0.0
 10
10.8439764772
 20
11.1529136288
 30
0.0
 10
10.8600242542
 20
11.1467455813
 30
0.0
 10
10.8723060243
 20
11.1417078408
 30
0.0
 10
10.8811251951
 20
11.1379300293
 30
0.0
 10
10.8896598211
 20
11.134108751
 30
0.0
 10
10.8979067251
 20
11.1302454193
 30
0.0
 10
10.9058628028
 20
11.1263414376
 30
0.0
 10
10.9135251081
 20
11.1223983191
 30
0.0
 10
10.9208907756
 20
11.1184175144
 30
0.0
 10
10.9279570449
 20
11.1144004753
 30
0.0
 10
10.9347213154
 20
11.1103487524
 30
0.0
 10
10.9411810504
 20
11.1062638008
 30
0.0
 10
10.9473338466
 20
11.1021471243
 30
0.0
 10
10.9531774522
 20
11.0980002834
 30
0.0
 10
10.9587096611
 20
11.0938247305
 30
0.0
 10
10.9639284381
 20
11.0896220084
 30
0.0
 10
10.9688318705
 20
11.0853936593
 30
0.0
 10
10.9734180787
 20
11.0811411266
 30
0.0
 10
10.9776853898
 20
11.0768659697
 30
0.0
 10
10.9816321984
 20
11.0725696868
 30
0.0
 10
10.9852569333
 20
11.0682537188
 30
0.0
 10
10.9885582467
 20
11.0639196204
 30
0.0
 10
10.9915347776
 20
11.0595688551
 30
0.0
 10
10.9941852314
 20
11.0552028956
 30
0.0
 10
10.9965085122
 20
11.0508233446
 30
0.0
 10
10.9985034664
 20
11.0464316374
 30
0.0
 10
11.0001689967
 20
11.0420297079
 30
0.0
 10
11.001067603
 20
11.0390614412
 30
0.0
 10
11.0014593323
 20
11.0375796243
 30
0.0
  0
SPLINE
  5
3A2
100
AcDbEntity
  8
0
100
AcDbSpline
 62
7
  6
CONTINUOUS
 70
0
 71
3
 72
54
 73
50
 74
0
 42
0.0000001
 43
0.0000001
 44
0.0000000001
 40
0.0
 40
0.0
 40
0.0
 40
0.0
 40
0.0472779972
 40
0.0940120841
 40
0.1401347174
 40
0.1855831334
 40
0.2302938922
 40
0.2742055776
 40
0.3172582549
 40
0.3593936568
 40
0.4005553886
 40
0.4406890524
 40
0.4797424574
 40
0.5176657859
 40
0.5544117816
 40
0.5899359716
 40
0.624196937
 40
0.6571566172
 40
0.68878062
 40
0.7040823888
 40
0.7190392444
 40
0.7336480769
 40
0.7479061858
 40
0.7618111289
 40
0.7753608767
 40
0.7885538099
 40
0.8013886639
 40
0.8138647311
 40
0.8259817303
 40
0.8377399444
 40
0.8491402953
 40
0.8601842736
 40
0.8708741821
 40
0.8812130664
 40
0.8912048446
 40
0.9008544777
 40
0.9101679273
 40
0.9191524405
 40
0.9278165864
 40
0.9361704002
 40
0.9442256492
 40
0.9519958543
 40
0.9594965846
 40
0.9667455729
 40
0.973762819
 40
0.9805707968
 40
0.9871943894
 40
0.9936609206
 40
1.0
 40
1.0
 40
1.0
 40
1.0
 10
15.2901132943
 20
8.5986817996
 30
0.0
 10
15.2901132943
 20
8.6135157096
 30
0.0
 10
15.2899603536
 20
8.6430131197
 30
0.0
 10
15.289264202
 20
8.6869769874
 30
0.0
 10
15.288103525
 20
8.730356877
 30
0.0
 10
15.2864801915
 20
8.7730866557
 30
0.0
 10
15.2843966292
 20
8.8151019728
 30
0.0
 10
15.2818560468
 20
8.8563391008
 30
0.0
 10
15.2788623352
 20
8.8967356595
 30
0.0
 10
15.2754200704
 20
8.9362305187
 30
0.0
 10
15.2715345132
 20
8.9747639131
 30
0.0
 10
15.2672115907
 20
9.0122775499
 30
0.0
 10
15.2624579164
 20
9.0487146992
 30
0.0
 10
15.2572807585
 20
9.0840202817
 30
0.0
 10
15.2516880284
 20
9.1181409511
 30
0.0
 10
15.2456882634
 20
9.1510251596
 30
0.0
 10
15.2392906289
 20
9.1826233273
 30
0.0
 10
15.2325048897
 20
9.2128876684
 30
0.0
 10
15.2264711076
 20
9.2372180337
 30
0.0
 10
15.2214474473
 20
9.2559735886
 30
0.0
 10
15.217630524
 20
9.2695242769
 30
0.0
 10
15.2137244978
 20
9.2827083853
 30
0.0
 10
15.2097308912
 20
9.2955209619
 30
0.0
 10
15.2056511751
 20
9.3079571612
 30
0.0
 10
15.2014868998
 20
9.3200122947
 30
0.0
 10
15.1972396772
 20
9.3316818275
 30
0.0
 10
15.1929110436
 20
9.3429613479
 30
0.0
 10
15.188502699
 20
9.3538466286
 30
0.0
 10
15.1840162685
 20
9.36433357
 30
0.0
 10
15.1794534237
 20
9.3744182274
 30
0.0
 10
15.1748159332
 20
9.3840968391
 30
0.0
 10
15.1701054508
 20
9.3933657511
 30
0.0
 10
15.1653237916
 20
9.4022215198
 30
0.0
 10
15.1604727108
 20
9.4106608343
 30
0.0
 10
15.1555539541
 20
9.4186805251
 30
0.0
 10
15.1505693971
 20
9.4262776439
 30
0.0
 10
15.1455207645
 20
9.4334493177
 30
0.0
 10
15.1404099161
 20
9.4401928984
 30
0.0
 10
15.135238675
 20
9.4465058767
 30
0.0
 10
15.1300087896
 20
9.4523858289
 30
0.0
 10
15.1247221585
 20
9.4578305918
 30
0.0
 10
15.1193805171
 20
9.4628380037
 30
0.0
 10
15.1139857012
 20
9.4674060972
 30
0.0
 10
15.1085395675
 20
9.4715330375
 30
0.0
 10
15.1030438832
 20
9.4752169495
 30
0.0
 10
15.0975006625
 20
9.4784562358
 30
0.0
 10
15.0919117166
 20
9.4812492602
 30
0.0
 10
15.0862795827
 20
9.4835943927
 30
0.0
 10
15.0824648105
 20
9.4848692554
 30
0.0
 10
15.0805560524
 20
9.4854283121
 30
0.0
  0
SPLINE
  5
3A3
100
AcDbEntity
  8
0
100
AcDbSpline
 62
7
  6
CONTINUOUS
 70
0
 71
3
 72
59
 73
55
 74
0
 42
0.0000001
 43
0.0000001
 44
0.0000000001
 40
0.0
 40
0.0
 40
0.0
 40
0.0
 40
0.0409644248
 40
0.0823979507
 40
0.1241803318
 40
0.1661893342
 40
0.2083022278
 40
0.2503957854
 40
0.2923468813
 40
0.3340329112
 40
0.3753322591
 40
0.416124757
 40
0.4562921493
 40
0.4957185616
 40
0.5342909778
 40
0.5718997295
 40
0.5903096912
 40
0.6084393951
 40
0.6262762998
 40
0.6438081908
 40
0.6610231489
 40
0.6779096465
 40
0.6944564749
 40
0.710652864
 40
0.7264884187
 40
0.7419532079
 40
0.7570377629
 40
0.7717330975
 40
0.7860307935
 40
0.7999229509
 40
0.8134023439
 40
0.8264623475
 40
0.8390971068
 40
0.8513015138
 40
0.8630713328
 40
0.8744032852
 40
0.8852951121
 40
0.8957457844
 40
0.9057555368
 40
0.9153261792
 40
0.9244611871
 40
0.9331660664
 40
0.9414486019
 40
0.9493192537
 40
0.9567916268
 40
0.9638829193
 40
0.9706145948
 40
0.977012891
 40
0.9831095247
 40
0.9889421076
 40
0.9917736617
 40
0.9945561568
 40
0.9972960175
 40
1.0
 40
1.0
 40
1.0
 40
1.0
 10
15.2901132943
 20
8.5986817996
 30
0.0
 10
15.2901132943
 20
8.5771300987
 30
0.0
 10
15.2897869156
 20
8.533779259
 30
0.0
 10
15.2883432831
 20
8.4684608347
 30
0.0
 10
15.2859467858
 20
8.4026204009
 30
0.0
 10
15.2826048169
 20
8.3364633806
 30
0.0
 10
15.2783277944
 20
8.270196176
 30
0.0
 10
15.2731290419
 20
8.2040254637
 30
0.0
 10
15.2670247919
 20
8.1381576459
 30
0.0
 10
15.2600341165
 20
8.0727981667
 30
0.0
 10
15.2521788742
 20
8.0081508775
 30
0.0
 10
15.2434836443
 20
7.9444173888
 30
0.0
 10
15.2339756475
 20
7.8817964547
 30
0.0
 10
15.2236846694
 20
7.8204832776
 30
0.0
 10
15.2126429416
 20
7.760669143
 30
0.0
 10
15.2027761991
 20
7.7118890801
 30
0.0
 10
15.1945233444
 20
7.6737615177
 30
0.0
 10
15.1882119901
 20
7.6458580087
 30
0.0
 10
15.1817400459
 20
7.6184657727
 30
0.0
 10
15.1751125801
 20
7.5916061495
 30
0.0
 10
15.1683347288
 20
7.5653000921
 30
0.0
 10
15.1614118489
 20
7.5395681053
 30
0.0
 10
15.1543492891
 20
7.5144302548
 30
0.0
 10
15.1471526266
 20
7.4899061291
 30
0.0
 10
15.1398274462
 20
7.466014844
 30
0.0
 10
15.1323794939
 20
7.4427750115
 30
0.0
 10
15.1248145973
 20
7.4202047329
 30
0.0
 10
15.1171386386
 20
7.3983215869
 30
0.0
 10
15.1093576708
 20
7.3771425977
 30
0.0
 10
15.101477704
 20
7.3566842536
 30
0.0
 10
15.0935049703
 20
7.3369624463
 30
0.0
 10
15.0854456228
 20
7.317992512
 30
0.0
 10
15.0773060066
 20
7.2997891627
 30
0.0
 10
15.0690924344
 20
7.2823665192
 30
0.0
 10
15.0608113024
 20
7.2657380714
 30
0.0
 10
15.0524690748
 20
7.2499166622
 30
0.0
 10
15.0440721567
 20
7.2349145173
 30
0.0
 10
15.035627115
 20
7.2207431486
 30
0.0
 10
15.0271403431
 20
7.2074134684
 30
0.0
 10
15.0186184119
 20
7.1949356268
 30
0.0
 10
15.0100676877
 20
7.1833191683
 30
0.0
 10
15.0014946082
 20
7.1725728876
 30
0.0
 10
14.9929054589
 20
7.1627049311
 30
0.0
 10
14.984306395
 20
7.1537228017
 30
0.0
 10
14.9757035075
 20
7.1456333085
 30
0.0
 10
14.9671025392
 20
7.1384428341
 30
0.0
 10
14.9585093088
 20
7.1321571271
 30
0.0
 10
14.9499290449
 20
7.126781766
 30
0.0
 10
14.9413679892
 20
7.12232212
 30
0.0
 10
14.9341830673
 20
7.1193439748
 30
0.0
 10
14.9284667687
 20
7.1174426971
 30
0.0
 10
14.9242313118
 20
7.1162618862
 30
0.0
 10
14.9200068962
 20
7.1153126702
 30
0.0
 10
14.9171819243
 20
7.1148315903
 30
0.0
 10
14.9157736006
 20
7.1146306533
 30
0.0
  0
SPLINE
  5
3A4
100
AcDbEntity
  8
0
100
AcDbSpline
 62
7
  6
CONTINUOUS
 70
0
 71
3
 72
56
 73
52
 74
0
 42
0.0000001
 43
0.0000001
 44
0.0000000001
 40
0.0
 40
0.0
 40
0.0
 40
0.0
 40
0.0528982897
 40
0.1050253704
 40
0.1562613861
 40
0.2064947536
 40
0.2556139344
 40
0.3035119723
 40
0.350085679
 40
0.3952362979
 40
0.4388700056
 40
0.4808984038
 40
0.5212391516
 40
0.5598167002
 40
0.5965630842
 40
0.6142312003
 40
0.6314199975
 40
0.648123614
 40
0.6643369231
 40
0.6800554301
 40
0.6952756727
 40
0.7099949249
 40
0.7242115616
 40
0.7379250919
 40
0.751136125
 40
0.7638468495
 40
0.7760608228
 40
0.7877834515
 40
0.7990221396
 40
0.809786418
 40
0.8200885668
 40
0.8299436149
 40
0.8393700009
 40
0.8483899132
 40
0.8570296276
 40
0.8732865752
 40
0.8809916853
 40
0.8884709628
 40
0.8957755484
 40
0.9029608185
 40
0.9100851782
 40
0.9172087046
 40
0.9243914841
 40
0.9316920242
 40
0.9391657414
 40
0.9468639657
 40
0.9631035808
 40
0.9717332385
 40
0.9807422217
 40
0.9901570613
 40
1.0
 40
1.0
 40
1.0
 40
1.0
 10
10.2606858681
 20
11.1545325447
 30
0.0
 10
10.269057866
 20
11.1539519447
 30
0.0
 10
10.2856722453
 20
11.1526866966
 30
0.0
 10
10.3103629718
 20
11.1504586304
 30
0.0
 10
10.3345985579
 20
11.1479182517
 30
0.0
 10
10.3583196112
 20
11.1450719047
 30
0.0
 10
10.3814686182
 20
11.1419264925
 30
0.0
 10
10.4039891062
 20
11.1384897603
 30
0.0
 10
10.4258262889
 20
11.1347701409
 30
0.0
 10
10.4469270352
 20
11.130776771
 30
0.0
 10
10.4672400385
 20
11.1265194602
 30
0.0
 10
10.4867159261
 20
11.1220086634
 30
0.0
 10
10.5053074615
 20
11.1172554569
 30
0.0
 10
10.5229694388
 20
11.1122715136
 30
0.0
 10
10.5370560387
 20
11.1078806569
 30
0.0
 10
10.5478213553
 20
11.1042533814
 30
0.0
 10
10.5555308964
 20
11.1015185212
 30
0.0
 10
10.5629772256
 20
11.0987353133
 30
0.0
 10
10.5701558437
 20
11.0959054683
 30
0.0
 10
10.5770623784
 20
11.0930306467
 30
0.0
 10
10.5836926679
 20
11.0901126692
 30
0.0
 10
10.5900426882
 20
11.0871532551
 30
0.0
 10
10.5961086051
 20
11.0841542064
 30
0.0
 10
10.6018867767
 20
11.081117373
 30
0.0
 10
10.6073736946
 20
11.0780445059
 30
0.0
 10
10.6125660994
 20
11.0749375294
 30
0.0
 10
10.617460855
 20
11.0717982308
 30
0.0
 10
10.6220550381
 20
11.0686284757
 30
0.0
 10
10.6263459331
 20
11.0654301574
 30
0.0
 10
10.6303309276
 20
11.0622050336
 30
0.0
 10
10.634007695
 20
11.0589550408
 30
0.0
 10
10.6373740012
 20
11.0556818791
 30
0.0
 10
10.6404277103
 20
11.052387508
 30
0.0
 10
10.6431672567
 20
11.0490732022
 30
0.0
 10
10.6463333405
 20
11.0447199963
 30
0.0
 10
10.6489577758
 20
11.0402374236
 30
0.0
 10
10.6509454089
 20
11.0356572661
 30
0.0
 10
10.6520874413
 20
11.0322723599
 30
0.0
 10
10.652905425
 20
11.0288795011
 30
0.0
 10
10.6533985671
 20
11.0254810401
 30
0.0
 10
10.6535660094
 20
11.0220797015
 30
0.0
 10
10.6534075544
 20
11.01867833
 30
0.0
 10
10.6529234865
 20
11.0152797376
 30
0.0
 10
10.6521143899
 20
11.0118867131
 30
0.0
 10
10.650981374
 20
11.0085015274
 30
0.0
 10
10.6490058987
 20
11.0039212434
 30
0.0
 10
10.6463933178
 20
10.99943796
 30
0.0
 10
10.6432385283
 20
10.995084062
 30
0.0
 10
10.6405077379
 20
10.9917691838
 30
0.0
 10
10.6374627442
 20
10.988474325
 30
0.0
 10
10.635274167
 20
10.986340463
 30
0.0
 10
10.634131035
 20
10.9852766642
 30
0.0
  0
SPLINE
  5
3A5
100
AcDbEntity
  8
0
100
AcDbSpline
 62
7
  6
CONTINUOUS
 70
0
 71
3
 72
77
 73
73
 74
0
 42
0.0000001
 43
0.0000001
 44
0.0000000001
 40
0.0
 40
0.0
 40
0.0
 40
0.0
 40
0.0452095462
 40
0.0909997196
 40
0.1371866789
 40
0.183583457
 40
0.2300024957
 40
0.2762559993
 40
0.3221570434
 40
0.3675205201
 40
0.4121641096
 40
0.455909259
 40
0.4773906363
 40
0.4985826833
 40
0.5194645712
 40
0.5400159298
 40
0.5602168441
 40
0.5800478747
 40
0.5994901637
 40
0.6185253707
 40
0.6371358162
 40
0.6553044603
 40
0.673014948
 40
0.6902517319
 40
0.7070000067
 40
0.7232459021
 40
0.7389764581
 40
0.7541797245
 40
0.7688449161
 40
0.7829623907
 40
0.7965239262
 40
0.8095227504
 40
0.821953766
 40
0.8338138199
 40
0.845101849
 40
0.8558193751
 40
0.8609657146
 40
0.8659713693
 40
0.8708374124
 40
0.8755651875
 40
0.8801563448
 40
0.8846128053
 40
0.8889368105
 40
0.8931310102
 40
0.8971984322
 40
0.9011425127
 40
0.9049671954
 40
0.9086769425
 40
0.9157704728
 40
0.9224719256
 40
0.9256944346
 40
0.9288416115
 40
0.9319224366
 40
0.934946542
 40
0.9379241887
 40
0.9408661756
 40
0.9437837269
 40
0.9466883814
 40
0.9495918472
 40
0.9525058448
 40
0.9554419627
 40
0.9584115006
 40
0.9614253452
 40
0.9644938776
 40
0.9676268702
 40
0.9708334275
 40
0.9774982092
 40
0.9809732639
 40
0.9845514439
 40
0.9882384949
 40
0.9920395249
 40
1.0
 40
1.0
 40
1.0
 40
1.0
 10
15.196938515
 20
8.5086818685
 30
0.0
 10
15.196938515
 20
8.4909856398
 30
0.0
 10
15.1966229135
 20
8.4553651928
 30
0.0
 10
15.1952312722
 20
8.401682276
 30
0.0
 10
15.1929236754
 20
8.3475656761
 30
0.0
 10
15.1897099707
 20
8.2932488127
 30
0.0
 10
15.1856040148
 20
8.2389659715
 30
0.0
 10
15.1806235134
 20
8.1849512139
 30
0.0
 10
15.1747900003
 20
8.1314374668
 30
0.0
 10
15.1681287313
 20
8.0786554245
 30
0.0
 10
15.1606685394
 20
8.0268327795
 30
0.0
 10
15.1537720368
 20
7.9843804987
 30
0.0
 10
15.1478717539
 20
7.9510720656
 30
0.0
 10
15.143294587
 20
7.9266190887
 30
0.0
 10
15.1385437576
 20
7.9025702225
 30
0.0
 10
15.1336244046
 20
7.8789513817
 30
0.0
 10
15.1285418561
 20
7.8557880448
 30
0.0
 10
15.123301574
 20
7.8331051909
 30
0.0
 10
15.1179092746
 20
7.8109272742
 30
0.0
 10
15.11237074
 20
7.7892782087
 30
0.0
 10
15.1066919927
 20
7.7681813261
 30
0.0
 10
15.1008791732
 20
7.7476593619
 30
0.0
 10
15.0949385394
 20
7.7277344298
 30
0.0
 10
15.0888765703
 20
7.7084279825
 30
0.0
 10
15.082699766
 20
7.6897608134
 30
0.0
 10
15.0764148495
 20
7.671753002
 30
0.0
 10
15.0700286087
 20
7.654423914
 30
0.0
 10
15.0635479196
 20
7.6377921757
 30
0.0
 10
15.0569798422
 20
7.6218756266
 30
0.0
 10
15.0503313991
 20
7.6066913457
 30
0.0
 10
15.0436098131
 20
7.5922555706
 30
0.0
 10
15.0368222961
 20
7.5785837181
 30
0.0
 10
15.0299761105
 20
7.5656903759
 30
0.0
 10
15.0230786138
 20
7.5535891542
 30
0.0
 10
15.0161371091
 20
7.5422930599
 30
0.0
 10
15.0102448993
 20
7.5334444357
 30
0.0
 10
15.0055094177
 20
7.5267875182
 30
0.0
 10
15.0019995675
 20
7.522071266
 30
0.0
 10
14.9984843216
 20
7.5175650609
 30
0.0
 10
14.9949645782
 20
7.5132701076
 30
0.0
 10
14.9914413023
 20
7.5091875252
 30
0.0
 10
14.9879154106
 20
7.505318411
 30
0.0
 10
14.9843877943
 20
7.5016638319
 30
0.0
 10
14.9808594057
 20
7.4982247354
 30
0.0
 10
14.9773311552
 20
7.4950020281
 30
0.0
 10
14.9738039447
 20
7.4919966481
 30
0.0
 10
14.9702785928
 20
7.4892093103
 30
0.0
 10
14.9656511484
 20
7.4858352045
 30
0.0
 10
14.9598708684
 20
7.4821393794
 30
0.0
 10
14.953938753
 20
7.4790834278
 30
0.0
 10
14.9492176946
 20
7.4771057309
 30
0.0
 10
14.9457309784
 20
7.4758642067
 30
0.0
 10
14.9422534965
 20
7.4748457034
 30
0.0
 10
14.9387861341
 20
7.4740506639
 30
0.0
 10
14.9353299248
 20
7.4734794279
 30
0.0
 10
14.9318859074
 20
7.473132215
 30
0.0
 10
14.9284551437
 20
7.4730092564
 30
0.0
 10
14.9250387283
 20
7.4731106828
 30
0.0
 10
14.9216377593
 20
7.4734364075
 30
0.0
 10
14.9182533227
 20
7.473986322
 30
0.0
 10
14.9148865058
 20
7.4747602768
 30
0.0
 10
14.9115383418
 20
7.4757578914
 30
0.0
 10
14.9082098117
 20
7.4769787505
 30
0.0
 10
14.9049019187
 20
7.4784224272
 30
0.0
 10
14.9016154783
 20
7.4800884458
 30
0.0
 10
14.8972072502
 20
7.4826377807
 30
0.0
 10
14.8928992268
 20
7.4856112211
 30
0.0
 10
14.888702442
 20
7.4889626574
 30
0.0
 10
14.8855362009
 20
7.4917305033
 30
0.0
 10
14.8823965457
 20
7.4947164926
 30
0.0
 10
14.8781818986
 20
7.4990543153
 30
0.0
 10
14.8751619259
 20
7.5025358074
 30
0.0
 10
14.8731958583
 20
7.5049531782
 30
0.0
  0
SPLINE
  5
3A6
100
AcDbEntity
  8
0
100
AcDbSpline
 62
7
  6
CONTINUOUS
 70
0
 71
3
 72
59
 73
55
 74
0
 42
0.0000001
 43
0.0000001
 44
0.0000000001
 40
0.0
 40
0.0
 40
0.0
 40
0.0
 40
0.0417736751
 40
0.0840363228
 40
0.1266575341
 40
0.1695052025
 40
0.2124464854
 40
0.2553481097
 40
0.2980769797
 40
0.3405006735
 40
0.3824879783
 40
0.4239094163
 40
0.4646377794
 40
0.5045486696
 40
0.5435210502
 40
0.5814378136
 40
0.6181863713
 40
0.6360890254
 40
0.6536597707
 40
0.6708861274
 40
0.6877559513
 40
0.7042576125
 40
0.7203798576
 40
0.736112015
 40
0.7514438414
 40
0.7663657512
 40
0.7808686554
 40
0.7949442116
 40
0.8085846652
 40
0.8217831177
 40
0.834533383
 40
0.8468302726
 40
0.8586694834
 40
0.8700479029
 40
0.8809635483
 40
0.8914159002
 40
0.9014059205
 40
0.9109364325
 40
0.9200122524
 40
0.9286406446
 40
0.9368316104
 40
0.9445984548
 40
0.9519582703
 40
0.958932631
 40
0.9655482491
 40
0.9718377021
 40
0.9778400412
 40
0.9836011695
 40
0.9864084722
 40
0.9891757927
 40
0.9919106612
 40
0.9946209098
 40
0.9973146123
 40
1.0
 40
1.0
 40
1.0
 40
1.0
 10
15.0989589378
 20
8.4940408589
 30
0.0
 10
15.0989589378
 20
8.4800489561
 30
0.0
 10
15.0987406484
 20
8.4519009318
 30
0.0
 10
15.0977756352
 20
8.4094870703
 30
0.0
 10
15.0961739461
 20
8.3667324266
 30
0.0
 10
15.0939408369
 20
8.3237785476
 30
0.0
 10
15.0910836838
 20
8.2807675321
 30
0.0
 10
15.0876119323
 20
8.2378416771
 30
0.0
 10
15.0835370825
 20
8.1951429989
 30
0.0
 10
15.0788726429
 20
8.152812755
 30
0.0
 10
15.0736340889
 20
8.1109909765
 30
0.0
 10
15.0678388117
 20
8.0698160009
 30
0.0
 10
15.0615060618
 20
8.0294240061
 30
0.0
 10
15.0546568854
 20
7.9899485702
 30
0.0
 10
15.0473140613
 20
7.9515201651
 30
0.0
 10
15.0395020074
 20
7.9142659243
 30
0.0
 10
15.0325637229
 20
7.8840447273
 30
0.0
 10
15.0267894563
 20
7.8605531954
 30
0.0
 10
15.0223955982
 20
7.8434568978
 30
0.0
 10
15.0179046644
 20
7.8267437975
 30
0.0
 10
15.0133202968
 20
7.8104277036
 30
0.0
 10
15.0086463694
 20
7.794522104
 30
0.0
 10
15.0038866854
 20
7.7790401504
 30
0.0
 10
14.9990452676
 20
7.7639946293
 30
0.0
 10
14.9941260521
 20
7.7493979782
 30
0.0
 10
14.9891331996
 20
7.7352622405
 30
0.0
 10
14.9840707653
 20
7.7215990959
 30
0.0
 10
14.9789430316
 20
7.7084198018
 30
0.0
 10
14.9737541595
 20
7.6957352386
 30
0.0
 10
14.9685085346
 20
7.6835558367
 30
0.0
 10
14.9632104082
 20
7.671891637
 30
0.0
 10
14.957864248
 20
7.6607522027
 30
0.0
 10
14.9524743773
 20
7.650146697
 30
0.0
 10
14.9470453192
 20
7.6400837774
 30
0.0
 10
14.941581445
 20
7.6305716922
 30
0.0
 10
14.9360872983
 20
7.6216181581
 30
0.0
 10
14.9305672631
 20
7.6132304749
 30
0.0
 10
14.9250258541
 20
7.6054153912
 30
0.0
 10
14.9194674145
 20
7.5981792358
 30
0.0
 10
14.913896357
 20
7.5915277835
 30
0.0
 10
14.9083169042
 20
7.5854664024
 30
0.0
 10
14.9027332671
 20
7.5799999439
 30
0.0
 10
14.8971494537
 20
7.5751329098
 30
0.0
 10
14.8915693767
 20
7.570869403
 30
0.0
 10
14.8859968375
 20
7.5672133197
 30
0.0
 10
14.8804354292
 20
7.564168359
 30
0.0
 10
14.8748894742
 20
7.5617382725
 30
0.0
 10
14.8702432292
 20
7.5602154594
 30
0.0
 10
14.8665521633
 20
7.5593189633
 30
0.0
 10
14.8638149667
 20
7.5588071579
 30
0.0
 10
14.8610860616
 20
7.5584504934
 30
0.0
 10
14.8583659729
 20
7.5582490928
 30
0.0
 10
14.8556554735
 20
7.5582029865
 30
0.0
 10
14.8538540684
 20
7.5582758519
 30
0.0
 10
14.8529567649
 20
7.5583380751
 30
0.0
  0
SPLINE
  5
3A7
100
AcDbEntity
  8
0
100
AcDbSpline
 62
7
  6
CONTINUOUS
 70
0
 71
3
 72
50
 73
46
 74
0
 42
0.0000001
 43
0.0000001
 44
0.0000000001
 40
0.0
 40
0.0
 40
0.0
 40
0.0
 40
0.0481971467
 40
0.0958302837
 40
0.1428202972
 40
0.189098125
 40
0.234593468
 40
0.2792371674
 40
0.3229625949
 40
0.3657050869
 40
0.4074020646
 40
0.4479934606
 40
0.4874219564
 40
0.5256330025
 40
0.5625752865
 40
0.5982010318
 40
0.6324661223
 40
0.6653307666
 40
0.696759877
 40
0.7267234672
 40
0.7551976659
 40
0.7821653999
 40
0.7950817077
 40
0.8076187382
 40
0.8197768208
 40
0.831556906
 40
0.8429608765
 40
0.8539913821
 40
0.8646519173
 40
0.8749471748
 40
0.8848829424
 40
0.8944661926
 40
0.9037054754
 40
0.9126108941
 40
0.9211942174
 40
0.9294692922
 40
0.9374520904
 40
0.945160818
 40
0.9598349472
 40
0.9668567795
 40
0.9737036277
 40
0.9804068569
 40
0.9870000777
 40
0.9935188295
 40
1.0
 40
1.0
 40
1.0
 40
1.0
 10
10.2451567383
 20
11.0815770032
 30
0.0
 10
10.2513136909
 20
11.0811500171
 30
0.0
 10
10.2635508998
 20
11.0802322957
 30
0.0
 10
10.2817715212
 20
11.0786543558
 30
0.0
 10
10.2997276493
 20
11.0768850288
 30
0.0
 10
10.3173888341
 20
11.0749273552
 30
0.0
 10
10.3347258515
 20
11.0727846218
 30
0.0
 10
10.3517096723
 20
11.070460405
 30
0.0
 10
10.3683118723
 20
11.067958608
 30
0.0
 10
10.3845047308
 20
11.0652834643
 30
0.0
 10
10.4002611878
 20
11.0624394491
 30
0.0
 10
10.415554921
 20
11.0594313364
 30
0.0
 10
10.4303604002
 20
11.0562642166
 30
0.0
 10
10.4446529116
 20
11.0529433871
 30
0.0
 10
10.4584086168
 20
11.0494744339
 30
0.0
 10
10.4716045976
 20
11.0458632201
 30
0.0
 10
10.4842188768
 20
11.0421157795
 30
0.0
 10
10.4962304906
 20
11.0382384201
 30
0.0
 10
10.5076195037
 20
11.0342376738
 30
0.0
 10
10.5183670954
 20
11.0301201898
 30
0.0
 10
10.5284554008
 20
11.0258928814
 30
0.0
 10
10.5364096915
 20
11.0222337449
 30
0.0
 10
10.5424236083
 20
11.0192509007
 30
0.0
 10
10.5466939249
 20
11.0170229278
 30
0.0
 10
10.5507873865
 20
11.014772853
 30
0.0
 10
10.5547022797
 20
11.0125015453
 30
0.0
 10
10.5584370052
 20
11.0102099845
 30
0.0
 10
10.5619900264
 20
11.0078991159
 30
0.0
 10
10.5653598461
 20
11.0055698395
 30
0.0
 10
10.5685450989
 20
11.0032231375
 30
0.0
 10
10.5715444838
 20
11.0008599675
 30
0.0
 10
10.5743567243
 20
10.9984812282
 30
0.0
 10
10.5769806837
 20
10.9960878931
 30
0.0
 10
10.5794152876
 20
10.9936809226
 30
0.0
 10
10.5816594773
 20
10.9912611827
 30
0.0
 10
10.5837122802
 20
10.9888297013
 30
0.0
 10
10.5855729708
 20
10.9863871698
 30
0.0
 10
10.5877600799
 20
10.9831707459
 30
0.0
 10
10.5896105021
 20
10.9798783379
 30
0.0
 10
10.5910765552
 20
10.9765277243
 30
0.0
 10
10.5919642189
 20
10.9740450927
 30
0.0
 10
10.592655312
 20
10.9715576042
 30
0.0
 10
10.5931493264
 20
10.9690662265
 30
0.0
 10
10.5934458741
 20
10.9665724277
 30
0.0
 10
10.5935118754
 20
10.96490702
 30
0.0
 10
10.5935118816
 20
10.9640770932
 30
0.0
  0
SPLINE
  5
3A8
100
AcDbEntity
  8
0
100
AcDbSpline
 62
7
  6
CONTINUOUS
 70
0
 71
3
 72
61
 73
57
 74
0
 42
0.0000001
 43
0.0000001
 44
0.0000000001
 40
0.0
 40
0.0
 40
0.0
 40
0.0
 40
0.0532124629
 40
0.1056319491
 40
0.1571421076
 40
0.2076316002
 40
0.2569907706
 40
0.3051139983
 40
0.3518993315
 40
0.3972491801
 40
0.4410707035
 40
0.4832763441
 40
0.5037477449
 40
0.5237850593
 40
0.5433790887
 40
0.5625210826
 40
0.581202824
 40
0.599416513
 40
0.6171550217
 40
0.6344116641
 40
0.6511805197
 40
0.6674562271
 40
0.6832342341
 40
0.6985107537
 40
0.7132828456
 40
0.7275485974
 40
0.741307037
 40
0.7545585083
 40
0.7673045144
 40
0.7795481708
 40
0.7912941476
 40
0.8025490681
 40
0.8133216915
 40
0.8236231984
 40
0.8334676595
 40
0.8428722432
 40
0.8518578985
 40
0.8604495733
 40
0.868676915
 40
0.8765745202
 40
0.8841823577
 40
0.8915458384
 40
0.8987156036
 40
0.9057469932
 40
0.9126989546
 40
0.9196326752
 40
0.9266098584
 40
0.9336909635
 40
0.9409336189
 40
0.9483913354
 40
0.9561126533
 40
0.9641407797
 40
0.9725134188
 40
0.9812631466
 40
0.9904175692
 40
1.0
 40
1.0
 40
1.0
 40
1.0
 10
15.196938515
 20
8.5086818685
 30
0.0
 10
15.196938515
 20
8.521633828
 30
0.0
 10
15.1967716863
 20
8.5473450798
 30
0.0
 10
15.1960101017
 20
8.5855871538
 30
0.0
 10
15.1947406829
 20
8.6231527258
 30
0.0
 10
15.1929665708
 20
8.6599521752
 30
0.0
 10
15.1906920165
 20
8.6958981883
 30
0.0
 10
15.1879225412
 20
8.7309052312
 30
0.0
 10
15.1846648184
 20
8.7648901246
 30
0.0
 10
15.1809267227
 20
8.7977721557
 30
0.0
 10
15.1767172448
 20
8.8294731202
 30
0.0
 10
15.1727862228
 20
8.8550973094
 30
0.0
 10
15.1694038835
 20
8.8749442715
 30
0.0
 10
15.1667815626
 20
8.8893367298
 30
0.0
 10
15.1640495055
 20
8.9033792629
 30
0.0
 10
15.1612093024
 20
8.9170635402
 30
0.0
 10
15.1582627004
 20
8.9303814316
 30
0.0
 10
15.1552113899
 20
8.9433250275
 30
0.0
 10
15.1520572726
 20
8.9558866493
 30
0.0
 10
15.1488021468
 20
8.9680588399
 30
0.0
 10
15.1454480285
 20
8.9798343879
 30
0.0
 10
15.1419968602
 20
8.9912063123
 30
0.0
 10
15.138450726
 20
9.0021678832
 30
0.0
 10
15.1348117369
 20
9.0127126205
 30
0.0
 10
15.1310820172
 20
9.0228342879
 30
0.0
 10
15.1272638431
 20
9.0325269304
 30
0.0
 10
15.1233593783
 20
9.0417848197
 30
0.0
 10
15.1193710249
 20
9.0506025435
 30
0.0
 10
15.1153010132
 20
9.0589749038
 30
0.0
 10
15.1111518001
 20
9.0668970341
 30
0.0
 10
15.1069257156
 20
9.0743642962
 30
0.0
 10
15.1026251959
 20
9.0813723565
 30
0.0
 10
15.0982526746
 20
9.0879171607
 30
0.0
 10
15.0938105115
 20
9.0939948798
 30
0.0
 10
15.089301202
 20
9.0996020374
 30
0.0
 10
15.0847270101
 20
9.1047352622
 30
0.0
 10
15.080090414
 20
9.1093915784
 30
0.0
 10
15.0753936251
 20
9.1135680017
 30
0.0
 10
15.0706390608
 20
9.1172618762
 30
0.0
 10
15.0658290272
 20
9.1204705066
 30
0.0
 10
15.0609660241
 20
9.1231913421
 30
0.0
 10
15.0560527642
 20
9.1254219448
 30
0.0
 10
15.0510922361
 20
9.1271598817
 30
0.0
 10
15.0460879329
 20
9.1284032625
 30
0.0
 10
15.0410436717
 20
9.1291503224
 30
0.0
 10
15.0359636686
 20
9.1294003574
 30
0.0
 10
15.0308522159
 20
9.1291530424
 30
0.0
 10
15.0257135124
 20
9.1284091502
 30
0.0
 10
15.0205514703
 20
9.1271698578
 30
0.0
 10
15.0153696326
 20
9.1254368943
 30
0.0
 10
15.0101711573
 20
9.1232122902
 30
0.0
 10
15.0049590138
 20
9.1204980827
 30
0.0
 10
14.9997358873
 20
9.117296643
 30
0.0
 10
14.9945045272
 20
9.1136101237
 30
0.0
 10
14.9892676651
 20
9.1094412422
 30
0.0
 10
14.9858545427
 20
9.1064129678
 30
0.0
 10
14.9841472008
 20
9.1048239611
 30
0.0
  0
SPLINE
  5
3A9
100
AcDbEntity
  8
0
100
AcDbSpline
 62
7
  6
CONTINUOUS
 70
0
 71
3
 72
53
 73
49
 74
0
 42
0.0000001
 43
0.0000001
 44
0.0000000001
 40
0.0
 40
0.0
 40
0.0
 40
0.0
 40
0.0484983805
 40
0.0964118564
 40
0.1436637064
 40
0.1901844976
 40
0.2359035428
 40
0.2807523618
 40
0.3246644701
 40
0.3675752306
 40
0.4094223196
 40
0.4501458431
 40
0.4896884975
 40
0.5279958372
 40
0.5650166013
 40
0.6007029218
 40
0.6350106311
 40
0.667899724
 40
0.6993348283
 40
0.7144978247
 40
0.7292864554
 40
0.7436978014
 40
0.7577294872
 40
0.7713794832
 40
0.7846462529
 40
0.7975288748
 40
0.8100268763
 40
0.8221404851
 40
0.8338706417
 40
0.845218931
 40
0.8561878943
 40
0.8667809583
 40
0.8770025133
 40
0.8868582278
 40
0.8963549627
 40
0.9055010136
 40
0.9143063733
 40
0.9227827191
 40
0.9309437772
 40
0.9388055051
 40
0.9463861797
 40
0.9607839354
 40
0.9676582343
 40
0.974352078
 40
0.9808975949
 40
0.9873293911
 40
0.9936841503
 40
1.0
 40
1.0
 40
1.0
 40
1.0
 10
15.0989589378
 20
8.4940408589
 30
0.0
 10
15.0989589378
 20
8.5037982421
 30
0.0
 10
15.0988539703
 20
8.5231955092
 30
0.0
 10
15.0983759848
 20
8.5520958241
 30
0.0
 10
15.0975790592
 20
8.5805911401
 30
0.0
 10
15.0964646025
 20
8.6086339853
 30
0.0
 10
15.0950344312
 20
8.6361784355
 30
0.0
 10
15.0932909538
 20
8.6631789585
 30
0.0
 10
15.0912370854
 20
8.6895910264
 30
0.0
 10
15.0888762275
 20
8.7153710956
 30
0.0
 10
15.086212326
 20
8.7404766592
 30
0.0
 10
15.0832498309
 20
8.7648663454
 30
0.0
 10
15.0799936727
 20
8.788499966
 30
0.0
 10
15.0764492627
 20
8.8113385941
 30
0.0
 10
15.0726225261
 20
8.8333446489
 30
0.0
 10
15.0685198424
 20
8.854481932
 30
0.0
 10
15.0641480334
 20
8.8747157454
 30
0.0
 10
15.0595143626
 20
8.8940127612
 30
0.0
 10
15.055393284
 20
8.9094667706
 30
0.0
 10
15.0519633507
 20
8.9213316973
 30
0.0
 10
15.0493611926
 20
8.9298696817
 30
0.0
 10
15.0466994524
 20
8.9381505306
 30
0.0
 10
15.0439792635
 20
8.9461708644
 30
0.0
 10
15.0412017281
 20
8.9539273823
 30
0.0
 10
15.0383679654
 20
8.9614168942
 30
0.0
 10
15.0354791946
 20
8.9686363463
 30
0.0
 10
15.0325365528
 20
8.9755827676
 30
0.0
 10
15.0295412528
 20
8.9822533182
 30
0.0
 10
15.0264945576
 20
8.9886452898
 30
0.0
 10
15.0233976432
 20
8.9947560496
 30
0.0
 10
15.0202518051
 20
9.0005831261
 30
0.0
 10
15.017058323
 20
9.0061241592
 30
0.0
 10
15.0138184134
 20
9.0113768668
 30
0.0
 10
15.0105334273
 20
9.0163391543
 30
0.0
 10
15.0072046325
 20
9.0210090003
 30
0.0
 10
15.0038332836
 20
9.0253844841
 30
0.0
 10
15.0004207506
 20
9.029463867
 30
0.0
 10
14.9969682367
 20
9.0332454577
 30
0.0
 10
14.9934771414
 20
9.0367276049
 30
0.0
 10
14.9899484108
 20
9.0399091427
 30
0.0
 10
14.9852766271
 20
9.0436826258
 30
0.0
 10
14.9804491761
 20
9.0469389194
 30
0.0
 10
14.9754869315
 20
9.0495989073
 30
0.0
 10
14.971791311
 20
9.0512564416
 30
0.0
 10
14.9680667954
 20
9.0526056746
 30
0.0
 10
14.9643148142
 20
9.0536457214
 30
0.0
 10
14.9605376039
 20
9.0543758913
 30
0.0
 10
14.9580005042
 20
9.0546560257
 30
0.0
 10
14.9567328634
 20
9.0547439299
 30
0.0
  0
SPLINE
  5
3AA
100
AcDbEntity
  8
0
100
AcDbSpline
 62
7
  6
CONTINUOUS
 70
0
 71
3
 72
55
 73
51
 74
0
 42
0.0000001
 43
0.0000001
 44
0.0000000001
 40
0.0
 40
0.0
 40
0.0
 40
0.0
 40
0.0481975415
 40
0.0958290817
 40
0.142818713
 40
0.1890963521
 40
0.2345910715
 40
0.279234315
 40
0.3229593385
 40
0.3657013756
 40
0.4073979227
 40
0.4479889149
 40
0.4874169784
 40
0.525627636
 40
0.5625695632
 40
0.5981948995
 40
0.6324596307
 40
0.6653239472
 40
0.681220104
 40
0.69675341
 40
0.7119202568
 40
0.7267175098
 40
0.7411423279
 40
0.7551923488
 40
0.7688656914
 40
0.782160877
 40
0.7950770786
 40
0.8076139743
 40
0.8197718786
 40
0.8315518771
 40
0.8429557109
 40
0.8539860605
 40
0.8646465134
 40
0.8749416424
 40
0.8848772785
 40
0.8944604376
 40
0.9036996141
 40
0.912604918
 40
0.921188144
 40
0.9294631376
 40
0.9374458256
 40
0.9451544636
 40
0.952609859
 40
0.9598353745
 40
0.966857131
 40
0.9737039172
 40
0.9804070573
 40
0.9870002114
 40
0.9935188976
 40
1.0
 40
1.0
 40
1.0
 40
1.0
 10
10.3512724592
 20
11.2729421074
 30
0.0
 10
10.3628005904
 20
11.2721426288
 30
0.0
 10
10.3857127749
 20
11.2704243654
 30
0.0
 10
10.4198279714
 20
11.2674698943
 30
0.0
 10
10.4534478036
 20
11.2641571177
 30
0.0
 10
10.4865156331
 20
11.2604917142
 30
0.0
 10
10.5189764805
 20
11.2564797584
 30
0.0
 10
10.5507759667
 20
11.2521280213
 30
0.0
 10
10.5818609663
 20
11.24744382
 30
0.0
 10
10.612179533
 20
11.2424350247
 30
0.0
 10
10.6416810002
 20
11.2371100509
 30
0.0
 10
10.6703160909
 20
11.231477847
 30
0.0
 10
10.6980369974
 20
11.2255478948
 30
0.0
 10
10.7247974623
 20
11.2193301681
 30
0.0
 10
10.750552835
 20
11.2128351206
 30
0.0
 10
10.7752602268
 20
11.2060736647
 30
0.0
 10
10.7988783731
 20
11.199057175
 30
0.0
 10
10.8178240847
 20
11.1929415768
 30
0.0
 10
10.8323994771
 20
11.1879222674
 30
0.0
 10
10.84291319
 20
11.1841431831
 30
0.0
 10
10.8531260904
 20
11.1803092802
 30
0.0
 10
10.8630339463
 20
11.1764222015
 30
0.0
 10
10.8726326156
 20
11.1724835334
 30
0.0
 10
10.8819181017
 20
11.1684949249
 30
0.0
 10
10.8908865518
 20
11.1644580779
 30
0.0
 10
10.8995342142
 20
11.1603746115
 30
0.0
 10
10.9078575154
 20
11.156246283
 30
0.0
 10
10.9158529944
 20
11.1520747873
 30
0.0
 10
10.9235173223
 20
11.1478618267
 30
0.0
 10
10.9308473521
 20
11.1436092062
 30
0.0
 10
10.9378400212
 20
11.1393186115
 30
0.0
 10
10.9444924576
 20
11.1349918422
 30
0.0
 10
10.9508019264
 20
11.1306306797
 30
0.0
 10
10.9567657889
 20
11.1262368353
 30
0.0
 10
10.9623816341
 20
11.1218121571
 30
0.0
 10
10.9676471136
 20
11.1173583617
 30
0.0
 10
10.9725600481
 20
11.1128772181
 30
0.0
 10
10.9771184376
 20
11.1083705308
 30
0.0
 10
10.9813202992
 20
11.1038399705
 30
0.0
 10
10.9851639021
 20
11.099287343
 30
0.0
 10
10.9886475505
 20
11.0947143577
 30
0.0
 10
10.9917696214
 20
11.0901227195
 30
0.0
 10
10.994528719
 20
11.0855142392
 30
0.0
 10
10.9969233493
 20
11.0808906325
 30
0.0
 10
10.9989522497
 20
11.0762537758
 30
0.0
 10
11.0006142375
 20
11.0716055884
 30
0.0
 10
11.0019081158
 20
11.0669481004
 30
0.0
 10
11.0028330889
 20
11.0622834096
 30
0.0
 10
11.0033883526
 20
11.0576141642
 30
0.0
 10
11.0035118731
 20
11.0544959498
 30
0.0
 10
11.00351187
 20
11.0529420437
 30
0.0
  0
SPLINE
  5
3AB
100
AcDbEntity
  8
0
100
AcDbSpline
 62
7
  6
CONTINUOUS
 70
0
 71
3
 72
66
 73
62
 74
0
 42
0.0000001
 43
0.0000001
 44
0.0000000001
 40
0.0
 40
0.0
 40
0.0
 40
0.0
 40
0.0452917928
 40
0.0911371645
 40
0.1373524712
 40
0.1837513361
 40
0.2301468632
 40
0.2763520146
 40
0.3221807929
 40
0.3674491523
 40
0.4119759995
 40
0.455584183
 40
0.4981015077
 40
0.5393617773
 40
0.5594708023
 40
0.579206547
 40
0.5985503874
 40
0.6174843719
 40
0.6359910885
 40
0.6540539167
 40
0.6716568471
 40
0.6887847783
 40
0.705423331
 40
0.7215591482
 40
0.7371797587
 40
0.7522738396
 40
0.7668311806
 40
0.7808428827
 40
0.7943014671
 40
0.8072010057
 40
0.8195374087
 40
0.831308515
 40
0.8425145829
 40
0.8531584071
 40
0.8632460366
 40
0.8727870277
 40
0.8817954107
 40
0.8902902204
 40
0.8982967123
 40
0.9058472458
 40
0.9129826136
 40
0.9197530163
 40
0.9230210152
 40
0.9262213116
 40
0.9293630737
 40
0.9324560419
 40
0.9355104659
 40
0.938537038
 40
0.9415467839
 40
0.9445509247
 40
0.9475607527
 40
0.9505874926
 40
0.9536421574
 40
0.9567354364
 40
0.9598775957
 40
0.9630783636
 40
0.9696893951
 40
0.9766367194
 40
0.9839755101
 40
0.9917511511
 40
1.0
 40
1.0
 40
1.0
 40
1.0
 10
10.2606858681
 20
11.1545325447
 30
0.0
 10
10.249382473
 20
11.1553164378
 30
0.0
 10
10.2266226342
 20
11.1566861322
 30
0.0
 10
10.192290866
 20
11.1581460938
 30
0.0
 10
10.1576620722
 20
11.1590203691
 30
0.0
 10
10.1228858304
 20
11.1593051189
 30
0.0
 10
10.0881123008
 20
11.1589991173
 30
0.0
 10
10.0534916014
 20
11.1581036908
 30
0.0
 10
10.0191732021
 20
11.1566227462
 30
0.0
 10
9.9853052467
 20
11.1545627401
 30
0.0
 10
9.952033929
 20
11.1519326556
 30
0.0
 10
9.9195027942
 20
11.1487439759
 30
0.0
 10
9.8878523162
 20
11.145010591
 30
0.0
 10
9.8621089371
 20
11.1414292505
 30
0.0
 10
9.8420620926
 20
11.1382959332
 30
0.0
 10
9.8274596463
 20
11.1358406104
 30
0.0
 10
9.8131769786
 20
11.1332625233
 30
0.0
 10
9.7992294904
 20
11.1305645031
 30
0.0
 10
9.7856322379
 20
11.1277494138
 30
0.0
 10
9.7723998893
 20
11.1248203794
 30
0.0
 10
9.7595467199
 20
11.121780498
 30
0.0
 10
9.7470865852
 20
11.1186331437
 30
0.0
 10
9.7350329187
 20
11.1153816534
 30
0.0
 10
9.7233986997
 20
11.1120296197
 30
0.0
 10
9.7121964574
 20
11.1085806171
 30
0.0
 10
9.7014382354
 20
11.1050384257
 30
0.0
 10
9.6911355961
 20
11.1014068504
 30
0.0
 10
9.6812995921
 20
11.0976898276
 30
0.0
 10
9.6719407562
 20
11.0938913778
 30
0.0
 10
9.6630690977
 20
11.0900155596
 30
0.0
 10
9.6546940579
 20
11.086066581
 30
0.0
 10
9.6468245537
 20
11.0820485829
 30
0.0
 10
9.6394688763
 20
11.0779659094
 30
0.0
 10
9.6326348085
 20
11.0738227294
 30
0.0
 10
9.626329451
 20
11.069623433
 30
0.0
 10
9.6205594343
 20
11.0653721333
 30
0.0
 10
9.6153306865
 20
11.0610731224
 30
0.0
 10
9.6106487457
 20
11.0567303257
 30
0.0
 10
9.6065185521
 20
11.0523477875
 30
0.0
 10
9.6029447855
 20
11.0479290383
 30
0.0
 10
9.5999320123
 20
11.0434782299
 30
0.0
 10
9.5978684095
 20
11.0397008523
 30
0.0
 10
9.5965163312
 20
11.0366759859
 30
0.0
 10
9.5956566513
 20
11.0344294354
 30
0.0
 10
9.5949398271
 20
11.0321791934
 30
0.0
 10
9.5943660873
 20
11.0299258467
 30
0.0
 10
9.5939357041
 20
11.0276700594
 30
0.0
 10
9.5936488816
 20
11.0254125084
 30
0.0
 10
9.5935056904
 20
11.0231538993
 30
0.0
 10
9.593506191
 20
11.0208949351
 30
0.0
 10
9.5936504347
 20
11.0186363287
 30
0.0
 10
9.5939383471
 20
11.0163787941
 30
0.0
 10
9.594369762
 20
11.0141230191
 30
0.0
 10
9.594944499
 20
11.0118696945
 30
0.0
 10
9.595662415
 20
11.0096194386
 30
0.0
 10
9.596822368
 20
11.0065918961
 30
0.0
 10
9.5986461957
 20
11.0028072743
 30
0.0
 10
9.6013789545
 20
10.9983417738
 30
0.0
 10
9.6046748833
 20
10.9939064229
 30
0.0
 10
9.6085293252
 20
10.9895056613
 30
0.0
 10
9.611381194
 20
10.9866833154
 30
0.0
 10
9.612891846
 20
10.9852774856
 30
0.0
  0
SPLINE
  5
3AC
100
AcDbEntity
  8
0
100
AcDbSpline
 62
4
  6
CONTINUOUS
 70
0
 71
3
 72
403
 73
399
 74
0
 42
0.0000001
 43
0.0000001
 44
0.0000000001
 40
0.0
 40
0.0
 40
0.0
 40
0.0
 40
0.015625
 40
0.0234375
 40
0.03125
 40
0.0390625
 40
0.04296875
 40
0.046875
 40
0.05078125
 40
0.0546875
 40
0.056640625
 40
0.05859375
 40
0.0595703125
 40
0.060546875
 40
0.0615234375
 40
0.0620117188
 40
0.0622558594
 40
0.0625
 40
0.0627441406
 40
0.0629882812
 40
0.0634765625
 40
0.064453125
 40
0.0654296875
 40
0.06640625
 40
0.068359375
 40
0.0703125
 40
0.07421875
 40
0.078125
 40
0.08203125
 40
0.0859375
 40
0.09375
 40
0.1015625
 40
0.10546875
 40
0.109375
 40
0.11328125
 40
0.1171875
 40
0.119140625
 40
0.12109375
 40
0.1220703125
 40
0.123046875
 40
0.1240234375
 40
0.1245117188
 40
0.1247558594
 40
0.125
 40
0.1252441406
 40
0.1254882812
 40
0.1259765625
 40
0.126953125
 40
0.1279296875
 40
0.12890625
 40
0.130859375
 40
0.1328125
 40
0.13671875
 40
0.140625
 40
0.14453125
 40
0.1484375
 40
0.15625
 40
0.1640625
 40
0.16796875
 40
0.171875
 40
0.17578125
 40
0.1796875
 40
0.181640625
 40
0.18359375
 40
0.1845703125
 40
0.185546875
 40
0.1865234375
 40
0.1870117188
 40
0.1872558594
 40
0.1875
 40
0.1877441406
 40
0.1879882812
 40
0.1884765625
 40
0.189453125
 40
0.1904296875
 40
0.19140625
 40
0.193359375
 40
0.1953125
 40
0.19921875
 40
0.203125
 40
0.20703125
 40
0.2109375
 40
0.21875
 40
0.2265625
 40
0.23046875
 40
0.234375
 40
0.23828125
 40
0.2421875
 40
0.244140625
 40
0.24609375
 40
0.2470703125
 40
0.248046875
 40
0.2490234375
 40
0.2495117188
 40
0.2497558594
 40
0.25
 40
0.2502441406
 40
0.2504882812
 40
0.2509765625
 40
0.251953125
 40
0.2529296875
 40
0.25390625
 40
0.255859375
 40
0.2578125
 40
0.26171875
 40
0.265625
 40
0.26953125
 40
0.2734375
 40
0.28125
 40
0.2890625
 40
0.29296875
 40
0.296875
 40
0.30078125
 40
0.3046875
 40
0.306640625
 40
0.30859375
 40
0.3095703125
 40
0.310546875
 40
0.3115234375
 40
0.3120117188
 40
0.3122558594
 40
0.3125
 40
0.3127441406
 40
0.3129882812
 40
0.3134765625
 40
0.314453125
 40
0.3154296875
 40
0.31640625
 40
0.318359375
 40
0.3203125
 40
0.32421875
 40
0.328125
 40
0.33203125
 40
0.3359375
 40
0.34375
 40
0.3515625
 40
0.35546875
 40
0.359375
 40
0.36328125
 40
0.3671875
 40
0.369140625
 40
0.37109375
 40
0.3720703125
 40
0.373046875
 40
0.3740234375
 40
0.3745117188
 40
0.3747558594
 40
0.375
 40
0.3752441406
 40
0.3754882812
 40
0.3759765625
 40
0.376953125
 40
0.3779296875
 40
0.37890625
 40
0.380859375
 40
0.3828125
 40
0.38671875
 40
0.390625
 40
0.39453125
 40
0.3984375
 40
0.40625
 40
0.4140625
 40
0.41796875
 40
0.421875
 40
0.42578125
 40
0.4296875
 40
0.431640625
 40
0.43359375
 40
0.4345703125
 40
0.435546875
 40
0.4365234375
 40
0.4370117188
 40
0.4372558594
 40
0.4375
 40
0.4377441406
 40
0.4379882812
 40
0.4384765625
 40
0.439453125
 40
0.4404296875
 40
0.44140625
 40
0.443359375
 40
0.4453125
 40
0.44921875
 40
0.453125
 40
0.45703125
 40
0.4609375
 40
0.46875
 40
0.4765625
 40
0.48046875
 40
0.484375
 40
0.48828125
 40
0.4921875
 40
0.494140625
 40
0.49609375
 40
0.4970703125
 40
0.498046875
 40
0.4990234375
 40
0.4995117188
 40
0.4997558594
 40
0.5
 40
0.5002441406
 40
0.5004882812
 40
0.5009765625
 40
0.501953125
 40
0.5029296875
 40
0.50390625
 40
0.505859375
 40
0.5078125
 40
0.51171875
 40
0.515625
 40
0.51953125
 40
0.5234375
 40
0.53125
 40
0.5390625
 40
0.54296875
 40
0.546875
 40
0.55078125
 40
0.5546875
 40
0.556640625
 40
0.55859375
 40
0.5595703125
 40
0.560546875
 40
0.5615234375
 40
0.5620117188
 40
0.5622558594
 40
0.5625
 40
0.5627441406
 40
0.5629882812
 40
0.5634765625
 40
0.564453125
 40
0.5654296875
 40
0.56640625
 40
0.568359375
 40
0.5703125
 40
0.57421875
 40
0.578125
 40
0.58203125
 40
0.5859375
 40
0.59375
 40
0.6015625
 40
0.60546875
 40
0.609375
 40
0.61328125
 40
0.6171875
 40
0.619140625
 40
0.62109375
 40
0.6220703125
 40
0.623046875
 40
0.6240234375
 40
0.6245117188
 40
0.6247558594
 40
0.625
 40
0.6252441406
 40
0.6254882812
 40
0.6259765625
 40
0.626953125
 40
0.6279296875
 40
0.62890625
 40
0.630859375
 40
0.6328125
 40
0.63671875
 40
0.640625
 40
0.64453125
 40
0.6484375
 40
0.65625
 40
0.6640625
 40
0.66796875
 40
0.671875
 40
0.67578125
 40
0.6796875
 40
0.681640625
 40
0.68359375
 40
0.6845703125
 40
0.685546875
 40
0.6865234375
 40
0.6870117188
 40
0.6872558594
 40
0.6875
 40
0.6877441406
 40
0.6879882812
 40
0.6884765625
 40
0.689453125
 40
0.6904296875
 40
0.69140625
 40
0.693359375
 40
0.6953125
 40
0.69921875
 40
0.703125
 40
0.70703125
 40
0.7109375
 40
0.71875
 40
0.7265625
 40
0.73046875
 40
0.734375
 40
0.73828125
 40
0.7421875
 40
0.744140625
 40
0.74609375
 40
0.7470703125
 40
0.748046875
 40
0.7490234375
 40
0.7495117188
 40
0.7497558594
 40
0.75
 40
0.7502441406
 40
0.7504882812
 40
0.7509765625
 40
0.751953125
 40
0.7529296875
 40
0.75390625
 40
0.755859375
 40
0.7578125
 40
0.76171875
 40
0.765625
 40
0.76953125
 40
0.7734375
 40
0.78125
 40
0.7890625
 40
0.79296875
 40
0.796875
 40
0.80078125
 40
0.8046875
 40
0.806640625
 40
0.80859375
 40
0.8095703125
 40
0.810546875
 40
0.8115234375
 40
0.8120117188
 40
0.8122558594
 40
0.8125
 40
0.8127441406
 40
0.8129882812
 40
0.8134765625
 40
0.814453125
 40
0.8154296875
 40
0.81640625
 40
0.818359375
 40
0.8203125
 40
0.82421875
 40
0.828125
 40
0.83203125
 40
0.8359375
 40
0.84375
 40
0.8515625
 40
0.85546875
 40
0.859375
 40
0.86328125
 40
0.8671875
 40
0.869140625
 40
0.87109375
 40
0.8720703125
 40
0.873046875
 40
0.8740234375
 40
0.8745117188
 40
0.8747558594
 40
0.875
 40
0.8752441406
 40
0.8754882812
 40
0.8759765625
 40
0.876953125
 40
0.8779296875
 40
0.87890625
 40
0.880859375
 40
0.8828125
 40
0.88671875
 40
0.890625
 40
0.89453125
 40
0.8984375
 40
0.90625
 40
0.9140625
 40
0.91796875
 40
0.921875
 40
0.92578125
 40
0.9296875
 40
0.931640625
 40
0.93359375
 40
0.9345703125
 40
0.935546875
 40
0.9365234375
 40
0.9370117188
 40
0.9372558594
 40
0.9375
 40
0.9377441406
 40
0.9379882812
 40
0.9384765625
 40
0.939453125
 40
0.9404296875
 40
0.94140625
 40
0.943359375
 40
0.9453125
 40
0.94921875
 40
0.953125
 40
0.95703125
 40
0.9609375
 40
0.96875
 40
0.9765625
 40
0.984375
 40
1.0
 40
1.0
 40
1.0
 40
1.0
 10
10.8258014411
 20
7.7908430132
 30
0.0
 10
10.8195350672
 20
7.7906631644
 30
0.0
 10
10.8101355065
 20
7.7903933911
 30
0.0
 10
10.7976027588
 20
7.7900336935
 30
0.0
 10
10.7882031981
 20
7.7897639202
 30
0.0
 10
10.7803702307
 20
7.7895391095
 30
0.0
 10
10.774103857
 20
7.78935926
 30
0.0
 10
10.7694040762
 20
7.7892243753
 30
0.0
 10
10.7647042973
 20
7.7890894813
 30
0.0
 10
10.7607878091
 20
7.788977099
 30
0.0
 10
10.7576546315
 20
7.7888871272
 30
0.0
 10
10.7556963661
 20
7.788831045
 30
0.0
 10
10.754129821
 20
7.7887858353
 30
0.0
 10
10.7529547282
 20
7.7887528698
 30
0.0
 10
10.7519760694
 20
7.7887224026
 30
0.0
 10
10.7512898598
 20
7.788706955
 30
0.0
 10
10.7508995332
 20
7.7886889476
 30
0.0
 10
10.750601737
 20
7.7887013026
 30
0.0
 10
10.750323249
 20
7.7886148057
 30
0.0
 10
10.7499451966
 20
7.7885339572
 30
0.0
 10
10.749286743
 20
7.7883764071
 30
0.0
 10
10.7483444544
 20
7.7881597346
 30
0.0
 10
10.7472144103
 20
7.7878961325
 30
0.0
 10
10.7457074396
 20
7.7875459187
 30
0.0
 10
10.7438238101
 20
7.7871077215
 30
0.0
 10
10.740809956
 20
7.7864068464
 30
0.0
 10
10.7370426546
 20
7.7855306699
 30
0.0
 10
10.7325218859
 20
7.7844792936
 30
0.0
 10
10.7280011191
 20
7.7834279078
 30
0.0
 10
10.7219734294
 20
7.7820260634
 30
0.0
 10
10.7144388175
 20
7.7802737566
 30
0.0
 10
10.7069042053
 20
7.7785214506
 30
0.0
 10
10.700876516
 20
7.7771196049
 30
0.0
 10
10.696355748
 20
7.776068223
 30
0.0
 10
10.6918349837
 20
7.775016832
 30
0.0
 10
10.6880676688
 20
7.774140701
 30
0.0
 10
10.6850538421
 20
7.7734397332
 30
0.0
 10
10.6831701429
 20
7.7730017719
 30
0.0
 10
10.6816633153
 20
7.7726510739
 30
0.0
 10
10.6805328338
 20
7.7723889511
 30
0.0
 10
10.6795919139
 20
7.7721676504
 30
0.0
 10
10.6789310169
 20
7.7720183623
 30
0.0
 10
10.6785568794
 20
7.7719242759
 30
0.0
 10
10.6782663664
 20
7.7718784416
 30
0.0
 10
10.678013734
 20
7.7717380748
 30
0.0
 10
10.6776636776
 20
7.7715838931
 30
0.0
 10
10.6770572353
 20
7.7712987118
 30
0.0
 10
10.6761876705
 20
7.7708993421
 30
0.0
 10
10.6751455704
 20
7.7704166605
 30
0.0
 10
10.6737556224
 20
7.7697742858
 30
0.0
 10
10.6720183522
 20
7.7689709063
 30
0.0
 10
10.6692386278
 20
7.7676857288
 30
0.0
 10
10.6657640038
 20
7.7660791781
 30
0.0
 10
10.6615944416
 20
7.7641513511
 30
0.0
 10
10.6574248829
 20
7.7622235151
 30
0.0
 10
10.6518654701
 20
7.7596530702
 30
0.0
 10
10.6449162046
 20
7.7564400129
 30
0.0
 10
10.6379669387
 20
7.7532269564
 30
0.0
 10
10.6324075265
 20
7.7506565103
 30
0.0
 10
10.6282379661
 20
7.748728678
 30
0.0
 10
10.6240684104
 20
7.7468008369
 30
0.0
 10
10.6205937661
 20
7.7451943302
 30
0.0
 10
10.6178140831
 20
7.7439090631
 30
0.0
 10
10.6160767075
 20
7.7431059118
 30
0.0
 10
10.6146869759
 20
7.7424630686
 30
0.0
 10
10.6136442146
 20
7.7419818183
 30
0.0
 10
10.6127767185
 20
7.7415779702
 30
0.0
 10
10.6121665832
 20
7.7413007837
 30
0.0
 10
10.6118224439
 20
7.7411337923
 30
0.0
 10
10.6115516363
 20
7.7410327725
 30
0.0
 10
10.6113293863
 20
7.7408391575
 30
0.0
 10
10.6110161155
 20
7.7406133023
 30
0.0
 10
10.6104757831
 20
7.7402030074
 30
0.0
 10
10.609699754
 20
7.7396247394
 30
0.0
 10
10.608770285
 20
7.7389274501
 30
0.0
 10
10.6075303761
 20
7.7379989074
 30
0.0
 10
10.6059807013
 20
7.7368378262
 30
0.0
 10
10.6035011034
 20
7.7349803214
 30
0.0
 10
10.6004016467
 20
7.7326583632
 30
0.0
 10
10.5966822812
 20
7.7298720464
 30
0.0
 10
10.5929629203
 20
7.7270857208
 30
0.0
 10
10.5880037709
 20
7.7233706231
 30
0.0
 10
10.5818048348
 20
7.7187267498
 30
0.0
 10
10.5756058981
 20
7.7140828772
 30
0.0
 10
10.5706467495
 20
7.7103677783
 30
0.0
 10
10.5669273861
 20
7.707581456
 30
0.0
 10
10.5632080302
 20
7.7047951269
 30
0.0
 10
10.5601085437
 20
7.702473207
 30
0.0
 10
10.5576290065
 20
7.700615624
 30
0.0
 10
10.5560791774
 20
7.6994547419
 30
0.0
 10
10.5548395851
 20
7.6985257905
 30
0.0
 10
10.553909149
 20
7.6978297499
 30
0.0
 10
10.5531361455
 20
7.6972475752
 30
0.0
 10
10.5525904117
 20
7.6968442542
 30
0.0
 10
10.5522857954
 20
7.6966072252
 30
0.0
 10
10.5520369618
 20
7.6964479326
 30
0.0
 10
10.5518659978
 20
7.6962180035
 30
0.0
 10
10.5516108841
 20
7.6959360702
 30
0.0
 10
10.5511770902
 20
7.6954312073
 30
0.0
 10
10.5505507684
 20
7.6947159763
 30
0.0
 10
10.5498020142
 20
7.6938551301
 30
0.0
 10
10.5488026861
 20
7.6927082325
 30
0.0
 10
10.5475538646
 20
7.6912743033
 30
0.0
 10
10.545555561
 20
7.6889801882
 30
0.0
 10
10.5430577465
 20
7.6861124854
 30
0.0
 10
10.5400603412
 20
7.6826712674
 30
0.0
 10
10.5370629434
 20
7.6792300426
 30
0.0
 10
10.5330664103
 20
7.6746417452
 30
0.0
 10
10.528070745
 20
7.6689063726
 30
0.0
 10
10.523075079
 20
7.6631710005
 30
0.0
 10
10.519078547
 20
7.6585827022
 30
0.0
 10
10.516081146
 20
7.6551414801
 30
0.0
 10
10.5130837528
 20
7.651700252
 30
0.0
 10
10.5105859005
 20
7.6488325802
 30
0.0
 10
10.5085876739
 20
7.646538402
 30
0.0
 10
10.5073386567
 20
7.6451046334
 30
0.0
 10
10.5063397304
 20
7.6439574061
 30
0.0
 10
10.5055897487
 20
7.6430975671
 30
0.0
 10
10.5049672674
 20
7.642379185
 30
0.0
 10
10.5045266175
 20
7.6418799473
 30
0.0
 10
10.5042824888
 20
7.6415890011
 30
0.0
 10
10.5040777822
 20
7.6413867568
 30
0.0
 10
10.5039556804
 20
7.6411234847
 30
0.0
 10
10.5037640646
 20
7.6407937425
 30
0.0
 10
10.5034421615
 20
7.6402067755
 30
0.0
 10
10.5029752815
 20
7.6393734365
 30
0.0
 10
10.5024180296
 20
7.6383712103
 30
0.0
 10
10.5016739777
 20
7.6370356838
 30
0.0
 10
10.5007442722
 20
7.6353660103
 30
0.0
 10
10.4992565426
 20
7.632694681
 30
0.0
 10
10.4973969495
 20
7.6293554685
 30
0.0
 10
10.4951654082
 20
7.6253484354
 30
0.0
 10
10.4929338748
 20
7.6213413964
 30
0.0
 10
10.4899584942
 20
7.6159986797
 30
0.0
 10
10.4862392695
 20
7.6093202832
 30
0.0
 10
10.4825200441
 20
7.6026418871
 30
0.0
 10
10.4795446647
 20
7.5972991698
 30
0.0
 10
10.4773131278
 20
7.5932921329
 30
0.0
 10
10.4750815997
 20
7.5892850918
 30
0.0
 10
10.4732219656
 20
7.5859459041
 30
0.0
 10
10.4717343195
 20
7.5832745242
 30
0.0
 10
10.4708044013
 20
7.5816049795
 30
0.0
 10
10.4700607861
 20
7.5802691887
 30
0.0
 10
10.4695022003
 20
7.5792677701
 30
0.0
 10
10.4690394936
 20
7.578431904
 30
0.0
 10
10.4687101405
 20
7.5778494483
 30
0.0
 10
10.4685304614
 20
7.5775124778
 30
0.0
 10
10.4683716937
 20
7.5772714087
 30
0.0
 10
10.4683046985
 20
7.5769857739
 30
0.0
 10
10.4681833603
 20
7.5766204725
 30
0.0
 10
10.4679859331
 20
7.5759739523
 30
0.0
 10
10.4676960967
 20
7.5750541386
 30
0.0
 10
10.4673516307
 20
7.5739487414
 30
0.0
 10
10.4668911768
 20
7.5724754445
 30
0.0
 10
10.4663160087
 20
7.5706336296
 30
0.0
 10
10.4653955166
 20
7.5676868341
 30
0.0
 10
10.464244978
 20
7.5640033025
 30
0.0
 10
10.4628642988
 20
7.5595830805
 30
0.0
 10
10.4614836285
 20
7.5551628543
 30
0.0
 10
10.4596427316
 20
7.5492692208
 30
0.0
 10
10.4573416117
 20
7.5419021784
 30
0.0
 10
10.4550404909
 20
7.5345351364
 30
0.0
 10
10.4531995953
 20
7.5286415024
 30
0.0
 10
10.4518189212
 20
7.5242212777
 30
0.0
 10
10.4504382563
 20
7.5198010497
 30
0.0
 10
10.4492876733
 20
7.516117537
 30
0.0
 10
10.4483672718
 20
7.5131707031
 30
0.0
 10
10.4477918729
 20
7.5113289858
 30
0.0
 10
10.4473318928
 20
7.5098554885
 30
0.0
 10
10.4469859795
 20
7.5087507038
 30
0.0
 10
10.4467006712
 20
7.5078289736
 30
0.0
 10
10.4464951606
 20
7.5071858747
 30
0.0
 10
10.446386774
 20
7.5068150914
 30
0.0
 10
10.4462799958
 20
7.506546295
 30
0.0
 10
10.4462706465
 20
7.5062419837
 30
0.0
 10
10.4462241965
 20
7.5058486232
 30
0.0
 10
10.446158743
 20
7.5051544706
 30
0.0
 10
10.4460569597
 20
7.5041658416
 30
0.0
 10
10.4459383631
 20
7.5029781952
 30
0.0
 10
10.4457789967
 20
7.5013951178
 30
0.0
 10
10.4455802125
 20
7.4994161166
 30
0.0
 10
10.4452619208
 20
7.4962498009
 30
0.0
 10
10.4448641376
 20
7.4922918768
 30
0.0
 10
10.4443867628
 20
7.4875423804
 30
0.0
 10
10.4439093974
 20
7.4827928807
 30
0.0
 10
10.4432729069
 20
7.4764602156
 30
0.0
 10
10.4424772949
 20
7.4685443839
 30
0.0
 10
10.4416816822
 20
7.4606285522
 30
0.0
 10
10.441045193
 20
7.4542958869
 30
0.0
 10
10.4405678236
 20
7.4495463879
 30
0.0
 10
10.4400904638
 20
7.444796889
 30
0.0
 10
10.4396926339
 20
7.4408389727
 30
0.0
 10
10.4393744375
 20
7.437672641
 30
0.0
 10
10.4391754109
 20
7.4356936807
 30
0.0
 10
10.4390165418
 20
7.4341105192
 30
0.0
 10
10.438896426
 20
7.4329231298
 30
0.0
 10
10.4387993962
 20
7.4319336967
 30
0.0
 10
10.4387254569
 20
7.4312409796
 30
0.0
 10
10.4386926031
 20
7.4308453191
 30
0.0
 10
10.4386414904
 20
7.4305480726
 30
0.0
 10
10.4386915688
 20
7.4302527418
 30
0.0
 10
10.4387230433
 20
7.4298582991
 30
0.0
 10
10.4387945691
 20
7.4291683358
 30
0.0
 10
10.438888151
 20
7.4281825112
 30
0.0
 10
10.4390041294
 20
7.4269995913
 30
0.0
 10
10.4391574819
 20
7.4254223405
 30
0.0
 10
10.4393496126
 20
7.4234507852
 30
0.0
 10
10.4396567758
 20
7.4202962922
 30
0.0
 10
10.4400408141
 20
7.4163531775
 30
0.0
 10
10.440501624
 20
7.4116214392
 30
0.0
 10
10.4409624435
 20
7.406889701
 30
0.0
 10
10.4415768662
 20
7.4005807168
 30
0.0
 10
10.4423448957
 20
7.3926944865
 30
0.0
 10
10.4431129245
 20
7.3848082561
 30
0.0
 10
10.4437273485
 20
7.378499272
 30
0.0
 10
10.444188164
 20
7.3737675336
 30
0.0
 10
10.4446489889
 20
7.3690357963
 30
0.0
 10
10.4450329805
 20
7.3650926782
 30
0.0
 10
10.4453402389
 20
7.3619381921
 30
0.0
 10
10.4455321273
 20
7.3599666192
 30
0.0
 10
10.4456859772
 20
7.3583894046
 30
0.0
 10
10.4458004357
 20
7.3572063741
 30
0.0
 10
10.4458987731
 20
7.3562208955
 30
0.0
 10
10.4459618096
 20
7.3555303144
 30
0.0
 10
10.4460068861
 20
7.3551368617
 30
0.0
 10
10.4460151834
 20
7.3548384901
 30
0.0
 10
10.4461209935
 20
7.3545526641
 30
0.0
 10
10.44622806
 20
7.3541671867
 30
0.0
 10
10.4464312741
 20
7.3534946401
 30
0.0
 10
10.4467132945
 20
7.3525327933
 30
0.0
 10
10.4470552654
 20
7.3513790334
 30
0.0
 10
10.447509988
 20
7.3498405276
 30
0.0
 10
10.4480788153
 20
7.3479174498
 30
0.0
 10
10.448988702
 20
7.3448404949
 30
0.0
 10
10.4501261416
 20
7.3409943117
 30
0.0
 10
10.4514910343
 20
7.3363788875
 30
0.0
 10
10.4528559364
 20
7.3317634644
 30
0.0
 10
10.4546758025
 20
7.3256095665
 30
0.0
 10
10.4569506364
 20
7.3179171943
 30
0.0
 10
10.4592254695
 20
7.310224822
 30
0.0
 10
10.4610453369
 20
7.3040709244
 30
0.0
 10
10.4624102351
 20
7.2994555004
 30
0.0
 10
10.4637751422
 20
7.2948400794
 30
0.0
 10
10.4649125373
 20
7.2909938859
 30
0.0
 10
10.4658225148
 20
7.2879169521
 30
0.0
 10
10.466391111
 20
7.2859938206
 30
0.0
 10
10.4668463078
 20
7.284455425
 30
0.0
 10
10.4671868299
 20
7.2833013282
 30
0.0
 10
10.4674733836
 20
7.2823405357
 30
0.0
 10
10.467668505
 20
7.2816661071
 30
0.0
 10
10.4677885379
 20
7.2812836452
 30
0.0
 10
10.4678545194
 20
7.2809885563
 30
0.0
 10
10.4680124063
 20
7.2807249745
 30
0.0
 10
10.4681908645
 20
7.280362542
 30
0.0
 10
10.4685181027
 20
7.2797334056
 30
0.0
 10
10.4689777769
 20
7.2788319623
 30
0.0
 10
10.4695327285
 20
7.2777513762
 30
0.0
 10
10.4702714964
 20
7.2763101945
 30
0.0
 10
10.471195356
 20
7.2745088544
 30
0.0
 10
10.472673308
 20
7.2716266336
 30
0.0
 10
10.4745208246
 20
7.268023884
 30
0.0
 10
10.4767378118
 20
7.2637005731
 30
0.0
 10
10.4789548077
 20
7.2593772653
 30
0.0
 10
10.4819107991
 20
7.2536128538
 30
0.0
 10
10.4856057896
 20
7.2464073398
 30
0.0
 10
10.4893007794
 20
7.2392018255
 30
0.0
 10
10.4922567721
 20
7.2334374145
 30
0.0
 10
10.4944737643
 20
7.2291141052
 30
0.0
 10
10.4966907651
 20
7.2247907999
 30
0.0
 10
10.4985382392
 20
7.2211880329
 30
0.0
 10
10.500016278
 20
7.2183058476
 30
0.0
 10
10.5009399167
 20
7.2165044173
 30
0.0
 10
10.5016791381
 20
7.2150634206
 30
0.0
 10
10.5022327041
 20
7.2139822694
 30
0.0
 10
10.5026967133
 20
7.2130825941
 30
0.0
 10
10.5030162128
 20
7.2124503015
 30
0.0
 10
10.5032070703
 20
7.2120929261
 30
0.0
 10
10.5033268707
 20
7.2118138104
 30
0.0
 10
10.5035358989
 20
7.2115770642
 30
0.0
 10
10.5037834794
 20
7.2112466237
 30
0.0
 10
10.5042312465
 20
7.2106752385
 30
0.0
 10
10.5048633323
 20
7.2098553741
 30
0.0
 10
10.5056250805
 20
7.2088730776
 30
0.0
 10
10.5066396112
 20
7.2075628109
 30
0.0
 10
10.5079081627
 20
7.2059251616
 30
0.0
 10
10.5099376282
 20
7.2033048199
 30
0.0
 10
10.5124745345
 20
7.2000294281
 30
0.0
 10
10.5155187901
 20
7.1960989428
 30
0.0
 10
10.5185630543
 20
7.1921684615
 30
0.0
 10
10.5226220702
 20
7.1869278183
 30
0.0
 10
10.5276958412
 20
7.180377015
 30
0.0
 10
10.5327696115
 20
7.1738262111
 30
0.0
 10
10.5368286284
 20
7.1685855688
 30
0.0
 10
10.5398728895
 20
7.1646550852
 30
0.0
 10
10.5429171568
 20
7.1607246086
 30
0.0
 10
10.5454540268
 20
7.1574491896
 30
0.0
 10
10.5474835663
 20
7.1548289033
 30
0.0
 10
10.5487519294
 20
7.1531911129
 30
0.0
 10
10.5497668469
 20
7.1518811359
 30
0.0
 10
10.5505274134
 20
7.1508979543
 30
0.0
 10
10.551163196
 20
7.1500808592
 30
0.0
 10
10.5516043639
 20
7.1495045303
 30
0.0
 10
10.551862518
 20
7.1491820109
 30
0.0
 10
10.5520390674
 20
7.1489209335
 30
0.0
 10
10.5522808528
 20
7.1487332017
 30
0.0
 10
10.5525804783
 20
7.1484573088
 30
0.0
 10
10.5531154249
 20
7.1479864163
 30
0.0
 10
10.5538740915
 20
7.1473074808
 30
0.0
 10
10.554786864
 20
7.1464954256
 30
0.0
 10
10.5560030652
 20
7.1454117536
 30
0.0
 10
10.5575236005
 20
7.1440574827
 30
0.0
 10
10.5599562984
 20
7.141890471
 30
0.0
 10
10.5629972252
 20
7.1391817674
 30
0.0
 10
10.566646314
 20
7.135931297
 30
0.0
 10
10.5702954091
 20
7.1326808335
 30
0.0
 10
10.575160867
 20
7.1283468798
 30
0.0
 10
10.5812426902
 20
7.1229294386
 30
0.0
 10
10.5873245128
 20
7.1175119968
 30
0.0
 10
10.5921899715
 20
7.1131780441
 30
0.0
 10
10.5958390642
 20
7.1099275776
 30
0.0
 10
10.5994881621
 20
7.1066771187
 30
0.0
 10
10.6025290606
 20
7.1039683794
 30
0.0
 10
10.6049618162
 20
7.1018014405
 30
0.0
 10
10.6064822045
 20
7.1004469841
 30
0.0
 10
10.6076987076
 20
7.099363693
 30
0.0
 10
10.608610558
 20
7.0985504742
 30
0.0
 10
10.6093721093
 20
7.0978751792
 30
0.0
 10
10.6099019062
 20
7.0973977877
 30
0.0
 10
10.6102097828
 20
7.0971323078
 30
0.0
 10
10.6104262235
 20
7.0969125909
 30
0.0
 10
10.6106979634
 20
7.0967716439
 30
0.0
 10
10.6110409942
 20
7.0965562388
 30
0.0
 10
10.6116502853
 20
7.0961920813
 30
0.0
 10
10.6125160025
 20
7.0956651635
 30
0.0
 10
10.6135568743
 20
7.0950357269
 30
0.0
 10
10.6149440009
 20
7.0941954775
 30
0.0
 10
10.6166781497
 20
7.0931455084
 30
0.0
 10
10.6194526534
 20
7.0914653663
 30
0.0
 10
10.6229208291
 20
7.0893652544
 30
0.0
 10
10.6270826202
 20
7.0868450919
 30
0.0
 10
10.6312444166
 20
7.084324937
 30
0.0
 10
10.6367934765
 20
7.0809647278
 30
0.0
 10
10.6437298022
 20
7.0767644672
 30
0.0
 10
10.6506661274
 20
7.072564206
 30
0.0
 10
10.656215188
 20
7.0692039979
 30
0.0
 10
10.6603769825
 20
7.0666838396
 30
0.0
 10
10.6645387806
 20
7.0641636898
 30
0.0
 10
10.6680069344
 20
7.0620635384
 30
0.0
 10
10.6707814829
 20
7.0603834768
 30
0.0
 10
10.6725155176
 20
7.0593333029
 30
0.0
 10
10.6739028784
 20
7.0584934739
 30
0.0
 10
10.674943035
 20
7.057862753
 30
0.0
 10
10.6758109899
 20
7.0573398533
 30
0.0
 10
10.6764162863
 20
7.0569685228
 30
0.0
 10
10.6767657176
 20
7.0567646106
 30
0.0
 10
10.6770177973
 20
7.0565883611
 30
0.0
 10
10.6773080782
 20
7.0565012348
 30
0.0
 10
10.6776817945
 20
7.0563539793
 30
0.0
 10
10.6783420063
 20
7.0561107663
 30
0.0
 10
10.6792819202
 20
7.0557557467
 30
0.0
 10
10.6804112062
 20
7.0553329644
 30
0.0
 10
10.6819164357
 20
7.0547681225
 30
0.0
 10
10.6837981386
 20
7.0540624578
 30
0.0
 10
10.6868087705
 20
7.0529331777
 30
0.0
 10
10.6905720922
 20
7.0515216518
 30
0.0
 10
10.6950880646
 20
7.0498277889
 30
0.0
 10
10.6996040406
 20
7.0481339346
 30
0.0
 10
10.7056253408
 20
7.0458754591
 30
0.0
 10
10.7131519664
 20
7.0430523659
 30
0.0
 10
10.7206785917
 20
7.040229272
 30
0.0
 10
10.7266998922
 20
7.0379707978
 30
0.0
 10
10.7312158669
 20
7.0362769397
 30
0.0
 10
10.7357318444
 20
7.0345830907
 30
0.0
 10
10.7394951503
 20
7.0331715215
 30
0.0
 10
10.7425058143
 20
7.0320423298
 30
0.0
 10
10.7443874356
 20
7.03133644
 30
0.0
 10
10.7458928327
 20
7.0307720603
 30
0.0
 10
10.7470216065
 20
7.0303478662
 30
0.0
 10
10.7479631229
 20
7.0299972635
 30
0.0
 10
10.748620474
 20
7.0297461655
 30
0.0
 10
10.7489987739
 20
7.0296115437
 30
0.0
 10
10.7492749754
 20
7.0294856109
 30
0.0
 10
10.7495799353
 20
7.0294551126
 30
0.0
 10
10.7499765172
 20
7.0293811595
 30
0.0
 10
10.7506752093
 20
7.0292672515
 30
0.0
 10
10.7516708975
 20
7.029096417
 30
0.0
 10
10.7528667691
 20
7.0288948864
 30
0.0
 10
10.7544608993
 20
7.0286249667
 30
0.0
 10
10.7564536872
 20
7.0282879822
 30
0.0
 10
10.7596420778
 20
7.0277485749
 30
0.0
 10
10.7636275901
 20
7.0270743954
 30
0.0
 10
10.7684101946
 20
7.0262653459
 30
0.0
 10
10.7731928018
 20
7.0254563056
 30
0.0
 10
10.7795696105
 20
7.0243775819
 30
0.0
 10
10.7875406217
 20
7.0230291784
 30
0.0
 10
10.797105835
 20
7.0214110937
 30
0.0
 10
10.8098594527
 20
7.0192536476
 30
0.0
 10
10.8194246661
 20
7.017635563
 30
0.0
 10
10.8258014749
 20
7.0165568399
 30
0.0
  0
SPLINE
  5
3AD
100
AcDbEntity
  8
0
100
AcDbSpline
 62
4
  6
CONTINUOUS
 70
0
 71
3
 72
403
 73
399
 74
0
 42
0.0000001
 43
0.0000001
 44
0.0000000001
 40
0.0
 40
0.0
 40
0.0
 40
0.0
 40
0.015625
 40
0.0234375
 40
0.03125
 40
0.0390625
 40
0.04296875
 40
0.046875
 40
0.05078125
 40
0.0546875
 40
0.056640625
 40
0.05859375
 40
0.0595703125
 40
0.060546875
 40
0.0615234375
 40
0.0620117188
 40
0.0622558594
 40
0.0625
 40
0.0627441406
 40
0.0629882812
 40
0.0634765625
 40
0.064453125
 40
0.0654296875
 40
0.06640625
 40
0.068359375
 40
0.0703125
 40
0.07421875
 40
0.078125
 40
0.08203125
 40
0.0859375
 40
0.09375
 40
0.1015625
 40
0.10546875
 40
0.109375
 40
0.11328125
 40
0.1171875
 40
0.119140625
 40
0.12109375
 40
0.1220703125
 40
0.123046875
 40
0.1240234375
 40
0.1245117188
 40
0.1247558594
 40
0.125
 40
0.1252441406
 40
0.1254882812
 40
0.1259765625
 40
0.126953125
 40
0.1279296875
 40
0.12890625
 40
0.130859375
 40
0.1328125
 40
0.13671875
 40
0.140625
 40
0.14453125
 40
0.1484375
 40
0.15625
 40
0.1640625
 40
0.16796875
 40
0.171875
 40
0.17578125
 40
0.1796875
 40
0.181640625
 40
0.18359375
 40
0.1845703125
 40
0.185546875
 40
0.1865234375
 40
0.1870117188
 40
0.1872558594
 40
0.1875
 40
0.1877441406
 40
0.1879882812
 40
0.1884765625
 40
0.189453125
 40
0.1904296875
 40
0.19140625
 40
0.193359375
 40
0.1953125
 40
0.19921875
 40
0.203125
 40
0.20703125
 40
0.2109375
 40
0.21875
 40
0.2265625
 40
0.23046875
 40
0.234375
 40
0.23828125
 40
0.2421875
 40
0.244140625
 40
0.24609375
 40
0.2470703125
 40
0.248046875
 40
0.2490234375
 40
0.2495117188
 40
0.2497558594
 40
0.25
 40
0.2502441406
 40
0.2504882812
 40
0.2509765625
 40
0.251953125
 40
0.2529296875
 40
0.25390625
 40
0.255859375
 40
0.2578125
 40
0.26171875
 40
0.265625
 40
0.26953125
 40
0.2734375
 40
0.28125
 40
0.2890625
 40
0.29296875
 40
0.296875
 40
0.30078125
 40
0.3046875
 40
0.306640625
 40
0.30859375
 40
0.3095703125
 40
0.310546875
 40
0.3115234375
 40
0.3120117188
 40
0.3122558594
 40
0.3125
 40
0.3127441406
 40
0.3129882812
 40
0.3134765625
 40
0.314453125
 40
0.3154296875
 40
0.31640625
 40
0.318359375
 40
0.3203125
 40
0.32421875
 40
0.328125
 40
0.33203125
 40
0.3359375
 40
0.34375
 40
0.3515625
 40
0.35546875
 40
0.359375
 40
0.36328125
 40
0.3671875
 40
0.369140625
 40
0.37109375
 40
0.3720703125
 40
0.373046875
 40
0.3740234375
 40
0.3745117188
 40
0.3747558594
 40
0.375
 40
0.3752441406
 40
0.3754882812
 40
0.3759765625
 40
0.376953125
 40
0.3779296875
 40
0.37890625
 40
0.380859375
 40
0.3828125
 40
0.38671875
 40
0.390625
 40
0.39453125
 40
0.3984375
 40
0.40625
 40
0.4140625
 40
0.41796875
 40
0.421875
 40
0.42578125
 40
0.4296875
 40
0.431640625
 40
0.43359375
 40
0.4345703125
 40
0.435546875
 40
0.4365234375
 40
0.4370117188
 40
0.4372558594
 40
0.4375
 40
0.4377441406
 40
0.4379882812
 40
0.4384765625
 40
0.439453125
 40
0.4404296875
 40
0.44140625
 40
0.443359375
 40
0.4453125
 40
0.44921875
 40
0.453125
 40
0.45703125
 40
0.4609375
 40
0.46875
 40
0.4765625
 40
0.48046875
 40
0.484375
 40
0.48828125
 40
0.4921875
 40
0.494140625
 40
0.49609375
 40
0.4970703125
 40
0.498046875
 40
0.4990234375
 40
0.4995117188
 40
0.4997558594
 40
0.5
 40
0.5002441406
 40
0.5004882812
 40
0.5009765625
 40
0.501953125
 40
0.5029296875
 40
0.50390625
 40
0.505859375
 40
0.5078125
 40
0.51171875
 40
0.515625
 40
0.51953125
 40
0.5234375
 40
0.53125
 40
0.5390625
 40
0.54296875
 40
0.546875
 40
0.55078125
 40
0.5546875
 40
0.556640625
 40
0.55859375
 40
0.5595703125
 40
0.560546875
 40
0.5615234375
 40
0.5620117188
 40
0.5622558594
 40
0.5625
 40
0.5627441406
 40
0.5629882812
 40
0.5634765625
 40
0.564453125
 40
0.5654296875
 40
0.56640625
 40
0.568359375
 40
0.5703125
 40
0.57421875
 40
0.578125
 40
0.58203125
 40
0.5859375
 40
0.59375
 40
0.6015625
 40
0.60546875
 40
0.609375
 40
0.61328125
 40
0.6171875
 40
0.619140625
 40
0.62109375
 40
0.6220703125
 40
0.623046875
 40
0.6240234375
 40
0.6245117188
 40
0.6247558594
 40
0.625
 40
0.6252441406
 40
0.6254882812
 40
0.6259765625
 40
0.626953125
 40
0.6279296875
 40
0.62890625
 40
0.630859375
 40
0.6328125
 40
0.63671875
 40
0.640625
 40
0.64453125
 40
0.6484375
 40
0.65625
 40
0.6640625
 40
0.66796875
 40
0.671875
 40
0.67578125
 40
0.6796875
 40
0.681640625
 40
0.68359375
 40
0.6845703125
 40
0.685546875
 40
0.6865234375
 40
0.6870117188
 40
0.6872558594
 40
0.6875
 40
0.6877441406
 40
0.6879882812
 40
0.6884765625
 40
0.689453125
 40
0.6904296875
 40
0.69140625
 40
0.693359375
 40
0.6953125
 40
0.69921875
 40
0.703125
 40
0.70703125
 40
0.7109375
 40
0.71875
 40
0.7265625
 40
0.73046875
 40
0.734375
 40
0.73828125
 40
0.7421875
 40
0.744140625
 40
0.74609375
 40
0.7470703125
 40
0.748046875
 40
0.7490234375
 40
0.7495117188
 40
0.7497558594
 40
0.75
 40
0.7502441406
 40
0.7504882812
 40
0.7509765625
 40
0.751953125
 40
0.7529296875
 40
0.75390625
 40
0.755859375
 40
0.7578125
 40
0.76171875
 40
0.765625
 40
0.76953125
 40
0.7734375
 40
0.78125
 40
0.7890625
 40
0.79296875
 40
0.796875
 40
0.80078125
 40
0.8046875
 40
0.806640625
 40
0.80859375
 40
0.8095703125
 40
0.810546875
 40
0.8115234375
 40
0.8120117188
 40
0.8122558594
 40
0.8125
 40
0.8127441406
 40
0.8129882812
 40
0.8134765625
 40
0.814453125
 40
0.8154296875
 40
0.81640625
 40
0.818359375
 40
0.8203125
 40
0.82421875
 40
0.828125
 40
0.83203125
 40
0.8359375
 40
0.84375
 40
0.8515625
 40
0.85546875
 40
0.859375
 40
0.86328125
 40
0.8671875
 40
0.869140625
 40
0.87109375
 40
0.8720703125
 40
0.873046875
 40
0.8740234375
 40
0.8745117188
 40
0.8747558594
 40
0.875
 40
0.8752441406
 40
0.8754882812
 40
0.8759765625
 40
0.876953125
 40
0.8779296875
 40
0.87890625
 40
0.880859375
 40
0.8828125
 40
0.88671875
 40
0.890625
 40
0.89453125
 40
0.8984375
 40
0.90625
 40
0.9140625
 40
0.91796875
 40
0.921875
 40
0.92578125
 40
0.9296875
 40
0.931640625
 40
0.93359375
 40
0.9345703125
 40
0.935546875
 40
0.9365234375
 40
0.9370117188
 40
0.9372558594
 40
0.9375
 40
0.9377441406
 40
0.9379882812
 40
0.9384765625
 40
0.939453125
 40
0.9404296875
 40
0.94140625
 40
0.943359375
 40
0.9453125
 40
0.94921875
 40
0.953125
 40
0.95703125
 40
0.9609375
 40
0.96875
 40
0.9765625
 40
0.984375
 40
1.0
 40
1.0
 40
1.0
 40
1.0
 10
10.8258014411
 20
7.0165568423
 30
0.0
 10
10.8320678149
 20
7.0167366911
 30
0.0
 10
10.8414673757
 20
7.0170064643
 30
0.0
 10
10.8540001233
 20
7.017366162
 30
0.0
 10
10.8633996841
 20
7.0176359353
 30
0.0
 10
10.8712326514
 20
7.017860746
 30
0.0
 10
10.8774990251
 20
7.0180405955
 30
0.0
 10
10.8821988059
 20
7.0181754801
 30
0.0
 10
10.8868985848
 20
7.0183103742
 30
0.0
 10
10.890815073
 20
7.0184227565
 30
0.0
 10
10.8939482507
 20
7.0185127283
 30
0.0
 10
10.8959065161
 20
7.0185688105
 30
0.0
 10
10.8974730612
 20
7.0186140202
 30
0.0
 10
10.898648154
 20
7.0186469857
 30
0.0
 10
10.8996268128
 20
7.0186774528
 30
0.0
 10
10.9003130223
 20
7.0186929005
 30
0.0
 10
10.900703349
 20
7.0187109078
 30
0.0
 10
10.9010011451
 20
7.0186985529
 30
0.0
 10
10.9012796332
 20
7.0187850497
 30
0.0
 10
10.9016576855
 20
7.0188658983
 30
0.0
 10
10.9023161392
 20
7.0190234484
 30
0.0
 10
10.9032584277
 20
7.0192401209
 30
0.0
 10
10.9043884719
 20
7.019503723
 30
0.0
 10
10.9058954426
 20
7.0198539368
 30
0.0
 10
10.907779072
 20
7.0202921339
 30
0.0
 10
10.9107929261
 20
7.0209930091
 30
0.0
 10
10.9145602276
 20
7.0218691855
 30
0.0
 10
10.9190809962
 20
7.0229205619
 30
0.0
 10
10.923601763
 20
7.0239719477
 30
0.0
 10
10.9296294528
 20
7.0253737921
 30
0.0
 10
10.9371640647
 20
7.0271260989
 30
0.0
 10
10.9446986768
 20
7.0288784049
 30
0.0
 10
10.9507263662
 20
7.0302802506
 30
0.0
 10
10.9552471341
 20
7.0313316325
 30
0.0
 10
10.9597678985
 20
7.0323830235
 30
0.0
 10
10.9635352134
 20
7.0332591544
 30
0.0
 10
10.96654904
 20
7.0339601223
 30
0.0
 10
10.9684327392
 20
7.0343980836
 30
0.0
 10
10.9699395668
 20
7.0347487815
 30
0.0
 10
10.9710700484
 20
7.0350109044
 30
0.0
 10
10.9720109683
 20
7.0352322051
 30
0.0
 10
10.9726718652
 20
7.0353814931
 30
0.0
 10
10.9730460028
 20
7.0354755795
 30
0.0
 10
10.9733365158
 20
7.0355214139
 30
0.0
 10
10.9735891482
 20
7.0356617807
 30
0.0
 10
10.9739392045
 20
7.0358159624
 30
0.0
 10
10.9745456469
 20
7.0361011436
 30
0.0
 10
10.9754152117
 20
7.0365005134
 30
0.0
 10
10.9764573118
 20
7.036983195
 30
0.0
 10
10.9778472597
 20
7.0376255697
 30
0.0
 10
10.97958453
 20
7.0384289492
 30
0.0
 10
10.9823642544
 20
7.0397141267
 30
0.0
 10
10.9858388783
 20
7.0413206773
 30
0.0
 10
10.9900084406
 20
7.0432485043
 30
0.0
 10
10.9941779992
 20
7.0451763404
 30
0.0
 10
10.9997374121
 20
7.0477467852
 30
0.0
 10
11.0066866776
 20
7.0509598425
 30
0.0
 10
11.0136359434
 20
7.054172899
 30
0.0
 10
11.0191953557
 20
7.0567433452
 30
0.0
 10
11.0233649161
 20
7.0586711775
 30
0.0
 10
11.0275344718
 20
7.0605990186
 30
0.0
 10
11.031009116
 20
7.0622055253
 30
0.0
 10
11.033788799
 20
7.0634907924
 30
0.0
 10
11.0355261747
 20
7.0642939437
 30
0.0
 10
11.0369159063
 20
7.0649367869
 30
0.0
 10
11.0379586675
 20
7.0654180372
 30
0.0
 10
11.0388261636
 20
7.0658218853
 30
0.0
 10
11.0394362989
 20
7.0660990718
 30
0.0
 10
11.0397804383
 20
7.0662660631
 30
0.0
 10
11.0400512458
 20
7.0663670829
 30
0.0
 10
11.0402734959
 20
7.066560698
 30
0.0
 10
11.0405867666
 20
7.0667865531
 30
0.0
 10
11.041127099
 20
7.067196848
 30
0.0
 10
11.0419031282
 20
7.0677751161
 30
0.0
 10
11.0428325972
 20
7.0684724053
 30
0.0
 10
11.044072506
 20
7.0694009481
 30
0.0
 10
11.0456221809
 20
7.0705620293
 30
0.0
 10
11.0481017787
 20
7.072419534
 30
0.0
 10
11.0512012355
 20
7.0747414923
 30
0.0
 10
11.054920601
 20
7.077527809
 30
0.0
 10
11.0586399618
 20
7.0803141347
 30
0.0
 10
11.0635991113
 20
7.0840292324
 30
0.0
 10
11.0697980474
 20
7.0886731057
 30
0.0
 10
11.0759969841
 20
7.0933169783
 30
0.0
 10
11.0809561327
 20
7.0970320771
 30
0.0
 10
11.084675496
 20
7.0998183995
 30
0.0
 10
11.088394852
 20
7.1026047286
 30
0.0
 10
11.0914943385
 20
7.1049266484
 30
0.0
 10
11.0939738757
 20
7.1067842315
 30
0.0
 10
11.0955237048
 20
7.1079451135
 30
0.0
 10
11.0967632971
 20
7.108874065
 30
0.0
 10
11.0976937332
 20
7.1095701056
 30
0.0
 10
11.0984667366
 20
7.1101522802
 30
0.0
 10
11.0990124704
 20
7.1105556013
 30
0.0
 10
11.0993170868
 20
7.1107926302
 30
0.0
 10
11.0995659204
 20
7.1109519229
 30
0.0
 10
11.0997368843
 20
7.1111818519
 30
0.0
 10
11.0999919981
 20
7.1114637852
 30
0.0
 10
11.100425792
 20
7.1119686481
 30
0.0
 10
11.1010521138
 20
7.1126838792
 30
0.0
 10
11.101800868
 20
7.1135447253
 30
0.0
 10
11.1028001961
 20
7.114691623
 30
0.0
 10
11.1040490175
 20
7.1161255522
 30
0.0
 10
11.1060473211
 20
7.1184196673
 30
0.0
 10
11.1085451357
 20
7.12128737
 30
0.0
 10
11.1115425409
 20
7.1247285881
 30
0.0
 10
11.1145399388
 20
7.1281698129
 30
0.0
 10
11.1185364718
 20
7.1327581103
 30
0.0
 10
11.1235321372
 20
7.1384934829
 30
0.0
 10
11.1285278032
 20
7.144228855
 30
0.0
 10
11.1325243351
 20
7.1488171533
 30
0.0
 10
11.1355217362
 20
7.1522583754
 30
0.0
 10
11.1385191294
 20
7.1556996034
 30
0.0
 10
11.1410169816
 20
7.1585672752
 30
0.0
 10
11.1430152083
 20
7.1608614534
 30
0.0
 10
11.1442642255
 20
7.1622952221
 30
0.0
 10
11.1452631518
 20
7.1634424493
 30
0.0
 10
11.1460131335
 20
7.1643022884
 30
0.0
 10
11.1466356148
 20
7.1650206705
 30
0.0
 10
11.1470762647
 20
7.1655199082
 30
0.0
 10
11.1473203933
 20
7.1658108544
 30
0.0
 10
11.1475251
 20
7.1660130987
 30
0.0
 10
11.1476472017
 20
7.1662763707
 30
0.0
 10
11.1478388176
 20
7.166606113
 30
0.0
 10
11.1481607206
 20
7.16719308
 30
0.0
 10
11.1486276007
 20
7.1680264189
 30
0.0
 10
11.1491848526
 20
7.1690286452
 30
0.0
 10
11.1499289044
 20
7.1703641717
 30
0.0
 10
11.1508586099
 20
7.1720338452
 30
0.0
 10
11.1523463396
 20
7.1747051744
 30
0.0
 10
11.1542059327
 20
7.1780443869
 30
0.0
 10
11.1564374739
 20
7.1820514201
 30
0.0
 10
11.1586690073
 20
7.1860584591
 30
0.0
 10
11.1616443879
 20
7.1914011757
 30
0.0
 10
11.1653636126
 20
7.1980795723
 30
0.0
 10
11.1690828381
 20
7.2047579683
 30
0.0
 10
11.1720582175
 20
7.2101006857
 30
0.0
 10
11.1742897544
 20
7.2141077226
 30
0.0
 10
11.1765212825
 20
7.2181147637
 30
0.0
 10
11.1783809166
 20
7.2214539514
 30
0.0
 10
11.1798685626
 20
7.2241253312
 30
0.0
 10
11.1807984808
 20
7.225794876
 30
0.0
 10
11.1815420961
 20
7.2271306668
 30
0.0
 10
11.1821006818
 20
7.2281320853
 30
0.0
 10
11.1825633886
 20
7.2289679514
 30
0.0
 10
11.1828927416
 20
7.2295504071
 30
0.0
 10
11.1830724207
 20
7.2298873776
 30
0.0
 10
11.1832311885
 20
7.2301284467
 30
0.0
 10
11.1832981837
 20
7.2304140816
 30
0.0
 10
11.1834195219
 20
7.230779383
 30
0.0
 10
11.183616949
 20
7.2314259032
 30
0.0
 10
11.1839067854
 20
7.2323457169
 30
0.0
 10
11.1842512515
 20
7.2334511141
 30
0.0
 10
11.1847117053
 20
7.234924411
 30
0.0
 10
11.1852868735
 20
7.2367662259
 30
0.0
 10
11.1862073656
 20
7.2397130214
 30
0.0
 10
11.1873579042
 20
7.243396553
 30
0.0
 10
11.1887385833
 20
7.247816775
 30
0.0
 10
11.1901192537
 20
7.2522370012
 30
0.0
 10
11.1919601505
 20
7.2581306347
 30
0.0
 10
11.1942612705
 20
7.2654976771
 30
0.0
 10
11.1965623912
 20
7.2728647191
 30
0.0
 10
11.1984032868
 20
7.2787583531
 30
0.0
 10
11.199783961
 20
7.2831785777
 30
0.0
 10
11.2011646258
 20
7.2875988057
 30
0.0
 10
11.2023152089
 20
7.2912823185
 30
0.0
 10
11.2032356103
 20
7.2942291524
 30
0.0
 10
11.2038110092
 20
7.2960708696
 30
0.0
 10
11.2042709894
 20
7.297544367
 30
0.0
 10
11.2046169027
 20
7.2986491517
 30
0.0
 10
11.204902211
 20
7.2995708819
 30
0.0
 10
11.2051077215
 20
7.3002139808
 30
0.0
 10
11.2052161082
 20
7.300584764
 30
0.0
 10
11.2053228864
 20
7.3008535605
 30
0.0
 10
11.2053322356
 20
7.3011578718
 30
0.0
 10
11.2053786856
 20
7.3015512323
 30
0.0
 10
11.2054441392
 20
7.3022453848
 30
0.0
 10
11.2055459225
 20
7.3032340138
 30
0.0
 10
11.2056645191
 20
7.3044216603
 30
0.0
 10
11.2058238855
 20
7.3060047377
 30
0.0
 10
11.2060226697
 20
7.3079837389
 30
0.0
 10
11.2063409613
 20
7.3111500545
 30
0.0
 10
11.2067387446
 20
7.3151079787
 30
0.0
 10
11.2072161193
 20
7.319857475
 30
0.0
 10
11.2076934848
 20
7.3246069747
 30
0.0
 10
11.2083299753
 20
7.3309396398
 30
0.0
 10
11.2091255872
 20
7.3388554716
 30
0.0
 10
11.2099212
 20
7.3467713033
 30
0.0
 10
11.2105576891
 20
7.3531039686
 30
0.0
 10
11.2110350586
 20
7.3578534676
 30
0.0
 10
11.2115124183
 20
7.3626029665
 30
0.0
 10
11.2119102483
 20
7.3665608827
 30
0.0
 10
11.2122284447
 20
7.3697272145
 30
0.0
 10
11.2124274712
 20
7.3717061747
 30
0.0
 10
11.2125863403
 20
7.3732893363
 30
0.0
 10
11.2127064562
 20
7.3744767257
 30
0.0
 10
11.212803486
 20
7.3754661588
 30
0.0
 10
11.2128774253
 20
7.3761588759
 30
0.0
 10
11.212910279
 20
7.3765545364
 30
0.0
 10
11.2129613917
 20
7.3768517828
 30
0.0
 10
11.2129113134
 20
7.3771471137
 30
0.0
 10
11.2128798388
 20
7.3775415563
 30
0.0
 10
11.212808313
 20
7.3782315196
 30
0.0
 10
11.2127147311
 20
7.3792173443
 30
0.0
 10
11.2125987527
 20
7.3804002642
 30
0.0
 10
11.2124454003
 20
7.381977515
 30
0.0
 10
11.2122532695
 20
7.3839490703
 30
0.0
 10
11.2119461064
 20
7.3871035633
 30
0.0
 10
11.211562068
 20
7.391046678
 30
0.0
 10
11.2111012582
 20
7.3957784163
 30
0.0
 10
11.2106404386
 20
7.4005101545
 30
0.0
 10
11.210026016
 20
7.4068191387
 30
0.0
 10
11.2092579864
 20
7.414705369
 30
0.0
 10
11.2084899577
 20
7.4225915993
 30
0.0
 10
11.2078755337
 20
7.4289005835
 30
0.0
 10
11.2074147182
 20
7.4336323219
 30
0.0
 10
11.2069538933
 20
7.4383640591
 30
0.0
 10
11.2065699016
 20
7.4423071772
 30
0.0
 10
11.2062626432
 20
7.4454616634
 30
0.0
 10
11.2060707549
 20
7.4474332362
 30
0.0
 10
11.2059169049
 20
7.4490104509
 30
0.0
 10
11.2058024464
 20
7.4501934814
 30
0.0
 10
11.2057041091
 20
7.4511789599
 30
0.0
 10
11.2056410726
 20
7.4518695411
 30
0.0
 10
11.205595996
 20
7.4522629938
 30
0.0
 10
11.2055876988
 20
7.4525613654
 30
0.0
 10
11.2054818887
 20
7.4528471914
 30
0.0
 10
11.2053748221
 20
7.4532326688
 30
0.0
 10
11.2051716081
 20
7.4539052154
 30
0.0
 10
11.2048895876
 20
7.4548670621
 30
0.0
 10
11.2045476167
 20
7.456020822
 30
0.0
 10
11.2040928942
 20
7.4575593279
 30
0.0
 10
11.2035240669
 20
7.4594824056
 30
0.0
 10
11.2026141802
 20
7.4625593605
 30
0.0
 10
11.2014767405
 20
7.4664055437
 30
0.0
 10
11.2001118478
 20
7.471020968
 30
0.0
 10
11.1987469458
 20
7.4756363911
 30
0.0
 10
11.1969270796
 20
7.481790289
 30
0.0
 10
11.1946522457
 20
7.4894826612
 30
0.0
 10
11.1923774126
 20
7.4971750335
 30
0.0
 10
11.1905575452
 20
7.5033289311
 30
0.0
 10
11.189192647
 20
7.5079443551
 30
0.0
 10
11.18782774
 20
7.512559776
 30
0.0
 10
11.1866903448
 20
7.5164059696
 30
0.0
 10
11.1857803674
 20
7.5194829034
 30
0.0
 10
11.1852117711
 20
7.5214060349
 30
0.0
 10
11.1847565743
 20
7.5229444304
 30
0.0
 10
11.1844160523
 20
7.5240985273
 30
0.0
 10
11.1841294986
 20
7.5250593198
 30
0.0
 10
11.1839343772
 20
7.5257337484
 30
0.0
 10
11.1838143442
 20
7.5261162103
 30
0.0
 10
11.1837483628
 20
7.5264112991
 30
0.0
 10
11.1835904758
 20
7.526674881
 30
0.0
 10
11.1834120176
 20
7.5270373135
 30
0.0
 10
11.1830847795
 20
7.5276664499
 30
0.0
 10
11.1826251052
 20
7.5285678932
 30
0.0
 10
11.1820701537
 20
7.5296484793
 30
0.0
 10
11.1813313858
 20
7.531089661
 30
0.0
 10
11.1804075262
 20
7.5328910011
 30
0.0
 10
11.1789295742
 20
7.5357732218
 30
0.0
 10
11.1770820575
 20
7.5393759715
 30
0.0
 10
11.1748650704
 20
7.5436992823
 30
0.0
 10
11.1726480745
 20
7.5480225902
 30
0.0
 10
11.169692083
 20
7.5537870017
 30
0.0
 10
11.1659970925
 20
7.5609925157
 30
0.0
 10
11.1623021028
 20
7.5681980299
 30
0.0
 10
11.1593461101
 20
7.573962441
 30
0.0
 10
11.1571291178
 20
7.5782857503
 30
0.0
 10
11.154912117
 20
7.5826090556
 30
0.0
 10
11.1530646429
 20
7.5862118226
 30
0.0
 10
11.1515866041
 20
7.5890940079
 30
0.0
 10
11.1506629654
 20
7.5908954381
 30
0.0
 10
11.149923744
 20
7.5923364349
 30
0.0
 10
11.149370178
 20
7.5934175861
 30
0.0
 10
11.1489061688
 20
7.5943172613
 30
0.0
 10
11.1485866693
 20
7.594949554
 30
0.0
 10
11.1483958118
 20
7.5953069293
 30
0.0
 10
11.1482760114
 20
7.5955860451
 30
0.0
 10
11.1480669833
 20
7.5958227913
 30
0.0
 10
11.1478194027
 20
7.5961532318
 30
0.0
 10
11.1473716357
 20
7.5967246169
 30
0.0
 10
11.1467395498
 20
7.5975444814
 30
0.0
 10
11.1459778017
 20
7.5985267778
 30
0.0
 10
11.144963271
 20
7.5998370446
 30
0.0
 10
11.1436947195
 20
7.6014746938
 30
0.0
 10
11.141665254
 20
7.6040950356
 30
0.0
 10
11.1391283477
 20
7.6073704274
 30
0.0
 10
11.1360840921
 20
7.6113009127
 30
0.0
 10
11.1330398279
 20
7.615231394
 30
0.0
 10
11.128980812
 20
7.6204720371
 30
0.0
 10
11.123907041
 20
7.6270228405
 30
0.0
 10
11.1188332707
 20
7.6335736443
 30
0.0
 10
11.1147742537
 20
7.6388142867
 30
0.0
 10
11.1117299927
 20
7.6427447703
 30
0.0
 10
11.1086857253
 20
7.6466752469
 30
0.0
 10
11.1061488554
 20
7.6499506659
 30
0.0
 10
11.1041193158
 20
7.6525709522
 30
0.0
 10
11.1028509528
 20
7.6542087425
 30
0.0
 10
11.1018360353
 20
7.6555187196
 30
0.0
 10
11.1010754687
 20
7.6565019012
 30
0.0
 10
11.1004396861
 20
7.6573189963
 30
0.0
 10
11.0999985183
 20
7.6578953252
 30
0.0
 10
11.0997403641
 20
7.6582178446
 30
0.0
 10
11.0995638148
 20
7.6584789219
 30
0.0
 10
11.0993220294
 20
7.6586666538
 30
0.0
 10
11.0990224039
 20
7.6589425466
 30
0.0
 10
11.0984874572
 20
7.6594134392
 30
0.0
 10
11.0977287906
 20
7.6600923747
 30
0.0
 10
11.0968160182
 20
7.6609044299
 30
0.0
 10
11.0955998169
 20
7.6619881018
 30
0.0
 10
11.0940792816
 20
7.6633423728
 30
0.0
 10
11.0916465837
 20
7.6655093845
 30
0.0
 10
11.088605657
 20
7.668218088
 30
0.0
 10
11.0849565681
 20
7.6714685585
 30
0.0
 10
11.0813074731
 20
7.6747190219
 30
0.0
 10
11.0764420152
 20
7.6790529756
 30
0.0
 10
11.070360192
 20
7.6844704168
 30
0.0
 10
11.0642783693
 20
7.6898878587
 30
0.0
 10
11.0594129106
 20
7.6942218114
 30
0.0
 10
11.055763818
 20
7.6974722779
 30
0.0
 10
11.05211472
 20
7.7007227368
 30
0.0
 10
11.0490738216
 20
7.7034314761
 30
0.0
 10
11.0466410659
 20
7.7055984149
 30
0.0
 10
11.0451206776
 20
7.7069528714
 30
0.0
 10
11.0439041746
 20
7.7080361625
 30
0.0
 10
11.0429923242
 20
7.7088493812
 30
0.0
 10
11.0422307728
 20
7.7095246763
 30
0.0
 10
11.0417009759
 20
7.7100020677
 30
0.0
 10
11.0413930993
 20
7.7102675477
 30
0.0
 10
11.0411766586
 20
7.7104872645
 30
0.0
 10
11.0409049188
 20
7.7106282115
 30
0.0
 10
11.0405618879
 20
7.7108436167
 30
0.0
 10
11.0399525969
 20
7.7112077742
 30
0.0
 10
11.0390868797
 20
7.711734692
 30
0.0
 10
11.0380460078
 20
7.7123641286
 30
0.0
 10
11.0366588812
 20
7.7132043779
 30
0.0
 10
11.0349247324
 20
7.7142543471
 30
0.0
 10
11.0321502287
 20
7.7159344892
 30
0.0
 10
11.028682053
 20
7.7180346011
 30
0.0
 10
11.024520262
 20
7.7205547636
 30
0.0
 10
11.0203584656
 20
7.7230749185
 30
0.0
 10
11.0148094056
 20
7.7264351277
 30
0.0
 10
11.00787308
 20
7.7306353882
 30
0.0
 10
11.0009367547
 20
7.7348356495
 30
0.0
 10
10.9953876941
 20
7.7381958576
 30
0.0
 10
10.9912258996
 20
7.7407160159
 30
0.0
 10
10.9870641015
 20
7.7432361657
 30
0.0
 10
10.9835959478
 20
7.745336317
 30
0.0
 10
10.9808213993
 20
7.7470163787
 30
0.0
 10
10.9790873645
 20
7.7480665526
 30
0.0
 10
10.9777000038
 20
7.7489063816
 30
0.0
 10
10.9766598472
 20
7.7495371025
 30
0.0
 10
10.9757918923
 20
7.7500600021
 30
0.0
 10
10.9751865959
 20
7.7504313326
 30
0.0
 10
10.9748371646
 20
7.7506352448
 30
0.0
 10
10.9745850849
 20
7.7508114944
 30
0.0
 10
10.9742948039
 20
7.7508986206
 30
0.0
 10
10.9739210877
 20
7.7510458761
 30
0.0
 10
10.9732608759
 20
7.7512890892
 30
0.0
 10
10.9723209619
 20
7.7516441088
 30
0.0
 10
10.9711916759
 20
7.7520668911
 30
0.0
 10
10.9696864465
 20
7.752631733
 30
0.0
 10
10.9678047435
 20
7.7533373977
 30
0.0
 10
10.9647941116
 20
7.7544666778
 30
0.0
 10
10.9610307899
 20
7.7558782036
 30
0.0
 10
10.9565148175
 20
7.7575720665
 30
0.0
 10
10.9519988415
 20
7.7592659209
 30
0.0
 10
10.9459775414
 20
7.7615243963
 30
0.0
 10
10.9384509158
 20
7.7643474895
 30
0.0
 10
10.9309242905
 20
7.7671705835
 30
0.0
 10
10.9249029899
 20
7.7694290577
 30
0.0
 10
10.9203870152
 20
7.7711229158
 30
0.0
 10
10.9158710378
 20
7.7728167647
 30
0.0
 10
10.9121077318
 20
7.7742283339
 30
0.0
 10
10.9090970679
 20
7.7753575256
 30
0.0
 10
10.9072154466
 20
7.7760634154
 30
0.0
 10
10.9057100495
 20
7.7766277952
 30
0.0
 10
10.9045812756
 20
7.7770519892
 30
0.0
 10
10.9036397592
 20
7.7774025919
 30
0.0
 10
10.9029824081
 20
7.7776536899
 30
0.0
 10
10.9026041082
 20
7.7777883118
 30
0.0
 10
10.9023279068
 20
7.7779142446
 30
0.0
 10
10.9020229469
 20
7.7779447429
 30
0.0
 10
10.9016263649
 20
7.778018696
 30
0.0
 10
10.9009276728
 20
7.778132604
 30
0.0
 10
10.8999319847
 20
7.7783034385
 30
0.0
 10
10.898736113
 20
7.778504969
 30
0.0
 10
10.8971419828
 20
7.7787748887
 30
0.0
 10
10.895149195
 20
7.7791118733
 30
0.0
 10
10.8919608043
 20
7.7796512806
 30
0.0
 10
10.887975292
 20
7.78032546
 30
0.0
 10
10.8831926875
 20
7.7811345095
 30
0.0
 10
10.8784100803
 20
7.7819435499
 30
0.0
 10
10.8720332716
 20
7.7830222736
 30
0.0
 10
10.8640622604
 20
7.7843706771
 30
0.0
 10
10.8544970472
 20
7.7859887618
 30
0.0
 10
10.8417434294
 20
7.7881462079
 30
0.0
 10
10.8321782161
 20
7.7897642925
 30
0.0
 10
10.8258014072
 20
7.7908430155
 30
0.0
  0
ENDSEC
  0
SECTION
  2
OBJECTS
  0
DICTIONARY
  5
C
100
AcDbDictionary
280
0
281
1
  3
ACAD_GROUP
350
D
  3
ACAD_MLINESTYLE
350
17
  3
ACAD_LAYOUT
350
1A
  3
ACAD_PLOTSETTINGS
350
19
  3
ACAD_PLOTSTYLENAME
350
E
  3
ACAD_IMAGE_DICT
350
       3AF
  3
ACAD_IMAGE_VARS
350
       3B0
  3
ACAD_TABLESTYLE
350
       3B1
  0
IMAGEDEF_REACTOR
  5
3AE
100
AcDbRasterImageDefReactor
 90
2
330
28B
  0
DICTIONARY
  5
D
102
{ACAD_REACTORS
330
C
102
}
100
AcDbDictionary
280
0
281
1
  0
ACDBDICTIONARYWDFLT
  5
E
102
{ACAD_REACTORS
330
C
102
}
100
AcDbDictionary
281
1
  3
Normal
350
F
100
AcDbDictionaryWithDefault
340
F
  0
DICTIONARY
  5
3AF
330
C
100
AcDbDictionary
281
1
  3
CBBALHN-ECV_assy_2_img_1
350
       3B4
  0
RASTERVARIABLES
  5
3B0
330
C
100
AcDbRasterVariables
 90
0
 70
0
 71
1
 72
5
  0
DICTIONARY
  5
17
102
{ACAD_REACTORS
330
C
102
}
100
AcDbDictionary
280
0
281
1
  3
Standard
350
18
  0
DICTIONARY
  5
3B1
330
C
100
AcDbDictionary
281
1
  3
Standard
350
       3B5
  3
Standard1
350
       3B6
  0
DICTIONARY
  5
19
102
{ACAD_REACTORS
330
C
102
}
100
AcDbDictionary
281
1
  0
DICTIONARY
  5
1A
102
{ACAD_REACTORS
330
C
102
}
100
AcDbDictionary
281
1
  3
Model
350
3B2
  3
Layout1
350
3B3
  0
ACDBPLACEHOLDER
  5
F
102
{ACAD_REACTORS
330
E
102
}
  0
MLINESTYLE
  5
18
102
{ACAD_REACTORS
330
17
102
}
100
AcDbMlineStyle
  2
STANDARD
 70
0
  3

 62
256
 51
90.0
 52
90.0
 71
2
 49
0.5
 62
256
  6
BYLAYER
 49
-0.5
 62
256
  6
BYLAYER
  0
LAYOUT
  5
3B2
102
{ACAD_REACTORS
330
1A
102
}
100
AcDbPlotSettings
  1

  2
none_device
  4
ANSI_C_(22.00_x_17.00_Inches)
  6

 40
0.0
 41
0.0
 42
0.0
 43
0.0
 44
558.8
 45
431.8
 46
0.0
 47
0.0
 48
0.0
 49
0.0
140
0.0
141
0.0
142
1.0
143
1.0
 70
1024
 72
0
 73
0
 74
0
  7

 75
0
147
1.0
148
0.0
149
0.0
100
AcDbLayout
  1
Model
 70
0
 71
0
 10
0.0
 20
0.0
 11
22.0
 21
17.0
 12
0.0
 22
0.0
 32
0.0
 14
0.0
 24
0.0
 34
0.0
 15
0.0
 25
0.0
 35
0.0
146
0.0
 13
0.0
 23
0.0
 33
0.0
 16
1.0
 26
0.0
 36
0.0
 17
0.0
 27
1.0
 37
0.0
 76
0
330
20C
345
0
346
0
  0
LAYOUT
  5
3B3
102
{ACAD_REACTORS
330
1A
102
}
100
AcDbPlotSettings
  1

  2
none_device
  4
ANSI_C_(22.00_x_17.00_Inches)
  6

 40
0.0
 41
0.0
 42
0.0
 43
0.0
 44
558.8
 45
431.8
 46
0.0
 47
0.0
 48
0.0
 49
0.0
140
0.0
141
0.0
142
1.0
143
1.0
 70
0
 72
0
 73
0
 74
0
  7

 75
0
147
1.0
148
0.0
149
0.0
100
AcDbLayout
  1
Layout1
 70
0
 71
1
 10
0.0
 20
0.0
 11
22.0
 21
17.0
 12
0.0
 22
0.0
 32
0.0
 14
0.0
 24
0.0
 34
0.0
 15
0.0
 25
0.0
 35
0.0
146
0.0
 13
0.0
 23
0.0
 33
0.0
 16
1.0
 26
0.0
 36
0.0
 17
0.0
 27
1.0
 37
0.0
 76
0
330
20D
345
0
346
0
  0
IMAGEDEF
  5
3B4
102
{ACAD_REACTORS
330
3AF
330
3AE
102
}
100
AcDbRasterImageDef
 90
0
  1
CBBALHN-ECV_assy_2_img_1.png
 10
369.0
 20
92.0
 11
0.0066666667
 21
0.0066666667
280
1
281
0
  0
TABLESTYLE
  5
3B5
102
{ACAD_REACTORS
330
3B1
330
28E
330
28F
102
}
330
3B1
100
AcDbTableStyle
  3
Standard
 70
0
 71
0
 40
0.06
 41
0.06
280
1
281
1
  7
Standard
140
0.18
170
1
 62
0
 63
7
283
0
  7
Standard
140
0.18
170
1
 62
0
 63
7
283
0
  7
Standard
140
0.18
170
1
 62
0
 63
7
283
0
  0
TABLESTYLE
  5
3B6
102
{ACAD_REACTORS
330
3B1
330
28D
102
}
330
3B1
100
AcDbTableStyle
  3
Standard1
 70
1
 71
0
 40
0.06
 41
0.06
280
1
281
1
  7
Standard
140
0.18
170
1
 62
0
 63
7
283
0
  7
Standard
140
0.18
170
1
 62
0
 63
7
283
0
  7
Standard
140
0.18
170
1
 62
0
 63
7
283
0
  0
ENDSEC
  0
EOF
