999
DXF file: CBBALHN-ECT_assy_2.dxf
999
Pro/ENGINEER 2014200 by Parametric Technology Corporation
  0
SECTION
  2
HEADER
  9
$ACADVER
  1
AC1021
  9
$DWGCODEPAGE
  3
ANSI_1252
  9
$EXTMAX
 10
22.0
 20
17.0
 30
0.0
  9
$EXTMIN
 10
0.0
 20
0.0
 30
0.0
  9
$LIMMIN
 10
0.0
 20
0.0
  9
$LIMMAX
 10
22.0
 20
17.0
  9
$VIEWCTR
 10
11.0
 20
8.5
  9
$VIEWSIZE
 40
17.0
  9
$CLAYER
  8
0
  9
$LTSCALE
 40
1.21
  9
$CELTYPE
  6
BYLAYER
  9
$DIMSCALE
 40
1.0
  9
$DIMASZ
 40
0.1875
  9
$DIMEXO
 40
0.0625
  9
$DIMDLI
 40
0.836
  9
$DIMEXE
 40
0.125
  9
$DIMCEN
 40
0.198
  9
$DIMLFAC
 40
1.0
  9
$DIMBLK
  1
_FILLED
  9
$DIMTXT
 40
0.1
  9
$DIMTOL
 70
0
  9
$DIMLIM
 70
0
  9
$DIMTFAC
 40
1.0
  9
$DIMGAP
 40
0.09
  9
$DIMDSEP
 70
46
  9
$AUNITS
 70
0
  9
$PDMODE
 70
3
  9
$PDSIZE
 40
0.3125
  9
$HANDSEED
  5
399
  9
$TILEMODE
 70
1
  9
$MEASUREMENT
 70
0
  9
$INSUNITS
 70
1
  0
ENDSEC
  0
SECTION
  2
CLASSES
  0
CLASS
  1
ACDBDICTIONARYWDFLT
  2
AcDbDictionaryWithDefault
  3
AutoCAD 2000
 90
0
 91
1
280
0
281
0
  0
CLASS
  1
ACDBPLACEHOLDER
  2
AcDbPlaceHolder
  3
AutoCAD 2000
 90
0
 91
1
280
0
281
0
  0
CLASS
  1
LAYOUT
  2
AcDbLayout
  3
AutoCAD 2000
 90
0
 91
0
280
0
281
0
  0
CLASS
  1
RASTERVARIABLES
  2
AcDbRasterVariables
  3
ISM
 90
0
 91
1
280
0
281
0
  0
CLASS
  1
IMAGEDEF
  2
AcDbRasterImageDef
  3
ISM
 90
0
 91
1
280
0
281
0
  0
CLASS
  1
IMAGEDEF_REACTOR
  2
AcDbRasterImageDefReactor
  3
ISM
 90
0
 91
1
280
0
281
0
  0
CLASS
  1
IMAGE
  2
AcDbRasterImage
  3
ISM
 90
127
 91
1
280
0
281
1
  0
CLASS
  1
TABLESTYLE
  2
AcDbTableStyle
  3
ObjectDBX Classes
 90
2047
 91
1
280
0
281
0
  0
CLASS
  1
ACAD_TABLE
  2
AcDbTable
  3
ObjectDBX Classes
 90
1025
 91
3
280
0
281
1
  0
ENDSEC
  0
SECTION
  2
TABLES
  0
TABLE
  2
VPORT
  5
8
100
AcDbSymbolTable
 70
2
  0
VPORT
  5
1F4
100
AcDbSymbolTableRecord
100
AcDbViewportTableRecord
  2
*ACTIVE
 70
0
 10
0.0
 20
0.0
 11
1.0
 21
1.0
 12
11.0
 22
8.5
 13
0.0
 23
0.0
 14
1.0
 24
1.0
 15
0.0
 25
0.0
 16
0.0
 26
0.0
 36
1.0
 17
0.0
 27
0.0
 37
0.0
 40
17.0
 41
1.2941176471
 42
50.0
 43
0.0
 44
0.0
 50
0.0
 51
0.0
 71
0
 72
100
 73
1
 74
1
 75
0
 76
0
 77
0
 78
0
  0
ENDTAB
  0
TABLE
  2
LTYPE
  5
5
100
AcDbSymbolTable
 70
6
  0
LTYPE
  5
14
100
AcDbSymbolTableRecord
100
AcDbLinetypeTableRecord
  2
BYBLOCK
 70
0
  3

 72
65
 73
0
 40
0.0
  0
LTYPE
  5
15
100
AcDbSymbolTableRecord
100
AcDbLinetypeTableRecord
  2
BYLAYER
 70
0
  3

 72
65
 73
0
 40
0.0
  0
LTYPE
  5
16
100
AcDbSymbolTableRecord
100
AcDbLinetypeTableRecord
  2
CONTINUOUS
 70
64
  3
Solid line
 72
65
 73
0
 40
0.0
  0
LTYPE
  5
1F5
100
AcDbSymbolTableRecord
100
AcDbLinetypeTableRecord
  2
CENTER
 70
64
  3
____ _ ____ _ ____ _ ____ _ ____ _ ____ _ ____
 72
65
 73
4
 40
0.6
 49
0.375
 74
0
 49
-0.075
 74
0
 49
0.075
 74
0
 49
-0.075
 74
0
  0
LTYPE
  5
1F6
100
AcDbSymbolTableRecord
100
AcDbLinetypeTableRecord
  2
HIDDEN
 70
64
  3
- - - - - - - - - - - - - - - - - - - -
 72
65
 73
2
 40
0.2
 49
0.1
 74
0
 49
-0.1
 74
0
  0
LTYPE
  5
1F7
100
AcDbSymbolTableRecord
100
AcDbLinetypeTableRecord
  2
PHANTOM
 70
64
  3
_____ _ _ _____ _ _ _____ _ _ _____
 72
65
 73
6
 40
0.8
 49
0.45
 74
0
 49
-0.05
 74
0
 49
0.1
 74
0
 49
-0.05
 74
0
 49
0.1
 74
0
 49
-0.05
 74
0
  0
LTYPE
  5
1F8
100
AcDbSymbolTableRecord
100
AcDbLinetypeTableRecord
  2
DOT
 70
64
  3
. . . . . . . . . . . . . . . . . . . .
 72
65
 73
2
 40
0.2
 49
0.1
 74
0
 49
-0.1
 74
0
  0
LTYPE
  5
1F9
100
AcDbSymbolTableRecord
100
AcDbLinetypeTableRecord
  2
DASHED
 70
64
  3
- - - - - - - - - - - - - - - - - - - -
 72
65
 73
2
 40
0.2
 49
0.1
 74
0
 49
-0.1
 74
0
  0
ENDTAB
  0
TABLE
  2
LAYER
  5
2
100
AcDbSymbolTable
 70
36
  0
LAYER
  5
10
100
AcDbSymbolTableRecord
100
AcDbLayerTableRecord
  2
0
 70
0
 62
7
  6
CONTINUOUS
370
-3
390
F
  0
LAYER
  5
1FA
100
AcDbSymbolTableRecord
100
AcDbLayerTableRecord
  2
DEFAULT_1
 70
0
 62
7
  6
CENTER
370
-3
390
F
  0
LAYER
  5
1FB
100
AcDbSymbolTableRecord
100
AcDbLayerTableRecord
  2
DEFAULT_2
 70
0
 62
8
  6
HIDDEN
370
-3
390
F
  0
LAYER
  5
1FC
100
AcDbSymbolTableRecord
100
AcDbLayerTableRecord
  2
DEFAULT_3
 70
0
 62
7
  6
PHANTOM
370
-3
390
F
  0
LAYER
  5
1FD
100
AcDbSymbolTableRecord
100
AcDbLayerTableRecord
  2
01___PRT_ALL_DTM_PLN
 70
0
 62
7
  6
CONTINUOUS
370
-3
390
F
  0
LAYER
  5
1FE
100
AcDbSymbolTableRecord
100
AcDbLayerTableRecord
  2
01___PRT_DEF_DTM_PLN
 70
0
 62
7
  6
CONTINUOUS
370
-3
390
F
  0
LAYER
  5
1FF
100
AcDbSymbolTableRecord
100
AcDbLayerTableRecord
  2
02___PRT_ALL_AXES
 70
0
 62
7
  6
CONTINUOUS
370
-3
390
F
  0
LAYER
  5
200
100
AcDbSymbolTableRecord
100
AcDbLayerTableRecord
  2
03___PRT_ALL_CURVES
 70
0
 62
7
  6
CONTINUOUS
370
-3
390
F
  0
LAYER
  5
201
100
AcDbSymbolTableRecord
100
AcDbLayerTableRecord
  2
04___PRT_ALL_DTM_PNT
 70
0
 62
7
  6
CONTINUOUS
370
-3
390
F
  0
LAYER
  5
202
100
AcDbSymbolTableRecord
100
AcDbLayerTableRecord
  2
05___PRT_ALL_DTM_CSYS
 70
0
 62
7
  6
CONTINUOUS
370
-3
390
F
  0
LAYER
  5
203
100
AcDbSymbolTableRecord
100
AcDbLayerTableRecord
  2
05___PRT_DEF_DTM_CSYS
 70
0
 62
7
  6
CONTINUOUS
370
-3
390
F
  0
LAYER
  5
204
100
AcDbSymbolTableRecord
100
AcDbLayerTableRecord
  2
06___PRT_ALL_SURFS
 70
0
 62
7
  6
CONTINUOUS
370
-3
390
F
  0
LAYER
  5
205
100
AcDbSymbolTableRecord
100
AcDbLayerTableRecord
  2
DATUM_PLANES
 70
0
 62
7
  6
CONTINUOUS
370
-3
390
F
  0
LAYER
  5
206
100
AcDbSymbolTableRecord
100
AcDbLayerTableRecord
  2
PORT_AREAS
 70
0
 62
7
  6
CONTINUOUS
370
-3
390
F
  0
LAYER
  5
207
100
AcDbSymbolTableRecord
100
AcDbLayerTableRecord
  2
SUNNBOMCOSMETIC
 70
0
 62
7
  6
CONTINUOUS
370
-3
390
F
  0
LAYER
  5
208
100
AcDbSymbolTableRecord
100
AcDbLayerTableRecord
  2
SUNNBOMSTAMPING
 70
0
 62
7
  6
CONTINUOUS
370
-3
390
F
  0
LAYER
  5
209
100
AcDbSymbolTableRecord
100
AcDbLayerTableRecord
  2
THREADS
 70
0
 62
7
  6
CONTINUOUS
370
-3
390
F
  0
ENDTAB
  0
TABLE
  2
STYLE
  5
3
100
AcDbSymbolTable
 70
1
  0
STYLE
  5
11
100
AcDbSymbolTableRecord
100
AcDbTextStyleTableRecord
  2
STANDARD
 70
0
 40
0.0
 41
0.8
 50
0.0
 71
0
 42
0.2
  3
txt
  4

  0
STYLE
  5
20A
100
AcDbSymbolTableRecord
100
AcDbTextStyleTableRecord
  2
TEXTSTYLE_1
 70
0
 40
0.0
 41
0.8
 50
0.0
 71
0
 42
0.2
  3
gdt
  4

  0
ENDTAB
  0
TABLE
  2
VIEW
  5
6
100
AcDbSymbolTable
 70
0
  0
ENDTAB
  0
TABLE
  2
UCS
  5
7
100
AcDbSymbolTable
 70
0
  0
ENDTAB
  0
TABLE
  2
APPID
  5
9
100
AcDbSymbolTable
 70
1
  0
APPID
  5
20B
100
AcDbSymbolTableRecord
100
AcDbRegAppTableRecord
  2
ACAD
 70
0
  0
ENDTAB
  0
TABLE
  2
BLOCK_RECORD
  5
1
100
AcDbSymbolTable
 70
0
  0
BLOCK_RECORD
  5
20C
100
AcDbSymbolTableRecord
100
AcDbBlockTableRecord
  2
*Model_Space
  0
BLOCK_RECORD
  5
20D
100
AcDbSymbolTableRecord
100
AcDbBlockTableRecord
  2
*Paper_Space
  0
BLOCK_RECORD
  5
20E
100
AcDbSymbolTableRecord
100
AcDbBlockTableRecord
  2
SUN_FIRST_THIRD_ANGLE_BL0
  0
BLOCK_RECORD
  5
20F
100
AcDbSymbolTableRecord
100
AcDbBlockTableRecord
  2
*T1
  0
BLOCK_RECORD
  5
210
100
AcDbSymbolTableRecord
100
AcDbBlockTableRecord
  2
*T2
  0
BLOCK_RECORD
  5
211
100
AcDbSymbolTableRecord
100
AcDbBlockTableRecord
  2
*T3
  0
ENDTAB
  0
TABLE
  2
DIMSTYLE
  5
A
100
AcDbSymbolTable
 70
1
100
AcDbDimStyleTable
 71
0
  0
DIMSTYLE
105
212
100
AcDbSymbolTableRecord
100
AcDbDimStyleTableRecord
  2
STANDARD
 70
0
  3

  4

 40
1.0
 41
0.1875
 42
0.0625
 43
0.38
 44
0.125
 45
0.0
 46
0.0
 47
0.001
 48
0.001
140
0.1
141
0.09
142
0.0
143
25.4
144
1.0
145
0.0
146
1.0
147
0.09
 71
0.0
 72
0.0
 73
1
 74
1
 75
0
 76
0
 77
0
 78
4
170
0
171
2
172
0
173
0
174
0
175
0
176
0
177
0
178
0
270
2
271
3
272
3
273
2
274
2
275
0
280
0
281
0
282
0
283
1
284
4
285
0
286
0
287
3
288
0
340
11
278
46
  0
ENDTAB
  0
ENDSEC
  0
SECTION
  2
BLOCKS
  0
BLOCK
  5
20
100
AcDbEntity
  8
0
100
AcDbBlockBegin
  2
*Model_Space
 70
0
 10
0.0
 20
0.0
 30
0.0
  3
*Model_Space
  1

  0
ENDBLK
  5
21
100
AcDbEntity
  8
0
100
AcDbBlockEnd
  0
BLOCK
  5
1C
100
AcDbEntity
  8
0
100
AcDbBlockBegin
  2
*Paper_Space
 70
0
 10
0.0
 20
0.0
 30
0.0
  3
*Paper_Space
  1

  0
ENDBLK
  5
1D
100
AcDbEntity
  8
0
100
AcDbBlockEnd
  0
BLOCK
  5
213
100
AcDbEntity
  8
0
100
AcDbBlockBegin
 62
2
  6
CONTINUOUS
  2
SUN_FIRST_THIRD_ANGLE_BL0
 70
64
 10
20.4816717061
 20
1.2289683772
  3
SUN_FIRST_THIRD_ANGLE_BL0
  1

  0
TEXT
  5
214
100
AcDbEntity
  8
0
100
AcDbText
 62
2
  6
CONTINUOUS
 10
19.4750896608
 20
1.4136269581
  7
STANDARD
 40
0.08
  1
FIRST ANGLE
 41
0.8
 72
0
100
AcDbText
  0
TEXT
  5
215
100
AcDbEntity
  8
0
100
AcDbText
 62
2
  6
CONTINUOUS
 10
20.7842537513
 20
1.4047600029
  7
STANDARD
 40
0.08
  1
THIRD ANGLE
 41
0.8
 72
0
100
AcDbText
  0
LINE
  5
216
100
AcDbEntity
  8
0
100
AcDbLine
 62
7
  6
CONTINUOUS
 10
19.4767170086
 20
1.1727031207
 11
19.6334271527
 21
1.1717972817
  0
LINE
  5
217
100
AcDbEntity
  8
0
100
AcDbLine
 62
7
  6
CONTINUOUS
 10
19.6596964832
 20
1.1717972817
 11
19.6950230232
 21
1.171593082
  0
LINE
  5
218
100
AcDbEntity
  8
0
100
AcDbLine
 62
7
  6
CONTINUOUS
 10
19.7194818561
 20
1.1708914427
 11
19.8852396156
 21
1.1699333054
  0
LINE
  5
219
100
AcDbEntity
  8
0
100
AcDbLine
 62
7
  6
CONTINUOUS
 10
19.4758111696
 20
1.2723454088
 11
19.88525039
 21
1.3511534004
  0
LINE
  5
21A
100
AcDbEntity
  8
0
100
AcDbLine
 62
7
  6
CONTINUOUS
 10
19.88525039
 20
1.3511534004
 11
19.8831348489
 21
0.9851647912
  0
LINE
  5
21B
100
AcDbEntity
  8
0
100
AcDbLine
 62
7
  6
CONTINUOUS
 10
19.8831348489
 20
0.9851647912
 11
19.4767170086
 21
1.0658141206
  0
LINE
  5
21C
100
AcDbEntity
  8
0
100
AcDbLine
 62
7
  6
CONTINUOUS
 10
19.4767170086
 20
1.0658141206
 11
19.4779056764
 21
1.2714536432
  0
CIRCLE
  5
21D
100
AcDbEntity
  8
0
100
AcDbCircle
 62
7
  6
CONTINUOUS
 10
20.2068232291
 20
1.1717972817
 40
0.175742101
  0
CIRCLE
  5
21E
100
AcDbEntity
  8
0
100
AcDbCircle
 62
7
  6
CONTINUOUS
 10
20.2068232291
 20
1.1717972817
 40
0.1005522074
  0
LINE
  5
21F
100
AcDbEntity
  8
0
100
AcDbLine
 62
7
  6
CONTINUOUS
 10
20.2077290681
 20
1.3756110529
 11
20.2071171714
 21
1.2379342989
  0
LINE
  5
220
100
AcDbEntity
  8
0
100
AcDbLine
 62
7
  6
CONTINUOUS
 10
20.2077290681
 20
1.2016899681
 11
20.2074674401
 21
1.1428236749
  0
LINE
  5
221
100
AcDbEntity
  8
0
100
AcDbLine
 62
7
  6
CONTINUOUS
 10
20.208634907
 20
1.101141841
 11
20.2080230104
 21
0.963465087
  0
LINE
  5
222
100
AcDbEntity
  8
0
100
AcDbLine
 62
7
  6
CONTINUOUS
 10
20.0066328138
 20
1.1745147986
 11
20.1443095678
 21
1.1739029019
  0
LINE
  5
223
100
AcDbEntity
  8
0
100
AcDbLine
 62
7
  6
CONTINUOUS
 10
20.1832714155
 20
1.1727031207
 11
20.238153505
 21
1.172335442
  0
LINE
  5
224
100
AcDbEntity
  8
0
100
AcDbLine
 62
7
  6
CONTINUOUS
 10
20.2756669918
 20
1.1717972817
 11
20.407916871
 21
1.1712095044
  0
CIRCLE
  5
225
100
AcDbEntity
  8
0
100
AcDbCircle
 62
7
  6
CONTINUOUS
 10
20.7509457401
 20
1.1693297793
 40
0.1722024983
  0
CIRCLE
  5
226
100
AcDbEntity
  8
0
100
AcDbCircle
 62
7
  6
CONTINUOUS
 10
20.7509457401
 20
1.1693297793
 40
0.0985164967
  0
LINE
  5
227
100
AcDbEntity
  8
0
100
AcDbLine
 62
7
  6
CONTINUOUS
 10
20.7169767782
 20
1.170462078
 11
20.7825395137
 21
1.1682766535
  0
LINE
  5
228
100
AcDbEntity
  8
0
100
AcDbLine
 62
7
  6
CONTINUOUS
 10
20.8177513651
 20
1.1693297793
 11
20.947965719
 21
1.1693297793
  0
LINE
  5
229
100
AcDbEntity
  8
0
100
AcDbLine
 62
7
  6
CONTINUOUS
 10
20.6875370113
 20
1.170462078
 11
20.5573226574
 21
1.170462078
  0
LINE
  5
22A
100
AcDbEntity
  8
0
100
AcDbLine
 62
7
  6
CONTINUOUS
 10
20.7486811426
 20
1.1987695462
 11
20.7486811426
 21
1.1432869085
  0
LINE
  5
22B
100
AcDbEntity
  8
0
100
AcDbLine
 62
7
  6
CONTINUOUS
 10
20.7498134414
 20
1.1059210505
 11
20.7498134414
 21
0.9757066966
  0
LINE
  5
22C
100
AcDbEntity
  8
0
100
AcDbLine
 62
7
  6
CONTINUOUS
 10
20.7486811426
 20
1.2338708068
 11
20.7486811426
 21
1.3640851607
  0
LINE
  5
22D
100
AcDbEntity
  8
0
100
AcDbLine
 62
7
  6
CONTINUOUS
 10
21.0702539817
 20
1.2701043662
 11
21.4790138229
 21
1.3448360823
  0
LINE
  5
22E
100
AcDbEntity
  8
0
100
AcDbLine
 62
7
  6
CONTINUOUS
 10
21.4790138229
 20
1.3448360823
 11
21.4790138229
 21
0.9779712941
  0
LINE
  5
22F
100
AcDbEntity
  8
0
100
AcDbLine
 62
7
  6
CONTINUOUS
 10
21.4790138229
 20
0.9779712941
 11
21.069121683
 21
1.0617614
  0
LINE
  5
230
100
AcDbEntity
  8
0
100
AcDbLine
 62
7
  6
CONTINUOUS
 10
21.0702539817
 20
1.2701043662
 11
21.069121683
 21
1.0617614
  0
LINE
  5
231
100
AcDbEntity
  8
0
100
AcDbLine
 62
7
  6
CONTINUOUS
 10
21.4790138229
 20
1.1693297793
 11
21.3159628059
 21
1.1693297793
  0
LINE
  5
232
100
AcDbEntity
  8
0
100
AcDbLine
 62
7
  6
CONTINUOUS
 10
21.2876553377
 20
1.1693297793
 11
21.2502894796
 21
1.1693297793
  0
LINE
  5
233
100
AcDbEntity
  8
0
100
AcDbLine
 62
7
  6
CONTINUOUS
 10
21.2208497126
 20
1.1659328831
 11
21.0713862804
 21
1.1659328831
  0
LINE
  5
234
100
AcDbEntity
  8
0
100
AcDbLine
 62
7
  6
CONTINUOUS
 10
20.4796138713
 20
1.5284908897
 11
20.4766766948
 21
0.9294458646
  0
ENDBLK
  5
235
100
AcDbEntity
  8
0
  6
BYBLOCK
 62
0
100
AcDbBlockEnd
  0
BLOCK
  5
236
100
AcDbEntity
  8
0
100
AcDbBlockBegin
  2
*T1
 70
1
 10
0.0
 20
0.0
  3
*T1
  1

  0
LINE
  5
237
100
AcDbEntity
  8
0
100
AcDbLine
 62
2
  6
CONTINUOUS
 10
9.275
 20
0.0
 11
-0.0
 21
0.0
  0
LINE
  5
238
100
AcDbEntity
  8
0
100
AcDbLine
 62
2
  6
CONTINUOUS
 10
9.275
 20
0.0
 11
9.275
 21
1.25
  0
LINE
  5
239
100
AcDbEntity
  8
0
100
AcDbLine
 62
2
  6
CONTINUOUS
 10
9.275
 20
0.625
 11
-0.0
 21
0.625
  0
LINE
  5
23A
100
AcDbEntity
  8
0
100
AcDbLine
 62
2
  6
CONTINUOUS
 10
9.275
 20
1.25
 11
-0.0
 21
1.25
  0
LINE
  5
23B
100
AcDbEntity
  8
0
100
AcDbLine
 62
2
  6
CONTINUOUS
 10
6.8
 20
0.0
 11
6.8
 21
1.25
  0
LINE
  5
23C
100
AcDbEntity
  8
0
100
AcDbLine
 62
2
  6
CONTINUOUS
 10
6.4
 20
0.0
 11
6.4
 21
0.625
  0
LINE
  5
23D
100
AcDbEntity
  8
0
100
AcDbLine
 62
2
  6
CONTINUOUS
 10
5.9
 20
0.0
 11
5.9
 21
0.625
  0
LINE
  5
23E
100
AcDbEntity
  8
0
100
AcDbLine
 62
2
  6
CONTINUOUS
 10
5.2
 20
0.0
 11
5.2
 21
0.625
  0
LINE
  5
23F
100
AcDbEntity
  8
0
100
AcDbLine
 62
2
  6
CONTINUOUS
 10
4.1
 20
0.0
 11
4.1
 21
1.25
  0
LINE
  5
240
100
AcDbEntity
  8
0
100
AcDbLine
 62
2
  6
CONTINUOUS
 10
-0.0
 20
0.0
 11
-0.0
 21
1.25
  0
MTEXT
  5
241
100
AcDbEntity
  8
0
100
AcDbMText
 62
2
  6
CONTINUOUS
  7
STANDARD
 71
2
 72
1
 10
6.6
 20
0.325
 30
0.0
 11
1.0
 21
0.0
 31
0.0
 44
0.9
  1
2
 40
0.125
 41
0.2
  0
MTEXT
  5
242
100
AcDbEntity
  8
0
100
AcDbMText
 62
2
  6
CONTINUOUS
  7
STANDARD
 71
2
 72
1
 10
6.15
 20
0.325
 30
0.0
 11
1.0
 21
0.0
 31
0.0
 44
0.9
  1
C
 40
0.125
 41
0.2
  0
MTEXT
  5
243
100
AcDbEntity
  8
0
100
AcDbMText
 62
2
  6
CONTINUOUS
  7
STANDARD
 71
2
 72
1
 10
5.55
 20
0.325
 30
0.0
 11
1.0
 21
0.0
 31
0.0
 44
0.9
  1
2.000
 40
0.125
 41
1.0
  0
MTEXT
  5
244
100
AcDbEntity
  8
0
100
AcDbMText
 62
2
  6
CONTINUOUS
  7
STANDARD
 71
2
 72
1
 10
4.65
 20
0.325
 30
0.0
 11
1.0
 21
0.0
 31
0.0
 44
0.9
  1
Apr-22-24
 40
0.125
 41
1.8
  0
MTEXT
  5
245
100
AcDbEntity
  8
0
100
AcDbMText
 62
2
  6
CONTINUOUS
  7
STANDARD
 71
2
 72
1
 10
2.05
 20
0.4625
 30
0.0
 11
1.0
 21
0.0
 31
0.0
 44
0.9
  1
Counterbalance manifold assembly
 40
0.125
 41
6.4
  0
MTEXT
  5
246
100
AcDbEntity
  8
0
100
AcDbMText
 62
2
  6
CONTINUOUS
  7
STANDARD
 71
1
 72
1
 10
6.45
 20
0.5625
 30
0.0
 11
1.0
 21
0.0
 31
0.0
 44
0.9
  1
SHEET
 40
0.06
 41
0.48
  0
MTEXT
  5
247
100
AcDbEntity
  8
0
100
AcDbMText
 62
2
  6
CONTINUOUS
  7
STANDARD
 71
1
 72
1
 10
5.95
 20
0.5625
 30
0.0
 11
1.0
 21
0.0
 31
0.0
 44
0.9
  1
DWG SIZE
 40
0.06
 41
0.768
  0
MTEXT
  5
248
100
AcDbEntity
  8
0
100
AcDbMText
 62
2
  6
CONTINUOUS
  7
STANDARD
 71
1
 72
1
 10
5.25
 20
0.5625
 30
0.0
 11
1.0
 21
0.0
 31
0.0
 44
0.9
  1
SCALE
 40
0.06
 41
0.48
  0
MTEXT
  5
249
100
AcDbEntity
  8
0
100
AcDbMText
 62
2
  6
CONTINUOUS
  7
STANDARD
 71
1
 72
1
 10
4.15
 20
0.5625
 30
0.0
 11
1.0
 21
0.0
 31
0.0
 44
0.9
  1
DATE
 40
0.06
 41
0.384
  0
MTEXT
  5
24A
100
AcDbEntity
  8
0
100
AcDbMText
 62
2
  6
CONTINUOUS
  7
STANDARD
 71
1
 72
1
 10
0.05
 20
0.5625
 30
0.0
 11
1.0
 21
0.0
 31
0.0
 44
0.9
  1
DESCRIPTION
 40
0.06
 41
1.056
  0
MTEXT
  5
24B
100
AcDbEntity
  8
0
100
AcDbMText
 62
2
  6
CONTINUOUS
  7
STANDARD
 71
2
 72
1
 10
5.45
 20
1.0375
 30
0.0
 11
1.0
 21
0.0
 31
0.0
 44
0.9
  1
ALL DIMENSIONS IN INCH\PVIEWS ARE THIRD ANGLE
 40
0.12
 41
4.224
  0
MTEXT
  5
24C
100
AcDbEntity
  8
0
100
AcDbMText
 62
2
  6
CONTINUOUS
  7
STANDARD
 71
2
 72
1
 10
2.05
 20
0.95
 30
0.0
 11
1.0
 21
0.0
 31
0.0
 44
0.9
  1
CBBALHN-ECT
 40
0.125
 41
2.2
  0
MTEXT
  5
24D
100
AcDbEntity
  8
0
100
AcDbMText
 62
2
  6
CONTINUOUS
  7
STANDARD
 71
1
 72
1
 10
0.05
 20
1.1875
 30
0.0
 11
1.0
 21
0.0
 31
0.0
 44
0.9
  1
MODEL
 40
0.06
 41
0.48
  0
ENDBLK
  5
24E
100
AcDbEntity
  8
0
  6
BYBLOCK
 62
0
100
AcDbBlockEnd
  0
BLOCK
  5
24F
100
AcDbEntity
  8
0
100
AcDbBlockBegin
  2
*T2
 70
1
 10
0.0
 20
0.0
  3
*T2
  1

  0
LINE
  5
250
100
AcDbEntity
  8
0
100
AcDbLine
 62
2
  6
CONTINUOUS
 10
0.0
 20
0.0
 11
9.055
 21
0.0
  0
LINE
  5
251
100
AcDbEntity
  8
0
100
AcDbLine
 62
2
  6
CONTINUOUS
 10
0.0
 20
0.0
 11
0.0
 21
-2.594
  0
LINE
  5
252
100
AcDbEntity
  8
0
100
AcDbLine
 62
2
  6
CONTINUOUS
 10
0.0
 20
-0.344
 11
9.055
 21
-0.344
  0
LINE
  5
253
100
AcDbEntity
  8
0
100
AcDbLine
 62
2
  6
CONTINUOUS
 10
0.0
 20
-0.594
 11
9.055
 21
-0.594
  0
LINE
  5
254
100
AcDbEntity
  8
0
100
AcDbLine
 62
2
  6
CONTINUOUS
 10
0.0
 20
-0.844
 11
9.055
 21
-0.844
  0
LINE
  5
255
100
AcDbEntity
  8
0
100
AcDbLine
 62
2
  6
CONTINUOUS
 10
0.0
 20
-1.094
 11
9.055
 21
-1.094
  0
LINE
  5
256
100
AcDbEntity
  8
0
100
AcDbLine
 62
2
  6
CONTINUOUS
 10
0.0
 20
-1.344
 11
9.055
 21
-1.344
  0
LINE
  5
257
100
AcDbEntity
  8
0
100
AcDbLine
 62
2
  6
CONTINUOUS
 10
0.0
 20
-1.594
 11
9.055
 21
-1.594
  0
LINE
  5
258
100
AcDbEntity
  8
0
100
AcDbLine
 62
2
  6
CONTINUOUS
 10
0.0
 20
-1.844
 11
9.055
 21
-1.844
  0
LINE
  5
259
100
AcDbEntity
  8
0
100
AcDbLine
 62
2
  6
CONTINUOUS
 10
0.0
 20
-2.094
 11
9.055
 21
-2.094
  0
LINE
  5
25A
100
AcDbEntity
  8
0
100
AcDbLine
 62
2
  6
CONTINUOUS
 10
0.0
 20
-2.344
 11
9.055
 21
-2.344
  0
LINE
  5
25B
100
AcDbEntity
  8
0
100
AcDbLine
 62
2
  6
CONTINUOUS
 10
0.0
 20
-2.594
 11
9.055
 21
-2.594
  0
LINE
  5
25C
100
AcDbEntity
  8
0
100
AcDbLine
 62
2
  6
CONTINUOUS
 10
3.055
 20
0.0
 11
3.055
 21
-2.594
  0
LINE
  5
25D
100
AcDbEntity
  8
0
100
AcDbLine
 62
2
  6
CONTINUOUS
 10
9.055
 20
0.0
 11
9.055
 21
-2.594
  0
MTEXT
  5
25E
100
AcDbEntity
  8
0
100
AcDbMText
 62
2
  6
CONTINUOUS
  7
STANDARD
 71
2
 72
1
 10
1.5275
 20
-0.0995
 30
0.0
 11
1.0
 21
0.0
 31
0.0
 44
0.9
  1
Technical Data
 40
0.145
 41
3.248
  0
MTEXT
  5
25F
100
AcDbEntity
  8
0
100
AcDbMText
 62
2
  6
CONTINUOUS
  7
STANDARD
 71
2
 72
1
 10
4.555
 20
-0.0995
 30
0.0
 11
1.0
 21
0.0
 31
0.0
 44
0.9
  1
U.S. Units
 40
0.145
 41
2.32
  0
MTEXT
  5
260
100
AcDbEntity
  8
0
100
AcDbMText
 62
2
  6
CONTINUOUS
  7
STANDARD
 71
2
 72
1
 10
7.555
 20
-0.0995
 30
0.0
 11
1.0
 21
0.0
 31
0.0
 44
0.9
  1
Metric Units
 40
0.145
 41
2.784
  0
MTEXT
  5
261
100
AcDbEntity
  8
0
100
AcDbMText
 62
2
  6
CONTINUOUS
  7
STANDARD
 71
2
 72
1
 10
1.5275
 20
-0.4065
 30
0.0
 11
1.0
 21
0.0
 31
0.0
 44
0.9
  1
Cavity
 40
0.125
 41
1.2
  0
MTEXT
  5
262
100
AcDbEntity
  8
0
100
AcDbMText
 62
2
  6
CONTINUOUS
  7
STANDARD
 71
2
 72
1
 10
6.055
 20
-0.4065
 30
0.0
 11
1.0
 21
0.0
 31
0.0
 44
0.9
  1
T-11A
 40
0.125
 41
1.0
  0
MTEXT
  5
263
100
AcDbEntity
  8
0
100
AcDbMText
 62
2
  6
CONTINUOUS
  7
STANDARD
 71
2
 72
1
 10
1.5275
 20
-0.6565
 30
0.0
 11
1.0
 21
0.0
 31
0.0
 44
0.9
  1
Body Features
 40
0.125
 41
2.6
  0
MTEXT
  5
264
100
AcDbEntity
  8
0
100
AcDbMText
 62
2
  6
CONTINUOUS
  7
STANDARD
 71
2
 72
1
 10
6.055
 20
-0.6565
 30
0.0
 11
1.0
 21
0.0
 31
0.0
 44
0.9
  1
Ninety degree
 40
0.125
 41
2.6
  0
MTEXT
  5
265
100
AcDbEntity
  8
0
100
AcDbMText
 62
2
  6
CONTINUOUS
  7
STANDARD
 71
2
 72
1
 10
1.5275
 20
-0.9065
 30
0.0
 11
1.0
 21
0.0
 31
0.0
 44
0.9
  1
Body Type
 40
0.125
 41
1.8
  0
MTEXT
  5
266
100
AcDbEntity
  8
0
100
AcDbMText
 62
2
  6
CONTINUOUS
  7
STANDARD
 71
2
 72
1
 10
6.055
 20
-0.9065
 30
0.0
 11
1.0
 21
0.0
 31
0.0
 44
0.9
  1
Line mount
 40
0.125
 41
2.0
  0
MTEXT
  5
267
100
AcDbEntity
  8
0
100
AcDbMText
 62
2
  6
CONTINUOUS
  7
STANDARD
 71
2
 72
1
 10
1.5275
 20
-1.1565
 30
0.0
 11
1.0
 21
0.0
 31
0.0
 44
0.9
  1
Interface
 40
0.125
 41
1.8
  0
MTEXT
  5
268
100
AcDbEntity
  8
0
100
AcDbMText
 62
2
  6
CONTINUOUS
  7
STANDARD
 71
2
 72
1
 10
6.055
 20
-1.1565
 30
0.0
 11
1.0
 21
0.0
 31
0.0
 44
0.9
  1
None
 40
0.125
 41
0.8
  0
MTEXT
  5
269
100
AcDbEntity
  8
0
100
AcDbMText
 62
2
  6
CONTINUOUS
  7
STANDARD
 71
2
 72
1
 10
1.5275
 20
-1.4065
 30
0.0
 11
1.0
 21
0.0
 31
0.0
 44
0.9
  1
Open Cavity Quantity
 40
0.125
 41
4.0
  0
MTEXT
  5
26A
100
AcDbEntity
  8
0
100
AcDbMText
 62
2
  6
CONTINUOUS
  7
STANDARD
 71
2
 72
1
 10
6.055
 20
-1.4065
 30
0.0
 11
1.0
 21
0.0
 31
0.0
 44
0.9
  1
1
 40
0.125
 41
0.2
  0
MTEXT
  5
26B
100
AcDbEntity
  8
0
100
AcDbMText
 62
2
  6
CONTINUOUS
  7
STANDARD
 71
2
 72
1
 10
1.5275
 20
-1.6565
 30
0.0
 11
1.0
 21
0.0
 31
0.0
 44
0.9
  1
Weight
 40
0.125
 41
1.2
  0
MTEXT
  5
26C
100
AcDbEntity
  8
0
100
AcDbMText
 62
2
  6
CONTINUOUS
  7
STANDARD
 71
2
 72
1
 10
4.555
 20
-1.6565
 30
0.0
 11
1.0
 21
0.0
 31
0.0
 44
0.9
  1
1.101 lb.
 40
0.125
 41
1.8
  0
MTEXT
  5
26D
100
AcDbEntity
  8
0
100
AcDbMText
 62
2
  6
CONTINUOUS
  7
STANDARD
 71
2
 72
1
 10
7.555
 20
-1.6565
 30
0.0
 11
1.0
 21
0.0
 31
0.0
 44
0.9
  1
0,499 kg.
 40
0.125
 41
1.8
  0
MTEXT
  5
26E
100
AcDbEntity
  8
0
100
AcDbMText
 62
2
  6
CONTINUOUS
  7
STANDARD
 71
2
 72
1
 10
1.5275
 20
-1.9065
 30
0.0
 11
1.0
 21
0.0
 31
0.0
 44
0.9
  1
Mounting Hole Diameter
 40
0.125
 41
4.4
  0
MTEXT
  5
26F
100
AcDbEntity
  8
0
100
AcDbMText
 62
2
  6
CONTINUOUS
  7
STANDARD
 71
2
 72
1
 10
4.555
 20
-1.9065
 30
0.0
 11
1.0
 21
0.0
 31
0.0
 44
0.9
  1
.34 in.
 40
0.125
 41
1.4
  0
MTEXT
  5
270
100
AcDbEntity
  8
0
100
AcDbMText
 62
2
  6
CONTINUOUS
  7
STANDARD
 71
2
 72
1
 10
7.555
 20
-1.9065
 30
0.0
 11
1.0
 21
0.0
 31
0.0
 44
0.9
  1
8.6 mm
 40
0.125
 41
1.2
  0
MTEXT
  5
271
100
AcDbEntity
  8
0
100
AcDbMText
 62
2
  6
CONTINUOUS
  7
STANDARD
 71
2
 72
1
 10
1.5275
 20
-2.1565
 30
0.0
 11
1.0
 21
0.0
 31
0.0
 44
0.9
  1
Mounting Hole Depth
 40
0.125
 41
3.8
  0
MTEXT
  5
272
100
AcDbEntity
  8
0
100
AcDbMText
 62
2
  6
CONTINUOUS
  7
STANDARD
 71
2
 72
1
 10
6.055
 20
-2.1565
 30
0.0
 11
1.0
 21
0.0
 31
0.0
 44
0.9
  1
Through
 40
0.125
 41
1.4
  0
MTEXT
  5
273
100
AcDbEntity
  8
0
100
AcDbMText
 62
2
  6
CONTINUOUS
  7
STANDARD
 71
2
 72
1
 10
1.5275
 20
-2.4065
 30
0.0
 11
1.0
 21
0.0
 31
0.0
 44
0.9
  1
Mounting Hole Quantity
 40
0.125
 41
4.4
  0
MTEXT
  5
274
100
AcDbEntity
  8
0
100
AcDbMText
 62
2
  6
CONTINUOUS
  7
STANDARD
 71
2
 72
1
 10
6.055
 20
-2.4065
 30
0.0
 11
1.0
 21
0.0
 31
0.0
 44
0.9
  1
2
 40
0.125
 41
0.2
  0
ENDBLK
  5
275
100
AcDbEntity
  8
0
  6
BYBLOCK
 62
0
100
AcDbBlockEnd
  0
BLOCK
  5
276
100
AcDbEntity
  8
0
100
AcDbBlockBegin
  2
*T3
 70
1
 10
0.0
 20
0.0
  3
*T3
  1

  0
LINE
  5
277
100
AcDbEntity
  8
0
100
AcDbLine
 62
2
  6
CONTINUOUS
 10
0.0
 20
0.0
 11
4.6
 21
0.0
  0
LINE
  5
278
100
AcDbEntity
  8
0
100
AcDbLine
 62
2
  6
CONTINUOUS
 10
0.0
 20
0.0
 11
0.0
 21
-0.93775
  0
LINE
  5
279
100
AcDbEntity
  8
0
100
AcDbLine
 62
2
  6
CONTINUOUS
 10
0.0
 20
-0.34375
 11
4.6
 21
-0.34375
  0
LINE
  5
27A
100
AcDbEntity
  8
0
100
AcDbLine
 62
2
  6
CONTINUOUS
 10
0.0
 20
-0.68775
 11
4.6
 21
-0.68775
  0
LINE
  5
27B
100
AcDbEntity
  8
0
100
AcDbLine
 62
2
  6
CONTINUOUS
 10
0.0
 20
-0.93775
 11
4.6
 21
-0.93775
  0
LINE
  5
27C
100
AcDbEntity
  8
0
100
AcDbLine
 62
2
  6
CONTINUOUS
 10
1.3
 20
-0.34375
 11
1.3
 21
-0.93775
  0
LINE
  5
27D
100
AcDbEntity
  8
0
100
AcDbLine
 62
2
  6
CONTINUOUS
 10
3.3
 20
-0.34375
 11
3.3
 21
-0.93775
  0
LINE
  5
27E
100
AcDbEntity
  8
0
100
AcDbLine
 62
2
  6
CONTINUOUS
 10
4.6
 20
0.0
 11
4.6
 21
-0.93775
  0
MTEXT
  5
27F
100
AcDbEntity
  8
0
100
AcDbMText
 62
2
  6
CONTINUOUS
  7
STANDARD
 71
2
 72
1
 10
2.3
 20
-0.099375
 30
0.0
 11
1.0
 21
0.0
 31
0.0
 44
0.9
  1
Port Headings
 40
0.145
 41
3.016
  0
MTEXT
  5
280
100
AcDbEntity
  8
0
100
AcDbMText
 62
2
  6
CONTINUOUS
  7
STANDARD
 71
2
 72
1
 10
0.65
 20
-0.44325
 30
0.0
 11
1.0
 21
0.0
 31
0.0
 44
0.9
  1
Product
 40
0.145
 41
1.624
  0
MTEXT
  5
281
100
AcDbEntity
  8
0
100
AcDbMText
 62
2
  6
CONTINUOUS
  7
STANDARD
 71
2
 72
1
 10
2.3
 20
-0.44325
 30
0.0
 11
1.0
 21
0.0
 31
0.0
 44
0.9
  1
Port
 40
0.145
 41
0.928
  0
MTEXT
  5
282
100
AcDbEntity
  8
0
100
AcDbMText
 62
2
  6
CONTINUOUS
  7
STANDARD
 71
2
 72
1
 10
3.95
 20
-0.44325
 30
0.0
 11
1.0
 21
0.0
 31
0.0
 44
0.9
  1
Size
 40
0.145
 41
0.928
  0
MTEXT
  5
283
100
AcDbEntity
  8
0
100
AcDbMText
 62
2
  6
CONTINUOUS
  7
STANDARD
 71
2
 72
1
 10
0.65
 20
-0.75025
 30
0.0
 11
1.0
 21
0.0
 31
0.0
 44
0.9
  1
ECT
 40
0.125
 41
0.6
  0
MTEXT
  5
284
100
AcDbEntity
  8
0
100
AcDbMText
 62
2
  6
CONTINUOUS
  7
STANDARD
 71
2
 72
1
 10
2.3
 20
-0.75025
 30
0.0
 11
1.0
 21
0.0
 31
0.0
 44
0.9
  1
All Ports
 40
0.125
 41
1.8
  0
MTEXT
  5
285
100
AcDbEntity
  8
0
100
AcDbMText
 62
2
  6
CONTINUOUS
  7
STANDARD
 71
2
 72
1
 10
3.95
 20
-0.75025
 30
0.0
 11
1.0
 21
0.0
 31
0.0
 44
0.9
  1
1/4" BSPP
 40
0.125
 41
1.8
  0
ENDBLK
  5
286
100
AcDbEntity
  8
0
  6
BYBLOCK
 62
0
100
AcDbBlockEnd
  0
ENDSEC
  0
SECTION
  2
ENTITIES
  0
IMAGE
  5
287
100
AcDbEntity
  8
0
100
AcDbRasterImage
 62
7
  6
CONTINUOUS
 10
19.2297077316
 20
0.3094318264
 30
0.0
 11
0.0066666667
 21
0.0
 31
0.0
 12
0.0
 22
0.0066666667
 32
0.0
 13
369.0
 23
92.0
340
       396
 70
9
280
0
281
50
282
50
283
0
360
       390
 71
1
 91
2
 14
-0.5
 24
-0.5
 14
368.5
 24
91.5
  0
INSERT
  5
288
100
AcDbEntity
  8
0
100
AcDbBlockReference
 62
2
  6
CONTINUOUS
  2
SUN_FIRST_THIRD_ANGLE_BL0
 10
20.4816717061
 20
1.2289683772
  0
ACAD_TABLE
  5
289
100
AcDbEntity
  8
0
 62
2
  6
CONTINUOUS
100
AcDbBlockReference
  2
*T1
 10
12.42375
 20
0.30125
 30
0.0
100
AcDbTable
342
       398
343
20F
 11
1.0
 21
0.0
 31
0.0
 90
6
 91
4
 92
6
 93
20
 94
0
 95
0
 96
0
 70
1
 41
0.0
141
0.525
141
0.1
141
0.525
141
0.1
142
4.1
142
1.1
142
0.7
142
0.5
142
0.4
142
2.475
171
1
172
0
173
0
174
0
175
1
176
1
 91
33
178
0
145
0.0
301
CELL_VALUE
 90
4
  1
Counterbalance manifold assembly
304
ACVALUE_END
170
2
140
0.125
171
1
172
0
173
0
174
0
175
1
176
1
 91
33
178
0
145
0.0
301
CELL_VALUE
 90
4
  1
Apr-22-24
304
ACVALUE_END
170
5
140
0.125
171
1
172
0
173
0
174
0
175
1
176
1
 91
33
178
0
145
0.0
301
CELL_VALUE
 90
4
  1
2.000
304
ACVALUE_END
170
5
140
0.125
171
1
172
0
173
0
174
0
175
1
176
1
 91
33
178
0
145
0.0
301
CELL_VALUE
 90
4
  1
C
304
ACVALUE_END
170
5
140
0.125
171
1
172
0
173
0
174
0
175
1
176
1
 91
33
178
0
145
0.0
301
CELL_VALUE
 90
4
  1
2
304
ACVALUE_END
170
5
140
0.125
171
1
172
0
173
0
174
0
175
1
176
1
 91
33
178
0
145
0.0
301
CELL_VALUE
 90
4
  1
 
304
ACVALUE_END
170
1
140
0.125
171
1
172
0
173
0
174
0
175
1
176
1
 91
33
178
0
145
0.0
301
CELL_VALUE
 90
4
  1
DESCRIPTION
304
ACVALUE_END
170
1
140
0.06
171
1
172
0
173
0
174
0
175
1
176
1
 91
33
178
0
145
0.0
301
CELL_VALUE
 90
4
  1
DATE
304
ACVALUE_END
170
1
140
0.06
171
1
172
0
173
0
174
0
175
1
176
1
 91
33
178
0
145
0.0
301
CELL_VALUE
 90
4
  1
SCALE
304
ACVALUE_END
170
1
140
0.06
171
1
172
0
173
0
174
0
175
1
176
1
 91
33
178
0
145
0.0
301
CELL_VALUE
 90
4
  1
DWG SIZE
304
ACVALUE_END
170
1
140
0.06
171
1
172
0
173
0
174
0
175
1
176
1
 91
33
178
0
145
0.0
301
CELL_VALUE
 90
4
  1
SHEET
304
ACVALUE_END
170
1
140
0.06
171
1
172
0
173
0
174
0
175
1
176
1
 91
33
178
0
145
0.0
301
CELL_VALUE
 90
4
  1
 
304
ACVALUE_END
170
1
140
0.125
171
1
172
0
173
0
174
0
175
1
176
1
 91
33
178
0
145
0.0
301
CELL_VALUE
 90
4
  1
CBBALHN-ECT
304
ACVALUE_END
170
5
140
0.125
171
1
172
0
173
0
174
0
175
4
176
1
 91
33
178
0
145
0.0
301
CELL_VALUE
 90
4
  1
ALL DIMENSIONS IN INCH\PVIEWS ARE THIRD ANGLE
304
ACVALUE_END
170
5
140
0.12
171
1
172
0
173
1
174
0
175
1
176
1
 91
1
178
0
145
0.0
170
1
171
1
172
0
173
1
174
0
175
1
176
1
 91
1
178
0
145
0.0
170
1
171
1
172
0
173
1
174
0
175
1
176
1
 91
1
178
0
145
0.0
170
5
171
1
172
0
173
0
174
0
175
1
176
1
 91
33
178
0
145
0.0
301
CELL_VALUE
 90
4
  1
 
304
ACVALUE_END
170
1
140
0.125
171
1
172
0
173
0
174
0
175
1
176
1
 91
33
178
0
145
0.0
301
CELL_VALUE
 90
4
  1
MODEL
304
ACVALUE_END
170
1
140
0.06
171
1
172
0
173
0
174
0
175
1
176
1
 91
33
178
0
145
0.0
301
CELL_VALUE
 90
4
  1
 
304
ACVALUE_END
170
1
140
0.125
171
1
172
0
173
0
174
0
175
1
176
1
 91
33
178
0
145
0.0
301
CELL_VALUE
 90
4
  1
 
304
ACVALUE_END
170
1
140
0.125
171
1
172
0
173
0
174
0
175
1
176
1
 91
33
178
0
145
0.0
301
CELL_VALUE
 90
4
  1
 
304
ACVALUE_END
170
1
140
0.125
171
1
172
0
173
0
174
0
175
1
176
1
 91
33
178
0
145
0.0
301
CELL_VALUE
 90
4
  1
 
304
ACVALUE_END
170
1
140
0.125
171
1
172
0
173
0
174
0
175
1
176
1
 91
33
178
0
145
0.0
301
CELL_VALUE
 90
4
  1
 
304
ACVALUE_END
170
1
140
0.125
  0
ACAD_TABLE
  5
28A
100
AcDbEntity
  8
0
 62
2
  6
CONTINUOUS
100
AcDbBlockReference
  2
*T2
 10
12.4237499994
 20
16.47875
 30
0.0
100
AcDbTable
342
       397
343
210
 11
1.0
 21
0.0
 31
0.0
 90
22
 91
10
 92
3
 93
16
 94
0
 95
0
 96
0
 41
0.028
141
0.344
141
0.25
141
0.25
141
0.25
141
0.25
141
0.25
141
0.25
141
0.25
141
0.25
141
0.25
142
3.055
142
3.0
142
3.0
171
1
172
0
173
0
174
0
175
1
176
1
 91
33
178
0
145
0.0
301
CELL_VALUE
 90
4
  1
Technical Data
304
ACVALUE_END
170
5
140
0.145
171
1
172
0
173
0
174
0
175
1
176
1
 91
33
178
0
145
0.0
301
CELL_VALUE
 90
4
  1
U.S. Units
304
ACVALUE_END
170
5
140
0.145
171
1
172
0
173
0
174
0
175
1
176
1
 91
33
178
0
145
0.0
301
CELL_VALUE
 90
4
  1
Metric Units
304
ACVALUE_END
170
5
140
0.145
171
1
172
0
173
0
174
0
175
1
176
1
 91
33
178
0
145
0.0
301
CELL_VALUE
 90
4
  1
Cavity
304
ACVALUE_END
170
5
140
0.125
171
1
172
0
173
0
174
0
175
2
176
1
 91
33
178
0
145
0.0
301
CELL_VALUE
 90
4
  1
T-11A
304
ACVALUE_END
170
5
140
0.125
171
1
172
0
173
1
174
0
175
1
176
1
 91
1
178
0
145
0.0
170
1
171
1
172
0
173
0
174
0
175
1
176
1
 91
33
178
0
145
0.0
301
CELL_VALUE
 90
4
  1
Body Features
304
ACVALUE_END
170
5
140
0.125
171
1
172
0
173
0
174
0
175
2
176
1
 91
33
178
0
145
0.0
301
CELL_VALUE
 90
4
  1
Ninety degree
304
ACVALUE_END
170
5
140
0.125
171
1
172
0
173
1
174
0
175
1
176
1
 91
1
178
0
145
0.0
170
1
171
1
172
0
173
0
174
0
175
1
176
1
 91
33
178
0
145
0.0
301
CELL_VALUE
 90
4
  1
Body Type
304
ACVALUE_END
170
5
140
0.125
171
1
172
0
173
0
174
0
175
2
176
1
 91
33
178
0
145
0.0
301
CELL_VALUE
 90
4
  1
Line mount
304
ACVALUE_END
170
5
140
0.125
171
1
172
0
173
1
174
0
175
1
176
1
 91
1
178
0
145
0.0
170
1
171
1
172
0
173
0
174
0
175
1
176
1
 91
33
178
0
145
0.0
301
CELL_VALUE
 90
4
  1
Interface
304
ACVALUE_END
170
5
140
0.125
171
1
172
0
173
0
174
0
175
2
176
1
 91
33
178
0
145
0.0
301
CELL_VALUE
 90
4
  1
None
304
ACVALUE_END
170
5
140
0.125
171
1
172
0
173
1
174
0
175
1
176
1
 91
1
178
0
145
0.0
170
1
171
1
172
0
173
0
174
0
175
1
176
1
 91
33
178
0
145
0.0
301
CELL_VALUE
 90
4
  1
Open Cavity Quantity
304
ACVALUE_END
170
5
140
0.125
171
1
172
0
173
0
174
0
175
2
176
1
 91
33
178
0
145
0.0
301
CELL_VALUE
 90
4
  1
1
304
ACVALUE_END
170
5
140
0.125
171
1
172
0
173
1
174
0
175
1
176
1
 91
1
178
0
145
0.0
170
1
171
1
172
0
173
0
174
0
175
1
176
1
 91
33
178
0
145
0.0
301
CELL_VALUE
 90
4
  1
Weight
304
ACVALUE_END
170
5
140
0.125
171
1
172
0
173
0
174
0
175
1
176
1
 91
33
178
0
145
0.0
301
CELL_VALUE
 90
4
  1
1.101 lb.
304
ACVALUE_END
170
5
140
0.125
171
1
172
0
173
0
174
0
175
1
176
1
 91
33
178
0
145
0.0
301
CELL_VALUE
 90
4
  1
0,499 kg.
304
ACVALUE_END
170
5
140
0.125
171
1
172
0
173
0
174
0
175
1
176
1
 91
33
178
0
145
0.0
301
CELL_VALUE
 90
4
  1
Mounting Hole Diameter
304
ACVALUE_END
170
5
140
0.125
171
1
172
0
173
0
174
0
175
1
176
1
 91
33
178
0
145
0.0
301
CELL_VALUE
 90
4
  1
.34 in.
304
ACVALUE_END
170
5
140
0.125
171
1
172
0
173
0
174
0
175
1
176
1
 91
33
178
0
145
0.0
301
CELL_VALUE
 90
4
  1
8.6 mm
304
ACVALUE_END
170
5
140
0.125
171
1
172
0
173
0
174
0
175
1
176
1
 91
33
178
0
145
0.0
301
CELL_VALUE
 90
4
  1
Mounting Hole Depth
304
ACVALUE_END
170
5
140
0.125
171
1
172
0
173
0
174
0
175
2
176
1
 91
33
178
0
145
0.0
301
CELL_VALUE
 90
4
  1
Through
304
ACVALUE_END
170
5
140
0.125
171
1
172
0
173
1
174
0
175
1
176
1
 91
1
178
0
145
0.0
170
1
171
1
172
0
173
0
174
0
175
1
176
1
 91
33
178
0
145
0.0
301
CELL_VALUE
 90
4
  1
Mounting Hole Quantity
304
ACVALUE_END
170
5
140
0.125
171
1
172
0
173
0
174
0
175
2
176
1
 91
33
178
0
145
0.0
301
CELL_VALUE
 90
4
  1
2
304
ACVALUE_END
170
5
140
0.125
171
1
172
0
173
1
174
0
175
1
176
1
 91
1
178
0
145
0.0
170
1
  0
ACAD_TABLE
  5
28B
100
AcDbEntity
  8
0
 62
2
  6
CONTINUOUS
100
AcDbBlockReference
  2
*T3
 10
0.52125
 20
1.459
 30
0.0
100
AcDbTable
342
       397
343
211
 11
1.0
 21
0.0
 31
0.0
 90
22
 91
3
 92
3
 93
16
 94
0
 95
0
 96
0
 41
0.05
141
0.34375
141
0.344
141
0.25
142
1.3
142
2.0
142
1.3
171
1
172
0
173
0
174
0
175
3
176
1
 91
33
178
0
145
0.0
301
CELL_VALUE
 90
4
  1
Port Headings
304
ACVALUE_END
170
5
140
0.145
171
1
172
0
173
1
174
0
175
1
176
1
 91
1
178
0
145
0.0
170
1
171
1
172
0
173
1
174
0
175
1
176
1
 91
1
178
0
145
0.0
170
1
171
1
172
0
173
0
174
0
175
1
176
1
 91
33
178
0
145
0.0
301
CELL_VALUE
 90
4
  1
Product
304
ACVALUE_END
170
5
140
0.145
171
1
172
0
173
0
174
0
175
1
176
1
 91
33
178
0
145
0.0
301
CELL_VALUE
 90
4
  1
Port
304
ACVALUE_END
170
5
140
0.145
171
1
172
0
173
0
174
0
175
1
176
1
 91
33
178
0
145
0.0
301
CELL_VALUE
 90
4
  1
Size
304
ACVALUE_END
170
5
140
0.145
171
1
172
0
173
0
174
0
175
1
176
1
 91
33
178
0
145
0.0
301
CELL_VALUE
 90
4
  1
ECT
304
ACVALUE_END
170
5
140
0.125
171
1
172
0
173
0
174
0
175
1
176
1
 91
33
178
0
145
0.0
301
CELL_VALUE
 90
4
  1
All Ports
304
ACVALUE_END
170
5
140
0.125
171
1
172
0
173
0
174
0
175
1
176
1
 91
33
178
0
145
0.0
301
CELL_VALUE
 90
4
  1
1/4" BSPP
304
ACVALUE_END
170
5
140
0.125
  0
MTEXT
  5
28C
100
AcDbEntity
  8
0
100
AcDbMText
 62
2
  6
CONTINUOUS
  7
STANDARD
 71
1
 72
1
 10
0.52125
 20
5.75995
 30
0.0
 11
1.0
 21
0.0
 31
0.0
 44
0.6
  3
Notes\P \P1. Important: Carefully consider\P   the maximum system pressure. The\P   pressure rating of the manifold is\P   dependent on the manifold material,\P   with the port type/size a secondary\P   consideration. Manifolds\P   constructed of alu
  3
minum are not\P   rated for pressures higher than\P   3000 psi (210 bar), regardless of\P   the port type/size specified.\P2. This drawing is for reference\P   only. It is generated by an\P   automated process and does not fall\P   under Sun's docume
  1
nt control\P   process.
 40
0.1
 41
3.04
  0
LINE
  5
28D
100
AcDbEntity
  8
0
100
AcDbLine
 62
7
  6
CONTINUOUS
 10
0.30125
 20
0.30125
 11
0.30125
 21
16.69875
  0
LINE
  5
28E
100
AcDbEntity
  8
0
100
AcDbLine
 62
7
  6
CONTINUOUS
 10
0.30125
 20
0.30125
 11
21.69875
 21
0.30125
  0
LINE
  5
28F
100
AcDbEntity
  8
0
100
AcDbLine
 62
7
  6
CONTINUOUS
 10
0.30125
 20
16.69875
 11
21.69875
 21
16.69875
  0
LINE
  5
290
100
AcDbEntity
  8
0
100
AcDbLine
 62
7
  6
CONTINUOUS
 10
21.69875
 20
0.30125
 11
21.69875
 21
16.69875
  0
LINE
  5
291
100
AcDbEntity
  8
0
100
AcDbLine
 62
7
  6
CONTINUOUS
 10
6.8368197767
 20
9.3654536741
 11
6.8560131909
 21
9.3979958157
  0
LINE
  5
292
100
AcDbEntity
  8
0
100
AcDbLine
 62
7
  6
CONTINUOUS
 10
6.7678852373
 20
8.3714478309
 11
6.7747450376
 21
8.3549665433
  0
LINE
  5
293
100
AcDbEntity
  8
0
100
AcDbLine
 62
7
  6
CONTINUOUS
 10
9.5409967528
 20
11.428276032
 11
8.893949674
 21
10.8032765108
  0
LINE
  5
294
100
AcDbEntity
  8
0
100
AcDbLine
 62
7
  6
CONTINUOUS
 10
6.7427710998
 20
9.1691219833
 11
6.7435242046
 21
9.1698351561
  0
LINE
  5
295
100
AcDbEntity
  8
0
100
AcDbLine
 62
7
  6
CONTINUOUS
 10
6.7751383141
 20
9.1992591792
 11
6.7435211647
 21
9.1698332778
  0
LINE
  5
296
100
AcDbEntity
  8
0
100
AcDbLine
 62
7
  6
CONTINUOUS
 10
7.385970963
 20
9.5513806188
 11
7.2891340538
 21
9.4612550572
  0
LINE
  5
297
100
AcDbEntity
  8
0
100
AcDbLine
 62
7
  6
CONTINUOUS
 10
6.7295336778
 20
8.544813405
 11
6.7024825334
 21
8.5780742008
  0
LINE
  5
298
100
AcDbEntity
  8
0
100
AcDbLine
 62
7
  6
CONTINUOUS
 10
7.2861147492
 20
8.1114977834
 11
7.2026454724
 21
8.2141276214
  0
LINE
  5
299
100
AcDbEntity
  8
0
100
AcDbLine
 62
7
  6
CONTINUOUS
 10
8.2271871441
 20
9.5696566796
 11
8.2107757021
 21
9.5418313294
  0
LINE
  5
29A
100
AcDbEntity
  8
0
100
AcDbLine
 62
7
  6
CONTINUOUS
 10
8.1273656765
 20
7.9517857079
 11
8.104341891
 21
8.0071024248
  0
LINE
  5
29B
100
AcDbEntity
  8
0
100
AcDbLine
 62
7
  6
CONTINUOUS
 10
8.893949674
 20
5.9736470932
 11
14.6895049752
 21
5.571723968
  0
LINE
  5
29C
100
AcDbEntity
  8
0
100
AcDbLine
 62
7
  6
CONTINUOUS
 10
8.893949674
 20
5.9736470932
 11
8.893949674
 21
10.8032765108
  0
LINE
  5
29D
100
AcDbEntity
  8
0
100
AcDbLine
 62
4
  6
CONTINUOUS
 10
9.6666903492
 20
10.4357607571
 11
9.6860088618
 21
10.4633987896
  0
LINE
  5
29E
100
AcDbEntity
  8
0
100
AcDbLine
 62
4
  6
CONTINUOUS
 10
9.76328294
 20
10.4290620382
 11
9.7826014526
 21
10.4567000706
  0
LINE
  5
29F
100
AcDbEntity
  8
0
100
AcDbLine
 62
4
  6
CONTINUOUS
 10
9.6860088618
 20
10.4633987896
 11
9.7053273883
 21
10.4765479331
  0
LINE
  5
2A0
100
AcDbEntity
  8
0
100
AcDbLine
 62
4
  6
CONTINUOUS
 10
9.7826014526
 20
10.4567000706
 11
9.8212384848
 21
10.4829983592
  0
LINE
  5
2A1
100
AcDbEntity
  8
0
100
AcDbLine
 62
4
  6
CONTINUOUS
 10
9.8791940382
 20
10.3630680245
 11
9.8598755204
 21
10.3499188803
  0
LINE
  5
2A2
100
AcDbEntity
  8
0
100
AcDbLine
 62
4
  6
CONTINUOUS
 10
11.5985421568
 20
6.2304088748
 11
11.6371791821
 21
6.2277293879
  0
LINE
  5
2A3
100
AcDbEntity
  8
0
100
AcDbLine
 62
4
  6
CONTINUOUS
 10
9.898512556
 20
10.3907060566
 11
9.8791940382
 21
10.3630680245
  0
LINE
  5
2A4
100
AcDbEntity
  8
0
100
AcDbLine
 62
4
  6
CONTINUOUS
 10
11.7337717729
 20
6.1196084535
 11
11.7917273246
 21
6.1011003344
  0
LINE
  5
2A5
100
AcDbEntity
  8
0
100
AcDbLine
 62
4
  6
CONTINUOUS
 10
10.5939793422
 20
7.1713407111
 11
10.7098904456
 21
7.1633022488
  0
LINE
  5
2A6
100
AcDbEntity
  8
0
100
AcDbLine
 62
4
  6
CONTINUOUS
 10
11.5985421568
 20
6.1144977713
 11
11.5792236304
 21
6.1303264036
  0
LINE
  5
2A7
100
AcDbEntity
  8
0
100
AcDbLine
 62
4
  6
CONTINUOUS
 10
11.6951347407
 20
6.1512657167
 11
11.7337717729
 21
6.1196084535
  0
LINE
  5
2A8
100
AcDbEntity
  8
0
100
AcDbLine
 62
4
  6
CONTINUOUS
 10
11.6371791821
 20
6.2277293879
 11
11.6564977085
 21
6.2119007557
  0
LINE
  5
2A9
100
AcDbEntity
  8
0
100
AcDbLine
 62
4
  6
CONTINUOUS
 10
9.6666903492
 20
10.4067829812
 11
9.6666903492
 21
10.4357607571
  0
LINE
  5
2AA
100
AcDbEntity
  8
0
100
AcDbLine
 62
4
  6
CONTINUOUS
 10
9.76328294
 20
10.4000842623
 11
9.76328294
 21
10.4290620382
  0
LINE
  5
2AB
100
AcDbEntity
  8
0
100
AcDbLine
 62
4
  6
CONTINUOUS
 10
9.898512556
 20
10.4196838324
 11
9.898512556
 21
10.3907060566
  0
LINE
  5
2AC
100
AcDbEntity
  8
0
100
AcDbLine
 62
4
  6
CONTINUOUS
 10
11.7762725972
 20
7.6338545783
 11
12.008094804
 21
7.6840125936
  0
LINE
  5
2AD
100
AcDbEntity
  8
0
100
AcDbLine
 62
4
  6
CONTINUOUS
 10
10.7098904456
 20
7.2792133522
 11
10.825801549
 21
7.2711748899
  0
LINE
  5
2AE
100
AcDbEntity
  8
0
100
AcDbLine
 62
4
  6
CONTINUOUS
 10
10.825801549
 20
7.3291304416
 11
10.5939793422
 21
7.3452073662
  0
LINE
  5
2AF
100
AcDbEntity
  8
0
100
AcDbLine
 62
4
  6
CONTINUOUS
 10
12.008094804
 20
7.3417988524
 11
11.7762725972
 21
7.3578757771
  0
LINE
  5
2B0
100
AcDbEntity
  8
0
100
AcDbLine
 62
4
  6
CONTINUOUS
 10
10.5939793422
 20
7.4611184697
 11
10.825801549
 21
7.445041545
  0
LINE
  5
2B1
100
AcDbEntity
  8
0
100
AcDbLine
 62
4
  6
CONTINUOUS
 10
10.5939793422
 20
7.5190740214
 11
10.825801549
 21
7.5029970967
  0
LINE
  5
2B2
100
AcDbEntity
  8
0
100
AcDbLine
 62
4
  6
CONTINUOUS
 10
11.8093900533
 20
7.4714901633
 11
11.9749773444
 21
7.4600066457
  0
LINE
  5
2B3
100
AcDbEntity
  8
0
100
AcDbLine
 62
4
  6
CONTINUOUS
 10
10.5939793422
 20
7.6349851248
 11
10.825801549
 21
7.6189082002
  0
LINE
  5
2B4
100
AcDbEntity
  8
0
100
AcDbLine
 62
7
  6
CONTINUOUS
 10
8.893949674
 20
7.7611391192
 11
8.2062305095
 21
7.8088326052
  0
LINE
  5
2B5
100
AcDbEntity
  8
0
100
AcDbLine
 62
7
  6
CONTINUOUS
 10
8.893949674
 20
7.7908609768
 11
8.1796795369
 21
7.840395779
  0
LINE
  5
2B6
100
AcDbEntity
  8
0
100
AcDbLine
 62
7
  6
CONTINUOUS
 10
8.096030386
 20
8.02993971
 11
7.5237187139
 21
8.0696296593
  0
LINE
  5
2B7
100
AcDbEntity
  8
0
100
AcDbLine
 62
7
  6
CONTINUOUS
 10
7.4309898291
 20
8.0760604293
 11
7.332465389
 21
8.0828931224
  0
LINE
  5
2B8
100
AcDbEntity
  8
0
100
AcDbLine
 62
4
  6
CONTINUOUS
 10
10.825801549
 20
7.850730407
 11
10.5939793422
 21
7.8668073317
  0
LINE
  5
2B9
100
AcDbEntity
  8
0
100
AcDbLine
 62
4
  6
CONTINUOUS
 10
11.5792236304
 20
6.1303264036
 11
11.5599051177
 21
6.1606439229
  0
LINE
  5
2BA
100
AcDbEntity
  8
0
100
AcDbLine
 62
4
  6
CONTINUOUS
 10
11.6564977085
 20
6.2119007557
 11
11.6951347407
 21
6.1512657167
  0
LINE
  5
2BB
100
AcDbEntity
  8
0
100
AcDbLine
 62
4
  6
CONTINUOUS
 10
10.5939793422
 20
7.2872518145
 11
10.5939793422
 21
7.1713407111
  0
LINE
  5
2BC
100
AcDbEntity
  8
0
100
AcDbLine
 62
4
  6
CONTINUOUS
 10
10.5939793422
 20
7.5190740214
 11
10.5939793422
 21
7.6349851248
  0
LINE
  5
2BD
100
AcDbEntity
  8
0
100
AcDbLine
 62
4
  6
CONTINUOUS
 10
10.6519348939
 20
9.1020709835
 11
10.6519348939
 21
9.1310487594
  0
LINE
  5
2BE
100
AcDbEntity
  8
0
100
AcDbLine
 62
4
  6
CONTINUOUS
 10
12.008094804
 20
7.8164824182
 11
11.7762725972
 21
7.8325593429
  0
LINE
  5
2BF
100
AcDbEntity
  8
0
100
AcDbLine
 62
7
  6
CONTINUOUS
 10
7.2029240263
 20
8.2137851249
 11
6.9157837249
 21
8.2336983724
  0
LINE
  5
2C0
100
AcDbEntity
  8
0
100
AcDbLine
 62
4
  6
CONTINUOUS
 10
10.825801549
 20
7.9666415105
 11
10.7098904456
 21
7.9746799728
  0
LINE
  5
2C1
100
AcDbEntity
  8
0
100
AcDbLine
 62
4
  6
CONTINUOUS
 10
11.4980859489
 20
7.9622431763
 11
11.2662637421
 21
7.978320101
  0
LINE
  5
2C2
100
AcDbEntity
  8
0
100
AcDbLine
 62
4
  6
CONTINUOUS
 10
12.008094804
 20
7.9489522428
 11
11.7762725972
 21
7.9650291675
  0
LINE
  5
2C3
100
AcDbEntity
  8
0
100
AcDbLine
 62
4
  6
CONTINUOUS
 10
10.825801549
 20
8.0613022471
 11
10.7098904456
 21
8.0693407094
  0
LINE
  5
2C4
100
AcDbEntity
  8
0
100
AcDbLine
 62
7
  6
CONTINUOUS
 10
7.0935660993
 20
8.3842112312
 11
6.7703144746
 21
8.4066288075
  0
LINE
  5
2C5
100
AcDbEntity
  8
0
100
AcDbLine
 62
4
  6
CONTINUOUS
 10
11.4649684893
 20
8.1301271745
 11
11.2993811982
 21
8.1416106922
  0
LINE
  5
2C6
100
AcDbEntity
  8
0
100
AcDbLine
 62
4
  6
CONTINUOUS
 10
10.7098904456
 20
8.1852518128
 11
10.9417126525
 21
8.1691748882
  0
LINE
  5
2C7
100
AcDbEntity
  8
0
100
AcDbLine
 62
4
  6
CONTINUOUS
 10
12.008094804
 20
7.5515427414
 11
11.7762725972
 21
7.6338545783
  0
LINE
  5
2C8
100
AcDbEntity
  8
0
100
AcDbLine
 62
4
  6
CONTINUOUS
 10
10.7098904456
 20
8.76480733
 11
10.7098904456
 21
8.687533261
  0
LINE
  5
2C9
100
AcDbEntity
  8
0
100
AcDbLine
 62
4
  6
CONTINUOUS
 10
10.7098904456
 20
7.9746799728
 11
10.7098904456
 21
7.8587688694
  0
LINE
  5
2CA
100
AcDbEntity
  8
0
100
AcDbLine
 62
4
  6
CONTINUOUS
 10
10.7098904456
 20
7.1633022488
 11
10.7098904456
 21
7.2792133522
  0
LINE
  5
2CB
100
AcDbEntity
  8
0
100
AcDbLine
 62
4
  6
CONTINUOUS
 10
10.7098904456
 20
8.2625258818
 11
10.7098904456
 21
8.3784369852
  0
LINE
  5
2CC
100
AcDbEntity
  8
0
100
AcDbLine
 62
4
  6
CONTINUOUS
 10
10.7098904456
 20
8.4557110541
 11
10.7098904456
 21
8.5716221576
  0
LINE
  5
2CD
100
AcDbEntity
  8
0
100
AcDbLine
 62
4
  6
CONTINUOUS
 10
10.7098904456
 20
9.1898147092
 11
10.7098904456
 21
9.3057258127
  0
LINE
  5
2CE
100
AcDbEntity
  8
0
100
AcDbLine
 62
4
  6
CONTINUOUS
 10
10.7098904456
 20
9.3829998816
 11
10.7098904456
 21
9.498910985
  0
LINE
  5
2CF
100
AcDbEntity
  8
0
100
AcDbLine
 62
4
  6
CONTINUOUS
 10
10.7485274801
 20
8.6462167391
 11
10.7485274801
 21
8.7621278425
  0
LINE
  5
2D0
100
AcDbEntity
  8
0
100
AcDbLine
 62
4
  6
CONTINUOUS
 10
10.7678459973
 20
9.3789806504
 11
10.7678459973
 21
9.4948917539
  0
LINE
  5
2D1
100
AcDbEntity
  8
0
100
AcDbLine
 62
4
  6
CONTINUOUS
 10
10.825801549
 20
9.4908725227
 11
10.825801549
 21
9.3749614193
  0
LINE
  5
2D2
100
AcDbEntity
  8
0
100
AcDbLine
 62
4
  6
CONTINUOUS
 10
10.825801549
 20
8.7567688676
 11
10.825801549
 21
8.6408577642
  0
LINE
  5
2D3
100
AcDbEntity
  8
0
100
AcDbLine
 62
4
  6
CONTINUOUS
 10
10.825801549
 20
8.3703985229
 11
10.825801549
 21
8.2544874194
  0
LINE
  5
2D4
100
AcDbEntity
  8
0
100
AcDbLine
 62
4
  6
CONTINUOUS
 10
10.825801549
 20
8.1772133505
 11
10.825801549
 21
8.0613022471
  0
LINE
  5
2D5
100
AcDbEntity
  8
0
100
AcDbLine
 62
4
  6
CONTINUOUS
 10
10.825801549
 20
7.445041545
 11
10.825801549
 21
7.3291304416
  0
LINE
  5
2D6
100
AcDbEntity
  8
0
100
AcDbLine
 62
4
  6
CONTINUOUS
 10
10.825801549
 20
7.2711748899
 11
10.825801549
 21
7.1552637864
  0
LINE
  5
2D7
100
AcDbEntity
  8
0
100
AcDbLine
 62
4
  6
CONTINUOUS
 10
10.825801549
 20
8.8340429366
 11
10.825801549
 21
8.94995404
  0
LINE
  5
2D8
100
AcDbEntity
  8
0
100
AcDbLine
 62
4
  6
CONTINUOUS
 10
10.825801549
 20
9.1817762469
 11
10.825801549
 21
9.2976873503
  0
LINE
  5
2D9
100
AcDbEntity
  8
0
100
AcDbLine
 62
4
  6
CONTINUOUS
 10
10.9417126525
 20
8.1691748882
 11
10.9417126525
 21
8.0919008192
  0
LINE
  5
2DA
100
AcDbEntity
  8
0
100
AcDbLine
 62
4
  6
CONTINUOUS
 10
10.825801549
 20
8.2544874194
 11
10.7098904456
 21
8.2625258818
  0
LINE
  5
2DB
100
AcDbEntity
  8
0
100
AcDbLine
 62
7
  6
CONTINUOUS
 10
8.7880485536
 20
8.4119597232
 11
8.0666249116
 21
8.4619906227
  0
LINE
  5
2DC
100
AcDbEntity
  8
0
100
AcDbLine
 62
4
  6
CONTINUOUS
 10
14.1292679645
 20
8.0447098526
 11
14.3610901713
 21
8.028632928
  0
LINE
  5
2DD
100
AcDbEntity
  8
0
100
AcDbLine
 62
4
  6
CONTINUOUS
 10
10.5939793422
 20
8.3864754475
 11
10.825801549
 21
8.3703985229
  0
LINE
  5
2DE
100
AcDbEntity
  8
0
100
AcDbLine
 62
4
  6
CONTINUOUS
 10
11.9749773444
 20
8.298982312
 11
11.8093900533
 21
8.3104658297
  0
LINE
  5
2DF
100
AcDbEntity
  8
0
100
AcDbLine
 62
7
  6
CONTINUOUS
 10
8.7880485536
 20
8.5263786141
 11
8.0666249116
 21
8.5764095136
  0
LINE
  5
2E0
100
AcDbEntity
  8
0
100
AcDbLine
 62
4
  6
CONTINUOUS
 10
11.4980859489
 20
8.3872505648
 11
11.2662637421
 21
8.4033274894
  0
LINE
  5
2E1
100
AcDbEntity
  8
0
100
AcDbLine
 62
4
  6
CONTINUOUS
 10
10.7098904456
 20
8.4557110541
 11
10.825801549
 21
8.4476725918
  0
LINE
  5
2E2
100
AcDbEntity
  8
0
100
AcDbLine
 62
4
  6
CONTINUOUS
 10
11.2993811982
 20
8.1416106922
 11
11.2662637421
 21
8.1770248517
  0
LINE
  5
2E3
100
AcDbEntity
  8
0
100
AcDbLine
 62
4
  6
CONTINUOUS
 10
11.9749773444
 20
7.4600066457
 11
12.008094804
 21
7.4245924859
  0
LINE
  5
2E4
100
AcDbEntity
  8
0
100
AcDbLine
 62
4
  6
CONTINUOUS
 10
9.6860088618
 20
10.376465462
 11
9.6666903492
 21
10.4067829812
  0
LINE
  5
2E5
100
AcDbEntity
  8
0
100
AcDbLine
 62
4
  6
CONTINUOUS
 10
9.7439644135
 20
10.4593795584
 11
9.76328294
 21
10.4290620382
  0
LINE
  5
2E6
100
AcDbEntity
  8
0
100
AcDbLine
 62
4
  6
CONTINUOUS
 10
11.2662637421
 20
7.978320101
 11
11.2662637421
 21
8.0776724763
  0
LINE
  5
2E7
100
AcDbEntity
  8
0
100
AcDbLine
 62
4
  6
CONTINUOUS
 10
11.2662637421
 20
8.1770248517
 11
11.2662637421
 21
8.2432597778
  0
LINE
  5
2E8
100
AcDbEntity
  8
0
100
AcDbLine
 62
4
  6
CONTINUOUS
 10
11.2662637421
 20
8.3370925771
 11
11.2662637421
 21
8.4695624017
  0
LINE
  5
2E9
100
AcDbEntity
  8
0
100
AcDbLine
 62
4
  6
CONTINUOUS
 10
11.3656161105
 20
8.03766491
 11
11.3656161105
 21
7.9714299908
  0
LINE
  5
2EA
100
AcDbEntity
  8
0
100
AcDbLine
 62
4
  6
CONTINUOUS
 10
11.7762725972
 20
8.7708872809
 11
11.8093900533
 21
8.8017080199
  0
LINE
  5
2EB
100
AcDbEntity
  8
0
100
AcDbLine
 62
4
  6
CONTINUOUS
 10
11.9749773444
 20
8.4921674107
 11
11.8093900533
 21
8.5036509283
  0
LINE
  5
2EC
100
AcDbEntity
  8
0
100
AcDbLine
 62
4
  6
CONTINUOUS
 10
10.825801549
 20
8.6408577642
 11
10.7485274801
 21
8.6462167391
  0
LINE
  5
2ED
100
AcDbEntity
  8
0
100
AcDbLine
 62
4
  6
CONTINUOUS
 10
11.8093900533
 20
8.6195620318
 11
11.9749773444
 21
8.6080785141
  0
LINE
  5
2EE
100
AcDbEntity
  8
0
100
AcDbLine
 62
7
  6
CONTINUOUS
 10
7.0935660993
 20
9.0110971296
 11
6.7703144746
 21
9.0335147059
  0
LINE
  5
2EF
100
AcDbEntity
  8
0
100
AcDbLine
 62
4
  6
CONTINUOUS
 10
12.008094804
 20
8.6720166952
 11
11.7762725972
 21
8.6880936198
  0
LINE
  5
2F0
100
AcDbEntity
  8
0
100
AcDbLine
 62
4
  6
CONTINUOUS
 10
10.7098904456
 20
8.76480733
 11
10.825801549
 21
8.7567688676
  0
LINE
  5
2F1
100
AcDbEntity
  8
0
100
AcDbLine
 62
4
  6
CONTINUOUS
 10
10.7098904456
 20
8.8420813989
 11
10.825801549
 21
8.8340429366
  0
LINE
  5
2F2
100
AcDbEntity
  8
0
100
AcDbLine
 62
4
  6
CONTINUOUS
 10
11.8093900533
 20
8.8017080199
 11
11.9749773444
 21
8.7902245022
  0
LINE
  5
2F3
100
AcDbEntity
  8
0
100
AcDbLine
 62
4
  6
CONTINUOUS
 10
9.8791940382
 20
10.4500013521
 11
9.898512556
 21
10.4196838324
  0
LINE
  5
2F4
100
AcDbEntity
  8
0
100
AcDbLine
 62
4
  6
CONTINUOUS
 10
11.8645858136
 20
7.3075946196
 11
11.9087424287
 21
7.2162191247
  0
LINE
  5
2F5
100
AcDbEntity
  8
0
100
AcDbLine
 62
4
  6
CONTINUOUS
 10
11.4980859489
 20
8.2271828532
 11
11.4980859489
 21
8.160947927
  0
LINE
  5
2F6
100
AcDbEntity
  8
0
100
AcDbLine
 62
4
  6
CONTINUOUS
 10
11.4980859489
 20
7.9622431763
 11
11.4980859489
 21
8.0615955517
  0
LINE
  5
2F7
100
AcDbEntity
  8
0
100
AcDbLine
 62
4
  6
CONTINUOUS
 10
11.5599051177
 20
6.1606439229
 11
11.5599051177
 21
6.1896216987
  0
LINE
  5
2F8
100
AcDbEntity
  8
0
100
AcDbLine
 62
4
  6
CONTINUOUS
 10
11.8645858136
 20
9.0573002748
 11
11.9087424287
 21
9.1425512195
  0
LINE
  5
2F9
100
AcDbEntity
  8
0
100
AcDbLine
 62
4
  6
CONTINUOUS
 10
11.7762725972
 20
8.5887412928
 11
11.8093900533
 21
8.6195620318
  0
LINE
  5
2FA
100
AcDbEntity
  8
0
100
AcDbLine
 62
4
  6
CONTINUOUS
 10
11.4980859489
 20
8.160947927
 11
11.4649684893
 21
8.1301271745
  0
LINE
  5
2FB
100
AcDbEntity
  8
0
100
AcDbLine
 62
4
  6
CONTINUOUS
 10
12.008094804
 20
8.5229881494
 11
11.9749773444
 21
8.4921674107
  0
LINE
  5
2FC
100
AcDbEntity
  8
0
100
AcDbLine
 62
4
  6
CONTINUOUS
 10
10.825801549
 20
8.94995404
 11
10.7098904456
 21
8.9579925024
  0
LINE
  5
2FD
100
AcDbEntity
  8
0
100
AcDbLine
 62
4
  6
CONTINUOUS
 10
12.008094804
 20
8.8817606808
 11
11.7762725972
 21
8.8978376055
  0
LINE
  5
2FE
100
AcDbEntity
  8
0
100
AcDbLine
 62
4
  6
CONTINUOUS
 10
10.825801549
 20
9.027228109
 11
10.5939793422
 21
9.0433050336
  0
LINE
  5
2FF
100
AcDbEntity
  8
0
100
AcDbLine
 62
4
  6
CONTINUOUS
 10
10.825801549
 20
9.1045021779
 11
10.7098904456
 21
9.1125406403
  0
LINE
  5
300
100
AcDbEntity
  8
0
100
AcDbLine
 62
4
  6
CONTINUOUS
 10
10.7098904456
 20
9.1898147092
 11
10.825801549
 21
9.1817762469
  0
LINE
  5
301
100
AcDbEntity
  8
0
100
AcDbLine
 62
7
  6
CONTINUOUS
 10
7.2390353496
 20
9.4650525929
 11
6.9157837249
 21
9.4874701692
  0
LINE
  5
302
100
AcDbEntity
  8
0
100
AcDbLine
 62
7
  6
CONTINUOUS
 10
8.893949674
 20
9.3668743327
 11
8.1796795369
 21
9.4164091349
  0
LINE
  5
303
100
AcDbEntity
  8
0
100
AcDbLine
 62
4
  6
CONTINUOUS
 10
9.7246459009
 20
10.4752081897
 11
9.7439644135
 21
10.4593795584
  0
LINE
  5
304
100
AcDbEntity
  8
0
100
AcDbLine
 62
4
  6
CONTINUOUS
 10
11.8093900533
 20
8.3104658297
 11
11.7762725972
 21
8.3458799754
  0
LINE
  5
305
100
AcDbEntity
  8
0
100
AcDbLine
 62
4
  6
CONTINUOUS
 10
11.8093900533
 20
8.5036509283
 11
11.7762725972
 21
8.5390650741
  0
LINE
  5
306
100
AcDbEntity
  8
0
100
AcDbLine
 62
4
  6
CONTINUOUS
 10
11.7762725972
 20
7.3578757771
 11
11.7762725972
 21
7.4406694106
  0
LINE
  5
307
100
AcDbEntity
  8
0
100
AcDbLine
 62
4
  6
CONTINUOUS
 10
11.7762725972
 20
7.7663244029
 11
11.7762725972
 21
7.8987942275
  0
LINE
  5
308
100
AcDbEntity
  8
0
100
AcDbLine
 62
4
  6
CONTINUOUS
 10
11.7762725972
 20
7.9650291675
 11
11.7762725972
 21
8.0643815497
  0
LINE
  5
309
100
AcDbEntity
  8
0
100
AcDbLine
 62
4
  6
CONTINUOUS
 10
11.7762725972
 20
8.3458799754
 11
11.7762725972
 21
8.41211486
  0
LINE
  5
30A
100
AcDbEntity
  8
0
100
AcDbLine
 62
4
  6
CONTINUOUS
 10
11.7762725972
 20
8.5390650741
 11
11.7762725972
 21
8.5887412928
  0
LINE
  5
30B
100
AcDbEntity
  8
0
100
AcDbLine
 62
4
  6
CONTINUOUS
 10
11.7762725972
 20
8.6880936198
 11
11.7762725972
 21
8.7708872809
  0
LINE
  5
30C
100
AcDbEntity
  8
0
100
AcDbLine
 62
4
  6
CONTINUOUS
 10
11.7762725972
 20
8.8978376055
 11
11.7762725972
 21
8.9971899325
  0
LINE
  5
30D
100
AcDbEntity
  8
0
100
AcDbLine
 62
4
  6
CONTINUOUS
 10
11.7917273246
 20
6.1011003344
 11
11.7917273246
 21
6.2170114379
  0
LINE
  5
30E
100
AcDbEntity
  8
0
100
AcDbLine
 62
4
  6
CONTINUOUS
 10
11.8756249656
 20
8.95718238
 11
11.8756249656
 21
8.8909474953
  0
LINE
  5
30F
100
AcDbEntity
  8
0
100
AcDbLine
 62
4
  6
CONTINUOUS
 10
11.8756249656
 20
8.0243739973
 11
11.8756249656
 21
7.9581390573
  0
LINE
  5
310
100
AcDbEntity
  8
0
100
AcDbLine
 62
4
  6
CONTINUOUS
 10
11.9418598848
 20
7.5782144527
 11
11.9418598848
 21
7.6665276691
  0
LINE
  5
311
100
AcDbEntity
  8
0
100
AcDbLine
 62
4
  6
CONTINUOUS
 10
12.008094804
 20
8.7548103563
 11
12.008094804
 21
8.6720166952
  0
LINE
  5
312
100
AcDbEntity
  8
0
100
AcDbLine
 62
4
  6
CONTINUOUS
 10
12.008094804
 20
8.5726643682
 11
12.008094804
 21
8.5229881494
  0
LINE
  5
313
100
AcDbEntity
  8
0
100
AcDbLine
 62
4
  6
CONTINUOUS
 10
12.008094804
 20
8.3960379354
 11
12.008094804
 21
8.3298030507
  0
LINE
  5
314
100
AcDbEntity
  8
0
100
AcDbLine
 62
4
  6
CONTINUOUS
 10
12.008094804
 20
7.4245924859
 11
12.008094804
 21
7.3417988524
  0
LINE
  5
315
100
AcDbEntity
  8
0
100
AcDbLine
 62
4
  6
CONTINUOUS
 10
12.008094804
 20
7.9489522428
 11
12.008094804
 21
8.0483046251
  0
LINE
  5
316
100
AcDbEntity
  8
0
100
AcDbLine
 62
4
  6
CONTINUOUS
 10
12.008094804
 20
8.8817606808
 11
12.008094804
 21
8.9811130078
  0
LINE
  5
317
100
AcDbEntity
  8
0
100
AcDbLine
 62
4
  6
CONTINUOUS
 10
12.008094804
 20
8.3298030507
 11
11.9749773444
 21
8.298982312
  0
LINE
  5
318
100
AcDbEntity
  8
0
100
AcDbLine
 62
7
  6
CONTINUOUS
 10
8.893949674
 20
9.4515713659
 11
8.2062305095
 21
9.499264852
  0
LINE
  5
319
100
AcDbEntity
  8
0
100
AcDbLine
 62
7
  6
CONTINUOUS
 10
8.1992375335
 20
9.5203706237
 11
7.6270797089
 21
9.5600499036
  0
LINE
  5
31A
100
AcDbEntity
  8
0
100
AcDbLine
 62
7
  6
CONTINUOUS
 10
7.5343508241
 20
9.5664806736
 11
7.435826384
 21
9.5733133667
  0
LINE
  5
31B
100
AcDbEntity
  8
0
100
AcDbLine
 62
4
  6
CONTINUOUS
 10
10.7098904456
 20
9.3829998816
 11
10.7678459973
 21
9.3789806504
  0
LINE
  5
31C
100
AcDbEntity
  8
0
100
AcDbLine
 62
4
  6
CONTINUOUS
 10
10.7678459973
 20
9.4948917539
 11
10.825801549
 21
9.4908725227
  0
LINE
  5
31D
100
AcDbEntity
  8
0
100
AcDbLine
 62
7
  6
CONTINUOUS
 10
8.893949674
 20
9.6856568734
 11
8.4323397601
 21
9.7176696297
  0
LINE
  5
31E
100
AcDbEntity
  8
0
100
AcDbLine
 62
4
  6
CONTINUOUS
 10
9.8405570043
 20
10.4816586153
 11
9.8791940382
 21
10.4500013521
  0
LINE
  5
31F
100
AcDbEntity
  8
0
100
AcDbLine
 62
4
  6
CONTINUOUS
 10
11.9749773444
 20
8.6080785141
 11
12.008094804
 21
8.5726643682
  0
LINE
  5
320
100
AcDbEntity
  8
0
100
AcDbLine
 62
4
  6
CONTINUOUS
 10
11.9749773444
 20
8.7902245022
 11
12.008094804
 21
8.7548103563
  0
LINE
  5
321
100
AcDbEntity
  8
0
100
AcDbLine
 62
4
  6
CONTINUOUS
 10
11.9087424287
 20
7.2162191247
 11
11.9528990403
 21
7.3014700766
  0
LINE
  5
322
100
AcDbEntity
  8
0
100
AcDbLine
 62
7
  6
CONTINUOUS
 10
14.6895049752
 20
10.4013533856
 11
15.3365520539
 21
11.0263529068
  0
LINE
  5
323
100
AcDbEntity
  8
0
100
AcDbLine
 62
4
  6
CONTINUOUS
 10
11.7762725972
 20
7.4406694106
 11
11.8093900533
 21
7.4714901633
  0
LINE
  5
324
100
AcDbEntity
  8
0
100
AcDbLine
 62
4
  6
CONTINUOUS
 10
11.9087424287
 20
9.1425512195
 11
11.9528990403
 21
9.0511757317
  0
LINE
  5
325
100
AcDbEntity
  8
0
100
AcDbLine
 62
4
  6
CONTINUOUS
 10
11.5599051177
 20
6.1896216987
 11
11.5792236304
 21
6.2172597312
  0
LINE
  5
326
100
AcDbEntity
  8
0
100
AcDbLine
 62
4
  6
CONTINUOUS
 10
9.7053273883
 20
10.4765479331
 11
9.7246459009
 21
10.4752081897
  0
LINE
  5
327
100
AcDbEntity
  8
0
100
AcDbLine
 62
4
  6
CONTINUOUS
 10
9.8212384848
 20
10.4829983592
 11
9.8405570043
 21
10.4816586153
  0
LINE
  5
328
100
AcDbEntity
  8
0
100
AcDbLine
 62
4
  6
CONTINUOUS
 10
11.5792236304
 20
6.2172597312
 11
11.5985421568
 21
6.2304088748
  0
LINE
  5
329
100
AcDbEntity
  8
0
100
AcDbLine
 62
7
  6
CONTINUOUS
 10
8.893949674
 20
10.8032765108
 11
14.6895049752
 21
10.4013533856
  0
LINE
  5
32A
100
AcDbEntity
  8
0
100
AcDbLine
 62
7
  6
CONTINUOUS
 10
15.3365520539
 20
11.0263529068
 11
9.5409967528
 21
11.428276032
  0
LINE
  5
32B
100
AcDbEntity
  8
0
100
AcDbLine
 62
7
  6
CONTINUOUS
 10
14.6895049752
 20
5.571723968
 11
14.6895049752
 21
10.4013533856
  0
LINE
  5
32C
100
AcDbEntity
  8
0
100
AcDbLine
 62
7
  6
CONTINUOUS
 10
15.3365520539
 20
6.1967234892
 11
15.3365520539
 21
11.0263529068
  0
LINE
  5
32D
100
AcDbEntity
  8
0
100
AcDbLine
 62
7
  6
CONTINUOUS
 10
14.6895049752
 20
5.571723968
 11
15.3365520539
 21
6.1967234892
  0
ARC
  5
32E
100
AcDbEntity
  8
0
100
AcDbCircle
 62
7
  6
CONTINUOUS
 10
11.6822537414
 20
8.5184447916
 40
3.6160934368
100
AcDbArc
 50
179.0815292162
 51
179.9951434028
  0
ARC
  5
32F
100
AcDbEntity
  8
0
100
AcDbCircle
 62
7
  6
CONTINUOUS
 10
12.4036773833
 20
8.4684138921
 40
3.6160934368
100
AcDbArc
 50
179.0815292162
 51
179.9951434028
  0
ARC
  5
330
100
AcDbEntity
  8
0
100
AcDbCircle
 62
7
  6
CONTINUOUS
 10
11.4890112857
 20
8.5183855712
 40
3.4228509876
100
AcDbArc
 50
179.9938779146
 51
180.9440489097
  0
ARC
  5
331
100
AcDbEntity
  8
0
100
AcDbCircle
 62
7
  6
CONTINUOUS
 10
12.2104349276
 20
8.4683546717
 40
3.4228509876
100
AcDbArc
 50
179.9938779146
 51
180.9440489097
  0
ARC
  5
332
100
AcDbEntity
  8
0
100
AcDbCircle
 62
7
  6
CONTINUOUS
 10
9.2114718084
 20
8.403613607
 40
1.1744932413
100
AcDbArc
 50
199.7034206742
 51
202.6179363172
  0
ARC
  5
333
100
AcDbEntity
  8
0
100
AcDbCircle
 62
7
  6
CONTINUOUS
 10
7.5419554746
 20
8.9925303254
 40
0.7968177665
100
AcDbArc
 50
149.4387751367
 51
152.1330596651
  0
ARC
  5
334
100
AcDbEntity
  8
0
100
AcDbCircle
 62
7
  6
CONTINUOUS
 10
7.6793236736
 20
9.4289327772
 40
0.1494877199
100
AcDbArc
 50
134.043476298
 51
136.3565354107
  0
ARC
  5
335
100
AcDbEntity
  8
0
100
AcDbCircle
 62
7
  6
CONTINUOUS
 10
7.6656579654
 20
9.4333489056
 40
0.1398697058
100
AcDbArc
 50
131.0159803523
 51
134.025379645
  0
ARC
  5
336
100
AcDbEntity
  8
0
100
AcDbCircle
 62
7
  6
CONTINUOUS
 10
10.5615969486
 20
10.9640940457
 40
0.0319149374
100
AcDbArc
 50
349.5538523992
 51
359.9695658375
  0
ARC
  5
337
100
AcDbEntity
  8
0
100
AcDbCircle
 62
7
  6
CONTINUOUS
 10
9.6854042259
 20
10.9640927939
 40
0.0318923364
100
AcDbArc
 50
180.0282069052
 51
190.1145709041
  0
ARC
  5
338
100
AcDbEntity
  8
0
100
AcDbCircle
 62
7
  6
CONTINUOUS
 10
14.8936881904
 20
7.8657406135
 40
0.0294839332
100
AcDbArc
 50
259.8761640175
 51
266.029855925
  0
ARC
  5
339
100
AcDbEntity
  8
0
100
AcDbCircle
 62
7
  6
CONTINUOUS
 10
14.9546413538
 20
8.7446639999
 40
0.029481643
100
AcDbArc
 50
86.0351587216
 51
92.3453373645
  0
SPLINE
  5
33A
100
AcDbEntity
  8
0
100
AcDbSpline
 62
7
  6
CONTINUOUS
 70
0
 71
3
 72
18
 73
14
 74
0
 42
0.0000001
 43
0.0000001
 44
0.0000000001
 40
0.0
 40
0.0
 40
0.0
 40
0.0
 40
0.0544332456
 40
0.1090832771
 40
0.164164054
 40
0.2198844295
 40
0.3339883485
 40
0.4529318406
 40
0.5146499212
 40
0.5780457783
 40
0.7103454633
 40
0.8507577982
 40
1.0
 40
1.0
 40
1.0
 40
1.0
 10
7.3324647458
 20
8.082893295
 30
0.0
 10
7.3314506482
 20
8.0829636578
 30
0.0
 10
7.3294224023
 20
8.0831711763
 30
0.0
 10
7.3263973481
 20
8.0836813332
 30
0.0
 10
7.3233878022
 20
8.084390514
 30
0.0
 10
7.3193662928
 20
8.0856103737
 30
0.0
 10
7.3143607565
 20
8.0876538781
 30
0.0
 10
7.3095257017
 20
8.090308839
 30
0.0
 10
7.3057101811
 20
8.0928046382
 30
0.0
 10
7.3018207164
 20
8.0956327029
 30
0.0
 10
7.2970122085
 20
8.0996812562
 30
0.0
 10
7.291420924
 20
8.105244326
 30
0.0
 10
7.2878737804
 20
8.1093349639
 30
0.0
 10
7.2861152269
 20
8.1114972143
 30
0.0
  0
SPLINE
  5
33B
100
AcDbEntity
  8
0
100
AcDbSpline
 62
7
  6
CONTINUOUS
 70
0
 71
3
 72
41
 73
37
 74
0
 42
0.0000001
 43
0.0000001
 44
0.0000000001
 40
0.0
 40
0.0
 40
0.0
 40
0.0
 40
0.0379354846
 40
0.0762771793
 40
0.1537874132
 40
0.231824398
 40
0.3096759902
 40
0.3483104203
 40
0.3866326983
 40
0.4245554341
 40
0.4619928286
 40
0.4988602241
 40
0.535074984
 40
0.5705560509
 40
0.6052250338
 40
0.6390057797
 40
0.671825263
 40
0.7036133423
 40
0.7343036379
 40
0.7638335775
 40
0.7921449493
 40
0.8191843722
 40
0.8449037794
 40
0.8692615074
 40
0.8922225696
 40
0.9137605657
 40
0.9239906444
 40
0.9338596336
 40
0.9433672587
 40
0.9525139586
 40
0.961301427
 40
0.9697326775
 40
0.9778118104
 40
0.9855442097
 40
0.9929371335
 40
1.0
 40
1.0
 40
1.0
 40
1.0
 10
7.1200975142
 20
8.6730520872
 30
0.0
 10
7.1200975142
 20
8.683399695
 30
0.0
 10
7.1202360362
 20
8.7042059846
 30
0.0
 10
7.1210565792
 20
8.7461472212
 30
0.0
 10
7.1230993223
 20
8.7990006842
 30
0.0
 10
7.1271297363
 20
8.8625429084
 30
0.0
 10
7.1317910029
 20
8.915403551
 30
0.0
 10
7.1362900562
 20
8.9573909534
 30
0.0
 10
7.1400237408
 20
8.9885041233
 30
0.0
 10
7.1441163271
 20
9.0192427333
 30
0.0
 10
7.1485575138
 20
9.0495319294
 30
0.0
 10
7.153336755
 20
9.079297911
 30
0.0
 10
7.1584420673
 20
9.1084681683
 30
0.0
 10
7.1638612243
 20
9.1369716423
 30
0.0
 10
7.1695807386
 20
9.1647389151
 30
0.0
 10
7.1755868005
 20
9.1917023981
 30
0.0
 10
7.1818645501
 20
9.2177964607
 30
0.0
 10
7.188398711
 20
9.2429576212
 30
0.0
 10
7.1951732168
 20
9.2671246966
 30
0.0
 10
7.2021714716
 20
9.2902390024
 30
0.0
 10
7.2093763673
 20
9.3122444345
 30
0.0
 10
7.216770133
 20
9.3330877075
 30
0.0
 10
7.2243348346
 20
9.3527183651
 30
0.0
 10
7.2320517391
 20
9.3710892709
 30
0.0
 10
7.2399023343
 20
9.3881559286
 30
0.0
 10
7.2466505457
 20
9.4014771589
 30
0.0
 10
7.2521147496
 20
9.411434558
 30
0.0
 10
7.2561638668
 20
9.4184228124
 30
0.0
 10
7.2602319787
 20
9.4250557974
 30
0.0
 10
7.2643168136
 20
9.4313293892
 30
0.0
 10
7.2684159113
 20
9.4372398234
 30
0.0
 10
7.2725267265
 20
9.4427837239
 30
0.0
 10
7.2766468163
 20
9.4479577879
 30
0.0
 10
7.2807739367
 20
9.4527588079
 30
0.0
 10
7.284905605
 20
9.4571837287
 30
0.0
 10
7.2877246587
 20
9.4599431906
 30
0.0
 10
7.2891349155
 20
9.4612557018
 30
0.0
  0
SPLINE
  5
33C
100
AcDbEntity
  8
0
100
AcDbSpline
 62
7
  6
CONTINUOUS
 70
0
 71
3
 72
9
 73
5
 74
0
 42
0.0000001
 43
0.0000001
 44
0.0000000001
 40
0.0
 40
0.0
 40
0.0
 40
0.0
 40
0.5037870669
 40
1.0
 40
1.0
 40
1.0
 40
1.0
 10
8.1796795369
 20
7.840395779
 30
0.0
 10
8.1701413339
 20
7.8587618672
 30
0.0
 10
8.1518602349
 20
7.8955615227
 30
0.0
 10
8.1351427192
 20
7.9331032721
 30
0.0
 10
8.1273089961
 20
7.951921931
 30
0.0
  0
SPLINE
  5
33D
100
AcDbEntity
  8
0
100
AcDbSpline
 62
7
  6
CONTINUOUS
 70
0
 71
3
 72
23
 73
19
 74
0
 42
0.0000001
 43
0.0000001
 44
0.0000000001
 40
0.0
 40
0.0
 40
0.0
 40
0.0
 40
0.0423096809
 40
0.0867811318
 40
0.1336953399
 40
0.1832840957
 40
0.235722584
 40
0.2911291154
 40
0.3495588739
 40
0.4110171476
 40
0.4754565349
 40
0.5427933859
 40
0.6129107636
 40
0.6856707965
 40
0.7609199529
 40
0.8384995808
 40
0.9182468081
 40
1.0
 40
1.0
 40
1.0
 40
1.0
 10
6.7747041665
 20
8.355064764
 30
0.0
 10
6.7757281926
 20
8.3526039432
 30
0.0
 10
6.778044178
 20
8.3476439683
 30
0.0
 10
6.7821976111
 20
8.3403082537
 30
0.0
 10
6.7871255173
 20
8.3329112252
 30
0.0
 10
6.7928356544
 20
8.3254582311
 30
0.0
 10
6.799327937
 20
8.3179537031
 30
0.0
 10
6.8065952116
 20
8.3104038986
 30
0.0
 10
6.8146211431
 20
8.3028136391
 30
0.0
 10
6.8233839226
 20
8.295189874
 30
0.0
 10
6.8328542987
 20
8.2875376892
 30
0.0
 10
6.8429992015
 20
8.279863427
 30
0.0
 10
6.853781438
 20
8.2721720673
 30
0.0
 10
6.86516191
 20
8.2644686918
 30
0.0
 10
6.8771004514
 20
8.2567574632
 30
0.0
 10
6.8895570228
 20
8.2490421742
 30
0.0
 10
6.9024922368
 20
8.2413258483
 30
0.0
 10
6.9113058778
 20
8.2362426821
 30
0.0
 10
6.9157837249
 20
8.2336983724
 30
0.0
  0
SPLINE
  5
33E
100
AcDbEntity
  8
0
100
AcDbSpline
 62
7
  6
CONTINUOUS
 70
0
 71
3
 72
48
 73
44
 74
0
 42
0.0000001
 43
0.0000001
 44
0.0000000001
 40
0.0
 40
0.0
 40
0.0
 40
0.0
 40
0.0097390981
 40
0.0199698058
 40
0.030688729
 40
0.0418911561
 40
0.0535704177
 40
0.0657185675
 40
0.0783268043
 40
0.0913846912
 40
0.1188025488
 40
0.1478723991
 40
0.1784807
 40
0.2105024901
 40
0.2438034905
 40
0.2782413351
 40
0.3136663149
 40
0.3499228746
 40
0.3868506405
 40
0.4242851384
 40
0.4620590536
 40
0.5000031861
 40
0.5379472742
 40
0.5757211195
 40
0.6131554637
 40
0.6500829397
 40
0.686339249
 40
0.7217639074
 40
0.7562012588
 40
0.7895018557
 40
0.8215231739
 40
0.8521307642
 40
0.8812000609
 40
0.8951222737
 40
0.908618305
 40
0.9216757388
 40
0.9342835882
 40
0.9464315537
 40
0.9581103199
 40
0.9693123137
 40
0.9800309478
 40
0.9902611247
 40
1.0
 40
1.0
 40
1.0
 40
1.0
 10
6.8368181068
 20
9.3654508603
 30
0.0
 10
6.8351441719
 20
9.3626126461
 30
0.0
 10
6.8318146438
 20
9.3567318364
 30
0.0
 10
6.8269824159
 20
9.347540159
 30
0.0
 10
6.8221944769
 20
9.3377708481
 30
0.0
 10
6.8174570069
 20
9.3274354821
 30
0.0
 10
6.8127754199
 20
9.3165463817
 30
0.0
 10
6.8081552379
 20
9.3051165025
 30
0.0
 10
6.8036022255
 20
9.293159292
 30
0.0
 10
6.7975290829
 20
9.276256156
 30
0.0
 10
6.7901684345
 20
9.2539023255
 30
0.0
 10
6.7818237149
 20
9.2256367625
 30
0.0
 10
6.7738700539
 20
9.1956445092
 30
0.0
 10
6.7663456269
 20
9.1640686877
 30
0.0
 10
6.7592867999
 20
9.1310596887
 30
0.0
 10
6.7527278106
 20
9.0967749941
 30
0.0
 10
6.7467001432
 20
9.0613783308
 30
0.0
 10
6.7412327759
 20
9.0250388293
 30
0.0
 10
6.7363521894
 20
8.9879301405
 30
0.0
 10
6.73208177
 20
8.9502296756
 30
0.0
 10
6.72844193
 20
8.9121177167
 30
0.0
 10
6.7254502738
 20
8.8737764939
 30
0.0
 10
6.723121111
 20
8.8353893543
 30
0.0
 10
6.7214654282
 20
8.7971398889
 30
0.0
 10
6.7204912081
 20
8.7592110169
 30
0.0
 10
6.7202030673
 20
8.721784098
 30
0.0
 10
6.7206020895
 20
8.6850380667
 30
0.0
 10
6.7216862673
 20
8.6491485805
 30
0.0
 10
6.7234502998
 20
8.6142871349
 30
0.0
 10
6.725885289
 20
8.5806202475
 30
0.0
 10
6.7289792345
 20
8.5483085402
 30
0.0
 10
6.7327172028
 20
8.5175063727
 30
0.0
 10
6.7364041787
 20
8.4928756425
 30
0.0
 10
6.7396801231
 20
8.4740460678
 30
0.0
 10
6.7422506087
 20
8.4605944538
 30
0.0
 10
6.7449671333
 20
8.4476255451
 30
0.0
 10
6.7478261777
 20
8.4351547286
 30
0.0
 10
6.7508243297
 20
8.4231968634
 30
0.0
 10
6.7539582443
 20
8.4117662277
 30
0.0
 10
6.7572238267
 20
8.4008763262
 30
0.0
 10
6.7606172721
 20
8.390540025
 30
0.0
 10
6.7641347089
 20
8.3807697777
 30
0.0
 10
6.7666207212
 20
8.3744859931
 30
0.0
 10
6.7678868858
 20
8.3714439792
 30
0.0
  0
SPLINE
  5
33F
100
AcDbEntity
  8
0
100
AcDbSpline
 62
7
  6
CONTINUOUS
 70
0
 71
3
 72
53
 73
49
 74
0
 42
0.0000001
 43
0.0000001
 44
0.0000000001
 40
0.0
 40
0.0
 40
0.0
 40
0.0
 40
0.0075208262
 40
0.0156244122
 40
0.0243315318
 40
0.0336553574
 40
0.0436035317
 40
0.0541777318
 40
0.0653758533
 40
0.0771927733
 40
0.0896194851
 40
0.1026450059
 40
0.1162562882
 40
0.130437486
 40
0.1451716562
 40
0.160440189
 40
0.1924960966
 40
0.2264294121
 40
0.262044463
 40
0.2991303031
 40
0.3374635115
 40
0.3768100221
 40
0.4169274336
 40
0.4575672201
 40
0.4984766011
 40
0.5394007547
 40
0.5800847069
 40
0.6202753037
 40
0.6597234128
 40
0.6981859189
 40
0.7354276954
 40
0.7712237202
 40
0.8053616884
 40
0.8376442625
 40
0.8530332517
 40
0.8678928142
 40
0.8822035113
 40
0.8959477363
 40
0.9091101238
 40
0.9216764591
 40
0.9336351128
 40
0.9449770825
 40
0.9556954725
 40
0.9657879271
 40
0.9752562969
 40
0.984106284
 40
0.9923485513
 40
1.0
 40
1.0
 40
1.0
 40
1.0
 10
6.7024817498
 20
8.5780753331
 30
0.0
 10
6.7015148542
 20
8.579264215
 30
0.0
 10
6.6996096408
 20
8.5818193356
 30
0.0
 10
6.6969287635
 20
8.5859934716
 30
0.0
 10
6.6943243628
 20
8.5906415159
 30
0.0
 10
6.6918004763
 20
8.5957558556
 30
0.0
 10
6.6893613312
 20
8.6013287079
 30
0.0
 10
6.6870104727
 20
8.6073509701
 30
0.0
 10
6.6847517622
 20
8.6138129665
 30
0.0
 10
6.682589229
 20
8.6207042672
 30
0.0
 10
6.6805260954
 20
8.6280135046
 30
0.0
 10
6.6785659369
 20
8.6357287188
 30
0.0
 10
6.6767122132
 20
8.6438372341
 30
0.0
 10
6.6749677184
 20
8.652325598
 30
0.0
 10
6.6733355363
 20
8.6611798153
 30
0.0
 10
6.6712794675
 20
8.6736570871
 30
0.0
 10
6.6690269936
 20
8.6900634745
 30
0.0
 10
6.666850924
 20
8.7106543081
 30
0.0
 10
6.6651749727
 20
8.7323197521
 30
0.0
 10
6.6640105171
 20
8.7549161026
 30
0.0
 10
6.6633657197
 20
8.7782936613
 30
0.0
 10
6.6632452558
 20
8.8022973542
 30
0.0
 10
6.663649993
 20
8.8267678774
 30
0.0
 10
6.6645773584
 20
8.8515427755
 30
0.0
 10
6.6660214193
 20
8.8764575563
 30
0.0
 10
6.6679725497
 20
8.9013467874
 30
0.0
 10
6.6704176816
 20
8.9260452127
 30
0.0
 10
6.6733406088
 20
8.9503888375
 30
0.0
 10
6.6767218398
 20
8.9742160635
 30
0.0
 10
6.6805386011
 20
8.9973688208
 30
0.0
 10
6.6847653471
 20
9.0196935186
 30
0.0
 10
6.6893738057
 20
9.0410422568
 30
0.0
 10
6.6943329441
 20
9.0612735307
 30
0.0
 10
6.6987980465
 20
9.0773371556
 30
0.0
 10
6.7025344745
 20
9.0895188099
 30
0.0
 10
6.7053584438
 20
9.0981483576
 30
0.0
 10
6.7082442346
 20
9.1064032581
 30
0.0
 10
6.7111871687
 20
9.1142698459
 30
0.0
 10
6.7141820662
 20
9.1217352354
 30
0.0
 10
6.7172242177
 20
9.1287870456
 30
0.0
 10
6.7203085176
 20
9.1354136659
 30
0.0
 10
6.7234295424
 20
9.1416043214
 30
0.0
 10
6.7265824659
 20
9.1473488165
 30
0.0
 10
6.7297621735
 20
9.1526380296
 30
0.0
 10
6.732963544
 20
9.1574637537
 30
0.0
 10
6.7361820442
 20
9.1618180393
 30
0.0
 10
6.7394115774
 20
9.1656935031
 30
0.0
 10
6.7416497527
 20
9.1680388452
 30
0.0
 10
6.7427710998
 20
9.1691219833
 30
0.0
  0
SPLINE
  5
340
100
AcDbEntity
  8
0
100
AcDbSpline
 62
7
  6
CONTINUOUS
 70
0
 71
3
 72
10
 73
6
 74
0
 42
0.0000001
 43
0.0000001
 44
0.0000000001
 40
0.0
 40
0.0
 40
0.0
 40
0.0
 40
0.2533131178
 40
0.5045397835
 40
1.0
 40
1.0
 40
1.0
 40
1.0
 10
6.9157837249
 20
9.4874701692
 30
0.0
 10
6.9103609555
 20
9.4801375144
 30
0.0
 10
6.8997113116
 20
9.4654194263
 30
0.0
 10
6.8792889594
 20
9.435767529
 30
0.0
 10
6.8648922605
 20
9.413041842
 30
0.0
 10
6.8558265919
 20
9.3976793218
 30
0.0
  0
SPLINE
  5
341
100
AcDbEntity
  8
0
100
AcDbSpline
 62
7
  6
CONTINUOUS
 70
0
 71
3
 72
9
 73
5
 74
0
 42
0.0000001
 43
0.0000001
 44
0.0000000001
 40
0.0
 40
0.0
 40
0.0
 40
0.0
 40
0.5087505491
 40
1.0
 40
1.0
 40
1.0
 40
1.0
 10
7.2390353496
 20
9.4650525929
 30
0.0
 10
7.2450841252
 20
9.4616156828
 30
0.0
 10
7.2569153168
 20
9.4547567895
 30
0.0
 10
7.2686015339
 20
9.4476527101
 30
0.0
 10
7.2742973587
 20
9.4440911158
 30
0.0
  0
SPLINE
  5
342
100
AcDbEntity
  8
0
100
AcDbSpline
 62
7
  6
CONTINUOUS
 70
0
 71
3
 72
11
 73
7
 74
0
 42
0.0000001
 43
0.0000001
 44
0.0000000001
 40
0.0
 40
0.0
 40
0.0
 40
0.0
 40
0.2292230575
 40
0.4717687876
 40
0.7284756865
 40
1.0
 40
1.0
 40
1.0
 40
1.0
 10
8.2062305095
 20
7.8088326052
 30
0.0
 10
8.2038788939
 20
7.8109422147
 30
0.0
 10
8.1992120073
 20
7.8154797109
 30
0.0
 10
8.1925149106
 20
7.8229688403
 30
0.0
 10
8.1859367031
 20
7.83131774
 30
0.0
 10
8.1817537684
 20
7.8372810295
 30
0.0
 10
8.1796795369
 20
7.840395779
 30
0.0
  0
SPLINE
  5
343
100
AcDbEntity
  8
0
100
AcDbSpline
 62
7
  6
CONTINUOUS
 70
0
 71
3
 72
19
 73
15
 74
0
 42
0.0000001
 43
0.0000001
 44
0.0000000001
 40
0.0
 40
0.0
 40
0.0
 40
0.0
 40
0.0551255562
 40
0.110120357
 40
0.1653172508
 40
0.2210239075
 40
0.2775150653
 40
0.3350147534
 40
0.4536804128
 40
0.5782611948
 40
0.7100897341
 40
0.7791260425
 40
0.8503952523
 40
1.0
 40
1.0
 40
1.0
 40
1.0
 10
7.5237187139
 20
8.0696296593
 30
0.0
 10
7.5221460364
 20
8.0697387248
 30
0.0
 10
7.5190119735
 20
8.0700889185
 30
0.0
 10
7.5143688571
 20
8.07100599
 30
0.0
 10
7.5098003286
 20
8.0723046209
 30
0.0
 10
7.50530942
 20
8.0739760293
 30
0.0
 10
7.5008988703
 20
8.07601126
 30
0.0
 10
7.4950693383
 20
8.0792281382
 30
0.0
 10
7.4879825215
 20
8.0841467235
 30
0.0
 10
7.4799400447
 20
8.0912748262
 30
0.0
 10
7.4736330883
 20
8.0981390989
 30
0.0
 10
7.4687452228
 20
8.1041970578
 30
0.0
 10
7.4638002584
 20
8.1108538947
 30
0.0
 10
7.4603226366
 20
8.1161348323
 30
0.0
 10
7.4580810168
 20
8.1197788984
 30
0.0
  0
SPLINE
  5
344
100
AcDbEntity
  8
0
100
AcDbSpline
 62
7
  6
CONTINUOUS
 70
0
 71
3
 72
57
 73
53
 74
0
 42
0.0000001
 43
0.0000001
 44
0.0000000001
 40
0.0
 40
0.0
 40
0.0
 40
0.0
 40
0.0086330707
 40
0.0177814635
 40
0.0274596255
 40
0.0376776041
 40
0.0484400386
 40
0.0597474122
 40
0.0715975847
 40
0.0839846244
 40
0.0969008486
 40
0.1103360987
 40
0.1242781432
 40
0.1387135581
 40
0.1536267615
 40
0.1690013078
 40
0.18481928
 40
0.201061535
 40
0.217708242
 40
0.2347381708
 40
0.2698591758
 40
0.3062412128
 40
0.3436896868
 40
0.3820014289
 40
0.4209664915
 40
0.4603698655
 40
0.4999932289
 40
0.5396166287
 40
0.5790201108
 40
0.6179853505
 40
0.6562973393
 40
0.6937461292
 40
0.7301285483
 40
0.7652499956
 40
0.7822801635
 40
0.7989271283
 40
0.8151696584
 40
0.8309879095
 40
0.8463627513
 40
0.8612762488
 40
0.8757119899
 40
0.8896543968
 40
0.9030899822
 40
0.9160064687
 40
0.9283937393
 40
0.94024439
 40
0.951552607
 40
0.9623155064
 40
0.9725326091
 40
0.982209431
 40
0.9913596934
 40
1.0
 40
1.0
 40
1.0
 40
1.0
 10
7.4580810168
 20
8.1197788984
 30
0.0
 10
7.4559093645
 20
8.1233092227
 30
0.0
 10
7.4516535828
 20
8.130715654
 30
0.0
 10
7.4456725657
 20
8.1424695476
 30
0.0
 10
7.4399107205
 20
8.1551725807
 30
0.0
 10
7.4343665613
 20
8.1688115706
 30
0.0
 10
7.4290408025
 20
8.1833726461
 30
0.0
 10
7.4239364803
 20
8.1988398318
 30
0.0
 10
7.4190570996
 20
8.2151947847
 30
0.0
 10
7.4144067274
 20
8.2324174382
 30
0.0
 10
7.4099901682
 20
8.250485705
 30
0.0
 10
7.4058120791
 20
8.2693757679
 30
0.0
 10
7.4018772485
 20
8.2890621983
 30
0.0
 10
7.3981907754
 20
8.3095179297
 30
0.0
 10
7.3947569541
 20
8.3307144948
 30
0.0
 10
7.3915805632
 20
8.3526220015
 30
0.0
 10
7.3886657223
 20
8.3752092906
 30
0.0
 10
7.386016265
 20
8.3984440061
 30
0.0
 10
7.383636108
 20
8.4222926535
 30
0.0
 10
7.3807965936
 20
8.4552013458
 30
0.0
 10
7.3779647045
 20
8.4976168783
 30
0.0
 10
7.3757154249
 20
8.5498811479
 30
0.0
 10
7.3745948612
 20
8.6037138678
 30
0.0
 10
7.3746095216
 20
8.6587980358
 30
0.0
 10
7.3757594588
 20
8.7148087865
 30
0.0
 10
7.3780378977
 20
8.7714150947
 30
0.0
 10
7.3814313554
 20
8.8282820921
 30
0.0
 10
7.3859197513
 20
8.8850732107
 30
0.0
 10
7.3914765182
 20
8.9414523314
 30
0.0
 10
7.3980687908
 20
8.9970859282
 30
0.0
 10
7.4056575802
 20
9.0516452095
 30
0.0
 10
7.4141979943
 20
9.1048084257
 30
0.0
 10
7.4236398336
 20
9.1562625029
 30
0.0
 10
7.4322992747
 20
9.1978816629
 30
0.0
 10
7.4396540353
 20
9.2300838701
 30
0.0
 10
7.4453032715
 20
9.2533760795
 30
0.0
 10
7.4511344856
 20
9.2760230838
 30
0.0
 10
7.4571391914
 20
9.2979922442
 30
0.0
 10
7.4633090906
 20
9.3192520445
 30
0.0
 10
7.4696358367
 20
9.3397721973
 30
0.0
 10
7.4761105711
 20
9.3595237657
 30
0.0
 10
7.4827251176
 20
9.378479133
 30
0.0
 10
7.4894706556
 20
9.3966121537
 30
0.0
 10
7.4963388473
 20
9.4138983035
 30
0.0
 10
7.503321896
 20
9.4303147412
 30
0.0
 10
7.5104122143
 20
9.4458403888
 30
0.0
 10
7.5176030262
 20
9.4604557279
 30
0.0
 10
7.5248876556
 20
9.4741425496
 30
0.0
 10
7.5322603006
 20
9.4868853464
 30
0.0
 10
7.5397195365
 20
9.4986718287
 30
0.0
 10
7.5472678376
 20
9.5094907307
 30
0.0
 10
7.5525082872
 20
9.5162419748
 30
0.0
 10
7.555148676
 20
9.5194414153
 30
0.0
  0
SPLINE
  5
345
100
AcDbEntity
  8
0
100
AcDbSpline
 62
7
  6
CONTINUOUS
 70
0
 71
3
 72
9
 73
5
 74
0
 42
0.0000001
 43
0.0000001
 44
0.0000000001
 40
0.0
 40
0.0
 40
0.0
 40
0.0
 40
0.5130508594
 40
1.0
 40
1.0
 40
1.0
 40
1.0
 10
7.555148676
 20
9.5194414153
 30
0.0
 10
7.5572897882
 20
9.5220358671
 30
0.0
 10
7.5615866676
 20
9.5269925323
 30
0.0
 10
7.5661553667
 20
9.5317015719
 30
0.0
 10
7.5684517453
 20
9.5339197034
 30
0.0
  0
SPLINE
  5
346
100
AcDbEntity
  8
0
100
AcDbSpline
 62
7
  6
CONTINUOUS
 70
0
 71
3
 72
14
 73
10
 74
0
 42
0.0000001
 43
0.0000001
 44
0.0000000001
 40
0.0
 40
0.0
 40
0.0
 40
0.0
 40
0.2689656152
 40
0.3971564998
 40
0.5217774276
 40
0.6434539583
 40
0.7629989522
 40
0.8814522576
 40
1.0
 40
1.0
 40
1.0
 40
1.0
 10
7.4789012661
 20
8.0928768909
 30
0.0
 10
7.4752177573
 20
8.0900317065
 30
0.0
 10
7.4695022874
 20
8.0861585383
 30
0.0
 10
7.4614713361
 20
8.082013839
 30
0.0
 10
7.4554722888
 20
8.0795394582
 30
0.0
 10
7.4494125231
 20
8.077673886
 30
0.0
 10
7.443300596
 20
8.0764404308
 30
0.0
 10
7.4371468749
 20
8.0758589635
 30
0.0
 10
7.4330363543
 20
8.0759185023
 30
0.0
 10
7.4309898291
 20
8.0760604293
 30
0.0
  0
SPLINE
  5
347
100
AcDbEntity
  8
0
100
AcDbSpline
 62
7
  6
CONTINUOUS
 70
0
 71
3
 72
15
 73
11
 74
0
 42
0.0000001
 43
0.0000001
 44
0.0000000001
 40
0.0
 40
0.0
 40
0.0
 40
0.0
 40
0.1394641698
 40
0.2732586031
 40
0.4021571635
 40
0.52680451
 40
0.6478707356
 40
0.7662535671
 40
0.8831532044
 40
1.0
 40
1.0
 40
1.0
 40
1.0
 10
7.5738657436
 20
9.5388843149
 30
0.0
 10
7.575929163
 20
9.5406754843
 30
0.0
 10
7.5800856032
 20
9.5440577126
 30
0.0
 10
7.58655164
 20
9.5485733545
 30
0.0
 10
7.5931165329
 20
9.5523990238
 30
0.0
 10
7.5997759068
 20
9.5555105766
 30
0.0
 10
7.6065188088
 20
9.5578774248
 30
0.0
 10
7.6133327174
 20
9.5594656889
 30
0.0
 10
7.620202993
 20
9.5602454382
 30
0.0
 10
7.6247959202
 20
9.5602082849
 30
0.0
 10
7.6270797089
 20
9.5600499036
 30
0.0
  0
SPLINE
  5
348
100
AcDbEntity
  8
0
100
AcDbSpline
 62
7
  6
CONTINUOUS
 70
0
 71
3
 72
14
 73
10
 74
0
 42
0.0000001
 43
0.0000001
 44
0.0000000001
 40
0.0
 40
0.0
 40
0.0
 40
0.0
 40
0.1185439342
 40
0.2370077373
 40
0.356565948
 40
0.4782503434
 40
0.6028740772
 40
0.7310621869
 40
1.0
 40
1.0
 40
1.0
 40
1.0
 10
7.5343508241
 20
9.5664806736
 30
0.0
 10
7.5363974671
 20
9.5663387384
 30
0.0
 10
7.540477332
 20
9.5658301851
 30
0.0
 10
7.5464927384
 20
9.564404574
 30
0.0
 10
7.5523769172
 20
9.5623388023
 30
0.0
 10
7.5581218541
 20
9.559653767
 30
0.0
 10
7.5637222205
 20
9.5563740765
 30
0.0
 10
7.5711040897
 20
9.5511598506
 30
0.0
 10
7.5762307461
 20
9.5465353181
 30
0.0
 10
7.5794862562
 20
9.5432090029
 30
0.0
  0
SPLINE
  5
349
100
AcDbEntity
  8
0
100
AcDbSpline
 62
7
  6
CONTINUOUS
 70
0
 71
3
 72
31
 73
27
 74
0
 42
0.0000001
 43
0.0000001
 44
0.0000000001
 40
0.0
 40
0.0
 40
0.0
 40
0.0
 40
0.0162147698
 40
0.0334285702
 40
0.0516734057
 40
0.0709728293
 40
0.0913430728
 40
0.1127926355
 40
0.1353251347
 40
0.158940079
 40
0.183631651
 40
0.2093908936
 40
0.2362064599
 40
0.2640630367
 40
0.2929429576
 40
0.3228271278
 40
0.3536934595
 40
0.3855178772
 40
0.4519369911
 40
0.5218622916
 40
0.5950481606
 40
0.6712290119
 40
0.7501183243
 40
0.8314182213
 40
0.9148291453
 40
1.0
 40
1.0
 40
1.0
 40
1.0
 10
7.2026424653
 20
8.2141314353
 30
0.0
 10
7.2010323615
 20
8.2161112449
 30
0.0
 10
7.1978484937
 20
8.2203043703
 30
0.0
 10
7.1933081596
 20
8.2270556628
 30
0.0
 10
7.1888674508
 20
8.2344452036
 30
0.0
 10
7.1845310603
 20
8.2424652934
 30
0.0
 10
7.1803034892
 20
8.2511080666
 30
0.0
 10
7.1761886323
 20
8.2603644494
 30
0.0
 10
7.1721907616
 20
8.2702249888
 30
0.0
 10
7.1683143559
 20
8.2806796364
 30
0.0
 10
7.1645631296
 20
8.2917174121
 30
0.0
 10
7.1609410024
 20
8.3033268339
 30
0.0
 10
7.1574521117
 20
8.3154959012
 30
0.0
 10
7.1540998914
 20
8.3282118024
 30
0.0
 10
7.1508878032
 20
8.3414611903
 30
0.0
 10
7.1478195567
 20
8.3552302484
 30
0.0
 10
7.144898192
 20
8.3695045033
 30
0.0
 10
7.1411494952
 20
8.3894757671
 30
0.0
 10
7.1368752819
 20
8.4155989612
 30
0.0
 10
7.1324463052
 20
8.448279644
 30
0.0
 10
7.1286668871
 20
8.4825875714
 30
0.0
 10
7.1255532542
 20
8.5183781874
 30
0.0
 10
7.1231185358
 20
8.5555009356
 30
0.0
 10
7.12137352
 20
8.5938013806
 30
0.0
 10
7.1203261105
 20
8.6331158962
 30
0.0
 10
7.1200975142
 20
8.6596479123
 30
0.0
 10
7.1200975142
 20
8.6730520872
 30
0.0
  0
SPLINE
  5
34A
100
AcDbEntity
  8
0
100
AcDbSpline
 62
7
  6
CONTINUOUS
 70
0
 71
3
 72
17
 73
13
 74
0
 42
0.0000001
 43
0.0000001
 44
0.0000000001
 40
0.0
 40
0.0
 40
0.0
 40
0.0
 40
0.1492532234
 40
0.2896727382
 40
0.4219777839
 40
0.4853777463
 40
0.5471001207
 40
0.6660489968
 40
0.7801580331
 40
0.8909108437
 40
0.9455638012
 40
1.0
 40
1.0
 40
1.0
 40
1.0
 10
7.385971415
 20
9.5513808943
 30
0.0
 10
7.3880117013
 20
9.5532797857
 30
0.0
 10
7.3920895352
 20
9.5568419272
 30
0.0
 10
7.3983954367
 20
9.5615800312
 30
0.0
 10
7.4037170094
 20
9.5649259161
 30
0.0
 10
7.4079597023
 20
9.5671901521
 30
0.0
 10
7.4120831784
 20
9.5691355992
 30
0.0
 10
7.4172391681
 20
9.5710975903
 30
0.0
 10
7.4234754389
 20
9.5726842492
 30
0.0
 10
7.4286692679
 20
9.5733409822
 30
0.0
 10
7.4327753108
 20
9.5734581083
 30
0.0
 10
7.4348129025
 20
9.5733835589
 30
0.0
 10
7.4358270271
 20
9.5733131942
 30
0.0
  0
SPLINE
  5
34B
100
AcDbEntity
  8
0
100
AcDbSpline
 62
7
  6
CONTINUOUS
 70
0
 71
3
 72
31
 73
27
 74
0
 42
0.0000001
 43
0.0000001
 44
0.0000000001
 40
0.0
 40
0.0
 40
0.0
 40
0.0
 40
0.0188525335
 40
0.0388799056
 40
0.0600712168
 40
0.0824084625
 40
0.1058692382
 40
0.1304256705
 40
0.156046537
 40
0.1826963761
 40
0.2103368846
 40
0.2389265206
 40
0.2684211414
 40
0.2987741927
 40
0.3299366694
 40
0.361857816
 40
0.3944845965
 40
0.427762719
 40
0.4960454926
 40
0.5662430781
 40
0.6378735137
 40
0.7104418152
 40
0.7834451052
 40
0.8563754769
 40
0.9287284377
 40
1.0
 40
1.0
 40
1.0
 40
1.0
 10
8.2107776214
 20
9.5418345666
 30
0.0
 10
8.2075415633
 20
9.5363479343
 30
0.0
 10
8.2011175509
 20
9.5248842019
 30
0.0
 10
8.1918697931
 20
9.5068121546
 30
0.0
 10
8.1827351428
 20
9.4873735736
 30
0.0
 10
8.1737299107
 20
9.4666045021
 30
0.0
 10
8.1648714424
 20
9.444542589
 30
0.0
 10
8.1561755205
 20
9.4212284836
 30
0.0
 10
8.1476588821
 20
9.396704941
 30
0.0
 10
8.1393369105
 20
9.3710172206
 30
0.0
 10
8.1312254241
 20
9.3442126603
 30
0.0
 10
8.1233393191
 20
9.3163407921
 30
0.0
 10
8.1156933399
 20
9.2874531091
 30
0.0
 10
8.1083017706
 20
9.2576030379
 30
0.0
 10
8.1011781862
 20
9.2268457979
 30
0.0
 10
8.0943361238
 20
9.195238317
 30
0.0
 10
8.087787895
 20
9.1628390663
 30
0.0
 10
8.0793938005
 20
9.1182826329
 30
0.0
 10
8.06974582
 20
9.0610501578
 30
0.0
 10
8.0596143462
 20
8.9907786641
 30
0.0
 10
8.0509079085
 20
8.9188577361
 30
0.0
 10
8.0436912985
 20
8.8458197085
 30
0.0
 10
8.038018324
 20
8.7722051789
 30
0.0
 10
8.0339308316
 20
8.6985583633
 30
0.0
 10
8.0314592321
 20
8.6254253466
 30
0.0
 10
8.0308949866
 20
8.5768960742
 30
0.0
 10
8.0308949866
 20
8.5528149405
 30
0.0
  0
SPLINE
  5
34C
100
AcDbEntity
  8
0
100
AcDbSpline
 62
7
  6
CONTINUOUS
 70
0
 71
3
 72
23
 73
19
 74
0
 42
0.0000001
 43
0.0000001
 44
0.0000000001
 40
0.0
 40
0.0
 40
0.0
 40
0.0
 40
0.0451313148
 40
0.092131657
 40
0.1412062592
 40
0.1925313828
 40
0.2462467886
 40
0.3024542518
 40
0.3612171111
 40
0.4225601237
 40
0.4864751204
 40
0.5529219327
 40
0.6218365914
 40
0.6931332079
 40
0.7667115222
 40
0.8424614309
 40
0.9202652281
 40
1.0
 40
1.0
 40
1.0
 40
1.0
 10
8.2267892282
 20
9.5689817376
 30
0.0
 10
8.2287536201
 20
9.5723158404
 30
0.0
 10
8.2330043495
 20
9.5789829696
 30
0.0
 10
8.2401746665
 20
9.5887487067
 30
0.0
 10
8.2482736535
 20
9.5984614156
 30
0.0
 10
8.2573088944
 20
9.6081135479
 30
0.0
 10
8.2672806581
 20
9.617699368
 30
0.0
 10
8.278181631
 20
9.6272135119
 30
0.0
 10
8.2899975838
 20
9.6366509347
 30
0.0
 10
8.3027068807
 20
9.6460082351
 30
0.0
 10
8.3162825975
 20
9.6552816761
 30
0.0
 10
8.3306918761
 20
9.6644697646
 30
0.0
 10
8.3458985518
 20
9.6735705051
 30
0.0
 10
8.361862784
 20
9.6825840275
 30
0.0
 10
8.3785434408
 20
9.6915102416
 30
0.0
 10
8.3958980975
 20
9.7003505447
 30
0.0
 10
8.4138842422
 20
9.7091063924
 30
0.0
 10
8.4261243659
 20
9.714821645
 30
0.0
 10
8.4323397601
 20
9.7176696297
 30
0.0
  0
SPLINE
  5
34D
100
AcDbEntity
  8
0
100
AcDbSpline
 62
7
  6
CONTINUOUS
 70
0
 71
3
 72
26
 73
22
 74
0
 42
0.0000001
 43
0.0000001
 44
0.0000000001
 40
0.0
 40
0.0
 40
0.0
 40
0.0
 40
0.0207063472
 40
0.0422079211
 40
0.0645014829
 40
0.0875825805
 40
0.1114451088
 40
0.136080918
 40
0.1876336476
 40
0.2421567641
 40
0.2995471836
 40
0.3596873284
 40
0.4224475744
 40
0.4876858211
 40
0.5552512164
 40
0.6249833027
 40
0.6967133512
 40
0.7702630195
 40
0.8454542015
 40
0.922105584
 40
1.0
 40
1.0
 40
1.0
 40
1.0
 10
8.1043409083
 20
8.0071047947
 30
0.0
 10
8.1028728741
 20
8.0106319087
 30
0.0
 10
8.0999760328
 20
8.0178617028
 30
0.0
 10
8.0958175012
 20
8.0290134191
 30
0.0
 10
8.0917663422
 20
8.0406694659
 30
0.0
 10
8.0878254951
 20
8.0528219305
 30
0.0
 10
8.0839976904
 20
8.065462659
 30
0.0
 10
8.0789717708
 20
8.0832261306
 30
0.0
 10
8.0730133712
 20
8.10660033
 30
0.0
 10
8.0664568369
 20
8.1360434929
 30
0.0
 10
8.0604082
 20
8.1672104057
 30
0.0
 10
8.0548839792
 20
8.2000162212
 30
0.0
 10
8.0498999227
 20
8.2343718711
 30
0.0
 10
8.0454693447
 20
8.2701838236
 30
0.0
 10
8.0416050663
 20
8.3073545803
 30
0.0
 10
8.0383174003
 20
8.345782854
 30
0.0
 10
8.0356158129
 20
8.3853633836
 30
0.0
 10
8.0335075045
 20
8.425988425
 30
0.0
 10
8.0319984467
 20
8.467548676
 30
0.0
 10
8.0310932832
 20
8.5099281007
 30
0.0
 10
8.0308949866
 20
8.5384430248
 30
0.0
 10
8.0308949866
 20
8.5528149405
 30
0.0
  0
SPLINE
  5
34E
100
AcDbEntity
  8
0
100
AcDbSpline
 62
7
  6
CONTINUOUS
 70
0
 71
3
 72
22
 73
18
 74
0
 42
0.0000001
 43
0.0000001
 44
0.0000000001
 40
0.0
 40
0.0
 40
0.0
 40
0.0
 40
0.0665327487
 40
0.1323945694
 40
0.197583871
 40
0.2621111026
 40
0.3259977793
 40
0.3892776344
 40
0.4519935872
 40
0.5141966264
 40
0.5759431901
 40
0.6372910208
 40
0.6982988752
 40
0.7590217287
 40
0.8195108943
 40
0.8798130484
 40
1.0
 40
1.0
 40
1.0
 40
1.0
 10
6.8375402992
 20
9.3649787293
 30
0.0
 10
6.8339889201
 20
9.358248857
 30
0.0
 10
6.8271287971
 20
9.3447464247
 30
0.0
 10
6.8175664675
 20
9.3242666958
 30
0.0
 10
6.8088202197
 20
9.3036736446
 30
0.0
 10
6.8009193532
 20
9.2829829723
 30
0.0
 10
6.7938862565
 20
9.2622116034
 30
0.0
 10
6.7877302528
 20
9.2413793905
 30
0.0
 10
6.7824530515
 20
9.2205059351
 30
0.0
 10
6.7780437463
 20
9.1996113952
 30
0.0
 10
6.7744820023
 20
9.1787147535
 30
0.0
 10
6.7717399395
 20
9.1578330532
 30
0.0
 10
6.7697808463
 20
9.1369813928
 30
0.0
 10
6.7685648203
 20
9.116172123
 30
0.0
 10
6.7680471018
 20
9.0954147344
 30
0.0
 10
6.7682270797
 20
9.0678510668
 30
0.0
 10
6.7692715405
 20
9.0472210151
 30
0.0
 10
6.7703144746
 20
9.0335147059
 30
0.0
  0
SPLINE
  5
34F
100
AcDbEntity
  8
0
100
AcDbSpline
 62
7
  6
CONTINUOUS
 70
0
 71
3
 72
33
 73
29
 74
0
 42
0.0000001
 43
0.0000001
 44
0.0000000001
 40
0.0
 40
0.0
 40
0.0
 40
0.0
 40
0.0237142577
 40
0.04879849
 40
0.0751922156
 40
0.1028283815
 40
0.1316330538
 40
0.1615272564
 40
0.192426581
 40
0.2242427658
 40
0.2568831509
 40
0.2902521144
 40
0.3587757955
 40
0.4289984143
 40
0.5000757614
 40
0.5711505344
 40
0.6413654405
 40
0.7098764211
 40
0.743237276
 40
0.7758682479
 40
0.8076739919
 40
0.8385617303
 40
0.8684434327
 40
0.8972344143
 40
0.9248561453
 40
0.9512344701
 40
0.9763027091
 40
1.0
 40
1.0
 40
1.0
 40
1.0
 10
6.7258985494
 20
8.5822155545
 30
0.0
 10
6.7247906423
 20
8.5867309243
 30
0.0
 10
6.7226724836
 20
8.5960627018
 30
0.0
 10
6.7198426604
 20
8.6105322464
 30
0.0
 10
6.7172775518
 20
8.6258311801
 30
0.0
 10
6.7149859448
 20
8.6419103242
 30
0.0
 10
6.7129750234
 20
8.6587182099
 30
0.0
 10
6.7112517128
 20
8.6762008496
 30
0.0
 10
6.7098213438
 20
8.6943021094
 30
0.0
 10
6.7086889505
 20
8.7129637739
 30
0.0
 10
6.7078578785
 20
8.7321259032
 30
0.0
 10
6.7071496253
 20
8.7584932761
 30
0.0
 10
6.707048889
 20
8.7922430285
 30
0.0
 10
6.7081442874
 20
8.8333710348
 30
0.0
 10
6.7104420325
 20
8.8749503781
 30
0.0
 10
6.7139126837
 20
8.9164467647
 30
0.0
 10
6.7185115468
 20
8.9573269873
 30
0.0
 10
6.7232753536
 20
8.990733347
 30
0.0
 10
6.7276205189
 20
9.0167438647
 30
0.0
 10
6.7310915696
 20
9.0356017394
 30
0.0
 10
6.7347917584
 20
9.0539216258
 30
0.0
 10
6.7387096635
 20
9.0716446569
 30
0.0
 10
6.7428320441
 20
9.0887138796
 30
0.0
 10
6.7471460959
 20
9.1050744494
 30
0.0
 10
6.7516372513
 20
9.1206738988
 30
0.0
 10
6.7562915704
 20
9.1354622686
 30
0.0
 10
6.7610932343
 20
9.1493921011
 30
0.0
 10
6.7644803891
 20
9.1583348256
 30
0.0
 10
6.7662015295
 20
9.1626502372
 30
0.0
  0
SPLINE
  5
350
100
AcDbEntity
  8
0
100
AcDbSpline
 62
7
  6
CONTINUOUS
 70
0
 71
3
 72
11
 73
7
 74
0
 42
0.0000001
 43
0.0000001
 44
0.0000000001
 40
0.0
 40
0.0
 40
0.0
 40
0.0
 40
0.247093999
 40
0.4943919104
 40
0.7443474163
 40
1.0
 40
1.0
 40
1.0
 40
1.0
 10
6.7703144746
 20
8.4066288075
 30
0.0
 10
6.7696898109
 20
8.4038064998
 30
0.0
 10
6.7686837582
 20
8.3981015496
 30
0.0
 10
6.7680031351
 20
8.3894060532
 30
0.0
 10
6.7682363963
 20
8.380584967
 30
0.0
 10
6.7690450352
 20
8.3747110402
 30
0.0
 10
6.7696157318
 20
8.3717752639
 30
0.0
  0
SPLINE
  5
351
100
AcDbEntity
  8
0
100
AcDbSpline
 62
7
  6
CONTINUOUS
 70
0
 71
3
 72
9
 73
5
 74
0
 42
0.0000001
 43
0.0000001
 44
0.0000000001
 40
0.0
 40
0.0
 40
0.0
 40
0.0
 40
0.4892255703
 40
1.0
 40
1.0
 40
1.0
 40
1.0
 10
6.7696157318
 20
8.3717752639
 30
0.0
 10
6.7701600076
 20
8.3689754015
 30
0.0
 10
6.7715750583
 20
8.3633075105
 30
0.0
 10
6.7735600702
 20
8.3578141234
 30
0.0
 10
6.7747041665
 20
8.355064764
 30
0.0
  0
SPLINE
  5
352
100
AcDbEntity
  8
0
100
AcDbSpline
 62
7
  6
CONTINUOUS
 70
0
 71
3
 72
11
 73
7
 74
0
 42
0.0000001
 43
0.0000001
 44
0.0000000001
 40
0.0
 40
0.0
 40
0.0
 40
0.0
 40
0.2379444893
 40
0.4843543349
 40
0.7385855266
 40
1.0
 40
1.0
 40
1.0
 40
1.0
 10
7.1493215547
 20
8.3499496358
 30
0.0
 10
7.1450196897
 20
8.3528560248
 30
0.0
 10
7.1361863556
 20
8.3586594325
 30
0.0
 10
7.1225265137
 20
8.3672113081
 30
0.0
 10
7.1082677715
 20
8.3757656222
 30
0.0
 10
7.0985252041
 20
8.3813934713
 30
0.0
 10
7.0935660993
 20
8.3842112312
 30
0.0
  0
SPLINE
  5
353
100
AcDbEntity
  8
0
100
AcDbSpline
 62
7
  6
CONTINUOUS
 70
0
 71
3
 72
9
 73
5
 74
0
 42
0.0000001
 43
0.0000001
 44
0.0000000001
 40
0.0
 40
0.0
 40
0.0
 40
0.0
 40
0.4991878817
 40
1.0
 40
1.0
 40
1.0
 40
1.0
 10
7.0935660993
 20
8.3842112312
 30
0.0
 10
7.1000820339
 20
8.406331209
 30
0.0
 10
7.1121456127
 20
8.4509429461
 30
0.0
 10
7.1217940268
 20
8.4961502678
 30
0.0
 10
7.1259081924
 20
8.5189162615
 30
0.0
  0
SPLINE
  5
354
100
AcDbEntity
  8
0
100
AcDbSpline
 62
7
  6
CONTINUOUS
 70
0
 71
3
 72
24
 73
20
 74
0
 42
0.0000001
 43
0.0000001
 44
0.0000000001
 40
0.0
 40
0.0
 40
0.0
 40
0.0
 40
0.1228755119
 40
0.1844878725
 40
0.2462332407
 40
0.3081266179
 40
0.3701819721
 40
0.4324104423
 40
0.4635937374
 40
0.4948228171
 40
0.5260976765
 40
0.5574181393
 40
0.6201904185
 40
0.6831357076
 40
0.7462426903
 40
0.8094976556
 40
0.8728853538
 40
0.9363914851
 40
1.0
 40
1.0
 40
1.0
 40
1.0
 10
6.7703144746
 20
9.0335147059
 30
0.0
 10
6.7629484335
 20
9.0085088276
 30
0.0
 10
6.7528349779
 20
8.9706700007
 30
0.0
 10
6.7417102203
 20
8.9196219809
 30
0.0
 10
6.7346525276
 20
8.8809508376
 30
0.0
 10
6.7290102763
 20
8.8419520813
 30
0.0
 10
6.7248918836
 20
8.8026591092
 30
0.0
 10
6.7228041567
 20
8.7697321784
 30
0.0
 10
6.7219645957
 20
8.7433011256
 30
0.0
 10
6.7217548913
 20
8.7234248051
 30
0.0
 10
6.7219652103
 20
8.703519401
 30
0.0
 10
6.7228067875
 20
8.6769341562
 30
0.0
 10
6.7249011642
 20
8.6436739375
 30
0.0
 10
6.7290230374
 20
8.6038171447
 30
0.0
 10
6.7346677134
 20
8.5640448241
 30
0.0
 10
6.7417266521
 20
8.5244051378
 30
0.0
 10
6.7500790137
 20
8.4849323626
 30
0.0
 10
6.7595999574
 20
8.4456493249
 30
0.0
 10
6.7666396941
 20
8.4196134676
 30
0.0
 10
6.7703144746
 20
8.4066288075
 30
0.0
  0
SPLINE
  5
355
100
AcDbEntity
  8
0
100
AcDbSpline
 62
7
  6
CONTINUOUS
 70
0
 71
3
 72
11
 73
7
 74
0
 42
0.0000001
 43
0.0000001
 44
0.0000000001
 40
0.0
 40
0.0
 40
0.0
 40
0.0
 40
0.2493235556
 40
0.4991318678
 40
0.7493775836
 40
1.0
 40
1.0
 40
1.0
 40
1.0
 10
7.1276051205
 20
8.8620355262
 30
0.0
 10
7.1255042383
 20
8.8745738095
 30
0.0
 10
7.1208870878
 20
8.8996074641
 30
0.0
 10
7.1128256919
 20
8.9369634803
 30
0.0
 10
7.1037282143
 20
8.9741482243
 30
0.0
 10
7.0970460827
 20
8.998800776
 30
0.0
 10
7.0935660993
 20
9.0110971296
 30
0.0
  0
SPLINE
  5
356
100
AcDbEntity
  8
0
100
AcDbSpline
 62
7
  6
CONTINUOUS
 70
0
 71
3
 72
11
 73
7
 74
0
 42
0.0000001
 43
0.0000001
 44
0.0000000001
 40
0.0
 40
0.0
 40
0.0
 40
0.0
 40
0.2537160465
 40
0.505093933
 40
0.7539173512
 40
1.0
 40
1.0
 40
1.0
 40
1.0
 10
7.0935660993
 20
9.0110971296
 30
0.0
 10
7.0995758911
 20
9.0192235545
 30
0.0
 10
7.1113542266
 20
9.0355402078
 30
0.0
 10
7.1282946466
 20
9.0603448357
 30
0.0
 10
7.1443397062
 20
9.0853781947
 30
0.0
 10
7.1544332807
 20
9.1023193701
 30
0.0
 10
7.1592977423
 20
9.1108304706
 30
0.0
  0
SPLINE
  5
357
100
AcDbEntity
  8
0
100
AcDbSpline
 62
7
  6
CONTINUOUS
 70
0
 71
3
 72
9
 73
5
 74
0
 42
0.0000001
 43
0.0000001
 44
0.0000000001
 40
0.0
 40
0.0
 40
0.0
 40
0.0
 40
0.5010793624
 40
1.0
 40
1.0
 40
1.0
 40
1.0
 10
7.2409142124
 20
9.3891505479
 30
0.0
 10
7.2413063236
 20
9.401830547
 30
0.0
 10
7.2413266915
 20
9.4271639584
 30
0.0
 10
7.2399937223
 20
9.4524575953
 30
0.0
 10
7.2390353496
 20
9.4650525929
 30
0.0
  0
SPLINE
  5
358
100
AcDbEntity
  8
0
100
AcDbSpline
 62
7
  6
CONTINUOUS
 70
0
 71
3
 72
9
 73
5
 74
0
 42
0.0000001
 43
0.0000001
 44
0.0000000001
 40
0.0
 40
0.0
 40
0.0
 40
0.0
 40
0.4868379223
 40
1.0
 40
1.0
 40
1.0
 40
1.0
 10
8.2062305095
 20
9.499264852
 30
0.0
 10
8.2015243871
 20
9.4859515085
 30
0.0
 10
8.1922967046
 20
9.4584485146
 30
0.0
 10
8.1838416008
 20
9.4306995481
 30
0.0
 10
8.1796795369
 20
9.4164091349
 30
0.0
  0
SPLINE
  5
359
100
AcDbEntity
  8
0
100
AcDbSpline
 62
7
  6
CONTINUOUS
 70
0
 71
3
 72
38
 73
34
 74
0
 42
0.0000001
 43
0.0000001
 44
0.0000000001
 40
0.0
 40
0.0
 40
0.0
 40
0.0
 40
0.0063160962
 40
0.012671092
 40
0.0191031094
 40
0.0256487999
 40
0.0323428282
 40
0.0392174136
 40
0.0536156671
 40
0.0690528137
 40
0.0856863497
 40
0.103634591
 40
0.1229849423
 40
0.1437978011
 40
0.1661140371
 40
0.1899570077
 40
0.215337166
 40
0.2422538508
 40
0.2706968034
 40
0.3006487958
 40
0.3320847866
 40
0.3649751484
 40
0.3992839084
 40
0.4349714554
 40
0.4719934689
 40
0.5103020671
 40
0.5498461539
 40
0.5905708688
 40
0.6324193885
 40
0.7192435421
 40
0.8098113955
 40
0.9035882777
 40
1.0
 40
1.0
 40
1.0
 40
1.0
 10
7.4309898305
 20
8.0760604492
 30
0.0
 10
7.4297272518
 20
8.0761479794
 30
0.0
 10
7.4272002883
 20
8.0764270088
 30
0.0
 10
7.4234381894
 20
8.0771543417
 30
0.0
 10
7.4197012389
 20
8.0781902762
 30
0.0
 10
7.4159915951
 20
8.0795340099
 30
0.0
 10
7.4123107601
 20
8.0811848293
 30
0.0
 10
7.4073682907
 20
8.0838344579
 30
0.0
 10
7.4012523234
 20
8.0879599326
 30
0.0
 10
7.3941781224
 20
8.0940410849
 30
0.0
 10
7.3872618099
 20
8.1013152379
 30
0.0
 10
7.3805107154
 20
8.1097684279
 30
0.0
 10
7.3739329742
 20
8.1193879773
 30
0.0
 10
7.3675363822
 20
8.1301585706
 30
0.0
 10
7.3613307407
 20
8.1420640244
 30
0.0
 10
7.3553248962
 20
8.1550855598
 30
0.0
 10
7.3495285112
 20
8.1692027443
 30
0.0
 10
7.3439509152
 20
8.1843930269
 30
0.0
 10
7.3386009141
 20
8.2006319252
 30
0.0
 10
7.3334877796
 20
8.217893193
 30
0.0
 10
7.3286193782
 20
8.2361486696
 30
0.0
 10
7.3240044001
 20
8.2553685901
 30
0.0
 10
7.3196499728
 20
8.2755214395
 30
0.0
 10
7.3155637512
 20
8.2965741758
 30
0.0
 10
7.3117523168
 20
8.3184922024
 30
0.0
 10
7.3082220494
 20
8.341239489
 30
0.0
 10
7.3049790025
 20
8.3647785571
 30
0.0
 10
7.3020282115
 20
8.3890706852
 30
0.0
 10
7.2984468288
 20
8.4228258839
 30
0.0
 10
7.2947645432
 20
8.4666084854
 30
0.0
 10
7.2916274388
 20
8.5208597819
 30
0.0
 10
7.2897419665
 20
8.5770907091
 30
0.0
 10
7.2893326595
 20
8.6152018701
 30
0.0
 10
7.2893326595
 20
8.6345206945
 30
0.0
  0
SPLINE
  5
35A
100
AcDbEntity
  8
0
100
AcDbSpline
 62
7
  6
CONTINUOUS
 70
0
 71
3
 72
45
 73
41
 74
0
 42
0.0000001
 43
0.0000001
 44
0.0000000001
 40
0.0
 40
0.0
 40
0.0
 40
0.0
 40
0.0379362917
 40
0.0762771604
 40
0.1149231159
 40
0.1537876459
 40
0.1927851835
 40
0.2318259525
 40
0.2708199873
 40
0.3096783958
 40
0.3483126526
 40
0.3866346377
 40
0.4245571504
 40
0.4619942765
 40
0.4988615048
 40
0.5350759681
 40
0.570556873
 40
0.6052256012
 40
0.6390062364
 40
0.6718254366
 40
0.7036134077
 40
0.7343034803
 40
0.7638333671
 40
0.7921444959
 40
0.8191838559
 40
0.8449030956
 40
0.86926081
 40
0.8922217025
 40
0.9031704015
 40
0.9137607657
 40
0.9239908427
 40
0.9338597505
 40
0.9433673193
 40
0.9525140643
 40
0.9613015275
 40
0.9697327182
 40
0.9778117975
 40
0.9855441981
 40
0.9929371333
 40
1.0
 40
1.0
 40
1.0
 40
1.0
 10
7.1908082194
 20
8.6413533876
 30
0.0
 10
7.1908082194
 20
8.6533006288
 30
0.0
 10
7.190968146
 20
8.6773228025
 30
0.0
 10
7.1916760049
 20
8.7135094445
 30
0.0
 10
7.1928524241
 20
8.749976412
 30
0.0
 10
7.1944940226
 20
8.7866323789
 30
0.0
 10
7.1965970866
 20
8.8233893047
 30
0.0
 10
7.1991561759
 20
8.860158178
 30
0.0
 10
7.2021654704
 20
8.8968489865
 30
0.0
 10
7.2056172611
 20
8.9333722319
 30
0.0
 10
7.2095034029
 20
8.9696389825
 30
0.0
 10
7.2138141697
 20
9.0055609005
 30
0.0
 10
7.2185392365
 20
9.0410504028
 30
0.0
 10
7.2236669014
 20
9.0760210354
 30
0.0
 10
7.2291847254
 20
9.1103875865
 30
0.0
 10
7.2350791713
 20
9.1440663424
 30
0.0
 10
7.2413358067
 20
9.1769752566
 30
0.0
 10
7.2479393969
 20
9.2090342036
 30
0.0
 10
7.2548736361
 20
9.2401651251
 30
0.0
 10
7.262121744
 20
9.2702922481
 30
0.0
 10
7.2696656988
 20
9.299342288
 30
0.0
 10
7.277487353
 20
9.3272446122
 30
0.0
 10
7.285567125
 20
9.3539314623
 30
0.0
 10
7.2938856841
 20
9.3793380416
 30
0.0
 10
7.3024220997
 20
9.4034028372
 30
0.0
 10
7.3111560821
 20
9.4260676884
 30
0.0
 10
7.3200655824
 20
9.4472777802
 30
0.0
 10
7.3277357059
 20
9.4639527292
 30
0.0
 10
7.333957083
 20
9.4765113245
 30
0.0
 10
7.3385794169
 20
9.4853854202
 30
0.0
 10
7.3432295106
 20
9.4938591338
 30
0.0
 10
7.3479044501
 20
9.5019274727
 30
0.0
 10
7.3526013637
 20
9.5095856485
 30
0.0
 10
7.3573174838
 20
9.5168289676
 30
0.0
 10
7.3620501212
 20
9.5236529688
 30
0.0
 10
7.3667963027
 20
9.5300537334
 30
0.0
 10
7.3715531968
 20
9.5360274956
 30
0.0
 10
7.3763181765
 20
9.5415706108
 30
0.0
 10
7.3810884229
 20
9.5466795074
 30
0.0
 10
7.3843431889
 20
9.5498655067
 30
0.0
 10
7.385971415
 20
9.5513808943
 30
0.0
  0
SPLINE
  5
35B
100
AcDbEntity
  8
0
100
AcDbSpline
 62
7
  6
CONTINUOUS
 70
0
 71
3
 72
11
 73
7
 74
0
 42
0.0000001
 43
0.0000001
 44
0.0000000001
 40
0.0
 40
0.0
 40
0.0
 40
0.0
 40
0.2464369184
 40
0.4944390096
 40
0.7451834725
 40
1.0
 40
1.0
 40
1.0
 40
1.0
 10
8.2062305095
 20
9.499264852
 30
0.0
 10
8.2063500389
 20
9.5025448288
 30
0.0
 10
8.2067973784
 20
9.5091201478
 30
0.0
 10
8.2081280136
 20
9.5189627193
 30
0.0
 10
8.2101594968
 20
9.528799376
 30
0.0
 10
8.2119893638
 20
9.535286356
 30
0.0
 10
8.2130269689
 20
9.5385176041
 30
0.0
  0
SPLINE
  5
35C
100
AcDbEntity
  8
0
100
AcDbSpline
 62
7
  6
CONTINUOUS
 70
0
 71
3
 72
11
 73
7
 74
0
 42
0.0000001
 43
0.0000001
 44
0.0000000001
 40
0.0
 40
0.0
 40
0.0
 40
0.0
 40
0.2417916764
 40
0.4884640661
 40
0.7409060817
 40
1.0
 40
1.0
 40
1.0
 40
1.0
 10
8.2130269689
 20
9.5385176041
 30
0.0
 10
8.2138522988
 20
9.5410877976
 30
0.0
 10
8.2156677124
 20
9.5462337679
 30
0.0
 10
8.2188560889
 20
9.5538708882
 30
0.0
 10
8.2225503057
 20
9.5614918473
 30
0.0
 10
8.2253208573
 20
9.5664895163
 30
0.0
 10
8.2267892282
 20
9.5689817376
 30
0.0
  0
SPLINE
  5
35D
100
AcDbEntity
  8
0
100
AcDbSpline
 62
7
  6
CONTINUOUS
 70
0
 71
3
 72
31
 73
27
 74
0
 42
0.0000001
 43
0.0000001
 44
0.0000000001
 40
0.0
 40
0.0
 40
0.0
 40
0.0
 40
0.0162145605
 40
0.0334275518
 40
0.0516718706
 40
0.0709711835
 40
0.0913406218
 40
0.1127897067
 40
0.1353222321
 40
0.1589365193
 40
0.1836277303
 40
0.2093871055
 40
0.2362021405
 40
0.2640584434
 40
0.2929386002
 40
0.3228224584
 40
0.3536886598
 40
0.3855133737
 40
0.4519322811
 40
0.5218580907
 40
0.5950443996
 40
0.6712253821
 40
0.7501162401
 40
0.8314167211
 40
0.9148263365
 40
1.0
 40
1.0
 40
1.0
 40
1.0
 10
7.2861152269
 20
8.1114972143
 30
0.0
 10
7.2842562193
 20
8.1137829793
 30
0.0
 10
7.2805802649
 20
8.1186240506
 30
0.0
 10
7.2753377227
 20
8.1264183037
 30
0.0
 10
7.2702104591
 20
8.1349496904
 30
0.0
 10
7.2652039067
 20
8.1442092377
 30
0.0
 10
7.2603224781
 20
8.1541874737
 30
0.0
 10
7.2555714383
 20
8.1648743396
 30
0.0
 10
7.2509557248
 20
8.1762588804
 30
0.0
 10
7.2464797707
 20
8.1883292053
 30
0.0
 10
7.2421485598
 20
8.2010729076
 30
0.0
 10
7.2379666512
 20
8.2144767177
 30
0.0
 10
7.2339381564
 20
8.2285265742
 30
0.0
 10
7.2300676319
 20
8.2432078687
 30
0.0
 10
7.2263591265
 20
8.2585052079
 30
0.0
 10
7.2228163422
 20
8.2744024903
 30
0.0
 10
7.21944328
 20
8.2908831066
 30
0.0
 10
7.2151151947
 20
8.3139413905
 30
0.0
 10
7.2101799028
 20
8.3441025671
 30
0.0
 10
7.2050662844
 20
8.3818349344
 30
0.0
 10
7.2007025657
 20
8.4214461233
 30
0.0
 10
7.1971073965
 20
8.462769366
 30
0.0
 10
7.1942963564
 20
8.5056307013
 30
0.0
 10
7.1922815371
 20
8.5498515044
 30
0.0
 10
7.1910721051
 20
8.5952433576
 30
0.0
 10
7.1908082194
 20
8.6258767793
 30
0.0
 10
7.1908082194
 20
8.6413533876
 30
0.0
  0
SPLINE
  5
35E
100
AcDbEntity
  8
0
100
AcDbSpline
 62
7
  6
CONTINUOUS
 70
0
 71
3
 72
13
 73
9
 74
0
 42
0.0000001
 43
0.0000001
 44
0.0000000001
 40
0.0
 40
0.0
 40
0.0
 40
0.0
 40
0.2425903112
 40
0.3659070907
 40
0.4904799381
 40
0.6162452816
 40
0.7431372665
 40
1.0
 40
1.0
 40
1.0
 40
1.0
 10
8.8943744452
 20
8.2422243154
 30
0.0
 10
8.8873292984
 20
8.2568357919
 30
0.0
 10
8.8759708283
 20
8.2785292178
 30
0.0
 10
8.8595385831
 20
8.3069150292
 30
0.0
 10
8.846452996
 20
8.3282030197
 30
0.0
 10
8.8327203467
 20
8.3493641436
 30
0.0
 10
8.8135295221
 20
8.3775177302
 30
0.0
 10
8.798410002
 20
8.3982614708
 30
0.0
 10
8.7880485536
 20
8.4119597232
 30
0.0
  0
SPLINE
  5
35F
100
AcDbEntity
  8
0
100
AcDbSpline
 62
7
  6
CONTINUOUS
 70
0
 71
3
 72
26
 73
22
 74
0
 42
0.0000001
 43
0.0000001
 44
0.0000000001
 40
0.0
 40
0.0
 40
0.0
 40
0.0
 40
0.1232094174
 40
0.1849745086
 40
0.2468573045
 40
0.3088673115
 40
0.3399237268
 40
0.3710151144
 40
0.4021419355
 40
0.4333048834
 40
0.4957378498
 40
0.5583173034
 40
0.5896625766
 40
0.6210433665
 40
0.6524589847
 40
0.6839083828
 40
0.7469028116
 40
0.8100195826
 40
0.8732481922
 40
0.9365791369
 40
1.0
 40
1.0
 40
1.0
 40
1.0
 10
8.0666249116
 20
8.5764095136
 30
0.0
 10
8.0623505013
 20
8.6113704138
 30
0.0
 10
8.0572134341
 20
8.664031288
 30
0.0
 10
8.0533941501
 20
8.7345038832
 30
0.0
 10
8.0521574512
 20
8.7875717078
 30
0.0
 10
8.0525773646
 20
8.8318732866
 30
0.0
 10
8.0538269603
 20
8.8673451409
 30
0.0
 10
8.0552324094
 20
8.8939734238
 30
0.0
 10
8.0571118615
 20
8.9206030366
 30
0.0
 10
8.060261419
 20
8.9561191073
 30
0.0
 10
8.0654126723
 20
9.0004765226
 30
0.0
 10
8.0721820517
 20
9.0446685834
 30
0.0
 10
8.078555704
 20
9.0799190089
 30
0.0
 10
8.083813242
 20
9.1063137084
 30
0.0
 10
8.0895356221
 20
9.1326419411
 30
0.0
 10
8.0977782046
 20
9.1676653216
 30
0.0
 10
8.1091942735
 20
9.2112446361
 30
0.0
 10
8.1245611144
 20
9.2631515102
 30
0.0
 10
8.1414837534
 20
9.3146726896
 30
0.0
 10
8.1598370509
 20
9.3657925467
 30
0.0
 10
8.172934148
 20
9.3995809141
 30
0.0
 10
8.1796795369
 20
9.4164091349
 30
0.0
  0
SPLINE
  5
360
100
AcDbEntity
  8
0
100
AcDbSpline
 62
7
  6
CONTINUOUS
 70
0
 71
3
 72
12
 73
8
 74
0
 42
0.0000001
 43
0.0000001
 44
0.0000000001
 40
0.0
 40
0.0
 40
0.0
 40
0.0
 40
0.2508122493
 40
0.5011556829
 40
0.7509159383
 40
0.8755523835
 40
1.0
 40
1.0
 40
1.0
 40
1.0
 10
8.7880485536
 20
8.5263786141
 30
0.0
 10
8.7984794633
 20
8.5437055537
 30
0.0
 10
8.8186983391
 20
8.5787084637
 30
0.0
 10
8.8468088358
 20
8.6323586175
 30
0.0
 10
8.8680938494
 20
8.6780429157
 30
0.0
 10
8.8836398412
 20
8.7151462792
 30
0.0
 10
8.890888997
 20
8.7338810426
 30
0.0
 10
8.8943744479
 20
8.7432912042
 30
0.0
  0
SPLINE
  5
361
100
AcDbEntity
  8
0
100
AcDbSpline
 62
7
  6
CONTINUOUS
 70
0
 71
3
 72
18
 73
14
 74
0
 42
0.0000001
 43
0.0000001
 44
0.0000000001
 40
0.0
 40
0.0
 40
0.0
 40
0.0
 40
0.1504461272
 40
0.2916986442
 40
0.4244448252
 40
0.4879154645
 40
0.5496152408
 40
0.6682647181
 40
0.7817873209
 40
0.8371365586
 40
0.8918066889
 40
0.9460187701
 40
1.0
 40
1.0
 40
1.0
 40
1.0
 10
7.4826703266
 20
9.5428171864
 30
0.0
 10
7.4847818455
 20
9.5448567572
 30
0.0
 10
7.4890025169
 20
9.5486838193
 30
0.0
 10
7.4955379794
 20
9.5537842995
 30
0.0
 10
7.5010585178
 20
9.5573922328
 30
0.0
 10
7.5054608539
 20
9.5598351662
 30
0.0
 10
7.5097332987
 20
9.5619323429
 30
0.0
 10
7.5150750893
 20
9.5640514286
 30
0.0
 10
7.5205119003
 20
9.5654974738
 30
0.0
 10
7.5248180734
 20
9.5662096953
 30
0.0
 10
7.5280095764
 20
9.5665258834
 30
0.0
 10
7.5311881885
 20
9.5666281217
 30
0.0
 10
7.5332999915
 20
9.5665535041
 30
0.0
 10
7.5343508227
 20
9.5664806537
 30
0.0
  0
SPLINE
  5
362
100
AcDbEntity
  8
0
100
AcDbSpline
 62
7
  6
CONTINUOUS
 70
0
 71
3
 72
23
 73
19
 74
0
 42
0.0000001
 43
0.0000001
 44
0.0000000001
 40
0.0
 40
0.0
 40
0.0
 40
0.0
 40
0.0777337953
 40
0.1514344043
 40
0.2213397989
 40
0.2877430015
 40
0.351011961
 40
0.4115878239
 40
0.4699792938
 40
0.5267605007
 40
0.5825594199
 40
0.638039607
 40
0.6938779703
 40
0.7507375868
 40
0.8092433978
 40
0.869965859
 40
0.9334074637
 40
1.0
 40
1.0
 40
1.0
 40
1.0
 10
7.4923295854
 20
9.5324880557
 30
0.0
 10
7.4940979626
 20
9.534196177
 30
0.0
 10
7.4976332301
 20
9.53743239
 30
0.0
 10
7.5030802634
 20
9.5418375249
 30
0.0
 10
7.5085220076
 20
9.545656477
 30
0.0
 10
7.5139544243
 20
9.5488843901
 30
0.0
 10
7.5193735786
 20
9.5515176284
 30
0.0
 10
7.5247755489
 20
9.5535531415
 30
0.0
 10
7.5301563097
 20
9.554987367
 30
0.0
 10
7.5355108266
 20
9.5558171353
 30
0.0
 10
7.5408330802
 20
9.5560406312
 30
0.0
 10
7.5461164977
 20
9.5556565879
 30
0.0
 10
7.551354116
 20
9.5546649205
 30
0.0
 10
7.5565395971
 20
9.553068291
 30
0.0
 10
7.5616675233
 20
9.550869952
 30
0.0
 10
7.5667331973
 20
9.5480731221
 30
0.0
 10
7.5717325838
 20
9.5446823743
 30
0.0
 10
7.574936462
 20
9.5420955249
 30
0.0
 10
7.5765256022
 20
9.5407131783
 30
0.0
  0
SPLINE
  5
363
100
AcDbEntity
  8
0
100
AcDbSpline
 62
7
  6
CONTINUOUS
 70
0
 71
3
 72
90
 73
86
 74
0
 42
0.0000001
 43
0.0000001
 44
0.0000000001
 40
0.0
 40
0.0
 40
0.0
 40
0.0
 40
0.0041518056
 40
0.0084911315
 40
0.0130221212
 40
0.0177480598
 40
0.0226715208
 40
0.0277944948
 40
0.0331184285
 40
0.0386442968
 40
0.0443725479
 40
0.0503028828
 40
0.0627661984
 40
0.0760258602
 40
0.0900672626
 40
0.1048721045
 40
0.1204177525
 40
0.136678867
 40
0.1536267048
 40
0.1712304568
 40
0.1894564979
 40
0.2082695713
 40
0.2276320862
 40
0.2475051477
 40
0.2678479308
 40
0.2886185703
 40
0.3097736359
 40
0.3312688872
 40
0.3530588656
 40
0.375097515
 40
0.3973378999
 40
0.4197326895
 40
0.4422340064
 40
0.4647937746
 40
0.4873637019
 40
0.5098954924
 40
0.532340963
 40
0.5546521225
 40
0.5767814218
 40
0.5986817019
 40
0.6203065747
 40
0.6416102472
 40
0.6625480287
 40
0.6830760388
 40
0.7031518377
 40
0.7227340289
 40
0.7417830107
 40
0.7602604892
 40
0.7781303494
 40
0.7953581032
 40
0.8119118864
 40
0.8277618771
 40
0.8428814401
 40
0.8572465757
 40
0.8708372614
 40
0.8836370397
 40
0.8956346694
 40
0.9013308621
 40
0.9068248891
 40
0.9121171225
 40
0.9172083563
 40
0.9221000527
 40
0.9267944819
 40
0.9312945792
 40
0.9356040458
 40
0.9397276477
 40
0.9436714014
 40
0.9474425145
 40
0.9510495628
 40
0.9545028279
 40
0.9578144915
 40
0.9609986109
 40
0.9640712438
 40
0.9670505871
 40
0.9699568602
 40
0.9728119498
 40
0.9756390409
 40
0.9784620983
 40
0.9813051654
 40
0.9841917213
 40
0.9871441466
 40
0.9901832675
 40
0.9933280073
 40
0.9965952807
 40
1.0
 40
1.0
 40
1.0
 40
1.0
 10
7.4923295854
 20
9.5324880557
 30
0.0
 10
7.4907767323
 20
9.5309881147
 30
0.0
 10
7.4876728325
 20
9.5278453034
 30
0.0
 10
7.4831204486
 20
9.5228299513
 30
0.0
 10
7.4785729959
 20
9.5174141187
 30
0.0
 10
7.4740335633
 20
9.5116012732
 30
0.0
 10
7.4695050444
 20
9.5053947132
 30
0.0
 10
7.4649898396
 20
9.4987981682
 30
0.0
 10
7.4604903452
 20
9.4918153
 30
0.0
 10
7.4560090247
 20
9.4844498359
 30
0.0
 10
7.4515483889
 20
9.4767057637
 30
0.0
 10
7.44553174
 20
9.4656983216
 30
0.0
 10
7.4380974953
 20
9.4510075518
 30
0.0
 10
7.4294406889
 20
9.432224771
 30
0.0
 10
7.4209252757
 20
9.41204926
 30
0.0
 10
7.4125714318
 20
9.3905265423
 30
0.0
 10
7.4043975471
 20
9.3677052092
 30
0.0
 10
7.3964230636
 20
9.3436368503
 30
0.0
 10
7.3886656074
 20
9.3183761387
 30
0.0
 10
7.3811436077
 20
9.291980404
 30
0.0
 10
7.3738737119
 20
9.264509731
 30
0.0
 10
7.3668731868
 20
9.2360266192
 30
0.0
 10
7.3601575171
 20
9.2065959765
 30
0.0
 10
7.3537426484
 20
9.1762848472
 30
0.0
 10
7.3476427483
 20
9.1451623421
 30
0.0
 10
7.3418723097
 20
9.1132994087
 30
0.0
 10
7.3364440434
 20
9.080768723
 30
0.0
 10
7.3313708709
 20
9.0476444729
 30
0.0
 10
7.3266639214
 20
9.0140022323
 30
0.0
 10
7.322334439
 20
8.9799187406
 30
0.0
 10
7.3183918613
 20
8.9454717754
 30
0.0
 10
7.3148456626
 20
8.9107399177
 30
0.0
 10
7.3117034947
 20
8.8758024358
 30
0.0
 10
7.3089729855
 20
8.8407390298
 30
0.0
 10
7.3066599232
 20
8.8056297338
 30
0.0
 10
7.3047700283
 20
8.7705546358
 30
0.0
 10
7.3033071641
 20
8.7355938033
 30
0.0
 10
7.3022750996
 20
8.7008269777
 30
0.0
 10
7.3016757292
 20
8.6663335265
 30
0.0
 10
7.3015108434
 20
8.6321921136
 30
0.0
 10
7.3017803408
 20
8.5984806777
 30
0.0
 10
7.302484024
 20
8.5652760847
 30
0.0
 10
7.3036197862
 20
8.5326541269
 30
0.0
 10
7.3051854507
 20
8.5006891664
 30
0.0
 10
7.3071769124
 20
8.4694541484
 30
0.0
 10
7.3095900419
 20
8.4390202462
 30
0.0
 10
7.31241876
 20
8.4094568771
 30
0.0
 10
7.3156570292
 20
8.3808313648
 30
0.0
 10
7.3192968375
 20
8.3532089414
 30
0.0
 10
7.323330303
 20
8.3266524475
 30
0.0
 10
7.3277475404
 20
8.301222294
 30
0.0
 10
7.3325389111
 20
8.276976231
 30
0.0
 10
7.337692741
 20
8.2539692181
 30
0.0
 10
7.3431977586
 20
8.232253348
 30
0.0
 10
7.3490406309
 20
8.2118774037
 30
0.0
 10
7.3552086628
 20
8.1928875516
 30
0.0
 10
7.3606981782
 20
8.1780054981
 30
0.0
 10
7.365258311
 20
8.1668420879
 30
0.0
 10
7.3686914921
 20
8.1589876933
 30
0.0
 10
7.3721950496
 20
8.1515103649
 30
0.0
 10
7.3757671802
 20
8.1444144007
 30
0.0
 10
7.3794059478
 20
8.137703829
 30
0.0
 10
7.3831091885
 20
8.1313822595
 30
0.0
 10
7.3868748673
 20
8.1254531813
 30
0.0
 10
7.3907010793
 20
8.1199200288
 30
0.0
 10
7.3945858679
 20
8.1147859512
 30
0.0
 10
7.3985270558
 20
8.1100536417
 30
0.0
 10
7.4025226441
 20
8.1057257332
 30
0.0
 10
7.4065707937
 20
8.1018049042
 30
0.0
 10
7.4106695978
 20
8.0982936046
 30
0.0
 10
7.4148169269
 20
8.0951938392
 30
0.0
 10
7.4190107795
 20
8.0925077158
 30
0.0
 10
7.4232491587
 20
8.0902375608
 30
0.0
 10
7.4275297679
 20
8.0883854976
 30
0.0
 10
7.431849905
 20
8.0869530908
 30
0.0
 10
7.4362066983
 20
8.085941914
 30
0.0
 10
7.4405969757
 20
8.0853534807
 30
0.0
 10
7.4450172049
 20
8.0851885222
 30
0.0
 10
7.4494637902
 20
8.085446669
 30
0.0
 10
7.4539333063
 20
8.0861273223
 30
0.0
 10
7.4584225206
 20
8.0872296948
 30
0.0
 10
7.462928497
 20
8.0887524494
 30
0.0
 10
7.4674488125
 20
8.0906937912
 30
0.0
 10
7.4719809531
 20
8.0930519648
 30
0.0
 10
7.4749444572
 20
8.0948617373
 30
0.0
 10
7.4764263676
 20
8.0958305283
 30
0.0
  0
SPLINE
  5
364
100
AcDbEntity
  8
0
100
AcDbSpline
 62
7
  6
CONTINUOUS
 70
0
 71
3
 72
23
 73
19
 74
0
 42
0.0000001
 43
0.0000001
 44
0.0000000001
 40
0.0
 40
0.0
 40
0.0
 40
0.0
 40
0.0784572649
 40
0.1534031432
 40
0.2250068351
 40
0.2934702731
 40
0.3590360563
 40
0.4219989505
 40
0.4826984116
 40
0.5415169907
 40
0.5988790333
 40
0.6552449802
 40
0.7111011872
 40
0.7669484423
 40
0.8232886707
 40
0.8806095041
 40
0.939371528
 40
1.0
 40
1.0
 40
1.0
 40
1.0
 10
7.4923295854
 20
9.5122036122
 30
0.0
 10
7.4938118866
 20
9.5136354052
 30
0.0
 10
7.49677559
 20
9.5163683836
 30
0.0
 10
7.5013246587
 20
9.5201461764
 30
0.0
 10
7.5058703412
 20
9.5235037365
 30
0.0
 10
7.5104097364
 20
9.5264382175
 30
0.0
 10
7.5149404311
 20
9.5289469115
 30
0.0
 10
7.5194597704
 20
9.531028045
 30
0.0
 10
7.5239653386
 20
9.5326799392
 30
0.0
 10
7.5284545861
 20
9.5339007839
 30
0.0
 10
7.5329246189
 20
9.534688716
 30
0.0
 10
7.53737203
 20
9.5350428324
 30
0.0
 10
7.5417931949
 20
9.5349624768
 30
0.0
 10
7.5461843254
 20
9.5344473483
 30
0.0
 10
7.550541532
 20
9.5334976566
 30
0.0
 10
7.5548614284
 20
9.5321150143
 30
0.0
 10
7.5591405966
 20
9.5303014138
 30
0.0
 10
7.561915911
 20
9.5288319167
 30
0.0
 10
7.5632928494
 20
9.528031726
 30
0.0
  0
SPLINE
  5
365
100
AcDbEntity
  8
0
100
AcDbSpline
 62
7
  6
CONTINUOUS
 70
0
 71
3
 72
15
 73
11
 74
0
 42
0.0000001
 43
0.0000001
 44
0.0000000001
 40
0.0
 40
0.0
 40
0.0
 40
0.0
 40
0.1498019901
 40
0.2908038304
 40
0.4236271714
 40
0.5490618913
 40
0.6681168558
 40
0.7820003535
 40
0.8921089719
 40
1.0
 40
1.0
 40
1.0
 40
1.0
 10
7.5077843996
 20
9.495677003
 30
0.0
 10
7.5096870364
 20
9.4975148092
 30
0.0
 10
7.5134903254
 20
9.5009717357
 30
0.0
 10
7.5193723815
 20
9.5056045019
 30
0.0
 10
7.5252478215
 20
9.509516804
 30
0.0
 10
7.5311115474
 20
9.5127016765
 30
0.0
 10
7.5369580541
 20
9.5151541434
 30
0.0
 10
7.5427822708
 20
9.5168690489
 30
0.0
 10
7.548576198
 20
9.5178406743
 30
0.0
 10
7.5524354508
 20
9.5179913047
 30
0.0
 10
7.5543399899
 20
9.5179410561
 30
0.0
  0
SPLINE
  5
366
100
AcDbEntity
  8
0
100
AcDbSpline
 62
7
  6
CONTINUOUS
 70
0
 71
3
 72
18
 73
14
 74
0
 42
0.0000001
 43
0.0000001
 44
0.0000000001
 40
0.0
 40
0.0
 40
0.0
 40
0.0
 40
0.1504461272
 40
0.2916986442
 40
0.4244448252
 40
0.4879154645
 40
0.5496152408
 40
0.6682647181
 40
0.7817873209
 40
0.8371365586
 40
0.8918066889
 40
0.9460187701
 40
1.0
 40
1.0
 40
1.0
 40
1.0
 10
7.5753992114
 20
9.5363864164
 30
0.0
 10
7.5775107303
 20
9.5384259872
 30
0.0
 10
7.5817314018
 20
9.5422530493
 30
0.0
 10
7.5882668642
 20
9.5473535295
 30
0.0
 10
7.5937874026
 20
9.5509614628
 30
0.0
 10
7.5981897387
 20
9.5534043962
 30
0.0
 10
7.6024621835
 20
9.5555015729
 30
0.0
 10
7.6078039741
 20
9.5576206586
 30
0.0
 10
7.6132407851
 20
9.5590667038
 30
0.0
 10
7.6175469582
 20
9.5597789253
 30
0.0
 10
7.6207384612
 20
9.5600951134
 30
0.0
 10
7.6239170733
 20
9.5601973517
 30
0.0
 10
7.6260288763
 20
9.5601227341
 30
0.0
 10
7.6270797075
 20
9.5600498837
 30
0.0
  0
SPLINE
  5
367
100
AcDbEntity
  8
0
100
AcDbSpline
 62
7
  6
CONTINUOUS
 70
0
 71
3
 72
41
 73
37
 74
0
 42
0.0000001
 43
0.0000001
 44
0.0000000001
 40
0.0
 40
0.0
 40
0.0
 40
0.0
 40
0.0378096202
 40
0.0760199482
 40
0.1145335628
 40
0.1532656603
 40
0.2310414864
 40
0.3086457531
 40
0.385378812
 40
0.4232031505
 40
0.4605520951
 40
0.4973424303
 40
0.5334922927
 40
0.5689221075
 40
0.6035540565
 40
0.6373132885
 40
0.6701271793
 40
0.701926741
 40
0.7326458487
 40
0.7622226663
 40
0.7905991082
 40
0.8177221104
 40
0.8435435825
 40
0.8680214174
 40
0.8911203675
 40
0.9128128465
 40
0.9231261482
 40
0.9330818645
 40
0.9426792478
 40
0.951918724
 40
0.9608019428
 40
0.96933143
 40
0.977510712
 40
0.9853443817
 40
0.9928383208
 40
1.0
 40
1.0
 40
1.0
 40
1.0
 10
7.2893326595
 20
8.6345206945
 30
0.0
 10
7.2893326595
 20
8.6463962777
 30
0.0
 10
7.289490651
 20
8.6702735783
 30
0.0
 10
7.2901901127
 20
8.7062414075
 30
0.0
 10
7.2913525185
 20
8.7424872445
 30
0.0
 10
7.2935184474
 20
8.7911306064
 30
0.0
 10
7.2973560472
 20
8.851984948
 30
0.0
 10
7.3037233783
 20
8.9246174885
 30
0.0
 10
7.3104837194
 20
8.9846006485
 30
0.0
 10
7.3167417148
 20
9.0319016937
 30
0.0
 10
7.3218118393
 20
9.0667019077
 30
0.0
 10
7.3272681736
 20
9.100911174
 30
0.0
 10
7.3330979281
 20
9.1344472036
 30
0.0
 10
7.339286603
 20
9.1672292711
 30
0.0
 10
7.3458196777
 20
9.1991784846
 30
0.0
 10
7.3526808818
 20
9.2302179978
 30
0.0
 10
7.3598540941
 20
9.2602731406
 30
0.0
 10
7.3673214826
 20
9.2892716899
 30
0.0
 10
7.3750654109
 20
9.3171439437
 30
0.0
 10
7.3830667285
 20
9.3438230269
 30
0.0
 10
7.391306388
 20
9.3692449248
 30
0.0
 10
7.3997641923
 20
9.3933488046
 30
0.0
 10
7.4084198171
 20
9.416077006
 30
0.0
 10
7.4172522898
 20
9.4373755081
 30
0.0
 10
7.4262402577
 20
9.4571934403
 30
0.0
 10
7.4339667119
 20
9.4726865189
 30
0.0
 10
7.4402239914
 20
9.4842871254
 30
0.0
 10
7.4448630536
 20
9.4924414596
 30
0.0
 10
7.449524773
 20
9.500191889
 30
0.0
 10
7.454206483
 20
9.5075338637
 30
0.0
 10
7.4589054062
 20
9.5144632547
 30
0.0
 10
7.4636189063
 20
9.5209760766
 30
0.0
 10
7.4683443877
 20
9.5270682473
 30
0.0
 10
7.4730787769
 20
9.5327360893
 30
0.0
 10
7.477818661
 20
9.5379758236
 30
0.0
 10
7.4810524324
 20
9.5412544205
 30
0.0
 10
7.4826703266
 20
9.5428171864
 30
0.0
  0
SPLINE
  5
368
100
AcDbEntity
  8
0
100
AcDbSpline
 62
7
  6
CONTINUOUS
 70
0
 71
3
 72
81
 73
77
 74
0
 42
0.0000001
 43
0.0000001
 44
0.0000000001
 40
0.0
 40
0.0
 40
0.0
 40
0.0
 40
0.004096374
 40
0.0083737365
 40
0.0128360222
 40
0.0174863664
 40
0.0223272323
 40
0.0273605314
 40
0.0325876689
 40
0.0380096039
 40
0.0494387138
 40
0.0616461988
 40
0.0746240015
 40
0.0883590063
 40
0.1028344316
 40
0.1180297189
 40
0.1339213307
 40
0.1504829737
 40
0.1676858607
 40
0.1854991372
 40
0.2038897427
 40
0.2228230797
 40
0.2422626021
 40
0.2621706223
 40
0.2825077595
 40
0.3032337839
 40
0.345684428
 40
0.3891811276
 40
0.4333703555
 40
0.4778913238
 40
0.5223797913
 40
0.5664718533
 40
0.6098077346
 40
0.6310821689
 40
0.6520364997
 40
0.6726285628
 40
0.6928173497
 40
0.7125627335
 40
0.7318261415
 40
0.7505700209
 40
0.7687587867
 40
0.7863580694
 40
0.8033358871
 40
0.8196617815
 40
0.8353081202
 40
0.8502492835
 40
0.8644629956
 40
0.877929763
 40
0.8906341736
 40
0.902564828
 40
0.9082382049
 40
0.9137164108
 40
0.9189995975
 40
0.9240883509
 40
0.9289839786
 40
0.9336883635
 40
0.9382039572
 40
0.9425339077
 40
0.9466823912
 40
0.9506546018
 40
0.954456756
 40
0.9580962665
 40
0.9615820808
 40
0.9649248048
 40
0.9681366993
 40
0.9712318233
 40
0.9742262097
 40
0.9771378574
 40
0.9799864603
 40
0.982793156
 40
0.9855801543
 40
0.9883701754
 40
0.9911858224
 40
0.9940490453
 40
0.9969806746
 40
1.0
 40
1.0
 40
1.0
 40
1.0
 10
7.4923295854
 20
9.5122036122
 30
0.0
 10
7.4908548758
 20
9.5107791519
 30
0.0
 10
7.487907071
 20
9.5077975255
 30
0.0
 10
7.4835814357
 20
9.5030450455
 30
0.0
 10
7.4792602098
 20
9.4979202039
 30
0.0
 10
7.4749461919
 20
9.4924261818
 30
0.0
 10
7.4706420739
 20
9.4865659565
 30
0.0
 10
7.4663501318
 20
9.4803429026
 30
0.0
 10
7.4620724754
 20
9.4737603999
 30
0.0
 10
7.4562891043
 20
9.464342778
 30
0.0
 10
7.4491287265
 20
9.4516768301
 30
0.0
 10
7.4407733127
 20
9.4353611565
 30
0.0
 10
7.4325292559
 20
9.4177067851
 30
0.0
 10
7.424414025
 20
9.3987520908
 30
0.0
 10
7.4164456566
 20
9.3785376082
 30
0.0
 10
7.4086413044
 20
9.3571070536
 30
0.0
 10
7.4010182357
 20
9.3345067717
 30
0.0
 10
7.393593137
 20
9.3107858224
 30
0.0
 10
7.3863822294
 20
9.2859957428
 30
0.0
 10
7.3794014942
 20
9.2601904601
 30
0.0
 10
7.3726659991
 20
9.2334261667
 30
0.0
 10
7.3661908449
 20
9.2057611666
 30
0.0
 10
7.3599898343
 20
9.1772557668
 30
0.0
 10
7.3540770184
 20
9.1479721209
 30
0.0
 10
7.3484648181
 20
9.1179740566
 30
0.0
 10
7.3413433046
 20
9.0767834573
 30
0.0
 10
7.3333002759
 20
9.0239936574
 30
0.0
 10
7.3250984272
 20
8.9593694086
 30
0.0
 10
7.3183434364
 20
8.8935361815
 30
0.0
 10
7.3130945115
 20
8.8270680611
 30
0.0
 10
7.3093974915
 20
8.7605441935
 30
0.0
 10
7.3072845751
 20
8.6945447455
 30
0.0
 10
7.3068558702
 20
8.6401322826
 30
0.0
 10
7.3073335905
 20
8.5973068568
 30
0.0
 10
7.308092731
 20
8.5658717861
 30
0.0
 10
7.3092533499
 20
8.5349927422
 30
0.0
 10
7.3108125272
 20
8.504737078
 30
0.0
 10
7.3127672519
 20
8.4751707685
 30
0.0
 10
7.3151126823
 20
8.4463583433
 30
0.0
 10
7.317844198
 20
8.4183625773
 30
0.0
 10
7.3209551473
 20
8.391244544
 30
0.0
 10
7.32443929
 20
8.3650632771
 30
0.0
 10
7.3282882675
 20
8.3398758235
 30
0.0
 10
7.3324942214
 20
8.3157369449
 30
0.0
 10
7.337047218
 20
8.2926991167
 30
0.0
 10
7.341937797
 20
8.2708123015
 30
0.0
 10
7.3471546158
 20
8.2501238973
 30
0.0
 10
7.3526866615
 20
8.2306784529
 30
0.0
 10
7.3585214294
 20
8.2125180581
 30
0.0
 10
7.3637089332
 20
8.1982574944
 30
0.0
 10
7.3680156609
 20
8.1875360837
 30
0.0
 10
7.3712591242
 20
8.179975648
 30
0.0
 10
7.3745685365
 20
8.1727645359
 30
0.0
 10
7.3779423272
 20
8.1659067327
 30
0.0
 10
7.3813785491
 20
8.1594058325
 30
0.0
 10
7.3848753327
 20
8.1532652164
 30
0.0
 10
7.3884308407
 20
8.1474881987
 30
0.0
 10
7.3920434064
 20
8.1420780261
 30
0.0
 10
7.3957111032
 20
8.1370375245
 30
0.0
 10
7.3994319995
 20
8.1323692428
 30
0.0
 10
7.4032042657
 20
8.1280756898
 30
0.0
 10
7.4070262441
 20
8.12415941
 30
0.0
 10
7.4108961312
 20
8.1206226264
 30
0.0
 10
7.4148119977
 20
8.1174672067
 30
0.0
 10
7.4187720385
 20
8.1146951
 30
0.0
 10
7.4227744817
 20
8.1123084186
 30
0.0
 10
7.4268173794
 20
8.1103091728
 30
0.0
 10
7.4308984081
 20
8.1086988228
 30
0.0
 10
7.4350151494
 20
8.1074789017
 30
0.0
 10
7.4391649291
 20
8.1066508958
 30
0.0
 10
7.4433447556
 20
8.1062160335
 30
0.0
 10
7.4475513881
 20
8.1061743277
 30
0.0
 10
7.4517816384
 20
8.1065255245
 30
0.0
 10
7.4560325502
 20
8.1072691129
 30
0.0
 10
7.4603009265
 20
8.1084042804
 30
0.0
 10
7.4631103944
 20
8.1094047099
 30
0.0
 10
7.4645138754
 20
8.1099651523
 30
0.0
  0
SPLINE
  5
369
100
AcDbEntity
  8
0
100
AcDbSpline
 62
7
  6
CONTINUOUS
 70
0
 71
3
 72
76
 73
72
 74
0
 42
0.0000001
 43
0.0000001
 44
0.0000000001
 40
0.0
 40
0.0
 40
0.0
 40
0.0
 40
0.0039784984
 40
0.0081251531
 40
0.0124435086
 40
0.0169364194
 40
0.0216061527
 40
0.0264544946
 40
0.0366912139
 40
0.0476537589
 40
0.0593412889
 40
0.0717475507
 40
0.0848622127
 40
0.098671165
 40
0.1131575556
 40
0.1283012129
 40
0.1440800998
 40
0.1604694094
 40
0.1774429035
 40
0.1949720965
 40
0.2130272036
 40
0.2315767582
 40
0.2505880035
 40
0.2700270147
 40
0.2898585888
 40
0.3100467583
 40
0.3305543791
 40
0.3513438027
 40
0.3723764246
 40
0.415013989
 40
0.4581498913
 40
0.5014614404
 40
0.5446242779
 40
0.5873154613
 40
0.629216554
 40
0.6700167422
 40
0.6899101762
 40
0.7094169055
 40
0.7285016642
 40
0.7471303247
 40
0.7652698067
 40
0.7828886469
 40
0.7999564455
 40
0.816444896
 40
0.8323269182
 40
0.847577916
 40
0.8621749544
 40
0.8760978956
 40
0.889329039
 40
0.9018538605
 40
0.9136614569
 40
0.9247448319
 40
0.9351023651
 40
0.9400102809
 40
0.9447388849
 40
0.9492899264
 40
0.9536656501
 40
0.9578689121
 40
0.9619034694
 40
0.9657739313
 40
0.9694857728
 40
0.9730454723
 40
0.9764607843
 40
0.9797408829
 40
0.9828963274
 40
0.9859391791
 40
0.9888831327
 40
0.9917436112
 40
0.9945375551
 40
0.9972832355
 40
1.0
 40
1.0
 40
1.0
 40
1.0
 10
7.5077843996
 20
9.495677003
 30
0.0
 10
7.5064064736
 20
9.4943460286
 30
0.0
 10
7.5036519716
 20
9.4915655743
 30
0.0
 10
7.4996060723
 20
9.4871440228
 30
0.0
 10
7.4955638771
 20
9.4823890215
 30
0.0
 10
7.4915278003
 20
9.477303311
 30
0.0
 10
7.4875001135
 20
9.4718894389
 30
0.0
 10
7.4820447737
 20
9.4640952864
 30
0.0
 10
7.4752751371
 20
9.4535293458
 30
0.0
 10
7.467357362
 20
9.4398094097
 30
0.0
 10
7.4595191236
 20
9.4248541157
 30
0.0
 10
7.4517761298
 20
9.4086928173
 30
0.0
 10
7.4441439571
 20
9.3913570537
 30
0.0
 10
7.4366374371
 20
9.3728810504
 30
0.0
 10
7.4292720661
 20
9.3533011725
 30
0.0
 10
7.4220619955
 20
9.3326562979
 30
0.0
 10
7.4150223688
 20
9.3109873172
 30
0.0
 10
7.4081666531
 20
9.288337401
 30
0.0
 10
7.4015092045
 20
9.2647515663
 30
0.0
 10
7.3950628888
 20
9.2402768501
 30
0.0
 10
7.3888410057
 20
9.2149620071
 30
0.0
 10
7.3828558253
 20
9.1888575494
 30
0.0
 10
7.3771194092
 20
9.1620155461
 30
0.0
 10
7.371643354
 20
9.1344895724
 30
0.0
 10
7.366438407
 20
9.1063345752
 30
0.0
 10
7.3615153442
 20
9.0776067582
 30
0.0
 10
7.3568836091
 20
9.0483635057
 30
0.0
 10
7.3525529151
 20
9.0186631603
 30
0.0
 10
7.3471669
 20
8.9783506698
 30
0.0
 10
7.3412559478
 20
8.9272560172
 30
0.0
 10
7.3355141361
 20
8.8653582727
 30
0.0
 10
7.3311382885
 20
8.8030952882
 30
0.0
 10
7.328163247
 20
8.7409640779
 30
0.0
 10
7.3266125365
 20
8.6794601495
 30
0.0
 10
7.3264982338
 20
8.6190744209
 30
0.0
 10
7.3276089652
 20
8.5696786272
 30
0.0
 10
7.3292347896
 20
8.5310929557
 30
0.0
 10
7.3308000027
 20
8.5029732714
 30
0.0
 10
7.3327180384
 20
8.4754859044
 30
0.0
 10
7.3349848631
 20
8.4486856846
 30
0.0
 10
7.3375962179
 20
8.4226260847
 30
0.0
 10
7.3405463661
 20
8.39735912
 30
0.0
 10
7.3438298992
 20
8.3729351428
 30
0.0
 10
7.3474395675
 20
8.3494028617
 30
0.0
 10
7.3513686937
 20
8.3268091141
 30
0.0
 10
7.3556087606
 20
8.3051988662
 30
0.0
 10
7.3601516824
 20
8.2846150389
 30
0.0
 10
7.3649879496
 20
8.2650984539
 30
0.0
 10
7.3701079805
 20
8.2466876846
 30
0.0
 10
7.3755015377
 20
8.2294190625
 30
0.0
 10
7.3811575934
 20
8.2133262409
 30
0.0
 10
7.3870654254
 20
8.1984410512
 30
0.0
 10
7.3922777722
 20
8.1868671753
 30
0.0
 10
7.3965789689
 20
8.1782524251
 30
0.0
 10
7.3998023703
 20
8.1722278032
 30
0.0
 10
7.4030796761
 20
8.1665260054
 30
0.0
 10
7.4064093667
 20
8.1611498634
 30
0.0
 10
7.4097900001
 20
8.1561021564
 30
0.0
 10
7.4132198969
 20
8.1513852774
 30
0.0
 10
7.4166974041
 20
8.1470014139
 30
0.0
 10
7.4202209392
 20
8.1429527244
 30
0.0
 10
7.4237890458
 20
8.1392413902
 30
0.0
 10
7.427400199
 20
8.1358693712
 30
0.0
 10
7.4310527042
 20
8.1328382562
 30
0.0
 10
7.4347449988
 20
8.130149694
 30
0.0
 10
7.4384755136
 20
8.1278054052
 30
0.0
 10
7.4422426871
 20
8.1258072084
 30
0.0
 10
7.4460445464
 20
8.1241563734
 30
0.0
 10
7.4498792121
 20
8.1228541489
 30
0.0
 10
7.4537440992
 20
8.1219018064
 30
0.0
 10
7.4563476871
 20
8.1214997367
 30
0.0
 10
7.4576482208
 20
8.1213582639
 30
0.0
  0
SPLINE
  5
36A
100
AcDbEntity
  8
0
100
AcDbSpline
 62
7
  6
CONTINUOUS
 70
0
 71
3
 72
39
 73
35
 74
0
 42
0.0000001
 43
0.0000001
 44
0.0000000001
 40
0.0
 40
0.0
 40
0.0
 40
0.0
 40
0.0233052414
 40
0.04804473
 40
0.0741581785
 40
0.1015766179
 40
0.1302246109
 40
0.1600200054
 40
0.1908752908
 40
0.2226981798
 40
0.2553917234
 40
0.2888555945
 40
0.3229858309
 40
0.3576758945
 40
0.3928168881
 40
0.4282979967
 40
0.4640071577
 40
0.4998312551
 40
0.5356568197
 40
0.5713702828
 40
0.6068586339
 40
0.6420096302
 40
0.6767125513
 40
0.710858397
 40
0.7443404649
 40
0.7770549924
 40
0.8089011523
 40
0.8397823197
 40
0.869605796
 40
0.8982839711
 40
0.925734832
 40
0.9518822112
 40
0.9766576133
 40
1.0
 40
1.0
 40
1.0
 40
1.0
 10
7.4849303766
 20
9.3840765443
 30
0.0
 10
7.4815485412
 20
9.3759285086
 30
0.0
 10
7.474892764
 20
9.3589986731
 30
0.0
 10
7.4654655714
 20
9.3325528579
 30
0.0
 10
7.4563218384
 20
9.3043662334
 30
0.0
 10
7.4474922919
 20
9.2745339037
 30
0.0
 10
7.4390074145
 20
9.2431558862
 30
0.0
 10
7.4308958594
 20
9.2103378459
 30
0.0
 10
7.4231852116
 20
9.176190347
 30
0.0
 10
7.4159019601
 20
9.1408285054
 30
0.0
 10
7.4090704625
 20
9.1043716539
 30
0.0
 10
7.4027143355
 20
9.0669428216
 30
0.0
 10
7.3968548814
 20
9.0286683832
 30
0.0
 10
7.3915120537
 20
8.9896776028
 30
0.0
 10
7.3867041333
 20
8.9501021481
 30
0.0
 10
7.3824470954
 20
8.9100757286
 30
0.0
 10
7.3787557443
 20
8.8697335396
 30
0.0
 10
7.375642259
 20
8.8292118823
 30
0.0
 10
7.3731173064
 20
8.7886476667
 30
0.0
 10
7.3711894857
 20
8.7481779154
 30
0.0
 10
7.3698650198
 20
8.7079393883
 30
0.0
 10
7.3691487216
 20
8.6680679916
 30
0.0
 10
7.3690425935
 20
8.628698439
 30
0.0
 10
7.3695471358
 20
8.5899637071
 30
0.0
 10
7.3706605439
 20
8.5519946005
 30
0.0
 10
7.3723787158
 20
8.5149193616
 30
0.0
 10
7.3746960891
 20
8.4788631156
 30
0.0
 10
7.3776042356
 20
8.4439475634
 30
0.0
 10
7.3810934414
 20
8.4102904563
 30
0.0
 10
7.3851515819
 20
8.3780052166
 30
0.0
 10
7.3897644837
 20
8.3472005979
 30
0.0
 10
7.3949167058
 20
8.3179800058
 30
0.0
 10
7.4005898174
 20
8.2904419619
 30
0.0
 10
7.404836276
 20
8.2727249515
 30
0.0
 10
7.4070565157
 20
8.2641724009
 30
0.0
  0
SPLINE
  5
36B
100
AcDbEntity
  8
0
100
AcDbSpline
 62
7
  6
CONTINUOUS
 70
0
 71
3
 72
40
 73
36
 74
0
 42
0.0000001
 43
0.0000001
 44
0.0000000001
 40
0.0
 40
0.0
 40
0.0
 40
0.0
 40
0.0375173595
 40
0.0754281855
 40
0.1520639382
 40
0.2292389129
 40
0.3062749507
 40
0.38249671
 40
0.4200940889
 40
0.4572390344
 40
0.4938509691
 40
0.5298506895
 40
0.5651609795
 40
0.5997063833
 40
0.6334140897
 40
0.6662134231
 40
0.6980370741
 40
0.7288203107
 40
0.7585025499
 40
0.7870263764
 40
0.8143394209
 40
0.8403933448
 40
0.865145927
 40
0.8885603791
 40
0.9106077173
 40
0.9211121266
 40
0.931267612
 40
0.9410730047
 40
0.9505277461
 40
0.9596325259
 40
0.968389089
 40
0.9768000238
 40
0.9848688872
 40
0.9926002624
 40
1.0
 40
1.0
 40
1.0
 40
1.0
 10
7.3820615443
 20
8.6280899245
 30
0.0
 10
7.3820615443
 20
8.6397982424
 30
0.0
 10
7.3822150899
 20
8.6633379662
 30
0.0
 10
7.3831252018
 20
8.7107859255
 30
0.0
 10
7.3853913798
 20
8.7705815533
 30
0.0
 10
7.3898639941
 20
8.8424914825
 30
0.0
 10
7.396058765
 20
8.9141439253
 30
0.0
 10
7.4026368104
 20
8.9733478771
 30
0.0
 10
7.408727355
 20
9.0200660887
 30
0.0
 10
7.4136640994
 20
9.0544658248
 30
0.0
 10
7.4189784995
 20
9.0883046218
 30
0.0
 10
7.4246582619
 20
9.1215033498
 30
0.0
 10
7.4306898321
 20
9.1539843033
 30
0.0
 10
7.4370592969
 20
9.1856714947
 30
0.0
 10
7.4437513606
 20
9.2164908084
 30
0.0
 10
7.4507506645
 20
9.2463701681
 30
0.0
 10
7.4580403092
 20
9.2752397479
 30
0.0
 10
7.465603623
 20
9.3030320745
 30
0.0
 10
7.4734222784
 20
9.3296822997
 30
0.0
 10
7.4814784229
 20
9.355128212
 30
0.0
 10
7.4897525206
 20
9.3793106096
 30
0.0
 10
7.498225683
 20
9.4021731475
 30
0.0
 10
7.5068774023
 20
9.4236629915
 30
0.0
 10
7.5156879377
 20
9.4437300552
 30
0.0
 10
7.5232620395
 20
9.4594730877
 30
0.0
 10
7.529398879
 20
9.471305069
 30
0.0
 10
7.5339538565
 20
9.4796513206
 30
0.0
 10
7.5385328748
 20
9.4876086659
 30
0.0
 10
7.5431334584
 20
9.4951723921
 30
0.0
 10
7.547752941
 20
9.5023382306
 30
0.0
 10
7.552388716
 20
9.5091022698
 30
0.0
 10
7.5570382452
 20
9.515460671
 30
0.0
 10
7.5616990604
 20
9.5214095803
 30
0.0
 10
7.5663679662
 20
9.5269453466
 30
0.0
 10
7.5695529628
 20
9.5304337377
 30
0.0
 10
7.5711471081
 20
9.5321045229
 30
0.0
  0
SPLINE
  5
36C
100
AcDbEntity
  8
0
100
AcDbSpline
 62
7
  6
CONTINUOUS
 70
0
 71
3
 72
38
 73
34
 74
0
 42
0.0000001
 43
0.0000001
 44
0.0000000001
 40
0.0
 40
0.0
 40
0.0
 40
0.0
 40
0.0063160962
 40
0.012671092
 40
0.0191031094
 40
0.0256487999
 40
0.0323428282
 40
0.0392174136
 40
0.0536156671
 40
0.0690528137
 40
0.0856863497
 40
0.103634591
 40
0.1229849423
 40
0.1437978011
 40
0.1661140371
 40
0.1899570077
 40
0.215337166
 40
0.2422538508
 40
0.2706968034
 40
0.3006487958
 40
0.3320847866
 40
0.3649751484
 40
0.3992839084
 40
0.4349714554
 40
0.4719934689
 40
0.5103020671
 40
0.5498461539
 40
0.5905708688
 40
0.6324193885
 40
0.7192435421
 40
0.8098113955
 40
0.9035882777
 40
1.0
 40
1.0
 40
1.0
 40
1.0
 10
7.5237187153
 20
8.0696296792
 30
0.0
 10
7.5224561367
 20
8.0697172094
 30
0.0
 10
7.5199291731
 20
8.0699962388
 30
0.0
 10
7.5161670742
 20
8.0707235717
 30
0.0
 10
7.5124301238
 20
8.0717595062
 30
0.0
 10
7.5087204799
 20
8.0731032398
 30
0.0
 10
7.505039645
 20
8.0747540592
 30
0.0
 10
7.5000971755
 20
8.0774036879
 30
0.0
 10
7.4939812083
 20
8.0815291626
 30
0.0
 10
7.4869070072
 20
8.0876103149
 30
0.0
 10
7.4799906947
 20
8.0948844679
 30
0.0
 10
7.4732396002
 20
8.1033376579
 30
0.0
 10
7.466661859
 20
8.1129572073
 30
0.0
 10
7.4602652671
 20
8.1237278006
 30
0.0
 10
7.4540596255
 20
8.1356332544
 30
0.0
 10
7.448053781
 20
8.1486547898
 30
0.0
 10
7.442257396
 20
8.1627719743
 30
0.0
 10
7.4366798
 20
8.1779622569
 30
0.0
 10
7.4313297989
 20
8.1942011552
 30
0.0
 10
7.4262166644
 20
8.211462423
 30
0.0
 10
7.421348263
 20
8.2297178996
 30
0.0
 10
7.4167332849
 20
8.2489378201
 30
0.0
 10
7.4123788576
 20
8.2690906695
 30
0.0
 10
7.408292636
 20
8.2901434058
 30
0.0
 10
7.4044812017
 20
8.3120614324
 30
0.0
 10
7.4009509342
 20
8.334808719
 30
0.0
 10
7.3977078873
 20
8.358347787
 30
0.0
 10
7.3947570963
 20
8.3826399152
 30
0.0
 10
7.3911757137
 20
8.4163951139
 30
0.0
 10
7.3874934281
 20
8.4601777154
 30
0.0
 10
7.3843563236
 20
8.5144290119
 30
0.0
 10
7.3824708513
 20
8.5706599391
 30
0.0
 10
7.3820615443
 20
8.6087711001
 30
0.0
 10
7.3820615443
 20
8.6280899245
 30
0.0
  0
SPLINE
  5
36D
100
AcDbEntity
  8
0
100
AcDbSpline
 62
7
  6
CONTINUOUS
 70
0
 71
3
 72
22
 73
18
 74
0
 42
0.0000001
 43
0.0000001
 44
0.0000000001
 40
0.0
 40
0.0
 40
0.0
 40
0.0
 40
0.0663156875
 40
0.132011433
 40
0.1970891096
 40
0.2615582592
 40
0.3254375784
 40
0.3887529755
 40
0.4515387459
 40
0.5138340448
 40
0.5756834711
 40
0.6371335661
 40
0.6982322044
 40
0.7590264556
 40
0.8195609062
 40
0.8798785881
 40
1.0
 40
1.0
 40
1.0
 40
1.0
 10
8.1057446556
 20
8.0076314895
 30
0.0
 10
8.1023142759
 20
8.0172381853
 30
0.0
 10
8.0957549245
 20
8.0364593931
 30
0.0
 10
8.0868272749
 20
8.0654364444
 30
0.0
 10
8.0788907525
 20
8.0944067674
 30
0.0
 10
8.0719740696
 20
8.1233504373
 30
0.0
 10
8.0660946738
 20
8.1522462185
 30
0.0
 10
8.0612646861
 20
8.1810734588
 30
0.0
 10
8.0574816249
 20
8.2098109987
 30
0.0
 10
8.0547383994
 20
8.2384397996
 30
0.0
 10
8.0530140166
 20
8.266941992
 30
0.0
 10
8.0522828774
 20
8.2953025543
 30
0.0
 10
8.0525098381
 20
8.3235090049
 30
0.0
 10
8.0536553532
 20
8.3515516663
 30
0.0
 10
8.0556753484
 20
8.3794244072
 30
0.0
 10
8.0594661638
 20
8.4163010159
 30
0.0
 10
8.0634861985
 20
8.443781883
 30
0.0
 10
8.0666249116
 20
8.4619906227
 30
0.0
  0
SPLINE
  5
36E
100
AcDbEntity
  8
0
100
AcDbSpline
 62
7
  6
CONTINUOUS
 70
0
 71
3
 72
55
 73
51
 74
0
 42
0.0000001
 43
0.0000001
 44
0.0000000001
 40
0.0
 40
0.0
 40
0.0
 40
0.0
 40
0.0481975415
 40
0.0958290817
 40
0.142818713
 40
0.1890963521
 40
0.2345910715
 40
0.279234315
 40
0.3229593385
 40
0.3657013756
 40
0.4073979227
 40
0.4479889149
 40
0.4874169784
 40
0.525627636
 40
0.5625695632
 40
0.5981948995
 40
0.6324596307
 40
0.6653239472
 40
0.681220104
 40
0.69675341
 40
0.7119202568
 40
0.7267175098
 40
0.7411423279
 40
0.7551923488
 40
0.7688656914
 40
0.782160877
 40
0.7950770786
 40
0.8076139743
 40
0.8197718786
 40
0.8315518771
 40
0.8429557109
 40
0.8539860605
 40
0.8646465134
 40
0.8749416424
 40
0.8848772785
 40
0.8944604376
 40
0.9036996141
 40
0.912604918
 40
0.921188144
 40
0.9294631376
 40
0.9374458256
 40
0.9451544636
 40
0.952609859
 40
0.9598353745
 40
0.966857131
 40
0.9737039172
 40
0.9804070573
 40
0.9870002114
 40
0.9935188976
 40
1.0
 40
1.0
 40
1.0
 40
1.0
 10
9.8957513157
 20
10.8329424445
 30
0.0
 10
9.8842231845
 20
10.8337419231
 30
0.0
 10
9.861311
 20
10.8354601865
 30
0.0
 10
9.8271958035
 20
10.8384146576
 30
0.0
 10
9.7935759713
 20
10.8417274342
 30
0.0
 10
9.7605081417
 20
10.8453928377
 30
0.0
 10
9.7280472944
 20
10.8494047935
 30
0.0
 10
9.6962478082
 20
10.8537565307
 30
0.0
 10
9.6651628086
 20
10.858440732
 30
0.0
 10
9.6348442419
 20
10.8634495272
 30
0.0
 10
9.6053427747
 20
10.8687745011
 30
0.0
 10
9.576707684
 20
10.8744067049
 30
0.0
 10
9.5489867775
 20
10.8803366571
 30
0.0
 10
9.5222263126
 20
10.8865543838
 30
0.0
 10
9.4964709399
 20
10.8930494313
 30
0.0
 10
9.4717635481
 20
10.8998108872
 30
0.0
 10
9.4481454018
 20
10.906827377
 30
0.0
 10
9.4291996902
 20
10.9129429752
 30
0.0
 10
9.4146242978
 20
10.9179622846
 30
0.0
 10
9.4041105849
 20
10.9217413688
 30
0.0
 10
9.3938976845
 20
10.9255752718
 30
0.0
 10
9.3839898286
 20
10.9294623504
 30
0.0
 10
9.3743911593
 20
10.9334010185
 30
0.0
 10
9.3651056732
 20
10.9373896271
 30
0.0
 10
9.3561372231
 20
10.941426474
 30
0.0
 10
9.3474895607
 20
10.9455099405
 30
0.0
 10
9.3391662595
 20
10.949638269
 30
0.0
 10
9.3311707805
 20
10.9538097647
 30
0.0
 10
9.3235064526
 20
10.9580227252
 30
0.0
 10
9.3161764228
 20
10.9622753457
 30
0.0
 10
9.3091837537
 20
10.9665659404
 30
0.0
 10
9.3025313173
 20
10.9708927097
 30
0.0
 10
9.2962218484
 20
10.9752538723
 30
0.0
 10
9.290257986
 20
10.9796477167
 30
0.0
 10
9.2846421408
 20
10.9840723948
 30
0.0
 10
9.2793766613
 20
10.9885261902
 30
0.0
 10
9.2744637268
 20
10.9930073339
 30
0.0
 10
9.2699053373
 20
10.9975140211
 30
0.0
 10
9.2657034757
 20
11.0020445814
 30
0.0
 10
9.2618598728
 20
11.0065972089
 30
0.0
 10
9.2583762244
 20
11.0111701942
 30
0.0
 10
9.2552541535
 20
11.0157618325
 30
0.0
 10
9.2524950559
 20
11.0203703127
 30
0.0
 10
9.2501004256
 20
11.0249939195
 30
0.0
 10
9.2480715252
 20
11.0296307761
 30
0.0
 10
9.2464095374
 20
11.0342789635
 30
0.0
 10
9.2451156591
 20
11.0389364515
 30
0.0
 10
9.244190686
 20
11.0436011423
 30
0.0
 10
9.2436354223
 20
11.0482703878
 30
0.0
 10
9.2435119018
 20
11.0513886021
 30
0.0
 10
9.2435119049
 20
11.0529425082
 30
0.0
  0
SPLINE
  5
36F
100
AcDbEntity
  8
0
100
AcDbSpline
 62
7
  6
CONTINUOUS
 70
0
 71
3
 72
23
 73
19
 74
0
 42
0.0000001
 43
0.0000001
 44
0.0000000001
 40
0.0
 40
0.0
 40
0.0
 40
0.0
 40
0.0637764154
 40
0.1273451281
 40
0.190701988
 40
0.253856063
 40
0.3168132283
 40
0.3795820791
 40
0.4421733864
 40
0.5045993414
 40
0.5668738629
 40
0.629012379
 40
0.6910316532
 40
0.7529496461
 40
0.8147853522
 40
0.8765586034
 40
0.9382898574
 40
1.0
 40
1.0
 40
1.0
 40
1.0
 10
10.0723791819
 20
6.6163671419
 30
0.0
 10
10.0723791819
 20
6.6110597088
 30
0.0
 10
10.0721251184
 20
6.6004603299
 30
0.0
 10
10.0709785553
 20
6.5846257654
 30
0.0
 10
10.0690694541
 20
6.5689166758
 30
0.0
 10
10.0664024139
 20
6.553370047
 30
0.0
 10
10.062983405
 20
6.5380213478
 30
0.0
 10
10.0588203366
 20
6.5229060607
 30
0.0
 10
10.0539227853
 20
6.5080590191
 30
0.0
 10
10.0483019372
 20
6.4935144758
 30
0.0
 10
10.041970773
 20
6.4793059639
 30
0.0
 10
10.0349438823
 20
6.4654662423
 30
0.0
 10
10.0272374104
 20
6.4520272554
 30
0.0
 10
10.0188690876
 20
6.4390200126
 30
0.0
 10
10.0098582718
 20
6.4264745204
 30
0.0
 10
10.0002256241
 20
6.4144196223
 30
0.0
 10
9.989993694
 20
6.4028835415
 30
0.0
 10
9.9827872698
 20
6.3955550818
 30
0.0
 10
9.9790935534
 20
6.3919872246
 30
0.0
  0
SPLINE
  5
370
100
AcDbEntity
  8
0
100
AcDbSpline
 62
7
  6
CONTINUOUS
 70
0
 71
3
 72
23
 73
19
 74
0
 42
0.0000001
 43
0.0000001
 44
0.0000000001
 40
0.0
 40
0.0
 40
0.0
 40
0.0
 40
0.0637764154
 40
0.1273451281
 40
0.190701988
 40
0.253856063
 40
0.3168132283
 40
0.3795820791
 40
0.4421733864
 40
0.5045993414
 40
0.5668738629
 40
0.629012379
 40
0.6910316532
 40
0.7529496461
 40
0.8147853522
 40
0.8765586034
 40
0.9382898574
 40
1.0
 40
1.0
 40
1.0
 40
1.0
 10
14.1756324176
 20
6.3318055635
 30
0.0
 10
14.1756324176
 20
6.3264981304
 30
0.0
 10
14.175378354
 20
6.3158987515
 30
0.0
 10
14.1742317909
 20
6.300064187
 30
0.0
 10
14.1723226898
 20
6.2843550974
 30
0.0
 10
14.1696556496
 20
6.2688084686
 30
0.0
 10
14.1662366406
 20
6.2534597694
 30
0.0
 10
14.1620735723
 20
6.2383444823
 30
0.0
 10
14.1571760209
 20
6.2234974407
 30
0.0
 10
14.1515551729
 20
6.2089528974
 30
0.0
 10
14.1452240086
 20
6.1947443855
 30
0.0
 10
14.138197118
 20
6.1809046639
 30
0.0
 10
14.130490646
 20
6.167465677
 30
0.0
 10
14.1221223232
 20
6.1544584342
 30
0.0
 10
14.1131115074
 20
6.141912942
 30
0.0
 10
14.1034788597
 20
6.1298580439
 30
0.0
 10
14.0932469297
 20
6.1183219631
 30
0.0
 10
14.0860405055
 20
6.1109935034
 30
0.0
 10
14.082346789
 20
6.1074256462
 30
0.0
  0
SPLINE
  5
371
100
AcDbEntity
  8
0
100
AcDbSpline
 62
7
  6
CONTINUOUS
 70
0
 71
3
 72
60
 73
56
 74
0
 42
0.0000001
 43
0.0000001
 44
0.0000000001
 40
0.0
 40
0.0
 40
0.0
 40
0.0
 40
0.0417737215
 40
0.0840362954
 40
0.1266575307
 40
0.1695051874
 40
0.2124464681
 40
0.2553480875
 40
0.2980769527
 40
0.3405006415
 40
0.3824879411
 40
0.4239093736
 40
0.4646377307
 40
0.5045486136
 40
0.543520985
 40
0.5814377367
 40
0.599965091
 40
0.6181867239
 40
0.6360893624
 40
0.6536601077
 40
0.6708864507
 40
0.6877562714
 40
0.7042579206
 40
0.7203801597
 40
0.7361123056
 40
0.7514441249
 40
0.7663660213
 40
0.7808689196
 40
0.7949444585
 40
0.8085849095
 40
0.8217833396
 40
0.8345336065
 40
0.8468304684
 40
0.8586696849
 40
0.8700480724
 40
0.8809637257
 40
0.8914160437
 40
0.9014060712
 40
0.9109365509
 40
0.9200123738
 40
0.9286407389
 40
0.9368317014
 40
0.9445985263
 40
0.9519583321
 40
0.9589326812
 40
0.9655482848
 40
0.9718377328
 40
0.9778400566
 40
0.9836011837
 40
0.9864084827
 40
0.9891757961
 40
0.9919106627
 40
0.9946209124
 40
0.9973146132
 40
1.0
 40
1.0
 40
1.0
 40
1.0
 10
14.7852679428
 20
8.0790386059
 30
0.0
 10
14.7852679428
 20
8.0954558004
 30
0.0
 10
14.7855240678
 20
8.1284828258
 30
0.0
 10
14.7866563563
 20
8.1782484533
 30
0.0
 10
14.7885356706
 20
8.2284139095
 30
0.0
 10
14.7911558576
 20
8.2788131633
 30
0.0
 10
14.7945082538
 20
8.3292794458
 30
0.0
 10
14.7985817801
 20
8.3796458094
 30
0.0
 10
14.8033629415
 20
8.4297456176
 30
0.0
 10
14.8088358888
 20
8.4794131294
 30
0.0
 10
14.814982464
 20
8.5284840402
 30
0.0
 10
14.8217822613
 20
8.5767960376
 30
0.0
 10
14.829212695
 20
8.6241893256
 30
0.0
 10
14.8372490655
 20
8.67050722
 30
0.0
 10
14.8458646674
 20
8.7155964588
 30
0.0
 10
14.8535610373
 20
8.7522995055
 30
0.0
 10
14.8599948993
 20
8.7809297357
 30
0.0
 10
14.8649097038
 20
8.8018384832
 30
0.0
 10
14.8699469053
 20
8.8223311483
 30
0.0
 10
14.8751023423
 20
8.8423907986
 30
0.0
 10
14.8803717251
 20
8.8620008407
 30
0.0
 10
14.8857507108
 20
8.8811450594
 30
0.0
 10
14.8912347981
 20
8.8998076304
 30
0.0
 10
14.8968194931
 20
8.9179731233
 30
0.0
 10
14.9025000999
 20
8.9356265336
 30
0.0
 10
14.9082719791
 20
8.9527532699
 30
0.0
 10
14.9141302712
 20
8.9693391987
 30
0.0
 10
14.9200701898
 20
8.9853706196
 30
0.0
 10
14.9260867484
 20
9.000834318
 30
0.0
 10
14.9321750128
 20
9.015717537
 30
0.0
 10
14.9383299062
 20
9.0300080243
 30
0.0
 10
14.944546352
 20
9.0436940185
 30
0.0
 10
14.9508192172
 20
9.0567642713
 30
0.0
 10
14.9571432993
 20
9.0692080677
 30
0.0
 10
14.9635134405
 20
9.0810152028
 30
0.0
 10
14.9699243456
 20
9.0921760564
 30
0.0
 10
14.9763708625
 20
9.1026815049
 30
0.0
 10
14.9828476609
 20
9.112523063
 30
0.0
 10
14.9893496301
 20
9.1216927239
 30
0.0
 10
14.9958714956
 20
9.1301831554
 30
0.0
 10
15.002408242
 20
9.137987488
 30
0.0
 10
15.0089547765
 20
9.1450995116
 30
0.0
 10
15.0155062661
 20
9.1515134576
 30
0.0
 10
15.022057935
 20
9.1572241001
 30
0.0
 10
15.0286052285
 20
9.1622265978
 30
0.0
 10
15.0351436862
 20
9.1665163691
 30
0.0
 10
15.0416690604
 20
9.1700891277
 30
0.0
 10
15.0481763348
 20
9.1729403719
 30
0.0
 10
15.0536279191
 20
9.1747271514
 30
0.0
 10
15.0579587718
 20
9.1757790283
 30
0.0
 10
15.0611704212
 20
9.1763795025
 30
0.0
 10
15.0643723361
 20
9.1767979752
 30
0.0
 10
15.067563906
 20
9.1770343135
 30
0.0
 10
15.0707442282
 20
9.1770883832
 30
0.0
 10
15.0728578758
 20
9.1770028637
 30
0.0
 10
15.0739107118
 20
9.1769298471
 30
0.0
  0
SPLINE
  5
372
100
AcDbEntity
  8
0
100
AcDbSpline
 62
7
  6
CONTINUOUS
 70
0
 71
3
 72
61
 73
57
 74
0
 42
0.0000001
 43
0.0000001
 44
0.0000000001
 40
0.0
 40
0.0
 40
0.0
 40
0.0
 40
0.0027758433
 40
0.0055595941
 40
0.0083590873
 40
0.0111820092
 40
0.0140358402
 40
0.0169278032
 40
0.0228516385
 40
0.0290063602
 40
0.0354367082
 40
0.0387681006
 40
0.0421822872
 40
0.0492730731
 40
0.0567370731
 40
0.064596108
 40
0.072867737
 40
0.081565694
 40
0.09070057
 40
0.1002800962
 40
0.110309688
 40
0.1207926208
 40
0.131730418
 40
0.1431229861
 40
0.1549688512
 40
0.1672653029
 40
0.1800084954
 40
0.1931936241
 40
0.2068149163
 40
0.2208658417
 40
0.235339028
 40
0.2502264837
 40
0.2655194851
 40
0.2812087772
 40
0.2972844765
 40
0.3137362206
 40
0.3305531169
 40
0.3477238252
 40
0.3652365653
 40
0.3830791312
 40
0.4012389558
 40
0.4197030683
 40
0.4574902793
 40
0.4963311237
 40
0.5361109391
 40
0.5767111052
 40
0.6180096092
 40
0.6598815936
 40
0.7021998921
 40
0.7448355581
 40
0.7876583843
 40
0.8305374341
 40
0.8733415137
 40
0.9159398405
 40
0.9582021223
 40
1.0
 40
1.0
 40
1.0
 40
1.0
 10
11.00351187
 20
11.0529420437
 30
0.0
 10
11.0035118679
 20
11.0518547049
 30
0.0
 10
11.0034515437
 20
11.0496764508
 30
0.0
 10
11.0031802087
 20
11.0464117581
 30
0.0
 10
11.0027280571
 20
11.0431484642
 30
0.0
 10
11.0020952822
 20
11.0398874551
 30
0.0
 10
11.0012820193
 20
11.0366293413
 30
0.0
 10
10.9999468853
 20
11.0322557209
 30
0.0
 10
10.9978102589
 20
11.0267836361
 30
0.0
 10
10.9945482153
 20
11.0202982951
 30
0.0
 10
10.9912735234
 20
11.0149838864
 30
0.0
 10
10.9883142452
 20
11.0107541505
 30
0.0
 10
10.9850424006
 20
11.0064317765
 30
0.0
 10
10.9804933503
 20
11.0010527919
 30
0.0
 10
10.9744013156
 20
10.9947231529
 30
0.0
 10
10.9676138183
 20
10.9884431394
 30
0.0
 10
10.9601365082
 20
10.9822176189
 30
0.0
 10
10.9519753854
 20
10.9760509937
 30
0.0
 10
10.9431368982
 20
10.9699480721
 30
0.0
 10
10.9336281416
 20
10.9639134589
 30
0.0
 10
10.9234566681
 20
10.9579519911
 30
0.0
 10
10.9126306635
 20
10.952068335
 30
0.0
 10
10.9011588161
 20
10.9462672656
 30
0.0
 10
10.8890503946
 20
10.9405534403
 30
0.0
 10
10.8763151949
 20
10.9349315047
 30
0.0
 10
10.8629635431
 20
10.9294060563
 30
0.0
 10
10.8490062973
 20
10.9239815726
 30
0.0
 10
10.8344548074
 20
10.9186625481
 30
0.0
 10
10.819320944
 20
10.9134532745
 30
0.0
 10
10.8036170419
 20
10.9083581032
 30
0.0
 10
10.7873559341
 20
10.9033811355
 30
0.0
 10
10.7705508978
 20
10.8985265408
 30
0.0
 10
10.7532156788
 20
10.8937982315
 30
0.0
 10
10.7353644502
 20
10.8892001605
 30
0.0
 10
10.7170118213
 20
10.8847360523
 30
0.0
 10
10.6981728112
 20
10.8804096163
 30
0.0
 10
10.6788628431
 20
10.8762243844
 30
0.0
 10
10.6590977291
 20
10.8721838049
 30
0.0
 10
10.6388936547
 20
10.8682912058
 30
0.0
 10
10.6182671744
 20
10.8645497686
 30
0.0
 10
10.5972351665
 20
10.8609625838
 30
0.0
 10
10.5684534586
 20
10.8563538647
 30
0.0
 10
10.5315871571
 20
10.851010608
 30
0.0
 10
10.4863443044
 20
10.845306057
 30
0.0
 10
10.4399127047
 20
10.8402795483
 30
0.0
 10
10.3924445365
 20
10.8359476678
 30
0.0
 10
10.3440952305
 20
10.8323247346
 30
0.0
 10
10.295023179
 20
10.8294227129
 30
0.0
 10
10.2453891474
 20
10.8272511857
 30
0.0
 10
10.1953557606
 20
10.8258173226
 30
0.0
 10
10.1450869579
 20
10.8251258557
 30
0.0
 10
10.0947474624
 20
10.8251790707
 30
0.0
 10
10.0445022103
 20
10.8259767845
 30
0.0
 10
9.9945158659
 20
10.8275163793
 30
0.0
 10
9.9449522936
 20
10.829792744
 30
0.0
 10
9.9120849316
 20
10.8318097044
 30
0.0
 10
9.8957513157
 20
10.8329424445
 30
0.0
  0
SPLINE
  5
373
100
AcDbEntity
  8
0
100
AcDbSpline
 62
7
  6
CONTINUOUS
 70
0
 71
3
 72
48
 73
44
 74
0
 42
0.0000001
 43
0.0000001
 44
0.0000000001
 40
0.0
 40
0.0
 40
0.0
 40
0.0
 40
0.0072739709
 40
0.0148704982
 40
0.0227980075
 40
0.0310632859
 40
0.039671503
 40
0.0486264503
 40
0.057930809
 40
0.0675860502
 40
0.0775928145
 40
0.0879508312
 40
0.0986590304
 40
0.1097157541
 40
0.1211185696
 40
0.1328645785
 40
0.1449503108
 40
0.15737176
 40
0.1701245782
 40
0.1832038596
 40
0.2103200335
 40
0.238674716
 40
0.2682164455
 40
0.2988890874
 40
0.3306322931
 40
0.3633819037
 40
0.3970703544
 40
0.4316270114
 40
0.4669784774
 40
0.5030488661
 40
0.5397600858
 40
0.5770321295
 40
0.6147833334
 40
0.6529306279
 40
0.6913897816
 40
0.7300756594
 40
0.7689024931
 40
0.8077840853
 40
0.846634092
 40
0.8853663969
 40
0.9238944839
 40
0.9621346801
 40
1.0
 40
1.0
 40
1.0
 40
1.0
 10
10.634131035
 20
10.9852766642
 30
0.0
 10
10.6329506679
 20
10.9841782146
 30
0.0
 10
10.6304833172
 20
10.9819903639
 30
0.0
 10
10.6265600841
 20
10.9788027996
 30
0.0
 10
10.6223380669
 20
10.9756411245
 30
0.0
 10
10.6178197933
 20
10.9725072961
 30
0.0
 10
10.6130078833
 20
10.969403046
 30
0.0
 10
10.6079051666
 20
10.9663301404
 30
0.0
 10
10.6025145928
 20
10.9632904339
 30
0.0
 10
10.5968393598
 20
10.9602856202
 30
0.0
 10
10.5908827765
 20
10.9573175224
 30
0.0
 10
10.5846483569
 20
10.9543878765
 30
0.0
 10
10.5781397858
 20
10.9514983785
 30
0.0
 10
10.5713608856
 20
10.9486508091
 30
0.0
 10
10.5643156847
 20
10.9458467857
 30
0.0
 10
10.5570083397
 20
10.9430880203
 30
0.0
 10
10.5494431803
 20
10.9403761496
 30
0.0
 10
10.5416246993
 20
10.9377127533
 30
0.0
 10
10.5335575121
 20
10.9350994633
 30
0.0
 10
10.5223409265
 20
10.9316423108
 30
0.0
 10
10.5077286381
 20
10.9274663935
 30
0.0
 10
10.4894853528
 20
10.9227372959
 30
0.0
 10
10.4703720718
 20
10.9182432376
 30
0.0
 10
10.450434196
 20
10.9139949851
 30
0.0
 10
10.4297189772
 20
10.910002733
 30
0.0
 10
10.4082756015
 20
10.9062760418
 30
0.0
 10
10.3861549985
 20
10.9028238421
 30
0.0
 10
10.3634097256
 20
10.8996544057
 30
0.0
 10
10.3400938395
 20
10.8967753309
 30
0.0
 10
10.3162627721
 20
10.8941935131
 30
0.0
 10
10.2919731944
 20
10.8919151256
 30
0.0
 10
10.2672828735
 20
10.8899456207
 30
0.0
 10
10.2422505322
 20
10.8882897127
 30
0.0
 10
10.2169357123
 20
10.8869513711
 30
0.0
 10
10.1913986351
 20
10.8859337958
 30
0.0
 10
10.165700052
 20
10.885239414
 30
0.0
 10
10.1399011019
 20
10.8848698872
 30
0.0
 10
10.1140631637
 20
10.8848261006
 30
0.0
 10
10.0882476805
 20
10.8851081632
 30
0.0
 10
10.0625161791
 20
10.8857154112
 30
0.0
 10
10.0369295947
 20
10.8866463511
 30
0.0
 10
10.0115491799
 20
10.8878988163
 30
0.0
 10
9.9947113298
 20
10.8889520489
 30
0.0
 10
9.9863379067
 20
10.8895327477
 30
0.0
  0
SPLINE
  5
374
100
AcDbEntity
  8
0
100
AcDbSpline
 62
7
  6
CONTINUOUS
 70
0
 71
3
 72
35
 73
31
 74
0
 42
0.0000001
 43
0.0000001
 44
0.0000000001
 40
0.0
 40
0.0
 40
0.0
 40
0.0
 40
0.0165870136
 40
0.0341534999
 40
0.0527299606
 40
0.0723382006
 40
0.0929927792
 40
0.114702082
 40
0.1374691495
 40
0.1612925617
 40
0.1861667833
 40
0.2120829741
 40
0.2390289852
 40
0.2669901473
 40
0.2959490377
 40
0.3258862467
 40
0.356780026
 40
0.3886069983
 40
0.4213417864
 40
0.4549576221
 40
0.4894260319
 40
0.5247173094
 40
0.560800303
 40
0.5976427469
 40
0.6352111758
 40
0.6734710674
 40
0.7519211576
 40
0.8326996299
 40
0.9154984376
 40
1.0
 40
1.0
 40
1.0
 40
1.0
 10
9.612891846
 20
10.9852774856
 30
0.0
 10
9.6144721673
 20
10.9838068207
 30
0.0
 10
9.6178240784
 20
10.9808827176
 30
0.0
 10
9.623240625
 20
10.976663987
 30
0.0
 10
9.6291815358
 20
10.9724934606
 30
0.0
 10
9.635640502
 20
10.9683754257
 30
0.0
 10
9.6426110403
 20
10.9643139045
 30
0.0
 10
9.6500860088
 20
10.9603130443
 30
0.0
 10
9.658057726
 20
10.9563769078
 30
0.0
 10
9.66651798
 20
10.9525096165
 30
0.0
 10
9.6754579935
 20
10.9487151337
 30
0.0
 10
9.6848684971
 20
10.9449975001
 30
0.0
 10
9.694739675
 20
10.9413605326
 30
0.0
 10
9.7050612441
 20
10.9378081419
 30
0.0
 10
9.7158224056
 20
10.9343439753
 30
0.0
 10
9.7270119133
 20
10.9309717746
 30
0.0
 10
9.7386180404
 20
10.9276950047
 30
0.0
 10
9.7506286313
 20
10.9245172065
 30
0.0
 10
9.7630310865
 20
10.9214416538
 30
0.0
 10
9.7758123979
 20
10.918471661
 30
0.0
 10
9.7889591495
 20
10.9156103017
 30
0.0
 10
9.8024575394
 20
10.9128606439
 30
0.0
 10
9.8162933936
 20
10.9102255498
 30
0.0
 10
9.8304521767
 20
10.9077078289
 30
0.0
 10
9.8449190303
 20
10.9053101064
 30
0.0
 10
9.8647640261
 20
10.902251105
 30
0.0
 10
9.8902299018
 20
10.8987543378
 30
0.0
 10
9.9215195406
 20
10.8951079161
 30
0.0
 10
9.9536577195
 20
10.8919925767
 30
0.0
 10
9.975366552
 20
10.8902936138
 30
0.0
 10
9.9863379067
 20
10.8895327477
 30
0.0
  0
SPLINE
  5
375
100
AcDbEntity
  8
0
100
AcDbSpline
 62
7
  6
CONTINUOUS
 70
0
 71
3
 72
42
 73
38
 74
0
 42
0.0000001
 43
0.0000001
 44
0.0000000001
 40
0.0
 40
0.0
 40
0.0
 40
0.0
 40
0.0149723971
 40
0.029947854
 40
0.0449294092
 40
0.0599200692
 40
0.0749227779
 40
0.0899404136
 40
0.1200256609
 40
0.1502025864
 40
0.1804899033
 40
0.2109037105
 40
0.2414571471
 40
0.2721601282
 40
0.3030191646
 40
0.3340372675
 40
0.3652139349
 40
0.3965452155
 40
0.4280238444
 40
0.459639443
 40
0.4913787765
 40
0.5232260611
 40
0.5551633129
 40
0.5871707307
 40
0.6192271064
 40
0.6513102549
 40
0.683397459
 40
0.7154659208
 40
0.7474932143
 40
0.7794577337
 40
0.8113391302
 40
0.8431187274
 40
0.8747799267
 40
0.906308519
 40
0.9376931951
 40
0.9689252215
 40
1.0
 40
1.0
 40
1.0
 40
1.0
 10
9.5011078026
 20
6.8868342442
 30
0.0
 10
9.5039614971
 20
6.8895907023
 30
0.0
 10
9.5097797057
 20
6.8949913609
 30
0.0
 10
9.5188230629
 20
6.9027399331
 30
0.0
 10
9.5281708808
 20
6.910126483
 30
0.0
 10
9.5378101407
 20
6.9171405455
 30
0.0
 10
9.5477277934
 20
6.9237726802
 30
0.0
 10
9.5613103144
 20
6.9320979276
 30
0.0
 10
9.5789254749
 20
6.9415081032
 30
0.0
 10
9.6009334517
 20
6.9511285745
 30
0.0
 10
9.6237067636
 20
6.9590339404
 30
0.0
 10
9.6471190584
 20
6.965180378
 30
0.0
 10
9.6710415806
 20
6.969534487
 30
0.0
 10
9.6953425548
 20
6.9720725763
 30
0.0
 10
9.7198882748
 20
6.9727810128
 30
0.0
 10
9.7445437411
 20
6.9716562142
 30
0.0
 10
9.769173426
 20
6.9687046703
 30
0.0
 10
9.7936420039
 20
6.9639428881
 30
0.0
 10
9.8178150875
 20
6.957397291
 30
0.0
 10
9.8415599561
 20
6.9491040672
 30
0.0
 10
9.8647462768
 20
6.9391089709
 30
0.0
 10
9.8872468076
 20
6.9274670579
 30
0.0
 10
9.9089380863
 20
6.9142423842
 30
0.0
 10
9.929701098
 20
6.899507654
 30
0.0
 10
9.9494219203
 20
6.8833438231
 30
0.0
 10
9.96799234
 20
6.8658396573
 30
0.0
 10
9.9853104406
 20
6.8470912498
 30
0.0
 10
10.0012811549
 20
6.8272014988
 30
0.0
 10
10.0158167828
 20
6.8062795495
 30
0.0
 10
10.0288374752
 20
6.7844402062
 30
0.0
 10
10.0402716602
 20
6.7618032994
 30
0.0
 10
10.0500564423
 20
6.7384930526
 30
0.0
 10
10.0581379223
 20
6.7146373561
 30
0.0
 10
10.0644715606
 20
6.6903672636
 30
0.0
 10
10.0690222669
 20
6.6658155882
 30
0.0
 10
10.0717649018
 20
6.6411188964
 30
0.0
 10
10.0723791819
 20
6.6246017247
 30
0.0
 10
10.0723791819
 20
6.6163671419
 30
0.0
  0
SPLINE
  5
376
100
AcDbEntity
  8
0
100
AcDbSpline
 62
7
  6
CONTINUOUS
 70
0
 71
3
 72
42
 73
38
 74
0
 42
0.0000001
 43
0.0000001
 44
0.0000000001
 40
0.0
 40
0.0
 40
0.0
 40
0.0
 40
0.0149723971
 40
0.029947854
 40
0.0449294092
 40
0.0599200692
 40
0.0749227779
 40
0.0899404136
 40
0.1200256609
 40
0.1502025864
 40
0.1804899033
 40
0.2109037105
 40
0.2414571471
 40
0.2721601282
 40
0.3030191646
 40
0.3340372675
 40
0.3652139349
 40
0.3965452155
 40
0.4280238444
 40
0.459639443
 40
0.4913787765
 40
0.5232260611
 40
0.5551633129
 40
0.5871707307
 40
0.6192271064
 40
0.6513102549
 40
0.683397459
 40
0.7154659208
 40
0.7474932143
 40
0.7794577337
 40
0.8113391302
 40
0.8431187274
 40
0.8747799267
 40
0.906308519
 40
0.9376931951
 40
0.9689252215
 40
1.0
 40
1.0
 40
1.0
 40
1.0
 10
13.6043610383
 20
6.6022726659
 30
0.0
 10
13.6072147328
 20
6.6050291239
 30
0.0
 10
13.6130329413
 20
6.6104297825
 30
0.0
 10
13.6220762986
 20
6.6181783547
 30
0.0
 10
13.6314241164
 20
6.6255649046
 30
0.0
 10
13.6410633763
 20
6.6325789671
 30
0.0
 10
13.650981029
 20
6.6392111018
 30
0.0
 10
13.66456355
 20
6.6475363492
 30
0.0
 10
13.6821787105
 20
6.6569465248
 30
0.0
 10
13.7041866874
 20
6.6665669961
 30
0.0
 10
13.7269599992
 20
6.674472362
 30
0.0
 10
13.750372294
 20
6.6806187996
 30
0.0
 10
13.7742948162
 20
6.6849729086
 30
0.0
 10
13.7985957905
 20
6.6875109979
 30
0.0
 10
13.8231415104
 20
6.6882194344
 30
0.0
 10
13.8477969768
 20
6.6870946359
 30
0.0
 10
13.8724266617
 20
6.684143092
 30
0.0
 10
13.8968952395
 20
6.6793813097
 30
0.0
 10
13.9210683231
 20
6.6728357126
 30
0.0
 10
13.9448131917
 20
6.6645424888
 30
0.0
 10
13.9679995124
 20
6.6545473925
 30
0.0
 10
13.9905000433
 20
6.6429054795
 30
0.0
 10
14.0121913219
 20
6.6296808058
 30
0.0
 10
14.0329543337
 20
6.6149460757
 30
0.0
 10
14.0526751559
 20
6.5987822447
 30
0.0
 10
14.0712455757
 20
6.5812780789
 30
0.0
 10
14.0885636762
 20
6.5625296714
 30
0.0
 10
14.1045343906
 20
6.5426399204
 30
0.0
 10
14.1190700185
 20
6.5217179711
 30
0.0
 10
14.1320907108
 20
6.4998786278
 30
0.0
 10
14.1435248958
 20
6.477241721
 30
0.0
 10
14.1533096779
 20
6.4539314742
 30
0.0
 10
14.1613911579
 20
6.4300757777
 30
0.0
 10
14.1677247963
 20
6.4058056852
 30
0.0
 10
14.1722755025
 20
6.3812540098
 30
0.0
 10
14.1750181375
 20
6.356557318
 30
0.0
 10
14.1756324176
 20
6.3400401463
 30
0.0
 10
14.1756324176
 20
6.3318055635
 30
0.0
  0
SPLINE
  5
377
100
AcDbEntity
  8
0
100
AcDbSpline
 62
7
  6
CONTINUOUS
 70
0
 71
3
 72
54
 73
50
 74
0
 42
0.0000001
 43
0.0000001
 44
0.0000000001
 40
0.0
 40
0.0
 40
0.0
 40
0.0
 40
0.0063158427
 40
0.0126705974
 40
0.0191023953
 40
0.0256479035
 40
0.0323417516
 40
0.0392160545
 40
0.0536138127
 40
0.061194488
 40
0.0690562166
 40
0.0772172825
 40
0.0856936302
 40
0.0944989909
 40
0.1036450473
 40
0.113141787
 40
0.1229974971
 40
0.1332190617
 40
0.1438121259
 40
0.1547810799
 40
0.1661293869
 40
0.1778595312
 40
0.189973133
 40
0.2024711534
 40
0.2153537503
 40
0.2286205275
 40
0.2422705277
 40
0.256302183
 40
0.2707135528
 40
0.2855021644
 40
0.300665138
 40
0.316199276
 40
0.3321009043
 40
0.3649900029
 40
0.3992976831
 40
0.4349839512
 40
0.472004695
 40
0.5103120262
 40
0.5498546333
 40
0.5905781015
 40
0.6324251619
 40
0.6753358913
 40
0.7192479428
 40
0.7640967229
 40
0.8098156864
 40
0.8563364658
 40
0.9035883331
 40
0.9515014468
 40
1.0
 40
1.0
 40
1.0
 40
1.0
 10
14.9521463173
 20
7.4211470276
 30
0.0
 10
14.9506589539
 20
7.4212501796
 30
0.0
 10
14.9476820905
 20
7.4215788507
 30
0.0
 10
14.9432501664
 20
7.4224356055
 30
0.0
 10
14.9388478579
 20
7.4236559756
 30
0.0
 10
14.9344777488
 20
7.425239049
 30
0.0
 10
14.9301415689
 20
7.4271839287
 30
0.0
 10
14.9243192081
 20
7.4303050011
 30
0.0
 10
14.9186550049
 20
7.4341257356
 30
0.0
 10
14.9131734515
 20
7.4385533021
 30
0.0
 10
14.9090330757
 20
7.4422863145
 30
0.0
 10
14.904936868
 20
7.4463720511
 30
0.0
 10
14.9008859207
 20
7.4508091259
 30
0.0
 10
14.8968818853
 20
7.4555956102
 30
0.0
 10
14.8929261759
 20
7.4607295227
 30
0.0
 10
14.8890203981
 20
7.4662088191
 30
0.0
 10
14.8851660109
 20
7.47203124
 30
0.0
 10
14.8813645302
 20
7.4781944298
 30
0.0
 10
14.8776175159
 20
7.4846959144
 30
0.0
 10
14.8739263918
 20
7.4915330193
 30
0.0
 10
14.8702927026
 20
7.4987029918
 30
0.0
 10
14.8667179063
 20
7.5062029043
 30
0.0
 10
14.8632034201
 20
7.5140296869
 30
0.0
 10
14.8597507459
 20
7.5221801654
 30
0.0
 10
14.8563612362
 20
7.5306509855
 30
0.0
 10
14.853036304
 20
7.5394386862
 30
0.0
 10
14.8497773415
 20
7.5485396706
 30
0.0
 10
14.8465856337
 20
7.5579501915
 30
0.0
 10
14.8434625539
 20
7.5676663972
 30
0.0
 10
14.8404093596
 20
7.5776842885
 30
0.0
 10
14.8374273023
 20
7.5879997421
 30
0.0
 10
14.8345176438
 20
7.5986085341
 30
0.0
 10
14.8306932343
 20
7.6133041243
 30
0.0
 10
14.8261126937
 20
7.6323804262
 30
0.0
 10
14.8209830966
 20
7.65612132
 30
0.0
 10
14.8161692775
 20
7.6809224123
 30
0.0
 10
14.8116792501
 20
7.7067428339
 30
0.0
 10
14.8075204955
 20
7.7335401547
 30
0.0
 10
14.8036999349
 20
7.7612702524
 30
0.0
 10
14.8002239366
 20
7.7898874634
 30
0.0
 10
14.7970983025
 20
7.8193446427
 30
0.0
 10
14.7943282424
 20
7.8495932419
 30
0.0
 10
14.7919183656
 20
7.8805833826
 30
0.0
 10
14.7898726865
 20
7.912263966
 30
0.0
 10
14.7881946233
 20
7.9445827683
 30
0.0
 10
14.7868869997
 20
7.9774863677
 30
0.0
 10
14.7859519421
 20
8.0109207998
 30
0.0
 10
14.7853910994
 20
8.0448304742
 30
0.0
 10
14.7852679428
 20
8.0675898979
 30
0.0
 10
14.7852679428
 20
8.0790386059
 30
0.0
  0
SPLINE
  5
378
100
AcDbEntity
  8
0
100
AcDbSpline
 62
7
  6
CONTINUOUS
 70
0
 71
3
 72
35
 73
31
 74
0
 42
0.0000001
 43
0.0000001
 44
0.0000000001
 40
0.0
 40
0.0
 40
0.0
 40
0.0
 40
0.0162143005
 40
0.0334272483
 40
0.0516715468
 40
0.0709705622
 40
0.0913399977
 40
0.1127890138
 40
0.1353212065
 40
0.1589354951
 40
0.1836265646
 40
0.2093856648
 40
0.2362006653
 40
0.264056835
 40
0.2929366383
 40
0.3228205032
 40
0.3536864742
 40
0.3855109381
 40
0.4182682379
 40
0.4519313083
 40
0.4864713366
 40
0.5218582648
 40
0.5580605503
 40
0.5950455243
 40
0.6327792844
 40
0.6712268569
 40
0.7501174568
 40
0.8314198091
 40
0.9148214267
 40
1.0
 40
1.0
 40
1.0
 40
1.0
 10
14.9125657231
 20
7.7927466209
 30
0.0
 10
14.9112467502
 20
7.7943683562
 30
0.0
 10
14.9086385883
 20
7.7978030613
 30
0.0
 10
14.9049190249
 20
7.8033331521
 30
0.0
 10
14.9012812532
 20
7.8093862305
 30
0.0
 10
14.897728974
 20
7.8159558694
 30
0.0
 10
14.8942656416
 20
7.823035508
 30
0.0
 10
14.8908947769
 20
7.8306178937
 30
0.0
 10
14.887619812
 20
7.8386952422
 30
0.0
 10
14.8844441825
 20
7.8472592188
 30
0.0
 10
14.8813711532
 20
7.8563009332
 30
0.0
 10
14.878404017
 20
7.8658109855
 30
0.0
 10
14.8755458253
 20
7.8757794432
 30
0.0
 10
14.8727996802
 20
7.8861958901
 30
0.0
 10
14.8701683995
 20
7.8970494099
 30
0.0
 10
14.8676548596
 20
7.9083286239
 30
0.0
 10
14.8652616357
 20
7.920021689
 30
0.0
 10
14.86299135
 20
7.9321163203
 30
0.0
 10
14.8608463313
 20
7.9445998038
 30
0.0
 10
14.8588289254
 20
7.9574590071
 30
0.0
 10
14.8569412109
 20
7.9706804022
 30
0.0
 10
14.8551852409
 20
7.9842500691
 30
0.0
 10
14.8535628375
 20
7.9981537252
 30
0.0
 10
14.8520757535
 20
8.012376724
 30
0.0
 10
14.8507255342
 20
8.0269041026
 30
0.0
 10
14.8490957559
 20
8.046830146
 30
0.0
 10
14.847419752
 20
8.0723864657
 30
0.0
 10
14.8459902862
 20
8.1037606325
 30
0.0
 10
14.8451320312
 20
8.1359664174
 30
0.0
 10
14.8449449041
 20
8.1577007037
 30
0.0
 10
14.8449449041
 20
8.168682129
 30
0.0
  0
SPLINE
  5
379
100
AcDbEntity
  8
0
100
AcDbSpline
 62
7
  6
CONTINUOUS
 70
0
 71
3
 72
48
 73
44
 74
0
 42
0.0000001
 43
0.0000001
 44
0.0000000001
 40
0.0
 40
0.0
 40
0.0
 40
0.0
 40
0.007062849
 40
0.0144558391
 40
0.0221882065
 40
0.0302671694
 40
0.0386983877
 40
0.0474859097
 40
0.0566325674
 40
0.0661400513
 40
0.0760089535
 40
0.0862390982
 40
0.0968293618
 40
0.107777976
 40
0.1190825094
 40
0.1307398472
 40
0.1427464531
 40
0.1550981465
 40
0.1677903603
 40
0.1808180851
 40
0.2078572843
 40
0.2361684294
 40
0.2656981455
 40
0.2963882189
 40
0.3281760764
 40
0.3609952468
 40
0.3947757451
 40
0.4294444153
 40
0.4649252406
 40
0.5011396359
 40
0.5380067617
 40
0.5754438046
 40
0.6133662462
 40
0.6516881232
 40
0.6903222903
 40
0.7291806907
 40
0.7681746301
 40
0.8072150005
 40
0.8462125538
 40
0.8850783277
 40
0.9237230016
 40
0.9620600716
 40
1.0
 40
1.0
 40
1.0
 40
1.0
 10
14.9834141562
 20
8.8143510429
 30
0.0
 10
14.9822589168
 20
8.813275874
 30
0.0
 10
14.9799496314
 20
8.8110153815
 30
0.0
 10
14.976565165
 20
8.8073905341
 30
0.0
 10
14.9731843833
 20
8.8034576861
 30
0.0
 10
14.9698092813
 20
8.7992193407
 30
0.0
 10
14.9664418752
 20
8.7946779333
 30
0.0
 10
14.9630840855
 20
8.7898362288
 30
0.0
 10
14.9597379333
 20
8.7846971
 30
0.0
 10
14.956405441
 20
8.7792636215
 30
0.0
 10
14.9530885499
 20
8.7735390838
 30
0.0
 10
14.94978934
 20
8.7675269013
 30
0.0
 10
14.9465097424
 20
8.7612307292
 30
0.0
 10
14.9432517754
 20
8.7546543606
 30
0.0
 10
14.9400174352
 20
8.7478017713
 30
0.0
 10
14.9368086367
 20
8.7406771284
 30
0.0
 10
14.9336274024
 20
8.7332847322
 30
0.0
 10
14.930475617
 20
8.7256290885
 30
0.0
 10
14.9273552106
 20
8.7177148318
 30
0.0
 10
14.92318737
 20
8.7066870971
 30
0.0
 10
14.9180788258
 20
8.6922857687
 30
0.0
 10
14.912176857
 20
8.6742597523
 30
0.0
 10
14.9064441323
 20
8.6553252956
 30
0.0
 10
14.9008947061
 20
8.6355284623
 30
0.0
 10
14.895542174
 20
8.614917314
 30
0.0
 10
14.8903996509
 20
8.5935419757
 30
0.0
 10
14.8854797346
 20
8.5714544426
 30
0.0
 10
14.8807944768
 20
8.5487084672
 30
0.0
 10
14.8763553521
 20
8.5253594261
 30
0.0
 10
14.872173217
 20
8.5014641845
 30
0.0
 10
14.8682583005
 20
8.4770809483
 30
0.0
 10
14.8646201767
 20
8.4522691171
 30
0.0
 10
14.8612677429
 20
8.4270891397
 30
0.0
 10
14.858209197
 20
8.4016023696
 30
0.0
 10
14.8554520048
 20
8.3758709154
 30
0.0
 10
14.8530028959
 20
8.3499574827
 30
0.0
 10
14.8508678488
 20
8.3239252231
 30
0.0
 10
14.8490520748
 20
8.2978375816
 30
0.0
 10
14.847559998
 20
8.2717581076
 30
0.0
 10
14.8463952682
 20
8.2457504662
 30
0.0
 10
14.8455606584
 20
8.219877772
 30
0.0
 10
14.8450582716
 20
8.1942034399
 30
0.0
 10
14.8449449041
 20
8.1771595868
 30
0.0
 10
14.8449449041
 20
8.168682129
 30
0.0
  0
SPLINE
  5
37A
100
AcDbEntity
  8
0
100
AcDbSpline
 62
7
  6
CONTINUOUS
 70
0
 71
3
 72
57
 73
53
 74
0
 42
0.0000001
 43
0.0000001
 44
0.0000000001
 40
0.0
 40
0.0
 40
0.0
 40
0.0
 40
0.0532127087
 40
0.1056336001
 40
0.1571441482
 40
0.2076344014
 40
0.2569942499
 40
0.3051180993
 40
0.3519040583
 40
0.3972545148
 40
0.4410766457
 40
0.4832828669
 40
0.5237914618
 40
0.5625272517
 40
0.5994223212
 40
0.6171610544
 40
0.6344179693
 40
0.6511870155
 40
0.6674629807
 40
0.6832411894
 40
0.6985179104
 40
0.713290241
 40
0.7275561438
 40
0.7413148193
 40
0.7545664441
 40
0.7673126385
 40
0.7795564798
 40
0.7913025977
 40
0.8025576998
 40
0.8133304593
 40
0.823632115
 40
0.8334767229
 40
0.8428814315
 40
0.8518672155
 40
0.8604590208
 40
0.8686864633
 40
0.8765841999
 40
0.8841921305
 40
0.8915557174
 40
0.8987255866
 40
0.9057570652
 40
0.9127091257
 40
0.9196429401
 40
0.9266202119
 40
0.9337014097
 40
0.9409441657
 40
0.9484019599
 40
0.9641403262
 40
0.9725130778
 40
0.9812629159
 40
0.9904174403
 40
1.0
 40
1.0
 40
1.0
 40
1.0
 10
15.1192928655
 20
8.433681926
 30
0.0
 10
15.1192928655
 20
8.4419523782
 30
0.0
 10
15.1191863283
 20
8.4583704361
 30
0.0
 10
15.1187000289
 20
8.4827900536
 30
0.0
 10
15.1178894239
 20
8.5067777731
 30
0.0
 10
15.1167565692
 20
8.5302761762
 30
0.0
 10
15.1153041454
 20
8.5532296574
 30
0.0
 10
15.1135356804
 20
8.5755835401
 30
0.0
 10
15.1114554474
 20
8.5972847281
 30
0.0
 10
15.1090684685
 20
8.6182816673
 30
0.0
 10
15.106380506
 20
8.6385245011
 30
0.0
 10
15.1033980371
 20
8.6579651817
 30
0.0
 10
15.1001282626
 20
8.6765576618
 30
0.0
 10
15.0965790551
 20
8.6942577978
 30
0.0
 10
15.0933549194
 20
8.7084089368
 30
0.0
 10
15.0906337784
 20
8.7192463338
 30
0.0
 10
15.0885552181
 20
8.7270189465
 30
0.0
 10
15.0864134086
 20
8.7345382674
 30
0.0
 10
15.0842096735
 20
8.7417998612
 30
0.0
 10
15.0819452676
 20
8.7487994174
 30
0.0
 10
15.0796215675
 20
8.7555328021
 30
0.0
 10
15.0772399681
 20
8.7619960429
 30
0.0
 10
15.0748018217
 20
8.7681853124
 30
0.0
 10
15.0723086466
 20
8.7740969872
 30
0.0
 10
15.0697618435
 20
8.7797275766
 30
0.0
 10
15.0671629296
 20
8.7850737862
 30
0.0
 10
15.0645134442
 20
8.7901325039
 30
0.0
 10
15.0618148412
 20
8.7949007483
 30
0.0
 10
15.0590687494
 20
8.7993757875
 30
0.0
 10
15.0562766445
 20
8.8035549951
 30
0.0
 10
15.0534400883
 20
8.8074359529
 30
0.0
 10
15.0505606564
 20
8.8110164351
 30
0.0
 10
15.0476397827
 20
8.8142942761
 30
0.0
 10
15.0446790652
 20
8.8172675884
 30
0.0
 10
15.041679925
 20
8.8199344792
 30
0.0
 10
15.0386438579
 20
8.8222931967
 30
0.0
 10
15.0355724177
 20
8.8243421209
 30
0.0
 10
15.0324671096
 20
8.8260794987
 30
0.0
 10
15.0293297341
 20
8.8275038691
 30
0.0
 10
15.0261621764
 20
8.8286136688
 30
0.0
 10
15.0229666467
 20
8.8294075818
 30
0.0
 10
15.019745625
 20
8.829884705
 30
0.0
 10
15.0165017662
 20
8.8300442988
 30
0.0
 10
15.0132378206
 20
8.8298864246
 30
0.0
 10
15.0099565109
 20
8.8294114219
 30
0.0
 10
15.0066601561
 20
8.8286199892
 30
0.0
 10
15.0021688125
 20
8.8271181296
 30
0.0
 10
14.9977247581
 20
8.8249858883
 30
0.0
 10
14.9933686422
 20
8.8223156244
 30
0.0
 10
14.9900277943
 20
8.8199614306
 30
0.0
 10
14.986683867
 20
8.8172994385
 30
0.0
 10
14.9845043868
 20
8.8153657088
 30
0.0
 10
14.9834141562
 20
8.8143510429
 30
0.0
  0
SPLINE
  5
37B
100
AcDbEntity
  8
0
100
AcDbSpline
 62
7
  6
CONTINUOUS
 70
0
 71
3
 72
49
 73
45
 74
0
 42
0.0000001
 43
0.0000001
 44
0.0000000001
 40
0.0
 40
0.0
 40
0.0
 40
0.0
 40
0.0484979075
 40
0.0964123934
 40
0.1436644301
 40
0.1901851492
 40
0.2359045129
 40
0.2807535259
 40
0.3246657531
 40
0.3675767197
 40
0.40942399
 40
0.4501476491
 40
0.4896904781
 40
0.5279979766
 40
0.5650188813
 40
0.6007053614
 40
0.6350131867
 40
0.6679024235
 40
0.6993376815
 40
0.7292886023
 40
0.7577308559
 40
0.7846466915
 40
0.8100260892
 40
0.8221397906
 40
0.8338699586
 40
0.8452182914
 40
0.8561873308
 40
0.866780411
 40
0.8770020066
 40
0.8868577794
 40
0.8963545419
 40
0.9055006249
 40
0.9143060269
 40
0.9227824129
 40
0.9309434922
 40
0.9388052512
 40
0.9463859741
 40
0.9607837694
 40
0.9676581156
 40
0.97435197
 40
0.9808975134
 40
0.9873293463
 40
0.9936841239
 40
1.0
 40
1.0
 40
1.0
 40
1.0
 10
15.0458081826
 20
8.4227011687
 30
0.0
 10
15.0458081826
 20
8.4288157111
 30
0.0
 10
15.0457423948
 20
8.4409713502
 30
0.0
 10
15.045442869
 20
8.4590822321
 30
0.0
 10
15.0449434641
 20
8.4769393663
 30
0.0
 10
15.044245054
 20
8.4945128651
 30
0.0
 10
15.0433488281
 20
8.51177404
 30
0.0
 10
15.0422562514
 20
8.5286943788
 30
0.0
 10
15.0409691453
 20
8.5452459383
 30
0.0
 10
15.0394896854
 20
8.5614014473
 30
0.0
 10
15.0378203102
 20
8.5771342693
 30
0.0
 10
15.0359638023
 20
8.5924184708
 30
0.0
 10
15.0339232838
 20
8.6072288724
 30
0.0
 10
15.0317021205
 20
8.6215410808
 30
0.0
 10
15.0293040271
 20
8.6353315409
 30
0.0
 10
15.0267330208
 20
8.6485775749
 30
0.0
 10
15.023993343
 20
8.6612574156
 30
0.0
 10
15.0210895828
 20
8.6733502631
 30
0.0
 10
15.0180265783
 20
8.6848363207
 30
0.0
 10
15.0148093698
 20
8.6956968033
 30
0.0
 10
15.0114433146
 20
8.7059140906
 30
0.0
 10
15.0079339614
 20
8.7154714634
 30
0.0
 10
15.0048487276
 20
8.7229857704
 30
0.0
 10
15.0023064569
 20
8.7286476416
 30
0.0
 10
15.0003971625
 20
8.7326532742
 30
0.0
 10
14.998456432
 20
8.7364826806
 30
0.0
 10
14.9964850557
 20
8.7401343249
 30
0.0
 10
14.9944837923
 20
8.7436066978
 30
0.0
 10
14.9924534499
 20
8.7468983935
 30
0.0
 10
14.9903948678
 20
8.7500081008
 30
0.0
 10
14.9883088163
 20
8.7529345333
 30
0.0
 10
14.9861961036
 20
8.755676501
 30
0.0
 10
14.9840575847
 20
8.7582329169
 30
0.0
 10
14.9818940134
 20
8.7606027177
 30
0.0
 10
14.9797062546
 20
8.7627848567
 30
0.0
 10
14.9774949137
 20
8.7647786168
 30
0.0
 10
14.97456728
 20
8.7671433559
 30
0.0
 10
14.9715420496
 20
8.7691839262
 30
0.0
 10
14.9684324026
 20
8.7708508967
 30
0.0
 10
14.9661164648
 20
8.7718895872
 30
0.0
 10
14.963782436
 20
8.772735101
 30
0.0
 10
14.9614312053
 20
8.7733869082
 30
0.0
 10
14.959064143
 20
8.7738444362
 30
0.0
 10
14.9574742297
 20
8.7740199871
 30
0.0
 10
14.956679842
 20
8.7740750835
 30
0.0
  0
SPLINE
  5
37C
100
AcDbEntity
  8
0
100
AcDbSpline
 62
7
  6
CONTINUOUS
 70
0
 71
3
 72
66
 73
62
 74
0
 42
0.0000001
 43
0.0000001
 44
0.0000000001
 40
0.0
 40
0.0
 40
0.0
 40
0.0
 40
0.0452917928
 40
0.0911371645
 40
0.1373524712
 40
0.1837513361
 40
0.2301468632
 40
0.2763520146
 40
0.3221807929
 40
0.3674491523
 40
0.4119759995
 40
0.455584183
 40
0.4981015077
 40
0.5393617773
 40
0.5594708023
 40
0.579206547
 40
0.5985503874
 40
0.6174843719
 40
0.6359910885
 40
0.6540539167
 40
0.6716568471
 40
0.6887847783
 40
0.705423331
 40
0.7215591482
 40
0.7371797587
 40
0.7522738396
 40
0.7668311806
 40
0.7808428827
 40
0.7943014671
 40
0.8072010057
 40
0.8195374087
 40
0.831308515
 40
0.8425145829
 40
0.8531584071
 40
0.8632460366
 40
0.8727870277
 40
0.8817954107
 40
0.8902902204
 40
0.8982967123
 40
0.9058472458
 40
0.9129826136
 40
0.9197530163
 40
0.9230210152
 40
0.9262213116
 40
0.9293630737
 40
0.9324560419
 40
0.9355104659
 40
0.938537038
 40
0.9415467839
 40
0.9445509247
 40
0.9475607527
 40
0.9505874926
 40
0.9536421574
 40
0.9567354364
 40
0.9598775957
 40
0.9630783636
 40
0.9696893951
 40
0.9766367194
 40
0.9839755101
 40
0.9917511511
 40
1.0
 40
1.0
 40
1.0
 40
1.0
 10
10.2606858681
 20
11.1545325447
 30
0.0
 10
10.249382473
 20
11.1553164378
 30
0.0
 10
10.2266226342
 20
11.1566861322
 30
0.0
 10
10.192290866
 20
11.1581460938
 30
0.0
 10
10.1576620722
 20
11.1590203691
 30
0.0
 10
10.1228858304
 20
11.1593051189
 30
0.0
 10
10.0881123008
 20
11.1589991173
 30
0.0
 10
10.0534916014
 20
11.1581036908
 30
0.0
 10
10.0191732021
 20
11.1566227462
 30
0.0
 10
9.9853052467
 20
11.1545627401
 30
0.0
 10
9.952033929
 20
11.1519326556
 30
0.0
 10
9.9195027942
 20
11.1487439759
 30
0.0
 10
9.8878523162
 20
11.145010591
 30
0.0
 10
9.8621089371
 20
11.1414292505
 30
0.0
 10
9.8420620926
 20
11.1382959332
 30
0.0
 10
9.8274596463
 20
11.1358406104
 30
0.0
 10
9.8131769786
 20
11.1332625233
 30
0.0
 10
9.7992294904
 20
11.1305645031
 30
0.0
 10
9.7856322379
 20
11.1277494138
 30
0.0
 10
9.7723998893
 20
11.1248203794
 30
0.0
 10
9.7595467199
 20
11.121780498
 30
0.0
 10
9.7470865852
 20
11.1186331437
 30
0.0
 10
9.7350329187
 20
11.1153816534
 30
0.0
 10
9.7233986997
 20
11.1120296197
 30
0.0
 10
9.7121964574
 20
11.1085806171
 30
0.0
 10
9.7014382354
 20
11.1050384257
 30
0.0
 10
9.6911355961
 20
11.1014068504
 30
0.0
 10
9.6812995921
 20
11.0976898276
 30
0.0
 10
9.6719407562
 20
11.0938913778
 30
0.0
 10
9.6630690977
 20
11.0900155596
 30
0.0
 10
9.6546940579
 20
11.086066581
 30
0.0
 10
9.6468245537
 20
11.0820485829
 30
0.0
 10
9.6394688763
 20
11.0779659094
 30
0.0
 10
9.6326348085
 20
11.0738227294
 30
0.0
 10
9.626329451
 20
11.069623433
 30
0.0
 10
9.6205594343
 20
11.0653721333
 30
0.0
 10
9.6153306865
 20
11.0610731224
 30
0.0
 10
9.6106487457
 20
11.0567303257
 30
0.0
 10
9.6065185521
 20
11.0523477875
 30
0.0
 10
9.6029447855
 20
11.0479290383
 30
0.0
 10
9.5999320123
 20
11.0434782299
 30
0.0
 10
9.5978684095
 20
11.0397008523
 30
0.0
 10
9.5965163312
 20
11.0366759859
 30
0.0
 10
9.5956566513
 20
11.0344294354
 30
0.0
 10
9.5949398271
 20
11.0321791934
 30
0.0
 10
9.5943660873
 20
11.0299258467
 30
0.0
 10
9.5939357041
 20
11.0276700594
 30
0.0
 10
9.5936488816
 20
11.0254125084
 30
0.0
 10
9.5935056904
 20
11.0231538993
 30
0.0
 10
9.593506191
 20
11.0208949351
 30
0.0
 10
9.5936504347
 20
11.0186363287
 30
0.0
 10
9.5939383471
 20
11.0163787941
 30
0.0
 10
9.594369762
 20
11.0141230191
 30
0.0
 10
9.594944499
 20
11.0118696945
 30
0.0
 10
9.595662415
 20
11.0096194386
 30
0.0
 10
9.596822368
 20
11.0065918961
 30
0.0
 10
9.5986461957
 20
11.0028072743
 30
0.0
 10
9.6013789545
 20
10.9983417738
 30
0.0
 10
9.6046748833
 20
10.9939064229
 30
0.0
 10
9.6085293252
 20
10.9895056613
 30
0.0
 10
9.611381194
 20
10.9866833154
 30
0.0
 10
9.612891846
 20
10.9852774856
 30
0.0
  0
SPLINE
  5
37D
100
AcDbEntity
  8
0
100
AcDbSpline
 62
7
  6
CONTINUOUS
 70
0
 71
3
 72
23
 73
19
 74
0
 42
0.0000001
 43
0.0000001
 44
0.0000000001
 40
0.0
 40
0.0
 40
0.0
 40
0.0
 40
0.0637764154
 40
0.1273451281
 40
0.190701988
 40
0.253856063
 40
0.3168132283
 40
0.3795820791
 40
0.4421733864
 40
0.5045993414
 40
0.5668738629
 40
0.629012379
 40
0.6910316532
 40
0.7529496461
 40
0.8147853522
 40
0.8765586034
 40
0.9382898574
 40
1.0
 40
1.0
 40
1.0
 40
1.0
 10
9.4078221741
 20
6.6624543269
 30
0.0
 10
9.4078221741
 20
6.66776176
 30
0.0
 10
9.4080762376
 20
6.678361139
 30
0.0
 10
9.4092228007
 20
6.6941957034
 30
0.0
 10
9.4111319018
 20
6.7099047931
 30
0.0
 10
9.413798942
 20
6.7254514219
 30
0.0
 10
9.417217951
 20
6.740800121
 30
0.0
 10
9.4213810193
 20
6.7559154081
 30
0.0
 10
9.4262785707
 20
6.7707624497
 30
0.0
 10
9.4318994188
 20
6.7853069931
 30
0.0
 10
9.438230583
 20
6.799515505
 30
0.0
 10
9.4452574736
 20
6.8133552266
 30
0.0
 10
9.4529639456
 20
6.8267942135
 30
0.0
 10
9.4613322684
 20
6.8398014563
 30
0.0
 10
9.4703430842
 20
6.8523469484
 30
0.0
 10
9.4799757319
 20
6.8644018466
 30
0.0
 10
9.490207662
 20
6.8759379274
 30
0.0
 10
9.4974140862
 20
6.883266387
 30
0.0
 10
9.5011078026
 20
6.8868342442
 30
0.0
  0
SPLINE
  5
37E
100
AcDbEntity
  8
0
100
AcDbSpline
 62
7
  6
CONTINUOUS
 70
0
 71
3
 72
53
 73
49
 74
0
 42
0.0000001
 43
0.0000001
 44
0.0000000001
 40
0.0
 40
0.0
 40
0.0
 40
0.0
 40
0.0417980102
 40
0.084061146
 40
0.1266596798
 40
0.1694642645
 40
0.2123437092
 40
0.2551669658
 40
0.2978030491
 40
0.340121765
 40
0.3819941616
 40
0.4232930719
 40
0.4638936358
 40
0.5036738378
 40
0.5425150561
 40
0.5803026285
 40
0.616926442
 40
0.6522815588
 40
0.686268895
 40
0.7187959727
 40
0.7344854186
 40
0.7497785602
 40
0.7646661501
 40
0.7791394797
 40
0.7931905193
 40
0.8068119563
 40
0.8199971819
 40
0.8327405154
 40
0.8450370521
 40
0.8568830467
 40
0.8682756951
 40
0.8792136024
 40
0.8896966181
 40
0.8997262966
 40
0.9093059115
 40
0.9184408512
 40
0.9271389013
 40
0.9354105761
 40
0.9432697026
 40
0.9507337391
 40
0.9578246072
 40
0.9645690399
 40
0.9709994555
 40
0.9771542211
 40
0.9830781111
 40
0.9888220421
 40
0.9944424647
 40
1.0
 40
1.0
 40
1.0
 40
1.0
 10
10.2451567383
 20
11.0815770032
 30
0.0
 10
10.2364331563
 20
11.0821819857
 30
0.0
 10
10.2188789544
 20
11.0832592222
 30
0.0
 10
10.1924074992
 20
11.0844750218
 30
0.0
 10
10.1657101681
 20
11.0852972933
 30
0.0
 10
10.1388746547
 20
11.0857233517
 30
0.0
 10
10.1119887602
 20
11.0857517678
 30
0.0
 10
10.0851406402
 20
11.0853824623
 30
0.0
 10
10.0584182479
 20
11.084616647
 30
0.0
 10
10.0319091497
 20
11.0834568529
 30
0.0
 10
10.0057001992
 20
11.0819069077
 30
0.0
 10
9.9798772626
 20
11.0799719296
 30
0.0
 10
9.9545249307
 20
11.077658309
 30
0.0
 10
9.9297262387
 20
11.0749736894
 30
0.0
 10
9.9055623905
 20
11.0719269438
 30
0.0
 10
9.8821124818
 20
11.0685281469
 30
0.0
 10
9.8594532517
 20
11.0647885404
 30
0.0
 10
9.8376587585
 20
11.0607205059
 30
0.0
 10
9.8168003474
 20
11.0563374932
 30
0.0
 10
9.8000598451
 20
11.0523886809
 30
0.0
 10
9.7871926328
 20
11.0490744404
 30
0.0
 10
9.7779340438
 20
11.0465490769
 30
0.0
 10
9.7689586307
 20
11.0439562773
 30
0.0
 10
9.7602737206
 20
11.0412981316
 30
0.0
 10
9.7518864139
 20
11.0385768273
 30
0.0
 10
9.7438035538
 20
11.0357946209
 30
0.0
 10
9.736031743
 20
11.0329537493
 30
0.0
 10
9.7285773024
 20
11.0300566076
 30
0.0
 10
9.7214463172
 20
11.027105484
 30
0.0
 10
9.7146445605
 20
11.0241028835
 30
0.0
 10
9.7081775746
 20
11.0210511554
 30
0.0
 10
9.7020505661
 20
11.0179528707
 30
0.0
 10
9.6962685047
 20
11.014810452
 30
0.0
 10
9.6908360211
 20
11.0116264825
 30
0.0
 10
9.6857574824
 20
11.0084034585
 30
0.0
 10
9.6810369457
 20
11.0051439196
 30
0.0
 10
9.6766781556
 20
11.0018504099
 30
0.0
 10
9.6726846202
 20
10.9985253698
 30
0.0
 10
9.6690594766
 20
10.9951713344
 30
0.0
 10
9.6658057531
 20
10.9917906027
 30
0.0
 10
9.6629260768
 20
10.9883856333
 30
0.0
 10
9.660423137
 20
10.984958609
 30
0.0
 10
9.6582992697
 20
10.9815119386
 30
0.0
 10
9.6565570033
 20
10.9780479067
 30
0.0
 10
9.6551985908
 20
10.9745692259
 30
0.0
 10
9.6542263247
 20
10.9710786823
 30
0.0
 10
9.6536420892
 20
10.9675803382
 30
0.0
 10
9.6535118847
 20
10.9652397816
 30
0.0
 10
9.6535118933
 20
10.9640770932
 30
0.0
  0
SPLINE
  5
37F
100
AcDbEntity
  8
0
100
AcDbSpline
 62
7
  6
CONTINUOUS
 70
0
 71
3
 72
23
 73
19
 74
0
 42
0.0000001
 43
0.0000001
 44
0.0000000001
 40
0.0
 40
0.0
 40
0.0
 40
0.0
 40
0.0637764154
 40
0.1273451281
 40
0.190701988
 40
0.253856063
 40
0.3168132283
 40
0.3795820791
 40
0.4421733864
 40
0.5045993414
 40
0.5668738629
 40
0.629012379
 40
0.6910316532
 40
0.7529496461
 40
0.8147853522
 40
0.8765586034
 40
0.9382898574
 40
1.0
 40
1.0
 40
1.0
 40
1.0
 10
13.5110754097
 20
6.3778927485
 30
0.0
 10
13.5110754097
 20
6.3832001816
 30
0.0
 10
13.5113294732
 20
6.3937995606
 30
0.0
 10
13.5124760363
 20
6.409634125
 30
0.0
 10
13.5143851375
 20
6.4253432147
 30
0.0
 10
13.5170521777
 20
6.4408898435
 30
0.0
 10
13.5204711867
 20
6.4562385426
 30
0.0
 10
13.524634255
 20
6.4713538297
 30
0.0
 10
13.5295318064
 20
6.4862008713
 30
0.0
 10
13.5351526544
 20
6.5007454147
 30
0.0
 10
13.5414838187
 20
6.5149539266
 30
0.0
 10
13.5485107093
 20
6.5287936482
 30
0.0
 10
13.5562171812
 20
6.5422326351
 30
0.0
 10
13.5645855041
 20
6.5552398779
 30
0.0
 10
13.5735963198
 20
6.56778537
 30
0.0
 10
13.5832289676
 20
6.5798402682
 30
0.0
 10
13.5934608976
 20
6.591376349
 30
0.0
 10
13.6006673218
 20
6.5987048086
 30
0.0
 10
13.6043610383
 20
6.6022726659
 30
0.0
  0
SPLINE
  5
380
100
AcDbEntity
  8
0
100
AcDbSpline
 62
7
  6
CONTINUOUS
 70
0
 71
3
 72
42
 73
38
 74
0
 42
0.0000001
 43
0.0000001
 44
0.0000000001
 40
0.0
 40
0.0
 40
0.0
 40
0.0
 40
0.0149723971
 40
0.029947854
 40
0.0449294092
 40
0.0599200692
 40
0.0749227779
 40
0.0899404136
 40
0.1200256609
 40
0.1502025864
 40
0.1804899033
 40
0.2109037105
 40
0.2414571471
 40
0.2721601282
 40
0.3030191646
 40
0.3340372675
 40
0.3652139349
 40
0.3965452155
 40
0.4280238444
 40
0.459639443
 40
0.4913787765
 40
0.5232260611
 40
0.5551633129
 40
0.5871707307
 40
0.6192271064
 40
0.6513102549
 40
0.683397459
 40
0.7154659208
 40
0.7474932143
 40
0.7794577337
 40
0.8113391302
 40
0.8431187274
 40
0.8747799267
 40
0.906308519
 40
0.9376931951
 40
0.9689252215
 40
1.0
 40
1.0
 40
1.0
 40
1.0
 10
9.9790935534
 20
6.3919872246
 30
0.0
 10
9.9762398589
 20
6.3892307665
 30
0.0
 10
9.9704216503
 20
6.383830108
 30
0.0
 10
9.961378293
 20
6.3760815357
 30
0.0
 10
9.9520304752
 20
6.3686949858
 30
0.0
 10
9.9423912153
 20
6.3616809233
 30
0.0
 10
9.9324735626
 20
6.3550487886
 30
0.0
 10
9.9188910416
 20
6.3467235412
 30
0.0
 10
9.9012758811
 20
6.3373133656
 30
0.0
 10
9.8792679043
 20
6.3276928943
 30
0.0
 10
9.8564945924
 20
6.3197875285
 30
0.0
 10
9.8330822976
 20
6.3136410909
 30
0.0
 10
9.8091597754
 20
6.3092869818
 30
0.0
 10
9.7848588011
 20
6.3067488925
 30
0.0
 10
9.7603130812
 20
6.3060404561
 30
0.0
 10
9.7356576149
 20
6.3071652546
 30
0.0
 10
9.71102793
 20
6.3101167985
 30
0.0
 10
9.6865593521
 20
6.3148785807
 30
0.0
 10
9.6623862685
 20
6.3214241779
 30
0.0
 10
9.6386413999
 20
6.3297174016
 30
0.0
 10
9.6154550792
 20
6.339712498
 30
0.0
 10
9.5929545483
 20
6.351354411
 30
0.0
 10
9.5712632697
 20
6.3645790847
 30
0.0
 10
9.550500258
 20
6.3793138148
 30
0.0
 10
9.5307794357
 20
6.3954776457
 30
0.0
 10
9.512209016
 20
6.4129818115
 30
0.0
 10
9.4948909154
 20
6.4317302191
 30
0.0
 10
9.478920201
 20
6.45161997
 30
0.0
 10
9.4643845732
 20
6.4725419193
 30
0.0
 10
9.4513638808
 20
6.4943812626
 30
0.0
 10
9.4399296958
 20
6.5170181694
 30
0.0
 10
9.4301449137
 20
6.5403284163
 30
0.0
 10
9.4220634337
 20
6.5641841127
 30
0.0
 10
9.4157297953
 20
6.5884542052
 30
0.0
 10
9.4111790891
 20
6.6130058806
 30
0.0
 10
9.4084364542
 20
6.6377025724
 30
0.0
 10
9.4078221741
 20
6.6542197442
 30
0.0
 10
9.4078221741
 20
6.6624543269
 30
0.0
  0
SPLINE
  5
381
100
AcDbEntity
  8
0
100
AcDbSpline
 62
7
  6
CONTINUOUS
 70
0
 71
3
 72
61
 73
57
 74
0
 42
0.0000001
 43
0.0000001
 44
0.0000000001
 40
0.0
 40
0.0
 40
0.0
 40
0.0
 40
0.0027758433
 40
0.0055595941
 40
0.0083590873
 40
0.0111820092
 40
0.0140358402
 40
0.0169278032
 40
0.0228516385
 40
0.0290063602
 40
0.0354367082
 40
0.0387681006
 40
0.0421822872
 40
0.0492730731
 40
0.0567370731
 40
0.064596108
 40
0.072867737
 40
0.081565694
 40
0.09070057
 40
0.1002800962
 40
0.110309688
 40
0.1207926208
 40
0.131730418
 40
0.1431229861
 40
0.1549688512
 40
0.1672653029
 40
0.1800084954
 40
0.1931936241
 40
0.2068149163
 40
0.2208658417
 40
0.235339028
 40
0.2502264837
 40
0.2655194851
 40
0.2812087772
 40
0.2972844765
 40
0.3137362206
 40
0.3305531169
 40
0.3477238252
 40
0.3652365653
 40
0.3830791312
 40
0.4012389558
 40
0.4197030683
 40
0.4574902793
 40
0.4963311237
 40
0.5361109391
 40
0.5767111052
 40
0.6180096092
 40
0.6598815936
 40
0.7021998921
 40
0.7448355581
 40
0.7876583843
 40
0.8305374341
 40
0.8733415137
 40
0.9159398405
 40
0.9582021223
 40
1.0
 40
1.0
 40
1.0
 40
1.0
 10
9.2435119049
 20
11.0529425082
 30
0.0
 10
9.243511907
 20
11.0540298471
 30
0.0
 10
9.2435722312
 20
11.0562081011
 30
0.0
 10
9.2438435662
 20
11.0594727939
 30
0.0
 10
9.2442957178
 20
11.0627360877
 30
0.0
 10
9.2449284927
 20
11.0659970969
 30
0.0
 10
9.2457417556
 20
11.0692552106
 30
0.0
 10
9.2470768896
 20
11.0736288311
 30
0.0
 10
9.249213516
 20
11.0791009159
 30
0.0
 10
9.2524755596
 20
11.0855862568
 30
0.0
 10
9.2557502515
 20
11.0909006656
 30
0.0
 10
9.2587095297
 20
11.0951304015
 30
0.0
 10
9.2619813743
 20
11.0994527755
 30
0.0
 10
9.2665304246
 20
11.1048317601
 30
0.0
 10
9.2726224593
 20
11.1111613991
 30
0.0
 10
9.2794099566
 20
11.1174414125
 30
0.0
 10
9.2868872667
 20
11.1236669331
 30
0.0
 10
9.2950483895
 20
11.1298335582
 30
0.0
 10
9.3038868767
 20
11.1359364799
 30
0.0
 10
9.3133956333
 20
11.1419710931
 30
0.0
 10
9.3235671068
 20
11.1479325608
 30
0.0
 10
9.3343931114
 20
11.1538162169
 30
0.0
 10
9.3458649588
 20
11.1596172864
 30
0.0
 10
9.3579733803
 20
11.1653311116
 30
0.0
 10
9.37070858
 20
11.1709530472
 30
0.0
 10
9.3840602318
 20
11.1764784956
 30
0.0
 10
9.3980174776
 20
11.1819029793
 30
0.0
 10
9.4125689675
 20
11.1872220039
 30
0.0
 10
9.4277028309
 20
11.1924312774
 30
0.0
 10
9.443406733
 20
11.1975264487
 30
0.0
 10
9.4596678408
 20
11.2025034165
 30
0.0
 10
9.4764728771
 20
11.2073580111
 30
0.0
 10
9.4938080961
 20
11.2120863204
 30
0.0
 10
9.5116593247
 20
11.2166843914
 30
0.0
 10
9.5300119536
 20
11.2211484996
 30
0.0
 10
9.5488509637
 20
11.2254749357
 30
0.0
 10
9.5681609318
 20
11.2296601675
 30
0.0
 10
9.5879260458
 20
11.2337007471
 30
0.0
 10
9.6081301202
 20
11.2375933462
 30
0.0
 10
9.6287566005
 20
11.2413347833
 30
0.0
 10
9.6497886084
 20
11.2449219682
 30
0.0
 10
9.6785703163
 20
11.2495306873
 30
0.0
 10
9.7154366178
 20
11.254873944
 30
0.0
 10
9.7606794705
 20
11.2605784949
 30
0.0
 10
9.8071110702
 20
11.2656050036
 30
0.0
 10
9.8545792384
 20
11.2699368842
 30
0.0
 10
9.9029285444
 20
11.2735598173
 30
0.0
 10
9.9520005959
 20
11.276461839
 30
0.0
 10
10.0016346275
 20
11.2786333662
 30
0.0
 10
10.0516680143
 20
11.2800672293
 30
0.0
 10
10.101936817
 20
11.2807586963
 30
0.0
 10
10.1522763125
 20
11.2807054813
 30
0.0
 10
10.2025215646
 20
11.2799077674
 30
0.0
 10
10.252507909
 20
11.2783681726
 30
0.0
 10
10.3020714813
 20
11.2760918079
 30
0.0
 10
10.3349388433
 20
11.2740748476
 30
0.0
 10
10.3512724592
 20
11.2729421074
 30
0.0
  0
SPLINE
  5
382
100
AcDbEntity
  8
0
100
AcDbSpline
 62
7
  6
CONTINUOUS
 70
0
 71
3
 72
42
 73
38
 74
0
 42
0.0000001
 43
0.0000001
 44
0.0000000001
 40
0.0
 40
0.0
 40
0.0
 40
0.0
 40
0.0149723971
 40
0.029947854
 40
0.0449294092
 40
0.0599200692
 40
0.0749227779
 40
0.0899404136
 40
0.1200256609
 40
0.1502025864
 40
0.1804899033
 40
0.2109037105
 40
0.2414571471
 40
0.2721601282
 40
0.3030191646
 40
0.3340372675
 40
0.3652139349
 40
0.3965452155
 40
0.4280238444
 40
0.459639443
 40
0.4913787765
 40
0.5232260611
 40
0.5551633129
 40
0.5871707307
 40
0.6192271064
 40
0.6513102549
 40
0.683397459
 40
0.7154659208
 40
0.7474932143
 40
0.7794577337
 40
0.8113391302
 40
0.8431187274
 40
0.8747799267
 40
0.906308519
 40
0.9376931951
 40
0.9689252215
 40
1.0
 40
1.0
 40
1.0
 40
1.0
 10
14.082346789
 20
6.1074256462
 30
0.0
 10
14.0794930945
 20
6.1046691881
 30
0.0
 10
14.073674886
 20
6.0992685296
 30
0.0
 10
14.0646315287
 20
6.0915199573
 30
0.0
 10
14.0552837109
 20
6.0841334074
 30
0.0
 10
14.0456444509
 20
6.0771193449
 30
0.0
 10
14.0357267983
 20
6.0704872103
 30
0.0
 10
14.0221442773
 20
6.0621619628
 30
0.0
 10
14.0045291167
 20
6.0527517872
 30
0.0
 10
13.9825211399
 20
6.0431313159
 30
0.0
 10
13.959747828
 20
6.0352259501
 30
0.0
 10
13.9363355333
 20
6.0290795125
 30
0.0
 10
13.9124130111
 20
6.0247254034
 30
0.0
 10
13.8881120368
 20
6.0221873141
 30
0.0
 10
13.8635663169
 20
6.0214788777
 30
0.0
 10
13.8389108505
 20
6.0226036762
 30
0.0
 10
13.8142811656
 20
6.0255552201
 30
0.0
 10
13.7898125878
 20
6.0303170023
 30
0.0
 10
13.7656395042
 20
6.0368625995
 30
0.0
 10
13.7418946356
 20
6.0451558232
 30
0.0
 10
13.7187083148
 20
6.0551509196
 30
0.0
 10
13.696207784
 20
6.0667928326
 30
0.0
 10
13.6745165053
 20
6.0800175063
 30
0.0
 10
13.6537534936
 20
6.0947522364
 30
0.0
 10
13.6340326713
 20
6.1109160673
 30
0.0
 10
13.6154622516
 20
6.1284202331
 30
0.0
 10
13.598144151
 20
6.1471686407
 30
0.0
 10
13.5821734367
 20
6.1670583917
 30
0.0
 10
13.5676378088
 20
6.1879803409
 30
0.0
 10
13.5546171164
 20
6.2098196842
 30
0.0
 10
13.5431829314
 20
6.232456591
 30
0.0
 10
13.5333981494
 20
6.2557668379
 30
0.0
 10
13.5253166693
 20
6.2796225343
 30
0.0
 10
13.518983031
 20
6.3038926268
 30
0.0
 10
13.5144323248
 20
6.3284443022
 30
0.0
 10
13.5116896898
 20
6.3531409941
 30
0.0
 10
13.5110754097
 20
6.3696581658
 30
0.0
 10
13.5110754097
 20
6.3778927485
 30
0.0
  0
SPLINE
  5
383
100
AcDbEntity
  8
0
100
AcDbSpline
 62
7
  6
CONTINUOUS
 70
0
 71
3
 72
60
 73
56
 74
0
 42
0.0000001
 43
0.0000001
 44
0.0000000001
 40
0.0
 40
0.0
 40
0.0
 40
0.0
 40
0.0417737215
 40
0.0840362954
 40
0.1266575307
 40
0.1695051874
 40
0.2124464681
 40
0.2553480875
 40
0.2980769527
 40
0.3405006415
 40
0.3824879411
 40
0.4239093736
 40
0.4646377307
 40
0.5045486136
 40
0.543520985
 40
0.5814377367
 40
0.599965091
 40
0.6181867239
 40
0.6360893624
 40
0.6536601077
 40
0.6708864507
 40
0.6877562714
 40
0.7042579206
 40
0.7203801597
 40
0.7361123056
 40
0.7514441249
 40
0.7663660213
 40
0.7808689196
 40
0.7949444585
 40
0.8085849095
 40
0.8217833396
 40
0.8345336065
 40
0.8468304684
 40
0.8586696849
 40
0.8700480724
 40
0.8809637257
 40
0.8914160437
 40
0.9014060712
 40
0.9109365509
 40
0.9200123738
 40
0.9286407389
 40
0.9368317014
 40
0.9445985263
 40
0.9519583321
 40
0.9589326812
 40
0.9655482848
 40
0.9718377328
 40
0.9778400566
 40
0.9836011837
 40
0.9864084827
 40
0.9891757961
 40
0.9919106627
 40
0.9946209124
 40
0.9973146132
 40
1.0
 40
1.0
 40
1.0
 40
1.0
 10
15.2407890863
 20
8.5190382688
 30
0.0
 10
15.2407890863
 20
8.5026210744
 30
0.0
 10
15.2405329613
 20
8.4695940489
 30
0.0
 10
15.2394006728
 20
8.4198284215
 30
0.0
 10
15.2375213585
 20
8.3696629653
 30
0.0
 10
15.2349011715
 20
8.3192637115
 30
0.0
 10
15.2315487753
 20
8.2687974289
 30
0.0
 10
15.227475249
 20
8.2184310654
 30
0.0
 10
15.2226940876
 20
8.1683312571
 30
0.0
 10
15.2172211403
 20
8.1186637454
 30
0.0
 10
15.2110745651
 20
8.0695928345
 30
0.0
 10
15.2042747678
 20
8.0212808372
 30
0.0
 10
15.1968443341
 20
7.9738875491
 30
0.0
 10
15.1888079636
 20
7.9275696547
 30
0.0
 10
15.1801923617
 20
7.8824804159
 30
0.0
 10
15.1724959918
 20
7.8457773692
 30
0.0
 10
15.1660621298
 20
7.8171471391
 30
0.0
 10
15.1611473253
 20
7.7962383915
 30
0.0
 10
15.1561101238
 20
7.7757457264
 30
0.0
 10
15.1509546868
 20
7.7556860762
 30
0.0
 10
15.145685304
 20
7.7360760341
 30
0.0
 10
15.1403063183
 20
7.7169318153
 30
0.0
 10
15.134822231
 20
7.6982692444
 30
0.0
 10
15.129237536
 20
7.6801037515
 30
0.0
 10
15.1235569292
 20
7.6624503411
 30
0.0
 10
15.11778505
 20
7.6453236049
 30
0.0
 10
15.1119267579
 20
7.6287376761
 30
0.0
 10
15.1059868393
 20
7.6127062551
 30
0.0
 10
15.0999702807
 20
7.5972425567
 30
0.0
 10
15.0938820163
 20
7.5823593378
 30
0.0
 10
15.0877271229
 20
7.5680688504
 30
0.0
 10
15.0815106771
 20
7.5543828563
 30
0.0
 10
15.0752378119
 20
7.5413126035
 30
0.0
 10
15.0689137298
 20
7.5288688071
 30
0.0
 10
15.0625435886
 20
7.5170616719
 30
0.0
 10
15.0561326835
 20
7.5059008184
 30
0.0
 10
15.0496861666
 20
7.4953953698
 30
0.0
 10
15.0432093682
 20
7.4855538118
 30
0.0
 10
15.036707399
 20
7.4763841508
 30
0.0
 10
15.0301855335
 20
7.4678937193
 30
0.0
 10
15.0236487871
 20
7.4600893868
 30
0.0
 10
15.0171022526
 20
7.4529773632
 30
0.0
 10
15.010550763
 20
7.4465634172
 30
0.0
 10
15.0039990941
 20
7.4408527747
 30
0.0
 10
14.9974518006
 20
7.435850277
 30
0.0
 10
14.9909133429
 20
7.4315605057
 30
0.0
 10
14.9843879687
 20
7.4279877471
 30
0.0
 10
14.9778806943
 20
7.4251365029
 30
0.0
 10
14.97242911
 20
7.4233497234
 30
0.0
 10
14.9680982573
 20
7.4222978464
 30
0.0
 10
14.9648866079
 20
7.4216973723
 30
0.0
 10
14.961684693
 20
7.4212788996
 30
0.0
 10
14.9584931231
 20
7.4210425612
 30
0.0
 10
14.9553128009
 20
7.4209884915
 30
0.0
 10
14.9531991533
 20
7.4210740111
 30
0.0
 10
14.9521463173
 20
7.4211470276
 30
0.0
  0
SPLINE
  5
384
100
AcDbEntity
  8
0
100
AcDbSpline
 62
7
  6
CONTINUOUS
 70
0
 71
3
 72
55
 73
51
 74
0
 42
0.0000001
 43
0.0000001
 44
0.0000000001
 40
0.0
 40
0.0
 40
0.0
 40
0.0
 40
0.0481975415
 40
0.0958290817
 40
0.142818713
 40
0.1890963521
 40
0.2345910715
 40
0.279234315
 40
0.3229593385
 40
0.3657013756
 40
0.4073979227
 40
0.4479889149
 40
0.4874169784
 40
0.525627636
 40
0.5625695632
 40
0.5981948995
 40
0.6324596307
 40
0.6653239472
 40
0.681220104
 40
0.69675341
 40
0.7119202568
 40
0.7267175098
 40
0.7411423279
 40
0.7551923488
 40
0.7688656914
 40
0.782160877
 40
0.7950770786
 40
0.8076139743
 40
0.8197718786
 40
0.8315518771
 40
0.8429557109
 40
0.8539860605
 40
0.8646465134
 40
0.8749416424
 40
0.8848772785
 40
0.8944604376
 40
0.9036996141
 40
0.912604918
 40
0.921188144
 40
0.9294631376
 40
0.9374458256
 40
0.9451544636
 40
0.952609859
 40
0.9598353745
 40
0.966857131
 40
0.9737039172
 40
0.9804070573
 40
0.9870002114
 40
0.9935188976
 40
1.0
 40
1.0
 40
1.0
 40
1.0
 10
10.3512724592
 20
11.2729421074
 30
0.0
 10
10.3628005904
 20
11.2721426288
 30
0.0
 10
10.3857127749
 20
11.2704243654
 30
0.0
 10
10.4198279714
 20
11.2674698943
 30
0.0
 10
10.4534478036
 20
11.2641571177
 30
0.0
 10
10.4865156331
 20
11.2604917142
 30
0.0
 10
10.5189764805
 20
11.2564797584
 30
0.0
 10
10.5507759667
 20
11.2521280213
 30
0.0
 10
10.5818609663
 20
11.24744382
 30
0.0
 10
10.612179533
 20
11.2424350247
 30
0.0
 10
10.6416810002
 20
11.2371100509
 30
0.0
 10
10.6703160909
 20
11.231477847
 30
0.0
 10
10.6980369974
 20
11.2255478948
 30
0.0
 10
10.7247974623
 20
11.2193301681
 30
0.0
 10
10.750552835
 20
11.2128351206
 30
0.0
 10
10.7752602268
 20
11.2060736647
 30
0.0
 10
10.7988783731
 20
11.199057175
 30
0.0
 10
10.8178240847
 20
11.1929415768
 30
0.0
 10
10.8323994771
 20
11.1879222674
 30
0.0
 10
10.84291319
 20
11.1841431831
 30
0.0
 10
10.8531260904
 20
11.1803092802
 30
0.0
 10
10.8630339463
 20
11.1764222015
 30
0.0
 10
10.8726326156
 20
11.1724835334
 30
0.0
 10
10.8819181017
 20
11.1684949249
 30
0.0
 10
10.8908865518
 20
11.1644580779
 30
0.0
 10
10.8995342142
 20
11.1603746115
 30
0.0
 10
10.9078575154
 20
11.156246283
 30
0.0
 10
10.9158529944
 20
11.1520747873
 30
0.0
 10
10.9235173223
 20
11.1478618267
 30
0.0
 10
10.9308473521
 20
11.1436092062
 30
0.0
 10
10.9378400212
 20
11.1393186115
 30
0.0
 10
10.9444924576
 20
11.1349918422
 30
0.0
 10
10.9508019264
 20
11.1306306797
 30
0.0
 10
10.9567657889
 20
11.1262368353
 30
0.0
 10
10.9623816341
 20
11.1218121571
 30
0.0
 10
10.9676471136
 20
11.1173583617
 30
0.0
 10
10.9725600481
 20
11.1128772181
 30
0.0
 10
10.9771184376
 20
11.1083705308
 30
0.0
 10
10.9813202992
 20
11.1038399705
 30
0.0
 10
10.9851639021
 20
11.099287343
 30
0.0
 10
10.9886475505
 20
11.0947143577
 30
0.0
 10
10.9917696214
 20
11.0901227195
 30
0.0
 10
10.994528719
 20
11.0855142392
 30
0.0
 10
10.9969233493
 20
11.0808906325
 30
0.0
 10
10.9989522497
 20
11.0762537758
 30
0.0
 10
11.0006142375
 20
11.0716055884
 30
0.0
 10
11.0019081158
 20
11.0669481004
 30
0.0
 10
11.0028330889
 20
11.0622834096
 30
0.0
 10
11.0033883526
 20
11.0576141642
 30
0.0
 10
11.0035118731
 20
11.0544959498
 30
0.0
 10
11.00351187
 20
11.0529420437
 30
0.0
  0
SPLINE
  5
385
100
AcDbEntity
  8
0
100
AcDbSpline
 62
7
  6
CONTINUOUS
 70
0
 71
3
 72
55
 73
51
 74
0
 42
0.0000001
 43
0.0000001
 44
0.0000000001
 40
0.0
 40
0.0
 40
0.0
 40
0.0
 40
0.0407884447
 40
0.0820180483
 40
0.1235724386
 40
0.1653338624
 40
0.2071839136
 40
0.2490038195
 40
0.2906749325
 40
0.3320791448
 40
0.3730993305
 40
0.4136197821
 40
0.4535266521
 40
0.4927084011
 40
0.5310562534
 40
0.5684646648
 40
0.6048318082
 40
0.6400600835
 40
0.6572181794
 40
0.6740571591
 40
0.690566278
 40
0.7067351362
 40
0.7225537693
 40
0.7380125951
 40
0.7531025281
 40
0.7678149112
 40
0.7821416558
 40
0.7960751603
 40
0.8096084783
 40
0.8227352277
 40
0.8354497896
 40
0.8477472138
 40
0.8596234527
 40
0.8710752723
 40
0.8821005263
 40
0.892698087
 40
0.9028681685
 40
0.9126122955
 40
0.9219336907
 40
0.9308373074
 40
0.9393302984
 40
0.9474221451
 40
0.9551252252
 40
0.962455063
 40
0.9694309922
 40
0.9760765081
 40
0.9824199382
 40
0.9884947491
 40
0.9943399538
 40
1.0
 40
1.0
 40
1.0
 40
1.0
 10
10.3512724592
 20
11.2420324777
 30
0.0
 10
10.3355440102
 20
11.2431232493
 30
0.0
 10
10.3038997193
 20
11.2450744907
 30
0.0
 10
10.2561849978
 20
11.2473064661
 30
0.0
 10
10.2080668517
 20
11.2488552361
 30
0.0
 10
10.1596916759
 20
11.2497160455
 30
0.0
 10
10.111206511
 20
11.2498862659
 30
0.0
 10
10.0627587546
 20
11.2493653733
 30
0.0
 10
10.0144956888
 20
11.2481549634
 30
0.0
 10
9.9665640297
 20
11.2462587405
 30
0.0
 10
9.9191094803
 20
11.2436825097
 30
0.0
 10
9.8722762828
 20
11.2404341583
 30
0.0
 10
9.8262067781
 20
11.2365236335
 30
0.0
 10
9.7810409632
 20
11.231962914
 30
0.0
 10
9.7369160787
 20
11.2267659716
 30
0.0
 10
9.693966117
 20
11.220948741
 30
0.0
 10
9.6523216474
 20
11.2145290366
 30
0.0
 10
9.6185212232
 20
11.2086432851
 30
0.0
 10
9.5922349349
 20
11.2036381092
 30
0.0
 10
9.5730972165
 20
11.1997791745
 30
0.0
 10
9.5543780093
 20
11.1957852784
 30
0.0
 10
9.5360915173
 20
11.191659413
 30
0.0
 10
9.5182516349
 20
11.1874047656
 30
0.0
 10
9.5008719103
 20
11.1830245376
 30
0.0
 10
9.4839655371
 20
11.1785221144
 30
0.0
 10
9.4675453504
 20
11.1739008773
 30
0.0
 10
9.4516238041
 20
11.1691644046
 30
0.0
 10
9.4362129786
 20
11.1643162442
 30
0.0
 10
9.421324547
 20
11.159360156
 30
0.0
 10
9.4069697963
 20
11.1542998412
 30
0.0
 10
9.3931595785
 20
11.1491392277
 30
0.0
 10
9.3799043499
 20
11.1438821546
 30
0.0
 10
9.367214102
 20
11.1385327016
 30
0.0
 10
9.3550984258
 20
11.1330948268
 30
0.0
 10
9.3435664138
 20
11.1275727404
 30
0.0
 10
9.3326267586
 20
11.1219704952
 30
0.0
 10
9.3222876186
 20
11.1162924021
 30
0.0
 10
9.3125567605
 20
11.1105425745
 30
0.0
 10
9.3034413793
 20
11.1047253813
 30
0.0
 10
9.2949483012
 20
11.0988449469
 30
0.0
 10
9.287083748
 20
11.0929056348
 30
0.0
 10
9.2798536213
 20
11.0869115122
 30
0.0
 10
9.2732632076
 20
11.0808668537
 30
0.0
 10
9.2673175701
 20
11.0747755916
 30
0.0
 10
9.2620211973
 20
11.0686418449
 30
0.0
 10
9.257378521
 20
11.0624693808
 30
0.0
 10
9.2533935207
 20
11.0562622893
 30
0.0
 10
9.2500702581
 20
11.0500242024
 30
0.0
 10
9.2474126434
 20
11.0437603811
 30
0.0
 10
9.2460689713
 20
11.0395121833
 30
0.0
 10
9.2455160461
 20
11.0373953914
 30
0.0
  0
SPLINE
  5
386
100
AcDbEntity
  8
0
100
AcDbSpline
 62
7
  6
CONTINUOUS
 70
0
 71
3
 72
54
 73
50
 74
0
 42
0.0000001
 43
0.0000001
 44
0.0000000001
 40
0.0
 40
0.0
 40
0.0
 40
0.0
 40
0.0063158427
 40
0.0126705974
 40
0.0191023953
 40
0.0256479035
 40
0.0323417516
 40
0.0392160545
 40
0.0536138127
 40
0.061194488
 40
0.0690562166
 40
0.0772172825
 40
0.0856936302
 40
0.0944989909
 40
0.1036450473
 40
0.113141787
 40
0.1229974971
 40
0.1332190617
 40
0.1438121259
 40
0.1547810799
 40
0.1661293869
 40
0.1778595312
 40
0.189973133
 40
0.2024711534
 40
0.2153537503
 40
0.2286205275
 40
0.2422705277
 40
0.256302183
 40
0.2707135528
 40
0.2855021644
 40
0.300665138
 40
0.316199276
 40
0.3321009043
 40
0.3649900029
 40
0.3992976831
 40
0.4349839512
 40
0.472004695
 40
0.5103120262
 40
0.5498546333
 40
0.5905781015
 40
0.6324251619
 40
0.6753358913
 40
0.7192479428
 40
0.7640967229
 40
0.8098156864
 40
0.8563364658
 40
0.9035883331
 40
0.9515014468
 40
1.0
 40
1.0
 40
1.0
 40
1.0
 10
15.0739107118
 20
9.1769298471
 30
0.0
 10
15.0753980752
 20
9.1768266951
 30
0.0
 10
15.0783749386
 20
9.1764980241
 30
0.0
 10
15.0828068627
 20
9.1756412693
 30
0.0
 10
15.0872091712
 20
9.1744208992
 30
0.0
 10
15.0915792803
 20
9.1728378258
 30
0.0
 10
15.0959154602
 20
9.170892946
 30
0.0
 10
15.101737821
 20
9.1677718736
 30
0.0
 10
15.1074020242
 20
9.1639511392
 30
0.0
 10
15.1128835776
 20
9.1595235727
 30
0.0
 10
15.1170239534
 20
9.1557905603
 30
0.0
 10
15.1211201611
 20
9.1517048236
 30
0.0
 10
15.1251711084
 20
9.1472677489
 30
0.0
 10
15.1291751438
 20
9.1424812645
 30
0.0
 10
15.1331308532
 20
9.137347352
 30
0.0
 10
15.137036631
 20
9.1318680556
 30
0.0
 10
15.1408910182
 20
9.1260456348
 30
0.0
 10
15.1446924989
 20
9.119882445
 30
0.0
 10
15.1484395132
 20
9.1133809604
 30
0.0
 10
15.1521306373
 20
9.1065438555
 30
0.0
 10
15.1557643265
 20
9.099373883
 30
0.0
 10
15.1593391227
 20
9.0918739705
 30
0.0
 10
15.162853609
 20
9.0840471878
 30
0.0
 10
15.1663062832
 20
9.0758967093
 30
0.0
 10
15.1696957929
 20
9.0674258892
 30
0.0
 10
15.1730207251
 20
9.0586381885
 30
0.0
 10
15.1762796876
 20
9.0495372042
 30
0.0
 10
15.1794713954
 20
9.0401266833
 30
0.0
 10
15.1825944752
 20
9.0304104775
 30
0.0
 10
15.1856476695
 20
9.0203925863
 30
0.0
 10
15.1886297268
 20
9.0100771327
 30
0.0
 10
15.1915393853
 20
8.9994683406
 30
0.0
 10
15.1953637947
 20
8.9847727504
 30
0.0
 10
15.1999443354
 20
8.9656964485
 30
0.0
 10
15.2050739325
 20
8.9419555548
 30
0.0
 10
15.2098877516
 20
8.9171544624
 30
0.0
 10
15.2143777789
 20
8.8913340409
 30
0.0
 10
15.2185365336
 20
8.86453672
 30
0.0
 10
15.2223570942
 20
8.8368066224
 30
0.0
 10
15.2258330925
 20
8.8081894114
 30
0.0
 10
15.2289587266
 20
8.7787322321
 30
0.0
 10
15.2317287867
 20
8.7484836329
 30
0.0
 10
15.2341386635
 20
8.7174934921
 30
0.0
 10
15.2361843426
 20
8.6858129088
 30
0.0
 10
15.2378624058
 20
8.6534941064
 30
0.0
 10
15.2391700294
 20
8.6205905071
 30
0.0
 10
15.240105087
 20
8.587156075
 30
0.0
 10
15.2406659297
 20
8.5532464005
 30
0.0
 10
15.2407890863
 20
8.5304869768
 30
0.0
 10
15.2407890863
 20
8.5190382688
 30
0.0
  0
SPLINE
  5
387
100
AcDbEntity
  8
0
100
AcDbSpline
 62
7
  6
CONTINUOUS
 70
0
 71
3
 72
52
 73
48
 74
0
 42
0.0000001
 43
0.0000001
 44
0.0000000001
 40
0.0
 40
0.0
 40
0.0
 40
0.0
 40
0.0467165042
 40
0.0929172831
 40
0.1385350807
 40
0.1835092096
 40
0.227777734
 40
0.271280476
 40
0.313958923
 40
0.3557560294
 40
0.3966166259
 40
0.4364874837
 40
0.4753174411
 40
0.5130576482
 40
0.5496617794
 40
0.5850861781
 40
0.619290108
 40
0.6522361201
 40
0.6838903086
 40
0.714222653
 40
0.7432075445
 40
0.7571884623
 40
0.7708251981
 40
0.7841161092
 40
0.7970599101
 40
0.8096557022
 40
0.8219031694
 40
0.8338024247
 40
0.8453541378
 40
0.856559674
 40
0.8674209674
 40
0.8779407349
 40
0.8881225468
 40
0.8979707725
 40
0.9074908579
 40
0.9166893405
 40
0.9255738999
 40
0.9341536621
 40
0.9424391888
 40
0.950442638
 40
0.9581780347
 40
0.9656612603
 40
0.9729102607
 40
0.9799451954
 40
0.9867883846
 40
0.9934644072
 40
1.0
 40
1.0
 40
1.0
 40
1.0
 10
10.3512724592
 20
11.2420324777
 30
0.0
 10
10.3622021167
 20
11.2412745034
 30
0.0
 10
10.3839329404
 20
11.2396511916
 30
0.0
 10
10.4163040522
 20
11.2368773024
 30
0.0
 10
10.4482354672
 20
11.2337809787
 30
0.0
 10
10.479678727
 20
11.2303669968
 30
0.0
 10
10.5105869567
 20
11.2266404405
 30
0.0
 10
10.5409136337
 20
11.222606958
 30
0.0
 10
10.57061321
 20
11.2182726413
 30
0.0
 10
10.5996411001
 20
11.2136440056
 30
0.0
 10
10.6279537204
 20
11.2087280563
 30
0.0
 10
10.6555085789
 20
11.2035322213
 30
0.0
 10
10.6822643212
 20
11.1980643299
 30
0.0
 10
10.7081808107
 20
11.1923326353
 30
0.0
 10
10.7332191978
 20
11.1863458107
 30
0.0
 10
10.7573419595
 20
11.1801128944
 30
0.0
 10
10.7805129696
 20
11.1736432748
 30
0.0
 10
10.8026975609
 20
11.1669467357
 30
0.0
 10
10.8238626411
 20
11.1600333816
 30
0.0
 10
10.8439764772
 20
11.1529136288
 30
0.0
 10
10.8600242542
 20
11.1467455813
 30
0.0
 10
10.8723060243
 20
11.1417078408
 30
0.0
 10
10.8811251951
 20
11.1379300293
 30
0.0
 10
10.8896598211
 20
11.134108751
 30
0.0
 10
10.8979067251
 20
11.1302454193
 30
0.0
 10
10.9058628028
 20
11.1263414376
 30
0.0
 10
10.9135251081
 20
11.1223983191
 30
0.0
 10
10.9208907756
 20
11.1184175144
 30
0.0
 10
10.9279570449
 20
11.1144004753
 30
0.0
 10
10.9347213154
 20
11.1103487524
 30
0.0
 10
10.9411810504
 20
11.1062638008
 30
0.0
 10
10.9473338466
 20
11.1021471243
 30
0.0
 10
10.9531774522
 20
11.0980002834
 30
0.0
 10
10.9587096611
 20
11.0938247305
 30
0.0
 10
10.9639284381
 20
11.0896220084
 30
0.0
 10
10.9688318705
 20
11.0853936593
 30
0.0
 10
10.9734180787
 20
11.0811411266
 30
0.0
 10
10.9776853898
 20
11.0768659697
 30
0.0
 10
10.9816321984
 20
11.0725696868
 30
0.0
 10
10.9852569333
 20
11.0682537188
 30
0.0
 10
10.9885582467
 20
11.0639196204
 30
0.0
 10
10.9915347776
 20
11.0595688551
 30
0.0
 10
10.9941852314
 20
11.0552028956
 30
0.0
 10
10.9965085122
 20
11.0508233446
 30
0.0
 10
10.9985034664
 20
11.0464316374
 30
0.0
 10
11.0001689967
 20
11.0420297079
 30
0.0
 10
11.001067603
 20
11.0390614412
 30
0.0
 10
11.0014593323
 20
11.0375796243
 30
0.0
  0
SPLINE
  5
388
100
AcDbEntity
  8
0
100
AcDbSpline
 62
7
  6
CONTINUOUS
 70
0
 71
3
 72
56
 73
52
 74
0
 42
0.0000001
 43
0.0000001
 44
0.0000000001
 40
0.0
 40
0.0
 40
0.0
 40
0.0
 40
0.0528982897
 40
0.1050253704
 40
0.1562613861
 40
0.2064947536
 40
0.2556139344
 40
0.3035119723
 40
0.350085679
 40
0.3952362979
 40
0.4388700056
 40
0.4808984038
 40
0.5212391516
 40
0.5598167002
 40
0.5965630842
 40
0.6142312003
 40
0.6314199975
 40
0.648123614
 40
0.6643369231
 40
0.6800554301
 40
0.6952756727
 40
0.7099949249
 40
0.7242115616
 40
0.7379250919
 40
0.751136125
 40
0.7638468495
 40
0.7760608228
 40
0.7877834515
 40
0.7990221396
 40
0.809786418
 40
0.8200885668
 40
0.8299436149
 40
0.8393700009
 40
0.8483899132
 40
0.8570296276
 40
0.8732865752
 40
0.8809916853
 40
0.8884709628
 40
0.8957755484
 40
0.9029608185
 40
0.9100851782
 40
0.9172087046
 40
0.9243914841
 40
0.9316920242
 40
0.9391657414
 40
0.9468639657
 40
0.9631035808
 40
0.9717332385
 40
0.9807422217
 40
0.9901570613
 40
1.0
 40
1.0
 40
1.0
 40
1.0
 10
10.2606858681
 20
11.1545325447
 30
0.0
 10
10.269057866
 20
11.1539519447
 30
0.0
 10
10.2856722453
 20
11.1526866966
 30
0.0
 10
10.3103629718
 20
11.1504586304
 30
0.0
 10
10.3345985579
 20
11.1479182517
 30
0.0
 10
10.3583196112
 20
11.1450719047
 30
0.0
 10
10.3814686182
 20
11.1419264925
 30
0.0
 10
10.4039891062
 20
11.1384897603
 30
0.0
 10
10.4258262889
 20
11.1347701409
 30
0.0
 10
10.4469270352
 20
11.130776771
 30
0.0
 10
10.4672400385
 20
11.1265194602
 30
0.0
 10
10.4867159261
 20
11.1220086634
 30
0.0
 10
10.5053074615
 20
11.1172554569
 30
0.0
 10
10.5229694388
 20
11.1122715136
 30
0.0
 10
10.5370560387
 20
11.1078806569
 30
0.0
 10
10.5478213553
 20
11.1042533814
 30
0.0
 10
10.5555308964
 20
11.1015185212
 30
0.0
 10
10.5629772256
 20
11.0987353133
 30
0.0
 10
10.5701558437
 20
11.0959054683
 30
0.0
 10
10.5770623784
 20
11.0930306467
 30
0.0
 10
10.5836926679
 20
11.0901126692
 30
0.0
 10
10.5900426882
 20
11.0871532551
 30
0.0
 10
10.5961086051
 20
11.0841542064
 30
0.0
 10
10.6018867767
 20
11.081117373
 30
0.0
 10
10.6073736946
 20
11.0780445059
 30
0.0
 10
10.6125660994
 20
11.0749375294
 30
0.0
 10
10.617460855
 20
11.0717982308
 30
0.0
 10
10.6220550381
 20
11.0686284757
 30
0.0
 10
10.6263459331
 20
11.0654301574
 30
0.0
 10
10.6303309276
 20
11.0622050336
 30
0.0
 10
10.634007695
 20
11.0589550408
 30
0.0
 10
10.6373740012
 20
11.0556818791
 30
0.0
 10
10.6404277103
 20
11.052387508
 30
0.0
 10
10.6431672567
 20
11.0490732022
 30
0.0
 10
10.6463333405
 20
11.0447199963
 30
0.0
 10
10.6489577758
 20
11.0402374236
 30
0.0
 10
10.6509454089
 20
11.0356572661
 30
0.0
 10
10.6520874413
 20
11.0322723599
 30
0.0
 10
10.652905425
 20
11.0288795011
 30
0.0
 10
10.6533985671
 20
11.0254810401
 30
0.0
 10
10.6535660094
 20
11.0220797015
 30
0.0
 10
10.6534075544
 20
11.01867833
 30
0.0
 10
10.6529234865
 20
11.0152797376
 30
0.0
 10
10.6521143899
 20
11.0118867131
 30
0.0
 10
10.650981374
 20
11.0085015274
 30
0.0
 10
10.6490058987
 20
11.0039212434
 30
0.0
 10
10.6463933178
 20
10.99943796
 30
0.0
 10
10.6432385283
 20
10.995084062
 30
0.0
 10
10.6405077379
 20
10.9917691838
 30
0.0
 10
10.6374627442
 20
10.988474325
 30
0.0
 10
10.635274167
 20
10.986340463
 30
0.0
 10
10.634131035
 20
10.9852766642
 30
0.0
  0
SPLINE
  5
389
100
AcDbEntity
  8
0
100
AcDbSpline
 62
7
  6
CONTINUOUS
 70
0
 71
3
 72
51
 73
47
 74
0
 42
0.0000001
 43
0.0000001
 44
0.0000000001
 40
0.0
 40
0.0
 40
0.0
 40
0.0
 40
0.046928674
 40
0.0933258536
 40
0.1391247005
 40
0.1842650677
 40
0.2286855569
 40
0.27232646
 40
0.3151297459
 40
0.3570388266
 40
0.3979989626
 40
0.4379573117
 40
0.4768630548
 40
0.5146676581
 40
0.5513250362
 40
0.586791696
 40
0.621027013
 40
0.6539935618
 40
0.6856573319
 40
0.715988085
 40
0.744959901
 40
0.7589297917
 40
0.7725524388
 40
0.7858260675
 40
0.7987493281
 40
0.8113211943
 40
0.823541189
 40
0.8354093224
 40
0.8469260651
 40
0.8580925929
 40
0.8689106811
 40
0.8793827738
 40
0.8895122167
 40
0.8993031516
 40
0.9087606868
 40
0.9178910975
 40
0.9267017674
 40
0.9352014501
 40
0.9434004281
 40
0.9513105319
 40
0.9589454541
 40
0.9734490494
 40
0.980360818
 40
0.9870730893
 40
0.993610491
 40
1.0
 40
1.0
 40
1.0
 40
1.0
 10
15.2098794565
 20
8.521181859
 30
0.0
 10
15.2098794565
 20
8.5320153861
 30
0.0
 10
15.2097691273
 20
8.55355992
 30
0.0
 10
15.2092670469
 20
8.5856736371
 30
0.0
 10
15.2084299156
 20
8.617367452
 30
0.0
 10
15.207259054
 20
8.648594075
 30
0.0
 10
15.2057561772
 20
8.6793077656
 30
0.0
 10
15.2039235441
 20
8.7094630869
 30
0.0
 10
15.2017638905
 20
8.7390155196
 30
0.0
 10
15.1992804135
 20
8.7679214635
 30
0.0
 10
15.1964768349
 20
8.7961382604
 30
0.0
 10
15.1933573358
 20
8.8236242834
 30
0.0
 10
15.1899265434
 20
8.8503389873
 30
0.0
 10
15.1861895766
 20
8.8762429832
 30
0.0
 10
15.1821520173
 20
8.9012980995
 30
0.0
 10
15.1778198704
 20
8.9254674235
 30
0.0
 10
15.1731995738
 20
8.9487153777
 30
0.0
 10
15.1682980303
 20
8.9710077698
 30
0.0
 10
15.163122537
 20
8.9923119009
 30
0.0
 10
15.1576807607
 20
9.0125963731
 30
0.0
 10
15.1528743427
 20
9.0288165785
 30
0.0
 10
15.1488935892
 20
9.0412533761
 30
0.0
 10
15.145882727
 20
9.0501944148
 30
0.0
 10
15.1428114587
 20
9.0588589671
 30
0.0
 10
15.1396809359
 20
9.0672438726
 30
0.0
 10
15.1364922629
 20
9.0753460333
 30
0.0
 10
15.1332466363
 20
9.0831624852
 30
0.0
 10
15.1299452719
 20
9.0906903731
 30
0.0
 10
15.1265893199
 20
9.0979269182
 30
0.0
 10
15.1231800524
 20
9.1048694927
 30
0.0
 10
15.1197187138
 20
9.1115155652
 30
0.0
 10
15.1162065047
 20
9.1178626854
 30
0.0
 10
15.1126447532
 20
9.1239085717
 30
0.0
 10
15.1090347145
 20
9.1296510174
 30
0.0
 10
15.1053776369
 20
9.1350879106
 30
0.0
 10
15.1016748735
 20
9.1402173179
 30
0.0
 10
15.0979276799
 20
9.1450373402
 30
0.0
 10
15.0941373145
 20
9.1495462267
 30
0.0
 10
15.0903052163
 20
9.1537422909
 30
0.0
 10
15.0864323027
 20
9.1576241918
 30
0.0
 10
15.0813045815
 20
9.1622983193
 30
0.0
 10
15.0760115294
 20
9.1664422858
 30
0.0
 10
15.0705621142
 20
9.1699791929
 30
0.0
 10
15.0665061187
 20
9.1722687298
 30
0.0
 10
15.0624179081
 20
9.1742359769
 30
0.0
 10
15.0596436184
 20
9.1753432921
 30
0.0
 10
15.0582548068
 20
9.1758401805
 30
0.0
  0
SPLINE
  5
38A
100
AcDbEntity
  8
0
100
AcDbSpline
 62
7
  6
CONTINUOUS
 70
0
 71
3
 72
55
 73
51
 74
0
 42
0.0000001
 43
0.0000001
 44
0.0000000001
 40
0.0
 40
0.0
 40
0.0
 40
0.0
 40
0.0407287979
 40
0.0819211605
 40
0.1234593321
 40
0.1652240646
 40
0.2070954084
 40
0.2489529749
 40
0.2906764429
 40
0.332145975
 40
0.3732426647
 40
0.4138489763
 40
0.4538491903
 40
0.4931298539
 40
0.5315802381
 40
0.5690928065
 40
0.6055636992
 40
0.6408932394
 40
0.6581003616
 40
0.6749869375
 40
0.6915419608
 40
0.7077547386
 40
0.7236150357
 40
0.7391129657
 40
0.7542391605
 40
0.7689846458
 40
0.783341034
 40
0.7973003897
 40
0.8108554465
 40
0.8239994673
 40
0.836726485
 40
0.8490311683
 40
0.860909085
 40
0.8723565862
 40
0.8833710963
 40
0.893951031
 40
0.9040961212
 40
0.9138073872
 40
0.9230875099
 40
0.9319408907
 40
0.940374091
 40
0.9483960132
 40
0.9560184353
 40
0.9632563449
 40
0.9701285792
 40
0.9766583035
 40
0.9828736889
 40
0.9888083874
 40
0.9945019744
 40
1.0
 40
1.0
 40
1.0
 40
1.0
 10
15.2098794565
 20
8.521181859
 30
0.0
 10
15.2098794565
 20
8.5053838943
 30
0.0
 10
15.2096423078
 20
8.4736076953
 30
0.0
 10
15.2085932096
 20
8.4257300004
 30
0.0
 10
15.2068515528
 20
8.3774703394
 30
0.0
 10
15.2044226332
 20
8.3289767431
 30
0.0
 10
15.2013138816
 20
8.2803978409
 30
0.0
 10
15.1975348182
 20
8.2318825373
 30
0.0
 10
15.1930970369
 20
8.1835795422
 30
0.0
 10
15.1880141632
 20
8.1356369092
 30
0.0
 10
15.1823018151
 20
8.088201581
 30
0.0
 10
15.1759775552
 20
8.0414189348
 30
0.0
 10
15.1690608372
 20
7.9954323345
 30
0.0
 10
15.1615729484
 20
7.9503826817
 30
0.0
 10
15.1535369431
 20
7.9064079963
 30
0.0
 10
15.14497758
 20
7.8636429223
 30
0.0
 10
15.1359212264
 20
7.8222185349
 30
0.0
 10
15.1279147965
 20
7.7886328372
 30
0.0
 10
15.121272642
 20
7.762536441
 30
0.0
 10
15.1162281761
 20
7.7435490009
 30
0.0
 10
15.1110810991
 20
7.7249890552
 30
0.0
 10
15.1058352863
 20
7.7068708096
 30
0.0
 10
15.1004948349
 20
7.6892081399
 30
0.0
 10
15.0950637794
 20
7.6720145755
 30
0.0
 10
15.089546363
 20
7.6553032716
 30
0.0
 10
15.0839467486
 20
7.6390870258
 30
0.0
 10
15.0782693164
 20
7.6233782335
 30
0.0
 10
15.0725183428
 20
7.6081889187
 30
0.0
 10
15.0666983303
 20
7.5935306755
 30
0.0
 10
15.0608136543
 20
7.5794147155
 30
0.0
 10
15.0548689225
 20
7.5658517914
 30
0.0
 10
15.0488685937
 20
7.5528522648
 30
0.0
 10
15.04281736
 20
7.5404260084
 30
0.0
 10
15.0367197451
 20
7.5285824975
 30
0.0
 10
15.0305805007
 20
7.5173306876
 30
0.0
 10
15.0244041911
 20
7.5066791335
 30
0.0
 10
15.0181955943
 20
7.4966358392
 30
0.0
 10
15.0119592814
 20
7.4872084085
 30
0.0
 10
15.0057000099
 20
7.4784038668
 30
0.0
 10
14.9994223073
 20
7.4702288479
 30
0.0
 10
14.9931308434
 20
7.4626893904
 30
0.0
 10
14.986830029
 20
7.4557911683
 30
0.0
 10
14.9805243556
 20
7.449539275
 30
0.0
 10
14.9742180287
 20
7.4439385068
 30
0.0
 10
14.9679152823
 20
7.4389931608
 30
0.0
 10
14.9616200664
 20
7.4347073734
 30
0.0
 10
14.95533648
 20
7.4310849681
 30
0.0
 10
14.9490682302
 20
7.4281297384
 30
0.0
 10
14.9428205685
 20
7.4258455009
 30
0.0
 10
14.9386093919
 20
7.4247563395
 30
0.0
 10
14.9365195596
 20
7.4243314648
 30
0.0
  0
SPLINE
  5
38B
100
AcDbEntity
  8
0
100
AcDbSpline
 62
7
  6
CONTINUOUS
 70
0
 71
3
 72
65
 73
61
 74
0
 42
0.0000001
 43
0.0000001
 44
0.0000000001
 40
0.0
 40
0.0
 40
0.0
 40
0.0
 40
0.0452101403
 40
0.0910010543
 40
0.1371886841
 40
0.1835861315
 40
0.2300058518
 40
0.2762600284
 40
0.3221617443
 40
0.3675258847
 40
0.4121701265
 40
0.4559159154
 40
0.4985894645
 40
0.5400227765
 40
0.5602239782
 40
0.5800553177
 40
0.5994978763
 40
0.6185333836
 40
0.637144091
 40
0.6553130155
 40
0.6730237599
 40
0.6902608066
 40
0.707009325
 40
0.7232554745
 40
0.7389862522
 40
0.7541897634
 40
0.768855162
 40
0.7829728594
 40
0.7965346024
 40
0.8095336132
 40
0.8219648399
 40
0.8338250494
 40
0.8451132806
 40
0.8558309496
 40
0.8659825331
 40
0.8755757953
 40
0.884622733
 40
0.8931400749
 40
0.9011505178
 40
0.9086836234
 40
0.9157772757
 40
0.9224788236
 40
0.9288462411
 40
0.9319271063
 40
0.9349512632
 40
0.9379289592
 40
0.9408709858
 40
0.9437885797
 40
0.946693278
 40
0.9495967858
 40
0.9525108279
 40
0.9554469857
 40
0.9584165599
 40
0.9614304518
 40
0.9644990307
 40
0.9708362475
 40
0.977501128
 40
0.9845527022
 40
0.9920394252
 40
1.0
 40
1.0
 40
1.0
 40
1.0
 10
15.1192928655
 20
8.433681926
 30
0.0
 10
15.1192928655
 20
8.4223819453
 30
0.0
 10
15.1190913367
 20
8.3996363658
 30
0.0
 10
15.1182027027
 20
8.3653569254
 30
0.0
 10
15.1167291761
 20
8.3308005405
 30
0.0
 10
15.1146770499
 20
8.2961162938
 30
0.0
 10
15.1120551742
 20
8.2614537713
 30
0.0
 10
15.1088748563
 20
8.2269624334
 30
0.0
 10
15.1051498474
 20
8.1927910133
 30
0.0
 10
15.1008962675
 20
8.1590868433
 30
0.0
 10
15.0961325414
 20
8.1259952356
 30
0.0
 10
15.090879328
 20
8.0936587916
 30
0.0
 10
15.0851593993
 20
8.0622169711
 30
0.0
 10
15.079981983
 20
8.0366630224
 30
0.0
 10
15.075617923
 20
8.0167739723
 30
0.0
 10
15.0722717277
 20
8.0022897335
 30
0.0
 10
15.0688284361
 20
7.9881279368
 30
0.0
 10
15.0652918043
 20
7.9743038342
 30
0.0
 10
15.061665601
 20
7.9608323335
 30
0.0
 10
15.0579538165
 20
7.9477279468
 30
0.0
 10
15.0541603921
 20
7.9350047985
 30
0.0
 10
15.0502895071
 20
7.9226765847
 30
0.0
 10
15.0463452753
 20
7.9107565856
 30
0.0
 10
15.0423320312
 20
7.8992576189
 30
0.0
 10
15.0382540556
 20
7.8881920584
 30
0.0
 10
15.034115805
 20
7.8775717863
 30
0.0
 10
15.0299217177
 20
7.8674082081
 30
0.0
 10
15.025676338
 20
7.857712216
 30
0.0
 10
15.0213842451
 20
7.8484941861
 30
0.0
 10
15.0170500357
 20
7.8397639694
 30
0.0
 10
15.0126784014
 20
7.8315308515
 30
0.0
 10
15.0082739507
 20
7.8238035938
 30
0.0
 10
15.0038414386
 20
7.8165903335
 30
0.0
 10
14.9993854312
 20
7.809898699
 30
0.0
 10
14.9949106623
 20
7.8037356345
 30
0.0
 10
14.9904215735
 20
7.798107612
 30
0.0
 10
14.9859227353
 20
7.7930203857
 30
0.0
 10
14.9814183417
 20
7.7884793167
 30
0.0
 10
14.9769125958
 20
7.7844891111
 30
0.0
 10
14.972409349
 20
7.7810542696
 30
0.0
 10
14.9679122227
 20
7.7781788771
 30
0.0
 10
14.9634253336
 20
7.775867257
 30
0.0
 10
14.9596560294
 20
7.7743981408
 30
0.0
 10
14.9566627881
 20
7.7735215479
 30
0.0
 10
14.9544486598
 20
7.7730138259
 30
0.0
 10
14.9522416946
 20
7.7726490345
 30
0.0
 10
14.9500424971
 20
7.7724273473
 30
0.0
 10
14.9478517714
 20
7.7723488386
 30
0.0
 10
14.9456702042
 20
7.7724135584
 30
0.0
 10
14.9434984993
 20
7.7726215478
 30
0.0
 10
14.9413373605
 20
7.77297273
 30
0.0
 10
14.9391874616
 20
7.7734669189
 30
0.0
 10
14.9370494772
 20
7.7741039087
 30
0.0
 10
14.9349240061
 20
7.774883538
 30
0.0
 10
14.9320774854
 20
7.7761258148
 30
0.0
 10
14.9285424914
 20
7.7780522406
 30
0.0
 10
14.9244109733
 20
7.780904161
 30
0.0
 10
14.920346695
 20
7.7843162873
 30
0.0
 10
14.9163535279
 20
7.7882837204
 30
0.0
 10
14.9138211621
 20
7.7912030034
 30
0.0
 10
14.9125657231
 20
7.7927466209
 30
0.0
  0
SPLINE
  5
38C
100
AcDbEntity
  8
0
100
AcDbSpline
 62
7
  6
CONTINUOUS
 70
0
 71
3
 72
50
 73
46
 74
0
 42
0.0000001
 43
0.0000001
 44
0.0000000001
 40
0.0
 40
0.0
 40
0.0
 40
0.0
 40
0.0481971467
 40
0.0958302837
 40
0.1428202972
 40
0.189098125
 40
0.234593468
 40
0.2792371674
 40
0.3229625949
 40
0.3657050869
 40
0.4074020646
 40
0.4479934606
 40
0.4874219564
 40
0.5256330025
 40
0.5625752865
 40
0.5982010318
 40
0.6324661223
 40
0.6653307666
 40
0.696759877
 40
0.7267234672
 40
0.7551976659
 40
0.7821653999
 40
0.7950817077
 40
0.8076187382
 40
0.8197768208
 40
0.831556906
 40
0.8429608765
 40
0.8539913821
 40
0.8646519173
 40
0.8749471748
 40
0.8848829424
 40
0.8944661926
 40
0.9037054754
 40
0.9126108941
 40
0.9211942174
 40
0.9294692922
 40
0.9374520904
 40
0.945160818
 40
0.9598349472
 40
0.9668567795
 40
0.9737036277
 40
0.9804068569
 40
0.9870000777
 40
0.9935188295
 40
1.0
 40
1.0
 40
1.0
 40
1.0
 10
10.2451567383
 20
11.0815770032
 30
0.0
 10
10.2513136909
 20
11.0811500171
 30
0.0
 10
10.2635508998
 20
11.0802322957
 30
0.0
 10
10.2817715212
 20
11.0786543558
 30
0.0
 10
10.2997276493
 20
11.0768850288
 30
0.0
 10
10.3173888341
 20
11.0749273552
 30
0.0
 10
10.3347258515
 20
11.0727846218
 30
0.0
 10
10.3517096723
 20
11.070460405
 30
0.0
 10
10.3683118723
 20
11.067958608
 30
0.0
 10
10.3845047308
 20
11.0652834643
 30
0.0
 10
10.4002611878
 20
11.0624394491
 30
0.0
 10
10.415554921
 20
11.0594313364
 30
0.0
 10
10.4303604002
 20
11.0562642166
 30
0.0
 10
10.4446529116
 20
11.0529433871
 30
0.0
 10
10.4584086168
 20
11.0494744339
 30
0.0
 10
10.4716045976
 20
11.0458632201
 30
0.0
 10
10.4842188768
 20
11.0421157795
 30
0.0
 10
10.4962304906
 20
11.0382384201
 30
0.0
 10
10.5076195037
 20
11.0342376738
 30
0.0
 10
10.5183670954
 20
11.0301201898
 30
0.0
 10
10.5284554008
 20
11.0258928814
 30
0.0
 10
10.5364096915
 20
11.0222337449
 30
0.0
 10
10.5424236083
 20
11.0192509007
 30
0.0
 10
10.5466939249
 20
11.0170229278
 30
0.0
 10
10.5507873865
 20
11.014772853
 30
0.0
 10
10.5547022797
 20
11.0125015453
 30
0.0
 10
10.5584370052
 20
11.0102099845
 30
0.0
 10
10.5619900264
 20
11.0078991159
 30
0.0
 10
10.5653598461
 20
11.0055698395
 30
0.0
 10
10.5685450989
 20
11.0032231375
 30
0.0
 10
10.5715444838
 20
11.0008599675
 30
0.0
 10
10.5743567243
 20
10.9984812282
 30
0.0
 10
10.5769806837
 20
10.9960878931
 30
0.0
 10
10.5794152876
 20
10.9936809226
 30
0.0
 10
10.5816594773
 20
10.9912611827
 30
0.0
 10
10.5837122802
 20
10.9888297013
 30
0.0
 10
10.5855729708
 20
10.9863871698
 30
0.0
 10
10.5877600799
 20
10.9831707459
 30
0.0
 10
10.5896105021
 20
10.9798783379
 30
0.0
 10
10.5910765552
 20
10.9765277243
 30
0.0
 10
10.5919642189
 20
10.9740450927
 30
0.0
 10
10.592655312
 20
10.9715576042
 30
0.0
 10
10.5931493264
 20
10.9690662265
 30
0.0
 10
10.5934458741
 20
10.9665724277
 30
0.0
 10
10.5935118754
 20
10.96490702
 30
0.0
 10
10.5935118816
 20
10.9640770932
 30
0.0
  0
SPLINE
  5
38D
100
AcDbEntity
  8
0
100
AcDbSpline
 62
7
  6
CONTINUOUS
 70
0
 71
3
 72
53
 73
49
 74
0
 42
0.0000001
 43
0.0000001
 44
0.0000000001
 40
0.0
 40
0.0
 40
0.0
 40
0.0
 40
0.0417737868
 40
0.0840371256
 40
0.1266584993
 40
0.1695065817
 40
0.2124481826
 40
0.2553501571
 40
0.298079366
 40
0.3405034004
 40
0.3824910427
 40
0.4239128152
 40
0.4646415078
 40
0.5045527201
 40
0.5435254133
 40
0.5814424786
 40
0.6181913276
 40
0.653664515
 40
0.6877604111
 40
0.7203839441
 40
0.7361162339
 40
0.7514481779
 40
0.7663702088
 40
0.780873231
 40
0.7949488929
 40
0.8085894678
 40
0.8217880088
 40
0.8345383989
 40
0.8468353604
 40
0.858674697
 40
0.8700531754
 40
0.8809689413
 40
0.8914213452
 40
0.9014114735
 40
0.910942038
 40
0.9200179482
 40
0.9286463979
 40
0.9368374342
 40
0.9446043423
 40
0.9519642103
 40
0.9589386382
 40
0.9655542957
 40
0.971843814
 40
0.9778461873
 40
0.983607373
 40
0.9891800465
 40
0.9946230792
 40
1.0
 40
1.0
 40
1.0
 40
1.0
 10
15.0458081826
 20
8.4227011687
 30
0.0
 10
15.0458081826
 20
8.4139329565
 30
0.0
 10
15.0456713827
 20
8.3962935009
 30
0.0
 10
15.0450666522
 20
8.369714158
 30
0.0
 10
15.0440629132
 20
8.3429211974
 30
0.0
 10
15.0426635056
 20
8.3160034612
 30
0.0
 10
15.040873018
 20
8.2890498812
 30
0.0
 10
15.0386973891
 20
8.2621496836
 30
0.0
 10
15.0361438164
 20
8.2353918446
 30
0.0
 10
15.0332207689
 20
8.208864892
 30
0.0
 10
15.029937943
 20
8.1826565767
 30
0.0
 10
15.0263062373
 20
8.1568535902
 30
0.0
 10
15.0223377151
 20
8.1315412727
 30
0.0
 10
15.0180455654
 20
8.1068033277
 30
0.0
 10
15.0134440605
 20
8.0827215413
 30
0.0
 10
15.0085485107
 20
8.0593755012
 30
0.0
 10
15.0033752122
 20
8.036842343
 30
0.0
 10
14.9979413992
 20
8.0151964257
 30
0.0
 10
14.9922651688
 20
7.9945092857
 30
0.0
 10
14.9872904844
 20
7.9779311933
 30
0.0
 10
14.9831956281
 20
7.9652055383
 30
0.0
 10
14.9801129032
 20
7.9560582985
 30
0.0
 10
14.9769840529
 20
7.9471999047
 30
0.0
 10
14.9738115966
 20
7.9386376665
 30
0.0
 10
14.9705982087
 20
7.9303786443
 30
0.0
 10
14.9673465293
 20
7.9224296484
 30
0.0
 10
14.9640592516
 20
7.9147972277
 30
0.0
 10
14.9607391176
 20
7.9074876559
 30
0.0
 10
14.9573888271
 20
7.9005069522
 30
0.0
 10
14.9540112091
 20
7.8938608242
 30
0.0
 10
14.9506089623
 20
7.8875547407
 30
0.0
 10
14.9471849727
 20
7.8815938193
 30
0.0
 10
14.9437419369
 20
7.8759829537
 30
0.0
 10
14.9402827489
 20
7.8707266567
 30
0.0
 10
14.9368101036
 20
7.8658292194
 30
0.0
 10
14.9333268372
 20
7.8612945496
 30
0.0
 10
14.9298356266
 20
7.8571263151
 30
0.0
 10
14.9263391755
 20
7.8533278461
 30
0.0
 10
14.9228400992
 20
7.8499021954
 30
0.0
 10
14.9193408976
 20
7.8468521986
 30
0.0
 10
14.9158440713
 20
7.8441803804
 30
0.0
 10
14.9123519089
 20
7.8418892629
 30
0.0
 10
14.9088668389
 20
7.839981056
 30
0.0
 10
14.9053911581
 20
7.8384582192
 30
0.0
 10
14.9019276178
 20
7.8373228639
 30
0.0
 10
14.8984790178
 20
7.8365773545
 30
0.0
 10
14.895049581
 20
7.8362233385
 30
0.0
 10
14.8927727189
 20
7.836249345
 30
0.0
 10
14.8916468216
 20
7.8363274339
 30
0.0
  0
SPLINE
  5
38E
100
AcDbEntity
  8
0
100
AcDbSpline
 62
4
  6
CONTINUOUS
 70
0
 71
3
 72
403
 73
399
 74
0
 42
0.0000001
 43
0.0000001
 44
0.0000000001
 40
0.0
 40
0.0
 40
0.0
 40
0.0
 40
0.015625
 40
0.0234375
 40
0.03125
 40
0.0390625
 40
0.04296875
 40
0.046875
 40
0.05078125
 40
0.0546875
 40
0.056640625
 40
0.05859375
 40
0.0595703125
 40
0.060546875
 40
0.0615234375
 40
0.0620117188
 40
0.0622558594
 40
0.0625
 40
0.0627441406
 40
0.0629882812
 40
0.0634765625
 40
0.064453125
 40
0.0654296875
 40
0.06640625
 40
0.068359375
 40
0.0703125
 40
0.07421875
 40
0.078125
 40
0.08203125
 40
0.0859375
 40
0.09375
 40
0.1015625
 40
0.10546875
 40
0.109375
 40
0.11328125
 40
0.1171875
 40
0.119140625
 40
0.12109375
 40
0.1220703125
 40
0.123046875
 40
0.1240234375
 40
0.1245117188
 40
0.1247558594
 40
0.125
 40
0.1252441406
 40
0.1254882812
 40
0.1259765625
 40
0.126953125
 40
0.1279296875
 40
0.12890625
 40
0.130859375
 40
0.1328125
 40
0.13671875
 40
0.140625
 40
0.14453125
 40
0.1484375
 40
0.15625
 40
0.1640625
 40
0.16796875
 40
0.171875
 40
0.17578125
 40
0.1796875
 40
0.181640625
 40
0.18359375
 40
0.1845703125
 40
0.185546875
 40
0.1865234375
 40
0.1870117188
 40
0.1872558594
 40
0.1875
 40
0.1877441406
 40
0.1879882812
 40
0.1884765625
 40
0.189453125
 40
0.1904296875
 40
0.19140625
 40
0.193359375
 40
0.1953125
 40
0.19921875
 40
0.203125
 40
0.20703125
 40
0.2109375
 40
0.21875
 40
0.2265625
 40
0.23046875
 40
0.234375
 40
0.23828125
 40
0.2421875
 40
0.244140625
 40
0.24609375
 40
0.2470703125
 40
0.248046875
 40
0.2490234375
 40
0.2495117188
 40
0.2497558594
 40
0.25
 40
0.2502441406
 40
0.2504882812
 40
0.2509765625
 40
0.251953125
 40
0.2529296875
 40
0.25390625
 40
0.255859375
 40
0.2578125
 40
0.26171875
 40
0.265625
 40
0.26953125
 40
0.2734375
 40
0.28125
 40
0.2890625
 40
0.29296875
 40
0.296875
 40
0.30078125
 40
0.3046875
 40
0.306640625
 40
0.30859375
 40
0.3095703125
 40
0.310546875
 40
0.3115234375
 40
0.3120117188
 40
0.3122558594
 40
0.3125
 40
0.3127441406
 40
0.3129882812
 40
0.3134765625
 40
0.314453125
 40
0.3154296875
 40
0.31640625
 40
0.318359375
 40
0.3203125
 40
0.32421875
 40
0.328125
 40
0.33203125
 40
0.3359375
 40
0.34375
 40
0.3515625
 40
0.35546875
 40
0.359375
 40
0.36328125
 40
0.3671875
 40
0.369140625
 40
0.37109375
 40
0.3720703125
 40
0.373046875
 40
0.3740234375
 40
0.3745117188
 40
0.3747558594
 40
0.375
 40
0.3752441406
 40
0.3754882812
 40
0.3759765625
 40
0.376953125
 40
0.3779296875
 40
0.37890625
 40
0.380859375
 40
0.3828125
 40
0.38671875
 40
0.390625
 40
0.39453125
 40
0.3984375
 40
0.40625
 40
0.4140625
 40
0.41796875
 40
0.421875
 40
0.42578125
 40
0.4296875
 40
0.431640625
 40
0.43359375
 40
0.4345703125
 40
0.435546875
 40
0.4365234375
 40
0.4370117188
 40
0.4372558594
 40
0.4375
 40
0.4377441406
 40
0.4379882812
 40
0.4384765625
 40
0.439453125
 40
0.4404296875
 40
0.44140625
 40
0.443359375
 40
0.4453125
 40
0.44921875
 40
0.453125
 40
0.45703125
 40
0.4609375
 40
0.46875
 40
0.4765625
 40
0.48046875
 40
0.484375
 40
0.48828125
 40
0.4921875
 40
0.494140625
 40
0.49609375
 40
0.4970703125
 40
0.498046875
 40
0.4990234375
 40
0.4995117188
 40
0.4997558594
 40
0.5
 40
0.5002441406
 40
0.5004882812
 40
0.5009765625
 40
0.501953125
 40
0.5029296875
 40
0.50390625
 40
0.505859375
 40
0.5078125
 40
0.51171875
 40
0.515625
 40
0.51953125
 40
0.5234375
 40
0.53125
 40
0.5390625
 40
0.54296875
 40
0.546875
 40
0.55078125
 40
0.5546875
 40
0.556640625
 40
0.55859375
 40
0.5595703125
 40
0.560546875
 40
0.5615234375
 40
0.5620117188
 40
0.5622558594
 40
0.5625
 40
0.5627441406
 40
0.5629882812
 40
0.5634765625
 40
0.564453125
 40
0.5654296875
 40
0.56640625
 40
0.568359375
 40
0.5703125
 40
0.57421875
 40
0.578125
 40
0.58203125
 40
0.5859375
 40
0.59375
 40
0.6015625
 40
0.60546875
 40
0.609375
 40
0.61328125
 40
0.6171875
 40
0.619140625
 40
0.62109375
 40
0.6220703125
 40
0.623046875
 40
0.6240234375
 40
0.6245117188
 40
0.6247558594
 40
0.625
 40
0.6252441406
 40
0.6254882812
 40
0.6259765625
 40
0.626953125
 40
0.6279296875
 40
0.62890625
 40
0.630859375
 40
0.6328125
 40
0.63671875
 40
0.640625
 40
0.64453125
 40
0.6484375
 40
0.65625
 40
0.6640625
 40
0.66796875
 40
0.671875
 40
0.67578125
 40
0.6796875
 40
0.681640625
 40
0.68359375
 40
0.6845703125
 40
0.685546875
 40
0.6865234375
 40
0.6870117188
 40
0.6872558594
 40
0.6875
 40
0.6877441406
 40
0.6879882812
 40
0.6884765625
 40
0.689453125
 40
0.6904296875
 40
0.69140625
 40
0.693359375
 40
0.6953125
 40
0.69921875
 40
0.703125
 40
0.70703125
 40
0.7109375
 40
0.71875
 40
0.7265625
 40
0.73046875
 40
0.734375
 40
0.73828125
 40
0.7421875
 40
0.744140625
 40
0.74609375
 40
0.7470703125
 40
0.748046875
 40
0.7490234375
 40
0.7495117188
 40
0.7497558594
 40
0.75
 40
0.7502441406
 40
0.7504882812
 40
0.7509765625
 40
0.751953125
 40
0.7529296875
 40
0.75390625
 40
0.755859375
 40
0.7578125
 40
0.76171875
 40
0.765625
 40
0.76953125
 40
0.7734375
 40
0.78125
 40
0.7890625
 40
0.79296875
 40
0.796875
 40
0.80078125
 40
0.8046875
 40
0.806640625
 40
0.80859375
 40
0.8095703125
 40
0.810546875
 40
0.8115234375
 40
0.8120117188
 40
0.8122558594
 40
0.8125
 40
0.8127441406
 40
0.8129882812
 40
0.8134765625
 40
0.814453125
 40
0.8154296875
 40
0.81640625
 40
0.818359375
 40
0.8203125
 40
0.82421875
 40
0.828125
 40
0.83203125
 40
0.8359375
 40
0.84375
 40
0.8515625
 40
0.85546875
 40
0.859375
 40
0.86328125
 40
0.8671875
 40
0.869140625
 40
0.87109375
 40
0.8720703125
 40
0.873046875
 40
0.8740234375
 40
0.8745117188
 40
0.8747558594
 40
0.875
 40
0.8752441406
 40
0.8754882812
 40
0.8759765625
 40
0.876953125
 40
0.8779296875
 40
0.87890625
 40
0.880859375
 40
0.8828125
 40
0.88671875
 40
0.890625
 40
0.89453125
 40
0.8984375
 40
0.90625
 40
0.9140625
 40
0.91796875
 40
0.921875
 40
0.92578125
 40
0.9296875
 40
0.931640625
 40
0.93359375
 40
0.9345703125
 40
0.935546875
 40
0.9365234375
 40
0.9370117188
 40
0.9372558594
 40
0.9375
 40
0.9377441406
 40
0.9379882812
 40
0.9384765625
 40
0.939453125
 40
0.9404296875
 40
0.94140625
 40
0.943359375
 40
0.9453125
 40
0.94921875
 40
0.953125
 40
0.95703125
 40
0.9609375
 40
0.96875
 40
0.9765625
 40
0.984375
 40
1.0
 40
1.0
 40
1.0
 40
1.0
 10
10.7098904456
 20
7.0473911453
 30
0.0
 10
10.7155189251
 20
7.0475526862
 30
0.0
 10
10.7239616443
 20
7.0477949975
 30
0.0
 10
10.7352186033
 20
7.0481180792
 30
0.0
 10
10.7436613225
 20
7.0483603906
 30
0.0
 10
10.750696922
 20
7.0485623164
 30
0.0
 10
10.7563254013
 20
7.0487238578
 30
0.0
 10
10.7605467613
 20
7.0488450117
 30
0.0
 10
10.7647681196
 20
7.048966174
 30
0.0
 10
10.7682859234
 20
7.0490671162
 30
0.0
 10
10.7711001548
 20
7.0491479292
 30
0.0
 10
10.7728590758
 20
7.0491983024
 30
0.0
 10
10.7742661523
 20
7.0492389099
 30
0.0
 10
10.7753216248
 20
7.0492685197
 30
0.0
 10
10.7762006597
 20
7.0492958854
 30
0.0
 10
10.7768170156
 20
7.0493097605
 30
0.0
 10
10.7771676084
 20
7.0493259348
 30
0.0
 10
10.7774350899
 20
7.0493148375
 30
0.0
 10
10.7776852289
 20
7.0493925293
 30
0.0
 10
10.7780247969
 20
7.0494651477
 30
0.0
 10
10.7786162223
 20
7.0496066598
 30
0.0
 10
10.7794625893
 20
7.0498012758
 30
0.0
 10
10.780477599
 20
7.0500380442
 30
0.0
 10
10.7818311655
 20
7.0503526075
 30
0.0
 10
10.7835230483
 20
7.0507461977
 30
0.0
 10
10.7862301028
 20
7.0513757263
 30
0.0
 10
10.7896139065
 20
7.0521627111
 30
0.0
 10
10.7936744772
 20
7.0531070611
 30
0.0
 10
10.7977350462
 20
7.0540514197
 30
0.0
 10
10.8031491387
 20
7.0553105614
 30
0.0
 10
10.8099167542
 20
7.0568844896
 30
0.0
 10
10.8166843699
 20
7.0584584171
 30
0.0
 10
10.8220984622
 20
7.05971756
 30
0.0
 10
10.8261590322
 20
7.060661915
 30
0.0
 10
10.830219599
 20
7.0616062781
 30
0.0
 10
10.8336034147
 20
7.0623932221
 30
0.0
 10
10.8363104447
 20
7.063022834
 30
0.0
 10
10.8380023901
 20
7.0634162124
 30
0.0
 10
10.839355828
 20
7.0637312105
 30
0.0
 10
10.8403712306
 20
7.0639666502
 30
0.0
 10
10.8412163682
 20
7.0641654233
 30
0.0
 10
10.8418099882
 20
7.0642995144
 30
0.0
 10
10.8421460399
 20
7.0643840231
 30
0.0
 10
10.8424069798
 20
7.0644251917
 30
0.0
 10
10.8426338951
 20
7.0645512696
 30
0.0
 10
10.842948317
 20
7.0646897562
 30
0.0
 10
10.8434930257
 20
7.064945907
 30
0.0
 10
10.8442740719
 20
7.0653046224
 30
0.0
 10
10.8452100899
 20
7.0657381687
 30
0.0
 10
10.8464585462
 20
7.066315152
 30
0.0
 10
10.8480189685
 20
7.0670367504
 30
0.0
 10
10.850515727
 20
7.0681911014
 30
0.0
 10
10.8536366467
 20
7.069634111
 30
0.0
 10
10.8573817625
 20
7.0713656921
 30
0.0
 10
10.8611268751
 20
7.0730972814
 30
0.0
 10
10.8661203596
 20
7.0754060642
 30
0.0
 10
10.8723622149
 20
7.0782920438
 30
0.0
 10
10.8786040705
 20
7.0811780227
 30
0.0
 10
10.8835975545
 20
7.0834868066
 30
0.0
 10
10.8873426686
 20
7.0852183925
 30
0.0
 10
10.8910877786
 20
7.0869499863
 30
0.0
 10
10.8942087165
 20
7.0883929564
 30
0.0
 10
10.8967054378
 20
7.089547388
 30
0.0
 10
10.8982659548
 20
7.0902687813
 30
0.0
 10
10.8995142167
 20
7.0908461854
 30
0.0
 10
10.9004508286
 20
7.0912784461
 30
0.0
 10
10.9012300168
 20
7.091641184
 30
0.0
 10
10.9017780425
 20
7.0918901539
 30
0.0
 10
10.9020871497
 20
7.0920401461
 30
0.0
 10
10.90233039
 20
7.0921308825
 30
0.0
 10
10.9025300158
 20
7.0923047882
 30
0.0
 10
10.9028113967
 20
7.0925076521
 30
0.0
 10
10.9032967252
 20
7.0928761804
 30
0.0
 10
10.9039937573
 20
7.0933955829
 30
0.0
 10
10.9048286098
 20
7.0940218906
 30
0.0
 10
10.9059423003
 20
7.094855911
 30
0.0
 10
10.9073342239
 20
7.0958987983
 30
0.0
 10
10.9095614076
 20
7.0975672158
 30
0.0
 10
10.9123453508
 20
7.099652807
 30
0.0
 10
10.9156860982
 20
7.1021554867
 30
0.0
 10
10.9190268415
 20
7.1046581744
 30
0.0
 10
10.9234811673
 20
7.1079950886
 30
0.0
 10
10.929049074
 20
7.1121662322
 30
0.0
 10
10.9346169812
 20
7.1163373753
 30
0.0
 10
10.9390713063
 20
7.1196742904
 30
0.0
 10
10.9424120519
 20
7.1221769752
 30
0.0
 10
10.9457527907
 20
7.124679666
 30
0.0
 10
10.9485367606
 20
7.1267652227
 30
0.0
 10
10.9507638899
 20
7.1284337105
 30
0.0
 10
10.9521559519
 20
7.1294764189
 30
0.0
 10
10.9532693582
 20
7.1303108064
 30
0.0
 10
10.9541050792
 20
7.1309359926
 30
0.0
 10
10.9547993937
 20
7.131458904
 30
0.0
 10
10.9552895737
 20
7.1318211684
 30
0.0
 10
10.9555631812
 20
7.1320340687
 30
0.0
 10
10.9557866845
 20
7.1321771459
 30
0.0
 10
10.9559402449
 20
7.132383669
 30
0.0
 10
10.956169389
 20
7.1326369025
 30
0.0
 10
10.9565590242
 20
7.1330903722
 30
0.0
 10
10.9571215888
 20
7.1337327953
 30
0.0
 10
10.9577941225
 20
7.1345060104
 30
0.0
 10
10.9586917226
 20
7.1355361579
 30
0.0
 10
10.9598134185
 20
7.1368241183
 30
0.0
 10
10.9616083019
 20
7.1388847007
 30
0.0
 10
10.9638518479
 20
7.1414604817
 30
0.0
 10
10.9665441281
 20
7.1445513961
 30
0.0
 10
10.9692364016
 20
7.1476423166
 30
0.0
 10
10.972826102
 20
7.1517635418
 30
0.0
 10
10.9773132265
 20
7.1569150741
 30
0.0
 10
10.9818003517
 20
7.1620666059
 30
0.0
 10
10.985390051
 20
7.1661878318
 30
0.0
 10
10.9880823274
 20
7.16927875
 30
0.0
 10
10.9907745968
 20
7.1723696733
 30
0.0
 10
10.9930181766
 20
7.1749454264
 30
0.0
 10
10.994812991
 20
7.1770060655
 30
0.0
 10
10.9959348627
 20
7.1782938817
 30
0.0
 10
10.9968321019
 20
7.1793243253
 30
0.0
 10
10.9975057382
 20
7.1800966358
 30
0.0
 10
10.9980648531
 20
7.1807418892
 30
0.0
 10
10.9984606464
 20
7.1811903064
 30
0.0
 10
10.9986799237
 20
7.1814516353
 30
0.0
 10
10.9988637919
 20
7.1816332918
 30
0.0
 10
10.9989734642
 20
7.1818697637
 30
0.0
 10
10.9991455742
 20
7.1821659394
 30
0.0
 10
10.9994347087
 20
7.1826931552
 30
0.0
 10
10.999854062
 20
7.1834416633
 30
0.0
 10
11.0003545877
 20
7.1843418665
 30
0.0
 10
11.0010228977
 20
7.1855414412
 30
0.0
 10
11.0018579625
 20
7.1870411479
 30
0.0
 10
11.0031942466
 20
7.1894405455
 30
0.0
 10
11.0048645398
 20
7.1924398381
 30
0.0
 10
11.0068689182
 20
7.1960389697
 30
0.0
 10
11.0088732895
 20
7.1996381066
 30
0.0
 10
11.0115457871
 20
7.2044369538
 30
0.0
 10
11.0148864081
 20
7.2104355136
 30
0.0
 10
11.0182270297
 20
7.2164340729
 30
0.0
 10
11.0208995262
 20
7.2212329208
 30
0.0
 10
11.0229039007
 20
7.2248320558
 30
0.0
 10
11.0249082672
 20
7.2284311945
 30
0.0
 10
11.0265785972
 20
7.2314304649
 30
0.0
 10
11.0279148063
 20
7.2338299079
 30
0.0
 10
11.0287500621
 20
7.2353294989
 30
0.0
 10
11.02941798
 20
7.2365293111
 30
0.0
 10
11.0299197037
 20
7.2374287888
 30
0.0
 10
11.0303353086
 20
7.2381795668
 30
0.0
 10
11.0306311347
 20
7.2387027305
 30
0.0
 10
11.0307925231
 20
7.2390053986
 30
0.0
 10
11.0309351289
 20
7.2392219278
 30
0.0
 10
11.0309953042
 20
7.239478486
 30
0.0
 10
11.0311042906
 20
7.2398066011
 30
0.0
 10
11.0312816204
 20
7.2403873078
 30
0.0
 10
11.0315419525
 20
7.2412134878
 30
0.0
 10
11.0318513532
 20
7.2422063596
 30
0.0
 10
11.0322649344
 20
7.2435296801
 30
0.0
 10
11.0327815525
 20
7.2451840049
 30
0.0
 10
11.0336083419
 20
7.2478308272
 30
0.0
 10
11.0346417598
 20
7.2511393885
 30
0.0
 10
11.0358818907
 20
7.2551096478
 30
0.0
 10
11.0371220138
 20
7.2590799108
 30
0.0
 10
11.038775514
 20
7.2643735936
 30
0.0
 10
11.0408423882
 20
7.2709906975
 30
0.0
 10
11.0429092631
 20
7.2776078012
 30
0.0
 10
11.0445627621
 20
7.2829014844
 30
0.0
 10
11.0458028886
 20
7.286871746
 30
0.0
 10
11.0470430067
 20
7.2908420107
 30
0.0
 10
11.0480764646
 20
7.2941505551
 30
0.0
 10
11.0489031725
 20
7.2967974119
 30
0.0
 10
11.0494199978
 20
7.298451649
 30
0.0
 10
11.0498331536
 20
7.2997751496
 30
0.0
 10
11.0501438542
 20
7.3007674712
 30
0.0
 10
11.0504001192
 20
7.3015953726
 30
0.0
 10
11.0505847095
 20
7.3021730063
 30
0.0
 10
11.0506820627
 20
7.3025060451
 30
0.0
 10
11.0507779713
 20
7.302747479
 30
0.0
 10
11.0507863689
 20
7.3030208126
 30
0.0
 10
11.0508280904
 20
7.3033741303
 30
0.0
 10
11.050886881
 20
7.3039976207
 30
0.0
 10
11.0509783031
 20
7.3048856108
 30
0.0
 10
11.051084827
 20
7.3059523591
 30
0.0
 10
11.0512279705
 20
7.3073742849
 30
0.0
 10
11.0514065192
 20
7.3091518309
 30
0.0
 10
11.0516924099
 20
7.311995827
 30
0.0
 10
11.0520497002
 20
7.3155508487
 30
0.0
 10
11.05247848
 20
7.3198168634
 30
0.0
 10
11.0529072513
 20
7.3240828811
 30
0.0
 10
11.0534789494
 20
7.3297709036
 30
0.0
 10
11.0541935709
 20
7.3368809322
 30
0.0
 10
11.0549081931
 20
7.3439909606
 30
0.0
 10
11.05547989
 20
7.3496789833
 30
0.0
 10
11.0559086649
 20
7.3539450004
 30
0.0
 10
11.0563374311
 20
7.3582110174
 30
0.0
 10
11.0566947634
 20
7.361766032
 30
0.0
 10
11.0569805686
 20
7.3646100425
 30
0.0
 10
11.0571593349
 20
7.3663875517
 30
0.0
 10
11.0573020317
 20
7.3678095531
 30
0.0
 10
11.0574099203
 20
7.3688760706
 30
0.0
 10
11.0574970728
 20
7.3697647829
 30
0.0
 10
11.0575634853
 20
7.3703869839
 30
0.0
 10
11.0575929946
 20
7.3707423676
 30
0.0
 10
11.0576389043
 20
7.3710093554
 30
0.0
 10
11.0575939237
 20
7.3712746226
 30
0.0
 10
11.0575656532
 20
7.3716289125
 30
0.0
 10
11.0575014084
 20
7.37224864
 30
0.0
 10
11.0574173528
 20
7.3731341112
 30
0.0
 10
11.0573131806
 20
7.3741966141
 30
0.0
 10
11.0571754389
 20
7.3756133065
 30
0.0
 10
11.0570028664
 20
7.3773841645
 30
0.0
 10
11.0567269713
 20
7.3802175415
 30
0.0
 10
11.0563820267
 20
7.3837592613
 30
0.0
 10
11.0559681256
 20
7.3880093256
 30
0.0
 10
11.0555542159
 20
7.3922593898
 30
0.0
 10
11.0550023392
 20
7.3979261421
 30
0.0
 10
11.0543124923
 20
7.4050095825
 30
0.0
 10
11.0536226461
 20
7.4120930229
 30
0.0
 10
11.0530707683
 20
7.4177597752
 30
0.0
 10
11.0526568621
 20
7.4220098396
 30
0.0
 10
11.0522429476
 20
7.426259903
 30
0.0
 10
11.0518980449
 20
7.4298016259
 30
0.0
 10
11.0516220643
 20
7.4326349966
 30
0.0
 10
11.0514497095
 20
7.4344058704
 30
0.0
 10
11.0513115209
 20
7.4358225303
 30
0.0
 10
11.0512087139
 20
7.4368851326
 30
0.0
 10
11.0511203869
 20
7.4377702929
 30
0.0
 10
11.0510637673
 20
7.4383905754
 30
0.0
 10
11.0510232794
 20
7.438743976
 30
0.0
 10
11.0510158267
 20
7.4390119745
 30
0.0
 10
11.0509207877
 20
7.4392687044
 30
0.0
 10
11.0508246202
 20
7.4396149416
 30
0.0
 10
11.0506420926
 20
7.4402190254
 30
0.0
 10
11.0503887808
 20
7.4410829596
 30
0.0
 10
11.0500816213
 20
7.4421192709
 30
0.0
 10
11.0496731879
 20
7.4435011623
 30
0.0
 10
11.0491622652
 20
7.4452284777
 30
0.0
 10
11.0483450017
 20
7.4479922097
 30
0.0
 10
11.0473233493
 20
7.4514468652
 30
0.0
 10
11.0460973978
 20
7.4555924559
 30
0.0
 10
11.0448714378
 20
7.4597380455
 30
0.0
 10
11.0432368275
 20
7.4652654987
 30
0.0
 10
11.0411935636
 20
7.472174815
 30
0.0
 10
11.0391503003
 20
7.4790841315
 30
0.0
 10
11.0375156889
 20
7.4846115844
 30
0.0
 10
11.0362897324
 20
7.4887571748
 30
0.0
 10
11.035063768
 20
7.4929027625
 30
0.0
 10
11.0340421556
 20
7.4963574273
 30
0.0
 10
11.0332248105
 20
7.4991211403
 30
0.0
 10
11.0327140953
 20
7.5008485039
 30
0.0
 10
11.0323052359
 20
7.5022302964
 30
0.0
 10
11.0319993778
 20
7.5032669103
 30
0.0
 10
11.0317419943
 20
7.5041298976
 30
0.0
 10
11.0315667355
 20
7.5047356718
 30
0.0
 10
11.0314589215
 20
7.5050792004
 30
0.0
 10
11.0313996567
 20
7.5053442503
 30
0.0
 10
11.0312578421
 20
7.5055810005
 30
0.0
 10
11.0310975503
 20
7.5059065386
 30
0.0
 10
11.0308036238
 20
7.5064716312
 30
0.0
 10
11.0303907427
 20
7.5072813108
 30
0.0
 10
11.0298922833
 20
7.5082518971
 30
0.0
 10
11.0292287193
 20
7.5095463717
 30
0.0
 10
11.0283989053
 20
7.5111643419
 30
0.0
 10
11.0270714035
 20
7.5137531629
 30
0.0
 10
11.0254119574
 20
7.5169891656
 30
0.0
 10
11.0234206516
 20
7.5208723789
 30
0.0
 10
11.0214293379
 20
7.5247555896
 30
0.0
 10
11.0187742557
 20
7.5299332047
 30
0.0
 10
11.015455402
 20
7.5364052232
 30
0.0
 10
11.0121365489
 20
7.5428772421
 30
0.0
 10
11.0094814657
 20
7.5480548567
 30
0.0
 10
11.0074901553
 20
7.5519380687
 30
0.0
 10
11.0054988372
 20
7.555821277
 30
0.0
 10
11.0038394293
 20
7.5590572953
 30
0.0
 10
11.0025118495
 20
7.5616460845
 30
0.0
 10
11.001682234
 20
7.5632641356
 30
0.0
 10
11.0010182626
 20
7.5645584441
 30
0.0
 10
11.0005210476
 20
7.565529538
 30
0.0
 10
11.0001042729
 20
7.5663376295
 30
0.0
 10
10.9998172973
 20
7.5669055571
 30
0.0
 10
10.9996458684
 20
7.5672265529
 30
0.0
 10
10.9995382633
 20
7.5674772557
 30
0.0
 10
10.9993505135
 20
7.5676899019
 30
0.0
 10
10.9991281357
 20
7.5679867048
 30
0.0
 10
10.9987259497
 20
7.568499925
 30
0.0
 10
10.9981582079
 20
7.5692363302
 30
0.0
 10
10.997474003
 20
7.5701186324
 30
0.0
 10
10.9965627479
 20
7.5712955187
 30
0.0
 10
10.9954233304
 20
7.5727664611
 30
0.0
 10
10.9936004572
 20
7.5751200615
 30
0.0
 10
10.9913217988
 20
7.5780620302
 30
0.0
 10
10.9885874375
 20
7.5815924062
 30
0.0
 10
10.9858530685
 20
7.5851227786
 30
0.0
 10
10.9822072458
 20
7.5898299431
 30
0.0
 10
10.9776499665
 20
7.5957138982
 30
0.0
 10
10.9730926877
 20
7.6015978538
 30
0.0
 10
10.9694468641
 20
7.6063050176
 30
0.0
 10
10.9667124979
 20
7.6098353921
 30
0.0
 10
10.9639781261
 20
7.6133657603
 30
0.0
 10
10.9616995003
 20
7.6163077534
 30
0.0
 10
10.9598765607
 20
7.6186613039
 30
0.0
 10
10.9587373124
 20
7.6201323731
 30
0.0
 10
10.9578257099
 20
7.6213089992
 30
0.0
 10
10.9571425662
 20
7.6221920965
 30
0.0
 10
10.956571504
 20
7.6229260142
 30
0.0
 10
10.9561752455
 20
7.6234436749
 30
0.0
 10
10.9559433705
 20
7.623733363
 30
0.0
 10
10.9557847932
 20
7.6239678636
 30
0.0
 10
10.9555676207
 20
7.624136485
 30
0.0
 10
10.955298496
 20
7.624384293
 30
0.0
 10
10.954818005
 20
7.6248072503
 30
0.0
 10
10.954136568
 20
7.6254170727
 30
0.0
 10
10.9533167125
 20
7.6261464636
 30
0.0
 10
10.9522243161
 20
7.6271198216
 30
0.0
 10
10.9508585659
 20
7.6283362326
 30
0.0
 10
10.9486735079
 20
7.6302826503
 30
0.0
 10
10.9459421365
 20
7.6327156176
 30
0.0
 10
10.9426645118
 20
7.6356352018
 30
0.0
 10
10.9393868815
 20
7.6385547798
 30
0.0
 10
10.9350167098
 20
7.6424475525
 30
0.0
 10
10.9295539943
 20
7.6473135177
 30
0.0
 10
10.9240912793
 20
7.6521794834
 30
0.0
 10
10.9197211069
 20
7.6560722553
 30
0.0
 10
10.9164434787
 20
7.658991836
 30
0.0
 10
10.9131658459
 20
7.6619114099
 30
0.0
 10
10.9104344999
 20
7.6643444092
 30
0.0
 10
10.9082493901
 20
7.6662907615
 30
0.0
 10
10.9068837718
 20
7.6675073392
 30
0.0
 10
10.9057911044
 20
7.6684803551
 30
0.0
 10
10.9049720771
 20
7.6692107911
 30
0.0
 10
10.904288049
 20
7.6698173435
 30
0.0
 10
10.9038121835
 20
7.6702461383
 30
0.0
 10
10.9035356476
 20
7.6704845933
 30
0.0
 10
10.9033412398
 20
7.6706819438
 30
0.0
 10
10.9030971621
 20
7.6708085429
 30
0.0
 10
10.9027890506
 20
7.6710020206
 30
0.0
 10
10.9022417831
 20
7.6713291081
 30
0.0
 10
10.9014641928
 20
7.6718023876
 30
0.0
 10
10.900529278
 20
7.6723677498
 30
0.0
 10
10.8992833559
 20
7.6731224648
 30
0.0
 10
10.8977257372
 20
7.6740655509
 30
0.0
 10
10.895233668
 20
7.6755746605
 30
0.0
 10
10.8921185402
 20
7.6774609886
 30
0.0
 10
10.8883804045
 20
7.6797246076
 30
0.0
 10
10.884642264
 20
7.6819882198
 30
0.0
 10
10.8796580784
 20
7.6850063718
 30
0.0
 10
10.8734278458
 20
7.6887790609
 30
0.0
 10
10.8671976135
 20
7.6925517506
 30
0.0
 10
10.8622134274
 20
7.6955699016
 30
0.0
 10
10.8584752886
 20
7.6978335168
 30
0.0
 10
10.8547371466
 20
7.7000971244
 30
0.0
 10
10.8516220384
 20
7.7019834879
 30
0.0
 10
10.849129929
 20
7.7034925253
 30
0.0
 10
10.8475724128
 20
7.7044357953
 30
0.0
 10
10.8463262804
 20
7.7051901328
 30
0.0
 10
10.845392008
 20
7.7057566485
 30
0.0
 10
10.8446124077
 20
7.7062263189
 30
0.0
 10
10.8440687284
 20
7.7065598492
 30
0.0
 10
10.8437548679
 20
7.7067430039
 30
0.0
 10
10.843528449
 20
7.7069013119
 30
0.0
 10
10.8432677176
 20
7.706979569
 30
0.0
 10
10.8429320443
 20
7.7071118344
 30
0.0
 10
10.8423390397
 20
7.7073302892
 30
0.0
 10
10.8414948056
 20
7.7076491692
 30
0.0
 10
10.8404804769
 20
7.7080289138
 30
0.0
 10
10.8391284744
 20
7.7085362567
 30
0.0
 10
10.837438322
 20
7.7091700873
 30
0.0
 10
10.8347341617
 20
7.7101844108
 30
0.0
 10
10.8313539326
 20
7.7114522484
 30
0.0
 10
10.82729767
 20
7.7129736821
 30
0.0
 10
10.8232414041
 20
7.7144951082
 30
0.0
 10
10.8178330507
 20
7.7165236789
 30
0.0
 10
10.8110726085
 20
7.7190593914
 30
0.0
 10
10.8043121666
 20
7.7215951045
 30
0.0
 10
10.7989038128
 20
7.7236236742
 30
0.0
 10
10.7948475481
 20
7.7251451036
 30
0.0
 10
10.790791281
 20
7.7266665248
 30
0.0
 10
10.787411066
 20
7.7279344013
 30
0.0
 10
10.7847068768
 20
7.7289486454
 30
0.0
 10
10.7830167978
 20
7.7295826781
 30
0.0
 10
10.7816646448
 20
7.7300896061
 30
0.0
 10
10.780650776
 20
7.7304706187
 30
0.0
 10
10.7798051026
 20
7.7307855313
 30
0.0
 10
10.7792146675
 20
7.7310110684
 30
0.0
 10
10.7788748772
 20
7.7311319862
 30
0.0
 10
10.778626792
 20
7.7312450995
 30
0.0
 10
10.778352876
 20
7.7312724932
 30
0.0
 10
10.7779966646
 20
7.7313389181
 30
0.0
 10
10.7773690969
 20
7.7314412307
 30
0.0
 10
10.7764747662
 20
7.7315946748
 30
0.0
 10
10.77540063
 20
7.7317756903
 30
0.0
 10
10.7739687765
 20
7.7320181332
 30
0.0
 10
10.7721788473
 20
7.7323208139
 30
0.0
 10
10.7693150234
 20
7.7328053115
 30
0.0
 10
10.7657352219
 20
7.7334108619
 30
0.0
 10
10.7614394694
 20
7.7341375531
 30
0.0
 10
10.7571437144
 20
7.734864236
 30
0.0
 10
10.7514160419
 20
7.7358331495
 30
0.0
 10
10.744256451
 20
7.7370442904
 30
0.0
 10
10.7356649421
 20
7.7384976599
 30
0.0
 10
10.7242095968
 20
7.7404354857
 30
0.0
 10
10.7156180878
 20
7.7418888551
 30
0.0
 10
10.7098904152
 20
7.742857768
 30
0.0
  0
SPLINE
  5
38F
100
AcDbEntity
  8
0
100
AcDbSpline
 62
4
  6
CONTINUOUS
 70
0
 71
3
 72
403
 73
399
 74
0
 42
0.0000001
 43
0.0000001
 44
0.0000000001
 40
0.0
 40
0.0
 40
0.0
 40
0.0
 40
0.015625
 40
0.0234375
 40
0.03125
 40
0.0390625
 40
0.04296875
 40
0.046875
 40
0.05078125
 40
0.0546875
 40
0.056640625
 40
0.05859375
 40
0.0595703125
 40
0.060546875
 40
0.0615234375
 40
0.0620117188
 40
0.0622558594
 40
0.0625
 40
0.0627441406
 40
0.0629882812
 40
0.0634765625
 40
0.064453125
 40
0.0654296875
 40
0.06640625
 40
0.068359375
 40
0.0703125
 40
0.07421875
 40
0.078125
 40
0.08203125
 40
0.0859375
 40
0.09375
 40
0.1015625
 40
0.10546875
 40
0.109375
 40
0.11328125
 40
0.1171875
 40
0.119140625
 40
0.12109375
 40
0.1220703125
 40
0.123046875
 40
0.1240234375
 40
0.1245117188
 40
0.1247558594
 40
0.125
 40
0.1252441406
 40
0.1254882812
 40
0.1259765625
 40
0.126953125
 40
0.1279296875
 40
0.12890625
 40
0.130859375
 40
0.1328125
 40
0.13671875
 40
0.140625
 40
0.14453125
 40
0.1484375
 40
0.15625
 40
0.1640625
 40
0.16796875
 40
0.171875
 40
0.17578125
 40
0.1796875
 40
0.181640625
 40
0.18359375
 40
0.1845703125
 40
0.185546875
 40
0.1865234375
 40
0.1870117188
 40
0.1872558594
 40
0.1875
 40
0.1877441406
 40
0.1879882812
 40
0.1884765625
 40
0.189453125
 40
0.1904296875
 40
0.19140625
 40
0.193359375
 40
0.1953125
 40
0.19921875
 40
0.203125
 40
0.20703125
 40
0.2109375
 40
0.21875
 40
0.2265625
 40
0.23046875
 40
0.234375
 40
0.23828125
 40
0.2421875
 40
0.244140625
 40
0.24609375
 40
0.2470703125
 40
0.248046875
 40
0.2490234375
 40
0.2495117188
 40
0.2497558594
 40
0.25
 40
0.2502441406
 40
0.2504882812
 40
0.2509765625
 40
0.251953125
 40
0.2529296875
 40
0.25390625
 40
0.255859375
 40
0.2578125
 40
0.26171875
 40
0.265625
 40
0.26953125
 40
0.2734375
 40
0.28125
 40
0.2890625
 40
0.29296875
 40
0.296875
 40
0.30078125
 40
0.3046875
 40
0.306640625
 40
0.30859375
 40
0.3095703125
 40
0.310546875
 40
0.3115234375
 40
0.3120117188
 40
0.3122558594
 40
0.3125
 40
0.3127441406
 40
0.3129882812
 40
0.3134765625
 40
0.314453125
 40
0.3154296875
 40
0.31640625
 40
0.318359375
 40
0.3203125
 40
0.32421875
 40
0.328125
 40
0.33203125
 40
0.3359375
 40
0.34375
 40
0.3515625
 40
0.35546875
 40
0.359375
 40
0.36328125
 40
0.3671875
 40
0.369140625
 40
0.37109375
 40
0.3720703125
 40
0.373046875
 40
0.3740234375
 40
0.3745117188
 40
0.3747558594
 40
0.375
 40
0.3752441406
 40
0.3754882812
 40
0.3759765625
 40
0.376953125
 40
0.3779296875
 40
0.37890625
 40
0.380859375
 40
0.3828125
 40
0.38671875
 40
0.390625
 40
0.39453125
 40
0.3984375
 40
0.40625
 40
0.4140625
 40
0.41796875
 40
0.421875
 40
0.42578125
 40
0.4296875
 40
0.431640625
 40
0.43359375
 40
0.4345703125
 40
0.435546875
 40
0.4365234375
 40
0.4370117188
 40
0.4372558594
 40
0.4375
 40
0.4377441406
 40
0.4379882812
 40
0.4384765625
 40
0.439453125
 40
0.4404296875
 40
0.44140625
 40
0.443359375
 40
0.4453125
 40
0.44921875
 40
0.453125
 40
0.45703125
 40
0.4609375
 40
0.46875
 40
0.4765625
 40
0.48046875
 40
0.484375
 40
0.48828125
 40
0.4921875
 40
0.494140625
 40
0.49609375
 40
0.4970703125
 40
0.498046875
 40
0.4990234375
 40
0.4995117188
 40
0.4997558594
 40
0.5
 40
0.5002441406
 40
0.5004882812
 40
0.5009765625
 40
0.501953125
 40
0.5029296875
 40
0.50390625
 40
0.505859375
 40
0.5078125
 40
0.51171875
 40
0.515625
 40
0.51953125
 40
0.5234375
 40
0.53125
 40
0.5390625
 40
0.54296875
 40
0.546875
 40
0.55078125
 40
0.5546875
 40
0.556640625
 40
0.55859375
 40
0.5595703125
 40
0.560546875
 40
0.5615234375
 40
0.5620117188
 40
0.5622558594
 40
0.5625
 40
0.5627441406
 40
0.5629882812
 40
0.5634765625
 40
0.564453125
 40
0.5654296875
 40
0.56640625
 40
0.568359375
 40
0.5703125
 40
0.57421875
 40
0.578125
 40
0.58203125
 40
0.5859375
 40
0.59375
 40
0.6015625
 40
0.60546875
 40
0.609375
 40
0.61328125
 40
0.6171875
 40
0.619140625
 40
0.62109375
 40
0.6220703125
 40
0.623046875
 40
0.6240234375
 40
0.6245117188
 40
0.6247558594
 40
0.625
 40
0.6252441406
 40
0.6254882812
 40
0.6259765625
 40
0.626953125
 40
0.6279296875
 40
0.62890625
 40
0.630859375
 40
0.6328125
 40
0.63671875
 40
0.640625
 40
0.64453125
 40
0.6484375
 40
0.65625
 40
0.6640625
 40
0.66796875
 40
0.671875
 40
0.67578125
 40
0.6796875
 40
0.681640625
 40
0.68359375
 40
0.6845703125
 40
0.685546875
 40
0.6865234375
 40
0.6870117188
 40
0.6872558594
 40
0.6875
 40
0.6877441406
 40
0.6879882812
 40
0.6884765625
 40
0.689453125
 40
0.6904296875
 40
0.69140625
 40
0.693359375
 40
0.6953125
 40
0.69921875
 40
0.703125
 40
0.70703125
 40
0.7109375
 40
0.71875
 40
0.7265625
 40
0.73046875
 40
0.734375
 40
0.73828125
 40
0.7421875
 40
0.744140625
 40
0.74609375
 40
0.7470703125
 40
0.748046875
 40
0.7490234375
 40
0.7495117188
 40
0.7497558594
 40
0.75
 40
0.7502441406
 40
0.7504882812
 40
0.7509765625
 40
0.751953125
 40
0.7529296875
 40
0.75390625
 40
0.755859375
 40
0.7578125
 40
0.76171875
 40
0.765625
 40
0.76953125
 40
0.7734375
 40
0.78125
 40
0.7890625
 40
0.79296875
 40
0.796875
 40
0.80078125
 40
0.8046875
 40
0.806640625
 40
0.80859375
 40
0.8095703125
 40
0.810546875
 40
0.8115234375
 40
0.8120117188
 40
0.8122558594
 40
0.8125
 40
0.8127441406
 40
0.8129882812
 40
0.8134765625
 40
0.814453125
 40
0.8154296875
 40
0.81640625
 40
0.818359375
 40
0.8203125
 40
0.82421875
 40
0.828125
 40
0.83203125
 40
0.8359375
 40
0.84375
 40
0.8515625
 40
0.85546875
 40
0.859375
 40
0.86328125
 40
0.8671875
 40
0.869140625
 40
0.87109375
 40
0.8720703125
 40
0.873046875
 40
0.8740234375
 40
0.8745117188
 40
0.8747558594
 40
0.875
 40
0.8752441406
 40
0.8754882812
 40
0.8759765625
 40
0.876953125
 40
0.8779296875
 40
0.87890625
 40
0.880859375
 40
0.8828125
 40
0.88671875
 40
0.890625
 40
0.89453125
 40
0.8984375
 40
0.90625
 40
0.9140625
 40
0.91796875
 40
0.921875
 40
0.92578125
 40
0.9296875
 40
0.931640625
 40
0.93359375
 40
0.9345703125
 40
0.935546875
 40
0.9365234375
 40
0.9370117188
 40
0.9372558594
 40
0.9375
 40
0.9377441406
 40
0.9379882812
 40
0.9384765625
 40
0.939453125
 40
0.9404296875
 40
0.94140625
 40
0.943359375
 40
0.9453125
 40
0.94921875
 40
0.953125
 40
0.95703125
 40
0.9609375
 40
0.96875
 40
0.9765625
 40
0.984375
 40
1.0
 40
1.0
 40
1.0
 40
1.0
 10
10.7098904456
 20
7.7428577659
 30
0.0
 10
10.7042619661
 20
7.7426962251
 30
0.0
 10
10.6958192469
 20
7.7424539138
 30
0.0
 10
10.6845622879
 20
7.7421308321
 30
0.0
 10
10.6761195686
 20
7.7418885207
 30
0.0
 10
10.6690839692
 20
7.7416865949
 30
0.0
 10
10.6634554898
 20
7.7415250535
 30
0.0
 10
10.6592341299
 20
7.7414038996
 30
0.0
 10
10.6550127716
 20
7.7412827372
 30
0.0
 10
10.6514949678
 20
7.7411817951
 30
0.0
 10
10.6486807364
 20
7.7411009821
 30
0.0
 10
10.6469218154
 20
7.7410506089
 30
0.0
 10
10.6455147389
 20
7.7410100013
 30
0.0
 10
10.6444592664
 20
7.7409803916
 30
0.0
 10
10.6435802315
 20
7.7409530259
 30
0.0
 10
10.6429638756
 20
7.7409391507
 30
0.0
 10
10.6426132828
 20
7.7409229765
 30
0.0
 10
10.6423458012
 20
7.7409340738
 30
0.0
 10
10.6420956622
 20
7.740856382
 30
0.0
 10
10.6417560943
 20
7.7407837635
 30
0.0
 10
10.6411646689
 20
7.7406422515
 30
0.0
 10
10.6403183019
 20
7.7404476354
 30
0.0
 10
10.6393032922
 20
7.7402108671
 30
0.0
 10
10.6379497257
 20
7.7398963038
 30
0.0
 10
10.6362578429
 20
7.7395027135
 30
0.0
 10
10.6335507884
 20
7.7388731849
 30
0.0
 10
10.6301669847
 20
7.7380862001
 30
0.0
 10
10.626106414
 20
7.7371418501
 30
0.0
 10
10.622045845
 20
7.7361974916
 30
0.0
 10
10.6166317525
 20
7.7349383499
 30
0.0
 10
10.609864137
 20
7.7333644217
 30
0.0
 10
10.6030965213
 20
7.7317904941
 30
0.0
 10
10.597682429
 20
7.7305313513
 30
0.0
 10
10.593621859
 20
7.7295869963
 30
0.0
 10
10.5895612922
 20
7.7286426331
 30
0.0
 10
10.5861774764
 20
7.7278556891
 30
0.0
 10
10.5834704465
 20
7.7272260773
 30
0.0
 10
10.5817785011
 20
7.7268326989
 30
0.0
 10
10.5804250632
 20
7.7265177007
 30
0.0
 10
10.5794096606
 20
7.726282261
 30
0.0
 10
10.578564523
 20
7.726083488
 30
0.0
 10
10.5779709029
 20
7.7259493969
 30
0.0
 10
10.5776348513
 20
7.7258648881
 30
0.0
 10
10.5773739114
 20
7.7258237196
 30
0.0
 10
10.5771469961
 20
7.7256976416
 30
0.0
 10
10.5768325742
 20
7.725559155
 30
0.0
 10
10.5762878655
 20
7.7253030042
 30
0.0
 10
10.5755068193
 20
7.7249442889
 30
0.0
 10
10.5745708013
 20
7.7245107425
 30
0.0
 10
10.573322345
 20
7.7239337593
 30
0.0
 10
10.5717619226
 20
7.7232121609
 30
0.0
 10
10.5692651642
 20
7.7220578099
 30
0.0
 10
10.5661442445
 20
7.7206148003
 30
0.0
 10
10.5623991287
 20
7.7188832192
 30
0.0
 10
10.5586540161
 20
7.7171516299
 30
0.0
 10
10.5536605315
 20
7.7148428471
 30
0.0
 10
10.5474186763
 20
7.7119568675
 30
0.0
 10
10.5411768207
 20
7.7090708886
 30
0.0
 10
10.5361833367
 20
7.7067621046
 30
0.0
 10
10.5324382226
 20
7.7050305188
 30
0.0
 10
10.5286931126
 20
7.7032989249
 30
0.0
 10
10.5255721747
 20
7.7018559549
 30
0.0
 10
10.5230754534
 20
7.7007015233
 30
0.0
 10
10.5215149364
 20
7.6999801299
 30
0.0
 10
10.5202666745
 20
7.6994027258
 30
0.0
 10
10.5193300625
 20
7.6989704651
 30
0.0
 10
10.5185508744
 20
7.6986077273
 30
0.0
 10
10.5180028487
 20
7.6983587574
 30
0.0
 10
10.5176937415
 20
7.6982087652
 30
0.0
 10
10.5174505012
 20
7.6981180288
 30
0.0
 10
10.5172508754
 20
7.6979441231
 30
0.0
 10
10.5169694945
 20
7.6977412592
 30
0.0
 10
10.516484166
 20
7.6973727308
 30
0.0
 10
10.5157871338
 20
7.6968533284
 30
0.0
 10
10.5149522814
 20
7.6962270207
 30
0.0
 10
10.5138385908
 20
7.6953930002
 30
0.0
 10
10.5124466673
 20
7.6943501129
 30
0.0
 10
10.5102194836
 20
7.6926816955
 30
0.0
 10
10.5074355404
 20
7.6905961042
 30
0.0
 10
10.504094793
 20
7.6880934245
 30
0.0
 10
10.5007540497
 20
7.6855907368
 30
0.0
 10
10.4962997239
 20
7.6822538227
 30
0.0
 10
10.4907318172
 20
7.678082679
 30
0.0
 10
10.48516391
 20
7.673911536
 30
0.0
 10
10.4807095849
 20
7.6705746208
 30
0.0
 10
10.4773688393
 20
7.6680719361
 30
0.0
 10
10.4740281005
 20
7.6655692453
 30
0.0
 10
10.4712441306
 20
7.6634836885
 30
0.0
 10
10.4690170013
 20
7.6618152008
 30
0.0
 10
10.4676249393
 20
7.6607724923
 30
0.0
 10
10.466511533
 20
7.6599381048
 30
0.0
 10
10.465675812
 20
7.6593129186
 30
0.0
 10
10.4649814975
 20
7.6587900073
 30
0.0
 10
10.4644913175
 20
7.6584277429
 30
0.0
 10
10.46421771
 20
7.6582148426
 30
0.0
 10
10.4639942067
 20
7.6580717654
 30
0.0
 10
10.4638406463
 20
7.6578652423
 30
0.0
 10
10.4636115022
 20
7.6576120088
 30
0.0
 10
10.4632218669
 20
7.6571585391
 30
0.0
 10
10.4626593024
 20
7.656516116
 30
0.0
 10
10.4619867687
 20
7.6557429009
 30
0.0
 10
10.4610891686
 20
7.6547127533
 30
0.0
 10
10.4599674727
 20
7.6534247929
 30
0.0
 10
10.4581725893
 20
7.6513642105
 30
0.0
 10
10.4559290433
 20
7.6487884296
 30
0.0
 10
10.4532367631
 20
7.6456975152
 30
0.0
 10
10.4505444896
 20
7.6426065947
 30
0.0
 10
10.4469547892
 20
7.6384853695
 30
0.0
 10
10.4424676647
 20
7.6333338372
 30
0.0
 10
10.4379805395
 20
7.6281823054
 30
0.0
 10
10.4343908401
 20
7.6240610794
 30
0.0
 10
10.4316985637
 20
7.6209701613
 30
0.0
 10
10.4290062944
 20
7.6178792379
 30
0.0
 10
10.4267627146
 20
7.6153034848
 30
0.0
 10
10.4249679002
 20
7.6132428457
 30
0.0
 10
10.4238460285
 20
7.6119550296
 30
0.0
 10
10.4229487893
 20
7.6109245859
 30
0.0
 10
10.422275153
 20
7.6101522754
 30
0.0
 10
10.4217160381
 20
7.6095070221
 30
0.0
 10
10.4213202448
 20
7.6090586049
 30
0.0
 10
10.4211009675
 20
7.608797276
 30
0.0
 10
10.4209170993
 20
7.6086156195
 30
0.0
 10
10.420807427
 20
7.6083791476
 30
0.0
 10
10.420635317
 20
7.6080829719
 30
0.0
 10
10.4203461825
 20
7.607555756
 30
0.0
 10
10.4199268292
 20
7.606807248
 30
0.0
 10
10.4194263035
 20
7.6059070447
 30
0.0
 10
10.4187579935
 20
7.6047074701
 30
0.0
 10
10.4179229287
 20
7.6032077633
 30
0.0
 10
10.4165866446
 20
7.6008083658
 30
0.0
 10
10.4149163514
 20
7.5978090731
 30
0.0
 10
10.412911973
 20
7.5942099415
 30
0.0
 10
10.4109076017
 20
7.5906108047
 30
0.0
 10
10.4082351041
 20
7.5858119574
 30
0.0
 10
10.4048944831
 20
7.5798133977
 30
0.0
 10
10.4015538615
 20
7.5738148383
 30
0.0
 10
10.398881365
 20
7.5690159904
 30
0.0
 10
10.3968769905
 20
7.5654168555
 30
0.0
 10
10.394872624
 20
7.5618177167
 30
0.0
 10
10.3932022939
 20
7.5588184464
 30
0.0
 10
10.3918660849
 20
7.5564190034
 30
0.0
 10
10.3910308291
 20
7.5549194123
 30
0.0
 10
10.3903629112
 20
7.5537196002
 30
0.0
 10
10.3898611875
 20
7.5528201225
 30
0.0
 10
10.3894455826
 20
7.5520693445
 30
0.0
 10
10.3891497565
 20
7.5515461807
 30
0.0
 10
10.3889883681
 20
7.5512435126
 30
0.0
 10
10.3888457623
 20
7.5510269835
 30
0.0
 10
10.388785587
 20
7.5507704252
 30
0.0
 10
10.3886766006
 20
7.5504423102
 30
0.0
 10
10.3884992708
 20
7.5498616034
 30
0.0
 10
10.3882389387
 20
7.5490354235
 30
0.0
 10
10.387929538
 20
7.5480425517
 30
0.0
 10
10.3875159567
 20
7.5467192312
 30
0.0
 10
10.3869993387
 20
7.5450649064
 30
0.0
 10
10.3861725493
 20
7.5424180841
 30
0.0
 10
10.3851391314
 20
7.5391095228
 30
0.0
 10
10.3838990005
 20
7.5351392635
 30
0.0
 10
10.3826588774
 20
7.5311690004
 30
0.0
 10
10.3810053772
 20
7.5258753177
 30
0.0
 10
10.378938503
 20
7.5192582137
 30
0.0
 10
10.3768716281
 20
7.5126411101
 30
0.0
 10
10.3752181291
 20
7.5073474268
 30
0.0
 10
10.3739780026
 20
7.5033771652
 30
0.0
 10
10.3727378845
 20
7.4994069005
 30
0.0
 10
10.3717044266
 20
7.4960983561
 30
0.0
 10
10.3708777187
 20
7.4934514993
 30
0.0
 10
10.3703608934
 20
7.4917972623
 30
0.0
 10
10.3699477376
 20
7.4904737617
 30
0.0
 10
10.369637037
 20
7.4894814401
 30
0.0
 10
10.369380772
 20
7.4886535387
 30
0.0
 10
10.3691961817
 20
7.488075905
 30
0.0
 10
10.3690988285
 20
7.4877428661
 30
0.0
 10
10.3690029199
 20
7.4875014322
 30
0.0
 10
10.3689945223
 20
7.4872280987
 30
0.0
 10
10.3689528008
 20
7.4868747809
 30
0.0
 10
10.3688940102
 20
7.4862512906
 30
0.0
 10
10.3688025881
 20
7.4853633004
 30
0.0
 10
10.3686960642
 20
7.4842965522
 30
0.0
 10
10.3685529207
 20
7.4828746264
 30
0.0
 10
10.368374372
 20
7.4810970803
 30
0.0
 10
10.3680884813
 20
7.4782530842
 30
0.0
 10
10.3677311909
 20
7.4746980625
 30
0.0
 10
10.3673024112
 20
7.4704320479
 30
0.0
 10
10.3668736399
 20
7.4661660302
 30
0.0
 10
10.3663019418
 20
7.4604780076
 30
0.0
 10
10.3655873203
 20
7.4533679791
 30
0.0
 10
10.3648726981
 20
7.4462579507
 30
0.0
 10
10.3643010012
 20
7.4405699279
 30
0.0
 10
10.3638722263
 20
7.4363039108
 30
0.0
 10
10.36344346
 20
7.4320378939
 30
0.0
 10
10.3630861278
 20
7.4284828793
 30
0.0
 10
10.3628003226
 20
7.4256388687
 30
0.0
 10
10.3626215563
 20
7.4238613595
 30
0.0
 10
10.3624788595
 20
7.4224393581
 30
0.0
 10
10.3623709709
 20
7.4213728407
 30
0.0
 10
10.3622838184
 20
7.4204841283
 30
0.0
 10
10.3622174059
 20
7.4198619273
 30
0.0
 10
10.3621878966
 20
7.4195065437
 30
0.0
 10
10.3621419869
 20
7.4192395558
 30
0.0
 10
10.3621869675
 20
7.4189742886
 30
0.0
 10
10.362215238
 20
7.4186199988
 30
0.0
 10
10.3622794828
 20
7.4180002713
 30
0.0
 10
10.3623635383
 20
7.4171148001
 30
0.0
 10
10.3624677106
 20
7.4160522972
 30
0.0
 10
10.3626054523
 20
7.4146356048
 30
0.0
 10
10.3627780248
 20
7.4128647468
 30
0.0
 10
10.3630539199
 20
7.4100313698
 30
0.0
 10
10.3633988645
 20
7.40648965
 30
0.0
 10
10.3638127656
 20
7.4022395857
 30
0.0
 10
10.3642266753
 20
7.3979895215
 30
0.0
 10
10.364778552
 20
7.3923227691
 30
0.0
 10
10.3654683989
 20
7.3852393288
 30
0.0
 10
10.3661582451
 20
7.3781558883
 30
0.0
 10
10.3667101229
 20
7.3724891361
 30
0.0
 10
10.3671240291
 20
7.3682390716
 30
0.0
 10
10.3675379436
 20
7.3639890083
 30
0.0
 10
10.3678828463
 20
7.3604472854
 30
0.0
 10
10.3681588269
 20
7.3576139147
 30
0.0
 10
10.3683311817
 20
7.3558430408
 30
0.0
 10
10.3684693703
 20
7.354426381
 30
0.0
 10
10.3685721773
 20
7.3533637787
 30
0.0
 10
10.3686605043
 20
7.3524786183
 30
0.0
 10
10.3687171239
 20
7.3518583359
 30
0.0
 10
10.3687576118
 20
7.3515049352
 30
0.0
 10
10.3687650644
 20
7.3512369368
 30
0.0
 10
10.3688601034
 20
7.3509802068
 30
0.0
 10
10.368956271
 20
7.3506339697
 30
0.0
 10
10.3691387986
 20
7.3500298859
 30
0.0
 10
10.3693921104
 20
7.3491659517
 30
0.0
 10
10.3696992699
 20
7.3481296404
 30
0.0
 10
10.3701077033
 20
7.3467477489
 30
0.0
 10
10.370618626
 20
7.3450204336
 30
0.0
 10
10.3714358895
 20
7.3422567016
 30
0.0
 10
10.3724575419
 20
7.3388020461
 30
0.0
 10
10.3736834934
 20
7.3346564554
 30
0.0
 10
10.3749094534
 20
7.3305108658
 30
0.0
 10
10.3765440637
 20
7.3249834126
 30
0.0
 10
10.3785873276
 20
7.3180740963
 30
0.0
 10
10.3806305909
 20
7.3111647798
 30
0.0
 10
10.3822652023
 20
7.3056373269
 30
0.0
 10
10.3834911588
 20
7.3014917365
 30
0.0
 10
10.3847171232
 20
7.2973461488
 30
0.0
 10
10.3857387356
 20
7.2938914839
 30
0.0
 10
10.3865560806
 20
7.2911277709
 30
0.0
 10
10.3870667959
 20
7.2894004073
 30
0.0
 10
10.3874756553
 20
7.2880186149
 30
0.0
 10
10.3877815134
 20
7.286982001
 30
0.0
 10
10.3880388969
 20
7.2861190137
 30
0.0
 10
10.3882141557
 20
7.2855132395
 30
0.0
 10
10.3883219697
 20
7.2851697109
 30
0.0
 10
10.3883812345
 20
7.284904661
 30
0.0
 10
10.3885230491
 20
7.2846679108
 30
0.0
 10
10.3886833409
 20
7.2843423726
 30
0.0
 10
10.3889772674
 20
7.2837772801
 30
0.0
 10
10.3893901485
 20
7.2829676005
 30
0.0
 10
10.3898886079
 20
7.2819970141
 30
0.0
 10
10.3905521719
 20
7.2807025395
 30
0.0
 10
10.3913819859
 20
7.2790845694
 30
0.0
 10
10.3927094877
 20
7.2764957484
 30
0.0
 10
10.3943689338
 20
7.2732597457
 30
0.0
 10
10.3963602396
 20
7.2693765323
 30
0.0
 10
10.3983515533
 20
7.2654933217
 30
0.0
 10
10.4010066355
 20
7.2603157066
 30
0.0
 10
10.4043254892
 20
7.253843688
 30
0.0
 10
10.4076443423
 20
7.2473716692
 30
0.0
 10
10.4102994255
 20
7.2421940545
 30
0.0
 10
10.4122907359
 20
7.2383108426
 30
0.0
 10
10.414282054
 20
7.2344276342
 30
0.0
 10
10.4159414619
 20
7.231191616
 30
0.0
 10
10.4172690417
 20
7.2286028267
 30
0.0
 10
10.4180986572
 20
7.2269847756
 30
0.0
 10
10.4187626286
 20
7.2256904672
 30
0.0
 10
10.4192598435
 20
7.2247193733
 30
0.0
 10
10.4196766183
 20
7.2239112817
 30
0.0
 10
10.4199635939
 20
7.2233433542
 30
0.0
 10
10.4201350228
 20
7.2230223584
 30
0.0
 10
10.4202426279
 20
7.2227716556
 30
0.0
 10
10.4204303777
 20
7.2225590094
 30
0.0
 10
10.4206527555
 20
7.2222622065
 30
0.0
 10
10.4210549415
 20
7.2217489863
 30
0.0
 10
10.4216226833
 20
7.2210125811
 30
0.0
 10
10.4223068882
 20
7.2201302789
 30
0.0
 10
10.4232181433
 20
7.2189533926
 30
0.0
 10
10.4243575608
 20
7.2174824502
 30
0.0
 10
10.426180434
 20
7.2151288498
 30
0.0
 10
10.4284590923
 20
7.2121868811
 30
0.0
 10
10.4311934537
 20
7.2086565051
 30
0.0
 10
10.4339278227
 20
7.2051261326
 30
0.0
 10
10.4375736454
 20
7.2004189681
 30
0.0
 10
10.4421309247
 20
7.194535013
 30
0.0
 10
10.4466882035
 20
7.1886510575
 30
0.0
 10
10.4503340271
 20
7.1839438937
 30
0.0
 10
10.4530683933
 20
7.1804135192
 30
0.0
 10
10.4558027651
 20
7.176883151
 30
0.0
 10
10.4580813908
 20
7.1739411579
 30
0.0
 10
10.4599043305
 20
7.1715876073
 30
0.0
 10
10.4610435788
 20
7.1701165381
 30
0.0
 10
10.4619551813
 20
7.168939912
 30
0.0
 10
10.462638325
 20
7.1680568148
 30
0.0
 10
10.4632093872
 20
7.1673228971
 30
0.0
 10
10.4636056457
 20
7.1668052364
 30
0.0
 10
10.4638375207
 20
7.1665155483
 30
0.0
 10
10.463996098
 20
7.1662810477
 30
0.0
 10
10.4642132705
 20
7.1661124263
 30
0.0
 10
10.4644823952
 20
7.1658646183
 30
0.0
 10
10.4649628862
 20
7.1654416609
 30
0.0
 10
10.4656443232
 20
7.1648318386
 30
0.0
 10
10.4664641787
 20
7.1641024477
 30
0.0
 10
10.4675565751
 20
7.1631290897
 30
0.0
 10
10.4689223253
 20
7.1619126787
 30
0.0
 10
10.4711073833
 20
7.1599662609
 30
0.0
 10
10.4738387547
 20
7.1575332937
 30
0.0
 10
10.4771163794
 20
7.1546137094
 30
0.0
 10
10.4803940097
 20
7.1516941315
 30
0.0
 10
10.4847641814
 20
7.1478013587
 30
0.0
 10
10.4902268969
 20
7.1429353936
 30
0.0
 10
10.4956896118
 20
7.1380694278
 30
0.0
 10
10.5000597843
 20
7.134176656
 30
0.0
 10
10.5033374125
 20
7.1312570753
 30
0.0
 10
10.5066150453
 20
7.1283375014
 30
0.0
 10
10.5093463912
 20
7.125904502
 30
0.0
 10
10.5115315011
 20
7.1239581498
 30
0.0
 10
10.5128971193
 20
7.1227415721
 30
0.0
 10
10.5139897867
 20
7.1217685562
 30
0.0
 10
10.5148088141
 20
7.1210381201
 30
0.0
 10
10.5154928422
 20
7.1204315677
 30
0.0
 10
10.5159687077
 20
7.120002773
 30
0.0
 10
10.5162452436
 20
7.1197643179
 30
0.0
 10
10.5164396514
 20
7.1195669675
 30
0.0
 10
10.5166837291
 20
7.1194403684
 30
0.0
 10
10.5169918406
 20
7.1192468907
 30
0.0
 10
10.517539108
 20
7.1189198031
 30
0.0
 10
10.5183166984
 20
7.1184465237
 30
0.0
 10
10.5192516132
 20
7.1178811615
 30
0.0
 10
10.5204975353
 20
7.1171264465
 30
0.0
 10
10.522055154
 20
7.1161833604
 30
0.0
 10
10.5245472231
 20
7.1146742507
 30
0.0
 10
10.527662351
 20
7.1127879227
 30
0.0
 10
10.5314004867
 20
7.1105243037
 30
0.0
 10
10.5351386272
 20
7.1082606915
 30
0.0
 10
10.5401228128
 20
7.1052425395
 30
0.0
 10
10.5463530454
 20
7.1014698504
 30
0.0
 10
10.5525832776
 20
7.0976971607
 30
0.0
 10
10.5575674638
 20
7.0946790097
 30
0.0
 10
10.5613056026
 20
7.0924153944
 30
0.0
 10
10.5650437446
 20
7.0901517868
 30
0.0
 10
10.5681588528
 20
7.0882654233
 30
0.0
 10
10.5706509622
 20
7.0867563859
 30
0.0
 10
10.5722084784
 20
7.0858131159
 30
0.0
 10
10.5734546108
 20
7.0850587785
 30
0.0
 10
10.5743888832
 20
7.0844922628
 30
0.0
 10
10.5751684834
 20
7.0840225924
 30
0.0
 10
10.5757121628
 20
7.083689062
 30
0.0
 10
10.5760260233
 20
7.0835059073
 30
0.0
 10
10.5762524422
 20
7.0833475993
 30
0.0
 10
10.5765131736
 20
7.0832693423
 30
0.0
 10
10.5768488468
 20
7.0831370768
 30
0.0
 10
10.5774418515
 20
7.082918622
 30
0.0
 10
10.5782860855
 20
7.0825997421
 30
0.0
 10
10.5793004143
 20
7.0822199975
 30
0.0
 10
10.5806524168
 20
7.0817126545
 30
0.0
 10
10.5823425692
 20
7.081078824
 30
0.0
 10
10.5850467295
 20
7.0800645005
 30
0.0
 10
10.5884269586
 20
7.0787966629
 30
0.0
 10
10.5924832212
 20
7.0772752292
 30
0.0
 10
10.5965394871
 20
7.0757538031
 30
0.0
 10
10.6019478405
 20
7.0737252323
 30
0.0
 10
10.6087082827
 20
7.0711895199
 30
0.0
 10
10.6154687246
 20
7.0686538067
 30
0.0
 10
10.6208770784
 20
7.0666252371
 30
0.0
 10
10.6249333431
 20
7.0651038077
 30
0.0
 10
10.6289896102
 20
7.0635823865
 30
0.0
 10
10.6323698252
 20
7.0623145099
 30
0.0
 10
10.6350740144
 20
7.0613002659
 30
0.0
 10
10.6367640933
 20
7.0606662332
 30
0.0
 10
10.6381162464
 20
7.0601593052
 30
0.0
 10
10.6391301151
 20
7.0597782926
 30
0.0
 10
10.6399757886
 20
7.05946338
 30
0.0
 10
10.6405662237
 20
7.0592378429
 30
0.0
 10
10.640906014
 20
7.0591169251
 30
0.0
 10
10.6411540992
 20
7.0590038117
 30
0.0
 10
10.6414280152
 20
7.058976418
 30
0.0
 10
10.6417842266
 20
7.0589099932
 30
0.0
 10
10.6424117943
 20
7.0588076805
 30
0.0
 10
10.643306125
 20
7.0586542364
 30
0.0
 10
10.6443802612
 20
7.0584732209
 30
0.0
 10
10.6458121147
 20
7.0582307781
 30
0.0
 10
10.6476020439
 20
7.0579280974
 30
0.0
 10
10.6504658678
 20
7.0574435998
 30
0.0
 10
10.6540456693
 20
7.0568380494
 30
0.0
 10
10.6583414218
 20
7.0561113582
 30
0.0
 10
10.6626371768
 20
7.0553846752
 30
0.0
 10
10.6683648493
 20
7.0544157617
 30
0.0
 10
10.6755244402
 20
7.0532046209
 30
0.0
 10
10.6841159491
 20
7.0517512514
 30
0.0
 10
10.6955712944
 20
7.0498134256
 30
0.0
 10
10.7041628034
 20
7.0483600562
 30
0.0
 10
10.709890476
 20
7.0473911432
 30
0.0
  0
ENDSEC
  0
SECTION
  2
OBJECTS
  0
DICTIONARY
  5
C
100
AcDbDictionary
280
0
281
1
  3
ACAD_GROUP
350
D
  3
ACAD_MLINESTYLE
350
17
  3
ACAD_LAYOUT
350
1A
  3
ACAD_PLOTSETTINGS
350
19
  3
ACAD_PLOTSTYLENAME
350
E
  3
ACAD_IMAGE_DICT
350
       391
  3
ACAD_IMAGE_VARS
350
       392
  3
ACAD_TABLESTYLE
350
       393
  0
IMAGEDEF_REACTOR
  5
390
100
AcDbRasterImageDefReactor
 90
2
330
287
  0
DICTIONARY
  5
D
102
{ACAD_REACTORS
330
C
102
}
100
AcDbDictionary
280
0
281
1
  0
ACDBDICTIONARYWDFLT
  5
E
102
{ACAD_REACTORS
330
C
102
}
100
AcDbDictionary
281
1
  3
Normal
350
F
100
AcDbDictionaryWithDefault
340
F
  0
DICTIONARY
  5
391
330
C
100
AcDbDictionary
281
1
  3
CBBALHN-ECT_assy_2_img_1
350
       396
  0
RASTERVARIABLES
  5
392
330
C
100
AcDbRasterVariables
 90
0
 70
0
 71
1
 72
5
  0
DICTIONARY
  5
17
102
{ACAD_REACTORS
330
C
102
}
100
AcDbDictionary
280
0
281
1
  3
Standard
350
18
  0
DICTIONARY
  5
393
330
C
100
AcDbDictionary
281
1
  3
Standard
350
       397
  3
Standard1
350
       398
  0
DICTIONARY
  5
19
102
{ACAD_REACTORS
330
C
102
}
100
AcDbDictionary
281
1
  0
DICTIONARY
  5
1A
102
{ACAD_REACTORS
330
C
102
}
100
AcDbDictionary
281
1
  3
Model
350
394
  3
Layout1
350
395
  0
ACDBPLACEHOLDER
  5
F
102
{ACAD_REACTORS
330
E
102
}
  0
MLINESTYLE
  5
18
102
{ACAD_REACTORS
330
17
102
}
100
AcDbMlineStyle
  2
STANDARD
 70
0
  3

 62
256
 51
90.0
 52
90.0
 71
2
 49
0.5
 62
256
  6
BYLAYER
 49
-0.5
 62
256
  6
BYLAYER
  0
LAYOUT
  5
394
102
{ACAD_REACTORS
330
1A
102
}
100
AcDbPlotSettings
  1

  2
none_device
  4
ANSI_C_(22.00_x_17.00_Inches)
  6

 40
0.0
 41
0.0
 42
0.0
 43
0.0
 44
558.8
 45
431.8
 46
0.0
 47
0.0
 48
0.0
 49
0.0
140
0.0
141
0.0
142
1.0
143
1.0
 70
1024
 72
0
 73
0
 74
0
  7

 75
0
147
1.0
148
0.0
149
0.0
100
AcDbLayout
  1
Model
 70
0
 71
0
 10
0.0
 20
0.0
 11
22.0
 21
17.0
 12
0.0
 22
0.0
 32
0.0
 14
0.0
 24
0.0
 34
0.0
 15
0.0
 25
0.0
 35
0.0
146
0.0
 13
0.0
 23
0.0
 33
0.0
 16
1.0
 26
0.0
 36
0.0
 17
0.0
 27
1.0
 37
0.0
 76
0
330
20C
345
0
346
0
  0
LAYOUT
  5
395
102
{ACAD_REACTORS
330
1A
102
}
100
AcDbPlotSettings
  1

  2
none_device
  4
ANSI_C_(22.00_x_17.00_Inches)
  6

 40
0.0
 41
0.0
 42
0.0
 43
0.0
 44
558.8
 45
431.8
 46
0.0
 47
0.0
 48
0.0
 49
0.0
140
0.0
141
0.0
142
1.0
143
1.0
 70
0
 72
0
 73
0
 74
0
  7

 75
0
147
1.0
148
0.0
149
0.0
100
AcDbLayout
  1
Layout1
 70
0
 71
1
 10
0.0
 20
0.0
 11
22.0
 21
17.0
 12
0.0
 22
0.0
 32
0.0
 14
0.0
 24
0.0
 34
0.0
 15
0.0
 25
0.0
 35
0.0
146
0.0
 13
0.0
 23
0.0
 33
0.0
 16
1.0
 26
0.0
 36
0.0
 17
0.0
 27
1.0
 37
0.0
 76
0
330
20D
345
0
346
0
  0
IMAGEDEF
  5
396
102
{ACAD_REACTORS
330
391
330
390
102
}
100
AcDbRasterImageDef
 90
0
  1
CBBALHN-ECT_assy_2_img_1.png
 10
369.0
 20
92.0
 11
0.0066666667
 21
0.0066666667
280
1
281
0
  0
TABLESTYLE
  5
397
102
{ACAD_REACTORS
330
393
330
28A
330
28B
102
}
330
393
100
AcDbTableStyle
  3
Standard
 70
0
 71
0
 40
0.06
 41
0.06
280
1
281
1
  7
Standard
140
0.18
170
1
 62
0
 63
7
283
0
  7
Standard
140
0.18
170
1
 62
0
 63
7
283
0
  7
Standard
140
0.18
170
1
 62
0
 63
7
283
0
  0
TABLESTYLE
  5
398
102
{ACAD_REACTORS
330
393
330
289
102
}
330
393
100
AcDbTableStyle
  3
Standard1
 70
1
 71
0
 40
0.06
 41
0.06
280
1
281
1
  7
Standard
140
0.18
170
1
 62
0
 63
7
283
0
  7
Standard
140
0.18
170
1
 62
0
 63
7
283
0
  7
Standard
140
0.18
170
1
 62
0
 63
7
283
0
  0
ENDSEC
  0
EOF
