999
DXF file: ZWV_assy_2.dxf
999
Pro/ENGINEER 2014200 by Parametric Technology Corporation
  0
SECTION
  2
HEADER
  9
$ACADVER
  1
AC1021
  9
$DWGCODEPAGE
  3
ANSI_1252
  9
$EXTMAX
 10
22.0
 20
17.0
 30
0.0
  9
$EXTMIN
 10
0.0
 20
0.0
 30
0.0
  9
$LIMMIN
 10
0.0
 20
0.0
  9
$LIMMAX
 10
22.0
 20
17.0
  9
$VIEWCTR
 10
11.0
 20
8.5
  9
$VIEWSIZE
 40
17.0
  9
$CLAYER
  8
0
  9
$LTSCALE
 40
1.21
  9
$CELTYPE
  6
BYLAYER
  9
$DIMSCALE
 40
1.0
  9
$DIMASZ
 40
0.1875
  9
$DIMEXO
 40
0.0625
  9
$DIMDLI
 40
0.836
  9
$DIMEXE
 40
0.125
  9
$DIMCEN
 40
0.198
  9
$DIMLFAC
 40
1.0
  9
$DIMBLK
  1
_FILLED
  9
$DIMTXT
 40
0.1
  9
$DIMTOL
 70
0
  9
$DIMLIM
 70
0
  9
$DIMTFAC
 40
1.0
  9
$DIMGAP
 40
0.09
  9
$DIMDSEP
 70
46
  9
$AUNITS
 70
0
  9
$PDMODE
 70
3
  9
$PDSIZE
 40
0.3125
  9
$HANDSEED
  5
372
  9
$TILEMODE
 70
1
  9
$MEASUREMENT
 70
0
  9
$INSUNITS
 70
1
  0
ENDSEC
  0
SECTION
  2
CLASSES
  0
CLASS
  1
ACDBDICTIONARYWDFLT
  2
AcDbDictionaryWithDefault
  3
AutoCAD 2000
 90
0
 91
1
280
0
281
0
  0
CLASS
  1
ACDBPLACEHOLDER
  2
AcDbPlaceHolder
  3
AutoCAD 2000
 90
0
 91
1
280
0
281
0
  0
CLASS
  1
LAYOUT
  2
AcDbLayout
  3
AutoCAD 2000
 90
0
 91
0
280
0
281
0
  0
CLASS
  1
RASTERVARIABLES
  2
AcDbRasterVariables
  3
ISM
 90
0
 91
1
280
0
281
0
  0
CLASS
  1
IMAGEDEF
  2
AcDbRasterImageDef
  3
ISM
 90
0
 91
1
280
0
281
0
  0
CLASS
  1
IMAGEDEF_REACTOR
  2
AcDbRasterImageDefReactor
  3
ISM
 90
0
 91
1
280
0
281
0
  0
CLASS
  1
IMAGE
  2
AcDbRasterImage
  3
ISM
 90
127
 91
1
280
0
281
1
  0
CLASS
  1
TABLESTYLE
  2
AcDbTableStyle
  3
ObjectDBX Classes
 90
2047
 91
1
280
0
281
0
  0
CLASS
  1
ACAD_TABLE
  2
AcDbTable
  3
ObjectDBX Classes
 90
1025
 91
3
280
0
281
1
  0
ENDSEC
  0
SECTION
  2
TABLES
  0
TABLE
  2
VPORT
  5
8
100
AcDbSymbolTable
 70
2
  0
VPORT
  5
1F4
100
AcDbSymbolTableRecord
100
AcDbViewportTableRecord
  2
*ACTIVE
 70
0
 10
0.0
 20
0.0
 11
1.0
 21
1.0
 12
11.0
 22
8.5
 13
0.0
 23
0.0
 14
1.0
 24
1.0
 15
0.0
 25
0.0
 16
0.0
 26
0.0
 36
1.0
 17
0.0
 27
0.0
 37
0.0
 40
17.0
 41
1.2941176471
 42
50.0
 43
0.0
 44
0.0
 50
0.0
 51
0.0
 71
0
 72
100
 73
1
 74
1
 75
0
 76
0
 77
0
 78
0
  0
ENDTAB
  0
TABLE
  2
LTYPE
  5
5
100
AcDbSymbolTable
 70
6
  0
LTYPE
  5
14
100
AcDbSymbolTableRecord
100
AcDbLinetypeTableRecord
  2
BYBLOCK
 70
0
  3

 72
65
 73
0
 40
0.0
  0
LTYPE
  5
15
100
AcDbSymbolTableRecord
100
AcDbLinetypeTableRecord
  2
BYLAYER
 70
0
  3

 72
65
 73
0
 40
0.0
  0
LTYPE
  5
16
100
AcDbSymbolTableRecord
100
AcDbLinetypeTableRecord
  2
CONTINUOUS
 70
64
  3
Solid line
 72
65
 73
0
 40
0.0
  0
LTYPE
  5
1F5
100
AcDbSymbolTableRecord
100
AcDbLinetypeTableRecord
  2
CENTER
 70
64
  3
____ _ ____ _ ____ _ ____ _ ____ _ ____ _ ____
 72
65
 73
4
 40
0.6
 49
0.375
 74
0
 49
-0.075
 74
0
 49
0.075
 74
0
 49
-0.075
 74
0
  0
LTYPE
  5
1F6
100
AcDbSymbolTableRecord
100
AcDbLinetypeTableRecord
  2
HIDDEN
 70
64
  3
- - - - - - - - - - - - - - - - - - - -
 72
65
 73
2
 40
0.2
 49
0.1
 74
0
 49
-0.1
 74
0
  0
LTYPE
  5
1F7
100
AcDbSymbolTableRecord
100
AcDbLinetypeTableRecord
  2
PHANTOM
 70
64
  3
_____ _ _ _____ _ _ _____ _ _ _____
 72
65
 73
6
 40
0.8
 49
0.45
 74
0
 49
-0.05
 74
0
 49
0.1
 74
0
 49
-0.05
 74
0
 49
0.1
 74
0
 49
-0.05
 74
0
  0
LTYPE
  5
1F8
100
AcDbSymbolTableRecord
100
AcDbLinetypeTableRecord
  2
DOT
 70
64
  3
. . . . . . . . . . . . . . . . . . . .
 72
65
 73
2
 40
0.2
 49
0.1
 74
0
 49
-0.1
 74
0
  0
LTYPE
  5
1F9
100
AcDbSymbolTableRecord
100
AcDbLinetypeTableRecord
  2
DASHED
 70
64
  3
- - - - - - - - - - - - - - - - - - - -
 72
65
 73
2
 40
0.2
 49
0.1
 74
0
 49
-0.1
 74
0
  0
ENDTAB
  0
TABLE
  2
LAYER
  5
2
100
AcDbSymbolTable
 70
36
  0
LAYER
  5
10
100
AcDbSymbolTableRecord
100
AcDbLayerTableRecord
  2
0
 70
0
 62
7
  6
CONTINUOUS
370
-3
390
F
  0
LAYER
  5
1FA
100
AcDbSymbolTableRecord
100
AcDbLayerTableRecord
  2
DEFAULT_1
 70
0
 62
7
  6
CENTER
370
-3
390
F
  0
LAYER
  5
1FB
100
AcDbSymbolTableRecord
100
AcDbLayerTableRecord
  2
DEFAULT_2
 70
0
 62
8
  6
HIDDEN
370
-3
390
F
  0
LAYER
  5
1FC
100
AcDbSymbolTableRecord
100
AcDbLayerTableRecord
  2
DEFAULT_3
 70
0
 62
7
  6
PHANTOM
370
-3
390
F
  0
LAYER
  5
1FD
100
AcDbSymbolTableRecord
100
AcDbLayerTableRecord
  2
DATUM_PLANES
 70
0
 62
7
  6
CONTINUOUS
370
-3
390
F
  0
LAYER
  5
1FE
100
AcDbSymbolTableRecord
100
AcDbLayerTableRecord
  2
DIMENSIONS
 70
0
 62
7
  6
CONTINUOUS
370
-3
390
F
  0
LAYER
  5
1FF
100
AcDbSymbolTableRecord
100
AcDbLayerTableRecord
  2
PARAMETERDIMENSIONS
 70
0
 62
7
  6
CONTINUOUS
370
-3
390
F
  0
LAYER
  5
200
100
AcDbSymbolTableRecord
100
AcDbLayerTableRecord
  2
PLANE
 70
0
 62
7
  6
CONTINUOUS
370
-3
390
F
  0
LAYER
  5
201
100
AcDbSymbolTableRecord
100
AcDbLayerTableRecord
  2
PORT_AREAS
 70
0
 62
7
  6
CONTINUOUS
370
-3
390
F
  0
LAYER
  5
202
100
AcDbSymbolTableRecord
100
AcDbLayerTableRecord
  2
SUNNBOMCOSMETIC
 70
0
 62
7
  6
CONTINUOUS
370
-3
390
F
  0
LAYER
  5
203
100
AcDbSymbolTableRecord
100
AcDbLayerTableRecord
  2
SUNNBOMSTAMPING
 70
0
 62
7
  6
CONTINUOUS
370
-3
390
F
  0
LAYER
  5
204
100
AcDbSymbolTableRecord
100
AcDbLayerTableRecord
  2
THREADS
 70
0
 62
7
  6
CONTINUOUS
370
-3
390
F
  0
ENDTAB
  0
TABLE
  2
STYLE
  5
3
100
AcDbSymbolTable
 70
1
  0
STYLE
  5
11
100
AcDbSymbolTableRecord
100
AcDbTextStyleTableRecord
  2
STANDARD
 70
0
 40
0.0
 41
0.8
 50
0.0
 71
0
 42
0.2
  3
txt
  4

  0
STYLE
  5
205
100
AcDbSymbolTableRecord
100
AcDbTextStyleTableRecord
  2
TEXTSTYLE_1
 70
0
 40
0.0
 41
0.8
 50
0.0
 71
0
 42
0.2
  3
gdt
  4

  0
ENDTAB
  0
TABLE
  2
VIEW
  5
6
100
AcDbSymbolTable
 70
0
  0
ENDTAB
  0
TABLE
  2
UCS
  5
7
100
AcDbSymbolTable
 70
0
  0
ENDTAB
  0
TABLE
  2
APPID
  5
9
100
AcDbSymbolTable
 70
1
  0
APPID
  5
206
100
AcDbSymbolTableRecord
100
AcDbRegAppTableRecord
  2
ACAD
 70
0
  0
ENDTAB
  0
TABLE
  2
BLOCK_RECORD
  5
1
100
AcDbSymbolTable
 70
0
  0
BLOCK_RECORD
  5
207
100
AcDbSymbolTableRecord
100
AcDbBlockTableRecord
  2
*Model_Space
  0
BLOCK_RECORD
  5
208
100
AcDbSymbolTableRecord
100
AcDbBlockTableRecord
  2
*Paper_Space
  0
BLOCK_RECORD
  5
209
100
AcDbSymbolTableRecord
100
AcDbBlockTableRecord
  2
SUN_FIRST_THIRD_ANGLE_BL0
  0
BLOCK_RECORD
  5
20A
100
AcDbSymbolTableRecord
100
AcDbBlockTableRecord
  2
*T1
  0
BLOCK_RECORD
  5
20B
100
AcDbSymbolTableRecord
100
AcDbBlockTableRecord
  2
*T2
  0
BLOCK_RECORD
  5
20C
100
AcDbSymbolTableRecord
100
AcDbBlockTableRecord
  2
*T3
  0
ENDTAB
  0
TABLE
  2
DIMSTYLE
  5
A
100
AcDbSymbolTable
 70
1
100
AcDbDimStyleTable
 71
0
  0
DIMSTYLE
105
20D
100
AcDbSymbolTableRecord
100
AcDbDimStyleTableRecord
  2
STANDARD
 70
0
  3

  4

 40
1.0
 41
0.1875
 42
0.0625
 43
0.38
 44
0.125
 45
0.0
 46
0.0
 47
0.001
 48
0.001
140
0.1
141
0.09
142
0.0
143
25.4
144
1.0
145
0.0
146
1.0
147
0.09
 71
0.0
 72
0.0
 73
1
 74
1
 75
0
 76
0
 77
0
 78
4
170
0
171
2
172
0
173
0
174
0
175
0
176
0
177
0
178
0
270
2
271
3
272
3
273
2
274
2
275
0
280
0
281
0
282
0
283
1
284
4
285
0
286
0
287
3
288
0
340
11
278
46
  0
ENDTAB
  0
ENDSEC
  0
SECTION
  2
BLOCKS
  0
BLOCK
  5
20
100
AcDbEntity
  8
0
100
AcDbBlockBegin
  2
*Model_Space
 70
0
 10
0.0
 20
0.0
 30
0.0
  3
*Model_Space
  1

  0
ENDBLK
  5
21
100
AcDbEntity
  8
0
100
AcDbBlockEnd
  0
BLOCK
  5
1C
100
AcDbEntity
  8
0
100
AcDbBlockBegin
  2
*Paper_Space
 70
0
 10
0.0
 20
0.0
 30
0.0
  3
*Paper_Space
  1

  0
ENDBLK
  5
1D
100
AcDbEntity
  8
0
100
AcDbBlockEnd
  0
BLOCK
  5
20E
100
AcDbEntity
  8
0
100
AcDbBlockBegin
 62
2
  6
CONTINUOUS
  2
SUN_FIRST_THIRD_ANGLE_BL0
 70
64
 10
20.4816717061
 20
1.2289683772
  3
SUN_FIRST_THIRD_ANGLE_BL0
  1

  0
TEXT
  5
20F
100
AcDbEntity
  8
0
100
AcDbText
 62
2
  6
CONTINUOUS
 10
19.4750896608
 20
1.4136269581
  7
STANDARD
 40
0.08
  1
FIRST ANGLE
 41
0.8
 72
0
100
AcDbText
  0
TEXT
  5
210
100
AcDbEntity
  8
0
100
AcDbText
 62
2
  6
CONTINUOUS
 10
20.7842537513
 20
1.4047600029
  7
STANDARD
 40
0.08
  1
THIRD ANGLE
 41
0.8
 72
0
100
AcDbText
  0
LINE
  5
211
100
AcDbEntity
  8
0
100
AcDbLine
 62
7
  6
CONTINUOUS
 10
19.4767170086
 20
1.1727031207
 11
19.6334271527
 21
1.1717972817
  0
LINE
  5
212
100
AcDbEntity
  8
0
100
AcDbLine
 62
7
  6
CONTINUOUS
 10
19.6596964832
 20
1.1717972817
 11
19.6950230232
 21
1.171593082
  0
LINE
  5
213
100
AcDbEntity
  8
0
100
AcDbLine
 62
7
  6
CONTINUOUS
 10
19.7194818561
 20
1.1708914427
 11
19.8852396156
 21
1.1699333054
  0
LINE
  5
214
100
AcDbEntity
  8
0
100
AcDbLine
 62
7
  6
CONTINUOUS
 10
19.4758111696
 20
1.2723454088
 11
19.88525039
 21
1.3511534004
  0
LINE
  5
215
100
AcDbEntity
  8
0
100
AcDbLine
 62
7
  6
CONTINUOUS
 10
19.88525039
 20
1.3511534004
 11
19.8831348489
 21
0.9851647912
  0
LINE
  5
216
100
AcDbEntity
  8
0
100
AcDbLine
 62
7
  6
CONTINUOUS
 10
19.8831348489
 20
0.9851647912
 11
19.4767170086
 21
1.0658141206
  0
LINE
  5
217
100
AcDbEntity
  8
0
100
AcDbLine
 62
7
  6
CONTINUOUS
 10
19.4767170086
 20
1.0658141206
 11
19.4779056764
 21
1.2714536432
  0
CIRCLE
  5
218
100
AcDbEntity
  8
0
100
AcDbCircle
 62
7
  6
CONTINUOUS
 10
20.2068232291
 20
1.1717972817
 40
0.175742101
  0
CIRCLE
  5
219
100
AcDbEntity
  8
0
100
AcDbCircle
 62
7
  6
CONTINUOUS
 10
20.2068232291
 20
1.1717972817
 40
0.1005522074
  0
LINE
  5
21A
100
AcDbEntity
  8
0
100
AcDbLine
 62
7
  6
CONTINUOUS
 10
20.2077290681
 20
1.3756110529
 11
20.2071171714
 21
1.2379342989
  0
LINE
  5
21B
100
AcDbEntity
  8
0
100
AcDbLine
 62
7
  6
CONTINUOUS
 10
20.2077290681
 20
1.2016899681
 11
20.2074674401
 21
1.1428236749
  0
LINE
  5
21C
100
AcDbEntity
  8
0
100
AcDbLine
 62
7
  6
CONTINUOUS
 10
20.208634907
 20
1.101141841
 11
20.2080230104
 21
0.963465087
  0
LINE
  5
21D
100
AcDbEntity
  8
0
100
AcDbLine
 62
7
  6
CONTINUOUS
 10
20.0066328138
 20
1.1745147986
 11
20.1443095678
 21
1.1739029019
  0
LINE
  5
21E
100
AcDbEntity
  8
0
100
AcDbLine
 62
7
  6
CONTINUOUS
 10
20.1832714155
 20
1.1727031207
 11
20.238153505
 21
1.172335442
  0
LINE
  5
21F
100
AcDbEntity
  8
0
100
AcDbLine
 62
7
  6
CONTINUOUS
 10
20.2756669918
 20
1.1717972817
 11
20.407916871
 21
1.1712095044
  0
CIRCLE
  5
220
100
AcDbEntity
  8
0
100
AcDbCircle
 62
7
  6
CONTINUOUS
 10
20.7509457401
 20
1.1693297793
 40
0.1722024983
  0
CIRCLE
  5
221
100
AcDbEntity
  8
0
100
AcDbCircle
 62
7
  6
CONTINUOUS
 10
20.7509457401
 20
1.1693297793
 40
0.0985164967
  0
LINE
  5
222
100
AcDbEntity
  8
0
100
AcDbLine
 62
7
  6
CONTINUOUS
 10
20.7169767782
 20
1.170462078
 11
20.7825395137
 21
1.1682766535
  0
LINE
  5
223
100
AcDbEntity
  8
0
100
AcDbLine
 62
7
  6
CONTINUOUS
 10
20.8177513651
 20
1.1693297793
 11
20.947965719
 21
1.1693297793
  0
LINE
  5
224
100
AcDbEntity
  8
0
100
AcDbLine
 62
7
  6
CONTINUOUS
 10
20.6875370113
 20
1.170462078
 11
20.5573226574
 21
1.170462078
  0
LINE
  5
225
100
AcDbEntity
  8
0
100
AcDbLine
 62
7
  6
CONTINUOUS
 10
20.7486811426
 20
1.1987695462
 11
20.7486811426
 21
1.1432869085
  0
LINE
  5
226
100
AcDbEntity
  8
0
100
AcDbLine
 62
7
  6
CONTINUOUS
 10
20.7498134414
 20
1.1059210505
 11
20.7498134414
 21
0.9757066966
  0
LINE
  5
227
100
AcDbEntity
  8
0
100
AcDbLine
 62
7
  6
CONTINUOUS
 10
20.7486811426
 20
1.2338708068
 11
20.7486811426
 21
1.3640851607
  0
LINE
  5
228
100
AcDbEntity
  8
0
100
AcDbLine
 62
7
  6
CONTINUOUS
 10
21.0702539817
 20
1.2701043662
 11
21.4790138229
 21
1.3448360823
  0
LINE
  5
229
100
AcDbEntity
  8
0
100
AcDbLine
 62
7
  6
CONTINUOUS
 10
21.4790138229
 20
1.3448360823
 11
21.4790138229
 21
0.9779712941
  0
LINE
  5
22A
100
AcDbEntity
  8
0
100
AcDbLine
 62
7
  6
CONTINUOUS
 10
21.4790138229
 20
0.9779712941
 11
21.069121683
 21
1.0617614
  0
LINE
  5
22B
100
AcDbEntity
  8
0
100
AcDbLine
 62
7
  6
CONTINUOUS
 10
21.0702539817
 20
1.2701043662
 11
21.069121683
 21
1.0617614
  0
LINE
  5
22C
100
AcDbEntity
  8
0
100
AcDbLine
 62
7
  6
CONTINUOUS
 10
21.4790138229
 20
1.1693297793
 11
21.3159628059
 21
1.1693297793
  0
LINE
  5
22D
100
AcDbEntity
  8
0
100
AcDbLine
 62
7
  6
CONTINUOUS
 10
21.2876553377
 20
1.1693297793
 11
21.2502894796
 21
1.1693297793
  0
LINE
  5
22E
100
AcDbEntity
  8
0
100
AcDbLine
 62
7
  6
CONTINUOUS
 10
21.2208497126
 20
1.1659328831
 11
21.0713862804
 21
1.1659328831
  0
LINE
  5
22F
100
AcDbEntity
  8
0
100
AcDbLine
 62
7
  6
CONTINUOUS
 10
20.4796138713
 20
1.5284908897
 11
20.4766766948
 21
0.9294458646
  0
ENDBLK
  5
230
100
AcDbEntity
  8
0
  6
BYBLOCK
 62
0
100
AcDbBlockEnd
  0
BLOCK
  5
231
100
AcDbEntity
  8
0
100
AcDbBlockBegin
  2
*T1
 70
1
 10
0.0
 20
0.0
  3
*T1
  1

  0
LINE
  5
232
100
AcDbEntity
  8
0
100
AcDbLine
 62
2
  6
CONTINUOUS
 10
9.275
 20
0.0
 11
-0.0
 21
0.0
  0
LINE
  5
233
100
AcDbEntity
  8
0
100
AcDbLine
 62
2
  6
CONTINUOUS
 10
9.275
 20
0.0
 11
9.275
 21
1.25
  0
LINE
  5
234
100
AcDbEntity
  8
0
100
AcDbLine
 62
2
  6
CONTINUOUS
 10
9.275
 20
0.625
 11
-0.0
 21
0.625
  0
LINE
  5
235
100
AcDbEntity
  8
0
100
AcDbLine
 62
2
  6
CONTINUOUS
 10
9.275
 20
1.25
 11
-0.0
 21
1.25
  0
LINE
  5
236
100
AcDbEntity
  8
0
100
AcDbLine
 62
2
  6
CONTINUOUS
 10
6.8
 20
0.0
 11
6.8
 21
1.25
  0
LINE
  5
237
100
AcDbEntity
  8
0
100
AcDbLine
 62
2
  6
CONTINUOUS
 10
6.4
 20
0.0
 11
6.4
 21
0.625
  0
LINE
  5
238
100
AcDbEntity
  8
0
100
AcDbLine
 62
2
  6
CONTINUOUS
 10
5.9
 20
0.0
 11
5.9
 21
0.625
  0
LINE
  5
239
100
AcDbEntity
  8
0
100
AcDbLine
 62
2
  6
CONTINUOUS
 10
5.2
 20
0.0
 11
5.2
 21
0.625
  0
LINE
  5
23A
100
AcDbEntity
  8
0
100
AcDbLine
 62
2
  6
CONTINUOUS
 10
4.1
 20
0.0
 11
4.1
 21
1.25
  0
LINE
  5
23B
100
AcDbEntity
  8
0
100
AcDbLine
 62
2
  6
CONTINUOUS
 10
-0.0
 20
0.0
 11
-0.0
 21
1.25
  0
MTEXT
  5
23C
100
AcDbEntity
  8
0
100
AcDbMText
 62
2
  6
CONTINUOUS
  7
STANDARD
 71
2
 72
1
 10
6.6
 20
0.325
 30
0.0
 11
1.0
 21
0.0
 31
0.0
 44
0.9
  1
2
 40
0.125
 41
0.2
  0
MTEXT
  5
23D
100
AcDbEntity
  8
0
100
AcDbMText
 62
2
  6
CONTINUOUS
  7
STANDARD
 71
2
 72
1
 10
6.15
 20
0.325
 30
0.0
 11
1.0
 21
0.0
 31
0.0
 44
0.9
  1
C
 40
0.125
 41
0.2
  0
MTEXT
  5
23E
100
AcDbEntity
  8
0
100
AcDbMText
 62
2
  6
CONTINUOUS
  7
STANDARD
 71
2
 72
1
 10
5.55
 20
0.325
 30
0.0
 11
1.0
 21
0.0
 31
0.0
 44
0.9
  1
2.000
 40
0.125
 41
1.0
  0
MTEXT
  5
23F
100
AcDbEntity
  8
0
100
AcDbMText
 62
2
  6
CONTINUOUS
  7
STANDARD
 71
2
 72
1
 10
4.65
 20
0.325
 30
0.0
 11
1.0
 21
0.0
 31
0.0
 44
0.9
  1
Aug-15-19
 40
0.125
 41
1.8
  0
MTEXT
  5
240
100
AcDbEntity
  8
0
100
AcDbMText
 62
2
  6
CONTINUOUS
  7
STANDARD
 71
2
 72
1
 10
2.05
 20
0.4625
 30
0.0
 11
1.0
 21
0.0
 31
0.0
 44
0.9
  1
Sandwich ISO 03\PTap in manifold - A and B
 40
0.125
 41
5.0
  0
MTEXT
  5
241
100
AcDbEntity
  8
0
100
AcDbMText
 62
2
  6
CONTINUOUS
  7
STANDARD
 71
1
 72
1
 10
6.45
 20
0.5625
 30
0.0
 11
1.0
 21
0.0
 31
0.0
 44
0.9
  1
SHEET
 40
0.06
 41
0.48
  0
MTEXT
  5
242
100
AcDbEntity
  8
0
100
AcDbMText
 62
2
  6
CONTINUOUS
  7
STANDARD
 71
1
 72
1
 10
5.95
 20
0.5625
 30
0.0
 11
1.0
 21
0.0
 31
0.0
 44
0.9
  1
DWG SIZE
 40
0.06
 41
0.768
  0
MTEXT
  5
243
100
AcDbEntity
  8
0
100
AcDbMText
 62
2
  6
CONTINUOUS
  7
STANDARD
 71
1
 72
1
 10
5.25
 20
0.5625
 30
0.0
 11
1.0
 21
0.0
 31
0.0
 44
0.9
  1
SCALE
 40
0.06
 41
0.48
  0
MTEXT
  5
244
100
AcDbEntity
  8
0
100
AcDbMText
 62
2
  6
CONTINUOUS
  7
STANDARD
 71
1
 72
1
 10
4.15
 20
0.5625
 30
0.0
 11
1.0
 21
0.0
 31
0.0
 44
0.9
  1
DATE
 40
0.06
 41
0.384
  0
MTEXT
  5
245
100
AcDbEntity
  8
0
100
AcDbMText
 62
2
  6
CONTINUOUS
  7
STANDARD
 71
1
 72
1
 10
0.05
 20
0.5625
 30
0.0
 11
1.0
 21
0.0
 31
0.0
 44
0.9
  1
DESCRIPTION
 40
0.06
 41
1.056
  0
MTEXT
  5
246
100
AcDbEntity
  8
0
100
AcDbMText
 62
2
  6
CONTINUOUS
  7
STANDARD
 71
2
 72
1
 10
5.45
 20
1.0375
 30
0.0
 11
1.0
 21
0.0
 31
0.0
 44
0.9
  1
ALL DIMENSIONS IN INCH\PVIEWS ARE THIRD ANGLE
 40
0.12
 41
4.224
  0
MTEXT
  5
247
100
AcDbEntity
  8
0
100
AcDbMText
 62
2
  6
CONTINUOUS
  7
STANDARD
 71
2
 72
1
 10
2.05
 20
0.95
 30
0.0
 11
1.0
 21
0.0
 31
0.0
 44
0.9
  1
ZWV
 40
0.125
 41
0.6
  0
MTEXT
  5
248
100
AcDbEntity
  8
0
100
AcDbMText
 62
2
  6
CONTINUOUS
  7
STANDARD
 71
1
 72
1
 10
0.05
 20
1.1875
 30
0.0
 11
1.0
 21
0.0
 31
0.0
 44
0.9
  1
MODEL
 40
0.06
 41
0.48
  0
ENDBLK
  5
249
100
AcDbEntity
  8
0
  6
BYBLOCK
 62
0
100
AcDbBlockEnd
  0
BLOCK
  5
24A
100
AcDbEntity
  8
0
100
AcDbBlockBegin
  2
*T2
 70
1
 10
0.0
 20
0.0
  3
*T2
  1

  0
LINE
  5
24B
100
AcDbEntity
  8
0
100
AcDbLine
 62
2
  6
CONTINUOUS
 10
0.0
 20
0.0
 11
9.055
 21
0.0
  0
LINE
  5
24C
100
AcDbEntity
  8
0
100
AcDbLine
 62
2
  6
CONTINUOUS
 10
0.0
 20
0.0
 11
0.0
 21
-1.844
  0
LINE
  5
24D
100
AcDbEntity
  8
0
100
AcDbLine
 62
2
  6
CONTINUOUS
 10
0.0
 20
-0.344
 11
9.055
 21
-0.344
  0
LINE
  5
24E
100
AcDbEntity
  8
0
100
AcDbLine
 62
2
  6
CONTINUOUS
 10
0.0
 20
-0.594
 11
9.055
 21
-0.594
  0
LINE
  5
24F
100
AcDbEntity
  8
0
100
AcDbLine
 62
2
  6
CONTINUOUS
 10
0.0
 20
-0.844
 11
9.055
 21
-0.844
  0
LINE
  5
250
100
AcDbEntity
  8
0
100
AcDbLine
 62
2
  6
CONTINUOUS
 10
0.0
 20
-1.094
 11
9.055
 21
-1.094
  0
LINE
  5
251
100
AcDbEntity
  8
0
100
AcDbLine
 62
2
  6
CONTINUOUS
 10
0.0
 20
-1.344
 11
9.055
 21
-1.344
  0
LINE
  5
252
100
AcDbEntity
  8
0
100
AcDbLine
 62
2
  6
CONTINUOUS
 10
0.0
 20
-1.594
 11
9.055
 21
-1.594
  0
LINE
  5
253
100
AcDbEntity
  8
0
100
AcDbLine
 62
2
  6
CONTINUOUS
 10
0.0
 20
-1.844
 11
9.055
 21
-1.844
  0
LINE
  5
254
100
AcDbEntity
  8
0
100
AcDbLine
 62
2
  6
CONTINUOUS
 10
3.055
 20
0.0
 11
3.055
 21
-1.844
  0
LINE
  5
255
100
AcDbEntity
  8
0
100
AcDbLine
 62
2
  6
CONTINUOUS
 10
9.055
 20
0.0
 11
9.055
 21
-1.844
  0
MTEXT
  5
256
100
AcDbEntity
  8
0
100
AcDbMText
 62
2
  6
CONTINUOUS
  7
STANDARD
 71
2
 72
1
 10
1.5275
 20
-0.0995
 30
0.0
 11
1.0
 21
0.0
 31
0.0
 44
0.9
  1
Technical Data
 40
0.145
 41
3.248
  0
MTEXT
  5
257
100
AcDbEntity
  8
0
100
AcDbMText
 62
2
  6
CONTINUOUS
  7
STANDARD
 71
2
 72
1
 10
4.555
 20
-0.0995
 30
0.0
 11
1.0
 21
0.0
 31
0.0
 44
0.9
  1
U.S. Units
 40
0.145
 41
2.32
  0
MTEXT
  5
258
100
AcDbEntity
  8
0
100
AcDbMText
 62
2
  6
CONTINUOUS
  7
STANDARD
 71
2
 72
1
 10
7.555
 20
-0.0995
 30
0.0
 11
1.0
 21
0.0
 31
0.0
 44
0.9
  1
Metric Units
 40
0.145
 41
2.784
  0
MTEXT
  5
259
100
AcDbEntity
  8
0
100
AcDbMText
 62
2
  6
CONTINUOUS
  7
STANDARD
 71
2
 72
1
 10
1.5275
 20
-0.4065
 30
0.0
 11
1.0
 21
0.0
 31
0.0
 44
0.9
  1
Body Features
 40
0.125
 41
2.6
  0
MTEXT
  5
25A
100
AcDbEntity
  8
0
100
AcDbMText
 62
2
  6
CONTINUOUS
  7
STANDARD
 71
2
 72
1
 10
6.055
 20
-0.4065
 30
0.0
 11
1.0
 21
0.0
 31
0.0
 44
0.9
  1
Tap in manifold - A and B
 40
0.125
 41
5.0
  0
MTEXT
  5
25B
100
AcDbEntity
  8
0
100
AcDbMText
 62
2
  6
CONTINUOUS
  7
STANDARD
 71
2
 72
1
 10
1.5275
 20
-0.6565
 30
0.0
 11
1.0
 21
0.0
 31
0.0
 44
0.9
  1
Body Type
 40
0.125
 41
1.8
  0
MTEXT
  5
25C
100
AcDbEntity
  8
0
100
AcDbMText
 62
2
  6
CONTINUOUS
  7
STANDARD
 71
2
 72
1
 10
6.055
 20
-0.6565
 30
0.0
 11
1.0
 21
0.0
 31
0.0
 44
0.9
  1
Sandwich
 40
0.125
 41
1.6
  0
MTEXT
  5
25D
100
AcDbEntity
  8
0
100
AcDbMText
 62
2
  6
CONTINUOUS
  7
STANDARD
 71
2
 72
1
 10
1.5275
 20
-0.9065
 30
0.0
 11
1.0
 21
0.0
 31
0.0
 44
0.9
  1
Interface
 40
0.125
 41
1.8
  0
MTEXT
  5
25E
100
AcDbEntity
  8
0
100
AcDbMText
 62
2
  6
CONTINUOUS
  7
STANDARD
 71
2
 72
1
 10
6.055
 20
-0.9065
 30
0.0
 11
1.0
 21
0.0
 31
0.0
 44
0.9
  1
ISO 03
 40
0.125
 41
1.2
  0
MTEXT
  5
25F
100
AcDbEntity
  8
0
100
AcDbMText
 62
2
  6
CONTINUOUS
  7
STANDARD
 71
2
 72
1
 10
1.5275
 20
-1.1565
 30
0.0
 11
1.0
 21
0.0
 31
0.0
 44
0.9
  1
Open Cavity Quantity
 40
0.125
 41
4.0
  0
MTEXT
  5
260
100
AcDbEntity
  8
0
100
AcDbMText
 62
2
  6
CONTINUOUS
  7
STANDARD
 71
2
 72
1
 10
6.055
 20
-1.1565
 30
0.0
 11
1.0
 21
0.0
 31
0.0
 44
0.9
  1
0
 40
0.125
 41
0.2
  0
MTEXT
  5
261
100
AcDbEntity
  8
0
100
AcDbMText
 62
2
  6
CONTINUOUS
  7
STANDARD
 71
2
 72
1
 10
1.5275
 20
-1.4065
 30
0.0
 11
1.0
 21
0.0
 31
0.0
 44
0.9
  1
Stack Height
 40
0.125
 41
2.4
  0
MTEXT
  5
262
100
AcDbEntity
  8
0
100
AcDbMText
 62
2
  6
CONTINUOUS
  7
STANDARD
 71
2
 72
1
 10
4.555
 20
-1.4065
 30
0.0
 11
1.0
 21
0.0
 31
0.0
 44
0.9
  1
.99 in.
 40
0.125
 41
1.4
  0
MTEXT
  5
263
100
AcDbEntity
  8
0
100
AcDbMText
 62
2
  6
CONTINUOUS
  7
STANDARD
 71
2
 72
1
 10
7.555
 20
-1.4065
 30
0.0
 11
1.0
 21
0.0
 31
0.0
 44
0.9
  1
25 mm
 40
0.125
 41
1.0
  0
MTEXT
  5
264
100
AcDbEntity
  8
0
100
AcDbMText
 62
2
  6
CONTINUOUS
  7
STANDARD
 71
2
 72
1
 10
1.5275
 20
-1.6565
 30
0.0
 11
1.0
 21
0.0
 31
0.0
 44
0.9
  1
Weight
 40
0.125
 41
1.2
  0
MTEXT
  5
265
100
AcDbEntity
  8
0
100
AcDbMText
 62
2
  6
CONTINUOUS
  7
STANDARD
 71
2
 72
1
 10
4.555
 20
-1.6565
 30
0.0
 11
1.0
 21
0.0
 31
0.0
 44
0.9
  1
0.340 lb.
 40
0.125
 41
1.8
  0
MTEXT
  5
266
100
AcDbEntity
  8
0
100
AcDbMText
 62
2
  6
CONTINUOUS
  7
STANDARD
 71
2
 72
1
 10
7.555
 20
-1.6565
 30
0.0
 11
1.0
 21
0.0
 31
0.0
 44
0.9
  1
0,154 kg.
 40
0.125
 41
1.8
  0
ENDBLK
  5
267
100
AcDbEntity
  8
0
  6
BYBLOCK
 62
0
100
AcDbBlockEnd
  0
BLOCK
  5
268
100
AcDbEntity
  8
0
100
AcDbBlockBegin
  2
*T3
 70
1
 10
0.0
 20
0.0
  3
*T3
  1

  0
LINE
  5
269
100
AcDbEntity
  8
0
100
AcDbLine
 62
2
  6
CONTINUOUS
 10
0.0
 20
0.0
 11
4.6
 21
0.0
  0
LINE
  5
26A
100
AcDbEntity
  8
0
100
AcDbLine
 62
2
  6
CONTINUOUS
 10
0.0
 20
0.0
 11
0.0
 21
-0.93775
  0
LINE
  5
26B
100
AcDbEntity
  8
0
100
AcDbLine
 62
2
  6
CONTINUOUS
 10
0.0
 20
-0.34375
 11
4.6
 21
-0.34375
  0
LINE
  5
26C
100
AcDbEntity
  8
0
100
AcDbLine
 62
2
  6
CONTINUOUS
 10
0.0
 20
-0.68775
 11
4.6
 21
-0.68775
  0
LINE
  5
26D
100
AcDbEntity
  8
0
100
AcDbLine
 62
2
  6
CONTINUOUS
 10
0.0
 20
-0.93775
 11
4.6
 21
-0.93775
  0
LINE
  5
26E
100
AcDbEntity
  8
0
100
AcDbLine
 62
2
  6
CONTINUOUS
 10
1.3
 20
-0.34375
 11
1.3
 21
-0.93775
  0
LINE
  5
26F
100
AcDbEntity
  8
0
100
AcDbLine
 62
2
  6
CONTINUOUS
 10
3.3
 20
-0.34375
 11
3.3
 21
-0.93775
  0
LINE
  5
270
100
AcDbEntity
  8
0
100
AcDbLine
 62
2
  6
CONTINUOUS
 10
4.6
 20
0.0
 11
4.6
 21
-0.93775
  0
MTEXT
  5
271
100
AcDbEntity
  8
0
100
AcDbMText
 62
2
  6
CONTINUOUS
  7
STANDARD
 71
2
 72
1
 10
2.3
 20
-0.099375
 30
0.0
 11
1.0
 21
0.0
 31
0.0
 44
0.9
  1
Port Headings
 40
0.145
 41
3.016
  0
MTEXT
  5
272
100
AcDbEntity
  8
0
100
AcDbMText
 62
2
  6
CONTINUOUS
  7
STANDARD
 71
2
 72
1
 10
0.65
 20
-0.44325
 30
0.0
 11
1.0
 21
0.0
 31
0.0
 44
0.9
  1
Product
 40
0.145
 41
1.624
  0
MTEXT
  5
273
100
AcDbEntity
  8
0
100
AcDbMText
 62
2
  6
CONTINUOUS
  7
STANDARD
 71
2
 72
1
 10
2.3
 20
-0.44325
 30
0.0
 11
1.0
 21
0.0
 31
0.0
 44
0.9
  1
Port
 40
0.145
 41
0.928
  0
MTEXT
  5
274
100
AcDbEntity
  8
0
100
AcDbMText
 62
2
  6
CONTINUOUS
  7
STANDARD
 71
2
 72
1
 10
3.95
 20
-0.44325
 30
0.0
 11
1.0
 21
0.0
 31
0.0
 44
0.9
  1
Size
 40
0.145
 41
0.928
  0
MTEXT
  5
275
100
AcDbEntity
  8
0
100
AcDbMText
 62
2
  6
CONTINUOUS
  7
STANDARD
 71
2
 72
1
 10
0.65
 20
-0.75025
 30
0.0
 11
1.0
 21
0.0
 31
0.0
 44
0.9
  1
ZWV
 40
0.125
 41
0.6
  0
MTEXT
  5
276
100
AcDbEntity
  8
0
100
AcDbMText
 62
2
  6
CONTINUOUS
  7
STANDARD
 71
2
 72
1
 10
2.3
 20
-0.75025
 30
0.0
 11
1.0
 21
0.0
 31
0.0
 44
0.9
  1
External Port
 40
0.125
 41
2.6
  0
MTEXT
  5
277
100
AcDbEntity
  8
0
100
AcDbMText
 62
2
  6
CONTINUOUS
  7
STANDARD
 71
2
 72
1
 10
3.95
 20
-0.75025
 30
0.0
 11
1.0
 21
0.0
 31
0.0
 44
0.9
  1
1/4" NPTF
 40
0.125
 41
1.8
  0
ENDBLK
  5
278
100
AcDbEntity
  8
0
  6
BYBLOCK
 62
0
100
AcDbBlockEnd
  0
ENDSEC
  0
SECTION
  2
ENTITIES
  0
IMAGE
  5
279
100
AcDbEntity
  8
0
100
AcDbRasterImage
 62
7
  6
CONTINUOUS
 10
19.2297077316
 20
0.3094318264
 30
0.0
 11
0.0066666667
 21
0.0
 31
0.0
 12
0.0
 22
0.0066666667
 32
0.0
 13
369.0
 23
92.0
340
       36F
 70
9
280
0
281
50
282
50
283
0
360
       369
 71
1
 91
2
 14
-0.5
 24
-0.5
 14
368.5
 24
91.5
  0
INSERT
  5
27A
100
AcDbEntity
  8
0
100
AcDbBlockReference
 62
2
  6
CONTINUOUS
  2
SUN_FIRST_THIRD_ANGLE_BL0
 10
20.4816717061
 20
1.2289683772
  0
ACAD_TABLE
  5
27B
100
AcDbEntity
  8
0
 62
2
  6
CONTINUOUS
100
AcDbBlockReference
  2
*T1
 10
12.42375
 20
0.30125
 30
0.0
100
AcDbTable
342
       371
343
20A
 11
1.0
 21
0.0
 31
0.0
 90
6
 91
4
 92
6
 93
20
 94
0
 95
0
 96
0
 70
1
 41
0.0
141
0.525
141
0.1
141
0.525
141
0.1
142
4.1
142
1.1
142
0.7
142
0.5
142
0.4
142
2.475
171
1
172
0
173
0
174
0
175
1
176
1
 91
33
178
0
145
0.0
301
CELL_VALUE
 90
4
  1
Sandwich ISO 03\PTap in manifold - A and B
304
ACVALUE_END
170
2
140
0.125
171
1
172
0
173
0
174
0
175
1
176
1
 91
33
178
0
145
0.0
301
CELL_VALUE
 90
4
  1
Aug-15-19
304
ACVALUE_END
170
5
140
0.125
171
1
172
0
173
0
174
0
175
1
176
1
 91
33
178
0
145
0.0
301
CELL_VALUE
 90
4
  1
2.000
304
ACVALUE_END
170
5
140
0.125
171
1
172
0
173
0
174
0
175
1
176
1
 91
33
178
0
145
0.0
301
CELL_VALUE
 90
4
  1
C
304
ACVALUE_END
170
5
140
0.125
171
1
172
0
173
0
174
0
175
1
176
1
 91
33
178
0
145
0.0
301
CELL_VALUE
 90
4
  1
2
304
ACVALUE_END
170
5
140
0.125
171
1
172
0
173
0
174
0
175
1
176
1
 91
33
178
0
145
0.0
301
CELL_VALUE
 90
4
  1
 
304
ACVALUE_END
170
1
140
0.125
171
1
172
0
173
0
174
0
175
1
176
1
 91
33
178
0
145
0.0
301
CELL_VALUE
 90
4
  1
DESCRIPTION
304
ACVALUE_END
170
1
140
0.06
171
1
172
0
173
0
174
0
175
1
176
1
 91
33
178
0
145
0.0
301
CELL_VALUE
 90
4
  1
DATE
304
ACVALUE_END
170
1
140
0.06
171
1
172
0
173
0
174
0
175
1
176
1
 91
33
178
0
145
0.0
301
CELL_VALUE
 90
4
  1
SCALE
304
ACVALUE_END
170
1
140
0.06
171
1
172
0
173
0
174
0
175
1
176
1
 91
33
178
0
145
0.0
301
CELL_VALUE
 90
4
  1
DWG SIZE
304
ACVALUE_END
170
1
140
0.06
171
1
172
0
173
0
174
0
175
1
176
1
 91
33
178
0
145
0.0
301
CELL_VALUE
 90
4
  1
SHEET
304
ACVALUE_END
170
1
140
0.06
171
1
172
0
173
0
174
0
175
1
176
1
 91
33
178
0
145
0.0
301
CELL_VALUE
 90
4
  1
 
304
ACVALUE_END
170
1
140
0.125
171
1
172
0
173
0
174
0
175
1
176
1
 91
33
178
0
145
0.0
301
CELL_VALUE
 90
4
  1
ZWV
304
ACVALUE_END
170
5
140
0.125
171
1
172
0
173
0
174
0
175
4
176
1
 91
33
178
0
145
0.0
301
CELL_VALUE
 90
4
  1
ALL DIMENSIONS IN INCH\PVIEWS ARE THIRD ANGLE
304
ACVALUE_END
170
5
140
0.12
171
1
172
0
173
1
174
0
175
1
176
1
 91
1
178
0
145
0.0
170
1
171
1
172
0
173
1
174
0
175
1
176
1
 91
1
178
0
145
0.0
170
1
171
1
172
0
173
1
174
0
175
1
176
1
 91
1
178
0
145
0.0
170
5
171
1
172
0
173
0
174
0
175
1
176
1
 91
33
178
0
145
0.0
301
CELL_VALUE
 90
4
  1
 
304
ACVALUE_END
170
1
140
0.125
171
1
172
0
173
0
174
0
175
1
176
1
 91
33
178
0
145
0.0
301
CELL_VALUE
 90
4
  1
MODEL
304
ACVALUE_END
170
1
140
0.06
171
1
172
0
173
0
174
0
175
1
176
1
 91
33
178
0
145
0.0
301
CELL_VALUE
 90
4
  1
 
304
ACVALUE_END
170
1
140
0.125
171
1
172
0
173
0
174
0
175
1
176
1
 91
33
178
0
145
0.0
301
CELL_VALUE
 90
4
  1
 
304
ACVALUE_END
170
1
140
0.125
171
1
172
0
173
0
174
0
175
1
176
1
 91
33
178
0
145
0.0
301
CELL_VALUE
 90
4
  1
 
304
ACVALUE_END
170
1
140
0.125
171
1
172
0
173
0
174
0
175
1
176
1
 91
33
178
0
145
0.0
301
CELL_VALUE
 90
4
  1
 
304
ACVALUE_END
170
1
140
0.125
171
1
172
0
173
0
174
0
175
1
176
1
 91
33
178
0
145
0.0
301
CELL_VALUE
 90
4
  1
 
304
ACVALUE_END
170
1
140
0.125
  0
ACAD_TABLE
  5
27C
100
AcDbEntity
  8
0
 62
2
  6
CONTINUOUS
100
AcDbBlockReference
  2
*T2
 10
12.4237499994
 20
16.47875
 30
0.0
100
AcDbTable
342
       370
343
20B
 11
1.0
 21
0.0
 31
0.0
 90
22
 91
7
 92
3
 93
16
 94
0
 95
0
 96
0
 41
0.028
141
0.344
141
0.25
141
0.25
141
0.25
141
0.25
141
0.25
141
0.25
142
3.055
142
3.0
142
3.0
171
1
172
0
173
0
174
0
175
1
176
1
 91
33
178
0
145
0.0
301
CELL_VALUE
 90
4
  1
Technical Data
304
ACVALUE_END
170
5
140
0.145
171
1
172
0
173
0
174
0
175
1
176
1
 91
33
178
0
145
0.0
301
CELL_VALUE
 90
4
  1
U.S. Units
304
ACVALUE_END
170
5
140
0.145
171
1
172
0
173
0
174
0
175
1
176
1
 91
33
178
0
145
0.0
301
CELL_VALUE
 90
4
  1
Metric Units
304
ACVALUE_END
170
5
140
0.145
171
1
172
0
173
0
174
0
175
1
176
1
 91
33
178
0
145
0.0
301
CELL_VALUE
 90
4
  1
Body Features
304
ACVALUE_END
170
5
140
0.125
171
1
172
0
173
0
174
0
175
2
176
1
 91
33
178
0
145
0.0
301
CELL_VALUE
 90
4
  1
Tap in manifold - A and B
304
ACVALUE_END
170
5
140
0.125
171
1
172
0
173
1
174
0
175
1
176
1
 91
1
178
0
145
0.0
170
1
171
1
172
0
173
0
174
0
175
1
176
1
 91
33
178
0
145
0.0
301
CELL_VALUE
 90
4
  1
Body Type
304
ACVALUE_END
170
5
140
0.125
171
1
172
0
173
0
174
0
175
2
176
1
 91
33
178
0
145
0.0
301
CELL_VALUE
 90
4
  1
Sandwich
304
ACVALUE_END
170
5
140
0.125
171
1
172
0
173
1
174
0
175
1
176
1
 91
1
178
0
145
0.0
170
1
171
1
172
0
173
0
174
0
175
1
176
1
 91
33
178
0
145
0.0
301
CELL_VALUE
 90
4
  1
Interface
304
ACVALUE_END
170
5
140
0.125
171
1
172
0
173
0
174
0
175
2
176
1
 91
33
178
0
145
0.0
301
CELL_VALUE
 90
4
  1
ISO 03
304
ACVALUE_END
170
5
140
0.125
171
1
172
0
173
1
174
0
175
1
176
1
 91
1
178
0
145
0.0
170
1
171
1
172
0
173
0
174
0
175
1
176
1
 91
33
178
0
145
0.0
301
CELL_VALUE
 90
4
  1
Open Cavity Quantity
304
ACVALUE_END
170
5
140
0.125
171
1
172
0
173
0
174
0
175
2
176
1
 91
33
178
0
145
0.0
301
CELL_VALUE
 90
4
  1
0
304
ACVALUE_END
170
5
140
0.125
171
1
172
0
173
1
174
0
175
1
176
1
 91
1
178
0
145
0.0
170
1
171
1
172
0
173
0
174
0
175
1
176
1
 91
33
178
0
145
0.0
301
CELL_VALUE
 90
4
  1
Stack Height
304
ACVALUE_END
170
5
140
0.125
171
1
172
0
173
0
174
0
175
1
176
1
 91
33
178
0
145
0.0
301
CELL_VALUE
 90
4
  1
.99 in.
304
ACVALUE_END
170
5
140
0.125
171
1
172
0
173
0
174
0
175
1
176
1
 91
33
178
0
145
0.0
301
CELL_VALUE
 90
4
  1
25 mm
304
ACVALUE_END
170
5
140
0.125
171
1
172
0
173
0
174
0
175
1
176
1
 91
33
178
0
145
0.0
301
CELL_VALUE
 90
4
  1
Weight
304
ACVALUE_END
170
5
140
0.125
171
1
172
0
173
0
174
0
175
1
176
1
 91
33
178
0
145
0.0
301
CELL_VALUE
 90
4
  1
0.340 lb.
304
ACVALUE_END
170
5
140
0.125
171
1
172
0
173
0
174
0
175
1
176
1
 91
33
178
0
145
0.0
301
CELL_VALUE
 90
4
  1
0,154 kg.
304
ACVALUE_END
170
5
140
0.125
  0
ACAD_TABLE
  5
27D
100
AcDbEntity
  8
0
 62
2
  6
CONTINUOUS
100
AcDbBlockReference
  2
*T3
 10
0.52125
 20
1.459
 30
0.0
100
AcDbTable
342
       370
343
20C
 11
1.0
 21
0.0
 31
0.0
 90
22
 91
3
 92
3
 93
16
 94
0
 95
0
 96
0
 41
0.05
141
0.34375
141
0.344
141
0.25
142
1.3
142
2.0
142
1.3
171
1
172
0
173
0
174
0
175
3
176
1
 91
33
178
0
145
0.0
301
CELL_VALUE
 90
4
  1
Port Headings
304
ACVALUE_END
170
5
140
0.145
171
1
172
0
173
1
174
0
175
1
176
1
 91
1
178
0
145
0.0
170
1
171
1
172
0
173
1
174
0
175
1
176
1
 91
1
178
0
145
0.0
170
1
171
1
172
0
173
0
174
0
175
1
176
1
 91
33
178
0
145
0.0
301
CELL_VALUE
 90
4
  1
Product
304
ACVALUE_END
170
5
140
0.145
171
1
172
0
173
0
174
0
175
1
176
1
 91
33
178
0
145
0.0
301
CELL_VALUE
 90
4
  1
Port
304
ACVALUE_END
170
5
140
0.145
171
1
172
0
173
0
174
0
175
1
176
1
 91
33
178
0
145
0.0
301
CELL_VALUE
 90
4
  1
Size
304
ACVALUE_END
170
5
140
0.145
171
1
172
0
173
0
174
0
175
1
176
1
 91
33
178
0
145
0.0
301
CELL_VALUE
 90
4
  1
ZWV
304
ACVALUE_END
170
5
140
0.125
171
1
172
0
173
0
174
0
175
1
176
1
 91
33
178
0
145
0.0
301
CELL_VALUE
 90
4
  1
External Port
304
ACVALUE_END
170
5
140
0.125
171
1
172
0
173
0
174
0
175
1
176
1
 91
33
178
0
145
0.0
301
CELL_VALUE
 90
4
  1
1/4" NPTF
304
ACVALUE_END
170
5
140
0.125
  0
MTEXT
  5
27E
100
AcDbEntity
  8
0
100
AcDbMText
 62
2
  6
CONTINUOUS
  7
STANDARD
 71
1
 72
1
 10
0.52125
 20
5.75995
 30
0.0
 11
1.0
 21
0.0
 31
0.0
 44
0.6
  3
Notes\P \P1. Stack height value in technical\P   data table includes seal retainer\P   plate.\P2. Important: Carefully consider\P   the maximum system pressure. The\P   pressure rating of the manifold is\P   dependent on the manifold material,\P   wi
  3
th the port type/size a secondary\P   consideration. Manifolds\P   constructed of aluminum are not\P   rated for pressures higher than\P   3000 psi (210 bar), regardless of\P   the port type/size specified.\P3. Items without balloons are\P   shipped 
  1
loose.
 40
0.1
 41
3.04
  0
LINE
  5
27F
100
AcDbEntity
  8
0
100
AcDbLine
 62
7
  6
CONTINUOUS
 10
0.30125
 20
0.30125
 11
0.30125
 21
16.69875
  0
LINE
  5
280
100
AcDbEntity
  8
0
100
AcDbLine
 62
7
  6
CONTINUOUS
 10
0.30125
 20
0.30125
 11
21.69875
 21
0.30125
  0
LINE
  5
281
100
AcDbEntity
  8
0
100
AcDbLine
 62
7
  6
CONTINUOUS
 10
0.30125
 20
16.69875
 11
21.69875
 21
16.69875
  0
LINE
  5
282
100
AcDbEntity
  8
0
100
AcDbLine
 62
7
  6
CONTINUOUS
 10
21.69875
 20
0.30125
 11
21.69875
 21
16.69875
  0
LINE
  5
283
100
AcDbEntity
  8
0
100
AcDbLine
 62
7
  6
CONTINUOUS
 10
9.0699564631
 20
10.5760912875
 11
8.5833770611
 21
10.1060916487
  0
LINE
  5
284
100
AcDbEntity
  8
0
100
AcDbLine
 62
7
  6
CONTINUOUS
 10
8.5833770611
 20
6.7253510564
 11
8.5833770611
 21
10.1060916487
  0
LINE
  5
285
100
AcDbEntity
  8
0
100
AcDbLine
 62
4
  6
CONTINUOUS
 10
8.7058514408
 20
10.1243929176
 11
8.7955587461
 21
10.1610435268
  0
LINE
  5
286
100
AcDbEntity
  8
0
100
AcDbLine
 62
4
  6
CONTINUOUS
 10
9.5751848281
 20
10.0641044424
 11
9.6217722168
 21
10.1091044069
  0
LINE
  5
287
100
AcDbEntity
  8
0
100
AcDbLine
 62
4
  6
CONTINUOUS
 10
9.9219029597
 20
10.3975799154
 11
9.9278188182
 21
10.4032941963
  0
LINE
  5
288
100
AcDbEntity
  8
0
100
AcDbLine
 62
4
  6
CONTINUOUS
 10
9.9755135927
 20
10.3693638153
 11
9.9814294518
 21
10.3750780968
  0
LINE
  5
289
100
AcDbEntity
  8
0
100
AcDbLine
 62
4
  6
CONTINUOUS
 10
9.6966155012
 20
10.0556831966
 11
9.7380265133
 21
10.0956831651
  0
LINE
  5
28A
100
AcDbEntity
  8
0
100
AcDbLine
 62
4
  6
CONTINUOUS
 10
10.0551653539
 20
10.4005872311
 11
10.0196702009
 21
10.3663015441
  0
LINE
  5
28B
100
AcDbEntity
  8
0
100
AcDbLine
 62
4
  6
CONTINUOUS
 10
9.8503945753
 20
10.1532699582
 11
9.8918055874
 21
10.1932699267
  0
LINE
  5
28C
100
AcDbEntity
  8
0
100
AcDbLine
 62
4
  6
CONTINUOUS
 10
9.7738895701
 20
10.0503242218
 11
9.8153005822
 21
10.0903241902
  0
LINE
  5
28D
100
AcDbEntity
  8
0
100
AcDbLine
 62
4
  6
CONTINUOUS
 10
10.0969442699
 20
10.3609425692
 11
10.1324394228
 21
10.3952282562
  0
LINE
  5
28E
100
AcDbEntity
  8
0
100
AcDbLine
 62
4
  6
CONTINUOUS
 10
9.8239620375
 20
10.052976232
 11
9.8535413319
 21
10.0815476382
  0
LINE
  5
28F
100
AcDbEntity
  8
0
100
AcDbLine
 62
4
  6
CONTINUOUS
 10
10.1351850189
 20
10.3521660166
 11
10.176596031
 21
10.3921659851
  0
LINE
  5
290
100
AcDbEntity
  8
0
100
AcDbLine
 62
4
  6
CONTINUOUS
 10
9.9631637886
 20
10.1821966716
 11
9.9335844941
 21
10.1536252654
  0
LINE
  5
291
100
AcDbEntity
  8
0
100
AcDbLine
 62
4
  6
CONTINUOUS
 10
9.9902238346
 20
10.1435727661
 11
10.0757914549
 21
10.1805104634
  0
LINE
  5
292
100
AcDbEntity
  8
0
100
AcDbLine
 62
4
  6
CONTINUOUS
 10
9.5751848281
 20
10.0641044424
 11
9.6440916402
 21
10.0853586391
  0
LINE
  5
293
100
AcDbEntity
  8
0
100
AcDbLine
 62
7
  6
CONTINUOUS
 10
8.5833770611
 20
6.7253510564
 11
12.9300435369
 21
6.4239087125
  0
LINE
  5
294
100
AcDbEntity
  8
0
100
AcDbLine
 62
4
  6
CONTINUOUS
 10
8.7955587461
 20
10.1610435268
 11
8.802444027
 21
10.117694199
  0
LINE
  5
295
100
AcDbEntity
  8
0
100
AcDbLine
 62
4
  6
CONTINUOUS
 10
9.9308154009
 20
10.0761886633
 11
9.9012361064
 21
10.0476172572
  0
LINE
  5
296
100
AcDbEntity
  8
0
100
AcDbLine
 62
4
  6
CONTINUOUS
 10
10.2124590879
 20
10.3468070417
 11
10.2538701
 21
10.3868070102
  0
LINE
  5
297
100
AcDbEntity
  8
0
100
AcDbLine
 62
4
  6
CONTINUOUS
 10
9.9836334637
 20
10.0357784333
 11
10.0250444758
 21
10.0757784018
  0
LINE
  5
298
100
AcDbEntity
  8
0
100
AcDbLine
 62
4
  6
CONTINUOUS
 10
10.3780463732
 20
10.3353235245
 11
10.4194573853
 21
10.3753234929
  0
LINE
  5
299
100
AcDbEntity
  8
0
100
AcDbLine
 62
4
  6
CONTINUOUS
 10
10.1668502858
 20
10.1313236801
 11
10.2082612979
 21
10.1713236486
  0
LINE
  5
29A
100
AcDbEntity
  8
0
100
AcDbLine
 62
4
  6
CONTINUOUS
 10
10.0778625392
 20
10.0353681724
 11
10.1074418337
 21
10.0639395786
  0
LINE
  5
29B
100
AcDbEntity
  8
0
100
AcDbLine
 62
4
  6
CONTINUOUS
 10
10.4709026593
 20
10.3564443822
 11
10.4442812947
 21
10.3307301171
  0
LINE
  5
29C
100
AcDbEntity
  8
0
100
AcDbLine
 62
4
  6
CONTINUOUS
 10
10.2551635022
 20
10.1251991378
 11
10.2965745143
 21
10.1651991062
  0
LINE
  5
29D
100
AcDbEntity
  8
0
100
AcDbLine
 62
4
  6
CONTINUOUS
 10
10.506335434
 20
10.2020983353
 11
10.5808639069
 21
10.2398016001
  0
LINE
  5
29E
100
AcDbEntity
  8
0
100
AcDbLine
 62
4
  6
CONTINUOUS
 10
10.6608835719
 20
10.1913803856
 11
10.7464511738
 21
10.2283180841
  0
LINE
  5
29F
100
AcDbEntity
  8
0
100
AcDbLine
 62
4
  6
CONTINUOUS
 10
10.5006564514
 20
10.3166129076
 11
10.5842521011
 21
10.3516458465
  0
LINE
  5
2A0
100
AcDbEntity
  8
0
100
AcDbLine
 62
4
  6
CONTINUOUS
 10
10.4401005125
 20
10.2066917428
 11
10.5027972683
 21
10.2329664458
  0
LINE
  5
2A1
100
AcDbEntity
  8
0
100
AcDbLine
 62
4
  6
CONTINUOUS
 10
10.4042374557
 20
10.2520506861
 11
10.2855523746
 21
10.2174096925
  0
LINE
  5
2A2
100
AcDbEntity
  8
0
100
AcDbLine
 62
4
  6
CONTINUOUS
 10
10.2007367827
 20
10.020722267
 11
10.2421477948
 21
10.0607222355
  0
LINE
  5
2A3
100
AcDbEntity
  8
0
100
AcDbLine
 62
4
  6
CONTINUOUS
 10
10.5870685112
 20
10.3238900638
 11
10.6107319462
 21
10.3467471882
  0
LINE
  5
2A4
100
AcDbEntity
  8
0
100
AcDbLine
 62
4
  6
CONTINUOUS
 10
10.3194218638
 20
10.0553632606
 11
10.2780108517
 21
10.0153632921
  0
LINE
  5
2A5
100
AcDbEntity
  8
0
100
AcDbLine
 62
4
  6
CONTINUOUS
 10
10.6917564784
 20
10.3564394867
 11
10.6503454663
 21
10.3164395182
  0
LINE
  5
2A6
100
AcDbEntity
  8
0
100
AcDbLine
 62
4
  6
CONTINUOUS
 10
10.6945021298
 20
10.3133772432
 11
10.7240814249
 21
10.3419486499
  0
LINE
  5
2A7
100
AcDbEntity
  8
0
100
AcDbLine
 62
4
  6
CONTINUOUS
 10
10.492901605
 20
10.114836492
 11
10.5224808995
 21
10.1434078982
  0
LINE
  5
2A8
100
AcDbEntity
  8
0
100
AcDbLine
 62
4
  6
CONTINUOUS
 10
10.7726394912
 20
10.3355188618
 11
10.7667236327
 21
10.3298045809
  0
LINE
  5
2A9
100
AcDbEntity
  8
0
100
AcDbLine
 62
4
  6
CONTINUOUS
 10
11.1590805957
 20
10.3240304491
 11
11.1524429617
 21
10.3214284958
  0
LINE
  5
2AA
100
AcDbEntity
  8
0
100
AcDbLine
 62
4
  6
CONTINUOUS
 10
10.7968124232
 20
10.3093442741
 11
10.8056862119
 21
10.3179156963
  0
LINE
  5
2AB
100
AcDbEntity
  8
0
100
AcDbLine
 62
4
  6
CONTINUOUS
 10
10.6216916708
 20
10.1059048706
 11
10.6512709653
 21
10.1344762768
  0
LINE
  5
2AC
100
AcDbEntity
  8
0
100
AcDbLine
 62
4
  6
CONTINUOUS
 10
10.8600893783
 20
10.3018937285
 11
10.8837528149
 21
10.3247508544
  0
LINE
  5
2AD
100
AcDbEntity
  8
0
100
AcDbLine
 62
4
  6
CONTINUOUS
 10
10.9338252632
 20
10.3274028653
 11
10.9072038977
 21
10.3016885994
  0
LINE
  5
2AE
100
AcDbEntity
  8
0
100
AcDbLine
 62
4
  6
CONTINUOUS
 10
10.7285450342
 20
10.1291173019
 11
10.6989657398
 21
10.1005458958
  0
LINE
  5
2AF
100
AcDbEntity
  8
0
100
AcDbLine
 62
4
  6
CONTINUOUS
 10
10.7372064704
 20
10.0917693444
 11
10.7786174825
 21
10.1317693129
  0
LINE
  5
2B0
100
AcDbEntity
  8
0
100
AcDbLine
 62
4
  6
CONTINUOUS
 10
10.9704809264
 20
10.2942380487
 11
11.0000602215
 21
10.3228094554
  0
LINE
  5
2B1
100
AcDbEntity
  8
0
100
AcDbLine
 62
4
  6
CONTINUOUS
 10
11.0175954458
 20
10.2940329195
 11
11.0560485283
 21
10.3311757472
  0
LINE
  5
2B2
100
AcDbEntity
  8
0
100
AcDbLine
 62
4
  6
CONTINUOUS
 10
10.849975693
 20
10.1206960571
 11
10.8203963985
 21
10.092124651
  0
LINE
  5
2B3
100
AcDbEntity
  8
0
100
AcDbLine
 62
4
  6
CONTINUOUS
 10
10.8770357942
 20
10.0820721479
 11
10.9184468063
 21
10.1220721163
  0
LINE
  5
2B4
100
AcDbEntity
  8
0
100
AcDbLine
 62
4
  6
CONTINUOUS
 10
11.1139898801
 20
10.2842856689
 11
11.1435691751
 21
10.3128570756
  0
LINE
  5
2B5
100
AcDbEntity
  8
0
100
AcDbLine
 62
4
  6
CONTINUOUS
 10
11.1524429617
 20
10.3214284958
 11
11.1554008922
 21
10.3242856374
  0
LINE
  5
2B6
100
AcDbEntity
  8
0
100
AcDbLine
 62
4
  6
CONTINUOUS
 10
11.1758232872
 20
10.2830597814
 11
11.1994867222
 21
10.3059169058
  0
LINE
  5
2B7
100
AcDbEntity
  8
0
100
AcDbLine
 62
4
  6
CONTINUOUS
 10
11.289965372
 20
10.2904553695
 11
11.2988391598
 21
10.2990267908
  0
LINE
  5
2B8
100
AcDbEntity
  8
0
100
AcDbLine
 62
4
  6
CONTINUOUS
 10
11.3414105357
 20
10.2715762667
 11
11.3502843244
 21
10.2801476889
  0
LINE
  5
2B9
100
AcDbEntity
  8
0
100
AcDbLine
 62
4
  6
CONTINUOUS
 10
10.4483940639
 20
10.2489884149
 11
10.4401005125
 21
10.2066917428
  0
LINE
  5
2BA
100
AcDbEntity
  8
0
100
AcDbLine
 62
4
  6
CONTINUOUS
 10
10.0757914549
 20
10.1805104634
 11
10.0785370694
 21
10.1374482225
  0
LINE
  5
2BB
100
AcDbEntity
  8
0
100
AcDbLine
 62
4
  6
CONTINUOUS
 10
10.6581379574
 20
10.2344426265
 11
10.6608835719
 21
10.1913803856
  0
LINE
  5
2BC
100
AcDbEntity
  8
0
100
AcDbLine
 62
7
  6
CONTINUOUS
 10
11.5687540563
 20
9.5554823304
 11
11.4652796404
 21
9.4555337138
  0
LINE
  5
2BD
100
AcDbEntity
  8
0
100
AcDbLine
 62
4
  6
CONTINUOUS
 10
9.5751848281
 20
10.0641044424
 11
9.5565697206
 21
10.0914283048
  0
LINE
  5
2BE
100
AcDbEntity
  8
0
100
AcDbLine
 62
4
  6
CONTINUOUS
 10
10.5027972683
 20
10.2329664458
 11
10.506335434
 21
10.2020983353
  0
LINE
  5
2BF
100
AcDbEntity
  8
0
100
AcDbLine
 62
4
  6
CONTINUOUS
 10
10.5180172164
 20
10.3562392513
 11
10.5215554005
 21
10.3253711396
  0
LINE
  5
2C0
100
AcDbEntity
  8
0
100
AcDbLine
 62
7
  6
CONTINUOUS
 10
11.7424538603
 20
9.3756813893
 11
11.6389662934
 21
9.2757200698
  0
LINE
  5
2C1
100
AcDbEntity
  8
0
100
AcDbLine
 62
4
  6
CONTINUOUS
 10
9.7380265133
 20
10.0956831651
 11
9.7738895701
 21
10.0503242218
  0
LINE
  5
2C2
100
AcDbEntity
  8
0
100
AcDbLine
 62
4
  6
CONTINUOUS
 10
12.6689216287
 20
9.8924248985
 11
12.6275106166
 21
9.85242493
  0
LINE
  5
2C3
100
AcDbEntity
  8
0
100
AcDbLine
 62
4
  6
CONTINUOUS
 10
12.7323920278
 20
9.8737326016
 11
12.7427447808
 21
9.8837325937
  0
LINE
  5
2C4
100
AcDbEntity
  8
0
100
AcDbLine
 62
4
  6
CONTINUOUS
 10
12.7213457797
 20
9.8530627449
 11
12.7316985322
 21
9.8630627364
  0
LINE
  5
2C5
100
AcDbEntity
  8
0
100
AcDbLine
 62
7
  6
CONTINUOUS
 10
12.9300435369
 20
9.8046493048
 11
13.4166229389
 21
10.2746489436
  0
LINE
  5
2C6
100
AcDbEntity
  8
0
100
AcDbLine
 62
4
  6
CONTINUOUS
 10
10.176596031
 20
10.3921659851
 11
10.2124590879
 21
10.3468070417
  0
LINE
  5
2C7
100
AcDbEntity
  8
0
100
AcDbLine
 62
4
  6
CONTINUOUS
 10
12.6951254269
 20
9.847735827
 11
12.7213457797
 21
9.8530627449
  0
LINE
  5
2C8
100
AcDbEntity
  8
0
100
AcDbLine
 62
4
  6
CONTINUOUS
 10
12.7192818499
 20
9.8710691412
 11
12.7323920278
 21
9.8737326016
  0
LINE
  5
2C9
100
AcDbEntity
  8
0
100
AcDbLine
 62
4
  6
CONTINUOUS
 10
9.8401244916
 20
10.0457308144
 11
9.8239620375
 21
10.052976232
  0
LINE
  5
2CA
100
AcDbEntity
  8
0
100
AcDbLine
 62
4
  6
CONTINUOUS
 10
9.9146529645
 20
10.0834340791
 11
9.9308154009
 21
10.0761886633
  0
LINE
  5
2CB
100
AcDbEntity
  8
0
100
AcDbLine
 62
4
  6
CONTINUOUS
 10
10.0940250118
 20
10.0281227535
 11
10.0778625392
 21
10.0353681724
  0
LINE
  5
2CC
100
AcDbEntity
  8
0
100
AcDbLine
 62
4
  6
CONTINUOUS
 10
10.8837528149
 20
10.3247508544
 11
10.8786295628
 21
10.3312307002
  0
LINE
  5
2CD
100
AcDbEntity
  8
0
100
AcDbLine
 62
7
  6
CONTINUOUS
 10
13.1733332379
 20
8.8901973228
 11
13.1747024831
 21
8.8914956397
  0
LINE
  5
2CE
100
AcDbEntity
  8
0
100
AcDbLine
 62
4
  6
CONTINUOUS
 10
9.947001343
 20
10.189442088
 11
9.9631637886
 21
10.1821966716
  0
LINE
  5
2CF
100
AcDbEntity
  8
0
100
AcDbLine
 62
4
  6
CONTINUOUS
 10
9.8952815942
 20
10.3718656495
 11
9.9033628178
 21
10.3682429408
  0
LINE
  5
2D0
100
AcDbEntity
  8
0
100
AcDbLine
 62
4
  6
CONTINUOUS
 10
10.5090640408
 20
10.1075910756
 11
10.492901605
 21
10.114836492
  0
LINE
  5
2D1
100
AcDbEntity
  8
0
100
AcDbLine
 62
4
  6
CONTINUOUS
 10
10.0196702009
 20
10.3663015441
 11
10.0358326459
 21
10.3590561271
  0
LINE
  5
2D2
100
AcDbEntity
  8
0
100
AcDbLine
 62
7
  6
CONTINUOUS
 10
8.5833770611
 20
10.1060916487
 11
12.9300435369
 21
9.8046493048
  0
LINE
  5
2D3
100
AcDbEntity
  8
0
100
AcDbLine
 62
4
  6
CONTINUOUS
 10
10.1381816016
 20
10.0250604836
 11
10.0940250118
 21
10.0281227535
  0
LINE
  5
2D4
100
AcDbEntity
  8
0
100
AcDbLine
 62
4
  6
CONTINUOUS
 10
9.8732419524
 20
10.0434341107
 11
9.8401244916
 21
10.0457308144
  0
LINE
  5
2D5
100
AcDbEntity
  8
0
100
AcDbLine
 62
4
  6
CONTINUOUS
 10
12.6275106166
 20
9.85242493
 11
12.6951254269
 21
9.847735827
  0
LINE
  5
2D6
100
AcDbEntity
  8
0
100
AcDbLine
 62
4
  6
CONTINUOUS
 10
8.7389736292
 20
10.1363864971
 11
8.7969291809
 21
10.1323672659
  0
LINE
  5
2D7
100
AcDbEntity
  8
0
100
AcDbLine
 62
4
  6
CONTINUOUS
 10
10.2244002193
 20
10.0435793929
 11
10.3016742882
 21
10.038220418
  0
LINE
  5
2D8
100
AcDbEntity
  8
0
100
AcDbLine
 62
4
  6
CONTINUOUS
 10
12.6516670395
 20
9.8757582442
 11
12.7192818499
 21
9.8710691412
  0
LINE
  5
2D9
100
AcDbEntity
  8
0
100
AcDbLine
 62
4
  6
CONTINUOUS
 10
12.7365364391
 20
9.8877357955
 11
12.6689216287
 21
9.8924248985
  0
LINE
  5
2DA
100
AcDbEntity
  8
0
100
AcDbLine
 62
4
  6
CONTINUOUS
 10
9.8815355038
 20
10.0857307828
 11
9.9146529645
 21
10.0834340791
  0
LINE
  5
2DB
100
AcDbEntity
  8
0
100
AcDbLine
 62
4
  6
CONTINUOUS
 10
9.980887886
 20
10.0788406717
 11
10.0692011024
 21
10.0727161293
  0
LINE
  5
2DC
100
AcDbEntity
  8
0
100
AcDbLine
 62
4
  6
CONTINUOUS
 10
10.1354360239
 20
10.0681227219
 11
10.1795926137
 21
10.065060452
  0
LINE
  5
2DD
100
AcDbEntity
  8
0
100
AcDbLine
 62
4
  6
CONTINUOUS
 10
9.6217722168
 20
10.1091044069
 11
10.3172388374
 21
10.060873633
  0
LINE
  5
2DE
100
AcDbEntity
  8
0
100
AcDbLine
 62
4
  6
CONTINUOUS
 10
9.7798289265
 20
10.176537345
 11
9.8308165967
 21
10.1648352747
  0
LINE
  5
2DF
100
AcDbEntity
  8
0
100
AcDbLine
 62
4
  6
CONTINUOUS
 10
9.9814294518
 20
10.3750780968
 11
9.9219029597
 21
10.3975799154
  0
LINE
  5
2E0
100
AcDbEntity
  8
0
100
AcDbLine
 62
4
  6
CONTINUOUS
 10
10.6378541066
 20
10.0986594542
 11
10.6216916708
 21
10.1059048706
  0
LINE
  5
2E1
100
AcDbEntity
  8
0
100
AcDbLine
 62
4
  6
CONTINUOUS
 10
9.9999695936
 20
10.4044150701
 11
10.0080508152
 21
10.4007923607
  0
LINE
  5
2E2
100
AcDbEntity
  8
0
100
AcDbLine
 62
4
  6
CONTINUOUS
 10
10.7123825979
 20
10.1363627177
 11
10.7285450342
 21
10.1291173019
  0
LINE
  5
2E3
100
AcDbEntity
  8
0
100
AcDbLine
 62
4
  6
CONTINUOUS
 10
10.8338132566
 20
10.1279414729
 11
10.849975693
 21
10.1206960571
  0
LINE
  5
2E4
100
AcDbEntity
  8
0
100
AcDbLine
 62
4
  6
CONTINUOUS
 10
10.4628214424
 20
10.3600670913
 11
10.4709026593
 21
10.3564443822
  0
LINE
  5
2E5
100
AcDbEntity
  8
0
100
AcDbLine
 62
4
  6
CONTINUOUS
 10
10.7682380146
 20
10.33888638
 11
10.7726394912
 21
10.3355188618
  0
LINE
  5
2E6
100
AcDbEntity
  8
0
100
AcDbLine
 62
4
  6
CONTINUOUS
 10
10.8203963985
 20
10.092124651
 11
10.7924022445
 21
10.0879415045
  0
LINE
  5
2E7
100
AcDbEntity
  8
0
100
AcDbLine
 62
4
  6
CONTINUOUS
 10
10.6989657398
 20
10.1005458958
 11
10.6709715858
 21
10.0963627492
  0
LINE
  5
2E8
100
AcDbEntity
  8
0
100
AcDbLine
 62
4
  6
CONTINUOUS
 10
10.6512709653
 20
10.1344762768
 11
10.6792651187
 21
10.1386594227
  0
LINE
  5
2E9
100
AcDbEntity
  8
0
100
AcDbLine
 62
4
  6
CONTINUOUS
 10
10.1074418337
 20
10.0639395786
 11
10.1354360239
 21
10.0681227219
  0
LINE
  5
2EA
100
AcDbEntity
  8
0
100
AcDbLine
 62
4
  6
CONTINUOUS
 10
9.9012361064
 20
10.0476172572
 11
9.8732419524
 21
10.0434341107
  0
LINE
  5
2EB
100
AcDbEntity
  8
0
100
AcDbLine
 62
4
  6
CONTINUOUS
 10
10.5224808995
 20
10.1434078982
 11
10.5504750529
 21
10.1475910441
  0
LINE
  5
2EC
100
AcDbEntity
  8
0
100
AcDbLine
 62
4
  6
CONTINUOUS
 10
11.3274134956
 20
10.2694846909
 11
11.3414105357
 21
10.2715762667
  0
LINE
  5
2ED
100
AcDbEntity
  8
0
100
AcDbLine
 62
4
  6
CONTINUOUS
 10
11.064050323
 20
10.0874762887
 11
10.9972870335
 21
10.0839402751
  0
LINE
  5
2EE
100
AcDbEntity
  8
0
100
AcDbLine
 62
4
  6
CONTINUOUS
 10
10.7924022445
 20
10.0879415045
 11
10.7372064704
 21
10.0917693444
  0
LINE
  5
2EF
100
AcDbEntity
  8
0
100
AcDbLine
 62
4
  6
CONTINUOUS
 10
10.6709715858
 20
10.0963627492
 11
10.6378541066
 21
10.0986594542
  0
LINE
  5
2F0
100
AcDbEntity
  8
0
100
AcDbLine
 62
4
  6
CONTINUOUS
 10
10.5532206306
 20
10.1045288057
 11
10.5090640408
 21
10.1075910756
  0
LINE
  5
2F1
100
AcDbEntity
  8
0
100
AcDbLine
 62
4
  6
CONTINUOUS
 10
9.9055903309
 20
10.1494421196
 11
9.8503945753
 21
10.1532699582
  0
LINE
  5
2F2
100
AcDbEntity
  8
0
100
AcDbLine
 62
4
  6
CONTINUOUS
 10
10.2551635022
 20
10.1251991378
 11
10.3213984237
 21
10.1206057304
  0
LINE
  5
2F3
100
AcDbEntity
  8
0
100
AcDbLine
 62
4
  6
CONTINUOUS
 10
10.8770357942
 20
10.0820721479
 11
10.9432706789
 21
10.077478743
  0
LINE
  5
2F4
100
AcDbEntity
  8
0
100
AcDbLine
 62
4
  6
CONTINUOUS
 10
10.0167744222
 20
10.153980572
 11
10.0756498998
 21
10.1498975438
  0
LINE
  5
2F5
100
AcDbEntity
  8
0
100
AcDbLine
 62
4
  6
CONTINUOUS
 10
10.9448558205
 20
10.1018670038
 11
10.9006992308
 21
10.1049292737
  0
LINE
  5
2F6
100
AcDbEntity
  8
0
100
AcDbLine
 62
4
  6
CONTINUOUS
 10
10.3229835654
 20
10.1449939912
 11
10.2788269387
 21
10.1480562636
  0
LINE
  5
2F7
100
AcDbEntity
  8
0
100
AcDbLine
 62
4
  6
CONTINUOUS
 10
9.8918055874
 20
10.1932699267
 11
9.947001343
 21
10.189442088
  0
LINE
  5
2F8
100
AcDbEntity
  8
0
100
AcDbLine
 62
4
  6
CONTINUOUS
 10
10.1641046713
 20
10.1743859211
 11
10.2524178877
 21
10.1682613787
  0
LINE
  5
2F9
100
AcDbEntity
  8
0
100
AcDbLine
 62
4
  6
CONTINUOUS
 10
10.2965745143
 20
10.1651991062
 11
10.3628094358
 21
10.1606056988
  0
LINE
  5
2FA
100
AcDbEntity
  8
0
100
AcDbLine
 62
4
  6
CONTINUOUS
 10
10.5504750529
 20
10.1475910441
 11
10.5946316427
 21
10.1445287742
  0
LINE
  5
2FB
100
AcDbEntity
  8
0
100
AcDbLine
 62
4
  6
CONTINUOUS
 10
10.6792651187
 20
10.1386594227
 11
10.7123825979
 21
10.1363627177
  0
LINE
  5
2FC
100
AcDbEntity
  8
0
100
AcDbLine
 62
4
  6
CONTINUOUS
 10
10.7786174825
 20
10.1317693129
 11
10.8338132566
 21
10.1279414729
  0
LINE
  5
2FD
100
AcDbEntity
  8
0
100
AcDbLine
 62
4
  6
CONTINUOUS
 10
10.9184468063
 20
10.1220721163
 11
10.984681691
 21
10.1174787115
  0
LINE
  5
2FE
100
AcDbEntity
  8
0
100
AcDbLine
 62
4
  6
CONTINUOUS
 10
10.2855523746
 20
10.2174096925
 11
10.3628264435
 21
10.2120507176
  0
LINE
  5
2FF
100
AcDbEntity
  8
0
100
AcDbLine
 62
4
  6
CONTINUOUS
 10
10.3269633867
 20
10.257409661
 11
10.4042374557
 21
10.2520506861
  0
LINE
  5
300
100
AcDbEntity
  8
0
100
AcDbLine
 62
4
  6
CONTINUOUS
 10
11.013062658
 20
10.0991783592
 11
11.064050323
 21
10.0874762887
  0
LINE
  5
301
100
AcDbEntity
  8
0
100
AcDbLine
 62
4
  6
CONTINUOUS
 10
10.6061888766
 20
10.3195017881
 11
10.5870685112
 21
10.3238900638
  0
LINE
  5
302
100
AcDbEntity
  8
0
100
AcDbLine
 62
4
  6
CONTINUOUS
 10
10.8159327885
 20
10.3049559984
 11
10.7968124232
 21
10.3093442741
  0
LINE
  5
303
100
AcDbEntity
  8
0
100
AcDbLine
 62
4
  6
CONTINUOUS
 10
10.9072038977
 20
10.3016885994
 11
10.9152851524
 21
10.2980658886
  0
LINE
  5
304
100
AcDbEntity
  8
0
100
AcDbLine
 62
4
  6
CONTINUOUS
 10
11.0256767005
 20
10.2904102087
 11
11.0175954458
 21
10.2940329195
  0
LINE
  5
305
100
AcDbEntity
  8
0
100
AcDbLine
 62
4
  6
CONTINUOUS
 10
11.1839044683
 20
10.2794370758
 11
11.1758232872
 21
10.2830597814
  0
LINE
  5
306
100
AcDbEntity
  8
0
100
AcDbLine
 62
7
  6
CONTINUOUS
 10
12.9300435369
 20
6.4239087125
 11
12.9300435369
 21
9.8046493048
  0
LINE
  5
307
100
AcDbEntity
  8
0
100
AcDbLine
 62
4
  6
CONTINUOUS
 10
9.8535413319
 20
10.0815476382
 11
9.8815355038
 21
10.0857307828
  0
LINE
  5
308
100
AcDbEntity
  8
0
100
AcDbLine
 62
4
  6
CONTINUOUS
 10
11.2988391598
 20
10.2990267908
 11
11.3128362009
 21
10.3011183675
  0
LINE
  5
309
100
AcDbEntity
  8
0
100
AcDbLine
 62
4
  6
CONTINUOUS
 10
11.1994867222
 20
10.3059169058
 11
11.2134837633
 21
10.3080084825
  0
LINE
  5
30A
100
AcDbEntity
  8
0
100
AcDbLine
 62
4
  6
CONTINUOUS
 10
9.9335844941
 20
10.1536252654
 11
9.9055903309
 21
10.1494421196
  0
LINE
  5
30B
100
AcDbEntity
  8
0
100
AcDbLine
 62
4
  6
CONTINUOUS
 10
9.8465922213
 20
10.1800733588
 11
9.7798289265
 21
10.176537345
  0
LINE
  5
30C
100
AcDbEntity
  8
0
100
AcDbLine
 62
4
  6
CONTINUOUS
 10
10.8056862119
 20
10.3179156963
 11
10.8307224361
 21
10.3192417018
  0
LINE
  5
30D
100
AcDbEntity
  8
0
100
AcDbLine
 62
4
  6
CONTINUOUS
 10
10.6107319462
 20
10.3467471882
 11
10.6357681716
 21
10.3480731949
  0
LINE
  5
30E
100
AcDbEntity
  8
0
100
AcDbLine
 62
4
  6
CONTINUOUS
 10
10.4785781565
 20
10.3181440426
 11
10.5006564514
 21
10.3166129076
  0
LINE
  5
30F
100
AcDbEntity
  8
0
100
AcDbLine
 62
4
  6
CONTINUOUS
 10
11.2280612054
 20
10.2763747956
 11
11.1839044683
 21
10.2794370758
  0
LINE
  5
310
100
AcDbEntity
  8
0
100
AcDbLine
 62
4
  6
CONTINUOUS
 10
11.0477549954
 20
10.2888790738
 11
11.0256767005
 21
10.2904102087
  0
LINE
  5
311
100
AcDbEntity
  8
0
100
AcDbLine
 62
4
  6
CONTINUOUS
 10
10.8600893783
 20
10.3018937285
 11
10.8159327885
 21
10.3049559984
  0
LINE
  5
312
100
AcDbEntity
  8
0
100
AcDbLine
 62
4
  6
CONTINUOUS
 10
10.6503454663
 20
10.3164395182
 11
10.6061888766
 21
10.3195017881
  0
LINE
  5
313
100
AcDbEntity
  8
0
100
AcDbLine
 62
4
  6
CONTINUOUS
 10
9.9033628178
 20
10.3682429408
 11
9.9475194295
 21
10.3651806694
  0
LINE
  5
314
100
AcDbEntity
  8
0
100
AcDbLine
 62
4
  6
CONTINUOUS
 10
10.0358326459
 20
10.3590561271
 11
10.0689501158
 21
10.3567594227
  0
LINE
  5
315
100
AcDbEntity
  8
0
100
AcDbLine
 62
4
  6
CONTINUOUS
 10
10.9152851524
 20
10.2980658886
 11
10.9704809264
 21
10.2942380487
  0
LINE
  5
316
100
AcDbEntity
  8
0
100
AcDbLine
 62
4
  6
CONTINUOUS
 10
11.2832569058
 20
10.2725469608
 11
11.3274134956
 21
10.2694846909
  0
LINE
  5
317
100
AcDbEntity
  8
0
100
AcDbLine
 62
4
  6
CONTINUOUS
 10
10.8307224361
 20
10.3192417018
 11
10.8748790258
 21
10.3161794319
  0
LINE
  5
318
100
AcDbEntity
  8
0
100
AcDbLine
 62
4
  6
CONTINUOUS
 10
10.8786295628
 20
10.3312307002
 11
10.8234337887
 21
10.3350585401
  0
LINE
  5
319
100
AcDbEntity
  8
0
100
AcDbLine
 62
4
  6
CONTINUOUS
 10
10.4076256683
 20
10.3638949312
 11
10.4628214424
 21
10.3600670913
  0
LINE
  5
31A
100
AcDbEntity
  8
0
100
AcDbLine
 62
4
  6
CONTINUOUS
 10
10.6357681716
 20
10.3480731949
 11
10.6799247614
 21
10.345010925
  0
LINE
  5
31B
100
AcDbEntity
  8
0
100
AcDbLine
 62
4
  6
CONTINUOUS
 10
10.7240814249
 20
10.3419486499
 11
10.7682380146
 21
10.33888638
  0
LINE
  5
31C
100
AcDbEntity
  8
0
100
AcDbLine
 62
4
  6
CONTINUOUS
 10
11.2134837633
 20
10.3080084825
 11
11.2576405005
 21
10.3049462024
  0
LINE
  5
31D
100
AcDbEntity
  8
0
100
AcDbLine
 62
4
  6
CONTINUOUS
 10
11.3128362009
 20
10.3011183675
 11
11.3569927906
 21
10.2980560976
  0
LINE
  5
31E
100
AcDbEntity
  8
0
100
AcDbLine
 62
4
  6
CONTINUOUS
 10
9.9558129831
 20
10.4074773414
 11
9.9999695936
 21
10.4044150701
  0
LINE
  5
31F
100
AcDbEntity
  8
0
100
AcDbLine
 62
4
  6
CONTINUOUS
 10
11.1554008922
 20
10.3242856374
 11
11.1590805957
 21
10.3240304491
  0
LINE
  5
320
100
AcDbEntity
  8
0
100
AcDbLine
 62
7
  6
CONTINUOUS
 10
13.4166229389
 20
10.2746489436
 11
9.0699564631
 21
10.5760912875
  0
LINE
  5
321
100
AcDbEntity
  8
0
100
AcDbLine
 62
4
  6
CONTINUOUS
 10
11.3412171667
 20
10.2828180141
 11
11.2990325297
 21
10.2877850443
  0
LINE
  5
322
100
AcDbEntity
  8
0
100
AcDbLine
 62
4
  6
CONTINUOUS
 10
11.2990325297
 20
10.2877850443
 11
11.289965372
 21
10.2904553695
  0
LINE
  5
323
100
AcDbEntity
  8
0
100
AcDbLine
 62
4
  6
CONTINUOUS
 10
11.3502843244
 20
10.2801476889
 11
11.3412171667
 21
10.2828180141
  0
LINE
  5
324
100
AcDbEntity
  8
0
100
AcDbLine
 62
4
  6
CONTINUOUS
 10
11.2751757248
 20
10.2761696665
 11
11.2832569058
 21
10.2725469608
  0
LINE
  5
325
100
AcDbEntity
  8
0
100
AcDbLine
 62
4
  6
CONTINUOUS
 10
11.3569927906
 20
10.2980560976
 11
11.3650739707
 21
10.2944333911
  0
LINE
  5
326
100
AcDbEntity
  8
0
100
AcDbLine
 62
4
  6
CONTINUOUS
 10
10.0689501158
 20
10.3567594227
 11
10.0969442699
 21
10.3609425692
  0
LINE
  5
327
100
AcDbEntity
  8
0
100
AcDbLine
 62
4
  6
CONTINUOUS
 10
9.9475194295
 20
10.3651806694
 11
9.9755135927
 21
10.3693638153
  0
LINE
  5
328
100
AcDbEntity
  8
0
100
AcDbLine
 62
4
  6
CONTINUOUS
 10
9.9278188182
 20
10.4032941963
 11
9.9558129831
 21
10.4074773414
  0
LINE
  5
329
100
AcDbEntity
  8
0
100
AcDbLine
 62
4
  6
CONTINUOUS
 10
12.7316985322
 20
9.8630627364
 11
12.7192818499
 21
9.8710691412
  0
LINE
  5
32A
100
AcDbEntity
  8
0
100
AcDbLine
 62
4
  6
CONTINUOUS
 10
12.7427447808
 20
9.8837325937
 11
12.7365364391
 21
9.8877357955
  0
LINE
  5
32B
100
AcDbEntity
  8
0
100
AcDbLine
 62
7
  6
CONTINUOUS
 10
13.4166229389
 20
6.8939083513
 11
13.4166229389
 21
10.2746489436
  0
LINE
  5
32C
100
AcDbEntity
  8
0
100
AcDbLine
 62
7
  6
CONTINUOUS
 10
12.9300435369
 20
6.4239087125
 11
13.4166229389
 21
6.8939083513
  0
ARC
  5
32D
100
AcDbEntity
  8
0
100
AcDbCircle
 62
7
  6
CONTINUOUS
 10
11.6431764444
 20
9.4309453739
 40
0.1137219759
100
AcDbArc
 50
297.0900765238
 51
313.9870391762
  0
ARC
  5
32E
100
AcDbEntity
  8
0
100
AcDbCircle
 62
7
  6
CONTINUOUS
 10
11.6205571284
 20
9.4543624459
 40
0.1137214029
100
AcDbArc
 50
134.026012277
 51
150.9329271333
  0
SPLINE
  5
32F
100
AcDbEntity
  8
0
100
AcDbSpline
 62
7
  6
CONTINUOUS
 70
0
 71
3
 72
39
 73
35
 74
0
 42
0.0000001
 43
0.0000001
 44
0.0000000001
 40
0.0
 40
0.0
 40
0.0
 40
0.0
 40
0.0299422331
 40
0.0599092575
 40
0.0899241853
 40
0.1200100237
 40
0.1501875599
 40
0.1804752385
 40
0.2108897545
 40
0.2414436546
 40
0.2721471403
 40
0.3030068828
 40
0.334025345
 40
0.3652026833
 40
0.3965345645
 40
0.4280135898
 40
0.4596299292
 40
0.4913697388
 40
0.5232175329
 40
0.5551555029
 40
0.587163356
 40
0.6192204168
 40
0.6513042093
 40
0.6833916162
 40
0.7154605923
 40
0.7474887634
 40
0.7794547541
 40
0.8113371941
 40
0.843114759
 40
0.8747724449
 40
0.9063035463
 40
0.9377027577
 40
0.968947027
 40
1.0
 40
1.0
 40
1.0
 40
1.0
 10
11.638966268
 20
9.275720096
 30
0.0
 10
11.6368926559
 20
9.2737169894
 30
0.0
 10
11.6325818129
 20
9.2698729576
 30
0.0
 10
11.6256757736
 20
9.2646356933
 30
0.0
 10
11.6183651218
 20
9.2599530799
 30
0.0
 10
11.6106893536
 20
9.2558538925
 30
0.0
 10
11.6026923814
 20
9.2523573938
 30
0.0
 10
11.5944172395
 20
9.2494847714
 30
0.0
 10
11.5859097212
 20
9.2472520307
 30
0.0
 10
11.5772171458
 20
9.2456688645
 30
0.0
 10
11.5683867572
 20
9.2447473274
 30
0.0
 10
11.5594675959
 20
9.244489894
 30
0.0
 10
11.5505084367
 20
9.2448978982
 30
0.0
 10
11.5415588378
 20
9.2459713993
 30
0.0
 10
11.5326675475
 20
9.2477009879
 30
0.0
 10
11.5238837216
 20
9.2500795608
 30
0.0
 10
11.5152557495
 20
9.2530936357
 30
0.0
 10
11.5068301052
 20
9.2567246594
 30
0.0
 10
11.4986544025
 20
9.2609557157
 30
0.0
 10
11.4907723757
 20
9.2657610419
 30
0.0
 10
11.4832273221
 20
9.2711147721
 30
0.0
 10
11.4760619582
 20
9.2769889983
 30
0.0
 10
11.4693134964
 20
9.2833489198
 30
0.0
 10
11.463020704
 20
9.2901616543
 30
0.0
 10
11.4572177669
 20
9.2973892577
 30
0.0
 10
11.4519351132
 20
9.3049912752
 30
0.0
 10
11.44720462
 20
9.3129277885
 30
0.0
 10
11.4430496891
 20
9.3211531719
 30
0.0
 10
11.4394936317
 20
9.3296225942
 30
0.0
 10
11.4365575729
 20
9.3382907582
 30
0.0
 10
11.434255104
 20
9.3471107407
 30
0.0
 10
11.4326023772
 20
9.3560350265
 30
0.0
 10
11.4316065305
 20
9.3650094365
 30
0.0
 10
11.4313822314
 20
9.3710102317
 30
0.0
 10
11.4313822314
 20
9.3740002902
 30
0.0
  0
SPLINE
  5
330
100
AcDbEntity
  8
0
100
AcDbSpline
 62
7
  6
CONTINUOUS
 70
0
 71
3
 72
15
 73
11
 74
0
 42
0.0000001
 43
0.0000001
 44
0.0000000001
 40
0.0
 40
0.0
 40
0.0
 40
0.0
 40
0.1234389364
 40
0.2470473381
 40
0.370987441
 40
0.4953935886
 40
0.620395394
 40
0.7461421851
 40
0.8727199755
 40
1.0
 40
1.0
 40
1.0
 40
1.0
 10
11.4652796657
 20
9.4555336876
 30
0.0
 10
11.4625958209
 20
9.4529410969
 30
0.0
 10
11.4574880276
 20
9.4474713913
 30
0.0
 10
11.450702817
 20
9.438518286
 30
0.0
 10
11.4448548007
 20
9.4288913519
 30
0.0
 10
11.4399939048
 20
9.418684132
 30
0.0
 10
11.4361688559
 20
9.4079875281
 30
0.0
 10
11.4334112035
 20
9.3968997415
 30
0.0
 10
11.4317515603
 20
9.3855272705
 30
0.0
 10
11.4313822314
 20
9.3778479677
 30
0.0
 10
11.4313822314
 20
9.3740002902
 30
0.0
  0
SPLINE
  5
331
100
AcDbEntity
  8
0
100
AcDbSpline
 62
7
  6
CONTINUOUS
 70
0
 71
3
 72
39
 73
35
 74
0
 42
0.0000001
 43
0.0000001
 44
0.0000000001
 40
0.0
 40
0.0
 40
0.0
 40
0.0
 40
0.031052973
 40
0.0622972423
 40
0.0936964537
 40
0.1252275551
 40
0.156885241
 40
0.1886628059
 40
0.2205452459
 40
0.2525112366
 40
0.2845394077
 40
0.3166083838
 40
0.3486957907
 40
0.3807795832
 40
0.412836644
 40
0.4448444971
 40
0.4767824671
 40
0.5086302612
 40
0.5403700708
 40
0.5719864102
 40
0.6034654355
 40
0.6347973167
 40
0.665974655
 40
0.6969931172
 40
0.7278528597
 40
0.7585563454
 40
0.7891102455
 40
0.8195247615
 40
0.8498124401
 40
0.8799899763
 40
0.9100758147
 40
0.9400907425
 40
0.9700577669
 40
1.0
 40
1.0
 40
1.0
 40
1.0
 10
11.6728637023
 20
9.3572534933
 30
0.0
 10
11.6728637023
 20
9.3602435518
 30
0.0
 10
11.6726394032
 20
9.3662443471
 30
0.0
 10
11.6716435566
 20
9.375218757
 30
0.0
 10
11.6699908298
 20
9.3841430428
 30
0.0
 10
11.6676883608
 20
9.3929630254
 30
0.0
 10
11.664752302
 20
9.4016311893
 30
0.0
 10
11.6611962447
 20
9.4101006116
 30
0.0
 10
11.6570413137
 20
9.4183259951
 30
0.0
 10
11.6523108206
 20
9.4262625084
 30
0.0
 10
11.6470281668
 20
9.4338645259
 30
0.0
 10
11.6412252298
 20
9.4410921292
 30
0.0
 10
11.6349324374
 20
9.4479048637
 30
0.0
 10
11.6281839755
 20
9.4542647853
 30
0.0
 10
11.6210186117
 20
9.4601390114
 30
0.0
 10
11.613473558
 20
9.4654927417
 30
0.0
 10
11.6055915313
 20
9.4702980679
 30
0.0
 10
11.5974158286
 20
9.4745291242
 30
0.0
 10
11.5889901842
 20
9.4781601478
 30
0.0
 10
11.5803622121
 20
9.4811742227
 30
0.0
 10
11.5715783863
 20
9.4835527957
 30
0.0
 10
11.562687096
 20
9.4852823843
 30
0.0
 10
11.5537374971
 20
9.4863558854
 30
0.0
 10
11.5447783378
 20
9.4867638896
 30
0.0
 10
11.5358591765
 20
9.4865064562
 30
0.0
 10
11.5270287879
 20
9.485584919
 30
0.0
 10
11.5183362125
 20
9.4840017529
 30
0.0
 10
11.5098286942
 20
9.4817690122
 30
0.0
 10
11.5015535523
 20
9.4788963898
 30
0.0
 10
11.4935565801
 20
9.4753998911
 30
0.0
 10
11.485880812
 20
9.4713007037
 30
0.0
 10
11.4785701601
 20
9.4666180903
 30
0.0
 10
11.4716641208
 20
9.461380826
 30
0.0
 10
11.4673532778
 20
9.4575367942
 30
0.0
 10
11.4652796657
 20
9.4555336876
 30
0.0
  0
SPLINE
  5
332
100
AcDbEntity
  8
0
100
AcDbSpline
 62
7
  6
CONTINUOUS
 70
0
 71
3
 72
53
 73
49
 74
0
 42
0.0000001
 43
0.0000001
 44
0.0000000001
 40
0.0
 40
0.0
 40
0.0
 40
0.0
 40
0.0313041153
 40
0.0470567589
 40
0.0628625042
 40
0.0945982077
 40
0.1264996374
 40
0.1585539205
 40
0.1907323133
 40
0.2068600129
 40
0.2230041193
 40
0.2391599002
 40
0.2553223468
 40
0.2714864126
 40
0.2876472596
 40
0.3038000459
 40
0.319939713
 40
0.3360612399
 40
0.3521599324
 40
0.3842632888
 40
0.4162252851
 40
0.4480185945
 40
0.4796216269
 40
0.5110196976
 40
0.5422062894
 40
0.5731821078
 40
0.6039571965
 40
0.6192792312
 40
0.6345582438
 40
0.6649908279
 40
0.6801620739
 40
0.6953058919
 40
0.7104271196
 40
0.7255305534
 40
0.7406211915
 40
0.755704483
 40
0.770786026
 40
0.7858711759
 40
0.800965253
 40
0.816073731
 40
0.8463431443
 40
0.8615227459
 40
0.8767341965
 40
0.907262381
 40
0.922599162
 40
0.9379872792
 40
0.9689083072
 40
1.0
 40
1.0
 40
1.0
 40
1.0
 10
11.642938345
 20
9.3507544573
 30
0.0
 10
11.642938345
 20
9.3540050822
 30
0.0
 10
11.6426960824
 20
9.3588956493
 30
0.0
 10
11.6419034996
 20
9.3653767497
 30
0.0
 10
11.6407935046
 20
9.3718571627
 30
0.0
 10
11.6388154364
 20
9.3798797631
 30
0.0
 10
11.6355332975
 20
9.3892738998
 30
0.0
 10
11.6313681459
 20
9.3983616309
 30
0.0
 10
11.6271989523
 20
9.4056049515
 30
0.0
 10
11.6234673162
 20
9.4111628884
 30
0.0
 10
11.6204735984
 20
9.4152057204
 30
0.0
 10
11.617295613
 20
9.4191098548
 30
0.0
 10
11.6139410573
 20
9.4228661783
 30
0.0
 10
11.6104178044
 20
9.4264654909
 30
0.0
 10
11.6067336639
 20
9.4298984765
 30
0.0
 10
11.6028980829
 20
9.4331574724
 30
0.0
 10
11.598920566
 20
9.4362349265
 30
0.0
 10
11.594810483
 20
9.4391234261
 30
0.0
 10
11.5891724057
 20
9.4427084031
 30
0.0
 10
11.5818440593
 20
9.4466839244
 30
0.0
 10
11.5726783921
 20
9.4506026104
 30
0.0
 10
11.5632333196
 20
9.4536250436
 30
0.0
 10
11.5536013174
 20
9.4557262449
 30
0.0
 10
11.5438737587
 20
9.4568805138
 30
0.0
 10
11.5341447326
 20
9.4570819473
 30
0.0
 10
11.5245082967
 20
9.4563227676
 30
0.0
 10
11.5166180429
 20
9.4548969726
 30
0.0
 10
11.5104488425
 20
9.4532870899
 30
0.0
 10
11.5044042933
 20
9.451374551
 30
0.0
 10
11.4985285048
 20
9.4490052267
 30
0.0
 10
11.4928778203
 20
9.4461965442
 30
0.0
 10
11.4887662384
 20
9.4438777058
 30
0.0
 10
11.4847873298
 20
9.4413513808
 30
0.0
 10
11.4809503877
 20
9.4386236694
 30
0.0
 10
11.4772649506
 20
9.4357008079
 30
0.0
 10
11.4737404854
 20
9.4325891611
 30
0.0
 10
11.4703848362
 20
9.429296985
 30
0.0
 10
11.4672058912
 20
9.4258324231
 30
0.0
 10
11.4642113245
 20
9.4222034389
 30
0.0
 10
11.4604738323
 20
9.417154687
 30
0.0
 10
11.4571337374
 20
9.4118107441
 30
0.0
 10
11.4542194573
 20
9.4062239052
 30
0.0
 10
11.451587499
 20
9.4004689954
 30
0.0
 10
11.4494001883
 20
9.3945018268
 30
0.0
 10
11.4476725562
 20
9.3883782069
 30
0.0
 10
11.4462491776
 20
9.3821345218
 30
0.0
 10
11.4450602317
 20
9.3741715622
 30
0.0
 10
11.4447431835
 20
9.3677279054
 30
0.0
 10
11.4447431835
 20
9.3644993385
 30
0.0
  0
SPLINE
  5
333
100
AcDbEntity
  8
0
100
AcDbSpline
 62
7
  6
CONTINUOUS
 70
0
 71
3
 72
15
 73
11
 74
0
 42
0.0000001
 43
0.0000001
 44
0.0000000001
 40
0.0
 40
0.0
 40
0.0
 40
0.0
 40
0.1272800245
 40
0.2538578149
 40
0.379604606
 40
0.5046064114
 40
0.629012559
 40
0.7529526619
 40
0.8765610636
 40
1.0
 40
1.0
 40
1.0
 40
1.0
 10
11.6728637023
 20
9.3572534933
 30
0.0
 10
11.6728637023
 20
9.3534058159
 30
0.0
 10
11.6724943735
 20
9.345726513
 30
0.0
 10
11.6708347302
 20
9.3343540421
 30
0.0
 10
11.6680770779
 20
9.3232662554
 30
0.0
 10
11.6642520289
 20
9.3125696516
 30
0.0
 10
11.6593911331
 20
9.3023624316
 30
0.0
 10
11.6535431167
 20
9.2927354975
 30
0.0
 10
11.6467579062
 20
9.2837823923
 30
0.0
 10
11.6416501129
 20
9.2783126867
 30
0.0
 10
11.638966268
 20
9.275720096
 30
0.0
  0
SPLINE
  5
334
100
AcDbEntity
  8
0
100
AcDbSpline
 62
7
  6
CONTINUOUS
 70
0
 71
3
 72
53
 73
49
 74
0
 42
0.0000001
 43
0.0000001
 44
0.0000000001
 40
0.0
 40
0.0
 40
0.0
 40
0.0
 40
0.0310916928
 40
0.0620127208
 40
0.077400838
 40
0.092737619
 40
0.1232658035
 40
0.1384772541
 40
0.1536568557
 40
0.183926269
 40
0.199034747
 40
0.2141288241
 40
0.229213974
 40
0.244295517
 40
0.2593788085
 40
0.2744694466
 40
0.2895728804
 40
0.3046941081
 40
0.3198379261
 40
0.3350091721
 40
0.3654417562
 40
0.3807207688
 40
0.3960428035
 40
0.4268178922
 40
0.4577937106
 40
0.4889803024
 40
0.5203783731
 40
0.5519814055
 40
0.5837747149
 40
0.6157367112
 40
0.6478400676
 40
0.6639387601
 40
0.680060287
 40
0.6961999541
 40
0.7123527404
 40
0.7285135874
 40
0.7446776532
 40
0.7608400998
 40
0.7769958807
 40
0.7931399871
 40
0.8092676867
 40
0.8414460795
 40
0.8735003626
 40
0.9054017923
 40
0.9371374958
 40
0.9529432411
 40
0.9686958847
 40
1.0
 40
1.0
 40
1.0
 40
1.0
 10
11.642938345
 20
9.3507544573
 30
0.0
 10
11.642938345
 20
9.3475258904
 30
0.0
 10
11.6426212968
 20
9.3410822336
 30
0.0
 10
11.6414323509
 20
9.3331192741
 30
0.0
 10
11.6400089723
 20
9.3268755889
 30
0.0
 10
11.6382813402
 20
9.320751969
 30
0.0
 10
11.6360940296
 20
9.3147848004
 30
0.0
 10
11.6334620712
 20
9.3090298906
 30
0.0
 10
11.6305477911
 20
9.3034430517
 30
0.0
 10
11.6272076962
 20
9.2980991088
 30
0.0
 10
11.6234702041
 20
9.2930503569
 30
0.0
 10
11.6204756374
 20
9.2894213728
 30
0.0
 10
11.6172966923
 20
9.2859568108
 30
0.0
 10
11.6139410431
 20
9.2826646348
 30
0.0
 10
11.610416578
 20
9.279552988
 30
0.0
 10
11.6067311409
 20
9.2766301264
 30
0.0
 10
11.6028941987
 20
9.273902415
 30
0.0
 10
11.5989152901
 20
9.27137609
 30
0.0
 10
11.5948037082
 20
9.2690572517
 30
0.0
 10
11.5891530237
 20
9.2662485691
 30
0.0
 10
11.5832772352
 20
9.2638792448
 30
0.0
 10
11.5772326861
 20
9.261966706
 30
0.0
 10
11.5710634856
 20
9.2603568232
 30
0.0
 10
11.5631732318
 20
9.2589310282
 30
0.0
 10
11.5535367959
 20
9.2581718485
 30
0.0
 10
11.5438077699
 20
9.258373282
 30
0.0
 10
11.5340802111
 20
9.2595275509
 30
0.0
 10
11.524448209
 20
9.2616287522
 30
0.0
 10
11.5150031364
 20
9.2646511854
 30
0.0
 10
11.5058374693
 20
9.2685698714
 30
0.0
 10
11.4985091229
 20
9.2725453927
 30
0.0
 10
11.4928710456
 20
9.2761303697
 30
0.0
 10
11.4887609626
 20
9.2790188693
 30
0.0
 10
11.4847834456
 20
9.2820963234
 30
0.0
 10
11.4809478647
 20
9.2853553193
 30
0.0
 10
11.4772637242
 20
9.288788305
 30
0.0
 10
11.4737404712
 20
9.2923876175
 30
0.0
 10
11.4703859155
 20
9.296143941
 30
0.0
 10
11.4672079301
 20
9.3000480754
 30
0.0
 10
11.4642142123
 20
9.3040909074
 30
0.0
 10
11.4604825762
 20
9.3096488444
 30
0.0
 10
11.4563133827
 20
9.3168921649
 30
0.0
 10
11.452148231
 20
9.325979896
 30
0.0
 10
11.4488660921
 20
9.3353740327
 30
0.0
 10
11.446888024
 20
9.3433966331
 30
0.0
 10
11.4457780289
 20
9.3498770461
 30
0.0
 10
11.4449854461
 20
9.3563581466
 30
0.0
 10
11.4447431835
 20
9.3612487136
 30
0.0
 10
11.4447431835
 20
9.3644993385
 30
0.0
  0
SPLINE
  5
335
100
AcDbEntity
  8
0
100
AcDbSpline
 62
7
  6
CONTINUOUS
 70
0
 71
3
 72
24
 73
20
 74
0
 42
0.0000001
 43
0.0000001
 44
0.0000000001
 40
0.0
 40
0.0
 40
0.0
 40
0.0
 40
0.0637764416
 40
0.1273443685
 40
0.190701004
 40
0.2538548276
 40
0.3168116139
 40
0.3795801666
 40
0.4421711529
 40
0.504596791
 40
0.5668710034
 40
0.6290092011
 40
0.6910281569
 40
0.7220010165
 40
0.7529508932
 40
0.8147862903
 40
0.8765592252
 40
0.938290164
 40
1.0
 40
1.0
 40
1.0
 40
1.0
 10
12.5823102014
 20
6.930987043
 30
0.0
 10
12.5823102014
 20
6.9264201507
 30
0.0
 10
12.5820915982
 20
6.9172997502
 30
0.0
 10
12.5811050035
 20
6.9036746435
 30
0.0
 10
12.5794622828
 20
6.8901575237
 30
0.0
 10
12.5771673938
 20
6.8767801645
 30
0.0
 10
12.5742254467
 20
6.8635731249
 30
0.0
 10
12.5706432554
 20
6.8505669368
 30
0.0
 10
12.5664290587
 20
6.8377915607
 30
0.0
 10
12.5615925317
 20
6.8252764729
 30
0.0
 10
12.556144749
 20
6.8130504997
 30
0.0
 10
12.5500983897
 20
6.8011420164
 30
0.0
 10
12.5445697871
 20
6.7915009593
 30
0.0
 10
12.539862838
 20
6.7839757664
 30
0.0
 10
12.5349724892
 20
6.7765842036
 30
0.0
 10
12.5285129397
 20
6.7675907829
 30
0.0
 10
12.5202244156
 20
6.7572180858
 30
0.0
 10
12.5114201713
 20
6.7472916413
 30
0.0
 10
12.505219291
 20
6.7409857545
 30
0.0
 10
12.5020409704
 20
6.7379157352
 30
0.0
  0
SPLINE
  5
336
100
AcDbEntity
  8
0
100
AcDbSpline
 62
7
  6
CONTINUOUS
 70
0
 71
3
 72
24
 73
20
 74
0
 42
0.0000001
 43
0.0000001
 44
0.0000000001
 40
0.0
 40
0.0
 40
0.0
 40
0.0
 40
0.0637764416
 40
0.1273443685
 40
0.190701004
 40
0.2538548276
 40
0.3168116139
 40
0.3795801666
 40
0.4421711529
 40
0.504596791
 40
0.5668710034
 40
0.6290092011
 40
0.6910281569
 40
0.7220010165
 40
0.7529508932
 40
0.8147862903
 40
0.8765592252
 40
0.938290164
 40
1.0
 40
1.0
 40
1.0
 40
1.0
 10
9.5029384045
 20
7.1445422024
 30
0.0
 10
9.5029384045
 20
7.1399753101
 30
0.0
 10
9.5027198014
 20
7.1308549097
 30
0.0
 10
9.5017332066
 20
7.1172298029
 30
0.0
 10
9.500090486
 20
7.1037126831
 30
0.0
 10
9.497795597
 20
7.0903353239
 30
0.0
 10
9.4948536499
 20
7.0771282844
 30
0.0
 10
9.4912714586
 20
7.0641220962
 30
0.0
 10
9.4870572619
 20
7.0513467201
 30
0.0
 10
9.4822207349
 20
7.0388316323
 30
0.0
 10
9.4767729522
 20
7.0266056591
 30
0.0
 10
9.4707265929
 20
7.0146971758
 30
0.0
 10
9.4651979902
 20
7.0050561187
 30
0.0
 10
9.4604910412
 20
6.9975309259
 30
0.0
 10
9.4556006923
 20
6.9901393631
 30
0.0
 10
9.4491411429
 20
6.9811459424
 30
0.0
 10
9.4408526188
 20
6.9707732453
 30
0.0
 10
9.4320483745
 20
6.9608468007
 30
0.0
 10
9.4258474942
 20
6.954540914
 30
0.0
 10
9.4226691736
 20
6.9514708946
 30
0.0
  0
SPLINE
  5
337
100
AcDbEntity
  8
0
100
AcDbSpline
 62
7
  6
CONTINUOUS
 70
0
 71
3
 72
24
 73
20
 74
0
 42
0.0000001
 43
0.0000001
 44
0.0000000001
 40
0.0
 40
0.0
 40
0.0
 40
0.0
 40
0.0637764416
 40
0.1273443685
 40
0.190701004
 40
0.2538548276
 40
0.3168116139
 40
0.3795801666
 40
0.4421711529
 40
0.504596791
 40
0.5668710034
 40
0.6290092011
 40
0.6910281569
 40
0.7220010165
 40
0.7529508932
 40
0.8147862903
 40
0.8765592252
 40
0.938290164
 40
1.0
 40
1.0
 40
1.0
 40
1.0
 10
9.5029384045
 20
9.5593569112
 30
0.0
 10
9.5029384045
 20
9.5547900189
 30
0.0
 10
9.5027198014
 20
9.5456696185
 30
0.0
 10
9.5017332066
 20
9.5320445117
 30
0.0
 10
9.500090486
 20
9.5185273919
 30
0.0
 10
9.497795597
 20
9.5051500327
 30
0.0
 10
9.4948536499
 20
9.4919429932
 30
0.0
 10
9.4912714586
 20
9.478936805
 30
0.0
 10
9.4870572619
 20
9.466161429
 30
0.0
 10
9.4822207349
 20
9.4536463411
 30
0.0
 10
9.4767729522
 20
9.4414203679
 30
0.0
 10
9.4707265929
 20
9.4295118846
 30
0.0
 10
9.4651979902
 20
9.4198708275
 30
0.0
 10
9.4604910412
 20
9.4123456347
 30
0.0
 10
9.4556006923
 20
9.4049540719
 30
0.0
 10
9.4491411429
 20
9.3959606512
 30
0.0
 10
9.4408526188
 20
9.3855879541
 30
0.0
 10
9.4320483745
 20
9.3756615095
 30
0.0
 10
9.4258474942
 20
9.3693556228
 30
0.0
 10
9.4226691736
 20
9.3662856034
 30
0.0
  0
SPLINE
  5
338
100
AcDbEntity
  8
0
100
AcDbSpline
 62
7
  6
CONTINUOUS
 70
0
 71
3
 72
24
 73
20
 74
0
 42
0.0000001
 43
0.0000001
 44
0.0000000001
 40
0.0
 40
0.0
 40
0.0
 40
0.0
 40
0.0637764416
 40
0.1273443685
 40
0.190701004
 40
0.2538548276
 40
0.3168116139
 40
0.3795801666
 40
0.4421711529
 40
0.504596791
 40
0.5668710034
 40
0.6290092011
 40
0.6910281569
 40
0.7220010165
 40
0.7529508932
 40
0.8147862903
 40
0.8765592252
 40
0.938290164
 40
1.0
 40
1.0
 40
1.0
 40
1.0
 10
12.5823102014
 20
9.3458017518
 30
0.0
 10
12.5823102014
 20
9.3412348595
 30
0.0
 10
12.5820915982
 20
9.332114459
 30
0.0
 10
12.5811050035
 20
9.3184893523
 30
0.0
 10
12.5794622828
 20
9.3049722325
 30
0.0
 10
12.5771673938
 20
9.2915948733
 30
0.0
 10
12.5742254467
 20
9.2783878337
 30
0.0
 10
12.5706432554
 20
9.2653816456
 30
0.0
 10
12.5664290587
 20
9.2526062695
 30
0.0
 10
12.5615925317
 20
9.2400911817
 30
0.0
 10
12.556144749
 20
9.2278652085
 30
0.0
 10
12.5500983897
 20
9.2159567252
 30
0.0
 10
12.5445697871
 20
9.2063156681
 30
0.0
 10
12.539862838
 20
9.1987904753
 30
0.0
 10
12.5349724892
 20
9.1913989125
 30
0.0
 10
12.5285129397
 20
9.1824054917
 30
0.0
 10
12.5202244156
 20
9.1720327946
 30
0.0
 10
12.5114201713
 20
9.1621063501
 30
0.0
 10
12.505219291
 20
9.1558004633
 30
0.0
 10
12.5020409704
 20
9.152730444
 30
0.0
  0
SPLINE
  5
339
100
AcDbEntity
  8
0
100
AcDbSpline
 62
7
  6
CONTINUOUS
 70
0
 71
3
 72
23
 73
19
 74
0
 42
0.0000001
 43
0.0000001
 44
0.0000000001
 40
0.0
 40
0.0
 40
0.0
 40
0.0
 40
0.0637744828
 40
0.1273454316
 40
0.1907025265
 40
0.2538558004
 40
0.316813226
 40
0.3795821625
 40
0.4421733656
 40
0.5045993404
 40
0.5668738661
 40
0.6290123724
 40
0.6910316429
 40
0.7529496283
 40
0.8147853425
 40
0.8765585905
 40
0.938289842
 40
1.0
 40
1.0
 40
1.0
 40
1.0
 10
11.7574095318
 20
9.4339184984
 30
0.0
 10
11.7574095318
 20
9.4319128227
 30
0.0
 10
11.7573134907
 20
9.4279071938
 30
0.0
 10
11.7568802281
 20
9.4219231212
 30
0.0
 10
11.7561587471
 20
9.4159864327
 30
0.0
 10
11.7551507898
 20
9.4101112129
 30
0.0
 10
11.7538587473
 20
9.4043107795
 30
0.0
 10
11.7522854382
 20
9.3985985506
 30
0.0
 10
11.7504345732
 20
9.3929877024
 30
0.0
 10
11.7483103949
 20
9.3874911635
 30
0.0
 10
11.7459177351
 20
9.3821216318
 30
0.0
 10
11.7432621878
 20
9.376891456
 30
0.0
 10
11.7403497854
 20
9.3718127419
 30
0.0
 10
11.7371872788
 20
9.366897182
 30
0.0
 10
11.7337819801
 20
9.3621561133
 30
0.0
 10
11.7301416343
 20
9.3576004877
 30
0.0
 10
11.7262748681
 20
9.3532408852
 30
0.0
 10
11.7235514469
 20
9.3504714147
 30
0.0
 10
11.7221555453
 20
9.3491230884
 30
0.0
  0
SPLINE
  5
33A
100
AcDbEntity
  8
0
100
AcDbSpline
 62
7
  6
CONTINUOUS
 70
0
 71
3
 72
23
 73
19
 74
0
 42
0.0000001
 43
0.0000001
 44
0.0000000001
 40
0.0
 40
0.0
 40
0.0
 40
0.0
 40
0.0637744828
 40
0.1273454316
 40
0.1907025265
 40
0.2538558004
 40
0.316813226
 40
0.3795821625
 40
0.4421733656
 40
0.5045993404
 40
0.5668738661
 40
0.6290123724
 40
0.6910316429
 40
0.7529496283
 40
0.8147853425
 40
0.8765585905
 40
0.938289842
 40
1.0
 40
1.0
 40
1.0
 40
1.0
 10
10.8822806639
 20
8.2562918462
 30
0.0
 10
10.8822806639
 20
8.2542861705
 30
0.0
 10
10.8821846227
 20
8.2502805416
 30
0.0
 10
10.8817513601
 20
8.244296469
 30
0.0
 10
10.8810298791
 20
8.2383597805
 30
0.0
 10
10.8800219219
 20
8.2324845607
 30
0.0
 10
10.8787298793
 20
8.2266841273
 30
0.0
 10
10.8771565702
 20
8.2209718984
 30
0.0
 10
10.8753057052
 20
8.2153610502
 30
0.0
 10
10.873181527
 20
8.2098645113
 30
0.0
 10
10.8707888671
 20
8.2044949797
 30
0.0
 10
10.8681333199
 20
8.1992648038
 30
0.0
 10
10.8652209175
 20
8.1941860898
 30
0.0
 10
10.8620584109
 20
8.1892705298
 30
0.0
 10
10.8586531121
 20
8.1845294611
 30
0.0
 10
10.8550127663
 20
8.1799738355
 30
0.0
 10
10.8511460001
 20
8.175614233
 30
0.0
 10
10.8484225789
 20
8.1728447625
 30
0.0
 10
10.8470266773
 20
8.1714964362
 30
0.0
  0
SPLINE
  5
33B
100
AcDbEntity
  8
0
100
AcDbSpline
 62
7
  6
CONTINUOUS
 70
0
 71
3
 72
23
 73
19
 74
0
 42
0.0000001
 43
0.0000001
 44
0.0000000001
 40
0.0
 40
0.0
 40
0.0
 40
0.0
 40
0.0637764154
 40
0.1273451281
 40
0.190701988
 40
0.253856063
 40
0.3168132283
 40
0.3795820791
 40
0.4421733864
 40
0.5045993414
 40
0.5668738629
 40
0.629012379
 40
0.6910316532
 40
0.7529496461
 40
0.8147853522
 40
0.8765586034
 40
0.9382898574
 40
1.0
 40
1.0
 40
1.0
 40
1.0
 10
10.9981917699
 20
7.4330119555
 30
0.0
 10
10.9981917699
 20
7.4291548094
 30
0.0
 10
10.9980071307
 20
7.4214517724
 30
0.0
 10
10.9971738726
 20
7.4099440947
 30
0.0
 10
10.9957864445
 20
7.3985276051
 30
0.0
 10
10.9938481885
 20
7.3872291831
 30
0.0
 10
10.9913634436
 20
7.3760746052
 30
0.0
 10
10.9883379579
 20
7.3650896582
 30
0.0
 10
10.9847786909
 20
7.354299657
 30
0.0
 10
10.9806937723
 20
7.3437294947
 30
0.0
 10
10.9760926355
 20
7.3334035413
 30
0.0
 10
10.9709858836
 20
7.323345604
 30
0.0
 10
10.9653852499
 20
7.3135788985
 30
0.0
 10
10.9593036199
 20
7.3041259604
 30
0.0
 10
10.9527550619
 20
7.2950085969
 30
0.0
 10
10.9457545912
 20
7.2862477698
 30
0.0
 10
10.9383185955
 20
7.2778639901
 30
0.0
 10
10.9330813686
 20
7.2725380747
 30
0.0
 10
10.9303969817
 20
7.2699451552
 30
0.0
  0
SPLINE
  5
33C
100
AcDbEntity
  8
0
100
AcDbSpline
 62
7
  6
CONTINUOUS
 70
0
 71
3
 72
23
 73
19
 74
0
 42
0.0000001
 43
0.0000001
 44
0.0000000001
 40
0.0
 40
0.0
 40
0.0
 40
0.0
 40
0.0637764154
 40
0.1273451281
 40
0.190701988
 40
0.253856063
 40
0.3168132283
 40
0.3795820791
 40
0.4421733864
 40
0.5045993414
 40
0.5668738629
 40
0.629012379
 40
0.6910316532
 40
0.7529496461
 40
0.8147853522
 40
0.8765586034
 40
0.9382898574
 40
1.0
 40
1.0
 40
1.0
 40
1.0
 10
10.3046570482
 20
8.29635018
 30
0.0
 10
10.3046570482
 20
8.2924930339
 30
0.0
 10
10.304472409
 20
8.2847899969
 30
0.0
 10
10.3036391509
 20
8.2732823192
 30
0.0
 10
10.3022517227
 20
8.2618658296
 30
0.0
 10
10.3003134668
 20
8.2505674076
 30
0.0
 10
10.2978287219
 20
8.2394128297
 30
0.0
 10
10.2948032362
 20
8.2284278827
 30
0.0
 10
10.2912439692
 20
8.2176378815
 30
0.0
 10
10.2871590505
 20
8.2070677192
 30
0.0
 10
10.2825579137
 20
8.1967417658
 30
0.0
 10
10.2774511618
 20
8.1866838285
 30
0.0
 10
10.2718505281
 20
8.176917123
 30
0.0
 10
10.2657688982
 20
8.1674641849
 30
0.0
 10
10.2592203402
 20
8.1583468214
 30
0.0
 10
10.2522198695
 20
8.1495859943
 30
0.0
 10
10.2447838738
 20
8.1412022146
 30
0.0
 10
10.2395466469
 20
8.1358762992
 30
0.0
 10
10.2368622599
 20
8.1332833797
 30
0.0
  0
SPLINE
  5
33D
100
AcDbEntity
  8
0
100
AcDbSpline
 62
7
  6
CONTINUOUS
 70
0
 71
3
 72
23
 73
19
 74
0
 42
0.0000001
 43
0.0000001
 44
0.0000000001
 40
0.0
 40
0.0
 40
0.0
 40
0.0
 40
0.0637764154
 40
0.1273451281
 40
0.190701988
 40
0.253856063
 40
0.3168132283
 40
0.3795820791
 40
0.4421733864
 40
0.5045993414
 40
0.5668738629
 40
0.629012379
 40
0.6910316532
 40
0.7529496461
 40
0.8147853522
 40
0.8765586034
 40
0.9382898574
 40
1.0
 40
1.0
 40
1.0
 40
1.0
 10
11.6917266068
 20
8.2001565794
 30
0.0
 10
11.6917266068
 20
8.1962994333
 30
0.0
 10
11.6915419676
 20
8.1885963963
 30
0.0
 10
11.6907087095
 20
8.1770887186
 30
0.0
 10
11.6893212813
 20
8.165672229
 30
0.0
 10
11.6873830254
 20
8.154373807
 30
0.0
 10
11.6848982805
 20
8.1432192291
 30
0.0
 10
11.6818727948
 20
8.1322342821
 30
0.0
 10
11.6783135278
 20
8.1214442809
 30
0.0
 10
11.6742286091
 20
8.1108741186
 30
0.0
 10
11.6696274723
 20
8.1005481652
 30
0.0
 10
11.6645207204
 20
8.0904902279
 30
0.0
 10
11.6589200867
 20
8.0807235223
 30
0.0
 10
11.6528384568
 20
8.0712705843
 30
0.0
 10
11.6462898988
 20
8.0621532208
 30
0.0
 10
11.6392894281
 20
8.0533923937
 30
0.0
 10
11.6318534324
 20
8.045008614
 30
0.0
 10
11.6266162055
 20
8.0396826986
 30
0.0
 10
11.6239318186
 20
8.0370897791
 30
0.0
  0
SPLINE
  5
33E
100
AcDbEntity
  8
0
100
AcDbSpline
 62
7
  6
CONTINUOUS
 70
0
 71
3
 72
23
 73
19
 74
0
 42
0.0000001
 43
0.0000001
 44
0.0000000001
 40
0.0
 40
0.0
 40
0.0
 40
0.0
 40
0.0637764154
 40
0.1273451281
 40
0.190701988
 40
0.253856063
 40
0.3168132283
 40
0.3795820791
 40
0.4421733864
 40
0.5045993414
 40
0.5668738629
 40
0.629012379
 40
0.6910316532
 40
0.7529496461
 40
0.8147853522
 40
0.8765586034
 40
0.9382898574
 40
1.0
 40
1.0
 40
1.0
 40
1.0
 10
10.9981917699
 20
9.0634949271
 30
0.0
 10
10.9981917699
 20
9.0596377809
 30
0.0
 10
10.9980071307
 20
9.0519347439
 30
0.0
 10
10.9971738726
 20
9.0404270662
 30
0.0
 10
10.9957864445
 20
9.0290105767
 30
0.0
 10
10.9938481885
 20
9.0177121546
 30
0.0
 10
10.9913634436
 20
9.0065575767
 30
0.0
 10
10.9883379579
 20
8.9955726297
 30
0.0
 10
10.9847786909
 20
8.9847826285
 30
0.0
 10
10.9806937723
 20
8.9742124662
 30
0.0
 10
10.9760926355
 20
8.9638865128
 30
0.0
 10
10.9709858836
 20
8.9538285756
 30
0.0
 10
10.9653852499
 20
8.94406187
 30
0.0
 10
10.9593036199
 20
8.9346089319
 30
0.0
 10
10.9527550619
 20
8.9254915684
 30
0.0
 10
10.9457545912
 20
8.9167307413
 30
0.0
 10
10.9383185955
 20
8.9083469616
 30
0.0
 10
10.9330813686
 20
8.9030210462
 30
0.0
 10
10.9303969817
 20
8.9004281267
 30
0.0
  0
SPLINE
  5
33F
100
AcDbEntity
  8
0
100
AcDbSpline
 62
7
  6
CONTINUOUS
 70
0
 71
3
 72
39
 73
35
 74
0
 42
0.0000001
 43
0.0000001
 44
0.0000000001
 40
0.0
 40
0.0
 40
0.0
 40
0.0
 40
0.0314391531
 40
0.0627199251
 40
0.0938508685
 40
0.1248466263
 40
0.1557276782
 40
0.1865194344
 40
0.2172512285
 40
0.2479551053
 40
0.2786647094
 40
0.309414118
 40
0.3402368584
 40
0.3711649579
 40
0.4022280049
 40
0.4334522601
 40
0.4648596831
 40
0.4964666857
 40
0.5282826377
 40
0.5603081041
 40
0.5925328354
 40
0.6249334337
 40
0.6574709657
 40
0.6900890461
 40
0.7227128649
 40
0.7552498845
 40
0.7875931247
 40
0.8196271145
 40
0.8512362848
 40
0.882314772
 40
0.9127756907
 40
0.9425584778
 40
0.9716329583
 40
1.0
 40
1.0
 40
1.0
 40
1.0
 10
9.9557622605
 20
8.459343674
 30
0.0
 10
9.9557622605
 20
8.4544655011
 30
0.0
 10
9.9561043726
 20
8.4447301424
 30
0.0
 10
9.9576482487
 20
8.4302383187
 30
0.0
 10
9.9602068794
 20
8.4159600464
 30
0.0
 10
9.9637566194
 20
8.4019597399
 30
0.0
 10
9.9682661143
 20
8.3882941259
 30
0.0
 10
9.9736979671
 20
8.3750129141
 30
0.0
 10
9.9800104764
 20
8.3621581056
 30
0.0
 10
9.9871593423
 20
8.3497642589
 30
0.0
 10
9.9950991793
 20
8.3378590149
 30
0.0
 10
10.0037847561
 20
8.3264639122
 30
0.0
 10
10.0131719203
 20
8.3155953725
 30
0.0
 10
10.0232181854
 20
8.3052657542
 30
0.0
 10
10.0338830019
 20
8.2954844155
 30
0.0
 10
10.0451277305
 20
8.2862587308
 30
0.0
 10
10.056915333
 20
8.2775950468
 30
0.0
 10
10.0692097894
 20
8.2694995732
 30
0.0
 10
10.0819752371
 20
8.261979177
 30
0.0
 10
10.0951748638
 20
8.2550420408
 30
0.0
 10
10.10876958
 20
8.2486981881
 30
0.0
 10
10.1227165114
 20
8.2429598252
 30
0.0
 10
10.1369674301
 20
8.2378414299
 30
0.0
 10
10.1514673332
 20
8.2333595139
 30
0.0
 10
10.1661534552
 20
8.2295319957
 30
0.0
 10
10.1809550804
 20
8.2263771756
 30
0.0
 10
10.1957944656
 20
8.2239123802
 30
0.0
 10
10.2105890517
 20
8.2221524551
 30
0.0
 10
10.2252548169
 20
8.2211083856
 30
0.0
 10
10.2397103285
 20
8.2207863344
 30
0.0
 10
10.2538806696
 20
8.221187299
 30
0.0
 10
10.2677009263
 20
8.2223075604
 30
0.0
 10
10.2811170494
 20
8.2241394
 30
0.0
 10
10.2898704269
 20
8.2258491199
 30
0.0
 10
10.2941628891
 20
8.2268227436
 30
0.0
  0
SPLINE
  5
340
100
AcDbEntity
  8
0
100
AcDbSpline
 62
7
  6
CONTINUOUS
 70
0
 71
3
 72
35
 73
31
 74
0
 42
0.0000001
 43
0.0000001
 44
0.0000000001
 40
0.0
 40
0.0
 40
0.0
 40
0.0
 40
0.0306466324
 40
0.0612942392
 40
0.0919601621
 40
0.1226669723
 40
0.1534345022
 40
0.1842821854
 40
0.2152284022
 40
0.2462900301
 40
0.3088044004
 40
0.3719316808
 40
0.4357115862
 40
0.5001107088
 40
0.53251097
 40
0.5650070179
 40
0.5975625698
 40
0.6301326401
 40
0.6626635646
 40
0.6950939095
 40
0.7273564105
 40
0.7593804078
 40
0.7910949983
 40
0.8224326912
 40
0.8533331003
 40
0.8837462025
 40
0.9136348561
 40
0.9429762731
 40
0.9717624525
 40
1.0
 40
1.0
 40
1.0
 40
1.0
 10
11.3673560144
 20
8.2657854367
 30
0.0
 10
11.369110178
 20
8.2625059567
 30
0.0
 10
11.3727899353
 20
8.256036987
 30
0.0
 10
11.3787974693
 20
8.2466267099
 30
0.0
 10
11.3852710455
 20
8.2375216574
 30
0.0
 10
11.3921889433
 20
8.2287312917
 30
0.0
 10
11.3995305969
 20
8.220262641
 30
0.0
 10
11.4072757918
 20
8.2121216201
 30
0.0
 10
11.4154053033
 20
8.2043127547
 30
0.0
 10
11.4267545231
 20
8.1943290939
 30
0.0
 10
11.4418272076
 20
8.182694185
 30
0.0
 10
11.4611187724
 20
8.1701512708
 30
0.0
 10
11.4815174002
 20
8.1590205778
 30
0.0
 10
11.4992826088
 20
8.1509662033
 30
0.0
 10
11.5139020439
 20
8.1452604639
 30
0.0
 10
11.5250668345
 20
8.1413526004
 30
0.0
 10
11.5363815431
 20
8.1378334107
 30
0.0
 10
11.5478166573
 20
8.1347114322
 30
0.0
 10
11.5593393501
 20
8.1319955318
 30
0.0
 10
11.5709139605
 20
8.1296943711
 30
0.0
 10
11.5825023861
 20
8.1278160221
 30
0.0
 10
11.5940648761
 20
8.1263675019
 30
0.0
 10
11.6055610397
 20
8.1253543696
 30
0.0
 10
11.6169510506
 20
8.124780406
 30
0.0
 10
11.6281968955
 20
8.1246474242
 30
0.0
 10
11.6392635278
 20
8.124955277
 30
0.0
 10
11.6501197169
 20
8.1257020282
 30
0.0
 10
11.6607387274
 20
8.1268842755
 30
0.0
 10
11.6710980473
 20
8.128497428
 30
0.0
 10
11.6778837212
 20
8.1298696926
 30
0.0
 10
11.6812256502
 20
8.130627601
 30
0.0
  0
SPLINE
  5
341
100
AcDbEntity
  8
0
100
AcDbSpline
 62
7
  6
CONTINUOUS
 70
0
 71
3
 72
12
 73
8
 74
0
 42
0.0000001
 43
0.0000001
 44
0.0000000001
 40
0.0
 40
0.0
 40
0.0
 40
0.0
 40
0.248709755
 40
0.5017223605
 40
0.7537999004
 40
0.8779172696
 40
1.0
 40
1.0
 40
1.0
 40
1.0
 10
11.3526941211
 20
8.3726763261
 30
0.0
 10
11.3526941211
 20
8.3637094919
 30
0.0
 10
11.3534098457
 20
8.3456146008
 30
0.0
 10
11.3564083877
 20
8.3185845512
 30
0.0
 10
11.3603263691
 20
8.2962258208
 30
0.0
 10
11.3641522462
 20
8.2786719114
 30
0.0
 10
11.3662606597
 20
8.2700484623
 30
0.0
 10
11.3673560144
 20
8.2657854367
 30
0.0
  0
SPLINE
  5
342
100
AcDbEntity
  8
0
100
AcDbSpline
 62
7
  6
CONTINUOUS
 70
0
 71
3
 72
14
 73
10
 74
0
 42
0.0000001
 43
0.0000001
 44
0.0000000001
 40
0.0
 40
0.0
 40
0.0
 40
0.0
 40
0.1111800486
 40
0.2269094299
 40
0.3469419103
 40
0.4709806298
 40
0.5986883164
 40
0.7296971599
 40
1.0
 40
1.0
 40
1.0
 40
1.0
 10
11.3622355501
 20
8.4478727356
 30
0.0
 10
11.3614828919
 20
8.4451577504
 30
0.0
 10
11.3600500525
 20
8.4395875506
 30
0.0
 10
11.3581657899
 20
8.4309983005
 30
0.0
 10
11.3565259137
 20
8.4220274711
 30
0.0
 10
11.3551522184
 20
8.4127052024
 30
0.0
 10
11.3540635387
 20
8.4030652443
 30
0.0
 10
11.353001459
 20
8.3896999167
 30
0.0
 10
11.3526941211
 20
8.3795259925
 30
0.0
 10
11.3526941211
 20
8.3726763261
 30
0.0
  0
SPLINE
  5
343
100
AcDbEntity
  8
0
100
AcDbSpline
 62
7
  6
CONTINUOUS
 70
0
 71
3
 72
87
 73
83
 74
0
 42
0.0000001
 43
0.0000001
 44
0.0000000001
 40
0.0
 40
0.0
 40
0.0
 40
0.0
 40
0.0036898855
 40
0.0075220087
 40
0.0114998335
 40
0.0156262604
 40
0.0199036543
 40
0.0243338671
 40
0.0289183694
 40
0.0336582144
 40
0.0385541043
 40
0.0436064674
 40
0.0488153964
 40
0.0541807535
 40
0.0597021761
 40
0.0653790405
 40
0.0712105692
 40
0.077195778
 40
0.0896221309
 40
0.1026473382
 40
0.1162580457
 40
0.1304388775
 40
0.145172668
 40
0.1604406497
 40
0.1762225893
 40
0.1924968918
 40
0.2092407389
 40
0.2264301959
 40
0.2440402898
 40
0.2620450806
 40
0.2804177644
 40
0.2991307494
 40
0.3181557145
 40
0.3374636759
 40
0.3570250719
 40
0.3768098262
 40
0.3967874033
 40
0.4169268763
 40
0.4371969998
 40
0.4575662688
 40
0.4780029774
 40
0.4984752872
 40
0.518951292
 40
0.5393990756
 40
0.5597867775
 40
0.5800826592
 40
0.6002551627
 40
0.620272971
 40
0.6401050822
 40
0.6597208697
 40
0.6790901399
 40
0.6981831983
 40
0.7169709321
 40
0.7354248651
 40
0.7535172198
 40
0.771220997
 40
0.7885100661
 40
0.8053592244
 40
0.8217442736
 40
0.8376421261
 40
0.8530309147
 40
0.8678900767
 40
0.882200474
 40
0.8959445604
 40
0.9091065498
 40
0.9216725902
 40
0.92772854
 40
0.9336313423
 40
0.9393799135
 40
0.9449733697
 40
0.9504110358
 40
0.9556924013
 40
0.9608172342
 40
0.9657855353
 40
0.9705975481
 40
0.9752538491
 40
0.9797553013
 40
0.984103183
 40
0.988299259
 40
0.9923456854
 40
0.9962449551
 40
1.0
 40
1.0
 40
1.0
 40
1.0
 10
13.0998424593
 20
7.8120648601
 30
0.0
 10
13.0989771044
 20
7.8131288632
 30
0.0
 10
13.0972578902
 20
7.8153346932
 30
0.0
 10
13.0947589193
 20
7.8188034718
 30
0.0
 10
13.0922926972
 20
7.8224924409
 30
0.0
 10
13.089860284
 20
7.8264000353
 30
0.0
 10
13.0874626488
 20
7.8305246874
 30
0.0
 10
13.0851007168
 20
7.8348646842
 30
0.0
 10
13.0827754888
 20
7.839418272
 30
0.0
 10
13.0804878947
 20
7.8441835736
 30
0.0
 10
13.0782388516
 20
7.8491586263
 30
0.0
 10
13.0760293283
 20
7.8543413994
 30
0.0
 10
13.0738601951
 20
7.8597297436
 30
0.0
 10
13.0717323593
 20
7.865321441
 30
0.0
 10
13.0696467247
 20
7.8711141897
 30
0.0
 10
13.0676041184
 20
7.877105583
 30
0.0
 10
13.0656054064
 20
7.8832931594
 30
0.0
 10
13.0629670939
 20
7.8919093586
 30
0.0
 10
13.0597925848
 20
7.9031561549
 30
0.0
 10
13.0562170967
 20
7.9172293696
 30
0.0
 10
13.0528354803
 20
7.9320200398
 30
0.0
 10
13.0496533886
 20
7.9475036354
 30
0.0
 10
13.0466761562
 20
7.9636545776
 30
0.0
 10
13.0439087827
 20
7.9804461211
 30
0.0
 10
13.0413559241
 20
7.9978504451
 30
0.0
 10
13.0390218553
 20
8.0158386832
 30
0.0
 10
13.0369104921
 20
8.0343809865
 30
0.0
 10
13.0350253836
 20
8.0534465811
 30
0.0
 10
13.0333697025
 20
8.0730038128
 30
0.0
 10
13.0319462187
 20
8.0930201981
 30
0.0
 10
13.030757322
 20
8.1134624865
 30
0.0
 10
13.0298050169
 20
8.1342967192
 30
0.0
 10
13.0290909102
 20
8.1554882799
 30
0.0
 10
13.0286161965
 20
8.1770019525
 30
0.0
 10
13.0283816791
 20
8.1988019846
 30
0.0
 10
13.028387768
 20
8.2208521481
 30
0.0
 10
13.0286344648
 20
8.2431157956
 30
0.0
 10
13.0291213601
 20
8.2655559225
 30
0.0
 10
13.029847652
 20
8.2881352309
 30
0.0
 10
13.0308121471
 20
8.3108161914
 30
0.0
 10
13.0320132442
 20
8.3335611043
 30
0.0
 10
13.0334489424
 20
8.3563321634
 30
0.0
 10
13.0351168572
 20
8.3790915191
 30
0.0
 10
13.0370142248
 20
8.4018013405
 30
0.0
 10
13.0391378842
 20
8.4244238804
 30
0.0
 10
13.0414842972
 20
8.4469215377
 30
0.0
 10
13.0440495603
 20
8.4692569182
 30
0.0
 10
13.0468294121
 20
8.4913928969
 30
0.0
 10
13.0498192166
 20
8.5132926848
 30
0.0
 10
13.0530139911
 20
8.5349198875
 30
0.0
 10
13.0564084167
 20
8.5562385617
 30
0.0
 10
13.0599968463
 20
8.5772132786
 30
0.0
 10
13.0637732912
 20
8.5978091891
 30
0.0
 10
13.067731455
 20
8.6179920762
 30
0.0
 10
13.0718647438
 20
8.6377284081
 30
0.0
 10
13.0761662723
 20
8.6569854006
 30
0.0
 10
13.0806288571
 20
8.6757310793
 30
0.0
 10
13.0852450534
 20
8.6939343237
 30
0.0
 10
13.0900071663
 20
8.7115649169
 30
0.0
 10
13.0949072532
 20
8.728593608
 30
0.0
 10
13.0999371277
 20
8.7449921663
 30
0.0
 10
13.1050883949
 20
8.7607334228
 30
0.0
 10
13.110352468
 20
8.7757913027
 30
0.0
 10
13.1157205671
 20
8.7901409373
 30
0.0
 10
13.1211837314
 20
8.8037585401
 30
0.0
 10
13.1258637697
 20
8.8146073562
 30
0.0
 10
13.1296539357
 20
8.8228978324
 30
0.0
 10
13.1324796324
 20
8.8288422103
 30
0.0
 10
13.135322265
 20
8.8345873372
 30
0.0
 10
13.1381806707
 20
8.8401308406
 30
0.0
 10
13.1410536311
 20
8.8454704391
 30
0.0
 10
13.1439399982
 20
8.8506039112
 30
0.0
 10
13.1468385547
 20
8.8555291523
 30
0.0
 10
13.1497481022
 20
8.8602441385
 30
0.0
 10
13.1526674771
 20
8.8647469051
 30
0.0
 10
13.1555954262
 20
8.8690356166
 30
0.0
 10
13.158530767
 20
8.8731084998
 30
0.0
 10
13.1614723387
 20
8.8769638956
 30
0.0
 10
13.1644189502
 20
8.8806002815
 30
0.0
 10
13.1673694786
 20
8.8840161427
 30
0.0
 10
13.1703225448
 20
8.8872099424
 30
0.0
 10
13.1723293793
 20
8.8892276698
 30
0.0
 10
13.1733332379
 20
8.8901973228
 30
0.0
  0
SPLINE
  5
344
100
AcDbEntity
  8
0
100
AcDbSpline
 62
7
  6
CONTINUOUS
 70
0
 71
3
 72
45
 73
41
 74
0
 42
0.0000001
 43
0.0000001
 44
0.0000000001
 40
0.0
 40
0.0
 40
0.0
 40
0.0
 40
0.0149721379
 40
0.0299473343
 40
0.0449286317
 40
0.0599190303
 40
0.0749214809
 40
0.089938856
 40
0.1049739397
 40
0.1200294108
 40
0.1351078203
 40
0.1502115887
 40
0.1653429784
 40
0.1805040926
 40
0.2109173739
 40
0.2414702831
 40
0.2721727342
 40
0.3030312377
 40
0.3340488046
 40
0.365224933
 40
0.396555672
 40
0.4280337568
 40
0.4596488082
 40
0.4913875919
 40
0.5232343248
 40
0.5551710235
 40
0.5871778874
 40
0.6192337084
 40
0.6513163011
 40
0.6834029486
 40
0.7154708537
 40
0.7474975916
 40
0.7794615572
 40
0.8113424013
 40
0.8431214485
 40
0.8747820968
 40
0.9063101458
 40
0.9376942762
 40
0.9689257414
 40
1.0
 40
1.0
 40
1.0
 40
1.0
 10
12.0907513093
 20
7.1637147658
 30
0.0
 10
12.0932068142
 20
7.1660865994
 30
0.0
 10
12.0982132186
 20
7.1707336296
 30
0.0
 10
12.1059946749
 20
7.1774010456
 30
0.0
 10
12.1140381691
 20
7.1837568642
 30
0.0
 10
12.1223324398
 20
7.1897922364
 30
0.0
 10
12.130866113
 20
7.1954989024
 30
0.0
 10
12.1396274641
 20
7.2008689488
 30
0.0
 10
12.1486043847
 20
7.2058950837
 30
0.0
 10
12.157784576
 20
7.210570284
 30
0.0
 10
12.1671553647
 20
7.2148882265
 30
0.0
 10
12.1767038363
 20
7.218842897
 30
0.0
 10
12.1864170336
 20
7.2224289201
 30
0.0
 10
12.1995815401
 20
7.2267161754
 30
0.0
 10
12.2163893194
 20
7.2311288652
 30
0.0
 10
12.2369733129
 20
7.2348752239
 30
0.0
 10
12.2578835821
 20
7.2370591886
 30
0.0
 10
12.2790042739
 20
7.2376687422
 30
0.0
 10
12.3002194433
 20
7.2367008816
 30
0.0
 10
12.3214124154
 20
7.2341611684
 30
0.0
 10
12.3424667627
 20
7.2300638083
 30
0.0
 10
12.363266844
 20
7.2244315332
 30
0.0
 10
12.3836984616
 20
7.2172954927
 30
0.0
 10
12.4036494694
 20
7.2086950562
 30
0.0
 10
12.423010381
 20
7.1986775971
 30
0.0
 10
12.4416749606
 20
7.1872982301
 30
0.0
 10
12.4595407983
 20
7.174619511
 30
0.0
 10
12.4765098618
 20
7.1607110931
 30
0.0
 10
12.4924890399
 20
7.1456493615
 30
0.0
 10
12.5073906424
 20
7.1295170072
 30
0.0
 10
12.5211328719
 20
7.1124025732
 30
0.0
 10
12.5336402686
 20
7.0943999753
 30
0.0
 10
12.5448441208
 20
7.075607994
 30
0.0
 10
12.5546828355
 20
7.0561297344
 30
0.0
 10
12.5631022877
 20
7.036072086
 30
0.0
 10
12.570056109
 20
7.0155450977
 30
0.0
 10
12.5755059733
 20
6.9946615372
 30
0.0
 10
12.5794216917
 20
6.9735356901
 30
0.0
 10
12.5817816353
 20
6.9522850588
 30
0.0
 10
12.5823102014
 20
6.9380726153
 30
0.0
 10
12.5823102014
 20
6.930987043
 30
0.0
  0
SPLINE
  5
345
100
AcDbEntity
  8
0
100
AcDbSpline
 62
7
  6
CONTINUOUS
 70
0
 71
3
 72
45
 73
41
 74
0
 42
0.0000001
 43
0.0000001
 44
0.0000000001
 40
0.0
 40
0.0
 40
0.0
 40
0.0
 40
0.0149721379
 40
0.0299473343
 40
0.0449286317
 40
0.0599190303
 40
0.0749214809
 40
0.089938856
 40
0.1049739397
 40
0.1200294108
 40
0.1351078203
 40
0.1502115887
 40
0.1653429784
 40
0.1805040926
 40
0.2109173739
 40
0.2414702831
 40
0.2721727342
 40
0.3030312377
 40
0.3340488046
 40
0.365224933
 40
0.396555672
 40
0.4280337568
 40
0.4596488082
 40
0.4913875919
 40
0.5232343248
 40
0.5551710235
 40
0.5871778874
 40
0.6192337084
 40
0.6513163011
 40
0.6834029486
 40
0.7154708537
 40
0.7474975916
 40
0.7794615572
 40
0.8113424013
 40
0.8431214485
 40
0.8747820968
 40
0.9063101458
 40
0.9376942762
 40
0.9689257414
 40
1.0
 40
1.0
 40
1.0
 40
1.0
 10
9.0113795125
 20
7.3772699252
 30
0.0
 10
9.0138350173
 20
7.3796417588
 30
0.0
 10
9.0188414218
 20
7.3842887891
 30
0.0
 10
9.026622878
 20
7.3909562051
 30
0.0
 10
9.0346663723
 20
7.3973120236
 30
0.0
 10
9.042960643
 20
7.4033473958
 30
0.0
 10
9.0514943162
 20
7.4090540619
 30
0.0
 10
9.0602556673
 20
7.4144241083
 30
0.0
 10
9.0692325879
 20
7.4194502431
 30
0.0
 10
9.0784127792
 20
7.4241254434
 30
0.0
 10
9.0877835679
 20
7.4284433859
 30
0.0
 10
9.0973320395
 20
7.4323980564
 30
0.0
 10
9.1070452368
 20
7.4359840795
 30
0.0
 10
9.1202097432
 20
7.4402713348
 30
0.0
 10
9.1370175225
 20
7.4446840247
 30
0.0
 10
9.1576015161
 20
7.4484303833
 30
0.0
 10
9.1785117853
 20
7.450614348
 30
0.0
 10
9.1996324771
 20
7.4512239017
 30
0.0
 10
9.2208476465
 20
7.450256041
 30
0.0
 10
9.2420406186
 20
7.4477163278
 30
0.0
 10
9.2630949659
 20
7.4436189678
 30
0.0
 10
9.2838950472
 20
7.4379866927
 30
0.0
 10
9.3043266648
 20
7.4308506521
 30
0.0
 10
9.3242776726
 20
7.4222502157
 30
0.0
 10
9.3436385842
 20
7.4122327565
 30
0.0
 10
9.3623031638
 20
7.4008533895
 30
0.0
 10
9.3801690015
 20
7.3881746704
 30
0.0
 10
9.397138065
 20
7.3742662525
 30
0.0
 10
9.4131172431
 20
7.3592045209
 30
0.0
 10
9.4280188456
 20
7.3430721666
 30
0.0
 10
9.4417610751
 20
7.3259577326
 30
0.0
 10
9.4542684718
 20
7.3079551348
 30
0.0
 10
9.4654723239
 20
7.2891631534
 30
0.0
 10
9.4753110387
 20
7.2696848938
 30
0.0
 10
9.4837304909
 20
7.2496272455
 30
0.0
 10
9.4906843122
 20
7.2291002572
 30
0.0
 10
9.4961341765
 20
7.2082166966
 30
0.0
 10
9.5000498949
 20
7.1870908496
 30
0.0
 10
9.5024098385
 20
7.1658402183
 30
0.0
 10
9.5029384045
 20
7.1516277747
 30
0.0
 10
9.5029384045
 20
7.1445422024
 30
0.0
  0
SPLINE
  5
346
100
AcDbEntity
  8
0
100
AcDbSpline
 62
7
  6
CONTINUOUS
 70
0
 71
3
 72
45
 73
41
 74
0
 42
0.0000001
 43
0.0000001
 44
0.0000000001
 40
0.0
 40
0.0
 40
0.0
 40
0.0
 40
0.0149721379
 40
0.0299473343
 40
0.0449286317
 40
0.0599190303
 40
0.0749214809
 40
0.089938856
 40
0.1049739397
 40
0.1200294108
 40
0.1351078203
 40
0.1502115887
 40
0.1653429784
 40
0.1805040926
 40
0.2109173739
 40
0.2414702831
 40
0.2721727342
 40
0.3030312377
 40
0.3340488046
 40
0.365224933
 40
0.396555672
 40
0.4280337568
 40
0.4596488082
 40
0.4913875919
 40
0.5232343248
 40
0.5551710235
 40
0.5871778874
 40
0.6192337084
 40
0.6513163011
 40
0.6834029486
 40
0.7154708537
 40
0.7474975916
 40
0.7794615572
 40
0.8113424013
 40
0.8431214485
 40
0.8747820968
 40
0.9063101458
 40
0.9376942762
 40
0.9689257414
 40
1.0
 40
1.0
 40
1.0
 40
1.0
 10
9.0113795125
 20
9.792084634
 30
0.0
 10
9.0138350173
 20
9.7944564676
 30
0.0
 10
9.0188414218
 20
9.7991034979
 30
0.0
 10
9.026622878
 20
9.8057709139
 30
0.0
 10
9.0346663723
 20
9.8121267324
 30
0.0
 10
9.042960643
 20
9.8181621046
 30
0.0
 10
9.0514943162
 20
9.8238687707
 30
0.0
 10
9.0602556673
 20
9.8292388171
 30
0.0
 10
9.0692325879
 20
9.8342649519
 30
0.0
 10
9.0784127792
 20
9.8389401522
 30
0.0
 10
9.0877835679
 20
9.8432580947
 30
0.0
 10
9.0973320395
 20
9.8472127653
 30
0.0
 10
9.1070452368
 20
9.8507987883
 30
0.0
 10
9.1202097432
 20
9.8550860436
 30
0.0
 10
9.1370175225
 20
9.8594987335
 30
0.0
 10
9.1576015161
 20
9.8632450921
 30
0.0
 10
9.1785117853
 20
9.8654290568
 30
0.0
 10
9.1996324771
 20
9.8660386105
 30
0.0
 10
9.2208476465
 20
9.8650707498
 30
0.0
 10
9.2420406186
 20
9.8625310366
 30
0.0
 10
9.2630949659
 20
9.8584336766
 30
0.0
 10
9.2838950472
 20
9.8528014015
 30
0.0
 10
9.3043266648
 20
9.8456653609
 30
0.0
 10
9.3242776726
 20
9.8370649245
 30
0.0
 10
9.3436385842
 20
9.8270474653
 30
0.0
 10
9.3623031638
 20
9.8156680983
 30
0.0
 10
9.3801690015
 20
9.8029893792
 30
0.0
 10
9.397138065
 20
9.7890809614
 30
0.0
 10
9.4131172431
 20
9.7740192297
 30
0.0
 10
9.4280188456
 20
9.7578868754
 30
0.0
 10
9.4417610751
 20
9.7407724414
 30
0.0
 10
9.4542684718
 20
9.7227698436
 30
0.0
 10
9.4654723239
 20
9.7039778622
 30
0.0
 10
9.4753110387
 20
9.6844996026
 30
0.0
 10
9.4837304909
 20
9.6644419543
 30
0.0
 10
9.4906843122
 20
9.643914966
 30
0.0
 10
9.4961341765
 20
9.6230314054
 30
0.0
 10
9.5000498949
 20
9.6019055584
 30
0.0
 10
9.5024098385
 20
9.5806549271
 30
0.0
 10
9.5029384045
 20
9.5664424835
 30
0.0
 10
9.5029384045
 20
9.5593569112
 30
0.0
  0
SPLINE
  5
347
100
AcDbEntity
  8
0
100
AcDbSpline
 62
7
  6
CONTINUOUS
 70
0
 71
3
 72
45
 73
41
 74
0
 42
0.0000001
 43
0.0000001
 44
0.0000000001
 40
0.0
 40
0.0
 40
0.0
 40
0.0
 40
0.0149721379
 40
0.0299473343
 40
0.0449286317
 40
0.0599190303
 40
0.0749214809
 40
0.089938856
 40
0.1049739397
 40
0.1200294108
 40
0.1351078203
 40
0.1502115887
 40
0.1653429784
 40
0.1805040926
 40
0.2109173739
 40
0.2414702831
 40
0.2721727342
 40
0.3030312377
 40
0.3340488046
 40
0.365224933
 40
0.396555672
 40
0.4280337568
 40
0.4596488082
 40
0.4913875919
 40
0.5232343248
 40
0.5551710235
 40
0.5871778874
 40
0.6192337084
 40
0.6513163011
 40
0.6834029486
 40
0.7154708537
 40
0.7474975916
 40
0.7794615572
 40
0.8113424013
 40
0.8431214485
 40
0.8747820968
 40
0.9063101458
 40
0.9376942762
 40
0.9689257414
 40
1.0
 40
1.0
 40
1.0
 40
1.0
 10
12.0907513093
 20
9.5785294746
 30
0.0
 10
12.0932068142
 20
9.5809013082
 30
0.0
 10
12.0982132186
 20
9.5855483384
 30
0.0
 10
12.1059946749
 20
9.5922157544
 30
0.0
 10
12.1140381691
 20
9.598571573
 30
0.0
 10
12.1223324398
 20
9.6046069452
 30
0.0
 10
12.130866113
 20
9.6103136112
 30
0.0
 10
12.1396274641
 20
9.6156836577
 30
0.0
 10
12.1486043847
 20
9.6207097925
 30
0.0
 10
12.157784576
 20
9.6253849928
 30
0.0
 10
12.1671553647
 20
9.6297029353
 30
0.0
 10
12.1767038363
 20
9.6336576058
 30
0.0
 10
12.1864170336
 20
9.6372436289
 30
0.0
 10
12.1995815401
 20
9.6415308842
 30
0.0
 10
12.2163893194
 20
9.6459435741
 30
0.0
 10
12.2369733129
 20
9.6496899327
 30
0.0
 10
12.2578835821
 20
9.6518738974
 30
0.0
 10
12.2790042739
 20
9.652483451
 30
0.0
 10
12.3002194433
 20
9.6515155904
 30
0.0
 10
12.3214124154
 20
9.6489758772
 30
0.0
 10
12.3424667627
 20
9.6448785171
 30
0.0
 10
12.363266844
 20
9.639246242
 30
0.0
 10
12.3836984616
 20
9.6321102015
 30
0.0
 10
12.4036494694
 20
9.6235097651
 30
0.0
 10
12.423010381
 20
9.6134923059
 30
0.0
 10
12.4416749606
 20
9.6021129389
 30
0.0
 10
12.4595407983
 20
9.5894342198
 30
0.0
 10
12.4765098618
 20
9.5755258019
 30
0.0
 10
12.4924890399
 20
9.5604640703
 30
0.0
 10
12.5073906424
 20
9.544331716
 30
0.0
 10
12.5211328719
 20
9.527217282
 30
0.0
 10
12.5336402686
 20
9.5092146841
 30
0.0
 10
12.5448441208
 20
9.4904227028
 30
0.0
 10
12.5546828355
 20
9.4709444432
 30
0.0
 10
12.5631022877
 20
9.4508867948
 30
0.0
 10
12.570056109
 20
9.4303598065
 30
0.0
 10
12.5755059733
 20
9.409476246
 30
0.0
 10
12.5794216917
 20
9.3883503989
 30
0.0
 10
12.5817816353
 20
9.3670997676
 30
0.0
 10
12.5823102014
 20
9.3528873241
 30
0.0
 10
12.5823102014
 20
9.3458017518
 30
0.0
  0
SPLINE
  5
348
100
AcDbEntity
  8
0
100
AcDbSpline
 62
7
  6
CONTINUOUS
 70
0
 71
3
 72
41
 73
37
 74
0
 42
0.0000001
 43
0.0000001
 44
0.0000000001
 40
0.0
 40
0.0
 40
0.0
 40
0.0
 40
0.0299421756
 40
0.0599087291
 40
0.0899234427
 40
0.12000893
 40
0.1501860972
 40
0.1804736576
 40
0.2108877103
 40
0.2414413945
 40
0.2721446252
 40
0.3030039132
 40
0.3340222692
 40
0.3651991907
 40
0.3965307261
 40
0.4280096099
 40
0.4596254632
 40
0.491365051
 40
0.5232125895
 40
0.5551500944
 40
0.5871577641
 40
0.61921439
 40
0.6512977872
 40
0.6833852384
 40
0.715453946
 40
0.7314766505
 40
0.7474863166
 40
0.7794510815
 40
0.8113327211
 40
0.8272389267
 40
0.8431175145
 40
0.8747789379
 40
0.9063078385
 40
0.9376925801
 40
0.9689252405
 40
1.0
 40
1.0
 40
1.0
 40
1.0
 10
11.5415227887
 20
9.5361305772
 30
0.0
 10
11.543679447
 20
9.538213732
 30
0.0
 10
11.548162376
 20
9.5422118878
 30
0.0
 10
11.5553446898
 20
9.5476586855
 30
0.0
 10
11.5629482457
 20
9.5525277549
 30
0.0
 10
11.5709305499
 20
9.5567917911
 30
0.0
 10
11.5792477191
 20
9.5604274963
 30
0.0
 10
11.5878538514
 20
9.5634148861
 30
0.0
 10
11.5967015227
 20
9.565737615
 30
0.0
 10
11.6057419889
 20
9.5673830019
 30
0.0
 10
11.6149254753
 20
9.5683421092
 30
0.0
 10
11.6242014473
 20
9.5686097805
 30
0.0
 10
11.6335188899
 20
9.5681846633
 30
0.0
 10
11.6428265859
 20
9.5670692103
 30
0.0
 10
11.6520733954
 20
9.5652696604
 30
0.0
 10
11.6612085332
 20
9.5627960002
 30
0.0
 10
11.670181844
 20
9.5596619061
 30
0.0
 10
11.6789440743
 20
9.5558846678
 30
0.0
 10
11.6874471388
 20
9.5514850903
 30
0.0
 10
11.6956443796
 20
9.546487382
 30
0.0
 10
11.7034908238
 20
9.5409190134
 30
0.0
 10
11.7109434081
 20
9.5348105961
 30
0.0
 10
11.7179612822
 20
9.5281956103
 30
0.0
 10
11.7245057702
 20
9.5211106142
 30
0.0
 10
11.7295372064
 20
9.5148444089
 30
0.0
 10
11.7332911571
 20
9.509635967
 30
0.0
 10
11.7368561918
 20
9.5043089366
 30
0.0
 10
11.7409549451
 20
9.4974343014
 30
0.0
 10
11.7445588306
 20
9.4902993144
 30
0.0
 10
11.747129627
 20
9.4844636721
 30
0.0
 10
11.7494848481
 20
9.4785615214
 30
0.0
 10
11.7520277597
 20
9.4710552401
 30
0.0
 10
11.7544211807
 20
9.4618836107
 30
0.0
 10
11.7561409618
 20
9.4526053239
 30
0.0
 10
11.7571773794
 20
9.4432723161
 30
0.0
 10
11.7574095318
 20
9.4370303681
 30
0.0
 10
11.7574095318
 20
9.4339184984
 30
0.0
  0
SPLINE
  5
349
100
AcDbEntity
  8
0
100
AcDbSpline
 62
7
  6
CONTINUOUS
 70
0
 71
3
 72
41
 73
37
 74
0
 42
0.0000001
 43
0.0000001
 44
0.0000000001
 40
0.0
 40
0.0
 40
0.0
 40
0.0
 40
0.0299421756
 40
0.0599087291
 40
0.0899234427
 40
0.12000893
 40
0.1501860972
 40
0.1804736576
 40
0.2108877103
 40
0.2414413945
 40
0.2721446252
 40
0.3030039132
 40
0.3340222692
 40
0.3651991907
 40
0.3965307261
 40
0.4280096099
 40
0.4596254632
 40
0.491365051
 40
0.5232125895
 40
0.5551500944
 40
0.5871577641
 40
0.61921439
 40
0.6512977872
 40
0.6833852384
 40
0.715453946
 40
0.7314766505
 40
0.7474863166
 40
0.7794510815
 40
0.8113327211
 40
0.8272389267
 40
0.8431175145
 40
0.8747789379
 40
0.9063078385
 40
0.9376925801
 40
0.9689252405
 40
1.0
 40
1.0
 40
1.0
 40
1.0
 10
10.6663939207
 20
8.358503925
 30
0.0
 10
10.668550579
 20
8.3605870798
 30
0.0
 10
10.673033508
 20
8.3645852356
 30
0.0
 10
10.6802158218
 20
8.3700320334
 30
0.0
 10
10.6878193777
 20
8.3749011027
 30
0.0
 10
10.6958016819
 20
8.3791651389
 30
0.0
 10
10.7041188511
 20
8.3828008441
 30
0.0
 10
10.7127249835
 20
8.3857882339
 30
0.0
 10
10.7215726547
 20
8.3881109628
 30
0.0
 10
10.7306131209
 20
8.3897563497
 30
0.0
 10
10.7397966073
 20
8.390715457
 30
0.0
 10
10.7490725793
 20
8.3909831283
 30
0.0
 10
10.7583900219
 20
8.3905580111
 30
0.0
 10
10.7676977179
 20
8.3894425581
 30
0.0
 10
10.7769445274
 20
8.3876430082
 30
0.0
 10
10.7860796652
 20
8.385169348
 30
0.0
 10
10.795052976
 20
8.382035254
 30
0.0
 10
10.8038152063
 20
8.3782580156
 30
0.0
 10
10.8123182708
 20
8.3738584381
 30
0.0
 10
10.8205155117
 20
8.3688607298
 30
0.0
 10
10.8283619558
 20
8.3632923612
 30
0.0
 10
10.8358145401
 20
8.3571839439
 30
0.0
 10
10.8428324143
 20
8.3505689581
 30
0.0
 10
10.8493769022
 20
8.3434839621
 30
0.0
 10
10.8544083384
 20
8.3372177567
 30
0.0
 10
10.8581622891
 20
8.3320093149
 30
0.0
 10
10.8617273238
 20
8.3266822844
 30
0.0
 10
10.8658260771
 20
8.3198076492
 30
0.0
 10
10.8694299627
 20
8.3126726623
 30
0.0
 10
10.8720007591
 20
8.3068370199
 30
0.0
 10
10.8743559802
 20
8.3009348693
 30
0.0
 10
10.8768988917
 20
8.2934285879
 30
0.0
 10
10.8792923128
 20
8.2842569585
 30
0.0
 10
10.8810120938
 20
8.2749786717
 30
0.0
 10
10.8820485114
 20
8.2656456639
 30
0.0
 10
10.8822806639
 20
8.2594037159
 30
0.0
 10
10.8822806639
 20
8.2562918462
 30
0.0
  0
SPLINE
  5
34A
100
AcDbEntity
  8
0
100
AcDbSpline
 62
7
  6
CONTINUOUS
 70
0
 71
3
 72
42
 73
38
 74
0
 42
0.0000001
 43
0.0000001
 44
0.0000000001
 40
0.0
 40
0.0
 40
0.0
 40
0.0
 40
0.0149723971
 40
0.029947854
 40
0.0449294092
 40
0.0599200692
 40
0.0749227779
 40
0.0899404136
 40
0.1200256609
 40
0.1502025864
 40
0.1804899033
 40
0.2109037105
 40
0.2414571471
 40
0.2721601282
 40
0.3030191646
 40
0.3340372675
 40
0.3652139349
 40
0.3965452155
 40
0.4280238444
 40
0.459639443
 40
0.4913787765
 40
0.5232260611
 40
0.5551633129
 40
0.5871707307
 40
0.6192271064
 40
0.6513102549
 40
0.683397459
 40
0.7154659208
 40
0.7474932143
 40
0.7794577337
 40
0.8113391302
 40
0.8431187274
 40
0.8747799267
 40
0.906308519
 40
0.9376931951
 40
0.9689252215
 40
1.0
 40
1.0
 40
1.0
 40
1.0
 10
10.5830236163
 20
7.6295723497
 30
0.0
 10
10.5850975222
 20
7.6315755895
 30
0.0
 10
10.5893258714
 20
7.6355004868
 30
0.0
 10
10.5958980788
 20
7.6411317166
 30
0.0
 10
10.602691551
 20
7.6464998488
 30
0.0
 10
10.6096968271
 20
7.6515972779
 30
0.0
 10
10.6169044235
 20
7.6564171432
 30
0.0
 10
10.6267754417
 20
7.6624674684
 30
0.0
 10
10.6395771572
 20
7.6693062588
 30
0.0
 10
10.6555713264
 20
7.6762978804
 30
0.0
 10
10.6721216984
 20
7.6820430591
 30
0.0
 10
10.6891364475
 20
7.6865099469
 30
0.0
 10
10.7065220015
 20
7.6896742703
 30
0.0
 10
10.7241825932
 20
7.6915188119
 30
0.0
 10
10.7420210525
 20
7.692033664
 30
0.0
 10
10.7599392693
 20
7.6912162232
 30
0.0
 10
10.7778387496
 20
7.6890712059
 30
0.0
 10
10.7956211463
 20
7.6856106083
 30
0.0
 10
10.8131887943
 20
7.6808536336
 30
0.0
 10
10.8304452395
 20
7.6748265815
 30
0.0
 10
10.8472957632
 20
7.6675627033
 30
0.0
 10
10.8636478932
 20
7.6591020107
 30
0.0
 10
10.8794119039
 20
7.649491056
 30
0.0
 10
10.8945013019
 20
7.6387826766
 30
0.0
 10
10.9088332949
 20
7.6270357064
 30
0.0
 10
10.9223292394
 20
7.6143146557
 30
0.0
 10
10.9349150683
 20
7.6006893595
 30
0.0
 10
10.9465216921
 20
7.5862345986
 30
0.0
 10
10.9570853752
 20
7.5710296936
 30
0.0
 10
10.9665480877
 20
7.5551580778
 30
0.0
 10
10.9748578151
 20
7.5387068374
 30
0.0
 10
10.9819688486
 20
7.5217662511
 30
0.0
 10
10.9878420172
 20
7.5044292624
 30
0.0
 10
10.9924449521
 20
7.4867911138
 30
0.0
 10
10.9957521514
 20
7.4689483264
 30
0.0
 10
10.9977453454
 20
7.4510001492
 30
0.0
 10
10.9981917699
 20
7.4389963907
 30
0.0
 10
10.9981917699
 20
7.4330119555
 30
0.0
  0
SPLINE
  5
34B
100
AcDbEntity
  8
0
100
AcDbSpline
 62
7
  6
CONTINUOUS
 70
0
 71
3
 72
42
 73
38
 74
0
 42
0.0000001
 43
0.0000001
 44
0.0000000001
 40
0.0
 40
0.0
 40
0.0
 40
0.0
 40
0.0149723971
 40
0.029947854
 40
0.0449294092
 40
0.0599200692
 40
0.0749227779
 40
0.0899404136
 40
0.1200256609
 40
0.1502025864
 40
0.1804899033
 40
0.2109037105
 40
0.2414571471
 40
0.2721601282
 40
0.3030191646
 40
0.3340372675
 40
0.3652139349
 40
0.3965452155
 40
0.4280238444
 40
0.459639443
 40
0.4913787765
 40
0.5232260611
 40
0.5551633129
 40
0.5871707307
 40
0.6192271064
 40
0.6513102549
 40
0.683397459
 40
0.7154659208
 40
0.7474932143
 40
0.7794577337
 40
0.8113391302
 40
0.8431187274
 40
0.8747799267
 40
0.906308519
 40
0.9376931951
 40
0.9689252215
 40
1.0
 40
1.0
 40
1.0
 40
1.0
 10
9.8894888946
 20
8.4929105742
 30
0.0
 10
9.8915628005
 20
8.494913814
 30
0.0
 10
9.8957911497
 20
8.4988387113
 30
0.0
 10
9.902363357
 20
8.5044699411
 30
0.0
 10
9.9091568293
 20
8.5098380733
 30
0.0
 10
9.9161621054
 20
8.5149355024
 30
0.0
 10
9.9233697018
 20
8.5197553677
 30
0.0
 10
9.93324072
 20
8.5258056929
 30
0.0
 10
9.9460424355
 20
8.5326444833
 30
0.0
 10
9.9620366047
 20
8.5396361049
 30
0.0
 10
9.9785869767
 20
8.5453812836
 30
0.0
 10
9.9956017258
 20
8.5498481714
 30
0.0
 10
10.0129872797
 20
8.5530124948
 30
0.0
 10
10.0306478715
 20
8.5548570364
 30
0.0
 10
10.0484863307
 20
8.5553718885
 30
0.0
 10
10.0664045476
 20
8.5545544477
 30
0.0
 10
10.0843040279
 20
8.5524094304
 30
0.0
 10
10.1020864246
 20
8.5489488328
 30
0.0
 10
10.1196540725
 20
8.5441918581
 30
0.0
 10
10.1369105177
 20
8.538164806
 30
0.0
 10
10.1537610415
 20
8.5309009278
 30
0.0
 10
10.1701131715
 20
8.5224402352
 30
0.0
 10
10.1858771821
 20
8.5128292805
 30
0.0
 10
10.2009665802
 20
8.5021209011
 30
0.0
 10
10.2152985731
 20
8.4903739309
 30
0.0
 10
10.2287945177
 20
8.4776528802
 30
0.0
 10
10.2413803466
 20
8.464027584
 30
0.0
 10
10.2529869704
 20
8.4495728231
 30
0.0
 10
10.2635506535
 20
8.4343679181
 30
0.0
 10
10.2730133659
 20
8.4184963023
 30
0.0
 10
10.2813230934
 20
8.4020450619
 30
0.0
 10
10.2884341269
 20
8.3851044756
 30
0.0
 10
10.2943072955
 20
8.3677674869
 30
0.0
 10
10.2989102304
 20
8.3501293383
 30
0.0
 10
10.3022174296
 20
8.3322865509
 30
0.0
 10
10.3042106237
 20
8.3143383737
 30
0.0
 10
10.3046570482
 20
8.3023346152
 30
0.0
 10
10.3046570482
 20
8.29635018
 30
0.0
  0
SPLINE
  5
34C
100
AcDbEntity
  8
0
100
AcDbSpline
 62
7
  6
CONTINUOUS
 70
0
 71
3
 72
15
 73
11
 74
0
 42
0.0000001
 43
0.0000001
 44
0.0000000001
 40
0.0
 40
0.0
 40
0.0
 40
0.0
 40
0.1262314939
 40
0.2521746287
 40
0.3777941299
 40
0.5030570953
 40
0.6279329442
 40
0.7523929469
 40
0.8764245488
 40
1.0
 40
1.0
 40
1.0
 40
1.0
 10
9.9726215507
 20
8.5431886981
 30
0.0
 10
9.9712529595
 20
8.5398364118
 30
0.0
 10
9.9686701727
 20
8.5330765259
 30
0.0
 10
9.9652728055
 20
8.5227820418
 30
0.0
 10
9.9623703328
 20
8.5123656944
 30
0.0
 10
9.9599759618
 20
8.5018522729
 30
0.0
 10
9.9581010389
 20
8.4912675681
 30
0.0
 10
9.9567546141
 20
8.4806381669
 30
0.0
 10
9.9559436308
 20
8.4699921697
 30
0.0
 10
9.9557622605
 20
8.4628883795
 30
0.0
 10
9.9557622605
 20
8.459343674
 30
0.0
  0
SPLINE
  5
34D
100
AcDbEntity
  8
0
100
AcDbSpline
 62
7
  6
CONTINUOUS
 70
0
 71
3
 72
42
 73
38
 74
0
 42
0.0000001
 43
0.0000001
 44
0.0000000001
 40
0.0
 40
0.0
 40
0.0
 40
0.0
 40
0.0149723971
 40
0.029947854
 40
0.0449294092
 40
0.0599200692
 40
0.0749227779
 40
0.0899404136
 40
0.1200256609
 40
0.1502025864
 40
0.1804899033
 40
0.2109037105
 40
0.2414571471
 40
0.2721601282
 40
0.3030191646
 40
0.3340372675
 40
0.3652139349
 40
0.3965452155
 40
0.4280238444
 40
0.459639443
 40
0.4913787765
 40
0.5232260611
 40
0.5551633129
 40
0.5871707307
 40
0.6192271064
 40
0.6513102549
 40
0.683397459
 40
0.7154659208
 40
0.7474932143
 40
0.7794577337
 40
0.8113391302
 40
0.8431187274
 40
0.8747799267
 40
0.906308519
 40
0.9376931951
 40
0.9689252215
 40
1.0
 40
1.0
 40
1.0
 40
1.0
 10
11.2765584532
 20
8.3967169736
 30
0.0
 10
11.2786323591
 20
8.3987202134
 30
0.0
 10
11.2828607083
 20
8.4026451106
 30
0.0
 10
11.2894329156
 20
8.4082763405
 30
0.0
 10
11.2962263879
 20
8.4136444727
 30
0.0
 10
11.303231664
 20
8.4187419018
 30
0.0
 10
11.3104392604
 20
8.4235617671
 30
0.0
 10
11.3203102786
 20
8.4296120923
 30
0.0
 10
11.3331119941
 20
8.4364508827
 30
0.0
 10
11.3491061633
 20
8.4434425043
 30
0.0
 10
11.3656565353
 20
8.449187683
 30
0.0
 10
11.3826712844
 20
8.4536545708
 30
0.0
 10
11.4000568383
 20
8.4568188942
 30
0.0
 10
11.4177174301
 20
8.4586634358
 30
0.0
 10
11.4355558894
 20
8.4591782879
 30
0.0
 10
11.4534741062
 20
8.4583608471
 30
0.0
 10
11.4713735865
 20
8.4562158298
 30
0.0
 10
11.4891559832
 20
8.4527552322
 30
0.0
 10
11.5067236311
 20
8.4479982575
 30
0.0
 10
11.5239800763
 20
8.4419712054
 30
0.0
 10
11.5408306001
 20
8.4347073272
 30
0.0
 10
11.5571827301
 20
8.4262466346
 30
0.0
 10
11.5729467407
 20
8.4166356799
 30
0.0
 10
11.5880361388
 20
8.4059273005
 30
0.0
 10
11.6023681317
 20
8.3941803303
 30
0.0
 10
11.6158640763
 20
8.3814592796
 30
0.0
 10
11.6284499052
 20
8.3678339834
 30
0.0
 10
11.640056529
 20
8.3533792225
 30
0.0
 10
11.6506202121
 20
8.3381743175
 30
0.0
 10
11.6600829245
 20
8.3223027017
 30
0.0
 10
11.668392652
 20
8.3058514613
 30
0.0
 10
11.6755036855
 20
8.288910875
 30
0.0
 10
11.6813768541
 20
8.2715738863
 30
0.0
 10
11.685979789
 20
8.2539357377
 30
0.0
 10
11.6892869883
 20
8.2360929503
 30
0.0
 10
11.6912801823
 20
8.2181447731
 30
0.0
 10
11.6917266068
 20
8.2061410146
 30
0.0
 10
11.6917266068
 20
8.2001565794
 30
0.0
  0
SPLINE
  5
34E
100
AcDbEntity
  8
0
100
AcDbSpline
 62
7
  6
CONTINUOUS
 70
0
 71
3
 72
42
 73
38
 74
0
 42
0.0000001
 43
0.0000001
 44
0.0000000001
 40
0.0
 40
0.0
 40
0.0
 40
0.0
 40
0.0149723971
 40
0.029947854
 40
0.0449294092
 40
0.0599200692
 40
0.0749227779
 40
0.0899404136
 40
0.1200256609
 40
0.1502025864
 40
0.1804899033
 40
0.2109037105
 40
0.2414571471
 40
0.2721601282
 40
0.3030191646
 40
0.3340372675
 40
0.3652139349
 40
0.3965452155
 40
0.4280238444
 40
0.459639443
 40
0.4913787765
 40
0.5232260611
 40
0.5551633129
 40
0.5871707307
 40
0.6192271064
 40
0.6513102549
 40
0.683397459
 40
0.7154659208
 40
0.7474932143
 40
0.7794577337
 40
0.8113391302
 40
0.8431187274
 40
0.8747799267
 40
0.906308519
 40
0.9376931951
 40
0.9689252215
 40
1.0
 40
1.0
 40
1.0
 40
1.0
 10
10.5830236163
 20
9.2600553212
 30
0.0
 10
10.5850975222
 20
9.2620585611
 30
0.0
 10
10.5893258714
 20
9.2659834583
 30
0.0
 10
10.5958980788
 20
9.2716146881
 30
0.0
 10
10.602691551
 20
9.2769828203
 30
0.0
 10
10.6096968271
 20
9.2820802495
 30
0.0
 10
10.6169044235
 20
9.2869001148
 30
0.0
 10
10.6267754417
 20
9.29295044
 30
0.0
 10
10.6395771572
 20
9.2997892303
 30
0.0
 10
10.6555713264
 20
9.3067808519
 30
0.0
 10
10.6721216984
 20
9.3125260306
 30
0.0
 10
10.6891364475
 20
9.3169929184
 30
0.0
 10
10.7065220015
 20
9.3201572418
 30
0.0
 10
10.7241825932
 20
9.3220017835
 30
0.0
 10
10.7420210525
 20
9.3225166355
 30
0.0
 10
10.7599392693
 20
9.3216991948
 30
0.0
 10
10.7778387496
 20
9.3195541774
 30
0.0
 10
10.7956211463
 20
9.3160935799
 30
0.0
 10
10.8131887943
 20
9.3113366052
 30
0.0
 10
10.8304452395
 20
9.305309553
 30
0.0
 10
10.8472957632
 20
9.2980456749
 30
0.0
 10
10.8636478932
 20
9.2895849823
 30
0.0
 10
10.8794119039
 20
9.2799740275
 30
0.0
 10
10.8945013019
 20
9.2692656481
 30
0.0
 10
10.9088332949
 20
9.257518678
 30
0.0
 10
10.9223292394
 20
9.2447976272
 30
0.0
 10
10.9349150683
 20
9.231172331
 30
0.0
 10
10.9465216921
 20
9.2167175701
 30
0.0
 10
10.9570853752
 20
9.2015126651
 30
0.0
 10
10.9665480877
 20
9.1856410494
 30
0.0
 10
10.9748578151
 20
9.169189809
 30
0.0
 10
10.9819688486
 20
9.1522492226
 30
0.0
 10
10.9878420172
 20
9.1349122339
 30
0.0
 10
10.9924449521
 20
9.1172740853
 30
0.0
 10
10.9957521514
 20
9.0994312979
 30
0.0
 10
10.9977453454
 20
9.0814831207
 30
0.0
 10
10.9981917699
 20
9.0694793622
 30
0.0
 10
10.9981917699
 20
9.0634949271
 30
0.0
  0
SPLINE
  5
34F
100
AcDbEntity
  8
0
100
AcDbSpline
 62
7
  6
CONTINUOUS
 70
0
 71
3
 72
24
 73
20
 74
0
 42
0.0000001
 43
0.0000001
 44
0.0000000001
 40
0.0
 40
0.0
 40
0.0
 40
0.0
 40
0.0637764416
 40
0.1273443685
 40
0.190701004
 40
0.2538548276
 40
0.3168116139
 40
0.3795801666
 40
0.4421711529
 40
0.504596791
 40
0.5668710034
 40
0.6290092011
 40
0.6910281569
 40
0.7220010165
 40
0.7529508932
 40
0.8147862903
 40
0.8765592252
 40
0.938290164
 40
1.0
 40
1.0
 40
1.0
 40
1.0
 10
12.0104820783
 20
6.970643458
 30
0.0
 10
12.0104820783
 20
6.9752103503
 30
0.0
 10
12.0107006814
 20
6.9843307507
 30
0.0
 10
12.0116872762
 20
6.9979558575
 30
0.0
 10
12.0133299968
 20
7.0114729773
 30
0.0
 10
12.0156248859
 20
7.0248503365
 30
0.0
 10
12.0185668329
 20
7.038057376
 30
0.0
 10
12.0221490243
 20
7.0510635642
 30
0.0
 10
12.0263632209
 20
7.0638389403
 30
0.0
 10
12.031199748
 20
7.0763540281
 30
0.0
 10
12.0366475306
 20
7.0885800013
 30
0.0
 10
12.0426938899
 20
7.1004884846
 30
0.0
 10
12.0482224926
 20
7.1101295417
 30
0.0
 10
12.0529294417
 20
7.1176547345
 30
0.0
 10
12.0578197905
 20
7.1250462973
 30
0.0
 10
12.06427934
 20
7.1340397181
 30
0.0
 10
12.072567864
 20
7.1444124151
 30
0.0
 10
12.0813721083
 20
7.1543388597
 30
0.0
 10
12.0875729887
 20
7.1606447464
 30
0.0
 10
12.0907513093
 20
7.1637147658
 30
0.0
  0
SPLINE
  5
350
100
AcDbEntity
  8
0
100
AcDbSpline
 62
7
  6
CONTINUOUS
 70
0
 71
3
 72
42
 73
38
 74
0
 42
0.0000001
 43
0.0000001
 44
0.0000000001
 40
0.0
 40
0.0
 40
0.0
 40
0.0
 40
0.0149723971
 40
0.029947854
 40
0.0449294092
 40
0.0599200692
 40
0.0749227779
 40
0.0899404136
 40
0.1200256609
 40
0.1502025864
 40
0.1804899033
 40
0.2109037105
 40
0.2414571471
 40
0.2721601282
 40
0.3030191646
 40
0.3340372675
 40
0.3652139349
 40
0.3965452155
 40
0.4280238444
 40
0.459639443
 40
0.4913787765
 40
0.5232260611
 40
0.5551633129
 40
0.5871707307
 40
0.6192271064
 40
0.6513102549
 40
0.683397459
 40
0.7154659208
 40
0.7474932143
 40
0.7794577337
 40
0.8113391302
 40
0.8431187274
 40
0.8747799267
 40
0.906308519
 40
0.9376931951
 40
0.9689252215
 40
1.0
 40
1.0
 40
1.0
 40
1.0
 10
10.2368622599
 20
8.1332833797
 30
0.0
 10
10.2347883541
 20
8.1312801398
 30
0.0
 10
10.2305600048
 20
8.1273552426
 30
0.0
 10
10.2239877975
 20
8.1217240127
 30
0.0
 10
10.2171943253
 20
8.1163558806
 30
0.0
 10
10.2101890492
 20
8.1112584514
 30
0.0
 10
10.2029814527
 20
8.1064385861
 30
0.0
 10
10.1931104346
 20
8.1003882609
 30
0.0
 10
10.1803087191
 20
8.0935494705
 30
0.0
 10
10.1643145499
 20
8.0865578489
 30
0.0
 10
10.1477641778
 20
8.0808126703
 30
0.0
 10
10.1307494288
 20
8.0763457825
 30
0.0
 10
10.1133638748
 20
8.0731814591
 30
0.0
 10
10.0957032831
 20
8.0713369174
 30
0.0
 10
10.0778648238
 20
8.0708220653
 30
0.0
 10
10.059946607
 20
8.0716395061
 30
0.0
 10
10.0420471267
 20
8.0737845235
 30
0.0
 10
10.02426473
 20
8.077245121
 30
0.0
 10
10.006697082
 20
8.0820020957
 30
0.0
 10
9.9894406368
 20
8.0880291478
 30
0.0
 10
9.972590113
 20
8.095293026
 30
0.0
 10
9.956237983
 20
8.1037537186
 30
0.0
 10
9.9404739724
 20
8.1133646733
 30
0.0
 10
9.9253845743
 20
8.1240730528
 30
0.0
 10
9.9110525814
 20
8.1358200229
 30
0.0
 10
9.8975566368
 20
8.1485410737
 30
0.0
 10
9.8849708079
 20
8.1621663698
 30
0.0
 10
9.8733641841
 20
8.1766211307
 30
0.0
 10
9.8628005011
 20
8.1918260357
 30
0.0
 10
9.8533377886
 20
8.2076976515
 30
0.0
 10
9.8450280611
 20
8.2241488919
 30
0.0
 10
9.8379170277
 20
8.2410894783
 30
0.0
 10
9.832043859
 20
8.258426467
 30
0.0
 10
9.8274409242
 20
8.2760646156
 30
0.0
 10
9.8241337249
 20
8.2939074029
 30
0.0
 10
9.8221405309
 20
8.3118555801
 30
0.0
 10
9.8216941064
 20
8.3238593387
 30
0.0
 10
9.8216941064
 20
8.3298437738
 30
0.0
  0
SPLINE
  5
351
100
AcDbEntity
  8
0
100
AcDbSpline
 62
7
  6
CONTINUOUS
 70
0
 71
3
 72
31
 73
27
 74
0
 42
0.0000001
 43
0.0000001
 44
0.0000000001
 40
0.0
 40
0.0
 40
0.0
 40
0.0
 40
0.0755819695
 40
0.1466091388
 40
0.2134205931
 40
0.2764566777
 40
0.3362567223
 40
0.3651526365
 40
0.3934903473
 40
0.4213665039
 40
0.4488830585
 40
0.4761464938
 40
0.5032665116
 40
0.5303546853
 40
0.5575230581
 40
0.5848825618
 40
0.6125416478
 40
0.64060503
 40
0.6691724055
 40
0.6983378095
 40
0.7281891336
 40
0.7902471685
 40
0.8559382257
 40
0.8903025013
 40
0.9257411775
 40
1.0
 40
1.0
 40
1.0
 40
1.0
 10
13.1733332379
 20
7.8083603333
 30
0.0
 10
13.1717768165
 20
7.8068569455
 30
0.0
 10
13.1686660892
 20
7.8040331434
 30
0.0
 10
13.1638519389
 20
7.8002607889
 30
0.0
 10
13.159043355
 20
7.7970924917
 30
0.0
 10
13.1542452185
 20
7.794533211
 30
0.0
 10
13.1502122302
 20
7.7928930614
 30
0.0
 10
13.1470090007
 20
7.7919041973
 30
0.0
 10
13.1446405064
 20
7.7913250883
 30
0.0
 10
13.1422795918
 20
7.7909004675
 30
0.0
 10
13.1399269072
 20
7.7906305559
 30
0.0
 10
13.13758322
 20
7.7905154841
 30
0.0
 10
13.1352492853
 20
7.7905552997
 30
0.0
 10
13.1329258735
 20
7.7907500495
 30
0.0
 10
13.1306137583
 20
7.7910996736
 30
0.0
 10
13.1283136869
 20
7.7916039806
 30
0.0
 10
13.1260263922
 20
7.7922627763
 30
0.0
 10
13.1237525895
 20
7.7930758269
 30
0.0
 10
13.1214929501
 20
7.7940427506
 30
0.0
 10
13.1192480649
 20
7.7951632103
 30
0.0
 10
13.1162368161
 20
7.7968834159
 30
0.0
 10
13.1125060799
 20
7.7994364458
 30
0.0
 10
13.108939022
 20
7.8024160115
 30
0.0
 10
13.1061230101
 20
7.8050853598
 30
0.0
 10
13.1032449794
 20
7.8080410273
 30
0.0
 10
13.1011839294
 20
7.8104154461
 30
0.0
 10
13.0998424593
 20
7.8120648601
 30
0.0
  0
SPLINE
  5
352
100
AcDbEntity
  8
0
100
AcDbSpline
 62
7
  6
CONTINUOUS
 70
0
 71
3
 72
24
 73
20
 74
0
 42
0.0000001
 43
0.0000001
 44
0.0000000001
 40
0.0
 40
0.0
 40
0.0
 40
0.0
 40
0.0637764416
 40
0.1273443685
 40
0.190701004
 40
0.2538548276
 40
0.3168116139
 40
0.3795801666
 40
0.4421711529
 40
0.504596791
 40
0.5668710034
 40
0.6290092011
 40
0.6910281569
 40
0.7220010165
 40
0.7529508932
 40
0.8147862903
 40
0.8765592252
 40
0.938290164
 40
1.0
 40
1.0
 40
1.0
 40
1.0
 10
8.9311102815
 20
7.1841986174
 30
0.0
 10
8.9311102815
 20
7.1887655097
 30
0.0
 10
8.9313288846
 20
7.1978859102
 30
0.0
 10
8.9323154794
 20
7.2115110169
 30
0.0
 10
8.9339582
 20
7.2250281367
 30
0.0
 10
8.9362530891
 20
7.2384054959
 30
0.0
 10
8.9391950361
 20
7.2516125355
 30
0.0
 10
8.9427772275
 20
7.2646187236
 30
0.0
 10
8.9469914241
 20
7.2773940997
 30
0.0
 10
8.9518279512
 20
7.2899091875
 30
0.0
 10
8.9572757338
 20
7.3021351608
 30
0.0
 10
8.9633220931
 20
7.3140436441
 30
0.0
 10
8.9688506958
 20
7.3236847012
 30
0.0
 10
8.9735576449
 20
7.331209894
 30
0.0
 10
8.9784479937
 20
7.3386014568
 30
0.0
 10
8.9849075432
 20
7.3475948775
 30
0.0
 10
8.9931960672
 20
7.3579675746
 30
0.0
 10
9.0020003115
 20
7.3678940192
 30
0.0
 10
9.0082011919
 20
7.3741999059
 30
0.0
 10
9.0113795125
 20
7.3772699252
 30
0.0
  0
SPLINE
  5
353
100
AcDbEntity
  8
0
100
AcDbSpline
 62
7
  6
CONTINUOUS
 70
0
 71
3
 72
42
 73
38
 74
0
 42
0.0000001
 43
0.0000001
 44
0.0000000001
 40
0.0
 40
0.0
 40
0.0
 40
0.0
 40
0.0149723971
 40
0.029947854
 40
0.0449294092
 40
0.0599200692
 40
0.0749227779
 40
0.0899404136
 40
0.1200256609
 40
0.1502025864
 40
0.1804899033
 40
0.2109037105
 40
0.2414571471
 40
0.2721601282
 40
0.3030191646
 40
0.3340372675
 40
0.3652139349
 40
0.3965452155
 40
0.4280238444
 40
0.459639443
 40
0.4913787765
 40
0.5232260611
 40
0.5551633129
 40
0.5871707307
 40
0.6192271064
 40
0.6513102549
 40
0.683397459
 40
0.7154659208
 40
0.7474932143
 40
0.7794577337
 40
0.8113391302
 40
0.8431187274
 40
0.8747799267
 40
0.906308519
 40
0.9376931951
 40
0.9689252215
 40
1.0
 40
1.0
 40
1.0
 40
1.0
 10
11.6239318186
 20
8.0370897791
 30
0.0
 10
11.6218579127
 20
8.0350865392
 30
0.0
 10
11.6176295634
 20
8.031161642
 30
0.0
 10
11.6110573561
 20
8.0255304121
 30
0.0
 10
11.6042638839
 20
8.02016228
 30
0.0
 10
11.5972586078
 20
8.0150648508
 30
0.0
 10
11.5900510113
 20
8.0102449855
 30
0.0
 10
11.5801799932
 20
8.0041946603
 30
0.0
 10
11.5673782777
 20
7.9973558699
 30
0.0
 10
11.5513841085
 20
7.9903642483
 30
0.0
 10
11.5348337365
 20
7.9846190697
 30
0.0
 10
11.5178189874
 20
7.9801521819
 30
0.0
 10
11.5004334334
 20
7.9769878585
 30
0.0
 10
11.4827728417
 20
7.9751433168
 30
0.0
 10
11.4649343824
 20
7.9746284647
 30
0.0
 10
11.4470161656
 20
7.9754459055
 30
0.0
 10
11.4291166853
 20
7.9775909229
 30
0.0
 10
11.4113342886
 20
7.9810515204
 30
0.0
 10
11.3937666406
 20
7.9858084951
 30
0.0
 10
11.3765101954
 20
7.9918355472
 30
0.0
 10
11.3596596716
 20
7.9990994254
 30
0.0
 10
11.3433075417
 20
8.007560118
 30
0.0
 10
11.327543531
 20
8.0171710727
 30
0.0
 10
11.3124541329
 20
8.0278794522
 30
0.0
 10
11.29812214
 20
8.0396264223
 30
0.0
 10
11.2846261955
 20
8.0523474731
 30
0.0
 10
11.2720403665
 20
8.0659727692
 30
0.0
 10
11.2604337427
 20
8.0804275301
 30
0.0
 10
11.2498700597
 20
8.0956324351
 30
0.0
 10
11.2404073472
 20
8.1115040509
 30
0.0
 10
11.2320976197
 20
8.1279552913
 30
0.0
 10
11.2249865863
 20
8.1448958777
 30
0.0
 10
11.2191134176
 20
8.1622328664
 30
0.0
 10
11.2145104828
 20
8.179871015
 30
0.0
 10
11.2112032835
 20
8.1977138023
 30
0.0
 10
11.2092100895
 20
8.2156619795
 30
0.0
 10
11.208763665
 20
8.2276657381
 30
0.0
 10
11.208763665
 20
8.2336501732
 30
0.0
  0
SPLINE
  5
354
100
AcDbEntity
  8
0
100
AcDbSpline
 62
7
  6
CONTINUOUS
 70
0
 71
3
 72
23
 73
19
 74
0
 42
0.0000001
 43
0.0000001
 44
0.0000000001
 40
0.0
 40
0.0
 40
0.0
 40
0.0
 40
0.049680176
 40
0.10157973
 40
0.1556094443
 40
0.2116723948
 40
0.269664753
 40
0.3294764364
 40
0.390991666
 40
0.4540894613
 40
0.518644198
 40
0.5845260822
 40
0.6516015813
 40
0.7197338182
 40
0.7887830314
 40
0.8586069054
 40
0.9290612216
 40
1.0
 40
1.0
 40
1.0
 40
1.0
 10
11.5197590618
 20
8.1431366477
 30
0.0
 10
11.5213479825
 20
8.1474582728
 30
0.0
 10
11.5244816702
 20
8.156337253
 30
0.0
 10
11.5289641788
 20
8.1700463634
 30
0.0
 10
11.5333240117
 20
8.184414322
 30
0.0
 10
11.5375514028
 20
8.1994092446
 30
0.0
 10
11.5416369347
 20
8.2149979922
 30
0.0
 10
11.54557149
 20
8.2311460465
 30
0.0
 10
11.5493462918
 20
8.2478176418
 30
0.0
 10
11.5529529325
 20
8.2649758275
 30
0.0
 10
11.5563833772
 20
8.2825825641
 30
0.0
 10
11.559629984
 20
8.3005988131
 30
0.0
 10
11.5626855176
 20
8.3189846212
 30
0.0
 10
11.5655431762
 20
8.3376992089
 30
0.0
 10
11.568196603
 20
8.3567010512
 30
0.0
 10
11.5706398985
 20
8.3759480065
 30
0.0
 10
11.5728676249
 20
8.3953973448
 30
0.0
 10
11.574202109
 20
8.4084342108
 30
0.0
 10
11.5748328033
 20
8.4149786508
 30
0.0
  0
SPLINE
  5
355
100
AcDbEntity
  8
0
100
AcDbSpline
 62
7
  6
CONTINUOUS
 70
0
 71
3
 72
42
 73
38
 74
0
 42
0.0000001
 43
0.0000001
 44
0.0000000001
 40
0.0
 40
0.0
 40
0.0
 40
0.0
 40
0.0149723971
 40
0.029947854
 40
0.0449294092
 40
0.0599200692
 40
0.0749227779
 40
0.0899404136
 40
0.1200256609
 40
0.1502025864
 40
0.1804899033
 40
0.2109037105
 40
0.2414571471
 40
0.2721601282
 40
0.3030191646
 40
0.3340372675
 40
0.3652139349
 40
0.3965452155
 40
0.4280238444
 40
0.459639443
 40
0.4913787765
 40
0.5232260611
 40
0.5551633129
 40
0.5871707307
 40
0.6192271064
 40
0.6513102549
 40
0.683397459
 40
0.7154659208
 40
0.7474932143
 40
0.7794577337
 40
0.8113391302
 40
0.8431187274
 40
0.8747799267
 40
0.906308519
 40
0.9376931951
 40
0.9689252215
 40
1.0
 40
1.0
 40
1.0
 40
1.0
 10
10.9303969817
 20
8.9004281267
 30
0.0
 10
10.9283230758
 20
8.8984248868
 30
0.0
 10
10.9240947266
 20
8.8944999896
 30
0.0
 10
10.9175225192
 20
8.8888687598
 30
0.0
 10
10.910729047
 20
8.8835006276
 30
0.0
 10
10.9037237709
 20
8.8784031984
 30
0.0
 10
10.8965161745
 20
8.8735833331
 30
0.0
 10
10.8866451563
 20
8.8675330079
 30
0.0
 10
10.8738434408
 20
8.8606942176
 30
0.0
 10
10.8578492716
 20
8.853702596
 30
0.0
 10
10.8412988996
 20
8.8479574173
 30
0.0
 10
10.8242841505
 20
8.8434905295
 30
0.0
 10
10.8068985965
 20
8.8403262061
 30
0.0
 10
10.7892380048
 20
8.8384816644
 30
0.0
 10
10.7713995455
 20
8.8379668124
 30
0.0
 10
10.7534813287
 20
8.8387842531
 30
0.0
 10
10.7355818484
 20
8.8409292705
 30
0.0
 10
10.7177994517
 20
8.844389868
 30
0.0
 10
10.7002318037
 20
8.8491468427
 30
0.0
 10
10.6829753585
 20
8.8551738949
 30
0.0
 10
10.6661248348
 20
8.862437773
 30
0.0
 10
10.6497727048
 20
8.8708984656
 30
0.0
 10
10.6340086941
 20
8.8805094204
 30
0.0
 10
10.6189192961
 20
8.8912177998
 30
0.0
 10
10.6045873031
 20
8.9029647699
 30
0.0
 10
10.5910913586
 20
8.9156858207
 30
0.0
 10
10.5785055297
 20
8.9293111169
 30
0.0
 10
10.5668989059
 20
8.9437658778
 30
0.0
 10
10.5563352228
 20
8.9589707828
 30
0.0
 10
10.5468725103
 20
8.9748423985
 30
0.0
 10
10.5385627829
 20
8.9912936389
 30
0.0
 10
10.5314517494
 20
9.0082342253
 30
0.0
 10
10.5255785808
 20
9.025571214
 30
0.0
 10
10.5209756459
 20
9.0432093626
 30
0.0
 10
10.5176684466
 20
9.06105215
 30
0.0
 10
10.5156752526
 20
9.0790003272
 30
0.0
 10
10.5152288281
 20
9.0910040857
 30
0.0
 10
10.5152288281
 20
9.0969885208
 30
0.0
  0
SPLINE
  5
356
100
AcDbEntity
  8
0
100
AcDbSpline
 62
7
  6
CONTINUOUS
 70
0
 71
3
 72
24
 73
20
 74
0
 42
0.0000001
 43
0.0000001
 44
0.0000000001
 40
0.0
 40
0.0
 40
0.0
 40
0.0
 40
0.0637764416
 40
0.1273443685
 40
0.190701004
 40
0.2538548276
 40
0.3168116139
 40
0.3795801666
 40
0.4421711529
 40
0.504596791
 40
0.5668710034
 40
0.6290092011
 40
0.6910281569
 40
0.7220010165
 40
0.7529508932
 40
0.8147862903
 40
0.8765592252
 40
0.938290164
 40
1.0
 40
1.0
 40
1.0
 40
1.0
 10
8.9311102815
 20
9.5990133262
 30
0.0
 10
8.9311102815
 20
9.6035802185
 30
0.0
 10
8.9313288846
 20
9.612700619
 30
0.0
 10
8.9323154794
 20
9.6263257257
 30
0.0
 10
8.9339582
 20
9.6398428455
 30
0.0
 10
8.9362530891
 20
9.6532202047
 30
0.0
 10
8.9391950361
 20
9.6664272443
 30
0.0
 10
8.9427772275
 20
9.6794334324
 30
0.0
 10
8.9469914241
 20
9.6922088085
 30
0.0
 10
8.9518279512
 20
9.7047238963
 30
0.0
 10
8.9572757338
 20
9.7169498696
 30
0.0
 10
8.9633220931
 20
9.7288583529
 30
0.0
 10
8.9688506958
 20
9.73849941
 30
0.0
 10
8.9735576449
 20
9.7460246028
 30
0.0
 10
8.9784479937
 20
9.7534161656
 30
0.0
 10
8.9849075432
 20
9.7624095863
 30
0.0
 10
8.9931960672
 20
9.7727822834
 30
0.0
 10
9.0020003115
 20
9.782708728
 30
0.0
 10
9.0082011919
 20
9.7890146147
 30
0.0
 10
9.0113795125
 20
9.792084634
 30
0.0
  0
SPLINE
  5
357
100
AcDbEntity
  8
0
100
AcDbSpline
 62
7
  6
CONTINUOUS
 70
0
 71
3
 72
104
 73
100
 74
0
 42
0.0000001
 43
0.0000001
 44
0.0000000001
 40
0.0
 40
0.0
 40
0.0
 40
0.0
 40
0.0039487807
 40
0.0077208616
 40
0.0113255624
 40
0.0147744519
 40
0.0180811157
 40
0.0212612557
 40
0.0243327712
 40
0.0273158352
 40
0.0302326838
 40
0.0331072474
 40
0.0359646206
 40
0.0388303891
 40
0.0417298949
 40
0.0446875438
 40
0.0477261918
 40
0.0508667577
 40
0.0541279567
 40
0.0575262428
 40
0.0610758657
 40
0.0647889707
 40
0.0686758424
 40
0.0727450129
 40
0.0770035615
 40
0.081457193
 40
0.0861104957
 40
0.0909670203
 40
0.0960294383
 40
0.1012996584
 40
0.1067788703
 40
0.1124677077
 40
0.118366204
 40
0.1244739726
 40
0.1307901349
 40
0.137313463
 40
0.1440423448
 40
0.1509748457
 40
0.1581087454
 40
0.1654415106
 40
0.1729703984
 40
0.1806923681
 40
0.1886042112
 40
0.1967024573
 40
0.2049834751
 40
0.2134434251
 40
0.2308836728
 40
0.2489894218
 40
0.2677242073
 40
0.2870493861
 40
0.3069243477
 40
0.3273067072
 40
0.3481524843
 40
0.3694162725
 40
0.3910514026
 40
0.4130101014
 40
0.4352436452
 40
0.4577025109
 40
0.480336525
 40
0.5030950113
 40
0.5259269378
 40
0.5487810627
 40
0.5716060811
 40
0.594350771
 40
0.6169641398
 40
0.6393955706
 40
0.6615949688
 40
0.6835129102
 40
0.70510079
 40
0.7263109744
 40
0.7470969551
 40
0.7674135084
 40
0.7872168591
 40
0.8064648505
 40
0.8251171254
 40
0.843135321
 40
0.860483283
 40
0.8688954215
 40
0.8771275824
 40
0.885175966
 40
0.8930370012
 40
0.9007072681
 40
0.908183619
 40
0.9154630793
 40
0.9225429672
 40
0.9294208315
 40
0.93609452
 40
0.9425621955
 40
0.9488223283
 40
0.9548737991
 40
0.9607158368
 40
0.9663481871
 40
0.9717710322
 40
0.9769851358
 40
0.9819918451
 40
0.9867933009
 40
0.9913925287
 40
0.9957932676
 40
1.0
 40
1.0
 40
1.0
 40
1.0
 10
13.1747024834
 20
8.8914957656
 30
0.0
 10
13.1758578276
 20
8.8925709948
 30
0.0
 10
13.1781675144
 20
8.8946198811
 30
0.0
 10
13.1817114998
 20
8.8974397197
 30
0.0
 10
13.1852518189
 20
8.8999320249
 30
0.0
 10
13.1887864229
 20
8.9020950851
 30
0.0
 10
13.1923136089
 20
8.9039273105
 30
0.0
 10
13.1958314651
 20
8.9054272823
 30
0.0
 10
13.1993380392
 20
8.906593454
 30
0.0
 10
13.2028311273
 20
8.9074245008
 30
0.0
 10
13.2063083191
 20
8.90791927
 30
0.0
 10
13.2097669477
 20
8.9080768643
 30
0.0
 10
13.2132041473
 20
8.9078969574
 30
0.0
 10
13.2166169696
 20
8.9073795354
 30
0.0
 10
13.2200025895
 20
8.9065253752
 30
0.0
 10
13.2233583492
 20
8.9053354316
 30
0.0
 10
13.2266819535
 20
8.903811225
 30
0.0
 10
13.2299713182
 20
8.9019542725
 30
0.0
 10
13.2332246347
 20
8.8997663118
 30
0.0
 10
13.236440225
 20
8.8972490882
 30
0.0
 10
13.2396164548
 20
8.8944043773
 30
0.0
 10
13.242751798
 20
8.8912340996
 30
0.0
 10
13.2458445966
 20
8.8877401666
 30
0.0
 10
13.2488933333
 20
8.8839247409
 30
0.0
 10
13.2518963038
 20
8.8797900167
 30
0.0
 10
13.254851944
 20
8.8753384562
 30
0.0
 10
13.2577585576
 20
8.8705726263
 30
0.0
 10
13.2606145249
 20
8.8654953234
 30
0.0
 10
13.2634182074
 20
8.8601095148
 30
0.0
 10
13.2661679506
 20
8.8544183518
 30
0.0
 10
13.2688621937
 20
8.8484251958
 30
0.0
 10
13.2714992854
 20
8.842133564
 30
0.0
 10
13.2740777345
 20
8.8355471933
 30
0.0
 10
13.2765959409
 20
8.82866997
 30
0.0
 10
13.2790524603
 20
8.8215059869
 30
0.0
 10
13.2814457859
 20
8.814059494
 30
0.0
 10
13.2837745047
 20
8.8063349256
 30
0.0
 10
13.2860372244
 20
8.7983368817
 30
0.0
 10
13.2882325656
 20
8.7900701287
 30
0.0
 10
13.2903592506
 20
8.7815396
 30
0.0
 10
13.2924159521
 20
8.7727503842
 30
0.0
 10
13.2944014904
 20
8.7637077324
 30
0.0
 10
13.2963146211
 20
8.754417044
 30
0.0
 10
13.2981542357
 20
8.7448838746
 30
0.0
 10
13.2999192112
 20
8.7351139126
 30
0.0
 10
13.3021946181
 20
8.721642746
 30
0.0
 10
13.3048370641
 20
8.7042523839
 30
0.0
 10
13.3076632462
 20
8.6827406799
 30
0.0
 10
13.3101689998
 20
8.6604310864
 30
0.0
 10
13.312348259
 20
8.6373769842
 30
0.0
 10
13.3141957259
 20
8.6136334507
 30
0.0
 10
13.315706913
 20
8.5892572634
 30
0.0
 10
13.3168781441
 20
8.5643067213
 30
0.0
 10
13.317706567
 20
8.538841513
 30
0.0
 10
13.3181901576
 20
8.5129225682
 30
0.0
 10
13.3183277235
 20
8.4866119096
 30
0.0
 10
13.3181189067
 20
8.4599725025
 30
0.0
 10
13.3175641834
 20
8.4330681033
 30
0.0
 10
13.3166648632
 20
8.4059631057
 30
0.0
 10
13.3154230849
 20
8.3787223861
 30
0.0
 10
13.3138418119
 20
8.3514111474
 30
0.0
 10
13.3119248239
 20
8.3240947624
 30
0.0
 10
13.3096767104
 20
8.2968386163
 30
0.0
 10
13.307102858
 20
8.2697079492
 30
0.0
 10
13.3042094367
 20
8.242767699
 30
0.0
 10
13.301003386
 20
8.2160823452
 30
0.0
 10
13.297492398
 20
8.1897157546
 30
0.0
 10
13.2936848993
 20
8.1637310268
 30
0.0
 10
13.2895900311
 20
8.1381903425
 30
0.0
 10
13.2852176277
 20
8.1131548139
 30
0.0
 10
13.2805781929
 20
8.0886843351
 30
0.0
 10
13.2756828774
 20
8.0648374372
 30
0.0
 10
13.270543451
 20
8.0416711422
 30
0.0
 10
13.2651722733
 20
8.0192408352
 30
0.0
 10
13.2595822682
 20
7.9976000867
 30
0.0
 10
13.2537868805
 20
7.9768006657
 30
0.0
 10
13.2487476435
 20
7.9600429382
 30
0.0
 10
13.244618114
 20
7.9470992506
 30
0.0
 10
13.2415101346
 20
7.9377318408
 30
0.0
 10
13.2383614137
 20
7.9286107546
 30
0.0
 10
13.2351738679
 20
7.9197414287
 30
0.0
 10
13.2319493602
 20
7.9111291725
 30
0.0
 10
13.2286898752
 20
7.9027791195
 30
0.0
 10
13.2253973179
 20
7.8946962631
 30
0.0
 10
13.2220736974
 20
7.8868854189
 30
0.0
 10
13.2187209831
 20
7.8793512479
 30
0.0
 10
13.2153411815
 20
7.8720982399
 30
0.0
 10
13.2119363323
 20
7.8651307061
 30
0.0
 10
13.2085084299
 20
7.858452803
 30
0.0
 10
13.2050595741
 20
7.852068479
 30
0.0
 10
13.201591752
 20
7.8459815412
 30
0.0
 10
13.1981070825
 20
7.8401955653
 30
0.0
 10
13.1946075657
 20
7.8347139968
 30
0.0
 10
13.1910953208
 20
7.8295400594
 30
0.0
 10
13.1875723855
 20
7.8246767973
 30
0.0
 10
13.1840407716
 20
7.8201270405
 30
0.0
 10
13.1805024547
 20
7.8158933894
 30
0.0
 10
13.1769596211
 20
7.811978566
 30
0.0
 10
13.1745425711
 20
7.8095284595
 30
0.0
 10
13.1733332379
 20
7.8083603333
 30
0.0
  0
SPLINE
  5
358
100
AcDbEntity
  8
0
100
AcDbSpline
 62
7
  6
CONTINUOUS
 70
0
 71
3
 72
24
 73
20
 74
0
 42
0.0000001
 43
0.0000001
 44
0.0000000001
 40
0.0
 40
0.0
 40
0.0
 40
0.0
 40
0.0637764416
 40
0.1273443685
 40
0.190701004
 40
0.2538548276
 40
0.3168116139
 40
0.3795801666
 40
0.4421711529
 40
0.504596791
 40
0.5668710034
 40
0.6290092011
 40
0.6910281569
 40
0.7220010165
 40
0.7529508932
 40
0.8147862903
 40
0.8765592252
 40
0.938290164
 40
1.0
 40
1.0
 40
1.0
 40
1.0
 10
12.0104820783
 20
9.3854581668
 30
0.0
 10
12.0104820783
 20
9.3900250591
 30
0.0
 10
12.0107006814
 20
9.3991454595
 30
0.0
 10
12.0116872762
 20
9.4127705663
 30
0.0
 10
12.0133299968
 20
9.4262876861
 30
0.0
 10
12.0156248859
 20
9.4396650453
 30
0.0
 10
12.0185668329
 20
9.4528720848
 30
0.0
 10
12.0221490243
 20
9.465878273
 30
0.0
 10
12.0263632209
 20
9.4786536491
 30
0.0
 10
12.031199748
 20
9.4911687369
 30
0.0
 10
12.0366475306
 20
9.5033947101
 30
0.0
 10
12.0426938899
 20
9.5153031934
 30
0.0
 10
12.0482224926
 20
9.5249442505
 30
0.0
 10
12.0529294417
 20
9.5324694433
 30
0.0
 10
12.0578197905
 20
9.5398610061
 30
0.0
 10
12.06427934
 20
9.5488544269
 30
0.0
 10
12.072567864
 20
9.5592271239
 30
0.0
 10
12.0813721083
 20
9.5691535685
 30
0.0
 10
12.0875729887
 20
9.5754594552
 30
0.0
 10
12.0907513093
 20
9.5785294746
 30
0.0
  0
SPLINE
  5
359
100
AcDbEntity
  8
0
100
AcDbSpline
 62
7
  6
CONTINUOUS
 70
0
 71
3
 72
45
 73
41
 74
0
 42
0.0000001
 43
0.0000001
 44
0.0000000001
 40
0.0
 40
0.0
 40
0.0
 40
0.0
 40
0.0149721379
 40
0.0299473343
 40
0.0449286317
 40
0.0599190303
 40
0.0749214809
 40
0.089938856
 40
0.1049739397
 40
0.1200294108
 40
0.1351078203
 40
0.1502115887
 40
0.1653429784
 40
0.1805040926
 40
0.2109173739
 40
0.2414702831
 40
0.2721727342
 40
0.3030312377
 40
0.3340488046
 40
0.365224933
 40
0.396555672
 40
0.4280337568
 40
0.4596488082
 40
0.4913875919
 40
0.5232343248
 40
0.5551710235
 40
0.5871778874
 40
0.6192337084
 40
0.6513163011
 40
0.6834029486
 40
0.7154708537
 40
0.7474975916
 40
0.7794615572
 40
0.8113424013
 40
0.8431214485
 40
0.8747820968
 40
0.9063101458
 40
0.9376942762
 40
0.9689257414
 40
1.0
 40
1.0
 40
1.0
 40
1.0
 10
12.5020409704
 20
6.7379157352
 30
0.0
 10
12.4995854655
 20
6.7355439016
 30
0.0
 10
12.4945790611
 20
6.7308968714
 30
0.0
 10
12.4867976048
 20
6.7242294553
 30
0.0
 10
12.4787541106
 20
6.7178736368
 30
0.0
 10
12.4704598398
 20
6.7118382646
 30
0.0
 10
12.4619261666
 20
6.7061315985
 30
0.0
 10
12.4531648156
 20
6.7007615521
 30
0.0
 10
12.444187895
 20
6.6957354173
 30
0.0
 10
12.4350077037
 20
6.691060217
 30
0.0
 10
12.4256369149
 20
6.6867422745
 30
0.0
 10
12.4160884434
 20
6.682787604
 30
0.0
 10
12.406375246
 20
6.6792015809
 30
0.0
 10
12.3932107396
 20
6.6749143256
 30
0.0
 10
12.3764029603
 20
6.6705016357
 30
0.0
 10
12.3558189668
 20
6.6667552771
 30
0.0
 10
12.3349086976
 20
6.6645713124
 30
0.0
 10
12.3137880058
 20
6.6639617587
 30
0.0
 10
12.2925728363
 20
6.6649296194
 30
0.0
 10
12.2713798643
 20
6.6674693326
 30
0.0
 10
12.250325517
 20
6.6715666926
 30
0.0
 10
12.2295254357
 20
6.6771989677
 30
0.0
 10
12.209093818
 20
6.6843350083
 30
0.0
 10
12.1891428103
 20
6.6929354447
 30
0.0
 10
12.1697818987
 20
6.7029529039
 30
0.0
 10
12.1511173191
 20
6.7143322709
 30
0.0
 10
12.1332514814
 20
6.72701099
 30
0.0
 10
12.1162824178
 20
6.7409194079
 30
0.0
 10
12.1003032397
 20
6.7559811395
 30
0.0
 10
12.0854016373
 20
6.7721134938
 30
0.0
 10
12.0716594078
 20
6.7892279278
 30
0.0
 10
12.059152011
 20
6.8072305256
 30
0.0
 10
12.0479481589
 20
6.826022507
 30
0.0
 10
12.0381094441
 20
6.8455007666
 30
0.0
 10
12.029689992
 20
6.8655584149
 30
0.0
 10
12.0227361707
 20
6.8860854032
 30
0.0
 10
12.0172863064
 20
6.9069689638
 30
0.0
 10
12.013370588
 20
6.9280948108
 30
0.0
 10
12.0110106443
 20
6.9493454421
 30
0.0
 10
12.0104820783
 20
6.9635578857
 30
0.0
 10
12.0104820783
 20
6.970643458
 30
0.0
  0
SPLINE
  5
35A
100
AcDbEntity
  8
0
100
AcDbSpline
 62
7
  6
CONTINUOUS
 70
0
 71
3
 72
45
 73
41
 74
0
 42
0.0000001
 43
0.0000001
 44
0.0000000001
 40
0.0
 40
0.0
 40
0.0
 40
0.0
 40
0.0149721379
 40
0.0299473343
 40
0.0449286317
 40
0.0599190303
 40
0.0749214809
 40
0.089938856
 40
0.1049739397
 40
0.1200294108
 40
0.1351078203
 40
0.1502115887
 40
0.1653429784
 40
0.1805040926
 40
0.2109173739
 40
0.2414702831
 40
0.2721727342
 40
0.3030312377
 40
0.3340488046
 40
0.365224933
 40
0.396555672
 40
0.4280337568
 40
0.4596488082
 40
0.4913875919
 40
0.5232343248
 40
0.5551710235
 40
0.5871778874
 40
0.6192337084
 40
0.6513163011
 40
0.6834029486
 40
0.7154708537
 40
0.7474975916
 40
0.7794615572
 40
0.8113424013
 40
0.8431214485
 40
0.8747820968
 40
0.9063101458
 40
0.9376942762
 40
0.9689257414
 40
1.0
 40
1.0
 40
1.0
 40
1.0
 10
9.4226691736
 20
6.9514708946
 30
0.0
 10
9.4202136687
 20
6.949099061
 30
0.0
 10
9.4152072643
 20
6.9444520308
 30
0.0
 10
9.407425808
 20
6.9377846148
 30
0.0
 10
9.3993823138
 20
6.9314287962
 30
0.0
 10
9.391088043
 20
6.925393424
 30
0.0
 10
9.3825543698
 20
6.919686758
 30
0.0
 10
9.3737930188
 20
6.9143167116
 30
0.0
 10
9.3648160981
 20
6.9092905767
 30
0.0
 10
9.3556359069
 20
6.9046153764
 30
0.0
 10
9.3462651181
 20
6.9002974339
 30
0.0
 10
9.3367166465
 20
6.8963427634
 30
0.0
 10
9.3270034492
 20
6.8927567403
 30
0.0
 10
9.3138389428
 20
6.888469485
 30
0.0
 10
9.2970311635
 20
6.8840567952
 30
0.0
 10
9.27644717
 20
6.8803104365
 30
0.0
 10
9.2555369008
 20
6.8781264718
 30
0.0
 10
9.234416209
 20
6.8775169182
 30
0.0
 10
9.2132010395
 20
6.8784847788
 30
0.0
 10
9.1920080674
 20
6.881024492
 30
0.0
 10
9.1709537202
 20
6.8851218521
 30
0.0
 10
9.1501536389
 20
6.8907541272
 30
0.0
 10
9.1297220212
 20
6.8978901677
 30
0.0
 10
9.1097710134
 20
6.9064906042
 30
0.0
 10
9.0904101019
 20
6.9165080633
 30
0.0
 10
9.0717455223
 20
6.9278874303
 30
0.0
 10
9.0538796846
 20
6.9405661494
 30
0.0
 10
9.036910621
 20
6.9544745673
 30
0.0
 10
9.0209314429
 20
6.9695362989
 30
0.0
 10
9.0060298405
 20
6.9856686533
 30
0.0
 10
8.9922876109
 20
7.0027830872
 30
0.0
 10
8.9797802142
 20
7.0207856851
 30
0.0
 10
8.9685763621
 20
7.0395776664
 30
0.0
 10
8.9587376473
 20
7.059055926
 30
0.0
 10
8.9503181952
 20
7.0791135744
 30
0.0
 10
8.9433643739
 20
7.0996405627
 30
0.0
 10
8.9379145095
 20
7.1205241232
 30
0.0
 10
8.9339987912
 20
7.1416499703
 30
0.0
 10
8.9316388475
 20
7.1629006016
 30
0.0
 10
8.9311102815
 20
7.1771130451
 30
0.0
 10
8.9311102815
 20
7.1841986174
 30
0.0
  0
SPLINE
  5
35B
100
AcDbEntity
  8
0
100
AcDbSpline
 62
7
  6
CONTINUOUS
 70
0
 71
3
 72
23
 73
19
 74
0
 42
0.0000001
 43
0.0000001
 44
0.0000000001
 40
0.0
 40
0.0
 40
0.0
 40
0.0
 40
0.0637744828
 40
0.1273454316
 40
0.1907025265
 40
0.2538558004
 40
0.316813226
 40
0.3795821625
 40
0.4421733656
 40
0.5045993404
 40
0.5668738661
 40
0.6290123724
 40
0.6910316429
 40
0.7529496283
 40
0.8147853425
 40
0.8765585905
 40
0.938289842
 40
1.0
 40
1.0
 40
1.0
 40
1.0
 10
10.6311399341
 20
8.273708515
 30
0.0
 10
10.6311399341
 20
8.2757141908
 30
0.0
 10
10.6312359753
 20
8.2797198196
 30
0.0
 10
10.6316692379
 20
8.2857038922
 30
0.0
 10
10.6323907189
 20
8.2916405807
 30
0.0
 10
10.6333986761
 20
8.2975158005
 30
0.0
 10
10.6346907187
 20
8.303316234
 30
0.0
 10
10.6362640278
 20
8.3090284628
 30
0.0
 10
10.6381148928
 20
8.314639311
 30
0.0
 10
10.640239071
 20
8.3201358499
 30
0.0
 10
10.6426317309
 20
8.3255053816
 30
0.0
 10
10.6452872781
 20
8.3307355574
 30
0.0
 10
10.6481996805
 20
8.3358142715
 30
0.0
 10
10.6513621871
 20
8.3407298314
 30
0.0
 10
10.6547674859
 20
8.3454709002
 30
0.0
 10
10.6584078317
 20
8.3500265257
 30
0.0
 10
10.6622745979
 20
8.3543861282
 30
0.0
 10
10.6649980191
 20
8.3571555987
 30
0.0
 10
10.6663939207
 20
8.358503925
 30
0.0
  0
SPLINE
  5
35C
100
AcDbEntity
  8
0
100
AcDbSpline
 62
7
  6
CONTINUOUS
 70
0
 71
3
 72
45
 73
41
 74
0
 42
0.0000001
 43
0.0000001
 44
0.0000000001
 40
0.0
 40
0.0
 40
0.0
 40
0.0
 40
0.0149721379
 40
0.0299473343
 40
0.0449286317
 40
0.0599190303
 40
0.0749214809
 40
0.089938856
 40
0.1049739397
 40
0.1200294108
 40
0.1351078203
 40
0.1502115887
 40
0.1653429784
 40
0.1805040926
 40
0.2109173739
 40
0.2414702831
 40
0.2721727342
 40
0.3030312377
 40
0.3340488046
 40
0.365224933
 40
0.396555672
 40
0.4280337568
 40
0.4596488082
 40
0.4913875919
 40
0.5232343248
 40
0.5551710235
 40
0.5871778874
 40
0.6192337084
 40
0.6513163011
 40
0.6834029486
 40
0.7154708537
 40
0.7474975916
 40
0.7794615572
 40
0.8113424013
 40
0.8431214485
 40
0.8747820968
 40
0.9063101458
 40
0.9376942762
 40
0.9689257414
 40
1.0
 40
1.0
 40
1.0
 40
1.0
 10
9.4226691736
 20
9.3662856034
 30
0.0
 10
9.4202136687
 20
9.3639137698
 30
0.0
 10
9.4152072643
 20
9.3592667396
 30
0.0
 10
9.407425808
 20
9.3525993236
 30
0.0
 10
9.3993823138
 20
9.346243505
 30
0.0
 10
9.391088043
 20
9.3402081329
 30
0.0
 10
9.3825543698
 20
9.3345014668
 30
0.0
 10
9.3737930188
 20
9.3291314204
 30
0.0
 10
9.3648160981
 20
9.3241052855
 30
0.0
 10
9.3556359069
 20
9.3194300852
 30
0.0
 10
9.3462651181
 20
9.3151121427
 30
0.0
 10
9.3367166465
 20
9.3111574722
 30
0.0
 10
9.3270034492
 20
9.3075714491
 30
0.0
 10
9.3138389428
 20
9.3032841938
 30
0.0
 10
9.2970311635
 20
9.298871504
 30
0.0
 10
9.27644717
 20
9.2951251453
 30
0.0
 10
9.2555369008
 20
9.2929411806
 30
0.0
 10
9.234416209
 20
9.292331627
 30
0.0
 10
9.2132010395
 20
9.2932994876
 30
0.0
 10
9.1920080674
 20
9.2958392008
 30
0.0
 10
9.1709537202
 20
9.2999365609
 30
0.0
 10
9.1501536389
 20
9.305568836
 30
0.0
 10
9.1297220212
 20
9.3127048765
 30
0.0
 10
9.1097710134
 20
9.321305313
 30
0.0
 10
9.0904101019
 20
9.3313227721
 30
0.0
 10
9.0717455223
 20
9.3427021391
 30
0.0
 10
9.0538796846
 20
9.3553808582
 30
0.0
 10
9.036910621
 20
9.3692892761
 30
0.0
 10
9.0209314429
 20
9.3843510077
 30
0.0
 10
9.0060298405
 20
9.4004833621
 30
0.0
 10
8.9922876109
 20
9.417597796
 30
0.0
 10
8.9797802142
 20
9.4356003939
 30
0.0
 10
8.9685763621
 20
9.4543923752
 30
0.0
 10
8.9587376473
 20
9.4738706348
 30
0.0
 10
8.9503181952
 20
9.4939282832
 30
0.0
 10
8.9433643739
 20
9.5144552715
 30
0.0
 10
8.9379145095
 20
9.535338832
 30
0.0
 10
8.9339987912
 20
9.5564646791
 30
0.0
 10
8.9316388475
 20
9.5777153104
 30
0.0
 10
8.9311102815
 20
9.5919277539
 30
0.0
 10
8.9311102815
 20
9.5990133262
 30
0.0
  0
SPLINE
  5
35D
100
AcDbEntity
  8
0
100
AcDbSpline
 62
7
  6
CONTINUOUS
 70
0
 71
3
 72
23
 73
19
 74
0
 42
0.0000001
 43
0.0000001
 44
0.0000000001
 40
0.0
 40
0.0
 40
0.0
 40
0.0
 40
0.0637764154
 40
0.1273451281
 40
0.190701988
 40
0.253856063
 40
0.3168132283
 40
0.3795820791
 40
0.4421733864
 40
0.5045993414
 40
0.5668738629
 40
0.629012379
 40
0.6910316532
 40
0.7529496461
 40
0.8147853522
 40
0.8765586034
 40
0.9382898574
 40
1.0
 40
1.0
 40
1.0
 40
1.0
 10
10.5152288281
 20
7.4665055493
 30
0.0
 10
10.5152288281
 20
7.4703626955
 30
0.0
 10
10.5154134673
 20
7.4780657325
 30
0.0
 10
10.5162467254
 20
7.4895734101
 30
0.0
 10
10.5176341535
 20
7.5009898997
 30
0.0
 10
10.5195724095
 20
7.5122883218
 30
0.0
 10
10.5220571544
 20
7.5234428996
 30
0.0
 10
10.5250826401
 20
7.5344278467
 30
0.0
 10
10.5286419071
 20
7.5452178478
 30
0.0
 10
10.5327268257
 20
7.5557880102
 30
0.0
 10
10.5373279625
 20
7.5661139636
 30
0.0
 10
10.5424347144
 20
7.5761719008
 30
0.0
 10
10.5480353481
 20
7.5859386064
 30
0.0
 10
10.5541169781
 20
7.5953915445
 30
0.0
 10
10.5606655361
 20
7.604508908
 30
0.0
 10
10.5676660068
 20
7.6132697351
 30
0.0
 10
10.5751020025
 20
7.6216535147
 30
0.0
 10
10.5803392294
 20
7.6269794302
 30
0.0
 10
10.5830236163
 20
7.6295723497
 30
0.0
  0
SPLINE
  5
35E
100
AcDbEntity
  8
0
100
AcDbSpline
 62
7
  6
CONTINUOUS
 70
0
 71
3
 72
45
 73
41
 74
0
 42
0.0000001
 43
0.0000001
 44
0.0000000001
 40
0.0
 40
0.0
 40
0.0
 40
0.0
 40
0.0149721379
 40
0.0299473343
 40
0.0449286317
 40
0.0599190303
 40
0.0749214809
 40
0.089938856
 40
0.1049739397
 40
0.1200294108
 40
0.1351078203
 40
0.1502115887
 40
0.1653429784
 40
0.1805040926
 40
0.2109173739
 40
0.2414702831
 40
0.2721727342
 40
0.3030312377
 40
0.3340488046
 40
0.365224933
 40
0.396555672
 40
0.4280337568
 40
0.4596488082
 40
0.4913875919
 40
0.5232343248
 40
0.5551710235
 40
0.5871778874
 40
0.6192337084
 40
0.6513163011
 40
0.6834029486
 40
0.7154708537
 40
0.7474975916
 40
0.7794615572
 40
0.8113424013
 40
0.8431214485
 40
0.8747820968
 40
0.9063101458
 40
0.9376942762
 40
0.9689257414
 40
1.0
 40
1.0
 40
1.0
 40
1.0
 10
12.5020409704
 20
9.152730444
 30
0.0
 10
12.4995854655
 20
9.1503586104
 30
0.0
 10
12.4945790611
 20
9.1457115802
 30
0.0
 10
12.4867976048
 20
9.1390441641
 30
0.0
 10
12.4787541106
 20
9.1326883456
 30
0.0
 10
12.4704598398
 20
9.1266529734
 30
0.0
 10
12.4619261666
 20
9.1209463074
 30
0.0
 10
12.4531648156
 20
9.1155762609
 30
0.0
 10
12.444187895
 20
9.1105501261
 30
0.0
 10
12.4350077037
 20
9.1058749258
 30
0.0
 10
12.4256369149
 20
9.1015569833
 30
0.0
 10
12.4160884434
 20
9.0976023128
 30
0.0
 10
12.406375246
 20
9.0940162897
 30
0.0
 10
12.3932107396
 20
9.0897290344
 30
0.0
 10
12.3764029603
 20
9.0853163445
 30
0.0
 10
12.3558189668
 20
9.0815699859
 30
0.0
 10
12.3349086976
 20
9.0793860212
 30
0.0
 10
12.3137880058
 20
9.0787764675
 30
0.0
 10
12.2925728363
 20
9.0797443282
 30
0.0
 10
12.2713798643
 20
9.0822840414
 30
0.0
 10
12.250325517
 20
9.0863814014
 30
0.0
 10
12.2295254357
 20
9.0920136765
 30
0.0
 10
12.209093818
 20
9.0991497171
 30
0.0
 10
12.1891428103
 20
9.1077501535
 30
0.0
 10
12.1697818987
 20
9.1177676127
 30
0.0
 10
12.1511173191
 20
9.1291469797
 30
0.0
 10
12.1332514814
 20
9.1418256988
 30
0.0
 10
12.1162824178
 20
9.1557341167
 30
0.0
 10
12.1003032397
 20
9.1707958483
 30
0.0
 10
12.0854016373
 20
9.1869282026
 30
0.0
 10
12.0716594078
 20
9.2040426366
 30
0.0
 10
12.059152011
 20
9.2220452344
 30
0.0
 10
12.0479481589
 20
9.2408372158
 30
0.0
 10
12.0381094441
 20
9.2603154754
 30
0.0
 10
12.029689992
 20
9.2803731237
 30
0.0
 10
12.0227361707
 20
9.300900112
 30
0.0
 10
12.0172863064
 20
9.3217836726
 30
0.0
 10
12.013370588
 20
9.3429095196
 30
0.0
 10
12.0110106443
 20
9.3641601509
 30
0.0
 10
12.0104820783
 20
9.3783725945
 30
0.0
 10
12.0104820783
 20
9.3854581668
 30
0.0
  0
SPLINE
  5
35F
100
AcDbEntity
  8
0
100
AcDbSpline
 62
7
  6
CONTINUOUS
 70
0
 71
3
 72
23
 73
19
 74
0
 42
0.0000001
 43
0.0000001
 44
0.0000000001
 40
0.0
 40
0.0
 40
0.0
 40
0.0
 40
0.0637764154
 40
0.1273451281
 40
0.190701988
 40
0.253856063
 40
0.3168132283
 40
0.3795820791
 40
0.4421733864
 40
0.5045993414
 40
0.5668738629
 40
0.629012379
 40
0.6910316532
 40
0.7529496461
 40
0.8147853522
 40
0.8765586034
 40
0.9382898574
 40
1.0
 40
1.0
 40
1.0
 40
1.0
 10
9.8216941064
 20
8.3298437738
 30
0.0
 10
9.8216941064
 20
8.33370092
 30
0.0
 10
9.8218787456
 20
8.341403957
 30
0.0
 10
9.8227120037
 20
8.3529116346
 30
0.0
 10
9.8240994318
 20
8.3643281242
 30
0.0
 10
9.8260376878
 20
8.3756265463
 30
0.0
 10
9.8285224327
 20
8.3867811241
 30
0.0
 10
9.8315479184
 20
8.3977660712
 30
0.0
 10
9.8351071854
 20
8.4085560723
 30
0.0
 10
9.839192104
 20
8.4191262347
 30
0.0
 10
9.8437932408
 20
8.4294521881
 30
0.0
 10
9.8488999927
 20
8.4395101253
 30
0.0
 10
9.8545006264
 20
8.4492768309
 30
0.0
 10
9.8605822564
 20
8.458729769
 30
0.0
 10
9.8671308143
 20
8.4678471325
 30
0.0
 10
9.8741312851
 20
8.4766079596
 30
0.0
 10
9.8815672807
 20
8.4849917392
 30
0.0
 10
9.8868045076
 20
8.4903176547
 30
0.0
 10
9.8894888946
 20
8.4929105742
 30
0.0
  0
SPLINE
  5
360
100
AcDbEntity
  8
0
100
AcDbSpline
 62
7
  6
CONTINUOUS
 70
0
 71
3
 72
41
 73
37
 74
0
 42
0.0000001
 43
0.0000001
 44
0.0000000001
 40
0.0
 40
0.0
 40
0.0
 40
0.0
 40
0.0299421756
 40
0.0599087291
 40
0.0899234427
 40
0.12000893
 40
0.1501860972
 40
0.1804736576
 40
0.2108877103
 40
0.2414413945
 40
0.2721446252
 40
0.3030039132
 40
0.3340222692
 40
0.3651991907
 40
0.3965307261
 40
0.4280096099
 40
0.4596254632
 40
0.491365051
 40
0.5232125895
 40
0.5551500944
 40
0.5871577641
 40
0.61921439
 40
0.6512977872
 40
0.6833852384
 40
0.715453946
 40
0.7314766505
 40
0.7474863166
 40
0.7794510815
 40
0.8113327211
 40
0.8272389267
 40
0.8431175145
 40
0.8747789379
 40
0.9063078385
 40
0.9376925801
 40
0.9689252405
 40
1.0
 40
1.0
 40
1.0
 40
1.0
 10
10.8470266773
 20
8.1714964362
 30
0.0
 10
10.844870019
 20
8.1694132814
 30
0.0
 10
10.84038709
 20
8.1654151257
 30
0.0
 10
10.8332047762
 20
8.1599683279
 30
0.0
 10
10.8256012203
 20
8.1550992585
 30
0.0
 10
10.8176189161
 20
8.1508352224
 30
0.0
 10
10.8093017469
 20
8.1471995171
 30
0.0
 10
10.8006956145
 20
8.1442121273
 30
0.0
 10
10.7918479433
 20
8.1418893985
 30
0.0
 10
10.7828074771
 20
8.1402440115
 30
0.0
 10
10.7736239907
 20
8.1392849042
 30
0.0
 10
10.7643480187
 20
8.1390172329
 30
0.0
 10
10.7550305761
 20
8.1394423501
 30
0.0
 10
10.7457228801
 20
8.1405578031
 30
0.0
 10
10.7364760706
 20
8.142357353
 30
0.0
 10
10.7273409328
 20
8.1448310132
 30
0.0
 10
10.718367622
 20
8.1479651073
 30
0.0
 10
10.7096053917
 20
8.1517423456
 30
0.0
 10
10.7011023272
 20
8.1561419231
 30
0.0
 10
10.6929050864
 20
8.1611396315
 30
0.0
 10
10.6850586422
 20
8.166708
 30
0.0
 10
10.6776060579
 20
8.1728164173
 30
0.0
 10
10.6705881837
 20
8.1794314031
 30
0.0
 10
10.6640436958
 20
8.1865163992
 30
0.0
 10
10.6590122596
 20
8.1927826045
 30
0.0
 10
10.6552583089
 20
8.1979910464
 30
0.0
 10
10.6516932742
 20
8.2033180768
 30
0.0
 10
10.6475945209
 20
8.210192712
 30
0.0
 10
10.6439906353
 20
8.217327699
 30
0.0
 10
10.6414198389
 20
8.2231633413
 30
0.0
 10
10.6390646178
 20
8.229065492
 30
0.0
 10
10.6365217063
 20
8.2365717733
 30
0.0
 10
10.6341282852
 20
8.2457434027
 30
0.0
 10
10.6324085042
 20
8.2550216895
 30
0.0
 10
10.6313720866
 20
8.2643546974
 30
0.0
 10
10.6311399341
 20
8.2705966453
 30
0.0
 10
10.6311399341
 20
8.273708515
 30
0.0
  0
SPLINE
  5
361
100
AcDbEntity
  8
0
100
AcDbSpline
 62
7
  6
CONTINUOUS
 70
0
 71
3
 72
39
 73
35
 74
0
 42
0.0000001
 43
0.0000001
 44
0.0000000001
 40
0.0
 40
0.0
 40
0.0
 40
0.0
 40
0.0299407059
 40
0.059954879
 40
0.0900595442
 40
0.1202698939
 40
0.1505990003
 40
0.181057579
 40
0.2116538066
 40
0.2423931982
 40
0.2732785415
 40
0.3043098822
 40
0.3354845599
 40
0.3667972931
 40
0.3982403074
 40
0.429803505
 40
0.4614746738
 40
0.4932397228
 40
0.5250829419
 40
0.5569872815
 40
0.5889346501
 40
0.6209062246
 40
0.6528827738
 40
0.684844985
 40
0.7167737889
 40
0.748650682
 40
0.7804580385
 40
0.812179418
 40
0.8437998668
 40
0.8753061195
 40
0.906687184
 40
0.9379333935
 40
0.9690397889
 40
1.0
 40
1.0
 40
1.0
 40
1.0
 10
10.86143161
 20
8.1885274637
 30
0.0
 10
10.8590955438
 20
8.1870331697
 30
0.0
 10
10.8543066186
 20
8.1842106417
 30
0.0
 10
10.8468260462
 20
8.1805046766
 30
0.0
 10
10.8390741494
 20
8.1773383873
 30
0.0
 10
10.8310877172
 20
8.1747268325
 30
0.0
 10
10.8229039913
 20
8.1726820806
 30
0.0
 10
10.8145612911
 20
8.1712136488
 30
0.0
 10
10.80609862
 20
8.1703283187
 30
0.0
 10
10.7975555374
 20
8.1700301405
 30
0.0
 10
10.788971956
 20
8.1703204234
 30
0.0
 10
10.7803879613
 20
8.1711977332
 30
0.0
 10
10.7718436261
 20
8.1726579016
 30
0.0
 10
10.7633788258
 20
8.174694048
 30
0.0
 10
10.7550330566
 20
8.1772966151
 30
0.0
 10
10.7468452473
 20
8.1804533969
 30
0.0
 10
10.738853581
 20
8.184149611
 30
0.0
 10
10.7310953215
 20
8.1883679715
 30
0.0
 10
10.7236066419
 20
8.1930887687
 30
0.0
 10
10.7164224588
 20
8.1982899606
 30
0.0
 10
10.7095762724
 20
8.203947275
 30
0.0
 10
10.70310001
 20
8.210034318
 30
0.0
 10
10.6970238677
 20
8.2165226882
 30
0.0
 10
10.691376183
 20
8.2233821229
 30
0.0
 10
10.6861833023
 20
8.2305806348
 30
0.0
 10
10.6814694609
 20
8.2380846607
 30
0.0
 10
10.6772566698
 20
8.2458592139
 30
0.0
 10
10.6735646149
 20
8.2538680482
 30
0.0
 10
10.6704105643
 20
8.2620738116
 30
0.0
 10
10.6678092432
 20
8.2704382525
 30
0.0
 10
10.6657729061
 20
8.2789222854
 30
0.0
 10
10.664310984
 20
8.2874865587
 30
0.0
 10
10.6634305535
 20
8.2960904749
 30
0.0
 10
10.6632334687
 20
8.3018409577
 30
0.0
 10
10.6632334687
 20
8.3047084907
 30
0.0
  0
SPLINE
  5
362
100
AcDbEntity
  8
0
100
AcDbSpline
 62
7
  6
CONTINUOUS
 70
0
 71
3
 72
23
 73
19
 74
0
 42
0.0000001
 43
0.0000001
 44
0.0000000001
 40
0.0
 40
0.0
 40
0.0
 40
0.0
 40
0.0637764154
 40
0.1273451281
 40
0.190701988
 40
0.253856063
 40
0.3168132283
 40
0.3795820791
 40
0.4421733864
 40
0.5045993414
 40
0.5668738629
 40
0.629012379
 40
0.6910316532
 40
0.7529496461
 40
0.8147853522
 40
0.8765586034
 40
0.9382898574
 40
1.0
 40
1.0
 40
1.0
 40
1.0
 10
11.208763665
 20
8.2336501732
 30
0.0
 10
11.208763665
 20
8.2375073194
 30
0.0
 10
11.2089483042
 20
8.2452103564
 30
0.0
 10
11.2097815623
 20
8.256718034
 30
0.0
 10
11.2111689904
 20
8.2681345236
 30
0.0
 10
11.2131072464
 20
8.2794329457
 30
0.0
 10
11.2155919913
 20
8.2905875235
 30
0.0
 10
11.218617477
 20
8.3015724706
 30
0.0
 10
11.222176744
 20
8.3123624717
 30
0.0
 10
11.2262616626
 20
8.3229326341
 30
0.0
 10
11.2308627994
 20
8.3332585875
 30
0.0
 10
11.2359695513
 20
8.3433165247
 30
0.0
 10
11.241570185
 20
8.3530832303
 30
0.0
 10
11.247651815
 20
8.3625361684
 30
0.0
 10
11.254200373
 20
8.3716535319
 30
0.0
 10
11.2612008437
 20
8.380414359
 30
0.0
 10
11.2686368394
 20
8.3887981386
 30
0.0
 10
11.2738740662
 20
8.3941240541
 30
0.0
 10
11.2765584532
 20
8.3967169736
 30
0.0
  0
SPLINE
  5
363
100
AcDbEntity
  8
0
100
AcDbSpline
 62
7
  6
CONTINUOUS
 70
0
 71
3
 72
15
 73
11
 74
0
 42
0.0000001
 43
0.0000001
 44
0.0000000001
 40
0.0
 40
0.0
 40
0.0
 40
0.0
 40
0.1233934028
 40
0.2471133869
 40
0.3712392566
 40
0.4958407119
 40
0.6209774214
 40
0.7466947139
 40
0.8730305075
 40
1.0
 40
1.0
 40
1.0
 40
1.0
 10
10.6840154386
 20
8.3724576235
 30
0.0
 10
10.6823316114
 20
8.3700242739
 30
0.0
 10
10.6791480258
 20
8.3650175781
 30
0.0
 10
10.6749627656
 20
8.3571503475
 30
0.0
 10
10.6713832222
 20
8.3489575423
 30
0.0
 10
10.668428753
 20
8.3404834242
 30
0.0
 10
10.6661149456
 20
8.3317730636
 30
0.0
 10
10.664453953
 20
8.3228726913
 30
0.0
 10
10.6634546259
 20
8.313830375
 30
0.0
 10
10.6632334687
 20
8.3077533823
 30
0.0
 10
10.6632334687
 20
8.3047084907
 30
0.0
  0
SPLINE
  5
364
100
AcDbEntity
  8
0
100
AcDbSpline
 62
7
  6
CONTINUOUS
 70
0
 71
3
 72
42
 73
38
 74
0
 42
0.0000001
 43
0.0000001
 44
0.0000000001
 40
0.0
 40
0.0
 40
0.0
 40
0.0
 40
0.0149723971
 40
0.029947854
 40
0.0449294092
 40
0.0599200692
 40
0.0749227779
 40
0.0899404136
 40
0.1200256609
 40
0.1502025864
 40
0.1804899033
 40
0.2109037105
 40
0.2414571471
 40
0.2721601282
 40
0.3030191646
 40
0.3340372675
 40
0.3652139349
 40
0.3965452155
 40
0.4280238444
 40
0.459639443
 40
0.4913787765
 40
0.5232260611
 40
0.5551633129
 40
0.5871707307
 40
0.6192271064
 40
0.6513102549
 40
0.683397459
 40
0.7154659208
 40
0.7474932143
 40
0.7794577337
 40
0.8113391302
 40
0.8431187274
 40
0.8747799267
 40
0.906308519
 40
0.9376931951
 40
0.9689252215
 40
1.0
 40
1.0
 40
1.0
 40
1.0
 10
10.9303969817
 20
7.2699451552
 30
0.0
 10
10.9283230758
 20
7.2679419153
 30
0.0
 10
10.9240947266
 20
7.2640170181
 30
0.0
 10
10.9175225192
 20
7.2583857882
 30
0.0
 10
10.910729047
 20
7.2530176561
 30
0.0
 10
10.9037237709
 20
7.2479202269
 30
0.0
 10
10.8965161745
 20
7.2431003616
 30
0.0
 10
10.8866451563
 20
7.2370500364
 30
0.0
 10
10.8738434408
 20
7.230211246
 30
0.0
 10
10.8578492716
 20
7.2232196244
 30
0.0
 10
10.8412988996
 20
7.2174744458
 30
0.0
 10
10.8242841505
 20
7.213007558
 30
0.0
 10
10.8068985965
 20
7.2098432346
 30
0.0
 10
10.7892380048
 20
7.2079986929
 30
0.0
 10
10.7713995455
 20
7.2074838408
 30
0.0
 10
10.7534813287
 20
7.2083012816
 30
0.0
 10
10.7355818484
 20
7.210446299
 30
0.0
 10
10.7177994517
 20
7.2139068965
 30
0.0
 10
10.7002318037
 20
7.2186638712
 30
0.0
 10
10.6829753585
 20
7.2246909233
 30
0.0
 10
10.6661248348
 20
7.2319548015
 30
0.0
 10
10.6497727048
 20
7.2404154941
 30
0.0
 10
10.6340086941
 20
7.2500264488
 30
0.0
 10
10.6189192961
 20
7.2607348283
 30
0.0
 10
10.6045873031
 20
7.2724817984
 30
0.0
 10
10.5910913586
 20
7.2852028492
 30
0.0
 10
10.5785055297
 20
7.2988281453
 30
0.0
 10
10.5668989059
 20
7.3132829062
 30
0.0
 10
10.5563352228
 20
7.3284878112
 30
0.0
 10
10.5468725103
 20
7.344359427
 30
0.0
 10
10.5385627829
 20
7.3608106674
 30
0.0
 10
10.5314517494
 20
7.3777512538
 30
0.0
 10
10.5255785808
 20
7.3950882425
 30
0.0
 10
10.5209756459
 20
7.4127263911
 30
0.0
 10
10.5176684466
 20
7.4305691784
 30
0.0
 10
10.5156752526
 20
7.4485173556
 30
0.0
 10
10.5152288281
 20
7.4605211142
 30
0.0
 10
10.5152288281
 20
7.4665055493
 30
0.0
  0
SPLINE
  5
365
100
AcDbEntity
  8
0
100
AcDbSpline
 62
7
  6
CONTINUOUS
 70
0
 71
3
 72
71
 73
67
 74
0
 42
0.0000001
 43
0.0000001
 44
0.0000000001
 40
0.0
 40
0.0
 40
0.0
 40
0.0
 40
0.0041249993
 40
0.0083896004
 40
0.0127952241
 40
0.0173429367
 40
0.022033417
 40
0.0268671159
 40
0.0318442596
 40
0.036964812
 40
0.0476348007
 40
0.0588736821
 40
0.0706750594
 40
0.0830302457
 40
0.0959286586
 40
0.1093579682
 40
0.1233042458
 40
0.1377522186
 40
0.1526852912
 40
0.1680856906
 40
0.1839346156
 40
0.2002122168
 40
0.2168977559
 40
0.2339696705
 40
0.2514055711
 40
0.2691823912
 40
0.2872763971
 40
0.3056632285
 40
0.3243180126
 40
0.3432153565
 40
0.3816334937
 40
0.4207071226
 40
0.4602204886
 40
0.4999547117
 40
0.539689359
 40
0.5792039945
 40
0.6182797296
 40
0.6567007954
 40
0.6755999039
 40
0.6942566519
 40
0.7126456388
 40
0.7307419892
 40
0.7485213412
 40
0.765959951
 40
0.7830347507
 40
0.7997233456
 40
0.8160041621
 40
0.8318564615
 40
0.8472603832
 40
0.8621971166
 40
0.8766488869
 40
0.8905990813
 40
0.9040324197
 40
0.9169349667
 40
0.9292943713
 40
0.9411000422
 40
0.9523432772
 40
0.9630176609
 40
0.9681404222
 40
0.9731197676
 40
0.9779556573
 40
0.9826483303
 40
0.9871982445
 40
0.9916060868
 40
0.99587289
 40
1.0
 40
1.0
 40
1.0
 40
1.0
 10
13.0475402958
 20
7.9591148382
 30
0.0
 10
13.0482509952
 20
7.9599840017
 30
0.0
 10
13.0496705554
 20
7.9617730539
 30
0.0
 10
13.0517610476
 20
7.9645588837
 30
0.0
 10
13.0538471811
 20
7.9674903856
 30
0.0
 10
13.0559281793
 20
7.9705664804
 30
0.0
 10
13.0580033174
 20
7.9737860334
 30
0.0
 10
13.0600718104
 20
7.9771478628
 30
0.0
 10
13.0621328875
 20
7.9806507482
 30
0.0
 10
13.0649082455
 20
7.9855753285
 30
0.0
 10
13.0683482545
 20
7.9920800795
 30
0.0
 10
13.0723800762
 20
8.0003234457
 30
0.0
 10
13.0763644243
 20
8.0090961299
 30
0.0
 10
13.0802954411
 20
8.0183851972
 30
0.0
 10
13.0841672926
 20
8.0281770709
 30
0.0
 10
13.0879742283
 20
8.038457363
 30
0.0
 10
13.0917106298
 20
8.0492109418
 30
0.0
 10
13.0953709196
 20
8.0604219713
 30
0.0
 10
13.0989496717
 20
8.0720739163
 30
0.0
 10
13.102441587
 20
8.0841495773
 30
0.0
 10
13.1058414488
 20
8.0966311282
 30
0.0
 10
13.1091442313
 20
8.1095001247
 30
0.0
 10
13.1123450305
 20
8.1227375475
 30
0.0
 10
13.1154390718
 20
8.1363238315
 30
0.0
 10
13.1184217903
 20
8.1502388832
 30
0.0
 10
13.1212887452
 20
8.1644621244
 30
0.0
 10
13.1240356746
 20
8.1789725197
 30
0.0
 10
13.1266585228
 20
8.1937485967
 30
0.0
 10
13.1291533915
 20
8.2087685138
 30
0.0
 10
13.1323215634
 20
8.2292021876
 30
0.0
 10
13.1359301996
 20
8.2551899469
 30
0.0
 10
13.139673266
 20
8.2868175691
 30
0.0
 10
13.1428300472
 20
8.3188690548
 30
0.0
 10
13.1453818301
 20
8.3511547974
 30
0.0
 10
13.1473134982
 20
8.3834839145
 30
0.0
 10
13.1486136585
 20
8.415665263
 30
0.0
 10
13.1492746595
 20
8.447508463
 30
0.0
 10
13.1492899047
 20
8.4737474178
 30
0.0
 10
13.1489743179
 20
8.4944246437
 30
0.0
 10
13.1485778683
 20
8.5096467945
 30
0.0
 10
13.1480209974
 20
8.5246452772
 30
0.0
 10
13.1473045519
 20
8.5393979187
 30
0.0
 10
13.1464295857
 20
8.5538828891
 30
0.0
 10
13.1453974084
 20
8.568078763
 30
0.0
 10
13.1442095806
 20
8.5819645428
 30
0.0
 10
13.1428678483
 20
8.5955196936
 30
0.0
 10
13.1413742329
 20
8.6087241745
 30
0.0
 10
13.1397309711
 20
8.6215584673
 30
0.0
 10
13.1379404888
 20
8.6340036059
 30
0.0
 10
13.1360054888
 20
8.6460412104
 30
0.0
 10
13.1339288505
 20
8.65765351
 30
0.0
 10
13.1317136563
 20
8.6688233729
 30
0.0
 10
13.1293632455
 20
8.6795343399
 30
0.0
 10
13.1268810972
 20
8.6897706442
 30
0.0
 10
13.1242709103
 20
8.6995172341
 30
0.0
 10
13.1215365941
 20
8.7087598527
 30
0.0
 10
13.1186821655
 20
8.7174848768
 30
0.0
 10
13.1161737286
 20
8.7244056473
 30
0.0
 10
13.1141053011
 20
8.729668993
 30
0.0
 10
13.1125478992
 20
8.7334249681
 30
0.0
 10
13.1109636749
 20
8.7370422798
 30
0.0
 10
13.109353222
 20
8.7405196195
 30
0.0
 10
13.1077171419
 20
8.7438557137
 30
0.0
 10
13.1060559922
 20
8.7470493336
 30
0.0
 10
13.1043704182
 20
8.750099289
 30
0.0
 10
13.1032116533
 20
8.7520686754
 30
0.0
 10
13.1026278632
 20
8.7530283724
 30
0.0
  0
SPLINE
  5
366
100
AcDbEntity
  8
0
100
AcDbSpline
 62
7
  6
CONTINUOUS
 70
0
 71
3
 72
23
 73
19
 74
0
 42
0.0000001
 43
0.0000001
 44
0.0000000001
 40
0.0
 40
0.0
 40
0.0
 40
0.0
 40
0.0637764154
 40
0.1273451281
 40
0.190701988
 40
0.253856063
 40
0.3168132283
 40
0.3795820791
 40
0.4421733864
 40
0.5045993414
 40
0.5668738629
 40
0.629012379
 40
0.6910316532
 40
0.7529496461
 40
0.8147853522
 40
0.8765586034
 40
0.9382898574
 40
1.0
 40
1.0
 40
1.0
 40
1.0
 10
10.5152288281
 20
9.0969885208
 30
0.0
 10
10.5152288281
 20
9.100845667
 30
0.0
 10
10.5154134673
 20
9.108548704
 30
0.0
 10
10.5162467254
 20
9.1200563817
 30
0.0
 10
10.5176341535
 20
9.1314728712
 30
0.0
 10
10.5195724095
 20
9.1427712933
 30
0.0
 10
10.5220571544
 20
9.1539258712
 30
0.0
 10
10.5250826401
 20
9.1649108182
 30
0.0
 10
10.5286419071
 20
9.1757008194
 30
0.0
 10
10.5327268257
 20
9.1862709817
 30
0.0
 10
10.5373279625
 20
9.1965969351
 30
0.0
 10
10.5424347144
 20
9.2066548723
 30
0.0
 10
10.5480353481
 20
9.2164215779
 30
0.0
 10
10.5541169781
 20
9.225874516
 30
0.0
 10
10.5606655361
 20
9.2349918795
 30
0.0
 10
10.5676660068
 20
9.2437527066
 30
0.0
 10
10.5751020025
 20
9.2521364863
 30
0.0
 10
10.5803392294
 20
9.2574624017
 30
0.0
 10
10.5830236163
 20
9.2600553212
 30
0.0
  0
SPLINE
  5
367
100
AcDbEntity
  8
0
100
AcDbSpline
 62
4
  6
CONTINUOUS
 70
0
 71
3
 72
346
 73
342
 74
0
 42
0.0000001
 43
0.0000001
 44
0.0000000001
 40
0.0
 40
0.0
 40
0.0
 40
0.0
 40
0.015625
 40
0.03125
 40
0.0390625
 40
0.046875
 40
0.05078125
 40
0.0546875
 40
0.05859375
 40
0.060546875
 40
0.0615234375
 40
0.0625
 40
0.0634765625
 40
0.064453125
 40
0.06640625
 40
0.0703125
 40
0.07421875
 40
0.078125
 40
0.0859375
 40
0.09375
 40
0.1015625
 40
0.109375
 40
0.11328125
 40
0.1171875
 40
0.12109375
 40
0.123046875
 40
0.1240234375
 40
0.125
 40
0.1259765625
 40
0.126953125
 40
0.12890625
 40
0.1328125
 40
0.13671875
 40
0.140625
 40
0.1484375
 40
0.15625
 40
0.1640625
 40
0.171875
 40
0.17578125
 40
0.1796875
 40
0.18359375
 40
0.185546875
 40
0.1865234375
 40
0.1875
 40
0.1884765625
 40
0.189453125
 40
0.19140625
 40
0.1953125
 40
0.19921875
 40
0.203125
 40
0.2109375
 40
0.21875
 40
0.2265625
 40
0.234375
 40
0.23828125
 40
0.2421875
 40
0.244140625
 40
0.24609375
 40
0.248046875
 40
0.2490234375
 40
0.2495117188
 40
0.25
 40
0.2504882812
 40
0.2509765625
 40
0.251953125
 40
0.25390625
 40
0.255859375
 40
0.2578125
 40
0.26171875
 40
0.265625
 40
0.2734375
 40
0.28125
 40
0.2890625
 40
0.296875
 40
0.30078125
 40
0.3046875
 40
0.306640625
 40
0.30859375
 40
0.310546875
 40
0.3115234375
 40
0.3120117188
 40
0.3125
 40
0.3129882812
 40
0.3134765625
 40
0.314453125
 40
0.31640625
 40
0.318359375
 40
0.3203125
 40
0.32421875
 40
0.328125
 40
0.3359375
 40
0.34375
 40
0.3515625
 40
0.35546875
 40
0.359375
 40
0.36328125
 40
0.3671875
 40
0.369140625
 40
0.37109375
 40
0.3720703125
 40
0.373046875
 40
0.3740234375
 40
0.3745117188
 40
0.3747558594
 40
0.375
 40
0.3752441406
 40
0.3754882812
 40
0.3759765625
 40
0.376953125
 40
0.3779296875
 40
0.37890625
 40
0.380859375
 40
0.3828125
 40
0.38671875
 40
0.390625
 40
0.39453125
 40
0.3984375
 40
0.40625
 40
0.4140625
 40
0.41796875
 40
0.421875
 40
0.42578125
 40
0.4296875
 40
0.431640625
 40
0.43359375
 40
0.4345703125
 40
0.435546875
 40
0.4365234375
 40
0.4370117188
 40
0.4372558594
 40
0.4375
 40
0.4377441406
 40
0.4379882812
 40
0.4384765625
 40
0.439453125
 40
0.4404296875
 40
0.44140625
 40
0.443359375
 40
0.4453125
 40
0.44921875
 40
0.453125
 40
0.45703125
 40
0.4609375
 40
0.46875
 40
0.4765625
 40
0.48046875
 40
0.484375
 40
0.48828125
 40
0.4921875
 40
0.494140625
 40
0.49609375
 40
0.4970703125
 40
0.498046875
 40
0.4990234375
 40
0.4995117188
 40
0.4997558594
 40
0.5
 40
0.5002441406
 40
0.5004882812
 40
0.5009765625
 40
0.501953125
 40
0.5029296875
 40
0.50390625
 40
0.505859375
 40
0.5078125
 40
0.51171875
 40
0.515625
 40
0.51953125
 40
0.5234375
 40
0.53125
 40
0.5390625
 40
0.54296875
 40
0.546875
 40
0.55078125
 40
0.5546875
 40
0.556640625
 40
0.55859375
 40
0.5595703125
 40
0.560546875
 40
0.5615234375
 40
0.5620117188
 40
0.5622558594
 40
0.5625
 40
0.5627441406
 40
0.5629882812
 40
0.5634765625
 40
0.564453125
 40
0.5654296875
 40
0.56640625
 40
0.568359375
 40
0.5703125
 40
0.57421875
 40
0.578125
 40
0.58203125
 40
0.5859375
 40
0.59375
 40
0.6015625
 40
0.60546875
 40
0.609375
 40
0.61328125
 40
0.6171875
 40
0.619140625
 40
0.62109375
 40
0.6220703125
 40
0.623046875
 40
0.6240234375
 40
0.6245117188
 40
0.6247558594
 40
0.625
 40
0.6252441406
 40
0.6254882812
 40
0.6259765625
 40
0.626953125
 40
0.6279296875
 40
0.62890625
 40
0.630859375
 40
0.6328125
 40
0.63671875
 40
0.640625
 40
0.64453125
 40
0.6484375
 40
0.65625
 40
0.6640625
 40
0.66796875
 40
0.671875
 40
0.67578125
 40
0.6796875
 40
0.681640625
 40
0.68359375
 40
0.6845703125
 40
0.685546875
 40
0.6865234375
 40
0.6870117188
 40
0.6872558594
 40
0.6875
 40
0.6877441406
 40
0.6879882812
 40
0.6884765625
 40
0.689453125
 40
0.6904296875
 40
0.69140625
 40
0.693359375
 40
0.6953125
 40
0.69921875
 40
0.703125
 40
0.70703125
 40
0.7109375
 40
0.71875
 40
0.7265625
 40
0.73046875
 40
0.734375
 40
0.73828125
 40
0.7421875
 40
0.744140625
 40
0.74609375
 40
0.7470703125
 40
0.748046875
 40
0.7490234375
 40
0.7495117188
 40
0.7497558594
 40
0.75
 40
0.7502441406
 40
0.7504882812
 40
0.7509765625
 40
0.751953125
 40
0.7529296875
 40
0.75390625
 40
0.755859375
 40
0.7578125
 40
0.76171875
 40
0.765625
 40
0.76953125
 40
0.7734375
 40
0.78125
 40
0.7890625
 40
0.79296875
 40
0.796875
 40
0.80078125
 40
0.8046875
 40
0.806640625
 40
0.80859375
 40
0.8095703125
 40
0.810546875
 40
0.8115234375
 40
0.8120117188
 40
0.8125
 40
0.8129882812
 40
0.8134765625
 40
0.814453125
 40
0.8154296875
 40
0.81640625
 40
0.818359375
 40
0.8203125
 40
0.82421875
 40
0.828125
 40
0.83203125
 40
0.8359375
 40
0.84375
 40
0.8515625
 40
0.859375
 40
0.86328125
 40
0.8671875
 40
0.869140625
 40
0.87109375
 40
0.873046875
 40
0.8740234375
 40
0.8745117188
 40
0.875
 40
0.8754882812
 40
0.8759765625
 40
0.876953125
 40
0.87890625
 40
0.880859375
 40
0.8828125
 40
0.88671875
 40
0.890625
 40
0.8984375
 40
0.90625
 40
0.9140625
 40
0.921875
 40
0.92578125
 40
0.9296875
 40
0.931640625
 40
0.93359375
 40
0.935546875
 40
0.9365234375
 40
0.9370117188
 40
0.9375
 40
0.9379882812
 40
0.9384765625
 40
0.939453125
 40
0.94140625
 40
0.943359375
 40
0.9453125
 40
0.94921875
 40
0.953125
 40
0.9609375
 40
0.96875
 40
0.9765625
 40
0.984375
 40
1.0
 40
1.0
 40
1.0
 40
1.0
 10
10.1380584393
 20
10.4449986195
 30
0.0
 10
10.1337711007
 20
10.4451823196
 30
0.0
 10
10.1251964223
 20
10.4455497153
 30
0.0
 10
10.1144780801
 20
10.4460089826
 30
0.0
 10
10.1059033941
 20
10.4463763488
 30
0.0
 10
10.100544243
 20
10.4466060604
 30
0.0
 10
10.0962568589
 20
10.4467895831
 30
0.0
 10
10.0930414941
 20
10.4469279003
 30
0.0
 10
10.0903614721
 20
10.4470410167
 30
0.0
 10
10.0884865385
 20
10.4471244134
 30
0.0
 10
10.0874134589
 20
10.4471654869
 30
0.0
 10
10.0866134072
 20
10.4472148329
 30
0.0
 10
10.0857951677
 20
10.4471933065
 30
0.0
 10
10.0847105259
 20
10.4471893256
 30
0.0
 10
10.0828094469
 20
10.4471708411
 30
0.0
 10
10.0800951651
 20
10.4471504563
 30
0.0
 10
10.0768373655
 20
10.4471234171
 30
0.0
 10
10.0724938636
 20
10.4470882655
 30
0.0
 10
10.067064408
 20
10.4470440149
 30
0.0
 10
10.0605490904
 20
10.4469910563
 30
0.0
 10
10.0540337814
 20
10.4469380268
 30
0.0
 10
10.0486043043
 20
10.4468939534
 30
0.0
 10
10.0442608455
 20
10.4468584473
 30
0.0
 10
10.0410029146
 20
10.4468324891
 30
0.0
 10
10.0382890434
 20
10.4468087225
 30
0.0
 10
10.0363872314
 20
10.4467962752
 30
0.0
 10
10.0353037641
 20
10.4467826212
 30
0.0
 10
10.0344819168
 20
10.4467908075
 30
0.0
 10
10.0336954155
 20
10.4467285569
 30
0.0
 10
10.032634418
 20
10.4466701253
 30
0.0
 10
10.0307834168
 20
10.4465564227
 30
0.0
 10
10.028136126
 20
10.4463999752
 30
0.0
 10
10.0249606627
 20
10.4462096764
 30
0.0
 10
10.0207262622
 20
10.4459568398
 30
0.0
 10
10.0154334177
 20
10.4456404849
 30
0.0
 10
10.0090819292
 20
10.4452610004
 30
0.0
 10
10.0027304914
 20
10.4448814452
 30
0.0
 10
9.9974375201
 20
10.4445652672
 30
0.0
 10
9.9932033732
 20
10.4443120769
 30
0.0
 10
9.9900271366
 20
10.4441228568
 30
0.0
 10
9.9873822649
 20
10.4439630348
 30
0.0
 10
9.9855269453
 20
10.4438553562
 30
0.0
 10
9.9844728669
 20
10.4437872726
 30
0.0
 10
9.9836651124
 20
10.4437546698
 30
0.0
 10
9.9829230887
 20
10.4436515036
 30
0.0
 10
9.9819107961
 20
10.443538562
 30
0.0
 10
9.9801499665
 20
10.4433294464
 30
0.0
 10
9.9776289108
 20
10.4430367052
 30
0.0
 10
9.9746060344
 20
10.4426828496
 30
0.0
 10
9.9705746975
 20
10.4422119385
 30
0.0
 10
9.9655358133
 20
10.4416229919
 30
0.0
 10
9.9594890274
 20
10.4409163886
 30
0.0
 10
9.9534422822
 20
10.4402097471
 30
0.0
 10
9.9484032963
 20
10.4396208961
 30
0.0
 10
9.9443721629
 20
10.4391497938
 30
0.0
 10
9.941852582
 20
10.4388554002
 30
0.0
 10
9.9398371975
 20
10.4386197819
 30
0.0
 10
9.938324892
 20
10.4384433512
 30
0.0
 10
9.9370670777
 20
10.4382954252
 30
0.0
 10
9.9361818187
 20
10.4381936441
 30
0.0
 10
9.935683434
 20
10.4381327242
 30
0.0
 10
9.9352885809
 20
10.4380948074
 30
0.0
 10
9.9349742474
 20
10.4380271777
 30
0.0
 10
9.93452705
 20
10.4379473691
 30
0.0
 10
9.9337575403
 20
10.437802875
 30
0.0
 10
9.9326513993
 20
10.4375989795
 30
0.0
 10
9.9313269585
 20
10.4373532242
 30
0.0
 10
9.9295600145
 20
10.4370259281
 30
0.0
 10
9.9273516848
 20
10.4366166786
 30
0.0
 10
9.9238181615
 20
10.4359619516
 30
0.0
 10
9.919401325
 20
10.4351435181
 30
0.0
 10
9.9141010901
 20
10.4341614091
 30
0.0
 10
9.9088008716
 20
10.4331792947
 30
0.0
 10
9.9043839941
 20
10.4323608746
 30
0.0
 10
9.9008505528
 20
10.4317061206
 30
0.0
 10
9.8986420146
 20
10.43129694
 30
0.0
 10
9.8968754986
 20
10.4309695025
 30
0.0
 10
9.8955497504
 20
10.430724179
 30
0.0
 10
9.8944476996
 20
10.4305189328
 30
0.0
 10
9.8936708883
 20
10.4303768498
 30
0.0
 10
9.8932353898
 20
10.430293178
 30
0.0
 10
9.8928851209
 20
10.4302374147
 30
0.0
 10
9.8926252353
 20
10.4301549299
 30
0.0
 10
9.8922471945
 20
10.4300542709
 30
0.0
 10
9.8916003119
 20
10.429873775
 30
0.0
 10
9.8906685145
 20
10.4296181941
 30
0.0
 10
9.8895536446
 20
10.4293105252
 30
0.0
 10
9.8880660033
 20
10.4289006394
 30
0.0
 10
9.8862068448
 20
10.428388166
 30
0.0
 10
9.8832319715
 20
10.4275682734
 30
0.0
 10
9.8795134553
 20
10.4265433855
 30
0.0
 10
9.8750512035
 20
10.4253135295
 30
0.0
 10
9.8713326675
 20
10.4242886474
 30
0.0
 10
9.8683578376
 20
10.423468742
 30
0.0
 10
9.8661267141
 20
10.4228538132
 30
0.0
 10
9.8638955957
 20
10.4222388834
 30
0.0
 10
9.8620363142
 20
10.4217264451
 30
0.0
 10
9.8605489253
 20
10.4213164873
 30
0.0
 10
9.8596192246
 20
10.4210602801
 30
0.0
 10
9.8588756532
 20
10.4208552766
 30
0.0
 10
9.8583174568
 20
10.4207016272
 30
0.0
 10
9.8578539405
 20
10.4205732577
 30
0.0
 10
9.8575262461
 20
10.4204840435
 30
0.0
 10
9.8573440403
 20
10.4204320577
 30
0.0
 10
9.8571931654
 20
10.4203959028
 30
0.0
 10
9.8570966483
 20
10.4203489134
 30
0.0
 10
9.8569489983
 20
10.4202900401
 30
0.0
 10
9.8566994448
 20
10.420185251
 30
0.0
 10
9.8563383212
 20
10.4200364729
 30
0.0
 10
9.8559069498
 20
10.4198575451
 30
0.0
 10
9.8553310975
 20
10.4196191123
 30
0.0
 10
9.8546115185
 20
10.4193210243
 30
0.0
 10
9.85346006
 20
10.4188441097
 30
0.0
 10
9.8520207822
 20
10.4182479574
 30
0.0
 10
9.8502936294
 20
10.4175325786
 30
0.0
 10
9.8485664817
 20
10.4168171987
 30
0.0
 10
9.8462636164
 20
10.4158633592
 30
0.0
 10
9.8433850355
 20
10.4146710597
 30
0.0
 10
9.8405064541
 20
10.4134787603
 30
0.0
 10
9.8382035896
 20
10.4125249207
 30
0.0
 10
9.8364764396
 20
10.4118095412
 30
0.0
 10
9.8347492955
 20
10.4110941608
 30
0.0
 10
9.8333099908
 20
10.4104980133
 30
0.0
 10
9.832158587
 20
10.410021089
 30
0.0
 10
9.8314388688
 20
10.4097230257
 30
0.0
 10
9.8308633023
 20
10.4094845421
 30
0.0
 10
9.8304310576
 20
10.4093057696
 30
0.0
 10
9.8300726665
 20
10.4091565056
 30
0.0
 10
9.8298182351
 20
10.4090525839
 30
0.0
 10
9.8296784006
 20
10.4089923209
 30
0.0
 10
9.8295578765
 20
10.4089496002
 30
0.0
 10
9.8294971679
 20
10.4088974129
 30
0.0
 10
9.8293953588
 20
10.4088311318
 30
0.0
 10
9.829226914
 20
10.4087136016
 30
0.0
 10
9.8289811961
 20
10.4085465056
 30
0.0
 10
9.8286885101
 20
10.4083456461
 30
0.0
 10
9.8282975023
 20
10.4080779536
 30
0.0
 10
9.8278090027
 20
10.4077432969
 30
0.0
 10
9.8270272579
 20
10.4072078692
 30
0.0
 10
9.8260501268
 20
10.4065385767
 30
0.0
 10
9.8248775481
 20
10.405735429
 30
0.0
 10
9.8237049751
 20
10.4049322804
 30
0.0
 10
9.8221415424
 20
10.403861416
 30
0.0
 10
9.8201872524
 20
10.4025228353
 30
0.0
 10
9.8182329618
 20
10.4011842547
 30
0.0
 10
9.81666953
 20
10.4001133901
 30
0.0
 10
9.8154969544
 20
10.3993102418
 30
0.0
 10
9.8143243854
 20
10.3985070932
 30
0.0
 10
9.813347224
 20
10.3978378036
 30
0.0
 10
9.812565541
 20
10.3973023699
 30
0.0
 10
9.8120768842
 20
10.3969677285
 30
0.0
 10
9.811686199
 20
10.3967000045
 30
0.0
 10
9.8113925273
 20
10.3964992414
 30
0.0
 10
9.8111498937
 20
10.3963318438
 30
0.0
 10
9.8109759429
 20
10.396214852
 30
0.0
 10
9.8108829556
 20
10.3961477082
 30
0.0
 10
9.8107951493
 20
10.3960981711
 30
0.0
 10
9.8107763995
 20
10.3960454969
 30
0.0
 10
9.8107273122
 20
10.3959763589
 30
0.0
 10
9.8106526321
 20
10.3958548576
 30
0.0
 10
9.8105400789
 20
10.3956815508
 30
0.0
 10
9.8104075265
 20
10.3954734685
 30
0.0
 10
9.8102299128
 20
10.3951960654
 30
0.0
 10
9.810008196
 20
10.3948492978
 30
0.0
 10
9.8096532812
 20
10.3942944773
 30
0.0
 10
9.8092096954
 20
10.3936009491
 30
0.0
 10
9.8086773676
 20
10.3927687164
 30
0.0
 10
9.8081450465
 20
10.3919364833
 30
0.0
 10
9.8074352827
 20
10.3908268394
 30
0.0
 10
9.8065480789
 20
10.3894397844
 30
0.0
 10
9.8056608744
 20
10.3880527294
 30
0.0
 10
9.8049511115
 20
10.3869430855
 30
0.0
 10
9.8044187877
 20
10.3861108525
 30
0.0
 10
9.8038864703
 20
10.3852786194
 30
0.0
 10
9.8034428522
 20
10.3845850922
 30
0.0
 10
9.8030880033
 20
10.3840302697
 30
0.0
 10
9.8028661188
 20
10.3836835074
 30
0.0
 10
9.8026888493
 20
10.3834060934
 30
0.0
 10
9.8025552451
 20
10.3831980442
 30
0.0
 10
9.8024459829
 20
10.3830246342
 30
0.0
 10
9.8023654278
 20
10.3829033171
 30
0.0
 10
9.8023257538
 20
10.3828338838
 30
0.0
 10
9.8022780892
 20
10.3827821167
 30
0.0
 10
9.8022988822
 20
10.3827291728
 30
0.0
 10
9.8023027274
 20
10.3826589913
 30
0.0
 10
9.8023205821
 20
10.3825359826
 30
0.0
 10
9.8023402722
 20
10.3823603558
 30
0.0
 10
9.8023663901
 20
10.3821495608
 30
0.0
 10
9.8024003443
 20
10.3818685158
 30
0.0
 10
9.8024430848
 20
10.3815172044
 30
0.0
 10
9.8025113032
 20
10.380955109
 30
0.0
 10
9.8025966333
 20
10.3802524889
 30
0.0
 10
9.802699005
 20
10.3794093451
 30
0.0
 10
9.8028013832
 20
10.3785662012
 30
0.0
 10
9.8029378852
 20
10.3774420093
 30
0.0
 10
9.8031085135
 20
10.3760367695
 30
0.0
 10
9.8032791413
 20
10.3746315297
 30
0.0
 10
9.8034156441
 20
10.3735073379
 30
0.0
 10
9.8035180196
 20
10.3726641939
 30
0.0
 10
9.8036204016
 20
10.3718210502
 30
0.0
 10
9.8037056996
 20
10.3711184298
 30
0.0
 10
9.8037739834
 20
10.3705563349
 30
0.0
 10
9.8038165575
 20
10.3702050222
 30
0.0
 10
9.8038508534
 20
10.36992398
 30
0.0
 10
9.8038759272
 20
10.3697131765
 30
0.0
 10
9.803898884
 20
10.3695375763
 30
0.0
 10
9.8039109072
 20
10.3694145201
 30
0.0
 10
9.803924096
 20
10.3693444146
 30
0.0
 10
9.8039161885
 20
10.3692912372
 30
0.0
 10
9.803976318
 20
10.3692403469
 30
0.0
 10
9.8040327587
 20
10.3691716954
 30
0.0
 10
9.8041425871
 20
10.3690519269
 30
0.0
 10
9.8042937039
 20
10.3688806347
 30
0.0
 10
9.8044775185
 20
10.3686751673
 30
0.0
 10
9.8047217404
 20
10.3684011816
 30
0.0
 10
9.8050273136
 20
10.3680587096
 30
0.0
 10
9.8055160655
 20
10.3675107487
 30
0.0
 10
9.806127062
 20
10.3668257994
 30
0.0
 10
9.8068602335
 20
10.3660038596
 30
0.0
 10
9.8075934115
 20
10.3651819199
 30
0.0
 10
9.8085709799
 20
10.3640860003
 30
0.0
 10
9.8097929413
 20
10.3627161008
 30
0.0
 10
9.8110149021
 20
10.3613462013
 30
0.0
 10
9.8119924714
 20
10.3602502817
 30
0.0
 10
9.8127256467
 20
10.3594283419
 30
0.0
 10
9.8134588285
 20
10.3586064025
 30
0.0
 10
9.814069793
 20
10.3579214518
 30
0.0
 10
9.8145586101
 20
10.357373494
 30
0.0
 10
9.8148640173
 20
10.3570310139
 30
0.0
 10
9.8151085801
 20
10.3567570447
 30
0.0
 10
9.8152913529
 20
10.3565515272
 30
0.0
 10
9.8154457293
 20
10.3563803916
 30
0.0
 10
9.8155497389
 20
10.3562603437
 30
0.0
 10
9.8156155027
 20
10.3561921398
 30
0.0
 10
9.8156469945
 20
10.3561398743
 30
0.0
 10
9.8157466455
 20
10.3560918619
 30
0.0
 10
9.8158557389
 20
10.3560263618
 30
0.0
 10
9.8160577292
 20
10.3559124278
 30
0.0
 10
9.8163404957
 20
10.3557493037
 30
0.0
 10
9.8166822943
 20
10.3555537093
 30
0.0
 10
9.8171371599
 20
10.3552928629
 30
0.0
 10
9.8177060384
 20
10.3549668233
 30
0.0
 10
9.8186160783
 20
10.3544451496
 30
0.0
 10
9.819753685
 20
10.353793061
 30
0.0
 10
9.8211187887
 20
10.3530105532
 30
0.0
 10
9.8224838989
 20
10.3522280459
 30
0.0
 10
9.8243040436
 20
10.3511847026
 30
0.0
 10
9.8265792252
 20
10.3498805235
 30
0.0
 10
9.8288544064
 20
10.3485763443
 30
0.0
 10
9.8306745519
 20
10.3475330011
 30
0.0
 10
9.8320396596
 20
10.3467504934
 30
0.0
 10
9.8334047728
 20
10.3459679868
 30
0.0
 10
9.83454235
 20
10.3453158948
 30
0.0
 10
9.8354524501
 20
10.3447942281
 30
0.0
 10
9.8360211754
 20
10.3444681706
 30
0.0
 10
9.8364763554
 20
10.3442073609
 30
0.0
 10
9.8368171935
 20
10.3440116543
 30
0.0
 10
9.8371029649
 20
10.3438488813
 30
0.0
 10
9.837299591
 20
10.3437343205
 30
0.0
 10
9.8374172793
 20
10.3436698248
 30
0.0
 10
9.8374905291
 20
10.3436187271
 30
0.0
 10
9.8376211796
 20
10.3435780494
 30
0.0
 10
9.8377753583
 20
10.3435201778
 30
0.0
 10
9.8380544996
 20
10.343420596
 30
0.0
 10
9.8384483959
 20
10.343277451
 30
0.0
 10
9.8389231589
 20
10.3431060558
 30
0.0
 10
9.8395554471
 20
10.3428773967
 30
0.0
 10
9.840346057
 20
10.342591618
 30
0.0
 10
9.8416108934
 20
10.3421343468
 30
0.0
 10
9.8431919867
 20
10.3415627665
 30
0.0
 10
9.8450892782
 20
10.3408768665
 30
0.0
 10
9.8469865752
 20
10.3401909674
 30
0.0
 10
9.8495163025
 20
10.339276435
 30
0.0
 10
9.8526784623
 20
10.3381332695
 30
0.0
 10
9.8558406224
 20
10.3369901041
 30
0.0
 10
9.8583703492
 20
10.3360755715
 30
0.0
 10
9.8602676479
 20
10.3353896729
 30
0.0
 10
9.8621649327
 20
10.3347037711
 30
0.0
 10
9.8637460468
 20
10.3341321962
 30
0.0
 10
9.8650108408
 20
10.3336749142
 30
0.0
 10
9.8658015584
 20
10.3333891631
 30
0.0
 10
9.8664336257
 20
10.3331604473
 30
0.0
 10
9.8669090638
 20
10.332989225
 30
0.0
 10
9.8673008477
 20
10.3328455394
 30
0.0
 10
9.8676241759
 20
10.3327328343
 30
0.0
 10
9.8678396177
 20
10.3326421756
 30
0.0
 10
9.868158326
 20
10.3325749149
 30
0.0
 10
9.868547198
 20
10.3324770606
 30
0.0
 10
9.8690456643
 20
10.3323575471
 30
0.0
 10
9.8696385264
 20
10.3322129305
 30
0.0
 10
9.8704308595
 20
10.3320205276
 30
0.0
 10
9.8714206423
 20
10.3317798805
 30
0.0
 10
9.8730046489
 20
10.3313949253
 30
0.0
 10
9.8749845357
 20
10.3309137038
 30
0.0
 10
9.8773604519
 20
10.3303362497
 30
0.0
 10
9.8797363541
 20
10.3297587925
 30
0.0
 10
9.8829042288
 20
10.3289888508
 30
0.0
 10
9.8868640688
 20
10.3280264227
 30
0.0
 10
9.8916158857
 20
10.3268715118
 30
0.0
 10
9.8955757079
 20
10.3259090777
 30
0.0
 10
9.8987436216
 20
10.3251391491
 30
0.0
 10
9.9007234405
 20
10.324657901
 30
0.0
 10
9.9023075869
 20
10.3242730005
 30
0.0
 10
9.9034948991
 20
10.323984057
 30
0.0
 10
9.9044868632
 20
10.3237441235
 30
0.0
 10
9.9051762587
 20
10.3235744966
 30
0.0
 10
9.905577974
 20
10.3234801799
 30
0.0
 10
9.905857358
 20
10.3234020814
 30
0.0
 10
9.9062204643
 20
10.3233521206
 30
0.0
 10
9.9066754027
 20
10.3232756913
 30
0.0
 10
9.9074851512
 20
10.323146513
 30
0.0
 10
9.9086348213
 20
10.3229595819
 30
0.0
 10
9.9100174702
 20
10.3227362878
 30
0.0
 10
9.9118599387
 20
10.3224382049
 30
0.0
 10
9.9141633884
 20
10.3220657238
 30
0.0
 10
9.9178487043
 20
10.3214696854
 30
0.0
 10
9.9224554194
 20
10.3207246612
 30
0.0
 10
9.9279834457
 20
10.3198306212
 30
0.0
 10
9.9335114871
 20
10.3189365869
 30
0.0
 10
9.9381181646
 20
10.3181915485
 30
0.0
 10
9.9418035558
 20
10.3175955385
 30
0.0
 10
9.9441068141
 20
10.3172229853
 30
0.0
 10
9.9459496753
 20
10.3169250504
 30
0.0
 10
9.9473311243
 20
10.3167013042
 30
0.0
 10
9.9484845488
 20
10.3165157875
 30
0.0
 10
9.9492875951
 20
10.3163840842
 30
0.0
 10
9.9497532722
 20
10.3163117006
 30
0.0
 10
9.9500833927
 20
10.3162493128
 30
0.0
 10
9.9504866657
 20
10.3162178878
 30
0.0
 10
9.9509988466
 20
10.3161651875
 30
0.0
 10
9.9519070518
 20
10.3160779941
 30
0.0
 10
9.9531982724
 20
10.3159508012
 30
0.0
 10
9.9547503975
 20
10.3157992959
 30
0.0
 10
9.9568189683
 20
10.3155968954
 30
0.0
 10
9.9594050001
 20
10.3153440296
 30
0.0
 10
9.9635424731
 20
10.3149393689
 30
0.0
 10
9.9687143753
 20
10.3144335689
 30
0.0
 10
9.9749206319
 20
10.3138265978
 30
0.0
 10
9.9811268955
 20
10.3132196296
 30
0.0
 10
9.9894019111
 20
10.3124103377
 30
0.0
 10
9.9956081733
 20
10.3118033691
 30
0.0
 10
9.9997456814
 20
10.3113987232
 30
0.0
  0
SPLINE
  5
368
100
AcDbEntity
  8
0
100
AcDbSpline
 62
4
  6
CONTINUOUS
 70
0
 71
3
 72
346
 73
342
 74
0
 42
0.0000001
 43
0.0000001
 44
0.0000000001
 40
0.0
 40
0.0
 40
0.0
 40
0.0
 40
0.015625
 40
0.03125
 40
0.0390625
 40
0.046875
 40
0.05078125
 40
0.0546875
 40
0.05859375
 40
0.060546875
 40
0.0615234375
 40
0.0625
 40
0.0634765625
 40
0.064453125
 40
0.06640625
 40
0.0703125
 40
0.07421875
 40
0.078125
 40
0.0859375
 40
0.09375
 40
0.1015625
 40
0.109375
 40
0.11328125
 40
0.1171875
 40
0.12109375
 40
0.123046875
 40
0.1240234375
 40
0.125
 40
0.1259765625
 40
0.126953125
 40
0.12890625
 40
0.1328125
 40
0.13671875
 40
0.140625
 40
0.1484375
 40
0.15625
 40
0.1640625
 40
0.171875
 40
0.17578125
 40
0.1796875
 40
0.18359375
 40
0.185546875
 40
0.1865234375
 40
0.1875
 40
0.1884765625
 40
0.189453125
 40
0.19140625
 40
0.1953125
 40
0.19921875
 40
0.203125
 40
0.2109375
 40
0.21875
 40
0.2265625
 40
0.234375
 40
0.23828125
 40
0.2421875
 40
0.244140625
 40
0.24609375
 40
0.248046875
 40
0.2490234375
 40
0.2495117188
 40
0.25
 40
0.2504882812
 40
0.2509765625
 40
0.251953125
 40
0.25390625
 40
0.255859375
 40
0.2578125
 40
0.26171875
 40
0.265625
 40
0.2734375
 40
0.28125
 40
0.2890625
 40
0.296875
 40
0.30078125
 40
0.3046875
 40
0.306640625
 40
0.30859375
 40
0.310546875
 40
0.3115234375
 40
0.3120117188
 40
0.3125
 40
0.3129882812
 40
0.3134765625
 40
0.314453125
 40
0.31640625
 40
0.318359375
 40
0.3203125
 40
0.32421875
 40
0.328125
 40
0.3359375
 40
0.34375
 40
0.3515625
 40
0.35546875
 40
0.359375
 40
0.36328125
 40
0.3671875
 40
0.369140625
 40
0.37109375
 40
0.3720703125
 40
0.373046875
 40
0.3740234375
 40
0.3745117188
 40
0.3747558594
 40
0.375
 40
0.3752441406
 40
0.3754882812
 40
0.3759765625
 40
0.376953125
 40
0.3779296875
 40
0.37890625
 40
0.380859375
 40
0.3828125
 40
0.38671875
 40
0.390625
 40
0.39453125
 40
0.3984375
 40
0.40625
 40
0.4140625
 40
0.41796875
 40
0.421875
 40
0.42578125
 40
0.4296875
 40
0.431640625
 40
0.43359375
 40
0.4345703125
 40
0.435546875
 40
0.4365234375
 40
0.4370117188
 40
0.4372558594
 40
0.4375
 40
0.4377441406
 40
0.4379882812
 40
0.4384765625
 40
0.439453125
 40
0.4404296875
 40
0.44140625
 40
0.443359375
 40
0.4453125
 40
0.44921875
 40
0.453125
 40
0.45703125
 40
0.4609375
 40
0.46875
 40
0.4765625
 40
0.48046875
 40
0.484375
 40
0.48828125
 40
0.4921875
 40
0.494140625
 40
0.49609375
 40
0.4970703125
 40
0.498046875
 40
0.4990234375
 40
0.4995117188
 40
0.4997558594
 40
0.5
 40
0.5002441406
 40
0.5004882812
 40
0.5009765625
 40
0.501953125
 40
0.5029296875
 40
0.50390625
 40
0.505859375
 40
0.5078125
 40
0.51171875
 40
0.515625
 40
0.51953125
 40
0.5234375
 40
0.53125
 40
0.5390625
 40
0.54296875
 40
0.546875
 40
0.55078125
 40
0.5546875
 40
0.556640625
 40
0.55859375
 40
0.5595703125
 40
0.560546875
 40
0.5615234375
 40
0.5620117188
 40
0.5622558594
 40
0.5625
 40
0.5627441406
 40
0.5629882812
 40
0.5634765625
 40
0.564453125
 40
0.5654296875
 40
0.56640625
 40
0.568359375
 40
0.5703125
 40
0.57421875
 40
0.578125
 40
0.58203125
 40
0.5859375
 40
0.59375
 40
0.6015625
 40
0.60546875
 40
0.609375
 40
0.61328125
 40
0.6171875
 40
0.619140625
 40
0.62109375
 40
0.6220703125
 40
0.623046875
 40
0.6240234375
 40
0.6245117188
 40
0.6247558594
 40
0.625
 40
0.6252441406
 40
0.6254882812
 40
0.6259765625
 40
0.626953125
 40
0.6279296875
 40
0.62890625
 40
0.630859375
 40
0.6328125
 40
0.63671875
 40
0.640625
 40
0.64453125
 40
0.6484375
 40
0.65625
 40
0.6640625
 40
0.66796875
 40
0.671875
 40
0.67578125
 40
0.6796875
 40
0.681640625
 40
0.68359375
 40
0.6845703125
 40
0.685546875
 40
0.6865234375
 40
0.6870117188
 40
0.6872558594
 40
0.6875
 40
0.6877441406
 40
0.6879882812
 40
0.6884765625
 40
0.689453125
 40
0.6904296875
 40
0.69140625
 40
0.693359375
 40
0.6953125
 40
0.69921875
 40
0.703125
 40
0.70703125
 40
0.7109375
 40
0.71875
 40
0.7265625
 40
0.73046875
 40
0.734375
 40
0.73828125
 40
0.7421875
 40
0.744140625
 40
0.74609375
 40
0.7470703125
 40
0.748046875
 40
0.7490234375
 40
0.7495117188
 40
0.7497558594
 40
0.75
 40
0.7502441406
 40
0.7504882812
 40
0.7509765625
 40
0.751953125
 40
0.7529296875
 40
0.75390625
 40
0.755859375
 40
0.7578125
 40
0.76171875
 40
0.765625
 40
0.76953125
 40
0.7734375
 40
0.78125
 40
0.7890625
 40
0.79296875
 40
0.796875
 40
0.80078125
 40
0.8046875
 40
0.806640625
 40
0.80859375
 40
0.8095703125
 40
0.810546875
 40
0.8115234375
 40
0.8120117188
 40
0.8125
 40
0.8129882812
 40
0.8134765625
 40
0.814453125
 40
0.8154296875
 40
0.81640625
 40
0.818359375
 40
0.8203125
 40
0.82421875
 40
0.828125
 40
0.83203125
 40
0.8359375
 40
0.84375
 40
0.8515625
 40
0.859375
 40
0.86328125
 40
0.8671875
 40
0.869140625
 40
0.87109375
 40
0.873046875
 40
0.8740234375
 40
0.8745117188
 40
0.875
 40
0.8754882812
 40
0.8759765625
 40
0.876953125
 40
0.87890625
 40
0.880859375
 40
0.8828125
 40
0.88671875
 40
0.890625
 40
0.8984375
 40
0.90625
 40
0.9140625
 40
0.921875
 40
0.92578125
 40
0.9296875
 40
0.931640625
 40
0.93359375
 40
0.935546875
 40
0.9365234375
 40
0.9370117188
 40
0.9375
 40
0.9379882812
 40
0.9384765625
 40
0.939453125
 40
0.94140625
 40
0.943359375
 40
0.9453125
 40
0.94921875
 40
0.953125
 40
0.9609375
 40
0.96875
 40
0.9765625
 40
0.984375
 40
1.0
 40
1.0
 40
1.0
 40
1.0
 10
9.9997456588
 20
10.3113987248
 30
0.0
 10
10.0040329974
 20
10.3112150247
 30
0.0
 10
10.0126076758
 20
10.310847629
 30
0.0
 10
10.023326018
 20
10.3103883617
 30
0.0
 10
10.031900704
 20
10.3100209955
 30
0.0
 10
10.0372598551
 20
10.3097912839
 30
0.0
 10
10.0415472392
 20
10.3096077612
 30
0.0
 10
10.044762604
 20
10.309469444
 30
0.0
 10
10.047442626
 20
10.3093563276
 30
0.0
 10
10.0493175596
 20
10.3092729308
 30
0.0
 10
10.0503906392
 20
10.3092318573
 30
0.0
 10
10.0511906909
 20
10.3091825113
 30
0.0
 10
10.0520089304
 20
10.3092040378
 30
0.0
 10
10.0530935722
 20
10.3092080187
 30
0.0
 10
10.0549946512
 20
10.3092265032
 30
0.0
 10
10.057708933
 20
10.3092468879
 30
0.0
 10
10.0609667326
 20
10.3092739271
 30
0.0
 10
10.0653102345
 20
10.3093090788
 30
0.0
 10
10.0707396901
 20
10.3093533294
 30
0.0
 10
10.0772550077
 20
10.309406288
 30
0.0
 10
10.0837703167
 20
10.3094593175
 30
0.0
 10
10.0891997938
 20
10.3095033909
 30
0.0
 10
10.0935432526
 20
10.3095388969
 30
0.0
 10
10.0968011835
 20
10.3095648551
 30
0.0
 10
10.0995150547
 20
10.3095886218
 30
0.0
 10
10.1014168668
 20
10.3096010691
 30
0.0
 10
10.102500334
 20
10.3096147231
 30
0.0
 10
10.1033221813
 20
10.3096065367
 30
0.0
 10
10.1041086826
 20
10.3096687873
 30
0.0
 10
10.1051696801
 20
10.309727219
 30
0.0
 10
10.1070206813
 20
10.3098409216
 30
0.0
 10
10.1096679721
 20
10.3099973691
 30
0.0
 10
10.1128434354
 20
10.3101876679
 30
0.0
 10
10.1170778359
 20
10.3104405044
 30
0.0
 10
10.1223706804
 20
10.3107568593
 30
0.0
 10
10.1287221689
 20
10.3111363438
 30
0.0
 10
10.1350736067
 20
10.311515899
 30
0.0
 10
10.140366578
 20
10.3118320771
 30
0.0
 10
10.1446007249
 20
10.3120852673
 30
0.0
 10
10.1477769615
 20
10.3122744874
 30
0.0
 10
10.1504218332
 20
10.3124343095
 30
0.0
 10
10.1522771528
 20
10.312541988
 30
0.0
 10
10.1533312312
 20
10.3126100717
 30
0.0
 10
10.1541389857
 20
10.3126426744
 30
0.0
 10
10.1548810094
 20
10.3127458406
 30
0.0
 10
10.155893302
 20
10.3128587822
 30
0.0
 10
10.1576541316
 20
10.3130678979
 30
0.0
 10
10.1601751873
 20
10.313360639
 30
0.0
 10
10.1631980637
 20
10.3137144947
 30
0.0
 10
10.1672294006
 20
10.3141854057
 30
0.0
 10
10.1722682848
 20
10.3147743524
 30
0.0
 10
10.1783150707
 20
10.3154809556
 30
0.0
 10
10.1843618159
 20
10.3161875971
 30
0.0
 10
10.1894008018
 20
10.3167764481
 30
0.0
 10
10.1934319352
 20
10.3172475504
 30
0.0
 10
10.1959515161
 20
10.317541944
 30
0.0
 10
10.1979669006
 20
10.3177775624
 30
0.0
 10
10.1994792061
 20
10.317953993
 30
0.0
 10
10.2007370204
 20
10.3181019191
 30
0.0
 10
10.2016222794
 20
10.3182037001
 30
0.0
 10
10.2021206641
 20
10.31826462
 30
0.0
 10
10.2025155172
 20
10.3183025369
 30
0.0
 10
10.2028298507
 20
10.3183701665
 30
0.0
 10
10.2032770481
 20
10.3184499752
 30
0.0
 10
10.2040465578
 20
10.3185944693
 30
0.0
 10
10.2051526988
 20
10.3187983648
 30
0.0
 10
10.2064771396
 20
10.31904412
 30
0.0
 10
10.2082440836
 20
10.3193714162
 30
0.0
 10
10.2104524133
 20
10.3197806657
 30
0.0
 10
10.2139859366
 20
10.3204353926
 30
0.0
 10
10.2184027731
 20
10.3212538262
 30
0.0
 10
10.223703008
 20
10.3222359352
 30
0.0
 10
10.2290032265
 20
10.3232180496
 30
0.0
 10
10.233420104
 20
10.3240364696
 30
0.0
 10
10.2369535453
 20
10.3246912236
 30
0.0
 10
10.2391620835
 20
10.3251004042
 30
0.0
 10
10.2409285995
 20
10.3254278417
 30
0.0
 10
10.2422543477
 20
10.3256731653
 30
0.0
 10
10.2433563985
 20
10.3258784114
 30
0.0
 10
10.2441332098
 20
10.3260204944
 30
0.0
 10
10.2445687083
 20
10.3261041662
 30
0.0
 10
10.2449189772
 20
10.3261599296
 30
0.0
 10
10.2451788628
 20
10.3262424144
 30
0.0
 10
10.2455569036
 20
10.3263430733
 30
0.0
 10
10.2462037862
 20
10.3265235693
 30
0.0
 10
10.2471355836
 20
10.3267791502
 30
0.0
 10
10.2482504535
 20
10.3270868191
 30
0.0
 10
10.2497380948
 20
10.3274967048
 30
0.0
 10
10.2515972533
 20
10.3280091783
 30
0.0
 10
10.2545721266
 20
10.3288290708
 30
0.0
 10
10.2582906428
 20
10.3298539588
 30
0.0
 10
10.2627528946
 20
10.3310838147
 30
0.0
 10
10.2664714306
 20
10.3321086969
 30
0.0
 10
10.2694462605
 20
10.3329286022
 30
0.0
 10
10.271677384
 20
10.333543531
 30
0.0
 10
10.2739085024
 20
10.3341584608
 30
0.0
 10
10.2757677839
 20
10.3346708991
 30
0.0
 10
10.2772551728
 20
10.335080857
 30
0.0
 10
10.2781848735
 20
10.3353370642
 30
0.0
 10
10.2789284449
 20
10.3355420676
 30
0.0
 10
10.2794866413
 20
10.335695717
 30
0.0
 10
10.2799501576
 20
10.3358240865
 30
0.0
 10
10.280277852
 20
10.3359133008
 30
0.0
 10
10.2804600578
 20
10.3359652865
 30
0.0
 10
10.2806109327
 20
10.3360014414
 30
0.0
 10
10.2807074498
 20
10.3360484308
 30
0.0
 10
10.2808550998
 20
10.3361073041
 30
0.0
 10
10.2811046533
 20
10.3362120932
 30
0.0
 10
10.2814657769
 20
10.3363608713
 30
0.0
 10
10.2818971483
 20
10.3365397991
 30
0.0
 10
10.2824730006
 20
10.3367782319
 30
0.0
 10
10.2831925796
 20
10.33707632
 30
0.0
 10
10.2843440381
 20
10.3375532346
 30
0.0
 10
10.2857833159
 20
10.3381493868
 30
0.0
 10
10.2875104688
 20
10.3388647657
 30
0.0
 10
10.2892376164
 20
10.3395801456
 30
0.0
 10
10.2915404817
 20
10.340533985
 30
0.0
 10
10.2944190626
 20
10.3417262845
 30
0.0
 10
10.297297644
 20
10.3429185839
 30
0.0
 10
10.2996005085
 20
10.3438724236
 30
0.0
 10
10.3013276585
 20
10.344587803
 30
0.0
 10
10.3030548026
 20
10.3453031834
 30
0.0
 10
10.3044941073
 20
10.3458993309
 30
0.0
 10
10.3056455111
 20
10.3463762552
 30
0.0
 10
10.3063652293
 20
10.3466743185
 30
0.0
 10
10.3069407958
 20
10.3469128021
 30
0.0
 10
10.3073730405
 20
10.3470915746
 30
0.0
 10
10.3077314316
 20
10.3472408386
 30
0.0
 10
10.307985863
 20
10.3473447604
 30
0.0
 10
10.3081256975
 20
10.3474050234
 30
0.0
 10
10.3082462216
 20
10.3474477441
 30
0.0
 10
10.3083069302
 20
10.3474999314
 30
0.0
 10
10.3084087393
 20
10.3475662124
 30
0.0
 10
10.3085771841
 20
10.3476837426
 30
0.0
 10
10.308822902
 20
10.3478508387
 30
0.0
 10
10.309115588
 20
10.3480516982
 30
0.0
 10
10.3095065958
 20
10.3483193906
 30
0.0
 10
10.3099950954
 20
10.3486540473
 30
0.0
 10
10.3107768402
 20
10.349189475
 30
0.0
 10
10.3117539713
 20
10.3498587676
 30
0.0
 10
10.31292655
 20
10.3506619152
 30
0.0
 10
10.314099123
 20
10.3514650638
 30
0.0
 10
10.3156625557
 20
10.3525359283
 30
0.0
 10
10.3176168457
 20
10.3538745089
 30
0.0
 10
10.3195711363
 20
10.3552130896
 30
0.0
 10
10.3211345681
 20
10.3562839541
 30
0.0
 10
10.3223071437
 20
10.3570871024
 30
0.0
 10
10.3234797127
 20
10.357890251
 30
0.0
 10
10.3244568741
 20
10.3585595406
 30
0.0
 10
10.3252385571
 20
10.3590949744
 30
0.0
 10
10.3257272139
 20
10.3594296157
 30
0.0
 10
10.3261178991
 20
10.3596973397
 30
0.0
 10
10.3264115708
 20
10.3598981028
 30
0.0
 10
10.3266542044
 20
10.3600655005
 30
0.0
 10
10.3268281552
 20
10.3601824922
 30
0.0
 10
10.3269211425
 20
10.360249636
 30
0.0
 10
10.3270089488
 20
10.3602991732
 30
0.0
 10
10.3270276986
 20
10.3603518474
 30
0.0
 10
10.3270767859
 20
10.3604209854
 30
0.0
 10
10.327151466
 20
10.3605424867
 30
0.0
 10
10.3272640192
 20
10.3607157935
 30
0.0
 10
10.3273965716
 20
10.3609238757
 30
0.0
 10
10.3275741853
 20
10.3612012789
 30
0.0
 10
10.3277959021
 20
10.3615480464
 30
0.0
 10
10.3281508169
 20
10.3621028669
 30
0.0
 10
10.3285944027
 20
10.3627963951
 30
0.0
 10
10.3291267305
 20
10.3636286279
 30
0.0
 10
10.3296590516
 20
10.3644608609
 30
0.0
 10
10.3303688154
 20
10.3655705049
 30
0.0
 10
10.3312560192
 20
10.3669575598
 30
0.0
 10
10.3321432237
 20
10.3683446148
 30
0.0
 10
10.3328529866
 20
10.3694542588
 30
0.0
 10
10.3333853104
 20
10.3702864917
 30
0.0
 10
10.3339176278
 20
10.3711187248
 30
0.0
 10
10.3343612459
 20
10.371812252
 30
0.0
 10
10.3347160948
 20
10.3723670746
 30
0.0
 10
10.3349379793
 20
10.3727138369
 30
0.0
 10
10.3351152488
 20
10.3729912508
 30
0.0
 10
10.335248853
 20
10.3731993
 30
0.0
 10
10.3353581152
 20
10.3733727101
 30
0.0
 10
10.3354386703
 20
10.3734940271
 30
0.0
 10
10.3354783443
 20
10.3735634604
 30
0.0
 10
10.3355260089
 20
10.3736152275
 30
0.0
 10
10.3355052159
 20
10.3736681715
 30
0.0
 10
10.3355013707
 20
10.3737383529
 30
0.0
 10
10.335483516
 20
10.3738613617
 30
0.0
 10
10.3354638259
 20
10.3740369885
 30
0.0
 10
10.335437708
 20
10.3742477834
 30
0.0
 10
10.3354037538
 20
10.3745288285
 30
0.0
 10
10.3353610133
 20
10.3748801398
 30
0.0
 10
10.3352927949
 20
10.3754422352
 30
0.0
 10
10.3352074648
 20
10.3761448554
 30
0.0
 10
10.3351050931
 20
10.3769879992
 30
0.0
 10
10.3350027149
 20
10.3778311431
 30
0.0
 10
10.3348662129
 20
10.3789553349
 30
0.0
 10
10.3346955846
 20
10.3803605747
 30
0.0
 10
10.3345249568
 20
10.3817658146
 30
0.0
 10
10.334388454
 20
10.3828900064
 30
0.0
 10
10.3342860785
 20
10.3837331503
 30
0.0
 10
10.3341836965
 20
10.384576294
 30
0.0
 10
10.3340983985
 20
10.3852789145
 30
0.0
 10
10.3340301147
 20
10.3858410093
 30
0.0
 10
10.3339875407
 20
10.386192322
 30
0.0
 10
10.3339532447
 20
10.3864733643
 30
0.0
 10
10.3339281709
 20
10.3866841677
 30
0.0
 10
10.3339052141
 20
10.386859768
 30
0.0
 10
10.3338931909
 20
10.3869828242
 30
0.0
 10
10.3338800021
 20
10.3870529296
 30
0.0
 10
10.3338879096
 20
10.387106107
 30
0.0
 10
10.3338277801
 20
10.3871569973
 30
0.0
 10
10.3337713394
 20
10.3872256489
 30
0.0
 10
10.333661511
 20
10.3873454174
 30
0.0
 10
10.3335103942
 20
10.3875167095
 30
0.0
 10
10.3333265796
 20
10.387722177
 30
0.0
 10
10.3330823577
 20
10.3879961626
 30
0.0
 10
10.3327767845
 20
10.3883386347
 30
0.0
 10
10.3322880326
 20
10.3888865956
 30
0.0
 10
10.3316770361
 20
10.3895715448
 30
0.0
 10
10.3309438646
 20
10.3903934847
 30
0.0
 10
10.3302106866
 20
10.3912154243
 30
0.0
 10
10.3292331182
 20
10.392311344
 30
0.0
 10
10.3280111568
 20
10.3936812434
 30
0.0
 10
10.326789196
 20
10.395051143
 30
0.0
 10
10.3258116267
 20
10.3961470625
 30
0.0
 10
10.3250784514
 20
10.3969690023
 30
0.0
 10
10.3243452696
 20
10.3977909417
 30
0.0
 10
10.3237343051
 20
10.3984758925
 30
0.0
 10
10.323245488
 20
10.3990238502
 30
0.0
 10
10.3229400808
 20
10.3993663303
 30
0.0
 10
10.322695518
 20
10.3996402995
 30
0.0
 10
10.3225127452
 20
10.399845817
 30
0.0
 10
10.3223583688
 20
10.4000169527
 30
0.0
 10
10.3222543592
 20
10.4001370006
 30
0.0
 10
10.3221885954
 20
10.4002052044
 30
0.0
 10
10.3221571036
 20
10.4002574699
 30
0.0
 10
10.3220574526
 20
10.4003054824
 30
0.0
 10
10.3219483592
 20
10.4003709824
 30
0.0
 10
10.3217463689
 20
10.4004849164
 30
0.0
 10
10.3214636024
 20
10.4006480406
 30
0.0
 10
10.3211218038
 20
10.4008436349
 30
0.0
 10
10.3206669382
 20
10.4011044814
 30
0.0
 10
10.3200980597
 20
10.401430521
 30
0.0
 10
10.3191880198
 20
10.4019521947
 30
0.0
 10
10.3180504131
 20
10.4026042832
 30
0.0
 10
10.3166853094
 20
10.403386791
 30
0.0
 10
10.3153201992
 20
10.4041692984
 30
0.0
 10
10.3135000545
 20
10.4052126417
 30
0.0
 10
10.3112248729
 20
10.4065168208
 30
0.0
 10
10.3089496917
 20
10.4078209999
 30
0.0
 10
10.3071295462
 20
10.4088643431
 30
0.0
 10
10.3057644385
 20
10.4096468508
 30
0.0
 10
10.3043993253
 20
10.4104293575
 30
0.0
 10
10.3032617481
 20
10.4110814495
 30
0.0
 10
10.302351648
 20
10.4116031161
 30
0.0
 10
10.3017829227
 20
10.4119291736
 30
0.0
 10
10.3013277427
 20
10.4121899833
 30
0.0
 10
10.3009869046
 20
10.4123856899
 30
0.0
 10
10.3007011332
 20
10.4125484629
 30
0.0
 10
10.3005045071
 20
10.4126630238
 30
0.0
 10
10.3003868188
 20
10.4127275194
 30
0.0
 10
10.300313569
 20
10.4127786171
 30
0.0
 10
10.3001829185
 20
10.4128192949
 30
0.0
 10
10.3000287398
 20
10.4128771664
 30
0.0
 10
10.2997495985
 20
10.4129767482
 30
0.0
 10
10.2993557022
 20
10.4131198933
 30
0.0
 10
10.2988809392
 20
10.4132912884
 30
0.0
 10
10.298248651
 20
10.4135199476
 30
0.0
 10
10.2974580411
 20
10.4138057262
 30
0.0
 10
10.2961932047
 20
10.4142629974
 30
0.0
 10
10.2946121114
 20
10.4148345777
 30
0.0
 10
10.2927148199
 20
10.4155204778
 30
0.0
 10
10.2908175229
 20
10.4162063768
 30
0.0
 10
10.2882877956
 20
10.4171209093
 30
0.0
 10
10.2851256358
 20
10.4182640747
 30
0.0
 10
10.2819634757
 20
10.4194072401
 30
0.0
 10
10.2794337489
 20
10.4203217727
 30
0.0
 10
10.2775364502
 20
10.4210076713
 30
0.0
 10
10.2756391654
 20
10.4216935731
 30
0.0
 10
10.2740580513
 20
10.4222651481
 30
0.0
 10
10.2727932573
 20
10.4227224301
 30
0.0
 10
10.2720025397
 20
10.4230081812
 30
0.0
 10
10.2713704724
 20
10.4232368969
 30
0.0
 10
10.2708950343
 20
10.4234081193
 30
0.0
 10
10.2705032504
 20
10.4235518048
 30
0.0
 10
10.2701799222
 20
10.4236645099
 30
0.0
 10
10.2699644804
 20
10.4237551686
 30
0.0
 10
10.2696457721
 20
10.4238224294
 30
0.0
 10
10.2692569001
 20
10.4239202836
 30
0.0
 10
10.2687584338
 20
10.4240397972
 30
0.0
 10
10.2681655717
 20
10.4241844138
 30
0.0
 10
10.2673732386
 20
10.4243768166
 30
0.0
 10
10.2663834558
 20
10.4246174638
 30
0.0
 10
10.2647994492
 20
10.425002419
 30
0.0
 10
10.2628195624
 20
10.4254836405
 30
0.0
 10
10.2604436462
 20
10.4260610945
 30
0.0
 10
10.258067744
 20
10.4266385517
 30
0.0
 10
10.2548998693
 20
10.4274084934
 30
0.0
 10
10.2509400293
 20
10.4283709216
 30
0.0
 10
10.2461882124
 20
10.4295258324
 30
0.0
 10
10.2422283902
 20
10.4304882666
 30
0.0
 10
10.2390604765
 20
10.4312581951
 30
0.0
 10
10.2370806576
 20
10.4317394432
 30
0.0
 10
10.2354965112
 20
10.4321243438
 30
0.0
 10
10.234309199
 20
10.4324132872
 30
0.0
 10
10.2333172349
 20
10.4326532207
 30
0.0
 10
10.2326278394
 20
10.4328228477
 30
0.0
 10
10.2322261241
 20
10.4329171643
 30
0.0
 10
10.2319467401
 20
10.4329952628
 30
0.0
 10
10.2315836338
 20
10.4330452237
 30
0.0
 10
10.2311286954
 20
10.4331216529
 30
0.0
 10
10.2303189469
 20
10.4332508312
 30
0.0
 10
10.2291692768
 20
10.4334377624
 30
0.0
 10
10.2277866279
 20
10.4336610564
 30
0.0
 10
10.2259441594
 20
10.4339591393
 30
0.0
 10
10.2236407097
 20
10.4343316205
 30
0.0
 10
10.2199553938
 20
10.4349276588
 30
0.0
 10
10.2153486787
 20
10.435672683
 30
0.0
 10
10.2098206524
 20
10.436566723
 30
0.0
 10
10.204292611
 20
10.4374607573
 30
0.0
 10
10.1996859335
 20
10.4382057958
 30
0.0
 10
10.1960005423
 20
10.4388018057
 30
0.0
 10
10.193697284
 20
10.439174359
 30
0.0
 10
10.1918544228
 20
10.4394722939
 30
0.0
 10
10.1904729738
 20
10.43969604
 30
0.0
 10
10.1893195493
 20
10.4398815568
 30
0.0
 10
10.188516503
 20
10.44001326
 30
0.0
 10
10.1880508259
 20
10.4400856436
 30
0.0
 10
10.1877207054
 20
10.4401480314
 30
0.0
 10
10.1873174324
 20
10.4401794565
 30
0.0
 10
10.1868052515
 20
10.4402321567
 30
0.0
 10
10.1858970463
 20
10.4403193502
 30
0.0
 10
10.1846058257
 20
10.440446543
 30
0.0
 10
10.1830537006
 20
10.4405980484
 30
0.0
 10
10.1809851298
 20
10.4408004488
 30
0.0
 10
10.178399098
 20
10.4410533147
 30
0.0
 10
10.174261625
 20
10.4414579754
 30
0.0
 10
10.1690897228
 20
10.4419637754
 30
0.0
 10
10.1628834662
 20
10.4425707465
 30
0.0
 10
10.1566772026
 20
10.4431777146
 30
0.0
 10
10.148402187
 20
10.4439870065
 30
0.0
 10
10.1421959248
 20
10.4445939752
 30
0.0
 10
10.1380584167
 20
10.444998621
 30
0.0
  0
ENDSEC
  0
SECTION
  2
OBJECTS
  0
DICTIONARY
  5
C
100
AcDbDictionary
280
0
281
1
  3
ACAD_GROUP
350
D
  3
ACAD_MLINESTYLE
350
17
  3
ACAD_LAYOUT
350
1A
  3
ACAD_PLOTSETTINGS
350
19
  3
ACAD_PLOTSTYLENAME
350
E
  3
ACAD_IMAGE_DICT
350
       36A
  3
ACAD_IMAGE_VARS
350
       36B
  3
ACAD_TABLESTYLE
350
       36C
  0
IMAGEDEF_REACTOR
  5
369
100
AcDbRasterImageDefReactor
 90
2
330
279
  0
DICTIONARY
  5
D
102
{ACAD_REACTORS
330
C
102
}
100
AcDbDictionary
280
0
281
1
  0
ACDBDICTIONARYWDFLT
  5
E
102
{ACAD_REACTORS
330
C
102
}
100
AcDbDictionary
281
1
  3
Normal
350
F
100
AcDbDictionaryWithDefault
340
F
  0
DICTIONARY
  5
36A
330
C
100
AcDbDictionary
281
1
  3
ZWV_assy_2_img_1
350
       36F
  0
RASTERVARIABLES
  5
36B
330
C
100
AcDbRasterVariables
 90
0
 70
0
 71
1
 72
5
  0
DICTIONARY
  5
17
102
{ACAD_REACTORS
330
C
102
}
100
AcDbDictionary
280
0
281
1
  3
Standard
350
18
  0
DICTIONARY
  5
36C
330
C
100
AcDbDictionary
281
1
  3
Standard
350
       370
  3
Standard1
350
       371
  0
DICTIONARY
  5
19
102
{ACAD_REACTORS
330
C
102
}
100
AcDbDictionary
281
1
  0
DICTIONARY
  5
1A
102
{ACAD_REACTORS
330
C
102
}
100
AcDbDictionary
281
1
  3
Model
350
36D
  3
Layout1
350
36E
  0
ACDBPLACEHOLDER
  5
F
102
{ACAD_REACTORS
330
E
102
}
  0
MLINESTYLE
  5
18
102
{ACAD_REACTORS
330
17
102
}
100
AcDbMlineStyle
  2
STANDARD
 70
0
  3

 62
256
 51
90.0
 52
90.0
 71
2
 49
0.5
 62
256
  6
BYLAYER
 49
-0.5
 62
256
  6
BYLAYER
  0
LAYOUT
  5
36D
102
{ACAD_REACTORS
330
1A
102
}
100
AcDbPlotSettings
  1

  2
none_device
  4
ANSI_C_(22.00_x_17.00_Inches)
  6

 40
0.0
 41
0.0
 42
0.0
 43
0.0
 44
558.8
 45
431.8
 46
0.0
 47
0.0
 48
0.0
 49
0.0
140
0.0
141
0.0
142
1.0
143
1.0
 70
1024
 72
0
 73
0
 74
0
  7

 75
0
147
1.0
148
0.0
149
0.0
100
AcDbLayout
  1
Model
 70
0
 71
0
 10
0.0
 20
0.0
 11
22.0
 21
17.0
 12
0.0
 22
0.0
 32
0.0
 14
0.0
 24
0.0
 34
0.0
 15
0.0
 25
0.0
 35
0.0
146
0.0
 13
0.0
 23
0.0
 33
0.0
 16
1.0
 26
0.0
 36
0.0
 17
0.0
 27
1.0
 37
0.0
 76
0
330
207
345
0
346
0
  0
LAYOUT
  5
36E
102
{ACAD_REACTORS
330
1A
102
}
100
AcDbPlotSettings
  1

  2
none_device
  4
ANSI_C_(22.00_x_17.00_Inches)
  6

 40
0.0
 41
0.0
 42
0.0
 43
0.0
 44
558.8
 45
431.8
 46
0.0
 47
0.0
 48
0.0
 49
0.0
140
0.0
141
0.0
142
1.0
143
1.0
 70
0
 72
0
 73
0
 74
0
  7

 75
0
147
1.0
148
0.0
149
0.0
100
AcDbLayout
  1
Layout1
 70
0
 71
1
 10
0.0
 20
0.0
 11
22.0
 21
17.0
 12
0.0
 22
0.0
 32
0.0
 14
0.0
 24
0.0
 34
0.0
 15
0.0
 25
0.0
 35
0.0
146
0.0
 13
0.0
 23
0.0
 33
0.0
 16
1.0
 26
0.0
 36
0.0
 17
0.0
 27
1.0
 37
0.0
 76
0
330
208
345
0
346
0
  0
IMAGEDEF
  5
36F
102
{ACAD_REACTORS
330
36A
330
369
102
}
100
AcDbRasterImageDef
 90
0
  1
ZWV_assy_2_img_1.png
 10
369.0
 20
92.0
 11
0.0066666667
 21
0.0066666667
280
1
281
0
  0
TABLESTYLE
  5
370
102
{ACAD_REACTORS
330
36C
330
27C
330
27D
102
}
330
36C
100
AcDbTableStyle
  3
Standard
 70
0
 71
0
 40
0.06
 41
0.06
280
1
281
1
  7
Standard
140
0.18
170
1
 62
0
 63
7
283
0
  7
Standard
140
0.18
170
1
 62
0
 63
7
283
0
  7
Standard
140
0.18
170
1
 62
0
 63
7
283
0
  0
TABLESTYLE
  5
371
102
{ACAD_REACTORS
330
36C
330
27B
102
}
330
36C
100
AcDbTableStyle
  3
Standard1
 70
1
 71
0
 40
0.06
 41
0.06
280
1
281
1
  7
Standard
140
0.18
170
1
 62
0
 63
7
283
0
  7
Standard
140
0.18
170
1
 62
0
 63
7
283
0
  7
Standard
140
0.18
170
1
 62
0
 63
7
283
0
  0
ENDSEC
  0
EOF
