999
DXF file: ZVK_assy_2.dxf
999
Pro/ENGINEER 2014200 by Parametric Technology Corporation
  0
SECTION
  2
HEADER
  9
$ACADVER
  1
AC1021
  9
$DWGCODEPAGE
  3
ANSI_1252
  9
$EXTMAX
 10
22.0
 20
17.0
 30
0.0
  9
$EXTMIN
 10
0.0
 20
0.0
 30
0.0
  9
$LIMMIN
 10
0.0
 20
0.0
  9
$LIMMAX
 10
22.0
 20
17.0
  9
$VIEWCTR
 10
11.0
 20
8.5
  9
$VIEWSIZE
 40
17.0
  9
$CLAYER
  8
0
  9
$LTSCALE
 40
1.21
  9
$CELTYPE
  6
BYLAYER
  9
$DIMSCALE
 40
1.0
  9
$DIMASZ
 40
0.1875
  9
$DIMEXO
 40
0.0625
  9
$DIMDLI
 40
0.836
  9
$DIMEXE
 40
0.125
  9
$DIMCEN
 40
0.198
  9
$DIMLFAC
 40
1.0
  9
$DIMBLK
  1
_FILLED
  9
$DIMTXT
 40
0.1
  9
$DIMTOL
 70
0
  9
$DIMLIM
 70
0
  9
$DIMTFAC
 40
1.0
  9
$DIMGAP
 40
0.09
  9
$DIMDSEP
 70
46
  9
$AUNITS
 70
0
  9
$PDMODE
 70
3
  9
$PDSIZE
 40
0.3125
  9
$HANDSEED
  5
2CA
  9
$TILEMODE
 70
1
  9
$MEASUREMENT
 70
0
  9
$INSUNITS
 70
1
  0
ENDSEC
  0
SECTION
  2
CLASSES
  0
CLASS
  1
ACDBDICTIONARYWDFLT
  2
AcDbDictionaryWithDefault
  3
AutoCAD 2000
 90
0
 91
1
280
0
281
0
  0
CLASS
  1
ACDBPLACEHOLDER
  2
AcDbPlaceHolder
  3
AutoCAD 2000
 90
0
 91
1
280
0
281
0
  0
CLASS
  1
LAYOUT
  2
AcDbLayout
  3
AutoCAD 2000
 90
0
 91
0
280
0
281
0
  0
CLASS
  1
RASTERVARIABLES
  2
AcDbRasterVariables
  3
ISM
 90
0
 91
1
280
0
281
0
  0
CLASS
  1
IMAGEDEF
  2
AcDbRasterImageDef
  3
ISM
 90
0
 91
1
280
0
281
0
  0
CLASS
  1
IMAGEDEF_REACTOR
  2
AcDbRasterImageDefReactor
  3
ISM
 90
0
 91
1
280
0
281
0
  0
CLASS
  1
IMAGE
  2
AcDbRasterImage
  3
ISM
 90
127
 91
1
280
0
281
1
  0
CLASS
  1
TABLESTYLE
  2
AcDbTableStyle
  3
ObjectDBX Classes
 90
2047
 91
1
280
0
281
0
  0
CLASS
  1
ACAD_TABLE
  2
AcDbTable
  3
ObjectDBX Classes
 90
1025
 91
2
280
0
281
1
  0
ENDSEC
  0
SECTION
  2
TABLES
  0
TABLE
  2
VPORT
  5
8
100
AcDbSymbolTable
 70
2
  0
VPORT
  5
1F4
100
AcDbSymbolTableRecord
100
AcDbViewportTableRecord
  2
*ACTIVE
 70
0
 10
0.0
 20
0.0
 11
1.0
 21
1.0
 12
11.0
 22
8.5
 13
0.0
 23
0.0
 14
1.0
 24
1.0
 15
0.0
 25
0.0
 16
0.0
 26
0.0
 36
1.0
 17
0.0
 27
0.0
 37
0.0
 40
17.0
 41
1.2941176471
 42
50.0
 43
0.0
 44
0.0
 50
0.0
 51
0.0
 71
0
 72
100
 73
1
 74
1
 75
0
 76
0
 77
0
 78
0
  0
ENDTAB
  0
TABLE
  2
LTYPE
  5
5
100
AcDbSymbolTable
 70
6
  0
LTYPE
  5
14
100
AcDbSymbolTableRecord
100
AcDbLinetypeTableRecord
  2
BYBLOCK
 70
0
  3

 72
65
 73
0
 40
0.0
  0
LTYPE
  5
15
100
AcDbSymbolTableRecord
100
AcDbLinetypeTableRecord
  2
BYLAYER
 70
0
  3

 72
65
 73
0
 40
0.0
  0
LTYPE
  5
16
100
AcDbSymbolTableRecord
100
AcDbLinetypeTableRecord
  2
CONTINUOUS
 70
64
  3
Solid line
 72
65
 73
0
 40
0.0
  0
LTYPE
  5
1F5
100
AcDbSymbolTableRecord
100
AcDbLinetypeTableRecord
  2
CENTER
 70
64
  3
____ _ ____ _ ____ _ ____ _ ____ _ ____ _ ____
 72
65
 73
4
 40
0.6
 49
0.375
 74
0
 49
-0.075
 74
0
 49
0.075
 74
0
 49
-0.075
 74
0
  0
LTYPE
  5
1F6
100
AcDbSymbolTableRecord
100
AcDbLinetypeTableRecord
  2
HIDDEN
 70
64
  3
- - - - - - - - - - - - - - - - - - - -
 72
65
 73
2
 40
0.2
 49
0.1
 74
0
 49
-0.1
 74
0
  0
LTYPE
  5
1F7
100
AcDbSymbolTableRecord
100
AcDbLinetypeTableRecord
  2
PHANTOM
 70
64
  3
_____ _ _ _____ _ _ _____ _ _ _____
 72
65
 73
6
 40
0.8
 49
0.45
 74
0
 49
-0.05
 74
0
 49
0.1
 74
0
 49
-0.05
 74
0
 49
0.1
 74
0
 49
-0.05
 74
0
  0
LTYPE
  5
1F8
100
AcDbSymbolTableRecord
100
AcDbLinetypeTableRecord
  2
DOT
 70
64
  3
. . . . . . . . . . . . . . . . . . . .
 72
65
 73
2
 40
0.2
 49
0.1
 74
0
 49
-0.1
 74
0
  0
LTYPE
  5
1F9
100
AcDbSymbolTableRecord
100
AcDbLinetypeTableRecord
  2
DASHED
 70
64
  3
- - - - - - - - - - - - - - - - - - - -
 72
65
 73
2
 40
0.2
 49
0.1
 74
0
 49
-0.1
 74
0
  0
ENDTAB
  0
TABLE
  2
LAYER
  5
2
100
AcDbSymbolTable
 70
36
  0
LAYER
  5
10
100
AcDbSymbolTableRecord
100
AcDbLayerTableRecord
  2
0
 70
0
 62
7
  6
CONTINUOUS
370
-3
390
F
  0
LAYER
  5
1FA
100
AcDbSymbolTableRecord
100
AcDbLayerTableRecord
  2
DEFAULT_1
 70
0
 62
7
  6
CENTER
370
-3
390
F
  0
LAYER
  5
1FB
100
AcDbSymbolTableRecord
100
AcDbLayerTableRecord
  2
DEFAULT_2
 70
0
 62
8
  6
HIDDEN
370
-3
390
F
  0
LAYER
  5
1FC
100
AcDbSymbolTableRecord
100
AcDbLayerTableRecord
  2
DEFAULT_3
 70
0
 62
7
  6
PHANTOM
370
-3
390
F
  0
LAYER
  5
1FD
100
AcDbSymbolTableRecord
100
AcDbLayerTableRecord
  2
01___PRT_ALL_DTM_PLN
 70
0
 62
7
  6
CONTINUOUS
370
-3
390
F
  0
LAYER
  5
1FE
100
AcDbSymbolTableRecord
100
AcDbLayerTableRecord
  2
01___PRT_DEF_DTM_PLN
 70
0
 62
7
  6
CONTINUOUS
370
-3
390
F
  0
LAYER
  5
1FF
100
AcDbSymbolTableRecord
100
AcDbLayerTableRecord
  2
02___PRT_ALL_AXES
 70
0
 62
7
  6
CONTINUOUS
370
-3
390
F
  0
LAYER
  5
200
100
AcDbSymbolTableRecord
100
AcDbLayerTableRecord
  2
03___PRT_ALL_CURVES
 70
0
 62
7
  6
CONTINUOUS
370
-3
390
F
  0
LAYER
  5
201
100
AcDbSymbolTableRecord
100
AcDbLayerTableRecord
  2
04___PRT_ALL_DTM_PNT
 70
0
 62
7
  6
CONTINUOUS
370
-3
390
F
  0
LAYER
  5
202
100
AcDbSymbolTableRecord
100
AcDbLayerTableRecord
  2
05___PRT_ALL_DTM_CSYS
 70
0
 62
7
  6
CONTINUOUS
370
-3
390
F
  0
LAYER
  5
203
100
AcDbSymbolTableRecord
100
AcDbLayerTableRecord
  2
05___PRT_DEF_DTM_CSYS
 70
0
 62
7
  6
CONTINUOUS
370
-3
390
F
  0
LAYER
  5
204
100
AcDbSymbolTableRecord
100
AcDbLayerTableRecord
  2
06___PRT_ALL_SURFS
 70
0
 62
7
  6
CONTINUOUS
370
-3
390
F
  0
LAYER
  5
205
100
AcDbSymbolTableRecord
100
AcDbLayerTableRecord
  2
DATUM_PLANES
 70
0
 62
7
  6
CONTINUOUS
370
-3
390
F
  0
LAYER
  5
206
100
AcDbSymbolTableRecord
100
AcDbLayerTableRecord
  2
DIMENSIONS
 70
0
 62
7
  6
CONTINUOUS
370
-3
390
F
  0
LAYER
  5
207
100
AcDbSymbolTableRecord
100
AcDbLayerTableRecord
  2
DTM_500001
 70
0
 62
7
  6
CONTINUOUS
370
-3
390
F
  0
LAYER
  5
208
100
AcDbSymbolTableRecord
100
AcDbLayerTableRecord
  2
PARAMETERDIMENSIONS
 70
0
 62
7
  6
CONTINUOUS
370
-3
390
F
  0
LAYER
  5
209
100
AcDbSymbolTableRecord
100
AcDbLayerTableRecord
  2
PORT_AREAS
 70
0
 62
7
  6
CONTINUOUS
370
-3
390
F
  0
LAYER
  5
20A
100
AcDbSymbolTableRecord
100
AcDbLayerTableRecord
  2
SUNNBOMCOSMETIC
 70
0
 62
7
  6
CONTINUOUS
370
-3
390
F
  0
LAYER
  5
20B
100
AcDbSymbolTableRecord
100
AcDbLayerTableRecord
  2
SUNNBOMSTAMPING
 70
0
 62
7
  6
CONTINUOUS
370
-3
390
F
  0
LAYER
  5
20C
100
AcDbSymbolTableRecord
100
AcDbLayerTableRecord
  2
THREADS
 70
0
 62
7
  6
CONTINUOUS
370
-3
390
F
  0
ENDTAB
  0
TABLE
  2
STYLE
  5
3
100
AcDbSymbolTable
 70
1
  0
STYLE
  5
11
100
AcDbSymbolTableRecord
100
AcDbTextStyleTableRecord
  2
STANDARD
 70
0
 40
0.0
 41
0.8
 50
0.0
 71
0
 42
0.2
  3
txt
  4

  0
STYLE
  5
20D
100
AcDbSymbolTableRecord
100
AcDbTextStyleTableRecord
  2
TEXTSTYLE_1
 70
0
 40
0.0
 41
0.8
 50
0.0
 71
0
 42
0.2
  3
gdt
  4

  0
ENDTAB
  0
TABLE
  2
VIEW
  5
6
100
AcDbSymbolTable
 70
0
  0
ENDTAB
  0
TABLE
  2
UCS
  5
7
100
AcDbSymbolTable
 70
0
  0
ENDTAB
  0
TABLE
  2
APPID
  5
9
100
AcDbSymbolTable
 70
1
  0
APPID
  5
20E
100
AcDbSymbolTableRecord
100
AcDbRegAppTableRecord
  2
ACAD
 70
0
  0
ENDTAB
  0
TABLE
  2
BLOCK_RECORD
  5
1
100
AcDbSymbolTable
 70
0
  0
BLOCK_RECORD
  5
20F
100
AcDbSymbolTableRecord
100
AcDbBlockTableRecord
  2
*Model_Space
  0
BLOCK_RECORD
  5
210
100
AcDbSymbolTableRecord
100
AcDbBlockTableRecord
  2
*Paper_Space
  0
BLOCK_RECORD
  5
211
100
AcDbSymbolTableRecord
100
AcDbBlockTableRecord
  2
SUN_FIRST_THIRD_ANGLE_BL0
  0
BLOCK_RECORD
  5
212
100
AcDbSymbolTableRecord
100
AcDbBlockTableRecord
  2
*T1
  0
BLOCK_RECORD
  5
213
100
AcDbSymbolTableRecord
100
AcDbBlockTableRecord
  2
*T2
  0
ENDTAB
  0
TABLE
  2
DIMSTYLE
  5
A
100
AcDbSymbolTable
 70
1
100
AcDbDimStyleTable
 71
0
  0
DIMSTYLE
105
214
100
AcDbSymbolTableRecord
100
AcDbDimStyleTableRecord
  2
STANDARD
 70
0
  3

  4

 40
1.0
 41
0.1875
 42
0.0625
 43
0.38
 44
0.125
 45
0.0
 46
0.0
 47
0.001
 48
0.001
140
0.1
141
0.09
142
0.0
143
25.4
144
1.0
145
0.0
146
1.0
147
0.09
 71
0.0
 72
0.0
 73
1
 74
1
 75
0
 76
0
 77
0
 78
4
170
0
171
2
172
0
173
0
174
0
175
0
176
0
177
0
178
0
270
2
271
3
272
3
273
2
274
2
275
0
280
0
281
0
282
0
283
1
284
4
285
0
286
0
287
3
288
0
340
11
278
46
  0
ENDTAB
  0
ENDSEC
  0
SECTION
  2
BLOCKS
  0
BLOCK
  5
20
100
AcDbEntity
  8
0
100
AcDbBlockBegin
  2
*Model_Space
 70
0
 10
0.0
 20
0.0
 30
0.0
  3
*Model_Space
  1

  0
ENDBLK
  5
21
100
AcDbEntity
  8
0
100
AcDbBlockEnd
  0
BLOCK
  5
1C
100
AcDbEntity
  8
0
100
AcDbBlockBegin
  2
*Paper_Space
 70
0
 10
0.0
 20
0.0
 30
0.0
  3
*Paper_Space
  1

  0
ENDBLK
  5
1D
100
AcDbEntity
  8
0
100
AcDbBlockEnd
  0
BLOCK
  5
215
100
AcDbEntity
  8
0
100
AcDbBlockBegin
 62
2
  6
CONTINUOUS
  2
SUN_FIRST_THIRD_ANGLE_BL0
 70
64
 10
20.4816717061
 20
1.2289683772
  3
SUN_FIRST_THIRD_ANGLE_BL0
  1

  0
TEXT
  5
216
100
AcDbEntity
  8
0
100
AcDbText
 62
2
  6
CONTINUOUS
 10
19.4750896608
 20
1.4136269581
  7
STANDARD
 40
0.08
  1
FIRST ANGLE
 41
0.8
 72
0
100
AcDbText
  0
TEXT
  5
217
100
AcDbEntity
  8
0
100
AcDbText
 62
2
  6
CONTINUOUS
 10
20.7842537513
 20
1.4047600029
  7
STANDARD
 40
0.08
  1
THIRD ANGLE
 41
0.8
 72
0
100
AcDbText
  0
LINE
  5
218
100
AcDbEntity
  8
0
100
AcDbLine
 62
7
  6
CONTINUOUS
 10
19.4767170086
 20
1.1727031207
 11
19.6334271527
 21
1.1717972817
  0
LINE
  5
219
100
AcDbEntity
  8
0
100
AcDbLine
 62
7
  6
CONTINUOUS
 10
19.6596964832
 20
1.1717972817
 11
19.6950230232
 21
1.171593082
  0
LINE
  5
21A
100
AcDbEntity
  8
0
100
AcDbLine
 62
7
  6
CONTINUOUS
 10
19.7194818561
 20
1.1708914427
 11
19.8852396156
 21
1.1699333054
  0
LINE
  5
21B
100
AcDbEntity
  8
0
100
AcDbLine
 62
7
  6
CONTINUOUS
 10
19.4758111696
 20
1.2723454088
 11
19.88525039
 21
1.3511534004
  0
LINE
  5
21C
100
AcDbEntity
  8
0
100
AcDbLine
 62
7
  6
CONTINUOUS
 10
19.88525039
 20
1.3511534004
 11
19.8831348489
 21
0.9851647912
  0
LINE
  5
21D
100
AcDbEntity
  8
0
100
AcDbLine
 62
7
  6
CONTINUOUS
 10
19.8831348489
 20
0.9851647912
 11
19.4767170086
 21
1.0658141206
  0
LINE
  5
21E
100
AcDbEntity
  8
0
100
AcDbLine
 62
7
  6
CONTINUOUS
 10
19.4767170086
 20
1.0658141206
 11
19.4779056764
 21
1.2714536432
  0
CIRCLE
  5
21F
100
AcDbEntity
  8
0
100
AcDbCircle
 62
7
  6
CONTINUOUS
 10
20.2068232291
 20
1.1717972817
 40
0.175742101
  0
CIRCLE
  5
220
100
AcDbEntity
  8
0
100
AcDbCircle
 62
7
  6
CONTINUOUS
 10
20.2068232291
 20
1.1717972817
 40
0.1005522074
  0
LINE
  5
221
100
AcDbEntity
  8
0
100
AcDbLine
 62
7
  6
CONTINUOUS
 10
20.2077290681
 20
1.3756110529
 11
20.2071171714
 21
1.2379342989
  0
LINE
  5
222
100
AcDbEntity
  8
0
100
AcDbLine
 62
7
  6
CONTINUOUS
 10
20.2077290681
 20
1.2016899681
 11
20.2074674401
 21
1.1428236749
  0
LINE
  5
223
100
AcDbEntity
  8
0
100
AcDbLine
 62
7
  6
CONTINUOUS
 10
20.208634907
 20
1.101141841
 11
20.2080230104
 21
0.963465087
  0
LINE
  5
224
100
AcDbEntity
  8
0
100
AcDbLine
 62
7
  6
CONTINUOUS
 10
20.0066328138
 20
1.1745147986
 11
20.1443095678
 21
1.1739029019
  0
LINE
  5
225
100
AcDbEntity
  8
0
100
AcDbLine
 62
7
  6
CONTINUOUS
 10
20.1832714155
 20
1.1727031207
 11
20.238153505
 21
1.172335442
  0
LINE
  5
226
100
AcDbEntity
  8
0
100
AcDbLine
 62
7
  6
CONTINUOUS
 10
20.2756669918
 20
1.1717972817
 11
20.407916871
 21
1.1712095044
  0
CIRCLE
  5
227
100
AcDbEntity
  8
0
100
AcDbCircle
 62
7
  6
CONTINUOUS
 10
20.7509457401
 20
1.1693297793
 40
0.1722024983
  0
CIRCLE
  5
228
100
AcDbEntity
  8
0
100
AcDbCircle
 62
7
  6
CONTINUOUS
 10
20.7509457401
 20
1.1693297793
 40
0.0985164967
  0
LINE
  5
229
100
AcDbEntity
  8
0
100
AcDbLine
 62
7
  6
CONTINUOUS
 10
20.7169767782
 20
1.170462078
 11
20.7825395137
 21
1.1682766535
  0
LINE
  5
22A
100
AcDbEntity
  8
0
100
AcDbLine
 62
7
  6
CONTINUOUS
 10
20.8177513651
 20
1.1693297793
 11
20.947965719
 21
1.1693297793
  0
LINE
  5
22B
100
AcDbEntity
  8
0
100
AcDbLine
 62
7
  6
CONTINUOUS
 10
20.6875370113
 20
1.170462078
 11
20.5573226574
 21
1.170462078
  0
LINE
  5
22C
100
AcDbEntity
  8
0
100
AcDbLine
 62
7
  6
CONTINUOUS
 10
20.7486811426
 20
1.1987695462
 11
20.7486811426
 21
1.1432869085
  0
LINE
  5
22D
100
AcDbEntity
  8
0
100
AcDbLine
 62
7
  6
CONTINUOUS
 10
20.7498134414
 20
1.1059210505
 11
20.7498134414
 21
0.9757066966
  0
LINE
  5
22E
100
AcDbEntity
  8
0
100
AcDbLine
 62
7
  6
CONTINUOUS
 10
20.7486811426
 20
1.2338708068
 11
20.7486811426
 21
1.3640851607
  0
LINE
  5
22F
100
AcDbEntity
  8
0
100
AcDbLine
 62
7
  6
CONTINUOUS
 10
21.0702539817
 20
1.2701043662
 11
21.4790138229
 21
1.3448360823
  0
LINE
  5
230
100
AcDbEntity
  8
0
100
AcDbLine
 62
7
  6
CONTINUOUS
 10
21.4790138229
 20
1.3448360823
 11
21.4790138229
 21
0.9779712941
  0
LINE
  5
231
100
AcDbEntity
  8
0
100
AcDbLine
 62
7
  6
CONTINUOUS
 10
21.4790138229
 20
0.9779712941
 11
21.069121683
 21
1.0617614
  0
LINE
  5
232
100
AcDbEntity
  8
0
100
AcDbLine
 62
7
  6
CONTINUOUS
 10
21.0702539817
 20
1.2701043662
 11
21.069121683
 21
1.0617614
  0
LINE
  5
233
100
AcDbEntity
  8
0
100
AcDbLine
 62
7
  6
CONTINUOUS
 10
21.4790138229
 20
1.1693297793
 11
21.3159628059
 21
1.1693297793
  0
LINE
  5
234
100
AcDbEntity
  8
0
100
AcDbLine
 62
7
  6
CONTINUOUS
 10
21.2876553377
 20
1.1693297793
 11
21.2502894796
 21
1.1693297793
  0
LINE
  5
235
100
AcDbEntity
  8
0
100
AcDbLine
 62
7
  6
CONTINUOUS
 10
21.2208497126
 20
1.1659328831
 11
21.0713862804
 21
1.1659328831
  0
LINE
  5
236
100
AcDbEntity
  8
0
100
AcDbLine
 62
7
  6
CONTINUOUS
 10
20.4796138713
 20
1.5284908897
 11
20.4766766948
 21
0.9294458646
  0
ENDBLK
  5
237
100
AcDbEntity
  8
0
  6
BYBLOCK
 62
0
100
AcDbBlockEnd
  0
BLOCK
  5
238
100
AcDbEntity
  8
0
100
AcDbBlockBegin
  2
*T1
 70
1
 10
0.0
 20
0.0
  3
*T1
  1

  0
LINE
  5
239
100
AcDbEntity
  8
0
100
AcDbLine
 62
2
  6
CONTINUOUS
 10
9.275
 20
0.0
 11
-0.0
 21
0.0
  0
LINE
  5
23A
100
AcDbEntity
  8
0
100
AcDbLine
 62
2
  6
CONTINUOUS
 10
9.275
 20
0.0
 11
9.275
 21
1.25
  0
LINE
  5
23B
100
AcDbEntity
  8
0
100
AcDbLine
 62
2
  6
CONTINUOUS
 10
9.275
 20
0.625
 11
-0.0
 21
0.625
  0
LINE
  5
23C
100
AcDbEntity
  8
0
100
AcDbLine
 62
2
  6
CONTINUOUS
 10
9.275
 20
1.25
 11
-0.0
 21
1.25
  0
LINE
  5
23D
100
AcDbEntity
  8
0
100
AcDbLine
 62
2
  6
CONTINUOUS
 10
6.8
 20
0.0
 11
6.8
 21
1.25
  0
LINE
  5
23E
100
AcDbEntity
  8
0
100
AcDbLine
 62
2
  6
CONTINUOUS
 10
6.4
 20
0.0
 11
6.4
 21
0.625
  0
LINE
  5
23F
100
AcDbEntity
  8
0
100
AcDbLine
 62
2
  6
CONTINUOUS
 10
5.9
 20
0.0
 11
5.9
 21
0.625
  0
LINE
  5
240
100
AcDbEntity
  8
0
100
AcDbLine
 62
2
  6
CONTINUOUS
 10
5.2
 20
0.0
 11
5.2
 21
0.625
  0
LINE
  5
241
100
AcDbEntity
  8
0
100
AcDbLine
 62
2
  6
CONTINUOUS
 10
4.1
 20
0.0
 11
4.1
 21
1.25
  0
LINE
  5
242
100
AcDbEntity
  8
0
100
AcDbLine
 62
2
  6
CONTINUOUS
 10
-0.0
 20
0.0
 11
-0.0
 21
1.25
  0
MTEXT
  5
243
100
AcDbEntity
  8
0
100
AcDbMText
 62
2
  6
CONTINUOUS
  7
STANDARD
 71
2
 72
1
 10
6.6
 20
0.325
 30
0.0
 11
1.0
 21
0.0
 31
0.0
 44
0.9
  1
2
 40
0.125
 41
0.2
  0
MTEXT
  5
244
100
AcDbEntity
  8
0
100
AcDbMText
 62
2
  6
CONTINUOUS
  7
STANDARD
 71
2
 72
1
 10
6.15
 20
0.325
 30
0.0
 11
1.0
 21
0.0
 31
0.0
 44
0.9
  1
C
 40
0.125
 41
0.2
  0
MTEXT
  5
245
100
AcDbEntity
  8
0
100
AcDbMText
 62
2
  6
CONTINUOUS
  7
STANDARD
 71
2
 72
1
 10
5.55
 20
0.325
 30
0.0
 11
1.0
 21
0.0
 31
0.0
 44
0.9
  1
1.000
 40
0.125
 41
1.0
  0
MTEXT
  5
246
100
AcDbEntity
  8
0
100
AcDbMText
 62
2
  6
CONTINUOUS
  7
STANDARD
 71
2
 72
1
 10
4.65
 20
0.325
 30
0.0
 11
1.0
 21
0.0
 31
0.0
 44
0.9
  1
Nov-19-19
 40
0.125
 41
1.8
  0
MTEXT
  5
247
100
AcDbEntity
  8
0
100
AcDbMText
 62
2
  6
CONTINUOUS
  7
STANDARD
 71
2
 72
1
 10
2.05
 20
0.4625
 30
0.0
 11
1.0
 21
0.0
 31
0.0
 44
0.9
  1
T-2A Sandwich ISO 05\POn P, port 3 to T
 40
0.125
 41
4.0
  0
MTEXT
  5
248
100
AcDbEntity
  8
0
100
AcDbMText
 62
2
  6
CONTINUOUS
  7
STANDARD
 71
1
 72
1
 10
6.45
 20
0.5625
 30
0.0
 11
1.0
 21
0.0
 31
0.0
 44
0.9
  1
SHEET
 40
0.06
 41
0.48
  0
MTEXT
  5
249
100
AcDbEntity
  8
0
100
AcDbMText
 62
2
  6
CONTINUOUS
  7
STANDARD
 71
1
 72
1
 10
5.95
 20
0.5625
 30
0.0
 11
1.0
 21
0.0
 31
0.0
 44
0.9
  1
DWG SIZE
 40
0.06
 41
0.768
  0
MTEXT
  5
24A
100
AcDbEntity
  8
0
100
AcDbMText
 62
2
  6
CONTINUOUS
  7
STANDARD
 71
1
 72
1
 10
5.25
 20
0.5625
 30
0.0
 11
1.0
 21
0.0
 31
0.0
 44
0.9
  1
SCALE
 40
0.06
 41
0.48
  0
MTEXT
  5
24B
100
AcDbEntity
  8
0
100
AcDbMText
 62
2
  6
CONTINUOUS
  7
STANDARD
 71
1
 72
1
 10
4.15
 20
0.5625
 30
0.0
 11
1.0
 21
0.0
 31
0.0
 44
0.9
  1
DATE
 40
0.06
 41
0.384
  0
MTEXT
  5
24C
100
AcDbEntity
  8
0
100
AcDbMText
 62
2
  6
CONTINUOUS
  7
STANDARD
 71
1
 72
1
 10
0.05
 20
0.5625
 30
0.0
 11
1.0
 21
0.0
 31
0.0
 44
0.9
  1
DESCRIPTION
 40
0.06
 41
1.056
  0
MTEXT
  5
24D
100
AcDbEntity
  8
0
100
AcDbMText
 62
2
  6
CONTINUOUS
  7
STANDARD
 71
2
 72
1
 10
5.45
 20
1.0375
 30
0.0
 11
1.0
 21
0.0
 31
0.0
 44
0.9
  1
ALL DIMENSIONS IN INCH\PVIEWS ARE THIRD ANGLE
 40
0.12
 41
4.224
  0
MTEXT
  5
24E
100
AcDbEntity
  8
0
100
AcDbMText
 62
2
  6
CONTINUOUS
  7
STANDARD
 71
2
 72
1
 10
2.05
 20
0.95
 30
0.0
 11
1.0
 21
0.0
 31
0.0
 44
0.9
  1
ZVK
 40
0.125
 41
0.6
  0
MTEXT
  5
24F
100
AcDbEntity
  8
0
100
AcDbMText
 62
2
  6
CONTINUOUS
  7
STANDARD
 71
1
 72
1
 10
0.05
 20
1.1875
 30
0.0
 11
1.0
 21
0.0
 31
0.0
 44
0.9
  1
MODEL
 40
0.06
 41
0.48
  0
ENDBLK
  5
250
100
AcDbEntity
  8
0
  6
BYBLOCK
 62
0
100
AcDbBlockEnd
  0
BLOCK
  5
251
100
AcDbEntity
  8
0
100
AcDbBlockBegin
  2
*T2
 70
1
 10
0.0
 20
0.0
  3
*T2
  1

  0
LINE
  5
252
100
AcDbEntity
  8
0
100
AcDbLine
 62
2
  6
CONTINUOUS
 10
0.0
 20
0.0
 11
9.055
 21
0.0
  0
LINE
  5
253
100
AcDbEntity
  8
0
100
AcDbLine
 62
2
  6
CONTINUOUS
 10
0.0
 20
0.0
 11
0.0
 21
-2.094
  0
LINE
  5
254
100
AcDbEntity
  8
0
100
AcDbLine
 62
2
  6
CONTINUOUS
 10
0.0
 20
-0.344
 11
9.055
 21
-0.344
  0
LINE
  5
255
100
AcDbEntity
  8
0
100
AcDbLine
 62
2
  6
CONTINUOUS
 10
0.0
 20
-0.594
 11
9.055
 21
-0.594
  0
LINE
  5
256
100
AcDbEntity
  8
0
100
AcDbLine
 62
2
  6
CONTINUOUS
 10
0.0
 20
-0.844
 11
9.055
 21
-0.844
  0
LINE
  5
257
100
AcDbEntity
  8
0
100
AcDbLine
 62
2
  6
CONTINUOUS
 10
0.0
 20
-1.094
 11
9.055
 21
-1.094
  0
LINE
  5
258
100
AcDbEntity
  8
0
100
AcDbLine
 62
2
  6
CONTINUOUS
 10
0.0
 20
-1.344
 11
9.055
 21
-1.344
  0
LINE
  5
259
100
AcDbEntity
  8
0
100
AcDbLine
 62
2
  6
CONTINUOUS
 10
0.0
 20
-1.594
 11
9.055
 21
-1.594
  0
LINE
  5
25A
100
AcDbEntity
  8
0
100
AcDbLine
 62
2
  6
CONTINUOUS
 10
0.0
 20
-1.844
 11
9.055
 21
-1.844
  0
LINE
  5
25B
100
AcDbEntity
  8
0
100
AcDbLine
 62
2
  6
CONTINUOUS
 10
0.0
 20
-2.094
 11
9.055
 21
-2.094
  0
LINE
  5
25C
100
AcDbEntity
  8
0
100
AcDbLine
 62
2
  6
CONTINUOUS
 10
3.055
 20
0.0
 11
3.055
 21
-2.094
  0
LINE
  5
25D
100
AcDbEntity
  8
0
100
AcDbLine
 62
2
  6
CONTINUOUS
 10
9.055
 20
0.0
 11
9.055
 21
-2.094
  0
MTEXT
  5
25E
100
AcDbEntity
  8
0
100
AcDbMText
 62
2
  6
CONTINUOUS
  7
STANDARD
 71
2
 72
1
 10
1.5275
 20
-0.0995
 30
0.0
 11
1.0
 21
0.0
 31
0.0
 44
0.9
  1
Technical Data
 40
0.145
 41
3.248
  0
MTEXT
  5
25F
100
AcDbEntity
  8
0
100
AcDbMText
 62
2
  6
CONTINUOUS
  7
STANDARD
 71
2
 72
1
 10
4.555
 20
-0.0995
 30
0.0
 11
1.0
 21
0.0
 31
0.0
 44
0.9
  1
U.S. Units
 40
0.145
 41
2.32
  0
MTEXT
  5
260
100
AcDbEntity
  8
0
100
AcDbMText
 62
2
  6
CONTINUOUS
  7
STANDARD
 71
2
 72
1
 10
7.555
 20
-0.0995
 30
0.0
 11
1.0
 21
0.0
 31
0.0
 44
0.9
  1
Metric Units
 40
0.145
 41
2.784
  0
MTEXT
  5
261
100
AcDbEntity
  8
0
100
AcDbMText
 62
2
  6
CONTINUOUS
  7
STANDARD
 71
2
 72
1
 10
1.5275
 20
-0.4065
 30
0.0
 11
1.0
 21
0.0
 31
0.0
 44
0.9
  1
Cavity
 40
0.125
 41
1.2
  0
MTEXT
  5
262
100
AcDbEntity
  8
0
100
AcDbMText
 62
2
  6
CONTINUOUS
  7
STANDARD
 71
2
 72
1
 10
6.055
 20
-0.4065
 30
0.0
 11
1.0
 21
0.0
 31
0.0
 44
0.9
  1
T-2A
 40
0.125
 41
0.8
  0
MTEXT
  5
263
100
AcDbEntity
  8
0
100
AcDbMText
 62
2
  6
CONTINUOUS
  7
STANDARD
 71
2
 72
1
 10
1.5275
 20
-0.6565
 30
0.0
 11
1.0
 21
0.0
 31
0.0
 44
0.9
  1
Body Features
 40
0.125
 41
2.6
  0
MTEXT
  5
264
100
AcDbEntity
  8
0
100
AcDbMText
 62
2
  6
CONTINUOUS
  7
STANDARD
 71
2
 72
1
 10
6.055
 20
-0.6565
 30
0.0
 11
1.0
 21
0.0
 31
0.0
 44
0.9
  1
On P, port 3 to T
 40
0.125
 41
3.4
  0
MTEXT
  5
265
100
AcDbEntity
  8
0
100
AcDbMText
 62
2
  6
CONTINUOUS
  7
STANDARD
 71
2
 72
1
 10
1.5275
 20
-0.9065
 30
0.0
 11
1.0
 21
0.0
 31
0.0
 44
0.9
  1
Body Type
 40
0.125
 41
1.8
  0
MTEXT
  5
266
100
AcDbEntity
  8
0
100
AcDbMText
 62
2
  6
CONTINUOUS
  7
STANDARD
 71
2
 72
1
 10
6.055
 20
-0.9065
 30
0.0
 11
1.0
 21
0.0
 31
0.0
 44
0.9
  1
Sandwich
 40
0.125
 41
1.6
  0
MTEXT
  5
267
100
AcDbEntity
  8
0
100
AcDbMText
 62
2
  6
CONTINUOUS
  7
STANDARD
 71
2
 72
1
 10
1.5275
 20
-1.1565
 30
0.0
 11
1.0
 21
0.0
 31
0.0
 44
0.9
  1
Interface
 40
0.125
 41
1.8
  0
MTEXT
  5
268
100
AcDbEntity
  8
0
100
AcDbMText
 62
2
  6
CONTINUOUS
  7
STANDARD
 71
2
 72
1
 10
6.055
 20
-1.1565
 30
0.0
 11
1.0
 21
0.0
 31
0.0
 44
0.9
  1
ISO 05
 40
0.125
 41
1.2
  0
MTEXT
  5
269
100
AcDbEntity
  8
0
100
AcDbMText
 62
2
  6
CONTINUOUS
  7
STANDARD
 71
2
 72
1
 10
1.5275
 20
-1.4065
 30
0.0
 11
1.0
 21
0.0
 31
0.0
 44
0.9
  1
Open Cavity Quantity
 40
0.125
 41
4.0
  0
MTEXT
  5
26A
100
AcDbEntity
  8
0
100
AcDbMText
 62
2
  6
CONTINUOUS
  7
STANDARD
 71
2
 72
1
 10
6.055
 20
-1.4065
 30
0.0
 11
1.0
 21
0.0
 31
0.0
 44
0.9
  1
1
 40
0.125
 41
0.2
  0
MTEXT
  5
26B
100
AcDbEntity
  8
0
100
AcDbMText
 62
2
  6
CONTINUOUS
  7
STANDARD
 71
2
 72
1
 10
1.5275
 20
-1.6565
 30
0.0
 11
1.0
 21
0.0
 31
0.0
 44
0.9
  1
Stack Height
 40
0.125
 41
2.4
  0
MTEXT
  5
26C
100
AcDbEntity
  8
0
100
AcDbMText
 62
2
  6
CONTINUOUS
  7
STANDARD
 71
2
 72
1
 10
4.555
 20
-1.6565
 30
0.0
 11
1.0
 21
0.0
 31
0.0
 44
0.9
  1
2.44 in.
 40
0.125
 41
1.6
  0
MTEXT
  5
26D
100
AcDbEntity
  8
0
100
AcDbMText
 62
2
  6
CONTINUOUS
  7
STANDARD
 71
2
 72
1
 10
7.555
 20
-1.6565
 30
0.0
 11
1.0
 21
0.0
 31
0.0
 44
0.9
  1
62 mm
 40
0.125
 41
1.0
  0
MTEXT
  5
26E
100
AcDbEntity
  8
0
100
AcDbMText
 62
2
  6
CONTINUOUS
  7
STANDARD
 71
2
 72
1
 10
1.5275
 20
-1.9065
 30
0.0
 11
1.0
 21
0.0
 31
0.0
 44
0.9
  1
Weight
 40
0.125
 41
1.2
  0
MTEXT
  5
26F
100
AcDbEntity
  8
0
100
AcDbMText
 62
2
  6
CONTINUOUS
  7
STANDARD
 71
2
 72
1
 10
4.555
 20
-1.9065
 30
0.0
 11
1.0
 21
0.0
 31
0.0
 44
0.9
  1
1.813 lb.
 40
0.125
 41
1.8
  0
MTEXT
  5
270
100
AcDbEntity
  8
0
100
AcDbMText
 62
2
  6
CONTINUOUS
  7
STANDARD
 71
2
 72
1
 10
7.555
 20
-1.9065
 30
0.0
 11
1.0
 21
0.0
 31
0.0
 44
0.9
  1
0,822 kg.
 40
0.125
 41
1.8
  0
ENDBLK
  5
271
100
AcDbEntity
  8
0
  6
BYBLOCK
 62
0
100
AcDbBlockEnd
  0
ENDSEC
  0
SECTION
  2
ENTITIES
  0
IMAGE
  5
272
100
AcDbEntity
  8
0
100
AcDbRasterImage
 62
7
  6
CONTINUOUS
 10
19.2297077316
 20
0.3094318264
 30
0.0
 11
0.0066666667
 21
0.0
 31
0.0
 12
0.0
 22
0.0066666667
 32
0.0
 13
369.0
 23
92.0
340
       2C7
 70
9
280
0
281
50
282
50
283
0
360
       2C1
 71
1
 91
2
 14
-0.5
 24
-0.5
 14
368.5
 24
91.5
  0
INSERT
  5
273
100
AcDbEntity
  8
0
100
AcDbBlockReference
 62
2
  6
CONTINUOUS
  2
SUN_FIRST_THIRD_ANGLE_BL0
 10
20.4816717061
 20
1.2289683772
  0
ACAD_TABLE
  5
274
100
AcDbEntity
  8
0
 62
2
  6
CONTINUOUS
100
AcDbBlockReference
  2
*T1
 10
12.42375
 20
0.30125
 30
0.0
100
AcDbTable
342
       2C9
343
212
 11
1.0
 21
0.0
 31
0.0
 90
6
 91
4
 92
6
 93
20
 94
0
 95
0
 96
0
 70
1
 41
0.0
141
0.525
141
0.1
141
0.525
141
0.1
142
4.1
142
1.1
142
0.7
142
0.5
142
0.4
142
2.475
171
1
172
0
173
0
174
0
175
1
176
1
 91
33
178
0
145
0.0
301
CELL_VALUE
 90
4
  1
T-2A Sandwich ISO 05\POn P, port 3 to T
304
ACVALUE_END
170
2
140
0.125
171
1
172
0
173
0
174
0
175
1
176
1
 91
33
178
0
145
0.0
301
CELL_VALUE
 90
4
  1
Nov-19-19
304
ACVALUE_END
170
5
140
0.125
171
1
172
0
173
0
174
0
175
1
176
1
 91
33
178
0
145
0.0
301
CELL_VALUE
 90
4
  1
1.000
304
ACVALUE_END
170
5
140
0.125
171
1
172
0
173
0
174
0
175
1
176
1
 91
33
178
0
145
0.0
301
CELL_VALUE
 90
4
  1
C
304
ACVALUE_END
170
5
140
0.125
171
1
172
0
173
0
174
0
175
1
176
1
 91
33
178
0
145
0.0
301
CELL_VALUE
 90
4
  1
2
304
ACVALUE_END
170
5
140
0.125
171
1
172
0
173
0
174
0
175
1
176
1
 91
33
178
0
145
0.0
301
CELL_VALUE
 90
4
  1
 
304
ACVALUE_END
170
1
140
0.125
171
1
172
0
173
0
174
0
175
1
176
1
 91
33
178
0
145
0.0
301
CELL_VALUE
 90
4
  1
DESCRIPTION
304
ACVALUE_END
170
1
140
0.06
171
1
172
0
173
0
174
0
175
1
176
1
 91
33
178
0
145
0.0
301
CELL_VALUE
 90
4
  1
DATE
304
ACVALUE_END
170
1
140
0.06
171
1
172
0
173
0
174
0
175
1
176
1
 91
33
178
0
145
0.0
301
CELL_VALUE
 90
4
  1
SCALE
304
ACVALUE_END
170
1
140
0.06
171
1
172
0
173
0
174
0
175
1
176
1
 91
33
178
0
145
0.0
301
CELL_VALUE
 90
4
  1
DWG SIZE
304
ACVALUE_END
170
1
140
0.06
171
1
172
0
173
0
174
0
175
1
176
1
 91
33
178
0
145
0.0
301
CELL_VALUE
 90
4
  1
SHEET
304
ACVALUE_END
170
1
140
0.06
171
1
172
0
173
0
174
0
175
1
176
1
 91
33
178
0
145
0.0
301
CELL_VALUE
 90
4
  1
 
304
ACVALUE_END
170
1
140
0.125
171
1
172
0
173
0
174
0
175
1
176
1
 91
33
178
0
145
0.0
301
CELL_VALUE
 90
4
  1
ZVK
304
ACVALUE_END
170
5
140
0.125
171
1
172
0
173
0
174
0
175
4
176
1
 91
33
178
0
145
0.0
301
CELL_VALUE
 90
4
  1
ALL DIMENSIONS IN INCH\PVIEWS ARE THIRD ANGLE
304
ACVALUE_END
170
5
140
0.12
171
1
172
0
173
1
174
0
175
1
176
1
 91
1
178
0
145
0.0
170
1
171
1
172
0
173
1
174
0
175
1
176
1
 91
1
178
0
145
0.0
170
1
171
1
172
0
173
1
174
0
175
1
176
1
 91
1
178
0
145
0.0
170
5
171
1
172
0
173
0
174
0
175
1
176
1
 91
33
178
0
145
0.0
301
CELL_VALUE
 90
4
  1
 
304
ACVALUE_END
170
1
140
0.125
171
1
172
0
173
0
174
0
175
1
176
1
 91
33
178
0
145
0.0
301
CELL_VALUE
 90
4
  1
MODEL
304
ACVALUE_END
170
1
140
0.06
171
1
172
0
173
0
174
0
175
1
176
1
 91
33
178
0
145
0.0
301
CELL_VALUE
 90
4
  1
 
304
ACVALUE_END
170
1
140
0.125
171
1
172
0
173
0
174
0
175
1
176
1
 91
33
178
0
145
0.0
301
CELL_VALUE
 90
4
  1
 
304
ACVALUE_END
170
1
140
0.125
171
1
172
0
173
0
174
0
175
1
176
1
 91
33
178
0
145
0.0
301
CELL_VALUE
 90
4
  1
 
304
ACVALUE_END
170
1
140
0.125
171
1
172
0
173
0
174
0
175
1
176
1
 91
33
178
0
145
0.0
301
CELL_VALUE
 90
4
  1
 
304
ACVALUE_END
170
1
140
0.125
171
1
172
0
173
0
174
0
175
1
176
1
 91
33
178
0
145
0.0
301
CELL_VALUE
 90
4
  1
 
304
ACVALUE_END
170
1
140
0.125
  0
ACAD_TABLE
  5
275
100
AcDbEntity
  8
0
 62
2
  6
CONTINUOUS
100
AcDbBlockReference
  2
*T2
 10
12.4237499994
 20
16.47875
 30
0.0
100
AcDbTable
342
       2C8
343
213
 11
1.0
 21
0.0
 31
0.0
 90
22
 91
8
 92
3
 93
16
 94
0
 95
0
 96
0
 41
0.028
141
0.344
141
0.25
141
0.25
141
0.25
141
0.25
141
0.25
141
0.25
141
0.25
142
3.055
142
3.0
142
3.0
171
1
172
0
173
0
174
0
175
1
176
1
 91
33
178
0
145
0.0
301
CELL_VALUE
 90
4
  1
Technical Data
304
ACVALUE_END
170
5
140
0.145
171
1
172
0
173
0
174
0
175
1
176
1
 91
33
178
0
145
0.0
301
CELL_VALUE
 90
4
  1
U.S. Units
304
ACVALUE_END
170
5
140
0.145
171
1
172
0
173
0
174
0
175
1
176
1
 91
33
178
0
145
0.0
301
CELL_VALUE
 90
4
  1
Metric Units
304
ACVALUE_END
170
5
140
0.145
171
1
172
0
173
0
174
0
175
1
176
1
 91
33
178
0
145
0.0
301
CELL_VALUE
 90
4
  1
Cavity
304
ACVALUE_END
170
5
140
0.125
171
1
172
0
173
0
174
0
175
2
176
1
 91
33
178
0
145
0.0
301
CELL_VALUE
 90
4
  1
T-2A
304
ACVALUE_END
170
5
140
0.125
171
1
172
0
173
1
174
0
175
1
176
1
 91
1
178
0
145
0.0
170
1
171
1
172
0
173
0
174
0
175
1
176
1
 91
33
178
0
145
0.0
301
CELL_VALUE
 90
4
  1
Body Features
304
ACVALUE_END
170
5
140
0.125
171
1
172
0
173
0
174
0
175
2
176
1
 91
33
178
0
145
0.0
301
CELL_VALUE
 90
4
  1
On P, port 3 to T
304
ACVALUE_END
170
5
140
0.125
171
1
172
0
173
1
174
0
175
1
176
1
 91
1
178
0
145
0.0
170
1
171
1
172
0
173
0
174
0
175
1
176
1
 91
33
178
0
145
0.0
301
CELL_VALUE
 90
4
  1
Body Type
304
ACVALUE_END
170
5
140
0.125
171
1
172
0
173
0
174
0
175
2
176
1
 91
33
178
0
145
0.0
301
CELL_VALUE
 90
4
  1
Sandwich
304
ACVALUE_END
170
5
140
0.125
171
1
172
0
173
1
174
0
175
1
176
1
 91
1
178
0
145
0.0
170
1
171
1
172
0
173
0
174
0
175
1
176
1
 91
33
178
0
145
0.0
301
CELL_VALUE
 90
4
  1
Interface
304
ACVALUE_END
170
5
140
0.125
171
1
172
0
173
0
174
0
175
2
176
1
 91
33
178
0
145
0.0
301
CELL_VALUE
 90
4
  1
ISO 05
304
ACVALUE_END
170
5
140
0.125
171
1
172
0
173
1
174
0
175
1
176
1
 91
1
178
0
145
0.0
170
1
171
1
172
0
173
0
174
0
175
1
176
1
 91
33
178
0
145
0.0
301
CELL_VALUE
 90
4
  1
Open Cavity Quantity
304
ACVALUE_END
170
5
140
0.125
171
1
172
0
173
0
174
0
175
2
176
1
 91
33
178
0
145
0.0
301
CELL_VALUE
 90
4
  1
1
304
ACVALUE_END
170
5
140
0.125
171
1
172
0
173
1
174
0
175
1
176
1
 91
1
178
0
145
0.0
170
1
171
1
172
0
173
0
174
0
175
1
176
1
 91
33
178
0
145
0.0
301
CELL_VALUE
 90
4
  1
Stack Height
304
ACVALUE_END
170
5
140
0.125
171
1
172
0
173
0
174
0
175
1
176
1
 91
33
178
0
145
0.0
301
CELL_VALUE
 90
4
  1
2.44 in.
304
ACVALUE_END
170
5
140
0.125
171
1
172
0
173
0
174
0
175
1
176
1
 91
33
178
0
145
0.0
301
CELL_VALUE
 90
4
  1
62 mm
304
ACVALUE_END
170
5
140
0.125
171
1
172
0
173
0
174
0
175
1
176
1
 91
33
178
0
145
0.0
301
CELL_VALUE
 90
4
  1
Weight
304
ACVALUE_END
170
5
140
0.125
171
1
172
0
173
0
174
0
175
1
176
1
 91
33
178
0
145
0.0
301
CELL_VALUE
 90
4
  1
1.813 lb.
304
ACVALUE_END
170
5
140
0.125
171
1
172
0
173
0
174
0
175
1
176
1
 91
33
178
0
145
0.0
301
CELL_VALUE
 90
4
  1
0,822 kg.
304
ACVALUE_END
170
5
140
0.125
  0
MTEXT
  5
276
100
AcDbEntity
  8
0
100
AcDbMText
 62
2
  6
CONTINUOUS
  7
STANDARD
 71
1
 72
1
 10
0.52125
 20
5.75995
 30
0.0
 11
1.0
 21
0.0
 31
0.0
 44
0.6
  3
Notes\P \P1. Important: Carefully consider\P   the maximum system pressure. The\P   pressure rating of the manifold is\P   dependent on the manifold material,\P   with the port type/size a secondary\P   consideration. Manifolds\P   constructed of alu
  1
minum are not\P   rated for pressures higher than\P   3000 psi (210 bar), regardless of\P   the port type/size specified.
 40
0.1
 41
3.04
  0
LINE
  5
277
100
AcDbEntity
  8
0
100
AcDbLine
 62
7
  6
CONTINUOUS
 10
0.30125
 20
0.30125
 11
0.30125
 21
16.69875
  0
LINE
  5
278
100
AcDbEntity
  8
0
100
AcDbLine
 62
7
  6
CONTINUOUS
 10
0.30125
 20
0.30125
 11
21.69875
 21
0.30125
  0
LINE
  5
279
100
AcDbEntity
  8
0
100
AcDbLine
 62
7
  6
CONTINUOUS
 10
0.30125
 20
16.69875
 11
21.69875
 21
16.69875
  0
LINE
  5
27A
100
AcDbEntity
  8
0
100
AcDbLine
 62
7
  6
CONTINUOUS
 10
21.69875
 20
0.30125
 11
21.69875
 21
16.69875
  0
LINE
  5
27B
100
AcDbEntity
  8
0
100
AcDbLine
 62
7
  6
CONTINUOUS
 10
9.4770924947
 20
10.0297248863
 11
10.1080927965
 21
10.6392244103
  0
LINE
  5
27C
100
AcDbEntity
  8
0
100
AcDbLine
 62
7
  6
CONTINUOUS
 10
11.8919072035
 20
6.3607755897
 11
9.4770924947
 21
6.5282435585
  0
LINE
  5
27D
100
AcDbEntity
  8
0
100
AcDbLine
 62
4
  6
CONTINUOUS
 10
10.6659145644
 20
10.078038871
 11
10.6509055557
 21
10.0710412808
  0
LINE
  5
27E
100
AcDbEntity
  8
0
100
AcDbLine
 62
7
  6
CONTINUOUS
 10
9.4770924947
 20
10.0297248863
 11
9.4770924947
 21
6.5282435585
  0
LINE
  5
27F
100
AcDbEntity
  8
0
100
AcDbLine
 62
4
  6
CONTINUOUS
 10
10.4791193838
 20
10.1151085662
 11
10.4480611247
 21
10.0851085899
  0
LINE
  5
280
100
AcDbEntity
  8
0
100
AcDbLine
 62
4
  6
CONTINUOUS
 10
10.7595722152
 20
10.0635052224
 11
10.8268526941
 21
10.0909931792
  0
LINE
  5
281
100
AcDbEntity
  8
0
100
AcDbLine
 62
4
  6
CONTINUOUS
 10
10.7347429894
 20
10.0920220293
 11
10.7295666141
 21
10.0870220344
  0
LINE
  5
282
100
AcDbEntity
  8
0
100
AcDbLine
 62
7
  6
CONTINUOUS
 10
11.3983775617
 20
10.2295438422
 11
11.3969530886
 21
10.2281936329
  0
LINE
  5
283
100
AcDbEntity
  8
0
100
AcDbLine
 62
7
  6
CONTINUOUS
 10
12.5229075053
 20
10.4717564415
 11
11.8919072035
 21
9.8622569174
  0
LINE
  5
284
100
AcDbEntity
  8
0
100
AcDbLine
 62
4
  6
CONTINUOUS
 10
10.8268526941
 20
10.0909931792
 11
10.8320166548
 21
10.0584811834
  0
LINE
  5
285
100
AcDbEntity
  8
0
100
AcDbLine
 62
7
  6
CONTINUOUS
 10
11.8919072035
 20
9.8622569174
 11
11.8919072035
 21
6.3607755897
  0
LINE
  5
286
100
AcDbEntity
  8
0
100
AcDbLine
 62
4
  6
CONTINUOUS
 10
10.7300867349
 20
10.0950244324
 11
10.7347429894
 21
10.0920220293
  0
LINE
  5
287
100
AcDbEntity
  8
0
100
AcDbLine
 62
7
  6
CONTINUOUS
 10
11.8919072035
 20
9.8622569174
 11
9.4770924947
 21
10.0297248863
  0
LINE
  5
288
100
AcDbEntity
  8
0
100
AcDbLine
 62
7
  6
CONTINUOUS
 10
12.5229075053
 20
10.4717564415
 11
12.5229075053
 21
6.9702751137
  0
LINE
  5
289
100
AcDbEntity
  8
0
100
AcDbLine
 62
4
  6
CONTINUOUS
 10
10.6509055557
 20
10.0710412808
 11
10.7088611074
 21
10.0670220496
  0
LINE
  5
28A
100
AcDbEntity
  8
0
100
AcDbLine
 62
4
  6
CONTINUOUS
 10
10.7844138564
 20
10.072500407
 11
10.8278805202
 21
10.0694859836
  0
LINE
  5
28B
100
AcDbEntity
  8
0
100
AcDbLine
 62
4
  6
CONTINUOUS
 10
10.5577680258
 20
10.0935773274
 11
10.6012346895
 21
10.090562904
  0
LINE
  5
28C
100
AcDbEntity
  8
0
100
AcDbLine
 62
4
  6
CONTINUOUS
 10
10.4428971639
 20
10.1176205857
 11
10.5153416036
 21
10.1125965467
  0
LINE
  5
28D
100
AcDbEntity
  8
0
100
AcDbLine
 62
4
  6
CONTINUOUS
 10
10.7036971467
 20
10.0995340454
 11
10.7181860346
 21
10.0985292377
  0
LINE
  5
28E
100
AcDbEntity
  8
0
100
AcDbLine
 62
4
  6
CONTINUOUS
 10
10.7181860346
 20
10.0985292377
 11
10.7300867349
 21
10.0950244324
  0
LINE
  5
28F
100
AcDbEntity
  8
0
100
AcDbLine
 62
4
  6
CONTINUOUS
 10
10.7295666141
 20
10.0870220344
 11
10.7197339806
 21
10.0850244391
  0
LINE
  5
290
100
AcDbEntity
  8
0
100
AcDbLine
 62
4
  6
CONTINUOUS
 10
10.6855798286
 20
10.0820340589
 11
10.6659145644
 21
10.078038871
  0
LINE
  5
291
100
AcDbEntity
  8
0
100
AcDbLine
 62
4
  6
CONTINUOUS
 10
10.6767874376
 20
10.0960412605
 11
10.6866200711
 21
10.0980388558
  0
LINE
  5
292
100
AcDbEntity
  8
0
100
AcDbLine
 62
4
  6
CONTINUOUS
 10
10.7197339806
 20
10.0850244391
 11
10.6855798286
 21
10.0820340589
  0
LINE
  5
293
100
AcDbEntity
  8
0
100
AcDbLine
 62
4
  6
CONTINUOUS
 10
10.6866200711
 20
10.0980388558
 11
10.7036971467
 21
10.0995340454
  0
LINE
  5
294
100
AcDbEntity
  8
0
100
AcDbLine
 62
7
  6
CONTINUOUS
 10
10.1080927965
 20
10.6392244103
 11
12.5229075053
 21
10.4717564415
  0
LINE
  5
295
100
AcDbEntity
  8
0
100
AcDbLine
 62
7
  6
CONTINUOUS
 10
12.5229075053
 20
6.9702751137
 11
11.8919072035
 21
6.3607755897
  0
SPLINE
  5
296
100
AcDbEntity
  8
0
100
AcDbSpline
 62
7
  6
CONTINUOUS
 70
0
 71
3
 72
56
 73
52
 74
0
 42
0.0000001
 43
0.0000001
 44
0.0000000001
 40
0.0
 40
0.0
 40
0.0
 40
0.0
 40
0.031072346
 40
0.0465152317
 40
0.0618873124
 40
0.0924244558
 40
0.1227285839
 40
0.1378086476
 40
0.152843805
 40
0.1678401144
 40
0.1828038429
 40
0.2126503375
 40
0.2275575076
 40
0.2424602021
 40
0.2573657768
 40
0.2722815596
 40
0.2872148075
 40
0.3021724288
 40
0.3171611944
 40
0.3321875086
 40
0.3472571497
 40
0.3623756664
 40
0.3927682644
 40
0.4234071833
 40
0.4388308412
 40
0.4543232404
 40
0.485507794
 40
0.5169699549
 40
0.5328065592
 40
0.5487076996
 40
0.5806824155
 40
0.6128739827
 40
0.6290441713
 40
0.6452543848
 40
0.6777639099
 40
0.7103643313
 40
0.7266873147
 40
0.7430142246
 40
0.7756456102
 40
0.791945892
 40
0.80822475
 40
0.8244760382
 40
0.8406940716
 40
0.8568734333
 40
0.8730088969
 40
0.8890954876
 40
0.905128265
 40
0.9370074718
 40
0.9528594107
 40
0.9686481654
 40
1.0
 40
1.0
 40
1.0
 40
1.0
 10
10.3005603361
 20
8.2236835513
 30
0.0
 10
10.3005602014
 20
8.2156699208
 30
0.0
 10
10.2999720853
 20
8.2036621806
 30
0.0
 10
10.2980026102
 20
8.1878183977
 30
0.0
 10
10.2952638125
 20
8.172228247
 30
0.0
 10
10.2904024883
 20
8.1531464507
 30
0.0
 10
10.2836413684
 20
8.1347310438
 30
0.0
 10
10.2771496146
 20
8.120558923
 30
0.0
 10
10.2717582188
 20
8.1102430642
 30
0.0
 10
10.2658513984
 20
8.1002480373
 30
0.0
 10
10.2573163022
 20
8.0873941338
 30
0.0
 10
10.2477916246
 20
8.0752478033
 30
0.0
 10
10.2373658007
 20
8.0639260582
 30
0.0
 10
10.2291125737
 20
8.0558632959
 30
0.0
 10
10.2204442288
 20
8.048245919
 30
0.0
 10
10.2113795761
 20
8.0410917827
 30
0.0
 10
10.2019394164
 20
8.0344178227
 30
0.0
 10
10.1921459183
 20
8.028238749
 30
0.0
 10
10.1820208166
 20
8.0225701827
 30
0.0
 10
10.1715874823
 20
8.0174258333
 30
0.0
 10
10.1608699895
 20
8.0128171816
 30
0.0
 10
10.1462108712
 20
8.0073950185
 30
0.0
 10
10.1272842735
 20
8.0020160594
 30
0.0
 10
10.1078323467
 20
7.9985774601
 30
0.0
 10
10.0920305818
 20
7.9969940777
 30
0.0
 10
10.0760288244
 20
7.9961940841
 30
0.0
 10
10.0558478894
 20
7.9966871912
 30
0.0
 10
10.0357244001
 20
7.9991576733
 30
0.0
 10
10.0197257728
 20
8.0023025765
 30
0.0
 10
10.0037675044
 20
8.0062411056
 30
0.0
 10
9.9840917006
 20
8.0126145389
 30
0.0
 10
9.965037641
 20
8.0208328534
 30
0.0
 10
9.950236358
 20
8.0284765109
 30
0.0
 10
9.9357337965
 20
8.0368383359
 30
0.0
 10
9.9183053266
 20
8.0485609457
 30
0.0
 10
9.9020010657
 20
8.061848079
 30
0.0
 10
9.8897091712
 20
8.0733491199
 30
0.0
 10
9.8779500261
 20
8.0854046049
 30
0.0
 10
9.8670301528
 20
8.0982482537
 30
0.0
 10
9.8570385235
 20
8.1117818852
 30
0.0
 10
9.8500267523
 20
8.1222484525
 30
0.0
 10
9.8435141683
 20
8.133007543
 30
0.0
 10
9.8375162887
 20
8.1440327286
 30
0.0
 10
9.8320465187
 20
8.1552960644
 30
0.0
 10
9.8271192012
 20
8.1667701007
 30
0.0
 10
9.8227455476
 20
8.1784264518
 30
0.0
 10
9.8176749039
 20
8.1941383814
 30
0.0
 10
9.8137345713
 20
8.2101344744
 30
0.0
 10
9.8109652225
 20
8.2262860279
 30
0.0
 10
9.8089928152
 20
8.2424162847
 30
0.0
 10
9.8083916446
 20
8.2545843571
 30
0.0
 10
9.8083914973
 20
8.2626700684
 30
0.0
  0
SPLINE
  5
297
100
AcDbEntity
  8
0
100
AcDbSpline
 62
7
  6
CONTINUOUS
 70
0
 71
3
 72
56
 73
52
 74
0
 42
0.0000001
 43
0.0000001
 44
0.0000000001
 40
0.0
 40
0.0
 40
0.0
 40
0.0
 40
0.0310723444
 40
0.0465152282
 40
0.0618873079
 40
0.0924244521
 40
0.1227285817
 40
0.1378086463
 40
0.1528438045
 40
0.1678401149
 40
0.1828038444
 40
0.2126503405
 40
0.227557511
 40
0.2424602055
 40
0.2573657799
 40
0.272281562
 40
0.2872148089
 40
0.3021724291
 40
0.3171611937
 40
0.3321875071
 40
0.3472571476
 40
0.362375664
 40
0.3927682619
 40
0.4234071812
 40
0.4388308394
 40
0.454323239
 40
0.4855077933
 40
0.5169699546
 40
0.532806559
 40
0.5487076994
 40
0.5806824153
 40
0.6128739824
 40
0.6290441709
 40
0.6452543843
 40
0.6777639093
 40
0.7103643307
 40
0.7266873141
 40
0.7430142241
 40
0.7756456098
 40
0.7919458916
 40
0.8082247496
 40
0.8244760379
 40
0.8406940714
 40
0.8568734332
 40
0.8730088968
 40
0.8890954876
 40
0.905128265
 40
0.9370074719
 40
0.9528594107
 40
0.9686481654
 40
1.0
 40
1.0
 40
1.0
 40
1.0
 10
9.8083914952
 20
8.2626699677
 30
0.0
 10
9.8083916298
 20
8.2706835978
 30
0.0
 10
9.8089797455
 20
8.2826913372
 30
0.0
 10
9.8109492207
 20
8.2985351188
 30
0.0
 10
9.8136880182
 20
8.3141252691
 30
0.0
 10
9.8185493422
 20
8.3332070658
 30
0.0
 10
9.8253104622
 20
8.3516224735
 30
0.0
 10
9.8318022162
 20
8.3657945951
 30
0.0
 10
9.8371936124
 20
8.3761104545
 30
0.0
 10
9.8431004332
 20
8.3861054821
 30
0.0
 10
9.8516355298
 20
8.3989593863
 30
0.0
 10
9.8611602081
 20
8.4111057172
 30
0.0
 10
9.8715860323
 20
8.4224274626
 30
0.0
 10
9.8798392595
 20
8.4304902249
 30
0.0
 10
9.8885076043
 20
8.4381076014
 30
0.0
 10
9.8975722566
 20
8.4452617374
 30
0.0
 10
9.9070124158
 20
8.4519356969
 30
0.0
 10
9.9168059132
 20
8.4581147701
 30
0.0
 10
9.9269310143
 20
8.463783336
 30
0.0
 10
9.937364348
 20
8.4689276852
 30
0.0
 10
9.9480818403
 20
8.4735363368
 30
0.0
 10
9.9627409585
 20
8.4789584999
 30
0.0
 10
9.981667556
 20
8.4843374592
 30
0.0
 10
10.001119483
 20
8.4877760586
 30
0.0
 10
10.0169212482
 20
8.4893594412
 30
0.0
 10
10.0329230059
 20
8.4901594348
 30
0.0
 10
10.0531039413
 20
8.4896663278
 30
0.0
 10
10.0732274309
 20
8.4871958457
 30
0.0
 10
10.0892260583
 20
8.4840509425
 30
0.0
 10
10.1051843268
 20
8.4801124134
 30
0.0
 10
10.1248601306
 20
8.4737389801
 30
0.0
 10
10.1439141901
 20
8.4655206656
 30
0.0
 10
10.158715473
 20
8.4578770082
 30
0.0
 10
10.1732180344
 20
8.4495151832
 30
0.0
 10
10.1906465044
 20
8.4377925735
 30
0.0
 10
10.2069507653
 20
8.4245054402
 30
0.0
 10
10.2192426598
 20
8.4130043993
 30
0.0
 10
10.2310018049
 20
8.4009489143
 30
0.0
 10
10.2419216783
 20
8.3881052655
 30
0.0
 10
10.2519133076
 20
8.374571634
 30
0.0
 10
10.2589250788
 20
8.3641050666
 30
0.0
 10
10.2654376628
 20
8.3533459761
 30
0.0
 10
10.2714355425
 20
8.3423207905
 30
0.0
 10
10.2769053125
 20
8.3310574547
 30
0.0
 10
10.2818326301
 20
8.3195834183
 30
0.0
 10
10.2862062837
 20
8.3079270672
 30
0.0
 10
10.2912769274
 20
8.2922151376
 30
0.0
 10
10.2952172599
 20
8.2762190445
 30
0.0
 10
10.2979866088
 20
8.260067491
 30
0.0
 10
10.2999590161
 20
8.2439372342
 30
0.0
 10
10.3005601866
 20
8.2317691618
 30
0.0
 10
10.300560334
 20
8.2236834506
 30
0.0
  0
SPLINE
  5
298
100
AcDbEntity
  8
0
100
AcDbSpline
 62
7
  6
CONTINUOUS
 70
0
 71
3
 72
56
 73
52
 74
0
 42
0.0000001
 43
0.0000001
 44
0.0000000001
 40
0.0
 40
0.0
 40
0.0
 40
0.0
 40
0.031072346
 40
0.0465152317
 40
0.0618873124
 40
0.0924244558
 40
0.1227285839
 40
0.1378086476
 40
0.152843805
 40
0.1678401144
 40
0.1828038429
 40
0.2126503375
 40
0.2275575076
 40
0.2424602021
 40
0.2573657768
 40
0.2722815596
 40
0.2872148075
 40
0.3021724288
 40
0.3171611944
 40
0.3321875086
 40
0.3472571497
 40
0.3623756664
 40
0.3927682644
 40
0.4234071833
 40
0.4388308412
 40
0.4543232404
 40
0.485507794
 40
0.5169699549
 40
0.5328065592
 40
0.5487076996
 40
0.5806824155
 40
0.6128739827
 40
0.6290441713
 40
0.6452543848
 40
0.6777639099
 40
0.7103643313
 40
0.7266873147
 40
0.7430142246
 40
0.7756456102
 40
0.791945892
 40
0.80822475
 40
0.8244760382
 40
0.8406940716
 40
0.8568734333
 40
0.8730088969
 40
0.8890954876
 40
0.905128265
 40
0.9370074718
 40
0.9528594107
 40
0.9686481654
 40
1.0
 40
1.0
 40
1.0
 40
1.0
 10
11.2964299395
 20
7.248581316
 30
0.0
 10
11.2964298048
 20
7.2405676855
 30
0.0
 10
11.2958416887
 20
7.2285599453
 30
0.0
 10
11.2938722136
 20
7.2127161624
 30
0.0
 10
11.291133416
 20
7.1971260116
 30
0.0
 10
11.2862720917
 20
7.1780442154
 30
0.0
 10
11.2795109718
 20
7.1596288085
 30
0.0
 10
11.273019218
 20
7.1454566877
 30
0.0
 10
11.2676278222
 20
7.1351408289
 30
0.0
 10
11.2617210018
 20
7.125145802
 30
0.0
 10
11.2531859056
 20
7.1122918984
 30
0.0
 10
11.243661228
 20
7.100145568
 30
0.0
 10
11.2332354041
 20
7.0888238229
 30
0.0
 10
11.2249821771
 20
7.0807610606
 30
0.0
 10
11.2163138322
 20
7.0731436837
 30
0.0
 10
11.2072491795
 20
7.0659895474
 30
0.0
 10
11.1978090198
 20
7.0593155874
 30
0.0
 10
11.1880155217
 20
7.0531365137
 30
0.0
 10
11.17789042
 20
7.0474679474
 30
0.0
 10
11.1674570857
 20
7.042323598
 30
0.0
 10
11.156739593
 20
7.0377149463
 30
0.0
 10
11.1420804746
 20
7.0322927832
 30
0.0
 10
11.1231538769
 20
7.0269138241
 30
0.0
 10
11.1037019501
 20
7.0234752248
 30
0.0
 10
11.0879001852
 20
7.0218918424
 30
0.0
 10
11.0718984278
 20
7.0210918488
 30
0.0
 10
11.0517174928
 20
7.0215849559
 30
0.0
 10
11.0315940035
 20
7.024055438
 30
0.0
 10
11.0155953763
 20
7.0272003412
 30
0.0
 10
10.9996371078
 20
7.0311388703
 30
0.0
 10
10.979961304
 20
7.0375123036
 30
0.0
 10
10.9609072444
 20
7.0457306181
 30
0.0
 10
10.9461059614
 20
7.0533742755
 30
0.0
 10
10.9316034
 20
7.0617361006
 30
0.0
 10
10.91417493
 20
7.0734587104
 30
0.0
 10
10.8978706691
 20
7.0867458437
 30
0.0
 10
10.8855787746
 20
7.0982468846
 30
0.0
 10
10.8738196295
 20
7.1103023696
 30
0.0
 10
10.8628997562
 20
7.1231460184
 30
0.0
 10
10.8529081269
 20
7.1366796499
 30
0.0
 10
10.8458963557
 20
7.1471462172
 30
0.0
 10
10.8393837717
 20
7.1579053077
 30
0.0
 10
10.8333858921
 20
7.1689304933
 30
0.0
 10
10.8279161221
 20
7.1801938291
 30
0.0
 10
10.8229888046
 20
7.1916678654
 30
0.0
 10
10.818615151
 20
7.2033242165
 30
0.0
 10
10.8135445073
 20
7.2190361461
 30
0.0
 10
10.8096041747
 20
7.2350322391
 30
0.0
 10
10.8068348259
 20
7.2511837926
 30
0.0
 10
10.8048624186
 20
7.2673140494
 30
0.0
 10
10.804261248
 20
7.2794821218
 30
0.0
 10
10.8042611007
 20
7.2875678331
 30
0.0
  0
SPLINE
  5
299
100
AcDbEntity
  8
0
100
AcDbSpline
 62
7
  6
CONTINUOUS
 70
0
 71
3
 72
56
 73
52
 74
0
 42
0.0000001
 43
0.0000001
 44
0.0000000001
 40
0.0
 40
0.0
 40
0.0
 40
0.0
 40
0.0310723444
 40
0.0465152282
 40
0.0618873079
 40
0.0924244521
 40
0.1227285817
 40
0.1378086463
 40
0.1528438045
 40
0.1678401149
 40
0.1828038444
 40
0.2126503405
 40
0.227557511
 40
0.2424602055
 40
0.2573657799
 40
0.272281562
 40
0.2872148089
 40
0.3021724291
 40
0.3171611937
 40
0.3321875071
 40
0.3472571476
 40
0.362375664
 40
0.3927682619
 40
0.4234071812
 40
0.4388308394
 40
0.454323239
 40
0.4855077933
 40
0.5169699546
 40
0.532806559
 40
0.5487076994
 40
0.5806824153
 40
0.6128739824
 40
0.6290441709
 40
0.6452543843
 40
0.6777639093
 40
0.7103643307
 40
0.7266873141
 40
0.7430142241
 40
0.7756456098
 40
0.7919458916
 40
0.8082247496
 40
0.8244760379
 40
0.8406940714
 40
0.8568734332
 40
0.8730088968
 40
0.8890954876
 40
0.905128265
 40
0.9370074719
 40
0.9528594107
 40
0.9686481654
 40
1.0
 40
1.0
 40
1.0
 40
1.0
 10
10.8042610986
 20
7.2875677324
 30
0.0
 10
10.8042612332
 20
7.2955813625
 30
0.0
 10
10.8048493489
 20
7.3075891018
 30
0.0
 10
10.8068188242
 20
7.3234328835
 30
0.0
 10
10.8095576216
 20
7.3390230338
 30
0.0
 10
10.8144189456
 20
7.3581048305
 30
0.0
 10
10.8211800656
 20
7.3765202382
 30
0.0
 10
10.8276718197
 20
7.3906923598
 30
0.0
 10
10.8330632158
 20
7.4010082192
 30
0.0
 10
10.8389700366
 20
7.4110032468
 30
0.0
 10
10.8475051332
 20
7.423857151
 30
0.0
 10
10.8570298115
 20
7.4360034819
 30
0.0
 10
10.8674556357
 20
7.4473252273
 30
0.0
 10
10.8757088629
 20
7.4553879896
 30
0.0
 10
10.8843772078
 20
7.4630053661
 30
0.0
 10
10.89344186
 20
7.4701595021
 30
0.0
 10
10.9028820192
 20
7.4768334616
 30
0.0
 10
10.9126755166
 20
7.4830125348
 30
0.0
 10
10.9228006177
 20
7.4886811007
 30
0.0
 10
10.9332339514
 20
7.4938254499
 30
0.0
 10
10.9439514437
 20
7.4984341015
 30
0.0
 10
10.9586105619
 20
7.5038562645
 30
0.0
 10
10.9775371594
 20
7.5092352239
 30
0.0
 10
10.9969890864
 20
7.5126738233
 30
0.0
 10
11.0127908516
 20
7.5142572059
 30
0.0
 10
11.0287926093
 20
7.5150571995
 30
0.0
 10
11.0489735447
 20
7.5145640925
 30
0.0
 10
11.0690970343
 20
7.5120936104
 30
0.0
 10
11.0850956617
 20
7.5089487072
 30
0.0
 10
11.1010539302
 20
7.505010178
 30
0.0
 10
11.120729734
 20
7.4986367448
 30
0.0
 10
11.1397837935
 20
7.4904184303
 30
0.0
 10
11.1545850764
 20
7.4827747729
 30
0.0
 10
11.1690876378
 20
7.4744129479
 30
0.0
 10
11.1865161078
 20
7.4626903382
 30
0.0
 10
11.2028203687
 20
7.4494032049
 30
0.0
 10
11.2151122632
 20
7.437902164
 30
0.0
 10
11.2268714083
 20
7.425846679
 30
0.0
 10
11.2377912817
 20
7.4130030302
 30
0.0
 10
11.247782911
 20
7.3994693987
 30
0.0
 10
11.2547946822
 20
7.3890028313
 30
0.0
 10
11.2613072663
 20
7.3782437408
 30
0.0
 10
11.2673051459
 20
7.3672185552
 30
0.0
 10
11.2727749159
 20
7.3559552194
 30
0.0
 10
11.2777022335
 20
7.344481183
 30
0.0
 10
11.2820758871
 20
7.3328248319
 30
0.0
 10
11.2871465308
 20
7.3171129023
 30
0.0
 10
11.2910868634
 20
7.3011168092
 30
0.0
 10
11.2938562122
 20
7.2849652557
 30
0.0
 10
11.2958286195
 20
7.2688349989
 30
0.0
 10
11.29642979
 20
7.2566669265
 30
0.0
 10
11.2964299374
 20
7.2485812153
 30
0.0
  0
SPLINE
  5
29A
100
AcDbEntity
  8
0
100
AcDbSpline
 62
7
  6
CONTINUOUS
 70
0
 71
3
 72
56
 73
52
 74
0
 42
0.0000001
 43
0.0000001
 44
0.0000000001
 40
0.0
 40
0.0
 40
0.0
 40
0.0
 40
0.031072346
 40
0.0465152317
 40
0.0618873124
 40
0.0924244558
 40
0.1227285839
 40
0.1378086476
 40
0.152843805
 40
0.1678401144
 40
0.1828038429
 40
0.2126503375
 40
0.2275575076
 40
0.2424602021
 40
0.2573657768
 40
0.2722815596
 40
0.2872148075
 40
0.3021724288
 40
0.3171611944
 40
0.3321875086
 40
0.3472571497
 40
0.3623756664
 40
0.3927682644
 40
0.4234071833
 40
0.4388308412
 40
0.4543232404
 40
0.485507794
 40
0.5169699549
 40
0.5328065592
 40
0.5487076996
 40
0.5806824155
 40
0.6128739827
 40
0.6290441713
 40
0.6452543848
 40
0.6777639099
 40
0.7103643313
 40
0.7266873147
 40
0.7430142246
 40
0.7756456102
 40
0.791945892
 40
0.80822475
 40
0.8244760382
 40
0.8406940716
 40
0.8568734333
 40
0.8730088969
 40
0.8890954876
 40
0.905128265
 40
0.9370074718
 40
0.9528594107
 40
0.9686481654
 40
1.0
 40
1.0
 40
1.0
 40
1.0
 10
10.8743202934
 20
7.7907612659
 30
0.0
 10
10.8743201587
 20
7.7827476354
 30
0.0
 10
10.8737320426
 20
7.7707398951
 30
0.0
 10
10.8717625675
 20
7.7548961123
 30
0.0
 10
10.8690237699
 20
7.7393059615
 30
0.0
 10
10.8641624456
 20
7.7202241652
 30
0.0
 10
10.8574013257
 20
7.7018087584
 30
0.0
 10
10.8509095719
 20
7.6876366376
 30
0.0
 10
10.8455181761
 20
7.6773207788
 30
0.0
 10
10.8396113557
 20
7.6673257518
 30
0.0
 10
10.8310762595
 20
7.6544718483
 30
0.0
 10
10.8215515819
 20
7.6423255179
 30
0.0
 10
10.811125758
 20
7.6310037728
 30
0.0
 10
10.802872531
 20
7.6229410104
 30
0.0
 10
10.7942041861
 20
7.6153236336
 30
0.0
 10
10.7851395334
 20
7.6081694973
 30
0.0
 10
10.7756993737
 20
7.6014955373
 30
0.0
 10
10.7659058756
 20
7.5953164636
 30
0.0
 10
10.7557807739
 20
7.5896478973
 30
0.0
 10
10.7453474396
 20
7.5845035479
 30
0.0
 10
10.7346299469
 20
7.5798948962
 30
0.0
 10
10.7199708285
 20
7.5744727331
 30
0.0
 10
10.7010442308
 20
7.569093774
 30
0.0
 10
10.681592304
 20
7.5656551747
 30
0.0
 10
10.6657905391
 20
7.5640717923
 30
0.0
 10
10.6497887817
 20
7.5632717986
 30
0.0
 10
10.6296078467
 20
7.5637649058
 30
0.0
 10
10.6094843574
 20
7.5662353879
 30
0.0
 10
10.5934857301
 20
7.5693802911
 30
0.0
 10
10.5775274617
 20
7.5733188202
 30
0.0
 10
10.5578516579
 20
7.5796922535
 30
0.0
 10
10.5387975983
 20
7.587910568
 30
0.0
 10
10.5239963153
 20
7.5955542254
 30
0.0
 10
10.5094937539
 20
7.6039160505
 30
0.0
 10
10.4920652839
 20
7.6156386603
 30
0.0
 10
10.475761023
 20
7.6289257936
 30
0.0
 10
10.4634691285
 20
7.6404268345
 30
0.0
 10
10.4517099834
 20
7.6524823195
 30
0.0
 10
10.4407901101
 20
7.6653259683
 30
0.0
 10
10.4307984808
 20
7.6788595998
 30
0.0
 10
10.4237867096
 20
7.6893261671
 30
0.0
 10
10.4172741256
 20
7.7000852576
 30
0.0
 10
10.411276246
 20
7.7111104432
 30
0.0
 10
10.405806476
 20
7.722373779
 30
0.0
 10
10.4008791585
 20
7.7338478153
 30
0.0
 10
10.3965055049
 20
7.7455041663
 30
0.0
 10
10.3914348612
 20
7.761216096
 30
0.0
 10
10.3874945286
 20
7.777212189
 30
0.0
 10
10.3847251798
 20
7.7933637425
 30
0.0
 10
10.3827527725
 20
7.8094939993
 30
0.0
 10
10.3821516019
 20
7.8216620717
 30
0.0
 10
10.3821514546
 20
7.8297477829
 30
0.0
  0
SPLINE
  5
29B
100
AcDbEntity
  8
0
100
AcDbSpline
 62
7
  6
CONTINUOUS
 70
0
 71
3
 72
56
 73
52
 74
0
 42
0.0000001
 43
0.0000001
 44
0.0000000001
 40
0.0
 40
0.0
 40
0.0
 40
0.0
 40
0.0310723444
 40
0.0465152282
 40
0.0618873079
 40
0.0924244521
 40
0.1227285817
 40
0.1378086463
 40
0.1528438045
 40
0.1678401149
 40
0.1828038444
 40
0.2126503405
 40
0.227557511
 40
0.2424602055
 40
0.2573657799
 40
0.272281562
 40
0.2872148089
 40
0.3021724291
 40
0.3171611937
 40
0.3321875071
 40
0.3472571476
 40
0.362375664
 40
0.3927682619
 40
0.4234071812
 40
0.4388308394
 40
0.454323239
 40
0.4855077933
 40
0.5169699546
 40
0.532806559
 40
0.5487076994
 40
0.5806824153
 40
0.6128739824
 40
0.6290441709
 40
0.6452543843
 40
0.6777639093
 40
0.7103643307
 40
0.7266873141
 40
0.7430142241
 40
0.7756456098
 40
0.7919458916
 40
0.8082247496
 40
0.8244760379
 40
0.8406940714
 40
0.8568734332
 40
0.8730088968
 40
0.8890954876
 40
0.905128265
 40
0.9370074719
 40
0.9528594107
 40
0.9686481654
 40
1.0
 40
1.0
 40
1.0
 40
1.0
 10
10.3821514525
 20
7.8297476823
 30
0.0
 10
10.3821515871
 20
7.8377613124
 30
0.0
 10
10.3827397028
 20
7.8497690517
 30
0.0
 10
10.3847091781
 20
7.8656128334
 30
0.0
 10
10.3874479755
 20
7.8812029837
 30
0.0
 10
10.3923092995
 20
7.9002847804
 30
0.0
 10
10.3990704195
 20
7.9187001881
 30
0.0
 10
10.4055621736
 20
7.9328723097
 30
0.0
 10
10.4109535697
 20
7.9431881691
 30
0.0
 10
10.4168603905
 20
7.9531831967
 30
0.0
 10
10.4253954871
 20
7.9660371009
 30
0.0
 10
10.4349201654
 20
7.9781834318
 30
0.0
 10
10.4453459896
 20
7.9895051772
 30
0.0
 10
10.4535992168
 20
7.9975679395
 30
0.0
 10
10.4622675617
 20
8.005185316
 30
0.0
 10
10.4713322139
 20
8.012339452
 30
0.0
 10
10.4807723731
 20
8.0190134115
 30
0.0
 10
10.4905658705
 20
8.0251924847
 30
0.0
 10
10.5006909716
 20
8.0308610505
 30
0.0
 10
10.5111243053
 20
8.0360053998
 30
0.0
 10
10.5218417976
 20
8.0406140514
 30
0.0
 10
10.5365009158
 20
8.0460362144
 30
0.0
 10
10.5554275133
 20
8.0514151738
 30
0.0
 10
10.5748794403
 20
8.0548537732
 30
0.0
 10
10.5906812055
 20
8.0564371558
 30
0.0
 10
10.6066829632
 20
8.0572371494
 30
0.0
 10
10.6268638986
 20
8.0567440424
 30
0.0
 10
10.6469873882
 20
8.0542735603
 30
0.0
 10
10.6629860156
 20
8.051128657
 30
0.0
 10
10.6789442841
 20
8.0471901279
 30
0.0
 10
10.6986200879
 20
8.0408166946
 30
0.0
 10
10.7176741474
 20
8.0325983802
 30
0.0
 10
10.7324754303
 20
8.0249547228
 30
0.0
 10
10.7469779917
 20
8.0165928978
 30
0.0
 10
10.7644064617
 20
8.0048702881
 30
0.0
 10
10.7807107226
 20
7.9915831548
 30
0.0
 10
10.7930026171
 20
7.9800821139
 30
0.0
 10
10.8047617622
 20
7.9680266289
 30
0.0
 10
10.8156816356
 20
7.9551829801
 30
0.0
 10
10.8256732649
 20
7.9416493486
 30
0.0
 10
10.8326850361
 20
7.9311827812
 30
0.0
 10
10.8391976202
 20
7.9204236907
 30
0.0
 10
10.8451954998
 20
7.9093985051
 30
0.0
 10
10.8506652698
 20
7.8981351693
 30
0.0
 10
10.8555925874
 20
7.8866611329
 30
0.0
 10
10.859966241
 20
7.8750047818
 30
0.0
 10
10.8650368847
 20
7.8592928521
 30
0.0
 10
10.8689772173
 20
7.8432967591
 30
0.0
 10
10.8717465661
 20
7.8271452056
 30
0.0
 10
10.8737189734
 20
7.8110149488
 30
0.0
 10
10.8743201439
 20
7.7988468764
 30
0.0
 10
10.8743202913
 20
7.7907611652
 30
0.0
  0
SPLINE
  5
29C
100
AcDbEntity
  8
0
100
AcDbSpline
 62
7
  6
CONTINUOUS
 70
0
 71
3
 72
56
 73
52
 74
0
 42
0.0000001
 43
0.0000001
 44
0.0000000001
 40
0.0
 40
0.0
 40
0.0
 40
0.0
 40
0.031072346
 40
0.0465152317
 40
0.0618873124
 40
0.0924244558
 40
0.1227285839
 40
0.1378086476
 40
0.152843805
 40
0.1678401144
 40
0.1828038429
 40
0.2126503375
 40
0.2275575076
 40
0.2424602021
 40
0.2573657768
 40
0.2722815596
 40
0.2872148075
 40
0.3021724288
 40
0.3171611944
 40
0.3321875086
 40
0.3472571497
 40
0.3623756664
 40
0.3927682644
 40
0.4234071833
 40
0.4388308412
 40
0.4543232404
 40
0.485507794
 40
0.5169699549
 40
0.5328065592
 40
0.5487076996
 40
0.5806824155
 40
0.6128739827
 40
0.6290441713
 40
0.6452543848
 40
0.6777639099
 40
0.7103643313
 40
0.7266873147
 40
0.7430142246
 40
0.7756456102
 40
0.791945892
 40
0.80822475
 40
0.8244760382
 40
0.8406940716
 40
0.8568734333
 40
0.8730088969
 40
0.8890954876
 40
0.905128265
 40
0.9370074718
 40
0.9528594107
 40
0.9686481654
 40
1.0
 40
1.0
 40
1.0
 40
1.0
 10
10.8743202934
 20
8.5760590893
 30
0.0
 10
10.8743201587
 20
8.5680454588
 30
0.0
 10
10.8737320426
 20
8.5560377186
 30
0.0
 10
10.8717625675
 20
8.5401939358
 30
0.0
 10
10.8690237699
 20
8.524603785
 30
0.0
 10
10.8641624456
 20
8.5055219887
 30
0.0
 10
10.8574013257
 20
8.4871065819
 30
0.0
 10
10.8509095719
 20
8.472934461
 30
0.0
 10
10.8455181761
 20
8.4626186022
 30
0.0
 10
10.8396113557
 20
8.4526235753
 30
0.0
 10
10.8310762595
 20
8.4397696718
 30
0.0
 10
10.8215515819
 20
8.4276233413
 30
0.0
 10
10.811125758
 20
8.4163015962
 30
0.0
 10
10.802872531
 20
8.4082388339
 30
0.0
 10
10.7942041861
 20
8.400621457
 30
0.0
 10
10.7851395334
 20
8.3934673207
 30
0.0
 10
10.7756993737
 20
8.3867933607
 30
0.0
 10
10.7659058756
 20
8.380614287
 30
0.0
 10
10.7557807739
 20
8.3749457208
 30
0.0
 10
10.7453474396
 20
8.3698013714
 30
0.0
 10
10.7346299469
 20
8.3651927196
 30
0.0
 10
10.7199708285
 20
8.3597705565
 30
0.0
 10
10.7010442308
 20
8.3543915974
 30
0.0
 10
10.681592304
 20
8.3509529981
 30
0.0
 10
10.6657905391
 20
8.3493696157
 30
0.0
 10
10.6497887817
 20
8.3485696221
 30
0.0
 10
10.6296078467
 20
8.3490627292
 30
0.0
 10
10.6094843574
 20
8.3515332113
 30
0.0
 10
10.5934857301
 20
8.3546781145
 30
0.0
 10
10.5775274617
 20
8.3586166436
 30
0.0
 10
10.5578516579
 20
8.364990077
 30
0.0
 10
10.5387975983
 20
8.3732083915
 30
0.0
 10
10.5239963153
 20
8.3808520489
 30
0.0
 10
10.5094937539
 20
8.3892138739
 30
0.0
 10
10.4920652839
 20
8.4009364837
 30
0.0
 10
10.475761023
 20
8.414223617
 30
0.0
 10
10.4634691285
 20
8.4257246579
 30
0.0
 10
10.4517099834
 20
8.4377801429
 30
0.0
 10
10.4407901101
 20
8.4506237918
 30
0.0
 10
10.4307984808
 20
8.4641574232
 30
0.0
 10
10.4237867096
 20
8.4746239906
 30
0.0
 10
10.4172741256
 20
8.485383081
 30
0.0
 10
10.411276246
 20
8.4964082666
 30
0.0
 10
10.405806476
 20
8.5076716024
 30
0.0
 10
10.4008791585
 20
8.5191456387
 30
0.0
 10
10.3965055049
 20
8.5308019898
 30
0.0
 10
10.3914348612
 20
8.5465139194
 30
0.0
 10
10.3874945286
 20
8.5625100124
 30
0.0
 10
10.3847251798
 20
8.5786615659
 30
0.0
 10
10.3827527725
 20
8.5947918228
 30
0.0
 10
10.3821516019
 20
8.6069598951
 30
0.0
 10
10.3821514546
 20
8.6150456064
 30
0.0
  0
SPLINE
  5
29D
100
AcDbEntity
  8
0
100
AcDbSpline
 62
7
  6
CONTINUOUS
 70
0
 71
3
 72
56
 73
52
 74
0
 42
0.0000001
 43
0.0000001
 44
0.0000000001
 40
0.0
 40
0.0
 40
0.0
 40
0.0
 40
0.0310723444
 40
0.0465152282
 40
0.0618873079
 40
0.0924244521
 40
0.1227285817
 40
0.1378086463
 40
0.1528438045
 40
0.1678401149
 40
0.1828038444
 40
0.2126503405
 40
0.227557511
 40
0.2424602055
 40
0.2573657799
 40
0.272281562
 40
0.2872148089
 40
0.3021724291
 40
0.3171611937
 40
0.3321875071
 40
0.3472571476
 40
0.362375664
 40
0.3927682619
 40
0.4234071812
 40
0.4388308394
 40
0.454323239
 40
0.4855077933
 40
0.5169699546
 40
0.532806559
 40
0.5487076994
 40
0.5806824153
 40
0.6128739824
 40
0.6290441709
 40
0.6452543843
 40
0.6777639093
 40
0.7103643307
 40
0.7266873141
 40
0.7430142241
 40
0.7756456098
 40
0.7919458916
 40
0.8082247496
 40
0.8244760379
 40
0.8406940714
 40
0.8568734332
 40
0.8730088968
 40
0.8890954876
 40
0.905128265
 40
0.9370074719
 40
0.9528594107
 40
0.9686481654
 40
1.0
 40
1.0
 40
1.0
 40
1.0
 10
10.3821514525
 20
8.6150455058
 30
0.0
 10
10.3821515871
 20
8.6230591358
 30
0.0
 10
10.3827397028
 20
8.6350668752
 30
0.0
 10
10.3847091781
 20
8.6509106568
 30
0.0
 10
10.3874479755
 20
8.6665008071
 30
0.0
 10
10.3923092995
 20
8.6855826038
 30
0.0
 10
10.3990704195
 20
8.7039980115
 30
0.0
 10
10.4055621736
 20
8.7181701331
 30
0.0
 10
10.4109535697
 20
8.7284859925
 30
0.0
 10
10.4168603905
 20
8.7384810201
 30
0.0
 10
10.4253954871
 20
8.7513349244
 30
0.0
 10
10.4349201654
 20
8.7634812552
 30
0.0
 10
10.4453459896
 20
8.7748030007
 30
0.0
 10
10.4535992168
 20
8.7828657629
 30
0.0
 10
10.4622675617
 20
8.7904831394
 30
0.0
 10
10.4713322139
 20
8.7976372755
 30
0.0
 10
10.4807723731
 20
8.804311235
 30
0.0
 10
10.4905658705
 20
8.8104903082
 30
0.0
 10
10.5006909716
 20
8.816158874
 30
0.0
 10
10.5111243053
 20
8.8213032232
 30
0.0
 10
10.5218417976
 20
8.8259118749
 30
0.0
 10
10.5365009158
 20
8.8313340379
 30
0.0
 10
10.5554275133
 20
8.8367129973
 30
0.0
 10
10.5748794403
 20
8.8401515966
 30
0.0
 10
10.5906812055
 20
8.8417349792
 30
0.0
 10
10.6066829632
 20
8.8425349729
 30
0.0
 10
10.6268638986
 20
8.8420418658
 30
0.0
 10
10.6469873882
 20
8.8395713837
 30
0.0
 10
10.6629860156
 20
8.8364264805
 30
0.0
 10
10.6789442841
 20
8.8324879514
 30
0.0
 10
10.6986200879
 20
8.8261145181
 30
0.0
 10
10.7176741474
 20
8.8178962036
 30
0.0
 10
10.7324754303
 20
8.8102525462
 30
0.0
 10
10.7469779917
 20
8.8018907212
 30
0.0
 10
10.7644064617
 20
8.7901681115
 30
0.0
 10
10.7807107226
 20
8.7768809782
 30
0.0
 10
10.7930026171
 20
8.7653799374
 30
0.0
 10
10.8047617622
 20
8.7533244524
 30
0.0
 10
10.8156816356
 20
8.7404808035
 30
0.0
 10
10.8256732649
 20
8.726947172
 30
0.0
 10
10.8326850361
 20
8.7164806047
 30
0.0
 10
10.8391976202
 20
8.7057215142
 30
0.0
 10
10.8451954998
 20
8.6946963285
 30
0.0
 10
10.8506652698
 20
8.6834329927
 30
0.0
 10
10.8555925874
 20
8.6719589563
 30
0.0
 10
10.859966241
 20
8.6603026052
 30
0.0
 10
10.8650368847
 20
8.6445906756
 30
0.0
 10
10.8689772173
 20
8.6285945825
 30
0.0
 10
10.8717465661
 20
8.612443029
 30
0.0
 10
10.8737189734
 20
8.5963127722
 30
0.0
 10
10.8743201439
 20
8.5841446998
 30
0.0
 10
10.8743202913
 20
8.5760589886
 30
0.0
  0
SPLINE
  5
29E
100
AcDbEntity
  8
0
100
AcDbSpline
 62
7
  6
CONTINUOUS
 70
0
 71
3
 72
56
 73
52
 74
0
 42
0.0000001
 43
0.0000001
 44
0.0000000001
 40
0.0
 40
0.0
 40
0.0
 40
0.0
 40
0.031072346
 40
0.0465152317
 40
0.0618873124
 40
0.0924244558
 40
0.1227285839
 40
0.1378086476
 40
0.152843805
 40
0.1678401144
 40
0.1828038429
 40
0.2126503375
 40
0.2275575076
 40
0.2424602021
 40
0.2573657768
 40
0.2722815596
 40
0.2872148075
 40
0.3021724288
 40
0.3171611944
 40
0.3321875086
 40
0.3472571497
 40
0.3623756664
 40
0.3927682644
 40
0.4234071833
 40
0.4388308412
 40
0.4543232404
 40
0.485507794
 40
0.5169699549
 40
0.5328065592
 40
0.5487076996
 40
0.5806824155
 40
0.6128739827
 40
0.6290441713
 40
0.6452543848
 40
0.6777639099
 40
0.7103643313
 40
0.7266873147
 40
0.7430142246
 40
0.7756456102
 40
0.791945892
 40
0.80822475
 40
0.8244760382
 40
0.8406940716
 40
0.8568734333
 40
0.8730088969
 40
0.8890954876
 40
0.905128265
 40
0.9370074718
 40
0.9528594107
 40
0.9686481654
 40
1.0
 40
1.0
 40
1.0
 40
1.0
 10
11.2964299395
 20
9.0596923476
 30
0.0
 10
11.2964298048
 20
9.0516787171
 30
0.0
 10
11.2958416887
 20
9.0396709769
 30
0.0
 10
11.2938722136
 20
9.023827194
 30
0.0
 10
11.291133416
 20
9.0082370433
 30
0.0
 10
11.2862720917
 20
8.989155247
 30
0.0
 10
11.2795109718
 20
8.9707398401
 30
0.0
 10
11.273019218
 20
8.9565677193
 30
0.0
 10
11.2676278222
 20
8.9462518605
 30
0.0
 10
11.2617210018
 20
8.9362568336
 30
0.0
 10
11.2531859056
 20
8.92340293
 30
0.0
 10
11.243661228
 20
8.9112565996
 30
0.0
 10
11.2332354041
 20
8.8999348545
 30
0.0
 10
11.2249821771
 20
8.8918720922
 30
0.0
 10
11.2163138322
 20
8.8842547153
 30
0.0
 10
11.2072491795
 20
8.877100579
 30
0.0
 10
11.1978090198
 20
8.870426619
 30
0.0
 10
11.1880155217
 20
8.8642475453
 30
0.0
 10
11.17789042
 20
8.858578979
 30
0.0
 10
11.1674570857
 20
8.8534346296
 30
0.0
 10
11.156739593
 20
8.8488259779
 30
0.0
 10
11.1420804746
 20
8.8434038148
 30
0.0
 10
11.1231538769
 20
8.8380248557
 30
0.0
 10
11.1037019501
 20
8.8345862564
 30
0.0
 10
11.0879001852
 20
8.833002874
 30
0.0
 10
11.0718984278
 20
8.8322028804
 30
0.0
 10
11.0517174928
 20
8.8326959875
 30
0.0
 10
11.0315940035
 20
8.8351664696
 30
0.0
 10
11.0155953763
 20
8.8383113728
 30
0.0
 10
10.9996371078
 20
8.8422499019
 30
0.0
 10
10.979961304
 20
8.8486233352
 30
0.0
 10
10.9609072444
 20
8.8568416497
 30
0.0
 10
10.9461059614
 20
8.8644853071
 30
0.0
 10
10.9316034
 20
8.8728471322
 30
0.0
 10
10.91417493
 20
8.884569742
 30
0.0
 10
10.8978706691
 20
8.8978568753
 30
0.0
 10
10.8855787746
 20
8.9093579162
 30
0.0
 10
10.8738196295
 20
8.9214134012
 30
0.0
 10
10.8628997562
 20
8.93425705
 30
0.0
 10
10.8529081269
 20
8.9477906815
 30
0.0
 10
10.8458963557
 20
8.9582572488
 30
0.0
 10
10.8393837717
 20
8.9690163393
 30
0.0
 10
10.8333858921
 20
8.9800415249
 30
0.0
 10
10.8279161221
 20
8.9913048607
 30
0.0
 10
10.8229888046
 20
9.002778897
 30
0.0
 10
10.818615151
 20
9.0144352481
 30
0.0
 10
10.8135445073
 20
9.0301471777
 30
0.0
 10
10.8096041747
 20
9.0461432707
 30
0.0
 10
10.8068348259
 20
9.0622948242
 30
0.0
 10
10.8048624186
 20
9.078425081
 30
0.0
 10
10.804261248
 20
9.0905931534
 30
0.0
 10
10.8042611007
 20
9.0986788647
 30
0.0
  0
SPLINE
  5
29F
100
AcDbEntity
  8
0
100
AcDbSpline
 62
7
  6
CONTINUOUS
 70
0
 71
3
 72
56
 73
52
 74
0
 42
0.0000001
 43
0.0000001
 44
0.0000000001
 40
0.0
 40
0.0
 40
0.0
 40
0.0
 40
0.0310723444
 40
0.0465152282
 40
0.0618873079
 40
0.0924244521
 40
0.1227285817
 40
0.1378086463
 40
0.1528438045
 40
0.1678401149
 40
0.1828038444
 40
0.2126503405
 40
0.227557511
 40
0.2424602055
 40
0.2573657799
 40
0.272281562
 40
0.2872148089
 40
0.3021724291
 40
0.3171611937
 40
0.3321875071
 40
0.3472571476
 40
0.362375664
 40
0.3927682619
 40
0.4234071812
 40
0.4388308394
 40
0.454323239
 40
0.4855077933
 40
0.5169699546
 40
0.532806559
 40
0.5487076994
 40
0.5806824153
 40
0.6128739824
 40
0.6290441709
 40
0.6452543843
 40
0.6777639093
 40
0.7103643307
 40
0.7266873141
 40
0.7430142241
 40
0.7756456098
 40
0.7919458916
 40
0.8082247496
 40
0.8244760379
 40
0.8406940714
 40
0.8568734332
 40
0.8730088968
 40
0.8890954876
 40
0.905128265
 40
0.9370074719
 40
0.9528594107
 40
0.9686481654
 40
1.0
 40
1.0
 40
1.0
 40
1.0
 10
10.8042610986
 20
9.098678764
 30
0.0
 10
10.8042612332
 20
9.1066923941
 30
0.0
 10
10.8048493489
 20
9.1187001335
 30
0.0
 10
10.8068188242
 20
9.1345439151
 30
0.0
 10
10.8095576216
 20
9.1501340654
 30
0.0
 10
10.8144189456
 20
9.1692158621
 30
0.0
 10
10.8211800656
 20
9.1876312698
 30
0.0
 10
10.8276718197
 20
9.2018033914
 30
0.0
 10
10.8330632158
 20
9.2121192508
 30
0.0
 10
10.8389700366
 20
9.2221142784
 30
0.0
 10
10.8475051332
 20
9.2349681826
 30
0.0
 10
10.8570298115
 20
9.2471145135
 30
0.0
 10
10.8674556357
 20
9.2584362589
 30
0.0
 10
10.8757088629
 20
9.2664990212
 30
0.0
 10
10.8843772078
 20
9.2741163977
 30
0.0
 10
10.89344186
 20
9.2812705337
 30
0.0
 10
10.9028820192
 20
9.2879444932
 30
0.0
 10
10.9126755166
 20
9.2941235664
 30
0.0
 10
10.9228006177
 20
9.2997921323
 30
0.0
 10
10.9332339514
 20
9.3049364815
 30
0.0
 10
10.9439514437
 20
9.3095451331
 30
0.0
 10
10.9586105619
 20
9.3149672961
 30
0.0
 10
10.9775371594
 20
9.3203462555
 30
0.0
 10
10.9969890864
 20
9.3237848549
 30
0.0
 10
11.0127908516
 20
9.3253682375
 30
0.0
 10
11.0287926093
 20
9.3261682311
 30
0.0
 10
11.0489735447
 20
9.3256751241
 30
0.0
 10
11.0690970343
 20
9.323204642
 30
0.0
 10
11.0850956617
 20
9.3200597388
 30
0.0
 10
11.1010539302
 20
9.3161212096
 30
0.0
 10
11.120729734
 20
9.3097477764
 30
0.0
 10
11.1397837935
 20
9.3015294619
 30
0.0
 10
11.1545850764
 20
9.2938858045
 30
0.0
 10
11.1690876378
 20
9.2855239795
 30
0.0
 10
11.1865161078
 20
9.2738013698
 30
0.0
 10
11.2028203687
 20
9.2605142365
 30
0.0
 10
11.2151122632
 20
9.2490131956
 30
0.0
 10
11.2268714083
 20
9.2369577106
 30
0.0
 10
11.2377912817
 20
9.2241140618
 30
0.0
 10
11.247782911
 20
9.2105804303
 30
0.0
 10
11.2547946822
 20
9.2001138629
 30
0.0
 10
11.2613072663
 20
9.1893547724
 30
0.0
 10
11.2673051459
 20
9.1783295868
 30
0.0
 10
11.2727749159
 20
9.167066251
 30
0.0
 10
11.2777022335
 20
9.1555922146
 30
0.0
 10
11.2820758871
 20
9.1439358635
 30
0.0
 10
11.2871465308
 20
9.1282239339
 30
0.0
 10
11.2910868634
 20
9.1122278408
 30
0.0
 10
11.2938562122
 20
9.0960762873
 30
0.0
 10
11.2958286195
 20
9.0799460305
 30
0.0
 10
11.29642979
 20
9.0677779581
 30
0.0
 10
11.2964299374
 20
9.0596922469
 30
0.0
  0
SPLINE
  5
2A0
100
AcDbEntity
  8
0
100
AcDbSpline
 62
7
  6
CONTINUOUS
 70
0
 71
3
 72
15
 73
11
 74
0
 42
0.0000001
 43
0.0000001
 44
0.0000000001
 40
0.0
 40
0.0
 40
0.0
 40
0.0
 40
0.1273482789
 40
0.2538606571
 40
0.3795878378
 40
0.5046051156
 40
0.629017439
 40
0.7529533823
 40
0.8765605864
 40
1.0
 40
1.0
 40
1.0
 40
1.0
 10
9.9450835965
 20
9.2728251805
 30
0.0
 10
9.9450835965
 20
9.2684980968
 30
0.0
 10
9.9446704462
 20
9.25986635
 30
0.0
 10
9.9428020416
 20
9.247084748
 30
0.0
 10
9.9397039024
 20
9.2346242933
 30
0.0
 10
9.9354040145
 20
9.2226015209
 30
0.0
 10
9.9299418142
 20
9.2111273044
 30
0.0
 10
9.92336713
 20
9.2003075828
 30
0.0
 10
9.9157417606
 20
9.190243738
 30
0.0
 10
9.9100002383
 20
9.1840961586
 30
0.0
 10
9.9069835025
 20
9.1811821956
 30
0.0
  0
SPLINE
  5
2A1
100
AcDbEntity
  8
0
100
AcDbSpline
 62
7
  6
CONTINUOUS
 70
0
 71
3
 72
15
 73
11
 74
0
 42
0.0000001
 43
0.0000001
 44
0.0000000001
 40
0.0
 40
0.0
 40
0.0
 40
0.0
 40
0.1273482789
 40
0.2538606571
 40
0.3795878378
 40
0.5046051156
 40
0.629017439
 40
0.7529533823
 40
0.8765605864
 40
1.0
 40
1.0
 40
1.0
 40
1.0
 10
11.6953411885
 20
9.1514444042
 30
0.0
 10
11.6953411885
 20
9.1471173205
 30
0.0
 10
11.6949280382
 20
9.1384855737
 30
0.0
 10
11.6930596336
 20
9.1257039717
 30
0.0
 10
11.6899614944
 20
9.113243517
 30
0.0
 10
11.6856616065
 20
9.1012207447
 30
0.0
 10
11.6801994063
 20
9.0897465281
 30
0.0
 10
11.673624722
 20
9.0789268065
 30
0.0
 10
11.6659993526
 20
9.0688629617
 30
0.0
 10
11.6602578303
 20
9.0627153823
 30
0.0
 10
11.6572410945
 20
9.0598014193
 30
0.0
  0
SPLINE
  5
2A2
100
AcDbEntity
  8
0
100
AcDbSpline
 62
7
  6
CONTINUOUS
 70
0
 71
3
 72
15
 73
11
 74
0
 42
0.0000001
 43
0.0000001
 44
0.0000000001
 40
0.0
 40
0.0
 40
0.0
 40
0.0
 40
0.1273482789
 40
0.2538606571
 40
0.3795878378
 40
0.5046051156
 40
0.629017439
 40
0.7529533823
 40
0.8765605864
 40
1.0
 40
1.0
 40
1.0
 40
1.0
 10
11.6953411885
 20
7.0988519017
 30
0.0
 10
11.6953411885
 20
7.094524818
 30
0.0
 10
11.6949280382
 20
7.0858930712
 30
0.0
 10
11.6930596336
 20
7.0731114692
 30
0.0
 10
11.6899614944
 20
7.0606510145
 30
0.0
 10
11.6856616065
 20
7.0486282422
 30
0.0
 10
11.6801994063
 20
7.0371540256
 30
0.0
 10
11.673624722
 20
7.0263343041
 30
0.0
 10
11.6659993526
 20
7.0162704592
 30
0.0
 10
11.6602578303
 20
7.0101228799
 30
0.0
 10
11.6572410945
 20
7.0072089168
 30
0.0
  0
SPLINE
  5
2A3
100
AcDbEntity
  8
0
100
AcDbSpline
 62
7
  6
CONTINUOUS
 70
0
 71
3
 72
15
 73
11
 74
0
 42
0.0000001
 43
0.0000001
 44
0.0000000001
 40
0.0
 40
0.0
 40
0.0
 40
0.0
 40
0.1273482789
 40
0.2538606571
 40
0.3795878378
 40
0.5046051156
 40
0.629017439
 40
0.7529533823
 40
0.8765605864
 40
1.0
 40
1.0
 40
1.0
 40
1.0
 10
9.9450835965
 20
7.220232678
 30
0.0
 10
9.9450835965
 20
7.2159055943
 30
0.0
 10
9.9446704462
 20
7.2072738475
 30
0.0
 10
9.9428020416
 20
7.1944922455
 30
0.0
 10
9.9397039024
 20
7.1820317908
 30
0.0
 10
9.9354040145
 20
7.1700090185
 30
0.0
 10
9.9299418142
 20
7.1585348019
 30
0.0
 10
9.92336713
 20
7.1477150803
 30
0.0
 10
9.9157417606
 20
7.1376512355
 30
0.0
 10
9.9100002383
 20
7.1315036561
 30
0.0
 10
9.9069835025
 20
7.1285896931
 30
0.0
  0
SPLINE
  5
2A4
100
AcDbEntity
  8
0
100
AcDbSpline
 62
7
  6
CONTINUOUS
 70
0
 71
3
 72
21
 73
17
 74
0
 42
0.0000001
 43
0.0000001
 44
0.0000000001
 40
0.0
 40
0.0
 40
0.0
 40
0.0
 40
0.1273175203
 40
0.253800042
 40
0.3167619342
 40
0.3795354977
 40
0.4421315044
 40
0.5045621463
 40
0.5668413435
 40
0.6289845249
 40
0.6910084556
 40
0.7529310973
 40
0.8147714461
 40
0.8765493353
 40
0.9382852242
 40
1.0
 40
1.0
 40
1.0
 40
1.0
 10
11.2709419463
 20
7.2621543231
 30
0.0
 10
11.2709419463
 20
7.2554095761
 30
0.0
 10
11.27029811
 20
7.2419556362
 30
0.0
 10
11.2678665859
 20
7.225323661
 30
0.0
 10
11.2649603446
 20
7.2122773274
 30
0.0
 10
11.2623100038
 20
7.2026543577
 30
0.0
 10
11.25919209
 20
7.1932023583
 30
0.0
 10
11.2556137002
 20
7.183942885
 30
0.0
 10
11.2515831046
 20
7.1748973528
 30
0.0
 10
11.2471095899
 20
7.166086599
 30
0.0
 10
11.2422034348
 20
7.1575309651
 30
0.0
 10
11.2368759269
 20
7.1492501913
 30
0.0
 10
11.2311393901
 20
7.1412633809
 30
0.0
 10
11.2250069778
 20
7.1335888963
 30
0.0
 10
11.2184930456
 20
7.1262447053
 30
0.0
 10
11.2139052348
 20
7.1215792034
 30
0.0
 10
11.2115537118
 20
7.1193078059
 30
0.0
  0
SPLINE
  5
2A5
100
AcDbEntity
  8
0
100
AcDbSpline
 62
7
  6
CONTINUOUS
 70
0
 71
3
 72
14
 73
10
 74
0
 42
0.0000001
 43
0.0000001
 44
0.0000000001
 40
0.0
 40
0.0
 40
0.0
 40
0.0
 40
0.1176837414
 40
0.2361060328
 40
0.3559907187
 40
0.4780328327
 40
0.6028879435
 40
0.7311634118
 40
1.0
 40
1.0
 40
1.0
 40
1.0
 10
11.3868338958
 20
10.2378498401
 30
0.0
 10
11.3868338908
 20
10.2368575837
 30
0.0
 10
11.3867517459
 20
10.2348658835
 30
0.0
 10
11.3863826729
 20
10.2318839435
 30
0.0
 10
11.3857678577
 20
10.228905193
 30
0.0
 10
11.3849079344
 20
10.2259315286
 30
0.0
 10
11.3838034345
 20
10.2229641754
 30
0.0
 10
11.3819778727
 20
10.2189566541
 30
0.0
 10
11.3802801652
 20
10.2160569325
 30
0.0
 10
11.3790259633
 20
10.2141688252
 30
0.0
  0
SPLINE
  5
2A6
100
AcDbEntity
  8
0
100
AcDbSpline
 62
7
  6
CONTINUOUS
 70
0
 71
3
 72
71
 73
67
 74
0
 42
0.0000001
 43
0.0000001
 44
0.0000000001
 40
0.0
 40
0.0
 40
0.0
 40
0.0
 40
0.0038007449
 40
0.007741722
 40
0.0118259757
 40
0.0160561849
 40
0.020434631
 40
0.0249631196
 40
0.0296429653
 40
0.0344751581
 40
0.044598289
 40
0.0553350205
 40
0.0666831226
 40
0.0786369825
 40
0.0911881013
 40
0.1043254721
 40
0.1180358761
 40
0.1323041226
 40
0.1471132678
 40
0.1624447856
 40
0.1782787083
 40
0.1945937385
 40
0.2113673717
 40
0.2285760009
 40
0.2461950061
 40
0.2641988295
 40
0.282561053
 40
0.3012544843
 40
0.3202512271
 40
0.3395227466
 40
0.3787725344
 40
0.4187659765
 40
0.4592585107
 40
0.5000015771
 40
0.5407446289
 40
0.5812371194
 40
0.6212304889
 40
0.6604801759
 40
0.6797516347
 40
0.69874831
 40
0.7174416673
 40
0.7358038104
 40
0.753807547
 40
0.7714264595
 40
0.7886349901
 40
0.805408519
 40
0.8217234396
 40
0.8375572475
 40
0.8528886458
 40
0.8676976669
 40
0.8819657852
 40
0.8956760573
 40
0.9088132929
 40
0.9213642735
 40
0.9333179932
 40
0.9446659528
 40
0.9554025413
 40
0.9655255326
 40
0.9703576486
 40
0.9750374139
 40
0.9795658368
 40
0.9839442466
 40
0.9881744095
 40
0.9922585337
 40
0.9961993038
 40
1.0
 40
1.0
 40
1.0
 40
1.0
 10
11.3969531948
 20
10.2281936253
 30
0.0
 10
11.3958985873
 20
10.2272122358
 30
0.0
 10
11.3937103971
 20
10.2252559329
 30
0.0
 10
11.390261519
 20
10.2223915076
 30
0.0
 10
11.3865888628
 20
10.2195459536
 30
0.0
 10
11.3826940662
 20
10.2167204652
 30
0.0
 10
11.378578658
 20
10.2139161252
 30
0.0
 10
11.3742442844
 20
10.2111340601
 30
0.0
 10
11.3696927148
 20
10.2083753224
 30
0.0
 10
11.3632363902
 20
10.2046722035
 30
0.0
 10
11.3546244995
 20
10.200119232
 30
0.0
 10
11.3436101827
 20
10.1948483201
 30
0.0
 10
11.3317787837
 20
10.1896969978
 30
0.0
 10
11.3191496365
 20
10.1846737126
 30
0.0
 10
11.305743175
 20
10.1797866938
 30
0.0
 10
11.2915812546
 20
10.1750440047
 30
0.0
 10
11.2766870079
 20
10.1704534834
 30
0.0
 10
11.2610848287
 20
10.1660227201
 30
0.0
 10
11.2448003056
 20
10.1617590534
 30
0.0
 10
11.2278601725
 20
10.1576695495
 30
0.0
 10
11.2102922647
 20
10.1537609927
 30
0.0
 10
11.1921254745
 20
10.1500398567
 30
0.0
 10
11.1733896966
 20
10.146512306
 30
0.0
 10
11.1541157697
 20
10.1431841864
 30
0.0
 10
11.1343354256
 20
10.1400610165
 30
0.0
 10
11.1140812421
 20
10.1371479721
 30
0.0
 10
11.0933865845
 20
10.1344498707
 30
0.0
 10
11.0722855573
 20
10.1319711871
 30
0.0
 10
11.0508128978
 20
10.129716001
 30
0.0
 10
11.021556825
 20
10.126995679
 30
0.0
 10
10.9843188309
 20
10.1241890987
 30
0.0
 10
10.9389957497
 20
10.1217816362
 30
0.0
 10
10.8930656732
 20
10.1203307503
 30
0.0
 10
10.846831201
 20
10.1198460642
 30
0.0
 10
10.8005967465
 20
10.1203308633
 30
0.0
 10
10.7546667231
 20
10.1217818615
 30
0.0
 10
10.7093437302
 20
10.1241894347
 30
0.0
 10
10.6721058319
 20
10.1269961065
 30
0.0
 10
10.642849853
 20
10.1297165006
 30
0.0
 10
10.621377276
 20
10.1319717393
 30
0.0
 10
10.6002763396
 20
10.1344504746
 30
0.0
 10
10.5795817809
 20
10.1371486266
 30
0.0
 10
10.559327704
 20
10.1400617206
 30
0.0
 10
10.5395474742
 20
10.143184939
 30
0.0
 10
10.5202736691
 20
10.1465131057
 30
0.0
 10
10.5015380204
 20
10.1500407023
 30
0.0
 10
10.4833713665
 20
10.1537618827
 30
0.0
 10
10.4658036017
 20
10.1576704824
 30
0.0
 10
10.4488636183
 20
10.1617600278
 30
0.0
 10
10.4325792513
 20
10.1660237343
 30
0.0
 10
10.4169772343
 20
10.1704545357
 30
0.0
 10
10.4020831556
 20
10.1750450934
 30
0.0
 10
10.3879214087
 20
10.1797878171
 30
0.0
 10
10.3745151259
 20
10.1846748685
 30
0.0
 10
10.3618861626
 20
10.1896981847
 30
0.0
 10
10.3500549521
 20
10.1948495358
 30
0.0
 10
10.3390408265
 20
10.2001204743
 30
0.0
 10
10.3304291025
 20
10.2046734699
 30
0.0
 10
10.3239729147
 20
10.2083766012
 30
0.0
 10
10.3194214477
 20
10.2111353452
 30
0.0
 10
10.3150871669
 20
10.2139174271
 30
0.0
 10
10.3109718469
 20
10.216721797
 30
0.0
 10
10.3070771588
 20
10.2195472979
 30
0.0
 10
10.3034046552
 20
10.2223928116
 30
0.0
 10
10.2999559257
 20
10.2252571875
 30
0.0
 10
10.2977678442
 20
10.227213467
 30
0.0
 10
10.2967132691
 20
10.2281948642
 30
0.0
  0
SPLINE
  5
2A7
100
AcDbEntity
  8
0
100
AcDbSpline
 62
7
  6
CONTINUOUS
 70
0
 71
3
 72
14
 73
10
 74
0
 42
0.0000001
 43
0.0000001
 44
0.0000000001
 40
0.0
 40
0.0
 40
0.0
 40
0.0
 40
0.1177684613
 40
0.2362665455
 40
0.3562091457
 40
0.4782836828
 40
0.6031380102
 40
0.7313736406
 40
1.0
 40
1.0
 40
1.0
 40
1.0
 10
10.3068339038
 20
10.2378498401
 30
0.0
 10
10.3068338989
 20
10.2368640775
 30
0.0
 10
10.3069149618
 20
10.2348855019
 30
0.0
 10
10.3072792367
 20
10.2319231441
 30
0.0
 10
10.3078859605
 20
10.2289638891
 30
0.0
 10
10.3087346743
 20
10.226009632
 30
0.0
 10
10.3098247426
 20
10.2230615456
 30
0.0
 10
10.3116261906
 20
10.2190805206
 30
0.0
 10
10.3133020363
 20
10.2161988131
 30
0.0
 10
10.3145403895
 20
10.2143220573
 30
0.0
  0
SPLINE
  5
2A8
100
AcDbEntity
  8
0
100
AcDbSpline
 62
7
  6
CONTINUOUS
 70
0
 71
3
 72
41
 73
37
 74
0
 42
0.0000001
 43
0.0000001
 44
0.0000000001
 40
0.0
 40
0.0
 40
0.0
 40
0.0
 40
0.029942123
 40
0.0449237706
 40
0.0599145177
 40
0.0899291716
 40
0.1200145961
 40
0.1350933574
 40
0.1501974726
 40
0.1804849654
 40
0.2108989488
 40
0.2414525624
 40
0.2721557217
 40
0.3030149378
 40
0.3340332219
 40
0.3652100719
 40
0.3965415365
 40
0.4280203507
 40
0.4596361361
 40
0.4913756582
 40
0.5232231336
 40
0.5551605782
 40
0.5871681905
 40
0.6192247616
 40
0.6513081064
 40
0.6833955071
 40
0.7154641657
 40
0.7474916563
 40
0.7794563734
 40
0.811337967
 40
0.843117763
 40
0.8747791516
 40
0.9063079641
 40
0.9376927517
 40
0.9689251728
 40
1.0
 40
1.0
 40
1.0
 40
1.0
 10
9.7117585173
 20
9.3832915651
 30
0.0
 10
9.714089364
 20
9.3855430055
 30
0.0
 10
9.7177229945
 20
9.3887837784
 30
0.0
 10
9.7228118381
 20
9.3928048631
 30
0.0
 10
9.7280627483
 20
9.3966258437
 30
0.0
 10
9.7349143198
 20
9.4010135899
 30
0.0
 10
9.742099038
 20
9.404851594
 30
0.0
 10
9.7480245624
 20
9.4075819848
 30
0.0
 10
9.7540725092
 20
9.41008695
 30
0.0
 10
9.7618317438
 20
9.4127805334
 30
0.0
 10
9.7713938394
 20
9.4152908951
 30
0.0
 10
9.7811645883
 20
9.4170693216
 30
0.0
 10
9.791089844
 20
9.4181059968
 30
0.0
 10
9.8011150838
 20
9.4183953893
 30
0.0
 10
9.8111851458
 20
9.417936026
 30
0.0
 10
9.8212446818
 20
9.4167305604
 30
0.0
 10
9.8312384188
 20
9.4147857345
 30
0.0
 10
9.8411114693
 20
9.4121123418
 30
0.0
 10
9.8508096261
 20
9.4087251635
 30
0.0
 10
9.8602796567
 20
9.404642885
 30
0.0
 10
9.8694695908
 20
9.3998879919
 30
0.0
 10
9.8783290018
 20
9.3944866461
 30
0.0
 10
9.8868092796
 20
9.388468542
 30
0.0
 10
9.8948638943
 20
9.3818667448
 30
0.0
 10
9.902448648
 20
9.3747175099
 30
0.0
 10
9.909521915
 20
9.3670600853
 30
0.0
 10
9.9160448677
 20
9.3589364991
 30
0.0
 10
9.9219816876
 20
9.35039133
 30
0.0
 10
9.9272997601
 20
9.3414714668
 30
0.0
 10
9.9319698528
 20
9.3322258516
 30
0.0
 10
9.9359662736
 20
9.3227052214
 30
0.0
 10
9.939267015
 20
9.3129618092
 30
0.0
 10
9.9418538679
 20
9.3030491499
 30
0.0
 10
9.9437125367
 20
9.293021464
 30
0.0
 10
9.9448326985
 20
9.2829345623
 30
0.0
 10
9.9450835965
 20
9.2761884264
 30
0.0
 10
9.9450835965
 20
9.2728251805
 30
0.0
  0
SPLINE
  5
2A9
100
AcDbEntity
  8
0
100
AcDbSpline
 62
7
  6
CONTINUOUS
 70
0
 71
3
 72
41
 73
37
 74
0
 42
0.0000001
 43
0.0000001
 44
0.0000000001
 40
0.0
 40
0.0
 40
0.0
 40
0.0
 40
0.029942123
 40
0.0449237706
 40
0.0599145177
 40
0.0899291716
 40
0.1200145961
 40
0.1350933574
 40
0.1501974726
 40
0.1804849654
 40
0.2108989488
 40
0.2414525624
 40
0.2721557217
 40
0.3030149378
 40
0.3340332219
 40
0.3652100719
 40
0.3965415365
 40
0.4280203507
 40
0.4596361361
 40
0.4913756582
 40
0.5232231336
 40
0.5551605782
 40
0.5871681905
 40
0.6192247616
 40
0.6513081064
 40
0.6833955071
 40
0.7154641657
 40
0.7474916563
 40
0.7794563734
 40
0.811337967
 40
0.843117763
 40
0.8747791516
 40
0.9063079641
 40
0.9376927517
 40
0.9689251728
 40
1.0
 40
1.0
 40
1.0
 40
1.0
 10
11.4620161094
 20
9.2619107888
 30
0.0
 10
11.464346956
 20
9.2641622292
 30
0.0
 10
11.4679805865
 20
9.2674030022
 30
0.0
 10
11.4730694301
 20
9.2714240868
 30
0.0
 10
11.4783203403
 20
9.2752450675
 30
0.0
 10
11.4851719118
 20
9.2796328136
 30
0.0
 10
11.49235663
 20
9.2834708177
 30
0.0
 10
11.4982821544
 20
9.2862012086
 30
0.0
 10
11.5043301012
 20
9.2887061737
 30
0.0
 10
11.5120893358
 20
9.2913997571
 30
0.0
 10
11.5216514314
 20
9.2939101188
 30
0.0
 10
11.5314221803
 20
9.2956885453
 30
0.0
 10
11.541347436
 20
9.2967252205
 30
0.0
 10
11.5513726758
 20
9.2970146131
 30
0.0
 10
11.5614427378
 20
9.2965552497
 30
0.0
 10
11.5715022738
 20
9.2953497841
 30
0.0
 10
11.5814960108
 20
9.2934049582
 30
0.0
 10
11.5913690613
 20
9.2907315655
 30
0.0
 10
11.6010672181
 20
9.2873443872
 30
0.0
 10
11.6105372487
 20
9.2832621087
 30
0.0
 10
11.6197271828
 20
9.2785072157
 30
0.0
 10
11.6285865938
 20
9.2731058698
 30
0.0
 10
11.6370668716
 20
9.2670877657
 30
0.0
 10
11.6451214863
 20
9.2604859686
 30
0.0
 10
11.65270624
 20
9.2533367336
 30
0.0
 10
11.659779507
 20
9.2456793091
 30
0.0
 10
11.6663024597
 20
9.2375557228
 30
0.0
 10
11.6722392796
 20
9.2290105538
 30
0.0
 10
11.6775573521
 20
9.2200906905
 30
0.0
 10
11.6822274448
 20
9.2108450753
 30
0.0
 10
11.6862238657
 20
9.2013244451
 30
0.0
 10
11.689524607
 20
9.1915810329
 30
0.0
 10
11.6921114599
 20
9.1816683736
 30
0.0
 10
11.6939701287
 20
9.1716406877
 30
0.0
 10
11.6950902905
 20
9.161553786
 30
0.0
 10
11.6953411885
 20
9.1548076502
 30
0.0
 10
11.6953411885
 20
9.1514444042
 30
0.0
  0
SPLINE
  5
2AA
100
AcDbEntity
  8
0
100
AcDbSpline
 62
7
  6
CONTINUOUS
 70
0
 71
3
 72
41
 73
37
 74
0
 42
0.0000001
 43
0.0000001
 44
0.0000000001
 40
0.0
 40
0.0
 40
0.0
 40
0.0
 40
0.029942123
 40
0.0449237706
 40
0.0599145177
 40
0.0899291716
 40
0.1200145961
 40
0.1350933574
 40
0.1501974726
 40
0.1804849654
 40
0.2108989488
 40
0.2414525624
 40
0.2721557217
 40
0.3030149378
 40
0.3340332219
 40
0.3652100719
 40
0.3965415365
 40
0.4280203507
 40
0.4596361361
 40
0.4913756582
 40
0.5232231336
 40
0.5551605782
 40
0.5871681905
 40
0.6192247616
 40
0.6513081064
 40
0.6833955071
 40
0.7154641657
 40
0.7474916563
 40
0.7794563734
 40
0.811337967
 40
0.843117763
 40
0.8747791516
 40
0.9063079641
 40
0.9376927517
 40
0.9689251728
 40
1.0
 40
1.0
 40
1.0
 40
1.0
 10
11.4620161094
 20
7.2093182863
 30
0.0
 10
11.464346956
 20
7.2115697268
 30
0.0
 10
11.4679805865
 20
7.2148104997
 30
0.0
 10
11.4730694301
 20
7.2188315843
 30
0.0
 10
11.4783203403
 20
7.222652565
 30
0.0
 10
11.4851719118
 20
7.2270403111
 30
0.0
 10
11.49235663
 20
7.2308783152
 30
0.0
 10
11.4982821544
 20
7.2336087061
 30
0.0
 10
11.5043301012
 20
7.2361136712
 30
0.0
 10
11.5120893358
 20
7.2388072546
 30
0.0
 10
11.5216514314
 20
7.2413176163
 30
0.0
 10
11.5314221803
 20
7.2430960428
 30
0.0
 10
11.541347436
 20
7.244132718
 30
0.0
 10
11.5513726758
 20
7.2444221106
 30
0.0
 10
11.5614427378
 20
7.2439627473
 30
0.0
 10
11.5715022738
 20
7.2427572816
 30
0.0
 10
11.5814960108
 20
7.2408124557
 30
0.0
 10
11.5913690613
 20
7.238139063
 30
0.0
 10
11.6010672181
 20
7.2347518847
 30
0.0
 10
11.6105372487
 20
7.2306696063
 30
0.0
 10
11.6197271828
 20
7.2259147132
 30
0.0
 10
11.6285865938
 20
7.2205133673
 30
0.0
 10
11.6370668716
 20
7.2144952633
 30
0.0
 10
11.6451214863
 20
7.2078934661
 30
0.0
 10
11.65270624
 20
7.2007442311
 30
0.0
 10
11.659779507
 20
7.1930868066
 30
0.0
 10
11.6663024597
 20
7.1849632203
 30
0.0
 10
11.6722392796
 20
7.1764180513
 30
0.0
 10
11.6775573521
 20
7.167498188
 30
0.0
 10
11.6822274448
 20
7.1582525729
 30
0.0
 10
11.6862238657
 20
7.1487319426
 30
0.0
 10
11.689524607
 20
7.1389885305
 30
0.0
 10
11.6921114599
 20
7.1290758711
 30
0.0
 10
11.6939701287
 20
7.1190481852
 30
0.0
 10
11.6950902905
 20
7.1089612836
 30
0.0
 10
11.6953411885
 20
7.1022151477
 30
0.0
 10
11.6953411885
 20
7.0988519017
 30
0.0
  0
SPLINE
  5
2AB
100
AcDbEntity
  8
0
100
AcDbSpline
 62
7
  6
CONTINUOUS
 70
0
 71
3
 72
41
 73
37
 74
0
 42
0.0000001
 43
0.0000001
 44
0.0000000001
 40
0.0
 40
0.0
 40
0.0
 40
0.0
 40
0.029942123
 40
0.0449237706
 40
0.0599145177
 40
0.0899291716
 40
0.1200145961
 40
0.1350933574
 40
0.1501974726
 40
0.1804849654
 40
0.2108989488
 40
0.2414525624
 40
0.2721557217
 40
0.3030149378
 40
0.3340332219
 40
0.3652100719
 40
0.3965415365
 40
0.4280203507
 40
0.4596361361
 40
0.4913756582
 40
0.5232231336
 40
0.5551605782
 40
0.5871681905
 40
0.6192247616
 40
0.6513081064
 40
0.6833955071
 40
0.7154641657
 40
0.7474916563
 40
0.7794563734
 40
0.811337967
 40
0.843117763
 40
0.8747791516
 40
0.9063079641
 40
0.9376927517
 40
0.9689251728
 40
1.0
 40
1.0
 40
1.0
 40
1.0
 10
9.7117585173
 20
7.3306990626
 30
0.0
 10
9.714089364
 20
7.332950503
 30
0.0
 10
9.7177229945
 20
7.336191276
 30
0.0
 10
9.7228118381
 20
7.3402123606
 30
0.0
 10
9.7280627483
 20
7.3440333412
 30
0.0
 10
9.7349143198
 20
7.3484210874
 30
0.0
 10
9.742099038
 20
7.3522590915
 30
0.0
 10
9.7480245624
 20
7.3549894824
 30
0.0
 10
9.7540725092
 20
7.3574944475
 30
0.0
 10
9.7618317438
 20
7.3601880309
 30
0.0
 10
9.7713938394
 20
7.3626983926
 30
0.0
 10
9.7811645883
 20
7.3644768191
 30
0.0
 10
9.791089844
 20
7.3655134943
 30
0.0
 10
9.8011150838
 20
7.3658028868
 30
0.0
 10
9.8111851458
 20
7.3653435235
 30
0.0
 10
9.8212446818
 20
7.3641380579
 30
0.0
 10
9.8312384188
 20
7.362193232
 30
0.0
 10
9.8411114693
 20
7.3595198393
 30
0.0
 10
9.8508096261
 20
7.356132661
 30
0.0
 10
9.8602796567
 20
7.3520503825
 30
0.0
 10
9.8694695908
 20
7.3472954894
 30
0.0
 10
9.8783290018
 20
7.3418941436
 30
0.0
 10
9.8868092796
 20
7.3358760395
 30
0.0
 10
9.8948638943
 20
7.3292742424
 30
0.0
 10
9.902448648
 20
7.3221250074
 30
0.0
 10
9.909521915
 20
7.3144675829
 30
0.0
 10
9.9160448677
 20
7.3063439966
 30
0.0
 10
9.9219816876
 20
7.2977988276
 30
0.0
 10
9.9272997601
 20
7.2888789643
 30
0.0
 10
9.9319698528
 20
7.2796333491
 30
0.0
 10
9.9359662736
 20
7.2701127189
 30
0.0
 10
9.939267015
 20
7.2603693067
 30
0.0
 10
9.9418538679
 20
7.2504566474
 30
0.0
 10
9.9437125367
 20
7.2404289615
 30
0.0
 10
9.9448326985
 20
7.2303420598
 30
0.0
 10
9.9450835965
 20
7.223595924
 30
0.0
 10
9.9450835965
 20
7.220232678
 30
0.0
  0
SPLINE
  5
2AC
100
AcDbEntity
  8
0
100
AcDbSpline
 62
7
  6
CONTINUOUS
 70
0
 71
3
 72
41
 73
37
 74
0
 42
0.0000001
 43
0.0000001
 44
0.0000000001
 40
0.0
 40
0.0
 40
0.0
 40
0.0
 40
0.0299421701
 40
0.0599087164
 40
0.0899234211
 40
0.1200088983
 40
0.1501860543
 40
0.1804736026
 40
0.2108876422
 40
0.2414413123
 40
0.2721445279
 40
0.3030038001
 40
0.33402214
 40
0.3651990456
 40
0.3965305656
 40
0.428009435
 40
0.4596252751
 40
0.4913648511
 40
0.523212379
 40
0.5551498748
 40
0.5871575372
 40
0.6192141578
 40
0.6512975514
 40
0.6833850007
 40
0.7154537075
 40
0.7314764095
 40
0.7474860758
 40
0.7794508394
 40
0.8113324795
 40
0.8431123195
 40
0.8747737607
 40
0.9063025939
 40
0.9376875098
 40
0.9533255635
 40
0.9689249841
 40
1.0
 40
1.0
 40
1.0
 40
1.0
 10
10.9072546438
 20
7.4343412283
 30
0.0
 10
10.9108877807
 20
7.4378505702
 30
0.0
 10
10.9184397348
 20
7.4445860372
 30
0.0
 10
10.9305391416
 20
7.4537619205
 30
0.0
 10
10.9433481798
 20
7.4619645649
 30
0.0
 10
10.9567952792
 20
7.4691479542
 30
0.0
 10
10.9708065096
 20
7.4752728414
 30
0.0
 10
10.9853045444
 20
7.4803055568
 30
0.0
 10
11.0002094891
 20
7.484218567
 30
0.0
 10
11.0154392278
 20
7.4869905098
 30
0.0
 10
11.0309099079
 20
7.4886063295
 30
0.0
 10
11.0465363978
 20
7.4890573396
 30
0.0
 10
11.0622327558
 20
7.4883412616
 30
0.0
 10
11.0779127005
 20
7.4864622264
 30
0.0
 10
11.0934900801
 20
7.4834307429
 30
0.0
 10
11.1088793397
 20
7.4792636331
 30
0.0
 10
11.1239959857
 20
7.4739839354
 30
0.0
 10
11.1387570444
 20
7.4676207782
 30
0.0
 10
11.1530815106
 20
7.4602092112
 30
0.0
 10
11.166890783
 20
7.4517900161
 30
0.0
 10
11.1801090991
 20
7.442409471
 30
0.0
 10
11.192663912
 20
7.4321191428
 30
0.0
 10
11.2044864075
 20
7.4209754362
 30
0.0
 10
11.2155114143
 20
7.4090399237
 30
0.0
 10
11.2239875323
 20
7.398483787
 30
0.0
 10
11.2303114751
 20
7.3897094948
 30
0.0
 10
11.2363172732
 20
7.3807355533
 30
0.0
 10
11.2432222123
 20
7.3691541288
 30
0.0
 10
11.2505013674
 20
7.3547430885
 30
0.0
 10
11.2567306746
 20
7.339903087
 30
0.0
 10
11.2618755682
 20
7.3247158313
 30
0.0
 10
11.2659077059
 20
7.3092650736
 30
0.0
 10
11.2683250519
 20
7.29622295
 30
0.0
 10
11.2696811235
 20
7.2857437839
 30
0.0
 10
11.27064891
 20
7.275274638
 30
0.0
 10
11.2709419463
 20
7.2673966883
 30
0.0
 10
11.2709419463
 20
7.2621543231
 30
0.0
  0
SPLINE
  5
2AD
100
AcDbEntity
  8
0
100
AcDbSpline
 62
7
  6
CONTINUOUS
 70
0
 71
3
 72
15
 73
11
 74
0
 42
0.0000001
 43
0.0000001
 44
0.0000000001
 40
0.0
 40
0.0
 40
0.0
 40
0.0
 40
0.1273482789
 40
0.2538606571
 40
0.3795878378
 40
0.5046051156
 40
0.629017439
 40
0.7529533823
 40
0.8765605864
 40
1.0
 40
1.0
 40
1.0
 40
1.0
 10
11.4239160153
 20
7.1176753014
 30
0.0
 10
11.4239160153
 20
7.1220023852
 30
0.0
 10
11.4243291656
 20
7.130634132
 30
0.0
 10
11.4261975702
 20
7.143415734
 30
0.0
 10
11.4292957094
 20
7.1558761887
 30
0.0
 10
11.4335955973
 20
7.167898961
 30
0.0
 10
11.4390577976
 20
7.1793731776
 30
0.0
 10
11.4456324818
 20
7.1901928991
 30
0.0
 10
11.4532578512
 20
7.200256744
 30
0.0
 10
11.4589993735
 20
7.2064043233
 30
0.0
 10
11.4620161094
 20
7.2093182863
 30
0.0
  0
SPLINE
  5
2AE
100
AcDbEntity
  8
0
100
AcDbSpline
 62
7
  6
CONTINUOUS
 70
0
 71
3
 72
15
 73
11
 74
0
 42
0.0000001
 43
0.0000001
 44
0.0000000001
 40
0.0
 40
0.0
 40
0.0
 40
0.0
 40
0.1273482789
 40
0.2538606571
 40
0.3795878378
 40
0.5046051156
 40
0.629017439
 40
0.7529533823
 40
0.8765605864
 40
1.0
 40
1.0
 40
1.0
 40
1.0
 10
9.6736584233
 20
7.2390560777
 30
0.0
 10
9.6736584233
 20
7.2433831614
 30
0.0
 10
9.6740715736
 20
7.2520149082
 30
0.0
 10
9.6759399782
 20
7.2647965102
 30
0.0
 10
9.6790381174
 20
7.2772569649
 30
0.0
 10
9.6833380053
 20
7.2892797373
 30
0.0
 10
9.6888002056
 20
7.3007539538
 30
0.0
 10
9.6953748898
 20
7.3115736754
 30
0.0
 10
9.7030002592
 20
7.3216375203
 30
0.0
 10
9.7087417815
 20
7.3277850996
 30
0.0
 10
9.7117585173
 20
7.3306990626
 30
0.0
  0
SPLINE
  5
2AF
100
AcDbEntity
  8
0
100
AcDbSpline
 62
7
  6
CONTINUOUS
 70
0
 71
3
 72
41
 73
37
 74
0
 42
0.0000001
 43
0.0000001
 44
0.0000000001
 40
0.0
 40
0.0
 40
0.0
 40
0.0
 40
0.029942123
 40
0.0449237706
 40
0.0599145177
 40
0.0899291716
 40
0.1200145961
 40
0.1350933574
 40
0.1501974726
 40
0.1804849654
 40
0.2108989488
 40
0.2414525624
 40
0.2721557217
 40
0.3030149378
 40
0.3340332219
 40
0.3652100719
 40
0.3965415365
 40
0.4280203507
 40
0.4596361361
 40
0.4913756582
 40
0.5232231336
 40
0.5551605782
 40
0.5871681905
 40
0.6192247616
 40
0.6513081064
 40
0.6833955071
 40
0.7154641657
 40
0.7474916563
 40
0.7794563734
 40
0.811337967
 40
0.843117763
 40
0.8747791516
 40
0.9063079641
 40
0.9376927517
 40
0.9689251728
 40
1.0
 40
1.0
 40
1.0
 40
1.0
 10
9.9069835025
 20
9.1811821956
 30
0.0
 10
9.9046526558
 20
9.1789307552
 30
0.0
 10
9.9010190253
 20
9.1756899823
 30
0.0
 10
9.8959301817
 20
9.1716688976
 30
0.0
 10
9.8906792715
 20
9.167847917
 30
0.0
 10
9.8838277
 20
9.1634601708
 30
0.0
 10
9.8766429818
 20
9.1596221667
 30
0.0
 10
9.8707174574
 20
9.1568917759
 30
0.0
 10
9.8646695106
 20
9.1543868107
 30
0.0
 10
9.856910276
 20
9.1516932273
 30
0.0
 10
9.8473481804
 20
9.1491828656
 30
0.0
 10
9.8375774315
 20
9.1474044391
 30
0.0
 10
9.8276521758
 20
9.1463677639
 30
0.0
 10
9.817626936
 20
9.1460783714
 30
0.0
 10
9.807556874
 20
9.1465377347
 30
0.0
 10
9.797497338
 20
9.1477432003
 30
0.0
 10
9.787503601
 20
9.1496880262
 30
0.0
 10
9.7776305505
 20
9.1523614189
 30
0.0
 10
9.7679323937
 20
9.1557485972
 30
0.0
 10
9.7584623631
 20
9.1598308757
 30
0.0
 10
9.749272429
 20
9.1645857688
 30
0.0
 10
9.740413018
 20
9.1699871146
 30
0.0
 10
9.7319327402
 20
9.1760052187
 30
0.0
 10
9.7238781255
 20
9.1826070159
 30
0.0
 10
9.7162933718
 20
9.1897562508
 30
0.0
 10
9.7092201048
 20
9.1974136754
 30
0.0
 10
9.7026971521
 20
9.2055372616
 30
0.0
 10
9.6967603322
 20
9.2140824307
 30
0.0
 10
9.6914422597
 20
9.2230022939
 30
0.0
 10
9.686772167
 20
9.2322479091
 30
0.0
 10
9.6827757462
 20
9.2417685393
 30
0.0
 10
9.6794750048
 20
9.2515119515
 30
0.0
 10
9.6768881519
 20
9.2614246108
 30
0.0
 10
9.6750294831
 20
9.2714522967
 30
0.0
 10
9.6739093213
 20
9.2815391984
 30
0.0
 10
9.6736584233
 20
9.2882853343
 30
0.0
 10
9.6736584233
 20
9.2916485802
 30
0.0
  0
SPLINE
  5
2B0
100
AcDbEntity
  8
0
100
AcDbSpline
 62
7
  6
CONTINUOUS
 70
0
 71
3
 72
41
 73
37
 74
0
 42
0.0000001
 43
0.0000001
 44
0.0000000001
 40
0.0
 40
0.0
 40
0.0
 40
0.0
 40
0.029942123
 40
0.0449237706
 40
0.0599145177
 40
0.0899291716
 40
0.1200145961
 40
0.1350933574
 40
0.1501974726
 40
0.1804849654
 40
0.2108989488
 40
0.2414525624
 40
0.2721557217
 40
0.3030149378
 40
0.3340332219
 40
0.3652100719
 40
0.3965415365
 40
0.4280203507
 40
0.4596361361
 40
0.4913756582
 40
0.5232231336
 40
0.5551605782
 40
0.5871681905
 40
0.6192247616
 40
0.6513081064
 40
0.6833955071
 40
0.7154641657
 40
0.7474916563
 40
0.7794563734
 40
0.811337967
 40
0.843117763
 40
0.8747791516
 40
0.9063079641
 40
0.9376927517
 40
0.9689251728
 40
1.0
 40
1.0
 40
1.0
 40
1.0
 10
11.6572410945
 20
9.0598014193
 30
0.0
 10
11.6549102478
 20
9.0575499789
 30
0.0
 10
11.6512766173
 20
9.054309206
 30
0.0
 10
11.6461877738
 20
9.0502881214
 30
0.0
 10
11.6409368635
 20
9.0464671407
 30
0.0
 10
11.634085292
 20
9.0420793946
 30
0.0
 10
11.6269005738
 20
9.0382413904
 30
0.0
 10
11.6209750494
 20
9.0355109996
 30
0.0
 10
11.6149271026
 20
9.0330060344
 30
0.0
 10
11.607167868
 20
9.030312451
 30
0.0
 10
11.5976057725
 20
9.0278020893
 30
0.0
 10
11.5878350235
 20
9.0260236629
 30
0.0
 10
11.5779097679
 20
9.0249869877
 30
0.0
 10
11.567884528
 20
9.0246975951
 30
0.0
 10
11.5578144661
 20
9.0251569584
 30
0.0
 10
11.54775493
 20
9.026362424
 30
0.0
 10
11.537761193
 20
9.02830725
 30
0.0
 10
11.5278881425
 20
9.0309806426
 30
0.0
 10
11.5181899857
 20
9.0343678209
 30
0.0
 10
11.5087199551
 20
9.0384500994
 30
0.0
 10
11.499530021
 20
9.0432049925
 30
0.0
 10
11.49067061
 20
9.0486063384
 30
0.0
 10
11.4821903322
 20
9.0546244424
 30
0.0
 10
11.4741357175
 20
9.0612262396
 30
0.0
 10
11.4665509638
 20
9.0683754746
 30
0.0
 10
11.4594776968
 20
9.0760328991
 30
0.0
 10
11.4529547441
 20
9.0841564853
 30
0.0
 10
11.4470179243
 20
9.0927016544
 30
0.0
 10
11.4416998517
 20
9.1016215176
 30
0.0
 10
11.437029759
 20
9.1108671328
 30
0.0
 10
11.4330333382
 20
9.1203877631
 30
0.0
 10
11.4297325968
 20
9.1301311752
 30
0.0
 10
11.4271457439
 20
9.1400438346
 30
0.0
 10
11.4252870751
 20
9.1500715204
 30
0.0
 10
11.4241669133
 20
9.1601584221
 30
0.0
 10
11.4239160153
 20
9.166904558
 30
0.0
 10
11.4239160153
 20
9.1702678039
 30
0.0
  0
SPLINE
  5
2B1
100
AcDbEntity
  8
0
100
AcDbSpline
 62
7
  6
CONTINUOUS
 70
0
 71
3
 72
15
 73
11
 74
0
 42
0.0000001
 43
0.0000001
 44
0.0000000001
 40
0.0
 40
0.0
 40
0.0
 40
0.0
 40
0.12723907
 40
0.2537092399
 40
0.3794499745
 40
0.5045196952
 40
0.6290004145
 40
0.7529934661
 40
0.8766165633
 40
1.0
 40
1.0
 40
1.0
 40
1.0
 10
10.866242546
 20
7.3092446973
 30
0.0
 10
10.866242546
 20
7.3154395461
 30
0.0
 10
10.8667858251
 20
7.3277990061
 30
0.0
 10
10.8692422075
 20
7.3461330206
 30
0.0
 10
10.873318813
 20
7.3640697071
 30
0.0
 10
10.8789845743
 20
7.3814677251
 30
0.0
 10
10.8861956773
 20
7.3981919066
 30
0.0
 10
10.8948967043
 20
7.4141122108
 30
0.0
 10
10.905018767
 20
7.4291029298
 30
0.0
 10
10.9126697876
 20
7.438408478
 30
0.0
 10
10.9166997662
 20
7.4428632387
 30
0.0
  0
SPLINE
  5
2B2
100
AcDbEntity
  8
0
100
AcDbSpline
 62
7
  6
CONTINUOUS
 70
0
 71
3
 72
41
 73
37
 74
0
 42
0.0000001
 43
0.0000001
 44
0.0000000001
 40
0.0
 40
0.0
 40
0.0
 40
0.0
 40
0.029942123
 40
0.0449237706
 40
0.0599145177
 40
0.0899291716
 40
0.1200145961
 40
0.1350933574
 40
0.1501974726
 40
0.1804849654
 40
0.2108989488
 40
0.2414525624
 40
0.2721557217
 40
0.3030149378
 40
0.3340332219
 40
0.3652100719
 40
0.3965415365
 40
0.4280203507
 40
0.4596361361
 40
0.4913756582
 40
0.5232231336
 40
0.5551605782
 40
0.5871681905
 40
0.6192247616
 40
0.6513081064
 40
0.6833955071
 40
0.7154641657
 40
0.7474916563
 40
0.7794563734
 40
0.811337967
 40
0.843117763
 40
0.8747791516
 40
0.9063079641
 40
0.9376927517
 40
0.9689251728
 40
1.0
 40
1.0
 40
1.0
 40
1.0
 10
11.6572410945
 20
7.0072089168
 30
0.0
 10
11.6549102478
 20
7.0049574764
 30
0.0
 10
11.6512766173
 20
7.0017167035
 30
0.0
 10
11.6461877738
 20
6.9976956189
 30
0.0
 10
11.6409368635
 20
6.9938746382
 30
0.0
 10
11.634085292
 20
6.9894868921
 30
0.0
 10
11.6269005738
 20
6.9856488879
 30
0.0
 10
11.6209750494
 20
6.9829184971
 30
0.0
 10
11.6149271026
 20
6.9804135319
 30
0.0
 10
11.607167868
 20
6.9777199486
 30
0.0
 10
11.5976057725
 20
6.9752095868
 30
0.0
 10
11.5878350235
 20
6.9734311604
 30
0.0
 10
11.5779097679
 20
6.9723944852
 30
0.0
 10
11.567884528
 20
6.9721050926
 30
0.0
 10
11.5578144661
 20
6.9725644559
 30
0.0
 10
11.54775493
 20
6.9737699215
 30
0.0
 10
11.537761193
 20
6.9757147475
 30
0.0
 10
11.5278881425
 20
6.9783881401
 30
0.0
 10
11.5181899857
 20
6.9817753184
 30
0.0
 10
11.5087199551
 20
6.9858575969
 30
0.0
 10
11.499530021
 20
6.99061249
 30
0.0
 10
11.49067061
 20
6.9960138359
 30
0.0
 10
11.4821903322
 20
7.0020319399
 30
0.0
 10
11.4741357175
 20
7.0086337371
 30
0.0
 10
11.4665509638
 20
7.0157829721
 30
0.0
 10
11.4594776968
 20
7.0234403966
 30
0.0
 10
11.4529547441
 20
7.0315639829
 30
0.0
 10
11.4470179243
 20
7.0401091519
 30
0.0
 10
11.4416998517
 20
7.0490290151
 30
0.0
 10
11.437029759
 20
7.0582746303
 30
0.0
 10
11.4330333382
 20
7.0677952606
 30
0.0
 10
11.4297325968
 20
7.0775386727
 30
0.0
 10
11.4271457439
 20
7.0874513321
 30
0.0
 10
11.4252870751
 20
7.0974790179
 30
0.0
 10
11.4241669133
 20
7.1075659196
 30
0.0
 10
11.4239160153
 20
7.1143120555
 30
0.0
 10
11.4239160153
 20
7.1176753014
 30
0.0
  0
SPLINE
  5
2B3
100
AcDbEntity
  8
0
100
AcDbSpline
 62
7
  6
CONTINUOUS
 70
0
 71
3
 72
44
 73
40
 74
0
 42
0.0000001
 43
0.0000001
 44
0.0000000001
 40
0.0
 40
0.0
 40
0.0
 40
0.0
 40
0.0310362239
 40
0.0466145828
 40
0.0622303945
 40
0.0935682737
 40
0.1250468175
 40
0.1566555721
 40
0.1883814022
 40
0.2202089324
 40
0.2521208174
 40
0.2840981037
 40
0.3161205964
 40
0.3481672475
 40
0.3802165544
 40
0.4122469644
 40
0.4442372804
 40
0.4761670612
 40
0.5080170124
 40
0.5397693616
 40
0.5714082119
 40
0.6029198693
 40
0.6342931353
 40
0.665519561
 40
0.6965936539
 40
0.7275130322
 40
0.75827852
 40
0.7888941786
 40
0.8193672671
 40
0.8345561353
 40
0.8497134871
 40
0.8648410719
 40
0.8799407966
 40
0.9100596085
 40
0.9400935522
 40
0.9550877011
 40
0.9700683207
 40
0.9850381504
 40
1.0
 40
1.0
 40
1.0
 40
1.0
 10
10.866242546
 20
7.3092446973
 30
0.0
 10
10.866242546
 20
7.30414427
 30
0.0
 10
10.8665199031
 20
7.2964800799
 30
0.0
 10
10.8674361866
 20
7.2862928759
 30
0.0
 10
10.8687201082
 20
7.2760950378
 30
0.0
 10
10.8710091157
 20
7.2633987767
 30
0.0
 10
10.8748284772
 20
7.2483458139
 30
0.0
 10
10.8797038653
 20
7.2335336324
 30
0.0
 10
10.8856097839
 20
7.219039674
 30
0.0
 10
10.8925154445
 20
7.2049391255
 30
0.0
 10
10.9003848759
 20
7.1913052802
 30
0.0
 10
10.9091771194
 20
7.1782089597
 30
0.0
 10
10.9188464404
 20
7.1657182053
 30
0.0
 10
10.929342564
 20
7.1538979132
 30
0.0
 10
10.9406109343
 20
7.1428095055
 30
0.0
 10
10.9525929956
 20
7.1325106124
 30
0.0
 10
10.9652264932
 20
7.1230547762
 30
0.0
 10
10.9784457942
 20
7.1144911752
 30
0.0
 10
10.9921822241
 20
7.1068643701
 30
0.0
 10
11.0063644194
 20
7.1002140733
 30
0.0
 10
11.0209186943
 20
7.0945749435
 30
0.0
 10
11.0357694178
 20
7.0899764044
 30
0.0
 10
11.0508394027
 20
7.0864424909
 30
0.0
 10
11.0660502972
 20
7.0839917207
 30
0.0
 10
11.0813230038
 20
7.0826369996
 30
0.0
 10
11.0965780226
 20
7.0823855295
 30
0.0
 10
11.1117360949
 20
7.0832388378
 30
0.0
 10
11.1267177448
 20
7.0851924891
 30
0.0
 10
11.1390059446
 20
7.0877325452
 30
0.0
 10
11.1486667778
 20
7.0903026366
 30
0.0
 10
11.15581314
 20
7.092494339
 30
0.0
 10
11.1628579454
 20
7.0949491527
 30
0.0
 10
11.1720944178
 20
7.0985653436
 30
0.0
 10
11.1833464274
 20
7.1037273435
 30
0.0
 10
11.1941558736
 20
7.109726111
 30
0.0
 10
11.2024902586
 20
7.1150016442
 30
0.0
 10
11.2085760578
 20
7.1191904468
 30
0.0
 10
11.214491373
 20
7.123607522
 30
0.0
 10
11.2183172509
 20
7.1267014862
 30
0.0
 10
11.2201988791
 20
7.1282842578
 30
0.0
  0
SPLINE
  5
2B4
100
AcDbEntity
  8
0
100
AcDbSpline
 62
7
  6
CONTINUOUS
 70
0
 71
3
 72
41
 73
37
 74
0
 42
0.0000001
 43
0.0000001
 44
0.0000000001
 40
0.0
 40
0.0
 40
0.0
 40
0.0
 40
0.029942123
 40
0.0449237706
 40
0.0599145177
 40
0.0899291716
 40
0.1200145961
 40
0.1350933574
 40
0.1501974726
 40
0.1804849654
 40
0.2108989488
 40
0.2414525624
 40
0.2721557217
 40
0.3030149378
 40
0.3340332219
 40
0.3652100719
 40
0.3965415365
 40
0.4280203507
 40
0.4596361361
 40
0.4913756582
 40
0.5232231336
 40
0.5551605782
 40
0.5871681905
 40
0.6192247616
 40
0.6513081064
 40
0.6833955071
 40
0.7154641657
 40
0.7474916563
 40
0.7794563734
 40
0.811337967
 40
0.843117763
 40
0.8747791516
 40
0.9063079641
 40
0.9376927517
 40
0.9689251728
 40
1.0
 40
1.0
 40
1.0
 40
1.0
 10
9.9069835025
 20
7.1285896931
 30
0.0
 10
9.9046526558
 20
7.1263382527
 30
0.0
 10
9.9010190253
 20
7.1230974798
 30
0.0
 10
9.8959301817
 20
7.1190763952
 30
0.0
 10
9.8906792715
 20
7.1152554145
 30
0.0
 10
9.8838277
 20
7.1108676683
 30
0.0
 10
9.8766429818
 20
7.1070296642
 30
0.0
 10
9.8707174574
 20
7.1042992734
 30
0.0
 10
9.8646695106
 20
7.1017943082
 30
0.0
 10
9.856910276
 20
7.0991007248
 30
0.0
 10
9.8473481804
 20
7.0965903631
 30
0.0
 10
9.8375774315
 20
7.0948119366
 30
0.0
 10
9.8276521758
 20
7.0937752615
 30
0.0
 10
9.817626936
 20
7.0934858689
 30
0.0
 10
9.807556874
 20
7.0939452322
 30
0.0
 10
9.797497338
 20
7.0951506978
 30
0.0
 10
9.787503601
 20
7.0970955237
 30
0.0
 10
9.7776305505
 20
7.0997689164
 30
0.0
 10
9.7679323937
 20
7.1031560947
 30
0.0
 10
9.7584623631
 20
7.1072383732
 30
0.0
 10
9.749272429
 20
7.1119932663
 30
0.0
 10
9.740413018
 20
7.1173946121
 30
0.0
 10
9.7319327402
 20
7.1234127162
 30
0.0
 10
9.7238781255
 20
7.1300145134
 30
0.0
 10
9.7162933718
 20
7.1371637484
 30
0.0
 10
9.7092201048
 20
7.1448211729
 30
0.0
 10
9.7026971521
 20
7.1529447591
 30
0.0
 10
9.6967603322
 20
7.1614899282
 30
0.0
 10
9.6914422597
 20
7.1704097914
 30
0.0
 10
9.686772167
 20
7.1796554066
 30
0.0
 10
9.6827757462
 20
7.1891760369
 30
0.0
 10
9.6794750048
 20
7.198919449
 30
0.0
 10
9.6768881519
 20
7.2088321084
 30
0.0
 10
9.6750294831
 20
7.2188597942
 30
0.0
 10
9.6739093213
 20
7.2289466959
 30
0.0
 10
9.6736584233
 20
7.2356928318
 30
0.0
 10
9.6736584233
 20
7.2390560777
 30
0.0
  0
SPLINE
  5
2B5
100
AcDbEntity
  8
0
100
AcDbSpline
 62
7
  6
CONTINUOUS
 70
0
 71
3
 72
15
 73
11
 74
0
 42
0.0000001
 43
0.0000001
 44
0.0000000001
 40
0.0
 40
0.0
 40
0.0
 40
0.0
 40
0.1273482789
 40
0.2538606571
 40
0.3795878378
 40
0.5046051156
 40
0.629017439
 40
0.7529533823
 40
0.8765605864
 40
1.0
 40
1.0
 40
1.0
 40
1.0
 10
9.6736584233
 20
9.2916485802
 30
0.0
 10
9.6736584233
 20
9.2959756639
 30
0.0
 10
9.6740715736
 20
9.3046074107
 30
0.0
 10
9.6759399782
 20
9.3173890127
 30
0.0
 10
9.6790381174
 20
9.3298494674
 30
0.0
 10
9.6833380053
 20
9.3418722397
 30
0.0
 10
9.6888002056
 20
9.3533464563
 30
0.0
 10
9.6953748898
 20
9.3641661779
 30
0.0
 10
9.7030002592
 20
9.3742300227
 30
0.0
 10
9.7087417815
 20
9.3803776021
 30
0.0
 10
9.7117585173
 20
9.3832915651
 30
0.0
  0
SPLINE
  5
2B6
100
AcDbEntity
  8
0
100
AcDbSpline
 62
7
  6
CONTINUOUS
 70
0
 71
3
 72
18
 73
14
 74
0
 42
0.0000001
 43
0.0000001
 44
0.0000000001
 40
0.0
 40
0.0
 40
0.0
 40
0.0
 40
0.1480416713
 40
0.287665687
 40
0.4195584364
 40
0.5445935996
 40
0.6638224763
 40
0.7216612869
 40
0.7785268821
 40
0.8346005152
 40
0.8900719405
 40
0.945137938
 40
1.0
 40
1.0
 40
1.0
 40
1.0
 10
10.3252339227
 20
10.2740229214
 30
0.0
 10
10.3237537623
 20
10.2725931962
 30
0.0
 10
10.3209643577
 20
10.2697227504
 30
0.0
 10
10.3172138208
 20
10.2652490239
 30
0.0
 10
10.3140284506
 20
10.2607413948
 30
0.0
 10
10.3114130928
 20
10.2562044058
 30
0.0
 10
10.3096947903
 20
10.2523627722
 30
0.0
 10
10.3086221787
 20
10.2492912616
 30
0.0
 10
10.3079700576
 20
10.2470071524
 30
0.0
 10
10.3074625776
 20
10.244720315
 30
0.0
 10
10.3070999522
 20
10.2424313207
 30
0.0
 10
10.3068823187
 20
10.2401410047
 30
0.0
 10
10.3068339075
 20
10.2386124708
 30
0.0
 10
10.3068339038
 20
10.2378498401
 30
0.0
  0
SPLINE
  5
2B7
100
AcDbEntity
  8
0
100
AcDbSpline
 62
7
  6
CONTINUOUS
 70
0
 71
3
 72
41
 73
37
 74
0
 42
0.0000001
 43
0.0000001
 44
0.0000000001
 40
0.0
 40
0.0
 40
0.0
 40
0.0
 40
0.0299421701
 40
0.0599087164
 40
0.0899234211
 40
0.1200088983
 40
0.1501860543
 40
0.1804736026
 40
0.2108876422
 40
0.2414413123
 40
0.2721445279
 40
0.3030038001
 40
0.33402214
 40
0.3651990456
 40
0.3965305656
 40
0.428009435
 40
0.4596252751
 40
0.4913648511
 40
0.523212379
 40
0.5551498748
 40
0.5871575372
 40
0.6192141578
 40
0.6512975514
 40
0.6833850007
 40
0.7154537075
 40
0.7314764095
 40
0.7474860758
 40
0.7794508394
 40
0.8113324795
 40
0.8431123195
 40
0.8747737607
 40
0.9063025939
 40
0.9376875098
 40
0.9533255635
 40
0.9689249841
 40
1.0
 40
1.0
 40
1.0
 40
1.0
 10
11.2115537118
 20
7.1193078059
 30
0.0
 10
11.2079205749
 20
7.1157984641
 30
0.0
 10
11.2003686208
 20
7.1090629971
 30
0.0
 10
11.188269214
 20
7.0998871138
 30
0.0
 10
11.1754601759
 20
7.0916844694
 30
0.0
 10
11.1620130765
 20
7.0845010801
 30
0.0
 10
11.148001846
 20
7.0783761929
 30
0.0
 10
11.1335038113
 20
7.0733434775
 30
0.0
 10
11.1185988665
 20
7.0694304673
 30
0.0
 10
11.1033691279
 20
7.0666585244
 30
0.0
 10
11.0878984477
 20
7.0650427048
 30
0.0
 10
11.0722719579
 20
7.0645916947
 30
0.0
 10
11.0565755998
 20
7.0653077727
 30
0.0
 10
11.0408956551
 20
7.0671868079
 30
0.0
 10
11.0253182756
 20
7.0702182914
 30
0.0
 10
11.009929016
 20
7.0743854012
 30
0.0
 10
10.99481237
 20
7.0796650989
 30
0.0
 10
10.9800513112
 20
7.0860282561
 30
0.0
 10
10.9657268451
 20
7.0934398231
 30
0.0
 10
10.9519175727
 20
7.1018590182
 30
0.0
 10
10.9386992565
 20
7.1112395633
 30
0.0
 10
10.9261444436
 20
7.1215298914
 30
0.0
 10
10.9143219481
 20
7.1326735981
 30
0.0
 10
10.9032969414
 20
7.1446091106
 30
0.0
 10
10.8948208233
 20
7.1551652473
 30
0.0
 10
10.8884968805
 20
7.1639395395
 30
0.0
 10
10.8824910824
 20
7.172913481
 30
0.0
 10
10.8755861433
 20
7.1844949055
 30
0.0
 10
10.8683069883
 20
7.1989059458
 30
0.0
 10
10.8620776811
 20
7.2137459472
 30
0.0
 10
10.8569327874
 20
7.228933203
 30
0.0
 10
10.8529006498
 20
7.2443839606
 30
0.0
 10
10.8504833037
 20
7.2574260843
 30
0.0
 10
10.8491272321
 20
7.2679052504
 30
0.0
 10
10.8481594456
 20
7.2783743963
 30
0.0
 10
10.8478664093
 20
7.286252346
 30
0.0
 10
10.8478664093
 20
7.2914947112
 30
0.0
  0
SPLINE
  5
2B8
100
AcDbEntity
  8
0
100
AcDbSpline
 62
7
  6
CONTINUOUS
 70
0
 71
3
 72
21
 73
17
 74
0
 42
0.0000001
 43
0.0000001
 44
0.0000000001
 40
0.0
 40
0.0
 40
0.0
 40
0.0
 40
0.1273175203
 40
0.253800042
 40
0.3167619342
 40
0.3795354977
 40
0.4421315044
 40
0.5045621463
 40
0.5668413435
 40
0.6289845249
 40
0.6910084556
 40
0.7529310973
 40
0.8147714461
 40
0.8765493353
 40
0.9382852242
 40
1.0
 40
1.0
 40
1.0
 40
1.0
 10
10.8478664093
 20
7.2914947112
 30
0.0
 10
10.8478664093
 20
7.2982394582
 30
0.0
 10
10.8485102456
 20
7.3116933981
 30
0.0
 10
10.8509417698
 20
7.3283253733
 30
0.0
 10
10.853848011
 20
7.3413717069
 30
0.0
 10
10.8564983519
 20
7.3509946766
 30
0.0
 10
10.8596162656
 20
7.3604466759
 30
0.0
 10
10.8631946555
 20
7.3697061493
 30
0.0
 10
10.867225251
 20
7.3787516815
 30
0.0
 10
10.8716987658
 20
7.3875624353
 30
0.0
 10
10.8766049209
 20
7.3961180692
 30
0.0
 10
10.8819324287
 20
7.404398843
 30
0.0
 10
10.8876689655
 20
7.4123856534
 30
0.0
 10
10.8938013778
 20
7.420060138
 30
0.0
 10
10.9003153101
 20
7.4274043289
 30
0.0
 10
10.9049031208
 20
7.4320698309
 30
0.0
 10
10.9072546438
 20
7.4343412283
 30
0.0
  0
SPLINE
  5
2B9
100
AcDbEntity
  8
0
100
AcDbSpline
 62
7
  6
CONTINUOUS
 70
0
 71
3
 72
97
 73
93
 74
0
 42
0.0000001
 43
0.0000001
 44
0.0000000001
 40
0.0
 40
0.0
 40
0.0
 40
0.0
 40
0.0041939647
 40
0.0085762764
 40
0.0131520426
 40
0.0179255966
 40
0.0229004688
 40
0.0280792099
 40
0.0334635973
 40
0.0390547459
 40
0.044853203
 40
0.0508589836
 40
0.0570716108
 40
0.0634902002
 40
0.0701134499
 40
0.0769397396
 40
0.0839670797
 40
0.0911932279
 40
0.1062310602
 40
0.1220303437
 40
0.1385641043
 40
0.1558021823
 40
0.1737115813
 40
0.1922567621
 40
0.2113998962
 40
0.2311010919
 40
0.2513185977
 40
0.2720089908
 40
0.2931273546
 40
0.3146274476
 40
0.3364618658
 40
0.3585822007
 40
0.3809391947
 40
0.4034828928
 40
0.4261627941
 40
0.4489280014
 40
0.4717273696
 40
0.4945096552
 40
0.5172236637
 40
0.5398183986
 40
0.5622432102
 40
0.5844479447
 40
0.6063830947
 40
0.6279999518
 40
0.6492507597
 40
0.6700888718
 40
0.6904689117
 40
0.7103469399
 40
0.7296806277
 40
0.7484294415
 40
0.7665548412
 40
0.7840204978
 40
0.8007925367
 40
0.8168398166
 40
0.8321342587
 40
0.8394915343
 40
0.8466516878
 40
0.8536122498
 40
0.8603710699
 40
0.8669262646
 40
0.8732763327
 40
0.8794200883
 40
0.8853568001
 40
0.8910861289
 40
0.8966082766
 40
0.9019239503
 40
0.9070345099
 40
0.9119419799
 40
0.9166491888
 40
0.9211598447
 40
0.9254786688
 40
0.929611542
 40
0.9335656364
 40
0.9373496261
 40
0.940973814
 40
0.9477891052
 40
0.9510148911
 40
0.9541417654
 40
0.9571901357
 40
0.9601821919
 40
0.9631415426
 40
0.9660926541
 40
0.9690602177
 40
0.9720684796
 40
0.9751406312
 40
0.9782983118
 40
0.981561254
 40
0.9849470768
 40
0.9884713375
 40
0.9921475937
 40
0.9959873694
 40
1.0
 40
1.0
 40
1.0
 40
1.0
 10
10.2952902378
 20
10.3060432079
 30
0.0
 10
10.2965262198
 20
10.3072370749
 30
0.0
 10
10.2991151478
 20
10.3096154335
 30
0.0
 10
10.3032441843
 20
10.3130806371
 30
0.0
 10
10.3077000905
 20
10.3165182835
 30
0.0
 10
10.3124799801
 20
10.3199262767
 30
0.0
 10
10.3175811216
 20
10.3233026913
 30
0.0
 10
10.3230005012
 20
10.3266456267
 30
0.0
 10
10.3287349307
 20
10.3299530808
 30
0.0
 10
10.3347809908
 20
10.3332231118
 30
0.0
 10
10.341135092
 20
10.336453777
 30
0.0
 10
10.3477934552
 20
10.3396431492
 30
0.0
 10
10.3547521061
 20
10.3427893379
 30
0.0
 10
10.3620068937
 20
10.3458904296
 30
0.0
 10
10.3695534716
 20
10.3489446005
 30
0.0
 10
10.3773873278
 20
10.3519499657
 30
0.0
 10
10.3855037691
 20
10.3549047886
 30
0.0
 10
10.3968470279
 20
10.3588268385
 30
0.0
 10
10.4117039298
 20
10.3635788799
 30
0.0
 10
10.4303493894
 20
10.3689790795
 30
0.0
 10
10.4499967039
 20
10.3741370507
 30
0.0
 10
10.4705986775
 20
10.3790402848
 30
0.0
 10
10.492105963
 20
10.3836768796
 30
0.0
 10
10.514466924
 20
10.3880355819
 30
0.0
 10
10.5376278478
 20
10.3921058145
 30
0.0
 10
10.5615330615
 20
10.3958777024
 30
0.0
 10
10.5861250779
 20
10.3993420976
 30
0.0
 10
10.6113447376
 20
10.4024906001
 30
0.0
 10
10.6371313558
 20
10.4053155782
 30
0.0
 10
10.6634228711
 20
10.4078101861
 30
0.0
 10
10.6901559974
 20
10.4099683801
 30
0.0
 10
10.7172663784
 20
10.4117849325
 30
0.0
 10
10.7446887437
 20
10.4132554437
 30
0.0
 10
10.7723570677
 20
10.4143763529
 30
0.0
 10
10.8002047293
 20
10.415144946
 30
0.0
 10
10.8281646733
 20
10.4155593622
 30
0.0
 10
10.8561695728
 20
10.4156185981
 30
0.0
 10
10.8841519923
 20
10.4153225103
 30
0.0
 10
10.9120445503
 20
10.4146718156
 30
0.0
 10
10.939780083
 20
10.4136680892
 30
0.0
 10
10.9672918064
 20
10.4123137614
 30
0.0
 10
10.9945134782
 20
10.4106121114
 30
0.0
 10
11.0213795584
 20
10.4085672601
 30
0.0
 10
11.0478253683
 20
10.4061841607
 30
0.0
 10
11.0737872481
 20
10.4034685866
 30
0.0
 10
11.0992027113
 20
10.400427118
 30
0.0
 10
11.124010598
 20
10.3970671268
 30
0.0
 10
11.1481512241
 20
10.393396759
 30
0.0
 10
11.1715665294
 20
10.3894249157
 30
0.0
 10
11.1942002201
 20
10.3851612318
 30
0.0
 10
11.215997916
 20
10.3806160535
 30
0.0
 10
11.2369072683
 20
10.3758004108
 30
0.0
 10
11.2568781693
 20
10.3707259955
 30
0.0
 10
11.2758626287
 20
10.3654051091
 30
0.0
 10
11.2910128597
 20
10.3607178823
 30
0.0
 10
11.302598326
 20
10.3568457099
 30
0.0
 10
11.3109004692
 20
10.3539256243
 30
0.0
 10
11.3189232465
 20
10.3509537624
 30
0.0
 10
11.3266618649
 20
10.3479319319
 30
0.0
 10
11.3341116753
 20
10.3448619073
 30
0.0
 10
11.3412682321
 20
10.3417455872
 30
0.0
 10
11.3481272418
 20
10.3385847825
 30
0.0
 10
11.3546846264
 20
10.3353814459
 30
0.0
 10
11.3609364593
 20
10.3321374311
 30
0.0
 10
11.3668790396
 20
10.3288547237
 30
0.0
 10
11.3725088211
 20
10.3255352187
 30
0.0
 10
11.3778224849
 20
10.3221809117
 30
0.0
 10
11.382816877
 20
10.318793732
 30
0.0
 10
11.3874890582
 20
10.3153756597
 30
0.0
 10
11.3918362743
 20
10.3119286404
 30
0.0
 10
11.3958559443
 20
10.3084546216
 30
0.0
 10
11.3995457268
 20
10.3049555058
 30
0.0
 10
11.402903281
 20
10.3014333131
 30
0.0
 10
11.4059269204
 20
10.2978894345
 30
0.0
 10
11.4094375554
 20
10.2932349763
 30
0.0
 10
11.4123758653
 20
10.2884420774
 30
0.0
 10
11.4146413006
 20
10.2835398897
 30
0.0
 10
11.4159667226
 20
10.2799181266
 30
0.0
 10
11.4169477592
 20
10.2762872166
 30
0.0
 10
11.4175832072
 20
10.272649495
 30
0.0
 10
11.4178722631
 20
10.269007823
 30
0.0
 10
11.4178144344
 20
10.265365141
 30
0.0
 10
11.4174098646
 20
10.2617244647
 30
0.0
 10
11.4166591003
 20
10.2580887106
 30
0.0
 10
11.4155631453
 20
10.254460595
 30
0.0
 10
11.4141232962
 20
10.2508425833
 30
0.0
 10
11.4123410237
 20
10.247236936
 30
0.0
 10
11.4102179933
 20
10.2436456737
 30
0.0
 10
11.4077558093
 20
10.2400707444
 30
0.0
 10
11.4049562145
 20
10.2365139314
 30
0.0
 10
11.4018212005
 20
10.2329773339
 30
0.0
 10
11.3995601037
 20
10.2306860901
 30
0.0
 10
11.3983775617
 20
10.2295438422
 30
0.0
  0
SPLINE
  5
2BA
100
AcDbEntity
  8
0
100
AcDbSpline
 62
7
  6
CONTINUOUS
 70
0
 71
3
 72
86
 73
82
 74
0
 42
0.0000001
 43
0.0000001
 44
0.0000000001
 40
0.0
 40
0.0
 40
0.0
 40
0.0
 40
0.0039801757
 40
0.0081241218
 40
0.0124360005
 40
0.0169193714
 40
0.0215772497
 40
0.0264119988
 40
0.0314252769
 40
0.0366182697
 40
0.0419916744
 40
0.0475458029
 40
0.0532805924
 40
0.0591956015
 40
0.065290127
 40
0.0715631279
 40
0.084638834
 40
0.0984101799
 40
0.1128607854
 40
0.1279713483
 40
0.1437199821
 40
0.1600824899
 40
0.177032592
 40
0.1945421321
 40
0.2125812511
 40
0.231118541
 40
0.250121185
 40
0.269555084
 40
0.2893849775
 40
0.3095745649
 40
0.3300866174
 40
0.3508830848
 40
0.3719252005
 40
0.3931735833
 40
0.4145883405
 40
0.4577547239
 40
0.5010996034
 40
0.5442957149
 40
0.5657364025
 40
0.5870180162
 40
0.6081005826
 40
0.6289446189
 40
0.6495112374
 40
0.66976225
 40
0.6896602715
 40
0.7091688258
 40
0.7282524564
 40
0.746876841
 40
0.765008918
 40
0.7826170143
 40
0.7996709795
 40
0.8161423377
 40
0.8320044555
 40
0.8472327362
 40
0.8618048521
 40
0.8757010097
 40
0.888904271
 40
0.901400959
 40
0.9073813466
 40
0.9131817438
 40
0.9188015904
 40
0.9242407104
 40
0.92949924
 40
0.9345777526
 40
0.9394772584
 40
0.9441992462
 40
0.9487458028
 40
0.9531195871
 40
0.9573240094
 40
0.9613632383
 40
0.9652423386
 40
0.9689673914
 40
0.9725455559
 40
0.9759852717
 40
0.9824864473
 40
0.9855753098
 40
0.9885737819
 40
0.9914977119
 40
0.9943643179
 40
0.9971920013
 40
1.0
 40
1.0
 40
1.0
 40
1.0
 10
10.3252339227
 20
10.2740229214
 30
0.0
 10
10.3263034232
 20
10.2750559797
 30
0.0
 10
10.3285350004
 20
10.2771147941
 30
0.0
 10
10.3320780644
 20
10.2801218552
 30
0.0
 10
10.3358813129
 20
10.2831073583
 30
0.0
 10
10.3399426581
 20
10.286069695
 30
0.0
 10
10.3442601057
 20
10.2890074962
 30
0.0
 10
10.3488315553
 20
10.2919193175
 30
0.0
 10
10.3536547155
 20
10.2948037838
 30
0.0
 10
10.3587271957
 20
10.2976593935
 30
0.0
 10
10.3640464372
 20
10.3004847589
 30
0.0
 10
10.3696097843
 20
10.3032784573
 30
0.0
 10
10.3754144549
 20
10.3060390747
 30
0.0
 10
10.3814575219
 20
10.308765255
 30
0.0
 10
10.3877359705
 20
10.3114555955
 30
0.0
 10
10.3965389054
 20
10.315042819
 30
0.0
 10
10.408115503
 20
10.319417784
 30
0.0
 10
10.4227079329
 20
10.3244337449
 30
0.0
 10
10.438157495
 20
10.3292755445
 30
0.0
 10
10.4544330411
 20
10.3339333416
 30
0.0
 10
10.4715019
 20
10.3383976543
 30
0.0
 10
10.4893296877
 20
10.342659389
 30
0.0
 10
10.5078804621
 20
10.3467098673
 30
0.0
 10
10.5271167852
 20
10.3505408386
 30
0.0
 10
10.5469998137
 20
10.3541444999
 30
0.0
 10
10.5674893795
 20
10.3575135118
 30
0.0
 10
10.588544074
 20
10.3606410128
 30
0.0
 10
10.6101213316
 20
10.3635206352
 30
0.0
 10
10.6321775181
 20
10.3661465215
 30
0.0
 10
10.6546680235
 20
10.3685133298
 30
0.0
 10
10.677547354
 20
10.3706162449
 30
0.0
 10
10.7007692289
 20
10.3724509908
 30
0.0
 10
10.7242866565
 20
10.3740138272
 30
0.0
 10
10.7480520947
 20
10.3753016011
 30
0.0
 10
10.780089399
 20
10.3766517935
 30
0.0
 10
10.8204017142
 20
10.3776325104
 30
0.0
 10
10.8688632815
 20
10.3776836307
 30
0.0
 10
10.9091983683
 20
10.3767881304
 30
0.0
 10
10.9412716993
 20
10.3755059758
 30
0.0
 10
10.9650770722
 20
10.3742685155
 30
0.0
 10
10.9886431443
 20
10.3727554775
 30
0.0
 10
11.0119222737
 20
10.3709699102
 30
0.0
 10
11.0348673508
 20
10.3689154519
 30
0.0
 10
11.057431961
 20
10.3665962818
 30
0.0
 10
11.0795704607
 20
10.3640171188
 30
0.0
 10
11.1012380742
 20
10.3611832104
 30
0.0
 10
11.1223909834
 20
10.3581003228
 30
0.0
 10
11.1429864199
 20
10.3547747286
 30
0.0
 10
11.1629827561
 20
10.3512131993
 30
0.0
 10
11.1823395927
 20
10.3474229901
 30
0.0
 10
11.2010178406
 20
10.3434118215
 30
0.0
 10
11.2189798038
 20
10.3391878644
 30
0.0
 10
11.2361892579
 20
10.334759723
 30
0.0
 10
11.2526115411
 20
10.3301364127
 30
0.0
 10
11.2682136119
 20
10.3253273467
 30
0.0
 10
11.2829642168
 20
10.3203423029
 30
0.0
 10
11.2968336556
 20
10.3151914018
 30
0.0
 10
11.3077892553
 20
10.3107061595
 30
0.0
 10
11.3160832218
 20
10.3070345121
 30
0.0
 10
11.321974938
 20
10.3042862516
 30
0.0
 10
11.3276263654
 20
10.3015044094
 30
0.0
 10
11.3330346954
 20
10.2986904098
 30
0.0
 10
11.3381972021
 20
10.2958456256
 30
0.0
 10
11.3431113112
 20
10.292971496
 30
0.0
 10
11.347774575
 20
10.2900694582
 30
0.0
 10
11.3521846497
 20
10.2871409093
 30
0.0
 10
11.3563393707
 20
10.2841873424
 30
0.0
 10
11.360236638
 20
10.281210135
 30
0.0
 10
11.3638745429
 20
10.2782107662
 30
0.0
 10
11.3672512559
 20
10.2751906505
 30
0.0
 10
11.3703650907
 20
10.2721511642
 30
0.0
 10
11.3732144377
 20
10.269093858
 30
0.0
 10
11.3757980032
 20
10.2660196997
 30
0.0
 10
11.378828827
 20
10.2619775895
 30
0.0
 10
11.3814024454
 20
10.2578264879
 30
0.0
 10
11.3834458112
 20
10.2535867717
 30
0.0
 10
11.3846803806
 20
10.2504511741
 30
0.0
 10
11.3856418267
 20
10.2473079624
 30
0.0
 10
11.3863292546
 20
10.2441586316
 30
0.0
 10
11.3867420247
 20
10.2410054559
 30
0.0
 10
11.386833901
 20
10.2388988825
 30
0.0
 10
11.3868338958
 20
10.2378498401
 30
0.0
  0
SPLINE
  5
2BB
100
AcDbEntity
  8
0
100
AcDbSpline
 62
7
  6
CONTINUOUS
 70
0
 71
3
 72
29
 73
25
 74
0
 42
0.0000001
 43
0.0000001
 44
0.0000000001
 40
0.0
 40
0.0
 40
0.0
 40
0.0
 40
0.0749501755
 40
0.1455449695
 40
0.2121256908
 40
0.2751187189
 40
0.3350442052
 40
0.3640577057
 40
0.392544305
 40
0.4205956796
 40
0.4483082622
 40
0.4757825425
 40
0.5031218589
 40
0.5304312207
 40
0.5578160321
 40
0.5853807131
 40
0.6132275162
 40
0.6414553135
 40
0.6701585835
 40
0.7293214529
 40
0.7913858604
 40
0.8568999606
 40
0.9263187436
 40
1.0
 40
1.0
 40
1.0
 40
1.0
 10
10.2967132691
 20
10.2281948642
 30
0.0
 10
10.2950644509
 20
10.2297292694
 30
0.0
 10
10.2919540729
 20
10.2328098666
 30
0.0
 10
10.2877571503
 20
10.2376159099
 30
0.0
 10
10.2841783146
 20
10.2424602069
 30
0.0
 10
10.2812229457
 20
10.2473379054
 30
0.0
 10
10.2792627144
 20
10.251472133
 30
0.0
 10
10.2780258549
 20
10.2547788236
 30
0.0
 10
10.2772661351
 20
10.2572365394
 30
0.0
 10
10.2766648558
 20
10.2596975311
 30
0.0
 10
10.2762222795
 20
10.2621611263
 30
0.0
 10
10.2759385759
 20
10.2646265304
 30
0.0
 10
10.275813853
 20
10.2670929624
 30
0.0
 10
10.2758482196
 20
10.269559624
 30
0.0
 10
10.2760416339
 20
10.2720257082
 30
0.0
 10
10.276393982
 20
10.274490429
 30
0.0
 10
10.2769051388
 20
10.2769529838
 30
0.0
 10
10.2775749185
 20
10.2794126786
 30
0.0
 10
10.2786899825
 20
10.2827202515
 30
0.0
 10
10.2804979172
 20
10.2868581585
 30
0.0
 10
10.2832753288
 20
10.2917446991
 30
0.0
 10
10.2866776801
 20
10.2965990739
 30
0.0
 10
10.2906995307
 20
10.3014162721
 30
0.0
 10
10.2936976643
 20
10.3045049
 30
0.0
 10
10.2952902378
 20
10.3060432079
 30
0.0
  0
SPLINE
  5
2BC
100
AcDbEntity
  8
0
100
AcDbSpline
 62
7
  6
CONTINUOUS
 70
0
 71
3
 72
15
 73
11
 74
0
 42
0.0000001
 43
0.0000001
 44
0.0000000001
 40
0.0
 40
0.0
 40
0.0
 40
0.0
 40
0.1273482789
 40
0.2538606571
 40
0.3795878378
 40
0.5046051156
 40
0.629017439
 40
0.7529533823
 40
0.8765605864
 40
1.0
 40
1.0
 40
1.0
 40
1.0
 10
11.4239160153
 20
9.1702678039
 30
0.0
 10
11.4239160153
 20
9.1745948877
 30
0.0
 10
11.4243291656
 20
9.1832266344
 30
0.0
 10
11.4261975702
 20
9.1960082365
 30
0.0
 10
11.4292957094
 20
9.2084686912
 30
0.0
 10
11.4335955973
 20
9.2204914635
 30
0.0
 10
11.4390577976
 20
9.2319656801
 30
0.0
 10
11.4456324818
 20
9.2427854016
 30
0.0
 10
11.4532578512
 20
9.2528492465
 30
0.0
 10
11.4589993735
 20
9.2589968258
 30
0.0
 10
11.4620161094
 20
9.2619107888
 30
0.0
  0
ELLIPSE
  5
2BD
100
AcDbEntity
  8
0
100
AcDbEllipse
 62
7
  6
CONTINUOUS
 10
10.6366282378
 20
8.6043484981
 30
0.0
 11
0.2088210678
 21
-0.0427957609
 31
0.0
 40
0.8076728902
 41
0.0
 42
6.2831853072
  0
ELLIPSE
  5
2BE
100
AcDbEntity
  8
0
100
AcDbEllipse
 62
7
  6
CONTINUOUS
 10
10.6366282378
 20
7.8190506747
 30
0.0
 11
0.2088210678
 21
-0.0427957609
 31
0.0
 40
0.8076728902
 41
0.0
 42
6.2831853072
  0
ELLIPSE
  5
2BF
100
AcDbEntity
  8
0
100
AcDbEllipse
 62
7
  6
CONTINUOUS
 10
11.0585548194
 20
9.088360134
 30
0.0
 11
-0.0674179439
 21
0.17038255
 31
0.0
 40
0.9414322895
 41
0.0
 42
6.2831853072
  0
ELLIPSE
  5
2C0
100
AcDbEntity
  8
0
100
AcDbEllipse
 62
7
  6
CONTINUOUS
 10
10.0694815339
 20
8.2468361834
 30
0.0
 11
0.1402151373
 21
0.1203808277
 31
0.0
 40
0.9712406307
 41
0.0
 42
6.2831853072
  0
ENDSEC
  0
SECTION
  2
OBJECTS
  0
DICTIONARY
  5
C
100
AcDbDictionary
280
0
281
1
  3
ACAD_GROUP
350
D
  3
ACAD_MLINESTYLE
350
17
  3
ACAD_LAYOUT
350
1A
  3
ACAD_PLOTSETTINGS
350
19
  3
ACAD_PLOTSTYLENAME
350
E
  3
ACAD_IMAGE_DICT
350
       2C2
  3
ACAD_IMAGE_VARS
350
       2C3
  3
ACAD_TABLESTYLE
350
       2C4
  0
IMAGEDEF_REACTOR
  5
2C1
100
AcDbRasterImageDefReactor
 90
2
330
272
  0
DICTIONARY
  5
D
102
{ACAD_REACTORS
330
C
102
}
100
AcDbDictionary
280
0
281
1
  0
ACDBDICTIONARYWDFLT
  5
E
102
{ACAD_REACTORS
330
C
102
}
100
AcDbDictionary
281
1
  3
Normal
350
F
100
AcDbDictionaryWithDefault
340
F
  0
DICTIONARY
  5
2C2
330
C
100
AcDbDictionary
281
1
  3
ZVK_assy_2_img_1
350
       2C7
  0
RASTERVARIABLES
  5
2C3
330
C
100
AcDbRasterVariables
 90
0
 70
0
 71
1
 72
5
  0
DICTIONARY
  5
17
102
{ACAD_REACTORS
330
C
102
}
100
AcDbDictionary
280
0
281
1
  3
Standard
350
18
  0
DICTIONARY
  5
2C4
330
C
100
AcDbDictionary
281
1
  3
Standard
350
       2C8
  3
Standard1
350
       2C9
  0
DICTIONARY
  5
19
102
{ACAD_REACTORS
330
C
102
}
100
AcDbDictionary
281
1
  0
DICTIONARY
  5
1A
102
{ACAD_REACTORS
330
C
102
}
100
AcDbDictionary
281
1
  3
Model
350
2C5
  3
Layout1
350
2C6
  0
ACDBPLACEHOLDER
  5
F
102
{ACAD_REACTORS
330
E
102
}
  0
MLINESTYLE
  5
18
102
{ACAD_REACTORS
330
17
102
}
100
AcDbMlineStyle
  2
STANDARD
 70
0
  3

 62
256
 51
90.0
 52
90.0
 71
2
 49
0.5
 62
256
  6
BYLAYER
 49
-0.5
 62
256
  6
BYLAYER
  0
LAYOUT
  5
2C5
102
{ACAD_REACTORS
330
1A
102
}
100
AcDbPlotSettings
  1

  2
none_device
  4
ANSI_C_(22.00_x_17.00_Inches)
  6

 40
0.0
 41
0.0
 42
0.0
 43
0.0
 44
558.8
 45
431.8
 46
0.0
 47
0.0
 48
0.0
 49
0.0
140
0.0
141
0.0
142
1.0
143
1.0
 70
1024
 72
0
 73
0
 74
0
  7

 75
0
147
1.0
148
0.0
149
0.0
100
AcDbLayout
  1
Model
 70
0
 71
0
 10
0.0
 20
0.0
 11
22.0
 21
17.0
 12
0.0
 22
0.0
 32
0.0
 14
0.0
 24
0.0
 34
0.0
 15
0.0
 25
0.0
 35
0.0
146
0.0
 13
0.0
 23
0.0
 33
0.0
 16
1.0
 26
0.0
 36
0.0
 17
0.0
 27
1.0
 37
0.0
 76
0
330
20F
345
0
346
0
  0
LAYOUT
  5
2C6
102
{ACAD_REACTORS
330
1A
102
}
100
AcDbPlotSettings
  1

  2
none_device
  4
ANSI_C_(22.00_x_17.00_Inches)
  6

 40
0.0
 41
0.0
 42
0.0
 43
0.0
 44
558.8
 45
431.8
 46
0.0
 47
0.0
 48
0.0
 49
0.0
140
0.0
141
0.0
142
1.0
143
1.0
 70
0
 72
0
 73
0
 74
0
  7

 75
0
147
1.0
148
0.0
149
0.0
100
AcDbLayout
  1
Layout1
 70
0
 71
1
 10
0.0
 20
0.0
 11
22.0
 21
17.0
 12
0.0
 22
0.0
 32
0.0
 14
0.0
 24
0.0
 34
0.0
 15
0.0
 25
0.0
 35
0.0
146
0.0
 13
0.0
 23
0.0
 33
0.0
 16
1.0
 26
0.0
 36
0.0
 17
0.0
 27
1.0
 37
0.0
 76
0
330
210
345
0
346
0
  0
IMAGEDEF
  5
2C7
102
{ACAD_REACTORS
330
2C2
330
2C1
102
}
100
AcDbRasterImageDef
 90
0
  1
ZVK_assy_2_img_1.png
 10
369.0
 20
92.0
 11
0.0066666667
 21
0.0066666667
280
1
281
0
  0
TABLESTYLE
  5
2C8
102
{ACAD_REACTORS
330
2C4
330
275
102
}
330
2C4
100
AcDbTableStyle
  3
Standard
 70
0
 71
0
 40
0.06
 41
0.06
280
1
281
1
  7
Standard
140
0.18
170
1
 62
0
 63
7
283
0
  7
Standard
140
0.18
170
1
 62
0
 63
7
283
0
  7
Standard
140
0.18
170
1
 62
0
 63
7
283
0
  0
TABLESTYLE
  5
2C9
102
{ACAD_REACTORS
330
2C4
330
274
102
}
330
2C4
100
AcDbTableStyle
  3
Standard1
 70
1
 71
0
 40
0.06
 41
0.06
280
1
281
1
  7
Standard
140
0.18
170
1
 62
0
 63
7
283
0
  7
Standard
140
0.18
170
1
 62
0
 63
7
283
0
  7
Standard
140
0.18
170
1
 62
0
 63
7
283
0
  0
ENDSEC
  0
EOF
