999
DXF file: ZVB_assy_2.dxf
999
Pro/ENGINEER 2014200 by Parametric Technology Corporation
  0
SECTION
  2
HEADER
  9
$ACADVER
  1
AC1021
  9
$DWGCODEPAGE
  3
ANSI_1252
  9
$EXTMAX
 10
22.0
 20
17.0
 30
0.0
  9
$EXTMIN
 10
0.0
 20
0.0
 30
0.0
  9
$LIMMIN
 10
0.0
 20
0.0
  9
$LIMMAX
 10
22.0
 20
17.0
  9
$VIEWCTR
 10
11.0
 20
8.5
  9
$VIEWSIZE
 40
17.0
  9
$CLAYER
  8
0
  9
$LTSCALE
 40
1.21
  9
$CELTYPE
  6
BYLAYER
  9
$DIMSCALE
 40
1.0
  9
$DIMASZ
 40
0.1875
  9
$DIMEXO
 40
0.0625
  9
$DIMDLI
 40
0.836
  9
$DIMEXE
 40
0.125
  9
$DIMCEN
 40
0.198
  9
$DIMLFAC
 40
1.0
  9
$DIMBLK
  1
_FILLED
  9
$DIMTXT
 40
0.1
  9
$DIMTOL
 70
0
  9
$DIMLIM
 70
0
  9
$DIMTFAC
 40
1.0
  9
$DIMGAP
 40
0.09
  9
$DIMDSEP
 70
46
  9
$AUNITS
 70
0
  9
$PDMODE
 70
3
  9
$PDSIZE
 40
0.3125
  9
$HANDSEED
  5
38B
  9
$TILEMODE
 70
1
  9
$MEASUREMENT
 70
0
  9
$INSUNITS
 70
1
  0
ENDSEC
  0
SECTION
  2
CLASSES
  0
CLASS
  1
ACDBDICTIONARYWDFLT
  2
AcDbDictionaryWithDefault
  3
AutoCAD 2000
 90
0
 91
1
280
0
281
0
  0
CLASS
  1
ACDBPLACEHOLDER
  2
AcDbPlaceHolder
  3
AutoCAD 2000
 90
0
 91
1
280
0
281
0
  0
CLASS
  1
LAYOUT
  2
AcDbLayout
  3
AutoCAD 2000
 90
0
 91
0
280
0
281
0
  0
CLASS
  1
RASTERVARIABLES
  2
AcDbRasterVariables
  3
ISM
 90
0
 91
1
280
0
281
0
  0
CLASS
  1
IMAGEDEF
  2
AcDbRasterImageDef
  3
ISM
 90
0
 91
1
280
0
281
0
  0
CLASS
  1
IMAGEDEF_REACTOR
  2
AcDbRasterImageDefReactor
  3
ISM
 90
0
 91
1
280
0
281
0
  0
CLASS
  1
IMAGE
  2
AcDbRasterImage
  3
ISM
 90
127
 91
1
280
0
281
1
  0
CLASS
  1
TABLESTYLE
  2
AcDbTableStyle
  3
ObjectDBX Classes
 90
2047
 91
1
280
0
281
0
  0
CLASS
  1
ACAD_TABLE
  2
AcDbTable
  3
ObjectDBX Classes
 90
1025
 91
3
280
0
281
1
  0
ENDSEC
  0
SECTION
  2
TABLES
  0
TABLE
  2
VPORT
  5
8
100
AcDbSymbolTable
 70
2
  0
VPORT
  5
1F4
100
AcDbSymbolTableRecord
100
AcDbViewportTableRecord
  2
*ACTIVE
 70
0
 10
0.0
 20
0.0
 11
1.0
 21
1.0
 12
11.0
 22
8.5
 13
0.0
 23
0.0
 14
1.0
 24
1.0
 15
0.0
 25
0.0
 16
0.0
 26
0.0
 36
1.0
 17
0.0
 27
0.0
 37
0.0
 40
17.0
 41
1.2941176471
 42
50.0
 43
0.0
 44
0.0
 50
0.0
 51
0.0
 71
0
 72
100
 73
1
 74
1
 75
0
 76
0
 77
0
 78
0
  0
ENDTAB
  0
TABLE
  2
LTYPE
  5
5
100
AcDbSymbolTable
 70
6
  0
LTYPE
  5
14
100
AcDbSymbolTableRecord
100
AcDbLinetypeTableRecord
  2
BYBLOCK
 70
0
  3

 72
65
 73
0
 40
0.0
  0
LTYPE
  5
15
100
AcDbSymbolTableRecord
100
AcDbLinetypeTableRecord
  2
BYLAYER
 70
0
  3

 72
65
 73
0
 40
0.0
  0
LTYPE
  5
16
100
AcDbSymbolTableRecord
100
AcDbLinetypeTableRecord
  2
CONTINUOUS
 70
64
  3
Solid line
 72
65
 73
0
 40
0.0
  0
LTYPE
  5
1F5
100
AcDbSymbolTableRecord
100
AcDbLinetypeTableRecord
  2
CENTER
 70
64
  3
____ _ ____ _ ____ _ ____ _ ____ _ ____ _ ____
 72
65
 73
4
 40
0.6
 49
0.375
 74
0
 49
-0.075
 74
0
 49
0.075
 74
0
 49
-0.075
 74
0
  0
LTYPE
  5
1F6
100
AcDbSymbolTableRecord
100
AcDbLinetypeTableRecord
  2
HIDDEN
 70
64
  3
- - - - - - - - - - - - - - - - - - - -
 72
65
 73
2
 40
0.2
 49
0.1
 74
0
 49
-0.1
 74
0
  0
LTYPE
  5
1F7
100
AcDbSymbolTableRecord
100
AcDbLinetypeTableRecord
  2
PHANTOM
 70
64
  3
_____ _ _ _____ _ _ _____ _ _ _____
 72
65
 73
6
 40
0.8
 49
0.45
 74
0
 49
-0.05
 74
0
 49
0.1
 74
0
 49
-0.05
 74
0
 49
0.1
 74
0
 49
-0.05
 74
0
  0
LTYPE
  5
1F8
100
AcDbSymbolTableRecord
100
AcDbLinetypeTableRecord
  2
DOT
 70
64
  3
. . . . . . . . . . . . . . . . . . . .
 72
65
 73
2
 40
0.2
 49
0.1
 74
0
 49
-0.1
 74
0
  0
LTYPE
  5
1F9
100
AcDbSymbolTableRecord
100
AcDbLinetypeTableRecord
  2
DASHED
 70
64
  3
- - - - - - - - - - - - - - - - - - - -
 72
65
 73
2
 40
0.2
 49
0.1
 74
0
 49
-0.1
 74
0
  0
ENDTAB
  0
TABLE
  2
LAYER
  5
2
100
AcDbSymbolTable
 70
36
  0
LAYER
  5
10
100
AcDbSymbolTableRecord
100
AcDbLayerTableRecord
  2
0
 70
0
 62
7
  6
CONTINUOUS
370
-3
390
F
  0
LAYER
  5
1FA
100
AcDbSymbolTableRecord
100
AcDbLayerTableRecord
  2
DEFAULT_1
 70
0
 62
7
  6
CENTER
370
-3
390
F
  0
LAYER
  5
1FB
100
AcDbSymbolTableRecord
100
AcDbLayerTableRecord
  2
DEFAULT_2
 70
0
 62
8
  6
HIDDEN
370
-3
390
F
  0
LAYER
  5
1FC
100
AcDbSymbolTableRecord
100
AcDbLayerTableRecord
  2
DEFAULT_3
 70
0
 62
7
  6
PHANTOM
370
-3
390
F
  0
LAYER
  5
1FD
100
AcDbSymbolTableRecord
100
AcDbLayerTableRecord
  2
DATUM_PLANES
 70
0
 62
7
  6
CONTINUOUS
370
-3
390
F
  0
LAYER
  5
1FE
100
AcDbSymbolTableRecord
100
AcDbLayerTableRecord
  2
DIMENSIONS
 70
0
 62
7
  6
CONTINUOUS
370
-3
390
F
  0
LAYER
  5
1FF
100
AcDbSymbolTableRecord
100
AcDbLayerTableRecord
  2
PARAMETERDIMENSIONS
 70
0
 62
7
  6
CONTINUOUS
370
-3
390
F
  0
LAYER
  5
200
100
AcDbSymbolTableRecord
100
AcDbLayerTableRecord
  2
PLANE
 70
0
 62
7
  6
CONTINUOUS
370
-3
390
F
  0
LAYER
  5
201
100
AcDbSymbolTableRecord
100
AcDbLayerTableRecord
  2
PORT_AREAS
 70
0
 62
7
  6
CONTINUOUS
370
-3
390
F
  0
LAYER
  5
202
100
AcDbSymbolTableRecord
100
AcDbLayerTableRecord
  2
SUNNBOMCOSMETIC
 70
0
 62
7
  6
CONTINUOUS
370
-3
390
F
  0
LAYER
  5
203
100
AcDbSymbolTableRecord
100
AcDbLayerTableRecord
  2
SUNNBOMSTAMPING
 70
0
 62
7
  6
CONTINUOUS
370
-3
390
F
  0
LAYER
  5
204
100
AcDbSymbolTableRecord
100
AcDbLayerTableRecord
  2
THREADS
 70
0
 62
7
  6
CONTINUOUS
370
-3
390
F
  0
ENDTAB
  0
TABLE
  2
STYLE
  5
3
100
AcDbSymbolTable
 70
1
  0
STYLE
  5
11
100
AcDbSymbolTableRecord
100
AcDbTextStyleTableRecord
  2
STANDARD
 70
0
 40
0.0
 41
0.8
 50
0.0
 71
0
 42
0.2
  3
txt
  4

  0
STYLE
  5
205
100
AcDbSymbolTableRecord
100
AcDbTextStyleTableRecord
  2
TEXTSTYLE_1
 70
0
 40
0.0
 41
0.8
 50
0.0
 71
0
 42
0.2
  3
gdt
  4

  0
ENDTAB
  0
TABLE
  2
VIEW
  5
6
100
AcDbSymbolTable
 70
0
  0
ENDTAB
  0
TABLE
  2
UCS
  5
7
100
AcDbSymbolTable
 70
0
  0
ENDTAB
  0
TABLE
  2
APPID
  5
9
100
AcDbSymbolTable
 70
1
  0
APPID
  5
206
100
AcDbSymbolTableRecord
100
AcDbRegAppTableRecord
  2
ACAD
 70
0
  0
ENDTAB
  0
TABLE
  2
BLOCK_RECORD
  5
1
100
AcDbSymbolTable
 70
0
  0
BLOCK_RECORD
  5
207
100
AcDbSymbolTableRecord
100
AcDbBlockTableRecord
  2
*Model_Space
  0
BLOCK_RECORD
  5
208
100
AcDbSymbolTableRecord
100
AcDbBlockTableRecord
  2
*Paper_Space
  0
BLOCK_RECORD
  5
209
100
AcDbSymbolTableRecord
100
AcDbBlockTableRecord
  2
SUN_FIRST_THIRD_ANGLE_BL0
  0
BLOCK_RECORD
  5
20A
100
AcDbSymbolTableRecord
100
AcDbBlockTableRecord
  2
*T1
  0
BLOCK_RECORD
  5
20B
100
AcDbSymbolTableRecord
100
AcDbBlockTableRecord
  2
*T2
  0
BLOCK_RECORD
  5
20C
100
AcDbSymbolTableRecord
100
AcDbBlockTableRecord
  2
*T3
  0
ENDTAB
  0
TABLE
  2
DIMSTYLE
  5
A
100
AcDbSymbolTable
 70
1
100
AcDbDimStyleTable
 71
0
  0
DIMSTYLE
105
20D
100
AcDbSymbolTableRecord
100
AcDbDimStyleTableRecord
  2
STANDARD
 70
0
  3

  4

 40
1.0
 41
0.1875
 42
0.0625
 43
0.38
 44
0.125
 45
0.0
 46
0.0
 47
0.001
 48
0.001
140
0.1
141
0.09
142
0.0
143
25.4
144
1.0
145
0.0
146
1.0
147
0.09
 71
0.0
 72
0.0
 73
1
 74
1
 75
0
 76
0
 77
0
 78
4
170
0
171
2
172
0
173
0
174
0
175
0
176
0
177
0
178
0
270
2
271
3
272
3
273
2
274
2
275
0
280
0
281
0
282
0
283
1
284
4
285
0
286
0
287
3
288
0
340
11
278
46
  0
ENDTAB
  0
ENDSEC
  0
SECTION
  2
BLOCKS
  0
BLOCK
  5
20
100
AcDbEntity
  8
0
100
AcDbBlockBegin
  2
*Model_Space
 70
0
 10
0.0
 20
0.0
 30
0.0
  3
*Model_Space
  1

  0
ENDBLK
  5
21
100
AcDbEntity
  8
0
100
AcDbBlockEnd
  0
BLOCK
  5
1C
100
AcDbEntity
  8
0
100
AcDbBlockBegin
  2
*Paper_Space
 70
0
 10
0.0
 20
0.0
 30
0.0
  3
*Paper_Space
  1

  0
ENDBLK
  5
1D
100
AcDbEntity
  8
0
100
AcDbBlockEnd
  0
BLOCK
  5
20E
100
AcDbEntity
  8
0
100
AcDbBlockBegin
 62
2
  6
CONTINUOUS
  2
SUN_FIRST_THIRD_ANGLE_BL0
 70
64
 10
20.4816717061
 20
1.2289683772
  3
SUN_FIRST_THIRD_ANGLE_BL0
  1

  0
TEXT
  5
20F
100
AcDbEntity
  8
0
100
AcDbText
 62
2
  6
CONTINUOUS
 10
19.4750896608
 20
1.4136269581
  7
STANDARD
 40
0.08
  1
FIRST ANGLE
 41
0.8
 72
0
100
AcDbText
  0
TEXT
  5
210
100
AcDbEntity
  8
0
100
AcDbText
 62
2
  6
CONTINUOUS
 10
20.7842537513
 20
1.4047600029
  7
STANDARD
 40
0.08
  1
THIRD ANGLE
 41
0.8
 72
0
100
AcDbText
  0
LINE
  5
211
100
AcDbEntity
  8
0
100
AcDbLine
 62
7
  6
CONTINUOUS
 10
19.4767170086
 20
1.1727031207
 11
19.6334271527
 21
1.1717972817
  0
LINE
  5
212
100
AcDbEntity
  8
0
100
AcDbLine
 62
7
  6
CONTINUOUS
 10
19.6596964832
 20
1.1717972817
 11
19.6950230232
 21
1.171593082
  0
LINE
  5
213
100
AcDbEntity
  8
0
100
AcDbLine
 62
7
  6
CONTINUOUS
 10
19.7194818561
 20
1.1708914427
 11
19.8852396156
 21
1.1699333054
  0
LINE
  5
214
100
AcDbEntity
  8
0
100
AcDbLine
 62
7
  6
CONTINUOUS
 10
19.4758111696
 20
1.2723454088
 11
19.88525039
 21
1.3511534004
  0
LINE
  5
215
100
AcDbEntity
  8
0
100
AcDbLine
 62
7
  6
CONTINUOUS
 10
19.88525039
 20
1.3511534004
 11
19.8831348489
 21
0.9851647912
  0
LINE
  5
216
100
AcDbEntity
  8
0
100
AcDbLine
 62
7
  6
CONTINUOUS
 10
19.8831348489
 20
0.9851647912
 11
19.4767170086
 21
1.0658141206
  0
LINE
  5
217
100
AcDbEntity
  8
0
100
AcDbLine
 62
7
  6
CONTINUOUS
 10
19.4767170086
 20
1.0658141206
 11
19.4779056764
 21
1.2714536432
  0
CIRCLE
  5
218
100
AcDbEntity
  8
0
100
AcDbCircle
 62
7
  6
CONTINUOUS
 10
20.2068232291
 20
1.1717972817
 40
0.175742101
  0
CIRCLE
  5
219
100
AcDbEntity
  8
0
100
AcDbCircle
 62
7
  6
CONTINUOUS
 10
20.2068232291
 20
1.1717972817
 40
0.1005522074
  0
LINE
  5
21A
100
AcDbEntity
  8
0
100
AcDbLine
 62
7
  6
CONTINUOUS
 10
20.2077290681
 20
1.3756110529
 11
20.2071171714
 21
1.2379342989
  0
LINE
  5
21B
100
AcDbEntity
  8
0
100
AcDbLine
 62
7
  6
CONTINUOUS
 10
20.2077290681
 20
1.2016899681
 11
20.2074674401
 21
1.1428236749
  0
LINE
  5
21C
100
AcDbEntity
  8
0
100
AcDbLine
 62
7
  6
CONTINUOUS
 10
20.208634907
 20
1.101141841
 11
20.2080230104
 21
0.963465087
  0
LINE
  5
21D
100
AcDbEntity
  8
0
100
AcDbLine
 62
7
  6
CONTINUOUS
 10
20.0066328138
 20
1.1745147986
 11
20.1443095678
 21
1.1739029019
  0
LINE
  5
21E
100
AcDbEntity
  8
0
100
AcDbLine
 62
7
  6
CONTINUOUS
 10
20.1832714155
 20
1.1727031207
 11
20.238153505
 21
1.172335442
  0
LINE
  5
21F
100
AcDbEntity
  8
0
100
AcDbLine
 62
7
  6
CONTINUOUS
 10
20.2756669918
 20
1.1717972817
 11
20.407916871
 21
1.1712095044
  0
CIRCLE
  5
220
100
AcDbEntity
  8
0
100
AcDbCircle
 62
7
  6
CONTINUOUS
 10
20.7509457401
 20
1.1693297793
 40
0.1722024983
  0
CIRCLE
  5
221
100
AcDbEntity
  8
0
100
AcDbCircle
 62
7
  6
CONTINUOUS
 10
20.7509457401
 20
1.1693297793
 40
0.0985164967
  0
LINE
  5
222
100
AcDbEntity
  8
0
100
AcDbLine
 62
7
  6
CONTINUOUS
 10
20.7169767782
 20
1.170462078
 11
20.7825395137
 21
1.1682766535
  0
LINE
  5
223
100
AcDbEntity
  8
0
100
AcDbLine
 62
7
  6
CONTINUOUS
 10
20.8177513651
 20
1.1693297793
 11
20.947965719
 21
1.1693297793
  0
LINE
  5
224
100
AcDbEntity
  8
0
100
AcDbLine
 62
7
  6
CONTINUOUS
 10
20.6875370113
 20
1.170462078
 11
20.5573226574
 21
1.170462078
  0
LINE
  5
225
100
AcDbEntity
  8
0
100
AcDbLine
 62
7
  6
CONTINUOUS
 10
20.7486811426
 20
1.1987695462
 11
20.7486811426
 21
1.1432869085
  0
LINE
  5
226
100
AcDbEntity
  8
0
100
AcDbLine
 62
7
  6
CONTINUOUS
 10
20.7498134414
 20
1.1059210505
 11
20.7498134414
 21
0.9757066966
  0
LINE
  5
227
100
AcDbEntity
  8
0
100
AcDbLine
 62
7
  6
CONTINUOUS
 10
20.7486811426
 20
1.2338708068
 11
20.7486811426
 21
1.3640851607
  0
LINE
  5
228
100
AcDbEntity
  8
0
100
AcDbLine
 62
7
  6
CONTINUOUS
 10
21.0702539817
 20
1.2701043662
 11
21.4790138229
 21
1.3448360823
  0
LINE
  5
229
100
AcDbEntity
  8
0
100
AcDbLine
 62
7
  6
CONTINUOUS
 10
21.4790138229
 20
1.3448360823
 11
21.4790138229
 21
0.9779712941
  0
LINE
  5
22A
100
AcDbEntity
  8
0
100
AcDbLine
 62
7
  6
CONTINUOUS
 10
21.4790138229
 20
0.9779712941
 11
21.069121683
 21
1.0617614
  0
LINE
  5
22B
100
AcDbEntity
  8
0
100
AcDbLine
 62
7
  6
CONTINUOUS
 10
21.0702539817
 20
1.2701043662
 11
21.069121683
 21
1.0617614
  0
LINE
  5
22C
100
AcDbEntity
  8
0
100
AcDbLine
 62
7
  6
CONTINUOUS
 10
21.4790138229
 20
1.1693297793
 11
21.3159628059
 21
1.1693297793
  0
LINE
  5
22D
100
AcDbEntity
  8
0
100
AcDbLine
 62
7
  6
CONTINUOUS
 10
21.2876553377
 20
1.1693297793
 11
21.2502894796
 21
1.1693297793
  0
LINE
  5
22E
100
AcDbEntity
  8
0
100
AcDbLine
 62
7
  6
CONTINUOUS
 10
21.2208497126
 20
1.1659328831
 11
21.0713862804
 21
1.1659328831
  0
LINE
  5
22F
100
AcDbEntity
  8
0
100
AcDbLine
 62
7
  6
CONTINUOUS
 10
20.4796138713
 20
1.5284908897
 11
20.4766766948
 21
0.9294458646
  0
ENDBLK
  5
230
100
AcDbEntity
  8
0
  6
BYBLOCK
 62
0
100
AcDbBlockEnd
  0
BLOCK
  5
231
100
AcDbEntity
  8
0
100
AcDbBlockBegin
  2
*T1
 70
1
 10
0.0
 20
0.0
  3
*T1
  1

  0
LINE
  5
232
100
AcDbEntity
  8
0
100
AcDbLine
 62
2
  6
CONTINUOUS
 10
9.275
 20
0.0
 11
-0.0
 21
0.0
  0
LINE
  5
233
100
AcDbEntity
  8
0
100
AcDbLine
 62
2
  6
CONTINUOUS
 10
9.275
 20
0.0
 11
9.275
 21
1.25
  0
LINE
  5
234
100
AcDbEntity
  8
0
100
AcDbLine
 62
2
  6
CONTINUOUS
 10
9.275
 20
0.625
 11
-0.0
 21
0.625
  0
LINE
  5
235
100
AcDbEntity
  8
0
100
AcDbLine
 62
2
  6
CONTINUOUS
 10
9.275
 20
1.25
 11
-0.0
 21
1.25
  0
LINE
  5
236
100
AcDbEntity
  8
0
100
AcDbLine
 62
2
  6
CONTINUOUS
 10
6.8
 20
0.0
 11
6.8
 21
1.25
  0
LINE
  5
237
100
AcDbEntity
  8
0
100
AcDbLine
 62
2
  6
CONTINUOUS
 10
6.4
 20
0.0
 11
6.4
 21
0.625
  0
LINE
  5
238
100
AcDbEntity
  8
0
100
AcDbLine
 62
2
  6
CONTINUOUS
 10
5.9
 20
0.0
 11
5.9
 21
0.625
  0
LINE
  5
239
100
AcDbEntity
  8
0
100
AcDbLine
 62
2
  6
CONTINUOUS
 10
5.2
 20
0.0
 11
5.2
 21
0.625
  0
LINE
  5
23A
100
AcDbEntity
  8
0
100
AcDbLine
 62
2
  6
CONTINUOUS
 10
4.1
 20
0.0
 11
4.1
 21
1.25
  0
LINE
  5
23B
100
AcDbEntity
  8
0
100
AcDbLine
 62
2
  6
CONTINUOUS
 10
-0.0
 20
0.0
 11
-0.0
 21
1.25
  0
MTEXT
  5
23C
100
AcDbEntity
  8
0
100
AcDbMText
 62
2
  6
CONTINUOUS
  7
STANDARD
 71
2
 72
1
 10
6.6
 20
0.325
 30
0.0
 11
1.0
 21
0.0
 31
0.0
 44
0.9
  1
2
 40
0.125
 41
0.2
  0
MTEXT
  5
23D
100
AcDbEntity
  8
0
100
AcDbMText
 62
2
  6
CONTINUOUS
  7
STANDARD
 71
2
 72
1
 10
6.15
 20
0.325
 30
0.0
 11
1.0
 21
0.0
 31
0.0
 44
0.9
  1
C
 40
0.125
 41
0.2
  0
MTEXT
  5
23E
100
AcDbEntity
  8
0
100
AcDbMText
 62
2
  6
CONTINUOUS
  7
STANDARD
 71
2
 72
1
 10
5.55
 20
0.325
 30
0.0
 11
1.0
 21
0.0
 31
0.0
 44
0.9
  1
2.000
 40
0.125
 41
1.0
  0
MTEXT
  5
23F
100
AcDbEntity
  8
0
100
AcDbMText
 62
2
  6
CONTINUOUS
  7
STANDARD
 71
2
 72
1
 10
4.65
 20
0.325
 30
0.0
 11
1.0
 21
0.0
 31
0.0
 44
0.9
  1
Aug-01-19
 40
0.125
 41
1.8
  0
MTEXT
  5
240
100
AcDbEntity
  8
0
100
AcDbMText
 62
2
  6
CONTINUOUS
  7
STANDARD
 71
2
 72
1
 10
2.05
 20
0.4625
 30
0.0
 11
1.0
 21
0.0
 31
0.0
 44
0.9
  1
Sandwich ISO 03\PTap in manifold - A and B
 40
0.125
 41
5.0
  0
MTEXT
  5
241
100
AcDbEntity
  8
0
100
AcDbMText
 62
2
  6
CONTINUOUS
  7
STANDARD
 71
1
 72
1
 10
6.45
 20
0.5625
 30
0.0
 11
1.0
 21
0.0
 31
0.0
 44
0.9
  1
SHEET
 40
0.06
 41
0.48
  0
MTEXT
  5
242
100
AcDbEntity
  8
0
100
AcDbMText
 62
2
  6
CONTINUOUS
  7
STANDARD
 71
1
 72
1
 10
5.95
 20
0.5625
 30
0.0
 11
1.0
 21
0.0
 31
0.0
 44
0.9
  1
DWG SIZE
 40
0.06
 41
0.768
  0
MTEXT
  5
243
100
AcDbEntity
  8
0
100
AcDbMText
 62
2
  6
CONTINUOUS
  7
STANDARD
 71
1
 72
1
 10
5.25
 20
0.5625
 30
0.0
 11
1.0
 21
0.0
 31
0.0
 44
0.9
  1
SCALE
 40
0.06
 41
0.48
  0
MTEXT
  5
244
100
AcDbEntity
  8
0
100
AcDbMText
 62
2
  6
CONTINUOUS
  7
STANDARD
 71
1
 72
1
 10
4.15
 20
0.5625
 30
0.0
 11
1.0
 21
0.0
 31
0.0
 44
0.9
  1
DATE
 40
0.06
 41
0.384
  0
MTEXT
  5
245
100
AcDbEntity
  8
0
100
AcDbMText
 62
2
  6
CONTINUOUS
  7
STANDARD
 71
1
 72
1
 10
0.05
 20
0.5625
 30
0.0
 11
1.0
 21
0.0
 31
0.0
 44
0.9
  1
DESCRIPTION
 40
0.06
 41
1.056
  0
MTEXT
  5
246
100
AcDbEntity
  8
0
100
AcDbMText
 62
2
  6
CONTINUOUS
  7
STANDARD
 71
2
 72
1
 10
5.45
 20
1.0375
 30
0.0
 11
1.0
 21
0.0
 31
0.0
 44
0.9
  1
ALL DIMENSIONS IN INCH\PVIEWS ARE THIRD ANGLE
 40
0.12
 41
4.224
  0
MTEXT
  5
247
100
AcDbEntity
  8
0
100
AcDbMText
 62
2
  6
CONTINUOUS
  7
STANDARD
 71
2
 72
1
 10
2.05
 20
0.95
 30
0.0
 11
1.0
 21
0.0
 31
0.0
 44
0.9
  1
ZVB
 40
0.125
 41
0.6
  0
MTEXT
  5
248
100
AcDbEntity
  8
0
100
AcDbMText
 62
2
  6
CONTINUOUS
  7
STANDARD
 71
1
 72
1
 10
0.05
 20
1.1875
 30
0.0
 11
1.0
 21
0.0
 31
0.0
 44
0.9
  1
MODEL
 40
0.06
 41
0.48
  0
ENDBLK
  5
249
100
AcDbEntity
  8
0
  6
BYBLOCK
 62
0
100
AcDbBlockEnd
  0
BLOCK
  5
24A
100
AcDbEntity
  8
0
100
AcDbBlockBegin
  2
*T2
 70
1
 10
0.0
 20
0.0
  3
*T2
  1

  0
LINE
  5
24B
100
AcDbEntity
  8
0
100
AcDbLine
 62
2
  6
CONTINUOUS
 10
0.0
 20
0.0
 11
9.055
 21
0.0
  0
LINE
  5
24C
100
AcDbEntity
  8
0
100
AcDbLine
 62
2
  6
CONTINUOUS
 10
0.0
 20
0.0
 11
0.0
 21
-2.344
  0
LINE
  5
24D
100
AcDbEntity
  8
0
100
AcDbLine
 62
2
  6
CONTINUOUS
 10
0.0
 20
-0.344
 11
9.055
 21
-0.344
  0
LINE
  5
24E
100
AcDbEntity
  8
0
100
AcDbLine
 62
2
  6
CONTINUOUS
 10
0.0
 20
-0.594
 11
9.055
 21
-0.594
  0
LINE
  5
24F
100
AcDbEntity
  8
0
100
AcDbLine
 62
2
  6
CONTINUOUS
 10
0.0
 20
-0.844
 11
9.055
 21
-0.844
  0
LINE
  5
250
100
AcDbEntity
  8
0
100
AcDbLine
 62
2
  6
CONTINUOUS
 10
0.0
 20
-1.094
 11
9.055
 21
-1.094
  0
LINE
  5
251
100
AcDbEntity
  8
0
100
AcDbLine
 62
2
  6
CONTINUOUS
 10
0.0
 20
-1.344
 11
9.055
 21
-1.344
  0
LINE
  5
252
100
AcDbEntity
  8
0
100
AcDbLine
 62
2
  6
CONTINUOUS
 10
0.0
 20
-1.594
 11
9.055
 21
-1.594
  0
LINE
  5
253
100
AcDbEntity
  8
0
100
AcDbLine
 62
2
  6
CONTINUOUS
 10
0.0
 20
-1.844
 11
9.055
 21
-1.844
  0
LINE
  5
254
100
AcDbEntity
  8
0
100
AcDbLine
 62
2
  6
CONTINUOUS
 10
0.0
 20
-2.094
 11
9.055
 21
-2.094
  0
LINE
  5
255
100
AcDbEntity
  8
0
100
AcDbLine
 62
2
  6
CONTINUOUS
 10
0.0
 20
-2.344
 11
9.055
 21
-2.344
  0
LINE
  5
256
100
AcDbEntity
  8
0
100
AcDbLine
 62
2
  6
CONTINUOUS
 10
3.055
 20
0.0
 11
3.055
 21
-2.344
  0
LINE
  5
257
100
AcDbEntity
  8
0
100
AcDbLine
 62
2
  6
CONTINUOUS
 10
9.055
 20
0.0
 11
9.055
 21
-2.344
  0
MTEXT
  5
258
100
AcDbEntity
  8
0
100
AcDbMText
 62
2
  6
CONTINUOUS
  7
STANDARD
 71
2
 72
1
 10
1.5275
 20
-0.0995
 30
0.0
 11
1.0
 21
0.0
 31
0.0
 44
0.9
  1
Technical Data
 40
0.145
 41
3.248
  0
MTEXT
  5
259
100
AcDbEntity
  8
0
100
AcDbMText
 62
2
  6
CONTINUOUS
  7
STANDARD
 71
2
 72
1
 10
4.555
 20
-0.0995
 30
0.0
 11
1.0
 21
0.0
 31
0.0
 44
0.9
  1
U.S. Units
 40
0.145
 41
2.32
  0
MTEXT
  5
25A
100
AcDbEntity
  8
0
100
AcDbMText
 62
2
  6
CONTINUOUS
  7
STANDARD
 71
2
 72
1
 10
7.555
 20
-0.0995
 30
0.0
 11
1.0
 21
0.0
 31
0.0
 44
0.9
  1
Metric Units
 40
0.145
 41
2.784
  0
MTEXT
  5
25B
100
AcDbEntity
  8
0
100
AcDbMText
 62
2
  6
CONTINUOUS
  7
STANDARD
 71
2
 72
1
 10
1.5275
 20
-0.4065
 30
0.0
 11
1.0
 21
0.0
 31
0.0
 44
0.9
  1
Body Features
 40
0.125
 41
2.6
  0
MTEXT
  5
25C
100
AcDbEntity
  8
0
100
AcDbMText
 62
2
  6
CONTINUOUS
  7
STANDARD
 71
2
 72
1
 10
6.055
 20
-0.4065
 30
0.0
 11
1.0
 21
0.0
 31
0.0
 44
0.9
  1
Tap in manifold - A and B
 40
0.125
 41
5.0
  0
MTEXT
  5
25D
100
AcDbEntity
  8
0
100
AcDbMText
 62
2
  6
CONTINUOUS
  7
STANDARD
 71
2
 72
1
 10
1.5275
 20
-0.6565
 30
0.0
 11
1.0
 21
0.0
 31
0.0
 44
0.9
  1
Body Type
 40
0.125
 41
1.8
  0
MTEXT
  5
25E
100
AcDbEntity
  8
0
100
AcDbMText
 62
2
  6
CONTINUOUS
  7
STANDARD
 71
2
 72
1
 10
6.055
 20
-0.6565
 30
0.0
 11
1.0
 21
0.0
 31
0.0
 44
0.9
  1
Sandwich
 40
0.125
 41
1.6
  0
MTEXT
  5
25F
100
AcDbEntity
  8
0
100
AcDbMText
 62
2
  6
CONTINUOUS
  7
STANDARD
 71
2
 72
1
 10
1.5275
 20
-0.9065
 30
0.0
 11
1.0
 21
0.0
 31
0.0
 44
0.9
  1
Interface
 40
0.125
 41
1.8
  0
MTEXT
  5
260
100
AcDbEntity
  8
0
100
AcDbMText
 62
2
  6
CONTINUOUS
  7
STANDARD
 71
2
 72
1
 10
6.055
 20
-0.9065
 30
0.0
 11
1.0
 21
0.0
 31
0.0
 44
0.9
  1
ISO 03
 40
0.125
 41
1.2
  0
MTEXT
  5
261
100
AcDbEntity
  8
0
100
AcDbMText
 62
2
  6
CONTINUOUS
  7
STANDARD
 71
2
 72
1
 10
1.5275
 20
-1.1565
 30
0.0
 11
1.0
 21
0.0
 31
0.0
 44
0.9
  1
Stack Height
 40
0.125
 41
2.4
  0
MTEXT
  5
262
100
AcDbEntity
  8
0
100
AcDbMText
 62
2
  6
CONTINUOUS
  7
STANDARD
 71
2
 72
1
 10
4.555
 20
-1.1565
 30
0.0
 11
1.0
 21
0.0
 31
0.0
 44
0.9
  1
.99 in.
 40
0.125
 41
1.4
  0
MTEXT
  5
263
100
AcDbEntity
  8
0
100
AcDbMText
 62
2
  6
CONTINUOUS
  7
STANDARD
 71
2
 72
1
 10
7.555
 20
-1.1565
 30
0.0
 11
1.0
 21
0.0
 31
0.0
 44
0.9
  1
25 mm
 40
0.125
 41
1.0
  0
MTEXT
  5
264
100
AcDbEntity
  8
0
100
AcDbMText
 62
2
  6
CONTINUOUS
  7
STANDARD
 71
2
 72
1
 10
1.5275
 20
-1.4065
 30
0.0
 11
1.0
 21
0.0
 31
0.0
 44
0.9
  1
Weight
 40
0.125
 41
1.2
  0
MTEXT
  5
265
100
AcDbEntity
  8
0
100
AcDbMText
 62
2
  6
CONTINUOUS
  7
STANDARD
 71
2
 72
1
 10
4.555
 20
-1.4065
 30
0.0
 11
1.0
 21
0.0
 31
0.0
 44
0.9
  1
0.336 lb.
 40
0.125
 41
1.8
  0
MTEXT
  5
266
100
AcDbEntity
  8
0
100
AcDbMText
 62
2
  6
CONTINUOUS
  7
STANDARD
 71
2
 72
1
 10
7.555
 20
-1.4065
 30
0.0
 11
1.0
 21
0.0
 31
0.0
 44
0.9
  1
0,152 kg.
 40
0.125
 41
1.8
  0
MTEXT
  5
267
100
AcDbEntity
  8
0
100
AcDbMText
 62
2
  6
CONTINUOUS
  7
STANDARD
 71
2
 72
1
 10
1.5275
 20
-1.6565
 30
0.0
 11
1.0
 21
0.0
 31
0.0
 44
0.9
  1
Mounting Hole Diameter
 40
0.125
 41
4.4
  0
MTEXT
  5
268
100
AcDbEntity
  8
0
100
AcDbMText
 62
2
  6
CONTINUOUS
  7
STANDARD
 71
2
 72
1
 10
4.555
 20
-1.6565
 30
0.0
 11
1.0
 21
0.0
 31
0.0
 44
0.9
  1
.20 in.
 40
0.125
 41
1.4
  0
MTEXT
  5
269
100
AcDbEntity
  8
0
100
AcDbMText
 62
2
  6
CONTINUOUS
  7
STANDARD
 71
2
 72
1
 10
7.555
 20
-1.6565
 30
0.0
 11
1.0
 21
0.0
 31
0.0
 44
0.9
  1
5,2 mm
 40
0.125
 41
1.2
  0
MTEXT
  5
26A
100
AcDbEntity
  8
0
100
AcDbMText
 62
2
  6
CONTINUOUS
  7
STANDARD
 71
2
 72
1
 10
1.5275
 20
-1.9065
 30
0.0
 11
1.0
 21
0.0
 31
0.0
 44
0.9
  1
Mounting Hole Depth
 40
0.125
 41
3.8
  0
MTEXT
  5
26B
100
AcDbEntity
  8
0
100
AcDbMText
 62
2
  6
CONTINUOUS
  7
STANDARD
 71
2
 72
1
 10
6.055
 20
-1.9065
 30
0.0
 11
1.0
 21
0.0
 31
0.0
 44
0.9
  1
Through
 40
0.125
 41
1.4
  0
MTEXT
  5
26C
100
AcDbEntity
  8
0
100
AcDbMText
 62
2
  6
CONTINUOUS
  7
STANDARD
 71
2
 72
1
 10
1.5275
 20
-2.1565
 30
0.0
 11
1.0
 21
0.0
 31
0.0
 44
0.9
  1
Mounting Hole Quantity
 40
0.125
 41
4.4
  0
MTEXT
  5
26D
100
AcDbEntity
  8
0
100
AcDbMText
 62
2
  6
CONTINUOUS
  7
STANDARD
 71
2
 72
1
 10
6.055
 20
-2.1565
 30
0.0
 11
1.0
 21
0.0
 31
0.0
 44
0.9
  1
4
 40
0.125
 41
0.2
  0
ENDBLK
  5
26E
100
AcDbEntity
  8
0
  6
BYBLOCK
 62
0
100
AcDbBlockEnd
  0
BLOCK
  5
26F
100
AcDbEntity
  8
0
100
AcDbBlockBegin
  2
*T3
 70
1
 10
0.0
 20
0.0
  3
*T3
  1

  0
LINE
  5
270
100
AcDbEntity
  8
0
100
AcDbLine
 62
2
  6
CONTINUOUS
 10
0.0
 20
0.0
 11
4.6
 21
0.0
  0
LINE
  5
271
100
AcDbEntity
  8
0
100
AcDbLine
 62
2
  6
CONTINUOUS
 10
0.0
 20
0.0
 11
0.0
 21
-0.93775
  0
LINE
  5
272
100
AcDbEntity
  8
0
100
AcDbLine
 62
2
  6
CONTINUOUS
 10
0.0
 20
-0.34375
 11
4.6
 21
-0.34375
  0
LINE
  5
273
100
AcDbEntity
  8
0
100
AcDbLine
 62
2
  6
CONTINUOUS
 10
0.0
 20
-0.68775
 11
4.6
 21
-0.68775
  0
LINE
  5
274
100
AcDbEntity
  8
0
100
AcDbLine
 62
2
  6
CONTINUOUS
 10
0.0
 20
-0.93775
 11
4.6
 21
-0.93775
  0
LINE
  5
275
100
AcDbEntity
  8
0
100
AcDbLine
 62
2
  6
CONTINUOUS
 10
1.3
 20
-0.34375
 11
1.3
 21
-0.93775
  0
LINE
  5
276
100
AcDbEntity
  8
0
100
AcDbLine
 62
2
  6
CONTINUOUS
 10
3.3
 20
-0.34375
 11
3.3
 21
-0.93775
  0
LINE
  5
277
100
AcDbEntity
  8
0
100
AcDbLine
 62
2
  6
CONTINUOUS
 10
4.6
 20
0.0
 11
4.6
 21
-0.93775
  0
MTEXT
  5
278
100
AcDbEntity
  8
0
100
AcDbMText
 62
2
  6
CONTINUOUS
  7
STANDARD
 71
2
 72
1
 10
2.3
 20
-0.099375
 30
0.0
 11
1.0
 21
0.0
 31
0.0
 44
0.9
  1
Port Headings
 40
0.145
 41
3.016
  0
MTEXT
  5
279
100
AcDbEntity
  8
0
100
AcDbMText
 62
2
  6
CONTINUOUS
  7
STANDARD
 71
2
 72
1
 10
0.65
 20
-0.44325
 30
0.0
 11
1.0
 21
0.0
 31
0.0
 44
0.9
  1
Product
 40
0.145
 41
1.624
  0
MTEXT
  5
27A
100
AcDbEntity
  8
0
100
AcDbMText
 62
2
  6
CONTINUOUS
  7
STANDARD
 71
2
 72
1
 10
2.3
 20
-0.44325
 30
0.0
 11
1.0
 21
0.0
 31
0.0
 44
0.9
  1
Port
 40
0.145
 41
0.928
  0
MTEXT
  5
27B
100
AcDbEntity
  8
0
100
AcDbMText
 62
2
  6
CONTINUOUS
  7
STANDARD
 71
2
 72
1
 10
3.95
 20
-0.44325
 30
0.0
 11
1.0
 21
0.0
 31
0.0
 44
0.9
  1
Size
 40
0.145
 41
0.928
  0
MTEXT
  5
27C
100
AcDbEntity
  8
0
100
AcDbMText
 62
2
  6
CONTINUOUS
  7
STANDARD
 71
2
 72
1
 10
0.65
 20
-0.75025
 30
0.0
 11
1.0
 21
0.0
 31
0.0
 44
0.9
  1
ZVB
 40
0.125
 41
0.6
  0
MTEXT
  5
27D
100
AcDbEntity
  8
0
100
AcDbMText
 62
2
  6
CONTINUOUS
  7
STANDARD
 71
2
 72
1
 10
2.3
 20
-0.75025
 30
0.0
 11
1.0
 21
0.0
 31
0.0
 44
0.9
  1
Ports A & B
 40
0.125
 41
2.2
  0
MTEXT
  5
27E
100
AcDbEntity
  8
0
100
AcDbMText
 62
2
  6
CONTINUOUS
  7
STANDARD
 71
2
 72
1
 10
3.95
 20
-0.75025
 30
0.0
 11
1.0
 21
0.0
 31
0.0
 44
0.9
  1
1/4" BSPP
 40
0.125
 41
1.8
  0
ENDBLK
  5
27F
100
AcDbEntity
  8
0
  6
BYBLOCK
 62
0
100
AcDbBlockEnd
  0
ENDSEC
  0
SECTION
  2
ENTITIES
  0
IMAGE
  5
280
100
AcDbEntity
  8
0
100
AcDbRasterImage
 62
7
  6
CONTINUOUS
 10
19.2297077316
 20
0.3094318264
 30
0.0
 11
0.0066666667
 21
0.0
 31
0.0
 12
0.0
 22
0.0066666667
 32
0.0
 13
369.0
 23
92.0
340
       388
 70
9
280
0
281
50
282
50
283
0
360
       382
 71
1
 91
2
 14
-0.5
 24
-0.5
 14
368.5
 24
91.5
  0
INSERT
  5
281
100
AcDbEntity
  8
0
100
AcDbBlockReference
 62
2
  6
CONTINUOUS
  2
SUN_FIRST_THIRD_ANGLE_BL0
 10
20.4816717061
 20
1.2289683772
  0
ACAD_TABLE
  5
282
100
AcDbEntity
  8
0
 62
2
  6
CONTINUOUS
100
AcDbBlockReference
  2
*T1
 10
12.42375
 20
0.30125
 30
0.0
100
AcDbTable
342
       38A
343
20A
 11
1.0
 21
0.0
 31
0.0
 90
6
 91
4
 92
6
 93
20
 94
0
 95
0
 96
0
 70
1
 41
0.0
141
0.525
141
0.1
141
0.525
141
0.1
142
4.1
142
1.1
142
0.7
142
0.5
142
0.4
142
2.475
171
1
172
0
173
0
174
0
175
1
176
1
 91
33
178
0
145
0.0
301
CELL_VALUE
 90
4
  1
Sandwich ISO 03\PTap in manifold - A and B
304
ACVALUE_END
170
2
140
0.125
171
1
172
0
173
0
174
0
175
1
176
1
 91
33
178
0
145
0.0
301
CELL_VALUE
 90
4
  1
Aug-01-19
304
ACVALUE_END
170
5
140
0.125
171
1
172
0
173
0
174
0
175
1
176
1
 91
33
178
0
145
0.0
301
CELL_VALUE
 90
4
  1
2.000
304
ACVALUE_END
170
5
140
0.125
171
1
172
0
173
0
174
0
175
1
176
1
 91
33
178
0
145
0.0
301
CELL_VALUE
 90
4
  1
C
304
ACVALUE_END
170
5
140
0.125
171
1
172
0
173
0
174
0
175
1
176
1
 91
33
178
0
145
0.0
301
CELL_VALUE
 90
4
  1
2
304
ACVALUE_END
170
5
140
0.125
171
1
172
0
173
0
174
0
175
1
176
1
 91
33
178
0
145
0.0
301
CELL_VALUE
 90
4
  1
 
304
ACVALUE_END
170
1
140
0.125
171
1
172
0
173
0
174
0
175
1
176
1
 91
33
178
0
145
0.0
301
CELL_VALUE
 90
4
  1
DESCRIPTION
304
ACVALUE_END
170
1
140
0.06
171
1
172
0
173
0
174
0
175
1
176
1
 91
33
178
0
145
0.0
301
CELL_VALUE
 90
4
  1
DATE
304
ACVALUE_END
170
1
140
0.06
171
1
172
0
173
0
174
0
175
1
176
1
 91
33
178
0
145
0.0
301
CELL_VALUE
 90
4
  1
SCALE
304
ACVALUE_END
170
1
140
0.06
171
1
172
0
173
0
174
0
175
1
176
1
 91
33
178
0
145
0.0
301
CELL_VALUE
 90
4
  1
DWG SIZE
304
ACVALUE_END
170
1
140
0.06
171
1
172
0
173
0
174
0
175
1
176
1
 91
33
178
0
145
0.0
301
CELL_VALUE
 90
4
  1
SHEET
304
ACVALUE_END
170
1
140
0.06
171
1
172
0
173
0
174
0
175
1
176
1
 91
33
178
0
145
0.0
301
CELL_VALUE
 90
4
  1
 
304
ACVALUE_END
170
1
140
0.125
171
1
172
0
173
0
174
0
175
1
176
1
 91
33
178
0
145
0.0
301
CELL_VALUE
 90
4
  1
ZVB
304
ACVALUE_END
170
5
140
0.125
171
1
172
0
173
0
174
0
175
4
176
1
 91
33
178
0
145
0.0
301
CELL_VALUE
 90
4
  1
ALL DIMENSIONS IN INCH\PVIEWS ARE THIRD ANGLE
304
ACVALUE_END
170
5
140
0.12
171
1
172
0
173
1
174
0
175
1
176
1
 91
1
178
0
145
0.0
170
1
171
1
172
0
173
1
174
0
175
1
176
1
 91
1
178
0
145
0.0
170
1
171
1
172
0
173
1
174
0
175
1
176
1
 91
1
178
0
145
0.0
170
5
171
1
172
0
173
0
174
0
175
1
176
1
 91
33
178
0
145
0.0
301
CELL_VALUE
 90
4
  1
 
304
ACVALUE_END
170
1
140
0.125
171
1
172
0
173
0
174
0
175
1
176
1
 91
33
178
0
145
0.0
301
CELL_VALUE
 90
4
  1
MODEL
304
ACVALUE_END
170
1
140
0.06
171
1
172
0
173
0
174
0
175
1
176
1
 91
33
178
0
145
0.0
301
CELL_VALUE
 90
4
  1
 
304
ACVALUE_END
170
1
140
0.125
171
1
172
0
173
0
174
0
175
1
176
1
 91
33
178
0
145
0.0
301
CELL_VALUE
 90
4
  1
 
304
ACVALUE_END
170
1
140
0.125
171
1
172
0
173
0
174
0
175
1
176
1
 91
33
178
0
145
0.0
301
CELL_VALUE
 90
4
  1
 
304
ACVALUE_END
170
1
140
0.125
171
1
172
0
173
0
174
0
175
1
176
1
 91
33
178
0
145
0.0
301
CELL_VALUE
 90
4
  1
 
304
ACVALUE_END
170
1
140
0.125
171
1
172
0
173
0
174
0
175
1
176
1
 91
33
178
0
145
0.0
301
CELL_VALUE
 90
4
  1
 
304
ACVALUE_END
170
1
140
0.125
  0
ACAD_TABLE
  5
283
100
AcDbEntity
  8
0
 62
2
  6
CONTINUOUS
100
AcDbBlockReference
  2
*T2
 10
12.4237499994
 20
16.47875
 30
0.0
100
AcDbTable
342
       389
343
20B
 11
1.0
 21
0.0
 31
0.0
 90
22
 91
9
 92
3
 93
16
 94
0
 95
0
 96
0
 41
0.028
141
0.344
141
0.25
141
0.25
141
0.25
141
0.25
141
0.25
141
0.25
141
0.25
141
0.25
142
3.055
142
3.0
142
3.0
171
1
172
0
173
0
174
0
175
1
176
1
 91
33
178
0
145
0.0
301
CELL_VALUE
 90
4
  1
Technical Data
304
ACVALUE_END
170
5
140
0.145
171
1
172
0
173
0
174
0
175
1
176
1
 91
33
178
0
145
0.0
301
CELL_VALUE
 90
4
  1
U.S. Units
304
ACVALUE_END
170
5
140
0.145
171
1
172
0
173
0
174
0
175
1
176
1
 91
33
178
0
145
0.0
301
CELL_VALUE
 90
4
  1
Metric Units
304
ACVALUE_END
170
5
140
0.145
171
1
172
0
173
0
174
0
175
1
176
1
 91
33
178
0
145
0.0
301
CELL_VALUE
 90
4
  1
Body Features
304
ACVALUE_END
170
5
140
0.125
171
1
172
0
173
0
174
0
175
2
176
1
 91
33
178
0
145
0.0
301
CELL_VALUE
 90
4
  1
Tap in manifold - A and B
304
ACVALUE_END
170
5
140
0.125
171
1
172
0
173
1
174
0
175
1
176
1
 91
1
178
0
145
0.0
170
1
171
1
172
0
173
0
174
0
175
1
176
1
 91
33
178
0
145
0.0
301
CELL_VALUE
 90
4
  1
Body Type
304
ACVALUE_END
170
5
140
0.125
171
1
172
0
173
0
174
0
175
2
176
1
 91
33
178
0
145
0.0
301
CELL_VALUE
 90
4
  1
Sandwich
304
ACVALUE_END
170
5
140
0.125
171
1
172
0
173
1
174
0
175
1
176
1
 91
1
178
0
145
0.0
170
1
171
1
172
0
173
0
174
0
175
1
176
1
 91
33
178
0
145
0.0
301
CELL_VALUE
 90
4
  1
Interface
304
ACVALUE_END
170
5
140
0.125
171
1
172
0
173
0
174
0
175
2
176
1
 91
33
178
0
145
0.0
301
CELL_VALUE
 90
4
  1
ISO 03
304
ACVALUE_END
170
5
140
0.125
171
1
172
0
173
1
174
0
175
1
176
1
 91
1
178
0
145
0.0
170
1
171
1
172
0
173
0
174
0
175
1
176
1
 91
33
178
0
145
0.0
301
CELL_VALUE
 90
4
  1
Stack Height
304
ACVALUE_END
170
5
140
0.125
171
1
172
0
173
0
174
0
175
1
176
1
 91
33
178
0
145
0.0
301
CELL_VALUE
 90
4
  1
.99 in.
304
ACVALUE_END
170
5
140
0.125
171
1
172
0
173
0
174
0
175
1
176
1
 91
33
178
0
145
0.0
301
CELL_VALUE
 90
4
  1
25 mm
304
ACVALUE_END
170
5
140
0.125
171
1
172
0
173
0
174
0
175
1
176
1
 91
33
178
0
145
0.0
301
CELL_VALUE
 90
4
  1
Weight
304
ACVALUE_END
170
5
140
0.125
171
1
172
0
173
0
174
0
175
1
176
1
 91
33
178
0
145
0.0
301
CELL_VALUE
 90
4
  1
0.336 lb.
304
ACVALUE_END
170
5
140
0.125
171
1
172
0
173
0
174
0
175
1
176
1
 91
33
178
0
145
0.0
301
CELL_VALUE
 90
4
  1
0,152 kg.
304
ACVALUE_END
170
5
140
0.125
171
1
172
0
173
0
174
0
175
1
176
1
 91
33
178
0
145
0.0
301
CELL_VALUE
 90
4
  1
Mounting Hole Diameter
304
ACVALUE_END
170
5
140
0.125
171
1
172
0
173
0
174
0
175
1
176
1
 91
33
178
0
145
0.0
301
CELL_VALUE
 90
4
  1
.20 in.
304
ACVALUE_END
170
5
140
0.125
171
1
172
0
173
0
174
0
175
1
176
1
 91
33
178
0
145
0.0
301
CELL_VALUE
 90
4
  1
5,2 mm
304
ACVALUE_END
170
5
140
0.125
171
1
172
0
173
0
174
0
175
1
176
1
 91
33
178
0
145
0.0
301
CELL_VALUE
 90
4
  1
Mounting Hole Depth
304
ACVALUE_END
170
5
140
0.125
171
1
172
0
173
0
174
0
175
2
176
1
 91
33
178
0
145
0.0
301
CELL_VALUE
 90
4
  1
Through
304
ACVALUE_END
170
5
140
0.125
171
1
172
0
173
1
174
0
175
1
176
1
 91
1
178
0
145
0.0
170
1
171
1
172
0
173
0
174
0
175
1
176
1
 91
33
178
0
145
0.0
301
CELL_VALUE
 90
4
  1
Mounting Hole Quantity
304
ACVALUE_END
170
5
140
0.125
171
1
172
0
173
0
174
0
175
2
176
1
 91
33
178
0
145
0.0
301
CELL_VALUE
 90
4
  1
4
304
ACVALUE_END
170
5
140
0.125
171
1
172
0
173
1
174
0
175
1
176
1
 91
1
178
0
145
0.0
170
1
  0
ACAD_TABLE
  5
284
100
AcDbEntity
  8
0
 62
2
  6
CONTINUOUS
100
AcDbBlockReference
  2
*T3
 10
0.52125
 20
1.459
 30
0.0
100
AcDbTable
342
       389
343
20C
 11
1.0
 21
0.0
 31
0.0
 90
22
 91
3
 92
3
 93
16
 94
0
 95
0
 96
0
 41
0.05
141
0.34375
141
0.344
141
0.25
142
1.3
142
2.0
142
1.3
171
1
172
0
173
0
174
0
175
3
176
1
 91
33
178
0
145
0.0
301
CELL_VALUE
 90
4
  1
Port Headings
304
ACVALUE_END
170
5
140
0.145
171
1
172
0
173
1
174
0
175
1
176
1
 91
1
178
0
145
0.0
170
1
171
1
172
0
173
1
174
0
175
1
176
1
 91
1
178
0
145
0.0
170
1
171
1
172
0
173
0
174
0
175
1
176
1
 91
33
178
0
145
0.0
301
CELL_VALUE
 90
4
  1
Product
304
ACVALUE_END
170
5
140
0.145
171
1
172
0
173
0
174
0
175
1
176
1
 91
33
178
0
145
0.0
301
CELL_VALUE
 90
4
  1
Port
304
ACVALUE_END
170
5
140
0.145
171
1
172
0
173
0
174
0
175
1
176
1
 91
33
178
0
145
0.0
301
CELL_VALUE
 90
4
  1
Size
304
ACVALUE_END
170
5
140
0.145
171
1
172
0
173
0
174
0
175
1
176
1
 91
33
178
0
145
0.0
301
CELL_VALUE
 90
4
  1
ZVB
304
ACVALUE_END
170
5
140
0.125
171
1
172
0
173
0
174
0
175
1
176
1
 91
33
178
0
145
0.0
301
CELL_VALUE
 90
4
  1
Ports A & B
304
ACVALUE_END
170
5
140
0.125
171
1
172
0
173
0
174
0
175
1
176
1
 91
33
178
0
145
0.0
301
CELL_VALUE
 90
4
  1
1/4" BSPP
304
ACVALUE_END
170
5
140
0.125
  0
MTEXT
  5
285
100
AcDbEntity
  8
0
100
AcDbMText
 62
2
  6
CONTINUOUS
  7
STANDARD
 71
1
 72
1
 10
0.52125
 20
5.75995
 30
0.0
 11
1.0
 21
0.0
 31
0.0
 44
0.6
  3
Notes\P \P1. Stack height value in technical\P   data table includes seal retainer\P   plate.\P2. Important: Carefully consider\P   the maximum system pressure. The\P   pressure rating of the manifold is\P   dependent on the manifold material,\P   wi
  3
th the port type/size a secondary\P   consideration. Manifolds\P   constructed of aluminum are not\P   rated for pressures higher than\P   3000 psi (210 bar), regardless of\P   the port type/size specified.\P3. Items without balloons are\P   shipped 
  1
loose.
 40
0.1
 41
3.04
  0
LINE
  5
286
100
AcDbEntity
  8
0
100
AcDbLine
 62
7
  6
CONTINUOUS
 10
0.30125
 20
0.30125
 11
0.30125
 21
16.69875
  0
LINE
  5
287
100
AcDbEntity
  8
0
100
AcDbLine
 62
7
  6
CONTINUOUS
 10
0.30125
 20
0.30125
 11
21.69875
 21
0.30125
  0
LINE
  5
288
100
AcDbEntity
  8
0
100
AcDbLine
 62
7
  6
CONTINUOUS
 10
0.30125
 20
16.69875
 11
21.69875
 21
16.69875
  0
LINE
  5
289
100
AcDbEntity
  8
0
100
AcDbLine
 62
7
  6
CONTINUOUS
 10
21.69875
 20
0.30125
 11
21.69875
 21
16.69875
  0
LINE
  5
28A
100
AcDbEntity
  8
0
100
AcDbLine
 62
7
  6
CONTINUOUS
 10
9.0699564631
 20
10.5760912875
 11
8.5833770611
 21
10.1060916487
  0
LINE
  5
28B
100
AcDbEntity
  8
0
100
AcDbLine
 62
7
  6
CONTINUOUS
 10
8.5833770611
 20
6.7253510564
 11
8.5833770611
 21
10.1060916487
  0
LINE
  5
28C
100
AcDbEntity
  8
0
100
AcDbLine
 62
4
  6
CONTINUOUS
 10
8.8283258197
 20
10.1426941865
 11
8.9404599554
 21
10.1885074497
  0
LINE
  5
28D
100
AcDbEntity
  8
0
100
AcDbLine
 62
4
  6
CONTINUOUS
 10
9.6010667117
 20
10.0891044236
 11
9.6593009496
 21
10.1453543814
  0
LINE
  5
28E
100
AcDbEntity
  8
0
100
AcDbLine
 62
4
  6
CONTINUOUS
 10
9.7528550607
 20
10.0785778659
 11
9.8046188278
 21
10.1285778283
  0
LINE
  5
28F
100
AcDbEntity
  8
0
100
AcDbLine
 62
4
  6
CONTINUOUS
 10
9.8494476505
 20
10.071879147
 11
9.9012114175
 21
10.1218791095
  0
LINE
  5
290
100
AcDbEntity
  8
0
100
AcDbLine
 62
4
  6
CONTINUOUS
 10
9.912038237
 20
10.07519416
 11
9.9490123564
 21
10.110908419
  0
LINE
  5
291
100
AcDbEntity
  8
0
100
AcDbLine
 62
4
  6
CONTINUOUS
 10
9.6010667117
 20
10.0891044236
 11
9.68720023
 21
10.1156721705
  0
LINE
  5
292
100
AcDbEntity
  8
0
100
AcDbLine
 62
7
  6
CONTINUOUS
 10
8.5833770611
 20
6.7253510564
 11
12.9300435369
 21
6.4239087125
  0
LINE
  5
293
100
AcDbEntity
  8
0
100
AcDbLine
 62
4
  6
CONTINUOUS
 10
10.0456049462
 20
10.1042097002
 11
10.0086308268
 21
10.0684954412
  0
LINE
  5
294
100
AcDbEntity
  8
0
100
AcDbLine
 62
4
  6
CONTINUOUS
 10
10.4229832908
 20
10.3815863174
 11
10.4288991493
 21
10.3873005983
  0
LINE
  5
295
100
AcDbEntity
  8
0
100
AcDbLine
 62
4
  6
CONTINUOUS
 10
10.1116275272
 20
10.0536969108
 11
10.1633912943
 21
10.1036968733
  0
LINE
  5
296
100
AcDbEntity
  8
0
100
AcDbLine
 62
4
  6
CONTINUOUS
 10
10.4765939238
 20
10.3533702172
 11
10.482509783
 21
10.3590844987
  0
LINE
  5
297
100
AcDbEntity
  8
0
100
AcDbLine
 62
4
  6
CONTINUOUS
 10
10.4913041081
 20
10.1275791721
 11
10.5768717284
 21
10.1645168694
  0
LINE
  5
298
100
AcDbEntity
  8
0
100
AcDbLine
 62
4
  6
CONTINUOUS
 10
10.9513141971
 20
10.2328672262
 11
10.832629116
 21
10.1982262326
  0
LINE
  5
299
100
AcDbEntity
  8
0
100
AcDbLine
 62
4
  6
CONTINUOUS
 10
8.9404599554
 20
10.1885074497
 11
8.949066557
 21
10.134320788
  0
LINE
  5
29A
100
AcDbEntity
  8
0
100
AcDbLine
 62
4
  6
CONTINUOUS
 10
10.556245685
 20
10.3845936331
 11
10.520750532
 21
10.3503079461
  0
LINE
  5
29B
100
AcDbEntity
  8
0
100
AcDbLine
 62
4
  6
CONTINUOUS
 10
10.229413876
 20
10.0531840847
 11
10.2663879954
 21
10.0888983437
  0
LINE
  5
29C
100
AcDbEntity
  8
0
100
AcDbLine
 62
4
  6
CONTINUOUS
 10
10.3514748488
 20
10.1372763641
 11
10.3928858609
 21
10.1772763326
  0
LINE
  5
29D
100
AcDbEntity
  8
0
100
AcDbLine
 62
4
  6
CONTINUOUS
 10
10.598024601
 20
10.3449489712
 11
10.6335197539
 21
10.3792346582
  0
LINE
  5
29E
100
AcDbEntity
  8
0
100
AcDbLine
 62
4
  6
CONTINUOUS
 10
10.63626535
 20
10.3361724185
 11
10.6776763621
 21
10.376172387
  0
LINE
  5
29F
100
AcDbEntity
  8
0
100
AcDbLine
 62
4
  6
CONTINUOUS
 10
10.4642440621
 20
10.1662030775
 11
10.4346647677
 21
10.1376316714
  0
LINE
  5
2A0
100
AcDbEntity
  8
0
100
AcDbLine
 62
4
  6
CONTINUOUS
 10
10.3830066861
 20
10.0348767022
 11
10.4347704532
 21
10.0848766647
  0
LINE
  5
2A1
100
AcDbEntity
  8
0
100
AcDbLine
 62
4
  6
CONTINUOUS
 10
10.713539419
 20
10.3308134437
 11
10.7549504311
 21
10.3708134121
  0
LINE
  5
2A2
100
AcDbEntity
  8
0
100
AcDbLine
 62
4
  6
CONTINUOUS
 10
10.531363043
 20
10.0781779458
 11
10.4795992759
 21
10.0281779834
  0
LINE
  5
2A3
100
AcDbEntity
  8
0
100
AcDbLine
 62
4
  6
CONTINUOUS
 10
10.9982164014
 20
10.1867427153
 11
11.0837840217
 21
10.2236804126
  0
LINE
  5
2A4
100
AcDbEntity
  8
0
100
AcDbLine
 62
4
  6
CONTINUOUS
 10
11.0017367825
 20
10.3006193096
 11
11.0853324322
 21
10.3356522484
  0
LINE
  5
2A5
100
AcDbEntity
  8
0
100
AcDbLine
 62
4
  6
CONTINUOUS
 10
10.6679305593
 20
10.1153300861
 11
10.7093415714
 21
10.1553300545
  0
LINE
  5
2A6
100
AcDbEntity
  8
0
100
AcDbLine
 62
4
  6
CONTINUOUS
 10
10.8791267043
 20
10.3193299264
 11
10.9205377165
 21
10.3593298949
  0
LINE
  5
2A7
100
AcDbEntity
  8
0
100
AcDbLine
 62
4
  6
CONTINUOUS
 10
10.9719829904
 20
10.3404507841
 11
10.9453616258
 21
10.314736519
  0
LINE
  5
2A8
100
AcDbEntity
  8
0
100
AcDbLine
 62
4
  6
CONTINUOUS
 10
10.7562437757
 20
10.1092055437
 11
10.7976547878
 21
10.1492055122
  0
LINE
  5
2A9
100
AcDbEntity
  8
0
100
AcDbLine
 62
4
  6
CONTINUOUS
 10
11.6601609268
 20
10.308036851
 11
11.6535232928
 21
10.3054348977
  0
LINE
  5
2AA
100
AcDbEntity
  8
0
100
AcDbLine
 62
4
  6
CONTINUOUS
 10
11.0881488424
 20
10.3078964658
 11
11.1118122774
 21
10.3307535901
  0
LINE
  5
2AB
100
AcDbEntity
  8
0
100
AcDbLine
 62
4
  6
CONTINUOUS
 10
11.1928368096
 20
10.3404458886
 11
11.1514257974
 21
10.3004459202
  0
LINE
  5
2AC
100
AcDbEntity
  8
0
100
AcDbLine
 62
4
  6
CONTINUOUS
 10
11.1955824609
 20
10.2973836452
 11
11.225161756
 21
10.3259550519
  0
LINE
  5
2AD
100
AcDbEntity
  8
0
100
AcDbLine
 62
4
  6
CONTINUOUS
 10
10.9939818786
 20
10.098842898
 11
11.023561173
 21
10.1274143041
  0
LINE
  5
2AE
100
AcDbEntity
  8
0
100
AcDbLine
 62
4
  6
CONTINUOUS
 10
11.0828499143
 20
10.1808733613
 11
11.1242609264
 21
10.2208733297
  0
LINE
  5
2AF
100
AcDbEntity
  8
0
100
AcDbLine
 62
4
  6
CONTINUOUS
 10
11.2737198223
 20
10.3195252637
 11
11.2678039638
 21
10.3138109829
  0
LINE
  5
2B0
100
AcDbEntity
  8
0
100
AcDbLine
 62
4
  6
CONTINUOUS
 10
11.1845799894
 20
10.2105656415
 11
11.1757062003
 21
10.201994219
  0
LINE
  5
2B1
100
AcDbEntity
  8
0
100
AcDbLine
 62
4
  6
CONTINUOUS
 10
11.1749136307
 20
10.1898000898
 11
11.1660398424
 21
10.1812286679
  0
LINE
  5
2B2
100
AcDbEntity
  8
0
100
AcDbLine
 62
4
  6
CONTINUOUS
 10
11.2978927543
 20
10.2933506761
 11
11.306766543
 21
10.3019220983
  0
LINE
  5
2B3
100
AcDbEntity
  8
0
100
AcDbLine
 62
4
  6
CONTINUOUS
 10
11.1227719444
 20
10.0899112766
 11
11.1523512388
 21
10.1184826827
  0
LINE
  5
2B4
100
AcDbEntity
  8
0
100
AcDbLine
 62
4
  6
CONTINUOUS
 10
11.3611697094
 20
10.2859001305
 11
11.384833146
 21
10.3087572563
  0
LINE
  5
2B5
100
AcDbEntity
  8
0
100
AcDbLine
 62
4
  6
CONTINUOUS
 10
11.4349055943
 20
10.3114092673
 11
11.4082842288
 21
10.2856950013
  0
LINE
  5
2B6
100
AcDbEntity
  8
0
100
AcDbLine
 62
4
  6
CONTINUOUS
 10
11.2296253078
 20
10.1131237078
 11
11.2000460133
 21
10.0845523017
  0
LINE
  5
2B7
100
AcDbEntity
  8
0
100
AcDbLine
 62
4
  6
CONTINUOUS
 10
11.238286744
 20
10.0757757503
 11
11.2796977561
 21
10.1157757188
  0
LINE
  5
2B8
100
AcDbEntity
  8
0
100
AcDbLine
 62
4
  6
CONTINUOUS
 10
11.4715612576
 20
10.2782444506
 11
11.5011405526
 21
10.3068158573
  0
LINE
  5
2B9
100
AcDbEntity
  8
0
100
AcDbLine
 62
4
  6
CONTINUOUS
 10
11.5186757769
 20
10.2780393214
 11
11.5571288594
 21
10.3151821492
  0
LINE
  5
2BA
100
AcDbEntity
  8
0
100
AcDbLine
 62
4
  6
CONTINUOUS
 10
11.3510559665
 20
10.104702463
 11
11.3214766721
 21
10.0761310569
  0
LINE
  5
2BB
100
AcDbEntity
  8
0
100
AcDbLine
 62
4
  6
CONTINUOUS
 10
11.3781160677
 20
10.0660785538
 11
11.4195270799
 21
10.1060785223
  0
LINE
  5
2BC
100
AcDbEntity
  8
0
100
AcDbLine
 62
4
  6
CONTINUOUS
 10
11.6150702112
 20
10.2682920709
 11
11.6446495062
 21
10.2968634776
  0
LINE
  5
2BD
100
AcDbEntity
  8
0
100
AcDbLine
 62
4
  6
CONTINUOUS
 10
11.6535232928
 20
10.3054348977
 11
11.6564812233
 21
10.3082920393
  0
LINE
  5
2BE
100
AcDbEntity
  8
0
100
AcDbLine
 62
4
  6
CONTINUOUS
 10
11.6769036183
 20
10.2670661834
 11
11.7005670534
 21
10.2899233077
  0
LINE
  5
2BF
100
AcDbEntity
  8
0
100
AcDbLine
 62
4
  6
CONTINUOUS
 10
11.7910457031
 20
10.2744617715
 11
11.7999194909
 21
10.2830331928
  0
LINE
  5
2C0
100
AcDbEntity
  8
0
100
AcDbLine
 62
4
  6
CONTINUOUS
 10
11.8424908668
 20
10.2555826687
 11
11.8513646556
 21
10.2641540909
  0
LINE
  5
2C1
100
AcDbEntity
  8
0
100
AcDbLine
 62
4
  6
CONTINUOUS
 10
10.5768717284
 20
10.1645168694
 11
10.5796173429
 21
10.1214546284
  0
LINE
  5
2C2
100
AcDbEntity
  8
0
100
AcDbLine
 62
7
  6
CONTINUOUS
 10
11.5687540563
 20
9.5554823304
 11
11.4652796404
 21
9.4555337138
  0
LINE
  5
2C3
100
AcDbEntity
  8
0
100
AcDbLine
 62
4
  6
CONTINUOUS
 10
9.6010667117
 20
10.0891044236
 11
9.5777978263
 21
10.1232592529
  0
LINE
  5
2C4
100
AcDbEntity
  8
0
100
AcDbLine
 62
7
  6
CONTINUOUS
 10
11.7424538603
 20
9.3756813893
 11
11.6389662934
 21
9.2757200698
  0
LINE
  5
2C5
100
AcDbEntity
  8
0
100
AcDbLine
 62
4
  6
CONTINUOUS
 10
10.9954708053
 20
10.229804955
 11
10.9982164014
 21
10.1867427153
  0
LINE
  5
2C6
100
AcDbEntity
  8
0
100
AcDbLine
 62
4
  6
CONTINUOUS
 10
12.6858377383
 20
9.9287646182
 11
12.6340739712
 21
9.8787646558
  0
LINE
  5
2C7
100
AcDbEntity
  8
0
100
AcDbLine
 62
4
  6
CONTINUOUS
 10
12.7651757401
 20
9.9053992462
 11
12.7781166819
 21
9.9178992368
  0
LINE
  5
2C8
100
AcDbEntity
  8
0
100
AcDbLine
 62
4
  6
CONTINUOUS
 10
12.7513679295
 20
9.8795619244
 11
12.7643088705
 21
9.8920619143
  0
LINE
  5
2C9
100
AcDbEntity
  8
0
100
AcDbLine
 62
4
  6
CONTINUOUS
 10
9.8046188278
 20
10.1285778283
 11
9.8494476505
 21
10.071879147
  0
LINE
  5
2CA
100
AcDbEntity
  8
0
100
AcDbLine
 62
4
  6
CONTINUOUS
 10
11.0190975475
 20
10.3402456533
 11
11.0226357317
 21
10.3093775416
  0
LINE
  5
2CB
100
AcDbEntity
  8
0
100
AcDbLine
 62
7
  6
CONTINUOUS
 10
12.9300435369
 20
9.8046493048
 11
13.4166229389
 21
10.2746489436
  0
LINE
  5
2CC
100
AcDbEntity
  8
0
100
AcDbLine
 62
4
  6
CONTINUOUS
 10
12.7185924873
 20
9.8729032768
 11
12.7513679295
 21
9.8795619244
  0
LINE
  5
2CD
100
AcDbEntity
  8
0
100
AcDbLine
 62
4
  6
CONTINUOUS
 10
12.748788017
 20
9.9020699206
 11
12.7651757401
 21
9.9053992462
  0
LINE
  5
2CE
100
AcDbEntity
  8
0
100
AcDbLine
 62
4
  6
CONTINUOUS
 10
9.9322413054
 20
10.0661373876
 11
9.912038237
 21
10.07519416
  0
LINE
  5
2CF
100
AcDbEntity
  8
0
100
AcDbLine
 62
4
  6
CONTINUOUS
 10
10.0254019
 20
10.1132664703
 11
10.0456049462
 21
10.1042097002
  0
LINE
  5
2D0
100
AcDbEntity
  8
0
100
AcDbLine
 62
4
  6
CONTINUOUS
 10
10.6776763621
 20
10.376172387
 11
10.713539419
 21
10.3308134437
  0
LINE
  5
2D1
100
AcDbEntity
  8
0
100
AcDbLine
 62
7
  6
CONTINUOUS
 10
13.1128099573
 20
8.8667355526
 11
13.1115139799
 21
8.8655067264
  0
LINE
  5
2D2
100
AcDbEntity
  8
0
100
AcDbLine
 62
4
  6
CONTINUOUS
 10
10.2496169675
 20
10.0441273106
 11
10.229413876
 21
10.0531840847
  0
LINE
  5
2D3
100
AcDbEntity
  8
0
100
AcDbLine
 62
4
  6
CONTINUOUS
 10
10.4480816166
 20
10.173448494
 11
10.4642440621
 21
10.1662030775
  0
LINE
  5
2D4
100
AcDbEntity
  8
0
100
AcDbLine
 62
4
  6
CONTINUOUS
 10
11.3214766721
 20
10.0761310569
 11
11.293482518
 21
10.0719479104
  0
LINE
  5
2D5
100
AcDbEntity
  8
0
100
AcDbLine
 62
7
  6
CONTINUOUS
 10
8.5833770611
 20
10.1060916487
 11
12.9300435369
 21
9.8046493048
  0
LINE
  5
2D6
100
AcDbEntity
  8
0
100
AcDbLine
 62
4
  6
CONTINUOUS
 10
10.3048127068
 20
10.0402994731
 11
10.2496169675
 21
10.0441273106
  0
LINE
  5
2D7
100
AcDbEntity
  8
0
100
AcDbLine
 62
4
  6
CONTINUOUS
 10
9.9736381329
 20
10.0632665078
 11
9.9322413054
 21
10.0661373876
  0
LINE
  5
2D8
100
AcDbEntity
  8
0
100
AcDbLine
 62
4
  6
CONTINUOUS
 10
12.6340739712
 20
9.8787646558
 11
12.7185924873
 21
9.8729032768
  0
LINE
  5
2D9
100
AcDbEntity
  8
0
100
AcDbLine
 62
4
  6
CONTINUOUS
 10
8.8697285567
 20
10.1576861615
 11
8.942172999
 21
10.1526621223
  0
LINE
  5
2DA
100
AcDbEntity
  8
0
100
AcDbLine
 62
4
  6
CONTINUOUS
 10
10.2809092
 20
10.1605437509
 11
10.3318968702
 21
10.1488416806
  0
LINE
  5
2DB
100
AcDbEntity
  8
0
100
AcDbLine
 62
4
  6
CONTINUOUS
 10
10.3963619253
 20
10.3558720514
 11
10.4044431489
 21
10.3522493428
  0
LINE
  5
2DC
100
AcDbEntity
  8
0
100
AcDbLine
 62
4
  6
CONTINUOUS
 10
11.0101443143
 20
10.0915974816
 11
10.9939818786
 21
10.098842898
  0
LINE
  5
2DD
100
AcDbEntity
  8
0
100
AcDbLine
 62
4
  6
CONTINUOUS
 10
10.520750532
 20
10.3503079461
 11
10.536912977
 21
10.343062529
  0
LINE
  5
2DE
100
AcDbEntity
  8
0
100
AcDbLine
 62
4
  6
CONTINUOUS
 10
11.1389343801
 20
10.0826658602
 11
11.1227719444
 21
10.0899112766
  0
LINE
  5
2DF
100
AcDbEntity
  8
0
100
AcDbLine
 62
4
  6
CONTINUOUS
 10
11.384833146
 20
10.3087572563
 11
11.3797098939
 21
10.3152371021
  0
LINE
  5
2E0
100
AcDbEntity
  8
0
100
AcDbLine
 62
4
  6
CONTINUOUS
 10
11.2000460133
 20
10.0845523017
 11
11.1720518593
 21
10.0803691552
  0
LINE
  5
2E1
100
AcDbEntity
  8
0
100
AcDbLine
 62
4
  6
CONTINUOUS
 10
11.1523512388
 20
10.1184826827
 11
11.1803453922
 21
10.1226658286
  0
LINE
  5
2E2
100
AcDbEntity
  8
0
100
AcDbLine
 62
4
  6
CONTINUOUS
 10
11.023561173
 20
10.1274143041
 11
11.0515553264
 21
10.13159745
  0
LINE
  5
2E3
100
AcDbEntity
  8
0
100
AcDbLine
 62
4
  6
CONTINUOUS
 10
11.8284938267
 20
10.2534910929
 11
11.8424908668
 21
10.2555826687
  0
LINE
  5
2E4
100
AcDbEntity
  8
0
100
AcDbLine
 62
4
  6
CONTINUOUS
 10
11.1660398424
 20
10.1812286679
 11
11.1380456699
 21
10.1770455226
  0
LINE
  5
2E5
100
AcDbEntity
  8
0
100
AcDbLine
 62
4
  6
CONTINUOUS
 10
11.7999194909
 20
10.2830331928
 11
11.813916532
 21
10.2851247695
  0
LINE
  5
2E6
100
AcDbEntity
  8
0
100
AcDbLine
 62
4
  6
CONTINUOUS
 10
11.1757062003
 20
10.201994219
 11
11.1477120285
 21
10.1978110743
  0
LINE
  5
2E7
100
AcDbEntity
  8
0
100
AcDbLine
 62
4
  6
CONTINUOUS
 10
11.7005670534
 20
10.2899233077
 11
11.7145640944
 21
10.2920148844
  0
LINE
  5
2E8
100
AcDbEntity
  8
0
100
AcDbLine
 62
4
  6
CONTINUOUS
 10
10.2663879954
 20
10.0888983437
 11
10.3013807346
 21
10.0941272731
  0
LINE
  5
2E9
100
AcDbEntity
  8
0
100
AcDbLine
 62
4
  6
CONTINUOUS
 10
10.0086308268
 20
10.0684954412
 11
9.9736381329
 21
10.0632665078
  0
LINE
  5
2EA
100
AcDbEntity
  8
0
100
AcDbLine
 62
4
  6
CONTINUOUS
 10
10.4346647677
 20
10.1376316714
 11
10.4066706045
 21
10.1334485255
  0
LINE
  5
2EB
100
AcDbEntity
  8
0
100
AcDbLine
 62
4
  6
CONTINUOUS
 10
11.5651305966
 20
10.0714826946
 11
11.498367307
 21
10.0679466811
  0
LINE
  5
2EC
100
AcDbEntity
  8
0
100
AcDbLine
 62
4
  6
CONTINUOUS
 10
10.3476724948
 20
10.1640797647
 11
10.2809092
 21
10.1605437509
  0
LINE
  5
2ED
100
AcDbEntity
  8
0
100
AcDbLine
 62
4
  6
CONTINUOUS
 10
10.4125859829
 20
10.0634481106
 11
10.5091785727
 21
10.0567493918
  0
LINE
  5
2EE
100
AcDbEntity
  8
0
100
AcDbLine
 62
4
  6
CONTINUOUS
 10
12.664269501
 20
9.9079312996
 11
12.748788017
 21
9.9020699206
  0
LINE
  5
2EF
100
AcDbEntity
  8
0
100
AcDbLine
 62
4
  6
CONTINUOUS
 10
12.7703562544
 20
9.9229032392
 11
12.6858377383
 21
9.9287646182
  0
LINE
  5
2F0
100
AcDbEntity
  8
0
100
AcDbLine
 62
4
  6
CONTINUOUS
 10
9.9840050725
 20
10.11613735
 11
10.0254019
 21
10.1132664703
  0
LINE
  5
2F1
100
AcDbEntity
  8
0
100
AcDbLine
 62
4
  6
CONTINUOUS
 10
10.108195555
 20
10.1075247108
 11
10.2185870796
 21
10.0998690326
  0
LINE
  5
2F2
100
AcDbEntity
  8
0
100
AcDbLine
 62
4
  6
CONTINUOUS
 10
10.3013807346
 20
10.0941272731
 11
10.3565764738
 21
10.0902994356
  0
LINE
  5
2F3
100
AcDbEntity
  8
0
100
AcDbLine
 62
4
  6
CONTINUOUS
 10
9.6593009496
 20
10.1453543814
 11
10.5286342578
 21
10.0850659117
  0
LINE
  5
2F4
100
AcDbEntity
  8
0
100
AcDbLine
 62
4
  6
CONTINUOUS
 10
11.293482518
 20
10.0719479104
 11
11.238286744
 21
10.0757757503
  0
LINE
  5
2F5
100
AcDbEntity
  8
0
100
AcDbLine
 62
4
  6
CONTINUOUS
 10
11.1720518593
 20
10.0803691552
 11
11.1389343801
 21
10.0826658602
  0
LINE
  5
2F6
100
AcDbEntity
  8
0
100
AcDbLine
 62
4
  6
CONTINUOUS
 10
11.0543009041
 20
10.0885352117
 11
11.0101443143
 21
10.0915974816
  0
LINE
  5
2F7
100
AcDbEntity
  8
0
100
AcDbLine
 62
4
  6
CONTINUOUS
 10
10.4066706045
 20
10.1334485255
 11
10.3514748488
 21
10.1372763641
  0
LINE
  5
2F8
100
AcDbEntity
  8
0
100
AcDbLine
 62
4
  6
CONTINUOUS
 10
10.7562437757
 20
10.1092055437
 11
10.8224786972
 21
10.1046121363
  0
LINE
  5
2F9
100
AcDbEntity
  8
0
100
AcDbLine
 62
4
  6
CONTINUOUS
 10
11.3781160677
 20
10.0660785538
 11
11.4443509524
 21
10.0614851489
  0
LINE
  5
2FA
100
AcDbEntity
  8
0
100
AcDbLine
 62
4
  6
CONTINUOUS
 10
10.5178546958
 20
10.1379869779
 11
10.5767301734
 21
10.1339039497
  0
LINE
  5
2FB
100
AcDbEntity
  8
0
100
AcDbLine
 62
4
  6
CONTINUOUS
 10
11.4459360941
 20
10.0858734097
 11
11.4017795043
 21
10.0889356796
  0
LINE
  5
2FC
100
AcDbEntity
  8
0
100
AcDbLine
 62
4
  6
CONTINUOUS
 10
10.8240638389
 20
10.1290003971
 11
10.7799072123
 21
10.1320626696
  0
LINE
  5
2FD
100
AcDbEntity
  8
0
100
AcDbLine
 62
4
  6
CONTINUOUS
 10
10.3928858609
 20
10.1772763326
 11
10.4480816166
 21
10.173448494
  0
LINE
  5
2FE
100
AcDbEntity
  8
0
100
AcDbLine
 62
4
  6
CONTINUOUS
 10
10.6651849448
 20
10.158392327
 11
10.7534981612
 21
10.1522677846
  0
LINE
  5
2FF
100
AcDbEntity
  8
0
100
AcDbLine
 62
4
  6
CONTINUOUS
 10
10.7976547878
 20
10.1492055122
 11
10.8638897094
 21
10.1446121048
  0
LINE
  5
300
100
AcDbEntity
  8
0
100
AcDbLine
 62
4
  6
CONTINUOUS
 10
11.0515553264
 20
10.13159745
 11
11.0957119162
 21
10.1285351801
  0
LINE
  5
301
100
AcDbEntity
  8
0
100
AcDbLine
 62
4
  6
CONTINUOUS
 10
11.1803453922
 20
10.1226658286
 11
11.2134628714
 21
10.1203691236
  0
LINE
  5
302
100
AcDbEntity
  8
0
100
AcDbLine
 62
4
  6
CONTINUOUS
 10
11.2796977561
 20
10.1157757188
 11
11.3348935301
 21
10.1119478789
  0
LINE
  5
303
100
AcDbEntity
  8
0
100
AcDbLine
 62
4
  6
CONTINUOUS
 10
11.4195270799
 20
10.1060785223
 11
11.4857619645
 21
10.1014851174
  0
LINE
  5
304
100
AcDbEntity
  8
0
100
AcDbLine
 62
4
  6
CONTINUOUS
 10
11.1380456699
 20
10.1770455226
 11
11.0828499143
 21
10.1808733613
  0
LINE
  5
305
100
AcDbEntity
  8
0
100
AcDbLine
 62
4
  6
CONTINUOUS
 10
10.832629116
 20
10.1982262326
 11
10.909903185
 21
10.1928672577
  0
LINE
  5
306
100
AcDbEntity
  8
0
100
AcDbLine
 62
4
  6
CONTINUOUS
 10
11.1035554203
 20
10.2008733455
 11
11.158751176
 21
10.1970455069
  0
LINE
  5
307
100
AcDbEntity
  8
0
100
AcDbLine
 62
4
  6
CONTINUOUS
 10
10.8740401282
 20
10.238226201
 11
10.9513141971
 21
10.2328672262
  0
LINE
  5
308
100
AcDbEntity
  8
0
100
AcDbLine
 62
4
  6
CONTINUOUS
 10
11.1242609264
 20
10.2208733297
 11
11.1573783871
 21
10.218576626
  0
LINE
  5
309
100
AcDbEntity
  8
0
100
AcDbLine
 62
4
  6
CONTINUOUS
 10
11.1573783871
 20
10.218576626
 11
11.1674315569
 21
10.2168586772
  0
LINE
  5
30A
100
AcDbEntity
  8
0
100
AcDbLine
 62
4
  6
CONTINUOUS
 10
11.5141429316
 20
10.0831847652
 11
11.5651305966
 21
10.0714826946
  0
LINE
  5
30B
100
AcDbEntity
  8
0
100
AcDbLine
 62
4
  6
CONTINUOUS
 10
11.1674315569
 20
10.2168586772
 11
11.1845799894
 21
10.2105656415
  0
LINE
  5
30C
100
AcDbEntity
  8
0
100
AcDbLine
 62
4
  6
CONTINUOUS
 10
10.482509783
 20
10.3590844987
 11
10.4229832908
 21
10.3815863174
  0
LINE
  5
30D
100
AcDbEntity
  8
0
100
AcDbLine
 62
4
  6
CONTINUOUS
 10
10.5010499247
 20
10.388421472
 11
10.5091311463
 21
10.3847987626
  0
LINE
  5
30E
100
AcDbEntity
  8
0
100
AcDbLine
 62
4
  6
CONTINUOUS
 10
11.2134628714
 20
10.1203691236
 11
11.2296253078
 21
10.1131237078
  0
LINE
  5
30F
100
AcDbEntity
  8
0
100
AcDbLine
 62
4
  6
CONTINUOUS
 10
11.3348935301
 20
10.1119478789
 11
11.3510559665
 21
10.104702463
  0
LINE
  5
310
100
AcDbEntity
  8
0
100
AcDbLine
 62
4
  6
CONTINUOUS
 10
11.158751176
 20
10.1970455069
 11
11.1749136307
 21
10.1898000898
  0
LINE
  5
311
100
AcDbEntity
  8
0
100
AcDbLine
 62
4
  6
CONTINUOUS
 10
10.9639017735
 20
10.3440734932
 11
10.9719829904
 21
10.3404507841
  0
LINE
  5
312
100
AcDbEntity
  8
0
100
AcDbLine
 62
4
  6
CONTINUOUS
 10
11.2693183458
 20
10.322892782
 11
11.2737198223
 21
10.3195252637
  0
LINE
  5
313
100
AcDbEntity
  8
0
100
AcDbLine
 62
7
  6
CONTINUOUS
 10
12.9300435369
 20
6.4239087125
 11
12.9300435369
 21
9.8046493048
  0
LINE
  5
314
100
AcDbEntity
  8
0
100
AcDbLine
 62
4
  6
CONTINUOUS
 10
9.9490123564
 20
10.110908419
 11
9.9840050725
 21
10.11613735
  0
LINE
  5
315
100
AcDbEntity
  8
0
100
AcDbLine
 62
4
  6
CONTINUOUS
 10
10.5700304469
 20
10.3407658247
 11
10.598024601
 21
10.3449489712
  0
LINE
  5
316
100
AcDbEntity
  8
0
100
AcDbLine
 62
4
  6
CONTINUOUS
 10
10.4485997606
 20
10.3491870714
 11
10.4765939238
 21
10.3533702172
  0
LINE
  5
317
100
AcDbEntity
  8
0
100
AcDbLine
 62
4
  6
CONTINUOUS
 10
11.306766543
 20
10.3019220983
 11
11.3318027672
 21
10.3032481037
  0
LINE
  5
318
100
AcDbEntity
  8
0
100
AcDbLine
 62
4
  6
CONTINUOUS
 10
11.1118122774
 20
10.3307535901
 11
11.1368485027
 21
10.3320795968
  0
LINE
  5
319
100
AcDbEntity
  8
0
100
AcDbLine
 62
4
  6
CONTINUOUS
 10
10.9796584877
 20
10.3021504445
 11
11.0017367825
 21
10.3006193096
  0
LINE
  5
31A
100
AcDbEntity
  8
0
100
AcDbLine
 62
4
  6
CONTINUOUS
 10
11.7291415365
 20
10.2603811976
 11
11.6849847994
 21
10.2634434777
  0
LINE
  5
31B
100
AcDbEntity
  8
0
100
AcDbLine
 62
4
  6
CONTINUOUS
 10
11.5488353265
 20
10.2728854757
 11
11.5267570316
 21
10.2744166107
  0
LINE
  5
31C
100
AcDbEntity
  8
0
100
AcDbLine
 62
4
  6
CONTINUOUS
 10
11.3611697094
 20
10.2859001305
 11
11.3170131196
 21
10.2889624004
  0
LINE
  5
31D
100
AcDbEntity
  8
0
100
AcDbLine
 62
4
  6
CONTINUOUS
 10
11.1514257974
 20
10.3004459202
 11
11.1072692077
 21
10.3035081901
  0
LINE
  5
31E
100
AcDbEntity
  8
0
100
AcDbLine
 62
4
  6
CONTINUOUS
 10
10.4044431489
 20
10.3522493428
 11
10.4485997606
 21
10.3491870714
  0
LINE
  5
31F
100
AcDbEntity
  8
0
100
AcDbLine
 62
4
  6
CONTINUOUS
 10
10.536912977
 20
10.343062529
 11
10.5700304469
 21
10.3407658247
  0
LINE
  5
320
100
AcDbEntity
  8
0
100
AcDbLine
 62
4
  6
CONTINUOUS
 10
11.4163654835
 20
10.2820722905
 11
11.4715612576
 21
10.2782444506
  0
LINE
  5
321
100
AcDbEntity
  8
0
100
AcDbLine
 62
4
  6
CONTINUOUS
 10
11.7843372369
 20
10.2565533628
 11
11.8284938267
 21
10.2534910929
  0
LINE
  5
322
100
AcDbEntity
  8
0
100
AcDbLine
 62
4
  6
CONTINUOUS
 10
11.3318027672
 20
10.3032481037
 11
11.375959357
 21
10.3001858338
  0
LINE
  5
323
100
AcDbEntity
  8
0
100
AcDbLine
 62
4
  6
CONTINUOUS
 10
11.3797098939
 20
10.3152371021
 11
11.3245141198
 21
10.319064942
  0
LINE
  5
324
100
AcDbEntity
  8
0
100
AcDbLine
 62
4
  6
CONTINUOUS
 10
10.9087059994
 20
10.3479013331
 11
10.9639017735
 21
10.3440734932
  0
LINE
  5
325
100
AcDbEntity
  8
0
100
AcDbLine
 62
4
  6
CONTINUOUS
 10
11.1368485027
 20
10.3320795968
 11
11.1810050925
 21
10.3290173269
  0
LINE
  5
326
100
AcDbEntity
  8
0
100
AcDbLine
 62
4
  6
CONTINUOUS
 10
11.225161756
 20
10.3259550519
 11
11.2693183458
 21
10.322892782
  0
LINE
  5
327
100
AcDbEntity
  8
0
100
AcDbLine
 62
4
  6
CONTINUOUS
 10
11.7145640944
 20
10.2920148844
 11
11.7587208316
 21
10.2889526043
  0
LINE
  5
328
100
AcDbEntity
  8
0
100
AcDbLine
 62
4
  6
CONTINUOUS
 10
11.813916532
 20
10.2851247695
 11
11.8580731218
 21
10.2820624996
  0
LINE
  5
329
100
AcDbEntity
  8
0
100
AcDbLine
 62
4
  6
CONTINUOUS
 10
10.4568933142
 20
10.3914837434
 11
10.5010499247
 21
10.388421472
  0
LINE
  5
32A
100
AcDbEntity
  8
0
100
AcDbLine
 62
4
  6
CONTINUOUS
 10
11.6564812233
 20
10.3082920393
 11
11.6601609268
 21
10.308036851
  0
LINE
  5
32B
100
AcDbEntity
  8
0
100
AcDbLine
 62
7
  6
CONTINUOUS
 10
13.4166229389
 20
10.2746489436
 11
9.0699564631
 21
10.5760912875
  0
LINE
  5
32C
100
AcDbEntity
  8
0
100
AcDbLine
 62
4
  6
CONTINUOUS
 10
11.8422974978
 20
10.2668244161
 11
11.8001128609
 21
10.2717914463
  0
LINE
  5
32D
100
AcDbEntity
  8
0
100
AcDbLine
 62
4
  6
CONTINUOUS
 10
11.1072692077
 20
10.3035081901
 11
11.0881488424
 21
10.3078964658
  0
LINE
  5
32E
100
AcDbEntity
  8
0
100
AcDbLine
 62
4
  6
CONTINUOUS
 10
11.3170131196
 20
10.2889624004
 11
11.2978927543
 21
10.2933506761
  0
LINE
  5
32F
100
AcDbEntity
  8
0
100
AcDbLine
 62
4
  6
CONTINUOUS
 10
11.8001128609
 20
10.2717914463
 11
11.7910457031
 21
10.2744617715
  0
LINE
  5
330
100
AcDbEntity
  8
0
100
AcDbLine
 62
4
  6
CONTINUOUS
 10
11.8513646556
 20
10.2641540909
 11
11.8422974978
 21
10.2668244161
  0
LINE
  5
331
100
AcDbEntity
  8
0
100
AcDbLine
 62
4
  6
CONTINUOUS
 10
11.4082842288
 20
10.2856950013
 11
11.4163654835
 21
10.2820722905
  0
LINE
  5
332
100
AcDbEntity
  8
0
100
AcDbLine
 62
4
  6
CONTINUOUS
 10
11.5267570316
 20
10.2744166107
 11
11.5186757769
 21
10.2780393214
  0
LINE
  5
333
100
AcDbEntity
  8
0
100
AcDbLine
 62
4
  6
CONTINUOUS
 10
11.6849847994
 20
10.2634434777
 11
11.6769036183
 21
10.2670661834
  0
LINE
  5
334
100
AcDbEntity
  8
0
100
AcDbLine
 62
4
  6
CONTINUOUS
 10
11.7762560559
 20
10.2601760684
 11
11.7843372369
 21
10.2565533628
  0
LINE
  5
335
100
AcDbEntity
  8
0
100
AcDbLine
 62
4
  6
CONTINUOUS
 10
10.4288991493
 20
10.3873005983
 11
10.4568933142
 21
10.3914837434
  0
LINE
  5
336
100
AcDbEntity
  8
0
100
AcDbLine
 62
4
  6
CONTINUOUS
 10
11.8580731218
 20
10.2820624996
 11
11.8661543019
 21
10.278439793
  0
LINE
  5
337
100
AcDbEntity
  8
0
100
AcDbLine
 62
4
  6
CONTINUOUS
 10
12.7643088705
 20
9.8920619143
 11
12.748788017
 21
9.9020699206
  0
LINE
  5
338
100
AcDbEntity
  8
0
100
AcDbLine
 62
4
  6
CONTINUOUS
 10
12.7781166819
 20
9.9178992368
 11
12.7703562544
 21
9.9229032392
  0
LINE
  5
339
100
AcDbEntity
  8
0
100
AcDbLine
 62
7
  6
CONTINUOUS
 10
13.4166229389
 20
6.8939083513
 11
13.4166229389
 21
10.2746489436
  0
LINE
  5
33A
100
AcDbEntity
  8
0
100
AcDbLine
 62
7
  6
CONTINUOUS
 10
12.9300435369
 20
6.4239087125
 11
13.4166229389
 21
6.8939083513
  0
ARC
  5
33B
100
AcDbEntity
  8
0
100
AcDbCircle
 62
7
  6
CONTINUOUS
 10
11.6431764444
 20
9.4309453739
 40
0.1137219759
100
AcDbArc
 50
297.0900765238
 51
313.9870391762
  0
ARC
  5
33C
100
AcDbEntity
  8
0
100
AcDbCircle
 62
7
  6
CONTINUOUS
 10
11.6205571284
 20
9.4543624459
 40
0.1137214029
100
AcDbArc
 50
134.026012277
 51
150.9329271333
  0
ARC
  5
33D
100
AcDbEntity
  8
0
100
AcDbCircle
 62
7
  6
CONTINUOUS
 10
13.0840361179
 20
8.7970120022
 40
0.0295175598
100
AcDbArc
 50
86.0393465887
 51
92.1764313729
  0
ARC
  5
33E
100
AcDbEntity
  8
0
100
AcDbCircle
 62
7
  6
CONTINUOUS
 10
13.0230869695
 20
7.9181555853
 40
0.0295151067
100
AcDbArc
 50
259.7941010876
 51
266.0268867551
  0
SPLINE
  5
33F
100
AcDbEntity
  8
0
100
AcDbSpline
 62
7
  6
CONTINUOUS
 70
0
 71
3
 72
39
 73
35
 74
0
 42
0.0000001
 43
0.0000001
 44
0.0000000001
 40
0.0
 40
0.0
 40
0.0
 40
0.0
 40
0.0299422331
 40
0.0599092575
 40
0.0899241853
 40
0.1200100237
 40
0.1501875599
 40
0.1804752385
 40
0.2108897545
 40
0.2414436546
 40
0.2721471403
 40
0.3030068828
 40
0.334025345
 40
0.3652026833
 40
0.3965345645
 40
0.4280135898
 40
0.4596299292
 40
0.4913697388
 40
0.5232175329
 40
0.5551555029
 40
0.587163356
 40
0.6192204168
 40
0.6513042093
 40
0.6833916162
 40
0.7154605923
 40
0.7474887634
 40
0.7794547541
 40
0.8113371941
 40
0.843114759
 40
0.8747724449
 40
0.9063035463
 40
0.9377027577
 40
0.968947027
 40
1.0
 40
1.0
 40
1.0
 40
1.0
 10
11.638966268
 20
9.275720096
 30
0.0
 10
11.6368926559
 20
9.2737169894
 30
0.0
 10
11.6325818129
 20
9.2698729576
 30
0.0
 10
11.6256757736
 20
9.2646356933
 30
0.0
 10
11.6183651218
 20
9.2599530799
 30
0.0
 10
11.6106893536
 20
9.2558538925
 30
0.0
 10
11.6026923814
 20
9.2523573938
 30
0.0
 10
11.5944172395
 20
9.2494847714
 30
0.0
 10
11.5859097212
 20
9.2472520307
 30
0.0
 10
11.5772171458
 20
9.2456688645
 30
0.0
 10
11.5683867572
 20
9.2447473274
 30
0.0
 10
11.5594675959
 20
9.244489894
 30
0.0
 10
11.5505084367
 20
9.2448978982
 30
0.0
 10
11.5415588378
 20
9.2459713993
 30
0.0
 10
11.5326675475
 20
9.2477009879
 30
0.0
 10
11.5238837216
 20
9.2500795608
 30
0.0
 10
11.5152557495
 20
9.2530936357
 30
0.0
 10
11.5068301052
 20
9.2567246594
 30
0.0
 10
11.4986544025
 20
9.2609557157
 30
0.0
 10
11.4907723757
 20
9.2657610419
 30
0.0
 10
11.4832273221
 20
9.2711147721
 30
0.0
 10
11.4760619582
 20
9.2769889983
 30
0.0
 10
11.4693134964
 20
9.2833489198
 30
0.0
 10
11.463020704
 20
9.2901616543
 30
0.0
 10
11.4572177669
 20
9.2973892577
 30
0.0
 10
11.4519351132
 20
9.3049912752
 30
0.0
 10
11.44720462
 20
9.3129277885
 30
0.0
 10
11.4430496891
 20
9.3211531719
 30
0.0
 10
11.4394936317
 20
9.3296225942
 30
0.0
 10
11.4365575729
 20
9.3382907582
 30
0.0
 10
11.434255104
 20
9.3471107407
 30
0.0
 10
11.4326023772
 20
9.3560350265
 30
0.0
 10
11.4316065305
 20
9.3650094365
 30
0.0
 10
11.4313822314
 20
9.3710102317
 30
0.0
 10
11.4313822314
 20
9.3740002902
 30
0.0
  0
SPLINE
  5
340
100
AcDbEntity
  8
0
100
AcDbSpline
 62
7
  6
CONTINUOUS
 70
0
 71
3
 72
15
 73
11
 74
0
 42
0.0000001
 43
0.0000001
 44
0.0000000001
 40
0.0
 40
0.0
 40
0.0
 40
0.0
 40
0.1234389364
 40
0.2470473381
 40
0.370987441
 40
0.4953935886
 40
0.620395394
 40
0.7461421851
 40
0.8727199755
 40
1.0
 40
1.0
 40
1.0
 40
1.0
 10
11.4652796657
 20
9.4555336876
 30
0.0
 10
11.4625958209
 20
9.4529410969
 30
0.0
 10
11.4574880276
 20
9.4474713913
 30
0.0
 10
11.450702817
 20
9.438518286
 30
0.0
 10
11.4448548007
 20
9.4288913519
 30
0.0
 10
11.4399939048
 20
9.418684132
 30
0.0
 10
11.4361688559
 20
9.4079875281
 30
0.0
 10
11.4334112035
 20
9.3968997415
 30
0.0
 10
11.4317515603
 20
9.3855272705
 30
0.0
 10
11.4313822314
 20
9.3778479677
 30
0.0
 10
11.4313822314
 20
9.3740002902
 30
0.0
  0
SPLINE
  5
341
100
AcDbEntity
  8
0
100
AcDbSpline
 62
7
  6
CONTINUOUS
 70
0
 71
3
 72
39
 73
35
 74
0
 42
0.0000001
 43
0.0000001
 44
0.0000000001
 40
0.0
 40
0.0
 40
0.0
 40
0.0
 40
0.031052973
 40
0.0622972423
 40
0.0936964537
 40
0.1252275551
 40
0.156885241
 40
0.1886628059
 40
0.2205452459
 40
0.2525112366
 40
0.2845394077
 40
0.3166083838
 40
0.3486957907
 40
0.3807795832
 40
0.412836644
 40
0.4448444971
 40
0.4767824671
 40
0.5086302612
 40
0.5403700708
 40
0.5719864102
 40
0.6034654355
 40
0.6347973167
 40
0.665974655
 40
0.6969931172
 40
0.7278528597
 40
0.7585563454
 40
0.7891102455
 40
0.8195247615
 40
0.8498124401
 40
0.8799899763
 40
0.9100758147
 40
0.9400907425
 40
0.9700577669
 40
1.0
 40
1.0
 40
1.0
 40
1.0
 10
11.6728637023
 20
9.3572534933
 30
0.0
 10
11.6728637023
 20
9.3602435518
 30
0.0
 10
11.6726394032
 20
9.3662443471
 30
0.0
 10
11.6716435566
 20
9.375218757
 30
0.0
 10
11.6699908298
 20
9.3841430428
 30
0.0
 10
11.6676883608
 20
9.3929630254
 30
0.0
 10
11.664752302
 20
9.4016311893
 30
0.0
 10
11.6611962447
 20
9.4101006116
 30
0.0
 10
11.6570413137
 20
9.4183259951
 30
0.0
 10
11.6523108206
 20
9.4262625084
 30
0.0
 10
11.6470281668
 20
9.4338645259
 30
0.0
 10
11.6412252298
 20
9.4410921292
 30
0.0
 10
11.6349324374
 20
9.4479048637
 30
0.0
 10
11.6281839755
 20
9.4542647853
 30
0.0
 10
11.6210186117
 20
9.4601390114
 30
0.0
 10
11.613473558
 20
9.4654927417
 30
0.0
 10
11.6055915313
 20
9.4702980679
 30
0.0
 10
11.5974158286
 20
9.4745291242
 30
0.0
 10
11.5889901842
 20
9.4781601478
 30
0.0
 10
11.5803622121
 20
9.4811742227
 30
0.0
 10
11.5715783863
 20
9.4835527957
 30
0.0
 10
11.562687096
 20
9.4852823843
 30
0.0
 10
11.5537374971
 20
9.4863558854
 30
0.0
 10
11.5447783378
 20
9.4867638896
 30
0.0
 10
11.5358591765
 20
9.4865064562
 30
0.0
 10
11.5270287879
 20
9.485584919
 30
0.0
 10
11.5183362125
 20
9.4840017529
 30
0.0
 10
11.5098286942
 20
9.4817690122
 30
0.0
 10
11.5015535523
 20
9.4788963898
 30
0.0
 10
11.4935565801
 20
9.4753998911
 30
0.0
 10
11.485880812
 20
9.4713007037
 30
0.0
 10
11.4785701601
 20
9.4666180903
 30
0.0
 10
11.4716641208
 20
9.461380826
 30
0.0
 10
11.4673532778
 20
9.4575367942
 30
0.0
 10
11.4652796657
 20
9.4555336876
 30
0.0
  0
SPLINE
  5
342
100
AcDbEntity
  8
0
100
AcDbSpline
 62
7
  6
CONTINUOUS
 70
0
 71
3
 72
53
 73
49
 74
0
 42
0.0000001
 43
0.0000001
 44
0.0000000001
 40
0.0
 40
0.0
 40
0.0
 40
0.0
 40
0.0313041153
 40
0.0470567589
 40
0.0628625042
 40
0.0945982077
 40
0.1264996374
 40
0.1585539205
 40
0.1907323133
 40
0.2068600129
 40
0.2230041193
 40
0.2391599002
 40
0.2553223468
 40
0.2714864126
 40
0.2876472596
 40
0.3038000459
 40
0.319939713
 40
0.3360612399
 40
0.3521599324
 40
0.3842632888
 40
0.4162252851
 40
0.4480185945
 40
0.4796216269
 40
0.5110196976
 40
0.5422062894
 40
0.5731821078
 40
0.6039571965
 40
0.6192792312
 40
0.6345582438
 40
0.6649908279
 40
0.6801620739
 40
0.6953058919
 40
0.7104271196
 40
0.7255305534
 40
0.7406211915
 40
0.755704483
 40
0.770786026
 40
0.7858711759
 40
0.800965253
 40
0.816073731
 40
0.8463431443
 40
0.8615227459
 40
0.8767341965
 40
0.907262381
 40
0.922599162
 40
0.9379872792
 40
0.9689083072
 40
1.0
 40
1.0
 40
1.0
 40
1.0
 10
11.642938345
 20
9.3507544573
 30
0.0
 10
11.642938345
 20
9.3540050822
 30
0.0
 10
11.6426960824
 20
9.3588956493
 30
0.0
 10
11.6419034996
 20
9.3653767497
 30
0.0
 10
11.6407935046
 20
9.3718571627
 30
0.0
 10
11.6388154364
 20
9.3798797631
 30
0.0
 10
11.6355332975
 20
9.3892738998
 30
0.0
 10
11.6313681459
 20
9.3983616309
 30
0.0
 10
11.6271989523
 20
9.4056049515
 30
0.0
 10
11.6234673162
 20
9.4111628884
 30
0.0
 10
11.6204735984
 20
9.4152057204
 30
0.0
 10
11.617295613
 20
9.4191098548
 30
0.0
 10
11.6139410573
 20
9.4228661783
 30
0.0
 10
11.6104178044
 20
9.4264654909
 30
0.0
 10
11.6067336639
 20
9.4298984765
 30
0.0
 10
11.6028980829
 20
9.4331574724
 30
0.0
 10
11.598920566
 20
9.4362349265
 30
0.0
 10
11.594810483
 20
9.4391234261
 30
0.0
 10
11.5891724057
 20
9.4427084031
 30
0.0
 10
11.5818440593
 20
9.4466839244
 30
0.0
 10
11.5726783921
 20
9.4506026104
 30
0.0
 10
11.5632333196
 20
9.4536250436
 30
0.0
 10
11.5536013174
 20
9.4557262449
 30
0.0
 10
11.5438737587
 20
9.4568805138
 30
0.0
 10
11.5341447326
 20
9.4570819473
 30
0.0
 10
11.5245082967
 20
9.4563227676
 30
0.0
 10
11.5166180429
 20
9.4548969726
 30
0.0
 10
11.5104488425
 20
9.4532870899
 30
0.0
 10
11.5044042933
 20
9.451374551
 30
0.0
 10
11.4985285048
 20
9.4490052267
 30
0.0
 10
11.4928778203
 20
9.4461965442
 30
0.0
 10
11.4887662384
 20
9.4438777058
 30
0.0
 10
11.4847873298
 20
9.4413513808
 30
0.0
 10
11.4809503877
 20
9.4386236694
 30
0.0
 10
11.4772649506
 20
9.4357008079
 30
0.0
 10
11.4737404854
 20
9.4325891611
 30
0.0
 10
11.4703848362
 20
9.429296985
 30
0.0
 10
11.4672058912
 20
9.4258324231
 30
0.0
 10
11.4642113245
 20
9.4222034389
 30
0.0
 10
11.4604738323
 20
9.417154687
 30
0.0
 10
11.4571337374
 20
9.4118107441
 30
0.0
 10
11.4542194573
 20
9.4062239052
 30
0.0
 10
11.451587499
 20
9.4004689954
 30
0.0
 10
11.4494001883
 20
9.3945018268
 30
0.0
 10
11.4476725562
 20
9.3883782069
 30
0.0
 10
11.4462491776
 20
9.3821345218
 30
0.0
 10
11.4450602317
 20
9.3741715622
 30
0.0
 10
11.4447431835
 20
9.3677279054
 30
0.0
 10
11.4447431835
 20
9.3644993385
 30
0.0
  0
SPLINE
  5
343
100
AcDbEntity
  8
0
100
AcDbSpline
 62
7
  6
CONTINUOUS
 70
0
 71
3
 72
15
 73
11
 74
0
 42
0.0000001
 43
0.0000001
 44
0.0000000001
 40
0.0
 40
0.0
 40
0.0
 40
0.0
 40
0.1272800245
 40
0.2538578149
 40
0.379604606
 40
0.5046064114
 40
0.629012559
 40
0.7529526619
 40
0.8765610636
 40
1.0
 40
1.0
 40
1.0
 40
1.0
 10
11.6728637023
 20
9.3572534933
 30
0.0
 10
11.6728637023
 20
9.3534058159
 30
0.0
 10
11.6724943735
 20
9.345726513
 30
0.0
 10
11.6708347302
 20
9.3343540421
 30
0.0
 10
11.6680770779
 20
9.3232662554
 30
0.0
 10
11.6642520289
 20
9.3125696516
 30
0.0
 10
11.6593911331
 20
9.3023624316
 30
0.0
 10
11.6535431167
 20
9.2927354975
 30
0.0
 10
11.6467579062
 20
9.2837823923
 30
0.0
 10
11.6416501129
 20
9.2783126867
 30
0.0
 10
11.638966268
 20
9.275720096
 30
0.0
  0
SPLINE
  5
344
100
AcDbEntity
  8
0
100
AcDbSpline
 62
7
  6
CONTINUOUS
 70
0
 71
3
 72
53
 73
49
 74
0
 42
0.0000001
 43
0.0000001
 44
0.0000000001
 40
0.0
 40
0.0
 40
0.0
 40
0.0
 40
0.0310916928
 40
0.0620127208
 40
0.077400838
 40
0.092737619
 40
0.1232658035
 40
0.1384772541
 40
0.1536568557
 40
0.183926269
 40
0.199034747
 40
0.2141288241
 40
0.229213974
 40
0.244295517
 40
0.2593788085
 40
0.2744694466
 40
0.2895728804
 40
0.3046941081
 40
0.3198379261
 40
0.3350091721
 40
0.3654417562
 40
0.3807207688
 40
0.3960428035
 40
0.4268178922
 40
0.4577937106
 40
0.4889803024
 40
0.5203783731
 40
0.5519814055
 40
0.5837747149
 40
0.6157367112
 40
0.6478400676
 40
0.6639387601
 40
0.680060287
 40
0.6961999541
 40
0.7123527404
 40
0.7285135874
 40
0.7446776532
 40
0.7608400998
 40
0.7769958807
 40
0.7931399871
 40
0.8092676867
 40
0.8414460795
 40
0.8735003626
 40
0.9054017923
 40
0.9371374958
 40
0.9529432411
 40
0.9686958847
 40
1.0
 40
1.0
 40
1.0
 40
1.0
 10
11.642938345
 20
9.3507544573
 30
0.0
 10
11.642938345
 20
9.3475258904
 30
0.0
 10
11.6426212968
 20
9.3410822336
 30
0.0
 10
11.6414323509
 20
9.3331192741
 30
0.0
 10
11.6400089723
 20
9.3268755889
 30
0.0
 10
11.6382813402
 20
9.320751969
 30
0.0
 10
11.6360940296
 20
9.3147848004
 30
0.0
 10
11.6334620712
 20
9.3090298906
 30
0.0
 10
11.6305477911
 20
9.3034430517
 30
0.0
 10
11.6272076962
 20
9.2980991088
 30
0.0
 10
11.6234702041
 20
9.2930503569
 30
0.0
 10
11.6204756374
 20
9.2894213728
 30
0.0
 10
11.6172966923
 20
9.2859568108
 30
0.0
 10
11.6139410431
 20
9.2826646348
 30
0.0
 10
11.610416578
 20
9.279552988
 30
0.0
 10
11.6067311409
 20
9.2766301264
 30
0.0
 10
11.6028941987
 20
9.273902415
 30
0.0
 10
11.5989152901
 20
9.27137609
 30
0.0
 10
11.5948037082
 20
9.2690572517
 30
0.0
 10
11.5891530237
 20
9.2662485691
 30
0.0
 10
11.5832772352
 20
9.2638792448
 30
0.0
 10
11.5772326861
 20
9.261966706
 30
0.0
 10
11.5710634856
 20
9.2603568232
 30
0.0
 10
11.5631732318
 20
9.2589310282
 30
0.0
 10
11.5535367959
 20
9.2581718485
 30
0.0
 10
11.5438077699
 20
9.258373282
 30
0.0
 10
11.5340802111
 20
9.2595275509
 30
0.0
 10
11.524448209
 20
9.2616287522
 30
0.0
 10
11.5150031364
 20
9.2646511854
 30
0.0
 10
11.5058374693
 20
9.2685698714
 30
0.0
 10
11.4985091229
 20
9.2725453927
 30
0.0
 10
11.4928710456
 20
9.2761303697
 30
0.0
 10
11.4887609626
 20
9.2790188693
 30
0.0
 10
11.4847834456
 20
9.2820963234
 30
0.0
 10
11.4809478647
 20
9.2853553193
 30
0.0
 10
11.4772637242
 20
9.288788305
 30
0.0
 10
11.4737404712
 20
9.2923876175
 30
0.0
 10
11.4703859155
 20
9.296143941
 30
0.0
 10
11.4672079301
 20
9.3000480754
 30
0.0
 10
11.4642142123
 20
9.3040909074
 30
0.0
 10
11.4604825762
 20
9.3096488444
 30
0.0
 10
11.4563133827
 20
9.3168921649
 30
0.0
 10
11.452148231
 20
9.325979896
 30
0.0
 10
11.4488660921
 20
9.3353740327
 30
0.0
 10
11.446888024
 20
9.3433966331
 30
0.0
 10
11.4457780289
 20
9.3498770461
 30
0.0
 10
11.4449854461
 20
9.3563581466
 30
0.0
 10
11.4447431835
 20
9.3612487136
 30
0.0
 10
11.4447431835
 20
9.3644993385
 30
0.0
  0
SPLINE
  5
345
100
AcDbEntity
  8
0
100
AcDbSpline
 62
7
  6
CONTINUOUS
 70
0
 71
3
 72
23
 73
19
 74
0
 42
0.0000001
 43
0.0000001
 44
0.0000000001
 40
0.0
 40
0.0
 40
0.0
 40
0.0
 40
0.0764219057
 40
0.1504656864
 40
0.2222015765
 40
0.2917109238
 40
0.3590900758
 40
0.4244474746
 40
0.487903775
 40
0.5495925967
 40
0.6096609602
 40
0.6682702092
 40
0.7255962386
 40
0.7818281892
 40
0.8371677688
 40
0.8918276742
 40
0.9460292214
 40
1.0
 40
1.0
 40
1.0
 40
1.0
 10
13.1733332379
 20
9.1992936055
 30
0.0
 10
13.1745970251
 20
9.2005143303
 30
0.0
 10
13.1771241062
 20
9.2028780511
 30
0.0
 10
13.1809749539
 20
9.2062368812
 30
0.0
 10
13.1848240644
 20
9.2093510058
 30
0.0
 10
13.1886702857
 20
9.2122193092
 30
0.0
 10
13.1925125386
 20
9.2148409772
 30
0.0
 10
13.1963498391
 20
9.2172152373
 30
0.0
 10
13.2001812061
 20
9.2193413368
 30
0.0
 10
13.2040055843
 20
9.2212186297
 30
0.0
 10
13.2078219388
 20
9.2228464292
 30
0.0
 10
13.2116292122
 20
9.2242240889
 30
0.0
 10
13.2154262883
 20
9.2253511245
 30
0.0
 10
13.219212065
 20
9.2262270111
 30
0.0
 10
13.2229853591
 20
9.2268513157
 30
0.0
 10
13.2267450126
 20
9.2272237733
 30
0.0
 10
13.2304895625
 20
9.2273441204
 30
0.0
 10
13.2329773291
 20
9.2272561055
 30
0.0
 10
13.2342152425
 20
9.2271702556
 30
0.0
  0
SPLINE
  5
346
100
AcDbEntity
  8
0
100
AcDbSpline
 62
7
  6
CONTINUOUS
 70
0
 71
3
 72
24
 73
20
 74
0
 42
0.0000001
 43
0.0000001
 44
0.0000000001
 40
0.0
 40
0.0
 40
0.0
 40
0.0
 40
0.0637764416
 40
0.1273443685
 40
0.190701004
 40
0.2538548276
 40
0.3168116139
 40
0.3795801666
 40
0.4421711529
 40
0.504596791
 40
0.5668710034
 40
0.6290092011
 40
0.6910281569
 40
0.7220010165
 40
0.7529508932
 40
0.8147862903
 40
0.8765592252
 40
0.938290164
 40
1.0
 40
1.0
 40
1.0
 40
1.0
 10
12.5823102014
 20
6.930987043
 30
0.0
 10
12.5823102014
 20
6.9264201507
 30
0.0
 10
12.5820915982
 20
6.9172997502
 30
0.0
 10
12.5811050035
 20
6.9036746435
 30
0.0
 10
12.5794622828
 20
6.8901575237
 30
0.0
 10
12.5771673938
 20
6.8767801645
 30
0.0
 10
12.5742254467
 20
6.8635731249
 30
0.0
 10
12.5706432554
 20
6.8505669368
 30
0.0
 10
12.5664290587
 20
6.8377915607
 30
0.0
 10
12.5615925317
 20
6.8252764729
 30
0.0
 10
12.556144749
 20
6.8130504997
 30
0.0
 10
12.5500983897
 20
6.8011420164
 30
0.0
 10
12.5445697871
 20
6.7915009593
 30
0.0
 10
12.539862838
 20
6.7839757664
 30
0.0
 10
12.5349724892
 20
6.7765842036
 30
0.0
 10
12.5285129397
 20
6.7675907829
 30
0.0
 10
12.5202244156
 20
6.7572180858
 30
0.0
 10
12.5114201713
 20
6.7472916413
 30
0.0
 10
12.505219291
 20
6.7409857545
 30
0.0
 10
12.5020409704
 20
6.7379157352
 30
0.0
  0
SPLINE
  5
347
100
AcDbEntity
  8
0
100
AcDbSpline
 62
7
  6
CONTINUOUS
 70
0
 71
3
 72
24
 73
20
 74
0
 42
0.0000001
 43
0.0000001
 44
0.0000000001
 40
0.0
 40
0.0
 40
0.0
 40
0.0
 40
0.0637764416
 40
0.1273443685
 40
0.190701004
 40
0.2538548276
 40
0.3168116139
 40
0.3795801666
 40
0.4421711529
 40
0.504596791
 40
0.5668710034
 40
0.6290092011
 40
0.6910281569
 40
0.7220010165
 40
0.7529508932
 40
0.8147862903
 40
0.8765592252
 40
0.938290164
 40
1.0
 40
1.0
 40
1.0
 40
1.0
 10
9.5029384045
 20
7.1445422024
 30
0.0
 10
9.5029384045
 20
7.1399753101
 30
0.0
 10
9.5027198014
 20
7.1308549097
 30
0.0
 10
9.5017332066
 20
7.1172298029
 30
0.0
 10
9.500090486
 20
7.1037126831
 30
0.0
 10
9.497795597
 20
7.0903353239
 30
0.0
 10
9.4948536499
 20
7.0771282844
 30
0.0
 10
9.4912714586
 20
7.0641220962
 30
0.0
 10
9.4870572619
 20
7.0513467201
 30
0.0
 10
9.4822207349
 20
7.0388316323
 30
0.0
 10
9.4767729522
 20
7.0266056591
 30
0.0
 10
9.4707265929
 20
7.0146971758
 30
0.0
 10
9.4651979902
 20
7.0050561187
 30
0.0
 10
9.4604910412
 20
6.9975309259
 30
0.0
 10
9.4556006923
 20
6.9901393631
 30
0.0
 10
9.4491411429
 20
6.9811459424
 30
0.0
 10
9.4408526188
 20
6.9707732453
 30
0.0
 10
9.4320483745
 20
6.9608468007
 30
0.0
 10
9.4258474942
 20
6.954540914
 30
0.0
 10
9.4226691736
 20
6.9514708946
 30
0.0
  0
SPLINE
  5
348
100
AcDbEntity
  8
0
100
AcDbSpline
 62
7
  6
CONTINUOUS
 70
0
 71
3
 72
24
 73
20
 74
0
 42
0.0000001
 43
0.0000001
 44
0.0000000001
 40
0.0
 40
0.0
 40
0.0
 40
0.0
 40
0.0637764416
 40
0.1273443685
 40
0.190701004
 40
0.2538548276
 40
0.3168116139
 40
0.3795801666
 40
0.4421711529
 40
0.504596791
 40
0.5668710034
 40
0.6290092011
 40
0.6910281569
 40
0.7220010165
 40
0.7529508932
 40
0.8147862903
 40
0.8765592252
 40
0.938290164
 40
1.0
 40
1.0
 40
1.0
 40
1.0
 10
9.5029384045
 20
9.5593569112
 30
0.0
 10
9.5029384045
 20
9.5547900189
 30
0.0
 10
9.5027198014
 20
9.5456696185
 30
0.0
 10
9.5017332066
 20
9.5320445117
 30
0.0
 10
9.500090486
 20
9.5185273919
 30
0.0
 10
9.497795597
 20
9.5051500327
 30
0.0
 10
9.4948536499
 20
9.4919429932
 30
0.0
 10
9.4912714586
 20
9.478936805
 30
0.0
 10
9.4870572619
 20
9.466161429
 30
0.0
 10
9.4822207349
 20
9.4536463411
 30
0.0
 10
9.4767729522
 20
9.4414203679
 30
0.0
 10
9.4707265929
 20
9.4295118846
 30
0.0
 10
9.4651979902
 20
9.4198708275
 30
0.0
 10
9.4604910412
 20
9.4123456347
 30
0.0
 10
9.4556006923
 20
9.4049540719
 30
0.0
 10
9.4491411429
 20
9.3959606512
 30
0.0
 10
9.4408526188
 20
9.3855879541
 30
0.0
 10
9.4320483745
 20
9.3756615095
 30
0.0
 10
9.4258474942
 20
9.3693556228
 30
0.0
 10
9.4226691736
 20
9.3662856034
 30
0.0
  0
SPLINE
  5
349
100
AcDbEntity
  8
0
100
AcDbSpline
 62
7
  6
CONTINUOUS
 70
0
 71
3
 72
24
 73
20
 74
0
 42
0.0000001
 43
0.0000001
 44
0.0000000001
 40
0.0
 40
0.0
 40
0.0
 40
0.0
 40
0.0637764416
 40
0.1273443685
 40
0.190701004
 40
0.2538548276
 40
0.3168116139
 40
0.3795801666
 40
0.4421711529
 40
0.504596791
 40
0.5668710034
 40
0.6290092011
 40
0.6910281569
 40
0.7220010165
 40
0.7529508932
 40
0.8147862903
 40
0.8765592252
 40
0.938290164
 40
1.0
 40
1.0
 40
1.0
 40
1.0
 10
12.5823102014
 20
9.3458017518
 30
0.0
 10
12.5823102014
 20
9.3412348595
 30
0.0
 10
12.5820915982
 20
9.332114459
 30
0.0
 10
12.5811050035
 20
9.3184893523
 30
0.0
 10
12.5794622828
 20
9.3049722325
 30
0.0
 10
12.5771673938
 20
9.2915948733
 30
0.0
 10
12.5742254467
 20
9.2783878337
 30
0.0
 10
12.5706432554
 20
9.2653816456
 30
0.0
 10
12.5664290587
 20
9.2526062695
 30
0.0
 10
12.5615925317
 20
9.2400911817
 30
0.0
 10
12.556144749
 20
9.2278652085
 30
0.0
 10
12.5500983897
 20
9.2159567252
 30
0.0
 10
12.5445697871
 20
9.2063156681
 30
0.0
 10
12.539862838
 20
9.1987904753
 30
0.0
 10
12.5349724892
 20
9.1913989125
 30
0.0
 10
12.5285129397
 20
9.1824054917
 30
0.0
 10
12.5202244156
 20
9.1720327946
 30
0.0
 10
12.5114201713
 20
9.1621063501
 30
0.0
 10
12.505219291
 20
9.1558004633
 30
0.0
 10
12.5020409704
 20
9.152730444
 30
0.0
  0
SPLINE
  5
34A
100
AcDbEntity
  8
0
100
AcDbSpline
 62
7
  6
CONTINUOUS
 70
0
 71
3
 72
23
 73
19
 74
0
 42
0.0000001
 43
0.0000001
 44
0.0000000001
 40
0.0
 40
0.0
 40
0.0
 40
0.0
 40
0.0637744828
 40
0.1273454316
 40
0.1907025265
 40
0.2538558004
 40
0.316813226
 40
0.3795821625
 40
0.4421733656
 40
0.5045993404
 40
0.5668738661
 40
0.6290123724
 40
0.6910316429
 40
0.7529496283
 40
0.8147853425
 40
0.8765585905
 40
0.938289842
 40
1.0
 40
1.0
 40
1.0
 40
1.0
 10
11.7574095318
 20
9.4339184984
 30
0.0
 10
11.7574095318
 20
9.4319128227
 30
0.0
 10
11.7573134907
 20
9.4279071938
 30
0.0
 10
11.7568802281
 20
9.4219231212
 30
0.0
 10
11.7561587471
 20
9.4159864327
 30
0.0
 10
11.7551507898
 20
9.4101112129
 30
0.0
 10
11.7538587473
 20
9.4043107795
 30
0.0
 10
11.7522854382
 20
9.3985985506
 30
0.0
 10
11.7504345732
 20
9.3929877024
 30
0.0
 10
11.7483103949
 20
9.3874911635
 30
0.0
 10
11.7459177351
 20
9.3821216318
 30
0.0
 10
11.7432621878
 20
9.376891456
 30
0.0
 10
11.7403497854
 20
9.3718127419
 30
0.0
 10
11.7371872788
 20
9.366897182
 30
0.0
 10
11.7337819801
 20
9.3621561133
 30
0.0
 10
11.7301416343
 20
9.3576004877
 30
0.0
 10
11.7262748681
 20
9.3532408852
 30
0.0
 10
11.7235514469
 20
9.3504714147
 30
0.0
 10
11.7221555453
 20
9.3491230884
 30
0.0
  0
SPLINE
  5
34B
100
AcDbEntity
  8
0
100
AcDbSpline
 62
7
  6
CONTINUOUS
 70
0
 71
3
 72
23
 73
19
 74
0
 42
0.0000001
 43
0.0000001
 44
0.0000000001
 40
0.0
 40
0.0
 40
0.0
 40
0.0
 40
0.0637744828
 40
0.1273454316
 40
0.1907025265
 40
0.2538558004
 40
0.316813226
 40
0.3795821625
 40
0.4421733656
 40
0.5045993404
 40
0.5668738661
 40
0.6290123724
 40
0.6910316429
 40
0.7529496283
 40
0.8147853425
 40
0.8765585905
 40
0.938289842
 40
1.0
 40
1.0
 40
1.0
 40
1.0
 10
10.8822806639
 20
8.2562918462
 30
0.0
 10
10.8822806639
 20
8.2542861705
 30
0.0
 10
10.8821846227
 20
8.2502805416
 30
0.0
 10
10.8817513601
 20
8.244296469
 30
0.0
 10
10.8810298791
 20
8.2383597805
 30
0.0
 10
10.8800219219
 20
8.2324845607
 30
0.0
 10
10.8787298793
 20
8.2266841273
 30
0.0
 10
10.8771565702
 20
8.2209718984
 30
0.0
 10
10.8753057052
 20
8.2153610502
 30
0.0
 10
10.873181527
 20
8.2098645113
 30
0.0
 10
10.8707888671
 20
8.2044949797
 30
0.0
 10
10.8681333199
 20
8.1992648038
 30
0.0
 10
10.8652209175
 20
8.1941860898
 30
0.0
 10
10.8620584109
 20
8.1892705298
 30
0.0
 10
10.8586531121
 20
8.1845294611
 30
0.0
 10
10.8550127663
 20
8.1799738355
 30
0.0
 10
10.8511460001
 20
8.175614233
 30
0.0
 10
10.8484225789
 20
8.1728447625
 30
0.0
 10
10.8470266773
 20
8.1714964362
 30
0.0
  0
SPLINE
  5
34C
100
AcDbEntity
  8
0
100
AcDbSpline
 62
7
  6
CONTINUOUS
 70
0
 71
3
 72
23
 73
19
 74
0
 42
0.0000001
 43
0.0000001
 44
0.0000000001
 40
0.0
 40
0.0
 40
0.0
 40
0.0
 40
0.0637764154
 40
0.1273451281
 40
0.190701988
 40
0.253856063
 40
0.3168132283
 40
0.3795820791
 40
0.4421733864
 40
0.5045993414
 40
0.5668738629
 40
0.629012379
 40
0.6910316532
 40
0.7529496461
 40
0.8147853522
 40
0.8765586034
 40
0.9382898574
 40
1.0
 40
1.0
 40
1.0
 40
1.0
 10
10.9981917699
 20
7.4330119555
 30
0.0
 10
10.9981917699
 20
7.4291548094
 30
0.0
 10
10.9980071307
 20
7.4214517724
 30
0.0
 10
10.9971738726
 20
7.4099440947
 30
0.0
 10
10.9957864445
 20
7.3985276051
 30
0.0
 10
10.9938481885
 20
7.3872291831
 30
0.0
 10
10.9913634436
 20
7.3760746052
 30
0.0
 10
10.9883379579
 20
7.3650896582
 30
0.0
 10
10.9847786909
 20
7.354299657
 30
0.0
 10
10.9806937723
 20
7.3437294947
 30
0.0
 10
10.9760926355
 20
7.3334035413
 30
0.0
 10
10.9709858836
 20
7.323345604
 30
0.0
 10
10.9653852499
 20
7.3135788985
 30
0.0
 10
10.9593036199
 20
7.3041259604
 30
0.0
 10
10.9527550619
 20
7.2950085969
 30
0.0
 10
10.9457545912
 20
7.2862477698
 30
0.0
 10
10.9383185955
 20
7.2778639901
 30
0.0
 10
10.9330813686
 20
7.2725380747
 30
0.0
 10
10.9303969817
 20
7.2699451552
 30
0.0
  0
SPLINE
  5
34D
100
AcDbEntity
  8
0
100
AcDbSpline
 62
7
  6
CONTINUOUS
 70
0
 71
3
 72
23
 73
19
 74
0
 42
0.0000001
 43
0.0000001
 44
0.0000000001
 40
0.0
 40
0.0
 40
0.0
 40
0.0
 40
0.0637764154
 40
0.1273451281
 40
0.190701988
 40
0.253856063
 40
0.3168132283
 40
0.3795820791
 40
0.4421733864
 40
0.5045993414
 40
0.5668738629
 40
0.629012379
 40
0.6910316532
 40
0.7529496461
 40
0.8147853522
 40
0.8765586034
 40
0.9382898574
 40
1.0
 40
1.0
 40
1.0
 40
1.0
 10
10.3046570482
 20
8.29635018
 30
0.0
 10
10.3046570482
 20
8.2924930339
 30
0.0
 10
10.304472409
 20
8.2847899969
 30
0.0
 10
10.3036391509
 20
8.2732823192
 30
0.0
 10
10.3022517227
 20
8.2618658296
 30
0.0
 10
10.3003134668
 20
8.2505674076
 30
0.0
 10
10.2978287219
 20
8.2394128297
 30
0.0
 10
10.2948032362
 20
8.2284278827
 30
0.0
 10
10.2912439692
 20
8.2176378815
 30
0.0
 10
10.2871590505
 20
8.2070677192
 30
0.0
 10
10.2825579137
 20
8.1967417658
 30
0.0
 10
10.2774511618
 20
8.1866838285
 30
0.0
 10
10.2718505281
 20
8.176917123
 30
0.0
 10
10.2657688982
 20
8.1674641849
 30
0.0
 10
10.2592203402
 20
8.1583468214
 30
0.0
 10
10.2522198695
 20
8.1495859943
 30
0.0
 10
10.2447838738
 20
8.1412022146
 30
0.0
 10
10.2395466469
 20
8.1358762992
 30
0.0
 10
10.2368622599
 20
8.1332833797
 30
0.0
  0
SPLINE
  5
34E
100
AcDbEntity
  8
0
100
AcDbSpline
 62
7
  6
CONTINUOUS
 70
0
 71
3
 72
23
 73
19
 74
0
 42
0.0000001
 43
0.0000001
 44
0.0000000001
 40
0.0
 40
0.0
 40
0.0
 40
0.0
 40
0.0637764154
 40
0.1273451281
 40
0.190701988
 40
0.253856063
 40
0.3168132283
 40
0.3795820791
 40
0.4421733864
 40
0.5045993414
 40
0.5668738629
 40
0.629012379
 40
0.6910316532
 40
0.7529496461
 40
0.8147853522
 40
0.8765586034
 40
0.9382898574
 40
1.0
 40
1.0
 40
1.0
 40
1.0
 10
11.6917266068
 20
8.2001565794
 30
0.0
 10
11.6917266068
 20
8.1962994333
 30
0.0
 10
11.6915419676
 20
8.1885963963
 30
0.0
 10
11.6907087095
 20
8.1770887186
 30
0.0
 10
11.6893212813
 20
8.165672229
 30
0.0
 10
11.6873830254
 20
8.154373807
 30
0.0
 10
11.6848982805
 20
8.1432192291
 30
0.0
 10
11.6818727948
 20
8.1322342821
 30
0.0
 10
11.6783135278
 20
8.1214442809
 30
0.0
 10
11.6742286091
 20
8.1108741186
 30
0.0
 10
11.6696274723
 20
8.1005481652
 30
0.0
 10
11.6645207204
 20
8.0904902279
 30
0.0
 10
11.6589200867
 20
8.0807235223
 30
0.0
 10
11.6528384568
 20
8.0712705843
 30
0.0
 10
11.6462898988
 20
8.0621532208
 30
0.0
 10
11.6392894281
 20
8.0533923937
 30
0.0
 10
11.6318534324
 20
8.045008614
 30
0.0
 10
11.6266162055
 20
8.0396826986
 30
0.0
 10
11.6239318186
 20
8.0370897791
 30
0.0
  0
SPLINE
  5
34F
100
AcDbEntity
  8
0
100
AcDbSpline
 62
7
  6
CONTINUOUS
 70
0
 71
3
 72
23
 73
19
 74
0
 42
0.0000001
 43
0.0000001
 44
0.0000000001
 40
0.0
 40
0.0
 40
0.0
 40
0.0
 40
0.0637764154
 40
0.1273451281
 40
0.190701988
 40
0.253856063
 40
0.3168132283
 40
0.3795820791
 40
0.4421733864
 40
0.5045993414
 40
0.5668738629
 40
0.629012379
 40
0.6910316532
 40
0.7529496461
 40
0.8147853522
 40
0.8765586034
 40
0.9382898574
 40
1.0
 40
1.0
 40
1.0
 40
1.0
 10
10.9981917699
 20
9.0634949271
 30
0.0
 10
10.9981917699
 20
9.0596377809
 30
0.0
 10
10.9980071307
 20
9.0519347439
 30
0.0
 10
10.9971738726
 20
9.0404270662
 30
0.0
 10
10.9957864445
 20
9.0290105767
 30
0.0
 10
10.9938481885
 20
9.0177121546
 30
0.0
 10
10.9913634436
 20
9.0065575767
 30
0.0
 10
10.9883379579
 20
8.9955726297
 30
0.0
 10
10.9847786909
 20
8.9847826285
 30
0.0
 10
10.9806937723
 20
8.9742124662
 30
0.0
 10
10.9760926355
 20
8.9638865128
 30
0.0
 10
10.9709858836
 20
8.9538285756
 30
0.0
 10
10.9653852499
 20
8.94406187
 30
0.0
 10
10.9593036199
 20
8.9346089319
 30
0.0
 10
10.9527550619
 20
8.9254915684
 30
0.0
 10
10.9457545912
 20
8.9167307413
 30
0.0
 10
10.9383185955
 20
8.9083469616
 30
0.0
 10
10.9330813686
 20
8.9030210462
 30
0.0
 10
10.9303969817
 20
8.9004281267
 30
0.0
  0
SPLINE
  5
350
100
AcDbEntity
  8
0
100
AcDbSpline
 62
7
  6
CONTINUOUS
 70
0
 71
3
 72
39
 73
35
 74
0
 42
0.0000001
 43
0.0000001
 44
0.0000000001
 40
0.0
 40
0.0
 40
0.0
 40
0.0
 40
0.0314391531
 40
0.0627199251
 40
0.0938508685
 40
0.1248466263
 40
0.1557276782
 40
0.1865194344
 40
0.2172512285
 40
0.2479551053
 40
0.2786647094
 40
0.309414118
 40
0.3402368584
 40
0.3711649579
 40
0.4022280049
 40
0.4334522601
 40
0.4648596831
 40
0.4964666857
 40
0.5282826377
 40
0.5603081041
 40
0.5925328354
 40
0.6249334337
 40
0.6574709657
 40
0.6900890461
 40
0.7227128649
 40
0.7552498845
 40
0.7875931247
 40
0.8196271145
 40
0.8512362848
 40
0.882314772
 40
0.9127756907
 40
0.9425584778
 40
0.9716329583
 40
1.0
 40
1.0
 40
1.0
 40
1.0
 10
9.9557622605
 20
8.459343674
 30
0.0
 10
9.9557622605
 20
8.4544655011
 30
0.0
 10
9.9561043726
 20
8.4447301424
 30
0.0
 10
9.9576482487
 20
8.4302383187
 30
0.0
 10
9.9602068794
 20
8.4159600464
 30
0.0
 10
9.9637566194
 20
8.4019597399
 30
0.0
 10
9.9682661143
 20
8.3882941259
 30
0.0
 10
9.9736979671
 20
8.3750129141
 30
0.0
 10
9.9800104764
 20
8.3621581056
 30
0.0
 10
9.9871593423
 20
8.3497642589
 30
0.0
 10
9.9950991793
 20
8.3378590149
 30
0.0
 10
10.0037847561
 20
8.3264639122
 30
0.0
 10
10.0131719203
 20
8.3155953725
 30
0.0
 10
10.0232181854
 20
8.3052657542
 30
0.0
 10
10.0338830019
 20
8.2954844155
 30
0.0
 10
10.0451277305
 20
8.2862587308
 30
0.0
 10
10.056915333
 20
8.2775950468
 30
0.0
 10
10.0692097894
 20
8.2694995732
 30
0.0
 10
10.0819752371
 20
8.261979177
 30
0.0
 10
10.0951748638
 20
8.2550420408
 30
0.0
 10
10.10876958
 20
8.2486981881
 30
0.0
 10
10.1227165114
 20
8.2429598252
 30
0.0
 10
10.1369674301
 20
8.2378414299
 30
0.0
 10
10.1514673332
 20
8.2333595139
 30
0.0
 10
10.1661534552
 20
8.2295319957
 30
0.0
 10
10.1809550804
 20
8.2263771756
 30
0.0
 10
10.1957944656
 20
8.2239123802
 30
0.0
 10
10.2105890517
 20
8.2221524551
 30
0.0
 10
10.2252548169
 20
8.2211083856
 30
0.0
 10
10.2397103285
 20
8.2207863344
 30
0.0
 10
10.2538806696
 20
8.221187299
 30
0.0
 10
10.2677009263
 20
8.2223075604
 30
0.0
 10
10.2811170494
 20
8.2241394
 30
0.0
 10
10.2898704269
 20
8.2258491199
 30
0.0
 10
10.2941628891
 20
8.2268227436
 30
0.0
  0
SPLINE
  5
351
100
AcDbEntity
  8
0
100
AcDbSpline
 62
7
  6
CONTINUOUS
 70
0
 71
3
 72
35
 73
31
 74
0
 42
0.0000001
 43
0.0000001
 44
0.0000000001
 40
0.0
 40
0.0
 40
0.0
 40
0.0
 40
0.0306466324
 40
0.0612942392
 40
0.0919601621
 40
0.1226669723
 40
0.1534345022
 40
0.1842821854
 40
0.2152284022
 40
0.2462900301
 40
0.3088044004
 40
0.3719316808
 40
0.4357115862
 40
0.5001107088
 40
0.53251097
 40
0.5650070179
 40
0.5975625698
 40
0.6301326401
 40
0.6626635646
 40
0.6950939095
 40
0.7273564105
 40
0.7593804078
 40
0.7910949983
 40
0.8224326912
 40
0.8533331003
 40
0.8837462025
 40
0.9136348561
 40
0.9429762731
 40
0.9717624525
 40
1.0
 40
1.0
 40
1.0
 40
1.0
 10
11.3673560144
 20
8.2657854367
 30
0.0
 10
11.369110178
 20
8.2625059567
 30
0.0
 10
11.3727899353
 20
8.256036987
 30
0.0
 10
11.3787974693
 20
8.2466267099
 30
0.0
 10
11.3852710455
 20
8.2375216574
 30
0.0
 10
11.3921889433
 20
8.2287312917
 30
0.0
 10
11.3995305969
 20
8.220262641
 30
0.0
 10
11.4072757918
 20
8.2121216201
 30
0.0
 10
11.4154053033
 20
8.2043127547
 30
0.0
 10
11.4267545231
 20
8.1943290939
 30
0.0
 10
11.4418272076
 20
8.182694185
 30
0.0
 10
11.4611187724
 20
8.1701512708
 30
0.0
 10
11.4815174002
 20
8.1590205778
 30
0.0
 10
11.4992826088
 20
8.1509662033
 30
0.0
 10
11.5139020439
 20
8.1452604639
 30
0.0
 10
11.5250668345
 20
8.1413526004
 30
0.0
 10
11.5363815431
 20
8.1378334107
 30
0.0
 10
11.5478166573
 20
8.1347114322
 30
0.0
 10
11.5593393501
 20
8.1319955318
 30
0.0
 10
11.5709139605
 20
8.1296943711
 30
0.0
 10
11.5825023861
 20
8.1278160221
 30
0.0
 10
11.5940648761
 20
8.1263675019
 30
0.0
 10
11.6055610397
 20
8.1253543696
 30
0.0
 10
11.6169510506
 20
8.124780406
 30
0.0
 10
11.6281968955
 20
8.1246474242
 30
0.0
 10
11.6392635278
 20
8.124955277
 30
0.0
 10
11.6501197169
 20
8.1257020282
 30
0.0
 10
11.6607387274
 20
8.1268842755
 30
0.0
 10
11.6710980473
 20
8.128497428
 30
0.0
 10
11.6778837212
 20
8.1298696926
 30
0.0
 10
11.6812256502
 20
8.130627601
 30
0.0
  0
SPLINE
  5
352
100
AcDbEntity
  8
0
100
AcDbSpline
 62
7
  6
CONTINUOUS
 70
0
 71
3
 72
12
 73
8
 74
0
 42
0.0000001
 43
0.0000001
 44
0.0000000001
 40
0.0
 40
0.0
 40
0.0
 40
0.0
 40
0.248709755
 40
0.5017223605
 40
0.7537999004
 40
0.8779172696
 40
1.0
 40
1.0
 40
1.0
 40
1.0
 10
11.3526941211
 20
8.3726763261
 30
0.0
 10
11.3526941211
 20
8.3637094919
 30
0.0
 10
11.3534098457
 20
8.3456146008
 30
0.0
 10
11.3564083877
 20
8.3185845512
 30
0.0
 10
11.3603263691
 20
8.2962258208
 30
0.0
 10
11.3641522462
 20
8.2786719114
 30
0.0
 10
11.3662606597
 20
8.2700484623
 30
0.0
 10
11.3673560144
 20
8.2657854367
 30
0.0
  0
SPLINE
  5
353
100
AcDbEntity
  8
0
100
AcDbSpline
 62
7
  6
CONTINUOUS
 70
0
 71
3
 72
14
 73
10
 74
0
 42
0.0000001
 43
0.0000001
 44
0.0000000001
 40
0.0
 40
0.0
 40
0.0
 40
0.0
 40
0.1111800486
 40
0.2269094299
 40
0.3469419103
 40
0.4709806298
 40
0.5986883164
 40
0.7296971599
 40
1.0
 40
1.0
 40
1.0
 40
1.0
 10
11.3622355501
 20
8.4478727356
 30
0.0
 10
11.3614828919
 20
8.4451577504
 30
0.0
 10
11.3600500525
 20
8.4395875506
 30
0.0
 10
11.3581657899
 20
8.4309983005
 30
0.0
 10
11.3565259137
 20
8.4220274711
 30
0.0
 10
11.3551522184
 20
8.4127052024
 30
0.0
 10
11.3540635387
 20
8.4030652443
 30
0.0
 10
11.353001459
 20
8.3896999167
 30
0.0
 10
11.3526941211
 20
8.3795259925
 30
0.0
 10
11.3526941211
 20
8.3726763261
 30
0.0
  0
SPLINE
  5
354
100
AcDbEntity
  8
0
100
AcDbSpline
 62
7
  6
CONTINUOUS
 70
0
 71
3
 72
103
 73
99
 74
0
 42
0.0000001
 43
0.0000001
 44
0.0000000001
 40
0.0
 40
0.0
 40
0.0
 40
0.0
 40
0.0027164048
 40
0.0054531862
 40
0.0082302278
 40
0.0110664952
 40
0.0139796738
 40
0.0169859521
 40
0.0200998844
 40
0.0233343666
 40
0.026700688
 40
0.0302086012
 40
0.033866481
 40
0.0376814028
 40
0.0416593405
 40
0.04580522
 40
0.050123109
 40
0.0546162515
 40
0.059287218
 40
0.0641379428
 40
0.0691698167
 40
0.0743837442
 40
0.0797801764
 40
0.0853591945
 40
0.0911204909
 40
0.097063473
 40
0.1031872122
 40
0.1094905507
 40
0.115972045
 40
0.1226300528
 40
0.129462696
 40
0.1364679111
 40
0.1436434462
 40
0.1509868675
 40
0.1584955951
 40
0.1661668689
 40
0.1739978144
 40
0.1819853836
 40
0.1901264332
 40
0.1984176611
 40
0.2154367725
 40
0.2330143466
 40
0.251120167
 40
0.2697225161
 40
0.2887883097
 40
0.3082832214
 40
0.3281718007
 40
0.3484175849
 40
0.3689832078
 40
0.3898305045
 40
0.4109206147
 40
0.4322140837
 40
0.4536709631
 40
0.4752509101
 40
0.4969132863
 40
0.5186172556
 40
0.5403218829
 40
0.561986231
 40
0.5835694595
 40
0.6050309218
 40
0.6263302644
 40
0.6474275243
 40
0.6682832297
 40
0.6888584996
 40
0.7091151451
 40
0.7290157726
 40
0.748523889
 40
0.7676040092
 40
0.7862217692
 40
0.8043440428
 40
0.8219390666
 40
0.8389765737
 40
0.8472773366
 40
0.8554281366
 40
0.8634256636
 40
0.8712667662
 40
0.8789483877
 40
0.8864676444
 40
0.8938217669
 40
0.9010081646
 40
0.9080243933
 40
0.9148681894
 40
0.9215374772
 40
0.9280303652
 40
0.9343451972
 40
0.940480514
 40
0.946435142
 40
0.9522081344
 40
0.9577988776
 40
0.9632070413
 40
0.9684326863
 40
0.9734762434
 40
0.9783385761
 40
0.9830210188
 40
0.9875254912
 40
0.9918546128
 40
0.9960115506
 40
1.0
 40
1.0
 40
1.0
 40
1.0
 10
13.1124512334
 20
7.4713874005
 30
0.0
 10
13.1108088223
 20
7.4715013025
 30
0.0
 10
13.1075200868
 20
7.4718785935
 30
0.0
 10
13.1026288652
 20
7.4728883082
 30
0.0
 10
13.097774597
 20
7.474341511
 30
0.0
 10
13.092960765
 20
7.4762368889
 30
0.0
 10
13.0881898383
 20
7.4785726958
 30
0.0
 10
13.0834642728
 20
7.4813471347
 30
0.0
 10
13.0787862467
 20
7.4845582233
 30
0.0
 10
13.0741578246
 20
7.4882039124
 30
0.0
 10
13.069581038
 20
7.4922821046
 30
0.0
 10
13.0650578105
 20
7.4967905259
 30
0.0
 10
13.0605901835
 20
7.5017268798
 30
0.0
 10
13.0561800593
 20
7.5070886028
 30
0.0
 10
13.0518295227
 20
7.5128730815
 30
0.0
 10
13.0475404955
 20
7.5190774042
 30
0.0
 10
13.0433150707
 20
7.52569856
 30
0.0
 10
13.039155197
 20
7.532733257
 30
0.0
 10
13.0350629283
 20
7.5401780519
 30
0.0
 10
13.0310402311
 20
7.5480292575
 30
0.0
 10
13.0270890862
 20
7.5562829935
 30
0.0
 10
13.0232114603
 20
7.5649351713
 30
0.0
 10
13.0194092451
 20
7.5739814845
 30
0.0
 10
13.015684384
 20
7.5834174423
 30
0.0
 10
13.0120386787
 20
7.5932383283
 30
0.0
 10
13.0084740223
 20
7.6034392532
 30
0.0
 10
13.0049921355
 20
7.6140151074
 30
0.0
 10
13.0015948323
 20
7.6249606101
 30
0.0
 10
12.9982837658
 20
7.6362702738
 30
0.0
 10
12.9950606468
 20
7.6479384372
 30
0.0
 10
12.9919270696
 20
7.6599592477
 30
0.0
 10
12.9888846271
 20
7.6723266776
 30
0.0
 10
12.9859348552
 20
7.6850345208
 30
0.0
 10
12.9830792246
 20
7.6980763983
 30
0.0
 10
12.9803192055
 20
7.711445762
 30
0.0
 10
12.9776561497
 20
7.7251358972
 30
0.0
 10
12.975091448
 20
7.739139927
 30
0.0
 10
12.9726263459
 20
7.7534508131
 30
0.0
 10
12.970262125
 20
7.7680613742
 30
0.0
 10
12.9672194676
 20
7.7881062158
 30
0.0
 10
12.9636853437
 20
7.8138599156
 30
0.0
 10
12.9599007173
 20
7.845578302
 30
0.0
 10
12.9565442
 20
7.8783095341
 30
0.0
 10
12.9536226047
 20
7.9119877798
 30
0.0
 10
12.9511418861
 20
7.9465453996
 30
0.0
 10
12.949107096
 20
7.9819129363
 30
0.0
 10
12.9475223836
 20
8.0180193004
 30
0.0
 10
12.9463909848
 20
8.0547919032
 30
0.0
 10
12.9457152173
 20
8.0921568088
 30
0.0
 10
12.9454964762
 20
8.1300388827
 30
0.0
 10
12.9457352317
 20
8.1683619449
 30
0.0
 10
12.9464310278
 20
8.2070489242
 30
0.0
 10
12.9475824844
 20
8.2460220139
 30
0.0
 10
12.9491873003
 20
8.2852028299
 30
0.0
 10
12.9512422579
 20
8.3245125688
 30
0.0
 10
12.9537432304
 20
8.363872167
 30
0.0
 10
12.9566851895
 20
8.4032024604
 30
0.0
 10
12.9600622163
 20
8.4424243441
 30
0.0
 10
12.9638675124
 20
8.4814589321
 30
0.0
 10
12.9680934144
 20
8.5202277164
 30
0.0
 10
12.9727314087
 20
8.5586527257
 30
0.0
 10
12.9777721485
 20
8.5966566829
 30
0.0
 10
12.9832054726
 20
8.6341631615
 30
0.0
 10
12.9890204247
 20
8.6710967409
 30
0.0
 10
12.9952052763
 20
8.7073831589
 30
0.0
 10
13.0017475497
 20
8.7429494624
 30
0.0
 10
13.0086340429
 20
8.7777241555
 30
0.0
 10
13.0158508556
 20
8.8116373476
 30
0.0
 10
13.0233834175
 20
8.8446208856
 30
0.0
 10
13.0312165145
 20
8.8766085362
 30
0.0
 10
13.0393343308
 20
8.9075359712
 30
0.0
 10
13.0463824077
 20
8.9325858838
 30
0.0
 10
13.052157376
 20
8.9520442934
 30
0.0
 10
13.0565119198
 20
8.9662083648
 30
0.0
 10
13.060925155
 20
8.9800621567
 30
0.0
 10
13.0653948229
 20
8.9935987231
 30
0.0
 10
13.0699187196
 20
9.0068112549
 30
0.0
 10
13.074494521
 20
9.019693122
 30
0.0
 10
13.0791199619
 20
9.0322378501
 30
0.0
 10
13.083792685
 20
9.0444391451
 30
0.0
 10
13.0885103533
 20
9.0562908813
 30
0.0
 10
13.0932705918
 20
9.067787112
 30
0.0
 10
13.0980709905
 20
9.0789220759
 30
0.0
 10
13.1029091652
 20
9.0896901839
 30
0.0
 10
13.1077826398
 20
9.1000860534
 30
0.0
 10
13.1126890213
 20
9.1101044653
 30
0.0
 10
13.117625785
 20
9.1197404273
 30
0.0
 10
13.1225905221
 20
9.1289891033
 30
0.0
 10
13.1275806823
 20
9.1378458979
 30
0.0
 10
13.132593829
 20
9.1463063777
 30
0.0
 10
13.1376274239
 20
9.1543663524
 30
0.0
 10
13.1426790004
 20
9.162021803
 30
0.0
 10
13.1477460331
 20
9.1692689241
 30
0.0
 10
13.1528260114
 20
9.1761041387
 30
0.0
 10
13.1579165092
 20
9.1825240795
 30
0.0
 10
13.1630151106
 20
9.1885256656
 30
0.0
 10
13.1681191727
 20
9.1941056484
 30
0.0
 10
13.1715945728
 20
9.1976141839
 30
0.0
 10
13.1733332379
 20
9.1992936055
 30
0.0
  0
SPLINE
  5
355
100
AcDbEntity
  8
0
100
AcDbSpline
 62
7
  6
CONTINUOUS
 70
0
 71
3
 72
88
 73
84
 74
0
 42
0.0000001
 43
0.0000001
 44
0.0000000001
 40
0.0
 40
0.0
 40
0.0
 40
0.0
 40
0.003689865
 40
0.0075219446
 40
0.0114997522
 40
0.0156261504
 40
0.019903503
 40
0.0243337025
 40
0.028918167
 40
0.0336579786
 40
0.0385538554
 40
0.0436061745
 40
0.0488150802
 40
0.0541804194
 40
0.0597017977
 40
0.0653786482
 40
0.0712101514
 40
0.0771953213
 40
0.0833330292
 40
0.0896219314
 40
0.1026471012
 40
0.1162577542
 40
0.1304385398
 40
0.145172302
 40
0.1604402503
 40
0.1762221472
 40
0.1924964227
 40
0.2092402492
 40
0.22642968
 40
0.2440397489
 40
0.2620445255
 40
0.2804171959
 40
0.2991301661
 40
0.3181551222
 40
0.337463078
 40
0.3570244694
 40
0.3768092223
 40
0.3967868006
 40
0.4169262762
 40
0.4371964052
 40
0.4575656824
 40
0.4780023999
 40
0.4984747212
 40
0.5189507394
 40
0.5393985368
 40
0.5597862556
 40
0.5800821563
 40
0.6002546758
 40
0.6202725035
 40
0.6401046393
 40
0.6597204479
 40
0.6790897346
 40
0.6981828189
 40
0.7169705816
 40
0.7354245319
 40
0.7535169051
 40
0.7712207142
 40
0.7885098088
 40
0.8053589802
 40
0.821744052
 40
0.8376419375
 40
0.8530307426
 40
0.8678899164
 40
0.8822003398
 40
0.8959444512
 40
0.9091064502
 40
0.9216725029
 40
0.9277284669
 40
0.9336312795
 40
0.9393798496
 40
0.9449733195
 40
0.9504109887
 40
0.9556923565
 40
0.9608172026
 40
0.9657855074
 40
0.9705975255
 40
0.9752538293
 40
0.979755273
 40
0.9841031621
 40
0.9882992583
 40
0.9923457043
 40
0.9962449755
 40
1.0
 40
1.0
 40
1.0
 40
1.0
 10
13.0419607292
 20
7.8451307183
 30
0.0
 10
13.0411417319
 20
7.8461377131
 30
0.0
 10
13.0395146209
 20
7.8482253501
 30
0.0
 10
13.0371494852
 20
7.8515082441
 30
0.0
 10
13.0348153937
 20
7.8549995657
 30
0.0
 10
13.0325132765
 20
7.858697786
 30
0.0
 10
13.0302440553
 20
7.8626014289
 30
0.0
 10
13.0280086714
 20
7.8667089034
 30
0.0
 10
13.0258079828
 20
7.8710185077
 30
0.0
 10
13.0236429212
 20
7.8755284906
 30
0.0
 10
13.0215143748
 20
7.880236999
 30
0.0
 10
13.0194231836
 20
7.885142084
 30
0.0
 10
13.0173702511
 20
7.8902417402
 30
0.0
 10
13.0153564079
 20
7.8955338571
 30
0.0
 10
13.0133824688
 20
7.9010162452
 30
0.0
 10
13.0114492932
 20
7.9066866507
 30
0.0
 10
13.0095576512
 20
7.9125427191
 30
0.0
 10
13.0077083303
 20
7.9185820254
 30
0.0
 10
13.0059021198
 20
7.9248020835
 30
0.0
 10
13.003524484
 20
7.9334341167
 30
0.0
 10
13.0006722312
 20
7.9446608688
 30
0.0
 10
12.9974717341
 20
7.9586590702
 30
0.0
 10
12.9944600881
 20
7.9733131725
 30
0.0
 10
12.991642336
 20
7.988598856
 30
0.0
 10
12.9890231955
 20
8.0044908312
 30
0.0
 10
12.9866070663
 20
8.0209627573
 30
0.0
 10
12.9843980192
 20
8.0379873243
 30
0.0
 10
12.9823997491
 20
8.0555362812
 30
0.0
 10
12.9806156066
 20
8.0735804969
 30
0.0
 10
12.9790485987
 20
8.0920900147
 30
0.0
 10
12.9777013579
 20
8.1110340947
 30
0.0
 10
12.9765761354
 20
8.1303812655
 30
0.0
 10
12.9756748257
 20
8.1500993859
 30
0.0
 10
12.9749989582
 20
8.1701556953
 30
0.0
 10
12.9745496608
 20
8.1905168646
 30
0.0
 10
12.9743276903
 20
8.2111490559
 30
0.0
 10
12.9743334381
 20
8.2320179815
 30
0.0
 10
12.974566906
 20
8.2530889574
 30
0.0
 10
12.9750277031
 20
8.2743269611
 30
0.0
 10
12.9757150731
 20
8.295696693
 30
0.0
 10
12.9766278907
 20
8.3171626336
 30
0.0
 10
12.9777646313
 20
8.338689103
 30
0.0
 10
12.9791234037
 20
8.3602403201
 30
0.0
 10
12.9807019603
 20
8.3817804622
 30
0.0
 10
12.9824976777
 20
8.4032737254
 30
0.0
 10
12.9845075584
 20
8.4246843854
 30
0.0
 10
12.9867282611
 20
8.4459768538
 30
0.0
 10
12.9891561016
 20
8.4671157381
 30
0.0
 10
12.9917870274
 20
8.4880659058
 30
0.0
 10
12.9946166537
 20
8.508792538
 30
0.0
 10
12.9976402782
 20
8.5292611856
 30
0.0
 10
13.0008528652
 20
8.5494378319
 30
0.0
 10
13.0042490516
 20
8.5692889518
 30
0.0
 10
13.0078231803
 20
8.5887815587
 30
0.0
 10
13.0115693069
 20
8.607883263
 30
0.0
 10
13.0154811751
 20
8.6265623355
 30
0.0
 10
13.0195522581
 20
8.644787753
 30
0.0
 10
13.0237757772
 20
8.6625292443
 30
0.0
 10
13.0281446889
 20
8.6797573541
 30
0.0
 10
13.0326516925
 20
8.6964434945
 30
0.0
 10
13.0372892701
 20
8.7125599809
 30
0.0
 10
13.0420496968
 20
8.7280800829
 30
0.0
 10
13.0469250156
 20
8.7429780917
 30
0.0
 10
13.0519070857
 20
8.7572293397
 30
0.0
 10
13.0569876104
 20
8.7708102826
 30
0.0
 10
13.0621581184
 20
8.7836983998
 30
0.0
 10
13.0665874499
 20
8.7939660521
 30
0.0
 10
13.0701745721
 20
8.8018124197
 30
0.0
 10
13.0728488923
 20
8.8074383654
 30
0.0
 10
13.0755392564
 20
8.8128757263
 30
0.0
 10
13.078244527
 20
8.8181222728
 30
0.0
 10
13.0809635857
 20
8.8231758325
 30
0.0
 10
13.0836953349
 20
8.8280343065
 30
0.0
 10
13.0864386085
 20
8.8326957118
 30
0.0
 10
13.0891923007
 20
8.8371581172
 30
0.0
 10
13.0919552838
 20
8.8414196734
 30
0.0
 10
13.0947263743
 20
8.8454786417
 30
0.0
 10
13.0975044712
 20
8.8493333371
 30
0.0
 10
13.1002884632
 20
8.852982205
 30
0.0
 10
13.1030772332
 20
8.8564238019
 30
0.0
 10
13.1058697143
 20
8.8596566814
 30
0.0
 10
13.1086645818
 20
8.8626793898
 30
0.0
 10
13.1105639036
 20
8.8645890231
 30
0.0
 10
13.1115139799
 20
8.8655067264
 30
0.0
  0
SPLINE
  5
356
100
AcDbEntity
  8
0
100
AcDbSpline
 62
7
  6
CONTINUOUS
 70
0
 71
3
 72
45
 73
41
 74
0
 42
0.0000001
 43
0.0000001
 44
0.0000000001
 40
0.0
 40
0.0
 40
0.0
 40
0.0
 40
0.0149721379
 40
0.0299473343
 40
0.0449286317
 40
0.0599190303
 40
0.0749214809
 40
0.089938856
 40
0.1049739397
 40
0.1200294108
 40
0.1351078203
 40
0.1502115887
 40
0.1653429784
 40
0.1805040926
 40
0.2109173739
 40
0.2414702831
 40
0.2721727342
 40
0.3030312377
 40
0.3340488046
 40
0.365224933
 40
0.396555672
 40
0.4280337568
 40
0.4596488082
 40
0.4913875919
 40
0.5232343248
 40
0.5551710235
 40
0.5871778874
 40
0.6192337084
 40
0.6513163011
 40
0.6834029486
 40
0.7154708537
 40
0.7474975916
 40
0.7794615572
 40
0.8113424013
 40
0.8431214485
 40
0.8747820968
 40
0.9063101458
 40
0.9376942762
 40
0.9689257414
 40
1.0
 40
1.0
 40
1.0
 40
1.0
 10
12.0907513093
 20
7.1637147658
 30
0.0
 10
12.0932068142
 20
7.1660865994
 30
0.0
 10
12.0982132186
 20
7.1707336296
 30
0.0
 10
12.1059946749
 20
7.1774010456
 30
0.0
 10
12.1140381691
 20
7.1837568642
 30
0.0
 10
12.1223324398
 20
7.1897922364
 30
0.0
 10
12.130866113
 20
7.1954989024
 30
0.0
 10
12.1396274641
 20
7.2008689488
 30
0.0
 10
12.1486043847
 20
7.2058950837
 30
0.0
 10
12.157784576
 20
7.210570284
 30
0.0
 10
12.1671553647
 20
7.2148882265
 30
0.0
 10
12.1767038363
 20
7.218842897
 30
0.0
 10
12.1864170336
 20
7.2224289201
 30
0.0
 10
12.1995815401
 20
7.2267161754
 30
0.0
 10
12.2163893194
 20
7.2311288652
 30
0.0
 10
12.2369733129
 20
7.2348752239
 30
0.0
 10
12.2578835821
 20
7.2370591886
 30
0.0
 10
12.2790042739
 20
7.2376687422
 30
0.0
 10
12.3002194433
 20
7.2367008816
 30
0.0
 10
12.3214124154
 20
7.2341611684
 30
0.0
 10
12.3424667627
 20
7.2300638083
 30
0.0
 10
12.363266844
 20
7.2244315332
 30
0.0
 10
12.3836984616
 20
7.2172954927
 30
0.0
 10
12.4036494694
 20
7.2086950562
 30
0.0
 10
12.423010381
 20
7.1986775971
 30
0.0
 10
12.4416749606
 20
7.1872982301
 30
0.0
 10
12.4595407983
 20
7.174619511
 30
0.0
 10
12.4765098618
 20
7.1607110931
 30
0.0
 10
12.4924890399
 20
7.1456493615
 30
0.0
 10
12.5073906424
 20
7.1295170072
 30
0.0
 10
12.5211328719
 20
7.1124025732
 30
0.0
 10
12.5336402686
 20
7.0943999753
 30
0.0
 10
12.5448441208
 20
7.075607994
 30
0.0
 10
12.5546828355
 20
7.0561297344
 30
0.0
 10
12.5631022877
 20
7.036072086
 30
0.0
 10
12.570056109
 20
7.0155450977
 30
0.0
 10
12.5755059733
 20
6.9946615372
 30
0.0
 10
12.5794216917
 20
6.9735356901
 30
0.0
 10
12.5817816353
 20
6.9522850588
 30
0.0
 10
12.5823102014
 20
6.9380726153
 30
0.0
 10
12.5823102014
 20
6.930987043
 30
0.0
  0
SPLINE
  5
357
100
AcDbEntity
  8
0
100
AcDbSpline
 62
7
  6
CONTINUOUS
 70
0
 71
3
 72
45
 73
41
 74
0
 42
0.0000001
 43
0.0000001
 44
0.0000000001
 40
0.0
 40
0.0
 40
0.0
 40
0.0
 40
0.0149721379
 40
0.0299473343
 40
0.0449286317
 40
0.0599190303
 40
0.0749214809
 40
0.089938856
 40
0.1049739397
 40
0.1200294108
 40
0.1351078203
 40
0.1502115887
 40
0.1653429784
 40
0.1805040926
 40
0.2109173739
 40
0.2414702831
 40
0.2721727342
 40
0.3030312377
 40
0.3340488046
 40
0.365224933
 40
0.396555672
 40
0.4280337568
 40
0.4596488082
 40
0.4913875919
 40
0.5232343248
 40
0.5551710235
 40
0.5871778874
 40
0.6192337084
 40
0.6513163011
 40
0.6834029486
 40
0.7154708537
 40
0.7474975916
 40
0.7794615572
 40
0.8113424013
 40
0.8431214485
 40
0.8747820968
 40
0.9063101458
 40
0.9376942762
 40
0.9689257414
 40
1.0
 40
1.0
 40
1.0
 40
1.0
 10
9.0113795125
 20
7.3772699252
 30
0.0
 10
9.0138350173
 20
7.3796417588
 30
0.0
 10
9.0188414218
 20
7.3842887891
 30
0.0
 10
9.026622878
 20
7.3909562051
 30
0.0
 10
9.0346663723
 20
7.3973120236
 30
0.0
 10
9.042960643
 20
7.4033473958
 30
0.0
 10
9.0514943162
 20
7.4090540619
 30
0.0
 10
9.0602556673
 20
7.4144241083
 30
0.0
 10
9.0692325879
 20
7.4194502431
 30
0.0
 10
9.0784127792
 20
7.4241254434
 30
0.0
 10
9.0877835679
 20
7.4284433859
 30
0.0
 10
9.0973320395
 20
7.4323980564
 30
0.0
 10
9.1070452368
 20
7.4359840795
 30
0.0
 10
9.1202097432
 20
7.4402713348
 30
0.0
 10
9.1370175225
 20
7.4446840247
 30
0.0
 10
9.1576015161
 20
7.4484303833
 30
0.0
 10
9.1785117853
 20
7.450614348
 30
0.0
 10
9.1996324771
 20
7.4512239017
 30
0.0
 10
9.2208476465
 20
7.450256041
 30
0.0
 10
9.2420406186
 20
7.4477163278
 30
0.0
 10
9.2630949659
 20
7.4436189678
 30
0.0
 10
9.2838950472
 20
7.4379866927
 30
0.0
 10
9.3043266648
 20
7.4308506521
 30
0.0
 10
9.3242776726
 20
7.4222502157
 30
0.0
 10
9.3436385842
 20
7.4122327565
 30
0.0
 10
9.3623031638
 20
7.4008533895
 30
0.0
 10
9.3801690015
 20
7.3881746704
 30
0.0
 10
9.397138065
 20
7.3742662525
 30
0.0
 10
9.4131172431
 20
7.3592045209
 30
0.0
 10
9.4280188456
 20
7.3430721666
 30
0.0
 10
9.4417610751
 20
7.3259577326
 30
0.0
 10
9.4542684718
 20
7.3079551348
 30
0.0
 10
9.4654723239
 20
7.2891631534
 30
0.0
 10
9.4753110387
 20
7.2696848938
 30
0.0
 10
9.4837304909
 20
7.2496272455
 30
0.0
 10
9.4906843122
 20
7.2291002572
 30
0.0
 10
9.4961341765
 20
7.2082166966
 30
0.0
 10
9.5000498949
 20
7.1870908496
 30
0.0
 10
9.5024098385
 20
7.1658402183
 30
0.0
 10
9.5029384045
 20
7.1516277747
 30
0.0
 10
9.5029384045
 20
7.1445422024
 30
0.0
  0
SPLINE
  5
358
100
AcDbEntity
  8
0
100
AcDbSpline
 62
7
  6
CONTINUOUS
 70
0
 71
3
 72
45
 73
41
 74
0
 42
0.0000001
 43
0.0000001
 44
0.0000000001
 40
0.0
 40
0.0
 40
0.0
 40
0.0
 40
0.0149721379
 40
0.0299473343
 40
0.0449286317
 40
0.0599190303
 40
0.0749214809
 40
0.089938856
 40
0.1049739397
 40
0.1200294108
 40
0.1351078203
 40
0.1502115887
 40
0.1653429784
 40
0.1805040926
 40
0.2109173739
 40
0.2414702831
 40
0.2721727342
 40
0.3030312377
 40
0.3340488046
 40
0.365224933
 40
0.396555672
 40
0.4280337568
 40
0.4596488082
 40
0.4913875919
 40
0.5232343248
 40
0.5551710235
 40
0.5871778874
 40
0.6192337084
 40
0.6513163011
 40
0.6834029486
 40
0.7154708537
 40
0.7474975916
 40
0.7794615572
 40
0.8113424013
 40
0.8431214485
 40
0.8747820968
 40
0.9063101458
 40
0.9376942762
 40
0.9689257414
 40
1.0
 40
1.0
 40
1.0
 40
1.0
 10
9.0113795125
 20
9.792084634
 30
0.0
 10
9.0138350173
 20
9.7944564676
 30
0.0
 10
9.0188414218
 20
9.7991034979
 30
0.0
 10
9.026622878
 20
9.8057709139
 30
0.0
 10
9.0346663723
 20
9.8121267324
 30
0.0
 10
9.042960643
 20
9.8181621046
 30
0.0
 10
9.0514943162
 20
9.8238687707
 30
0.0
 10
9.0602556673
 20
9.8292388171
 30
0.0
 10
9.0692325879
 20
9.8342649519
 30
0.0
 10
9.0784127792
 20
9.8389401522
 30
0.0
 10
9.0877835679
 20
9.8432580947
 30
0.0
 10
9.0973320395
 20
9.8472127653
 30
0.0
 10
9.1070452368
 20
9.8507987883
 30
0.0
 10
9.1202097432
 20
9.8550860436
 30
0.0
 10
9.1370175225
 20
9.8594987335
 30
0.0
 10
9.1576015161
 20
9.8632450921
 30
0.0
 10
9.1785117853
 20
9.8654290568
 30
0.0
 10
9.1996324771
 20
9.8660386105
 30
0.0
 10
9.2208476465
 20
9.8650707498
 30
0.0
 10
9.2420406186
 20
9.8625310366
 30
0.0
 10
9.2630949659
 20
9.8584336766
 30
0.0
 10
9.2838950472
 20
9.8528014015
 30
0.0
 10
9.3043266648
 20
9.8456653609
 30
0.0
 10
9.3242776726
 20
9.8370649245
 30
0.0
 10
9.3436385842
 20
9.8270474653
 30
0.0
 10
9.3623031638
 20
9.8156680983
 30
0.0
 10
9.3801690015
 20
9.8029893792
 30
0.0
 10
9.397138065
 20
9.7890809614
 30
0.0
 10
9.4131172431
 20
9.7740192297
 30
0.0
 10
9.4280188456
 20
9.7578868754
 30
0.0
 10
9.4417610751
 20
9.7407724414
 30
0.0
 10
9.4542684718
 20
9.7227698436
 30
0.0
 10
9.4654723239
 20
9.7039778622
 30
0.0
 10
9.4753110387
 20
9.6844996026
 30
0.0
 10
9.4837304909
 20
9.6644419543
 30
0.0
 10
9.4906843122
 20
9.643914966
 30
0.0
 10
9.4961341765
 20
9.6230314054
 30
0.0
 10
9.5000498949
 20
9.6019055584
 30
0.0
 10
9.5024098385
 20
9.5806549271
 30
0.0
 10
9.5029384045
 20
9.5664424835
 30
0.0
 10
9.5029384045
 20
9.5593569112
 30
0.0
  0
SPLINE
  5
359
100
AcDbEntity
  8
0
100
AcDbSpline
 62
7
  6
CONTINUOUS
 70
0
 71
3
 72
45
 73
41
 74
0
 42
0.0000001
 43
0.0000001
 44
0.0000000001
 40
0.0
 40
0.0
 40
0.0
 40
0.0
 40
0.0149721379
 40
0.0299473343
 40
0.0449286317
 40
0.0599190303
 40
0.0749214809
 40
0.089938856
 40
0.1049739397
 40
0.1200294108
 40
0.1351078203
 40
0.1502115887
 40
0.1653429784
 40
0.1805040926
 40
0.2109173739
 40
0.2414702831
 40
0.2721727342
 40
0.3030312377
 40
0.3340488046
 40
0.365224933
 40
0.396555672
 40
0.4280337568
 40
0.4596488082
 40
0.4913875919
 40
0.5232343248
 40
0.5551710235
 40
0.5871778874
 40
0.6192337084
 40
0.6513163011
 40
0.6834029486
 40
0.7154708537
 40
0.7474975916
 40
0.7794615572
 40
0.8113424013
 40
0.8431214485
 40
0.8747820968
 40
0.9063101458
 40
0.9376942762
 40
0.9689257414
 40
1.0
 40
1.0
 40
1.0
 40
1.0
 10
12.0907513093
 20
9.5785294746
 30
0.0
 10
12.0932068142
 20
9.5809013082
 30
0.0
 10
12.0982132186
 20
9.5855483384
 30
0.0
 10
12.1059946749
 20
9.5922157544
 30
0.0
 10
12.1140381691
 20
9.598571573
 30
0.0
 10
12.1223324398
 20
9.6046069452
 30
0.0
 10
12.130866113
 20
9.6103136112
 30
0.0
 10
12.1396274641
 20
9.6156836577
 30
0.0
 10
12.1486043847
 20
9.6207097925
 30
0.0
 10
12.157784576
 20
9.6253849928
 30
0.0
 10
12.1671553647
 20
9.6297029353
 30
0.0
 10
12.1767038363
 20
9.6336576058
 30
0.0
 10
12.1864170336
 20
9.6372436289
 30
0.0
 10
12.1995815401
 20
9.6415308842
 30
0.0
 10
12.2163893194
 20
9.6459435741
 30
0.0
 10
12.2369733129
 20
9.6496899327
 30
0.0
 10
12.2578835821
 20
9.6518738974
 30
0.0
 10
12.2790042739
 20
9.652483451
 30
0.0
 10
12.3002194433
 20
9.6515155904
 30
0.0
 10
12.3214124154
 20
9.6489758772
 30
0.0
 10
12.3424667627
 20
9.6448785171
 30
0.0
 10
12.363266844
 20
9.639246242
 30
0.0
 10
12.3836984616
 20
9.6321102015
 30
0.0
 10
12.4036494694
 20
9.6235097651
 30
0.0
 10
12.423010381
 20
9.6134923059
 30
0.0
 10
12.4416749606
 20
9.6021129389
 30
0.0
 10
12.4595407983
 20
9.5894342198
 30
0.0
 10
12.4765098618
 20
9.5755258019
 30
0.0
 10
12.4924890399
 20
9.5604640703
 30
0.0
 10
12.5073906424
 20
9.544331716
 30
0.0
 10
12.5211328719
 20
9.527217282
 30
0.0
 10
12.5336402686
 20
9.5092146841
 30
0.0
 10
12.5448441208
 20
9.4904227028
 30
0.0
 10
12.5546828355
 20
9.4709444432
 30
0.0
 10
12.5631022877
 20
9.4508867948
 30
0.0
 10
12.570056109
 20
9.4303598065
 30
0.0
 10
12.5755059733
 20
9.409476246
 30
0.0
 10
12.5794216917
 20
9.3883503989
 30
0.0
 10
12.5817816353
 20
9.3670997676
 30
0.0
 10
12.5823102014
 20
9.3528873241
 30
0.0
 10
12.5823102014
 20
9.3458017518
 30
0.0
  0
SPLINE
  5
35A
100
AcDbEntity
  8
0
100
AcDbSpline
 62
7
  6
CONTINUOUS
 70
0
 71
3
 72
41
 73
37
 74
0
 42
0.0000001
 43
0.0000001
 44
0.0000000001
 40
0.0
 40
0.0
 40
0.0
 40
0.0
 40
0.0299421756
 40
0.0599087291
 40
0.0899234427
 40
0.12000893
 40
0.1501860972
 40
0.1804736576
 40
0.2108877103
 40
0.2414413945
 40
0.2721446252
 40
0.3030039132
 40
0.3340222692
 40
0.3651991907
 40
0.3965307261
 40
0.4280096099
 40
0.4596254632
 40
0.491365051
 40
0.5232125895
 40
0.5551500944
 40
0.5871577641
 40
0.61921439
 40
0.6512977872
 40
0.6833852384
 40
0.715453946
 40
0.7314766505
 40
0.7474863166
 40
0.7794510815
 40
0.8113327211
 40
0.8272389267
 40
0.8431175145
 40
0.8747789379
 40
0.9063078385
 40
0.9376925801
 40
0.9689252405
 40
1.0
 40
1.0
 40
1.0
 40
1.0
 10
11.5415227887
 20
9.5361305772
 30
0.0
 10
11.543679447
 20
9.538213732
 30
0.0
 10
11.548162376
 20
9.5422118878
 30
0.0
 10
11.5553446898
 20
9.5476586855
 30
0.0
 10
11.5629482457
 20
9.5525277549
 30
0.0
 10
11.5709305499
 20
9.5567917911
 30
0.0
 10
11.5792477191
 20
9.5604274963
 30
0.0
 10
11.5878538514
 20
9.5634148861
 30
0.0
 10
11.5967015227
 20
9.565737615
 30
0.0
 10
11.6057419889
 20
9.5673830019
 30
0.0
 10
11.6149254753
 20
9.5683421092
 30
0.0
 10
11.6242014473
 20
9.5686097805
 30
0.0
 10
11.6335188899
 20
9.5681846633
 30
0.0
 10
11.6428265859
 20
9.5670692103
 30
0.0
 10
11.6520733954
 20
9.5652696604
 30
0.0
 10
11.6612085332
 20
9.5627960002
 30
0.0
 10
11.670181844
 20
9.5596619061
 30
0.0
 10
11.6789440743
 20
9.5558846678
 30
0.0
 10
11.6874471388
 20
9.5514850903
 30
0.0
 10
11.6956443796
 20
9.546487382
 30
0.0
 10
11.7034908238
 20
9.5409190134
 30
0.0
 10
11.7109434081
 20
9.5348105961
 30
0.0
 10
11.7179612822
 20
9.5281956103
 30
0.0
 10
11.7245057702
 20
9.5211106142
 30
0.0
 10
11.7295372064
 20
9.5148444089
 30
0.0
 10
11.7332911571
 20
9.509635967
 30
0.0
 10
11.7368561918
 20
9.5043089366
 30
0.0
 10
11.7409549451
 20
9.4974343014
 30
0.0
 10
11.7445588306
 20
9.4902993144
 30
0.0
 10
11.747129627
 20
9.4844636721
 30
0.0
 10
11.7494848481
 20
9.4785615214
 30
0.0
 10
11.7520277597
 20
9.4710552401
 30
0.0
 10
11.7544211807
 20
9.4618836107
 30
0.0
 10
11.7561409618
 20
9.4526053239
 30
0.0
 10
11.7571773794
 20
9.4432723161
 30
0.0
 10
11.7574095318
 20
9.4370303681
 30
0.0
 10
11.7574095318
 20
9.4339184984
 30
0.0
  0
SPLINE
  5
35B
100
AcDbEntity
  8
0
100
AcDbSpline
 62
7
  6
CONTINUOUS
 70
0
 71
3
 72
41
 73
37
 74
0
 42
0.0000001
 43
0.0000001
 44
0.0000000001
 40
0.0
 40
0.0
 40
0.0
 40
0.0
 40
0.0299421756
 40
0.0599087291
 40
0.0899234427
 40
0.12000893
 40
0.1501860972
 40
0.1804736576
 40
0.2108877103
 40
0.2414413945
 40
0.2721446252
 40
0.3030039132
 40
0.3340222692
 40
0.3651991907
 40
0.3965307261
 40
0.4280096099
 40
0.4596254632
 40
0.491365051
 40
0.5232125895
 40
0.5551500944
 40
0.5871577641
 40
0.61921439
 40
0.6512977872
 40
0.6833852384
 40
0.715453946
 40
0.7314766505
 40
0.7474863166
 40
0.7794510815
 40
0.8113327211
 40
0.8272389267
 40
0.8431175145
 40
0.8747789379
 40
0.9063078385
 40
0.9376925801
 40
0.9689252405
 40
1.0
 40
1.0
 40
1.0
 40
1.0
 10
10.6663939207
 20
8.358503925
 30
0.0
 10
10.668550579
 20
8.3605870798
 30
0.0
 10
10.673033508
 20
8.3645852356
 30
0.0
 10
10.6802158218
 20
8.3700320334
 30
0.0
 10
10.6878193777
 20
8.3749011027
 30
0.0
 10
10.6958016819
 20
8.3791651389
 30
0.0
 10
10.7041188511
 20
8.3828008441
 30
0.0
 10
10.7127249835
 20
8.3857882339
 30
0.0
 10
10.7215726547
 20
8.3881109628
 30
0.0
 10
10.7306131209
 20
8.3897563497
 30
0.0
 10
10.7397966073
 20
8.390715457
 30
0.0
 10
10.7490725793
 20
8.3909831283
 30
0.0
 10
10.7583900219
 20
8.3905580111
 30
0.0
 10
10.7676977179
 20
8.3894425581
 30
0.0
 10
10.7769445274
 20
8.3876430082
 30
0.0
 10
10.7860796652
 20
8.385169348
 30
0.0
 10
10.795052976
 20
8.382035254
 30
0.0
 10
10.8038152063
 20
8.3782580156
 30
0.0
 10
10.8123182708
 20
8.3738584381
 30
0.0
 10
10.8205155117
 20
8.3688607298
 30
0.0
 10
10.8283619558
 20
8.3632923612
 30
0.0
 10
10.8358145401
 20
8.3571839439
 30
0.0
 10
10.8428324143
 20
8.3505689581
 30
0.0
 10
10.8493769022
 20
8.3434839621
 30
0.0
 10
10.8544083384
 20
8.3372177567
 30
0.0
 10
10.8581622891
 20
8.3320093149
 30
0.0
 10
10.8617273238
 20
8.3266822844
 30
0.0
 10
10.8658260771
 20
8.3198076492
 30
0.0
 10
10.8694299627
 20
8.3126726623
 30
0.0
 10
10.8720007591
 20
8.3068370199
 30
0.0
 10
10.8743559802
 20
8.3009348693
 30
0.0
 10
10.8768988917
 20
8.2934285879
 30
0.0
 10
10.8792923128
 20
8.2842569585
 30
0.0
 10
10.8810120938
 20
8.2749786717
 30
0.0
 10
10.8820485114
 20
8.2656456639
 30
0.0
 10
10.8822806639
 20
8.2594037159
 30
0.0
 10
10.8822806639
 20
8.2562918462
 30
0.0
  0
SPLINE
  5
35C
100
AcDbEntity
  8
0
100
AcDbSpline
 62
7
  6
CONTINUOUS
 70
0
 71
3
 72
42
 73
38
 74
0
 42
0.0000001
 43
0.0000001
 44
0.0000000001
 40
0.0
 40
0.0
 40
0.0
 40
0.0
 40
0.0149723971
 40
0.029947854
 40
0.0449294092
 40
0.0599200692
 40
0.0749227779
 40
0.0899404136
 40
0.1200256609
 40
0.1502025864
 40
0.1804899033
 40
0.2109037105
 40
0.2414571471
 40
0.2721601282
 40
0.3030191646
 40
0.3340372675
 40
0.3652139349
 40
0.3965452155
 40
0.4280238444
 40
0.459639443
 40
0.4913787765
 40
0.5232260611
 40
0.5551633129
 40
0.5871707307
 40
0.6192271064
 40
0.6513102549
 40
0.683397459
 40
0.7154659208
 40
0.7474932143
 40
0.7794577337
 40
0.8113391302
 40
0.8431187274
 40
0.8747799267
 40
0.906308519
 40
0.9376931951
 40
0.9689252215
 40
1.0
 40
1.0
 40
1.0
 40
1.0
 10
10.5830236163
 20
7.6295723497
 30
0.0
 10
10.5850975222
 20
7.6315755895
 30
0.0
 10
10.5893258714
 20
7.6355004868
 30
0.0
 10
10.5958980788
 20
7.6411317166
 30
0.0
 10
10.602691551
 20
7.6464998488
 30
0.0
 10
10.6096968271
 20
7.6515972779
 30
0.0
 10
10.6169044235
 20
7.6564171432
 30
0.0
 10
10.6267754417
 20
7.6624674684
 30
0.0
 10
10.6395771572
 20
7.6693062588
 30
0.0
 10
10.6555713264
 20
7.6762978804
 30
0.0
 10
10.6721216984
 20
7.6820430591
 30
0.0
 10
10.6891364475
 20
7.6865099469
 30
0.0
 10
10.7065220015
 20
7.6896742703
 30
0.0
 10
10.7241825932
 20
7.6915188119
 30
0.0
 10
10.7420210525
 20
7.692033664
 30
0.0
 10
10.7599392693
 20
7.6912162232
 30
0.0
 10
10.7778387496
 20
7.6890712059
 30
0.0
 10
10.7956211463
 20
7.6856106083
 30
0.0
 10
10.8131887943
 20
7.6808536336
 30
0.0
 10
10.8304452395
 20
7.6748265815
 30
0.0
 10
10.8472957632
 20
7.6675627033
 30
0.0
 10
10.8636478932
 20
7.6591020107
 30
0.0
 10
10.8794119039
 20
7.649491056
 30
0.0
 10
10.8945013019
 20
7.6387826766
 30
0.0
 10
10.9088332949
 20
7.6270357064
 30
0.0
 10
10.9223292394
 20
7.6143146557
 30
0.0
 10
10.9349150683
 20
7.6006893595
 30
0.0
 10
10.9465216921
 20
7.5862345986
 30
0.0
 10
10.9570853752
 20
7.5710296936
 30
0.0
 10
10.9665480877
 20
7.5551580778
 30
0.0
 10
10.9748578151
 20
7.5387068374
 30
0.0
 10
10.9819688486
 20
7.5217662511
 30
0.0
 10
10.9878420172
 20
7.5044292624
 30
0.0
 10
10.9924449521
 20
7.4867911138
 30
0.0
 10
10.9957521514
 20
7.4689483264
 30
0.0
 10
10.9977453454
 20
7.4510001492
 30
0.0
 10
10.9981917699
 20
7.4389963907
 30
0.0
 10
10.9981917699
 20
7.4330119555
 30
0.0
  0
SPLINE
  5
35D
100
AcDbEntity
  8
0
100
AcDbSpline
 62
7
  6
CONTINUOUS
 70
0
 71
3
 72
42
 73
38
 74
0
 42
0.0000001
 43
0.0000001
 44
0.0000000001
 40
0.0
 40
0.0
 40
0.0
 40
0.0
 40
0.0149723971
 40
0.029947854
 40
0.0449294092
 40
0.0599200692
 40
0.0749227779
 40
0.0899404136
 40
0.1200256609
 40
0.1502025864
 40
0.1804899033
 40
0.2109037105
 40
0.2414571471
 40
0.2721601282
 40
0.3030191646
 40
0.3340372675
 40
0.3652139349
 40
0.3965452155
 40
0.4280238444
 40
0.459639443
 40
0.4913787765
 40
0.5232260611
 40
0.5551633129
 40
0.5871707307
 40
0.6192271064
 40
0.6513102549
 40
0.683397459
 40
0.7154659208
 40
0.7474932143
 40
0.7794577337
 40
0.8113391302
 40
0.8431187274
 40
0.8747799267
 40
0.906308519
 40
0.9376931951
 40
0.9689252215
 40
1.0
 40
1.0
 40
1.0
 40
1.0
 10
9.8894888946
 20
8.4929105742
 30
0.0
 10
9.8915628005
 20
8.494913814
 30
0.0
 10
9.8957911497
 20
8.4988387113
 30
0.0
 10
9.902363357
 20
8.5044699411
 30
0.0
 10
9.9091568293
 20
8.5098380733
 30
0.0
 10
9.9161621054
 20
8.5149355024
 30
0.0
 10
9.9233697018
 20
8.5197553677
 30
0.0
 10
9.93324072
 20
8.5258056929
 30
0.0
 10
9.9460424355
 20
8.5326444833
 30
0.0
 10
9.9620366047
 20
8.5396361049
 30
0.0
 10
9.9785869767
 20
8.5453812836
 30
0.0
 10
9.9956017258
 20
8.5498481714
 30
0.0
 10
10.0129872797
 20
8.5530124948
 30
0.0
 10
10.0306478715
 20
8.5548570364
 30
0.0
 10
10.0484863307
 20
8.5553718885
 30
0.0
 10
10.0664045476
 20
8.5545544477
 30
0.0
 10
10.0843040279
 20
8.5524094304
 30
0.0
 10
10.1020864246
 20
8.5489488328
 30
0.0
 10
10.1196540725
 20
8.5441918581
 30
0.0
 10
10.1369105177
 20
8.538164806
 30
0.0
 10
10.1537610415
 20
8.5309009278
 30
0.0
 10
10.1701131715
 20
8.5224402352
 30
0.0
 10
10.1858771821
 20
8.5128292805
 30
0.0
 10
10.2009665802
 20
8.5021209011
 30
0.0
 10
10.2152985731
 20
8.4903739309
 30
0.0
 10
10.2287945177
 20
8.4776528802
 30
0.0
 10
10.2413803466
 20
8.464027584
 30
0.0
 10
10.2529869704
 20
8.4495728231
 30
0.0
 10
10.2635506535
 20
8.4343679181
 30
0.0
 10
10.2730133659
 20
8.4184963023
 30
0.0
 10
10.2813230934
 20
8.4020450619
 30
0.0
 10
10.2884341269
 20
8.3851044756
 30
0.0
 10
10.2943072955
 20
8.3677674869
 30
0.0
 10
10.2989102304
 20
8.3501293383
 30
0.0
 10
10.3022174296
 20
8.3322865509
 30
0.0
 10
10.3042106237
 20
8.3143383737
 30
0.0
 10
10.3046570482
 20
8.3023346152
 30
0.0
 10
10.3046570482
 20
8.29635018
 30
0.0
  0
SPLINE
  5
35E
100
AcDbEntity
  8
0
100
AcDbSpline
 62
7
  6
CONTINUOUS
 70
0
 71
3
 72
15
 73
11
 74
0
 42
0.0000001
 43
0.0000001
 44
0.0000000001
 40
0.0
 40
0.0
 40
0.0
 40
0.0
 40
0.1262314939
 40
0.2521746287
 40
0.3777941299
 40
0.5030570953
 40
0.6279329442
 40
0.7523929469
 40
0.8764245488
 40
1.0
 40
1.0
 40
1.0
 40
1.0
 10
9.9726215507
 20
8.5431886981
 30
0.0
 10
9.9712529595
 20
8.5398364118
 30
0.0
 10
9.9686701727
 20
8.5330765259
 30
0.0
 10
9.9652728055
 20
8.5227820418
 30
0.0
 10
9.9623703328
 20
8.5123656944
 30
0.0
 10
9.9599759618
 20
8.5018522729
 30
0.0
 10
9.9581010389
 20
8.4912675681
 30
0.0
 10
9.9567546141
 20
8.4806381669
 30
0.0
 10
9.9559436308
 20
8.4699921697
 30
0.0
 10
9.9557622605
 20
8.4628883795
 30
0.0
 10
9.9557622605
 20
8.459343674
 30
0.0
  0
SPLINE
  5
35F
100
AcDbEntity
  8
0
100
AcDbSpline
 62
7
  6
CONTINUOUS
 70
0
 71
3
 72
42
 73
38
 74
0
 42
0.0000001
 43
0.0000001
 44
0.0000000001
 40
0.0
 40
0.0
 40
0.0
 40
0.0
 40
0.0149723971
 40
0.029947854
 40
0.0449294092
 40
0.0599200692
 40
0.0749227779
 40
0.0899404136
 40
0.1200256609
 40
0.1502025864
 40
0.1804899033
 40
0.2109037105
 40
0.2414571471
 40
0.2721601282
 40
0.3030191646
 40
0.3340372675
 40
0.3652139349
 40
0.3965452155
 40
0.4280238444
 40
0.459639443
 40
0.4913787765
 40
0.5232260611
 40
0.5551633129
 40
0.5871707307
 40
0.6192271064
 40
0.6513102549
 40
0.683397459
 40
0.7154659208
 40
0.7474932143
 40
0.7794577337
 40
0.8113391302
 40
0.8431187274
 40
0.8747799267
 40
0.906308519
 40
0.9376931951
 40
0.9689252215
 40
1.0
 40
1.0
 40
1.0
 40
1.0
 10
11.2765584532
 20
8.3967169736
 30
0.0
 10
11.2786323591
 20
8.3987202134
 30
0.0
 10
11.2828607083
 20
8.4026451106
 30
0.0
 10
11.2894329156
 20
8.4082763405
 30
0.0
 10
11.2962263879
 20
8.4136444727
 30
0.0
 10
11.303231664
 20
8.4187419018
 30
0.0
 10
11.3104392604
 20
8.4235617671
 30
0.0
 10
11.3203102786
 20
8.4296120923
 30
0.0
 10
11.3331119941
 20
8.4364508827
 30
0.0
 10
11.3491061633
 20
8.4434425043
 30
0.0
 10
11.3656565353
 20
8.449187683
 30
0.0
 10
11.3826712844
 20
8.4536545708
 30
0.0
 10
11.4000568383
 20
8.4568188942
 30
0.0
 10
11.4177174301
 20
8.4586634358
 30
0.0
 10
11.4355558894
 20
8.4591782879
 30
0.0
 10
11.4534741062
 20
8.4583608471
 30
0.0
 10
11.4713735865
 20
8.4562158298
 30
0.0
 10
11.4891559832
 20
8.4527552322
 30
0.0
 10
11.5067236311
 20
8.4479982575
 30
0.0
 10
11.5239800763
 20
8.4419712054
 30
0.0
 10
11.5408306001
 20
8.4347073272
 30
0.0
 10
11.5571827301
 20
8.4262466346
 30
0.0
 10
11.5729467407
 20
8.4166356799
 30
0.0
 10
11.5880361388
 20
8.4059273005
 30
0.0
 10
11.6023681317
 20
8.3941803303
 30
0.0
 10
11.6158640763
 20
8.3814592796
 30
0.0
 10
11.6284499052
 20
8.3678339834
 30
0.0
 10
11.640056529
 20
8.3533792225
 30
0.0
 10
11.6506202121
 20
8.3381743175
 30
0.0
 10
11.6600829245
 20
8.3223027017
 30
0.0
 10
11.668392652
 20
8.3058514613
 30
0.0
 10
11.6755036855
 20
8.288910875
 30
0.0
 10
11.6813768541
 20
8.2715738863
 30
0.0
 10
11.685979789
 20
8.2539357377
 30
0.0
 10
11.6892869883
 20
8.2360929503
 30
0.0
 10
11.6912801823
 20
8.2181447731
 30
0.0
 10
11.6917266068
 20
8.2061410146
 30
0.0
 10
11.6917266068
 20
8.2001565794
 30
0.0
  0
SPLINE
  5
360
100
AcDbEntity
  8
0
100
AcDbSpline
 62
7
  6
CONTINUOUS
 70
0
 71
3
 72
42
 73
38
 74
0
 42
0.0000001
 43
0.0000001
 44
0.0000000001
 40
0.0
 40
0.0
 40
0.0
 40
0.0
 40
0.0149723971
 40
0.029947854
 40
0.0449294092
 40
0.0599200692
 40
0.0749227779
 40
0.0899404136
 40
0.1200256609
 40
0.1502025864
 40
0.1804899033
 40
0.2109037105
 40
0.2414571471
 40
0.2721601282
 40
0.3030191646
 40
0.3340372675
 40
0.3652139349
 40
0.3965452155
 40
0.4280238444
 40
0.459639443
 40
0.4913787765
 40
0.5232260611
 40
0.5551633129
 40
0.5871707307
 40
0.6192271064
 40
0.6513102549
 40
0.683397459
 40
0.7154659208
 40
0.7474932143
 40
0.7794577337
 40
0.8113391302
 40
0.8431187274
 40
0.8747799267
 40
0.906308519
 40
0.9376931951
 40
0.9689252215
 40
1.0
 40
1.0
 40
1.0
 40
1.0
 10
10.5830236163
 20
9.2600553212
 30
0.0
 10
10.5850975222
 20
9.2620585611
 30
0.0
 10
10.5893258714
 20
9.2659834583
 30
0.0
 10
10.5958980788
 20
9.2716146881
 30
0.0
 10
10.602691551
 20
9.2769828203
 30
0.0
 10
10.6096968271
 20
9.2820802495
 30
0.0
 10
10.6169044235
 20
9.2869001148
 30
0.0
 10
10.6267754417
 20
9.29295044
 30
0.0
 10
10.6395771572
 20
9.2997892303
 30
0.0
 10
10.6555713264
 20
9.3067808519
 30
0.0
 10
10.6721216984
 20
9.3125260306
 30
0.0
 10
10.6891364475
 20
9.3169929184
 30
0.0
 10
10.7065220015
 20
9.3201572418
 30
0.0
 10
10.7241825932
 20
9.3220017835
 30
0.0
 10
10.7420210525
 20
9.3225166355
 30
0.0
 10
10.7599392693
 20
9.3216991948
 30
0.0
 10
10.7778387496
 20
9.3195541774
 30
0.0
 10
10.7956211463
 20
9.3160935799
 30
0.0
 10
10.8131887943
 20
9.3113366052
 30
0.0
 10
10.8304452395
 20
9.305309553
 30
0.0
 10
10.8472957632
 20
9.2980456749
 30
0.0
 10
10.8636478932
 20
9.2895849823
 30
0.0
 10
10.8794119039
 20
9.2799740275
 30
0.0
 10
10.8945013019
 20
9.2692656481
 30
0.0
 10
10.9088332949
 20
9.257518678
 30
0.0
 10
10.9223292394
 20
9.2447976272
 30
0.0
 10
10.9349150683
 20
9.231172331
 30
0.0
 10
10.9465216921
 20
9.2167175701
 30
0.0
 10
10.9570853752
 20
9.2015126651
 30
0.0
 10
10.9665480877
 20
9.1856410494
 30
0.0
 10
10.9748578151
 20
9.169189809
 30
0.0
 10
10.9819688486
 20
9.1522492226
 30
0.0
 10
10.9878420172
 20
9.1349122339
 30
0.0
 10
10.9924449521
 20
9.1172740853
 30
0.0
 10
10.9957521514
 20
9.0994312979
 30
0.0
 10
10.9977453454
 20
9.0814831207
 30
0.0
 10
10.9981917699
 20
9.0694793622
 30
0.0
 10
10.9981917699
 20
9.0634949271
 30
0.0
  0
SPLINE
  5
361
100
AcDbEntity
  8
0
100
AcDbSpline
 62
7
  6
CONTINUOUS
 70
0
 71
3
 72
45
 73
41
 74
0
 42
0.0000001
 43
0.0000001
 44
0.0000000001
 40
0.0
 40
0.0
 40
0.0
 40
0.0
 40
0.0149721379
 40
0.0299473343
 40
0.0449286317
 40
0.0599190303
 40
0.0749214809
 40
0.089938856
 40
0.1049739397
 40
0.1200294108
 40
0.1351078203
 40
0.1502115887
 40
0.1653429784
 40
0.1805040926
 40
0.2109173739
 40
0.2414702831
 40
0.2721727342
 40
0.3030312377
 40
0.3340488046
 40
0.365224933
 40
0.396555672
 40
0.4280337568
 40
0.4596488082
 40
0.4913875919
 40
0.5232343248
 40
0.5551710235
 40
0.5871778874
 40
0.6192337084
 40
0.6513163011
 40
0.6834029486
 40
0.7154708537
 40
0.7474975916
 40
0.7794615572
 40
0.8113424013
 40
0.8431214485
 40
0.8747820968
 40
0.9063101458
 40
0.9376942762
 40
0.9689257414
 40
1.0
 40
1.0
 40
1.0
 40
1.0
 10
12.5020409704
 20
6.7379157352
 30
0.0
 10
12.4995854655
 20
6.7355439016
 30
0.0
 10
12.4945790611
 20
6.7308968714
 30
0.0
 10
12.4867976048
 20
6.7242294553
 30
0.0
 10
12.4787541106
 20
6.7178736368
 30
0.0
 10
12.4704598398
 20
6.7118382646
 30
0.0
 10
12.4619261666
 20
6.7061315985
 30
0.0
 10
12.4531648156
 20
6.7007615521
 30
0.0
 10
12.444187895
 20
6.6957354173
 30
0.0
 10
12.4350077037
 20
6.691060217
 30
0.0
 10
12.4256369149
 20
6.6867422745
 30
0.0
 10
12.4160884434
 20
6.682787604
 30
0.0
 10
12.406375246
 20
6.6792015809
 30
0.0
 10
12.3932107396
 20
6.6749143256
 30
0.0
 10
12.3764029603
 20
6.6705016357
 30
0.0
 10
12.3558189668
 20
6.6667552771
 30
0.0
 10
12.3349086976
 20
6.6645713124
 30
0.0
 10
12.3137880058
 20
6.6639617587
 30
0.0
 10
12.2925728363
 20
6.6649296194
 30
0.0
 10
12.2713798643
 20
6.6674693326
 30
0.0
 10
12.250325517
 20
6.6715666926
 30
0.0
 10
12.2295254357
 20
6.6771989677
 30
0.0
 10
12.209093818
 20
6.6843350083
 30
0.0
 10
12.1891428103
 20
6.6929354447
 30
0.0
 10
12.1697818987
 20
6.7029529039
 30
0.0
 10
12.1511173191
 20
6.7143322709
 30
0.0
 10
12.1332514814
 20
6.72701099
 30
0.0
 10
12.1162824178
 20
6.7409194079
 30
0.0
 10
12.1003032397
 20
6.7559811395
 30
0.0
 10
12.0854016373
 20
6.7721134938
 30
0.0
 10
12.0716594078
 20
6.7892279278
 30
0.0
 10
12.059152011
 20
6.8072305256
 30
0.0
 10
12.0479481589
 20
6.826022507
 30
0.0
 10
12.0381094441
 20
6.8455007666
 30
0.0
 10
12.029689992
 20
6.8655584149
 30
0.0
 10
12.0227361707
 20
6.8860854032
 30
0.0
 10
12.0172863064
 20
6.9069689638
 30
0.0
 10
12.013370588
 20
6.9280948108
 30
0.0
 10
12.0110106443
 20
6.9493454421
 30
0.0
 10
12.0104820783
 20
6.9635578857
 30
0.0
 10
12.0104820783
 20
6.970643458
 30
0.0
  0
SPLINE
  5
362
100
AcDbEntity
  8
0
100
AcDbSpline
 62
7
  6
CONTINUOUS
 70
0
 71
3
 72
23
 73
19
 74
0
 42
0.0000001
 43
0.0000001
 44
0.0000000001
 40
0.0
 40
0.0
 40
0.0
 40
0.0
 40
0.0637764154
 40
0.1273451281
 40
0.190701988
 40
0.253856063
 40
0.3168132283
 40
0.3795820791
 40
0.4421733864
 40
0.5045993414
 40
0.5668738629
 40
0.629012379
 40
0.6910316532
 40
0.7529496461
 40
0.8147853522
 40
0.8765586034
 40
0.9382898574
 40
1.0
 40
1.0
 40
1.0
 40
1.0
 10
11.208763665
 20
8.2336501732
 30
0.0
 10
11.208763665
 20
8.2375073194
 30
0.0
 10
11.2089483042
 20
8.2452103564
 30
0.0
 10
11.2097815623
 20
8.256718034
 30
0.0
 10
11.2111689904
 20
8.2681345236
 30
0.0
 10
11.2131072464
 20
8.2794329457
 30
0.0
 10
11.2155919913
 20
8.2905875235
 30
0.0
 10
11.218617477
 20
8.3015724706
 30
0.0
 10
11.222176744
 20
8.3123624717
 30
0.0
 10
11.2262616626
 20
8.3229326341
 30
0.0
 10
11.2308627994
 20
8.3332585875
 30
0.0
 10
11.2359695513
 20
8.3433165247
 30
0.0
 10
11.241570185
 20
8.3530832303
 30
0.0
 10
11.247651815
 20
8.3625361684
 30
0.0
 10
11.254200373
 20
8.3716535319
 30
0.0
 10
11.2612008437
 20
8.380414359
 30
0.0
 10
11.2686368394
 20
8.3887981386
 30
0.0
 10
11.2738740662
 20
8.3941240541
 30
0.0
 10
11.2765584532
 20
8.3967169736
 30
0.0
  0
SPLINE
  5
363
100
AcDbEntity
  8
0
100
AcDbSpline
 62
7
  6
CONTINUOUS
 70
0
 71
3
 72
45
 73
41
 74
0
 42
0.0000001
 43
0.0000001
 44
0.0000000001
 40
0.0
 40
0.0
 40
0.0
 40
0.0
 40
0.0149721379
 40
0.0299473343
 40
0.0449286317
 40
0.0599190303
 40
0.0749214809
 40
0.089938856
 40
0.1049739397
 40
0.1200294108
 40
0.1351078203
 40
0.1502115887
 40
0.1653429784
 40
0.1805040926
 40
0.2109173739
 40
0.2414702831
 40
0.2721727342
 40
0.3030312377
 40
0.3340488046
 40
0.365224933
 40
0.396555672
 40
0.4280337568
 40
0.4596488082
 40
0.4913875919
 40
0.5232343248
 40
0.5551710235
 40
0.5871778874
 40
0.6192337084
 40
0.6513163011
 40
0.6834029486
 40
0.7154708537
 40
0.7474975916
 40
0.7794615572
 40
0.8113424013
 40
0.8431214485
 40
0.8747820968
 40
0.9063101458
 40
0.9376942762
 40
0.9689257414
 40
1.0
 40
1.0
 40
1.0
 40
1.0
 10
9.4226691736
 20
6.9514708946
 30
0.0
 10
9.4202136687
 20
6.949099061
 30
0.0
 10
9.4152072643
 20
6.9444520308
 30
0.0
 10
9.407425808
 20
6.9377846148
 30
0.0
 10
9.3993823138
 20
6.9314287962
 30
0.0
 10
9.391088043
 20
6.925393424
 30
0.0
 10
9.3825543698
 20
6.919686758
 30
0.0
 10
9.3737930188
 20
6.9143167116
 30
0.0
 10
9.3648160981
 20
6.9092905767
 30
0.0
 10
9.3556359069
 20
6.9046153764
 30
0.0
 10
9.3462651181
 20
6.9002974339
 30
0.0
 10
9.3367166465
 20
6.8963427634
 30
0.0
 10
9.3270034492
 20
6.8927567403
 30
0.0
 10
9.3138389428
 20
6.888469485
 30
0.0
 10
9.2970311635
 20
6.8840567952
 30
0.0
 10
9.27644717
 20
6.8803104365
 30
0.0
 10
9.2555369008
 20
6.8781264718
 30
0.0
 10
9.234416209
 20
6.8775169182
 30
0.0
 10
9.2132010395
 20
6.8784847788
 30
0.0
 10
9.1920080674
 20
6.881024492
 30
0.0
 10
9.1709537202
 20
6.8851218521
 30
0.0
 10
9.1501536389
 20
6.8907541272
 30
0.0
 10
9.1297220212
 20
6.8978901677
 30
0.0
 10
9.1097710134
 20
6.9064906042
 30
0.0
 10
9.0904101019
 20
6.9165080633
 30
0.0
 10
9.0717455223
 20
6.9278874303
 30
0.0
 10
9.0538796846
 20
6.9405661494
 30
0.0
 10
9.036910621
 20
6.9544745673
 30
0.0
 10
9.0209314429
 20
6.9695362989
 30
0.0
 10
9.0060298405
 20
6.9856686533
 30
0.0
 10
8.9922876109
 20
7.0027830872
 30
0.0
 10
8.9797802142
 20
7.0207856851
 30
0.0
 10
8.9685763621
 20
7.0395776664
 30
0.0
 10
8.9587376473
 20
7.059055926
 30
0.0
 10
8.9503181952
 20
7.0791135744
 30
0.0
 10
8.9433643739
 20
7.0996405627
 30
0.0
 10
8.9379145095
 20
7.1205241232
 30
0.0
 10
8.9339987912
 20
7.1416499703
 30
0.0
 10
8.9316388475
 20
7.1629006016
 30
0.0
 10
8.9311102815
 20
7.1771130451
 30
0.0
 10
8.9311102815
 20
7.1841986174
 30
0.0
  0
SPLINE
  5
364
100
AcDbEntity
  8
0
100
AcDbSpline
 62
7
  6
CONTINUOUS
 70
0
 71
3
 72
23
 73
19
 74
0
 42
0.0000001
 43
0.0000001
 44
0.0000000001
 40
0.0
 40
0.0
 40
0.0
 40
0.0
 40
0.0637764154
 40
0.1273451281
 40
0.190701988
 40
0.253856063
 40
0.3168132283
 40
0.3795820791
 40
0.4421733864
 40
0.5045993414
 40
0.5668738629
 40
0.629012379
 40
0.6910316532
 40
0.7529496461
 40
0.8147853522
 40
0.8765586034
 40
0.9382898574
 40
1.0
 40
1.0
 40
1.0
 40
1.0
 10
10.5152288281
 20
9.0969885208
 30
0.0
 10
10.5152288281
 20
9.100845667
 30
0.0
 10
10.5154134673
 20
9.108548704
 30
0.0
 10
10.5162467254
 20
9.1200563817
 30
0.0
 10
10.5176341535
 20
9.1314728712
 30
0.0
 10
10.5195724095
 20
9.1427712933
 30
0.0
 10
10.5220571544
 20
9.1539258712
 30
0.0
 10
10.5250826401
 20
9.1649108182
 30
0.0
 10
10.5286419071
 20
9.1757008194
 30
0.0
 10
10.5327268257
 20
9.1862709817
 30
0.0
 10
10.5373279625
 20
9.1965969351
 30
0.0
 10
10.5424347144
 20
9.2066548723
 30
0.0
 10
10.5480353481
 20
9.2164215779
 30
0.0
 10
10.5541169781
 20
9.225874516
 30
0.0
 10
10.5606655361
 20
9.2349918795
 30
0.0
 10
10.5676660068
 20
9.2437527066
 30
0.0
 10
10.5751020025
 20
9.2521364863
 30
0.0
 10
10.5803392294
 20
9.2574624017
 30
0.0
 10
10.5830236163
 20
9.2600553212
 30
0.0
  0
SPLINE
  5
365
100
AcDbEntity
  8
0
100
AcDbSpline
 62
7
  6
CONTINUOUS
 70
0
 71
3
 72
96
 73
92
 74
0
 42
0.0000001
 43
0.0000001
 44
0.0000000001
 40
0.0
 40
0.0
 40
0.0
 40
0.0
 40
0.0038571889
 40
0.0078692782
 40
0.012039538
 40
0.0163707829
 40
0.0208653948
 40
0.0255252064
 40
0.0303514944
 40
0.0353451548
 40
0.0405066838
 40
0.0458362789
 40
0.0513338021
 40
0.0569988387
 40
0.0628307311
 40
0.0688285588
 40
0.0749912242
 40
0.0813173869
 40
0.0878055548
 40
0.094454041
 40
0.101261
 40
0.1082244475
 40
0.1153422271
 40
0.1226120839
 40
0.1375980468
 40
0.1531619178
 40
0.1692812857
 40
0.1859321384
 40
0.2030890024
 40
0.2207250706
 40
0.2388123163
 40
0.2573215971
 40
0.2762227526
 40
0.2954846963
 40
0.3150755029
 40
0.3349624938
 40
0.3551123224
 40
0.3754910556
 40
0.396064254
 40
0.4167970509
 40
0.4376542305
 40
0.4586003059
 40
0.4795995975
 40
0.5006163109
 40
0.5216146145
 40
0.5425587164
 40
0.5634129416
 40
0.5841418095
 40
0.6047101122
 40
0.6250829935
 40
0.645226027
 40
0.6651052952
 40
0.6846874695
 40
0.7039398917
 40
0.7228306571
 40
0.7413287019
 40
0.759403893
 40
0.7770271179
 40
0.794170383
 40
0.8108069176
 40
0.8269112873
 40
0.8424595196
 40
0.8500181252
 40
0.8574294545
 40
0.8646909832
 40
0.8718003128
 40
0.8787551864
 40
0.8855534551
 40
0.8921931519
 40
0.8986724234
 40
0.9049896128
 40
0.9111432176
 40
0.9171319249
 40
0.9229546389
 40
0.9286104502
 40
0.9340987263
 40
0.9394190507
 40
0.9445713221
 40
0.9495557295
 40
0.9543728041
 40
0.9590234733
 40
0.963509053
 40
0.9678313702
 40
0.9719927387
 40
0.9759960952
 40
0.9798450246
 40
0.9835438589
 40
0.9870977861
 40
0.9905129045
 40
0.9937963901
 40
1.0
 40
1.0
 40
1.0
 40
1.0
 10
13.1115139799
 20
7.5035512306
 30
0.0
 10
13.1131652706
 20
7.5051462551
 30
0.0
 10
13.1164662209
 20
7.5084713187
 30
0.0
 10
13.1213192163
 20
7.5137459792
 30
0.0
 10
13.1261675517
 20
7.5194020423
 30
0.0
 10
13.1310088988
 20
7.525436728
 30
0.0
 10
13.135841206
 20
7.5318473862
 30
0.0
 10
13.1406623489
 20
7.5386311965
 30
0.0
 10
13.145470237
 20
7.5457851047
 30
0.0
 10
13.1502626333
 20
7.5533059224
 30
0.0
 10
13.1550374507
 20
7.5611902322
 30
0.0
 10
13.1597924934
 20
7.5694345111
 30
0.0
 10
13.1645256439
 20
7.578035034
 30
0.0
 10
13.1692347623
 20
7.5869879212
 30
0.0
 10
13.1739176857
 20
7.5962891369
 30
0.0
 10
13.1785723402
 20
7.6059344609
 30
0.0
 10
13.1831965543
 20
7.6159195469
 30
0.0
 10
13.1877882841
 20
7.6262398579
 30
0.0
 10
13.1923454007
 20
7.6368907298
 30
0.0
 10
13.1968658523
 20
7.6478673289
 30
0.0
 10
13.2013475884
 20
7.6591646787
 30
0.0
 10
13.2057885387
 20
7.670777657
 30
0.0
 10
13.2101867433
 20
7.682700996
 30
0.0
 10
13.2160505687
 20
7.6991721096
 30
0.0
 10
13.2232499246
 20
7.7205023886
 30
0.0
 10
13.2316021833
 20
7.7469966906
 30
0.0
 10
13.2397372073
 20
7.7745931283
 30
0.0
 10
13.2476401379
 20
7.8032415676
 30
0.0
 10
13.2552965488
 20
7.8328900705
 30
0.0
 10
13.2626924635
 20
7.8634848178
 30
0.0
 10
13.2698143841
 20
7.8949702639
 30
0.0
 10
13.276649315
 20
7.9272892273
 30
0.0
 10
13.2831847866
 20
7.9603830004
 30
0.0
 10
13.2894088776
 20
7.9941914567
 30
0.0
 10
13.2953102373
 20
8.0286531606
 30
0.0
 10
13.3008781091
 20
8.0637054808
 30
0.0
 10
13.3061023452
 20
8.0992847066
 30
0.0
 10
13.3109734258
 20
8.1353261662
 30
0.0
 10
13.3154824764
 20
8.1717643445
 30
0.0
 10
13.3196212833
 20
8.2085330023
 30
0.0
 10
13.3233823081
 20
8.2455652968
 30
0.0
 10
13.3267587034
 20
8.2827939035
 30
0.0
 10
13.3297443268
 20
8.320151139
 30
0.0
 10
13.3323337481
 20
8.3575690859
 30
0.0
 10
13.3345222599
 20
8.3949797167
 30
0.0
 10
13.3363058863
 20
8.432315017
 30
0.0
 10
13.3376813899
 20
8.4695071093
 30
0.0
 10
13.3386462776
 20
8.5064883771
 30
0.0
 10
13.3391988075
 20
8.5431915885
 30
0.0
 10
13.3393379932
 20
8.5795500196
 30
0.0
 10
13.3390636025
 20
8.6154975768
 30
0.0
 10
13.3383761583
 20
8.6509689163
 30
0.0
 10
13.3372769384
 20
8.6858995635
 30
0.0
 10
13.335767973
 20
8.7202260306
 30
0.0
 10
13.3338520415
 20
8.7538859339
 30
0.0
 10
13.3315326703
 20
8.7868181106
 30
0.0
 10
13.3288141274
 20
8.8189627311
 30
0.0
 10
13.3257014119
 20
8.8502614123
 30
0.0
 10
13.3222002442
 20
8.8806573133
 30
0.0
 10
13.3183170636
 20
8.9100952852
 30
0.0
 10
13.3140589896
 20
8.9385218189
 30
0.0
 10
13.3101691123
 20
8.9615359229
 30
0.0
 10
13.3068684203
 20
8.9793985146
 30
0.0
 10
13.3043274276
 20
8.9923849008
 30
0.0
 10
13.3016988638
 20
9.0050808844
 30
0.0
 10
13.2989839031
 20
9.0174807108
 30
0.0
 10
13.2961838178
 20
9.0295787503
 30
0.0
 10
13.2932998349
 20
9.0413695102
 30
0.0
 10
13.2903333241
 20
9.052847645
 30
0.0
 10
13.2872855851
 20
9.0640079454
 30
0.0
 10
13.2841580423
 20
9.0748453553
 30
0.0
 10
13.2809521052
 20
9.0853549637
 30
0.0
 10
13.277669219
 20
9.0955320087
 30
0.0
 10
13.2743109139
 20
9.1053718914
 30
0.0
 10
13.2708786569
 20
9.1148701517
 30
0.0
 10
13.2673740691
 20
9.1240225117
 30
0.0
 10
13.2637986772
 20
9.1328248293
 30
0.0
 10
13.2601541365
 20
9.1412731463
 30
0.0
 10
13.2564420748
 20
9.1493636589
 30
0.0
 10
13.252664139
 20
9.1570927249
 30
0.0
 10
13.2488220645
 20
9.1644568954
 30
0.0
 10
13.2449174879
 20
9.1714528467
 30
0.0
 10
13.2409522078
 20
9.1780774852
 30
0.0
 10
13.2369278899
 20
9.184327825
 30
0.0
 10
13.2328463167
 20
9.1902011032
 30
0.0
 10
13.2287092314
 20
9.1956946866
 30
0.0
 10
13.2245183059
 20
9.200806135
 30
0.0
 10
13.2202754896
 20
9.2055330572
 30
0.0
 10
13.2159818753
 20
9.2098736835
 30
0.0
 10
13.2103012356
 20
9.2150440906
 30
0.0
 10
13.2058082964
 20
9.2184949676
 30
0.0
 10
13.2027341241
 20
9.220540363
 30
0.0
  0
SPLINE
  5
366
100
AcDbEntity
  8
0
100
AcDbSpline
 62
7
  6
CONTINUOUS
 70
0
 71
3
 72
45
 73
41
 74
0
 42
0.0000001
 43
0.0000001
 44
0.0000000001
 40
0.0
 40
0.0
 40
0.0
 40
0.0
 40
0.0149721379
 40
0.0299473343
 40
0.0449286317
 40
0.0599190303
 40
0.0749214809
 40
0.089938856
 40
0.1049739397
 40
0.1200294108
 40
0.1351078203
 40
0.1502115887
 40
0.1653429784
 40
0.1805040926
 40
0.2109173739
 40
0.2414702831
 40
0.2721727342
 40
0.3030312377
 40
0.3340488046
 40
0.365224933
 40
0.396555672
 40
0.4280337568
 40
0.4596488082
 40
0.4913875919
 40
0.5232343248
 40
0.5551710235
 40
0.5871778874
 40
0.6192337084
 40
0.6513163011
 40
0.6834029486
 40
0.7154708537
 40
0.7474975916
 40
0.7794615572
 40
0.8113424013
 40
0.8431214485
 40
0.8747820968
 40
0.9063101458
 40
0.9376942762
 40
0.9689257414
 40
1.0
 40
1.0
 40
1.0
 40
1.0
 10
9.4226691736
 20
9.3662856034
 30
0.0
 10
9.4202136687
 20
9.3639137698
 30
0.0
 10
9.4152072643
 20
9.3592667396
 30
0.0
 10
9.407425808
 20
9.3525993236
 30
0.0
 10
9.3993823138
 20
9.346243505
 30
0.0
 10
9.391088043
 20
9.3402081329
 30
0.0
 10
9.3825543698
 20
9.3345014668
 30
0.0
 10
9.3737930188
 20
9.3291314204
 30
0.0
 10
9.3648160981
 20
9.3241052855
 30
0.0
 10
9.3556359069
 20
9.3194300852
 30
0.0
 10
9.3462651181
 20
9.3151121427
 30
0.0
 10
9.3367166465
 20
9.3111574722
 30
0.0
 10
9.3270034492
 20
9.3075714491
 30
0.0
 10
9.3138389428
 20
9.3032841938
 30
0.0
 10
9.2970311635
 20
9.298871504
 30
0.0
 10
9.27644717
 20
9.2951251453
 30
0.0
 10
9.2555369008
 20
9.2929411806
 30
0.0
 10
9.234416209
 20
9.292331627
 30
0.0
 10
9.2132010395
 20
9.2932994876
 30
0.0
 10
9.1920080674
 20
9.2958392008
 30
0.0
 10
9.1709537202
 20
9.2999365609
 30
0.0
 10
9.1501536389
 20
9.305568836
 30
0.0
 10
9.1297220212
 20
9.3127048765
 30
0.0
 10
9.1097710134
 20
9.321305313
 30
0.0
 10
9.0904101019
 20
9.3313227721
 30
0.0
 10
9.0717455223
 20
9.3427021391
 30
0.0
 10
9.0538796846
 20
9.3553808582
 30
0.0
 10
9.036910621
 20
9.3692892761
 30
0.0
 10
9.0209314429
 20
9.3843510077
 30
0.0
 10
9.0060298405
 20
9.4004833621
 30
0.0
 10
8.9922876109
 20
9.417597796
 30
0.0
 10
8.9797802142
 20
9.4356003939
 30
0.0
 10
8.9685763621
 20
9.4543923752
 30
0.0
 10
8.9587376473
 20
9.4738706348
 30
0.0
 10
8.9503181952
 20
9.4939282832
 30
0.0
 10
8.9433643739
 20
9.5144552715
 30
0.0
 10
8.9379145095
 20
9.535338832
 30
0.0
 10
8.9339987912
 20
9.5564646791
 30
0.0
 10
8.9316388475
 20
9.5777153104
 30
0.0
 10
8.9311102815
 20
9.5919277539
 30
0.0
 10
8.9311102815
 20
9.5990133262
 30
0.0
  0
SPLINE
  5
367
100
AcDbEntity
  8
0
100
AcDbSpline
 62
7
  6
CONTINUOUS
 70
0
 71
3
 72
24
 73
20
 74
0
 42
0.0000001
 43
0.0000001
 44
0.0000000001
 40
0.0
 40
0.0
 40
0.0
 40
0.0
 40
0.0637764416
 40
0.1273443685
 40
0.190701004
 40
0.2538548276
 40
0.3168116139
 40
0.3795801666
 40
0.4421711529
 40
0.504596791
 40
0.5668710034
 40
0.6290092011
 40
0.6910281569
 40
0.7220010165
 40
0.7529508932
 40
0.8147862903
 40
0.8765592252
 40
0.938290164
 40
1.0
 40
1.0
 40
1.0
 40
1.0
 10
12.0104820783
 20
6.970643458
 30
0.0
 10
12.0104820783
 20
6.9752103503
 30
0.0
 10
12.0107006814
 20
6.9843307507
 30
0.0
 10
12.0116872762
 20
6.9979558575
 30
0.0
 10
12.0133299968
 20
7.0114729773
 30
0.0
 10
12.0156248859
 20
7.0248503365
 30
0.0
 10
12.0185668329
 20
7.038057376
 30
0.0
 10
12.0221490243
 20
7.0510635642
 30
0.0
 10
12.0263632209
 20
7.0638389403
 30
0.0
 10
12.031199748
 20
7.0763540281
 30
0.0
 10
12.0366475306
 20
7.0885800013
 30
0.0
 10
12.0426938899
 20
7.1004884846
 30
0.0
 10
12.0482224926
 20
7.1101295417
 30
0.0
 10
12.0529294417
 20
7.1176547345
 30
0.0
 10
12.0578197905
 20
7.1250462973
 30
0.0
 10
12.06427934
 20
7.1340397181
 30
0.0
 10
12.072567864
 20
7.1444124151
 30
0.0
 10
12.0813721083
 20
7.1543388597
 30
0.0
 10
12.0875729887
 20
7.1606447464
 30
0.0
 10
12.0907513093
 20
7.1637147658
 30
0.0
  0
SPLINE
  5
368
100
AcDbEntity
  8
0
100
AcDbSpline
 62
7
  6
CONTINUOUS
 70
0
 71
3
 72
14
 73
10
 74
0
 42
0.0000001
 43
0.0000001
 44
0.0000000001
 40
0.0
 40
0.0
 40
0.0
 40
0.0
 40
0.1384500297
 40
0.272780954
 40
0.4031079023
 40
0.5295624839
 40
0.6523002482
 40
0.7714967024
 40
1.0
 40
1.0
 40
1.0
 40
1.0
 10
13.1115139799
 20
7.5035512306
 30
0.0
 10
13.1103054319
 20
7.5023838628
 30
0.0
 10
13.1078887614
 20
7.5001202404
 30
0.0
 10
13.1042087365
 20
7.496895261
 30
0.0
 10
13.1005302168
 20
7.4938936687
 30
0.0
 10
13.0968542936
 20
7.4911165015
 30
0.0
 10
13.0931816656
 20
7.4885643532
 30
0.0
 10
13.0883593481
 20
7.4855060394
 30
0.0
 10
13.0846472129
 20
7.4834821033
 30
0.0
 10
13.082147783
 20
7.4822806582
 30
0.0
  0
SPLINE
  5
369
100
AcDbEntity
  8
0
100
AcDbSpline
 62
7
  6
CONTINUOUS
 70
0
 71
3
 72
31
 73
27
 74
0
 42
0.0000001
 43
0.0000001
 44
0.0000000001
 40
0.0
 40
0.0
 40
0.0
 40
0.0
 40
0.0755817584
 40
0.1466094747
 40
0.2134212694
 40
0.2764574421
 40
0.3362576808
 40
0.365153755
 40
0.3934915612
 40
0.4213678094
 40
0.4488844634
 40
0.4761479599
 40
0.5032680339
 40
0.5303562563
 40
0.5575246594
 40
0.5848841968
 40
0.6125432754
 40
0.6406065922
 40
0.669173961
 40
0.6983393339
 40
0.7281904909
 40
0.7902483908
 40
0.8559390094
 40
0.8903032128
 40
0.9257417049
 40
1.0
 40
1.0
 40
1.0
 40
1.0
 10
13.1115139799
 20
7.8416252899
 30
0.0
 10
13.1100409573
 20
7.8402024592
 30
0.0
 10
13.1070968959
 20
7.8375299577
 30
0.0
 10
13.1025406889
 20
7.8339597054
 30
0.0
 10
13.0979897345
 20
7.830961151
 30
0.0
 10
13.0934486814
 20
7.828538974
 30
0.0
 10
13.0896317762
 20
7.8269866973
 30
0.0
 10
13.086600177
 20
7.8260507833
 30
0.0
 10
13.0843585805
 20
7.825502698
 30
0.0
 10
13.0821241608
 20
7.8251008185
 30
0.0
 10
13.0798975328
 20
7.8248453338
 30
0.0
 10
13.0776794167
 20
7.8247364188
 30
0.0
 10
13.0754705327
 20
7.8247740963
 30
0.0
 10
13.0732716055
 20
7.8249583745
 30
0.0
 10
13.0710833683
 20
7.8252892404
 30
0.0
 10
13.0689065348
 20
7.8257665221
 30
0.0
 10
13.0667417906
 20
7.8263899945
 30
0.0
 10
13.0645898069
 20
7.8271594367
 30
0.0
 10
13.0624512405
 20
7.8280745439
 30
0.0
 10
13.0603266387
 20
7.8291349537
 30
0.0
 10
13.057476707
 20
7.8307629212
 30
0.0
 10
13.0539458872
 20
7.8331791508
 30
0.0
 10
13.0505699105
 20
7.8359989847
 30
0.0
 10
13.0479047921
 20
7.8385252891
 30
0.0
 10
13.0451809573
 20
7.8413225462
 30
0.0
 10
13.0432303198
 20
7.8435696984
 30
0.0
 10
13.0419607292
 20
7.8451307183
 30
0.0
  0
SPLINE
  5
36A
100
AcDbEntity
  8
0
100
AcDbSpline
 62
7
  6
CONTINUOUS
 70
0
 71
3
 72
45
 73
41
 74
0
 42
0.0000001
 43
0.0000001
 44
0.0000000001
 40
0.0
 40
0.0
 40
0.0
 40
0.0
 40
0.0149721379
 40
0.0299473343
 40
0.0449286317
 40
0.0599190303
 40
0.0749214809
 40
0.089938856
 40
0.1049739397
 40
0.1200294108
 40
0.1351078203
 40
0.1502115887
 40
0.1653429784
 40
0.1805040926
 40
0.2109173739
 40
0.2414702831
 40
0.2721727342
 40
0.3030312377
 40
0.3340488046
 40
0.365224933
 40
0.396555672
 40
0.4280337568
 40
0.4596488082
 40
0.4913875919
 40
0.5232343248
 40
0.5551710235
 40
0.5871778874
 40
0.6192337084
 40
0.6513163011
 40
0.6834029486
 40
0.7154708537
 40
0.7474975916
 40
0.7794615572
 40
0.8113424013
 40
0.8431214485
 40
0.8747820968
 40
0.9063101458
 40
0.9376942762
 40
0.9689257414
 40
1.0
 40
1.0
 40
1.0
 40
1.0
 10
12.5020409704
 20
9.152730444
 30
0.0
 10
12.4995854655
 20
9.1503586104
 30
0.0
 10
12.4945790611
 20
9.1457115802
 30
0.0
 10
12.4867976048
 20
9.1390441641
 30
0.0
 10
12.4787541106
 20
9.1326883456
 30
0.0
 10
12.4704598398
 20
9.1266529734
 30
0.0
 10
12.4619261666
 20
9.1209463074
 30
0.0
 10
12.4531648156
 20
9.1155762609
 30
0.0
 10
12.444187895
 20
9.1105501261
 30
0.0
 10
12.4350077037
 20
9.1058749258
 30
0.0
 10
12.4256369149
 20
9.1015569833
 30
0.0
 10
12.4160884434
 20
9.0976023128
 30
0.0
 10
12.406375246
 20
9.0940162897
 30
0.0
 10
12.3932107396
 20
9.0897290344
 30
0.0
 10
12.3764029603
 20
9.0853163445
 30
0.0
 10
12.3558189668
 20
9.0815699859
 30
0.0
 10
12.3349086976
 20
9.0793860212
 30
0.0
 10
12.3137880058
 20
9.0787764675
 30
0.0
 10
12.2925728363
 20
9.0797443282
 30
0.0
 10
12.2713798643
 20
9.0822840414
 30
0.0
 10
12.250325517
 20
9.0863814014
 30
0.0
 10
12.2295254357
 20
9.0920136765
 30
0.0
 10
12.209093818
 20
9.0991497171
 30
0.0
 10
12.1891428103
 20
9.1077501535
 30
0.0
 10
12.1697818987
 20
9.1177676127
 30
0.0
 10
12.1511173191
 20
9.1291469797
 30
0.0
 10
12.1332514814
 20
9.1418256988
 30
0.0
 10
12.1162824178
 20
9.1557341167
 30
0.0
 10
12.1003032397
 20
9.1707958483
 30
0.0
 10
12.0854016373
 20
9.1869282026
 30
0.0
 10
12.0716594078
 20
9.2040426366
 30
0.0
 10
12.059152011
 20
9.2220452344
 30
0.0
 10
12.0479481589
 20
9.2408372158
 30
0.0
 10
12.0381094441
 20
9.2603154754
 30
0.0
 10
12.029689992
 20
9.2803731237
 30
0.0
 10
12.0227361707
 20
9.300900112
 30
0.0
 10
12.0172863064
 20
9.3217836726
 30
0.0
 10
12.013370588
 20
9.3429095196
 30
0.0
 10
12.0110106443
 20
9.3641601509
 30
0.0
 10
12.0104820783
 20
9.3783725945
 30
0.0
 10
12.0104820783
 20
9.3854581668
 30
0.0
  0
SPLINE
  5
36B
100
AcDbEntity
  8
0
100
AcDbSpline
 62
7
  6
CONTINUOUS
 70
0
 71
3
 72
18
 73
14
 74
0
 42
0.0000001
 43
0.0000001
 44
0.0000000001
 40
0.0
 40
0.0
 40
0.0
 40
0.0
 40
0.1504654274
 40
0.2917102685
 40
0.4244367914
 40
0.5495623274
 40
0.6682139347
 40
0.7255498045
 40
0.781791271
 40
0.8371402644
 40
0.8918093774
 40
0.9460200616
 40
1.0
 40
1.0
 40
1.0
 40
1.0
 10
13.0535584269
 20
7.9036000741
 30
0.0
 10
13.0522297047
 20
7.9023166269
 30
0.0
 10
13.0495740935
 20
7.8999085271
 30
0.0
 10
13.0454619319
 20
7.8966992795
 30
0.0
 10
13.0413545618
 20
7.8940152478
 30
0.0
 10
13.0372562977
 20
7.8918608359
 30
0.0
 10
13.0338117648
 20
7.890494692
 30
0.0
 10
13.0310769492
 20
7.8896830075
 30
0.0
 10
13.0290549612
 20
7.8892152004
 30
0.0
 10
13.0270396936
 20
7.8888817484
 30
0.0
 10
13.0250316952
 20
7.8886828214
 30
0.0
 10
13.0230317675
 20
7.8886185652
 30
0.0
 10
13.021703075
 20
7.8886655647
 30
0.0
 10
13.0210419166
 20
7.888711413
 30
0.0
  0
SPLINE
  5
36C
100
AcDbEntity
  8
0
100
AcDbSpline
 62
7
  6
CONTINUOUS
 70
0
 71
3
 72
23
 73
19
 74
0
 42
0.0000001
 43
0.0000001
 44
0.0000000001
 40
0.0
 40
0.0
 40
0.0
 40
0.0
 40
0.0764219057
 40
0.1504656864
 40
0.2222015765
 40
0.2917109238
 40
0.3590900758
 40
0.4244474746
 40
0.487903775
 40
0.5495925967
 40
0.6096609602
 40
0.6682702092
 40
0.7255962386
 40
0.7818281892
 40
0.8371677688
 40
0.8918276742
 40
0.9460292214
 40
1.0
 40
1.0
 40
1.0
 40
1.0
 10
13.1733332379
 20
7.4992640505
 30
0.0
 10
13.1720694507
 20
7.4980433258
 30
0.0
 10
13.1695423696
 20
7.495679605
 30
0.0
 10
13.1656915219
 20
7.4923207749
 30
0.0
 10
13.1618424115
 20
7.4892066503
 30
0.0
 10
13.1579961902
 20
7.4863383468
 30
0.0
 10
13.1541539372
 20
7.4837166789
 30
0.0
 10
13.1503166368
 20
7.4813424187
 30
0.0
 10
13.1464852698
 20
7.4792163193
 30
0.0
 10
13.1426608915
 20
7.4773390264
 30
0.0
 10
13.138844537
 20
7.4757112269
 30
0.0
 10
13.1350372637
 20
7.4743335672
 30
0.0
 10
13.1312401875
 20
7.4732065316
 30
0.0
 10
13.1274544108
 20
7.472330645
 30
0.0
 10
13.1236811167
 20
7.4717063403
 30
0.0
 10
13.1199214632
 20
7.4713338827
 30
0.0
 10
13.1161769133
 20
7.4712135356
 30
0.0
 10
13.1136891468
 20
7.4713015506
 30
0.0
 10
13.1124512334
 20
7.4713874005
 30
0.0
  0
SPLINE
  5
36D
100
AcDbEntity
  8
0
100
AcDbSpline
 62
7
  6
CONTINUOUS
 70
0
 71
3
 72
41
 73
37
 74
0
 42
0.0000001
 43
0.0000001
 44
0.0000000001
 40
0.0
 40
0.0
 40
0.0
 40
0.0
 40
0.0299421756
 40
0.0599087291
 40
0.0899234427
 40
0.12000893
 40
0.1501860972
 40
0.1804736576
 40
0.2108877103
 40
0.2414413945
 40
0.2721446252
 40
0.3030039132
 40
0.3340222692
 40
0.3651991907
 40
0.3965307261
 40
0.4280096099
 40
0.4596254632
 40
0.491365051
 40
0.5232125895
 40
0.5551500944
 40
0.5871577641
 40
0.61921439
 40
0.6512977872
 40
0.6833852384
 40
0.715453946
 40
0.7314766505
 40
0.7474863166
 40
0.7794510815
 40
0.8113327211
 40
0.8272389267
 40
0.8431175145
 40
0.8747789379
 40
0.9063078385
 40
0.9376925801
 40
0.9689252405
 40
1.0
 40
1.0
 40
1.0
 40
1.0
 10
10.8470266773
 20
8.1714964362
 30
0.0
 10
10.844870019
 20
8.1694132814
 30
0.0
 10
10.84038709
 20
8.1654151257
 30
0.0
 10
10.8332047762
 20
8.1599683279
 30
0.0
 10
10.8256012203
 20
8.1550992585
 30
0.0
 10
10.8176189161
 20
8.1508352224
 30
0.0
 10
10.8093017469
 20
8.1471995171
 30
0.0
 10
10.8006956145
 20
8.1442121273
 30
0.0
 10
10.7918479433
 20
8.1418893985
 30
0.0
 10
10.7828074771
 20
8.1402440115
 30
0.0
 10
10.7736239907
 20
8.1392849042
 30
0.0
 10
10.7643480187
 20
8.1390172329
 30
0.0
 10
10.7550305761
 20
8.1394423501
 30
0.0
 10
10.7457228801
 20
8.1405578031
 30
0.0
 10
10.7364760706
 20
8.142357353
 30
0.0
 10
10.7273409328
 20
8.1448310132
 30
0.0
 10
10.718367622
 20
8.1479651073
 30
0.0
 10
10.7096053917
 20
8.1517423456
 30
0.0
 10
10.7011023272
 20
8.1561419231
 30
0.0
 10
10.6929050864
 20
8.1611396315
 30
0.0
 10
10.6850586422
 20
8.166708
 30
0.0
 10
10.6776060579
 20
8.1728164173
 30
0.0
 10
10.6705881837
 20
8.1794314031
 30
0.0
 10
10.6640436958
 20
8.1865163992
 30
0.0
 10
10.6590122596
 20
8.1927826045
 30
0.0
 10
10.6552583089
 20
8.1979910464
 30
0.0
 10
10.6516932742
 20
8.2033180768
 30
0.0
 10
10.6475945209
 20
8.210192712
 30
0.0
 10
10.6439906353
 20
8.217327699
 30
0.0
 10
10.6414198389
 20
8.2231633413
 30
0.0
 10
10.6390646178
 20
8.229065492
 30
0.0
 10
10.6365217063
 20
8.2365717733
 30
0.0
 10
10.6341282852
 20
8.2457434027
 30
0.0
 10
10.6324085042
 20
8.2550216895
 30
0.0
 10
10.6313720866
 20
8.2643546974
 30
0.0
 10
10.6311399341
 20
8.2705966453
 30
0.0
 10
10.6311399341
 20
8.273708515
 30
0.0
  0
SPLINE
  5
36E
100
AcDbEntity
  8
0
100
AcDbSpline
 62
7
  6
CONTINUOUS
 70
0
 71
3
 72
39
 73
35
 74
0
 42
0.0000001
 43
0.0000001
 44
0.0000000001
 40
0.0
 40
0.0
 40
0.0
 40
0.0
 40
0.0299407059
 40
0.059954879
 40
0.0900595442
 40
0.1202698939
 40
0.1505990003
 40
0.181057579
 40
0.2116538066
 40
0.2423931982
 40
0.2732785415
 40
0.3043098822
 40
0.3354845599
 40
0.3667972931
 40
0.3982403074
 40
0.429803505
 40
0.4614746738
 40
0.4932397228
 40
0.5250829419
 40
0.5569872815
 40
0.5889346501
 40
0.6209062246
 40
0.6528827738
 40
0.684844985
 40
0.7167737889
 40
0.748650682
 40
0.7804580385
 40
0.812179418
 40
0.8437998668
 40
0.8753061195
 40
0.906687184
 40
0.9379333935
 40
0.9690397889
 40
1.0
 40
1.0
 40
1.0
 40
1.0
 10
10.86143161
 20
8.1885274637
 30
0.0
 10
10.8590955438
 20
8.1870331697
 30
0.0
 10
10.8543066186
 20
8.1842106417
 30
0.0
 10
10.8468260462
 20
8.1805046766
 30
0.0
 10
10.8390741494
 20
8.1773383873
 30
0.0
 10
10.8310877172
 20
8.1747268325
 30
0.0
 10
10.8229039913
 20
8.1726820806
 30
0.0
 10
10.8145612911
 20
8.1712136488
 30
0.0
 10
10.80609862
 20
8.1703283187
 30
0.0
 10
10.7975555374
 20
8.1700301405
 30
0.0
 10
10.788971956
 20
8.1703204234
 30
0.0
 10
10.7803879613
 20
8.1711977332
 30
0.0
 10
10.7718436261
 20
8.1726579016
 30
0.0
 10
10.7633788258
 20
8.174694048
 30
0.0
 10
10.7550330566
 20
8.1772966151
 30
0.0
 10
10.7468452473
 20
8.1804533969
 30
0.0
 10
10.738853581
 20
8.184149611
 30
0.0
 10
10.7310953215
 20
8.1883679715
 30
0.0
 10
10.7236066419
 20
8.1930887687
 30
0.0
 10
10.7164224588
 20
8.1982899606
 30
0.0
 10
10.7095762724
 20
8.203947275
 30
0.0
 10
10.70310001
 20
8.210034318
 30
0.0
 10
10.6970238677
 20
8.2165226882
 30
0.0
 10
10.691376183
 20
8.2233821229
 30
0.0
 10
10.6861833023
 20
8.2305806348
 30
0.0
 10
10.6814694609
 20
8.2380846607
 30
0.0
 10
10.6772566698
 20
8.2458592139
 30
0.0
 10
10.6735646149
 20
8.2538680482
 30
0.0
 10
10.6704105643
 20
8.2620738116
 30
0.0
 10
10.6678092432
 20
8.2704382525
 30
0.0
 10
10.6657729061
 20
8.2789222854
 30
0.0
 10
10.664310984
 20
8.2874865587
 30
0.0
 10
10.6634305535
 20
8.2960904749
 30
0.0
 10
10.6632334687
 20
8.3018409577
 30
0.0
 10
10.6632334687
 20
8.3047084907
 30
0.0
  0
SPLINE
  5
36F
100
AcDbEntity
  8
0
100
AcDbSpline
 62
7
  6
CONTINUOUS
 70
0
 71
3
 72
24
 73
20
 74
0
 42
0.0000001
 43
0.0000001
 44
0.0000000001
 40
0.0
 40
0.0
 40
0.0
 40
0.0
 40
0.0637764416
 40
0.1273443685
 40
0.190701004
 40
0.2538548276
 40
0.3168116139
 40
0.3795801666
 40
0.4421711529
 40
0.504596791
 40
0.5668710034
 40
0.6290092011
 40
0.6910281569
 40
0.7220010165
 40
0.7529508932
 40
0.8147862903
 40
0.8765592252
 40
0.938290164
 40
1.0
 40
1.0
 40
1.0
 40
1.0
 10
8.9311102815
 20
7.1841986174
 30
0.0
 10
8.9311102815
 20
7.1887655097
 30
0.0
 10
8.9313288846
 20
7.1978859102
 30
0.0
 10
8.9323154794
 20
7.2115110169
 30
0.0
 10
8.9339582
 20
7.2250281367
 30
0.0
 10
8.9362530891
 20
7.2384054959
 30
0.0
 10
8.9391950361
 20
7.2516125355
 30
0.0
 10
8.9427772275
 20
7.2646187236
 30
0.0
 10
8.9469914241
 20
7.2773940997
 30
0.0
 10
8.9518279512
 20
7.2899091875
 30
0.0
 10
8.9572757338
 20
7.3021351608
 30
0.0
 10
8.9633220931
 20
7.3140436441
 30
0.0
 10
8.9688506958
 20
7.3236847012
 30
0.0
 10
8.9735576449
 20
7.331209894
 30
0.0
 10
8.9784479937
 20
7.3386014568
 30
0.0
 10
8.9849075432
 20
7.3475948775
 30
0.0
 10
8.9931960672
 20
7.3579675746
 30
0.0
 10
9.0020003115
 20
7.3678940192
 30
0.0
 10
9.0082011919
 20
7.3741999059
 30
0.0
 10
9.0113795125
 20
7.3772699252
 30
0.0
  0
SPLINE
  5
370
100
AcDbEntity
  8
0
100
AcDbSpline
 62
7
  6
CONTINUOUS
 70
0
 71
3
 72
15
 73
11
 74
0
 42
0.0000001
 43
0.0000001
 44
0.0000000001
 40
0.0
 40
0.0
 40
0.0
 40
0.0
 40
0.1233934028
 40
0.2471133869
 40
0.3712392566
 40
0.4958407119
 40
0.6209774214
 40
0.7466947139
 40
0.8730305075
 40
1.0
 40
1.0
 40
1.0
 40
1.0
 10
10.6840154386
 20
8.3724576235
 30
0.0
 10
10.6823316114
 20
8.3700242739
 30
0.0
 10
10.6791480258
 20
8.3650175781
 30
0.0
 10
10.6749627656
 20
8.3571503475
 30
0.0
 10
10.6713832222
 20
8.3489575423
 30
0.0
 10
10.668428753
 20
8.3404834242
 30
0.0
 10
10.6661149456
 20
8.3317730636
 30
0.0
 10
10.664453953
 20
8.3228726913
 30
0.0
 10
10.6634546259
 20
8.313830375
 30
0.0
 10
10.6632334687
 20
8.3077533823
 30
0.0
 10
10.6632334687
 20
8.3047084907
 30
0.0
  0
SPLINE
  5
371
100
AcDbEntity
  8
0
100
AcDbSpline
 62
7
  6
CONTINUOUS
 70
0
 71
3
 72
42
 73
38
 74
0
 42
0.0000001
 43
0.0000001
 44
0.0000000001
 40
0.0
 40
0.0
 40
0.0
 40
0.0
 40
0.0149723971
 40
0.029947854
 40
0.0449294092
 40
0.0599200692
 40
0.0749227779
 40
0.0899404136
 40
0.1200256609
 40
0.1502025864
 40
0.1804899033
 40
0.2109037105
 40
0.2414571471
 40
0.2721601282
 40
0.3030191646
 40
0.3340372675
 40
0.3652139349
 40
0.3965452155
 40
0.4280238444
 40
0.459639443
 40
0.4913787765
 40
0.5232260611
 40
0.5551633129
 40
0.5871707307
 40
0.6192271064
 40
0.6513102549
 40
0.683397459
 40
0.7154659208
 40
0.7474932143
 40
0.7794577337
 40
0.8113391302
 40
0.8431187274
 40
0.8747799267
 40
0.906308519
 40
0.9376931951
 40
0.9689252215
 40
1.0
 40
1.0
 40
1.0
 40
1.0
 10
10.9303969817
 20
7.2699451552
 30
0.0
 10
10.9283230758
 20
7.2679419153
 30
0.0
 10
10.9240947266
 20
7.2640170181
 30
0.0
 10
10.9175225192
 20
7.2583857882
 30
0.0
 10
10.910729047
 20
7.2530176561
 30
0.0
 10
10.9037237709
 20
7.2479202269
 30
0.0
 10
10.8965161745
 20
7.2431003616
 30
0.0
 10
10.8866451563
 20
7.2370500364
 30
0.0
 10
10.8738434408
 20
7.230211246
 30
0.0
 10
10.8578492716
 20
7.2232196244
 30
0.0
 10
10.8412988996
 20
7.2174744458
 30
0.0
 10
10.8242841505
 20
7.213007558
 30
0.0
 10
10.8068985965
 20
7.2098432346
 30
0.0
 10
10.7892380048
 20
7.2079986929
 30
0.0
 10
10.7713995455
 20
7.2074838408
 30
0.0
 10
10.7534813287
 20
7.2083012816
 30
0.0
 10
10.7355818484
 20
7.210446299
 30
0.0
 10
10.7177994517
 20
7.2139068965
 30
0.0
 10
10.7002318037
 20
7.2186638712
 30
0.0
 10
10.6829753585
 20
7.2246909233
 30
0.0
 10
10.6661248348
 20
7.2319548015
 30
0.0
 10
10.6497727048
 20
7.2404154941
 30
0.0
 10
10.6340086941
 20
7.2500264488
 30
0.0
 10
10.6189192961
 20
7.2607348283
 30
0.0
 10
10.6045873031
 20
7.2724817984
 30
0.0
 10
10.5910913586
 20
7.2852028492
 30
0.0
 10
10.5785055297
 20
7.2988281453
 30
0.0
 10
10.5668989059
 20
7.3132829062
 30
0.0
 10
10.5563352228
 20
7.3284878112
 30
0.0
 10
10.5468725103
 20
7.344359427
 30
0.0
 10
10.5385627829
 20
7.3608106674
 30
0.0
 10
10.5314517494
 20
7.3777512538
 30
0.0
 10
10.5255785808
 20
7.3950882425
 30
0.0
 10
10.5209756459
 20
7.4127263911
 30
0.0
 10
10.5176684466
 20
7.4305691784
 30
0.0
 10
10.5156752526
 20
7.4485173556
 30
0.0
 10
10.5152288281
 20
7.4605211142
 30
0.0
 10
10.5152288281
 20
7.4665055493
 30
0.0
  0
SPLINE
  5
372
100
AcDbEntity
  8
0
100
AcDbSpline
 62
7
  6
CONTINUOUS
 70
0
 71
3
 72
103
 73
99
 74
0
 42
0.0000001
 43
0.0000001
 44
0.0000000001
 40
0.0
 40
0.0
 40
0.0
 40
0.0
 40
0.0042067101
 40
0.0086074547
 40
0.0132067043
 40
0.01800817
 40
0.0230148673
 40
0.0282289702
 40
0.0336518138
 40
0.0392841696
 40
0.0451262095
 40
0.0511776754
 40
0.0574378153
 40
0.0639054823
 40
0.0705791807
 40
0.0774570368
 40
0.0845369309
 40
0.0918163909
 40
0.099292739
 40
0.1069630144
 40
0.1148240386
 40
0.1228724349
 40
0.1395164555
 40
0.1568644138
 40
0.1748826064
 40
0.1935348815
 40
0.2127828776
 40
0.2325862341
 40
0.2529027916
 40
0.2736887734
 40
0.2948989567
 40
0.3164868354
 40
0.3384047776
 40
0.3606041792
 40
0.383035614
 40
0.4056489864
 40
0.4283936792
 40
0.4512187003
 40
0.4740728285
 40
0.4969047592
 40
0.5196632501
 40
0.5422972686
 40
0.5647561388
 40
0.5869896877
 40
0.6089483925
 40
0.6305835292
 40
0.6518473237
 40
0.6726931059
 40
0.693075471
 40
0.7129504399
 40
0.7322756282
 40
0.751010425
 40
0.7691161858
 40
0.7865564429
 40
0.7950163889
 40
0.8032974156
 40
0.811395667
 40
0.8193075085
 40
0.8270294946
 40
0.8345583729
 40
0.8418911593
 40
0.8490250501
 40
0.855957566
 40
0.862686449
 40
0.8692097796
 40
0.8755259566
 40
0.8816337162
 40
0.8875322353
 40
0.8932210608
 40
0.8987002921
 40
0.903970509
 40
0.909032935
 40
0.9138894694
 40
0.9185427679
 40
0.9229964179
 40
0.9272549569
 40
0.9313241451
 40
0.935211012
 40
0.9389241269
 40
0.9424737539
 40
0.945872041
 40
0.9491332494
 40
0.9522738124
 40
0.9553124681
 40
0.9582701157
 40
0.9611696247
 40
0.9640353941
 40
0.9668927677
 40
0.9697673296
 40
0.9726841783
 40
0.9756672401
 40
0.9787387591
 40
0.9819188916
 40
0.9852255444
 40
0.9886744302
 40
0.9922791433
 40
0.9960512376
 40
1.0
 40
1.0
 40
1.0
 40
1.0
 10
13.1115139799
 20
7.8416252899
 30
0.0
 10
13.1126585209
 20
7.8427308316
 30
0.0
 10
13.114946079
 20
7.8450496789
 30
0.0
 10
13.1182991178
 20
7.8487547796
 30
0.0
 10
13.1216478953
 20
7.8527616328
 30
0.0
 10
13.124990315
 20
7.85706766
 30
0.0
 10
13.1283245254
 20
7.8616703835
 30
0.0
 10
13.1316486009
 20
7.8665671456
 30
0.0
 10
13.1349606507
 20
7.8717550526
 30
0.0
 10
13.138258639
 20
7.8772310671
 30
0.0
 10
13.1415406824
 20
7.8829919186
 30
0.0
 10
13.1448047846
 20
7.8890342207
 30
0.0
 10
13.1480490354
 20
7.8953543804
 30
0.0
 10
13.151271498
 20
7.9019486461
 30
0.0
 10
13.1544702211
 20
7.9088131024
 30
0.0
 10
13.1576433403
 20
7.9159436505
 30
0.0
 10
13.1607888989
 20
7.9233360571
 30
0.0
 10
13.1639050711
 20
7.9309859001
 30
0.0
 10
13.1669899462
 20
7.9388886261
 30
0.0
 10
13.1700416967
 20
7.9470395097
 30
0.0
 10
13.1730585078
 20
7.9554336915
 30
0.0
 10
13.1770768358
 20
7.9670740115
 30
0.0
 10
13.1819915042
 20
7.9821999438
 30
0.0
 10
13.1876575951
 20
8.0010419276
 30
0.0
 10
13.1931425118
 20
8.0207271517
 30
0.0
 10
13.1984330541
 20
8.0412085474
 30
0.0
 10
13.2035164876
 20
8.0624372323
 30
0.0
 10
13.2083805851
 20
8.0843624718
 30
0.0
 10
13.2130136495
 20
8.1069318535
 30
0.0
 10
13.2174045427
 20
8.1300914062
 30
0.0
 10
13.2215427121
 20
8.1537857358
 30
0.0
 10
13.2254182153
 20
8.1779581587
 30
0.0
 10
13.2290217432
 20
8.2025508389
 30
0.0
 10
13.2323446425
 20
8.2275049271
 30
0.0
 10
13.2353789395
 20
8.2527607028
 30
0.0
 10
13.2381173552
 20
8.2782577197
 30
0.0
 10
13.2405533228
 20
8.3039349518
 30
0.0
 10
13.2426810031
 20
8.3297309405
 30
0.0
 10
13.2444952981
 20
8.3555839416
 30
0.0
 10
13.2459918636
 20
8.3814320727
 30
0.0
 10
13.2471671196
 20
8.4072134632
 30
0.0
 10
13.2480182632
 20
8.4328664026
 30
0.0
 10
13.2485432705
 20
8.4583294903
 30
0.0
 10
13.2487409029
 20
8.4835417825
 30
0.0
 10
13.2486107095
 20
8.5084429388
 30
0.0
 10
13.2481530287
 20
8.5329733666
 30
0.0
 10
13.2473689882
 20
8.5570743651
 30
0.0
 10
13.2462605028
 20
8.5806882685
 30
0.0
 10
13.2448302742
 20
8.6037585867
 30
0.0
 10
13.2430817818
 20
8.6262301453
 30
0.0
 10
13.2410192727
 20
8.648049209
 30
0.0
 10
13.2386477613
 20
8.6691636506
 30
0.0
 10
13.235972985
 20
8.6895229468
 30
0.0
 10
13.2334721071
 20
8.705981684
 30
0.0
 10
13.2313185881
 20
8.71873118
 30
0.0
 10
13.2296481715
 20
8.7279777526
 30
0.0
 10
13.2279071125
 20
8.7370002188
 30
0.0
 10
13.2260964602
 20
8.7457931936
 30
0.0
 10
13.2242173125
 20
8.7543514214
 30
0.0
 10
13.222270767
 20
8.7626697881
 30
0.0
 10
13.2202580412
 20
8.7707433294
 30
0.0
 10
13.2181802849
 20
8.7785672222
 30
0.0
 10
13.2160388007
 20
8.7861368042
 30
0.0
 10
13.2138348307
 20
8.7934475598
 30
0.0
 10
13.2115697139
 20
8.800495136
 30
0.0
 10
13.2092448146
 20
8.8072753421
 30
0.0
 10
13.2068614847
 20
8.8137841411
 30
0.0
 10
13.2044212036
 20
8.8200176832
 30
0.0
 10
13.2019253514
 20
8.8259722591
 30
0.0
 10
13.1993754734
 20
8.8316443659
 30
0.0
 10
13.1967730217
 20
8.8370306454
 30
0.0
 10
13.194119542
 20
8.8421279345
 30
0.0
 10
13.1914165861
 20
8.8469332506
 30
0.0
 10
13.1886656607
 20
8.8514437616
 30
0.0
 10
13.1858683948
 20
8.8556568703
 30
0.0
 10
13.1830262606
 20
8.8595700743
 30
0.0
 10
13.1801408865
 20
8.8631811314
 30
0.0
 10
13.1772137477
 20
8.8664878763
 30
0.0
 10
13.174246386
 20
8.8694883358
 30
0.0
 10
13.171240312
 20
8.87218066
 30
0.0
 10
13.1681969759
 20
8.8745630248
 30
0.0
 10
13.1651179653
 20
8.876633809
 30
0.0
 10
13.1620047956
 20
8.8783912514
 30
0.0
 10
13.1588592631
 20
8.8798338516
 30
0.0
 10
13.1556832628
 20
8.8809600187
 30
0.0
 10
13.1524790255
 20
8.8817684554
 30
0.0
 10
13.1492490305
 20
8.8822581535
 30
0.0
 10
13.1459959695
 20
8.8824284287
 30
0.0
 10
13.1427226243
 20
8.8822793026
 30
0.0
 10
13.1394317157
 20
8.8818110245
 30
0.0
 10
13.1361257508
 20
8.8810245293
 30
0.0
 10
13.1328070374
 20
8.8799208159
 30
0.0
 10
13.1294776349
 20
8.8785012259
 30
0.0
 10
13.1261394121
 20
8.8767671625
 30
0.0
 10
13.1227941595
 20
8.8747199896
 30
0.0
 10
13.1194434912
 20
8.8723612015
 30
0.0
 10
13.1160893612
 20
8.8696924251
 30
0.0
 10
13.1139034047
 20
8.8677533085
 30
0.0
 10
13.1128099577
 20
8.8667356878
 30
0.0
  0
SPLINE
  5
373
100
AcDbEntity
  8
0
100
AcDbSpline
 62
7
  6
CONTINUOUS
 70
0
 71
3
 72
42
 73
38
 74
0
 42
0.0000001
 43
0.0000001
 44
0.0000000001
 40
0.0
 40
0.0
 40
0.0
 40
0.0
 40
0.0149723971
 40
0.029947854
 40
0.0449294092
 40
0.0599200692
 40
0.0749227779
 40
0.0899404136
 40
0.1200256609
 40
0.1502025864
 40
0.1804899033
 40
0.2109037105
 40
0.2414571471
 40
0.2721601282
 40
0.3030191646
 40
0.3340372675
 40
0.3652139349
 40
0.3965452155
 40
0.4280238444
 40
0.459639443
 40
0.4913787765
 40
0.5232260611
 40
0.5551633129
 40
0.5871707307
 40
0.6192271064
 40
0.6513102549
 40
0.683397459
 40
0.7154659208
 40
0.7474932143
 40
0.7794577337
 40
0.8113391302
 40
0.8431187274
 40
0.8747799267
 40
0.906308519
 40
0.9376931951
 40
0.9689252215
 40
1.0
 40
1.0
 40
1.0
 40
1.0
 10
10.2368622599
 20
8.1332833797
 30
0.0
 10
10.2347883541
 20
8.1312801398
 30
0.0
 10
10.2305600048
 20
8.1273552426
 30
0.0
 10
10.2239877975
 20
8.1217240127
 30
0.0
 10
10.2171943253
 20
8.1163558806
 30
0.0
 10
10.2101890492
 20
8.1112584514
 30
0.0
 10
10.2029814527
 20
8.1064385861
 30
0.0
 10
10.1931104346
 20
8.1003882609
 30
0.0
 10
10.1803087191
 20
8.0935494705
 30
0.0
 10
10.1643145499
 20
8.0865578489
 30
0.0
 10
10.1477641778
 20
8.0808126703
 30
0.0
 10
10.1307494288
 20
8.0763457825
 30
0.0
 10
10.1133638748
 20
8.0731814591
 30
0.0
 10
10.0957032831
 20
8.0713369174
 30
0.0
 10
10.0778648238
 20
8.0708220653
 30
0.0
 10
10.059946607
 20
8.0716395061
 30
0.0
 10
10.0420471267
 20
8.0737845235
 30
0.0
 10
10.02426473
 20
8.077245121
 30
0.0
 10
10.006697082
 20
8.0820020957
 30
0.0
 10
9.9894406368
 20
8.0880291478
 30
0.0
 10
9.972590113
 20
8.095293026
 30
0.0
 10
9.956237983
 20
8.1037537186
 30
0.0
 10
9.9404739724
 20
8.1133646733
 30
0.0
 10
9.9253845743
 20
8.1240730528
 30
0.0
 10
9.9110525814
 20
8.1358200229
 30
0.0
 10
9.8975566368
 20
8.1485410737
 30
0.0
 10
9.8849708079
 20
8.1621663698
 30
0.0
 10
9.8733641841
 20
8.1766211307
 30
0.0
 10
9.8628005011
 20
8.1918260357
 30
0.0
 10
9.8533377886
 20
8.2076976515
 30
0.0
 10
9.8450280611
 20
8.2241488919
 30
0.0
 10
9.8379170277
 20
8.2410894783
 30
0.0
 10
9.832043859
 20
8.258426467
 30
0.0
 10
9.8274409242
 20
8.2760646156
 30
0.0
 10
9.8241337249
 20
8.2939074029
 30
0.0
 10
9.8221405309
 20
8.3118555801
 30
0.0
 10
9.8216941064
 20
8.3238593387
 30
0.0
 10
9.8216941064
 20
8.3298437738
 30
0.0
  0
SPLINE
  5
374
100
AcDbEntity
  8
0
100
AcDbSpline
 62
7
  6
CONTINUOUS
 70
0
 71
3
 72
24
 73
20
 74
0
 42
0.0000001
 43
0.0000001
 44
0.0000000001
 40
0.0
 40
0.0
 40
0.0
 40
0.0
 40
0.0637764416
 40
0.1273443685
 40
0.190701004
 40
0.2538548276
 40
0.3168116139
 40
0.3795801666
 40
0.4421711529
 40
0.504596791
 40
0.5668710034
 40
0.6290092011
 40
0.6910281569
 40
0.7220010165
 40
0.7529508932
 40
0.8147862903
 40
0.8765592252
 40
0.938290164
 40
1.0
 40
1.0
 40
1.0
 40
1.0
 10
8.9311102815
 20
9.5990133262
 30
0.0
 10
8.9311102815
 20
9.6035802185
 30
0.0
 10
8.9313288846
 20
9.612700619
 30
0.0
 10
8.9323154794
 20
9.6263257257
 30
0.0
 10
8.9339582
 20
9.6398428455
 30
0.0
 10
8.9362530891
 20
9.6532202047
 30
0.0
 10
8.9391950361
 20
9.6664272443
 30
0.0
 10
8.9427772275
 20
9.6794334324
 30
0.0
 10
8.9469914241
 20
9.6922088085
 30
0.0
 10
8.9518279512
 20
9.7047238963
 30
0.0
 10
8.9572757338
 20
9.7169498696
 30
0.0
 10
8.9633220931
 20
9.7288583529
 30
0.0
 10
8.9688506958
 20
9.73849941
 30
0.0
 10
8.9735576449
 20
9.7460246028
 30
0.0
 10
8.9784479937
 20
9.7534161656
 30
0.0
 10
8.9849075432
 20
9.7624095863
 30
0.0
 10
8.9931960672
 20
9.7727822834
 30
0.0
 10
9.0020003115
 20
9.782708728
 30
0.0
 10
9.0082011919
 20
9.7890146147
 30
0.0
 10
9.0113795125
 20
9.792084634
 30
0.0
  0
SPLINE
  5
375
100
AcDbEntity
  8
0
100
AcDbSpline
 62
7
  6
CONTINUOUS
 70
0
 71
3
 72
94
 73
90
 74
0
 42
0.0000001
 43
0.0000001
 44
0.0000000001
 40
0.0
 40
0.0
 40
0.0
 40
0.0
 40
0.0039883611
 40
0.0081453226
 40
0.0124745402
 40
0.0169790716
 40
0.0216614875
 40
0.0265238094
 40
0.0315673777
 40
0.0367930379
 40
0.042201232
 40
0.0477919725
 40
0.0535649833
 40
0.0595196232
 40
0.0656549506
 40
0.0719698024
 40
0.0784627038
 40
0.0851320023
 40
0.091975822
 40
0.0989920576
 40
0.1135323345
 40
0.1287330022
 40
0.1445714437
 40
0.1610228423
 40
0.1780603909
 40
0.1956554578
 40
0.2137777702
 40
0.2323955677
 40
0.2514757322
 40
0.2709838973
 40
0.2908845709
 40
0.31114126
 40
0.3317165758
 40
0.3525723311
 40
0.3736696394
 40
0.3949690283
 40
0.4164305379
 40
0.438013816
 40
0.4596782134
 40
0.4813828892
 40
0.5030869079
 40
0.5247493335
 40
0.5463293281
 40
0.5677862543
 40
0.5890797717
 40
0.6101699308
 40
0.6310172725
 40
0.6515829393
 40
0.6718287703
 40
0.6917173983
 40
0.7112123531
 40
0.7302781849
 40
0.7488805745
 40
0.7669864387
 40
0.7845640526
 40
0.8015831949
 40
0.8180153077
 40
0.8338336402
 40
0.8490134311
 40
0.8635321306
 40
0.877369685
 40
0.8840277143
 40
0.8905092181
 40
0.8968125668
 40
0.9029363298
 40
0.9088793098
 40
0.9146406322
 40
0.9202196535
 40
0.925616098
 40
0.930830043
 40
0.9358619186
 40
0.9407126593
 40
0.9453836346
 40
0.9498767828
 40
0.9541946864
 40
0.958340571
 40
0.9623185137
 40
0.9661334527
 40
0.9697913281
 40
0.9732992592
 40
0.9766655815
 40
0.9799000702
 40
0.983014014
 40
0.9860202927
 40
0.9889334813
 40
0.9917697532
 40
0.9945468002
 40
0.9972835887
 40
1.0
 40
1.0
 40
1.0
 40
1.0
 10
13.0535584269
 20
7.9036000741
 30
0.0
 10
13.0544870095
 20
7.9044970161
 30
0.0
 10
13.0563431649
 20
7.9063708795
 30
0.0
 10
13.0590691961
 20
7.9093511005
 30
0.0
 10
13.0617923638
 20
7.9125565135
 30
0.0
 10
13.0645111603
 20
7.91598538
 30
0.0
 10
13.0672243416
 20
7.9196359936
 30
0.0
 10
13.0699305697
 20
7.9235066118
 30
0.0
 10
13.0726285674
 20
7.9275953132
 30
0.0
 10
13.075316984
 20
7.9319000689
 30
0.0
 10
13.0779944435
 20
7.9364187467
 30
0.0
 10
13.0806596611
 20
7.941149073
 30
0.0
 10
13.083311267
 20
7.9460887111
 30
0.0
 10
13.0859479517
 20
7.951235189
 30
0.0
 10
13.0885684096
 20
7.9565859303
 30
0.0
 10
13.0911712831
 20
7.9621382725
 30
0.0
 10
13.0937553098
 20
7.9678894211
 30
0.0
 10
13.0963191622
 20
7.973836502
 30
0.0
 10
13.0988615611
 20
7.9799765404
 30
0.0
 10
13.1022615883
 20
7.9885181588
 30
0.0
 10
13.1064422515
 20
7.9996592917
 30
0.0
 10
13.111295738
 20
8.0135935131
 30
0.0
 10
13.1160338714
 20
8.0282190152
 30
0.0
 10
13.120647079
 20
8.0435064345
 30
0.0
 10
13.1251260289
 20
8.0594251623
 30
0.0
 10
13.1294616766
 20
8.0759432567
 30
0.0
 10
13.1336452642
 20
8.0930275611
 30
0.0
 10
13.1376683404
 20
8.1106437693
 30
0.0
 10
13.1415227742
 20
8.1287564975
 30
0.0
 10
13.1452007842
 20
8.1473293488
 30
0.0
 10
13.1486949522
 20
8.1663249902
 30
0.0
 10
13.1519982272
 20
8.1857052361
 30
0.0
 10
13.1551039419
 20
8.2054311256
 30
0.0
 10
13.1580058273
 20
8.2254629971
 30
0.0
 10
13.160698039
 20
8.2457605667
 30
0.0
 10
13.1631751513
 20
8.2662830147
 30
0.0
 10
13.1654321707
 20
8.2869890696
 30
0.0
 10
13.1674645432
 20
8.3078370892
 30
0.0
 10
13.1692681799
 20
8.328785142
 30
0.0
 10
13.1708394538
 20
8.349791095
 30
0.0
 10
13.1721752032
 20
8.3708126993
 30
0.0
 10
13.1732727374
 20
8.3918076742
 30
0.0
 10
13.1741298509
 20
8.4127337921
 30
0.0
 10
13.1747448317
 20
8.433548965
 30
0.0
 10
13.1751164517
 20
8.4542113297
 30
0.0
 10
13.175243971
 20
8.4746793294
 30
0.0
 10
13.1751271402
 20
8.4949118004
 30
0.0
 10
13.1747662169
 20
8.5148680563
 30
0.0
 10
13.1741619484
 20
8.5345079707
 30
0.0
 10
13.1733155715
 20
8.5537920535
 30
0.0
 10
13.1722288073
 20
8.5726815336
 30
0.0
 10
13.1709038742
 20
8.5911384416
 30
0.0
 10
13.1693434765
 20
8.6091256883
 30
0.0
 10
13.1675507917
 20
8.6266071348
 30
0.0
 10
13.1655294643
 20
8.6435476658
 30
0.0
 10
13.1632836051
 20
8.6599132696
 30
0.0
 10
13.160817794
 20
8.6756711167
 30
0.0
 10
13.1581370503
 20
8.6907896106
 30
0.0
 10
13.1552468302
 20
8.7052385005
 30
0.0
 10
13.1521529955
 20
8.718988785
 30
0.0
 10
13.1493759053
 20
8.7299790927
 30
0.0
 10
13.147050762
 20
8.7383966458
 30
0.0
 10
13.1452823383
 20
8.7444370377
 30
0.0
 10
13.143467865
 20
8.7502829281
 30
0.0
 10
13.1416082371
 20
8.7559313986
 30
0.0
 10
13.1397043637
 20
8.7613796145
 30
0.0
 10
13.1377572466
 20
8.7666248643
 30
0.0
 10
13.1357678188
 20
8.77166452
 30
0.0
 10
13.1337370912
 20
8.7764960727
 30
0.0
 10
13.1316660958
 20
8.7811171254
 30
0.0
 10
13.1295558115
 20
8.7855253648
 30
0.0
 10
13.1274073348
 20
8.7897186248
 30
0.0
 10
13.1252216894
 20
8.793694821
 30
0.0
 10
13.1229999325
 20
8.7974519846
 30
0.0
 10
13.1207431799
 20
8.8009882876
 30
0.0
 10
13.1184524461
 20
8.804301957
 30
0.0
 10
13.1161288546
 20
8.807391387
 30
0.0
 10
13.1137734689
 20
8.8102550497
 30
0.0
 10
13.1113873217
 20
8.8128914883
 30
0.0
 10
13.1089715322
 20
8.8152994158
 30
0.0
 10
13.1065270973
 20
8.8174775273
 30
0.0
 10
13.1040550987
 20
8.819424653
 30
0.0
 10
13.1015566197
 20
8.8211396842
 30
0.0
 10
13.0990327214
 20
8.822621459
 30
0.0
 10
13.0964846251
 20
8.823869013
 30
0.0
 10
13.0939135956
 20
8.824881306
 30
0.0
 10
13.0913209749
 20
8.8256574436
 30
0.0
 10
13.0887086197
 20
8.8261967332
 30
0.0
 10
13.0869521345
 20
8.8263982361
 30
0.0
 10
13.0860749372
 20
8.8264590658
 30
0.0
  0
SPLINE
  5
376
100
AcDbEntity
  8
0
100
AcDbSpline
 62
7
  6
CONTINUOUS
 70
0
 71
3
 72
20
 73
16
 74
0
 42
0.0000001
 43
0.0000001
 44
0.0000000001
 40
0.0
 40
0.0
 40
0.0
 40
0.0
 40
0.055314448
 40
0.1119575033
 40
0.1698563289
 40
0.2289356536
 40
0.2891180032
 40
0.3503237024
 40
0.4124712204
 40
0.4754773376
 40
0.5392571848
 40
0.6037245549
 40
0.7343694413
 40
0.8667023285
 40
1.0
 40
1.0
 40
1.0
 40
1.0
 10
10.0452810676
 20
8.2862597018
 30
0.0
 10
10.046517444
 20
8.291064103
 30
0.0
 10
10.0489496648
 20
8.3008065047
 30
0.0
 10
10.0524385437
 20
8.3156357919
 30
0.0
 10
10.05580773
 20
8.3308387727
 30
0.0
 10
10.0590522804
 20
8.3463932069
 30
0.0
 10
10.0621674227
 20
8.3622763945
 30
0.0
 10
10.0651486092
 20
8.3784651311
 30
0.0
 10
10.0679914768
 20
8.3949357712
 30
0.0
 10
10.0706918381
 20
8.4116642517
 30
0.0
 10
10.0732457736
 20
8.4286261507
 30
0.0
 10
10.0764648837
 20
8.4516212825
 30
0.0
 10
10.0800917366
 20
8.4807659279
 30
0.0
 10
10.0837873567
 20
8.5161157356
 30
0.0
 10
10.0858078979
 20
8.5398550114
 30
0.0
 10
10.0867081622
 20
8.5517760146
 30
0.0
  0
SPLINE
  5
377
100
AcDbEntity
  8
0
100
AcDbSpline
 62
7
  6
CONTINUOUS
 70
0
 71
3
 72
23
 73
19
 74
0
 42
0.0000001
 43
0.0000001
 44
0.0000000001
 40
0.0
 40
0.0
 40
0.0
 40
0.0
 40
0.0526520006
 40
0.1071004209
 40
0.163254484
 40
0.2210185861
 40
0.2802926554
 40
0.3409725488
 40
0.4029504952
 40
0.4661154328
 40
0.5303532925
 40
0.5955473301
 40
0.6615784959
 40
0.7283257297
 40
0.7956662334
 40
0.8634757895
 40
0.931629084
 40
1.0
 40
1.0
 40
1.0
 40
1.0
 10
10.0548237464
 20
8.2792942172
 30
0.0
 10
10.0562224638
 20
8.2838956847
 30
0.0
 10
10.0589750604
 20
8.2932839693
 30
0.0
 10
10.0629107679
 20
8.3076680128
 30
0.0
 10
10.0667169873
 20
8.3225692917
 30
0.0
 10
10.0703861417
 20
8.3379583468
 30
0.0
 10
10.0739109547
 20
8.3538048366
 30
0.0
 10
10.0772844411
 20
8.3700774746
 30
0.0
 10
10.0804999115
 20
8.3867441372
 30
0.0
 10
10.0835509846
 20
8.4037719187
 30
0.0
 10
10.0864316116
 20
8.4211271918
 30
0.0
 10
10.0891360921
 20
8.4387756747
 30
0.0
 10
10.0916590684
 20
8.4566825064
 30
0.0
 10
10.0939955373
 20
8.474812316
 30
0.0
 10
10.096140871
 20
8.4931292853
 30
0.0
 10
10.0980908303
 20
8.5115972322
 30
0.0
 10
10.0998415567
 20
8.5301796391
 30
0.0
 10
10.100872567
 20
8.5426076929
 30
0.0
 10
10.101354304
 20
8.5488342446
 30
0.0
  0
SPLINE
  5
378
100
AcDbEntity
  8
0
100
AcDbSpline
 62
7
  6
CONTINUOUS
 70
0
 71
3
 72
42
 73
38
 74
0
 42
0.0000001
 43
0.0000001
 44
0.0000000001
 40
0.0
 40
0.0
 40
0.0
 40
0.0
 40
0.0149723971
 40
0.029947854
 40
0.0449294092
 40
0.0599200692
 40
0.0749227779
 40
0.0899404136
 40
0.1200256609
 40
0.1502025864
 40
0.1804899033
 40
0.2109037105
 40
0.2414571471
 40
0.2721601282
 40
0.3030191646
 40
0.3340372675
 40
0.3652139349
 40
0.3965452155
 40
0.4280238444
 40
0.459639443
 40
0.4913787765
 40
0.5232260611
 40
0.5551633129
 40
0.5871707307
 40
0.6192271064
 40
0.6513102549
 40
0.683397459
 40
0.7154659208
 40
0.7474932143
 40
0.7794577337
 40
0.8113391302
 40
0.8431187274
 40
0.8747799267
 40
0.906308519
 40
0.9376931951
 40
0.9689252215
 40
1.0
 40
1.0
 40
1.0
 40
1.0
 10
11.6239318186
 20
8.0370897791
 30
0.0
 10
11.6218579127
 20
8.0350865392
 30
0.0
 10
11.6176295634
 20
8.031161642
 30
0.0
 10
11.6110573561
 20
8.0255304121
 30
0.0
 10
11.6042638839
 20
8.02016228
 30
0.0
 10
11.5972586078
 20
8.0150648508
 30
0.0
 10
11.5900510113
 20
8.0102449855
 30
0.0
 10
11.5801799932
 20
8.0041946603
 30
0.0
 10
11.5673782777
 20
7.9973558699
 30
0.0
 10
11.5513841085
 20
7.9903642483
 30
0.0
 10
11.5348337365
 20
7.9846190697
 30
0.0
 10
11.5178189874
 20
7.9801521819
 30
0.0
 10
11.5004334334
 20
7.9769878585
 30
0.0
 10
11.4827728417
 20
7.9751433168
 30
0.0
 10
11.4649343824
 20
7.9746284647
 30
0.0
 10
11.4470161656
 20
7.9754459055
 30
0.0
 10
11.4291166853
 20
7.9775909229
 30
0.0
 10
11.4113342886
 20
7.9810515204
 30
0.0
 10
11.3937666406
 20
7.9858084951
 30
0.0
 10
11.3765101954
 20
7.9918355472
 30
0.0
 10
11.3596596716
 20
7.9990994254
 30
0.0
 10
11.3433075417
 20
8.007560118
 30
0.0
 10
11.327543531
 20
8.0171710727
 30
0.0
 10
11.3124541329
 20
8.0278794522
 30
0.0
 10
11.29812214
 20
8.0396264223
 30
0.0
 10
11.2846261955
 20
8.0523474731
 30
0.0
 10
11.2720403665
 20
8.0659727692
 30
0.0
 10
11.2604337427
 20
8.0804275301
 30
0.0
 10
11.2498700597
 20
8.0956324351
 30
0.0
 10
11.2404073472
 20
8.1115040509
 30
0.0
 10
11.2320976197
 20
8.1279552913
 30
0.0
 10
11.2249865863
 20
8.1448958777
 30
0.0
 10
11.2191134176
 20
8.1622328664
 30
0.0
 10
11.2145104828
 20
8.179871015
 30
0.0
 10
11.2112032835
 20
8.1977138023
 30
0.0
 10
11.2092100895
 20
8.2156619795
 30
0.0
 10
11.208763665
 20
8.2276657381
 30
0.0
 10
11.208763665
 20
8.2336501732
 30
0.0
  0
SPLINE
  5
379
100
AcDbEntity
  8
0
100
AcDbSpline
 62
7
  6
CONTINUOUS
 70
0
 71
3
 72
24
 73
20
 74
0
 42
0.0000001
 43
0.0000001
 44
0.0000000001
 40
0.0
 40
0.0
 40
0.0
 40
0.0
 40
0.0637764416
 40
0.1273443685
 40
0.190701004
 40
0.2538548276
 40
0.3168116139
 40
0.3795801666
 40
0.4421711529
 40
0.504596791
 40
0.5668710034
 40
0.6290092011
 40
0.6910281569
 40
0.7220010165
 40
0.7529508932
 40
0.8147862903
 40
0.8765592252
 40
0.938290164
 40
1.0
 40
1.0
 40
1.0
 40
1.0
 10
12.0104820783
 20
9.3854581668
 30
0.0
 10
12.0104820783
 20
9.3900250591
 30
0.0
 10
12.0107006814
 20
9.3991454595
 30
0.0
 10
12.0116872762
 20
9.4127705663
 30
0.0
 10
12.0133299968
 20
9.4262876861
 30
0.0
 10
12.0156248859
 20
9.4396650453
 30
0.0
 10
12.0185668329
 20
9.4528720848
 30
0.0
 10
12.0221490243
 20
9.465878273
 30
0.0
 10
12.0263632209
 20
9.4786536491
 30
0.0
 10
12.031199748
 20
9.4911687369
 30
0.0
 10
12.0366475306
 20
9.5033947101
 30
0.0
 10
12.0426938899
 20
9.5153031934
 30
0.0
 10
12.0482224926
 20
9.5249442505
 30
0.0
 10
12.0529294417
 20
9.5324694433
 30
0.0
 10
12.0578197905
 20
9.5398610061
 30
0.0
 10
12.06427934
 20
9.5488544269
 30
0.0
 10
12.072567864
 20
9.5592271239
 30
0.0
 10
12.0813721083
 20
9.5691535685
 30
0.0
 10
12.0875729887
 20
9.5754594552
 30
0.0
 10
12.0907513093
 20
9.5785294746
 30
0.0
  0
SPLINE
  5
37A
100
AcDbEntity
  8
0
100
AcDbSpline
 62
7
  6
CONTINUOUS
 70
0
 71
3
 72
42
 73
38
 74
0
 42
0.0000001
 43
0.0000001
 44
0.0000000001
 40
0.0
 40
0.0
 40
0.0
 40
0.0
 40
0.0149723971
 40
0.029947854
 40
0.0449294092
 40
0.0599200692
 40
0.0749227779
 40
0.0899404136
 40
0.1200256609
 40
0.1502025864
 40
0.1804899033
 40
0.2109037105
 40
0.2414571471
 40
0.2721601282
 40
0.3030191646
 40
0.3340372675
 40
0.3652139349
 40
0.3965452155
 40
0.4280238444
 40
0.459639443
 40
0.4913787765
 40
0.5232260611
 40
0.5551633129
 40
0.5871707307
 40
0.6192271064
 40
0.6513102549
 40
0.683397459
 40
0.7154659208
 40
0.7474932143
 40
0.7794577337
 40
0.8113391302
 40
0.8431187274
 40
0.8747799267
 40
0.906308519
 40
0.9376931951
 40
0.9689252215
 40
1.0
 40
1.0
 40
1.0
 40
1.0
 10
10.9303969817
 20
8.9004281267
 30
0.0
 10
10.9283230758
 20
8.8984248868
 30
0.0
 10
10.9240947266
 20
8.8944999896
 30
0.0
 10
10.9175225192
 20
8.8888687598
 30
0.0
 10
10.910729047
 20
8.8835006276
 30
0.0
 10
10.9037237709
 20
8.8784031984
 30
0.0
 10
10.8965161745
 20
8.8735833331
 30
0.0
 10
10.8866451563
 20
8.8675330079
 30
0.0
 10
10.8738434408
 20
8.8606942176
 30
0.0
 10
10.8578492716
 20
8.853702596
 30
0.0
 10
10.8412988996
 20
8.8479574173
 30
0.0
 10
10.8242841505
 20
8.8434905295
 30
0.0
 10
10.8068985965
 20
8.8403262061
 30
0.0
 10
10.7892380048
 20
8.8384816644
 30
0.0
 10
10.7713995455
 20
8.8379668124
 30
0.0
 10
10.7534813287
 20
8.8387842531
 30
0.0
 10
10.7355818484
 20
8.8409292705
 30
0.0
 10
10.7177994517
 20
8.844389868
 30
0.0
 10
10.7002318037
 20
8.8491468427
 30
0.0
 10
10.6829753585
 20
8.8551738949
 30
0.0
 10
10.6661248348
 20
8.862437773
 30
0.0
 10
10.6497727048
 20
8.8708984656
 30
0.0
 10
10.6340086941
 20
8.8805094204
 30
0.0
 10
10.6189192961
 20
8.8912177998
 30
0.0
 10
10.6045873031
 20
8.9029647699
 30
0.0
 10
10.5910913586
 20
8.9156858207
 30
0.0
 10
10.5785055297
 20
8.9293111169
 30
0.0
 10
10.5668989059
 20
8.9437658778
 30
0.0
 10
10.5563352228
 20
8.9589707828
 30
0.0
 10
10.5468725103
 20
8.9748423985
 30
0.0
 10
10.5385627829
 20
8.9912936389
 30
0.0
 10
10.5314517494
 20
9.0082342253
 30
0.0
 10
10.5255785808
 20
9.025571214
 30
0.0
 10
10.5209756459
 20
9.0432093626
 30
0.0
 10
10.5176684466
 20
9.06105215
 30
0.0
 10
10.5156752526
 20
9.0790003272
 30
0.0
 10
10.5152288281
 20
9.0910040857
 30
0.0
 10
10.5152288281
 20
9.0969885208
 30
0.0
  0
SPLINE
  5
37B
100
AcDbEntity
  8
0
100
AcDbSpline
 62
7
  6
CONTINUOUS
 70
0
 71
3
 72
23
 73
19
 74
0
 42
0.0000001
 43
0.0000001
 44
0.0000000001
 40
0.0
 40
0.0
 40
0.0
 40
0.0
 40
0.049680176
 40
0.10157973
 40
0.1556094443
 40
0.2116723948
 40
0.269664753
 40
0.3294764364
 40
0.390991666
 40
0.4540894613
 40
0.518644198
 40
0.5845260822
 40
0.6516015813
 40
0.7197338182
 40
0.7887830314
 40
0.8586069054
 40
0.9290612216
 40
1.0
 40
1.0
 40
1.0
 40
1.0
 10
11.5197590618
 20
8.1431366477
 30
0.0
 10
11.5213479825
 20
8.1474582728
 30
0.0
 10
11.5244816702
 20
8.156337253
 30
0.0
 10
11.5289641788
 20
8.1700463634
 30
0.0
 10
11.5333240117
 20
8.184414322
 30
0.0
 10
11.5375514028
 20
8.1994092446
 30
0.0
 10
11.5416369347
 20
8.2149979922
 30
0.0
 10
11.54557149
 20
8.2311460465
 30
0.0
 10
11.5493462918
 20
8.2478176418
 30
0.0
 10
11.5529529325
 20
8.2649758275
 30
0.0
 10
11.5563833772
 20
8.2825825641
 30
0.0
 10
11.559629984
 20
8.3005988131
 30
0.0
 10
11.5626855176
 20
8.3189846212
 30
0.0
 10
11.5655431762
 20
8.3376992089
 30
0.0
 10
11.568196603
 20
8.3567010512
 30
0.0
 10
11.5706398985
 20
8.3759480065
 30
0.0
 10
11.5728676249
 20
8.3953973448
 30
0.0
 10
11.574202109
 20
8.4084342108
 30
0.0
 10
11.5748328033
 20
8.4149786508
 30
0.0
  0
SPLINE
  5
37C
100
AcDbEntity
  8
0
100
AcDbSpline
 62
7
  6
CONTINUOUS
 70
0
 71
3
 72
23
 73
19
 74
0
 42
0.0000001
 43
0.0000001
 44
0.0000000001
 40
0.0
 40
0.0
 40
0.0
 40
0.0
 40
0.0637744828
 40
0.1273454316
 40
0.1907025265
 40
0.2538558004
 40
0.316813226
 40
0.3795821625
 40
0.4421733656
 40
0.5045993404
 40
0.5668738661
 40
0.6290123724
 40
0.6910316429
 40
0.7529496283
 40
0.8147853425
 40
0.8765585905
 40
0.938289842
 40
1.0
 40
1.0
 40
1.0
 40
1.0
 10
10.6311399341
 20
8.273708515
 30
0.0
 10
10.6311399341
 20
8.2757141908
 30
0.0
 10
10.6312359753
 20
8.2797198196
 30
0.0
 10
10.6316692379
 20
8.2857038922
 30
0.0
 10
10.6323907189
 20
8.2916405807
 30
0.0
 10
10.6333986761
 20
8.2975158005
 30
0.0
 10
10.6346907187
 20
8.303316234
 30
0.0
 10
10.6362640278
 20
8.3090284628
 30
0.0
 10
10.6381148928
 20
8.314639311
 30
0.0
 10
10.640239071
 20
8.3201358499
 30
0.0
 10
10.6426317309
 20
8.3255053816
 30
0.0
 10
10.6452872781
 20
8.3307355574
 30
0.0
 10
10.6481996805
 20
8.3358142715
 30
0.0
 10
10.6513621871
 20
8.3407298314
 30
0.0
 10
10.6547674859
 20
8.3454709002
 30
0.0
 10
10.6584078317
 20
8.3500265257
 30
0.0
 10
10.6622745979
 20
8.3543861282
 30
0.0
 10
10.6649980191
 20
8.3571555987
 30
0.0
 10
10.6663939207
 20
8.358503925
 30
0.0
  0
SPLINE
  5
37D
100
AcDbEntity
  8
0
100
AcDbSpline
 62
7
  6
CONTINUOUS
 70
0
 71
3
 72
23
 73
19
 74
0
 42
0.0000001
 43
0.0000001
 44
0.0000000001
 40
0.0
 40
0.0
 40
0.0
 40
0.0
 40
0.0637764154
 40
0.1273451281
 40
0.190701988
 40
0.253856063
 40
0.3168132283
 40
0.3795820791
 40
0.4421733864
 40
0.5045993414
 40
0.5668738629
 40
0.629012379
 40
0.6910316532
 40
0.7529496461
 40
0.8147853522
 40
0.8765586034
 40
0.9382898574
 40
1.0
 40
1.0
 40
1.0
 40
1.0
 10
10.5152288281
 20
7.4665055493
 30
0.0
 10
10.5152288281
 20
7.4703626955
 30
0.0
 10
10.5154134673
 20
7.4780657325
 30
0.0
 10
10.5162467254
 20
7.4895734101
 30
0.0
 10
10.5176341535
 20
7.5009898997
 30
0.0
 10
10.5195724095
 20
7.5122883218
 30
0.0
 10
10.5220571544
 20
7.5234428996
 30
0.0
 10
10.5250826401
 20
7.5344278467
 30
0.0
 10
10.5286419071
 20
7.5452178478
 30
0.0
 10
10.5327268257
 20
7.5557880102
 30
0.0
 10
10.5373279625
 20
7.5661139636
 30
0.0
 10
10.5424347144
 20
7.5761719008
 30
0.0
 10
10.5480353481
 20
7.5859386064
 30
0.0
 10
10.5541169781
 20
7.5953915445
 30
0.0
 10
10.5606655361
 20
7.604508908
 30
0.0
 10
10.5676660068
 20
7.6132697351
 30
0.0
 10
10.5751020025
 20
7.6216535147
 30
0.0
 10
10.5803392294
 20
7.6269794302
 30
0.0
 10
10.5830236163
 20
7.6295723497
 30
0.0
  0
SPLINE
  5
37E
100
AcDbEntity
  8
0
100
AcDbSpline
 62
7
  6
CONTINUOUS
 70
0
 71
3
 72
103
 73
99
 74
0
 42
0.0000001
 43
0.0000001
 44
0.0000000001
 40
0.0
 40
0.0
 40
0.0
 40
0.0
 40
0.0027164048
 40
0.0054531862
 40
0.0082302278
 40
0.0110664952
 40
0.0139796738
 40
0.0169859521
 40
0.0200998844
 40
0.0233343666
 40
0.026700688
 40
0.0302086012
 40
0.033866481
 40
0.0376814028
 40
0.0416593405
 40
0.04580522
 40
0.050123109
 40
0.0546162515
 40
0.059287218
 40
0.0641379428
 40
0.0691698167
 40
0.0743837442
 40
0.0797801764
 40
0.0853591945
 40
0.0911204909
 40
0.097063473
 40
0.1031872122
 40
0.1094905507
 40
0.115972045
 40
0.1226300528
 40
0.129462696
 40
0.1364679111
 40
0.1436434462
 40
0.1509868675
 40
0.1584955951
 40
0.1661668689
 40
0.1739978144
 40
0.1819853836
 40
0.1901264332
 40
0.1984176611
 40
0.2154367725
 40
0.2330143466
 40
0.251120167
 40
0.2697225161
 40
0.2887883097
 40
0.3082832214
 40
0.3281718007
 40
0.3484175849
 40
0.3689832078
 40
0.3898305045
 40
0.4109206147
 40
0.4322140837
 40
0.4536709631
 40
0.4752509101
 40
0.4969132863
 40
0.5186172556
 40
0.5403218829
 40
0.561986231
 40
0.5835694595
 40
0.6050309218
 40
0.6263302644
 40
0.6474275243
 40
0.6682832297
 40
0.6888584996
 40
0.7091151451
 40
0.7290157726
 40
0.748523889
 40
0.7676040092
 40
0.7862217692
 40
0.8043440428
 40
0.8219390666
 40
0.8389765737
 40
0.8472773366
 40
0.8554281366
 40
0.8634256636
 40
0.8712667662
 40
0.8789483877
 40
0.8864676444
 40
0.8938217669
 40
0.9010081646
 40
0.9080243933
 40
0.9148681894
 40
0.9215374772
 40
0.9280303652
 40
0.9343451972
 40
0.940480514
 40
0.946435142
 40
0.9522081344
 40
0.9577988776
 40
0.9632070413
 40
0.9684326863
 40
0.9734762434
 40
0.9783385761
 40
0.9830210188
 40
0.9875254912
 40
0.9918546128
 40
0.9960115506
 40
1.0
 40
1.0
 40
1.0
 40
1.0
 10
13.2342152425
 20
9.2271702556
 30
0.0
 10
13.2358576535
 20
9.2270563535
 30
0.0
 10
13.2391463891
 20
9.2266790626
 30
0.0
 10
13.2440376107
 20
9.2256693478
 30
0.0
 10
13.2488918788
 20
9.224216145
 30
0.0
 10
13.2537057108
 20
9.2223207671
 30
0.0
 10
13.2584766376
 20
9.2199849602
 30
0.0
 10
13.2632022031
 20
9.2172105214
 30
0.0
 10
13.2678802292
 20
9.2139994328
 30
0.0
 10
13.2725086512
 20
9.2103537436
 30
0.0
 10
13.2770854379
 20
9.2062755515
 30
0.0
 10
13.2816086653
 20
9.2017671302
 30
0.0
 10
13.2860762923
 20
9.1968307763
 30
0.0
 10
13.2904864165
 20
9.1914690533
 30
0.0
 10
13.2948369531
 20
9.1856845745
 30
0.0
 10
13.2991259804
 20
9.1794802518
 30
0.0
 10
13.3033514051
 20
9.1728590961
 30
0.0
 10
13.3075112788
 20
9.165824399
 30
0.0
 10
13.3116035475
 20
9.1583796042
 30
0.0
 10
13.3156262448
 20
9.1505283986
 30
0.0
 10
13.3195773896
 20
9.1422746625
 30
0.0
 10
13.3234550156
 20
9.1336224848
 30
0.0
 10
13.3272572308
 20
9.1245761715
 30
0.0
 10
13.3309820918
 20
9.1151402138
 30
0.0
 10
13.3346277971
 20
9.1053193277
 30
0.0
 10
13.3381924535
 20
9.0951184028
 30
0.0
 10
13.3416743404
 20
9.0845425486
 30
0.0
 10
13.3450716436
 20
9.0735970459
 30
0.0
 10
13.3483827101
 20
9.0622873823
 30
0.0
 10
13.351605829
 20
9.0506192189
 30
0.0
 10
13.3547394063
 20
9.0385984084
 30
0.0
 10
13.3577818487
 20
9.0262309784
 30
0.0
 10
13.3607316206
 20
9.0135231353
 30
0.0
 10
13.3635872512
 20
9.0004812577
 30
0.0
 10
13.3663472704
 20
8.987111894
 30
0.0
 10
13.3690103261
 20
8.9734217589
 30
0.0
 10
13.3715750279
 20
8.9594177291
 30
0.0
 10
13.37404013
 20
8.9451068429
 30
0.0
 10
13.3764043509
 20
8.9304962818
 30
0.0
 10
13.3794470083
 20
8.9104514403
 30
0.0
 10
13.3829811321
 20
8.8846977405
 30
0.0
 10
13.3867657585
 20
8.852979354
 30
0.0
 10
13.3901222759
 20
8.820248122
 30
0.0
 10
13.3930438711
 20
8.7865698763
 30
0.0
 10
13.3955245898
 20
8.7520122565
 30
0.0
 10
13.3975593798
 20
8.7166447197
 30
0.0
 10
13.3991440922
 20
8.6805383557
 30
0.0
 10
13.400275491
 20
8.6437657528
 30
0.0
 10
13.4009512585
 20
8.6064008473
 30
0.0
 10
13.4011699997
 20
8.5685187734
 30
0.0
 10
13.4009312442
 20
8.5301957111
 30
0.0
 10
13.4002354481
 20
8.4915087319
 30
0.0
 10
13.3990839914
 20
8.4525356422
 30
0.0
 10
13.3974791756
 20
8.4133548262
 30
0.0
 10
13.3954242179
 20
8.3740450873
 30
0.0
 10
13.3929232455
 20
8.3346854891
 30
0.0
 10
13.3899812863
 20
8.2953551957
 30
0.0
 10
13.3866042596
 20
8.2561333119
 30
0.0
 10
13.3827989634
 20
8.2170987239
 30
0.0
 10
13.3785730614
 20
8.1783299396
 30
0.0
 10
13.3739350671
 20
8.1399049303
 30
0.0
 10
13.3688943273
 20
8.1019009732
 30
0.0
 10
13.3634610032
 20
8.0643944946
 30
0.0
 10
13.3576460511
 20
8.0274609152
 30
0.0
 10
13.3514611995
 20
7.9911744972
 30
0.0
 10
13.3449189261
 20
7.9556081936
 30
0.0
 10
13.3380324329
 20
7.9208335006
 30
0.0
 10
13.3308156203
 20
7.8869203085
 30
0.0
 10
13.3232830584
 20
7.8539367705
 30
0.0
 10
13.3154499613
 20
7.8219491198
 30
0.0
 10
13.3073321451
 20
7.7910216848
 30
0.0
 10
13.3002840682
 20
7.7659717722
 30
0.0
 10
13.2945090998
 20
7.7465133626
 30
0.0
 10
13.290154556
 20
7.7323492913
 30
0.0
 10
13.2857413208
 20
7.7184954994
 30
0.0
 10
13.281271653
 20
7.7049589329
 30
0.0
 10
13.2767477562
 20
7.6917464012
 30
0.0
 10
13.2721719548
 20
7.6788645341
 30
0.0
 10
13.267546514
 20
7.666319806
 30
0.0
 10
13.2628737908
 20
7.654118511
 30
0.0
 10
13.2581561226
 20
7.6422667748
 30
0.0
 10
13.2533958841
 20
7.630770544
 30
0.0
 10
13.2485954853
 20
7.6196355802
 30
0.0
 10
13.2437573106
 20
7.6088674721
 30
0.0
 10
13.2388838361
 20
7.5984716027
 30
0.0
 10
13.2339774546
 20
7.5884531908
 30
0.0
 10
13.2290406909
 20
7.5788172288
 30
0.0
 10
13.2240759538
 20
7.5695685528
 30
0.0
 10
13.2190857936
 20
7.5607117582
 30
0.0
 10
13.2140726469
 20
7.5522512783
 30
0.0
 10
13.209039052
 20
7.5441913037
 30
0.0
 10
13.2039874754
 20
7.5365358531
 30
0.0
 10
13.1989204427
 20
7.5292887319
 30
0.0
 10
13.1938404645
 20
7.5224535173
 30
0.0
 10
13.1887499667
 20
7.5160335765
 30
0.0
 10
13.1836513652
 20
7.5100319905
 30
0.0
 10
13.1785473032
 20
7.5044520076
 30
0.0
 10
13.1750719031
 20
7.5009434722
 30
0.0
 10
13.1733332379
 20
7.4992640505
 30
0.0
  0
SPLINE
  5
37F
100
AcDbEntity
  8
0
100
AcDbSpline
 62
7
  6
CONTINUOUS
 70
0
 71
3
 72
23
 73
19
 74
0
 42
0.0000001
 43
0.0000001
 44
0.0000000001
 40
0.0
 40
0.0
 40
0.0
 40
0.0
 40
0.0637764154
 40
0.1273451281
 40
0.190701988
 40
0.253856063
 40
0.3168132283
 40
0.3795820791
 40
0.4421733864
 40
0.5045993414
 40
0.5668738629
 40
0.629012379
 40
0.6910316532
 40
0.7529496461
 40
0.8147853522
 40
0.8765586034
 40
0.9382898574
 40
1.0
 40
1.0
 40
1.0
 40
1.0
 10
9.8216941064
 20
8.3298437738
 30
0.0
 10
9.8216941064
 20
8.33370092
 30
0.0
 10
9.8218787456
 20
8.341403957
 30
0.0
 10
9.8227120037
 20
8.3529116346
 30
0.0
 10
9.8240994318
 20
8.3643281242
 30
0.0
 10
9.8260376878
 20
8.3756265463
 30
0.0
 10
9.8285224327
 20
8.3867811241
 30
0.0
 10
9.8315479184
 20
8.3977660712
 30
0.0
 10
9.8351071854
 20
8.4085560723
 30
0.0
 10
9.839192104
 20
8.4191262347
 30
0.0
 10
9.8437932408
 20
8.4294521881
 30
0.0
 10
9.8488999927
 20
8.4395101253
 30
0.0
 10
9.8545006264
 20
8.4492768309
 30
0.0
 10
9.8605822564
 20
8.458729769
 30
0.0
 10
9.8671308143
 20
8.4678471325
 30
0.0
 10
9.8741312851
 20
8.4766079596
 30
0.0
 10
9.8815672807
 20
8.4849917392
 30
0.0
 10
9.8868045076
 20
8.4903176547
 30
0.0
 10
9.8894888946
 20
8.4929105742
 30
0.0
  0
SPLINE
  5
380
100
AcDbEntity
  8
0
100
AcDbSpline
 62
4
  6
CONTINUOUS
 70
0
 71
3
 72
346
 73
342
 74
0
 42
0.0000001
 43
0.0000001
 44
0.0000000001
 40
0.0
 40
0.0
 40
0.0
 40
0.0
 40
0.015625
 40
0.03125
 40
0.0390625
 40
0.046875
 40
0.05078125
 40
0.0546875
 40
0.05859375
 40
0.060546875
 40
0.0615234375
 40
0.0625
 40
0.0634765625
 40
0.064453125
 40
0.06640625
 40
0.0703125
 40
0.07421875
 40
0.078125
 40
0.0859375
 40
0.09375
 40
0.1015625
 40
0.109375
 40
0.11328125
 40
0.1171875
 40
0.12109375
 40
0.123046875
 40
0.1240234375
 40
0.125
 40
0.1259765625
 40
0.126953125
 40
0.12890625
 40
0.1328125
 40
0.13671875
 40
0.140625
 40
0.1484375
 40
0.15625
 40
0.1640625
 40
0.171875
 40
0.17578125
 40
0.1796875
 40
0.18359375
 40
0.185546875
 40
0.1865234375
 40
0.1875
 40
0.1884765625
 40
0.189453125
 40
0.19140625
 40
0.1953125
 40
0.19921875
 40
0.203125
 40
0.2109375
 40
0.21875
 40
0.2265625
 40
0.234375
 40
0.23828125
 40
0.2421875
 40
0.244140625
 40
0.24609375
 40
0.248046875
 40
0.2490234375
 40
0.2495117188
 40
0.25
 40
0.2504882812
 40
0.2509765625
 40
0.251953125
 40
0.25390625
 40
0.255859375
 40
0.2578125
 40
0.26171875
 40
0.265625
 40
0.2734375
 40
0.28125
 40
0.2890625
 40
0.296875
 40
0.30078125
 40
0.3046875
 40
0.306640625
 40
0.30859375
 40
0.310546875
 40
0.3115234375
 40
0.3120117188
 40
0.3125
 40
0.3129882812
 40
0.3134765625
 40
0.314453125
 40
0.31640625
 40
0.318359375
 40
0.3203125
 40
0.32421875
 40
0.328125
 40
0.3359375
 40
0.34375
 40
0.3515625
 40
0.35546875
 40
0.359375
 40
0.36328125
 40
0.3671875
 40
0.369140625
 40
0.37109375
 40
0.3720703125
 40
0.373046875
 40
0.3740234375
 40
0.3745117188
 40
0.3747558594
 40
0.375
 40
0.3752441406
 40
0.3754882812
 40
0.3759765625
 40
0.376953125
 40
0.3779296875
 40
0.37890625
 40
0.380859375
 40
0.3828125
 40
0.38671875
 40
0.390625
 40
0.39453125
 40
0.3984375
 40
0.40625
 40
0.4140625
 40
0.41796875
 40
0.421875
 40
0.42578125
 40
0.4296875
 40
0.431640625
 40
0.43359375
 40
0.4345703125
 40
0.435546875
 40
0.4365234375
 40
0.4370117188
 40
0.4372558594
 40
0.4375
 40
0.4377441406
 40
0.4379882812
 40
0.4384765625
 40
0.439453125
 40
0.4404296875
 40
0.44140625
 40
0.443359375
 40
0.4453125
 40
0.44921875
 40
0.453125
 40
0.45703125
 40
0.4609375
 40
0.46875
 40
0.4765625
 40
0.48046875
 40
0.484375
 40
0.48828125
 40
0.4921875
 40
0.494140625
 40
0.49609375
 40
0.4970703125
 40
0.498046875
 40
0.4990234375
 40
0.4995117188
 40
0.4997558594
 40
0.5
 40
0.5002441406
 40
0.5004882812
 40
0.5009765625
 40
0.501953125
 40
0.5029296875
 40
0.50390625
 40
0.505859375
 40
0.5078125
 40
0.51171875
 40
0.515625
 40
0.51953125
 40
0.5234375
 40
0.53125
 40
0.5390625
 40
0.54296875
 40
0.546875
 40
0.55078125
 40
0.5546875
 40
0.556640625
 40
0.55859375
 40
0.5595703125
 40
0.560546875
 40
0.5615234375
 40
0.5620117188
 40
0.5622558594
 40
0.5625
 40
0.5627441406
 40
0.5629882812
 40
0.5634765625
 40
0.564453125
 40
0.5654296875
 40
0.56640625
 40
0.568359375
 40
0.5703125
 40
0.57421875
 40
0.578125
 40
0.58203125
 40
0.5859375
 40
0.59375
 40
0.6015625
 40
0.60546875
 40
0.609375
 40
0.61328125
 40
0.6171875
 40
0.619140625
 40
0.62109375
 40
0.6220703125
 40
0.623046875
 40
0.6240234375
 40
0.6245117188
 40
0.6247558594
 40
0.625
 40
0.6252441406
 40
0.6254882812
 40
0.6259765625
 40
0.626953125
 40
0.6279296875
 40
0.62890625
 40
0.630859375
 40
0.6328125
 40
0.63671875
 40
0.640625
 40
0.64453125
 40
0.6484375
 40
0.65625
 40
0.6640625
 40
0.66796875
 40
0.671875
 40
0.67578125
 40
0.6796875
 40
0.681640625
 40
0.68359375
 40
0.6845703125
 40
0.685546875
 40
0.6865234375
 40
0.6870117188
 40
0.6872558594
 40
0.6875
 40
0.6877441406
 40
0.6879882812
 40
0.6884765625
 40
0.689453125
 40
0.6904296875
 40
0.69140625
 40
0.693359375
 40
0.6953125
 40
0.69921875
 40
0.703125
 40
0.70703125
 40
0.7109375
 40
0.71875
 40
0.7265625
 40
0.73046875
 40
0.734375
 40
0.73828125
 40
0.7421875
 40
0.744140625
 40
0.74609375
 40
0.7470703125
 40
0.748046875
 40
0.7490234375
 40
0.7495117188
 40
0.7497558594
 40
0.75
 40
0.7502441406
 40
0.7504882812
 40
0.7509765625
 40
0.751953125
 40
0.7529296875
 40
0.75390625
 40
0.755859375
 40
0.7578125
 40
0.76171875
 40
0.765625
 40
0.76953125
 40
0.7734375
 40
0.78125
 40
0.7890625
 40
0.79296875
 40
0.796875
 40
0.80078125
 40
0.8046875
 40
0.806640625
 40
0.80859375
 40
0.8095703125
 40
0.810546875
 40
0.8115234375
 40
0.8120117188
 40
0.8125
 40
0.8129882812
 40
0.8134765625
 40
0.814453125
 40
0.8154296875
 40
0.81640625
 40
0.818359375
 40
0.8203125
 40
0.82421875
 40
0.828125
 40
0.83203125
 40
0.8359375
 40
0.84375
 40
0.8515625
 40
0.859375
 40
0.86328125
 40
0.8671875
 40
0.869140625
 40
0.87109375
 40
0.873046875
 40
0.8740234375
 40
0.8745117188
 40
0.875
 40
0.8754882812
 40
0.8759765625
 40
0.876953125
 40
0.87890625
 40
0.880859375
 40
0.8828125
 40
0.88671875
 40
0.890625
 40
0.8984375
 40
0.90625
 40
0.9140625
 40
0.921875
 40
0.92578125
 40
0.9296875
 40
0.931640625
 40
0.93359375
 40
0.935546875
 40
0.9365234375
 40
0.9370117188
 40
0.9375
 40
0.9379882812
 40
0.9384765625
 40
0.939453125
 40
0.94140625
 40
0.943359375
 40
0.9453125
 40
0.94921875
 40
0.953125
 40
0.9609375
 40
0.96875
 40
0.9765625
 40
0.984375
 40
1.0
 40
1.0
 40
1.0
 40
1.0
 10
10.6391387128
 20
10.4290050254
 30
0.0
 10
10.6348513742
 20
10.4291887255
 30
0.0
 10
10.6262766958
 20
10.4295561212
 30
0.0
 10
10.6155583536
 20
10.4300153885
 30
0.0
 10
10.6069836677
 20
10.4303827547
 30
0.0
 10
10.6016245166
 20
10.4306124663
 30
0.0
 10
10.5973371324
 20
10.430795989
 30
0.0
 10
10.5941217676
 20
10.4309343062
 30
0.0
 10
10.5914417457
 20
10.4310474226
 30
0.0
 10
10.5895668121
 20
10.4311308193
 30
0.0
 10
10.5884937324
 20
10.4311718929
 30
0.0
 10
10.5876936807
 20
10.4312212389
 30
0.0
 10
10.5868754413
 20
10.4311997124
 30
0.0
 10
10.5857907995
 20
10.4311957315
 30
0.0
 10
10.5838897205
 20
10.431177247
 30
0.0
 10
10.5811754387
 20
10.4311568623
 30
0.0
 10
10.5779176391
 20
10.4311298231
 30
0.0
 10
10.5735741372
 20
10.4310946714
 30
0.0
 10
10.5681446815
 20
10.4310504208
 30
0.0
 10
10.561629364
 20
10.4309974622
 30
0.0
 10
10.555114055
 20
10.4309444327
 30
0.0
 10
10.5496845779
 20
10.4309003593
 30
0.0
 10
10.545341119
 20
10.4308648532
 30
0.0
 10
10.5420831881
 20
10.430838895
 30
0.0
 10
10.539369317
 20
10.4308151284
 30
0.0
 10
10.5374675049
 20
10.4308026811
 30
0.0
 10
10.5363840376
 20
10.4307890271
 30
0.0
 10
10.5355621904
 20
10.4307972135
 30
0.0
 10
10.5347756891
 20
10.4307349628
 30
0.0
 10
10.5337146916
 20
10.4306765312
 30
0.0
 10
10.5318636903
 20
10.4305628286
 30
0.0
 10
10.5292163996
 20
10.4304063811
 30
0.0
 10
10.5260409362
 20
10.4302160823
 30
0.0
 10
10.5218065358
 20
10.4299632458
 30
0.0
 10
10.5165136913
 20
10.4296468909
 30
0.0
 10
10.5101622028
 20
10.4292674064
 30
0.0
 10
10.503810765
 20
10.4288878511
 30
0.0
 10
10.4985177937
 20
10.4285716731
 30
0.0
 10
10.4942836468
 20
10.4283184829
 30
0.0
 10
10.4911074102
 20
10.4281292628
 30
0.0
 10
10.4884625385
 20
10.4279694407
 30
0.0
 10
10.4866072189
 20
10.4278617622
 30
0.0
 10
10.4855531405
 20
10.4277936785
 30
0.0
 10
10.4847453859
 20
10.4277610758
 30
0.0
 10
10.4840033622
 20
10.4276579096
 30
0.0
 10
10.4829910696
 20
10.4275449679
 30
0.0
 10
10.48123024
 20
10.4273358523
 30
0.0
 10
10.4787091843
 20
10.4270431112
 30
0.0
 10
10.4756863079
 20
10.4266892555
 30
0.0
 10
10.471654971
 20
10.4262183444
 30
0.0
 10
10.4666160869
 20
10.4256293978
 30
0.0
 10
10.4605693009
 20
10.4249227946
 30
0.0
 10
10.4545225557
 20
10.4242161531
 30
0.0
 10
10.4494835698
 20
10.4236273021
 30
0.0
 10
10.4454524364
 20
10.4231561997
 30
0.0
 10
10.4429328555
 20
10.4228618061
 30
0.0
 10
10.440917471
 20
10.4226261878
 30
0.0
 10
10.4394051655
 20
10.4224497572
 30
0.0
 10
10.4381473512
 20
10.4223018311
 30
0.0
 10
10.4372620922
 20
10.4222000501
 30
0.0
 10
10.4367637076
 20
10.4221391302
 30
0.0
 10
10.4363688545
 20
10.4221012133
 30
0.0
 10
10.436054521
 20
10.4220335837
 30
0.0
 10
10.4356073235
 20
10.421953775
 30
0.0
 10
10.4348378138
 20
10.4218092809
 30
0.0
 10
10.4337316728
 20
10.4216053854
 30
0.0
 10
10.432407232
 20
10.4213596302
 30
0.0
 10
10.4306402881
 20
10.421032334
 30
0.0
 10
10.4284319584
 20
10.4206230845
 30
0.0
 10
10.424898435
 20
10.4199683576
 30
0.0
 10
10.4204815986
 20
10.419149924
 30
0.0
 10
10.4151813636
 20
10.418167815
 30
0.0
 10
10.4098811451
 20
10.4171857006
 30
0.0
 10
10.4054642676
 20
10.4163672806
 30
0.0
 10
10.4019308263
 20
10.4157125266
 30
0.0
 10
10.3997222881
 20
10.4153033459
 30
0.0
 10
10.3979557721
 20
10.4149759084
 30
0.0
 10
10.396630024
 20
10.4147305849
 30
0.0
 10
10.3955279731
 20
10.4145253388
 30
0.0
 10
10.3947511619
 20
10.4143832558
 30
0.0
 10
10.3943156634
 20
10.4142995839
 30
0.0
 10
10.3939653944
 20
10.4142438206
 30
0.0
 10
10.3937055089
 20
10.4141613358
 30
0.0
 10
10.393327468
 20
10.4140606768
 30
0.0
 10
10.3926805855
 20
10.4138801809
 30
0.0
 10
10.391748788
 20
10.4136246
 30
0.0
 10
10.3906339181
 20
10.4133169311
 30
0.0
 10
10.3891462768
 20
10.4129070453
 30
0.0
 10
10.3872871183
 20
10.4123945719
 30
0.0
 10
10.384312245
 20
10.4115746794
 30
0.0
 10
10.3805937288
 20
10.4105497914
 30
0.0
 10
10.376131477
 20
10.4093199354
 30
0.0
 10
10.372412941
 20
10.4082950533
 30
0.0
 10
10.3694381112
 20
10.407475148
 30
0.0
 10
10.3672069877
 20
10.4068602192
 30
0.0
 10
10.3649758693
 20
10.4062452894
 30
0.0
 10
10.3631165878
 20
10.4057328511
 30
0.0
 10
10.3616291988
 20
10.4053228932
 30
0.0
 10
10.3606994981
 20
10.405066686
 30
0.0
 10
10.3599559267
 20
10.4048616825
 30
0.0
 10
10.3593977303
 20
10.4047080332
 30
0.0
 10
10.3589342141
 20
10.4045796637
 30
0.0
 10
10.3586065197
 20
10.4044904494
 30
0.0
 10
10.3584243138
 20
10.4044384637
 30
0.0
 10
10.3582734389
 20
10.4044023087
 30
0.0
 10
10.3581769218
 20
10.4043553194
 30
0.0
 10
10.3580292718
 20
10.4042964461
 30
0.0
 10
10.3577797183
 20
10.404191657
 30
0.0
 10
10.3574185947
 20
10.4040428788
 30
0.0
 10
10.3569872234
 20
10.403863951
 30
0.0
 10
10.356411371
 20
10.4036255183
 30
0.0
 10
10.355691792
 20
10.4033274302
 30
0.0
 10
10.3545403335
 20
10.4028505156
 30
0.0
 10
10.3531010557
 20
10.4022543633
 30
0.0
 10
10.3513739029
 20
10.4015389845
 30
0.0
 10
10.3496467553
 20
10.4008236046
 30
0.0
 10
10.34734389
 20
10.3998697651
 30
0.0
 10
10.344465309
 20
10.3986774656
 30
0.0
 10
10.3415867276
 20
10.3974851662
 30
0.0
 10
10.3392838631
 20
10.3965313266
 30
0.0
 10
10.3375567132
 20
10.3958159471
 30
0.0
 10
10.335829569
 20
10.3951005668
 30
0.0
 10
10.3343902644
 20
10.3945044193
 30
0.0
 10
10.3332388606
 20
10.3940274949
 30
0.0
 10
10.3325191423
 20
10.3937294316
 30
0.0
 10
10.3319435758
 20
10.393490948
 30
0.0
 10
10.3315113311
 20
10.3933121755
 30
0.0
 10
10.33115294
 20
10.3931629115
 30
0.0
 10
10.3308985086
 20
10.3930589898
 30
0.0
 10
10.3307586742
 20
10.3929987268
 30
0.0
 10
10.3306381501
 20
10.3929560061
 30
0.0
 10
10.3305774415
 20
10.3929038188
 30
0.0
 10
10.3304756324
 20
10.3928375378
 30
0.0
 10
10.3303071875
 20
10.3927200075
 30
0.0
 10
10.3300614697
 20
10.3925529115
 30
0.0
 10
10.3297687837
 20
10.392352052
 30
0.0
 10
10.3293777758
 20
10.3920843596
 30
0.0
 10
10.3288892762
 20
10.3917497029
 30
0.0
 10
10.3281075314
 20
10.3912142752
 30
0.0
 10
10.3271304003
 20
10.3905449826
 30
0.0
 10
10.3259578216
 20
10.3897418349
 30
0.0
 10
10.3247852486
 20
10.3889386864
 30
0.0
 10
10.323221816
 20
10.3878678219
 30
0.0
 10
10.3212675259
 20
10.3865292412
 30
0.0
 10
10.3193132353
 20
10.3851906606
 30
0.0
 10
10.3177498035
 20
10.3841197961
 30
0.0
 10
10.3165772279
 20
10.3833166478
 30
0.0
 10
10.315404659
 20
10.3825134991
 30
0.0
 10
10.3144274976
 20
10.3818442096
 30
0.0
 10
10.3136458146
 20
10.3813087758
 30
0.0
 10
10.3131571577
 20
10.3809741345
 30
0.0
 10
10.3127664726
 20
10.3807064105
 30
0.0
 10
10.3124728008
 20
10.3805056474
 30
0.0
 10
10.3122301672
 20
10.3803382497
 30
0.0
 10
10.3120562165
 20
10.3802212579
 30
0.0
 10
10.3119632291
 20
10.3801541142
 30
0.0
 10
10.3118754229
 20
10.380104577
 30
0.0
 10
10.3118566731
 20
10.3800519028
 30
0.0
 10
10.3118075857
 20
10.3799827648
 30
0.0
 10
10.3117329057
 20
10.3798612635
 30
0.0
 10
10.3116203525
 20
10.3796879567
 30
0.0
 10
10.3114878001
 20
10.3794798745
 30
0.0
 10
10.3113101863
 20
10.3792024713
 30
0.0
 10
10.3110884695
 20
10.3788557037
 30
0.0
 10
10.3107335548
 20
10.3783008833
 30
0.0
 10
10.3102899689
 20
10.377607355
 30
0.0
 10
10.3097576412
 20
10.3767751223
 30
0.0
 10
10.3092253201
 20
10.3759428893
 30
0.0
 10
10.3085155563
 20
10.3748332453
 30
0.0
 10
10.3076283524
 20
10.3734461903
 30
0.0
 10
10.306741148
 20
10.3720591354
 30
0.0
 10
10.3060313851
 20
10.3709494914
 30
0.0
 10
10.3054990612
 20
10.3701172585
 30
0.0
 10
10.3049667439
 20
10.3692850254
 30
0.0
 10
10.3045231257
 20
10.3685914982
 30
0.0
 10
10.3041682769
 20
10.3680366756
 30
0.0
 10
10.3039463923
 20
10.3676899133
 30
0.0
 10
10.3037691229
 20
10.3674124994
 30
0.0
 10
10.3036355186
 20
10.3672044501
 30
0.0
 10
10.3035262565
 20
10.3670310401
 30
0.0
 10
10.3034457013
 20
10.3669097231
 30
0.0
 10
10.3034060273
 20
10.3668402898
 30
0.0
 10
10.3033583627
 20
10.3667885227
 30
0.0
 10
10.3033791557
 20
10.3667355787
 30
0.0
 10
10.3033830009
 20
10.3666653973
 30
0.0
 10
10.3034008556
 20
10.3665423885
 30
0.0
 10
10.3034205458
 20
10.3663667617
 30
0.0
 10
10.3034466636
 20
10.3661559667
 30
0.0
 10
10.3034806178
 20
10.3658749217
 30
0.0
 10
10.3035233584
 20
10.3655236103
 30
0.0
 10
10.3035915768
 20
10.364961515
 30
0.0
 10
10.3036769069
 20
10.3642588948
 30
0.0
 10
10.3037792785
 20
10.363415751
 30
0.0
 10
10.3038816567
 20
10.3625726071
 30
0.0
 10
10.3040181587
 20
10.3614484152
 30
0.0
 10
10.304188787
 20
10.3600431754
 30
0.0
 10
10.3043594148
 20
10.3586379356
 30
0.0
 10
10.3044959177
 20
10.3575137438
 30
0.0
 10
10.3045982931
 20
10.3566705999
 30
0.0
 10
10.3047006751
 20
10.3558274561
 30
0.0
 10
10.3047859731
 20
10.3551248357
 30
0.0
 10
10.304854257
 20
10.3545627409
 30
0.0
 10
10.304896831
 20
10.3542114281
 30
0.0
 10
10.3049311269
 20
10.3539303859
 30
0.0
 10
10.3049562007
 20
10.3537195824
 30
0.0
 10
10.3049791575
 20
10.3535439822
 30
0.0
 10
10.3049911807
 20
10.353420926
 30
0.0
 10
10.3050043695
 20
10.3533508206
 30
0.0
 10
10.304996462
 20
10.3532976432
 30
0.0
 10
10.3050565916
 20
10.3532467528
 30
0.0
 10
10.3051130323
 20
10.3531781013
 30
0.0
 10
10.3052228606
 20
10.3530583328
 30
0.0
 10
10.3053739775
 20
10.3528870406
 30
0.0
 10
10.3055577921
 20
10.3526815732
 30
0.0
 10
10.3058020139
 20
10.3524075876
 30
0.0
 10
10.3061075872
 20
10.3520651155
 30
0.0
 10
10.306596339
 20
10.3515171546
 30
0.0
 10
10.3072073355
 20
10.3508322054
 30
0.0
 10
10.3079405071
 20
10.3500102655
 30
0.0
 10
10.3086736851
 20
10.3491883258
 30
0.0
 10
10.3096512535
 20
10.3480924062
 30
0.0
 10
10.3108732149
 20
10.3467225067
 30
0.0
 10
10.3120951757
 20
10.3453526072
 30
0.0
 10
10.313072745
 20
10.3442566876
 30
0.0
 10
10.3138059203
 20
10.3434347478
 30
0.0
 10
10.3145391021
 20
10.3426128085
 30
0.0
 10
10.3151500666
 20
10.3419278577
 30
0.0
 10
10.3156388837
 20
10.3413799
 30
0.0
 10
10.3159442908
 20
10.3410374199
 30
0.0
 10
10.3161888537
 20
10.3407634506
 30
0.0
 10
10.3163716265
 20
10.3405579332
 30
0.0
 10
10.3165260028
 20
10.3403867975
 30
0.0
 10
10.3166300124
 20
10.3402667496
 30
0.0
 10
10.3166957762
 20
10.3401985458
 30
0.0
 10
10.3167272681
 20
10.3401462803
 30
0.0
 10
10.3168269191
 20
10.3400982678
 30
0.0
 10
10.3169360124
 20
10.3400327677
 30
0.0
 10
10.3171380028
 20
10.3399188338
 30
0.0
 10
10.3174207692
 20
10.3397557096
 30
0.0
 10
10.3177625678
 20
10.3395601153
 30
0.0
 10
10.3182174334
 20
10.3392992688
 30
0.0
 10
10.3187863119
 20
10.3389732292
 30
0.0
 10
10.3196963518
 20
10.3384515555
 30
0.0
 10
10.3208339585
 20
10.337799467
 30
0.0
 10
10.3221990622
 20
10.3370169592
 30
0.0
 10
10.3235641724
 20
10.3362344518
 30
0.0
 10
10.3253843171
 20
10.3351911085
 30
0.0
 10
10.3276594988
 20
10.3338869294
 30
0.0
 10
10.3299346799
 20
10.3325827503
 30
0.0
 10
10.3317548254
 20
10.3315394071
 30
0.0
 10
10.3331199331
 20
10.3307568994
 30
0.0
 10
10.3344850463
 20
10.3299743927
 30
0.0
 10
10.3356226235
 20
10.3293223007
 30
0.0
 10
10.3365327236
 20
10.3288006341
 30
0.0
 10
10.3371014489
 20
10.3284745766
 30
0.0
 10
10.3375566289
 20
10.3282137668
 30
0.0
 10
10.3378974671
 20
10.3280180603
 30
0.0
 10
10.3381832385
 20
10.3278552873
 30
0.0
 10
10.3383798645
 20
10.3277407264
 30
0.0
 10
10.3384975529
 20
10.3276762307
 30
0.0
 10
10.3385708026
 20
10.327625133
 30
0.0
 10
10.3387014532
 20
10.3275844553
 30
0.0
 10
10.3388556318
 20
10.3275265838
 30
0.0
 10
10.3391347732
 20
10.327427002
 30
0.0
 10
10.3395286694
 20
10.3272838569
 30
0.0
 10
10.3400034324
 20
10.3271124618
 30
0.0
 10
10.3406357206
 20
10.3268838026
 30
0.0
 10
10.3414263306
 20
10.3265980239
 30
0.0
 10
10.3426911669
 20
10.3261407528
 30
0.0
 10
10.3442722603
 20
10.3255691725
 30
0.0
 10
10.3461695517
 20
10.3248832724
 30
0.0
 10
10.3480668487
 20
10.3241973733
 30
0.0
 10
10.3505965761
 20
10.3232828409
 30
0.0
 10
10.3537587358
 20
10.3221396754
 30
0.0
 10
10.3569208959
 20
10.3209965101
 30
0.0
 10
10.3594506227
 20
10.3200819775
 30
0.0
 10
10.3613479214
 20
10.3193960789
 30
0.0
 10
10.3632452062
 20
10.3187101771
 30
0.0
 10
10.3648263203
 20
10.3181386021
 30
0.0
 10
10.3660911144
 20
10.3176813201
 30
0.0
 10
10.366881832
 20
10.317395569
 30
0.0
 10
10.3675138992
 20
10.3171668533
 30
0.0
 10
10.3679893373
 20
10.3169956309
 30
0.0
 10
10.3683811213
 20
10.3168519454
 30
0.0
 10
10.3687044494
 20
10.3167392403
 30
0.0
 10
10.3689198913
 20
10.3166485815
 30
0.0
 10
10.3692385995
 20
10.3165813208
 30
0.0
 10
10.3696274716
 20
10.3164834666
 30
0.0
 10
10.3701259378
 20
10.316363953
 30
0.0
 10
10.3707188
 20
10.3162193364
 30
0.0
 10
10.371511133
 20
10.3160269335
 30
0.0
 10
10.3725009159
 20
10.3157862864
 30
0.0
 10
10.3740849225
 20
10.3154013312
 30
0.0
 10
10.3760648092
 20
10.3149201097
 30
0.0
 10
10.3784407254
 20
10.3143426557
 30
0.0
 10
10.3808166276
 20
10.3137651985
 30
0.0
 10
10.3839845024
 20
10.3129952568
 30
0.0
 10
10.3879443423
 20
10.3120328286
 30
0.0
 10
10.3926961592
 20
10.3108779178
 30
0.0
 10
10.3966559814
 20
10.3099154836
 30
0.0
 10
10.3998238952
 20
10.3091455551
 30
0.0
 10
10.401803714
 20
10.308664307
 30
0.0
 10
10.4033878604
 20
10.3082794064
 30
0.0
 10
10.4045751726
 20
10.3079904629
 30
0.0
 10
10.4055671368
 20
10.3077505295
 30
0.0
 10
10.4062565322
 20
10.3075809025
 30
0.0
 10
10.4066582475
 20
10.3074865859
 30
0.0
 10
10.4069376316
 20
10.3074084874
 30
0.0
 10
10.4073007378
 20
10.3073585265
 30
0.0
 10
10.4077556762
 20
10.3072820973
 30
0.0
 10
10.4085654248
 20
10.307152919
 30
0.0
 10
10.4097150949
 20
10.3069659878
 30
0.0
 10
10.4110977438
 20
10.3067426937
 30
0.0
 10
10.4129402122
 20
10.3064446109
 30
0.0
 10
10.4152436619
 20
10.3060721297
 30
0.0
 10
10.4189289778
 20
10.3054760914
 30
0.0
 10
10.423535693
 20
10.3047310671
 30
0.0
 10
10.4290637193
 20
10.3038370272
 30
0.0
 10
10.4345917606
 20
10.3029429929
 30
0.0
 10
10.4391984381
 20
10.3021979544
 30
0.0
 10
10.4428838293
 20
10.3016019445
 30
0.0
 10
10.4451870877
 20
10.3012293912
 30
0.0
 10
10.4470299489
 20
10.3009314563
 30
0.0
 10
10.4484113978
 20
10.3007077102
 30
0.0
 10
10.4495648223
 20
10.3005221934
 30
0.0
 10
10.4503678686
 20
10.3003904902
 30
0.0
 10
10.4508335457
 20
10.3003181066
 30
0.0
 10
10.4511636662
 20
10.3002557188
 30
0.0
 10
10.4515669392
 20
10.3002242937
 30
0.0
 10
10.4520791202
 20
10.3001715935
 30
0.0
 10
10.4529873254
 20
10.3000844
 30
0.0
 10
10.4542785459
 20
10.2999572072
 30
0.0
 10
10.455830671
 20
10.2998057018
 30
0.0
 10
10.4578992419
 20
10.2996033014
 30
0.0
 10
10.4604852736
 20
10.2993504355
 30
0.0
 10
10.4646227466
 20
10.2989457748
 30
0.0
 10
10.4697946489
 20
10.2984399748
 30
0.0
 10
10.4760009054
 20
10.2978330037
 30
0.0
 10
10.482207169
 20
10.2972260356
 30
0.0
 10
10.4904821846
 20
10.2964167437
 30
0.0
 10
10.4966884469
 20
10.295809775
 30
0.0
 10
10.5008259549
 20
10.2954051292
 30
0.0
  0
SPLINE
  5
381
100
AcDbEntity
  8
0
100
AcDbSpline
 62
4
  6
CONTINUOUS
 70
0
 71
3
 72
346
 73
342
 74
0
 42
0.0000001
 43
0.0000001
 44
0.0000000001
 40
0.0
 40
0.0
 40
0.0
 40
0.0
 40
0.015625
 40
0.03125
 40
0.0390625
 40
0.046875
 40
0.05078125
 40
0.0546875
 40
0.05859375
 40
0.060546875
 40
0.0615234375
 40
0.0625
 40
0.0634765625
 40
0.064453125
 40
0.06640625
 40
0.0703125
 40
0.07421875
 40
0.078125
 40
0.0859375
 40
0.09375
 40
0.1015625
 40
0.109375
 40
0.11328125
 40
0.1171875
 40
0.12109375
 40
0.123046875
 40
0.1240234375
 40
0.125
 40
0.1259765625
 40
0.126953125
 40
0.12890625
 40
0.1328125
 40
0.13671875
 40
0.140625
 40
0.1484375
 40
0.15625
 40
0.1640625
 40
0.171875
 40
0.17578125
 40
0.1796875
 40
0.18359375
 40
0.185546875
 40
0.1865234375
 40
0.1875
 40
0.1884765625
 40
0.189453125
 40
0.19140625
 40
0.1953125
 40
0.19921875
 40
0.203125
 40
0.2109375
 40
0.21875
 40
0.2265625
 40
0.234375
 40
0.23828125
 40
0.2421875
 40
0.244140625
 40
0.24609375
 40
0.248046875
 40
0.2490234375
 40
0.2495117188
 40
0.25
 40
0.2504882812
 40
0.2509765625
 40
0.251953125
 40
0.25390625
 40
0.255859375
 40
0.2578125
 40
0.26171875
 40
0.265625
 40
0.2734375
 40
0.28125
 40
0.2890625
 40
0.296875
 40
0.30078125
 40
0.3046875
 40
0.306640625
 40
0.30859375
 40
0.310546875
 40
0.3115234375
 40
0.3120117188
 40
0.3125
 40
0.3129882812
 40
0.3134765625
 40
0.314453125
 40
0.31640625
 40
0.318359375
 40
0.3203125
 40
0.32421875
 40
0.328125
 40
0.3359375
 40
0.34375
 40
0.3515625
 40
0.35546875
 40
0.359375
 40
0.36328125
 40
0.3671875
 40
0.369140625
 40
0.37109375
 40
0.3720703125
 40
0.373046875
 40
0.3740234375
 40
0.3745117188
 40
0.3747558594
 40
0.375
 40
0.3752441406
 40
0.3754882812
 40
0.3759765625
 40
0.376953125
 40
0.3779296875
 40
0.37890625
 40
0.380859375
 40
0.3828125
 40
0.38671875
 40
0.390625
 40
0.39453125
 40
0.3984375
 40
0.40625
 40
0.4140625
 40
0.41796875
 40
0.421875
 40
0.42578125
 40
0.4296875
 40
0.431640625
 40
0.43359375
 40
0.4345703125
 40
0.435546875
 40
0.4365234375
 40
0.4370117188
 40
0.4372558594
 40
0.4375
 40
0.4377441406
 40
0.4379882812
 40
0.4384765625
 40
0.439453125
 40
0.4404296875
 40
0.44140625
 40
0.443359375
 40
0.4453125
 40
0.44921875
 40
0.453125
 40
0.45703125
 40
0.4609375
 40
0.46875
 40
0.4765625
 40
0.48046875
 40
0.484375
 40
0.48828125
 40
0.4921875
 40
0.494140625
 40
0.49609375
 40
0.4970703125
 40
0.498046875
 40
0.4990234375
 40
0.4995117188
 40
0.4997558594
 40
0.5
 40
0.5002441406
 40
0.5004882812
 40
0.5009765625
 40
0.501953125
 40
0.5029296875
 40
0.50390625
 40
0.505859375
 40
0.5078125
 40
0.51171875
 40
0.515625
 40
0.51953125
 40
0.5234375
 40
0.53125
 40
0.5390625
 40
0.54296875
 40
0.546875
 40
0.55078125
 40
0.5546875
 40
0.556640625
 40
0.55859375
 40
0.5595703125
 40
0.560546875
 40
0.5615234375
 40
0.5620117188
 40
0.5622558594
 40
0.5625
 40
0.5627441406
 40
0.5629882812
 40
0.5634765625
 40
0.564453125
 40
0.5654296875
 40
0.56640625
 40
0.568359375
 40
0.5703125
 40
0.57421875
 40
0.578125
 40
0.58203125
 40
0.5859375
 40
0.59375
 40
0.6015625
 40
0.60546875
 40
0.609375
 40
0.61328125
 40
0.6171875
 40
0.619140625
 40
0.62109375
 40
0.6220703125
 40
0.623046875
 40
0.6240234375
 40
0.6245117188
 40
0.6247558594
 40
0.625
 40
0.6252441406
 40
0.6254882812
 40
0.6259765625
 40
0.626953125
 40
0.6279296875
 40
0.62890625
 40
0.630859375
 40
0.6328125
 40
0.63671875
 40
0.640625
 40
0.64453125
 40
0.6484375
 40
0.65625
 40
0.6640625
 40
0.66796875
 40
0.671875
 40
0.67578125
 40
0.6796875
 40
0.681640625
 40
0.68359375
 40
0.6845703125
 40
0.685546875
 40
0.6865234375
 40
0.6870117188
 40
0.6872558594
 40
0.6875
 40
0.6877441406
 40
0.6879882812
 40
0.6884765625
 40
0.689453125
 40
0.6904296875
 40
0.69140625
 40
0.693359375
 40
0.6953125
 40
0.69921875
 40
0.703125
 40
0.70703125
 40
0.7109375
 40
0.71875
 40
0.7265625
 40
0.73046875
 40
0.734375
 40
0.73828125
 40
0.7421875
 40
0.744140625
 40
0.74609375
 40
0.7470703125
 40
0.748046875
 40
0.7490234375
 40
0.7495117188
 40
0.7497558594
 40
0.75
 40
0.7502441406
 40
0.7504882812
 40
0.7509765625
 40
0.751953125
 40
0.7529296875
 40
0.75390625
 40
0.755859375
 40
0.7578125
 40
0.76171875
 40
0.765625
 40
0.76953125
 40
0.7734375
 40
0.78125
 40
0.7890625
 40
0.79296875
 40
0.796875
 40
0.80078125
 40
0.8046875
 40
0.806640625
 40
0.80859375
 40
0.8095703125
 40
0.810546875
 40
0.8115234375
 40
0.8120117188
 40
0.8125
 40
0.8129882812
 40
0.8134765625
 40
0.814453125
 40
0.8154296875
 40
0.81640625
 40
0.818359375
 40
0.8203125
 40
0.82421875
 40
0.828125
 40
0.83203125
 40
0.8359375
 40
0.84375
 40
0.8515625
 40
0.859375
 40
0.86328125
 40
0.8671875
 40
0.869140625
 40
0.87109375
 40
0.873046875
 40
0.8740234375
 40
0.8745117188
 40
0.875
 40
0.8754882812
 40
0.8759765625
 40
0.876953125
 40
0.87890625
 40
0.880859375
 40
0.8828125
 40
0.88671875
 40
0.890625
 40
0.8984375
 40
0.90625
 40
0.9140625
 40
0.921875
 40
0.92578125
 40
0.9296875
 40
0.931640625
 40
0.93359375
 40
0.935546875
 40
0.9365234375
 40
0.9370117188
 40
0.9375
 40
0.9379882812
 40
0.9384765625
 40
0.939453125
 40
0.94140625
 40
0.943359375
 40
0.9453125
 40
0.94921875
 40
0.953125
 40
0.9609375
 40
0.96875
 40
0.9765625
 40
0.984375
 40
1.0
 40
1.0
 40
1.0
 40
1.0
 10
10.5008259324
 20
10.2954051307
 30
0.0
 10
10.505113271
 20
10.2952214306
 30
0.0
 10
10.5136879494
 20
10.2948540349
 30
0.0
 10
10.5244062916
 20
10.2943947676
 30
0.0
 10
10.5329809775
 20
10.2940274014
 30
0.0
 10
10.5383401286
 20
10.2937976898
 30
0.0
 10
10.5426275128
 20
10.2936141671
 30
0.0
 10
10.5458428776
 20
10.2934758499
 30
0.0
 10
10.5485228995
 20
10.2933627335
 30
0.0
 10
10.5503978331
 20
10.2932793368
 30
0.0
 10
10.5514709128
 20
10.2932382632
 30
0.0
 10
10.5522709645
 20
10.2931889173
 30
0.0
 10
10.5530892039
 20
10.2932104437
 30
0.0
 10
10.5541738457
 20
10.2932144246
 30
0.0
 10
10.5560749247
 20
10.2932329091
 30
0.0
 10
10.5587892065
 20
10.2932532938
 30
0.0
 10
10.5620470061
 20
10.2932803331
 30
0.0
 10
10.566390508
 20
10.2933154847
 30
0.0
 10
10.5718199636
 20
10.2933597353
 30
0.0
 10
10.5783352812
 20
10.2934126939
 30
0.0
 10
10.5848505902
 20
10.2934657234
 30
0.0
 10
10.5902800673
 20
10.2935097968
 30
0.0
 10
10.5946235262
 20
10.2935453029
 30
0.0
 10
10.5978814571
 20
10.2935712611
 30
0.0
 10
10.6005953282
 20
10.2935950277
 30
0.0
 10
10.6024971403
 20
10.293607475
 30
0.0
 10
10.6035806076
 20
10.293621129
 30
0.0
 10
10.6044024548
 20
10.2936129426
 30
0.0
 10
10.6051889561
 20
10.2936751933
 30
0.0
 10
10.6062499536
 20
10.2937336249
 30
0.0
 10
10.6081009549
 20
10.2938473275
 30
0.0
 10
10.6107482456
 20
10.294003775
 30
0.0
 10
10.613923709
 20
10.2941940738
 30
0.0
 10
10.6181581094
 20
10.2944469104
 30
0.0
 10
10.6234509539
 20
10.2947632652
 30
0.0
 10
10.6298024424
 20
10.2951427497
 30
0.0
 10
10.6361538802
 20
10.295522305
 30
0.0
 10
10.6414468515
 20
10.295838483
 30
0.0
 10
10.6456809984
 20
10.2960916732
 30
0.0
 10
10.648857235
 20
10.2962808934
 30
0.0
 10
10.6515021067
 20
10.2964407154
 30
0.0
 10
10.6533574263
 20
10.296548394
 30
0.0
 10
10.6544115047
 20
10.2966164776
 30
0.0
 10
10.6552192593
 20
10.2966490803
 30
0.0
 10
10.655961283
 20
10.2967522466
 30
0.0
 10
10.6569735755
 20
10.2968651882
 30
0.0
 10
10.6587344051
 20
10.2970743038
 30
0.0
 10
10.6612554609
 20
10.297367045
 30
0.0
 10
10.6642783372
 20
10.2977209006
 30
0.0
 10
10.6683096742
 20
10.2981918117
 30
0.0
 10
10.6733485583
 20
10.2987807583
 30
0.0
 10
10.6793953442
 20
10.2994873616
 30
0.0
 10
10.6854420895
 20
10.3001940031
 30
0.0
 10
10.6904810754
 20
10.3007828541
 30
0.0
 10
10.6945122088
 20
10.3012539564
 30
0.0
 10
10.6970317897
 20
10.30154835
 30
0.0
 10
10.6990471742
 20
10.3017839683
 30
0.0
 10
10.7005594797
 20
10.301960399
 30
0.0
 10
10.701817294
 20
10.302108325
 30
0.0
 10
10.702702553
 20
10.302210106
 30
0.0
 10
10.7032009376
 20
10.302271026
 30
0.0
 10
10.7035957907
 20
10.3023089428
 30
0.0
 10
10.7039101242
 20
10.3023765724
 30
0.0
 10
10.7043573217
 20
10.3024563811
 30
0.0
 10
10.7051268313
 20
10.3026008752
 30
0.0
 10
10.7062329723
 20
10.3028047707
 30
0.0
 10
10.7075574132
 20
10.3030505259
 30
0.0
 10
10.7093243571
 20
10.3033778221
 30
0.0
 10
10.7115326868
 20
10.3037870716
 30
0.0
 10
10.7150662101
 20
10.3044417985
 30
0.0
 10
10.7194830466
 20
10.3052602321
 30
0.0
 10
10.7247832816
 20
10.3062423411
 30
0.0
 10
10.7300835001
 20
10.3072244555
 30
0.0
 10
10.7345003776
 20
10.3080428755
 30
0.0
 10
10.7380338189
 20
10.3086976295
 30
0.0
 10
10.740242357
 20
10.3091068102
 30
0.0
 10
10.7420088731
 20
10.3094342477
 30
0.0
 10
10.7433346212
 20
10.3096795712
 30
0.0
 10
10.7444366721
 20
10.3098848174
 30
0.0
 10
10.7452134833
 20
10.3100269004
 30
0.0
 10
10.7456489818
 20
10.3101105722
 30
0.0
 10
10.7459992507
 20
10.3101663355
 30
0.0
 10
10.7462591363
 20
10.3102488203
 30
0.0
 10
10.7466371772
 20
10.3103494793
 30
0.0
 10
10.7472840597
 20
10.3105299752
 30
0.0
 10
10.7482158572
 20
10.3107855561
 30
0.0
 10
10.7493307271
 20
10.311093225
 30
0.0
 10
10.7508183684
 20
10.3115031108
 30
0.0
 10
10.7526775269
 20
10.3120155842
 30
0.0
 10
10.7556524002
 20
10.3128354767
 30
0.0
 10
10.7593709164
 20
10.3138603647
 30
0.0
 10
10.7638331682
 20
10.3150902207
 30
0.0
 10
10.7675517042
 20
10.3161151028
 30
0.0
 10
10.770526534
 20
10.3169350081
 30
0.0
 10
10.7727576575
 20
10.3175499369
 30
0.0
 10
10.7749887759
 20
10.3181648668
 30
0.0
 10
10.7768480574
 20
10.318677305
 30
0.0
 10
10.7783354464
 20
10.3190872629
 30
0.0
 10
10.779265147
 20
10.3193434701
 30
0.0
 10
10.7800087184
 20
10.3195484736
 30
0.0
 10
10.7805669149
 20
10.3197021229
 30
0.0
 10
10.7810304311
 20
10.3198304925
 30
0.0
 10
10.7813581255
 20
10.3199197067
 30
0.0
 10
10.7815403314
 20
10.3199716925
 30
0.0
 10
10.7816912062
 20
10.3200078474
 30
0.0
 10
10.7817877233
 20
10.3200548367
 30
0.0
 10
10.7819353734
 20
10.3201137101
 30
0.0
 10
10.7821849269
 20
10.3202184991
 30
0.0
 10
10.7825460505
 20
10.3203672773
 30
0.0
 10
10.7829774218
 20
10.3205462051
 30
0.0
 10
10.7835532742
 20
10.3207846378
 30
0.0
 10
10.7842728532
 20
10.3210827259
 30
0.0
 10
10.7854243117
 20
10.3215596405
 30
0.0
 10
10.7868635895
 20
10.3221557928
 30
0.0
 10
10.7885907423
 20
10.3228711716
 30
0.0
 10
10.7903178899
 20
10.3235865515
 30
0.0
 10
10.7926207552
 20
10.324540391
 30
0.0
 10
10.7954993361
 20
10.3257326905
 30
0.0
 10
10.7983779176
 20
10.3269249899
 30
0.0
 10
10.8006807821
 20
10.3278788295
 30
0.0
 10
10.802407932
 20
10.328594209
 30
0.0
 10
10.8041350762
 20
10.3293095894
 30
0.0
 10
10.8055743808
 20
10.3299057369
 30
0.0
 10
10.8067257846
 20
10.3303826612
 30
0.0
 10
10.8074455029
 20
10.3306807245
 30
0.0
 10
10.8080210693
 20
10.3309192081
 30
0.0
 10
10.8084533141
 20
10.3310979806
 30
0.0
 10
10.8088117052
 20
10.3312472446
 30
0.0
 10
10.8090661366
 20
10.3313511663
 30
0.0
 10
10.809205971
 20
10.3314114293
 30
0.0
 10
10.8093264951
 20
10.33145415
 30
0.0
 10
10.8093872037
 20
10.3315063373
 30
0.0
 10
10.8094890128
 20
10.3315726183
 30
0.0
 10
10.8096574577
 20
10.3316901486
 30
0.0
 10
10.8099031755
 20
10.3318572446
 30
0.0
 10
10.8101958615
 20
10.3320581041
 30
0.0
 10
10.8105868693
 20
10.3323257965
 30
0.0
 10
10.811075369
 20
10.3326604532
 30
0.0
 10
10.8118571138
 20
10.333195881
 30
0.0
 10
10.8128342449
 20
10.3338651735
 30
0.0
 10
10.8140068236
 20
10.3346683212
 30
0.0
 10
10.8151793966
 20
10.3354714698
 30
0.0
 10
10.8167428292
 20
10.3365423342
 30
0.0
 10
10.8186971193
 20
10.3378809149
 30
0.0
 10
10.8206514099
 20
10.3392194955
 30
0.0
 10
10.8222148417
 20
10.34029036
 30
0.0
 10
10.8233874172
 20
10.3410935084
 30
0.0
 10
10.8245599862
 20
10.341896657
 30
0.0
 10
10.8255371476
 20
10.3425659466
 30
0.0
 10
10.8263188306
 20
10.3431013803
 30
0.0
 10
10.8268074874
 20
10.3434360217
 30
0.0
 10
10.8271981726
 20
10.3437037456
 30
0.0
 10
10.8274918444
 20
10.3439045087
 30
0.0
 10
10.827734478
 20
10.3440719064
 30
0.0
 10
10.8279084287
 20
10.3441888982
 30
0.0
 10
10.8280014161
 20
10.344256042
 30
0.0
 10
10.8280892223
 20
10.3443055791
 30
0.0
 10
10.8281079721
 20
10.3443582533
 30
0.0
 10
10.8281570595
 20
10.3444273913
 30
0.0
 10
10.8282317395
 20
10.3445488926
 30
0.0
 10
10.8283442927
 20
10.3447221994
 30
0.0
 10
10.8284768451
 20
10.3449302817
 30
0.0
 10
10.8286544589
 20
10.3452076848
 30
0.0
 10
10.8288761757
 20
10.3455544524
 30
0.0
 10
10.8292310904
 20
10.3461092729
 30
0.0
 10
10.8296746763
 20
10.3468028011
 30
0.0
 10
10.830207004
 20
10.3476350338
 30
0.0
 10
10.8307393251
 20
10.3484672669
 30
0.0
 10
10.8314490889
 20
10.3495769108
 30
0.0
 10
10.8323362928
 20
10.3509639658
 30
0.0
 10
10.8332234972
 20
10.3523510207
 30
0.0
 10
10.8339332601
 20
10.3534606647
 30
0.0
 10
10.834465584
 20
10.3542928977
 30
0.0
 10
10.8349979013
 20
10.3551251307
 30
0.0
 10
10.8354415195
 20
10.3558186579
 30
0.0
 10
10.8357963683
 20
10.3563734805
 30
0.0
 10
10.8360182529
 20
10.3567202428
 30
0.0
 10
10.8361955223
 20
10.3569976567
 30
0.0
 10
10.8363291266
 20
10.357205706
 30
0.0
 10
10.8364383887
 20
10.357379116
 30
0.0
 10
10.8365189438
 20
10.357500433
 30
0.0
 10
10.8365586179
 20
10.3575698664
 30
0.0
 10
10.8366062825
 20
10.3576216335
 30
0.0
 10
10.8365854895
 20
10.3576745774
 30
0.0
 10
10.8365816443
 20
10.3577447588
 30
0.0
 10
10.8365637896
 20
10.3578677676
 30
0.0
 10
10.8365440994
 20
10.3580433944
 30
0.0
 10
10.8365179816
 20
10.3582541894
 30
0.0
 10
10.8364840273
 20
10.3585352344
 30
0.0
 10
10.8364412868
 20
10.3588865458
 30
0.0
 10
10.8363730684
 20
10.3594486411
 30
0.0
 10
10.8362877383
 20
10.3601512613
 30
0.0
 10
10.8361853667
 20
10.3609944051
 30
0.0
 10
10.8360829885
 20
10.361837549
 30
0.0
 10
10.8359464865
 20
10.3629617409
 30
0.0
 10
10.8357758581
 20
10.3643669807
 30
0.0
 10
10.8356052304
 20
10.3657722205
 30
0.0
 10
10.8354687275
 20
10.3668964123
 30
0.0
 10
10.835366352
 20
10.3677395563
 30
0.0
 10
10.8352639701
 20
10.3685827
 30
0.0
 10
10.835178672
 20
10.3692853204
 30
0.0
 10
10.8351103882
 20
10.3698474152
 30
0.0
 10
10.8350678142
 20
10.370198728
 30
0.0
 10
10.8350335182
 20
10.3704797702
 30
0.0
 10
10.8350084445
 20
10.3706905737
 30
0.0
 10
10.8349854877
 20
10.3708661739
 30
0.0
 10
10.8349734645
 20
10.3709892301
 30
0.0
 10
10.8349602757
 20
10.3710593356
 30
0.0
 10
10.8349681832
 20
10.3711125129
 30
0.0
 10
10.8349080536
 20
10.3711634033
 30
0.0
 10
10.8348516129
 20
10.3712320548
 30
0.0
 10
10.8347417846
 20
10.3713518233
 30
0.0
 10
10.8345906677
 20
10.3715231155
 30
0.0
 10
10.8344068531
 20
10.3717285829
 30
0.0
 10
10.8341626313
 20
10.3720025685
 30
0.0
 10
10.833857058
 20
10.3723450406
 30
0.0
 10
10.8333683062
 20
10.3728930015
 30
0.0
 10
10.8327573096
 20
10.3735779507
 30
0.0
 10
10.8320241381
 20
10.3743998906
 30
0.0
 10
10.8312909601
 20
10.3752218303
 30
0.0
 10
10.8303133917
 20
10.3763177499
 30
0.0
 10
10.8290914303
 20
10.3776876494
 30
0.0
 10
10.8278694695
 20
10.3790575489
 30
0.0
 10
10.8268919002
 20
10.3801534685
 30
0.0
 10
10.8261587249
 20
10.3809754083
 30
0.0
 10
10.8254255431
 20
10.3817973477
 30
0.0
 10
10.8248145786
 20
10.3824822984
 30
0.0
 10
10.8243257615
 20
10.3830302562
 30
0.0
 10
10.8240203544
 20
10.3833727362
 30
0.0
 10
10.8237757915
 20
10.3836467055
 30
0.0
 10
10.8235930187
 20
10.3838522229
 30
0.0
 10
10.8234386424
 20
10.3840233586
 30
0.0
 10
10.8233346328
 20
10.3841434065
 30
0.0
 10
10.8232688689
 20
10.3842116103
 30
0.0
 10
10.8232373771
 20
10.3842638759
 30
0.0
 10
10.8231377261
 20
10.3843118883
 30
0.0
 10
10.8230286328
 20
10.3843773884
 30
0.0
 10
10.8228266424
 20
10.3844913224
 30
0.0
 10
10.822543876
 20
10.3846544465
 30
0.0
 10
10.8222020774
 20
10.3848500409
 30
0.0
 10
10.8217472118
 20
10.3851108873
 30
0.0
 10
10.8211783333
 20
10.3854369269
 30
0.0
 10
10.8202682934
 20
10.3859586006
 30
0.0
 10
10.8191306867
 20
10.3866106892
 30
0.0
 10
10.817765583
 20
10.3873931969
 30
0.0
 10
10.8164004727
 20
10.3881757043
 30
0.0
 10
10.8145803281
 20
10.3892190476
 30
0.0
 10
10.8123051464
 20
10.3905232267
 30
0.0
 10
10.8100299652
 20
10.3918274058
 30
0.0
 10
10.8082098197
 20
10.3928707491
 30
0.0
 10
10.8068447121
 20
10.3936532567
 30
0.0
 10
10.8054795989
 20
10.3944357634
 30
0.0
 10
10.8043420217
 20
10.3950878554
 30
0.0
 10
10.8034319216
 20
10.3956095221
 30
0.0
 10
10.8028631963
 20
10.3959355795
 30
0.0
 10
10.8024080163
 20
10.3961963893
 30
0.0
 10
10.8020671781
 20
10.3963920958
 30
0.0
 10
10.8017814067
 20
10.3965548689
 30
0.0
 10
10.8015847807
 20
10.3966694297
 30
0.0
 10
10.8014670923
 20
10.3967339254
 30
0.0
 10
10.8013938426
 20
10.3967850231
 30
0.0
 10
10.801263192
 20
10.3968257008
 30
0.0
 10
10.8011090133
 20
10.3968835724
 30
0.0
 10
10.800829872
 20
10.3969831542
 30
0.0
 10
10.8004359758
 20
10.3971262992
 30
0.0
 10
10.7999612128
 20
10.3972976943
 30
0.0
 10
10.7993289245
 20
10.3975263535
 30
0.0
 10
10.7985383146
 20
10.3978121322
 30
0.0
 10
10.7972734783
 20
10.3982694034
 30
0.0
 10
10.7956923849
 20
10.3988409836
 30
0.0
 10
10.7937950934
 20
10.3995268837
 30
0.0
 10
10.7918977965
 20
10.4002127828
 30
0.0
 10
10.7893680691
 20
10.4011273152
 30
0.0
 10
10.7862059094
 20
10.4022704807
 30
0.0
 10
10.7830437493
 20
10.4034136461
 30
0.0
 10
10.7805140225
 20
10.4043281786
 30
0.0
 10
10.7786167237
 20
10.4050140773
 30
0.0
 10
10.7767194389
 20
10.405699979
 30
0.0
 10
10.7751383249
 20
10.406271554
 30
0.0
 10
10.7738735308
 20
10.406728836
 30
0.0
 10
10.7730828132
 20
10.4070145871
 30
0.0
 10
10.772450746
 20
10.4072433029
 30
0.0
 10
10.7719753078
 20
10.4074145252
 30
0.0
 10
10.7715835239
 20
10.4075582108
 30
0.0
 10
10.7712601958
 20
10.4076709158
 30
0.0
 10
10.7710447539
 20
10.4077615746
 30
0.0
 10
10.7707260457
 20
10.4078288353
 30
0.0
 10
10.7703371736
 20
10.4079266895
 30
0.0
 10
10.7698387073
 20
10.4080462031
 30
0.0
 10
10.7692458452
 20
10.4081908197
 30
0.0
 10
10.7684535121
 20
10.4083832226
 30
0.0
 10
10.7674637293
 20
10.4086238697
 30
0.0
 10
10.7658797227
 20
10.4090088249
 30
0.0
 10
10.763899836
 20
10.4094900464
 30
0.0
 10
10.7615239198
 20
10.4100675004
 30
0.0
 10
10.7591480176
 20
10.4106449576
 30
0.0
 10
10.7559801428
 20
10.4114148994
 30
0.0
 10
10.7520203029
 20
10.4123773275
 30
0.0
 10
10.747268486
 20
10.4135322384
 30
0.0
 10
10.7433086637
 20
10.4144946725
 30
0.0
 10
10.74014075
 20
10.415264601
 30
0.0
 10
10.7381609312
 20
10.4157458491
 30
0.0
 10
10.7365767848
 20
10.4161307497
 30
0.0
 10
10.7353894726
 20
10.4164196932
 30
0.0
 10
10.7343975084
 20
10.4166596267
 30
0.0
 10
10.733708113
 20
10.4168292536
 30
0.0
 10
10.7333063977
 20
10.4169235702
 30
0.0
 10
10.7330270136
 20
10.4170016687
 30
0.0
 10
10.7326639074
 20
10.4170516296
 30
0.0
 10
10.732208969
 20
10.4171280589
 30
0.0
 10
10.7313992204
 20
10.4172572371
 30
0.0
 10
10.7302495503
 20
10.4174441683
 30
0.0
 10
10.7288669014
 20
10.4176674624
 30
0.0
 10
10.727024433
 20
10.4179655452
 30
0.0
 10
10.7247209833
 20
10.4183380264
 30
0.0
 10
10.7210356674
 20
10.4189340647
 30
0.0
 10
10.7164289522
 20
10.419679089
 30
0.0
 10
10.7109009259
 20
10.420573129
 30
0.0
 10
10.7053728846
 20
10.4214671633
 30
0.0
 10
10.7007662071
 20
10.4222122017
 30
0.0
 10
10.6970808158
 20
10.4228082116
 30
0.0
 10
10.6947775575
 20
10.4231807649
 30
0.0
 10
10.6929346963
 20
10.4234786998
 30
0.0
 10
10.6915532474
 20
10.423702446
 30
0.0
 10
10.6903998229
 20
10.4238879627
 30
0.0
 10
10.6895967765
 20
10.424019666
 30
0.0
 10
10.6891310995
 20
10.4240920495
 30
0.0
 10
10.688800979
 20
10.4241544373
 30
0.0
 10
10.688397706
 20
10.4241858624
 30
0.0
 10
10.687885525
 20
10.4242385627
 30
0.0
 10
10.6869773198
 20
10.4243257561
 30
0.0
 10
10.6856860993
 20
10.4244529489
 30
0.0
 10
10.6841339742
 20
10.4246044543
 30
0.0
 10
10.6820654033
 20
10.4248068547
 30
0.0
 10
10.6794793715
 20
10.4250597206
 30
0.0
 10
10.6753418986
 20
10.4254643813
 30
0.0
 10
10.6701699963
 20
10.4259701813
 30
0.0
 10
10.6639637397
 20
10.4265771524
 30
0.0
 10
10.6577574762
 20
10.4271841206
 30
0.0
 10
10.6494824606
 20
10.4279934124
 30
0.0
 10
10.6432761983
 20
10.4286003811
 30
0.0
 10
10.6391386903
 20
10.429005027
 30
0.0
  0
ENDSEC
  0
SECTION
  2
OBJECTS
  0
DICTIONARY
  5
C
100
AcDbDictionary
280
0
281
1
  3
ACAD_GROUP
350
D
  3
ACAD_MLINESTYLE
350
17
  3
ACAD_LAYOUT
350
1A
  3
ACAD_PLOTSETTINGS
350
19
  3
ACAD_PLOTSTYLENAME
350
E
  3
ACAD_IMAGE_DICT
350
       383
  3
ACAD_IMAGE_VARS
350
       384
  3
ACAD_TABLESTYLE
350
       385
  0
IMAGEDEF_REACTOR
  5
382
100
AcDbRasterImageDefReactor
 90
2
330
280
  0
DICTIONARY
  5
D
102
{ACAD_REACTORS
330
C
102
}
100
AcDbDictionary
280
0
281
1
  0
ACDBDICTIONARYWDFLT
  5
E
102
{ACAD_REACTORS
330
C
102
}
100
AcDbDictionary
281
1
  3
Normal
350
F
100
AcDbDictionaryWithDefault
340
F
  0
DICTIONARY
  5
383
330
C
100
AcDbDictionary
281
1
  3
ZVB_assy_2_img_1
350
       388
  0
RASTERVARIABLES
  5
384
330
C
100
AcDbRasterVariables
 90
0
 70
0
 71
1
 72
5
  0
DICTIONARY
  5
17
102
{ACAD_REACTORS
330
C
102
}
100
AcDbDictionary
280
0
281
1
  3
Standard
350
18
  0
DICTIONARY
  5
385
330
C
100
AcDbDictionary
281
1
  3
Standard
350
       389
  3
Standard1
350
       38A
  0
DICTIONARY
  5
19
102
{ACAD_REACTORS
330
C
102
}
100
AcDbDictionary
281
1
  0
DICTIONARY
  5
1A
102
{ACAD_REACTORS
330
C
102
}
100
AcDbDictionary
281
1
  3
Model
350
386
  3
Layout1
350
387
  0
ACDBPLACEHOLDER
  5
F
102
{ACAD_REACTORS
330
E
102
}
  0
MLINESTYLE
  5
18
102
{ACAD_REACTORS
330
17
102
}
100
AcDbMlineStyle
  2
STANDARD
 70
0
  3

 62
256
 51
90.0
 52
90.0
 71
2
 49
0.5
 62
256
  6
BYLAYER
 49
-0.5
 62
256
  6
BYLAYER
  0
LAYOUT
  5
386
102
{ACAD_REACTORS
330
1A
102
}
100
AcDbPlotSettings
  1

  2
none_device
  4
ANSI_C_(22.00_x_17.00_Inches)
  6

 40
0.0
 41
0.0
 42
0.0
 43
0.0
 44
558.8
 45
431.8
 46
0.0
 47
0.0
 48
0.0
 49
0.0
140
0.0
141
0.0
142
1.0
143
1.0
 70
1024
 72
0
 73
0
 74
0
  7

 75
0
147
1.0
148
0.0
149
0.0
100
AcDbLayout
  1
Model
 70
0
 71
0
 10
0.0
 20
0.0
 11
22.0
 21
17.0
 12
0.0
 22
0.0
 32
0.0
 14
0.0
 24
0.0
 34
0.0
 15
0.0
 25
0.0
 35
0.0
146
0.0
 13
0.0
 23
0.0
 33
0.0
 16
1.0
 26
0.0
 36
0.0
 17
0.0
 27
1.0
 37
0.0
 76
0
330
207
345
0
346
0
  0
LAYOUT
  5
387
102
{ACAD_REACTORS
330
1A
102
}
100
AcDbPlotSettings
  1

  2
none_device
  4
ANSI_C_(22.00_x_17.00_Inches)
  6

 40
0.0
 41
0.0
 42
0.0
 43
0.0
 44
558.8
 45
431.8
 46
0.0
 47
0.0
 48
0.0
 49
0.0
140
0.0
141
0.0
142
1.0
143
1.0
 70
0
 72
0
 73
0
 74
0
  7

 75
0
147
1.0
148
0.0
149
0.0
100
AcDbLayout
  1
Layout1
 70
0
 71
1
 10
0.0
 20
0.0
 11
22.0
 21
17.0
 12
0.0
 22
0.0
 32
0.0
 14
0.0
 24
0.0
 34
0.0
 15
0.0
 25
0.0
 35
0.0
146
0.0
 13
0.0
 23
0.0
 33
0.0
 16
1.0
 26
0.0
 36
0.0
 17
0.0
 27
1.0
 37
0.0
 76
0
330
208
345
0
346
0
  0
IMAGEDEF
  5
388
102
{ACAD_REACTORS
330
383
330
382
102
}
100
AcDbRasterImageDef
 90
0
  1
ZVB_assy_2_img_1.png
 10
369.0
 20
92.0
 11
0.0066666667
 21
0.0066666667
280
1
281
0
  0
TABLESTYLE
  5
389
102
{ACAD_REACTORS
330
385
330
283
330
284
102
}
330
385
100
AcDbTableStyle
  3
Standard
 70
0
 71
0
 40
0.06
 41
0.06
280
1
281
1
  7
Standard
140
0.18
170
1
 62
0
 63
7
283
0
  7
Standard
140
0.18
170
1
 62
0
 63
7
283
0
  7
Standard
140
0.18
170
1
 62
0
 63
7
283
0
  0
TABLESTYLE
  5
38A
102
{ACAD_REACTORS
330
385
330
282
102
}
330
385
100
AcDbTableStyle
  3
Standard1
 70
1
 71
0
 40
0.06
 41
0.06
280
1
281
1
  7
Standard
140
0.18
170
1
 62
0
 63
7
283
0
  7
Standard
140
0.18
170
1
 62
0
 63
7
283
0
  7
Standard
140
0.18
170
1
 62
0
 63
7
283
0
  0
ENDSEC
  0
EOF
