999
DXF file: ZUO_assy_2.dxf
999
Pro/ENGINEER 2014200 by Parametric Technology Corporation
  0
SECTION
  2
HEADER
  9
$ACADVER
  1
AC1021
  9
$DWGCODEPAGE
  3
ANSI_1252
  9
$EXTMAX
 10
22.0
 20
17.0
 30
0.0
  9
$EXTMIN
 10
0.0
 20
0.0
 30
0.0
  9
$LIMMIN
 10
0.0
 20
0.0
  9
$LIMMAX
 10
22.0
 20
17.0
  9
$VIEWCTR
 10
11.0
 20
8.5
  9
$VIEWSIZE
 40
17.0
  9
$CLAYER
  8
0
  9
$LTSCALE
 40
1.21
  9
$CELTYPE
  6
BYLAYER
  9
$DIMSCALE
 40
1.0
  9
$DIMASZ
 40
0.1875
  9
$DIMEXO
 40
0.0625
  9
$DIMDLI
 40
0.836
  9
$DIMEXE
 40
0.125
  9
$DIMCEN
 40
0.198
  9
$DIMLFAC
 40
1.0
  9
$DIMBLK
  1
_FILLED
  9
$DIMTXT
 40
0.1
  9
$DIMTOL
 70
0
  9
$DIMLIM
 70
0
  9
$DIMTFAC
 40
1.0
  9
$DIMGAP
 40
0.09
  9
$DIMDSEP
 70
46
  9
$AUNITS
 70
0
  9
$PDMODE
 70
3
  9
$PDSIZE
 40
0.3125
  9
$HANDSEED
  5
380
  9
$TILEMODE
 70
1
  9
$MEASUREMENT
 70
0
  9
$INSUNITS
 70
1
  0
ENDSEC
  0
SECTION
  2
CLASSES
  0
CLASS
  1
ACDBDICTIONARYWDFLT
  2
AcDbDictionaryWithDefault
  3
AutoCAD 2000
 90
0
 91
1
280
0
281
0
  0
CLASS
  1
ACDBPLACEHOLDER
  2
AcDbPlaceHolder
  3
AutoCAD 2000
 90
0
 91
1
280
0
281
0
  0
CLASS
  1
LAYOUT
  2
AcDbLayout
  3
AutoCAD 2000
 90
0
 91
0
280
0
281
0
  0
CLASS
  1
RASTERVARIABLES
  2
AcDbRasterVariables
  3
ISM
 90
0
 91
1
280
0
281
0
  0
CLASS
  1
IMAGEDEF
  2
AcDbRasterImageDef
  3
ISM
 90
0
 91
1
280
0
281
0
  0
CLASS
  1
IMAGEDEF_REACTOR
  2
AcDbRasterImageDefReactor
  3
ISM
 90
0
 91
1
280
0
281
0
  0
CLASS
  1
IMAGE
  2
AcDbRasterImage
  3
ISM
 90
127
 91
1
280
0
281
1
  0
CLASS
  1
TABLESTYLE
  2
AcDbTableStyle
  3
ObjectDBX Classes
 90
2047
 91
1
280
0
281
0
  0
CLASS
  1
ACAD_TABLE
  2
AcDbTable
  3
ObjectDBX Classes
 90
1025
 91
3
280
0
281
1
  0
ENDSEC
  0
SECTION
  2
TABLES
  0
TABLE
  2
VPORT
  5
8
100
AcDbSymbolTable
 70
2
  0
VPORT
  5
1F4
100
AcDbSymbolTableRecord
100
AcDbViewportTableRecord
  2
*ACTIVE
 70
0
 10
0.0
 20
0.0
 11
1.0
 21
1.0
 12
11.0
 22
8.5
 13
0.0
 23
0.0
 14
1.0
 24
1.0
 15
0.0
 25
0.0
 16
0.0
 26
0.0
 36
1.0
 17
0.0
 27
0.0
 37
0.0
 40
17.0
 41
1.2941176471
 42
50.0
 43
0.0
 44
0.0
 50
0.0
 51
0.0
 71
0
 72
100
 73
1
 74
1
 75
0
 76
0
 77
0
 78
0
  0
ENDTAB
  0
TABLE
  2
LTYPE
  5
5
100
AcDbSymbolTable
 70
6
  0
LTYPE
  5
14
100
AcDbSymbolTableRecord
100
AcDbLinetypeTableRecord
  2
BYBLOCK
 70
0
  3

 72
65
 73
0
 40
0.0
  0
LTYPE
  5
15
100
AcDbSymbolTableRecord
100
AcDbLinetypeTableRecord
  2
BYLAYER
 70
0
  3

 72
65
 73
0
 40
0.0
  0
LTYPE
  5
16
100
AcDbSymbolTableRecord
100
AcDbLinetypeTableRecord
  2
CONTINUOUS
 70
64
  3
Solid line
 72
65
 73
0
 40
0.0
  0
LTYPE
  5
1F5
100
AcDbSymbolTableRecord
100
AcDbLinetypeTableRecord
  2
CENTER
 70
64
  3
____ _ ____ _ ____ _ ____ _ ____ _ ____ _ ____
 72
65
 73
4
 40
0.6
 49
0.375
 74
0
 49
-0.075
 74
0
 49
0.075
 74
0
 49
-0.075
 74
0
  0
LTYPE
  5
1F6
100
AcDbSymbolTableRecord
100
AcDbLinetypeTableRecord
  2
HIDDEN
 70
64
  3
- - - - - - - - - - - - - - - - - - - -
 72
65
 73
2
 40
0.2
 49
0.1
 74
0
 49
-0.1
 74
0
  0
LTYPE
  5
1F7
100
AcDbSymbolTableRecord
100
AcDbLinetypeTableRecord
  2
PHANTOM
 70
64
  3
_____ _ _ _____ _ _ _____ _ _ _____
 72
65
 73
6
 40
0.8
 49
0.45
 74
0
 49
-0.05
 74
0
 49
0.1
 74
0
 49
-0.05
 74
0
 49
0.1
 74
0
 49
-0.05
 74
0
  0
LTYPE
  5
1F8
100
AcDbSymbolTableRecord
100
AcDbLinetypeTableRecord
  2
DOT
 70
64
  3
. . . . . . . . . . . . . . . . . . . .
 72
65
 73
2
 40
0.2
 49
0.1
 74
0
 49
-0.1
 74
0
  0
LTYPE
  5
1F9
100
AcDbSymbolTableRecord
100
AcDbLinetypeTableRecord
  2
DASHED
 70
64
  3
- - - - - - - - - - - - - - - - - - - -
 72
65
 73
2
 40
0.2
 49
0.1
 74
0
 49
-0.1
 74
0
  0
ENDTAB
  0
TABLE
  2
LAYER
  5
2
100
AcDbSymbolTable
 70
36
  0
LAYER
  5
10
100
AcDbSymbolTableRecord
100
AcDbLayerTableRecord
  2
0
 70
0
 62
7
  6
CONTINUOUS
370
-3
390
F
  0
LAYER
  5
1FA
100
AcDbSymbolTableRecord
100
AcDbLayerTableRecord
  2
DEFAULT_1
 70
0
 62
7
  6
CENTER
370
-3
390
F
  0
LAYER
  5
1FB
100
AcDbSymbolTableRecord
100
AcDbLayerTableRecord
  2
DEFAULT_2
 70
0
 62
8
  6
HIDDEN
370
-3
390
F
  0
LAYER
  5
1FC
100
AcDbSymbolTableRecord
100
AcDbLayerTableRecord
  2
DEFAULT_3
 70
0
 62
7
  6
PHANTOM
370
-3
390
F
  0
LAYER
  5
1FD
100
AcDbSymbolTableRecord
100
AcDbLayerTableRecord
  2
DATUM_PLANES
 70
0
 62
7
  6
CONTINUOUS
370
-3
390
F
  0
LAYER
  5
1FE
100
AcDbSymbolTableRecord
100
AcDbLayerTableRecord
  2
DIMENSIONS
 70
0
 62
7
  6
CONTINUOUS
370
-3
390
F
  0
LAYER
  5
1FF
100
AcDbSymbolTableRecord
100
AcDbLayerTableRecord
  2
PARAMETERDIMENSIONS
 70
0
 62
7
  6
CONTINUOUS
370
-3
390
F
  0
LAYER
  5
200
100
AcDbSymbolTableRecord
100
AcDbLayerTableRecord
  2
PLANE
 70
0
 62
7
  6
CONTINUOUS
370
-3
390
F
  0
LAYER
  5
201
100
AcDbSymbolTableRecord
100
AcDbLayerTableRecord
  2
PORT_AREAS
 70
0
 62
7
  6
CONTINUOUS
370
-3
390
F
  0
LAYER
  5
202
100
AcDbSymbolTableRecord
100
AcDbLayerTableRecord
  2
SUNNBOMCOSMETIC
 70
0
 62
7
  6
CONTINUOUS
370
-3
390
F
  0
LAYER
  5
203
100
AcDbSymbolTableRecord
100
AcDbLayerTableRecord
  2
SUNNBOMSTAMPING
 70
0
 62
7
  6
CONTINUOUS
370
-3
390
F
  0
LAYER
  5
204
100
AcDbSymbolTableRecord
100
AcDbLayerTableRecord
  2
THREADS
 70
0
 62
7
  6
CONTINUOUS
370
-3
390
F
  0
ENDTAB
  0
TABLE
  2
STYLE
  5
3
100
AcDbSymbolTable
 70
1
  0
STYLE
  5
11
100
AcDbSymbolTableRecord
100
AcDbTextStyleTableRecord
  2
STANDARD
 70
0
 40
0.0
 41
0.8
 50
0.0
 71
0
 42
0.2
  3
txt
  4

  0
STYLE
  5
205
100
AcDbSymbolTableRecord
100
AcDbTextStyleTableRecord
  2
TEXTSTYLE_1
 70
0
 40
0.0
 41
0.8
 50
0.0
 71
0
 42
0.2
  3
gdt
  4

  0
ENDTAB
  0
TABLE
  2
VIEW
  5
6
100
AcDbSymbolTable
 70
0
  0
ENDTAB
  0
TABLE
  2
UCS
  5
7
100
AcDbSymbolTable
 70
0
  0
ENDTAB
  0
TABLE
  2
APPID
  5
9
100
AcDbSymbolTable
 70
1
  0
APPID
  5
206
100
AcDbSymbolTableRecord
100
AcDbRegAppTableRecord
  2
ACAD
 70
0
  0
ENDTAB
  0
TABLE
  2
BLOCK_RECORD
  5
1
100
AcDbSymbolTable
 70
0
  0
BLOCK_RECORD
  5
207
100
AcDbSymbolTableRecord
100
AcDbBlockTableRecord
  2
*Model_Space
  0
BLOCK_RECORD
  5
208
100
AcDbSymbolTableRecord
100
AcDbBlockTableRecord
  2
*Paper_Space
  0
BLOCK_RECORD
  5
209
100
AcDbSymbolTableRecord
100
AcDbBlockTableRecord
  2
SUN_FIRST_THIRD_ANGLE_BL0
  0
BLOCK_RECORD
  5
20A
100
AcDbSymbolTableRecord
100
AcDbBlockTableRecord
  2
*T1
  0
BLOCK_RECORD
  5
20B
100
AcDbSymbolTableRecord
100
AcDbBlockTableRecord
  2
*T2
  0
BLOCK_RECORD
  5
20C
100
AcDbSymbolTableRecord
100
AcDbBlockTableRecord
  2
*T3
  0
ENDTAB
  0
TABLE
  2
DIMSTYLE
  5
A
100
AcDbSymbolTable
 70
1
100
AcDbDimStyleTable
 71
0
  0
DIMSTYLE
105
20D
100
AcDbSymbolTableRecord
100
AcDbDimStyleTableRecord
  2
STANDARD
 70
0
  3

  4

 40
1.0
 41
0.1875
 42
0.0625
 43
0.38
 44
0.125
 45
0.0
 46
0.0
 47
0.001
 48
0.001
140
0.1
141
0.09
142
0.0
143
25.4
144
1.0
145
0.0
146
1.0
147
0.09
 71
0.0
 72
0.0
 73
1
 74
1
 75
0
 76
0
 77
0
 78
4
170
0
171
2
172
0
173
0
174
0
175
0
176
0
177
0
178
0
270
2
271
3
272
3
273
2
274
2
275
0
280
0
281
0
282
0
283
1
284
4
285
0
286
0
287
3
288
0
340
11
278
46
  0
ENDTAB
  0
ENDSEC
  0
SECTION
  2
BLOCKS
  0
BLOCK
  5
20
100
AcDbEntity
  8
0
100
AcDbBlockBegin
  2
*Model_Space
 70
0
 10
0.0
 20
0.0
 30
0.0
  3
*Model_Space
  1

  0
ENDBLK
  5
21
100
AcDbEntity
  8
0
100
AcDbBlockEnd
  0
BLOCK
  5
1C
100
AcDbEntity
  8
0
100
AcDbBlockBegin
  2
*Paper_Space
 70
0
 10
0.0
 20
0.0
 30
0.0
  3
*Paper_Space
  1

  0
ENDBLK
  5
1D
100
AcDbEntity
  8
0
100
AcDbBlockEnd
  0
BLOCK
  5
20E
100
AcDbEntity
  8
0
100
AcDbBlockBegin
 62
2
  6
CONTINUOUS
  2
SUN_FIRST_THIRD_ANGLE_BL0
 70
64
 10
20.4816717061
 20
1.2289683772
  3
SUN_FIRST_THIRD_ANGLE_BL0
  1

  0
TEXT
  5
20F
100
AcDbEntity
  8
0
100
AcDbText
 62
2
  6
CONTINUOUS
 10
19.4750896608
 20
1.4136269581
  7
STANDARD
 40
0.08
  1
FIRST ANGLE
 41
0.8
 72
0
100
AcDbText
  0
TEXT
  5
210
100
AcDbEntity
  8
0
100
AcDbText
 62
2
  6
CONTINUOUS
 10
20.7842537513
 20
1.4047600029
  7
STANDARD
 40
0.08
  1
THIRD ANGLE
 41
0.8
 72
0
100
AcDbText
  0
LINE
  5
211
100
AcDbEntity
  8
0
100
AcDbLine
 62
7
  6
CONTINUOUS
 10
19.4767170086
 20
1.1727031207
 11
19.6334271527
 21
1.1717972817
  0
LINE
  5
212
100
AcDbEntity
  8
0
100
AcDbLine
 62
7
  6
CONTINUOUS
 10
19.6596964832
 20
1.1717972817
 11
19.6950230232
 21
1.171593082
  0
LINE
  5
213
100
AcDbEntity
  8
0
100
AcDbLine
 62
7
  6
CONTINUOUS
 10
19.7194818561
 20
1.1708914427
 11
19.8852396156
 21
1.1699333054
  0
LINE
  5
214
100
AcDbEntity
  8
0
100
AcDbLine
 62
7
  6
CONTINUOUS
 10
19.4758111696
 20
1.2723454088
 11
19.88525039
 21
1.3511534004
  0
LINE
  5
215
100
AcDbEntity
  8
0
100
AcDbLine
 62
7
  6
CONTINUOUS
 10
19.88525039
 20
1.3511534004
 11
19.8831348489
 21
0.9851647912
  0
LINE
  5
216
100
AcDbEntity
  8
0
100
AcDbLine
 62
7
  6
CONTINUOUS
 10
19.8831348489
 20
0.9851647912
 11
19.4767170086
 21
1.0658141206
  0
LINE
  5
217
100
AcDbEntity
  8
0
100
AcDbLine
 62
7
  6
CONTINUOUS
 10
19.4767170086
 20
1.0658141206
 11
19.4779056764
 21
1.2714536432
  0
CIRCLE
  5
218
100
AcDbEntity
  8
0
100
AcDbCircle
 62
7
  6
CONTINUOUS
 10
20.2068232291
 20
1.1717972817
 40
0.175742101
  0
CIRCLE
  5
219
100
AcDbEntity
  8
0
100
AcDbCircle
 62
7
  6
CONTINUOUS
 10
20.2068232291
 20
1.1717972817
 40
0.1005522074
  0
LINE
  5
21A
100
AcDbEntity
  8
0
100
AcDbLine
 62
7
  6
CONTINUOUS
 10
20.2077290681
 20
1.3756110529
 11
20.2071171714
 21
1.2379342989
  0
LINE
  5
21B
100
AcDbEntity
  8
0
100
AcDbLine
 62
7
  6
CONTINUOUS
 10
20.2077290681
 20
1.2016899681
 11
20.2074674401
 21
1.1428236749
  0
LINE
  5
21C
100
AcDbEntity
  8
0
100
AcDbLine
 62
7
  6
CONTINUOUS
 10
20.208634907
 20
1.101141841
 11
20.2080230104
 21
0.963465087
  0
LINE
  5
21D
100
AcDbEntity
  8
0
100
AcDbLine
 62
7
  6
CONTINUOUS
 10
20.0066328138
 20
1.1745147986
 11
20.1443095678
 21
1.1739029019
  0
LINE
  5
21E
100
AcDbEntity
  8
0
100
AcDbLine
 62
7
  6
CONTINUOUS
 10
20.1832714155
 20
1.1727031207
 11
20.238153505
 21
1.172335442
  0
LINE
  5
21F
100
AcDbEntity
  8
0
100
AcDbLine
 62
7
  6
CONTINUOUS
 10
20.2756669918
 20
1.1717972817
 11
20.407916871
 21
1.1712095044
  0
CIRCLE
  5
220
100
AcDbEntity
  8
0
100
AcDbCircle
 62
7
  6
CONTINUOUS
 10
20.7509457401
 20
1.1693297793
 40
0.1722024983
  0
CIRCLE
  5
221
100
AcDbEntity
  8
0
100
AcDbCircle
 62
7
  6
CONTINUOUS
 10
20.7509457401
 20
1.1693297793
 40
0.0985164967
  0
LINE
  5
222
100
AcDbEntity
  8
0
100
AcDbLine
 62
7
  6
CONTINUOUS
 10
20.7169767782
 20
1.170462078
 11
20.7825395137
 21
1.1682766535
  0
LINE
  5
223
100
AcDbEntity
  8
0
100
AcDbLine
 62
7
  6
CONTINUOUS
 10
20.8177513651
 20
1.1693297793
 11
20.947965719
 21
1.1693297793
  0
LINE
  5
224
100
AcDbEntity
  8
0
100
AcDbLine
 62
7
  6
CONTINUOUS
 10
20.6875370113
 20
1.170462078
 11
20.5573226574
 21
1.170462078
  0
LINE
  5
225
100
AcDbEntity
  8
0
100
AcDbLine
 62
7
  6
CONTINUOUS
 10
20.7486811426
 20
1.1987695462
 11
20.7486811426
 21
1.1432869085
  0
LINE
  5
226
100
AcDbEntity
  8
0
100
AcDbLine
 62
7
  6
CONTINUOUS
 10
20.7498134414
 20
1.1059210505
 11
20.7498134414
 21
0.9757066966
  0
LINE
  5
227
100
AcDbEntity
  8
0
100
AcDbLine
 62
7
  6
CONTINUOUS
 10
20.7486811426
 20
1.2338708068
 11
20.7486811426
 21
1.3640851607
  0
LINE
  5
228
100
AcDbEntity
  8
0
100
AcDbLine
 62
7
  6
CONTINUOUS
 10
21.0702539817
 20
1.2701043662
 11
21.4790138229
 21
1.3448360823
  0
LINE
  5
229
100
AcDbEntity
  8
0
100
AcDbLine
 62
7
  6
CONTINUOUS
 10
21.4790138229
 20
1.3448360823
 11
21.4790138229
 21
0.9779712941
  0
LINE
  5
22A
100
AcDbEntity
  8
0
100
AcDbLine
 62
7
  6
CONTINUOUS
 10
21.4790138229
 20
0.9779712941
 11
21.069121683
 21
1.0617614
  0
LINE
  5
22B
100
AcDbEntity
  8
0
100
AcDbLine
 62
7
  6
CONTINUOUS
 10
21.0702539817
 20
1.2701043662
 11
21.069121683
 21
1.0617614
  0
LINE
  5
22C
100
AcDbEntity
  8
0
100
AcDbLine
 62
7
  6
CONTINUOUS
 10
21.4790138229
 20
1.1693297793
 11
21.3159628059
 21
1.1693297793
  0
LINE
  5
22D
100
AcDbEntity
  8
0
100
AcDbLine
 62
7
  6
CONTINUOUS
 10
21.2876553377
 20
1.1693297793
 11
21.2502894796
 21
1.1693297793
  0
LINE
  5
22E
100
AcDbEntity
  8
0
100
AcDbLine
 62
7
  6
CONTINUOUS
 10
21.2208497126
 20
1.1659328831
 11
21.0713862804
 21
1.1659328831
  0
LINE
  5
22F
100
AcDbEntity
  8
0
100
AcDbLine
 62
7
  6
CONTINUOUS
 10
20.4796138713
 20
1.5284908897
 11
20.4766766948
 21
0.9294458646
  0
ENDBLK
  5
230
100
AcDbEntity
  8
0
  6
BYBLOCK
 62
0
100
AcDbBlockEnd
  0
BLOCK
  5
231
100
AcDbEntity
  8
0
100
AcDbBlockBegin
  2
*T1
 70
1
 10
0.0
 20
0.0
  3
*T1
  1

  0
LINE
  5
232
100
AcDbEntity
  8
0
100
AcDbLine
 62
2
  6
CONTINUOUS
 10
9.275
 20
0.0
 11
-0.0
 21
0.0
  0
LINE
  5
233
100
AcDbEntity
  8
0
100
AcDbLine
 62
2
  6
CONTINUOUS
 10
9.275
 20
0.0
 11
9.275
 21
1.25
  0
LINE
  5
234
100
AcDbEntity
  8
0
100
AcDbLine
 62
2
  6
CONTINUOUS
 10
9.275
 20
0.625
 11
-0.0
 21
0.625
  0
LINE
  5
235
100
AcDbEntity
  8
0
100
AcDbLine
 62
2
  6
CONTINUOUS
 10
9.275
 20
1.25
 11
-0.0
 21
1.25
  0
LINE
  5
236
100
AcDbEntity
  8
0
100
AcDbLine
 62
2
  6
CONTINUOUS
 10
6.8
 20
0.0
 11
6.8
 21
1.25
  0
LINE
  5
237
100
AcDbEntity
  8
0
100
AcDbLine
 62
2
  6
CONTINUOUS
 10
6.4
 20
0.0
 11
6.4
 21
0.625
  0
LINE
  5
238
100
AcDbEntity
  8
0
100
AcDbLine
 62
2
  6
CONTINUOUS
 10
5.9
 20
0.0
 11
5.9
 21
0.625
  0
LINE
  5
239
100
AcDbEntity
  8
0
100
AcDbLine
 62
2
  6
CONTINUOUS
 10
5.2
 20
0.0
 11
5.2
 21
0.625
  0
LINE
  5
23A
100
AcDbEntity
  8
0
100
AcDbLine
 62
2
  6
CONTINUOUS
 10
4.1
 20
0.0
 11
4.1
 21
1.25
  0
LINE
  5
23B
100
AcDbEntity
  8
0
100
AcDbLine
 62
2
  6
CONTINUOUS
 10
-0.0
 20
0.0
 11
-0.0
 21
1.25
  0
MTEXT
  5
23C
100
AcDbEntity
  8
0
100
AcDbMText
 62
2
  6
CONTINUOUS
  7
STANDARD
 71
2
 72
1
 10
6.6
 20
0.325
 30
0.0
 11
1.0
 21
0.0
 31
0.0
 44
0.9
  1
2
 40
0.125
 41
0.2
  0
MTEXT
  5
23D
100
AcDbEntity
  8
0
100
AcDbMText
 62
2
  6
CONTINUOUS
  7
STANDARD
 71
2
 72
1
 10
6.15
 20
0.325
 30
0.0
 11
1.0
 21
0.0
 31
0.0
 44
0.9
  1
C
 40
0.125
 41
0.2
  0
MTEXT
  5
23E
100
AcDbEntity
  8
0
100
AcDbMText
 62
2
  6
CONTINUOUS
  7
STANDARD
 71
2
 72
1
 10
5.55
 20
0.325
 30
0.0
 11
1.0
 21
0.0
 31
0.0
 44
0.9
  1
2.000
 40
0.125
 41
1.0
  0
MTEXT
  5
23F
100
AcDbEntity
  8
0
100
AcDbMText
 62
2
  6
CONTINUOUS
  7
STANDARD
 71
2
 72
1
 10
4.65
 20
0.325
 30
0.0
 11
1.0
 21
0.0
 31
0.0
 44
0.9
  1
Aug-29-19
 40
0.125
 41
1.8
  0
MTEXT
  5
240
100
AcDbEntity
  8
0
100
AcDbMText
 62
2
  6
CONTINUOUS
  7
STANDARD
 71
2
 72
1
 10
2.05
 20
0.4625
 30
0.0
 11
1.0
 21
0.0
 31
0.0
 44
0.9
  1
Sandwich ISO 03\PTap in manifold - A and B
 40
0.125
 41
5.0
  0
MTEXT
  5
241
100
AcDbEntity
  8
0
100
AcDbMText
 62
2
  6
CONTINUOUS
  7
STANDARD
 71
1
 72
1
 10
6.45
 20
0.5625
 30
0.0
 11
1.0
 21
0.0
 31
0.0
 44
0.9
  1
SHEET
 40
0.06
 41
0.48
  0
MTEXT
  5
242
100
AcDbEntity
  8
0
100
AcDbMText
 62
2
  6
CONTINUOUS
  7
STANDARD
 71
1
 72
1
 10
5.95
 20
0.5625
 30
0.0
 11
1.0
 21
0.0
 31
0.0
 44
0.9
  1
DWG SIZE
 40
0.06
 41
0.768
  0
MTEXT
  5
243
100
AcDbEntity
  8
0
100
AcDbMText
 62
2
  6
CONTINUOUS
  7
STANDARD
 71
1
 72
1
 10
5.25
 20
0.5625
 30
0.0
 11
1.0
 21
0.0
 31
0.0
 44
0.9
  1
SCALE
 40
0.06
 41
0.48
  0
MTEXT
  5
244
100
AcDbEntity
  8
0
100
AcDbMText
 62
2
  6
CONTINUOUS
  7
STANDARD
 71
1
 72
1
 10
4.15
 20
0.5625
 30
0.0
 11
1.0
 21
0.0
 31
0.0
 44
0.9
  1
DATE
 40
0.06
 41
0.384
  0
MTEXT
  5
245
100
AcDbEntity
  8
0
100
AcDbMText
 62
2
  6
CONTINUOUS
  7
STANDARD
 71
1
 72
1
 10
0.05
 20
0.5625
 30
0.0
 11
1.0
 21
0.0
 31
0.0
 44
0.9
  1
DESCRIPTION
 40
0.06
 41
1.056
  0
MTEXT
  5
246
100
AcDbEntity
  8
0
100
AcDbMText
 62
2
  6
CONTINUOUS
  7
STANDARD
 71
2
 72
1
 10
5.45
 20
1.0375
 30
0.0
 11
1.0
 21
0.0
 31
0.0
 44
0.9
  1
ALL DIMENSIONS IN INCH\PVIEWS ARE THIRD ANGLE
 40
0.12
 41
4.224
  0
MTEXT
  5
247
100
AcDbEntity
  8
0
100
AcDbMText
 62
2
  6
CONTINUOUS
  7
STANDARD
 71
2
 72
1
 10
2.05
 20
0.95
 30
0.0
 11
1.0
 21
0.0
 31
0.0
 44
0.9
  1
ZUO
 40
0.125
 41
0.6
  0
MTEXT
  5
248
100
AcDbEntity
  8
0
100
AcDbMText
 62
2
  6
CONTINUOUS
  7
STANDARD
 71
1
 72
1
 10
0.05
 20
1.1875
 30
0.0
 11
1.0
 21
0.0
 31
0.0
 44
0.9
  1
MODEL
 40
0.06
 41
0.48
  0
ENDBLK
  5
249
100
AcDbEntity
  8
0
  6
BYBLOCK
 62
0
100
AcDbBlockEnd
  0
BLOCK
  5
24A
100
AcDbEntity
  8
0
100
AcDbBlockBegin
  2
*T2
 70
1
 10
0.0
 20
0.0
  3
*T2
  1

  0
LINE
  5
24B
100
AcDbEntity
  8
0
100
AcDbLine
 62
2
  6
CONTINUOUS
 10
0.0
 20
0.0
 11
9.055
 21
0.0
  0
LINE
  5
24C
100
AcDbEntity
  8
0
100
AcDbLine
 62
2
  6
CONTINUOUS
 10
0.0
 20
0.0
 11
0.0
 21
-1.594
  0
LINE
  5
24D
100
AcDbEntity
  8
0
100
AcDbLine
 62
2
  6
CONTINUOUS
 10
0.0
 20
-0.344
 11
9.055
 21
-0.344
  0
LINE
  5
24E
100
AcDbEntity
  8
0
100
AcDbLine
 62
2
  6
CONTINUOUS
 10
0.0
 20
-0.594
 11
9.055
 21
-0.594
  0
LINE
  5
24F
100
AcDbEntity
  8
0
100
AcDbLine
 62
2
  6
CONTINUOUS
 10
0.0
 20
-0.844
 11
9.055
 21
-0.844
  0
LINE
  5
250
100
AcDbEntity
  8
0
100
AcDbLine
 62
2
  6
CONTINUOUS
 10
0.0
 20
-1.094
 11
9.055
 21
-1.094
  0
LINE
  5
251
100
AcDbEntity
  8
0
100
AcDbLine
 62
2
  6
CONTINUOUS
 10
0.0
 20
-1.344
 11
9.055
 21
-1.344
  0
LINE
  5
252
100
AcDbEntity
  8
0
100
AcDbLine
 62
2
  6
CONTINUOUS
 10
0.0
 20
-1.594
 11
9.055
 21
-1.594
  0
LINE
  5
253
100
AcDbEntity
  8
0
100
AcDbLine
 62
2
  6
CONTINUOUS
 10
3.055
 20
0.0
 11
3.055
 21
-1.594
  0
LINE
  5
254
100
AcDbEntity
  8
0
100
AcDbLine
 62
2
  6
CONTINUOUS
 10
9.055
 20
0.0
 11
9.055
 21
-1.594
  0
MTEXT
  5
255
100
AcDbEntity
  8
0
100
AcDbMText
 62
2
  6
CONTINUOUS
  7
STANDARD
 71
2
 72
1
 10
1.5275
 20
-0.0995
 30
0.0
 11
1.0
 21
0.0
 31
0.0
 44
0.9
  1
Technical Data
 40
0.145
 41
3.248
  0
MTEXT
  5
256
100
AcDbEntity
  8
0
100
AcDbMText
 62
2
  6
CONTINUOUS
  7
STANDARD
 71
2
 72
1
 10
4.555
 20
-0.0995
 30
0.0
 11
1.0
 21
0.0
 31
0.0
 44
0.9
  1
U.S. Units
 40
0.145
 41
2.32
  0
MTEXT
  5
257
100
AcDbEntity
  8
0
100
AcDbMText
 62
2
  6
CONTINUOUS
  7
STANDARD
 71
2
 72
1
 10
7.555
 20
-0.0995
 30
0.0
 11
1.0
 21
0.0
 31
0.0
 44
0.9
  1
Metric Units
 40
0.145
 41
2.784
  0
MTEXT
  5
258
100
AcDbEntity
  8
0
100
AcDbMText
 62
2
  6
CONTINUOUS
  7
STANDARD
 71
2
 72
1
 10
1.5275
 20
-0.4065
 30
0.0
 11
1.0
 21
0.0
 31
0.0
 44
0.9
  1
Body Features
 40
0.125
 41
2.6
  0
MTEXT
  5
259
100
AcDbEntity
  8
0
100
AcDbMText
 62
2
  6
CONTINUOUS
  7
STANDARD
 71
2
 72
1
 10
6.055
 20
-0.4065
 30
0.0
 11
1.0
 21
0.0
 31
0.0
 44
0.9
  1
Tap in manifold - A and B
 40
0.125
 41
5.0
  0
MTEXT
  5
25A
100
AcDbEntity
  8
0
100
AcDbMText
 62
2
  6
CONTINUOUS
  7
STANDARD
 71
2
 72
1
 10
1.5275
 20
-0.6565
 30
0.0
 11
1.0
 21
0.0
 31
0.0
 44
0.9
  1
Body Type
 40
0.125
 41
1.8
  0
MTEXT
  5
25B
100
AcDbEntity
  8
0
100
AcDbMText
 62
2
  6
CONTINUOUS
  7
STANDARD
 71
2
 72
1
 10
6.055
 20
-0.6565
 30
0.0
 11
1.0
 21
0.0
 31
0.0
 44
0.9
  1
Sandwich
 40
0.125
 41
1.6
  0
MTEXT
  5
25C
100
AcDbEntity
  8
0
100
AcDbMText
 62
2
  6
CONTINUOUS
  7
STANDARD
 71
2
 72
1
 10
1.5275
 20
-0.9065
 30
0.0
 11
1.0
 21
0.0
 31
0.0
 44
0.9
  1
Interface
 40
0.125
 41
1.8
  0
MTEXT
  5
25D
100
AcDbEntity
  8
0
100
AcDbMText
 62
2
  6
CONTINUOUS
  7
STANDARD
 71
2
 72
1
 10
6.055
 20
-0.9065
 30
0.0
 11
1.0
 21
0.0
 31
0.0
 44
0.9
  1
ISO 03
 40
0.125
 41
1.2
  0
MTEXT
  5
25E
100
AcDbEntity
  8
0
100
AcDbMText
 62
2
  6
CONTINUOUS
  7
STANDARD
 71
2
 72
1
 10
1.5275
 20
-1.1565
 30
0.0
 11
1.0
 21
0.0
 31
0.0
 44
0.9
  1
Stack Height
 40
0.125
 41
2.4
  0
MTEXT
  5
25F
100
AcDbEntity
  8
0
100
AcDbMText
 62
2
  6
CONTINUOUS
  7
STANDARD
 71
2
 72
1
 10
4.555
 20
-1.1565
 30
0.0
 11
1.0
 21
0.0
 31
0.0
 44
0.9
  1
.99 in.
 40
0.125
 41
1.4
  0
MTEXT
  5
260
100
AcDbEntity
  8
0
100
AcDbMText
 62
2
  6
CONTINUOUS
  7
STANDARD
 71
2
 72
1
 10
7.555
 20
-1.1565
 30
0.0
 11
1.0
 21
0.0
 31
0.0
 44
0.9
  1
25 mm
 40
0.125
 41
1.0
  0
MTEXT
  5
261
100
AcDbEntity
  8
0
100
AcDbMText
 62
2
  6
CONTINUOUS
  7
STANDARD
 71
2
 72
1
 10
1.5275
 20
-1.4065
 30
0.0
 11
1.0
 21
0.0
 31
0.0
 44
0.9
  1
Weight
 40
0.125
 41
1.2
  0
MTEXT
  5
262
100
AcDbEntity
  8
0
100
AcDbMText
 62
2
  6
CONTINUOUS
  7
STANDARD
 71
2
 72
1
 10
4.555
 20
-1.4065
 30
0.0
 11
1.0
 21
0.0
 31
0.0
 44
0.9
  1
0.340 lb.
 40
0.125
 41
1.8
  0
MTEXT
  5
263
100
AcDbEntity
  8
0
100
AcDbMText
 62
2
  6
CONTINUOUS
  7
STANDARD
 71
2
 72
1
 10
7.555
 20
-1.4065
 30
0.0
 11
1.0
 21
0.0
 31
0.0
 44
0.9
  1
0,154 kg.
 40
0.125
 41
1.8
  0
ENDBLK
  5
264
100
AcDbEntity
  8
0
  6
BYBLOCK
 62
0
100
AcDbBlockEnd
  0
BLOCK
  5
265
100
AcDbEntity
  8
0
100
AcDbBlockBegin
  2
*T3
 70
1
 10
0.0
 20
0.0
  3
*T3
  1

  0
LINE
  5
266
100
AcDbEntity
  8
0
100
AcDbLine
 62
2
  6
CONTINUOUS
 10
0.0
 20
0.0
 11
4.6
 21
0.0
  0
LINE
  5
267
100
AcDbEntity
  8
0
100
AcDbLine
 62
2
  6
CONTINUOUS
 10
0.0
 20
0.0
 11
0.0
 21
-0.93775
  0
LINE
  5
268
100
AcDbEntity
  8
0
100
AcDbLine
 62
2
  6
CONTINUOUS
 10
0.0
 20
-0.34375
 11
4.6
 21
-0.34375
  0
LINE
  5
269
100
AcDbEntity
  8
0
100
AcDbLine
 62
2
  6
CONTINUOUS
 10
0.0
 20
-0.68775
 11
4.6
 21
-0.68775
  0
LINE
  5
26A
100
AcDbEntity
  8
0
100
AcDbLine
 62
2
  6
CONTINUOUS
 10
0.0
 20
-0.93775
 11
4.6
 21
-0.93775
  0
LINE
  5
26B
100
AcDbEntity
  8
0
100
AcDbLine
 62
2
  6
CONTINUOUS
 10
1.3
 20
-0.34375
 11
1.3
 21
-0.93775
  0
LINE
  5
26C
100
AcDbEntity
  8
0
100
AcDbLine
 62
2
  6
CONTINUOUS
 10
3.3
 20
-0.34375
 11
3.3
 21
-0.93775
  0
LINE
  5
26D
100
AcDbEntity
  8
0
100
AcDbLine
 62
2
  6
CONTINUOUS
 10
4.6
 20
0.0
 11
4.6
 21
-0.93775
  0
MTEXT
  5
26E
100
AcDbEntity
  8
0
100
AcDbMText
 62
2
  6
CONTINUOUS
  7
STANDARD
 71
2
 72
1
 10
2.3
 20
-0.099375
 30
0.0
 11
1.0
 21
0.0
 31
0.0
 44
0.9
  1
Port Headings
 40
0.145
 41
3.016
  0
MTEXT
  5
26F
100
AcDbEntity
  8
0
100
AcDbMText
 62
2
  6
CONTINUOUS
  7
STANDARD
 71
2
 72
1
 10
0.65
 20
-0.44325
 30
0.0
 11
1.0
 21
0.0
 31
0.0
 44
0.9
  1
Product
 40
0.145
 41
1.624
  0
MTEXT
  5
270
100
AcDbEntity
  8
0
100
AcDbMText
 62
2
  6
CONTINUOUS
  7
STANDARD
 71
2
 72
1
 10
2.3
 20
-0.44325
 30
0.0
 11
1.0
 21
0.0
 31
0.0
 44
0.9
  1
Port
 40
0.145
 41
0.928
  0
MTEXT
  5
271
100
AcDbEntity
  8
0
100
AcDbMText
 62
2
  6
CONTINUOUS
  7
STANDARD
 71
2
 72
1
 10
3.95
 20
-0.44325
 30
0.0
 11
1.0
 21
0.0
 31
0.0
 44
0.9
  1
Size
 40
0.145
 41
0.928
  0
MTEXT
  5
272
100
AcDbEntity
  8
0
100
AcDbMText
 62
2
  6
CONTINUOUS
  7
STANDARD
 71
2
 72
1
 10
0.65
 20
-0.75025
 30
0.0
 11
1.0
 21
0.0
 31
0.0
 44
0.9
  1
ZUO
 40
0.125
 41
0.6
  0
MTEXT
  5
273
100
AcDbEntity
  8
0
100
AcDbMText
 62
2
  6
CONTINUOUS
  7
STANDARD
 71
2
 72
1
 10
2.3
 20
-0.75025
 30
0.0
 11
1.0
 21
0.0
 31
0.0
 44
0.9
  1
External Port
 40
0.125
 41
2.6
  0
MTEXT
  5
274
100
AcDbEntity
  8
0
100
AcDbMText
 62
2
  6
CONTINUOUS
  7
STANDARD
 71
2
 72
1
 10
3.95
 20
-0.75025
 30
0.0
 11
1.0
 21
0.0
 31
0.0
 44
0.9
  1
SAE 4
 40
0.125
 41
1.0
  0
ENDBLK
  5
275
100
AcDbEntity
  8
0
  6
BYBLOCK
 62
0
100
AcDbBlockEnd
  0
ENDSEC
  0
SECTION
  2
ENTITIES
  0
IMAGE
  5
276
100
AcDbEntity
  8
0
100
AcDbRasterImage
 62
7
  6
CONTINUOUS
 10
19.2297077316
 20
0.3094318264
 30
0.0
 11
0.0066666667
 21
0.0
 31
0.0
 12
0.0
 22
0.0066666667
 32
0.0
 13
369.0
 23
92.0
340
       37D
 70
9
280
0
281
50
282
50
283
0
360
       377
 71
1
 91
2
 14
-0.5
 24
-0.5
 14
368.5
 24
91.5
  0
INSERT
  5
277
100
AcDbEntity
  8
0
100
AcDbBlockReference
 62
2
  6
CONTINUOUS
  2
SUN_FIRST_THIRD_ANGLE_BL0
 10
20.4816717061
 20
1.2289683772
  0
ACAD_TABLE
  5
278
100
AcDbEntity
  8
0
 62
2
  6
CONTINUOUS
100
AcDbBlockReference
  2
*T1
 10
12.42375
 20
0.30125
 30
0.0
100
AcDbTable
342
       37F
343
20A
 11
1.0
 21
0.0
 31
0.0
 90
6
 91
4
 92
6
 93
20
 94
0
 95
0
 96
0
 70
1
 41
0.0
141
0.525
141
0.1
141
0.525
141
0.1
142
4.1
142
1.1
142
0.7
142
0.5
142
0.4
142
2.475
171
1
172
0
173
0
174
0
175
1
176
1
 91
33
178
0
145
0.0
301
CELL_VALUE
 90
4
  1
Sandwich ISO 03\PTap in manifold - A and B
304
ACVALUE_END
170
2
140
0.125
171
1
172
0
173
0
174
0
175
1
176
1
 91
33
178
0
145
0.0
301
CELL_VALUE
 90
4
  1
Aug-29-19
304
ACVALUE_END
170
5
140
0.125
171
1
172
0
173
0
174
0
175
1
176
1
 91
33
178
0
145
0.0
301
CELL_VALUE
 90
4
  1
2.000
304
ACVALUE_END
170
5
140
0.125
171
1
172
0
173
0
174
0
175
1
176
1
 91
33
178
0
145
0.0
301
CELL_VALUE
 90
4
  1
C
304
ACVALUE_END
170
5
140
0.125
171
1
172
0
173
0
174
0
175
1
176
1
 91
33
178
0
145
0.0
301
CELL_VALUE
 90
4
  1
2
304
ACVALUE_END
170
5
140
0.125
171
1
172
0
173
0
174
0
175
1
176
1
 91
33
178
0
145
0.0
301
CELL_VALUE
 90
4
  1
 
304
ACVALUE_END
170
1
140
0.125
171
1
172
0
173
0
174
0
175
1
176
1
 91
33
178
0
145
0.0
301
CELL_VALUE
 90
4
  1
DESCRIPTION
304
ACVALUE_END
170
1
140
0.06
171
1
172
0
173
0
174
0
175
1
176
1
 91
33
178
0
145
0.0
301
CELL_VALUE
 90
4
  1
DATE
304
ACVALUE_END
170
1
140
0.06
171
1
172
0
173
0
174
0
175
1
176
1
 91
33
178
0
145
0.0
301
CELL_VALUE
 90
4
  1
SCALE
304
ACVALUE_END
170
1
140
0.06
171
1
172
0
173
0
174
0
175
1
176
1
 91
33
178
0
145
0.0
301
CELL_VALUE
 90
4
  1
DWG SIZE
304
ACVALUE_END
170
1
140
0.06
171
1
172
0
173
0
174
0
175
1
176
1
 91
33
178
0
145
0.0
301
CELL_VALUE
 90
4
  1
SHEET
304
ACVALUE_END
170
1
140
0.06
171
1
172
0
173
0
174
0
175
1
176
1
 91
33
178
0
145
0.0
301
CELL_VALUE
 90
4
  1
 
304
ACVALUE_END
170
1
140
0.125
171
1
172
0
173
0
174
0
175
1
176
1
 91
33
178
0
145
0.0
301
CELL_VALUE
 90
4
  1
ZUO
304
ACVALUE_END
170
5
140
0.125
171
1
172
0
173
0
174
0
175
4
176
1
 91
33
178
0
145
0.0
301
CELL_VALUE
 90
4
  1
ALL DIMENSIONS IN INCH\PVIEWS ARE THIRD ANGLE
304
ACVALUE_END
170
5
140
0.12
171
1
172
0
173
1
174
0
175
1
176
1
 91
1
178
0
145
0.0
170
1
171
1
172
0
173
1
174
0
175
1
176
1
 91
1
178
0
145
0.0
170
1
171
1
172
0
173
1
174
0
175
1
176
1
 91
1
178
0
145
0.0
170
5
171
1
172
0
173
0
174
0
175
1
176
1
 91
33
178
0
145
0.0
301
CELL_VALUE
 90
4
  1
 
304
ACVALUE_END
170
1
140
0.125
171
1
172
0
173
0
174
0
175
1
176
1
 91
33
178
0
145
0.0
301
CELL_VALUE
 90
4
  1
MODEL
304
ACVALUE_END
170
1
140
0.06
171
1
172
0
173
0
174
0
175
1
176
1
 91
33
178
0
145
0.0
301
CELL_VALUE
 90
4
  1
 
304
ACVALUE_END
170
1
140
0.125
171
1
172
0
173
0
174
0
175
1
176
1
 91
33
178
0
145
0.0
301
CELL_VALUE
 90
4
  1
 
304
ACVALUE_END
170
1
140
0.125
171
1
172
0
173
0
174
0
175
1
176
1
 91
33
178
0
145
0.0
301
CELL_VALUE
 90
4
  1
 
304
ACVALUE_END
170
1
140
0.125
171
1
172
0
173
0
174
0
175
1
176
1
 91
33
178
0
145
0.0
301
CELL_VALUE
 90
4
  1
 
304
ACVALUE_END
170
1
140
0.125
171
1
172
0
173
0
174
0
175
1
176
1
 91
33
178
0
145
0.0
301
CELL_VALUE
 90
4
  1
 
304
ACVALUE_END
170
1
140
0.125
  0
ACAD_TABLE
  5
279
100
AcDbEntity
  8
0
 62
2
  6
CONTINUOUS
100
AcDbBlockReference
  2
*T2
 10
12.4237499994
 20
16.47875
 30
0.0
100
AcDbTable
342
       37E
343
20B
 11
1.0
 21
0.0
 31
0.0
 90
22
 91
6
 92
3
 93
16
 94
0
 95
0
 96
0
 41
0.028
141
0.344
141
0.25
141
0.25
141
0.25
141
0.25
141
0.25
142
3.055
142
3.0
142
3.0
171
1
172
0
173
0
174
0
175
1
176
1
 91
33
178
0
145
0.0
301
CELL_VALUE
 90
4
  1
Technical Data
304
ACVALUE_END
170
5
140
0.145
171
1
172
0
173
0
174
0
175
1
176
1
 91
33
178
0
145
0.0
301
CELL_VALUE
 90
4
  1
U.S. Units
304
ACVALUE_END
170
5
140
0.145
171
1
172
0
173
0
174
0
175
1
176
1
 91
33
178
0
145
0.0
301
CELL_VALUE
 90
4
  1
Metric Units
304
ACVALUE_END
170
5
140
0.145
171
1
172
0
173
0
174
0
175
1
176
1
 91
33
178
0
145
0.0
301
CELL_VALUE
 90
4
  1
Body Features
304
ACVALUE_END
170
5
140
0.125
171
1
172
0
173
0
174
0
175
2
176
1
 91
33
178
0
145
0.0
301
CELL_VALUE
 90
4
  1
Tap in manifold - A and B
304
ACVALUE_END
170
5
140
0.125
171
1
172
0
173
1
174
0
175
1
176
1
 91
1
178
0
145
0.0
170
1
171
1
172
0
173
0
174
0
175
1
176
1
 91
33
178
0
145
0.0
301
CELL_VALUE
 90
4
  1
Body Type
304
ACVALUE_END
170
5
140
0.125
171
1
172
0
173
0
174
0
175
2
176
1
 91
33
178
0
145
0.0
301
CELL_VALUE
 90
4
  1
Sandwich
304
ACVALUE_END
170
5
140
0.125
171
1
172
0
173
1
174
0
175
1
176
1
 91
1
178
0
145
0.0
170
1
171
1
172
0
173
0
174
0
175
1
176
1
 91
33
178
0
145
0.0
301
CELL_VALUE
 90
4
  1
Interface
304
ACVALUE_END
170
5
140
0.125
171
1
172
0
173
0
174
0
175
2
176
1
 91
33
178
0
145
0.0
301
CELL_VALUE
 90
4
  1
ISO 03
304
ACVALUE_END
170
5
140
0.125
171
1
172
0
173
1
174
0
175
1
176
1
 91
1
178
0
145
0.0
170
1
171
1
172
0
173
0
174
0
175
1
176
1
 91
33
178
0
145
0.0
301
CELL_VALUE
 90
4
  1
Stack Height
304
ACVALUE_END
170
5
140
0.125
171
1
172
0
173
0
174
0
175
1
176
1
 91
33
178
0
145
0.0
301
CELL_VALUE
 90
4
  1
.99 in.
304
ACVALUE_END
170
5
140
0.125
171
1
172
0
173
0
174
0
175
1
176
1
 91
33
178
0
145
0.0
301
CELL_VALUE
 90
4
  1
25 mm
304
ACVALUE_END
170
5
140
0.125
171
1
172
0
173
0
174
0
175
1
176
1
 91
33
178
0
145
0.0
301
CELL_VALUE
 90
4
  1
Weight
304
ACVALUE_END
170
5
140
0.125
171
1
172
0
173
0
174
0
175
1
176
1
 91
33
178
0
145
0.0
301
CELL_VALUE
 90
4
  1
0.340 lb.
304
ACVALUE_END
170
5
140
0.125
171
1
172
0
173
0
174
0
175
1
176
1
 91
33
178
0
145
0.0
301
CELL_VALUE
 90
4
  1
0,154 kg.
304
ACVALUE_END
170
5
140
0.125
  0
ACAD_TABLE
  5
27A
100
AcDbEntity
  8
0
 62
2
  6
CONTINUOUS
100
AcDbBlockReference
  2
*T3
 10
0.52125
 20
1.459
 30
0.0
100
AcDbTable
342
       37E
343
20C
 11
1.0
 21
0.0
 31
0.0
 90
22
 91
3
 92
3
 93
16
 94
0
 95
0
 96
0
 41
0.05
141
0.34375
141
0.344
141
0.25
142
1.3
142
2.0
142
1.3
171
1
172
0
173
0
174
0
175
3
176
1
 91
33
178
0
145
0.0
301
CELL_VALUE
 90
4
  1
Port Headings
304
ACVALUE_END
170
5
140
0.145
171
1
172
0
173
1
174
0
175
1
176
1
 91
1
178
0
145
0.0
170
1
171
1
172
0
173
1
174
0
175
1
176
1
 91
1
178
0
145
0.0
170
1
171
1
172
0
173
0
174
0
175
1
176
1
 91
33
178
0
145
0.0
301
CELL_VALUE
 90
4
  1
Product
304
ACVALUE_END
170
5
140
0.145
171
1
172
0
173
0
174
0
175
1
176
1
 91
33
178
0
145
0.0
301
CELL_VALUE
 90
4
  1
Port
304
ACVALUE_END
170
5
140
0.145
171
1
172
0
173
0
174
0
175
1
176
1
 91
33
178
0
145
0.0
301
CELL_VALUE
 90
4
  1
Size
304
ACVALUE_END
170
5
140
0.145
171
1
172
0
173
0
174
0
175
1
176
1
 91
33
178
0
145
0.0
301
CELL_VALUE
 90
4
  1
ZUO
304
ACVALUE_END
170
5
140
0.125
171
1
172
0
173
0
174
0
175
1
176
1
 91
33
178
0
145
0.0
301
CELL_VALUE
 90
4
  1
External Port
304
ACVALUE_END
170
5
140
0.125
171
1
172
0
173
0
174
0
175
1
176
1
 91
33
178
0
145
0.0
301
CELL_VALUE
 90
4
  1
SAE 4
304
ACVALUE_END
170
5
140
0.125
  0
MTEXT
  5
27B
100
AcDbEntity
  8
0
100
AcDbMText
 62
2
  6
CONTINUOUS
  7
STANDARD
 71
1
 72
1
 10
0.52125
 20
5.75995
 30
0.0
 11
1.0
 21
0.0
 31
0.0
 44
0.6
  3
Notes\P \P1. Important: Carefully consider\P   the maximum system pressure. The\P   pressure rating of the manifold is\P   dependent on the manifold material,\P   with the port type/size a secondary\P   consideration. Manifolds\P   constructed of alu
  1
minum are not\P   rated for pressures higher than\P   3000 psi (210 bar), regardless of\P   the port type/size specified.\P2. Items without balloons are\P   shipped loose.
 40
0.1
 41
3.04
  0
LINE
  5
27C
100
AcDbEntity
  8
0
100
AcDbLine
 62
7
  6
CONTINUOUS
 10
0.30125
 20
0.30125
 11
0.30125
 21
16.69875
  0
LINE
  5
27D
100
AcDbEntity
  8
0
100
AcDbLine
 62
7
  6
CONTINUOUS
 10
0.30125
 20
0.30125
 11
21.69875
 21
0.30125
  0
LINE
  5
27E
100
AcDbEntity
  8
0
100
AcDbLine
 62
7
  6
CONTINUOUS
 10
0.30125
 20
16.69875
 11
21.69875
 21
16.69875
  0
LINE
  5
27F
100
AcDbEntity
  8
0
100
AcDbLine
 62
7
  6
CONTINUOUS
 10
21.69875
 20
0.30125
 11
21.69875
 21
16.69875
  0
LINE
  5
280
100
AcDbEntity
  8
0
100
AcDbLine
 62
7
  6
CONTINUOUS
 10
9.0694388321
 20
10.5755912943
 11
8.5838946921
 21
10.1065916419
  0
LINE
  5
281
100
AcDbEntity
  8
0
100
AcDbLine
 62
7
  6
CONTINUOUS
 10
8.5838946921
 20
6.7258510496
 11
8.5838946921
 21
10.1065916419
  0
LINE
  5
282
100
AcDbEntity
  8
0
100
AcDbLine
 62
4
  6
CONTINUOUS
 10
8.7167218258
 20
10.1348929028
 11
8.8512827836
 21
10.1898688166
  0
LINE
  5
283
100
AcDbEntity
  8
0
100
AcDbLine
 62
4
  6
CONTINUOUS
 10
9.5860552122
 20
10.0746044277
 11
9.6326426008
 21
10.1196043922
  0
LINE
  5
284
100
AcDbEntity
  8
0
100
AcDbLine
 62
4
  6
CONTINUOUS
 10
9.7074858852
 20
10.0661831819
 11
9.7488968973
 21
10.1061831504
  0
LINE
  5
285
100
AcDbEntity
  8
0
100
AcDbLine
 62
4
  6
CONTINUOUS
 10
9.7847599542
 20
10.0608242071
 11
9.8261709663
 21
10.1008241755
  0
LINE
  5
286
100
AcDbEntity
  8
0
100
AcDbLine
 62
4
  6
CONTINUOUS
 10
9.8348324215
 20
10.0634762173
 11
9.864411716
 21
10.0920476235
  0
LINE
  5
287
100
AcDbEntity
  8
0
100
AcDbLine
 62
4
  6
CONTINUOUS
 10
9.5860552122
 20
10.0746044277
 11
9.6549620242
 21
10.0958586244
  0
LINE
  5
288
100
AcDbEntity
  8
0
100
AcDbLine
 62
7
  6
CONTINUOUS
 10
8.5838946921
 20
6.7258510496
 11
12.9305611679
 21
6.4244087057
  0
LINE
  5
289
100
AcDbEntity
  8
0
100
AcDbLine
 62
4
  6
CONTINUOUS
 10
9.9416857849
 20
10.0866886486
 11
9.9121064905
 21
10.0581172425
  0
LINE
  5
28A
100
AcDbEntity
  8
0
100
AcDbLine
 62
4
  6
CONTINUOUS
 10
9.9945038477
 20
10.0462784186
 11
10.0359148598
 21
10.0862783871
  0
LINE
  5
28B
100
AcDbEntity
  8
0
100
AcDbLine
 62
4
  6
CONTINUOUS
 10
10.3991718987
 20
10.3585863371
 11
10.4050877573
 21
10.364300618
  0
LINE
  5
28C
100
AcDbEntity
  8
0
100
AcDbLine
 62
4
  6
CONTINUOUS
 10
10.0887329232
 20
10.0458681577
 11
10.1183122177
 21
10.0744395639
  0
LINE
  5
28D
100
AcDbEntity
  8
0
100
AcDbLine
 62
4
  6
CONTINUOUS
 10
10.4527825318
 20
10.330370237
 11
10.4586983909
 21
10.3360845184
  0
LINE
  5
28E
100
AcDbEntity
  8
0
100
AcDbLine
 62
4
  6
CONTINUOUS
 10
10.4674927736
 20
10.1045791878
 11
10.553060394
 21
10.1415168851
  0
LINE
  5
28F
100
AcDbEntity
  8
0
100
AcDbLine
 62
4
  6
CONTINUOUS
 10
8.8512827836
 20
10.1898688166
 11
8.8616107051
 21
10.1248448249
  0
LINE
  5
290
100
AcDbEntity
  8
0
100
AcDbLine
 62
4
  6
CONTINUOUS
 10
10.5324342929
 20
10.3615936528
 11
10.49693914
 21
10.3273079658
  0
LINE
  5
291
100
AcDbEntity
  8
0
100
AcDbLine
 62
4
  6
CONTINUOUS
 10
10.2116071668
 20
10.0312222523
 11
10.2530181789
 21
10.0712222208
  0
LINE
  5
292
100
AcDbEntity
  8
0
100
AcDbLine
 62
4
  6
CONTINUOUS
 10
10.3276635143
 20
10.1142763799
 11
10.3690745265
 21
10.1542763483
  0
LINE
  5
293
100
AcDbEntity
  8
0
100
AcDbLine
 62
4
  6
CONTINUOUS
 10
10.5742132089
 20
10.3219489909
 11
10.6097083619
 21
10.3562346779
  0
LINE
  5
294
100
AcDbEntity
  8
0
100
AcDbLine
 62
4
  6
CONTINUOUS
 10
10.3302922478
 20
10.0658632459
 11
10.2888812357
 21
10.0258632774
  0
LINE
  5
295
100
AcDbEntity
  8
0
100
AcDbLine
 62
4
  6
CONTINUOUS
 10
10.612453958
 20
10.3131724382
 11
10.6538649701
 21
10.3531724067
  0
LINE
  5
296
100
AcDbEntity
  8
0
100
AcDbLine
 62
4
  6
CONTINUOUS
 10
10.4404327277
 20
10.1432030932
 11
10.4108534332
 21
10.1146316871
  0
LINE
  5
297
100
AcDbEntity
  8
0
100
AcDbLine
 62
4
  6
CONTINUOUS
 10
10.6897280269
 20
10.3078134634
 11
10.7311390391
 21
10.3478134318
  0
LINE
  5
298
100
AcDbEntity
  8
0
100
AcDbLine
 62
4
  6
CONTINUOUS
 10
10.9779253905
 20
10.2776193293
 11
11.0615210402
 21
10.3126522681
  0
LINE
  5
299
100
AcDbEntity
  8
0
100
AcDbLine
 62
4
  6
CONTINUOUS
 10
10.9311825686
 20
10.2096120534
 11
10.8124974875
 21
10.1749710598
  0
LINE
  5
29A
100
AcDbEntity
  8
0
100
AcDbLine
 62
4
  6
CONTINUOUS
 10
10.6441192249
 20
10.0923301018
 11
10.685530237
 21
10.1323300703
  0
LINE
  5
29B
100
AcDbEntity
  8
0
100
AcDbLine
 62
4
  6
CONTINUOUS
 10
10.8553153123
 20
10.2963299461
 11
10.8967263244
 21
10.3363299146
  0
LINE
  5
29C
100
AcDbEntity
  8
0
100
AcDbLine
 62
4
  6
CONTINUOUS
 10
10.9481715984
 20
10.3174508038
 11
10.9215502338
 21
10.2917365387
  0
LINE
  5
29D
100
AcDbEntity
  8
0
100
AcDbLine
 62
4
  6
CONTINUOUS
 10
10.7324324413
 20
10.0862055594
 11
10.7738434534
 21
10.1262055279
  0
LINE
  5
29E
100
AcDbEntity
  8
0
100
AcDbLine
 62
4
  6
CONTINUOUS
 10
11.6363495348
 20
10.2850368707
 11
11.6297119007
 21
10.2824349174
  0
LINE
  5
29F
100
AcDbEntity
  8
0
100
AcDbLine
 62
4
  6
CONTINUOUS
 10
10.9753391768
 20
10.2065497822
 11
10.9398440238
 21
10.1722640952
  0
LINE
  5
2A0
100
AcDbEntity
  8
0
100
AcDbLine
 62
4
  6
CONTINUOUS
 10
11.0643374503
 20
10.2848964855
 11
11.0880008853
 21
10.3077536098
  0
LINE
  5
2A1
100
AcDbEntity
  8
0
100
AcDbLine
 62
4
  6
CONTINUOUS
 10
11.1690254175
 20
10.3174459083
 11
11.1276144054
 21
10.2774459399
  0
LINE
  5
2A2
100
AcDbEntity
  8
0
100
AcDbLine
 62
4
  6
CONTINUOUS
 10
11.0171180927
 20
10.1669051203
 11
11.0526132457
 21
10.2011908073
  0
LINE
  5
2A3
100
AcDbEntity
  8
0
100
AcDbLine
 62
4
  6
CONTINUOUS
 10
11.1717710689
 20
10.2743836649
 11
11.2013503639
 21
10.3029550716
  0
LINE
  5
2A4
100
AcDbEntity
  8
0
100
AcDbLine
 62
4
  6
CONTINUOUS
 10
10.9701705441
 20
10.0758429137
 11
10.9997498386
 21
10.1044143198
  0
LINE
  5
2A5
100
AcDbEntity
  8
0
100
AcDbLine
 62
4
  6
CONTINUOUS
 10
11.0612747009
 20
10.1638428492
 11
11.0908539954
 21
10.1924142553
  0
LINE
  5
2A6
100
AcDbEntity
  8
0
100
AcDbLine
 62
4
  6
CONTINUOUS
 10
11.2499084303
 20
10.2965252834
 11
11.2439925718
 21
10.2908110026
  0
LINE
  5
2A7
100
AcDbEntity
  8
0
100
AcDbLine
 62
4
  6
CONTINUOUS
 10
11.1681280643
 20
10.1870552804
 11
11.1385487699
 21
10.1584838743
  0
LINE
  5
2A8
100
AcDbEntity
  8
0
100
AcDbLine
 62
4
  6
CONTINUOUS
 10
11.2740813623
 20
10.2703506958
 11
11.282955151
 21
10.278922118
  0
LINE
  5
2A9
100
AcDbEntity
  8
0
100
AcDbLine
 62
4
  6
CONTINUOUS
 10
11.0989606099
 20
10.0669112923
 11
11.1285399044
 21
10.0954826984
  0
LINE
  5
2AA
100
AcDbEntity
  8
0
100
AcDbLine
 62
4
  6
CONTINUOUS
 10
11.3373583174
 20
10.2629001502
 11
11.3610217539
 21
10.285757276
  0
LINE
  5
2AB
100
AcDbEntity
  8
0
100
AcDbLine
 62
4
  6
CONTINUOUS
 10
11.4110942022
 20
10.288409287
 11
11.3844728367
 21
10.262695021
  0
LINE
  5
2AC
100
AcDbEntity
  8
0
100
AcDbLine
 62
4
  6
CONTINUOUS
 10
11.2058139733
 20
10.0901237235
 11
11.1762346789
 21
10.0615523174
  0
LINE
  5
2AD
100
AcDbEntity
  8
0
100
AcDbLine
 62
4
  6
CONTINUOUS
 10
11.2144754095
 20
10.052775766
 11
11.2558864216
 21
10.0927757345
  0
LINE
  5
2AE
100
AcDbEntity
  8
0
100
AcDbLine
 62
4
  6
CONTINUOUS
 10
11.4477498655
 20
10.2552444703
 11
11.4773291606
 21
10.283815877
  0
LINE
  5
2AF
100
AcDbEntity
  8
0
100
AcDbLine
 62
4
  6
CONTINUOUS
 10
11.4948643849
 20
10.2550393411
 11
11.5333174674
 21
10.2921821689
  0
LINE
  5
2B0
100
AcDbEntity
  8
0
100
AcDbLine
 62
4
  6
CONTINUOUS
 10
11.327244632
 20
10.0817024788
 11
11.2976653376
 21
10.0531310726
  0
LINE
  5
2B1
100
AcDbEntity
  8
0
100
AcDbLine
 62
4
  6
CONTINUOUS
 10
11.3543047333
 20
10.0430785695
 11
11.3957157454
 21
10.083078538
  0
LINE
  5
2B2
100
AcDbEntity
  8
0
100
AcDbLine
 62
4
  6
CONTINUOUS
 10
11.6297119007
 20
10.2824349174
 11
11.6326698312
 21
10.285292059
  0
LINE
  5
2B3
100
AcDbEntity
  8
0
100
AcDbLine
 62
4
  6
CONTINUOUS
 10
11.5912588191
 20
10.2452920906
 11
11.6208381142
 21
10.2738634973
  0
LINE
  5
2B4
100
AcDbEntity
  8
0
100
AcDbLine
 62
4
  6
CONTINUOUS
 10
11.6530922263
 20
10.2440662031
 11
11.6767556613
 21
10.2669233274
  0
LINE
  5
2B5
100
AcDbEntity
  8
0
100
AcDbLine
 62
4
  6
CONTINUOUS
 10
11.7672343111
 20
10.2514617912
 11
11.7761080988
 21
10.2600332125
  0
LINE
  5
2B6
100
AcDbEntity
  8
0
100
AcDbLine
 62
4
  6
CONTINUOUS
 10
11.8186794748
 20
10.2325826884
 11
11.8275532635
 21
10.2411541106
  0
LINE
  5
2B7
100
AcDbEntity
  8
0
100
AcDbLine
 62
4
  6
CONTINUOUS
 10
10.553060394
 20
10.1415168851
 11
10.5558060085
 21
10.0984546441
  0
LINE
  5
2B8
100
AcDbEntity
  8
0
100
AcDbLine
 62
7
  6
CONTINUOUS
 10
11.5692716873
 20
9.5559823236
 11
11.4657972714
 21
9.456033707
  0
LINE
  5
2B9
100
AcDbEntity
  8
0
100
AcDbLine
 62
4
  6
CONTINUOUS
 10
9.5860552122
 20
10.0746044277
 11
9.5674401046
 21
10.1019282901
  0
LINE
  5
2BA
100
AcDbEntity
  8
0
100
AcDbLine
 62
7
  6
CONTINUOUS
 10
11.7429714913
 20
9.3761813825
 11
11.6394839244
 21
9.276220063
  0
LINE
  5
2BB
100
AcDbEntity
  8
0
100
AcDbLine
 62
4
  6
CONTINUOUS
 10
9.7488968973
 20
10.1061831504
 11
9.7847599542
 21
10.0608242071
  0
LINE
  5
2BC
100
AcDbEntity
  8
0
100
AcDbLine
 62
4
  6
CONTINUOUS
 10
12.6709005793
 20
9.9303364007
 11
12.6087840612
 21
9.870336448
  0
LINE
  5
2BD
100
AcDbEntity
  8
0
100
AcDbLine
 62
4
  6
CONTINUOUS
 10
12.766106178
 20
9.9022979554
 11
12.7816353075
 21
9.9172979435
  0
LINE
  5
2BE
100
AcDbEntity
  8
0
100
AcDbLine
 62
4
  6
CONTINUOUS
 10
12.7495368059
 20
9.8712931703
 11
12.7650659345
 21
9.8862931576
  0
LINE
  5
2BF
100
AcDbEntity
  8
0
100
AcDbLine
 62
4
  6
CONTINUOUS
 10
10.9952861555
 20
10.317245673
 11
10.9988243396
 21
10.2863775613
  0
LINE
  5
2C0
100
AcDbEntity
  8
0
100
AcDbLine
 62
7
  6
CONTINUOUS
 10
12.9305611679
 20
9.805149298
 11
13.4161053079
 21
10.2741489504
  0
LINE
  5
2C1
100
AcDbEntity
  8
0
100
AcDbLine
 62
4
  6
CONTINUOUS
 10
10.6538649701
 20
10.3531724067
 11
10.6897280269
 21
10.3078134634
  0
LINE
  5
2C2
100
AcDbEntity
  8
0
100
AcDbLine
 62
4
  6
CONTINUOUS
 10
12.7102062767
 20
9.8633027935
 11
12.7495368059
 21
9.8712931703
  0
LINE
  5
2C3
100
AcDbEntity
  8
0
100
AcDbLine
 62
4
  6
CONTINUOUS
 10
12.746440911
 20
9.8983027647
 11
12.766106178
 21
9.9022979554
  0
LINE
  5
2C4
100
AcDbEntity
  8
0
100
AcDbLine
 62
4
  6
CONTINUOUS
 10
9.8509948757
 20
10.0562307997
 11
9.8348324215
 21
10.0634762173
  0
LINE
  5
2C5
100
AcDbEntity
  8
0
100
AcDbLine
 62
4
  6
CONTINUOUS
 10
9.9255233485
 20
10.0939340644
 11
9.9416857849
 21
10.0866886486
  0
LINE
  5
2C6
100
AcDbEntity
  8
0
100
AcDbLine
 62
4
  6
CONTINUOUS
 10
10.1048953958
 20
10.0386227388
 11
10.0887329232
 21
10.0458681577
  0
LINE
  5
2C7
100
AcDbEntity
  8
0
100
AcDbLine
 62
4
  6
CONTINUOUS
 10
10.4242702821
 20
10.1504485097
 11
10.4404327277
 21
10.1432030932
  0
LINE
  5
2C8
100
AcDbEntity
  8
0
100
AcDbLine
 62
4
  6
CONTINUOUS
 10
11.2976653376
 20
10.0531310726
 11
11.2696711836
 21
10.0489479261
  0
LINE
  5
2C9
100
AcDbEntity
  8
0
100
AcDbLine
 62
7
  6
CONTINUOUS
 10
8.5838946921
 20
10.1065916419
 11
12.9305611679
 21
9.805149298
  0
LINE
  5
2CA
100
AcDbEntity
  8
0
100
AcDbLine
 62
4
  6
CONTINUOUS
 10
10.1490519856
 20
10.0355604689
 11
10.1048953958
 21
10.0386227388
  0
LINE
  5
2CB
100
AcDbEntity
  8
0
100
AcDbLine
 62
4
  6
CONTINUOUS
 10
9.8841123364
 20
10.0539340959
 11
9.8509948757
 21
10.0562307997
  0
LINE
  5
2CC
100
AcDbEntity
  8
0
100
AcDbLine
 62
4
  6
CONTINUOUS
 10
12.6087840612
 20
9.870336448
 11
12.7102062767
 21
9.8633027935
  0
LINE
  5
2CD
100
AcDbEntity
  8
0
100
AcDbLine
 62
4
  6
CONTINUOUS
 10
8.7664051083
 20
10.1528832721
 11
8.8533384359
 21
10.1468544253
  0
LINE
  5
2CE
100
AcDbEntity
  8
0
100
AcDbLine
 62
4
  6
CONTINUOUS
 10
10.2352706033
 20
10.0540793782
 11
10.3125446723
 21
10.0487204033
  0
LINE
  5
2CF
100
AcDbEntity
  8
0
100
AcDbLine
 62
4
  6
CONTINUOUS
 10
10.2570978655
 20
10.1375437667
 11
10.3080855358
 21
10.1258416963
  0
LINE
  5
2D0
100
AcDbEntity
  8
0
100
AcDbLine
 62
4
  6
CONTINUOUS
 10
10.3725505332
 20
10.3328720711
 11
10.3806317569
 21
10.3292493625
  0
LINE
  5
2D1
100
AcDbEntity
  8
0
100
AcDbLine
 62
4
  6
CONTINUOUS
 10
10.9863329799
 20
10.0685974973
 11
10.9701705441
 21
10.0758429137
  0
LINE
  5
2D2
100
AcDbEntity
  8
0
100
AcDbLine
 62
4
  6
CONTINUOUS
 10
10.49693914
 20
10.3273079658
 11
10.5131015849
 21
10.3200625487
  0
LINE
  5
2D3
100
AcDbEntity
  8
0
100
AcDbLine
 62
4
  6
CONTINUOUS
 10
11.1151230456
 20
10.0596658759
 11
11.0989606099
 21
10.0669112923
  0
LINE
  5
2D4
100
AcDbEntity
  8
0
100
AcDbLine
 62
4
  6
CONTINUOUS
 10
10.4772385327
 20
10.3654214917
 11
10.4853197543
 21
10.3617987823
  0
LINE
  5
2D5
100
AcDbEntity
  8
0
100
AcDbLine
 62
4
  6
CONTINUOUS
 10
10.9398440238
 20
10.1722640952
 11
10.9560064687
 21
10.1650186782
  0
LINE
  5
2D6
100
AcDbEntity
  8
0
100
AcDbLine
 62
4
  6
CONTINUOUS
 10
11.3610217539
 20
10.285757276
 11
11.3558985019
 21
10.2922371218
  0
LINE
  5
2D7
100
AcDbEntity
  8
0
100
AcDbLine
 62
4
  6
CONTINUOUS
 10
11.1762346789
 20
10.0615523174
 11
11.1482405248
 21
10.0573691709
  0
LINE
  5
2D8
100
AcDbEntity
  8
0
100
AcDbLine
 62
4
  6
CONTINUOUS
 10
11.1285399044
 20
10.0954826984
 11
11.1565340578
 21
10.0996658443
  0
LINE
  5
2D9
100
AcDbEntity
  8
0
100
AcDbLine
 62
4
  6
CONTINUOUS
 10
10.9997498386
 20
10.1044143198
 11
11.027743992
 21
10.1085974657
  0
LINE
  5
2DA
100
AcDbEntity
  8
0
100
AcDbLine
 62
4
  6
CONTINUOUS
 10
11.8046824346
 20
10.2304911126
 11
11.8186794748
 21
10.2325826884
  0
LINE
  5
2DB
100
AcDbEntity
  8
0
100
AcDbLine
 62
4
  6
CONTINUOUS
 10
11.1385487699
 20
10.1584838743
 11
11.1105546159
 21
10.1543007278
  0
LINE
  5
2DC
100
AcDbEntity
  8
0
100
AcDbLine
 62
4
  6
CONTINUOUS
 10
11.7761080988
 20
10.2600332125
 11
11.7901051399
 21
10.2621247892
  0
LINE
  5
2DD
100
AcDbEntity
  8
0
100
AcDbLine
 62
4
  6
CONTINUOUS
 10
10.9891239387
 20
10.1627219738
 11
11.0171180927
 21
10.1669051203
  0
LINE
  5
2DE
100
AcDbEntity
  8
0
100
AcDbLine
 62
4
  6
CONTINUOUS
 10
11.6767556613
 20
10.2669233274
 11
11.6907527024
 21
10.2690149041
  0
LINE
  5
2DF
100
AcDbEntity
  8
0
100
AcDbLine
 62
4
  6
CONTINUOUS
 10
11.0908539954
 20
10.1924142553
 11
11.1188481672
 21
10.1965973999
  0
LINE
  5
2E0
100
AcDbEntity
  8
0
100
AcDbLine
 62
4
  6
CONTINUOUS
 10
10.4108534332
 20
10.1146316871
 11
10.38285927
 21
10.1104485412
  0
LINE
  5
2E1
100
AcDbEntity
  8
0
100
AcDbLine
 62
4
  6
CONTINUOUS
 10
10.1183122177
 20
10.0744395639
 11
10.146306408
 21
10.0786227072
  0
LINE
  5
2E2
100
AcDbEntity
  8
0
100
AcDbLine
 62
4
  6
CONTINUOUS
 10
9.9121064905
 20
10.0581172425
 11
9.8841123364
 21
10.0539340959
  0
LINE
  5
2E3
100
AcDbEntity
  8
0
100
AcDbLine
 62
4
  6
CONTINUOUS
 10
11.5413192621
 20
10.0484827103
 11
11.4745559725
 21
10.0449466968
  0
LINE
  5
2E4
100
AcDbEntity
  8
0
100
AcDbLine
 62
4
  6
CONTINUOUS
 10
10.3238611603
 20
10.1410797804
 11
10.2570978655
 21
10.1375437667
  0
LINE
  5
2E5
100
AcDbEntity
  8
0
100
AcDbLine
 62
4
  6
CONTINUOUS
 10
9.8924058878
 20
10.0962307681
 11
9.9255233485
 21
10.0939340644
  0
LINE
  5
2E6
100
AcDbEntity
  8
0
100
AcDbLine
 62
4
  6
CONTINUOUS
 10
9.9917582701
 20
10.089340657
 11
10.0800714864
 21
10.0832161146
  0
LINE
  5
2E7
100
AcDbEntity
  8
0
100
AcDbLine
 62
4
  6
CONTINUOUS
 10
10.146306408
 20
10.0786227072
 11
10.1904629977
 21
10.0755604373
  0
LINE
  5
2E8
100
AcDbEntity
  8
0
100
AcDbLine
 62
4
  6
CONTINUOUS
 10
12.6450186955
 20
9.9053364193
 11
12.746440911
 21
9.8983027647
  0
LINE
  5
2E9
100
AcDbEntity
  8
0
100
AcDbLine
 62
4
  6
CONTINUOUS
 10
9.6326426008
 20
10.1196043922
 11
10.3281092214
 21
10.0713736183
  0
LINE
  5
2EA
100
AcDbEntity
  8
0
100
AcDbLine
 62
4
  6
CONTINUOUS
 10
12.7723227948
 20
9.9233027462
 11
12.6709005793
 21
9.9303364007
  0
LINE
  5
2EB
100
AcDbEntity
  8
0
100
AcDbLine
 62
4
  6
CONTINUOUS
 10
11.2696711836
 20
10.0489479261
 11
11.2144754095
 21
10.052775766
  0
LINE
  5
2EC
100
AcDbEntity
  8
0
100
AcDbLine
 62
4
  6
CONTINUOUS
 10
11.1482405248
 20
10.0573691709
 11
11.1151230456
 21
10.0596658759
  0
LINE
  5
2ED
100
AcDbEntity
  8
0
100
AcDbLine
 62
4
  6
CONTINUOUS
 10
11.0304895696
 20
10.0655352274
 11
10.9863329799
 21
10.0685974973
  0
LINE
  5
2EE
100
AcDbEntity
  8
0
100
AcDbLine
 62
4
  6
CONTINUOUS
 10
10.38285927
 20
10.1104485412
 11
10.3276635143
 21
10.1142763799
  0
LINE
  5
2EF
100
AcDbEntity
  8
0
100
AcDbLine
 62
4
  6
CONTINUOUS
 10
10.7324324413
 20
10.0862055594
 11
10.7986673628
 21
10.081612152
  0
LINE
  5
2F0
100
AcDbEntity
  8
0
100
AcDbLine
 62
4
  6
CONTINUOUS
 10
11.3543047333
 20
10.0430785695
 11
11.4205396179
 21
10.0384851646
  0
LINE
  5
2F1
100
AcDbEntity
  8
0
100
AcDbLine
 62
4
  6
CONTINUOUS
 10
10.4940433613
 20
10.1149869937
 11
10.5529188389
 21
10.1109039654
  0
LINE
  5
2F2
100
AcDbEntity
  8
0
100
AcDbLine
 62
4
  6
CONTINUOUS
 10
11.4221247596
 20
10.0628734255
 11
11.3779681698
 21
10.0659356954
  0
LINE
  5
2F3
100
AcDbEntity
  8
0
100
AcDbLine
 62
4
  6
CONTINUOUS
 10
10.8002525044
 20
10.1060004128
 11
10.7560958778
 21
10.1090626853
  0
LINE
  5
2F4
100
AcDbEntity
  8
0
100
AcDbLine
 62
4
  6
CONTINUOUS
 10
10.3690745265
 20
10.1542763483
 11
10.4242702821
 21
10.1504485097
  0
LINE
  5
2F5
100
AcDbEntity
  8
0
100
AcDbLine
 62
4
  6
CONTINUOUS
 10
10.6413736103
 20
10.1353923427
 11
10.7296868267
 21
10.1292678004
  0
LINE
  5
2F6
100
AcDbEntity
  8
0
100
AcDbLine
 62
4
  6
CONTINUOUS
 10
10.7738434534
 20
10.1262055279
 11
10.8400783749
 21
10.1216121205
  0
LINE
  5
2F7
100
AcDbEntity
  8
0
100
AcDbLine
 62
4
  6
CONTINUOUS
 10
11.027743992
 20
10.1085974657
 11
11.0719005817
 21
10.1055351958
  0
LINE
  5
2F8
100
AcDbEntity
  8
0
100
AcDbLine
 62
4
  6
CONTINUOUS
 10
11.1565340578
 20
10.0996658443
 11
11.1896515369
 21
10.0973691394
  0
LINE
  5
2F9
100
AcDbEntity
  8
0
100
AcDbLine
 62
4
  6
CONTINUOUS
 10
11.2558864216
 20
10.0927757345
 11
11.3110821957
 21
10.0889478946
  0
LINE
  5
2FA
100
AcDbEntity
  8
0
100
AcDbLine
 62
4
  6
CONTINUOUS
 10
11.3957157454
 20
10.083078538
 11
11.46195063
 21
10.0784851331
  0
LINE
  5
2FB
100
AcDbEntity
  8
0
100
AcDbLine
 62
4
  6
CONTINUOUS
 10
11.1105546159
 20
10.1543007278
 11
11.0774371551
 21
10.1565974315
  0
LINE
  5
2FC
100
AcDbEntity
  8
0
100
AcDbLine
 62
4
  6
CONTINUOUS
 10
10.8124974875
 20
10.1749710598
 11
10.8897715564
 21
10.1696120849
  0
LINE
  5
2FD
100
AcDbEntity
  8
0
100
AcDbLine
 62
4
  6
CONTINUOUS
 10
10.9560064687
 20
10.1650186782
 11
10.9891239387
 21
10.1627219738
  0
LINE
  5
2FE
100
AcDbEntity
  8
0
100
AcDbLine
 62
4
  6
CONTINUOUS
 10
10.8539084996
 20
10.2149710283
 11
10.9311825686
 21
10.2096120534
  0
LINE
  5
2FF
100
AcDbEntity
  8
0
100
AcDbLine
 62
4
  6
CONTINUOUS
 10
11.1188481672
 20
10.1965973999
 11
11.151965628
 21
10.1943006962
  0
LINE
  5
300
100
AcDbEntity
  8
0
100
AcDbLine
 62
4
  6
CONTINUOUS
 10
11.4903315971
 20
10.0601847809
 11
11.5413192621
 21
10.0484827103
  0
LINE
  5
301
100
AcDbEntity
  8
0
100
AcDbLine
 62
4
  6
CONTINUOUS
 10
10.4586983909
 20
10.3360845184
 11
10.3991718987
 21
10.3585863371
  0
LINE
  5
302
100
AcDbEntity
  8
0
100
AcDbLine
 62
4
  6
CONTINUOUS
 10
11.1896515369
 20
10.0973691394
 11
11.2058139733
 21
10.0901237235
  0
LINE
  5
303
100
AcDbEntity
  8
0
100
AcDbLine
 62
4
  6
CONTINUOUS
 10
11.0774371551
 20
10.1565974315
 11
11.0612747009
 21
10.1638428492
  0
LINE
  5
304
100
AcDbEntity
  8
0
100
AcDbLine
 62
4
  6
CONTINUOUS
 10
11.3110821957
 20
10.0889478946
 11
11.327244632
 21
10.0817024788
  0
LINE
  5
305
100
AcDbEntity
  8
0
100
AcDbLine
 62
4
  6
CONTINUOUS
 10
11.151965628
 20
10.1943006962
 11
11.1681280643
 21
10.1870552804
  0
LINE
  5
306
100
AcDbEntity
  8
0
100
AcDbLine
 62
4
  6
CONTINUOUS
 10
10.9400903814
 20
10.3210735129
 11
10.9481715984
 21
10.3174508038
  0
LINE
  5
307
100
AcDbEntity
  8
0
100
AcDbLine
 62
4
  6
CONTINUOUS
 10
11.2455069537
 20
10.2998928017
 11
11.2499084303
 21
10.2965252834
  0
LINE
  5
308
100
AcDbEntity
  8
0
100
AcDbLine
 62
7
  6
CONTINUOUS
 10
12.9305611679
 20
6.4244087057
 11
12.9305611679
 21
9.805149298
  0
LINE
  5
309
100
AcDbEntity
  8
0
100
AcDbLine
 62
4
  6
CONTINUOUS
 10
9.864411716
 20
10.0920476235
 11
9.8924058878
 21
10.0962307681
  0
LINE
  5
30A
100
AcDbEntity
  8
0
100
AcDbLine
 62
4
  6
CONTINUOUS
 10
10.5462190549
 20
10.3177658444
 11
10.5742132089
 21
10.3219489909
  0
LINE
  5
30B
100
AcDbEntity
  8
0
100
AcDbLine
 62
4
  6
CONTINUOUS
 10
10.4247883685
 20
10.3261870911
 11
10.4527825318
 21
10.330370237
  0
LINE
  5
30C
100
AcDbEntity
  8
0
100
AcDbLine
 62
4
  6
CONTINUOUS
 10
10.4050877573
 20
10.364300618
 11
10.4330819222
 21
10.3684837631
  0
LINE
  5
30D
100
AcDbEntity
  8
0
100
AcDbLine
 62
4
  6
CONTINUOUS
 10
11.282955151
 20
10.278922118
 11
11.3079913751
 21
10.2802481234
  0
LINE
  5
30E
100
AcDbEntity
  8
0
100
AcDbLine
 62
4
  6
CONTINUOUS
 10
11.0880008853
 20
10.3077536098
 11
11.1130371107
 21
10.3090796165
  0
LINE
  5
30F
100
AcDbEntity
  8
0
100
AcDbLine
 62
4
  6
CONTINUOUS
 10
10.9558470956
 20
10.2791504642
 11
10.9779253905
 21
10.2776193293
  0
LINE
  5
310
100
AcDbEntity
  8
0
100
AcDbLine
 62
4
  6
CONTINUOUS
 10
11.7053301445
 20
10.2373812173
 11
11.6611734073
 21
10.2404434974
  0
LINE
  5
311
100
AcDbEntity
  8
0
100
AcDbLine
 62
4
  6
CONTINUOUS
 10
11.5250239345
 20
10.2498854954
 11
11.5029456396
 21
10.2514166304
  0
LINE
  5
312
100
AcDbEntity
  8
0
100
AcDbLine
 62
4
  6
CONTINUOUS
 10
11.3373583174
 20
10.2629001502
 11
11.2932017276
 21
10.2659624201
  0
LINE
  5
313
100
AcDbEntity
  8
0
100
AcDbLine
 62
4
  6
CONTINUOUS
 10
11.1276144054
 20
10.2774459399
 11
11.0834578156
 21
10.2805082098
  0
LINE
  5
314
100
AcDbEntity
  8
0
100
AcDbLine
 62
4
  6
CONTINUOUS
 10
10.3806317569
 20
10.3292493625
 11
10.4247883685
 21
10.3261870911
  0
LINE
  5
315
100
AcDbEntity
  8
0
100
AcDbLine
 62
4
  6
CONTINUOUS
 10
10.5131015849
 20
10.3200625487
 11
10.5462190549
 21
10.3177658444
  0
LINE
  5
316
100
AcDbEntity
  8
0
100
AcDbLine
 62
4
  6
CONTINUOUS
 10
11.3925540914
 20
10.2590723102
 11
11.4477498655
 21
10.2552444703
  0
LINE
  5
317
100
AcDbEntity
  8
0
100
AcDbLine
 62
4
  6
CONTINUOUS
 10
11.7605258449
 20
10.2335533825
 11
11.8046824346
 21
10.2304911126
  0
LINE
  5
318
100
AcDbEntity
  8
0
100
AcDbLine
 62
4
  6
CONTINUOUS
 10
11.3079913751
 20
10.2802481234
 11
11.3521479649
 21
10.2771858535
  0
LINE
  5
319
100
AcDbEntity
  8
0
100
AcDbLine
 62
4
  6
CONTINUOUS
 10
11.3558985019
 20
10.2922371218
 11
11.3007027278
 21
10.2960649618
  0
LINE
  5
31A
100
AcDbEntity
  8
0
100
AcDbLine
 62
4
  6
CONTINUOUS
 10
10.8848946074
 20
10.3249013528
 11
10.9400903814
 21
10.3210735129
  0
LINE
  5
31B
100
AcDbEntity
  8
0
100
AcDbLine
 62
4
  6
CONTINUOUS
 10
11.1130371107
 20
10.3090796165
 11
11.1571937005
 21
10.3060173466
  0
LINE
  5
31C
100
AcDbEntity
  8
0
100
AcDbLine
 62
4
  6
CONTINUOUS
 10
11.2013503639
 20
10.3029550716
 11
11.2455069537
 21
10.2998928017
  0
LINE
  5
31D
100
AcDbEntity
  8
0
100
AcDbLine
 62
4
  6
CONTINUOUS
 10
11.6907527024
 20
10.2690149041
 11
11.7349094396
 21
10.265952624
  0
LINE
  5
31E
100
AcDbEntity
  8
0
100
AcDbLine
 62
4
  6
CONTINUOUS
 10
11.7901051399
 20
10.2621247892
 11
11.8342617297
 21
10.2590625193
  0
LINE
  5
31F
100
AcDbEntity
  8
0
100
AcDbLine
 62
4
  6
CONTINUOUS
 10
10.4330819222
 20
10.3684837631
 11
10.4772385327
 21
10.3654214917
  0
LINE
  5
320
100
AcDbEntity
  8
0
100
AcDbLine
 62
4
  6
CONTINUOUS
 10
11.6326698312
 20
10.285292059
 11
11.6363495348
 21
10.2850368707
  0
LINE
  5
321
100
AcDbEntity
  8
0
100
AcDbLine
 62
7
  6
CONTINUOUS
 10
13.4161053079
 20
10.2741489504
 11
9.0694388321
 21
10.5755912943
  0
LINE
  5
322
100
AcDbEntity
  8
0
100
AcDbLine
 62
4
  6
CONTINUOUS
 10
11.8184861058
 20
10.2438244358
 11
11.7763014688
 21
10.248791466
  0
LINE
  5
323
100
AcDbEntity
  8
0
100
AcDbLine
 62
4
  6
CONTINUOUS
 10
11.0834578156
 20
10.2805082098
 11
11.0643374503
 21
10.2848964855
  0
LINE
  5
324
100
AcDbEntity
  8
0
100
AcDbLine
 62
4
  6
CONTINUOUS
 10
11.2932017276
 20
10.2659624201
 11
11.2740813623
 21
10.2703506958
  0
LINE
  5
325
100
AcDbEntity
  8
0
100
AcDbLine
 62
4
  6
CONTINUOUS
 10
11.7763014688
 20
10.248791466
 11
11.7672343111
 21
10.2514617912
  0
LINE
  5
326
100
AcDbEntity
  8
0
100
AcDbLine
 62
4
  6
CONTINUOUS
 10
11.8275532635
 20
10.2411541106
 11
11.8184861058
 21
10.2438244358
  0
LINE
  5
327
100
AcDbEntity
  8
0
100
AcDbLine
 62
4
  6
CONTINUOUS
 10
11.3844728367
 20
10.262695021
 11
11.3925540914
 21
10.2590723102
  0
LINE
  5
328
100
AcDbEntity
  8
0
100
AcDbLine
 62
4
  6
CONTINUOUS
 10
11.5029456396
 20
10.2514166304
 11
11.4948643849
 21
10.2550393411
  0
LINE
  5
329
100
AcDbEntity
  8
0
100
AcDbLine
 62
4
  6
CONTINUOUS
 10
11.6611734073
 20
10.2404434974
 11
11.6530922263
 21
10.2440662031
  0
LINE
  5
32A
100
AcDbEntity
  8
0
100
AcDbLine
 62
4
  6
CONTINUOUS
 10
11.7524446638
 20
10.2371760881
 11
11.7605258449
 21
10.2335533825
  0
LINE
  5
32B
100
AcDbEntity
  8
0
100
AcDbLine
 62
4
  6
CONTINUOUS
 10
11.8342617297
 20
10.2590625193
 11
11.8423429098
 21
10.2554398127
  0
LINE
  5
32C
100
AcDbEntity
  8
0
100
AcDbLine
 62
4
  6
CONTINUOUS
 10
12.7650659345
 20
9.8862931576
 11
12.746440911
 21
9.8983027647
  0
LINE
  5
32D
100
AcDbEntity
  8
0
100
AcDbLine
 62
4
  6
CONTINUOUS
 10
12.7816353075
 20
9.9172979435
 11
12.7723227948
 21
9.9233027462
  0
LINE
  5
32E
100
AcDbEntity
  8
0
100
AcDbLine
 62
7
  6
CONTINUOUS
 10
13.4161053079
 20
6.8934083581
 11
13.4161053079
 21
10.2741489504
  0
LINE
  5
32F
100
AcDbEntity
  8
0
100
AcDbLine
 62
7
  6
CONTINUOUS
 10
12.9305611679
 20
6.4244087057
 11
13.4161053079
 21
6.8934083581
  0
ARC
  5
330
100
AcDbEntity
  8
0
100
AcDbCircle
 62
7
  6
CONTINUOUS
 10
8.5470741287
 20
8.6691624093
 40
1.5064166269
100
AcDbArc
 50
352.2528278254
 51
355.6733373854
  0
ARC
  5
331
100
AcDbEntity
  8
0
100
AcDbCircle
 62
7
  6
CONTINUOUS
 10
8.6049248436
 20
8.6650775527
 40
1.4485533356
100
AcDbArc
 50
352.105179805
 51
355.662309594
  0
ARC
  5
332
100
AcDbEntity
  8
0
100
AcDbCircle
 62
7
  6
CONTINUOUS
 10
11.6436940754
 20
9.431445367
 40
0.1137219759
100
AcDbArc
 50
297.0900765238
 51
313.9870391762
  0
ARC
  5
333
100
AcDbEntity
  8
0
100
AcDbCircle
 62
7
  6
CONTINUOUS
 10
11.6210747594
 20
9.454862439
 40
0.1137214029
100
AcDbArc
 50
134.026012277
 51
150.9329271333
  0
SPLINE
  5
334
100
AcDbEntity
  8
0
100
AcDbSpline
 62
7
  6
CONTINUOUS
 70
0
 71
3
 72
39
 73
35
 74
0
 42
0.0000001
 43
0.0000001
 44
0.0000000001
 40
0.0
 40
0.0
 40
0.0
 40
0.0
 40
0.0299422331
 40
0.0599092575
 40
0.0899241853
 40
0.1200100237
 40
0.1501875599
 40
0.1804752385
 40
0.2108897545
 40
0.2414436546
 40
0.2721471403
 40
0.3030068828
 40
0.334025345
 40
0.3652026833
 40
0.3965345645
 40
0.4280135898
 40
0.4596299292
 40
0.4913697388
 40
0.5232175329
 40
0.5551555029
 40
0.587163356
 40
0.6192204168
 40
0.6513042093
 40
0.6833916162
 40
0.7154605923
 40
0.7474887634
 40
0.7794547541
 40
0.8113371941
 40
0.843114759
 40
0.8747724449
 40
0.9063035463
 40
0.9377027577
 40
0.968947027
 40
1.0
 40
1.0
 40
1.0
 40
1.0
 10
11.639483899
 20
9.2762200892
 30
0.0
 10
11.6374102869
 20
9.2742169826
 30
0.0
 10
11.6330994439
 20
9.2703729507
 30
0.0
 10
11.6261934046
 20
9.2651356864
 30
0.0
 10
11.6188827528
 20
9.260453073
 30
0.0
 10
11.6112069846
 20
9.2563538856
 30
0.0
 10
11.6032100124
 20
9.2528573869
 30
0.0
 10
11.5949348705
 20
9.2499847645
 30
0.0
 10
11.5864273522
 20
9.2477520239
 30
0.0
 10
11.5777347768
 20
9.2461688577
 30
0.0
 10
11.5689043882
 20
9.2452473206
 30
0.0
 10
11.5599852269
 20
9.2449898872
 30
0.0
 10
11.5510260677
 20
9.2453978914
 30
0.0
 10
11.5420764688
 20
9.2464713924
 30
0.0
 10
11.5331851785
 20
9.2482009811
 30
0.0
 10
11.5244013526
 20
9.250579554
 30
0.0
 10
11.5157733805
 20
9.2535936289
 30
0.0
 10
11.5073477362
 20
9.2572246525
 30
0.0
 10
11.4991720335
 20
9.2614557089
 30
0.0
 10
11.4912900067
 20
9.2662610351
 30
0.0
 10
11.4837449531
 20
9.2716147653
 30
0.0
 10
11.4765795892
 20
9.2774889915
 30
0.0
 10
11.4698311274
 20
9.283848913
 30
0.0
 10
11.463538335
 20
9.2906616475
 30
0.0
 10
11.4577353979
 20
9.2978892509
 30
0.0
 10
11.4524527442
 20
9.3054912684
 30
0.0
 10
11.447722251
 20
9.3134277817
 30
0.0
 10
11.4435673201
 20
9.3216531651
 30
0.0
 10
11.4400112627
 20
9.3301225874
 30
0.0
 10
11.4370752039
 20
9.3387907514
 30
0.0
 10
11.434772735
 20
9.3476107339
 30
0.0
 10
11.4331200082
 20
9.3565350197
 30
0.0
 10
11.4321241615
 20
9.3655094297
 30
0.0
 10
11.4318998624
 20
9.3715102249
 30
0.0
 10
11.4318998624
 20
9.3745002834
 30
0.0
  0
SPLINE
  5
335
100
AcDbEntity
  8
0
100
AcDbSpline
 62
7
  6
CONTINUOUS
 70
0
 71
3
 72
15
 73
11
 74
0
 42
0.0000001
 43
0.0000001
 44
0.0000000001
 40
0.0
 40
0.0
 40
0.0
 40
0.0
 40
0.1234389364
 40
0.2470473381
 40
0.370987441
 40
0.4953935886
 40
0.620395394
 40
0.7461421851
 40
0.8727199755
 40
1.0
 40
1.0
 40
1.0
 40
1.0
 10
11.4657972967
 20
9.4560336807
 30
0.0
 10
11.4631134519
 20
9.4534410901
 30
0.0
 10
11.4580056586
 20
9.4479713844
 30
0.0
 10
11.451220448
 20
9.4390182792
 30
0.0
 10
11.4453724316
 20
9.4293913451
 30
0.0
 10
11.4405115358
 20
9.4191841252
 30
0.0
 10
11.4366864869
 20
9.4084875213
 30
0.0
 10
11.4339288345
 20
9.3973997347
 30
0.0
 10
11.4322691913
 20
9.3860272637
 30
0.0
 10
11.4318998624
 20
9.3783479608
 30
0.0
 10
11.4318998624
 20
9.3745002834
 30
0.0
  0
SPLINE
  5
336
100
AcDbEntity
  8
0
100
AcDbSpline
 62
7
  6
CONTINUOUS
 70
0
 71
3
 72
39
 73
35
 74
0
 42
0.0000001
 43
0.0000001
 44
0.0000000001
 40
0.0
 40
0.0
 40
0.0
 40
0.0
 40
0.031052973
 40
0.0622972423
 40
0.0936964537
 40
0.1252275551
 40
0.156885241
 40
0.1886628059
 40
0.2205452459
 40
0.2525112366
 40
0.2845394077
 40
0.3166083838
 40
0.3486957907
 40
0.3807795832
 40
0.412836644
 40
0.4448444971
 40
0.4767824671
 40
0.5086302612
 40
0.5403700708
 40
0.5719864102
 40
0.6034654355
 40
0.6347973167
 40
0.665974655
 40
0.6969931172
 40
0.7278528597
 40
0.7585563454
 40
0.7891102455
 40
0.8195247615
 40
0.8498124401
 40
0.8799899763
 40
0.9100758147
 40
0.9400907425
 40
0.9700577669
 40
1.0
 40
1.0
 40
1.0
 40
1.0
 10
11.6733813333
 20
9.3577534865
 30
0.0
 10
11.6733813333
 20
9.360743545
 30
0.0
 10
11.6731570342
 20
9.3667443403
 30
0.0
 10
11.6721611876
 20
9.3757187502
 30
0.0
 10
11.6705084608
 20
9.384643036
 30
0.0
 10
11.6682059918
 20
9.3934630185
 30
0.0
 10
11.665269933
 20
9.4021311825
 30
0.0
 10
11.6617138757
 20
9.4106006048
 30
0.0
 10
11.6575589447
 20
9.4188259883
 30
0.0
 10
11.6528284516
 20
9.4267625016
 30
0.0
 10
11.6475457978
 20
9.4343645191
 30
0.0
 10
11.6417428608
 20
9.4415921224
 30
0.0
 10
11.6354500684
 20
9.4484048569
 30
0.0
 10
11.6287016065
 20
9.4547647784
 30
0.0
 10
11.6215362427
 20
9.4606390046
 30
0.0
 10
11.613991189
 20
9.4659927349
 30
0.0
 10
11.6061091623
 20
9.470798061
 30
0.0
 10
11.5979334596
 20
9.4750291174
 30
0.0
 10
11.5895078152
 20
9.478660141
 30
0.0
 10
11.5808798431
 20
9.4816742159
 30
0.0
 10
11.5720960173
 20
9.4840527889
 30
0.0
 10
11.563204727
 20
9.4857823775
 30
0.0
 10
11.5542551281
 20
9.4868558785
 30
0.0
 10
11.5452959688
 20
9.4872638828
 30
0.0
 10
11.5363768075
 20
9.4870064494
 30
0.0
 10
11.5275464189
 20
9.4860849122
 30
0.0
 10
11.5188538435
 20
9.4845017461
 30
0.0
 10
11.5103463252
 20
9.4822690054
 30
0.0
 10
11.5020711833
 20
9.479396383
 30
0.0
 10
11.4940742111
 20
9.4758998843
 30
0.0
 10
11.486398443
 20
9.4718006969
 30
0.0
 10
11.4790877911
 20
9.4671180835
 30
0.0
 10
11.4721817518
 20
9.4618808192
 30
0.0
 10
11.4678709088
 20
9.4580367873
 30
0.0
 10
11.4657972967
 20
9.4560336807
 30
0.0
  0
SPLINE
  5
337
100
AcDbEntity
  8
0
100
AcDbSpline
 62
7
  6
CONTINUOUS
 70
0
 71
3
 72
53
 73
49
 74
0
 42
0.0000001
 43
0.0000001
 44
0.0000000001
 40
0.0
 40
0.0
 40
0.0
 40
0.0
 40
0.0313041153
 40
0.0470567589
 40
0.0628625042
 40
0.0945982077
 40
0.1264996374
 40
0.1585539205
 40
0.1907323133
 40
0.2068600129
 40
0.2230041193
 40
0.2391599002
 40
0.2553223468
 40
0.2714864126
 40
0.2876472596
 40
0.3038000459
 40
0.319939713
 40
0.3360612399
 40
0.3521599324
 40
0.3842632888
 40
0.4162252851
 40
0.4480185945
 40
0.4796216269
 40
0.5110196976
 40
0.5422062894
 40
0.5731821078
 40
0.6039571965
 40
0.6192792312
 40
0.6345582438
 40
0.6649908279
 40
0.6801620739
 40
0.6953058919
 40
0.7104271196
 40
0.7255305534
 40
0.7406211915
 40
0.755704483
 40
0.770786026
 40
0.7858711759
 40
0.800965253
 40
0.816073731
 40
0.8463431443
 40
0.8615227459
 40
0.8767341965
 40
0.907262381
 40
0.922599162
 40
0.9379872792
 40
0.9689083072
 40
1.0
 40
1.0
 40
1.0
 40
1.0
 10
11.643455976
 20
9.3512544505
 30
0.0
 10
11.643455976
 20
9.3545050754
 30
0.0
 10
11.6432137134
 20
9.3593956424
 30
0.0
 10
11.6424211306
 20
9.3658767429
 30
0.0
 10
11.6413111356
 20
9.3723571559
 30
0.0
 10
11.6393330674
 20
9.3803797563
 30
0.0
 10
11.6360509285
 20
9.389773893
 30
0.0
 10
11.6318857769
 20
9.3988616241
 30
0.0
 10
11.6277165833
 20
9.4061049447
 30
0.0
 10
11.6239849472
 20
9.4116628816
 30
0.0
 10
11.6209912294
 20
9.4157057136
 30
0.0
 10
11.617813244
 20
9.419609848
 30
0.0
 10
11.6144586883
 20
9.4233661715
 30
0.0
 10
11.6109354354
 20
9.4269654841
 30
0.0
 10
11.6072512949
 20
9.4303984697
 30
0.0
 10
11.6034157139
 20
9.4336574656
 30
0.0
 10
11.599438197
 20
9.4367349197
 30
0.0
 10
11.595328114
 20
9.4396234193
 30
0.0
 10
11.5896900367
 20
9.4432083963
 30
0.0
 10
11.5823616903
 20
9.4471839176
 30
0.0
 10
11.5731960231
 20
9.4511026036
 30
0.0
 10
11.5637509505
 20
9.4541250368
 30
0.0
 10
11.5541189484
 20
9.4562262381
 30
0.0
 10
11.5443913897
 20
9.457380507
 30
0.0
 10
11.5346623636
 20
9.4575819405
 30
0.0
 10
11.5250259277
 20
9.4568227608
 30
0.0
 10
11.5171356739
 20
9.4553969658
 30
0.0
 10
11.5109664735
 20
9.453787083
 30
0.0
 10
11.5049219243
 20
9.4518745442
 30
0.0
 10
11.4990461358
 20
9.4495052199
 30
0.0
 10
11.4933954513
 20
9.4466965374
 30
0.0
 10
11.4892838694
 20
9.444377699
 30
0.0
 10
11.4853049608
 20
9.441851374
 30
0.0
 10
11.4814680187
 20
9.4391236626
 30
0.0
 10
11.4777825816
 20
9.4362008011
 30
0.0
 10
11.4742581164
 20
9.4330891542
 30
0.0
 10
11.4709024672
 20
9.4297969782
 30
0.0
 10
11.4677235222
 20
9.4263324163
 30
0.0
 10
11.4647289555
 20
9.4227034321
 30
0.0
 10
11.4609914633
 20
9.4176546802
 30
0.0
 10
11.4576513684
 20
9.4123107373
 30
0.0
 10
11.4547370883
 20
9.4067238984
 30
0.0
 10
11.45210513
 20
9.4009689886
 30
0.0
 10
11.4499178193
 20
9.39500182
 30
0.0
 10
11.4481901872
 20
9.3888782001
 30
0.0
 10
11.4467668086
 20
9.3826345149
 30
0.0
 10
11.4455778627
 20
9.3746715554
 30
0.0
 10
11.4452608145
 20
9.3682278986
 30
0.0
 10
11.4452608145
 20
9.3649993317
 30
0.0
  0
SPLINE
  5
338
100
AcDbEntity
  8
0
100
AcDbSpline
 62
7
  6
CONTINUOUS
 70
0
 71
3
 72
15
 73
11
 74
0
 42
0.0000001
 43
0.0000001
 44
0.0000000001
 40
0.0
 40
0.0
 40
0.0
 40
0.0
 40
0.1272800245
 40
0.2538578149
 40
0.379604606
 40
0.5046064114
 40
0.629012559
 40
0.7529526619
 40
0.8765610636
 40
1.0
 40
1.0
 40
1.0
 40
1.0
 10
11.6733813333
 20
9.3577534865
 30
0.0
 10
11.6733813333
 20
9.3539058091
 30
0.0
 10
11.6730120044
 20
9.3462265062
 30
0.0
 10
11.6713523612
 20
9.3348540353
 30
0.0
 10
11.6685947089
 20
9.3237662486
 30
0.0
 10
11.6647696599
 20
9.3130696447
 30
0.0
 10
11.6599087641
 20
9.3028624248
 30
0.0
 10
11.6540607477
 20
9.2932354907
 30
0.0
 10
11.6472755372
 20
9.2842823855
 30
0.0
 10
11.6421677438
 20
9.2788126799
 30
0.0
 10
11.639483899
 20
9.2762200892
 30
0.0
  0
SPLINE
  5
339
100
AcDbEntity
  8
0
100
AcDbSpline
 62
7
  6
CONTINUOUS
 70
0
 71
3
 72
53
 73
49
 74
0
 42
0.0000001
 43
0.0000001
 44
0.0000000001
 40
0.0
 40
0.0
 40
0.0
 40
0.0
 40
0.0310916928
 40
0.0620127208
 40
0.077400838
 40
0.092737619
 40
0.1232658035
 40
0.1384772541
 40
0.1536568557
 40
0.183926269
 40
0.199034747
 40
0.2141288241
 40
0.229213974
 40
0.244295517
 40
0.2593788085
 40
0.2744694466
 40
0.2895728804
 40
0.3046941081
 40
0.3198379261
 40
0.3350091721
 40
0.3654417562
 40
0.3807207688
 40
0.3960428035
 40
0.4268178922
 40
0.4577937106
 40
0.4889803024
 40
0.5203783731
 40
0.5519814055
 40
0.5837747149
 40
0.6157367112
 40
0.6478400676
 40
0.6639387601
 40
0.680060287
 40
0.6961999541
 40
0.7123527404
 40
0.7285135874
 40
0.7446776532
 40
0.7608400998
 40
0.7769958807
 40
0.7931399871
 40
0.8092676867
 40
0.8414460795
 40
0.8735003626
 40
0.9054017923
 40
0.9371374958
 40
0.9529432411
 40
0.9686958847
 40
1.0
 40
1.0
 40
1.0
 40
1.0
 10
11.643455976
 20
9.3512544505
 30
0.0
 10
11.643455976
 20
9.3480258836
 30
0.0
 10
11.6431389278
 20
9.3415822268
 30
0.0
 10
11.6419499819
 20
9.3336192673
 30
0.0
 10
11.6405266033
 20
9.3273755821
 30
0.0
 10
11.6387989712
 20
9.3212519622
 30
0.0
 10
11.6366116606
 20
9.3152847936
 30
0.0
 10
11.6339797022
 20
9.3095298838
 30
0.0
 10
11.6310654221
 20
9.3039430449
 30
0.0
 10
11.6277253272
 20
9.298599102
 30
0.0
 10
11.6239878351
 20
9.2935503501
 30
0.0
 10
11.6209932684
 20
9.2899213659
 30
0.0
 10
11.6178143233
 20
9.286456804
 30
0.0
 10
11.6144586741
 20
9.2831646279
 30
0.0
 10
11.610934209
 20
9.2800529811
 30
0.0
 10
11.6072487719
 20
9.2771301196
 30
0.0
 10
11.6034118297
 20
9.2744024082
 30
0.0
 10
11.5994329211
 20
9.2718760832
 30
0.0
 10
11.5953213392
 20
9.2695572448
 30
0.0
 10
11.5896706547
 20
9.2667485623
 30
0.0
 10
11.5837948662
 20
9.264379238
 30
0.0
 10
11.5777503171
 20
9.2624666992
 30
0.0
 10
11.5715811166
 20
9.2608568164
 30
0.0
 10
11.5636908628
 20
9.2594310214
 30
0.0
 10
11.5540544269
 20
9.2586718417
 30
0.0
 10
11.5443254009
 20
9.2588732752
 30
0.0
 10
11.5345978421
 20
9.2600275441
 30
0.0
 10
11.52496584
 20
9.2621287454
 30
0.0
 10
11.5155207674
 20
9.2651511786
 30
0.0
 10
11.5063551003
 20
9.2690698646
 30
0.0
 10
11.4990267539
 20
9.2730453859
 30
0.0
 10
11.4933886766
 20
9.2766303629
 30
0.0
 10
11.4892785936
 20
9.2795188625
 30
0.0
 10
11.4853010766
 20
9.2825963166
 30
0.0
 10
11.4814654957
 20
9.2858553125
 30
0.0
 10
11.4777813552
 20
9.2892882981
 30
0.0
 10
11.4742581022
 20
9.2928876107
 30
0.0
 10
11.4709035465
 20
9.2966439342
 30
0.0
 10
11.4677255611
 20
9.3005480686
 30
0.0
 10
11.4647318433
 20
9.3045909006
 30
0.0
 10
11.4610002072
 20
9.3101488375
 30
0.0
 10
11.4568310137
 20
9.3173921581
 30
0.0
 10
11.452665862
 20
9.3264798892
 30
0.0
 10
11.4493837231
 20
9.3358740259
 30
0.0
 10
11.447405655
 20
9.3438966263
 30
0.0
 10
11.4462956599
 20
9.3503770393
 30
0.0
 10
11.4455030771
 20
9.3568581398
 30
0.0
 10
11.4452608145
 20
9.3617487068
 30
0.0
 10
11.4452608145
 20
9.3649993317
 30
0.0
  0
SPLINE
  5
33A
100
AcDbEntity
  8
0
100
AcDbSpline
 62
7
  6
CONTINUOUS
 70
0
 71
3
 72
23
 73
19
 74
0
 42
0.0000001
 43
0.0000001
 44
0.0000000001
 40
0.0
 40
0.0
 40
0.0
 40
0.0
 40
0.0764216955
 40
0.1504654227
 40
0.2222014289
 40
0.2917108972
 40
0.3590900786
 40
0.4244474549
 40
0.487903708
 40
0.5495925108
 40
0.6096609283
 40
0.6682702054
 40
0.7255962412
 40
0.7818282176
 40
0.8371677928
 40
0.8918276897
 40
0.9460292397
 40
1.0
 40
1.0
 40
1.0
 40
1.0
 10
13.1733332379
 20
9.1480995337
 30
0.0
 10
13.1745209041
 20
9.1492467312
 30
0.0
 10
13.1768957755
 20
9.1514680812
 30
0.0
 10
13.1805146849
 20
9.1546246071
 30
0.0
 10
13.1841319647
 20
9.1575511736
 30
0.0
 10
13.1877465313
 20
9.1602467256
 30
0.0
 10
13.1913573675
 20
9.1627104931
 30
0.0
 10
13.194963544
 20
9.1649417563
 30
0.0
 10
13.1985641453
 20
9.1669398027
 30
0.0
 10
13.2021581813
 20
9.1687040265
 30
0.0
 10
13.2057446736
 20
9.1702337954
 30
0.0
 10
13.2093226354
 20
9.1715284852
 30
0.0
 10
13.2128910147
 20
9.1725876415
 30
0.0
 10
13.2164487712
 20
9.1734107901
 30
0.0
 10
13.2199947998
 20
9.1739974991
 30
0.0
 10
13.2235280091
 20
9.1743475263
 30
0.0
 10
13.2270470239
 20
9.174460648
 30
0.0
 10
13.2293849526
 20
9.1743779385
 30
0.0
 10
13.2305483064
 20
9.1742972613
 30
0.0
  0
SPLINE
  5
33B
100
AcDbEntity
  8
0
100
AcDbSpline
 62
7
  6
CONTINUOUS
 70
0
 71
3
 72
24
 73
20
 74
0
 42
0.0000001
 43
0.0000001
 44
0.0000000001
 40
0.0
 40
0.0
 40
0.0
 40
0.0
 40
0.0637764416
 40
0.1273443685
 40
0.190701004
 40
0.2538548276
 40
0.3168116139
 40
0.3795801666
 40
0.4421711529
 40
0.504596791
 40
0.5668710034
 40
0.6290092011
 40
0.6910281569
 40
0.7220010165
 40
0.7529508932
 40
0.8147862903
 40
0.8765592252
 40
0.938290164
 40
1.0
 40
1.0
 40
1.0
 40
1.0
 10
12.5828278324
 20
6.9314870361
 30
0.0
 10
12.5828278324
 20
6.9269201438
 30
0.0
 10
12.5826092292
 20
6.9177997434
 30
0.0
 10
12.5816226344
 20
6.9041746366
 30
0.0
 10
12.5799799138
 20
6.8906575169
 30
0.0
 10
12.5776850248
 20
6.8772801577
 30
0.0
 10
12.5747430777
 20
6.8640731181
 30
0.0
 10
12.5711608864
 20
6.8510669299
 30
0.0
 10
12.5669466897
 20
6.8382915539
 30
0.0
 10
12.5621101627
 20
6.8257764661
 30
0.0
 10
12.55666238
 20
6.8135504928
 30
0.0
 10
12.5506160207
 20
6.8016420095
 30
0.0
 10
12.5450874181
 20
6.7920009524
 30
0.0
 10
12.540380469
 20
6.7844757596
 30
0.0
 10
12.5354901202
 20
6.7770841968
 30
0.0
 10
12.5290305707
 20
6.7680907761
 30
0.0
 10
12.5207420466
 20
6.757718079
 30
0.0
 10
12.5119378023
 20
6.7477916344
 30
0.0
 10
12.505736922
 20
6.7414857477
 30
0.0
 10
12.5025586014
 20
6.7384157283
 30
0.0
  0
SPLINE
  5
33C
100
AcDbEntity
  8
0
100
AcDbSpline
 62
7
  6
CONTINUOUS
 70
0
 71
3
 72
24
 73
20
 74
0
 42
0.0000001
 43
0.0000001
 44
0.0000000001
 40
0.0
 40
0.0
 40
0.0
 40
0.0
 40
0.0637764416
 40
0.1273443685
 40
0.190701004
 40
0.2538548276
 40
0.3168116139
 40
0.3795801666
 40
0.4421711529
 40
0.504596791
 40
0.5668710034
 40
0.6290092011
 40
0.6910281569
 40
0.7220010165
 40
0.7529508932
 40
0.8147862903
 40
0.8765592252
 40
0.938290164
 40
1.0
 40
1.0
 40
1.0
 40
1.0
 10
9.5034560355
 20
7.1450421956
 30
0.0
 10
9.5034560355
 20
7.1404753033
 30
0.0
 10
9.5032374324
 20
7.1313549028
 30
0.0
 10
9.5022508376
 20
7.1177297961
 30
0.0
 10
9.500608117
 20
7.1042126763
 30
0.0
 10
9.498313228
 20
7.0908353171
 30
0.0
 10
9.4953712809
 20
7.0776282775
 30
0.0
 10
9.4917890896
 20
7.0646220894
 30
0.0
 10
9.4875748929
 20
7.0518467133
 30
0.0
 10
9.4827383659
 20
7.0393316255
 30
0.0
 10
9.4772905832
 20
7.0271056523
 30
0.0
 10
9.4712442239
 20
7.015197169
 30
0.0
 10
9.4657156212
 20
7.0055561119
 30
0.0
 10
9.4610086722
 20
6.9980309191
 30
0.0
 10
9.4561183233
 20
6.9906393563
 30
0.0
 10
9.4496587739
 20
6.9816459355
 30
0.0
 10
9.4413702498
 20
6.9712732384
 30
0.0
 10
9.4325660055
 20
6.9613467939
 30
0.0
 10
9.4263651251
 20
6.9550409071
 30
0.0
 10
9.4231868046
 20
6.9519708878
 30
0.0
  0
SPLINE
  5
33D
100
AcDbEntity
  8
0
100
AcDbSpline
 62
7
  6
CONTINUOUS
 70
0
 71
3
 72
24
 73
20
 74
0
 42
0.0000001
 43
0.0000001
 44
0.0000000001
 40
0.0
 40
0.0
 40
0.0
 40
0.0
 40
0.0637764416
 40
0.1273443685
 40
0.190701004
 40
0.2538548276
 40
0.3168116139
 40
0.3795801666
 40
0.4421711529
 40
0.504596791
 40
0.5668710034
 40
0.6290092011
 40
0.6910281569
 40
0.7220010165
 40
0.7529508932
 40
0.8147862903
 40
0.8765592252
 40
0.938290164
 40
1.0
 40
1.0
 40
1.0
 40
1.0
 10
9.5034560355
 20
9.5598569044
 30
0.0
 10
9.5034560355
 20
9.5552900121
 30
0.0
 10
9.5032374324
 20
9.5461696117
 30
0.0
 10
9.5022508376
 20
9.5325445049
 30
0.0
 10
9.500608117
 20
9.5190273851
 30
0.0
 10
9.498313228
 20
9.5056500259
 30
0.0
 10
9.4953712809
 20
9.4924429864
 30
0.0
 10
9.4917890896
 20
9.4794367982
 30
0.0
 10
9.4875748929
 20
9.4666614221
 30
0.0
 10
9.4827383659
 20
9.4541463343
 30
0.0
 10
9.4772905832
 20
9.4419203611
 30
0.0
 10
9.4712442239
 20
9.4300118778
 30
0.0
 10
9.4657156212
 20
9.4203708207
 30
0.0
 10
9.4610086722
 20
9.4128456279
 30
0.0
 10
9.4561183233
 20
9.4054540651
 30
0.0
 10
9.4496587739
 20
9.3964606443
 30
0.0
 10
9.4413702498
 20
9.3860879473
 30
0.0
 10
9.4325660055
 20
9.3761615027
 30
0.0
 10
9.4263651251
 20
9.369855616
 30
0.0
 10
9.4231868046
 20
9.3667855966
 30
0.0
  0
SPLINE
  5
33E
100
AcDbEntity
  8
0
100
AcDbSpline
 62
7
  6
CONTINUOUS
 70
0
 71
3
 72
24
 73
20
 74
0
 42
0.0000001
 43
0.0000001
 44
0.0000000001
 40
0.0
 40
0.0
 40
0.0
 40
0.0
 40
0.0637764416
 40
0.1273443685
 40
0.190701004
 40
0.2538548276
 40
0.3168116139
 40
0.3795801666
 40
0.4421711529
 40
0.504596791
 40
0.5668710034
 40
0.6290092011
 40
0.6910281569
 40
0.7220010165
 40
0.7529508932
 40
0.8147862903
 40
0.8765592252
 40
0.938290164
 40
1.0
 40
1.0
 40
1.0
 40
1.0
 10
12.5828278324
 20
9.346301745
 30
0.0
 10
12.5828278324
 20
9.3417348527
 30
0.0
 10
12.5826092292
 20
9.3326144522
 30
0.0
 10
12.5816226344
 20
9.3189893455
 30
0.0
 10
12.5799799138
 20
9.3054722257
 30
0.0
 10
12.5776850248
 20
9.2920948665
 30
0.0
 10
12.5747430777
 20
9.2788878269
 30
0.0
 10
12.5711608864
 20
9.2658816387
 30
0.0
 10
12.5669466897
 20
9.2531062627
 30
0.0
 10
12.5621101627
 20
9.2405911749
 30
0.0
 10
12.55666238
 20
9.2283652016
 30
0.0
 10
12.5506160207
 20
9.2164567183
 30
0.0
 10
12.5450874181
 20
9.2068156612
 30
0.0
 10
12.540380469
 20
9.1992904684
 30
0.0
 10
12.5354901202
 20
9.1918989056
 30
0.0
 10
12.5290305707
 20
9.1829054849
 30
0.0
 10
12.5207420466
 20
9.1725327878
 30
0.0
 10
12.5119378023
 20
9.1626063432
 30
0.0
 10
12.505736922
 20
9.1563004565
 30
0.0
 10
12.5025586014
 20
9.1532304372
 30
0.0
  0
SPLINE
  5
33F
100
AcDbEntity
  8
0
100
AcDbSpline
 62
7
  6
CONTINUOUS
 70
0
 71
3
 72
23
 73
19
 74
0
 42
0.0000001
 43
0.0000001
 44
0.0000000001
 40
0.0
 40
0.0
 40
0.0
 40
0.0
 40
0.0637744828
 40
0.1273454316
 40
0.1907025265
 40
0.2538558004
 40
0.316813226
 40
0.3795821625
 40
0.4421733656
 40
0.5045993404
 40
0.5668738661
 40
0.6290123724
 40
0.6910316429
 40
0.7529496283
 40
0.8147853425
 40
0.8765585905
 40
0.938289842
 40
1.0
 40
1.0
 40
1.0
 40
1.0
 10
11.7579271628
 20
9.4344184916
 30
0.0
 10
11.7579271628
 20
9.4324128158
 30
0.0
 10
11.7578311216
 20
9.428407187
 30
0.0
 10
11.7573978591
 20
9.4224231144
 30
0.0
 10
11.756676378
 20
9.4164864259
 30
0.0
 10
11.7556684208
 20
9.4106112061
 30
0.0
 10
11.7543763783
 20
9.4048107726
 30
0.0
 10
11.7528030692
 20
9.3990985438
 30
0.0
 10
11.7509522042
 20
9.3934876956
 30
0.0
 10
11.7488280259
 20
9.3879911566
 30
0.0
 10
11.7464353661
 20
9.382621625
 30
0.0
 10
11.7437798188
 20
9.3773914492
 30
0.0
 10
11.7408674164
 20
9.3723127351
 30
0.0
 10
11.7377049098
 20
9.3673971751
 30
0.0
 10
11.7342996111
 20
9.3626561064
 30
0.0
 10
11.7306592653
 20
9.3581004809
 30
0.0
 10
11.7267924991
 20
9.3537408784
 30
0.0
 10
11.7240690779
 20
9.3509714079
 30
0.0
 10
11.7226731763
 20
9.3496230815
 30
0.0
  0
SPLINE
  5
340
100
AcDbEntity
  8
0
100
AcDbSpline
 62
7
  6
CONTINUOUS
 70
0
 71
3
 72
23
 73
19
 74
0
 42
0.0000001
 43
0.0000001
 44
0.0000000001
 40
0.0
 40
0.0
 40
0.0
 40
0.0
 40
0.0637744828
 40
0.1273454316
 40
0.1907025265
 40
0.2538558004
 40
0.316813226
 40
0.3795821625
 40
0.4421733656
 40
0.5045993404
 40
0.5668738661
 40
0.6290123724
 40
0.6910316429
 40
0.7529496283
 40
0.8147853425
 40
0.8765585905
 40
0.938289842
 40
1.0
 40
1.0
 40
1.0
 40
1.0
 10
10.8827982949
 20
8.2567918394
 30
0.0
 10
10.8827982949
 20
8.2547861636
 30
0.0
 10
10.8827022537
 20
8.2507805348
 30
0.0
 10
10.8822689911
 20
8.2447964622
 30
0.0
 10
10.8815475101
 20
8.2388597737
 30
0.0
 10
10.8805395529
 20
8.2329845539
 30
0.0
 10
10.8792475103
 20
8.2271841205
 30
0.0
 10
10.8776742012
 20
8.2214718916
 30
0.0
 10
10.8758233362
 20
8.2158610434
 30
0.0
 10
10.873699158
 20
8.2103645045
 30
0.0
 10
10.8713064981
 20
8.2049949728
 30
0.0
 10
10.8686509509
 20
8.199764797
 30
0.0
 10
10.8657385485
 20
8.1946860829
 30
0.0
 10
10.8625760419
 20
8.189770523
 30
0.0
 10
10.8591707431
 20
8.1850294542
 30
0.0
 10
10.8555303973
 20
8.1804738287
 30
0.0
 10
10.8516636311
 20
8.1761142262
 30
0.0
 10
10.8489402099
 20
8.1733447557
 30
0.0
 10
10.8475443083
 20
8.1719964294
 30
0.0
  0
SPLINE
  5
341
100
AcDbEntity
  8
0
100
AcDbSpline
 62
7
  6
CONTINUOUS
 70
0
 71
3
 72
23
 73
19
 74
0
 42
0.0000001
 43
0.0000001
 44
0.0000000001
 40
0.0
 40
0.0
 40
0.0
 40
0.0
 40
0.0637764154
 40
0.1273451281
 40
0.190701988
 40
0.253856063
 40
0.3168132283
 40
0.3795820791
 40
0.4421733864
 40
0.5045993414
 40
0.5668738629
 40
0.629012379
 40
0.6910316532
 40
0.7529496461
 40
0.8147853522
 40
0.8765586034
 40
0.9382898574
 40
1.0
 40
1.0
 40
1.0
 40
1.0
 10
10.9987094009
 20
9.0639949202
 30
0.0
 10
10.9987094009
 20
9.0601377741
 30
0.0
 10
10.9985247617
 20
9.0524347371
 30
0.0
 10
10.9976915036
 20
9.0409270594
 30
0.0
 10
10.9963040755
 20
9.0295105699
 30
0.0
 10
10.9943658195
 20
9.0182121478
 30
0.0
 10
10.9918810746
 20
9.0070575699
 30
0.0
 10
10.9888555889
 20
8.9960726229
 30
0.0
 10
10.9852963219
 20
8.9852826217
 30
0.0
 10
10.9812114033
 20
8.9747124594
 30
0.0
 10
10.9766102665
 20
8.964386506
 30
0.0
 10
10.9715035146
 20
8.9543285688
 30
0.0
 10
10.9659028809
 20
8.9445618632
 30
0.0
 10
10.9598212509
 20
8.9351089251
 30
0.0
 10
10.9532726929
 20
8.9259915616
 30
0.0
 10
10.9462722222
 20
8.9172307345
 30
0.0
 10
10.9388362265
 20
8.9088469548
 30
0.0
 10
10.9335989996
 20
8.9035210394
 30
0.0
 10
10.9309146127
 20
8.9009281199
 30
0.0
  0
SPLINE
  5
342
100
AcDbEntity
  8
0
100
AcDbSpline
 62
7
  6
CONTINUOUS
 70
0
 71
3
 72
23
 73
19
 74
0
 42
0.0000001
 43
0.0000001
 44
0.0000000001
 40
0.0
 40
0.0
 40
0.0
 40
0.0
 40
0.0637764154
 40
0.1273451281
 40
0.190701988
 40
0.253856063
 40
0.3168132283
 40
0.3795820791
 40
0.4421733864
 40
0.5045993414
 40
0.5668738629
 40
0.629012379
 40
0.6910316532
 40
0.7529496461
 40
0.8147853522
 40
0.8765586034
 40
0.9382898574
 40
1.0
 40
1.0
 40
1.0
 40
1.0
 10
10.3051746792
 20
8.2968501732
 30
0.0
 10
10.3051746792
 20
8.2929930271
 30
0.0
 10
10.30499004
 20
8.2852899901
 30
0.0
 10
10.3041567819
 20
8.2737823124
 30
0.0
 10
10.3027693537
 20
8.2623658228
 30
0.0
 10
10.3008310978
 20
8.2510674007
 30
0.0
 10
10.2983463529
 20
8.2399128229
 30
0.0
 10
10.2953208672
 20
8.2289278759
 30
0.0
 10
10.2917616002
 20
8.2181378747
 30
0.0
 10
10.2876766815
 20
8.2075677124
 30
0.0
 10
10.2830755447
 20
8.1972417589
 30
0.0
 10
10.2779687928
 20
8.1871838217
 30
0.0
 10
10.2723681591
 20
8.1774171161
 30
0.0
 10
10.2662865292
 20
8.1679641781
 30
0.0
 10
10.2597379712
 20
8.1588468146
 30
0.0
 10
10.2527375005
 20
8.1500859874
 30
0.0
 10
10.2453015048
 20
8.1417022078
 30
0.0
 10
10.2400642779
 20
8.1363762923
 30
0.0
 10
10.2373798909
 20
8.1337833728
 30
0.0
  0
SPLINE
  5
343
100
AcDbEntity
  8
0
100
AcDbSpline
 62
7
  6
CONTINUOUS
 70
0
 71
3
 72
23
 73
19
 74
0
 42
0.0000001
 43
0.0000001
 44
0.0000000001
 40
0.0
 40
0.0
 40
0.0
 40
0.0
 40
0.0637764154
 40
0.1273451281
 40
0.190701988
 40
0.253856063
 40
0.3168132283
 40
0.3795820791
 40
0.4421733864
 40
0.5045993414
 40
0.5668738629
 40
0.629012379
 40
0.6910316532
 40
0.7529496461
 40
0.8147853522
 40
0.8765586034
 40
0.9382898574
 40
1.0
 40
1.0
 40
1.0
 40
1.0
 10
11.6922442378
 20
8.2006565726
 30
0.0
 10
11.6922442378
 20
8.1967994265
 30
0.0
 10
11.6920595986
 20
8.1890963894
 30
0.0
 10
11.6912263405
 20
8.1775887118
 30
0.0
 10
11.6898389123
 20
8.1661722222
 30
0.0
 10
11.6879006564
 20
8.1548738001
 30
0.0
 10
11.6854159115
 20
8.1437192223
 30
0.0
 10
11.6823904258
 20
8.1327342753
 30
0.0
 10
11.6788311588
 20
8.1219442741
 30
0.0
 10
11.6747462401
 20
8.1113741118
 30
0.0
 10
11.6701451033
 20
8.1010481583
 30
0.0
 10
11.6650383514
 20
8.0909902211
 30
0.0
 10
11.6594377177
 20
8.0812235155
 30
0.0
 10
11.6533560878
 20
8.0717705775
 30
0.0
 10
11.6468075298
 20
8.062653214
 30
0.0
 10
11.6398070591
 20
8.0538923868
 30
0.0
 10
11.6323710634
 20
8.0455086072
 30
0.0
 10
11.6271338365
 20
8.0401826917
 30
0.0
 10
11.6244494496
 20
8.0375897722
 30
0.0
  0
SPLINE
  5
344
100
AcDbEntity
  8
0
100
AcDbSpline
 62
7
  6
CONTINUOUS
 70
0
 71
3
 72
23
 73
19
 74
0
 42
0.0000001
 43
0.0000001
 44
0.0000000001
 40
0.0
 40
0.0
 40
0.0
 40
0.0
 40
0.0637764154
 40
0.1273451281
 40
0.190701988
 40
0.253856063
 40
0.3168132283
 40
0.3795820791
 40
0.4421733864
 40
0.5045993414
 40
0.5668738629
 40
0.629012379
 40
0.6910316532
 40
0.7529496461
 40
0.8147853522
 40
0.8765586034
 40
0.9382898574
 40
1.0
 40
1.0
 40
1.0
 40
1.0
 10
10.9987094009
 20
7.4335119487
 30
0.0
 10
10.9987094009
 20
7.4296548026
 30
0.0
 10
10.9985247617
 20
7.4219517656
 30
0.0
 10
10.9976915036
 20
7.4104440879
 30
0.0
 10
10.9963040755
 20
7.3990275983
 30
0.0
 10
10.9943658195
 20
7.3877291762
 30
0.0
 10
10.9918810746
 20
7.3765745984
 30
0.0
 10
10.9888555889
 20
7.3655896514
 30
0.0
 10
10.9852963219
 20
7.3547996502
 30
0.0
 10
10.9812114033
 20
7.3442294879
 30
0.0
 10
10.9766102665
 20
7.3339035344
 30
0.0
 10
10.9715035146
 20
7.3238455972
 30
0.0
 10
10.9659028809
 20
7.3140788916
 30
0.0
 10
10.9598212509
 20
7.3046259536
 30
0.0
 10
10.9532726929
 20
7.2955085901
 30
0.0
 10
10.9462722222
 20
7.2867477629
 30
0.0
 10
10.9388362265
 20
7.2783639833
 30
0.0
 10
10.9335989996
 20
7.2730380678
 30
0.0
 10
10.9309146127
 20
7.2704451483
 30
0.0
  0
SPLINE
  5
345
100
AcDbEntity
  8
0
100
AcDbSpline
 62
7
  6
CONTINUOUS
 70
0
 71
3
 72
39
 73
35
 74
0
 42
0.0000001
 43
0.0000001
 44
0.0000000001
 40
0.0
 40
0.0
 40
0.0
 40
0.0
 40
0.0315684442
 40
0.0629400207
 40
0.0941194312
 40
0.1251187747
 40
0.1559571066
 40
0.186659606
 40
0.2172564395
 40
0.2477814606
 40
0.2782709728
 40
0.3087625376
 40
0.3392939701
 40
0.3699024735
 40
0.4006238365
 40
0.4314917879
 40
0.4625372764
 40
0.4937874221
 40
0.5252642715
 40
0.5569832627
 40
0.5889511411
 40
0.6211630389
 40
0.6535990607
 40
0.6862204051
 40
0.7189656698
 40
0.7517481015
 40
0.7844552782
 40
0.8169528041
 40
0.8490927274
 40
0.8807265131
 40
0.9117202088
 40
0.9419683053
 40
0.9714034421
 40
1.0
 40
1.0
 40
1.0
 40
1.0
 10
9.9679267456
 20
8.471093665
 30
0.0
 10
9.9679267456
 20
8.4663150642
 30
0.0
 10
9.968260473
 20
8.4567841492
 30
0.0
 10
9.9697679786
 20
8.4426055015
 30
0.0
 10
9.9722653185
 20
8.4286541642
 30
0.0
 10
9.9757274506
 20
8.4149940659
 30
0.0
 10
9.9801213235
 20
8.4016808393
 30
0.0
 10
9.9854077063
 20
8.3887624088
 30
0.0
 10
9.9915431482
 20
8.3762783095
 30
0.0
 10
9.9984818503
 20
8.3642600059
 30
0.0
 10
10.0061773352
 20
8.3527314955
 30
0.0
 10
10.0145838005
 20
8.341710207
 30
0.0
 10
10.0236571433
 20
8.3312080523
 30
0.0
 10
10.0333556283
 20
8.3212325242
 30
0.0
 10
10.0436402515
 20
8.3117877714
 30
0.0
 10
10.054474825
 20
8.3028756148
 30
0.0
 10
10.0658258103
 20
8.2944965293
 30
0.0
 10
10.0776618479
 20
8.2866505232
 30
0.0
 10
10.0899530299
 20
8.2793379392
 30
0.0
 10
10.102669925
 20
8.2725601833
 30
0.0
 10
10.115782286
 20
8.2663204158
 30
0.0
 10
10.1292573942
 20
8.2606241269
 30
0.0
 10
10.1430580691
 20
8.2554795646
 30
0.0
 10
10.1571405059
 20
8.2508979465
 30
0.0
 10
10.1714521467
 20
8.2468933382
 30
0.0
 10
10.1859300278
 20
8.2434820679
 30
0.0
 10
10.2005002141
 20
8.240681618
 30
0.0
 10
10.2150789392
 20
8.2385090311
 30
0.0
 10
10.2295758287
 20
8.2369790454
 30
0.0
 10
10.2438990267
 20
8.2361023692
 30
0.0
 10
10.2579612274
 20
8.2358845024
 30
0.0
 10
10.2716856777
 20
8.2363255112
 30
0.0
 10
10.28500939
 20
8.2374205382
 30
0.0
 10
10.2937195815
 20
8.2385981863
 30
0.0
 10
10.2979914396
 20
8.2392976174
 30
0.0
  0
SPLINE
  5
346
100
AcDbEntity
  8
0
100
AcDbSpline
 62
7
  6
CONTINUOUS
 70
0
 71
3
 72
39
 73
35
 74
0
 42
0.0000001
 43
0.0000001
 44
0.0000000001
 40
0.0
 40
0.0
 40
0.0
 40
0.0
 40
0.0315685412
 40
0.0629402115
 40
0.0941196666
 40
0.125119003
 40
0.1559573214
 40
0.1866598328
 40
0.2172566935
 40
0.2477817323
 40
0.2782712505
 40
0.3087628316
 40
0.3392942978
 40
0.3699028247
 40
0.4006241782
 40
0.4314921145
 40
0.4625375661
 40
0.4937876358
 40
0.5252644289
 40
0.5569834565
 40
0.5889514219
 40
0.6211633904
 40
0.6535994497
 40
0.6862208145
 40
0.7189660932
 40
0.7517485279
 40
0.7844557208
 40
0.8169532677
 40
0.8490931852
 40
0.8807269391
 40
0.9117205783
 40
0.9419685947
 40
0.9714035964
 40
1.0
 40
1.0
 40
1.0
 40
1.0
 10
11.3549963042
 20
8.3749000644
 30
0.0
 10
11.3549963042
 20
8.3701214233
 30
0.0
 10
11.3553300382
 20
8.3605904285
 30
0.0
 10
11.3568375665
 20
8.3464116704
 30
0.0
 10
11.3593349452
 20
8.3324602427
 30
0.0
 10
11.3627971216
 20
8.318800074
 30
0.0
 10
11.3671910476
 20
8.3054867872
 30
0.0
 10
11.3724774933
 20
8.2925682974
 30
0.0
 10
11.3786130086
 20
8.2800841416
 30
0.0
 10
11.3855517903
 20
8.2680657893
 30
0.0
 10
11.3932473602
 20
8.2565372391
 30
0.0
 10
11.4016539173
 20
8.2455159166
 30
0.0
 10
11.4107273581
 20
8.2350137336
 30
0.0
 10
11.4204259424
 20
8.2250381882
 30
0.0
 10
11.4307106615
 20
8.2155934296
 30
0.0
 10
11.4415453252
 20
8.2066812791
 30
0.0
 10
11.4528963936
 20
8.1983022117
 30
0.0
 10
11.4647325078
 20
8.1904562303
 30
0.0
 10
11.4770237752
 20
8.1831436686
 30
0.0
 10
11.489740778
 20
8.1763659293
 30
0.0
 10
11.5028532646
 20
8.1701261763
 30
0.0
 10
11.5163284995
 20
8.1644299102
 30
0.0
 10
11.5301292921
 20
8.1592853823
 30
0.0
 10
11.5442118381
 20
8.1547038083
 30
0.0
 10
11.5585235822
 20
8.1506992531
 30
0.0
 10
11.5730015644
 20
8.1472880428
 30
0.0
 10
11.587571851
 20
8.1444876616
 30
0.0
 10
11.6021506721
 20
8.142315152
 30
0.0
 10
11.616647647
 20
8.1407852546
 30
0.0
 10
11.6309709138
 20
8.1399086775
 30
0.0
 10
11.645033166
 20
8.1396909196
 30
0.0
 10
11.658757645
 20
8.1401320465
 30
0.0
 10
11.6720813629
 20
8.1412271979
 30
0.0
 10
11.6807915457
 20
8.1424049341
 30
0.0
 10
11.6850633964
 20
8.1431044097
 30
0.0
  0
SPLINE
  5
347
100
AcDbEntity
  8
0
100
AcDbSpline
 62
7
  6
CONTINUOUS
 70
0
 71
3
 72
15
 73
11
 74
0
 42
0.0000001
 43
0.0000001
 44
0.0000000001
 40
0.0
 40
0.0
 40
0.0
 40
0.0
 40
0.1146590585
 40
0.2327592853
 40
0.3540685036
 40
0.4783449245
 40
0.6053380153
 40
0.734789407
 40
0.8664338428
 40
1.0
 40
1.0
 40
1.0
 40
1.0
 10
10.0153965754
 20
8.3411172315
 30
0.0
 10
10.0166326744
 20
8.3458275197
 30
0.0
 10
10.0190548322
 20
8.3554125201
 30
0.0
 10
10.0224929169
 20
8.370052811
 30
0.0
 10
10.0257841883
 20
8.3851451417
 30
0.0
 10
10.0289212435
 20
8.4006557579
 30
0.0
 10
10.0318970445
 20
8.4165500393
 30
0.0
 10
10.0347049213
 20
8.4327924861
 30
0.0
 10
10.0373385721
 20
8.4493467797
 30
0.0
 10
10.0389636202
 20
8.4604932875
 30
0.0
 10
10.0397466778
 20
8.4661117809
 30
0.0
  0
SPLINE
  5
348
100
AcDbEntity
  8
0
100
AcDbSpline
 62
7
  6
CONTINUOUS
 70
0
 71
3
 72
101
 73
97
 74
0
 42
0.0000001
 43
0.0000001
 44
0.0000000001
 40
0.0
 40
0.0
 40
0.0
 40
0.0
 40
0.0027164061
 40
0.0054531876
 40
0.0082302297
 40
0.0110664948
 40
0.0139796738
 40
0.0169859478
 40
0.0200998802
 40
0.0233343572
 40
0.0267006776
 40
0.0302085869
 40
0.0338664631
 40
0.0376813836
 40
0.0416593145
 40
0.0458051951
 40
0.0501230749
 40
0.05461622
 40
0.059287177
 40
0.0641379042
 40
0.0691697705
 40
0.0743836981
 40
0.079780127
 40
0.0853591412
 40
0.091120439
 40
0.0970634133
 40
0.1031871573
 40
0.109490486
 40
0.1159719866
 40
0.1226299852
 40
0.1294626337
 40
0.1364678432
 40
0.1436433801
 40
0.1509868012
 40
0.1584955261
 40
0.1661668045
 40
0.1739977437
 40
0.1819853208
 40
0.1984174024
 40
0.2154365146
 40
0.2330140899
 40
0.2511199125
 40
0.2697222653
 40
0.2887880645
 40
0.3082829839
 40
0.3281715722
 40
0.348417366
 40
0.3689829986
 40
0.3898303049
 40
0.4109204245
 40
0.4322139033
 40
0.4536707933
 40
0.4752507518
 40
0.4969131404
 40
0.5186171228
 40
0.5403217633
 40
0.5619861247
 40
0.5835693662
 40
0.6050308417
 40
0.6263301975
 40
0.6474274715
 40
0.6682831916
 40
0.6888584768
 40
0.7091151376
 40
0.7290157797
 40
0.7485239096
 40
0.7676040426
 40
0.7862218148
 40
0.8043441002
 40
0.8219391358
 40
0.838976655
 40
0.8554280343
 40
0.8634255699
 40
0.8712666769
 40
0.8789483041
 40
0.8864675678
 40
0.8938216932
 40
0.9010080993
 40
0.9080243293
 40
0.9148681339
 40
0.9215374229
 40
0.9280303184
 40
0.9343451526
 40
0.9404804751
 40
0.946435107
 40
0.952208103
 40
0.957798851
 40
0.9632070166
 40
0.9684326674
 40
0.9734762271
 40
0.978338563
 40
0.9830210047
 40
0.9875254819
 40
0.9918546131
 40
0.9960115556
 40
1.0
 40
1.0
 40
1.0
 40
1.0
 10
13.1161181694
 20
7.5242603947
 30
0.0
 10
13.1145746759
 20
7.5243674341
 30
0.0
 10
13.1114840114
 20
7.5247219925
 30
0.0
 10
13.1068873691
 20
7.5256708691
 30
0.0
 10
13.1023254631
 20
7.5270365498
 30
0.0
 10
13.0978015437
 20
7.5288177397
 30
0.0
 10
13.0933179652
 20
7.5310128731
 30
0.0
 10
13.0888769914
 20
7.5336201799
 30
0.0
 10
13.0844807207
 20
7.5366378774
 30
0.0
 10
13.0801310403
 20
7.5400639681
 30
0.0
 10
13.0758299074
 20
7.5438965386
 30
0.0
 10
13.0715790941
 20
7.5481334125
 30
0.0
 10
13.0673805354
 20
7.5527724503
 30
0.0
 10
13.0632360259
 20
7.557811244
 30
0.0
 10
13.0591474931
 20
7.5632473192
 30
0.0
 10
13.0551167976
 20
7.5690779702
 30
0.0
 10
13.0511458335
 20
7.5753003296
 30
0.0
 10
13.0472365174
 20
7.5819113446
 30
0.0
 10
13.0433906888
 20
7.5889077397
 30
0.0
 10
13.0396102845
 20
7.5962860852
 30
0.0
 10
13.035897087
 20
7.6040427059
 30
0.0
 10
13.0322530067
 20
7.6121737803
 30
0.0
 10
13.028679782
 20
7.6206752486
 30
0.0
 10
13.0251792519
 20
7.6295428951
 30
0.0
 10
13.0217531248
 20
7.6387722893
 30
0.0
 10
13.0184031382
 20
7.6483588294
 30
0.0
 10
13.0151309728
 20
7.6582977235
 30
0.0
 10
13.0119382536
 20
7.6685839977
 30
0.0
 10
13.0088266233
 20
7.679212506
 30
0.0
 10
13.0057975987
 20
7.6901779187
 30
0.0
 10
13.0028527632
 20
7.7014747435
 30
0.0
 10
12.9999935419
 20
7.7130973101
 30
0.0
 10
12.9972214307
 20
7.7250397895
 30
0.0
 10
12.9945377831
 20
7.7372961849
 30
0.0
 10
12.9919439827
 20
7.7498603441
 30
0.0
 10
12.989441326
 20
7.7627259532
 30
0.0
 10
12.9870310615
 20
7.7758865613
 30
0.0
 10
12.9839128321
 20
7.7939894273
 30
0.0
 10
12.9802636702
 20
7.8173098574
 30
0.0
 10
12.9763119053
 20
7.8461062967
 30
0.0
 10
12.972755223
 20
7.8759144331
 30
0.0
 10
12.9696008477
 20
7.9066743273
 30
0.0
 10
12.9668552059
 20
7.9383242263
 30
0.0
 10
12.9645238874
 20
7.9708005332
 30
0.0
 10
12.9626116425
 20
8.0040379829
 30
0.0
 10
12.9611223693
 20
8.0379697641
 30
0.0
 10
12.9600591084
 20
8.0725276594
 30
0.0
 10
12.9594240373
 20
8.1076421848
 30
0.0
 10
12.9592184665
 20
8.1432427308
 30
0.0
 10
12.9594428375
 20
8.1792577055
 30
0.0
 10
12.9600967221
 20
8.2156146801
 30
0.0
 10
12.9611788238
 20
8.2522405347
 30
0.0
 10
12.9626869806
 20
8.2890616063
 30
0.0
 10
12.9646181693
 20
8.3260038374
 30
0.0
 10
12.9669685123
 20
8.362992926
 30
0.0
 10
12.9697332837
 20
8.3999544751
 30
0.0
 10
12.9729069205
 20
8.4368141437
 30
0.0
 10
12.9764830334
 20
8.4734977969
 30
0.0
 10
12.9804544202
 20
8.5099316552
 30
0.0
 10
12.9848130796
 20
8.5460424437
 30
0.0
 10
12.9895502277
 20
8.58175754
 30
0.0
 10
12.9946563151
 20
8.617005121
 30
0.0
 10
13.0001210463
 20
8.6517143079
 30
0.0
 10
13.0059333995
 20
8.6858153101
 30
0.0
 10
13.0120816494
 20
8.7192395674
 30
0.0
 10
13.0185533886
 20
8.7519198897
 30
0.0
 10
13.0253355537
 20
8.7837905937
 30
0.0
 10
13.0324144511
 20
8.8147876405
 30
0.0
 10
13.0397757851
 20
8.8448487539
 30
0.0
 10
13.0474046839
 20
8.8739135959
 30
0.0
 10
13.055285739
 20
8.9019237297
 30
0.0
 10
13.0621127132
 20
8.9245474635
 30
0.0
 10
13.0676951484
 20
8.9420717029
 30
0.0
 10
13.0718956338
 20
8.9547930101
 30
0.0
 10
13.0761470675
 20
8.9672097914
 30
0.0
 10
13.0804472784
 20
8.9793158258
 30
0.0
 10
13.0847941494
 20
8.9911050233
 30
0.0
 10
13.0891854394
 20
9.0025714745
 30
0.0
 10
13.0936189865
 20
9.0137094159
 30
0.0
 10
13.0980925199
 20
9.0245132669
 30
0.0
 10
13.1026038144
 20
9.0349776047
 30
0.0
 10
13.1071505921
 20
9.0450971853
 30
0.0
 10
13.111730558
 20
9.0548669427
 30
0.0
 10
13.116341439
 20
9.0642819783
 30
0.0
 10
13.1209808775
 20
9.0733375966
 30
0.0
 10
13.1256466046
 20
9.0820292533
 30
0.0
 10
13.1303362187
 20
9.0903526323
 30
0.0
 10
13.1350474433
 20
9.098303562
 30
0.0
 10
13.1397778753
 20
9.1058781123
 30
0.0
 10
13.1445252163
 20
9.1130724963
 30
0.0
 10
13.149287071
 20
9.1198831465
 30
0.0
 10
13.1540610987
 20
9.1263066949
 30
0.0
 10
13.1588450114
 20
9.1323399857
 30
0.0
 10
13.1636365454
 20
9.1379801178
 30
0.0
 10
13.168433206
 20
9.1432240357
 30
0.0
 10
13.1716992903
 20
9.1465212614
 30
0.0
 10
13.1733332379
 20
9.1480995337
 30
0.0
  0
SPLINE
  5
349
100
AcDbEntity
  8
0
100
AcDbSpline
 62
7
  6
CONTINUOUS
 70
0
 71
3
 72
93
 73
89
 74
0
 42
0.0000001
 43
0.0000001
 44
0.0000000001
 40
0.0
 40
0.0
 40
0.0
 40
0.0
 40
0.0027656931
 40
0.0055962762
 40
0.0085079665
 40
0.0115155323
 40
0.0146322123
 40
0.017869676
 40
0.0212381566
 40
0.0247464765
 40
0.0284021859
 40
0.0322117296
 40
0.0361804697
 40
0.0403128949
 40
0.0446126853
 40
0.0490827622
 40
0.0537254707
 40
0.0585425444
 40
0.0635352202
 40
0.0687043258
 40
0.0740502207
 40
0.0795729521
 40
0.085272228
 40
0.0911474222
 40
0.0971976957
 40
0.1034219045
 40
0.1098186895
 40
0.1163865087
 40
0.1300275987
 40
0.1443292409
 40
0.1592725125
 40
0.1748361472
 40
0.1909968052
 40
0.2077292768
 40
0.2250066409
 40
0.2428004019
 40
0.2610806527
 40
0.279816201
 40
0.2989746742
 40
0.3185226136
 40
0.3384255991
 40
0.3586483509
 40
0.3791548182
 40
0.3999082639
 40
0.4208713719
 40
0.4420063404
 40
0.4632749664
 40
0.4846387323
 40
0.5060589036
 40
0.5274966184
 40
0.5489129717
 40
0.5702691066
 40
0.5915263089
 40
0.6126460916
 40
0.6335902813
 40
0.6543211163
 40
0.6748013402
 40
0.6949942853
 40
0.7148639613
 40
0.734375163
 40
0.753493571
 40
0.772185838
 40
0.7904196876
 40
0.8081640392
 40
0.8253891331
 40
0.8420666345
 40
0.8581697672
 40
0.8736734826
 40
0.8885546518
 40
0.9027922433
 40
0.9096639009
 40
0.9163678811
 40
0.9229022328
 40
0.9292652529
 40
0.9354554097
 40
0.9414713716
 40
0.9473120944
 40
0.952976729
 40
0.9584647434
 40
0.963775924
 40
0.9689103378
 40
0.9738684668
 40
0.9786511594
 40
0.9832597552
 40
0.9876962241
 40
0.9919630428
 40
0.9960631372
 40
1.0
 40
1.0
 40
1.0
 40
1.0
 10
13.070957791
 20
7.865942014
 30
0.0
 10
13.0700682533
 20
7.8662032625
 30
0.0
 10
13.0682900109
 20
7.8668087832
 30
0.0
 10
13.0656709269
 20
7.8679447325
 30
0.0
 10
13.0630751244
 20
7.8693162552
 30
0.0
 10
13.0605040848
 20
7.8709223231
 30
0.0
 10
13.0579588947
 20
7.8727619518
 30
0.0
 10
13.0554405981
 20
7.8748339875
 30
0.0
 10
13.0529502925
 20
7.8771373645
 30
0.0
 10
13.0504890017
 20
7.8796708668
 30
0.0
 10
13.0480577441
 20
7.8824332218
 30
0.0
 10
13.0456576277
 20
7.8854231339
 30
0.0
 10
13.0432896486
 20
7.8886391282
 30
0.0
 10
13.0409548935
 20
7.8920796978
 30
0.0
 10
13.0386544424
 20
7.8957432194
 30
0.0
 10
13.0363893038
 20
7.8996279311
 30
0.0
 10
13.0341605882
 20
7.9037320172
 30
0.0
 10
13.0319693132
 20
7.9080535106
 30
0.0
 10
13.0298165037
 20
7.9125903502
 30
0.0
 10
13.0277032308
 20
7.9173403867
 30
0.0
 10
13.0256304518
 20
7.9223013295
 30
0.0
 10
13.0235991912
 20
7.9274708122
 30
0.0
 10
13.0216104332
 20
7.9328463552
 30
0.0
 10
13.0196650988
 20
7.9384253671
 30
0.0
 10
13.017764174
 20
7.9442051764
 30
0.0
 10
13.0159085509
 20
7.9501829908
 30
0.0
 10
13.01409911
 20
7.9563559388
 30
0.0
 10
13.0117192594
 20
7.9649515302
 30
0.0
 10
13.0088739169
 20
7.9761663149
 30
0.0
 10
13.0056988489
 20
7.99018886
 30
0.0
 10
13.0027276639
 20
8.0049139718
 30
0.0
 10
12.9999661556
 20
8.0203132093
 30
0.0
 10
12.9974197303
 20
8.0363569269
 30
0.0
 10
12.9950933765
 20
8.0530141745
 30
0.0
 10
12.9929916556
 20
8.070252801
 30
0.0
 10
12.9911186718
 20
8.0880395042
 30
0.0
 10
12.9894780906
 20
8.1063399106
 30
0.0
 10
12.9880731278
 20
8.125118648
 30
0.0
 10
12.9869065436
 20
8.1443394085
 30
0.0
 10
12.9859806155
 20
8.1639650179
 30
0.0
 10
12.9852971587
 20
8.1839575132
 30
0.0
 10
12.9848575201
 20
8.2042782218
 30
0.0
 10
12.9846625779
 20
8.2248878313
 30
0.0
 10
12.9847127175
 20
8.2457464651
 30
0.0
 10
12.9850078522
 20
8.2668137621
 30
0.0
 10
12.9855474232
 20
8.2880489584
 30
0.0
 10
12.9863304031
 20
8.3094109631
 30
0.0
 10
12.9873552772
 20
8.3308584382
 30
0.0
 10
12.9886200619
 20
8.3523498798
 30
0.0
 10
12.9901223128
 20
8.3738436992
 30
0.0
 10
12.991859131
 20
8.395298302
 30
0.0
 10
12.9938271491
 20
8.4166721709
 30
0.0
 10
12.9960225496
 20
8.4379239465
 30
0.0
 10
12.9984410784
 20
8.4590125053
 30
0.0
 10
13.001078055
 20
8.479897039
 30
0.0
 10
13.0039283636
 20
8.5005371379
 30
0.0
 10
13.00698647
 20
8.52089287
 30
0.0
 10
13.0102464411
 20
8.5409248536
 30
0.0
 10
13.0137019581
 20
8.5605943331
 30
0.0
 10
13.0173463138
 20
8.5798632618
 30
0.0
 10
13.0211724257
 20
8.5986943771
 30
0.0
 10
13.0251728633
 20
8.6170512663
 30
0.0
 10
13.0293398626
 20
8.6348984362
 30
0.0
 10
13.0336653295
 20
8.6522013929
 30
0.0
 10
13.03814085
 20
8.6689267129
 30
0.0
 10
13.0427577239
 20
8.6850421031
 30
0.0
 10
13.0475069815
 20
8.7005164519
 30
0.0
 10
13.0523793935
 20
8.7153199461
 30
0.0
 10
13.0573654822
 20
8.7294239927
 30
0.0
 10
13.0616563266
 20
8.7407012609
 30
0.0
 10
13.0651437473
 20
8.7493481962
 30
0.0
 10
13.0677507513
 20
8.7555651514
 30
0.0
 10
13.0703788934
 20
8.7615876244
 30
0.0
 10
13.0730268841
 20
8.7674127266
 30
0.0
 10
13.0756934421
 20
8.7730376492
 30
0.0
 10
13.0783773089
 20
8.778459672
 30
0.0
 10
13.0810771427
 20
8.7836762016
 30
0.0
 10
13.0837916766
 20
8.7886847176
 30
0.0
 10
13.0865195991
 20
8.7934828179
 30
0.0
 10
13.0892595751
 20
8.7980682172
 30
0.0
 10
13.0920103398
 20
8.8024386917
 30
0.0
 10
13.0947705245
 20
8.8065921649
 30
0.0
 10
13.0975388161
 20
8.8105266468
 30
0.0
 10
13.1003139509
 20
8.8142402643
 30
0.0
 10
13.103094615
 20
8.817731313
 30
0.0
 10
13.1058795836
 20
8.8209981122
 30
0.0
 10
13.1086673591
 20
8.8240389561
 30
0.0
 10
13.1105647772
 20
8.8259528316
 30
0.0
 10
13.1115139799
 20
8.8268696911
 30
0.0
  0
SPLINE
  5
34A
100
AcDbEntity
  8
0
100
AcDbSpline
 62
7
  6
CONTINUOUS
 70
0
 71
3
 72
15
 73
11
 74
0
 42
0.0000001
 43
0.0000001
 44
0.0000000001
 40
0.0
 40
0.0
 40
0.0
 40
0.0
 40
0.1080210252
 40
0.219319751
 40
0.3348170861
 40
0.4553250068
 40
0.5815479615
 40
0.7140868676
 40
0.853440133
 40
1.0
 40
1.0
 40
1.0
 40
1.0
 10
13.1386565194
 20
8.8421203635
 30
0.0
 10
13.1375300415
 20
8.8419533723
 30
0.0
 10
13.1352591724
 20
8.841494324
 30
0.0
 10
13.1318799711
 20
8.8404572677
 30
0.0
 10
13.1284883917
 20
8.8390650631
 30
0.0
 10
13.1250872461
 20
8.8373196607
 30
0.0
 10
13.1216785466
 20
8.835222839
 30
0.0
 10
13.1182643056
 20
8.8327765158
 30
0.0
 10
13.1148468579
 20
8.8299828372
 30
0.0
 10
13.1126252825
 20
8.827943127
 30
0.0
 10
13.1115139799
 20
8.8268696911
 30
0.0
  0
SPLINE
  5
34B
100
AcDbEntity
  8
0
100
AcDbSpline
 62
7
  6
CONTINUOUS
 70
0
 71
3
 72
45
 73
41
 74
0
 42
0.0000001
 43
0.0000001
 44
0.0000000001
 40
0.0
 40
0.0
 40
0.0
 40
0.0
 40
0.0149721379
 40
0.0299473343
 40
0.0449286317
 40
0.0599190303
 40
0.0749214809
 40
0.089938856
 40
0.1049739397
 40
0.1200294108
 40
0.1351078203
 40
0.1502115887
 40
0.1653429784
 40
0.1805040926
 40
0.2109173739
 40
0.2414702831
 40
0.2721727342
 40
0.3030312377
 40
0.3340488046
 40
0.365224933
 40
0.396555672
 40
0.4280337568
 40
0.4596488082
 40
0.4913875919
 40
0.5232343248
 40
0.5551710235
 40
0.5871778874
 40
0.6192337084
 40
0.6513163011
 40
0.6834029486
 40
0.7154708537
 40
0.7474975916
 40
0.7794615572
 40
0.8113424013
 40
0.8431214485
 40
0.8747820968
 40
0.9063101458
 40
0.9376942762
 40
0.9689257414
 40
1.0
 40
1.0
 40
1.0
 40
1.0
 10
12.0912689403
 20
7.164214759
 30
0.0
 10
12.0937244452
 20
7.1665865926
 30
0.0
 10
12.0987308496
 20
7.1712336228
 30
0.0
 10
12.1065123059
 20
7.1779010388
 30
0.0
 10
12.1145558001
 20
7.1842568574
 30
0.0
 10
12.1228500708
 20
7.1902922295
 30
0.0
 10
12.131383744
 20
7.1959988956
 30
0.0
 10
12.1401450951
 20
7.201368942
 30
0.0
 10
12.1491220157
 20
7.2063950769
 30
0.0
 10
12.158302207
 20
7.2110702771
 30
0.0
 10
12.1676729957
 20
7.2153882197
 30
0.0
 10
12.1772214673
 20
7.2193428902
 30
0.0
 10
12.1869346646
 20
7.2229289133
 30
0.0
 10
12.2000991711
 20
7.2272161686
 30
0.0
 10
12.2169069503
 20
7.2316288584
 30
0.0
 10
12.2374909439
 20
7.2353752171
 30
0.0
 10
12.2584012131
 20
7.2375591818
 30
0.0
 10
12.2795219049
 20
7.2381687354
 30
0.0
 10
12.3007370743
 20
7.2372008747
 30
0.0
 10
12.3219300464
 20
7.2346611616
 30
0.0
 10
12.3429843937
 20
7.2305638015
 30
0.0
 10
12.363784475
 20
7.2249315264
 30
0.0
 10
12.3842160926
 20
7.2177954859
 30
0.0
 10
12.4041671004
 20
7.2091950494
 30
0.0
 10
12.423528012
 20
7.1991775902
 30
0.0
 10
12.4421925916
 20
7.1877982233
 30
0.0
 10
12.4600584293
 20
7.1751195042
 30
0.0
 10
12.4770274928
 20
7.1612110863
 30
0.0
 10
12.4930066709
 20
7.1461493547
 30
0.0
 10
12.5079082734
 20
7.1300170003
 30
0.0
 10
12.5216505029
 20
7.1129025664
 30
0.0
 10
12.5341578996
 20
7.0948999685
 30
0.0
 10
12.5453617518
 20
7.0761079872
 30
0.0
 10
12.5552004665
 20
7.0566297276
 30
0.0
 10
12.5636199187
 20
7.0365720792
 30
0.0
 10
12.57057374
 20
7.0160450909
 30
0.0
 10
12.5760236043
 20
6.9951615304
 30
0.0
 10
12.5799393227
 20
6.9740356833
 30
0.0
 10
12.5822992663
 20
6.952785052
 30
0.0
 10
12.5828278324
 20
6.9385726085
 30
0.0
 10
12.5828278324
 20
6.9314870361
 30
0.0
  0
SPLINE
  5
34C
100
AcDbEntity
  8
0
100
AcDbSpline
 62
7
  6
CONTINUOUS
 70
0
 71
3
 72
45
 73
41
 74
0
 42
0.0000001
 43
0.0000001
 44
0.0000000001
 40
0.0
 40
0.0
 40
0.0
 40
0.0
 40
0.0149721379
 40
0.0299473343
 40
0.0449286317
 40
0.0599190303
 40
0.0749214809
 40
0.089938856
 40
0.1049739397
 40
0.1200294108
 40
0.1351078203
 40
0.1502115887
 40
0.1653429784
 40
0.1805040926
 40
0.2109173739
 40
0.2414702831
 40
0.2721727342
 40
0.3030312377
 40
0.3340488046
 40
0.365224933
 40
0.396555672
 40
0.4280337568
 40
0.4596488082
 40
0.4913875919
 40
0.5232343248
 40
0.5551710235
 40
0.5871778874
 40
0.6192337084
 40
0.6513163011
 40
0.6834029486
 40
0.7154708537
 40
0.7474975916
 40
0.7794615572
 40
0.8113424013
 40
0.8431214485
 40
0.8747820968
 40
0.9063101458
 40
0.9376942762
 40
0.9689257414
 40
1.0
 40
1.0
 40
1.0
 40
1.0
 10
9.0118971435
 20
7.3777699184
 30
0.0
 10
9.0143526483
 20
7.380141752
 30
0.0
 10
9.0193590528
 20
7.3847887822
 30
0.0
 10
9.027140509
 20
7.3914561982
 30
0.0
 10
9.0351840033
 20
7.3978120168
 30
0.0
 10
9.043478274
 20
7.403847389
 30
0.0
 10
9.0520119472
 20
7.409554055
 30
0.0
 10
9.0607732983
 20
7.4149241015
 30
0.0
 10
9.0697502189
 20
7.4199502363
 30
0.0
 10
9.0789304102
 20
7.4246254366
 30
0.0
 10
9.0883011989
 20
7.4289433791
 30
0.0
 10
9.0978496705
 20
7.4328980496
 30
0.0
 10
9.1075628678
 20
7.4364840727
 30
0.0
 10
9.1207273742
 20
7.440771328
 30
0.0
 10
9.1375351535
 20
7.4451840179
 30
0.0
 10
9.1581191471
 20
7.4489303765
 30
0.0
 10
9.1790294163
 20
7.4511143412
 30
0.0
 10
9.2001501081
 20
7.4517238949
 30
0.0
 10
9.2213652775
 20
7.4507560342
 30
0.0
 10
9.2425582496
 20
7.448216321
 30
0.0
 10
9.2636125969
 20
7.4441189609
 30
0.0
 10
9.2844126782
 20
7.4384866858
 30
0.0
 10
9.3048442958
 20
7.4313506453
 30
0.0
 10
9.3247953036
 20
7.4227502089
 30
0.0
 10
9.3441562152
 20
7.4127327497
 30
0.0
 10
9.3628207948
 20
7.4013533827
 30
0.0
 10
9.3806866325
 20
7.3886746636
 30
0.0
 10
9.397655696
 20
7.3747662457
 30
0.0
 10
9.4136348741
 20
7.3597045141
 30
0.0
 10
9.4285364766
 20
7.3435721598
 30
0.0
 10
9.4422787061
 20
7.3264577258
 30
0.0
 10
9.4547861028
 20
7.308455128
 30
0.0
 10
9.4659899549
 20
7.2896631466
 30
0.0
 10
9.4758286697
 20
7.270184887
 30
0.0
 10
9.4842481219
 20
7.2501272387
 30
0.0
 10
9.4912019432
 20
7.2296002503
 30
0.0
 10
9.4966518075
 20
7.2087166898
 30
0.0
 10
9.5005675259
 20
7.1875908427
 30
0.0
 10
9.5029274695
 20
7.1663402115
 30
0.0
 10
9.5034560355
 20
7.1521277679
 30
0.0
 10
9.5034560355
 20
7.1450421956
 30
0.0
  0
SPLINE
  5
34D
100
AcDbEntity
  8
0
100
AcDbSpline
 62
7
  6
CONTINUOUS
 70
0
 71
3
 72
45
 73
41
 74
0
 42
0.0000001
 43
0.0000001
 44
0.0000000001
 40
0.0
 40
0.0
 40
0.0
 40
0.0
 40
0.0149721379
 40
0.0299473343
 40
0.0449286317
 40
0.0599190303
 40
0.0749214809
 40
0.089938856
 40
0.1049739397
 40
0.1200294108
 40
0.1351078203
 40
0.1502115887
 40
0.1653429784
 40
0.1805040926
 40
0.2109173739
 40
0.2414702831
 40
0.2721727342
 40
0.3030312377
 40
0.3340488046
 40
0.365224933
 40
0.396555672
 40
0.4280337568
 40
0.4596488082
 40
0.4913875919
 40
0.5232343248
 40
0.5551710235
 40
0.5871778874
 40
0.6192337084
 40
0.6513163011
 40
0.6834029486
 40
0.7154708537
 40
0.7474975916
 40
0.7794615572
 40
0.8113424013
 40
0.8431214485
 40
0.8747820968
 40
0.9063101458
 40
0.9376942762
 40
0.9689257414
 40
1.0
 40
1.0
 40
1.0
 40
1.0
 10
9.0118971435
 20
9.7925846272
 30
0.0
 10
9.0143526483
 20
9.7949564608
 30
0.0
 10
9.0193590528
 20
9.799603491
 30
0.0
 10
9.027140509
 20
9.8062709071
 30
0.0
 10
9.0351840033
 20
9.8126267256
 30
0.0
 10
9.043478274
 20
9.8186620978
 30
0.0
 10
9.0520119472
 20
9.8243687638
 30
0.0
 10
9.0607732983
 20
9.8297388103
 30
0.0
 10
9.0697502189
 20
9.8347649451
 30
0.0
 10
9.0789304102
 20
9.8394401454
 30
0.0
 10
9.0883011989
 20
9.8437580879
 30
0.0
 10
9.0978496705
 20
9.8477127584
 30
0.0
 10
9.1075628678
 20
9.8512987815
 30
0.0
 10
9.1207273742
 20
9.8555860368
 30
0.0
 10
9.1375351535
 20
9.8599987267
 30
0.0
 10
9.1581191471
 20
9.8637450853
 30
0.0
 10
9.1790294163
 20
9.86592905
 30
0.0
 10
9.2001501081
 20
9.8665386037
 30
0.0
 10
9.2213652775
 20
9.865570743
 30
0.0
 10
9.2425582496
 20
9.8630310298
 30
0.0
 10
9.2636125969
 20
9.8589336698
 30
0.0
 10
9.2844126782
 20
9.8533013947
 30
0.0
 10
9.3048442958
 20
9.8461653541
 30
0.0
 10
9.3247953036
 20
9.8375649177
 30
0.0
 10
9.3441562152
 20
9.8275474585
 30
0.0
 10
9.3628207948
 20
9.8161680915
 30
0.0
 10
9.3806866325
 20
9.8034893724
 30
0.0
 10
9.397655696
 20
9.7895809545
 30
0.0
 10
9.4136348741
 20
9.7745192229
 30
0.0
 10
9.4285364766
 20
9.7583868686
 30
0.0
 10
9.4422787061
 20
9.7412724346
 30
0.0
 10
9.4547861028
 20
9.7232698368
 30
0.0
 10
9.4659899549
 20
9.7044778554
 30
0.0
 10
9.4758286697
 20
9.6849995958
 30
0.0
 10
9.4842481219
 20
9.6649419475
 30
0.0
 10
9.4912019432
 20
9.6444149592
 30
0.0
 10
9.4966518075
 20
9.6235313986
 30
0.0
 10
9.5005675259
 20
9.6024055516
 30
0.0
 10
9.5029274695
 20
9.5811549203
 30
0.0
 10
9.5034560355
 20
9.5669424767
 30
0.0
 10
9.5034560355
 20
9.5598569044
 30
0.0
  0
SPLINE
  5
34E
100
AcDbEntity
  8
0
100
AcDbSpline
 62
7
  6
CONTINUOUS
 70
0
 71
3
 72
45
 73
41
 74
0
 42
0.0000001
 43
0.0000001
 44
0.0000000001
 40
0.0
 40
0.0
 40
0.0
 40
0.0
 40
0.0149721379
 40
0.0299473343
 40
0.0449286317
 40
0.0599190303
 40
0.0749214809
 40
0.089938856
 40
0.1049739397
 40
0.1200294108
 40
0.1351078203
 40
0.1502115887
 40
0.1653429784
 40
0.1805040926
 40
0.2109173739
 40
0.2414702831
 40
0.2721727342
 40
0.3030312377
 40
0.3340488046
 40
0.365224933
 40
0.396555672
 40
0.4280337568
 40
0.4596488082
 40
0.4913875919
 40
0.5232343248
 40
0.5551710235
 40
0.5871778874
 40
0.6192337084
 40
0.6513163011
 40
0.6834029486
 40
0.7154708537
 40
0.7474975916
 40
0.7794615572
 40
0.8113424013
 40
0.8431214485
 40
0.8747820968
 40
0.9063101458
 40
0.9376942762
 40
0.9689257414
 40
1.0
 40
1.0
 40
1.0
 40
1.0
 10
12.0912689403
 20
9.5790294678
 30
0.0
 10
12.0937244452
 20
9.5814013014
 30
0.0
 10
12.0987308496
 20
9.5860483316
 30
0.0
 10
12.1065123059
 20
9.5927157476
 30
0.0
 10
12.1145558001
 20
9.5990715662
 30
0.0
 10
12.1228500708
 20
9.6051069383
 30
0.0
 10
12.131383744
 20
9.6108136044
 30
0.0
 10
12.1401450951
 20
9.6161836508
 30
0.0
 10
12.1491220157
 20
9.6212097857
 30
0.0
 10
12.158302207
 20
9.6258849859
 30
0.0
 10
12.1676729957
 20
9.6302029285
 30
0.0
 10
12.1772214673
 20
9.634157599
 30
0.0
 10
12.1869346646
 20
9.6377436221
 30
0.0
 10
12.2000991711
 20
9.6420308774
 30
0.0
 10
12.2169069503
 20
9.6464435672
 30
0.0
 10
12.2374909439
 20
9.6501899259
 30
0.0
 10
12.2584012131
 20
9.6523738906
 30
0.0
 10
12.2795219049
 20
9.6529834442
 30
0.0
 10
12.3007370743
 20
9.6520155836
 30
0.0
 10
12.3219300464
 20
9.6494758704
 30
0.0
 10
12.3429843937
 20
9.6453785103
 30
0.0
 10
12.363784475
 20
9.6397462352
 30
0.0
 10
12.3842160926
 20
9.6326101947
 30
0.0
 10
12.4041671004
 20
9.6240097582
 30
0.0
 10
12.423528012
 20
9.6139922991
 30
0.0
 10
12.4421925916
 20
9.6026129321
 30
0.0
 10
12.4600584293
 20
9.589934213
 30
0.0
 10
12.4770274928
 20
9.5760257951
 30
0.0
 10
12.4930066709
 20
9.5609640635
 30
0.0
 10
12.5079082734
 20
9.5448317091
 30
0.0
 10
12.5216505029
 20
9.5277172752
 30
0.0
 10
12.5341578996
 20
9.5097146773
 30
0.0
 10
12.5453617518
 20
9.490922696
 30
0.0
 10
12.5552004665
 20
9.4714444364
 30
0.0
 10
12.5636199187
 20
9.451386788
 30
0.0
 10
12.57057374
 20
9.4308597997
 30
0.0
 10
12.5760236043
 20
9.4099762392
 30
0.0
 10
12.5799393227
 20
9.3888503921
 30
0.0
 10
12.5822992663
 20
9.3675997608
 30
0.0
 10
12.5828278324
 20
9.3533873173
 30
0.0
 10
12.5828278324
 20
9.346301745
 30
0.0
  0
SPLINE
  5
34F
100
AcDbEntity
  8
0
100
AcDbSpline
 62
7
  6
CONTINUOUS
 70
0
 71
3
 72
41
 73
37
 74
0
 42
0.0000001
 43
0.0000001
 44
0.0000000001
 40
0.0
 40
0.0
 40
0.0
 40
0.0
 40
0.0299421756
 40
0.0599087291
 40
0.0899234427
 40
0.12000893
 40
0.1501860972
 40
0.1804736576
 40
0.2108877103
 40
0.2414413945
 40
0.2721446252
 40
0.3030039132
 40
0.3340222692
 40
0.3651991907
 40
0.3965307261
 40
0.4280096099
 40
0.4596254632
 40
0.491365051
 40
0.5232125895
 40
0.5551500944
 40
0.5871577641
 40
0.61921439
 40
0.6512977872
 40
0.6833852384
 40
0.715453946
 40
0.7314766505
 40
0.7474863166
 40
0.7794510815
 40
0.8113327211
 40
0.8272389267
 40
0.8431175145
 40
0.8747789379
 40
0.9063078385
 40
0.9376925801
 40
0.9689252405
 40
1.0
 40
1.0
 40
1.0
 40
1.0
 10
11.5420404197
 20
9.5366305704
 30
0.0
 10
11.544197078
 20
9.5387137252
 30
0.0
 10
11.548680007
 20
9.5427118809
 30
0.0
 10
11.5558623208
 20
9.5481586787
 30
0.0
 10
11.5634658767
 20
9.5530277481
 30
0.0
 10
11.5714481809
 20
9.5572917842
 30
0.0
 10
11.5797653501
 20
9.5609274895
 30
0.0
 10
11.5883714824
 20
9.5639148793
 30
0.0
 10
11.5972191537
 20
9.5662376081
 30
0.0
 10
11.6062596199
 20
9.5678829951
 30
0.0
 10
11.6154431063
 20
9.5688421024
 30
0.0
 10
11.6247190783
 20
9.5691097737
 30
0.0
 10
11.6340365209
 20
9.5686846565
 30
0.0
 10
11.6433442169
 20
9.5675692035
 30
0.0
 10
11.6525910264
 20
9.5657696536
 30
0.0
 10
11.6617261642
 20
9.5632959934
 30
0.0
 10
11.670699475
 20
9.5601618993
 30
0.0
 10
11.6794617053
 20
9.5563846609
 30
0.0
 10
11.6879647698
 20
9.5519850835
 30
0.0
 10
11.6961620106
 20
9.5469873751
 30
0.0
 10
11.7040084548
 20
9.5414190066
 30
0.0
 10
11.7114610391
 20
9.5353105893
 30
0.0
 10
11.7184789132
 20
9.5286956035
 30
0.0
 10
11.7250234012
 20
9.5216106074
 30
0.0
 10
11.7300548374
 20
9.5153444021
 30
0.0
 10
11.7338087881
 20
9.5101359602
 30
0.0
 10
11.7373738228
 20
9.5048089298
 30
0.0
 10
11.7414725761
 20
9.4979342946
 30
0.0
 10
11.7450764616
 20
9.4907993076
 30
0.0
 10
11.747647258
 20
9.4849636652
 30
0.0
 10
11.7500024791
 20
9.4790615146
 30
0.0
 10
11.7525453907
 20
9.4715552333
 30
0.0
 10
11.7549388117
 20
9.4623836039
 30
0.0
 10
11.7566585928
 20
9.4531053171
 30
0.0
 10
11.7576950104
 20
9.4437723092
 30
0.0
 10
11.7579271628
 20
9.4375303613
 30
0.0
 10
11.7579271628
 20
9.4344184916
 30
0.0
  0
SPLINE
  5
350
100
AcDbEntity
  8
0
100
AcDbSpline
 62
7
  6
CONTINUOUS
 70
0
 71
3
 72
41
 73
37
 74
0
 42
0.0000001
 43
0.0000001
 44
0.0000000001
 40
0.0
 40
0.0
 40
0.0
 40
0.0
 40
0.0299421756
 40
0.0599087291
 40
0.0899234427
 40
0.12000893
 40
0.1501860972
 40
0.1804736576
 40
0.2108877103
 40
0.2414413945
 40
0.2721446252
 40
0.3030039132
 40
0.3340222692
 40
0.3651991907
 40
0.3965307261
 40
0.4280096099
 40
0.4596254632
 40
0.491365051
 40
0.5232125895
 40
0.5551500944
 40
0.5871577641
 40
0.61921439
 40
0.6512977872
 40
0.6833852384
 40
0.715453946
 40
0.7314766505
 40
0.7474863166
 40
0.7794510815
 40
0.8113327211
 40
0.8272389267
 40
0.8431175145
 40
0.8747789379
 40
0.9063078385
 40
0.9376925801
 40
0.9689252405
 40
1.0
 40
1.0
 40
1.0
 40
1.0
 10
10.6669115517
 20
8.3590039182
 30
0.0
 10
10.66906821
 20
8.361087073
 30
0.0
 10
10.673551139
 20
8.3650852288
 30
0.0
 10
10.6807334528
 20
8.3705320265
 30
0.0
 10
10.6883370087
 20
8.3754010959
 30
0.0
 10
10.6963193129
 20
8.3796651321
 30
0.0
 10
10.7046364821
 20
8.3833008373
 30
0.0
 10
10.7132426145
 20
8.3862882271
 30
0.0
 10
10.7220902857
 20
8.388610956
 30
0.0
 10
10.7311307519
 20
8.3902563429
 30
0.0
 10
10.7403142383
 20
8.3912154502
 30
0.0
 10
10.7495902103
 20
8.3914831215
 30
0.0
 10
10.7589076529
 20
8.3910580043
 30
0.0
 10
10.7682153489
 20
8.3899425513
 30
0.0
 10
10.7774621584
 20
8.3881430014
 30
0.0
 10
10.7865972962
 20
8.3856693412
 30
0.0
 10
10.795570607
 20
8.3825352471
 30
0.0
 10
10.8043328373
 20
8.3787580088
 30
0.0
 10
10.8128359018
 20
8.3743584313
 30
0.0
 10
10.8210331426
 20
8.3693607229
 30
0.0
 10
10.8288795868
 20
8.3637923544
 30
0.0
 10
10.8363321711
 20
8.3576839371
 30
0.0
 10
10.8433500453
 20
8.3510689513
 30
0.0
 10
10.8498945332
 20
8.3439839552
 30
0.0
 10
10.8549259694
 20
8.3377177499
 30
0.0
 10
10.8586799201
 20
8.332509308
 30
0.0
 10
10.8622449548
 20
8.3271822776
 30
0.0
 10
10.8663437081
 20
8.3203076424
 30
0.0
 10
10.8699475937
 20
8.3131726554
 30
0.0
 10
10.8725183901
 20
8.3073370131
 30
0.0
 10
10.8748736112
 20
8.3014348624
 30
0.0
 10
10.8774165227
 20
8.2939285811
 30
0.0
 10
10.8798099438
 20
8.2847569517
 30
0.0
 10
10.8815297248
 20
8.2754786649
 30
0.0
 10
10.8825661424
 20
8.2661456571
 30
0.0
 10
10.8827982949
 20
8.2599037091
 30
0.0
 10
10.8827982949
 20
8.2567918394
 30
0.0
  0
SPLINE
  5
351
100
AcDbEntity
  8
0
100
AcDbSpline
 62
7
  6
CONTINUOUS
 70
0
 71
3
 72
42
 73
38
 74
0
 42
0.0000001
 43
0.0000001
 44
0.0000000001
 40
0.0
 40
0.0
 40
0.0
 40
0.0
 40
0.0149723971
 40
0.029947854
 40
0.0449294092
 40
0.0599200692
 40
0.0749227779
 40
0.0899404136
 40
0.1200256609
 40
0.1502025864
 40
0.1804899033
 40
0.2109037105
 40
0.2414571471
 40
0.2721601282
 40
0.3030191646
 40
0.3340372675
 40
0.3652139349
 40
0.3965452155
 40
0.4280238444
 40
0.459639443
 40
0.4913787765
 40
0.5232260611
 40
0.5551633129
 40
0.5871707307
 40
0.6192271064
 40
0.6513102549
 40
0.683397459
 40
0.7154659208
 40
0.7474932143
 40
0.7794577337
 40
0.8113391302
 40
0.8431187274
 40
0.8747799267
 40
0.906308519
 40
0.9376931951
 40
0.9689252215
 40
1.0
 40
1.0
 40
1.0
 40
1.0
 10
10.5835412473
 20
9.2605553144
 30
0.0
 10
10.5856151532
 20
9.2625585542
 30
0.0
 10
10.5898435024
 20
9.2664834515
 30
0.0
 10
10.5964157098
 20
9.2721146813
 30
0.0
 10
10.603209182
 20
9.2774828135
 30
0.0
 10
10.6102144581
 20
9.2825802426
 30
0.0
 10
10.6174220545
 20
9.2874001079
 30
0.0
 10
10.6272930727
 20
9.2934504331
 30
0.0
 10
10.6400947882
 20
9.3002892235
 30
0.0
 10
10.6560889574
 20
9.3072808451
 30
0.0
 10
10.6726393294
 20
9.3130260238
 30
0.0
 10
10.6896540785
 20
9.3174929116
 30
0.0
 10
10.7070396325
 20
9.320657235
 30
0.0
 10
10.7247002242
 20
9.3225017766
 30
0.0
 10
10.7425386835
 20
9.3230166287
 30
0.0
 10
10.7604569003
 20
9.3221991879
 30
0.0
 10
10.7783563806
 20
9.3200541706
 30
0.0
 10
10.7961387773
 20
9.316593573
 30
0.0
 10
10.8137064253
 20
9.3118365983
 30
0.0
 10
10.8309628705
 20
9.3058095462
 30
0.0
 10
10.8478133942
 20
9.298545668
 30
0.0
 10
10.8641655242
 20
9.2900849754
 30
0.0
 10
10.8799295349
 20
9.2804740207
 30
0.0
 10
10.8950189329
 20
9.2697656413
 30
0.0
 10
10.9093509259
 20
9.2580186711
 30
0.0
 10
10.9228468704
 20
9.2452976204
 30
0.0
 10
10.9354326993
 20
9.2316723242
 30
0.0
 10
10.9470393231
 20
9.2172175633
 30
0.0
 10
10.9576030062
 20
9.2020126583
 30
0.0
 10
10.9670657187
 20
9.1861410425
 30
0.0
 10
10.9753754461
 20
9.1696898022
 30
0.0
 10
10.9824864796
 20
9.1527492158
 30
0.0
 10
10.9883596482
 20
9.1354122271
 30
0.0
 10
10.9929625831
 20
9.1177740785
 30
0.0
 10
10.9962697824
 20
9.0999312911
 30
0.0
 10
10.9982629764
 20
9.0819831139
 30
0.0
 10
10.9987094009
 20
9.0699793554
 30
0.0
 10
10.9987094009
 20
9.0639949202
 30
0.0
  0
SPLINE
  5
352
100
AcDbEntity
  8
0
100
AcDbSpline
 62
7
  6
CONTINUOUS
 70
0
 71
3
 72
42
 73
38
 74
0
 42
0.0000001
 43
0.0000001
 44
0.0000000001
 40
0.0
 40
0.0
 40
0.0
 40
0.0
 40
0.0149723971
 40
0.029947854
 40
0.0449294092
 40
0.0599200692
 40
0.0749227779
 40
0.0899404136
 40
0.1200256609
 40
0.1502025864
 40
0.1804899033
 40
0.2109037105
 40
0.2414571471
 40
0.2721601282
 40
0.3030191646
 40
0.3340372675
 40
0.3652139349
 40
0.3965452155
 40
0.4280238444
 40
0.459639443
 40
0.4913787765
 40
0.5232260611
 40
0.5551633129
 40
0.5871707307
 40
0.6192271064
 40
0.6513102549
 40
0.683397459
 40
0.7154659208
 40
0.7474932143
 40
0.7794577337
 40
0.8113391302
 40
0.8431187274
 40
0.8747799267
 40
0.906308519
 40
0.9376931951
 40
0.9689252215
 40
1.0
 40
1.0
 40
1.0
 40
1.0
 10
9.8900065256
 20
8.4934105674
 30
0.0
 10
9.8920804315
 20
8.4954138072
 30
0.0
 10
9.8963087807
 20
8.4993387044
 30
0.0
 10
9.902880988
 20
8.5049699343
 30
0.0
 10
9.9096744603
 20
8.5103380664
 30
0.0
 10
9.9166797364
 20
8.5154354956
 30
0.0
 10
9.9238873328
 20
8.5202553609
 30
0.0
 10
9.933758351
 20
8.5263056861
 30
0.0
 10
9.9465600665
 20
8.5331444765
 30
0.0
 10
9.9625542357
 20
8.5401360981
 30
0.0
 10
9.9791046077
 20
8.5458812768
 30
0.0
 10
9.9961193568
 20
8.5503481645
 30
0.0
 10
10.0135049107
 20
8.553512488
 30
0.0
 10
10.0311655025
 20
8.5553570296
 30
0.0
 10
10.0490039617
 20
8.5558718817
 30
0.0
 10
10.0669221786
 20
8.5550544409
 30
0.0
 10
10.0848216589
 20
8.5529094235
 30
0.0
 10
10.1026040556
 20
8.549448826
 30
0.0
 10
10.1201717035
 20
8.5446918513
 30
0.0
 10
10.1374281487
 20
8.5386647992
 30
0.0
 10
10.1542786725
 20
8.531400921
 30
0.0
 10
10.1706308025
 20
8.5229402284
 30
0.0
 10
10.1863948131
 20
8.5133292737
 30
0.0
 10
10.2014842112
 20
8.5026208943
 30
0.0
 10
10.2158162041
 20
8.4908739241
 30
0.0
 10
10.2293121487
 20
8.4781528734
 30
0.0
 10
10.2418979776
 20
8.4645275772
 30
0.0
 10
10.2535046014
 20
8.4500728163
 30
0.0
 10
10.2640682845
 20
8.4348679113
 30
0.0
 10
10.2735309969
 20
8.4189962955
 30
0.0
 10
10.2818407244
 20
8.4025450551
 30
0.0
 10
10.2889517579
 20
8.3856044688
 30
0.0
 10
10.2948249265
 20
8.3682674801
 30
0.0
 10
10.2994278614
 20
8.3506293314
 30
0.0
 10
10.3027350606
 20
8.3327865441
 30
0.0
 10
10.3047282547
 20
8.3148383669
 30
0.0
 10
10.3051746792
 20
8.3028346084
 30
0.0
 10
10.3051746792
 20
8.2968501732
 30
0.0
  0
SPLINE
  5
353
100
AcDbEntity
  8
0
100
AcDbSpline
 62
7
  6
CONTINUOUS
 70
0
 71
3
 72
15
 73
11
 74
0
 42
0.0000001
 43
0.0000001
 44
0.0000000001
 40
0.0
 40
0.0
 40
0.0
 40
0.0
 40
0.1262893171
 40
0.2522800548
 40
0.3779352219
 40
0.5032185541
 40
0.6280945202
 40
0.7525319637
 40
0.8765134963
 40
1.0
 40
1.0
 40
1.0
 40
1.0
 10
9.9816098389
 20
8.546315122
 30
0.0
 10
9.9804966489
 20
8.5432777904
 30
0.0
 10
9.9783971181
 20
8.5371639066
 30
0.0
 10
9.9756376622
 20
8.5278818525
 30
0.0
 10
9.9732822514
 20
8.5185154281
 30
0.0
 10
9.9713406336
 20
8.5090836633
 30
0.0
 10
9.969821063
 20
8.4996062783
 30
0.0
 10
9.9687304045
 20
8.4901034406
 30
0.0
 10
9.9680736815
 20
8.4805966108
 30
0.0
 10
9.9679267456
 20
8.4742567706
 30
0.0
 10
9.9679267456
 20
8.471093665
 30
0.0
  0
SPLINE
  5
354
100
AcDbEntity
  8
0
100
AcDbSpline
 62
7
  6
CONTINUOUS
 70
0
 71
3
 72
42
 73
38
 74
0
 42
0.0000001
 43
0.0000001
 44
0.0000000001
 40
0.0
 40
0.0
 40
0.0
 40
0.0
 40
0.0149723971
 40
0.029947854
 40
0.0449294092
 40
0.0599200692
 40
0.0749227779
 40
0.0899404136
 40
0.1200256609
 40
0.1502025864
 40
0.1804899033
 40
0.2109037105
 40
0.2414571471
 40
0.2721601282
 40
0.3030191646
 40
0.3340372675
 40
0.3652139349
 40
0.3965452155
 40
0.4280238444
 40
0.459639443
 40
0.4913787765
 40
0.5232260611
 40
0.5551633129
 40
0.5871707307
 40
0.6192271064
 40
0.6513102549
 40
0.683397459
 40
0.7154659208
 40
0.7474932143
 40
0.7794577337
 40
0.8113391302
 40
0.8431187274
 40
0.8747799267
 40
0.906308519
 40
0.9376931951
 40
0.9689252215
 40
1.0
 40
1.0
 40
1.0
 40
1.0
 10
11.2770760842
 20
8.3972169668
 30
0.0
 10
11.2791499901
 20
8.3992202066
 30
0.0
 10
11.2833783393
 20
8.4031451038
 30
0.0
 10
11.2899505466
 20
8.4087763337
 30
0.0
 10
11.2967440189
 20
8.4141444658
 30
0.0
 10
11.303749295
 20
8.419241895
 30
0.0
 10
11.3109568914
 20
8.4240617603
 30
0.0
 10
11.3208279096
 20
8.4301120855
 30
0.0
 10
11.3336296251
 20
8.4369508759
 30
0.0
 10
11.3496237943
 20
8.4439424975
 30
0.0
 10
11.3661741663
 20
8.4496876762
 30
0.0
 10
11.3831889154
 20
8.4541545639
 30
0.0
 10
11.4005744693
 20
8.4573188874
 30
0.0
 10
11.4182350611
 20
8.459163429
 30
0.0
 10
11.4360735204
 20
8.4596782811
 30
0.0
 10
11.4539917372
 20
8.4588608403
 30
0.0
 10
11.4718912175
 20
8.4567158229
 30
0.0
 10
11.4896736142
 20
8.4532552254
 30
0.0
 10
11.5072412621
 20
8.4484982507
 30
0.0
 10
11.5244977073
 20
8.4424711986
 30
0.0
 10
11.5413482311
 20
8.4352073204
 30
0.0
 10
11.5577003611
 20
8.4267466278
 30
0.0
 10
11.5734643717
 20
8.4171356731
 30
0.0
 10
11.5885537698
 20
8.4064272936
 30
0.0
 10
11.6028857627
 20
8.3946803235
 30
0.0
 10
11.6163817073
 20
8.3819592728
 30
0.0
 10
11.6289675362
 20
8.3683339766
 30
0.0
 10
11.64057416
 20
8.3538792157
 30
0.0
 10
11.6511378431
 20
8.3386743107
 30
0.0
 10
11.6606005555
 20
8.3228026949
 30
0.0
 10
11.668910283
 20
8.3063514545
 30
0.0
 10
11.6760213165
 20
8.2894108682
 30
0.0
 10
11.6818944851
 20
8.2720738795
 30
0.0
 10
11.68649742
 20
8.2544357308
 30
0.0
 10
11.6898046193
 20
8.2365929435
 30
0.0
 10
11.6917978133
 20
8.2186447663
 30
0.0
 10
11.6922442378
 20
8.2066410078
 30
0.0
 10
11.6922442378
 20
8.2006565726
 30
0.0
  0
SPLINE
  5
355
100
AcDbEntity
  8
0
100
AcDbSpline
 62
7
  6
CONTINUOUS
 70
0
 71
3
 72
15
 73
11
 74
0
 42
0.0000001
 43
0.0000001
 44
0.0000000001
 40
0.0
 40
0.0
 40
0.0
 40
0.0
 40
0.1262891436
 40
0.2522796354
 40
0.3779345645
 40
0.5032178529
 40
0.6280938448
 40
0.7525314307
 40
0.8765133508
 40
1.0
 40
1.0
 40
1.0
 40
1.0
 10
11.3686785801
 20
8.4501192926
 30
0.0
 10
11.3675654567
 20
8.4470820477
 30
0.0
 10
11.3654660523
 20
8.4409683431
 30
0.0
 10
11.3627067652
 20
8.4316865686
 30
0.0
 10
11.3603514921
 20
8.4223204312
 30
0.0
 10
11.3584099962
 20
8.4128889519
 30
0.0
 10
11.3568905115
 20
8.4034118504
 30
0.0
 10
11.3557999152
 20
8.3939092887
 30
0.0
 10
11.3551432346
 20
8.3844027339
 30
0.0
 10
11.3549963042
 20
8.378063076
 30
0.0
 10
11.3549963042
 20
8.3749000644
 30
0.0
  0
SPLINE
  5
356
100
AcDbEntity
  8
0
100
AcDbSpline
 62
7
  6
CONTINUOUS
 70
0
 71
3
 72
42
 73
38
 74
0
 42
0.0000001
 43
0.0000001
 44
0.0000000001
 40
0.0
 40
0.0
 40
0.0
 40
0.0
 40
0.0149723971
 40
0.029947854
 40
0.0449294092
 40
0.0599200692
 40
0.0749227779
 40
0.0899404136
 40
0.1200256609
 40
0.1502025864
 40
0.1804899033
 40
0.2109037105
 40
0.2414571471
 40
0.2721601282
 40
0.3030191646
 40
0.3340372675
 40
0.3652139349
 40
0.3965452155
 40
0.4280238444
 40
0.459639443
 40
0.4913787765
 40
0.5232260611
 40
0.5551633129
 40
0.5871707307
 40
0.6192271064
 40
0.6513102549
 40
0.683397459
 40
0.7154659208
 40
0.7474932143
 40
0.7794577337
 40
0.8113391302
 40
0.8431187274
 40
0.8747799267
 40
0.906308519
 40
0.9376931951
 40
0.9689252215
 40
1.0
 40
1.0
 40
1.0
 40
1.0
 10
10.5835412473
 20
7.6300723429
 30
0.0
 10
10.5856151532
 20
7.6320755827
 30
0.0
 10
10.5898435024
 20
7.6360004799
 30
0.0
 10
10.5964157098
 20
7.6416317098
 30
0.0
 10
10.603209182
 20
7.6469998419
 30
0.0
 10
10.6102144581
 20
7.6520972711
 30
0.0
 10
10.6174220545
 20
7.6569171364
 30
0.0
 10
10.6272930727
 20
7.6629674616
 30
0.0
 10
10.6400947882
 20
7.669806252
 30
0.0
 10
10.6560889574
 20
7.6767978736
 30
0.0
 10
10.6726393294
 20
7.6825430523
 30
0.0
 10
10.6896540785
 20
7.68700994
 30
0.0
 10
10.7070396325
 20
7.6901742635
 30
0.0
 10
10.7247002242
 20
7.6920188051
 30
0.0
 10
10.7425386835
 20
7.6925336572
 30
0.0
 10
10.7604569003
 20
7.6917162164
 30
0.0
 10
10.7783563806
 20
7.689571199
 30
0.0
 10
10.7961387773
 20
7.6861106015
 30
0.0
 10
10.8137064253
 20
7.6813536268
 30
0.0
 10
10.8309628705
 20
7.6753265747
 30
0.0
 10
10.8478133942
 20
7.6680626965
 30
0.0
 10
10.8641655242
 20
7.6596020039
 30
0.0
 10
10.8799295349
 20
7.6499910492
 30
0.0
 10
10.8950189329
 20
7.6392826698
 30
0.0
 10
10.9093509259
 20
7.6275356996
 30
0.0
 10
10.9228468704
 20
7.6148146489
 30
0.0
 10
10.9354326993
 20
7.6011893527
 30
0.0
 10
10.9470393231
 20
7.5867345918
 30
0.0
 10
10.9576030062
 20
7.5715296868
 30
0.0
 10
10.9670657187
 20
7.555658071
 30
0.0
 10
10.9753754461
 20
7.5392068306
 30
0.0
 10
10.9824864796
 20
7.5222662443
 30
0.0
 10
10.9883596482
 20
7.5049292556
 30
0.0
 10
10.9929625831
 20
7.4872911069
 30
0.0
 10
10.9962697824
 20
7.4694483196
 30
0.0
 10
10.9982629764
 20
7.4515001424
 30
0.0
 10
10.9987094009
 20
7.4394963839
 30
0.0
 10
10.9987094009
 20
7.4335119487
 30
0.0
  0
SPLINE
  5
357
100
AcDbEntity
  8
0
100
AcDbSpline
 62
7
  6
CONTINUOUS
 70
0
 71
3
 72
101
 73
97
 74
0
 42
0.0000001
 43
0.0000001
 44
0.0000000001
 40
0.0
 40
0.0
 40
0.0
 40
0.0
 40
0.0027164061
 40
0.0054531876
 40
0.0082302297
 40
0.0110664948
 40
0.0139796738
 40
0.0169859478
 40
0.0200998802
 40
0.0233343572
 40
0.0267006776
 40
0.0302085869
 40
0.0338664631
 40
0.0376813836
 40
0.0416593145
 40
0.0458051951
 40
0.0501230749
 40
0.05461622
 40
0.059287177
 40
0.0641379042
 40
0.0691697705
 40
0.0743836981
 40
0.079780127
 40
0.0853591412
 40
0.091120439
 40
0.0970634133
 40
0.1031871573
 40
0.109490486
 40
0.1159719866
 40
0.1226299852
 40
0.1294626337
 40
0.1364678432
 40
0.1436433801
 40
0.1509868012
 40
0.1584955261
 40
0.1661668045
 40
0.1739977437
 40
0.1819853208
 40
0.1984174024
 40
0.2154365146
 40
0.2330140899
 40
0.2511199125
 40
0.2697222653
 40
0.2887880645
 40
0.3082829839
 40
0.3281715722
 40
0.348417366
 40
0.3689829986
 40
0.3898303049
 40
0.4109204245
 40
0.4322139033
 40
0.4536707933
 40
0.4752507518
 40
0.4969131404
 40
0.5186171228
 40
0.5403217633
 40
0.5619861247
 40
0.5835693662
 40
0.6050308417
 40
0.6263301975
 40
0.6474274715
 40
0.6682831916
 40
0.6888584768
 40
0.7091151376
 40
0.7290157797
 40
0.7485239096
 40
0.7676040426
 40
0.7862218148
 40
0.8043441002
 40
0.8219391358
 40
0.838976655
 40
0.8554280343
 40
0.8634255699
 40
0.8712666769
 40
0.8789483041
 40
0.8864675678
 40
0.8938216932
 40
0.9010080993
 40
0.9080243293
 40
0.9148681339
 40
0.9215374229
 40
0.9280303184
 40
0.9343451526
 40
0.9404804751
 40
0.946435107
 40
0.952208103
 40
0.957798851
 40
0.9632070166
 40
0.9684326674
 40
0.9734762271
 40
0.978338563
 40
0.9830210047
 40
0.9875254819
 40
0.9918546131
 40
0.9960115556
 40
1.0
 40
1.0
 40
1.0
 40
1.0
 10
13.2305483064
 20
9.1742972613
 30
0.0
 10
13.2320918
 20
9.174190222
 30
0.0
 10
13.2351824644
 20
9.1738356636
 30
0.0
 10
13.2397791067
 20
9.1728867869
 30
0.0
 10
13.2443410127
 20
9.1715211063
 30
0.0
 10
13.2488649321
 20
9.1697399163
 30
0.0
 10
13.2533485107
 20
9.1675447829
 30
0.0
 10
13.2577894844
 20
9.1649374761
 30
0.0
 10
13.2621857551
 20
9.1619197786
 30
0.0
 10
13.2665354356
 20
9.158493688
 30
0.0
 10
13.2708365685
 20
9.1546611175
 30
0.0
 10
13.2750873818
 20
9.1504242436
 30
0.0
 10
13.2792859405
 20
9.1457852057
 30
0.0
 10
13.28343045
 20
9.1407464121
 30
0.0
 10
13.2875189828
 20
9.1353103369
 30
0.0
 10
13.2915496783
 20
9.1294796858
 30
0.0
 10
13.2955206423
 20
9.1232573265
 30
0.0
 10
13.2994299584
 20
9.1166463115
 30
0.0
 10
13.303275787
 20
9.1096499164
 30
0.0
 10
13.3070561913
 20
9.1022715708
 30
0.0
 10
13.3107693888
 20
9.0945149502
 30
0.0
 10
13.3144134692
 20
9.0863838757
 30
0.0
 10
13.3179866938
 20
9.0778824074
 30
0.0
 10
13.321487224
 20
9.0690147609
 30
0.0
 10
13.324913351
 20
9.0597853668
 30
0.0
 10
13.3282633377
 20
9.0501988267
 30
0.0
 10
13.331535503
 20
9.0402599326
 30
0.0
 10
13.3347282223
 20
9.0299736584
 30
0.0
 10
13.3378398526
 20
9.01934515
 30
0.0
 10
13.3408688771
 20
9.0083797373
 30
0.0
 10
13.3438137127
 20
8.9970829125
 30
0.0
 10
13.3466729339
 20
8.985460346
 30
0.0
 10
13.3494450451
 20
8.9735178665
 30
0.0
 10
13.3521286928
 20
8.9612614712
 30
0.0
 10
13.3547224931
 20
8.948697312
 30
0.0
 10
13.3572251499
 20
8.9358317028
 30
0.0
 10
13.3596354143
 20
8.9226710948
 30
0.0
 10
13.3627536437
 20
8.9045682287
 30
0.0
 10
13.3664028056
 20
8.8812477987
 30
0.0
 10
13.3703545706
 20
8.8524513594
 30
0.0
 10
13.3739112529
 20
8.822643223
 30
0.0
 10
13.3770656281
 20
8.7918833288
 30
0.0
 10
13.37981127
 20
8.7602334298
 30
0.0
 10
13.3821425885
 20
8.7277571228
 30
0.0
 10
13.3840548334
 20
8.6945196731
 30
0.0
 10
13.3855441065
 20
8.660587892
 30
0.0
 10
13.3866073674
 20
8.6260299967
 30
0.0
 10
13.3872424386
 20
8.5909154713
 30
0.0
 10
13.3874480094
 20
8.5553149253
 30
0.0
 10
13.3872236384
 20
8.5192999505
 30
0.0
 10
13.3865697538
 20
8.4829429759
 30
0.0
 10
13.385487652
 20
8.4463171214
 30
0.0
 10
13.3839794953
 20
8.4094960498
 30
0.0
 10
13.3820483066
 20
8.3725538186
 30
0.0
 10
13.3796979636
 20
8.3355647301
 30
0.0
 10
13.3769331921
 20
8.298603181
 30
0.0
 10
13.3737595553
 20
8.2617435123
 30
0.0
 10
13.3701834424
 20
8.2250598592
 30
0.0
 10
13.3662120557
 20
8.1886260009
 30
0.0
 10
13.3618533963
 20
8.1525152124
 30
0.0
 10
13.3571162482
 20
8.116800116
 30
0.0
 10
13.3520101607
 20
8.0815525351
 30
0.0
 10
13.3465454296
 20
8.0468433482
 30
0.0
 10
13.3407330764
 20
8.0127423459
 30
0.0
 10
13.3345848264
 20
7.9793180887
 30
0.0
 10
13.3281130872
 20
7.9466377664
 30
0.0
 10
13.3213309221
 20
7.9147670623
 30
0.0
 10
13.3142520247
 20
7.8837700156
 30
0.0
 10
13.3068906907
 20
7.8537089022
 30
0.0
 10
13.299261792
 20
7.8246440601
 30
0.0
 10
13.2913807368
 20
7.7966339263
 30
0.0
 10
13.2845537627
 20
7.7740101925
 30
0.0
 10
13.2789713274
 20
7.7564859532
 30
0.0
 10
13.274770842
 20
7.743764646
 30
0.0
 10
13.2705194083
 20
7.7313478646
 30
0.0
 10
13.2662191974
 20
7.7192418303
 30
0.0
 10
13.2618723264
 20
7.7074526328
 30
0.0
 10
13.2574810364
 20
7.6959861816
 30
0.0
 10
13.2530474893
 20
7.6848482401
 30
0.0
 10
13.248573956
 20
7.6740443892
 30
0.0
 10
13.2440626614
 20
7.6635800514
 30
0.0
 10
13.2395158837
 20
7.6534604708
 30
0.0
 10
13.2349359179
 20
7.6436907133
 30
0.0
 10
13.2303250368
 20
7.6342756778
 30
0.0
 10
13.2256855984
 20
7.6252200595
 30
0.0
 10
13.2210198712
 20
7.6165284028
 30
0.0
 10
13.2163302572
 20
7.6082050238
 30
0.0
 10
13.2116190326
 20
7.600254094
 30
0.0
 10
13.2068886005
 20
7.5926795438
 30
0.0
 10
13.2021412596
 20
7.5854851598
 30
0.0
 10
13.1973794049
 20
7.5786745095
 30
0.0
 10
13.1926053772
 20
7.5722509612
 30
0.0
 10
13.1878214645
 20
7.5662176704
 30
0.0
 10
13.1830299305
 20
7.5605775382
 30
0.0
 10
13.1782332698
 20
7.5553336203
 30
0.0
 10
13.1749671855
 20
7.5520363946
 30
0.0
 10
13.1733332379
 20
7.5504581224
 30
0.0
  0
SPLINE
  5
358
100
AcDbEntity
  8
0
100
AcDbSpline
 62
7
  6
CONTINUOUS
 70
0
 71
3
 72
23
 73
19
 74
0
 42
0.0000001
 43
0.0000001
 44
0.0000000001
 40
0.0
 40
0.0
 40
0.0
 40
0.0
 40
0.0637744828
 40
0.1273454316
 40
0.1907025265
 40
0.2538558004
 40
0.316813226
 40
0.3795821625
 40
0.4421733656
 40
0.5045993404
 40
0.5668738661
 40
0.6290123724
 40
0.6910316429
 40
0.7529496283
 40
0.8147853425
 40
0.8765585905
 40
0.938289842
 40
1.0
 40
1.0
 40
1.0
 40
1.0
 10
10.6316575651
 20
8.2742085082
 30
0.0
 10
10.6316575651
 20
8.2762141839
 30
0.0
 10
10.6317536063
 20
8.2802198128
 30
0.0
 10
10.6321868689
 20
8.2862038854
 30
0.0
 10
10.6329083499
 20
8.2921405739
 30
0.0
 10
10.6339163071
 20
8.2980157937
 30
0.0
 10
10.6352083497
 20
8.3038162271
 30
0.0
 10
10.6367816588
 20
8.309528456
 30
0.0
 10
10.6386325238
 20
8.3151393042
 30
0.0
 10
10.640756702
 20
8.3206358431
 30
0.0
 10
10.6431493619
 20
8.3260053748
 30
0.0
 10
10.6458049091
 20
8.3312355506
 30
0.0
 10
10.6487173115
 20
8.3363142646
 30
0.0
 10
10.6518798181
 20
8.3412298246
 30
0.0
 10
10.6552851169
 20
8.3459708933
 30
0.0
 10
10.6589254627
 20
8.3505265189
 30
0.0
 10
10.6627922289
 20
8.3548861214
 30
0.0
 10
10.6655156501
 20
8.3576555919
 30
0.0
 10
10.6669115517
 20
8.3590039182
 30
0.0
  0
SPLINE
  5
359
100
AcDbEntity
  8
0
100
AcDbSpline
 62
7
  6
CONTINUOUS
 70
0
 71
3
 72
45
 73
41
 74
0
 42
0.0000001
 43
0.0000001
 44
0.0000000001
 40
0.0
 40
0.0
 40
0.0
 40
0.0
 40
0.0149721379
 40
0.0299473343
 40
0.0449286317
 40
0.0599190303
 40
0.0749214809
 40
0.089938856
 40
0.1049739397
 40
0.1200294108
 40
0.1351078203
 40
0.1502115887
 40
0.1653429784
 40
0.1805040926
 40
0.2109173739
 40
0.2414702831
 40
0.2721727342
 40
0.3030312377
 40
0.3340488046
 40
0.365224933
 40
0.396555672
 40
0.4280337568
 40
0.4596488082
 40
0.4913875919
 40
0.5232343248
 40
0.5551710235
 40
0.5871778874
 40
0.6192337084
 40
0.6513163011
 40
0.6834029486
 40
0.7154708537
 40
0.7474975916
 40
0.7794615572
 40
0.8113424013
 40
0.8431214485
 40
0.8747820968
 40
0.9063101458
 40
0.9376942762
 40
0.9689257414
 40
1.0
 40
1.0
 40
1.0
 40
1.0
 10
12.5025586014
 20
6.7384157283
 30
0.0
 10
12.5001030965
 20
6.7360438948
 30
0.0
 10
12.4950966921
 20
6.7313968645
 30
0.0
 10
12.4873152358
 20
6.7247294485
 30
0.0
 10
12.4792717416
 20
6.71837363
 30
0.0
 10
12.4709774708
 20
6.7123382578
 30
0.0
 10
12.4624437976
 20
6.7066315917
 30
0.0
 10
12.4536824466
 20
6.7012615453
 30
0.0
 10
12.444705526
 20
6.6962354105
 30
0.0
 10
12.4355253347
 20
6.6915602102
 30
0.0
 10
12.4261545459
 20
6.6872422676
 30
0.0
 10
12.4166060744
 20
6.6832875971
 30
0.0
 10
12.406892877
 20
6.679701574
 30
0.0
 10
12.3937283706
 20
6.6754143188
 30
0.0
 10
12.3769205913
 20
6.6710016289
 30
0.0
 10
12.3563365978
 20
6.6672552702
 30
0.0
 10
12.3354263286
 20
6.6650713056
 30
0.0
 10
12.3143056368
 20
6.6644617519
 30
0.0
 10
12.2930904673
 20
6.6654296126
 30
0.0
 10
12.2718974953
 20
6.6679693257
 30
0.0
 10
12.250843148
 20
6.6720666858
 30
0.0
 10
12.2300430667
 20
6.6776989609
 30
0.0
 10
12.209611449
 20
6.6848350015
 30
0.0
 10
12.1896604413
 20
6.6934354379
 30
0.0
 10
12.1702995297
 20
6.7034528971
 30
0.0
 10
12.1516349501
 20
6.7148322641
 30
0.0
 10
12.1337691124
 20
6.7275109831
 30
0.0
 10
12.1168000488
 20
6.741419401
 30
0.0
 10
12.1008208707
 20
6.7564811326
 30
0.0
 10
12.0859192683
 20
6.772613487
 30
0.0
 10
12.0721770388
 20
6.789727921
 30
0.0
 10
12.059669642
 20
6.8077305188
 30
0.0
 10
12.0484657899
 20
6.8265225002
 30
0.0
 10
12.0386270751
 20
6.8460007598
 30
0.0
 10
12.030207623
 20
6.8660584081
 30
0.0
 10
12.0232538017
 20
6.8865853964
 30
0.0
 10
12.0178039374
 20
6.907468957
 30
0.0
 10
12.013888219
 20
6.928594804
 30
0.0
 10
12.0115282753
 20
6.9498454353
 30
0.0
 10
12.0109997093
 20
6.9640578789
 30
0.0
 10
12.0109997093
 20
6.9711434512
 30
0.0
  0
SPLINE
  5
35A
100
AcDbEntity
  8
0
100
AcDbSpline
 62
7
  6
CONTINUOUS
 70
0
 71
3
 72
23
 73
19
 74
0
 42
0.0000001
 43
0.0000001
 44
0.0000000001
 40
0.0
 40
0.0
 40
0.0
 40
0.0
 40
0.0637764154
 40
0.1273451281
 40
0.190701988
 40
0.253856063
 40
0.3168132283
 40
0.3795820791
 40
0.4421733864
 40
0.5045993414
 40
0.5668738629
 40
0.629012379
 40
0.6910316532
 40
0.7529496461
 40
0.8147853522
 40
0.8765586034
 40
0.9382898574
 40
1.0
 40
1.0
 40
1.0
 40
1.0
 10
10.5157464591
 20
9.097488514
 30
0.0
 10
10.5157464591
 20
9.1013456602
 30
0.0
 10
10.5159310983
 20
9.1090486972
 30
0.0
 10
10.5167643564
 20
9.1205563748
 30
0.0
 10
10.5181517845
 20
9.1319728644
 30
0.0
 10
10.5200900405
 20
9.1432712865
 30
0.0
 10
10.5225747854
 20
9.1544258643
 30
0.0
 10
10.5256002711
 20
9.1654108114
 30
0.0
 10
10.5291595381
 20
9.1762008125
 30
0.0
 10
10.5332444567
 20
9.1867709749
 30
0.0
 10
10.5378455935
 20
9.1970969283
 30
0.0
 10
10.5429523454
 20
9.2071548655
 30
0.0
 10
10.5485529791
 20
9.2169215711
 30
0.0
 10
10.5546346091
 20
9.2263745092
 30
0.0
 10
10.5611831671
 20
9.2354918727
 30
0.0
 10
10.5681836378
 20
9.2442526998
 30
0.0
 10
10.5756196335
 20
9.2526364795
 30
0.0
 10
10.5808568604
 20
9.2579623949
 30
0.0
 10
10.5835412473
 20
9.2605553144
 30
0.0
  0
SPLINE
  5
35B
100
AcDbEntity
  8
0
100
AcDbSpline
 62
7
  6
CONTINUOUS
 70
0
 71
3
 72
45
 73
41
 74
0
 42
0.0000001
 43
0.0000001
 44
0.0000000001
 40
0.0
 40
0.0
 40
0.0
 40
0.0
 40
0.0149721379
 40
0.0299473343
 40
0.0449286317
 40
0.0599190303
 40
0.0749214809
 40
0.089938856
 40
0.1049739397
 40
0.1200294108
 40
0.1351078203
 40
0.1502115887
 40
0.1653429784
 40
0.1805040926
 40
0.2109173739
 40
0.2414702831
 40
0.2721727342
 40
0.3030312377
 40
0.3340488046
 40
0.365224933
 40
0.396555672
 40
0.4280337568
 40
0.4596488082
 40
0.4913875919
 40
0.5232343248
 40
0.5551710235
 40
0.5871778874
 40
0.6192337084
 40
0.6513163011
 40
0.6834029486
 40
0.7154708537
 40
0.7474975916
 40
0.7794615572
 40
0.8113424013
 40
0.8431214485
 40
0.8747820968
 40
0.9063101458
 40
0.9376942762
 40
0.9689257414
 40
1.0
 40
1.0
 40
1.0
 40
1.0
 10
9.4231868046
 20
6.9519708878
 30
0.0
 10
9.4207312997
 20
6.9495990542
 30
0.0
 10
9.4157248953
 20
6.944952024
 30
0.0
 10
9.407943439
 20
6.938284608
 30
0.0
 10
9.3998999448
 20
6.9319287894
 30
0.0
 10
9.391605674
 20
6.9258934172
 30
0.0
 10
9.3830720008
 20
6.9201867512
 30
0.0
 10
9.3743106498
 20
6.9148167047
 30
0.0
 10
9.3653337291
 20
6.9097905699
 30
0.0
 10
9.3561535379
 20
6.9051153696
 30
0.0
 10
9.3467827491
 20
6.9007974271
 30
0.0
 10
9.3372342775
 20
6.8968427566
 30
0.0
 10
9.3275210802
 20
6.8932567335
 30
0.0
 10
9.3143565738
 20
6.8889694782
 30
0.0
 10
9.2975487945
 20
6.8845567883
 30
0.0
 10
9.276964801
 20
6.8808104297
 30
0.0
 10
9.2560545318
 20
6.878626465
 30
0.0
 10
9.23493384
 20
6.8780169113
 30
0.0
 10
9.2137186705
 20
6.878984772
 30
0.0
 10
9.1925256984
 20
6.8815244852
 30
0.0
 10
9.1714713512
 20
6.8856218453
 30
0.0
 10
9.1506712699
 20
6.8912541204
 30
0.0
 10
9.1302396522
 20
6.8983901609
 30
0.0
 10
9.1102886444
 20
6.9069905973
 30
0.0
 10
9.0909277329
 20
6.9170080565
 30
0.0
 10
9.0722631533
 20
6.9283874235
 30
0.0
 10
9.0543973156
 20
6.9410661426
 30
0.0
 10
9.037428252
 20
6.9549745605
 30
0.0
 10
9.0214490739
 20
6.9700362921
 30
0.0
 10
9.0065474715
 20
6.9861686464
 30
0.0
 10
8.9928052419
 20
7.0032830804
 30
0.0
 10
8.9802978452
 20
7.0212856782
 30
0.0
 10
8.9690939931
 20
7.0400776596
 30
0.0
 10
8.9592552783
 20
7.0595559192
 30
0.0
 10
8.9508358262
 20
7.0796135675
 30
0.0
 10
8.9438820049
 20
7.1001405559
 30
0.0
 10
8.9384321405
 20
7.1210241164
 30
0.0
 10
8.9345164222
 20
7.1421499635
 30
0.0
 10
8.9321564785
 20
7.1634005947
 30
0.0
 10
8.9316279125
 20
7.1776130383
 30
0.0
 10
8.9316279125
 20
7.1846986106
 30
0.0
  0
SPLINE
  5
35C
100
AcDbEntity
  8
0
100
AcDbSpline
 62
7
  6
CONTINUOUS
 70
0
 71
3
 72
23
 73
19
 74
0
 42
0.0000001
 43
0.0000001
 44
0.0000000001
 40
0.0
 40
0.0
 40
0.0
 40
0.0
 40
0.0637764154
 40
0.1273451281
 40
0.190701988
 40
0.253856063
 40
0.3168132283
 40
0.3795820791
 40
0.4421733864
 40
0.5045993414
 40
0.5668738629
 40
0.629012379
 40
0.6910316532
 40
0.7529496461
 40
0.8147853522
 40
0.8765586034
 40
0.9382898574
 40
1.0
 40
1.0
 40
1.0
 40
1.0
 10
9.8222117374
 20
8.330343767
 30
0.0
 10
9.8222117374
 20
8.3342009131
 30
0.0
 10
9.8223963766
 20
8.3419039502
 30
0.0
 10
9.8232296347
 20
8.3534116278
 30
0.0
 10
9.8246170628
 20
8.3648281174
 30
0.0
 10
9.8265553188
 20
8.3761265395
 30
0.0
 10
9.8290400637
 20
8.3872811173
 30
0.0
 10
9.8320655494
 20
8.3982660643
 30
0.0
 10
9.8356248164
 20
8.4090560655
 30
0.0
 10
9.839709735
 20
8.4196262278
 30
0.0
 10
9.8443108718
 20
8.4299521813
 30
0.0
 10
9.8494176237
 20
8.4400101185
 30
0.0
 10
9.8550182574
 20
8.4497768241
 30
0.0
 10
9.8610998874
 20
8.4592297621
 30
0.0
 10
9.8676484453
 20
8.4683471256
 30
0.0
 10
9.8746489161
 20
8.4771079528
 30
0.0
 10
9.8820849117
 20
8.4854917324
 30
0.0
 10
9.8873221386
 20
8.4908176479
 30
0.0
 10
9.8900065256
 20
8.4934105674
 30
0.0
  0
SPLINE
  5
35D
100
AcDbEntity
  8
0
100
AcDbSpline
 62
7
  6
CONTINUOUS
 70
0
 71
3
 72
96
 73
92
 74
0
 42
0.0000001
 43
0.0000001
 44
0.0000000001
 40
0.0
 40
0.0
 40
0.0
 40
0.0
 40
0.0038490365
 40
0.0078521394
 40
0.0120125501
 40
0.0163330528
 40
0.0208160104
 40
0.0254632586
 40
0.0302760696
 40
0.0352553396
 40
0.0404015698
 40
0.0457149582
 40
0.0511953887
 40
0.0568424481
 40
0.0626555034
 40
0.0686336464
 40
0.0747757955
 40
0.081080641
 40
0.0875466981
 40
0.0941723212
 40
0.1009556741
 40
0.107894809
 40
0.1149875955
 40
0.1222317986
 40
0.1371646224
 40
0.1526731119
 40
0.1687351167
 40
0.1853268978
 40
0.2024232702
 40
0.2199977263
 40
0.2380225478
 40
0.2564689082
 40
0.2753069672
 40
0.2945059615
 40
0.3140342958
 40
0.333859627
 40
0.3539489462
 40
0.374268658
 40
0.3947846594
 40
0.4154624173
 40
0.436267048
 40
0.4571633945
 40
0.4781161023
 40
0.4990896957
 40
0.5200486532
 40
0.540957485
 40
0.5617808095
 40
0.5824834298
 40
0.6030304089
 40
0.6233871473
 40
0.6435194592
 40
0.6633936535
 40
0.6829766125
 40
0.7022358707
 40
0.721139696
 40
0.7396571736
 40
0.7577582924
 40
0.7754140389
 40
0.7925964931
 40
0.8092789274
 40
0.8254359169
 40
0.8410434597
 40
0.8486342025
 40
0.8560793145
 40
0.8633762408
 40
0.8705225819
 40
0.8775160368
 40
0.8843544451
 40
0.891035797
 40
0.8975582017
 40
0.9039199664
 40
0.9101195257
 40
0.9161555257
 40
0.9220267926
 40
0.9277323538
 40
0.9332714904
 40
0.938643689
 40
0.9438487493
 40
0.9488867301
 40
0.9537580336
 40
0.9584634243
 40
0.9630040418
 40
0.9673815095
 40
0.9715979052
 40
0.9756559017
 40
0.9795587775
 40
0.9833105168
 40
0.9869159134
 40
0.9903806157
 40
0.9937112977
 40
1.0
 40
1.0
 40
1.0
 40
1.0
 10
13.1115139799
 20
7.5547453025
 30
0.0
 10
13.1130605499
 20
7.5562391745
 30
0.0
 10
13.1161521766
 20
7.5593529452
 30
0.0
 10
13.1206977415
 20
7.5642916108
 30
0.0
 10
13.1252389797
 20
7.5695863488
 30
0.0
 10
13.1297737082
 20
7.5752345728
 30
0.0
 10
13.1343000269
 20
7.5812338084
 30
0.0
 10
13.1388159495
 20
7.5875814446
 30
0.0
 10
13.1433195452
 20
7.5942746384
 30
0.0
 10
13.1478087287
 20
7.6013104284
 30
0.0
 10
13.1522815472
 20
7.6086856407
 30
0.0
 10
13.1567359775
 20
7.6163969929
 30
0.0
 10
13.1611700215
 20
7.6244410354
 30
0.0
 10
13.1655817194
 20
7.6328141524
 30
0.0
 10
13.1699690318
 20
7.6415126044
 30
0.0
 10
13.1743300417
 20
7.6505324651
 30
0.0
 10
13.1786627335
 20
7.6598696963
 30
0.0
 10
13.1829651815
 20
7.6695200891
 30
0.0
 10
13.1872354414
 20
7.6794793025
 30
0.0
 10
13.1914715599
 20
7.6897428573
 30
0.0
 10
13.1956716683
 20
7.7003061218
 30
0.0
 10
13.1998338121
 20
7.711164345
 30
0.0
 10
13.2039561741
 20
7.7223126313
 30
0.0
 10
13.2094526188
 20
7.7377128547
 30
0.0
 10
13.2162017502
 20
7.7576562898
 30
0.0
 10
13.2240330989
 20
7.7824282241
 30
0.0
 10
13.2316622533
 20
7.8082310246
 30
0.0
 10
13.2390753769
 20
7.8350181225
 30
0.0
 10
13.2462590254
 20
7.8627412776
 30
0.0
 10
13.2532001724
 20
7.8913505028
 30
0.0
 10
13.2598862334
 20
7.9207942057
 30
0.0
 10
13.266305087
 20
7.95101927
 30
0.0
 10
13.2724451005
 20
7.9819711549
 30
0.0
 10
13.2782951522
 20
8.0135939956
 30
0.0
 10
13.2838446461
 20
8.0458307084
 30
0.0
 10
13.2890835326
 20
8.0786230964
 30
0.0
 10
13.2940023255
 20
8.1119119552
 30
0.0
 10
13.2985921192
 20
8.1456371797
 30
0.0
 10
13.3028446054
 20
8.1797378718
 30
0.0
 10
13.3067520924
 20
8.2141524513
 30
0.0
 10
13.3103075128
 20
8.2488187693
 30
0.0
 10
13.3135044377
 20
8.2836742216
 30
0.0
 10
13.316337087
 20
8.3186558617
 30
0.0
 10
13.3188003407
 20
8.3537005139
 30
0.0
 10
13.3208897475
 20
8.3887448877
 30
0.0
 10
13.3226015386
 20
8.423725693
 30
0.0
 10
13.3239326296
 20
8.4585797555
 30
0.0
 10
13.3248806255
 20
8.4932441308
 30
0.0
 10
13.3254438251
 20
8.5276562184
 30
0.0
 10
13.3256212249
 20
8.5617538735
 30
0.0
 10
13.3254125196
 20
8.5954755216
 30
0.0
 10
13.324818109
 20
8.6287602707
 30
0.0
 10
13.3238390944
 20
8.6615480229
 30
0.0
 10
13.3224772741
 20
8.6937795826
 30
0.0
 10
13.3207351418
 20
8.7253967628
 30
0.0
 10
13.3186158821
 20
8.7563424914
 30
0.0
 10
13.3161233641
 20
8.7865609159
 30
0.0
 10
13.3132621404
 20
8.8159975121
 30
0.0
 10
13.3100374362
 20
8.844599174
 30
0.0
 10
13.3064551444
 20
8.8723143513
 30
0.0
 10
13.3025217874
 20
8.8990930008
 30
0.0
 10
13.2989250154
 20
8.9207838866
 30
0.0
 10
13.2958708386
 20
8.9376282327
 30
0.0
 10
13.2935182245
 20
8.9498807194
 30
0.0
 10
13.2910834728
 20
8.9618639227
 30
0.0
 10
13.2885677127
 20
8.9735724486
 30
0.0
 10
13.2859720657
 20
8.9850010145
 30
0.0
 10
13.2832977022
 20
8.9961444676
 30
0.0
 10
13.2805458615
 20
9.0069977876
 30
0.0
 10
13.2777177409
 20
9.0175560798
 30
0.0
 10
13.2748146749
 20
9.0278145943
 30
0.0
 10
13.2718379277
 20
9.037768708
 30
0.0
 10
13.2687888738
 20
9.0474139452
 30
0.0
 10
13.2656688883
 20
9.0567459699
 30
0.0
 10
13.262479351
 20
9.065760583
 30
0.0
 10
13.2592217504
 20
9.0744537481
 30
0.0
 10
13.2558974886
 20
9.0828215527
 30
0.0
 10
13.2525081172
 20
9.0908602624
 30
0.0
 10
13.2490551149
 20
9.0985662725
 30
0.0
 10
13.2455400314
 20
9.1059361421
 30
0.0
 10
13.2419644552
 20
9.1129665956
 30
0.0
 10
13.2383299119
 20
9.1196544822
 30
0.0
 10
13.2346380704
 20
9.1259968607
 30
0.0
 10
13.2308904701
 20
9.1319908875
 30
0.0
 10
13.2270887769
 20
9.1376339332
 30
0.0
 10
13.2232346058
 20
9.1429234829
 30
0.0
 10
13.2193295192
 20
9.1478572068
 30
0.0
 10
13.2153753263
 20
9.1524328229
 30
0.0
 10
13.2113730818
 20
9.1566486327
 30
0.0
 10
13.206077932
 20
9.1616895679
 30
0.0
 10
13.2018878228
 20
9.1650802984
 30
0.0
 10
13.1990176895
 20
9.1671062588
 30
0.0
  0
SPLINE
  5
35E
100
AcDbEntity
  8
0
100
AcDbSpline
 62
7
  6
CONTINUOUS
 70
0
 71
3
 72
13
 73
9
 74
0
 42
0.0000001
 43
0.0000001
 44
0.0000000001
 40
0.0
 40
0.0
 40
0.0
 40
0.0
 40
0.2711848168
 40
0.4011859848
 40
0.5275908916
 40
0.6505272447
 40
0.7701403262
 40
1.0
 40
1.0
 40
1.0
 40
1.0
 10
13.1115139799
 20
7.5547453025
 30
0.0
 10
13.1094312197
 20
7.5527335105
 30
0.0
 10
13.106265002
 20
7.5498425771
 30
0.0
 10
13.1019221657
 20
7.5462527673
 30
0.0
 10
13.0987127438
 20
7.5437800942
 30
0.0
 10
13.0955058958
 20
7.5414897861
 30
0.0
 10
13.0912910443
 20
7.538717042
 30
0.0
 10
13.0880511757
 20
7.536853422
 30
0.0
 10
13.0858695811
 20
7.535728715
 30
0.0
  0
SPLINE
  5
35F
100
AcDbEntity
  8
0
100
AcDbSpline
 62
7
  6
CONTINUOUS
 70
0
 71
3
 72
23
 73
19
 74
0
 42
0.0000001
 43
0.0000001
 44
0.0000000001
 40
0.0
 40
0.0
 40
0.0
 40
0.0
 40
0.0778956905
 40
0.1528850501
 40
0.2250764637
 40
0.2945986682
 40
0.3616068399
 40
0.4262784913
 40
0.4888142695
 40
0.5494390774
 40
0.6084022524
 40
0.6659781095
 40
0.7224640394
 40
0.7781763478
 40
0.8334460872
 40
0.8886129173
 40
0.9440185642
 40
1.0
 40
1.0
 40
1.0
 40
1.0
 10
13.1115139799
 20
7.8802623252
 30
0.0
 10
13.1106702172
 20
7.879447313
 30
0.0
 10
13.1089831445
 20
7.8778793597
 30
0.0
 10
13.1064040418
 20
7.8756782158
 30
0.0
 10
13.1038265268
 20
7.8736744242
 30
0.0
 10
13.1012516745
 20
7.8718690545
 30
0.0
 10
13.0986805016
 20
7.8702628635
 30
0.0
 10
13.0961139239
 20
7.8688565925
 30
0.0
 10
13.0935528767
 20
7.8676509623
 30
0.0
 10
13.0909983824
 20
7.8666465803
 30
0.0
 10
13.088451463
 20
7.8658441255
 30
0.0
 10
13.0859132187
 20
7.8652441889
 30
0.0
 10
13.0833848305
 20
7.8648471748
 30
0.0
 10
13.0808675145
 20
7.8646535164
 30
0.0
 10
13.0783625916
 20
7.8646634211
 30
0.0
 10
13.07587134
 20
7.864876897
 30
0.0
 10
13.0733952904
 20
7.8652938464
 30
0.0
 10
13.0717667055
 20
7.8657044437
 30
0.0
 10
13.070957791
 20
7.865942014
 30
0.0
  0
SPLINE
  5
360
100
AcDbEntity
  8
0
100
AcDbSpline
 62
7
  6
CONTINUOUS
 70
0
 71
3
 72
45
 73
41
 74
0
 42
0.0000001
 43
0.0000001
 44
0.0000000001
 40
0.0
 40
0.0
 40
0.0
 40
0.0
 40
0.0149721379
 40
0.0299473343
 40
0.0449286317
 40
0.0599190303
 40
0.0749214809
 40
0.089938856
 40
0.1049739397
 40
0.1200294108
 40
0.1351078203
 40
0.1502115887
 40
0.1653429784
 40
0.1805040926
 40
0.2109173739
 40
0.2414702831
 40
0.2721727342
 40
0.3030312377
 40
0.3340488046
 40
0.365224933
 40
0.396555672
 40
0.4280337568
 40
0.4596488082
 40
0.4913875919
 40
0.5232343248
 40
0.5551710235
 40
0.5871778874
 40
0.6192337084
 40
0.6513163011
 40
0.6834029486
 40
0.7154708537
 40
0.7474975916
 40
0.7794615572
 40
0.8113424013
 40
0.8431214485
 40
0.8747820968
 40
0.9063101458
 40
0.9376942762
 40
0.9689257414
 40
1.0
 40
1.0
 40
1.0
 40
1.0
 10
9.4231868046
 20
9.3667855966
 30
0.0
 10
9.4207312997
 20
9.364413763
 30
0.0
 10
9.4157248953
 20
9.3597667328
 30
0.0
 10
9.407943439
 20
9.3530993168
 30
0.0
 10
9.3998999448
 20
9.3467434982
 30
0.0
 10
9.391605674
 20
9.340708126
 30
0.0
 10
9.3830720008
 20
9.33500146
 30
0.0
 10
9.3743106498
 20
9.3296314135
 30
0.0
 10
9.3653337291
 20
9.3246052787
 30
0.0
 10
9.3561535379
 20
9.3199300784
 30
0.0
 10
9.3467827491
 20
9.3156121359
 30
0.0
 10
9.3372342775
 20
9.3116574654
 30
0.0
 10
9.3275210802
 20
9.3080714423
 30
0.0
 10
9.3143565738
 20
9.303784187
 30
0.0
 10
9.2975487945
 20
9.2993714971
 30
0.0
 10
9.276964801
 20
9.2956251385
 30
0.0
 10
9.2560545318
 20
9.2934411738
 30
0.0
 10
9.23493384
 20
9.2928316201
 30
0.0
 10
9.2137186705
 20
9.2937994808
 30
0.0
 10
9.1925256984
 20
9.296339194
 30
0.0
 10
9.1714713512
 20
9.3004365541
 30
0.0
 10
9.1506712699
 20
9.3060688292
 30
0.0
 10
9.1302396522
 20
9.3132048697
 30
0.0
 10
9.1102886444
 20
9.3218053061
 30
0.0
 10
9.0909277329
 20
9.3318227653
 30
0.0
 10
9.0722631533
 20
9.3432021323
 30
0.0
 10
9.0543973156
 20
9.3558808514
 30
0.0
 10
9.037428252
 20
9.3697892693
 30
0.0
 10
9.0214490739
 20
9.3848510009
 30
0.0
 10
9.0065474715
 20
9.4009833552
 30
0.0
 10
8.9928052419
 20
9.4180977892
 30
0.0
 10
8.9802978452
 20
9.4361003871
 30
0.0
 10
8.9690939931
 20
9.4548923684
 30
0.0
 10
8.9592552783
 20
9.474370628
 30
0.0
 10
8.9508358262
 20
9.4944282764
 30
0.0
 10
8.9438820049
 20
9.5149552647
 30
0.0
 10
8.9384321405
 20
9.5358388252
 30
0.0
 10
8.9345164222
 20
9.5569646723
 30
0.0
 10
8.9321564785
 20
9.5782153035
 30
0.0
 10
8.9316279125
 20
9.5924277471
 30
0.0
 10
8.9316279125
 20
9.5995133194
 30
0.0
  0
SPLINE
  5
361
100
AcDbEntity
  8
0
100
AcDbSpline
 62
7
  6
CONTINUOUS
 70
0
 71
3
 72
23
 73
19
 74
0
 42
0.0000001
 43
0.0000001
 44
0.0000000001
 40
0.0
 40
0.0
 40
0.0
 40
0.0
 40
0.0637764154
 40
0.1273451281
 40
0.190701988
 40
0.253856063
 40
0.3168132283
 40
0.3795820791
 40
0.4421733864
 40
0.5045993414
 40
0.5668738629
 40
0.629012379
 40
0.6910316532
 40
0.7529496461
 40
0.8147853522
 40
0.8765586034
 40
0.9382898574
 40
1.0
 40
1.0
 40
1.0
 40
1.0
 10
11.209281296
 20
8.2341501664
 30
0.0
 10
11.209281296
 20
8.2380073125
 30
0.0
 10
11.2094659352
 20
8.2457103495
 30
0.0
 10
11.2102991933
 20
8.2572180272
 30
0.0
 10
11.2116866214
 20
8.2686345168
 30
0.0
 10
11.2136248774
 20
8.2799329389
 30
0.0
 10
11.2161096223
 20
8.2910875167
 30
0.0
 10
11.219135108
 20
8.3020724637
 30
0.0
 10
11.222694375
 20
8.3128624649
 30
0.0
 10
11.2267792936
 20
8.3234326272
 30
0.0
 10
11.2313804304
 20
8.3337585807
 30
0.0
 10
11.2364871823
 20
8.3438165179
 30
0.0
 10
11.242087816
 20
8.3535832235
 30
0.0
 10
11.248169446
 20
8.3630361615
 30
0.0
 10
11.254718004
 20
8.372153525
 30
0.0
 10
11.2617184747
 20
8.3809143522
 30
0.0
 10
11.2691544704
 20
8.3892981318
 30
0.0
 10
11.2743916972
 20
8.3946240473
 30
0.0
 10
11.2770760842
 20
8.3972169668
 30
0.0
  0
SPLINE
  5
362
100
AcDbEntity
  8
0
100
AcDbSpline
 62
7
  6
CONTINUOUS
 70
0
 71
3
 72
45
 73
41
 74
0
 42
0.0000001
 43
0.0000001
 44
0.0000000001
 40
0.0
 40
0.0
 40
0.0
 40
0.0
 40
0.0149721379
 40
0.0299473343
 40
0.0449286317
 40
0.0599190303
 40
0.0749214809
 40
0.089938856
 40
0.1049739397
 40
0.1200294108
 40
0.1351078203
 40
0.1502115887
 40
0.1653429784
 40
0.1805040926
 40
0.2109173739
 40
0.2414702831
 40
0.2721727342
 40
0.3030312377
 40
0.3340488046
 40
0.365224933
 40
0.396555672
 40
0.4280337568
 40
0.4596488082
 40
0.4913875919
 40
0.5232343248
 40
0.5551710235
 40
0.5871778874
 40
0.6192337084
 40
0.6513163011
 40
0.6834029486
 40
0.7154708537
 40
0.7474975916
 40
0.7794615572
 40
0.8113424013
 40
0.8431214485
 40
0.8747820968
 40
0.9063101458
 40
0.9376942762
 40
0.9689257414
 40
1.0
 40
1.0
 40
1.0
 40
1.0
 10
12.5025586014
 20
9.1532304372
 30
0.0
 10
12.5001030965
 20
9.1508586036
 30
0.0
 10
12.4950966921
 20
9.1462115733
 30
0.0
 10
12.4873152358
 20
9.1395441573
 30
0.0
 10
12.4792717416
 20
9.1331883388
 30
0.0
 10
12.4709774708
 20
9.1271529666
 30
0.0
 10
12.4624437976
 20
9.1214463005
 30
0.0
 10
12.4536824466
 20
9.1160762541
 30
0.0
 10
12.444705526
 20
9.1110501193
 30
0.0
 10
12.4355253347
 20
9.106374919
 30
0.0
 10
12.4261545459
 20
9.1020569764
 30
0.0
 10
12.4166060744
 20
9.0981023059
 30
0.0
 10
12.406892877
 20
9.0945162829
 30
0.0
 10
12.3937283706
 20
9.0902290276
 30
0.0
 10
12.3769205913
 20
9.0858163377
 30
0.0
 10
12.3563365978
 20
9.082069979
 30
0.0
 10
12.3354263286
 20
9.0798860144
 30
0.0
 10
12.3143056368
 20
9.0792764607
 30
0.0
 10
12.2930904673
 20
9.0802443214
 30
0.0
 10
12.2718974953
 20
9.0827840346
 30
0.0
 10
12.250843148
 20
9.0868813946
 30
0.0
 10
12.2300430667
 20
9.0925136697
 30
0.0
 10
12.209611449
 20
9.0996497103
 30
0.0
 10
12.1896604413
 20
9.1082501467
 30
0.0
 10
12.1702995297
 20
9.1182676059
 30
0.0
 10
12.1516349501
 20
9.1296469729
 30
0.0
 10
12.1337691124
 20
9.1423256919
 30
0.0
 10
12.1168000488
 20
9.1562341098
 30
0.0
 10
12.1008208707
 20
9.1712958414
 30
0.0
 10
12.0859192683
 20
9.1874281958
 30
0.0
 10
12.0721770388
 20
9.2045426298
 30
0.0
 10
12.059669642
 20
9.2225452276
 30
0.0
 10
12.0484657899
 20
9.241337209
 30
0.0
 10
12.0386270751
 20
9.2608154686
 30
0.0
 10
12.030207623
 20
9.2808731169
 30
0.0
 10
12.0232538017
 20
9.3014001052
 30
0.0
 10
12.0178039374
 20
9.3222836658
 30
0.0
 10
12.013888219
 20
9.3434095128
 30
0.0
 10
12.0115282753
 20
9.3646601441
 30
0.0
 10
12.0109997093
 20
9.3788725877
 30
0.0
 10
12.0109997093
 20
9.38595816
 30
0.0
  0
SPLINE
  5
363
100
AcDbEntity
  8
0
100
AcDbSpline
 62
7
  6
CONTINUOUS
 70
0
 71
3
 72
23
 73
19
 74
0
 42
0.0000001
 43
0.0000001
 44
0.0000000001
 40
0.0
 40
0.0
 40
0.0
 40
0.0
 40
0.0637764154
 40
0.1273451281
 40
0.190701988
 40
0.253856063
 40
0.3168132283
 40
0.3795820791
 40
0.4421733864
 40
0.5045993414
 40
0.5668738629
 40
0.629012379
 40
0.6910316532
 40
0.7529496461
 40
0.8147853522
 40
0.8765586034
 40
0.9382898574
 40
1.0
 40
1.0
 40
1.0
 40
1.0
 10
10.5157464591
 20
7.4670055425
 30
0.0
 10
10.5157464591
 20
7.4708626886
 30
0.0
 10
10.5159310983
 20
7.4785657256
 30
0.0
 10
10.5167643564
 20
7.4900734033
 30
0.0
 10
10.5181517845
 20
7.5014898929
 30
0.0
 10
10.5200900405
 20
7.512788315
 30
0.0
 10
10.5225747854
 20
7.5239428928
 30
0.0
 10
10.5256002711
 20
7.5349278398
 30
0.0
 10
10.5291595381
 20
7.545717841
 30
0.0
 10
10.5332444567
 20
7.5562880033
 30
0.0
 10
10.5378455935
 20
7.5666139568
 30
0.0
 10
10.5429523454
 20
7.576671894
 30
0.0
 10
10.5485529791
 20
7.5864385996
 30
0.0
 10
10.5546346091
 20
7.5958915376
 30
0.0
 10
10.5611831671
 20
7.6050089011
 30
0.0
 10
10.5681836378
 20
7.6137697283
 30
0.0
 10
10.5756196335
 20
7.6221535079
 30
0.0
 10
10.5808568604
 20
7.6274794234
 30
0.0
 10
10.5835412473
 20
7.6300723429
 30
0.0
  0
SPLINE
  5
364
100
AcDbEntity
  8
0
100
AcDbSpline
 62
7
  6
CONTINUOUS
 70
0
 71
3
 72
24
 73
20
 74
0
 42
0.0000001
 43
0.0000001
 44
0.0000000001
 40
0.0
 40
0.0
 40
0.0
 40
0.0
 40
0.0637764416
 40
0.1273443685
 40
0.190701004
 40
0.2538548276
 40
0.3168116139
 40
0.3795801666
 40
0.4421711529
 40
0.504596791
 40
0.5668710034
 40
0.6290092011
 40
0.6910281569
 40
0.7220010165
 40
0.7529508932
 40
0.8147862903
 40
0.8765592252
 40
0.938290164
 40
1.0
 40
1.0
 40
1.0
 40
1.0
 10
12.0109997093
 20
6.9711434512
 30
0.0
 10
12.0109997093
 20
6.9757103435
 30
0.0
 10
12.0112183124
 20
6.9848307439
 30
0.0
 10
12.0122049072
 20
6.9984558507
 30
0.0
 10
12.0138476278
 20
7.0119729704
 30
0.0
 10
12.0161425169
 20
7.0253503296
 30
0.0
 10
12.0190844639
 20
7.0385573692
 30
0.0
 10
12.0226666553
 20
7.0515635574
 30
0.0
 10
12.0268808519
 20
7.0643389334
 30
0.0
 10
12.031717379
 20
7.0768540213
 30
0.0
 10
12.0371651616
 20
7.0890799945
 30
0.0
 10
12.0432115209
 20
7.1009884778
 30
0.0
 10
12.0487401236
 20
7.1106295349
 30
0.0
 10
12.0534470727
 20
7.1181547277
 30
0.0
 10
12.0583374215
 20
7.1255462905
 30
0.0
 10
12.064796971
 20
7.1345397112
 30
0.0
 10
12.073085495
 20
7.1449124083
 30
0.0
 10
12.0818897393
 20
7.1548388529
 30
0.0
 10
12.0880906197
 20
7.1611447396
 30
0.0
 10
12.0912689403
 20
7.164214759
 30
0.0
  0
SPLINE
  5
365
100
AcDbEntity
  8
0
100
AcDbSpline
 62
7
  6
CONTINUOUS
 70
0
 71
3
 72
41
 73
37
 74
0
 42
0.0000001
 43
0.0000001
 44
0.0000000001
 40
0.0
 40
0.0
 40
0.0
 40
0.0
 40
0.0299421756
 40
0.0599087291
 40
0.0899234427
 40
0.12000893
 40
0.1501860972
 40
0.1804736576
 40
0.2108877103
 40
0.2414413945
 40
0.2721446252
 40
0.3030039132
 40
0.3340222692
 40
0.3651991907
 40
0.3965307261
 40
0.4280096099
 40
0.4596254632
 40
0.491365051
 40
0.5232125895
 40
0.5551500944
 40
0.5871577641
 40
0.61921439
 40
0.6512977872
 40
0.6833852384
 40
0.715453946
 40
0.7314766505
 40
0.7474863166
 40
0.7794510815
 40
0.8113327211
 40
0.8272389267
 40
0.8431175145
 40
0.8747789379
 40
0.9063078385
 40
0.9376925801
 40
0.9689252405
 40
1.0
 40
1.0
 40
1.0
 40
1.0
 10
10.8475443083
 20
8.1719964294
 30
0.0
 10
10.84538765
 20
8.1699132746
 30
0.0
 10
10.840904721
 20
8.1659151188
 30
0.0
 10
10.8337224072
 20
8.160468321
 30
0.0
 10
10.8261188513
 20
8.1555992517
 30
0.0
 10
10.8181365471
 20
8.1513352155
 30
0.0
 10
10.8098193779
 20
8.1476995103
 30
0.0
 10
10.8012132455
 20
8.1447121205
 30
0.0
 10
10.7923655743
 20
8.1423893916
 30
0.0
 10
10.7833251081
 20
8.1407440047
 30
0.0
 10
10.7741416217
 20
8.1397848974
 30
0.0
 10
10.7648656497
 20
8.1395172261
 30
0.0
 10
10.7555482071
 20
8.1399423433
 30
0.0
 10
10.7462405111
 20
8.1410577963
 30
0.0
 10
10.7369937016
 20
8.1428573462
 30
0.0
 10
10.7278585638
 20
8.1453310064
 30
0.0
 10
10.718885253
 20
8.1484651005
 30
0.0
 10
10.7101230227
 20
8.1522423388
 30
0.0
 10
10.7016199582
 20
8.1566419163
 30
0.0
 10
10.6934227174
 20
8.1616396246
 30
0.0
 10
10.6855762732
 20
8.1672079932
 30
0.0
 10
10.6781236889
 20
8.1733164105
 30
0.0
 10
10.6711058147
 20
8.1799313963
 30
0.0
 10
10.6645613268
 20
8.1870163923
 30
0.0
 10
10.6595298906
 20
8.1932825977
 30
0.0
 10
10.6557759399
 20
8.1984910395
 30
0.0
 10
10.6522109052
 20
8.20381807
 30
0.0
 10
10.6481121519
 20
8.2106927052
 30
0.0
 10
10.6445082663
 20
8.2178276922
 30
0.0
 10
10.6419374699
 20
8.2236633345
 30
0.0
 10
10.6395822488
 20
8.2295654852
 30
0.0
 10
10.6370393373
 20
8.2370717665
 30
0.0
 10
10.6346459162
 20
8.2462433959
 30
0.0
 10
10.6329261352
 20
8.2555216827
 30
0.0
 10
10.6318897176
 20
8.2648546905
 30
0.0
 10
10.6316575651
 20
8.2710966385
 30
0.0
 10
10.6316575651
 20
8.2742085082
 30
0.0
  0
SPLINE
  5
366
100
AcDbEntity
  8
0
100
AcDbSpline
 62
7
  6
CONTINUOUS
 70
0
 71
3
 72
39
 73
35
 74
0
 42
0.0000001
 43
0.0000001
 44
0.0000000001
 40
0.0
 40
0.0
 40
0.0
 40
0.0
 40
0.0299407059
 40
0.059954879
 40
0.0900595442
 40
0.1202698939
 40
0.1505990003
 40
0.181057579
 40
0.2116538066
 40
0.2423931982
 40
0.2732785415
 40
0.3043098822
 40
0.3354845599
 40
0.3667972931
 40
0.3982403074
 40
0.429803505
 40
0.4614746738
 40
0.4932397228
 40
0.5250829419
 40
0.5569872815
 40
0.5889346501
 40
0.6209062246
 40
0.6528827738
 40
0.684844985
 40
0.7167737889
 40
0.748650682
 40
0.7804580385
 40
0.812179418
 40
0.8437998668
 40
0.8753061195
 40
0.906687184
 40
0.9379333935
 40
0.9690397889
 40
1.0
 40
1.0
 40
1.0
 40
1.0
 10
10.861949241
 20
8.1890274568
 30
0.0
 10
10.8596131748
 20
8.1875331629
 30
0.0
 10
10.8548242496
 20
8.1847106349
 30
0.0
 10
10.8473436772
 20
8.1810046697
 30
0.0
 10
10.8395917804
 20
8.1778383805
 30
0.0
 10
10.8316053482
 20
8.1752268256
 30
0.0
 10
10.8234216223
 20
8.1731820738
 30
0.0
 10
10.8150789221
 20
8.171713642
 30
0.0
 10
10.806616251
 20
8.1708283119
 30
0.0
 10
10.7980731684
 20
8.1705301336
 30
0.0
 10
10.789489587
 20
8.1708204166
 30
0.0
 10
10.7809055923
 20
8.1716977264
 30
0.0
 10
10.7723612571
 20
8.1731578948
 30
0.0
 10
10.7638964568
 20
8.1751940412
 30
0.0
 10
10.7555506876
 20
8.1777966083
 30
0.0
 10
10.7473628783
 20
8.1809533901
 30
0.0
 10
10.739371212
 20
8.1846496042
 30
0.0
 10
10.7316129525
 20
8.1888679646
 30
0.0
 10
10.7241242729
 20
8.1935887619
 30
0.0
 10
10.7169400898
 20
8.1987899537
 30
0.0
 10
10.7100939034
 20
8.2044472682
 30
0.0
 10
10.703617641
 20
8.2105343112
 30
0.0
 10
10.6975414987
 20
8.2170226814
 30
0.0
 10
10.691893814
 20
8.223882116
 30
0.0
 10
10.6867009333
 20
8.231080628
 30
0.0
 10
10.6819870919
 20
8.2385846539
 30
0.0
 10
10.6777743008
 20
8.2463592071
 30
0.0
 10
10.6740822459
 20
8.2543680414
 30
0.0
 10
10.6709281953
 20
8.2625738047
 30
0.0
 10
10.6683268742
 20
8.2709382456
 30
0.0
 10
10.6662905371
 20
8.2794222785
 30
0.0
 10
10.664828615
 20
8.2879865519
 30
0.0
 10
10.6639481845
 20
8.2965904681
 30
0.0
 10
10.6637510997
 20
8.3023409509
 30
0.0
 10
10.6637510997
 20
8.3052084839
 30
0.0
  0
SPLINE
  5
367
100
AcDbEntity
  8
0
100
AcDbSpline
 62
7
  6
CONTINUOUS
 70
0
 71
3
 72
15
 73
11
 74
0
 42
0.0000001
 43
0.0000001
 44
0.0000000001
 40
0.0
 40
0.0
 40
0.0
 40
0.0
 40
0.1233934028
 40
0.2471133869
 40
0.3712392566
 40
0.4958407119
 40
0.6209774214
 40
0.7466947139
 40
0.8730305075
 40
1.0
 40
1.0
 40
1.0
 40
1.0
 10
10.6845330696
 20
8.3729576166
 30
0.0
 10
10.6828492424
 20
8.3705242671
 30
0.0
 10
10.6796656568
 20
8.3655175713
 30
0.0
 10
10.6754803966
 20
8.3576503407
 30
0.0
 10
10.6719008532
 20
8.3494575355
 30
0.0
 10
10.668946384
 20
8.3409834174
 30
0.0
 10
10.6666325766
 20
8.3322730568
 30
0.0
 10
10.664971584
 20
8.3233726845
 30
0.0
 10
10.6639722569
 20
8.3143303682
 30
0.0
 10
10.6637510997
 20
8.3082533755
 30
0.0
 10
10.6637510997
 20
8.3052084839
 30
0.0
  0
SPLINE
  5
368
100
AcDbEntity
  8
0
100
AcDbSpline
 62
7
  6
CONTINUOUS
 70
0
 71
3
 72
97
 73
93
 74
0
 42
0.0000001
 43
0.0000001
 44
0.0000000001
 40
0.0
 40
0.0
 40
0.0
 40
0.0
 40
0.0040392298
 40
0.0082524847
 40
0.0126435877
 40
0.0172157299
 40
0.0219715772
 40
0.0269131976
 40
0.0320419315
 40
0.0373586187
 40
0.0428636541
 40
0.0485569953
 40
0.0544382927
 40
0.0605067924
 40
0.0667614583
 40
0.0732009892
 40
0.0798237736
 40
0.0866280243
 40
0.0936116814
 40
0.1007724909
 40
0.1081080338
 40
0.1156156522
 40
0.1311355827
 40
0.1473083021
 40
0.1641072316
 40
0.1815037115
 40
0.1994671913
 40
0.217965389
 40
0.2369644641
 40
0.2564291645
 40
0.2763229567
 40
0.2966081429
 40
0.3172459803
 40
0.3381968103
 40
0.3594201705
 40
0.3808749028
 40
0.4025192581
 40
0.4243110105
 40
0.446207569
 40
0.4681660817
 40
0.4901435406
 40
0.5120968898
 40
0.533983136
 40
0.5557594526
 40
0.5773832845
 40
0.598812457
 40
0.6200052902
 40
0.6409207036
 40
0.6615183222
 40
0.6817585871
 40
0.7016028801
 40
0.7210136408
 40
0.7399544794
 40
0.7583903005
 40
0.7762874403
 40
0.7936138273
 40
0.8103391284
 40
0.8264349171
 40
0.8418748714
 40
0.8566350189
 40
0.8637535592
 40
0.8706943678
 40
0.8774552745
 40
0.8840342566
 40
0.890429571
 40
0.8966397008
 40
0.9026633677
 40
0.9084996405
 40
0.9141478376
 40
0.9196076681
 40
0.9248792187
 40
0.9299629606
 40
0.9348599032
 40
0.9395715236
 40
0.9440999264
 40
0.9484478978
 40
0.9526189375
 40
0.9566174718
 40
0.9604488543
 40
0.9641195621
 40
0.9676373386
 40
0.9710112714
 40
0.9742520339
 40
0.9773719247
 40
0.9803849957
 40
0.9833070943
 40
0.9861557538
 40
0.9889500758
 40
0.9917103928
 40
0.9944578661
 40
0.9972139789
 40
1.0
 40
1.0
 40
1.0
 40
1.0
 10
13.1115139799
 20
7.8802623252
 30
0.0
 10
13.1125009841
 20
7.8812156981
 30
0.0
 10
13.1144738712
 20
7.883209119
 30
0.0
 10
13.11737015
 20
7.8863826119
 30
0.0
 10
13.1202632579
 20
7.889799864
 30
0.0
 10
13.1231515469
 20
7.8934589509
 30
0.0
 10
13.1260336437
 20
7.897357992
 30
0.0
 10
13.128908071
 20
7.9014950516
 30
0.0
 10
13.1317734249
 20
7.9058679918
 30
0.0
 10
13.1346281982
 20
7.9104745666
 30
0.0
 10
13.1374708927
 20
7.9153123977
 30
0.0
 10
13.1403000838
 20
7.9203789646
 30
0.0
 10
13.143114254
 20
7.9256716693
 30
0.0
 10
13.1459119801
 20
7.9311877534
 30
0.0
 10
13.1486917959
 20
7.9369243582
 30
0.0
 10
13.1514522267
 20
7.9428785105
 30
0.0
 10
13.1541918774
 20
7.9490471011
 30
0.0
 10
13.1569092719
 20
7.9554269339
 30
0.0
 10
13.1596030184
 20
7.9620146798
 30
0.0
 10
13.1622717086
 20
7.968806906
 30
0.0
 10
13.16491393
 20
7.975800086
 30
0.0
 10
13.1684387894
 20
7.9854947425
 30
0.0
 10
13.1727623685
 20
7.9980923741
 30
0.0
 10
13.1777679215
 20
8.0137889331
 30
0.0
 10
13.1826358808
 20
8.0301947697
 30
0.0
 10
13.1873560304
 20
8.0472756543
 30
0.0
 10
13.1919184546
 20
8.0649960258
 30
0.0
 10
13.1963135846
 20
8.0833189311
 30
0.0
 10
13.2005322003
 20
8.1022061511
 30
0.0
 10
13.2045654525
 20
8.1216182785
 30
0.0
 10
13.2084048791
 20
8.1415148028
 30
0.0
 10
13.2120424286
 20
8.1618541897
 30
0.0
 10
13.2154704832
 20
8.1825939701
 30
0.0
 10
13.2186818608
 20
8.2036908348
 30
0.0
 10
13.2216698334
 20
8.2251007279
 30
0.0
 10
13.2244281378
 20
8.2467789362
 30
0.0
 10
13.2269510014
 20
8.2686801805
 30
0.0
 10
13.2292331484
 20
8.2907587127
 30
0.0
 10
13.2312698042
 20
8.3129684149
 30
0.0
 10
13.2330567073
 20
8.3352628944
 30
0.0
 10
13.234590117
 20
8.3575955801
 30
0.0
 10
13.2358668356
 20
8.37991982
 30
0.0
 10
13.2368842013
 20
8.4021889804
 30
0.0
 10
13.2376400942
 20
8.4243565435
 30
0.0
 10
13.2381329388
 20
8.4463762034
 30
0.0
 10
13.2383617141
 20
8.4682019644
 30
0.0
 10
13.2383259622
 20
8.4897882393
 30
0.0
 10
13.2380257759
 20
8.5110899441
 30
0.0
 10
13.2374618023
 20
8.5320625899
 30
0.0
 10
13.2366352375
 20
8.5526623777
 30
0.0
 10
13.2355478386
 20
8.5728462942
 30
0.0
 10
13.234201915
 20
8.5925722043
 30
0.0
 10
13.2326003166
 20
8.6117989354
 30
0.0
 10
13.2307464303
 20
8.6304863627
 30
0.0
 10
13.2286441709
 20
8.6485954998
 30
0.0
 10
13.2262979914
 20
8.666088591
 30
0.0
 10
13.2237128562
 20
8.6829291797
 30
0.0
 10
13.220894236
 20
8.6990822273
 30
0.0
 10
13.2178480759
 20
8.7145140361
 30
0.0
 10
13.2150931958
 20
8.7268910346
 30
0.0
 10
13.2127740472
 20
8.7364036139
 30
0.0
 10
13.211002826
 20
8.7432518455
 30
0.0
 10
13.2091797376
 20
8.7498965684
 30
0.0
 10
13.2073056759
 20
8.7563343254
 30
0.0
 10
13.2053816509
 20
8.7625617683
 30
0.0
 10
13.2034086733
 20
8.7685756617
 30
0.0
 10
13.2013877353
 20
8.7743728731
 30
0.0
 10
13.1993199433
 20
8.7799504056
 30
0.0
 10
13.1972063273
 20
8.7853053586
 30
0.0
 10
13.1950480024
 20
8.790434964
 30
0.0
 10
13.1928461049
 20
8.7953365791
 30
0.0
 10
13.1906017179
 20
8.8000076578
 30
0.0
 10
13.1883160527
 20
8.8044458185
 30
0.0
 10
13.1859902297
 20
8.8086487678
 30
0.0
 10
13.1836254296
 20
8.812614353
 30
0.0
 10
13.1812228691
 20
8.8163405666
 30
0.0
 10
13.1787836685
 20
8.8198254699
 30
0.0
 10
13.1763090761
 20
8.8230673186
 30
0.0
 10
13.1738002339
 20
8.8260644291
 30
0.0
 10
13.1712583052
 20
8.8288152352
 30
0.0
 10
13.1686844991
 20
8.8313183242
 30
0.0
 10
13.166079902
 20
8.8335722601
 30
0.0
 10
13.1634457317
 20
8.8355757988
 30
0.0
 10
13.1607831435
 20
8.8373276736
 30
0.0
 10
13.1580933551
 20
8.8388266486
 30
0.0
 10
13.1553777326
 20
8.8400716532
 30
0.0
 10
13.1526376847
 20
8.8410615108
 30
0.0
 10
13.1498748639
 20
8.8417953442
 30
0.0
 10
13.14709107
 20
8.8422723867
 30
0.0
 10
13.1442881634
 20
8.8424920773
 30
0.0
 10
13.1414684357
 20
8.8424543913
 30
0.0
 10
13.1395927912
 20
8.8422591583
 30
0.0
 10
13.1386565194
 20
8.8421203635
 30
0.0
  0
SPLINE
  5
369
100
AcDbEntity
  8
0
100
AcDbSpline
 62
7
  6
CONTINUOUS
 70
0
 71
3
 72
42
 73
38
 74
0
 42
0.0000001
 43
0.0000001
 44
0.0000000001
 40
0.0
 40
0.0
 40
0.0
 40
0.0
 40
0.0149723971
 40
0.029947854
 40
0.0449294092
 40
0.0599200692
 40
0.0749227779
 40
0.0899404136
 40
0.1200256609
 40
0.1502025864
 40
0.1804899033
 40
0.2109037105
 40
0.2414571471
 40
0.2721601282
 40
0.3030191646
 40
0.3340372675
 40
0.3652139349
 40
0.3965452155
 40
0.4280238444
 40
0.459639443
 40
0.4913787765
 40
0.5232260611
 40
0.5551633129
 40
0.5871707307
 40
0.6192271064
 40
0.6513102549
 40
0.683397459
 40
0.7154659208
 40
0.7474932143
 40
0.7794577337
 40
0.8113391302
 40
0.8431187274
 40
0.8747799267
 40
0.906308519
 40
0.9376931951
 40
0.9689252215
 40
1.0
 40
1.0
 40
1.0
 40
1.0
 10
10.9309146127
 20
8.9009281199
 30
0.0
 10
10.9288407068
 20
8.89892488
 30
0.0
 10
10.9246123576
 20
8.8949999828
 30
0.0
 10
10.9180401502
 20
8.889368753
 30
0.0
 10
10.911246678
 20
8.8840006208
 30
0.0
 10
10.9042414019
 20
8.8789031916
 30
0.0
 10
10.8970338055
 20
8.8740833263
 30
0.0
 10
10.8871627873
 20
8.8680330011
 30
0.0
 10
10.8743610718
 20
8.8611942107
 30
0.0
 10
10.8583669026
 20
8.8542025891
 30
0.0
 10
10.8418165306
 20
8.8484574105
 30
0.0
 10
10.8248017815
 20
8.8439905227
 30
0.0
 10
10.8074162275
 20
8.8408261993
 30
0.0
 10
10.7897556358
 20
8.8389816576
 30
0.0
 10
10.7719171765
 20
8.8384668055
 30
0.0
 10
10.7539989597
 20
8.8392842463
 30
0.0
 10
10.7360994794
 20
8.8414292637
 30
0.0
 10
10.7183170827
 20
8.8448898612
 30
0.0
 10
10.7007494347
 20
8.8496468359
 30
0.0
 10
10.6834929895
 20
8.855673888
 30
0.0
 10
10.6666424658
 20
8.8629377662
 30
0.0
 10
10.6502903358
 20
8.8713984588
 30
0.0
 10
10.6345263251
 20
8.8810094135
 30
0.0
 10
10.6194369271
 20
8.891717793
 30
0.0
 10
10.6051049341
 20
8.9034647631
 30
0.0
 10
10.5916089896
 20
8.9161858139
 30
0.0
 10
10.5790231607
 20
8.92981111
 30
0.0
 10
10.5674165369
 20
8.9442658709
 30
0.0
 10
10.5568528538
 20
8.9594707759
 30
0.0
 10
10.5473901413
 20
8.9753423917
 30
0.0
 10
10.5390804139
 20
8.9917936321
 30
0.0
 10
10.5319693804
 20
9.0087342185
 30
0.0
 10
10.5260962118
 20
9.0260712072
 30
0.0
 10
10.5214932769
 20
9.0437093558
 30
0.0
 10
10.5181860776
 20
9.0615521432
 30
0.0
 10
10.5161928836
 20
9.0795003204
 30
0.0
 10
10.5157464591
 20
9.0915040789
 30
0.0
 10
10.5157464591
 20
9.097488514
 30
0.0
  0
SPLINE
  5
36A
100
AcDbEntity
  8
0
100
AcDbSpline
 62
7
  6
CONTINUOUS
 70
0
 71
3
 72
42
 73
38
 74
0
 42
0.0000001
 43
0.0000001
 44
0.0000000001
 40
0.0
 40
0.0
 40
0.0
 40
0.0
 40
0.0149723971
 40
0.029947854
 40
0.0449294092
 40
0.0599200692
 40
0.0749227779
 40
0.0899404136
 40
0.1200256609
 40
0.1502025864
 40
0.1804899033
 40
0.2109037105
 40
0.2414571471
 40
0.2721601282
 40
0.3030191646
 40
0.3340372675
 40
0.3652139349
 40
0.3965452155
 40
0.4280238444
 40
0.459639443
 40
0.4913787765
 40
0.5232260611
 40
0.5551633129
 40
0.5871707307
 40
0.6192271064
 40
0.6513102549
 40
0.683397459
 40
0.7154659208
 40
0.7474932143
 40
0.7794577337
 40
0.8113391302
 40
0.8431187274
 40
0.8747799267
 40
0.906308519
 40
0.9376931951
 40
0.9689252215
 40
1.0
 40
1.0
 40
1.0
 40
1.0
 10
10.2373798909
 20
8.1337833728
 30
0.0
 10
10.2353059851
 20
8.131780133
 30
0.0
 10
10.2310776358
 20
8.1278552358
 30
0.0
 10
10.2245054285
 20
8.1222240059
 30
0.0
 10
10.2177119563
 20
8.1168558738
 30
0.0
 10
10.2107066802
 20
8.1117584446
 30
0.0
 10
10.2034990837
 20
8.1069385793
 30
0.0
 10
10.1936280656
 20
8.1008882541
 30
0.0
 10
10.1808263501
 20
8.0940494637
 30
0.0
 10
10.1648321808
 20
8.0870578421
 30
0.0
 10
10.1482818088
 20
8.0813126634
 30
0.0
 10
10.1312670597
 20
8.0768457757
 30
0.0
 10
10.1138815058
 20
8.0736814522
 30
0.0
 10
10.0962209141
 20
8.0718369106
 30
0.0
 10
10.0783824548
 20
8.0713220585
 30
0.0
 10
10.060464238
 20
8.0721394993
 30
0.0
 10
10.0425647577
 20
8.0742845167
 30
0.0
 10
10.024782361
 20
8.0777451142
 30
0.0
 10
10.007214713
 20
8.0825020889
 30
0.0
 10
9.9899582678
 20
8.088529141
 30
0.0
 10
9.973107744
 20
8.0957930192
 30
0.0
 10
9.956755614
 20
8.1042537118
 30
0.0
 10
9.9409916034
 20
8.1138646665
 30
0.0
 10
9.9259022053
 20
8.124573046
 30
0.0
 10
9.9115702124
 20
8.1363200161
 30
0.0
 10
9.8980742678
 20
8.1490410668
 30
0.0
 10
9.8854884389
 20
8.162666363
 30
0.0
 10
9.8738818151
 20
8.1771211239
 30
0.0
 10
9.8633181321
 20
8.1923260289
 30
0.0
 10
9.8538554196
 20
8.2081976447
 30
0.0
 10
9.8455456921
 20
8.2246488851
 30
0.0
 10
9.8384346587
 20
8.2415894714
 30
0.0
 10
9.83256149
 20
8.2589264601
 30
0.0
 10
9.8279585552
 20
8.2765646088
 30
0.0
 10
9.8246513559
 20
8.2944073961
 30
0.0
 10
9.8226581619
 20
8.3123555733
 30
0.0
 10
9.8222117374
 20
8.3243593318
 30
0.0
 10
9.8222117374
 20
8.330343767
 30
0.0
  0
SPLINE
  5
36B
100
AcDbEntity
  8
0
100
AcDbSpline
 62
7
  6
CONTINUOUS
 70
0
 71
3
 72
15
 73
11
 74
0
 42
0.0000001
 43
0.0000001
 44
0.0000000001
 40
0.0
 40
0.0
 40
0.0
 40
0.0
 40
0.1225868352
 40
0.245507215
 40
0.3689817556
 40
0.4931988111
 40
0.6183118533
 40
0.7444377972
 40
0.8716548226
 40
1.0
 40
1.0
 40
1.0
 40
1.0
 10
10.2746756826
 20
8.4161356016
 30
0.0
 10
10.2710367102
 20
8.4188800689
 30
0.0
 10
10.2639180819
 20
8.4246046032
 30
0.0
 10
10.2537501911
 20
8.4338254719
 30
0.0
 10
10.2440777102
 20
8.4436498516
 30
0.0
 10
10.2348970901
 20
8.4540434478
 30
0.0
 10
10.2262062966
 20
8.4649756083
 30
0.0
 10
10.2180063258
 20
8.4764177076
 30
0.0
 10
10.2103017135
 20
8.4883416595
 30
0.0
 10
10.2055213549
 20
8.4965582133
 30
0.0
 10
10.2032158248
 20
8.5007362834
 30
0.0
  0
SPLINE
  5
36C
100
AcDbEntity
  8
0
100
AcDbSpline
 62
7
  6
CONTINUOUS
 70
0
 71
3
 72
31
 73
27
 74
0
 42
0.0000001
 43
0.0000001
 44
0.0000000001
 40
0.0
 40
0.0
 40
0.0
 40
0.0
 40
0.0280469049
 40
0.0566994919
 40
0.0859223566
 40
0.1156789908
 40
0.1459319308
 40
0.1766428746
 40
0.2077726557
 40
0.2392814242
 40
0.3032725203
 40
0.3682864289
 40
0.4339857014
 40
0.5000283359
 40
0.5660700529
 40
0.6317665771
 40
0.6967759258
 40
0.7607606863
 40
0.7922656266
 40
0.8233911612
 40
0.8540974268
 40
0.8843452817
 40
0.9140964325
 40
0.9433134045
 40
0.9719597311
 40
1.0
 40
1.0
 40
1.0
 40
1.0
 10
12.9892561471
 20
8.1105172076
 30
0.0
 10
12.9903644243
 20
8.1150972895
 30
0.0
 10
12.992542974
 20
8.1243714555
 30
0.0
 10
12.995666245
 20
8.1384660332
 30
0.0
 10
12.9986768241
 20
8.1528787021
 30
0.0
 10
13.0015705203
 20
8.1675893964
 30
0.0
 10
13.0043433131
 20
8.1825776775
 30
0.0
 10
13.0069913068
 20
8.1978227065
 30
0.0
 10
13.0095108512
 20
8.2133033039
 30
0.0
 10
13.0127105982
 20
8.2343371439
 30
0.0
 10
13.0163591906
 20
8.2610596743
 30
0.0
 10
13.0201520462
 20
8.2935540016
 30
0.0
 10
13.0233603437
 20
8.3264575956
 30
0.0
 10
13.0259662069
 20
8.3595875449
 30
0.0
 10
13.0279551187
 20
8.3927597865
 30
0.0
 10
13.0293160646
 20
8.4257900172
 30
0.0
 10
13.0300415229
 20
8.4584946164
 30
0.0
 10
13.0301136958
 20
8.4854625094
 30
0.0
 10
13.0298457218
 20
8.5067342274
 30
0.0
 10
13.0294854866
 20
8.5224122383
 30
0.0
 10
13.0289655107
 20
8.5378744364
 30
0.0
 10
13.0282865045
 20
8.5530993442
 30
0.0
 10
13.0274494501
 20
8.5680657876
 30
0.0
 10
13.0264554953
 20
8.5827529734
 30
0.0
 10
13.0253060486
 20
8.5971404534
 30
0.0
 10
13.0244274175
 20
8.60662428
 30
0.0
 10
13.0239614196
 20
8.6113123253
 30
0.0
  0
SPLINE
  5
36D
100
AcDbEntity
  8
0
100
AcDbSpline
 62
7
  6
CONTINUOUS
 70
0
 71
3
 72
23
 73
19
 74
0
 42
0.0000001
 43
0.0000001
 44
0.0000000001
 40
0.0
 40
0.0
 40
0.0
 40
0.0
 40
0.0764216955
 40
0.1504654227
 40
0.2222014289
 40
0.2917108972
 40
0.3590900786
 40
0.4244474549
 40
0.487903708
 40
0.5495925108
 40
0.6096609283
 40
0.6682702054
 40
0.7255962412
 40
0.7818282176
 40
0.8371677928
 40
0.8918276897
 40
0.9460292397
 40
1.0
 40
1.0
 40
1.0
 40
1.0
 10
13.1733332379
 20
7.5504581224
 30
0.0
 10
13.1721455718
 20
7.5493109249
 30
0.0
 10
13.1697707003
 20
7.5470895748
 30
0.0
 10
13.166151791
 20
7.543933049
 30
0.0
 10
13.1625345112
 20
7.5410064824
 30
0.0
 10
13.1589199446
 20
7.5383109304
 30
0.0
 10
13.1553091083
 20
7.535847163
 30
0.0
 10
13.1517029318
 20
7.5336158997
 30
0.0
 10
13.1481023305
 20
7.5316178534
 30
0.0
 10
13.1445082945
 20
7.5298536296
 30
0.0
 10
13.1409218022
 20
7.5283238607
 30
0.0
 10
13.1373438405
 20
7.5270291708
 30
0.0
 10
13.1337754612
 20
7.5259700145
 30
0.0
 10
13.1302177047
 20
7.5251468659
 30
0.0
 10
13.126671676
 20
7.524560157
 30
0.0
 10
13.1231384668
 20
7.5242101298
 30
0.0
 10
13.119619452
 20
7.524097008
 30
0.0
 10
13.1172815232
 20
7.5241797176
 30
0.0
 10
13.1161181694
 20
7.5242603947
 30
0.0
  0
SPLINE
  5
36E
100
AcDbEntity
  8
0
100
AcDbSpline
 62
7
  6
CONTINUOUS
 70
0
 71
3
 72
42
 73
38
 74
0
 42
0.0000001
 43
0.0000001
 44
0.0000000001
 40
0.0
 40
0.0
 40
0.0
 40
0.0
 40
0.0149723971
 40
0.029947854
 40
0.0449294092
 40
0.0599200692
 40
0.0749227779
 40
0.0899404136
 40
0.1200256609
 40
0.1502025864
 40
0.1804899033
 40
0.2109037105
 40
0.2414571471
 40
0.2721601282
 40
0.3030191646
 40
0.3340372675
 40
0.3652139349
 40
0.3965452155
 40
0.4280238444
 40
0.459639443
 40
0.4913787765
 40
0.5232260611
 40
0.5551633129
 40
0.5871707307
 40
0.6192271064
 40
0.6513102549
 40
0.683397459
 40
0.7154659208
 40
0.7474932143
 40
0.7794577337
 40
0.8113391302
 40
0.8431187274
 40
0.8747799267
 40
0.906308519
 40
0.9376931951
 40
0.9689252215
 40
1.0
 40
1.0
 40
1.0
 40
1.0
 10
11.6244494496
 20
8.0375897722
 30
0.0
 10
11.6223755437
 20
8.0355865324
 30
0.0
 10
11.6181471944
 20
8.0316616352
 30
0.0
 10
11.6115749871
 20
8.0260304053
 30
0.0
 10
11.6047815149
 20
8.0206622731
 30
0.0
 10
11.5977762388
 20
8.015564844
 30
0.0
 10
11.5905686423
 20
8.0107449787
 30
0.0
 10
11.5806976242
 20
8.0046946535
 30
0.0
 10
11.5678959087
 20
7.9978558631
 30
0.0
 10
11.5519017395
 20
7.9908642415
 30
0.0
 10
11.5353513675
 20
7.9851190628
 30
0.0
 10
11.5183366184
 20
7.9806521751
 30
0.0
 10
11.5009510644
 20
7.9774878516
 30
0.0
 10
11.4832904727
 20
7.97564331
 30
0.0
 10
11.4654520134
 20
7.9751284579
 30
0.0
 10
11.4475337966
 20
7.9759458987
 30
0.0
 10
11.4296343163
 20
7.9780909161
 30
0.0
 10
11.4118519196
 20
7.9815515136
 30
0.0
 10
11.3942842716
 20
7.9863084883
 30
0.0
 10
11.3770278264
 20
7.9923355404
 30
0.0
 10
11.3601773026
 20
7.9995994186
 30
0.0
 10
11.3438251727
 20
8.0080601112
 30
0.0
 10
11.328061162
 20
8.0176710659
 30
0.0
 10
11.3129717639
 20
8.0283794453
 30
0.0
 10
11.298639771
 20
8.0401264155
 30
0.0
 10
11.2851438265
 20
8.0528474662
 30
0.0
 10
11.2725579975
 20
8.0664727624
 30
0.0
 10
11.2609513737
 20
8.0809275233
 30
0.0
 10
11.2503876907
 20
8.0961324283
 30
0.0
 10
11.2409249782
 20
8.1120040441
 30
0.0
 10
11.2326152507
 20
8.1284552845
 30
0.0
 10
11.2255042173
 20
8.1453958708
 30
0.0
 10
11.2196310486
 20
8.1627328595
 30
0.0
 10
11.2150281138
 20
8.1803710082
 30
0.0
 10
11.2117209145
 20
8.1982137955
 30
0.0
 10
11.2097277205
 20
8.2161619727
 30
0.0
 10
11.209281296
 20
8.2281657312
 30
0.0
 10
11.209281296
 20
8.2341501664
 30
0.0
  0
SPLINE
  5
36F
100
AcDbEntity
  8
0
100
AcDbSpline
 62
7
  6
CONTINUOUS
 70
0
 71
3
 72
15
 73
11
 74
0
 42
0.0000001
 43
0.0000001
 44
0.0000000001
 40
0.0
 40
0.0
 40
0.0
 40
0.0
 40
0.122587203
 40
0.245507722
 40
0.3689819932
 40
0.4931986204
 40
0.6183114326
 40
0.7444373362
 40
0.8716544648
 40
1.0
 40
1.0
 40
1.0
 40
1.0
 10
11.6617530306
 20
8.3199361269
 30
0.0
 10
11.6581135748
 20
8.3226807063
 30
0.0
 10
11.6509940123
 20
8.3284055178
 30
0.0
 10
11.6408248322
 20
8.3376269518
 30
0.0
 10
11.631151182
 20
8.3474520197
 30
0.0
 10
11.6219694948
 20
8.357846414
 30
0.0
 10
11.6132777266
 20
8.3687794891
 30
0.0
 10
11.6050768711
 20
8.3802226188
 30
0.0
 10
11.5973714635
 20
8.3921477071
 30
0.0
 10
11.5925906413
 20
8.4003650729
 30
0.0
 10
11.5902848963
 20
8.4045435654
 30
0.0
  0
SPLINE
  5
370
100
AcDbEntity
  8
0
100
AcDbSpline
 62
7
  6
CONTINUOUS
 70
0
 71
3
 72
24
 73
20
 74
0
 42
0.0000001
 43
0.0000001
 44
0.0000000001
 40
0.0
 40
0.0
 40
0.0
 40
0.0
 40
0.0637764416
 40
0.1273443685
 40
0.190701004
 40
0.2538548276
 40
0.3168116139
 40
0.3795801666
 40
0.4421711529
 40
0.504596791
 40
0.5668710034
 40
0.6290092011
 40
0.6910281569
 40
0.7220010165
 40
0.7529508932
 40
0.8147862903
 40
0.8765592252
 40
0.938290164
 40
1.0
 40
1.0
 40
1.0
 40
1.0
 10
8.9316279125
 20
7.1846986106
 30
0.0
 10
8.9316279125
 20
7.1892655029
 30
0.0
 10
8.9318465156
 20
7.1983859034
 30
0.0
 10
8.9328331104
 20
7.2120110101
 30
0.0
 10
8.934475831
 20
7.2255281299
 30
0.0
 10
8.9367707201
 20
7.2389054891
 30
0.0
 10
8.9397126671
 20
7.2521125287
 30
0.0
 10
8.9432948585
 20
7.2651187168
 30
0.0
 10
8.9475090551
 20
7.2778940929
 30
0.0
 10
8.9523455822
 20
7.2904091807
 30
0.0
 10
8.9577933648
 20
7.3026351539
 30
0.0
 10
8.9638397241
 20
7.3145436372
 30
0.0
 10
8.9693683268
 20
7.3241846943
 30
0.0
 10
8.9740752759
 20
7.3317098871
 30
0.0
 10
8.9789656247
 20
7.3391014499
 30
0.0
 10
8.9854251742
 20
7.3480948707
 30
0.0
 10
8.9937136982
 20
7.3584675678
 30
0.0
 10
9.0025179425
 20
7.3683940123
 30
0.0
 10
9.0087188229
 20
7.3746998991
 30
0.0
 10
9.0118971435
 20
7.3777699184
 30
0.0
  0
SPLINE
  5
371
100
AcDbEntity
  8
0
100
AcDbSpline
 62
7
  6
CONTINUOUS
 70
0
 71
3
 72
42
 73
38
 74
0
 42
0.0000001
 43
0.0000001
 44
0.0000000001
 40
0.0
 40
0.0
 40
0.0
 40
0.0
 40
0.0149723971
 40
0.029947854
 40
0.0449294092
 40
0.0599200692
 40
0.0749227779
 40
0.0899404136
 40
0.1200256609
 40
0.1502025864
 40
0.1804899033
 40
0.2109037105
 40
0.2414571471
 40
0.2721601282
 40
0.3030191646
 40
0.3340372675
 40
0.3652139349
 40
0.3965452155
 40
0.4280238444
 40
0.459639443
 40
0.4913787765
 40
0.5232260611
 40
0.5551633129
 40
0.5871707307
 40
0.6192271064
 40
0.6513102549
 40
0.683397459
 40
0.7154659208
 40
0.7474932143
 40
0.7794577337
 40
0.8113391302
 40
0.8431187274
 40
0.8747799267
 40
0.906308519
 40
0.9376931951
 40
0.9689252215
 40
1.0
 40
1.0
 40
1.0
 40
1.0
 10
10.9309146127
 20
7.2704451483
 30
0.0
 10
10.9288407068
 20
7.2684419085
 30
0.0
 10
10.9246123576
 20
7.2645170113
 30
0.0
 10
10.9180401502
 20
7.2588857814
 30
0.0
 10
10.911246678
 20
7.2535176493
 30
0.0
 10
10.9042414019
 20
7.2484202201
 30
0.0
 10
10.8970338055
 20
7.2436003548
 30
0.0
 10
10.8871627873
 20
7.2375500296
 30
0.0
 10
10.8743610718
 20
7.2307112392
 30
0.0
 10
10.8583669026
 20
7.2237196176
 30
0.0
 10
10.8418165306
 20
7.2179744389
 30
0.0
 10
10.8248017815
 20
7.2135075512
 30
0.0
 10
10.8074162275
 20
7.2103432277
 30
0.0
 10
10.7897556358
 20
7.2084986861
 30
0.0
 10
10.7719171765
 20
7.207983834
 30
0.0
 10
10.7539989597
 20
7.2088012748
 30
0.0
 10
10.7360994794
 20
7.2109462922
 30
0.0
 10
10.7183170827
 20
7.2144068897
 30
0.0
 10
10.7007494347
 20
7.2191638644
 30
0.0
 10
10.6834929895
 20
7.2251909165
 30
0.0
 10
10.6666424658
 20
7.2324547947
 30
0.0
 10
10.6502903358
 20
7.2409154873
 30
0.0
 10
10.6345263251
 20
7.250526442
 30
0.0
 10
10.6194369271
 20
7.2612348214
 30
0.0
 10
10.6051049341
 20
7.2729817916
 30
0.0
 10
10.5916089896
 20
7.2857028423
 30
0.0
 10
10.5790231607
 20
7.2993281385
 30
0.0
 10
10.5674165369
 20
7.3137828994
 30
0.0
 10
10.5568528538
 20
7.3289878044
 30
0.0
 10
10.5473901413
 20
7.3448594202
 30
0.0
 10
10.5390804139
 20
7.3613106606
 30
0.0
 10
10.5319693804
 20
7.3782512469
 30
0.0
 10
10.5260962118
 20
7.3955882356
 30
0.0
 10
10.5214932769
 20
7.4132263843
 30
0.0
 10
10.5181860776
 20
7.4310691716
 30
0.0
 10
10.5161928836
 20
7.4490173488
 30
0.0
 10
10.5157464591
 20
7.4610211073
 30
0.0
 10
10.5157464591
 20
7.4670055425
 30
0.0
  0
SPLINE
  5
372
100
AcDbEntity
  8
0
100
AcDbSpline
 62
7
  6
CONTINUOUS
 70
0
 71
3
 72
24
 73
20
 74
0
 42
0.0000001
 43
0.0000001
 44
0.0000000001
 40
0.0
 40
0.0
 40
0.0
 40
0.0
 40
0.0637764416
 40
0.1273443685
 40
0.190701004
 40
0.2538548276
 40
0.3168116139
 40
0.3795801666
 40
0.4421711529
 40
0.504596791
 40
0.5668710034
 40
0.6290092011
 40
0.6910281569
 40
0.7220010165
 40
0.7529508932
 40
0.8147862903
 40
0.8765592252
 40
0.938290164
 40
1.0
 40
1.0
 40
1.0
 40
1.0
 10
8.9316279125
 20
9.5995133194
 30
0.0
 10
8.9316279125
 20
9.6040802117
 30
0.0
 10
8.9318465156
 20
9.6132006122
 30
0.0
 10
8.9328331104
 20
9.6268257189
 30
0.0
 10
8.934475831
 20
9.6403428387
 30
0.0
 10
8.9367707201
 20
9.6537201979
 30
0.0
 10
8.9397126671
 20
9.6669272375
 30
0.0
 10
8.9432948585
 20
9.6799334256
 30
0.0
 10
8.9475090551
 20
9.6927088017
 30
0.0
 10
8.9523455822
 20
9.7052238895
 30
0.0
 10
8.9577933648
 20
9.7174498627
 30
0.0
 10
8.9638397241
 20
9.729358346
 30
0.0
 10
8.9693683268
 20
9.7389994031
 30
0.0
 10
8.9740752759
 20
9.7465245959
 30
0.0
 10
8.9789656247
 20
9.7539161587
 30
0.0
 10
8.9854251742
 20
9.7629095795
 30
0.0
 10
8.9937136982
 20
9.7732822766
 30
0.0
 10
9.0025179425
 20
9.7832087211
 30
0.0
 10
9.0087188229
 20
9.7895146079
 30
0.0
 10
9.0118971435
 20
9.7925846272
 30
0.0
  0
SPLINE
  5
373
100
AcDbEntity
  8
0
100
AcDbSpline
 62
7
  6
CONTINUOUS
 70
0
 71
3
 72
23
 73
19
 74
0
 42
0.0000001
 43
0.0000001
 44
0.0000000001
 40
0.0
 40
0.0
 40
0.0
 40
0.0
 40
0.0501383624
 40
0.102487489
 40
0.1569474031
 40
0.2134101941
 40
0.271760774
 40
0.3318776337
 40
0.3936334707
 40
0.4568957571
 40
0.5215272493
 40
0.587386497
 40
0.6543283792
 40
0.7222045794
 40
0.7908640465
 40
0.8601534389
 40
0.929917594
 40
1.0
 40
1.0
 40
1.0
 40
1.0
 10
11.4667508539
 20
8.1893713952
 30
0.0
 10
11.4681985144
 20
8.1934921596
 30
0.0
 10
11.471049583
 20
8.2019536663
 30
0.0
 10
11.4751171815
 20
8.2150076555
 30
0.0
 10
11.4790608685
 20
8.2286739623
 30
0.0
 10
11.4828711022
 20
8.2429198333
 30
0.0
 10
11.4865387148
 20
8.2577112439
 30
0.0
 10
11.4900548683
 20
8.2730128005
 30
0.0
 10
11.4934110945
 20
8.2887878877
 30
0.0
 10
11.496599309
 20
8.3049987413
 30
0.0
 10
11.4996118362
 20
8.3216065406
 30
0.0
 10
11.5024414329
 20
8.338571502
 30
0.0
 10
11.505081294
 20
8.355852981
 30
0.0
 10
11.5075250717
 20
8.3734095734
 30
0.0
 10
11.5097668876
 20
8.391199209
 30
0.0
 10
11.5118013555
 20
8.4091792656
 30
0.0
 10
11.513623588
 20
8.4273066157
 30
0.0
 10
11.5146923877
 20
8.4394423271
 30
0.0
 10
11.5151907361
 20
8.445526976
 30
0.0
  0
SPLINE
  5
374
100
AcDbEntity
  8
0
100
AcDbSpline
 62
7
  6
CONTINUOUS
 70
0
 71
3
 72
24
 73
20
 74
0
 42
0.0000001
 43
0.0000001
 44
0.0000000001
 40
0.0
 40
0.0
 40
0.0
 40
0.0
 40
0.0637764416
 40
0.1273443685
 40
0.190701004
 40
0.2538548276
 40
0.3168116139
 40
0.3795801666
 40
0.4421711529
 40
0.504596791
 40
0.5668710034
 40
0.6290092011
 40
0.6910281569
 40
0.7220010165
 40
0.7529508932
 40
0.8147862903
 40
0.8765592252
 40
0.938290164
 40
1.0
 40
1.0
 40
1.0
 40
1.0
 10
12.0109997093
 20
9.38595816
 30
0.0
 10
12.0109997093
 20
9.3905250523
 30
0.0
 10
12.0112183124
 20
9.3996454527
 30
0.0
 10
12.0122049072
 20
9.4132705595
 30
0.0
 10
12.0138476278
 20
9.4267876793
 30
0.0
 10
12.0161425169
 20
9.4401650384
 30
0.0
 10
12.0190844639
 20
9.453372078
 30
0.0
 10
12.0226666553
 20
9.4663782662
 30
0.0
 10
12.0268808519
 20
9.4791536422
 30
0.0
 10
12.031717379
 20
9.4916687301
 30
0.0
 10
12.0371651616
 20
9.5038947033
 30
0.0
 10
12.0432115209
 20
9.5158031866
 30
0.0
 10
12.0487401236
 20
9.5254442437
 30
0.0
 10
12.0534470727
 20
9.5329694365
 30
0.0
 10
12.0583374215
 20
9.5403609993
 30
0.0
 10
12.064796971
 20
9.54935442
 30
0.0
 10
12.073085495
 20
9.5597271171
 30
0.0
 10
12.0818897393
 20
9.5696535617
 30
0.0
 10
12.0880906197
 20
9.5759594484
 30
0.0
 10
12.0912689403
 20
9.5790294678
 30
0.0
  0
SPLINE
  5
375
100
AcDbEntity
  8
0
100
AcDbSpline
 62
4
  6
CONTINUOUS
 70
0
 71
3
 72
346
 73
342
 74
0
 42
0.0000001
 43
0.0000001
 44
0.0000000001
 40
0.0
 40
0.0
 40
0.0
 40
0.0
 40
0.015625
 40
0.03125
 40
0.0390625
 40
0.046875
 40
0.05078125
 40
0.0546875
 40
0.05859375
 40
0.060546875
 40
0.0615234375
 40
0.0625
 40
0.0634765625
 40
0.064453125
 40
0.06640625
 40
0.0703125
 40
0.07421875
 40
0.078125
 40
0.0859375
 40
0.09375
 40
0.1015625
 40
0.109375
 40
0.11328125
 40
0.1171875
 40
0.12109375
 40
0.123046875
 40
0.1240234375
 40
0.125
 40
0.1259765625
 40
0.126953125
 40
0.12890625
 40
0.1328125
 40
0.13671875
 40
0.140625
 40
0.1484375
 40
0.15625
 40
0.1640625
 40
0.171875
 40
0.17578125
 40
0.1796875
 40
0.18359375
 40
0.185546875
 40
0.1865234375
 40
0.1875
 40
0.1884765625
 40
0.189453125
 40
0.19140625
 40
0.1953125
 40
0.19921875
 40
0.203125
 40
0.2109375
 40
0.21875
 40
0.2265625
 40
0.234375
 40
0.23828125
 40
0.2421875
 40
0.244140625
 40
0.24609375
 40
0.248046875
 40
0.2490234375
 40
0.2495117188
 40
0.25
 40
0.2504882812
 40
0.2509765625
 40
0.251953125
 40
0.25390625
 40
0.255859375
 40
0.2578125
 40
0.26171875
 40
0.265625
 40
0.2734375
 40
0.28125
 40
0.2890625
 40
0.296875
 40
0.30078125
 40
0.3046875
 40
0.306640625
 40
0.30859375
 40
0.310546875
 40
0.3115234375
 40
0.3120117188
 40
0.3125
 40
0.3129882812
 40
0.3134765625
 40
0.314453125
 40
0.31640625
 40
0.318359375
 40
0.3203125
 40
0.32421875
 40
0.328125
 40
0.3359375
 40
0.34375
 40
0.3515625
 40
0.35546875
 40
0.359375
 40
0.36328125
 40
0.3671875
 40
0.369140625
 40
0.37109375
 40
0.3720703125
 40
0.373046875
 40
0.3740234375
 40
0.3745117188
 40
0.3747558594
 40
0.375
 40
0.3752441406
 40
0.3754882812
 40
0.3759765625
 40
0.376953125
 40
0.3779296875
 40
0.37890625
 40
0.380859375
 40
0.3828125
 40
0.38671875
 40
0.390625
 40
0.39453125
 40
0.3984375
 40
0.40625
 40
0.4140625
 40
0.41796875
 40
0.421875
 40
0.42578125
 40
0.4296875
 40
0.431640625
 40
0.43359375
 40
0.4345703125
 40
0.435546875
 40
0.4365234375
 40
0.4370117188
 40
0.4372558594
 40
0.4375
 40
0.4377441406
 40
0.4379882812
 40
0.4384765625
 40
0.439453125
 40
0.4404296875
 40
0.44140625
 40
0.443359375
 40
0.4453125
 40
0.44921875
 40
0.453125
 40
0.45703125
 40
0.4609375
 40
0.46875
 40
0.4765625
 40
0.48046875
 40
0.484375
 40
0.48828125
 40
0.4921875
 40
0.494140625
 40
0.49609375
 40
0.4970703125
 40
0.498046875
 40
0.4990234375
 40
0.4995117188
 40
0.4997558594
 40
0.5
 40
0.5002441406
 40
0.5004882812
 40
0.5009765625
 40
0.501953125
 40
0.5029296875
 40
0.50390625
 40
0.505859375
 40
0.5078125
 40
0.51171875
 40
0.515625
 40
0.51953125
 40
0.5234375
 40
0.53125
 40
0.5390625
 40
0.54296875
 40
0.546875
 40
0.55078125
 40
0.5546875
 40
0.556640625
 40
0.55859375
 40
0.5595703125
 40
0.560546875
 40
0.5615234375
 40
0.5620117188
 40
0.5622558594
 40
0.5625
 40
0.5627441406
 40
0.5629882812
 40
0.5634765625
 40
0.564453125
 40
0.5654296875
 40
0.56640625
 40
0.568359375
 40
0.5703125
 40
0.57421875
 40
0.578125
 40
0.58203125
 40
0.5859375
 40
0.59375
 40
0.6015625
 40
0.60546875
 40
0.609375
 40
0.61328125
 40
0.6171875
 40
0.619140625
 40
0.62109375
 40
0.6220703125
 40
0.623046875
 40
0.6240234375
 40
0.6245117188
 40
0.6247558594
 40
0.625
 40
0.6252441406
 40
0.6254882812
 40
0.6259765625
 40
0.626953125
 40
0.6279296875
 40
0.62890625
 40
0.630859375
 40
0.6328125
 40
0.63671875
 40
0.640625
 40
0.64453125
 40
0.6484375
 40
0.65625
 40
0.6640625
 40
0.66796875
 40
0.671875
 40
0.67578125
 40
0.6796875
 40
0.681640625
 40
0.68359375
 40
0.6845703125
 40
0.685546875
 40
0.6865234375
 40
0.6870117188
 40
0.6872558594
 40
0.6875
 40
0.6877441406
 40
0.6879882812
 40
0.6884765625
 40
0.689453125
 40
0.6904296875
 40
0.69140625
 40
0.693359375
 40
0.6953125
 40
0.69921875
 40
0.703125
 40
0.70703125
 40
0.7109375
 40
0.71875
 40
0.7265625
 40
0.73046875
 40
0.734375
 40
0.73828125
 40
0.7421875
 40
0.744140625
 40
0.74609375
 40
0.7470703125
 40
0.748046875
 40
0.7490234375
 40
0.7495117188
 40
0.7497558594
 40
0.75
 40
0.7502441406
 40
0.7504882812
 40
0.7509765625
 40
0.751953125
 40
0.7529296875
 40
0.75390625
 40
0.755859375
 40
0.7578125
 40
0.76171875
 40
0.765625
 40
0.76953125
 40
0.7734375
 40
0.78125
 40
0.7890625
 40
0.79296875
 40
0.796875
 40
0.80078125
 40
0.8046875
 40
0.806640625
 40
0.80859375
 40
0.8095703125
 40
0.810546875
 40
0.8115234375
 40
0.8120117188
 40
0.8125
 40
0.8129882812
 40
0.8134765625
 40
0.814453125
 40
0.8154296875
 40
0.81640625
 40
0.818359375
 40
0.8203125
 40
0.82421875
 40
0.828125
 40
0.83203125
 40
0.8359375
 40
0.84375
 40
0.8515625
 40
0.859375
 40
0.86328125
 40
0.8671875
 40
0.869140625
 40
0.87109375
 40
0.873046875
 40
0.8740234375
 40
0.8745117188
 40
0.875
 40
0.8754882812
 40
0.8759765625
 40
0.876953125
 40
0.87890625
 40
0.880859375
 40
0.8828125
 40
0.88671875
 40
0.890625
 40
0.8984375
 40
0.90625
 40
0.9140625
 40
0.921875
 40
0.92578125
 40
0.9296875
 40
0.931640625
 40
0.93359375
 40
0.935546875
 40
0.9365234375
 40
0.9370117188
 40
0.9375
 40
0.9379882812
 40
0.9384765625
 40
0.939453125
 40
0.94140625
 40
0.943359375
 40
0.9453125
 40
0.94921875
 40
0.953125
 40
0.9609375
 40
0.96875
 40
0.9765625
 40
0.984375
 40
1.0
 40
1.0
 40
1.0
 40
1.0
 10
10.6153273784
 20
10.4060050411
 30
0.0
 10
10.6110400397
 20
10.4061887412
 30
0.0
 10
10.6024653613
 20
10.4065561369
 30
0.0
 10
10.5917470192
 20
10.4070154042
 30
0.0
 10
10.5831723332
 20
10.4073827704
 30
0.0
 10
10.5778131821
 20
10.407612482
 30
0.0
 10
10.573525798
 20
10.4077960047
 30
0.0
 10
10.5703104331
 20
10.4079343219
 30
0.0
 10
10.5676304112
 20
10.4080474383
 30
0.0
 10
10.5657554776
 20
10.408130835
 30
0.0
 10
10.5646823979
 20
10.4081719086
 30
0.0
 10
10.5638823462
 20
10.4082212546
 30
0.0
 10
10.5630641068
 20
10.4081997281
 30
0.0
 10
10.561979465
 20
10.4081957472
 30
0.0
 10
10.560078386
 20
10.4081772627
 30
0.0
 10
10.5573641042
 20
10.408156878
 30
0.0
 10
10.5541063046
 20
10.4081298388
 30
0.0
 10
10.5497628027
 20
10.4080946871
 30
0.0
 10
10.5443333471
 20
10.4080504365
 30
0.0
 10
10.5378180295
 20
10.4079974779
 30
0.0
 10
10.5313027205
 20
10.4079444484
 30
0.0
 10
10.5258732434
 20
10.407900375
 30
0.0
 10
10.5215297845
 20
10.4078648689
 30
0.0
 10
10.5182718537
 20
10.4078389107
 30
0.0
 10
10.5155579825
 20
10.4078151441
 30
0.0
 10
10.5136561704
 20
10.4078026968
 30
0.0
 10
10.5125727031
 20
10.4077890428
 30
0.0
 10
10.5117508559
 20
10.4077972292
 30
0.0
 10
10.5109643546
 20
10.4077349786
 30
0.0
 10
10.5099033571
 20
10.4076765469
 30
0.0
 10
10.5080523558
 20
10.4075628443
 30
0.0
 10
10.5054050651
 20
10.4074063968
 30
0.0
 10
10.5022296017
 20
10.407216098
 30
0.0
 10
10.4979952013
 20
10.4069632615
 30
0.0
 10
10.4927023568
 20
10.4066469066
 30
0.0
 10
10.4863508683
 20
10.4062674221
 30
0.0
 10
10.4799994305
 20
10.4058878669
 30
0.0
 10
10.4747064592
 20
10.4055716888
 30
0.0
 10
10.4704723123
 20
10.4053184986
 30
0.0
 10
10.4672960757
 20
10.4051292785
 30
0.0
 10
10.464651204
 20
10.4049694564
 30
0.0
 10
10.4627958844
 20
10.4048617779
 30
0.0
 10
10.461741806
 20
10.4047936942
 30
0.0
 10
10.4609340514
 20
10.4047610915
 30
0.0
 10
10.4601920277
 20
10.4046579253
 30
0.0
 10
10.4591797352
 20
10.4045449836
 30
0.0
 10
10.4574189056
 20
10.404335868
 30
0.0
 10
10.4548978498
 20
10.4040431269
 30
0.0
 10
10.4518749735
 20
10.4036892712
 30
0.0
 10
10.4478436366
 20
10.4032183602
 30
0.0
 10
10.4428047524
 20
10.4026294135
 30
0.0
 10
10.4367579665
 20
10.4019228103
 30
0.0
 10
10.4307112212
 20
10.4012161688
 30
0.0
 10
10.4256722353
 20
10.4006273178
 30
0.0
 10
10.4216411019
 20
10.4001562155
 30
0.0
 10
10.419121521
 20
10.3998618218
 30
0.0
 10
10.4171061365
 20
10.3996262035
 30
0.0
 10
10.415593831
 20
10.3994497729
 30
0.0
 10
10.4143360168
 20
10.3993018468
 30
0.0
 10
10.4134507578
 20
10.3992000658
 30
0.0
 10
10.4129523731
 20
10.3991391459
 30
0.0
 10
10.41255752
 20
10.399101229
 30
0.0
 10
10.4122431865
 20
10.3990335994
 30
0.0
 10
10.4117959891
 20
10.3989537907
 30
0.0
 10
10.4110264794
 20
10.3988092966
 30
0.0
 10
10.4099203384
 20
10.3986054011
 30
0.0
 10
10.4085958975
 20
10.3983596459
 30
0.0
 10
10.4068289536
 20
10.3980323497
 30
0.0
 10
10.4046206239
 20
10.3976231002
 30
0.0
 10
10.4010871006
 20
10.3969683733
 30
0.0
 10
10.3966702641
 20
10.3961499397
 30
0.0
 10
10.3913700292
 20
10.3951678307
 30
0.0
 10
10.3860698106
 20
10.3941857163
 30
0.0
 10
10.3816529331
 20
10.3933672963
 30
0.0
 10
10.3781194918
 20
10.3927125423
 30
0.0
 10
10.3759109537
 20
10.3923033616
 30
0.0
 10
10.3741444376
 20
10.3919759242
 30
0.0
 10
10.3728186895
 20
10.3917306006
 30
0.0
 10
10.3717166386
 20
10.3915253545
 30
0.0
 10
10.3709398274
 20
10.3913832715
 30
0.0
 10
10.3705043289
 20
10.3912995996
 30
0.0
 10
10.37015406
 20
10.3912438363
 30
0.0
 10
10.3698941744
 20
10.3911613515
 30
0.0
 10
10.3695161336
 20
10.3910606926
 30
0.0
 10
10.368869251
 20
10.3908801966
 30
0.0
 10
10.3679374535
 20
10.3906246157
 30
0.0
 10
10.3668225836
 20
10.3903169468
 30
0.0
 10
10.3653349424
 20
10.3899070611
 30
0.0
 10
10.3634757839
 20
10.3893945876
 30
0.0
 10
10.3605009106
 20
10.3885746951
 30
0.0
 10
10.3567823943
 20
10.3875498071
 30
0.0
 10
10.3523201425
 20
10.3863199512
 30
0.0
 10
10.3486016066
 20
10.385295069
 30
0.0
 10
10.3456267767
 20
10.3844751637
 30
0.0
 10
10.3433956532
 20
10.3838602349
 30
0.0
 10
10.3411645348
 20
10.3832453051
 30
0.0
 10
10.3393052533
 20
10.3827328668
 30
0.0
 10
10.3378178643
 20
10.3823229089
 30
0.0
 10
10.3368881637
 20
10.3820667017
 30
0.0
 10
10.3361445923
 20
10.3818616983
 30
0.0
 10
10.3355863959
 20
10.3817080489
 30
0.0
 10
10.3351228796
 20
10.3815796794
 30
0.0
 10
10.3347951852
 20
10.3814904651
 30
0.0
 10
10.3346129793
 20
10.3814384794
 30
0.0
 10
10.3344621045
 20
10.3814023244
 30
0.0
 10
10.3343655874
 20
10.3813553351
 30
0.0
 10
10.3342179373
 20
10.3812964618
 30
0.0
 10
10.3339683838
 20
10.3811916727
 30
0.0
 10
10.3336072603
 20
10.3810428945
 30
0.0
 10
10.3331758889
 20
10.3808639668
 30
0.0
 10
10.3326000365
 20
10.380625534
 30
0.0
 10
10.3318804576
 20
10.3803274459
 30
0.0
 10
10.330728999
 20
10.3798505313
 30
0.0
 10
10.3292897212
 20
10.3792543791
 30
0.0
 10
10.3275625684
 20
10.3785390002
 30
0.0
 10
10.3258354208
 20
10.3778236203
 30
0.0
 10
10.3235325555
 20
10.3768697808
 30
0.0
 10
10.3206539746
 20
10.3756774814
 30
0.0
 10
10.3177753932
 20
10.374485182
 30
0.0
 10
10.3154725286
 20
10.3735313423
 30
0.0
 10
10.3137453787
 20
10.3728159629
 30
0.0
 10
10.3120182345
 20
10.3721005825
 30
0.0
 10
10.3105789299
 20
10.371504435
 30
0.0
 10
10.3094275261
 20
10.3710275107
 30
0.0
 10
10.3087078078
 20
10.3707294473
 30
0.0
 10
10.3081322414
 20
10.3704909638
 30
0.0
 10
10.3076999966
 20
10.3703121912
 30
0.0
 10
10.3073416055
 20
10.3701629273
 30
0.0
 10
10.3070871742
 20
10.3700590055
 30
0.0
 10
10.3069473397
 20
10.3699987425
 30
0.0
 10
10.3068268156
 20
10.3699560218
 30
0.0
 10
10.306766107
 20
10.3699038345
 30
0.0
 10
10.3066642979
 20
10.3698375535
 30
0.0
 10
10.306495853
 20
10.3697200232
 30
0.0
 10
10.3062501352
 20
10.3695529272
 30
0.0
 10
10.3059574492
 20
10.3693520677
 30
0.0
 10
10.3055664414
 20
10.3690843753
 30
0.0
 10
10.3050779418
 20
10.3687497186
 30
0.0
 10
10.304296197
 20
10.3682142909
 30
0.0
 10
10.3033190659
 20
10.3675449983
 30
0.0
 10
10.3021464871
 20
10.3667418506
 30
0.0
 10
10.3009739142
 20
10.3659387021
 30
0.0
 10
10.2994104815
 20
10.3648678376
 30
0.0
 10
10.2974561914
 20
10.3635292569
 30
0.0
 10
10.2955019008
 20
10.3621906763
 30
0.0
 10
10.2939384691
 20
10.3611198118
 30
0.0
 10
10.2927658935
 20
10.3603166635
 30
0.0
 10
10.2915933245
 20
10.3595135148
 30
0.0
 10
10.2906161631
 20
10.3588442253
 30
0.0
 10
10.2898344801
 20
10.3583087915
 30
0.0
 10
10.2893458233
 20
10.3579741502
 30
0.0
 10
10.2889551381
 20
10.3577064262
 30
0.0
 10
10.2886614663
 20
10.3575056631
 30
0.0
 10
10.2884188327
 20
10.3573382654
 30
0.0
 10
10.288244882
 20
10.3572212737
 30
0.0
 10
10.2881518947
 20
10.3571541299
 30
0.0
 10
10.2880640884
 20
10.3571045927
 30
0.0
 10
10.2880453386
 20
10.3570519185
 30
0.0
 10
10.2879962512
 20
10.3569827805
 30
0.0
 10
10.2879215712
 20
10.3568612792
 30
0.0
 10
10.287809018
 20
10.3566879724
 30
0.0
 10
10.2876764656
 20
10.3564798902
 30
0.0
 10
10.2874988519
 20
10.356202487
 30
0.0
 10
10.287277135
 20
10.3558557195
 30
0.0
 10
10.2869222203
 20
10.355300899
 30
0.0
 10
10.2864786344
 20
10.3546073708
 30
0.0
 10
10.2859463067
 20
10.353775138
 30
0.0
 10
10.2854139856
 20
10.352942905
 30
0.0
 10
10.2847042218
 20
10.351833261
 30
0.0
 10
10.2838170179
 20
10.3504462061
 30
0.0
 10
10.2829298135
 20
10.3490591511
 30
0.0
 10
10.2822200506
 20
10.3479495071
 30
0.0
 10
10.2816877267
 20
10.3471172742
 30
0.0
 10
10.2811554094
 20
10.3462850411
 30
0.0
 10
10.2807117912
 20
10.3455915139
 30
0.0
 10
10.2803569424
 20
10.3450366913
 30
0.0
 10
10.2801350578
 20
10.344689929
 30
0.0
 10
10.2799577884
 20
10.3444125151
 30
0.0
 10
10.2798241841
 20
10.3442044659
 30
0.0
 10
10.279714922
 20
10.3440310558
 30
0.0
 10
10.2796343669
 20
10.3439097388
 30
0.0
 10
10.2795946928
 20
10.3438403055
 30
0.0
 10
10.2795470282
 20
10.3437885384
 30
0.0
 10
10.2795678212
 20
10.3437355944
 30
0.0
 10
10.2795716665
 20
10.343665413
 30
0.0
 10
10.2795895212
 20
10.3435424042
 30
0.0
 10
10.2796092113
 20
10.3433667774
 30
0.0
 10
10.2796353292
 20
10.3431559824
 30
0.0
 10
10.2796692834
 20
10.3428749374
 30
0.0
 10
10.2797120239
 20
10.342523626
 30
0.0
 10
10.2797802423
 20
10.3419615307
 30
0.0
 10
10.2798655724
 20
10.3412589105
 30
0.0
 10
10.2799679441
 20
10.3404157667
 30
0.0
 10
10.2800703223
 20
10.3395726228
 30
0.0
 10
10.2802068242
 20
10.338448431
 30
0.0
 10
10.2803774526
 20
10.3370431912
 30
0.0
 10
10.2805480803
 20
10.3356379513
 30
0.0
 10
10.2806845832
 20
10.3345137595
 30
0.0
 10
10.2807869587
 20
10.3336706156
 30
0.0
 10
10.2808893406
 20
10.3328274719
 30
0.0
 10
10.2809746387
 20
10.3321248514
 30
0.0
 10
10.2810429225
 20
10.3315627566
 30
0.0
 10
10.2810854965
 20
10.3312114438
 30
0.0
 10
10.2811197925
 20
10.3309304016
 30
0.0
 10
10.2811448663
 20
10.3307195981
 30
0.0
 10
10.2811678231
 20
10.3305439979
 30
0.0
 10
10.2811798462
 20
10.3304209417
 30
0.0
 10
10.281193035
 20
10.3303508363
 30
0.0
 10
10.2811851276
 20
10.3302976589
 30
0.0
 10
10.2812452571
 20
10.3302467686
 30
0.0
 10
10.2813016978
 20
10.330178117
 30
0.0
 10
10.2814115262
 20
10.3300583485
 30
0.0
 10
10.281562643
 20
10.3298870564
 30
0.0
 10
10.2817464576
 20
10.3296815889
 30
0.0
 10
10.2819906795
 20
10.3294076033
 30
0.0
 10
10.2822962527
 20
10.3290651312
 30
0.0
 10
10.2827850045
 20
10.3285171703
 30
0.0
 10
10.2833960011
 20
10.3278322211
 30
0.0
 10
10.2841291726
 20
10.3270102812
 30
0.0
 10
10.2848623506
 20
10.3261883416
 30
0.0
 10
10.285839919
 20
10.3250924219
 30
0.0
 10
10.2870618804
 20
10.3237225224
 30
0.0
 10
10.2882838412
 20
10.3223526229
 30
0.0
 10
10.2892614105
 20
10.3212567033
 30
0.0
 10
10.2899945858
 20
10.3204347636
 30
0.0
 10
10.2907277676
 20
10.3196128242
 30
0.0
 10
10.2913387321
 20
10.3189278734
 30
0.0
 10
10.2918275492
 20
10.3183799157
 30
0.0
 10
10.2921329563
 20
10.3180374356
 30
0.0
 10
10.2923775192
 20
10.3177634663
 30
0.0
 10
10.292560292
 20
10.3175579489
 30
0.0
 10
10.2927146684
 20
10.3173868132
 30
0.0
 10
10.292818678
 20
10.3172667653
 30
0.0
 10
10.2928844418
 20
10.3171985615
 30
0.0
 10
10.2929159336
 20
10.317146296
 30
0.0
 10
10.2930155846
 20
10.3170982835
 30
0.0
 10
10.2931246779
 20
10.3170327834
 30
0.0
 10
10.2933266683
 20
10.3169188495
 30
0.0
 10
10.2936094348
 20
10.3167557253
 30
0.0
 10
10.2939512333
 20
10.316560131
 30
0.0
 10
10.294406099
 20
10.3162992845
 30
0.0
 10
10.2949749774
 20
10.3159732449
 30
0.0
 10
10.2958850173
 20
10.3154515712
 30
0.0
 10
10.2970226241
 20
10.3147994827
 30
0.0
 10
10.2983877278
 20
10.3140169749
 30
0.0
 10
10.299752838
 20
10.3132344675
 30
0.0
 10
10.3015729826
 20
10.3121911242
 30
0.0
 10
10.3038481643
 20
10.3108869451
 30
0.0
 10
10.3061233455
 20
10.309582766
 30
0.0
 10
10.307943491
 20
10.3085394228
 30
0.0
 10
10.3093085987
 20
10.3077569151
 30
0.0
 10
10.3106737118
 20
10.3069744084
 30
0.0
 10
10.311811289
 20
10.3063223164
 30
0.0
 10
10.3127213891
 20
10.3058006498
 30
0.0
 10
10.3132901145
 20
10.3054745923
 30
0.0
 10
10.3137452945
 20
10.3052137826
 30
0.0
 10
10.3140861326
 20
10.305018076
 30
0.0
 10
10.314371904
 20
10.304855303
 30
0.0
 10
10.31456853
 20
10.3047407421
 30
0.0
 10
10.3146862184
 20
10.3046762465
 30
0.0
 10
10.3147594681
 20
10.3046251487
 30
0.0
 10
10.3148901187
 20
10.304584471
 30
0.0
 10
10.3150442974
 20
10.3045265995
 30
0.0
 10
10.3153234387
 20
10.3044270177
 30
0.0
 10
10.3157173349
 20
10.3042838726
 30
0.0
 10
10.3161920979
 20
10.3041124775
 30
0.0
 10
10.3168243862
 20
10.3038838183
 30
0.0
 10
10.3176149961
 20
10.3035980397
 30
0.0
 10
10.3188798325
 20
10.3031407685
 30
0.0
 10
10.3204609258
 20
10.3025691882
 30
0.0
 10
10.3223582173
 20
10.3018832881
 30
0.0
 10
10.3242555142
 20
10.301197389
 30
0.0
 10
10.3267852416
 20
10.3002828566
 30
0.0
 10
10.3299474013
 20
10.2991396911
 30
0.0
 10
10.3331095614
 20
10.2979965258
 30
0.0
 10
10.3356392882
 20
10.2970819932
 30
0.0
 10
10.337536587
 20
10.2963960946
 30
0.0
 10
10.3394338718
 20
10.2957101928
 30
0.0
 10
10.3410149858
 20
10.2951386178
 30
0.0
 10
10.3422797799
 20
10.2946813358
 30
0.0
 10
10.3430704975
 20
10.2943955847
 30
0.0
 10
10.3437025647
 20
10.294166869
 30
0.0
 10
10.3441780029
 20
10.2939956466
 30
0.0
 10
10.3445697868
 20
10.2938519611
 30
0.0
 10
10.3448931149
 20
10.293739256
 30
0.0
 10
10.3451085568
 20
10.2936485973
 30
0.0
 10
10.3454272651
 20
10.2935813365
 30
0.0
 10
10.3458161371
 20
10.2934834823
 30
0.0
 10
10.3463146034
 20
10.2933639687
 30
0.0
 10
10.3469074655
 20
10.2932193521
 30
0.0
 10
10.3476997986
 20
10.2930269493
 30
0.0
 10
10.3486895814
 20
10.2927863021
 30
0.0
 10
10.350273588
 20
10.2924013469
 30
0.0
 10
10.3522534747
 20
10.2919201254
 30
0.0
 10
10.3546293909
 20
10.2913426714
 30
0.0
 10
10.3570052931
 20
10.2907652142
 30
0.0
 10
10.3601731679
 20
10.2899952725
 30
0.0
 10
10.3641330078
 20
10.2890328443
 30
0.0
 10
10.3688848247
 20
10.2878779335
 30
0.0
 10
10.372844647
 20
10.2869154993
 30
0.0
 10
10.3760125607
 20
10.2861455708
 30
0.0
 10
10.3779923795
 20
10.2856643227
 30
0.0
 10
10.3795765259
 20
10.2852794221
 30
0.0
 10
10.3807638381
 20
10.2849904786
 30
0.0
 10
10.3817558023
 20
10.2847505452
 30
0.0
 10
10.3824451977
 20
10.2845809182
 30
0.0
 10
10.382846913
 20
10.2844866016
 30
0.0
 10
10.3831262971
 20
10.2844085031
 30
0.0
 10
10.3834894033
 20
10.2843585422
 30
0.0
 10
10.3839443417
 20
10.284282113
 30
0.0
 10
10.3847540903
 20
10.2841529347
 30
0.0
 10
10.3859037604
 20
10.2839660035
 30
0.0
 10
10.3872864093
 20
10.2837427095
 30
0.0
 10
10.3891288777
 20
10.2834446266
 30
0.0
 10
10.3914323274
 20
10.2830721454
 30
0.0
 10
10.3951176433
 20
10.2824761071
 30
0.0
 10
10.3997243585
 20
10.2817310828
 30
0.0
 10
10.4052523848
 20
10.2808370429
 30
0.0
 10
10.4107804262
 20
10.2799430086
 30
0.0
 10
10.4153871037
 20
10.2791979701
 30
0.0
 10
10.4190724949
 20
10.2786019602
 30
0.0
 10
10.4213757532
 20
10.2782294069
 30
0.0
 10
10.4232186144
 20
10.277931472
 30
0.0
 10
10.4246000634
 20
10.2777077259
 30
0.0
 10
10.4257534879
 20
10.2775222091
 30
0.0
 10
10.4265565342
 20
10.2773905059
 30
0.0
 10
10.4270222112
 20
10.2773181223
 30
0.0
 10
10.4273523317
 20
10.2772557345
 30
0.0
 10
10.4277556048
 20
10.2772243094
 30
0.0
 10
10.4282677857
 20
10.2771716092
 30
0.0
 10
10.4291759909
 20
10.2770844157
 30
0.0
 10
10.4304672115
 20
10.2769572229
 30
0.0
 10
10.4320193365
 20
10.2768057175
 30
0.0
 10
10.4340879074
 20
10.2766033171
 30
0.0
 10
10.4366739392
 20
10.2763504512
 30
0.0
 10
10.4408114122
 20
10.2759457905
 30
0.0
 10
10.4459833144
 20
10.2754399905
 30
0.0
 10
10.452189571
 20
10.2748330194
 30
0.0
 10
10.4583958345
 20
10.2742260513
 30
0.0
 10
10.4666708501
 20
10.2734167594
 30
0.0
 10
10.4728771124
 20
10.2728097907
 30
0.0
 10
10.4770146205
 20
10.2724051449
 30
0.0
  0
SPLINE
  5
376
100
AcDbEntity
  8
0
100
AcDbSpline
 62
4
  6
CONTINUOUS
 70
0
 71
3
 72
346
 73
342
 74
0
 42
0.0000001
 43
0.0000001
 44
0.0000000001
 40
0.0
 40
0.0
 40
0.0
 40
0.0
 40
0.015625
 40
0.03125
 40
0.0390625
 40
0.046875
 40
0.05078125
 40
0.0546875
 40
0.05859375
 40
0.060546875
 40
0.0615234375
 40
0.0625
 40
0.0634765625
 40
0.064453125
 40
0.06640625
 40
0.0703125
 40
0.07421875
 40
0.078125
 40
0.0859375
 40
0.09375
 40
0.1015625
 40
0.109375
 40
0.11328125
 40
0.1171875
 40
0.12109375
 40
0.123046875
 40
0.1240234375
 40
0.125
 40
0.1259765625
 40
0.126953125
 40
0.12890625
 40
0.1328125
 40
0.13671875
 40
0.140625
 40
0.1484375
 40
0.15625
 40
0.1640625
 40
0.171875
 40
0.17578125
 40
0.1796875
 40
0.18359375
 40
0.185546875
 40
0.1865234375
 40
0.1875
 40
0.1884765625
 40
0.189453125
 40
0.19140625
 40
0.1953125
 40
0.19921875
 40
0.203125
 40
0.2109375
 40
0.21875
 40
0.2265625
 40
0.234375
 40
0.23828125
 40
0.2421875
 40
0.244140625
 40
0.24609375
 40
0.248046875
 40
0.2490234375
 40
0.2495117188
 40
0.25
 40
0.2504882812
 40
0.2509765625
 40
0.251953125
 40
0.25390625
 40
0.255859375
 40
0.2578125
 40
0.26171875
 40
0.265625
 40
0.2734375
 40
0.28125
 40
0.2890625
 40
0.296875
 40
0.30078125
 40
0.3046875
 40
0.306640625
 40
0.30859375
 40
0.310546875
 40
0.3115234375
 40
0.3120117188
 40
0.3125
 40
0.3129882812
 40
0.3134765625
 40
0.314453125
 40
0.31640625
 40
0.318359375
 40
0.3203125
 40
0.32421875
 40
0.328125
 40
0.3359375
 40
0.34375
 40
0.3515625
 40
0.35546875
 40
0.359375
 40
0.36328125
 40
0.3671875
 40
0.369140625
 40
0.37109375
 40
0.3720703125
 40
0.373046875
 40
0.3740234375
 40
0.3745117188
 40
0.3747558594
 40
0.375
 40
0.3752441406
 40
0.3754882812
 40
0.3759765625
 40
0.376953125
 40
0.3779296875
 40
0.37890625
 40
0.380859375
 40
0.3828125
 40
0.38671875
 40
0.390625
 40
0.39453125
 40
0.3984375
 40
0.40625
 40
0.4140625
 40
0.41796875
 40
0.421875
 40
0.42578125
 40
0.4296875
 40
0.431640625
 40
0.43359375
 40
0.4345703125
 40
0.435546875
 40
0.4365234375
 40
0.4370117188
 40
0.4372558594
 40
0.4375
 40
0.4377441406
 40
0.4379882812
 40
0.4384765625
 40
0.439453125
 40
0.4404296875
 40
0.44140625
 40
0.443359375
 40
0.4453125
 40
0.44921875
 40
0.453125
 40
0.45703125
 40
0.4609375
 40
0.46875
 40
0.4765625
 40
0.48046875
 40
0.484375
 40
0.48828125
 40
0.4921875
 40
0.494140625
 40
0.49609375
 40
0.4970703125
 40
0.498046875
 40
0.4990234375
 40
0.4995117188
 40
0.4997558594
 40
0.5
 40
0.5002441406
 40
0.5004882812
 40
0.5009765625
 40
0.501953125
 40
0.5029296875
 40
0.50390625
 40
0.505859375
 40
0.5078125
 40
0.51171875
 40
0.515625
 40
0.51953125
 40
0.5234375
 40
0.53125
 40
0.5390625
 40
0.54296875
 40
0.546875
 40
0.55078125
 40
0.5546875
 40
0.556640625
 40
0.55859375
 40
0.5595703125
 40
0.560546875
 40
0.5615234375
 40
0.5620117188
 40
0.5622558594
 40
0.5625
 40
0.5627441406
 40
0.5629882812
 40
0.5634765625
 40
0.564453125
 40
0.5654296875
 40
0.56640625
 40
0.568359375
 40
0.5703125
 40
0.57421875
 40
0.578125
 40
0.58203125
 40
0.5859375
 40
0.59375
 40
0.6015625
 40
0.60546875
 40
0.609375
 40
0.61328125
 40
0.6171875
 40
0.619140625
 40
0.62109375
 40
0.6220703125
 40
0.623046875
 40
0.6240234375
 40
0.6245117188
 40
0.6247558594
 40
0.625
 40
0.6252441406
 40
0.6254882812
 40
0.6259765625
 40
0.626953125
 40
0.6279296875
 40
0.62890625
 40
0.630859375
 40
0.6328125
 40
0.63671875
 40
0.640625
 40
0.64453125
 40
0.6484375
 40
0.65625
 40
0.6640625
 40
0.66796875
 40
0.671875
 40
0.67578125
 40
0.6796875
 40
0.681640625
 40
0.68359375
 40
0.6845703125
 40
0.685546875
 40
0.6865234375
 40
0.6870117188
 40
0.6872558594
 40
0.6875
 40
0.6877441406
 40
0.6879882812
 40
0.6884765625
 40
0.689453125
 40
0.6904296875
 40
0.69140625
 40
0.693359375
 40
0.6953125
 40
0.69921875
 40
0.703125
 40
0.70703125
 40
0.7109375
 40
0.71875
 40
0.7265625
 40
0.73046875
 40
0.734375
 40
0.73828125
 40
0.7421875
 40
0.744140625
 40
0.74609375
 40
0.7470703125
 40
0.748046875
 40
0.7490234375
 40
0.7495117188
 40
0.7497558594
 40
0.75
 40
0.7502441406
 40
0.7504882812
 40
0.7509765625
 40
0.751953125
 40
0.7529296875
 40
0.75390625
 40
0.755859375
 40
0.7578125
 40
0.76171875
 40
0.765625
 40
0.76953125
 40
0.7734375
 40
0.78125
 40
0.7890625
 40
0.79296875
 40
0.796875
 40
0.80078125
 40
0.8046875
 40
0.806640625
 40
0.80859375
 40
0.8095703125
 40
0.810546875
 40
0.8115234375
 40
0.8120117188
 40
0.8125
 40
0.8129882812
 40
0.8134765625
 40
0.814453125
 40
0.8154296875
 40
0.81640625
 40
0.818359375
 40
0.8203125
 40
0.82421875
 40
0.828125
 40
0.83203125
 40
0.8359375
 40
0.84375
 40
0.8515625
 40
0.859375
 40
0.86328125
 40
0.8671875
 40
0.869140625
 40
0.87109375
 40
0.873046875
 40
0.8740234375
 40
0.8745117188
 40
0.875
 40
0.8754882812
 40
0.8759765625
 40
0.876953125
 40
0.87890625
 40
0.880859375
 40
0.8828125
 40
0.88671875
 40
0.890625
 40
0.8984375
 40
0.90625
 40
0.9140625
 40
0.921875
 40
0.92578125
 40
0.9296875
 40
0.931640625
 40
0.93359375
 40
0.935546875
 40
0.9365234375
 40
0.9370117188
 40
0.9375
 40
0.9379882812
 40
0.9384765625
 40
0.939453125
 40
0.94140625
 40
0.943359375
 40
0.9453125
 40
0.94921875
 40
0.953125
 40
0.9609375
 40
0.96875
 40
0.9765625
 40
0.984375
 40
1.0
 40
1.0
 40
1.0
 40
1.0
 10
10.4770145979
 20
10.2724051464
 30
0.0
 10
10.4813019365
 20
10.2722214463
 30
0.0
 10
10.4898766149
 20
10.2718540506
 30
0.0
 10
10.5005949571
 20
10.2713947833
 30
0.0
 10
10.509169643
 20
10.2710274171
 30
0.0
 10
10.5145287941
 20
10.2707977055
 30
0.0
 10
10.5188161783
 20
10.2706141828
 30
0.0
 10
10.5220315431
 20
10.2704758656
 30
0.0
 10
10.524711565
 20
10.2703627492
 30
0.0
 10
10.5265864986
 20
10.2702793525
 30
0.0
 10
10.5276595783
 20
10.270238279
 30
0.0
 10
10.52845963
 20
10.270188933
 30
0.0
 10
10.5292778694
 20
10.2702104594
 30
0.0
 10
10.5303625112
 20
10.2702144403
 30
0.0
 10
10.5322635902
 20
10.2702329248
 30
0.0
 10
10.5349778721
 20
10.2702533095
 30
0.0
 10
10.5382356717
 20
10.2702803488
 30
0.0
 10
10.5425791736
 20
10.2703155004
 30
0.0
 10
10.5480086292
 20
10.270359751
 30
0.0
 10
10.5545239468
 20
10.2704127096
 30
0.0
 10
10.5610392557
 20
10.2704657391
 30
0.0
 10
10.5664687329
 20
10.2705098125
 30
0.0
 10
10.5708121917
 20
10.2705453186
 30
0.0
 10
10.5740701226
 20
10.2705712768
 30
0.0
 10
10.5767839938
 20
10.2705950434
 30
0.0
 10
10.5786858058
 20
10.2706074907
 30
0.0
 10
10.5797692731
 20
10.2706211447
 30
0.0
 10
10.5805911203
 20
10.2706129583
 30
0.0
 10
10.5813776217
 20
10.270675209
 30
0.0
 10
10.5824386191
 20
10.2707336406
 30
0.0
 10
10.5842896204
 20
10.2708473432
 30
0.0
 10
10.5869369111
 20
10.2710037907
 30
0.0
 10
10.5901123745
 20
10.2711940895
 30
0.0
 10
10.5943467749
 20
10.2714469261
 30
0.0
 10
10.5996396195
 20
10.271763281
 30
0.0
 10
10.605991108
 20
10.2721427655
 30
0.0
 10
10.6123425458
 20
10.2725223207
 30
0.0
 10
10.617635517
 20
10.2728384987
 30
0.0
 10
10.621869664
 20
10.273091689
 30
0.0
 10
10.6250459005
 20
10.2732809091
 30
0.0
 10
10.6276907722
 20
10.2734407311
 30
0.0
 10
10.6295460919
 20
10.2735484097
 30
0.0
 10
10.6306001703
 20
10.2736164933
 30
0.0
 10
10.6314079248
 20
10.2736490961
 30
0.0
 10
10.6321499485
 20
10.2737522623
 30
0.0
 10
10.6331622411
 20
10.2738652039
 30
0.0
 10
10.6349230707
 20
10.2740743195
 30
0.0
 10
10.6374441264
 20
10.2743670607
 30
0.0
 10
10.6404670028
 20
10.2747209163
 30
0.0
 10
10.6444983397
 20
10.2751918274
 30
0.0
 10
10.6495372238
 20
10.275780774
 30
0.0
 10
10.6555840098
 20
10.2764873773
 30
0.0
 10
10.661630755
 20
10.2771940188
 30
0.0
 10
10.6666697409
 20
10.2777828698
 30
0.0
 10
10.6707008743
 20
10.2782539721
 30
0.0
 10
10.6732204552
 20
10.2785483657
 30
0.0
 10
10.6752358397
 20
10.278783984
 30
0.0
 10
10.6767481452
 20
10.2789604147
 30
0.0
 10
10.6780059595
 20
10.2791083407
 30
0.0
 10
10.6788912185
 20
10.2792101217
 30
0.0
 10
10.6793896031
 20
10.2792710417
 30
0.0
 10
10.6797844562
 20
10.2793089585
 30
0.0
 10
10.6800987897
 20
10.2793765881
 30
0.0
 10
10.6805459872
 20
10.2794563968
 30
0.0
 10
10.6813154969
 20
10.2796008909
 30
0.0
 10
10.6824216379
 20
10.2798047864
 30
0.0
 10
10.6837460787
 20
10.2800505416
 30
0.0
 10
10.6855130226
 20
10.2803778378
 30
0.0
 10
10.6877213523
 20
10.2807870873
 30
0.0
 10
10.6912548757
 20
10.2814418142
 30
0.0
 10
10.6956717121
 20
10.2822602478
 30
0.0
 10
10.7009719471
 20
10.2832423568
 30
0.0
 10
10.7062721656
 20
10.2842244712
 30
0.0
 10
10.7106890431
 20
10.2850428913
 30
0.0
 10
10.7142224844
 20
10.2856976453
 30
0.0
 10
10.7164310226
 20
10.2861068259
 30
0.0
 10
10.7181975386
 20
10.2864342634
 30
0.0
 10
10.7195232867
 20
10.2866795869
 30
0.0
 10
10.7206253376
 20
10.2868848331
 30
0.0
 10
10.7214021489
 20
10.2870269161
 30
0.0
 10
10.7218376474
 20
10.2871105879
 30
0.0
 10
10.7221879163
 20
10.2871663512
 30
0.0
 10
10.7224478019
 20
10.287248836
 30
0.0
 10
10.7228258427
 20
10.287349495
 30
0.0
 10
10.7234727253
 20
10.2875299909
 30
0.0
 10
10.7244045227
 20
10.2877855718
 30
0.0
 10
10.7255193926
 20
10.2880932407
 30
0.0
 10
10.7270070339
 20
10.2885031265
 30
0.0
 10
10.7288661924
 20
10.2890155999
 30
0.0
 10
10.7318410657
 20
10.2898354924
 30
0.0
 10
10.7355595819
 20
10.2908603804
 30
0.0
 10
10.7400218337
 20
10.2920902364
 30
0.0
 10
10.7437403697
 20
10.2931151185
 30
0.0
 10
10.7467151995
 20
10.2939350239
 30
0.0
 10
10.7489463231
 20
10.2945499527
 30
0.0
 10
10.7511774415
 20
10.2951648825
 30
0.0
 10
10.753036723
 20
10.2956773208
 30
0.0
 10
10.7545241119
 20
10.2960872786
 30
0.0
 10
10.7554538126
 20
10.2963434858
 30
0.0
 10
10.756197384
 20
10.2965484893
 30
0.0
 10
10.7567555804
 20
10.2967021387
 30
0.0
 10
10.7572190967
 20
10.2968305082
 30
0.0
 10
10.757546791
 20
10.2969197224
 30
0.0
 10
10.7577289969
 20
10.2969717082
 30
0.0
 10
10.7578798718
 20
10.2970078631
 30
0.0
 10
10.7579763889
 20
10.2970548525
 30
0.0
 10
10.7581240389
 20
10.2971137258
 30
0.0
 10
10.7583735924
 20
10.2972185149
 30
0.0
 10
10.758734716
 20
10.297367293
 30
0.0
 10
10.7591660874
 20
10.2975462208
 30
0.0
 10
10.7597419397
 20
10.2977846535
 30
0.0
 10
10.7604615187
 20
10.2980827416
 30
0.0
 10
10.7616129772
 20
10.2985596562
 30
0.0
 10
10.763052255
 20
10.2991558085
 30
0.0
 10
10.7647794078
 20
10.2998711873
 30
0.0
 10
10.7665065554
 20
10.3005865672
 30
0.0
 10
10.7688094207
 20
10.3015404067
 30
0.0
 10
10.7716880017
 20
10.3027327062
 30
0.0
 10
10.7745665831
 20
10.3039250056
 30
0.0
 10
10.7768694476
 20
10.3048788452
 30
0.0
 10
10.7785965975
 20
10.3055942247
 30
0.0
 10
10.7803237417
 20
10.3063096051
 30
0.0
 10
10.7817630464
 20
10.3069057526
 30
0.0
 10
10.7829144501
 20
10.3073826769
 30
0.0
 10
10.7836341684
 20
10.3076807402
 30
0.0
 10
10.7842097349
 20
10.3079192238
 30
0.0
 10
10.7846419796
 20
10.3080979963
 30
0.0
 10
10.7850003707
 20
10.3082472603
 30
0.0
 10
10.7852548021
 20
10.308351182
 30
0.0
 10
10.7853946365
 20
10.308411445
 30
0.0
 10
10.7855151606
 20
10.3084541657
 30
0.0
 10
10.7855758692
 20
10.308506353
 30
0.0
 10
10.7856776783
 20
10.308572634
 30
0.0
 10
10.7858461232
 20
10.3086901643
 30
0.0
 10
10.786091841
 20
10.3088572603
 30
0.0
 10
10.786384527
 20
10.3090581198
 30
0.0
 10
10.7867755349
 20
10.3093258123
 30
0.0
 10
10.7872640345
 20
10.309660469
 30
0.0
 10
10.7880457793
 20
10.3101958967
 30
0.0
 10
10.7890229104
 20
10.3108651892
 30
0.0
 10
10.7901954891
 20
10.3116683369
 30
0.0
 10
10.7913680621
 20
10.3124714855
 30
0.0
 10
10.7929314947
 20
10.3135423499
 30
0.0
 10
10.7948857848
 20
10.3148809306
 30
0.0
 10
10.7968400754
 20
10.3162195112
 30
0.0
 10
10.7984035072
 20
10.3172903757
 30
0.0
 10
10.7995760828
 20
10.3180935241
 30
0.0
 10
10.8007486517
 20
10.3188966727
 30
0.0
 10
10.8017258131
 20
10.3195659623
 30
0.0
 10
10.8025074962
 20
10.320101396
 30
0.0
 10
10.802996153
 20
10.3204360374
 30
0.0
 10
10.8033868381
 20
10.3207037614
 30
0.0
 10
10.8036805099
 20
10.3209045245
 30
0.0
 10
10.8039231435
 20
10.3210719221
 30
0.0
 10
10.8040970942
 20
10.3211889139
 30
0.0
 10
10.8041900816
 20
10.3212560577
 30
0.0
 10
10.8042778878
 20
10.3213055948
 30
0.0
 10
10.8042966376
 20
10.321358269
 30
0.0
 10
10.804345725
 20
10.321427407
 30
0.0
 10
10.804420405
 20
10.3215489083
 30
0.0
 10
10.8045329583
 20
10.3217222151
 30
0.0
 10
10.8046655107
 20
10.3219302974
 30
0.0
 10
10.8048431244
 20
10.3222077005
 30
0.0
 10
10.8050648412
 20
10.3225544681
 30
0.0
 10
10.805419756
 20
10.3231092886
 30
0.0
 10
10.8058633418
 20
10.3238028168
 30
0.0
 10
10.8063956695
 20
10.3246350495
 30
0.0
 10
10.8069279906
 20
10.3254672826
 30
0.0
 10
10.8076377544
 20
10.3265769265
 30
0.0
 10
10.8085249583
 20
10.3279639815
 30
0.0
 10
10.8094121628
 20
10.3293510364
 30
0.0
 10
10.8101219256
 20
10.3304606804
 30
0.0
 10
10.8106542495
 20
10.3312929134
 30
0.0
 10
10.8111865668
 20
10.3321251464
 30
0.0
 10
10.811630185
 20
10.3328186737
 30
0.0
 10
10.8119850339
 20
10.3333734962
 30
0.0
 10
10.8122069184
 20
10.3337202585
 30
0.0
 10
10.8123841878
 20
10.3339976724
 30
0.0
 10
10.8125177921
 20
10.3342057217
 30
0.0
 10
10.8126270543
 20
10.3343791317
 30
0.0
 10
10.8127076094
 20
10.3345004488
 30
0.0
 10
10.8127472834
 20
10.3345698821
 30
0.0
 10
10.812794948
 20
10.3346216492
 30
0.0
 10
10.812774155
 20
10.3346745931
 30
0.0
 10
10.8127703098
 20
10.3347447745
 30
0.0
 10
10.8127524551
 20
10.3348677833
 30
0.0
 10
10.8127327649
 20
10.3350434101
 30
0.0
 10
10.8127066471
 20
10.3352542051
 30
0.0
 10
10.8126726929
 20
10.3355352501
 30
0.0
 10
10.8126299524
 20
10.3358865615
 30
0.0
 10
10.812561734
 20
10.3364486569
 30
0.0
 10
10.8124764038
 20
10.337151277
 30
0.0
 10
10.8123740322
 20
10.3379944208
 30
0.0
 10
10.812271654
 20
10.3388375647
 30
0.0
 10
10.812135152
 20
10.3399617566
 30
0.0
 10
10.8119645237
 20
10.3413669964
 30
0.0
 10
10.8117938959
 20
10.3427722362
 30
0.0
 10
10.811657393
 20
10.343896428
 30
0.0
 10
10.8115550176
 20
10.344739572
 30
0.0
 10
10.8114526356
 20
10.3455827157
 30
0.0
 10
10.8113673376
 20
10.3462853361
 30
0.0
 10
10.8112990537
 20
10.346847431
 30
0.0
 10
10.8112564797
 20
10.3471987437
 30
0.0
 10
10.8112221838
 20
10.3474797859
 30
0.0
 10
10.81119711
 20
10.3476905894
 30
0.0
 10
10.8111741532
 20
10.3478661896
 30
0.0
 10
10.81116213
 20
10.3479892458
 30
0.0
 10
10.8111489412
 20
10.3480593513
 30
0.0
 10
10.8111568487
 20
10.3481125286
 30
0.0
 10
10.8110967191
 20
10.348163419
 30
0.0
 10
10.8110402785
 20
10.3482320705
 30
0.0
 10
10.8109304501
 20
10.348351839
 30
0.0
 10
10.8107793332
 20
10.3485231312
 30
0.0
 10
10.8105955187
 20
10.3487285986
 30
0.0
 10
10.8103512968
 20
10.3490025842
 30
0.0
 10
10.8100457235
 20
10.3493450563
 30
0.0
 10
10.8095569717
 20
10.3498930172
 30
0.0
 10
10.8089459752
 20
10.3505779664
 30
0.0
 10
10.8082128037
 20
10.3513999063
 30
0.0
 10
10.8074796256
 20
10.352221846
 30
0.0
 10
10.8065020572
 20
10.3533177656
 30
0.0
 10
10.8052800959
 20
10.3546876651
 30
0.0
 10
10.8040581351
 20
10.3560575646
 30
0.0
 10
10.8030805657
 20
10.3571534842
 30
0.0
 10
10.8023473905
 20
10.357975424
 30
0.0
 10
10.8016142087
 20
10.3587973634
 30
0.0
 10
10.8010032441
 20
10.3594823141
 30
0.0
 10
10.800514427
 20
10.3600302719
 30
0.0
 10
10.8002090199
 20
10.3603727519
 30
0.0
 10
10.799964457
 20
10.3606467212
 30
0.0
 10
10.7997816842
 20
10.3608522387
 30
0.0
 10
10.7996273079
 20
10.3610233743
 30
0.0
 10
10.7995232983
 20
10.3611434222
 30
0.0
 10
10.7994575345
 20
10.3612116261
 30
0.0
 10
10.7994260426
 20
10.3612638916
 30
0.0
 10
10.7993263916
 20
10.361311904
 30
0.0
 10
10.7992172983
 20
10.3613774041
 30
0.0
 10
10.7990153079
 20
10.3614913381
 30
0.0
 10
10.7987325415
 20
10.3616544622
 30
0.0
 10
10.7983907429
 20
10.3618500566
 30
0.0
 10
10.7979358773
 20
10.362110903
 30
0.0
 10
10.7973669988
 20
10.3624369426
 30
0.0
 10
10.7964569589
 20
10.3629586163
 30
0.0
 10
10.7953193522
 20
10.3636107049
 30
0.0
 10
10.7939542485
 20
10.3643932126
 30
0.0
 10
10.7925891383
 20
10.36517572
 30
0.0
 10
10.7907689936
 20
10.3662190633
 30
0.0
 10
10.7884938119
 20
10.3675232424
 30
0.0
 10
10.7862186308
 20
10.3688274216
 30
0.0
 10
10.7843984853
 20
10.3698707648
 30
0.0
 10
10.7830333776
 20
10.3706532724
 30
0.0
 10
10.7816682644
 20
10.3714357791
 30
0.0
 10
10.7805306872
 20
10.3720878711
 30
0.0
 10
10.7796205871
 20
10.3726095378
 30
0.0
 10
10.7790518618
 20
10.3729355953
 30
0.0
 10
10.7785966818
 20
10.373196405
 30
0.0
 10
10.7782558436
 20
10.3733921116
 30
0.0
 10
10.7779700722
 20
10.3735548846
 30
0.0
 10
10.7777734462
 20
10.3736694454
 30
0.0
 10
10.7776557578
 20
10.3737339411
 30
0.0
 10
10.7775825081
 20
10.3737850388
 30
0.0
 10
10.7774518576
 20
10.3738257165
 30
0.0
 10
10.7772976789
 20
10.3738835881
 30
0.0
 10
10.7770185375
 20
10.3739831699
 30
0.0
 10
10.7766246413
 20
10.3741263149
 30
0.0
 10
10.7761498783
 20
10.37429771
 30
0.0
 10
10.7755175901
 20
10.3745263692
 30
0.0
 10
10.7747269801
 20
10.3748121479
 30
0.0
 10
10.7734621438
 20
10.3752694191
 30
0.0
 10
10.7718810505
 20
10.3758409994
 30
0.0
 10
10.769983759
 20
10.3765268994
 30
0.0
 10
10.768086462
 20
10.3772127985
 30
0.0
 10
10.7655567346
 20
10.3781273309
 30
0.0
 10
10.7623945749
 20
10.3792704964
 30
0.0
 10
10.7592324148
 20
10.3804136618
 30
0.0
 10
10.756702688
 20
10.3813281944
 30
0.0
 10
10.7548053893
 20
10.382014093
 30
0.0
 10
10.7529081045
 20
10.3826999947
 30
0.0
 10
10.7513269904
 20
10.3832715697
 30
0.0
 10
10.7500621963
 20
10.3837288517
 30
0.0
 10
10.7492714787
 20
10.3840146028
 30
0.0
 10
10.7486394115
 20
10.3842433186
 30
0.0
 10
10.7481639734
 20
10.3844145409
 30
0.0
 10
10.7477721894
 20
10.3845582265
 30
0.0
 10
10.7474488613
 20
10.3846709316
 30
0.0
 10
10.7472334194
 20
10.3847615903
 30
0.0
 10
10.7469147112
 20
10.384828851
 30
0.0
 10
10.7465258391
 20
10.3849267053
 30
0.0
 10
10.7460273729
 20
10.3850462188
 30
0.0
 10
10.7454345108
 20
10.3851908354
 30
0.0
 10
10.7446421777
 20
10.3853832383
 30
0.0
 10
10.7436523949
 20
10.3856238854
 30
0.0
 10
10.7420683882
 20
10.3860088406
 30
0.0
 10
10.7400885015
 20
10.3864900621
 30
0.0
 10
10.7377125853
 20
10.3870675162
 30
0.0
 10
10.7353366831
 20
10.3876449733
 30
0.0
 10
10.7321688084
 20
10.3884149151
 30
0.0
 10
10.7282089684
 20
10.3893773432
 30
0.0
 10
10.7234571515
 20
10.3905322541
 30
0.0
 10
10.7194973293
 20
10.3914946882
 30
0.0
 10
10.7163294156
 20
10.3922646168
 30
0.0
 10
10.7143495967
 20
10.3927458648
 30
0.0
 10
10.7127654503
 20
10.3931307654
 30
0.0
 10
10.7115781381
 20
10.3934197089
 30
0.0
 10
10.7105861739
 20
10.3936596424
 30
0.0
 10
10.7098967785
 20
10.3938292693
 30
0.0
 10
10.7094950632
 20
10.393923586
 30
0.0
 10
10.7092156792
 20
10.3940016845
 30
0.0
 10
10.7088525729
 20
10.3940516453
 30
0.0
 10
10.7083976345
 20
10.3941280746
 30
0.0
 10
10.707587886
 20
10.3942572529
 30
0.0
 10
10.7064382159
 20
10.394444184
 30
0.0
 10
10.7050555669
 20
10.3946674781
 30
0.0
 10
10.7032130985
 20
10.3949655609
 30
0.0
 10
10.7009096488
 20
10.3953380421
 30
0.0
 10
10.6972243329
 20
10.3959340804
 30
0.0
 10
10.6926176178
 20
10.3966791047
 30
0.0
 10
10.6870895914
 20
10.3975731447
 30
0.0
 10
10.6815615501
 20
10.398467179
 30
0.0
 10
10.6769548726
 20
10.3992122174
 30
0.0
 10
10.6732694814
 20
10.3998082274
 30
0.0
 10
10.6709662231
 20
10.4001807806
 30
0.0
 10
10.6691233619
 20
10.4004787155
 30
0.0
 10
10.6677419129
 20
10.4007024617
 30
0.0
 10
10.6665884884
 20
10.4008879784
 30
0.0
 10
10.6657854421
 20
10.4010196817
 30
0.0
 10
10.665319765
 20
10.4010920653
 30
0.0
 10
10.6649896445
 20
10.4011544531
 30
0.0
 10
10.6645863715
 20
10.4011858781
 30
0.0
 10
10.6640741905
 20
10.4012385784
 30
0.0
 10
10.6631659853
 20
10.4013257718
 30
0.0
 10
10.6618747648
 20
10.4014529647
 30
0.0
 10
10.6603226397
 20
10.40160447
 30
0.0
 10
10.6582540688
 20
10.4018068704
 30
0.0
 10
10.6556680371
 20
10.4020597363
 30
0.0
 10
10.6515305641
 20
10.402464397
 30
0.0
 10
10.6463586618
 20
10.402970197
 30
0.0
 10
10.6401524053
 20
10.4035771681
 30
0.0
 10
10.6339461417
 20
10.4041841363
 30
0.0
 10
10.6256711261
 20
10.4049934282
 30
0.0
 10
10.6194648638
 20
10.4056003968
 30
0.0
 10
10.6153273558
 20
10.4060050427
 30
0.0
  0
ENDSEC
  0
SECTION
  2
OBJECTS
  0
DICTIONARY
  5
C
100
AcDbDictionary
280
0
281
1
  3
ACAD_GROUP
350
D
  3
ACAD_MLINESTYLE
350
17
  3
ACAD_LAYOUT
350
1A
  3
ACAD_PLOTSETTINGS
350
19
  3
ACAD_PLOTSTYLENAME
350
E
  3
ACAD_IMAGE_DICT
350
       378
  3
ACAD_IMAGE_VARS
350
       379
  3
ACAD_TABLESTYLE
350
       37A
  0
IMAGEDEF_REACTOR
  5
377
100
AcDbRasterImageDefReactor
 90
2
330
276
  0
DICTIONARY
  5
D
102
{ACAD_REACTORS
330
C
102
}
100
AcDbDictionary
280
0
281
1
  0
ACDBDICTIONARYWDFLT
  5
E
102
{ACAD_REACTORS
330
C
102
}
100
AcDbDictionary
281
1
  3
Normal
350
F
100
AcDbDictionaryWithDefault
340
F
  0
DICTIONARY
  5
378
330
C
100
AcDbDictionary
281
1
  3
ZUO_assy_2_img_1
350
       37D
  0
RASTERVARIABLES
  5
379
330
C
100
AcDbRasterVariables
 90
0
 70
0
 71
1
 72
5
  0
DICTIONARY
  5
17
102
{ACAD_REACTORS
330
C
102
}
100
AcDbDictionary
280
0
281
1
  3
Standard
350
18
  0
DICTIONARY
  5
37A
330
C
100
AcDbDictionary
281
1
  3
Standard
350
       37E
  3
Standard1
350
       37F
  0
DICTIONARY
  5
19
102
{ACAD_REACTORS
330
C
102
}
100
AcDbDictionary
281
1
  0
DICTIONARY
  5
1A
102
{ACAD_REACTORS
330
C
102
}
100
AcDbDictionary
281
1
  3
Model
350
37B
  3
Layout1
350
37C
  0
ACDBPLACEHOLDER
  5
F
102
{ACAD_REACTORS
330
E
102
}
  0
MLINESTYLE
  5
18
102
{ACAD_REACTORS
330
17
102
}
100
AcDbMlineStyle
  2
STANDARD
 70
0
  3

 62
256
 51
90.0
 52
90.0
 71
2
 49
0.5
 62
256
  6
BYLAYER
 49
-0.5
 62
256
  6
BYLAYER
  0
LAYOUT
  5
37B
102
{ACAD_REACTORS
330
1A
102
}
100
AcDbPlotSettings
  1

  2
none_device
  4
ANSI_C_(22.00_x_17.00_Inches)
  6

 40
0.0
 41
0.0
 42
0.0
 43
0.0
 44
558.8
 45
431.8
 46
0.0
 47
0.0
 48
0.0
 49
0.0
140
0.0
141
0.0
142
1.0
143
1.0
 70
1024
 72
0
 73
0
 74
0
  7

 75
0
147
1.0
148
0.0
149
0.0
100
AcDbLayout
  1
Model
 70
0
 71
0
 10
0.0
 20
0.0
 11
22.0
 21
17.0
 12
0.0
 22
0.0
 32
0.0
 14
0.0
 24
0.0
 34
0.0
 15
0.0
 25
0.0
 35
0.0
146
0.0
 13
0.0
 23
0.0
 33
0.0
 16
1.0
 26
0.0
 36
0.0
 17
0.0
 27
1.0
 37
0.0
 76
0
330
207
345
0
346
0
  0
LAYOUT
  5
37C
102
{ACAD_REACTORS
330
1A
102
}
100
AcDbPlotSettings
  1

  2
none_device
  4
ANSI_C_(22.00_x_17.00_Inches)
  6

 40
0.0
 41
0.0
 42
0.0
 43
0.0
 44
558.8
 45
431.8
 46
0.0
 47
0.0
 48
0.0
 49
0.0
140
0.0
141
0.0
142
1.0
143
1.0
 70
0
 72
0
 73
0
 74
0
  7

 75
0
147
1.0
148
0.0
149
0.0
100
AcDbLayout
  1
Layout1
 70
0
 71
1
 10
0.0
 20
0.0
 11
22.0
 21
17.0
 12
0.0
 22
0.0
 32
0.0
 14
0.0
 24
0.0
 34
0.0
 15
0.0
 25
0.0
 35
0.0
146
0.0
 13
0.0
 23
0.0
 33
0.0
 16
1.0
 26
0.0
 36
0.0
 17
0.0
 27
1.0
 37
0.0
 76
0
330
208
345
0
346
0
  0
IMAGEDEF
  5
37D
102
{ACAD_REACTORS
330
378
330
377
102
}
100
AcDbRasterImageDef
 90
0
  1
ZUO_assy_2_img_1.png
 10
369.0
 20
92.0
 11
0.0066666667
 21
0.0066666667
280
1
281
0
  0
TABLESTYLE
  5
37E
102
{ACAD_REACTORS
330
37A
330
279
330
27A
102
}
330
37A
100
AcDbTableStyle
  3
Standard
 70
0
 71
0
 40
0.06
 41
0.06
280
1
281
1
  7
Standard
140
0.18
170
1
 62
0
 63
7
283
0
  7
Standard
140
0.18
170
1
 62
0
 63
7
283
0
  7
Standard
140
0.18
170
1
 62
0
 63
7
283
0
  0
TABLESTYLE
  5
37F
102
{ACAD_REACTORS
330
37A
330
278
102
}
330
37A
100
AcDbTableStyle
  3
Standard1
 70
1
 71
0
 40
0.06
 41
0.06
280
1
281
1
  7
Standard
140
0.18
170
1
 62
0
 63
7
283
0
  7
Standard
140
0.18
170
1
 62
0
 63
7
283
0
  7
Standard
140
0.18
170
1
 62
0
 63
7
283
0
  0
ENDSEC
  0
EOF
