999
DXF file: ZTM_assy_2.dxf
999
Pro/ENGINEER 2014200 by Parametric Technology Corporation
  0
SECTION
  2
HEADER
  9
$ACADVER
  1
AC1021
  9
$DWGCODEPAGE
  3
ANSI_1252
  9
$EXTMAX
 10
22.0
 20
17.0
 30
0.0
  9
$EXTMIN
 10
0.0
 20
0.0
 30
0.0
  9
$LIMMIN
 10
0.0
 20
0.0
  9
$LIMMAX
 10
22.0
 20
17.0
  9
$VIEWCTR
 10
11.0
 20
8.5
  9
$VIEWSIZE
 40
17.0
  9
$CLAYER
  8
0
  9
$LTSCALE
 40
1.21
  9
$CELTYPE
  6
BYLAYER
  9
$DIMSCALE
 40
1.0
  9
$DIMASZ
 40
0.1875
  9
$DIMEXO
 40
0.0625
  9
$DIMDLI
 40
0.836
  9
$DIMEXE
 40
0.125
  9
$DIMCEN
 40
0.198
  9
$DIMLFAC
 40
1.0
  9
$DIMBLK
  1
_FILLED
  9
$DIMTXT
 40
0.1
  9
$DIMTOL
 70
0
  9
$DIMLIM
 70
0
  9
$DIMTFAC
 40
1.0
  9
$DIMGAP
 40
0.09
  9
$DIMDSEP
 70
46
  9
$AUNITS
 70
0
  9
$PDMODE
 70
3
  9
$PDSIZE
 40
0.3125
  9
$HANDSEED
  5
320
  9
$TILEMODE
 70
1
  9
$MEASUREMENT
 70
0
  9
$INSUNITS
 70
1
  0
ENDSEC
  0
SECTION
  2
CLASSES
  0
CLASS
  1
ACDBDICTIONARYWDFLT
  2
AcDbDictionaryWithDefault
  3
AutoCAD 2000
 90
0
 91
1
280
0
281
0
  0
CLASS
  1
ACDBPLACEHOLDER
  2
AcDbPlaceHolder
  3
AutoCAD 2000
 90
0
 91
1
280
0
281
0
  0
CLASS
  1
LAYOUT
  2
AcDbLayout
  3
AutoCAD 2000
 90
0
 91
0
280
0
281
0
  0
CLASS
  1
RASTERVARIABLES
  2
AcDbRasterVariables
  3
ISM
 90
0
 91
1
280
0
281
0
  0
CLASS
  1
IMAGEDEF
  2
AcDbRasterImageDef
  3
ISM
 90
0
 91
1
280
0
281
0
  0
CLASS
  1
IMAGEDEF_REACTOR
  2
AcDbRasterImageDefReactor
  3
ISM
 90
0
 91
1
280
0
281
0
  0
CLASS
  1
IMAGE
  2
AcDbRasterImage
  3
ISM
 90
127
 91
1
280
0
281
1
  0
CLASS
  1
TABLESTYLE
  2
AcDbTableStyle
  3
ObjectDBX Classes
 90
2047
 91
1
280
0
281
0
  0
CLASS
  1
ACAD_TABLE
  2
AcDbTable
  3
ObjectDBX Classes
 90
1025
 91
3
280
0
281
1
  0
ENDSEC
  0
SECTION
  2
TABLES
  0
TABLE
  2
VPORT
  5
8
100
AcDbSymbolTable
 70
2
  0
VPORT
  5
1F4
100
AcDbSymbolTableRecord
100
AcDbViewportTableRecord
  2
*ACTIVE
 70
0
 10
0.0
 20
0.0
 11
1.0
 21
1.0
 12
11.0
 22
8.5
 13
0.0
 23
0.0
 14
1.0
 24
1.0
 15
0.0
 25
0.0
 16
0.0
 26
0.0
 36
1.0
 17
0.0
 27
0.0
 37
0.0
 40
17.0
 41
1.2941176471
 42
50.0
 43
0.0
 44
0.0
 50
0.0
 51
0.0
 71
0
 72
100
 73
1
 74
1
 75
0
 76
0
 77
0
 78
0
  0
ENDTAB
  0
TABLE
  2
LTYPE
  5
5
100
AcDbSymbolTable
 70
6
  0
LTYPE
  5
14
100
AcDbSymbolTableRecord
100
AcDbLinetypeTableRecord
  2
BYBLOCK
 70
0
  3

 72
65
 73
0
 40
0.0
  0
LTYPE
  5
15
100
AcDbSymbolTableRecord
100
AcDbLinetypeTableRecord
  2
BYLAYER
 70
0
  3

 72
65
 73
0
 40
0.0
  0
LTYPE
  5
16
100
AcDbSymbolTableRecord
100
AcDbLinetypeTableRecord
  2
CONTINUOUS
 70
64
  3
Solid line
 72
65
 73
0
 40
0.0
  0
LTYPE
  5
1F5
100
AcDbSymbolTableRecord
100
AcDbLinetypeTableRecord
  2
CENTER
 70
64
  3
____ _ ____ _ ____ _ ____ _ ____ _ ____ _ ____
 72
65
 73
4
 40
0.6
 49
0.375
 74
0
 49
-0.075
 74
0
 49
0.075
 74
0
 49
-0.075
 74
0
  0
LTYPE
  5
1F6
100
AcDbSymbolTableRecord
100
AcDbLinetypeTableRecord
  2
HIDDEN
 70
64
  3
- - - - - - - - - - - - - - - - - - - -
 72
65
 73
2
 40
0.2
 49
0.1
 74
0
 49
-0.1
 74
0
  0
LTYPE
  5
1F7
100
AcDbSymbolTableRecord
100
AcDbLinetypeTableRecord
  2
PHANTOM
 70
64
  3
_____ _ _ _____ _ _ _____ _ _ _____
 72
65
 73
6
 40
0.8
 49
0.45
 74
0
 49
-0.05
 74
0
 49
0.1
 74
0
 49
-0.05
 74
0
 49
0.1
 74
0
 49
-0.05
 74
0
  0
LTYPE
  5
1F8
100
AcDbSymbolTableRecord
100
AcDbLinetypeTableRecord
  2
DOT
 70
64
  3
. . . . . . . . . . . . . . . . . . . .
 72
65
 73
2
 40
0.2
 49
0.1
 74
0
 49
-0.1
 74
0
  0
LTYPE
  5
1F9
100
AcDbSymbolTableRecord
100
AcDbLinetypeTableRecord
  2
DASHED
 70
64
  3
- - - - - - - - - - - - - - - - - - - -
 72
65
 73
2
 40
0.2
 49
0.1
 74
0
 49
-0.1
 74
0
  0
ENDTAB
  0
TABLE
  2
LAYER
  5
2
100
AcDbSymbolTable
 70
36
  0
LAYER
  5
10
100
AcDbSymbolTableRecord
100
AcDbLayerTableRecord
  2
0
 70
0
 62
7
  6
CONTINUOUS
370
-3
390
F
  0
LAYER
  5
1FA
100
AcDbSymbolTableRecord
100
AcDbLayerTableRecord
  2
DEFAULT_1
 70
0
 62
7
  6
CENTER
370
-3
390
F
  0
LAYER
  5
1FB
100
AcDbSymbolTableRecord
100
AcDbLayerTableRecord
  2
DEFAULT_2
 70
0
 62
8
  6
HIDDEN
370
-3
390
F
  0
LAYER
  5
1FC
100
AcDbSymbolTableRecord
100
AcDbLayerTableRecord
  2
DEFAULT_3
 70
0
 62
7
  6
PHANTOM
370
-3
390
F
  0
LAYER
  5
1FD
100
AcDbSymbolTableRecord
100
AcDbLayerTableRecord
  2
DATUM_PLANES
 70
0
 62
7
  6
CONTINUOUS
370
-3
390
F
  0
LAYER
  5
1FE
100
AcDbSymbolTableRecord
100
AcDbLayerTableRecord
  2
DIMENSIONS
 70
0
 62
7
  6
CONTINUOUS
370
-3
390
F
  0
LAYER
  5
1FF
100
AcDbSymbolTableRecord
100
AcDbLayerTableRecord
  2
DTM_500001
 70
0
 62
7
  6
CONTINUOUS
370
-3
390
F
  0
LAYER
  5
200
100
AcDbSymbolTableRecord
100
AcDbLayerTableRecord
  2
PARAMETERDIMENSIONS
 70
0
 62
7
  6
CONTINUOUS
370
-3
390
F
  0
LAYER
  5
201
100
AcDbSymbolTableRecord
100
AcDbLayerTableRecord
  2
PORT_AREAS
 70
0
 62
7
  6
CONTINUOUS
370
-3
390
F
  0
LAYER
  5
202
100
AcDbSymbolTableRecord
100
AcDbLayerTableRecord
  2
SUNNBOMCOSMETIC
 70
0
 62
7
  6
CONTINUOUS
370
-3
390
F
  0
LAYER
  5
203
100
AcDbSymbolTableRecord
100
AcDbLayerTableRecord
  2
SUNNBOMSTAMPING
 70
0
 62
7
  6
CONTINUOUS
370
-3
390
F
  0
LAYER
  5
204
100
AcDbSymbolTableRecord
100
AcDbLayerTableRecord
  2
THREADS
 70
0
 62
7
  6
CONTINUOUS
370
-3
390
F
  0
ENDTAB
  0
TABLE
  2
STYLE
  5
3
100
AcDbSymbolTable
 70
1
  0
STYLE
  5
11
100
AcDbSymbolTableRecord
100
AcDbTextStyleTableRecord
  2
STANDARD
 70
0
 40
0.0
 41
0.8
 50
0.0
 71
0
 42
0.2
  3
txt
  4

  0
STYLE
  5
205
100
AcDbSymbolTableRecord
100
AcDbTextStyleTableRecord
  2
TEXTSTYLE_1
 70
0
 40
0.0
 41
0.8
 50
0.0
 71
0
 42
0.2
  3
gdt
  4

  0
ENDTAB
  0
TABLE
  2
VIEW
  5
6
100
AcDbSymbolTable
 70
0
  0
ENDTAB
  0
TABLE
  2
UCS
  5
7
100
AcDbSymbolTable
 70
0
  0
ENDTAB
  0
TABLE
  2
APPID
  5
9
100
AcDbSymbolTable
 70
1
  0
APPID
  5
206
100
AcDbSymbolTableRecord
100
AcDbRegAppTableRecord
  2
ACAD
 70
0
  0
ENDTAB
  0
TABLE
  2
BLOCK_RECORD
  5
1
100
AcDbSymbolTable
 70
0
  0
BLOCK_RECORD
  5
207
100
AcDbSymbolTableRecord
100
AcDbBlockTableRecord
  2
*Model_Space
  0
BLOCK_RECORD
  5
208
100
AcDbSymbolTableRecord
100
AcDbBlockTableRecord
  2
*Paper_Space
  0
BLOCK_RECORD
  5
209
100
AcDbSymbolTableRecord
100
AcDbBlockTableRecord
  2
SUN_FIRST_THIRD_ANGLE_BL0
  0
BLOCK_RECORD
  5
20A
100
AcDbSymbolTableRecord
100
AcDbBlockTableRecord
  2
*T1
  0
BLOCK_RECORD
  5
20B
100
AcDbSymbolTableRecord
100
AcDbBlockTableRecord
  2
*T2
  0
BLOCK_RECORD
  5
20C
100
AcDbSymbolTableRecord
100
AcDbBlockTableRecord
  2
*T3
  0
ENDTAB
  0
TABLE
  2
DIMSTYLE
  5
A
100
AcDbSymbolTable
 70
1
100
AcDbDimStyleTable
 71
0
  0
DIMSTYLE
105
20D
100
AcDbSymbolTableRecord
100
AcDbDimStyleTableRecord
  2
STANDARD
 70
0
  3

  4

 40
1.0
 41
0.1875
 42
0.0625
 43
0.38
 44
0.125
 45
0.0
 46
0.0
 47
0.001
 48
0.001
140
0.1
141
0.09
142
0.0
143
25.4
144
1.0
145
0.0
146
1.0
147
0.09
 71
0.0
 72
0.0
 73
1
 74
1
 75
0
 76
0
 77
0
 78
4
170
0
171
2
172
0
173
0
174
0
175
0
176
0
177
0
178
0
270
2
271
3
272
3
273
2
274
2
275
0
280
0
281
0
282
0
283
1
284
4
285
0
286
0
287
3
288
0
340
11
278
46
  0
ENDTAB
  0
ENDSEC
  0
SECTION
  2
BLOCKS
  0
BLOCK
  5
20
100
AcDbEntity
  8
0
100
AcDbBlockBegin
  2
*Model_Space
 70
0
 10
0.0
 20
0.0
 30
0.0
  3
*Model_Space
  1

  0
ENDBLK
  5
21
100
AcDbEntity
  8
0
100
AcDbBlockEnd
  0
BLOCK
  5
1C
100
AcDbEntity
  8
0
100
AcDbBlockBegin
  2
*Paper_Space
 70
0
 10
0.0
 20
0.0
 30
0.0
  3
*Paper_Space
  1

  0
ENDBLK
  5
1D
100
AcDbEntity
  8
0
100
AcDbBlockEnd
  0
BLOCK
  5
20E
100
AcDbEntity
  8
0
100
AcDbBlockBegin
 62
2
  6
CONTINUOUS
  2
SUN_FIRST_THIRD_ANGLE_BL0
 70
64
 10
20.4816717061
 20
1.2289683772
  3
SUN_FIRST_THIRD_ANGLE_BL0
  1

  0
TEXT
  5
20F
100
AcDbEntity
  8
0
100
AcDbText
 62
2
  6
CONTINUOUS
 10
19.4750896608
 20
1.4136269581
  7
STANDARD
 40
0.08
  1
FIRST ANGLE
 41
0.8
 72
0
100
AcDbText
  0
TEXT
  5
210
100
AcDbEntity
  8
0
100
AcDbText
 62
2
  6
CONTINUOUS
 10
20.7842537513
 20
1.4047600029
  7
STANDARD
 40
0.08
  1
THIRD ANGLE
 41
0.8
 72
0
100
AcDbText
  0
LINE
  5
211
100
AcDbEntity
  8
0
100
AcDbLine
 62
7
  6
CONTINUOUS
 10
19.4767170086
 20
1.1727031207
 11
19.6334271527
 21
1.1717972817
  0
LINE
  5
212
100
AcDbEntity
  8
0
100
AcDbLine
 62
7
  6
CONTINUOUS
 10
19.6596964832
 20
1.1717972817
 11
19.6950230232
 21
1.171593082
  0
LINE
  5
213
100
AcDbEntity
  8
0
100
AcDbLine
 62
7
  6
CONTINUOUS
 10
19.7194818561
 20
1.1708914427
 11
19.8852396156
 21
1.1699333054
  0
LINE
  5
214
100
AcDbEntity
  8
0
100
AcDbLine
 62
7
  6
CONTINUOUS
 10
19.4758111696
 20
1.2723454088
 11
19.88525039
 21
1.3511534004
  0
LINE
  5
215
100
AcDbEntity
  8
0
100
AcDbLine
 62
7
  6
CONTINUOUS
 10
19.88525039
 20
1.3511534004
 11
19.8831348489
 21
0.9851647912
  0
LINE
  5
216
100
AcDbEntity
  8
0
100
AcDbLine
 62
7
  6
CONTINUOUS
 10
19.8831348489
 20
0.9851647912
 11
19.4767170086
 21
1.0658141206
  0
LINE
  5
217
100
AcDbEntity
  8
0
100
AcDbLine
 62
7
  6
CONTINUOUS
 10
19.4767170086
 20
1.0658141206
 11
19.4779056764
 21
1.2714536432
  0
CIRCLE
  5
218
100
AcDbEntity
  8
0
100
AcDbCircle
 62
7
  6
CONTINUOUS
 10
20.2068232291
 20
1.1717972817
 40
0.175742101
  0
CIRCLE
  5
219
100
AcDbEntity
  8
0
100
AcDbCircle
 62
7
  6
CONTINUOUS
 10
20.2068232291
 20
1.1717972817
 40
0.1005522074
  0
LINE
  5
21A
100
AcDbEntity
  8
0
100
AcDbLine
 62
7
  6
CONTINUOUS
 10
20.2077290681
 20
1.3756110529
 11
20.2071171714
 21
1.2379342989
  0
LINE
  5
21B
100
AcDbEntity
  8
0
100
AcDbLine
 62
7
  6
CONTINUOUS
 10
20.2077290681
 20
1.2016899681
 11
20.2074674401
 21
1.1428236749
  0
LINE
  5
21C
100
AcDbEntity
  8
0
100
AcDbLine
 62
7
  6
CONTINUOUS
 10
20.208634907
 20
1.101141841
 11
20.2080230104
 21
0.963465087
  0
LINE
  5
21D
100
AcDbEntity
  8
0
100
AcDbLine
 62
7
  6
CONTINUOUS
 10
20.0066328138
 20
1.1745147986
 11
20.1443095678
 21
1.1739029019
  0
LINE
  5
21E
100
AcDbEntity
  8
0
100
AcDbLine
 62
7
  6
CONTINUOUS
 10
20.1832714155
 20
1.1727031207
 11
20.238153505
 21
1.172335442
  0
LINE
  5
21F
100
AcDbEntity
  8
0
100
AcDbLine
 62
7
  6
CONTINUOUS
 10
20.2756669918
 20
1.1717972817
 11
20.407916871
 21
1.1712095044
  0
CIRCLE
  5
220
100
AcDbEntity
  8
0
100
AcDbCircle
 62
7
  6
CONTINUOUS
 10
20.7509457401
 20
1.1693297793
 40
0.1722024983
  0
CIRCLE
  5
221
100
AcDbEntity
  8
0
100
AcDbCircle
 62
7
  6
CONTINUOUS
 10
20.7509457401
 20
1.1693297793
 40
0.0985164967
  0
LINE
  5
222
100
AcDbEntity
  8
0
100
AcDbLine
 62
7
  6
CONTINUOUS
 10
20.7169767782
 20
1.170462078
 11
20.7825395137
 21
1.1682766535
  0
LINE
  5
223
100
AcDbEntity
  8
0
100
AcDbLine
 62
7
  6
CONTINUOUS
 10
20.8177513651
 20
1.1693297793
 11
20.947965719
 21
1.1693297793
  0
LINE
  5
224
100
AcDbEntity
  8
0
100
AcDbLine
 62
7
  6
CONTINUOUS
 10
20.6875370113
 20
1.170462078
 11
20.5573226574
 21
1.170462078
  0
LINE
  5
225
100
AcDbEntity
  8
0
100
AcDbLine
 62
7
  6
CONTINUOUS
 10
20.7486811426
 20
1.1987695462
 11
20.7486811426
 21
1.1432869085
  0
LINE
  5
226
100
AcDbEntity
  8
0
100
AcDbLine
 62
7
  6
CONTINUOUS
 10
20.7498134414
 20
1.1059210505
 11
20.7498134414
 21
0.9757066966
  0
LINE
  5
227
100
AcDbEntity
  8
0
100
AcDbLine
 62
7
  6
CONTINUOUS
 10
20.7486811426
 20
1.2338708068
 11
20.7486811426
 21
1.3640851607
  0
LINE
  5
228
100
AcDbEntity
  8
0
100
AcDbLine
 62
7
  6
CONTINUOUS
 10
21.0702539817
 20
1.2701043662
 11
21.4790138229
 21
1.3448360823
  0
LINE
  5
229
100
AcDbEntity
  8
0
100
AcDbLine
 62
7
  6
CONTINUOUS
 10
21.4790138229
 20
1.3448360823
 11
21.4790138229
 21
0.9779712941
  0
LINE
  5
22A
100
AcDbEntity
  8
0
100
AcDbLine
 62
7
  6
CONTINUOUS
 10
21.4790138229
 20
0.9779712941
 11
21.069121683
 21
1.0617614
  0
LINE
  5
22B
100
AcDbEntity
  8
0
100
AcDbLine
 62
7
  6
CONTINUOUS
 10
21.0702539817
 20
1.2701043662
 11
21.069121683
 21
1.0617614
  0
LINE
  5
22C
100
AcDbEntity
  8
0
100
AcDbLine
 62
7
  6
CONTINUOUS
 10
21.4790138229
 20
1.1693297793
 11
21.3159628059
 21
1.1693297793
  0
LINE
  5
22D
100
AcDbEntity
  8
0
100
AcDbLine
 62
7
  6
CONTINUOUS
 10
21.2876553377
 20
1.1693297793
 11
21.2502894796
 21
1.1693297793
  0
LINE
  5
22E
100
AcDbEntity
  8
0
100
AcDbLine
 62
7
  6
CONTINUOUS
 10
21.2208497126
 20
1.1659328831
 11
21.0713862804
 21
1.1659328831
  0
LINE
  5
22F
100
AcDbEntity
  8
0
100
AcDbLine
 62
7
  6
CONTINUOUS
 10
20.4796138713
 20
1.5284908897
 11
20.4766766948
 21
0.9294458646
  0
ENDBLK
  5
230
100
AcDbEntity
  8
0
  6
BYBLOCK
 62
0
100
AcDbBlockEnd
  0
BLOCK
  5
231
100
AcDbEntity
  8
0
100
AcDbBlockBegin
  2
*T1
 70
1
 10
0.0
 20
0.0
  3
*T1
  1

  0
LINE
  5
232
100
AcDbEntity
  8
0
100
AcDbLine
 62
2
  6
CONTINUOUS
 10
9.275
 20
0.0
 11
-0.0
 21
0.0
  0
LINE
  5
233
100
AcDbEntity
  8
0
100
AcDbLine
 62
2
  6
CONTINUOUS
 10
9.275
 20
0.0
 11
9.275
 21
1.25
  0
LINE
  5
234
100
AcDbEntity
  8
0
100
AcDbLine
 62
2
  6
CONTINUOUS
 10
9.275
 20
0.625
 11
-0.0
 21
0.625
  0
LINE
  5
235
100
AcDbEntity
  8
0
100
AcDbLine
 62
2
  6
CONTINUOUS
 10
9.275
 20
1.25
 11
-0.0
 21
1.25
  0
LINE
  5
236
100
AcDbEntity
  8
0
100
AcDbLine
 62
2
  6
CONTINUOUS
 10
6.8
 20
0.0
 11
6.8
 21
1.25
  0
LINE
  5
237
100
AcDbEntity
  8
0
100
AcDbLine
 62
2
  6
CONTINUOUS
 10
6.4
 20
0.0
 11
6.4
 21
0.625
  0
LINE
  5
238
100
AcDbEntity
  8
0
100
AcDbLine
 62
2
  6
CONTINUOUS
 10
5.9
 20
0.0
 11
5.9
 21
0.625
  0
LINE
  5
239
100
AcDbEntity
  8
0
100
AcDbLine
 62
2
  6
CONTINUOUS
 10
5.2
 20
0.0
 11
5.2
 21
0.625
  0
LINE
  5
23A
100
AcDbEntity
  8
0
100
AcDbLine
 62
2
  6
CONTINUOUS
 10
4.1
 20
0.0
 11
4.1
 21
1.25
  0
LINE
  5
23B
100
AcDbEntity
  8
0
100
AcDbLine
 62
2
  6
CONTINUOUS
 10
-0.0
 20
0.0
 11
-0.0
 21
1.25
  0
MTEXT
  5
23C
100
AcDbEntity
  8
0
100
AcDbMText
 62
2
  6
CONTINUOUS
  7
STANDARD
 71
2
 72
1
 10
6.6
 20
0.325
 30
0.0
 11
1.0
 21
0.0
 31
0.0
 44
0.9
  1
2
 40
0.125
 41
0.2
  0
MTEXT
  5
23D
100
AcDbEntity
  8
0
100
AcDbMText
 62
2
  6
CONTINUOUS
  7
STANDARD
 71
2
 72
1
 10
6.15
 20
0.325
 30
0.0
 11
1.0
 21
0.0
 31
0.0
 44
0.9
  1
C
 40
0.125
 41
0.2
  0
MTEXT
  5
23E
100
AcDbEntity
  8
0
100
AcDbMText
 62
2
  6
CONTINUOUS
  7
STANDARD
 71
2
 72
1
 10
5.55
 20
0.325
 30
0.0
 11
1.0
 21
0.0
 31
0.0
 44
0.9
  1
1.000
 40
0.125
 41
1.0
  0
MTEXT
  5
23F
100
AcDbEntity
  8
0
100
AcDbMText
 62
2
  6
CONTINUOUS
  7
STANDARD
 71
2
 72
1
 10
4.65
 20
0.325
 30
0.0
 11
1.0
 21
0.0
 31
0.0
 44
0.9
  1
Oct-16-23
 40
0.125
 41
1.8
  0
MTEXT
  5
240
100
AcDbEntity
  8
0
100
AcDbMText
 62
2
  6
CONTINUOUS
  7
STANDARD
 71
2
 72
1
 10
2.05
 20
0.4625
 30
0.0
 11
1.0
 21
0.0
 31
0.0
 44
0.9
  1
T-17A Gasket mount Sun\PDirect mount, cross pilot
 40
0.125
 41
5.0
  0
MTEXT
  5
241
100
AcDbEntity
  8
0
100
AcDbMText
 62
2
  6
CONTINUOUS
  7
STANDARD
 71
1
 72
1
 10
6.45
 20
0.5625
 30
0.0
 11
1.0
 21
0.0
 31
0.0
 44
0.9
  1
SHEET
 40
0.06
 41
0.48
  0
MTEXT
  5
242
100
AcDbEntity
  8
0
100
AcDbMText
 62
2
  6
CONTINUOUS
  7
STANDARD
 71
1
 72
1
 10
5.95
 20
0.5625
 30
0.0
 11
1.0
 21
0.0
 31
0.0
 44
0.9
  1
DWG SIZE
 40
0.06
 41
0.768
  0
MTEXT
  5
243
100
AcDbEntity
  8
0
100
AcDbMText
 62
2
  6
CONTINUOUS
  7
STANDARD
 71
1
 72
1
 10
5.25
 20
0.5625
 30
0.0
 11
1.0
 21
0.0
 31
0.0
 44
0.9
  1
SCALE
 40
0.06
 41
0.48
  0
MTEXT
  5
244
100
AcDbEntity
  8
0
100
AcDbMText
 62
2
  6
CONTINUOUS
  7
STANDARD
 71
1
 72
1
 10
4.15
 20
0.5625
 30
0.0
 11
1.0
 21
0.0
 31
0.0
 44
0.9
  1
DATE
 40
0.06
 41
0.384
  0
MTEXT
  5
245
100
AcDbEntity
  8
0
100
AcDbMText
 62
2
  6
CONTINUOUS
  7
STANDARD
 71
1
 72
1
 10
0.05
 20
0.5625
 30
0.0
 11
1.0
 21
0.0
 31
0.0
 44
0.9
  1
DESCRIPTION
 40
0.06
 41
1.056
  0
MTEXT
  5
246
100
AcDbEntity
  8
0
100
AcDbMText
 62
2
  6
CONTINUOUS
  7
STANDARD
 71
2
 72
1
 10
5.45
 20
1.0375
 30
0.0
 11
1.0
 21
0.0
 31
0.0
 44
0.9
  1
ALL DIMENSIONS IN INCH\PVIEWS ARE THIRD ANGLE
 40
0.12
 41
4.224
  0
MTEXT
  5
247
100
AcDbEntity
  8
0
100
AcDbMText
 62
2
  6
CONTINUOUS
  7
STANDARD
 71
2
 72
1
 10
2.05
 20
0.95
 30
0.0
 11
1.0
 21
0.0
 31
0.0
 44
0.9
  1
ZTM
 40
0.125
 41
0.6
  0
MTEXT
  5
248
100
AcDbEntity
  8
0
100
AcDbMText
 62
2
  6
CONTINUOUS
  7
STANDARD
 71
1
 72
1
 10
0.05
 20
1.1875
 30
0.0
 11
1.0
 21
0.0
 31
0.0
 44
0.9
  1
MODEL
 40
0.06
 41
0.48
  0
ENDBLK
  5
249
100
AcDbEntity
  8
0
  6
BYBLOCK
 62
0
100
AcDbBlockEnd
  0
BLOCK
  5
24A
100
AcDbEntity
  8
0
100
AcDbBlockBegin
  2
*T2
 70
1
 10
0.0
 20
0.0
  3
*T2
  1

  0
LINE
  5
24B
100
AcDbEntity
  8
0
100
AcDbLine
 62
2
  6
CONTINUOUS
 10
0.0
 20
0.0
 11
9.055
 21
0.0
  0
LINE
  5
24C
100
AcDbEntity
  8
0
100
AcDbLine
 62
2
  6
CONTINUOUS
 10
0.0
 20
0.0
 11
0.0
 21
-3.094
  0
LINE
  5
24D
100
AcDbEntity
  8
0
100
AcDbLine
 62
2
  6
CONTINUOUS
 10
0.0
 20
-0.344
 11
9.055
 21
-0.344
  0
LINE
  5
24E
100
AcDbEntity
  8
0
100
AcDbLine
 62
2
  6
CONTINUOUS
 10
0.0
 20
-0.594
 11
9.055
 21
-0.594
  0
LINE
  5
24F
100
AcDbEntity
  8
0
100
AcDbLine
 62
2
  6
CONTINUOUS
 10
0.0
 20
-0.844
 11
9.055
 21
-0.844
  0
LINE
  5
250
100
AcDbEntity
  8
0
100
AcDbLine
 62
2
  6
CONTINUOUS
 10
0.0
 20
-1.094
 11
9.055
 21
-1.094
  0
LINE
  5
251
100
AcDbEntity
  8
0
100
AcDbLine
 62
2
  6
CONTINUOUS
 10
0.0
 20
-1.344
 11
9.055
 21
-1.344
  0
LINE
  5
252
100
AcDbEntity
  8
0
100
AcDbLine
 62
2
  6
CONTINUOUS
 10
0.0
 20
-1.594
 11
9.055
 21
-1.594
  0
LINE
  5
253
100
AcDbEntity
  8
0
100
AcDbLine
 62
2
  6
CONTINUOUS
 10
0.0
 20
-1.844
 11
9.055
 21
-1.844
  0
LINE
  5
254
100
AcDbEntity
  8
0
100
AcDbLine
 62
2
  6
CONTINUOUS
 10
0.0
 20
-2.094
 11
9.055
 21
-2.094
  0
LINE
  5
255
100
AcDbEntity
  8
0
100
AcDbLine
 62
2
  6
CONTINUOUS
 10
0.0
 20
-2.344
 11
9.055
 21
-2.344
  0
LINE
  5
256
100
AcDbEntity
  8
0
100
AcDbLine
 62
2
  6
CONTINUOUS
 10
0.0
 20
-2.594
 11
9.055
 21
-2.594
  0
LINE
  5
257
100
AcDbEntity
  8
0
100
AcDbLine
 62
2
  6
CONTINUOUS
 10
0.0
 20
-2.844
 11
9.055
 21
-2.844
  0
LINE
  5
258
100
AcDbEntity
  8
0
100
AcDbLine
 62
2
  6
CONTINUOUS
 10
0.0
 20
-3.094
 11
9.055
 21
-3.094
  0
LINE
  5
259
100
AcDbEntity
  8
0
100
AcDbLine
 62
2
  6
CONTINUOUS
 10
3.055
 20
0.0
 11
3.055
 21
-3.094
  0
LINE
  5
25A
100
AcDbEntity
  8
0
100
AcDbLine
 62
2
  6
CONTINUOUS
 10
9.055
 20
0.0
 11
9.055
 21
-3.094
  0
MTEXT
  5
25B
100
AcDbEntity
  8
0
100
AcDbMText
 62
2
  6
CONTINUOUS
  7
STANDARD
 71
2
 72
1
 10
1.5275
 20
-0.0995
 30
0.0
 11
1.0
 21
0.0
 31
0.0
 44
0.9
  1
Technical Data
 40
0.145
 41
3.248
  0
MTEXT
  5
25C
100
AcDbEntity
  8
0
100
AcDbMText
 62
2
  6
CONTINUOUS
  7
STANDARD
 71
2
 72
1
 10
4.555
 20
-0.0995
 30
0.0
 11
1.0
 21
0.0
 31
0.0
 44
0.9
  1
U.S. Units
 40
0.145
 41
2.32
  0
MTEXT
  5
25D
100
AcDbEntity
  8
0
100
AcDbMText
 62
2
  6
CONTINUOUS
  7
STANDARD
 71
2
 72
1
 10
7.555
 20
-0.0995
 30
0.0
 11
1.0
 21
0.0
 31
0.0
 44
0.9
  1
Metric Units
 40
0.145
 41
2.784
  0
MTEXT
  5
25E
100
AcDbEntity
  8
0
100
AcDbMText
 62
2
  6
CONTINUOUS
  7
STANDARD
 71
2
 72
1
 10
1.5275
 20
-0.4065
 30
0.0
 11
1.0
 21
0.0
 31
0.0
 44
0.9
  1
Cavity
 40
0.125
 41
1.2
  0
MTEXT
  5
25F
100
AcDbEntity
  8
0
100
AcDbMText
 62
2
  6
CONTINUOUS
  7
STANDARD
 71
2
 72
1
 10
6.055
 20
-0.4065
 30
0.0
 11
1.0
 21
0.0
 31
0.0
 44
0.9
  1
T-17A
 40
0.125
 41
1.0
  0
MTEXT
  5
260
100
AcDbEntity
  8
0
100
AcDbMText
 62
2
  6
CONTINUOUS
  7
STANDARD
 71
2
 72
1
 10
1.5275
 20
-0.6565
 30
0.0
 11
1.0
 21
0.0
 31
0.0
 44
0.9
  1
Body Features
 40
0.125
 41
2.6
  0
MTEXT
  5
261
100
AcDbEntity
  8
0
100
AcDbMText
 62
2
  6
CONTINUOUS
  7
STANDARD
 71
2
 72
1
 10
6.055
 20
-0.6565
 30
0.0
 11
1.0
 21
0.0
 31
0.0
 44
0.9
  1
Direct mount, cross pilot
 40
0.125
 41
5.0
  0
MTEXT
  5
262
100
AcDbEntity
  8
0
100
AcDbMText
 62
2
  6
CONTINUOUS
  7
STANDARD
 71
2
 72
1
 10
1.5275
 20
-0.9065
 30
0.0
 11
1.0
 21
0.0
 31
0.0
 44
0.9
  1
Body Type
 40
0.125
 41
1.8
  0
MTEXT
  5
263
100
AcDbEntity
  8
0
100
AcDbMText
 62
2
  6
CONTINUOUS
  7
STANDARD
 71
2
 72
1
 10
6.055
 20
-0.9065
 30
0.0
 11
1.0
 21
0.0
 31
0.0
 44
0.9
  1
Gasket mount
 40
0.125
 41
2.4
  0
MTEXT
  5
264
100
AcDbEntity
  8
0
100
AcDbMText
 62
2
  6
CONTINUOUS
  7
STANDARD
 71
2
 72
1
 10
1.5275
 20
-1.1565
 30
0.0
 11
1.0
 21
0.0
 31
0.0
 44
0.9
  1
Interface
 40
0.125
 41
1.8
  0
MTEXT
  5
265
100
AcDbEntity
  8
0
100
AcDbMText
 62
2
  6
CONTINUOUS
  7
STANDARD
 71
2
 72
1
 10
6.055
 20
-1.1565
 30
0.0
 11
1.0
 21
0.0
 31
0.0
 44
0.9
  1
Sun
 40
0.125
 41
0.6
  0
MTEXT
  5
266
100
AcDbEntity
  8
0
100
AcDbMText
 62
2
  6
CONTINUOUS
  7
STANDARD
 71
2
 72
1
 10
1.5275
 20
-1.4065
 30
0.0
 11
1.0
 21
0.0
 31
0.0
 44
0.9
  1
Open Cavity Quantity
 40
0.125
 41
4.0
  0
MTEXT
  5
267
100
AcDbEntity
  8
0
100
AcDbMText
 62
2
  6
CONTINUOUS
  7
STANDARD
 71
2
 72
1
 10
6.055
 20
-1.4065
 30
0.0
 11
1.0
 21
0.0
 31
0.0
 44
0.9
  1
1
 40
0.125
 41
0.2
  0
MTEXT
  5
268
100
AcDbEntity
  8
0
100
AcDbMText
 62
2
  6
CONTINUOUS
  7
STANDARD
 71
2
 72
1
 10
1.5275
 20
-1.6565
 30
0.0
 11
1.0
 21
0.0
 31
0.0
 44
0.9
  1
Weight
 40
0.125
 41
1.2
  0
MTEXT
  5
269
100
AcDbEntity
  8
0
100
AcDbMText
 62
2
  6
CONTINUOUS
  7
STANDARD
 71
2
 72
1
 10
4.555
 20
-1.6565
 30
0.0
 11
1.0
 21
0.0
 31
0.0
 44
0.9
  1
3.374 lb.
 40
0.125
 41
1.8
  0
MTEXT
  5
26A
100
AcDbEntity
  8
0
100
AcDbMText
 62
2
  6
CONTINUOUS
  7
STANDARD
 71
2
 72
1
 10
7.555
 20
-1.6565
 30
0.0
 11
1.0
 21
0.0
 31
0.0
 44
0.9
  1
1,530 kg.
 40
0.125
 41
1.8
  0
MTEXT
  5
26B
100
AcDbEntity
  8
0
100
AcDbMText
 62
2
  6
CONTINUOUS
  7
STANDARD
 71
2
 72
1
 10
1.5275
 20
-1.9065
 30
0.0
 11
1.0
 21
0.0
 31
0.0
 44
0.9
  1
Mounting Hole Diameter
 40
0.125
 41
4.4
  0
MTEXT
  5
26C
100
AcDbEntity
  8
0
100
AcDbMText
 62
2
  6
CONTINUOUS
  7
STANDARD
 71
2
 72
1
 10
4.555
 20
-1.9065
 30
0.0
 11
1.0
 21
0.0
 31
0.0
 44
0.9
  1
.53 in.
 40
0.125
 41
1.4
  0
MTEXT
  5
26D
100
AcDbEntity
  8
0
100
AcDbMText
 62
2
  6
CONTINUOUS
  7
STANDARD
 71
2
 72
1
 10
7.555
 20
-1.9065
 30
0.0
 11
1.0
 21
0.0
 31
0.0
 44
0.9
  1
13,5 mm
 40
0.125
 41
1.4
  0
MTEXT
  5
26E
100
AcDbEntity
  8
0
100
AcDbMText
 62
2
  6
CONTINUOUS
  7
STANDARD
 71
2
 72
1
 10
1.5275
 20
-2.1565
 30
0.0
 11
1.0
 21
0.0
 31
0.0
 44
0.9
  1
Mounting Hole Depth
 40
0.125
 41
3.8
  0
MTEXT
  5
26F
100
AcDbEntity
  8
0
100
AcDbMText
 62
2
  6
CONTINUOUS
  7
STANDARD
 71
2
 72
1
 10
6.055
 20
-2.1565
 30
0.0
 11
1.0
 21
0.0
 31
0.0
 44
0.9
  1
Through
 40
0.125
 41
1.4
  0
MTEXT
  5
270
100
AcDbEntity
  8
0
100
AcDbMText
 62
2
  6
CONTINUOUS
  7
STANDARD
 71
2
 72
1
 10
1.5275
 20
-2.4065
 30
0.0
 11
1.0
 21
0.0
 31
0.0
 44
0.9
  1
Mounting Hole Quantity
 40
0.125
 41
4.4
  0
MTEXT
  5
271
100
AcDbEntity
  8
0
100
AcDbMText
 62
2
  6
CONTINUOUS
  7
STANDARD
 71
2
 72
1
 10
6.055
 20
-2.4065
 30
0.0
 11
1.0
 21
0.0
 31
0.0
 44
0.9
  1
2
 40
0.125
 41
0.2
  0
MTEXT
  5
272
100
AcDbEntity
  8
0
100
AcDbMText
 62
2
  6
CONTINUOUS
  7
STANDARD
 71
2
 72
1
 10
1.5275
 20
-2.6565
 30
0.0
 11
1.0
 21
0.0
 31
0.0
 44
0.9
  1
Mounting Hole C'bore Diameter
 40
0.125
 41
5.8
  0
MTEXT
  5
273
100
AcDbEntity
  8
0
100
AcDbMText
 62
2
  6
CONTINUOUS
  7
STANDARD
 71
2
 72
1
 10
4.555
 20
-2.6565
 30
0.0
 11
1.0
 21
0.0
 31
0.0
 44
0.9
  1
.78 in.
 40
0.125
 41
1.4
  0
MTEXT
  5
274
100
AcDbEntity
  8
0
100
AcDbMText
 62
2
  6
CONTINUOUS
  7
STANDARD
 71
2
 72
1
 10
7.555
 20
-2.6565
 30
0.0
 11
1.0
 21
0.0
 31
0.0
 44
0.9
  1
19,8 mm
 40
0.125
 41
1.4
  0
MTEXT
  5
275
100
AcDbEntity
  8
0
100
AcDbMText
 62
2
  6
CONTINUOUS
  7
STANDARD
 71
2
 72
1
 10
1.5275
 20
-2.9065
 30
0.0
 11
1.0
 21
0.0
 31
0.0
 44
0.9
  1
Mounting Hole C'bore Depth
 40
0.125
 41
5.2
  0
MTEXT
  5
276
100
AcDbEntity
  8
0
100
AcDbMText
 62
2
  6
CONTINUOUS
  7
STANDARD
 71
2
 72
1
 10
4.555
 20
-2.9065
 30
0.0
 11
1.0
 21
0.0
 31
0.0
 44
0.9
  1
.44 in.
 40
0.125
 41
1.4
  0
MTEXT
  5
277
100
AcDbEntity
  8
0
100
AcDbMText
 62
2
  6
CONTINUOUS
  7
STANDARD
 71
2
 72
1
 10
7.555
 20
-2.9065
 30
0.0
 11
1.0
 21
0.0
 31
0.0
 44
0.9
  1
11,1 mm
 40
0.125
 41
1.4
  0
ENDBLK
  5
278
100
AcDbEntity
  8
0
  6
BYBLOCK
 62
0
100
AcDbBlockEnd
  0
BLOCK
  5
279
100
AcDbEntity
  8
0
100
AcDbBlockBegin
  2
*T3
 70
1
 10
0.0
 20
0.0
  3
*T3
  1

  0
LINE
  5
27A
100
AcDbEntity
  8
0
100
AcDbLine
 62
2
  6
CONTINUOUS
 10
0.0
 20
0.0
 11
4.6
 21
0.0
  0
LINE
  5
27B
100
AcDbEntity
  8
0
100
AcDbLine
 62
2
  6
CONTINUOUS
 10
0.0
 20
0.0
 11
0.0
 21
-0.93775
  0
LINE
  5
27C
100
AcDbEntity
  8
0
100
AcDbLine
 62
2
  6
CONTINUOUS
 10
0.0
 20
-0.34375
 11
4.6
 21
-0.34375
  0
LINE
  5
27D
100
AcDbEntity
  8
0
100
AcDbLine
 62
2
  6
CONTINUOUS
 10
0.0
 20
-0.68775
 11
4.6
 21
-0.68775
  0
LINE
  5
27E
100
AcDbEntity
  8
0
100
AcDbLine
 62
2
  6
CONTINUOUS
 10
0.0
 20
-0.93775
 11
4.6
 21
-0.93775
  0
LINE
  5
27F
100
AcDbEntity
  8
0
100
AcDbLine
 62
2
  6
CONTINUOUS
 10
1.3
 20
-0.34375
 11
1.3
 21
-0.93775
  0
LINE
  5
280
100
AcDbEntity
  8
0
100
AcDbLine
 62
2
  6
CONTINUOUS
 10
3.3
 20
-0.34375
 11
3.3
 21
-0.93775
  0
LINE
  5
281
100
AcDbEntity
  8
0
100
AcDbLine
 62
2
  6
CONTINUOUS
 10
4.6
 20
0.0
 11
4.6
 21
-0.93775
  0
MTEXT
  5
282
100
AcDbEntity
  8
0
100
AcDbMText
 62
2
  6
CONTINUOUS
  7
STANDARD
 71
2
 72
1
 10
2.3
 20
-0.099375
 30
0.0
 11
1.0
 21
0.0
 31
0.0
 44
0.9
  1
Port Headings
 40
0.145
 41
3.016
  0
MTEXT
  5
283
100
AcDbEntity
  8
0
100
AcDbMText
 62
2
  6
CONTINUOUS
  7
STANDARD
 71
2
 72
1
 10
0.65
 20
-0.44325
 30
0.0
 11
1.0
 21
0.0
 31
0.0
 44
0.9
  1
Product
 40
0.145
 41
1.624
  0
MTEXT
  5
284
100
AcDbEntity
  8
0
100
AcDbMText
 62
2
  6
CONTINUOUS
  7
STANDARD
 71
2
 72
1
 10
2.3
 20
-0.44325
 30
0.0
 11
1.0
 21
0.0
 31
0.0
 44
0.9
  1
Port
 40
0.145
 41
0.928
  0
MTEXT
  5
285
100
AcDbEntity
  8
0
100
AcDbMText
 62
2
  6
CONTINUOUS
  7
STANDARD
 71
2
 72
1
 10
3.95
 20
-0.44325
 30
0.0
 11
1.0
 21
0.0
 31
0.0
 44
0.9
  1
Size
 40
0.145
 41
0.928
  0
MTEXT
  5
286
100
AcDbEntity
  8
0
100
AcDbMText
 62
2
  6
CONTINUOUS
  7
STANDARD
 71
2
 72
1
 10
0.65
 20
-0.75025
 30
0.0
 11
1.0
 21
0.0
 31
0.0
 44
0.9
  1
ZTM
 40
0.125
 41
0.6
  0
MTEXT
  5
287
100
AcDbEntity
  8
0
100
AcDbMText
 62
2
  6
CONTINUOUS
  7
STANDARD
 71
2
 72
1
 10
2.3
 20
-0.75025
 30
0.0
 11
1.0
 21
0.0
 31
0.0
 44
0.9
  1
Ports C2, V1, V2
 40
0.125
 41
3.2
  0
MTEXT
  5
288
100
AcDbEntity
  8
0
100
AcDbMText
 62
2
  6
CONTINUOUS
  7
STANDARD
 71
2
 72
1
 10
3.95
 20
-0.75025
 30
0.0
 11
1.0
 21
0.0
 31
0.0
 44
0.9
  1
SAE 16
 40
0.125
 41
1.2
  0
ENDBLK
  5
289
100
AcDbEntity
  8
0
  6
BYBLOCK
 62
0
100
AcDbBlockEnd
  0
ENDSEC
  0
SECTION
  2
ENTITIES
  0
IMAGE
  5
28A
100
AcDbEntity
  8
0
100
AcDbRasterImage
 62
7
  6
CONTINUOUS
 10
19.2297077316
 20
0.3094318264
 30
0.0
 11
0.0066666667
 21
0.0
 31
0.0
 12
0.0
 22
0.0066666667
 32
0.0
 13
369.0
 23
92.0
340
       31D
 70
9
280
0
281
50
282
50
283
0
360
       317
 71
1
 91
2
 14
-0.5
 24
-0.5
 14
368.5
 24
91.5
  0
INSERT
  5
28B
100
AcDbEntity
  8
0
100
AcDbBlockReference
 62
2
  6
CONTINUOUS
  2
SUN_FIRST_THIRD_ANGLE_BL0
 10
20.4816717061
 20
1.2289683772
  0
ACAD_TABLE
  5
28C
100
AcDbEntity
  8
0
 62
2
  6
CONTINUOUS
100
AcDbBlockReference
  2
*T1
 10
12.42375
 20
0.30125
 30
0.0
100
AcDbTable
342
       31F
343
20A
 11
1.0
 21
0.0
 31
0.0
 90
6
 91
4
 92
6
 93
20
 94
0
 95
0
 96
0
 70
1
 41
0.0
141
0.525
141
0.1
141
0.525
141
0.1
142
4.1
142
1.1
142
0.7
142
0.5
142
0.4
142
2.475
171
1
172
0
173
0
174
0
175
1
176
1
 91
33
178
0
145
0.0
301
CELL_VALUE
 90
4
  1
T-17A Gasket mount Sun\PDirect mount, cross pilot
304
ACVALUE_END
170
2
140
0.125
171
1
172
0
173
0
174
0
175
1
176
1
 91
33
178
0
145
0.0
301
CELL_VALUE
 90
4
  1
Oct-16-23
304
ACVALUE_END
170
5
140
0.125
171
1
172
0
173
0
174
0
175
1
176
1
 91
33
178
0
145
0.0
301
CELL_VALUE
 90
4
  1
1.000
304
ACVALUE_END
170
5
140
0.125
171
1
172
0
173
0
174
0
175
1
176
1
 91
33
178
0
145
0.0
301
CELL_VALUE
 90
4
  1
C
304
ACVALUE_END
170
5
140
0.125
171
1
172
0
173
0
174
0
175
1
176
1
 91
33
178
0
145
0.0
301
CELL_VALUE
 90
4
  1
2
304
ACVALUE_END
170
5
140
0.125
171
1
172
0
173
0
174
0
175
1
176
1
 91
33
178
0
145
0.0
301
CELL_VALUE
 90
4
  1
 
304
ACVALUE_END
170
1
140
0.125
171
1
172
0
173
0
174
0
175
1
176
1
 91
33
178
0
145
0.0
301
CELL_VALUE
 90
4
  1
DESCRIPTION
304
ACVALUE_END
170
1
140
0.06
171
1
172
0
173
0
174
0
175
1
176
1
 91
33
178
0
145
0.0
301
CELL_VALUE
 90
4
  1
DATE
304
ACVALUE_END
170
1
140
0.06
171
1
172
0
173
0
174
0
175
1
176
1
 91
33
178
0
145
0.0
301
CELL_VALUE
 90
4
  1
SCALE
304
ACVALUE_END
170
1
140
0.06
171
1
172
0
173
0
174
0
175
1
176
1
 91
33
178
0
145
0.0
301
CELL_VALUE
 90
4
  1
DWG SIZE
304
ACVALUE_END
170
1
140
0.06
171
1
172
0
173
0
174
0
175
1
176
1
 91
33
178
0
145
0.0
301
CELL_VALUE
 90
4
  1
SHEET
304
ACVALUE_END
170
1
140
0.06
171
1
172
0
173
0
174
0
175
1
176
1
 91
33
178
0
145
0.0
301
CELL_VALUE
 90
4
  1
 
304
ACVALUE_END
170
1
140
0.125
171
1
172
0
173
0
174
0
175
1
176
1
 91
33
178
0
145
0.0
301
CELL_VALUE
 90
4
  1
ZTM
304
ACVALUE_END
170
5
140
0.125
171
1
172
0
173
0
174
0
175
4
176
1
 91
33
178
0
145
0.0
301
CELL_VALUE
 90
4
  1
ALL DIMENSIONS IN INCH\PVIEWS ARE THIRD ANGLE
304
ACVALUE_END
170
5
140
0.12
171
1
172
0
173
1
174
0
175
1
176
1
 91
1
178
0
145
0.0
170
1
171
1
172
0
173
1
174
0
175
1
176
1
 91
1
178
0
145
0.0
170
1
171
1
172
0
173
1
174
0
175
1
176
1
 91
1
178
0
145
0.0
170
5
171
1
172
0
173
0
174
0
175
1
176
1
 91
33
178
0
145
0.0
301
CELL_VALUE
 90
4
  1
 
304
ACVALUE_END
170
1
140
0.125
171
1
172
0
173
0
174
0
175
1
176
1
 91
33
178
0
145
0.0
301
CELL_VALUE
 90
4
  1
MODEL
304
ACVALUE_END
170
1
140
0.06
171
1
172
0
173
0
174
0
175
1
176
1
 91
33
178
0
145
0.0
301
CELL_VALUE
 90
4
  1
 
304
ACVALUE_END
170
1
140
0.125
171
1
172
0
173
0
174
0
175
1
176
1
 91
33
178
0
145
0.0
301
CELL_VALUE
 90
4
  1
 
304
ACVALUE_END
170
1
140
0.125
171
1
172
0
173
0
174
0
175
1
176
1
 91
33
178
0
145
0.0
301
CELL_VALUE
 90
4
  1
 
304
ACVALUE_END
170
1
140
0.125
171
1
172
0
173
0
174
0
175
1
176
1
 91
33
178
0
145
0.0
301
CELL_VALUE
 90
4
  1
 
304
ACVALUE_END
170
1
140
0.125
171
1
172
0
173
0
174
0
175
1
176
1
 91
33
178
0
145
0.0
301
CELL_VALUE
 90
4
  1
 
304
ACVALUE_END
170
1
140
0.125
  0
ACAD_TABLE
  5
28D
100
AcDbEntity
  8
0
 62
2
  6
CONTINUOUS
100
AcDbBlockReference
  2
*T2
 10
12.4237499994
 20
16.47875
 30
0.0
100
AcDbTable
342
       31E
343
20B
 11
1.0
 21
0.0
 31
0.0
 90
22
 91
12
 92
3
 93
16
 94
0
 95
0
 96
0
 41
0.028
141
0.344
141
0.25
141
0.25
141
0.25
141
0.25
141
0.25
141
0.25
141
0.25
141
0.25
141
0.25
141
0.25
141
0.25
142
3.055
142
3.0
142
3.0
171
1
172
0
173
0
174
0
175
1
176
1
 91
33
178
0
145
0.0
301
CELL_VALUE
 90
4
  1
Technical Data
304
ACVALUE_END
170
5
140
0.145
171
1
172
0
173
0
174
0
175
1
176
1
 91
33
178
0
145
0.0
301
CELL_VALUE
 90
4
  1
U.S. Units
304
ACVALUE_END
170
5
140
0.145
171
1
172
0
173
0
174
0
175
1
176
1
 91
33
178
0
145
0.0
301
CELL_VALUE
 90
4
  1
Metric Units
304
ACVALUE_END
170
5
140
0.145
171
1
172
0
173
0
174
0
175
1
176
1
 91
33
178
0
145
0.0
301
CELL_VALUE
 90
4
  1
Cavity
304
ACVALUE_END
170
5
140
0.125
171
1
172
0
173
0
174
0
175
2
176
1
 91
33
178
0
145
0.0
301
CELL_VALUE
 90
4
  1
T-17A
304
ACVALUE_END
170
5
140
0.125
171
1
172
0
173
1
174
0
175
1
176
1
 91
1
178
0
145
0.0
170
1
171
1
172
0
173
0
174
0
175
1
176
1
 91
33
178
0
145
0.0
301
CELL_VALUE
 90
4
  1
Body Features
304
ACVALUE_END
170
5
140
0.125
171
1
172
0
173
0
174
0
175
2
176
1
 91
33
178
0
145
0.0
301
CELL_VALUE
 90
4
  1
Direct mount, cross pilot
304
ACVALUE_END
170
5
140
0.125
171
1
172
0
173
1
174
0
175
1
176
1
 91
1
178
0
145
0.0
170
1
171
1
172
0
173
0
174
0
175
1
176
1
 91
33
178
0
145
0.0
301
CELL_VALUE
 90
4
  1
Body Type
304
ACVALUE_END
170
5
140
0.125
171
1
172
0
173
0
174
0
175
2
176
1
 91
33
178
0
145
0.0
301
CELL_VALUE
 90
4
  1
Gasket mount
304
ACVALUE_END
170
5
140
0.125
171
1
172
0
173
1
174
0
175
1
176
1
 91
1
178
0
145
0.0
170
1
171
1
172
0
173
0
174
0
175
1
176
1
 91
33
178
0
145
0.0
301
CELL_VALUE
 90
4
  1
Interface
304
ACVALUE_END
170
5
140
0.125
171
1
172
0
173
0
174
0
175
2
176
1
 91
33
178
0
145
0.0
301
CELL_VALUE
 90
4
  1
Sun
304
ACVALUE_END
170
5
140
0.125
171
1
172
0
173
1
174
0
175
1
176
1
 91
1
178
0
145
0.0
170
1
171
1
172
0
173
0
174
0
175
1
176
1
 91
33
178
0
145
0.0
301
CELL_VALUE
 90
4
  1
Open Cavity Quantity
304
ACVALUE_END
170
5
140
0.125
171
1
172
0
173
0
174
0
175
2
176
1
 91
33
178
0
145
0.0
301
CELL_VALUE
 90
4
  1
1
304
ACVALUE_END
170
5
140
0.125
171
1
172
0
173
1
174
0
175
1
176
1
 91
1
178
0
145
0.0
170
1
171
1
172
0
173
0
174
0
175
1
176
1
 91
33
178
0
145
0.0
301
CELL_VALUE
 90
4
  1
Weight
304
ACVALUE_END
170
5
140
0.125
171
1
172
0
173
0
174
0
175
1
176
1
 91
33
178
0
145
0.0
301
CELL_VALUE
 90
4
  1
3.374 lb.
304
ACVALUE_END
170
5
140
0.125
171
1
172
0
173
0
174
0
175
1
176
1
 91
33
178
0
145
0.0
301
CELL_VALUE
 90
4
  1
1,530 kg.
304
ACVALUE_END
170
5
140
0.125
171
1
172
0
173
0
174
0
175
1
176
1
 91
33
178
0
145
0.0
301
CELL_VALUE
 90
4
  1
Mounting Hole Diameter
304
ACVALUE_END
170
5
140
0.125
171
1
172
0
173
0
174
0
175
1
176
1
 91
33
178
0
145
0.0
301
CELL_VALUE
 90
4
  1
.53 in.
304
ACVALUE_END
170
5
140
0.125
171
1
172
0
173
0
174
0
175
1
176
1
 91
33
178
0
145
0.0
301
CELL_VALUE
 90
4
  1
13,5 mm
304
ACVALUE_END
170
5
140
0.125
171
1
172
0
173
0
174
0
175
1
176
1
 91
33
178
0
145
0.0
301
CELL_VALUE
 90
4
  1
Mounting Hole Depth
304
ACVALUE_END
170
5
140
0.125
171
1
172
0
173
0
174
0
175
2
176
1
 91
33
178
0
145
0.0
301
CELL_VALUE
 90
4
  1
Through
304
ACVALUE_END
170
5
140
0.125
171
1
172
0
173
1
174
0
175
1
176
1
 91
1
178
0
145
0.0
170
1
171
1
172
0
173
0
174
0
175
1
176
1
 91
33
178
0
145
0.0
301
CELL_VALUE
 90
4
  1
Mounting Hole Quantity
304
ACVALUE_END
170
5
140
0.125
171
1
172
0
173
0
174
0
175
2
176
1
 91
33
178
0
145
0.0
301
CELL_VALUE
 90
4
  1
2
304
ACVALUE_END
170
5
140
0.125
171
1
172
0
173
1
174
0
175
1
176
1
 91
1
178
0
145
0.0
170
1
171
1
172
0
173
0
174
0
175
1
176
1
 91
33
178
0
145
0.0
301
CELL_VALUE
 90
4
  1
Mounting Hole C'bore Diameter
304
ACVALUE_END
170
5
140
0.125
171
1
172
0
173
0
174
0
175
1
176
1
 91
33
178
0
145
0.0
301
CELL_VALUE
 90
4
  1
.78 in.
304
ACVALUE_END
170
5
140
0.125
171
1
172
0
173
0
174
0
175
1
176
1
 91
33
178
0
145
0.0
301
CELL_VALUE
 90
4
  1
19,8 mm
304
ACVALUE_END
170
5
140
0.125
171
1
172
0
173
0
174
0
175
1
176
1
 91
33
178
0
145
0.0
301
CELL_VALUE
 90
4
  1
Mounting Hole C'bore Depth
304
ACVALUE_END
170
5
140
0.125
171
1
172
0
173
0
174
0
175
1
176
1
 91
33
178
0
145
0.0
301
CELL_VALUE
 90
4
  1
.44 in.
304
ACVALUE_END
170
5
140
0.125
171
1
172
0
173
0
174
0
175
1
176
1
 91
33
178
0
145
0.0
301
CELL_VALUE
 90
4
  1
11,1 mm
304
ACVALUE_END
170
5
140
0.125
  0
ACAD_TABLE
  5
28E
100
AcDbEntity
  8
0
 62
2
  6
CONTINUOUS
100
AcDbBlockReference
  2
*T3
 10
0.52125
 20
1.459
 30
0.0
100
AcDbTable
342
       31E
343
20C
 11
1.0
 21
0.0
 31
0.0
 90
22
 91
3
 92
3
 93
16
 94
0
 95
0
 96
0
 41
0.05
141
0.34375
141
0.344
141
0.25
142
1.3
142
2.0
142
1.3
171
1
172
0
173
0
174
0
175
3
176
1
 91
33
178
0
145
0.0
301
CELL_VALUE
 90
4
  1
Port Headings
304
ACVALUE_END
170
5
140
0.145
171
1
172
0
173
1
174
0
175
1
176
1
 91
1
178
0
145
0.0
170
1
171
1
172
0
173
1
174
0
175
1
176
1
 91
1
178
0
145
0.0
170
1
171
1
172
0
173
0
174
0
175
1
176
1
 91
33
178
0
145
0.0
301
CELL_VALUE
 90
4
  1
Product
304
ACVALUE_END
170
5
140
0.145
171
1
172
0
173
0
174
0
175
1
176
1
 91
33
178
0
145
0.0
301
CELL_VALUE
 90
4
  1
Port
304
ACVALUE_END
170
5
140
0.145
171
1
172
0
173
0
174
0
175
1
176
1
 91
33
178
0
145
0.0
301
CELL_VALUE
 90
4
  1
Size
304
ACVALUE_END
170
5
140
0.145
171
1
172
0
173
0
174
0
175
1
176
1
 91
33
178
0
145
0.0
301
CELL_VALUE
 90
4
  1
ZTM
304
ACVALUE_END
170
5
140
0.125
171
1
172
0
173
0
174
0
175
1
176
1
 91
33
178
0
145
0.0
301
CELL_VALUE
 90
4
  1
Ports C2, V1, V2
304
ACVALUE_END
170
5
140
0.125
171
1
172
0
173
0
174
0
175
1
176
1
 91
33
178
0
145
0.0
301
CELL_VALUE
 90
4
  1
SAE 16
304
ACVALUE_END
170
5
140
0.125
  0
MTEXT
  5
28F
100
AcDbEntity
  8
0
100
AcDbMText
 62
2
  6
CONTINUOUS
  7
STANDARD
 71
1
 72
1
 10
0.52125
 20
5.75995
 30
0.0
 11
1.0
 21
0.0
 31
0.0
 44
0.6
  3
Notes\P \P1. Important: Carefully consider\P   the maximum system pressure. The\P   pressure rating of the manifold is\P   dependent on the manifold material,\P   with the port type/size a secondary\P   consideration. Manifolds\P   constructed of alu
  3
minum are not\P   rated for pressures higher than\P   3000 psi (210 bar), regardless of\P   the port type/size specified.\P2. This drawing is for reference\P   only. It is generated by an\P   automated process and does not fall\P   under Sun's docume
  1
nt control\P   process.
 40
0.1
 41
3.04
  0
LINE
  5
290
100
AcDbEntity
  8
0
100
AcDbLine
 62
7
  6
CONTINUOUS
 10
0.30125
 20
0.30125
 11
0.30125
 21
16.69875
  0
LINE
  5
291
100
AcDbEntity
  8
0
100
AcDbLine
 62
7
  6
CONTINUOUS
 10
0.30125
 20
0.30125
 11
21.69875
 21
0.30125
  0
LINE
  5
292
100
AcDbEntity
  8
0
100
AcDbLine
 62
7
  6
CONTINUOUS
 10
0.30125
 20
16.69875
 11
21.69875
 21
16.69875
  0
LINE
  5
293
100
AcDbEntity
  8
0
100
AcDbLine
 62
7
  6
CONTINUOUS
 10
21.69875
 20
0.30125
 11
21.69875
 21
16.69875
  0
LINE
  5
294
100
AcDbEntity
  8
0
100
AcDbLine
 62
7
  6
CONTINUOUS
 10
11.3489828221
 20
5.8112397918
 11
10.608954649
 21
5.86256092
  0
LINE
  5
295
100
AcDbEntity
  8
0
100
AcDbLine
 62
7
  6
CONTINUOUS
 10
9.9755651971
 20
5.9064866276
 11
9.235537024
 21
5.9578077558
  0
LINE
  5
296
100
AcDbEntity
  8
0
100
AcDbLine
 62
7
  6
CONTINUOUS
 10
9.9838473999
 20
5.9144866217
 11
10.6172368518
 21
5.870560914
  0
LINE
  5
297
100
AcDbEntity
  8
0
100
AcDbLine
 62
7
  6
CONTINUOUS
 10
9.235537024
 20
9.8215112898
 11
10.6510171779
 21
11.1887602082
  0
LINE
  5
298
100
AcDbEntity
  8
0
100
AcDbLine
 62
7
  6
CONTINUOUS
 10
9.235537024
 20
5.9578077558
 11
9.235537024
 21
9.8215112898
  0
LINE
  5
299
100
AcDbEntity
  8
0
100
AcDbLine
 62
7
  6
CONTINUOUS
 10
11.3910456692
 20
11.137439058
 11
11.3827634664
 21
11.1294390639
  0
LINE
  5
29A
100
AcDbEntity
  8
0
100
AcDbLine
 62
7
  6
CONTINUOUS
 10
12.0244344847
 20
11.0935133944
 11
12.0161522819
 21
11.0855134004
  0
LINE
  5
29B
100
AcDbEntity
  8
0
100
AcDbLine
 62
7
  6
CONTINUOUS
 10
10.3005421258
 20
7.4438006391
 11
10.2771052405
 21
7.4450195891
  0
LINE
  5
29C
100
AcDbEntity
  8
0
100
AcDbLine
 62
7
  6
CONTINUOUS
 10
11.3489828221
 20
9.6749433259
 11
12.764462976
 21
11.0421922442
  0
LINE
  5
29D
100
AcDbEntity
  8
0
100
AcDbLine
 62
4
  6
CONTINUOUS
 10
12.3917638603
 20
8.2287408142
 11
12.3839992955
 21
8.2284852641
  0
LINE
  5
29E
100
AcDbEntity
  8
0
100
AcDbLine
 62
7
  6
CONTINUOUS
 10
10.0740945506
 20
7.6795197415
 11
10.0823767534
 21
7.6875197356
  0
LINE
  5
29F
100
AcDbEntity
  8
0
100
AcDbLine
 62
7
  6
CONTINUOUS
 10
11.3489828221
 20
5.8112397918
 11
11.3489828221
 21
9.6749433259
  0
LINE
  5
2A0
100
AcDbEntity
  8
0
100
AcDbLine
 62
7
  6
CONTINUOUS
 10
10.5104252954
 20
7.6492601016
 11
10.5187074982
 21
7.6572600956
  0
LINE
  5
2A1
100
AcDbEntity
  8
0
100
AcDbLine
 62
7
  6
CONTINUOUS
 10
12.2828106698
 20
7.8677887595
 11
12.2828138201
 21
7.8677847201
  0
LINE
  5
2A2
100
AcDbEntity
  8
0
100
AcDbLine
 62
7
  6
CONTINUOUS
 10
12.3474769309
 20
8.7985701506
 11
12.3473522076
 21
8.7984494455
  0
LINE
  5
2A3
100
AcDbEntity
  8
0
100
AcDbLine
 62
4
  6
CONTINUOUS
 10
12.3762347307
 20
8.3731185933
 11
12.4072929898
 21
8.4031185696
  0
LINE
  5
2A4
100
AcDbEntity
  8
0
100
AcDbLine
 62
4
  6
CONTINUOUS
 10
12.3839992955
 20
8.2284852641
 11
12.3788229184
 21
8.2379741554
  0
LINE
  5
2A5
100
AcDbEntity
  8
0
100
AcDbLine
 62
7
  6
CONTINUOUS
 10
9.9755651971
 20
5.9064866276
 11
9.9838473999
 21
5.9144866217
  0
LINE
  5
2A6
100
AcDbEntity
  8
0
100
AcDbLine
 62
7
  6
CONTINUOUS
 10
11.3489828221
 20
9.6749433259
 11
9.235537024
 21
9.8215112898
  0
LINE
  5
2A7
100
AcDbEntity
  8
0
100
AcDbLine
 62
7
  6
CONTINUOUS
 10
12.4146226193
 20
8.8375357901
 11
12.3861630722
 21
8.8711046216
  0
LINE
  5
2A8
100
AcDbEntity
  8
0
100
AcDbLine
 62
4
  6
CONTINUOUS
 10
12.4021166131
 20
8.3111852459
 11
12.4047048015
 21
8.3064408
  0
LINE
  5
2A9
100
AcDbEntity
  8
0
100
AcDbLine
 62
4
  6
CONTINUOUS
 10
12.3788229184
 20
8.2379741554
 11
12.3762347307
 21
8.2499630459
  0
LINE
  5
2AA
100
AcDbEntity
  8
0
100
AcDbLine
 62
4
  6
CONTINUOUS
 10
12.3762347307
 20
8.2499630459
 11
12.3762347307
 21
8.2644519338
  0
LINE
  5
2AB
100
AcDbEntity
  8
0
100
AcDbLine
 62
4
  6
CONTINUOUS
 10
12.4072929898
 20
8.2944519102
 11
12.4072929898
 21
8.2799630222
  0
LINE
  5
2AC
100
AcDbEntity
  8
0
100
AcDbLine
 62
4
  6
CONTINUOUS
 10
12.3762347307
 20
8.2644519338
 11
12.3788229184
 21
8.2814408192
  0
LINE
  5
2AD
100
AcDbEntity
  8
0
100
AcDbLine
 62
4
  6
CONTINUOUS
 10
12.4072929898
 20
8.2799630222
 11
12.4047048015
 21
8.2629741362
  0
LINE
  5
2AE
100
AcDbEntity
  8
0
100
AcDbLine
 62
4
  6
CONTINUOUS
 10
12.3788229184
 20
8.2814408192
 11
12.3814111079
 21
8.2911852624
  0
LINE
  5
2AF
100
AcDbEntity
  8
0
100
AcDbLine
 62
4
  6
CONTINUOUS
 10
12.4047048015
 20
8.2629741362
 11
12.399528425
 21
8.2434852523
  0
LINE
  5
2B0
100
AcDbEntity
  8
0
100
AcDbLine
 62
4
  6
CONTINUOUS
 10
12.399528425
 20
8.2434852523
 11
12.3917638603
 21
8.2287408142
  0
LINE
  5
2B1
100
AcDbEntity
  8
0
100
AcDbLine
 62
7
  6
CONTINUOUS
 10
12.3474409431
 20
7.82295018
 11
12.3440634131
 21
7.8198101501
  0
LINE
  5
2B2
100
AcDbEntity
  8
0
100
AcDbLine
 62
7
  6
CONTINUOUS
 10
12.3440417649
 20
7.8197908051
 11
12.3111838626
 21
7.7904386698
  0
LINE
  5
2B3
100
AcDbEntity
  8
0
100
AcDbLine
 62
4
  6
CONTINUOUS
 10
12.4047048015
 20
8.3064408
 11
12.4072929898
 21
8.2944519102
  0
LINE
  5
2B4
100
AcDbEntity
  8
0
100
AcDbLine
 62
7
  6
CONTINUOUS
 10
10.608954649
 20
5.86256092
 11
10.6172368518
 21
5.870560914
  0
LINE
  5
2B5
100
AcDbEntity
  8
0
100
AcDbLine
 62
7
  6
CONTINUOUS
 10
12.764462976
 20
11.0421922442
 11
12.764462976
 21
7.1784887102
  0
LINE
  5
2B6
100
AcDbEntity
  8
0
100
AcDbLine
 62
7
  6
CONTINUOUS
 10
12.764462976
 20
7.1784887102
 11
11.3489828221
 21
5.8112397918
  0
LINE
  5
2B7
100
AcDbEntity
  8
0
100
AcDbLine
 62
7
  6
CONTINUOUS
 10
11.3827634664
 20
11.1294390639
 11
12.0161522819
 21
11.0855134004
  0
LINE
  5
2B8
100
AcDbEntity
  8
0
100
AcDbLine
 62
7
  6
CONTINUOUS
 10
12.764462976
 20
11.0421922442
 11
12.0244344847
 21
11.0935133944
  0
LINE
  5
2B9
100
AcDbEntity
  8
0
100
AcDbLine
 62
7
  6
CONTINUOUS
 10
11.3910456692
 20
11.137439058
 11
10.6510171779
 21
11.1887602082
  0
ARC
  5
2BA
100
AcDbEntity
  8
0
100
AcDbCircle
 62
7
  6
CONTINUOUS
 10
10.3951597051
 20
8.4230983247
 40
0.7619132966
100
AcDbArc
 50
311.4649364458
 51
312.7867436363
  0
ARC
  5
2BB
100
AcDbEntity
  8
0
100
AcDbCircle
 62
7
  6
CONTINUOUS
 10
10.2379281988
 20
8.5858683918
 40
0.7617775868
100
AcDbArc
 50
135.2051637927
 51
136.5480987943
  0
ARC
  5
2BC
100
AcDbEntity
  8
0
100
AcDbCircle
 62
7
  6
CONTINUOUS
 10
10.3411647195
 20
6.7576536457
 40
0.6355245495
100
AcDbArc
 50
356.774838968
 51
358.6336548666
  0
ARC
  5
2BD
100
AcDbEntity
  8
0
100
AcDbCircle
 62
7
  6
CONTINUOUS
 10
11.0761193576
 20
9.1948827403
 40
0.6033219421
100
AcDbArc
 50
266.0247282747
 51
271.2511682341
  0
ARC
  5
2BE
100
AcDbEntity
  8
0
100
AcDbCircle
 62
7
  6
CONTINUOUS
 10
11.0799920076
 20
9.2007666745
 40
0.5848413332
100
AcDbArc
 50
266.0269419135
 51
270.5197882011
  0
ARC
  5
2BF
100
AcDbEntity
  8
0
100
AcDbCircle
 62
7
  6
CONTINUOUS
 10
11.072951835
 20
9.2027441051
 40
0.4837023368
100
AcDbArc
 50
266.0308027771
 51
268.3177966913
  0
ARC
  5
2C0
100
AcDbEntity
  8
0
100
AcDbCircle
 62
7
  6
CONTINUOUS
 10
12.3531252646
 20
7.922620933
 40
0.0891667458
100
AcDbArc
 50
217.9508260129
 51
218.7840908877
  0
ARC
  5
2C1
100
AcDbEntity
  8
0
100
AcDbCircle
 62
7
  6
CONTINUOUS
 10
12.4093137064
 20
8.7345538926
 40
0.0890048768
100
AcDbArc
 50
133.3705566959
 51
134.0078692536
  0
SPLINE
  5
2C2
100
AcDbEntity
  8
0
100
AcDbSpline
 62
7
  6
CONTINUOUS
 70
0
 71
3
 72
25
 73
21
 74
0
 42
0.0000001
 43
0.0000001
 44
0.0000000001
 40
0.0
 40
0.0
 40
0.0
 40
0.0
 40
0.0678487713
 40
0.1367070416
 40
0.2061676261
 40
0.2758726041
 40
0.3454601221
 40
0.4145564737
 40
0.4827928265
 40
0.5498056567
 40
0.6152359051
 40
0.6787289644
 40
0.7399380847
 40
0.7985225189
 40
0.8541487985
 40
0.8807504622
 40
0.9064894141
 40
0.9552155175
 40
0.9781217669
 40
1.0
 40
1.0
 40
1.0
 40
1.0
 10
12.2534140978
 20
8.1773845332
 30
0.0
 10
12.2534141542
 20
8.1916671014
 30
0.0
 10
12.2537010499
 20
8.2204454524
 30
0.0
 10
12.2549596008
 20
8.263829131
 30
0.0
 10
12.2570465374
 20
8.3075721709
 30
0.0
 10
12.2599489816
 20
8.3514224421
 30
0.0
 10
12.2636506749
 20
8.3951355685
 30
0.0
 10
12.2681308049
 20
8.4384650377
 30
0.0
 10
12.2733628359
 20
8.4811642647
 30
0.0
 10
12.2793166347
 20
8.5229896042
 30
0.0
 10
12.2859548975
 20
8.5637006262
 30
0.0
 10
12.2932382365
 20
8.603059617
 30
0.0
 10
12.301118013
 20
8.6408330052
 30
0.0
 10
12.3095432011
 20
8.6767898928
 30
0.0
 10
12.3170746036
 20
8.7054634598
 30
0.0
 10
12.3233444392
 20
8.7273101255
 30
0.0
 10
12.329534698
 20
8.7476653673
 30
0.0
 10
12.3359808036
 20
8.7671282412
 30
0.0
 10
12.3427138572
 20
8.7856265459
 30
0.0
 10
12.3461208134
 20
8.7944177625
 30
0.0
 10
12.3478343489
 20
8.7986926197
 30
0.0
  0
SPLINE
  5
2C3
100
AcDbEntity
  8
0
100
AcDbSpline
 62
7
  6
CONTINUOUS
 70
0
 71
3
 72
20
 73
16
 74
0
 42
0.0000001
 43
0.0000001
 44
0.0000000001
 40
0.0
 40
0.0
 40
0.0
 40
0.0
 40
0.1818931624
 40
0.3495815464
 40
0.5022132829
 40
0.5725967868
 40
0.6388297462
 40
0.7007658791
 40
0.7582621242
 40
0.8111610696
 40
0.8592734992
 40
0.9024045524
 40
0.9403603604
 40
0.9729564017
 40
1.0
 40
1.0
 40
1.0
 40
1.0
 10
12.3478343489
 20
8.7986926197
 30
0.0
 10
12.350115271
 20
8.8043829695
 30
0.0
 10
12.3546675563
 20
8.815253065
 30
0.0
 10
12.3617577886
 20
8.8306269851
 30
0.0
 10
12.3677581913
 20
8.8423540801
 30
0.0
 10
12.3725142744
 20
8.8508649515
 30
0.0
 10
12.3759261644
 20
8.8566227104
 30
0.0
 10
12.3792632735
 20
8.8619172495
 30
0.0
 10
12.3825090231
 20
8.8667351341
 30
0.0
 10
12.3856415448
 20
8.8710639567
 30
0.0
 10
12.3886282334
 20
8.8748969741
 30
0.0
 10
12.3914372359
 20
8.8782258617
 30
0.0
 10
12.3940365501
 20
8.8810430367
 30
0.0
 10
12.396392805
 20
8.8833403071
 30
0.0
 10
12.3979038182
 20
8.8846675644
 30
0.0
 10
12.3986059981
 20
8.8852487008
 30
0.0
  0
SPLINE
  5
2C4
100
AcDbEntity
  8
0
100
AcDbSpline
 62
7
  6
CONTINUOUS
 70
0
 71
3
 72
20
 73
16
 74
0
 42
0.0000001
 43
0.0000001
 44
0.0000000001
 40
0.0
 40
0.0
 40
0.0
 40
0.0
 40
0.0271100091
 40
0.0596538555
 40
0.0974601501
 40
0.1403793454
 40
0.1882537366
 40
0.2409204391
 40
0.2982169061
 40
0.3599836458
 40
0.426080572
 40
0.496388539
 40
0.649143348
 40
0.8172843833
 40
1.0
 40
1.0
 40
1.0
 40
1.0
 10
12.3976256489
 20
8.8859569155
 30
0.0
 10
12.3981132678
 20
8.8854465035
 30
0.0
 10
12.3991564848
 20
8.8842947745
 30
0.0
 10
12.4007736965
 20
8.8823380853
 30
0.0
 10
12.402548319
 20
8.8799810882
 30
0.0
 10
12.4044435985
 20
8.8772194361
 30
0.0
 10
12.4064414534
 20
8.8740622318
 30
0.0
 10
12.4085207374
 20
8.870516368
 30
0.0
 10
12.4106615101
 20
8.8665897875
 30
0.0
 10
12.412842873
 20
8.8622894828
 30
0.0
 10
12.4150484323
 20
8.8576238613
 30
0.0
 10
12.4180940566
 20
8.8507374092
 30
0.0
 10
12.4218811072
 20
8.8412773143
 30
0.0
 10
12.426252512
 20
8.8289110444
 30
0.0
 10
12.4289836934
 20
8.8201909496
 30
0.0
 10
12.4303361097
 20
8.8156296165
 30
0.0
  0
SPLINE
  5
2C5
100
AcDbEntity
  8
0
100
AcDbSpline
 62
7
  6
CONTINUOUS
 70
0
 71
3
 72
79
 73
75
 74
0
 42
0.0000001
 43
0.0000001
 44
0.0000000001
 40
0.0
 40
0.0
 40
0.0
 40
0.0
 40
0.0405718994
 40
0.0797844636
 40
0.098771196
 40
0.1172960235
 40
0.1353247034
 40
0.1528247943
 40
0.1697651622
 40
0.1861212747
 40
0.201872652
 40
0.2170019863
 40
0.2315017854
 40
0.2453687689
 40
0.2586088561
 40
0.2712425757
 40
0.2832978223
 40
0.2948246971
 40
0.3004113639
 40
0.305892397
 40
0.3112798371
 40
0.3165880205
 40
0.3270297156
 40
0.3322002907
 40
0.3373570549
 40
0.3425184064
 40
0.3477070445
 40
0.3529429487
 40
0.3582259542
 40
0.363556679
 40
0.3689430359
 40
0.374390392
 40
0.379878877
 40
0.3853858364
 40
0.3881410382
 40
0.3908945546
 40
0.3963893247
 40
0.4018562442
 40
0.4072746904
 40
0.4126284451
 40
0.4179270194
 40
0.4231799323
 40
0.4283897353
 40
0.4335612777
 40
0.4387168138
 40
0.4438781422
 40
0.449063101
 40
0.4542868566
 40
0.459566434
 40
0.4649184079
 40
0.470357783
 40
0.4758979723
 40
0.4873210007
 40
0.4992588387
 40
0.5117665766
 40
0.5248757117
 40
0.5386081189
 40
0.5529731795
 40
0.5679688063
 40
0.5835889474
 40
0.5998177032
 40
0.6166351839
 40
0.6340179301
 40
0.6519362507
 40
0.6703590097
 40
0.6892516631
 40
0.7085762312
 40
0.7483622101
 40
0.7893804465
 40
0.8312722703
 40
0.8736633932
 40
0.9161680491
 40
0.9584117162
 40
1.0
 40
1.0
 40
1.0
 40
1.0
 10
12.1504140968
 20
8.1773846841
 30
0.0
 10
12.1504141615
 20
8.1574911243
 30
0.0
 10
12.150931347
 20
8.1183683711
 30
0.0
 10
12.1529464249
 20
8.0699723853
 30
0.0
 10
12.1553918879
 20
8.0324305105
 30
0.0
 10
12.1576041988
 20
8.005286252
 30
0.0
 10
12.1602109137
 20
7.9789093497
 30
0.0
 10
12.1632079813
 20
7.9533558652
 30
0.0
 10
12.1665920852
 20
7.9286781108
 30
0.0
 10
12.170360089
 20
7.9049236206
 30
0.0
 10
12.1745091939
 20
7.8821345092
 30
0.0
 10
12.179037968
 20
7.8603463214
 30
0.0
 10
12.1839495118
 20
7.8395891597
 30
0.0
 10
12.1892476783
 20
7.8198845156
 30
0.0
 10
12.1949434281
 20
7.8012450788
 30
0.0
 10
12.2010612293
 20
7.7836769031
 30
0.0
 10
12.2076248254
 20
7.7671702328
 30
0.0
 10
12.2135773251
 20
7.7541567224
 30
0.0
 10
12.2186296342
 20
7.7442953309
 30
0.0
 10
12.2225316202
 20
7.7372315819
 30
0.0
 10
12.2266033621
 20
7.7304223306
 30
0.0
 10
12.2322545522
 20
7.7217323828
 30
0.0
 10
12.2383698768
 20
7.7134770384
 30
0.0
 10
12.2449973608
 20
7.7057404278
 30
0.0
 10
12.2502378323
 20
7.7002381288
 30
0.0
 10
12.2557936347
 20
7.6950406474
 30
0.0
 10
12.261692565
 20
7.6901738216
 30
0.0
 10
12.2679485595
 20
7.6856712412
 30
0.0
 10
12.274567755
 20
7.6815857145
 30
0.0
 10
12.281545032
 20
7.6779810072
 30
0.0
 10
12.2888688868
 20
7.6749263846
 30
0.0
 10
12.2965028479
 20
7.6724902044
 30
0.0
 10
12.3043748692
 20
7.6707040469
 30
0.0
 10
12.3110653411
 20
7.6697931827
 30
0.0
 10
12.3164563061
 20
7.6694325531
 30
0.0
 10
12.3218522705
 20
7.66932505
 30
0.0
 10
12.3285790788
 20
7.6696506886
 30
0.0
 10
12.3365465497
 20
7.6707367333
 30
0.0
 10
12.3443264311
 20
7.6724766276
 30
0.0
 10
12.3518537105
 20
7.6748372407
 30
0.0
 10
12.359094996
 20
7.6777531433
 30
0.0
 10
12.3660382922
 20
7.6811613045
 30
0.0
 10
12.3726790006
 20
7.6850020278
 30
0.0
 10
12.3790235835
 20
7.689227613
 30
0.0
 10
12.385086072
 20
7.6938084954
 30
0.0
 10
12.3908923544
 20
7.698719215
 30
0.0
 10
12.3964699844
 20
7.703936276
 30
0.0
 10
12.4018490343
 20
7.7094386066
 30
0.0
 10
12.4070470898
 20
7.7152224871
 30
0.0
 10
12.4120832139
 20
7.7212855884
 30
0.0
 10
12.4169766852
 20
7.7276262938
 30
0.0
 10
12.4234028969
 20
7.73653699
 30
0.0
 10
12.4311653653
 20
7.7484028615
 30
0.0
 10
12.4400139303
 20
7.763609686
 30
0.0
 10
12.4485576843
 20
7.7799279263
 30
0.0
 10
12.4568269407
 20
7.7973649679
 30
0.0
 10
12.4648450912
 20
7.815914573
 30
0.0
 10
12.4726249071
 20
7.8355632451
 30
0.0
 10
12.4801678288
 20
7.8562914627
 30
0.0
 10
12.4874736556
 20
7.8780701704
 30
0.0
 10
12.4945368186
 20
7.9008654575
 30
0.0
 10
12.5013491324
 20
7.924637113
 30
0.0
 10
12.5079012472
 20
7.9493397072
 30
0.0
 10
12.5141828625
 20
7.9749235657
 30
0.0
 10
12.5201822046
 20
8.0013347098
 30
0.0
 10
12.5258879779
 20
8.028515719
 30
0.0
 10
12.5331594903
 20
8.06606664
 30
0.0
 10
12.5414022669
 20
8.1144733596
 30
0.0
 10
12.5498575525
 20
8.174044647
 30
0.0
 10
12.5568918712
 20
8.2350863036
 30
0.0
 10
12.5624386962
 20
8.2970124651
 30
0.0
 10
12.5664465619
 20
8.3592302182
 30
0.0
 10
12.5688748473
 20
8.4211353072
 30
0.0
 10
12.5694318226
 20
8.4622423302
 30
0.0
 10
12.5694318815
 20
8.4826342522
 30
0.0
  0
SPLINE
  5
2C6
100
AcDbEntity
  8
0
100
AcDbSpline
 62
7
  6
CONTINUOUS
 70
0
 71
3
 72
19
 73
15
 74
0
 42
0.0000001
 43
0.0000001
 44
0.0000000001
 40
0.0
 40
0.0
 40
0.0
 40
0.0
 40
0.1789977257
 40
0.3442822105
 40
0.4951470605
 40
0.5649011618
 40
0.6307164531
 40
0.6924825857
 40
0.7500855277
 40
0.8033834505
 40
0.8522242753
 40
0.8964540247
 40
0.935919351
 40
1.0
 40
1.0
 40
1.0
 40
1.0
 10
12.3628481877
 20
7.8398014835
 30
0.0
 10
12.3609410035
 20
7.8355940059
 30
0.0
 10
12.3571526701
 20
7.8275548439
 30
0.0
 10
12.351307437
 20
7.8161883759
 30
0.0
 10
12.3464054636
 20
7.8075151796
 30
0.0
 10
12.3425529004
 20
7.8012055364
 30
0.0
 10
12.3397963879
 20
7.7969225871
 30
0.0
 10
12.3371071517
 20
7.7929710727
 30
0.0
 10
12.3344960874
 20
7.7893592385
 30
0.0
 10
12.3319823447
 20
7.786090872
 30
0.0
 10
12.3295856894
 20
7.7831702544
 30
0.0
 10
12.3273257654
 20
7.780601516
 30
0.0
 10
12.3246978115
 20
7.7778369691
 30
0.0
 10
12.3227352848
 20
7.7760162027
 30
0.0
 10
12.3214659158
 20
7.7749561535
 30
0.0
  0
SPLINE
  5
2C7
100
AcDbEntity
  8
0
100
AcDbSpline
 62
7
  6
CONTINUOUS
 70
0
 71
3
 72
41
 73
37
 74
0
 42
0.0000001
 43
0.0000001
 44
0.0000000001
 40
0.0
 40
0.0
 40
0.0
 40
0.0
 40
0.0004055153
 40
0.0006988962
 40
0.000939914
 40
0.0011825791
 40
0.0014904973
 40
0.0019269937
 40
0.0024951973
 40
0.0031982955
 40
0.0050222143
 40
0.0074257318
 40
0.0104368572
 40
0.0140798417
 40
0.0183536584
 40
0.0232487522
 40
0.0287558749
 40
0.041570574
 40
0.0567322666
 40
0.074182228
 40
0.0938695527
 40
0.1157507853
 40
0.1397795588
 40
0.1659037604
 40
0.1940704004
 40
0.2242264332
 40
0.2563192681
 40
0.2902971849
 40
0.3261140027
 40
0.4031084896
 40
0.4869981441
 40
0.5774677522
 40
0.6742292932
 40
0.7770561143
 40
0.8857228134
 40
1.0
 40
1.0
 40
1.0
 40
1.0
 10
12.3251467757
 20
7.7714455285
 30
0.0
 10
12.325159452
 20
7.7714388374
 30
0.0
 10
12.3251828443
 20
7.7714258336
 30
0.0
 10
12.3252060616
 20
7.7714131552
 30
0.0
 10
12.3252445539
 20
7.7713869345
 30
0.0
 10
12.325201788
 20
7.7714075373
 30
0.0
 10
12.3251780591
 20
7.7714219758
 30
0.0
 10
12.3251356593
 20
7.7714473315
 30
0.0
 10
12.3250859171
 20
7.7714794171
 30
0.0
 10
12.3249944413
 20
7.7715404859
 30
0.0
 10
12.3248527643
 20
7.7716413884
 30
0.0
 10
12.3246487892
 20
7.7717961964
 30
0.0
 10
12.3243994914
 20
7.7719970477
 30
0.0
 10
12.3241052203
 20
7.7722473652
 30
0.0
 10
12.3237671147
 20
7.7725486903
 30
0.0
 10
12.3233871123
 20
7.7729018865
 30
0.0
 10
12.3227970632
 20
7.7734723144
 30
0.0
 10
12.3219704252
 20
7.774319754
 30
0.0
 10
12.3208903022
 20
7.7755082861
 30
0.0
 10
12.3196952409
 20
7.7769191833
 30
0.0
 10
12.3184026633
 20
7.7785571818
 30
0.0
 10
12.3170312829
 20
7.7804274035
 30
0.0
 10
12.3155921692
 20
7.7825283812
 30
0.0
 10
12.3140935732
 20
7.7848564857
 30
0.0
 10
12.3125446344
 20
7.787408492
 30
0.0
 10
12.3109542479
 20
7.7901809757
 30
0.0
 10
12.3093313151
 20
7.7931705098
 30
0.0
 10
12.3076848866
 20
7.796373925
 30
0.0
 10
12.3054134286
 20
7.8010392784
 30
0.0
 10
12.3025612661
 20
7.8073821768
 30
0.0
 10
12.2992029318
 20
7.815609363
 30
0.0
 10
12.2958661175
 20
7.8245946994
 30
0.0
 10
12.2925815142
 20
7.8343084785
 30
0.0
 10
12.2893647134
 20
7.8447199886
 30
0.0
 10
12.2862319252
 20
7.8558017794
 30
0.0
 10
12.28425839
 20
7.8634318523
 30
0.0
 10
12.2832865884
 20
7.8673525956
 30
0.0
  0
SPLINE
  5
2C8
100
AcDbEntity
  8
0
100
AcDbSpline
 62
7
  6
CONTINUOUS
 70
0
 71
3
 72
16
 73
12
 74
0
 42
0.0000001
 43
0.0000001
 44
0.0000000001
 40
0.0
 40
0.0
 40
0.0
 40
0.0
 40
0.0479968316
 40
0.0984248535
 40
0.206135255
 40
0.3222930252
 40
0.4460606554
 40
0.5765819189
 40
0.7130008185
 40
0.8544663174
 40
1.0
 40
1.0
 40
1.0
 40
1.0
 10
12.2832865884
 20
7.8673525956
 30
0.0
 10
12.2820851114
 20
7.8721999663
 30
0.0
 10
12.2797452853
 20
7.8821713124
 30
0.0
 10
12.2753098995
 20
7.9031573941
 30
0.0
 10
12.270286305
 20
7.9312601764
 30
0.0
 10
12.2651794141
 20
7.9670754933
 30
0.0
 10
12.2609326636
 20
8.0053914084
 30
0.0
 10
12.25758772
 20
8.0459113671
 30
0.0
 10
12.2551791293
 20
8.0883418719
 30
0.0
 10
12.253729516
 20
8.1323782245
 30
0.0
 10
12.2534141626
 20
8.1622414999
 30
0.0
 10
12.2534140987
 20
8.1773842223
 30
0.0
  0
SPLINE
  5
2C9
100
AcDbEntity
  8
0
100
AcDbSpline
 62
7
  6
CONTINUOUS
 70
0
 71
3
 72
16
 73
12
 74
0
 42
0.0000001
 43
0.0000001
 44
0.0000000001
 40
0.0
 40
0.0
 40
0.0
 40
0.0
 40
0.1504802345
 40
0.2917477373
 40
0.4244952497
 40
0.4879700346
 40
0.5496761098
 40
0.6683415877
 40
0.7818816099
 40
0.8918561996
 40
1.0
 40
1.0
 40
1.0
 40
1.0
 10
12.3922815057
 20
9.6718510566
 30
0.0
 10
12.3930320774
 20
9.6725760532
 30
0.0
 10
12.3945322683
 20
9.6739363848
 30
0.0
 10
12.396855135
 20
9.6757492591
 30
0.0
 10
12.3988172431
 20
9.6770314226
 30
0.0
 10
12.4003818393
 20
9.6778996461
 30
0.0
 10
12.4019003393
 20
9.6786450479
 30
0.0
 10
12.4037991532
 20
9.6793981725
 30
0.0
 10
12.4060980574
 20
9.6800098128
 30
0.0
 10
12.4083839887
 20
9.6803151847
 30
0.0
 10
12.4099020304
 20
9.680313442
 30
0.0
 10
12.4106501819
 20
9.6802615495
 30
0.0
  0
SPLINE
  5
2CA
100
AcDbEntity
  8
0
100
AcDbSpline
 62
7
  6
CONTINUOUS
 70
0
 71
3
 72
16
 73
12
 74
0
 42
0.0000001
 43
0.0000001
 44
0.0000000001
 40
0.0
 40
0.0
 40
0.0
 40
0.0
 40
0.1504802345
 40
0.2917477373
 40
0.4244952497
 40
0.4879700346
 40
0.5496761098
 40
0.6683415877
 40
0.7818816099
 40
0.8918561996
 40
1.0
 40
1.0
 40
1.0
 40
1.0
 10
12.3922815057
 20
7.4985178187
 30
0.0
 10
12.3930320774
 20
7.4992428153
 30
0.0
 10
12.3945322683
 20
7.5006031469
 30
0.0
 10
12.396855135
 20
7.5024160212
 30
0.0
 10
12.3988172431
 20
7.5036981847
 30
0.0
 10
12.4003818393
 20
7.5045664081
 30
0.0
 10
12.4019003393
 20
7.50531181
 30
0.0
 10
12.4037991532
 20
7.5060649346
 30
0.0
 10
12.4060980574
 20
7.5066765749
 30
0.0
 10
12.4083839887
 20
7.5069819468
 30
0.0
 10
12.4099020304
 20
7.5069802041
 30
0.0
 10
12.4106501819
 20
7.5069283116
 30
0.0
  0
SPLINE
  5
2CB
100
AcDbEntity
  8
0
100
AcDbSpline
 62
7
  6
CONTINUOUS
 70
0
 71
3
 72
51
 73
47
 74
0
 42
0.0000001
 43
0.0000001
 44
0.0000000001
 40
0.0
 40
0.0
 40
0.0
 40
0.0
 40
0.0311429621
 40
0.0624390403
 40
0.0938821593
 40
0.1254627422
 40
0.15716855
 40
0.1889848349
 40
0.2208946511
 40
0.2528792165
 40
0.2849182894
 40
0.316990571
 40
0.3490741218
 40
0.3811467837
 40
0.4131866093
 40
0.445172286
 40
0.4770835499
 40
0.5089015907
 40
0.5406094287
 40
0.5721922717
 40
0.6036378347
 40
0.6349366173
 40
0.650531358
 40
0.6660872395
 40
0.6816039527
 40
0.6970813978
 40
0.7125196838
 40
0.7279191287
 40
0.7432802634
 40
0.7586038282
 40
0.7738907683
 40
0.7891422325
 40
0.8043595694
 40
0.8195443182
 40
0.8346982016
 40
0.8498231198
 40
0.8649211392
 40
0.8799944797
 40
0.8950455048
 40
0.9100767088
 40
0.9250907014
 40
0.9400901924
 40
0.955077978
 40
0.970056924
 40
0.9850299473
 40
1.0
 40
1.0
 40
1.0
 40
1.0
 10
10.292259923
 20
9.3261176618
 30
0.0
 10
10.3128985429
 20
9.3246863686
 30
0.0
 10
10.3541878427
 20
9.3203060591
 30
0.0
 10
10.4156211942
 20
9.3092720448
 30
0.0
 10
10.4763965372
 20
9.2938165919
 30
0.0
 10
10.5361856221
 20
9.2740229424
 30
0.0
 10
10.5946708569
 20
9.2499971373
 30
0.0
 10
10.6515402033
 20
9.2218676503
 30
0.0
 10
10.7064907756
 20
9.1897849106
 30
0.0
 10
10.7592296923
 20
9.1539200966
 30
0.0
 10
10.8094760253
 20
9.1144646827
 30
0.0
 10
10.8569620045
 20
9.0716290448
 30
0.0
 10
10.901434571
 20
9.0256415643
 30
0.0
 10
10.9426567363
 20
8.9767474011
 30
0.0
 10
10.9804086276
 20
8.9252070436
 30
0.0
 10
11.0144890066
 20
8.8712952071
 30
0.0
 10
11.0447159003
 20
8.8152990889
 30
0.0
 10
11.070927974
 20
8.7575170621
 30
0.0
 10
11.0929851007
 20
8.6982571801
 30
0.0
 10
11.1107692298
 20
8.6378346766
 30
0.0
 10
11.1241849717
 20
8.5765738475
 30
0.0
 10
11.1316739761
 20
8.5250258451
 30
0.0
 10
11.1354119374
 20
8.4837021556
 30
0.0
 10
11.1370866026
 20
8.4527393045
 30
0.0
 10
11.1376330521
 20
8.4218142927
 30
0.0
 10
11.1370506696
 20
8.390967911
 30
0.0
 10
11.1353401647
 20
8.3602414817
 30
0.0
 10
11.1325037613
 20
8.3296760065
 30
0.0
 10
11.1285452752
 20
8.2993123115
 30
0.0
 10
11.1234699772
 20
8.2691909437
 30
0.0
 10
11.1172845713
 20
8.2393521455
 30
0.0
 10
11.1099973138
 20
8.2098357736
 30
0.0
 10
11.101617952
 20
8.1806812475
 30
0.0
 10
11.0921576309
 20
8.1519275218
 30
0.0
 10
11.0816289332
 20
8.1236130265
 30
0.0
 10
11.0700459564
 20
8.0957755747
 30
0.0
 10
11.0574241572
 20
8.0684523591
 30
0.0
 10
11.043780332
 20
8.0416799147
 30
0.0
 10
11.0291327212
 20
8.0154940073
 30
0.0
 10
11.0135009083
 20
7.9899296135
 30
0.0
 10
10.9969057407
 20
7.9650209159
 30
0.0
 10
10.9793693534
 20
7.9408012125
 30
0.0
 10
10.9609152464
 20
7.9173028703
 30
0.0
 10
10.9415679525
 20
7.8945571804
 30
0.0
 10
10.9213537095
 20
7.8725949974
 30
0.0
 10
10.9073160722
 20
7.8584939204
 30
0.0
 10
10.9001633974
 20
7.8515849642
 30
0.0
  0
SPLINE
  5
2CC
100
AcDbEntity
  8
0
100
AcDbSpline
 62
7
  6
CONTINUOUS
 70
0
 71
3
 72
45
 73
41
 74
0
 42
0.0000001
 43
0.0000001
 44
0.0000000001
 40
0.0
 40
0.0
 40
0.0
 40
0.0
 40
0.0316135621
 40
0.0633378046
 40
0.0951610446
 40
0.1270694277
 40
0.159047952
 40
0.1910804854
 40
0.2231500467
 40
0.2552390769
 40
0.287329713
 40
0.3194040672
 40
0.3514445054
 40
0.3834339238
 40
0.4153560179
 40
0.4471955445
 40
0.4789385724
 40
0.5105727135
 40
0.5420873382
 40
0.5734737699
 40
0.6047254486
 40
0.6358380661
 40
0.6668096714
 40
0.6976407347
 40
0.7283341699
 40
0.7588953197
 40
0.7893318921
 40
0.8196538487
 40
0.8347777898
 40
0.8498777642
 40
0.8649555753
 40
0.8800131278
 40
0.8950524232
 40
0.9100755498
 40
0.9250846706
 40
0.9400820164
 40
0.9550698746
 40
0.9700505765
 40
0.9850264883
 40
1.0
 40
1.0
 40
1.0
 40
1.0
 10
10.5104252954
 20
7.6492601016
 30
0.0
 10
10.5302714147
 20
7.6430981412
 30
0.0
 10
10.5696521305
 20
7.62948579
 30
0.0
 10
10.6274062263
 20
7.6053572683
 30
0.0
 10
10.6837161561
 20
7.5775815869
 30
0.0
 10
10.7383363
 20
7.5462794112
 30
0.0
 10
10.7910322095
 20
7.511585642
 30
0.0
 10
10.8415767391
 20
7.4736499681
 30
0.0
 10
10.8897522319
 20
7.4326358559
 30
0.0
 10
10.9353511741
 20
7.3887200659
 30
0.0
 10
10.9781771819
 20
7.3420918402
 30
0.0
 10
11.0180457186
 20
7.292952014
 30
0.0
 10
11.0547849564
 20
7.2415122324
 30
0.0
 10
11.0882365757
 20
7.1879940802
 30
0.0
 10
11.1182563109
 20
7.1326280388
 30
0.0
 10
11.1447145985
 20
7.0756525438
 30
0.0
 10
11.1674972668
 20
7.0173130256
 30
0.0
 10
11.1865058771
 20
6.9578607821
 30
0.0
 10
11.2016581361
 20
6.8975519264
 30
0.0
 10
11.2128884239
 20
6.8366463406
 30
0.0
 10
11.2201479581
 20
6.7754065219
 30
0.0
 10
11.2234049492
 20
6.7140964677
 30
0.0
 10
11.2226449195
 20
6.6529805822
 30
0.0
 10
11.217870701
 20
6.5923224691
 30
0.0
 10
11.2091024182
 20
6.5323840179
 30
0.0
 10
11.196377205
 20
6.4734235265
 30
0.0
 10
11.179750371
 20
6.4156973455
 30
0.0
 10
11.1626851417
 20
6.3687815305
 30
0.0
 10
11.1471626129
 20
6.3321274051
 30
0.0
 10
11.134607056
 20
6.3051184422
 30
0.0
 10
11.1211426971
 20
6.278600147
 30
0.0
 10
11.1067838467
 20
6.252600753
 30
0.0
 10
11.0915460979
 20
6.227148408
 30
0.0
 10
11.0754458807
 20
6.2022705527
 30
0.0
 10
11.0585005044
 20
6.1779940995
 30
0.0
 10
11.0407283184
 20
6.1543452
 30
0.0
 10
11.0221485126
 20
6.1313494156
 30
0.0
 10
11.0027809937
 20
6.109031528
 30
0.0
 10
10.982647086
 20
6.0874159
 30
0.0
 10
10.9687267788
 20
6.0734880365
 30
0.0
 10
10.9616474237
 20
6.0666499139
 30
0.0
  0
SPLINE
  5
2CD
100
AcDbEntity
  8
0
100
AcDbSpline
 62
7
  6
CONTINUOUS
 70
0
 71
3
 72
39
 73
35
 74
0
 42
0.0000001
 43
0.0000001
 44
0.0000000001
 40
0.0
 40
0.0
 40
0.0
 40
0.0
 40
0.0306733691
 40
0.0614496236
 40
0.0923258648
 40
0.1232995019
 40
0.1543662965
 40
0.1855214619
 40
0.2167592977
 40
0.2480733882
 40
0.2794566236
 40
0.3109012788
 40
0.3423990838
 40
0.3739412994
 40
0.4055187969
 40
0.4371221389
 40
0.4687416626
 40
0.5003675643
 40
0.5319899844
 40
0.5635990939
 40
0.5951851791
 40
0.6267387271
 40
0.6582505097
 40
0.6897116655
 40
0.7211137788
 40
0.7524489572
 40
0.783709904
 40
0.814889988
 40
0.8459833082
 40
0.8769847528
 40
0.9078900534
 40
0.9386958324
 40
0.9693996428
 40
1.0
 40
1.0
 40
1.0
 40
1.0
 10
10.3005421258
 20
7.4438006391
 30
0.0
 10
10.3116231035
 20
7.4430321707
 30
0.0
 10
10.3337882859
 20
7.4409490727
 30
0.0
 10
10.3668964478
 20
7.4362081012
 30
0.0
 10
10.3998451631
 20
7.4298566084
 30
0.0
 10
10.432553921
 20
7.4219102096
 30
0.0
 10
10.4649443661
 20
7.4123879537
 30
0.0
 10
10.4969384027
 20
7.4013129047
 30
0.0
 10
10.5284590517
 20
7.3887117458
 30
0.0
 10
10.5594304335
 20
7.3746148748
 30
0.0
 10
10.5897780047
 20
7.3590562644
 30
0.0
 10
10.6194287221
 20
7.3420734047
 30
0.0
 10
10.6483112249
 20
7.3237072116
 30
0.0
 10
10.6763560022
 20
7.3040019249
 30
0.0
 10
10.7034955589
 20
7.2830050004
 30
0.0
 10
10.7296645772
 20
7.2607669961
 30
0.0
 10
10.754800073
 20
7.2373414513
 30
0.0
 10
10.7788415462
 20
7.2127847584
 30
0.0
 10
10.8017311255
 20
7.1871560276
 30
0.0
 10
10.8234137074
 20
7.160516946
 30
0.0
 10
10.8438370873
 20
7.1329316287
 30
0.0
 10
10.8629520904
 20
7.1044664702
 30
0.0
 10
10.8807126875
 20
7.0751899819
 30
0.0
 10
10.8970761025
 20
7.0451726259
 30
0.0
 10
10.9120029159
 20
7.0144866479
 30
0.0
 10
10.9254571587
 20
6.9832059031
 30
0.0
 10
10.9374063995
 20
6.9514056813
 30
0.0
 10
10.9478218218
 20
6.9191625239
 30
0.0
 10
10.9566782948
 20
6.8865540504
 30
0.0
 10
10.963954432
 20
6.853658739
 30
0.0
 10
10.9696326506
 20
6.8205558643
 30
0.0
 10
10.9736992127
 20
6.7873248461
 30
0.0
 10
10.9761442555
 20
6.7540467651
 30
0.0
 10
10.9766902186
 20
6.7318432214
 30
0.0
 10
10.976690228
 20
6.7207620684
 30
0.0
  0
SPLINE
  5
2CE
100
AcDbEntity
  8
0
100
AcDbSpline
 62
7
  6
CONTINUOUS
 70
0
 71
3
 72
42
 73
38
 74
0
 42
0.0000001
 43
0.0000001
 44
0.0000000001
 40
0.0
 40
0.0
 40
0.0
 40
0.0
 40
0.0311445079
 40
0.062442049
 40
0.0938867256
 40
0.1254688374
 40
0.1571761862
 40
0.1889940167
 40
0.2209053831
 40
0.2528915025
 40
0.284932132
 40
0.317005972
 40
0.3490910812
 40
0.3811653012
 40
0.4132066835
 40
0.445193914
 40
0.4771067282
 40
0.508926314
 40
0.5406356926
 40
0.5722200701
 40
0.6036671594
 40
0.6349674626
 40
0.6661145002
 40
0.697104989
 40
0.7279389623
 40
0.7586198189
 40
0.7891542965
 40
0.8195523742
 40
0.8498270958
 40
0.8799943105
 40
0.9100723406
 40
0.9250870624
 40
0.9400872816
 40
0.9550757958
 40
0.9700554694
 40
0.9850292195
 40
1.0
 40
1.0
 40
1.0
 40
1.0
 10
10.3485589749
 20
7.4085606193
 30
0.0
 10
10.363076787
 20
7.4075538056
 30
0.0
 10
10.3921208551
 20
7.4044725845
 30
0.0
 10
10.4353348291
 20
7.3967108943
 30
0.0
 10
10.4780859426
 20
7.3858391318
 30
0.0
 10
10.5201433117
 20
7.3719157058
 30
0.0
 10
10.5612834858
 20
7.3550152325
 30
0.0
 10
10.6012870256
 20
7.3352281678
 30
0.0
 10
10.6399408292
 20
7.3126602404
 30
0.0
 10
10.6770388984
 20
7.2874319063
 30
0.0
 10
10.7123835929
 20
7.2596778152
 30
0.0
 10
10.7457865978
 20
7.2295460073
 30
0.0
 10
10.7770698897
 20
7.1971971064
 30
0.0
 10
10.8060667054
 20
7.1628035193
 30
0.0
 10
10.8326224842
 20
7.1265485667
 30
0.0
 10
10.8565955919
 20
7.0886254309
 30
0.0
 10
10.8778580571
 20
7.0492361521
 30
0.0
 10
10.8962963564
 20
7.0085906255
 30
0.0
 10
10.9118119699
 20
6.9669054558
 30
0.0
 10
10.9243218456
 20
6.9244027979
 30
0.0
 10
10.9337588723
 20
6.8813092129
 30
0.0
 10
10.9400723559
 20
6.8378544958
 30
0.0
 10
10.943228171
 20
6.7942704279
 30
0.0
 10
10.9432089436
 20
6.7507895743
 30
0.0
 10
10.9400142658
 20
6.7076440598
 30
0.0
 10
10.9336607179
 20
6.6650643345
 30
0.0
 10
10.9241816833
 20
6.623277915
 30
0.0
 10
10.9116273331
 20
6.5825083445
 30
0.0
 10
10.8960640902
 20
6.5429733474
 30
0.0
 10
10.8775757681
 20
6.504885898
 30
0.0
 10
10.859798991
 20
6.4744989992
 30
0.0
 10
10.8442269541
 20
6.4511263188
 30
0.0
 10
10.8318912365
 20
6.4340892602
 30
0.0
 10
10.8189101392
 20
6.4175598978
 30
0.0
 10
10.8053006494
 20
6.4015599451
 30
0.0
 10
10.7910813817
 20
6.3861111141
 30
0.0
 10
10.7812069079
 20
6.3761920078
 30
0.0
 10
10.776175514
 20
6.3713320469
 30
0.0
  0
SPLINE
  5
2CF
100
AcDbEntity
  8
0
100
AcDbSpline
 62
7
  6
CONTINUOUS
 70
0
 71
3
 72
23
 73
19
 74
0
 42
0.0000001
 43
0.0000001
 44
0.0000000001
 40
0.0
 40
0.0
 40
0.0
 40
0.0
 40
0.0638619349
 40
0.1275029889
 40
0.1909231091
 40
0.2541276717
 40
0.3171223891
 40
0.3799159301
 40
0.4425188167
 40
0.50494367
 40
0.567204998
 40
0.6293190788
 40
0.6913037926
 40
0.7531784373
 40
0.8149635239
 40
0.8766805553
 40
0.9383517907
 40
1.0
 40
1.0
 40
1.0
 40
1.0
 10
10.3485589749
 20
7.4085606193
 30
0.0
 10
10.3386347229
 20
7.4092488685
 30
0.0
 10
10.3187826443
 20
7.4101292644
 30
0.0
 10
10.2890301212
 20
7.4099519332
 30
0.0
 10
10.2594260431
 20
7.4082748264
 30
0.0
 10
10.2300460557
 20
7.4051021989
 30
0.0
 10
10.2009637231
 20
7.4004418448
 30
0.0
 10
10.1722523968
 20
7.3943054833
 30
0.0
 10
10.1439843413
 20
7.3867084527
 30
0.0
 10
10.1162307658
 20
7.3776698187
 30
0.0
 10
10.0890615847
 20
7.3672122652
 30
0.0
 10
10.0625452486
 20
7.3553620718
 30
0.0
 10
10.0367485754
 20
7.3421490399
 30
0.0
 10
10.0117365569
 20
7.3276063947
 30
0.0
 10
9.9875722848
 20
7.3117707899
 30
0.0
 10
9.964316448
 20
7.2946818901
 30
0.0
 10
9.9420284513
 20
7.2763834854
 30
0.0
 10
9.927849609
 20
7.2634062566
 30
0.0
 10
9.9209424357
 20
7.2567344291
 30
0.0
  0
SPLINE
  5
2D0
100
AcDbEntity
  8
0
100
AcDbSpline
 62
7
  6
CONTINUOUS
 70
0
 71
3
 72
15
 73
11
 74
0
 42
0.0000001
 43
0.0000001
 44
0.0000000001
 40
0.0
 40
0.0
 40
0.0
 40
0.0
 40
0.1263334576
 40
0.2521031517
 40
0.3773907088
 40
0.5022865772
 40
0.626888901
 40
0.7513021331
 40
0.8756352348
 40
1.0
 40
1.0
 40
1.0
 40
1.0
 10
10.8891217729
 20
7.0242596997
 30
0.0
 10
10.8883664003
 20
7.0180886718
 30
0.0
 10
10.8864963942
 20
7.0058153106
 30
0.0
 10
10.8826093938
 20
6.9876437944
 30
0.0
 10
10.8776576566
 20
6.9698056799
 30
0.0
 10
10.8716551648
 20
6.9523539549
 30
0.0
 10
10.8646187549
 20
6.935339299
 30
0.0
 10
10.8565680434
 20
6.9188109786
 30
0.0
 10
10.8475261805
 20
6.9028175525
 30
0.0
 10
10.8408560431
 20
6.8925452182
 30
0.0
 10
10.8373674546
 20
6.8875166346
 30
0.0
  0
SPLINE
  5
2D1
100
AcDbEntity
  8
0
100
AcDbSpline
 62
7
  6
CONTINUOUS
 70
0
 71
3
 72
23
 73
19
 74
0
 42
0.0000001
 43
0.0000001
 44
0.0000000001
 40
0.0
 40
0.0
 40
0.0
 40
0.0
 40
0.0969929372
 40
0.1906873288
 40
0.2803333202
 40
0.3653396069
 40
0.4452780347
 40
0.5198895261
 40
0.5890670506
 40
0.6528353606
 40
0.7113273625
 40
0.7647662596
 40
0.8134472277
 40
0.8577267316
 40
0.8980205362
 40
0.9348008943
 40
0.9685977135
 40
1.0
 40
1.0
 40
1.0
 40
1.0
 10
10.4717796804
 20
7.898981253
 30
0.0
 10
10.4702684372
 20
7.8990860581
 30
0.0
 10
10.4673005138
 20
7.8993420156
 30
0.0
 10
10.4629536704
 20
7.8998742091
 30
0.0
 10
10.4588147858
 20
7.9005407641
 30
0.0
 10
10.4549165401
 20
7.9013304991
 30
0.0
 10
10.4512836432
 20
7.9022304937
 30
0.0
 10
10.4479330509
 20
7.903226878
 30
0.0
 10
10.4448745627
 20
7.9043057164
 30
0.0
 10
10.4421119559
 20
7.9054535766
 30
0.0
 10
10.4396442046
 20
7.9066579738
 30
0.0
 10
10.4374667094
 20
7.9079075986
 30
0.0
 10
10.435572447
 20
7.9091924958
 30
0.0
 10
10.4339528661
 20
7.9105040309
 30
0.0
 10
10.4325986544
 20
7.9118347675
 30
0.0
 10
10.4315004614
 20
7.913178708
 30
0.0
 10
10.4306493387
 20
7.9145299699
 30
0.0
 10
10.4302282371
 20
7.9154617157
 30
0.0
 10
10.430061221
 20
7.9159228553
 30
0.0
  0
SPLINE
  5
2D2
100
AcDbEntity
  8
0
100
AcDbSpline
 62
7
  6
CONTINUOUS
 70
0
 71
3
 72
61
 73
57
 74
0
 42
0.0000001
 43
0.0000001
 44
0.0000000001
 40
0.0
 40
0.0
 40
0.0
 40
0.0
 40
0.0027165054
 40
0.0054533955
 40
0.0082305472
 40
0.0110669316
 40
0.0169824274
 40
0.0233277131
 40
0.030199549
 40
0.0376706007
 40
0.0457931532
 40
0.0546032753
 40
0.0641243859
 40
0.074369812
 40
0.0853450535
 40
0.0970492998
 40
0.10947643
 40
0.1226160841
 40
0.136454196
 40
0.1509734409
 40
0.1661538067
 40
0.1819727413
 40
0.1984054552
 40
0.2154252451
 40
0.233003508
 40
0.2511100181
 40
0.2697130988
 40
0.288779623
 40
0.3281637084
 40
0.3689758341
 40
0.4109140611
 40
0.4536652952
 40
0.496908534
 40
0.5403180533
 40
0.58356653
 40
0.6263281872
 40
0.6682819354
 40
0.7091145197
 40
0.7485237777
 40
0.7862219893
 40
0.8043449156
 40
0.8219405913
 40
0.8389787009
 40
0.8554306652
 40
0.871269662
 40
0.8864708261
 40
0.9010116003
 40
0.9148718073
 40
0.9280340646
 40
0.940484227
 40
0.9522117242
 40
0.9632103966
 40
0.9734791407
 40
0.9830231747
 40
0.9918561893
 40
1.0
 40
1.0
 40
1.0
 40
1.0
 10
12.3739128296
 20
9.1505339195
 30
0.0
 10
12.3734173078
 20
9.1505682894
 30
0.0
 10
12.3724250826
 20
9.150682155
 30
0.0
 10
12.3709493961
 20
9.150986814
 30
0.0
 10
12.3694848051
 20
9.1514252969
 30
0.0
 10
12.3675212928
 20
9.1521983362
 30
0.0
 10
12.3650847145
 20
9.1535206994
 30
0.0
 10
12.3622686093
 20
9.1556124217
 30
0.0
 10
12.3595205616
 20
9.1582235178
 30
0.0
 10
12.3568438703
 20
9.1613473956
 30
0.0
 10
12.3542413317
 20
9.1649778226
 30
0.0
 10
12.3517166877
 20
9.1691080581
 30
0.0
 10
12.3492741
 20
9.1737305285
 30
0.0
 10
12.3469178926
 20
9.1788365638
 30
0.0
 10
12.344652521
 20
9.1844164529
 30
0.0
 10
12.342482429
 20
9.190459421
 30
0.0
 10
12.3404118774
 20
9.1969536438
 30
0.0
 10
12.3384450489
 20
9.2038863331
 30
0.0
 10
12.3365859267
 20
9.2112437514
 30
0.0
 10
12.3348382454
 20
9.2190112534
 30
0.0
 10
12.3332055894
 20
9.2271733441
 30
0.0
 10
12.3316912714
 20
9.2357137006
 30
0.0
 10
12.3302983519
 20
9.2446152184
 30
0.0
 10
12.3290297004
 20
9.2538600543
 30
0.0
 10
12.3278878766
 20
9.2634296591
 30
0.0
 10
12.326875204
 20
9.2733048162
 30
0.0
 10
12.3259937488
 20
9.2834657103
 30
0.0
 10
12.3249850039
 20
9.2975192311
 30
0.0
 10
12.324074406
 20
9.3156490288
 30
0.0
 10
12.323536721
 20
9.3379770906
 30
0.0
 10
12.3235475305
 20
9.3609272379
 30
0.0
 10
12.3241069395
 20
9.3843150736
 30
0.0
 10
12.3252106267
 20
9.4079528116
 30
0.0
 10
12.3268498057
 20
9.4316505747
 30
0.0
 10
12.3290113241
 20
9.4552180101
 30
0.0
 10
12.331677728
 20
9.478465833
 30
0.0
 10
12.3348274438
 20
9.5012073479
 30
0.0
 10
12.3384349243
 20
9.5232600671
 30
0.0
 10
12.3424709165
 20
9.5444469045
 30
0.0
 10
12.3462112827
 20
9.5614562077
 30
0.0
 10
12.3494042886
 20
9.5744957135
 30
0.0
 10
12.3518534799
 20
9.5838266653
 30
0.0
 10
12.3543836127
 20
9.5928190251
 30
0.0
 10
12.3569895796
 20
9.6014547741
 30
0.0
 10
12.3596661091
 20
9.609716601
 30
0.0
 10
12.3624078198
 20
9.6175879609
 30
0.0
 10
12.3652091372
 20
9.62505313
 30
0.0
 10
12.3680644274
 20
9.632097215
 30
0.0
 10
12.3709679522
 20
9.638706201
 30
0.0
 10
12.3739138435
 20
9.6448670145
 30
0.0
 10
12.3768962529
 20
9.6505675152
 30
0.0
 10
12.3799092962
 20
9.6557965605
 30
0.0
 10
12.3829470202
 20
9.6605440326
 30
0.0
 10
12.3860038796
 20
9.6648010501
 30
0.0
 10
12.3890739424
 20
9.668559099
 30
0.0
 10
12.3912104683
 20
9.6708165138
 30
0.0
 10
12.3922815057
 20
9.6718510566
 30
0.0
  0
SPLINE
  5
2D3
100
AcDbEntity
  8
0
100
AcDbSpline
 62
7
  6
CONTINUOUS
 70
0
 71
3
 72
61
 73
57
 74
0
 42
0.0000001
 43
0.0000001
 44
0.0000000001
 40
0.0
 40
0.0
 40
0.0
 40
0.0
 40
0.0027165054
 40
0.0054533955
 40
0.0082305472
 40
0.0110669316
 40
0.0169824274
 40
0.0233277131
 40
0.030199549
 40
0.0376706007
 40
0.0457931532
 40
0.0546032753
 40
0.0641243859
 40
0.074369812
 40
0.0853450535
 40
0.0970492998
 40
0.10947643
 40
0.1226160841
 40
0.136454196
 40
0.1509734409
 40
0.1661538067
 40
0.1819727413
 40
0.1984054552
 40
0.2154252451
 40
0.233003508
 40
0.2511100181
 40
0.2697130988
 40
0.288779623
 40
0.3281637084
 40
0.3689758341
 40
0.4109140611
 40
0.4536652952
 40
0.496908534
 40
0.5403180533
 40
0.58356653
 40
0.6263281872
 40
0.6682819354
 40
0.7091145197
 40
0.7485237777
 40
0.7862219893
 40
0.8043449156
 40
0.8219405913
 40
0.8389787009
 40
0.8554306652
 40
0.871269662
 40
0.8864708261
 40
0.9010116003
 40
0.9148718073
 40
0.9280340646
 40
0.940484227
 40
0.9522117242
 40
0.9632103966
 40
0.9734791407
 40
0.9830231747
 40
0.9918561893
 40
1.0
 40
1.0
 40
1.0
 40
1.0
 10
12.3739128296
 20
6.9772006816
 30
0.0
 10
12.3734173078
 20
6.9772350515
 30
0.0
 10
12.3724250826
 20
6.977348917
 30
0.0
 10
12.3709493961
 20
6.977653576
 30
0.0
 10
12.3694848051
 20
6.978092059
 30
0.0
 10
12.3675212928
 20
6.9788650982
 30
0.0
 10
12.3650847145
 20
6.9801874615
 30
0.0
 10
12.3622686093
 20
6.9822791838
 30
0.0
 10
12.3595205616
 20
6.9848902798
 30
0.0
 10
12.3568438703
 20
6.9880141577
 30
0.0
 10
12.3542413317
 20
6.9916445847
 30
0.0
 10
12.3517166877
 20
6.9957748202
 30
0.0
 10
12.3492741
 20
7.0003972905
 30
0.0
 10
12.3469178926
 20
7.0055033258
 30
0.0
 10
12.344652521
 20
7.0110832149
 30
0.0
 10
12.342482429
 20
7.017126183
 30
0.0
 10
12.3404118774
 20
7.0236204058
 30
0.0
 10
12.3384450489
 20
7.0305530951
 30
0.0
 10
12.3365859267
 20
7.0379105135
 30
0.0
 10
12.3348382454
 20
7.0456780155
 30
0.0
 10
12.3332055894
 20
7.0538401061
 30
0.0
 10
12.3316912714
 20
7.0623804627
 30
0.0
 10
12.3302983519
 20
7.0712819805
 30
0.0
 10
12.3290297004
 20
7.0805268164
 30
0.0
 10
12.3278878766
 20
7.0900964212
 30
0.0
 10
12.326875204
 20
7.0999715783
 30
0.0
 10
12.3259937488
 20
7.1101324724
 30
0.0
 10
12.3249850039
 20
7.1241859932
 30
0.0
 10
12.324074406
 20
7.1423157909
 30
0.0
 10
12.323536721
 20
7.1646438527
 30
0.0
 10
12.3235475305
 20
7.187594
 30
0.0
 10
12.3241069395
 20
7.2109818357
 30
0.0
 10
12.3252106267
 20
7.2346195737
 30
0.0
 10
12.3268498057
 20
7.2583173367
 30
0.0
 10
12.3290113241
 20
7.2818847722
 30
0.0
 10
12.331677728
 20
7.3051325951
 30
0.0
 10
12.3348274438
 20
7.32787411
 30
0.0
 10
12.3384349243
 20
7.3499268291
 30
0.0
 10
12.3424709165
 20
7.3711136666
 30
0.0
 10
12.3462112827
 20
7.3881229698
 30
0.0
 10
12.3494042886
 20
7.4011624755
 30
0.0
 10
12.3518534799
 20
7.4104934274
 30
0.0
 10
12.3543836127
 20
7.4194857871
 30
0.0
 10
12.3569895796
 20
7.4281215362
 30
0.0
 10
12.3596661091
 20
7.4363833631
 30
0.0
 10
12.3624078198
 20
7.444254723
 30
0.0
 10
12.3652091372
 20
7.4517198921
 30
0.0
 10
12.3680644274
 20
7.4587639771
 30
0.0
 10
12.3709679522
 20
7.4653729631
 30
0.0
 10
12.3739138435
 20
7.4715337766
 30
0.0
 10
12.3768962529
 20
7.4772342773
 30
0.0
 10
12.3799092962
 20
7.4824633226
 30
0.0
 10
12.3829470202
 20
7.4872107947
 30
0.0
 10
12.3860038796
 20
7.4914678122
 30
0.0
 10
12.3890739424
 20
7.4952258611
 30
0.0
 10
12.3912104683
 20
7.4974832759
 30
0.0
 10
12.3922815057
 20
7.4985178187
 30
0.0
  0
SPLINE
  5
2D4
100
AcDbEntity
  8
0
100
AcDbSpline
 62
7
  6
CONTINUOUS
 70
0
 71
3
 72
63
 73
59
 74
0
 42
0.0000001
 43
0.0000001
 44
0.0000000001
 40
0.0
 40
0.0
 40
0.0
 40
0.0
 40
0.009104314
 40
0.0184760489
 40
0.0232844988
 40
0.0281843738
 40
0.0382824122
 40
0.0488147809
 40
0.059813772
 40
0.0713029884
 40
0.083297878
 40
0.095807385
 40
0.1088351325
 40
0.1223798544
 40
0.1364364315
 40
0.1509964224
 40
0.1660483254
 40
0.1815781584
 40
0.1975697439
 40
0.2140048425
 40
0.2308635035
 40
0.2481242518
 40
0.2657641584
 40
0.2837590633
 40
0.3020837226
 40
0.339615665
 40
0.3781405572
 40
0.4174272062
 40
0.457236311
 40
0.4973231231
 40
0.5374400567
 40
0.5773392173
 40
0.6167749433
 40
0.655506353
 40
0.6933000337
 40
0.7299328887
 40
0.7477482282
 40
0.7651959949
 40
0.7822526561
 40
0.7988959778
 40
0.8151052667
 40
0.8308614508
 40
0.8461472704
 40
0.8609476636
 40
0.8752499257
 40
0.8890440017
 40
0.902323118
 40
0.9150841432
 40
0.9273281173
 40
0.9390612177
 40
0.950295841
 40
0.9610517821
 40
0.9662584937
 40
0.9713558605
 40
0.9812451863
 40
0.9860536699
 40
0.9907806418
 40
1.0
 40
1.0
 40
1.0
 40
1.0
 10
12.4146342694
 20
8.8375225907
 30
0.0
 10
12.4166994457
 20
8.8350861155
 30
0.0
 10
12.4206839345
 20
8.8299640514
 30
0.0
 10
12.4252305922
 20
8.8231706454
 30
0.0
 10
12.4286922758
 20
8.81744069
 30
0.0
 10
12.4321126085
 20
8.811391399
 30
0.0
 10
12.4361991266
 20
8.8034167233
 30
0.0
 10
12.440788062
 20
8.7933101068
 30
0.0
 10
12.4451329005
 20
8.7825682896
 30
0.0
 10
12.4492503526
 20
8.771190652
 30
0.0
 10
12.4531507115
 20
8.7591787234
 30
0.0
 10
12.4568407645
 20
8.746537564
 30
0.0
 10
12.4603243374
 20
8.7332752495
 30
0.0
 10
12.4636030585
 20
8.7194027052
 30
0.0
 10
12.4666772413
 20
8.7049335652
 30
0.0
 10
12.4695461369
 20
8.6898838432
 30
0.0
 10
12.4722083179
 20
8.6742717317
 30
0.0
 10
12.4746619658
 20
8.6581174081
 30
0.0
 10
12.4769049896
 20
8.6414428203
 30
0.0
 10
12.47893522
 20
8.6242715381
 30
0.0
 10
12.4807504995
 20
8.6066286023
 30
0.0
 10
12.4823487369
 20
8.588540373
 30
0.0
 10
12.4837280093
 20
8.570034432
 30
0.0
 10
12.4848866327
 20
8.5511394234
 30
0.0
 10
12.4861451419
 20
8.5252609955
 30
0.0
 10
12.4871442392
 20
8.4921619346
 30
0.0
 10
12.4874385633
 20
8.451695179
 30
0.0
 10
12.4868363693
 20
8.4104329268
 30
0.0
 10
12.4853421599
 20
8.3686452027
 30
0.0
 10
12.4829660491
 20
8.3266066446
 30
0.0
 10
12.4797238113
 20
8.2845943277
 30
0.0
 10
12.4756367333
 20
8.2428852158
 30
0.0
 10
12.4707314886
 20
8.2017537675
 30
0.0
 10
12.4650397416
 20
8.161469378
 30
0.0
 10
12.4585976782
 20
8.12229423
 30
0.0
 10
12.4525832827
 20
8.0904941884
 30
0.0
 10
12.4474137557
 20
8.0658065965
 30
0.0
 10
12.4434105423
 20
8.0478931417
 30
0.0
 10
12.4392510925
 20
8.030437708
 30
0.0
 10
12.4349410729
 20
8.0134667061
 30
0.0
 10
12.4304861673
 20
7.9970052925
 30
0.0
 10
12.4258918804
 20
7.9810772372
 30
0.0
 10
12.4211634683
 20
7.9657047872
 30
0.0
 10
12.4163058065
 20
7.9509085167
 30
0.0
 10
12.4113231516
 20
7.9367072062
 30
0.0
 10
12.4062189727
 20
7.9231176392
 30
0.0
 10
12.4009956015
 20
7.9101544324
 30
0.0
 10
12.3956537265
 20
7.8978299009
 30
0.0
 10
12.390192078
 20
7.8861538422
 30
0.0
 10
12.3846065006
 20
7.875133295
 30
0.0
 10
12.3788887031
 20
7.8647728858
 30
0.0
 10
12.3739511057
 20
7.8566049251
 30
0.0
 10
12.3699169128
 20
7.8504145365
 30
0.0
 10
12.3659090589
 20
7.8445724904
 30
0.0
 10
12.3617656021
 20
7.8389944678
 30
0.0
 10
12.3574641249
 20
7.8337077486
 30
0.0
 10
12.3531548496
 20
7.8287349857
 30
0.0
 10
12.3497672405
 20
7.8251972109
 30
0.0
 10
12.3474409431
 20
7.82295018
 30
0.0
  0
SPLINE
  5
2D5
100
AcDbEntity
  8
0
100
AcDbSpline
 62
7
  6
CONTINUOUS
 70
0
 71
3
 72
23
 73
19
 74
0
 42
0.0000001
 43
0.0000001
 44
0.0000000001
 40
0.0
 40
0.0
 40
0.0
 40
0.0
 40
0.0745763028
 40
0.144635905
 40
0.2105475899
 40
0.2727732479
 40
0.3318800804
 40
0.3885431046
 40
0.4435395655
 40
0.4977257328
 40
0.5520000067
 40
0.6072561906
 40
0.6643379103
 40
0.7240031501
 40
0.7869055661
 40
0.853592934
 40
0.9245109843
 40
1.0
 40
1.0
 40
1.0
 40
1.0
 10
12.2836187232
 20
7.8667680077
 30
0.0
 10
12.2847827901
 20
7.8653196035
 30
0.0
 10
12.2871310839
 20
7.8625813167
 30
0.0
 10
12.2908377594
 20
7.8588612609
 30
0.0
 10
12.2946117254
 20
7.8556657286
 30
0.0
 10
12.298450024
 20
7.8529995469
 30
0.0
 10
12.302349458
 20
7.8508671902
 30
0.0
 10
12.3063062057
 20
7.8492737012
 30
0.0
 10
12.3103149585
 20
7.8482235842
 30
0.0
 10
12.3143689334
 20
7.8477205908
 30
0.0
 10
12.3184601451
 20
7.8477661487
 30
0.0
 10
12.322580594
 20
7.8483594274
 30
0.0
 10
12.3267232637
 20
7.8494974571
 30
0.0
 10
12.3308825976
 20
7.851176161
 30
0.0
 10
12.3350542551
 20
7.8533912696
 30
0.0
 10
12.3392347158
 20
7.8561387139
 30
0.0
 10
12.3434200959
 20
7.8594142828
 30
0.0
 10
12.346124051
 20
7.8618680027
 30
0.0
 10
12.3474769309
 20
7.8631747844
 30
0.0
  0
SPLINE
  5
2D6
100
AcDbEntity
  8
0
100
AcDbSpline
 62
7
  6
CONTINUOUS
 70
0
 71
3
 72
33
 73
29
 74
0
 42
0.0000001
 43
0.0000001
 44
0.0000000001
 40
0.0
 40
0.0
 40
0.0
 40
0.0
 40
0.0124169038
 40
0.024598287
 40
0.0369143244
 40
0.0496970516
 40
0.0632254521
 40
0.077722657
 40
0.093362773
 40
0.1102804397
 40
0.128580975
 40
0.1483485543
 40
0.1696523603
 40
0.1925514249
 40
0.217097365
 40
0.2433369596
 40
0.271312577
 40
0.3010635183
 40
0.3326246781
 40
0.3660272252
 40
0.4012949864
 40
0.4384437262
 40
0.5183730651
 40
0.6056057291
 40
0.6994223721
 40
0.7983078254
 40
0.8996948552
 40
1.0
 40
1.0
 40
1.0
 40
1.0
 10
10.558234979
 20
7.9290450648
 30
0.0
 10
10.5583738647
 20
7.9286623322
 30
0.0
 10
10.5585851865
 20
7.9278787948
 30
0.0
 10
10.558686575
 20
7.926666376
 30
0.0
 10
10.5585725413
 20
7.9254432485
 30
0.0
 10
10.5582501198
 20
7.9242131915
 30
0.0
 10
10.5577253073
 20
7.92297785
 30
0.0
 10
10.5570028784
 20
7.9217379309
 30
0.0
 10
10.5560857045
 20
7.9204940298
 30
0.0
 10
10.5549756054
 20
7.9192468623
 30
0.0
 10
10.553673286
 20
7.9179976473
 30
0.0
 10
10.5521788548
 20
7.9167479063
 30
0.0
 10
10.5504917602
 20
7.9154996284
 30
0.0
 10
10.5486110395
 20
7.9142551072
 30
0.0
 10
10.5465352615
 20
7.9130170972
 30
0.0
 10
10.5442627303
 20
7.9117886844
 30
0.0
 10
10.5417914244
 20
7.9105735377
 30
0.0
 10
10.5391192831
 20
7.9093756982
 30
0.0
 10
10.5362441255
 20
7.9082000003
 30
0.0
 10
10.5331640866
 20
7.9070517399
 30
0.0
 10
10.5298775937
 20
7.9059371868
 30
0.0
 10
10.5251020278
 20
7.9044694304
 30
0.0
 10
10.5186162627
 20
7.9027763748
 30
0.0
 10
10.5102275818
 20
7.9010645066
 30
0.0
 10
10.5011428294
 20
7.8997194811
 30
0.0
 10
10.4915338898
 20
7.8988443459
 30
0.0
 10
10.4816768614
 20
7.8985354979
 30
0.0
 10
10.4750608263
 20
7.8987537048
 30
0.0
 10
10.4717796804
 20
7.898981253
 30
0.0
  0
SPLINE
  5
2D7
100
AcDbEntity
  8
0
100
AcDbSpline
 62
7
  6
CONTINUOUS
 70
0
 71
3
 72
15
 73
11
 74
0
 42
0.0000001
 43
0.0000001
 44
0.0000000001
 40
0.0
 40
0.0
 40
0.0
 40
0.0
 40
0.1245865008
 40
0.2491643329
 40
0.3737985691
 40
0.4985536407
 40
0.623492407
 40
0.748675419
 40
0.8741600989
 40
1.0
 40
1.0
 40
1.0
 40
1.0
 10
10.2159390877
 20
7.3075284035
 30
0.0
 10
10.2196182581
 20
7.3128317928
 30
0.0
 10
10.2272991557
 20
7.3232184137
 30
0.0
 10
10.2397421192
 20
7.3380726155
 30
0.0
 10
10.25306723
 20
7.3521538876
 30
0.0
 10
10.2672321587
 20
7.3654170975
 30
0.0
 10
10.2821925324
 20
7.3778206279
 30
0.0
 10
10.2979015686
 20
7.3893254643
 30
0.0
 10
10.3143091839
 20
7.399894999
 30
0.0
 10
10.3256634547
 20
7.4062868219
 30
0.0
 10
10.3314366572
 20
7.4093158263
 30
0.0
  0
SPLINE
  5
2D8
100
AcDbEntity
  8
0
100
AcDbSpline
 62
7
  6
CONTINUOUS
 70
0
 71
3
 72
25
 73
21
 74
0
 42
0.0000001
 43
0.0000001
 44
0.0000000001
 40
0.0
 40
0.0
 40
0.0
 40
0.0
 40
0.0615661117
 40
0.0923604784
 40
0.1231635022
 40
0.1848052961
 40
0.2465220485
 40
0.2774185909
 40
0.3083426082
 40
0.3702785182
 40
0.4323563521
 40
0.4945956229
 40
0.5570140352
 40
0.6196273191
 40
0.6824490938
 40
0.7454906946
 40
0.8087612356
 40
0.8722671143
 40
0.9360130284
 40
1.0
 40
1.0
 40
1.0
 40
1.0
 10
9.800690579
 20
9.0933497
 30
0.0
 10
9.8094189718
 20
9.1017806806
 30
0.0
 10
9.8228572247
 20
9.1140796644
 30
0.0
 10
9.8414138465
 20
9.1297358702
 30
0.0
 10
9.8603965799
 20
9.1448974994
 30
0.0
 10
9.8848969545
 20
9.1628984362
 30
0.0
 10
9.9103424743
 20
9.1795702068
 30
0.0
 10
9.9312312602
 20
9.1920893741
 30
0.0
 10
9.9524843467
 20
9.204067733
 30
0.0
 10
9.9796818767
 20
9.217993829
 30
0.0
 10
10.0132170164
 20
9.2329747949
 30
0.0
 10
10.0475859136
 20
9.2461974379
 30
0.0
 10
10.0827024413
 20
9.2576277976
 30
0.0
 10
10.118479219
 20
9.2672367303
 30
0.0
 10
10.1548268925
 20
9.2749994398
 30
0.0
 10
10.191654645
 20
9.2808957446
 30
0.0
 10
10.2288701601
 20
9.2849100346
 30
0.0
 10
10.2663805281
 20
9.2870314698
 30
0.0
 10
10.3040902656
 20
9.2872539013
 30
0.0
 10
10.3292554354
 20
9.2861372282
 30
0.0
 10
10.3418377235
 20
9.2852646435
 30
0.0
  0
SPLINE
  5
2D9
100
AcDbEntity
  8
0
100
AcDbSpline
 62
7
  6
CONTINUOUS
 70
0
 71
3
 72
27
 73
23
 74
0
 42
0.0000001
 43
0.0000001
 44
0.0000000001
 40
0.0
 40
0.0
 40
0.0
 40
0.0
 40
0.0616468921
 40
0.0924803243
 40
0.1233223741
 40
0.1850380876
 40
0.2468218552
 40
0.2777487731
 40
0.3087006878
 40
0.3706840776
 40
0.4327968309
 40
0.4950568273
 40
0.557480345
 40
0.6200818951
 40
0.6828740862
 40
0.7143476817
 40
0.7458727109
 40
0.809075825
 40
0.8724948576
 40
0.9042889888
 40
0.9361391003
 40
1.0
 40
1.0
 40
1.0
 40
1.0
 10
9.6843559742
 20
9.1102796067
 30
0.0
 10
9.6941752852
 20
9.1197643451
 30
0.0
 10
9.7092926766
 20
9.133600558
 30
0.0
 10
9.7301675204
 20
9.1512139162
 30
0.0
 10
9.7515203226
 20
9.1682702183
 30
0.0
 10
9.7790774762
 20
9.1885200083
 30
0.0
 10
9.8076958053
 20
9.2072743889
 30
0.0
 10
9.8311868711
 20
9.2213566258
 30
0.0
 10
9.8550837742
 20
9.2348287643
 30
0.0
 10
9.8856601715
 20
9.2504900911
 30
0.0
 10
9.9233556742
 20
9.2673362353
 30
0.0
 10
9.961979733
 20
9.2822028829
 30
0.0
 10
10.0014345796
 20
9.2950523326
 30
0.0
 10
10.0416203176
 20
9.3058523097
 30
0.0
 10
10.0756088161
 20
9.3131165109
 30
0.0
 10
10.1030582572
 20
9.3178804097
 30
0.0
 10
10.1307113345
 20
9.3219494937
 30
0.0
 10
10.1655477163
 20
9.3257114537
 30
0.0
 10
10.200589719
 20
9.327696507
 30
0.0
 10
10.2287264731
 20
9.3282212831
 30
0.0
 10
10.2569647835
 20
9.3280356422
 30
0.0
 10
10.27815143
 20
9.3270960891
 30
0.0
 10
10.292259923
 20
9.3261176618
 30
0.0
  0
SPLINE
  5
2DA
100
AcDbEntity
  8
0
100
AcDbSpline
 62
7
  6
CONTINUOUS
 70
0
 71
3
 72
23
 73
19
 74
0
 42
0.0000001
 43
0.0000001
 44
0.0000000001
 40
0.0
 40
0.0
 40
0.0
 40
0.0
 40
0.0620425215
 40
0.1240965836
 40
0.1861736624
 40
0.2482851028
 40
0.3104420615
 40
0.3726554461
 40
0.434935849
 40
0.4972934886
 40
0.5597381746
 40
0.6222792328
 40
0.6849254159
 40
0.747685096
 40
0.8105657549
 40
0.8735738937
 40
0.9367181713
 40
1.0
 40
1.0
 40
1.0
 40
1.0
 10
9.6228727525
 20
7.4526554454
 30
0.0
 10
9.6304982375
 20
7.4600210842
 30
0.0
 10
9.6460316578
 20
7.4744659509
 30
0.0
 10
9.6701387914
 20
7.4952364666
 30
0.0
 10
9.6950251365
 20
7.5150863363
 30
0.0
 10
9.7206590684
 20
7.533990301
 30
0.0
 10
9.7470085696
 20
7.5519248343
 30
0.0
 10
9.7740406189
 20
7.5688674303
 30
0.0
 10
9.8017213809
 20
7.5847968519
 30
0.0
 10
9.8300161494
 20
7.5996932087
 30
0.0
 10
9.8588894864
 20
7.6135378589
 30
0.0
 10
9.8883052458
 20
7.6263134208
 30
0.0
 10
9.9182265742
 20
7.6380039624
 30
0.0
 10
9.9486160008
 20
7.6485948629
 30
0.0
 10
9.9794353591
 20
7.658072817
 30
0.0
 10
10.0106464738
 20
7.6664261431
 30
0.0
 10
10.0422093687
 20
7.6736440541
 30
0.0
 10
10.0634369707
 20
7.6776889137
 30
0.0
 10
10.0740945506
 20
7.6795197415
 30
0.0
  0
SPLINE
  5
2DB
100
AcDbEntity
  8
0
100
AcDbSpline
 62
7
  6
CONTINUOUS
 70
0
 71
3
 72
49
 73
45
 74
0
 42
0.0000001
 43
0.0000001
 44
0.0000000001
 40
0.0
 40
0.0
 40
0.0
 40
0.0
 40
0.0311359551
 40
0.0624378868
 40
0.0938990371
 40
0.1255088378
 40
0.1572539183
 40
0.1891182446
 40
0.2210834607
 40
0.2531292786
 40
0.2852338794
 40
0.3173743366
 40
0.3495270504
 40
0.3816681928
 40
0.4137741521
 40
0.4458219748
 40
0.4777898056
 40
0.5096573051
 40
0.5414060588
 40
0.5730199552
 40
0.6044855356
 40
0.6357923029
 40
0.6669329931
 40
0.697903773
 40
0.713327847
 40
0.7287096567
 40
0.744049746
 40
0.7593488882
 40
0.7746080809
 40
0.7898285476
 40
0.805011732
 40
0.8201592878
 40
0.8352730763
 40
0.8503551563
 40
0.8654077689
 40
0.8804333299
 40
0.8954344219
 40
0.910413765
 40
0.9253742043
 40
0.9403187562
 40
0.9552504184
 40
0.9701722424
 40
0.9850881084
 40
1.0
 40
1.0
 40
1.0
 40
1.0
 10
10.3418377235
 20
9.2852646435
 30
0.0
 10
10.3602699592
 20
9.2839863636
 30
0.0
 10
10.3971527704
 20
9.280072984
 30
0.0
 10
10.4520406025
 20
9.2702137249
 30
0.0
 10
10.5063614452
 20
9.2563995374
 30
0.0
 10
10.5598198604
 20
9.238702896
 30
0.0
 10
10.6121295893
 20
9.2172173224
 30
0.0
 10
10.6630090758
 20
9.1920567716
 30
0.0
 10
10.7121847701
 20
9.163355316
 30
0.0
 10
10.7593921586
 20
9.1312662859
 30
0.0
 10
10.804377273
 20
9.0959613374
 30
0.0
 10
10.8468982786
 20
9.0576297997
 30
0.0
 10
10.8867265994
 20
9.0164773316
 30
0.0
 10
10.9236482819
 20
8.9727249524
 30
0.0
 10
10.9574652693
 20
8.9266078695
 30
0.0
 10
10.9879962289
 20
8.8783739795
 30
0.0
 10
11.015077844
 20
8.8282827264
 30
0.0
 10
11.038565542
 20
8.7766035147
 30
0.0
 10
11.0583341938
 20
8.7236142224
 30
0.0
 10
11.0742790853
 20
8.6695996986
 30
0.0
 10
11.0863161257
 20
8.6148502631
 30
0.0
 10
11.0943824056
 20
8.5596592939
 30
0.0
 10
11.0984368283
 20
8.5043247969
 30
0.0
 10
11.0984552956
 20
8.4582692901
 30
0.0
 10
11.0964475483
 20
8.4216583328
 30
0.0
 10
11.0939389869
 20
8.3943832423
 30
0.0
 10
11.0904294006
 20
8.3672938889
 30
0.0
 10
11.0859238294
 20
8.3404259133
 30
0.0
 10
11.0804285397
 20
8.3138152301
 30
0.0
 10
11.0739512331
 20
8.2874971914
 30
0.0
 10
11.0665008685
 20
8.2615067632
 30
0.0
 10
11.0580875966
 20
8.2358784524
 30
0.0
 10
11.0487229202
 20
8.2106462252
 30
0.0
 10
11.0384195878
 20
8.1858434771
 30
0.0
 10
11.0271914723
 20
8.1615030423
 30
0.0
 10
11.0150537024
 20
8.1376570908
 30
0.0
 10
11.0020226205
 20
8.1143370895
 30
0.0
 10
10.9881156325
 20
8.0915738397
 30
0.0
 10
10.9733512885
 20
8.0693973604
 30
0.0
 10
10.9577492833
 20
8.0478368838
 30
0.0
 10
10.9413304247
 20
8.0269209126
 30
0.0
 10
10.9241162025
 20
8.0066766773
 30
0.0
 10
10.9061299586
 20
7.9871316508
 30
0.0
 10
10.8936389084
 20
7.9745833023
 30
0.0
 10
10.88727428
 20
7.968435543
 30
0.0
  0
SPLINE
  5
2DC
100
AcDbEntity
  8
0
100
AcDbSpline
 62
7
  6
CONTINUOUS
 70
0
 71
3
 72
75
 73
71
 74
0
 42
0.0000001
 43
0.0000001
 44
0.0000000001
 40
0.0
 40
0.0
 40
0.0
 40
0.0
 40
0.0027198766
 40
0.005451549
 40
0.0082153509
 40
0.0110308531
 40
0.0139164653
 40
0.0168891858
 40
0.0199643694
 40
0.0231557035
 40
0.0299305727
 40
0.0335363722
 40
0.037297459
 40
0.041220238
 40
0.0453101042
 40
0.0495714814
 40
0.054007918
 40
0.0586222906
 40
0.0634167656
 40
0.0735510394
 40
0.0844186767
 40
0.0960198942
 40
0.1083494152
 40
0.1213974441
 40
0.1351503851
 40
0.1495913245
 40
0.1647004302
 40
0.1804553467
 40
0.1968314538
 40
0.2138020349
 40
0.2313385185
 40
0.2494106681
 40
0.2679866958
 40
0.287033387
 40
0.3065162757
 40
0.3263997532
 40
0.3466471457
 40
0.3672208555
 40
0.4091921232
 40
0.4519990757
 40
0.4953182315
 40
0.5388211286
 40
0.5821775406
 40
0.6250586578
 40
0.6671402604
 40
0.7081059589
 40
0.7280748574
 40
0.7476513783
 40
0.7667996381
 40
0.7854848976
 40
0.8036736784
 40
0.8213338514
 40
0.8384347853
 40
0.8549475427
 40
0.8708449951
 40
0.8861019936
 40
0.9006956423
 40
0.9146055528
 40
0.927814112
 40
0.9403068919
 40
0.9520732055
 40
0.9631067363
 40
0.9683484863
 40
0.9734071188
 40
0.9782834435
 40
0.9829788715
 40
0.9874954336
 40
0.9918356805
 40
0.996002645
 40
1.0
 40
1.0
 40
1.0
 40
1.0
 10
12.339833246
 20
8.7765242861
 30
0.0
 10
12.340665672
 20
8.776498672
 30
0.0
 10
12.3423328003
 20
8.7763721134
 30
0.0
 10
12.3448169596
 20
8.7759563112
 30
0.0
 10
12.3472829944
 20
8.7753148897
 30
0.0
 10
12.3497290856
 20
8.7744485294
 30
0.0
 10
12.3521539324
 20
8.7733580754
 30
0.0
 10
12.3545561729
 20
8.7720443546
 30
0.0
 10
12.3569347876
 20
8.7705083788
 30
0.0
 10
12.3601366605
 20
8.7681180129
 30
0.0
 10
12.3632215118
 20
8.7653167057
 30
0.0
 10
12.3661907525
 20
8.7621634948
 30
0.0
 10
12.3684352913
 20
8.7595325047
 30
0.0
 10
12.3706498503
 20
8.7566864413
 30
0.0
 10
12.3728335628
 20
8.7536264422
 30
0.0
 10
12.3749853463
 20
8.7503540982
 30
0.0
 10
12.3771042295
 20
8.7468710379
 30
0.0
 10
12.3791891596
 20
8.7431789528
 30
0.0
 10
12.3819740351
 20
8.7378815523
 30
0.0
 10
12.3853513321
 20
8.7307367978
 30
0.0
 10
12.389180896
 20
8.7215141162
 30
0.0
 10
12.3928513966
 20
8.7115081222
 30
0.0
 10
12.3963554977
 20
8.700738774
 30
0.0
 10
12.3996861491
 20
8.6892273216
 30
0.0
 10
12.4028365632
 20
8.6769967248
 30
0.0
 10
12.4058003074
 20
8.6640714582
 30
0.0
 10
12.40857134
 20
8.6504774866
 30
0.0
 10
12.4111439835
 20
8.6362421637
 30
0.0
 10
12.4135129481
 20
8.6213941759
 30
0.0
 10
12.4156733939
 20
8.6059634892
 30
0.0
 10
12.4176209003
 20
8.5899812718
 30
0.0
 10
12.4193514647
 20
8.573479817
 30
0.0
 10
12.4208615332
 20
8.5564924865
 30
0.0
 10
12.4221480269
 20
8.5390536432
 30
0.0
 10
12.4232083073
 20
8.5211985653
 30
0.0
 10
12.4240401755
 20
8.5029633875
 30
0.0
 10
12.424641958
 20
8.4843849863
 30
0.0
 10
12.4251390735
 20
8.4590384584
 30
0.0
 10
12.425169066
 20
8.4267764947
 30
0.0
 10
12.4242811216
 20
8.3875600255
 30
0.0
 10
12.4224760777
 20
8.3479055632
 30
0.0
 10
12.4197685029
 20
8.3081339313
 30
0.0
 10
12.4161802159
 20
8.2685667122
 30
0.0
 10
12.4117404169
 20
8.2295237885
 30
0.0
 10
12.4064851877
 20
8.1913209961
 30
0.0
 10
12.4014201218
 20
8.1601832031
 30
0.0
 10
12.3969813608
 20
8.1359331456
 30
0.0
 10
12.3935051931
 20
8.1183000561
 30
0.0
 10
12.3898608037
 20
8.1011025292
 30
0.0
 10
12.3860555681
 20
8.0843753276
 30
0.0
 10
12.3820972437
 20
8.0681522807
 30
0.0
 10
12.3779938726
 20
8.0524661873
 30
0.0
 10
12.3737537877
 20
8.0373487498
 30
0.0
 10
12.3693856316
 20
8.0228304885
 30
0.0
 10
12.3648982961
 20
8.0089406933
 30
0.0
 10
12.3603008942
 20
7.9957073663
 30
0.0
 10
12.3556027774
 20
7.983157137
 30
0.0
 10
12.3508135049
 20
7.9713151895
 30
0.0
 10
12.3459427889
 20
7.9602052542
 30
0.0
 10
12.3410004432
 20
7.9498494313
 30
0.0
 10
12.3359964643
 20
7.9402684542
 30
0.0
 10
12.3317132409
 20
7.9328232739
 30
0.0
 10
12.3282561182
 20
7.9272799921
 30
0.0
 10
12.3256985864
 20
7.9233993624
 30
0.0
 10
12.3231331995
 20
7.9197261478
 30
0.0
 10
12.3205611741
 20
7.9162621487
 30
0.0
 10
12.3179837762
 20
7.9130090304
 30
0.0
 10
12.315402193
 20
7.9099684537
 30
0.0
 10
12.312817912
 20
7.9071420748
 30
0.0
 10
12.3110581587
 20
7.9053652601
 30
0.0
 10
12.3101778048
 20
7.9045149035
 30
0.0
  0
SPLINE
  5
2DD
100
AcDbEntity
  8
0
100
AcDbSpline
 62
7
  6
CONTINUOUS
 70
0
 71
3
 72
61
 73
57
 74
0
 42
0.0000001
 43
0.0000001
 44
0.0000000001
 40
0.0
 40
0.0
 40
0.0
 40
0.0
 40
0.0027165054
 40
0.0054533955
 40
0.0082305472
 40
0.0110669316
 40
0.0169824274
 40
0.0233277131
 40
0.030199549
 40
0.0376706007
 40
0.0457931532
 40
0.0546032753
 40
0.0641243859
 40
0.074369812
 40
0.0853450535
 40
0.0970492998
 40
0.10947643
 40
0.1226160841
 40
0.136454196
 40
0.1509734409
 40
0.1661538067
 40
0.1819727413
 40
0.1984054552
 40
0.2154252451
 40
0.233003508
 40
0.2511100181
 40
0.2697130988
 40
0.288779623
 40
0.3281637084
 40
0.3689758341
 40
0.4109140611
 40
0.4536652952
 40
0.496908534
 40
0.5403180533
 40
0.58356653
 40
0.6263281872
 40
0.6682819354
 40
0.7091145197
 40
0.7485237777
 40
0.7862219893
 40
0.8043449156
 40
0.8219405913
 40
0.8389787009
 40
0.8554306652
 40
0.871269662
 40
0.8864708261
 40
0.9010116003
 40
0.9148718073
 40
0.9280340646
 40
0.940484227
 40
0.9522117242
 40
0.9632103966
 40
0.9734791407
 40
0.9830231747
 40
0.9918561893
 40
1.0
 40
1.0
 40
1.0
 40
1.0
 10
12.4106501819
 20
9.6802615495
 30
0.0
 10
12.4111457037
 20
9.6802271796
 30
0.0
 10
12.4121379289
 20
9.680113314
 30
0.0
 10
12.4136136154
 20
9.679808655
 30
0.0
 10
12.4150782063
 20
9.6793701721
 30
0.0
 10
12.4170417186
 20
9.6785971329
 30
0.0
 10
12.419478297
 20
9.6772747696
 30
0.0
 10
12.4222944022
 20
9.6751830473
 30
0.0
 10
12.4250424498
 20
9.6725719513
 30
0.0
 10
12.4277191412
 20
9.6694480734
 30
0.0
 10
12.4303216798
 20
9.6658176464
 30
0.0
 10
12.4328463238
 20
9.6616874109
 30
0.0
 10
12.4352889114
 20
9.6570649406
 30
0.0
 10
12.4376451189
 20
9.6519589053
 30
0.0
 10
12.4399104905
 20
9.6463790162
 30
0.0
 10
12.4420805824
 20
9.6403360481
 30
0.0
 10
12.4441511341
 20
9.6338418253
 30
0.0
 10
12.4461179625
 20
9.626909136
 30
0.0
 10
12.4479770847
 20
9.6195517176
 30
0.0
 10
12.4497247661
 20
9.6117842156
 30
0.0
 10
12.4513574221
 20
9.603622125
 30
0.0
 10
12.4528717401
 20
9.5950817684
 30
0.0
 10
12.4542646595
 20
9.5861802506
 30
0.0
 10
12.4555333111
 20
9.5769354147
 30
0.0
 10
12.4566751349
 20
9.5673658099
 30
0.0
 10
12.4576878075
 20
9.5574906528
 30
0.0
 10
12.4585692627
 20
9.5473297587
 30
0.0
 10
12.4595780075
 20
9.5332762379
 30
0.0
 10
12.4604886054
 20
9.5151464402
 30
0.0
 10
12.4610262905
 20
9.4928183784
 30
0.0
 10
12.461015481
 20
9.4698682311
 30
0.0
 10
12.460456072
 20
9.4464803954
 30
0.0
 10
12.4593523848
 20
9.4228426574
 30
0.0
 10
12.4577132058
 20
9.3991448943
 30
0.0
 10
12.4555516874
 20
9.3755774589
 30
0.0
 10
12.4528852835
 20
9.352329636
 30
0.0
 10
12.4497355677
 20
9.3295881211
 30
0.0
 10
12.4461280872
 20
9.3075354019
 30
0.0
 10
12.442092095
 20
9.2863485645
 30
0.0
 10
12.4383517288
 20
9.2693392613
 30
0.0
 10
12.4351587228
 20
9.2562997556
 30
0.0
 10
12.4327095316
 20
9.2469688037
 30
0.0
 10
12.4301793987
 20
9.237976444
 30
0.0
 10
12.4275734318
 20
9.2293406949
 30
0.0
 10
12.4248969023
 20
9.221078868
 30
0.0
 10
12.4221551916
 20
9.2132075081
 30
0.0
 10
12.4193538743
 20
9.205742339
 30
0.0
 10
12.416498584
 20
9.198698254
 30
0.0
 10
12.4135950592
 20
9.192089268
 30
0.0
 10
12.410649168
 20
9.1859284545
 30
0.0
 10
12.4076667586
 20
9.1802279538
 30
0.0
 10
12.4046537152
 20
9.1749989085
 30
0.0
 10
12.4016159912
 20
9.1702514364
 30
0.0
 10
12.3985591319
 20
9.1659944189
 30
0.0
 10
12.395489069
 20
9.16223637
 30
0.0
 10
12.3933525431
 20
9.1599789552
 30
0.0
 10
12.3922815057
 20
9.1589444124
 30
0.0
  0
SPLINE
  5
2DE
100
AcDbEntity
  8
0
100
AcDbSpline
 62
7
  6
CONTINUOUS
 70
0
 71
3
 72
15
 73
11
 74
0
 42
0.0000001
 43
0.0000001
 44
0.0000000001
 40
0.0
 40
0.0
 40
0.0
 40
0.0
 40
0.1259558589
 40
0.2515480023
 40
0.3768179072
 40
0.5018093555
 40
0.6265708591
 40
0.7511536785
 40
0.8756115804
 40
1.0
 40
1.0
 40
1.0
 40
1.0
 10
10.6172368518
 20
5.870560914
 30
0.0
 10
10.6333524556
 20
5.8752752655
 30
0.0
 10
10.6652738944
 20
5.8856194072
 30
0.0
 10
10.7121074737
 20
5.9038591936
 30
0.0
 10
10.7576831048
 20
5.9247451334
 30
0.0
 10
10.801859024
 20
5.9482128881
 30
0.0
 10
10.8445001519
 20
5.974190602
 30
0.0
 10
10.8854760178
 20
6.0025991445
 30
0.0
 10
10.924659319
 20
6.0333498947
 30
0.0
 10
10.9495136762
 20
6.0553557981
 30
0.0
 10
10.961597365
 20
6.0667113631
 30
0.0
  0
SPLINE
  5
2DF
100
AcDbEntity
  8
0
100
AcDbSpline
 62
7
  6
CONTINUOUS
 70
0
 71
3
 72
61
 73
57
 74
0
 42
0.0000001
 43
0.0000001
 44
0.0000000001
 40
0.0
 40
0.0
 40
0.0
 40
0.0
 40
0.0027165054
 40
0.0054533955
 40
0.0082305472
 40
0.0110669316
 40
0.0169824274
 40
0.0233277131
 40
0.030199549
 40
0.0376706007
 40
0.0457931532
 40
0.0546032753
 40
0.0641243859
 40
0.074369812
 40
0.0853450535
 40
0.0970492998
 40
0.10947643
 40
0.1226160841
 40
0.136454196
 40
0.1509734409
 40
0.1661538067
 40
0.1819727413
 40
0.1984054552
 40
0.2154252451
 40
0.233003508
 40
0.2511100181
 40
0.2697130988
 40
0.288779623
 40
0.3281637084
 40
0.3689758341
 40
0.4109140611
 40
0.4536652952
 40
0.496908534
 40
0.5403180533
 40
0.58356653
 40
0.6263281872
 40
0.6682819354
 40
0.7091145197
 40
0.7485237777
 40
0.7862219893
 40
0.8043449156
 40
0.8219405913
 40
0.8389787009
 40
0.8554306652
 40
0.871269662
 40
0.8864708261
 40
0.9010116003
 40
0.9148718073
 40
0.9280340646
 40
0.940484227
 40
0.9522117242
 40
0.9632103966
 40
0.9734791407
 40
0.9830231747
 40
0.9918561893
 40
1.0
 40
1.0
 40
1.0
 40
1.0
 10
12.4106501819
 20
7.5069283116
 30
0.0
 10
12.4111457037
 20
7.5068939417
 30
0.0
 10
12.4121379289
 20
7.5067800761
 30
0.0
 10
12.4136136154
 20
7.5064754171
 30
0.0
 10
12.4150782063
 20
7.5060369342
 30
0.0
 10
12.4170417186
 20
7.5052638949
 30
0.0
 10
12.419478297
 20
7.5039415317
 30
0.0
 10
12.4222944022
 20
7.5018498094
 30
0.0
 10
12.4250424498
 20
7.4992387133
 30
0.0
 10
12.4277191412
 20
7.4961148355
 30
0.0
 10
12.4303216798
 20
7.4924844085
 30
0.0
 10
12.4328463238
 20
7.488354173
 30
0.0
 10
12.4352889114
 20
7.4837317026
 30
0.0
 10
12.4376451189
 20
7.4786256673
 30
0.0
 10
12.4399104905
 20
7.4730457782
 30
0.0
 10
12.4420805824
 20
7.4670028101
 30
0.0
 10
12.4441511341
 20
7.4605085873
 30
0.0
 10
12.4461179625
 20
7.453575898
 30
0.0
 10
12.4479770847
 20
7.4462184797
 30
0.0
 10
12.4497247661
 20
7.4384509777
 30
0.0
 10
12.4513574221
 20
7.430288887
 30
0.0
 10
12.4528717401
 20
7.4217485305
 30
0.0
 10
12.4542646595
 20
7.4128470126
 30
0.0
 10
12.4555333111
 20
7.4036021768
 30
0.0
 10
12.4566751349
 20
7.3940325719
 30
0.0
 10
12.4576878075
 20
7.3841574149
 30
0.0
 10
12.4585692627
 20
7.3739965207
 30
0.0
 10
12.4595780075
 20
7.359943
 30
0.0
 10
12.4604886054
 20
7.3418132023
 30
0.0
 10
12.4610262905
 20
7.3194851405
 30
0.0
 10
12.461015481
 20
7.2965349932
 30
0.0
 10
12.460456072
 20
7.2731471575
 30
0.0
 10
12.4593523848
 20
7.2495094194
 30
0.0
 10
12.4577132058
 20
7.2258116564
 30
0.0
 10
12.4555516874
 20
7.202244221
 30
0.0
 10
12.4528852835
 20
7.1789963981
 30
0.0
 10
12.4497355677
 20
7.1562548831
 30
0.0
 10
12.4461280872
 20
7.134202164
 30
0.0
 10
12.442092095
 20
7.1130153266
 30
0.0
 10
12.4383517288
 20
7.0960060234
 30
0.0
 10
12.4351587228
 20
7.0829665176
 30
0.0
 10
12.4327095316
 20
7.0736355658
 30
0.0
 10
12.4301793987
 20
7.064643206
 30
0.0
 10
12.4275734318
 20
7.056007457
 30
0.0
 10
12.4248969023
 20
7.0477456301
 30
0.0
 10
12.4221551916
 20
7.0398742702
 30
0.0
 10
12.4193538743
 20
7.0324091011
 30
0.0
 10
12.416498584
 20
7.0253650161
 30
0.0
 10
12.4135950592
 20
7.0187560301
 30
0.0
 10
12.410649168
 20
7.0125952166
 30
0.0
 10
12.4076667586
 20
7.0068947159
 30
0.0
 10
12.4046537152
 20
7.0016656705
 30
0.0
 10
12.4016159912
 20
6.9969181985
 30
0.0
 10
12.3985591319
 20
6.992661181
 30
0.0
 10
12.395489069
 20
6.9889031321
 30
0.0
 10
12.3933525431
 20
6.9866457173
 30
0.0
 10
12.3922815057
 20
6.9856111745
 30
0.0
  0
SPLINE
  5
2E0
100
AcDbEntity
  8
0
100
AcDbSpline
 62
7
  6
CONTINUOUS
 70
0
 71
3
 72
41
 73
37
 74
0
 42
0.0000001
 43
0.0000001
 44
0.0000000001
 40
0.0
 40
0.0
 40
0.0
 40
0.0
 40
0.0318143038
 40
0.0637140572
 40
0.0956866382
 40
0.1277177568
 40
0.159792556
 40
0.1918955143
 40
0.2240107201
 40
0.2561220912
 40
0.2882135987
 40
0.3202694916
 40
0.352274519
 40
0.3842141465
 40
0.4160747651
 40
0.4478438923
 40
0.4795103608
 40
0.5110644903
 40
0.5424982446
 40
0.5738053689
 40
0.6049815051
 40
0.6360242794
 40
0.6669333635
 40
0.6977105076
 40
0.7283595401
 40
0.758886332
 40
0.7892987266
 40
0.8196064364
 40
0.8498209031
 40
0.8799551237
 40
0.9100234447
 40
0.9400413299
 40
0.9550385128
 40
0.9700292629
 40
0.9850157095
 40
1.0
 40
1.0
 40
1.0
 40
1.0
 10
9.9755651971
 20
5.9064866276
 30
0.0
 10
9.9573853271
 20
5.9143264023
 30
0.0
 10
9.9214344547
 20
5.9311133358
 30
0.0
 10
9.8690311461
 20
5.9594603423
 30
0.0
 10
9.818264829
 20
5.9909050041
 30
0.0
 10
9.7693342448
 20
6.0253246797
 30
0.0
 10
9.7224279794
 20
6.0625863787
 30
0.0
 10
9.6777275533
 20
6.1025458635
 30
0.0
 10
9.6354057534
 20
6.1450485696
 30
0.0
 10
9.5956262622
 20
6.1899301165
 30
0.0
 10
9.5585429611
 20
6.237016969
 30
0.0
 10
9.5242993025
 20
6.2861270458
 30
0.0
 10
9.4930277797
 20
6.3370704521
 30
0.0
 10
9.4648494443
 20
6.3896502218
 30
0.0
 10
9.4398734481
 20
6.4436630697
 30
0.0
 10
9.4181965667
 20
6.4989001417
 30
0.0
 10
9.3999028312
 20
6.555147827
 30
0.0
 10
9.385063248
 20
6.6121885934
 30
0.0
 10
9.3737355242
 20
6.6698018127
 30
0.0
 10
9.3659637967
 20
6.7277645942
 30
0.0
 10
9.3617784329
 20
6.7858526433
 30
0.0
 10
9.361195973
 20
6.8438411312
 30
0.0
 10
9.3642190501
 20
6.9015055506
 30
0.0
 10
9.3708363444
 20
6.9586225765
 30
0.0
 10
9.3810225614
 20
7.0149709387
 30
0.0
 10
9.3947386009
 20
7.0703322746
 30
0.0
 10
9.4119316733
 20
7.1244919603
 30
0.0
 10
9.4325355154
 20
7.1772399843
 30
0.0
 10
9.4564704373
 20
7.2283716564
 30
0.0
 10
9.483644174
 20
7.2776889225
 30
0.0
 10
9.5139504756
 20
7.3249991495
 30
0.0
 10
9.5417310395
 20
7.3626151697
 30
0.0
 10
9.5653903848
 20
7.3915128964
 30
0.0
 10
9.5838353914
 20
7.4125701378
 30
0.0
 10
9.6029660447
 20
7.4329946132
 30
0.0
 10
9.6161658333
 20
7.4461770712
 30
0.0
 10
9.6228727525
 20
7.4526554454
 30
0.0
  0
SPLINE
  5
2E1
100
AcDbEntity
  8
0
100
AcDbSpline
 62
7
  6
CONTINUOUS
 70
0
 71
3
 72
11
 73
7
 74
0
 42
0.0000001
 43
0.0000001
 44
0.0000000001
 40
0.0
 40
0.0
 40
0.0
 40
0.0
 40
0.2483486643
 40
0.4977751844
 40
0.7483189554
 40
1.0
 40
1.0
 40
1.0
 40
1.0
 10
10.5187074982
 20
7.6572600956
 30
0.0
 10
10.5009079292
 20
7.6537387779
 30
0.0
 10
10.4649821805
 20
7.6478823108
 30
0.0
 10
10.4105166403
 20
7.6427006206
 30
0.0
 10
10.355584728
 20
7.6411226333
 30
0.0
 10
10.3188860729
 20
7.6424752026
 30
0.0
 10
10.3005421258
 20
7.6437473597
 30
0.0
  0
SPLINE
  5
2E2
100
AcDbEntity
  8
0
100
AcDbSpline
 62
7
  6
CONTINUOUS
 70
0
 71
3
 72
11
 73
7
 74
0
 42
0.0000001
 43
0.0000001
 44
0.0000000001
 40
0.0
 40
0.0
 40
0.0
 40
0.0
 40
0.2483981949
 40
0.4978915449
 40
0.748443475
 40
1.0
 40
1.0
 40
1.0
 40
1.0
 10
10.3005421258
 20
7.6437473597
 30
0.0
 10
10.2821154128
 20
7.6450252566
 30
0.0
 10
10.2452533497
 20
7.6487902909
 30
0.0
 10
10.1903292962
 20
7.6580020654
 30
0.0
 10
10.1358760811
 20
7.6707509183
 30
0.0
 10
10.1001055712
 20
7.6815534193
 30
0.0
 10
10.0823767534
 20
7.6875197356
 30
0.0
  0
SPLINE
  5
2E3
100
AcDbEntity
  8
0
100
AcDbSpline
 62
7
  6
CONTINUOUS
 70
0
 71
3
 72
16
 73
12
 74
0
 42
0.0000001
 43
0.0000001
 44
0.0000000001
 40
0.0
 40
0.0
 40
0.0
 40
0.0
 40
0.1504802345
 40
0.2917477373
 40
0.4244952497
 40
0.4879700346
 40
0.5496761098
 40
0.6683415877
 40
0.7818816099
 40
0.8918561996
 40
1.0
 40
1.0
 40
1.0
 40
1.0
 10
12.3922815057
 20
9.1589444124
 30
0.0
 10
12.3915309341
 20
9.1582194158
 30
0.0
 10
12.3900307431
 20
9.1568590842
 30
0.0
 10
12.3877078765
 20
9.1550462099
 30
0.0
 10
12.3857457684
 20
9.1537640464
 30
0.0
 10
12.3841811722
 20
9.152895823
 30
0.0
 10
12.3826626722
 20
9.1521504211
 30
0.0
 10
12.3807638582
 20
9.1513972965
 30
0.0
 10
12.378464954
 20
9.1507856562
 30
0.0
 10
12.3761790228
 20
9.1504802843
 30
0.0
 10
12.374660981
 20
9.150482027
 30
0.0
 10
12.3739128296
 20
9.1505339195
 30
0.0
  0
SPLINE
  5
2E4
100
AcDbEntity
  8
0
100
AcDbSpline
 62
7
  6
CONTINUOUS
 70
0
 71
3
 72
23
 73
19
 74
0
 42
0.0000001
 43
0.0000001
 44
0.0000000001
 40
0.0
 40
0.0
 40
0.0
 40
0.0
 40
0.0625509305
 40
0.1248659596
 40
0.1869882281
 40
0.2489659549
 40
0.3108511978
 40
0.3726984884
 40
0.4345633754
 40
0.496500935
 40
0.5585642992
 40
0.620803249
 40
0.683262921
 40
0.7459826712
 40
0.8089951237
 40
0.8723255421
 40
0.93599046
 40
1.0
 40
1.0
 40
1.0
 40
1.0
 10
10.9383474405
 20
6.8475392172
 30
0.0
 10
10.9349336802
 20
6.837671983
 30
0.0
 10
10.9273170046
 20
6.8182414349
 30
0.0
 10
10.9135724249
 20
6.7901810542
 30
0.0
 10
10.8976118163
 20
6.7634277535
 30
0.0
 10
10.8795326567
 20
6.7381465202
 30
0.0
 10
10.8594442248
 20
6.714490237
 30
0.0
 10
10.8374684048
 20
6.6926027698
 30
0.0
 10
10.8137385962
 20
6.6726169133
 30
0.0
 10
10.7883988953
 20
6.6546539224
 30
0.0
 10
10.7616031729
 20
6.6388226932
 30
0.0
 10
10.7335141525
 20
6.6252190533
 30
0.0
 10
10.7043023918
 20
6.6139251651
 30
0.0
 10
10.6741451047
 20
6.6050091279
 30
0.0
 10
10.6432253409
 20
6.5985245511
 30
0.0
 10
10.6117299337
 20
6.5945103189
 30
0.0
 10
10.5798520293
 20
6.5929899136
 30
0.0
 10
10.558525028
 20
6.5936434465
 30
0.0
 10
10.5478660802
 20
6.5943826471
 30
0.0
  0
SPLINE
  5
2E5
100
AcDbEntity
  8
0
100
AcDbSpline
 62
7
  6
CONTINUOUS
 70
0
 71
3
 72
19
 73
15
 74
0
 42
0.0000001
 43
0.0000001
 44
0.0000000001
 40
0.0
 40
0.0
 40
0.0
 40
0.0
 40
0.056865661
 40
0.1131757846
 40
0.1692310925
 40
0.2253367095
 40
0.2817968754
 40
0.338909758
 40
0.3969623737
 40
0.456227034
 40
0.5793271647
 40
0.7100681732
 40
0.8499106787
 40
1.0
 40
1.0
 40
1.0
 40
1.0
 10
12.3032128491
 20
7.8068344717
 30
0.0
 10
12.3040286983
 20
7.806597648
 30
0.0
 10
12.3056702491
 20
7.8061851645
 30
0.0
 10
12.3081637933
 20
7.805754368
 30
0.0
 10
12.31067176
 20
7.8055156808
 30
0.0
 10
12.3131928283
 20
7.8054692114
 30
0.0
 10
12.3157259019
 20
7.8056149924
 30
0.0
 10
12.3182698066
 20
7.8059528812
 30
0.0
 10
12.3208235524
 20
7.806482589
 30
0.0
 10
12.3242832951
 20
7.8074561858
 30
0.0
 10
12.3286475038
 20
7.8091776809
 30
0.0
 10
12.3338325727
 20
7.8119784735
 30
0.0
 10
12.3390274675
 20
7.815532511
 30
0.0
 10
12.3423695773
 20
7.8182970774
 30
0.0
 10
12.344041765
 20
7.8197908324
 30
0.0
  0
SPLINE
  5
2E6
100
AcDbEntity
  8
0
100
AcDbSpline
 62
7
  6
CONTINUOUS
 70
0
 71
3
 72
15
 73
11
 74
0
 42
0.0000001
 43
0.0000001
 44
0.0000000001
 40
0.0
 40
0.0
 40
0.0
 40
0.0
 40
0.1259959311
 40
0.2516343781
 40
0.3769424712
 40
0.5019627091
 40
0.6267339483
 40
0.7512999955
 40
0.8757062544
 40
1.0
 40
1.0
 40
1.0
 40
1.0
 10
10.1637544274
 20
7.1826512309
 30
0.0
 10
10.1648268419
 20
7.1882751324
 30
0.0
 10
10.1672567517
 20
7.1994542873
 30
0.0
 10
10.1717549984
 20
7.2159888201
 30
0.0
 10
10.177090903
 20
7.2322262295
 30
0.0
 10
10.1832513042
 20
7.2481267717
 30
0.0
 10
10.1902215751
 20
7.2636524233
 30
0.0
 10
10.1979850142
 20
7.2787658669
 30
0.0
 10
10.2065226545
 20
7.2934302302
 30
0.0
 10
10.2127197624
 20
7.3028878639
 30
0.0
 10
10.2159390877
 20
7.3075284035
 30
0.0
  0
SPLINE
  5
2E7
100
AcDbEntity
  8
0
100
AcDbSpline
 62
7
  6
CONTINUOUS
 70
0
 71
3
 72
41
 73
37
 74
0
 42
0.0000001
 43
0.0000001
 44
0.0000000001
 40
0.0
 40
0.0
 40
0.0
 40
0.0
 40
0.0308887901
 40
0.0619045852
 40
0.0930435345
 40
0.1243000314
 40
0.1556668122
 40
0.1871350753
 40
0.2186946176
 40
0.2503339869
 40
0.2820406469
 40
0.313801154
 40
0.345601342
 40
0.3774265151
 40
0.4092616445
 40
0.4410915692
 40
0.4729011972
 40
0.5046757069
 40
0.5364007448
 40
0.5680626204
 40
0.5996484934
 40
0.631146553
 40
0.6625461872
 40
0.6938381394
 40
0.7250146495
 40
0.7560695796
 40
0.7869985187
 40
0.8177988667
 40
0.848469895
 40
0.8637590094
 40
0.8790163912
 40
0.9094342215
 40
0.9397319748
 40
0.9548395524
 40
0.9699202069
 40
1.0
 40
1.0
 40
1.0
 40
1.0
 10
10.5478660802
 20
6.5943826471
 30
0.0
 10
10.5395126608
 20
6.5949619587
 30
0.0
 10
10.5228023348
 20
6.5966300564
 30
0.0
 10
10.497885333
 20
6.6006355881
 30
0.0
 10
10.4731520246
 20
6.6061351358
 30
0.0
 10
10.4486945887
 20
6.613108268
 30
0.0
 10
10.4246026383
 20
6.6215292513
 30
0.0
 10
10.4009648438
 20
6.631367013
 30
0.0
 10
10.3778680844
 20
6.6425852924
 30
0.0
 10
10.3553972738
 20
6.6551427653
 30
0.0
 10
10.333635012
 20
6.668993198
 30
0.0
 10
10.3126612952
 20
6.6840856171
 30
0.0
 10
10.2925532211
 20
6.7003644956
 30
0.0
 10
10.2733847087
 20
6.7177699569
 30
0.0
 10
10.2552262279
 20
6.7362379928
 30
0.0
 10
10.238144543
 20
6.7557006983
 30
0.0
 10
10.2222024686
 20
6.7760865189
 30
0.0
 10
10.20745864
 20
6.7973205124
 30
0.0
 10
10.1939672988
 20
6.8193246218
 30
0.0
 10
10.1817780948
 20
6.8420179605
 30
0.0
 10
10.1709359036
 20
6.8653171071
 30
0.0
 10
10.1614806624
 20
6.889136409
 30
0.0
 10
10.153447223
 20
6.9133882962
 30
0.0
 10
10.1468652227
 20
6.9379835948
 30
0.0
 10
10.1417589759
 20
6.962831871
 30
0.0
 10
10.1381473775
 20
6.9878416902
 30
0.0
 10
10.1360438526
 20
7.0129212106
 30
0.0
 10
10.1354562243
 20
7.0379775542
 30
0.0
 10
10.1362326805
 20
7.0587857369
 30
0.0
 10
10.1376134943
 20
7.0753256005
 30
0.0
 10
10.1394942887
 20
7.0917470295
 30
0.0
 10
10.1427841182
 20
7.1120918875
 30
0.0
 10
10.1473249227
 20
7.132153127
 30
0.0
 10
10.1516944642
 20
7.1479596123
 30
0.0
 10
10.1565416768
 20
7.163563734
 30
0.0
 10
10.1607266475
 20
7.1750800263
 30
0.0
 10
10.1637544274
 20
7.1826512309
 30
0.0
  0
SPLINE
  5
2E8
100
AcDbEntity
  8
0
100
AcDbSpline
 62
7
  6
CONTINUOUS
 70
0
 71
3
 72
18
 73
14
 74
0
 42
0.0000001
 43
0.0000001
 44
0.0000000001
 40
0.0
 40
0.0
 40
0.0
 40
0.0
 40
0.054219828
 40
0.1085462099
 40
0.163227553
 40
0.2185069246
 40
0.3317287162
 40
0.4500070196
 40
0.5115423891
 40
0.5748819305
 40
0.70751652
 40
0.8489666268
 40
1.0
 40
1.0
 40
1.0
 40
1.0
 10
12.2783421948
 20
7.8905471667
 30
0.0
 10
12.2789874404
 20
7.8904762537
 30
0.0
 10
12.2802846423
 20
7.8903795334
 30
0.0
 10
12.2822403258
 20
7.8903713667
 30
0.0
 10
12.2842046185
 20
7.8905001928
 30
0.0
 10
12.2868544608
 20
7.890857013
 30
0.0
 10
12.2902037303
 20
7.8916582877
 30
0.0
 10
12.2934962673
 20
7.8928936981
 30
0.0
 10
12.2961288137
 20
7.8941389523
 30
0.0
 10
12.2988431799
 20
7.8956034835
 30
0.0
 10
12.3022483238
 20
7.8977893042
 30
0.0
 10
12.3062779511
 20
7.9009069657
 30
0.0
 10
12.3088772473
 20
7.9032586614
 30
0.0
 10
12.3101778048
 20
7.9045149035
 30
0.0
  0
SPLINE
  5
2E9
100
AcDbEntity
  8
0
100
AcDbSpline
 62
7
  6
CONTINUOUS
 70
0
 71
3
 72
41
 73
37
 74
0
 42
0.0000001
 43
0.0000001
 44
0.0000000001
 40
0.0
 40
0.0
 40
0.0
 40
0.0
 40
0.0296156965
 40
0.0444733819
 40
0.0593649477
 40
0.0892538638
 40
0.1192995982
 40
0.1343867438
 40
0.1495166257
 40
0.1799033484
 40
0.210468658
 40
0.2412142268
 40
0.2721389766
 40
0.3032391502
 40
0.3345084152
 40
0.3659379895
 40
0.3975167841
 40
0.4292315573
 40
0.461067076
 40
0.4930062797
 40
0.525030446
 40
0.557119354
 40
0.5892514486
 40
0.621404008
 40
0.6535533184
 40
0.6856748662
 40
0.7177435568
 40
0.7497339745
 40
0.7816206956
 40
0.8133786717
 40
0.8449836879
 40
0.8764129174
 40
0.9076455115
 40
0.9386633901
 40
0.9694516836
 40
1.0
 40
1.0
 40
1.0
 40
1.0
 10
10.1637544274
 20
7.1826512309
 30
0.0
 10
10.1623971918
 20
7.1751560311
 30
0.0
 10
10.1607608022
 20
7.1638224177
 30
0.0
 10
10.1593830617
 20
7.1486139388
 30
0.0
 10
10.1585379704
 20
7.133295503
 30
0.0
 10
10.1584913901
 20
7.1140337986
 30
0.0
 10
10.1597862855
 20
7.09476551
 30
0.0
 10
10.1616208667
 20
7.0793723551
 30
0.0
 10
10.163994038
 20
7.0639642611
 30
0.0
 10
10.1679603099
 20
7.0447857105
 30
0.0
 10
10.1742836734
 20
7.0220469631
 30
0.0
 10
10.1821507876
 20
6.9996481423
 30
0.0
 10
10.1915272991
 20
6.9776888708
 30
0.0
 10
10.2023723136
 20
6.9562656791
 30
0.0
 10
10.2146384166
 20
6.9354726732
 30
0.0
 10
10.2282719314
 20
6.9154007935
 30
0.0
 10
10.2432131469
 20
6.8961374773
 30
0.0
 10
10.2593965882
 20
6.8777662392
 30
0.0
 10
10.2767513045
 20
6.860366304
 30
0.0
 10
10.29520118
 20
6.8440122609
 30
0.0
 10
10.3146652614
 20
6.8287737502
 30
0.0
 10
10.3350581009
 20
6.8147151826
 30
0.0
 10
10.3562901119
 20
6.8018954932
 30
0.0
 10
10.3782679346
 20
6.7903679306
 30
0.0
 10
10.4008948119
 20
6.7801798817
 30
0.0
 10
10.4240709754
 20
6.7713727304
 30
0.0
 10
10.447694043
 20
6.7639817495
 30
0.0
 10
10.4716594334
 20
6.7580360232
 30
0.0
 10
10.4958607991
 20
6.7535583971
 30
0.0
 10
10.5201904907
 20
6.7505654571
 30
0.0
 10
10.544540039
 20
6.7490675212
 30
0.0
 10
10.5688007178
 20
6.749068687
 30
0.0
 10
10.5928639736
 20
6.7505667998
 30
0.0
 10
10.6166225307
 20
6.753553741
 30
0.0
 10
10.639969008
 20
6.758014793
 30
0.0
 10
10.6552532443
 20
6.7619747983
 30
0.0
 10
10.662789916
 20
6.7641952525
 30
0.0
  0
SPLINE
  5
2EA
100
AcDbEntity
  8
0
100
AcDbSpline
 62
7
  6
CONTINUOUS
 70
0
 71
3
 72
23
 73
19
 74
0
 42
0.0000001
 43
0.0000001
 44
0.0000000001
 40
0.0
 40
0.0
 40
0.0
 40
0.0
 40
0.1050963394
 40
0.2057048656
 40
0.3007709879
 40
0.3895655302
 40
0.4716948356
 40
0.5470500406
 40
0.6157419704
 40
0.6780335917
 40
0.7342859457
 40
0.7849231468
 40
0.8304144387
 40
0.8712644911
 40
0.9080196608
 40
0.9412764302
 40
0.9716938781
 40
1.0
 40
1.0
 40
1.0
 40
1.0
 10
10.5175328181
 20
7.943175393
 30
0.0
 10
10.5190929572
 20
7.943067197
 30
0.0
 10
10.5221440721
 20
7.9428161117
 30
0.0
 10
10.5265932606
 20
7.9423249333
 30
0.0
 10
10.530785652
 20
7.9417347188
 30
0.0
 10
10.5346858647
 20
7.9410560531
 30
0.0
 10
10.53827266
 20
7.9403000615
 30
0.0
 10
10.5415371728
 20
7.9394774081
 30
0.0
 10
10.5444800169
 20
7.9385977132
 30
0.0
 10
10.547108275
 20
7.9376692641
 30
0.0
 10
10.549432887
 20
7.9366989529
 30
0.0
 10
10.551466724
 20
7.9356923835
 30
0.0
 10
10.5532232666
 20
7.9346540578
 30
0.0
 10
10.5547155655
 20
7.9335872263
 30
0.0
 10
10.5559558228
 20
7.9324945026
 30
0.0
 10
10.5569546914
 20
7.9313773302
 30
0.0
 10
10.5577208195
 20
7.9302375428
 30
0.0
 10
10.5580912984
 20
7.9294410107
 30
0.0
 10
10.558234979
 20
7.9290450648
 30
0.0
  0
SPLINE
  5
2EB
100
AcDbEntity
  8
0
100
AcDbSpline
 62
7
  6
CONTINUOUS
 70
0
 71
3
 72
23
 73
19
 74
0
 42
0.0000001
 43
0.0000001
 44
0.0000000001
 40
0.0
 40
0.0
 40
0.0
 40
0.0
 40
0.0616002167
 40
0.1232522697
 40
0.1849737927
 40
0.246781799
 40
0.308692531
 40
0.3707213188
 40
0.4328824496
 40
0.4951890531
 40
0.5576529899
 40
0.6202847717
 40
0.6830934593
 40
0.7460865774
 40
0.8092703444
 40
0.8726484062
 40
0.9362255246
 40
1.0
 40
1.0
 40
1.0
 40
1.0
 10
11.0357553616
 20
8.1806601992
 30
0.0
 10
11.0277455044
 20
8.1741841822
 30
0.0
 10
11.0114037787
 20
8.1616111671
 30
0.0
 10
10.9860010243
 20
8.1439459015
 30
0.0
 10
10.9597489938
 20
8.1275024446
 30
0.0
 10
10.932701707
 20
8.1123147239
 30
0.0
 10
10.9049138528
 20
8.0984133747
 30
0.0
 10
10.8764418703
 20
8.0858266248
 30
0.0
 10
10.8473435294
 20
8.0745799445
 30
0.0
 10
10.8176778795
 20
8.064696098
 30
0.0
 10
10.787505106
 20
8.0561950813
 30
0.0
 10
10.7568864136
 20
8.0490940905
 30
0.0
 10
10.7258839136
 20
8.043407494
 30
0.0
 10
10.6945604411
 20
8.0391467441
 30
0.0
 10
10.6629796702
 20
8.0363204824
 30
0.0
 10
10.6312051852
 20
8.0349342277
 30
0.0
 10
10.5993025137
 20
8.0349909264
 30
0.0
 10
10.5780226637
 20
8.0359890058
 30
0.0
 10
10.5673843315
 20
8.0367267767
 30
0.0
  0
SPLINE
  5
2EC
100
AcDbEntity
  8
0
100
AcDbSpline
 62
7
  6
CONTINUOUS
 70
0
 71
3
 72
19
 73
15
 74
0
 42
0.0000001
 43
0.0000001
 44
0.0000000001
 40
0.0
 40
0.0
 40
0.0
 40
0.0
 40
0.0568725747
 40
0.1131874635
 40
0.1692456703
 40
0.2253525412
 40
0.2818126636
 40
0.3389243984
 40
0.3969750568
 40
0.4562372946
 40
0.5793321182
 40
0.7100715099
 40
0.8499123773
 40
1.0
 40
1.0
 40
1.0
 40
1.0
 10
12.3759557633
 20
8.8560014787
 30
0.0
 10
12.3767968602
 20
8.8561239004
 30
0.0
 10
12.3784803731
 20
8.8563067542
 30
0.0
 10
12.3810106747
 20
8.8563904226
 30
0.0
 10
12.3835287398
 20
8.8562817031
 30
0.0
 10
12.3860332466
 20
8.855980622
 30
0.0
 10
12.3885230927
 20
8.8554872741
 30
0.0
 10
12.3909971457
 20
8.8548020309
 30
0.0
 10
12.3934544563
 20
8.8539252774
 30
0.0
 10
12.3967481754
 20
8.852483708
 30
0.0
 10
12.4008348982
 20
8.8501762254
 30
0.0
 10
12.4055858275
 20
8.8466857139
 30
0.0
 10
12.4102424142
 20
8.8424472952
 30
0.0
 10
12.4131720901
 20
8.8392467102
 30
0.0
 10
12.4146226184
 20
8.8375357836
 30
0.0
  0
SPLINE
  5
2ED
100
AcDbEntity
  8
0
100
AcDbSpline
 62
7
  6
CONTINUOUS
 70
0
 71
3
 72
11
 73
7
 74
0
 42
0.0000001
 43
0.0000001
 44
0.0000000001
 40
0.0
 40
0.0
 40
0.0
 40
0.0
 40
0.2484520609
 40
0.4979187783
 40
0.748429099
 40
1.0
 40
1.0
 40
1.0
 40
1.0
 10
11.0973718436
 20
8.5101797337
 30
0.0
 10
11.0852723337
 20
8.5080137795
 30
0.0
 10
11.060881056
 20
8.5044328326
 30
0.0
 10
11.0239603124
 20
8.5013371001
 30
0.0
 10
10.9867649634
 20
8.5005162886
 30
0.0
 10
10.9619260364
 20
8.5014861103
 30
0.0
 10
10.949509711
 20
8.5023471854
 30
0.0
  0
SPLINE
  5
2EE
100
AcDbEntity
  8
0
100
AcDbSpline
 62
7
  6
CONTINUOUS
 70
0
 71
3
 72
39
 73
35
 74
0
 42
0.0000001
 43
0.0000001
 44
0.0000000001
 40
0.0
 40
0.0
 40
0.0
 40
0.0
 40
0.0305290833
 40
0.0611650638
 40
0.0919072551
 40
0.1227539027
 40
0.1537022126
 40
0.1847483892
 40
0.215887681
 40
0.2471144358
 40
0.2784221623
 40
0.3098035994
 40
0.3412507897
 40
0.3727551589
 40
0.4043075989
 40
0.4358985551
 40
0.4675181165
 40
0.4991561076
 40
0.5308021836
 40
0.5624459257
 40
0.5940769366
 40
0.6256849363
 40
0.6572598568
 40
0.6887919354
 40
0.720271806
 40
0.7516905883
 40
0.7830399736
 40
0.8143123047
 40
0.8455006646
 40
0.8765989014
 40
0.9076018528
 40
0.9385049265
 40
0.9693053703
 40
1.0
 40
1.0
 40
1.0
 40
1.0
 10
10.4546765512
 20
9.2687844069
 30
0.0
 10
10.4542462024
 20
9.2589634714
 30
0.0
 10
10.4538842918
 20
9.2392617084
 30
0.0
 10
10.4548326437
 20
9.209670957
 30
0.0
 10
10.4572686664
 20
9.1800621375
 30
0.0
 10
10.4611861179
 20
9.1505115767
 30
0.0
 10
10.4665749558
 20
9.1210941686
 30
0.0
 10
10.4734214113
 20
9.0918848038
 30
0.0
 10
10.4817080134
 20
9.0629577451
 30
0.0
 10
10.4914136286
 20
9.0343865543
 30
0.0
 10
10.5025135195
 20
9.0062438751
 30
0.0
 10
10.5149794118
 20
8.9786012592
 30
0.0
 10
10.5287795658
 20
8.9515289833
 30
0.0
 10
10.5438788569
 20
8.9250958723
 30
0.0
 10
10.5602388652
 20
8.8993691258
 30
0.0
 10
10.5778179719
 20
8.8744141482
 30
0.0
 10
10.5965714656
 20
8.8502943842
 30
0.0
 10
10.6164516542
 20
8.827071157
 30
0.0
 10
10.6374079792
 20
8.804803508
 30
0.0
 10
10.659387153
 20
8.7835480529
 30
0.0
 10
10.682333292
 20
8.7633588382
 30
0.0
 10
10.7061880586
 20
8.7442872051
 30
0.0
 10
10.7308908081
 20
8.726381659
 30
0.0
 10
10.7563787419
 20
8.7096877476
 30
0.0
 10
10.7825870661
 20
8.6942479449
 30
0.0
 10
10.8094491555
 20
8.6801015447
 30
0.0
 10
10.8368967182
 20
8.6672845559
 30
0.0
 10
10.8648599724
 20
8.6558296042
 30
0.0
 10
10.893267813
 20
8.6457658785
 30
0.0
 10
10.9220480428
 20
8.6371189889
 30
0.0
 10
10.9511273605
 20
8.6299110653
 30
0.0
 10
10.9804321932
 20
8.6241603492
 30
0.0
 10
11.0098868905
 20
8.6198817941
 30
0.0
 10
11.0296098965
 20
8.6180146585
 30
0.0
 10
11.0394698802
 20
8.6173308663
 30
0.0
  0
SPLINE
  5
2EF
100
AcDbEntity
  8
0
100
AcDbSpline
 62
7
  6
CONTINUOUS
 70
0
 71
3
 72
71
 73
67
 74
0
 42
0.0000001
 43
0.0000001
 44
0.0000000001
 40
0.0
 40
0.0
 40
0.0
 40
0.0
 40
0.0156748151
 40
0.0314021683
 40
0.0471806527
 40
0.0630088925
 40
0.0788847435
 40
0.0948057525
 40
0.1107690082
 40
0.1267712317
 40
0.1428087898
 40
0.1588777349
 40
0.1749738408
 40
0.1910926419
 40
0.2072294728
 40
0.2233795108
 40
0.2395378179
 40
0.2556993839
 40
0.2718591707
 40
0.2880121552
 40
0.3041533738
 40
0.3202779654
 40
0.3363812142
 40
0.3524585916
 40
0.3685057968
 40
0.3845187964
 40
0.4004938615
 40
0.4164276036
 40
0.4323170071
 40
0.4481594601
 40
0.4639527817
 40
0.4796952458
 40
0.4953856017
 40
0.5110230907
 40
0.5266074578
 40
0.5421389599
 40
0.5576183682
 40
0.5730469661
 40
0.5884265413
 40
0.6037593729
 40
0.6190482133
 40
0.6342962638
 40
0.6495071459
 40
0.664684867
 40
0.6798337808
 40
0.6949585442
 40
0.7100640695
 40
0.7251554734
 40
0.7402380231
 40
0.7553170805
 40
0.7703980447
 40
0.7854862945
 40
0.8005871309
 40
0.8157057206
 40
0.8308470413
 40
0.8460158301
 40
0.8612165346
 40
0.8764532681
 40
0.8917297695
 40
0.907049366
 40
0.9224149479
 40
0.9378289242
 40
0.9532932634
 40
0.9688093037
 40
0.9843781796
 40
1.0
 40
1.0
 40
1.0
 40
1.0
 10
10.3383090404
 20
9.2895368964
 30
0.0
 10
10.3508318255
 20
9.2886684383
 30
0.0
 10
10.3758810122
 20
9.286314304
 30
0.0
 10
10.4132970259
 20
9.2809564535
 30
0.0
 10
10.4505328346
 20
9.2737785492
 30
0.0
 10
10.48749748
 20
9.2647981983
 30
0.0
 10
10.5241023871
 20
9.2540369564
 30
0.0
 10
10.5602593086
 20
9.2415208743
 30
0.0
 10
10.5958812464
 20
9.227280114
 30
0.0
 10
10.630882449
 20
9.2113490279
 30
0.0
 10
10.6651786745
 20
9.1937660108
 30
0.0
 10
10.6986873777
 20
9.1745734333
 30
0.0
 10
10.7313279102
 20
9.1538175298
 30
0.0
 10
10.7630217142
 20
9.131548293
 30
0.0
 10
10.7936925124
 20
9.1078193542
 30
0.0
 10
10.823266488
 20
9.0826878505
 30
0.0
 10
10.8516724618
 20
9.0562142888
 30
0.0
 10
10.8788420626
 20
9.0284624002
 30
0.0
 10
10.9047098909
 20
8.9994989876
 30
0.0
 10
10.9292136754
 20
8.9693937656
 30
0.0
 10
10.9522944223
 20
8.9382191935
 30
0.0
 10
10.9738965565
 20
8.9060503021
 30
0.0
 10
10.9939680553
 20
8.8729645138
 30
0.0
 10
11.0124605722
 20
8.8390414573
 30
0.0
 10
11.0293295575
 20
8.804362779
 30
0.0
 10
11.0445343638
 20
8.7690119459
 30
0.0
 10
11.0580383416
 20
8.7330740449
 30
0.0
 10
11.0698089278
 20
8.6966355793
 30
0.0
 10
11.0798177246
 20
8.6597842624
 30
0.0
 10
11.0880405679
 20
8.6226088073
 30
0.0
 10
11.094457586
 20
8.585198715
 30
0.0
 10
11.0990532489
 20
8.5476440602
 30
0.0
 10
11.1018164059
 20
8.510035276
 30
0.0
 10
11.1027403145
 20
8.4724629375
 30
0.0
 10
11.1018226578
 20
8.4350175443
 30
0.0
 10
11.0990655576
 20
8.3977893034
 30
0.0
 10
11.0944755654
 20
8.360867912
 30
0.0
 10
11.0880636491
 20
8.3243423419
 30
0.0
 10
11.0798451689
 20
8.2883006254
 30
0.0
 10
11.0698398421
 20
8.252829643
 30
0.0
 10
11.0580716984
 20
8.2180149133
 30
0.0
 10
11.0445690243
 20
8.1839403862
 30
0.0
 10
11.0293642968
 20
8.1506882388
 30
0.0
 10
11.0124941073
 20
8.1183386758
 30
0.0
 10
10.9939990745
 20
8.0869697337
 30
0.0
 10
10.9739237497
 20
8.0566570894
 30
0.0
 10
10.9523165118
 20
8.0274738727
 30
0.0
 10
10.929229446
 20
7.9994904899
 30
0.0
 10
10.9047182187
 20
7.9727744512
 30
0.0
 10
10.8788419418
 20
7.9473902049
 30
0.0
 10
10.8516630292
 20
7.9233989801
 30
0.0
 10
10.8232470438
 20
7.9008586369
 30
0.0
 10
10.7936625376
 20
7.8798235253
 30
0.0
 10
10.7629808834
 20
7.8603443534
 30
0.0
 10
10.7312761005
 20
7.842468064
 30
0.0
 10
10.6986246729
 20
7.8262377224
 30
0.0
 10
10.6651053646
 20
7.8116924089
 30
0.0
 10
10.6307990251
 20
7.798867126
 30
0.0
 10
10.5957883917
 20
7.787792721
 30
0.0
 10
10.5601578851
 20
7.7784958047
 30
0.0
 10
10.5239934202
 20
7.7709987123
 30
0.0
 10
10.4873821352
 20
7.7653193947
 30
0.0
 10
10.4504124032
 20
7.7614715027
 30
0.0
 10
10.4131728885
 20
7.7594641297
 30
0.0
 10
10.3757546202
 20
7.7593020862
 30
0.0
 10
10.3507894875
 20
7.7604226779
 30
0.0
 10
10.3383090404
 20
7.7612881998
 30
0.0
  0
SPLINE
  5
2F0
100
AcDbEntity
  8
0
100
AcDbSpline
 62
7
  6
CONTINUOUS
 70
0
 71
3
 72
88
 73
84
 74
0
 42
0.0000001
 43
0.0000001
 44
0.0000000001
 40
0.0
 40
0.0
 40
0.0
 40
0.0
 40
0.0039786102
 40
0.0077790614
 40
0.0114103252
 40
0.0148835817
 40
0.0214069719
 40
0.0244948464
 40
0.0274910578
 40
0.0304176279
 40
0.0332983501
 40
0.036158267
 40
0.0390230164
 40
0.0419180966
 40
0.0448681463
 40
0.0478963319
 40
0.0510239257
 40
0.0542699827
 40
0.0576513287
 40
0.0611825254
 40
0.0648760218
 40
0.068742376
 40
0.0727903426
 40
0.0770272054
 40
0.0814588583
 40
0.086090006
 40
0.0909243739
 40
0.0959647027
 40
0.1012130141
 40
0.1066705936
 40
0.1123380968
 40
0.1182156902
 40
0.1243029648
 40
0.1371024008
 40
0.150726073
 40
0.1651575676
 40
0.1803759484
 40
0.1963563689
 40
0.21307054
 40
0.2304871416
 40
0.2485721506
 40
0.2672891126
 40
0.2865993718
 40
0.3064622736
 40
0.3268353782
 40
0.3476746423
 40
0.368934588
 40
0.3905684586
 40
0.4125283746
 40
0.4347655002
 40
0.4572301948
 40
0.5026397041
 40
0.5483501387
 40
0.5939503877
 40
0.639030587
 40
0.6612495603
 40
0.6831878082
 40
0.704796555
 40
0.7260280001
 40
0.7468354765
 40
0.7671736012
 40
0.7869984357
 40
0.8062676572
 40
0.8249407559
 40
0.842979229
 40
0.8603467836
 40
0.8770095743
 40
0.8929364822
 40
0.9080994629
 40
0.9224739325
 40
0.9360392516
 40
0.9425135447
 40
0.9487799683
 40
0.954837331
 40
0.9606849371
 40
0.9663224656
 40
0.9717501102
 40
0.9769686199
 40
0.9819793362
 40
0.9867844965
 40
0.9913870872
 40
0.9957907679
 40
1.0
 40
1.0
 40
1.0
 40
1.0
 10
12.3481928073
 20
8.7992539992
 30
0.0
 10
12.3491929357
 20
8.8001987167
 30
0.0
 10
12.3511924044
 20
8.8020001609
 30
0.0
 10
12.3542605793
 20
8.80448382
 30
0.0
 10
12.3573262513
 20
8.8066840743
 30
0.0
 10
12.3613227025
 20
8.8091846686
 30
0.0
 10
12.3654007348
 20
8.811191545
 30
0.0
 10
12.3695246383
 20
8.8126192611
 30
0.0
 10
12.3725504352
 20
8.8133804871
 30
0.0
 10
12.3755626255
 20
8.8138503068
 30
0.0
 10
12.3785591026
 20
8.8140280597
 30
0.0
 10
12.3815373513
 20
8.8139131952
 30
0.0
 10
12.3844948417
 20
8.8135058983
 30
0.0
 10
12.3874290665
 20
8.8128065286
 30
0.0
 10
12.3903377185
 20
8.8118160476
 30
0.0
 10
12.3932187592
 20
8.8105356714
 30
0.0
 10
12.3960703246
 20
8.8089666763
 30
0.0
 10
12.3988908784
 20
8.8071106464
 30
0.0
 10
12.4016788872
 20
8.804968999
 30
0.0
 10
12.4044329781
 20
8.8025433358
 30
0.0
 10
12.4071518063
 20
8.7998352877
 30
0.0
 10
12.4098339269
 20
8.7968464947
 30
0.0
 10
12.4124780425
 20
8.7935788345
 30
0.0
 10
12.4150826779
 20
8.7900341884
 30
0.0
 10
12.4176464412
 20
8.7862146581
 30
0.0
 10
12.4201679348
 20
8.7821224869
 30
0.0
 10
12.4226456591
 20
8.7777600348
 30
0.0
 10
12.4250782743
 20
8.7731298965
 30
0.0
 10
12.4274643041
 20
8.7682347661
 30
0.0
 10
12.4298023706
 20
8.7630775382
 30
0.0
 10
12.4320911154
 20
8.7576612695
 30
0.0
 10
12.4343291491
 20
8.7519891414
 30
0.0
 10
12.4372935485
 20
8.743954676
 30
0.0
 10
12.440849403
 20
8.7332866538
 30
0.0
 10
12.4448256415
 20
8.7197278332
 30
0.0
 10
12.4485698406
 20
8.7052377422
 30
0.0
 10
12.4520729517
 20
8.6898509067
 30
0.0
 10
12.455326456
 20
8.6736038138
 30
0.0
 10
12.4583224522
 20
8.6565351997
 30
0.0
 10
12.4610536526
 20
8.6386858108
 30
0.0
 10
12.4635134103
 20
8.6200983164
 30
0.0
 10
12.4656957344
 20
8.600817187
 30
0.0
 10
12.4675953078
 20
8.5808885905
 30
0.0
 10
12.4692075138
 20
8.5603602746
 30
0.0
 10
12.4705284281
 20
8.5392814434
 30
0.0
 10
12.471554831
 20
8.5177026293
 30
0.0
 10
12.4722842115
 20
8.495675574
 30
0.0
 10
12.4727147808
 20
8.4732531021
 30
0.0
 10
12.4728454746
 20
8.4504890103
 30
0.0
 10
12.472675984
 20
8.4274378642
 30
0.0
 10
12.4720478921
 20
8.3962837152
 30
0.0
 10
12.4705141328
 20
8.3570325962
 30
0.0
 10
12.4675102273
 20
8.309846752
 30
0.0
 10
12.4633648158
 20
8.2628617546
 30
0.0
 10
12.4589716685
 20
8.2240654497
 30
0.0
 10
12.454908775
 20
8.1934757664
 30
0.0
 10
12.4516189216
 20
8.1709729328
 30
0.0
 10
12.4480798363
 20
8.1488537078
 30
0.0
 10
12.4443000026
 20
8.1271711046
 30
0.0
 10
12.4402885385
 20
8.1059771258
 30
0.0
 10
12.4360551057
 20
8.0853225807
 30
0.0
 10
12.4316099062
 20
8.0652569815
 30
0.0
 10
12.4269636491
 20
8.0458284142
 30
0.0
 10
12.4221275411
 20
8.0270834133
 30
0.0
 10
12.4171132531
 20
8.009066844
 30
0.0
 10
12.4119328839
 20
7.9918217988
 30
0.0
 10
12.4065989336
 20
7.9753894816
 30
0.0
 10
12.4011242644
 20
7.9598091193
 30
0.0
 10
12.3955220806
 20
7.9451177476
 30
0.0
 10
12.3898058805
 20
7.9313504279
 30
0.0
 10
12.3848852765
 20
7.9205123343
 30
0.0
 10
12.3808934336
 20
7.9123380477
 30
0.0
 10
12.377926267
 20
7.9065540308
 30
0.0
 10
12.3749408798
 20
7.9010244438
 30
0.0
 10
12.3719390854
 20
7.8957525397
 30
0.0
 10
12.3689226288
 20
7.8907414657
 30
0.0
 10
12.3658933105
 20
7.8859941981
 30
0.0
 10
12.3628529754
 20
7.8815135296
 30
0.0
 10
12.3598033229
 20
7.8773021191
 30
0.0
 10
12.3567461487
 20
7.8733623674
 30
0.0
 10
12.3536831162
 20
7.8696965881
 30
0.0
 10
12.3506162117
 20
7.8663071447
 30
0.0
 10
12.3485238196
 20
7.8641860013
 30
0.0
 10
12.3474769309
 20
7.8631747844
 30
0.0
  0
SPLINE
  5
2F1
100
AcDbEntity
  8
0
100
AcDbSpline
 62
7
  6
CONTINUOUS
 70
0
 71
3
 72
42
 73
38
 74
0
 42
0.0000001
 43
0.0000001
 44
0.0000000001
 40
0.0
 40
0.0
 40
0.0
 40
0.0
 40
0.0149584737
 40
0.0299260704
 40
0.0449054426
 40
0.0598991769
 40
0.0749097801
 40
0.0899396695
 40
0.1200612168
 40
0.1502861023
 40
0.1806291348
 40
0.2111026205
 40
0.2417161364
 40
0.2724763656
 40
0.3033870047
 40
0.3344487331
 40
0.3656592412
 40
0.3970133172
 40
0.42850299
 40
0.4601177159
 40
0.4918446048
 40
0.5236686865
 40
0.5555732066
 40
0.587539945
 40
0.6195495541
 40
0.6515819148
 40
0.6836164989
 40
0.7156327387
 40
0.7476103958
 40
0.7795299261
 40
0.8113728362
 40
0.8431220281
 40
0.8747621204
 40
0.906279749
 40
0.937663882
 40
0.9689057418
 40
1.0
 40
1.0
 40
1.0
 40
1.0
 10
10.0179014447
 20
9.2343504132
 30
0.0
 10
10.0126169308
 20
9.2282578126
 30
0.0
 10
10.002273773
 20
9.2158679968
 30
0.0
 10
9.9874662914
 20
9.1967055706
 30
0.0
 10
9.9733795282
 20
9.1769834463
 30
0.0
 10
9.9600314269
 20
9.156726547
 30
0.0
 10
9.9474382392
 20
9.1359596403
 30
0.0
 10
9.9316653308
 20
9.1076082986
 30
0.0
 10
9.9139094644
 20
9.0710063364
 30
0.0
 10
9.8958721372
 20
9.0255113774
 30
0.0
 10
9.8811739249
 20
8.9786307335
 30
0.0
 10
9.8698884447
 20
8.9305993824
 30
0.0
 10
9.8620711268
 20
8.8816559466
 30
0.0
 10
9.8577603367
 20
8.8320440206
 30
0.0
 10
9.8569769465
 20
8.7820102467
 30
0.0
 10
9.8597243819
 20
8.731803292
 30
0.0
 10
9.8659885005
 20
8.6816725756
 30
0.0
 10
9.8757376823
 20
8.6318670383
 30
0.0
 10
9.8889231045
 20
8.5826339293
 30
0.0
 10
9.9054789794
 20
8.5342176105
 30
0.0
 10
9.9253227568
 20
8.4868583139
 30
0.0
 10
9.948355654
 20
8.4407909903
 30
0.0
 10
9.9744631724
 20
8.3962441825
 30
0.0
 10
10.003515602
 20
8.3534388819
 30
0.0
 10
10.0353686165
 20
8.312587401
 30
0.0
 10
10.0698640917
 20
8.2738923986
 30
0.0
 10
10.1068308714
 20
8.237545898
 30
0.0
 10
10.1460855153
 20
8.2037282516
 30
0.0
 10
10.1874332647
 20
8.1726072998
 30
0.0
 10
10.2306690284
 20
8.1443375935
 30
0.0
 10
10.2755783632
 20
8.1190596072
 30
0.0
 10
10.3219384509
 20
8.0968989515
 30
0.0
 10
10.3695193683
 20
8.0779658638
 30
0.0
 10
10.4180848348
 20
8.0623546778
 30
0.0
 10
10.4673946274
 20
8.0501432658
 30
0.0
 10
10.5172008338
 20
8.0413926949
 30
0.0
 10
10.550659532
 20
8.0378866455
 30
0.0
 10
10.5673843315
 20
8.0367267767
 30
0.0
  0
SPLINE
  5
2F2
100
AcDbEntity
  8
0
100
AcDbSpline
 62
7
  6
CONTINUOUS
 70
0
 71
3
 72
41
 73
37
 74
0
 42
0.0000001
 43
0.0000001
 44
0.0000000001
 40
0.0
 40
0.0
 40
0.0
 40
0.0
 40
0.0302776375
 40
0.0454599654
 40
0.0606709161
 40
0.0911770581
 40
0.1218009456
 40
0.1371586902
 40
0.1525458901
 40
0.1834049347
 40
0.2143785091
 40
0.2454627255
 40
0.2766523773
 40
0.3079410137
 40
0.3393210274
 40
0.3707837524
 40
0.4023195729
 40
0.4339180391
 40
0.465567991
 40
0.4972576883
 40
0.5289749442
 40
0.5607072634
 40
0.5924419824
 40
0.6241664109
 40
0.6558679733
 40
0.6875343501
 40
0.7191536162
 40
0.7507143768
 40
0.782205899
 40
0.8136182371
 40
0.8449423551
 40
0.8761702274
 40
0.9072949732
 40
0.9383108585
 40
0.9692135974
 40
1.0
 40
1.0
 40
1.0
 40
1.0
 10
10.3493936472
 20
9.2845635654
 30
0.0
 10
10.347032483
 20
9.2735840137
 30
0.0
 10
10.3439590108
 20
9.2569922625
 30
0.0
 10
10.3408049651
 20
9.2347082271
 30
0.0
 10
10.3382727945
 20
9.2122590284
 30
0.0
 10
10.3362910365
 20
9.1839962667
 30
0.0
 10
10.3358919357
 20
9.1556126845
 30
0.0
 10
10.3365185323
 20
9.1328558718
 30
0.0
 10
10.3377786917
 20
9.1100380072
 30
0.0
 10
10.3405404942
 20
9.0815133999
 30
0.0
 10
10.3457339762
 20
9.0474254527
 30
0.0
 10
10.3527938969
 20
9.0135490125
 30
0.0
 10
10.3616983049
 20
8.9799894058
 30
0.0
 10
10.3724195956
 20
8.9468501222
 30
0.0
 10
10.3849245541
 20
8.9142335698
 30
0.0
 10
10.399174471
 20
8.882240472
 30
0.0
 10
10.4151252586
 20
8.8509696371
 30
0.0
 10
10.4327275887
 20
8.8205176346
 30
0.0
 10
10.451927044
 20
8.7909785042
 30
0.0
 10
10.4726642862
 20
8.7624434662
 30
0.0
 10
10.4948752385
 20
8.7350006423
 30
0.0
 10
10.5184912824
 20
8.7087347847
 30
0.0
 10
10.5434394691
 20
8.6837270163
 30
0.0
 10
10.5696427432
 20
8.6600545813
 30
0.0
 10
10.5970201792
 20
8.6377906084
 30
0.0
 10
10.6254872307
 20
8.6170038854
 30
0.0
 10
10.6549559887
 20
8.5977586486
 30
0.0
 10
10.6853354524
 20
8.5801143842
 30
0.0
 10
10.716531807
 20
8.5641256466
 30
0.0
 10
10.7484487147
 20
8.5498418869
 30
0.0
 10
10.7809875973
 20
8.5373073089
 30
0.0
 10
10.8140479862
 20
8.5265607111
 30
0.0
 10
10.8475276529
 20
8.5176354165
 30
0.0
 10
10.8813235668
 20
8.510559051
 30
0.0
 10
10.9153298987
 20
8.5053537345
 30
0.0
 10
10.9381177939
 20
8.5031372176
 30
0.0
 10
10.949509711
 20
8.5023471854
 30
0.0
  0
SPLINE
  5
2F3
100
AcDbEntity
  8
0
100
AcDbSpline
 62
7
  6
CONTINUOUS
 70
0
 71
3
 72
36
 73
32
 74
0
 42
0.0000001
 43
0.0000001
 44
0.0000000001
 40
0.0
 40
0.0
 40
0.0
 40
0.0
 40
0.0148866865
 40
0.0292138355
 40
0.0433636614
 40
0.0576923553
 40
0.072510971
 40
0.0880748617
 40
0.0962047953
 40
0.1045927165
 40
0.1222060764
 40
0.1410398965
 40
0.1611835539
 40
0.1827080287
 40
0.2056692353
 40
0.2301154179
 40
0.2560880664
 40
0.2836266185
 40
0.3127681813
 40
0.3435504181
 40
0.3760105878
 40
0.410186382
 40
0.4461143454
 40
0.5233497943
 40
0.6078856436
 40
0.6995442919
 40
0.7973681265
 40
0.8479172781
 40
0.8989564901
 40
0.9498801366
 40
1.0
 40
1.0
 40
1.0
 40
1.0
 10
10.430061221
 20
7.9159228553
 30
0.0
 10
10.4298930719
 20
7.9163871228
 30
0.0
 10
10.4296334817
 20
7.9173260841
 30
0.0
 10
10.4294894915
 20
7.9187640278
 30
0.0
 10
10.4295920141
 20
7.9201870289
 30
0.0
 10
10.4299309103
 20
7.9215888505
 30
0.0
 10
10.4304960636
 20
7.9229654674
 30
0.0
 10
10.4311386343
 20
7.9240737387
 30
0.0
 10
10.4317513912
 20
7.9249442601
 30
0.0
 10
10.4324536988
 20
7.925832872
 30
0.0
 10
10.4334661907
 20
7.9269255884
 30
0.0
 10
10.4348609028
 20
7.9281848866
 30
0.0
 10
10.4364509018
 20
7.9294121537
 30
0.0
 10
10.4382332165
 20
7.9306058123
 30
0.0
 10
10.4402055772
 20
7.9317646158
 30
0.0
 10
10.4423664624
 20
7.9328868857
 30
0.0
 10
10.4447148763
 20
7.933971114
 30
0.0
 10
10.4472505088
 20
7.9350153832
 30
0.0
 10
10.4499735263
 20
7.9360178722
 30
0.0
 10
10.4528846894
 20
7.9369762821
 30
0.0
 10
10.4559851234
 20
7.9378883047
 30
0.0
 10
10.4592763639
 20
7.9387510683
 30
0.0
 10
10.4640369288
 20
7.9398584072
 30
0.0
 10
10.4704814927
 20
7.9410866965
 30
0.0
 10
10.478807396
 20
7.9422655467
 30
0.0
 10
10.4878578735
 20
7.9431327221
 30
0.0
 10
10.4958119556
 20
7.9435410419
 30
0.0
 10
10.5024257496
 20
7.9436576397
 30
0.0
 10
10.5074848784
 20
7.9436283086
 30
0.0
 10
10.5125275422
 20
7.9434765415
 30
0.0
 10
10.515874365
 20
7.9432904071
 30
0.0
 10
10.5175328181
 20
7.943175393
 30
0.0
  0
SPLINE
  5
2F4
100
AcDbEntity
  8
0
100
AcDbSpline
 62
7
  6
CONTINUOUS
 70
0
 71
3
 72
37
 73
33
 74
0
 42
0.0000001
 43
0.0000001
 44
0.0000000001
 40
0.0
 40
0.0
 40
0.0
 40
0.0
 40
0.0305925034
 40
0.0612889265
 40
0.0920878773
 40
0.1229869896
 40
0.1539829534
 40
0.1850715533
 40
0.2162477156
 40
0.2475055652
 40
0.2788384849
 40
0.3102391798
 40
0.3416997456
 40
0.3732117425
 40
0.4047662755
 40
0.4363540748
 40
0.4679655783
 40
0.4995910145
 40
0.5628273685
 40
0.6260007372
 40
0.6575480234
 40
0.6890510805
 40
0.7205010922
 40
0.7518897154
 40
0.783209153
 40
0.8144522351
 40
0.845612473
 40
0.8766841171
 40
0.9076623745
 40
0.9385427515
 40
0.969323249
 40
1.0
 40
1.0
 40
1.0
 40
1.0
 10
10.5569969335
 20
9.2387461661
 30
0.0
 10
10.5569540909
 20
9.2308148303
 30
0.0
 10
10.5572606941
 20
9.214920373
 30
0.0
 10
10.5588894096
 20
9.1910921502
 30
0.0
 10
10.5616837325
 20
9.1672918058
 30
0.0
 10
10.5656368297
 20
9.1435778101
 30
0.0
 10
10.5707390785
 20
9.1200074496
 30
0.0
 10
10.5769780761
 20
9.0966379218
 30
0.0
 10
10.5843386375
 20
9.0735258545
 30
0.0
 10
10.5928028732
 20
9.0507272665
 30
0.0
 10
10.6023502305
 20
9.0282974095
 30
0.0
 10
10.6129575413
 20
9.0062906433
 30
0.0
 10
10.6245990864
 20
8.9847603049
 30
0.0
 10
10.6372466118
 20
8.9637585765
 30
0.0
 10
10.6508694647
 20
8.9433363145
 30
0.0
 10
10.6654344904
 20
8.9235431196
 30
0.0
 10
10.6809068315
 20
8.9044265337
 30
0.0
 10
10.7026915033
 20
8.8799067522
 30
0.0
 10
10.7319927641
 20
8.8511802272
 30
0.0
 10
10.763793073
 20
8.8252788831
 30
0.0
 10
10.7905429357
 20
8.8064108465
 30
0.0
 10
10.8112030307
 20
8.7932247786
 30
0.0
 10
10.8324164481
 20
8.7810318778
 30
0.0
 10
10.8541322437
 20
8.7698613123
 30
0.0
 10
10.8762976675
 20
8.7597402874
 30
0.0
 10
10.8988590405
 20
8.7506933425
 30
0.0
 10
10.9217616722
 20
8.7427424708
 30
0.0
 10
10.9449500897
 20
8.7359069579
 30
0.0
 10
10.9683679558
 20
8.7302034936
 30
0.0
 10
10.9919588838
 20
8.7256457458
 30
0.0
 10
11.0156647168
 20
8.722245143
 30
0.0
 10
11.0315356434
 20
8.7207522141
 30
0.0
 10
11.0394698802
 20
8.7202019729
 30
0.0
  0
SPLINE
  5
2F5
100
AcDbEntity
  8
0
100
AcDbSpline
 62
7
  6
CONTINUOUS
 70
0
 71
3
 72
16
 73
12
 74
0
 42
0.0000001
 43
0.0000001
 44
0.0000000001
 40
0.0
 40
0.0
 40
0.0
 40
0.0
 40
0.1504802345
 40
0.2917477373
 40
0.4244952497
 40
0.4879700346
 40
0.5496761098
 40
0.6683415877
 40
0.7818816099
 40
0.8918561996
 40
1.0
 40
1.0
 40
1.0
 40
1.0
 10
12.3922815057
 20
6.9856111745
 30
0.0
 10
12.3915309341
 20
6.9848861779
 30
0.0
 10
12.3900307431
 20
6.9835258463
 30
0.0
 10
12.3877078765
 20
6.981712972
 30
0.0
 10
12.3857457684
 20
6.9804308085
 30
0.0
 10
12.3841811722
 20
6.979562585
 30
0.0
 10
12.3826626722
 20
6.9788171831
 30
0.0
 10
12.3807638582
 20
6.9780640585
 30
0.0
 10
12.378464954
 20
6.9774524183
 30
0.0
 10
12.3761790228
 20
6.9771470464
 30
0.0
 10
12.374660981
 20
6.9771487891
 30
0.0
 10
12.3739128296
 20
6.9772006816
 30
0.0
  0
SPLINE
  5
2F6
100
AcDbEntity
  8
0
100
AcDbSpline
 62
7
  6
CONTINUOUS
 70
0
 71
3
 72
39
 73
35
 74
0
 42
0.0000001
 43
0.0000001
 44
0.0000000001
 40
0.0
 40
0.0
 40
0.0
 40
0.0
 40
0.031660304
 40
0.0634258848
 40
0.095284798
 40
0.1272229892
 40
0.1592254321
 40
0.1912760682
 40
0.2233581035
 40
0.255454266
 40
0.2875470683
 40
0.3196190742
 40
0.3516531644
 40
0.3836327982
 40
0.4155422703
 40
0.4473669583
 40
0.4790935559
 40
0.5107102927
 40
0.5422071364
 40
0.5735759713
 40
0.6048107504
 40
0.6359076203
 40
0.666865016
 40
0.6976837156
 40
0.7283668583
 40
0.7589199226
 40
0.7893506626
 40
0.8196689979
 40
0.8498868605
 40
0.880018002
 40
0.9100777597
 40
0.9400827857
 40
0.9700507465
 40
1.0
 40
1.0
 40
1.0
 40
1.0
 10
10.0740945506
 20
7.6795197415
 30
0.0
 10
10.0563929078
 20
7.6854769125
 30
0.0
 10
10.0212946824
 20
7.6985247367
 30
0.0
 10
9.9698917272
 20
7.7213547909
 30
0.0
 10
9.9198457495
 20
7.7473848291
 30
0.0
 10
9.871369976
 20
7.7765043777
 30
0.0
 10
9.8246677092
 20
7.8085909081
 30
0.0
 10
9.7799356024
 20
7.8435091923
 30
0.0
 10
9.7373618049
 20
7.8811122134
 30
0.0
 10
9.6971254907
 20
7.9212416972
 30
0.0
 10
9.6593959927
 20
7.9637287577
 30
0.0
 10
9.6243320887
 20
8.0083945788
 30
0.0
 10
9.5920813961
 20
8.0550512225
 30
0.0
 10
9.5627797635
 20
8.1035024033
 30
0.0
 10
9.5365506348
 20
8.1535442626
 30
0.0
 10
9.5135045416
 20
8.2049662355
 30
0.0
 10
9.4937386935
 20
8.2575519553
 30
0.0
 10
9.4773365753
 20
8.3110801448
 30
0.0
 10
9.4643674966
 20
8.3653255066
 30
0.0
 10
9.4548863535
 20
8.4200596892
 30
0.0
 10
9.4489334264
 20
8.4750522402
 30
0.0
 10
9.446534201
 20
8.530071557
 30
0.0
 10
9.4476991426
 20
8.5848858493
 30
0.0
 10
9.4524237348
 20
8.6392641214
 30
0.0
 10
9.4606884972
 20
8.6929771302
 30
0.0
 10
9.4724590307
 20
8.7457983441
 30
0.0
 10
9.4876860552
 20
8.7975049219
 30
0.0
 10
9.5063057131
 20
8.847878646
 30
0.0
 10
9.5282397997
 20
8.8967068193
 30
0.0
 10
9.5533961085
 20
8.9437832627
 30
0.0
 10
9.5816684856
 20
8.9889089614
 30
0.0
 10
9.6129384059
 20
9.0318938957
 30
0.0
 10
9.6470715703
 20
9.0725540747
 30
0.0
 10
9.6716483614
 20
9.0980049795
 30
0.0
 10
9.6843559742
 20
9.1102796067
 30
0.0
  0
SPLINE
  5
2F7
100
AcDbEntity
  8
0
100
AcDbSpline
 62
7
  6
CONTINUOUS
 70
0
 71
3
 72
15
 73
11
 74
0
 42
0.0000001
 43
0.0000001
 44
0.0000000001
 40
0.0
 40
0.0
 40
0.0
 40
0.0
 40
0.1222272282
 40
0.244887271
 40
0.3681945735
 40
0.4923415171
 40
0.6174904199
 40
0.7437672107
 40
0.8712554792
 40
1.0
 40
1.0
 40
1.0
 40
1.0
 10
10.8373674546
 20
6.8875166346
 30
0.0
 10
10.8323082103
 20
6.880224048
 30
0.0
 10
10.8215162838
 20
6.8660556966
 30
0.0
 10
10.8034792284
 20
6.8462747895
 30
0.0
 10
10.7836773343
 20
6.8280518972
 30
0.0
 10
10.7622325334
 20
6.8114989004
 30
0.0
 10
10.7392760828
 20
6.7967148278
 30
0.0
 10
10.7149497711
 20
6.7837888701
 30
0.0
 10
10.6894077869
 20
6.772799753
 30
0.0
 10
10.6717577515
 20
6.7668373562
 30
0.0
 10
10.662789916
 20
6.7641952525
 30
0.0
  0
SPLINE
  5
2F8
100
AcDbEntity
  8
0
100
AcDbSpline
 62
7
  6
CONTINUOUS
 70
0
 71
3
 72
49
 73
45
 74
0
 42
0.0000001
 43
0.0000001
 44
0.0000000001
 40
0.0
 40
0.0
 40
0.0
 40
0.0
 40
0.0149623724
 40
0.0299308884
 40
0.0449083566
 40
0.0598975352
 40
0.0749011141
 40
0.0899217018
 40
0.1049618119
 40
0.1200238463
 40
0.1351100833
 40
0.150222668
 40
0.1653635977
 40
0.1805347116
 40
0.1957376849
 40
0.2109740189
 40
0.2262450311
 40
0.2415518542
 40
0.2568954297
 40
0.2722765012
 40
0.2876956157
 40
0.3031531223
 40
0.3341787408
 40
0.3653571991
 40
0.3966841968
 40
0.4281524609
 40
0.4597519243
 40
0.4914699605
 40
0.5232916581
 40
0.5552001238
 40
0.5871768238
 40
0.6192019421
 40
0.6512547563
 40
0.6833140289
 40
0.7153584024
 40
0.7473667958
 40
0.7793187994
 40
0.8111950607
 40
0.8429776527
 40
0.8746504275
 40
0.9061993458
 40
0.9376127735
 40
0.968881564
 40
1.0
 40
1.0
 40
1.0
 40
1.0
 10
9.6849142537
 20
9.1097774186
 30
0.0
 10
9.6781943241
 20
9.1026841793
 30
0.0
 10
9.6650232519
 20
9.0882346625
 30
0.0
 10
9.6461103896
 20
9.0658122825
 30
0.0
 10
9.6280613133
 20
9.0426661562
 30
0.0
 10
9.6108997335
 20
9.0188265004
 30
0.0
 10
9.5946476729
 20
8.994323945
 30
0.0
 10
9.5793260492
 20
8.9691901522
 30
0.0
 10
9.5649546289
 20
8.9434575016
 30
0.0
 10
9.5515519659
 20
8.9171591603
 30
0.0
 10
9.5391352584
 20
8.8903290716
 30
0.0
 10
9.5277205134
 20
8.8630018186
 30
0.0
 10
9.5173224863
 20
8.8352126131
 30
0.0
 10
9.507954496
 20
8.806997309
 30
0.0
 10
9.4996285957
 20
8.7783922776
 30
0.0
 10
9.4923555668
 20
8.7494343749
 30
0.0
 10
9.4861447071
 20
8.7201609424
 30
0.0
 10
9.4810039773
 20
8.690609722
 30
0.0
 10
9.4769400542
 20
8.6608187534
 30
0.0
 10
9.4739581107
 20
8.6308265695
 30
0.0
 10
9.4720619601
 20
8.6006713284
 30
0.0
 10
9.470983373
 20
8.5602541808
 30
0.0
 10
9.4723688139
 20
8.5095100547
 30
0.0
 10
9.4783787362
 20
8.4486773704
 30
0.0
 10
9.4887061154
 20
8.3881330359
 30
0.0
 10
9.5032974435
 20
8.3281907802
 30
0.0
 10
9.5220769969
 20
8.2691584198
 30
0.0
 10
9.5449477085
 20
8.2113397511
 30
0.0
 10
9.5717916016
 20
8.155032121
 30
0.0
 10
9.60247017
 20
8.1005250395
 30
0.0
 10
9.6368254305
 20
8.0480988063
 30
0.0
 10
9.6746805013
 20
7.9980230031
 30
0.0
 10
9.7158405028
 20
7.9505550748
 30
0.0
 10
9.760093767
 20
7.9059392111
 30
0.0
 10
9.8072126323
 20
7.8644048608
 30
0.0
 10
9.8569547866
 20
7.8261657047
 30
0.0
 10
9.9090645139
 20
7.7914186364
 30
0.0
 10
9.963273824
 20
7.7603424909
 30
0.0
 10
10.0193039952
 20
7.7330974378
 30
0.0
 10
10.0768669978
 20
7.7098239999
 30
0.0
 10
10.1356664655
 20
7.6906422485
 30
0.0
 10
10.195400995
 20
7.6756514395
 30
0.0
 10
10.2557592439
 20
7.6649293583
 30
0.0
 10
10.2963161502
 20
7.6606532574
 30
0.0
 10
10.3165888838
 20
7.6592473386
 30
0.0
  0
SPLINE
  5
2F9
100
AcDbEntity
  8
0
100
AcDbSpline
 62
7
  6
CONTINUOUS
 70
0
 71
3
 72
39
 73
35
 74
0
 42
0.0000001
 43
0.0000001
 44
0.0000000001
 40
0.0
 40
0.0
 40
0.0
 40
0.0
 40
0.0305084433
 40
0.0611246559
 40
0.0918482058
 40
0.122677562
 40
0.1536101209
 40
0.1846422435
 40
0.2157693011
 40
0.2469857309
 40
0.278285098
 40
0.3096601647
 40
0.3411029662
 40
0.372604891
 40
0.4041567661
 40
0.4357489472
 40
0.4673714103
 40
0.4990138477
 40
0.5306657651
 40
0.5623165802
 40
0.5939557207
 40
0.6255727235
 40
0.6571573328
 40
0.688699596
 40
0.7201899591
 40
0.7516193582
 40
0.7829793092
 40
0.8142619899
 40
0.8454603314
 40
0.8765680476
 40
0.9075798535
 40
0.9384910774
 40
0.9692988503
 40
1.0
 40
1.0
 40
1.0
 40
1.0
 10
10.4305875033
 20
9.2736720315
 30
0.0
 10
10.4300081405
 20
9.263462086
 30
0.0
 10
10.4293724481
 20
9.2429725322
 30
0.0
 10
10.42998468
 20
9.2121787407
 30
0.0
 10
10.4321591198
 20
9.1813471791
 30
0.0
 10
10.4358901285
 20
9.1505585954
 30
0.0
 10
10.4411679741
 20
9.1198922664
 30
0.0
 10
10.4479789511
 20
9.0894275073
 30
0.0
 10
10.4563053872
 20
9.0592430043
 30
0.0
 10
10.4661257053
 20
9.0294167389
 30
0.0
 10
10.4774144761
 20
9.0000257533
 30
0.0
 10
10.4901424852
 20
8.9711459628
 30
0.0
 10
10.5042768084
 20
8.9428519582
 30
0.0
 10
10.5197808973
 20
8.9152168158
 30
0.0
 10
10.5366146725
 20
8.8883119091
 30
0.0
 10
10.554734628
 20
8.862206727
 30
0.0
 10
10.5740939407
 20
8.8369686932
 30
0.0
 10
10.5946425873
 20
8.8126629897
 30
0.0
 10
10.6163274798
 20
8.7893523935
 30
0.0
 10
10.6390926011
 20
8.767097115
 30
0.0
 10
10.6628791493
 20
8.7459546435
 30
0.0
 10
10.6876256883
 20
8.7259795998
 30
0.0
 10
10.7132683057
 20
8.7072235954
 30
0.0
 10
10.7397407767
 20
8.6897351003
 30
0.0
 10
10.7669747341
 20
8.6735593184
 30
0.0
 10
10.7948998433
 20
8.6587380694
 30
0.0
 10
10.8234439793
 20
8.6453096771
 30
0.0
 10
10.8525334198
 20
8.6333088692
 30
0.0
 10
10.8820930198
 20
8.6227667123
 30
0.0
 10
10.9120464592
 20
8.6137104638
 30
0.0
 10
10.9423162395
 20
8.6061636648
 30
0.0
 10
10.972824547
 20
8.6001457308
 30
0.0
 10
11.0034913834
 20
8.5956725429
 30
0.0
 10
11.0240271965
 20
8.5937243233
 30
0.0
 10
11.0342935036
 20
8.5930123525
 30
0.0
  0
SPLINE
  5
2FA
100
AcDbEntity
  8
0
100
AcDbSpline
 62
7
  6
CONTINUOUS
 70
0
 71
3
 72
39
 73
35
 74
0
 42
0.0000001
 43
0.0000001
 44
0.0000000001
 40
0.0
 40
0.0
 40
0.0
 40
0.0
 40
0.029960943
 40
0.059942355
 40
0.0899608328
 40
0.1200323466
 40
0.1501719745
 40
0.1803936565
 40
0.2107099721
 40
0.2411319441
 40
0.2716688755
 40
0.3023282194
 40
0.3331154822
 40
0.3640341594
 40
0.3950857069
 40
0.4262695458
 40
0.4575830966
 40
0.4890218424
 40
0.5205794175
 40
0.5522477225
 40
0.5840170604
 40
0.6158762897
 40
0.6478129942
 40
0.6798136686
 40
0.7118639137
 40
0.7439486416
 40
0.7760522862
 40
0.8081590202
 40
0.8402529742
 40
0.8723184545
 40
0.9043401559
 40
0.9363034344
 40
0.9681941963
 40
1.0
 40
1.0
 40
1.0
 40
1.0
 10
9.6229294512
 20
7.452600383
 30
0.0
 10
9.6097797375
 20
7.4395451816
 30
0.0
 10
9.5843292943
 20
7.412545036
 30
0.0
 10
9.5489058608
 20
7.3695912534
 30
0.0
 10
9.5163559598
 20
7.3243338363
 30
0.0
 10
9.4868063722
 20
7.2769484765
 30
0.0
 10
9.4603694552
 20
7.227616123
 30
0.0
 10
9.4371463722
 20
7.1765259201
 30
0.0
 10
9.4172257419
 20
7.1238734904
 30
0.0
 10
9.4006835013
 20
7.0698604642
 30
0.0
 10
9.3875825979
 20
7.0146936015
 30
0.0
 10
9.3779728038
 20
6.9585840073
 30
0.0
 10
9.3718905406
 20
6.9017463205
 30
0.0
 10
9.3693587078
 20
6.8443979013
 30
0.0
 10
9.3703866001
 20
6.7867579939
 30
0.0
 10
9.3749699424
 20
6.7290468876
 30
0.0
 10
9.3830909082
 20
6.6714850863
 30
0.0
 10
9.3947181839
 20
6.6142924759
 30
0.0
 10
9.4098070397
 20
6.5576874768
 30
0.0
 10
9.4282995827
 20
6.5018862287
 30
0.0
 10
9.4501249705
 20
6.4471017751
 30
0.0
 10
9.4751996909
 20
6.3935432668
 30
0.0
 10
9.503427812
 20
6.341415138
 30
0.0
 10
9.5347014086
 20
6.2909163545
 30
0.0
 10
9.5689009778
 20
6.2422396671
 30
0.0
 10
9.6058958992
 20
6.195570892
 30
0.0
 10
9.6455448804
 20
6.1510881727
 30
0.0
 10
9.6876965161
 20
6.1089613066
 30
0.0
 10
9.7321898715
 20
6.0693511386
 30
0.0
 10
9.7788551638
 20
6.032408926
 30
0.0
 10
9.8275141104
 20
5.9982758307
 30
0.0
 10
9.877981573
 20
5.9670820515
 30
0.0
 10
9.9300625109
 20
5.9389476944
 30
0.0
 10
9.9657845621
 20
5.9222759281
 30
0.0
 10
9.9838473999
 20
5.9144866217
 30
0.0
  0
SPLINE
  5
2FB
100
AcDbEntity
  8
0
100
AcDbSpline
 62
7
  6
CONTINUOUS
 70
0
 71
3
 72
40
 73
36
 74
0
 42
0.0000001
 43
0.0000001
 44
0.0000000001
 40
0.0
 40
0.0
 40
0.0
 40
0.0
 40
0.0302882289
 40
0.0454758601
 40
0.0606920909
 40
0.0912086562
 40
0.1218425803
 40
0.1525940599
 40
0.183461857
 40
0.2144433303
 40
0.2455344816
 40
0.2767300178
 40
0.3080234259
 40
0.3394070596
 40
0.3708722371
 40
0.4024093486
 40
0.4340079707
 40
0.4656569892
 40
0.4973447265
 40
0.5290590741
 40
0.5607876279
 40
0.5925178266
 40
0.6242370908
 40
0.6559329619
 40
0.6875932409
 40
0.7192061249
 40
0.7507603398
 40
0.78224527
 40
0.813651081
 40
0.8449688402
 40
0.8761906138
 40
0.907309605
 40
0.938320138
 40
0.9692179969
 40
1.0
 40
1.0
 40
1.0
 40
1.0
 10
10.362725537
 20
9.2832648055
 30
0.0
 10
10.360489828
 20
9.2724649759
 30
0.0
 10
10.3575946022
 20
9.2561491119
 30
0.0
 10
10.3546576477
 20
9.2342433251
 30
0.0
 10
10.3523292962
 20
9.2121803199
 30
0.0
 10
10.3505764514
 20
9.1844125815
 30
0.0
 10
10.3503290449
 20
9.1509326039
 30
0.0
 10
10.3519359983
 20
9.1173619531
 30
0.0
 10
10.3553923237
 20
9.0838041614
 30
0.0
 10
10.3606872905
 20
9.0503618951
 30
0.0
 10
10.3678045643
 20
9.0171376674
 30
0.0
 10
10.3767222314
 20
8.9842332499
 30
0.0
 10
10.3874128747
 20
8.9517494376
 30
0.0
 10
10.3998436572
 20
8.9197857231
 30
0.0
 10
10.4139764239
 20
8.8884399988
 30
0.0
 10
10.4297678184
 20
8.8578082586
 30
0.0
 10
10.4471694168
 20
8.8279843062
 30
0.0
 10
10.4661278748
 20
8.7990594697
 30
0.0
 10
10.4865850913
 20
8.7711223243
 30
0.0
 10
10.5084783855
 20
8.7442584223
 30
0.0
 10
10.5317406882
 20
8.7185500332
 30
0.0
 10
10.5563007459
 20
8.694075893
 30
0.0
 10
10.5820833381
 20
8.6709109645
 30
0.0
 10
10.6090095063
 20
8.6491262092
 30
0.0
 10
10.6369967943
 20
8.6287883707
 30
0.0
 10
10.6659594993
 20
8.6099597717
 30
0.0
 10
10.6958089325
 20
8.5926981229
 30
0.0
 10
10.7264536882
 20
8.5770563488
 30
0.0
 10
10.7577999248
 20
8.5630824218
 30
0.0
 10
10.7897516379
 20
8.5508192249
 30
0.0
 10
10.8222109988
 20
8.5403043967
 30
0.0
 10
10.855078477
 20
8.5315702713
 30
0.0
 10
10.8882537774
 20
8.5246436502
 30
0.0
 10
10.9216338803
 20
8.5195460108
 30
0.0
 10
10.9440013466
 20
8.5173730234
 30
0.0
 10
10.9551831001
 20
8.5165975661
 30
0.0
  0
SPLINE
  5
2FC
100
AcDbEntity
  8
0
100
AcDbSpline
 62
7
  6
CONTINUOUS
 70
0
 71
3
 72
15
 73
11
 74
0
 42
0.0000001
 43
0.0000001
 44
0.0000000001
 40
0.0
 40
0.0
 40
0.0
 40
0.0
 40
0.1243984722
 40
0.2488567518
 40
0.3734337819
 40
0.498186819
 40
0.6231705207
 40
0.7484366025
 40
0.8740316793
 40
1.0
 40
1.0
 40
1.0
 40
1.0
 10
10.9616474237
 20
6.0666499139
 30
0.0
 10
10.9493766471
 20
6.0547972702
 30
0.0
 10
10.9240986006
 20
6.0318294652
 30
0.0
 10
10.8841412057
 20
5.9997458036
 30
0.0
 10
10.8422634728
 20
5.9701250767
 30
0.0
 10
10.7986031604
 20
5.9430650956
 30
0.0
 10
10.7533017098
 20
5.9186531342
 30
0.0
 10
10.7065057867
 20
5.8969683298
 30
0.0
 10
10.6583695017
 20
5.8780813848
 30
0.0
 10
10.6255354436
 20
5.8674113553
 30
0.0
 10
10.608954649
 20
5.86256092
 30
0.0
  0
SPLINE
  5
2FD
100
AcDbEntity
  8
0
100
AcDbSpline
 62
7
  6
CONTINUOUS
 70
0
 71
3
 72
42
 73
38
 74
0
 42
0.0000001
 43
0.0000001
 44
0.0000000001
 40
0.0
 40
0.0
 40
0.0
 40
0.0
 40
0.0302736062
 40
0.0454539137
 40
0.0606628489
 40
0.0911650085
 40
0.1217850539
 40
0.1371409584
 40
0.152526375
 40
0.1833820533
 40
0.2143525805
 40
0.2454341113
 40
0.2766214725
 40
0.3079082375
 40
0.3392868144
 40
0.3707485439
 40
0.4022838081
 40
0.4338821477
 40
0.4655323859
 40
0.4972227587
 40
0.5289410501
 40
0.5606747303
 40
0.5924110972
 40
0.6241374186
 40
0.6558410749
 40
0.6875097005
 40
0.7191313242
 40
0.7506945054
 40
0.7821884668
 40
0.8136032208
 40
0.8449296906
 40
0.8761598202
 40
0.9072866844
 40
0.9383045604
 40
0.953772478
 40
0.9692119618
 40
1.0
 40
1.0
 40
1.0
 40
1.0
 10
10.3035285771
 20
9.2869417766
 30
0.0
 10
10.3009871613
 20
9.275288963
 30
0.0
 10
10.2976728435
 20
9.2576780686
 30
0.0
 10
10.2942577239
 20
9.2340220476
 30
0.0
 10
10.291503855
 20
9.2101886104
 30
0.0
 10
10.2893202192
 20
9.180179348
 30
0.0
 10
10.2888202847
 20
9.1500372195
 30
0.0
 10
10.289426691
 20
9.1258679149
 30
0.0
 10
10.2907070392
 20
9.1016319971
 30
0.0
 10
10.2935701153
 20
9.0713316267
 30
0.0
 10
10.2990058052
 20
9.0351172061
 30
0.0
 10
10.3064279478
 20
8.9991233623
 30
0.0
 10
10.3158133864
 20
8.9634623614
 30
0.0
 10
10.3271329319
 20
8.9282445233
 30
0.0
 10
10.340351403
 20
8.8935790251
 30
0.0
 10
10.3554277505
 20
8.8595732583
 30
0.0
 10
10.3723151806
 20
8.8263325809
 30
0.0
 10
10.3909613017
 20
8.7939599717
 30
0.0
 10
10.4113082858
 20
8.7625557192
 30
0.0
 10
10.4332930478
 20
8.7322171115
 30
0.0
 10
10.4568474396
 20
8.7030381375
 30
0.0
 10
10.481898461
 20
8.6751091975
 30
0.0
 10
10.5083684844
 20
8.6485168245
 30
0.0
 10
10.5361754939
 20
8.6233434184
 30
0.0
 10
10.5652333385
 20
8.5996669912
 30
0.0
 10
10.5954519968
 20
8.5775609272
 30
0.0
 10
10.6267378544
 20
8.5570937564
 30
0.0
 10
10.658993993
 20
8.538328943
 30
0.0
 10
10.692120483
 20
8.5213246903
 30
0.0
 10
10.7260147121
 20
8.5061337567
 30
0.0
 10
10.7605716229
 20
8.4928033066
 30
0.0
 10
10.7956843231
 20
8.481374714
 30
0.0
 10
10.8312433499
 20
8.4718836117
 30
0.0
 10
10.8611856504
 20
8.4656074233
 30
0.0
 10
10.8852508723
 20
8.461584679
 30
0.0
 10
10.9093269701
 20
8.4582352418
 30
0.0
 10
10.9274654776
 20
8.4564701041
 30
0.0
 10
10.9395658112
 20
8.4556309431
 30
0.0
  0
SPLINE
  5
2FE
100
AcDbEntity
  8
0
100
AcDbSpline
 62
7
  6
CONTINUOUS
 70
0
 71
3
 72
39
 73
35
 74
0
 42
0.0000001
 43
0.0000001
 44
0.0000000001
 40
0.0
 40
0.0
 40
0.0
 40
0.0
 40
0.0318713771
 40
0.0636346413
 40
0.0952913699
 40
0.1268441871
 40
0.1582967484
 40
0.1896537145
 40
0.220920714
 40
0.252104294
 40
0.2832118611
 40
0.3142516106
 40
0.345232447
 40
0.376163894
 40
0.4070559978
 40
0.4379192223
 40
0.4687643392
 40
0.4996023137
 40
0.5304441874
 40
0.5613009605
 40
0.5921834739
 40
0.6231022939
 40
0.6540676008
 40
0.6850890825
 40
0.7161758349
 40
0.7473362702
 40
0.7785780343
 40
0.8099079314
 40
0.8413318731
 40
0.8728547823
 40
0.9044806994
 40
0.9362123163
 40
0.9680520597
 40
1.0
 40
1.0
 40
1.0
 40
1.0
 10
10.976690228
 20
6.7207620684
 30
0.0
 10
10.9766902375
 20
6.7097185468
 30
0.0
 10
10.9761498425
 20
6.6876650469
 30
0.0
 10
10.9737102112
 20
6.6547236469
 30
0.0
 10
10.9696487142
 20
6.6220529429
 30
0.0
 10
10.9639750539
 20
6.5897327057
 30
0.0
 10
10.956702817
 20
6.5578405561
 30
0.0
 10
10.9478494501
 20
6.5264534473
 30
0.0
 10
10.9374362206
 20
6.495647032
 30
0.0
 10
10.9254881609
 20
6.4654955992
 30
0.0
 10
10.9120340112
 20
6.4360718622
 30
0.0
 10
10.8971061517
 20
6.4074467905
 30
0.0
 10
10.8807405258
 20
6.3796894345
 30
0.0
 10
10.8629765547
 20
6.3528667577
 30
0.0
 10
10.8438570431
 20
6.3270434725
 30
0.0
 10
10.8234280755
 20
6.3022818828
 30
0.0
 10
10.8017389074
 20
6.2786417288
 30
0.0
 10
10.7788418485
 20
6.2561800369
 30
0.0
 10
10.7547921284
 20
6.2349509856
 30
0.0
 10
10.7296477631
 20
6.2150057719
 30
0.0
 10
10.7034694127
 20
6.1963924874
 30
0.0
 10
10.6763202332
 20
6.1791560007
 30
0.0
 10
10.6482657215
 20
6.1633378497
 30
0.0
 10
10.6193735557
 20
6.1489761407
 30
0.0
 10
10.5897134293
 20
6.1361054579
 30
0.0
 10
10.5593568816
 20
6.1247567792
 30
0.0
 10
10.5283771259
 20
6.114957398
 30
0.0
 10
10.4968488639
 20
6.1067308595
 30
0.0
 10
10.4648481205
 20
6.1000969278
 30
0.0
 10
10.4324519979
 20
6.0950714816
 30
0.0
 10
10.3997387054
 20
6.0916666112
 30
0.0
 10
10.366786674
 20
6.0898903414
 30
0.0
 10
10.3336764823
 20
6.0897469605
 30
0.0
 10
10.311585652
 20
6.0907385311
 30
0.0
 10
10.3005421258
 20
6.0915044022
 30
0.0
  0
LINE
  5
2FF
100
AcDbEntity
  8
0
100
AcDbLine
 62
7
  6
CONTINUOUS
 10
10.9756826961
 20
6.7218990614
 11
10.9756227606
 21
6.720851424
  0
SPLINE
  5
300
100
AcDbEntity
  8
0
100
AcDbSpline
 62
7
  6
CONTINUOUS
 70
0
 71
3
 72
39
 73
35
 74
0
 42
0.0000001
 43
0.0000001
 44
0.0000000001
 40
0.0
 40
0.0
 40
0.0
 40
0.0
 40
0.0317700167
 40
0.0634376262
 40
0.0950053828
 40
0.1264767618
 40
0.1578561354
 40
0.1891487397
 40
0.2203606321
 40
0.2514986412
 40
0.2825703073
 40
0.3135838143
 40
0.3445479129
 40
0.3754718382
 40
0.4063652206
 40
0.4372379915
 40
0.4681002873
 40
0.4989623483
 40
0.5298344177
 40
0.5607266393
 40
0.5916489571
 40
0.6226110172
 40
0.6536220738
 40
0.684690901
 40
0.7158257097
 40
0.7470340719
 40
0.7783228503
 40
0.8096981406
 40
0.8411652206
 40
0.8727284741
 40
0.90439153
 40
0.9361566291
 40
0.9680262917
 40
1.0
 40
1.0
 40
1.0
 40
1.0
 10
10.9756227606
 20
6.720851424
 30
0.0
 10
10.9750412189
 20
6.7108321363
 30
0.0
 10
10.9734036894
 20
6.6908501439
 30
0.0
 10
10.96951922
 20
6.6610792537
 30
0.0
 10
10.9642190305
 20
6.6316225772
 30
0.0
 10
10.9575149584
 20
6.6025468756
 30
0.0
 10
10.9494219186
 20
6.5739169393
 30
0.0
 10
10.9399579495
 20
6.5457968738
 30
0.0
 10
10.9291441502
 20
6.5182495757
 30
0.0
 10
10.9170046558
 20
6.4913366878
 30
0.0
 10
10.9035665854
 20
6.4651184281
 30
0.0
 10
10.8888599637
 20
6.4396534693
 30
0.0
 10
10.8729176591
 20
6.4149988033
 30
0.0
 10
10.8557753102
 20
6.391209614
 30
0.0
 10
10.8374712464
 20
6.3683391524
 30
0.0
 10
10.8180464045
 20
6.3464386154
 30
0.0
 10
10.7975442531
 20
6.3255570126
 30
0.0
 10
10.7760106733
 20
6.3057410713
 30
0.0
 10
10.7534938567
 20
6.2870351305
 30
0.0
 10
10.7300441963
 20
6.2694810414
 30
0.0
 10
10.7057141738
 20
6.2531180729
 30
0.0
 10
10.6805582394
 20
6.237982827
 30
0.0
 10
10.6546327005
 20
6.2241091351
 30
0.0
 10
10.6279955849
 20
6.2115279933
 30
0.0
 10
10.6007065042
 20
6.200267502
 30
0.0
 10
10.5728265212
 20
6.1903528031
 30
0.0
 10
10.5444180128
 20
6.1818060237
 30
0.0
 10
10.5155445273
 20
6.1746462301
 30
0.0
 10
10.4862706599
 20
6.1688893871
 30
0.0
 10
10.4566618432
 20
6.1645482623
 30
0.0
 10
10.4267844276
 20
6.1616325686
 30
0.0
 10
10.3967047959
 20
6.1601486214
 30
0.0
 10
10.3664912873
 20
6.1600998352
 30
0.0
 10
10.3463354196
 20
6.1610226127
 30
0.0
 10
10.3362591246
 20
6.1617214061
 30
0.0
  0
SPLINE
  5
301
100
AcDbEntity
  8
0
100
AcDbSpline
 62
7
  6
CONTINUOUS
 70
0
 71
3
 72
23
 73
19
 74
0
 42
0.0000001
 43
0.0000001
 44
0.0000000001
 40
0.0
 40
0.0
 40
0.0
 40
0.0
 40
0.0616482093
 40
0.1233194447
 40
0.1850364761
 40
0.2468215627
 40
0.3086962074
 40
0.3706809212
 40
0.432795002
 40
0.49505633
 40
0.5574811833
 40
0.6200840699
 40
0.6828776109
 40
0.7458723283
 40
0.8090768909
 40
0.8724970111
 40
0.9361380651
 40
1.0
 40
1.0
 40
1.0
 40
1.0
 10
10.776175514
 20
6.3713320469
 30
0.0
 10
10.7692683407
 20
6.3646602194
 30
0.0
 10
10.7550894984
 20
6.3516829906
 30
0.0
 10
10.7328015018
 20
6.3333845859
 30
0.0
 10
10.7095456649
 20
6.3162956862
 30
0.0
 10
10.6853813929
 20
6.3004600813
 30
0.0
 10
10.6603693743
 20
6.2859174361
 30
0.0
 10
10.6345727011
 20
6.2727044042
 30
0.0
 10
10.6080563651
 20
6.2608542108
 30
0.0
 10
10.5808871839
 20
6.2503966574
 30
0.0
 10
10.5531336085
 20
6.2413580233
 30
0.0
 10
10.5248655529
 20
6.2337609928
 30
0.0
 10
10.4961542266
 20
6.2276246312
 30
0.0
 10
10.467071894
 20
6.2229642771
 30
0.0
 10
10.4376919066
 20
6.2197916497
 30
0.0
 10
10.4080878286
 20
6.2181145428
 30
0.0
 10
10.3783353054
 20
6.2179372116
 30
0.0
 10
10.3584832268
 20
6.2188176075
 30
0.0
 10
10.3485589749
 20
6.2195058567
 30
0.0
  0
SPLINE
  5
302
100
AcDbEntity
  8
0
100
AcDbSpline
 62
7
  6
CONTINUOUS
 70
0
 71
3
 72
15
 73
11
 74
0
 42
0.0000001
 43
0.0000001
 44
0.0000000001
 40
0.0
 40
0.0
 40
0.0
 40
0.0
 40
0.1233050101
 40
0.2469770604
 40
0.3710881062
 40
0.4957003238
 40
0.6208648471
 40
0.746621016
 40
0.8729942048
 40
1.0
 40
1.0
 40
1.0
 40
1.0
 10
10.8583267518
 20
6.472689448
 30
0.0
 10
10.8463550562
 20
6.4657536661
 30
0.0
 10
10.8218333815
 20
6.4527751415
 30
0.0
 10
10.7836214628
 20
6.4361378468
 30
0.0
 10
10.7441212885
 20
6.4223862231
 30
0.0
 10
10.7035403209
 20
6.4115927143
 30
0.0
 10
10.6620882304
 20
6.4038123447
 30
0.0
 10
10.6199792175
 20
6.3990851134
 30
0.0
 10
10.5774338717
 20
6.3974346063
 30
0.0
 10
10.5489899751
 20
6.3983890272
 30
0.0
 10
10.5347731683
 20
6.3993749661
 30
0.0
  0
SPLINE
  5
303
100
AcDbEntity
  8
0
100
AcDbSpline
 62
7
  6
CONTINUOUS
 70
0
 71
3
 72
39
 73
35
 74
0
 42
0.0000001
 43
0.0000001
 44
0.0000000001
 40
0.0
 40
0.0
 40
0.0
 40
0.0
 40
0.0299274893
 40
0.0598900752
 40
0.089909612
 40
0.1200066602
 40
0.1502000301
 40
0.1805063754
 40
0.2109398493
 40
0.2415118246
 40
0.2722306819
 40
0.3031016748
 40
0.3341268667
 40
0.3653051333
 40
0.3966322301
 40
0.4281009258
 40
0.4597011854
 40
0.4914203993
 40
0.5232436584
 40
0.5551540639
 40
0.5871330637
 40
0.6191608131
 40
0.6512165545
 40
0.6832790075
 40
0.7153267669
 40
0.7473387014
 40
0.779294349
 40
0.8111743039
 40
0.8429605908
 40
0.8746370148
 40
0.9061894894
 40
0.9376063768
 40
0.9688784222
 40
1.0
 40
1.0
 40
1.0
 40
1.0
 10
10.1429076747
 20
9.2723441266
 30
0.0
 10
10.1325239753
 20
9.2614399422
 30
0.0
 10
10.1125768866
 20
9.2388083057
 30
0.0
 10
10.085337437
 20
9.2026402438
 30
0.0
 10
10.0609009531
 20
9.1644180805
 30
0.0
 10
10.0393961166
 20
9.1243422953
 30
0.0
 10
10.0209332184
 20
9.0826197166
 30
0.0
 10
10.0056074887
 20
9.0394665155
 30
0.0
 10
9.9934976761
 20
8.9951059112
 30
0.0
 10
9.9846659422
 20
8.9497673187
 30
0.0
 10
9.9791573498
 20
8.9036850982
 30
0.0
 10
9.9769997982
 20
8.8570973214
 30
0.0
 10
9.9782039365
 20
8.8102445484
 30
0.0
 10
9.98276306
 20
8.7633686054
 30
0.0
 10
9.9906531134
 20
8.7167113294
 30
0.0
 10
10.0018329588
 20
8.6705133424
 30
0.0
 10
10.0162445924
 20
8.6250128445
 30
0.0
 10
10.0338133214
 20
8.5804443628
 30
0.0
 10
10.0544482474
 20
8.5370375731
 30
0.0
 10
10.0780427814
 20
8.4950161591
 30
0.0
 10
10.1044751389
 20
8.454596661
 30
0.0
 10
10.1336088977
 20
8.4159873179
 30
0.0
 10
10.1652938122
 20
8.3793870755
 30
0.0
 10
10.199366573
 20
8.3449845874
 30
0.0
 10
10.2356515499
 20
8.312957169
 30
0.0
 10
10.2739617391
 20
8.2834699216
 30
0.0
 10
10.3140997562
 20
8.2566749462
 30
0.0
 10
10.3558588177
 20
8.2327105445
 30
0.0
 10
10.3990237141
 20
8.2117004095
 30
0.0
 10
10.4433720816
 20
8.1937531012
 30
0.0
 10
10.4886751668
 20
8.1789615077
 30
0.0
 10
10.5347002102
 20
8.1674022789
 30
0.0
 10
10.5812068477
 20
8.1591354637
 30
0.0
 10
10.6124567828
 20
8.1558394634
 30
0.0
 10
10.6280773475
 20
8.1547561736
 30
0.0
  0
SPLINE
  5
304
100
AcDbEntity
  8
0
100
AcDbSpline
 62
7
  6
CONTINUOUS
 70
0
 71
3
 72
71
 73
67
 74
0
 42
0.0000001
 43
0.0000001
 44
0.0000000001
 40
0.0
 40
0.0
 40
0.0
 40
0.0
 40
0.0155850743
 40
0.0311173633
 40
0.0465982661
 40
0.0620288272
 40
0.0774108274
 40
0.0927464615
 40
0.1080383952
 40
0.1232897293
 40
0.1385039731
 40
0.1536850125
 40
0.1688370723
 40
0.1839646755
 40
0.1990725977
 40
0.2141658189
 40
0.2292494721
 40
0.2443287905
 40
0.2594090525
 40
0.2744955268
 40
0.2895934173
 40
0.3047078084
 40
0.3198436131
 40
0.3350055222
 40
0.3501979568
 40
0.3654250251
 40
0.3806904822
 40
0.3959976948
 40
0.4113496107
 40
0.426748733
 40
0.442197099
 40
0.4576962654
 40
0.4732472971
 40
0.4888507624
 40
0.5045067321
 40
0.5202147846
 40
0.5359740144
 40
0.551783045
 40
0.5676400462
 40
0.5835427543
 40
0.5994884962
 40
0.6154742165
 40
0.6314965074
 40
0.647551641
 40
0.663635604
 40
0.6797441339
 40
0.6958727565
 40
0.7120168257
 40
0.728171563
 40
0.7443320988
 40
0.7604935142
 40
0.776650883
 40
0.7927993133
 40
0.8089339897
 40
0.8250502141
 40
0.8411434464
 40
0.8572093441
 40
0.8732438002
 40
0.889242981
 40
0.90520336
 40
0.9211217562
 40
0.9369953434
 40
0.952821754
 40
0.9685988727
 40
0.9843254516
 40
1.0
 40
1.0
 40
1.0
 40
1.0
 10
10.2771052385
 20
7.4450196471
 30
0.0
 10
10.2661896695
 20
7.445398072
 30
0.0
 10
10.2443733993
 20
7.4456255033
 30
0.0
 10
10.2117287054
 20
7.4443694875
 30
0.0
 10
10.1792922253
 20
7.4415190034
 30
0.0
 10
10.147141066
 20
7.4370804833
 30
0.0
 10
10.1153508476
 20
7.4310643985
 30
0.0
 10
10.0839965638
 20
7.4234848156
 30
0.0
 10
10.0531521315
 20
7.4143595419
 30
0.0
 10
10.0228902929
 20
7.4037100249
 30
0.0
 10
9.9932824208
 20
7.3915613133
 30
0.0
 10
9.9643983564
 20
7.3779419988
 30
0.0
 10
9.9363062405
 20
7.3628841492
 30
0.0
 10
9.9090723523
 20
7.3464232343
 30
0.0
 10
9.8827609504
 20
7.3285980433
 30
0.0
 10
9.8574341205
 20
7.3094505929
 30
0.0
 10
9.8331516228
 20
7.2890260318
 30
0.0
 10
9.8099707457
 20
7.2673725367
 30
0.0
 10
9.7879461744
 20
7.244541189
 30
0.0
 10
9.7671298596
 20
7.2205858549
 30
0.0
 10
9.7475708937
 20
7.1955630558
 30
0.0
 10
9.7293153945
 20
7.1695318336
 30
0.0
 10
9.7124063955
 20
7.1425536091
 30
0.0
 10
9.6968837448
 20
7.1146920356
 30
0.0
 10
9.6827840119
 20
7.0860128464
 30
0.0
 10
9.6701403913
 20
7.0565837024
 30
0.0
 10
9.6589826348
 20
7.0264740248
 30
0.0
 10
9.6493369829
 20
6.9957548295
 30
0.0
 10
9.6412261047
 20
6.9644985589
 30
0.0
 10
9.6346690467
 20
6.9327789102
 30
0.0
 10
9.6296811895
 20
6.9006706608
 30
0.0
 10
9.6262742131
 20
6.8682494927
 30
0.0
 10
9.6244560736
 20
6.8355918135
 30
0.0
 10
9.624230977
 20
6.8027745779
 30
0.0
 10
9.6255993726
 20
6.7698751048
 30
0.0
 10
9.628557961
 20
6.7369708956
 30
0.0
 10
9.6330997008
 20
6.7041394525
 30
0.0
 10
9.6392138277
 20
6.6714580974
 30
0.0
 10
9.6468858799
 20
6.6390037908
 30
0.0
 10
9.6560977335
 20
6.6068529523
 30
0.0
 10
9.6668276458
 20
6.575081282
 30
0.0
 10
9.6790503047
 20
6.5437635828
 30
0.0
 10
9.6927368817
 20
6.5129735822
 30
0.0
 10
9.7078551098
 20
6.4827837622
 30
0.0
 10
9.724369359
 20
6.45326519
 30
0.0
 10
9.7422407197
 20
6.4244873516
 30
0.0
 10
9.7614270943
 20
6.3965179897
 30
0.0
 10
9.781883296
 20
6.3694229453
 30
0.0
 10
9.8035611537
 20
6.3432660035
 30
0.0
 10
9.8264096269
 20
6.318108745
 30
0.0
 10
9.850374917
 20
6.2940103951
 30
0.0
 10
9.8754005994
 20
6.271027688
 30
0.0
 10
9.9014277585
 20
6.2492147366
 30
0.0
 10
9.9283951243
 20
6.2286229049
 30
0.0
 10
9.9562392161
 20
6.209300688
 30
0.0
 10
9.9848944913
 20
6.1912935986
 30
0.0
 10
10.0142934976
 20
6.1746440601
 30
0.0
 10
10.0443670324
 20
6.1593913078
 30
0.0
 10
10.0750443006
 20
6.1455712933
 30
0.0
 10
10.1062530839
 20
6.1332165895
 30
0.0
 10
10.1379198995
 20
6.1223563457
 30
0.0
 10
10.1699702278
 20
6.1130161498
 30
0.0
 10
10.2023284811
 20
6.1052181352
 30
0.0
 10
10.2349188582
 20
6.098980569
 30
0.0
 10
10.2676634532
 20
6.0943184715
 30
0.0
 10
10.2895836156
 20
6.0922643775
 30
0.0
 10
10.3005421258
 20
6.0915044022
 30
0.0
  0
SPLINE
  5
305
100
AcDbEntity
  8
0
100
AcDbSpline
 62
7
  6
CONTINUOUS
 70
0
 71
3
 72
71
 73
67
 74
0
 42
0.0000001
 43
0.0000001
 44
0.0000000001
 40
0.0
 40
0.0
 40
0.0
 40
0.0
 40
0.015555045
 40
0.0310586473
 40
0.0465118067
 40
0.0619159516
 40
0.0772730637
 40
0.092585537
 40
0.1078562171
 40
0.1230883566
 40
0.1382855913
 40
0.1534519067
 40
0.1685915996
 40
0.1837092366
 40
0.1988096086
 40
0.2138976829
 40
0.2289785529
 40
0.2440573857
 40
0.2591393693
 40
0.2742296598
 40
0.2893333278
 40
0.304455307
 40
0.3196003443
 40
0.3347729516
 40
0.3499773621
 40
0.3652174889
 40
0.3804968886
 40
0.3958187285
 40
0.411185759
 40
0.4266002899
 40
0.4420641721
 40
0.4575787843
 40
0.4731450242
 40
0.4887633054
 40
0.5044335586
 40
0.5201552365
 40
0.5359273239
 40
0.5517483507
 40
0.5676164094
 40
0.5835291756
 40
0.599483933
 40
0.6154775994
 40
0.6315067566
 40
0.6475676816
 40
0.6636563801
 40
0.6797686218
 40
0.6958999772
 40
0.7120458564
 40
0.7282015476
 40
0.7443622573
 40
0.7605231495
 40
0.7766793867
 40
0.7928261702
 40
0.8089587802
 40
0.8250726163
 40
0.8411632363
 40
0.8572263939
 40
0.873258076
 40
0.8892545375
 40
0.9052123351
 40
0.9211283632
 40
0.9369998627
 40
0.9528245325
 40
0.9686002746
 40
0.9843259589
 40
1.0
 40
1.0
 40
1.0
 40
1.0
 10
10.2965273494
 20
7.4441053447
 30
0.0
 10
10.2862932784
 20
7.444178947
 30
0.0
 10
10.2658519239
 20
7.4438331006
 30
0.0
 10
10.2353039741
 20
7.4418279887
 30
0.0
 10
10.2049884857
 20
7.4383420049
 30
0.0
 10
10.1749766112
 20
7.4333831105
 30
0.0
 10
10.1453376228
 20
7.4269627589
 30
0.0
 10
10.116140228
 20
7.4190957276
 30
0.0
 10
10.0874520534
 20
7.4098001806
 30
0.0
 10
10.0593395749
 20
7.3990975786
 30
0.0
 10
10.0318679387
 20
7.3870126568
 30
0.0
 10
10.0051008089
 20
7.3735733722
 30
0.0
 10
9.9791002228
 20
7.3588108244
 30
0.0
 10
9.9539264458
 20
7.3427591864
 30
0.0
 10
9.9296378305
 20
7.3254556257
 30
0.0
 10
9.9062906802
 20
7.3069402184
 30
0.0
 10
9.8839391167
 20
7.2872558558
 30
0.0
 10
9.8626349514
 20
7.2664481485
 30
0.0
 10
9.8424275518
 20
7.2445653278
 30
0.0
 10
9.8233637391
 20
7.2216581181
 30
0.0
 10
9.805487677
 20
7.1977796198
 30
0.0
 10
9.7888407697
 20
7.1729851839
 30
0.0
 10
9.7734615656
 20
7.147332283
 30
0.0
 10
9.7593856693
 20
7.1208803761
 30
0.0
 10
9.7466456561
 20
7.0936907713
 30
0.0
 10
9.7352709836
 20
7.065826487
 30
0.0
 10
9.7252879415
 20
7.0373520946
 30
0.0
 10
9.7167195902
 20
7.0083335691
 30
0.0
 10
9.7095857102
 20
6.9788381353
 30
0.0
 10
9.7039027571
 20
6.9489341119
 30
0.0
 10
9.6996838267
 20
6.9186907536
 30
0.0
 10
9.6969386229
 20
6.8881780913
 30
0.0
 10
9.6956734217
 20
6.8574667708
 30
0.0
 10
9.6958910773
 20
6.8266278855
 30
0.0
 10
9.6975910154
 20
6.7957328133
 30
0.0
 10
9.7007692363
 20
6.7648530526
 30
0.0
 10
9.7054183249
 20
6.734060058
 30
0.0
 10
9.7115274693
 20
6.7034250768
 30
0.0
 10
9.7190824845
 20
6.6730189854
 30
0.0
 10
9.7280658302
 20
6.6429121213
 30
0.0
 10
9.7384566715
 20
6.6131741245
 30
0.0
 10
9.7502309249
 20
6.5838737773
 30
0.0
 10
9.7633613154
 20
6.5550788473
 30
0.0
 10
9.7778174386
 20
6.5268559316
 30
0.0
 10
9.7935658315
 20
6.4992703045
 30
0.0
 10
9.8105700476
 20
6.4723857677
 30
0.0
 10
9.8287907284
 20
6.4462644932
 30
0.0
 10
9.84818571
 20
6.4209668895
 30
0.0
 10
9.8687101195
 20
6.396551462
 30
0.0
 10
9.8903164783
 20
6.3730746792
 30
0.0
 10
9.9129548107
 20
6.3505908433
 30
0.0
 10
9.9365727589
 20
6.3291519654
 30
0.0
 10
9.9611157024
 20
6.3088076457
 30
0.0
 10
9.9865268736
 20
6.2896049451
 30
0.0
 10
10.0127475016
 20
6.2715882906
 30
0.0
 10
10.0397169461
 20
6.2547993718
 30
0.0
 10
10.067372837
 20
6.2392770463
 30
0.0
 10
10.0956512166
 20
6.2250572494
 30
0.0
 10
10.1244866862
 20
6.212172913
 30
0.0
 10
10.1538125587
 20
6.2006538837
 30
0.0
 10
10.1835609926
 20
6.1905268573
 30
0.0
 10
10.2136632131
 20
6.1818152678
 30
0.0
 10
10.2440494588
 20
6.1745394093
 30
0.0
 10
10.2746498316
 20
6.1687159907
 30
0.0
 10
10.3053924262
 20
6.1643588402
 30
0.0
 10
10.3259712062
 20
6.1624348757
 30
0.0
 10
10.3362591246
 20
6.1617214061
 30
0.0
  0
SPLINE
  5
306
100
AcDbEntity
  8
0
100
AcDbSpline
 62
7
  6
CONTINUOUS
 70
0
 71
3
 72
39
 73
35
 74
0
 42
0.0000001
 43
0.0000001
 44
0.0000000001
 40
0.0
 40
0.0
 40
0.0
 40
0.0
 40
0.0299219257
 40
0.0599014317
 40
0.0899573964
 40
0.1201070977
 40
0.1503658686
 40
0.1807468013
 40
0.2112605054
 40
0.2419149296
 40
0.2727152395
 40
0.3036637549
 40
0.3347599439
 40
0.3660004764
 40
0.3973793249
 40
0.4288879091
 40
0.4605152845
 40
0.4922483684
 40
0.5240721947
 40
0.5559701936
 40
0.5879244947
 40
0.6199162472
 40
0.6519259501
 40
0.6839337914
 40
0.7159199917
 40
0.7478651462
 40
0.7797505623
 40
0.8115585903
 40
0.8432729396
 40
0.8748789747
 40
0.9063639911
 40
0.9377175206
 40
0.9689312026
 40
1.0
 40
1.0
 40
1.0
 40
1.0
 10
10.0601688012
 20
9.2501778125
 30
0.0
 10
10.0505184599
 20
9.238012013
 30
0.0
 10
10.0320947271
 20
9.2129311011
 30
0.0
 10
10.0072859861
 20
9.1733359572
 30
0.0
 10
9.9853948491
 20
9.131919732
 30
0.0
 10
9.9665281791
 20
9.0888840329
 30
0.0
 10
9.9507756336
 20
9.0444348175
 30
0.0
 10
9.9382125537
 20
8.998785664
 30
0.0
 10
9.9288986734
 20
8.9521555884
 30
0.0
 10
9.9228781943
 20
8.9047682609
 30
0.0
 10
9.9201795312
 20
8.8568508594
 30
0.0
 10
9.9208151544
 20
8.8086330135
 30
0.0
 10
9.9247815252
 20
8.7603456921
 30
0.0
 10
9.9320592182
 20
8.7122201055
 30
0.0
 10
9.9426130263
 20
8.6644866214
 30
0.0
 10
9.9563920658
 20
8.6173736644
 30
0.0
 10
9.9733300365
 20
8.5711066246
 30
0.0
 10
9.9933456126
 20
8.5259068125
 30
0.0
 10
10.0163428304
 20
8.4819904247
 30
0.0
 10
10.0422114685
 20
8.4395674848
 30
0.0
 10
10.0708276068
 20
8.3988408546
 30
0.0
 10
10.1020542617
 20
8.360005304
 30
0.0
 10
10.1357420319
 20
8.3232465998
 30
0.0
 10
10.1717297345
 20
8.2887405618
 30
0.0
 10
10.2098452162
 20
8.2566522575
 30
0.0
 10
10.2499061937
 20
8.2271352506
 30
0.0
 10
10.2917211092
 20
8.2003308813
 30
0.0
 10
10.335089986
 20
8.1763675058
 30
0.0
 10
10.3798053978
 20
8.1553599449
 30
0.0
 10
10.4256535505
 20
8.1374089585
 30
0.0
 10
10.4724149497
 20
8.1226007635
 30
0.0
 10
10.5198665964
 20
8.1110065503
 30
0.0
 10
10.5677785091
 20
8.1026822166
 30
0.0
 10
10.5999571683
 20
8.0993311347
 30
0.0
 10
10.6160422719
 20
8.0982156289
 30
0.0
  0
SPLINE
  5
307
100
AcDbEntity
  8
0
100
AcDbSpline
 62
7
  6
CONTINUOUS
 70
0
 71
3
 72
42
 73
38
 74
0
 42
0.0000001
 43
0.0000001
 44
0.0000000001
 40
0.0
 40
0.0
 40
0.0
 40
0.0
 40
0.0149707805
 40
0.0299445306
 40
0.0449242042
 40
0.0599127184
 40
0.0749129376
 40
0.0899276594
 40
0.1200056895
 40
0.1501729042
 40
0.1804476258
 40
0.2108457035
 40
0.2413801811
 40
0.2720610377
 40
0.302895011
 40
0.3338854998
 40
0.3650325374
 40
0.3963328406
 40
0.4277799299
 40
0.4593643074
 40
0.491073686
 40
0.5228932718
 40
0.554806086
 40
0.5867933165
 40
0.6188346988
 40
0.6509089188
 40
0.682994028
 40
0.715067868
 40
0.7471084975
 40
0.7790946169
 40
0.8110059833
 40
0.8428238138
 40
0.8745311626
 40
0.9061132744
 40
0.937557951
 40
0.9688554921
 40
1.0
 40
1.0
 40
1.0
 40
1.0
 10
9.9209424357
 20
7.2567344291
 30
0.0
 10
9.9159110418
 20
7.2518744682
 30
0.0
 10
9.9060365681
 20
7.241955362
 30
0.0
 10
9.8918173003
 20
7.2265065309
 30
0.0
 10
9.8782078106
 20
7.2105065783
 30
0.0
 10
9.8652267133
 20
7.1939772158
 30
0.0
 10
9.8528909957
 20
7.1769401572
 30
0.0
 10
9.8373189587
 20
7.1535674768
 30
0.0
 10
9.8195421816
 20
7.123180578
 30
0.0
 10
9.8010538595
 20
7.0850931286
 30
0.0
 10
9.7854906166
 20
7.0455581316
 30
0.0
 10
9.7729362665
 20
7.004788561
 30
0.0
 10
9.7634572319
 20
6.9630021415
 30
0.0
 10
9.757103684
 20
6.9204224162
 30
0.0
 10
9.7539090061
 20
6.8772769017
 30
0.0
 10
9.7538897787
 20
6.8337960482
 30
0.0
 10
9.7570455938
 20
6.7902119803
 30
0.0
 10
9.7633590775
 20
6.7467572631
 30
0.0
 10
9.7727961041
 20
6.7036636782
 30
0.0
 10
9.7853059798
 20
6.6611610203
 30
0.0
 10
9.8008215933
 20
6.6194758505
 30
0.0
 10
9.8192598926
 20
6.578830324
 30
0.0
 10
9.8405223579
 20
6.5394410451
 30
0.0
 10
9.8644954655
 20
6.5015179094
 30
0.0
 10
9.8910512444
 20
6.4652629568
 30
0.0
 10
9.92004806
 20
6.4308693697
 30
0.0
 10
9.9513313519
 20
6.3985204687
 30
0.0
 10
9.9847343568
 20
6.3683886608
 30
0.0
 10
10.0200790514
 20
6.3406345698
 30
0.0
 10
10.0571771206
 20
6.3154062356
 30
0.0
 10
10.0958309241
 20
6.2928383083
 30
0.0
 10
10.1358344639
 20
6.2730512435
 30
0.0
 10
10.176974638
 20
6.2561507703
 30
0.0
 10
10.2190320072
 20
6.2422273442
 30
0.0
 10
10.2617831206
 20
6.2313555817
 30
0.0
 10
10.3049970946
 20
6.2235938916
 30
0.0
 10
10.3340411627
 20
6.2205126704
 30
0.0
 10
10.3485589749
 20
6.2195058567
 30
0.0
  0
SPLINE
  5
308
100
AcDbEntity
  8
0
100
AcDbSpline
 62
7
  6
CONTINUOUS
 70
0
 71
3
 72
43
 73
39
 74
0
 42
0.0000001
 43
0.0000001
 44
0.0000000001
 40
0.0
 40
0.0
 40
0.0
 40
0.0
 40
0.0149689127
 40
0.0299559337
 40
0.0449630807
 40
0.0599922717
 40
0.0901194294
 40
0.120355102
 40
0.1355194028
 40
0.1507148235
 40
0.1659424081
 40
0.1812030554
 40
0.2118220932
 40
0.2425804621
 40
0.2734798708
 40
0.3045195697
 40
0.3356963962
 40
0.3670048606
 40
0.398437267
 40
0.4299838668
 40
0.4616330412
 40
0.4933715085
 40
0.5251845524
 40
0.5570562672
 40
0.5889698171
 40
0.6209077055
 40
0.6528520529
 40
0.6847848785
 40
0.7166883829
 40
0.7485452281
 40
0.7803388134
 40
0.8120535422
 40
0.8436750777
 40
0.8751905886
 40
0.9065889446
 40
0.9378610425
 40
0.9689995165
 40
1.0
 40
1.0
 40
1.0
 40
1.0
 10
10.0250126382
 20
7.3352069851
 30
0.0
 10
10.0216464829
 20
7.3298319294
 30
0.0
 10
10.0150983955
 20
7.3189560623
 30
0.0
 10
10.0058478333
 20
7.3022984807
 30
0.0
 10
9.9971727987
 20
7.2853048842
 30
0.0
 10
9.9863787159
 20
7.2622080325
 30
0.0
 10
9.9743704664
 20
7.2325792599
 30
0.0
 10
9.9644158369
 20
7.2021391664
 30
0.0
 10
9.957696223
 20
7.1773564973
 30
0.0
 10
9.9532790202
 20
7.1585497802
 30
0.0
 10
9.9494947695
 20
7.1395639513
 30
0.0
 10
9.9452939979
 20
7.11401269
 30
0.0
 10
9.9416486634
 20
7.081720852
 30
0.0
 10
9.9398613011
 20
7.0426374133
 30
0.0
 10
9.9406626885
 20
7.0033425431
 30
0.0
 10
9.9440492423
 20
6.964008355
 30
0.0
 10
9.9500058875
 20
6.9248056016
 30
0.0
 10
9.9585064709
 20
6.8859048136
 30
0.0
 10
9.9695137932
 20
6.8474750622
 30
0.0
 10
9.9829797887
 20
6.809683367
 30
0.0
 10
9.9988457241
 20
6.7726939352
 30
0.0
 10
10.0170424776
 20
6.7366674722
 30
0.0
 10
10.0374908357
 20
6.7017604874
 30
0.0
 10
10.0601018377
 20
6.6681246238
 30
0.0
 10
10.0847771593
 20
6.6359060057
 30
0.0
 10
10.1114095387
 20
6.6052446119
 30
0.0
 10
10.1398832217
 20
6.5762736571
 30
0.0
 10
10.1700744776
 20
6.5491190288
 30
0.0
 10
10.2018521345
 20
6.5238987471
 30
0.0
 10
10.2350781431
 20
6.5007224566
 30
0.0
 10
10.2696081687
 20
6.4796909525
 30
0.0
 10
10.3052922182
 20
6.4608957489
 30
0.0
 10
10.3419752588
 20
6.4444186667
 30
0.0
 10
10.3794979525
 20
6.430331487
 30
0.0
 10
10.4176971138
 20
6.418695613
 30
0.0
 10
10.4564072674
 20
6.4095618969
 30
0.0
 10
10.4954579982
 20
6.4029703166
 30
0.0
 10
10.5216702087
 20
6.4002836594
 30
0.0
 10
10.5347731683
 20
6.3993749661
 30
0.0
  0
SPLINE
  5
309
100
AcDbEntity
  8
0
100
AcDbSpline
 62
7
  6
CONTINUOUS
 70
0
 71
3
 72
44
 73
40
 74
0
 42
0.0000001
 43
0.0000001
 44
0.0000000001
 40
0.0
 40
0.0
 40
0.0
 40
0.0
 40
0.0149614458
 40
0.029929736
 40
0.0449076429
 40
0.0598978864
 40
0.0749031166
 40
0.0899258973
 40
0.1049686958
 40
0.1200338677
 40
0.1351236415
 40
0.1502401121
 40
0.180555503
 40
0.2109990156
 40
0.2415815246
 40
0.272310941
 40
0.3031920852
 40
0.3342266305
 40
0.3654131189
 40
0.3967470346
 40
0.4282209334
 40
0.4598246317
 40
0.4915454374
 40
0.5233684185
 40
0.5552767093
 40
0.5872518444
 40
0.6192741128
 40
0.6513229288
 40
0.683377217
 40
0.7154158007
 40
0.7474177933
 40
0.7793629854
 40
0.8112322218
 40
0.8430077687
 40
0.8746736558
 40
0.9062159975
 40
0.937623316
 40
0.9688865041
 40
1.0
 40
1.0
 40
1.0
 40
1.0
 10
10.0500042206
 20
9.2466767144
 30
0.0
 10
10.0445557502
 20
9.2408081434
 30
0.0
 10
10.033880074
 20
9.2288582674
 30
0.0
 10
10.0185607414
 20
9.2103293904
 30
0.0
 10
10.0039513205
 20
9.1912159301
 30
0.0
 10
9.9900707546
 20
9.171542706
 30
0.0
 10
9.9769367859
 20
9.1513347278
 30
0.0
 10
9.964566177
 20
9.1306179099
 30
0.0
 10
9.9529746929
 20
9.1094187243
 30
0.0
 10
9.9421772677
 20
9.0877643495
 30
0.0
 10
9.9321874987
 20
9.065682101
 30
0.0
 10
9.9199515435
 20
9.0356819882
 30
0.0
 10
9.9067382023
 20
8.9972370688
 30
0.0
 10
9.8943126404
 20
8.9499085131
 30
0.0
 10
9.8853620251
 20
8.9015754096
 30
0.0
 10
9.8799323725
 20
8.8524866733
 30
0.0
 10
9.8780506776
 20
8.8028928485
 30
0.0
 10
9.8797260128
 20
8.753047507
 30
0.0
 10
9.8849493078
 20
8.7032052328
 30
0.0
 10
9.8936934368
 20
8.6536205458
 30
0.0
 10
9.9059132376
 20
8.6045465342
 30
0.0
 10
9.9215459278
 20
8.5562336132
 30
0.0
 10
9.9405114245
 20
8.5089282822
 30
0.0
 10
9.9627126066
 20
8.4628718267
 30
0.0
 10
9.9880359256
 20
8.4182991313
 30
0.0
 10
10.0163520353
 20
8.3754375373
 30
0.0
 10
10.0475163423
 20
8.3345056448
 30
0.0
 10
10.0813697349
 20
8.2957121844
 30
0.0
 10
10.1177394932
 20
8.2592550471
 30
0.0
 10
10.1564401165
 20
8.2253202684
 30
0.0
 10
10.1972741733
 20
8.1940809807
 30
0.0
 10
10.2400334105
 20
8.1656966523
 30
0.0
 10
10.2844998035
 20
8.1403123039
 30
0.0
 10
10.3304465429
 20
8.1180576408
 30
0.0
 10
10.3776393409
 20
8.0990464538
 30
0.0
 10
10.4258372577
 20
8.0833761256
 30
0.0
 10
10.4747952033
 20
8.0711270453
 30
0.0
 10
10.5242601041
 20
8.0623621904
 30
0.0
 10
10.5574955561
 20
8.0588629719
 30
0.0
 10
10.574108642
 20
8.0577108505
 30
0.0
  0
SPLINE
  5
30A
100
AcDbEntity
  8
0
100
AcDbSpline
 62
7
  6
CONTINUOUS
 70
0
 71
3
 72
25
 73
21
 74
0
 42
0.0000001
 43
0.0000001
 44
0.0000000001
 40
0.0
 40
0.0
 40
0.0
 40
0.0
 40
0.0616475261
 40
0.0924812754
 40
0.123323642
 40
0.1850399915
 40
0.2468243959
 40
0.2777516314
 40
0.3087038656
 40
0.370687894
 40
0.4328012868
 40
0.4950619237
 40
0.5574860836
 40
0.6200882754
 40
0.6828811165
 40
0.7458751526
 40
0.8090789605
 40
0.8724985324
 40
0.9361385804
 40
1.0
 40
1.0
 40
1.0
 40
1.0
 10
10.8872742758
 20
7.9684355474
 30
0.0
 10
10.8784986131
 20
7.9599589304
 30
0.0
 10
10.8649880138
 20
7.9475933142
 30
0.0
 10
10.846331834
 20
7.9318520983
 30
0.0
 10
10.8272485809
 20
7.9166086287
 30
0.0
 10
10.8026203518
 20
7.8985111823
 30
0.0
 10
10.7770437744
 20
7.8817501538
 30
0.0
 10
10.7560494723
 20
7.8691647255
 30
0.0
 10
10.7346925032
 20
7.8571244922
 30
0.0
 10
10.7073659552
 20
7.8431277996
 30
0.0
 10
10.6736769904
 20
7.8280722063
 30
0.0
 10
10.6391581285
 20
7.8147857114
 30
0.0
 10
10.6038969126
 20
7.8033020303
 30
0.0
 10
10.5679820117
 20
7.7936499022
 30
0.0
 10
10.5315039355
 20
7.7858535719
 30
0.0
 10
10.4945544969
 20
7.7799325413
 30
0.0
 10
10.4572268556
 20
7.7759016602
 30
0.0
 10
10.4196145639
 20
7.7737709104
 30
0.0
 10
10.3818136243
 20
7.7735455819
 30
0.0
 10
10.3565913465
 20
7.7746641492
 30
0.0
 10
10.3439824295
 20
7.7755385806
 30
0.0
  0
SPLINE
  5
30B
100
AcDbEntity
  8
0
100
AcDbSpline
 62
7
  6
CONTINUOUS
 70
0
 71
3
 72
21
 73
17
 74
0
 42
0.0000001
 43
0.0000001
 44
0.0000000001
 40
0.0
 40
0.0
 40
0.0
 40
0.0
 40
0.0616089938
 40
0.1232984206
 40
0.185078685
 40
0.2469596613
 40
0.3089506243
 40
0.3710602089
 40
0.4332963682
 40
0.4956663158
 40
0.5581765114
 40
0.6208325952
 40
0.6836393644
 40
0.7466009899
 40
0.872977333
 40
1.0
 40
1.0
 40
1.0
 40
1.0
 10
10.9864915846
 20
8.0891993938
 30
0.0
 10
10.9787870009
 20
8.0845953447
 30
0.0
 10
10.963185649
 20
8.0756821693
 30
0.0
 10
10.9392640359
 20
8.063228104
 30
0.0
 10
10.9148396126
 20
8.0516974895
 30
0.0
 10
10.8899458367
 20
8.0411062462
 30
0.0
 10
10.8646162445
 20
8.0314686083
 30
0.0
 10
10.838885141
 20
8.0227975425
 30
0.0
 10
10.8127872855
 20
8.0151047931
 30
0.0
 10
10.7863579639
 20
8.0084007677
 30
0.0
 10
10.7596328939
 20
8.0026944368
 30
0.0
 10
10.732648302
 20
7.9979935268
 30
0.0
 10
10.7054402391
 20
7.9943044011
 30
0.0
 10
10.668873207
 20
7.9907370149
 30
0.0
 10
10.6227795576
 20
7.9888376211
 30
0.0
 10
10.5858450783
 20
7.990048003
 30
0.0
 10
10.5673843315
 20
7.9913282602
 30
0.0
  0
SPLINE
  5
30C
100
AcDbEntity
  8
0
100
AcDbSpline
 62
7
  6
CONTINUOUS
 70
0
 71
3
 72
43
 73
39
 74
0
 42
0.0000001
 43
0.0000001
 44
0.0000000001
 40
0.0
 40
0.0
 40
0.0
 40
0.0
 40
0.0149663142
 40
0.029950035
 40
0.0449532393
 40
0.0599779081
 40
0.0900944745
 40
0.1203180138
 40
0.1354758656
 40
0.1506646451
 40
0.1658854604
 40
0.1811392704
 40
0.211744602
 40
0.2424896765
 40
0.2733766065
 40
0.3044049962
 40
0.3355719814
 40
0.3668723107
 40
0.3982984668
 40
0.4298408206
 40
0.461487814
 40
0.4932261687
 40
0.5250411184
 40
0.5569166597
 40
0.5888358159
 40
0.6207809132
 40
0.6527338641
 40
0.6846764564
 40
0.7165906429
 40
0.7484588286
 40
0.7802641546
 40
0.8119907726
 40
0.8436241076
 40
0.8751511044
 40
0.9065604507
 40
0.937842855
 40
0.9689908556
 40
1.0
 40
1.0
 40
1.0
 40
1.0
 10
9.9248972777
 20
9.1884417752
 30
0.0
 10
9.9205000376
 20
9.1816340824
 30
0.0
 10
9.9119406041
 20
9.1678539117
 30
0.0
 10
9.8998312094
 20
9.1467317214
 30
0.0
 10
9.8884572993
 20
9.1251681879
 30
0.0
 10
9.8742799511
 20
9.0958411365
 30
0.0
 10
9.8584570698
 20
9.0581845775
 30
0.0
 10
9.8452650052
 20
9.0194522364
 30
0.0
 10
9.8363067004
 20
8.9878946231
 30
0.0
 10
9.8303862093
 20
8.9639352497
 30
0.0
 10
9.8252779914
 20
8.939736572
 30
0.0
 10
9.8195513843
 20
8.9071556038
 30
0.0
 10
9.8144551496
 20
8.8659534933
 30
0.0
 10
9.8116654407
 20
8.8160480262
 30
0.0
 10
9.8122053592
 20
8.7658377823
 30
0.0
 10
9.8160724325
 20
8.7155454443
 30
0.0
 10
9.8232491922
 20
8.6653920759
 30
0.0
 10
9.833703672
 20
8.6155985726
 30
0.0
 10
9.8473895113
 20
8.5663840499
 30
0.0
 10
9.8642461873
 20
8.5179650687
 30
0.0
 10
9.8841992892
 20
8.4705546556
 30
0.0
 10
9.9071607829
 20
8.4243613624
 30
0.0
 10
9.9330294402
 20
8.3795883632
 30
0.0
 10
9.9616913056
 20
8.3364325854
 30
0.0
 10
9.9930201936
 20
8.2950838558
 30
0.0
 10
10.0268782159
 20
8.2557240618
 30
0.0
 10
10.0631163588
 20
8.2185263281
 30
0.0
 10
10.1015751896
 20
8.1836543066
 30
0.0
 10
10.1420855383
 20
8.1512614563
 30
0.0
 10
10.1844692393
 20
8.1214903848
 30
0.0
 10
10.2285398617
 20
8.0944721621
 30
0.0
 10
10.274103569
 20
8.0703257923
 30
0.0
 10
10.3209599392
 20
8.049157703
 30
0.0
 10
10.3689029254
 20
8.0310612892
 30
0.0
 10
10.4177214183
 20
8.0161164435
 30
0.0
 10
10.4672012952
 20
8.0043892449
 30
0.0
 10
10.5171220139
 20
7.9959316808
 30
0.0
 10
10.550632937
 20
7.9924899733
 30
0.0
 10
10.5673843315
 20
7.9913282602
 30
0.0
  0
SPLINE
  5
30D
100
AcDbEntity
  8
0
100
AcDbSpline
 62
7
  6
CONTINUOUS
 70
0
 71
3
 72
23
 73
19
 74
0
 42
0.0000001
 43
0.0000001
 44
0.0000000001
 40
0.0
 40
0.0
 40
0.0
 40
0.0
 40
0.0616137684
 40
0.1232693412
 40
0.1849862759
 40
0.2467835305
 40
0.3086792819
 40
0.3706907541
 40
0.432834057
 40
0.4951240393
 40
0.5575741537
 40
0.6201963421
 40
0.683000945
 40
0.7459965445
 40
0.8091902352
 40
0.8725864495
 40
0.9361899708
 40
1.0
 40
1.0
 40
1.0
 40
1.0
 10
11.0491256749
 20
8.2122658098
 30
0.0
 10
11.0411676648
 20
8.2053759415
 30
0.0
 10
11.0248961446
 20
8.1919900383
 30
0.0
 10
10.999501283
 20
8.1731574084
 30
0.0
 10
10.973166399
 20
8.15560538
 30
0.0
 10
10.9459505049
 20
8.1393734195
 30
0.0
 10
10.9179135628
 20
8.1244971751
 30
0.0
 10
10.8891176112
 20
8.1110095313
 30
0.0
 10
10.8596262878
 20
8.098940233
 30
0.0
 10
10.8295047789
 20
8.0883159037
 30
0.0
 10
10.7988196512
 20
8.0791599648
 30
0.0
 10
10.7676387064
 20
8.0714925907
 30
0.0
 10
10.7360308506
 20
8.0653306608
 30
0.0
 10
10.7040658691
 20
8.0606876794
 30
0.0
 10
10.6718145089
 20
8.0575739049
 30
0.0
 10
10.6393475696
 20
8.0559960126
 30
0.0
 10
10.6067378901
 20
8.055957569
 30
0.0
 10
10.584983901
 20
8.0569566487
 30
0.0
 10
10.574108642
 20
8.0577108505
 30
0.0
  0
SPLINE
  5
30E
100
AcDbEntity
  8
0
100
AcDbSpline
 62
7
  6
CONTINUOUS
 70
0
 71
3
 72
23
 73
19
 74
0
 42
0.0000001
 43
0.0000001
 44
0.0000000001
 40
0.0
 40
0.0
 40
0.0
 40
0.0
 40
0.061591354
 40
0.1232457391
 40
0.1849783897
 40
0.2468039168
 40
0.3087361955
 40
0.3707882644
 40
0.4329722284
 40
0.495299166
 40
0.5577790442
 40
0.6204206782
 40
0.6832316057
 40
0.7462181605
 40
0.8093854533
 40
0.8727363008
 40
0.9362754395
 40
1.0
 40
1.0
 40
1.0
 40
1.0
 10
11.0531187986
 20
8.2224107091
 30
0.0
 10
11.0454573399
 20
8.2167518346
 30
0.0
 10
11.0298669295
 20
8.2057750852
 30
0.0
 10
11.0057466342
 20
8.190379058
 30
0.0
 10
10.9809228802
 20
8.17607122
 30
0.0
 10
10.9554411093
 20
8.1628778543
 30
0.0
 10
10.929347177
 20
8.1508226024
 30
0.0
 10
10.9026882425
 20
8.1399272196
 30
0.0
 10
10.8755124169
 20
8.1302113348
 30
0.0
 10
10.8478687495
 20
8.1216924841
 30
0.0
 10
10.819807142
 20
8.1143859868
 30
0.0
 10
10.7913782468
 20
8.1083049749
 30
0.0
 10
10.7626333683
 20
8.1034603731
 30
0.0
 10
10.7336243348
 20
8.0998609013
 30
0.0
 10
10.7044036343
 20
8.0975130748
 30
0.0
 10
10.6750235367
 20
8.0964209144
 30
0.0
 10
10.6455380558
 20
8.0965865594
 30
0.0
 10
10.6258732946
 20
8.0975338452
 30
0.0
 10
10.6160422719
 20
8.0982156289
 30
0.0
  0
SPLINE
  5
30F
100
AcDbEntity
  8
0
100
AcDbSpline
 62
7
  6
CONTINUOUS
 70
0
 71
3
 72
48
 73
44
 74
0
 42
0.0000001
 43
0.0000001
 44
0.0000000001
 40
0.0
 40
0.0
 40
0.0
 40
0.0
 40
0.0149702853
 40
0.0299435407
 40
0.0449227194
 40
0.059910738
 40
0.0749104616
 40
0.0899246872
 40
0.1049561247
 40
0.1200073833
 40
0.1350809578
 40
0.1501792115
 40
0.1653043643
 40
0.1804584832
 40
0.1956434676
 40
0.2108610401
 40
0.2261127413
 40
0.241399919
 40
0.2567237207
 40
0.2720850939
 40
0.3029180492
 40
0.3339075141
 40
0.3650535212
 40
0.3963527906
 40
0.4277988412
 40
0.4593821741
 40
0.4910905049
 40
0.5229090394
 40
0.5548207988
 40
0.5868069722
 40
0.6188472955
 40
0.6509204555
 40
0.6830045045
 40
0.7150772846
 40
0.747116855
 40
0.7791019171
 40
0.8110122296
 40
0.8428290082
 40
0.8745353085
 40
0.9061163812
 40
0.9375600013
 40
0.9688565355
 40
1.0
 40
1.0
 40
1.0
 40
1.0
 10
9.8006905833
 20
9.0933496956
 30
0.0
 10
9.7942981253
 20
9.0871750716
 30
0.0
 10
9.7817525115
 20
9.0745727108
 30
0.0
 10
9.7636867315
 20
9.0549448111
 30
0.0
 10
9.7463957545
 20
9.0346166778
 30
0.0
 10
9.7299030634
 20
9.0136158625
 30
0.0
 10
9.7142305335
 20
8.991970371
 30
0.0
 10
9.6993991732
 20
8.9697091223
 30
0.0
 10
9.6854288006
 20
8.9468618528
 30
0.0
 10
9.6723380081
 20
8.923459137
 30
0.0
 10
9.6601443164
 20
8.8995322219
 30
0.0
 10
9.6488640329
 20
8.8751130708
 30
0.0
 10
9.6385121399
 20
8.8502343475
 30
0.0
 10
9.6291024875
 20
8.8249292765
 30
0.0
 10
9.6206476705
 20
8.799231654
 30
0.0
 10
9.6131588864
 20
8.7731758482
 30
0.0
 10
9.6066461472
 20
8.7467966225
 30
0.0
 10
9.6011181897
 20
8.7201293329
 30
0.0
 10
9.596582282
 20
8.6932091422
 30
0.0
 10
9.5918597823
 20
8.6569864772
 30
0.0
 10
9.5884725017
 20
8.6112434559
 30
0.0
 10
9.5884482711
 20
8.5560017718
 30
0.0
 10
9.5924576662
 20
8.500627358
 30
0.0
 10
9.6004790717
 20
8.4454177226
 30
0.0
 10
9.6124689396
 20
8.3906667962
 30
0.0
 10
9.6283628456
 20
8.3366666634
 30
0.0
 10
9.6480756318
 20
8.2837051677
 30
0.0
 10
9.6715017125
 20
8.2320645502
 30
0.0
 10
9.698515923
 20
8.1820200057
 30
0.0
 10
9.7289740411
 20
8.133838217
 30
0.0
 10
9.7627134546
 20
8.0877758603
 30
0.0
 10
9.7995542683
 20
8.0440784164
 30
0.0
 10
9.8393000675
 20
8.0029787663
 30
0.0
 10
9.8817389491
 20
7.9646959164
 30
0.0
 10
9.926644814
 20
7.9294340319
 30
0.0
 10
9.9737783678
 20
7.8973811679
 30
0.0
 10
10.0228884523
 20
7.8687083025
 30
0.0
 10
10.0737134274
 20
7.8435686126
 30
0.0
 10
10.1259825181
 20
7.8220963952
 30
0.0
 10
10.1794168836
 20
7.8044064934
 30
0.0
 10
10.2337326837
 20
7.7905937771
 30
0.0
 10
10.2886365491
 20
7.7807324855
 30
0.0
 10
10.3255373864
 20
7.7768177486
 30
0.0
 10
10.3439824295
 20
7.7755385806
 30
0.0
  0
SPLINE
  5
310
100
AcDbEntity
  8
0
100
AcDbSpline
 62
7
  6
CONTINUOUS
 70
0
 71
3
 72
23
 73
19
 74
0
 42
0.0000001
 43
0.0000001
 44
0.0000000001
 40
0.0
 40
0.0
 40
0.0
 40
0.0
 40
0.0616206878
 40
0.1232789174
 40
0.1849950151
 40
0.2467887225
 40
0.3086790006
 40
0.370683845
 40
0.4328201103
 40
0.4951033514
 40
0.5575476763
 40
0.620165622
 40
0.682968054
 40
0.7459640003
 40
0.8091609285
 40
0.8725635193
 40
0.9361768128
 40
1.0
 40
1.0
 40
1.0
 40
1.0
 10
11.0782348526
 20
8.3044346924
 30
0.0
 10
11.0707568861
 20
8.2977857662
 30
0.0
 10
11.0554529953
 20
8.2848644015
 30
0.0
 10
11.0315288036
 20
8.2666756386
 30
0.0
 10
11.0066836175
 20
8.2497153642
 30
0.0
 10
10.9809749485
 20
8.2340229768
 30
0.0
 10
10.9544613132
 20
8.2196340802
 30
0.0
 10
10.9272033201
 20
8.2065815336
 30
0.0
 10
10.899263201
 20
8.1948950745
 30
0.0
 10
10.8707047563
 20
8.1846013344
 30
0.0
 10
10.8415931857
 20
8.1757237555
 30
0.0
 10
10.811994941
 20
8.1682825459
 30
0.0
 10
10.7819775931
 20
8.1622946287
 30
0.0
 10
10.7516096069
 20
8.1577735596
 30
0.0
 10
10.7209604167
 20
8.1547296572
 30
0.0
 10
10.6900995261
 20
8.1531696616
 30
0.0
 10
10.6590984605
 20
8.1530972162
 30
0.0
 10
10.63841658
 20
8.1540391454
 30
0.0
 10
10.6280773475
 20
8.1547561736
 30
0.0
  0
SPLINE
  5
311
100
AcDbEntity
  8
0
100
AcDbSpline
 62
7
  6
CONTINUOUS
 70
0
 71
3
 72
11
 73
7
 74
0
 42
0.0000001
 43
0.0000001
 44
0.0000000001
 40
0.0
 40
0.0
 40
0.0
 40
0.0
 40
0.2484353059
 40
0.4978958134
 40
0.748411298
 40
1.0
 40
1.0
 40
1.0
 40
1.0
 10
11.0981519989
 20
8.4642584376
 30
0.0
 10
11.0851808847
 20
8.4618976247
 30
0.0
 10
11.059027608
 20
8.4579904988
 30
0.0
 10
11.0194302019
 20
8.4545990546
 30
0.0
 10
10.9795313711
 20
8.4536761607
 30
0.0
 10
10.9528853714
 20
8.4547072285
 30
0.0
 10
10.9395658112
 20
8.4556309431
 30
0.0
  0
SPLINE
  5
312
100
AcDbEntity
  8
0
100
AcDbSpline
 62
7
  6
CONTINUOUS
 70
0
 71
3
 72
11
 73
7
 74
0
 42
0.0000001
 43
0.0000001
 44
0.0000000001
 40
0.0
 40
0.0
 40
0.0
 40
0.0
 40
0.248496409
 40
0.4979795059
 40
0.7484758972
 40
1.0
 40
1.0
 40
1.0
 40
1.0
 10
11.0965719298
 20
8.5235549208
 30
0.0
 10
11.0849884919
 20
8.5215724557
 30
0.0
 10
11.0616489221
 20
8.5183041889
 30
0.0
 10
11.0263420125
 20
8.5155109875
 30
0.0
 10
10.9907883738
 20
8.5148259068
 30
0.0
 10
10.9670496434
 20
8.5157746186
 30
0.0
 10
10.9551831001
 20
8.5165975661
 30
0.0
  0
SPLINE
  5
313
100
AcDbEntity
  8
0
100
AcDbSpline
 62
7
  6
CONTINUOUS
 70
0
 71
3
 72
71
 73
67
 74
0
 42
0.0000001
 43
0.0000001
 44
0.0000000001
 40
0.0
 40
0.0
 40
0.0
 40
0.0
 40
0.0156218204
 40
0.0311906963
 40
0.0467067366
 40
0.0621710758
 40
0.0775850521
 40
0.092950634
 40
0.1082702305
 40
0.1235467319
 40
0.1387834654
 40
0.1539841699
 40
0.1691529587
 40
0.1842942794
 40
0.1994128691
 40
0.2145137055
 40
0.2296019553
 40
0.2446829195
 40
0.2597619769
 40
0.2748445266
 40
0.2899359305
 40
0.3050414558
 40
0.3201662192
 40
0.335315133
 40
0.3504928541
 40
0.3657037362
 40
0.3809517867
 40
0.3962406271
 40
0.4115734587
 40
0.4269530339
 40
0.4423816318
 40
0.4578610401
 40
0.4733925422
 40
0.4889769093
 40
0.5046143983
 40
0.5203047542
 40
0.5360472183
 40
0.5518405399
 40
0.5676829929
 40
0.5835723964
 40
0.5995061385
 40
0.6154812036
 40
0.6314942032
 40
0.6475414084
 40
0.6636187858
 40
0.6797220346
 40
0.6958466262
 40
0.7119878448
 40
0.7281408293
 40
0.7443006161
 40
0.7604621821
 40
0.7766204892
 40
0.7927705272
 40
0.8089073581
 40
0.8250261592
 40
0.8411222651
 40
0.8571912102
 40
0.8732287683
 40
0.8892309918
 40
0.9051942475
 40
0.9211152565
 40
0.9369911075
 40
0.9528193473
 40
0.9685978317
 40
0.9843251849
 40
1.0
 40
1.0
 40
1.0
 40
1.0
 10
10.3383090404
 20
9.2895368964
 30
0.0
 10
10.3258285934
 20
9.2904024184
 30
0.0
 10
10.3008634607
 20
9.29152301
 30
0.0
 10
10.2634451924
 20
9.2913609665
 30
0.0
 10
10.2262056776
 20
9.2893535935
 30
0.0
 10
10.1892359457
 20
9.2855057015
 30
0.0
 10
10.1526246607
 20
9.279826384
 30
0.0
 10
10.1164601958
 20
9.2723292915
 30
0.0
 10
10.0808296891
 20
9.2630323752
 30
0.0
 10
10.0458190558
 20
9.2519579703
 30
0.0
 10
10.0115127162
 20
9.2391326873
 30
0.0
 10
9.9779934079
 20
9.2245873738
 30
0.0
 10
9.9453419804
 20
9.2083570323
 30
0.0
 10
9.9136371975
 20
9.1904807428
 30
0.0
 10
9.8829555433
 20
9.1710015709
 30
0.0
 10
9.8533710371
 20
9.1499664594
 30
0.0
 10
9.8249550517
 20
9.1274261162
 30
0.0
 10
9.797776139
 20
9.1034348913
 30
0.0
 10
9.7718998622
 20
9.078050645
 30
0.0
 10
9.7473886348
 20
9.0513346063
 30
0.0
 10
9.724301569
 20
9.0233512236
 30
0.0
 10
9.7026943311
 20
8.9941680069
 30
0.0
 10
9.6826190064
 20
8.9638553625
 30
0.0
 10
9.6641239736
 20
8.9324864204
 30
0.0
 10
9.6472537841
 20
8.9001368574
 30
0.0
 10
9.6320490566
 20
8.8668847101
 30
0.0
 10
9.6185463825
 20
8.832810183
 30
0.0
 10
9.6067782388
 20
8.7979954533
 30
0.0
 10
9.596772912
 20
8.7625244708
 30
0.0
 10
9.5885544317
 20
8.7264827543
 30
0.0
 10
9.5821425155
 20
8.6899571842
 30
0.0
 10
9.5775525233
 20
8.6530357928
 30
0.0
 10
9.574795423
 20
8.615807552
 30
0.0
 10
9.5738777664
 20
8.5783621588
 30
0.0
 10
9.574801675
 20
8.5407898202
 30
0.0
 10
9.577564832
 20
8.5031810361
 30
0.0
 10
9.5821604948
 20
8.4656263813
 30
0.0
 10
9.588577513
 20
8.4282162889
 30
0.0
 10
9.5968003562
 20
8.3910408338
 30
0.0
 10
9.606809153
 20
8.3541895169
 30
0.0
 10
9.6185797393
 20
8.3177510514
 30
0.0
 10
9.632083717
 20
8.2818131503
 30
0.0
 10
9.6472885234
 20
8.2464623172
 30
0.0
 10
9.6641575087
 20
8.2117836389
 30
0.0
 10
9.6826500256
 20
8.1778605824
 30
0.0
 10
9.7027215244
 20
8.1447747942
 30
0.0
 10
9.7243236586
 20
8.1126059027
 30
0.0
 10
9.7474044055
 20
8.0814313307
 30
0.0
 10
9.77190819
 20
8.0513261087
 30
0.0
 10
9.7977760183
 20
8.0223626961
 30
0.0
 10
9.8249456191
 20
7.9946108075
 30
0.0
 10
9.8533515929
 20
7.9681372458
 30
0.0
 10
9.8829255684
 20
7.9430057421
 30
0.0
 10
9.9135963666
 20
7.9192768032
 30
0.0
 10
9.9452901707
 20
7.8970075665
 30
0.0
 10
9.9779307032
 20
7.876251663
 30
0.0
 10
10.0114394064
 20
7.8570590854
 30
0.0
 10
10.0457356319
 20
7.8394760684
 30
0.0
 10
10.0807368344
 20
7.8235449822
 30
0.0
 10
10.1163587722
 20
7.8093042219
 30
0.0
 10
10.1525156937
 20
7.7967881398
 30
0.0
 10
10.1891206009
 20
7.7860268979
 30
0.0
 10
10.2260852463
 20
7.777046547
 30
0.0
 10
10.2633210549
 20
7.7698686427
 30
0.0
 10
10.3007370686
 20
7.7645107923
 30
0.0
 10
10.3257862553
 20
7.7621566579
 30
0.0
 10
10.3383090404
 20
7.7612881998
 30
0.0
  0
SPLINE
  5
314
100
AcDbEntity
  8
0
100
AcDbSpline
 62
7
  6
CONTINUOUS
 70
0
 71
3
 72
25
 73
21
 74
0
 42
0.0000001
 43
0.0000001
 44
0.0000000001
 40
0.0
 40
0.0
 40
0.0
 40
0.0
 40
0.0616183794
 40
0.0924432542
 40
0.1232803042
 40
0.1849959342
 40
0.2467898213
 40
0.277724487
 40
0.3086856787
 40
0.3706914483
 40
0.4328287442
 40
0.4951129528
 40
0.5575580286
 40
0.6201763643
 40
0.6829787052
 40
0.7459739899
 40
0.8091695081
 40
0.8725702004
 40
0.9361802413
 40
1.0
 40
1.0
 40
1.0
 40
1.0
 10
10.8996694192
 20
7.8521501485
 30
0.0
 10
10.8899639965
 20
7.84357409
 30
0.0
 10
10.8750715708
 20
7.8310761456
 30
0.0
 10
10.8545993655
 20
7.8151877283
 30
0.0
 10
10.8337125575
 20
7.7998129294
 30
0.0
 10
10.8068586787
 20
7.781583145
 30
0.0
 10
10.7790969445
 20
7.7647286833
 30
0.0
 10
10.7563756005
 20
7.7520880995
 30
0.0
 10
10.7333028994
 20
7.7400046344
 30
0.0
 10
10.7038572348
 20
7.725976634
 30
0.0
 10
10.6676648794
 20
7.7109149743
 30
0.0
 10
10.6306776129
 20
7.6976499808
 30
0.0
 10
10.5929798056
 20
7.6862119241
 30
0.0
 10
10.5546567149
 20
7.6766265509
 30
0.0
 10
10.5157952066
 20
7.6689155209
 30
0.0
 10
10.4764832511
 20
7.6630961788
 30
0.0
 10
10.4368100122
 20
7.6591816688
 30
0.0
 10
10.3968648967
 20
7.6571806866
 30
0.0
 10
10.3567396497
 20
7.6570977316
 30
0.0
 10
10.3299710538
 20
7.6583192819
 30
0.0
 10
10.3165888838
 20
7.6592473386
 30
0.0
  0
SPLINE
  5
315
100
AcDbEntity
  8
0
100
AcDbSpline
 62
7
  6
CONTINUOUS
 70
0
 71
3
 72
19
 73
15
 74
0
 42
0.0000001
 43
0.0000001
 44
0.0000000001
 40
0.0
 40
0.0
 40
0.0
 40
0.0
 40
0.0620833668
 40
0.1241773068
 40
0.1862923346
 40
0.2484388626
 40
0.3106271434
 40
0.3728672127
 40
0.4351688468
 40
0.4975415155
 40
0.6225159566
 40
0.7478786561
 40
0.8736889925
 40
1.0
 40
1.0
 40
1.0
 40
1.0
 10
10.9001633974
 20
7.8515849642
 30
0.0
 10
10.8935375586
 20
7.8451848927
 30
0.0
 10
10.8800512201
 20
7.8326229109
 30
0.0
 10
10.859149611
 20
7.8145245181
 30
0.0
 10
10.8375980336
 20
7.7971896563
 30
0.0
 10
10.8154215826
 20
7.7806384915
 30
0.0
 10
10.7926455137
 20
7.7648899629
 30
0.0
 10
10.7692961067
 20
7.7499621614
 30
0.0
 10
10.7453997285
 20
7.7358719776
 30
0.0
 10
10.7128281385
 20
7.7182140628
 30
0.0
 10
10.6708652192
 20
7.6983105312
 30
0.0
 10
10.6188147289
 20
7.678034419
 30
0.0
 10
10.5652706261
 20
7.6614393763
 30
0.0
 10
10.5288113171
 20
7.6528974382
 30
0.0
 10
10.5104252954
 20
7.6492601016
 30
0.0
  0
ELLIPSE
  5
316
100
AcDbEntity
  8
0
100
AcDbEllipse
 62
7
  6
CONTINUOUS
 10
12.3085232999
 20
8.3550812193
 30
0.0
 11
-0.0022890741
 21
0.3787991254
 31
0.0
 40
0.2731762279
 41
2.6259092646
 42
6.1100565859
  0
ENDSEC
  0
SECTION
  2
OBJECTS
  0
DICTIONARY
  5
C
100
AcDbDictionary
280
0
281
1
  3
ACAD_GROUP
350
D
  3
ACAD_MLINESTYLE
350
17
  3
ACAD_LAYOUT
350
1A
  3
ACAD_PLOTSETTINGS
350
19
  3
ACAD_PLOTSTYLENAME
350
E
  3
ACAD_IMAGE_DICT
350
       318
  3
ACAD_IMAGE_VARS
350
       319
  3
ACAD_TABLESTYLE
350
       31A
  0
IMAGEDEF_REACTOR
  5
317
100
AcDbRasterImageDefReactor
 90
2
330
28A
  0
DICTIONARY
  5
D
102
{ACAD_REACTORS
330
C
102
}
100
AcDbDictionary
280
0
281
1
  0
ACDBDICTIONARYWDFLT
  5
E
102
{ACAD_REACTORS
330
C
102
}
100
AcDbDictionary
281
1
  3
Normal
350
F
100
AcDbDictionaryWithDefault
340
F
  0
DICTIONARY
  5
318
330
C
100
AcDbDictionary
281
1
  3
ZTM_assy_2_img_1
350
       31D
  0
RASTERVARIABLES
  5
319
330
C
100
AcDbRasterVariables
 90
0
 70
0
 71
1
 72
5
  0
DICTIONARY
  5
17
102
{ACAD_REACTORS
330
C
102
}
100
AcDbDictionary
280
0
281
1
  3
Standard
350
18
  0
DICTIONARY
  5
31A
330
C
100
AcDbDictionary
281
1
  3
Standard
350
       31E
  3
Standard1
350
       31F
  0
DICTIONARY
  5
19
102
{ACAD_REACTORS
330
C
102
}
100
AcDbDictionary
281
1
  0
DICTIONARY
  5
1A
102
{ACAD_REACTORS
330
C
102
}
100
AcDbDictionary
281
1
  3
Model
350
31B
  3
Layout1
350
31C
  0
ACDBPLACEHOLDER
  5
F
102
{ACAD_REACTORS
330
E
102
}
  0
MLINESTYLE
  5
18
102
{ACAD_REACTORS
330
17
102
}
100
AcDbMlineStyle
  2
STANDARD
 70
0
  3

 62
256
 51
90.0
 52
90.0
 71
2
 49
0.5
 62
256
  6
BYLAYER
 49
-0.5
 62
256
  6
BYLAYER
  0
LAYOUT
  5
31B
102
{ACAD_REACTORS
330
1A
102
}
100
AcDbPlotSettings
  1

  2
none_device
  4
ANSI_C_(22.00_x_17.00_Inches)
  6

 40
0.0
 41
0.0
 42
0.0
 43
0.0
 44
558.8
 45
431.8
 46
0.0
 47
0.0
 48
0.0
 49
0.0
140
0.0
141
0.0
142
1.0
143
1.0
 70
1024
 72
0
 73
0
 74
0
  7

 75
0
147
1.0
148
0.0
149
0.0
100
AcDbLayout
  1
Model
 70
0
 71
0
 10
0.0
 20
0.0
 11
22.0
 21
17.0
 12
0.0
 22
0.0
 32
0.0
 14
0.0
 24
0.0
 34
0.0
 15
0.0
 25
0.0
 35
0.0
146
0.0
 13
0.0
 23
0.0
 33
0.0
 16
1.0
 26
0.0
 36
0.0
 17
0.0
 27
1.0
 37
0.0
 76
0
330
207
345
0
346
0
  0
LAYOUT
  5
31C
102
{ACAD_REACTORS
330
1A
102
}
100
AcDbPlotSettings
  1

  2
none_device
  4
ANSI_C_(22.00_x_17.00_Inches)
  6

 40
0.0
 41
0.0
 42
0.0
 43
0.0
 44
558.8
 45
431.8
 46
0.0
 47
0.0
 48
0.0
 49
0.0
140
0.0
141
0.0
142
1.0
143
1.0
 70
0
 72
0
 73
0
 74
0
  7

 75
0
147
1.0
148
0.0
149
0.0
100
AcDbLayout
  1
Layout1
 70
0
 71
1
 10
0.0
 20
0.0
 11
22.0
 21
17.0
 12
0.0
 22
0.0
 32
0.0
 14
0.0
 24
0.0
 34
0.0
 15
0.0
 25
0.0
 35
0.0
146
0.0
 13
0.0
 23
0.0
 33
0.0
 16
1.0
 26
0.0
 36
0.0
 17
0.0
 27
1.0
 37
0.0
 76
0
330
208
345
0
346
0
  0
IMAGEDEF
  5
31D
102
{ACAD_REACTORS
330
318
330
317
102
}
100
AcDbRasterImageDef
 90
0
  1
ZTM_assy_2_img_1.png
 10
369.0
 20
92.0
 11
0.0066666667
 21
0.0066666667
280
1
281
0
  0
TABLESTYLE
  5
31E
102
{ACAD_REACTORS
330
31A
330
28D
330
28E
102
}
330
31A
100
AcDbTableStyle
  3
Standard
 70
0
 71
0
 40
0.06
 41
0.06
280
1
281
1
  7
Standard
140
0.18
170
1
 62
0
 63
7
283
0
  7
Standard
140
0.18
170
1
 62
0
 63
7
283
0
  7
Standard
140
0.18
170
1
 62
0
 63
7
283
0
  0
TABLESTYLE
  5
31F
102
{ACAD_REACTORS
330
31A
330
28C
102
}
330
31A
100
AcDbTableStyle
  3
Standard1
 70
1
 71
0
 40
0.06
 41
0.06
280
1
281
1
  7
Standard
140
0.18
170
1
 62
0
 63
7
283
0
  7
Standard
140
0.18
170
1
 62
0
 63
7
283
0
  7
Standard
140
0.18
170
1
 62
0
 63
7
283
0
  0
ENDSEC
  0
EOF
