999
DXF file: ZTL_assy_2.dxf
999
Pro/ENGINEER 2014200 by Parametric Technology Corporation
  0
SECTION
  2
HEADER
  9
$ACADVER
  1
AC1021
  9
$DWGCODEPAGE
  3
ANSI_1252
  9
$EXTMAX
 10
22.0
 20
17.0
 30
0.0
  9
$EXTMIN
 10
0.0
 20
0.0
 30
0.0
  9
$LIMMIN
 10
0.0
 20
0.0
  9
$LIMMAX
 10
22.0
 20
17.0
  9
$VIEWCTR
 10
11.0
 20
8.5
  9
$VIEWSIZE
 40
17.0
  9
$CLAYER
  8
0
  9
$LTSCALE
 40
1.21
  9
$CELTYPE
  6
BYLAYER
  9
$DIMSCALE
 40
1.0
  9
$DIMASZ
 40
0.1875
  9
$DIMEXO
 40
0.0625
  9
$DIMDLI
 40
0.836
  9
$DIMEXE
 40
0.125
  9
$DIMCEN
 40
0.198
  9
$DIMLFAC
 40
1.0
  9
$DIMBLK
  1
_FILLED
  9
$DIMTXT
 40
0.1
  9
$DIMTOL
 70
0
  9
$DIMLIM
 70
0
  9
$DIMTFAC
 40
1.0
  9
$DIMGAP
 40
0.09
  9
$DIMDSEP
 70
46
  9
$AUNITS
 70
0
  9
$PDMODE
 70
3
  9
$PDSIZE
 40
0.3125
  9
$HANDSEED
  5
315
  9
$TILEMODE
 70
1
  9
$MEASUREMENT
 70
0
  9
$INSUNITS
 70
1
  0
ENDSEC
  0
SECTION
  2
CLASSES
  0
CLASS
  1
ACDBDICTIONARYWDFLT
  2
AcDbDictionaryWithDefault
  3
AutoCAD 2000
 90
0
 91
1
280
0
281
0
  0
CLASS
  1
ACDBPLACEHOLDER
  2
AcDbPlaceHolder
  3
AutoCAD 2000
 90
0
 91
1
280
0
281
0
  0
CLASS
  1
LAYOUT
  2
AcDbLayout
  3
AutoCAD 2000
 90
0
 91
0
280
0
281
0
  0
CLASS
  1
RASTERVARIABLES
  2
AcDbRasterVariables
  3
ISM
 90
0
 91
1
280
0
281
0
  0
CLASS
  1
IMAGEDEF
  2
AcDbRasterImageDef
  3
ISM
 90
0
 91
1
280
0
281
0
  0
CLASS
  1
IMAGEDEF_REACTOR
  2
AcDbRasterImageDefReactor
  3
ISM
 90
0
 91
1
280
0
281
0
  0
CLASS
  1
IMAGE
  2
AcDbRasterImage
  3
ISM
 90
127
 91
1
280
0
281
1
  0
CLASS
  1
TABLESTYLE
  2
AcDbTableStyle
  3
ObjectDBX Classes
 90
2047
 91
1
280
0
281
0
  0
CLASS
  1
ACAD_TABLE
  2
AcDbTable
  3
ObjectDBX Classes
 90
1025
 91
3
280
0
281
1
  0
ENDSEC
  0
SECTION
  2
TABLES
  0
TABLE
  2
VPORT
  5
8
100
AcDbSymbolTable
 70
2
  0
VPORT
  5
1F4
100
AcDbSymbolTableRecord
100
AcDbViewportTableRecord
  2
*ACTIVE
 70
0
 10
0.0
 20
0.0
 11
1.0
 21
1.0
 12
11.0
 22
8.5
 13
0.0
 23
0.0
 14
1.0
 24
1.0
 15
0.0
 25
0.0
 16
0.0
 26
0.0
 36
1.0
 17
0.0
 27
0.0
 37
0.0
 40
17.0
 41
1.2941176471
 42
50.0
 43
0.0
 44
0.0
 50
0.0
 51
0.0
 71
0
 72
100
 73
1
 74
1
 75
0
 76
0
 77
0
 78
0
  0
ENDTAB
  0
TABLE
  2
LTYPE
  5
5
100
AcDbSymbolTable
 70
6
  0
LTYPE
  5
14
100
AcDbSymbolTableRecord
100
AcDbLinetypeTableRecord
  2
BYBLOCK
 70
0
  3

 72
65
 73
0
 40
0.0
  0
LTYPE
  5
15
100
AcDbSymbolTableRecord
100
AcDbLinetypeTableRecord
  2
BYLAYER
 70
0
  3

 72
65
 73
0
 40
0.0
  0
LTYPE
  5
16
100
AcDbSymbolTableRecord
100
AcDbLinetypeTableRecord
  2
CONTINUOUS
 70
64
  3
Solid line
 72
65
 73
0
 40
0.0
  0
LTYPE
  5
1F5
100
AcDbSymbolTableRecord
100
AcDbLinetypeTableRecord
  2
CENTER
 70
64
  3
____ _ ____ _ ____ _ ____ _ ____ _ ____ _ ____
 72
65
 73
4
 40
0.6
 49
0.375
 74
0
 49
-0.075
 74
0
 49
0.075
 74
0
 49
-0.075
 74
0
  0
LTYPE
  5
1F6
100
AcDbSymbolTableRecord
100
AcDbLinetypeTableRecord
  2
HIDDEN
 70
64
  3
- - - - - - - - - - - - - - - - - - - -
 72
65
 73
2
 40
0.2
 49
0.1
 74
0
 49
-0.1
 74
0
  0
LTYPE
  5
1F7
100
AcDbSymbolTableRecord
100
AcDbLinetypeTableRecord
  2
PHANTOM
 70
64
  3
_____ _ _ _____ _ _ _____ _ _ _____
 72
65
 73
6
 40
0.8
 49
0.45
 74
0
 49
-0.05
 74
0
 49
0.1
 74
0
 49
-0.05
 74
0
 49
0.1
 74
0
 49
-0.05
 74
0
  0
LTYPE
  5
1F8
100
AcDbSymbolTableRecord
100
AcDbLinetypeTableRecord
  2
DOT
 70
64
  3
. . . . . . . . . . . . . . . . . . . .
 72
65
 73
2
 40
0.2
 49
0.1
 74
0
 49
-0.1
 74
0
  0
LTYPE
  5
1F9
100
AcDbSymbolTableRecord
100
AcDbLinetypeTableRecord
  2
DASHED
 70
64
  3
- - - - - - - - - - - - - - - - - - - -
 72
65
 73
2
 40
0.2
 49
0.1
 74
0
 49
-0.1
 74
0
  0
ENDTAB
  0
TABLE
  2
LAYER
  5
2
100
AcDbSymbolTable
 70
36
  0
LAYER
  5
10
100
AcDbSymbolTableRecord
100
AcDbLayerTableRecord
  2
0
 70
0
 62
7
  6
CONTINUOUS
370
-3
390
F
  0
LAYER
  5
1FA
100
AcDbSymbolTableRecord
100
AcDbLayerTableRecord
  2
DEFAULT_1
 70
0
 62
7
  6
CENTER
370
-3
390
F
  0
LAYER
  5
1FB
100
AcDbSymbolTableRecord
100
AcDbLayerTableRecord
  2
DEFAULT_2
 70
0
 62
8
  6
HIDDEN
370
-3
390
F
  0
LAYER
  5
1FC
100
AcDbSymbolTableRecord
100
AcDbLayerTableRecord
  2
DEFAULT_3
 70
0
 62
7
  6
PHANTOM
370
-3
390
F
  0
LAYER
  5
1FD
100
AcDbSymbolTableRecord
100
AcDbLayerTableRecord
  2
DATUM_PLANES
 70
0
 62
7
  6
CONTINUOUS
370
-3
390
F
  0
LAYER
  5
1FE
100
AcDbSymbolTableRecord
100
AcDbLayerTableRecord
  2
DIMENSIONS
 70
0
 62
7
  6
CONTINUOUS
370
-3
390
F
  0
LAYER
  5
1FF
100
AcDbSymbolTableRecord
100
AcDbLayerTableRecord
  2
DTM_500001
 70
0
 62
7
  6
CONTINUOUS
370
-3
390
F
  0
LAYER
  5
200
100
AcDbSymbolTableRecord
100
AcDbLayerTableRecord
  2
PARAMETERDIMENSIONS
 70
0
 62
7
  6
CONTINUOUS
370
-3
390
F
  0
LAYER
  5
201
100
AcDbSymbolTableRecord
100
AcDbLayerTableRecord
  2
PORT_AREAS
 70
0
 62
7
  6
CONTINUOUS
370
-3
390
F
  0
LAYER
  5
202
100
AcDbSymbolTableRecord
100
AcDbLayerTableRecord
  2
SUNNBOMCOSMETIC
 70
0
 62
7
  6
CONTINUOUS
370
-3
390
F
  0
LAYER
  5
203
100
AcDbSymbolTableRecord
100
AcDbLayerTableRecord
  2
SUNNBOMSTAMPING
 70
0
 62
7
  6
CONTINUOUS
370
-3
390
F
  0
LAYER
  5
204
100
AcDbSymbolTableRecord
100
AcDbLayerTableRecord
  2
THREADS
 70
0
 62
7
  6
CONTINUOUS
370
-3
390
F
  0
ENDTAB
  0
TABLE
  2
STYLE
  5
3
100
AcDbSymbolTable
 70
1
  0
STYLE
  5
11
100
AcDbSymbolTableRecord
100
AcDbTextStyleTableRecord
  2
STANDARD
 70
0
 40
0.0
 41
0.8
 50
0.0
 71
0
 42
0.2
  3
txt
  4

  0
STYLE
  5
205
100
AcDbSymbolTableRecord
100
AcDbTextStyleTableRecord
  2
TEXTSTYLE_1
 70
0
 40
0.0
 41
0.8
 50
0.0
 71
0
 42
0.2
  3
gdt
  4

  0
ENDTAB
  0
TABLE
  2
VIEW
  5
6
100
AcDbSymbolTable
 70
0
  0
ENDTAB
  0
TABLE
  2
UCS
  5
7
100
AcDbSymbolTable
 70
0
  0
ENDTAB
  0
TABLE
  2
APPID
  5
9
100
AcDbSymbolTable
 70
1
  0
APPID
  5
206
100
AcDbSymbolTableRecord
100
AcDbRegAppTableRecord
  2
ACAD
 70
0
  0
ENDTAB
  0
TABLE
  2
BLOCK_RECORD
  5
1
100
AcDbSymbolTable
 70
0
  0
BLOCK_RECORD
  5
207
100
AcDbSymbolTableRecord
100
AcDbBlockTableRecord
  2
*Model_Space
  0
BLOCK_RECORD
  5
208
100
AcDbSymbolTableRecord
100
AcDbBlockTableRecord
  2
*Paper_Space
  0
BLOCK_RECORD
  5
209
100
AcDbSymbolTableRecord
100
AcDbBlockTableRecord
  2
SUN_FIRST_THIRD_ANGLE_BL0
  0
BLOCK_RECORD
  5
20A
100
AcDbSymbolTableRecord
100
AcDbBlockTableRecord
  2
*T1
  0
BLOCK_RECORD
  5
20B
100
AcDbSymbolTableRecord
100
AcDbBlockTableRecord
  2
*T2
  0
BLOCK_RECORD
  5
20C
100
AcDbSymbolTableRecord
100
AcDbBlockTableRecord
  2
*T3
  0
ENDTAB
  0
TABLE
  2
DIMSTYLE
  5
A
100
AcDbSymbolTable
 70
1
100
AcDbDimStyleTable
 71
0
  0
DIMSTYLE
105
20D
100
AcDbSymbolTableRecord
100
AcDbDimStyleTableRecord
  2
STANDARD
 70
0
  3

  4

 40
1.0
 41
0.1875
 42
0.0625
 43
0.38
 44
0.125
 45
0.0
 46
0.0
 47
0.001
 48
0.001
140
0.1
141
0.09
142
0.0
143
25.4
144
1.0
145
0.0
146
1.0
147
0.09
 71
0.0
 72
0.0
 73
1
 74
1
 75
0
 76
0
 77
0
 78
4
170
0
171
2
172
0
173
0
174
0
175
0
176
0
177
0
178
0
270
2
271
3
272
3
273
2
274
2
275
0
280
0
281
0
282
0
283
1
284
4
285
0
286
0
287
3
288
0
340
11
278
46
  0
ENDTAB
  0
ENDSEC
  0
SECTION
  2
BLOCKS
  0
BLOCK
  5
20
100
AcDbEntity
  8
0
100
AcDbBlockBegin
  2
*Model_Space
 70
0
 10
0.0
 20
0.0
 30
0.0
  3
*Model_Space
  1

  0
ENDBLK
  5
21
100
AcDbEntity
  8
0
100
AcDbBlockEnd
  0
BLOCK
  5
1C
100
AcDbEntity
  8
0
100
AcDbBlockBegin
  2
*Paper_Space
 70
0
 10
0.0
 20
0.0
 30
0.0
  3
*Paper_Space
  1

  0
ENDBLK
  5
1D
100
AcDbEntity
  8
0
100
AcDbBlockEnd
  0
BLOCK
  5
20E
100
AcDbEntity
  8
0
100
AcDbBlockBegin
 62
2
  6
CONTINUOUS
  2
SUN_FIRST_THIRD_ANGLE_BL0
 70
64
 10
20.4816717061
 20
1.2289683772
  3
SUN_FIRST_THIRD_ANGLE_BL0
  1

  0
TEXT
  5
20F
100
AcDbEntity
  8
0
100
AcDbText
 62
2
  6
CONTINUOUS
 10
19.4750896608
 20
1.4136269581
  7
STANDARD
 40
0.08
  1
FIRST ANGLE
 41
0.8
 72
0
100
AcDbText
  0
TEXT
  5
210
100
AcDbEntity
  8
0
100
AcDbText
 62
2
  6
CONTINUOUS
 10
20.7842537513
 20
1.4047600029
  7
STANDARD
 40
0.08
  1
THIRD ANGLE
 41
0.8
 72
0
100
AcDbText
  0
LINE
  5
211
100
AcDbEntity
  8
0
100
AcDbLine
 62
7
  6
CONTINUOUS
 10
19.4767170086
 20
1.1727031207
 11
19.6334271527
 21
1.1717972817
  0
LINE
  5
212
100
AcDbEntity
  8
0
100
AcDbLine
 62
7
  6
CONTINUOUS
 10
19.6596964832
 20
1.1717972817
 11
19.6950230232
 21
1.171593082
  0
LINE
  5
213
100
AcDbEntity
  8
0
100
AcDbLine
 62
7
  6
CONTINUOUS
 10
19.7194818561
 20
1.1708914427
 11
19.8852396156
 21
1.1699333054
  0
LINE
  5
214
100
AcDbEntity
  8
0
100
AcDbLine
 62
7
  6
CONTINUOUS
 10
19.4758111696
 20
1.2723454088
 11
19.88525039
 21
1.3511534004
  0
LINE
  5
215
100
AcDbEntity
  8
0
100
AcDbLine
 62
7
  6
CONTINUOUS
 10
19.88525039
 20
1.3511534004
 11
19.8831348489
 21
0.9851647912
  0
LINE
  5
216
100
AcDbEntity
  8
0
100
AcDbLine
 62
7
  6
CONTINUOUS
 10
19.8831348489
 20
0.9851647912
 11
19.4767170086
 21
1.0658141206
  0
LINE
  5
217
100
AcDbEntity
  8
0
100
AcDbLine
 62
7
  6
CONTINUOUS
 10
19.4767170086
 20
1.0658141206
 11
19.4779056764
 21
1.2714536432
  0
CIRCLE
  5
218
100
AcDbEntity
  8
0
100
AcDbCircle
 62
7
  6
CONTINUOUS
 10
20.2068232291
 20
1.1717972817
 40
0.175742101
  0
CIRCLE
  5
219
100
AcDbEntity
  8
0
100
AcDbCircle
 62
7
  6
CONTINUOUS
 10
20.2068232291
 20
1.1717972817
 40
0.1005522074
  0
LINE
  5
21A
100
AcDbEntity
  8
0
100
AcDbLine
 62
7
  6
CONTINUOUS
 10
20.2077290681
 20
1.3756110529
 11
20.2071171714
 21
1.2379342989
  0
LINE
  5
21B
100
AcDbEntity
  8
0
100
AcDbLine
 62
7
  6
CONTINUOUS
 10
20.2077290681
 20
1.2016899681
 11
20.2074674401
 21
1.1428236749
  0
LINE
  5
21C
100
AcDbEntity
  8
0
100
AcDbLine
 62
7
  6
CONTINUOUS
 10
20.208634907
 20
1.101141841
 11
20.2080230104
 21
0.963465087
  0
LINE
  5
21D
100
AcDbEntity
  8
0
100
AcDbLine
 62
7
  6
CONTINUOUS
 10
20.0066328138
 20
1.1745147986
 11
20.1443095678
 21
1.1739029019
  0
LINE
  5
21E
100
AcDbEntity
  8
0
100
AcDbLine
 62
7
  6
CONTINUOUS
 10
20.1832714155
 20
1.1727031207
 11
20.238153505
 21
1.172335442
  0
LINE
  5
21F
100
AcDbEntity
  8
0
100
AcDbLine
 62
7
  6
CONTINUOUS
 10
20.2756669918
 20
1.1717972817
 11
20.407916871
 21
1.1712095044
  0
CIRCLE
  5
220
100
AcDbEntity
  8
0
100
AcDbCircle
 62
7
  6
CONTINUOUS
 10
20.7509457401
 20
1.1693297793
 40
0.1722024983
  0
CIRCLE
  5
221
100
AcDbEntity
  8
0
100
AcDbCircle
 62
7
  6
CONTINUOUS
 10
20.7509457401
 20
1.1693297793
 40
0.0985164967
  0
LINE
  5
222
100
AcDbEntity
  8
0
100
AcDbLine
 62
7
  6
CONTINUOUS
 10
20.7169767782
 20
1.170462078
 11
20.7825395137
 21
1.1682766535
  0
LINE
  5
223
100
AcDbEntity
  8
0
100
AcDbLine
 62
7
  6
CONTINUOUS
 10
20.8177513651
 20
1.1693297793
 11
20.947965719
 21
1.1693297793
  0
LINE
  5
224
100
AcDbEntity
  8
0
100
AcDbLine
 62
7
  6
CONTINUOUS
 10
20.6875370113
 20
1.170462078
 11
20.5573226574
 21
1.170462078
  0
LINE
  5
225
100
AcDbEntity
  8
0
100
AcDbLine
 62
7
  6
CONTINUOUS
 10
20.7486811426
 20
1.1987695462
 11
20.7486811426
 21
1.1432869085
  0
LINE
  5
226
100
AcDbEntity
  8
0
100
AcDbLine
 62
7
  6
CONTINUOUS
 10
20.7498134414
 20
1.1059210505
 11
20.7498134414
 21
0.9757066966
  0
LINE
  5
227
100
AcDbEntity
  8
0
100
AcDbLine
 62
7
  6
CONTINUOUS
 10
20.7486811426
 20
1.2338708068
 11
20.7486811426
 21
1.3640851607
  0
LINE
  5
228
100
AcDbEntity
  8
0
100
AcDbLine
 62
7
  6
CONTINUOUS
 10
21.0702539817
 20
1.2701043662
 11
21.4790138229
 21
1.3448360823
  0
LINE
  5
229
100
AcDbEntity
  8
0
100
AcDbLine
 62
7
  6
CONTINUOUS
 10
21.4790138229
 20
1.3448360823
 11
21.4790138229
 21
0.9779712941
  0
LINE
  5
22A
100
AcDbEntity
  8
0
100
AcDbLine
 62
7
  6
CONTINUOUS
 10
21.4790138229
 20
0.9779712941
 11
21.069121683
 21
1.0617614
  0
LINE
  5
22B
100
AcDbEntity
  8
0
100
AcDbLine
 62
7
  6
CONTINUOUS
 10
21.0702539817
 20
1.2701043662
 11
21.069121683
 21
1.0617614
  0
LINE
  5
22C
100
AcDbEntity
  8
0
100
AcDbLine
 62
7
  6
CONTINUOUS
 10
21.4790138229
 20
1.1693297793
 11
21.3159628059
 21
1.1693297793
  0
LINE
  5
22D
100
AcDbEntity
  8
0
100
AcDbLine
 62
7
  6
CONTINUOUS
 10
21.2876553377
 20
1.1693297793
 11
21.2502894796
 21
1.1693297793
  0
LINE
  5
22E
100
AcDbEntity
  8
0
100
AcDbLine
 62
7
  6
CONTINUOUS
 10
21.2208497126
 20
1.1659328831
 11
21.0713862804
 21
1.1659328831
  0
LINE
  5
22F
100
AcDbEntity
  8
0
100
AcDbLine
 62
7
  6
CONTINUOUS
 10
20.4796138713
 20
1.5284908897
 11
20.4766766948
 21
0.9294458646
  0
ENDBLK
  5
230
100
AcDbEntity
  8
0
  6
BYBLOCK
 62
0
100
AcDbBlockEnd
  0
BLOCK
  5
231
100
AcDbEntity
  8
0
100
AcDbBlockBegin
  2
*T1
 70
1
 10
0.0
 20
0.0
  3
*T1
  1

  0
LINE
  5
232
100
AcDbEntity
  8
0
100
AcDbLine
 62
2
  6
CONTINUOUS
 10
9.275
 20
0.0
 11
-0.0
 21
0.0
  0
LINE
  5
233
100
AcDbEntity
  8
0
100
AcDbLine
 62
2
  6
CONTINUOUS
 10
9.275
 20
0.0
 11
9.275
 21
1.25
  0
LINE
  5
234
100
AcDbEntity
  8
0
100
AcDbLine
 62
2
  6
CONTINUOUS
 10
9.275
 20
0.625
 11
-0.0
 21
0.625
  0
LINE
  5
235
100
AcDbEntity
  8
0
100
AcDbLine
 62
2
  6
CONTINUOUS
 10
9.275
 20
1.25
 11
-0.0
 21
1.25
  0
LINE
  5
236
100
AcDbEntity
  8
0
100
AcDbLine
 62
2
  6
CONTINUOUS
 10
6.8
 20
0.0
 11
6.8
 21
1.25
  0
LINE
  5
237
100
AcDbEntity
  8
0
100
AcDbLine
 62
2
  6
CONTINUOUS
 10
6.4
 20
0.0
 11
6.4
 21
0.625
  0
LINE
  5
238
100
AcDbEntity
  8
0
100
AcDbLine
 62
2
  6
CONTINUOUS
 10
5.9
 20
0.0
 11
5.9
 21
0.625
  0
LINE
  5
239
100
AcDbEntity
  8
0
100
AcDbLine
 62
2
  6
CONTINUOUS
 10
5.2
 20
0.0
 11
5.2
 21
0.625
  0
LINE
  5
23A
100
AcDbEntity
  8
0
100
AcDbLine
 62
2
  6
CONTINUOUS
 10
4.1
 20
0.0
 11
4.1
 21
1.25
  0
LINE
  5
23B
100
AcDbEntity
  8
0
100
AcDbLine
 62
2
  6
CONTINUOUS
 10
-0.0
 20
0.0
 11
-0.0
 21
1.25
  0
MTEXT
  5
23C
100
AcDbEntity
  8
0
100
AcDbMText
 62
2
  6
CONTINUOUS
  7
STANDARD
 71
2
 72
1
 10
6.6
 20
0.325
 30
0.0
 11
1.0
 21
0.0
 31
0.0
 44
0.9
  1
2
 40
0.125
 41
0.2
  0
MTEXT
  5
23D
100
AcDbEntity
  8
0
100
AcDbMText
 62
2
  6
CONTINUOUS
  7
STANDARD
 71
2
 72
1
 10
6.15
 20
0.325
 30
0.0
 11
1.0
 21
0.0
 31
0.0
 44
0.9
  1
C
 40
0.125
 41
0.2
  0
MTEXT
  5
23E
100
AcDbEntity
  8
0
100
AcDbMText
 62
2
  6
CONTINUOUS
  7
STANDARD
 71
2
 72
1
 10
5.55
 20
0.325
 30
0.0
 11
1.0
 21
0.0
 31
0.0
 44
0.9
  1
1.000
 40
0.125
 41
1.0
  0
MTEXT
  5
23F
100
AcDbEntity
  8
0
100
AcDbMText
 62
2
  6
CONTINUOUS
  7
STANDARD
 71
2
 72
1
 10
4.65
 20
0.325
 30
0.0
 11
1.0
 21
0.0
 31
0.0
 44
0.9
  1
Oct-03-19
 40
0.125
 41
1.8
  0
MTEXT
  5
240
100
AcDbEntity
  8
0
100
AcDbMText
 62
2
  6
CONTINUOUS
  7
STANDARD
 71
2
 72
1
 10
2.05
 20
0.4625
 30
0.0
 11
1.0
 21
0.0
 31
0.0
 44
0.9
  1
T-17A Gasket mount Sun\PDirect mount, cross pilot
 40
0.125
 41
5.0
  0
MTEXT
  5
241
100
AcDbEntity
  8
0
100
AcDbMText
 62
2
  6
CONTINUOUS
  7
STANDARD
 71
1
 72
1
 10
6.45
 20
0.5625
 30
0.0
 11
1.0
 21
0.0
 31
0.0
 44
0.9
  1
SHEET
 40
0.06
 41
0.48
  0
MTEXT
  5
242
100
AcDbEntity
  8
0
100
AcDbMText
 62
2
  6
CONTINUOUS
  7
STANDARD
 71
1
 72
1
 10
5.95
 20
0.5625
 30
0.0
 11
1.0
 21
0.0
 31
0.0
 44
0.9
  1
DWG SIZE
 40
0.06
 41
0.768
  0
MTEXT
  5
243
100
AcDbEntity
  8
0
100
AcDbMText
 62
2
  6
CONTINUOUS
  7
STANDARD
 71
1
 72
1
 10
5.25
 20
0.5625
 30
0.0
 11
1.0
 21
0.0
 31
0.0
 44
0.9
  1
SCALE
 40
0.06
 41
0.48
  0
MTEXT
  5
244
100
AcDbEntity
  8
0
100
AcDbMText
 62
2
  6
CONTINUOUS
  7
STANDARD
 71
1
 72
1
 10
4.15
 20
0.5625
 30
0.0
 11
1.0
 21
0.0
 31
0.0
 44
0.9
  1
DATE
 40
0.06
 41
0.384
  0
MTEXT
  5
245
100
AcDbEntity
  8
0
100
AcDbMText
 62
2
  6
CONTINUOUS
  7
STANDARD
 71
1
 72
1
 10
0.05
 20
0.5625
 30
0.0
 11
1.0
 21
0.0
 31
0.0
 44
0.9
  1
DESCRIPTION
 40
0.06
 41
1.056
  0
MTEXT
  5
246
100
AcDbEntity
  8
0
100
AcDbMText
 62
2
  6
CONTINUOUS
  7
STANDARD
 71
2
 72
1
 10
5.45
 20
1.0375
 30
0.0
 11
1.0
 21
0.0
 31
0.0
 44
0.9
  1
ALL DIMENSIONS IN INCH\PVIEWS ARE THIRD ANGLE
 40
0.12
 41
4.224
  0
MTEXT
  5
247
100
AcDbEntity
  8
0
100
AcDbMText
 62
2
  6
CONTINUOUS
  7
STANDARD
 71
2
 72
1
 10
2.05
 20
0.95
 30
0.0
 11
1.0
 21
0.0
 31
0.0
 44
0.9
  1
ZTL
 40
0.125
 41
0.6
  0
MTEXT
  5
248
100
AcDbEntity
  8
0
100
AcDbMText
 62
2
  6
CONTINUOUS
  7
STANDARD
 71
1
 72
1
 10
0.05
 20
1.1875
 30
0.0
 11
1.0
 21
0.0
 31
0.0
 44
0.9
  1
MODEL
 40
0.06
 41
0.48
  0
ENDBLK
  5
249
100
AcDbEntity
  8
0
  6
BYBLOCK
 62
0
100
AcDbBlockEnd
  0
BLOCK
  5
24A
100
AcDbEntity
  8
0
100
AcDbBlockBegin
  2
*T2
 70
1
 10
0.0
 20
0.0
  3
*T2
  1

  0
LINE
  5
24B
100
AcDbEntity
  8
0
100
AcDbLine
 62
2
  6
CONTINUOUS
 10
0.0
 20
0.0
 11
9.055
 21
0.0
  0
LINE
  5
24C
100
AcDbEntity
  8
0
100
AcDbLine
 62
2
  6
CONTINUOUS
 10
0.0
 20
0.0
 11
0.0
 21
-3.094
  0
LINE
  5
24D
100
AcDbEntity
  8
0
100
AcDbLine
 62
2
  6
CONTINUOUS
 10
0.0
 20
-0.344
 11
9.055
 21
-0.344
  0
LINE
  5
24E
100
AcDbEntity
  8
0
100
AcDbLine
 62
2
  6
CONTINUOUS
 10
0.0
 20
-0.594
 11
9.055
 21
-0.594
  0
LINE
  5
24F
100
AcDbEntity
  8
0
100
AcDbLine
 62
2
  6
CONTINUOUS
 10
0.0
 20
-0.844
 11
9.055
 21
-0.844
  0
LINE
  5
250
100
AcDbEntity
  8
0
100
AcDbLine
 62
2
  6
CONTINUOUS
 10
0.0
 20
-1.094
 11
9.055
 21
-1.094
  0
LINE
  5
251
100
AcDbEntity
  8
0
100
AcDbLine
 62
2
  6
CONTINUOUS
 10
0.0
 20
-1.344
 11
9.055
 21
-1.344
  0
LINE
  5
252
100
AcDbEntity
  8
0
100
AcDbLine
 62
2
  6
CONTINUOUS
 10
0.0
 20
-1.594
 11
9.055
 21
-1.594
  0
LINE
  5
253
100
AcDbEntity
  8
0
100
AcDbLine
 62
2
  6
CONTINUOUS
 10
0.0
 20
-1.844
 11
9.055
 21
-1.844
  0
LINE
  5
254
100
AcDbEntity
  8
0
100
AcDbLine
 62
2
  6
CONTINUOUS
 10
0.0
 20
-2.094
 11
9.055
 21
-2.094
  0
LINE
  5
255
100
AcDbEntity
  8
0
100
AcDbLine
 62
2
  6
CONTINUOUS
 10
0.0
 20
-2.344
 11
9.055
 21
-2.344
  0
LINE
  5
256
100
AcDbEntity
  8
0
100
AcDbLine
 62
2
  6
CONTINUOUS
 10
0.0
 20
-2.594
 11
9.055
 21
-2.594
  0
LINE
  5
257
100
AcDbEntity
  8
0
100
AcDbLine
 62
2
  6
CONTINUOUS
 10
0.0
 20
-2.844
 11
9.055
 21
-2.844
  0
LINE
  5
258
100
AcDbEntity
  8
0
100
AcDbLine
 62
2
  6
CONTINUOUS
 10
0.0
 20
-3.094
 11
9.055
 21
-3.094
  0
LINE
  5
259
100
AcDbEntity
  8
0
100
AcDbLine
 62
2
  6
CONTINUOUS
 10
3.055
 20
0.0
 11
3.055
 21
-3.094
  0
LINE
  5
25A
100
AcDbEntity
  8
0
100
AcDbLine
 62
2
  6
CONTINUOUS
 10
9.055
 20
0.0
 11
9.055
 21
-3.094
  0
MTEXT
  5
25B
100
AcDbEntity
  8
0
100
AcDbMText
 62
2
  6
CONTINUOUS
  7
STANDARD
 71
2
 72
1
 10
1.5275
 20
-0.0995
 30
0.0
 11
1.0
 21
0.0
 31
0.0
 44
0.9
  1
Technical Data
 40
0.145
 41
3.248
  0
MTEXT
  5
25C
100
AcDbEntity
  8
0
100
AcDbMText
 62
2
  6
CONTINUOUS
  7
STANDARD
 71
2
 72
1
 10
4.555
 20
-0.0995
 30
0.0
 11
1.0
 21
0.0
 31
0.0
 44
0.9
  1
U.S. Units
 40
0.145
 41
2.32
  0
MTEXT
  5
25D
100
AcDbEntity
  8
0
100
AcDbMText
 62
2
  6
CONTINUOUS
  7
STANDARD
 71
2
 72
1
 10
7.555
 20
-0.0995
 30
0.0
 11
1.0
 21
0.0
 31
0.0
 44
0.9
  1
Metric Units
 40
0.145
 41
2.784
  0
MTEXT
  5
25E
100
AcDbEntity
  8
0
100
AcDbMText
 62
2
  6
CONTINUOUS
  7
STANDARD
 71
2
 72
1
 10
1.5275
 20
-0.4065
 30
0.0
 11
1.0
 21
0.0
 31
0.0
 44
0.9
  1
Cavity
 40
0.125
 41
1.2
  0
MTEXT
  5
25F
100
AcDbEntity
  8
0
100
AcDbMText
 62
2
  6
CONTINUOUS
  7
STANDARD
 71
2
 72
1
 10
6.055
 20
-0.4065
 30
0.0
 11
1.0
 21
0.0
 31
0.0
 44
0.9
  1
T-17A
 40
0.125
 41
1.0
  0
MTEXT
  5
260
100
AcDbEntity
  8
0
100
AcDbMText
 62
2
  6
CONTINUOUS
  7
STANDARD
 71
2
 72
1
 10
1.5275
 20
-0.6565
 30
0.0
 11
1.0
 21
0.0
 31
0.0
 44
0.9
  1
Body Features
 40
0.125
 41
2.6
  0
MTEXT
  5
261
100
AcDbEntity
  8
0
100
AcDbMText
 62
2
  6
CONTINUOUS
  7
STANDARD
 71
2
 72
1
 10
6.055
 20
-0.6565
 30
0.0
 11
1.0
 21
0.0
 31
0.0
 44
0.9
  1
Direct mount, cross pilot
 40
0.125
 41
5.0
  0
MTEXT
  5
262
100
AcDbEntity
  8
0
100
AcDbMText
 62
2
  6
CONTINUOUS
  7
STANDARD
 71
2
 72
1
 10
1.5275
 20
-0.9065
 30
0.0
 11
1.0
 21
0.0
 31
0.0
 44
0.9
  1
Body Type
 40
0.125
 41
1.8
  0
MTEXT
  5
263
100
AcDbEntity
  8
0
100
AcDbMText
 62
2
  6
CONTINUOUS
  7
STANDARD
 71
2
 72
1
 10
6.055
 20
-0.9065
 30
0.0
 11
1.0
 21
0.0
 31
0.0
 44
0.9
  1
Gasket mount
 40
0.125
 41
2.4
  0
MTEXT
  5
264
100
AcDbEntity
  8
0
100
AcDbMText
 62
2
  6
CONTINUOUS
  7
STANDARD
 71
2
 72
1
 10
1.5275
 20
-1.1565
 30
0.0
 11
1.0
 21
0.0
 31
0.0
 44
0.9
  1
Interface
 40
0.125
 41
1.8
  0
MTEXT
  5
265
100
AcDbEntity
  8
0
100
AcDbMText
 62
2
  6
CONTINUOUS
  7
STANDARD
 71
2
 72
1
 10
6.055
 20
-1.1565
 30
0.0
 11
1.0
 21
0.0
 31
0.0
 44
0.9
  1
Sun
 40
0.125
 41
0.6
  0
MTEXT
  5
266
100
AcDbEntity
  8
0
100
AcDbMText
 62
2
  6
CONTINUOUS
  7
STANDARD
 71
2
 72
1
 10
1.5275
 20
-1.4065
 30
0.0
 11
1.0
 21
0.0
 31
0.0
 44
0.9
  1
Open Cavity Quantity
 40
0.125
 41
4.0
  0
MTEXT
  5
267
100
AcDbEntity
  8
0
100
AcDbMText
 62
2
  6
CONTINUOUS
  7
STANDARD
 71
2
 72
1
 10
6.055
 20
-1.4065
 30
0.0
 11
1.0
 21
0.0
 31
0.0
 44
0.9
  1
1
 40
0.125
 41
0.2
  0
MTEXT
  5
268
100
AcDbEntity
  8
0
100
AcDbMText
 62
2
  6
CONTINUOUS
  7
STANDARD
 71
2
 72
1
 10
1.5275
 20
-1.6565
 30
0.0
 11
1.0
 21
0.0
 31
0.0
 44
0.9
  1
Weight
 40
0.125
 41
1.2
  0
MTEXT
  5
269
100
AcDbEntity
  8
0
100
AcDbMText
 62
2
  6
CONTINUOUS
  7
STANDARD
 71
2
 72
1
 10
4.555
 20
-1.6565
 30
0.0
 11
1.0
 21
0.0
 31
0.0
 44
0.9
  1
3.535 lb.
 40
0.125
 41
1.8
  0
MTEXT
  5
26A
100
AcDbEntity
  8
0
100
AcDbMText
 62
2
  6
CONTINUOUS
  7
STANDARD
 71
2
 72
1
 10
7.555
 20
-1.6565
 30
0.0
 11
1.0
 21
0.0
 31
0.0
 44
0.9
  1
1,603 kg.
 40
0.125
 41
1.8
  0
MTEXT
  5
26B
100
AcDbEntity
  8
0
100
AcDbMText
 62
2
  6
CONTINUOUS
  7
STANDARD
 71
2
 72
1
 10
1.5275
 20
-1.9065
 30
0.0
 11
1.0
 21
0.0
 31
0.0
 44
0.9
  1
Mounting Hole Diameter
 40
0.125
 41
4.4
  0
MTEXT
  5
26C
100
AcDbEntity
  8
0
100
AcDbMText
 62
2
  6
CONTINUOUS
  7
STANDARD
 71
2
 72
1
 10
4.555
 20
-1.9065
 30
0.0
 11
1.0
 21
0.0
 31
0.0
 44
0.9
  1
.50 in.
 40
0.125
 41
1.4
  0
MTEXT
  5
26D
100
AcDbEntity
  8
0
100
AcDbMText
 62
2
  6
CONTINUOUS
  7
STANDARD
 71
2
 72
1
 10
7.555
 20
-1.9065
 30
0.0
 11
1.0
 21
0.0
 31
0.0
 44
0.9
  1
12,7 mm
 40
0.125
 41
1.4
  0
MTEXT
  5
26E
100
AcDbEntity
  8
0
100
AcDbMText
 62
2
  6
CONTINUOUS
  7
STANDARD
 71
2
 72
1
 10
1.5275
 20
-2.1565
 30
0.0
 11
1.0
 21
0.0
 31
0.0
 44
0.9
  1
Mounting Hole Depth
 40
0.125
 41
3.8
  0
MTEXT
  5
26F
100
AcDbEntity
  8
0
100
AcDbMText
 62
2
  6
CONTINUOUS
  7
STANDARD
 71
2
 72
1
 10
6.055
 20
-2.1565
 30
0.0
 11
1.0
 21
0.0
 31
0.0
 44
0.9
  1
Through
 40
0.125
 41
1.4
  0
MTEXT
  5
270
100
AcDbEntity
  8
0
100
AcDbMText
 62
2
  6
CONTINUOUS
  7
STANDARD
 71
2
 72
1
 10
1.5275
 20
-2.4065
 30
0.0
 11
1.0
 21
0.0
 31
0.0
 44
0.9
  1
Mounting Hole Quantity
 40
0.125
 41
4.4
  0
MTEXT
  5
271
100
AcDbEntity
  8
0
100
AcDbMText
 62
2
  6
CONTINUOUS
  7
STANDARD
 71
2
 72
1
 10
6.055
 20
-2.4065
 30
0.0
 11
1.0
 21
0.0
 31
0.0
 44
0.9
  1
2
 40
0.125
 41
0.2
  0
MTEXT
  5
272
100
AcDbEntity
  8
0
100
AcDbMText
 62
2
  6
CONTINUOUS
  7
STANDARD
 71
2
 72
1
 10
1.5275
 20
-2.6565
 30
0.0
 11
1.0
 21
0.0
 31
0.0
 44
0.9
  1
Mounting Hole C'bore Diameter
 40
0.125
 41
5.8
  0
MTEXT
  5
273
100
AcDbEntity
  8
0
100
AcDbMText
 62
2
  6
CONTINUOUS
  7
STANDARD
 71
2
 72
1
 10
4.555
 20
-2.6565
 30
0.0
 11
1.0
 21
0.0
 31
0.0
 44
0.9
  1
.75 in.
 40
0.125
 41
1.4
  0
MTEXT
  5
274
100
AcDbEntity
  8
0
100
AcDbMText
 62
2
  6
CONTINUOUS
  7
STANDARD
 71
2
 72
1
 10
7.555
 20
-2.6565
 30
0.0
 11
1.0
 21
0.0
 31
0.0
 44
0.9
  1
19 mm
 40
0.125
 41
1.0
  0
MTEXT
  5
275
100
AcDbEntity
  8
0
100
AcDbMText
 62
2
  6
CONTINUOUS
  7
STANDARD
 71
2
 72
1
 10
1.5275
 20
-2.9065
 30
0.0
 11
1.0
 21
0.0
 31
0.0
 44
0.9
  1
Mounting Hole C'bore Depth
 40
0.125
 41
5.2
  0
MTEXT
  5
276
100
AcDbEntity
  8
0
100
AcDbMText
 62
2
  6
CONTINUOUS
  7
STANDARD
 71
2
 72
1
 10
4.555
 20
-2.9065
 30
0.0
 11
1.0
 21
0.0
 31
0.0
 44
0.9
  1
.44 in.
 40
0.125
 41
1.4
  0
MTEXT
  5
277
100
AcDbEntity
  8
0
100
AcDbMText
 62
2
  6
CONTINUOUS
  7
STANDARD
 71
2
 72
1
 10
7.555
 20
-2.9065
 30
0.0
 11
1.0
 21
0.0
 31
0.0
 44
0.9
  1
11,1 mm
 40
0.125
 41
1.4
  0
ENDBLK
  5
278
100
AcDbEntity
  8
0
  6
BYBLOCK
 62
0
100
AcDbBlockEnd
  0
BLOCK
  5
279
100
AcDbEntity
  8
0
100
AcDbBlockBegin
  2
*T3
 70
1
 10
0.0
 20
0.0
  3
*T3
  1

  0
LINE
  5
27A
100
AcDbEntity
  8
0
100
AcDbLine
 62
2
  6
CONTINUOUS
 10
0.0
 20
0.0
 11
4.6
 21
0.0
  0
LINE
  5
27B
100
AcDbEntity
  8
0
100
AcDbLine
 62
2
  6
CONTINUOUS
 10
0.0
 20
0.0
 11
0.0
 21
-0.93775
  0
LINE
  5
27C
100
AcDbEntity
  8
0
100
AcDbLine
 62
2
  6
CONTINUOUS
 10
0.0
 20
-0.34375
 11
4.6
 21
-0.34375
  0
LINE
  5
27D
100
AcDbEntity
  8
0
100
AcDbLine
 62
2
  6
CONTINUOUS
 10
0.0
 20
-0.68775
 11
4.6
 21
-0.68775
  0
LINE
  5
27E
100
AcDbEntity
  8
0
100
AcDbLine
 62
2
  6
CONTINUOUS
 10
0.0
 20
-0.93775
 11
4.6
 21
-0.93775
  0
LINE
  5
27F
100
AcDbEntity
  8
0
100
AcDbLine
 62
2
  6
CONTINUOUS
 10
1.3
 20
-0.34375
 11
1.3
 21
-0.93775
  0
LINE
  5
280
100
AcDbEntity
  8
0
100
AcDbLine
 62
2
  6
CONTINUOUS
 10
3.3
 20
-0.34375
 11
3.3
 21
-0.93775
  0
LINE
  5
281
100
AcDbEntity
  8
0
100
AcDbLine
 62
2
  6
CONTINUOUS
 10
4.6
 20
0.0
 11
4.6
 21
-0.93775
  0
MTEXT
  5
282
100
AcDbEntity
  8
0
100
AcDbMText
 62
2
  6
CONTINUOUS
  7
STANDARD
 71
2
 72
1
 10
2.3
 20
-0.099375
 30
0.0
 11
1.0
 21
0.0
 31
0.0
 44
0.9
  1
Port Headings
 40
0.145
 41
3.016
  0
MTEXT
  5
283
100
AcDbEntity
  8
0
100
AcDbMText
 62
2
  6
CONTINUOUS
  7
STANDARD
 71
2
 72
1
 10
0.65
 20
-0.44325
 30
0.0
 11
1.0
 21
0.0
 31
0.0
 44
0.9
  1
Product
 40
0.145
 41
1.624
  0
MTEXT
  5
284
100
AcDbEntity
  8
0
100
AcDbMText
 62
2
  6
CONTINUOUS
  7
STANDARD
 71
2
 72
1
 10
2.3
 20
-0.44325
 30
0.0
 11
1.0
 21
0.0
 31
0.0
 44
0.9
  1
Port
 40
0.145
 41
0.928
  0
MTEXT
  5
285
100
AcDbEntity
  8
0
100
AcDbMText
 62
2
  6
CONTINUOUS
  7
STANDARD
 71
2
 72
1
 10
3.95
 20
-0.44325
 30
0.0
 11
1.0
 21
0.0
 31
0.0
 44
0.9
  1
Size
 40
0.145
 41
0.928
  0
MTEXT
  5
286
100
AcDbEntity
  8
0
100
AcDbMText
 62
2
  6
CONTINUOUS
  7
STANDARD
 71
2
 72
1
 10
0.65
 20
-0.75025
 30
0.0
 11
1.0
 21
0.0
 31
0.0
 44
0.9
  1
ZTL
 40
0.125
 41
0.6
  0
MTEXT
  5
287
100
AcDbEntity
  8
0
100
AcDbMText
 62
2
  6
CONTINUOUS
  7
STANDARD
 71
2
 72
1
 10
2.3
 20
-0.75025
 30
0.0
 11
1.0
 21
0.0
 31
0.0
 44
0.9
  1
Ports C2, V1, V2
 40
0.125
 41
3.2
  0
MTEXT
  5
288
100
AcDbEntity
  8
0
100
AcDbMText
 62
2
  6
CONTINUOUS
  7
STANDARD
 71
2
 72
1
 10
3.95
 20
-0.75025
 30
0.0
 11
1.0
 21
0.0
 31
0.0
 44
0.9
  1
3/4" BSPP
 40
0.125
 41
1.8
  0
ENDBLK
  5
289
100
AcDbEntity
  8
0
  6
BYBLOCK
 62
0
100
AcDbBlockEnd
  0
ENDSEC
  0
SECTION
  2
ENTITIES
  0
IMAGE
  5
28A
100
AcDbEntity
  8
0
100
AcDbRasterImage
 62
7
  6
CONTINUOUS
 10
19.2297077316
 20
0.3094318264
 30
0.0
 11
0.0066666667
 21
0.0
 31
0.0
 12
0.0
 22
0.0066666667
 32
0.0
 13
369.0
 23
92.0
340
       312
 70
9
280
0
281
50
282
50
283
0
360
       30C
 71
1
 91
2
 14
-0.5
 24
-0.5
 14
368.5
 24
91.5
  0
INSERT
  5
28B
100
AcDbEntity
  8
0
100
AcDbBlockReference
 62
2
  6
CONTINUOUS
  2
SUN_FIRST_THIRD_ANGLE_BL0
 10
20.4816717061
 20
1.2289683772
  0
ACAD_TABLE
  5
28C
100
AcDbEntity
  8
0
 62
2
  6
CONTINUOUS
100
AcDbBlockReference
  2
*T1
 10
12.42375
 20
0.30125
 30
0.0
100
AcDbTable
342
       314
343
20A
 11
1.0
 21
0.0
 31
0.0
 90
6
 91
4
 92
6
 93
20
 94
0
 95
0
 96
0
 70
1
 41
0.0
141
0.525
141
0.1
141
0.525
141
0.1
142
4.1
142
1.1
142
0.7
142
0.5
142
0.4
142
2.475
171
1
172
0
173
0
174
0
175
1
176
1
 91
33
178
0
145
0.0
301
CELL_VALUE
 90
4
  1
T-17A Gasket mount Sun\PDirect mount, cross pilot
304
ACVALUE_END
170
2
140
0.125
171
1
172
0
173
0
174
0
175
1
176
1
 91
33
178
0
145
0.0
301
CELL_VALUE
 90
4
  1
Oct-03-19
304
ACVALUE_END
170
5
140
0.125
171
1
172
0
173
0
174
0
175
1
176
1
 91
33
178
0
145
0.0
301
CELL_VALUE
 90
4
  1
1.000
304
ACVALUE_END
170
5
140
0.125
171
1
172
0
173
0
174
0
175
1
176
1
 91
33
178
0
145
0.0
301
CELL_VALUE
 90
4
  1
C
304
ACVALUE_END
170
5
140
0.125
171
1
172
0
173
0
174
0
175
1
176
1
 91
33
178
0
145
0.0
301
CELL_VALUE
 90
4
  1
2
304
ACVALUE_END
170
5
140
0.125
171
1
172
0
173
0
174
0
175
1
176
1
 91
33
178
0
145
0.0
301
CELL_VALUE
 90
4
  1
 
304
ACVALUE_END
170
1
140
0.125
171
1
172
0
173
0
174
0
175
1
176
1
 91
33
178
0
145
0.0
301
CELL_VALUE
 90
4
  1
DESCRIPTION
304
ACVALUE_END
170
1
140
0.06
171
1
172
0
173
0
174
0
175
1
176
1
 91
33
178
0
145
0.0
301
CELL_VALUE
 90
4
  1
DATE
304
ACVALUE_END
170
1
140
0.06
171
1
172
0
173
0
174
0
175
1
176
1
 91
33
178
0
145
0.0
301
CELL_VALUE
 90
4
  1
SCALE
304
ACVALUE_END
170
1
140
0.06
171
1
172
0
173
0
174
0
175
1
176
1
 91
33
178
0
145
0.0
301
CELL_VALUE
 90
4
  1
DWG SIZE
304
ACVALUE_END
170
1
140
0.06
171
1
172
0
173
0
174
0
175
1
176
1
 91
33
178
0
145
0.0
301
CELL_VALUE
 90
4
  1
SHEET
304
ACVALUE_END
170
1
140
0.06
171
1
172
0
173
0
174
0
175
1
176
1
 91
33
178
0
145
0.0
301
CELL_VALUE
 90
4
  1
 
304
ACVALUE_END
170
1
140
0.125
171
1
172
0
173
0
174
0
175
1
176
1
 91
33
178
0
145
0.0
301
CELL_VALUE
 90
4
  1
ZTL
304
ACVALUE_END
170
5
140
0.125
171
1
172
0
173
0
174
0
175
4
176
1
 91
33
178
0
145
0.0
301
CELL_VALUE
 90
4
  1
ALL DIMENSIONS IN INCH\PVIEWS ARE THIRD ANGLE
304
ACVALUE_END
170
5
140
0.12
171
1
172
0
173
1
174
0
175
1
176
1
 91
1
178
0
145
0.0
170
1
171
1
172
0
173
1
174
0
175
1
176
1
 91
1
178
0
145
0.0
170
1
171
1
172
0
173
1
174
0
175
1
176
1
 91
1
178
0
145
0.0
170
5
171
1
172
0
173
0
174
0
175
1
176
1
 91
33
178
0
145
0.0
301
CELL_VALUE
 90
4
  1
 
304
ACVALUE_END
170
1
140
0.125
171
1
172
0
173
0
174
0
175
1
176
1
 91
33
178
0
145
0.0
301
CELL_VALUE
 90
4
  1
MODEL
304
ACVALUE_END
170
1
140
0.06
171
1
172
0
173
0
174
0
175
1
176
1
 91
33
178
0
145
0.0
301
CELL_VALUE
 90
4
  1
 
304
ACVALUE_END
170
1
140
0.125
171
1
172
0
173
0
174
0
175
1
176
1
 91
33
178
0
145
0.0
301
CELL_VALUE
 90
4
  1
 
304
ACVALUE_END
170
1
140
0.125
171
1
172
0
173
0
174
0
175
1
176
1
 91
33
178
0
145
0.0
301
CELL_VALUE
 90
4
  1
 
304
ACVALUE_END
170
1
140
0.125
171
1
172
0
173
0
174
0
175
1
176
1
 91
33
178
0
145
0.0
301
CELL_VALUE
 90
4
  1
 
304
ACVALUE_END
170
1
140
0.125
171
1
172
0
173
0
174
0
175
1
176
1
 91
33
178
0
145
0.0
301
CELL_VALUE
 90
4
  1
 
304
ACVALUE_END
170
1
140
0.125
  0
ACAD_TABLE
  5
28D
100
AcDbEntity
  8
0
 62
2
  6
CONTINUOUS
100
AcDbBlockReference
  2
*T2
 10
12.4237499994
 20
16.47875
 30
0.0
100
AcDbTable
342
       313
343
20B
 11
1.0
 21
0.0
 31
0.0
 90
22
 91
12
 92
3
 93
16
 94
0
 95
0
 96
0
 41
0.028
141
0.344
141
0.25
141
0.25
141
0.25
141
0.25
141
0.25
141
0.25
141
0.25
141
0.25
141
0.25
141
0.25
141
0.25
142
3.055
142
3.0
142
3.0
171
1
172
0
173
0
174
0
175
1
176
1
 91
33
178
0
145
0.0
301
CELL_VALUE
 90
4
  1
Technical Data
304
ACVALUE_END
170
5
140
0.145
171
1
172
0
173
0
174
0
175
1
176
1
 91
33
178
0
145
0.0
301
CELL_VALUE
 90
4
  1
U.S. Units
304
ACVALUE_END
170
5
140
0.145
171
1
172
0
173
0
174
0
175
1
176
1
 91
33
178
0
145
0.0
301
CELL_VALUE
 90
4
  1
Metric Units
304
ACVALUE_END
170
5
140
0.145
171
1
172
0
173
0
174
0
175
1
176
1
 91
33
178
0
145
0.0
301
CELL_VALUE
 90
4
  1
Cavity
304
ACVALUE_END
170
5
140
0.125
171
1
172
0
173
0
174
0
175
2
176
1
 91
33
178
0
145
0.0
301
CELL_VALUE
 90
4
  1
T-17A
304
ACVALUE_END
170
5
140
0.125
171
1
172
0
173
1
174
0
175
1
176
1
 91
1
178
0
145
0.0
170
1
171
1
172
0
173
0
174
0
175
1
176
1
 91
33
178
0
145
0.0
301
CELL_VALUE
 90
4
  1
Body Features
304
ACVALUE_END
170
5
140
0.125
171
1
172
0
173
0
174
0
175
2
176
1
 91
33
178
0
145
0.0
301
CELL_VALUE
 90
4
  1
Direct mount, cross pilot
304
ACVALUE_END
170
5
140
0.125
171
1
172
0
173
1
174
0
175
1
176
1
 91
1
178
0
145
0.0
170
1
171
1
172
0
173
0
174
0
175
1
176
1
 91
33
178
0
145
0.0
301
CELL_VALUE
 90
4
  1
Body Type
304
ACVALUE_END
170
5
140
0.125
171
1
172
0
173
0
174
0
175
2
176
1
 91
33
178
0
145
0.0
301
CELL_VALUE
 90
4
  1
Gasket mount
304
ACVALUE_END
170
5
140
0.125
171
1
172
0
173
1
174
0
175
1
176
1
 91
1
178
0
145
0.0
170
1
171
1
172
0
173
0
174
0
175
1
176
1
 91
33
178
0
145
0.0
301
CELL_VALUE
 90
4
  1
Interface
304
ACVALUE_END
170
5
140
0.125
171
1
172
0
173
0
174
0
175
2
176
1
 91
33
178
0
145
0.0
301
CELL_VALUE
 90
4
  1
Sun
304
ACVALUE_END
170
5
140
0.125
171
1
172
0
173
1
174
0
175
1
176
1
 91
1
178
0
145
0.0
170
1
171
1
172
0
173
0
174
0
175
1
176
1
 91
33
178
0
145
0.0
301
CELL_VALUE
 90
4
  1
Open Cavity Quantity
304
ACVALUE_END
170
5
140
0.125
171
1
172
0
173
0
174
0
175
2
176
1
 91
33
178
0
145
0.0
301
CELL_VALUE
 90
4
  1
1
304
ACVALUE_END
170
5
140
0.125
171
1
172
0
173
1
174
0
175
1
176
1
 91
1
178
0
145
0.0
170
1
171
1
172
0
173
0
174
0
175
1
176
1
 91
33
178
0
145
0.0
301
CELL_VALUE
 90
4
  1
Weight
304
ACVALUE_END
170
5
140
0.125
171
1
172
0
173
0
174
0
175
1
176
1
 91
33
178
0
145
0.0
301
CELL_VALUE
 90
4
  1
3.535 lb.
304
ACVALUE_END
170
5
140
0.125
171
1
172
0
173
0
174
0
175
1
176
1
 91
33
178
0
145
0.0
301
CELL_VALUE
 90
4
  1
1,603 kg.
304
ACVALUE_END
170
5
140
0.125
171
1
172
0
173
0
174
0
175
1
176
1
 91
33
178
0
145
0.0
301
CELL_VALUE
 90
4
  1
Mounting Hole Diameter
304
ACVALUE_END
170
5
140
0.125
171
1
172
0
173
0
174
0
175
1
176
1
 91
33
178
0
145
0.0
301
CELL_VALUE
 90
4
  1
.50 in.
304
ACVALUE_END
170
5
140
0.125
171
1
172
0
173
0
174
0
175
1
176
1
 91
33
178
0
145
0.0
301
CELL_VALUE
 90
4
  1
12,7 mm
304
ACVALUE_END
170
5
140
0.125
171
1
172
0
173
0
174
0
175
1
176
1
 91
33
178
0
145
0.0
301
CELL_VALUE
 90
4
  1
Mounting Hole Depth
304
ACVALUE_END
170
5
140
0.125
171
1
172
0
173
0
174
0
175
2
176
1
 91
33
178
0
145
0.0
301
CELL_VALUE
 90
4
  1
Through
304
ACVALUE_END
170
5
140
0.125
171
1
172
0
173
1
174
0
175
1
176
1
 91
1
178
0
145
0.0
170
1
171
1
172
0
173
0
174
0
175
1
176
1
 91
33
178
0
145
0.0
301
CELL_VALUE
 90
4
  1
Mounting Hole Quantity
304
ACVALUE_END
170
5
140
0.125
171
1
172
0
173
0
174
0
175
2
176
1
 91
33
178
0
145
0.0
301
CELL_VALUE
 90
4
  1
2
304
ACVALUE_END
170
5
140
0.125
171
1
172
0
173
1
174
0
175
1
176
1
 91
1
178
0
145
0.0
170
1
171
1
172
0
173
0
174
0
175
1
176
1
 91
33
178
0
145
0.0
301
CELL_VALUE
 90
4
  1
Mounting Hole C'bore Diameter
304
ACVALUE_END
170
5
140
0.125
171
1
172
0
173
0
174
0
175
1
176
1
 91
33
178
0
145
0.0
301
CELL_VALUE
 90
4
  1
.75 in.
304
ACVALUE_END
170
5
140
0.125
171
1
172
0
173
0
174
0
175
1
176
1
 91
33
178
0
145
0.0
301
CELL_VALUE
 90
4
  1
19 mm
304
ACVALUE_END
170
5
140
0.125
171
1
172
0
173
0
174
0
175
1
176
1
 91
33
178
0
145
0.0
301
CELL_VALUE
 90
4
  1
Mounting Hole C'bore Depth
304
ACVALUE_END
170
5
140
0.125
171
1
172
0
173
0
174
0
175
1
176
1
 91
33
178
0
145
0.0
301
CELL_VALUE
 90
4
  1
.44 in.
304
ACVALUE_END
170
5
140
0.125
171
1
172
0
173
0
174
0
175
1
176
1
 91
33
178
0
145
0.0
301
CELL_VALUE
 90
4
  1
11,1 mm
304
ACVALUE_END
170
5
140
0.125
  0
ACAD_TABLE
  5
28E
100
AcDbEntity
  8
0
 62
2
  6
CONTINUOUS
100
AcDbBlockReference
  2
*T3
 10
0.52125
 20
1.459
 30
0.0
100
AcDbTable
342
       313
343
20C
 11
1.0
 21
0.0
 31
0.0
 90
22
 91
3
 92
3
 93
16
 94
0
 95
0
 96
0
 41
0.05
141
0.34375
141
0.344
141
0.25
142
1.3
142
2.0
142
1.3
171
1
172
0
173
0
174
0
175
3
176
1
 91
33
178
0
145
0.0
301
CELL_VALUE
 90
4
  1
Port Headings
304
ACVALUE_END
170
5
140
0.145
171
1
172
0
173
1
174
0
175
1
176
1
 91
1
178
0
145
0.0
170
1
171
1
172
0
173
1
174
0
175
1
176
1
 91
1
178
0
145
0.0
170
1
171
1
172
0
173
0
174
0
175
1
176
1
 91
33
178
0
145
0.0
301
CELL_VALUE
 90
4
  1
Product
304
ACVALUE_END
170
5
140
0.145
171
1
172
0
173
0
174
0
175
1
176
1
 91
33
178
0
145
0.0
301
CELL_VALUE
 90
4
  1
Port
304
ACVALUE_END
170
5
140
0.145
171
1
172
0
173
0
174
0
175
1
176
1
 91
33
178
0
145
0.0
301
CELL_VALUE
 90
4
  1
Size
304
ACVALUE_END
170
5
140
0.145
171
1
172
0
173
0
174
0
175
1
176
1
 91
33
178
0
145
0.0
301
CELL_VALUE
 90
4
  1
ZTL
304
ACVALUE_END
170
5
140
0.125
171
1
172
0
173
0
174
0
175
1
176
1
 91
33
178
0
145
0.0
301
CELL_VALUE
 90
4
  1
Ports C2, V1, V2
304
ACVALUE_END
170
5
140
0.125
171
1
172
0
173
0
174
0
175
1
176
1
 91
33
178
0
145
0.0
301
CELL_VALUE
 90
4
  1
3/4" BSPP
304
ACVALUE_END
170
5
140
0.125
  0
MTEXT
  5
28F
100
AcDbEntity
  8
0
100
AcDbMText
 62
2
  6
CONTINUOUS
  7
STANDARD
 71
1
 72
1
 10
0.52125
 20
5.75995
 30
0.0
 11
1.0
 21
0.0
 31
0.0
 44
0.6
  3
Notes\P \P1. Important: Carefully consider\P   the maximum system pressure. The\P   pressure rating of the manifold is\P   dependent on the manifold material,\P   with the port type/size a secondary\P   consideration. Manifolds\P   constructed of alu
  1
minum are not\P   rated for pressures higher than\P   3000 psi (210 bar), regardless of\P   the port type/size specified.
 40
0.1
 41
3.04
  0
LINE
  5
290
100
AcDbEntity
  8
0
100
AcDbLine
 62
7
  6
CONTINUOUS
 10
0.30125
 20
0.30125
 11
0.30125
 21
16.69875
  0
LINE
  5
291
100
AcDbEntity
  8
0
100
AcDbLine
 62
7
  6
CONTINUOUS
 10
0.30125
 20
0.30125
 11
21.69875
 21
0.30125
  0
LINE
  5
292
100
AcDbEntity
  8
0
100
AcDbLine
 62
7
  6
CONTINUOUS
 10
0.30125
 20
16.69875
 11
21.69875
 21
16.69875
  0
LINE
  5
293
100
AcDbEntity
  8
0
100
AcDbLine
 62
7
  6
CONTINUOUS
 10
21.69875
 20
0.30125
 11
21.69875
 21
16.69875
  0
LINE
  5
294
100
AcDbEntity
  8
0
100
AcDbLine
 62
7
  6
CONTINUOUS
 10
9.235537024
 20
5.9578077558
 11
11.3489828221
 21
5.8112397918
  0
LINE
  5
295
100
AcDbEntity
  8
0
100
AcDbLine
 62
7
  6
CONTINUOUS
 10
10.6510171779
 20
11.1887602082
 11
9.235537024
 21
9.8215112898
  0
LINE
  5
296
100
AcDbEntity
  8
0
100
AcDbLine
 62
7
  6
CONTINUOUS
 10
9.235537024
 20
9.8215112898
 11
9.235537024
 21
5.9578077558
  0
LINE
  5
297
100
AcDbEntity
  8
0
100
AcDbLine
 62
7
  6
CONTINUOUS
 10
10.6997483233
 20
9.1380015966
 11
10.7028337211
 21
9.1429516606
  0
LINE
  5
298
100
AcDbEntity
  8
0
100
AcDbLine
 62
7
  6
CONTINUOUS
 10
12.764462976
 20
11.0421922442
 11
11.3489828221
 21
9.6749433259
  0
LINE
  5
299
100
AcDbEntity
  8
0
100
AcDbLine
 62
4
  6
CONTINUOUS
 10
12.4078106353
 20
8.3427652478
 11
12.4155752
 21
8.343020798
  0
LINE
  5
29A
100
AcDbEntity
  8
0
100
AcDbLine
 62
7
  6
CONTINUOUS
 10
11.3489828221
 20
5.8112397918
 11
11.3489828221
 21
9.6749433259
  0
LINE
  5
29B
100
AcDbEntity
  8
0
100
AcDbLine
 62
7
  6
CONTINUOUS
 10
12.3957498882
 20
8.8827113715
 11
12.4016693379
 21
8.8875224282
  0
LINE
  5
29C
100
AcDbEntity
  8
0
100
AcDbLine
 62
7
  6
CONTINUOUS
 10
12.2828106706
 20
7.8677887594
 11
12.2828138209
 21
7.86778472
  0
LINE
  5
29D
100
AcDbEntity
  8
0
100
AcDbLine
 62
7
  6
CONTINUOUS
 10
12.3474769317
 20
8.7985701505
 11
12.3473522084
 21
8.7984494455
  0
LINE
  5
29E
100
AcDbEntity
  8
0
100
AcDbLine
 62
4
  6
CONTINUOUS
 10
12.4233397648
 20
8.1983874688
 11
12.3922815057
 21
8.1683874925
  0
LINE
  5
29F
100
AcDbEntity
  8
0
100
AcDbLine
 62
7
  6
CONTINUOUS
 10
11.3489828221
 20
9.6749433259
 11
9.235537024
 21
9.8215112898
  0
LINE
  5
2A0
100
AcDbEntity
  8
0
100
AcDbLine
 62
7
  6
CONTINUOUS
 10
12.4146226202
 20
8.8375357901
 11
12.3859951812
 21
8.8713026547
  0
LINE
  5
2A1
100
AcDbEntity
  8
0
100
AcDbLine
 62
4
  6
CONTINUOUS
 10
12.3974578824
 20
8.2603208162
 11
12.3948696941
 21
8.2650652621
  0
LINE
  5
2A2
100
AcDbEntity
  8
0
100
AcDbLine
 62
4
  6
CONTINUOUS
 10
12.4155752
 20
8.343020798
 11
12.4207515772
 21
8.3335319067
  0
LINE
  5
2A3
100
AcDbEntity
  8
0
100
AcDbLine
 62
4
  6
CONTINUOUS
 10
12.3948696941
 20
8.2650652621
 11
12.3922815057
 21
8.2770541519
  0
LINE
  5
2A4
100
AcDbEntity
  8
0
100
AcDbLine
 62
4
  6
CONTINUOUS
 10
12.3922815057
 20
8.2770541519
 11
12.3922815057
 21
8.2915430398
  0
LINE
  5
2A5
100
AcDbEntity
  8
0
100
AcDbLine
 62
4
  6
CONTINUOUS
 10
12.4233397648
 20
8.3215430162
 11
12.4233397648
 21
8.3070541283
  0
LINE
  5
2A6
100
AcDbEntity
  8
0
100
AcDbLine
 62
4
  6
CONTINUOUS
 10
12.3922815057
 20
8.2915430398
 11
12.3948696941
 21
8.3085319259
  0
LINE
  5
2A7
100
AcDbEntity
  8
0
100
AcDbLine
 62
4
  6
CONTINUOUS
 10
12.4233397648
 20
8.3070541283
 11
12.4207515772
 21
8.2900652429
  0
LINE
  5
2A8
100
AcDbEntity
  8
0
100
AcDbLine
 62
4
  6
CONTINUOUS
 10
12.3948696941
 20
8.3085319259
 11
12.4000460705
 21
8.3280208098
  0
LINE
  5
2A9
100
AcDbEntity
  8
0
100
AcDbLine
 62
4
  6
CONTINUOUS
 10
12.4207515772
 20
8.2900652429
 11
12.4181633877
 21
8.2803207997
  0
LINE
  5
2AA
100
AcDbEntity
  8
0
100
AcDbLine
 62
4
  6
CONTINUOUS
 10
12.4000460705
 20
8.3280208098
 11
12.4078106353
 21
8.3427652478
  0
LINE
  5
2AB
100
AcDbEntity
  8
0
100
AcDbLine
 62
7
  6
CONTINUOUS
 10
12.347440944
 20
7.82295018
 11
12.344063414
 21
7.81981015
  0
LINE
  5
2AC
100
AcDbEntity
  8
0
100
AcDbLine
 62
7
  6
CONTINUOUS
 10
12.3440417657
 20
7.8197908051
 11
12.3112314179
 21
7.7904811504
  0
LINE
  5
2AD
100
AcDbEntity
  8
0
100
AcDbLine
 62
4
  6
CONTINUOUS
 10
12.4207515772
 20
8.3335319067
 11
12.4233397648
 21
8.3215430162
  0
LINE
  5
2AE
100
AcDbEntity
  8
0
100
AcDbLine
 62
7
  6
CONTINUOUS
 10
12.764462976
 20
7.1784887102
 11
12.764462976
 21
11.0421922442
  0
LINE
  5
2AF
100
AcDbEntity
  8
0
100
AcDbLine
 62
7
  6
CONTINUOUS
 10
12.764462976
 20
7.1784887102
 11
11.3489828221
 21
5.8112397918
  0
LINE
  5
2B0
100
AcDbEntity
  8
0
100
AcDbLine
 62
7
  6
CONTINUOUS
 10
12.764462976
 20
11.0421922442
 11
10.6510171779
 21
11.1887602082
  0
ARC
  5
2B1
100
AcDbEntity
  8
0
100
AcDbCircle
 62
7
  6
CONTINUOUS
 10
10.3951610327
 20
8.423096836
 40
0.7619113018
100
AcDbArc
 50
311.4649735107
 51
312.8010495788
  0
ARC
  5
2B2
100
AcDbEntity
  8
0
100
AcDbCircle
 62
7
  6
CONTINUOUS
 10
10.2379281927
 20
8.5858684
 40
0.7617775768
100
AcDbArc
 50
135.1853805365
 51
136.5480872168
  0
ARC
  5
2B3
100
AcDbEntity
  8
0
100
AcDbCircle
 62
7
  6
CONTINUOUS
 10
10.2380233035
 20
6.8323754972
 40
0.6050129436
100
AcDbArc
 50
134.7149246444
 51
135.0975339718
  0
ARC
  5
2B4
100
AcDbEntity
  8
0
100
AcDbCircle
 62
7
  6
CONTINUOUS
 10
11.0763794154
 20
9.1951646037
 40
0.6033538149
100
AcDbArc
 50
266.024820668
 51
271.2225687397
  0
ARC
  5
2B5
100
AcDbEntity
  8
0
100
AcDbCircle
 62
7
  6
CONTINUOUS
 10
11.4132933646
 20
8.715507768
 40
0.5995110736
100
AcDbArc
 50
167.3169957884
 51
169.0413224372
  0
ARC
  5
2B6
100
AcDbEntity
  8
0
100
AcDbCircle
 62
7
  6
CONTINUOUS
 10
12.8567577046
 20
8.0095167857
 40
0.5908298573
100
AcDbArc
 50
193.8883379883
 51
194.0755339772
  0
ARC
  5
2B7
100
AcDbEntity
  8
0
100
AcDbCircle
 62
7
  6
CONTINUOUS
 10
11.0661896639
 20
9.3456658086
 40
0.5881469787
100
AcDbArc
 50
264.84243305
 51
267.9350449669
  0
ARC
  5
2B8
100
AcDbEntity
  8
0
100
AcDbCircle
 62
7
  6
CONTINUOUS
 10
11.0802269469
 20
9.2002175346
 40
0.5840424604
100
AcDbArc
 50
266.0238469763
 51
270.4934616222
  0
ARC
  5
2B9
100
AcDbEntity
  8
0
100
AcDbCircle
 62
7
  6
CONTINUOUS
 10
11.1795862765
 20
9.344658388
 40
0.5176664978
100
AcDbArc
 50
199.0336208842
 51
202.9324799543
  0
ARC
  5
2BA
100
AcDbEntity
  8
0
100
AcDbCircle
 62
7
  6
CONTINUOUS
 10
11.0732453981
 20
9.2030176483
 40
0.4842100332
100
AcDbArc
 50
266.0308500523
 51
268.2935907854
  0
ARC
  5
2BB
100
AcDbEntity
  8
0
100
AcDbCircle
 62
7
  6
CONTINUOUS
 10
10.9975400169
 20
8.9719480794
 40
0.3407257336
100
AcDbArc
 50
146.2799954009
 51
149.8755129019
  0
ARC
  5
2BC
100
AcDbEntity
  8
0
100
AcDbCircle
 62
7
  6
CONTINUOUS
 10
12.353468926
 20
7.9228900786
 40
0.089603261
100
AcDbArc
 50
217.9513955028
 51
218.53886476
  0
ARC
  5
2BD
100
AcDbEntity
  8
0
100
AcDbCircle
 62
7
  6
CONTINUOUS
 10
12.4089113409
 20
8.734972773
 40
0.0884240525
100
AcDbArc
 50
133.0512352413
 51
134.0089192584
  0
LINE
  5
2BE
100
AcDbEntity
  8
0
100
AcDbLine
 62
7
  6
CONTINUOUS
 10
12.32409638
 20
7.7773072806
 11
12.3208030192
 21
7.774370999
  0
SPLINE
  5
2BF
100
AcDbEntity
  8
0
100
AcDbSpline
 62
7
  6
CONTINUOUS
 70
0
 71
3
 72
50
 73
46
 74
0
 42
0.0000001
 43
0.0000001
 44
0.0000000001
 40
0.0
 40
0.0
 40
0.0
 40
0.0
 40
0.0031311152
 40
0.0057819504
 40
0.0069150476
 40
0.0079188832
 40
0.0087928086
 40
0.0095359822
 40
0.0101473726
 40
0.0106257634
 40
0.0109697613
 40
0.0111778181
 40
0.0112484308
 40
0.0113184997
 40
0.0115300364
 40
0.0118855647
 40
0.0123875385
 40
0.0130385377
 40
0.0138412816
 40
0.0147986278
 40
0.0159135687
 40
0.0171892266
 40
0.018628849
 40
0.020235804
 40
0.0239656287
 40
0.0284078182
 40
0.0335783776
 40
0.0394681861
 40
0.0533582651
 40
0.0699884635
 40
0.0892741401
 40
0.111137855
 40
0.1355102316
 40
0.1623292692
 40
0.1915337439
 40
0.2230613354
 40
0.2568495513
 40
0.2928363768
 40
0.3711647079
 40
0.4576480939
 40
0.5519153079
 40
0.6535879939
 40
0.7623398419
 40
0.8779018861
 40
1.0
 40
1.0
 40
1.0
 40
1.0
 10
12.3241279721
 20
7.7717630849
 30
0.0
 10
12.3242357495
 20
7.7717401961
 30
0.0
 10
12.324434299
 20
7.7716956021
 30
0.0
 10
12.3246696779
 20
7.77163358
 30
0.0
 10
12.3248309218
 20
7.771584664
 30
0.0
 10
12.3249315817
 20
7.7715516444
 30
0.0
 10
12.3250185992
 20
7.7715208644
 30
0.0
 10
12.3250917588
 20
7.7714931438
 30
0.0
 10
12.32515197
 20
7.7714685543
 30
0.0
 10
12.3251970682
 20
7.7714491997
 30
0.0
 10
12.3252326075
 20
7.7714321047
 30
0.0
 10
12.3252474312
 20
7.7714253467
 30
0.0
 10
12.3252643311
 20
7.7714152039
 30
0.0
 10
12.3252459879
 20
7.7714227436
 30
0.0
 10
12.3252313823
 20
7.7714308286
 30
0.0
 10
12.3251951266
 20
7.7714498023
 30
0.0
 10
12.3251504274
 20
7.7714756218
 30
0.0
 10
12.3250908685
 20
7.7715112503
 30
0.0
 10
12.3250192395
 20
7.77155634
 30
0.0
 10
12.3249345857
 20
7.7716118834
 30
0.0
 10
12.3248373499
 20
7.7716783701
 30
0.0
 10
12.3247274808
 20
7.7717564665
 30
0.0
 10
12.3246050937
 20
7.7718467776
 30
0.0
 10
12.3244156953
 20
7.7719916728
 30
0.0
 10
12.324147951
 20
7.772207947
 30
0.0
 10
12.3237923424
 20
7.7725146285
 30
0.0
 10
12.3233898618
 20
7.7728829735
 30
0.0
 10
12.3227572221
 20
7.7734918689
 30
0.0
 10
12.3218659272
 20
7.7744128835
 30
0.0
 10
12.3206970033
 20
7.7757192809
 30
0.0
 10
12.3193977375
 20
7.7772837892
 30
0.0
 10
12.3179884004
 20
7.7791091709
 30
0.0
 10
12.3164902673
 20
7.7811989151
 30
0.0
 10
12.3149200034
 20
7.7835527441
 30
0.0
 10
12.3132868381
 20
7.7861655738
 30
0.0
 10
12.3116014806
 20
7.7890334904
 30
0.0
 10
12.3098741856
 20
7.7921522239
 30
0.0
 10
12.3074597618
 20
7.7967713386
 30
0.0
 10
12.3044130715
 20
7.8031494992
 30
0.0
 10
12.3008198636
 20
7.8115305096
 30
0.0
 10
12.2972303909
 20
7.8207999317
 30
0.0
 10
12.2936852833
 20
7.8309205278
 30
0.0
 10
12.2902143429
 20
7.8418555527
 30
0.0
 10
12.2868348327
 20
7.8535689297
 30
0.0
 10
12.2847118792
 20
7.8616589499
 30
0.0
 10
12.2836669504
 20
7.865826467
 30
0.0
  0
SPLINE
  5
2C0
100
AcDbEntity
  8
0
100
AcDbSpline
 62
7
  6
CONTINUOUS
 70
0
 71
3
 72
32
 73
28
 74
0
 42
0.0000001
 43
0.0000001
 44
0.0000000001
 40
0.0
 40
0.0
 40
0.0
 40
0.0
 40
0.0228754704
 40
0.0473483499
 40
0.0733158146
 40
0.1006779949
 40
0.1293351978
 40
0.15918663
 40
0.1901305874
 40
0.2220638785
 40
0.2884744115
 40
0.3575622287
 40
0.4284461637
 40
0.5002286673
 40
0.5720036495
 40
0.6428651672
 40
0.7119159472
 40
0.7454873408
 40
0.7782773494
 40
0.8101795211
 40
0.8410891513
 40
0.8709027831
 40
0.8995186424
 40
0.926836224
 40
0.9527556266
 40
0.9771781663
 40
1.0
 40
1.0
 40
1.0
 40
1.0
 10
12.283200547
 20
7.8676996248
 30
0.0
 10
12.2814731403
 20
7.8746855977
 30
0.0
 10
12.2781566477
 20
7.8892101778
 30
0.0
 10
12.2737062222
 20
7.9118440694
 30
0.0
 10
12.2696432226
 20
7.9359831707
 30
0.0
 10
12.2659920613
 20
7.961517986
 30
0.0
 10
12.2627750653
 20
7.9883419222
 30
0.0
 10
12.2600098204
 20
8.0163484274
 30
0.0
 10
12.257708931
 20
8.045430753
 30
0.0
 10
12.2552452813
 20
8.0860304651
 30
0.0
 10
12.2534335485
 20
8.1386820842
 30
0.0
 10
12.2532459758
 20
8.203617046
 30
0.0
 10
12.2550284973
 20
8.2702182297
 30
0.0
 10
12.2587608978
 20
8.3375848004
 30
0.0
 10
12.2643942388
 20
8.4048121818
 30
0.0
 10
12.2718516383
 20
8.4709968917
 30
0.0
 10
12.2795691675
 20
8.5250340703
 30
0.0
 10
12.2866002258
 20
8.5670506214
 30
0.0
 10
12.2922062686
 20
8.59745223
 30
0.0
 10
12.2981727735
 20
8.6269313358
 30
0.0
 10
12.304475975
 20
8.6553821551
 30
0.0
 10
12.3110914442
 20
8.6826995403
 30
0.0
 10
12.317988358
 20
8.7087802502
 30
0.0
 10
12.3251374239
 20
8.7335204304
 30
0.0
 10
12.3324998716
 20
8.7568184598
 30
0.0
 10
12.3400370308
 20
8.7785690517
 30
0.0
 10
12.3453313228
 20
8.7924600391
 30
0.0
 10
12.3480075251
 20
8.7991221049
 30
0.0
  0
LINE
  5
2C1
100
AcDbEntity
  8
0
100
AcDbLine
 62
7
  6
CONTINUOUS
 10
12.3480075251
 20
8.7991221049
 11
12.3480643778
 21
8.7992635804
  0
SPLINE
  5
2C2
100
AcDbEntity
  8
0
100
AcDbSpline
 62
7
  6
CONTINUOUS
 70
0
 71
3
 72
20
 73
16
 74
0
 42
0.0000001
 43
0.0000001
 44
0.0000000001
 40
0.0
 40
0.0
 40
0.0
 40
0.0
 40
0.1734935915
 40
0.3347084504
 40
0.4105104863
 40
0.482999577
 40
0.6176981228
 40
0.6796653917
 40
0.7378312879
 40
0.7920369735
 40
0.8421266737
 40
0.887994535
 40
0.9296129766
 40
0.9669574822
 40
1.0
 40
1.0
 40
1.0
 40
1.0
 10
12.3480643778
 20
8.7992635804
 30
0.0
 10
12.3501480338
 20
8.8044467574
 30
0.0
 10
12.354307881
 20
8.8143908937
 30
0.0
 10
12.3598023381
 20
8.8264159033
 30
0.0
 10
12.3641948444
 20
8.8353621218
 30
0.0
 10
12.3683699284
 20
8.8434617218
 30
0.0
 10
12.3725790714
 20
8.8510415312
 30
0.0
 10
12.3768242906
 20
8.8580641461
 30
0.0
 10
12.3798496172
 20
8.8627934848
 30
0.0
 10
12.3827886108
 20
8.8671217717
 30
0.0
 10
12.385625549
 20
8.8710381681
 30
0.0
 10
12.3883442175
 20
8.8745367143
 30
0.0
 10
12.3909221067
 20
8.8776217934
 30
0.0
 10
12.3933393874
 20
8.8802994207
 30
0.0
 10
12.3949282955
 20
8.8819168613
 30
0.0
 10
12.3956931811
 20
8.8826563942
 30
0.0
  0
SPLINE
  5
2C3
100
AcDbEntity
  8
0
100
AcDbSpline
 62
7
  6
CONTINUOUS
 70
0
 71
3
 72
72
 73
68
 74
0
 42
0.0000001
 43
0.0000001
 44
0.0000000001
 40
0.0
 40
0.0
 40
0.0
 40
0.0
 40
0.0103911151
 40
0.0212025192
 40
0.0324424104
 40
0.0441179873
 40
0.0562925278
 40
0.0690379511
 40
0.0824110363
 40
0.096423002
 40
0.1110694669
 40
0.1263432205
 40
0.1422314315
 40
0.1587184726
 40
0.1757858123
 40
0.1934058843
 40
0.2301785035
 40
0.2687618718
 40
0.3088437236
 40
0.350081106
 40
0.392110898
 40
0.4345568548
 40
0.4770353525
 40
0.5191626568
 40
0.5605611237
 40
0.6008649064
 40
0.6397278034
 40
0.6585188662
 40
0.6768323716
 40
0.6946340979
 40
0.711893994
 40
0.7285830949
 40
0.744677986
 40
0.7601613196
 40
0.7750177238
 40
0.7892414426
 40
0.802835863
 40
0.8158086854
 40
0.8281854805
 40
0.8400059633
 40
0.851321046
 40
0.8568143649
 40
0.8622140522
 40
0.8675336698
 40
0.8727877325
 40
0.8779909771
 40
0.8831602757
 40
0.8934762074
 40
0.903890405
 40
0.9091568393
 40
0.9144771688
 40
0.9198662546
 40
0.9253108646
 40
0.9307902809
 40
0.9362890547
 40
0.9417967085
 40
0.9472980009
 40
0.9527720166
 40
0.9554920312
 40
0.9581965434
 40
0.96356015
 40
0.9688713028
 40
0.9741307369
 40
0.9793326978
 40
0.9844879772
 40
0.9896308621
 40
1.0
 40
1.0
 40
1.0
 40
1.0
 10
12.3956802436
 20
7.7032485937
 30
0.0
 10
12.3993453085
 20
7.7067878784
 30
0.0
 10
12.4064906911
 20
7.7143597623
 30
0.0
 10
12.4164831518
 20
7.7267529157
 30
0.0
 10
12.4259968354
 20
7.740292117
 30
0.0
 10
12.4350875773
 20
7.7549091016
 30
0.0
 10
12.4437985449
 20
7.7706039392
 30
0.0
 10
12.4521970199
 20
7.7874023867
 30
0.0
 10
12.4603469003
 20
7.8053164781
 30
0.0
 10
12.4682632542
 20
7.8243481166
 30
0.0
 10
12.4759448798
 20
7.8444759924
 30
0.0
 10
12.4833879999
 20
7.8656704922
 30
0.0
 10
12.4905887014
 20
7.8878988942
 30
0.0
 10
12.4975418743
 20
7.9111252258
 30
0.0
 10
12.5042412027
 20
7.9353082243
 30
0.0
 10
12.5129459057
 20
7.9692502094
 30
0.0
 10
12.5230630801
 20
8.0137119032
 30
0.0
 10
12.533851611
 20
8.0692847881
 30
0.0
 10
12.5433635812
 20
8.1273094248
 30
0.0
 10
12.5515144033
 20
8.1872459241
 30
0.0
 10
12.5582292707
 20
8.248526119
 30
0.0
 10
12.5634447035
 20
8.3105626056
 30
0.0
 10
12.5671105977
 20
8.3727578014
 30
0.0
 10
12.56919186
 20
8.4345124021
 30
0.0
 10
12.5696675758
 20
8.4952343667
 30
0.0
 10
12.5685305027
 20
8.5543468634
 30
0.0
 10
12.5662207357
 20
8.602330516
 30
0.0
 10
12.5635405566
 20
8.6394841213
 30
0.0
 10
12.5611565314
 20
8.666301632
 30
0.0
 10
12.5583794874
 20
8.6923264624
 30
0.0
 10
12.5552136143
 20
8.7175044616
 30
0.0
 10
12.5516624677
 20
8.7417856982
 30
0.0
 10
12.5477286443
 20
8.7651251899
 30
0.0
 10
12.5434139648
 20
8.7874830254
 30
0.0
 10
12.5387196372
 20
8.8088261133
 30
0.0
 10
12.5336414368
 20
8.8291282005
 30
0.0
 10
12.5281701718
 20
8.8483700452
 30
0.0
 10
12.5222966761
 20
8.8665442517
 30
0.0
 10
12.5159901544
 20
8.8836500511
 30
0.0
 10
12.5092087979
 20
8.8996951012
 30
0.0
 10
12.5030640622
 20
8.9123259937
 30
0.0
 10
12.4978359935
 20
8.9218800783
 30
0.0
 10
12.4937823151
 20
8.9287203077
 30
0.0
 10
12.4895425994
 20
8.9353079019
 30
0.0
 10
12.4851040491
 20
8.9416462632
 30
0.0
 10
12.4804388425
 20
8.9477280044
 30
0.0
 10
12.4738820325
 20
8.9554726682
 30
0.0
 10
12.4649176714
 20
8.9645054488
 30
0.0
 10
12.4548871334
 20
8.9724359265
 30
0.0
 10
12.446169596
 20
8.9779325095
 30
0.0
 10
12.4392353671
 20
8.9815945806
 30
0.0
 10
12.4319444966
 20
8.9847127431
 30
0.0
 10
12.4243464699
 20
8.9872423932
 30
0.0
 10
12.4165077537
 20
8.9891293173
 30
0.0
 10
12.4085000032
 20
8.990314329
 30
0.0
 10
12.400405731
 20
8.9907446409
 30
0.0
 10
12.3923189292
 20
8.9904530106
 30
0.0
 10
12.3856453915
 20
8.9896288458
 30
0.0
 10
12.3803938679
 20
8.9886322306
 30
0.0
 10
12.3752431884
 20
8.9874211199
 30
0.0
 10
12.3689573848
 20
8.9855158061
 30
0.0
 10
12.3616755008
 20
8.9826644415
 30
0.0
 10
12.3546943791
 20
8.9793217123
 30
0.0
 10
12.3480236766
 20
8.9755509583
 30
0.0
 10
12.3416566397
 20
8.971391525
 30
0.0
 10
12.3335211819
 20
8.965341589
 30
0.0
 10
12.3278097658
 20
8.9602924191
 30
0.0
 10
12.3241539263
 20
8.9567590945
 30
0.0
  0
SPLINE
  5
2C4
100
AcDbEntity
  8
0
100
AcDbSpline
 62
7
  6
CONTINUOUS
 70
0
 71
3
 72
19
 73
15
 74
0
 42
0.0000001
 43
0.0000001
 44
0.0000000001
 40
0.0
 40
0.0
 40
0.0
 40
0.0
 40
0.0278827087
 40
0.0610958851
 40
0.0994544566
 40
0.1427974185
 40
0.1909746055
 40
0.2438330976
 40
0.362969855
 40
0.4289682466
 40
0.4990873571
 40
0.6512251783
 40
0.8184690158
 40
1.0
 40
1.0
 40
1.0
 40
1.0
 10
12.3978687842
 20
8.8857099986
 30
0.0
 10
12.3983618104
 20
8.8851836024
 30
0.0
 10
12.3994115671
 20
8.8840014019
 30
0.0
 10
12.401033474
 20
8.8820036079
 30
0.0
 10
12.4028065344
 20
8.8796167082
 30
0.0
 10
12.4046939802
 20
8.876836465
 30
0.0
 10
12.4066772945
 20
8.8736711716
 30
0.0
 10
12.4095401448
 20
8.8687470059
 30
0.0
 10
12.4123816514
 20
8.8632813014
 30
0.0
 10
12.4151936372
 20
8.8573070476
 30
0.0
 10
12.4181995541
 20
8.8504828665
 30
0.0
 10
12.4219358149
 20
8.841122556
 30
0.0
 10
12.426253473
 20
8.8289032418
 30
0.0
 10
12.4289519144
 20
8.8202925662
 30
0.0
 10
12.4302881929
 20
8.8157911604
 30
0.0
  0
SPLINE
  5
2C5
100
AcDbEntity
  8
0
100
AcDbSpline
 62
7
  6
CONTINUOUS
 70
0
 71
3
 72
19
 73
15
 74
0
 42
0.0000001
 43
0.0000001
 44
0.0000000001
 40
0.0
 40
0.0
 40
0.0
 40
0.0
 40
0.1707758208
 40
0.3298076389
 40
0.4766121805
 40
0.6104792282
 40
0.672268209
 40
0.7304657459
 40
0.7849543014
 40
0.8356441465
 40
0.8825113405
 40
0.9255394686
 40
0.9647093507
 40
1.0
 40
1.0
 40
1.0
 40
1.0
 10
12.3632070881
 20
7.8405935986
 30
0.0
 10
12.3614590952
 20
7.8367179579
 30
0.0
 10
12.3579814875
 20
7.8292784586
 30
0.0
 10
12.3526262048
 20
7.8186877031
 30
0.0
 10
12.347344469
 20
7.8090966609
 30
0.0
 10
12.3429417339
 20
7.8017924508
 30
0.0
 10
12.33950108
 20
7.7964906801
 30
0.0
 10
12.3370519761
 20
7.79290274
 30
0.0
 10
12.3346742945
 20
7.7896021271
 30
0.0
 10
12.3323767636
 20
7.78659319
 30
0.0
 10
12.3301724692
 20
7.7838739043
 30
0.0
 10
12.3280729577
 20
7.7814407732
 30
0.0
 10
12.326089763
 20
7.7792900757
 30
0.0
 10
12.3247844831
 20
7.7779730139
 30
0.0
 10
12.3241528472
 20
7.7773623152
 30
0.0
  0
SPLINE
  5
2C6
100
AcDbEntity
  8
0
100
AcDbSpline
 62
7
  6
CONTINUOUS
 70
0
 71
3
 72
51
 73
47
 74
0
 42
0.0000001
 43
0.0000001
 44
0.0000000001
 40
0.0
 40
0.0
 40
0.0
 40
0.0
 40
0.0311429623
 40
0.0624390393
 40
0.0938821581
 40
0.1254627405
 40
0.1571685478
 40
0.1889848322
 40
0.2208946479
 40
0.2528792128
 40
0.2849182853
 40
0.3169905665
 40
0.3490741169
 40
0.3811467786
 40
0.413186604
 40
0.4451722806
 40
0.4770835444
 40
0.5089015852
 40
0.5406094235
 40
0.5721922667
 40
0.6036378301
 40
0.6349366131
 40
0.6505313541
 40
0.6660872357
 40
0.6816039492
 40
0.6970813947
 40
0.7125196809
 40
0.727919126
 40
0.7432802612
 40
0.7586038263
 40
0.7738907665
 40
0.789142231
 40
0.8043595683
 40
0.8195443173
 40
0.8346982008
 40
0.8498231194
 40
0.8649211391
 40
0.8799944797
 40
0.8950455049
 40
0.9100767091
 40
0.9250907018
 40
0.9400901927
 40
0.9550779784
 40
0.9700569243
 40
0.9850299475
 40
1.0
 40
1.0
 40
1.0
 40
1.0
 10
10.292259923
 20
9.3261176618
 30
0.0
 10
10.3128985378
 20
9.324686369
 30
0.0
 10
10.3541878266
 20
9.3203060612
 30
0.0
 10
10.4156211619
 20
9.3092720508
 30
0.0
 10
10.4763964895
 20
9.2938166062
 30
0.0
 10
10.5361855594
 20
9.2740229644
 30
0.0
 10
10.5946707811
 20
9.2499971719
 30
0.0
 10
10.6515401147
 20
9.2218676973
 30
0.0
 10
10.7064906758
 20
9.1897849722
 30
0.0
 10
10.7592295844
 20
9.1539201765
 30
0.0
 10
10.809475908
 20
9.1144647784
 30
0.0
 10
10.8569618847
 20
9.0716291629
 30
0.0
 10
10.9014344455
 20
9.0256417002
 30
0.0
 10
10.9426566119
 20
8.97674756
 30
0.0
 10
10.9804085049
 20
8.9252072241
 30
0.0
 10
11.0144888858
 20
8.8712954082
 30
0.0
 10
11.0447157913
 20
8.8152993145
 30
0.0
 10
11.070927869
 20
8.7575173069
 30
0.0
 10
11.0929850142
 20
8.6982574486
 30
0.0
 10
11.1107691541
 20
8.6378349642
 30
0.0
 10
11.1241849154
 20
8.576574155
 30
0.0
 10
11.1316739366
 20
8.5250261676
 30
0.0
 10
11.1354119159
 20
8.4837024896
 30
0.0
 10
11.1370865871
 20
8.4527396461
 30
0.0
 10
11.1376330517
 20
8.4218146419
 30
0.0
 10
11.1370506859
 20
8.390968267
 30
0.0
 10
11.1353401901
 20
8.3602418445
 30
0.0
 10
11.1325038
 20
8.3296763753
 30
0.0
 10
11.1285453327
 20
8.299312685
 30
0.0
 10
11.1234700506
 20
8.2691913216
 30
0.0
 10
11.1172846543
 20
8.2393525287
 30
0.0
 10
11.1099974166
 20
8.2098361594
 30
0.0
 10
11.1016180752
 20
8.1806816346
 30
0.0
 10
11.0921577651
 20
8.1519279128
 30
0.0
 10
11.0816290851
 20
8.1236134186
 30
0.0
 10
11.0700461305
 20
8.0957759653
 30
0.0
 10
11.0574243488
 20
8.0684527494
 30
0.0
 10
11.0437805364
 20
8.0416803066
 30
0.0
 10
11.0291329484
 20
8.0154943951
 30
0.0
 10
11.0135011577
 20
7.989929996
 30
0.0
 10
10.9969060023
 20
7.9650212991
 30
0.0
 10
10.9793696356
 20
7.9408015902
 30
0.0
 10
10.9609155521
 20
7.9173032391
 30
0.0
 10
10.9415682761
 20
7.8945575437
 30
0.0
 10
10.9213540464
 20
7.8725953593
 30
0.0
 10
10.9073164296
 20
7.8584942692
 30
0.0
 10
10.900163759
 20
7.8515853124
 30
0.0
  0
SPLINE
  5
2C7
100
AcDbEntity
  8
0
100
AcDbSpline
 62
7
  6
CONTINUOUS
 70
0
 71
3
 72
47
 73
43
 74
0
 42
0.0000001
 43
0.0000001
 44
0.0000000001
 40
0.0
 40
0.0
 40
0.0
 40
0.0
 40
0.0311436292
 40
0.0624403286
 40
0.0938841145
 40
0.1254653538
 40
0.1571718212
 40
0.1889887674
 40
0.2208992481
 40
0.2528844788
 40
0.2849242182
 40
0.3169971678
 40
0.3490813865
 40
0.3811547163
 40
0.4131952096
 40
0.4451815531
 40
0.4770934826
 40
0.508912187
 40
0.5406206876
 40
0.57220419
 40
0.6036504098
 40
0.6349498478
 40
0.666096023
 40
0.6970856554
 40
0.7279187774
 40
0.7585987852
 40
0.7738860456
 40
0.7891378294
 40
0.8043554841
 40
0.8195405506
 40
0.8346947513
 40
0.8498199856
 40
0.8649183207
 40
0.8799919763
 40
0.8950433157
 40
0.9100748339
 40
0.9250891399
 40
0.9400889437
 40
0.9550770422
 40
0.9700563006
 40
0.9850296355
 40
1.0
 40
1.0
 40
1.0
 40
1.0
 10
10.292259923
 20
7.4309710157
 30
0.0
 10
10.3086528785
 20
7.4298341603
 30
0.0
 10
10.3414483445
 20
7.4263549555
 30
0.0
 10
10.3902439278
 20
7.4175907792
 30
0.0
 10
10.4385168715
 20
7.4053147942
 30
0.0
 10
10.4860064456
 20
7.3895929802
 30
0.0
 10
10.5324603887
 20
7.370509652
 30
0.0
 10
10.5776308828
 20
7.3481668758
 30
0.0
 10
10.621277278
 20
7.322684007
 30
0.0
 10
10.6631670435
 20
7.2941971806
 30
0.0
 10
10.7030769636
 20
7.2628583522
 30
0.0
 10
10.7407943669
 20
7.2288346546
 30
0.0
 10
10.776118309
 20
7.1923075381
 30
0.0
 10
10.8088604622
 20
7.1534716433
 30
0.0
 10
10.838846264
 20
7.1125339415
 30
0.0
 10
10.8659158332
 20
7.0697126023
 30
0.0
 10
10.8899246493
 20
7.0252357449
 30
0.0
 10
10.9107445351
 20
6.9793403813
 30
0.0
 10
10.9282642516
 20
6.9322710923
 30
0.0
 10
10.9423899575
 20
6.8842787057
 30
0.0
 10
10.953045977
 20
6.8356190854
 30
0.0
 10
10.960175024
 20
6.7865516539
 30
0.0
 10
10.9637385019
 20
6.7373382547
 30
0.0
 10
10.9637168046
 20
6.6882410204
 30
0.0
 10
10.960109894
 20
6.6395238354
 30
0.0
 10
10.9541232365
 20
6.5994047214
 30
0.0
 10
10.9475654865
 20
6.5677699682
 30
0.0
 10
10.9417773379
 20
6.5443252778
 30
0.0
 10
10.9351217654
 20
6.5211683386
 30
0.0
 10
10.9276076271
 20
6.498329647
 30
0.0
 10
10.9192448854
 20
6.4758398545
 30
0.0
 10
10.910044731
 20
6.4537289685
 30
0.0
 10
10.9000194735
 20
6.4320265249
 30
0.0
 10
10.8891824284
 20
6.4107615515
 30
0.0
 10
10.8775480886
 20
6.3899624559
 30
0.0
 10
10.8651320255
 20
6.3696570087
 30
0.0
 10
10.8519507629
 20
6.3498723828
 30
0.0
 10
10.838021914
 20
6.3306350064
 30
0.0
 10
10.8233641497
 20
6.311970581
 30
0.0
 10
10.8079969117
 20
6.2939039967
 30
0.0
 10
10.79194107
 20
6.2764597399
 30
0.0
 10
10.7807912374
 20
6.2652594142
 30
0.0
 10
10.7751099816
 20
6.2597717275
 30
0.0
  0
SPLINE
  5
2C8
100
AcDbEntity
  8
0
100
AcDbSpline
 62
7
  6
CONTINUOUS
 70
0
 71
3
 72
16
 73
12
 74
0
 42
0.0000001
 43
0.0000001
 44
0.0000000001
 40
0.0
 40
0.0
 40
0.0
 40
0.0
 40
0.1504802345
 40
0.2917477373
 40
0.4244952497
 40
0.4879700346
 40
0.5496761098
 40
0.6683415877
 40
0.7818816099
 40
0.8918561996
 40
1.0
 40
1.0
 40
1.0
 40
1.0
 10
12.3922815057
 20
9.6568792054
 30
0.0
 10
12.3929882587
 20
9.6575618764
 30
0.0
 10
12.3944008679
 20
9.6588427913
 30
0.0
 10
12.3965881246
 20
9.6605498292
 30
0.0
 10
12.398435684
 20
9.6617571395
 30
0.0
 10
12.3999089385
 20
9.6625746757
 30
0.0
 10
12.4013387878
 20
9.6632765607
 30
0.0
 10
12.4031267482
 20
9.6639857176
 30
0.0
 10
12.4052914414
 20
9.66456165
 30
0.0
 10
12.407443919
 20
9.6648491942
 30
0.0
 10
12.4088733369
 20
9.6648475532
 30
0.0
 10
12.409577811
 20
9.6647986902
 30
0.0
  0
SPLINE
  5
2C9
100
AcDbEntity
  8
0
100
AcDbSpline
 62
7
  6
CONTINUOUS
 70
0
 71
3
 72
16
 73
12
 74
0
 42
0.0000001
 43
0.0000001
 44
0.0000000001
 40
0.0
 40
0.0
 40
0.0
 40
0.0
 40
0.1504802345
 40
0.2917477373
 40
0.4244952497
 40
0.4879700346
 40
0.5496761098
 40
0.6683415877
 40
0.7818816099
 40
0.8918561996
 40
1.0
 40
1.0
 40
1.0
 40
1.0
 10
12.3922815057
 20
7.4835459675
 30
0.0
 10
12.3929882587
 20
7.4842286385
 30
0.0
 10
12.3944008679
 20
7.4855095534
 30
0.0
 10
12.3965881246
 20
7.4872165913
 30
0.0
 10
12.398435684
 20
7.4884239016
 30
0.0
 10
12.3999089385
 20
7.4892414378
 30
0.0
 10
12.4013387878
 20
7.4899433228
 30
0.0
 10
12.4031267482
 20
7.4906524797
 30
0.0
 10
12.4052914414
 20
7.4912284121
 30
0.0
 10
12.407443919
 20
7.4915159563
 30
0.0
 10
12.4088733369
 20
7.4915143153
 30
0.0
 10
12.409577811
 20
7.4914654523
 30
0.0
  0
SPLINE
  5
2CA
100
AcDbEntity
  8
0
100
AcDbSpline
 62
7
  6
CONTINUOUS
 70
0
 71
3
 72
23
 73
19
 74
0
 42
0.0000001
 43
0.0000001
 44
0.0000000001
 40
0.0
 40
0.0
 40
0.0
 40
0.0
 40
0.096992934
 40
0.1906873235
 40
0.2803333135
 40
0.3653395983
 40
0.4452780253
 40
0.5198895165
 40
0.5890670409
 40
0.6528353512
 40
0.7113273541
 40
0.7647662522
 40
0.8134472215
 40
0.8577267269
 40
0.8980205329
 40
0.9348008924
 40
0.9685977126
 40
1.0
 40
1.0
 40
1.0
 40
1.0
 10
10.4717796804
 20
7.898981253
 30
0.0
 10
10.4702684372
 20
7.8990860581
 30
0.0
 10
10.467300514
 20
7.8993420156
 30
0.0
 10
10.4629536709
 20
7.899874209
 30
0.0
 10
10.4588147864
 20
7.900540764
 30
0.0
 10
10.4549165409
 20
7.901330499
 30
0.0
 10
10.451283644
 20
7.9022304935
 30
0.0
 10
10.4479330519
 20
7.9032268777
 30
0.0
 10
10.4448745637
 20
7.904305716
 30
0.0
 10
10.4421119569
 20
7.9054535761
 30
0.0
 10
10.4396442056
 20
7.9066579733
 30
0.0
 10
10.4374667104
 20
7.907907598
 30
0.0
 10
10.435572448
 20
7.9091924951
 30
0.0
 10
10.433952867
 20
7.9105040301
 30
0.0
 10
10.4325986552
 20
7.9118347667
 30
0.0
 10
10.4315004621
 20
7.9131787071
 30
0.0
 10
10.4306493392
 20
7.914529969
 30
0.0
 10
10.4302282376
 20
7.9154617146
 30
0.0
 10
10.4300612213
 20
7.9159228542
 30
0.0
  0
SPLINE
  5
2CB
100
AcDbEntity
  8
0
100
AcDbSpline
 62
7
  6
CONTINUOUS
 70
0
 71
3
 72
39
 73
35
 74
0
 42
0.0000001
 43
0.0000001
 44
0.0000000001
 40
0.0
 40
0.0
 40
0.0
 40
0.0
 40
0.0311450477
 40
0.0624431084
 40
0.0938883437
 40
0.1254709899
 40
0.1571788839
 40
0.188997261
 40
0.2209091757
 40
0.2528958438
 40
0.2849370232
 40
0.3170114138
 40
0.3490970739
 40
0.3811718445
 40
0.4132137768
 40
0.4452015564
 40
0.4771149185
 40
0.5089350505
 40
0.5406449729
 40
0.5722298927
 40
0.6036775229
 40
0.6349783631
 40
0.6661259342
 40
0.6971169551
 40
0.7279514589
 40
0.7586328422
 40
0.7891678431
 40
0.8195664426
 40
0.8498416842
 40
0.8800094168
 40
0.9100879633
 40
0.94009772
 40
0.9700606953
 40
1.0
 40
1.0
 40
1.0
 40
1.0
 10
10.3121889732
 20
7.2425469362
 30
0.0
 10
10.3235107457
 20
7.2417617686
 30
0.0
 10
10.3461608679
 20
7.2393588714
 30
0.0
 10
10.3798614493
 20
7.2333058778
 30
0.0
 10
10.4132010631
 20
7.2248274895
 30
0.0
 10
10.445999666
 20
7.2139692554
 30
0.0
 10
10.4780829933
 20
7.2007893805
 30
0.0
 10
10.5092798989
 20
7.1853583481
 30
0.0
 10
10.5394242016
 20
7.1677586452
 30
0.0
 10
10.5683552787
 20
7.1480842464
 30
0.0
 10
10.5959189858
 20
7.1264401306
 30
0.0
 10
10.6219684389
 20
7.1029417185
 30
0.0
 10
10.6463648171
 20
7.0777142919
 30
0.0
 10
10.6689781015
 20
7.0508923308
 30
0.0
 10
10.6896877317
 20
7.022618773
 30
0.0
 10
10.7083832477
 20
6.9930442708
 30
0.0
 10
10.724964863
 20
6.9623263939
 30
0.0
 10
10.73934404
 20
6.9306288264
 30
0.0
 10
10.75144394
 20
6.8981204858
 30
0.0
 10
10.7611998107
 20
6.8649746272
 30
0.0
 10
10.7685593384
 20
6.8313679379
 30
0.0
 10
10.7734829267
 20
6.797479611
 30
0.0
 10
10.7759439753
 20
6.76349041
 30
0.0
 10
10.7759289823
 20
6.7295817029
 30
0.0
 10
10.7734376274
 20
6.6959345092
 30
0.0
 10
10.7684827891
 20
6.6627285445
 30
0.0
 10
10.7610905105
 20
6.6301412677
 30
0.0
 10
10.7512999225
 20
6.5983469133
 30
0.0
 10
10.7391630136
 20
6.5675155785
 30
0.0
 10
10.7247443234
 20
6.5378122465
 30
0.0
 10
10.7081208304
 20
6.5093961054
 30
0.0
 10
10.6893807591
 20
6.4824188707
 30
0.0
 10
10.6686261936
 20
6.457026864
 30
0.0
 10
10.6535141089
 20
6.4412397475
 30
0.0
 10
10.6456673392
 20
6.4336603236
 30
0.0
  0
SPLINE
  5
2CC
100
AcDbEntity
  8
0
100
AcDbSpline
 62
7
  6
CONTINUOUS
 70
0
 71
3
 72
23
 73
19
 74
0
 42
0.0000001
 43
0.0000001
 44
0.0000000001
 40
0.0
 40
0.0
 40
0.0
 40
0.0
 40
0.0638616659
 40
0.1275031319
 40
0.1909230611
 40
0.254127678
 40
0.3171223919
 40
0.3799159314
 40
0.4425188212
 40
0.5049436698
 40
0.5672049956
 40
0.6293190753
 40
0.6913037911
 40
0.7531784391
 40
0.8149635278
 40
0.876680559
 40
0.9383517927
 40
1.0
 40
1.0
 40
1.0
 40
1.0
 10
10.3121889732
 20
7.2425469362
 30
0.0
 10
10.3044495405
 20
7.2430836676
 30
0.0
 10
10.2889678045
 20
7.2437702352
 30
0.0
 10
10.2657651925
 20
7.243631965
 30
0.0
 10
10.2426783083
 20
7.2423240443
 30
0.0
 10
10.2197662297
 20
7.2398498778
 30
0.0
 10
10.1970862559
 20
7.2362154869
 30
0.0
 10
10.1746956194
 20
7.2314300243
 30
0.0
 10
10.1526506731
 20
7.2255054392
 30
0.0
 10
10.1310069473
 20
7.2184566135
 30
0.0
 10
10.1098189602
 20
7.2103012509
 30
0.0
 10
10.0891400916
 20
7.2010598421
 30
0.0
 10
10.0690224514
 20
7.1907556224
 30
0.0
 10
10.0495167296
 20
7.1794144915
 30
0.0
 10
10.0306721358
 20
7.1670650264
 30
0.0
 10
10.0125359898
 20
7.1537381748
 30
0.0
 10
9.9951546204
 20
7.1394680856
 30
0.0
 10
9.9840971872
 20
7.1293477555
 30
0.0
 10
9.9787106073
 20
7.1241447006
 30
0.0
  0
SPLINE
  5
2CD
100
AcDbEntity
  8
0
100
AcDbSpline
 62
7
  6
CONTINUOUS
 70
0
 71
3
 72
45
 73
41
 74
0
 42
0.0000001
 43
0.0000001
 44
0.0000000001
 40
0.0
 40
0.0
 40
0.0
 40
0.0
 40
0.0367481517
 40
0.0736035899
 40
0.1105154431
 40
0.1474368343
 40
0.1843234111
 40
0.2211334122
 40
0.2578270549
 40
0.2943661759
 40
0.330713776
 40
0.3668335636
 40
0.4026894562
 40
0.4382450388
 40
0.4734629745
 40
0.5083043574
 40
0.542728025
 40
0.5766897716
 40
0.6101416393
 40
0.6430307935
 40
0.6752984076
 40
0.7068795386
 40
0.7377026533
 40
0.7676883031
 40
0.7967486682
 40
0.8247876736
 40
0.8517016901
 40
0.8773810363
 40
0.8897240736
 40
0.9017162952
 40
0.913344043
 40
0.9245943206
 40
0.9354551268
 40
0.9459158489
 40
0.9559677437
 40
0.965604512
 40
0.9748229611
 40
0.983623782
 40
0.9920123804
 40
1.0
 40
1.0
 40
1.0
 40
1.0
 10
11.0133181871
 20
8.7599000913
 30
0.0
 10
11.0064966219
 20
8.7605144484
 30
0.0
 10
10.9928617389
 20
8.7620864885
 30
0.0
 10
10.9725377505
 20
8.7654886565
 30
0.0
 10
10.9523865627
 20
8.7699539991
 30
0.0
 10
10.9324957997
 20
8.775487169
 30
0.0
 10
10.9129514874
 20
8.7820833238
 30
0.0
 10
10.8938383476
 20
8.7897278053
 30
0.0
 10
10.8752385204
 20
8.7983963058
 30
0.0
 10
10.8572307108
 20
8.8080550396
 30
0.0
 10
10.8398892471
 20
8.8186611299
 30
0.0
 10
10.8232832417
 20
8.8301631104
 30
0.0
 10
10.8074758487
 20
8.8425015529
 30
0.0
 10
10.7925236573
 20
8.8556097749
 30
0.0
 10
10.7784762339
 20
8.8694145975
 30
0.0
 10
10.7653758207
 20
8.8838371094
 30
0.0
 10
10.753257199
 20
8.8987934008
 30
0.0
 10
10.7421476712
 20
8.9141952332
 30
0.0
 10
10.7320672357
 20
8.9299505934
 30
0.0
 10
10.7230288161
 20
8.9459640491
 30
0.0
 10
10.7150385616
 20
8.9621371204
 30
0.0
 10
10.7080961345
 20
8.9783686145
 30
0.0
 10
10.7021950568
 20
8.994554783
 30
0.0
 10
10.6973232554
 20
9.0105893388
 30
0.0
 10
10.6934634406
 20
9.026363253
 30
0.0
 10
10.69059352
 20
9.0417650567
 30
0.0
 10
10.6886871357
 20
9.0566802472
 30
0.0
 10
10.6878652294
 20
9.0687635296
 30
0.0
 10
10.6876750951
 20
9.0780847453
 30
0.0
 10
10.6877557562
 20
9.0847883582
 30
0.0
 10
10.6880530761
 20
9.0912819988
 30
0.0
 10
10.6885623098
 20
9.0975510178
 30
0.0
 10
10.6892785581
 20
9.1035808866
 30
0.0
 10
10.6901968372
 20
9.1093573906
 30
0.0
 10
10.6913121035
 20
9.1148667037
 30
0.0
 10
10.6926193028
 20
9.1200955181
 30
0.0
 10
10.6941133982
 20
9.1250311232
 30
0.0
 10
10.6957895051
 20
9.129661651
 30
0.0
 10
10.6976426777
 20
9.1339757275
 30
0.0
 10
10.6990263749
 20
9.1366994162
 30
0.0
 10
10.6997484559
 20
9.1380013218
 30
0.0
  0
SPLINE
  5
2CE
100
AcDbEntity
  8
0
100
AcDbSpline
 62
7
  6
CONTINUOUS
 70
0
 71
3
 72
49
 73
45
 74
0
 42
0.0000001
 43
0.0000001
 44
0.0000000001
 40
0.0
 40
0.0
 40
0.0
 40
0.0
 40
0.0311359551
 40
0.0624378868
 40
0.0938990371
 40
0.1255088378
 40
0.1572539183
 40
0.1891182446
 40
0.2210834607
 40
0.2531292786
 40
0.2852338794
 40
0.3173743366
 40
0.3495270504
 40
0.3816681928
 40
0.4137741521
 40
0.4458219748
 40
0.4777898056
 40
0.5096573051
 40
0.5414060588
 40
0.5730199552
 40
0.6044855356
 40
0.6357923029
 40
0.6669329931
 40
0.697903773
 40
0.713327847
 40
0.7287096567
 40
0.744049746
 40
0.7593488882
 40
0.7746080809
 40
0.7898285476
 40
0.805011732
 40
0.8201592878
 40
0.8352730763
 40
0.8503551563
 40
0.8654077689
 40
0.8804333299
 40
0.8954344219
 40
0.910413765
 40
0.9253742043
 40
0.9403187562
 40
0.9552504184
 40
0.9701722424
 40
0.9850881084
 40
1.0
 40
1.0
 40
1.0
 40
1.0
 10
10.3418377235
 20
9.2852646435
 30
0.0
 10
10.3602699592
 20
9.2839863636
 30
0.0
 10
10.3971527704
 20
9.280072984
 30
0.0
 10
10.4520406025
 20
9.2702137249
 30
0.0
 10
10.5063614452
 20
9.2563995374
 30
0.0
 10
10.5598198604
 20
9.238702896
 30
0.0
 10
10.6121295893
 20
9.2172173224
 30
0.0
 10
10.6630090758
 20
9.1920567716
 30
0.0
 10
10.7121847701
 20
9.163355316
 30
0.0
 10
10.7593921586
 20
9.1312662859
 30
0.0
 10
10.804377273
 20
9.0959613374
 30
0.0
 10
10.8468982786
 20
9.0576297997
 30
0.0
 10
10.8867265994
 20
9.0164773316
 30
0.0
 10
10.9236482819
 20
8.9727249524
 30
0.0
 10
10.9574652693
 20
8.9266078695
 30
0.0
 10
10.9879962289
 20
8.8783739795
 30
0.0
 10
11.015077844
 20
8.8282827264
 30
0.0
 10
11.038565542
 20
8.7766035147
 30
0.0
 10
11.0583341938
 20
8.7236142224
 30
0.0
 10
11.0742790853
 20
8.6695996986
 30
0.0
 10
11.0863161257
 20
8.6148502631
 30
0.0
 10
11.0943824056
 20
8.5596592939
 30
0.0
 10
11.0984368283
 20
8.5043247969
 30
0.0
 10
11.0984552956
 20
8.4582692901
 30
0.0
 10
11.0964475483
 20
8.4216583328
 30
0.0
 10
11.0939389869
 20
8.3943832423
 30
0.0
 10
11.0904294006
 20
8.3672938889
 30
0.0
 10
11.0859238294
 20
8.3404259133
 30
0.0
 10
11.0804285397
 20
8.3138152301
 30
0.0
 10
11.0739512331
 20
8.2874971914
 30
0.0
 10
11.0665008685
 20
8.2615067632
 30
0.0
 10
11.0580875966
 20
8.2358784524
 30
0.0
 10
11.0487229202
 20
8.2106462252
 30
0.0
 10
11.0384195878
 20
8.1858434771
 30
0.0
 10
11.0271914723
 20
8.1615030423
 30
0.0
 10
11.0150537024
 20
8.1376570908
 30
0.0
 10
11.0020226205
 20
8.1143370895
 30
0.0
 10
10.9881156325
 20
8.0915738397
 30
0.0
 10
10.9733512885
 20
8.0693973604
 30
0.0
 10
10.9577492833
 20
8.0478368838
 30
0.0
 10
10.9413304247
 20
8.0269209126
 30
0.0
 10
10.9241162025
 20
8.0066766773
 30
0.0
 10
10.9061299586
 20
7.9871316508
 30
0.0
 10
10.8936389084
 20
7.9745833023
 30
0.0
 10
10.88727428
 20
7.968435543
 30
0.0
  0
SPLINE
  5
2CF
100
AcDbEntity
  8
0
100
AcDbSpline
 62
7
  6
CONTINUOUS
 70
0
 71
3
 72
27
 73
23
 74
0
 42
0.0000001
 43
0.0000001
 44
0.0000000001
 40
0.0
 40
0.0
 40
0.0
 40
0.0
 40
0.0616468919
 40
0.092480324
 40
0.1233223738
 40
0.1850380873
 40
0.2468218549
 40
0.2777487728
 40
0.3087006876
 40
0.3706840776
 40
0.4327968309
 40
0.4950568274
 40
0.5574803452
 40
0.6200818953
 40
0.6828740866
 40
0.7143476821
 40
0.745872711
 40
0.809075826
 40
0.8724948563
 40
0.9042889874
 40
0.9361391032
 40
1.0
 40
1.0
 40
1.0
 40
1.0
 10
9.684356087
 20
9.110279715
 30
0.0
 10
9.6941753966
 20
9.11976445
 30
0.0
 10
9.7092927893
 20
9.1336006543
 30
0.0
 10
9.7301676288
 20
9.1512140074
 30
0.0
 10
9.7515204315
 20
9.1682702987
 30
0.0
 10
9.7790775807
 20
9.1885200809
 30
0.0
 10
9.8076959072
 20
9.2072744507
 30
0.0
 10
9.8311869679
 20
9.2213566838
 30
0.0
 10
9.855083869
 20
9.2348288127
 30
0.0
 10
9.8856602604
 20
9.2504901333
 30
0.0
 10
9.9233557566
 20
9.2673362685
 30
0.0
 10
9.9619798077
 20
9.2822029088
 30
0.0
 10
10.0014346463
 20
9.2950523517
 30
0.0
 10
10.0416203757
 20
9.3058523233
 30
0.0
 10
10.0756088668
 20
9.3131165201
 30
0.0
 10
10.1030583015
 20
9.317880417
 30
0.0
 10
10.1307113727
 20
9.3219494981
 30
0.0
 10
10.165547746
 20
9.3257114557
 30
0.0
 10
10.2005897402
 20
9.3276965078
 30
0.0
 10
10.2287264881
 20
9.3282212832
 30
0.0
 10
10.2569647921
 20
9.3280356416
 30
0.0
 10
10.2781514339
 20
9.3270960888
 30
0.0
 10
10.292259923
 20
9.3261176618
 30
0.0
  0
SPLINE
  5
2D0
100
AcDbEntity
  8
0
100
AcDbSpline
 62
7
  6
CONTINUOUS
 70
0
 71
3
 72
25
 73
21
 74
0
 42
0.0000001
 43
0.0000001
 44
0.0000000001
 40
0.0
 40
0.0
 40
0.0
 40
0.0
 40
0.0615661117
 40
0.0923604784
 40
0.1231635022
 40
0.1848052961
 40
0.2465220485
 40
0.2774185909
 40
0.3083426082
 40
0.3702785182
 40
0.4323563521
 40
0.4945956229
 40
0.5570140352
 40
0.6196273191
 40
0.6824490938
 40
0.7454906946
 40
0.8087612356
 40
0.8722671143
 40
0.9360130284
 40
1.0
 40
1.0
 40
1.0
 40
1.0
 10
9.800690579
 20
9.0933497
 30
0.0
 10
9.8094189718
 20
9.1017806806
 30
0.0
 10
9.8228572247
 20
9.1140796644
 30
0.0
 10
9.8414138465
 20
9.1297358702
 30
0.0
 10
9.8603965799
 20
9.1448974994
 30
0.0
 10
9.8848969545
 20
9.1628984362
 30
0.0
 10
9.9103424743
 20
9.1795702068
 30
0.0
 10
9.9312312602
 20
9.1920893741
 30
0.0
 10
9.9524843467
 20
9.204067733
 30
0.0
 10
9.9796818767
 20
9.217993829
 30
0.0
 10
10.0132170164
 20
9.2329747949
 30
0.0
 10
10.0475859136
 20
9.2461974379
 30
0.0
 10
10.0827024413
 20
9.2576277976
 30
0.0
 10
10.118479219
 20
9.2672367303
 30
0.0
 10
10.1548268925
 20
9.2749994398
 30
0.0
 10
10.191654645
 20
9.2808957446
 30
0.0
 10
10.2288701601
 20
9.2849100346
 30
0.0
 10
10.2663805281
 20
9.2870314698
 30
0.0
 10
10.3040902656
 20
9.2872539013
 30
0.0
 10
10.3292554354
 20
9.2861372282
 30
0.0
 10
10.3418377235
 20
9.2852646435
 30
0.0
  0
SPLINE
  5
2D1
100
AcDbEntity
  8
0
100
AcDbSpline
 62
7
  6
CONTINUOUS
 70
0
 71
3
 72
33
 73
29
 74
0
 42
0.0000001
 43
0.0000001
 44
0.0000000001
 40
0.0
 40
0.0
 40
0.0
 40
0.0
 40
0.0124169039
 40
0.024598287
 40
0.0369143245
 40
0.0496970516
 40
0.063225452
 40
0.0777226569
 40
0.0933627729
 40
0.1102804395
 40
0.1285809748
 40
0.1483485541
 40
0.1696523601
 40
0.1925514248
 40
0.217097365
 40
0.2433369597
 40
0.2713125771
 40
0.3010635184
 40
0.3326246781
 40
0.3660272252
 40
0.4012949863
 40
0.438443726
 40
0.5183730651
 40
0.6056057291
 40
0.6994223718
 40
0.7983078253
 40
0.8996948549
 40
1.0
 40
1.0
 40
1.0
 40
1.0
 10
10.5582349789
 20
7.9290450649
 30
0.0
 10
10.5583738647
 20
7.9286623324
 30
0.0
 10
10.5585851865
 20
7.9278787949
 30
0.0
 10
10.558686575
 20
7.9266663761
 30
0.0
 10
10.5585725413
 20
7.9254432486
 30
0.0
 10
10.5582501198
 20
7.9242131916
 30
0.0
 10
10.5577253074
 20
7.9229778501
 30
0.0
 10
10.5570028785
 20
7.921737931
 30
0.0
 10
10.5560857046
 20
7.9204940299
 30
0.0
 10
10.5549756055
 20
7.9192468623
 30
0.0
 10
10.5536732861
 20
7.9179976474
 30
0.0
 10
10.5521788549
 20
7.9167479064
 30
0.0
 10
10.5504917603
 20
7.9154996285
 30
0.0
 10
10.5486110396
 20
7.9142551073
 30
0.0
 10
10.5465352616
 20
7.9130170972
 30
0.0
 10
10.5442627303
 20
7.9117886845
 30
0.0
 10
10.5417914245
 20
7.9105735378
 30
0.0
 10
10.5391192831
 20
7.9093756983
 30
0.0
 10
10.5362441256
 20
7.9082000004
 30
0.0
 10
10.5331640867
 20
7.9070517399
 30
0.0
 10
10.5298775937
 20
7.9059371868
 30
0.0
 10
10.5251020278
 20
7.9044694304
 30
0.0
 10
10.5186162628
 20
7.9027763748
 30
0.0
 10
10.5102275818
 20
7.9010645066
 30
0.0
 10
10.5011428295
 20
7.8997194811
 30
0.0
 10
10.4915338899
 20
7.8988443459
 30
0.0
 10
10.4816768615
 20
7.8985354979
 30
0.0
 10
10.4750608263
 20
7.8987537048
 30
0.0
 10
10.4717796804
 20
7.898981253
 30
0.0
  0
SPLINE
  5
2D2
100
AcDbEntity
  8
0
100
AcDbSpline
 62
7
  6
CONTINUOUS
 70
0
 71
3
 72
25
 73
21
 74
0
 42
0.0000001
 43
0.0000001
 44
0.0000000001
 40
0.0
 40
0.0
 40
0.0
 40
0.0
 40
0.0616475282
 40
0.0924812782
 40
0.1233236452
 40
0.1850399949
 40
0.2468243989
 40
0.277751634
 40
0.3087038677
 40
0.3706878948
 40
0.4328012861
 40
0.4950619216
 40
0.5574860801
 40
0.6200882709
 40
0.6828811113
 40
0.7458751472
 40
0.8090789555
 40
0.8724985283
 40
0.936138578
 40
1.0
 40
1.0
 40
1.0
 40
1.0
 10
9.8094098644
 20
7.2595333258
 30
0.0
 10
9.8172092106
 20
7.2670669364
 30
0.0
 10
9.8292167213
 20
7.2780569035
 30
0.0
 10
9.8457973583
 20
7.2920469432
 30
0.0
 10
9.8627575585
 20
7.3055946104
 30
0.0
 10
9.8846458494
 20
7.3216787569
 30
0.0
 10
9.9073769896
 20
7.3365751606
 30
0.0
 10
9.9260356438
 20
7.3477604905
 30
0.0
 10
9.9450166198
 20
7.3584612776
 30
0.0
 10
9.9693030545
 20
7.3709008737
 30
0.0
 10
9.9992440848
 20
7.384281572
 30
0.0
 10
10.0299226901
 20
7.3960899807
 30
0.0
 10
10.0612610663
 20
7.4062961352
 30
0.0
 10
10.0931804083
 20
7.4148744932
 30
0.0
 10
10.1256002752
 20
7.4218035069
 30
0.0
 10
10.1584390678
 20
7.4270658437
 30
0.0
 10
10.1916139899
 20
7.430648306
 30
0.0
 10
10.2250418966
 20
7.4325420222
 30
0.0
 10
10.2586374649
 20
7.4327422906
 30
0.0
 10
10.2810537535
 20
7.4317481662
 30
0.0
 10
10.292259923
 20
7.4309710157
 30
0.0
  0
SPLINE
  5
2D3
100
AcDbEntity
  8
0
100
AcDbSpline
 62
7
  6
CONTINUOUS
 70
0
 71
3
 72
63
 73
59
 74
0
 42
0.0000001
 43
0.0000001
 44
0.0000000001
 40
0.0
 40
0.0
 40
0.0
 40
0.0
 40
0.009104314
 40
0.0184760489
 40
0.0232844988
 40
0.0281843738
 40
0.0382824122
 40
0.0488147809
 40
0.059813772
 40
0.0713029884
 40
0.083297878
 40
0.095807385
 40
0.1088351325
 40
0.1223798544
 40
0.1364364315
 40
0.1509964224
 40
0.1660483254
 40
0.1815781584
 40
0.1975697439
 40
0.2140048425
 40
0.2308635035
 40
0.2481242518
 40
0.2657641584
 40
0.2837590633
 40
0.3020837226
 40
0.339615665
 40
0.3781405572
 40
0.4174272062
 40
0.457236311
 40
0.4973231231
 40
0.5374400567
 40
0.5773392173
 40
0.6167749433
 40
0.655506353
 40
0.6933000337
 40
0.7299328887
 40
0.7477482282
 40
0.7651959949
 40
0.7822526561
 40
0.7988959778
 40
0.8151052667
 40
0.8308614508
 40
0.8461472704
 40
0.8609476636
 40
0.8752499257
 40
0.8890440017
 40
0.902323118
 40
0.9150841432
 40
0.9273281173
 40
0.9390612177
 40
0.950295841
 40
0.9610517821
 40
0.9662584937
 40
0.9713558605
 40
0.9812451863
 40
0.9860536699
 40
0.9907806418
 40
1.0
 40
1.0
 40
1.0
 40
1.0
 10
12.4146342702
 20
8.8375225906
 30
0.0
 10
12.4166994466
 20
8.8350861154
 30
0.0
 10
12.4206839353
 20
8.8299640514
 30
0.0
 10
12.4252305931
 20
8.8231706453
 30
0.0
 10
12.4286922767
 20
8.8174406899
 30
0.0
 10
12.4321126094
 20
8.8113913989
 30
0.0
 10
12.4361991274
 20
8.8034167233
 30
0.0
 10
12.4407880628
 20
8.7933101067
 30
0.0
 10
12.4451329014
 20
8.7825682895
 30
0.0
 10
12.4492503534
 20
8.771190652
 30
0.0
 10
12.4531507124
 20
8.7591787233
 30
0.0
 10
12.4568407654
 20
8.7465375639
 30
0.0
 10
12.4603243382
 20
8.7332752494
 30
0.0
 10
12.4636030593
 20
8.7194027052
 30
0.0
 10
12.4666772421
 20
8.7049335651
 30
0.0
 10
12.4695461378
 20
8.6898838431
 30
0.0
 10
12.4722083188
 20
8.6742717317
 30
0.0
 10
12.4746619666
 20
8.6581174081
 30
0.0
 10
12.4769049905
 20
8.6414428202
 30
0.0
 10
12.4789352208
 20
8.624271538
 30
0.0
 10
12.4807505003
 20
8.6066286022
 30
0.0
 10
12.4823487377
 20
8.5885403729
 30
0.0
 10
12.4837280102
 20
8.5700344319
 30
0.0
 10
12.4848866335
 20
8.5511394233
 30
0.0
 10
12.4861451428
 20
8.5252609954
 30
0.0
 10
12.4871442401
 20
8.4921619346
 30
0.0
 10
12.4874385642
 20
8.451695179
 30
0.0
 10
12.4868363702
 20
8.4104329268
 30
0.0
 10
12.4853421607
 20
8.3686452027
 30
0.0
 10
12.48296605
 20
8.3266066445
 30
0.0
 10
12.4797238121
 20
8.2845943276
 30
0.0
 10
12.4756367342
 20
8.2428852157
 30
0.0
 10
12.4707314895
 20
8.2017537674
 30
0.0
 10
12.4650397424
 20
8.1614693779
 30
0.0
 10
12.4585976791
 20
8.1222942299
 30
0.0
 10
12.4525832836
 20
8.0904941884
 30
0.0
 10
12.4474137566
 20
8.0658065964
 30
0.0
 10
12.4434105432
 20
8.0478931416
 30
0.0
 10
12.4392510933
 20
8.0304377079
 30
0.0
 10
12.4349410737
 20
8.013466706
 30
0.0
 10
12.4304861682
 20
7.9970052924
 30
0.0
 10
12.4258918813
 20
7.9810772372
 30
0.0
 10
12.4211634692
 20
7.9657047871
 30
0.0
 10
12.4163058073
 20
7.9509085166
 30
0.0
 10
12.4113231524
 20
7.9367072061
 30
0.0
 10
12.4062189735
 20
7.9231176391
 30
0.0
 10
12.4009956024
 20
7.9101544323
 30
0.0
 10
12.3956537274
 20
7.8978299009
 30
0.0
 10
12.3901920788
 20
7.8861538421
 30
0.0
 10
12.3846065015
 20
7.8751332949
 30
0.0
 10
12.378888704
 20
7.8647728858
 30
0.0
 10
12.3739511066
 20
7.856604925
 30
0.0
 10
12.3699169137
 20
7.8504145364
 30
0.0
 10
12.3659090597
 20
7.8445724904
 30
0.0
 10
12.361765603
 20
7.8389944678
 30
0.0
 10
12.3574641258
 20
7.8337077486
 30
0.0
 10
12.3531548504
 20
7.8287349856
 30
0.0
 10
12.3497672414
 20
7.8251972108
 30
0.0
 10
12.347440944
 20
7.82295018
 30
0.0
  0
SPLINE
  5
2D4
100
AcDbEntity
  8
0
100
AcDbSpline
 62
7
  6
CONTINUOUS
 70
0
 71
3
 72
23
 73
19
 74
0
 42
0.0000001
 43
0.0000001
 44
0.0000000001
 40
0.0
 40
0.0
 40
0.0
 40
0.0
 40
0.0748025362
 40
0.1450545762
 40
0.2111217817
 40
0.2734643031
 40
0.332647597
 40
0.3893466239
 40
0.4443401431
 40
0.4984881119
 40
0.5526947283
 40
0.6078611013
 40
0.6648387524
 40
0.7243935941
 40
0.7871858505
 40
0.8537686154
 40
0.9245920195
 40
1.0
 40
1.0
 40
1.0
 40
1.0
 10
12.2833825353
 20
7.8670631834
 30
0.0
 10
12.2845497166
 20
7.8655979907
 30
0.0
 10
12.2869043951
 20
7.862827427
 30
0.0
 10
12.2906221397
 20
7.8590607567
 30
0.0
 10
12.2944079823
 20
7.8558226963
 30
0.0
 10
12.2982588438
 20
7.8531180286
 30
0.0
 10
12.3021715949
 20
7.8509513738
 30
0.0
 10
12.3061423759
 20
7.8493277913
 30
0.0
 10
12.3101658932
 20
7.8482519143
 30
0.0
 10
12.3142353171
 20
7.8477276383
 30
0.0
 10
12.3183425573
 20
7.8477564556
 30
0.0
 10
12.322479466
 20
7.8483376575
 30
0.0
 10
12.3266388981
 20
7.8494681865
 30
0.0
 10
12.3308151669
 20
7.851143987
 30
0.0
 10
12.3350038811
 20
7.8533606472
 30
0.0
 10
12.3392014574
 20
7.8561140676
 30
0.0
 10
12.343403999
 20
7.8593999608
 30
0.0
 10
12.3461186757
 20
7.8618628097
 30
0.0
 10
12.3474769317
 20
7.8631747843
 30
0.0
  0
SPLINE
  5
2D5
100
AcDbEntity
  8
0
100
AcDbSpline
 62
7
  6
CONTINUOUS
 70
0
 71
3
 72
61
 73
57
 74
0
 42
0.0000001
 43
0.0000001
 44
0.0000000001
 40
0.0
 40
0.0
 40
0.0
 40
0.0
 40
0.0027165054
 40
0.0054533955
 40
0.0082305472
 40
0.0110669316
 40
0.0169824274
 40
0.0233277131
 40
0.030199549
 40
0.0376706007
 40
0.0457931532
 40
0.0546032753
 40
0.0641243859
 40
0.074369812
 40
0.0853450535
 40
0.0970492998
 40
0.10947643
 40
0.1226160841
 40
0.136454196
 40
0.1509734409
 40
0.1661538067
 40
0.1819727413
 40
0.1984054552
 40
0.2154252451
 40
0.233003508
 40
0.2511100181
 40
0.2697130988
 40
0.288779623
 40
0.3281637084
 40
0.3689758341
 40
0.4109140611
 40
0.4536652952
 40
0.496908534
 40
0.5403180533
 40
0.58356653
 40
0.6263281872
 40
0.6682819354
 40
0.7091145197
 40
0.7485237777
 40
0.7862219893
 40
0.8043449156
 40
0.8219405913
 40
0.8389787009
 40
0.8554306652
 40
0.871269662
 40
0.8864708261
 40
0.9010116003
 40
0.9148718073
 40
0.9280340646
 40
0.940484227
 40
0.9522117242
 40
0.9632103966
 40
0.9734791407
 40
0.9830231747
 40
0.9918561893
 40
1.0
 40
1.0
 40
1.0
 40
1.0
 10
12.3749852005
 20
9.1659967788
 30
0.0
 10
12.3745186075
 20
9.1660291421
 30
0.0
 10
12.3735843088
 20
9.1661363602
 30
0.0
 10
12.3721947735
 20
9.1664232331
 30
0.0
 10
12.3708156859
 20
9.1668361172
 30
0.0
 10
12.3689668043
 20
9.1675640261
 30
0.0
 10
12.3666724744
 20
9.1688091892
 30
0.0
 10
12.3640207746
 20
9.1707787959
 30
0.0
 10
12.3614331591
 20
9.1732374551
 30
0.0
 10
12.3589127341
 20
9.1761789597
 30
0.0
 10
12.3564621328
 20
9.1795974408
 30
0.0
 10
12.3540848786
 20
9.1834865514
 30
0.0
 10
12.3517848902
 20
9.1878391601
 30
0.0
 10
12.3495662391
 20
9.1926471029
 30
0.0
 10
12.3474331208
 20
9.1979012358
 30
0.0
 10
12.3453897198
 20
9.2035914129
 30
0.0
 10
12.3434400478
 20
9.2097065003
 30
0.0
 10
12.3415880436
 20
9.2162344563
 30
0.0
 10
12.3398374577
 20
9.2231623455
 30
0.0
 10
12.3381918067
 20
9.2304763776
 30
0.0
 10
12.3366544658
 20
9.238161962
 30
0.0
 10
12.3352285544
 20
9.246203729
 30
0.0
 10
12.3339169541
 20
9.2545855725
 30
0.0
 10
12.332722367
 20
9.263290691
 30
0.0
 10
12.3316472033
 20
9.2723016183
 30
0.0
 10
12.330693651
 20
9.2816002596
 30
0.0
 10
12.3298636555
 20
9.2911679566
 30
0.0
 10
12.3289138016
 20
9.304401027
 30
0.0
 10
12.3280563647
 20
9.3214723996
 30
0.0
 10
12.32755007
 20
9.3424969399
 30
0.0
 10
12.3275602484
 20
9.364107248
 30
0.0
 10
12.3280869989
 20
9.3861296922
 30
0.0
 10
12.3291262524
 20
9.4083874493
 30
0.0
 10
12.3306697354
 20
9.4307017271
 30
0.0
 10
12.3327050635
 20
9.4528932859
 30
0.0
 10
12.3352158016
 20
9.4747838913
 30
0.0
 10
12.3381816357
 20
9.4961977472
 30
0.0
 10
12.34157851
 20
9.5169630194
 30
0.0
 10
12.3453788793
 20
9.5369129605
 30
0.0
 10
12.3489008814
 20
9.5529292536
 30
0.0
 10
12.3519074783
 20
9.5652075075
 30
0.0
 10
12.3542136848
 20
9.5739937146
 30
0.0
 10
12.3565961074
 20
9.5824610966
 30
0.0
 10
12.3590499369
 20
9.590592687
 30
0.0
 10
12.3615702095
 20
9.5983721851
 30
0.0
 10
12.364151858
 20
9.6057840117
 30
0.0
 10
12.3667896333
 20
9.6128133612
 30
0.0
 10
12.3694782305
 20
9.6194462096
 30
0.0
 10
12.3722122463
 20
9.6256693602
 30
0.0
 10
12.3749861552
 20
9.6314705029
 30
0.0
 10
12.3777944503
 20
9.636838206
 30
0.0
 10
12.3806315909
 20
9.6417619775
 30
0.0
 10
12.3834919714
 20
9.6462322902
 30
0.0
 10
12.38637037
 20
9.6502407812
 30
0.0
 10
12.3892612013
 20
9.6537794336
 30
0.0
 10
12.3912729959
 20
9.6559050597
 30
0.0
 10
12.3922815057
 20
9.6568792054
 30
0.0
  0
SPLINE
  5
2D6
100
AcDbEntity
  8
0
100
AcDbSpline
 62
7
  6
CONTINUOUS
 70
0
 71
3
 72
61
 73
57
 74
0
 42
0.0000001
 43
0.0000001
 44
0.0000000001
 40
0.0
 40
0.0
 40
0.0
 40
0.0
 40
0.0027165054
 40
0.0054533955
 40
0.0082305472
 40
0.0110669316
 40
0.0169824274
 40
0.0233277131
 40
0.030199549
 40
0.0376706007
 40
0.0457931532
 40
0.0546032753
 40
0.0641243859
 40
0.074369812
 40
0.0853450535
 40
0.0970492998
 40
0.10947643
 40
0.1226160841
 40
0.136454196
 40
0.1509734409
 40
0.1661538067
 40
0.1819727413
 40
0.1984054552
 40
0.2154252451
 40
0.233003508
 40
0.2511100181
 40
0.2697130988
 40
0.288779623
 40
0.3281637084
 40
0.3689758341
 40
0.4109140611
 40
0.4536652952
 40
0.496908534
 40
0.5403180533
 40
0.58356653
 40
0.6263281872
 40
0.6682819354
 40
0.7091145197
 40
0.7485237777
 40
0.7862219893
 40
0.8043449156
 40
0.8219405913
 40
0.8389787009
 40
0.8554306652
 40
0.871269662
 40
0.8864708261
 40
0.9010116003
 40
0.9148718073
 40
0.9280340646
 40
0.940484227
 40
0.9522117242
 40
0.9632103966
 40
0.9734791407
 40
0.9830231747
 40
0.9918561893
 40
1.0
 40
1.0
 40
1.0
 40
1.0
 10
12.3749852005
 20
6.9926635409
 30
0.0
 10
12.3745186075
 20
6.9926959042
 30
0.0
 10
12.3735843088
 20
6.9928031223
 30
0.0
 10
12.3721947735
 20
6.9930899951
 30
0.0
 10
12.3708156859
 20
6.9935028793
 30
0.0
 10
12.3689668043
 20
6.9942307882
 30
0.0
 10
12.3666724744
 20
6.9954759513
 30
0.0
 10
12.3640207746
 20
6.997445558
 30
0.0
 10
12.3614331591
 20
6.9999042172
 30
0.0
 10
12.3589127341
 20
7.0028457217
 30
0.0
 10
12.3564621328
 20
7.0062642029
 30
0.0
 10
12.3540848786
 20
7.0101533135
 30
0.0
 10
12.3517848902
 20
7.0145059221
 30
0.0
 10
12.3495662391
 20
7.019313865
 30
0.0
 10
12.3474331208
 20
7.0245679979
 30
0.0
 10
12.3453897198
 20
7.030258175
 30
0.0
 10
12.3434400478
 20
7.0363732624
 30
0.0
 10
12.3415880436
 20
7.0429012184
 30
0.0
 10
12.3398374577
 20
7.0498291076
 30
0.0
 10
12.3381918067
 20
7.0571431396
 30
0.0
 10
12.3366544658
 20
7.064828724
 30
0.0
 10
12.3352285544
 20
7.072870491
 30
0.0
 10
12.3339169541
 20
7.0812523346
 30
0.0
 10
12.332722367
 20
7.0899574531
 30
0.0
 10
12.3316472033
 20
7.0989683804
 30
0.0
 10
12.330693651
 20
7.1082670217
 30
0.0
 10
12.3298636555
 20
7.1178347187
 30
0.0
 10
12.3289138016
 20
7.1310677891
 30
0.0
 10
12.3280563647
 20
7.1481391616
 30
0.0
 10
12.32755007
 20
7.1691637019
 30
0.0
 10
12.3275602484
 20
7.1907740101
 30
0.0
 10
12.3280869989
 20
7.2127964543
 30
0.0
 10
12.3291262524
 20
7.2350542114
 30
0.0
 10
12.3306697354
 20
7.2573684892
 30
0.0
 10
12.3327050635
 20
7.279560048
 30
0.0
 10
12.3352158016
 20
7.3014506534
 30
0.0
 10
12.3381816357
 20
7.3228645092
 30
0.0
 10
12.34157851
 20
7.3436297815
 30
0.0
 10
12.3453788793
 20
7.3635797226
 30
0.0
 10
12.3489008814
 20
7.3795960156
 30
0.0
 10
12.3519074783
 20
7.3918742696
 30
0.0
 10
12.3542136848
 20
7.4006604766
 30
0.0
 10
12.3565961074
 20
7.4091278587
 30
0.0
 10
12.3590499369
 20
7.4172594491
 30
0.0
 10
12.3615702095
 20
7.4250389472
 30
0.0
 10
12.364151858
 20
7.4324507738
 30
0.0
 10
12.3667896333
 20
7.4394801233
 30
0.0
 10
12.3694782305
 20
7.4461129717
 30
0.0
 10
12.3722122463
 20
7.4523361223
 30
0.0
 10
12.3749861552
 20
7.458137265
 30
0.0
 10
12.3777944503
 20
7.4635049681
 30
0.0
 10
12.3806315909
 20
7.4684287396
 30
0.0
 10
12.3834919714
 20
7.4728990522
 30
0.0
 10
12.38637037
 20
7.4769075433
 30
0.0
 10
12.3892612013
 20
7.4804461957
 30
0.0
 10
12.3912729959
 20
7.4825718217
 30
0.0
 10
12.3922815057
 20
7.4835459675
 30
0.0
  0
SPLINE
  5
2D7
100
AcDbEntity
  8
0
100
AcDbSpline
 62
7
  6
CONTINUOUS
 70
0
 71
3
 72
27
 73
23
 74
0
 42
0.0000001
 43
0.0000001
 44
0.0000000001
 40
0.0
 40
0.0
 40
0.0
 40
0.0
 40
0.0616468919
 40
0.092480324
 40
0.1233223738
 40
0.1850380873
 40
0.2468218549
 40
0.2777487728
 40
0.3087006876
 40
0.3706840776
 40
0.4327968309
 40
0.4950568274
 40
0.5574803452
 40
0.6200818953
 40
0.6828740866
 40
0.7143476821
 40
0.745872711
 40
0.809075826
 40
0.8724948563
 40
0.9042889874
 40
0.9361391032
 40
1.0
 40
1.0
 40
1.0
 40
1.0
 10
10.900163759
 20
7.8515853124
 30
0.0
 10
10.8903444494
 20
7.8421005774
 30
0.0
 10
10.8752270567
 20
7.8282643731
 30
0.0
 10
10.8543522172
 20
7.81065102
 30
0.0
 10
10.8329994145
 20
7.7935947287
 30
0.0
 10
10.8054422653
 20
7.7733449465
 30
0.0
 10
10.7768239388
 20
7.7545905767
 30
0.0
 10
10.7533328782
 20
7.7405083436
 30
0.0
 10
10.729435977
 20
7.7270362147
 30
0.0
 10
10.6988595856
 20
7.7113748941
 30
0.0
 10
10.6611640895
 20
7.6945287589
 30
0.0
 10
10.6225400383
 20
7.6796621186
 30
0.0
 10
10.5830851998
 20
7.6668126757
 30
0.0
 10
10.5428994704
 20
7.6560127041
 30
0.0
 10
10.5089109793
 20
7.6487485073
 30
0.0
 10
10.4814615445
 20
7.6439846104
 30
0.0
 10
10.4538084734
 20
7.6399155293
 30
0.0
 10
10.4189721
 20
7.6361535716
 30
0.0
 10
10.3839301058
 20
7.6341685196
 30
0.0
 10
10.3557933579
 20
7.6336437442
 30
0.0
 10
10.3275550539
 20
7.6338293858
 30
0.0
 10
10.3063684121
 20
7.6347689386
 30
0.0
 10
10.292259923
 20
7.6357473656
 30
0.0
  0
SPLINE
  5
2D8
100
AcDbEntity
  8
0
100
AcDbSpline
 62
7
  6
CONTINUOUS
 70
0
 71
3
 72
25
 73
21
 74
0
 42
0.0000001
 43
0.0000001
 44
0.0000000001
 40
0.0
 40
0.0
 40
0.0
 40
0.0
 40
0.0616183797
 40
0.0924432546
 40
0.1232803047
 40
0.1849959347
 40
0.2467898216
 40
0.2777244871
 40
0.3086856787
 40
0.370691448
 40
0.4328287435
 40
0.4951129518
 40
0.5575580273
 40
0.6201763628
 40
0.6829787036
 40
0.7459739883
 40
0.8091695067
 40
0.8725701992
 40
0.9361802406
 40
1.0
 40
1.0
 40
1.0
 40
1.0
 10
10.8996697953
 20
7.8521504809
 30
0.0
 10
10.8899643705
 20
7.8435744091
 30
0.0
 10
10.8750719408
 20
7.8310764452
 30
0.0
 10
10.8545997288
 20
7.8151880028
 30
0.0
 10
10.8337129132
 20
7.7998131793
 30
0.0
 10
10.8068590231
 20
7.7815833656
 30
0.0
 10
10.7790972755
 20
7.7647288763
 30
0.0
 10
10.7563759195
 20
7.7520882716
 30
0.0
 10
10.7333032057
 20
7.7400047863
 30
0.0
 10
10.7038575238
 20
7.7259767623
 30
0.0
 10
10.6676651456
 20
7.7109150768
 30
0.0
 10
10.6306778544
 20
7.6976500601
 30
0.0
 10
10.5929800206
 20
7.686211983
 30
0.0
 10
10.5546569021
 20
7.6766265923
 30
0.0
 10
10.5157953645
 20
7.6689155477
 30
0.0
 10
10.4764833787
 20
7.663096194
 30
0.0
 10
10.4368101086
 20
7.6591816754
 30
0.0
 10
10.3968649613
 20
7.6571806877
 30
0.0
 10
10.3567396821
 20
7.6570977304
 30
0.0
 10
10.3299710646
 20
7.6583192812
 30
0.0
 10
10.3165888838
 20
7.6592473386
 30
0.0
  0
SPLINE
  5
2D9
100
AcDbEntity
  8
0
100
AcDbSpline
 62
7
  6
CONTINUOUS
 70
0
 71
3
 72
39
 73
35
 74
0
 42
0.0000001
 43
0.0000001
 44
0.0000000001
 40
0.0
 40
0.0
 40
0.0
 40
0.0
 40
0.0305299144
 40
0.0611666898
 40
0.0919096295
 40
0.1227569704
 40
0.1537059111
 40
0.1847526496
 40
0.2158924299
 40
0.2471195963
 40
0.2784276554
 40
0.3098093453
 40
0.3412567089
 40
0.3727611736
 40
0.4043136339
 40
0.435904539
 40
0.4675239823
 40
0.4991617938
 40
0.5308076346
 40
0.5624510925
 40
0.5940817771
 40
0.625689416
 40
0.6572639485
 40
0.6887956195
 40
0.7202750705
 40
0.7516934285
 40
0.7830423917
 40
0.8143143097
 40
0.8455022711
 40
0.8766001299
 40
0.9076027284
 40
0.9385054774
 40
0.9693056295
 40
1.0
 40
1.0
 40
1.0
 40
1.0
 10
10.4549223188
 20
9.2687347948
 30
0.0
 10
10.4544971675
 20
9.2589164188
 30
0.0
 10
10.4541453475
 20
9.2392200736
 30
0.0
 10
10.4551078518
 20
9.2096382165
 30
0.0
 10
10.4575570384
 20
9.1800390218
 30
0.0
 10
10.4614866351
 20
9.1504987424
 30
0.0
 10
10.4668865754
 20
9.121092199
 30
0.0
 10
10.4737430708
 20
9.0918942065
 30
0.0
 10
10.4820386362
 20
9.0629789516
 30
0.0
 10
10.4917521295
 20
9.0344199194
 30
0.0
 10
10.5028588086
 20
9.0062896765
 30
0.0
 10
10.5153304003
 20
8.9786596974
 30
0.0
 10
10.5291351703
 20
8.951600182
 30
0.0
 10
10.544238005
 20
8.9251798791
 30
0.0
 10
10.5606004995
 20
8.8994659129
 30
0.0
 10
10.5781810556
 20
8.8745236137
 30
0.0
 10
10.5969349865
 20
8.8504163536
 30
0.0
 10
10.6168146293
 20
8.8272053853
 30
0.0
 10
10.6377694597
 20
8.8049496815
 30
0.0
 10
10.6597462272
 20
8.7837057917
 30
0.0
 10
10.6826890901
 20
8.7635276985
 30
0.0
 10
10.7065397561
 20
8.7444666822
 30
0.0
 10
10.7312376295
 20
8.7265711903
 30
0.0
 10
10.7567199639
 20
8.709886716
 30
0.0
 10
10.782922021
 20
8.6944556824
 30
0.0
 10
10.8097772337
 20
8.6803173359
 30
0.0
 10
10.8372173712
 20
8.6675076423
 30
0.0
 10
10.8651727148
 20
8.6560591879
 30
0.0
 10
10.8935722247
 20
8.6460011265
 30
0.0
 10
10.9223437708
 20
8.6373590374
 30
0.0
 10
10.9514141205
 20
8.6301550241
 30
0.0
 10
10.9807097704
 20
8.6244073064
 30
0.0
 10
11.0101551417
 20
8.6201308211
 30
0.0
 10
11.0298718587
 20
8.6182644404
 30
0.0
 10
11.039728699
 20
8.6175808662
 30
0.0
  0
SPLINE
  5
2DA
100
AcDbEntity
  8
0
100
AcDbSpline
 62
7
  6
CONTINUOUS
 70
0
 71
3
 72
48
 73
44
 74
0
 42
0.0000001
 43
0.0000001
 44
0.0000000001
 40
0.0
 40
0.0
 40
0.0
 40
0.0
 40
0.0149702853
 40
0.0299435407
 40
0.0449227194
 40
0.059910738
 40
0.0749104616
 40
0.0899246872
 40
0.1049561247
 40
0.1200073833
 40
0.1350809578
 40
0.1501792115
 40
0.1653043643
 40
0.1804584832
 40
0.1956434676
 40
0.2108610401
 40
0.2261127413
 40
0.241399919
 40
0.2567237207
 40
0.2720850939
 40
0.3029180492
 40
0.3339075141
 40
0.3650535212
 40
0.3963527906
 40
0.4277988412
 40
0.4593821741
 40
0.4910905049
 40
0.5229090394
 40
0.5548207988
 40
0.5868069722
 40
0.6188472955
 40
0.6509204555
 40
0.6830045045
 40
0.7150772846
 40
0.747116855
 40
0.7791019171
 40
0.8110122296
 40
0.8428290082
 40
0.8745353085
 40
0.9061163812
 40
0.9375600013
 40
0.9688565355
 40
1.0
 40
1.0
 40
1.0
 40
1.0
 10
9.8006905833
 20
9.0933496956
 30
0.0
 10
9.7942981253
 20
9.0871750716
 30
0.0
 10
9.7817525115
 20
9.0745727108
 30
0.0
 10
9.7636867315
 20
9.0549448111
 30
0.0
 10
9.7463957545
 20
9.0346166778
 30
0.0
 10
9.7299030634
 20
9.0136158625
 30
0.0
 10
9.7142305335
 20
8.991970371
 30
0.0
 10
9.6993991732
 20
8.9697091223
 30
0.0
 10
9.6854288006
 20
8.9468618528
 30
0.0
 10
9.6723380081
 20
8.923459137
 30
0.0
 10
9.6601443164
 20
8.8995322219
 30
0.0
 10
9.6488640329
 20
8.8751130708
 30
0.0
 10
9.6385121399
 20
8.8502343475
 30
0.0
 10
9.6291024875
 20
8.8249292765
 30
0.0
 10
9.6206476705
 20
8.799231654
 30
0.0
 10
9.6131588864
 20
8.7731758482
 30
0.0
 10
9.6066461472
 20
8.7467966225
 30
0.0
 10
9.6011181897
 20
8.7201293329
 30
0.0
 10
9.596582282
 20
8.6932091422
 30
0.0
 10
9.5918597823
 20
8.6569864772
 30
0.0
 10
9.5884725017
 20
8.6112434559
 30
0.0
 10
9.5884482711
 20
8.5560017718
 30
0.0
 10
9.5924576662
 20
8.500627358
 30
0.0
 10
9.6004790717
 20
8.4454177226
 30
0.0
 10
9.6124689396
 20
8.3906667962
 30
0.0
 10
9.6283628456
 20
8.3366666634
 30
0.0
 10
9.6480756318
 20
8.2837051677
 30
0.0
 10
9.6715017125
 20
8.2320645502
 30
0.0
 10
9.698515923
 20
8.1820200057
 30
0.0
 10
9.7289740411
 20
8.133838217
 30
0.0
 10
9.7627134546
 20
8.0877758603
 30
0.0
 10
9.7995542683
 20
8.0440784164
 30
0.0
 10
9.8393000675
 20
8.0029787663
 30
0.0
 10
9.8817389491
 20
7.9646959164
 30
0.0
 10
9.926644814
 20
7.9294340319
 30
0.0
 10
9.9737783678
 20
7.8973811679
 30
0.0
 10
10.0228884523
 20
7.8687083025
 30
0.0
 10
10.0737134274
 20
7.8435686126
 30
0.0
 10
10.1259825181
 20
7.8220963952
 30
0.0
 10
10.1794168836
 20
7.8044064934
 30
0.0
 10
10.2337326837
 20
7.7905937771
 30
0.0
 10
10.2886365491
 20
7.7807324855
 30
0.0
 10
10.3255373864
 20
7.7768177486
 30
0.0
 10
10.3439824295
 20
7.7755385806
 30
0.0
  0
SPLINE
  5
2DB
100
AcDbEntity
  8
0
100
AcDbSpline
 62
7
  6
CONTINUOUS
 70
0
 71
3
 72
43
 73
39
 74
0
 42
0.0000001
 43
0.0000001
 44
0.0000000001
 40
0.0
 40
0.0
 40
0.0
 40
0.0
 40
0.0149663142
 40
0.029950035
 40
0.0449532393
 40
0.0599779081
 40
0.0900944745
 40
0.1203180138
 40
0.1354758656
 40
0.1506646451
 40
0.1658854604
 40
0.1811392704
 40
0.211744602
 40
0.2424896765
 40
0.2733766065
 40
0.3044049962
 40
0.3355719814
 40
0.3668723107
 40
0.3982984668
 40
0.4298408206
 40
0.461487814
 40
0.4932261687
 40
0.5250411184
 40
0.5569166597
 40
0.5888358159
 40
0.6207809132
 40
0.6527338641
 40
0.6846764564
 40
0.7165906429
 40
0.7484588286
 40
0.7802641546
 40
0.8119907726
 40
0.8436241076
 40
0.8751511044
 40
0.9065604507
 40
0.937842855
 40
0.9689908556
 40
1.0
 40
1.0
 40
1.0
 40
1.0
 10
9.9248972777
 20
9.1884417752
 30
0.0
 10
9.9205000376
 20
9.1816340824
 30
0.0
 10
9.9119406041
 20
9.1678539117
 30
0.0
 10
9.8998312094
 20
9.1467317214
 30
0.0
 10
9.8884572993
 20
9.1251681879
 30
0.0
 10
9.8742799511
 20
9.0958411365
 30
0.0
 10
9.8584570698
 20
9.0581845775
 30
0.0
 10
9.8452650052
 20
9.0194522364
 30
0.0
 10
9.8363067004
 20
8.9878946231
 30
0.0
 10
9.8303862093
 20
8.9639352497
 30
0.0
 10
9.8252779914
 20
8.939736572
 30
0.0
 10
9.8195513843
 20
8.9071556038
 30
0.0
 10
9.8144551496
 20
8.8659534933
 30
0.0
 10
9.8116654407
 20
8.8160480262
 30
0.0
 10
9.8122053592
 20
8.7658377823
 30
0.0
 10
9.8160724325
 20
8.7155454443
 30
0.0
 10
9.8232491922
 20
8.6653920759
 30
0.0
 10
9.833703672
 20
8.6155985726
 30
0.0
 10
9.8473895113
 20
8.5663840499
 30
0.0
 10
9.8642461873
 20
8.5179650687
 30
0.0
 10
9.8841992892
 20
8.4705546556
 30
0.0
 10
9.9071607829
 20
8.4243613624
 30
0.0
 10
9.9330294402
 20
8.3795883632
 30
0.0
 10
9.9616913056
 20
8.3364325854
 30
0.0
 10
9.9930201936
 20
8.2950838558
 30
0.0
 10
10.0268782159
 20
8.2557240618
 30
0.0
 10
10.0631163588
 20
8.2185263281
 30
0.0
 10
10.1015751896
 20
8.1836543066
 30
0.0
 10
10.1420855383
 20
8.1512614563
 30
0.0
 10
10.1844692393
 20
8.1214903848
 30
0.0
 10
10.2285398617
 20
8.0944721621
 30
0.0
 10
10.274103569
 20
8.0703257923
 30
0.0
 10
10.3209599392
 20
8.049157703
 30
0.0
 10
10.3689029254
 20
8.0310612892
 30
0.0
 10
10.4177214183
 20
8.0161164435
 30
0.0
 10
10.4672012952
 20
8.0043892449
 30
0.0
 10
10.5171220139
 20
7.9959316808
 30
0.0
 10
10.550632937
 20
7.9924899733
 30
0.0
 10
10.5673843315
 20
7.9913282602
 30
0.0
  0
SPLINE
  5
2DC
100
AcDbEntity
  8
0
100
AcDbSpline
 62
7
  6
CONTINUOUS
 70
0
 71
3
 72
44
 73
40
 74
0
 42
0.0000001
 43
0.0000001
 44
0.0000000001
 40
0.0
 40
0.0
 40
0.0
 40
0.0
 40
0.0149614458
 40
0.029929736
 40
0.0449076429
 40
0.0598978864
 40
0.0749031166
 40
0.0899258973
 40
0.1049686958
 40
0.1200338677
 40
0.1351236415
 40
0.1502401121
 40
0.180555503
 40
0.2109990156
 40
0.2415815246
 40
0.272310941
 40
0.3031920852
 40
0.3342266305
 40
0.3654131189
 40
0.3967470346
 40
0.4282209334
 40
0.4598246317
 40
0.4915454374
 40
0.5233684185
 40
0.5552767093
 40
0.5872518444
 40
0.6192741128
 40
0.6513229288
 40
0.683377217
 40
0.7154158007
 40
0.7474177933
 40
0.7793629854
 40
0.8112322218
 40
0.8430077687
 40
0.8746736558
 40
0.9062159975
 40
0.937623316
 40
0.9688865041
 40
1.0
 40
1.0
 40
1.0
 40
1.0
 10
10.0500042206
 20
9.2466767144
 30
0.0
 10
10.0445557502
 20
9.2408081434
 30
0.0
 10
10.033880074
 20
9.2288582674
 30
0.0
 10
10.0185607414
 20
9.2103293904
 30
0.0
 10
10.0039513205
 20
9.1912159301
 30
0.0
 10
9.9900707546
 20
9.171542706
 30
0.0
 10
9.9769367859
 20
9.1513347278
 30
0.0
 10
9.964566177
 20
9.1306179099
 30
0.0
 10
9.9529746929
 20
9.1094187243
 30
0.0
 10
9.9421772677
 20
9.0877643495
 30
0.0
 10
9.9321874987
 20
9.065682101
 30
0.0
 10
9.9199515435
 20
9.0356819882
 30
0.0
 10
9.9067382023
 20
8.9972370688
 30
0.0
 10
9.8943126404
 20
8.9499085131
 30
0.0
 10
9.8853620251
 20
8.9015754096
 30
0.0
 10
9.8799323725
 20
8.8524866733
 30
0.0
 10
9.8780506776
 20
8.8028928485
 30
0.0
 10
9.8797260128
 20
8.753047507
 30
0.0
 10
9.8849493078
 20
8.7032052328
 30
0.0
 10
9.8936934368
 20
8.6536205458
 30
0.0
 10
9.9059132376
 20
8.6045465342
 30
0.0
 10
9.9215459278
 20
8.5562336132
 30
0.0
 10
9.9405114245
 20
8.5089282822
 30
0.0
 10
9.9627126066
 20
8.4628718267
 30
0.0
 10
9.9880359256
 20
8.4182991313
 30
0.0
 10
10.0163520353
 20
8.3754375373
 30
0.0
 10
10.0475163423
 20
8.3345056448
 30
0.0
 10
10.0813697349
 20
8.2957121844
 30
0.0
 10
10.1177394932
 20
8.2592550471
 30
0.0
 10
10.1564401165
 20
8.2253202684
 30
0.0
 10
10.1972741733
 20
8.1940809807
 30
0.0
 10
10.2400334105
 20
8.1656966523
 30
0.0
 10
10.2844998035
 20
8.1403123039
 30
0.0
 10
10.3304465429
 20
8.1180576408
 30
0.0
 10
10.3776393409
 20
8.0990464538
 30
0.0
 10
10.4258372577
 20
8.0833761256
 30
0.0
 10
10.4747952033
 20
8.0711270453
 30
0.0
 10
10.5242601041
 20
8.0623621904
 30
0.0
 10
10.5574955561
 20
8.0588629719
 30
0.0
 10
10.574108642
 20
8.0577108505
 30
0.0
  0
SPLINE
  5
2DD
100
AcDbEntity
  8
0
100
AcDbSpline
 62
7
  6
CONTINUOUS
 70
0
 71
3
 72
39
 73
35
 74
0
 42
0.0000001
 43
0.0000001
 44
0.0000000001
 40
0.0
 40
0.0
 40
0.0
 40
0.0
 40
0.0299219257
 40
0.0599014317
 40
0.0899573964
 40
0.1201070977
 40
0.1503658686
 40
0.1807468013
 40
0.2112605054
 40
0.2419149296
 40
0.2727152395
 40
0.3036637549
 40
0.3347599439
 40
0.3660004764
 40
0.3973793249
 40
0.4288879091
 40
0.4605152845
 40
0.4922483684
 40
0.5240721947
 40
0.5559701936
 40
0.5879244947
 40
0.6199162472
 40
0.6519259501
 40
0.6839337914
 40
0.7159199917
 40
0.7478651462
 40
0.7797505623
 40
0.8115585903
 40
0.8432729396
 40
0.8748789747
 40
0.9063639911
 40
0.9377175206
 40
0.9689312026
 40
1.0
 40
1.0
 40
1.0
 40
1.0
 10
10.0601688012
 20
9.2501778125
 30
0.0
 10
10.0505184599
 20
9.238012013
 30
0.0
 10
10.0320947271
 20
9.2129311011
 30
0.0
 10
10.0072859861
 20
9.1733359572
 30
0.0
 10
9.9853948491
 20
9.131919732
 30
0.0
 10
9.9665281791
 20
9.0888840329
 30
0.0
 10
9.9507756336
 20
9.0444348175
 30
0.0
 10
9.9382125537
 20
8.998785664
 30
0.0
 10
9.9288986734
 20
8.9521555884
 30
0.0
 10
9.9228781943
 20
8.9047682609
 30
0.0
 10
9.9201795312
 20
8.8568508594
 30
0.0
 10
9.9208151544
 20
8.8086330135
 30
0.0
 10
9.9247815252
 20
8.7603456921
 30
0.0
 10
9.9320592182
 20
8.7122201055
 30
0.0
 10
9.9426130263
 20
8.6644866214
 30
0.0
 10
9.9563920658
 20
8.6173736644
 30
0.0
 10
9.9733300365
 20
8.5711066246
 30
0.0
 10
9.9933456126
 20
8.5259068125
 30
0.0
 10
10.0163428304
 20
8.4819904247
 30
0.0
 10
10.0422114685
 20
8.4395674848
 30
0.0
 10
10.0708276068
 20
8.3988408546
 30
0.0
 10
10.1020542617
 20
8.360005304
 30
0.0
 10
10.1357420319
 20
8.3232465998
 30
0.0
 10
10.1717297345
 20
8.2887405618
 30
0.0
 10
10.2098452162
 20
8.2566522575
 30
0.0
 10
10.2499061937
 20
8.2271352506
 30
0.0
 10
10.2917211092
 20
8.2003308813
 30
0.0
 10
10.335089986
 20
8.1763675058
 30
0.0
 10
10.3798053978
 20
8.1553599449
 30
0.0
 10
10.4256535505
 20
8.1374089585
 30
0.0
 10
10.4724149497
 20
8.1226007635
 30
0.0
 10
10.5198665964
 20
8.1110065503
 30
0.0
 10
10.5677785091
 20
8.1026822166
 30
0.0
 10
10.5999571683
 20
8.0993311347
 30
0.0
 10
10.6160422719
 20
8.0982156289
 30
0.0
  0
SPLINE
  5
2DE
100
AcDbEntity
  8
0
100
AcDbSpline
 62
7
  6
CONTINUOUS
 70
0
 71
3
 72
45
 73
41
 74
0
 42
0.0000001
 43
0.0000001
 44
0.0000000001
 40
0.0
 40
0.0
 40
0.0
 40
0.0
 40
0.0149630434
 40
0.0299320503
 40
0.0449098394
 40
0.0598991772
 40
0.0749027641
 40
0.0899232215
 40
0.1049630727
 40
0.1200247319
 40
0.1351104924
 40
0.1502225093
 40
0.165362793
 40
0.1805331986
 40
0.2109656763
 40
0.241536651
 40
0.2722545028
 40
0.3031244853
 40
0.3341486617
 40
0.3653259078
 40
0.3966519792
 40
0.4281196448
 40
0.4597188701
 40
0.4914370458
 40
0.5232592633
 40
0.5551686243
 40
0.5871465775
 40
0.6191732786
 40
0.6512279706
 40
0.6832893742
 40
0.7153360846
 40
0.7473469713
 40
0.779301573
 40
0.8111804844
 40
0.8429657309
 40
0.8746411181
 40
0.90619256
 40
0.9376084191
 40
0.9688794408
 40
1.0
 40
1.0
 40
1.0
 40
1.0
 10
10.1429076747
 20
9.2723441266
 30
0.0
 10
10.1377158984
 20
9.2668921115
 30
0.0
 10
10.1275392418
 20
9.2557846965
 30
0.0
 10
10.1129236479
 20
9.2385450377
 30
0.0
 10
10.0989731361
 20
9.2207456524
 30
0.0
 10
10.0857060886
 20
9.202409819
 30
0.0
 10
10.0731394696
 20
9.1835612112
 30
0.0
 10
10.0612895865
 20
9.1642241679
 30
0.0
 10
10.0501717524
 20
9.1444236621
 30
0.0
 10
10.0398002425
 20
9.1241853322
 30
0.0
 10
10.0301885272
 20
9.1035352529
 30
0.0
 10
10.0213490024
 20
9.0825002315
 30
0.0
 10
10.0132929356
 20
9.0611070648
 30
0.0
 10
10.0036010835
 20
9.0321158054
 30
0.0
 10
9.9934973808
 20
8.9951051222
 30
0.0
 10
9.9846660218
 20
8.9497675316
 30
0.0
 10
9.9791573283
 20
8.9036850407
 30
0.0
 10
9.976999804
 20
8.8570973369
 30
0.0
 10
9.9782039349
 20
8.8102445442
 30
0.0
 10
9.9827630604
 20
8.7633686065
 30
0.0
 10
9.9906531133
 20
8.7167113291
 30
0.0
 10
10.0018329588
 20
8.6705133425
 30
0.0
 10
10.0162445924
 20
8.6250128444
 30
0.0
 10
10.0338133214
 20
8.5804443628
 30
0.0
 10
10.0544482474
 20
8.5370375731
 30
0.0
 10
10.0780427814
 20
8.4950161591
 30
0.0
 10
10.1044751389
 20
8.454596661
 30
0.0
 10
10.1336088977
 20
8.4159873179
 30
0.0
 10
10.1652938122
 20
8.3793870755
 30
0.0
 10
10.199366573
 20
8.3449845874
 30
0.0
 10
10.2356515499
 20
8.312957169
 30
0.0
 10
10.2739617391
 20
8.2834699216
 30
0.0
 10
10.3140997562
 20
8.2566749462
 30
0.0
 10
10.3558588177
 20
8.2327105445
 30
0.0
 10
10.3990237141
 20
8.2117004095
 30
0.0
 10
10.4433720816
 20
8.1937531012
 30
0.0
 10
10.4886751668
 20
8.1789615077
 30
0.0
 10
10.5347002102
 20
8.1674022789
 30
0.0
 10
10.5812068477
 20
8.1591354637
 30
0.0
 10
10.6124567828
 20
8.1558394634
 30
0.0
 10
10.6280773475
 20
8.1547561736
 30
0.0
  0
SPLINE
  5
2DF
100
AcDbEntity
  8
0
100
AcDbSpline
 62
7
  6
CONTINUOUS
 70
0
 71
3
 72
42
 73
38
 74
0
 42
0.0000001
 43
0.0000001
 44
0.0000000001
 40
0.0
 40
0.0
 40
0.0
 40
0.0
 40
0.0302736062
 40
0.0454539137
 40
0.0606628489
 40
0.0911650085
 40
0.1217850539
 40
0.1371409584
 40
0.152526375
 40
0.1833820533
 40
0.2143525805
 40
0.2454341113
 40
0.2766214725
 40
0.3079082375
 40
0.3392868144
 40
0.3707485439
 40
0.4022838081
 40
0.4338821477
 40
0.4655323859
 40
0.4972227587
 40
0.5289410501
 40
0.5606747303
 40
0.5924110972
 40
0.6241374186
 40
0.6558410749
 40
0.6875097005
 40
0.7191313242
 40
0.7506945054
 40
0.7821884668
 40
0.8136032208
 40
0.8449296906
 40
0.8761598202
 40
0.9072866844
 40
0.9383045604
 40
0.953772478
 40
0.9692119618
 40
1.0
 40
1.0
 40
1.0
 40
1.0
 10
10.3035285771
 20
9.2869417766
 30
0.0
 10
10.3009871613
 20
9.275288963
 30
0.0
 10
10.2976728435
 20
9.2576780686
 30
0.0
 10
10.2942577239
 20
9.2340220476
 30
0.0
 10
10.291503855
 20
9.2101886104
 30
0.0
 10
10.2893202192
 20
9.180179348
 30
0.0
 10
10.2888202847
 20
9.1500372195
 30
0.0
 10
10.289426691
 20
9.1258679149
 30
0.0
 10
10.2907070392
 20
9.1016319971
 30
0.0
 10
10.2935701153
 20
9.0713316267
 30
0.0
 10
10.2990058052
 20
9.0351172061
 30
0.0
 10
10.3064279478
 20
8.9991233623
 30
0.0
 10
10.3158133864
 20
8.9634623614
 30
0.0
 10
10.3271329319
 20
8.9282445233
 30
0.0
 10
10.340351403
 20
8.8935790251
 30
0.0
 10
10.3554277505
 20
8.8595732583
 30
0.0
 10
10.3723151806
 20
8.8263325809
 30
0.0
 10
10.3909613017
 20
8.7939599717
 30
0.0
 10
10.4113082858
 20
8.7625557192
 30
0.0
 10
10.4332930478
 20
8.7322171115
 30
0.0
 10
10.4568474396
 20
8.7030381375
 30
0.0
 10
10.481898461
 20
8.6751091975
 30
0.0
 10
10.5083684844
 20
8.6485168245
 30
0.0
 10
10.5361754939
 20
8.6233434184
 30
0.0
 10
10.5652333385
 20
8.5996669912
 30
0.0
 10
10.5954519968
 20
8.5775609272
 30
0.0
 10
10.6267378544
 20
8.5570937564
 30
0.0
 10
10.658993993
 20
8.538328943
 30
0.0
 10
10.692120483
 20
8.5213246903
 30
0.0
 10
10.7260147121
 20
8.5061337567
 30
0.0
 10
10.7605716229
 20
8.4928033066
 30
0.0
 10
10.7956843231
 20
8.481374714
 30
0.0
 10
10.8312433499
 20
8.4718836117
 30
0.0
 10
10.8611856504
 20
8.4656074233
 30
0.0
 10
10.8852508723
 20
8.461584679
 30
0.0
 10
10.9093269701
 20
8.4582352418
 30
0.0
 10
10.9274654776
 20
8.4564701041
 30
0.0
 10
10.9395658112
 20
8.4556309431
 30
0.0
  0
SPLINE
  5
2E0
100
AcDbEntity
  8
0
100
AcDbSpline
 62
7
  6
CONTINUOUS
 70
0
 71
3
 72
40
 73
36
 74
0
 42
0.0000001
 43
0.0000001
 44
0.0000000001
 40
0.0
 40
0.0
 40
0.0
 40
0.0
 40
0.0302882289
 40
0.0454758601
 40
0.0606920909
 40
0.0912086562
 40
0.1218425803
 40
0.1525940599
 40
0.183461857
 40
0.2144433303
 40
0.2455344816
 40
0.2767300178
 40
0.3080234259
 40
0.3394070596
 40
0.3708722371
 40
0.4024093486
 40
0.4340079707
 40
0.4656569892
 40
0.4973447265
 40
0.5290590741
 40
0.5607876279
 40
0.5925178266
 40
0.6242370908
 40
0.6559329619
 40
0.6875932409
 40
0.7192061249
 40
0.7507603398
 40
0.78224527
 40
0.813651081
 40
0.8449688402
 40
0.8761906138
 40
0.907309605
 40
0.938320138
 40
0.9692179969
 40
1.0
 40
1.0
 40
1.0
 40
1.0
 10
10.362725537
 20
9.2832648055
 30
0.0
 10
10.360489828
 20
9.2724649759
 30
0.0
 10
10.3575946022
 20
9.2561491119
 30
0.0
 10
10.3546576477
 20
9.2342433251
 30
0.0
 10
10.3523292962
 20
9.2121803199
 30
0.0
 10
10.3505764514
 20
9.1844125815
 30
0.0
 10
10.3503290449
 20
9.1509326039
 30
0.0
 10
10.3519359983
 20
9.1173619531
 30
0.0
 10
10.3553923237
 20
9.0838041614
 30
0.0
 10
10.3606872905
 20
9.0503618951
 30
0.0
 10
10.3678045643
 20
9.0171376674
 30
0.0
 10
10.3767222314
 20
8.9842332499
 30
0.0
 10
10.3874128747
 20
8.9517494376
 30
0.0
 10
10.3998436572
 20
8.9197857231
 30
0.0
 10
10.4139764239
 20
8.8884399988
 30
0.0
 10
10.4297678184
 20
8.8578082586
 30
0.0
 10
10.4471694168
 20
8.8279843062
 30
0.0
 10
10.4661278748
 20
8.7990594697
 30
0.0
 10
10.4865850913
 20
8.7711223243
 30
0.0
 10
10.5084783855
 20
8.7442584223
 30
0.0
 10
10.5317406882
 20
8.7185500332
 30
0.0
 10
10.5563007459
 20
8.694075893
 30
0.0
 10
10.5820833381
 20
8.6709109645
 30
0.0
 10
10.6090095063
 20
8.6491262092
 30
0.0
 10
10.6369967943
 20
8.6287883707
 30
0.0
 10
10.6659594993
 20
8.6099597717
 30
0.0
 10
10.6958089325
 20
8.5926981229
 30
0.0
 10
10.7264536882
 20
8.5770563488
 30
0.0
 10
10.7577999248
 20
8.5630824218
 30
0.0
 10
10.7897516379
 20
8.5508192249
 30
0.0
 10
10.8222109988
 20
8.5403043967
 30
0.0
 10
10.855078477
 20
8.5315702713
 30
0.0
 10
10.8882537774
 20
8.5246436502
 30
0.0
 10
10.9216338803
 20
8.5195460108
 30
0.0
 10
10.9440013466
 20
8.5173730234
 30
0.0
 10
10.9551831001
 20
8.5165975661
 30
0.0
  0
SPLINE
  5
2E1
100
AcDbEntity
  8
0
100
AcDbSpline
 62
7
  6
CONTINUOUS
 70
0
 71
3
 72
19
 73
15
 74
0
 42
0.0000001
 43
0.0000001
 44
0.0000000001
 40
0.0
 40
0.0
 40
0.0
 40
0.0
 40
0.0568793977
 40
0.1131988516
 40
0.1692595371
 40
0.2253671137
 40
0.2818264102
 40
0.3389362241
 40
0.3969842137
 40
0.4562433196
 40
0.5793318045
 40
0.7100641234
 40
0.8499042512
 40
1.0
 40
1.0
 40
1.0
 40
1.0
 10
12.3031784793
 20
7.8068444677
 30
0.0
 10
12.3039949345
 20
7.8066065655
 30
0.0
 10
12.3056377159
 20
7.8061920187
 30
0.0
 10
12.3081332572
 20
7.8057584134
 30
0.0
 10
12.3106432609
 20
7.8055172529
 30
0.0
 10
12.3131664019
 20
7.8054686467
 30
0.0
 10
12.315701581
 20
7.8056126281
 30
0.0
 10
12.31824762
 20
7.8059490566
 30
0.0
 10
12.3208035255
 20
7.8064776432
 30
0.0
 10
12.3242662112
 20
7.8074501802
 30
0.0
 10
12.3286342273
 20
7.8091712547
 30
0.0
 10
12.3338238231
 20
7.8119728989
 30
0.0
 10
12.3390232545
 20
7.8155291101
 30
0.0
 10
12.3423681727
 20
7.8182958218
 30
0.0
 10
12.3440417659
 20
7.8197908323
 30
0.0
  0
SPLINE
  5
2E2
100
AcDbEntity
  8
0
100
AcDbSpline
 62
7
  6
CONTINUOUS
 70
0
 71
3
 72
39
 73
35
 74
0
 42
0.0000001
 43
0.0000001
 44
0.0000000001
 40
0.0
 40
0.0
 40
0.0
 40
0.0
 40
0.0305092427
 40
0.061126222
 40
0.0918504959
 40
0.1226805245
 40
0.1536136967
 40
0.1846463672
 40
0.2157739024
 40
0.2469907358
 40
0.2782904303
 40
0.3096657471
 40
0.3411087217
 40
0.3726107437
 40
0.4041626429
 40
0.4357547782
 40
0.46737713
 40
0.4990193957
 40
0.5306710869
 40
0.5623216275
 40
0.593960452
 40
0.6255771047
 40
0.6571613367
 40
0.6887032032
 40
0.7201931573
 40
0.7516221423
 40
0.782981681
 40
0.8142639577
 40
0.8454619094
 40
0.8765692551
 40
0.9075807148
 40
0.9384916198
 40
0.9692991058
 40
1.0
 40
1.0
 40
1.0
 40
1.0
 10
10.4308294188
 20
9.2736228221
 30
0.0
 10
10.4302553312
 20
9.2634153618
 30
0.0
 10
10.429629888
 20
9.2429310853
 30
0.0
 10
10.430256509
 20
9.2121460028
 30
0.0
 10
10.4324443495
 20
9.1813239034
 30
0.0
 10
10.4361877381
 20
9.1505454612
 30
0.0
 10
10.4414769172
 20
9.1198898781
 30
0.0
 10
10.4482981608
 20
9.089436393
 30
0.0
 10
10.4566337811
 20
9.0592636152
 30
0.0
 10
10.4664621905
 20
9.0294494478
 30
0.0
 10
10.4777579543
 20
9.0000708551
 30
0.0
 10
10.490491858
 20
8.9712036737
 30
0.0
 10
10.5046309824
 20
8.9429224165
 30
0.0
 10
10.5201387888
 20
8.9153000819
 30
0.0
 10
10.536975213
 20
8.8884079671
 30
0.0
 10
10.5550967687
 20
8.8623154853
 30
0.0
 10
10.5744566577
 20
8.8370899864
 30
0.0
 10
10.5950048856
 20
8.8127965803
 30
0.0
 10
10.6166883979
 20
8.7894979739
 30
0.0
 10
10.6394512154
 20
8.7672543099
 30
0.0
 10
10.6632345779
 20
8.7461230126
 30
0.0
 10
10.6879770951
 20
8.7261586404
 30
0.0
 10
10.713614904
 20
8.7074127458
 30
0.0
 10
10.7400818328
 20
8.6899337431
 30
0.0
 10
10.7673095702
 20
8.6737667839
 30
0.0
 10
10.7952278407
 20
8.65895364
 30
0.0
 10
10.823764581
 20
8.6455325907
 30
0.0
 10
10.8528461328
 20
8.6335383235
 30
0.0
 10
10.8823974174
 20
8.6230018689
 30
0.0
 10
10.9123421829
 20
8.6139504531
 30
0.0
 10
10.9426030003
 20
8.6064075904
 30
0.0
 10
10.9731021268
 20
8.6003926737
 30
0.0
 10
11.0037596367
 20
8.5959215672
 30
0.0
 10
11.0242891594
 20
8.5939741051
 30
0.0
 10
11.0345523224
 20
8.5932623523
 30
0.0
  0
SPLINE
  5
2E3
100
AcDbEntity
  8
0
100
AcDbSpline
 62
7
  6
CONTINUOUS
 70
0
 71
3
 72
37
 73
33
 74
0
 42
0.0000001
 43
0.0000001
 44
0.0000000001
 40
0.0
 40
0.0
 40
0.0
 40
0.0
 40
0.0305931882
 40
0.0612902605
 40
0.0920898178
 40
0.1229894877
 40
0.1539859549
 40
0.1850749999
 40
0.216251546
 40
0.2475097159
 40
0.2788428914
 40
0.3102437773
 40
0.3417044703
 40
0.3732165324
 40
0.4047710709
 40
0.4363588193
 40
0.4679702193
 40
0.4995955041
 40
0.5628314401
 40
0.6260042626
 40
0.6575512377
 40
0.6890539697
 40
0.7205036478
 40
0.7518919346
 40
0.7832110388
 40
0.8144537955
 40
0.8456137206
 40
0.8766850689
 40
0.9076630509
 40
0.9385431759
 40
0.9693234482
 40
1.0
 40
1.0
 40
1.0
 40
1.0
 10
10.5567717509
 20
9.2388309334
 30
0.0
 10
10.5567321885
 20
9.2308935158
 30
0.0
 10
10.5570455364
 20
9.2149870465
 30
0.0
 10
10.5586848829
 20
9.191141284
 30
0.0
 10
10.5614903428
 20
9.1673238719
 30
0.0
 10
10.5654550599
 20
9.1435932913
 30
0.0
 10
10.5705693878
 20
9.1200068381
 30
0.0
 10
10.5768209018
 20
9.0966217188
 30
0.0
 10
10.5841943951
 20
9.0734945692
 30
0.0
 10
10.5926719558
 20
9.0506814149
 30
0.0
 10
10.6022330096
 20
9.0282375135
 30
0.0
 10
10.6128543674
 20
9.00621723
 30
0.0
 10
10.6245102895
 20
8.9846739059
 30
0.0
 10
10.6371725028
 20
8.9636597277
 30
0.0
 10
10.6508103349
 20
8.9432255549
 30
0.0
 10
10.665390612
 20
8.9234209909
 30
0.0
 10
10.6808784586
 20
8.9042935795
 30
0.0
 10
10.7026841031
 20
8.8797601072
 30
0.0
 10
10.7320121232
 20
8.8510178323
 30
0.0
 10
10.7638398578
 20
8.8251025316
 30
0.0
 10
10.7906119741
 20
8.8062244327
 30
0.0
 10
10.8112888858
 20
8.7930313763
 30
0.0
 10
10.8325192465
 20
8.7808320368
 30
0.0
 10
10.8542520981
 20
8.7696555822
 30
0.0
 10
10.8764346771
 20
8.7595292178
 30
0.0
 10
10.8990132913
 20
8.7504774828
 30
0.0
 10
10.9219332373
 20
8.7425223704
 30
0.0
 10
10.9451390298
 20
8.7356831666
 30
0.0
 10
10.9685743188
 20
8.7299765612
 30
0.0
 10
10.992182706
 20
8.7254162222
 30
0.0
 10
11.0159060218
 20
8.7220135788
 30
0.0
 10
11.0317886246
 20
8.7205196558
 30
0.0
 10
11.039728699
 20
8.7199690098
 30
0.0
  0
SPLINE
  5
2E4
100
AcDbEntity
  8
0
100
AcDbSpline
 62
7
  6
CONTINUOUS
 70
0
 71
3
 72
49
 73
45
 74
0
 42
0.0000001
 43
0.0000001
 44
0.0000000001
 40
0.0
 40
0.0
 40
0.0
 40
0.0
 40
0.0149623725
 40
0.0299308884
 40
0.0449083567
 40
0.0598975353
 40
0.0749011141
 40
0.0899217018
 40
0.1049618118
 40
0.1200238461
 40
0.1351100832
 40
0.1502226677
 40
0.1653635973
 40
0.1805347111
 40
0.1957376844
 40
0.2109740183
 40
0.2262450304
 40
0.2415518534
 40
0.2568954288
 40
0.2722765003
 40
0.2876956147
 40
0.3031531212
 40
0.3341787395
 40
0.3653571977
 40
0.3966841953
 40
0.4281524592
 40
0.4597519225
 40
0.4914699588
 40
0.5232916563
 40
0.555200122
 40
0.5871768221
 40
0.6192019404
 40
0.6512547548
 40
0.6833140275
 40
0.7153584011
 40
0.7473667946
 40
0.7793187984
 40
0.8111950598
 40
0.8429776521
 40
0.8746504269
 40
0.9061993455
 40
0.9376127732
 40
0.9688815638
 40
1.0
 40
1.0
 40
1.0
 40
1.0
 10
9.6849143608
 20
9.1097775316
 30
0.0
 10
9.6781944291
 20
9.1026842931
 30
0.0
 10
9.665023353
 20
9.0882347778
 30
0.0
 10
9.6461104847
 20
9.0658123998
 30
0.0
 10
9.6280614024
 20
9.0426662752
 30
0.0
 10
9.6108998167
 20
9.0188266208
 30
0.0
 10
9.5946477502
 20
8.9943240666
 30
0.0
 10
9.5793261207
 20
8.9691902746
 30
0.0
 10
9.5649546946
 20
8.9434576247
 30
0.0
 10
9.5515520258
 20
8.9171592837
 30
0.0
 10
9.5391353128
 20
8.8903291952
 30
0.0
 10
9.5277205622
 20
8.8630019421
 30
0.0
 10
9.5173225297
 20
8.8352127363
 30
0.0
 10
9.5079545341
 20
8.8069974317
 30
0.0
 10
9.4996286287
 20
8.7783923994
 30
0.0
 10
9.4923555947
 20
8.7494344958
 30
0.0
 10
9.4861447301
 20
8.720161062
 30
0.0
 10
9.4810039956
 20
8.6906098402
 30
0.0
 10
9.4769400679
 20
8.66081887
 30
0.0
 10
9.47395812
 20
8.6308266843
 30
0.0
 10
9.4720619651
 20
8.6006714413
 30
0.0
 10
9.4709833725
 20
8.5602542908
 30
0.0
 10
9.4723688071
 20
8.5095101607
 30
0.0
 10
9.4783787225
 20
8.4486774712
 30
0.0
 10
9.4887060956
 20
8.388133131
 30
0.0
 10
9.5032974184
 20
8.3281908691
 30
0.0
 10
9.5220769674
 20
8.2691585022
 30
0.0
 10
9.5449476754
 20
8.2113398269
 30
0.0
 10
9.5717915657
 20
8.1550321899
 30
0.0
 10
9.6024701321
 20
8.1005251016
 30
0.0
 10
9.6368253915
 20
8.0480988616
 30
0.0
 10
9.6746804619
 20
7.9980230516
 30
0.0
 10
9.7158404637
 20
7.9505551168
 30
0.0
 10
9.760093729
 20
7.9059392468
 30
0.0
 10
9.807212596
 20
7.8644048906
 30
0.0
 10
9.8569547527
 20
7.8261657288
 30
0.0
 10
9.9090644829
 20
7.7914186555
 30
0.0
 10
9.9632737965
 20
7.7603425053
 30
0.0
 10
10.0193039716
 20
7.7330974482
 30
0.0
 10
10.0768669784
 20
7.7098240069
 30
0.0
 10
10.1356664507
 20
7.6906422527
 30
0.0
 10
10.195400985
 20
7.6756514415
 30
0.0
 10
10.2557592389
 20
7.6649293589
 30
0.0
 10
10.2963161485
 20
7.6606532575
 30
0.0
 10
10.3165888838
 20
7.6592473386
 30
0.0
  0
SPLINE
  5
2E5
100
AcDbEntity
  8
0
100
AcDbSpline
 62
7
  6
CONTINUOUS
 70
0
 71
3
 72
15
 73
11
 74
0
 42
0.0000001
 43
0.0000001
 44
0.0000000001
 40
0.0
 40
0.0
 40
0.0
 40
0.0
 40
0.1153557607
 40
0.2344140112
 40
0.3567266907
 40
0.4818215128
 40
0.6092078629
 40
0.7383795842
 40
0.8688189424
 40
1.0
 40
1.0
 40
1.0
 40
1.0
 10
10.8284105324
 20
8.8471345126
 30
0.0
 10
10.8299129996
 20
8.8538146662
 30
0.0
 10
10.8331886982
 20
8.8673401648
 30
0.0
 10
10.8387897279
 20
8.8877626374
 30
0.0
 10
10.8451363238
 20
8.9085709804
 30
0.0
 10
10.8521992814
 20
8.9296688999
 30
0.0
 10
10.8599461035
 20
8.9509590456
 30
0.0
 10
10.8683411212
 20
8.9723431259
 30
0.0
 10
10.8773455513
 20
8.9937222141
 30
0.0
 10
10.8837178038
 20
9.0078851802
 30
0.0
 10
10.8869974662
 20
9.0149471314
 30
0.0
  0
SPLINE
  5
2E6
100
AcDbEntity
  8
0
100
AcDbSpline
 62
7
  6
CONTINUOUS
 70
0
 71
3
 72
36
 73
32
 74
0
 42
0.0000001
 43
0.0000001
 44
0.0000000001
 40
0.0
 40
0.0
 40
0.0
 40
0.0
 40
0.0148866872
 40
0.0292138365
 40
0.0433636626
 40
0.0576923565
 40
0.072510972
 40
0.0880748623
 40
0.0962047957
 40
0.1045927167
 40
0.1222060761
 40
0.1410398959
 40
0.1611835528
 40
0.1827080273
 40
0.2056692336
 40
0.230115416
 40
0.2560880642
 40
0.2836266161
 40
0.3127681787
 40
0.3435504151
 40
0.3760105846
 40
0.4101863787
 40
0.4461143421
 40
0.5233497912
 40
0.6078856406
 40
0.699544289
 40
0.7973681248
 40
0.8479172761
 40
0.898956489
 40
0.9498801366
 40
1.0
 40
1.0
 40
1.0
 40
1.0
 10
10.4300612213
 20
7.9159228542
 30
0.0
 10
10.4298930723
 20
7.9163871217
 30
0.0
 10
10.4296334819
 20
7.917326083
 30
0.0
 10
10.4294894915
 20
7.9187640268
 30
0.0
 10
10.4295920139
 20
7.920187028
 30
0.0
 10
10.42993091
 20
7.9215888496
 30
0.0
 10
10.4304960632
 20
7.9229654665
 30
0.0
 10
10.4311386338
 20
7.9240737379
 30
0.0
 10
10.4317513906
 20
7.9249442593
 30
0.0
 10
10.4324536982
 20
7.9258328713
 30
0.0
 10
10.4334661899
 20
7.9269255877
 30
0.0
 10
10.434860902
 20
7.9281848859
 30
0.0
 10
10.436450901
 20
7.9294121531
 30
0.0
 10
10.4382332156
 20
7.9306058117
 30
0.0
 10
10.4402055763
 20
7.9317646153
 30
0.0
 10
10.4423664615
 20
7.9328868852
 30
0.0
 10
10.4447148753
 20
7.9339711136
 30
0.0
 10
10.4472505079
 20
7.9350153828
 30
0.0
 10
10.4499735253
 20
7.9360178719
 30
0.0
 10
10.4528846885
 20
7.9369762818
 30
0.0
 10
10.4559851225
 20
7.9378883044
 30
0.0
 10
10.4592763629
 20
7.9387510681
 30
0.0
 10
10.4640369279
 20
7.939858407
 30
0.0
 10
10.4704814919
 20
7.9410866963
 30
0.0
 10
10.4788073952
 20
7.9422655467
 30
0.0
 10
10.4878578729
 20
7.9431327221
 30
0.0
 10
10.4958119551
 20
7.9435410419
 30
0.0
 10
10.5024257493
 20
7.9436576397
 30
0.0
 10
10.5074848782
 20
7.9436283086
 30
0.0
 10
10.5125275421
 20
7.9434765415
 30
0.0
 10
10.515874365
 20
7.9432904071
 30
0.0
 10
10.5175328181
 20
7.943175393
 30
0.0
  0
SPLINE
  5
2E7
100
AcDbEntity
  8
0
100
AcDbSpline
 62
7
  6
CONTINUOUS
 70
0
 71
3
 72
71
 73
67
 74
0
 42
0.0000001
 43
0.0000001
 44
0.0000000001
 40
0.0
 40
0.0
 40
0.0
 40
0.0
 40
0.0156748284
 40
0.0314021605
 40
0.0471806558
 40
0.0630088915
 40
0.0788847439
 40
0.0948057527
 40
0.1107690085
 40
0.1267712319
 40
0.1428087898
 40
0.1588777347
 40
0.1749738405
 40
0.1910926414
 40
0.2072294724
 40
0.2233795107
 40
0.239537818
 40
0.2556993843
 40
0.2718591712
 40
0.2880121557
 40
0.3041533741
 40
0.3202779654
 40
0.3363812138
 40
0.3524585909
 40
0.368505796
 40
0.3845187958
 40
0.4004938614
 40
0.4164276039
 40
0.4323170078
 40
0.448159461
 40
0.4639527825
 40
0.4796952463
 40
0.4953856017
 40
0.5110230901
 40
0.5266074569
 40
0.5421389589
 40
0.5576183674
 40
0.5730469657
 40
0.5884265413
 40
0.6037593734
 40
0.619048214
 40
0.6342962646
 40
0.6495071467
 40
0.6646848675
 40
0.6798337809
 40
0.6949585439
 40
0.710064069
 40
0.7251554728
 40
0.7402380225
 40
0.75531708
 40
0.7703980444
 40
0.7854862945
 40
0.8005871312
 40
0.815705721
 40
0.8308470418
 40
0.8460158305
 40
0.8612165348
 40
0.8764532681
 40
0.8917297694
 40
0.9070493658
 40
0.9224149473
 40
0.937828925
 40
0.9532932602
 40
0.9688093114
 40
0.9843781663
 40
1.0
 40
1.0
 40
1.0
 40
1.0
 10
10.3383090404
 20
9.2895368964
 30
0.0
 10
10.3508318362
 20
9.2886684376
 30
0.0
 10
10.3758810172
 20
9.2863143078
 30
0.0
 10
10.4132970322
 20
9.2809564497
 30
0.0
 10
10.4505328313
 20
9.2737785565
 30
0.0
 10
10.4874974822
 20
9.2647981994
 30
0.0
 10
10.5241023875
 20
9.2540369599
 30
0.0
 10
10.5602593091
 20
9.2415208747
 30
0.0
 10
10.5958812459
 20
9.2272801125
 30
0.0
 10
10.6308824473
 20
9.2113490237
 30
0.0
 10
10.6651786716
 20
9.193766005
 30
0.0
 10
10.6986873742
 20
9.1745734273
 30
0.0
 10
10.7313279079
 20
9.1538175266
 30
0.0
 10
10.7630217154
 20
9.1315482951
 30
0.0
 10
10.7936925174
 20
9.1078193607
 30
0.0
 10
10.8232664951
 20
9.0826878588
 30
0.0
 10
10.8516724694
 20
9.0562142965
 30
0.0
 10
10.8788420687
 20
9.0284624056
 30
0.0
 10
10.9047098938
 20
8.9994989896
 30
0.0
 10
10.9292136738
 20
8.969393764
 30
0.0
 10
10.9522944158
 20
8.9382191889
 30
0.0
 10
10.973896546
 20
8.9060502956
 30
0.0
 10
10.9939680431
 20
8.8729645074
 30
0.0
 10
11.0124605631
 20
8.8390414533
 30
0.0
 10
11.0293295555
 20
8.8043627786
 30
0.0
 10
11.04453437
 20
8.7690119485
 30
0.0
 10
11.0580383548
 20
8.733074049
 30
0.0
 10
11.0698089443
 20
8.6966355834
 30
0.0
 10
11.0798177394
 20
8.659784265
 30
0.0
 10
11.0880405773
 20
8.6226088083
 30
0.0
 10
11.0944575876
 20
8.5851987147
 30
0.0
 10
11.099053242
 20
8.5476440595
 30
0.0
 10
11.101816392
 20
8.5100352759
 30
0.0
 10
11.1027402974
 20
8.4724629384
 30
0.0
 10
11.1018226439
 20
8.435017546
 30
0.0
 10
11.0990655507
 20
8.3977893049
 30
0.0
 10
11.0944755669
 20
8.3608679121
 30
0.0
 10
11.0880636585
 20
8.3243423399
 30
0.0
 10
11.0798451837
 20
8.288300621
 30
0.0
 10
11.0698398586
 20
8.2528296369
 30
0.0
 10
11.0580717117
 20
8.2180149074
 30
0.0
 10
11.0445690305
 20
8.1839403828
 30
0.0
 10
11.0293642947
 20
8.1506882395
 30
0.0
 10
11.0124940981
 20
8.1183386809
 30
0.0
 10
10.9939990622
 20
8.0869697417
 30
0.0
 10
10.9739237392
 20
8.0566570972
 30
0.0
 10
10.9523165054
 20
8.0274738782
 30
0.0
 10
10.9292294445
 20
7.9994904917
 30
0.0
 10
10.9047182217
 20
7.9727744488
 30
0.0
 10
10.878841948
 20
7.9473901986
 30
0.0
 10
10.8516630368
 20
7.9233989713
 30
0.0
 10
10.8232470509
 20
7.9008586276
 30
0.0
 10
10.7936625424
 20
7.879823518
 30
0.0
 10
10.7629808845
 20
7.8603443511
 30
0.0
 10
10.7312760982
 20
7.8424680675
 30
0.0
 10
10.6986246695
 20
7.8262377289
 30
0.0
 10
10.6651053618
 20
7.8116924151
 30
0.0
 10
10.6307990234
 20
7.7988671303
 30
0.0
 10
10.5957883913
 20
7.7877927227
 30
0.0
 10
10.5601578855
 20
7.7784958042
 30
0.0
 10
10.5239934204
 20
7.7709987088
 30
0.0
 10
10.4873821376
 20
7.7653193934
 30
0.0
 10
10.4504123993
 20
7.7614714959
 30
0.0
 10
10.4131728954
 20
7.7594641327
 30
0.0
 10
10.3757546246
 20
7.7593020817
 30
0.0
 10
10.3507894982
 20
7.7604226771
 30
0.0
 10
10.3383090404
 20
7.7612881998
 30
0.0
  0
SPLINE
  5
2E8
100
AcDbEntity
  8
0
100
AcDbSpline
 62
7
  6
CONTINUOUS
 70
0
 71
3
 72
23
 73
19
 74
0
 42
0.0000001
 43
0.0000001
 44
0.0000000001
 40
0.0
 40
0.0
 40
0.0
 40
0.0
 40
0.105096337
 40
0.205704863
 40
0.3007709855
 40
0.3895655268
 40
0.4716948325
 40
0.5470500378
 40
0.6157419677
 40
0.6780335892
 40
0.7342859436
 40
0.784923145
 40
0.8304144373
 40
0.8712644902
 40
0.9080196601
 40
0.9412764299
 40
0.971693878
 40
1.0
 40
1.0
 40
1.0
 40
1.0
 10
10.5175328181
 20
7.943175393
 30
0.0
 10
10.5190929572
 20
7.943067197
 30
0.0
 10
10.5221440721
 20
7.9428161117
 30
0.0
 10
10.5265932604
 20
7.9423249333
 30
0.0
 10
10.5307856519
 20
7.9417347188
 30
0.0
 10
10.5346858645
 20
7.9410560531
 30
0.0
 10
10.5382726598
 20
7.9403000616
 30
0.0
 10
10.5415371726
 20
7.9394774082
 30
0.0
 10
10.5444800167
 20
7.9385977133
 30
0.0
 10
10.5471082748
 20
7.9376692642
 30
0.0
 10
10.5494328868
 20
7.936698953
 30
0.0
 10
10.5514667238
 20
7.9356923836
 30
0.0
 10
10.5532232665
 20
7.9346540579
 30
0.0
 10
10.5547155654
 20
7.9335872264
 30
0.0
 10
10.5559558227
 20
7.9324945027
 30
0.0
 10
10.5569546913
 20
7.9313773303
 30
0.0
 10
10.5577208195
 20
7.9302375429
 30
0.0
 10
10.5580912984
 20
7.9294410108
 30
0.0
 10
10.5582349789
 20
7.9290450649
 30
0.0
  0
SPLINE
  5
2E9
100
AcDbEntity
  8
0
100
AcDbSpline
 62
7
  6
CONTINUOUS
 70
0
 71
3
 72
25
 73
21
 74
0
 42
0.0000001
 43
0.0000001
 44
0.0000000001
 40
0.0
 40
0.0
 40
0.0
 40
0.0
 40
0.0616475282
 40
0.0924812782
 40
0.1233236452
 40
0.1850399949
 40
0.2468243989
 40
0.277751634
 40
0.3087038677
 40
0.3706878948
 40
0.4328012861
 40
0.4950619216
 40
0.5574860801
 40
0.6200882709
 40
0.6828811113
 40
0.7458751472
 40
0.8090789555
 40
0.8724985283
 40
0.936138578
 40
1.0
 40
1.0
 40
1.0
 40
1.0
 10
10.7751099816
 20
6.2597717275
 30
0.0
 10
10.7673106354
 20
6.2522381169
 30
0.0
 10
10.7553031248
 20
6.2412481497
 30
0.0
 10
10.7387224877
 20
6.2272581101
 30
0.0
 10
10.7217622876
 20
6.2137104429
 30
0.0
 10
10.6998739966
 20
6.1976262963
 30
0.0
 10
10.6771428565
 20
6.1827298926
 30
0.0
 10
10.6584842023
 20
6.1715445627
 30
0.0
 10
10.6395032262
 20
6.1608437756
 30
0.0
 10
10.6152167915
 20
6.1484041795
 30
0.0
 10
10.5852757612
 20
6.1350234812
 30
0.0
 10
10.5545971559
 20
6.1232150725
 30
0.0
 10
10.5232587797
 20
6.1130089181
 30
0.0
 10
10.4913394378
 20
6.1044305601
 30
0.0
 10
10.4589195709
 20
6.0975015464
 30
0.0
 10
10.4260807783
 20
6.0922392095
 30
0.0
 10
10.3929058562
 20
6.0886567473
 30
0.0
 10
10.3594779495
 20
6.0867630311
 30
0.0
 10
10.3258823811
 20
6.0865627627
 30
0.0
 10
10.3034660925
 20
6.0875568871
 30
0.0
 10
10.292259923
 20
6.0883340376
 30
0.0
  0
SPLINE
  5
2EA
100
AcDbEntity
  8
0
100
AcDbSpline
 62
7
  6
CONTINUOUS
 70
0
 71
3
 72
23
 73
19
 74
0
 42
0.0000001
 43
0.0000001
 44
0.0000000001
 40
0.0
 40
0.0
 40
0.0
 40
0.0
 40
0.0616344182
 40
0.1232987718
 40
0.1850146985
 40
0.2468032865
 40
0.3086848521
 40
0.3706787282
 40
0.4328030652
 40
0.4950746483
 40
0.5575087332
 40
0.620118896
 40
0.6829169309
 40
0.7459126594
 40
0.8091141429
 40
0.8725267486
 40
0.9361553245
 40
1.0
 40
1.0
 40
1.0
 40
1.0
 10
10.7750352059
 20
6.2598517792
 30
0.0
 10
10.767268885
 20
6.2526305993
 30
0.0
 10
10.7513493367
 20
6.2385905859
 30
0.0
 10
10.7263903199
 20
6.2188091503
 30
0.0
 10
10.7004055977
 20
6.2003484405
 30
0.0
 10
10.6734586485
 20
6.1832536846
 30
0.0
 10
10.6456141813
 20
6.1675658262
 30
0.0
 10
10.6169393567
 20
6.1533226729
 30
0.0
 10
10.5875032527
 20
6.1405584714
 30
0.0
 10
10.5573767959
 20
6.1293039142
 30
0.0
 10
10.5266325653
 20
6.1195860383
 30
0.0
 10
10.4953446148
 20
6.1114281679
 30
0.0
 10
10.4635883084
 20
6.1048498812
 30
0.0
 10
10.431440077
 20
6.0998669064
 30
0.0
 10
10.3989774478
 20
6.0964912192
 30
0.0
 10
10.3662781664
 20
6.0947307661
 30
0.0
 10
10.333422108
 20
6.0945897939
 30
0.0
 10
10.3115008713
 20
6.0955740401
 30
0.0
 10
10.3005421258
 20
6.0963340316
 30
0.0
  0
SPLINE
  5
2EB
100
AcDbEntity
  8
0
100
AcDbSpline
 62
7
  6
CONTINUOUS
 70
0
 71
3
 72
23
 73
19
 74
0
 42
0.0000001
 43
0.0000001
 44
0.0000000001
 40
0.0
 40
0.0
 40
0.0
 40
0.0
 40
0.0616482073
 40
0.123319441
 40
0.1850364722
 40
0.2468215609
 40
0.3086962089
 40
0.3706809247
 40
0.4327950044
 40
0.4950563302
 40
0.5574811788
 40
0.6200840686
 40
0.6828776081
 40
0.745872322
 40
0.8090769389
 40
0.8724968681
 40
0.9361383341
 40
1.0
 40
1.0
 40
1.0
 40
1.0
 10
10.6456673392
 20
6.4336603236
 30
0.0
 10
10.6402807593
 20
6.4284572687
 30
0.0
 10
10.6292233261
 20
6.4183369385
 30
0.0
 10
10.6118419566
 20
6.4040668494
 30
0.0
 10
10.5937058107
 20
6.3907399977
 30
0.0
 10
10.5748612169
 20
6.3783905327
 30
0.0
 10
10.555355495
 20
6.3670494018
 30
0.0
 10
10.5352378548
 20
6.356745182
 30
0.0
 10
10.5145589863
 20
6.3475037733
 30
0.0
 10
10.4933709992
 20
6.3393484106
 30
0.0
 10
10.4717272734
 20
6.3322995849
 30
0.0
 10
10.4496823271
 20
6.3263749998
 30
0.0
 10
10.4272916906
 20
6.3215895372
 30
0.0
 10
10.4046117168
 20
6.3179551464
 30
0.0
 10
10.3816996382
 20
6.3154809799
 30
0.0
 10
10.358612754
 20
6.3141730591
 30
0.0
 10
10.335410142
 20
6.3140347889
 30
0.0
 10
10.319928406
 20
6.3147213565
 30
0.0
 10
10.3121889732
 20
6.315258088
 30
0.0
  0
SPLINE
  5
2EC
100
AcDbEntity
  8
0
100
AcDbSpline
 62
7
  6
CONTINUOUS
 70
0
 71
3
 72
17
 73
13
 74
0
 42
0.0000001
 43
0.0000001
 44
0.0000000001
 40
0.0
 40
0.0
 40
0.0
 40
0.0
 40
0.1234526333
 40
0.1853239547
 40
0.2472942113
 40
0.3715364522
 40
0.4962299916
 40
0.5587625515
 40
0.6214182693
 40
0.7470936875
 40
0.8732854148
 40
1.0
 40
1.0
 40
1.0
 40
1.0
 10
10.7308942651
 20
6.5510340823
 30
0.0
 10
10.7226954556
 20
6.5473635508
 30
0.0
 10
10.7102092223
 20
6.542239754
 30
0.0
 10
10.6932579976
 20
6.5361965057
 30
0.0
 10
10.6760712148
 20
6.530667169
 30
0.0
 10
10.6542205761
 20
6.5247477331
 30
0.0
 10
10.6320061873
 20
6.5201808705
 30
0.0
 10
10.6140443403
 20
6.5173410456
 30
0.0
 10
10.5959333486
 20
6.5150418975
 30
0.0
 10
10.5731061921
 20
6.5131982819
 30
0.0
 10
10.5455492155
 20
6.512640567
 30
0.0
 10
10.5271481491
 20
6.5133700381
 30
0.0
 10
10.5179499443
 20
6.5140079357
 30
0.0
  0
SPLINE
  5
2ED
100
AcDbEntity
  8
0
100
AcDbSpline
 62
7
  6
CONTINUOUS
 70
0
 71
3
 72
71
 73
67
 74
0
 42
0.0000001
 43
0.0000001
 44
0.0000000001
 40
0.0
 40
0.0
 40
0.0
 40
0.0
 40
0.0156218337
 40
0.0311906886
 40
0.0467067398
 40
0.062171075
 40
0.0775850527
 40
0.0929506342
 40
0.1082702306
 40
0.1235467319
 40
0.1387834652
 40
0.1539841695
 40
0.1691529582
 40
0.184294279
 40
0.1994128688
 40
0.2145137055
 40
0.2296019556
 40
0.24468292
 40
0.2597619775
 40
0.2748445272
 40
0.289935931
 40
0.3050414561
 40
0.3201662191
 40
0.3353151325
 40
0.3504928533
 40
0.3657037354
 40
0.380951786
 40
0.3962406266
 40
0.4115734587
 40
0.4269530343
 40
0.4423816326
 40
0.4578610411
 40
0.4733925431
 40
0.4889769099
 40
0.5046143983
 40
0.5203047537
 40
0.5360472175
 40
0.551840539
 40
0.5676829922
 40
0.5835723961
 40
0.5995061386
 40
0.6154812042
 40
0.631494204
 40
0.6475414091
 40
0.6636187862
 40
0.6797220346
 40
0.6958466259
 40
0.7119878443
 40
0.7281408288
 40
0.7443006157
 40
0.760462182
 40
0.7766204893
 40
0.7927705276
 40
0.8089073586
 40
0.8250261595
 40
0.8411222653
 40
0.8571912102
 40
0.8732287681
 40
0.8892309915
 40
0.9051942473
 40
0.9211152561
 40
0.9369911085
 40
0.9528193442
 40
0.9685978395
 40
0.9843251716
 40
1.0
 40
1.0
 40
1.0
 40
1.0
 10
10.3383090404
 20
9.2895368964
 30
0.0
 10
10.3258285827
 20
9.2904024191
 30
0.0
 10
10.3008634562
 20
9.2915230145
 30
0.0
 10
10.2634451854
 20
9.2913609635
 30
0.0
 10
10.2262056815
 20
9.2893536004
 30
0.0
 10
10.1892359433
 20
9.2855057029
 30
0.0
 10
10.1526246605
 20
9.2798263875
 30
0.0
 10
10.1164601953
 20
9.272329292
 30
0.0
 10
10.0808296896
 20
9.2630323736
 30
0.0
 10
10.0458190574
 20
9.2519579659
 30
0.0
 10
10.0115127191
 20
9.2391326811
 30
0.0
 10
9.9779934113
 20
9.2245873673
 30
0.0
 10
9.9453419826
 20
9.2083570287
 30
0.0
 10
9.9136371964
 20
9.1904807452
 30
0.0
 10
9.8829555385
 20
9.1710015782
 30
0.0
 10
9.85337103
 20
9.1499664687
 30
0.0
 10
9.8249550441
 20
9.1274261249
 30
0.0
 10
9.7977761329
 20
9.1034348976
 30
0.0
 10
9.7718998592
 20
9.0780506475
 30
0.0
 10
9.7473886363
 20
9.0513346045
 30
0.0
 10
9.7243015755
 20
9.023351218
 30
0.0
 10
9.7026943417
 20
8.994167999
 30
0.0
 10
9.6826190187
 20
8.9638553545
 30
0.0
 10
9.6641239828
 20
8.9324864153
 30
0.0
 10
9.6472537862
 20
8.9001368568
 30
0.0
 10
9.6320490504
 20
8.8668847135
 30
0.0
 10
9.6185463692
 20
8.8328101888
 30
0.0
 10
9.6067782223
 20
8.7979954593
 30
0.0
 10
9.5967728972
 20
8.7625244753
 30
0.0
 10
9.5885544223
 20
8.7264827564
 30
0.0
 10
9.5821425139
 20
8.6899571841
 30
0.0
 10
9.5775525302
 20
8.6530357913
 30
0.0
 10
9.5747954369
 20
8.6158075502
 30
0.0
 10
9.5738777835
 20
8.5783621578
 30
0.0
 10
9.5748016888
 20
8.5407898203
 30
0.0
 10
9.5775648388
 20
8.5031810367
 30
0.0
 10
9.5821604932
 20
8.4656263816
 30
0.0
 10
9.5885775036
 20
8.428216288
 30
0.0
 10
9.5968003415
 20
8.3910408312
 30
0.0
 10
9.6068091366
 20
8.3541895129
 30
0.0
 10
9.6185797261
 20
8.3177510472
 30
0.0
 10
9.6320837109
 20
8.2818131478
 30
0.0
 10
9.6472885254
 20
8.2464623177
 30
0.0
 10
9.6641575178
 20
8.2117836429
 30
0.0
 10
9.6826500378
 20
8.1778605889
 30
0.0
 10
9.7027215349
 20
8.1447748006
 30
0.0
 10
9.724323665
 20
8.1126059074
 30
0.0
 10
9.747404407
 20
8.0814313322
 30
0.0
 10
9.7719081871
 20
8.0513261066
 30
0.0
 10
9.7977760121
 20
8.0223626906
 30
0.0
 10
9.8249456115
 20
7.9946107997
 30
0.0
 10
9.8533515858
 20
7.9681372375
 30
0.0
 10
9.8829255635
 20
7.9430057355
 30
0.0
 10
9.9135963654
 20
7.9192768011
 30
0.0
 10
9.945290173
 20
7.8970075697
 30
0.0
 10
9.9779307067
 20
7.8762516689
 30
0.0
 10
10.0114394093
 20
7.8570590913
 30
0.0
 10
10.0457356336
 20
7.8394760725
 30
0.0
 10
10.0807368349
 20
7.8235449837
 30
0.0
 10
10.1163587718
 20
7.8093042215
 30
0.0
 10
10.1525156934
 20
7.7967881363
 30
0.0
 10
10.1891205987
 20
7.7860268968
 30
0.0
 10
10.2260852496
 20
7.7770465398
 30
0.0
 10
10.2633210487
 20
7.7698686466
 30
0.0
 10
10.3007370637
 20
7.7645107884
 30
0.0
 10
10.3257862447
 20
7.7621566587
 30
0.0
 10
10.3383090404
 20
7.7612881998
 30
0.0
  0
SPLINE
  5
2EE
100
AcDbEntity
  8
0
100
AcDbSpline
 62
7
  6
CONTINUOUS
 70
0
 71
3
 72
39
 73
35
 74
0
 42
0.0000001
 43
0.0000001
 44
0.0000000001
 40
0.0
 40
0.0
 40
0.0
 40
0.0
 40
0.0299331943
 40
0.05989534
 40
0.0899089861
 40
0.1199954884
 40
0.1501745242
 40
0.1804636551
 40
0.2108779543
 40
0.2414296983
 40
0.2721281288
 40
0.302979299
 40
0.3339859888
 40
0.3651476913
 40
0.3964606756
 40
0.427918111
 40
0.4595102425
 40
0.4912246282
 40
0.523046416
 40
0.5549586562
 40
0.5869426497
 40
0.6189783208
 40
0.6510446067
 40
0.6831198618
 40
0.7151822705
 40
0.7472102614
 40
0.7791829182
 40
0.8110803811
 40
0.8428842365
 40
0.8745778834
 40
0.9061468769
 40
0.9375792605
 40
0.9688655731
 40
1.0
 40
1.0
 40
1.0
 40
1.0
 10
9.8094869145
 20
7.2594553788
 30
0.0
 10
9.7984196763
 20
7.248350396
 30
0.0
 10
9.7771296346
 20
7.2252582024
 30
0.0
 10
9.7479645621
 20
7.1882275698
 30
0.0
 10
9.7217060981
 20
7.1489822987
 30
0.0
 10
9.6984950977
 20
7.1077320475
 30
0.0
 10
9.6784528599
 20
7.0646936843
 30
0.0
 10
9.6616847046
 20
7.0200943639
 30
0.0
 10
9.6482784608
 20
6.9741690857
 30
0.0
 10
9.6383042299
 20
6.9271598037
 30
0.0
 10
9.6318138749
 20
6.8793140527
 30
0.0
 10
9.6288409947
 20
6.8308836189
 30
0.0
 10
9.6294007037
 20
6.7821232433
 30
0.0
 10
9.6334894338
 20
6.7332892795
 30
0.0
 10
9.6410851799
 20
6.6846383484
 30
0.0
 10
9.6521476111
 20
6.6364260314
 30
0.0
 10
9.666618116
 20
6.5889055008
 30
0.0
 10
9.6844203037
 20
6.5423262337
 30
0.0
 10
9.7054604285
 20
6.4969327532
 30
0.0
 10
9.7296277047
 20
6.4529632839
 30
0.0
 10
9.7567950199
 20
6.4106485582
 30
0.0
 10
9.7868196551
 20
6.3702106749
 30
0.0
 10
9.8195438738
 20
6.3318618475
 30
0.0
 10
9.8547958127
 20
6.2958033281
 30
0.0
 10
9.8923904581
 20
6.2622244519
 30
0.0
 10
9.9321304905
 20
6.2313015492
 30
0.0
 10
9.9738073209
 20
6.2031970114
 30
0.0
 10
10.0172022732
 20
6.1780585746
 30
0.0
 10
10.062087611
 20
6.1560184639
 30
0.0
 10
10.1082278042
 20
6.1371926163
 30
0.0
 10
10.1553804483
 20
6.1216802526
 30
0.0
 10
10.2032988277
 20
6.1095632863
 30
0.0
 10
10.2517280435
 20
6.1009058298
 30
0.0
 10
10.2842738779
 20
6.0974622385
 30
0.0
 10
10.3005421258
 20
6.0963340316
 30
0.0
  0
SPLINE
  5
2EF
100
AcDbEntity
  8
0
100
AcDbSpline
 62
7
  6
CONTINUOUS
 70
0
 71
3
 72
39
 73
35
 74
0
 42
0.0000001
 43
0.0000001
 44
0.0000000001
 40
0.0
 40
0.0
 40
0.0
 40
0.0
 40
0.0299393047
 40
0.05990228
 40
0.0899120367
 40
0.1199905832
 40
0.1501583158
 40
0.1804335574
 40
0.2108321569
 40
0.2413671578
 40
0.2720485411
 40
0.3028830449
 40
0.3338740658
 40
0.3650216369
 40
0.3963224771
 40
0.4277701073
 40
0.4593550271
 40
0.4910649495
 40
0.5228850815
 40
0.5547984436
 40
0.5867862232
 40
0.6188281555
 40
0.6509029261
 40
0.6829885862
 40
0.7150629768
 40
0.7471041562
 40
0.7790908243
 40
0.811002739
 40
0.8428211161
 40
0.8745290101
 40
0.9061116563
 40
0.9375568916
 40
0.9688549523
 40
1.0
 40
1.0
 40
1.0
 40
1.0
 10
9.9787106073
 20
7.1241447006
 30
0.0
 10
9.9708638376
 20
7.1165652766
 30
0.0
 10
9.9557517529
 20
7.1007781602
 30
0.0
 10
9.9349971873
 20
7.0753861535
 30
0.0
 10
9.9162571161
 20
7.0484089188
 30
0.0
 10
9.899633623
 20
7.0199927776
 30
0.0
 10
9.8852149329
 20
6.9902894457
 30
0.0
 10
9.873078024
 20
6.9594581108
 30
0.0
 10
9.863287436
 20
6.9276637565
 30
0.0
 10
9.8558951574
 20
6.8950764797
 30
0.0
 10
9.8509403191
 20
6.8618705149
 30
0.0
 10
9.8484489641
 20
6.8282233213
 30
0.0
 10
9.8484339712
 20
6.7943146141
 30
0.0
 10
9.8508950198
 20
6.7603254132
 30
0.0
 10
9.8558186081
 20
6.7264370862
 30
0.0
 10
9.8631781358
 20
6.6928303969
 30
0.0
 10
9.8729340065
 20
6.6596845383
 30
0.0
 10
9.8850339065
 20
6.6271761977
 30
0.0
 10
9.8994130835
 20
6.5954786303
 30
0.0
 10
9.9159946988
 20
6.5647607534
 30
0.0
 10
9.9346902148
 20
6.5351862512
 30
0.0
 10
9.955399845
 20
6.5069126933
 30
0.0
 10
9.9780131294
 20
6.4800907322
 30
0.0
 10
10.0024095076
 20
6.4548633056
 30
0.0
 10
10.0284589607
 20
6.4313648935
 30
0.0
 10
10.0560226678
 20
6.4097207778
 30
0.0
 10
10.0849537449
 20
6.3900463789
 30
0.0
 10
10.1150980476
 20
6.3724466761
 30
0.0
 10
10.1462949532
 20
6.3570156436
 30
0.0
 10
10.1783782804
 20
6.3438357688
 30
0.0
 10
10.2111768833
 20
6.3329775346
 30
0.0
 10
10.2445164971
 20
6.3244991463
 30
0.0
 10
10.2782170786
 20
6.3184461527
 30
0.0
 10
10.3008672007
 20
6.3160432556
 30
0.0
 10
10.3121889732
 20
6.315258088
 30
0.0
  0
SPLINE
  5
2F0
100
AcDbEntity
  8
0
100
AcDbSpline
 62
7
  6
CONTINUOUS
 70
0
 71
3
 72
42
 73
38
 74
0
 42
0.0000001
 43
0.0000001
 44
0.0000000001
 40
0.0
 40
0.0
 40
0.0
 40
0.0
 40
0.030013961
 40
0.0450583911
 40
0.0601283938
 40
0.090346356
 40
0.1206813291
 40
0.1358970794
 40
0.1511447068
 40
0.1817340152
 40
0.2124564897
 40
0.2433132894
 40
0.2743034469
 40
0.3054239102
 40
0.3366696162
 40
0.3680335919
 40
0.3995070817
 40
0.4310796965
 40
0.4627395831
 40
0.4944736102
 40
0.5262675687
 40
0.5581063839
 40
0.5899743356
 40
0.6218552865
 40
0.6537329131
 40
0.6855909396
 40
0.7174133706
 40
0.7491847215
 40
0.7808902433
 40
0.8125161409
 40
0.844049778
 40
0.8754798813
 40
0.9067966876
 40
0.9379922072
 40
0.9535440894
 40
0.9690637993
 40
1.0
 40
1.0
 40
1.0
 40
1.0
 10
10.0991094352
 20
7.2055426245
 30
0.0
 10
10.0949324089
 20
7.1970339203
 30
0.0
 10
10.0890845423
 20
7.1840461593
 30
0.0
 10
10.0821539128
 20
7.1663644042
 30
0.0
 10
10.0757870384
 20
7.1484027573
 30
0.0
 10
10.0689205589
 20
7.1255098574
 30
0.0
 10
10.0635485007
 20
7.1021739434
 30
0.0
 10
10.0601509163
 20
7.0832733022
 30
0.0
 10
10.0573511339
 20
7.0641937481
 30
0.0
 10
10.0549933161
 20
7.0401128555
 30
0.0
 10
10.0540008242
 20
7.0110031273
 30
0.0
 10
10.0548454392
 20
6.9817617468
 30
0.0
 10
10.0575237495
 20
6.9525052269
 30
0.0
 10
10.0620249452
 20
6.9233491516
 30
0.0
 10
10.0683310567
 20
6.8944089371
 30
0.0
 10
10.0764169787
 20
6.8657990513
 30
0.0
 10
10.0862505864
 20
6.8376326542
 30
0.0
 10
10.0977928607
 20
6.8100211309
 30
0.0
 10
10.1109980447
 20
6.7830736617
 30
0.0
 10
10.1258138252
 20
6.7568967935
 30
0.0
 10
10.1421815395
 20
6.731594022
 30
0.0
 10
10.1600364061
 20
6.707265387
 30
0.0
 10
10.1793077806
 20
6.6840070796
 30
0.0
 10
10.1999194326
 20
6.6619110655
 30
0.0
 10
10.2217898461
 20
6.6410647238
 30
0.0
 10
10.2448325387
 20
6.6215505041
 30
0.0
 10
10.2689564016
 20
6.6034456027
 30
0.0
 10
10.2940660577
 20
6.5868216593
 30
0.0
 10
10.3200622301
 20
6.5717444753
 30
0.0
 10
10.3468421526
 20
6.5582737535
 30
0.0
 10
10.3742998933
 20
6.5464628695
 30
0.0
 10
10.4023270598
 20
6.5363586275
 30
0.0
 10
10.4308121496
 20
6.5280012197
 30
0.0
 10
10.4548643704
 20
6.522514084
 30
0.0
 10
10.4742207721
 20
6.5190305054
 30
0.0
 10
10.4935939527
 20
6.5161589125
 30
0.0
 10
10.5082034104
 20
6.5146838601
 30
0.0
 10
10.5179499443
 20
6.5140079357
 30
0.0
  0
SPLINE
  5
2F1
100
AcDbEntity
  8
0
100
AcDbSpline
 62
7
  6
CONTINUOUS
 70
0
 71
3
 72
69
 73
65
 74
0
 42
0.0000001
 43
0.0000001
 44
0.0000000001
 40
0.0
 40
0.0
 40
0.0
 40
0.0
 40
0.0156749889
 40
0.0314027574
 40
0.0471814424
 40
0.0630099733
 40
0.0788860924
 40
0.0948073735
 40
0.110770904
 40
0.126773401
 40
0.1428112333
 40
0.1588804527
 40
0.1749768337
 40
0.1910959106
 40
0.2072330178
 40
0.223383332
 40
0.2395419152
 40
0.2557037577
 40
0.2718638213
 40
0.2880170827
 40
0.3202749253
 40
0.352447514
 40
0.3684949941
 40
0.3845082679
 40
0.4004836063
 40
0.4164176207
 40
0.432307296
 40
0.4481500205
 40
0.4639436128
 40
0.4796863462
 40
0.4953769699
 40
0.5110147256
 40
0.5265993589
 40
0.542131127
 40
0.5576108009
 40
0.573039663
 40
0.5884195012
 40
0.6037525948
 40
0.6190416967
 40
0.6342900084
 40
0.6495011511
 40
0.6646791316
 40
0.679828304
 40
0.6949533256
 40
0.7100591091
 40
0.7251507714
 40
0.7402335797
 40
0.7553128954
 40
0.7703941176
 40
0.7854826253
 40
0.8005837199
 40
0.8157025682
 40
0.8308441482
 40
0.8460131966
 40
0.8612141607
 40
0.8764511545
 40
0.8917279163
 40
0.907047776
 40
0.9224136208
 40
0.9378278579
 40
0.9532924826
 40
0.968808719
 40
0.9843780071
 40
1.0
 40
1.0
 40
1.0
 40
1.0
 10
10.3005421258
 20
7.2747636095
 30
0.0
 10
10.3088528215
 20
7.2741872608
 30
0.0
 10
10.3254767382
 20
7.2726249176
 30
0.0
 10
10.3503078697
 20
7.2690692147
 30
0.0
 10
10.3750194569
 20
7.2643055565
 30
0.0
 10
10.3995510203
 20
7.2583457782
 30
0.0
 10
10.4238438753
 20
7.2512040825
 30
0.0
 10
10.4478394153
 20
7.2428977909
 30
0.0
 10
10.4714799097
 20
7.2334469014
 30
0.0
 10
10.4947084517
 20
7.2228742257
 30
0.0
 10
10.5174691374
 20
7.2112052534
 30
0.0
 10
10.5397071875
 20
7.1984681031
 30
0.0
 10
10.5613690801
 20
7.1846934568
 30
0.0
 10
10.582402674
 20
7.1699144829
 30
0.0
 10
10.6027573451
 20
7.1541667669
 30
0.0
 10
10.6223841052
 20
7.1374882491
 30
0.0
 10
10.6412357458
 20
7.1199190485
 30
0.0
 10
10.6592667943
 20
7.1015016048
 30
0.0
 10
10.6764342126
 20
7.0822797055
 30
0.0
 10
10.6981038235
 20
7.0556568121
 30
0.0
 10
10.7228305022
 20
7.0206103357
 30
0.0
 10
10.7442005719
 20
6.983485729
 30
0.0
 10
10.7591377008
 20
6.9527780992
 30
0.0
 10
10.7692285772
 20
6.9293171798
 30
0.0
 10
10.7781904295
 20
6.9054670818
 30
0.0
 10
10.7860019899
 20
6.8812846709
 30
0.0
 10
10.7926443262
 20
6.8568283035
 30
0.0
 10
10.7981014241
 20
6.832156814
 30
0.0
 10
10.8023600833
 20
6.8073296087
 30
0.0
 10
10.8054099853
 20
6.7824064624
 30
0.0
 10
10.8072437415
 20
6.7574473946
 30
0.0
 10
10.8078568877
 20
6.7325125149
 30
0.0
 10
10.8072478906
 20
6.707661882
 30
0.0
 10
10.8054181539
 20
6.6829553606
 30
0.0
 10
10.8023720155
 20
6.6584524788
 30
0.0
 10
10.7981167418
 20
6.6342122864
 30
0.0
 10
10.7926625403
 20
6.6102932048
 30
0.0
 10
10.7860225029
 20
6.5867528902
 30
0.0
 10
10.7782125783
 20
6.5636480954
 30
0.0
 10
10.769251536
 20
6.5410345342
 30
0.0
 10
10.7591609195
 20
6.5189667476
 30
0.0
 10
10.7479650078
 20
6.4974979677
 30
0.0
 10
10.7356907729
 20
6.4766799761
 30
0.0
 10
10.7223677861
 20
6.4565629912
 30
0.0
 10
10.7080281522
 20
6.4371955451
 30
0.0
 10
10.6927064326
 20
6.4186243653
 30
0.0
 10
10.6764395595
 20
6.4008942647
 30
0.0
 10
10.6592667624
 20
6.3840480174
 30
0.0
 10
10.6412294729
 20
6.3681262483
 30
0.0
 10
10.6223712046
 20
6.3531673524
 30
0.0
 10
10.6027374514
 20
6.3392073981
 30
0.0
 10
10.5823755766
 20
6.3262800408
 30
0.0
 10
10.5613346963
 20
6.3144164461
 30
0.0
 10
10.5396655736
 20
6.3036451898
 30
0.0
 10
10.5174204856
 20
6.2939921962
 30
0.0
 10
10.4946530878
 20
6.2854806935
 30
0.0
 10
10.4714182866
 20
6.2781311532
 30
0.0
 10
10.4477721049
 20
6.2719612451
 30
0.0
 10
10.4237715592
 20
6.266985806
 30
0.0
 10
10.399474471
 20
6.2632167306
 30
0.0
 10
10.3749395352
 20
6.2606631055
 30
0.0
 10
10.3502254831
 20
6.2593308761
 30
0.0
 10
10.3253928603
 20
6.2592233697
 30
0.0
 10
10.3088247237
 20
6.2599670317
 30
0.0
 10
10.3005421258
 20
6.2605414318
 30
0.0
  0
SPLINE
  5
2F2
100
AcDbEntity
  8
0
100
AcDbSpline
 62
7
  6
CONTINUOUS
 70
0
 71
3
 72
15
 73
11
 74
0
 42
0.0000001
 43
0.0000001
 44
0.0000000001
 40
0.0
 40
0.0
 40
0.0
 40
0.0
 40
0.1227282614
 40
0.2459921734
 40
0.3698616667
 40
0.4943965834
 40
0.619646535
 40
0.745647467
 40
0.8724291912
 40
1.0
 40
1.0
 40
1.0
 40
1.0
 10
10.7719293515
 20
6.8067590867
 30
0.0
 10
10.7674055683
 20
6.8026331773
 30
0.0
 10
10.7580915637
 20
6.7946293783
 30
0.0
 10
10.7434097335
 20
6.783436535
 30
0.0
 10
10.7280291097
 20
6.7730621955
 30
0.0
 10
10.7119942541
 20
6.7635360457
 30
0.0
 10
10.6953511589
 20
6.7548848696
 30
0.0
 10
10.6781476907
 20
6.7471329664
 30
0.0
 10
10.6604345628
 20
6.7403028142
 30
0.0
 10
10.6483563978
 20
6.7363884858
 30
0.0
 10
10.6422515286
 20
6.7345898692
 30
0.0
  0
SPLINE
  5
2F3
100
AcDbEntity
  8
0
100
AcDbSpline
 62
7
  6
CONTINUOUS
 70
0
 71
3
 72
16
 73
12
 74
0
 42
0.0000001
 43
0.0000001
 44
0.0000000001
 40
0.0
 40
0.0
 40
0.0
 40
0.0
 40
0.1504802345
 40
0.2917477373
 40
0.4244952497
 40
0.4879700346
 40
0.5496761098
 40
0.6683415877
 40
0.7818816099
 40
0.8918561996
 40
1.0
 40
1.0
 40
1.0
 40
1.0
 10
12.3922815057
 20
9.1739162636
 30
0.0
 10
12.3915747527
 20
9.1732335926
 30
0.0
 10
12.3901621436
 20
9.1719526777
 30
0.0
 10
12.3879748868
 20
9.1702456398
 30
0.0
 10
12.3861273274
 20
9.1690383295
 30
0.0
 10
12.384654073
 20
9.1682207933
 30
0.0
 10
12.3832242237
 20
9.1675189083
 30
0.0
 10
12.3814362632
 20
9.1668097514
 30
0.0
 10
12.37927157
 20
9.166233819
 30
0.0
 10
12.3771190924
 20
9.1659462748
 30
0.0
 10
12.3756896745
 20
9.1659479158
 30
0.0
 10
12.3749852005
 20
9.1659967788
 30
0.0
  0
SPLINE
  5
2F4
100
AcDbEntity
  8
0
100
AcDbSpline
 62
7
  6
CONTINUOUS
 70
0
 71
3
 72
11
 73
7
 74
0
 42
0.0000001
 43
0.0000001
 44
0.0000000001
 40
0.0
 40
0.0
 40
0.0
 40
0.0
 40
0.2472361537
 40
0.4963659183
 40
0.7473213536
 40
1.0
 40
1.0
 40
1.0
 40
1.0
 10
10.6422515286
 20
6.7345898692
 30
0.0
 10
10.6345032239
 20
6.7323070637
 30
0.0
 10
10.6187858913
 20
6.7282536986
 30
0.0
 10
10.5947713312
 20
6.7237489303
 30
0.0
 10
10.5703357682
 20
6.7208156882
 30
0.0
 10
10.5538920884
 20
6.7199208478
 30
0.0
 10
10.5456387417
 20
6.7197366203
 30
0.0
  0
SPLINE
  5
2F5
100
AcDbEntity
  8
0
100
AcDbSpline
 62
7
  6
CONTINUOUS
 70
0
 71
3
 72
42
 73
38
 74
0
 42
0.0000001
 43
0.0000001
 44
0.0000000001
 40
0.0
 40
0.0
 40
0.0
 40
0.0
 40
0.0149584737
 40
0.0299260704
 40
0.0449054426
 40
0.0598991769
 40
0.0749097801
 40
0.0899396695
 40
0.1200612168
 40
0.1502861023
 40
0.1806291348
 40
0.2111026205
 40
0.2417161364
 40
0.2724763656
 40
0.3033870047
 40
0.3344487331
 40
0.3656592412
 40
0.3970133172
 40
0.42850299
 40
0.4601177159
 40
0.4918446048
 40
0.5236686865
 40
0.5555732066
 40
0.587539945
 40
0.6195495541
 40
0.6515819148
 40
0.6836164989
 40
0.7156327387
 40
0.7476103958
 40
0.7795299261
 40
0.8113728362
 40
0.8431220281
 40
0.8747621204
 40
0.906279749
 40
0.937663882
 40
0.9689057418
 40
1.0
 40
1.0
 40
1.0
 40
1.0
 10
10.0179014447
 20
9.2343504132
 30
0.0
 10
10.0126169308
 20
9.2282578126
 30
0.0
 10
10.002273773
 20
9.2158679968
 30
0.0
 10
9.9874662914
 20
9.1967055706
 30
0.0
 10
9.9733795282
 20
9.1769834463
 30
0.0
 10
9.9600314269
 20
9.156726547
 30
0.0
 10
9.9474382392
 20
9.1359596403
 30
0.0
 10
9.9316653308
 20
9.1076082986
 30
0.0
 10
9.9139094644
 20
9.0710063364
 30
0.0
 10
9.8958721372
 20
9.0255113774
 30
0.0
 10
9.8811739249
 20
8.9786307335
 30
0.0
 10
9.8698884447
 20
8.9305993824
 30
0.0
 10
9.8620711268
 20
8.8816559466
 30
0.0
 10
9.8577603367
 20
8.8320440206
 30
0.0
 10
9.8569769465
 20
8.7820102467
 30
0.0
 10
9.8597243819
 20
8.731803292
 30
0.0
 10
9.8659885005
 20
8.6816725756
 30
0.0
 10
9.8757376823
 20
8.6318670383
 30
0.0
 10
9.8889231045
 20
8.5826339293
 30
0.0
 10
9.9054789794
 20
8.5342176105
 30
0.0
 10
9.9253227568
 20
8.4868583139
 30
0.0
 10
9.948355654
 20
8.4407909903
 30
0.0
 10
9.9744631724
 20
8.3962441825
 30
0.0
 10
10.003515602
 20
8.3534388819
 30
0.0
 10
10.0353686165
 20
8.312587401
 30
0.0
 10
10.0698640917
 20
8.2738923986
 30
0.0
 10
10.1068308714
 20
8.237545898
 30
0.0
 10
10.1460855153
 20
8.2037282516
 30
0.0
 10
10.1874332647
 20
8.1726072998
 30
0.0
 10
10.2306690284
 20
8.1443375935
 30
0.0
 10
10.2755783632
 20
8.1190596072
 30
0.0
 10
10.3219384509
 20
8.0968989515
 30
0.0
 10
10.3695193683
 20
8.0779658638
 30
0.0
 10
10.4180848348
 20
8.0623546778
 30
0.0
 10
10.4673946274
 20
8.0501432658
 30
0.0
 10
10.5172008338
 20
8.0413926949
 30
0.0
 10
10.550659532
 20
8.0378866455
 30
0.0
 10
10.5673843315
 20
8.0367267767
 30
0.0
  0
SPLINE
  5
2F6
100
AcDbEntity
  8
0
100
AcDbSpline
 62
7
  6
CONTINUOUS
 70
0
 71
3
 72
18
 73
14
 74
0
 42
0.0000001
 43
0.0000001
 44
0.0000000001
 40
0.0
 40
0.0
 40
0.0
 40
0.0
 40
0.0542094557
 40
0.108530499
 40
0.1632107186
 40
0.2184923677
 40
0.3317254566
 40
0.4500186441
 40
0.5115607537
 40
0.5749056324
 40
0.7075443932
 40
0.8489869915
 40
1.0
 40
1.0
 40
1.0
 40
1.0
 10
12.2783853162
 20
7.8905424587
 30
0.0
 10
12.2790297703
 20
7.8904726525
 30
0.0
 10
12.280325362
 20
7.890378036
 30
0.0
 10
12.2822784897
 20
7.8903726287
 30
0.0
 10
12.2842401899
 20
7.8905038353
 30
0.0
 10
12.2868865549
 20
7.8908633667
 30
0.0
 10
12.2902312923
 20
7.8916670167
 30
0.0
 10
12.2935192876
 20
7.8929034835
 30
0.0
 10
12.2961482423
 20
7.8941488586
 30
0.0
 10
12.2988588257
 20
7.8956129649
 30
0.0
 10
12.3022591672
 20
7.8977972313
 30
0.0
 10
12.3062831917
 20
7.9009116002
 30
0.0
 10
12.308878992
 20
7.9032603457
 30
0.0
 10
12.3101778056
 20
7.9045149034
 30
0.0
  0
SPLINE
  5
2F7
100
AcDbEntity
  8
0
100
AcDbSpline
 62
7
  6
CONTINUOUS
 70
0
 71
3
 72
69
 73
65
 74
0
 42
0.0000001
 43
0.0000001
 44
0.0000000001
 40
0.0
 40
0.0
 40
0.0
 40
0.0
 40
0.0156219929
 40
0.031191281
 40
0.0467075174
 40
0.0621721421
 40
0.0775863792
 40
0.092952224
 40
0.1082720837
 40
0.1235488455
 40
0.1387858393
 40
0.1539868034
 40
0.1691558518
 40
0.1842974318
 40
0.1994162801
 40
0.2145173747
 40
0.2296058824
 40
0.2446871046
 40
0.2597664203
 40
0.2748492286
 40
0.2899408909
 40
0.3050466744
 40
0.320171696
 40
0.3353208684
 40
0.3504988489
 40
0.3657099916
 40
0.3809583033
 40
0.3962474052
 40
0.4115804988
 40
0.426960337
 40
0.4423891991
 40
0.457868873
 40
0.4734006411
 40
0.4889852744
 40
0.5046230301
 40
0.5203136538
 40
0.5360563872
 40
0.5518499795
 40
0.567692704
 40
0.5835823793
 40
0.5995163937
 40
0.6154917321
 40
0.6315050059
 40
0.647552486
 40
0.6797250747
 40
0.7119829173
 40
0.7281361787
 40
0.7442962423
 40
0.7604580848
 40
0.776616668
 40
0.7927669822
 40
0.8089040894
 40
0.8250231663
 40
0.8411195473
 40
0.8571887667
 40
0.873226599
 40
0.889229096
 40
0.9051926265
 40
0.9211139076
 40
0.9369900267
 40
0.9528185576
 40
0.9685972426
 40
0.9843250111
 40
1.0
 40
1.0
 40
1.0
 40
1.0
 10
10.3005421258
 20
7.2747636095
 30
0.0
 10
10.292259528
 20
7.2753380096
 30
0.0
 10
10.2756913913
 20
7.2760816716
 30
0.0
 10
10.2508587686
 20
7.2759741653
 30
0.0
 10
10.2261447164
 20
7.2746419359
 30
0.0
 10
10.2016097806
 20
7.2720883108
 30
0.0
 10
10.1773126925
 20
7.2683192354
 30
0.0
 10
10.1533121468
 20
7.2633437963
 30
0.0
 10
10.129665965
 20
7.2571738881
 30
0.0
 10
10.1064311639
 20
7.2498243479
 30
0.0
 10
10.083663766
 20
7.2413128452
 30
0.0
 10
10.061418678
 20
7.2316598516
 30
0.0
 10
10.0397495554
 20
7.2208885952
 30
0.0
 10
10.018708675
 20
7.2090250006
 30
0.0
 10
9.9983468003
 20
7.1960976432
 30
0.0
 10
9.978713047
 20
7.182137689
 30
0.0
 10
9.9598547787
 20
7.167178793
 30
0.0
 10
9.9418174893
 20
7.151257024
 30
0.0
 10
9.9246446922
 20
7.1344107766
 30
0.0
 10
9.908377819
 20
7.116680676
 30
0.0
 10
9.8930560995
 20
7.0981094962
 30
0.0
 10
9.8787164655
 20
7.0787420501
 30
0.0
 10
9.8653934787
 20
7.0586250653
 30
0.0
 10
9.8531192439
 20
7.0378070737
 30
0.0
 10
9.8419233322
 20
7.0163382937
 30
0.0
 10
9.8318327157
 20
6.9942705072
 30
0.0
 10
9.8228716733
 20
6.9716569459
 30
0.0
 10
9.8150617488
 20
6.9485521512
 30
0.0
 10
9.8084217113
 20
6.9250118366
 30
0.0
 10
9.8029675098
 20
6.901092755
 30
0.0
 10
9.7987122362
 20
6.8768525625
 30
0.0
 10
9.7956660978
 20
6.8523496808
 30
0.0
 10
9.7938363611
 20
6.8276431594
 30
0.0
 10
9.7932273639
 20
6.8027925265
 30
0.0
 10
9.7938405101
 20
6.7778576468
 30
0.0
 10
9.7956742664
 20
6.7528985789
 30
0.0
 10
9.7987241683
 20
6.7279754326
 30
0.0
 10
9.8029828275
 20
6.7031482274
 30
0.0
 10
9.8084399255
 20
6.6784767379
 30
0.0
 10
9.8150822618
 20
6.6540203705
 30
0.0
 10
9.8228938222
 20
6.6298379596
 30
0.0
 10
9.8318556745
 20
6.6059878616
 30
0.0
 10
9.8419465509
 20
6.5825269421
 30
0.0
 10
9.8568836798
 20
6.5518193124
 30
0.0
 10
9.8782537494
 20
6.5146947057
 30
0.0
 10
9.9029804282
 20
6.4796482293
 30
0.0
 10
9.924650039
 20
6.4530253359
 30
0.0
 10
9.9418174573
 20
6.4338034366
 30
0.0
 10
9.9598485059
 20
6.4153859929
 30
0.0
 10
9.9787001464
 20
6.3978167923
 30
0.0
 10
9.9983269066
 20
6.3811382745
 30
0.0
 10
10.0186815777
 20
6.3653905585
 30
0.0
 10
10.0397151716
 20
6.3506115845
 30
0.0
 10
10.0613770642
 20
6.3368369383
 30
0.0
 10
10.0836151143
 20
6.324099788
 30
0.0
 10
10.1063757999
 20
6.3124308157
 30
0.0
 10
10.1296043419
 20
6.30185814
 30
0.0
 10
10.1532448363
 20
6.2924072505
 30
0.0
 10
10.1772403764
 20
6.2841009589
 30
0.0
 10
10.2015332313
 20
6.2769592632
 30
0.0
 10
10.2260647947
 20
6.2709994849
 30
0.0
 10
10.2507763819
 20
6.2662358267
 30
0.0
 10
10.2756075134
 20
6.2626801238
 30
0.0
 10
10.2922314301
 20
6.2611177805
 30
0.0
 10
10.3005421258
 20
6.2605414318
 30
0.0
  0
SPLINE
  5
2F8
100
AcDbEntity
  8
0
100
AcDbSpline
 62
7
  6
CONTINUOUS
 70
0
 71
3
 72
61
 73
57
 74
0
 42
0.0000001
 43
0.0000001
 44
0.0000000001
 40
0.0
 40
0.0
 40
0.0
 40
0.0
 40
0.0027165054
 40
0.0054533955
 40
0.0082305472
 40
0.0110669316
 40
0.0169824274
 40
0.0233277131
 40
0.030199549
 40
0.0376706007
 40
0.0457931532
 40
0.0546032753
 40
0.0641243859
 40
0.074369812
 40
0.0853450535
 40
0.0970492998
 40
0.10947643
 40
0.1226160841
 40
0.136454196
 40
0.1509734409
 40
0.1661538067
 40
0.1819727413
 40
0.1984054552
 40
0.2154252451
 40
0.233003508
 40
0.2511100181
 40
0.2697130988
 40
0.288779623
 40
0.3281637084
 40
0.3689758341
 40
0.4109140611
 40
0.4536652952
 40
0.496908534
 40
0.5403180533
 40
0.58356653
 40
0.6263281872
 40
0.6682819354
 40
0.7091145197
 40
0.7485237777
 40
0.7862219893
 40
0.8043449156
 40
0.8219405913
 40
0.8389787009
 40
0.8554306652
 40
0.871269662
 40
0.8864708261
 40
0.9010116003
 40
0.9148718073
 40
0.9280340646
 40
0.940484227
 40
0.9522117242
 40
0.9632103966
 40
0.9734791407
 40
0.9830231747
 40
0.9918561893
 40
1.0
 40
1.0
 40
1.0
 40
1.0
 10
12.409577811
 20
9.6647986902
 30
0.0
 10
12.410044404
 20
9.6647663269
 30
0.0
 10
12.4109787027
 20
9.6646591088
 30
0.0
 10
12.412368238
 20
9.664372236
 30
0.0
 10
12.4137473255
 20
9.6639593518
 30
0.0
 10
12.4155962071
 20
9.6632314429
 30
0.0
 10
12.417890537
 20
9.6619862798
 30
0.0
 10
12.4205422368
 20
9.6600166731
 30
0.0
 10
12.4231298523
 20
9.6575580139
 30
0.0
 10
12.4256502774
 20
9.6546165093
 30
0.0
 10
12.4281008787
 20
9.6511980282
 30
0.0
 10
12.4304781329
 20
9.6473089176
 30
0.0
 10
12.4327781213
 20
9.6429563089
 30
0.0
 10
12.4349967723
 20
9.6381483661
 30
0.0
 10
12.4371298906
 20
9.6328942332
 30
0.0
 10
12.4391732917
 20
9.6272040561
 30
0.0
 10
12.4411229637
 20
9.6210889687
 30
0.0
 10
12.4429749678
 20
9.6145610127
 30
0.0
 10
12.4447255538
 20
9.6076331235
 30
0.0
 10
12.4463712047
 20
9.6003190915
 30
0.0
 10
12.4479085456
 20
9.5926335071
 30
0.0
 10
12.4493344571
 20
9.58459174
 30
0.0
 10
12.4506460573
 20
9.5762098965
 30
0.0
 10
12.4518406445
 20
9.567504778
 30
0.0
 10
12.4529158081
 20
9.5584938507
 30
0.0
 10
12.4538693605
 20
9.5491952094
 30
0.0
 10
12.4546993559
 20
9.5396275124
 30
0.0
 10
12.4556492099
 20
9.526394442
 30
0.0
 10
12.4565066467
 20
9.5093230695
 30
0.0
 10
12.4570129414
 20
9.4882985292
 30
0.0
 10
12.457002763
 20
9.466688221
 30
0.0
 10
12.4564760126
 20
9.4446657768
 30
0.0
 10
12.4554367591
 20
9.4224080197
 30
0.0
 10
12.453893276
 20
9.4000937419
 30
0.0
 10
12.451857948
 20
9.3779021831
 30
0.0
 10
12.4493472098
 20
9.3560115777
 30
0.0
 10
12.4463813757
 20
9.3345977219
 30
0.0
 10
12.4429845014
 20
9.3138324496
 30
0.0
 10
12.4391841322
 20
9.2938825085
 30
0.0
 10
12.43566213
 20
9.2778662155
 30
0.0
 10
12.4326555331
 20
9.2655879615
 30
0.0
 10
12.4303493267
 20
9.2568017544
 30
0.0
 10
12.427966904
 20
9.2483343724
 30
0.0
 10
12.4255130746
 20
9.240202782
 30
0.0
 10
12.4229928019
 20
9.2324232839
 30
0.0
 10
12.4204111535
 20
9.2250114573
 30
0.0
 10
12.4177733782
 20
9.2179821078
 30
0.0
 10
12.415084781
 20
9.2113492594
 30
0.0
 10
12.4123507651
 20
9.2051261088
 30
0.0
 10
12.4095768563
 20
9.1993249661
 30
0.0
 10
12.4067685612
 20
9.193957263
 30
0.0
 10
12.4039314205
 20
9.1890334915
 30
0.0
 10
12.4010710401
 20
9.1845631788
 30
0.0
 10
12.3981926415
 20
9.1805546878
 30
0.0
 10
12.3953018101
 20
9.1770160354
 30
0.0
 10
12.3932900155
 20
9.1748904093
 30
0.0
 10
12.3922815057
 20
9.1739162636
 30
0.0
  0
SPLINE
  5
2F9
100
AcDbEntity
  8
0
100
AcDbSpline
 62
7
  6
CONTINUOUS
 70
0
 71
3
 72
41
 73
37
 74
0
 42
0.0000001
 43
0.0000001
 44
0.0000000001
 40
0.0
 40
0.0
 40
0.0
 40
0.0
 40
0.0315232134
 40
0.0632159689
 40
0.0950586613
 40
0.1270299839
 40
0.1591076692
 40
0.1912687209
 40
0.2234898174
 40
0.2557476368
 40
0.2880190875
 40
0.3202815697
 40
0.352513209
 40
0.3846930234
 40
0.4168010818
 40
0.4488187275
 40
0.4807287841
 40
0.5125156692
 40
0.5441655414
 40
0.5756665066
 40
0.6070087951
 40
0.6381848815
 40
0.6691895817
 40
0.7000202032
 40
0.7306765954
 40
0.7611612358
 40
0.7914792167
 40
0.8216382596
 40
0.851648624
 40
0.8666041491
 40
0.881527469
 40
0.9112809156
 40
0.9409305027
 40
0.9557244913
 40
0.9704997501
 40
1.0
 40
1.0
 40
1.0
 40
1.0
 10
10.5456387417
 20
6.7197366203
 30
0.0
 10
10.5377406386
 20
6.7195603225
 30
0.0
 10
10.5218869753
 20
6.7196927314
 30
0.0
 10
10.4981070759
 20
6.7213339675
 30
0.0
 10
10.4743563377
 20
6.7244133685
 30
0.0
 10
10.4507368493
 20
6.7289202926
 30
0.0
 10
10.4273485459
 20
6.7348382432
 30
0.0
 10
10.4042906342
 20
6.7421449763
 30
0.0
 10
10.38166068
 20
6.7508124897
 30
0.0
 10
10.3595543383
 20
6.7608070954
 30
0.0
 10
10.3380649255
 20
6.7720894961
 30
0.0
 10
10.3172830549
 20
6.7846148948
 30
0.0
 10
10.2972962678
 20
6.7983331343
 30
0.0
 10
10.2781886924
 20
6.8131888577
 30
0.0
 10
10.2600407063
 20
6.8291217011
 30
0.0
 10
10.2429285992
 20
6.8460665246
 30
0.0
 10
10.2269242575
 20
6.8639536702
 30
0.0
 10
10.2120948763
 20
6.8827092359
 30
0.0
 10
10.1985026833
 20
6.9022553746
 30
0.0
 10
10.186204667
 20
6.922510631
 30
0.0
 10
10.1752523341
 20
6.9433903052
 30
0.0
 10
10.1656914934
 20
6.9648068143
 30
0.0
 10
10.1575620717
 20
6.9866700811
 30
0.0
 10
10.1508979366
 20
7.0088879177
 30
0.0
 10
10.1457267639
 20
7.0313664698
 30
0.0
 10
10.1420699038
 20
7.0540105437
 30
0.0
 10
10.1399423384
 20
7.0767243348
 30
0.0
 10
10.139352472
 20
7.0994107513
 30
0.0
 10
10.1401451991
 20
7.1182372039
 30
0.0
 10
10.141549028
 20
7.1331828952
 30
0.0
 10
10.1434590538
 20
7.1480074685
 30
0.0
 10
10.1467970625
 20
7.1663491412
 30
0.0
 10
10.1513979289
 20
7.1843821837
 30
0.0
 10
10.1558197285
 20
7.1985519947
 30
0.0
 10
10.1607244876
 20
7.2125216103
 30
0.0
 10
10.1649531128
 20
7.222793347
 30
0.0
 10
10.1680078651
 20
7.2295258291
 30
0.0
  0
SPLINE
  5
2FA
100
AcDbEntity
  8
0
100
AcDbSpline
 62
7
  6
CONTINUOUS
 70
0
 71
3
 72
61
 73
57
 74
0
 42
0.0000001
 43
0.0000001
 44
0.0000000001
 40
0.0
 40
0.0
 40
0.0
 40
0.0
 40
0.0027165054
 40
0.0054533955
 40
0.0082305472
 40
0.0110669316
 40
0.0169824274
 40
0.0233277131
 40
0.030199549
 40
0.0376706007
 40
0.0457931532
 40
0.0546032753
 40
0.0641243859
 40
0.074369812
 40
0.0853450535
 40
0.0970492998
 40
0.10947643
 40
0.1226160841
 40
0.136454196
 40
0.1509734409
 40
0.1661538067
 40
0.1819727413
 40
0.1984054552
 40
0.2154252451
 40
0.233003508
 40
0.2511100181
 40
0.2697130988
 40
0.288779623
 40
0.3281637084
 40
0.3689758341
 40
0.4109140611
 40
0.4536652952
 40
0.496908534
 40
0.5403180533
 40
0.58356653
 40
0.6263281872
 40
0.6682819354
 40
0.7091145197
 40
0.7485237777
 40
0.7862219893
 40
0.8043449156
 40
0.8219405913
 40
0.8389787009
 40
0.8554306652
 40
0.871269662
 40
0.8864708261
 40
0.9010116003
 40
0.9148718073
 40
0.9280340646
 40
0.940484227
 40
0.9522117242
 40
0.9632103966
 40
0.9734791407
 40
0.9830231747
 40
0.9918561893
 40
1.0
 40
1.0
 40
1.0
 40
1.0
 10
12.409577811
 20
7.4914654523
 30
0.0
 10
12.410044404
 20
7.491433089
 30
0.0
 10
12.4109787027
 20
7.4913258709
 30
0.0
 10
12.412368238
 20
7.491038998
 30
0.0
 10
12.4137473255
 20
7.4906261139
 30
0.0
 10
12.4155962071
 20
7.489898205
 30
0.0
 10
12.417890537
 20
7.4886530418
 30
0.0
 10
12.4205422368
 20
7.4866834352
 30
0.0
 10
12.4231298523
 20
7.484224776
 30
0.0
 10
12.4256502774
 20
7.4812832714
 30
0.0
 10
12.4281008787
 20
7.4778647903
 30
0.0
 10
12.4304781329
 20
7.4739756796
 30
0.0
 10
12.4327781213
 20
7.469623071
 30
0.0
 10
12.4349967723
 20
7.4648151282
 30
0.0
 10
12.4371298906
 20
7.4595609953
 30
0.0
 10
12.4391732917
 20
7.4538708182
 30
0.0
 10
12.4411229637
 20
7.4477557308
 30
0.0
 10
12.4429749678
 20
7.4412277748
 30
0.0
 10
12.4447255538
 20
7.4342998856
 30
0.0
 10
12.4463712047
 20
7.4269858535
 30
0.0
 10
12.4479085456
 20
7.4193002691
 30
0.0
 10
12.4493344571
 20
7.4112585021
 30
0.0
 10
12.4506460573
 20
7.4028766586
 30
0.0
 10
12.4518406445
 20
7.3941715401
 30
0.0
 10
12.4529158081
 20
7.3851606127
 30
0.0
 10
12.4538693605
 20
7.3758619715
 30
0.0
 10
12.4546993559
 20
7.3662942745
 30
0.0
 10
12.4556492099
 20
7.3530612041
 30
0.0
 10
12.4565066467
 20
7.3359898315
 30
0.0
 10
12.4570129414
 20
7.3149652912
 30
0.0
 10
12.457002763
 20
7.293354983
 30
0.0
 10
12.4564760126
 20
7.2713325389
 30
0.0
 10
12.4554367591
 20
7.2490747818
 30
0.0
 10
12.453893276
 20
7.226760504
 30
0.0
 10
12.451857948
 20
7.2045689452
 30
0.0
 10
12.4493472098
 20
7.1826783398
 30
0.0
 10
12.4463813757
 20
7.1612644839
 30
0.0
 10
12.4429845014
 20
7.1404992117
 30
0.0
 10
12.4391841322
 20
7.1205492706
 30
0.0
 10
12.43566213
 20
7.1045329775
 30
0.0
 10
12.4326555331
 20
7.0922547236
 30
0.0
 10
12.4303493267
 20
7.0834685165
 30
0.0
 10
12.427966904
 20
7.0750011345
 30
0.0
 10
12.4255130746
 20
7.0668695441
 30
0.0
 10
12.4229928019
 20
7.059090046
 30
0.0
 10
12.4204111535
 20
7.0516782194
 30
0.0
 10
12.4177733782
 20
7.0446488699
 30
0.0
 10
12.415084781
 20
7.0380160215
 30
0.0
 10
12.4123507651
 20
7.0317928709
 30
0.0
 10
12.4095768563
 20
7.0259917282
 30
0.0
 10
12.4067685612
 20
7.0206240251
 30
0.0
 10
12.4039314205
 20
7.0157002536
 30
0.0
 10
12.4010710401
 20
7.0112299409
 30
0.0
 10
12.3981926415
 20
7.0072214499
 30
0.0
 10
12.3953018101
 20
7.0036827974
 30
0.0
 10
12.3932900155
 20
7.0015571714
 30
0.0
 10
12.3922815057
 20
7.0005830257
 30
0.0
  0
SPLINE
  5
2FB
100
AcDbEntity
  8
0
100
AcDbSpline
 62
7
  6
CONTINUOUS
 70
0
 71
3
 72
23
 73
19
 74
0
 42
0.0000001
 43
0.0000001
 44
0.0000000001
 40
0.0
 40
0.0
 40
0.0
 40
0.0
 40
0.0616002167
 40
0.1232522697
 40
0.1849737927
 40
0.246781799
 40
0.308692531
 40
0.3707213188
 40
0.4328824496
 40
0.4951890531
 40
0.5576529899
 40
0.6202847717
 40
0.6830934593
 40
0.7460865774
 40
0.8092703444
 40
0.8726484062
 40
0.9362255246
 40
1.0
 40
1.0
 40
1.0
 40
1.0
 10
11.0357553616
 20
8.1806601992
 30
0.0
 10
11.0277455044
 20
8.1741841822
 30
0.0
 10
11.0114037787
 20
8.1616111671
 30
0.0
 10
10.9860010243
 20
8.1439459015
 30
0.0
 10
10.9597489938
 20
8.1275024446
 30
0.0
 10
10.932701707
 20
8.1123147239
 30
0.0
 10
10.9049138528
 20
8.0984133747
 30
0.0
 10
10.8764418703
 20
8.0858266248
 30
0.0
 10
10.8473435294
 20
8.0745799445
 30
0.0
 10
10.8176778795
 20
8.064696098
 30
0.0
 10
10.787505106
 20
8.0561950813
 30
0.0
 10
10.7568864136
 20
8.0490940905
 30
0.0
 10
10.7258839136
 20
8.043407494
 30
0.0
 10
10.6945604411
 20
8.0391467441
 30
0.0
 10
10.6629796702
 20
8.0363204824
 30
0.0
 10
10.6312051852
 20
8.0349342277
 30
0.0
 10
10.5993025137
 20
8.0349909264
 30
0.0
 10
10.5780226637
 20
8.0359890058
 30
0.0
 10
10.5673843315
 20
8.0367267767
 30
0.0
  0
SPLINE
  5
2FC
100
AcDbEntity
  8
0
100
AcDbSpline
 62
7
  6
CONTINUOUS
 70
0
 71
3
 72
47
 73
43
 74
0
 42
0.0000001
 43
0.0000001
 44
0.0000000001
 40
0.0
 40
0.0
 40
0.0
 40
0.0
 40
0.0311436292
 40
0.0624403286
 40
0.0938841145
 40
0.1254653538
 40
0.1571718212
 40
0.1889887674
 40
0.2208992481
 40
0.2528844788
 40
0.2849242182
 40
0.3169971678
 40
0.3490813865
 40
0.3811547163
 40
0.4131952096
 40
0.4451815531
 40
0.4770934826
 40
0.508912187
 40
0.5406206876
 40
0.57220419
 40
0.6036504098
 40
0.6349498478
 40
0.666096023
 40
0.6970856554
 40
0.7279187774
 40
0.7585987852
 40
0.7738860456
 40
0.7891378294
 40
0.8043554841
 40
0.8195405506
 40
0.8346947513
 40
0.8498199856
 40
0.8649183207
 40
0.8799919763
 40
0.8950433157
 40
0.9100748339
 40
0.9250891399
 40
0.9400889437
 40
0.9550770422
 40
0.9700563006
 40
0.9850296355
 40
1.0
 40
1.0
 40
1.0
 40
1.0
 10
10.292259923
 20
6.0883340376
 30
0.0
 10
10.2758669675
 20
6.0894708929
 30
0.0
 10
10.2430715015
 20
6.0929500977
 30
0.0
 10
10.1942759183
 20
6.1017142741
 30
0.0
 10
10.1460029745
 20
6.113990259
 30
0.0
 10
10.0985134004
 20
6.1297120731
 30
0.0
 10
10.0520594573
 20
6.1487954013
 30
0.0
 10
10.0068889633
 20
6.1711381775
 30
0.0
 10
9.963242568
 20
6.1966210463
 30
0.0
 10
9.9213528026
 20
6.2251078726
 30
0.0
 10
9.8814428825
 20
6.2564467011
 30
0.0
 10
9.8437254791
 20
6.2904703987
 30
0.0
 10
9.808401537
 20
6.3269975152
 30
0.0
 10
9.7756593839
 20
6.36583341
 30
0.0
 10
9.7456735821
 20
6.4067711117
 30
0.0
 10
9.7186040128
 20
6.449592451
 30
0.0
 10
9.6945951967
 20
6.4940693083
 30
0.0
 10
9.673775311
 20
6.5399646719
 30
0.0
 10
9.6562555945
 20
6.5870339609
 30
0.0
 10
9.6421298885
 20
6.6350263475
 30
0.0
 10
9.631473869
 20
6.6836859679
 30
0.0
 10
9.624344822
 20
6.7327533993
 30
0.0
 10
9.6207813441
 20
6.7819667986
 30
0.0
 10
9.6208030414
 20
6.8310640328
 30
0.0
 10
9.6244099521
 20
6.8797812178
 30
0.0
 10
9.6303966095
 20
6.9199003318
 30
0.0
 10
9.6369543595
 20
6.9515350851
 30
0.0
 10
9.6427425081
 20
6.9749797754
 30
0.0
 10
9.6493980806
 20
6.9981367147
 30
0.0
 10
9.6569122189
 20
7.0209754062
 30
0.0
 10
9.6652749607
 20
7.0434651988
 30
0.0
 10
9.6744751151
 20
7.0655760848
 30
0.0
 10
9.6845003725
 20
7.0872785283
 30
0.0
 10
9.6953374176
 20
7.1085435018
 30
0.0
 10
9.7069717574
 20
7.1293425973
 30
0.0
 10
9.7193878205
 20
7.1496480445
 30
0.0
 10
9.7325690831
 20
7.1694326704
 30
0.0
 10
9.7464979321
 20
7.1886700469
 30
0.0
 10
9.7611556963
 20
7.2073344723
 30
0.0
 10
9.7765229343
 20
7.2254010566
 30
0.0
 10
9.792578776
 20
7.2428453133
 30
0.0
 10
9.8037286086
 20
7.254045639
 30
0.0
 10
9.8094098644
 20
7.2595333258
 30
0.0
  0
SPLINE
  5
2FD
100
AcDbEntity
  8
0
100
AcDbSpline
 62
7
  6
CONTINUOUS
 70
0
 71
3
 72
41
 73
37
 74
0
 42
0.0000001
 43
0.0000001
 44
0.0000000001
 40
0.0
 40
0.0
 40
0.0
 40
0.0
 40
0.0302776375
 40
0.0454599654
 40
0.0606709161
 40
0.0911770581
 40
0.1218009456
 40
0.1371586902
 40
0.1525458901
 40
0.1834049347
 40
0.2143785091
 40
0.2454627255
 40
0.2766523773
 40
0.3079410137
 40
0.3393210274
 40
0.3707837524
 40
0.4023195729
 40
0.4339180391
 40
0.465567991
 40
0.4972576883
 40
0.5289749442
 40
0.5607072634
 40
0.5924419824
 40
0.6241664109
 40
0.6558679733
 40
0.6875343501
 40
0.7191536162
 40
0.7507143768
 40
0.782205899
 40
0.8136182371
 40
0.8449423551
 40
0.8761702274
 40
0.9072949732
 40
0.9383108585
 40
0.9692135974
 40
1.0
 40
1.0
 40
1.0
 40
1.0
 10
10.3493936472
 20
9.2845635654
 30
0.0
 10
10.347032483
 20
9.2735840137
 30
0.0
 10
10.3439590108
 20
9.2569922625
 30
0.0
 10
10.3408049651
 20
9.2347082271
 30
0.0
 10
10.3382727945
 20
9.2122590284
 30
0.0
 10
10.3362910365
 20
9.1839962667
 30
0.0
 10
10.3358919357
 20
9.1556126845
 30
0.0
 10
10.3365185323
 20
9.1328558718
 30
0.0
 10
10.3377786917
 20
9.1100380072
 30
0.0
 10
10.3405404942
 20
9.0815133999
 30
0.0
 10
10.3457339762
 20
9.0474254527
 30
0.0
 10
10.3527938969
 20
9.0135490125
 30
0.0
 10
10.3616983049
 20
8.9799894058
 30
0.0
 10
10.3724195956
 20
8.9468501222
 30
0.0
 10
10.3849245541
 20
8.9142335698
 30
0.0
 10
10.399174471
 20
8.882240472
 30
0.0
 10
10.4151252586
 20
8.8509696371
 30
0.0
 10
10.4327275887
 20
8.8205176346
 30
0.0
 10
10.451927044
 20
8.7909785042
 30
0.0
 10
10.4726642862
 20
8.7624434662
 30
0.0
 10
10.4948752385
 20
8.7350006423
 30
0.0
 10
10.5184912824
 20
8.7087347847
 30
0.0
 10
10.5434394691
 20
8.6837270163
 30
0.0
 10
10.5696427432
 20
8.6600545813
 30
0.0
 10
10.5970201792
 20
8.6377906084
 30
0.0
 10
10.6254872307
 20
8.6170038854
 30
0.0
 10
10.6549559887
 20
8.5977586486
 30
0.0
 10
10.6853354524
 20
8.5801143842
 30
0.0
 10
10.716531807
 20
8.5641256466
 30
0.0
 10
10.7484487147
 20
8.5498418869
 30
0.0
 10
10.7809875973
 20
8.5373073089
 30
0.0
 10
10.8140479862
 20
8.5265607111
 30
0.0
 10
10.8475276529
 20
8.5176354165
 30
0.0
 10
10.8813235668
 20
8.510559051
 30
0.0
 10
10.9153298987
 20
8.5053537345
 30
0.0
 10
10.9381177939
 20
8.5031372176
 30
0.0
 10
10.949509711
 20
8.5023471854
 30
0.0
  0
SPLINE
  5
2FE
100
AcDbEntity
  8
0
100
AcDbSpline
 62
7
  6
CONTINUOUS
 70
0
 71
3
 72
11
 73
7
 74
0
 42
0.0000001
 43
0.0000001
 44
0.0000000001
 40
0.0
 40
0.0
 40
0.0
 40
0.0
 40
0.2484520609
 40
0.4979187783
 40
0.748429099
 40
1.0
 40
1.0
 40
1.0
 40
1.0
 10
11.0973718436
 20
8.5101797337
 30
0.0
 10
11.0852723337
 20
8.5080137795
 30
0.0
 10
11.060881056
 20
8.5044328326
 30
0.0
 10
11.0239603124
 20
8.5013371001
 30
0.0
 10
10.9867649634
 20
8.5005162886
 30
0.0
 10
10.9619260364
 20
8.5014861103
 30
0.0
 10
10.949509711
 20
8.5023471854
 30
0.0
  0
SPLINE
  5
2FF
100
AcDbEntity
  8
0
100
AcDbSpline
 62
7
  6
CONTINUOUS
 70
0
 71
3
 72
19
 73
15
 74
0
 42
0.0000001
 43
0.0000001
 44
0.0000000001
 40
0.0
 40
0.0
 40
0.0
 40
0.0
 40
0.0568732366
 40
0.1131885748
 40
0.1692470406
 40
0.2253540059
 40
0.2818140864
 40
0.3389256734
 40
0.396976109
 40
0.4562380792
 40
0.5793323416
 40
0.7100713145
 40
0.8499120677
 40
1.0
 40
1.0
 40
1.0
 40
1.0
 10
12.3759540577
 20
8.8560012302
 30
0.0
 10
12.3767951907
 20
8.8561236994
 30
0.0
 10
12.378478776
 20
8.8563066435
 30
0.0
 10
12.3810091916
 20
8.8563904325
 30
0.0
 10
12.3835273704
 20
8.8562818176
 30
0.0
 10
12.3860319902
 20
8.8559808246
 30
0.0
 10
12.3885219488
 20
8.8554875486
 30
0.0
 10
12.3909961133
 20
8.8548023609
 30
0.0
 10
12.3934535344
 20
8.8539256465
 30
0.0
 10
12.396747401
 20
8.8524841081
 30
0.0
 10
12.4008343082
 20
8.8501766202
 30
0.0
 10
12.4055854479
 20
8.8466860381
 30
0.0
 10
12.4102422366
 20
8.8424474854
 30
0.0
 10
12.4131720323
 20
8.8392467794
 30
0.0
 10
12.4146226193
 20
8.8375357835
 30
0.0
  0
SPLINE
  5
300
100
AcDbEntity
  8
0
100
AcDbSpline
 62
7
  6
CONTINUOUS
 70
0
 71
3
 72
25
 73
21
 74
0
 42
0.0000001
 43
0.0000001
 44
0.0000000001
 40
0.0
 40
0.0
 40
0.0
 40
0.0
 40
0.0616475261
 40
0.0924812754
 40
0.123323642
 40
0.1850399915
 40
0.2468243959
 40
0.2777516314
 40
0.3087038656
 40
0.370687894
 40
0.4328012868
 40
0.4950619237
 40
0.5574860836
 40
0.6200882754
 40
0.6828811165
 40
0.7458751526
 40
0.8090789605
 40
0.8724985324
 40
0.9361385804
 40
1.0
 40
1.0
 40
1.0
 40
1.0
 10
10.8872742758
 20
7.9684355474
 30
0.0
 10
10.8784986131
 20
7.9599589304
 30
0.0
 10
10.8649880138
 20
7.9475933142
 30
0.0
 10
10.846331834
 20
7.9318520983
 30
0.0
 10
10.8272485809
 20
7.9166086287
 30
0.0
 10
10.8026203518
 20
7.8985111823
 30
0.0
 10
10.7770437744
 20
7.8817501538
 30
0.0
 10
10.7560494723
 20
7.8691647255
 30
0.0
 10
10.7346925032
 20
7.8571244922
 30
0.0
 10
10.7073659552
 20
7.8431277996
 30
0.0
 10
10.6736769904
 20
7.8280722063
 30
0.0
 10
10.6391581285
 20
7.8147857114
 30
0.0
 10
10.6038969126
 20
7.8033020303
 30
0.0
 10
10.5679820117
 20
7.7936499022
 30
0.0
 10
10.5315039355
 20
7.7858535719
 30
0.0
 10
10.4945544969
 20
7.7799325413
 30
0.0
 10
10.4572268556
 20
7.7759016602
 30
0.0
 10
10.4196145639
 20
7.7737709104
 30
0.0
 10
10.3818136243
 20
7.7735455819
 30
0.0
 10
10.3565913465
 20
7.7746641492
 30
0.0
 10
10.3439824295
 20
7.7755385806
 30
0.0
  0
SPLINE
  5
301
100
AcDbEntity
  8
0
100
AcDbSpline
 62
7
  6
CONTINUOUS
 70
0
 71
3
 72
21
 73
17
 74
0
 42
0.0000001
 43
0.0000001
 44
0.0000000001
 40
0.0
 40
0.0
 40
0.0
 40
0.0
 40
0.0616089938
 40
0.1232984206
 40
0.185078685
 40
0.2469596613
 40
0.3089506243
 40
0.3710602089
 40
0.4332963682
 40
0.4956663158
 40
0.5581765114
 40
0.6208325952
 40
0.6836393644
 40
0.7466009899
 40
0.872977333
 40
1.0
 40
1.0
 40
1.0
 40
1.0
 10
10.9864915846
 20
8.0891993938
 30
0.0
 10
10.9787870009
 20
8.0845953447
 30
0.0
 10
10.963185649
 20
8.0756821693
 30
0.0
 10
10.9392640359
 20
8.063228104
 30
0.0
 10
10.9148396126
 20
8.0516974895
 30
0.0
 10
10.8899458367
 20
8.0411062462
 30
0.0
 10
10.8646162445
 20
8.0314686083
 30
0.0
 10
10.838885141
 20
8.0227975425
 30
0.0
 10
10.8127872855
 20
8.0151047931
 30
0.0
 10
10.7863579639
 20
8.0084007677
 30
0.0
 10
10.7596328939
 20
8.0026944368
 30
0.0
 10
10.732648302
 20
7.9979935268
 30
0.0
 10
10.7054402391
 20
7.9943044011
 30
0.0
 10
10.668873207
 20
7.9907370149
 30
0.0
 10
10.6227795576
 20
7.9888376211
 30
0.0
 10
10.5858450783
 20
7.990048003
 30
0.0
 10
10.5673843315
 20
7.9913282602
 30
0.0
  0
SPLINE
  5
302
100
AcDbEntity
  8
0
100
AcDbSpline
 62
7
  6
CONTINUOUS
 70
0
 71
3
 72
88
 73
84
 74
0
 42
0.0000001
 43
0.0000001
 44
0.0000000001
 40
0.0
 40
0.0
 40
0.0
 40
0.0
 40
0.0039559339
 40
0.0077348723
 40
0.0113459927
 40
0.0148007372
 40
0.0212927307
 40
0.0243681736
 40
0.0273543804
 40
0.0302735471
 40
0.0331495699
 40
0.0360075358
 40
0.0388730426
 40
0.041771477
 40
0.044727289
 40
0.0477634251
 40
0.0509008796
 40
0.0541584465
 40
0.0575526887
 40
0.0610978977
 40
0.0648063286
 40
0.0686882992
 40
0.0727524116
 40
0.0770057968
 40
0.081454187
 40
0.0861022213
 40
0.0909534739
 40
0.0960106367
 40
0.1012756583
 40
0.1067497287
 40
0.1124335075
 40
0.1183270519
 40
0.1244299555
 40
0.1372595096
 40
0.1509116146
 40
0.1653696786
 40
0.1806126287
 40
0.196615522
 40
0.2133500238
 40
0.2307847849
 40
0.2488857527
 40
0.2676164585
 40
0.2869382554
 40
0.3068105282
 40
0.327190883
 40
0.3480353177
 40
0.3692984038
 40
0.3909334516
 40
0.4128926665
 40
0.4351273005
 40
0.4575877985
 40
0.5029841819
 40
0.5486759006
 40
0.5942527445
 40
0.6393058195
 40
0.6615101411
 40
0.683433174
 40
0.7050262751
 40
0.7262417743
 40
0.7470331256
 40
0.7673550637
 40
0.7871637674
 40
0.806417043
 40
0.8250745014
 40
0.8430977461
 40
0.8604505862
 40
0.8770992756
 40
0.8930128027
 40
0.9081632177
 40
0.9225260143
 40
0.9360806237
 40
0.9425499405
 40
0.9488116581
 40
0.9548645881
 40
0.96070803
 40
0.9663416828
 40
0.9717657326
 40
0.9769809397
 40
0.9819886386
 40
0.9867910525
 40
0.9913911736
 40
0.9957926703
 40
1.0
 40
1.0
 40
1.0
 40
1.0
 10
12.3485484775
 20
8.7995880791
 30
0.0
 10
12.349547707
 20
8.8005213607
 30
0.0
 10
12.3515453525
 20
8.8023000789
 30
0.0
 10
12.3546104875
 20
8.8047491187
 30
0.0
 10
12.3576729373
 20
8.8069150545
 30
0.0
 10
12.3616655687
 20
8.8093717426
 30
0.0
 10
12.3657392491
 20
8.8113339634
 30
0.0
 10
12.3698566849
 20
8.8127167474
 30
0.0
 10
12.3728783664
 20
8.8134455537
 30
0.0
 10
12.375886215
 20
8.8138834281
 30
0.0
 10
12.3788781267
 20
8.8140296516
 30
0.0
 10
12.3818515687
 20
8.813883819
 30
0.0
 10
12.384804026
 20
8.8134461026
 30
0.0
 10
12.3877329991
 20
8.8127168991
 30
0.0
 10
12.390636242
 20
8.8116972787
 30
0.0
 10
12.3935117024
 20
8.8103883609
 30
0.0
 10
12.396357597
 20
8.8087915476
 30
0.0
 10
12.3991723774
 20
8.8069083484
 30
0.0
 10
12.4019545154
 20
8.8047401881
 30
0.0
 10
12.4047027017
 20
8.8022887205
 30
0.0
 10
12.4074155052
 20
8.7995554931
 30
0.0
 10
12.4100915791
 20
8.7965422392
 30
0.0
 10
12.4127295643
 20
8.7932507847
 30
0.0
 10
12.4153279909
 20
8.7896830301
 30
0.0
 10
12.4178855287
 20
8.785841115
 30
0.0
 10
12.4204006815
 20
8.7817272395
 30
0.0
 10
12.4228720625
 20
8.777343828
 30
0.0
 10
12.4252982624
 20
8.7726934458
 30
0.0
 10
12.42767782
 20
8.7677788037
 30
0.0
 10
12.4300094182
 20
8.7626028185
 30
0.0
 10
12.4322916038
 20
8.7571685238
 30
0.0
 10
12.4345231029
 20
8.7514791396
 30
0.0
 10
12.4374783549
 20
8.7434228854
 30
0.0
 10
12.441022871
 20
8.7327296856
 30
0.0
 10
12.4449859634
 20
8.7191433168
 30
0.0
 10
12.448717049
 20
8.7046287356
 30
0.0
 10
12.452207125
 20
8.689220477
 30
0.0
 10
12.4554477277
 20
8.6729550212
 30
0.0
 10
12.4584309889
 20
8.6558710711
 30
0.0
 10
12.4611496589
 20
8.6380093322
 30
0.0
 10
12.4635971397
 20
8.6194124331
 30
0.0
 10
12.4657674869
 20
8.6001247974
 30
0.0
 10
12.4676554275
 20
8.580192527
 30
0.0
 10
12.4692563717
 20
8.5596632854
 30
0.0
 10
12.4705664227
 20
8.5385861853
 30
0.0
 10
12.4715823974
 20
8.5170116678
 30
0.0
 10
12.4723018222
 20
8.4949913771
 30
0.0
 10
12.47272294
 20
8.4725780269
 30
0.0
 10
12.4728447027
 20
8.4498252905
 30
0.0
 10
12.4726668171
 20
8.426787605
 30
0.0
 10
12.4720282598
 20
8.3956551782
 30
0.0
 10
12.4704830008
 20
8.356435476
 30
0.0
 10
12.4674676746
 20
8.3092917856
 30
0.0
 10
12.463313272
 20
8.2623538876
 30
0.0
 10
12.4589146062
 20
8.2235993685
 30
0.0
 10
12.4548485064
 20
8.1930446235
 30
0.0
 10
12.4515569213
 20
8.1705687514
 30
0.0
 10
12.448016707
 20
8.1484767609
 30
0.0
 10
12.4442363355
 20
8.1268215011
 30
0.0
 10
12.4402249041
 20
8.1056548174
 30
0.0
 10
12.4359920553
 20
8.0850273671
 30
0.0
 10
12.4315479666
 20
8.0649885087
 30
0.0
 10
12.4269033351
 20
8.0455861713
 30
0.0
 10
12.4220693439
 20
8.0268667386
 30
0.0
 10
12.4170576329
 20
8.0088749368
 30
0.0
 10
12.4118802723
 20
7.9916537266
 30
0.0
 10
12.4065497279
 20
7.9752441816
 30
0.0
 10
12.4010788384
 20
7.9596853969
 30
0.0
 10
12.3954807753
 20
7.945014286
 30
0.0
 10
12.3897689975
 20
7.9312658029
 30
0.0
 10
12.3848523957
 20
7.9204424287
 30
0.0
 10
12.3808638927
 20
7.9122791165
 30
0.0
 10
12.3778992265
 20
7.9065027368
 30
0.0
 10
12.3749163932
 20
7.9009803556
 30
0.0
 10
12.3719171869
 20
7.8957152227
 30
0.0
 10
12.3689033714
 20
7.8907104644
 30
0.0
 10
12.3658767161
 20
7.8859690574
 30
0.0
 10
12.3628390759
 20
7.8814937807
 30
0.0
 10
12.3597921479
 20
7.8772872872
 30
0.0
 10
12.3567377184
 20
7.8733519785
 30
0.0
 10
12.3536774537
 20
7.8696901501
 30
0.0
 10
12.3506133177
 20
7.8663041598
 30
0.0
 10
12.3485228552
 20
7.8641850688
 30
0.0
 10
12.3474769317
 20
7.8631747843
 30
0.0
  0
SPLINE
  5
303
100
AcDbEntity
  8
0
100
AcDbSpline
 62
7
  6
CONTINUOUS
 70
0
 71
3
 72
23
 73
19
 74
0
 42
0.0000001
 43
0.0000001
 44
0.0000000001
 40
0.0
 40
0.0
 40
0.0
 40
0.0
 40
0.0616137684
 40
0.1232693412
 40
0.1849862759
 40
0.2467835305
 40
0.3086792819
 40
0.3706907541
 40
0.432834057
 40
0.4951240393
 40
0.5575741537
 40
0.6201963421
 40
0.683000945
 40
0.7459965445
 40
0.8091902352
 40
0.8725864495
 40
0.9361899708
 40
1.0
 40
1.0
 40
1.0
 40
1.0
 10
11.0491256749
 20
8.2122658098
 30
0.0
 10
11.0411676648
 20
8.2053759415
 30
0.0
 10
11.0248961446
 20
8.1919900383
 30
0.0
 10
10.999501283
 20
8.1731574084
 30
0.0
 10
10.973166399
 20
8.15560538
 30
0.0
 10
10.9459505049
 20
8.1393734195
 30
0.0
 10
10.9179135628
 20
8.1244971751
 30
0.0
 10
10.8891176112
 20
8.1110095313
 30
0.0
 10
10.8596262878
 20
8.098940233
 30
0.0
 10
10.8295047789
 20
8.0883159037
 30
0.0
 10
10.7988196512
 20
8.0791599648
 30
0.0
 10
10.7676387064
 20
8.0714925907
 30
0.0
 10
10.7360308506
 20
8.0653306608
 30
0.0
 10
10.7040658691
 20
8.0606876794
 30
0.0
 10
10.6718145089
 20
8.0575739049
 30
0.0
 10
10.6393475696
 20
8.0559960126
 30
0.0
 10
10.6067378901
 20
8.055957569
 30
0.0
 10
10.584983901
 20
8.0569566487
 30
0.0
 10
10.574108642
 20
8.0577108505
 30
0.0
  0
SPLINE
  5
304
100
AcDbEntity
  8
0
100
AcDbSpline
 62
7
  6
CONTINUOUS
 70
0
 71
3
 72
23
 73
19
 74
0
 42
0.0000001
 43
0.0000001
 44
0.0000000001
 40
0.0
 40
0.0
 40
0.0
 40
0.0
 40
0.061591354
 40
0.1232457391
 40
0.1849783897
 40
0.2468039168
 40
0.3087361955
 40
0.3707882644
 40
0.4329722284
 40
0.495299166
 40
0.5577790442
 40
0.6204206782
 40
0.6832316057
 40
0.7462181605
 40
0.8093854533
 40
0.8727363008
 40
0.9362754395
 40
1.0
 40
1.0
 40
1.0
 40
1.0
 10
11.0531187986
 20
8.2224107091
 30
0.0
 10
11.0454573399
 20
8.2167518346
 30
0.0
 10
11.0298669295
 20
8.2057750852
 30
0.0
 10
11.0057466342
 20
8.190379058
 30
0.0
 10
10.9809228802
 20
8.17607122
 30
0.0
 10
10.9554411093
 20
8.1628778543
 30
0.0
 10
10.929347177
 20
8.1508226024
 30
0.0
 10
10.9026882425
 20
8.1399272196
 30
0.0
 10
10.8755124169
 20
8.1302113348
 30
0.0
 10
10.8478687495
 20
8.1216924841
 30
0.0
 10
10.819807142
 20
8.1143859868
 30
0.0
 10
10.7913782468
 20
8.1083049749
 30
0.0
 10
10.7626333683
 20
8.1034603731
 30
0.0
 10
10.7336243348
 20
8.0998609013
 30
0.0
 10
10.7044036343
 20
8.0975130748
 30
0.0
 10
10.6750235367
 20
8.0964209144
 30
0.0
 10
10.6455380558
 20
8.0965865594
 30
0.0
 10
10.6258732946
 20
8.0975338452
 30
0.0
 10
10.6160422719
 20
8.0982156289
 30
0.0
  0
SPLINE
  5
305
100
AcDbEntity
  8
0
100
AcDbSpline
 62
7
  6
CONTINUOUS
 70
0
 71
3
 72
23
 73
19
 74
0
 42
0.0000001
 43
0.0000001
 44
0.0000000001
 40
0.0
 40
0.0
 40
0.0
 40
0.0
 40
0.0616206878
 40
0.1232789174
 40
0.1849950151
 40
0.2467887225
 40
0.3086790006
 40
0.370683845
 40
0.4328201103
 40
0.4951033514
 40
0.5575476763
 40
0.620165622
 40
0.682968054
 40
0.7459640003
 40
0.8091609285
 40
0.8725635193
 40
0.9361768128
 40
1.0
 40
1.0
 40
1.0
 40
1.0
 10
11.0782348526
 20
8.3044346924
 30
0.0
 10
11.0707568861
 20
8.2977857662
 30
0.0
 10
11.0554529953
 20
8.2848644015
 30
0.0
 10
11.0315288036
 20
8.2666756386
 30
0.0
 10
11.0066836175
 20
8.2497153642
 30
0.0
 10
10.9809749485
 20
8.2340229768
 30
0.0
 10
10.9544613132
 20
8.2196340802
 30
0.0
 10
10.9272033201
 20
8.2065815336
 30
0.0
 10
10.899263201
 20
8.1948950745
 30
0.0
 10
10.8707047563
 20
8.1846013344
 30
0.0
 10
10.8415931857
 20
8.1757237555
 30
0.0
 10
10.811994941
 20
8.1682825459
 30
0.0
 10
10.7819775931
 20
8.1622946287
 30
0.0
 10
10.7516096069
 20
8.1577735596
 30
0.0
 10
10.7209604167
 20
8.1547296572
 30
0.0
 10
10.6900995261
 20
8.1531696616
 30
0.0
 10
10.6590984605
 20
8.1530972162
 30
0.0
 10
10.63841658
 20
8.1540391454
 30
0.0
 10
10.6280773475
 20
8.1547561736
 30
0.0
  0
SPLINE
  5
306
100
AcDbEntity
  8
0
100
AcDbSpline
 62
7
  6
CONTINUOUS
 70
0
 71
3
 72
11
 73
7
 74
0
 42
0.0000001
 43
0.0000001
 44
0.0000000001
 40
0.0
 40
0.0
 40
0.0
 40
0.0
 40
0.2484353059
 40
0.4978958134
 40
0.748411298
 40
1.0
 40
1.0
 40
1.0
 40
1.0
 10
11.0981519989
 20
8.4642584376
 30
0.0
 10
11.0851808847
 20
8.4618976247
 30
0.0
 10
11.059027608
 20
8.4579904988
 30
0.0
 10
11.0194302019
 20
8.4545990546
 30
0.0
 10
10.9795313711
 20
8.4536761607
 30
0.0
 10
10.9528853714
 20
8.4547072285
 30
0.0
 10
10.9395658112
 20
8.4556309431
 30
0.0
  0
SPLINE
  5
307
100
AcDbEntity
  8
0
100
AcDbSpline
 62
7
  6
CONTINUOUS
 70
0
 71
3
 72
16
 73
12
 74
0
 42
0.0000001
 43
0.0000001
 44
0.0000000001
 40
0.0
 40
0.0
 40
0.0
 40
0.0
 40
0.1504802345
 40
0.2917477373
 40
0.4244952497
 40
0.4879700346
 40
0.5496761098
 40
0.6683415877
 40
0.7818816099
 40
0.8918561996
 40
1.0
 40
1.0
 40
1.0
 40
1.0
 10
12.3922815057
 20
7.0005830257
 30
0.0
 10
12.3915747527
 20
6.9999003547
 30
0.0
 10
12.3901621436
 20
6.9986194398
 30
0.0
 10
12.3879748868
 20
6.9969124019
 30
0.0
 10
12.3861273274
 20
6.9957050916
 30
0.0
 10
12.384654073
 20
6.9948875554
 30
0.0
 10
12.3832242237
 20
6.9941856704
 30
0.0
 10
12.3814362632
 20
6.9934765135
 30
0.0
 10
12.37927157
 20
6.9929005811
 30
0.0
 10
12.3771190924
 20
6.9926130369
 30
0.0
 10
12.3756896745
 20
6.9926146779
 30
0.0
 10
12.3749852005
 20
6.9926635409
 30
0.0
  0
SPLINE
  5
308
100
AcDbEntity
  8
0
100
AcDbSpline
 62
7
  6
CONTINUOUS
 70
0
 71
3
 72
11
 73
7
 74
0
 42
0.0000001
 43
0.0000001
 44
0.0000000001
 40
0.0
 40
0.0
 40
0.0
 40
0.0
 40
0.248496409
 40
0.4979795059
 40
0.7484758972
 40
1.0
 40
1.0
 40
1.0
 40
1.0
 10
11.0965719298
 20
8.5235549208
 30
0.0
 10
11.0849884919
 20
8.5215724557
 30
0.0
 10
11.0616489221
 20
8.5183041889
 30
0.0
 10
11.0263420125
 20
8.5155109875
 30
0.0
 10
10.9907883738
 20
8.5148259068
 30
0.0
 10
10.9670496434
 20
8.5157746186
 30
0.0
 10
10.9551831001
 20
8.5165975661
 30
0.0
  0
SPLINE
  5
309
100
AcDbEntity
  8
0
100
AcDbSpline
 62
7
  6
CONTINUOUS
 70
0
 71
3
 72
51
 73
47
 74
0
 42
0.0000001
 43
0.0000001
 44
0.0000000001
 40
0.0
 40
0.0
 40
0.0
 40
0.0
 40
0.0311429623
 40
0.0624390393
 40
0.0938821581
 40
0.1254627405
 40
0.1571685478
 40
0.1889848322
 40
0.2208946479
 40
0.2528792128
 40
0.2849182853
 40
0.3169905665
 40
0.3490741169
 40
0.3811467786
 40
0.413186604
 40
0.4451722806
 40
0.4770835444
 40
0.5089015852
 40
0.5406094235
 40
0.5721922667
 40
0.6036378301
 40
0.6349366131
 40
0.6505313541
 40
0.6660872357
 40
0.6816039492
 40
0.6970813947
 40
0.7125196809
 40
0.727919126
 40
0.7432802612
 40
0.7586038263
 40
0.7738907665
 40
0.789142231
 40
0.8043595683
 40
0.8195443173
 40
0.8346982008
 40
0.8498231194
 40
0.8649211391
 40
0.8799944797
 40
0.8950455049
 40
0.9100767091
 40
0.9250907018
 40
0.9400901927
 40
0.9550779784
 40
0.9700569243
 40
0.9850299475
 40
1.0
 40
1.0
 40
1.0
 40
1.0
 10
10.292259923
 20
7.6357473656
 30
0.0
 10
10.2716213083
 20
7.6371786584
 30
0.0
 10
10.2303320194
 20
7.6415589662
 30
0.0
 10
10.1688986841
 20
7.6525929766
 30
0.0
 10
10.1081233565
 20
7.6680484212
 30
0.0
 10
10.0483342866
 20
7.687842063
 30
0.0
 10
9.9898490649
 20
7.7118678555
 30
0.0
 10
9.9329797313
 20
7.7399973301
 30
0.0
 10
9.8780291703
 20
7.7720800552
 30
0.0
 10
9.8252902617
 20
7.8079448509
 30
0.0
 10
9.775043938
 20
7.847400249
 30
0.0
 10
9.7275579614
 20
7.8902358645
 30
0.0
 10
9.6830854005
 20
7.9362233272
 30
0.0
 10
9.6418632341
 20
7.9851174674
 30
0.0
 10
9.6041113411
 20
8.0366578033
 30
0.0
 10
9.5700309603
 20
8.0905696192
 30
0.0
 10
9.5398040548
 20
8.1465657129
 30
0.0
 10
9.5135919771
 20
8.2043477204
 30
0.0
 10
9.4915348319
 20
8.2636075788
 30
0.0
 10
9.473750692
 20
8.3240300632
 30
0.0
 10
9.4603349306
 20
8.3852908724
 30
0.0
 10
9.4528459094
 20
8.4368388598
 30
0.0
 10
9.4491079302
 20
8.4781625378
 30
0.0
 10
9.4474332589
 20
8.5091253813
 30
0.0
 10
9.4468867944
 20
8.5400503855
 30
0.0
 10
9.4474691601
 20
8.5708967604
 30
0.0
 10
9.449179656
 20
8.6016231829
 30
0.0
 10
9.4520160461
 20
8.6321886521
 30
0.0
 10
9.4559745134
 20
8.6625523424
 30
0.0
 10
9.4610497954
 20
8.6926737058
 30
0.0
 10
9.4672351917
 20
8.7225124987
 30
0.0
 10
9.4745224295
 20
8.752028868
 30
0.0
 10
9.4829017708
 20
8.7811833928
 30
0.0
 10
9.492362081
 20
8.8099371146
 30
0.0
 10
9.502890761
 20
8.8382516088
 30
0.0
 10
9.5144737156
 20
8.8660890621
 30
0.0
 10
9.5270954972
 20
8.893412278
 30
0.0
 10
9.5407393096
 20
8.9201847208
 30
0.0
 10
9.5553868977
 20
8.9463706323
 30
0.0
 10
9.5710186883
 20
8.9719350314
 30
0.0
 10
9.5876138437
 20
8.9968437283
 30
0.0
 10
9.6051502104
 20
9.0210634372
 30
0.0
 10
9.6236042939
 20
9.0445617883
 30
0.0
 10
9.6429515699
 20
9.0673074837
 30
0.0
 10
9.6631657996
 20
9.0892696681
 30
0.0
 10
9.6772034164
 20
9.1033707582
 30
0.0
 10
9.684356087
 20
9.110279715
 30
0.0
  0
SPLINE
  5
30A
100
AcDbEntity
  8
0
100
AcDbSpline
 62
7
  6
CONTINUOUS
 70
0
 71
3
 72
73
 73
69
 74
0
 42
0.0000001
 43
0.0000001
 44
0.0000000001
 40
0.0
 40
0.0
 40
0.0
 40
0.0
 40
0.0027206509
 40
0.0054518977
 40
0.0082141308
 40
0.0110269966
 40
0.0139090093
 40
0.0168772728
 40
0.0231291148
 40
0.0264422933
 40
0.0298936701
 40
0.0334923433
 40
0.0372460251
 40
0.0411612087
 40
0.0452433605
 40
0.0494969224
 40
0.0539255231
 40
0.0585320698
 40
0.0633187399
 40
0.0734376724
 40
0.08429044
 40
0.095877394
 40
0.1081934113
 40
0.1212287742
 40
0.1349699245
 40
0.1494000101
 40
0.1644992669
 40
0.1802453387
 40
0.1966135998
 40
0.213577378
 40
0.2311081074
 40
0.2491755165
 40
0.2677478086
 40
0.2867917866
 40
0.3062729483
 40
0.3261556407
 40
0.3669771212
 40
0.4089530565
 40
0.4517678439
 40
0.4950976351
 40
0.5386136018
 40
0.5819851123
 40
0.6248829235
 40
0.6669824003
 40
0.7079666945
 40
0.7279450372
 40
0.7475310084
 40
0.7666886864
 40
0.7853832908
 40
0.8035812745
 40
0.8212504488
 40
0.8383601624
 40
0.8548814235
 40
0.8707870419
 40
0.8860518344
 40
0.9006528828
 40
0.9145697468
 40
0.9277847697
 40
0.9402835139
 40
0.9520552649
 40
0.9630936709
 40
0.9733975564
 40
0.9782758342
 40
0.9829730601
 40
0.9874912694
 40
0.9918330253
 40
0.9960013756
 40
1.0
 40
1.0
 40
1.0
 40
1.0
 10
12.3396853111
 20
8.7765284403
 30
0.0
 10
12.3405182307
 20
8.7765072453
 30
0.0
 10
12.3421863836
 20
8.7763895495
 30
0.0
 10
12.3446727221
 20
8.7759867705
 30
0.0
 10
12.3471410134
 20
8.775358113
 30
0.0
 10
12.3495894143
 20
8.77450431
 30
0.0
 10
12.3520167073
 20
8.7734260725
 30
0.0
 10
12.3552787426
 20
8.7716602871
 30
0.0
 10
12.3584411693
 20
8.7694599175
 30
0.0
 10
12.3614889318
 20
8.766888527
 30
0.0
 10
12.3637928134
 20
8.7647030183
 30
0.0
 10
12.3660686194
 20
8.7622995296
 30
0.0
 10
12.3683156799
 20
8.7596791072
 30
0.0
 10
12.3705329182
 20
8.7568431554
 30
0.0
 10
12.3727192749
 20
8.7537930296
 30
0.0
 10
12.3748737723
 20
8.7505302871
 30
0.0
 10
12.3769953664
 20
8.7470565365
 30
0.0
 10
12.3790830271
 20
8.743373475
 30
0.0
 10
12.3818717758
 20
8.7380877558
 30
0.0
 10
12.3852538843
 20
8.7309567436
 30
0.0
 10
12.3890890475
 20
8.7217494065
 30
0.0
 10
12.3927651985
 20
8.7117575811
 30
0.0
 10
12.3962749531
 20
8.7010011964
 30
0.0
 10
12.3996112566
 20
8.6895014965
 30
0.0
 10
12.4027673223
 20
8.6772814489
 30
0.0
 10
12.4057366948
 20
8.6643655205
 30
0.0
 10
12.4085132901
 20
8.6507796691
 30
0.0
 10
12.4110914336
 20
8.636551266
 30
0.0
 10
12.4134658373
 20
8.6217090153
 30
0.0
 10
12.415631617
 20
8.6062828879
 30
0.0
 10
12.417584335
 20
8.5903040686
 30
0.0
 10
12.4193199949
 20
8.5738048838
 30
0.0
 10
12.4208350348
 20
8.5568187181
 30
0.0
 10
12.4221263242
 20
8.5393799628
 30
0.0
 10
12.4231912569
 20
8.5215239033
 30
0.0
 10
12.4243161464
 20
8.496992582
 30
0.0
 10
12.4251291115
 20
8.4655539046
 30
0.0
 10
12.4251725829
 20
8.427082065
 30
0.0
 10
12.4242911837
 20
8.3878519846
 30
0.0
 10
12.4224918771
 20
8.3481813279
 30
0.0
 10
12.4197890192
 20
8.3083911134
 30
0.0
 10
12.4162045258
 20
8.2688034291
 30
0.0
 10
12.4117674989
 20
8.229738607
 30
0.0
 10
12.4065141079
 20
8.1915129522
 30
0.0
 10
12.4014497993
 20
8.1603557195
 30
0.0
 10
12.397011199
 20
8.1360899862
 30
0.0
 10
12.3935348919
 20
8.1184451816
 30
0.0
 10
12.389890152
 20
8.1012360471
 30
0.0
 10
12.3860843673
 20
8.0844973973
 30
0.0
 10
12.3821252905
 20
8.0682631235
 30
0.0
 10
12.3780209643
 20
8.0525660803
 30
0.0
 10
12.3737797558
 20
8.0374380117
 30
0.0
 10
12.3694103072
 20
8.0229094893
 30
0.0
 10
12.3649215121
 20
8.0090098594
 30
0.0
 10
12.3603224995
 20
7.9957671668
 30
0.0
 10
12.3556226452
 20
7.9832080748
 30
0.0
 10
12.3508315106
 20
7.9713578225
 30
0.0
 10
12.3459588087
 20
7.9602401584
 30
0.0
 10
12.3410144
 20
7.9498772986
 30
0.0
 10
12.3360082282
 20
7.9402897059
 30
0.0
 10
12.3309503409
 20
7.9314965244
 30
0.0
 10
12.3266250545
 20
7.9247265344
 30
0.0
 10
12.3231392012
 20
7.9197344257
 30
0.0
 10
12.3205659776
 20
7.9162683869
 30
0.0
 10
12.3179874075
 20
7.9130134258
 30
0.0
 10
12.315404642
 20
7.909971196
 30
0.0
 10
12.3128191663
 20
7.9071433576
 30
0.0
 10
12.3110585787
 20
7.905365665
 30
0.0
 10
12.3101778056
 20
7.9045149034
 30
0.0
  0
ELLIPSE
  5
30B
100
AcDbEntity
  8
0
100
AcDbEllipse
 62
7
  6
CONTINUOUS
 10
12.3046410221
 20
8.3503651391
 30
0.0
 11
-0.0022890741
 21
0.3787991254
 31
0.0
 40
0.2731762279
 41
2.6842813539
 42
6.0910295189
  0
ENDSEC
  0
SECTION
  2
OBJECTS
  0
DICTIONARY
  5
C
100
AcDbDictionary
280
0
281
1
  3
ACAD_GROUP
350
D
  3
ACAD_MLINESTYLE
350
17
  3
ACAD_LAYOUT
350
1A
  3
ACAD_PLOTSETTINGS
350
19
  3
ACAD_PLOTSTYLENAME
350
E
  3
ACAD_IMAGE_DICT
350
       30D
  3
ACAD_IMAGE_VARS
350
       30E
  3
ACAD_TABLESTYLE
350
       30F
  0
IMAGEDEF_REACTOR
  5
30C
100
AcDbRasterImageDefReactor
 90
2
330
28A
  0
DICTIONARY
  5
D
102
{ACAD_REACTORS
330
C
102
}
100
AcDbDictionary
280
0
281
1
  0
ACDBDICTIONARYWDFLT
  5
E
102
{ACAD_REACTORS
330
C
102
}
100
AcDbDictionary
281
1
  3
Normal
350
F
100
AcDbDictionaryWithDefault
340
F
  0
DICTIONARY
  5
30D
330
C
100
AcDbDictionary
281
1
  3
ZTL_assy_2_img_1
350
       312
  0
RASTERVARIABLES
  5
30E
330
C
100
AcDbRasterVariables
 90
0
 70
0
 71
1
 72
5
  0
DICTIONARY
  5
17
102
{ACAD_REACTORS
330
C
102
}
100
AcDbDictionary
280
0
281
1
  3
Standard
350
18
  0
DICTIONARY
  5
30F
330
C
100
AcDbDictionary
281
1
  3
Standard
350
       313
  3
Standard1
350
       314
  0
DICTIONARY
  5
19
102
{ACAD_REACTORS
330
C
102
}
100
AcDbDictionary
281
1
  0
DICTIONARY
  5
1A
102
{ACAD_REACTORS
330
C
102
}
100
AcDbDictionary
281
1
  3
Model
350
310
  3
Layout1
350
311
  0
ACDBPLACEHOLDER
  5
F
102
{ACAD_REACTORS
330
E
102
}
  0
MLINESTYLE
  5
18
102
{ACAD_REACTORS
330
17
102
}
100
AcDbMlineStyle
  2
STANDARD
 70
0
  3

 62
256
 51
90.0
 52
90.0
 71
2
 49
0.5
 62
256
  6
BYLAYER
 49
-0.5
 62
256
  6
BYLAYER
  0
LAYOUT
  5
310
102
{ACAD_REACTORS
330
1A
102
}
100
AcDbPlotSettings
  1

  2
none_device
  4
ANSI_C_(22.00_x_17.00_Inches)
  6

 40
0.0
 41
0.0
 42
0.0
 43
0.0
 44
558.8
 45
431.8
 46
0.0
 47
0.0
 48
0.0
 49
0.0
140
0.0
141
0.0
142
1.0
143
1.0
 70
1024
 72
0
 73
0
 74
0
  7

 75
0
147
1.0
148
0.0
149
0.0
100
AcDbLayout
  1
Model
 70
0
 71
0
 10
0.0
 20
0.0
 11
22.0
 21
17.0
 12
0.0
 22
0.0
 32
0.0
 14
0.0
 24
0.0
 34
0.0
 15
0.0
 25
0.0
 35
0.0
146
0.0
 13
0.0
 23
0.0
 33
0.0
 16
1.0
 26
0.0
 36
0.0
 17
0.0
 27
1.0
 37
0.0
 76
0
330
207
345
0
346
0
  0
LAYOUT
  5
311
102
{ACAD_REACTORS
330
1A
102
}
100
AcDbPlotSettings
  1

  2
none_device
  4
ANSI_C_(22.00_x_17.00_Inches)
  6

 40
0.0
 41
0.0
 42
0.0
 43
0.0
 44
558.8
 45
431.8
 46
0.0
 47
0.0
 48
0.0
 49
0.0
140
0.0
141
0.0
142
1.0
143
1.0
 70
0
 72
0
 73
0
 74
0
  7

 75
0
147
1.0
148
0.0
149
0.0
100
AcDbLayout
  1
Layout1
 70
0
 71
1
 10
0.0
 20
0.0
 11
22.0
 21
17.0
 12
0.0
 22
0.0
 32
0.0
 14
0.0
 24
0.0
 34
0.0
 15
0.0
 25
0.0
 35
0.0
146
0.0
 13
0.0
 23
0.0
 33
0.0
 16
1.0
 26
0.0
 36
0.0
 17
0.0
 27
1.0
 37
0.0
 76
0
330
208
345
0
346
0
  0
IMAGEDEF
  5
312
102
{ACAD_REACTORS
330
30D
330
30C
102
}
100
AcDbRasterImageDef
 90
0
  1
ZTL_assy_2_img_1.png
 10
369.0
 20
92.0
 11
0.0066666667
 21
0.0066666667
280
1
281
0
  0
TABLESTYLE
  5
313
102
{ACAD_REACTORS
330
30F
330
28D
330
28E
102
}
330
30F
100
AcDbTableStyle
  3
Standard
 70
0
 71
0
 40
0.06
 41
0.06
280
1
281
1
  7
Standard
140
0.18
170
1
 62
0
 63
7
283
0
  7
Standard
140
0.18
170
1
 62
0
 63
7
283
0
  7
Standard
140
0.18
170
1
 62
0
 63
7
283
0
  0
TABLESTYLE
  5
314
102
{ACAD_REACTORS
330
30F
330
28C
102
}
330
30F
100
AcDbTableStyle
  3
Standard1
 70
1
 71
0
 40
0.06
 41
0.06
280
1
281
1
  7
Standard
140
0.18
170
1
 62
0
 63
7
283
0
  7
Standard
140
0.18
170
1
 62
0
 63
7
283
0
  7
Standard
140
0.18
170
1
 62
0
 63
7
283
0
  0
ENDSEC
  0
EOF
