999
DXF file: ZTK_assy_2.dxf
999
Pro/ENGINEER 2014200 by Parametric Technology Corporation
  0
SECTION
  2
HEADER
  9
$ACADVER
  1
AC1021
  9
$DWGCODEPAGE
  3
ANSI_1252
  9
$EXTMAX
 10
22.0
 20
17.0
 30
0.0
  9
$EXTMIN
 10
0.0
 20
0.0
 30
0.0
  9
$LIMMIN
 10
0.0
 20
0.0
  9
$LIMMAX
 10
22.0
 20
17.0
  9
$VIEWCTR
 10
11.0
 20
8.5
  9
$VIEWSIZE
 40
17.0
  9
$CLAYER
  8
0
  9
$LTSCALE
 40
1.21
  9
$CELTYPE
  6
BYLAYER
  9
$DIMSCALE
 40
1.0
  9
$DIMASZ
 40
0.1875
  9
$DIMEXO
 40
0.0625
  9
$DIMDLI
 40
0.836
  9
$DIMEXE
 40
0.125
  9
$DIMCEN
 40
0.198
  9
$DIMLFAC
 40
1.0
  9
$DIMBLK
  1
_FILLED
  9
$DIMTXT
 40
0.1
  9
$DIMTOL
 70
0
  9
$DIMLIM
 70
0
  9
$DIMTFAC
 40
1.0
  9
$DIMGAP
 40
0.09
  9
$DIMDSEP
 70
46
  9
$AUNITS
 70
0
  9
$PDMODE
 70
3
  9
$PDSIZE
 40
0.3125
  9
$HANDSEED
  5
315
  9
$TILEMODE
 70
1
  9
$MEASUREMENT
 70
0
  9
$INSUNITS
 70
1
  0
ENDSEC
  0
SECTION
  2
CLASSES
  0
CLASS
  1
ACDBDICTIONARYWDFLT
  2
AcDbDictionaryWithDefault
  3
AutoCAD 2000
 90
0
 91
1
280
0
281
0
  0
CLASS
  1
ACDBPLACEHOLDER
  2
AcDbPlaceHolder
  3
AutoCAD 2000
 90
0
 91
1
280
0
281
0
  0
CLASS
  1
LAYOUT
  2
AcDbLayout
  3
AutoCAD 2000
 90
0
 91
0
280
0
281
0
  0
CLASS
  1
RASTERVARIABLES
  2
AcDbRasterVariables
  3
ISM
 90
0
 91
1
280
0
281
0
  0
CLASS
  1
IMAGEDEF
  2
AcDbRasterImageDef
  3
ISM
 90
0
 91
1
280
0
281
0
  0
CLASS
  1
IMAGEDEF_REACTOR
  2
AcDbRasterImageDefReactor
  3
ISM
 90
0
 91
1
280
0
281
0
  0
CLASS
  1
IMAGE
  2
AcDbRasterImage
  3
ISM
 90
127
 91
1
280
0
281
1
  0
CLASS
  1
TABLESTYLE
  2
AcDbTableStyle
  3
ObjectDBX Classes
 90
2047
 91
1
280
0
281
0
  0
CLASS
  1
ACAD_TABLE
  2
AcDbTable
  3
ObjectDBX Classes
 90
1025
 91
3
280
0
281
1
  0
ENDSEC
  0
SECTION
  2
TABLES
  0
TABLE
  2
VPORT
  5
8
100
AcDbSymbolTable
 70
2
  0
VPORT
  5
1F4
100
AcDbSymbolTableRecord
100
AcDbViewportTableRecord
  2
*ACTIVE
 70
0
 10
0.0
 20
0.0
 11
1.0
 21
1.0
 12
11.0
 22
8.5
 13
0.0
 23
0.0
 14
1.0
 24
1.0
 15
0.0
 25
0.0
 16
0.0
 26
0.0
 36
1.0
 17
0.0
 27
0.0
 37
0.0
 40
17.0
 41
1.2941176471
 42
50.0
 43
0.0
 44
0.0
 50
0.0
 51
0.0
 71
0
 72
100
 73
1
 74
1
 75
0
 76
0
 77
0
 78
0
  0
ENDTAB
  0
TABLE
  2
LTYPE
  5
5
100
AcDbSymbolTable
 70
6
  0
LTYPE
  5
14
100
AcDbSymbolTableRecord
100
AcDbLinetypeTableRecord
  2
BYBLOCK
 70
0
  3

 72
65
 73
0
 40
0.0
  0
LTYPE
  5
15
100
AcDbSymbolTableRecord
100
AcDbLinetypeTableRecord
  2
BYLAYER
 70
0
  3

 72
65
 73
0
 40
0.0
  0
LTYPE
  5
16
100
AcDbSymbolTableRecord
100
AcDbLinetypeTableRecord
  2
CONTINUOUS
 70
64
  3
Solid line
 72
65
 73
0
 40
0.0
  0
LTYPE
  5
1F5
100
AcDbSymbolTableRecord
100
AcDbLinetypeTableRecord
  2
CENTER
 70
64
  3
____ _ ____ _ ____ _ ____ _ ____ _ ____ _ ____
 72
65
 73
4
 40
0.6
 49
0.375
 74
0
 49
-0.075
 74
0
 49
0.075
 74
0
 49
-0.075
 74
0
  0
LTYPE
  5
1F6
100
AcDbSymbolTableRecord
100
AcDbLinetypeTableRecord
  2
HIDDEN
 70
64
  3
- - - - - - - - - - - - - - - - - - - -
 72
65
 73
2
 40
0.2
 49
0.1
 74
0
 49
-0.1
 74
0
  0
LTYPE
  5
1F7
100
AcDbSymbolTableRecord
100
AcDbLinetypeTableRecord
  2
PHANTOM
 70
64
  3
_____ _ _ _____ _ _ _____ _ _ _____
 72
65
 73
6
 40
0.8
 49
0.45
 74
0
 49
-0.05
 74
0
 49
0.1
 74
0
 49
-0.05
 74
0
 49
0.1
 74
0
 49
-0.05
 74
0
  0
LTYPE
  5
1F8
100
AcDbSymbolTableRecord
100
AcDbLinetypeTableRecord
  2
DOT
 70
64
  3
. . . . . . . . . . . . . . . . . . . .
 72
65
 73
2
 40
0.2
 49
0.1
 74
0
 49
-0.1
 74
0
  0
LTYPE
  5
1F9
100
AcDbSymbolTableRecord
100
AcDbLinetypeTableRecord
  2
DASHED
 70
64
  3
- - - - - - - - - - - - - - - - - - - -
 72
65
 73
2
 40
0.2
 49
0.1
 74
0
 49
-0.1
 74
0
  0
ENDTAB
  0
TABLE
  2
LAYER
  5
2
100
AcDbSymbolTable
 70
36
  0
LAYER
  5
10
100
AcDbSymbolTableRecord
100
AcDbLayerTableRecord
  2
0
 70
0
 62
7
  6
CONTINUOUS
370
-3
390
F
  0
LAYER
  5
1FA
100
AcDbSymbolTableRecord
100
AcDbLayerTableRecord
  2
DEFAULT_1
 70
0
 62
7
  6
CENTER
370
-3
390
F
  0
LAYER
  5
1FB
100
AcDbSymbolTableRecord
100
AcDbLayerTableRecord
  2
DEFAULT_2
 70
0
 62
8
  6
HIDDEN
370
-3
390
F
  0
LAYER
  5
1FC
100
AcDbSymbolTableRecord
100
AcDbLayerTableRecord
  2
DEFAULT_3
 70
0
 62
7
  6
PHANTOM
370
-3
390
F
  0
LAYER
  5
1FD
100
AcDbSymbolTableRecord
100
AcDbLayerTableRecord
  2
DATUM_PLANES
 70
0
 62
7
  6
CONTINUOUS
370
-3
390
F
  0
LAYER
  5
1FE
100
AcDbSymbolTableRecord
100
AcDbLayerTableRecord
  2
DIMENSIONS
 70
0
 62
7
  6
CONTINUOUS
370
-3
390
F
  0
LAYER
  5
1FF
100
AcDbSymbolTableRecord
100
AcDbLayerTableRecord
  2
DTM_500001
 70
0
 62
7
  6
CONTINUOUS
370
-3
390
F
  0
LAYER
  5
200
100
AcDbSymbolTableRecord
100
AcDbLayerTableRecord
  2
PARAMETERDIMENSIONS
 70
0
 62
7
  6
CONTINUOUS
370
-3
390
F
  0
LAYER
  5
201
100
AcDbSymbolTableRecord
100
AcDbLayerTableRecord
  2
PORT_AREAS
 70
0
 62
7
  6
CONTINUOUS
370
-3
390
F
  0
LAYER
  5
202
100
AcDbSymbolTableRecord
100
AcDbLayerTableRecord
  2
SUNNBOMCOSMETIC
 70
0
 62
7
  6
CONTINUOUS
370
-3
390
F
  0
LAYER
  5
203
100
AcDbSymbolTableRecord
100
AcDbLayerTableRecord
  2
SUNNBOMSTAMPING
 70
0
 62
7
  6
CONTINUOUS
370
-3
390
F
  0
LAYER
  5
204
100
AcDbSymbolTableRecord
100
AcDbLayerTableRecord
  2
THREADS
 70
0
 62
7
  6
CONTINUOUS
370
-3
390
F
  0
ENDTAB
  0
TABLE
  2
STYLE
  5
3
100
AcDbSymbolTable
 70
1
  0
STYLE
  5
11
100
AcDbSymbolTableRecord
100
AcDbTextStyleTableRecord
  2
STANDARD
 70
0
 40
0.0
 41
0.8
 50
0.0
 71
0
 42
0.2
  3
txt
  4

  0
STYLE
  5
205
100
AcDbSymbolTableRecord
100
AcDbTextStyleTableRecord
  2
TEXTSTYLE_1
 70
0
 40
0.0
 41
0.8
 50
0.0
 71
0
 42
0.2
  3
gdt
  4

  0
ENDTAB
  0
TABLE
  2
VIEW
  5
6
100
AcDbSymbolTable
 70
0
  0
ENDTAB
  0
TABLE
  2
UCS
  5
7
100
AcDbSymbolTable
 70
0
  0
ENDTAB
  0
TABLE
  2
APPID
  5
9
100
AcDbSymbolTable
 70
1
  0
APPID
  5
206
100
AcDbSymbolTableRecord
100
AcDbRegAppTableRecord
  2
ACAD
 70
0
  0
ENDTAB
  0
TABLE
  2
BLOCK_RECORD
  5
1
100
AcDbSymbolTable
 70
0
  0
BLOCK_RECORD
  5
207
100
AcDbSymbolTableRecord
100
AcDbBlockTableRecord
  2
*Model_Space
  0
BLOCK_RECORD
  5
208
100
AcDbSymbolTableRecord
100
AcDbBlockTableRecord
  2
*Paper_Space
  0
BLOCK_RECORD
  5
209
100
AcDbSymbolTableRecord
100
AcDbBlockTableRecord
  2
SUN_FIRST_THIRD_ANGLE_BL0
  0
BLOCK_RECORD
  5
20A
100
AcDbSymbolTableRecord
100
AcDbBlockTableRecord
  2
*T1
  0
BLOCK_RECORD
  5
20B
100
AcDbSymbolTableRecord
100
AcDbBlockTableRecord
  2
*T2
  0
BLOCK_RECORD
  5
20C
100
AcDbSymbolTableRecord
100
AcDbBlockTableRecord
  2
*T3
  0
ENDTAB
  0
TABLE
  2
DIMSTYLE
  5
A
100
AcDbSymbolTable
 70
1
100
AcDbDimStyleTable
 71
0
  0
DIMSTYLE
105
20D
100
AcDbSymbolTableRecord
100
AcDbDimStyleTableRecord
  2
STANDARD
 70
0
  3

  4

 40
1.0
 41
0.1875
 42
0.0625
 43
0.38
 44
0.125
 45
0.0
 46
0.0
 47
0.001
 48
0.001
140
0.1
141
0.09
142
0.0
143
25.4
144
1.0
145
0.0
146
1.0
147
0.09
 71
0.0
 72
0.0
 73
1
 74
1
 75
0
 76
0
 77
0
 78
4
170
0
171
2
172
0
173
0
174
0
175
0
176
0
177
0
178
0
270
2
271
3
272
3
273
2
274
2
275
0
280
0
281
0
282
0
283
1
284
4
285
0
286
0
287
3
288
0
340
11
278
46
  0
ENDTAB
  0
ENDSEC
  0
SECTION
  2
BLOCKS
  0
BLOCK
  5
20
100
AcDbEntity
  8
0
100
AcDbBlockBegin
  2
*Model_Space
 70
0
 10
0.0
 20
0.0
 30
0.0
  3
*Model_Space
  1

  0
ENDBLK
  5
21
100
AcDbEntity
  8
0
100
AcDbBlockEnd
  0
BLOCK
  5
1C
100
AcDbEntity
  8
0
100
AcDbBlockBegin
  2
*Paper_Space
 70
0
 10
0.0
 20
0.0
 30
0.0
  3
*Paper_Space
  1

  0
ENDBLK
  5
1D
100
AcDbEntity
  8
0
100
AcDbBlockEnd
  0
BLOCK
  5
20E
100
AcDbEntity
  8
0
100
AcDbBlockBegin
 62
2
  6
CONTINUOUS
  2
SUN_FIRST_THIRD_ANGLE_BL0
 70
64
 10
20.4816717061
 20
1.2289683772
  3
SUN_FIRST_THIRD_ANGLE_BL0
  1

  0
TEXT
  5
20F
100
AcDbEntity
  8
0
100
AcDbText
 62
2
  6
CONTINUOUS
 10
19.4750896608
 20
1.4136269581
  7
STANDARD
 40
0.08
  1
FIRST ANGLE
 41
0.8
 72
0
100
AcDbText
  0
TEXT
  5
210
100
AcDbEntity
  8
0
100
AcDbText
 62
2
  6
CONTINUOUS
 10
20.7842537513
 20
1.4047600029
  7
STANDARD
 40
0.08
  1
THIRD ANGLE
 41
0.8
 72
0
100
AcDbText
  0
LINE
  5
211
100
AcDbEntity
  8
0
100
AcDbLine
 62
7
  6
CONTINUOUS
 10
19.4767170086
 20
1.1727031207
 11
19.6334271527
 21
1.1717972817
  0
LINE
  5
212
100
AcDbEntity
  8
0
100
AcDbLine
 62
7
  6
CONTINUOUS
 10
19.6596964832
 20
1.1717972817
 11
19.6950230232
 21
1.171593082
  0
LINE
  5
213
100
AcDbEntity
  8
0
100
AcDbLine
 62
7
  6
CONTINUOUS
 10
19.7194818561
 20
1.1708914427
 11
19.8852396156
 21
1.1699333054
  0
LINE
  5
214
100
AcDbEntity
  8
0
100
AcDbLine
 62
7
  6
CONTINUOUS
 10
19.4758111696
 20
1.2723454088
 11
19.88525039
 21
1.3511534004
  0
LINE
  5
215
100
AcDbEntity
  8
0
100
AcDbLine
 62
7
  6
CONTINUOUS
 10
19.88525039
 20
1.3511534004
 11
19.8831348489
 21
0.9851647912
  0
LINE
  5
216
100
AcDbEntity
  8
0
100
AcDbLine
 62
7
  6
CONTINUOUS
 10
19.8831348489
 20
0.9851647912
 11
19.4767170086
 21
1.0658141206
  0
LINE
  5
217
100
AcDbEntity
  8
0
100
AcDbLine
 62
7
  6
CONTINUOUS
 10
19.4767170086
 20
1.0658141206
 11
19.4779056764
 21
1.2714536432
  0
CIRCLE
  5
218
100
AcDbEntity
  8
0
100
AcDbCircle
 62
7
  6
CONTINUOUS
 10
20.2068232291
 20
1.1717972817
 40
0.175742101
  0
CIRCLE
  5
219
100
AcDbEntity
  8
0
100
AcDbCircle
 62
7
  6
CONTINUOUS
 10
20.2068232291
 20
1.1717972817
 40
0.1005522074
  0
LINE
  5
21A
100
AcDbEntity
  8
0
100
AcDbLine
 62
7
  6
CONTINUOUS
 10
20.2077290681
 20
1.3756110529
 11
20.2071171714
 21
1.2379342989
  0
LINE
  5
21B
100
AcDbEntity
  8
0
100
AcDbLine
 62
7
  6
CONTINUOUS
 10
20.2077290681
 20
1.2016899681
 11
20.2074674401
 21
1.1428236749
  0
LINE
  5
21C
100
AcDbEntity
  8
0
100
AcDbLine
 62
7
  6
CONTINUOUS
 10
20.208634907
 20
1.101141841
 11
20.2080230104
 21
0.963465087
  0
LINE
  5
21D
100
AcDbEntity
  8
0
100
AcDbLine
 62
7
  6
CONTINUOUS
 10
20.0066328138
 20
1.1745147986
 11
20.1443095678
 21
1.1739029019
  0
LINE
  5
21E
100
AcDbEntity
  8
0
100
AcDbLine
 62
7
  6
CONTINUOUS
 10
20.1832714155
 20
1.1727031207
 11
20.238153505
 21
1.172335442
  0
LINE
  5
21F
100
AcDbEntity
  8
0
100
AcDbLine
 62
7
  6
CONTINUOUS
 10
20.2756669918
 20
1.1717972817
 11
20.407916871
 21
1.1712095044
  0
CIRCLE
  5
220
100
AcDbEntity
  8
0
100
AcDbCircle
 62
7
  6
CONTINUOUS
 10
20.7509457401
 20
1.1693297793
 40
0.1722024983
  0
CIRCLE
  5
221
100
AcDbEntity
  8
0
100
AcDbCircle
 62
7
  6
CONTINUOUS
 10
20.7509457401
 20
1.1693297793
 40
0.0985164967
  0
LINE
  5
222
100
AcDbEntity
  8
0
100
AcDbLine
 62
7
  6
CONTINUOUS
 10
20.7169767782
 20
1.170462078
 11
20.7825395137
 21
1.1682766535
  0
LINE
  5
223
100
AcDbEntity
  8
0
100
AcDbLine
 62
7
  6
CONTINUOUS
 10
20.8177513651
 20
1.1693297793
 11
20.947965719
 21
1.1693297793
  0
LINE
  5
224
100
AcDbEntity
  8
0
100
AcDbLine
 62
7
  6
CONTINUOUS
 10
20.6875370113
 20
1.170462078
 11
20.5573226574
 21
1.170462078
  0
LINE
  5
225
100
AcDbEntity
  8
0
100
AcDbLine
 62
7
  6
CONTINUOUS
 10
20.7486811426
 20
1.1987695462
 11
20.7486811426
 21
1.1432869085
  0
LINE
  5
226
100
AcDbEntity
  8
0
100
AcDbLine
 62
7
  6
CONTINUOUS
 10
20.7498134414
 20
1.1059210505
 11
20.7498134414
 21
0.9757066966
  0
LINE
  5
227
100
AcDbEntity
  8
0
100
AcDbLine
 62
7
  6
CONTINUOUS
 10
20.7486811426
 20
1.2338708068
 11
20.7486811426
 21
1.3640851607
  0
LINE
  5
228
100
AcDbEntity
  8
0
100
AcDbLine
 62
7
  6
CONTINUOUS
 10
21.0702539817
 20
1.2701043662
 11
21.4790138229
 21
1.3448360823
  0
LINE
  5
229
100
AcDbEntity
  8
0
100
AcDbLine
 62
7
  6
CONTINUOUS
 10
21.4790138229
 20
1.3448360823
 11
21.4790138229
 21
0.9779712941
  0
LINE
  5
22A
100
AcDbEntity
  8
0
100
AcDbLine
 62
7
  6
CONTINUOUS
 10
21.4790138229
 20
0.9779712941
 11
21.069121683
 21
1.0617614
  0
LINE
  5
22B
100
AcDbEntity
  8
0
100
AcDbLine
 62
7
  6
CONTINUOUS
 10
21.0702539817
 20
1.2701043662
 11
21.069121683
 21
1.0617614
  0
LINE
  5
22C
100
AcDbEntity
  8
0
100
AcDbLine
 62
7
  6
CONTINUOUS
 10
21.4790138229
 20
1.1693297793
 11
21.3159628059
 21
1.1693297793
  0
LINE
  5
22D
100
AcDbEntity
  8
0
100
AcDbLine
 62
7
  6
CONTINUOUS
 10
21.2876553377
 20
1.1693297793
 11
21.2502894796
 21
1.1693297793
  0
LINE
  5
22E
100
AcDbEntity
  8
0
100
AcDbLine
 62
7
  6
CONTINUOUS
 10
21.2208497126
 20
1.1659328831
 11
21.0713862804
 21
1.1659328831
  0
LINE
  5
22F
100
AcDbEntity
  8
0
100
AcDbLine
 62
7
  6
CONTINUOUS
 10
20.4796138713
 20
1.5284908897
 11
20.4766766948
 21
0.9294458646
  0
ENDBLK
  5
230
100
AcDbEntity
  8
0
  6
BYBLOCK
 62
0
100
AcDbBlockEnd
  0
BLOCK
  5
231
100
AcDbEntity
  8
0
100
AcDbBlockBegin
  2
*T1
 70
1
 10
0.0
 20
0.0
  3
*T1
  1

  0
LINE
  5
232
100
AcDbEntity
  8
0
100
AcDbLine
 62
2
  6
CONTINUOUS
 10
9.275
 20
0.0
 11
-0.0
 21
0.0
  0
LINE
  5
233
100
AcDbEntity
  8
0
100
AcDbLine
 62
2
  6
CONTINUOUS
 10
9.275
 20
0.0
 11
9.275
 21
1.25
  0
LINE
  5
234
100
AcDbEntity
  8
0
100
AcDbLine
 62
2
  6
CONTINUOUS
 10
9.275
 20
0.625
 11
-0.0
 21
0.625
  0
LINE
  5
235
100
AcDbEntity
  8
0
100
AcDbLine
 62
2
  6
CONTINUOUS
 10
9.275
 20
1.25
 11
-0.0
 21
1.25
  0
LINE
  5
236
100
AcDbEntity
  8
0
100
AcDbLine
 62
2
  6
CONTINUOUS
 10
6.8
 20
0.0
 11
6.8
 21
1.25
  0
LINE
  5
237
100
AcDbEntity
  8
0
100
AcDbLine
 62
2
  6
CONTINUOUS
 10
6.4
 20
0.0
 11
6.4
 21
0.625
  0
LINE
  5
238
100
AcDbEntity
  8
0
100
AcDbLine
 62
2
  6
CONTINUOUS
 10
5.9
 20
0.0
 11
5.9
 21
0.625
  0
LINE
  5
239
100
AcDbEntity
  8
0
100
AcDbLine
 62
2
  6
CONTINUOUS
 10
5.2
 20
0.0
 11
5.2
 21
0.625
  0
LINE
  5
23A
100
AcDbEntity
  8
0
100
AcDbLine
 62
2
  6
CONTINUOUS
 10
4.1
 20
0.0
 11
4.1
 21
1.25
  0
LINE
  5
23B
100
AcDbEntity
  8
0
100
AcDbLine
 62
2
  6
CONTINUOUS
 10
-0.0
 20
0.0
 11
-0.0
 21
1.25
  0
MTEXT
  5
23C
100
AcDbEntity
  8
0
100
AcDbMText
 62
2
  6
CONTINUOUS
  7
STANDARD
 71
2
 72
1
 10
6.6
 20
0.325
 30
0.0
 11
1.0
 21
0.0
 31
0.0
 44
0.9
  1
2
 40
0.125
 41
0.2
  0
MTEXT
  5
23D
100
AcDbEntity
  8
0
100
AcDbMText
 62
2
  6
CONTINUOUS
  7
STANDARD
 71
2
 72
1
 10
6.15
 20
0.325
 30
0.0
 11
1.0
 21
0.0
 31
0.0
 44
0.9
  1
C
 40
0.125
 41
0.2
  0
MTEXT
  5
23E
100
AcDbEntity
  8
0
100
AcDbMText
 62
2
  6
CONTINUOUS
  7
STANDARD
 71
2
 72
1
 10
5.55
 20
0.325
 30
0.0
 11
1.0
 21
0.0
 31
0.0
 44
0.9
  1
1.000
 40
0.125
 41
1.0
  0
MTEXT
  5
23F
100
AcDbEntity
  8
0
100
AcDbMText
 62
2
  6
CONTINUOUS
  7
STANDARD
 71
2
 72
1
 10
4.65
 20
0.325
 30
0.0
 11
1.0
 21
0.0
 31
0.0
 44
0.9
  1
Jul-02-24
 40
0.125
 41
1.8
  0
MTEXT
  5
240
100
AcDbEntity
  8
0
100
AcDbMText
 62
2
  6
CONTINUOUS
  7
STANDARD
 71
2
 72
1
 10
2.05
 20
0.4625
 30
0.0
 11
1.0
 21
0.0
 31
0.0
 44
0.9
  1
T-17A Gasket mount Sun\PDirect mount, cross pilot
 40
0.125
 41
5.0
  0
MTEXT
  5
241
100
AcDbEntity
  8
0
100
AcDbMText
 62
2
  6
CONTINUOUS
  7
STANDARD
 71
1
 72
1
 10
6.45
 20
0.5625
 30
0.0
 11
1.0
 21
0.0
 31
0.0
 44
0.9
  1
SHEET
 40
0.06
 41
0.48
  0
MTEXT
  5
242
100
AcDbEntity
  8
0
100
AcDbMText
 62
2
  6
CONTINUOUS
  7
STANDARD
 71
1
 72
1
 10
5.95
 20
0.5625
 30
0.0
 11
1.0
 21
0.0
 31
0.0
 44
0.9
  1
DWG SIZE
 40
0.06
 41
0.768
  0
MTEXT
  5
243
100
AcDbEntity
  8
0
100
AcDbMText
 62
2
  6
CONTINUOUS
  7
STANDARD
 71
1
 72
1
 10
5.25
 20
0.5625
 30
0.0
 11
1.0
 21
0.0
 31
0.0
 44
0.9
  1
SCALE
 40
0.06
 41
0.48
  0
MTEXT
  5
244
100
AcDbEntity
  8
0
100
AcDbMText
 62
2
  6
CONTINUOUS
  7
STANDARD
 71
1
 72
1
 10
4.15
 20
0.5625
 30
0.0
 11
1.0
 21
0.0
 31
0.0
 44
0.9
  1
DATE
 40
0.06
 41
0.384
  0
MTEXT
  5
245
100
AcDbEntity
  8
0
100
AcDbMText
 62
2
  6
CONTINUOUS
  7
STANDARD
 71
1
 72
1
 10
0.05
 20
0.5625
 30
0.0
 11
1.0
 21
0.0
 31
0.0
 44
0.9
  1
DESCRIPTION
 40
0.06
 41
1.056
  0
MTEXT
  5
246
100
AcDbEntity
  8
0
100
AcDbMText
 62
2
  6
CONTINUOUS
  7
STANDARD
 71
2
 72
1
 10
5.45
 20
1.0375
 30
0.0
 11
1.0
 21
0.0
 31
0.0
 44
0.9
  1
ALL DIMENSIONS IN INCH\PVIEWS ARE THIRD ANGLE
 40
0.12
 41
4.224
  0
MTEXT
  5
247
100
AcDbEntity
  8
0
100
AcDbMText
 62
2
  6
CONTINUOUS
  7
STANDARD
 71
2
 72
1
 10
2.05
 20
0.95
 30
0.0
 11
1.0
 21
0.0
 31
0.0
 44
0.9
  1
ZTK
 40
0.125
 41
0.6
  0
MTEXT
  5
248
100
AcDbEntity
  8
0
100
AcDbMText
 62
2
  6
CONTINUOUS
  7
STANDARD
 71
1
 72
1
 10
0.05
 20
1.1875
 30
0.0
 11
1.0
 21
0.0
 31
0.0
 44
0.9
  1
MODEL
 40
0.06
 41
0.48
  0
ENDBLK
  5
249
100
AcDbEntity
  8
0
  6
BYBLOCK
 62
0
100
AcDbBlockEnd
  0
BLOCK
  5
24A
100
AcDbEntity
  8
0
100
AcDbBlockBegin
  2
*T2
 70
1
 10
0.0
 20
0.0
  3
*T2
  1

  0
LINE
  5
24B
100
AcDbEntity
  8
0
100
AcDbLine
 62
2
  6
CONTINUOUS
 10
0.0
 20
0.0
 11
9.055
 21
0.0
  0
LINE
  5
24C
100
AcDbEntity
  8
0
100
AcDbLine
 62
2
  6
CONTINUOUS
 10
0.0
 20
0.0
 11
0.0
 21
-3.094
  0
LINE
  5
24D
100
AcDbEntity
  8
0
100
AcDbLine
 62
2
  6
CONTINUOUS
 10
0.0
 20
-0.344
 11
9.055
 21
-0.344
  0
LINE
  5
24E
100
AcDbEntity
  8
0
100
AcDbLine
 62
2
  6
CONTINUOUS
 10
0.0
 20
-0.594
 11
9.055
 21
-0.594
  0
LINE
  5
24F
100
AcDbEntity
  8
0
100
AcDbLine
 62
2
  6
CONTINUOUS
 10
0.0
 20
-0.844
 11
9.055
 21
-0.844
  0
LINE
  5
250
100
AcDbEntity
  8
0
100
AcDbLine
 62
2
  6
CONTINUOUS
 10
0.0
 20
-1.094
 11
9.055
 21
-1.094
  0
LINE
  5
251
100
AcDbEntity
  8
0
100
AcDbLine
 62
2
  6
CONTINUOUS
 10
0.0
 20
-1.344
 11
9.055
 21
-1.344
  0
LINE
  5
252
100
AcDbEntity
  8
0
100
AcDbLine
 62
2
  6
CONTINUOUS
 10
0.0
 20
-1.594
 11
9.055
 21
-1.594
  0
LINE
  5
253
100
AcDbEntity
  8
0
100
AcDbLine
 62
2
  6
CONTINUOUS
 10
0.0
 20
-1.844
 11
9.055
 21
-1.844
  0
LINE
  5
254
100
AcDbEntity
  8
0
100
AcDbLine
 62
2
  6
CONTINUOUS
 10
0.0
 20
-2.094
 11
9.055
 21
-2.094
  0
LINE
  5
255
100
AcDbEntity
  8
0
100
AcDbLine
 62
2
  6
CONTINUOUS
 10
0.0
 20
-2.344
 11
9.055
 21
-2.344
  0
LINE
  5
256
100
AcDbEntity
  8
0
100
AcDbLine
 62
2
  6
CONTINUOUS
 10
0.0
 20
-2.594
 11
9.055
 21
-2.594
  0
LINE
  5
257
100
AcDbEntity
  8
0
100
AcDbLine
 62
2
  6
CONTINUOUS
 10
0.0
 20
-2.844
 11
9.055
 21
-2.844
  0
LINE
  5
258
100
AcDbEntity
  8
0
100
AcDbLine
 62
2
  6
CONTINUOUS
 10
0.0
 20
-3.094
 11
9.055
 21
-3.094
  0
LINE
  5
259
100
AcDbEntity
  8
0
100
AcDbLine
 62
2
  6
CONTINUOUS
 10
3.055
 20
0.0
 11
3.055
 21
-3.094
  0
LINE
  5
25A
100
AcDbEntity
  8
0
100
AcDbLine
 62
2
  6
CONTINUOUS
 10
9.055
 20
0.0
 11
9.055
 21
-3.094
  0
MTEXT
  5
25B
100
AcDbEntity
  8
0
100
AcDbMText
 62
2
  6
CONTINUOUS
  7
STANDARD
 71
2
 72
1
 10
1.5275
 20
-0.0995
 30
0.0
 11
1.0
 21
0.0
 31
0.0
 44
0.9
  1
Technical Data
 40
0.145
 41
3.248
  0
MTEXT
  5
25C
100
AcDbEntity
  8
0
100
AcDbMText
 62
2
  6
CONTINUOUS
  7
STANDARD
 71
2
 72
1
 10
4.555
 20
-0.0995
 30
0.0
 11
1.0
 21
0.0
 31
0.0
 44
0.9
  1
U.S. Units
 40
0.145
 41
2.32
  0
MTEXT
  5
25D
100
AcDbEntity
  8
0
100
AcDbMText
 62
2
  6
CONTINUOUS
  7
STANDARD
 71
2
 72
1
 10
7.555
 20
-0.0995
 30
0.0
 11
1.0
 21
0.0
 31
0.0
 44
0.9
  1
Metric Units
 40
0.145
 41
2.784
  0
MTEXT
  5
25E
100
AcDbEntity
  8
0
100
AcDbMText
 62
2
  6
CONTINUOUS
  7
STANDARD
 71
2
 72
1
 10
1.5275
 20
-0.4065
 30
0.0
 11
1.0
 21
0.0
 31
0.0
 44
0.9
  1
Cavity
 40
0.125
 41
1.2
  0
MTEXT
  5
25F
100
AcDbEntity
  8
0
100
AcDbMText
 62
2
  6
CONTINUOUS
  7
STANDARD
 71
2
 72
1
 10
6.055
 20
-0.4065
 30
0.0
 11
1.0
 21
0.0
 31
0.0
 44
0.9
  1
T-17A
 40
0.125
 41
1.0
  0
MTEXT
  5
260
100
AcDbEntity
  8
0
100
AcDbMText
 62
2
  6
CONTINUOUS
  7
STANDARD
 71
2
 72
1
 10
1.5275
 20
-0.6565
 30
0.0
 11
1.0
 21
0.0
 31
0.0
 44
0.9
  1
Body Features
 40
0.125
 41
2.6
  0
MTEXT
  5
261
100
AcDbEntity
  8
0
100
AcDbMText
 62
2
  6
CONTINUOUS
  7
STANDARD
 71
2
 72
1
 10
6.055
 20
-0.6565
 30
0.0
 11
1.0
 21
0.0
 31
0.0
 44
0.9
  1
Direct mount, cross pilot
 40
0.125
 41
5.0
  0
MTEXT
  5
262
100
AcDbEntity
  8
0
100
AcDbMText
 62
2
  6
CONTINUOUS
  7
STANDARD
 71
2
 72
1
 10
1.5275
 20
-0.9065
 30
0.0
 11
1.0
 21
0.0
 31
0.0
 44
0.9
  1
Body Type
 40
0.125
 41
1.8
  0
MTEXT
  5
263
100
AcDbEntity
  8
0
100
AcDbMText
 62
2
  6
CONTINUOUS
  7
STANDARD
 71
2
 72
1
 10
6.055
 20
-0.9065
 30
0.0
 11
1.0
 21
0.0
 31
0.0
 44
0.9
  1
Gasket mount
 40
0.125
 41
2.4
  0
MTEXT
  5
264
100
AcDbEntity
  8
0
100
AcDbMText
 62
2
  6
CONTINUOUS
  7
STANDARD
 71
2
 72
1
 10
1.5275
 20
-1.1565
 30
0.0
 11
1.0
 21
0.0
 31
0.0
 44
0.9
  1
Interface
 40
0.125
 41
1.8
  0
MTEXT
  5
265
100
AcDbEntity
  8
0
100
AcDbMText
 62
2
  6
CONTINUOUS
  7
STANDARD
 71
2
 72
1
 10
6.055
 20
-1.1565
 30
0.0
 11
1.0
 21
0.0
 31
0.0
 44
0.9
  1
Sun
 40
0.125
 41
0.6
  0
MTEXT
  5
266
100
AcDbEntity
  8
0
100
AcDbMText
 62
2
  6
CONTINUOUS
  7
STANDARD
 71
2
 72
1
 10
1.5275
 20
-1.4065
 30
0.0
 11
1.0
 21
0.0
 31
0.0
 44
0.9
  1
Open Cavity Quantity
 40
0.125
 41
4.0
  0
MTEXT
  5
267
100
AcDbEntity
  8
0
100
AcDbMText
 62
2
  6
CONTINUOUS
  7
STANDARD
 71
2
 72
1
 10
6.055
 20
-1.4065
 30
0.0
 11
1.0
 21
0.0
 31
0.0
 44
0.9
  1
1
 40
0.125
 41
0.2
  0
MTEXT
  5
268
100
AcDbEntity
  8
0
100
AcDbMText
 62
2
  6
CONTINUOUS
  7
STANDARD
 71
2
 72
1
 10
1.5275
 20
-1.6565
 30
0.0
 11
1.0
 21
0.0
 31
0.0
 44
0.9
  1
Weight
 40
0.125
 41
1.2
  0
MTEXT
  5
269
100
AcDbEntity
  8
0
100
AcDbMText
 62
2
  6
CONTINUOUS
  7
STANDARD
 71
2
 72
1
 10
4.555
 20
-1.6565
 30
0.0
 11
1.0
 21
0.0
 31
0.0
 44
0.9
  1
3.505 lb.
 40
0.125
 41
1.8
  0
MTEXT
  5
26A
100
AcDbEntity
  8
0
100
AcDbMText
 62
2
  6
CONTINUOUS
  7
STANDARD
 71
2
 72
1
 10
7.555
 20
-1.6565
 30
0.0
 11
1.0
 21
0.0
 31
0.0
 44
0.9
  1
1,590 kg.
 40
0.125
 41
1.8
  0
MTEXT
  5
26B
100
AcDbEntity
  8
0
100
AcDbMText
 62
2
  6
CONTINUOUS
  7
STANDARD
 71
2
 72
1
 10
1.5275
 20
-1.9065
 30
0.0
 11
1.0
 21
0.0
 31
0.0
 44
0.9
  1
Mounting Hole Diameter
 40
0.125
 41
4.4
  0
MTEXT
  5
26C
100
AcDbEntity
  8
0
100
AcDbMText
 62
2
  6
CONTINUOUS
  7
STANDARD
 71
2
 72
1
 10
4.555
 20
-1.9065
 30
0.0
 11
1.0
 21
0.0
 31
0.0
 44
0.9
  1
.53 in.
 40
0.125
 41
1.4
  0
MTEXT
  5
26D
100
AcDbEntity
  8
0
100
AcDbMText
 62
2
  6
CONTINUOUS
  7
STANDARD
 71
2
 72
1
 10
7.555
 20
-1.9065
 30
0.0
 11
1.0
 21
0.0
 31
0.0
 44
0.9
  1
13,5 mm
 40
0.125
 41
1.4
  0
MTEXT
  5
26E
100
AcDbEntity
  8
0
100
AcDbMText
 62
2
  6
CONTINUOUS
  7
STANDARD
 71
2
 72
1
 10
1.5275
 20
-2.1565
 30
0.0
 11
1.0
 21
0.0
 31
0.0
 44
0.9
  1
Mounting Hole Depth
 40
0.125
 41
3.8
  0
MTEXT
  5
26F
100
AcDbEntity
  8
0
100
AcDbMText
 62
2
  6
CONTINUOUS
  7
STANDARD
 71
2
 72
1
 10
6.055
 20
-2.1565
 30
0.0
 11
1.0
 21
0.0
 31
0.0
 44
0.9
  1
Through
 40
0.125
 41
1.4
  0
MTEXT
  5
270
100
AcDbEntity
  8
0
100
AcDbMText
 62
2
  6
CONTINUOUS
  7
STANDARD
 71
2
 72
1
 10
1.5275
 20
-2.4065
 30
0.0
 11
1.0
 21
0.0
 31
0.0
 44
0.9
  1
Mounting Hole Quantity
 40
0.125
 41
4.4
  0
MTEXT
  5
271
100
AcDbEntity
  8
0
100
AcDbMText
 62
2
  6
CONTINUOUS
  7
STANDARD
 71
2
 72
1
 10
6.055
 20
-2.4065
 30
0.0
 11
1.0
 21
0.0
 31
0.0
 44
0.9
  1
2
 40
0.125
 41
0.2
  0
MTEXT
  5
272
100
AcDbEntity
  8
0
100
AcDbMText
 62
2
  6
CONTINUOUS
  7
STANDARD
 71
2
 72
1
 10
1.5275
 20
-2.6565
 30
0.0
 11
1.0
 21
0.0
 31
0.0
 44
0.9
  1
Mounting Hole C'bore Diameter
 40
0.125
 41
5.8
  0
MTEXT
  5
273
100
AcDbEntity
  8
0
100
AcDbMText
 62
2
  6
CONTINUOUS
  7
STANDARD
 71
2
 72
1
 10
4.555
 20
-2.6565
 30
0.0
 11
1.0
 21
0.0
 31
0.0
 44
0.9
  1
.78 in.
 40
0.125
 41
1.4
  0
MTEXT
  5
274
100
AcDbEntity
  8
0
100
AcDbMText
 62
2
  6
CONTINUOUS
  7
STANDARD
 71
2
 72
1
 10
7.555
 20
-2.6565
 30
0.0
 11
1.0
 21
0.0
 31
0.0
 44
0.9
  1
19,8 mm
 40
0.125
 41
1.4
  0
MTEXT
  5
275
100
AcDbEntity
  8
0
100
AcDbMText
 62
2
  6
CONTINUOUS
  7
STANDARD
 71
2
 72
1
 10
1.5275
 20
-2.9065
 30
0.0
 11
1.0
 21
0.0
 31
0.0
 44
0.9
  1
Mounting Hole C'bore Depth
 40
0.125
 41
5.2
  0
MTEXT
  5
276
100
AcDbEntity
  8
0
100
AcDbMText
 62
2
  6
CONTINUOUS
  7
STANDARD
 71
2
 72
1
 10
4.555
 20
-2.9065
 30
0.0
 11
1.0
 21
0.0
 31
0.0
 44
0.9
  1
.44 in.
 40
0.125
 41
1.4
  0
MTEXT
  5
277
100
AcDbEntity
  8
0
100
AcDbMText
 62
2
  6
CONTINUOUS
  7
STANDARD
 71
2
 72
1
 10
7.555
 20
-2.9065
 30
0.0
 11
1.0
 21
0.0
 31
0.0
 44
0.9
  1
11,1 mm
 40
0.125
 41
1.4
  0
ENDBLK
  5
278
100
AcDbEntity
  8
0
  6
BYBLOCK
 62
0
100
AcDbBlockEnd
  0
BLOCK
  5
279
100
AcDbEntity
  8
0
100
AcDbBlockBegin
  2
*T3
 70
1
 10
0.0
 20
0.0
  3
*T3
  1

  0
LINE
  5
27A
100
AcDbEntity
  8
0
100
AcDbLine
 62
2
  6
CONTINUOUS
 10
0.0
 20
0.0
 11
4.6
 21
0.0
  0
LINE
  5
27B
100
AcDbEntity
  8
0
100
AcDbLine
 62
2
  6
CONTINUOUS
 10
0.0
 20
0.0
 11
0.0
 21
-0.93775
  0
LINE
  5
27C
100
AcDbEntity
  8
0
100
AcDbLine
 62
2
  6
CONTINUOUS
 10
0.0
 20
-0.34375
 11
4.6
 21
-0.34375
  0
LINE
  5
27D
100
AcDbEntity
  8
0
100
AcDbLine
 62
2
  6
CONTINUOUS
 10
0.0
 20
-0.68775
 11
4.6
 21
-0.68775
  0
LINE
  5
27E
100
AcDbEntity
  8
0
100
AcDbLine
 62
2
  6
CONTINUOUS
 10
0.0
 20
-0.93775
 11
4.6
 21
-0.93775
  0
LINE
  5
27F
100
AcDbEntity
  8
0
100
AcDbLine
 62
2
  6
CONTINUOUS
 10
1.3
 20
-0.34375
 11
1.3
 21
-0.93775
  0
LINE
  5
280
100
AcDbEntity
  8
0
100
AcDbLine
 62
2
  6
CONTINUOUS
 10
3.3
 20
-0.34375
 11
3.3
 21
-0.93775
  0
LINE
  5
281
100
AcDbEntity
  8
0
100
AcDbLine
 62
2
  6
CONTINUOUS
 10
4.6
 20
0.0
 11
4.6
 21
-0.93775
  0
MTEXT
  5
282
100
AcDbEntity
  8
0
100
AcDbMText
 62
2
  6
CONTINUOUS
  7
STANDARD
 71
2
 72
1
 10
2.3
 20
-0.099375
 30
0.0
 11
1.0
 21
0.0
 31
0.0
 44
0.9
  1
Port Headings
 40
0.145
 41
3.016
  0
MTEXT
  5
283
100
AcDbEntity
  8
0
100
AcDbMText
 62
2
  6
CONTINUOUS
  7
STANDARD
 71
2
 72
1
 10
0.65
 20
-0.44325
 30
0.0
 11
1.0
 21
0.0
 31
0.0
 44
0.9
  1
Product
 40
0.145
 41
1.624
  0
MTEXT
  5
284
100
AcDbEntity
  8
0
100
AcDbMText
 62
2
  6
CONTINUOUS
  7
STANDARD
 71
2
 72
1
 10
2.3
 20
-0.44325
 30
0.0
 11
1.0
 21
0.0
 31
0.0
 44
0.9
  1
Port
 40
0.145
 41
0.928
  0
MTEXT
  5
285
100
AcDbEntity
  8
0
100
AcDbMText
 62
2
  6
CONTINUOUS
  7
STANDARD
 71
2
 72
1
 10
3.95
 20
-0.44325
 30
0.0
 11
1.0
 21
0.0
 31
0.0
 44
0.9
  1
Size
 40
0.145
 41
0.928
  0
MTEXT
  5
286
100
AcDbEntity
  8
0
100
AcDbMText
 62
2
  6
CONTINUOUS
  7
STANDARD
 71
2
 72
1
 10
0.65
 20
-0.75025
 30
0.0
 11
1.0
 21
0.0
 31
0.0
 44
0.9
  1
ZTK
 40
0.125
 41
0.6
  0
MTEXT
  5
287
100
AcDbEntity
  8
0
100
AcDbMText
 62
2
  6
CONTINUOUS
  7
STANDARD
 71
2
 72
1
 10
2.3
 20
-0.75025
 30
0.0
 11
1.0
 21
0.0
 31
0.0
 44
0.9
  1
Ports C2, V1, V2
 40
0.125
 41
3.2
  0
MTEXT
  5
288
100
AcDbEntity
  8
0
100
AcDbMText
 62
2
  6
CONTINUOUS
  7
STANDARD
 71
2
 72
1
 10
3.95
 20
-0.75025
 30
0.0
 11
1.0
 21
0.0
 31
0.0
 44
0.9
  1
SAE 12
 40
0.125
 41
1.2
  0
ENDBLK
  5
289
100
AcDbEntity
  8
0
  6
BYBLOCK
 62
0
100
AcDbBlockEnd
  0
ENDSEC
  0
SECTION
  2
ENTITIES
  0
IMAGE
  5
28A
100
AcDbEntity
  8
0
100
AcDbRasterImage
 62
7
  6
CONTINUOUS
 10
19.2297077316
 20
0.3094318264
 30
0.0
 11
0.0066666667
 21
0.0
 31
0.0
 12
0.0
 22
0.0066666667
 32
0.0
 13
369.0
 23
92.0
340
       312
 70
9
280
0
281
50
282
50
283
0
360
       30C
 71
1
 91
2
 14
-0.5
 24
-0.5
 14
368.5
 24
91.5
  0
INSERT
  5
28B
100
AcDbEntity
  8
0
100
AcDbBlockReference
 62
2
  6
CONTINUOUS
  2
SUN_FIRST_THIRD_ANGLE_BL0
 10
20.4816717061
 20
1.2289683772
  0
ACAD_TABLE
  5
28C
100
AcDbEntity
  8
0
 62
2
  6
CONTINUOUS
100
AcDbBlockReference
  2
*T1
 10
12.42375
 20
0.30125
 30
0.0
100
AcDbTable
342
       314
343
20A
 11
1.0
 21
0.0
 31
0.0
 90
6
 91
4
 92
6
 93
20
 94
0
 95
0
 96
0
 70
1
 41
0.0
141
0.525
141
0.1
141
0.525
141
0.1
142
4.1
142
1.1
142
0.7
142
0.5
142
0.4
142
2.475
171
1
172
0
173
0
174
0
175
1
176
1
 91
33
178
0
145
0.0
301
CELL_VALUE
 90
4
  1
T-17A Gasket mount Sun\PDirect mount, cross pilot
304
ACVALUE_END
170
2
140
0.125
171
1
172
0
173
0
174
0
175
1
176
1
 91
33
178
0
145
0.0
301
CELL_VALUE
 90
4
  1
Jul-02-24
304
ACVALUE_END
170
5
140
0.125
171
1
172
0
173
0
174
0
175
1
176
1
 91
33
178
0
145
0.0
301
CELL_VALUE
 90
4
  1
1.000
304
ACVALUE_END
170
5
140
0.125
171
1
172
0
173
0
174
0
175
1
176
1
 91
33
178
0
145
0.0
301
CELL_VALUE
 90
4
  1
C
304
ACVALUE_END
170
5
140
0.125
171
1
172
0
173
0
174
0
175
1
176
1
 91
33
178
0
145
0.0
301
CELL_VALUE
 90
4
  1
2
304
ACVALUE_END
170
5
140
0.125
171
1
172
0
173
0
174
0
175
1
176
1
 91
33
178
0
145
0.0
301
CELL_VALUE
 90
4
  1
 
304
ACVALUE_END
170
1
140
0.125
171
1
172
0
173
0
174
0
175
1
176
1
 91
33
178
0
145
0.0
301
CELL_VALUE
 90
4
  1
DESCRIPTION
304
ACVALUE_END
170
1
140
0.06
171
1
172
0
173
0
174
0
175
1
176
1
 91
33
178
0
145
0.0
301
CELL_VALUE
 90
4
  1
DATE
304
ACVALUE_END
170
1
140
0.06
171
1
172
0
173
0
174
0
175
1
176
1
 91
33
178
0
145
0.0
301
CELL_VALUE
 90
4
  1
SCALE
304
ACVALUE_END
170
1
140
0.06
171
1
172
0
173
0
174
0
175
1
176
1
 91
33
178
0
145
0.0
301
CELL_VALUE
 90
4
  1
DWG SIZE
304
ACVALUE_END
170
1
140
0.06
171
1
172
0
173
0
174
0
175
1
176
1
 91
33
178
0
145
0.0
301
CELL_VALUE
 90
4
  1
SHEET
304
ACVALUE_END
170
1
140
0.06
171
1
172
0
173
0
174
0
175
1
176
1
 91
33
178
0
145
0.0
301
CELL_VALUE
 90
4
  1
 
304
ACVALUE_END
170
1
140
0.125
171
1
172
0
173
0
174
0
175
1
176
1
 91
33
178
0
145
0.0
301
CELL_VALUE
 90
4
  1
ZTK
304
ACVALUE_END
170
5
140
0.125
171
1
172
0
173
0
174
0
175
4
176
1
 91
33
178
0
145
0.0
301
CELL_VALUE
 90
4
  1
ALL DIMENSIONS IN INCH\PVIEWS ARE THIRD ANGLE
304
ACVALUE_END
170
5
140
0.12
171
1
172
0
173
1
174
0
175
1
176
1
 91
1
178
0
145
0.0
170
1
171
1
172
0
173
1
174
0
175
1
176
1
 91
1
178
0
145
0.0
170
1
171
1
172
0
173
1
174
0
175
1
176
1
 91
1
178
0
145
0.0
170
5
171
1
172
0
173
0
174
0
175
1
176
1
 91
33
178
0
145
0.0
301
CELL_VALUE
 90
4
  1
 
304
ACVALUE_END
170
1
140
0.125
171
1
172
0
173
0
174
0
175
1
176
1
 91
33
178
0
145
0.0
301
CELL_VALUE
 90
4
  1
MODEL
304
ACVALUE_END
170
1
140
0.06
171
1
172
0
173
0
174
0
175
1
176
1
 91
33
178
0
145
0.0
301
CELL_VALUE
 90
4
  1
 
304
ACVALUE_END
170
1
140
0.125
171
1
172
0
173
0
174
0
175
1
176
1
 91
33
178
0
145
0.0
301
CELL_VALUE
 90
4
  1
 
304
ACVALUE_END
170
1
140
0.125
171
1
172
0
173
0
174
0
175
1
176
1
 91
33
178
0
145
0.0
301
CELL_VALUE
 90
4
  1
 
304
ACVALUE_END
170
1
140
0.125
171
1
172
0
173
0
174
0
175
1
176
1
 91
33
178
0
145
0.0
301
CELL_VALUE
 90
4
  1
 
304
ACVALUE_END
170
1
140
0.125
171
1
172
0
173
0
174
0
175
1
176
1
 91
33
178
0
145
0.0
301
CELL_VALUE
 90
4
  1
 
304
ACVALUE_END
170
1
140
0.125
  0
ACAD_TABLE
  5
28D
100
AcDbEntity
  8
0
 62
2
  6
CONTINUOUS
100
AcDbBlockReference
  2
*T2
 10
12.4237499994
 20
16.47875
 30
0.0
100
AcDbTable
342
       313
343
20B
 11
1.0
 21
0.0
 31
0.0
 90
22
 91
12
 92
3
 93
16
 94
0
 95
0
 96
0
 41
0.028
141
0.344
141
0.25
141
0.25
141
0.25
141
0.25
141
0.25
141
0.25
141
0.25
141
0.25
141
0.25
141
0.25
141
0.25
142
3.055
142
3.0
142
3.0
171
1
172
0
173
0
174
0
175
1
176
1
 91
33
178
0
145
0.0
301
CELL_VALUE
 90
4
  1
Technical Data
304
ACVALUE_END
170
5
140
0.145
171
1
172
0
173
0
174
0
175
1
176
1
 91
33
178
0
145
0.0
301
CELL_VALUE
 90
4
  1
U.S. Units
304
ACVALUE_END
170
5
140
0.145
171
1
172
0
173
0
174
0
175
1
176
1
 91
33
178
0
145
0.0
301
CELL_VALUE
 90
4
  1
Metric Units
304
ACVALUE_END
170
5
140
0.145
171
1
172
0
173
0
174
0
175
1
176
1
 91
33
178
0
145
0.0
301
CELL_VALUE
 90
4
  1
Cavity
304
ACVALUE_END
170
5
140
0.125
171
1
172
0
173
0
174
0
175
2
176
1
 91
33
178
0
145
0.0
301
CELL_VALUE
 90
4
  1
T-17A
304
ACVALUE_END
170
5
140
0.125
171
1
172
0
173
1
174
0
175
1
176
1
 91
1
178
0
145
0.0
170
1
171
1
172
0
173
0
174
0
175
1
176
1
 91
33
178
0
145
0.0
301
CELL_VALUE
 90
4
  1
Body Features
304
ACVALUE_END
170
5
140
0.125
171
1
172
0
173
0
174
0
175
2
176
1
 91
33
178
0
145
0.0
301
CELL_VALUE
 90
4
  1
Direct mount, cross pilot
304
ACVALUE_END
170
5
140
0.125
171
1
172
0
173
1
174
0
175
1
176
1
 91
1
178
0
145
0.0
170
1
171
1
172
0
173
0
174
0
175
1
176
1
 91
33
178
0
145
0.0
301
CELL_VALUE
 90
4
  1
Body Type
304
ACVALUE_END
170
5
140
0.125
171
1
172
0
173
0
174
0
175
2
176
1
 91
33
178
0
145
0.0
301
CELL_VALUE
 90
4
  1
Gasket mount
304
ACVALUE_END
170
5
140
0.125
171
1
172
0
173
1
174
0
175
1
176
1
 91
1
178
0
145
0.0
170
1
171
1
172
0
173
0
174
0
175
1
176
1
 91
33
178
0
145
0.0
301
CELL_VALUE
 90
4
  1
Interface
304
ACVALUE_END
170
5
140
0.125
171
1
172
0
173
0
174
0
175
2
176
1
 91
33
178
0
145
0.0
301
CELL_VALUE
 90
4
  1
Sun
304
ACVALUE_END
170
5
140
0.125
171
1
172
0
173
1
174
0
175
1
176
1
 91
1
178
0
145
0.0
170
1
171
1
172
0
173
0
174
0
175
1
176
1
 91
33
178
0
145
0.0
301
CELL_VALUE
 90
4
  1
Open Cavity Quantity
304
ACVALUE_END
170
5
140
0.125
171
1
172
0
173
0
174
0
175
2
176
1
 91
33
178
0
145
0.0
301
CELL_VALUE
 90
4
  1
1
304
ACVALUE_END
170
5
140
0.125
171
1
172
0
173
1
174
0
175
1
176
1
 91
1
178
0
145
0.0
170
1
171
1
172
0
173
0
174
0
175
1
176
1
 91
33
178
0
145
0.0
301
CELL_VALUE
 90
4
  1
Weight
304
ACVALUE_END
170
5
140
0.125
171
1
172
0
173
0
174
0
175
1
176
1
 91
33
178
0
145
0.0
301
CELL_VALUE
 90
4
  1
3.505 lb.
304
ACVALUE_END
170
5
140
0.125
171
1
172
0
173
0
174
0
175
1
176
1
 91
33
178
0
145
0.0
301
CELL_VALUE
 90
4
  1
1,590 kg.
304
ACVALUE_END
170
5
140
0.125
171
1
172
0
173
0
174
0
175
1
176
1
 91
33
178
0
145
0.0
301
CELL_VALUE
 90
4
  1
Mounting Hole Diameter
304
ACVALUE_END
170
5
140
0.125
171
1
172
0
173
0
174
0
175
1
176
1
 91
33
178
0
145
0.0
301
CELL_VALUE
 90
4
  1
.53 in.
304
ACVALUE_END
170
5
140
0.125
171
1
172
0
173
0
174
0
175
1
176
1
 91
33
178
0
145
0.0
301
CELL_VALUE
 90
4
  1
13,5 mm
304
ACVALUE_END
170
5
140
0.125
171
1
172
0
173
0
174
0
175
1
176
1
 91
33
178
0
145
0.0
301
CELL_VALUE
 90
4
  1
Mounting Hole Depth
304
ACVALUE_END
170
5
140
0.125
171
1
172
0
173
0
174
0
175
2
176
1
 91
33
178
0
145
0.0
301
CELL_VALUE
 90
4
  1
Through
304
ACVALUE_END
170
5
140
0.125
171
1
172
0
173
1
174
0
175
1
176
1
 91
1
178
0
145
0.0
170
1
171
1
172
0
173
0
174
0
175
1
176
1
 91
33
178
0
145
0.0
301
CELL_VALUE
 90
4
  1
Mounting Hole Quantity
304
ACVALUE_END
170
5
140
0.125
171
1
172
0
173
0
174
0
175
2
176
1
 91
33
178
0
145
0.0
301
CELL_VALUE
 90
4
  1
2
304
ACVALUE_END
170
5
140
0.125
171
1
172
0
173
1
174
0
175
1
176
1
 91
1
178
0
145
0.0
170
1
171
1
172
0
173
0
174
0
175
1
176
1
 91
33
178
0
145
0.0
301
CELL_VALUE
 90
4
  1
Mounting Hole C'bore Diameter
304
ACVALUE_END
170
5
140
0.125
171
1
172
0
173
0
174
0
175
1
176
1
 91
33
178
0
145
0.0
301
CELL_VALUE
 90
4
  1
.78 in.
304
ACVALUE_END
170
5
140
0.125
171
1
172
0
173
0
174
0
175
1
176
1
 91
33
178
0
145
0.0
301
CELL_VALUE
 90
4
  1
19,8 mm
304
ACVALUE_END
170
5
140
0.125
171
1
172
0
173
0
174
0
175
1
176
1
 91
33
178
0
145
0.0
301
CELL_VALUE
 90
4
  1
Mounting Hole C'bore Depth
304
ACVALUE_END
170
5
140
0.125
171
1
172
0
173
0
174
0
175
1
176
1
 91
33
178
0
145
0.0
301
CELL_VALUE
 90
4
  1
.44 in.
304
ACVALUE_END
170
5
140
0.125
171
1
172
0
173
0
174
0
175
1
176
1
 91
33
178
0
145
0.0
301
CELL_VALUE
 90
4
  1
11,1 mm
304
ACVALUE_END
170
5
140
0.125
  0
ACAD_TABLE
  5
28E
100
AcDbEntity
  8
0
 62
2
  6
CONTINUOUS
100
AcDbBlockReference
  2
*T3
 10
0.52125
 20
1.459
 30
0.0
100
AcDbTable
342
       313
343
20C
 11
1.0
 21
0.0
 31
0.0
 90
22
 91
3
 92
3
 93
16
 94
0
 95
0
 96
0
 41
0.05
141
0.34375
141
0.344
141
0.25
142
1.3
142
2.0
142
1.3
171
1
172
0
173
0
174
0
175
3
176
1
 91
33
178
0
145
0.0
301
CELL_VALUE
 90
4
  1
Port Headings
304
ACVALUE_END
170
5
140
0.145
171
1
172
0
173
1
174
0
175
1
176
1
 91
1
178
0
145
0.0
170
1
171
1
172
0
173
1
174
0
175
1
176
1
 91
1
178
0
145
0.0
170
1
171
1
172
0
173
0
174
0
175
1
176
1
 91
33
178
0
145
0.0
301
CELL_VALUE
 90
4
  1
Product
304
ACVALUE_END
170
5
140
0.145
171
1
172
0
173
0
174
0
175
1
176
1
 91
33
178
0
145
0.0
301
CELL_VALUE
 90
4
  1
Port
304
ACVALUE_END
170
5
140
0.145
171
1
172
0
173
0
174
0
175
1
176
1
 91
33
178
0
145
0.0
301
CELL_VALUE
 90
4
  1
Size
304
ACVALUE_END
170
5
140
0.145
171
1
172
0
173
0
174
0
175
1
176
1
 91
33
178
0
145
0.0
301
CELL_VALUE
 90
4
  1
ZTK
304
ACVALUE_END
170
5
140
0.125
171
1
172
0
173
0
174
0
175
1
176
1
 91
33
178
0
145
0.0
301
CELL_VALUE
 90
4
  1
Ports C2, V1, V2
304
ACVALUE_END
170
5
140
0.125
171
1
172
0
173
0
174
0
175
1
176
1
 91
33
178
0
145
0.0
301
CELL_VALUE
 90
4
  1
SAE 12
304
ACVALUE_END
170
5
140
0.125
  0
MTEXT
  5
28F
100
AcDbEntity
  8
0
100
AcDbMText
 62
2
  6
CONTINUOUS
  7
STANDARD
 71
1
 72
1
 10
0.52125
 20
5.75995
 30
0.0
 11
1.0
 21
0.0
 31
0.0
 44
0.6
  3
Notes\P \P1. Important: Carefully consider\P   the maximum system pressure. The\P   pressure rating of the manifold is\P   dependent on the manifold material,\P   with the port type/size a secondary\P   consideration. Manifolds\P   constructed of alu
  3
minum are not\P   rated for pressures higher than\P   3000 psi (210 bar), regardless of\P   the port type/size specified.\P2. This drawing is for reference\P   only. It is generated by an\P   automated process and does not fall\P   under Sun's docume
  1
nt control\P   process.
 40
0.1
 41
3.04
  0
LINE
  5
290
100
AcDbEntity
  8
0
100
AcDbLine
 62
7
  6
CONTINUOUS
 10
0.30125
 20
0.30125
 11
0.30125
 21
16.69875
  0
LINE
  5
291
100
AcDbEntity
  8
0
100
AcDbLine
 62
7
  6
CONTINUOUS
 10
0.30125
 20
0.30125
 11
21.69875
 21
0.30125
  0
LINE
  5
292
100
AcDbEntity
  8
0
100
AcDbLine
 62
7
  6
CONTINUOUS
 10
0.30125
 20
16.69875
 11
21.69875
 21
16.69875
  0
LINE
  5
293
100
AcDbEntity
  8
0
100
AcDbLine
 62
7
  6
CONTINUOUS
 10
21.69875
 20
0.30125
 11
21.69875
 21
16.69875
  0
LINE
  5
294
100
AcDbEntity
  8
0
100
AcDbLine
 62
7
  6
CONTINUOUS
 10
9.235537024
 20
5.9578077558
 11
11.3489828221
 21
5.8112397918
  0
LINE
  5
295
100
AcDbEntity
  8
0
100
AcDbLine
 62
7
  6
CONTINUOUS
 10
10.6510171779
 20
11.1887602082
 11
9.235537024
 21
9.8215112898
  0
LINE
  5
296
100
AcDbEntity
  8
0
100
AcDbLine
 62
7
  6
CONTINUOUS
 10
9.235537024
 20
9.8215112898
 11
9.235537024
 21
5.9578077558
  0
LINE
  5
297
100
AcDbEntity
  8
0
100
AcDbLine
 62
7
  6
CONTINUOUS
 10
10.3005421258
 20
7.3230599037
 11
10.2812891966
 21
7.3240611931
  0
LINE
  5
298
100
AcDbEntity
  8
0
100
AcDbLine
 62
7
  6
CONTINUOUS
 10
12.764462976
 20
11.0421922442
 11
11.3489828221
 21
9.6749433259
  0
LINE
  5
299
100
AcDbEntity
  8
0
100
AcDbLine
 62
4
  6
CONTINUOUS
 10
12.4078106353
 20
8.3427652478
 11
12.4155752
 21
8.343020798
  0
LINE
  5
29A
100
AcDbEntity
  8
0
100
AcDbLine
 62
7
  6
CONTINUOUS
 10
11.3489828221
 20
5.8112397918
 11
11.3489828221
 21
9.6749433259
  0
LINE
  5
29B
100
AcDbEntity
  8
0
100
AcDbLine
 62
7
  6
CONTINUOUS
 10
12.3957498882
 20
8.8827113715
 11
12.4016693379
 21
8.8875224282
  0
LINE
  5
29C
100
AcDbEntity
  8
0
100
AcDbLine
 62
7
  6
CONTINUOUS
 10
12.2828106698
 20
7.8677887595
 11
12.2828138201
 21
7.8677847201
  0
LINE
  5
29D
100
AcDbEntity
  8
0
100
AcDbLine
 62
7
  6
CONTINUOUS
 10
12.3474769309
 20
8.7985701506
 11
12.3473522076
 21
8.7984494455
  0
LINE
  5
29E
100
AcDbEntity
  8
0
100
AcDbLine
 62
4
  6
CONTINUOUS
 10
12.4233397648
 20
8.1983874688
 11
12.3922815057
 21
8.1683874925
  0
LINE
  5
29F
100
AcDbEntity
  8
0
100
AcDbLine
 62
7
  6
CONTINUOUS
 10
11.3489828221
 20
9.6749433259
 11
9.235537024
 21
9.8215112898
  0
LINE
  5
2A0
100
AcDbEntity
  8
0
100
AcDbLine
 62
7
  6
CONTINUOUS
 10
12.4146226193
 20
8.8375357901
 11
12.3859951808
 21
8.8713026542
  0
LINE
  5
2A1
100
AcDbEntity
  8
0
100
AcDbLine
 62
4
  6
CONTINUOUS
 10
12.3974578824
 20
8.2603208162
 11
12.3948696941
 21
8.2650652621
  0
LINE
  5
2A2
100
AcDbEntity
  8
0
100
AcDbLine
 62
4
  6
CONTINUOUS
 10
12.4155752
 20
8.343020798
 11
12.4207515772
 21
8.3335319067
  0
LINE
  5
2A3
100
AcDbEntity
  8
0
100
AcDbLine
 62
4
  6
CONTINUOUS
 10
12.3948696941
 20
8.2650652621
 11
12.3922815057
 21
8.2770541519
  0
LINE
  5
2A4
100
AcDbEntity
  8
0
100
AcDbLine
 62
4
  6
CONTINUOUS
 10
12.3922815057
 20
8.2770541519
 11
12.3922815057
 21
8.2915430398
  0
LINE
  5
2A5
100
AcDbEntity
  8
0
100
AcDbLine
 62
4
  6
CONTINUOUS
 10
12.4233397648
 20
8.3215430162
 11
12.4233397648
 21
8.3070541283
  0
LINE
  5
2A6
100
AcDbEntity
  8
0
100
AcDbLine
 62
4
  6
CONTINUOUS
 10
12.3922815057
 20
8.2915430398
 11
12.3948696941
 21
8.3085319259
  0
LINE
  5
2A7
100
AcDbEntity
  8
0
100
AcDbLine
 62
4
  6
CONTINUOUS
 10
12.4233397648
 20
8.3070541283
 11
12.4207515772
 21
8.2900652429
  0
LINE
  5
2A8
100
AcDbEntity
  8
0
100
AcDbLine
 62
4
  6
CONTINUOUS
 10
12.3948696941
 20
8.3085319259
 11
12.4000460705
 21
8.3280208098
  0
LINE
  5
2A9
100
AcDbEntity
  8
0
100
AcDbLine
 62
4
  6
CONTINUOUS
 10
12.4207515772
 20
8.2900652429
 11
12.4181633877
 21
8.2803207997
  0
LINE
  5
2AA
100
AcDbEntity
  8
0
100
AcDbLine
 62
4
  6
CONTINUOUS
 10
12.4000460705
 20
8.3280208098
 11
12.4078106353
 21
8.3427652478
  0
LINE
  5
2AB
100
AcDbEntity
  8
0
100
AcDbLine
 62
7
  6
CONTINUOUS
 10
12.3474409431
 20
7.82295018
 11
12.3440634131
 21
7.8198101501
  0
LINE
  5
2AC
100
AcDbEntity
  8
0
100
AcDbLine
 62
7
  6
CONTINUOUS
 10
12.3440417649
 20
7.8197908051
 11
12.3112314176
 21
7.790481151
  0
LINE
  5
2AD
100
AcDbEntity
  8
0
100
AcDbLine
 62
4
  6
CONTINUOUS
 10
12.4207515772
 20
8.3335319067
 11
12.4233397648
 21
8.3215430162
  0
LINE
  5
2AE
100
AcDbEntity
  8
0
100
AcDbLine
 62
7
  6
CONTINUOUS
 10
12.764462976
 20
7.1784887102
 11
12.764462976
 21
11.0421922442
  0
LINE
  5
2AF
100
AcDbEntity
  8
0
100
AcDbLine
 62
7
  6
CONTINUOUS
 10
12.764462976
 20
7.1784887102
 11
11.3489828221
 21
5.8112397918
  0
LINE
  5
2B0
100
AcDbEntity
  8
0
100
AcDbLine
 62
7
  6
CONTINUOUS
 10
12.764462976
 20
11.0421922442
 11
10.6510171779
 21
11.1887602082
  0
ARC
  5
2B1
100
AcDbEntity
  8
0
100
AcDbCircle
 62
7
  6
CONTINUOUS
 10
11.7697190246
 20
8.6049996151
 40
0.9732699108
100
AcDbArc
 50
155.0887411686
 51
155.2117964652
  0
ARC
  5
2B2
100
AcDbEntity
  8
0
100
AcDbCircle
 62
7
  6
CONTINUOUS
 10
10.3951610327
 20
8.423096836
 40
0.7619113019
100
AcDbArc
 50
311.4649735107
 51
312.8010495788
  0
ARC
  5
2B3
100
AcDbEntity
  8
0
100
AcDbCircle
 62
7
  6
CONTINUOUS
 10
10.2379281927
 20
8.5858684
 40
0.7617775768
100
AcDbArc
 50
135.1853805365
 51
136.5480872168
  0
ARC
  5
2B4
100
AcDbEntity
  8
0
100
AcDbCircle
 62
7
  6
CONTINUOUS
 10
10.2344740544
 20
6.8360499981
 40
0.6394042127
100
AcDbArc
 50
134.6768433341
 51
135.0388895346
  0
ARC
  5
2B5
100
AcDbEntity
  8
0
100
AcDbCircle
 62
7
  6
CONTINUOUS
 10
11.0761193576
 20
9.1948827403
 40
0.6033219421
100
AcDbArc
 50
266.0247282747
 51
271.2511682341
  0
ARC
  5
2B6
100
AcDbEntity
  8
0
100
AcDbCircle
 62
7
  6
CONTINUOUS
 10
12.8567577055
 20
8.0095167859
 40
0.5908298581
100
AcDbArc
 50
193.8883379672
 51
194.0755339772
  0
ARC
  5
2B7
100
AcDbEntity
  8
0
100
AcDbCircle
 62
7
  6
CONTINUOUS
 10
11.0799920076
 20
9.2007666745
 40
0.5848413332
100
AcDbArc
 50
266.0269419135
 51
270.5197882011
  0
ARC
  5
2B8
100
AcDbEntity
  8
0
100
AcDbCircle
 62
7
  6
CONTINUOUS
 10
10.3418058625
 20
6.7659743098
 40
0.5141414021
100
AcDbArc
 50
355.8982135219
 51
357.7976080605
  0
ARC
  5
2B9
100
AcDbEntity
  8
0
100
AcDbCircle
 62
7
  6
CONTINUOUS
 10
11.072951835
 20
9.2027441051
 40
0.4837023368
100
AcDbArc
 50
266.0308027771
 51
268.3177966913
  0
ARC
  5
2BA
100
AcDbEntity
  8
0
100
AcDbCircle
 62
7
  6
CONTINUOUS
 10
12.3534689234
 20
7.9228900774
 40
0.0896032589
100
AcDbArc
 50
217.9513955002
 51
218.5388659041
  0
ARC
  5
2BB
100
AcDbEntity
  8
0
100
AcDbCircle
 62
7
  6
CONTINUOUS
 10
12.4089113385
 20
8.7349727747
 40
0.0884240503
100
AcDbArc
 50
133.0512340529
 51
134.0089192633
  0
LINE
  5
2BC
100
AcDbEntity
  8
0
100
AcDbLine
 62
7
  6
CONTINUOUS
 10
12.32409638
 20
7.7773072806
 11
12.3208030192
 21
7.774370999
  0
SPLINE
  5
2BD
100
AcDbEntity
  8
0
100
AcDbSpline
 62
7
  6
CONTINUOUS
 70
0
 71
3
 72
50
 73
46
 74
0
 42
0.0000001
 43
0.0000001
 44
0.0000000001
 40
0.0
 40
0.0
 40
0.0
 40
0.0
 40
0.0031311152
 40
0.0057819504
 40
0.0069150476
 40
0.0079188832
 40
0.0087928086
 40
0.0095359822
 40
0.0101473726
 40
0.0106257634
 40
0.0109697613
 40
0.0111778181
 40
0.0112484308
 40
0.0113184997
 40
0.0115300364
 40
0.0118855647
 40
0.0123875385
 40
0.0130385377
 40
0.0138412816
 40
0.0147986278
 40
0.0159135687
 40
0.0171892266
 40
0.018628849
 40
0.020235804
 40
0.0239656287
 40
0.0284078182
 40
0.0335783776
 40
0.0394681861
 40
0.0533582651
 40
0.0699884635
 40
0.0892741401
 40
0.111137855
 40
0.1355102316
 40
0.1623292692
 40
0.1915337439
 40
0.2230613354
 40
0.2568495513
 40
0.2928363768
 40
0.3711647079
 40
0.4576480939
 40
0.5519153079
 40
0.6535879939
 40
0.7623398419
 40
0.8779018861
 40
1.0
 40
1.0
 40
1.0
 40
1.0
 10
12.3241279721
 20
7.7717630849
 30
0.0
 10
12.3242357495
 20
7.7717401961
 30
0.0
 10
12.324434299
 20
7.7716956021
 30
0.0
 10
12.3246696779
 20
7.77163358
 30
0.0
 10
12.3248309218
 20
7.771584664
 30
0.0
 10
12.3249315817
 20
7.7715516444
 30
0.0
 10
12.3250185992
 20
7.7715208644
 30
0.0
 10
12.3250917588
 20
7.7714931438
 30
0.0
 10
12.32515197
 20
7.7714685543
 30
0.0
 10
12.3251970682
 20
7.7714491997
 30
0.0
 10
12.3252326075
 20
7.7714321047
 30
0.0
 10
12.3252474312
 20
7.7714253467
 30
0.0
 10
12.3252643311
 20
7.7714152039
 30
0.0
 10
12.3252459879
 20
7.7714227436
 30
0.0
 10
12.3252313823
 20
7.7714308286
 30
0.0
 10
12.3251951266
 20
7.7714498023
 30
0.0
 10
12.3251504274
 20
7.7714756218
 30
0.0
 10
12.3250908685
 20
7.7715112503
 30
0.0
 10
12.3250192395
 20
7.77155634
 30
0.0
 10
12.3249345857
 20
7.7716118834
 30
0.0
 10
12.3248373499
 20
7.7716783701
 30
0.0
 10
12.3247274808
 20
7.7717564665
 30
0.0
 10
12.3246050937
 20
7.7718467776
 30
0.0
 10
12.3244156953
 20
7.7719916728
 30
0.0
 10
12.324147951
 20
7.772207947
 30
0.0
 10
12.3237923424
 20
7.7725146285
 30
0.0
 10
12.3233898618
 20
7.7728829735
 30
0.0
 10
12.3227572221
 20
7.7734918689
 30
0.0
 10
12.3218659272
 20
7.7744128835
 30
0.0
 10
12.3206970033
 20
7.7757192809
 30
0.0
 10
12.3193977375
 20
7.7772837892
 30
0.0
 10
12.3179884004
 20
7.7791091709
 30
0.0
 10
12.3164902673
 20
7.7811989151
 30
0.0
 10
12.3149200034
 20
7.7835527441
 30
0.0
 10
12.3132868381
 20
7.7861655738
 30
0.0
 10
12.3116014806
 20
7.7890334904
 30
0.0
 10
12.3098741856
 20
7.7921522239
 30
0.0
 10
12.3074597618
 20
7.7967713386
 30
0.0
 10
12.3044130715
 20
7.8031494992
 30
0.0
 10
12.3008198636
 20
7.8115305096
 30
0.0
 10
12.2972303909
 20
7.8207999317
 30
0.0
 10
12.2936852833
 20
7.8309205278
 30
0.0
 10
12.2902143429
 20
7.8418555527
 30
0.0
 10
12.2868348327
 20
7.8535689297
 30
0.0
 10
12.2847118792
 20
7.8616589499
 30
0.0
 10
12.2836669504
 20
7.865826467
 30
0.0
  0
SPLINE
  5
2BE
100
AcDbEntity
  8
0
100
AcDbSpline
 62
7
  6
CONTINUOUS
 70
0
 71
3
 72
32
 73
28
 74
0
 42
0.0000001
 43
0.0000001
 44
0.0000000001
 40
0.0
 40
0.0
 40
0.0
 40
0.0
 40
0.0228754704
 40
0.0473483499
 40
0.0733158146
 40
0.1006779949
 40
0.1293351979
 40
0.1591866301
 40
0.1901305875
 40
0.2220638785
 40
0.2884744115
 40
0.3575622287
 40
0.4284461637
 40
0.5002286673
 40
0.5720036495
 40
0.6428651672
 40
0.7119159471
 40
0.7454873407
 40
0.7782773494
 40
0.8101795211
 40
0.8410891513
 40
0.870902783
 40
0.8995186423
 40
0.926836224
 40
0.9527556266
 40
0.9771781663
 40
1.0
 40
1.0
 40
1.0
 40
1.0
 10
12.2832005469
 20
7.8676996251
 30
0.0
 10
12.2814731403
 20
7.8746855979
 30
0.0
 10
12.2781566476
 20
7.8892101781
 30
0.0
 10
12.2737062222
 20
7.9118440696
 30
0.0
 10
12.2696432225
 20
7.9359831709
 30
0.0
 10
12.2659920613
 20
7.9615179862
 30
0.0
 10
12.2627750653
 20
7.9883419224
 30
0.0
 10
12.2600098204
 20
8.0163484276
 30
0.0
 10
12.257708931
 20
8.0454307531
 30
0.0
 10
12.2552452813
 20
8.0860304652
 30
0.0
 10
12.2534335485
 20
8.1386820843
 30
0.0
 10
12.2532459758
 20
8.203617046
 30
0.0
 10
12.2550284973
 20
8.2702182298
 30
0.0
 10
12.2587608978
 20
8.3375848004
 30
0.0
 10
12.2643942388
 20
8.4048121817
 30
0.0
 10
12.2718516382
 20
8.4709968916
 30
0.0
 10
12.2795691675
 20
8.5250340702
 30
0.0
 10
12.2866002258
 20
8.5670506212
 30
0.0
 10
12.2922062686
 20
8.5974522298
 30
0.0
 10
12.2981727735
 20
8.6269313356
 30
0.0
 10
12.304475975
 20
8.6553821549
 30
0.0
 10
12.3110914441
 20
8.6826995401
 30
0.0
 10
12.3179883579
 20
8.70878025
 30
0.0
 10
12.3251374238
 20
8.7335204302
 30
0.0
 10
12.3324998716
 20
8.7568184596
 30
0.0
 10
12.3400370307
 20
8.7785690515
 30
0.0
 10
12.3453313227
 20
8.7924600389
 30
0.0
 10
12.348007525
 20
8.7991221047
 30
0.0
  0
LINE
  5
2BF
100
AcDbEntity
  8
0
100
AcDbLine
 62
7
  6
CONTINUOUS
 10
12.348007525
 20
8.7991221047
 11
12.3480643777
 21
8.7992635801
  0
SPLINE
  5
2C0
100
AcDbEntity
  8
0
100
AcDbSpline
 62
7
  6
CONTINUOUS
 70
0
 71
3
 72
20
 73
16
 74
0
 42
0.0000001
 43
0.0000001
 44
0.0000000001
 40
0.0
 40
0.0
 40
0.0
 40
0.0
 40
0.1734935915
 40
0.3347084505
 40
0.4105104863
 40
0.4829995771
 40
0.6176981229
 40
0.6796653918
 40
0.7378312879
 40
0.7920369736
 40
0.8421266738
 40
0.887994535
 40
0.9296129766
 40
0.9669574822
 40
1.0
 40
1.0
 40
1.0
 40
1.0
 10
12.3480643777
 20
8.7992635801
 30
0.0
 10
12.3501480338
 20
8.8044467572
 30
0.0
 10
12.3543078809
 20
8.8143908935
 30
0.0
 10
12.3598023381
 20
8.8264159032
 30
0.0
 10
12.3641948443
 20
8.8353621217
 30
0.0
 10
12.3683699283
 20
8.8434617217
 30
0.0
 10
12.3725790713
 20
8.8510415311
 30
0.0
 10
12.3768242905
 20
8.858064146
 30
0.0
 10
12.3798496171
 20
8.8627934847
 30
0.0
 10
12.3827886108
 20
8.8671217717
 30
0.0
 10
12.385625549
 20
8.871038168
 30
0.0
 10
12.3883442175
 20
8.8745367143
 30
0.0
 10
12.3909221067
 20
8.8776217934
 30
0.0
 10
12.3933393874
 20
8.8802994207
 30
0.0
 10
12.3949282955
 20
8.8819168613
 30
0.0
 10
12.3956931811
 20
8.8826563942
 30
0.0
  0
SPLINE
  5
2C1
100
AcDbEntity
  8
0
100
AcDbSpline
 62
7
  6
CONTINUOUS
 70
0
 71
3
 72
72
 73
68
 74
0
 42
0.0000001
 43
0.0000001
 44
0.0000000001
 40
0.0
 40
0.0
 40
0.0
 40
0.0
 40
0.0103911151
 40
0.0212025192
 40
0.0324424104
 40
0.0441179873
 40
0.0562925278
 40
0.0690379511
 40
0.0824110363
 40
0.096423002
 40
0.1110694669
 40
0.1263432205
 40
0.1422314315
 40
0.1587184726
 40
0.1757858123
 40
0.1934058843
 40
0.2301785035
 40
0.2687618718
 40
0.3088437236
 40
0.350081106
 40
0.392110898
 40
0.4345568548
 40
0.4770353525
 40
0.5191626568
 40
0.5605611237
 40
0.6008649064
 40
0.6397278034
 40
0.6585188662
 40
0.6768323716
 40
0.6946340979
 40
0.711893994
 40
0.7285830949
 40
0.744677986
 40
0.7601613196
 40
0.7750177238
 40
0.7892414426
 40
0.802835863
 40
0.8158086854
 40
0.8281854805
 40
0.8400059633
 40
0.851321046
 40
0.8568143649
 40
0.8622140522
 40
0.8675336698
 40
0.8727877325
 40
0.8779909771
 40
0.8831602757
 40
0.8934762074
 40
0.903890405
 40
0.9091568393
 40
0.9144771688
 40
0.9198662546
 40
0.9253108646
 40
0.9307902809
 40
0.9362890547
 40
0.9417967085
 40
0.9472980009
 40
0.9527720166
 40
0.9554920312
 40
0.9581965434
 40
0.96356015
 40
0.9688713028
 40
0.9741307369
 40
0.9793326978
 40
0.9844879772
 40
0.9896308621
 40
1.0
 40
1.0
 40
1.0
 40
1.0
 10
12.3956802436
 20
7.7032485937
 30
0.0
 10
12.3993453085
 20
7.7067878784
 30
0.0
 10
12.4064906911
 20
7.7143597623
 30
0.0
 10
12.4164831518
 20
7.7267529157
 30
0.0
 10
12.4259968354
 20
7.740292117
 30
0.0
 10
12.4350875773
 20
7.7549091016
 30
0.0
 10
12.4437985449
 20
7.7706039392
 30
0.0
 10
12.4521970199
 20
7.7874023867
 30
0.0
 10
12.4603469003
 20
7.8053164781
 30
0.0
 10
12.4682632542
 20
7.8243481166
 30
0.0
 10
12.4759448798
 20
7.8444759924
 30
0.0
 10
12.4833879999
 20
7.8656704922
 30
0.0
 10
12.4905887014
 20
7.8878988942
 30
0.0
 10
12.4975418743
 20
7.9111252258
 30
0.0
 10
12.5042412027
 20
7.9353082243
 30
0.0
 10
12.5129459057
 20
7.9692502094
 30
0.0
 10
12.5230630801
 20
8.0137119032
 30
0.0
 10
12.533851611
 20
8.0692847881
 30
0.0
 10
12.5433635812
 20
8.1273094248
 30
0.0
 10
12.5515144033
 20
8.1872459241
 30
0.0
 10
12.5582292707
 20
8.248526119
 30
0.0
 10
12.5634447035
 20
8.3105626056
 30
0.0
 10
12.5671105977
 20
8.3727578014
 30
0.0
 10
12.56919186
 20
8.4345124021
 30
0.0
 10
12.5696675758
 20
8.4952343667
 30
0.0
 10
12.5685305027
 20
8.5543468634
 30
0.0
 10
12.5662207357
 20
8.602330516
 30
0.0
 10
12.5635405566
 20
8.6394841213
 30
0.0
 10
12.5611565314
 20
8.666301632
 30
0.0
 10
12.5583794874
 20
8.6923264624
 30
0.0
 10
12.5552136143
 20
8.7175044616
 30
0.0
 10
12.5516624677
 20
8.7417856982
 30
0.0
 10
12.5477286443
 20
8.7651251899
 30
0.0
 10
12.5434139648
 20
8.7874830254
 30
0.0
 10
12.5387196372
 20
8.8088261133
 30
0.0
 10
12.5336414368
 20
8.8291282005
 30
0.0
 10
12.5281701718
 20
8.8483700452
 30
0.0
 10
12.5222966761
 20
8.8665442517
 30
0.0
 10
12.5159901544
 20
8.8836500511
 30
0.0
 10
12.5092087979
 20
8.8996951012
 30
0.0
 10
12.5030640622
 20
8.9123259937
 30
0.0
 10
12.4978359935
 20
8.9218800783
 30
0.0
 10
12.4937823151
 20
8.9287203077
 30
0.0
 10
12.4895425994
 20
8.9353079019
 30
0.0
 10
12.4851040491
 20
8.9416462632
 30
0.0
 10
12.4804388425
 20
8.9477280044
 30
0.0
 10
12.4738820325
 20
8.9554726682
 30
0.0
 10
12.4649176714
 20
8.9645054488
 30
0.0
 10
12.4548871334
 20
8.9724359265
 30
0.0
 10
12.446169596
 20
8.9779325095
 30
0.0
 10
12.4392353671
 20
8.9815945806
 30
0.0
 10
12.4319444966
 20
8.9847127431
 30
0.0
 10
12.4243464699
 20
8.9872423932
 30
0.0
 10
12.4165077537
 20
8.9891293173
 30
0.0
 10
12.4085000032
 20
8.990314329
 30
0.0
 10
12.400405731
 20
8.9907446409
 30
0.0
 10
12.3923189292
 20
8.9904530106
 30
0.0
 10
12.3856453915
 20
8.9896288458
 30
0.0
 10
12.3803938679
 20
8.9886322306
 30
0.0
 10
12.3752431884
 20
8.9874211199
 30
0.0
 10
12.3689573848
 20
8.9855158061
 30
0.0
 10
12.3616755008
 20
8.9826644415
 30
0.0
 10
12.3546943791
 20
8.9793217123
 30
0.0
 10
12.3480236766
 20
8.9755509583
 30
0.0
 10
12.3416566397
 20
8.971391525
 30
0.0
 10
12.3335211819
 20
8.965341589
 30
0.0
 10
12.3278097658
 20
8.9602924191
 30
0.0
 10
12.3241539263
 20
8.9567590945
 30
0.0
  0
SPLINE
  5
2C2
100
AcDbEntity
  8
0
100
AcDbSpline
 62
7
  6
CONTINUOUS
 70
0
 71
3
 72
19
 73
15
 74
0
 42
0.0000001
 43
0.0000001
 44
0.0000000001
 40
0.0
 40
0.0
 40
0.0
 40
0.0
 40
0.0278827084
 40
0.0610958844
 40
0.0994544557
 40
0.1427974174
 40
0.1909746043
 40
0.2438330964
 40
0.3629698539
 40
0.4289682455
 40
0.4990873561
 40
0.6512251775
 40
0.8184690154
 40
1.0
 40
1.0
 40
1.0
 40
1.0
 10
12.3978687842
 20
8.8857099986
 30
0.0
 10
12.3983618105
 20
8.8851836024
 30
0.0
 10
12.3994115672
 20
8.8840014018
 30
0.0
 10
12.4010334741
 20
8.8820036077
 30
0.0
 10
12.4028065346
 20
8.8796167079
 30
0.0
 10
12.4046939805
 20
8.8768364646
 30
0.0
 10
12.4066772948
 20
8.873671171
 30
0.0
 10
12.4095401452
 20
8.8687470051
 30
0.0
 10
12.4123816519
 20
8.8632813003
 30
0.0
 10
12.4151936378
 20
8.8573070462
 30
0.0
 10
12.4181995549
 20
8.8504828647
 30
0.0
 10
12.4219358158
 20
8.8411225537
 30
0.0
 10
12.426253474
 20
8.8289032388
 30
0.0
 10
12.4289519155
 20
8.8202925629
 30
0.0
 10
12.430288194
 20
8.8157911568
 30
0.0
  0
SPLINE
  5
2C3
100
AcDbEntity
  8
0
100
AcDbSpline
 62
7
  6
CONTINUOUS
 70
0
 71
3
 72
19
 73
15
 74
0
 42
0.0000001
 43
0.0000001
 44
0.0000000001
 40
0.0
 40
0.0
 40
0.0
 40
0.0
 40
0.1707758214
 40
0.32980764
 40
0.4766121819
 40
0.6104792298
 40
0.6722682106
 40
0.7304657474
 40
0.7849543029
 40
0.8356441479
 40
0.8825113416
 40
0.9255394695
 40
0.9647093511
 40
1.0
 40
1.0
 40
1.0
 40
1.0
 10
12.3632070897
 20
7.8405936022
 30
0.0
 10
12.3614590968
 20
7.8367179613
 30
0.0
 10
12.357981489
 20
7.8292784616
 30
0.0
 10
12.3526262061
 20
7.8186877054
 30
0.0
 10
12.34734447
 20
7.8090966626
 30
0.0
 10
12.3429417347
 20
7.8017924521
 30
0.0
 10
12.3395010807
 20
7.7964906811
 30
0.0
 10
12.3370519766
 20
7.7929027408
 30
0.0
 10
12.3346742949
 20
7.7896021277
 30
0.0
 10
12.332376764
 20
7.7865931904
 30
0.0
 10
12.3301724695
 20
7.7838739046
 30
0.0
 10
12.3280729578
 20
7.7814407734
 30
0.0
 10
12.3260897631
 20
7.7792900758
 30
0.0
 10
12.3247844831
 20
7.777973014
 30
0.0
 10
12.3241528472
 20
7.7773623152
 30
0.0
  0
SPLINE
  5
2C4
100
AcDbEntity
  8
0
100
AcDbSpline
 62
7
  6
CONTINUOUS
 70
0
 71
3
 72
51
 73
47
 74
0
 42
0.0000001
 43
0.0000001
 44
0.0000000001
 40
0.0
 40
0.0
 40
0.0
 40
0.0
 40
0.0311429623
 40
0.0624390393
 40
0.0938821581
 40
0.1254627405
 40
0.1571685478
 40
0.1889848322
 40
0.2208946479
 40
0.2528792128
 40
0.2849182853
 40
0.3169905665
 40
0.3490741169
 40
0.3811467786
 40
0.413186604
 40
0.4451722806
 40
0.4770835444
 40
0.5089015852
 40
0.5406094235
 40
0.5721922667
 40
0.6036378301
 40
0.6349366131
 40
0.6505313541
 40
0.6660872357
 40
0.6816039492
 40
0.6970813947
 40
0.7125196809
 40
0.727919126
 40
0.7432802612
 40
0.7586038263
 40
0.7738907665
 40
0.789142231
 40
0.8043595683
 40
0.8195443173
 40
0.8346982008
 40
0.8498231194
 40
0.8649211391
 40
0.8799944797
 40
0.8950455049
 40
0.9100767091
 40
0.9250907018
 40
0.9400901927
 40
0.9550779784
 40
0.9700569243
 40
0.9850299475
 40
1.0
 40
1.0
 40
1.0
 40
1.0
 10
10.292259923
 20
9.3261176618
 30
0.0
 10
10.3128985378
 20
9.324686369
 30
0.0
 10
10.3541878266
 20
9.3203060612
 30
0.0
 10
10.4156211619
 20
9.3092720508
 30
0.0
 10
10.4763964895
 20
9.2938166062
 30
0.0
 10
10.5361855594
 20
9.2740229644
 30
0.0
 10
10.5946707811
 20
9.2499971719
 30
0.0
 10
10.6515401147
 20
9.2218676973
 30
0.0
 10
10.7064906758
 20
9.1897849722
 30
0.0
 10
10.7592295844
 20
9.1539201765
 30
0.0
 10
10.809475908
 20
9.1144647784
 30
0.0
 10
10.8569618847
 20
9.0716291629
 30
0.0
 10
10.9014344455
 20
9.0256417002
 30
0.0
 10
10.9426566119
 20
8.97674756
 30
0.0
 10
10.9804085049
 20
8.9252072241
 30
0.0
 10
11.0144888858
 20
8.8712954082
 30
0.0
 10
11.0447157913
 20
8.8152993145
 30
0.0
 10
11.070927869
 20
8.7575173069
 30
0.0
 10
11.0929850142
 20
8.6982574486
 30
0.0
 10
11.1107691541
 20
8.6378349642
 30
0.0
 10
11.1241849154
 20
8.576574155
 30
0.0
 10
11.1316739366
 20
8.5250261676
 30
0.0
 10
11.1354119159
 20
8.4837024896
 30
0.0
 10
11.1370865871
 20
8.4527396461
 30
0.0
 10
11.1376330517
 20
8.4218146419
 30
0.0
 10
11.1370506859
 20
8.390968267
 30
0.0
 10
11.1353401901
 20
8.3602418445
 30
0.0
 10
11.1325038
 20
8.3296763753
 30
0.0
 10
11.1285453327
 20
8.299312685
 30
0.0
 10
11.1234700506
 20
8.2691913216
 30
0.0
 10
11.1172846543
 20
8.2393525287
 30
0.0
 10
11.1099974166
 20
8.2098361594
 30
0.0
 10
11.1016180752
 20
8.1806816346
 30
0.0
 10
11.0921577651
 20
8.1519279128
 30
0.0
 10
11.0816290851
 20
8.1236134186
 30
0.0
 10
11.0700461305
 20
8.0957759653
 30
0.0
 10
11.0574243488
 20
8.0684527494
 30
0.0
 10
11.0437805364
 20
8.0416803066
 30
0.0
 10
11.0291329484
 20
8.0154943951
 30
0.0
 10
11.0135011577
 20
7.989929996
 30
0.0
 10
10.9969060023
 20
7.9650212991
 30
0.0
 10
10.9793696356
 20
7.9408015902
 30
0.0
 10
10.9609155521
 20
7.9173032391
 30
0.0
 10
10.9415682761
 20
7.8945575437
 30
0.0
 10
10.9213540464
 20
7.8725953593
 30
0.0
 10
10.9073164296
 20
7.8584942692
 30
0.0
 10
10.900163759
 20
7.8515853124
 30
0.0
  0
SPLINE
  5
2C5
100
AcDbEntity
  8
0
100
AcDbSpline
 62
7
  6
CONTINUOUS
 70
0
 71
3
 72
48
 73
44
 74
0
 42
0.0000001
 43
0.0000001
 44
0.0000000001
 40
0.0
 40
0.0
 40
0.0
 40
0.0
 40
0.0311434631
 40
0.0624399956
 40
0.0938836138
 40
0.1254646847
 40
0.1571709829
 40
0.1889877595
 40
0.22089807
 40
0.2528831302
 40
0.2849226987
 40
0.3169954772
 40
0.3490795248
 40
0.3811526835
 40
0.413193006
 40
0.4451791789
 40
0.4770909382
 40
0.5089094729
 40
0.5406178044
 40
0.5722011384
 40
0.6036471904
 40
0.6349464615
 40
0.6660924706
 40
0.6970819377
 40
0.7279148953
 40
0.7432762698
 40
0.7586000727
 40
0.7738872515
 40
0.789138954
 40
0.8043565275
 40
0.819541513
 40
0.8346956329
 40
0.8498207866
 40
0.8649190411
 40
0.8799926163
 40
0.8950438755
 40
0.9100753135
 40
0.9250895394
 40
0.9400892632
 40
0.9550772817
 40
0.9700564603
 40
0.9850297153
 40
1.0
 40
1.0
 40
1.0
 40
1.0
 10
10.292259923
 20
7.4691250881
 30
0.0
 10
10.3095845645
 20
7.4679236201
 30
0.0
 10
10.3442439455
 20
7.4642466763
 30
0.0
 10
10.3958128029
 20
7.4549843921
 30
0.0
 10
10.4468293168
 20
7.4420107073
 30
0.0
 10
10.4970179386
 20
7.4253953513
 30
0.0
 10
10.5461120699
 20
7.405227431
 30
0.0
 10
10.5938498078
 20
7.3816148136
 30
0.0
 10
10.6399768255
 20
7.3546836379
 30
0.0
 10
10.6842473762
 20
7.324577776
 30
0.0
 10
10.7264255579
 20
7.29145782
 30
0.0
 10
10.7662866123
 20
7.2555004014
 30
0.0
 10
10.8036181741
 20
7.2168972833
 30
0.0
 10
10.8382212123
 20
7.1758541686
 30
0.0
 10
10.869911243
 20
7.1325897917
 30
0.0
 10
10.8985192987
 20
7.0873347217
 30
0.0
 10
10.9238926445
 20
7.0403300428
 30
0.0
 10
10.9458958189
 20
6.9918262382
 30
0.0
 10
10.9644112599
 20
6.9420817861
 30
0.0
 10
10.9793397951
 20
6.8913617825
 30
0.0
 10
10.9906014394
 20
6.8399365861
 30
0.0
 10
10.9981356813
 20
6.7880805388
 30
0.0
 10
11.0019016179
 20
6.7360697165
 30
0.0
 10
11.0018789464
 20
6.6841835551
 30
0.0
 10
10.9986974942
 20
6.6412190774
 30
0.0
 10
10.9942619144
 20
6.6071966622
 30
0.0
 10
10.9900015774
 20
6.5819116652
 30
0.0
 10
10.9848094511
 20
6.5568642054
 30
0.0
 10
10.978692362
 20
6.5320873097
 30
0.0
 10
10.9716585162
 20
6.5076141865
 30
0.0
 10
10.9637173172
 20
6.4834774873
 30
0.0
 10
10.9548792824
 20
6.4597094929
 30
0.0
 10
10.9451562417
 20
6.4363419464
 30
0.0
 10
10.9345612034
 20
6.4134060542
 30
0.0
 10
10.9231082399
 20
6.3909324961
 30
0.0
 10
10.9108126678
 20
6.3689512936
 30
0.0
 10
10.8976909436
 20
6.3474917958
 30
0.0
 10
10.8837605301
 20
6.32658272
 30
0.0
 10
10.8690400415
 20
6.3062519962
 30
0.0
 10
10.8535492101
 20
6.2865267869
 30
0.0
 10
10.8373085823
 20
6.2674333968
 30
0.0
 10
10.8203402143
 20
6.2489977038
 30
0.0
 10
10.8085566862
 20
6.2371608129
 30
0.0
 10
10.8025525389
 20
6.231361236
 30
0.0
  0
SPLINE
  5
2C6
100
AcDbEntity
  8
0
100
AcDbSpline
 62
7
  6
CONTINUOUS
 70
0
 71
3
 72
16
 73
12
 74
0
 42
0.0000001
 43
0.0000001
 44
0.0000000001
 40
0.0
 40
0.0
 40
0.0
 40
0.0
 40
0.1504802345
 40
0.2917477373
 40
0.4244952497
 40
0.4879700346
 40
0.5496761098
 40
0.6683415877
 40
0.7818816099
 40
0.8918561996
 40
1.0
 40
1.0
 40
1.0
 40
1.0
 10
12.3922815057
 20
9.6718510566
 30
0.0
 10
12.3930320774
 20
9.6725760532
 30
0.0
 10
12.3945322683
 20
9.6739363848
 30
0.0
 10
12.396855135
 20
9.6757492591
 30
0.0
 10
12.3988172431
 20
9.6770314226
 30
0.0
 10
12.4003818393
 20
9.6778996461
 30
0.0
 10
12.4019003393
 20
9.6786450479
 30
0.0
 10
12.4037991532
 20
9.6793981725
 30
0.0
 10
12.4060980574
 20
9.6800098128
 30
0.0
 10
12.4083839887
 20
9.6803151847
 30
0.0
 10
12.4099020304
 20
9.680313442
 30
0.0
 10
12.4106501819
 20
9.6802615495
 30
0.0
  0
SPLINE
  5
2C7
100
AcDbEntity
  8
0
100
AcDbSpline
 62
7
  6
CONTINUOUS
 70
0
 71
3
 72
16
 73
12
 74
0
 42
0.0000001
 43
0.0000001
 44
0.0000000001
 40
0.0
 40
0.0
 40
0.0
 40
0.0
 40
0.1504802345
 40
0.2917477373
 40
0.4244952497
 40
0.4879700346
 40
0.5496761098
 40
0.6683415877
 40
0.7818816099
 40
0.8918561996
 40
1.0
 40
1.0
 40
1.0
 40
1.0
 10
12.3922815057
 20
7.4985178187
 30
0.0
 10
12.3930320774
 20
7.4992428153
 30
0.0
 10
12.3945322683
 20
7.5006031469
 30
0.0
 10
12.396855135
 20
7.5024160212
 30
0.0
 10
12.3988172431
 20
7.5036981847
 30
0.0
 10
12.4003818393
 20
7.5045664081
 30
0.0
 10
12.4019003393
 20
7.50531181
 30
0.0
 10
12.4037991532
 20
7.5060649346
 30
0.0
 10
12.4060980574
 20
7.5066765749
 30
0.0
 10
12.4083839887
 20
7.5069819468
 30
0.0
 10
12.4099020304
 20
7.5069802041
 30
0.0
 10
12.4106501819
 20
7.5069283116
 30
0.0
  0
SPLINE
  5
2C8
100
AcDbEntity
  8
0
100
AcDbSpline
 62
7
  6
CONTINUOUS
 70
0
 71
3
 72
23
 73
19
 74
0
 42
0.0000001
 43
0.0000001
 44
0.0000000001
 40
0.0
 40
0.0
 40
0.0
 40
0.0
 40
0.096992934
 40
0.1906873235
 40
0.2803333135
 40
0.3653395983
 40
0.4452780253
 40
0.5198895165
 40
0.5890670409
 40
0.6528353512
 40
0.7113273541
 40
0.7647662522
 40
0.8134472215
 40
0.8577267269
 40
0.8980205329
 40
0.9348008924
 40
0.9685977126
 40
1.0
 40
1.0
 40
1.0
 40
1.0
 10
10.4717796804
 20
7.898981253
 30
0.0
 10
10.4702684372
 20
7.8990860581
 30
0.0
 10
10.467300514
 20
7.8993420156
 30
0.0
 10
10.4629536709
 20
7.899874209
 30
0.0
 10
10.4588147864
 20
7.900540764
 30
0.0
 10
10.4549165409
 20
7.901330499
 30
0.0
 10
10.451283644
 20
7.9022304935
 30
0.0
 10
10.4479330519
 20
7.9032268777
 30
0.0
 10
10.4448745637
 20
7.904305716
 30
0.0
 10
10.4421119569
 20
7.9054535761
 30
0.0
 10
10.4396442056
 20
7.9066579733
 30
0.0
 10
10.4374667104
 20
7.907907598
 30
0.0
 10
10.435572448
 20
7.9091924951
 30
0.0
 10
10.433952867
 20
7.9105040301
 30
0.0
 10
10.4325986552
 20
7.9118347667
 30
0.0
 10
10.4315004621
 20
7.9131787071
 30
0.0
 10
10.4306493392
 20
7.914529969
 30
0.0
 10
10.4302282376
 20
7.9154617146
 30
0.0
 10
10.4300612213
 20
7.9159228542
 30
0.0
  0
SPLINE
  5
2C9
100
AcDbEntity
  8
0
100
AcDbSpline
 62
7
  6
CONTINUOUS
 70
0
 71
3
 72
23
 73
19
 74
0
 42
0.0000001
 43
0.0000001
 44
0.0000000001
 40
0.0
 40
0.0
 40
0.0
 40
0.0
 40
0.0627007957
 40
0.1253448539
 40
0.1879379005
 40
0.2504870388
 40
0.3130000695
 40
0.3754850611
 40
0.4379497203
 40
0.5004008362
 40
0.5628443768
 40
0.625285295
 40
0.6877271233
 40
0.7501722647
 40
0.8126221316
 40
0.8750770569
 40
0.9375366607
 40
1.0
 40
1.0
 40
1.0
 40
1.0
 10
10.9569327223
 20
8.9259783887
 30
0.0
 10
10.9543576248
 20
8.9264068167
 30
0.0
 10
10.9492463566
 20
8.9275040674
 30
0.0
 10
10.9417751644
 20
8.9298670682
 30
0.0
 10
10.9345694508
 20
8.9329321886
 30
0.0
 10
10.9276970364
 20
8.9366737995
 30
0.0
 10
10.9212199629
 20
8.9410562744
 30
0.0
 10
10.9151940071
 20
8.9460349925
 30
0.0
 10
10.909666832
 20
8.9515580737
 30
0.0
 10
10.9046771664
 20
8.9575683491
 30
0.0
 10
10.9002544274
 20
8.9640054342
 30
0.0
 10
10.896418909
 20
8.97080769
 30
0.0
 10
10.8931823868
 20
8.9779139333
 30
0.0
 10
10.8905490134
 20
8.9852648419
 30
0.0
 10
10.8885163681
 20
8.9928039366
 30
0.0
 10
10.8870765642
 20
9.0004785012
 30
0.0
 10
10.8862173208
 20
9.0082391796
 30
0.0
 10
10.8860210904
 20
9.0134417221
 30
0.0
 10
10.886014077
 20
9.0160423201
 30
0.0
  0
SPLINE
  5
2CA
100
AcDbEntity
  8
0
100
AcDbSpline
 62
7
  6
CONTINUOUS
 70
0
 71
3
 72
37
 73
33
 74
0
 42
0.0000001
 43
0.0000001
 44
0.0000000001
 40
0.0
 40
0.0
 40
0.0
 40
0.0
 40
0.030674277
 40
0.0614517238
 40
0.0923289078
 40
0.1233035974
 40
0.1543714181
 40
0.1855276174
 40
0.216766492
 40
0.2480816219
 40
0.2794658985
 40
0.3109115959
 40
0.342410445
 40
0.3739537072
 40
0.4055322536
 40
0.4371366455
 40
0.5003675821
 40
0.5635846102
 40
0.5951717437
 40
0.6267263392
 40
0.6582391677
 40
0.6897013672
 40
0.7211045225
 40
0.7524407411
 40
0.783702726
 40
0.8148838452
 40
0.8459781966
 40
0.8769806687
 40
0.9078869939
 40
0.9386937953
 40
0.9693986258
 40
1.0
 40
1.0
 40
1.0
 40
1.0
 10
10.3005421258
 20
7.3230599037
 30
0.0
 10
10.3096443248
 20
7.3224286641
 30
0.0
 10
10.3278514554
 20
7.3207175334
 30
0.0
 10
10.3550474426
 20
7.3168231864
 30
0.0
 10
10.3821124879
 20
7.3116058606
 30
0.0
 10
10.4089803817
 20
7.3050784822
 30
0.0
 10
10.4355868255
 20
7.2972566305
 30
0.0
 10
10.4618676427
 20
7.2881592757
 30
0.0
 10
10.4877596034
 20
7.2778083185
 30
0.0
 10
10.5132003756
 20
7.2662287334
 30
0.0
 10
10.5381287345
 20
7.2534484368
 30
0.0
 10
10.5624846747
 20
7.239498238
 30
0.0
 10
10.5862096142
 20
7.2244117088
 30
0.0
 10
10.6092463209
 20
7.2082253177
 30
0.0
 10
10.6315398397
 20
7.1909775369
 30
0.0
 10
10.6602016963
 20
7.1666214031
 30
0.0
 10
10.6939011764
 20
7.1337408791
 30
0.0
 10
10.7244488214
 20
7.0979198108
 30
0.0
 10
10.7468199026
 20
7.0677034752
 30
0.0
 10
10.7625218031
 20
7.0443210544
 30
0.0
 10
10.7771107836
 20
7.0202725954
 30
0.0
 10
10.7905521788
 20
6.9956154573
 30
0.0
 10
10.8028134856
 20
6.9704091252
 30
0.0
 10
10.8138651912
 20
6.9447142279
 30
0.0
 10
10.8236806435
 20
6.9185926189
 30
0.0
 10
10.8322361661
 20
6.8921071668
 30
0.0
 10
10.839511114
 20
6.8653216322
 30
0.0
 10
10.8454879338
 20
6.8383004831
 30
0.0
 10
10.8501521866
 20
6.8111088372
 30
0.0
 10
10.853492586
 20
6.7838119306
 30
0.0
 10
10.8555010263
 20
6.7564763642
 30
0.0
 10
10.8559495011
 20
6.7382377383
 30
0.0
 10
10.8559495089
 20
6.7291353621
 30
0.0
  0
SPLINE
  5
2CB
100
AcDbEntity
  8
0
100
AcDbSpline
 62
7
  6
CONTINUOUS
 70
0
 71
3
 72
39
 73
35
 74
0
 42
0.0000001
 43
0.0000001
 44
0.0000000001
 40
0.0
 40
0.0
 40
0.0
 40
0.0
 40
0.0311450477
 40
0.0624431084
 40
0.0938883437
 40
0.1254709899
 40
0.1571788839
 40
0.188997261
 40
0.2209091757
 40
0.2528958438
 40
0.2849370232
 40
0.3170114138
 40
0.3490970739
 40
0.3811718445
 40
0.4132137768
 40
0.4452015564
 40
0.4771149185
 40
0.5089350505
 40
0.5406449729
 40
0.5722298927
 40
0.6036775229
 40
0.6349783631
 40
0.6661259342
 40
0.6971169551
 40
0.7279514589
 40
0.7586328422
 40
0.7891678431
 40
0.8195664426
 40
0.8498416842
 40
0.8800094168
 40
0.9100879633
 40
0.94009772
 40
0.9700606953
 40
1.0
 40
1.0
 40
1.0
 40
1.0
 10
10.3486883843
 20
7.2874619208
 30
0.0
 10
10.360246027
 20
7.2866603956
 30
0.0
 10
10.3833680268
 20
7.2842074381
 30
0.0
 10
10.4177707036
 20
7.2780283405
 30
0.0
 10
10.4518048927
 20
7.2693733191
 30
0.0
 10
10.4852867999
 20
7.2582888717
 30
0.0
 10
10.5180385297
 20
7.2448344161
 30
0.0
 10
10.5498853709
 20
7.2290819039
 30
0.0
 10
10.5806576799
 20
7.2111155405
 30
0.0
 10
10.6101914878
 20
7.1910312584
 30
0.0
 10
10.6383294388
 20
7.1689362236
 30
0.0
 10
10.6649215888
 20
7.1449482611
 30
0.0
 10
10.6898262248
 20
7.1191952632
 30
0.0
 10
10.7129106194
 20
7.0918145112
 30
0.0
 10
10.7340517002
 20
7.0629519209
 30
0.0
 10
10.7531367061
 20
7.0327612832
 30
0.0
 10
10.7700637717
 20
7.0014034506
 30
0.0
 10
10.7847425149
 20
6.9690455171
 30
0.0
 10
10.7970944962
 20
6.9358599195
 30
0.0
 10
10.8070536142
 20
6.9020235221
 30
0.0
 10
10.8145664654
 20
6.8677166935
 30
0.0
 10
10.8195926284
 20
6.8331223597
 30
0.0
 10
10.8221049489
 20
6.7984250504
 30
0.0
 10
10.8220896436
 20
6.7638099119
 30
0.0
 10
10.8195463854
 20
6.729461735
 30
0.0
 10
10.8144883213
 20
6.6955639793
 30
0.0
 10
10.8069420369
 20
6.6622978009
 30
0.0
 10
10.7969474783
 20
6.6298410642
 30
0.0
 10
10.7845577171
 20
6.5983674099
 30
0.0
 10
10.7698386376
 20
6.5680452585
 30
0.0
 10
10.7528688218
 20
6.5390371144
 30
0.0
 10
10.7337383324
 20
6.511497854
 30
0.0
 10
10.7125513801
 20
6.4855768471
 30
0.0
 10
10.6971244602
 20
6.4694608325
 30
0.0
 10
10.6891142162
 20
6.4617235038
 30
0.0
  0
SPLINE
  5
2CC
100
AcDbEntity
  8
0
100
AcDbSpline
 62
7
  6
CONTINUOUS
 70
0
 71
3
 72
23
 73
19
 74
0
 42
0.0000001
 43
0.0000001
 44
0.0000000001
 40
0.0
 40
0.0
 40
0.0
 40
0.0
 40
0.0638616659
 40
0.1275031319
 40
0.1909230611
 40
0.254127678
 40
0.3171223919
 40
0.3799159314
 40
0.4425188212
 40
0.5049436698
 40
0.5672049956
 40
0.6293190753
 40
0.6913037911
 40
0.7531784391
 40
0.8149635278
 40
0.876680559
 40
0.9383517927
 40
1.0
 40
1.0
 40
1.0
 40
1.0
 10
10.3486883843
 20
7.2874619208
 30
0.0
 10
10.3407877133
 20
7.2880098342
 30
0.0
 10
10.3249834412
 20
7.2887107053
 30
0.0
 10
10.3012974415
 20
7.2885695545
 30
0.0
 10
10.2777295805
 20
7.2872343854
 30
0.0
 10
10.2543401669
 20
7.2847086737
 30
0.0
 10
10.2311876937
 20
7.2809985664
 30
0.0
 10
10.2083305856
 20
7.2761134066
 30
0.0
 10
10.1858263695
 20
7.2700653927
 30
0.0
 10
10.1637317328
 20
7.2628697165
 30
0.0
 10
10.1421023293
 20
7.2545444504
 30
0.0
 10
10.120992651
 20
7.2451105124
 30
0.0
 10
10.1004558933
 20
7.2345916213
 30
0.0
 10
10.0805438022
 20
7.2230142169
 30
0.0
 10
10.0613066127
 20
7.2104074713
 30
0.0
 10
10.0427926304
 20
7.1968029769
 30
0.0
 10
10.0250491491
 20
7.1822355943
 30
0.0
 10
10.0137613527
 20
7.1719044239
 30
0.0
 10
10.0082625524
 20
7.166592972
 30
0.0
  0
SPLINE
  5
2CD
100
AcDbEntity
  8
0
100
AcDbSpline
 62
7
  6
CONTINUOUS
 70
0
 71
3
 72
49
 73
45
 74
0
 42
0.0000001
 43
0.0000001
 44
0.0000000001
 40
0.0
 40
0.0
 40
0.0
 40
0.0
 40
0.0311359551
 40
0.0624378868
 40
0.0938990371
 40
0.1255088378
 40
0.1572539183
 40
0.1891182446
 40
0.2210834607
 40
0.2531292786
 40
0.2852338794
 40
0.3173743366
 40
0.3495270504
 40
0.3816681928
 40
0.4137741521
 40
0.4458219748
 40
0.4777898056
 40
0.5096573051
 40
0.5414060588
 40
0.5730199552
 40
0.6044855356
 40
0.6357923029
 40
0.6669329931
 40
0.697903773
 40
0.713327847
 40
0.7287096567
 40
0.744049746
 40
0.7593488882
 40
0.7746080809
 40
0.7898285476
 40
0.805011732
 40
0.8201592878
 40
0.8352730763
 40
0.8503551563
 40
0.8654077689
 40
0.8804333299
 40
0.8954344219
 40
0.910413765
 40
0.9253742043
 40
0.9403187562
 40
0.9552504184
 40
0.9701722424
 40
0.9850881084
 40
1.0
 40
1.0
 40
1.0
 40
1.0
 10
10.3418377235
 20
9.2852646435
 30
0.0
 10
10.3602699592
 20
9.2839863636
 30
0.0
 10
10.3971527704
 20
9.280072984
 30
0.0
 10
10.4520406025
 20
9.2702137249
 30
0.0
 10
10.5063614452
 20
9.2563995374
 30
0.0
 10
10.5598198604
 20
9.238702896
 30
0.0
 10
10.6121295893
 20
9.2172173224
 30
0.0
 10
10.6630090758
 20
9.1920567716
 30
0.0
 10
10.7121847701
 20
9.163355316
 30
0.0
 10
10.7593921586
 20
9.1312662859
 30
0.0
 10
10.804377273
 20
9.0959613374
 30
0.0
 10
10.8468982786
 20
9.0576297997
 30
0.0
 10
10.8867265994
 20
9.0164773316
 30
0.0
 10
10.9236482819
 20
8.9727249524
 30
0.0
 10
10.9574652693
 20
8.9266078695
 30
0.0
 10
10.9879962289
 20
8.8783739795
 30
0.0
 10
11.015077844
 20
8.8282827264
 30
0.0
 10
11.038565542
 20
8.7766035147
 30
0.0
 10
11.0583341938
 20
8.7236142224
 30
0.0
 10
11.0742790853
 20
8.6695996986
 30
0.0
 10
11.0863161257
 20
8.6148502631
 30
0.0
 10
11.0943824056
 20
8.5596592939
 30
0.0
 10
11.0984368283
 20
8.5043247969
 30
0.0
 10
11.0984552956
 20
8.4582692901
 30
0.0
 10
11.0964475483
 20
8.4216583328
 30
0.0
 10
11.0939389869
 20
8.3943832423
 30
0.0
 10
11.0904294006
 20
8.3672938889
 30
0.0
 10
11.0859238294
 20
8.3404259133
 30
0.0
 10
11.0804285397
 20
8.3138152301
 30
0.0
 10
11.0739512331
 20
8.2874971914
 30
0.0
 10
11.0665008685
 20
8.2615067632
 30
0.0
 10
11.0580875966
 20
8.2358784524
 30
0.0
 10
11.0487229202
 20
8.2106462252
 30
0.0
 10
11.0384195878
 20
8.1858434771
 30
0.0
 10
11.0271914723
 20
8.1615030423
 30
0.0
 10
11.0150537024
 20
8.1376570908
 30
0.0
 10
11.0020226205
 20
8.1143370895
 30
0.0
 10
10.9881156325
 20
8.0915738397
 30
0.0
 10
10.9733512885
 20
8.0693973604
 30
0.0
 10
10.9577492833
 20
8.0478368838
 30
0.0
 10
10.9413304247
 20
8.0269209126
 30
0.0
 10
10.9241162025
 20
8.0066766773
 30
0.0
 10
10.9061299586
 20
7.9871316508
 30
0.0
 10
10.8936389084
 20
7.9745833023
 30
0.0
 10
10.88727428
 20
7.968435543
 30
0.0
  0
SPLINE
  5
2CE
100
AcDbEntity
  8
0
100
AcDbSpline
 62
7
  6
CONTINUOUS
 70
0
 71
3
 72
27
 73
23
 74
0
 42
0.0000001
 43
0.0000001
 44
0.0000000001
 40
0.0
 40
0.0
 40
0.0
 40
0.0
 40
0.0616468919
 40
0.092480324
 40
0.1233223738
 40
0.1850380873
 40
0.2468218549
 40
0.2777487728
 40
0.3087006876
 40
0.3706840776
 40
0.4327968309
 40
0.4950568274
 40
0.5574803452
 40
0.6200818953
 40
0.6828740866
 40
0.7143476821
 40
0.745872711
 40
0.809075826
 40
0.8724948563
 40
0.9042889874
 40
0.9361391032
 40
1.0
 40
1.0
 40
1.0
 40
1.0
 10
9.684356087
 20
9.110279715
 30
0.0
 10
9.6941753966
 20
9.11976445
 30
0.0
 10
9.7092927893
 20
9.1336006543
 30
0.0
 10
9.7301676288
 20
9.1512140074
 30
0.0
 10
9.7515204315
 20
9.1682702987
 30
0.0
 10
9.7790775807
 20
9.1885200809
 30
0.0
 10
9.8076959072
 20
9.2072744507
 30
0.0
 10
9.8311869679
 20
9.2213566838
 30
0.0
 10
9.855083869
 20
9.2348288127
 30
0.0
 10
9.8856602604
 20
9.2504901333
 30
0.0
 10
9.9233557566
 20
9.2673362685
 30
0.0
 10
9.9619798077
 20
9.2822029088
 30
0.0
 10
10.0014346463
 20
9.2950523517
 30
0.0
 10
10.0416203757
 20
9.3058523233
 30
0.0
 10
10.0756088668
 20
9.3131165201
 30
0.0
 10
10.1030583015
 20
9.317880417
 30
0.0
 10
10.1307113727
 20
9.3219494981
 30
0.0
 10
10.165547746
 20
9.3257114557
 30
0.0
 10
10.2005897402
 20
9.3276965078
 30
0.0
 10
10.2287264881
 20
9.3282212832
 30
0.0
 10
10.2569647921
 20
9.3280356416
 30
0.0
 10
10.2781514339
 20
9.3270960888
 30
0.0
 10
10.292259923
 20
9.3261176618
 30
0.0
  0
SPLINE
  5
2CF
100
AcDbEntity
  8
0
100
AcDbSpline
 62
7
  6
CONTINUOUS
 70
0
 71
3
 72
25
 73
21
 74
0
 42
0.0000001
 43
0.0000001
 44
0.0000000001
 40
0.0
 40
0.0
 40
0.0
 40
0.0
 40
0.0615661117
 40
0.0923604784
 40
0.1231635022
 40
0.1848052961
 40
0.2465220485
 40
0.2774185909
 40
0.3083426082
 40
0.3702785182
 40
0.4323563521
 40
0.4945956229
 40
0.5570140352
 40
0.6196273191
 40
0.6824490938
 40
0.7454906946
 40
0.8087612356
 40
0.8722671143
 40
0.9360130284
 40
1.0
 40
1.0
 40
1.0
 40
1.0
 10
9.800690579
 20
9.0933497
 30
0.0
 10
9.8094189718
 20
9.1017806806
 30
0.0
 10
9.8228572247
 20
9.1140796644
 30
0.0
 10
9.8414138465
 20
9.1297358702
 30
0.0
 10
9.8603965799
 20
9.1448974994
 30
0.0
 10
9.8848969545
 20
9.1628984362
 30
0.0
 10
9.9103424743
 20
9.1795702068
 30
0.0
 10
9.9312312602
 20
9.1920893741
 30
0.0
 10
9.9524843467
 20
9.204067733
 30
0.0
 10
9.9796818767
 20
9.217993829
 30
0.0
 10
10.0132170164
 20
9.2329747949
 30
0.0
 10
10.0475859136
 20
9.2461974379
 30
0.0
 10
10.0827024413
 20
9.2576277976
 30
0.0
 10
10.118479219
 20
9.2672367303
 30
0.0
 10
10.1548268925
 20
9.2749994398
 30
0.0
 10
10.191654645
 20
9.2808957446
 30
0.0
 10
10.2288701601
 20
9.2849100346
 30
0.0
 10
10.2663805281
 20
9.2870314698
 30
0.0
 10
10.3040902656
 20
9.2872539013
 30
0.0
 10
10.3292554354
 20
9.2861372282
 30
0.0
 10
10.3418377235
 20
9.2852646435
 30
0.0
  0
SPLINE
  5
2D0
100
AcDbEntity
  8
0
100
AcDbSpline
 62
7
  6
CONTINUOUS
 70
0
 71
3
 72
33
 73
29
 74
0
 42
0.0000001
 43
0.0000001
 44
0.0000000001
 40
0.0
 40
0.0
 40
0.0
 40
0.0
 40
0.0124169039
 40
0.024598287
 40
0.0369143245
 40
0.0496970516
 40
0.063225452
 40
0.0777226569
 40
0.0933627729
 40
0.1102804395
 40
0.1285809748
 40
0.1483485541
 40
0.1696523601
 40
0.1925514248
 40
0.217097365
 40
0.2433369597
 40
0.2713125771
 40
0.3010635184
 40
0.3326246781
 40
0.3660272252
 40
0.4012949863
 40
0.438443726
 40
0.5183730651
 40
0.6056057291
 40
0.6994223718
 40
0.7983078253
 40
0.8996948549
 40
1.0
 40
1.0
 40
1.0
 40
1.0
 10
10.5582349789
 20
7.9290450649
 30
0.0
 10
10.5583738647
 20
7.9286623324
 30
0.0
 10
10.5585851865
 20
7.9278787949
 30
0.0
 10
10.558686575
 20
7.9266663761
 30
0.0
 10
10.5585725413
 20
7.9254432486
 30
0.0
 10
10.5582501198
 20
7.9242131916
 30
0.0
 10
10.5577253074
 20
7.9229778501
 30
0.0
 10
10.5570028785
 20
7.921737931
 30
0.0
 10
10.5560857046
 20
7.9204940299
 30
0.0
 10
10.5549756055
 20
7.9192468623
 30
0.0
 10
10.5536732861
 20
7.9179976474
 30
0.0
 10
10.5521788549
 20
7.9167479064
 30
0.0
 10
10.5504917603
 20
7.9154996285
 30
0.0
 10
10.5486110396
 20
7.9142551073
 30
0.0
 10
10.5465352616
 20
7.9130170972
 30
0.0
 10
10.5442627303
 20
7.9117886845
 30
0.0
 10
10.5417914245
 20
7.9105735378
 30
0.0
 10
10.5391192831
 20
7.9093756983
 30
0.0
 10
10.5362441256
 20
7.9082000004
 30
0.0
 10
10.5331640867
 20
7.9070517399
 30
0.0
 10
10.5298775937
 20
7.9059371868
 30
0.0
 10
10.5251020278
 20
7.9044694304
 30
0.0
 10
10.5186162628
 20
7.9027763748
 30
0.0
 10
10.5102275818
 20
7.9010645066
 30
0.0
 10
10.5011428295
 20
7.8997194811
 30
0.0
 10
10.4915338899
 20
7.8988443459
 30
0.0
 10
10.4816768615
 20
7.8985354979
 30
0.0
 10
10.4750608263
 20
7.8987537048
 30
0.0
 10
10.4717796804
 20
7.898981253
 30
0.0
  0
SPLINE
  5
2D1
100
AcDbEntity
  8
0
100
AcDbSpline
 62
7
  6
CONTINUOUS
 70
0
 71
3
 72
25
 73
21
 74
0
 42
0.0000001
 43
0.0000001
 44
0.0000000001
 40
0.0
 40
0.0
 40
0.0
 40
0.0
 40
0.0616475282
 40
0.0924812782
 40
0.1233236452
 40
0.1850399949
 40
0.2468243989
 40
0.277751634
 40
0.3087038677
 40
0.3706878948
 40
0.4328012861
 40
0.4950619216
 40
0.5574860801
 40
0.6200882709
 40
0.6828811113
 40
0.7458751472
 40
0.8090789555
 40
0.8724985283
 40
0.936138578
 40
1.0
 40
1.0
 40
1.0
 40
1.0
 10
9.7819673071
 20
7.2879438172
 30
0.0
 10
9.7902099255
 20
7.2959055971
 30
0.0
 10
9.8028998774
 20
7.3075201739
 30
0.0
 10
9.8204228672
 20
7.3223053309
 30
0.0
 10
9.8383469924
 20
7.3366229734
 30
0.0
 10
9.8614792941
 20
7.3536212549
 30
0.0
 10
9.885502348
 20
7.3693642887
 30
0.0
 10
9.9052214581
 20
7.3811853317
 30
0.0
 10
9.9252812091
 20
7.392494293
 30
0.0
 10
9.9509479519
 20
7.4056408877
 30
0.0
 10
9.9825906667
 20
7.4197820717
 30
0.0
 10
10.0150128762
 20
7.4322616058
 30
0.0
 10
10.0481323543
 20
7.4430478223
 30
0.0
 10
10.0818658171
 20
7.4521137272
 30
0.0
 10
10.116128252
 20
7.4594365482
 30
0.0
 10
10.1508334221
 20
7.4649979675
 30
0.0
 10
10.1858938253
 20
7.4687840373
 30
0.0
 10
10.2212215915
 20
7.470785382
 30
0.0
 10
10.2567265483
 20
7.4709970326
 30
0.0
 10
10.2804168561
 20
7.4699464075
 30
0.0
 10
10.292259923
 20
7.4691250881
 30
0.0
  0
SPLINE
  5
2D2
100
AcDbEntity
  8
0
100
AcDbSpline
 62
7
  6
CONTINUOUS
 70
0
 71
3
 72
63
 73
59
 74
0
 42
0.0000001
 43
0.0000001
 44
0.0000000001
 40
0.0
 40
0.0
 40
0.0
 40
0.0
 40
0.009104314
 40
0.0184760489
 40
0.0232844988
 40
0.0281843738
 40
0.0382824122
 40
0.0488147809
 40
0.059813772
 40
0.0713029884
 40
0.083297878
 40
0.095807385
 40
0.1088351325
 40
0.1223798544
 40
0.1364364315
 40
0.1509964224
 40
0.1660483254
 40
0.1815781584
 40
0.1975697439
 40
0.2140048425
 40
0.2308635035
 40
0.2481242518
 40
0.2657641584
 40
0.2837590633
 40
0.3020837226
 40
0.339615665
 40
0.3781405572
 40
0.4174272062
 40
0.457236311
 40
0.4973231231
 40
0.5374400567
 40
0.5773392173
 40
0.6167749433
 40
0.655506353
 40
0.6933000337
 40
0.7299328887
 40
0.7477482282
 40
0.7651959949
 40
0.7822526561
 40
0.7988959778
 40
0.8151052667
 40
0.8308614508
 40
0.8461472704
 40
0.8609476636
 40
0.8752499257
 40
0.8890440017
 40
0.902323118
 40
0.9150841432
 40
0.9273281173
 40
0.9390612177
 40
0.950295841
 40
0.9610517821
 40
0.9662584937
 40
0.9713558605
 40
0.9812451863
 40
0.9860536699
 40
0.9907806418
 40
1.0
 40
1.0
 40
1.0
 40
1.0
 10
12.4146342694
 20
8.8375225907
 30
0.0
 10
12.4166994457
 20
8.8350861155
 30
0.0
 10
12.4206839345
 20
8.8299640514
 30
0.0
 10
12.4252305922
 20
8.8231706454
 30
0.0
 10
12.4286922758
 20
8.81744069
 30
0.0
 10
12.4321126085
 20
8.811391399
 30
0.0
 10
12.4361991266
 20
8.8034167233
 30
0.0
 10
12.440788062
 20
8.7933101068
 30
0.0
 10
12.4451329005
 20
8.7825682896
 30
0.0
 10
12.4492503526
 20
8.771190652
 30
0.0
 10
12.4531507115
 20
8.7591787234
 30
0.0
 10
12.4568407645
 20
8.746537564
 30
0.0
 10
12.4603243374
 20
8.7332752495
 30
0.0
 10
12.4636030585
 20
8.7194027052
 30
0.0
 10
12.4666772413
 20
8.7049335652
 30
0.0
 10
12.4695461369
 20
8.6898838432
 30
0.0
 10
12.4722083179
 20
8.6742717317
 30
0.0
 10
12.4746619658
 20
8.6581174081
 30
0.0
 10
12.4769049896
 20
8.6414428203
 30
0.0
 10
12.47893522
 20
8.6242715381
 30
0.0
 10
12.4807504995
 20
8.6066286023
 30
0.0
 10
12.4823487369
 20
8.588540373
 30
0.0
 10
12.4837280093
 20
8.570034432
 30
0.0
 10
12.4848866327
 20
8.5511394234
 30
0.0
 10
12.4861451419
 20
8.5252609955
 30
0.0
 10
12.4871442392
 20
8.4921619346
 30
0.0
 10
12.4874385633
 20
8.451695179
 30
0.0
 10
12.4868363693
 20
8.4104329268
 30
0.0
 10
12.4853421599
 20
8.3686452027
 30
0.0
 10
12.4829660491
 20
8.3266066446
 30
0.0
 10
12.4797238113
 20
8.2845943277
 30
0.0
 10
12.4756367333
 20
8.2428852158
 30
0.0
 10
12.4707314886
 20
8.2017537675
 30
0.0
 10
12.4650397416
 20
8.161469378
 30
0.0
 10
12.4585976782
 20
8.12229423
 30
0.0
 10
12.4525832827
 20
8.0904941884
 30
0.0
 10
12.4474137557
 20
8.0658065965
 30
0.0
 10
12.4434105423
 20
8.0478931417
 30
0.0
 10
12.4392510925
 20
8.030437708
 30
0.0
 10
12.4349410729
 20
8.0134667061
 30
0.0
 10
12.4304861673
 20
7.9970052925
 30
0.0
 10
12.4258918804
 20
7.9810772372
 30
0.0
 10
12.4211634683
 20
7.9657047872
 30
0.0
 10
12.4163058065
 20
7.9509085167
 30
0.0
 10
12.4113231516
 20
7.9367072062
 30
0.0
 10
12.4062189727
 20
7.9231176392
 30
0.0
 10
12.4009956015
 20
7.9101544324
 30
0.0
 10
12.3956537265
 20
7.8978299009
 30
0.0
 10
12.390192078
 20
7.8861538422
 30
0.0
 10
12.3846065006
 20
7.875133295
 30
0.0
 10
12.3788887031
 20
7.8647728858
 30
0.0
 10
12.3739511057
 20
7.8566049251
 30
0.0
 10
12.3699169128
 20
7.8504145365
 30
0.0
 10
12.3659090589
 20
7.8445724904
 30
0.0
 10
12.3617656021
 20
7.8389944678
 30
0.0
 10
12.3574641249
 20
7.8337077486
 30
0.0
 10
12.3531548496
 20
7.8287349857
 30
0.0
 10
12.3497672405
 20
7.8251972109
 30
0.0
 10
12.3474409431
 20
7.82295018
 30
0.0
  0
SPLINE
  5
2D3
100
AcDbEntity
  8
0
100
AcDbSpline
 62
7
  6
CONTINUOUS
 70
0
 71
3
 72
23
 73
19
 74
0
 42
0.0000001
 43
0.0000001
 44
0.0000000001
 40
0.0
 40
0.0
 40
0.0
 40
0.0
 40
0.0748025352
 40
0.1450545743
 40
0.2111217791
 40
0.2734642999
 40
0.3326475934
 40
0.3893466201
 40
0.4443401393
 40
0.4984881083
 40
0.552694725
 40
0.6078610985
 40
0.6648387501
 40
0.7243935923
 40
0.7871858492
 40
0.8537686146
 40
0.9245920191
 40
1.0
 40
1.0
 40
1.0
 40
1.0
 10
12.2833825355
 20
7.8670631821
 30
0.0
 10
12.2845497169
 20
7.8655979894
 30
0.0
 10
12.2869043953
 20
7.8628274259
 30
0.0
 10
12.2906221398
 20
7.8590607558
 30
0.0
 10
12.2944079823
 20
7.8558226956
 30
0.0
 10
12.2982588438
 20
7.8531180281
 30
0.0
 10
12.3021715949
 20
7.8509513735
 30
0.0
 10
12.3061423758
 20
7.8493277911
 30
0.0
 10
12.3101658931
 20
7.8482519142
 30
0.0
 10
12.3142353169
 20
7.8477276384
 30
0.0
 10
12.318342557
 20
7.8477564557
 30
0.0
 10
12.3224794656
 20
7.8483376577
 30
0.0
 10
12.3266388977
 20
7.8494681867
 30
0.0
 10
12.3308151663
 20
7.8511439872
 30
0.0
 10
12.3350038805
 20
7.8533606474
 30
0.0
 10
12.3392014566
 20
7.8561140677
 30
0.0
 10
12.3434039983
 20
7.8593999609
 30
0.0
 10
12.3461186749
 20
7.8618628098
 30
0.0
 10
12.3474769309
 20
7.8631747844
 30
0.0
  0
SPLINE
  5
2D4
100
AcDbEntity
  8
0
100
AcDbSpline
 62
7
  6
CONTINUOUS
 70
0
 71
3
 72
61
 73
57
 74
0
 42
0.0000001
 43
0.0000001
 44
0.0000000001
 40
0.0
 40
0.0
 40
0.0
 40
0.0
 40
0.0027165054
 40
0.0054533955
 40
0.0082305472
 40
0.0110669316
 40
0.0169824274
 40
0.0233277131
 40
0.030199549
 40
0.0376706007
 40
0.0457931532
 40
0.0546032753
 40
0.0641243859
 40
0.074369812
 40
0.0853450535
 40
0.0970492998
 40
0.10947643
 40
0.1226160841
 40
0.136454196
 40
0.1509734409
 40
0.1661538067
 40
0.1819727413
 40
0.1984054552
 40
0.2154252451
 40
0.233003508
 40
0.2511100181
 40
0.2697130988
 40
0.288779623
 40
0.3281637084
 40
0.3689758341
 40
0.4109140611
 40
0.4536652952
 40
0.496908534
 40
0.5403180533
 40
0.58356653
 40
0.6263281872
 40
0.6682819354
 40
0.7091145197
 40
0.7485237777
 40
0.7862219893
 40
0.8043449156
 40
0.8219405913
 40
0.8389787009
 40
0.8554306652
 40
0.871269662
 40
0.8864708261
 40
0.9010116003
 40
0.9148718073
 40
0.9280340646
 40
0.940484227
 40
0.9522117242
 40
0.9632103966
 40
0.9734791407
 40
0.9830231747
 40
0.9918561893
 40
1.0
 40
1.0
 40
1.0
 40
1.0
 10
12.3739128296
 20
9.1505339195
 30
0.0
 10
12.3734173078
 20
9.1505682894
 30
0.0
 10
12.3724250826
 20
9.150682155
 30
0.0
 10
12.3709493961
 20
9.150986814
 30
0.0
 10
12.3694848051
 20
9.1514252969
 30
0.0
 10
12.3675212928
 20
9.1521983362
 30
0.0
 10
12.3650847145
 20
9.1535206994
 30
0.0
 10
12.3622686093
 20
9.1556124217
 30
0.0
 10
12.3595205616
 20
9.1582235178
 30
0.0
 10
12.3568438703
 20
9.1613473956
 30
0.0
 10
12.3542413317
 20
9.1649778226
 30
0.0
 10
12.3517166877
 20
9.1691080581
 30
0.0
 10
12.3492741
 20
9.1737305285
 30
0.0
 10
12.3469178926
 20
9.1788365638
 30
0.0
 10
12.344652521
 20
9.1844164529
 30
0.0
 10
12.342482429
 20
9.190459421
 30
0.0
 10
12.3404118774
 20
9.1969536438
 30
0.0
 10
12.3384450489
 20
9.2038863331
 30
0.0
 10
12.3365859267
 20
9.2112437514
 30
0.0
 10
12.3348382454
 20
9.2190112534
 30
0.0
 10
12.3332055894
 20
9.2271733441
 30
0.0
 10
12.3316912714
 20
9.2357137006
 30
0.0
 10
12.3302983519
 20
9.2446152184
 30
0.0
 10
12.3290297004
 20
9.2538600543
 30
0.0
 10
12.3278878766
 20
9.2634296591
 30
0.0
 10
12.326875204
 20
9.2733048162
 30
0.0
 10
12.3259937488
 20
9.2834657103
 30
0.0
 10
12.3249850039
 20
9.2975192311
 30
0.0
 10
12.324074406
 20
9.3156490288
 30
0.0
 10
12.323536721
 20
9.3379770906
 30
0.0
 10
12.3235475305
 20
9.3609272379
 30
0.0
 10
12.3241069395
 20
9.3843150736
 30
0.0
 10
12.3252106267
 20
9.4079528116
 30
0.0
 10
12.3268498057
 20
9.4316505747
 30
0.0
 10
12.3290113241
 20
9.4552180101
 30
0.0
 10
12.331677728
 20
9.478465833
 30
0.0
 10
12.3348274438
 20
9.5012073479
 30
0.0
 10
12.3384349243
 20
9.5232600671
 30
0.0
 10
12.3424709165
 20
9.5444469045
 30
0.0
 10
12.3462112827
 20
9.5614562077
 30
0.0
 10
12.3494042886
 20
9.5744957135
 30
0.0
 10
12.3518534799
 20
9.5838266653
 30
0.0
 10
12.3543836127
 20
9.5928190251
 30
0.0
 10
12.3569895796
 20
9.6014547741
 30
0.0
 10
12.3596661091
 20
9.609716601
 30
0.0
 10
12.3624078198
 20
9.6175879609
 30
0.0
 10
12.3652091372
 20
9.62505313
 30
0.0
 10
12.3680644274
 20
9.632097215
 30
0.0
 10
12.3709679522
 20
9.638706201
 30
0.0
 10
12.3739138435
 20
9.6448670145
 30
0.0
 10
12.3768962529
 20
9.6505675152
 30
0.0
 10
12.3799092962
 20
9.6557965605
 30
0.0
 10
12.3829470202
 20
9.6605440326
 30
0.0
 10
12.3860038796
 20
9.6648010501
 30
0.0
 10
12.3890739424
 20
9.668559099
 30
0.0
 10
12.3912104683
 20
9.6708165138
 30
0.0
 10
12.3922815057
 20
9.6718510566
 30
0.0
  0
SPLINE
  5
2D5
100
AcDbEntity
  8
0
100
AcDbSpline
 62
7
  6
CONTINUOUS
 70
0
 71
3
 72
61
 73
57
 74
0
 42
0.0000001
 43
0.0000001
 44
0.0000000001
 40
0.0
 40
0.0
 40
0.0
 40
0.0
 40
0.0027165054
 40
0.0054533955
 40
0.0082305472
 40
0.0110669316
 40
0.0169824274
 40
0.0233277131
 40
0.030199549
 40
0.0376706007
 40
0.0457931532
 40
0.0546032753
 40
0.0641243859
 40
0.074369812
 40
0.0853450535
 40
0.0970492998
 40
0.10947643
 40
0.1226160841
 40
0.136454196
 40
0.1509734409
 40
0.1661538067
 40
0.1819727413
 40
0.1984054552
 40
0.2154252451
 40
0.233003508
 40
0.2511100181
 40
0.2697130988
 40
0.288779623
 40
0.3281637084
 40
0.3689758341
 40
0.4109140611
 40
0.4536652952
 40
0.496908534
 40
0.5403180533
 40
0.58356653
 40
0.6263281872
 40
0.6682819354
 40
0.7091145197
 40
0.7485237777
 40
0.7862219893
 40
0.8043449156
 40
0.8219405913
 40
0.8389787009
 40
0.8554306652
 40
0.871269662
 40
0.8864708261
 40
0.9010116003
 40
0.9148718073
 40
0.9280340646
 40
0.940484227
 40
0.9522117242
 40
0.9632103966
 40
0.9734791407
 40
0.9830231747
 40
0.9918561893
 40
1.0
 40
1.0
 40
1.0
 40
1.0
 10
12.3739128296
 20
6.9772006816
 30
0.0
 10
12.3734173078
 20
6.9772350515
 30
0.0
 10
12.3724250826
 20
6.977348917
 30
0.0
 10
12.3709493961
 20
6.977653576
 30
0.0
 10
12.3694848051
 20
6.978092059
 30
0.0
 10
12.3675212928
 20
6.9788650982
 30
0.0
 10
12.3650847145
 20
6.9801874615
 30
0.0
 10
12.3622686093
 20
6.9822791838
 30
0.0
 10
12.3595205616
 20
6.9848902798
 30
0.0
 10
12.3568438703
 20
6.9880141577
 30
0.0
 10
12.3542413317
 20
6.9916445847
 30
0.0
 10
12.3517166877
 20
6.9957748202
 30
0.0
 10
12.3492741
 20
7.0003972905
 30
0.0
 10
12.3469178926
 20
7.0055033258
 30
0.0
 10
12.344652521
 20
7.0110832149
 30
0.0
 10
12.342482429
 20
7.017126183
 30
0.0
 10
12.3404118774
 20
7.0236204058
 30
0.0
 10
12.3384450489
 20
7.0305530951
 30
0.0
 10
12.3365859267
 20
7.0379105135
 30
0.0
 10
12.3348382454
 20
7.0456780155
 30
0.0
 10
12.3332055894
 20
7.0538401061
 30
0.0
 10
12.3316912714
 20
7.0623804627
 30
0.0
 10
12.3302983519
 20
7.0712819805
 30
0.0
 10
12.3290297004
 20
7.0805268164
 30
0.0
 10
12.3278878766
 20
7.0900964212
 30
0.0
 10
12.326875204
 20
7.0999715783
 30
0.0
 10
12.3259937488
 20
7.1101324724
 30
0.0
 10
12.3249850039
 20
7.1241859932
 30
0.0
 10
12.324074406
 20
7.1423157909
 30
0.0
 10
12.323536721
 20
7.1646438527
 30
0.0
 10
12.3235475305
 20
7.187594
 30
0.0
 10
12.3241069395
 20
7.2109818357
 30
0.0
 10
12.3252106267
 20
7.2346195737
 30
0.0
 10
12.3268498057
 20
7.2583173367
 30
0.0
 10
12.3290113241
 20
7.2818847722
 30
0.0
 10
12.331677728
 20
7.3051325951
 30
0.0
 10
12.3348274438
 20
7.32787411
 30
0.0
 10
12.3384349243
 20
7.3499268291
 30
0.0
 10
12.3424709165
 20
7.3711136666
 30
0.0
 10
12.3462112827
 20
7.3881229698
 30
0.0
 10
12.3494042886
 20
7.4011624755
 30
0.0
 10
12.3518534799
 20
7.4104934274
 30
0.0
 10
12.3543836127
 20
7.4194857871
 30
0.0
 10
12.3569895796
 20
7.4281215362
 30
0.0
 10
12.3596661091
 20
7.4363833631
 30
0.0
 10
12.3624078198
 20
7.444254723
 30
0.0
 10
12.3652091372
 20
7.4517198921
 30
0.0
 10
12.3680644274
 20
7.4587639771
 30
0.0
 10
12.3709679522
 20
7.4653729631
 30
0.0
 10
12.3739138435
 20
7.4715337766
 30
0.0
 10
12.3768962529
 20
7.4772342773
 30
0.0
 10
12.3799092962
 20
7.4824633226
 30
0.0
 10
12.3829470202
 20
7.4872107947
 30
0.0
 10
12.3860038796
 20
7.4914678122
 30
0.0
 10
12.3890739424
 20
7.4952258611
 30
0.0
 10
12.3912104683
 20
7.4974832759
 30
0.0
 10
12.3922815057
 20
7.4985178187
 30
0.0
  0
SPLINE
  5
2D6
100
AcDbEntity
  8
0
100
AcDbSpline
 62
7
  6
CONTINUOUS
 70
0
 71
3
 72
73
 73
69
 74
0
 42
0.0000001
 43
0.0000001
 44
0.0000000001
 40
0.0
 40
0.0
 40
0.0
 40
0.0
 40
0.0027206509
 40
0.0054518977
 40
0.0082141308
 40
0.0110269966
 40
0.0139090094
 40
0.0168772729
 40
0.0231291149
 40
0.0264422935
 40
0.0298936703
 40
0.0334923435
 40
0.0372460254
 40
0.041161209
 40
0.0452433609
 40
0.0494969229
 40
0.0539255236
 40
0.0585320703
 40
0.0633187405
 40
0.073437673
 40
0.0842904407
 40
0.0958773948
 40
0.1081934122
 40
0.1212287752
 40
0.1349699256
 40
0.1494000112
 40
0.164499268
 40
0.1802453399
 40
0.196613601
 40
0.2135773793
 40
0.2311081088
 40
0.2491755178
 40
0.26774781
 40
0.286791788
 40
0.3062729497
 40
0.3261556422
 40
0.3669771226
 40
0.4089530579
 40
0.4517678453
 40
0.4950976364
 40
0.538613603
 40
0.5819851134
 40
0.6248829245
 40
0.6669824012
 40
0.7079666953
 40
0.7279450379
 40
0.7475310091
 40
0.766688687
 40
0.7853832914
 40
0.803581275
 40
0.8212504493
 40
0.8383601628
 40
0.8548814239
 40
0.8707870423
 40
0.8860518347
 40
0.900652883
 40
0.914569747
 40
0.9277847698
 40
0.940283514
 40
0.952055265
 40
0.963093671
 40
0.9733975564
 40
0.9782758342
 40
0.9829730602
 40
0.9874912695
 40
0.9918330253
 40
0.9960013756
 40
1.0
 40
1.0
 40
1.0
 40
1.0
 10
12.3396853111
 20
8.7765284403
 30
0.0
 10
12.3405182307
 20
8.7765072453
 30
0.0
 10
12.3421863836
 20
8.7763895495
 30
0.0
 10
12.344672722
 20
8.7759867704
 30
0.0
 10
12.3471410133
 20
8.7753581128
 30
0.0
 10
12.3495894142
 20
8.7745043098
 30
0.0
 10
12.3520167073
 20
8.7734260722
 30
0.0
 10
12.3552787425
 20
8.7716602866
 30
0.0
 10
12.3584411692
 20
8.7694599169
 30
0.0
 10
12.3614889317
 20
8.7668885264
 30
0.0
 10
12.3637928133
 20
8.7647030176
 30
0.0
 10
12.3660686193
 20
8.7622995289
 30
0.0
 10
12.3683156797
 20
8.7596791064
 30
0.0
 10
12.370532918
 20
8.7568431546
 30
0.0
 10
12.3727192747
 20
8.7537930287
 30
0.0
 10
12.3748737721
 20
8.7505302862
 30
0.0
 10
12.3769953662
 20
8.7470565355
 30
0.0
 10
12.3790830269
 20
8.7433734739
 30
0.0
 10
12.3818717755
 20
8.7380877547
 30
0.0
 10
12.385253884
 20
8.7309567424
 30
0.0
 10
12.3890890471
 20
8.7217494052
 30
0.0
 10
12.3927651982
 20
8.7117575798
 30
0.0
 10
12.3962749527
 20
8.701001195
 30
0.0
 10
12.3996112561
 20
8.6895014949
 30
0.0
 10
12.4027673219
 20
8.6772814473
 30
0.0
 10
12.4057366943
 20
8.6643655188
 30
0.0
 10
12.4085132896
 20
8.6507796674
 30
0.0
 10
12.4110914331
 20
8.6365512643
 30
0.0
 10
12.4134658367
 20
8.6217090135
 30
0.0
 10
12.4156316164
 20
8.6062828861
 30
0.0
 10
12.4175843344
 20
8.5903040668
 30
0.0
 10
12.4193199942
 20
8.573804882
 30
0.0
 10
12.4208350341
 20
8.5568187162
 30
0.0
 10
12.4221263234
 20
8.539379961
 30
0.0
 10
12.4231912561
 20
8.5215239015
 30
0.0
 10
12.4243161456
 20
8.4969925802
 30
0.0
 10
12.4251291107
 20
8.4655539028
 30
0.0
 10
12.425172582
 20
8.4270820633
 30
0.0
 10
12.4242911827
 20
8.3878519829
 30
0.0
 10
12.4224918762
 20
8.3481813263
 30
0.0
 10
12.4197890182
 20
8.308391112
 30
0.0
 10
12.4162045248
 20
8.2688034278
 30
0.0
 10
12.4117674979
 20
8.2297386058
 30
0.0
 10
12.4065141069
 20
8.1915129512
 30
0.0
 10
12.4014497983
 20
8.1603557185
 30
0.0
 10
12.397011198
 20
8.1360899854
 30
0.0
 10
12.3935348909
 20
8.1184451808
 30
0.0
 10
12.389890151
 20
8.1012360464
 30
0.0
 10
12.3860843662
 20
8.0844973966
 30
0.0
 10
12.3821252895
 20
8.068263123
 30
0.0
 10
12.3780209633
 20
8.0525660798
 30
0.0
 10
12.3737797548
 20
8.0374380112
 30
0.0
 10
12.3694103062
 20
8.0229094889
 30
0.0
 10
12.3649215111
 20
8.009009859
 30
0.0
 10
12.3603224986
 20
7.9957671665
 30
0.0
 10
12.3556226442
 20
7.9832080746
 30
0.0
 10
12.3508315096
 20
7.9713578223
 30
0.0
 10
12.3459588077
 20
7.9602401583
 30
0.0
 10
12.3410143991
 20
7.9498772985
 30
0.0
 10
12.3360082273
 20
7.9402897058
 30
0.0
 10
12.33095034
 20
7.9314965244
 30
0.0
 10
12.3266250536
 20
7.9247265344
 30
0.0
 10
12.3231392003
 20
7.9197344257
 30
0.0
 10
12.3205659767
 20
7.9162683869
 30
0.0
 10
12.3179874066
 20
7.9130134258
 30
0.0
 10
12.3154046412
 20
7.909971196
 30
0.0
 10
12.3128191655
 20
7.9071433576
 30
0.0
 10
12.3110585779
 20
7.905365665
 30
0.0
 10
12.3101778048
 20
7.9045149035
 30
0.0
  0
SPLINE
  5
2D7
100
AcDbEntity
  8
0
100
AcDbSpline
 62
7
  6
CONTINUOUS
 70
0
 71
3
 72
39
 73
35
 74
0
 42
0.0000001
 43
0.0000001
 44
0.0000000001
 40
0.0
 40
0.0
 40
0.0
 40
0.0
 40
0.0305290833
 40
0.0611650638
 40
0.0919072551
 40
0.1227539027
 40
0.1537022126
 40
0.1847483892
 40
0.215887681
 40
0.2471144358
 40
0.2784221623
 40
0.3098035994
 40
0.3412507897
 40
0.3727551589
 40
0.4043075989
 40
0.4358985551
 40
0.4675181165
 40
0.4991561076
 40
0.5308021836
 40
0.5624459257
 40
0.5940769366
 40
0.6256849363
 40
0.6572598568
 40
0.6887919354
 40
0.720271806
 40
0.7516905883
 40
0.7830399736
 40
0.8143123047
 40
0.8455006646
 40
0.8765989014
 40
0.9076018528
 40
0.9385049265
 40
0.9693053703
 40
1.0
 40
1.0
 40
1.0
 40
1.0
 10
10.4546765512
 20
9.2687844069
 30
0.0
 10
10.4542462024
 20
9.2589634714
 30
0.0
 10
10.4538842918
 20
9.2392617084
 30
0.0
 10
10.4548326437
 20
9.209670957
 30
0.0
 10
10.4572686664
 20
9.1800621375
 30
0.0
 10
10.4611861179
 20
9.1505115767
 30
0.0
 10
10.4665749558
 20
9.1210941686
 30
0.0
 10
10.4734214113
 20
9.0918848038
 30
0.0
 10
10.4817080134
 20
9.0629577451
 30
0.0
 10
10.4914136286
 20
9.0343865543
 30
0.0
 10
10.5025135195
 20
9.0062438751
 30
0.0
 10
10.5149794118
 20
8.9786012592
 30
0.0
 10
10.5287795658
 20
8.9515289833
 30
0.0
 10
10.5438788569
 20
8.9250958723
 30
0.0
 10
10.5602388652
 20
8.8993691258
 30
0.0
 10
10.5778179719
 20
8.8744141482
 30
0.0
 10
10.5965714656
 20
8.8502943842
 30
0.0
 10
10.6164516542
 20
8.827071157
 30
0.0
 10
10.6374079792
 20
8.804803508
 30
0.0
 10
10.659387153
 20
8.7835480529
 30
0.0
 10
10.682333292
 20
8.7633588382
 30
0.0
 10
10.7061880586
 20
8.7442872051
 30
0.0
 10
10.7308908081
 20
8.726381659
 30
0.0
 10
10.7563787419
 20
8.7096877476
 30
0.0
 10
10.7825870661
 20
8.6942479449
 30
0.0
 10
10.8094491555
 20
8.6801015447
 30
0.0
 10
10.8368967182
 20
8.6672845559
 30
0.0
 10
10.8648599724
 20
8.6558296042
 30
0.0
 10
10.893267813
 20
8.6457658785
 30
0.0
 10
10.9220480428
 20
8.6371189889
 30
0.0
 10
10.9511273605
 20
8.6299110653
 30
0.0
 10
10.9804321932
 20
8.6241603492
 30
0.0
 10
11.0098868905
 20
8.6198817941
 30
0.0
 10
11.0296098965
 20
8.6180146585
 30
0.0
 10
11.0394698802
 20
8.6173308663
 30
0.0
  0
SPLINE
  5
2D8
100
AcDbEntity
  8
0
100
AcDbSpline
 62
7
  6
CONTINUOUS
 70
0
 71
3
 72
25
 73
21
 74
0
 42
0.0000001
 43
0.0000001
 44
0.0000000001
 40
0.0
 40
0.0
 40
0.0
 40
0.0
 40
0.0616475261
 40
0.0924812754
 40
0.123323642
 40
0.1850399915
 40
0.2468243959
 40
0.2777516314
 40
0.3087038656
 40
0.370687894
 40
0.4328012868
 40
0.4950619237
 40
0.5574860836
 40
0.6200882754
 40
0.6828811165
 40
0.7458751526
 40
0.8090789605
 40
0.8724985324
 40
0.9361385804
 40
1.0
 40
1.0
 40
1.0
 40
1.0
 10
10.8872742758
 20
7.9684355474
 30
0.0
 10
10.8784986131
 20
7.9599589304
 30
0.0
 10
10.8649880138
 20
7.9475933142
 30
0.0
 10
10.846331834
 20
7.9318520983
 30
0.0
 10
10.8272485809
 20
7.9166086287
 30
0.0
 10
10.8026203518
 20
7.8985111823
 30
0.0
 10
10.7770437744
 20
7.8817501538
 30
0.0
 10
10.7560494723
 20
7.8691647255
 30
0.0
 10
10.7346925032
 20
7.8571244922
 30
0.0
 10
10.7073659552
 20
7.8431277996
 30
0.0
 10
10.6736769904
 20
7.8280722063
 30
0.0
 10
10.6391581285
 20
7.8147857114
 30
0.0
 10
10.6038969126
 20
7.8033020303
 30
0.0
 10
10.5679820117
 20
7.7936499022
 30
0.0
 10
10.5315039355
 20
7.7858535719
 30
0.0
 10
10.4945544969
 20
7.7799325413
 30
0.0
 10
10.4572268556
 20
7.7759016602
 30
0.0
 10
10.4196145639
 20
7.7737709104
 30
0.0
 10
10.3818136243
 20
7.7735455819
 30
0.0
 10
10.3565913465
 20
7.7746641492
 30
0.0
 10
10.3439824295
 20
7.7755385806
 30
0.0
  0
SPLINE
  5
2D9
100
AcDbEntity
  8
0
100
AcDbSpline
 62
7
  6
CONTINUOUS
 70
0
 71
3
 72
21
 73
17
 74
0
 42
0.0000001
 43
0.0000001
 44
0.0000000001
 40
0.0
 40
0.0
 40
0.0
 40
0.0
 40
0.0616089938
 40
0.1232984206
 40
0.185078685
 40
0.2469596613
 40
0.3089506243
 40
0.3710602089
 40
0.4332963682
 40
0.4956663158
 40
0.5581765114
 40
0.6208325952
 40
0.6836393644
 40
0.7466009899
 40
0.872977333
 40
1.0
 40
1.0
 40
1.0
 40
1.0
 10
10.9864915846
 20
8.0891993938
 30
0.0
 10
10.9787870009
 20
8.0845953447
 30
0.0
 10
10.963185649
 20
8.0756821693
 30
0.0
 10
10.9392640359
 20
8.063228104
 30
0.0
 10
10.9148396126
 20
8.0516974895
 30
0.0
 10
10.8899458367
 20
8.0411062462
 30
0.0
 10
10.8646162445
 20
8.0314686083
 30
0.0
 10
10.838885141
 20
8.0227975425
 30
0.0
 10
10.8127872855
 20
8.0151047931
 30
0.0
 10
10.7863579639
 20
8.0084007677
 30
0.0
 10
10.7596328939
 20
8.0026944368
 30
0.0
 10
10.732648302
 20
7.9979935268
 30
0.0
 10
10.7054402391
 20
7.9943044011
 30
0.0
 10
10.668873207
 20
7.9907370149
 30
0.0
 10
10.6227795576
 20
7.9888376211
 30
0.0
 10
10.5858450783
 20
7.990048003
 30
0.0
 10
10.5673843315
 20
7.9913282602
 30
0.0
  0
SPLINE
  5
2DA
100
AcDbEntity
  8
0
100
AcDbSpline
 62
7
  6
CONTINUOUS
 70
0
 71
3
 72
23
 73
19
 74
0
 42
0.0000001
 43
0.0000001
 44
0.0000000001
 40
0.0
 40
0.0
 40
0.0
 40
0.0
 40
0.0616137684
 40
0.1232693412
 40
0.1849862759
 40
0.2467835305
 40
0.3086792819
 40
0.3706907541
 40
0.432834057
 40
0.4951240393
 40
0.5575741537
 40
0.6201963421
 40
0.683000945
 40
0.7459965445
 40
0.8091902352
 40
0.8725864495
 40
0.9361899708
 40
1.0
 40
1.0
 40
1.0
 40
1.0
 10
11.0491256749
 20
8.2122658098
 30
0.0
 10
11.0411676648
 20
8.2053759415
 30
0.0
 10
11.0248961446
 20
8.1919900383
 30
0.0
 10
10.999501283
 20
8.1731574084
 30
0.0
 10
10.973166399
 20
8.15560538
 30
0.0
 10
10.9459505049
 20
8.1393734195
 30
0.0
 10
10.9179135628
 20
8.1244971751
 30
0.0
 10
10.8891176112
 20
8.1110095313
 30
0.0
 10
10.8596262878
 20
8.098940233
 30
0.0
 10
10.8295047789
 20
8.0883159037
 30
0.0
 10
10.7988196512
 20
8.0791599648
 30
0.0
 10
10.7676387064
 20
8.0714925907
 30
0.0
 10
10.7360308506
 20
8.0653306608
 30
0.0
 10
10.7040658691
 20
8.0606876794
 30
0.0
 10
10.6718145089
 20
8.0575739049
 30
0.0
 10
10.6393475696
 20
8.0559960126
 30
0.0
 10
10.6067378901
 20
8.055957569
 30
0.0
 10
10.584983901
 20
8.0569566487
 30
0.0
 10
10.574108642
 20
8.0577108505
 30
0.0
  0
SPLINE
  5
2DB
100
AcDbEntity
  8
0
100
AcDbSpline
 62
7
  6
CONTINUOUS
 70
0
 71
3
 72
23
 73
19
 74
0
 42
0.0000001
 43
0.0000001
 44
0.0000000001
 40
0.0
 40
0.0
 40
0.0
 40
0.0
 40
0.061591354
 40
0.1232457391
 40
0.1849783897
 40
0.2468039168
 40
0.3087361955
 40
0.3707882644
 40
0.4329722284
 40
0.495299166
 40
0.5577790442
 40
0.6204206782
 40
0.6832316057
 40
0.7462181605
 40
0.8093854533
 40
0.8727363008
 40
0.9362754395
 40
1.0
 40
1.0
 40
1.0
 40
1.0
 10
11.0531187986
 20
8.2224107091
 30
0.0
 10
11.0454573399
 20
8.2167518346
 30
0.0
 10
11.0298669295
 20
8.2057750852
 30
0.0
 10
11.0057466342
 20
8.190379058
 30
0.0
 10
10.9809228802
 20
8.17607122
 30
0.0
 10
10.9554411093
 20
8.1628778543
 30
0.0
 10
10.929347177
 20
8.1508226024
 30
0.0
 10
10.9026882425
 20
8.1399272196
 30
0.0
 10
10.8755124169
 20
8.1302113348
 30
0.0
 10
10.8478687495
 20
8.1216924841
 30
0.0
 10
10.819807142
 20
8.1143859868
 30
0.0
 10
10.7913782468
 20
8.1083049749
 30
0.0
 10
10.7626333683
 20
8.1034603731
 30
0.0
 10
10.7336243348
 20
8.0998609013
 30
0.0
 10
10.7044036343
 20
8.0975130748
 30
0.0
 10
10.6750235367
 20
8.0964209144
 30
0.0
 10
10.6455380558
 20
8.0965865594
 30
0.0
 10
10.6258732946
 20
8.0975338452
 30
0.0
 10
10.6160422719
 20
8.0982156289
 30
0.0
  0
SPLINE
  5
2DC
100
AcDbEntity
  8
0
100
AcDbSpline
 62
7
  6
CONTINUOUS
 70
0
 71
3
 72
23
 73
19
 74
0
 42
0.0000001
 43
0.0000001
 44
0.0000000001
 40
0.0
 40
0.0
 40
0.0
 40
0.0
 40
0.0616206878
 40
0.1232789174
 40
0.1849950151
 40
0.2467887225
 40
0.3086790006
 40
0.370683845
 40
0.4328201103
 40
0.4951033514
 40
0.5575476763
 40
0.620165622
 40
0.682968054
 40
0.7459640003
 40
0.8091609285
 40
0.8725635193
 40
0.9361768128
 40
1.0
 40
1.0
 40
1.0
 40
1.0
 10
11.0782348526
 20
8.3044346924
 30
0.0
 10
11.0707568861
 20
8.2977857662
 30
0.0
 10
11.0554529953
 20
8.2848644015
 30
0.0
 10
11.0315288036
 20
8.2666756386
 30
0.0
 10
11.0066836175
 20
8.2497153642
 30
0.0
 10
10.9809749485
 20
8.2340229768
 30
0.0
 10
10.9544613132
 20
8.2196340802
 30
0.0
 10
10.9272033201
 20
8.2065815336
 30
0.0
 10
10.899263201
 20
8.1948950745
 30
0.0
 10
10.8707047563
 20
8.1846013344
 30
0.0
 10
10.8415931857
 20
8.1757237555
 30
0.0
 10
10.811994941
 20
8.1682825459
 30
0.0
 10
10.7819775931
 20
8.1622946287
 30
0.0
 10
10.7516096069
 20
8.1577735596
 30
0.0
 10
10.7209604167
 20
8.1547296572
 30
0.0
 10
10.6900995261
 20
8.1531696616
 30
0.0
 10
10.6590984605
 20
8.1530972162
 30
0.0
 10
10.63841658
 20
8.1540391454
 30
0.0
 10
10.6280773475
 20
8.1547561736
 30
0.0
  0
SPLINE
  5
2DD
100
AcDbEntity
  8
0
100
AcDbSpline
 62
7
  6
CONTINUOUS
 70
0
 71
3
 72
11
 73
7
 74
0
 42
0.0000001
 43
0.0000001
 44
0.0000000001
 40
0.0
 40
0.0
 40
0.0
 40
0.0
 40
0.2484353059
 40
0.4978958134
 40
0.748411298
 40
1.0
 40
1.0
 40
1.0
 40
1.0
 10
11.0981519989
 20
8.4642584376
 30
0.0
 10
11.0851808847
 20
8.4618976247
 30
0.0
 10
11.059027608
 20
8.4579904988
 30
0.0
 10
11.0194302019
 20
8.4545990546
 30
0.0
 10
10.9795313711
 20
8.4536761607
 30
0.0
 10
10.9528853714
 20
8.4547072285
 30
0.0
 10
10.9395658112
 20
8.4556309431
 30
0.0
  0
SPLINE
  5
2DE
100
AcDbEntity
  8
0
100
AcDbSpline
 62
7
  6
CONTINUOUS
 70
0
 71
3
 72
11
 73
7
 74
0
 42
0.0000001
 43
0.0000001
 44
0.0000000001
 40
0.0
 40
0.0
 40
0.0
 40
0.0
 40
0.248496409
 40
0.4979795059
 40
0.7484758972
 40
1.0
 40
1.0
 40
1.0
 40
1.0
 10
11.0965719298
 20
8.5235549208
 30
0.0
 10
11.0849884919
 20
8.5215724557
 30
0.0
 10
11.0616489221
 20
8.5183041889
 30
0.0
 10
11.0263420125
 20
8.5155109875
 30
0.0
 10
10.9907883738
 20
8.5148259068
 30
0.0
 10
10.9670496434
 20
8.5157746186
 30
0.0
 10
10.9551831001
 20
8.5165975661
 30
0.0
  0
SPLINE
  5
2DF
100
AcDbEntity
  8
0
100
AcDbSpline
 62
7
  6
CONTINUOUS
 70
0
 71
3
 72
19
 73
15
 74
0
 42
0.0000001
 43
0.0000001
 44
0.0000000001
 40
0.0
 40
0.0
 40
0.0
 40
0.0
 40
0.0568793973
 40
0.113198851
 40
0.1692595363
 40
0.2253671128
 40
0.2818264094
 40
0.3389362234
 40
0.3969842131
 40
0.4562433191
 40
0.5793318044
 40
0.7100641236
 40
0.8499042514
 40
1.0
 40
1.0
 40
1.0
 40
1.0
 10
12.3031784793
 20
7.8068444675
 30
0.0
 10
12.3039949345
 20
7.8066065653
 30
0.0
 10
12.3056377159
 20
7.8061920185
 30
0.0
 10
12.3081332572
 20
7.8057584134
 30
0.0
 10
12.3106432608
 20
7.8055172529
 30
0.0
 10
12.3131664018
 20
7.8054686468
 30
0.0
 10
12.3157015808
 20
7.8056126282
 30
0.0
 10
12.3182476197
 20
7.8059490568
 30
0.0
 10
12.3208035252
 20
7.8064776433
 30
0.0
 10
12.3242662108
 20
7.8074501804
 30
0.0
 10
12.3286342268
 20
7.8091712549
 30
0.0
 10
12.3338238224
 20
7.8119728991
 30
0.0
 10
12.3390232537
 20
7.8155291103
 30
0.0
 10
12.3423681718
 20
7.8182958219
 30
0.0
 10
12.344041765
 20
7.8197908324
 30
0.0
  0
SPLINE
  5
2E0
100
AcDbEntity
  8
0
100
AcDbSpline
 62
7
  6
CONTINUOUS
 70
0
 71
3
 72
27
 73
23
 74
0
 42
0.0000001
 43
0.0000001
 44
0.0000000001
 40
0.0
 40
0.0
 40
0.0
 40
0.0
 40
0.0616468919
 40
0.092480324
 40
0.1233223738
 40
0.1850380873
 40
0.2468218549
 40
0.2777487728
 40
0.3087006876
 40
0.3706840776
 40
0.4327968309
 40
0.4950568274
 40
0.5574803452
 40
0.6200818953
 40
0.6828740866
 40
0.7143476821
 40
0.745872711
 40
0.809075826
 40
0.8724948563
 40
0.9042889874
 40
0.9361391032
 40
1.0
 40
1.0
 40
1.0
 40
1.0
 10
10.900163759
 20
7.8515853124
 30
0.0
 10
10.8903444494
 20
7.8421005774
 30
0.0
 10
10.8752270567
 20
7.8282643731
 30
0.0
 10
10.8543522172
 20
7.81065102
 30
0.0
 10
10.8329994145
 20
7.7935947287
 30
0.0
 10
10.8054422653
 20
7.7733449465
 30
0.0
 10
10.7768239388
 20
7.7545905767
 30
0.0
 10
10.7533328782
 20
7.7405083436
 30
0.0
 10
10.729435977
 20
7.7270362147
 30
0.0
 10
10.6988595856
 20
7.7113748941
 30
0.0
 10
10.6611640895
 20
7.6945287589
 30
0.0
 10
10.6225400383
 20
7.6796621186
 30
0.0
 10
10.5830851998
 20
7.6668126757
 30
0.0
 10
10.5428994704
 20
7.6560127041
 30
0.0
 10
10.5089109793
 20
7.6487485073
 30
0.0
 10
10.4814615445
 20
7.6439846104
 30
0.0
 10
10.4538084734
 20
7.6399155293
 30
0.0
 10
10.4189721
 20
7.6361535716
 30
0.0
 10
10.3839301058
 20
7.6341685196
 30
0.0
 10
10.3557933579
 20
7.6336437442
 30
0.0
 10
10.3275550539
 20
7.6338293858
 30
0.0
 10
10.3063684121
 20
7.6347689386
 30
0.0
 10
10.292259923
 20
7.6357473656
 30
0.0
  0
SPLINE
  5
2E1
100
AcDbEntity
  8
0
100
AcDbSpline
 62
7
  6
CONTINUOUS
 70
0
 71
3
 72
25
 73
21
 74
0
 42
0.0000001
 43
0.0000001
 44
0.0000000001
 40
0.0
 40
0.0
 40
0.0
 40
0.0
 40
0.0616183797
 40
0.0924432546
 40
0.1232803047
 40
0.1849959347
 40
0.2467898216
 40
0.2777244871
 40
0.3086856787
 40
0.370691448
 40
0.4328287435
 40
0.4951129518
 40
0.5575580273
 40
0.6201763628
 40
0.6829787036
 40
0.7459739883
 40
0.8091695067
 40
0.8725701992
 40
0.9361802406
 40
1.0
 40
1.0
 40
1.0
 40
1.0
 10
10.8996697953
 20
7.8521504809
 30
0.0
 10
10.8899643705
 20
7.8435744091
 30
0.0
 10
10.8750719408
 20
7.8310764452
 30
0.0
 10
10.8545997288
 20
7.8151880028
 30
0.0
 10
10.8337129132
 20
7.7998131793
 30
0.0
 10
10.8068590231
 20
7.7815833656
 30
0.0
 10
10.7790972755
 20
7.7647288763
 30
0.0
 10
10.7563759195
 20
7.7520882716
 30
0.0
 10
10.7333032057
 20
7.7400047863
 30
0.0
 10
10.7038575238
 20
7.7259767623
 30
0.0
 10
10.6676651456
 20
7.7109150768
 30
0.0
 10
10.6306778544
 20
7.6976500601
 30
0.0
 10
10.5929800206
 20
7.686211983
 30
0.0
 10
10.5546569021
 20
7.6766265923
 30
0.0
 10
10.5157953645
 20
7.6689155477
 30
0.0
 10
10.4764833787
 20
7.663096194
 30
0.0
 10
10.4368101086
 20
7.6591816754
 30
0.0
 10
10.3968649613
 20
7.6571806877
 30
0.0
 10
10.3567396821
 20
7.6570977304
 30
0.0
 10
10.3299710646
 20
7.6583192812
 30
0.0
 10
10.3165888838
 20
7.6592473386
 30
0.0
  0
SPLINE
  5
2E2
100
AcDbEntity
  8
0
100
AcDbSpline
 62
7
  6
CONTINUOUS
 70
0
 71
3
 72
48
 73
44
 74
0
 42
0.0000001
 43
0.0000001
 44
0.0000000001
 40
0.0
 40
0.0
 40
0.0
 40
0.0
 40
0.0149702853
 40
0.0299435407
 40
0.0449227194
 40
0.059910738
 40
0.0749104616
 40
0.0899246872
 40
0.1049561247
 40
0.1200073833
 40
0.1350809578
 40
0.1501792115
 40
0.1653043643
 40
0.1804584832
 40
0.1956434676
 40
0.2108610401
 40
0.2261127413
 40
0.241399919
 40
0.2567237207
 40
0.2720850939
 40
0.3029180492
 40
0.3339075141
 40
0.3650535212
 40
0.3963527906
 40
0.4277988412
 40
0.4593821741
 40
0.4910905049
 40
0.5229090394
 40
0.5548207988
 40
0.5868069722
 40
0.6188472955
 40
0.6509204555
 40
0.6830045045
 40
0.7150772846
 40
0.747116855
 40
0.7791019171
 40
0.8110122296
 40
0.8428290082
 40
0.8745353085
 40
0.9061163812
 40
0.9375600013
 40
0.9688565355
 40
1.0
 40
1.0
 40
1.0
 40
1.0
 10
9.8006905833
 20
9.0933496956
 30
0.0
 10
9.7942981253
 20
9.0871750716
 30
0.0
 10
9.7817525115
 20
9.0745727108
 30
0.0
 10
9.7636867315
 20
9.0549448111
 30
0.0
 10
9.7463957545
 20
9.0346166778
 30
0.0
 10
9.7299030634
 20
9.0136158625
 30
0.0
 10
9.7142305335
 20
8.991970371
 30
0.0
 10
9.6993991732
 20
8.9697091223
 30
0.0
 10
9.6854288006
 20
8.9468618528
 30
0.0
 10
9.6723380081
 20
8.923459137
 30
0.0
 10
9.6601443164
 20
8.8995322219
 30
0.0
 10
9.6488640329
 20
8.8751130708
 30
0.0
 10
9.6385121399
 20
8.8502343475
 30
0.0
 10
9.6291024875
 20
8.8249292765
 30
0.0
 10
9.6206476705
 20
8.799231654
 30
0.0
 10
9.6131588864
 20
8.7731758482
 30
0.0
 10
9.6066461472
 20
8.7467966225
 30
0.0
 10
9.6011181897
 20
8.7201293329
 30
0.0
 10
9.596582282
 20
8.6932091422
 30
0.0
 10
9.5918597823
 20
8.6569864772
 30
0.0
 10
9.5884725017
 20
8.6112434559
 30
0.0
 10
9.5884482711
 20
8.5560017718
 30
0.0
 10
9.5924576662
 20
8.500627358
 30
0.0
 10
9.6004790717
 20
8.4454177226
 30
0.0
 10
9.6124689396
 20
8.3906667962
 30
0.0
 10
9.6283628456
 20
8.3366666634
 30
0.0
 10
9.6480756318
 20
8.2837051677
 30
0.0
 10
9.6715017125
 20
8.2320645502
 30
0.0
 10
9.698515923
 20
8.1820200057
 30
0.0
 10
9.7289740411
 20
8.133838217
 30
0.0
 10
9.7627134546
 20
8.0877758603
 30
0.0
 10
9.7995542683
 20
8.0440784164
 30
0.0
 10
9.8393000675
 20
8.0029787663
 30
0.0
 10
9.8817389491
 20
7.9646959164
 30
0.0
 10
9.926644814
 20
7.9294340319
 30
0.0
 10
9.9737783678
 20
7.8973811679
 30
0.0
 10
10.0228884523
 20
7.8687083025
 30
0.0
 10
10.0737134274
 20
7.8435686126
 30
0.0
 10
10.1259825181
 20
7.8220963952
 30
0.0
 10
10.1794168836
 20
7.8044064934
 30
0.0
 10
10.2337326837
 20
7.7905937771
 30
0.0
 10
10.2886365491
 20
7.7807324855
 30
0.0
 10
10.3255373864
 20
7.7768177486
 30
0.0
 10
10.3439824295
 20
7.7755385806
 30
0.0
  0
SPLINE
  5
2E3
100
AcDbEntity
  8
0
100
AcDbSpline
 62
7
  6
CONTINUOUS
 70
0
 71
3
 72
43
 73
39
 74
0
 42
0.0000001
 43
0.0000001
 44
0.0000000001
 40
0.0
 40
0.0
 40
0.0
 40
0.0
 40
0.0149663142
 40
0.029950035
 40
0.0449532393
 40
0.0599779081
 40
0.0900944745
 40
0.1203180138
 40
0.1354758656
 40
0.1506646451
 40
0.1658854604
 40
0.1811392704
 40
0.211744602
 40
0.2424896765
 40
0.2733766065
 40
0.3044049962
 40
0.3355719814
 40
0.3668723107
 40
0.3982984668
 40
0.4298408206
 40
0.461487814
 40
0.4932261687
 40
0.5250411184
 40
0.5569166597
 40
0.5888358159
 40
0.6207809132
 40
0.6527338641
 40
0.6846764564
 40
0.7165906429
 40
0.7484588286
 40
0.7802641546
 40
0.8119907726
 40
0.8436241076
 40
0.8751511044
 40
0.9065604507
 40
0.937842855
 40
0.9689908556
 40
1.0
 40
1.0
 40
1.0
 40
1.0
 10
9.9248972777
 20
9.1884417752
 30
0.0
 10
9.9205000376
 20
9.1816340824
 30
0.0
 10
9.9119406041
 20
9.1678539117
 30
0.0
 10
9.8998312094
 20
9.1467317214
 30
0.0
 10
9.8884572993
 20
9.1251681879
 30
0.0
 10
9.8742799511
 20
9.0958411365
 30
0.0
 10
9.8584570698
 20
9.0581845775
 30
0.0
 10
9.8452650052
 20
9.0194522364
 30
0.0
 10
9.8363067004
 20
8.9878946231
 30
0.0
 10
9.8303862093
 20
8.9639352497
 30
0.0
 10
9.8252779914
 20
8.939736572
 30
0.0
 10
9.8195513843
 20
8.9071556038
 30
0.0
 10
9.8144551496
 20
8.8659534933
 30
0.0
 10
9.8116654407
 20
8.8160480262
 30
0.0
 10
9.8122053592
 20
8.7658377823
 30
0.0
 10
9.8160724325
 20
8.7155454443
 30
0.0
 10
9.8232491922
 20
8.6653920759
 30
0.0
 10
9.833703672
 20
8.6155985726
 30
0.0
 10
9.8473895113
 20
8.5663840499
 30
0.0
 10
9.8642461873
 20
8.5179650687
 30
0.0
 10
9.8841992892
 20
8.4705546556
 30
0.0
 10
9.9071607829
 20
8.4243613624
 30
0.0
 10
9.9330294402
 20
8.3795883632
 30
0.0
 10
9.9616913056
 20
8.3364325854
 30
0.0
 10
9.9930201936
 20
8.2950838558
 30
0.0
 10
10.0268782159
 20
8.2557240618
 30
0.0
 10
10.0631163588
 20
8.2185263281
 30
0.0
 10
10.1015751896
 20
8.1836543066
 30
0.0
 10
10.1420855383
 20
8.1512614563
 30
0.0
 10
10.1844692393
 20
8.1214903848
 30
0.0
 10
10.2285398617
 20
8.0944721621
 30
0.0
 10
10.274103569
 20
8.0703257923
 30
0.0
 10
10.3209599392
 20
8.049157703
 30
0.0
 10
10.3689029254
 20
8.0310612892
 30
0.0
 10
10.4177214183
 20
8.0161164435
 30
0.0
 10
10.4672012952
 20
8.0043892449
 30
0.0
 10
10.5171220139
 20
7.9959316808
 30
0.0
 10
10.550632937
 20
7.9924899733
 30
0.0
 10
10.5673843315
 20
7.9913282602
 30
0.0
  0
SPLINE
  5
2E4
100
AcDbEntity
  8
0
100
AcDbSpline
 62
7
  6
CONTINUOUS
 70
0
 71
3
 72
44
 73
40
 74
0
 42
0.0000001
 43
0.0000001
 44
0.0000000001
 40
0.0
 40
0.0
 40
0.0
 40
0.0
 40
0.0149614458
 40
0.029929736
 40
0.0449076429
 40
0.0598978864
 40
0.0749031166
 40
0.0899258973
 40
0.1049686958
 40
0.1200338677
 40
0.1351236415
 40
0.1502401121
 40
0.180555503
 40
0.2109990156
 40
0.2415815246
 40
0.272310941
 40
0.3031920852
 40
0.3342266305
 40
0.3654131189
 40
0.3967470346
 40
0.4282209334
 40
0.4598246317
 40
0.4915454374
 40
0.5233684185
 40
0.5552767093
 40
0.5872518444
 40
0.6192741128
 40
0.6513229288
 40
0.683377217
 40
0.7154158007
 40
0.7474177933
 40
0.7793629854
 40
0.8112322218
 40
0.8430077687
 40
0.8746736558
 40
0.9062159975
 40
0.937623316
 40
0.9688865041
 40
1.0
 40
1.0
 40
1.0
 40
1.0
 10
10.0500042206
 20
9.2466767144
 30
0.0
 10
10.0445557502
 20
9.2408081434
 30
0.0
 10
10.033880074
 20
9.2288582674
 30
0.0
 10
10.0185607414
 20
9.2103293904
 30
0.0
 10
10.0039513205
 20
9.1912159301
 30
0.0
 10
9.9900707546
 20
9.171542706
 30
0.0
 10
9.9769367859
 20
9.1513347278
 30
0.0
 10
9.964566177
 20
9.1306179099
 30
0.0
 10
9.9529746929
 20
9.1094187243
 30
0.0
 10
9.9421772677
 20
9.0877643495
 30
0.0
 10
9.9321874987
 20
9.065682101
 30
0.0
 10
9.9199515435
 20
9.0356819882
 30
0.0
 10
9.9067382023
 20
8.9972370688
 30
0.0
 10
9.8943126404
 20
8.9499085131
 30
0.0
 10
9.8853620251
 20
8.9015754096
 30
0.0
 10
9.8799323725
 20
8.8524866733
 30
0.0
 10
9.8780506776
 20
8.8028928485
 30
0.0
 10
9.8797260128
 20
8.753047507
 30
0.0
 10
9.8849493078
 20
8.7032052328
 30
0.0
 10
9.8936934368
 20
8.6536205458
 30
0.0
 10
9.9059132376
 20
8.6045465342
 30
0.0
 10
9.9215459278
 20
8.5562336132
 30
0.0
 10
9.9405114245
 20
8.5089282822
 30
0.0
 10
9.9627126066
 20
8.4628718267
 30
0.0
 10
9.9880359256
 20
8.4182991313
 30
0.0
 10
10.0163520353
 20
8.3754375373
 30
0.0
 10
10.0475163423
 20
8.3345056448
 30
0.0
 10
10.0813697349
 20
8.2957121844
 30
0.0
 10
10.1177394932
 20
8.2592550471
 30
0.0
 10
10.1564401165
 20
8.2253202684
 30
0.0
 10
10.1972741733
 20
8.1940809807
 30
0.0
 10
10.2400334105
 20
8.1656966523
 30
0.0
 10
10.2844998035
 20
8.1403123039
 30
0.0
 10
10.3304465429
 20
8.1180576408
 30
0.0
 10
10.3776393409
 20
8.0990464538
 30
0.0
 10
10.4258372577
 20
8.0833761256
 30
0.0
 10
10.4747952033
 20
8.0711270453
 30
0.0
 10
10.5242601041
 20
8.0623621904
 30
0.0
 10
10.5574955561
 20
8.0588629719
 30
0.0
 10
10.574108642
 20
8.0577108505
 30
0.0
  0
SPLINE
  5
2E5
100
AcDbEntity
  8
0
100
AcDbSpline
 62
7
  6
CONTINUOUS
 70
0
 71
3
 72
39
 73
35
 74
0
 42
0.0000001
 43
0.0000001
 44
0.0000000001
 40
0.0
 40
0.0
 40
0.0
 40
0.0
 40
0.0299219257
 40
0.0599014317
 40
0.0899573964
 40
0.1201070977
 40
0.1503658686
 40
0.1807468013
 40
0.2112605054
 40
0.2419149296
 40
0.2727152395
 40
0.3036637549
 40
0.3347599439
 40
0.3660004764
 40
0.3973793249
 40
0.4288879091
 40
0.4605152845
 40
0.4922483684
 40
0.5240721947
 40
0.5559701936
 40
0.5879244947
 40
0.6199162472
 40
0.6519259501
 40
0.6839337914
 40
0.7159199917
 40
0.7478651462
 40
0.7797505623
 40
0.8115585903
 40
0.8432729396
 40
0.8748789747
 40
0.9063639911
 40
0.9377175206
 40
0.9689312026
 40
1.0
 40
1.0
 40
1.0
 40
1.0
 10
10.0601688012
 20
9.2501778125
 30
0.0
 10
10.0505184599
 20
9.238012013
 30
0.0
 10
10.0320947271
 20
9.2129311011
 30
0.0
 10
10.0072859861
 20
9.1733359572
 30
0.0
 10
9.9853948491
 20
9.131919732
 30
0.0
 10
9.9665281791
 20
9.0888840329
 30
0.0
 10
9.9507756336
 20
9.0444348175
 30
0.0
 10
9.9382125537
 20
8.998785664
 30
0.0
 10
9.9288986734
 20
8.9521555884
 30
0.0
 10
9.9228781943
 20
8.9047682609
 30
0.0
 10
9.9201795312
 20
8.8568508594
 30
0.0
 10
9.9208151544
 20
8.8086330135
 30
0.0
 10
9.9247815252
 20
8.7603456921
 30
0.0
 10
9.9320592182
 20
8.7122201055
 30
0.0
 10
9.9426130263
 20
8.6644866214
 30
0.0
 10
9.9563920658
 20
8.6173736644
 30
0.0
 10
9.9733300365
 20
8.5711066246
 30
0.0
 10
9.9933456126
 20
8.5259068125
 30
0.0
 10
10.0163428304
 20
8.4819904247
 30
0.0
 10
10.0422114685
 20
8.4395674848
 30
0.0
 10
10.0708276068
 20
8.3988408546
 30
0.0
 10
10.1020542617
 20
8.360005304
 30
0.0
 10
10.1357420319
 20
8.3232465998
 30
0.0
 10
10.1717297345
 20
8.2887405618
 30
0.0
 10
10.2098452162
 20
8.2566522575
 30
0.0
 10
10.2499061937
 20
8.2271352506
 30
0.0
 10
10.2917211092
 20
8.2003308813
 30
0.0
 10
10.335089986
 20
8.1763675058
 30
0.0
 10
10.3798053978
 20
8.1553599449
 30
0.0
 10
10.4256535505
 20
8.1374089585
 30
0.0
 10
10.4724149497
 20
8.1226007635
 30
0.0
 10
10.5198665964
 20
8.1110065503
 30
0.0
 10
10.5677785091
 20
8.1026822166
 30
0.0
 10
10.5999571683
 20
8.0993311347
 30
0.0
 10
10.6160422719
 20
8.0982156289
 30
0.0
  0
SPLINE
  5
2E6
100
AcDbEntity
  8
0
100
AcDbSpline
 62
7
  6
CONTINUOUS
 70
0
 71
3
 72
45
 73
41
 74
0
 42
0.0000001
 43
0.0000001
 44
0.0000000001
 40
0.0
 40
0.0
 40
0.0
 40
0.0
 40
0.0149630434
 40
0.0299320503
 40
0.0449098394
 40
0.0598991772
 40
0.0749027641
 40
0.0899232215
 40
0.1049630727
 40
0.1200247319
 40
0.1351104924
 40
0.1502225093
 40
0.165362793
 40
0.1805331986
 40
0.2109656763
 40
0.241536651
 40
0.2722545028
 40
0.3031244853
 40
0.3341486617
 40
0.3653259078
 40
0.3966519792
 40
0.4281196448
 40
0.4597188701
 40
0.4914370458
 40
0.5232592633
 40
0.5551686243
 40
0.5871465775
 40
0.6191732786
 40
0.6512279706
 40
0.6832893742
 40
0.7153360846
 40
0.7473469713
 40
0.779301573
 40
0.8111804844
 40
0.8429657309
 40
0.8746411181
 40
0.90619256
 40
0.9376084191
 40
0.9688794408
 40
1.0
 40
1.0
 40
1.0
 40
1.0
 10
10.1429076747
 20
9.2723441266
 30
0.0
 10
10.1377158984
 20
9.2668921115
 30
0.0
 10
10.1275392418
 20
9.2557846965
 30
0.0
 10
10.1129236479
 20
9.2385450377
 30
0.0
 10
10.0989731361
 20
9.2207456524
 30
0.0
 10
10.0857060886
 20
9.202409819
 30
0.0
 10
10.0731394696
 20
9.1835612112
 30
0.0
 10
10.0612895865
 20
9.1642241679
 30
0.0
 10
10.0501717524
 20
9.1444236621
 30
0.0
 10
10.0398002425
 20
9.1241853322
 30
0.0
 10
10.0301885272
 20
9.1035352529
 30
0.0
 10
10.0213490024
 20
9.0825002315
 30
0.0
 10
10.0132929356
 20
9.0611070648
 30
0.0
 10
10.0036010835
 20
9.0321158054
 30
0.0
 10
9.9934973808
 20
8.9951051222
 30
0.0
 10
9.9846660218
 20
8.9497675316
 30
0.0
 10
9.9791573283
 20
8.9036850407
 30
0.0
 10
9.976999804
 20
8.8570973369
 30
0.0
 10
9.9782039349
 20
8.8102445442
 30
0.0
 10
9.9827630604
 20
8.7633686065
 30
0.0
 10
9.9906531133
 20
8.7167113291
 30
0.0
 10
10.0018329588
 20
8.6705133425
 30
0.0
 10
10.0162445924
 20
8.6250128444
 30
0.0
 10
10.0338133214
 20
8.5804443628
 30
0.0
 10
10.0544482474
 20
8.5370375731
 30
0.0
 10
10.0780427814
 20
8.4950161591
 30
0.0
 10
10.1044751389
 20
8.454596661
 30
0.0
 10
10.1336088977
 20
8.4159873179
 30
0.0
 10
10.1652938122
 20
8.3793870755
 30
0.0
 10
10.199366573
 20
8.3449845874
 30
0.0
 10
10.2356515499
 20
8.312957169
 30
0.0
 10
10.2739617391
 20
8.2834699216
 30
0.0
 10
10.3140997562
 20
8.2566749462
 30
0.0
 10
10.3558588177
 20
8.2327105445
 30
0.0
 10
10.3990237141
 20
8.2117004095
 30
0.0
 10
10.4433720816
 20
8.1937531012
 30
0.0
 10
10.4886751668
 20
8.1789615077
 30
0.0
 10
10.5347002102
 20
8.1674022789
 30
0.0
 10
10.5812068477
 20
8.1591354637
 30
0.0
 10
10.6124567828
 20
8.1558394634
 30
0.0
 10
10.6280773475
 20
8.1547561736
 30
0.0
  0
SPLINE
  5
2E7
100
AcDbEntity
  8
0
100
AcDbSpline
 62
7
  6
CONTINUOUS
 70
0
 71
3
 72
42
 73
38
 74
0
 42
0.0000001
 43
0.0000001
 44
0.0000000001
 40
0.0
 40
0.0
 40
0.0
 40
0.0
 40
0.0302736062
 40
0.0454539137
 40
0.0606628489
 40
0.0911650085
 40
0.1217850539
 40
0.1371409584
 40
0.152526375
 40
0.1833820533
 40
0.2143525805
 40
0.2454341113
 40
0.2766214725
 40
0.3079082375
 40
0.3392868144
 40
0.3707485439
 40
0.4022838081
 40
0.4338821477
 40
0.4655323859
 40
0.4972227587
 40
0.5289410501
 40
0.5606747303
 40
0.5924110972
 40
0.6241374186
 40
0.6558410749
 40
0.6875097005
 40
0.7191313242
 40
0.7506945054
 40
0.7821884668
 40
0.8136032208
 40
0.8449296906
 40
0.8761598202
 40
0.9072866844
 40
0.9383045604
 40
0.953772478
 40
0.9692119618
 40
1.0
 40
1.0
 40
1.0
 40
1.0
 10
10.3035285771
 20
9.2869417766
 30
0.0
 10
10.3009871613
 20
9.275288963
 30
0.0
 10
10.2976728435
 20
9.2576780686
 30
0.0
 10
10.2942577239
 20
9.2340220476
 30
0.0
 10
10.291503855
 20
9.2101886104
 30
0.0
 10
10.2893202192
 20
9.180179348
 30
0.0
 10
10.2888202847
 20
9.1500372195
 30
0.0
 10
10.289426691
 20
9.1258679149
 30
0.0
 10
10.2907070392
 20
9.1016319971
 30
0.0
 10
10.2935701153
 20
9.0713316267
 30
0.0
 10
10.2990058052
 20
9.0351172061
 30
0.0
 10
10.3064279478
 20
8.9991233623
 30
0.0
 10
10.3158133864
 20
8.9634623614
 30
0.0
 10
10.3271329319
 20
8.9282445233
 30
0.0
 10
10.340351403
 20
8.8935790251
 30
0.0
 10
10.3554277505
 20
8.8595732583
 30
0.0
 10
10.3723151806
 20
8.8263325809
 30
0.0
 10
10.3909613017
 20
8.7939599717
 30
0.0
 10
10.4113082858
 20
8.7625557192
 30
0.0
 10
10.4332930478
 20
8.7322171115
 30
0.0
 10
10.4568474396
 20
8.7030381375
 30
0.0
 10
10.481898461
 20
8.6751091975
 30
0.0
 10
10.5083684844
 20
8.6485168245
 30
0.0
 10
10.5361754939
 20
8.6233434184
 30
0.0
 10
10.5652333385
 20
8.5996669912
 30
0.0
 10
10.5954519968
 20
8.5775609272
 30
0.0
 10
10.6267378544
 20
8.5570937564
 30
0.0
 10
10.658993993
 20
8.538328943
 30
0.0
 10
10.692120483
 20
8.5213246903
 30
0.0
 10
10.7260147121
 20
8.5061337567
 30
0.0
 10
10.7605716229
 20
8.4928033066
 30
0.0
 10
10.7956843231
 20
8.481374714
 30
0.0
 10
10.8312433499
 20
8.4718836117
 30
0.0
 10
10.8611856504
 20
8.4656074233
 30
0.0
 10
10.8852508723
 20
8.461584679
 30
0.0
 10
10.9093269701
 20
8.4582352418
 30
0.0
 10
10.9274654776
 20
8.4564701041
 30
0.0
 10
10.9395658112
 20
8.4556309431
 30
0.0
  0
SPLINE
  5
2E8
100
AcDbEntity
  8
0
100
AcDbSpline
 62
7
  6
CONTINUOUS
 70
0
 71
3
 72
40
 73
36
 74
0
 42
0.0000001
 43
0.0000001
 44
0.0000000001
 40
0.0
 40
0.0
 40
0.0
 40
0.0
 40
0.0302882289
 40
0.0454758601
 40
0.0606920909
 40
0.0912086562
 40
0.1218425803
 40
0.1525940599
 40
0.183461857
 40
0.2144433303
 40
0.2455344816
 40
0.2767300178
 40
0.3080234259
 40
0.3394070596
 40
0.3708722371
 40
0.4024093486
 40
0.4340079707
 40
0.4656569892
 40
0.4973447265
 40
0.5290590741
 40
0.5607876279
 40
0.5925178266
 40
0.6242370908
 40
0.6559329619
 40
0.6875932409
 40
0.7192061249
 40
0.7507603398
 40
0.78224527
 40
0.813651081
 40
0.8449688402
 40
0.8761906138
 40
0.907309605
 40
0.938320138
 40
0.9692179969
 40
1.0
 40
1.0
 40
1.0
 40
1.0
 10
10.362725537
 20
9.2832648055
 30
0.0
 10
10.360489828
 20
9.2724649759
 30
0.0
 10
10.3575946022
 20
9.2561491119
 30
0.0
 10
10.3546576477
 20
9.2342433251
 30
0.0
 10
10.3523292962
 20
9.2121803199
 30
0.0
 10
10.3505764514
 20
9.1844125815
 30
0.0
 10
10.3503290449
 20
9.1509326039
 30
0.0
 10
10.3519359983
 20
9.1173619531
 30
0.0
 10
10.3553923237
 20
9.0838041614
 30
0.0
 10
10.3606872905
 20
9.0503618951
 30
0.0
 10
10.3678045643
 20
9.0171376674
 30
0.0
 10
10.3767222314
 20
8.9842332499
 30
0.0
 10
10.3874128747
 20
8.9517494376
 30
0.0
 10
10.3998436572
 20
8.9197857231
 30
0.0
 10
10.4139764239
 20
8.8884399988
 30
0.0
 10
10.4297678184
 20
8.8578082586
 30
0.0
 10
10.4471694168
 20
8.8279843062
 30
0.0
 10
10.4661278748
 20
8.7990594697
 30
0.0
 10
10.4865850913
 20
8.7711223243
 30
0.0
 10
10.5084783855
 20
8.7442584223
 30
0.0
 10
10.5317406882
 20
8.7185500332
 30
0.0
 10
10.5563007459
 20
8.694075893
 30
0.0
 10
10.5820833381
 20
8.6709109645
 30
0.0
 10
10.6090095063
 20
8.6491262092
 30
0.0
 10
10.6369967943
 20
8.6287883707
 30
0.0
 10
10.6659594993
 20
8.6099597717
 30
0.0
 10
10.6958089325
 20
8.5926981229
 30
0.0
 10
10.7264536882
 20
8.5770563488
 30
0.0
 10
10.7577999248
 20
8.5630824218
 30
0.0
 10
10.7897516379
 20
8.5508192249
 30
0.0
 10
10.8222109988
 20
8.5403043967
 30
0.0
 10
10.855078477
 20
8.5315702713
 30
0.0
 10
10.8882537774
 20
8.5246436502
 30
0.0
 10
10.9216338803
 20
8.5195460108
 30
0.0
 10
10.9440013466
 20
8.5173730234
 30
0.0
 10
10.9551831001
 20
8.5165975661
 30
0.0
  0
SPLINE
  5
2E9
100
AcDbEntity
  8
0
100
AcDbSpline
 62
7
  6
CONTINUOUS
 70
0
 71
3
 72
39
 73
35
 74
0
 42
0.0000001
 43
0.0000001
 44
0.0000000001
 40
0.0
 40
0.0
 40
0.0
 40
0.0
 40
0.0305084433
 40
0.0611246559
 40
0.0918482058
 40
0.122677562
 40
0.1536101209
 40
0.1846422435
 40
0.2157693011
 40
0.2469857309
 40
0.278285098
 40
0.3096601647
 40
0.3411029662
 40
0.372604891
 40
0.4041567661
 40
0.4357489472
 40
0.4673714103
 40
0.4990138477
 40
0.5306657651
 40
0.5623165802
 40
0.5939557207
 40
0.6255727235
 40
0.6571573328
 40
0.688699596
 40
0.7201899591
 40
0.7516193582
 40
0.7829793092
 40
0.8142619899
 40
0.8454603314
 40
0.8765680476
 40
0.9075798535
 40
0.9384910774
 40
0.9692988503
 40
1.0
 40
1.0
 40
1.0
 40
1.0
 10
10.4305875033
 20
9.2736720315
 30
0.0
 10
10.4300081405
 20
9.263462086
 30
0.0
 10
10.4293724481
 20
9.2429725322
 30
0.0
 10
10.42998468
 20
9.2121787407
 30
0.0
 10
10.4321591198
 20
9.1813471791
 30
0.0
 10
10.4358901285
 20
9.1505585954
 30
0.0
 10
10.4411679741
 20
9.1198922664
 30
0.0
 10
10.4479789511
 20
9.0894275073
 30
0.0
 10
10.4563053872
 20
9.0592430043
 30
0.0
 10
10.4661257053
 20
9.0294167389
 30
0.0
 10
10.4774144761
 20
9.0000257533
 30
0.0
 10
10.4901424852
 20
8.9711459628
 30
0.0
 10
10.5042768084
 20
8.9428519582
 30
0.0
 10
10.5197808973
 20
8.9152168158
 30
0.0
 10
10.5366146725
 20
8.8883119091
 30
0.0
 10
10.554734628
 20
8.862206727
 30
0.0
 10
10.5740939407
 20
8.8369686932
 30
0.0
 10
10.5946425873
 20
8.8126629897
 30
0.0
 10
10.6163274798
 20
8.7893523935
 30
0.0
 10
10.6390926011
 20
8.767097115
 30
0.0
 10
10.6628791493
 20
8.7459546435
 30
0.0
 10
10.6876256883
 20
8.7259795998
 30
0.0
 10
10.7132683057
 20
8.7072235954
 30
0.0
 10
10.7397407767
 20
8.6897351003
 30
0.0
 10
10.7669747341
 20
8.6735593184
 30
0.0
 10
10.7948998433
 20
8.6587380694
 30
0.0
 10
10.8234439793
 20
8.6453096771
 30
0.0
 10
10.8525334198
 20
8.6333088692
 30
0.0
 10
10.8820930198
 20
8.6227667123
 30
0.0
 10
10.9120464592
 20
8.6137104638
 30
0.0
 10
10.9423162395
 20
8.6061636648
 30
0.0
 10
10.972824547
 20
8.6001457308
 30
0.0
 10
11.0034913834
 20
8.5956725429
 30
0.0
 10
11.0240271965
 20
8.5937243233
 30
0.0
 10
11.0342935036
 20
8.5930123525
 30
0.0
  0
SPLINE
  5
2EA
100
AcDbEntity
  8
0
100
AcDbSpline
 62
7
  6
CONTINUOUS
 70
0
 71
3
 72
49
 73
45
 74
0
 42
0.0000001
 43
0.0000001
 44
0.0000000001
 40
0.0
 40
0.0
 40
0.0
 40
0.0
 40
0.0149623725
 40
0.0299308884
 40
0.0449083567
 40
0.0598975353
 40
0.0749011141
 40
0.0899217018
 40
0.1049618118
 40
0.1200238461
 40
0.1351100832
 40
0.1502226677
 40
0.1653635973
 40
0.1805347111
 40
0.1957376844
 40
0.2109740183
 40
0.2262450304
 40
0.2415518534
 40
0.2568954288
 40
0.2722765003
 40
0.2876956147
 40
0.3031531212
 40
0.3341787395
 40
0.3653571977
 40
0.3966841953
 40
0.4281524592
 40
0.4597519225
 40
0.4914699588
 40
0.5232916563
 40
0.555200122
 40
0.5871768221
 40
0.6192019404
 40
0.6512547548
 40
0.6833140275
 40
0.7153584011
 40
0.7473667946
 40
0.7793187984
 40
0.8111950598
 40
0.8429776521
 40
0.8746504269
 40
0.9061993455
 40
0.9376127732
 40
0.9688815638
 40
1.0
 40
1.0
 40
1.0
 40
1.0
 10
9.6849143608
 20
9.1097775316
 30
0.0
 10
9.6781944291
 20
9.1026842931
 30
0.0
 10
9.665023353
 20
9.0882347778
 30
0.0
 10
9.6461104847
 20
9.0658123998
 30
0.0
 10
9.6280614024
 20
9.0426662752
 30
0.0
 10
9.6108998167
 20
9.0188266208
 30
0.0
 10
9.5946477502
 20
8.9943240666
 30
0.0
 10
9.5793261207
 20
8.9691902746
 30
0.0
 10
9.5649546946
 20
8.9434576247
 30
0.0
 10
9.5515520258
 20
8.9171592837
 30
0.0
 10
9.5391353128
 20
8.8903291952
 30
0.0
 10
9.5277205622
 20
8.8630019421
 30
0.0
 10
9.5173225297
 20
8.8352127363
 30
0.0
 10
9.5079545341
 20
8.8069974317
 30
0.0
 10
9.4996286287
 20
8.7783923994
 30
0.0
 10
9.4923555947
 20
8.7494344958
 30
0.0
 10
9.4861447301
 20
8.720161062
 30
0.0
 10
9.4810039956
 20
8.6906098402
 30
0.0
 10
9.4769400679
 20
8.66081887
 30
0.0
 10
9.47395812
 20
8.6308266843
 30
0.0
 10
9.4720619651
 20
8.6006714413
 30
0.0
 10
9.4709833725
 20
8.5602542908
 30
0.0
 10
9.4723688071
 20
8.5095101607
 30
0.0
 10
9.4783787225
 20
8.4486774712
 30
0.0
 10
9.4887060956
 20
8.388133131
 30
0.0
 10
9.5032974184
 20
8.3281908691
 30
0.0
 10
9.5220769674
 20
8.2691585022
 30
0.0
 10
9.5449476754
 20
8.2113398269
 30
0.0
 10
9.5717915657
 20
8.1550321899
 30
0.0
 10
9.6024701321
 20
8.1005251016
 30
0.0
 10
9.6368253915
 20
8.0480988616
 30
0.0
 10
9.6746804619
 20
7.9980230516
 30
0.0
 10
9.7158404637
 20
7.9505551168
 30
0.0
 10
9.760093729
 20
7.9059392468
 30
0.0
 10
9.807212596
 20
7.8644048906
 30
0.0
 10
9.8569547527
 20
7.8261657288
 30
0.0
 10
9.9090644829
 20
7.7914186555
 30
0.0
 10
9.9632737965
 20
7.7603425053
 30
0.0
 10
10.0193039716
 20
7.7330974482
 30
0.0
 10
10.0768669784
 20
7.7098240069
 30
0.0
 10
10.1356664507
 20
7.6906422527
 30
0.0
 10
10.195400985
 20
7.6756514415
 30
0.0
 10
10.2557592389
 20
7.6649293589
 30
0.0
 10
10.2963161485
 20
7.6606532575
 30
0.0
 10
10.3165888838
 20
7.6592473386
 30
0.0
  0
SPLINE
  5
2EB
100
AcDbEntity
  8
0
100
AcDbSpline
 62
7
  6
CONTINUOUS
 70
0
 71
3
 72
71
 73
67
 74
0
 42
0.0000001
 43
0.0000001
 44
0.0000000001
 40
0.0
 40
0.0
 40
0.0
 40
0.0
 40
0.0156748284
 40
0.0314021605
 40
0.0471806558
 40
0.0630088915
 40
0.0788847439
 40
0.0948057527
 40
0.1107690085
 40
0.1267712319
 40
0.1428087898
 40
0.1588777347
 40
0.1749738405
 40
0.1910926414
 40
0.2072294724
 40
0.2233795107
 40
0.239537818
 40
0.2556993843
 40
0.2718591712
 40
0.2880121557
 40
0.3041533741
 40
0.3202779654
 40
0.3363812138
 40
0.3524585909
 40
0.368505796
 40
0.3845187958
 40
0.4004938614
 40
0.4164276039
 40
0.4323170078
 40
0.448159461
 40
0.4639527825
 40
0.4796952463
 40
0.4953856017
 40
0.5110230901
 40
0.5266074569
 40
0.5421389589
 40
0.5576183674
 40
0.5730469657
 40
0.5884265413
 40
0.6037593734
 40
0.619048214
 40
0.6342962646
 40
0.6495071467
 40
0.6646848675
 40
0.6798337809
 40
0.6949585439
 40
0.710064069
 40
0.7251554728
 40
0.7402380225
 40
0.75531708
 40
0.7703980444
 40
0.7854862945
 40
0.8005871312
 40
0.815705721
 40
0.8308470418
 40
0.8460158305
 40
0.8612165348
 40
0.8764532681
 40
0.8917297694
 40
0.9070493658
 40
0.9224149473
 40
0.937828925
 40
0.9532932602
 40
0.9688093114
 40
0.9843781663
 40
1.0
 40
1.0
 40
1.0
 40
1.0
 10
10.3383090404
 20
9.2895368964
 30
0.0
 10
10.3508318362
 20
9.2886684376
 30
0.0
 10
10.3758810172
 20
9.2863143078
 30
0.0
 10
10.4132970322
 20
9.2809564497
 30
0.0
 10
10.4505328313
 20
9.2737785565
 30
0.0
 10
10.4874974822
 20
9.2647981994
 30
0.0
 10
10.5241023875
 20
9.2540369599
 30
0.0
 10
10.5602593091
 20
9.2415208747
 30
0.0
 10
10.5958812459
 20
9.2272801125
 30
0.0
 10
10.6308824473
 20
9.2113490237
 30
0.0
 10
10.6651786716
 20
9.193766005
 30
0.0
 10
10.6986873742
 20
9.1745734273
 30
0.0
 10
10.7313279079
 20
9.1538175266
 30
0.0
 10
10.7630217154
 20
9.1315482951
 30
0.0
 10
10.7936925174
 20
9.1078193607
 30
0.0
 10
10.8232664951
 20
9.0826878588
 30
0.0
 10
10.8516724694
 20
9.0562142965
 30
0.0
 10
10.8788420687
 20
9.0284624056
 30
0.0
 10
10.9047098938
 20
8.9994989896
 30
0.0
 10
10.9292136738
 20
8.969393764
 30
0.0
 10
10.9522944158
 20
8.9382191889
 30
0.0
 10
10.973896546
 20
8.9060502956
 30
0.0
 10
10.9939680431
 20
8.8729645074
 30
0.0
 10
11.0124605631
 20
8.8390414533
 30
0.0
 10
11.0293295555
 20
8.8043627786
 30
0.0
 10
11.04453437
 20
8.7690119485
 30
0.0
 10
11.0580383548
 20
8.733074049
 30
0.0
 10
11.0698089443
 20
8.6966355834
 30
0.0
 10
11.0798177394
 20
8.659784265
 30
0.0
 10
11.0880405773
 20
8.6226088083
 30
0.0
 10
11.0944575876
 20
8.5851987147
 30
0.0
 10
11.099053242
 20
8.5476440595
 30
0.0
 10
11.101816392
 20
8.5100352759
 30
0.0
 10
11.1027402974
 20
8.4724629384
 30
0.0
 10
11.1018226439
 20
8.435017546
 30
0.0
 10
11.0990655507
 20
8.3977893049
 30
0.0
 10
11.0944755669
 20
8.3608679121
 30
0.0
 10
11.0880636585
 20
8.3243423399
 30
0.0
 10
11.0798451837
 20
8.288300621
 30
0.0
 10
11.0698398586
 20
8.2528296369
 30
0.0
 10
11.0580717117
 20
8.2180149074
 30
0.0
 10
11.0445690305
 20
8.1839403828
 30
0.0
 10
11.0293642947
 20
8.1506882395
 30
0.0
 10
11.0124940981
 20
8.1183386809
 30
0.0
 10
10.9939990622
 20
8.0869697417
 30
0.0
 10
10.9739237392
 20
8.0566570972
 30
0.0
 10
10.9523165054
 20
8.0274738782
 30
0.0
 10
10.9292294445
 20
7.9994904917
 30
0.0
 10
10.9047182217
 20
7.9727744488
 30
0.0
 10
10.878841948
 20
7.9473901986
 30
0.0
 10
10.8516630368
 20
7.9233989713
 30
0.0
 10
10.8232470509
 20
7.9008586276
 30
0.0
 10
10.7936625424
 20
7.879823518
 30
0.0
 10
10.7629808845
 20
7.8603443511
 30
0.0
 10
10.7312760982
 20
7.8424680675
 30
0.0
 10
10.6986246695
 20
7.8262377289
 30
0.0
 10
10.6651053618
 20
7.8116924151
 30
0.0
 10
10.6307990234
 20
7.7988671303
 30
0.0
 10
10.5957883913
 20
7.7877927227
 30
0.0
 10
10.5601578855
 20
7.7784958042
 30
0.0
 10
10.5239934204
 20
7.7709987088
 30
0.0
 10
10.4873821376
 20
7.7653193934
 30
0.0
 10
10.4504123993
 20
7.7614714959
 30
0.0
 10
10.4131728954
 20
7.7594641327
 30
0.0
 10
10.3757546246
 20
7.7593020817
 30
0.0
 10
10.3507894982
 20
7.7604226771
 30
0.0
 10
10.3383090404
 20
7.7612881998
 30
0.0
  0
SPLINE
  5
2EC
100
AcDbEntity
  8
0
100
AcDbSpline
 62
7
  6
CONTINUOUS
 70
0
 71
3
 72
36
 73
32
 74
0
 42
0.0000001
 43
0.0000001
 44
0.0000000001
 40
0.0
 40
0.0
 40
0.0
 40
0.0
 40
0.0148866872
 40
0.0292138365
 40
0.0433636626
 40
0.0576923565
 40
0.072510972
 40
0.0880748623
 40
0.0962047957
 40
0.1045927167
 40
0.1222060761
 40
0.1410398959
 40
0.1611835528
 40
0.1827080273
 40
0.2056692336
 40
0.230115416
 40
0.2560880642
 40
0.2836266161
 40
0.3127681787
 40
0.3435504151
 40
0.3760105846
 40
0.4101863787
 40
0.4461143421
 40
0.5233497912
 40
0.6078856406
 40
0.699544289
 40
0.7973681248
 40
0.8479172761
 40
0.898956489
 40
0.9498801366
 40
1.0
 40
1.0
 40
1.0
 40
1.0
 10
10.4300612213
 20
7.9159228542
 30
0.0
 10
10.4298930723
 20
7.9163871217
 30
0.0
 10
10.4296334819
 20
7.917326083
 30
0.0
 10
10.4294894915
 20
7.9187640268
 30
0.0
 10
10.4295920139
 20
7.920187028
 30
0.0
 10
10.42993091
 20
7.9215888496
 30
0.0
 10
10.4304960632
 20
7.9229654665
 30
0.0
 10
10.4311386338
 20
7.9240737379
 30
0.0
 10
10.4317513906
 20
7.9249442593
 30
0.0
 10
10.4324536982
 20
7.9258328713
 30
0.0
 10
10.4334661899
 20
7.9269255877
 30
0.0
 10
10.434860902
 20
7.9281848859
 30
0.0
 10
10.436450901
 20
7.9294121531
 30
0.0
 10
10.4382332156
 20
7.9306058117
 30
0.0
 10
10.4402055763
 20
7.9317646153
 30
0.0
 10
10.4423664615
 20
7.9328868852
 30
0.0
 10
10.4447148753
 20
7.9339711136
 30
0.0
 10
10.4472505079
 20
7.9350153828
 30
0.0
 10
10.4499735253
 20
7.9360178719
 30
0.0
 10
10.4528846885
 20
7.9369762818
 30
0.0
 10
10.4559851225
 20
7.9378883044
 30
0.0
 10
10.4592763629
 20
7.9387510681
 30
0.0
 10
10.4640369279
 20
7.939858407
 30
0.0
 10
10.4704814919
 20
7.9410866963
 30
0.0
 10
10.4788073952
 20
7.9422655467
 30
0.0
 10
10.4878578729
 20
7.9431327221
 30
0.0
 10
10.4958119551
 20
7.9435410419
 30
0.0
 10
10.5024257493
 20
7.9436576397
 30
0.0
 10
10.5074848782
 20
7.9436283086
 30
0.0
 10
10.5125275421
 20
7.9434765415
 30
0.0
 10
10.515874365
 20
7.9432904071
 30
0.0
 10
10.5175328181
 20
7.943175393
 30
0.0
  0
SPLINE
  5
2ED
100
AcDbEntity
  8
0
100
AcDbSpline
 62
7
  6
CONTINUOUS
 70
0
 71
3
 72
23
 73
19
 74
0
 42
0.0000001
 43
0.0000001
 44
0.0000000001
 40
0.0
 40
0.0
 40
0.0
 40
0.0
 40
0.105096337
 40
0.205704863
 40
0.3007709855
 40
0.3895655268
 40
0.4716948325
 40
0.5470500378
 40
0.6157419677
 40
0.6780335892
 40
0.7342859436
 40
0.784923145
 40
0.8304144373
 40
0.8712644902
 40
0.9080196601
 40
0.9412764299
 40
0.971693878
 40
1.0
 40
1.0
 40
1.0
 40
1.0
 10
10.5175328181
 20
7.943175393
 30
0.0
 10
10.5190929572
 20
7.943067197
 30
0.0
 10
10.5221440721
 20
7.9428161117
 30
0.0
 10
10.5265932604
 20
7.9423249333
 30
0.0
 10
10.5307856519
 20
7.9417347188
 30
0.0
 10
10.5346858645
 20
7.9410560531
 30
0.0
 10
10.5382726598
 20
7.9403000616
 30
0.0
 10
10.5415371726
 20
7.9394774082
 30
0.0
 10
10.5444800167
 20
7.9385977133
 30
0.0
 10
10.5471082748
 20
7.9376692642
 30
0.0
 10
10.5494328868
 20
7.936698953
 30
0.0
 10
10.5514667238
 20
7.9356923836
 30
0.0
 10
10.5532232665
 20
7.9346540579
 30
0.0
 10
10.5547155654
 20
7.9335872264
 30
0.0
 10
10.5559558227
 20
7.9324945027
 30
0.0
 10
10.5569546913
 20
7.9313773303
 30
0.0
 10
10.5577208195
 20
7.9302375429
 30
0.0
 10
10.5580912984
 20
7.9294410108
 30
0.0
 10
10.5582349789
 20
7.9290450649
 30
0.0
  0
SPLINE
  5
2EE
100
AcDbEntity
  8
0
100
AcDbSpline
 62
7
  6
CONTINUOUS
 70
0
 71
3
 72
11
 73
7
 74
0
 42
0.0000001
 43
0.0000001
 44
0.0000000001
 40
0.0
 40
0.0
 40
0.0
 40
0.0
 40
0.2478305686
 40
0.4971020498
 40
0.747829494
 40
1.0
 40
1.0
 40
1.0
 40
1.0
 10
10.644622573
 20
6.7380076487
 30
0.0
 10
10.6369094009
 20
6.7357351939
 30
0.0
 10
10.6212741922
 20
6.7317148199
 30
0.0
 10
10.5973978096
 20
6.7272963578
 30
0.0
 10
10.5731370447
 20
6.7244914724
 30
0.0
 10
10.5568248233
 20
6.7237086425
 30
0.0
 10
10.5486439515
 20
6.7235871869
 30
0.0
  0
SPLINE
  5
2EF
100
AcDbEntity
  8
0
100
AcDbSpline
 62
7
  6
CONTINUOUS
 70
0
 71
3
 72
71
 73
67
 74
0
 42
0.0000001
 43
0.0000001
 44
0.0000000001
 40
0.0
 40
0.0
 40
0.0
 40
0.0
 40
0.0156218337
 40
0.0311906886
 40
0.0467067398
 40
0.062171075
 40
0.0775850527
 40
0.0929506342
 40
0.1082702306
 40
0.1235467319
 40
0.1387834652
 40
0.1539841695
 40
0.1691529582
 40
0.184294279
 40
0.1994128688
 40
0.2145137055
 40
0.2296019556
 40
0.24468292
 40
0.2597619775
 40
0.2748445272
 40
0.289935931
 40
0.3050414561
 40
0.3201662191
 40
0.3353151325
 40
0.3504928533
 40
0.3657037354
 40
0.380951786
 40
0.3962406266
 40
0.4115734587
 40
0.4269530343
 40
0.4423816326
 40
0.4578610411
 40
0.4733925431
 40
0.4889769099
 40
0.5046143983
 40
0.5203047537
 40
0.5360472175
 40
0.551840539
 40
0.5676829922
 40
0.5835723961
 40
0.5995061386
 40
0.6154812042
 40
0.631494204
 40
0.6475414091
 40
0.6636187862
 40
0.6797220346
 40
0.6958466259
 40
0.7119878443
 40
0.7281408288
 40
0.7443006157
 40
0.760462182
 40
0.7766204893
 40
0.7927705276
 40
0.8089073586
 40
0.8250261595
 40
0.8411222653
 40
0.8571912102
 40
0.8732287681
 40
0.8892309915
 40
0.9051942473
 40
0.9211152561
 40
0.9369911085
 40
0.9528193442
 40
0.9685978395
 40
0.9843251716
 40
1.0
 40
1.0
 40
1.0
 40
1.0
 10
10.3383090404
 20
9.2895368964
 30
0.0
 10
10.3258285827
 20
9.2904024191
 30
0.0
 10
10.3008634562
 20
9.2915230145
 30
0.0
 10
10.2634451854
 20
9.2913609635
 30
0.0
 10
10.2262056815
 20
9.2893536004
 30
0.0
 10
10.1892359433
 20
9.2855057029
 30
0.0
 10
10.1526246605
 20
9.2798263875
 30
0.0
 10
10.1164601953
 20
9.272329292
 30
0.0
 10
10.0808296896
 20
9.2630323736
 30
0.0
 10
10.0458190574
 20
9.2519579659
 30
0.0
 10
10.0115127191
 20
9.2391326811
 30
0.0
 10
9.9779934113
 20
9.2245873673
 30
0.0
 10
9.9453419826
 20
9.2083570287
 30
0.0
 10
9.9136371964
 20
9.1904807452
 30
0.0
 10
9.8829555385
 20
9.1710015782
 30
0.0
 10
9.85337103
 20
9.1499664687
 30
0.0
 10
9.8249550441
 20
9.1274261249
 30
0.0
 10
9.7977761329
 20
9.1034348976
 30
0.0
 10
9.7718998592
 20
9.0780506475
 30
0.0
 10
9.7473886363
 20
9.0513346045
 30
0.0
 10
9.7243015755
 20
9.023351218
 30
0.0
 10
9.7026943417
 20
8.994167999
 30
0.0
 10
9.6826190187
 20
8.9638553545
 30
0.0
 10
9.6641239828
 20
8.9324864153
 30
0.0
 10
9.6472537862
 20
8.9001368568
 30
0.0
 10
9.6320490504
 20
8.8668847135
 30
0.0
 10
9.6185463692
 20
8.8328101888
 30
0.0
 10
9.6067782223
 20
8.7979954593
 30
0.0
 10
9.5967728972
 20
8.7625244753
 30
0.0
 10
9.5885544223
 20
8.7264827564
 30
0.0
 10
9.5821425139
 20
8.6899571841
 30
0.0
 10
9.5775525302
 20
8.6530357913
 30
0.0
 10
9.5747954369
 20
8.6158075502
 30
0.0
 10
9.5738777835
 20
8.5783621578
 30
0.0
 10
9.5748016888
 20
8.5407898203
 30
0.0
 10
9.5775648388
 20
8.5031810367
 30
0.0
 10
9.5821604932
 20
8.4656263816
 30
0.0
 10
9.5885775036
 20
8.428216288
 30
0.0
 10
9.5968003415
 20
8.3910408312
 30
0.0
 10
9.6068091366
 20
8.3541895129
 30
0.0
 10
9.6185797261
 20
8.3177510472
 30
0.0
 10
9.6320837109
 20
8.2818131478
 30
0.0
 10
9.6472885254
 20
8.2464623177
 30
0.0
 10
9.6641575178
 20
8.2117836429
 30
0.0
 10
9.6826500378
 20
8.1778605889
 30
0.0
 10
9.7027215349
 20
8.1447748006
 30
0.0
 10
9.724323665
 20
8.1126059074
 30
0.0
 10
9.747404407
 20
8.0814313322
 30
0.0
 10
9.7719081871
 20
8.0513261066
 30
0.0
 10
9.7977760121
 20
8.0223626906
 30
0.0
 10
9.8249456115
 20
7.9946107997
 30
0.0
 10
9.8533515858
 20
7.9681372375
 30
0.0
 10
9.8829255635
 20
7.9430057355
 30
0.0
 10
9.9135963654
 20
7.9192768011
 30
0.0
 10
9.945290173
 20
7.8970075697
 30
0.0
 10
9.9779307067
 20
7.8762516689
 30
0.0
 10
10.0114394093
 20
7.8570590913
 30
0.0
 10
10.0457356336
 20
7.8394760725
 30
0.0
 10
10.0807368349
 20
7.8235449837
 30
0.0
 10
10.1163587718
 20
7.8093042215
 30
0.0
 10
10.1525156934
 20
7.7967881363
 30
0.0
 10
10.1891205987
 20
7.7860268968
 30
0.0
 10
10.2260852496
 20
7.7770465398
 30
0.0
 10
10.2633210487
 20
7.7698686466
 30
0.0
 10
10.3007370637
 20
7.7645107884
 30
0.0
 10
10.3257862447
 20
7.7621566587
 30
0.0
 10
10.3383090404
 20
7.7612881998
 30
0.0
  0
SPLINE
  5
2F0
100
AcDbEntity
  8
0
100
AcDbSpline
 62
7
  6
CONTINUOUS
 70
0
 71
3
 72
51
 73
47
 74
0
 42
0.0000001
 43
0.0000001
 44
0.0000000001
 40
0.0
 40
0.0
 40
0.0
 40
0.0
 40
0.0311429623
 40
0.0624390393
 40
0.0938821581
 40
0.1254627405
 40
0.1571685478
 40
0.1889848322
 40
0.2208946479
 40
0.2528792128
 40
0.2849182853
 40
0.3169905665
 40
0.3490741169
 40
0.3811467786
 40
0.413186604
 40
0.4451722806
 40
0.4770835444
 40
0.5089015852
 40
0.5406094235
 40
0.5721922667
 40
0.6036378301
 40
0.6349366131
 40
0.6505313541
 40
0.6660872357
 40
0.6816039492
 40
0.6970813947
 40
0.7125196809
 40
0.727919126
 40
0.7432802612
 40
0.7586038263
 40
0.7738907665
 40
0.789142231
 40
0.8043595683
 40
0.8195443173
 40
0.8346982008
 40
0.8498231194
 40
0.8649211391
 40
0.8799944797
 40
0.8950455049
 40
0.9100767091
 40
0.9250907018
 40
0.9400901927
 40
0.9550779784
 40
0.9700569243
 40
0.9850299475
 40
1.0
 40
1.0
 40
1.0
 40
1.0
 10
10.292259923
 20
7.6357473656
 30
0.0
 10
10.2716213083
 20
7.6371786584
 30
0.0
 10
10.2303320194
 20
7.6415589662
 30
0.0
 10
10.1688986841
 20
7.6525929766
 30
0.0
 10
10.1081233565
 20
7.6680484212
 30
0.0
 10
10.0483342866
 20
7.687842063
 30
0.0
 10
9.9898490649
 20
7.7118678555
 30
0.0
 10
9.9329797313
 20
7.7399973301
 30
0.0
 10
9.8780291703
 20
7.7720800552
 30
0.0
 10
9.8252902617
 20
7.8079448509
 30
0.0
 10
9.775043938
 20
7.847400249
 30
0.0
 10
9.7275579614
 20
7.8902358645
 30
0.0
 10
9.6830854005
 20
7.9362233272
 30
0.0
 10
9.6418632341
 20
7.9851174674
 30
0.0
 10
9.6041113411
 20
8.0366578033
 30
0.0
 10
9.5700309603
 20
8.0905696192
 30
0.0
 10
9.5398040548
 20
8.1465657129
 30
0.0
 10
9.5135919771
 20
8.2043477204
 30
0.0
 10
9.4915348319
 20
8.2636075788
 30
0.0
 10
9.473750692
 20
8.3240300632
 30
0.0
 10
9.4603349306
 20
8.3852908724
 30
0.0
 10
9.4528459094
 20
8.4368388598
 30
0.0
 10
9.4491079302
 20
8.4781625378
 30
0.0
 10
9.4474332589
 20
8.5091253813
 30
0.0
 10
9.4468867944
 20
8.5400503855
 30
0.0
 10
9.4474691601
 20
8.5708967604
 30
0.0
 10
9.449179656
 20
8.6016231829
 30
0.0
 10
9.4520160461
 20
8.6321886521
 30
0.0
 10
9.4559745134
 20
8.6625523424
 30
0.0
 10
9.4610497954
 20
8.6926737058
 30
0.0
 10
9.4672351917
 20
8.7225124987
 30
0.0
 10
9.4745224295
 20
8.752028868
 30
0.0
 10
9.4829017708
 20
8.7811833928
 30
0.0
 10
9.492362081
 20
8.8099371146
 30
0.0
 10
9.502890761
 20
8.8382516088
 30
0.0
 10
9.5144737156
 20
8.8660890621
 30
0.0
 10
9.5270954972
 20
8.893412278
 30
0.0
 10
9.5407393096
 20
8.9201847208
 30
0.0
 10
9.5553868977
 20
8.9463706323
 30
0.0
 10
9.5710186883
 20
8.9719350314
 30
0.0
 10
9.5876138437
 20
8.9968437283
 30
0.0
 10
9.6051502104
 20
9.0210634372
 30
0.0
 10
9.6236042939
 20
9.0445617883
 30
0.0
 10
9.6429515699
 20
9.0673074837
 30
0.0
 10
9.6631657996
 20
9.0892696681
 30
0.0
 10
9.6772034164
 20
9.1033707582
 30
0.0
 10
9.684356087
 20
9.110279715
 30
0.0
  0
SPLINE
  5
2F1
100
AcDbEntity
  8
0
100
AcDbSpline
 62
7
  6
CONTINUOUS
 70
0
 71
3
 72
25
 73
21
 74
0
 42
0.0000001
 43
0.0000001
 44
0.0000000001
 40
0.0
 40
0.0
 40
0.0
 40
0.0
 40
0.0616475282
 40
0.0924812782
 40
0.1233236452
 40
0.1850399949
 40
0.2468243989
 40
0.277751634
 40
0.3087038677
 40
0.3706878948
 40
0.4328012861
 40
0.4950619216
 40
0.5574860801
 40
0.6200882709
 40
0.6828811113
 40
0.7458751472
 40
0.8090789555
 40
0.8724985283
 40
0.936138578
 40
1.0
 40
1.0
 40
1.0
 40
1.0
 10
10.8025525389
 20
6.231361236
 30
0.0
 10
10.7943099205
 20
6.2233994562
 30
0.0
 10
10.7816199686
 20
6.2117848794
 30
0.0
 10
10.7640969788
 20
6.1969997223
 30
0.0
 10
10.7461728536
 20
6.1826820798
 30
0.0
 10
10.7230405519
 20
6.1656837983
 30
0.0
 10
10.699017498
 20
6.1499407645
 30
0.0
 10
10.6792983879
 20
6.1381197216
 30
0.0
 10
10.659238637
 20
6.1268107603
 30
0.0
 10
10.6335718941
 20
6.1136641655
 30
0.0
 10
10.6019291794
 20
6.0995229815
 30
0.0
 10
10.5695069699
 20
6.0870434474
 30
0.0
 10
10.5363874917
 20
6.076257231
 30
0.0
 10
10.5026540289
 20
6.067191326
 30
0.0
 10
10.468391594
 20
6.0598685051
 30
0.0
 10
10.433686424
 20
6.0543070858
 30
0.0
 10
10.3986260207
 20
6.0505210159
 30
0.0
 10
10.3632982546
 20
6.0485196713
 30
0.0
 10
10.3277932978
 20
6.0483080207
 30
0.0
 10
10.3041029899
 20
6.0493586457
 30
0.0
 10
10.292259923
 20
6.0501799652
 30
0.0
  0
SPLINE
  5
2F2
100
AcDbEntity
  8
0
100
AcDbSpline
 62
7
  6
CONTINUOUS
 70
0
 71
3
 72
24
 73
20
 74
0
 42
0.0000001
 43
0.0000001
 44
0.0000000001
 40
0.0
 40
0.0
 40
0.0
 40
0.0
 40
0.0616347866
 40
0.1232991465
 40
0.1850147778
 40
0.2468028311
 40
0.2777330613
 40
0.3086889587
 40
0.3706820101
 40
0.4328054692
 40
0.4950761791
 40
0.5575094494
 40
0.6201189052
 40
0.6829163845
 40
0.7459117462
 40
0.8091130805
 40
0.8725257828
 40
0.9361547041
 40
1.0
 40
1.0
 40
1.0
 40
1.0
 10
10.8024818424
 20
6.2314370374
 30
0.0
 10
10.7942720148
 20
6.2237878007
 30
0.0
 10
10.7774421033
 20
6.2089152084
 30
0.0
 10
10.7510520594
 20
6.1879597831
 30
0.0
 10
10.7235746623
 20
6.1684029333
 30
0.0
 10
10.6998334007
 20
6.1533153957
 30
0.0
 10
10.6803695342
 20
6.1419920807
 30
0.0
 10
10.6605840015
 20
6.1311627387
 30
0.0
 10
10.6352952952
 20
6.1185805089
 30
0.0
 10
10.6041575219
 20
6.105056341
 30
0.0
 10
10.5722871535
 20
6.0931309405
 30
0.0
 10
10.5397616626
 20
6.0828333147
 30
0.0
 10
10.5066594488
 20
6.0741881622
 30
0.0
 10
10.4730604769
 20
6.0672163017
 30
0.0
 10
10.4390458002
 20
6.0619344381
 30
0.0
 10
10.4046976486
 20
6.0583552966
 30
0.0
 10
10.3700984848
 20
6.0564873248
 30
0.0
 10
10.3353330288
 20
6.0563350373
 30
0.0
 10
10.3121377697
 20
6.0573757986
 30
0.0
 10
10.3005421258
 20
6.0581799592
 30
0.0
  0
SPLINE
  5
2F3
100
AcDbEntity
  8
0
100
AcDbSpline
 62
7
  6
CONTINUOUS
 70
0
 71
3
 72
39
 73
35
 74
0
 42
0.0000001
 43
0.0000001
 44
0.0000000001
 40
0.0
 40
0.0
 40
0.0
 40
0.0
 40
0.0318713778
 40
0.0636346415
 40
0.0952913688
 40
0.1268441849
 40
0.1582967459
 40
0.1896537128
 40
0.2209207132
 40
0.2521042936
 40
0.2832118606
 40
0.3142516099
 40
0.3452324462
 40
0.3761638936
 40
0.4070559978
 40
0.4379192223
 40
0.4687643386
 40
0.4996023123
 40
0.5304441856
 40
0.561300959
 40
0.5921834733
 40
0.6231022946
 40
0.6540676022
 40
0.6850890837
 40
0.7161758349
 40
0.7473362691
 40
0.778578032
 40
0.8099079308
 40
0.8413318732
 40
0.8728547785
 40
0.904480722
 40
0.9362122535
 40
0.968052175
 40
1.0
 40
1.0
 40
1.0
 40
1.0
 10
10.8559495089
 20
6.7291353621
 30
0.0
 10
10.8559495166
 20
6.7200638978
 30
0.0
 10
10.8555056157
 20
6.7019485229
 30
0.0
 10
10.8535016205
 20
6.6748895171
 30
0.0
 10
10.8501653815
 20
6.6480528696
 30
0.0
 10
10.8455048729
 20
6.6215041047
 30
0.0
 10
10.8395312569
 20
6.5953069807
 30
0.0
 10
10.8322588607
 20
6.569524709
 30
0.0
 10
10.8237051395
 20
6.5442194376
 30
0.0
 10
10.8138906567
 20
6.5194521909
 30
0.0
 10
10.8028390291
 20
6.495282695
 30
0.0
 10
10.7905768574
 20
6.4717692443
 30
0.0
 10
10.7771336669
 20
6.4489685579
 30
0.0
 10
10.7625418373
 20
6.4269356422
 30
0.0
 10
10.7468365238
 20
6.4057236579
 30
0.0
 10
10.730055579
 20
6.3853837867
 30
0.0
 10
10.7122394735
 20
6.3659650926
 30
0.0
 10
10.6934311766
 20
6.3475144167
 30
0.0
 10
10.6736760548
 20
6.3300762619
 30
0.0
 10
10.6530217613
 20
6.3136926852
 30
0.0
 10
10.6315181201
 20
6.2984031949
 30
0.0
 10
10.6092170036
 20
6.284244658
 30
0.0
 10
10.5861722189
 20
6.2712511888
 30
0.0
 10
10.5624393641
 20
6.2594540804
 30
0.0
 10
10.5380756894
 20
6.2488817352
 30
0.0
 10
10.5131399584
 20
6.2395595976
 30
0.0
 10
10.4876923066
 20
6.2315100921
 30
0.0
 10
10.4617940923
 20
6.224752573
 30
0.0
 10
10.4355077664
 20
6.2193032792
 30
0.0
 10
10.4088966587
 20
6.2151752365
 30
0.0
 10
10.382025042
 20
6.2123783974
 30
0.0
 10
10.3549572694
 20
6.2109192943
 30
0.0
 10
10.3277596182
 20
6.2108015392
 30
0.0
 10
10.309613561
 20
6.2116160315
 30
0.0
 10
10.3005421258
 20
6.2122451377
 30
0.0
  0
SPLINE
  5
2F4
100
AcDbEntity
  8
0
100
AcDbSpline
 62
7
  6
CONTINUOUS
 70
0
 71
3
 72
39
 73
35
 74
0
 42
0.0000001
 43
0.0000001
 44
0.0000000001
 40
0.0
 40
0.0
 40
0.0
 40
0.0
 40
0.0317460813
 40
0.0633912641
 40
0.0949383062
 40
0.1263908541
 40
0.1577534211
 40
0.189031355
 40
0.2202307925
 40
0.2513586073
 40
0.2824223493
 40
0.3134301806
 40
0.3443908007
 40
0.3753133644
 40
0.4062073938
 40
0.4370826868
 40
0.4679492244
 40
0.4988170741
 40
0.5296962912
 40
0.5605968192
 40
0.5915283931
 40
0.6225004466
 40
0.6535220237
 40
0.684601692
 40
0.7157474624
 40
0.7469667153
 40
0.7782661338
 40
0.8096516604
 40
0.8411284171
 40
0.8727006962
 40
0.9043720184
 40
0.9361444309
 40
0.9680208504
 40
1.0
 40
1.0
 40
1.0
 40
1.0
 10
10.8546303186
 20
6.7291985236
 30
0.0
 10
10.854053295
 20
6.7211553032
 30
0.0
 10
10.8525213025
 20
6.7051190095
 30
0.0
 10
10.8490862561
 20
6.6812405947
 30
0.0
 10
10.844525098
 20
6.6576267607
 30
0.0
 10
10.8388478357
 20
6.6343300858
 30
0.0
 10
10.8320668819
 20
6.6114015606
 30
0.0
 10
10.8241971096
 20
6.5888916059
 30
0.0
 10
10.8152557635
 20
6.5668496694
 30
0.0
 10
10.8052624402
 20
6.5453241982
 30
0.0
 10
10.7942390377
 20
6.5243625152
 30
0.0
 10
10.7822097655
 20
6.50401069
 30
0.0
 10
10.7692010435
 20
6.4843134528
 30
0.0
 10
10.755241438
 20
6.4653141041
 30
0.0
 10
10.7403616013
 20
6.4470544195
 30
0.0
 10
10.724594211
 20
6.4295745554
 30
0.0
 10
10.7079739369
 20
6.4129129208
 30
0.0
 10
10.6905373133
 20
6.3971061313
 30
0.0
 10
10.6723226655
 20
6.3821889263
 30
0.0
 10
10.653370021
 20
6.3681940999
 30
0.0
 10
10.6337210404
 20
6.3551524074
 30
0.0
 10
10.6134189345
 20
6.3430924713
 30
0.0
 10
10.5925083348
 20
6.3320407666
 30
0.0
 10
10.5710352032
 20
6.3220215529
 30
0.0
 10
10.5490467276
 20
6.3130568349
 30
0.0
 10
10.5265912377
 20
6.3051662709
 30
0.0
 10
10.5037180883
 20
6.2983671311
 30
0.0
 10
10.4804775367
 20
6.2926743087
 30
0.0
 10
10.4569206444
 20
6.2881002647
 30
0.0
 10
10.433099118
 20
6.2846550076
 30
0.0
 10
10.4090654204
 20
6.2823461037
 30
0.0
 10
10.3848719196
 20
6.2811784066
 30
0.0
 10
10.3605727077
 20
6.2811546399
 30
0.0
 10
10.3443627549
 20
6.2819001529
 30
0.0
 10
10.3362591246
 20
6.2824621416
 30
0.0
  0
SPLINE
  5
2F5
100
AcDbEntity
  8
0
100
AcDbSpline
 62
7
  6
CONTINUOUS
 70
0
 71
3
 72
23
 73
19
 74
0
 42
0.0000001
 43
0.0000001
 44
0.0000000001
 40
0.0
 40
0.0
 40
0.0
 40
0.0
 40
0.0616482073
 40
0.123319441
 40
0.1850364722
 40
0.2468215609
 40
0.3086962089
 40
0.3706809247
 40
0.4327950044
 40
0.4950563302
 40
0.5574811788
 40
0.6200840686
 40
0.6828776081
 40
0.745872322
 40
0.8090769389
 40
0.8724968681
 40
0.9361383341
 40
1.0
 40
1.0
 40
1.0
 40
1.0
 10
10.6891142162
 20
6.4617235038
 30
0.0
 10
10.6836154159
 20
6.456412052
 30
0.0
 10
10.6723276195
 20
6.4460808816
 30
0.0
 10
10.6545841382
 20
6.4315134989
 30
0.0
 10
10.6360701559
 20
6.4179090045
 30
0.0
 10
10.6168329663
 20
6.4053022589
 30
0.0
 10
10.5969208753
 20
6.3937248545
 30
0.0
 10
10.5763841176
 20
6.3832059635
 30
0.0
 10
10.5552744393
 20
6.3737720254
 30
0.0
 10
10.5336450358
 20
6.3654467593
 30
0.0
 10
10.5115503991
 20
6.3582510831
 30
0.0
 10
10.489046183
 20
6.3522030692
 30
0.0
 10
10.4661890749
 20
6.3473179094
 30
0.0
 10
10.4430366017
 20
6.3436078021
 30
0.0
 10
10.4196471881
 20
6.3410820905
 30
0.0
 10
10.3960793271
 20
6.3397469214
 30
0.0
 10
10.3723933274
 20
6.3396057706
 30
0.0
 10
10.3565890552
 20
6.3403066416
 30
0.0
 10
10.3486883843
 20
6.340854555
 30
0.0
  0
SPLINE
  5
2F6
100
AcDbEntity
  8
0
100
AcDbSpline
 62
7
  6
CONTINUOUS
 70
0
 71
3
 72
15
 73
11
 74
0
 42
0.0000001
 43
0.0000001
 44
0.0000000001
 40
0.0
 40
0.0
 40
0.0
 40
0.0
 40
0.1233864526
 40
0.2471489831
 40
0.3713402085
 40
0.4960051563
 40
0.6211803873
 40
0.7468940145
 40
0.8731637381
 40
1.0
 40
1.0
 40
1.0
 40
1.0
 10
10.7685528342
 20
6.566272821
 30
0.0
 10
10.7596916064
 20
6.5618609804
 30
0.0
 10
10.7416337993
 20
6.5536284455
 30
0.0
 10
10.7137300369
 20
6.5431318962
 30
0.0
 10
10.6850825315
 20
6.5345112678
 30
0.0
 10
10.6558122049
 20
6.5278030823
 30
0.0
 10
10.6260405802
 20
6.5230347903
 30
0.0
 10
10.5958912911
 20
6.5202261498
 30
0.0
 10
10.5654913111
 20
6.5193884141
 30
0.0
 10
10.5451831417
 20
6.5201446793
 30
0.0
 10
10.5350319872
 20
6.5208486643
 30
0.0
  0
SPLINE
  5
2F7
100
AcDbEntity
  8
0
100
AcDbSpline
 62
7
  6
CONTINUOUS
 70
0
 71
3
 72
42
 73
38
 74
0
 42
0.0000001
 43
0.0000001
 44
0.0000000001
 40
0.0
 40
0.0
 40
0.0
 40
0.0
 40
0.0149584737
 40
0.0299260704
 40
0.0449054426
 40
0.0598991769
 40
0.0749097801
 40
0.0899396695
 40
0.1200612168
 40
0.1502861023
 40
0.1806291348
 40
0.2111026205
 40
0.2417161364
 40
0.2724763656
 40
0.3033870047
 40
0.3344487331
 40
0.3656592412
 40
0.3970133172
 40
0.42850299
 40
0.4601177159
 40
0.4918446048
 40
0.5236686865
 40
0.5555732066
 40
0.587539945
 40
0.6195495541
 40
0.6515819148
 40
0.6836164989
 40
0.7156327387
 40
0.7476103958
 40
0.7795299261
 40
0.8113728362
 40
0.8431220281
 40
0.8747621204
 40
0.906279749
 40
0.937663882
 40
0.9689057418
 40
1.0
 40
1.0
 40
1.0
 40
1.0
 10
10.0179014447
 20
9.2343504132
 30
0.0
 10
10.0126169308
 20
9.2282578126
 30
0.0
 10
10.002273773
 20
9.2158679968
 30
0.0
 10
9.9874662914
 20
9.1967055706
 30
0.0
 10
9.9733795282
 20
9.1769834463
 30
0.0
 10
9.9600314269
 20
9.156726547
 30
0.0
 10
9.9474382392
 20
9.1359596403
 30
0.0
 10
9.9316653308
 20
9.1076082986
 30
0.0
 10
9.9139094644
 20
9.0710063364
 30
0.0
 10
9.8958721372
 20
9.0255113774
 30
0.0
 10
9.8811739249
 20
8.9786307335
 30
0.0
 10
9.8698884447
 20
8.9305993824
 30
0.0
 10
9.8620711268
 20
8.8816559466
 30
0.0
 10
9.8577603367
 20
8.8320440206
 30
0.0
 10
9.8569769465
 20
8.7820102467
 30
0.0
 10
9.8597243819
 20
8.731803292
 30
0.0
 10
9.8659885005
 20
8.6816725756
 30
0.0
 10
9.8757376823
 20
8.6318670383
 30
0.0
 10
9.8889231045
 20
8.5826339293
 30
0.0
 10
9.9054789794
 20
8.5342176105
 30
0.0
 10
9.9253227568
 20
8.4868583139
 30
0.0
 10
9.948355654
 20
8.4407909903
 30
0.0
 10
9.9744631724
 20
8.3962441825
 30
0.0
 10
10.003515602
 20
8.3534388819
 30
0.0
 10
10.0353686165
 20
8.312587401
 30
0.0
 10
10.0698640917
 20
8.2738923986
 30
0.0
 10
10.1068308714
 20
8.237545898
 30
0.0
 10
10.1460855153
 20
8.2037282516
 30
0.0
 10
10.1874332647
 20
8.1726072998
 30
0.0
 10
10.2306690284
 20
8.1443375935
 30
0.0
 10
10.2755783632
 20
8.1190596072
 30
0.0
 10
10.3219384509
 20
8.0968989515
 30
0.0
 10
10.3695193683
 20
8.0779658638
 30
0.0
 10
10.4180848348
 20
8.0623546778
 30
0.0
 10
10.4673946274
 20
8.0501432658
 30
0.0
 10
10.5172008338
 20
8.0413926949
 30
0.0
 10
10.550659532
 20
8.0378866455
 30
0.0
 10
10.5673843315
 20
8.0367267767
 30
0.0
  0
SPLINE
  5
2F8
100
AcDbEntity
  8
0
100
AcDbSpline
 62
7
  6
CONTINUOUS
 70
0
 71
3
 72
48
 73
44
 74
0
 42
0.0000001
 43
0.0000001
 44
0.0000000001
 40
0.0
 40
0.0
 40
0.0
 40
0.0
 40
0.0149666948
 40
0.029937667
 40
0.0449158135
 40
0.0599039873
 40
0.0749049843
 40
0.0899215266
 40
0.104956244
 40
0.1200116627
 40
0.1350901907
 40
0.1501941013
 40
0.1653255242
 40
0.1804864349
 40
0.1956786392
 40
0.2109037697
 40
0.2261632769
 40
0.2414584178
 40
0.2567902562
 40
0.2721596567
 40
0.3030084085
 40
0.3340127285
 40
0.3651721382
 40
0.3964829306
 40
0.4279382937
 40
0.4595284865
 40
0.4912410755
 40
0.5230612123
 40
0.5549719462
 40
0.5869545727
 40
0.6189890067
 40
0.6510541728
 40
0.6831284103
 40
0.7151898861
 40
0.74721701
 40
0.7791888461
 40
0.8110855153
 40
0.8428885847
 40
0.8745814362
 40
0.9061496088
 40
0.9375811328
 40
0.9688665372
 40
1.0
 40
1.0
 40
1.0
 40
1.0
 10
9.7820402224
 20
7.2878700673
 30
0.0
 10
9.7761834666
 20
7.2820053551
 30
0.0
 10
9.7646952041
 20
7.2700450865
 30
0.0
 10
9.7481705757
 20
7.2514457836
 30
0.0
 10
9.732372918
 20
7.2322092966
 30
0.0
 10
9.717323384
 20
7.2123613211
 30
0.0
 10
9.7030416321
 20
7.1919279547
 30
0.0
 10
9.6895465542
 20
7.1709360922
 30
0.0
 10
9.676855905
 20
7.1494133862
 30
0.0
 10
9.6649863251
 20
7.1273882243
 30
0.0
 10
9.6539535106
 20
7.1048895751
 30
0.0
 10
9.6437719584
 20
7.0819470868
 30
0.0
 10
9.6344550035
 20
7.0585909995
 30
0.0
 10
9.6260149846
 20
7.0348520397
 30
0.0
 10
9.6184629635
 20
7.0107614846
 30
0.0
 10
9.6118088171
 20
6.9863510788
 30
0.0
 10
9.6060613797
 20
6.9616529097
 30
0.0
 10
9.6012281509
 20
6.9366996293
 30
0.0
 10
9.5973154293
 20
6.9115236579
 30
0.0
 10
9.5933281814
 20
6.8776657957
 30
0.0
 10
9.5906762284
 20
6.8349416019
 30
0.0
 10
9.5912351218
 20
6.7833917718
 30
0.0
 10
9.5955265769
 20
6.7317603061
 30
0.0
 10
9.6035277461
 20
6.6803206001
 30
0.0
 10
9.6151960359
 20
6.6293426092
 30
0.0
 10
9.6304695944
 20
6.5790943846
 30
0.0
 10
9.6492677144
 20
6.5298399036
 30
0.0
 10
9.6714913254
 20
6.4818379549
 30
0.0
 10
9.6970233152
 20
6.4353406585
 30
0.0
 10
9.72572928
 20
6.3905922114
 30
0.0
 10
9.7574582929
 20
6.3478276784
 30
0.0
 10
9.7920435284
 20
6.3072716692
 30
0.0
 10
9.8293031983
 20
6.2691371925
 30
0.0
 10
9.8690415904
 20
6.2336246469
 30
0.0
 10
9.9110499637
 20
6.2009206722
 30
0.0
 10
9.9551076412
 20
6.1711971527
 30
0.0
 10
10.0009832644
 20
6.1446104625
 30
0.0
 10
10.0484358815
 20
6.1213005602
 30
0.0
 10
10.0972162864
 20
6.1013901629
 30
0.0
 10
10.1470679931
 20
6.0849842928
 30
0.0
 10
10.1977299501
 20
6.0721696536
 30
0.0
 10
10.2489324427
 20
6.063014105
 30
0.0
 10
10.2833421918
 20
6.0593727787
 30
0.0
 10
10.3005421258
 20
6.0581799592
 30
0.0
  0
SPLINE
  5
2F9
100
AcDbEntity
  8
0
100
AcDbSpline
 62
7
  6
CONTINUOUS
 70
0
 71
3
 72
69
 73
65
 74
0
 42
0.0000001
 43
0.0000001
 44
0.0000000001
 40
0.0
 40
0.0
 40
0.0
 40
0.0
 40
0.0155854297
 40
0.0311179467
 40
0.0465991033
 40
0.0620299224
 40
0.0774121712
 40
0.0927480579
 40
0.1080402417
 40
0.1232918267
 40
0.1385063213
 40
0.1536876112
 40
0.1688399208
 40
0.183967773
 40
0.199075944
 40
0.2141694139
 40
0.2292533164
 40
0.2443328845
 40
0.2594133965
 40
0.2745001209
 40
0.2895982616
 40
0.3047129033
 40
0.3198489592
 40
0.3350111201
 40
0.3502038073
 40
0.3654311285
 40
0.380696839
 40
0.3960043059
 40
0.4113564772
 40
0.4267558561
 40
0.4422044798
 40
0.4577039042
 40
0.473255194
 40
0.4888589178
 40
0.5045151474
 40
0.5202234613
 40
0.5359829537
 40
0.5517922476
 40
0.5676495121
 40
0.5835524837
 40
0.5994984898
 40
0.6154844752
 40
0.6315070321
 40
0.647562432
 40
0.6636466615
 40
0.6797554581
 40
0.7120203577
 40
0.7443278712
 40
0.7604895535
 40
0.7766471893
 40
0.792795887
 40
0.8089308308
 40
0.8250473221
 40
0.8411408202
 40
0.8572069827
 40
0.8732417035
 40
0.8892411485
 40
0.9052017927
 40
0.9211204518
 40
0.9369942999
 40
0.952820984
 40
0.9685983216
 40
0.9843252504
 40
1.0
 40
1.0
 40
1.0
 40
1.0
 10
10.2812891941
 20
7.3240612651
 30
0.0
 10
10.2723227839
 20
7.3243720938
 30
0.0
 10
10.2544022504
 20
7.3245588886
 30
0.0
 10
10.2275869514
 20
7.3235270886
 30
0.0
 10
10.200942742
 20
7.3211855683
 30
0.0
 10
10.174532893
 20
7.3175395824
 30
0.0
 10
10.1484195367
 20
7.3125977255
 30
0.0
 10
10.122664273
 20
7.3063715834
 30
0.0
 10
10.0973278138
 20
7.2988757753
 30
0.0
 10
10.0724699127
 20
7.2901279216
 30
0.0
 10
10.048149198
 20
7.2801485899
 30
0.0
 10
10.0244230449
 20
7.2689612557
 30
0.0
 10
10.00134743
 20
7.2565922575
 30
0.0
 10
9.9789767904
 20
7.243070745
 30
0.0
 10
9.9573639055
 20
7.2284285865
 30
0.0
 10
9.9365597701
 20
7.2127002988
 30
0.0
 10
9.9166134726
 20
7.1959229657
 30
0.0
 10
9.8975720813
 20
7.1781361485
 30
0.0
 10
9.8794805226
 20
7.1593818026
 30
0.0
 10
9.8623814617
 20
7.1397041849
 30
0.0
 10
9.8463152208
 20
7.1191497265
 30
0.0
 10
9.8313196802
 20
7.0977669268
 30
0.0
 10
9.8174301899
 20
7.0756062369
 30
0.0
 10
9.8046794887
 20
7.0527199391
 30
0.0
 10
9.7930976181
 20
7.0291620284
 30
0.0
 10
9.7827118357
 20
7.0049880882
 30
0.0
 10
9.7735465781
 20
6.9802551432
 30
0.0
 10
9.7656233998
 20
6.9550215268
 30
0.0
 10
9.7589609259
 20
6.9293467433
 30
0.0
 10
9.7535748109
 20
6.903291327
 30
0.0
 10
9.7494776951
 20
6.876916703
 30
0.0
 10
9.7466791572
 20
6.8502850425
 30
0.0
 10
9.7451857223
 20
6.8234591092
 30
0.0
 10
9.7450008444
 20
6.796502114
 30
0.0
 10
9.7461249
 20
6.7694775668
 30
0.0
 10
9.7485551901
 20
6.7424491296
 30
0.0
 10
9.7522859399
 20
6.7154804673
 30
0.0
 10
9.7573082937
 20
6.6886350941
 30
0.0
 10
9.7636103658
 20
6.6619762263
 30
0.0
 10
9.7711772649
 20
6.6355666363
 30
0.0
 10
9.7799911331
 20
6.6094685021
 30
0.0
 10
9.7900311767
 20
6.5837432802
 30
0.0
 10
9.8012737561
 20
6.558451499
 30
0.0
 10
9.8136922471
 20
6.5336528383
 30
0.0
 10
9.8272577865
 20
6.5094051324
 30
0.0
 10
9.8468386387
 20
6.4778742198
 30
0.0
 10
9.8740162483
 20
6.4401277736
 30
0.0
 10
9.9045210256
 20
6.4049757137
 30
0.0
 10
9.9307619448
 20
6.3785893886
 30
0.0
 10
9.9513190154
 20
6.3597104277
 30
0.0
 10
9.972698379
 20
6.3417927487
 30
0.0
 10
9.9948501506
 20
6.3248780242
 30
0.0
 10
10.017722073
 20
6.3090062396
 30
0.0
 10
10.0412603299
 20
6.2942147323
 30
0.0
 10
10.065409502
 20
6.2805383523
 30
0.0
 10
10.0901127447
 20
6.2680093207
 30
0.0
 10
10.115311907
 20
6.2566571689
 30
0.0
 10
10.140947672
 20
6.2465086659
 30
0.0
 10
10.1669596814
 20
6.2375877672
 30
0.0
 10
10.1932867242
 20
6.2299154763
 30
0.0
 10
10.2198666837
 20
6.2235099935
 30
0.0
 10
10.24663736
 20
6.2183862579
 30
0.0
 10
10.2735346824
 20
6.2145567048
 30
0.0
 10
10.2915405328
 20
6.2128694003
 30
0.0
 10
10.3005421258
 20
6.2122451377
 30
0.0
  0
SPLINE
  5
2FA
100
AcDbEntity
  8
0
100
AcDbSpline
 62
7
  6
CONTINUOUS
 70
0
 71
3
 72
71
 73
67
 74
0
 42
0.0000001
 43
0.0000001
 44
0.0000000001
 40
0.0
 40
0.0
 40
0.0
 40
0.0
 40
0.0155477386
 40
0.0310442847
 40
0.0464906817
 40
0.0618883938
 40
0.0772394683
 40
0.0925463422
 40
0.1078119019
 40
0.1230394356
 40
0.1382326085
 40
0.153395429
 40
0.1685322091
 40
0.1836475234
 40
0.198746164
 40
0.2138330931
 40
0.2289133931
 40
0.2439922139
 40
0.2590747202
 40
0.2741660386
 40
0.2892712057
 40
0.3043951176
 40
0.3195424799
 40
0.3347177608
 40
0.3499251471
 40
0.3651685036
 40
0.3804513386
 40
0.3957767711
 40
0.4111475039
 40
0.4265657998
 40
0.4420334638
 40
0.4575518314
 40
0.473121761
 40
0.4887436299
 40
0.5044173354
 40
0.5201422995
 40
0.5359174797
 40
0.551741384
 40
0.5676120874
 40
0.5835272525
 40
0.5994841526
 40
0.6154796988
 40
0.6315104706
 40
0.647572747
 40
0.6636625389
 40
0.6797756244
 40
0.6959075849
 40
0.7120538446
 40
0.7282097089
 40
0.7443704025
 40
0.7605311096
 40
0.7766870137
 40
0.7928333392
 40
0.8089653908
 40
0.8250785922
 40
0.8411685242
 40
0.8572309632
 40
0.873261919
 40
0.8892576678
 40
0.9052147901
 40
0.9211301929
 40
0.9370011393
 40
0.9528253483
 40
0.9686006702
 40
0.9843261874
 40
1.0
 40
1.0
 40
1.0
 40
1.0
 10
10.3005354915
 20
7.3230910151
 30
0.0
 10
10.2922525844
 20
7.3230947181
 30
0.0
 10
10.2757110277
 20
7.3227037485
 30
0.0
 10
10.2509987785
 20
7.3209164939
 30
0.0
 10
10.2264820239
 20
7.3179335125
 30
0.0
 10
10.2022180732
 20
7.313761584
 30
0.0
 10
10.1782626921
 20
7.3084103153
 30
0.0
 10
10.1546711694
 20
7.3018919582
 30
0.0
 10
10.1314979183
 20
7.2942214844
 30
0.0
 10
10.1087963968
 20
7.2854165485
 30
0.0
 10
10.0866189761
 20
7.2754974264
 30
0.0
 10
10.065016828
 20
7.2644869603
 30
0.0
 10
10.0440398045
 20
7.2524105115
 30
0.0
 10
10.0237363278
 20
7.2392958962
 30
0.0
 10
10.0041532551
 20
7.2251733567
 30
0.0
 10
9.9853357726
 20
7.2100754761
 30
0.0
 10
9.9673273048
 20
7.194037083
 30
0.0
 10
9.9501694104
 20
7.177095178
 30
0.0
 10
9.9339016914
 20
7.1592888432
 30
0.0
 10
9.9185616843
 20
7.1406591694
 30
0.0
 10
9.904184757
 20
7.1212491658
 30
0.0
 10
9.8908040583
 20
7.1011036323
 30
0.0
 10
9.878450436
 20
7.0802690614
 30
0.0
 10
9.8671523697
 20
7.058793529
 30
0.0
 10
9.8569359013
 20
7.0367265878
 30
0.0
 10
9.8478245384
 20
7.0141191656
 30
0.0
 10
9.8398392425
 20
6.9910234239
 30
0.0
 10
9.8329983795
 20
6.9674926399
 30
0.0
 10
9.8273176787
 20
6.9435810844
 30
0.0
 10
9.8228102034
 20
6.919343898
 30
0.0
 10
9.8194862762
 20
6.8948369718
 30
0.0
 10
9.8173534904
 20
6.8701168073
 30
0.0
 10
9.8164167034
 20
6.8452403862
 30
0.0
 10
9.816678023
 20
6.8202650413
 30
0.0
 10
9.8181368113
 20
6.7952483276
 30
0.0
 10
9.8207896505
 20
6.7702478896
 30
0.0
 10
9.824630361
 20
6.7453213244
 30
0.0
 10
9.8296500433
 20
6.7205260523
 30
0.0
 10
9.8358370916
 20
6.6959191859
 30
0.0
 10
9.8431772269
 20
6.6715574038
 30
0.0
 10
9.8516535104
 20
6.6474968163
 30
0.0
 10
9.8612463653
 20
6.6237928278
 30
0.0
 10
9.8719336619
 20
6.6005000212
 30
0.0
 10
9.8836907605
 20
6.5776720322
 30
0.0
 10
9.8964905701
 20
6.5553614302
 30
0.0
 10
9.9103036064
 20
6.5336195974
 30
0.0
 10
9.9250980264
 20
6.512496589
 30
0.0
 10
9.9408397408
 20
6.4920410385
 30
0.0
 10
9.9574924894
 20
6.4723000475
 30
0.0
 10
9.9750179227
 20
6.4533190785
 30
0.0
 10
9.9933756923
 20
6.4351418568
 30
0.0
 10
10.0125235129
 20
6.4178102381
 30
0.0
 10
10.0324172832
 20
6.4013641313
 30
0.0
 10
10.053011194
 20
6.3858414165
 30
0.0
 10
10.0742578284
 20
6.371277856
 30
0.0
 10
10.0961082738
 20
6.35770702
 30
0.0
 10
10.1185122152
 20
6.3451601811
 30
0.0
 10
10.1414180561
 20
6.3336662442
 30
0.0
 10
10.1647730515
 20
6.3232517022
 30
0.0
 10
10.188523424
 20
6.3139405756
 30
0.0
 10
10.2126144767
 20
6.3057543623
 30
0.0
 10
10.2369907644
 20
6.2987119379
 30
0.0
 10
10.2615960098
 20
6.2928296379
 30
0.0
 10
10.2863739274
 20
6.2881208488
 30
0.0
 10
10.3112664656
 20
6.2845967975
 30
0.0
 10
10.3279290594
 20
6.2830398336
 30
0.0
 10
10.3362591246
 20
6.2824621416
 30
0.0
  0
SPLINE
  5
2FB
100
AcDbEntity
  8
0
100
AcDbSpline
 62
7
  6
CONTINUOUS
 70
0
 71
3
 72
39
 73
35
 74
0
 42
0.0000001
 43
0.0000001
 44
0.0000000001
 40
0.0
 40
0.0
 40
0.0
 40
0.0
 40
0.0299393047
 40
0.05990228
 40
0.0899120367
 40
0.1199905832
 40
0.1501583158
 40
0.1804335574
 40
0.2108321569
 40
0.2413671578
 40
0.2720485411
 40
0.3028830449
 40
0.3338740658
 40
0.3650216369
 40
0.3963224771
 40
0.4277701073
 40
0.4593550271
 40
0.4910649495
 40
0.5228850815
 40
0.5547984436
 40
0.5867862232
 40
0.6188281555
 40
0.6509029261
 40
0.6829885862
 40
0.7150629768
 40
0.7471041562
 40
0.7790908243
 40
0.811002739
 40
0.8428211161
 40
0.8745290101
 40
0.9061116563
 40
0.9375568916
 40
0.9688549523
 40
1.0
 40
1.0
 40
1.0
 40
1.0
 10
10.0082625524
 20
7.166592972
 30
0.0
 10
10.0002523083
 20
7.1588556434
 30
0.0
 10
9.9848253885
 20
7.1427396287
 30
0.0
 10
9.9636384362
 20
7.1168186219
 30
0.0
 10
9.9445079468
 20
7.0892793614
 30
0.0
 10
9.927538131
 20
7.0602712174
 30
0.0
 10
9.9128190514
 20
7.029949066
 30
0.0
 10
9.9004292902
 20
6.9984754117
 30
0.0
 10
9.8904347317
 20
6.9660186749
 30
0.0
 10
9.8828884472
 20
6.9327524965
 30
0.0
 10
9.8778303831
 20
6.8988547409
 30
0.0
 10
9.875287125
 20
6.864506564
 30
0.0
 10
9.8752718197
 20
6.8298914255
 30
0.0
 10
9.8777841401
 20
6.7951941161
 30
0.0
 10
9.8828103032
 20
6.7605997824
 30
0.0
 10
9.8903231544
 20
6.7262929537
 30
0.0
 10
9.9002822724
 20
6.6924565564
 30
0.0
 10
9.9126342537
 20
6.6592709587
 30
0.0
 10
9.9273129969
 20
6.6269130253
 30
0.0
 10
9.9442400624
 20
6.5955551926
 30
0.0
 10
9.9633250684
 20
6.5653645549
 30
0.0
 10
9.9844661492
 20
6.5365019646
 30
0.0
 10
10.0075505437
 20
6.5091212127
 30
0.0
 10
10.0324551797
 20
6.4833682147
 30
0.0
 10
10.0590473298
 20
6.4593802523
 30
0.0
 10
10.0871852808
 20
6.4372852175
 30
0.0
 10
10.1167190886
 20
6.4172009354
 30
0.0
 10
10.1474913977
 20
6.399234572
 30
0.0
 10
10.1793382388
 20
6.3834820597
 30
0.0
 10
10.2120899687
 20
6.3700276041
 30
0.0
 10
10.2455718758
 20
6.3589431568
 30
0.0
 10
10.2796060649
 20
6.3502881354
 30
0.0
 10
10.3140087418
 20
6.3441090377
 30
0.0
 10
10.3371307415
 20
6.3416560802
 30
0.0
 10
10.3486883843
 20
6.340854555
 30
0.0
  0
SPLINE
  5
2FC
100
AcDbEntity
  8
0
100
AcDbSpline
 62
7
  6
CONTINUOUS
 70
0
 71
3
 72
42
 73
38
 74
0
 42
0.0000001
 43
0.0000001
 44
0.0000000001
 40
0.0
 40
0.0
 40
0.0
 40
0.0
 40
0.0299865966
 40
0.0450153212
 40
0.0600684381
 40
0.090249625
 40
0.1205452049
 40
0.1357407887
 40
0.1509680966
 40
0.1815167604
 40
0.2121997979
 40
0.2430194473
 40
0.2739756908
 40
0.3050662842
 40
0.3362868219
 40
0.3676308338
 40
0.3990899115
 40
0.4306538606
 40
0.4623108748
 40
0.4940477311
 40
0.5258500001
 40
0.5577022709
 40
0.5895883865
 40
0.6214916862
 40
0.6533952547
 40
0.6852821726
 40
0.7171357676
 40
0.748939863
 40
0.7806790204
 40
0.8123387768
 40
0.8439058655
 40
0.8753684395
 40
0.9067162263
 40
0.9379408324
 40
0.953506506
 40
0.9690393835
 40
1.0
 40
1.0
 40
1.0
 40
1.0
 10
10.1152346132
 20
7.2418667215
 30
0.0
 10
10.1105590669
 20
7.2332121333
 30
0.0
 10
10.1039791514
 20
7.2199757204
 30
0.0
 10
10.0961103787
 20
7.2019073372
 30
0.0
 10
10.0888297805
 20
7.183524493
 30
0.0
 10
10.0808708469
 20
7.160040107
 30
0.0
 10
10.0744804877
 20
7.1360332106
 30
0.0
 10
10.0703147643
 20
7.1165524024
 30
0.0
 10
10.0667771766
 20
7.0968634682
 30
0.0
 10
10.0635582503
 20
7.0719697391
 30
0.0
 10
10.0616364804
 20
7.0418138591
 30
0.0
 10
10.0616584847
 20
7.0114627481
 30
0.0
 10
10.0636241275
 20
6.9810418201
 30
0.0
 10
10.0675250933
 20
6.950675709
 30
0.0
 10
10.0733451962
 20
6.9204890668
 30
0.0
 10
10.0810603783
 20
6.8906057047
 30
0.0
 10
10.0906388326
 20
6.8611481856
 30
0.0
 10
10.1020411301
 20
6.8322373007
 30
0.0
 10
10.1152203855
 20
6.8039915865
 30
0.0
 10
10.1301224495
 20
6.7765268419
 30
0.0
 10
10.1466861305
 20
6.7499556583
 30
0.0
 10
10.1648434445
 20
6.7243869617
 30
0.0
 10
10.184519894
 20
6.6999255711
 30
0.0
 10
10.2056347714
 20
6.6766717721
 30
0.0
 10
10.2281014876
 20
6.6547209094
 30
0.0
 10
10.2518279252
 20
6.6341629985
 30
0.0
 10
10.2767168121
 20
6.6150823596
 30
0.0
 10
10.3026661191
 20
6.5975572742
 30
0.0
 10
10.3295694682
 20
6.5816596659
 30
0.0
 10
10.357316588
 20
6.5674548059
 30
0.0
 10
10.3857936762
 20
6.5550010529
 30
0.0
 10
10.4148841738
 20
6.5443495805
 30
0.0
 10
10.4444680844
 20
6.535544316
 30
0.0
 10
10.469459913
 20
6.5297689197
 30
0.0
 10
10.4895769413
 20
6.5261073792
 30
0.0
 10
10.5097128938
 20
6.5230935239
 30
0.0
 10
10.5249000054
 20
6.5215513196
 30
0.0
 10
10.5350319872
 20
6.5208486643
 30
0.0
  0
SPLINE
  5
2FD
100
AcDbEntity
  8
0
100
AcDbSpline
 62
7
  6
CONTINUOUS
 70
0
 71
3
 72
15
 73
11
 74
0
 42
0.0000001
 43
0.0000001
 44
0.0000000001
 40
0.0
 40
0.0
 40
0.0
 40
0.0
 40
0.1237331304
 40
0.2475750296
 40
0.3716652216
 40
0.4961357783
 40
0.6211075435
 40
0.7466868534
 40
0.8729605895
 40
1.0
 40
1.0
 40
1.0
 40
1.0
 10
10.8159385316
 20
6.8568408432
 30
0.0
 10
10.8107530754
 20
6.849791656
 30
0.0
 10
10.7997866349
 20
6.8361110172
 30
0.0
 10
10.7816829112
 20
6.8170135833
 30
0.0
 10
10.7620234696
 20
6.7994409412
 30
0.0
 10
10.7409232765
 20
6.7834955971
 30
0.0
 10
10.7185042223
 20
6.7692681284
 30
0.0
 10
10.6948958138
 20
6.756839757
 30
0.0
 10
10.6702369559
 20
6.7462817759
 30
0.0
 10
10.6532411414
 20
6.7405468513
 30
0.0
 10
10.644622573
 20
6.7380076487
 30
0.0
  0
SPLINE
  5
2FE
100
AcDbEntity
  8
0
100
AcDbSpline
 62
7
  6
CONTINUOUS
 70
0
 71
3
 72
11
 73
7
 74
0
 42
0.0000001
 43
0.0000001
 44
0.0000000001
 40
0.0
 40
0.0
 40
0.0
 40
0.0
 40
0.2484520609
 40
0.4979187783
 40
0.748429099
 40
1.0
 40
1.0
 40
1.0
 40
1.0
 10
11.0973718436
 20
8.5101797337
 30
0.0
 10
11.0852723337
 20
8.5080137795
 30
0.0
 10
11.060881056
 20
8.5044328326
 30
0.0
 10
11.0239603124
 20
8.5013371001
 30
0.0
 10
10.9867649634
 20
8.5005162886
 30
0.0
 10
10.9619260364
 20
8.5014861103
 30
0.0
 10
10.949509711
 20
8.5023471854
 30
0.0
  0
SPLINE
  5
2FF
100
AcDbEntity
  8
0
100
AcDbSpline
 62
7
  6
CONTINUOUS
 70
0
 71
3
 72
23
 73
19
 74
0
 42
0.0000001
 43
0.0000001
 44
0.0000000001
 40
0.0
 40
0.0
 40
0.0
 40
0.0
 40
0.0616002167
 40
0.1232522697
 40
0.1849737927
 40
0.246781799
 40
0.308692531
 40
0.3707213188
 40
0.4328824496
 40
0.4951890531
 40
0.5576529899
 40
0.6202847717
 40
0.6830934593
 40
0.7460865774
 40
0.8092703444
 40
0.8726484062
 40
0.9362255246
 40
1.0
 40
1.0
 40
1.0
 40
1.0
 10
11.0357553616
 20
8.1806601992
 30
0.0
 10
11.0277455044
 20
8.1741841822
 30
0.0
 10
11.0114037787
 20
8.1616111671
 30
0.0
 10
10.9860010243
 20
8.1439459015
 30
0.0
 10
10.9597489938
 20
8.1275024446
 30
0.0
 10
10.932701707
 20
8.1123147239
 30
0.0
 10
10.9049138528
 20
8.0984133747
 30
0.0
 10
10.8764418703
 20
8.0858266248
 30
0.0
 10
10.8473435294
 20
8.0745799445
 30
0.0
 10
10.8176778795
 20
8.064696098
 30
0.0
 10
10.787505106
 20
8.0561950813
 30
0.0
 10
10.7568864136
 20
8.0490940905
 30
0.0
 10
10.7258839136
 20
8.043407494
 30
0.0
 10
10.6945604411
 20
8.0391467441
 30
0.0
 10
10.6629796702
 20
8.0363204824
 30
0.0
 10
10.6312051852
 20
8.0349342277
 30
0.0
 10
10.5993025137
 20
8.0349909264
 30
0.0
 10
10.5780226637
 20
8.0359890058
 30
0.0
 10
10.5673843315
 20
8.0367267767
 30
0.0
  0
SPLINE
  5
300
100
AcDbEntity
  8
0
100
AcDbSpline
 62
7
  6
CONTINUOUS
 70
0
 71
3
 72
42
 73
38
 74
0
 42
0.0000001
 43
0.0000001
 44
0.0000000001
 40
0.0
 40
0.0
 40
0.0
 40
0.0
 40
0.0311606053
 40
0.0624836664
 40
0.0939589148
 40
0.1255732491
 40
0.1573118114
 40
0.1891578879
 40
0.2210933668
 40
0.2530990192
 40
0.285154779
 40
0.3172400824
 40
0.3493341633
 40
0.3814162951
 40
0.4134660815
 40
0.4454637973
 40
0.4773906277
 40
0.5092289128
 40
0.5409624343
 40
0.5725766393
 40
0.6040588936
 40
0.6353986622
 40
0.6665877388
 40
0.697620363
 40
0.7284934021
 40
0.7592063951
 40
0.7897616551
 40
0.820164244
 40
0.8504219634
 40
0.8655019896
 40
0.8805499194
 40
0.9105516994
 40
0.9404472084
 40
0.9553628467
 40
0.9702585574
 40
0.9851367686
 40
1.0
 40
1.0
 40
1.0
 40
1.0
 10
10.5486439515
 20
6.7235871869
 30
0.0
 10
10.5404921136
 20
6.7234661624
 30
0.0
 10
10.5241329882
 20
6.7237630611
 30
0.0
 10
10.4996188996
 20
6.7258099726
 30
0.0
 10
10.4751695689
 20
6.7294512002
 30
0.0
 10
10.4508973778
 20
6.7346714439
 30
0.0
 10
10.426912215
 20
6.7414482172
 30
0.0
 10
10.4033231147
 20
6.7497521014
 30
0.0
 10
10.3802371884
 20
6.759546737
 30
0.0
 10
10.3577592673
 20
6.7707889936
 30
0.0
 10
10.3359913644
 20
6.7834291243
 30
0.0
 10
10.3150322065
 20
6.7974109775
 30
0.0
 10
10.2949767745
 20
6.8126722372
 30
0.0
 10
10.2759158759
 20
6.8291446933
 30
0.0
 10
10.2579357262
 20
6.8467545516
 30
0.0
 10
10.2411175558
 20
6.86542278
 30
0.0
 10
10.225537248
 20
6.885065474
 30
0.0
 10
10.2112650135
 20
6.9055942429
 30
0.0
 10
10.1983650879
 20
6.9269166158
 30
0.0
 10
10.1868954519
 20
6.9489364751
 30
0.0
 10
10.1769075928
 20
6.9715544932
 30
0.0
 10
10.1684462845
 20
6.9946685921
 30
0.0
 10
10.1615494063
 20
7.0181744011
 30
0.0
 10
10.1562477853
 20
7.0419657325
 30
0.0
 10
10.152565075
 20
7.0659350698
 30
0.0
 10
10.150517642
 20
7.0899739741
 30
0.0
 10
10.1501145622
 20
7.1139738762
 30
0.0
 10
10.1513573315
 20
7.1378253873
 30
0.0
 10
10.153762989
 20
7.1575129065
 30
0.0
 10
10.1565027438
 20
7.1730754705
 30
0.0
 10
10.1597749308
 20
7.1884664302
 30
0.0
 10
10.1648675098
 20
7.207420021
 30
0.0
 10
10.1712864485
 20
7.2259302482
 30
0.0
 10
10.1771926476
 20
7.2403951893
 30
0.0
 10
10.182000137
 20
7.2510564603
 30
0.0
 10
10.1871826934
 20
7.2615249134
 30
0.0
 10
10.1908858661
 20
7.268370976
 30
0.0
 10
10.1927976771
 20
7.2717573318
 30
0.0
  0
SPLINE
  5
301
100
AcDbEntity
  8
0
100
AcDbSpline
 62
7
  6
CONTINUOUS
 70
0
 71
3
 72
18
 73
14
 74
0
 42
0.0000001
 43
0.0000001
 44
0.0000000001
 40
0.0
 40
0.0
 40
0.0
 40
0.0
 40
0.0542094555
 40
0.1085304986
 40
0.1632107183
 40
0.2184923674
 40
0.3317254566
 40
0.4500186443
 40
0.5115607541
 40
0.5749056328
 40
0.7075443937
 40
0.8489869919
 40
1.0
 40
1.0
 40
1.0
 40
1.0
 10
12.2783853162
 20
7.8905424587
 30
0.0
 10
12.2790297703
 20
7.8904726525
 30
0.0
 10
12.2803253619
 20
7.890378036
 30
0.0
 10
12.2822784896
 20
7.8903726287
 30
0.0
 10
12.2842401897
 20
7.8905038354
 30
0.0
 10
12.2868865546
 20
7.8908633669
 30
0.0
 10
12.290231292
 20
7.891667017
 30
0.0
 10
12.2935192872
 20
7.8929034837
 30
0.0
 10
12.2961482418
 20
7.8941488588
 30
0.0
 10
12.2988588251
 20
7.8956129652
 30
0.0
 10
12.3022591666
 20
7.8977972315
 30
0.0
 10
12.3062831909
 20
7.9009116003
 30
0.0
 10
12.3088789911
 20
7.9032603458
 30
0.0
 10
12.3101778048
 20
7.9045149035
 30
0.0
  0
SPLINE
  5
302
100
AcDbEntity
  8
0
100
AcDbSpline
 62
7
  6
CONTINUOUS
 70
0
 71
3
 72
48
 73
44
 74
0
 42
0.0000001
 43
0.0000001
 44
0.0000000001
 40
0.0
 40
0.0
 40
0.0
 40
0.0
 40
0.0311434631
 40
0.0624399956
 40
0.0938836138
 40
0.1254646847
 40
0.1571709829
 40
0.1889877595
 40
0.22089807
 40
0.2528831302
 40
0.2849226987
 40
0.3169954772
 40
0.3490795248
 40
0.3811526835
 40
0.413193006
 40
0.4451791789
 40
0.4770909382
 40
0.5089094729
 40
0.5406178044
 40
0.5722011384
 40
0.6036471904
 40
0.6349464615
 40
0.6660924706
 40
0.6970819377
 40
0.7279148953
 40
0.7432762698
 40
0.7586000727
 40
0.7738872515
 40
0.789138954
 40
0.8043565275
 40
0.819541513
 40
0.8346956329
 40
0.8498207866
 40
0.8649190411
 40
0.8799926163
 40
0.8950438755
 40
0.9100753135
 40
0.9250895394
 40
0.9400892632
 40
0.9550772817
 40
0.9700564603
 40
0.9850297153
 40
1.0
 40
1.0
 40
1.0
 40
1.0
 10
10.292259923
 20
6.0501799652
 30
0.0
 10
10.2749352815
 20
6.0513814331
 30
0.0
 10
10.2402759006
 20
6.055058377
 30
0.0
 10
10.1887070432
 20
6.0643206612
 30
0.0
 10
10.1376905292
 20
6.077294346
 30
0.0
 10
10.0875019074
 20
6.093909702
 30
0.0
 10
10.0384077762
 20
6.1140776222
 30
0.0
 10
9.9906700382
 20
6.1376902397
 30
0.0
 10
9.9445430205
 20
6.1646214154
 30
0.0
 10
9.9002724698
 20
6.1947272772
 30
0.0
 10
9.8580942881
 20
6.2278472333
 30
0.0
 10
9.8182332338
 20
6.2638046518
 30
0.0
 10
9.7809016719
 20
6.3024077699
 30
0.0
 10
9.7462986338
 20
6.3434508846
 30
0.0
 10
9.714608603
 20
6.3867152615
 30
0.0
 10
9.6860005474
 20
6.4319703315
 30
0.0
 10
9.6606272015
 20
6.4789750104
 30
0.0
 10
9.6386240272
 20
6.527478815
 30
0.0
 10
9.6201085862
 20
6.5772232671
 30
0.0
 10
9.605180051
 20
6.6279432707
 30
0.0
 10
9.5939184067
 20
6.6793684671
 30
0.0
 10
9.5863841647
 20
6.7312245144
 30
0.0
 10
9.5826182281
 20
6.7832353368
 30
0.0
 10
9.5826408997
 20
6.8351214982
 30
0.0
 10
9.5858223518
 20
6.8780859758
 30
0.0
 10
9.5902579317
 20
6.912108391
 30
0.0
 10
9.5945182686
 20
6.9373933881
 30
0.0
 10
9.599710395
 20
6.9624408478
 30
0.0
 10
9.605827484
 20
6.9872177435
 30
0.0
 10
9.6128613299
 20
7.0116908668
 30
0.0
 10
9.6208025289
 20
7.0358275659
 30
0.0
 10
9.6296405636
 20
7.0595955603
 30
0.0
 10
9.6393636044
 20
7.0829631069
 30
0.0
 10
9.6499586427
 20
7.105898999
 30
0.0
 10
9.6614116062
 20
7.1283725572
 30
0.0
 10
9.6737071782
 20
7.1503537596
 30
0.0
 10
9.6868289025
 20
7.1718132574
 30
0.0
 10
9.700759316
 20
7.1927223333
 30
0.0
 10
9.7154798045
 20
7.213053057
 30
0.0
 10
9.730970636
 20
7.2327782663
 30
0.0
 10
9.7472112638
 20
7.2518716565
 30
0.0
 10
9.7641796317
 20
7.2703073494
 30
0.0
 10
9.7759631598
 20
7.2821442404
 30
0.0
 10
9.7819673071
 20
7.2879438172
 30
0.0
  0
SPLINE
  5
303
100
AcDbEntity
  8
0
100
AcDbSpline
 62
7
  6
CONTINUOUS
 70
0
 71
3
 72
16
 73
12
 74
0
 42
0.0000001
 43
0.0000001
 44
0.0000000001
 40
0.0
 40
0.0
 40
0.0
 40
0.0
 40
0.1504802345
 40
0.2917477373
 40
0.4244952497
 40
0.4879700346
 40
0.5496761098
 40
0.6683415877
 40
0.7818816099
 40
0.8918561996
 40
1.0
 40
1.0
 40
1.0
 40
1.0
 10
12.3922815057
 20
6.9856111745
 30
0.0
 10
12.3915309341
 20
6.9848861779
 30
0.0
 10
12.3900307431
 20
6.9835258463
 30
0.0
 10
12.3877078765
 20
6.981712972
 30
0.0
 10
12.3857457684
 20
6.9804308085
 30
0.0
 10
12.3841811722
 20
6.979562585
 30
0.0
 10
12.3826626722
 20
6.9788171831
 30
0.0
 10
12.3807638582
 20
6.9780640585
 30
0.0
 10
12.378464954
 20
6.9774524183
 30
0.0
 10
12.3761790228
 20
6.9771470464
 30
0.0
 10
12.374660981
 20
6.9771487891
 30
0.0
 10
12.3739128296
 20
6.9772006816
 30
0.0
  0
SPLINE
  5
304
100
AcDbEntity
  8
0
100
AcDbSpline
 62
7
  6
CONTINUOUS
 70
0
 71
3
 72
61
 73
57
 74
0
 42
0.0000001
 43
0.0000001
 44
0.0000000001
 40
0.0
 40
0.0
 40
0.0
 40
0.0
 40
0.0027165054
 40
0.0054533955
 40
0.0082305472
 40
0.0110669316
 40
0.0169824274
 40
0.0233277131
 40
0.030199549
 40
0.0376706007
 40
0.0457931532
 40
0.0546032753
 40
0.0641243859
 40
0.074369812
 40
0.0853450535
 40
0.0970492998
 40
0.10947643
 40
0.1226160841
 40
0.136454196
 40
0.1509734409
 40
0.1661538067
 40
0.1819727413
 40
0.1984054552
 40
0.2154252451
 40
0.233003508
 40
0.2511100181
 40
0.2697130988
 40
0.288779623
 40
0.3281637084
 40
0.3689758341
 40
0.4109140611
 40
0.4536652952
 40
0.496908534
 40
0.5403180533
 40
0.58356653
 40
0.6263281872
 40
0.6682819354
 40
0.7091145197
 40
0.7485237777
 40
0.7862219893
 40
0.8043449156
 40
0.8219405913
 40
0.8389787009
 40
0.8554306652
 40
0.871269662
 40
0.8864708261
 40
0.9010116003
 40
0.9148718073
 40
0.9280340646
 40
0.940484227
 40
0.9522117242
 40
0.9632103966
 40
0.9734791407
 40
0.9830231747
 40
0.9918561893
 40
1.0
 40
1.0
 40
1.0
 40
1.0
 10
12.4106501819
 20
9.6802615495
 30
0.0
 10
12.4111457037
 20
9.6802271796
 30
0.0
 10
12.4121379289
 20
9.680113314
 30
0.0
 10
12.4136136154
 20
9.679808655
 30
0.0
 10
12.4150782063
 20
9.6793701721
 30
0.0
 10
12.4170417186
 20
9.6785971329
 30
0.0
 10
12.419478297
 20
9.6772747696
 30
0.0
 10
12.4222944022
 20
9.6751830473
 30
0.0
 10
12.4250424498
 20
9.6725719513
 30
0.0
 10
12.4277191412
 20
9.6694480734
 30
0.0
 10
12.4303216798
 20
9.6658176464
 30
0.0
 10
12.4328463238
 20
9.6616874109
 30
0.0
 10
12.4352889114
 20
9.6570649406
 30
0.0
 10
12.4376451189
 20
9.6519589053
 30
0.0
 10
12.4399104905
 20
9.6463790162
 30
0.0
 10
12.4420805824
 20
9.6403360481
 30
0.0
 10
12.4441511341
 20
9.6338418253
 30
0.0
 10
12.4461179625
 20
9.626909136
 30
0.0
 10
12.4479770847
 20
9.6195517176
 30
0.0
 10
12.4497247661
 20
9.6117842156
 30
0.0
 10
12.4513574221
 20
9.603622125
 30
0.0
 10
12.4528717401
 20
9.5950817684
 30
0.0
 10
12.4542646595
 20
9.5861802506
 30
0.0
 10
12.4555333111
 20
9.5769354147
 30
0.0
 10
12.4566751349
 20
9.5673658099
 30
0.0
 10
12.4576878075
 20
9.5574906528
 30
0.0
 10
12.4585692627
 20
9.5473297587
 30
0.0
 10
12.4595780075
 20
9.5332762379
 30
0.0
 10
12.4604886054
 20
9.5151464402
 30
0.0
 10
12.4610262905
 20
9.4928183784
 30
0.0
 10
12.461015481
 20
9.4698682311
 30
0.0
 10
12.460456072
 20
9.4464803954
 30
0.0
 10
12.4593523848
 20
9.4228426574
 30
0.0
 10
12.4577132058
 20
9.3991448943
 30
0.0
 10
12.4555516874
 20
9.3755774589
 30
0.0
 10
12.4528852835
 20
9.352329636
 30
0.0
 10
12.4497355677
 20
9.3295881211
 30
0.0
 10
12.4461280872
 20
9.3075354019
 30
0.0
 10
12.442092095
 20
9.2863485645
 30
0.0
 10
12.4383517288
 20
9.2693392613
 30
0.0
 10
12.4351587228
 20
9.2562997556
 30
0.0
 10
12.4327095316
 20
9.2469688037
 30
0.0
 10
12.4301793987
 20
9.237976444
 30
0.0
 10
12.4275734318
 20
9.2293406949
 30
0.0
 10
12.4248969023
 20
9.221078868
 30
0.0
 10
12.4221551916
 20
9.2132075081
 30
0.0
 10
12.4193538743
 20
9.205742339
 30
0.0
 10
12.416498584
 20
9.198698254
 30
0.0
 10
12.4135950592
 20
9.192089268
 30
0.0
 10
12.410649168
 20
9.1859284545
 30
0.0
 10
12.4076667586
 20
9.1802279538
 30
0.0
 10
12.4046537152
 20
9.1749989085
 30
0.0
 10
12.4016159912
 20
9.1702514364
 30
0.0
 10
12.3985591319
 20
9.1659944189
 30
0.0
 10
12.395489069
 20
9.16223637
 30
0.0
 10
12.3933525431
 20
9.1599789552
 30
0.0
 10
12.3922815057
 20
9.1589444124
 30
0.0
  0
SPLINE
  5
305
100
AcDbEntity
  8
0
100
AcDbSpline
 62
7
  6
CONTINUOUS
 70
0
 71
3
 72
16
 73
12
 74
0
 42
0.0000001
 43
0.0000001
 44
0.0000000001
 40
0.0
 40
0.0
 40
0.0
 40
0.0
 40
0.1504802345
 40
0.2917477373
 40
0.4244952497
 40
0.4879700346
 40
0.5496761098
 40
0.6683415877
 40
0.7818816099
 40
0.8918561996
 40
1.0
 40
1.0
 40
1.0
 40
1.0
 10
12.3922815057
 20
9.1589444124
 30
0.0
 10
12.3915309341
 20
9.1582194158
 30
0.0
 10
12.3900307431
 20
9.1568590842
 30
0.0
 10
12.3877078765
 20
9.1550462099
 30
0.0
 10
12.3857457684
 20
9.1537640464
 30
0.0
 10
12.3841811722
 20
9.152895823
 30
0.0
 10
12.3826626722
 20
9.1521504211
 30
0.0
 10
12.3807638582
 20
9.1513972965
 30
0.0
 10
12.378464954
 20
9.1507856562
 30
0.0
 10
12.3761790228
 20
9.1504802843
 30
0.0
 10
12.374660981
 20
9.150482027
 30
0.0
 10
12.3739128296
 20
9.1505339195
 30
0.0
  0
SPLINE
  5
306
100
AcDbEntity
  8
0
100
AcDbSpline
 62
7
  6
CONTINUOUS
 70
0
 71
3
 72
61
 73
57
 74
0
 42
0.0000001
 43
0.0000001
 44
0.0000000001
 40
0.0
 40
0.0
 40
0.0
 40
0.0
 40
0.0027165054
 40
0.0054533955
 40
0.0082305472
 40
0.0110669316
 40
0.0169824274
 40
0.0233277131
 40
0.030199549
 40
0.0376706007
 40
0.0457931532
 40
0.0546032753
 40
0.0641243859
 40
0.074369812
 40
0.0853450535
 40
0.0970492998
 40
0.10947643
 40
0.1226160841
 40
0.136454196
 40
0.1509734409
 40
0.1661538067
 40
0.1819727413
 40
0.1984054552
 40
0.2154252451
 40
0.233003508
 40
0.2511100181
 40
0.2697130988
 40
0.288779623
 40
0.3281637084
 40
0.3689758341
 40
0.4109140611
 40
0.4536652952
 40
0.496908534
 40
0.5403180533
 40
0.58356653
 40
0.6263281872
 40
0.6682819354
 40
0.7091145197
 40
0.7485237777
 40
0.7862219893
 40
0.8043449156
 40
0.8219405913
 40
0.8389787009
 40
0.8554306652
 40
0.871269662
 40
0.8864708261
 40
0.9010116003
 40
0.9148718073
 40
0.9280340646
 40
0.940484227
 40
0.9522117242
 40
0.9632103966
 40
0.9734791407
 40
0.9830231747
 40
0.9918561893
 40
1.0
 40
1.0
 40
1.0
 40
1.0
 10
12.4106501819
 20
7.5069283116
 30
0.0
 10
12.4111457037
 20
7.5068939417
 30
0.0
 10
12.4121379289
 20
7.5067800761
 30
0.0
 10
12.4136136154
 20
7.5064754171
 30
0.0
 10
12.4150782063
 20
7.5060369342
 30
0.0
 10
12.4170417186
 20
7.5052638949
 30
0.0
 10
12.419478297
 20
7.5039415317
 30
0.0
 10
12.4222944022
 20
7.5018498094
 30
0.0
 10
12.4250424498
 20
7.4992387133
 30
0.0
 10
12.4277191412
 20
7.4961148355
 30
0.0
 10
12.4303216798
 20
7.4924844085
 30
0.0
 10
12.4328463238
 20
7.488354173
 30
0.0
 10
12.4352889114
 20
7.4837317026
 30
0.0
 10
12.4376451189
 20
7.4786256673
 30
0.0
 10
12.4399104905
 20
7.4730457782
 30
0.0
 10
12.4420805824
 20
7.4670028101
 30
0.0
 10
12.4441511341
 20
7.4605085873
 30
0.0
 10
12.4461179625
 20
7.453575898
 30
0.0
 10
12.4479770847
 20
7.4462184797
 30
0.0
 10
12.4497247661
 20
7.4384509777
 30
0.0
 10
12.4513574221
 20
7.430288887
 30
0.0
 10
12.4528717401
 20
7.4217485305
 30
0.0
 10
12.4542646595
 20
7.4128470126
 30
0.0
 10
12.4555333111
 20
7.4036021768
 30
0.0
 10
12.4566751349
 20
7.3940325719
 30
0.0
 10
12.4576878075
 20
7.3841574149
 30
0.0
 10
12.4585692627
 20
7.3739965207
 30
0.0
 10
12.4595780075
 20
7.359943
 30
0.0
 10
12.4604886054
 20
7.3418132023
 30
0.0
 10
12.4610262905
 20
7.3194851405
 30
0.0
 10
12.461015481
 20
7.2965349932
 30
0.0
 10
12.460456072
 20
7.2731471575
 30
0.0
 10
12.4593523848
 20
7.2495094194
 30
0.0
 10
12.4577132058
 20
7.2258116564
 30
0.0
 10
12.4555516874
 20
7.202244221
 30
0.0
 10
12.4528852835
 20
7.1789963981
 30
0.0
 10
12.4497355677
 20
7.1562548831
 30
0.0
 10
12.4461280872
 20
7.134202164
 30
0.0
 10
12.442092095
 20
7.1130153266
 30
0.0
 10
12.4383517288
 20
7.0960060234
 30
0.0
 10
12.4351587228
 20
7.0829665176
 30
0.0
 10
12.4327095316
 20
7.0736355658
 30
0.0
 10
12.4301793987
 20
7.064643206
 30
0.0
 10
12.4275734318
 20
7.056007457
 30
0.0
 10
12.4248969023
 20
7.0477456301
 30
0.0
 10
12.4221551916
 20
7.0398742702
 30
0.0
 10
12.4193538743
 20
7.0324091011
 30
0.0
 10
12.416498584
 20
7.0253650161
 30
0.0
 10
12.4135950592
 20
7.0187560301
 30
0.0
 10
12.410649168
 20
7.0125952166
 30
0.0
 10
12.4076667586
 20
7.0068947159
 30
0.0
 10
12.4046537152
 20
7.0016656705
 30
0.0
 10
12.4016159912
 20
6.9969181985
 30
0.0
 10
12.3985591319
 20
6.992661181
 30
0.0
 10
12.395489069
 20
6.9889031321
 30
0.0
 10
12.3933525431
 20
6.9866457173
 30
0.0
 10
12.3922815057
 20
6.9856111745
 30
0.0
  0
SPLINE
  5
307
100
AcDbEntity
  8
0
100
AcDbSpline
 62
7
  6
CONTINUOUS
 70
0
 71
3
 72
41
 73
37
 74
0
 42
0.0000001
 43
0.0000001
 44
0.0000000001
 40
0.0
 40
0.0
 40
0.0
 40
0.0
 40
0.0302776375
 40
0.0454599654
 40
0.0606709161
 40
0.0911770581
 40
0.1218009456
 40
0.1371586902
 40
0.1525458901
 40
0.1834049347
 40
0.2143785091
 40
0.2454627255
 40
0.2766523773
 40
0.3079410137
 40
0.3393210274
 40
0.3707837524
 40
0.4023195729
 40
0.4339180391
 40
0.465567991
 40
0.4972576883
 40
0.5289749442
 40
0.5607072634
 40
0.5924419824
 40
0.6241664109
 40
0.6558679733
 40
0.6875343501
 40
0.7191536162
 40
0.7507143768
 40
0.782205899
 40
0.8136182371
 40
0.8449423551
 40
0.8761702274
 40
0.9072949732
 40
0.9383108585
 40
0.9692135974
 40
1.0
 40
1.0
 40
1.0
 40
1.0
 10
10.3493936472
 20
9.2845635654
 30
0.0
 10
10.347032483
 20
9.2735840137
 30
0.0
 10
10.3439590108
 20
9.2569922625
 30
0.0
 10
10.3408049651
 20
9.2347082271
 30
0.0
 10
10.3382727945
 20
9.2122590284
 30
0.0
 10
10.3362910365
 20
9.1839962667
 30
0.0
 10
10.3358919357
 20
9.1556126845
 30
0.0
 10
10.3365185323
 20
9.1328558718
 30
0.0
 10
10.3377786917
 20
9.1100380072
 30
0.0
 10
10.3405404942
 20
9.0815133999
 30
0.0
 10
10.3457339762
 20
9.0474254527
 30
0.0
 10
10.3527938969
 20
9.0135490125
 30
0.0
 10
10.3616983049
 20
8.9799894058
 30
0.0
 10
10.3724195956
 20
8.9468501222
 30
0.0
 10
10.3849245541
 20
8.9142335698
 30
0.0
 10
10.399174471
 20
8.882240472
 30
0.0
 10
10.4151252586
 20
8.8509696371
 30
0.0
 10
10.4327275887
 20
8.8205176346
 30
0.0
 10
10.451927044
 20
8.7909785042
 30
0.0
 10
10.4726642862
 20
8.7624434662
 30
0.0
 10
10.4948752385
 20
8.7350006423
 30
0.0
 10
10.5184912824
 20
8.7087347847
 30
0.0
 10
10.5434394691
 20
8.6837270163
 30
0.0
 10
10.5696427432
 20
8.6600545813
 30
0.0
 10
10.5970201792
 20
8.6377906084
 30
0.0
 10
10.6254872307
 20
8.6170038854
 30
0.0
 10
10.6549559887
 20
8.5977586486
 30
0.0
 10
10.6853354524
 20
8.5801143842
 30
0.0
 10
10.716531807
 20
8.5641256466
 30
0.0
 10
10.7484487147
 20
8.5498418869
 30
0.0
 10
10.7809875973
 20
8.5373073089
 30
0.0
 10
10.8140479862
 20
8.5265607111
 30
0.0
 10
10.8475276529
 20
8.5176354165
 30
0.0
 10
10.8813235668
 20
8.510559051
 30
0.0
 10
10.9153298987
 20
8.5053537345
 30
0.0
 10
10.9381177939
 20
8.5031372176
 30
0.0
 10
10.949509711
 20
8.5023471854
 30
0.0
  0
SPLINE
  5
308
100
AcDbEntity
  8
0
100
AcDbSpline
 62
7
  6
CONTINUOUS
 70
0
 71
3
 72
19
 73
15
 74
0
 42
0.0000001
 43
0.0000001
 44
0.0000000001
 40
0.0
 40
0.0
 40
0.0
 40
0.0
 40
0.0568732362
 40
0.1131885742
 40
0.1692470398
 40
0.225354005
 40
0.2818140856
 40
0.3389256727
 40
0.3969761084
 40
0.4562380787
 40
0.5793323414
 40
0.7100713146
 40
0.8499120679
 40
1.0
 40
1.0
 40
1.0
 40
1.0
 10
12.3759540578
 20
8.8560012304
 30
0.0
 10
12.3767951908
 20
8.8561236995
 30
0.0
 10
12.3784787761
 20
8.8563066436
 30
0.0
 10
12.3810091916
 20
8.8563904326
 30
0.0
 10
12.3835273703
 20
8.8562818176
 30
0.0
 10
12.3860319901
 20
8.8559808246
 30
0.0
 10
12.3885219486
 20
8.8554875485
 30
0.0
 10
12.3909961131
 20
8.8548023608
 30
0.0
 10
12.3934535341
 20
8.8539256463
 30
0.0
 10
12.3967474006
 20
8.8524841079
 30
0.0
 10
12.4008343077
 20
8.8501766201
 30
0.0
 10
12.4055854473
 20
8.8466860379
 30
0.0
 10
12.4102422359
 20
8.8424474854
 30
0.0
 10
12.4131720314
 20
8.8392467794
 30
0.0
 10
12.4146226184
 20
8.8375357836
 30
0.0
  0
SPLINE
  5
309
100
AcDbEntity
  8
0
100
AcDbSpline
 62
7
  6
CONTINUOUS
 70
0
 71
3
 72
88
 73
84
 74
0
 42
0.0000001
 43
0.0000001
 44
0.0000000001
 40
0.0
 40
0.0
 40
0.0
 40
0.0
 40
0.0039559338
 40
0.0077348721
 40
0.0113459924
 40
0.0148007368
 40
0.0212927303
 40
0.0243681731
 40
0.0273543799
 40
0.0302735466
 40
0.0331495694
 40
0.0360075352
 40
0.0388730421
 40
0.0417714764
 40
0.0447272884
 40
0.0477634247
 40
0.0509008791
 40
0.0541584461
 40
0.0575526884
 40
0.0610978973
 40
0.0648063284
 40
0.068688299
 40
0.0727524114
 40
0.0770057967
 40
0.081454187
 40
0.0861022214
 40
0.090953474
 40
0.0960106369
 40
0.1012756585
 40
0.106749729
 40
0.1124335078
 40
0.1183270523
 40
0.124429956
 40
0.1372595102
 40
0.1509116153
 40
0.1653696794
 40
0.1806126296
 40
0.196615523
 40
0.2133500249
 40
0.230784786
 40
0.2488857538
 40
0.2676164597
 40
0.2869382566
 40
0.3068105295
 40
0.3271908843
 40
0.3480353191
 40
0.3692984051
 40
0.390933453
 40
0.4128926679
 40
0.4351273019
 40
0.4575877999
 40
0.5029841832
 40
0.5486759018
 40
0.5942527456
 40
0.6393058205
 40
0.6615101421
 40
0.6834331749
 40
0.705026276
 40
0.7262417751
 40
0.7470331264
 40
0.7673550644
 40
0.787163768
 40
0.8064170436
 40
0.8250745019
 40
0.8430977465
 40
0.8604505866
 40
0.8770992759
 40
0.893012803
 40
0.9081632179
 40
0.9225260145
 40
0.9360806238
 40
0.9425499407
 40
0.9488116582
 40
0.9548645882
 40
0.96070803
 40
0.9663416828
 40
0.9717657326
 40
0.9769809397
 40
0.9819886386
 40
0.9867910525
 40
0.9913911736
 40
0.9957926703
 40
1.0
 40
1.0
 40
1.0
 40
1.0
 10
12.3485484779
 20
8.7995880804
 30
0.0
 10
12.3495477074
 20
8.800521362
 30
0.0
 10
12.351545353
 20
8.80230008
 30
0.0
 10
12.3546104879
 20
8.8047491198
 30
0.0
 10
12.3576729377
 20
8.8069150554
 30
0.0
 10
12.3616655691
 20
8.8093717434
 30
0.0
 10
12.3657392495
 20
8.811333964
 30
0.0
 10
12.3698566853
 20
8.8127167478
 30
0.0
 10
12.3728783667
 20
8.813445554
 30
0.0
 10
12.3758862153
 20
8.8138834283
 30
0.0
 10
12.378878127
 20
8.8140296516
 30
0.0
 10
12.3818515691
 20
8.813883819
 30
0.0
 10
12.3848040263
 20
8.8134461024
 30
0.0
 10
12.3877329994
 20
8.8127168989
 30
0.0
 10
12.3906362422
 20
8.8116972783
 30
0.0
 10
12.3935117026
 20
8.8103883604
 30
0.0
 10
12.3963575973
 20
8.808791547
 30
0.0
 10
12.3991723776
 20
8.8069083477
 30
0.0
 10
12.4019545156
 20
8.8047401873
 30
0.0
 10
12.4047027018
 20
8.8022887196
 30
0.0
 10
12.4074155053
 20
8.7995554921
 30
0.0
 10
12.4100915792
 20
8.7965422382
 30
0.0
 10
12.4127295644
 20
8.7932507835
 30
0.0
 10
12.4153279909
 20
8.7896830289
 30
0.0
 10
12.4178855287
 20
8.7858411137
 30
0.0
 10
12.4204006815
 20
8.7817272381
 30
0.0
 10
12.4228720624
 20
8.7773438265
 30
0.0
 10
12.4252982623
 20
8.7726934443
 30
0.0
 10
12.42767782
 20
8.7677788021
 30
0.0
 10
12.4300094181
 20
8.7626028168
 30
0.0
 10
12.4322916037
 20
8.757168522
 30
0.0
 10
12.4345231027
 20
8.7514791377
 30
0.0
 10
12.4374783548
 20
8.7434228835
 30
0.0
 10
12.4410228708
 20
8.7327296836
 30
0.0
 10
12.4449859631
 20
8.7191433147
 30
0.0
 10
12.4487170487
 20
8.7046287334
 30
0.0
 10
12.4522071247
 20
8.6892204748
 30
0.0
 10
12.4554477273
 20
8.6729550189
 30
0.0
 10
12.4584309884
 20
8.6558710687
 30
0.0
 10
12.4611496584
 20
8.6380093297
 30
0.0
 10
12.4635971392
 20
8.6194124306
 30
0.0
 10
12.4657674863
 20
8.6001247949
 30
0.0
 10
12.4676554268
 20
8.5801925244
 30
0.0
 10
12.4692563711
 20
8.5596632829
 30
0.0
 10
12.4705664219
 20
8.5385861828
 30
0.0
 10
12.4715823966
 20
8.5170116653
 30
0.0
 10
12.4723018214
 20
8.4949913747
 30
0.0
 10
12.4727229392
 20
8.4725780245
 30
0.0
 10
12.4728447018
 20
8.4498252881
 30
0.0
 10
12.4726668162
 20
8.4267876026
 30
0.0
 10
12.4720282589
 20
8.395655176
 30
0.0
 10
12.4704829998
 20
8.3564354738
 30
0.0
 10
12.4674676735
 20
8.3092917836
 30
0.0
 10
12.463313271
 20
8.2623538857
 30
0.0
 10
12.4589146052
 20
8.2235993668
 30
0.0
 10
12.4548485054
 20
8.193044622
 30
0.0
 10
12.4515569202
 20
8.17056875
 30
0.0
 10
12.4480167059
 20
8.1484767596
 30
0.0
 10
12.4442363344
 20
8.1268214998
 30
0.0
 10
12.440224903
 20
8.1056548162
 30
0.0
 10
12.4359920542
 20
8.085027366
 30
0.0
 10
12.4315479655
 20
8.0649885077
 30
0.0
 10
12.426903334
 20
8.0455861705
 30
0.0
 10
12.4220693429
 20
8.0268667378
 30
0.0
 10
12.4170576319
 20
8.0088749361
 30
0.0
 10
12.4118802712
 20
7.9916537261
 30
0.0
 10
12.4065497269
 20
7.9752441811
 30
0.0
 10
12.4010788373
 20
7.9596853965
 30
0.0
 10
12.3954807742
 20
7.9450142857
 30
0.0
 10
12.3897689965
 20
7.9312658027
 30
0.0
 10
12.3848523947
 20
7.9204424285
 30
0.0
 10
12.3808638917
 20
7.9122791164
 30
0.0
 10
12.3778992256
 20
7.9065027367
 30
0.0
 10
12.3749163923
 20
7.9009803555
 30
0.0
 10
12.371917186
 20
7.8957152227
 30
0.0
 10
12.3689033705
 20
7.8907104643
 30
0.0
 10
12.3658767152
 20
7.8859690573
 30
0.0
 10
12.362839075
 20
7.8814937807
 30
0.0
 10
12.359792147
 20
7.8772872872
 30
0.0
 10
12.3567377175
 20
7.8733519785
 30
0.0
 10
12.3536774528
 20
7.8696901501
 30
0.0
 10
12.3506133168
 20
7.8663041598
 30
0.0
 10
12.3485228543
 20
7.8641850689
 30
0.0
 10
12.3474769309
 20
7.8631747844
 30
0.0
  0
SPLINE
  5
30A
100
AcDbEntity
  8
0
100
AcDbSpline
 62
7
  6
CONTINUOUS
 70
0
 71
3
 72
37
 73
33
 74
0
 42
0.0000001
 43
0.0000001
 44
0.0000000001
 40
0.0
 40
0.0
 40
0.0
 40
0.0
 40
0.0305925034
 40
0.0612889265
 40
0.0920878773
 40
0.1229869896
 40
0.1539829534
 40
0.1850715533
 40
0.2162477156
 40
0.2475055652
 40
0.2788384849
 40
0.3102391798
 40
0.3416997456
 40
0.3732117425
 40
0.4047662755
 40
0.4363540748
 40
0.4679655783
 40
0.4995910145
 40
0.5628273685
 40
0.6260007372
 40
0.6575480234
 40
0.6890510805
 40
0.7205010922
 40
0.7518897154
 40
0.783209153
 40
0.8144522351
 40
0.845612473
 40
0.8766841171
 40
0.9076623745
 40
0.9385427515
 40
0.969323249
 40
1.0
 40
1.0
 40
1.0
 40
1.0
 10
10.5569969335
 20
9.2387461661
 30
0.0
 10
10.5569540909
 20
9.2308148303
 30
0.0
 10
10.5572606941
 20
9.214920373
 30
0.0
 10
10.5588894096
 20
9.1910921502
 30
0.0
 10
10.5616837325
 20
9.1672918058
 30
0.0
 10
10.5656368297
 20
9.1435778101
 30
0.0
 10
10.5707390785
 20
9.1200074496
 30
0.0
 10
10.5769780761
 20
9.0966379218
 30
0.0
 10
10.5843386375
 20
9.0735258545
 30
0.0
 10
10.5928028732
 20
9.0507272665
 30
0.0
 10
10.6023502305
 20
9.0282974095
 30
0.0
 10
10.6129575413
 20
9.0062906433
 30
0.0
 10
10.6245990864
 20
8.9847603049
 30
0.0
 10
10.6372466118
 20
8.9637585765
 30
0.0
 10
10.6508694647
 20
8.9433363145
 30
0.0
 10
10.6654344904
 20
8.9235431196
 30
0.0
 10
10.6809068315
 20
8.9044265337
 30
0.0
 10
10.7026915033
 20
8.8799067522
 30
0.0
 10
10.7319927641
 20
8.8511802272
 30
0.0
 10
10.763793073
 20
8.8252788831
 30
0.0
 10
10.7905429357
 20
8.8064108465
 30
0.0
 10
10.8112030307
 20
8.7932247786
 30
0.0
 10
10.8324164481
 20
8.7810318778
 30
0.0
 10
10.8541322437
 20
8.7698613123
 30
0.0
 10
10.8762976675
 20
8.7597402874
 30
0.0
 10
10.8988590405
 20
8.7506933425
 30
0.0
 10
10.9217616722
 20
8.7427424708
 30
0.0
 10
10.9449500897
 20
8.7359069579
 30
0.0
 10
10.9683679558
 20
8.7302034936
 30
0.0
 10
10.9919588838
 20
8.7256457458
 30
0.0
 10
11.0156647168
 20
8.722245143
 30
0.0
 10
11.0315356434
 20
8.7207522141
 30
0.0
 10
11.0394698802
 20
8.7202019729
 30
0.0
  0
ELLIPSE
  5
30B
100
AcDbEntity
  8
0
100
AcDbEllipse
 62
7
  6
CONTINUOUS
 10
12.3046410211
 20
8.3503651395
 30
0.0
 11
-0.0022890741
 21
0.3787991254
 31
0.0
 40
0.2731762279
 41
2.6842813663
 42
6.0910295097
  0
ENDSEC
  0
SECTION
  2
OBJECTS
  0
DICTIONARY
  5
C
100
AcDbDictionary
280
0
281
1
  3
ACAD_GROUP
350
D
  3
ACAD_MLINESTYLE
350
17
  3
ACAD_LAYOUT
350
1A
  3
ACAD_PLOTSETTINGS
350
19
  3
ACAD_PLOTSTYLENAME
350
E
  3
ACAD_IMAGE_DICT
350
       30D
  3
ACAD_IMAGE_VARS
350
       30E
  3
ACAD_TABLESTYLE
350
       30F
  0
IMAGEDEF_REACTOR
  5
30C
100
AcDbRasterImageDefReactor
 90
2
330
28A
  0
DICTIONARY
  5
D
102
{ACAD_REACTORS
330
C
102
}
100
AcDbDictionary
280
0
281
1
  0
ACDBDICTIONARYWDFLT
  5
E
102
{ACAD_REACTORS
330
C
102
}
100
AcDbDictionary
281
1
  3
Normal
350
F
100
AcDbDictionaryWithDefault
340
F
  0
DICTIONARY
  5
30D
330
C
100
AcDbDictionary
281
1
  3
ZTK_assy_2_img_1
350
       312
  0
RASTERVARIABLES
  5
30E
330
C
100
AcDbRasterVariables
 90
0
 70
0
 71
1
 72
5
  0
DICTIONARY
  5
17
102
{ACAD_REACTORS
330
C
102
}
100
AcDbDictionary
280
0
281
1
  3
Standard
350
18
  0
DICTIONARY
  5
30F
330
C
100
AcDbDictionary
281
1
  3
Standard
350
       313
  3
Standard1
350
       314
  0
DICTIONARY
  5
19
102
{ACAD_REACTORS
330
C
102
}
100
AcDbDictionary
281
1
  0
DICTIONARY
  5
1A
102
{ACAD_REACTORS
330
C
102
}
100
AcDbDictionary
281
1
  3
Model
350
310
  3
Layout1
350
311
  0
ACDBPLACEHOLDER
  5
F
102
{ACAD_REACTORS
330
E
102
}
  0
MLINESTYLE
  5
18
102
{ACAD_REACTORS
330
17
102
}
100
AcDbMlineStyle
  2
STANDARD
 70
0
  3

 62
256
 51
90.0
 52
90.0
 71
2
 49
0.5
 62
256
  6
BYLAYER
 49
-0.5
 62
256
  6
BYLAYER
  0
LAYOUT
  5
310
102
{ACAD_REACTORS
330
1A
102
}
100
AcDbPlotSettings
  1

  2
none_device
  4
ANSI_C_(22.00_x_17.00_Inches)
  6

 40
0.0
 41
0.0
 42
0.0
 43
0.0
 44
558.8
 45
431.8
 46
0.0
 47
0.0
 48
0.0
 49
0.0
140
0.0
141
0.0
142
1.0
143
1.0
 70
1024
 72
0
 73
0
 74
0
  7

 75
0
147
1.0
148
0.0
149
0.0
100
AcDbLayout
  1
Model
 70
0
 71
0
 10
0.0
 20
0.0
 11
22.0
 21
17.0
 12
0.0
 22
0.0
 32
0.0
 14
0.0
 24
0.0
 34
0.0
 15
0.0
 25
0.0
 35
0.0
146
0.0
 13
0.0
 23
0.0
 33
0.0
 16
1.0
 26
0.0
 36
0.0
 17
0.0
 27
1.0
 37
0.0
 76
0
330
207
345
0
346
0
  0
LAYOUT
  5
311
102
{ACAD_REACTORS
330
1A
102
}
100
AcDbPlotSettings
  1

  2
none_device
  4
ANSI_C_(22.00_x_17.00_Inches)
  6

 40
0.0
 41
0.0
 42
0.0
 43
0.0
 44
558.8
 45
431.8
 46
0.0
 47
0.0
 48
0.0
 49
0.0
140
0.0
141
0.0
142
1.0
143
1.0
 70
0
 72
0
 73
0
 74
0
  7

 75
0
147
1.0
148
0.0
149
0.0
100
AcDbLayout
  1
Layout1
 70
0
 71
1
 10
0.0
 20
0.0
 11
22.0
 21
17.0
 12
0.0
 22
0.0
 32
0.0
 14
0.0
 24
0.0
 34
0.0
 15
0.0
 25
0.0
 35
0.0
146
0.0
 13
0.0
 23
0.0
 33
0.0
 16
1.0
 26
0.0
 36
0.0
 17
0.0
 27
1.0
 37
0.0
 76
0
330
208
345
0
346
0
  0
IMAGEDEF
  5
312
102
{ACAD_REACTORS
330
30D
330
30C
102
}
100
AcDbRasterImageDef
 90
0
  1
ZTK_assy_2_img_1.png
 10
369.0
 20
92.0
 11
0.0066666667
 21
0.0066666667
280
1
281
0
  0
TABLESTYLE
  5
313
102
{ACAD_REACTORS
330
30F
330
28D
330
28E
102
}
330
30F
100
AcDbTableStyle
  3
Standard
 70
0
 71
0
 40
0.06
 41
0.06
280
1
281
1
  7
Standard
140
0.18
170
1
 62
0
 63
7
283
0
  7
Standard
140
0.18
170
1
 62
0
 63
7
283
0
  7
Standard
140
0.18
170
1
 62
0
 63
7
283
0
  0
TABLESTYLE
  5
314
102
{ACAD_REACTORS
330
30F
330
28C
102
}
330
30F
100
AcDbTableStyle
  3
Standard1
 70
1
 71
0
 40
0.06
 41
0.06
280
1
281
1
  7
Standard
140
0.18
170
1
 62
0
 63
7
283
0
  7
Standard
140
0.18
170
1
 62
0
 63
7
283
0
  7
Standard
140
0.18
170
1
 62
0
 63
7
283
0
  0
ENDSEC
  0
EOF
