999
DXF file: ZTG_assy_2.dxf
999
Pro/ENGINEER 2014200 by Parametric Technology Corporation
  0
SECTION
  2
HEADER
  9
$ACADVER
  1
AC1021
  9
$DWGCODEPAGE
  3
ANSI_1252
  9
$EXTMAX
 10
22.0
 20
17.0
 30
0.0
  9
$EXTMIN
 10
0.0
 20
0.0
 30
0.0
  9
$LIMMIN
 10
0.0
 20
0.0
  9
$LIMMAX
 10
22.0
 20
17.0
  9
$VIEWCTR
 10
11.0
 20
8.5
  9
$VIEWSIZE
 40
17.0
  9
$CLAYER
  8
0
  9
$LTSCALE
 40
1.21
  9
$CELTYPE
  6
BYLAYER
  9
$DIMSCALE
 40
1.0
  9
$DIMASZ
 40
0.1875
  9
$DIMEXO
 40
0.0625
  9
$DIMDLI
 40
0.836
  9
$DIMEXE
 40
0.125
  9
$DIMCEN
 40
0.198
  9
$DIMLFAC
 40
1.0
  9
$DIMBLK
  1
_FILLED
  9
$DIMTXT
 40
0.1
  9
$DIMTOL
 70
0
  9
$DIMLIM
 70
0
  9
$DIMTFAC
 40
1.0
  9
$DIMGAP
 40
0.09
  9
$DIMDSEP
 70
46
  9
$AUNITS
 70
0
  9
$PDMODE
 70
3
  9
$PDSIZE
 40
0.3125
  9
$HANDSEED
  5
30B
  9
$TILEMODE
 70
1
  9
$MEASUREMENT
 70
0
  9
$INSUNITS
 70
1
  0
ENDSEC
  0
SECTION
  2
CLASSES
  0
CLASS
  1
ACDBDICTIONARYWDFLT
  2
AcDbDictionaryWithDefault
  3
AutoCAD 2000
 90
0
 91
1
280
0
281
0
  0
CLASS
  1
ACDBPLACEHOLDER
  2
AcDbPlaceHolder
  3
AutoCAD 2000
 90
0
 91
1
280
0
281
0
  0
CLASS
  1
LAYOUT
  2
AcDbLayout
  3
AutoCAD 2000
 90
0
 91
0
280
0
281
0
  0
CLASS
  1
RASTERVARIABLES
  2
AcDbRasterVariables
  3
ISM
 90
0
 91
1
280
0
281
0
  0
CLASS
  1
IMAGEDEF
  2
AcDbRasterImageDef
  3
ISM
 90
0
 91
1
280
0
281
0
  0
CLASS
  1
IMAGEDEF_REACTOR
  2
AcDbRasterImageDefReactor
  3
ISM
 90
0
 91
1
280
0
281
0
  0
CLASS
  1
IMAGE
  2
AcDbRasterImage
  3
ISM
 90
127
 91
1
280
0
281
1
  0
CLASS
  1
TABLESTYLE
  2
AcDbTableStyle
  3
ObjectDBX Classes
 90
2047
 91
1
280
0
281
0
  0
CLASS
  1
ACAD_TABLE
  2
AcDbTable
  3
ObjectDBX Classes
 90
1025
 91
3
280
0
281
1
  0
ENDSEC
  0
SECTION
  2
TABLES
  0
TABLE
  2
VPORT
  5
8
100
AcDbSymbolTable
 70
2
  0
VPORT
  5
1F4
100
AcDbSymbolTableRecord
100
AcDbViewportTableRecord
  2
*ACTIVE
 70
0
 10
0.0
 20
0.0
 11
1.0
 21
1.0
 12
11.0
 22
8.5
 13
0.0
 23
0.0
 14
1.0
 24
1.0
 15
0.0
 25
0.0
 16
0.0
 26
0.0
 36
1.0
 17
0.0
 27
0.0
 37
0.0
 40
17.0
 41
1.2941176471
 42
50.0
 43
0.0
 44
0.0
 50
0.0
 51
0.0
 71
0
 72
100
 73
1
 74
1
 75
0
 76
0
 77
0
 78
0
  0
ENDTAB
  0
TABLE
  2
LTYPE
  5
5
100
AcDbSymbolTable
 70
6
  0
LTYPE
  5
14
100
AcDbSymbolTableRecord
100
AcDbLinetypeTableRecord
  2
BYBLOCK
 70
0
  3

 72
65
 73
0
 40
0.0
  0
LTYPE
  5
15
100
AcDbSymbolTableRecord
100
AcDbLinetypeTableRecord
  2
BYLAYER
 70
0
  3

 72
65
 73
0
 40
0.0
  0
LTYPE
  5
16
100
AcDbSymbolTableRecord
100
AcDbLinetypeTableRecord
  2
CONTINUOUS
 70
64
  3
Solid line
 72
65
 73
0
 40
0.0
  0
LTYPE
  5
1F5
100
AcDbSymbolTableRecord
100
AcDbLinetypeTableRecord
  2
CENTER
 70
64
  3
____ _ ____ _ ____ _ ____ _ ____ _ ____ _ ____
 72
65
 73
4
 40
0.6
 49
0.375
 74
0
 49
-0.075
 74
0
 49
0.075
 74
0
 49
-0.075
 74
0
  0
LTYPE
  5
1F6
100
AcDbSymbolTableRecord
100
AcDbLinetypeTableRecord
  2
HIDDEN
 70
64
  3
- - - - - - - - - - - - - - - - - - - -
 72
65
 73
2
 40
0.2
 49
0.1
 74
0
 49
-0.1
 74
0
  0
LTYPE
  5
1F7
100
AcDbSymbolTableRecord
100
AcDbLinetypeTableRecord
  2
PHANTOM
 70
64
  3
_____ _ _ _____ _ _ _____ _ _ _____
 72
65
 73
6
 40
0.8
 49
0.45
 74
0
 49
-0.05
 74
0
 49
0.1
 74
0
 49
-0.05
 74
0
 49
0.1
 74
0
 49
-0.05
 74
0
  0
LTYPE
  5
1F8
100
AcDbSymbolTableRecord
100
AcDbLinetypeTableRecord
  2
DOT
 70
64
  3
. . . . . . . . . . . . . . . . . . . .
 72
65
 73
2
 40
0.2
 49
0.1
 74
0
 49
-0.1
 74
0
  0
LTYPE
  5
1F9
100
AcDbSymbolTableRecord
100
AcDbLinetypeTableRecord
  2
DASHED
 70
64
  3
- - - - - - - - - - - - - - - - - - - -
 72
65
 73
2
 40
0.2
 49
0.1
 74
0
 49
-0.1
 74
0
  0
ENDTAB
  0
TABLE
  2
LAYER
  5
2
100
AcDbSymbolTable
 70
36
  0
LAYER
  5
10
100
AcDbSymbolTableRecord
100
AcDbLayerTableRecord
  2
0
 70
0
 62
7
  6
CONTINUOUS
370
-3
390
F
  0
LAYER
  5
1FA
100
AcDbSymbolTableRecord
100
AcDbLayerTableRecord
  2
DEFAULT_1
 70
0
 62
7
  6
CENTER
370
-3
390
F
  0
LAYER
  5
1FB
100
AcDbSymbolTableRecord
100
AcDbLayerTableRecord
  2
DEFAULT_2
 70
0
 62
8
  6
HIDDEN
370
-3
390
F
  0
LAYER
  5
1FC
100
AcDbSymbolTableRecord
100
AcDbLayerTableRecord
  2
DEFAULT_3
 70
0
 62
7
  6
PHANTOM
370
-3
390
F
  0
LAYER
  5
1FD
100
AcDbSymbolTableRecord
100
AcDbLayerTableRecord
  2
DATUM_PLANES
 70
0
 62
7
  6
CONTINUOUS
370
-3
390
F
  0
LAYER
  5
1FE
100
AcDbSymbolTableRecord
100
AcDbLayerTableRecord
  2
DIMENSIONS
 70
0
 62
7
  6
CONTINUOUS
370
-3
390
F
  0
LAYER
  5
1FF
100
AcDbSymbolTableRecord
100
AcDbLayerTableRecord
  2
DTM_500001
 70
0
 62
7
  6
CONTINUOUS
370
-3
390
F
  0
LAYER
  5
200
100
AcDbSymbolTableRecord
100
AcDbLayerTableRecord
  2
PARAMETERDIMENSIONS
 70
0
 62
7
  6
CONTINUOUS
370
-3
390
F
  0
LAYER
  5
201
100
AcDbSymbolTableRecord
100
AcDbLayerTableRecord
  2
PORT_AREAS
 70
0
 62
7
  6
CONTINUOUS
370
-3
390
F
  0
LAYER
  5
202
100
AcDbSymbolTableRecord
100
AcDbLayerTableRecord
  2
SUNNBOMCOSMETIC
 70
0
 62
7
  6
CONTINUOUS
370
-3
390
F
  0
LAYER
  5
203
100
AcDbSymbolTableRecord
100
AcDbLayerTableRecord
  2
SUNNBOMSTAMPING
 70
0
 62
7
  6
CONTINUOUS
370
-3
390
F
  0
LAYER
  5
204
100
AcDbSymbolTableRecord
100
AcDbLayerTableRecord
  2
THREADS
 70
0
 62
7
  6
CONTINUOUS
370
-3
390
F
  0
ENDTAB
  0
TABLE
  2
STYLE
  5
3
100
AcDbSymbolTable
 70
1
  0
STYLE
  5
11
100
AcDbSymbolTableRecord
100
AcDbTextStyleTableRecord
  2
STANDARD
 70
0
 40
0.0
 41
0.8
 50
0.0
 71
0
 42
0.2
  3
txt
  4

  0
STYLE
  5
205
100
AcDbSymbolTableRecord
100
AcDbTextStyleTableRecord
  2
TEXTSTYLE_1
 70
0
 40
0.0
 41
0.8
 50
0.0
 71
0
 42
0.2
  3
gdt
  4

  0
ENDTAB
  0
TABLE
  2
VIEW
  5
6
100
AcDbSymbolTable
 70
0
  0
ENDTAB
  0
TABLE
  2
UCS
  5
7
100
AcDbSymbolTable
 70
0
  0
ENDTAB
  0
TABLE
  2
APPID
  5
9
100
AcDbSymbolTable
 70
1
  0
APPID
  5
206
100
AcDbSymbolTableRecord
100
AcDbRegAppTableRecord
  2
ACAD
 70
0
  0
ENDTAB
  0
TABLE
  2
BLOCK_RECORD
  5
1
100
AcDbSymbolTable
 70
0
  0
BLOCK_RECORD
  5
207
100
AcDbSymbolTableRecord
100
AcDbBlockTableRecord
  2
*Model_Space
  0
BLOCK_RECORD
  5
208
100
AcDbSymbolTableRecord
100
AcDbBlockTableRecord
  2
*Paper_Space
  0
BLOCK_RECORD
  5
209
100
AcDbSymbolTableRecord
100
AcDbBlockTableRecord
  2
SUN_FIRST_THIRD_ANGLE_BL0
  0
BLOCK_RECORD
  5
20A
100
AcDbSymbolTableRecord
100
AcDbBlockTableRecord
  2
*T1
  0
BLOCK_RECORD
  5
20B
100
AcDbSymbolTableRecord
100
AcDbBlockTableRecord
  2
*T2
  0
BLOCK_RECORD
  5
20C
100
AcDbSymbolTableRecord
100
AcDbBlockTableRecord
  2
*T3
  0
ENDTAB
  0
TABLE
  2
DIMSTYLE
  5
A
100
AcDbSymbolTable
 70
1
100
AcDbDimStyleTable
 71
0
  0
DIMSTYLE
105
20D
100
AcDbSymbolTableRecord
100
AcDbDimStyleTableRecord
  2
STANDARD
 70
0
  3

  4

 40
1.0
 41
0.1875
 42
0.0625
 43
0.38
 44
0.125
 45
0.0
 46
0.0
 47
0.001
 48
0.001
140
0.1
141
0.09
142
0.0
143
25.4
144
1.0
145
0.0
146
1.0
147
0.09
 71
0.0
 72
0.0
 73
1
 74
1
 75
0
 76
0
 77
0
 78
4
170
0
171
2
172
0
173
0
174
0
175
0
176
0
177
0
178
0
270
2
271
3
272
3
273
2
274
2
275
0
280
0
281
0
282
0
283
1
284
4
285
0
286
0
287
3
288
0
340
11
278
46
  0
ENDTAB
  0
ENDSEC
  0
SECTION
  2
BLOCKS
  0
BLOCK
  5
20
100
AcDbEntity
  8
0
100
AcDbBlockBegin
  2
*Model_Space
 70
0
 10
0.0
 20
0.0
 30
0.0
  3
*Model_Space
  1

  0
ENDBLK
  5
21
100
AcDbEntity
  8
0
100
AcDbBlockEnd
  0
BLOCK
  5
1C
100
AcDbEntity
  8
0
100
AcDbBlockBegin
  2
*Paper_Space
 70
0
 10
0.0
 20
0.0
 30
0.0
  3
*Paper_Space
  1

  0
ENDBLK
  5
1D
100
AcDbEntity
  8
0
100
AcDbBlockEnd
  0
BLOCK
  5
20E
100
AcDbEntity
  8
0
100
AcDbBlockBegin
 62
2
  6
CONTINUOUS
  2
SUN_FIRST_THIRD_ANGLE_BL0
 70
64
 10
20.4816717061
 20
1.2289683772
  3
SUN_FIRST_THIRD_ANGLE_BL0
  1

  0
TEXT
  5
20F
100
AcDbEntity
  8
0
100
AcDbText
 62
2
  6
CONTINUOUS
 10
19.4750896608
 20
1.4136269581
  7
STANDARD
 40
0.08
  1
FIRST ANGLE
 41
0.8
 72
0
100
AcDbText
  0
TEXT
  5
210
100
AcDbEntity
  8
0
100
AcDbText
 62
2
  6
CONTINUOUS
 10
20.7842537513
 20
1.4047600029
  7
STANDARD
 40
0.08
  1
THIRD ANGLE
 41
0.8
 72
0
100
AcDbText
  0
LINE
  5
211
100
AcDbEntity
  8
0
100
AcDbLine
 62
7
  6
CONTINUOUS
 10
19.4767170086
 20
1.1727031207
 11
19.6334271527
 21
1.1717972817
  0
LINE
  5
212
100
AcDbEntity
  8
0
100
AcDbLine
 62
7
  6
CONTINUOUS
 10
19.6596964832
 20
1.1717972817
 11
19.6950230232
 21
1.171593082
  0
LINE
  5
213
100
AcDbEntity
  8
0
100
AcDbLine
 62
7
  6
CONTINUOUS
 10
19.7194818561
 20
1.1708914427
 11
19.8852396156
 21
1.1699333054
  0
LINE
  5
214
100
AcDbEntity
  8
0
100
AcDbLine
 62
7
  6
CONTINUOUS
 10
19.4758111696
 20
1.2723454088
 11
19.88525039
 21
1.3511534004
  0
LINE
  5
215
100
AcDbEntity
  8
0
100
AcDbLine
 62
7
  6
CONTINUOUS
 10
19.88525039
 20
1.3511534004
 11
19.8831348489
 21
0.9851647912
  0
LINE
  5
216
100
AcDbEntity
  8
0
100
AcDbLine
 62
7
  6
CONTINUOUS
 10
19.8831348489
 20
0.9851647912
 11
19.4767170086
 21
1.0658141206
  0
LINE
  5
217
100
AcDbEntity
  8
0
100
AcDbLine
 62
7
  6
CONTINUOUS
 10
19.4767170086
 20
1.0658141206
 11
19.4779056764
 21
1.2714536432
  0
CIRCLE
  5
218
100
AcDbEntity
  8
0
100
AcDbCircle
 62
7
  6
CONTINUOUS
 10
20.2068232291
 20
1.1717972817
 40
0.175742101
  0
CIRCLE
  5
219
100
AcDbEntity
  8
0
100
AcDbCircle
 62
7
  6
CONTINUOUS
 10
20.2068232291
 20
1.1717972817
 40
0.1005522074
  0
LINE
  5
21A
100
AcDbEntity
  8
0
100
AcDbLine
 62
7
  6
CONTINUOUS
 10
20.2077290681
 20
1.3756110529
 11
20.2071171714
 21
1.2379342989
  0
LINE
  5
21B
100
AcDbEntity
  8
0
100
AcDbLine
 62
7
  6
CONTINUOUS
 10
20.2077290681
 20
1.2016899681
 11
20.2074674401
 21
1.1428236749
  0
LINE
  5
21C
100
AcDbEntity
  8
0
100
AcDbLine
 62
7
  6
CONTINUOUS
 10
20.208634907
 20
1.101141841
 11
20.2080230104
 21
0.963465087
  0
LINE
  5
21D
100
AcDbEntity
  8
0
100
AcDbLine
 62
7
  6
CONTINUOUS
 10
20.0066328138
 20
1.1745147986
 11
20.1443095678
 21
1.1739029019
  0
LINE
  5
21E
100
AcDbEntity
  8
0
100
AcDbLine
 62
7
  6
CONTINUOUS
 10
20.1832714155
 20
1.1727031207
 11
20.238153505
 21
1.172335442
  0
LINE
  5
21F
100
AcDbEntity
  8
0
100
AcDbLine
 62
7
  6
CONTINUOUS
 10
20.2756669918
 20
1.1717972817
 11
20.407916871
 21
1.1712095044
  0
CIRCLE
  5
220
100
AcDbEntity
  8
0
100
AcDbCircle
 62
7
  6
CONTINUOUS
 10
20.7509457401
 20
1.1693297793
 40
0.1722024983
  0
CIRCLE
  5
221
100
AcDbEntity
  8
0
100
AcDbCircle
 62
7
  6
CONTINUOUS
 10
20.7509457401
 20
1.1693297793
 40
0.0985164967
  0
LINE
  5
222
100
AcDbEntity
  8
0
100
AcDbLine
 62
7
  6
CONTINUOUS
 10
20.7169767782
 20
1.170462078
 11
20.7825395137
 21
1.1682766535
  0
LINE
  5
223
100
AcDbEntity
  8
0
100
AcDbLine
 62
7
  6
CONTINUOUS
 10
20.8177513651
 20
1.1693297793
 11
20.947965719
 21
1.1693297793
  0
LINE
  5
224
100
AcDbEntity
  8
0
100
AcDbLine
 62
7
  6
CONTINUOUS
 10
20.6875370113
 20
1.170462078
 11
20.5573226574
 21
1.170462078
  0
LINE
  5
225
100
AcDbEntity
  8
0
100
AcDbLine
 62
7
  6
CONTINUOUS
 10
20.7486811426
 20
1.1987695462
 11
20.7486811426
 21
1.1432869085
  0
LINE
  5
226
100
AcDbEntity
  8
0
100
AcDbLine
 62
7
  6
CONTINUOUS
 10
20.7498134414
 20
1.1059210505
 11
20.7498134414
 21
0.9757066966
  0
LINE
  5
227
100
AcDbEntity
  8
0
100
AcDbLine
 62
7
  6
CONTINUOUS
 10
20.7486811426
 20
1.2338708068
 11
20.7486811426
 21
1.3640851607
  0
LINE
  5
228
100
AcDbEntity
  8
0
100
AcDbLine
 62
7
  6
CONTINUOUS
 10
21.0702539817
 20
1.2701043662
 11
21.4790138229
 21
1.3448360823
  0
LINE
  5
229
100
AcDbEntity
  8
0
100
AcDbLine
 62
7
  6
CONTINUOUS
 10
21.4790138229
 20
1.3448360823
 11
21.4790138229
 21
0.9779712941
  0
LINE
  5
22A
100
AcDbEntity
  8
0
100
AcDbLine
 62
7
  6
CONTINUOUS
 10
21.4790138229
 20
0.9779712941
 11
21.069121683
 21
1.0617614
  0
LINE
  5
22B
100
AcDbEntity
  8
0
100
AcDbLine
 62
7
  6
CONTINUOUS
 10
21.0702539817
 20
1.2701043662
 11
21.069121683
 21
1.0617614
  0
LINE
  5
22C
100
AcDbEntity
  8
0
100
AcDbLine
 62
7
  6
CONTINUOUS
 10
21.4790138229
 20
1.1693297793
 11
21.3159628059
 21
1.1693297793
  0
LINE
  5
22D
100
AcDbEntity
  8
0
100
AcDbLine
 62
7
  6
CONTINUOUS
 10
21.2876553377
 20
1.1693297793
 11
21.2502894796
 21
1.1693297793
  0
LINE
  5
22E
100
AcDbEntity
  8
0
100
AcDbLine
 62
7
  6
CONTINUOUS
 10
21.2208497126
 20
1.1659328831
 11
21.0713862804
 21
1.1659328831
  0
LINE
  5
22F
100
AcDbEntity
  8
0
100
AcDbLine
 62
7
  6
CONTINUOUS
 10
20.4796138713
 20
1.5284908897
 11
20.4766766948
 21
0.9294458646
  0
ENDBLK
  5
230
100
AcDbEntity
  8
0
  6
BYBLOCK
 62
0
100
AcDbBlockEnd
  0
BLOCK
  5
231
100
AcDbEntity
  8
0
100
AcDbBlockBegin
  2
*T1
 70
1
 10
0.0
 20
0.0
  3
*T1
  1

  0
LINE
  5
232
100
AcDbEntity
  8
0
100
AcDbLine
 62
2
  6
CONTINUOUS
 10
9.275
 20
0.0
 11
-0.0
 21
0.0
  0
LINE
  5
233
100
AcDbEntity
  8
0
100
AcDbLine
 62
2
  6
CONTINUOUS
 10
9.275
 20
0.0
 11
9.275
 21
1.25
  0
LINE
  5
234
100
AcDbEntity
  8
0
100
AcDbLine
 62
2
  6
CONTINUOUS
 10
9.275
 20
0.625
 11
-0.0
 21
0.625
  0
LINE
  5
235
100
AcDbEntity
  8
0
100
AcDbLine
 62
2
  6
CONTINUOUS
 10
9.275
 20
1.25
 11
-0.0
 21
1.25
  0
LINE
  5
236
100
AcDbEntity
  8
0
100
AcDbLine
 62
2
  6
CONTINUOUS
 10
6.8
 20
0.0
 11
6.8
 21
1.25
  0
LINE
  5
237
100
AcDbEntity
  8
0
100
AcDbLine
 62
2
  6
CONTINUOUS
 10
6.4
 20
0.0
 11
6.4
 21
0.625
  0
LINE
  5
238
100
AcDbEntity
  8
0
100
AcDbLine
 62
2
  6
CONTINUOUS
 10
5.9
 20
0.0
 11
5.9
 21
0.625
  0
LINE
  5
239
100
AcDbEntity
  8
0
100
AcDbLine
 62
2
  6
CONTINUOUS
 10
5.2
 20
0.0
 11
5.2
 21
0.625
  0
LINE
  5
23A
100
AcDbEntity
  8
0
100
AcDbLine
 62
2
  6
CONTINUOUS
 10
4.1
 20
0.0
 11
4.1
 21
1.25
  0
LINE
  5
23B
100
AcDbEntity
  8
0
100
AcDbLine
 62
2
  6
CONTINUOUS
 10
-0.0
 20
0.0
 11
-0.0
 21
1.25
  0
MTEXT
  5
23C
100
AcDbEntity
  8
0
100
AcDbMText
 62
2
  6
CONTINUOUS
  7
STANDARD
 71
2
 72
1
 10
6.6
 20
0.325
 30
0.0
 11
1.0
 21
0.0
 31
0.0
 44
0.9
  1
2
 40
0.125
 41
0.2
  0
MTEXT
  5
23D
100
AcDbEntity
  8
0
100
AcDbMText
 62
2
  6
CONTINUOUS
  7
STANDARD
 71
2
 72
1
 10
6.15
 20
0.325
 30
0.0
 11
1.0
 21
0.0
 31
0.0
 44
0.9
  1
C
 40
0.125
 41
0.2
  0
MTEXT
  5
23E
100
AcDbEntity
  8
0
100
AcDbMText
 62
2
  6
CONTINUOUS
  7
STANDARD
 71
2
 72
1
 10
5.55
 20
0.325
 30
0.0
 11
1.0
 21
0.0
 31
0.0
 44
0.9
  1
1.000
 40
0.125
 41
1.0
  0
MTEXT
  5
23F
100
AcDbEntity
  8
0
100
AcDbMText
 62
2
  6
CONTINUOUS
  7
STANDARD
 71
2
 72
1
 10
4.65
 20
0.325
 30
0.0
 11
1.0
 21
0.0
 31
0.0
 44
0.9
  1
Jun-13-24
 40
0.125
 41
1.8
  0
MTEXT
  5
240
100
AcDbEntity
  8
0
100
AcDbMText
 62
2
  6
CONTINUOUS
  7
STANDARD
 71
2
 72
1
 10
2.05
 20
0.4625
 30
0.0
 11
1.0
 21
0.0
 31
0.0
 44
0.9
  1
T-2A Gasket mount Sun\PDirect mount, cross pilot
 40
0.125
 41
5.0
  0
MTEXT
  5
241
100
AcDbEntity
  8
0
100
AcDbMText
 62
2
  6
CONTINUOUS
  7
STANDARD
 71
1
 72
1
 10
6.45
 20
0.5625
 30
0.0
 11
1.0
 21
0.0
 31
0.0
 44
0.9
  1
SHEET
 40
0.06
 41
0.48
  0
MTEXT
  5
242
100
AcDbEntity
  8
0
100
AcDbMText
 62
2
  6
CONTINUOUS
  7
STANDARD
 71
1
 72
1
 10
5.95
 20
0.5625
 30
0.0
 11
1.0
 21
0.0
 31
0.0
 44
0.9
  1
DWG SIZE
 40
0.06
 41
0.768
  0
MTEXT
  5
243
100
AcDbEntity
  8
0
100
AcDbMText
 62
2
  6
CONTINUOUS
  7
STANDARD
 71
1
 72
1
 10
5.25
 20
0.5625
 30
0.0
 11
1.0
 21
0.0
 31
0.0
 44
0.9
  1
SCALE
 40
0.06
 41
0.48
  0
MTEXT
  5
244
100
AcDbEntity
  8
0
100
AcDbMText
 62
2
  6
CONTINUOUS
  7
STANDARD
 71
1
 72
1
 10
4.15
 20
0.5625
 30
0.0
 11
1.0
 21
0.0
 31
0.0
 44
0.9
  1
DATE
 40
0.06
 41
0.384
  0
MTEXT
  5
245
100
AcDbEntity
  8
0
100
AcDbMText
 62
2
  6
CONTINUOUS
  7
STANDARD
 71
1
 72
1
 10
0.05
 20
0.5625
 30
0.0
 11
1.0
 21
0.0
 31
0.0
 44
0.9
  1
DESCRIPTION
 40
0.06
 41
1.056
  0
MTEXT
  5
246
100
AcDbEntity
  8
0
100
AcDbMText
 62
2
  6
CONTINUOUS
  7
STANDARD
 71
2
 72
1
 10
5.45
 20
1.0375
 30
0.0
 11
1.0
 21
0.0
 31
0.0
 44
0.9
  1
ALL DIMENSIONS IN INCH\PVIEWS ARE THIRD ANGLE
 40
0.12
 41
4.224
  0
MTEXT
  5
247
100
AcDbEntity
  8
0
100
AcDbMText
 62
2
  6
CONTINUOUS
  7
STANDARD
 71
2
 72
1
 10
2.05
 20
0.95
 30
0.0
 11
1.0
 21
0.0
 31
0.0
 44
0.9
  1
ZTG
 40
0.125
 41
0.6
  0
MTEXT
  5
248
100
AcDbEntity
  8
0
100
AcDbMText
 62
2
  6
CONTINUOUS
  7
STANDARD
 71
1
 72
1
 10
0.05
 20
1.1875
 30
0.0
 11
1.0
 21
0.0
 31
0.0
 44
0.9
  1
MODEL
 40
0.06
 41
0.48
  0
ENDBLK
  5
249
100
AcDbEntity
  8
0
  6
BYBLOCK
 62
0
100
AcDbBlockEnd
  0
BLOCK
  5
24A
100
AcDbEntity
  8
0
100
AcDbBlockBegin
  2
*T2
 70
1
 10
0.0
 20
0.0
  3
*T2
  1

  0
LINE
  5
24B
100
AcDbEntity
  8
0
100
AcDbLine
 62
2
  6
CONTINUOUS
 10
0.0
 20
0.0
 11
9.055
 21
0.0
  0
LINE
  5
24C
100
AcDbEntity
  8
0
100
AcDbLine
 62
2
  6
CONTINUOUS
 10
0.0
 20
0.0
 11
0.0
 21
-3.094
  0
LINE
  5
24D
100
AcDbEntity
  8
0
100
AcDbLine
 62
2
  6
CONTINUOUS
 10
0.0
 20
-0.344
 11
9.055
 21
-0.344
  0
LINE
  5
24E
100
AcDbEntity
  8
0
100
AcDbLine
 62
2
  6
CONTINUOUS
 10
0.0
 20
-0.594
 11
9.055
 21
-0.594
  0
LINE
  5
24F
100
AcDbEntity
  8
0
100
AcDbLine
 62
2
  6
CONTINUOUS
 10
0.0
 20
-0.844
 11
9.055
 21
-0.844
  0
LINE
  5
250
100
AcDbEntity
  8
0
100
AcDbLine
 62
2
  6
CONTINUOUS
 10
0.0
 20
-1.094
 11
9.055
 21
-1.094
  0
LINE
  5
251
100
AcDbEntity
  8
0
100
AcDbLine
 62
2
  6
CONTINUOUS
 10
0.0
 20
-1.344
 11
9.055
 21
-1.344
  0
LINE
  5
252
100
AcDbEntity
  8
0
100
AcDbLine
 62
2
  6
CONTINUOUS
 10
0.0
 20
-1.594
 11
9.055
 21
-1.594
  0
LINE
  5
253
100
AcDbEntity
  8
0
100
AcDbLine
 62
2
  6
CONTINUOUS
 10
0.0
 20
-1.844
 11
9.055
 21
-1.844
  0
LINE
  5
254
100
AcDbEntity
  8
0
100
AcDbLine
 62
2
  6
CONTINUOUS
 10
0.0
 20
-2.094
 11
9.055
 21
-2.094
  0
LINE
  5
255
100
AcDbEntity
  8
0
100
AcDbLine
 62
2
  6
CONTINUOUS
 10
0.0
 20
-2.344
 11
9.055
 21
-2.344
  0
LINE
  5
256
100
AcDbEntity
  8
0
100
AcDbLine
 62
2
  6
CONTINUOUS
 10
0.0
 20
-2.594
 11
9.055
 21
-2.594
  0
LINE
  5
257
100
AcDbEntity
  8
0
100
AcDbLine
 62
2
  6
CONTINUOUS
 10
0.0
 20
-2.844
 11
9.055
 21
-2.844
  0
LINE
  5
258
100
AcDbEntity
  8
0
100
AcDbLine
 62
2
  6
CONTINUOUS
 10
0.0
 20
-3.094
 11
9.055
 21
-3.094
  0
LINE
  5
259
100
AcDbEntity
  8
0
100
AcDbLine
 62
2
  6
CONTINUOUS
 10
3.055
 20
0.0
 11
3.055
 21
-3.094
  0
LINE
  5
25A
100
AcDbEntity
  8
0
100
AcDbLine
 62
2
  6
CONTINUOUS
 10
9.055
 20
0.0
 11
9.055
 21
-3.094
  0
MTEXT
  5
25B
100
AcDbEntity
  8
0
100
AcDbMText
 62
2
  6
CONTINUOUS
  7
STANDARD
 71
2
 72
1
 10
1.5275
 20
-0.0995
 30
0.0
 11
1.0
 21
0.0
 31
0.0
 44
0.9
  1
Technical Data
 40
0.145
 41
3.248
  0
MTEXT
  5
25C
100
AcDbEntity
  8
0
100
AcDbMText
 62
2
  6
CONTINUOUS
  7
STANDARD
 71
2
 72
1
 10
4.555
 20
-0.0995
 30
0.0
 11
1.0
 21
0.0
 31
0.0
 44
0.9
  1
U.S. Units
 40
0.145
 41
2.32
  0
MTEXT
  5
25D
100
AcDbEntity
  8
0
100
AcDbMText
 62
2
  6
CONTINUOUS
  7
STANDARD
 71
2
 72
1
 10
7.555
 20
-0.0995
 30
0.0
 11
1.0
 21
0.0
 31
0.0
 44
0.9
  1
Metric Units
 40
0.145
 41
2.784
  0
MTEXT
  5
25E
100
AcDbEntity
  8
0
100
AcDbMText
 62
2
  6
CONTINUOUS
  7
STANDARD
 71
2
 72
1
 10
1.5275
 20
-0.4065
 30
0.0
 11
1.0
 21
0.0
 31
0.0
 44
0.9
  1
Cavity
 40
0.125
 41
1.2
  0
MTEXT
  5
25F
100
AcDbEntity
  8
0
100
AcDbMText
 62
2
  6
CONTINUOUS
  7
STANDARD
 71
2
 72
1
 10
6.055
 20
-0.4065
 30
0.0
 11
1.0
 21
0.0
 31
0.0
 44
0.9
  1
T-2A
 40
0.125
 41
0.8
  0
MTEXT
  5
260
100
AcDbEntity
  8
0
100
AcDbMText
 62
2
  6
CONTINUOUS
  7
STANDARD
 71
2
 72
1
 10
1.5275
 20
-0.6565
 30
0.0
 11
1.0
 21
0.0
 31
0.0
 44
0.9
  1
Body Features
 40
0.125
 41
2.6
  0
MTEXT
  5
261
100
AcDbEntity
  8
0
100
AcDbMText
 62
2
  6
CONTINUOUS
  7
STANDARD
 71
2
 72
1
 10
6.055
 20
-0.6565
 30
0.0
 11
1.0
 21
0.0
 31
0.0
 44
0.9
  1
Direct mount, cross pilot
 40
0.125
 41
5.0
  0
MTEXT
  5
262
100
AcDbEntity
  8
0
100
AcDbMText
 62
2
  6
CONTINUOUS
  7
STANDARD
 71
2
 72
1
 10
1.5275
 20
-0.9065
 30
0.0
 11
1.0
 21
0.0
 31
0.0
 44
0.9
  1
Body Type
 40
0.125
 41
1.8
  0
MTEXT
  5
263
100
AcDbEntity
  8
0
100
AcDbMText
 62
2
  6
CONTINUOUS
  7
STANDARD
 71
2
 72
1
 10
6.055
 20
-0.9065
 30
0.0
 11
1.0
 21
0.0
 31
0.0
 44
0.9
  1
Gasket mount
 40
0.125
 41
2.4
  0
MTEXT
  5
264
100
AcDbEntity
  8
0
100
AcDbMText
 62
2
  6
CONTINUOUS
  7
STANDARD
 71
2
 72
1
 10
1.5275
 20
-1.1565
 30
0.0
 11
1.0
 21
0.0
 31
0.0
 44
0.9
  1
Interface
 40
0.125
 41
1.8
  0
MTEXT
  5
265
100
AcDbEntity
  8
0
100
AcDbMText
 62
2
  6
CONTINUOUS
  7
STANDARD
 71
2
 72
1
 10
6.055
 20
-1.1565
 30
0.0
 11
1.0
 21
0.0
 31
0.0
 44
0.9
  1
Sun
 40
0.125
 41
0.6
  0
MTEXT
  5
266
100
AcDbEntity
  8
0
100
AcDbMText
 62
2
  6
CONTINUOUS
  7
STANDARD
 71
2
 72
1
 10
1.5275
 20
-1.4065
 30
0.0
 11
1.0
 21
0.0
 31
0.0
 44
0.9
  1
Open Cavity Quantity
 40
0.125
 41
4.0
  0
MTEXT
  5
267
100
AcDbEntity
  8
0
100
AcDbMText
 62
2
  6
CONTINUOUS
  7
STANDARD
 71
2
 72
1
 10
6.055
 20
-1.4065
 30
0.0
 11
1.0
 21
0.0
 31
0.0
 44
0.9
  1
1
 40
0.125
 41
0.2
  0
MTEXT
  5
268
100
AcDbEntity
  8
0
100
AcDbMText
 62
2
  6
CONTINUOUS
  7
STANDARD
 71
2
 72
1
 10
1.5275
 20
-1.6565
 30
0.0
 11
1.0
 21
0.0
 31
0.0
 44
0.9
  1
Weight
 40
0.125
 41
1.2
  0
MTEXT
  5
269
100
AcDbEntity
  8
0
100
AcDbMText
 62
2
  6
CONTINUOUS
  7
STANDARD
 71
2
 72
1
 10
4.555
 20
-1.6565
 30
0.0
 11
1.0
 21
0.0
 31
0.0
 44
0.9
  1
1.353 lb.
 40
0.125
 41
1.8
  0
MTEXT
  5
26A
100
AcDbEntity
  8
0
100
AcDbMText
 62
2
  6
CONTINUOUS
  7
STANDARD
 71
2
 72
1
 10
7.555
 20
-1.6565
 30
0.0
 11
1.0
 21
0.0
 31
0.0
 44
0.9
  1
0,614 kg.
 40
0.125
 41
1.8
  0
MTEXT
  5
26B
100
AcDbEntity
  8
0
100
AcDbMText
 62
2
  6
CONTINUOUS
  7
STANDARD
 71
2
 72
1
 10
1.5275
 20
-1.9065
 30
0.0
 11
1.0
 21
0.0
 31
0.0
 44
0.9
  1
Mounting Hole Diameter
 40
0.125
 41
4.4
  0
MTEXT
  5
26C
100
AcDbEntity
  8
0
100
AcDbMText
 62
2
  6
CONTINUOUS
  7
STANDARD
 71
2
 72
1
 10
4.555
 20
-1.9065
 30
0.0
 11
1.0
 21
0.0
 31
0.0
 44
0.9
  1
.42 in.
 40
0.125
 41
1.4
  0
MTEXT
  5
26D
100
AcDbEntity
  8
0
100
AcDbMText
 62
2
  6
CONTINUOUS
  7
STANDARD
 71
2
 72
1
 10
7.555
 20
-1.9065
 30
0.0
 11
1.0
 21
0.0
 31
0.0
 44
0.9
  1
10,7 mm
 40
0.125
 41
1.4
  0
MTEXT
  5
26E
100
AcDbEntity
  8
0
100
AcDbMText
 62
2
  6
CONTINUOUS
  7
STANDARD
 71
2
 72
1
 10
1.5275
 20
-2.1565
 30
0.0
 11
1.0
 21
0.0
 31
0.0
 44
0.9
  1
Mounting Hole Depth
 40
0.125
 41
3.8
  0
MTEXT
  5
26F
100
AcDbEntity
  8
0
100
AcDbMText
 62
2
  6
CONTINUOUS
  7
STANDARD
 71
2
 72
1
 10
6.055
 20
-2.1565
 30
0.0
 11
1.0
 21
0.0
 31
0.0
 44
0.9
  1
Through
 40
0.125
 41
1.4
  0
MTEXT
  5
270
100
AcDbEntity
  8
0
100
AcDbMText
 62
2
  6
CONTINUOUS
  7
STANDARD
 71
2
 72
1
 10
1.5275
 20
-2.4065
 30
0.0
 11
1.0
 21
0.0
 31
0.0
 44
0.9
  1
Mounting Hole Quantity
 40
0.125
 41
4.4
  0
MTEXT
  5
271
100
AcDbEntity
  8
0
100
AcDbMText
 62
2
  6
CONTINUOUS
  7
STANDARD
 71
2
 72
1
 10
6.055
 20
-2.4065
 30
0.0
 11
1.0
 21
0.0
 31
0.0
 44
0.9
  1
2
 40
0.125
 41
0.2
  0
MTEXT
  5
272
100
AcDbEntity
  8
0
100
AcDbMText
 62
2
  6
CONTINUOUS
  7
STANDARD
 71
2
 72
1
 10
1.5275
 20
-2.6565
 30
0.0
 11
1.0
 21
0.0
 31
0.0
 44
0.9
  1
Mounting Hole C'bore Diameter
 40
0.125
 41
5.8
  0
MTEXT
  5
273
100
AcDbEntity
  8
0
100
AcDbMText
 62
2
  6
CONTINUOUS
  7
STANDARD
 71
2
 72
1
 10
4.555
 20
-2.6565
 30
0.0
 11
1.0
 21
0.0
 31
0.0
 44
0.9
  1
.59 in.
 40
0.125
 41
1.4
  0
MTEXT
  5
274
100
AcDbEntity
  8
0
100
AcDbMText
 62
2
  6
CONTINUOUS
  7
STANDARD
 71
2
 72
1
 10
7.555
 20
-2.6565
 30
0.0
 11
1.0
 21
0.0
 31
0.0
 44
0.9
  1
15,0 mm
 40
0.125
 41
1.4
  0
MTEXT
  5
275
100
AcDbEntity
  8
0
100
AcDbMText
 62
2
  6
CONTINUOUS
  7
STANDARD
 71
2
 72
1
 10
1.5275
 20
-2.9065
 30
0.0
 11
1.0
 21
0.0
 31
0.0
 44
0.9
  1
Mounting Hole C'bore Depth
 40
0.125
 41
5.2
  0
MTEXT
  5
276
100
AcDbEntity
  8
0
100
AcDbMText
 62
2
  6
CONTINUOUS
  7
STANDARD
 71
2
 72
1
 10
4.555
 20
-2.9065
 30
0.0
 11
1.0
 21
0.0
 31
0.0
 44
0.9
  1
.31 in.
 40
0.125
 41
1.4
  0
MTEXT
  5
277
100
AcDbEntity
  8
0
100
AcDbMText
 62
2
  6
CONTINUOUS
  7
STANDARD
 71
2
 72
1
 10
7.555
 20
-2.9065
 30
0.0
 11
1.0
 21
0.0
 31
0.0
 44
0.9
  1
8 mm
 40
0.125
 41
0.8
  0
ENDBLK
  5
278
100
AcDbEntity
  8
0
  6
BYBLOCK
 62
0
100
AcDbBlockEnd
  0
BLOCK
  5
279
100
AcDbEntity
  8
0
100
AcDbBlockBegin
  2
*T3
 70
1
 10
0.0
 20
0.0
  3
*T3
  1

  0
LINE
  5
27A
100
AcDbEntity
  8
0
100
AcDbLine
 62
2
  6
CONTINUOUS
 10
0.0
 20
0.0
 11
4.6
 21
0.0
  0
LINE
  5
27B
100
AcDbEntity
  8
0
100
AcDbLine
 62
2
  6
CONTINUOUS
 10
0.0
 20
0.0
 11
0.0
 21
-1.18775
  0
LINE
  5
27C
100
AcDbEntity
  8
0
100
AcDbLine
 62
2
  6
CONTINUOUS
 10
0.0
 20
-0.34375
 11
4.6
 21
-0.34375
  0
LINE
  5
27D
100
AcDbEntity
  8
0
100
AcDbLine
 62
2
  6
CONTINUOUS
 10
0.0
 20
-0.68775
 11
4.6
 21
-0.68775
  0
LINE
  5
27E
100
AcDbEntity
  8
0
100
AcDbLine
 62
2
  6
CONTINUOUS
 10
0.0
 20
-0.93775
 11
4.6
 21
-0.93775
  0
LINE
  5
27F
100
AcDbEntity
  8
0
100
AcDbLine
 62
2
  6
CONTINUOUS
 10
0.0
 20
-1.18775
 11
4.6
 21
-1.18775
  0
LINE
  5
280
100
AcDbEntity
  8
0
100
AcDbLine
 62
2
  6
CONTINUOUS
 10
1.3
 20
-0.34375
 11
1.3
 21
-1.18775
  0
LINE
  5
281
100
AcDbEntity
  8
0
100
AcDbLine
 62
2
  6
CONTINUOUS
 10
3.3
 20
-0.34375
 11
3.3
 21
-1.18775
  0
LINE
  5
282
100
AcDbEntity
  8
0
100
AcDbLine
 62
2
  6
CONTINUOUS
 10
4.6
 20
0.0
 11
4.6
 21
-1.18775
  0
MTEXT
  5
283
100
AcDbEntity
  8
0
100
AcDbMText
 62
2
  6
CONTINUOUS
  7
STANDARD
 71
2
 72
1
 10
2.3
 20
-0.099375
 30
0.0
 11
1.0
 21
0.0
 31
0.0
 44
0.9
  1
Port Headings
 40
0.145
 41
3.016
  0
MTEXT
  5
284
100
AcDbEntity
  8
0
100
AcDbMText
 62
2
  6
CONTINUOUS
  7
STANDARD
 71
2
 72
1
 10
0.65
 20
-0.44325
 30
0.0
 11
1.0
 21
0.0
 31
0.0
 44
0.9
  1
Product
 40
0.145
 41
1.624
  0
MTEXT
  5
285
100
AcDbEntity
  8
0
100
AcDbMText
 62
2
  6
CONTINUOUS
  7
STANDARD
 71
2
 72
1
 10
2.3
 20
-0.44325
 30
0.0
 11
1.0
 21
0.0
 31
0.0
 44
0.9
  1
Port
 40
0.145
 41
0.928
  0
MTEXT
  5
286
100
AcDbEntity
  8
0
100
AcDbMText
 62
2
  6
CONTINUOUS
  7
STANDARD
 71
2
 72
1
 10
3.95
 20
-0.44325
 30
0.0
 11
1.0
 21
0.0
 31
0.0
 44
0.9
  1
Size
 40
0.145
 41
0.928
  0
MTEXT
  5
287
100
AcDbEntity
  8
0
100
AcDbMText
 62
2
  6
CONTINUOUS
  7
STANDARD
 71
2
 72
1
 10
0.65
 20
-0.75025
 30
0.0
 11
1.0
 21
0.0
 31
0.0
 44
0.9
  1
ZTG
 40
0.125
 41
0.6
  0
MTEXT
  5
288
100
AcDbEntity
  8
0
100
AcDbMText
 62
2
  6
CONTINUOUS
  7
STANDARD
 71
2
 72
1
 10
2.3
 20
-0.75025
 30
0.0
 11
1.0
 21
0.0
 31
0.0
 44
0.9
  1
Ports C2, V1, V2
 40
0.125
 41
3.2
  0
MTEXT
  5
289
100
AcDbEntity
  8
0
100
AcDbMText
 62
2
  6
CONTINUOUS
  7
STANDARD
 71
2
 72
1
 10
3.95
 20
-0.75025
 30
0.0
 11
1.0
 21
0.0
 31
0.0
 44
0.9
  1
SAE 8
 40
0.125
 41
1.0
  0
MTEXT
  5
28A
100
AcDbEntity
  8
0
100
AcDbMText
 62
2
  6
CONTINUOUS
  7
STANDARD
 71
2
 72
1
 10
0.65
 20
-1.00025
 30
0.0
 11
1.0
 21
0.0
 31
0.0
 44
0.9
  1
ZTG
 40
0.125
 41
0.6
  0
MTEXT
  5
28B
100
AcDbEntity
  8
0
100
AcDbMText
 62
2
  6
CONTINUOUS
  7
STANDARD
 71
2
 72
1
 10
2.3
 20
-1.00025
 30
0.0
 11
1.0
 21
0.0
 31
0.0
 44
0.9
  1
Port C1
 40
0.125
 41
1.4
  0
MTEXT
  5
28C
100
AcDbEntity
  8
0
100
AcDbMText
 62
2
  6
CONTINUOUS
  7
STANDARD
 71
2
 72
1
 10
3.95
 20
-1.00025
 30
0.0
 11
1.0
 21
0.0
 31
0.0
 44
0.9
  1
.75 DIA MAX
 40
0.125
 41
2.2
  0
ENDBLK
  5
28D
100
AcDbEntity
  8
0
  6
BYBLOCK
 62
0
100
AcDbBlockEnd
  0
ENDSEC
  0
SECTION
  2
ENTITIES
  0
IMAGE
  5
28E
100
AcDbEntity
  8
0
100
AcDbRasterImage
 62
7
  6
CONTINUOUS
 10
19.2297077316
 20
0.3094318264
 30
0.0
 11
0.0066666667
 21
0.0
 31
0.0
 12
0.0
 22
0.0066666667
 32
0.0
 13
369.0
 23
92.0
340
       308
 70
9
280
0
281
50
282
50
283
0
360
       302
 71
1
 91
2
 14
-0.5
 24
-0.5
 14
368.5
 24
91.5
  0
INSERT
  5
28F
100
AcDbEntity
  8
0
100
AcDbBlockReference
 62
2
  6
CONTINUOUS
  2
SUN_FIRST_THIRD_ANGLE_BL0
 10
20.4816717061
 20
1.2289683772
  0
ACAD_TABLE
  5
290
100
AcDbEntity
  8
0
 62
2
  6
CONTINUOUS
100
AcDbBlockReference
  2
*T1
 10
12.42375
 20
0.30125
 30
0.0
100
AcDbTable
342
       30A
343
20A
 11
1.0
 21
0.0
 31
0.0
 90
6
 91
4
 92
6
 93
20
 94
0
 95
0
 96
0
 70
1
 41
0.0
141
0.525
141
0.1
141
0.525
141
0.1
142
4.1
142
1.1
142
0.7
142
0.5
142
0.4
142
2.475
171
1
172
0
173
0
174
0
175
1
176
1
 91
33
178
0
145
0.0
301
CELL_VALUE
 90
4
  1
T-2A Gasket mount Sun\PDirect mount, cross pilot
304
ACVALUE_END
170
2
140
0.125
171
1
172
0
173
0
174
0
175
1
176
1
 91
33
178
0
145
0.0
301
CELL_VALUE
 90
4
  1
Jun-13-24
304
ACVALUE_END
170
5
140
0.125
171
1
172
0
173
0
174
0
175
1
176
1
 91
33
178
0
145
0.0
301
CELL_VALUE
 90
4
  1
1.000
304
ACVALUE_END
170
5
140
0.125
171
1
172
0
173
0
174
0
175
1
176
1
 91
33
178
0
145
0.0
301
CELL_VALUE
 90
4
  1
C
304
ACVALUE_END
170
5
140
0.125
171
1
172
0
173
0
174
0
175
1
176
1
 91
33
178
0
145
0.0
301
CELL_VALUE
 90
4
  1
2
304
ACVALUE_END
170
5
140
0.125
171
1
172
0
173
0
174
0
175
1
176
1
 91
33
178
0
145
0.0
301
CELL_VALUE
 90
4
  1
 
304
ACVALUE_END
170
1
140
0.125
171
1
172
0
173
0
174
0
175
1
176
1
 91
33
178
0
145
0.0
301
CELL_VALUE
 90
4
  1
DESCRIPTION
304
ACVALUE_END
170
1
140
0.06
171
1
172
0
173
0
174
0
175
1
176
1
 91
33
178
0
145
0.0
301
CELL_VALUE
 90
4
  1
DATE
304
ACVALUE_END
170
1
140
0.06
171
1
172
0
173
0
174
0
175
1
176
1
 91
33
178
0
145
0.0
301
CELL_VALUE
 90
4
  1
SCALE
304
ACVALUE_END
170
1
140
0.06
171
1
172
0
173
0
174
0
175
1
176
1
 91
33
178
0
145
0.0
301
CELL_VALUE
 90
4
  1
DWG SIZE
304
ACVALUE_END
170
1
140
0.06
171
1
172
0
173
0
174
0
175
1
176
1
 91
33
178
0
145
0.0
301
CELL_VALUE
 90
4
  1
SHEET
304
ACVALUE_END
170
1
140
0.06
171
1
172
0
173
0
174
0
175
1
176
1
 91
33
178
0
145
0.0
301
CELL_VALUE
 90
4
  1
 
304
ACVALUE_END
170
1
140
0.125
171
1
172
0
173
0
174
0
175
1
176
1
 91
33
178
0
145
0.0
301
CELL_VALUE
 90
4
  1
ZTG
304
ACVALUE_END
170
5
140
0.125
171
1
172
0
173
0
174
0
175
4
176
1
 91
33
178
0
145
0.0
301
CELL_VALUE
 90
4
  1
ALL DIMENSIONS IN INCH\PVIEWS ARE THIRD ANGLE
304
ACVALUE_END
170
5
140
0.12
171
1
172
0
173
1
174
0
175
1
176
1
 91
1
178
0
145
0.0
170
1
171
1
172
0
173
1
174
0
175
1
176
1
 91
1
178
0
145
0.0
170
1
171
1
172
0
173
1
174
0
175
1
176
1
 91
1
178
0
145
0.0
170
5
171
1
172
0
173
0
174
0
175
1
176
1
 91
33
178
0
145
0.0
301
CELL_VALUE
 90
4
  1
 
304
ACVALUE_END
170
1
140
0.125
171
1
172
0
173
0
174
0
175
1
176
1
 91
33
178
0
145
0.0
301
CELL_VALUE
 90
4
  1
MODEL
304
ACVALUE_END
170
1
140
0.06
171
1
172
0
173
0
174
0
175
1
176
1
 91
33
178
0
145
0.0
301
CELL_VALUE
 90
4
  1
 
304
ACVALUE_END
170
1
140
0.125
171
1
172
0
173
0
174
0
175
1
176
1
 91
33
178
0
145
0.0
301
CELL_VALUE
 90
4
  1
 
304
ACVALUE_END
170
1
140
0.125
171
1
172
0
173
0
174
0
175
1
176
1
 91
33
178
0
145
0.0
301
CELL_VALUE
 90
4
  1
 
304
ACVALUE_END
170
1
140
0.125
171
1
172
0
173
0
174
0
175
1
176
1
 91
33
178
0
145
0.0
301
CELL_VALUE
 90
4
  1
 
304
ACVALUE_END
170
1
140
0.125
171
1
172
0
173
0
174
0
175
1
176
1
 91
33
178
0
145
0.0
301
CELL_VALUE
 90
4
  1
 
304
ACVALUE_END
170
1
140
0.125
  0
ACAD_TABLE
  5
291
100
AcDbEntity
  8
0
 62
2
  6
CONTINUOUS
100
AcDbBlockReference
  2
*T2
 10
12.4237499994
 20
16.47875
 30
0.0
100
AcDbTable
342
       309
343
20B
 11
1.0
 21
0.0
 31
0.0
 90
22
 91
12
 92
3
 93
16
 94
0
 95
0
 96
0
 41
0.028
141
0.344
141
0.25
141
0.25
141
0.25
141
0.25
141
0.25
141
0.25
141
0.25
141
0.25
141
0.25
141
0.25
141
0.25
142
3.055
142
3.0
142
3.0
171
1
172
0
173
0
174
0
175
1
176
1
 91
33
178
0
145
0.0
301
CELL_VALUE
 90
4
  1
Technical Data
304
ACVALUE_END
170
5
140
0.145
171
1
172
0
173
0
174
0
175
1
176
1
 91
33
178
0
145
0.0
301
CELL_VALUE
 90
4
  1
U.S. Units
304
ACVALUE_END
170
5
140
0.145
171
1
172
0
173
0
174
0
175
1
176
1
 91
33
178
0
145
0.0
301
CELL_VALUE
 90
4
  1
Metric Units
304
ACVALUE_END
170
5
140
0.145
171
1
172
0
173
0
174
0
175
1
176
1
 91
33
178
0
145
0.0
301
CELL_VALUE
 90
4
  1
Cavity
304
ACVALUE_END
170
5
140
0.125
171
1
172
0
173
0
174
0
175
2
176
1
 91
33
178
0
145
0.0
301
CELL_VALUE
 90
4
  1
T-2A
304
ACVALUE_END
170
5
140
0.125
171
1
172
0
173
1
174
0
175
1
176
1
 91
1
178
0
145
0.0
170
1
171
1
172
0
173
0
174
0
175
1
176
1
 91
33
178
0
145
0.0
301
CELL_VALUE
 90
4
  1
Body Features
304
ACVALUE_END
170
5
140
0.125
171
1
172
0
173
0
174
0
175
2
176
1
 91
33
178
0
145
0.0
301
CELL_VALUE
 90
4
  1
Direct mount, cross pilot
304
ACVALUE_END
170
5
140
0.125
171
1
172
0
173
1
174
0
175
1
176
1
 91
1
178
0
145
0.0
170
1
171
1
172
0
173
0
174
0
175
1
176
1
 91
33
178
0
145
0.0
301
CELL_VALUE
 90
4
  1
Body Type
304
ACVALUE_END
170
5
140
0.125
171
1
172
0
173
0
174
0
175
2
176
1
 91
33
178
0
145
0.0
301
CELL_VALUE
 90
4
  1
Gasket mount
304
ACVALUE_END
170
5
140
0.125
171
1
172
0
173
1
174
0
175
1
176
1
 91
1
178
0
145
0.0
170
1
171
1
172
0
173
0
174
0
175
1
176
1
 91
33
178
0
145
0.0
301
CELL_VALUE
 90
4
  1
Interface
304
ACVALUE_END
170
5
140
0.125
171
1
172
0
173
0
174
0
175
2
176
1
 91
33
178
0
145
0.0
301
CELL_VALUE
 90
4
  1
Sun
304
ACVALUE_END
170
5
140
0.125
171
1
172
0
173
1
174
0
175
1
176
1
 91
1
178
0
145
0.0
170
1
171
1
172
0
173
0
174
0
175
1
176
1
 91
33
178
0
145
0.0
301
CELL_VALUE
 90
4
  1
Open Cavity Quantity
304
ACVALUE_END
170
5
140
0.125
171
1
172
0
173
0
174
0
175
2
176
1
 91
33
178
0
145
0.0
301
CELL_VALUE
 90
4
  1
1
304
ACVALUE_END
170
5
140
0.125
171
1
172
0
173
1
174
0
175
1
176
1
 91
1
178
0
145
0.0
170
1
171
1
172
0
173
0
174
0
175
1
176
1
 91
33
178
0
145
0.0
301
CELL_VALUE
 90
4
  1
Weight
304
ACVALUE_END
170
5
140
0.125
171
1
172
0
173
0
174
0
175
1
176
1
 91
33
178
0
145
0.0
301
CELL_VALUE
 90
4
  1
1.353 lb.
304
ACVALUE_END
170
5
140
0.125
171
1
172
0
173
0
174
0
175
1
176
1
 91
33
178
0
145
0.0
301
CELL_VALUE
 90
4
  1
0,614 kg.
304
ACVALUE_END
170
5
140
0.125
171
1
172
0
173
0
174
0
175
1
176
1
 91
33
178
0
145
0.0
301
CELL_VALUE
 90
4
  1
Mounting Hole Diameter
304
ACVALUE_END
170
5
140
0.125
171
1
172
0
173
0
174
0
175
1
176
1
 91
33
178
0
145
0.0
301
CELL_VALUE
 90
4
  1
.42 in.
304
ACVALUE_END
170
5
140
0.125
171
1
172
0
173
0
174
0
175
1
176
1
 91
33
178
0
145
0.0
301
CELL_VALUE
 90
4
  1
10,7 mm
304
ACVALUE_END
170
5
140
0.125
171
1
172
0
173
0
174
0
175
1
176
1
 91
33
178
0
145
0.0
301
CELL_VALUE
 90
4
  1
Mounting Hole Depth
304
ACVALUE_END
170
5
140
0.125
171
1
172
0
173
0
174
0
175
2
176
1
 91
33
178
0
145
0.0
301
CELL_VALUE
 90
4
  1
Through
304
ACVALUE_END
170
5
140
0.125
171
1
172
0
173
1
174
0
175
1
176
1
 91
1
178
0
145
0.0
170
1
171
1
172
0
173
0
174
0
175
1
176
1
 91
33
178
0
145
0.0
301
CELL_VALUE
 90
4
  1
Mounting Hole Quantity
304
ACVALUE_END
170
5
140
0.125
171
1
172
0
173
0
174
0
175
2
176
1
 91
33
178
0
145
0.0
301
CELL_VALUE
 90
4
  1
2
304
ACVALUE_END
170
5
140
0.125
171
1
172
0
173
1
174
0
175
1
176
1
 91
1
178
0
145
0.0
170
1
171
1
172
0
173
0
174
0
175
1
176
1
 91
33
178
0
145
0.0
301
CELL_VALUE
 90
4
  1
Mounting Hole C'bore Diameter
304
ACVALUE_END
170
5
140
0.125
171
1
172
0
173
0
174
0
175
1
176
1
 91
33
178
0
145
0.0
301
CELL_VALUE
 90
4
  1
.59 in.
304
ACVALUE_END
170
5
140
0.125
171
1
172
0
173
0
174
0
175
1
176
1
 91
33
178
0
145
0.0
301
CELL_VALUE
 90
4
  1
15,0 mm
304
ACVALUE_END
170
5
140
0.125
171
1
172
0
173
0
174
0
175
1
176
1
 91
33
178
0
145
0.0
301
CELL_VALUE
 90
4
  1
Mounting Hole C'bore Depth
304
ACVALUE_END
170
5
140
0.125
171
1
172
0
173
0
174
0
175
1
176
1
 91
33
178
0
145
0.0
301
CELL_VALUE
 90
4
  1
.31 in.
304
ACVALUE_END
170
5
140
0.125
171
1
172
0
173
0
174
0
175
1
176
1
 91
33
178
0
145
0.0
301
CELL_VALUE
 90
4
  1
8 mm
304
ACVALUE_END
170
5
140
0.125
  0
ACAD_TABLE
  5
292
100
AcDbEntity
  8
0
 62
2
  6
CONTINUOUS
100
AcDbBlockReference
  2
*T3
 10
0.52125
 20
1.709
 30
0.0
100
AcDbTable
342
       309
343
20C
 11
1.0
 21
0.0
 31
0.0
 90
22
 91
4
 92
3
 93
16
 94
0
 95
0
 96
0
 41
0.05
141
0.34375
141
0.344
141
0.25
141
0.25
142
1.3
142
2.0
142
1.3
171
1
172
0
173
0
174
0
175
3
176
1
 91
33
178
0
145
0.0
301
CELL_VALUE
 90
4
  1
Port Headings
304
ACVALUE_END
170
5
140
0.145
171
1
172
0
173
1
174
0
175
1
176
1
 91
1
178
0
145
0.0
170
1
171
1
172
0
173
1
174
0
175
1
176
1
 91
1
178
0
145
0.0
170
1
171
1
172
0
173
0
174
0
175
1
176
1
 91
33
178
0
145
0.0
301
CELL_VALUE
 90
4
  1
Product
304
ACVALUE_END
170
5
140
0.145
171
1
172
0
173
0
174
0
175
1
176
1
 91
33
178
0
145
0.0
301
CELL_VALUE
 90
4
  1
Port
304
ACVALUE_END
170
5
140
0.145
171
1
172
0
173
0
174
0
175
1
176
1
 91
33
178
0
145
0.0
301
CELL_VALUE
 90
4
  1
Size
304
ACVALUE_END
170
5
140
0.145
171
1
172
0
173
0
174
0
175
1
176
1
 91
33
178
0
145
0.0
301
CELL_VALUE
 90
4
  1
ZTG
304
ACVALUE_END
170
5
140
0.125
171
1
172
0
173
0
174
0
175
1
176
1
 91
33
178
0
145
0.0
301
CELL_VALUE
 90
4
  1
Ports C2, V1, V2
304
ACVALUE_END
170
5
140
0.125
171
1
172
0
173
0
174
0
175
1
176
1
 91
33
178
0
145
0.0
301
CELL_VALUE
 90
4
  1
SAE 8
304
ACVALUE_END
170
5
140
0.125
171
1
172
0
173
0
174
0
175
1
176
1
 91
33
178
0
145
0.0
301
CELL_VALUE
 90
4
  1
ZTG
304
ACVALUE_END
170
5
140
0.125
171
1
172
0
173
0
174
0
175
1
176
1
 91
33
178
0
145
0.0
301
CELL_VALUE
 90
4
  1
Port C1
304
ACVALUE_END
170
5
140
0.125
171
1
172
0
173
0
174
0
175
1
176
1
 91
33
178
0
145
0.0
301
CELL_VALUE
 90
4
  1
.75 DIA MAX
304
ACVALUE_END
170
5
140
0.125
  0
MTEXT
  5
293
100
AcDbEntity
  8
0
100
AcDbMText
 62
2
  6
CONTINUOUS
  7
STANDARD
 71
1
 72
1
 10
0.52125
 20
5.75995
 30
0.0
 11
1.0
 21
0.0
 31
0.0
 44
0.6
  3
Notes\P \P1. Important: Carefully consider\P   the maximum system pressure. The\P   pressure rating of the manifold is\P   dependent on the manifold material,\P   with the port type/size a secondary\P   consideration. Manifolds\P   constructed of alu
  3
minum are not\P   rated for pressures higher than\P   3000 psi (210 bar), regardless of\P   the port type/size specified.\P2. This drawing is for reference\P   only. It is generated by an\P   automated process and does not fall\P   under Sun's docume
  1
nt control\P   process.
 40
0.1
 41
3.04
  0
LINE
  5
294
100
AcDbEntity
  8
0
100
AcDbLine
 62
7
  6
CONTINUOUS
 10
0.30125
 20
0.30125
 11
0.30125
 21
16.69875
  0
LINE
  5
295
100
AcDbEntity
  8
0
100
AcDbLine
 62
7
  6
CONTINUOUS
 10
0.30125
 20
0.30125
 11
21.69875
 21
0.30125
  0
LINE
  5
296
100
AcDbEntity
  8
0
100
AcDbLine
 62
7
  6
CONTINUOUS
 10
0.30125
 20
16.69875
 11
21.69875
 21
16.69875
  0
LINE
  5
297
100
AcDbEntity
  8
0
100
AcDbLine
 62
7
  6
CONTINUOUS
 10
21.69875
 20
0.30125
 11
21.69875
 21
16.69875
  0
LINE
  5
298
100
AcDbEntity
  8
0
100
AcDbLine
 62
7
  6
CONTINUOUS
 10
9.7555092903
 20
6.5680253683
 11
11.1445106758
 21
6.471697795
  0
LINE
  5
299
100
AcDbEntity
  8
0
100
AcDbLine
 62
7
  6
CONTINUOUS
 10
10.8554893242
 20
10.528302205
 11
9.7555092903
 21
9.4658030189
  0
LINE
  5
29A
100
AcDbEntity
  8
0
100
AcDbLine
 62
7
  6
CONTINUOUS
 10
9.7555092903
 20
9.4658030189
 11
9.7555092903
 21
6.5680253683
  0
LINE
  5
29B
100
AcDbEntity
  8
0
100
AcDbLine
 62
7
  6
CONTINUOUS
 10
10.4582921859
 20
7.5227652358
 11
10.444731103
 21
7.5234704934
  0
LINE
  5
29C
100
AcDbEntity
  8
0
100
AcDbLine
 62
7
  6
CONTINUOUS
 10
12.2444907097
 20
10.4319746317
 11
11.1445106758
 21
9.3694754456
  0
LINE
  5
29D
100
AcDbEntity
  8
0
100
AcDbLine
 62
4
  6
CONTINUOUS
 10
11.9134614292
 20
8.4063997534
 11
11.9056968645
 21
8.4061442033
  0
LINE
  5
29E
100
AcDbEntity
  8
0
100
AcDbLine
 62
7
  6
CONTINUOUS
 10
11.1445106758
 20
6.471697795
 11
11.1445106758
 21
9.3694754456
  0
LINE
  5
29F
100
AcDbEntity
  8
0
100
AcDbLine
 62
7
  6
CONTINUOUS
 10
11.9324245825
 20
8.8077585366
 11
11.9345514421
 21
8.8095697755
  0
LINE
  5
2A0
100
AcDbEntity
  8
0
100
AcDbLine
 62
4
  6
CONTINUOUS
 10
11.8979322997
 20
8.5507775324
 11
11.9289905588
 21
8.5807775088
  0
LINE
  5
2A1
100
AcDbEntity
  8
0
100
AcDbLine
 62
4
  6
CONTINUOUS
 10
11.9056968645
 20
8.4061442033
 11
11.9005204873
 21
8.4156330945
  0
LINE
  5
2A2
100
AcDbEntity
  8
0
100
AcDbLine
 62
4
  6
CONTINUOUS
 10
11.9238141821
 20
8.488844185
 11
11.9264023704
 21
8.4840997391
  0
LINE
  5
2A3
100
AcDbEntity
  8
0
100
AcDbLine
 62
4
  6
CONTINUOUS
 10
11.8979322997
 20
8.427621985
 11
11.8979322997
 21
8.442110873
  0
LINE
  5
2A4
100
AcDbEntity
  8
0
100
AcDbLine
 62
4
  6
CONTINUOUS
 10
11.9289905588
 20
8.4721108493
 11
11.9289905588
 21
8.4576219614
  0
LINE
  5
2A5
100
AcDbEntity
  8
0
100
AcDbLine
 62
4
  6
CONTINUOUS
 10
11.8979322997
 20
8.442110873
 11
11.9005204873
 21
8.4590997583
  0
LINE
  5
2A6
100
AcDbEntity
  8
0
100
AcDbLine
 62
4
  6
CONTINUOUS
 10
11.9289905588
 20
8.4576219614
 11
11.9264023704
 21
8.4406330753
  0
LINE
  5
2A7
100
AcDbEntity
  8
0
100
AcDbLine
 62
4
  6
CONTINUOUS
 10
11.9005204873
 20
8.4590997583
 11
11.9031086768
 21
8.4688442015
  0
LINE
  5
2A8
100
AcDbEntity
  8
0
100
AcDbLine
 62
4
  6
CONTINUOUS
 10
11.9264023704
 20
8.4406330753
 11
11.921225994
 21
8.4211441914
  0
LINE
  5
2A9
100
AcDbEntity
  8
0
100
AcDbLine
 62
4
  6
CONTINUOUS
 10
11.921225994
 20
8.4211441914
 11
11.9134614292
 21
8.4063997534
  0
LINE
  5
2AA
100
AcDbEntity
  8
0
100
AcDbLine
 62
7
  6
CONTINUOUS
 10
11.1445106758
 20
9.3694754456
 11
9.7555092903
 21
9.4658030189
  0
LINE
  5
2AB
100
AcDbEntity
  8
0
100
AcDbLine
 62
4
  6
CONTINUOUS
 10
11.9005204873
 20
8.4156330945
 11
11.8979322997
 21
8.427621985
  0
LINE
  5
2AC
100
AcDbEntity
  8
0
100
AcDbLine
 62
4
  6
CONTINUOUS
 10
11.9264023704
 20
8.4840997391
 11
11.9289905588
 21
8.4721108493
  0
LINE
  5
2AD
100
AcDbEntity
  8
0
100
AcDbLine
 62
7
  6
CONTINUOUS
 10
12.2444907097
 20
7.5341969811
 11
12.2444907097
 21
10.4319746317
  0
LINE
  5
2AE
100
AcDbEntity
  8
0
100
AcDbLine
 62
7
  6
CONTINUOUS
 10
12.2444907097
 20
7.5341969811
 11
11.1445106758
 21
6.471697795
  0
LINE
  5
2AF
100
AcDbEntity
  8
0
100
AcDbLine
 62
7
  6
CONTINUOUS
 10
12.2444907097
 20
10.4319746317
 11
10.8554893242
 21
10.528302205
  0
ARC
  5
2B0
100
AcDbEntity
  8
0
100
AcDbCircle
 62
7
  6
CONTINUOUS
 10
10.5113048028
 20
7.0766847363
 40
0.5136966009
100
AcDbArc
 50
312.7227352788
 51
313.3315883042
  0
ARC
  5
2B1
100
AcDbEntity
  8
0
100
AcDbCircle
 62
7
  6
CONTINUOUS
 10
10.4052168933
 20
7.1865134427
 40
0.5136043888
100
AcDbArc
 50
134.8613172466
 51
135.2907764605
  0
ARC
  5
2B2
100
AcDbEntity
  8
0
100
AcDbCircle
 62
7
  6
CONTINUOUS
 10
10.9463210101
 20
8.8357361732
 40
0.4482848891
100
AcDbArc
 50
266.0073268554
 51
275.2401162155
  0
ARC
  5
2B3
100
AcDbEntity
  8
0
100
AcDbCircle
 62
7
  6
CONTINUOUS
 10
10.9520975812
 20
8.8441706044
 40
0.4201711911
100
AcDbArc
 50
266.0114916334
 51
274.447881021
  0
ARC
  5
2B4
100
AcDbEntity
  8
0
100
AcDbCircle
 62
7
  6
CONTINUOUS
 10
10.4616657296
 20
7.1630395173
 40
0.3596268224
100
AcDbArc
 50
90.2023763517
 51
90.5383503962
  0
ARC
  5
2B5
100
AcDbEntity
  8
0
100
AcDbCircle
 62
7
  6
CONTINUOUS
 10
11.1011502855
 20
8.6971362643
 40
0.2272417716
100
AcDbArc
 50
178.3589975573
 51
181.0963460778
  0
SPLINE
  5
2B6
100
AcDbEntity
  8
0
100
AcDbSpline
 62
7
  6
CONTINUOUS
 70
0
 71
3
 72
15
 73
11
 74
0
 42
0.0000001
 43
0.0000001
 44
0.0000000001
 40
0.0
 40
0.0
 40
0.0
 40
0.0
 40
0.1310506104
 40
0.2600933396
 40
0.3872338126
 40
0.5124333053
 40
0.6355902223
 40
0.7573263556
 40
0.8785351234
 40
1.0
 40
1.0
 40
1.0
 40
1.0
 10
11.8854324401
 20
7.9097169744
 30
0.0
 10
11.8877637803
 20
7.9102465492
 30
0.0
 10
11.8923480756
 20
7.9114969302
 30
0.0
 10
11.8989896216
 20
7.9139254389
 30
0.0
 10
11.9053239043
 20
7.9168195803
 30
0.0
 10
11.911337033
 20
7.9201122274
 30
0.0
 10
11.9170327844
 20
7.9237462214
 30
0.0
 10
11.9224265757
 20
7.9276920365
 30
0.0
 10
11.9275525485
 20
7.9319304336
 30
0.0
 10
11.9308094382
 20
7.9349322453
 30
0.0
 10
11.9324028259
 20
7.9364721005
 30
0.0
  0
SPLINE
  5
2B7
100
AcDbEntity
  8
0
100
AcDbSpline
 62
7
  6
CONTINUOUS
 70
0
 71
3
 72
64
 73
60
 74
0
 42
0.0000001
 43
0.0000001
 44
0.0000000001
 40
0.0
 40
0.0
 40
0.0
 40
0.0
 40
0.0007018788
 40
0.0017988056
 40
0.0032776044
 40
0.0051230019
 40
0.0098569227
 40
0.0127209781
 40
0.0159001667
 40
0.0193824614
 40
0.0231559295
 40
0.0272088292
 40
0.0315308363
 40
0.0409497368
 40
0.0513494655
 40
0.0568975033
 40
0.0626687157
 40
0.0748578785
 40
0.0878716413
 40
0.1016654747
 40
0.11620091
 40
0.1314402305
 40
0.1473459568
 40
0.1638830151
 40
0.1987103176
 40
0.2356453945
 40
0.2744114506
 40
0.3147290005
 40
0.3563153178
 40
0.3988837052
 40
0.44214434
 40
0.4858048283
 40
0.5295712019
 40
0.5731490983
 40
0.6162448807
 40
0.6585668059
 40
0.6998257392
 40
0.7397362253
 40
0.7780162722
 40
0.8143876683
 40
0.8317715206
 40
0.8485741723
 40
0.8647611226
 40
0.8802967575
 40
0.8951450699
 40
0.909270203
 40
0.9226316777
 40
0.9351861283
 40
0.946890444
 40
0.957697113
 40
0.967556524
 40
0.9764125287
 40
0.9804357953
 40
0.9841712581
 40
0.9907250978
 40
0.9935258178
 40
0.996006152
 40
0.9981648073
 40
1.0
 40
1.0
 40
1.0
 40
1.0
 10
11.8787139279
 20
8.0075342788
 30
0.0
 10
11.8785740654
 20
8.0076667724
 30
0.0
 10
11.8782304712
 20
8.0080219168
 30
0.0
 10
11.8776405691
 20
8.0087015286
 30
0.0
 10
11.876882208
 20
8.0096493171
 30
0.0
 10
11.8755653319
 20
8.0114269414
 30
0.0
 10
11.8741430678
 20
8.01359709
 30
0.0
 10
11.8726402809
 20
8.0161453828
 30
0.0
 10
11.871378169
 20
8.018435664
 30
0.0
 10
11.8700635057
 20
8.0209807126
 30
0.0
 10
11.8687085601
 20
8.0237737909
 30
0.0
 10
11.867325998
 20
8.0268085696
 30
0.0
 10
11.8654044345
 20
8.0312992253
 30
0.0
 10
11.8629947566
 20
8.0374738047
 30
0.0
 10
11.8607005666
 20
8.0440492618
 30
0.0
 10
11.858874963
 20
8.049724616
 30
0.0
 10
11.8569960118
 20
8.0558979566
 30
0.0
 10
11.8547038629
 20
8.064086369
 30
0.0
 10
11.8520930865
 20
8.0744682811
 30
0.0
 10
11.8495957377
 20
8.0855392039
 30
0.0
 10
11.8472240607
 20
8.0972615251
 30
0.0
 10
11.8449900368
 20
8.1096003518
 30
0.0
 10
11.842905087
 20
8.1225220223
 30
0.0
 10
11.8402878465
 20
8.1408010594
 30
0.0
 10
11.8374610044
 20
8.1648770238
 30
0.0
 10
11.8348142561
 20
8.1951036034
 30
0.0
 10
11.8328891761
 20
8.2268943595
 30
0.0
 10
11.8317059797
 20
8.2599984873
 30
0.0
 10
11.8312790407
 20
8.2941645387
 30
0.0
 10
11.8316135332
 20
8.329139299
 30
0.0
 10
11.8327089428
 20
8.3646679943
 30
0.0
 10
11.8345589973
 20
8.400494596
 30
0.0
 10
11.837149954
 20
8.4363625424
 30
0.0
 10
11.8404642384
 20
8.4720152603
 30
0.0
 10
11.8444767338
 20
8.5071972157
 30
0.0
 10
11.8491573353
 20
8.5416544204
 30
0.0
 10
11.8544703305
 20
8.575134999
 30
0.0
 10
11.8603718883
 20
8.6073899703
 30
0.0
 10
11.8668134447
 20
8.6381722478
 30
0.0
 10
11.8726668479
 20
8.6627511709
 30
0.0
 10
11.8775907632
 20
8.6814826206
 30
0.0
 10
11.8813221831
 20
8.6947970661
 30
0.0
 10
11.8851382229
 20
8.7075589149
 30
0.0
 10
11.8890262438
 20
8.7197371298
 30
0.0
 10
11.892972111
 20
8.7313003757
 30
0.0
 10
11.8969622232
 20
8.7422152068
 30
0.0
 10
11.9009766752
 20
8.7524476541
 30
0.0
 10
11.9049916257
 20
8.7619627074
 30
0.0
 10
11.9089842132
 20
8.7707220626
 30
0.0
 10
11.9129211964
 20
8.7786892065
 30
0.0
 10
11.9167634115
 20
8.7858259029
 30
0.0
 10
11.9199442435
 20
8.7911984161
 30
0.0
 10
11.9224001737
 20
8.7950416392
 30
0.0
 10
11.9245929157
 20
8.798301546
 30
0.0
 10
11.9267061105
 20
8.8012103199
 30
0.0
 10
11.9287400494
 20
8.8037438918
 30
0.0
 10
11.9300685239
 20
8.8052952907
 30
0.0
 10
11.9312695005
 20
8.8066055582
 30
0.0
 10
11.9320397304
 20
8.8073861208
 30
0.0
 10
11.9324017625
 20
8.8077363781
 30
0.0
  0
SPLINE
  5
2B8
100
AcDbEntity
  8
0
100
AcDbSpline
 62
7
  6
CONTINUOUS
 70
0
 71
3
 72
63
 73
59
 74
0
 42
0.0000001
 43
0.0000001
 44
0.0000000001
 40
0.0
 40
0.0
 40
0.0
 40
0.0
 40
0.0105514194
 40
0.0213508027
 40
0.0324047347
 40
0.043716158
 40
0.0553422713
 40
0.0673574077
 40
0.0735326609
 40
0.0798283005
 40
0.0927859943
 40
0.1062382253
 40
0.1201898473
 40
0.1346416673
 40
0.1495893486
 40
0.1650271519
 40
0.1809464165
 40
0.1973302218
 40
0.2141593395
 40
0.2490687913
 40
0.2854806327
 40
0.3231745255
 40
0.3619055751
 40
0.4014136251
 40
0.4414271233
 40
0.4816666198
 40
0.5218500475
 40
0.5616954413
 40
0.6009263145
 40
0.6392743966
 40
0.67648526
 40
0.7123236212
 40
0.746576355
 40
0.7630520033
 40
0.7790661061
 40
0.7946035833
 40
0.8096528377
 40
0.8242033947
 40
0.8382516719
 40
0.8518008809
 40
0.8648563261
 40
0.889555648
 40
0.9012622122
 40
0.9125976877
 40
0.9181468034
 40
0.9236283521
 40
0.9290519199
 40
0.9344284234
 40
0.9450896495
 40
0.9504052557
 40
0.9557314608
 40
0.9610795142
 40
0.966458909
 40
0.971882275
 40
0.9773656019
 40
0.9829235074
 40
0.9885525105
 40
1.0
 40
1.0
 40
1.0
 40
1.0
 10
11.932393392
 20
7.9364633026
 30
0.0
 10
11.9349895976
 20
7.9389703698
 30
0.0
 10
11.9400408837
 20
7.9442559689
 30
0.0
 10
11.9471279682
 20
7.952787567
 30
0.0
 10
11.9538401097
 20
7.9619401764
 30
0.0
 10
11.9602211026
 20
7.9716650199
 30
0.0
 10
11.9663056831
 20
7.981960932
 30
0.0
 10
11.9711263849
 20
7.9909514708
 30
0.0
 10
11.974885657
 20
7.9984361885
 30
0.0
 10
11.9786590958
 20
8.0062732774
 30
0.0
 10
11.9832676802
 20
8.0164689216
 30
0.0
 10
11.9885867415
 20
8.0292106127
 30
0.0
 10
11.9937505069
 20
8.0425653197
 30
0.0
 10
11.9987619416
 20
8.0565224489
 30
0.0
 10
12.0036218511
 20
8.0710698907
 30
0.0
 10
12.0083304864
 20
8.0861933916
 30
0.0
 10
12.0128871218
 20
8.1018754723
 30
0.0
 10
12.0172879869
 20
8.1180955556
 30
0.0
 10
12.0230112815
 20
8.1406839111
 30
0.0
 10
12.0297132762
 20
8.170086659
 30
0.0
 10
12.0369587692
 20
8.2066691083
 30
0.0
 10
12.0434576258
 20
8.244718095
 30
0.0
 10
12.0491672192
 20
8.2839635869
 30
0.0
 10
12.0540483948
 20
8.324119866
 30
0.0
 10
12.0580656633
 20
8.3648900982
 30
0.0
 10
12.0611904376
 20
8.4059700491
 30
0.0
 10
12.0633991141
 20
8.4470518635
 30
0.0
 10
12.0646745439
 20
8.4878281515
 30
0.0
 10
12.065007092
 20
8.5279954079
 30
0.0
 10
12.0643919468
 20
8.5672583365
 30
0.0
 10
12.0628315439
 20
8.6053341864
 30
0.0
 10
12.0603326988
 20
8.6419563228
 30
0.0
 10
12.0574407648
 20
8.6714303292
 30
0.0
 10
12.0546410828
 20
8.69408824
 30
0.0
 10
12.0523392345
 20
8.7103548101
 30
0.0
 10
12.049808727
 20
8.7260934833
 30
0.0
 10
12.0470494913
 20
8.7412852627
 30
0.0
 10
12.0440613499
 20
8.7559143204
 30
0.0
 10
12.0408412581
 20
8.7699682606
 30
0.0
 10
12.0373833311
 20
8.783438848
 30
0.0
 10
12.0325374854
 20
8.8003062825
 30
0.0
 10
12.0271097888
 20
8.816348406
 30
0.0
 10
12.0209562775
 20
8.8314789357
 30
0.0
 10
12.0168667255
 20
8.8403671665
 30
0.0
 10
12.0134000736
 20
8.8471878847
 30
0.0
 10
12.0107132247
 20
8.8521341219
 30
0.0
 10
12.0079147653
 20
8.8569501427
 30
0.0
 10
12.0040293151
 20
8.8631793375
 30
0.0
 10
11.9998467092
 20
8.8691767408
 30
0.0
 10
11.9953314088
 20
8.8748979222
 30
0.0
 10
11.9917679134
 20
8.8790492878
 30
0.0
 10
11.9880078551
 20
8.8830538277
 30
0.0
 10
11.9840330187
 20
8.8868938124
 30
0.0
 10
11.9798272487
 20
8.8905509023
 30
0.0
 10
11.9753756169
 20
8.894005254
 30
0.0
 10
11.9706704806
 20
8.8972330922
 30
0.0
 10
11.9640265248
 20
8.9012135309
 30
0.0
 10
11.9587237613
 20
8.903720128
 30
0.0
 10
11.9550728456
 20
8.9051353361
 30
0.0
  0
SPLINE
  5
2B9
100
AcDbEntity
  8
0
100
AcDbSpline
 62
7
  6
CONTINUOUS
 70
0
 71
3
 72
49
 73
45
 74
0
 42
0.0000001
 43
0.0000001
 44
0.0000000001
 40
0.0
 40
0.0
 40
0.0
 40
0.0
 40
0.031143296
 40
0.0624396766
 40
0.0938831278
 40
0.1254640363
 40
0.157170171
 40
0.1889867839
 40
0.2208969298
 40
0.2528818248
 40
0.2849212282
 40
0.3169938408
 40
0.3490777219
 40
0.3811507141
 40
0.4131908699
 40
0.445176875
 40
0.477088467
 40
0.5089068346
 40
0.5406149975
 40
0.5721981645
 40
0.6036440492
 40
0.6349431521
 40
0.6660889954
 40
0.6970782958
 40
0.7125167394
 40
0.7279163414
 40
0.7432776333
 40
0.7586013548
 40
0.7738884505
 40
0.7891400707
 40
0.8043575636
 40
0.819542467
 40
0.8346965052
 40
0.8498215788
 40
0.8649197525
 40
0.8799932467
 40
0.8950444265
 40
0.9100757849
 40
0.9250899308
 40
0.9400895758
 40
0.955077516
 40
0.9700566156
 40
0.9850297926
 40
1.0
 40
1.0
 40
1.0
 40
1.0
 10
10.4500099831
 20
7.6934615301
 30
0.0
 10
10.4639263262
 20
7.6924964285
 30
0.0
 10
10.4917671306
 20
7.6895428497
 30
0.0
 10
10.5331907906
 20
7.6821027455
 30
0.0
 10
10.5741707676
 20
7.671681365
 30
0.0
 10
10.6144857204
 20
7.6583347516
 30
0.0
 10
10.6539215069
 20
7.6421344772
 30
0.0
 10
10.6922677275
 20
7.6231671529
 30
0.0
 10
10.7293201162
 20
7.6015341586
 30
0.0
 10
10.7648812583
 20
7.577351031
 30
0.0
 10
10.7987616377
 20
7.5507467456
 30
0.0
 10
10.8307807682
 20
7.5218632531
 30
0.0
 10
10.8607680096
 20
7.4908545273
 30
0.0
 10
10.8885634933
 20
7.4578858205
 30
0.0
 10
10.9140190866
 20
7.4231328767
 30
0.0
 10
10.9369989675
 20
7.3867808364
 30
0.0
 10
10.9573805178
 20
7.3490234075
 30
0.0
 10
10.9750549429
 20
7.3100617926
 30
0.0
 10
10.9899277007
 20
7.2701035866
 30
0.0
 10
11.0019192573
 20
7.2293617485
 30
0.0
 10
11.0109653216
 20
7.1880535627
 30
0.0
 10
11.0170171651
 20
7.1463988763
 30
0.0
 10
11.0200422755
 20
7.1046213966
 30
0.0
 10
11.0200266193
 20
7.0698406292
 30
0.0
 10
11.0184868829
 20
7.0421844654
 30
0.0
 10
11.0165743133
 20
7.0215743715
 30
0.0
 10
11.0139051412
 20
7.0011006124
 30
0.0
 10
11.0104829088
 20
6.9807901794
 30
0.0
 10
11.0063121322
 20
6.9606703034
 30
0.0
 10
11.0013984192
 20
6.9407678247
 30
0.0
 10
10.9957483106
 20
6.9211093363
 30
0.0
 10
10.9893692923
 20
6.9017211143
 30
0.0
 10
10.9822699176
 20
6.882629049
 30
0.0
 10
10.9744596641
 20
6.8638586441
 30
0.0
 10
10.9659489048
 20
6.8454350021
 30
0.0
 10
10.9567490304
 20
6.8273827291
 30
0.0
 10
10.9468723421
 20
6.8097259365
 30
0.0
 10
10.9363319833
 20
6.792488244
 30
0.0
 10
10.925142044
 20
6.7756926846
 30
0.0
 10
10.913317494
 20
6.7593616771
 30
0.0
 10
10.9008741159
 20
6.7435170896
 30
0.0
 10
10.8878284481
 20
6.7281800307
 30
0.0
 10
10.8741982525
 20
6.7133712427
 30
0.0
 10
10.8647328481
 20
6.7038630991
 30
0.0
 10
10.8599098932
 20
6.6992044896
 30
0.0
  0
SPLINE
  5
2BA
100
AcDbEntity
  8
0
100
AcDbSpline
 62
7
  6
CONTINUOUS
 70
0
 71
3
 72
18
 73
14
 74
0
 42
0.0000001
 43
0.0000001
 44
0.0000000001
 40
0.0
 40
0.0
 40
0.0
 40
0.0
 40
0.1504686872
 40
0.2917143508
 40
0.4244422581
 40
0.4879097286
 40
0.549609416
 40
0.6682625881
 40
0.7817882869
 40
0.8371380068
 40
0.8918078217
 40
0.9460192903
 40
1.0
 40
1.0
 40
1.0
 40
1.0
 10
11.9289905588
 20
8.8898737954
 30
0.0
 10
11.9304041133
 20
8.8912391842
 30
0.0
 10
11.9332292883
 20
8.8938010449
 30
0.0
 10
11.9376037821
 20
8.897215021
 30
0.0
 10
11.941298772
 20
8.8996295727
 30
0.0
 10
11.9442452132
 20
8.9012646262
 30
0.0
 10
11.9471049682
 20
8.9026683842
 30
0.0
 10
11.9506805725
 20
8.9040868214
 30
0.0
 10
11.9543197759
 20
8.9050547774
 30
0.0
 10
11.9572021343
 20
8.9055316066
 30
0.0
 10
11.959338362
 20
8.9057432173
 30
0.0
 10
11.9614659462
 20
8.9058115718
 30
0.0
 10
11.9628794617
 20
8.9057615729
 30
0.0
 10
11.9635828262
 20
8.9057127919
 30
0.0
  0
SPLINE
  5
2BB
100
AcDbEntity
  8
0
100
AcDbSpline
 62
7
  6
CONTINUOUS
 70
0
 71
3
 72
16
 73
12
 74
0
 42
0.0000001
 43
0.0000001
 44
0.0000000001
 40
0.0
 40
0.0
 40
0.0
 40
0.0
 40
0.1504802345
 40
0.2917477373
 40
0.4244952497
 40
0.4879700346
 40
0.5496761098
 40
0.6683415877
 40
0.7818816099
 40
0.8918561996
 40
1.0
 40
1.0
 40
1.0
 40
1.0
 10
11.9289905588
 20
9.4481789561
 30
0.0
 10
11.9295644422
 20
9.4487332849
 30
0.0
 10
11.9307114809
 20
9.4497733878
 30
0.0
 10
11.9324875333
 20
9.4511595026
 30
0.0
 10
11.9339877516
 20
9.4521398386
 30
0.0
 10
11.9351840342
 20
9.452803678
 30
0.0
 10
11.9363450718
 20
9.4533736086
 30
0.0
 10
11.9377968957
 20
9.453949444
 30
0.0
 10
11.9395546266
 20
9.4544171011
 30
0.0
 10
11.9413024384
 20
9.454650587
 30
0.0
 10
11.9424631257
 20
9.4546492545
 30
0.0
 10
11.9430351586
 20
9.4546095778
 30
0.0
  0
SPLINE
  5
2BC
100
AcDbEntity
  8
0
100
AcDbSpline
 62
7
  6
CONTINUOUS
 70
0
 71
3
 72
16
 73
12
 74
0
 42
0.0000001
 43
0.0000001
 44
0.0000000001
 40
0.0
 40
0.0
 40
0.0
 40
0.0
 40
0.1504802345
 40
0.2917477373
 40
0.4244952497
 40
0.4879700346
 40
0.5496761098
 40
0.6683415877
 40
0.7818816099
 40
0.8918561996
 40
1.0
 40
1.0
 40
1.0
 40
1.0
 10
11.9289905588
 20
7.757808775
 30
0.0
 10
11.9295644422
 20
7.7583631039
 30
0.0
 10
11.9307114809
 20
7.7594032068
 30
0.0
 10
11.9324875333
 20
7.7607893216
 30
0.0
 10
11.9339877516
 20
7.7617696576
 30
0.0
 10
11.9351840342
 20
7.7624334969
 30
0.0
 10
11.9363450718
 20
7.7630034276
 30
0.0
 10
11.9377968957
 20
7.763579263
 30
0.0
 10
11.9395546266
 20
7.7640469201
 30
0.0
 10
11.9413024384
 20
7.764280406
 30
0.0
 10
11.9424631257
 20
7.7642790735
 30
0.0
 10
11.9430351586
 20
7.7642393967
 30
0.0
  0
SPLINE
  5
2BD
100
AcDbEntity
  8
0
100
AcDbSpline
 62
7
  6
CONTINUOUS
 70
0
 71
3
 72
46
 73
42
 74
0
 42
0.0000001
 43
0.0000001
 44
0.0000000001
 40
0.0
 40
0.0
 40
0.0
 40
0.0
 40
0.0311438045
 40
0.0624406652
 40
0.0938846284
 40
0.1254660393
 40
0.1571726804
 40
0.1889898008
 40
0.220900456
 40
0.2528858619
 40
0.2849257766
 40
0.3169989011
 40
0.3490832948
 40
0.3811567996
 40
0.413197467
 40
0.4451839837
 40
0.4770960866
 40
0.5089149627
 40
0.5406236335
 40
0.5722073067
 40
0.6036536949
 40
0.6349532997
 40
0.6660996425
 40
0.69708944
 40
0.7279227258
 40
0.7586028982
 40
0.7891366943
 40
0.8043544311
 40
0.8195395776
 40
0.8346938594
 40
0.8498191755
 40
0.8649175905
 40
0.879991327
 40
0.895042748
 40
0.9100743464
 40
0.9250887332
 40
0.9400886186
 40
0.9550767979
 40
0.9700561372
 40
0.985029554
 40
1.0
 40
1.0
 40
1.0
 40
1.0
 10
10.4660567506
 20
8.9289258742
 30
0.0
 10
10.4787937391
 20
8.928042561
 30
0.0
 10
10.5042751342
 20
8.9253392922
 30
0.0
 10
10.5421882884
 20
8.9185296975
 30
0.0
 10
10.5796953617
 20
8.9089915113
 30
0.0
 10
10.6165937757
 20
8.8967759804
 30
0.0
 10
10.6526875163
 20
8.8819486071
 30
0.0
 10
10.6877840501
 20
8.8645887276
 30
0.0
 10
10.7216963879
 20
8.8447890552
 30
0.0
 10
10.7542438438
 20
8.8226553481
 30
0.0
 10
10.7852530181
 20
8.798305722
 30
0.0
 10
10.814558644
 20
8.7718699979
 30
0.0
 10
10.8420045738
 20
8.743489148
 30
0.0
 10
10.8674445384
 20
8.7133144574
 30
0.0
 10
10.8907428588
 20
8.6815066937
 30
0.0
 10
10.911775293
 20
8.648235366
 30
0.0
 10
10.9304296317
 20
8.6136777664
 30
0.0
 10
10.946606212
 20
8.5780180044
 30
0.0
 10
10.9602185902
 20
8.5414461177
 30
0.0
 10
10.971193953
 20
8.5041570294
 30
0.0
 10
10.9794734041
 20
8.4663494986
 30
0.0
 10
10.9850124387
 20
8.4282251353
 30
0.0
 10
10.9877811424
 20
8.389987269
 30
0.0
 10
10.9877642933
 20
8.3518400343
 30
0.0
 10
10.9849614155
 20
8.3139867134
 30
0.0
 10
10.9793875046
 20
8.2766308572
 30
0.0
 10
10.9724483367
 20
8.2460420652
 30
0.0
 10
10.9655462677
 20
8.2220280039
 30
0.0
 10
10.9597078324
 20
8.2042826463
 30
0.0
 10
10.9532101566
 20
8.186808602
 30
0.0
 10
10.9460617931
 20
8.169628903
 30
0.0
 10
10.9382723083
 20
8.1527665924
 30
0.0
 10
10.929852137
 20
8.136244157
 30
0.0
 10
10.9208124646
 20
8.1200837103
 30
0.0
 10
10.9111653763
 20
8.1043068408
 30
0.0
 10
10.9009237935
 20
8.0889346094
 30
0.0
 10
10.8901013354
 20
8.0739875902
 30
0.0
 10
10.8787124969
 20
8.0594857672
 30
0.0
 10
10.866772453
 20
8.0454484238
 30
0.0
 10
10.8542973694
 20
8.0318946231
 30
0.0
 10
10.8456341378
 20
8.0231922456
 30
0.0
 10
10.8412199123
 20
8.018928435
 30
0.0
  0
SPLINE
  5
2BE
100
AcDbEntity
  8
0
100
AcDbSpline
 62
7
  6
CONTINUOUS
 70
0
 71
3
 72
23
 73
19
 74
0
 42
0.0000001
 43
0.0000001
 44
0.0000000001
 40
0.0
 40
0.0
 40
0.0
 40
0.0
 40
0.0952966757
 40
0.187520037
 40
0.2759866224
 40
0.3601362846
 40
0.4395480508
 40
0.5139441792
 40
0.5831830074
 40
0.6472449948
 40
0.7062163545
 40
0.7602729583
 40
0.8096666053
 40
0.8547169085
 40
0.8958053288
 40
0.9333721454
 40
0.9679174308
 40
1.0
 40
1.0
 40
1.0
 40
1.0
 10
10.5829423601
 20
7.9986287556
 30
0.0
 10
10.5814413648
 20
7.99873285
 30
0.0
 10
10.5784910771
 20
7.9989898043
 30
0.0
 10
10.5741662722
 20
7.9995304862
 30
0.0
 10
10.5700397125
 20
8.0002129212
 30
0.0
 10
10.5661432478
 20
8.0010260238
 30
0.0
 10
10.5625019567
 20
8.0019566829
 30
0.0
 10
10.5591340594
 20
8.0029905963
 30
0.0
 10
10.5560512498
 20
8.0041130682
 30
0.0
 10
10.5532594573
 20
8.0053096572
 30
0.0
 10
10.5507598196
 20
8.0065666796
 30
0.0
 10
10.5485497108
 20
8.0078715338
 30
0.0
 10
10.5466237107
 20
8.0092128903
 30
0.0
 10
10.5449744614
 20
8.0105807854
 30
0.0
 10
10.5435934948
 20
8.0119665809
 30
0.0
 10
10.5424718324
 20
8.0133630758
 30
0.0
 10
10.5416006772
 20
8.0147634484
 30
0.0
 10
10.5411676671
 20
8.0157266524
 30
0.0
 10
10.540995216
 20
8.0162029317
 30
0.0
  0
SPLINE
  5
2BF
100
AcDbEntity
  8
0
100
AcDbSpline
 62
7
  6
CONTINUOUS
 70
0
 71
3
 72
25
 73
21
 74
0
 42
0.0000001
 43
0.0000001
 44
0.0000000001
 40
0.0
 40
0.0
 40
0.0
 40
0.0
 40
0.063861363
 40
0.1275015005
 40
0.1909210257
 40
0.254124851
 40
0.3171188812
 40
0.3799117239
 40
0.4425139156
 40
0.5049380762
 40
0.567198714
 40
0.6293121078
 40
0.691296137
 40
0.7222483699
 40
0.7531756067
 40
0.8149600108
 40
0.8766763594
 40
0.9075187257
 40
0.9383524751
 40
1.0
 40
1.0
 40
1.0
 40
1.0
 10
10.4660567506
 20
8.9289258742
 30
0.0
 10
10.4573498336
 20
8.9295297009
 30
0.0
 10
10.4399329109
 20
8.9303021103
 30
0.0
 10
10.4138299621
 20
8.9301465183
 30
0.0
 10
10.387857272
 20
8.9286751491
 30
0.0
 10
10.362081156
 20
8.9258916802
 30
0.0
 10
10.3365661968
 20
8.9218029872
 30
0.0
 10
10.3113767327
 20
8.9164193341
 30
0.0
 10
10.2865761611
 20
8.9097541831
 30
0.0
 10
10.2622269831
 20
8.9018242774
 30
0.0
 10
10.2383904275
 20
8.8926494622
 30
0.0
 10
10.2151269484
 20
8.8822530153
 30
0.0
 10
10.1962569502
 20
8.8725877859
 30
0.0
 10
10.1815091794
 20
8.8642735433
 30
0.0
 10
10.1670118294
 20
8.8555828486
 30
0.0
 10
10.1493502568
 20
8.8440087312
 30
0.0
 10
10.1323435645
 20
8.8315117577
 30
0.0
 10
10.1191658471
 20
8.8209856059
 30
0.0
 10
10.1062830901
 20
8.8101156807
 30
0.0
 10
10.0969535042
 20
8.8015767826
 30
0.0
 10
10.0908935889
 20
8.7957233591
 30
0.0
  0
SPLINE
  5
2C0
100
AcDbEntity
  8
0
100
AcDbSpline
 62
7
  6
CONTINUOUS
 70
0
 71
3
 72
37
 73
33
 74
0
 42
0.0000001
 43
0.0000001
 44
0.0000000001
 40
0.0
 40
0.0
 40
0.0
 40
0.0
 40
0.0306742318
 40
0.0614517475
 40
0.0923289012
 40
0.1233035977
 40
0.1543714189
 40
0.1855276174
 40
0.2167664933
 40
0.2480816223
 40
0.2794658984
 40
0.3109115957
 40
0.3424104455
 40
0.3739537086
 40
0.405532255
 40
0.437136646
 40
0.5003675822
 40
0.5635846121
 40
0.5951717451
 40
0.6267263393
 40
0.6582391671
 40
0.6897013674
 40
0.7211045244
 40
0.7524407437
 40
0.7837027276
 40
0.8148838451
 40
0.8459781959
 40
0.8769806692
 40
0.9078869965
 40
0.9386937985
 40
0.9693986277
 40
1.0
 40
1.0
 40
1.0
 40
1.0
 10
10.4582921859
 20
7.5227652358
 30
0.0
 10
10.4647032905
 20
7.5223206241
 30
0.0
 10
10.4775274478
 20
7.5211153888
 30
0.0
 10
10.4966828817
 20
7.5183724202
 30
0.0
 10
10.5157460959
 20
7.5146976014
 30
0.0
 10
10.5346704348
 20
7.5101000624
 30
0.0
 10
10.5534106275
 20
7.5045907595
 30
0.0
 10
10.5719214634
 20
7.498183055
 30
0.0
 10
10.5901584074
 20
7.4908923759
 30
0.0
 10
10.6080775597
 20
7.48273632
 30
0.0
 10
10.6256357962
 20
7.473734549
 30
0.0
 10
10.6427908522
 20
7.463908761
 30
0.0
 10
10.659501464
 20
7.4532826
 30
0.0
 10
10.675727316
 20
7.4418817467
 30
0.0
 10
10.6914297013
 20
7.4297333018
 30
0.0
 10
10.7116176167
 20
7.4125781117
 30
0.0
 10
10.735353783
 20
7.3894187976
 30
0.0
 10
10.7568699524
 20
7.3641883063
 30
0.0
 10
10.7726269602
 20
7.3429054852
 30
0.0
 10
10.7836865576
 20
7.3264361276
 30
0.0
 10
10.7939622801
 20
7.3094976517
 30
0.0
 10
10.8034297065
 20
7.2921304546
 30
0.0
 10
10.8120659377
 20
7.2743764317
 30
0.0
 10
10.8198501758
 20
7.2562782833
 30
0.0
 10
10.8267636552
 20
7.2378795804
 30
0.0
 10
10.8327897138
 20
7.2192246092
 30
0.0
 10
10.8379138152
 20
7.2003582786
 30
0.0
 10
10.8421235871
 20
7.1813259931
 30
0.0
 10
10.8454088513
 20
7.1621736168
 30
0.0
 10
10.8477616464
 20
7.1429470986
 30
0.0
 10
10.8491762735
 20
7.1236933514
 30
0.0
 10
10.8494921506
 20
7.1108470156
 30
0.0
 10
10.8494921561
 20
7.1044357772
 30
0.0
  0
SPLINE
  5
2C1
100
AcDbEntity
  8
0
100
AcDbSpline
 62
7
  6
CONTINUOUS
 70
0
 71
3
 72
39
 73
35
 74
0
 42
0.0000001
 43
0.0000001
 44
0.0000000001
 40
0.0
 40
0.0
 40
0.0
 40
0.0
 40
0.0311450462
 40
0.0624431052
 40
0.093888346
 40
0.1254709894
 40
0.1571788841
 40
0.1889972607
 40
0.2209091756
 40
0.252895844
 40
0.2849370232
 40
0.3170114137
 40
0.349097074
 40
0.3811718446
 40
0.4132137767
 40
0.4452015559
 40
0.4771149183
 40
0.5089350511
 40
0.5406449736
 40
0.5722298924
 40
0.6036775218
 40
0.6349783627
 40
0.666125935
 40
0.697116956
 40
0.7279514587
 40
0.7586328412
 40
0.7891678426
 40
0.819566443
 40
0.8498416848
 40
0.8800094168
 40
0.9100879629
 40
0.9400977196
 40
0.9700606951
 40
1.0
 40
1.0
 40
1.0
 40
1.0
 10
10.4946628546
 20
7.499941053
 30
0.0
 10
10.5028003781
 20
7.4993767139
 30
0.0
 10
10.5190801527
 20
7.4976496324
 30
0.0
 10
10.543302446
 20
7.4932990421
 30
0.0
 10
10.5672652935
 20
7.4872051999
 30
0.0
 10
10.5908392887
 20
7.4794008397
 30
0.0
 10
10.6138991811
 20
7.4699278094
 30
0.0
 10
10.6363219603
 20
7.4588367608
 30
0.0
 10
10.6579881764
 20
7.4461869715
 30
0.0
 10
10.6787823844
 20
7.4320459918
 30
0.0
 10
10.698593795
 20
7.416489279
 30
0.0
 10
10.7173168443
 20
7.3995998012
 30
0.0
 10
10.7348517502
 20
7.3814675969
 30
0.0
 10
10.751105045
 20
7.3621893091
 30
0.0
 10
10.7659900831
 20
7.3418676832
 30
0.0
 10
10.7794274777
 20
7.3206110055
 30
0.0
 10
10.7913455225
 20
7.2985325366
 30
0.0
 10
10.8016805708
 20
7.2757499161
 30
0.0
 10
10.8103773702
 20
7.2523845445
 30
0.0
 10
10.8173893885
 20
7.228560955
 30
0.0
 10
10.8226790389
 20
7.2044061455
 30
0.0
 10
10.8262178797
 20
7.1800489124
 30
0.0
 10
10.8279867748
 20
7.1556191747
 30
0.0
 10
10.8279759974
 20
7.1312472909
 30
0.0
 10
10.826185319
 20
7.1070633721
 30
0.0
 10
10.8226240189
 20
7.0831965873
 30
0.0
 10
10.8173108304
 20
7.0597744797
 30
0.0
 10
10.8102738589
 20
7.0369222827
 30
0.0
 10
10.8015504575
 20
7.0147622594
 30
0.0
 10
10.7911870078
 20
6.9934129974
 30
0.0
 10
10.7792388649
 20
6.9729889013
 30
0.0
 10
10.765769448
 20
6.9535990075
 30
0.0
 10
10.7508521097
 20
6.9353484985
 30
0.0
 10
10.7399903074
 20
6.9240014993
 30
0.0
 10
10.7343504355
 20
6.9185537946
 30
0.0
  0
SPLINE
  5
2C2
100
AcDbEntity
  8
0
100
AcDbSpline
 62
7
  6
CONTINUOUS
 70
0
 71
3
 72
23
 73
19
 74
0
 42
0.0000001
 43
0.0000001
 44
0.0000000001
 40
0.0
 40
0.0
 40
0.0
 40
0.0
 40
0.0638615549
 40
0.1275031865
 40
0.1909230463
 40
0.2541276772
 40
0.3171223954
 40
0.3799159295
 40
0.4425188203
 40
0.5049436672
 40
0.5672049938
 40
0.6293190755
 40
0.6913037924
 40
0.7531784389
 40
0.8149635253
 40
0.8766805554
 40
0.9383517902
 40
1.0
 40
1.0
 40
1.0
 40
1.0
 10
10.4946628546
 20
7.499941053
 30
0.0
 10
10.4891001469
 20
7.5003268281
 30
0.0
 10
10.4779726443
 20
7.5008202948
 30
0.0
 10
10.4612957682
 20
7.5007209195
 30
0.0
 10
10.4447020608
 20
7.4997808465
 30
0.0
 10
10.4282340084
 20
7.4980025444
 30
0.0
 10
10.4119327757
 20
7.4953903277
 30
0.0
 10
10.3958395071
 20
7.4919507698
 30
0.0
 10
10.3799947031
 20
7.4876924722
 30
0.0
 10
10.3644382747
 20
7.4826261305
 30
0.0
 10
10.3492094071
 20
7.4767644685
 30
0.0
 10
10.334346468
 20
7.4701222102
 30
0.0
 10
10.3198869151
 20
7.4627160495
 30
0.0
 10
10.3058671838
 20
7.4545646015
 30
0.0
 10
10.2923226324
 20
7.4456884241
 30
0.0
 10
10.2792872747
 20
7.4361097539
 30
0.0
 10
10.2667944069
 20
7.4258531368
 30
0.0
 10
10.2588468823
 20
7.4185791433
 30
0.0
 10
10.2549752736
 20
7.4148394518
 30
0.0
  0
SPLINE
  5
2C3
100
AcDbEntity
  8
0
100
AcDbSpline
 62
7
  6
CONTINUOUS
 70
0
 71
3
 72
17
 73
13
 74
0
 42
0.0000001
 43
0.0000001
 44
0.0000000001
 40
0.0
 40
0.0
 40
0.0
 40
0.0
 40
0.1293278827
 40
0.2577687537
 40
0.385178072
 40
0.448456316
 40
0.5114139648
 40
0.6362480351
 40
0.7594779368
 40
0.820418654
 40
0.8808521619
 40
1.0
 40
1.0
 40
1.0
 40
1.0
 10
10.889559818
 20
8.6820280715
 30
0.0
 10
10.8843117394
 20
8.6853556039
 30
0.0
 10
10.8740850836
 20
8.6923650529
 30
0.0
 10
10.8595999906
 20
8.7039087747
 30
0.0
 10
10.8483163264
 20
8.714313218
 30
0.0
 10
10.8398142655
 20
8.723048341
 30
0.0
 10
10.8317138889
 20
8.7319909781
 30
0.0
 10
10.8222798619
 20
8.743598529
 30
0.0
 10
10.8137518412
 20
8.7557686059
 30
0.0
 10
10.8075287291
 20
8.7657415116
 30
0.0
 10
10.8017601736
 20
8.7757576808
 30
0.0
 10
10.7978490015
 20
8.7834595974
 30
0.0
 10
10.7954399181
 20
8.7886529825
 30
0.0
  0
SPLINE
  5
2C4
100
AcDbEntity
  8
0
100
AcDbSpline
 62
7
  6
CONTINUOUS
 70
0
 71
3
 72
26
 73
22
 74
0
 42
0.0000001
 43
0.0000001
 44
0.0000000001
 40
0.0
 40
0.0
 40
0.0
 40
0.0
 40
0.061647213
 40
0.0924808047
 40
0.1233230161
 40
0.1850390523
 40
0.2468231433
 40
0.2777502216
 40
0.3087023002
 40
0.3706860149
 40
0.4327990935
 40
0.4950594159
 40
0.5574832605
 40
0.6200851367
 40
0.6828776591
 40
0.7458713824
 40
0.8090748542
 40
0.8724941463
 40
0.9042884478
 40
0.9361388549
 40
1.0
 40
1.0
 40
1.0
 40
1.0
 10
10.0401100729
 20
7.5479260282
 30
0.0
 10
10.0467310815
 20
7.5543214215
 30
0.0
 10
10.0569245189
 20
7.5636509207
 30
0.0
 10
10.0710001331
 20
7.5755272565
 30
0.0
 10
10.0853979857
 20
7.5870280275
 30
0.0
 10
10.1039793638
 20
7.60068207
 30
0.0
 10
10.1232762603
 20
7.6133277948
 30
0.0
 10
10.1391159149
 20
7.6228231896
 30
0.0
 10
10.1552292268
 20
7.6319071889
 30
0.0
 10
10.1758464074
 20
7.6424673292
 30
0.0
 10
10.2012638789
 20
7.6538263612
 30
0.0
 10
10.2273074811
 20
7.6638506619
 30
0.0
 10
10.2539111683
 20
7.6725147863
 30
0.0
 10
10.2810080475
 20
7.6797970529
 30
0.0
 10
10.3085298071
 20
7.6856791705
 30
0.0
 10
10.3364072707
 20
7.6901464228
 30
0.0
 10
10.3645697965
 20
7.6931876087
 30
0.0
 10
10.388198294
 20
7.6945261347
 30
0.0
 10
10.4071704193
 20
7.6948799733
 30
0.0
 10
10.426211062
 20
7.694754789
 30
0.0
 10
10.4404968717
 20
7.6941212667
 30
0.0
 10
10.4500099831
 20
7.6934615301
 30
0.0
  0
SPLINE
  5
2C5
100
AcDbEntity
  8
0
100
AcDbSpline
 62
7
  6
CONTINUOUS
 70
0
 71
3
 72
36
 73
32
 74
0
 42
0.0000001
 43
0.0000001
 44
0.0000000001
 40
0.0
 40
0.0
 40
0.0
 40
0.0
 40
0.0118832485
 40
0.0235953651
 40
0.0355047555
 40
0.0479389118
 40
0.0611708268
 40
0.0754175444
 40
0.0908483967
 40
0.1075947792
 40
0.1257605311
 40
0.1454295744
 40
0.1666720203
 40
0.1895482423
 40
0.2141116813
 40
0.2404104894
 40
0.2684885091
 40
0.298385269
 40
0.3301351709
 40
0.363767005
 40
0.3993005432
 40
0.436744898
 40
0.4760946794
 40
0.5173239827
 40
0.6051741405
 40
0.699451418
 40
0.7985292965
 40
0.8491088872
 40
0.8998522179
 40
0.9503068941
 40
1.0
 40
1.0
 40
1.0
 40
1.0
 10
10.6691697967
 20
8.0293228633
 30
0.0
 10
10.6693023192
 20
8.028957391
 30
0.0
 10
10.6695030325
 20
8.0282069375
 30
0.0
 10
10.6695945548
 20
8.0270428899
 30
0.0
 10
10.6694771173
 20
8.025863342
 30
0.0
 10
10.6691571478
 20
8.0246714733
 30
0.0
 10
10.6686399337
 20
8.0234683341
 30
0.0
 10
10.6679293261
 20
8.022254208
 30
0.0
 10
10.6670273938
 20
8.021029341
 30
0.0
 10
10.6659350455
 20
8.0197942789
 30
0.0
 10
10.6646522557
 20
8.0185500226
 30
0.0
 10
10.6631782676
 20
8.017298077
 30
0.0
 10
10.6615118624
 20
8.0160402861
 30
0.0
 10
10.659651239
 20
8.0147791054
 30
0.0
 10
10.6575943833
 20
8.013517241
 30
0.0
 10
10.6553388357
 20
8.0122581587
 30
0.0
 10
10.6528821054
 20
8.0110056527
 30
0.0
 10
10.6502215516
 20
8.0097643527
 30
0.0
 10
10.6473547024
 20
8.0085395209
 30
0.0
 10
10.6442794447
 20
8.0073372348
 30
0.0
 10
10.6409942525
 20
8.0061645808
 30
0.0
 10
10.6374986326
 20
8.0050295912
 30
0.0
 10
10.6337934905
 20
8.0039414083
 30
0.0
 10
10.6284647293
 20
8.0025370283
 30
0.0
 10
10.6213219644
 20
8.0009763911
 30
0.0
 10
10.6122332859
 20
7.9995218505
 30
0.0
 10
10.6042872413
 20
7.9987264134
 30
0.0
 10
10.5977393879
 20
7.9983802311
 30
0.0
 10
10.5927740251
 20
7.9982811788
 30
0.0
 10
10.5878372267
 20
7.9983518884
 30
0.0
 10
10.5845641613
 20
7.9985162833
 30
0.0
 10
10.5829423601
 20
7.9986287556
 30
0.0
  0
SPLINE
  5
2C6
100
AcDbEntity
  8
0
100
AcDbSpline
 62
7
  6
CONTINUOUS
 70
0
 71
3
 72
65
 73
61
 74
0
 42
0.0000001
 43
0.0000001
 44
0.0000000001
 40
0.0
 40
0.0
 40
0.0
 40
0.0
 40
0.0095987073
 40
0.0144621734
 40
0.0193815464
 40
0.0243663222
 40
0.0294250429
 40
0.0397930437
 40
0.0505392911
 40
0.0617038592
 40
0.0733172695
 40
0.085400767
 40
0.0979682626
 40
0.1110276105
 40
0.1245810642
 40
0.1386265634
 40
0.1531582455
 40
0.168166801
 40
0.1836401717
 40
0.1995638201
 40
0.2159209231
 40
0.2326927886
 40
0.2498590337
 40
0.2673976844
 40
0.285285441
 40
0.3034978203
 40
0.3407924491
 40
0.3790668415
 40
0.4180937136
 40
0.4576371366
 40
0.4974553878
 40
0.5373037299
 40
0.5769370953
 40
0.6161127822
 40
0.6545931593
 40
0.6921485573
 40
0.7285603212
 40
0.746273216
 40
0.7636249716
 40
0.7805929682
 40
0.7971559837
 40
0.8132944766
 40
0.8289907198
 40
0.8442289676
 40
0.8589959011
 40
0.8732808881
 40
0.887076233
 40
0.9003779226
 40
0.9131861502
 40
0.9255057433
 40
0.9373474522
 40
0.9487290969
 40
0.9596765547
 40
0.964998079
 40
0.9702243597
 40
0.9753617861
 40
0.9804187545
 40
0.9854043588
 40
0.9903267878
 40
1.0
 40
1.0
 40
1.0
 40
1.0
 10
11.935215989
 20
8.7964207222
 30
0.0
 10
11.9368775204
 20
8.7944604869
 30
0.0
 10
11.9392597124
 20
8.7914021654
 30
0.0
 10
11.9422278487
 20
8.7871456987
 30
0.0
 10
11.9443803607
 20
8.7838286887
 30
0.0
 10
11.9464559675
 20
8.7804019963
 30
0.0
 10
11.9491518534
 20
8.7756482131
 30
0.0
 10
11.9523573854
 20
8.7694139305
 30
0.0
 10
11.9559422781
 20
8.7615482773
 30
0.0
 10
11.9593196741
 20
8.7532306994
 30
0.0
 10
11.9625076006
 20
8.7444572574
 30
0.0
 10
11.9655175785
 20
8.7352256023
 30
0.0
 10
11.9683577961
 20
8.7255365
 30
0.0
 10
11.9710334372
 20
8.7153933245
 30
0.0
 10
11.9735474522
 20
8.704801941
 30
0.0
 10
11.975901447
 20
8.6937706094
 30
0.0
 10
11.9780958857
 20
8.6823096635
 30
0.0
 10
11.9801304834
 20
8.6704313419
 30
0.0
 10
11.9820044888
 20
8.6581496069
 30
0.0
 10
11.9837168014
 20
8.6454799478
 30
0.0
 10
11.9852661534
 20
8.6324392476
 30
0.0
 10
11.986651203
 20
8.6190456426
 30
0.0
 10
11.987870596
 20
8.6053183884
 30
0.0
 10
11.9889230553
 20
8.5912777711
 30
0.0
 10
11.9898074414
 20
8.5769449703
 30
0.0
 10
11.9907686355
 20
8.5573195378
 30
0.0
 10
11.9915335015
 20
8.5322223631
 30
0.0
 10
11.9917635661
 20
8.501542267
 30
0.0
 10
11.9913122608
 20
8.4702625774
 30
0.0
 10
11.9901831356
 20
8.4385865707
 30
0.0
 10
11.9883839032
 20
8.4067213258
 30
0.0
 10
11.9859264944
 20
8.3748759299
 30
0.0
 10
11.9828269503
 20
8.3432594085
 30
0.0
 10
11.9791053085
 20
8.3120787792
 30
0.0
 10
11.9747852646
 20
8.2815369691
 30
0.0
 10
11.9698937764
 20
8.2518310332
 30
0.0
 10
11.9653253168
 20
8.2277134173
 30
0.0
 10
11.9613971439
 20
8.2089855104
 30
0.0
 10
11.9583539211
 20
8.1953918692
 30
0.0
 10
11.9551907235
 20
8.1821419151
 30
0.0
 10
11.9519115504
 20
8.1692550354
 30
0.0
 10
11.9485203424
 20
8.1567495637
 30
0.0
 10
11.9450208177
 20
8.1446426645
 30
0.0
 10
11.9414163903
 20
8.1329502148
 30
0.0
 10
11.937710043
 20
8.1216866639
 30
0.0
 10
11.9339041003
 20
8.1108649277
 30
0.0
 10
11.9300000596
 20
8.1004962064
 30
0.0
 10
11.9259982686
 20
8.0905898174
 30
0.0
 10
11.9218973928
 20
8.0811531159
 30
0.0
 10
11.9176941704
 20
8.0721912475
 30
0.0
 10
11.9133824961
 20
8.063706989
 30
0.0
 10
11.9089521519
 20
8.0557012114
 30
0.0
 10
11.90511407
 20
8.0493687598
 30
0.0
 10
11.9019665336
 20
8.0445508283
 30
0.0
 10
11.899587035
 20
8.0410904867
 30
0.0
 10
11.8971624631
 20
8.0377486313
 30
0.0
 10
11.8946871322
 20
8.0345250166
 30
0.0
 10
11.8921555656
 20
8.0314190632
 30
0.0
 10
11.8887196235
 20
8.0274594267
 30
0.0
 10
11.8860125899
 20
8.0246356369
 30
0.0
 10
11.8841499962
 20
8.0228365094
 30
0.0
  0
SPLINE
  5
2C7
100
AcDbEntity
  8
0
100
AcDbSpline
 62
7
  6
CONTINUOUS
 70
0
 71
3
 72
84
 73
80
 74
0
 42
0.0000001
 43
0.0000001
 44
0.0000000001
 40
0.0
 40
0.0
 40
0.0
 40
0.0
 40
0.0027164264
 40
0.0054532293
 40
0.008230295
 40
0.0110665896
 40
0.0139797932
 40
0.0169861044
 40
0.0201000661
 40
0.0233345812
 40
0.0267009392
 40
0.0302088856
 40
0.0338668056
 40
0.037681768
 40
0.0416597414
 40
0.0458056718
 40
0.050123593
 40
0.0546167913
 40
0.0592877975
 40
0.0641385717
 40
0.0691704988
 40
0.074384467
 40
0.0797809628
 40
0.0853600226
 40
0.0911213815
 40
0.0970644148
 40
0.1094911534
 40
0.122630387
 40
0.136468035
 40
0.1509868331
 40
0.1661667198
 40
0.1819851503
 40
0.1984173662
 40
0.2154366132
 40
0.2330143274
 40
0.2511202956
 40
0.2697227959
 40
0.2887887406
 40
0.3082838034
 40
0.3281725359
 40
0.3484184777
 40
0.3689842604
 40
0.3898317162
 40
0.4109219843
 40
0.4536719359
 40
0.4969138893
 40
0.5403221212
 40
0.5835693222
 40
0.6263297187
 40
0.6474271304
 40
0.6682829869
 40
0.6888584043
 40
0.7091151927
 40
0.7290159604
 40
0.748524216
 40
0.7676044742
 40
0.7862223676
 40
0.8043447661
 40
0.8219399096
 40
0.838977535
 40
0.8554290199
 40
0.8712675451
 40
0.8864682815
 40
0.9010086172
 40
0.9148684112
 40
0.9280303001
 40
0.9404800906
 40
0.946434749
 40
0.9522077946
 40
0.957798564
 40
0.9632067735
 40
0.9684324641
 40
0.9734760551
 40
0.9783384155
 40
0.983020862
 40
0.9875253935
 40
0.9918546029
 40
0.9960115831
 40
1.0
 40
1.0
 40
1.0
 40
1.0
 10
11.8943982914
 20
7.9081089154
 30
0.0
 10
11.8934651035
 20
7.9081736355
 30
0.0
 10
11.8915965088
 20
7.908388048
 30
0.0
 10
11.888817405
 20
7.9089617439
 30
0.0
 10
11.8860593018
 20
7.9097874518
 30
0.0
 10
11.8833241784
 20
7.9108643981
 30
0.0
 10
11.880613419
 20
7.9121915626
 30
0.0
 10
11.8779284519
 20
7.9137679819
 30
0.0
 10
11.8752704801
 20
7.9155924723
 30
0.0
 10
11.8726406991
 20
7.9176639049
 30
0.0
 10
11.8700402606
 20
7.9199810802
 30
0.0
 10
11.8674702419
 20
7.9225426929
 30
0.0
 10
11.8649318256
 20
7.9253474595
 30
0.0
 10
11.8624260805
 20
7.9283939099
 30
0.0
 10
11.8599541762
 20
7.9316805535
 30
0.0
 10
11.8575172532
 20
7.9352057618
 30
0.0
 10
11.855116423
 20
7.9389677836
 30
0.0
 10
11.8527528853
 20
7.9429647949
 30
0.0
 10
11.8504277215
 20
7.9471947987
 30
0.0
 10
11.8481421066
 20
7.951655726
 30
0.0
 10
11.8458971492
 20
7.9563453629
 30
0.0
 10
11.8436939403
 20
7.96126138
 30
0.0
 10
11.8415336154
 20
7.9664013483
 30
0.0
 10
11.8394172045
 20
7.9717626929
 30
0.0
 10
11.8373457865
 20
7.9773427616
 30
0.0
 10
11.8346044376
 20
7.9851878234
 30
0.0
 10
11.8313078339
 20
7.9955278421
 30
0.0
 10
11.8276038124
 20
8.0085836273
 30
0.0
 10
11.8241026059
 20
8.022439404
 30
0.0
 10
11.820811309
 20
8.0370674413
 30
0.0
 10
11.8177366125
 20
8.0524385966
 30
0.0
 10
11.8148847658
 20
8.0685221159
 30
0.0
 10
11.812261572
 20
8.0852857915
 30
0.0
 10
11.8098723708
 20
8.1026960157
 30
0.0
 10
11.8077220272
 20
8.1207178603
 30
0.0
 10
11.8058149222
 20
8.139315146
 30
0.0
 10
11.8041549344
 20
8.1584505186
 30
0.0
 10
11.8027454425
 20
8.1780855295
 30
0.0
 10
11.8015893175
 20
8.1981807184
 30
0.0
 10
11.8006889178
 20
8.2186956937
 30
0.0
 10
11.8000460839
 20
8.2395892158
 30
0.0
 10
11.7996621377
 20
8.2608192656
 30
0.0
 10
11.7995378452
 20
8.2823431863
 30
0.0
 10
11.7997196149
 20
8.3115062707
 30
0.0
 10
11.8006015406
 20
8.3483741817
 30
0.0
 10
11.8026800062
 20
8.3928896123
 30
0.0
 10
11.8057669714
 20
8.4375182736
 30
0.0
 10
11.8098376284
 20
8.4819013211
 30
0.0
 10
11.8140406255
 20
8.5185474031
 30
0.0
 10
11.8178763335
 20
8.5474667378
 30
0.0
 10
11.8209634659
 20
8.5687772406
 30
0.0
 10
11.8242674116
 20
8.5897622069
 30
0.0
 10
11.8277815351
 20
8.6103794728
 30
0.0
 10
11.8314987364
 20
8.6305875812
 30
0.0
 10
11.8354115158
 20
8.6503459134
 30
0.0
 10
11.8395119753
 20
8.6696147569
 30
0.0
 10
11.8437918378
 20
8.6883553898
 30
0.0
 10
11.8482424627
 20
8.7065301631
 30
0.0
 10
11.8528548562
 20
8.7241025816
 30
0.0
 10
11.8576196979
 20
8.7410373779
 30
0.0
 10
11.8625273586
 20
8.757300584
 30
0.0
 10
11.8675679203
 20
8.7728596018
 30
0.0
 10
11.8727312011
 20
8.7876832841
 30
0.0
 10
11.8780067686
 20
8.8017419892
 30
0.0
 10
11.8833839774
 20
8.8150077288
 30
0.0
 10
11.8888519843
 20
8.82745396
 30
0.0
 10
11.8935421607
 20
8.8372628574
 30
0.0
 10
11.8973386154
 20
8.8446731537
 30
0.0
 10
11.90015948
 20
8.8499280887
 30
0.0
 10
11.902994809
 20
8.8549603463
 30
0.0
 10
11.905843179
 20
8.8597674384
 30
0.0
 10
11.908703178
 20
8.8643469687
 30
0.0
 10
11.9115733998
 20
8.8686966457
 30
0.0
 10
11.9144523685
 20
8.872814326
 30
0.0
 10
11.9173387271
 20
8.8766979563
 30
0.0
 10
11.9202310561
 20
8.8803456684
 30
0.0
 10
11.9231280206
 20
8.8837556726
 30
0.0
 10
11.9260280547
 20
8.8869261174
 30
0.0
 10
11.9280026967
 20
8.8889195939
 30
0.0
 10
11.9289905588
 20
8.8898737954
 30
0.0
  0
SPLINE
  5
2C8
100
AcDbEntity
  8
0
100
AcDbSpline
 62
7
  6
CONTINUOUS
 70
0
 71
3
 72
61
 73
57
 74
0
 42
0.0000001
 43
0.0000001
 44
0.0000000001
 40
0.0
 40
0.0
 40
0.0
 40
0.0
 40
0.0027165054
 40
0.0054533955
 40
0.0082305472
 40
0.0110669316
 40
0.0169824274
 40
0.0233277131
 40
0.030199549
 40
0.0376706007
 40
0.0457931532
 40
0.0546032753
 40
0.0641243859
 40
0.074369812
 40
0.0853450535
 40
0.0970492998
 40
0.10947643
 40
0.1226160841
 40
0.136454196
 40
0.1509734409
 40
0.1661538067
 40
0.1819727413
 40
0.1984054552
 40
0.2154252451
 40
0.233003508
 40
0.2511100181
 40
0.2697130988
 40
0.288779623
 40
0.3281637084
 40
0.3689758341
 40
0.4109140611
 40
0.4536652952
 40
0.496908534
 40
0.5403180533
 40
0.58356653
 40
0.6263281872
 40
0.6682819354
 40
0.7091145197
 40
0.7485237777
 40
0.7862219893
 40
0.8043449156
 40
0.8219405913
 40
0.8389787009
 40
0.8554306652
 40
0.871269662
 40
0.8864708261
 40
0.9010116003
 40
0.9148718073
 40
0.9280340646
 40
0.940484227
 40
0.9522117242
 40
0.9632103966
 40
0.9734791407
 40
0.9830231747
 40
0.9918561893
 40
1.0
 40
1.0
 40
1.0
 40
1.0
 10
11.9149459589
 20
9.0495824257
 30
0.0
 10
11.9145670854
 20
9.0496087047
 30
0.0
 10
11.9138084349
 20
9.0496957658
 30
0.0
 10
11.9126801322
 20
9.0499287065
 30
0.0
 10
11.9115603131
 20
9.0502639685
 30
0.0
 10
11.9100590213
 20
9.0508550305
 30
0.0
 10
11.9081960254
 20
9.0518661029
 30
0.0
 10
11.9060428451
 20
9.0534654236
 30
0.0
 10
11.9039417013
 20
9.0554618548
 30
0.0
 10
11.9018951162
 20
9.0578503565
 30
0.0
 10
11.899905228
 20
9.0606261632
 30
0.0
 10
11.8979748975
 20
9.0637841211
 30
0.0
 10
11.896107307
 20
9.0673184393
 30
0.0
 10
11.8943057623
 20
9.0712224889
 30
0.0
 10
11.8925736703
 20
9.0754888447
 30
0.0
 10
11.8909144286
 20
9.0801092686
 30
0.0
 10
11.8893312949
 20
9.0850747195
 30
0.0
 10
11.8878274675
 20
9.0903754198
 30
0.0
 10
11.8864059918
 20
9.0960008658
 30
0.0
 10
11.8850697232
 20
9.1019398599
 30
0.0
 10
11.8838214024
 20
9.1081805544
 30
0.0
 10
11.8826635623
 20
9.1147104692
 30
0.0
 10
11.8815985429
 20
9.1215165261
 30
0.0
 10
11.8806285381
 20
9.1285850824
 30
0.0
 10
11.8797555052
 20
9.1359019554
 30
0.0
 10
11.8789812207
 20
9.1434524521
 30
0.0
 10
11.8783072644
 20
9.151221422
 30
0.0
 10
11.877535983
 20
9.1619666752
 30
0.0
 10
11.8768397443
 20
9.1758286297
 30
0.0
 10
11.876428633
 20
9.1929005565
 30
0.0
 10
11.8764368979
 20
9.2104481267
 30
0.0
 10
11.8768646192
 20
9.2283303514
 30
0.0
 10
11.8777084931
 20
9.2464036501
 30
0.0
 10
11.8789618013
 20
9.2645228437
 30
0.0
 10
11.8806144877
 20
9.2825423895
 30
0.0
 10
11.882653207
 20
9.300317561
 30
0.0
 10
11.8850614643
 20
9.317705612
 30
0.0
 10
11.8878197263
 20
9.334567013
 30
0.0
 10
11.8909056261
 20
9.3507663652
 30
0.0
 10
11.8937654918
 20
9.3637715952
 30
0.0
 10
11.8962068485
 20
9.3737415374
 30
0.0
 10
11.8980794882
 20
9.3808759375
 30
0.0
 10
11.9000140153
 20
9.3877514517
 30
0.0
 10
11.9020065249
 20
9.3943543032
 30
0.0
 10
11.9040529862
 20
9.4006712556
 30
0.0
 10
11.9061492848
 20
9.4066896588
 30
0.0
 10
11.9082911584
 20
9.4123974906
 30
0.0
 10
11.9104742993
 20
9.4177833635
 30
0.0
 10
11.9126943202
 20
9.4228365618
 30
0.0
 10
11.9149467342
 20
9.4275470896
 30
0.0
 10
11.9172270698
 20
9.4319056646
 30
0.0
 10
11.919530828
 20
9.435903767
 30
0.0
 10
11.9218534569
 20
9.4395336609
 30
0.0
 10
11.9241907166
 20
9.4427885556
 30
0.0
 10
11.9265380716
 20
9.4456619414
 30
0.0
 10
11.9281716488
 20
9.4473879497
 30
0.0
 10
11.9289905588
 20
9.4481789561
 30
0.0
  0
SPLINE
  5
2C9
100
AcDbEntity
  8
0
100
AcDbSpline
 62
7
  6
CONTINUOUS
 70
0
 71
3
 72
61
 73
57
 74
0
 42
0.0000001
 43
0.0000001
 44
0.0000000001
 40
0.0
 40
0.0
 40
0.0
 40
0.0
 40
0.0027165054
 40
0.0054533955
 40
0.0082305472
 40
0.0110669316
 40
0.0169824274
 40
0.0233277131
 40
0.030199549
 40
0.0376706007
 40
0.0457931532
 40
0.0546032753
 40
0.0641243859
 40
0.074369812
 40
0.0853450535
 40
0.0970492998
 40
0.10947643
 40
0.1226160841
 40
0.136454196
 40
0.1509734409
 40
0.1661538067
 40
0.1819727413
 40
0.1984054552
 40
0.2154252451
 40
0.233003508
 40
0.2511100181
 40
0.2697130988
 40
0.288779623
 40
0.3281637084
 40
0.3689758341
 40
0.4109140611
 40
0.4536652952
 40
0.496908534
 40
0.5403180533
 40
0.58356653
 40
0.6263281872
 40
0.6682819354
 40
0.7091145197
 40
0.7485237777
 40
0.7862219893
 40
0.8043449156
 40
0.8219405913
 40
0.8389787009
 40
0.8554306652
 40
0.871269662
 40
0.8864708261
 40
0.9010116003
 40
0.9148718073
 40
0.9280340646
 40
0.940484227
 40
0.9522117242
 40
0.9632103966
 40
0.9734791407
 40
0.9830231747
 40
0.9918561893
 40
1.0
 40
1.0
 40
1.0
 40
1.0
 10
11.9149459589
 20
7.3592122446
 30
0.0
 10
11.9145670854
 20
7.3592385237
 30
0.0
 10
11.9138084349
 20
7.3593255847
 30
0.0
 10
11.9126801322
 20
7.3595585255
 30
0.0
 10
11.9115603131
 20
7.3598937874
 30
0.0
 10
11.9100590213
 20
7.3604848494
 30
0.0
 10
11.9081960254
 20
7.3614959219
 30
0.0
 10
11.9060428451
 20
7.3630952426
 30
0.0
 10
11.9039417013
 20
7.3650916738
 30
0.0
 10
11.9018951162
 20
7.3674801755
 30
0.0
 10
11.899905228
 20
7.3702559822
 30
0.0
 10
11.8979748975
 20
7.37341394
 30
0.0
 10
11.896107307
 20
7.3769482582
 30
0.0
 10
11.8943057623
 20
7.3808523078
 30
0.0
 10
11.8925736703
 20
7.3851186637
 30
0.0
 10
11.8909144286
 20
7.3897390875
 30
0.0
 10
11.8893312949
 20
7.3947045385
 30
0.0
 10
11.8878274675
 20
7.4000052388
 30
0.0
 10
11.8864059918
 20
7.4056306848
 30
0.0
 10
11.8850697232
 20
7.4115696788
 30
0.0
 10
11.8838214024
 20
7.4178103734
 30
0.0
 10
11.8826635623
 20
7.4243402882
 30
0.0
 10
11.8815985429
 20
7.4311463451
 30
0.0
 10
11.8806285381
 20
7.4382149014
 30
0.0
 10
11.8797555052
 20
7.4455317744
 30
0.0
 10
11.8789812207
 20
7.4530822711
 30
0.0
 10
11.8783072644
 20
7.460851241
 30
0.0
 10
11.877535983
 20
7.4715964942
 30
0.0
 10
11.8768397443
 20
7.4854584487
 30
0.0
 10
11.876428633
 20
7.5025303754
 30
0.0
 10
11.8764368979
 20
7.5200779457
 30
0.0
 10
11.8768646192
 20
7.5379601703
 30
0.0
 10
11.8777084931
 20
7.5560334691
 30
0.0
 10
11.8789618013
 20
7.5741526627
 30
0.0
 10
11.8806144877
 20
7.5921722084
 30
0.0
 10
11.882653207
 20
7.60994738
 30
0.0
 10
11.8850614643
 20
7.627335431
 30
0.0
 10
11.8878197263
 20
7.644196832
 30
0.0
 10
11.8909056261
 20
7.6603961842
 30
0.0
 10
11.8937654918
 20
7.6734014142
 30
0.0
 10
11.8962068485
 20
7.6833713564
 30
0.0
 10
11.8980794882
 20
7.6905057565
 30
0.0
 10
11.9000140153
 20
7.6973812707
 30
0.0
 10
11.9020065249
 20
7.7039841221
 30
0.0
 10
11.9040529862
 20
7.7103010746
 30
0.0
 10
11.9061492848
 20
7.7163194778
 30
0.0
 10
11.9082911584
 20
7.7220273095
 30
0.0
 10
11.9104742993
 20
7.7274131824
 30
0.0
 10
11.9126943202
 20
7.7324663807
 30
0.0
 10
11.9149467342
 20
7.7371769086
 30
0.0
 10
11.9172270698
 20
7.7415354835
 30
0.0
 10
11.919530828
 20
7.745533586
 30
0.0
 10
11.9218534569
 20
7.7491634799
 30
0.0
 10
11.9241907166
 20
7.7524183746
 30
0.0
 10
11.9265380716
 20
7.7552917604
 30
0.0
 10
11.9281716488
 20
7.7570177687
 30
0.0
 10
11.9289905588
 20
7.757808775
 30
0.0
  0
SPLINE
  5
2CA
100
AcDbEntity
  8
0
100
AcDbSpline
 62
7
  6
CONTINUOUS
 70
0
 71
3
 72
51
 73
47
 74
0
 42
0.0000001
 43
0.0000001
 44
0.0000000001
 40
0.0
 40
0.0
 40
0.0
 40
0.0
 40
0.0052719816
 40
0.0105941352
 40
0.0160410489
 40
0.0216819055
 40
0.0275783419
 40
0.0337834753
 40
0.0403417865
 40
0.0472897498
 40
0.0546566096
 40
0.0624654672
 40
0.0707340649
 40
0.0794757762
 40
0.088700123
 40
0.0984135634
 40
0.1086197477
 40
0.119320144
 40
0.1305141033
 40
0.142199377
 40
0.1543720566
 40
0.167027021
 40
0.1801577999
 40
0.193756972
 40
0.2078159868
 40
0.2223255237
 40
0.2526535128
 40
0.2846512577
 40
0.3182173785
 40
0.3532411964
 40
0.3896038794
 40
0.4271794423
 40
0.4658356491
 40
0.5054348501
 40
0.5458347756
 40
0.5868893001
 40
0.6284491877
 40
0.6703628244
 40
0.7124769434
 40
0.7546373455
 40
0.7966896148
 40
0.8384798443
 40
0.8798553264
 40
0.9206653594
 40
0.9607617517
 40
1.0
 40
1.0
 40
1.0
 40
1.0
 10
11.9080633269
 20
8.768399941
 30
0.0
 10
11.9089987882
 20
8.7683757283
 30
0.0
 10
11.9108776905
 20
8.7682090694
 30
0.0
 10
11.9136670208
 20
8.7676042565
 30
0.0
 10
11.9164249415
 20
8.7666463024
 30
0.0
 10
11.9191474165
 20
8.7653376362
 30
0.0
 10
11.9218319319
 20
8.7636810255
 30
0.0
 10
11.9244762527
 20
8.7616791835
 30
0.0
 10
11.92707852
 20
8.7593348212
 30
0.0
 10
11.9296368464
 20
8.7566505524
 30
0.0
 10
11.9321493912
 20
8.7536291481
 30
0.0
 10
11.9346141335
 20
8.7502734824
 30
0.0
 10
11.9370290875
 20
8.7465867468
 30
0.0
 10
11.939392095
 20
8.7425723602
 30
0.0
 10
11.941701094
 20
8.7382341155
 30
0.0
 10
11.9439538858
 20
8.7335760797
 30
0.0
 10
11.9461484183
 20
8.7286026937
 30
0.0
 10
11.94828253
 20
8.7233186841
 30
0.0
 10
11.9503542355
 20
8.7177291316
 30
0.0
 10
11.9523614586
 20
8.7118394022
 30
0.0
 10
11.9543023135
 20
8.7056551915
 30
0.0
 10
11.9561748375
 20
8.6991824754
 30
0.0
 10
11.9579772654
 20
8.6924275347
 30
0.0
 10
11.9597077604
 20
8.6853969265
 30
0.0
 10
11.9613647117
 20
8.6780974777
 30
0.0
 10
11.9635052382
 20
8.6678644235
 30
0.0
 10
11.9659732328
 20
8.6544490082
 30
0.0
 10
11.9685758715
 20
8.6376264063
 30
0.0
 10
11.9708510624
 20
8.6199158568
 30
0.0
 10
11.9727897567
 20
8.6013863804
 30
0.0
 10
11.9743841949
 20
8.5821100712
 30
0.0
 10
11.9756280048
 20
8.5621620587
 30
0.0
 10
11.9765162035
 20
8.5416201219
 30
0.0
 10
11.9770452205
 20
8.5205643949
 30
0.0
 10
11.9772129067
 20
8.4990770406
 30
0.0
 10
11.9770185414
 20
8.4772419242
 30
0.0
 10
11.9764628334
 20
8.4551442812
 30
0.0
 10
11.9755479167
 20
8.4328703804
 30
0.0
 10
11.9742773409
 20
8.4105071842
 30
0.0
 10
11.9726560569
 20
8.3881420062
 30
0.0
 10
11.9706903976
 20
8.3658621672
 30
0.0
 10
11.968388051
 20
8.3437546529
 30
0.0
 10
11.9657580357
 20
8.3219057714
 30
0.0
 10
11.9628106535
 20
8.3004007999
 30
0.0
 10
11.9595574828
 20
8.279323752
 30
0.0
 10
11.9571646064
 20
8.2654457579
 30
0.0
 10
11.9559170838
 20
8.2585936227
 30
0.0
  0
SPLINE
  5
2CB
100
AcDbEntity
  8
0
100
AcDbSpline
 62
7
  6
CONTINUOUS
 70
0
 71
3
 72
42
 73
38
 74
0
 42
0.0000001
 43
0.0000001
 44
0.0000000001
 40
0.0
 40
0.0
 40
0.0
 40
0.0
 40
0.036658985
 40
0.0738824959
 40
0.111575592
 40
0.1496444959
 40
0.2265214903
 40
0.3037372201
 40
0.3805094276
 40
0.418486909
 40
0.4560633437
 40
0.4931442247
 40
0.5296366704
 40
0.5654497577
 40
0.6004948541
 40
0.6346859554
 40
0.6679400376
 40
0.7001774278
 40
0.7313221997
 40
0.7613026088
 40
0.7900515832
 40
0.8175072615
 40
0.8436136324
 40
0.868321311
 40
0.8915885106
 40
0.9026717684
 40
0.9133834273
 40
0.9237209618
 40
0.9336827708
 40
0.9432680414
 40
0.9524769776
 40
0.9613109255
 40
0.9697723938
 40
0.9778654538
 40
0.9855956762
 40
0.9929706329
 40
1.0
 40
1.0
 40
1.0
 40
1.0
 10
11.9137303454
 20
8.2961806389
 30
0.0
 10
11.9145782142
 20
8.3013610494
 30
0.0
 10
11.9162097974
 20
8.3118144321
 30
0.0
 10
11.9184496252
 20
8.3276340657
 30
0.0
 10
11.9204965577
 20
8.3436834066
 30
0.0
 10
11.9229690539
 20
8.3654005949
 30
0.0
 10
11.9255368116
 20
8.3928003546
 30
0.0
 10
11.9277669381
 20
8.4257869505
 30
0.0
 10
11.9289084008
 20
8.453254978
 30
0.0
 10
11.9293778699
 20
8.4750626137
 30
0.0
 10
11.9295061872
 20
8.4911912273
 30
0.0
 10
11.9294117395
 20
8.5071074155
 30
0.0
 10
11.9290947786
 20
8.5227682097
 30
0.0
 10
11.9285561961
 20
8.5381312917
 30
0.0
 10
11.9277974807
 20
8.553155167
 30
0.0
 10
11.9268207234
 20
8.5677992634
 30
0.0
 10
11.92562861
 20
8.5820240449
 30
0.0
 10
11.9242244157
 20
8.5957911209
 30
0.0
 10
11.9226119962
 20
8.6090633539
 30
0.0
 10
11.9207957778
 20
8.6218049664
 30
0.0
 10
11.9187807506
 20
8.6339816516
 30
0.0
 10
11.9165724466
 20
8.645560655
 30
0.0
 10
11.9141769329
 20
8.6565109468
 30
0.0
 10
11.9116007517
 20
8.6668030754
 30
0.0
 10
11.9092731451
 20
8.6749353025
 30
0.0
 10
11.9073183779
 20
8.6810850916
 30
0.0
 10
11.905835344
 20
8.6854410701
 30
0.0
 10
11.9043125366
 20
8.6896127801
 30
0.0
 10
11.9027509979
 20
8.6935974434
 30
0.0
 10
11.9011517595
 20
8.6973923937
 30
0.0
 10
11.8995158829
 20
8.7009951003
 30
0.0
 10
11.897844484
 20
8.7044031796
 30
0.0
 10
11.8961386093
 20
8.7076143583
 30
0.0
 10
11.8943994363
 20
8.7106265339
 30
0.0
 10
11.892628002
 20
8.7134377271
 30
0.0
 10
11.8908255361
 20
8.7160460185
 30
0.0
 10
11.8895744573
 20
8.7176871289
 30
0.0
 10
11.8889433579
 20
8.7184712711
 30
0.0
  0
SPLINE
  5
2CC
100
AcDbEntity
  8
0
100
AcDbSpline
 62
7
  6
CONTINUOUS
 70
0
 71
3
 72
16
 73
12
 74
0
 42
0.0000001
 43
0.0000001
 44
0.0000000001
 40
0.0
 40
0.0
 40
0.0
 40
0.0
 40
0.1504802345
 40
0.2917477373
 40
0.4244952497
 40
0.4879700346
 40
0.5496761098
 40
0.6683415877
 40
0.7818816099
 40
0.8918561996
 40
1.0
 40
1.0
 40
1.0
 40
1.0
 10
11.9289905588
 20
7.3656428663
 30
0.0
 10
11.9284166754
 20
7.3650885375
 30
0.0
 10
11.9272696367
 20
7.3640484346
 30
0.0
 10
11.9254935843
 20
7.3626623198
 30
0.0
 10
11.923993366
 20
7.3616819838
 30
0.0
 10
11.9227970834
 20
7.3610181444
 30
0.0
 10
11.9216360458
 20
7.3604482138
 30
0.0
 10
11.9201842219
 20
7.3598723784
 30
0.0
 10
11.918426491
 20
7.3594047213
 30
0.0
 10
11.9166786792
 20
7.3591712354
 30
0.0
 10
11.9155179919
 20
7.3591725679
 30
0.0
 10
11.9149459589
 20
7.3592122446
 30
0.0
  0
SPLINE
  5
2CD
100
AcDbEntity
  8
0
100
AcDbSpline
 62
7
  6
CONTINUOUS
 70
0
 71
3
 72
23
 73
19
 74
0
 42
0.0000001
 43
0.0000001
 44
0.0000000001
 40
0.0
 40
0.0
 40
0.0
 40
0.0
 40
0.0845449223
 40
0.1666055696
 40
0.2460472136
 40
0.3227523604
 40
0.396606469
 40
0.4675051509
 40
0.5353537848
 40
0.6000683576
 40
0.6615771647
 40
0.7198225649
 40
0.7747629799
 40
0.8263757529
 40
0.8746607563
 40
0.9196448773
 40
0.9613909838
 40
1.0
 40
1.0
 40
1.0
 40
1.0
 10
11.9433253636
 20
8.1994379728
 30
0.0
 10
11.9423094457
 20
8.1953307662
 30
0.0
 10
11.9402453492
 20
8.1872522255
 30
0.0
 10
11.9370010761
 20
8.175373481
 30
0.0
 10
11.9336591547
 20
8.1639299135
 30
0.0
 10
11.9302259173
 20
8.1529428956
 30
0.0
 10
11.926707692
 20
8.1424326119
 30
0.0
 10
11.9231110634
 20
8.1324185172
 30
0.0
 10
11.9194427336
 20
8.1229190662
 30
0.0
 10
11.9157095239
 20
8.1139517397
 30
0.0
 10
11.9119183622
 20
8.1055329971
 30
0.0
 10
11.90807627
 20
8.0976782163
 30
0.0
 10
11.9041903243
 20
8.0904016663
 30
0.0
 10
11.9002675914
 20
8.0837164579
 30
0.0
 10
11.8963151374
 20
8.0776345992
 30
0.0
 10
11.8923397439
 20
8.0721665925
 30
0.0
 10
11.8883484998
 20
8.0673225085
 30
0.0
 10
11.8855756976
 20
8.0644034742
 30
0.0
 10
11.8841859839
 20
8.0630611138
 30
0.0
  0
SPLINE
  5
2CE
100
AcDbEntity
  8
0
100
AcDbSpline
 62
7
  6
CONTINUOUS
 70
0
 71
3
 72
25
 73
21
 74
0
 42
0.0000001
 43
0.0000001
 44
0.0000000001
 40
0.0
 40
0.0
 40
0.0
 40
0.0
 40
0.0616475249
 40
0.0924812743
 40
0.1233236406
 40
0.1850399892
 40
0.2468243933
 40
0.2777516301
 40
0.308703863
 40
0.3706878922
 40
0.432801286
 40
0.4950619238
 40
0.5574860844
 40
0.6200882761
 40
0.6828811188
 40
0.745875149
 40
0.8090789743
 40
0.8724984995
 40
0.936138637
 40
1.0
 40
1.0
 40
1.0
 40
1.0
 10
10.8412199123
 20
8.018928435
 30
0.0
 10
10.835159997
 20
8.0130750115
 30
0.0
 10
10.8258304111
 20
8.0045361134
 30
0.0
 10
10.8129476541
 20
7.9936661882
 30
0.0
 10
10.7997699367
 20
7.9831400364
 30
0.0
 10
10.7827632444
 20
7.9706430629
 30
0.0
 10
10.7651016719
 20
7.9590689455
 30
0.0
 10
10.7506043218
 20
7.9503782508
 30
0.0
 10
10.735856551
 20
7.9420640082
 30
0.0
 10
10.7169865528
 20
7.9323987788
 30
0.0
 10
10.6937230737
 20
7.9220023319
 30
0.0
 10
10.6698865181
 20
7.9128275167
 30
0.0
 10
10.6455373401
 20
7.904897611
 30
0.0
 10
10.6207367686
 20
7.89823246
 30
0.0
 10
10.5955473044
 20
7.8928488069
 30
0.0
 10
10.5700323453
 20
7.8887601139
 30
0.0
 10
10.5442562292
 20
7.885976645
 30
0.0
 10
10.5182835391
 20
7.8845052758
 30
0.0
 10
10.4921805903
 20
7.8843496838
 30
0.0
 10
10.4747636676
 20
7.8851220932
 30
0.0
 10
10.4660567506
 20
7.88572592
 30
0.0
  0
SPLINE
  5
2CF
100
AcDbEntity
  8
0
100
AcDbSpline
 62
7
  6
CONTINUOUS
 70
0
 71
3
 72
15
 73
11
 74
0
 42
0.0000001
 43
0.0000001
 44
0.0000000001
 40
0.0
 40
0.0
 40
0.0
 40
0.0
 40
0.1233300917
 40
0.2470321811
 40
0.3711710032
 40
0.4958022821
 40
0.620971689
 40
0.7467142564
 40
0.8730524264
 40
1.0
 40
1.0
 40
1.0
 40
1.0
 10
10.9187339736
 20
8.1168224254
 30
0.0
 10
10.9084779519
 20
8.1111826819
 30
0.0
 10
10.8875103433
 20
8.1006396832
 30
0.0
 10
10.854938424
 20
8.0871495753
 30
0.0
 10
10.8213533809
 20
8.0760232583
 30
0.0
 10
10.7869189411
 20
8.0673151435
 30
0.0
 10
10.7518002332
 20
8.0610664392
 30
0.0
 10
10.7161657044
 20
8.0573069739
 30
0.0
 10
10.6801886329
 20
8.0560541521
 30
0.0
 10
10.6561429365
 20
8.0568922795
 30
0.0
 10
10.6441241067
 20
8.0577257882
 30
0.0
  0
SPLINE
  5
2D0
100
AcDbEntity
  8
0
100
AcDbSpline
 62
7
  6
CONTINUOUS
 70
0
 71
3
 72
49
 73
45
 74
0
 42
0.0000001
 43
0.0000001
 44
0.0000000001
 40
0.0
 40
0.0
 40
0.0
 40
0.0
 40
0.031143296
 40
0.0624396766
 40
0.0938831278
 40
0.1254640363
 40
0.157170171
 40
0.1889867839
 40
0.2208969298
 40
0.2528818248
 40
0.2849212282
 40
0.3169938408
 40
0.3490777219
 40
0.3811507141
 40
0.4131908699
 40
0.445176875
 40
0.477088467
 40
0.5089068346
 40
0.5406149975
 40
0.5721981645
 40
0.6036440492
 40
0.6349431521
 40
0.6660889954
 40
0.6970782958
 40
0.7125167394
 40
0.7279163414
 40
0.7432776333
 40
0.7586013548
 40
0.7738884505
 40
0.7891400707
 40
0.8043575636
 40
0.819542467
 40
0.8346965052
 40
0.8498215788
 40
0.8649197525
 40
0.8799932467
 40
0.8950444265
 40
0.9100757849
 40
0.9250899308
 40
0.9400895758
 40
0.955077516
 40
0.9700566156
 40
0.9850297926
 40
1.0
 40
1.0
 40
1.0
 40
1.0
 10
10.4500099831
 20
6.5536689876
 30
0.0
 10
10.4360936399
 20
6.5546340893
 30
0.0
 10
10.4082528355
 20
6.5575876681
 30
0.0
 10
10.3668291755
 20
6.5650277722
 30
0.0
 10
10.3258491985
 20
6.5754491527
 30
0.0
 10
10.2855342457
 20
6.5887957661
 30
0.0
 10
10.2460984592
 20
6.6049960406
 30
0.0
 10
10.2077522386
 20
6.6239633649
 30
0.0
 10
10.17069985
 20
6.6455963592
 30
0.0
 10
10.1351387078
 20
6.6697794867
 30
0.0
 10
10.1012583284
 20
6.6963837721
 30
0.0
 10
10.0692391979
 20
6.7252672646
 30
0.0
 10
10.0392519565
 20
6.7562759904
 30
0.0
 10
10.0114564728
 20
6.7892446973
 30
0.0
 10
9.9860008795
 20
6.8239976411
 30
0.0
 10
9.9630209986
 20
6.8603496814
 30
0.0
 10
9.9426394483
 20
6.8981071103
 30
0.0
 10
9.9249650232
 20
6.9370687252
 30
0.0
 10
9.9100922654
 20
6.9770269311
 30
0.0
 10
9.8981007088
 20
7.0177687693
 30
0.0
 10
9.8890546445
 20
7.059076955
 30
0.0
 10
9.883002801
 20
7.1007316414
 30
0.0
 10
9.8799776906
 20
7.1425091212
 30
0.0
 10
9.8799933468
 20
7.1772898886
 30
0.0
 10
9.8815330832
 20
7.2049460523
 30
0.0
 10
9.8834456528
 20
7.2255561462
 30
0.0
 10
9.8861148249
 20
7.2460299054
 30
0.0
 10
9.8895370573
 20
7.2663403383
 30
0.0
 10
9.8937078339
 20
7.2864602144
 30
0.0
 10
9.8986215469
 20
7.306362693
 30
0.0
 10
9.9042716556
 20
7.3260211814
 30
0.0
 10
9.9106506738
 20
7.3454094035
 30
0.0
 10
9.9177500485
 20
7.3645014688
 30
0.0
 10
9.925560302
 20
7.3832718736
 30
0.0
 10
9.9340710614
 20
7.4016955157
 30
0.0
 10
9.9432709357
 20
7.4197477886
 30
0.0
 10
9.953147624
 20
7.4374045812
 30
0.0
 10
9.9636879828
 20
7.4546422737
 30
0.0
 10
9.9748779221
 20
7.4714378332
 30
0.0
 10
9.9867024721
 20
7.4877688407
 30
0.0
 10
9.9991458502
 20
7.5036134281
 30
0.0
 10
10.012191518
 20
7.518950487
 30
0.0
 10
10.0258217136
 20
7.5337592751
 30
0.0
 10
10.035287118
 20
7.5432674187
 30
0.0
 10
10.0401100729
 20
7.5479260282
 30
0.0
  0
SPLINE
  5
2D1
100
AcDbEntity
  8
0
100
AcDbSpline
 62
7
  6
CONTINUOUS
 70
0
 71
3
 72
21
 73
17
 74
0
 42
0.0000001
 43
0.0000001
 44
0.0000000001
 40
0.0
 40
0.0
 40
0.0
 40
0.0
 40
0.0615974021
 40
0.1232692693
 40
0.1850279211
 40
0.2468850887
 40
0.3088518422
 40
0.3709385335
 40
0.4331547201
 40
0.4955090959
 40
0.5580094769
 40
0.620662721
 40
0.6834746466
 40
0.7464503028
 40
0.8728810924
 40
1.0
 40
1.0
 40
1.0
 40
1.0
 10
10.9412427041
 20
8.1593691514
 30
0.0
 10
10.9359663871
 20
8.1559182237
 30
0.0
 10
10.9252617179
 20
8.1492320195
 30
0.0
 10
10.9087909504
 20
8.1398746837
 30
0.0
 10
10.8919216923
 20
8.1311974609
 30
0.0
 10
10.8746801638
 20
8.1232138958
 30
0.0
 10
10.8570927198
 20
8.1159361036
 30
0.0
 10
10.8391863428
 20
8.1093752442
 30
0.0
 10
10.8209884556
 20
8.1035414002
 30
0.0
 10
10.8025269736
 20
8.0984434544
 30
0.0
 10
10.7838301688
 20
8.0940891862
 30
0.0
 10
10.7649267722
 20
8.0904852988
 30
0.0
 10
10.7458454269
 20
8.087637265
 30
0.0
 10
10.7201753002
 20
8.0848500504
 30
0.0
 10
10.687780775
 20
8.0832816398
 30
0.0
 10
10.6618108599
 20
8.0840715286
 30
0.0
 10
10.648831124
 20
8.0849716763
 30
0.0
  0
SPLINE
  5
2D2
100
AcDbEntity
  8
0
100
AcDbSpline
 62
7
  6
CONTINUOUS
 70
0
 71
3
 72
15
 73
11
 74
0
 42
0.0000001
 43
0.0000001
 44
0.0000000001
 40
0.0
 40
0.0
 40
0.0
 40
0.0
 40
0.1233249839
 40
0.247021168
 40
0.3711546353
 40
0.4957823119
 40
0.6209508745
 40
0.7466961779
 40
0.8730411603
 40
1.0
 40
1.0
 40
1.0
 40
1.0
 10
10.9488594022
 20
8.1768895713
 30
0.0
 10
10.9390034285
 20
8.1714149656
 30
0.0
 10
10.9188465579
 20
8.1611787172
 30
0.0
 10
10.8875158014
 20
8.148076434
 30
0.0
 10
10.8551952251
 20
8.1372654452
 30
0.0
 10
10.822044679
 20
8.1287994063
 30
0.0
 10
10.7882254532
 20
8.1227189494
 30
0.0
 10
10.753902124
 20
8.1190535211
 30
0.0
 10
10.7192440186
 20
8.1178203401
 30
0.0
 10
10.6960786159
 20
8.1186220261
 30
0.0
 10
10.6844998444
 20
8.1194250166
 30
0.0
  0
SPLINE
  5
2D3
100
AcDbEntity
  8
0
100
AcDbSpline
 62
7
  6
CONTINUOUS
 70
0
 71
3
 72
23
 73
19
 74
0
 42
0.0000001
 43
0.0000001
 44
0.0000000001
 40
0.0
 40
0.0
 40
0.0
 40
0.0
 40
0.0615905946
 40
0.1232491383
 40
0.1849896845
 40
0.246825676
 40
0.3087698551
 40
0.3708341657
 40
0.4330296641
 40
0.4953664511
 40
0.5578536197
 40
0.6204991798
 40
0.6833099372
 40
0.7462917511
 40
0.8094490391
 40
0.8727843608
 40
0.9363027878
 40
1.0
 40
1.0
 40
1.0
 40
1.0
 10
10.9738987225
 20
8.2532436821
 30
0.0
 10
10.968986076
 20
8.2497822453
 30
0.0
 10
10.959001549
 20
8.2430709559
 30
0.0
 10
10.9435888344
 20
8.2336659182
 30
0.0
 10
10.92775786
 20
8.2249329812
 30
0.0
 10
10.9115358692
 20
8.2168871721
 30
0.0
 10
10.8949502699
 20
8.2095420469
 30
0.0
 10
10.8780291996
 20
8.2029100996
 30
0.0
 10
10.8608013546
 20
8.1970025316
 30
0.0
 10
10.8432959547
 20
8.1918293166
 30
0.0
 10
10.8255426703
 20
8.1873992206
 30
0.0
 10
10.8075715967
 20
8.1837197647
 30
0.0
 10
10.7894132011
 20
8.1807971098
 30
0.0
 10
10.7710982484
 20
8.1786361993
 30
0.0
 10
10.7526578691
 20
8.1772407151
 30
0.0
 10
10.7341229922
 20
8.176612914
 30
0.0
 10
10.7155257065
 20
8.1767539646
 30
0.0
 10
10.7031234359
 20
8.1773594584
 30
0.0
 10
10.6969231483
 20
8.1777894498
 30
0.0
  0
SPLINE
  5
2D4
100
AcDbEntity
  8
0
100
AcDbSpline
 62
7
  6
CONTINUOUS
 70
0
 71
3
 72
46
 73
42
 74
0
 42
0.0000001
 43
0.0000001
 44
0.0000000001
 40
0.0
 40
0.0
 40
0.0
 40
0.0
 40
0.014970446
 40
0.0299438628
 40
0.0449232021
 40
0.0599113814
 40
0.0749112668
 40
0.0899256536
 40
0.104957252
 40
0.120008673
 40
0.1350824095
 40
0.1501808245
 40
0.1653061406
 40
0.1804604224
 40
0.1956455689
 40
0.2108633057
 40
0.2413971018
 40
0.2720772742
 40
0.30291056
 40
0.3339003575
 40
0.3650467003
 40
0.3963463051
 40
0.4277926933
 40
0.4593763665
 40
0.4910850373
 40
0.5229039134
 40
0.5548160163
 40
0.586802533
 40
0.6188432004
 40
0.6509167052
 40
0.6830010989
 40
0.7150742234
 40
0.7471141381
 40
0.779099544
 40
0.8110101992
 40
0.8428273196
 40
0.8745339607
 40
0.9061153716
 40
0.9375593348
 40
0.9688561955
 40
1.0
 40
1.0
 40
1.0
 40
1.0
 10
10.0908935889
 20
8.7957233591
 30
0.0
 10
10.0864793634
 20
8.7914595485
 30
0.0
 10
10.0778161318
 20
8.782757171
 30
0.0
 10
10.0653410482
 20
8.7692033703
 30
0.0
 10
10.0534010043
 20
8.7551660269
 30
0.0
 10
10.0420121658
 20
8.7406642039
 30
0.0
 10
10.0311897077
 20
8.7257171848
 30
0.0
 10
10.0209481249
 20
8.7103449533
 30
0.0
 10
10.0113010366
 20
8.6945680838
 30
0.0
 10
10.0022613643
 20
8.6784076371
 30
0.0
 10
9.9938411929
 20
8.6618852017
 30
0.0
 10
9.9860517081
 20
8.6450228911
 30
0.0
 10
9.9789033446
 20
8.6278431921
 30
0.0
 10
9.9724056688
 20
8.6103691478
 30
0.0
 10
9.9665672335
 20
8.5926237903
 30
0.0
 10
9.9596651645
 20
8.5686097289
 30
0.0
 10
9.9527259966
 20
8.5380209369
 30
0.0
 10
9.9471520857
 20
8.5006650807
 30
0.0
 10
9.944349208
 20
8.4628117598
 30
0.0
 10
9.9443323588
 20
8.4246645251
 30
0.0
 10
9.9471010625
 20
8.3864266588
 30
0.0
 10
9.9526400971
 20
8.3483022956
 30
0.0
 10
9.9609195483
 20
8.3104947647
 30
0.0
 10
9.971894911
 20
8.2732056764
 30
0.0
 10
9.9855072892
 20
8.2366337897
 30
0.0
 10
10.0016838695
 20
8.2009740278
 30
0.0
 10
10.0203382082
 20
8.1664164281
 30
0.0
 10
10.0413706424
 20
8.1331451005
 30
0.0
 10
10.0646689628
 20
8.1013373367
 30
0.0
 10
10.0901089274
 20
8.0711626461
 30
0.0
 10
10.1175548573
 20
8.0427817962
 30
0.0
 10
10.1468604831
 20
8.0163460721
 30
0.0
 10
10.1778696574
 20
7.991996446
 30
0.0
 10
10.2104171133
 20
7.9698627389
 30
0.0
 10
10.2443294511
 20
7.9500630665
 30
0.0
 10
10.2794259849
 20
7.932703187
 30
0.0
 10
10.3155197255
 20
7.9178758137
 30
0.0
 10
10.3524181395
 20
7.9056602828
 30
0.0
 10
10.3899252128
 20
7.8961220966
 30
0.0
 10
10.427838367
 20
7.8893125019
 30
0.0
 10
10.4533197621
 20
7.8866092331
 30
0.0
 10
10.4660567506
 20
7.88572592
 30
0.0
  0
SPLINE
  5
2D5
100
AcDbEntity
  8
0
100
AcDbSpline
 62
7
  6
CONTINUOUS
 70
0
 71
3
 72
43
 73
39
 74
0
 42
0.0000001
 43
0.0000001
 44
0.0000000001
 40
0.0
 40
0.0
 40
0.0
 40
0.0
 40
0.0149736455
 40
0.0299664583
 40
0.0449803592
 40
0.0600171683
 40
0.0901618518
 40
0.1204172879
 40
0.1355920058
 40
0.1507981
 40
0.1660365206
 40
0.1813080695
 40
0.211948849
 40
0.242728177
 40
0.2736471472
 40
0.3047044741
 40
0.3358965464
 40
0.3672175157
 40
0.3986594207
 40
0.4302123416
 40
0.46186458
 40
0.4936028612
 40
0.5254125563
 40
0.5572779207
 40
0.589182345
 40
0.6211086162
 40
0.6530391842
 40
0.6849564324
 40
0.7168429496
 40
0.7486817993
 40
0.780456784
 40
0.8121527003
 40
0.8437555846
 40
0.8752529446
 40
0.9066339564
 40
0.9378897556
 40
0.9690131839
 40
1.0
 40
1.0
 40
1.0
 40
1.0
 10
10.1914265548
 20
8.8698178453
 30
0.0
 10
10.1886037848
 20
8.8650816246
 30
0.0
 10
10.1831187202
 20
8.8555042069
 30
0.0
 10
10.1753883865
 20
8.8408526788
 30
0.0
 10
10.1681581064
 20
8.8259217766
 30
0.0
 10
10.1591884856
 20
8.8056485799
 30
0.0
 10
10.149264167
 20
8.7796797577
 30
0.0
 10
10.1411172683
 20
8.7530470301
 30
0.0
 10
10.1356750173
 20
8.7313893048
 30
0.0
 10
10.1321313012
 20
8.7149660722
 30
0.0
 10
10.129134026
 20
8.6983981647
 30
0.0
 10
10.1258669118
 20
8.676116008
 30
0.0
 10
10.1231674737
 20
8.6479832285
 30
0.0
 10
10.1221552866
 20
8.6139733686
 30
0.0
 10
10.1233700336
 20
8.5798162112
 30
0.0
 10
10.1268064461
 20
8.5456584334
 30
0.0
 10
10.1324496018
 20
8.5116454151
 30
0.0
 10
10.140275229
 20
8.4779222191
 30
0.0
 10
10.1502497529
 20
8.4446325444
 30
0.0
 10
10.1623304798
 20
8.4119182414
 30
0.0
 10
10.176465771
 20
8.3799186827
 30
0.0
 10
10.1925952686
 20
8.3487701864
 30
0.0
 10
10.2106501447
 20
8.3186054379
 30
0.0
 10
10.2305533762
 20
8.2895529177
 30
0.0
 10
10.2522200994
 20
8.2617363731
 30
0.0
 10
10.2755579655
 20
8.2352742956
 30
0.0
 10
10.3004675304
 20
8.2102794212
 30
0.0
 10
10.326842677
 20
8.1868582584
 30
0.0
 10
10.3545710435
 20
8.1651106151
 30
0.0
 10
10.3835345144
 20
8.1451291894
 30
0.0
 10
10.413609722
 20
8.1269991843
 30
0.0
 10
10.4446685691
 20
8.1107979453
 30
0.0
 10
10.4765787531
 20
8.0965946355
 30
0.0
 10
10.5092043737
 20
8.0844499327
 30
0.0
 10
10.5424063031
 20
8.0744157359
 30
0.0
 10
10.576043516
 20
8.0665350316
 30
0.0
 10
10.6099708212
 20
8.0608416423
 30
0.0
 10
10.6327414657
 20
8.058515177
 30
0.0
 10
10.6441241067
 20
8.0577257882
 30
0.0
  0
SPLINE
  5
2D6
100
AcDbEntity
  8
0
100
AcDbSpline
 62
7
  6
CONTINUOUS
 70
0
 71
3
 72
44
 73
40
 74
0
 42
0.0000001
 43
0.0000001
 44
0.0000000001
 40
0.0
 40
0.0
 40
0.0
 40
0.0
 40
0.0149605483
 40
0.0299363434
 40
0.044929633
 40
0.0599425809
 40
0.0749772504
 40
0.0900355969
 40
0.1051194617
 40
0.1202305556
 40
0.1505359503
 40
0.1809674314
 40
0.2115335091
 40
0.2422401434
 40
0.2576495351
 40
0.2730950913
 40
0.304090183
 40
0.3352278946
 40
0.3665037213
 40
0.3979107148
 40
0.4294396347
 40
0.4610791353
 40
0.4928159828
 40
0.524635297
 40
0.5565208142
 40
0.5884551668
 40
0.6204201777
 40
0.6523971635
 40
0.6843672438
 40
0.7163116514
 40
0.7482120429
 40
0.7800508044
 40
0.8118113471
 40
0.843478392
 40
0.875038238
 40
0.9064789991
 40
0.9377909182
 40
0.9689661424
 40
1.0
 40
1.0
 40
1.0
 40
1.0
 10
10.2347499197
 20
8.8908670702
 30
0.0
 10
10.2316143918
 20
8.8864188117
 30
0.0
 10
10.2255000788
 20
8.8774037797
 30
0.0
 10
10.2168167051
 20
8.8635529448
 30
0.0
 10
10.2086264614
 20
8.8493826626
 30
0.0
 10
10.2009388852
 20
8.8349093348
 30
0.0
 10
10.1937627403
 20
8.8201493988
 30
0.0
 10
10.1871061587
 20
8.8051198381
 30
0.0
 10
10.1809767735
 20
8.7898375176
 30
0.0
 10
10.1735100613
 20
8.7691302225
 30
0.0
 10
10.1655294476
 20
8.7426920426
 30
0.0
 10
10.1581707209
 20
8.7102766484
 30
0.0
 10
10.1530523619
 20
8.6772854379
 30
0.0
 10
10.150676254
 20
8.6494680615
 30
0.0
 10
10.1499097911
 20
8.6270828599
 30
0.0
 10
10.1499015621
 20
8.6045795573
 30
0.0
 10
10.1513205336
 20
8.5763709892
 30
0.0
 10
10.1552920888
 20
8.5425994365
 30
0.0
 10
10.16151603
 20
8.5090167605
 30
0.0
 10
10.1699637553
 20
8.4757770899
 30
0.0
 10
10.1805965145
 20
8.4430317022
 30
0.0
 10
10.1933656188
 20
8.4109299237
 30
0.0
 10
10.2082126854
 20
8.3796180375
 30
0.0
 10
10.2250698984
 20
8.3492387391
 30
0.0
 10
10.2438603234
 20
8.3199304689
 30
0.0
 10
10.2644982241
 20
8.2918267762
 30
0.0
 10
10.2868894678
 20
8.2650557196
 30
0.0
 10
10.3109319679
 20
8.2397393018
 30
0.0
 10
10.3365161383
 20
8.2159929166
 30
0.0
 10
10.3635253929
 20
8.1939248341
 30
0.0
 10
10.3918366444
 20
8.1736356793
 30
0.0
 10
10.4213208806
 20
8.1552179941
 30
0.0
 10
10.4518437565
 20
8.1387558298
 30
0.0
 10
10.4832661787
 20
8.1243243623
 30
0.0
 10
10.5154449936
 20
8.1119895606
 30
0.0
 10
10.5482334002
 20
8.1018078236
 30
0.0
 10
10.5814824099
 20
8.0938258118
 30
0.0
 10
10.6150384848
 20
8.0880801825
 30
0.0
 10
10.6375687951
 20
8.0857527215
 30
0.0
 10
10.648831124
 20
8.0849716763
 30
0.0
  0
SPLINE
  5
2D7
100
AcDbEntity
  8
0
100
AcDbSpline
 62
7
  6
CONTINUOUS
 70
0
 71
3
 72
43
 73
39
 74
0
 42
0.0000001
 43
0.0000001
 44
0.0000000001
 40
0.0
 40
0.0
 40
0.0
 40
0.0
 40
0.0149725688
 40
0.0299640859
 40
0.0449764896
 40
0.0600116221
 40
0.0901524798
 40
0.1204036324
 40
0.1355761009
 40
0.1507798962
 40
0.1660159853
 40
0.1812851958
 40
0.211921319
 40
0.2426961717
 40
0.2736109772
 40
0.3046645615
 40
0.3358534063
 40
0.3671717378
 40
0.3986116503
 40
0.4301632593
 40
0.4618148818
 40
0.4935532399
 40
0.525363685
 40
0.5572304373
 40
0.5891368391
 40
0.6210656163
 40
0.6529991484
 40
0.6849197408
 40
0.7168098999
 40
0.7486526037
 40
0.7804315691
 40
0.8121315091
 40
0.8437383805
 40
0.8752396203
 40
0.9066243373
 40
0.9378836209
 40
0.9690102645
 40
1.0
 40
1.0
 40
1.0
 40
1.0
 10
10.2526036261
 20
8.8980128462
 30
0.0
 10
10.2498771119
 20
8.893486659
 30
0.0
 10
10.2445778318
 20
8.8843327832
 30
0.0
 10
10.2371054245
 20
8.8703257041
 30
0.0
 10
10.2301123542
 20
8.8560482741
 30
0.0
 10
10.2214312274
 20
8.8366583399
 30
0.0
 10
10.2118145864
 20
8.8118132863
 30
0.0
 10
10.2039030526
 20
8.7863235472
 30
0.0
 10
10.1986055698
 20
8.7655902277
 30
0.0
 10
10.1951487844
 20
8.7498655189
 30
0.0
 10
10.192216372
 20
8.733999936
 30
0.0
 10
10.1890066006
 20
8.7126592639
 30
0.0
 10
10.1863234485
 20
8.6857096145
 30
0.0
 10
10.1852426417
 20
8.6531219814
 30
0.0
 10
10.1863009075
 20
8.6203857733
 30
0.0
 10
10.1894936341
 20
8.5876421624
 30
0.0
 10
10.1948068651
 20
8.5550311004
 30
0.0
 10
10.2022176478
 20
8.5226922583
 30
0.0
 10
10.2116940609
 20
8.4907640225
 30
0.0
 10
10.2231953753
 20
8.4593830206
 30
0.0
 10
10.2366722253
 20
8.4286835157
 30
0.0
 10
10.2520668024
 20
8.3987968355
 30
0.0
 10
10.2693131229
 20
8.3698508213
 30
0.0
 10
10.2883373108
 20
8.341969288
 30
0.0
 10
10.309057912
 20
8.3152715008
 30
0.0
 10
10.3313862396
 20
8.2898716697
 30
0.0
 10
10.355226751
 20
8.2658784672
 30
0.0
 10
10.3804774378
 20
8.2433945501
 30
0.0
 10
10.4070302759
 20
8.2225161376
 30
0.0
 10
10.4347716832
 20
8.2033326035
 30
0.0
 10
10.463583
 20
8.1859260973
 30
0.0
 10
10.4933409941
 20
8.1703711949
 30
0.0
 10
10.5239183674
 20
8.1567345796
 30
0.0
 10
10.5551843401
 20
8.1450747447
 30
0.0
 10
10.5870050231
 20
8.1354417314
 30
0.0
 10
10.6192446867
 20
8.127876988
 30
0.0
 10
10.6517635826
 20
8.1224131165
 30
0.0
 10
10.6735894776
 20
8.1201816531
 30
0.0
 10
10.6844998444
 20
8.1194250166
 30
0.0
  0
SPLINE
  5
2D8
100
AcDbEntity
  8
0
100
AcDbSpline
 62
7
  6
CONTINUOUS
 70
0
 71
3
 72
39
 73
35
 74
0
 42
0.0000001
 43
0.0000001
 44
0.0000000001
 40
0.0
 40
0.0
 40
0.0
 40
0.0
 40
0.0299246701
 40
0.0599118815
 40
0.0899797504
 40
0.1201447384
 40
0.1504213335
 40
0.18082178
 40
0.2113558613
 40
0.2420307394
 40
0.2728508499
 40
0.3038178568
 40
0.3349306603
 40
0.366185456
 40
0.3975758408
 40
0.4290929612
 40
0.4607257025
 40
0.4924609105
 40
0.5242836415
 40
0.5561774362
 40
0.5881246127
 40
0.620106577
 40
0.652104143
 40
0.6840978595
 40
0.7160683404
 40
0.7479965946
 40
0.7798643515
 40
0.8116543766
 40
0.8433507751
 40
0.8749392791
 40
0.9064075006
 40
0.937745267
 40
0.9689443908
 40
1.0
 40
1.0
 40
1.0
 40
1.0
 10
10.329706771
 20
8.92025626
 30
0.0
 10
10.3236563889
 20
8.9122747239
 30
0.0
 10
10.3121249183
 20
8.895844186
 30
0.0
 10
10.2966570107
 20
8.8699748363
 30
0.0
 10
10.2830720702
 20
8.8429772184
 30
0.0
 10
10.2714351767
 20
8.8149803238
 30
0.0
 10
10.261800558
 20
8.7861156566
 30
0.0
 10
10.2542134155
 20
8.7565193331
 30
0.0
 10
10.2487091669
 20
8.7263306992
 30
0.0
 10
10.2453134481
 20
8.6956918696
 30
0.0
 10
10.2440419247
 20
8.6647470076
 30
0.0
 10
10.2449002778
 20
8.6336416539
 30
0.0
 10
10.2478841918
 20
8.6025220434
 30
0.0
 10
10.2529793839
 20
8.5715344263
 30
0.0
 10
10.2601616825
 20
8.5408243912
 30
0.0
 10
10.2693971086
 20
8.5105361788
 30
0.0
 10
10.2806420752
 20
8.4808120164
 30
0.0
 10
10.2938435983
 20
8.4517914614
 30
0.0
 10
10.3089395457
 20
8.4236107546
 30
0.0
 10
10.325858929
 20
8.3964021917
 30
0.0
 10
10.344522203
 20
8.370293488
 30
0.0
 10
10.3648416702
 20
8.3454072
 30
0.0
 10
10.38672189
 20
8.3218601595
 30
0.0
 10
10.4100601224
 20
8.2997629308
 30
0.0
 10
10.4347468047
 20
8.2792192995
 30
0.0
 10
10.4606660377
 20
8.2603257584
 30
0.0
 10
10.4876961493
 20
8.2431710831
 30
0.0
 10
10.5157102636
 20
8.2278359209
 30
0.0
 10
10.5445768716
 20
8.2143924139
 30
0.0
 10
10.5741604983
 20
8.2029038674
 30
0.0
 10
10.6043221124
 20
8.1934243948
 30
0.0
 10
10.6349205299
 20
8.1859987541
 30
0.0
 10
10.6658101894
 20
8.1806620774
 30
0.0
 10
10.6865539457
 20
8.1785085564
 30
0.0
 10
10.6969231483
 20
8.1777894498
 30
0.0
  0
SPLINE
  5
2D9
100
AcDbEntity
  8
0
100
AcDbSpline
 62
7
  6
CONTINUOUS
 70
0
 71
3
 72
39
 73
35
 74
0
 42
0.0000001
 43
0.0000001
 44
0.0000000001
 40
0.0
 40
0.0
 40
0.0
 40
0.0
 40
0.0303997603
 40
0.0609108114
 40
0.0915342581
 40
0.1222699378
 40
0.153116436
 40
0.1840711152
 40
0.2151301563
 40
0.2462886127
 40
0.2775404735
 40
0.3088787367
 40
0.3402954917
 40
0.3717820087
 40
0.4033288343
 40
0.4349258938
 40
0.4665625975
 40
0.4982279507
 40
0.5299106671
 40
0.561599284
 40
0.5932822786
 40
0.6249481853
 40
0.656585712
 40
0.6881838557
 40
0.7197320155
 40
0.7512201028
 40
0.7826386486
 40
0.8139789026
 40
0.8452329394
 40
0.876393715
 40
0.9074552503
 40
0.9384124211
 40
0.9692617184
 40
1.0
 40
1.0
 40
1.0
 40
1.0
 10
10.4661394362
 20
8.9289286179
 30
0.0
 10
10.4651354818
 20
8.921050925
 30
0.0
 10
10.4635500778
 20
8.9052090967
 30
0.0
 10
10.4624455322
 20
8.8813120965
 30
0.0
 10
10.4626128152
 20
8.8573018195
 30
0.0
 10
10.4640515066
 20
8.8332466295
 30
0.0
 10
10.4667574563
 20
8.8092138522
 30
0.0
 10
10.4707230006
 20
8.7852710503
 30
0.0
 10
10.4759369319
 20
8.7614854403
 30
0.0
 10
10.4823845457
 20
8.7379238114
 30
0.0
 10
10.4900476795
 20
8.7146523107
 30
0.0
 10
10.498904765
 20
8.6917362665
 30
0.0
 10
10.5089308891
 20
8.6692400042
 30
0.0
 10
10.5200978637
 20
8.6472266675
 30
0.0
 10
10.5323743055
 20
8.6257580426
 30
0.0
 10
10.5457257235
 20
8.6048943854
 30
0.0
 10
10.5601146158
 20
8.5846942541
 30
0.0
 10
10.5755005744
 20
8.5652143456
 30
0.0
 10
10.5918403984
 20
8.546509337
 30
0.0
 10
10.6090882143
 20
8.5286317337
 30
0.0
 10
10.6271956045
 20
8.5116317223
 30
0.0
 10
10.6461117415
 20
8.4955570292
 30
0.0
 10
10.6657835306
 20
8.4804527886
 30
0.0
 10
10.6861557584
 20
8.4663614159
 30
0.0
 10
10.7071712469
 20
8.4533224897
 30
0.0
 10
10.728771013
 20
8.4413726405
 30
0.0
 10
10.7508944326
 20
8.4305454497
 30
0.0
 10
10.7734794113
 20
8.4208713504
 30
0.0
 10
10.7964625488
 20
8.4123775569
 30
0.0
 10
10.8197793523
 20
8.4050879495
 30
0.0
 10
10.8433642783
 20
8.3990230966
 30
0.0
 10
10.8671513964
 20
8.3942000083
 30
0.0
 10
10.8910729683
 20
8.3906324484
 30
0.0
 10
10.9070968222
 20
8.3890948254
 30
0.0
 10
10.9151074233
 20
8.3885392884
 30
0.0
  0
SPLINE
  5
2DA
100
AcDbEntity
  8
0
100
AcDbSpline
 62
7
  6
CONTINUOUS
 70
0
 71
3
 72
19
 73
15
 74
0
 42
0.0000001
 43
0.0000001
 44
0.0000000001
 40
0.0
 40
0.0
 40
0.0
 40
0.0
 40
0.1305434862
 40
0.1952629635
 40
0.2595869642
 40
0.3869875484
 40
0.5127149613
 40
0.5749635679
 40
0.6368023305
 40
0.7592701706
 40
0.8199539325
 40
0.8802881507
 40
0.9402952189
 40
1.0
 40
1.0
 40
1.0
 40
1.0
 10
10.6847354328
 20
7.1845295315
 30
0.0
 10
10.6908622792
 20
7.1841046332
 30
0.0
 10
10.7000527778
 20
7.1837824769
 30
0.0
 10
10.7122652621
 20
7.1840009692
 30
0.0
 10
10.724314982
 20
7.1846464778
 30
0.0
 10
10.7391775957
 20
7.1862502789
 30
0.0
 10
10.7537852191
 20
7.1889348622
 30
0.0
 10
10.7652058539
 20
7.1917206311
 30
0.0
 10
10.7763621254
 20
7.1949044609
 30
0.0
 10
10.7872542622
 20
7.1987180348
 30
0.0
 10
10.7978182243
 20
7.2031538809
 30
0.0
 10
10.8055316242
 20
7.2067703006
 30
0.0
 10
10.8130477305
 20
7.2106812604
 30
0.0
 10
10.8179324481
 20
7.2134885576
 30
0.0
 10
10.8203376106
 20
7.214939414
 30
0.0
  0
SPLINE
  5
2DB
100
AcDbEntity
  8
0
100
AcDbSpline
 62
7
  6
CONTINUOUS
 70
0
 71
3
 72
39
 73
35
 74
0
 42
0.0000001
 43
0.0000001
 44
0.0000000001
 40
0.0
 40
0.0
 40
0.0
 40
0.0
 40
0.030420979
 40
0.0609527139
 40
0.0915959815
 40
0.1223503244
 40
0.1532140694
 40
0.1841843589
 40
0.2152571931
 40
0.2464274844
 40
0.2776891203
 40
0.3090350368
 40
0.3404572989
 40
0.3719471881
 40
0.403495297
 40
0.4350916285
 40
0.4667256993
 40
0.4983866478
 40
0.5300633431
 40
0.5617444971
 40
0.5934187772
 40
0.6250749192
 40
0.6567018402
 40
0.6882887496
 40
0.719825259
 40
0.7513014884
 40
0.7827081699
 40
0.8140367428
 40
0.8452794587
 40
0.8764294238
 40
0.9074808191
 40
0.938428564
 40
0.9692693931
 40
1.0
 40
1.0
 40
1.0
 40
1.0
 10
10.5019611923
 20
8.925051167
 30
0.0
 10
10.5011309948
 20
8.9177186672
 30
0.0
 10
10.4998603457
 20
8.9029795104
 30
0.0
 10
10.4991275233
 20
8.8807629409
 30
0.0
 10
10.4995660032
 20
8.8584571908
 30
0.0
 10
10.5011746045
 20
8.8361247388
 30
0.0
 10
10.5039487861
 20
8.8138270752
 30
0.0
 10
10.5078808254
 20
8.7916258679
 30
0.0
 10
10.5129597966
 20
8.7695824337
 30
0.0
 10
10.5191716133
 20
8.7477576669
 30
0.0
 10
10.5264990654
 20
8.7262118464
 30
0.0
 10
10.5349218679
 20
8.7050044773
 30
0.0
 10
10.5444167166
 20
8.6841941262
 30
0.0
 10
10.5549573532
 20
8.6638382612
 30
0.0
 10
10.5665146343
 20
8.643993092
 30
0.0
 10
10.5790566145
 20
8.6247134169
 30
0.0
 10
10.5925486352
 20
8.6060524726
 30
0.0
 10
10.6069534203
 20
8.5880617882
 30
0.0
 10
10.6222311783
 20
8.5707910438
 30
0.0
 10
10.6383397117
 20
8.5542879344
 30
0.0
 10
10.6552345329
 20
8.5385980387
 30
0.0
 10
10.6728689867
 20
8.523764694
 30
0.0
 10
10.6911943777
 20
8.5098288769
 30
0.0
 10
10.7101601049
 20
8.4968290917
 30
0.0
 10
10.7297137985
 20
8.4848012616
 30
0.0
 10
10.7498014641
 20
8.4737786291
 30
0.0
 10
10.7703676326
 20
8.4637916684
 30
0.0
 10
10.7913555134
 20
8.4548679953
 30
0.0
 10
10.8127071413
 20
8.4470323087
 30
0.0
 10
10.8343635734
 20
8.4403062752
 30
0.0
 10
10.8562649087
 20
8.434708581
 30
0.0
 10
10.8783509361
 20
8.430254643
 30
0.0
 10
10.9005597523
 20
8.4269570055
 30
0.0
 10
10.9154353936
 20
8.4255327887
 30
0.0
 10
10.9228719882
 20
8.4250170591
 30
0.0
  0
SPLINE
  5
2DC
100
AcDbEntity
  8
0
100
AcDbSpline
 62
7
  6
CONTINUOUS
 70
0
 71
3
 72
30
 73
26
 74
0
 42
0.0000001
 43
0.0000001
 44
0.0000000001
 40
0.0
 40
0.0
 40
0.0
 40
0.0
 40
0.030756038
 40
0.0615987887
 40
0.0925255723
 40
0.1235331102
 40
0.1546175482
 40
0.1857744908
 40
0.2169990405
 40
0.2482858307
 40
0.3110095721
 40
0.3739080483
 40
0.4369257301
 40
0.5000038788
 40
0.5630821278
 40
0.6261001133
 40
0.6889990832
 40
0.7517234993
 40
0.8142225539
 40
0.8453799691
 40
0.8764649124
 40
0.9074729576
 40
0.9384003342
 40
0.9692436694
 40
1.0
 40
1.0
 40
1.0
 40
1.0
 10
10.5823755449
 20
8.9076491488
 30
0.0
 10
10.5830623472
 20
8.9015466146
 30
0.0
 10
10.5846978747
 20
8.8893520222
 30
0.0
 10
10.5879248356
 20
8.8711561837
 30
0.0
 10
10.5919231597
 20
8.8530624019
 30
0.0
 10
10.596685367
 20
8.8351047157
 30
0.0
 10
10.6022026339
 20
8.8173163259
 30
0.0
 10
10.6084646122
 20
8.7997303706
 30
0.0
 10
10.6154598589
 20
8.782379137
 30
0.0
 10
10.6257541163
 20
8.7595844042
 30
0.0
 10
10.6403906838
 20
8.7318407476
 30
0.0
 10
10.6606284677
 20
8.7000262894
 30
0.0
 10
10.6834083973
 20
8.6698895259
 30
0.0
 10
10.7085608684
 20
8.641655134
 30
0.0
 10
10.7358997543
 20
8.6155318455
 30
0.0
 10
10.7652223766
 20
8.591713354
 30
0.0
 10
10.7963120546
 20
8.5703760599
 30
0.0
 10
10.828936991
 20
8.5516788662
 30
0.0
 10
10.8572382931
 20
8.5383973553
 30
0.0
 10
10.880401551
 20
8.5292257732
 30
0.0
 10
10.8979868529
 20
8.5230903159
 30
0.0
 10
10.9157674669
 20
8.5177036207
 30
0.0
 10
10.9337108596
 20
8.5130755268
 30
0.0
 10
10.9517831349
 20
8.5092147784
 30
0.0
 10
10.9639133155
 20
8.5071541789
 30
0.0
 10
10.969988184
 20
8.5062545616
 30
0.0
  0
SPLINE
  5
2DD
100
AcDbEntity
  8
0
100
AcDbSpline
 62
7
  6
CONTINUOUS
 70
0
 71
3
 72
23
 73
19
 74
0
 42
0.0000001
 43
0.0000001
 44
0.0000000001
 40
0.0
 40
0.0
 40
0.0
 40
0.0
 40
0.0618775643
 40
0.1239922663
 40
0.1863186725
 40
0.2488275419
 40
0.3114863817
 40
0.3742600466
 40
0.437111374
 40
0.5000018426
 40
0.5628922486
 40
0.625743389
 40
0.6885167457
 40
0.7511751612
 40
0.813683498
 40
0.8760092714
 40
0.9381232617
 40
1.0
 40
1.0
 40
1.0
 40
1.0
 10
10.6810233858
 20
8.8673762694
 30
0.0
 10
10.6829075027
 20
8.8597663985
 30
0.0
 10
10.6871983963
 20
8.8446399652
 30
0.0
 10
10.6951461299
 20
8.8223947435
 30
0.0
 10
10.7045810816
 20
8.8006501559
 30
0.0
 10
10.7154573016
 20
8.7795123922
 30
0.0
 10
10.7277223446
 20
8.7590829746
 30
0.0
 10
10.741316972
 20
8.7394604706
 30
0.0
 10
10.756175592
 20
8.7207394346
 30
0.0
 10
10.7722265335
 20
8.7030101163
 30
0.0
 10
10.7893923987
 20
8.6863579876
 30
0.0
 10
10.8075904332
 20
8.6708633451
 30
0.0
 10
10.8267329102
 20
8.6566009264
 30
0.0
 10
10.846727592
 20
8.6436395428
 30
0.0
 10
10.8674780086
 20
8.6320417901
 30
0.0
 10
10.8888845056
 20
8.6218635762
 30
0.0
 10
10.9108425367
 20
8.6131544852
 30
0.0
 10
10.9258120307
 20
8.6083452353
 30
0.0
 10
10.9333523969
 20
8.6062001786
 30
0.0
  0
SPLINE
  5
2DE
100
AcDbEntity
  8
0
100
AcDbSpline
 62
7
  6
CONTINUOUS
 70
0
 71
3
 72
23
 73
19
 74
0
 42
0.0000001
 43
0.0000001
 44
0.0000000001
 40
0.0
 40
0.0
 40
0.0
 40
0.0
 40
0.1070554224
 40
0.2093109944
 40
0.3056373186
 40
0.3952812616
 40
0.4778726717
 40
0.553354571
 40
0.6218996164
 40
0.6838303448
 40
0.7395605837
 40
0.7895585472
 40
0.8343273097
 40
0.8743998455
 40
0.9103478135
 40
0.942792819
 40
0.9724226036
 40
1.0
 40
1.0
 40
1.0
 40
1.0
 10
10.6286954979
 20
8.0428228956
 30
0.0
 10
10.6302675464
 20
8.0427138736
 30
0.0
 10
10.6333387717
 20
8.0424639429
 30
0.0
 10
10.6378123709
 20
8.0419826521
 30
0.0
 10
10.6420168613
 20
8.041410741
 30
0.0
 10
10.6459165043
 20
8.0407584443
 30
0.0
 10
10.6494913633
 20
8.040036216
 30
0.0
 10
10.6527349415
 20
8.0392537526
 30
0.0
 10
10.6556505809
 20
8.0384195169
 30
0.0
 10
10.6582479642
 20
8.0375405477
 30
0.0
 10
10.6605402616
 20
8.0366224999
 30
0.0
 10
10.6625421078
 20
8.0356698071
 30
0.0
 10
10.6642682317
 20
8.034685794
 30
0.0
 10
10.6657325835
 20
8.0336727316
 30
0.0
 10
10.6669478459
 20
8.0326322112
 30
0.0
 10
10.6679249184
 20
8.031564786
 30
0.0
 10
10.6686722376
 20
8.0304713805
 30
0.0
 10
10.6690314198
 20
8.0297044809
 30
0.0
 10
10.6691697967
 20
8.0293228633
 30
0.0
  0
SPLINE
  5
2DF
100
AcDbEntity
  8
0
100
AcDbSpline
 62
7
  6
CONTINUOUS
 70
0
 71
3
 72
26
 73
22
 74
0
 42
0.0000001
 43
0.0000001
 44
0.0000000001
 40
0.0
 40
0.0
 40
0.0
 40
0.0
 40
0.061647213
 40
0.0924808047
 40
0.1233230161
 40
0.1850390523
 40
0.2468231433
 40
0.2777502216
 40
0.3087023002
 40
0.3706860149
 40
0.4327990935
 40
0.4950594159
 40
0.5574832605
 40
0.6200851367
 40
0.6828776591
 40
0.7458713824
 40
0.8090748542
 40
0.8724941463
 40
0.9042884478
 40
0.9361388549
 40
1.0
 40
1.0
 40
1.0
 40
1.0
 10
10.8599098932
 20
6.6992044896
 30
0.0
 10
10.8532888846
 20
6.6928090962
 30
0.0
 10
10.8430954472
 20
6.6834795971
 30
0.0
 10
10.829019833
 20
6.6716032612
 30
0.0
 10
10.8146219804
 20
6.6601024902
 30
0.0
 10
10.7960406023
 20
6.6464484477
 30
0.0
 10
10.7767437058
 20
6.6338027229
 30
0.0
 10
10.7609040512
 20
6.6243073281
 30
0.0
 10
10.7447907393
 20
6.6152233288
 30
0.0
 10
10.7241735587
 20
6.6046631886
 30
0.0
 10
10.6987560872
 20
6.5933041566
 30
0.0
 10
10.672712485
 20
6.5832798559
 30
0.0
 10
10.6461087978
 20
6.5746157314
 30
0.0
 10
10.6190119186
 20
6.5673334648
 30
0.0
 10
10.591490159
 20
6.5614513472
 30
0.0
 10
10.5636126955
 20
6.556984095
 30
0.0
 10
10.5354501696
 20
6.553942909
 30
0.0
 10
10.5118216721
 20
6.552604383
 30
0.0
 10
10.4928495468
 20
6.5522505445
 30
0.0
 10
10.4738089041
 20
6.5523757287
 30
0.0
 10
10.4595230944
 20
6.5530092511
 30
0.0
 10
10.4500099831
 20
6.5536689876
 30
0.0
  0
SPLINE
  5
2E0
100
AcDbEntity
  8
0
100
AcDbSpline
 62
7
  6
CONTINUOUS
 70
0
 71
3
 72
24
 73
20
 74
0
 42
0.0000001
 43
0.0000001
 44
0.0000000001
 40
0.0
 40
0.0
 40
0.0
 40
0.0
 40
0.0616318394
 40
0.1232948054
 40
0.1850103351
 40
0.2467993097
 40
0.2777302708
 40
0.3086870521
 40
0.3706822578
 40
0.4328080916
 40
0.4950811474
 40
0.5575165036
 40
0.6201275742
 40
0.6829260092
 40
0.7459215133
 40
0.8091220242
 40
0.872532905
 40
0.9361587805
 40
1.0
 40
1.0
 40
1.0
 40
1.0
 10
10.8598228959
 20
6.6992998709
 30
0.0
 10
10.8532356646
 20
6.6932165071
 30
0.0
 10
10.8397364406
 20
6.6813895667
 30
0.0
 10
10.8185815229
 20
6.6647284864
 30
0.0
 10
10.7965660977
 20
6.6491819398
 30
0.0
 10
10.7775526661
 20
6.6371902285
 30
0.0
 10
10.7619693647
 20
6.6281914421
 30
0.0
 10
10.7461313656
 20
6.6195858583
 30
0.0
 10
10.7258933616
 20
6.6095887082
 30
0.0
 10
10.7009819651
 20
6.5988450854
 30
0.0
 10
10.6754910986
 20
6.5893734253
 30
0.0
 10
10.6494820808
 20
6.5811965223
 30
0.0
 10
10.623016947
 20
6.5743337858
 30
0.0
 10
10.5961589597
 20
6.5688015692
 30
0.0
 10
10.5689722348
 20
6.5646129928
 30
0.0
 10
10.5415218025
 20
6.5617780362
 30
0.0
 10
10.5138728916
 20
6.5603033331
 30
0.0
 10
10.4860924787
 20
6.5601923921
 30
0.0
 10
10.4675579092
 20
6.5610264016
 30
0.0
 10
10.4582921859
 20
6.5616689817
 30
0.0
  0
SPLINE
  5
2E1
100
AcDbEntity
  8
0
100
AcDbSpline
 62
7
  6
CONTINUOUS
 70
0
 71
3
 72
39
 73
35
 74
0
 42
0.0000001
 43
0.0000001
 44
0.0000000001
 40
0.0
 40
0.0
 40
0.0
 40
0.0
 40
0.0318713771
 40
0.063634642
 40
0.0952913714
 40
0.1268441881
 40
0.1582967481
 40
0.1896537131
 40
0.2209207125
 40
0.2521042937
 40
0.2832118623
 40
0.3142516124
 40
0.3452324483
 40
0.3761638944
 40
0.4070559974
 40
0.4379192219
 40
0.4687643392
 40
0.4996023139
 40
0.5304441874
 40
0.5613009601
 40
0.5921834735
 40
0.6231022942
 40
0.6540676022
 40
0.6850890845
 40
0.7161758361
 40
0.7473362703
 40
0.7785780321
 40
0.8099079312
 40
0.8413318723
 40
0.8728547783
 40
0.9044807294
 40
0.9362122293
 40
0.9680522226
 40
1.0
 40
1.0
 40
1.0
 40
1.0
 10
10.8494921561
 20
7.1044357772
 30
0.0
 10
10.8494921616
 20
7.0980463111
 30
0.0
 10
10.849179506
 20
7.0852867861
 30
0.0
 10
10.8477680099
 20
7.0662278327
 30
0.0
 10
10.8454181454
 20
7.0473254963
 30
0.0
 10
10.8421355183
 20
7.0286259323
 30
0.0
 10
10.8379280029
 20
7.0101740482
 30
0.0
 10
10.8328056986
 20
6.9920143644
 30
0.0
 10
10.8267809088
 20
6.9741906504
 30
0.0
 10
10.8198681127
 20
6.9567458885
 30
0.0
 10
10.8120839296
 20
6.9397221524
 30
0.0
 10
10.8034470891
 20
6.9231605073
 30
0.0
 10
10.793978398
 20
6.9071008989
 30
0.0
 10
10.7837006687
 20
6.8915820673
 30
0.0
 10
10.7726386675
 20
6.8766414516
 30
0.0
 10
10.7608190563
 20
6.8623150987
 30
0.0
 10
10.7482703256
 20
6.8486375788
 30
0.0
 10
10.7350227382
 20
6.8356418889
 30
0.0
 10
10.7211082556
 20
6.8233593685
 30
0.0
 10
10.7065604456
 20
6.8118196365
 30
0.0
 10
10.6914144034
 20
6.8010505173
 30
0.0
 10
10.6757066666
 20
6.7910779736
 30
0.0
 10
10.6594751246
 20
6.7819260475
 30
0.0
 10
10.6427589378
 20
6.7736167832
 30
0.0
 10
10.6255984342
 20
6.7661701796
 30
0.0
 10
10.6080350052
 20
6.7596041555
 30
0.0
 10
10.5901110074
 20
6.7539345035
 30
0.0
 10
10.5718696583
 20
6.7491748542
 30
0.0
 10
10.5533549423
 20
6.7453366535
 30
0.0
 10
10.5346114646
 20
6.7424290772
 30
0.0
 10
10.5156845041
 20
6.7404591349
 30
0.0
 10
10.4966193679
 20
6.7394314132
 30
0.0
 10
10.4774627629
 20
6.7393484789
 30
0.0
 10
10.464681622
 20
6.7399221612
 30
0.0
 10
10.4582921859
 20
6.7403652701
 30
0.0
  0
SPLINE
  5
2E2
100
AcDbEntity
  8
0
100
AcDbSpline
 62
7
  6
CONTINUOUS
 70
0
 71
3
 72
39
 73
35
 74
0
 42
0.0000001
 43
0.0000001
 44
0.0000000001
 40
0.0
 40
0.0
 40
0.0
 40
0.0
 40
0.031804897
 40
0.0635052991
 40
0.0951034451
 40
0.1266025362
 40
0.1580067186
 40
0.1893210521
 40
0.2205514671
 40
0.2517047128
 40
0.2827882975
 40
0.313810423
 40
0.3447799061
 40
0.3757060923
 40
0.4065987626
 40
0.4374680371
 40
0.4683242744
 40
0.499177967
 40
0.5300396336
 40
0.5609197107
 40
0.591828446
 40
0.6227757971
 40
0.6537713325
 40
0.6848241358
 40
0.7159427162
 40
0.7471349261
 40
0.7784078877
 40
0.8097679421
 40
0.8412205632
 40
0.8727703412
 40
0.9044210474
 40
0.936174898
 40
0.9680349696
 40
1.0
 40
1.0
 40
1.0
 40
1.0
 10
10.8492305723
 20
7.1201554247
 30
0.0
 10
10.8490110599
 20
7.1143933106
 30
0.0
 10
10.8482960244
 20
7.1028965879
 30
0.0
 10
10.8463923556
 20
7.0857530345
 30
0.0
 10
10.8436635668
 20
7.0687769935
 30
0.0
 10
10.8401158908
 20
7.0520079503
 30
0.0
 10
10.8357574399
 20
7.0354842526
 30
0.0
 10
10.8305981905
 20
7.0192438662
 30
0.0
 10
10.8246499486
 20
7.0033240667
 30
0.0
 10
10.817926326
 20
6.9877614164
 30
0.0
 10
10.8104427168
 20
6.9725916622
 30
0.0
 10
10.8022162944
 20
6.9578496383
 30
0.0
 10
10.7932659303
 20
6.943569203
 30
0.0
 10
10.7836121572
 20
6.9297831598
 30
0.0
 10
10.7732771183
 20
6.916523186
 30
0.0
 10
10.7622845332
 20
6.903819749
 30
0.0
 10
10.7506596569
 20
6.8917020175
 30
0.0
 10
10.7384291879
 20
6.8801978213
 30
0.0
 10
10.7256212144
 20
6.8693335819
 30
0.0
 10
10.7122651453
 20
6.8591342598
 30
0.0
 10
10.6983916621
 20
6.8496232721
 30
0.0
 10
10.6840326451
 20
6.8408224335
 30
0.0
 10
10.6692210786
 20
6.8327519345
 30
0.0
 10
10.6539909819
 20
6.8254302885
 30
0.0
 10
10.6383773281
 20
6.8188742988
 30
0.0
 10
10.6224159798
 20
6.8130989839
 30
0.0
 10
10.6061435944
 20
6.8081175546
 30
0.0
 10
10.5895975325
 20
6.8039414129
 30
0.0
 10
10.5728157809
 20
6.8005801112
 30
0.0
 10
10.5558368298
 20
6.7980413328
 30
0.0
 10
10.5386997513
 20
6.7963309018
 30
0.0
 10
10.5214435662
 20
6.7954525791
 30
0.0
 10
10.5041085837
 20
6.7954084989
 30
0.0
 10
10.4925436975
 20
6.7959344014
 30
0.0
 10
10.4867622573
 20
6.7963353457
 30
0.0
  0
SPLINE
  5
2E3
100
AcDbEntity
  8
0
100
AcDbSpline
 62
7
  6
CONTINUOUS
 70
0
 71
3
 72
23
 73
19
 74
0
 42
0.0000001
 43
0.0000001
 44
0.0000000001
 40
0.0
 40
0.0
 40
0.0
 40
0.0
 40
0.0616482098
 40
0.1233194446
 40
0.1850364747
 40
0.2468215611
 40
0.3086962076
 40
0.3706809245
 40
0.4327950062
 40
0.4950563328
 40
0.5574811797
 40
0.6200840705
 40
0.6828776046
 40
0.7458723228
 40
0.8090769537
 40
0.8724968135
 40
0.9361384451
 40
1.0
 40
1.0
 40
1.0
 40
1.0
 10
10.7343504355
 20
6.9185537946
 30
0.0
 10
10.7304788268
 20
6.9148141031
 30
0.0
 10
10.7225313022
 20
6.9075401096
 30
0.0
 10
10.7100384344
 20
6.8972834926
 30
0.0
 10
10.6970030767
 20
6.8877048224
 30
0.0
 10
10.6834585253
 20
6.8788286449
 30
0.0
 10
10.669438794
 20
6.8706771969
 30
0.0
 10
10.6549792411
 20
6.8632710362
 30
0.0
 10
10.640116302
 20
6.856628778
 30
0.0
 10
10.6248874344
 20
6.8507671159
 30
0.0
 10
10.609331006
 20
6.8457007743
 30
0.0
 10
10.593486202
 20
6.8414424766
 30
0.0
 10
10.5773929334
 20
6.8380029188
 30
0.0
 10
10.5610917007
 20
6.8353907021
 30
0.0
 10
10.5446236483
 20
6.8336124
 30
0.0
 10
10.5280299409
 20
6.8326723269
 30
0.0
 10
10.5113530648
 20
6.8325729517
 30
0.0
 10
10.5002255622
 20
6.8330664183
 30
0.0
 10
10.4946628546
 20
6.8334521934
 30
0.0
  0
SPLINE
  5
2E4
100
AcDbEntity
  8
0
100
AcDbSpline
 62
7
  6
CONTINUOUS
 70
0
 71
3
 72
15
 73
11
 74
0
 42
0.0000001
 43
0.0000001
 44
0.0000000001
 40
0.0
 40
0.0
 40
0.0
 40
0.0
 40
0.1234311527
 40
0.2472376222
 40
0.3714647702
 40
0.4961512128
 40
0.6213283057
 40
0.7470196652
 40
0.8732410754
 40
1.0
 40
1.0
 40
1.0
 40
1.0
 10
10.7938182942
 20
6.9992061567
 30
0.0
 10
10.7878045359
 20
6.9964127209
 30
0.0
 10
10.7755735411
 20
6.9912066621
 30
0.0
 10
10.7567346201
 20
6.9845854537
 30
0.0
 10
10.7374451369
 20
6.9791644073
 30
0.0
 10
10.7177786161
 20
6.9749642615
 30
0.0
 10
10.697808802
 20
6.9720005562
 30
0.0
 10
10.6776105586
 20
6.9702843543
 30
0.0
 10
10.65726075
 20
6.9698219083
 30
0.0
 10
10.6436705155
 20
6.9703495715
 30
0.0
 10
10.6368771796
 20
6.970820691
 30
0.0
  0
SPLINE
  5
2E5
100
AcDbEntity
  8
0
100
AcDbSpline
 62
7
  6
CONTINUOUS
 70
0
 71
3
 72
47
 73
43
 74
0
 42
0.0000001
 43
0.0000001
 44
0.0000000001
 40
0.0
 40
0.0
 40
0.0
 40
0.0
 40
0.0149659819
 40
0.0299365564
 40
0.0449146051
 40
0.0599029675
 40
0.074904421
 40
0.0899216682
 40
0.1049573214
 40
0.1200138857
 40
0.1350937458
 40
0.150199156
 40
0.1653322235
 40
0.1804948987
 40
0.1956889684
 40
0.2109160424
 40
0.2261775466
 40
0.2414747202
 40
0.2721748243
 40
0.3030275825
 40
0.3340356647
 40
0.3651984734
 40
0.3965122002
 40
0.4279699511
 40
0.4595619313
 40
0.491275673
 40
0.5230963135
 40
0.5550069122
 40
0.5869887916
 40
0.6190219101
 40
0.6510852509
 40
0.6831572237
 40
0.7152160746
 40
0.7472402979
 40
0.7792090462
 40
0.8111025287
 40
0.8429023968
 40
0.8745921114
 40
0.9061572833
 40
0.9375859945
 40
0.9688688397
 40
1.0
 40
1.0
 40
1.0
 40
1.0
 10
10.0402053258
 20
7.5478388138
 30
0.0
 10
10.0355297025
 20
7.5431154913
 30
0.0
 10
10.026359404
 20
7.5334848233
 30
0.0
 10
10.013172688
 20
7.5185136361
 30
0.0
 10
10.0005696748
 20
7.5030346594
 30
0.0
 10
9.9885672193
 20
7.4870684554
 30
0.0
 10
9.9771810112
 20
7.4706358989
 30
0.0
 10
9.9664259565
 20
7.4537586148
 30
0.0
 10
9.9563161902
 20
7.436458728
 30
0.0
 10
9.9468649945
 20
7.4187589382
 30
0.0
 10
9.9380847063
 20
7.4006825064
 30
0.0
 10
9.9299868707
 20
7.3822531397
 30
0.0
 10
9.9225821268
 20
7.363495016
 30
0.0
 10
9.9158801197
 20
7.3444327827
 30
0.0
 10
9.9098896611
 20
7.3250914157
 30
0.0
 10
9.9046186328
 20
7.3054963838
 30
0.0
 10
9.9000738436
 20
7.2856730611
 30
0.0
 10
9.8949848632
 20
7.2589440325
 30
0.0
 10
9.8904722218
 20
7.2250817165
 30
0.0
 10
9.888043288
 20
7.1840130784
 30
0.0
 10
9.8886049337
 20
7.1426703858
 30
0.0
 10
9.8921541384
 20
7.1012718823
 30
0.0
 10
9.8986717323
 20
7.060034132
 30
0.0
 10
9.908123152
 20
7.0191732716
 30
0.0
 10
9.9204585745
 20
6.9789032838
 30
0.0
 10
9.9356130273
 20
6.9394350159
 30
0.0
 10
9.9535068513
 20
6.9009750631
 30
0.0
 10
9.9740461823
 20
6.8637247602
 30
0.0
 10
9.9971232607
 20
6.8278790485
 30
0.0
 10
10.0226171234
 20
6.7936255202
 30
0.0
 10
10.0503942703
 20
6.7611434979
 30
0.0
 10
10.0803092018
 20
6.7306029825
 30
0.0
 10
10.1122052962
 20
6.7021638561
 30
0.0
 10
10.1459156406
 20
6.6759751023
 30
0.0
 10
10.1812637669
 20
6.65217388
 30
0.0
 10
10.2180646814
 20
6.6308849263
 30
0.0
 10
10.2561257974
 20
6.612219951
 30
0.0
 10
10.2952479312
 20
6.5962768734
 30
0.0
 10
10.3352260916
 20
6.5831394689
 30
0.0
 10
10.3758516791
 20
6.5728769354
 30
0.0
 10
10.4169091672
 20
6.5655434376
 30
0.0
 10
10.4445004804
 20
6.5626254397
 30
0.0
 10
10.4582921859
 20
6.5616689817
 30
0.0
  0
SPLINE
  5
2E6
100
AcDbEntity
  8
0
100
AcDbSpline
 62
7
  6
CONTINUOUS
 70
0
 71
3
 72
71
 73
67
 74
0
 42
0.0000001
 43
0.0000001
 44
0.0000000001
 40
0.0
 40
0.0
 40
0.0
 40
0.0
 40
0.0155852066
 40
0.0311174567
 40
0.046598352
 40
0.0620289165
 40
0.0774109063
 40
0.0927465373
 40
0.1080384659
 40
0.1232897967
 40
0.1385040376
 40
0.1536850738
 40
0.1688371302
 40
0.1839647301
 40
0.1990726495
 40
0.2141658685
 40
0.22924952
 40
0.2443288366
 40
0.259409097
 40
0.2744955701
 40
0.2895934598
 40
0.3047078507
 40
0.3198436553
 40
0.3350055639
 40
0.3501979977
 40
0.3654250653
 40
0.3806905223
 40
0.3959977357
 40
0.4113496526
 40
0.4267487752
 40
0.4421971412
 40
0.4576963074
 40
0.4732473393
 40
0.4888508049
 40
0.5045067747
 40
0.520214827
 40
0.5359740564
 40
0.5517830871
 40
0.5676400887
 40
0.5835427968
 40
0.5994885377
 40
0.6154742565
 40
0.6314965461
 40
0.647551679
 40
0.6636356417
 40
0.6797441706
 40
0.6958727918
 40
0.7120168591
 40
0.7281715948
 40
0.7443321291
 40
0.7604935427
 40
0.7766509094
 40
0.7927993377
 40
0.8089340125
 40
0.8250502356
 40
0.8411434661
 40
0.8572093611
 40
0.8732438146
 40
0.8892429927
 40
0.9052033715
 40
0.9211217649
 40
0.9369953492
 40
0.9528217728
 40
0.9685988324
 40
0.9843255351
 40
1.0
 40
1.0
 40
1.0
 40
1.0
 10
10.444731101
 20
7.5234705514
 30
0.0
 10
10.4384156164
 20
7.5236894773
 30
0.0
 10
10.4257933199
 20
7.5238210396
 30
0.0
 10
10.4069060185
 20
7.5230942752
 30
0.0
 10
10.3881392384
 20
7.5214450148
 30
0.0
 10
10.3695375285
 20
7.5188769538
 30
0.0
 10
10.3511446523
 20
7.5153961497
 30
0.0
 10
10.3330039984
 20
7.5110107685
 30
0.0
 10
10.3151583277
 20
7.5057311025
 30
0.0
 10
10.2976497287
 20
7.4995695616
 30
0.0
 10
10.2805194989
 20
7.4925406257
 30
0.0
 10
10.263808051
 20
7.4846608312
 30
0.0
 10
10.2475548046
 20
7.4759487443
 30
0.0
 10
10.2317981032
 20
7.4664248915
 30
0.0
 10
10.2165751234
 20
7.4561117161
 30
0.0
 10
10.201921786
 20
7.4450335258
 30
0.0
 10
10.1878726745
 20
7.4332164323
 30
0.0
 10
10.174460933
 20
7.4206883125
 30
0.0
 10
10.1617181946
 20
7.4074787269
 30
0.0
 10
10.1496745151
 20
7.3936188411
 30
0.0
 10
10.1383582989
 20
7.3791413549
 30
0.0
 10
10.1277962351
 20
7.3640804229
 30
0.0
 10
10.1180132285
 20
7.3484715785
 30
0.0
 10
10.1090323211
 20
7.3323516589
 30
0.0
 10
10.1008746632
 20
7.3157586986
 30
0.0
 10
10.0935594616
 20
7.2987318416
 30
0.0
 10
10.087103935
 20
7.2813112493
 30
0.0
 10
10.0815232793
 20
7.2635380051
 30
0.0
 10
10.0768306065
 20
7.2454540249
 30
0.0
 10
10.0730369259
 20
7.2271019511
 30
0.0
 10
10.0701511328
 20
7.2085250478
 30
0.0
 10
10.0681799848
 20
7.1897671015
 30
0.0
 10
10.0671280903
 20
7.1708723178
 30
0.0
 10
10.0669978921
 20
7.1518852207
 30
0.0
 10
10.0677896402
 20
7.1328505454
 30
0.0
 10
10.0695014214
 20
7.1138131313
 30
0.0
 10
10.0721291624
 20
7.0948178183
 30
0.0
 10
10.075666639
 20
7.075909342
 30
0.0
 10
10.080105496
 20
7.0571322326
 30
0.0
 10
10.0854352421
 20
7.0385307046
 30
0.0
 10
10.0916432851
 20
7.0201485525
 30
0.0
 10
10.0987149761
 20
7.0020290524
 30
0.0
 10
10.1066336407
 20
6.984214861
 30
0.0
 10
10.1153806187
 20
6.9667479173
 30
0.0
 10
10.1249353049
 20
6.9496693448
 30
0.0
 10
10.1352751763
 20
6.9330193414
 30
0.0
 10
10.1463758713
 20
6.9168370976
 30
0.0
 10
10.1582112451
 20
6.9011607055
 30
0.0
 10
10.1707534294
 20
6.8860270696
 30
0.0
 10
10.1839729006
 20
6.8714718246
 30
0.0
 10
10.1978385316
 20
6.8575292367
 30
0.0
 10
10.2123176708
 20
6.8442321246
 30
0.0
 10
10.2273762307
 20
6.8316117947
 30
0.0
 10
10.2429787641
 20
6.8196979657
 30
0.0
 10
10.2590885473
 20
6.808518701
 30
0.0
 10
10.2756676636
 20
6.7981003418
 30
0.0
 10
10.2926770792
 20
6.7884674221
 30
0.0
 10
10.310076752
 20
6.7796426349
 30
0.0
 10
10.3278257229
 20
6.7716467767
 30
0.0
 10
10.345882212
 20
6.7644987016
 30
0.0
 10
10.3642037077
 20
6.7582152841
 30
0.0
 10
10.3827470997
 20
6.7528113269
 30
0.0
 10
10.4014686274
 20
6.7482996469
 30
0.0
 10
10.4203244981
 20
6.7446907503
 30
0.0
 10
10.4392695627
 20
6.7419934204
 30
0.0
 10
10.4519519449
 20
6.7408049673
 30
0.0
 10
10.4582921859
 20
6.7403652701
 30
0.0
  0
SPLINE
  5
2E7
100
AcDbEntity
  8
0
100
AcDbSpline
 62
7
  6
CONTINUOUS
 70
0
 71
3
 72
69
 73
65
 74
0
 42
0.0000001
 43
0.0000001
 44
0.0000000001
 40
0.0
 40
0.0
 40
0.0
 40
0.0
 40
0.0155373153
 40
0.0310238705
 40
0.0464606632
 40
0.0618492866
 40
0.0771918531
 40
0.0924908676
 40
0.1077492755
 40
0.1229704147
 40
0.1381579911
 40
0.1533160439
 40
0.1684489064
 40
0.1835611638
 40
0.1986576094
 40
0.2137431973
 40
0.2288229919
 40
0.2439021162
 40
0.2589856992
 40
0.2740788247
 40
0.2891864802
 40
0.3043135067
 40
0.319464549
 40
0.3346440101
 40
0.3498560086
 40
0.3651043408
 40
0.380392445
 40
0.3957233701
 40
0.4110997477
 40
0.4265237721
 40
0.4419971843
 40
0.4575212589
 40
0.4730967966
 40
0.4887241197
 40
0.5044030759
 40
0.5201330453
 40
0.5359129493
 40
0.5517412642
 40
0.5676160372
 40
0.5835349104
 40
0.599495144
 40
0.6154936422
 40
0.6315269814
 40
0.6475914415
 40
0.6797894279
 40
0.712061434
 40
0.7282177695
 40
0.744378659
 40
0.7605393173
 40
0.7766949601
 40
0.7928408439
 40
0.8089723068
 40
0.8250848076
 40
0.8411739625
 40
0.8572355818
 40
0.8732657074
 40
0.8892606465
 40
0.9052170103
 40
0.9211317295
 40
0.9370020978
 40
0.9528258493
 40
0.9686008336
 40
0.9843262266
 40
1.0
 40
1.0
 40
1.0
 40
1.0
 10
10.4582867304
 20
7.522650465
 30
0.0
 10
10.4525280431
 20
7.5225963516
 30
0.0
 10
10.4410301154
 20
7.5222118275
 30
0.0
 10
10.423860651
 20
7.5208024206
 30
0.0
 10
10.4068345194
 20
7.5185644889
 30
0.0
 10
10.3899913031
 20
7.5155031358
 30
0.0
 10
10.3733694527
 20
7.5116253568
 30
0.0
 10
10.3570070911
 20
7.5069399808
 30
0.0
 10
10.3409417195
 20
7.5014576973
 30
0.0
 10
10.3252101645
 20
7.495191045
 30
0.0
 10
10.3098484857
 20
7.488154369
 30
0.0
 10
10.2948919029
 20
7.480363772
 30
0.0
 10
10.2803747142
 20
7.4718370826
 30
0.0
 10
10.2663302205
 20
7.4625938133
 30
0.0
 10
10.2527906212
 20
7.4526551548
 30
0.0
 10
10.2397869588
 20
7.4420438901
 30
0.0
 10
10.2273490514
 20
7.4307843407
 30
0.0
 10
10.2155054249
 20
7.4189023117
 30
0.0
 10
10.2042832445
 20
7.4064250378
 30
0.0
 10
10.1937082213
 20
7.3933811447
 30
0.0
 10
10.1838045859
 20
7.3798005484
 30
0.0
 10
10.17459503
 20
7.3657143909
 30
0.0
 10
10.1661006609
 20
7.3511549669
 30
0.0
 10
10.1583409369
 20
7.3361556603
 30
0.0
 10
10.1513336025
 20
7.3207508733
 30
0.0
 10
10.1450946854
 20
7.3049759253
 30
0.0
 10
10.1396384535
 20
7.2888669772
 30
0.0
 10
10.1349773922
 20
7.2724609471
 30
0.0
 10
10.1311221456
 20
7.255795436
 30
0.0
 10
10.1280814917
 20
7.2389086368
 30
0.0
 10
10.1258623548
 20
7.2218392382
 30
0.0
 10
10.1244697828
 20
7.20462634
 30
0.0
 10
10.1239069451
 20
7.1873093657
 30
0.0
 10
10.1241750847
 20
7.1699279746
 30
0.0
 10
10.125273536
 20
7.1525219662
 30
0.0
 10
10.1271997472
 20
7.13513119
 30
0.0
 10
10.12994928
 20
7.1177954563
 30
0.0
 10
10.1335158255
 20
7.1005544505
 30
0.0
 10
10.1378911763
 20
7.08344763
 30
0.0
 10
10.1430652751
 20
7.0665141489
 30
0.0
 10
10.1490262702
 20
7.0497927311
 30
0.0
 10
10.1557604431
 20
7.0333217372
 30
0.0
 10
10.1632526039
 20
7.0171385059
 30
0.0
 10
10.1742361423
 20
6.9959814581
 30
0.0
 10
10.1897726534
 20
6.9704427994
 30
0.0
 10
10.207554643
 20
6.9463717472
 30
0.0
 10
10.2230410033
 20
6.9281064567
 30
0.0
 10
10.2352656132
 20
6.914928903
 30
0.0
 10
10.248065803
 20
6.9023105518
 30
0.0
 10
10.2614125433
 20
6.8902799369
 30
0.0
 10
10.2752752288
 20
6.8788646891
 30
0.0
 10
10.2896221475
 20
6.8680908972
 30
0.0
 10
10.3044204686
 20
6.8579832272
 30
0.0
 10
10.3196363378
 20
6.8485648195
 30
0.0
 10
10.3352349505
 20
6.8398572563
 30
0.0
 10
10.3511806133
 20
6.8318804769
 30
0.0
 10
10.3674368355
 20
6.8246527395
 30
0.0
 10
10.3839664223
 20
6.8181906072
 30
0.0
 10
10.4007315476
 20
6.8125088972
 30
0.0
 10
10.4176938769
 20
6.8076206424
 30
0.0
 10
10.4348144912
 20
6.8035371114
 30
0.0
 10
10.4520544939
 20
6.8002675186
 30
0.0
 10
10.4693737258
 20
6.7978196348
 30
0.0
 10
10.4809666574
 20
6.7967372719
 30
0.0
 10
10.4867622573
 20
6.7963353457
 30
0.0
  0
SPLINE
  5
2E8
100
AcDbEntity
  8
0
100
AcDbSpline
 62
7
  6
CONTINUOUS
 70
0
 71
3
 72
39
 73
35
 74
0
 42
0.0000001
 43
0.0000001
 44
0.0000000001
 40
0.0
 40
0.0
 40
0.0
 40
0.0
 40
0.0299393049
 40
0.0599022804
 40
0.0899120371
 40
0.1199905832
 40
0.1501583152
 40
0.180433557
 40
0.2108321574
 40
0.2413671588
 40
0.2720485413
 40
0.302883044
 40
0.333874065
 40
0.3650216373
 40
0.3963224782
 40
0.4277701076
 40
0.4593550264
 40
0.4910649489
 40
0.5228850817
 40
0.5547984441
 40
0.5867862233
 40
0.6188281554
 40
0.650902926
 40
0.6829885863
 40
0.7150629768
 40
0.747104156
 40
0.7790908244
 40
0.8110027393
 40
0.8428211159
 40
0.8745290106
 40
0.906111654
 40
0.9375568948
 40
0.9688549538
 40
1.0
 40
1.0
 40
1.0
 40
1.0
 10
10.2549752736
 20
7.4148394518
 30
0.0
 10
10.2493354017
 20
7.4093917472
 30
0.0
 10
10.2384735994
 20
7.398044748
 30
0.0
 10
10.2235562611
 20
7.3797942389
 30
0.0
 10
10.2100868442
 20
7.3604043452
 30
0.0
 10
10.1981387013
 20
7.3399802491
 30
0.0
 10
10.1877752516
 20
7.318630987
 30
0.0
 10
10.1790518502
 20
7.2964709637
 30
0.0
 10
10.1720148787
 20
7.2736187667
 30
0.0
 10
10.1667016902
 20
7.2501966591
 30
0.0
 10
10.1631403901
 20
7.2263298744
 30
0.0
 10
10.1613497117
 20
7.2021459555
 30
0.0
 10
10.1613389343
 20
7.1777740717
 30
0.0
 10
10.1631078294
 20
7.153344334
 30
0.0
 10
10.1666466703
 20
7.1289871009
 30
0.0
 10
10.1719363206
 20
7.1048322915
 30
0.0
 10
10.1789483389
 20
7.0810087019
 30
0.0
 10
10.1876451383
 20
7.0576433303
 30
0.0
 10
10.1979801866
 20
7.0348607099
 30
0.0
 10
10.2098982314
 20
7.012782241
 30
0.0
 10
10.223335626
 20
6.9915255632
 30
0.0
 10
10.2382206641
 20
6.9712039374
 30
0.0
 10
10.2544739589
 20
6.9519256495
 30
0.0
 10
10.2720088648
 20
6.9337934453
 30
0.0
 10
10.2907319141
 20
6.9169039675
 30
0.0
 10
10.3105433247
 20
6.9013472546
 30
0.0
 10
10.3313375327
 20
6.887206275
 30
0.0
 10
10.3530037488
 20
6.8745564857
 30
0.0
 10
10.375426528
 20
6.8634654371
 30
0.0
 10
10.3984864204
 20
6.8539924068
 30
0.0
 10
10.4220604156
 20
6.8461880466
 30
0.0
 10
10.4460232631
 20
6.8400942043
 30
0.0
 10
10.4702455564
 20
6.835743614
 30
0.0
 10
10.486525331
 20
6.8340165326
 30
0.0
 10
10.4946628546
 20
6.8334521934
 30
0.0
  0
SPLINE
  5
2E9
100
AcDbEntity
  8
0
100
AcDbSpline
 62
7
  6
CONTINUOUS
 70
0
 71
3
 72
42
 73
38
 74
0
 42
0.0000001
 43
0.0000001
 44
0.0000000001
 40
0.0
 40
0.0
 40
0.0
 40
0.0
 40
0.030003995
 40
0.045042776
 40
0.0601067404
 40
0.0903116538
 40
0.1206327536
 40
0.1358414339
 40
0.1510819549
 40
0.1816571008
 40
0.2123658909
 40
0.2432098494
 40
0.2741883284
 40
0.305298547
 40
0.3365356612
 40
0.3678928641
 40
0.3993615132
 40
0.4309312804
 40
0.4625903231
 40
0.4943254739
 40
0.5261224437
 40
0.5579660388
 40
0.5898403861
 40
0.621729166
 40
0.6536158499
 40
0.6854839396
 40
0.7173172063
 40
0.7490999271
 40
0.7808171162
 40
0.8124547491
 40
0.8439999734
 40
0.8754413178
 40
0.9067688503
 40
0.9379744237
 40
0.9535310663
 40
0.9690553707
 40
1.0
 40
1.0
 40
1.0
 40
1.0
 10
10.3376831237
 20
7.4715615849
 30
0.0
 10
10.3345810721
 20
7.4654521076
 30
0.0
 10
10.3302299529
 20
7.4561203562
 30
0.0
 10
10.3250563001
 20
7.4434044488
 30
0.0
 10
10.3202909571
 20
7.4304804605
 30
0.0
 10
10.3151259651
 20
7.4139952092
 30
0.0
 10
10.3110457091
 20
7.3971747214
 30
0.0
 10
10.3084352468
 20
7.3835424124
 30
0.0
 10
10.306258852
 20
7.3697753867
 30
0.0
 10
10.3043682727
 20
7.3523891761
 30
0.0
 10
10.3034359337
 20
7.3313570496
 30
0.0
 10
10.3038407134
 20
7.3102157866
 30
0.0
 10
10.3055809462
 20
7.2890506981
 30
0.0
 10
10.3086494979
 20
7.2679464665
 30
0.0
 10
10.313033954
 20
7.2469876971
 30
0.0
 10
10.3187166303
 20
7.2262583429
 30
0.0
 10
10.3256746576
 20
7.2058414362
 30
0.0
 10
10.3338800716
 20
7.185818742
 30
0.0
 10
10.3432999272
 20
7.1662704383
 30
0.0
 10
10.3538964302
 20
7.1472747974
 30
0.0
 10
10.365627089
 20
7.1289078754
 30
0.0
 10
10.378444884
 20
7.1112432107
 30
0.0
 10
10.3922984553
 20
7.0943515318
 30
0.0
 10
10.407132307
 20
7.0783004768
 30
0.0
 10
10.4228870283
 20
7.0631543246
 30
0.0
 10
10.4394995294
 20
7.0489737391
 30
0.0
 10
10.4569032923
 20
7.0358155285
 30
0.0
 10
10.4750286359
 20
7.0237324187
 30
0.0
 10
10.4938029885
 20
7.0127728438
 30
0.0
 10
10.5131511914
 20
7.0029807518
 30
0.0
 10
10.5329957395
 20
6.994395435
 30
0.0
 10
10.5532573012
 20
6.9870513456
 30
0.0
 10
10.5738542443
 20
6.9809780709
 30
0.0
 10
10.5912486964
 20
6.976991998
 30
0.0
 10
10.6052482308
 20
6.9744626071
 30
0.0
 10
10.6192602529
 20
6.9723786403
 30
0.0
 10
10.6298274101
 20
6.9713095941
 30
0.0
 10
10.6368771796
 20
6.970820691
 30
0.0
  0
SPLINE
  5
2EA
100
AcDbEntity
  8
0
100
AcDbSpline
 62
7
  6
CONTINUOUS
 70
0
 71
3
 72
38
 73
34
 74
0
 42
0.0000001
 43
0.0000001
 44
0.0000000001
 40
0.0
 40
0.0
 40
0.0
 40
0.0
 40
0.0290557902
 40
0.0582090686
 40
0.0874797953
 40
0.1168862942
 40
0.1464450094
 40
0.1761703419
 40
0.2060745266
 40
0.2361675101
 40
0.2664568956
 40
0.2969479116
 40
0.3276433597
 40
0.3585436712
 40
0.3896468689
 40
0.4209486629
 40
0.4524424298
 40
0.4841192348
 40
0.51596787
 40
0.5479749031
 40
0.580124685
 40
0.6123992869
 40
0.6447785027
 40
0.6772398656
 40
0.7097586789
 40
0.7423080181
 40
0.7748588132
 40
0.807380086
 40
0.8721814862
 40
0.9044146986
 40
0.9364835752
 40
0.9683558063
 40
1.0
 40
1.0
 40
1.0
 40
1.0
 10
10.4394018641
 20
7.4990279544
 30
0.0
 10
10.4380493693
 20
7.4948178335
 30
0.0
 10
10.4356193906
 20
7.4862907603
 30
0.0
 10
10.4328208086
 20
7.4732652546
 30
0.0
 10
10.4308726761
 20
7.4600312541
 30
0.0
 10
10.4297822975
 20
7.4466375301
 30
0.0
 10
10.4295535616
 20
7.433132345
 30
0.0
 10
10.4301873196
 20
7.4195644371
 30
0.0
 10
10.4316812835
 20
7.4059825008
 30
0.0
 10
10.4340300724
 20
7.3924350731
 30
0.0
 10
10.4372252366
 20
7.3789703131
 30
0.0
 10
10.4412552974
 20
7.3656358168
 30
0.0
 10
10.4461058052
 20
7.3524784247
 30
0.0
 10
10.4517593956
 20
7.339544045
 30
0.0
 10
10.4581958657
 20
7.3268774701
 30
0.0
 10
10.4653922585
 20
7.314522221
 30
0.0
 10
10.4733229461
 20
7.3025203917
 30
0.0
 10
10.4819597212
 20
7.2909125174
 30
0.0
 10
10.4912718916
 20
7.2797374404
 30
0.0
 10
10.5012263851
 20
7.2690321978
 30
0.0
 10
10.5117878406
 20
7.2588319261
 30
0.0
 10
10.5229187004
 20
7.2491697927
 30
0.0
 10
10.5345793041
 20
7.2400769317
 30
0.0
 10
10.5467279655
 20
7.231582397
 30
0.0
 10
10.5593211473
 20
7.2237131033
 30
0.0
 10
10.572313266
 20
7.2164939104
 30
0.0
 10
10.5856579015
 20
7.2099472387
 30
0.0
 10
10.6038289492
 20
7.2021536043
 30
0.0
 10
10.6225275668
 20
7.195769882
 30
0.0
 10
10.64156078
 20
7.1908657456
 30
0.0
 10
10.6559107662
 20
7.1879464969
 30
0.0
 10
10.6703035738
 20
7.1857904038
 30
0.0
 10
10.6799310092
 20
7.1848627194
 30
0.0
 10
10.6847354328
 20
7.1845295315
 30
0.0
  0
SPLINE
  5
2EB
100
AcDbEntity
  8
0
100
AcDbSpline
 62
7
  6
CONTINUOUS
 70
0
 71
3
 72
43
 73
39
 74
0
 42
0.0000001
 43
0.0000001
 44
0.0000000001
 40
0.0
 40
0.0
 40
0.0
 40
0.0
 40
0.0149644007
 40
0.0299456063
 40
0.0449457431
 40
0.0599668472
 40
0.0900749413
 40
0.1202886573
 40
0.1354412551
 40
0.1506246036
 40
0.1658398648
 40
0.1810880512
 40
0.2116820634
 40
0.2424161107
 40
0.2732926488
 40
0.3043115817
 40
0.3354702991
 40
0.3667637565
 40
0.3981845928
 40
0.4297232841
 40
0.4613683262
 40
0.4931064482
 40
0.5249228472
 40
0.5568014416
 40
0.5887251399
 40
0.6206761216
 40
0.6526361275
 40
0.6845867532
 40
0.7165097451
 40
0.7483872941
 40
0.780202326
 40
0.8119387812
 40
0.8435818841
 40
0.875118396
 40
0.9065368402
 40
0.9378277968
 40
0.9689836868
 40
1.0
 40
1.0
 40
1.0
 40
1.0
 10
10.2140932473
 20
8.8815419137
 30
0.0
 10
10.2110622868
 20
8.8769670827
 30
0.0
 10
10.2051592002
 20
8.8677035911
 30
0.0
 10
10.1967983725
 20
8.8534951303
 30
0.0
 10
10.1889353626
 20
8.8389811439
 30
0.0
 10
10.179120616
 20
8.819230791
 30
0.0
 10
10.1681386908
 20
8.7938506508
 30
0.0
 10
10.1589416473
 20
8.7677199346
 30
0.0
 10
10.1526672489
 20
8.7464160518
 30
0.0
 10
10.148503478
 20
8.7302350983
 30
0.0
 10
10.1448915223
 20
8.7138862146
 30
0.0
 10
10.1408124988
 20
8.691866058
 30
0.0
 10
10.1371154837
 20
8.6640043886
 30
0.0
 10
10.1349420935
 20
8.6302358213
 30
0.0
 10
10.1350352698
 20
8.5962412221
 30
0.0
 10
10.1373945331
 20
8.5621729176
 30
0.0
 10
10.1420090469
 20
8.5281822026
 30
0.0
 10
10.1488580512
 20
8.4944203321
 30
0.0
 10
10.1579108601
 20
8.46103741
 30
0.0
 10
10.1691270305
 20
8.4281818537
 30
0.0
 10
10.1824564971
 20
8.3959996942
 30
0.0
 10
10.1978398409
 20
8.3646339527
 30
0.0
 10
10.2152085526
 20
8.3342240121
 30
0.0
 10
10.2344853389
 20
8.3049050087
 30
0.0
 10
10.2555844516
 20
8.2768072325
 30
0.0
 10
10.2784120469
 20
8.2500555349
 30
0.0
 10
10.3028666357
 20
8.224768803
 30
0.0
 10
10.3288395232
 20
8.2010594332
 30
0.0
 10
10.3562152922
 20
8.1790328436
 30
0.0
 10
10.384872291
 20
8.1587869859
 30
0.0
 10
10.4146831712
 20
8.1404119091
 30
0.0
 10
10.4455154713
 20
8.1239893872
 30
0.0
 10
10.477232175
 20
8.1095925518
 30
0.0
 10
10.5096923761
 20
8.0972855791
 30
0.0
 10
10.5427516674
 20
8.0871233468
 30
0.0
 10
10.5762635582
 20
8.0791512621
 30
0.0
 10
10.6100771417
 20
8.0734050269
 30
0.0
 10
10.6327769725
 20
8.0710697511
 30
0.0
 10
10.6441241067
 20
8.0702828247
 30
0.0
  0
SPLINE
  5
2EC
100
AcDbEntity
  8
0
100
AcDbSpline
 62
7
  6
CONTINUOUS
 70
0
 71
3
 72
41
 73
37
 74
0
 42
0.0000001
 43
0.0000001
 44
0.0000000001
 40
0.0
 40
0.0
 40
0.0
 40
0.0
 40
0.0154713419
 40
0.0302996205
 40
0.0376004098
 40
0.0448837617
 40
0.0595607174
 40
0.0746632524
 40
0.0904559248
 40
0.0986823004
 40
0.1071552696
 40
0.1249092357
 40
0.1438462318
 40
0.1640595758
 40
0.185619964
 40
0.2085850979
 40
0.2330014456
 40
0.2589112507
 40
0.2863523341
 40
0.3153625656
 40
0.34597935
 40
0.3782413384
 40
0.4121882462
 40
0.4478600396
 40
0.4852957902
 40
0.5245300821
 40
0.5655890551
 40
0.6084818584
 40
0.6531891997
 40
0.699647387
 40
0.7477258372
 40
0.797199784
 40
0.8477214431
 40
0.8988002913
 40
0.9498034103
 40
1.0
 40
1.0
 40
1.0
 40
1.0
 10
10.540995216
 20
8.0162029317
 30
0.0
 10
10.5408200017
 20
8.0166868427
 30
0.0
 10
10.5405488536
 20
8.0176629304
 30
0.0
 10
10.5404199692
 20
8.0189133816
 30
0.0
 10
10.5404451864
 20
8.0198925071
 30
0.0
 10
10.5405517367
 20
8.0208610378
 30
0.0
 10
10.5408387384
 20
8.022066023
 30
0.0
 10
10.5414141931
 20
8.0234741089
 30
0.0
 10
10.542069663
 20
8.0246028864
 30
0.0
 10
10.5426943875
 20
8.025485457
 30
0.0
 10
10.5434088042
 20
8.0263823554
 30
0.0
 10
10.5444380658
 20
8.02748048
 30
0.0
 10
10.5458546186
 20
8.0287393384
 30
0.0
 10
10.5474669826
 20
8.0299584903
 30
0.0
 10
10.5492712278
 20
8.0311369572
 30
0.0
 10
10.5512644946
 20
8.0322736088
 30
0.0
 10
10.5534445169
 20
8.0333674536
 30
0.0
 10
10.5558098287
 20
8.034417205
 30
0.0
 10
10.5583595901
 20
8.0354216854
 30
0.0
 10
10.5610936597
 20
8.0363794387
 30
0.0
 10
10.5640125063
 20
8.0372889273
 30
0.0
 10
10.5671171587
 20
8.0381483858
 30
0.0
 10
10.5704091371
 20
8.0389557026
 30
0.0
 10
10.5738902582
 20
8.039708524
 30
0.0
 10
10.5775624384
 20
8.0404039521
 30
0.0
 10
10.5814273065
 20
8.0410386168
 30
0.0
 10
10.5854856314
 20
8.0416085269
 30
0.0
 10
10.589736477
 20
8.0421089294
 30
0.0
 10
10.5941759451
 20
8.0425342872
 30
0.0
 10
10.5987954594
 20
8.0428782462
 30
0.0
 10
10.6035795134
 20
8.0431337301
 30
0.0
 10
10.6085029877
 20
8.0432932326
 30
0.0
 10
10.6135285579
 20
8.0433494074
 30
0.0
 10
10.618605065
 20
8.0432959469
 30
0.0
 10
10.6236682807
 20
8.0431287552
 30
0.0
 10
10.6270297062
 20
8.0429384186
 30
0.0
 10
10.6286954979
 20
8.0428228956
 30
0.0
  0
SPLINE
  5
2ED
100
AcDbEntity
  8
0
100
AcDbSpline
 62
7
  6
CONTINUOUS
 70
0
 71
3
 72
15
 73
11
 74
0
 42
0.0000001
 43
0.0000001
 44
0.0000000001
 40
0.0
 40
0.0
 40
0.0
 40
0.0
 40
0.1233714566
 40
0.2471185799
 40
0.3712968156
 40
0.4959536857
 40
0.6211278339
 40
0.7468490431
 40
0.8731359936
 40
1.0
 40
1.0
 40
1.0
 40
1.0
 10
10.800278165
 20
7.0125999222
 30
0.0
 10
10.7941245099
 20
7.0094592217
 30
0.0
 10
10.7815748247
 20
7.0035959768
 30
0.0
 10
10.7621583186
 20
6.9961136822
 30
0.0
 10
10.7422039054
 20
6.9899619678
 30
0.0
 10
10.7217989138
 20
6.9851678612
 30
0.0
 10
10.7010311829
 20
6.9817516995
 30
0.0
 10
10.6799901365
 20
6.9797281609
 30
0.0
 10
10.6587676448
 20
6.9791056473
 30
0.0
 10
10.6445886888
 20
6.9796253993
 30
0.0
 10
10.6375013323
 20
6.9801169091
 30
0.0
  0
SPLINE
  5
2EE
100
AcDbEntity
  8
0
100
AcDbSpline
 62
7
  6
CONTINUOUS
 70
0
 71
3
 72
15
 73
11
 74
0
 42
0.0000001
 43
0.0000001
 44
0.0000000001
 40
0.0
 40
0.0
 40
0.0
 40
0.0
 40
0.1234783293
 40
0.2473288052
 40
0.3715905372
 40
0.4962966086
 40
0.621474016
 40
0.7471423837
 40
0.8733161532
 40
1.0
 40
1.0
 40
1.0
 40
1.0
 10
10.8060572532
 20
7.0265330798
 30
0.0
 10
10.80041861
 20
7.0240867356
 30
0.0
 10
10.7889704324
 20
7.0195331146
 30
0.0
 10
10.7713873791
 20
7.013756128
 30
0.0
 10
10.7534264178
 20
7.009041311
 30
0.0
 10
10.7351494168
 20
7.0054049566
 30
0.0
 10
10.716618329
 20
7.0028592501
 30
0.0
 10
10.6978959092
 20
7.0014127431
 30
0.0
 10
10.6790465974
 20
7.0010702502
 30
0.0
 10
10.6664617754
 20
7.0015777248
 30
0.0
 10
10.6601708682
 20
7.0020140007
 30
0.0
  0
SPLINE
  5
2EF
100
AcDbEntity
  8
0
100
AcDbSpline
 62
7
  6
CONTINUOUS
 70
0
 71
3
 72
42
 73
38
 74
0
 42
0.0000001
 43
0.0000001
 44
0.0000000001
 40
0.0
 40
0.0
 40
0.0
 40
0.0
 40
0.0300235613
 40
0.0450733734
 40
0.060149092
 40
0.0903793211
 40
0.1207272421
 40
0.1359495619
 40
0.1512037774
 40
0.1818061663
 40
0.2125412269
 40
0.2434097919
 40
0.2744106085
 40
0.3055403842
 40
0.3367938625
 40
0.3681639256
 40
0.3996417205
 40
0.4312168083
 40
0.4628773307
 40
0.494610194
 40
0.5264012658
 40
0.5582355827
 40
0.5900975669
 40
0.621971249
 40
0.653840494
 40
0.6856892296
 40
0.7175016739
 40
0.7492625595
 40
0.7809573533
 40
0.8125724691
 40
0.8440954674
 40
0.8755152515
 40
0.9068222251
 40
0.9380084981
 40
0.9535559951
 40
0.9690715676
 40
1.0
 40
1.0
 40
1.0
 40
1.0
 10
10.3653726394
 20
7.4827570241
 30
0.0
 10
10.3625375409
 20
7.4767967556
 30
0.0
 10
10.3585755592
 20
7.4677044065
 30
0.0
 10
10.3538949149
 20
7.455335977
 30
0.0
 10
10.3496060706
 20
7.4427777269
 30
0.0
 10
10.3450033462
 20
7.4267831364
 30
0.0
 10
10.3414371343
 20
7.4104931939
 30
0.0
 10
10.3392079785
 20
7.3973070242
 30
0.0
 10
10.3373934338
 20
7.3840009919
 30
0.0
 10
10.3359162416
 20
7.3672161641
 30
0.0
 10
10.335415042
 20
7.3469393512
 30
0.0
 10
10.3361848539
 20
7.3265830737
 30
0.0
 10
10.3382226266
 20
7.3062274959
 30
0.0
 10
10.3415202453
 20
7.285952103
 30
0.0
 10
10.3460647068
 20
7.2658362243
 30
0.0
 10
10.3518381353
 20
7.2459585013
 30
0.0
 10
10.3588178642
 20
7.2263966443
 30
0.0
 10
10.3669765234
 20
7.2072271148
 30
0.0
 10
10.3762821478
 20
7.1885248342
 30
0.0
 10
10.3866983021
 20
7.1703628927
 30
0.0
 10
10.3981842236
 20
7.1528122664
 30
0.0
 10
10.4106949806
 20
7.1359415422
 30
0.0
 10
10.4241816475
 20
7.1198166524
 30
0.0
 10
10.4385914948
 20
7.104500619
 30
0.0
 10
10.4538681939
 20
7.0900533089
 30
0.0
 10
10.4699520357
 20
7.076531202
 30
0.0
 10
10.4867801624
 20
7.0639871719
 30
0.0
 10
10.5042868117
 20
7.05247028
 30
0.0
 10
10.522403568
 20
7.0420255858
 30
0.0
 10
10.5410596421
 20
7.0326939691
 30
0.0
 10
10.5601820909
 20
7.0245119782
 30
0.0
 10
10.5796963007
 20
7.017511658
 30
0.0
 10
10.599525532
 20
7.0117205388
 30
0.0
 10
10.616266442
 20
7.0079170825
 30
0.0
 10
10.6297380216
 20
7.0055013372
 30
0.0
 10
10.643220967
 20
7.0035090389
 30
0.0
 10
10.6533880424
 20
7.0024843912
 30
0.0
 10
10.6601708682
 20
7.0020140007
 30
0.0
  0
SPLINE
  5
2F0
100
AcDbEntity
  8
0
100
AcDbSpline
 62
7
  6
CONTINUOUS
 70
0
 71
3
 72
27
 73
23
 74
0
 42
0.0000001
 43
0.0000001
 44
0.0000000001
 40
0.0
 40
0.0
 40
0.0
 40
0.0
 40
0.0155706982
 40
0.0302589016
 40
0.0444502348
 40
0.0583963724
 40
0.0860511734
 40
0.1138240432
 40
0.1418846438
 40
0.1702810938
 40
0.1990200239
 40
0.2280932309
 40
0.2871813194
 40
0.3474476045
 40
0.4087945489
 40
0.4711423638
 40
0.5344261978
 40
0.5985925205
 40
0.6635964594
 40
0.7293998846
 40
0.8632721679
 40
1.0
 40
1.0
 40
1.0
 40
1.0
 10
11.9433253636
 20
8.1994379728
 30
0.0
 10
11.9434744273
 20
8.1994090908
 30
0.0
 10
11.9437715311
 20
8.1993859656
 30
0.0
 10
11.9442036539
 20
8.199442479
 30
0.0
 10
11.9446044397
 20
8.1995652961
 30
0.0
 10
11.9451000176
 20
8.1997926403
 30
0.0
 10
11.9456666062
 20
8.2001691384
 30
0.0
 10
11.94627783
 20
8.2007091261
 30
0.0
 10
11.9468385578
 20
8.2013106643
 30
0.0
 10
11.947359887
 20
8.2019581936
 30
0.0
 10
11.9478494344
 20
8.2026420461
 30
0.0
 10
11.9484700091
 20
8.2035986239
 30
0.0
 10
11.9491880784
 20
8.2048566441
 30
0.0
 10
11.9499763679
 20
8.2064332535
 30
0.0
 10
11.9507088286
 20
8.2080712871
 30
0.0
 10
11.9513942475
 20
8.2097611822
 30
0.0
 10
11.9520387781
 20
8.2114963725
 30
0.0
 10
11.9526468836
 20
8.2132720038
 30
0.0
 10
11.9532218549
 20
8.2150844018
 30
0.0
 10
11.9539516143
 20
8.2175602365
 30
0.0
 10
11.9547896683
 20
8.2207325366
 30
0.0
 10
11.9553787901
 20
8.2233051736
 30
0.0
 10
11.9556563713
 20
8.2246092447
 30
0.0
  0
SPLINE
  5
2F1
100
AcDbEntity
  8
0
100
AcDbSpline
 62
7
  6
CONTINUOUS
 70
0
 71
3
 72
12
 73
8
 74
0
 42
0.0000001
 43
0.0000001
 44
0.0000000001
 40
0.0
 40
0.0
 40
0.0
 40
0.0
 40
0.2497221917
 40
0.4999030249
 40
0.6250425911
 40
0.7501485956
 40
1.0
 40
1.0
 40
1.0
 40
1.0
 10
11.895382934
 20
8.2099848676
 30
0.0
 10
11.8993636136
 20
8.2090613504
 30
0.0
 10
11.9073324822
 20
8.2072134809
 30
0.0
 10
11.9173051463
 20
8.2049417358
 30
0.0
 10
11.9253006764
 20
8.2031725875
 30
0.0
 10
11.9333001226
 20
8.2014468141
 30
0.0
 10
11.9393114944
 20
8.2002156826
 30
0.0
 10
11.9433253636
 20
8.1994379728
 30
0.0
  0
SPLINE
  5
2F2
100
AcDbEntity
  8
0
100
AcDbSpline
 62
7
  6
CONTINUOUS
 70
0
 71
3
 72
26
 73
22
 74
0
 42
0.0000001
 43
0.0000001
 44
0.0000000001
 40
0.0
 40
0.0
 40
0.0
 40
0.0
 40
0.0194176483
 40
0.0389461723
 40
0.0586943832
 40
0.0787672628
 40
0.0992642214
 40
0.1202780653
 40
0.1641698442
 40
0.2110562325
 40
0.2614050458
 40
0.3155756377
 40
0.3738357002
 40
0.4363778399
 40
0.5033342534
 40
0.5747882866
 40
0.6507832242
 40
0.7313296807
 40
0.8164111351
 40
0.9059878103
 40
1.0
 40
1.0
 40
1.0
 40
1.0
 10
11.9635828262
 20
8.9057127919
 30
0.0
 10
11.9643962252
 20
8.9056563796
 30
0.0
 10
11.9660239407
 20
8.9054791592
 30
0.0
 10
11.9684481339
 20
8.90502195
 30
0.0
 10
11.970856866
 20
8.9043733748
 30
0.0
 10
11.9732488183
 20
8.903533818
 30
0.0
 10
11.9756231203
 20
8.90250381
 30
0.0
 10
11.9788097067
 20
8.9008537415
 30
0.0
 10
11.9827558619
 20
8.8982873607
 30
0.0
 10
11.9873296476
 20
8.894502497
 30
0.0
 10
11.9918070511
 20
8.8899760899
 30
0.0
 10
11.9961831536
 20
8.8847160959
 30
0.0
 10
12.0004535755
 20
8.8787302949
 30
0.0
 10
12.0046131813
 20
8.8720273281
 30
0.0
 10
12.0086565672
 20
8.8646167609
 30
0.0
 10
12.0125781122
 20
8.8565092777
 30
0.0
 10
12.0163721893
 20
8.8477167263
 30
0.0
 10
12.0200331921
 20
8.8382520918
 30
0.0
 10
12.0235556118
 20
8.8281294351
 30
0.0
 10
12.0269340796
 20
8.8173640205
 30
0.0
 10
12.0290368405
 20
8.8099462917
 30
0.0
 10
12.0300662891
 20
8.8061352837
 30
0.0
  0
SPLINE
  5
2F3
100
AcDbEntity
  8
0
100
AcDbSpline
 62
7
  6
CONTINUOUS
 70
0
 71
3
 72
20
 73
16
 74
0
 42
0.0000001
 43
0.0000001
 44
0.0000000001
 40
0.0
 40
0.0
 40
0.0
 40
0.0
 40
0.1536338072
 40
0.2991476013
 40
0.4364408447
 40
0.5019892594
 40
0.5654670483
 40
0.6268760134
 40
0.6862224841
 40
0.7435171655
 40
0.7987759653
 40
0.8520220282
 40
0.9032843501
 40
0.9525969561
 40
1.0
 40
1.0
 40
1.0
 40
1.0
 10
11.9724042699
 20
7.9938705933
 30
0.0
 10
11.9707108273
 20
7.9899842036
 30
0.0
 10
11.9673077257
 20
7.9824621547
 30
0.0
 10
11.9619969827
 20
7.9716510892
 30
0.0
 10
11.957454152
 20
7.9631769952
 30
0.0
 10
11.9537857615
 20
7.9568088388
 30
0.0
 10
11.951065733
 20
7.9523122923
 30
0.0
 10
11.94833562
 20
7.9480233688
 30
0.0
 10
11.94559666
 20
7.9439439973
 30
0.0
 10
11.9428501103
 20
7.9400760184
 30
0.0
 10
11.9400971481
 20
7.9364211798
 30
0.0
 10
11.9373390077
 20
7.9329810701
 30
0.0
 10
11.9345768411
 20
7.9297572442
 30
0.0
 10
11.9318120371
 20
7.9267512951
 30
0.0
 10
11.9299313593
 20
7.9248566554
 30
0.0
 10
11.9289905588
 20
7.9239479119
 30
0.0
  0
SPLINE
  5
2F4
100
AcDbEntity
  8
0
100
AcDbSpline
 62
7
  6
CONTINUOUS
 70
0
 71
3
 72
23
 73
19
 74
0
 42
0.0000001
 43
0.0000001
 44
0.0000000001
 40
0.0
 40
0.0
 40
0.0
 40
0.0
 40
0.0394239074
 40
0.0818228784
 40
0.1273024194
 40
0.1759301254
 40
0.2277435027
 40
0.2827550939
 40
0.3409566116
 40
0.4023227972
 40
0.466813401
 40
0.5343751784
 40
0.6049440673
 40
0.6784460421
 40
0.7547970004
 40
0.8339058729
 40
0.9156786399
 40
1.0
 40
1.0
 40
1.0
 40
1.0
 10
11.8461810552
 20
8.1037307466
 30
0.0
 10
11.8473168061
 20
8.1047915659
 30
0.0
 10
11.8495844783
 20
8.1070902897
 30
0.0
 10
11.8528597142
 20
8.1108965017
 30
0.0
 10
11.85612485
 20
8.1151773494
 30
0.0
 10
11.8593749457
 20
8.11992611
 30
0.0
 10
11.8626052675
 20
8.1251357498
 30
0.0
 10
11.865810877
 20
8.1307983202
 30
0.0
 10
11.8689868582
 20
8.1369051291
 30
0.0
 10
11.8721282274
 20
8.1434467495
 30
0.0
 10
11.875230055
 20
8.1504130121
 30
0.0
 10
11.8782874664
 20
8.1577930395
 30
0.0
 10
11.8812956056
 20
8.1655753001
 30
0.0
 10
11.8842497069
 20
8.1737475657
 30
0.0
 10
11.8871451025
 20
8.1822969658
 30
0.0
 10
11.8899772263
 20
8.1912102077
 30
0.0
 10
11.8927414979
 20
8.2004730316
 30
0.0
 10
11.894509868
 20
8.2067775775
 30
0.0
 10
11.895382934
 20
8.2099848676
 30
0.0
  0
SPLINE
  5
2F5
100
AcDbEntity
  8
0
100
AcDbSpline
 62
7
  6
CONTINUOUS
 70
0
 71
3
 72
27
 73
23
 74
0
 42
0.0000001
 43
0.0000001
 44
0.0000000001
 40
0.0
 40
0.0
 40
0.0
 40
0.0
 40
0.1177124255
 40
0.2375816432
 40
0.3595305787
 40
0.4212726405
 40
0.4835225594
 40
0.5462830492
 40
0.6095617149
 40
0.6733727339
 40
0.7377389504
 40
0.7701429398
 40
0.8026997902
 40
0.8354144637
 40
0.8682892126
 40
0.9013157243
 40
0.9178794336
 40
0.9344603587
 40
0.9510348194
 40
0.967556183
 40
0.9839335331
 40
1.0
 40
1.0
 40
1.0
 40
1.0
 10
11.9556563713
 20
8.2246092447
 30
0.0
 10
11.9559394039
 20
8.2259389259
 30
0.0
 10
11.9564685863
 20
8.2286317917
 30
0.0
 10
11.9571436513
 20
8.232729414
 30
0.0
 10
11.9576019197
 20
8.2362059382
 30
0.0
 10
11.9578969888
 20
8.2390311069
 30
0.0
 10
11.9580786239
 20
8.2411804249
 30
0.0
 10
11.958214076
 20
8.2433509622
 30
0.0
 10
11.9582955954
 20
8.245542318
 30
0.0
 10
11.9583120998
 20
8.2477537543
 30
0.0
 10
11.9582581441
 20
8.2496081503
 30
0.0
 10
11.9581611466
 20
8.2510987624
 30
0.0
 10
11.9580558802
 20
8.252222083
 30
0.0
 10
11.9579113592
 20
8.2533466184
 30
0.0
 10
11.9577176021
 20
8.2544693418
 30
0.0
 10
11.9575029157
 20
8.2553980595
 30
0.0
 10
11.9572870081
 20
8.2561313778
 30
0.0
 10
11.9570981075
 20
8.2566739276
 30
0.0
 10
11.956876663
 20
8.2572036575
 30
0.0
 10
11.9566150746
 20
8.2577125516
 30
0.0
 10
11.9563044499
 20
8.2581865371
 30
0.0
 10
11.956053999
 20
8.2584683865
 30
0.0
 10
11.9559170838
 20
8.2585936227
 30
0.0
  0
SPLINE
  5
2F6
100
AcDbEntity
  8
0
100
AcDbSpline
 62
7
  6
CONTINUOUS
 70
0
 71
3
 72
21
 73
17
 74
0
 42
0.0000001
 43
0.0000001
 44
0.0000000001
 40
0.0
 40
0.0
 40
0.0
 40
0.0
 40
0.061604738
 40
0.123288335
 40
0.1850617439
 40
0.2469353722
 40
0.3089190064
 40
0.3710217687
 40
0.4332520686
 40
0.4956175404
 40
0.5581250269
 40
0.6207805093
 40
0.6835890779
 40
0.7465551575
 40
0.8729482246
 40
1.0
 40
1.0
 40
1.0
 40
1.0
 10
10.9313102579
 20
8.1391132191
 30
0.0
 10
10.9260588856
 20
8.1358891765
 30
0.0
 10
10.9154193668
 20
8.1296461047
 30
0.0
 10
10.8990895277
 20
8.1209187673
 30
0.0
 10
10.8824016467
 20
8.1128347141
 30
0.0
 10
10.8653794651
 20
8.1054055389
 30
0.0
 10
10.848046803
 20
8.0986416073
 30
0.0
 10
10.8304280412
 20
8.0925523739
 30
0.0
 10
10.8125478987
 20
8.0871464065
 30
0.0
 10
10.7944314856
 20
8.0824312973
 30
0.0
 10
10.7761042306
 20
8.0784136008
 30
0.0
 10
10.757591936
 20
8.0750989688
 30
0.0
 10
10.7389202892
 20
8.0724920577
 30
0.0
 10
10.713818878
 20
8.0699616244
 30
0.0
 10
10.6821675755
 20
8.068589998
 30
0.0
 10
10.6568021682
 20
8.0694035981
 30
0.0
 10
10.6441241067
 20
8.0702828247
 30
0.0
  0
SPLINE
  5
2F7
100
AcDbEntity
  8
0
100
AcDbSpline
 62
7
  6
CONTINUOUS
 70
0
 71
3
 72
12
 73
8
 74
0
 42
0.0000001
 43
0.0000001
 44
0.0000000001
 40
0.0
 40
0.0
 40
0.0
 40
0.0
 40
0.2509004487
 40
0.3760595829
 40
0.501064402
 40
0.7507072254
 40
1.0
 40
1.0
 40
1.0
 40
1.0
 10
11.9559170838
 20
8.2585936227
 30
0.0
 10
11.9524302284
 20
8.2617830479
 30
0.0
 10
11.9471715667
 20
8.2665280626
 30
0.0
 10
11.9401279312
 20
8.2728087807
 30
0.0
 10
11.9330861797
 20
8.2790560072
 30
0.0
 10
11.9242776833
 20
8.286834641
 30
0.0
 10
11.9172397386
 20
8.2930614246
 30
0.0
 10
11.9137303454
 20
8.2961806389
 30
0.0
  0
SPLINE
  5
2F8
100
AcDbEntity
  8
0
100
AcDbSpline
 62
7
  6
CONTINUOUS
 70
0
 71
3
 72
42
 73
38
 74
0
 42
0.0000001
 43
0.0000001
 44
0.0000000001
 40
0.0
 40
0.0
 40
0.0
 40
0.0
 40
0.0309673862
 40
0.0465039154
 40
0.0620734136
 40
0.093306083
 40
0.1246624557
 40
0.1561340228
 40
0.1877103683
 40
0.2193794828
 40
0.2511279222
 40
0.2829410348
 40
0.3148031889
 40
0.3466980136
 40
0.3786086476
 40
0.4105179925
 40
0.4424089692
 40
0.4742647739
 40
0.5060691311
 40
0.5378065413
 40
0.5694625199
 40
0.6010238258
 40
0.6324786748
 40
0.6638169363
 40
0.6950303098
 40
0.7261124771
 40
0.7570592281
 40
0.7878685564
 40
0.818540721
 40
0.849078273
 40
0.8643000648
 40
0.8794902053
 40
0.9097752478
 40
0.9399467515
 40
0.9549954944
 40
0.9700202049
 40
1.0
 40
1.0
 40
1.0
 40
1.0
 10
10.6375013323
 20
6.9801169091
 30
0.0
 10
10.6305190158
 20
6.9806011344
 30
0.0
 10
10.620053046
 20
6.9816656082
 30
0.0
 10
10.6061772809
 20
6.9837480467
 30
0.0
 10
10.5923148453
 20
6.9862790242
 30
0.0
 10
10.5750943073
 20
6.9902726671
 30
0.0
 10
10.5547123065
 20
6.9963630936
 30
0.0
 10
10.5346736914
 20
7.003731578
 30
0.0
 10
10.5150619434
 20
7.0123474299
 30
0.0
 10
10.4959581348
 20
7.0221748926
 30
0.0
 10
10.477441399
 20
7.0331731889
 30
0.0
 10
10.4595883887
 20
7.045296713
 30
0.0
 10
10.442473021
 20
7.058495214
 30
0.0
 10
10.4261661579
 20
7.0727140033
 30
0.0
 10
10.41073532
 20
7.0878941807
 30
0.0
 10
10.3962444078
 20
7.1039728754
 30
0.0
 10
10.3827534398
 20
7.1208835056
 30
0.0
 10
10.3703183052
 20
7.1385560511
 30
0.0
 10
10.3589905347
 20
7.1569173415
 30
0.0
 10
10.3488170865
 20
7.1758913556
 30
0.0
 10
10.3398401539
 20
7.195399534
 30
0.0
 10
10.3320969909
 20
7.2153611016
 30
0.0
 10
10.3256197578
 20
7.2356933981
 30
0.0
 10
10.320435388
 20
7.256312218
 30
0.0
 10
10.3165654735
 20
7.2771321511
 30
0.0
 10
10.3140261775
 20
7.2980669504
 30
0.0
 10
10.3128281509
 20
7.3190298193
 30
0.0
 10
10.3129765348
 20
7.3399340136
 30
0.0
 10
10.3144707485
 20
7.3606922878
 30
0.0
 10
10.3168353564
 20
7.3778179736
 30
0.0
 10
10.3193926513
 20
7.3913562163
 30
0.0
 10
10.322383943
 20
7.4047467785
 30
0.0
 10
10.3269409322
 20
7.4212395363
 30
0.0
 10
10.3325814387
 20
7.4373601904
 30
0.0
 10
10.3377241524
 20
7.4499704963
 30
0.0
 10
10.3432724986
 20
7.4623595882
 30
0.0
 10
10.3479015607
 20
7.4714285266
 30
0.0
 10
10.3511865638
 20
7.4773548459
 30
0.0
  0
SPLINE
  5
2F9
100
AcDbEntity
  8
0
100
AcDbSpline
 62
7
  6
CONTINUOUS
 70
0
 71
3
 72
18
 73
14
 74
0
 42
0.0000001
 43
0.0000001
 44
0.0000000001
 40
0.0
 40
0.0
 40
0.0
 40
0.0
 40
0.0542290625
 40
0.1085602213
 40
0.1632425862
 40
0.2185200008
 40
0.3317316409
 40
0.4499970497
 40
0.5115266648
 40
0.5748615609
 40
0.7074919225
 40
0.848947641
 40
1.0
 40
1.0
 40
1.0
 40
1.0
 10
11.858404588
 20
8.0517665357
 30
0.0
 10
11.8589270681
 20
8.051708389
 30
0.0
 10
11.859977475
 20
8.051628662
 30
0.0
 10
11.8615611769
 20
8.0516200681
 30
0.0
 10
11.8631518702
 20
8.0517225615
 30
0.0
 10
11.865297704
 20
8.0520092571
 30
0.0
 10
11.8680100419
 20
8.0526556516
 30
0.0
 10
11.8706764886
 20
8.0536541906
 30
0.0
 10
11.8728084247
 20
8.0546613404
 30
0.0
 10
11.8750066731
 20
8.0558462411
 30
0.0
 10
11.877764379
 20
8.0576153731
 30
0.0
 10
11.881027796
 20
8.0601394682
 30
0.0
 10
11.88313276
 20
8.0620437776
 30
0.0
 10
11.8841859839
 20
8.0630611138
 30
0.0
  0
SPLINE
  5
2FA
100
AcDbEntity
  8
0
100
AcDbSpline
 62
7
  6
CONTINUOUS
 70
0
 71
3
 72
61
 73
57
 74
0
 42
0.0000001
 43
0.0000001
 44
0.0000000001
 40
0.0
 40
0.0
 40
0.0
 40
0.0
 40
0.0027165054
 40
0.0054533955
 40
0.0082305472
 40
0.0110669316
 40
0.0169824274
 40
0.0233277131
 40
0.030199549
 40
0.0376706007
 40
0.0457931532
 40
0.0546032753
 40
0.0641243859
 40
0.074369812
 40
0.0853450535
 40
0.0970492998
 40
0.10947643
 40
0.1226160841
 40
0.136454196
 40
0.1509734409
 40
0.1661538067
 40
0.1819727413
 40
0.1984054552
 40
0.2154252451
 40
0.233003508
 40
0.2511100181
 40
0.2697130988
 40
0.288779623
 40
0.3281637084
 40
0.3689758341
 40
0.4109140611
 40
0.4536652952
 40
0.496908534
 40
0.5403180533
 40
0.58356653
 40
0.6263281872
 40
0.6682819354
 40
0.7091145197
 40
0.7485237777
 40
0.7862219893
 40
0.8043449156
 40
0.8219405913
 40
0.8389787009
 40
0.8554306652
 40
0.871269662
 40
0.8864708261
 40
0.9010116003
 40
0.9148718073
 40
0.9280340646
 40
0.940484227
 40
0.9522117242
 40
0.9632103966
 40
0.9734791407
 40
0.9830231747
 40
0.9918561893
 40
1.0
 40
1.0
 40
1.0
 40
1.0
 10
11.9430351586
 20
9.4546095778
 30
0.0
 10
11.9434140322
 20
9.4545832987
 30
0.0
 10
11.9441726827
 20
9.4544962377
 30
0.0
 10
11.9453009854
 20
9.4542632969
 30
0.0
 10
11.9464208045
 20
9.453928035
 30
0.0
 10
11.9479220963
 20
9.453336973
 30
0.0
 10
11.9497850922
 20
9.4523259005
 30
0.0
 10
11.9519382724
 20
9.4507265798
 30
0.0
 10
11.9540394162
 20
9.4487301486
 30
0.0
 10
11.9560860013
 20
9.4463416469
 30
0.0
 10
11.9580758896
 20
9.4435658402
 30
0.0
 10
11.96000622
 20
9.4404078824
 30
0.0
 10
11.9618738106
 20
9.4368735642
 30
0.0
 10
11.9636753553
 20
9.4329695146
 30
0.0
 10
11.9654074473
 20
9.4287031587
 30
0.0
 10
11.967066689
 20
9.4240827349
 30
0.0
 10
11.9686498226
 20
9.4191172839
 30
0.0
 10
11.97015365
 20
9.4138165836
 30
0.0
 10
11.9715751258
 20
9.4081911376
 30
0.0
 10
11.9729113944
 20
9.4022521436
 30
0.0
 10
11.9741597152
 20
9.396011449
 30
0.0
 10
11.9753175553
 20
9.3894815342
 30
0.0
 10
11.9763825747
 20
9.3826754773
 30
0.0
 10
11.9773525795
 20
9.375606921
 30
0.0
 10
11.9782256123
 20
9.368290048
 30
0.0
 10
11.9789998968
 20
9.3607395513
 30
0.0
 10
11.9796738532
 20
9.3529705814
 30
0.0
 10
11.9804451346
 20
9.3422253282
 30
0.0
 10
11.9811413733
 20
9.3283633737
 30
0.0
 10
11.9815524846
 20
9.311291447
 30
0.0
 10
11.9815442197
 20
9.2937438767
 30
0.0
 10
11.9811164983
 20
9.2758616521
 30
0.0
 10
11.9802726245
 20
9.2577883533
 30
0.0
 10
11.9790193163
 20
9.2396691597
 30
0.0
 10
11.9773666299
 20
9.221649614
 30
0.0
 10
11.9753279105
 20
9.2038744424
 30
0.0
 10
11.9729196532
 20
9.1864863914
 30
0.0
 10
11.9701613913
 20
9.1696249904
 30
0.0
 10
11.9670754914
 20
9.1534256382
 30
0.0
 10
11.9642156257
 20
9.1404204082
 30
0.0
 10
11.961774269
 20
9.130450466
 30
0.0
 10
11.9599016294
 20
9.1233160659
 30
0.0
 10
11.9579671022
 20
9.1164405517
 30
0.0
 10
11.9559745927
 20
9.1098377003
 30
0.0
 10
11.9539281313
 20
9.1035207478
 30
0.0
 10
11.9518318328
 20
9.0975023446
 30
0.0
 10
11.9496899592
 20
9.0917945128
 30
0.0
 10
11.9475068183
 20
9.0864086399
 30
0.0
 10
11.9452867974
 20
9.0813554416
 30
0.0
 10
11.9430343834
 20
9.0766449138
 30
0.0
 10
11.9407540478
 20
9.0722863389
 30
0.0
 10
11.9384502896
 20
9.0682882364
 30
0.0
 10
11.9361276607
 20
9.0646583425
 30
0.0
 10
11.933790401
 20
9.0614034478
 30
0.0
 10
11.931443046
 20
9.058530062
 30
0.0
 10
11.9298094687
 20
9.0568040537
 30
0.0
 10
11.9289905588
 20
9.0560130474
 30
0.0
  0
SPLINE
  5
2FB
100
AcDbEntity
  8
0
100
AcDbSpline
 62
7
  6
CONTINUOUS
 70
0
 71
3
 72
18
 73
14
 74
0
 42
0.0000001
 43
0.0000001
 44
0.0000000001
 40
0.0
 40
0.0
 40
0.0
 40
0.0
 40
0.1504686872
 40
0.2917143508
 40
0.4244422581
 40
0.4879097286
 40
0.549609416
 40
0.6682625881
 40
0.7817882869
 40
0.8371380068
 40
0.8918078217
 40
0.9460192903
 40
1.0
 40
1.0
 40
1.0
 40
1.0
 10
11.9289905588
 20
7.9239479119
 30
0.0
 10
11.9275770043
 20
7.922582523
 30
0.0
 10
11.9247518293
 20
7.9200206624
 30
0.0
 10
11.9203773355
 20
7.9166066863
 30
0.0
 10
11.9166823456
 20
7.9141921346
 30
0.0
 10
11.9137359044
 20
7.9125570811
 30
0.0
 10
11.9108761494
 20
7.9111533231
 30
0.0
 10
11.9073005451
 20
7.9097348858
 30
0.0
 10
11.9036613416
 20
7.9087669298
 30
0.0
 10
11.9007789833
 20
7.9082901007
 30
0.0
 10
11.8986427555
 20
7.9080784899
 30
0.0
 10
11.8965151714
 20
7.9080101355
 30
0.0
 10
11.8951016558
 20
7.9080601344
 30
0.0
 10
11.8943982914
 20
7.9081089154
 30
0.0
  0
SPLINE
  5
2FC
100
AcDbEntity
  8
0
100
AcDbSpline
 62
7
  6
CONTINUOUS
 70
0
 71
3
 72
71
 73
67
 74
0
 42
0.0000001
 43
0.0000001
 44
0.0000000001
 40
0.0
 40
0.0
 40
0.0
 40
0.0
 40
0.0156748403
 40
0.0314021535
 40
0.0471806586
 40
0.0630088905
 40
0.0788847443
 40
0.0948057528
 40
0.1107690088
 40
0.1267712322
 40
0.1428087901
 40
0.1588777349
 40
0.1749738405
 40
0.1910926412
 40
0.207229472
 40
0.2233795101
 40
0.2395378174
 40
0.2556993839
 40
0.2718591711
 40
0.2880121559
 40
0.3041533746
 40
0.320277966
 40
0.3363812145
 40
0.3524585915
 40
0.3685057964
 40
0.3845187958
 40
0.400493861
 40
0.4164276032
 40
0.4323170069
 40
0.4481594601
 40
0.4639527818
 40
0.4796952459
 40
0.4953856017
 40
0.5110230906
 40
0.5266074577
 40
0.5421389599
 40
0.5576183684
 40
0.5730469665
 40
0.5884265418
 40
0.6037593735
 40
0.6190482137
 40
0.634296264
 40
0.6495071459
 40
0.6646848666
 40
0.6798337801
 40
0.6949585433
 40
0.7100640686
 40
0.7251554727
 40
0.7402380227
 40
0.7553170804
 40
0.770398045
 40
0.7854862952
 40
0.8005871318
 40
0.8157057214
 40
0.830847042
 40
0.8460158304
 40
0.8612165346
 40
0.8764532678
 40
0.891729769
 40
0.9070493656
 40
0.9224149468
 40
0.9378289258
 40
0.9532932572
 40
0.9688093183
 40
0.9843781544
 40
1.0
 40
1.0
 40
1.0
 40
1.0
 10
10.4500099831
 20
8.9733132908
 30
0.0
 10
10.4595396535
 20
8.9726524059
 30
0.0
 10
10.4786017076
 20
8.9708609508
 30
0.0
 10
10.5070747453
 20
8.9667836944
 30
0.0
 10
10.5354106338
 20
8.961321431
 30
0.0
 10
10.5635401928
 20
8.9544875075
 30
0.0
 10
10.5913959859
 20
8.9462983649
 30
0.0
 10
10.6189108714
 20
8.9367738068
 30
0.0
 10
10.6460186407
 20
8.9259367956
 30
0.0
 10
10.6726540391
 20
8.9138134699
 30
0.0
 10
10.6987529601
 20
8.9004330498
 30
0.0
 10
10.7242525886
 20
8.8858277792
 30
0.0
 10
10.7490915534
 20
8.8700328433
 30
0.0
 10
10.7732100739
 20
8.853086286
 30
0.0
 10
10.7965501033
 20
8.8350289175
 30
0.0
 10
10.8190554672
 20
8.8159042173
 30
0.0
 10
10.8406719984
 20
8.7957582291
 30
0.0
 10
10.8613476664
 20
8.7746394509
 30
0.0
 10
10.8810327023
 20
8.7525987186
 30
0.0
 10
10.8996797188
 20
8.7296890847
 30
0.0
 10
10.9172438231
 20
8.7059656907
 30
0.0
 10
10.9336827243
 20
8.6814856348
 30
0.0
 10
10.9489568352
 20
8.656307835
 30
0.0
 10
10.9630293673
 20
8.6304928884
 30
0.0
 10
10.9758664185
 20
8.604102926
 30
0.0
 10
10.9874370554
 20
8.5772014639
 30
0.0
 10
10.9977133872
 20
8.5498532515
 30
0.0
 10
11.0066706331
 20
8.5221241163
 30
0.0
 10
11.014287182
 20
8.4940808067
 30
0.0
 10
11.0205446453
 20
8.4657908323
 30
0.0
 10
11.0254279009
 20
8.4373223023
 30
0.0
 10
11.028925131
 20
8.4087437624
 30
0.0
 10
11.0310278508
 20
8.3801240311
 30
0.0
 10
11.0317309306
 20
8.3515320345
 30
0.0
 10
11.0310326084
 20
8.3230366414
 30
0.0
 10
11.0289344977
 20
8.2947064978
 30
0.0
 10
11.0254415829
 20
8.2666098619
 30
0.0
 10
11.0205622098
 20
8.2388144402
 30
0.0
 10
11.0143080667
 20
8.2113872243
 30
0.0
 10
11.0066941583
 20
8.1843943291
 30
0.0
 10
10.9977387712
 20
8.1579008334
 30
0.0
 10
10.9874634314
 20
8.1319706215
 30
0.0
 10
10.9758928545
 20
8.1066662288
 30
0.0
 10
10.9630548869
 20
8.082048689
 30
0.0
 10
10.9489804403
 20
8.0581773858
 30
0.0
 10
10.9337034179
 20
8.0351099072
 30
0.0
 10
10.9172606329
 20
8.0129019051
 30
0.0
 10
10.8996917201
 20
7.9916069586
 30
0.0
 10
10.8810390397
 20
7.9712764429
 30
0.0
 10
10.8613475745
 20
7.9519594034
 30
0.0
 10
10.8406648203
 20
7.9337024352
 30
0.0
 10
10.8190406705
 20
7.9165495688
 30
0.0
 10
10.7965272929
 20
7.9005421632
 30
0.0
 10
10.7731790022
 20
7.8857188054
 30
0.0
 10
10.749052127
 20
7.8721152166
 30
0.0
 10
10.7242048713
 20
7.8597641668
 30
0.0
 10
10.6986971725
 20
7.8486953954
 30
0.0
 10
10.6725905548
 20
7.8389355407
 30
0.0
 10
10.6459479796
 20
7.8305080777
 30
0.0
 10
10.6188336896
 20
7.8234332589
 30
0.0
 10
10.5913130634
 20
7.817728078
 30
0.0
 10
10.5634524175
 20
7.8134062048
 30
0.0
 10
10.5353189865
 20
7.8104780079
 30
0.0
 10
10.5069802795
 20
7.808950441
 30
0.0
 10
10.4785055245
 20
7.8088271174
 30
0.0
 10
10.4595074349
 20
7.8096798765
 30
0.0
 10
10.4500099831
 20
7.810338527
 30
0.0
  0
SPLINE
  5
2FD
100
AcDbEntity
  8
0
100
AcDbSpline
 62
7
  6
CONTINUOUS
 70
0
 71
3
 72
61
 73
57
 74
0
 42
0.0000001
 43
0.0000001
 44
0.0000000001
 40
0.0
 40
0.0
 40
0.0
 40
0.0
 40
0.0027165054
 40
0.0054533955
 40
0.0082305472
 40
0.0110669316
 40
0.0169824274
 40
0.0233277131
 40
0.030199549
 40
0.0376706007
 40
0.0457931532
 40
0.0546032753
 40
0.0641243859
 40
0.074369812
 40
0.0853450535
 40
0.0970492998
 40
0.10947643
 40
0.1226160841
 40
0.136454196
 40
0.1509734409
 40
0.1661538067
 40
0.1819727413
 40
0.1984054552
 40
0.2154252451
 40
0.233003508
 40
0.2511100181
 40
0.2697130988
 40
0.288779623
 40
0.3281637084
 40
0.3689758341
 40
0.4109140611
 40
0.4536652952
 40
0.496908534
 40
0.5403180533
 40
0.58356653
 40
0.6263281872
 40
0.6682819354
 40
0.7091145197
 40
0.7485237777
 40
0.7862219893
 40
0.8043449156
 40
0.8219405913
 40
0.8389787009
 40
0.8554306652
 40
0.871269662
 40
0.8864708261
 40
0.9010116003
 40
0.9148718073
 40
0.9280340646
 40
0.940484227
 40
0.9522117242
 40
0.9632103966
 40
0.9734791407
 40
0.9830231747
 40
0.9918561893
 40
1.0
 40
1.0
 40
1.0
 40
1.0
 10
11.9430351586
 20
7.7642393967
 30
0.0
 10
11.9434140322
 20
7.7642131177
 30
0.0
 10
11.9441726827
 20
7.7641260566
 30
0.0
 10
11.9453009854
 20
7.7638931159
 30
0.0
 10
11.9464208045
 20
7.7635578539
 30
0.0
 10
11.9479220963
 20
7.7629667919
 30
0.0
 10
11.9497850922
 20
7.7619557194
 30
0.0
 10
11.9519382724
 20
7.7603563988
 30
0.0
 10
11.9540394162
 20
7.7583599676
 30
0.0
 10
11.9560860013
 20
7.7559714659
 30
0.0
 10
11.9580758896
 20
7.7531956592
 30
0.0
 10
11.96000622
 20
7.7500377013
 30
0.0
 10
11.9618738106
 20
7.7465033831
 30
0.0
 10
11.9636753553
 20
7.7425993335
 30
0.0
 10
11.9654074473
 20
7.7383329777
 30
0.0
 10
11.967066689
 20
7.7337125538
 30
0.0
 10
11.9686498226
 20
7.7287471029
 30
0.0
 10
11.97015365
 20
7.7234464026
 30
0.0
 10
11.9715751258
 20
7.7178209566
 30
0.0
 10
11.9729113944
 20
7.7118819625
 30
0.0
 10
11.9741597152
 20
7.705641268
 30
0.0
 10
11.9753175553
 20
7.6991113532
 30
0.0
 10
11.9763825747
 20
7.6923052962
 30
0.0
 10
11.9773525795
 20
7.68523674
 30
0.0
 10
11.9782256123
 20
7.677919867
 30
0.0
 10
11.9789998968
 20
7.6703693703
 30
0.0
 10
11.9796738532
 20
7.6626004004
 30
0.0
 10
11.9804451346
 20
7.6518551472
 30
0.0
 10
11.9811413733
 20
7.6379931927
 30
0.0
 10
11.9815524846
 20
7.6209212659
 30
0.0
 10
11.9815442197
 20
7.6033736957
 30
0.0
 10
11.9811164983
 20
7.585491471
 30
0.0
 10
11.9802726245
 20
7.5674181723
 30
0.0
 10
11.9790193163
 20
7.5492989787
 30
0.0
 10
11.9773666299
 20
7.5312794329
 30
0.0
 10
11.9753279105
 20
7.5135042614
 30
0.0
 10
11.9729196532
 20
7.4961162104
 30
0.0
 10
11.9701613913
 20
7.4792548093
 30
0.0
 10
11.9670754914
 20
7.4630554572
 30
0.0
 10
11.9642156257
 20
7.4500502272
 30
0.0
 10
11.961774269
 20
7.440080285
 30
0.0
 10
11.9599016294
 20
7.4329458849
 30
0.0
 10
11.9579671022
 20
7.4260703707
 30
0.0
 10
11.9559745927
 20
7.4194675192
 30
0.0
 10
11.9539281313
 20
7.4131505668
 30
0.0
 10
11.9518318328
 20
7.4071321636
 30
0.0
 10
11.9496899592
 20
7.4014243318
 30
0.0
 10
11.9475068183
 20
7.3960384589
 30
0.0
 10
11.9452867974
 20
7.3909852606
 30
0.0
 10
11.9430343834
 20
7.3862747328
 30
0.0
 10
11.9407540478
 20
7.3819161578
 30
0.0
 10
11.9384502896
 20
7.3779180554
 30
0.0
 10
11.9361276607
 20
7.3742881615
 30
0.0
 10
11.933790401
 20
7.3710332668
 30
0.0
 10
11.931443046
 20
7.368159881
 30
0.0
 10
11.9298094687
 20
7.3664338727
 30
0.0
 10
11.9289905588
 20
7.3656428663
 30
0.0
  0
SPLINE
  5
2FE
100
AcDbEntity
  8
0
100
AcDbSpline
 62
7
  6
CONTINUOUS
 70
0
 71
3
 72
16
 73
12
 74
0
 42
0.0000001
 43
0.0000001
 44
0.0000000001
 40
0.0
 40
0.0
 40
0.0
 40
0.0
 40
0.1504802345
 40
0.2917477373
 40
0.4244952497
 40
0.4879700346
 40
0.5496761098
 40
0.6683415877
 40
0.7818816099
 40
0.8918561996
 40
1.0
 40
1.0
 40
1.0
 40
1.0
 10
11.9289905588
 20
9.0560130474
 30
0.0
 10
11.9284166754
 20
9.0554587185
 30
0.0
 10
11.9272696367
 20
9.0544186156
 30
0.0
 10
11.9254935843
 20
9.0530325008
 30
0.0
 10
11.923993366
 20
9.0520521648
 30
0.0
 10
11.9227970834
 20
9.0513883255
 30
0.0
 10
11.9216360458
 20
9.0508183948
 30
0.0
 10
11.9201842219
 20
9.0502425594
 30
0.0
 10
11.918426491
 20
9.0497749023
 30
0.0
 10
11.9166786792
 20
9.0495414164
 30
0.0
 10
11.9155179919
 20
9.0495427489
 30
0.0
 10
11.9149459589
 20
9.0495824257
 30
0.0
  0
SPLINE
  5
2FF
100
AcDbEntity
  8
0
100
AcDbSpline
 62
7
  6
CONTINUOUS
 70
0
 71
3
 72
71
 73
67
 74
0
 42
0.0000001
 43
0.0000001
 44
0.0000000001
 40
0.0
 40
0.0
 40
0.0
 40
0.0
 40
0.0156748403
 40
0.0314021535
 40
0.0471806586
 40
0.0630088905
 40
0.0788847443
 40
0.0948057528
 40
0.1107690088
 40
0.1267712322
 40
0.1428087901
 40
0.1588777349
 40
0.1749738405
 40
0.1910926412
 40
0.207229472
 40
0.2233795101
 40
0.2395378174
 40
0.2556993839
 40
0.2718591711
 40
0.2880121559
 40
0.3041533746
 40
0.320277966
 40
0.3363812145
 40
0.3524585915
 40
0.3685057964
 40
0.3845187958
 40
0.400493861
 40
0.4164276032
 40
0.4323170069
 40
0.4481594601
 40
0.4639527818
 40
0.4796952459
 40
0.4953856017
 40
0.5110230906
 40
0.5266074577
 40
0.5421389599
 40
0.5576183684
 40
0.5730469665
 40
0.5884265418
 40
0.6037593735
 40
0.6190482137
 40
0.634296264
 40
0.6495071459
 40
0.6646848666
 40
0.6798337801
 40
0.6949585433
 40
0.7100640686
 40
0.7251554727
 40
0.7402380227
 40
0.7553170804
 40
0.770398045
 40
0.7854862952
 40
0.8005871318
 40
0.8157057214
 40
0.830847042
 40
0.8460158304
 40
0.8612165346
 40
0.8764532678
 40
0.891729769
 40
0.9070493656
 40
0.9224149468
 40
0.9378289258
 40
0.9532932572
 40
0.9688093183
 40
0.9843781544
 40
1.0
 40
1.0
 40
1.0
 40
1.0
 10
10.4500099831
 20
7.810338527
 30
0.0
 10
10.4404803126
 20
7.8109994119
 30
0.0
 10
10.4214182585
 20
7.812790867
 30
0.0
 10
10.3929452208
 20
7.8168681235
 30
0.0
 10
10.3646093323
 20
7.8223303868
 30
0.0
 10
10.3364797733
 20
7.8291643103
 30
0.0
 10
10.3086239802
 20
7.8373534529
 30
0.0
 10
10.2811090947
 20
7.8468780111
 30
0.0
 10
10.2540013254
 20
7.8577150223
 30
0.0
 10
10.227365927
 20
7.869838348
 30
0.0
 10
10.201267006
 20
7.883218768
 30
0.0
 10
10.1757673775
 20
7.8978240386
 30
0.0
 10
10.1509284128
 20
7.9136189745
 30
0.0
 10
10.1268098922
 20
7.9305655319
 30
0.0
 10
10.1034698628
 20
7.9486229003
 30
0.0
 10
10.0809644989
 20
7.9677476006
 30
0.0
 10
10.0593479677
 20
7.9878935888
 30
0.0
 10
10.0386722997
 20
8.009012367
 30
0.0
 10
10.0189872638
 20
8.0310530993
 30
0.0
 10
10.0003402473
 20
8.0539627331
 30
0.0
 10
9.982776143
 20
8.0776861271
 30
0.0
 10
9.9663372418
 20
8.1021661831
 30
0.0
 10
9.9510631309
 20
8.1273439829
 30
0.0
 10
9.9369905988
 20
8.1531589295
 30
0.0
 10
9.9241535476
 20
8.1795488918
 30
0.0
 10
9.9125829107
 20
8.2064503539
 30
0.0
 10
9.9023065789
 20
8.2337985664
 30
0.0
 10
9.8933493331
 20
8.2615277016
 30
0.0
 10
9.8857327841
 20
8.2895710112
 30
0.0
 10
9.8794753208
 20
8.3178609856
 30
0.0
 10
9.8745920652
 20
8.3463295156
 30
0.0
 10
9.8710948351
 20
8.3749080555
 30
0.0
 10
9.8689921153
 20
8.4035277867
 30
0.0
 10
9.8682890356
 20
8.4321197833
 30
0.0
 10
9.8689873577
 20
8.4606151764
 30
0.0
 10
9.8710854684
 20
8.4889453201
 30
0.0
 10
9.8745783832
 20
8.517041956
 30
0.0
 10
9.8794577563
 20
8.5448373777
 30
0.0
 10
9.8857118994
 20
8.5722645936
 30
0.0
 10
9.8933258078
 20
8.5992574888
 30
0.0
 10
9.9022811949
 20
8.6257509845
 30
0.0
 10
9.9125565347
 20
8.6516811964
 30
0.0
 10
9.9241271116
 20
8.6769855891
 30
0.0
 10
9.9369650792
 20
8.7016031288
 30
0.0
 10
9.9510395258
 20
8.725474432
 30
0.0
 10
9.9663165482
 20
8.7485419106
 30
0.0
 10
9.9827593332
 20
8.7707499128
 30
0.0
 10
10.000328246
 20
8.7920448592
 30
0.0
 10
10.0189809264
 20
8.8123753749
 30
0.0
 10
10.0386723916
 20
8.8316924145
 30
0.0
 10
10.0593551458
 20
8.8499493827
 30
0.0
 10
10.0809792956
 20
8.867102249
 30
0.0
 10
10.1034926732
 20
8.8831096546
 30
0.0
 10
10.1268409639
 20
8.8979330125
 30
0.0
 10
10.1509678391
 20
8.9115366012
 30
0.0
 10
10.1758150948
 20
8.9238876511
 30
0.0
 10
10.2013227936
 20
8.9349564224
 30
0.0
 10
10.2274294113
 20
8.9447162771
 30
0.0
 10
10.2540719865
 20
8.9531437401
 30
0.0
 10
10.2811862765
 20
8.960218559
 30
0.0
 10
10.3087069027
 20
8.9659237398
 30
0.0
 10
10.3365675486
 20
8.9702456131
 30
0.0
 10
10.3647009796
 20
8.9731738099
 30
0.0
 10
10.3930396866
 20
8.9747013768
 30
0.0
 10
10.4215144416
 20
8.9748247005
 30
0.0
 10
10.4405125312
 20
8.9739719413
 30
0.0
 10
10.4500099831
 20
8.9733132908
 30
0.0
  0
ELLIPSE
  5
300
100
AcDbEntity
  8
0
100
AcDbEllipse
 62
7
  6
CONTINUOUS
 10
11.8411659032
 20
8.4284296586
 30
0.0
 11
-0.0067845363
 21
0.2797017499
 31
0.0
 40
0.2822856971
 41
-3.251957954
 42
-2.4738665124
  0
ELLIPSE
  5
301
100
AcDbEntity
  8
0
100
AcDbEllipse
 62
7
  6
CONTINUOUS
 10
11.8411659032
 20
8.4284296586
 30
0.0
 11
-0.0067845363
 21
0.2797017499
 31
0.0
 40
0.2822856971
 41
-2.0701210036
 42
-0.5283604463
  0
ENDSEC
  0
SECTION
  2
OBJECTS
  0
DICTIONARY
  5
C
100
AcDbDictionary
280
0
281
1
  3
ACAD_GROUP
350
D
  3
ACAD_MLINESTYLE
350
17
  3
ACAD_LAYOUT
350
1A
  3
ACAD_PLOTSETTINGS
350
19
  3
ACAD_PLOTSTYLENAME
350
E
  3
ACAD_IMAGE_DICT
350
       303
  3
ACAD_IMAGE_VARS
350
       304
  3
ACAD_TABLESTYLE
350
       305
  0
IMAGEDEF_REACTOR
  5
302
100
AcDbRasterImageDefReactor
 90
2
330
28E
  0
DICTIONARY
  5
D
102
{ACAD_REACTORS
330
C
102
}
100
AcDbDictionary
280
0
281
1
  0
ACDBDICTIONARYWDFLT
  5
E
102
{ACAD_REACTORS
330
C
102
}
100
AcDbDictionary
281
1
  3
Normal
350
F
100
AcDbDictionaryWithDefault
340
F
  0
DICTIONARY
  5
303
330
C
100
AcDbDictionary
281
1
  3
ZTG_assy_2_img_1
350
       308
  0
RASTERVARIABLES
  5
304
330
C
100
AcDbRasterVariables
 90
0
 70
0
 71
1
 72
5
  0
DICTIONARY
  5
17
102
{ACAD_REACTORS
330
C
102
}
100
AcDbDictionary
280
0
281
1
  3
Standard
350
18
  0
DICTIONARY
  5
305
330
C
100
AcDbDictionary
281
1
  3
Standard
350
       309
  3
Standard1
350
       30A
  0
DICTIONARY
  5
19
102
{ACAD_REACTORS
330
C
102
}
100
AcDbDictionary
281
1
  0
DICTIONARY
  5
1A
102
{ACAD_REACTORS
330
C
102
}
100
AcDbDictionary
281
1
  3
Model
350
306
  3
Layout1
350
307
  0
ACDBPLACEHOLDER
  5
F
102
{ACAD_REACTORS
330
E
102
}
  0
MLINESTYLE
  5
18
102
{ACAD_REACTORS
330
17
102
}
100
AcDbMlineStyle
  2
STANDARD
 70
0
  3

 62
256
 51
90.0
 52
90.0
 71
2
 49
0.5
 62
256
  6
BYLAYER
 49
-0.5
 62
256
  6
BYLAYER
  0
LAYOUT
  5
306
102
{ACAD_REACTORS
330
1A
102
}
100
AcDbPlotSettings
  1

  2
none_device
  4
ANSI_C_(22.00_x_17.00_Inches)
  6

 40
0.0
 41
0.0
 42
0.0
 43
0.0
 44
558.8
 45
431.8
 46
0.0
 47
0.0
 48
0.0
 49
0.0
140
0.0
141
0.0
142
1.0
143
1.0
 70
1024
 72
0
 73
0
 74
0
  7

 75
0
147
1.0
148
0.0
149
0.0
100
AcDbLayout
  1
Model
 70
0
 71
0
 10
0.0
 20
0.0
 11
22.0
 21
17.0
 12
0.0
 22
0.0
 32
0.0
 14
0.0
 24
0.0
 34
0.0
 15
0.0
 25
0.0
 35
0.0
146
0.0
 13
0.0
 23
0.0
 33
0.0
 16
1.0
 26
0.0
 36
0.0
 17
0.0
 27
1.0
 37
0.0
 76
0
330
207
345
0
346
0
  0
LAYOUT
  5
307
102
{ACAD_REACTORS
330
1A
102
}
100
AcDbPlotSettings
  1

  2
none_device
  4
ANSI_C_(22.00_x_17.00_Inches)
  6

 40
0.0
 41
0.0
 42
0.0
 43
0.0
 44
558.8
 45
431.8
 46
0.0
 47
0.0
 48
0.0
 49
0.0
140
0.0
141
0.0
142
1.0
143
1.0
 70
0
 72
0
 73
0
 74
0
  7

 75
0
147
1.0
148
0.0
149
0.0
100
AcDbLayout
  1
Layout1
 70
0
 71
1
 10
0.0
 20
0.0
 11
22.0
 21
17.0
 12
0.0
 22
0.0
 32
0.0
 14
0.0
 24
0.0
 34
0.0
 15
0.0
 25
0.0
 35
0.0
146
0.0
 13
0.0
 23
0.0
 33
0.0
 16
1.0
 26
0.0
 36
0.0
 17
0.0
 27
1.0
 37
0.0
 76
0
330
208
345
0
346
0
  0
IMAGEDEF
  5
308
102
{ACAD_REACTORS
330
303
330
302
102
}
100
AcDbRasterImageDef
 90
0
  1
ZTG_assy_2_img_1.png
 10
369.0
 20
92.0
 11
0.0066666667
 21
0.0066666667
280
1
281
0
  0
TABLESTYLE
  5
309
102
{ACAD_REACTORS
330
305
330
291
330
292
102
}
330
305
100
AcDbTableStyle
  3
Standard
 70
0
 71
0
 40
0.06
 41
0.06
280
1
281
1
  7
Standard
140
0.18
170
1
 62
0
 63
7
283
0
  7
Standard
140
0.18
170
1
 62
0
 63
7
283
0
  7
Standard
140
0.18
170
1
 62
0
 63
7
283
0
  0
TABLESTYLE
  5
30A
102
{ACAD_REACTORS
330
305
330
290
102
}
330
305
100
AcDbTableStyle
  3
Standard1
 70
1
 71
0
 40
0.06
 41
0.06
280
1
281
1
  7
Standard
140
0.18
170
1
 62
0
 63
7
283
0
  7
Standard
140
0.18
170
1
 62
0
 63
7
283
0
  7
Standard
140
0.18
170
1
 62
0
 63
7
283
0
  0
ENDSEC
  0
EOF
