999
DXF file: ZTD_assy_2.dxf
999
Pro/ENGINEER 2014200 by Parametric Technology Corporation
  0
SECTION
  2
HEADER
  9
$ACADVER
  1
AC1021
  9
$DWGCODEPAGE
  3
ANSI_1252
  9
$EXTMAX
 10
22.0
 20
17.0
 30
0.0
  9
$EXTMIN
 10
0.0
 20
0.0
 30
0.0
  9
$LIMMIN
 10
0.0
 20
0.0
  9
$LIMMAX
 10
22.0
 20
17.0
  9
$VIEWCTR
 10
11.0
 20
8.5
  9
$VIEWSIZE
 40
17.0
  9
$CLAYER
  8
0
  9
$LTSCALE
 40
1.21
  9
$CELTYPE
  6
BYLAYER
  9
$DIMSCALE
 40
1.0
  9
$DIMASZ
 40
0.1875
  9
$DIMEXO
 40
0.0625
  9
$DIMDLI
 40
0.836
  9
$DIMEXE
 40
0.125
  9
$DIMCEN
 40
0.198
  9
$DIMLFAC
 40
1.0
  9
$DIMBLK
  1
_FILLED
  9
$DIMTXT
 40
0.1
  9
$DIMTOL
 70
0
  9
$DIMLIM
 70
0
  9
$DIMTFAC
 40
1.0
  9
$DIMGAP
 40
0.09
  9
$DIMDSEP
 70
46
  9
$AUNITS
 70
0
  9
$PDMODE
 70
3
  9
$PDSIZE
 40
0.3125
  9
$HANDSEED
  5
2F0
  9
$TILEMODE
 70
1
  9
$MEASUREMENT
 70
0
  9
$INSUNITS
 70
1
  0
ENDSEC
  0
SECTION
  2
CLASSES
  0
CLASS
  1
ACDBDICTIONARYWDFLT
  2
AcDbDictionaryWithDefault
  3
AutoCAD 2000
 90
0
 91
1
280
0
281
0
  0
CLASS
  1
ACDBPLACEHOLDER
  2
AcDbPlaceHolder
  3
AutoCAD 2000
 90
0
 91
1
280
0
281
0
  0
CLASS
  1
LAYOUT
  2
AcDbLayout
  3
AutoCAD 2000
 90
0
 91
0
280
0
281
0
  0
CLASS
  1
RASTERVARIABLES
  2
AcDbRasterVariables
  3
ISM
 90
0
 91
1
280
0
281
0
  0
CLASS
  1
IMAGEDEF
  2
AcDbRasterImageDef
  3
ISM
 90
0
 91
1
280
0
281
0
  0
CLASS
  1
IMAGEDEF_REACTOR
  2
AcDbRasterImageDefReactor
  3
ISM
 90
0
 91
1
280
0
281
0
  0
CLASS
  1
IMAGE
  2
AcDbRasterImage
  3
ISM
 90
127
 91
1
280
0
281
1
  0
CLASS
  1
TABLESTYLE
  2
AcDbTableStyle
  3
ObjectDBX Classes
 90
2047
 91
1
280
0
281
0
  0
CLASS
  1
ACAD_TABLE
  2
AcDbTable
  3
ObjectDBX Classes
 90
1025
 91
3
280
0
281
1
  0
ENDSEC
  0
SECTION
  2
TABLES
  0
TABLE
  2
VPORT
  5
8
100
AcDbSymbolTable
 70
2
  0
VPORT
  5
1F4
100
AcDbSymbolTableRecord
100
AcDbViewportTableRecord
  2
*ACTIVE
 70
0
 10
0.0
 20
0.0
 11
1.0
 21
1.0
 12
11.0
 22
8.5
 13
0.0
 23
0.0
 14
1.0
 24
1.0
 15
0.0
 25
0.0
 16
0.0
 26
0.0
 36
1.0
 17
0.0
 27
0.0
 37
0.0
 40
17.0
 41
1.2941176471
 42
50.0
 43
0.0
 44
0.0
 50
0.0
 51
0.0
 71
0
 72
100
 73
1
 74
1
 75
0
 76
0
 77
0
 78
0
  0
ENDTAB
  0
TABLE
  2
LTYPE
  5
5
100
AcDbSymbolTable
 70
6
  0
LTYPE
  5
14
100
AcDbSymbolTableRecord
100
AcDbLinetypeTableRecord
  2
BYBLOCK
 70
0
  3

 72
65
 73
0
 40
0.0
  0
LTYPE
  5
15
100
AcDbSymbolTableRecord
100
AcDbLinetypeTableRecord
  2
BYLAYER
 70
0
  3

 72
65
 73
0
 40
0.0
  0
LTYPE
  5
16
100
AcDbSymbolTableRecord
100
AcDbLinetypeTableRecord
  2
CONTINUOUS
 70
64
  3
Solid line
 72
65
 73
0
 40
0.0
  0
LTYPE
  5
1F5
100
AcDbSymbolTableRecord
100
AcDbLinetypeTableRecord
  2
CENTER
 70
64
  3
____ _ ____ _ ____ _ ____ _ ____ _ ____ _ ____
 72
65
 73
4
 40
0.6
 49
0.375
 74
0
 49
-0.075
 74
0
 49
0.075
 74
0
 49
-0.075
 74
0
  0
LTYPE
  5
1F6
100
AcDbSymbolTableRecord
100
AcDbLinetypeTableRecord
  2
HIDDEN
 70
64
  3
- - - - - - - - - - - - - - - - - - - -
 72
65
 73
2
 40
0.2
 49
0.1
 74
0
 49
-0.1
 74
0
  0
LTYPE
  5
1F7
100
AcDbSymbolTableRecord
100
AcDbLinetypeTableRecord
  2
PHANTOM
 70
64
  3
_____ _ _ _____ _ _ _____ _ _ _____
 72
65
 73
6
 40
0.8
 49
0.45
 74
0
 49
-0.05
 74
0
 49
0.1
 74
0
 49
-0.05
 74
0
 49
0.1
 74
0
 49
-0.05
 74
0
  0
LTYPE
  5
1F8
100
AcDbSymbolTableRecord
100
AcDbLinetypeTableRecord
  2
DOT
 70
64
  3
. . . . . . . . . . . . . . . . . . . .
 72
65
 73
2
 40
0.2
 49
0.1
 74
0
 49
-0.1
 74
0
  0
LTYPE
  5
1F9
100
AcDbSymbolTableRecord
100
AcDbLinetypeTableRecord
  2
DASHED
 70
64
  3
- - - - - - - - - - - - - - - - - - - -
 72
65
 73
2
 40
0.2
 49
0.1
 74
0
 49
-0.1
 74
0
  0
ENDTAB
  0
TABLE
  2
LAYER
  5
2
100
AcDbSymbolTable
 70
36
  0
LAYER
  5
10
100
AcDbSymbolTableRecord
100
AcDbLayerTableRecord
  2
0
 70
0
 62
7
  6
CONTINUOUS
370
-3
390
F
  0
LAYER
  5
1FA
100
AcDbSymbolTableRecord
100
AcDbLayerTableRecord
  2
DEFAULT_1
 70
0
 62
7
  6
CENTER
370
-3
390
F
  0
LAYER
  5
1FB
100
AcDbSymbolTableRecord
100
AcDbLayerTableRecord
  2
DEFAULT_2
 70
0
 62
8
  6
HIDDEN
370
-3
390
F
  0
LAYER
  5
1FC
100
AcDbSymbolTableRecord
100
AcDbLayerTableRecord
  2
DEFAULT_3
 70
0
 62
7
  6
PHANTOM
370
-3
390
F
  0
LAYER
  5
1FD
100
AcDbSymbolTableRecord
100
AcDbLayerTableRecord
  2
DATUM_PLANES
 70
0
 62
7
  6
CONTINUOUS
370
-3
390
F
  0
LAYER
  5
1FE
100
AcDbSymbolTableRecord
100
AcDbLayerTableRecord
  2
DIMENSIONS
 70
0
 62
7
  6
CONTINUOUS
370
-3
390
F
  0
LAYER
  5
1FF
100
AcDbSymbolTableRecord
100
AcDbLayerTableRecord
  2
DTM_500001
 70
0
 62
7
  6
CONTINUOUS
370
-3
390
F
  0
LAYER
  5
200
100
AcDbSymbolTableRecord
100
AcDbLayerTableRecord
  2
PARAMETERDIMENSIONS
 70
0
 62
7
  6
CONTINUOUS
370
-3
390
F
  0
LAYER
  5
201
100
AcDbSymbolTableRecord
100
AcDbLayerTableRecord
  2
PORT_AREAS
 70
0
 62
7
  6
CONTINUOUS
370
-3
390
F
  0
LAYER
  5
202
100
AcDbSymbolTableRecord
100
AcDbLayerTableRecord
  2
SUNNBOMCOSMETIC
 70
0
 62
7
  6
CONTINUOUS
370
-3
390
F
  0
LAYER
  5
203
100
AcDbSymbolTableRecord
100
AcDbLayerTableRecord
  2
SUNNBOMSTAMPING
 70
0
 62
7
  6
CONTINUOUS
370
-3
390
F
  0
LAYER
  5
204
100
AcDbSymbolTableRecord
100
AcDbLayerTableRecord
  2
THREADS
 70
0
 62
7
  6
CONTINUOUS
370
-3
390
F
  0
ENDTAB
  0
TABLE
  2
STYLE
  5
3
100
AcDbSymbolTable
 70
1
  0
STYLE
  5
11
100
AcDbSymbolTableRecord
100
AcDbTextStyleTableRecord
  2
STANDARD
 70
0
 40
0.0
 41
0.8
 50
0.0
 71
0
 42
0.2
  3
txt
  4

  0
STYLE
  5
205
100
AcDbSymbolTableRecord
100
AcDbTextStyleTableRecord
  2
TEXTSTYLE_1
 70
0
 40
0.0
 41
0.8
 50
0.0
 71
0
 42
0.2
  3
gdt
  4

  0
ENDTAB
  0
TABLE
  2
VIEW
  5
6
100
AcDbSymbolTable
 70
0
  0
ENDTAB
  0
TABLE
  2
UCS
  5
7
100
AcDbSymbolTable
 70
0
  0
ENDTAB
  0
TABLE
  2
APPID
  5
9
100
AcDbSymbolTable
 70
1
  0
APPID
  5
206
100
AcDbSymbolTableRecord
100
AcDbRegAppTableRecord
  2
ACAD
 70
0
  0
ENDTAB
  0
TABLE
  2
BLOCK_RECORD
  5
1
100
AcDbSymbolTable
 70
0
  0
BLOCK_RECORD
  5
207
100
AcDbSymbolTableRecord
100
AcDbBlockTableRecord
  2
*Model_Space
  0
BLOCK_RECORD
  5
208
100
AcDbSymbolTableRecord
100
AcDbBlockTableRecord
  2
*Paper_Space
  0
BLOCK_RECORD
  5
209
100
AcDbSymbolTableRecord
100
AcDbBlockTableRecord
  2
SUN_FIRST_THIRD_ANGLE_BL0
  0
BLOCK_RECORD
  5
20A
100
AcDbSymbolTableRecord
100
AcDbBlockTableRecord
  2
*T1
  0
BLOCK_RECORD
  5
20B
100
AcDbSymbolTableRecord
100
AcDbBlockTableRecord
  2
*T2
  0
BLOCK_RECORD
  5
20C
100
AcDbSymbolTableRecord
100
AcDbBlockTableRecord
  2
*T3
  0
ENDTAB
  0
TABLE
  2
DIMSTYLE
  5
A
100
AcDbSymbolTable
 70
1
100
AcDbDimStyleTable
 71
0
  0
DIMSTYLE
105
20D
100
AcDbSymbolTableRecord
100
AcDbDimStyleTableRecord
  2
STANDARD
 70
0
  3

  4

 40
1.0
 41
0.1875
 42
0.0625
 43
0.38
 44
0.125
 45
0.0
 46
0.0
 47
0.001
 48
0.001
140
0.1
141
0.09
142
0.0
143
25.4
144
1.0
145
0.0
146
1.0
147
0.09
 71
0.0
 72
0.0
 73
1
 74
1
 75
0
 76
0
 77
0
 78
4
170
0
171
2
172
0
173
0
174
0
175
0
176
0
177
0
178
0
270
2
271
3
272
3
273
2
274
2
275
0
280
0
281
0
282
0
283
1
284
4
285
0
286
0
287
3
288
0
340
11
278
46
  0
ENDTAB
  0
ENDSEC
  0
SECTION
  2
BLOCKS
  0
BLOCK
  5
20
100
AcDbEntity
  8
0
100
AcDbBlockBegin
  2
*Model_Space
 70
0
 10
0.0
 20
0.0
 30
0.0
  3
*Model_Space
  1

  0
ENDBLK
  5
21
100
AcDbEntity
  8
0
100
AcDbBlockEnd
  0
BLOCK
  5
1C
100
AcDbEntity
  8
0
100
AcDbBlockBegin
  2
*Paper_Space
 70
0
 10
0.0
 20
0.0
 30
0.0
  3
*Paper_Space
  1

  0
ENDBLK
  5
1D
100
AcDbEntity
  8
0
100
AcDbBlockEnd
  0
BLOCK
  5
20E
100
AcDbEntity
  8
0
100
AcDbBlockBegin
 62
2
  6
CONTINUOUS
  2
SUN_FIRST_THIRD_ANGLE_BL0
 70
64
 10
20.4816717061
 20
1.2289683772
  3
SUN_FIRST_THIRD_ANGLE_BL0
  1

  0
TEXT
  5
20F
100
AcDbEntity
  8
0
100
AcDbText
 62
2
  6
CONTINUOUS
 10
19.4750896608
 20
1.4136269581
  7
STANDARD
 40
0.08
  1
FIRST ANGLE
 41
0.8
 72
0
100
AcDbText
  0
TEXT
  5
210
100
AcDbEntity
  8
0
100
AcDbText
 62
2
  6
CONTINUOUS
 10
20.7842537513
 20
1.4047600029
  7
STANDARD
 40
0.08
  1
THIRD ANGLE
 41
0.8
 72
0
100
AcDbText
  0
LINE
  5
211
100
AcDbEntity
  8
0
100
AcDbLine
 62
7
  6
CONTINUOUS
 10
19.4767170086
 20
1.1727031207
 11
19.6334271527
 21
1.1717972817
  0
LINE
  5
212
100
AcDbEntity
  8
0
100
AcDbLine
 62
7
  6
CONTINUOUS
 10
19.6596964832
 20
1.1717972817
 11
19.6950230232
 21
1.171593082
  0
LINE
  5
213
100
AcDbEntity
  8
0
100
AcDbLine
 62
7
  6
CONTINUOUS
 10
19.7194818561
 20
1.1708914427
 11
19.8852396156
 21
1.1699333054
  0
LINE
  5
214
100
AcDbEntity
  8
0
100
AcDbLine
 62
7
  6
CONTINUOUS
 10
19.4758111696
 20
1.2723454088
 11
19.88525039
 21
1.3511534004
  0
LINE
  5
215
100
AcDbEntity
  8
0
100
AcDbLine
 62
7
  6
CONTINUOUS
 10
19.88525039
 20
1.3511534004
 11
19.8831348489
 21
0.9851647912
  0
LINE
  5
216
100
AcDbEntity
  8
0
100
AcDbLine
 62
7
  6
CONTINUOUS
 10
19.8831348489
 20
0.9851647912
 11
19.4767170086
 21
1.0658141206
  0
LINE
  5
217
100
AcDbEntity
  8
0
100
AcDbLine
 62
7
  6
CONTINUOUS
 10
19.4767170086
 20
1.0658141206
 11
19.4779056764
 21
1.2714536432
  0
CIRCLE
  5
218
100
AcDbEntity
  8
0
100
AcDbCircle
 62
7
  6
CONTINUOUS
 10
20.2068232291
 20
1.1717972817
 40
0.175742101
  0
CIRCLE
  5
219
100
AcDbEntity
  8
0
100
AcDbCircle
 62
7
  6
CONTINUOUS
 10
20.2068232291
 20
1.1717972817
 40
0.1005522074
  0
LINE
  5
21A
100
AcDbEntity
  8
0
100
AcDbLine
 62
7
  6
CONTINUOUS
 10
20.2077290681
 20
1.3756110529
 11
20.2071171714
 21
1.2379342989
  0
LINE
  5
21B
100
AcDbEntity
  8
0
100
AcDbLine
 62
7
  6
CONTINUOUS
 10
20.2077290681
 20
1.2016899681
 11
20.2074674401
 21
1.1428236749
  0
LINE
  5
21C
100
AcDbEntity
  8
0
100
AcDbLine
 62
7
  6
CONTINUOUS
 10
20.208634907
 20
1.101141841
 11
20.2080230104
 21
0.963465087
  0
LINE
  5
21D
100
AcDbEntity
  8
0
100
AcDbLine
 62
7
  6
CONTINUOUS
 10
20.0066328138
 20
1.1745147986
 11
20.1443095678
 21
1.1739029019
  0
LINE
  5
21E
100
AcDbEntity
  8
0
100
AcDbLine
 62
7
  6
CONTINUOUS
 10
20.1832714155
 20
1.1727031207
 11
20.238153505
 21
1.172335442
  0
LINE
  5
21F
100
AcDbEntity
  8
0
100
AcDbLine
 62
7
  6
CONTINUOUS
 10
20.2756669918
 20
1.1717972817
 11
20.407916871
 21
1.1712095044
  0
CIRCLE
  5
220
100
AcDbEntity
  8
0
100
AcDbCircle
 62
7
  6
CONTINUOUS
 10
20.7509457401
 20
1.1693297793
 40
0.1722024983
  0
CIRCLE
  5
221
100
AcDbEntity
  8
0
100
AcDbCircle
 62
7
  6
CONTINUOUS
 10
20.7509457401
 20
1.1693297793
 40
0.0985164967
  0
LINE
  5
222
100
AcDbEntity
  8
0
100
AcDbLine
 62
7
  6
CONTINUOUS
 10
20.7169767782
 20
1.170462078
 11
20.7825395137
 21
1.1682766535
  0
LINE
  5
223
100
AcDbEntity
  8
0
100
AcDbLine
 62
7
  6
CONTINUOUS
 10
20.8177513651
 20
1.1693297793
 11
20.947965719
 21
1.1693297793
  0
LINE
  5
224
100
AcDbEntity
  8
0
100
AcDbLine
 62
7
  6
CONTINUOUS
 10
20.6875370113
 20
1.170462078
 11
20.5573226574
 21
1.170462078
  0
LINE
  5
225
100
AcDbEntity
  8
0
100
AcDbLine
 62
7
  6
CONTINUOUS
 10
20.7486811426
 20
1.1987695462
 11
20.7486811426
 21
1.1432869085
  0
LINE
  5
226
100
AcDbEntity
  8
0
100
AcDbLine
 62
7
  6
CONTINUOUS
 10
20.7498134414
 20
1.1059210505
 11
20.7498134414
 21
0.9757066966
  0
LINE
  5
227
100
AcDbEntity
  8
0
100
AcDbLine
 62
7
  6
CONTINUOUS
 10
20.7486811426
 20
1.2338708068
 11
20.7486811426
 21
1.3640851607
  0
LINE
  5
228
100
AcDbEntity
  8
0
100
AcDbLine
 62
7
  6
CONTINUOUS
 10
21.0702539817
 20
1.2701043662
 11
21.4790138229
 21
1.3448360823
  0
LINE
  5
229
100
AcDbEntity
  8
0
100
AcDbLine
 62
7
  6
CONTINUOUS
 10
21.4790138229
 20
1.3448360823
 11
21.4790138229
 21
0.9779712941
  0
LINE
  5
22A
100
AcDbEntity
  8
0
100
AcDbLine
 62
7
  6
CONTINUOUS
 10
21.4790138229
 20
0.9779712941
 11
21.069121683
 21
1.0617614
  0
LINE
  5
22B
100
AcDbEntity
  8
0
100
AcDbLine
 62
7
  6
CONTINUOUS
 10
21.0702539817
 20
1.2701043662
 11
21.069121683
 21
1.0617614
  0
LINE
  5
22C
100
AcDbEntity
  8
0
100
AcDbLine
 62
7
  6
CONTINUOUS
 10
21.4790138229
 20
1.1693297793
 11
21.3159628059
 21
1.1693297793
  0
LINE
  5
22D
100
AcDbEntity
  8
0
100
AcDbLine
 62
7
  6
CONTINUOUS
 10
21.2876553377
 20
1.1693297793
 11
21.2502894796
 21
1.1693297793
  0
LINE
  5
22E
100
AcDbEntity
  8
0
100
AcDbLine
 62
7
  6
CONTINUOUS
 10
21.2208497126
 20
1.1659328831
 11
21.0713862804
 21
1.1659328831
  0
LINE
  5
22F
100
AcDbEntity
  8
0
100
AcDbLine
 62
7
  6
CONTINUOUS
 10
20.4796138713
 20
1.5284908897
 11
20.4766766948
 21
0.9294458646
  0
ENDBLK
  5
230
100
AcDbEntity
  8
0
  6
BYBLOCK
 62
0
100
AcDbBlockEnd
  0
BLOCK
  5
231
100
AcDbEntity
  8
0
100
AcDbBlockBegin
  2
*T1
 70
1
 10
0.0
 20
0.0
  3
*T1
  1

  0
LINE
  5
232
100
AcDbEntity
  8
0
100
AcDbLine
 62
2
  6
CONTINUOUS
 10
9.275
 20
0.0
 11
-0.0
 21
0.0
  0
LINE
  5
233
100
AcDbEntity
  8
0
100
AcDbLine
 62
2
  6
CONTINUOUS
 10
9.275
 20
0.0
 11
9.275
 21
1.25
  0
LINE
  5
234
100
AcDbEntity
  8
0
100
AcDbLine
 62
2
  6
CONTINUOUS
 10
9.275
 20
0.625
 11
-0.0
 21
0.625
  0
LINE
  5
235
100
AcDbEntity
  8
0
100
AcDbLine
 62
2
  6
CONTINUOUS
 10
9.275
 20
1.25
 11
-0.0
 21
1.25
  0
LINE
  5
236
100
AcDbEntity
  8
0
100
AcDbLine
 62
2
  6
CONTINUOUS
 10
6.8
 20
0.0
 11
6.8
 21
1.25
  0
LINE
  5
237
100
AcDbEntity
  8
0
100
AcDbLine
 62
2
  6
CONTINUOUS
 10
6.4
 20
0.0
 11
6.4
 21
0.625
  0
LINE
  5
238
100
AcDbEntity
  8
0
100
AcDbLine
 62
2
  6
CONTINUOUS
 10
5.9
 20
0.0
 11
5.9
 21
0.625
  0
LINE
  5
239
100
AcDbEntity
  8
0
100
AcDbLine
 62
2
  6
CONTINUOUS
 10
5.2
 20
0.0
 11
5.2
 21
0.625
  0
LINE
  5
23A
100
AcDbEntity
  8
0
100
AcDbLine
 62
2
  6
CONTINUOUS
 10
4.1
 20
0.0
 11
4.1
 21
1.25
  0
LINE
  5
23B
100
AcDbEntity
  8
0
100
AcDbLine
 62
2
  6
CONTINUOUS
 10
-0.0
 20
0.0
 11
-0.0
 21
1.25
  0
MTEXT
  5
23C
100
AcDbEntity
  8
0
100
AcDbMText
 62
2
  6
CONTINUOUS
  7
STANDARD
 71
2
 72
1
 10
6.6
 20
0.325
 30
0.0
 11
1.0
 21
0.0
 31
0.0
 44
0.9
  1
2
 40
0.125
 41
0.2
  0
MTEXT
  5
23D
100
AcDbEntity
  8
0
100
AcDbMText
 62
2
  6
CONTINUOUS
  7
STANDARD
 71
2
 72
1
 10
6.15
 20
0.325
 30
0.0
 11
1.0
 21
0.0
 31
0.0
 44
0.9
  1
C
 40
0.125
 41
0.2
  0
MTEXT
  5
23E
100
AcDbEntity
  8
0
100
AcDbMText
 62
2
  6
CONTINUOUS
  7
STANDARD
 71
2
 72
1
 10
5.55
 20
0.325
 30
0.0
 11
1.0
 21
0.0
 31
0.0
 44
0.9
  1
2.000
 40
0.125
 41
1.0
  0
MTEXT
  5
23F
100
AcDbEntity
  8
0
100
AcDbMText
 62
2
  6
CONTINUOUS
  7
STANDARD
 71
2
 72
1
 10
4.65
 20
0.325
 30
0.0
 11
1.0
 21
0.0
 31
0.0
 44
0.9
  1
Sep-10-19
 40
0.125
 41
1.8
  0
MTEXT
  5
240
100
AcDbEntity
  8
0
100
AcDbMText
 62
2
  6
CONTINUOUS
  7
STANDARD
 71
2
 72
1
 10
2.05
 20
0.4625
 30
0.0
 11
1.0
 21
0.0
 31
0.0
 44
0.9
  1
T-11A Gasket mount Sun\PDirect mount, cross pilot
 40
0.125
 41
5.0
  0
MTEXT
  5
241
100
AcDbEntity
  8
0
100
AcDbMText
 62
2
  6
CONTINUOUS
  7
STANDARD
 71
1
 72
1
 10
6.45
 20
0.5625
 30
0.0
 11
1.0
 21
0.0
 31
0.0
 44
0.9
  1
SHEET
 40
0.06
 41
0.48
  0
MTEXT
  5
242
100
AcDbEntity
  8
0
100
AcDbMText
 62
2
  6
CONTINUOUS
  7
STANDARD
 71
1
 72
1
 10
5.95
 20
0.5625
 30
0.0
 11
1.0
 21
0.0
 31
0.0
 44
0.9
  1
DWG SIZE
 40
0.06
 41
0.768
  0
MTEXT
  5
243
100
AcDbEntity
  8
0
100
AcDbMText
 62
2
  6
CONTINUOUS
  7
STANDARD
 71
1
 72
1
 10
5.25
 20
0.5625
 30
0.0
 11
1.0
 21
0.0
 31
0.0
 44
0.9
  1
SCALE
 40
0.06
 41
0.48
  0
MTEXT
  5
244
100
AcDbEntity
  8
0
100
AcDbMText
 62
2
  6
CONTINUOUS
  7
STANDARD
 71
1
 72
1
 10
4.15
 20
0.5625
 30
0.0
 11
1.0
 21
0.0
 31
0.0
 44
0.9
  1
DATE
 40
0.06
 41
0.384
  0
MTEXT
  5
245
100
AcDbEntity
  8
0
100
AcDbMText
 62
2
  6
CONTINUOUS
  7
STANDARD
 71
1
 72
1
 10
0.05
 20
0.5625
 30
0.0
 11
1.0
 21
0.0
 31
0.0
 44
0.9
  1
DESCRIPTION
 40
0.06
 41
1.056
  0
MTEXT
  5
246
100
AcDbEntity
  8
0
100
AcDbMText
 62
2
  6
CONTINUOUS
  7
STANDARD
 71
2
 72
1
 10
5.45
 20
1.0375
 30
0.0
 11
1.0
 21
0.0
 31
0.0
 44
0.9
  1
ALL DIMENSIONS IN INCH\PVIEWS ARE THIRD ANGLE
 40
0.12
 41
4.224
  0
MTEXT
  5
247
100
AcDbEntity
  8
0
100
AcDbMText
 62
2
  6
CONTINUOUS
  7
STANDARD
 71
2
 72
1
 10
2.05
 20
0.95
 30
0.0
 11
1.0
 21
0.0
 31
0.0
 44
0.9
  1
ZTD
 40
0.125
 41
0.6
  0
MTEXT
  5
248
100
AcDbEntity
  8
0
100
AcDbMText
 62
2
  6
CONTINUOUS
  7
STANDARD
 71
1
 72
1
 10
0.05
 20
1.1875
 30
0.0
 11
1.0
 21
0.0
 31
0.0
 44
0.9
  1
MODEL
 40
0.06
 41
0.48
  0
ENDBLK
  5
249
100
AcDbEntity
  8
0
  6
BYBLOCK
 62
0
100
AcDbBlockEnd
  0
BLOCK
  5
24A
100
AcDbEntity
  8
0
100
AcDbBlockBegin
  2
*T2
 70
1
 10
0.0
 20
0.0
  3
*T2
  1

  0
LINE
  5
24B
100
AcDbEntity
  8
0
100
AcDbLine
 62
2
  6
CONTINUOUS
 10
0.0
 20
0.0
 11
9.055
 21
0.0
  0
LINE
  5
24C
100
AcDbEntity
  8
0
100
AcDbLine
 62
2
  6
CONTINUOUS
 10
0.0
 20
0.0
 11
0.0
 21
-2.594
  0
LINE
  5
24D
100
AcDbEntity
  8
0
100
AcDbLine
 62
2
  6
CONTINUOUS
 10
0.0
 20
-0.344
 11
9.055
 21
-0.344
  0
LINE
  5
24E
100
AcDbEntity
  8
0
100
AcDbLine
 62
2
  6
CONTINUOUS
 10
0.0
 20
-0.594
 11
9.055
 21
-0.594
  0
LINE
  5
24F
100
AcDbEntity
  8
0
100
AcDbLine
 62
2
  6
CONTINUOUS
 10
0.0
 20
-0.844
 11
9.055
 21
-0.844
  0
LINE
  5
250
100
AcDbEntity
  8
0
100
AcDbLine
 62
2
  6
CONTINUOUS
 10
0.0
 20
-1.094
 11
9.055
 21
-1.094
  0
LINE
  5
251
100
AcDbEntity
  8
0
100
AcDbLine
 62
2
  6
CONTINUOUS
 10
0.0
 20
-1.344
 11
9.055
 21
-1.344
  0
LINE
  5
252
100
AcDbEntity
  8
0
100
AcDbLine
 62
2
  6
CONTINUOUS
 10
0.0
 20
-1.594
 11
9.055
 21
-1.594
  0
LINE
  5
253
100
AcDbEntity
  8
0
100
AcDbLine
 62
2
  6
CONTINUOUS
 10
0.0
 20
-1.844
 11
9.055
 21
-1.844
  0
LINE
  5
254
100
AcDbEntity
  8
0
100
AcDbLine
 62
2
  6
CONTINUOUS
 10
0.0
 20
-2.094
 11
9.055
 21
-2.094
  0
LINE
  5
255
100
AcDbEntity
  8
0
100
AcDbLine
 62
2
  6
CONTINUOUS
 10
0.0
 20
-2.344
 11
9.055
 21
-2.344
  0
LINE
  5
256
100
AcDbEntity
  8
0
100
AcDbLine
 62
2
  6
CONTINUOUS
 10
0.0
 20
-2.594
 11
9.055
 21
-2.594
  0
LINE
  5
257
100
AcDbEntity
  8
0
100
AcDbLine
 62
2
  6
CONTINUOUS
 10
3.055
 20
0.0
 11
3.055
 21
-2.594
  0
LINE
  5
258
100
AcDbEntity
  8
0
100
AcDbLine
 62
2
  6
CONTINUOUS
 10
9.055
 20
0.0
 11
9.055
 21
-2.594
  0
MTEXT
  5
259
100
AcDbEntity
  8
0
100
AcDbMText
 62
2
  6
CONTINUOUS
  7
STANDARD
 71
2
 72
1
 10
1.5275
 20
-0.0995
 30
0.0
 11
1.0
 21
0.0
 31
0.0
 44
0.9
  1
Technical Data
 40
0.145
 41
3.248
  0
MTEXT
  5
25A
100
AcDbEntity
  8
0
100
AcDbMText
 62
2
  6
CONTINUOUS
  7
STANDARD
 71
2
 72
1
 10
4.555
 20
-0.0995
 30
0.0
 11
1.0
 21
0.0
 31
0.0
 44
0.9
  1
U.S. Units
 40
0.145
 41
2.32
  0
MTEXT
  5
25B
100
AcDbEntity
  8
0
100
AcDbMText
 62
2
  6
CONTINUOUS
  7
STANDARD
 71
2
 72
1
 10
7.555
 20
-0.0995
 30
0.0
 11
1.0
 21
0.0
 31
0.0
 44
0.9
  1
Metric Units
 40
0.145
 41
2.784
  0
MTEXT
  5
25C
100
AcDbEntity
  8
0
100
AcDbMText
 62
2
  6
CONTINUOUS
  7
STANDARD
 71
2
 72
1
 10
1.5275
 20
-0.4065
 30
0.0
 11
1.0
 21
0.0
 31
0.0
 44
0.9
  1
Cavity
 40
0.125
 41
1.2
  0
MTEXT
  5
25D
100
AcDbEntity
  8
0
100
AcDbMText
 62
2
  6
CONTINUOUS
  7
STANDARD
 71
2
 72
1
 10
6.055
 20
-0.4065
 30
0.0
 11
1.0
 21
0.0
 31
0.0
 44
0.9
  1
T-11A
 40
0.125
 41
1.0
  0
MTEXT
  5
25E
100
AcDbEntity
  8
0
100
AcDbMText
 62
2
  6
CONTINUOUS
  7
STANDARD
 71
2
 72
1
 10
1.5275
 20
-0.6565
 30
0.0
 11
1.0
 21
0.0
 31
0.0
 44
0.9
  1
Body Features
 40
0.125
 41
2.6
  0
MTEXT
  5
25F
100
AcDbEntity
  8
0
100
AcDbMText
 62
2
  6
CONTINUOUS
  7
STANDARD
 71
2
 72
1
 10
6.055
 20
-0.6565
 30
0.0
 11
1.0
 21
0.0
 31
0.0
 44
0.9
  1
Direct mount, cross pilot
 40
0.125
 41
5.0
  0
MTEXT
  5
260
100
AcDbEntity
  8
0
100
AcDbMText
 62
2
  6
CONTINUOUS
  7
STANDARD
 71
2
 72
1
 10
1.5275
 20
-0.9065
 30
0.0
 11
1.0
 21
0.0
 31
0.0
 44
0.9
  1
Body Type
 40
0.125
 41
1.8
  0
MTEXT
  5
261
100
AcDbEntity
  8
0
100
AcDbMText
 62
2
  6
CONTINUOUS
  7
STANDARD
 71
2
 72
1
 10
6.055
 20
-0.9065
 30
0.0
 11
1.0
 21
0.0
 31
0.0
 44
0.9
  1
Gasket mount
 40
0.125
 41
2.4
  0
MTEXT
  5
262
100
AcDbEntity
  8
0
100
AcDbMText
 62
2
  6
CONTINUOUS
  7
STANDARD
 71
2
 72
1
 10
1.5275
 20
-1.1565
 30
0.0
 11
1.0
 21
0.0
 31
0.0
 44
0.9
  1
Interface
 40
0.125
 41
1.8
  0
MTEXT
  5
263
100
AcDbEntity
  8
0
100
AcDbMText
 62
2
  6
CONTINUOUS
  7
STANDARD
 71
2
 72
1
 10
6.055
 20
-1.1565
 30
0.0
 11
1.0
 21
0.0
 31
0.0
 44
0.9
  1
Sun
 40
0.125
 41
0.6
  0
MTEXT
  5
264
100
AcDbEntity
  8
0
100
AcDbMText
 62
2
  6
CONTINUOUS
  7
STANDARD
 71
2
 72
1
 10
1.5275
 20
-1.4065
 30
0.0
 11
1.0
 21
0.0
 31
0.0
 44
0.9
  1
Open Cavity Quantity
 40
0.125
 41
4.0
  0
MTEXT
  5
265
100
AcDbEntity
  8
0
100
AcDbMText
 62
2
  6
CONTINUOUS
  7
STANDARD
 71
2
 72
1
 10
6.055
 20
-1.4065
 30
0.0
 11
1.0
 21
0.0
 31
0.0
 44
0.9
  1
1
 40
0.125
 41
0.2
  0
MTEXT
  5
266
100
AcDbEntity
  8
0
100
AcDbMText
 62
2
  6
CONTINUOUS
  7
STANDARD
 71
2
 72
1
 10
1.5275
 20
-1.6565
 30
0.0
 11
1.0
 21
0.0
 31
0.0
 44
0.9
  1
Weight
 40
0.125
 41
1.2
  0
MTEXT
  5
267
100
AcDbEntity
  8
0
100
AcDbMText
 62
2
  6
CONTINUOUS
  7
STANDARD
 71
2
 72
1
 10
4.555
 20
-1.6565
 30
0.0
 11
1.0
 21
0.0
 31
0.0
 44
0.9
  1
0.847 lb.
 40
0.125
 41
1.8
  0
MTEXT
  5
268
100
AcDbEntity
  8
0
100
AcDbMText
 62
2
  6
CONTINUOUS
  7
STANDARD
 71
2
 72
1
 10
7.555
 20
-1.6565
 30
0.0
 11
1.0
 21
0.0
 31
0.0
 44
0.9
  1
0,384 kg.
 40
0.125
 41
1.8
  0
MTEXT
  5
269
100
AcDbEntity
  8
0
100
AcDbMText
 62
2
  6
CONTINUOUS
  7
STANDARD
 71
2
 72
1
 10
1.5275
 20
-1.9065
 30
0.0
 11
1.0
 21
0.0
 31
0.0
 44
0.9
  1
Mounting Hole Diameter
 40
0.125
 41
4.4
  0
MTEXT
  5
26A
100
AcDbEntity
  8
0
100
AcDbMText
 62
2
  6
CONTINUOUS
  7
STANDARD
 71
2
 72
1
 10
4.555
 20
-1.9065
 30
0.0
 11
1.0
 21
0.0
 31
0.0
 44
0.9
  1
.34 in.
 40
0.125
 41
1.4
  0
MTEXT
  5
26B
100
AcDbEntity
  8
0
100
AcDbMText
 62
2
  6
CONTINUOUS
  7
STANDARD
 71
2
 72
1
 10
7.555
 20
-1.9065
 30
0.0
 11
1.0
 21
0.0
 31
0.0
 44
0.9
  1
8.6 mm
 40
0.125
 41
1.2
  0
MTEXT
  5
26C
100
AcDbEntity
  8
0
100
AcDbMText
 62
2
  6
CONTINUOUS
  7
STANDARD
 71
2
 72
1
 10
1.5275
 20
-2.1565
 30
0.0
 11
1.0
 21
0.0
 31
0.0
 44
0.9
  1
Mounting Hole Depth
 40
0.125
 41
3.8
  0
MTEXT
  5
26D
100
AcDbEntity
  8
0
100
AcDbMText
 62
2
  6
CONTINUOUS
  7
STANDARD
 71
2
 72
1
 10
6.055
 20
-2.1565
 30
0.0
 11
1.0
 21
0.0
 31
0.0
 44
0.9
  1
Through
 40
0.125
 41
1.4
  0
MTEXT
  5
26E
100
AcDbEntity
  8
0
100
AcDbMText
 62
2
  6
CONTINUOUS
  7
STANDARD
 71
2
 72
1
 10
1.5275
 20
-2.4065
 30
0.0
 11
1.0
 21
0.0
 31
0.0
 44
0.9
  1
Mounting Hole Quantity
 40
0.125
 41
4.4
  0
MTEXT
  5
26F
100
AcDbEntity
  8
0
100
AcDbMText
 62
2
  6
CONTINUOUS
  7
STANDARD
 71
2
 72
1
 10
6.055
 20
-2.4065
 30
0.0
 11
1.0
 21
0.0
 31
0.0
 44
0.9
  1
2
 40
0.125
 41
0.2
  0
ENDBLK
  5
270
100
AcDbEntity
  8
0
  6
BYBLOCK
 62
0
100
AcDbBlockEnd
  0
BLOCK
  5
271
100
AcDbEntity
  8
0
100
AcDbBlockBegin
  2
*T3
 70
1
 10
0.0
 20
0.0
  3
*T3
  1

  0
LINE
  5
272
100
AcDbEntity
  8
0
100
AcDbLine
 62
2
  6
CONTINUOUS
 10
0.0
 20
0.0
 11
4.6
 21
0.0
  0
LINE
  5
273
100
AcDbEntity
  8
0
100
AcDbLine
 62
2
  6
CONTINUOUS
 10
0.0
 20
0.0
 11
0.0
 21
-0.93775
  0
LINE
  5
274
100
AcDbEntity
  8
0
100
AcDbLine
 62
2
  6
CONTINUOUS
 10
0.0
 20
-0.34375
 11
4.6
 21
-0.34375
  0
LINE
  5
275
100
AcDbEntity
  8
0
100
AcDbLine
 62
2
  6
CONTINUOUS
 10
0.0
 20
-0.68775
 11
4.6
 21
-0.68775
  0
LINE
  5
276
100
AcDbEntity
  8
0
100
AcDbLine
 62
2
  6
CONTINUOUS
 10
0.0
 20
-0.93775
 11
4.6
 21
-0.93775
  0
LINE
  5
277
100
AcDbEntity
  8
0
100
AcDbLine
 62
2
  6
CONTINUOUS
 10
1.3
 20
-0.34375
 11
1.3
 21
-0.93775
  0
LINE
  5
278
100
AcDbEntity
  8
0
100
AcDbLine
 62
2
  6
CONTINUOUS
 10
3.3
 20
-0.34375
 11
3.3
 21
-0.93775
  0
LINE
  5
279
100
AcDbEntity
  8
0
100
AcDbLine
 62
2
  6
CONTINUOUS
 10
4.6
 20
0.0
 11
4.6
 21
-0.93775
  0
MTEXT
  5
27A
100
AcDbEntity
  8
0
100
AcDbMText
 62
2
  6
CONTINUOUS
  7
STANDARD
 71
2
 72
1
 10
2.3
 20
-0.099375
 30
0.0
 11
1.0
 21
0.0
 31
0.0
 44
0.9
  1
Port Headings
 40
0.145
 41
3.016
  0
MTEXT
  5
27B
100
AcDbEntity
  8
0
100
AcDbMText
 62
2
  6
CONTINUOUS
  7
STANDARD
 71
2
 72
1
 10
0.65
 20
-0.44325
 30
0.0
 11
1.0
 21
0.0
 31
0.0
 44
0.9
  1
Product
 40
0.145
 41
1.624
  0
MTEXT
  5
27C
100
AcDbEntity
  8
0
100
AcDbMText
 62
2
  6
CONTINUOUS
  7
STANDARD
 71
2
 72
1
 10
2.3
 20
-0.44325
 30
0.0
 11
1.0
 21
0.0
 31
0.0
 44
0.9
  1
Port
 40
0.145
 41
0.928
  0
MTEXT
  5
27D
100
AcDbEntity
  8
0
100
AcDbMText
 62
2
  6
CONTINUOUS
  7
STANDARD
 71
2
 72
1
 10
3.95
 20
-0.44325
 30
0.0
 11
1.0
 21
0.0
 31
0.0
 44
0.9
  1
Size
 40
0.145
 41
0.928
  0
MTEXT
  5
27E
100
AcDbEntity
  8
0
100
AcDbMText
 62
2
  6
CONTINUOUS
  7
STANDARD
 71
2
 72
1
 10
0.65
 20
-0.75025
 30
0.0
 11
1.0
 21
0.0
 31
0.0
 44
0.9
  1
ZTD
 40
0.125
 41
0.6
  0
MTEXT
  5
27F
100
AcDbEntity
  8
0
100
AcDbMText
 62
2
  6
CONTINUOUS
  7
STANDARD
 71
2
 72
1
 10
2.3
 20
-0.75025
 30
0.0
 11
1.0
 21
0.0
 31
0.0
 44
0.9
  1
Ports C2, V1, V2
 40
0.125
 41
3.2
  0
MTEXT
  5
280
100
AcDbEntity
  8
0
100
AcDbMText
 62
2
  6
CONTINUOUS
  7
STANDARD
 71
2
 72
1
 10
3.95
 20
-0.75025
 30
0.0
 11
1.0
 21
0.0
 31
0.0
 44
0.9
  1
3/8" BSPP
 40
0.125
 41
1.8
  0
ENDBLK
  5
281
100
AcDbEntity
  8
0
  6
BYBLOCK
 62
0
100
AcDbBlockEnd
  0
ENDSEC
  0
SECTION
  2
ENTITIES
  0
IMAGE
  5
282
100
AcDbEntity
  8
0
100
AcDbRasterImage
 62
7
  6
CONTINUOUS
 10
19.2297077316
 20
0.3094318264
 30
0.0
 11
0.0066666667
 21
0.0
 31
0.0
 12
0.0
 22
0.0066666667
 32
0.0
 13
369.0
 23
92.0
340
       2ED
 70
9
280
0
281
50
282
50
283
0
360
       2E7
 71
1
 91
2
 14
-0.5
 24
-0.5
 14
368.5
 24
91.5
  0
INSERT
  5
283
100
AcDbEntity
  8
0
100
AcDbBlockReference
 62
2
  6
CONTINUOUS
  2
SUN_FIRST_THIRD_ANGLE_BL0
 10
20.4816717061
 20
1.2289683772
  0
ACAD_TABLE
  5
284
100
AcDbEntity
  8
0
 62
2
  6
CONTINUOUS
100
AcDbBlockReference
  2
*T1
 10
12.42375
 20
0.30125
 30
0.0
100
AcDbTable
342
       2EF
343
20A
 11
1.0
 21
0.0
 31
0.0
 90
6
 91
4
 92
6
 93
20
 94
0
 95
0
 96
0
 70
1
 41
0.0
141
0.525
141
0.1
141
0.525
141
0.1
142
4.1
142
1.1
142
0.7
142
0.5
142
0.4
142
2.475
171
1
172
0
173
0
174
0
175
1
176
1
 91
33
178
0
145
0.0
301
CELL_VALUE
 90
4
  1
T-11A Gasket mount Sun\PDirect mount, cross pilot
304
ACVALUE_END
170
2
140
0.125
171
1
172
0
173
0
174
0
175
1
176
1
 91
33
178
0
145
0.0
301
CELL_VALUE
 90
4
  1
Sep-10-19
304
ACVALUE_END
170
5
140
0.125
171
1
172
0
173
0
174
0
175
1
176
1
 91
33
178
0
145
0.0
301
CELL_VALUE
 90
4
  1
2.000
304
ACVALUE_END
170
5
140
0.125
171
1
172
0
173
0
174
0
175
1
176
1
 91
33
178
0
145
0.0
301
CELL_VALUE
 90
4
  1
C
304
ACVALUE_END
170
5
140
0.125
171
1
172
0
173
0
174
0
175
1
176
1
 91
33
178
0
145
0.0
301
CELL_VALUE
 90
4
  1
2
304
ACVALUE_END
170
5
140
0.125
171
1
172
0
173
0
174
0
175
1
176
1
 91
33
178
0
145
0.0
301
CELL_VALUE
 90
4
  1
 
304
ACVALUE_END
170
1
140
0.125
171
1
172
0
173
0
174
0
175
1
176
1
 91
33
178
0
145
0.0
301
CELL_VALUE
 90
4
  1
DESCRIPTION
304
ACVALUE_END
170
1
140
0.06
171
1
172
0
173
0
174
0
175
1
176
1
 91
33
178
0
145
0.0
301
CELL_VALUE
 90
4
  1
DATE
304
ACVALUE_END
170
1
140
0.06
171
1
172
0
173
0
174
0
175
1
176
1
 91
33
178
0
145
0.0
301
CELL_VALUE
 90
4
  1
SCALE
304
ACVALUE_END
170
1
140
0.06
171
1
172
0
173
0
174
0
175
1
176
1
 91
33
178
0
145
0.0
301
CELL_VALUE
 90
4
  1
DWG SIZE
304
ACVALUE_END
170
1
140
0.06
171
1
172
0
173
0
174
0
175
1
176
1
 91
33
178
0
145
0.0
301
CELL_VALUE
 90
4
  1
SHEET
304
ACVALUE_END
170
1
140
0.06
171
1
172
0
173
0
174
0
175
1
176
1
 91
33
178
0
145
0.0
301
CELL_VALUE
 90
4
  1
 
304
ACVALUE_END
170
1
140
0.125
171
1
172
0
173
0
174
0
175
1
176
1
 91
33
178
0
145
0.0
301
CELL_VALUE
 90
4
  1
ZTD
304
ACVALUE_END
170
5
140
0.125
171
1
172
0
173
0
174
0
175
4
176
1
 91
33
178
0
145
0.0
301
CELL_VALUE
 90
4
  1
ALL DIMENSIONS IN INCH\PVIEWS ARE THIRD ANGLE
304
ACVALUE_END
170
5
140
0.12
171
1
172
0
173
1
174
0
175
1
176
1
 91
1
178
0
145
0.0
170
1
171
1
172
0
173
1
174
0
175
1
176
1
 91
1
178
0
145
0.0
170
1
171
1
172
0
173
1
174
0
175
1
176
1
 91
1
178
0
145
0.0
170
5
171
1
172
0
173
0
174
0
175
1
176
1
 91
33
178
0
145
0.0
301
CELL_VALUE
 90
4
  1
 
304
ACVALUE_END
170
1
140
0.125
171
1
172
0
173
0
174
0
175
1
176
1
 91
33
178
0
145
0.0
301
CELL_VALUE
 90
4
  1
MODEL
304
ACVALUE_END
170
1
140
0.06
171
1
172
0
173
0
174
0
175
1
176
1
 91
33
178
0
145
0.0
301
CELL_VALUE
 90
4
  1
 
304
ACVALUE_END
170
1
140
0.125
171
1
172
0
173
0
174
0
175
1
176
1
 91
33
178
0
145
0.0
301
CELL_VALUE
 90
4
  1
 
304
ACVALUE_END
170
1
140
0.125
171
1
172
0
173
0
174
0
175
1
176
1
 91
33
178
0
145
0.0
301
CELL_VALUE
 90
4
  1
 
304
ACVALUE_END
170
1
140
0.125
171
1
172
0
173
0
174
0
175
1
176
1
 91
33
178
0
145
0.0
301
CELL_VALUE
 90
4
  1
 
304
ACVALUE_END
170
1
140
0.125
171
1
172
0
173
0
174
0
175
1
176
1
 91
33
178
0
145
0.0
301
CELL_VALUE
 90
4
  1
 
304
ACVALUE_END
170
1
140
0.125
  0
ACAD_TABLE
  5
285
100
AcDbEntity
  8
0
 62
2
  6
CONTINUOUS
100
AcDbBlockReference
  2
*T2
 10
12.4237499994
 20
16.47875
 30
0.0
100
AcDbTable
342
       2EE
343
20B
 11
1.0
 21
0.0
 31
0.0
 90
22
 91
10
 92
3
 93
16
 94
0
 95
0
 96
0
 41
0.028
141
0.344
141
0.25
141
0.25
141
0.25
141
0.25
141
0.25
141
0.25
141
0.25
141
0.25
141
0.25
142
3.055
142
3.0
142
3.0
171
1
172
0
173
0
174
0
175
1
176
1
 91
33
178
0
145
0.0
301
CELL_VALUE
 90
4
  1
Technical Data
304
ACVALUE_END
170
5
140
0.145
171
1
172
0
173
0
174
0
175
1
176
1
 91
33
178
0
145
0.0
301
CELL_VALUE
 90
4
  1
U.S. Units
304
ACVALUE_END
170
5
140
0.145
171
1
172
0
173
0
174
0
175
1
176
1
 91
33
178
0
145
0.0
301
CELL_VALUE
 90
4
  1
Metric Units
304
ACVALUE_END
170
5
140
0.145
171
1
172
0
173
0
174
0
175
1
176
1
 91
33
178
0
145
0.0
301
CELL_VALUE
 90
4
  1
Cavity
304
ACVALUE_END
170
5
140
0.125
171
1
172
0
173
0
174
0
175
2
176
1
 91
33
178
0
145
0.0
301
CELL_VALUE
 90
4
  1
T-11A
304
ACVALUE_END
170
5
140
0.125
171
1
172
0
173
1
174
0
175
1
176
1
 91
1
178
0
145
0.0
170
1
171
1
172
0
173
0
174
0
175
1
176
1
 91
33
178
0
145
0.0
301
CELL_VALUE
 90
4
  1
Body Features
304
ACVALUE_END
170
5
140
0.125
171
1
172
0
173
0
174
0
175
2
176
1
 91
33
178
0
145
0.0
301
CELL_VALUE
 90
4
  1
Direct mount, cross pilot
304
ACVALUE_END
170
5
140
0.125
171
1
172
0
173
1
174
0
175
1
176
1
 91
1
178
0
145
0.0
170
1
171
1
172
0
173
0
174
0
175
1
176
1
 91
33
178
0
145
0.0
301
CELL_VALUE
 90
4
  1
Body Type
304
ACVALUE_END
170
5
140
0.125
171
1
172
0
173
0
174
0
175
2
176
1
 91
33
178
0
145
0.0
301
CELL_VALUE
 90
4
  1
Gasket mount
304
ACVALUE_END
170
5
140
0.125
171
1
172
0
173
1
174
0
175
1
176
1
 91
1
178
0
145
0.0
170
1
171
1
172
0
173
0
174
0
175
1
176
1
 91
33
178
0
145
0.0
301
CELL_VALUE
 90
4
  1
Interface
304
ACVALUE_END
170
5
140
0.125
171
1
172
0
173
0
174
0
175
2
176
1
 91
33
178
0
145
0.0
301
CELL_VALUE
 90
4
  1
Sun
304
ACVALUE_END
170
5
140
0.125
171
1
172
0
173
1
174
0
175
1
176
1
 91
1
178
0
145
0.0
170
1
171
1
172
0
173
0
174
0
175
1
176
1
 91
33
178
0
145
0.0
301
CELL_VALUE
 90
4
  1
Open Cavity Quantity
304
ACVALUE_END
170
5
140
0.125
171
1
172
0
173
0
174
0
175
2
176
1
 91
33
178
0
145
0.0
301
CELL_VALUE
 90
4
  1
1
304
ACVALUE_END
170
5
140
0.125
171
1
172
0
173
1
174
0
175
1
176
1
 91
1
178
0
145
0.0
170
1
171
1
172
0
173
0
174
0
175
1
176
1
 91
33
178
0
145
0.0
301
CELL_VALUE
 90
4
  1
Weight
304
ACVALUE_END
170
5
140
0.125
171
1
172
0
173
0
174
0
175
1
176
1
 91
33
178
0
145
0.0
301
CELL_VALUE
 90
4
  1
0.847 lb.
304
ACVALUE_END
170
5
140
0.125
171
1
172
0
173
0
174
0
175
1
176
1
 91
33
178
0
145
0.0
301
CELL_VALUE
 90
4
  1
0,384 kg.
304
ACVALUE_END
170
5
140
0.125
171
1
172
0
173
0
174
0
175
1
176
1
 91
33
178
0
145
0.0
301
CELL_VALUE
 90
4
  1
Mounting Hole Diameter
304
ACVALUE_END
170
5
140
0.125
171
1
172
0
173
0
174
0
175
1
176
1
 91
33
178
0
145
0.0
301
CELL_VALUE
 90
4
  1
.34 in.
304
ACVALUE_END
170
5
140
0.125
171
1
172
0
173
0
174
0
175
1
176
1
 91
33
178
0
145
0.0
301
CELL_VALUE
 90
4
  1
8.6 mm
304
ACVALUE_END
170
5
140
0.125
171
1
172
0
173
0
174
0
175
1
176
1
 91
33
178
0
145
0.0
301
CELL_VALUE
 90
4
  1
Mounting Hole Depth
304
ACVALUE_END
170
5
140
0.125
171
1
172
0
173
0
174
0
175
2
176
1
 91
33
178
0
145
0.0
301
CELL_VALUE
 90
4
  1
Through
304
ACVALUE_END
170
5
140
0.125
171
1
172
0
173
1
174
0
175
1
176
1
 91
1
178
0
145
0.0
170
1
171
1
172
0
173
0
174
0
175
1
176
1
 91
33
178
0
145
0.0
301
CELL_VALUE
 90
4
  1
Mounting Hole Quantity
304
ACVALUE_END
170
5
140
0.125
171
1
172
0
173
0
174
0
175
2
176
1
 91
33
178
0
145
0.0
301
CELL_VALUE
 90
4
  1
2
304
ACVALUE_END
170
5
140
0.125
171
1
172
0
173
1
174
0
175
1
176
1
 91
1
178
0
145
0.0
170
1
  0
ACAD_TABLE
  5
286
100
AcDbEntity
  8
0
 62
2
  6
CONTINUOUS
100
AcDbBlockReference
  2
*T3
 10
0.52125
 20
1.459
 30
0.0
100
AcDbTable
342
       2EE
343
20C
 11
1.0
 21
0.0
 31
0.0
 90
22
 91
3
 92
3
 93
16
 94
0
 95
0
 96
0
 41
0.05
141
0.34375
141
0.344
141
0.25
142
1.3
142
2.0
142
1.3
171
1
172
0
173
0
174
0
175
3
176
1
 91
33
178
0
145
0.0
301
CELL_VALUE
 90
4
  1
Port Headings
304
ACVALUE_END
170
5
140
0.145
171
1
172
0
173
1
174
0
175
1
176
1
 91
1
178
0
145
0.0
170
1
171
1
172
0
173
1
174
0
175
1
176
1
 91
1
178
0
145
0.0
170
1
171
1
172
0
173
0
174
0
175
1
176
1
 91
33
178
0
145
0.0
301
CELL_VALUE
 90
4
  1
Product
304
ACVALUE_END
170
5
140
0.145
171
1
172
0
173
0
174
0
175
1
176
1
 91
33
178
0
145
0.0
301
CELL_VALUE
 90
4
  1
Port
304
ACVALUE_END
170
5
140
0.145
171
1
172
0
173
0
174
0
175
1
176
1
 91
33
178
0
145
0.0
301
CELL_VALUE
 90
4
  1
Size
304
ACVALUE_END
170
5
140
0.145
171
1
172
0
173
0
174
0
175
1
176
1
 91
33
178
0
145
0.0
301
CELL_VALUE
 90
4
  1
ZTD
304
ACVALUE_END
170
5
140
0.125
171
1
172
0
173
0
174
0
175
1
176
1
 91
33
178
0
145
0.0
301
CELL_VALUE
 90
4
  1
Ports C2, V1, V2
304
ACVALUE_END
170
5
140
0.125
171
1
172
0
173
0
174
0
175
1
176
1
 91
33
178
0
145
0.0
301
CELL_VALUE
 90
4
  1
3/8" BSPP
304
ACVALUE_END
170
5
140
0.125
  0
MTEXT
  5
287
100
AcDbEntity
  8
0
100
AcDbMText
 62
2
  6
CONTINUOUS
  7
STANDARD
 71
1
 72
1
 10
0.52125
 20
5.75995
 30
0.0
 11
1.0
 21
0.0
 31
0.0
 44
0.6
  3
Notes\P \P1. Important: Carefully consider\P   the maximum system pressure. The\P   pressure rating of the manifold is\P   dependent on the manifold material,\P   with the port type/size a secondary\P   consideration. Manifolds\P   constructed of alu
  1
minum are not\P   rated for pressures higher than\P   3000 psi (210 bar), regardless of\P   the port type/size specified.
 40
0.1
 41
3.04
  0
LINE
  5
288
100
AcDbEntity
  8
0
100
AcDbLine
 62
7
  6
CONTINUOUS
 10
0.30125
 20
0.30125
 11
0.30125
 21
16.69875
  0
LINE
  5
289
100
AcDbEntity
  8
0
100
AcDbLine
 62
7
  6
CONTINUOUS
 10
0.30125
 20
0.30125
 11
21.69875
 21
0.30125
  0
LINE
  5
28A
100
AcDbEntity
  8
0
100
AcDbLine
 62
7
  6
CONTINUOUS
 10
0.30125
 20
16.69875
 11
21.69875
 21
16.69875
  0
LINE
  5
28B
100
AcDbEntity
  8
0
100
AcDbLine
 62
7
  6
CONTINUOUS
 10
21.69875
 20
0.30125
 11
21.69875
 21
16.69875
  0
LINE
  5
28C
100
AcDbEntity
  8
0
100
AcDbLine
 62
7
  6
CONTINUOUS
 10
8.8819094672
 20
5.2272667857
 11
11.1769492965
 21
5.068105233
  0
LINE
  5
28D
100
AcDbEntity
  8
0
100
AcDbLine
 62
7
  6
CONTINUOUS
 10
10.8230507035
 20
11.931894767
 11
8.8819094672
 21
10.0568962033
  0
LINE
  5
28E
100
AcDbEntity
  8
0
100
AcDbLine
 62
7
  6
CONTINUOUS
 10
8.8819094672
 20
10.0568962033
 11
8.8819094672
 21
5.2272667857
  0
LINE
  5
28F
100
AcDbEntity
  8
0
100
AcDbLine
 62
7
  6
CONTINUOUS
 10
13.1180905328
 20
11.7727332143
 11
11.1769492965
 21
9.8977346506
  0
LINE
  5
290
100
AcDbEntity
  8
0
100
AcDbLine
 62
4
  6
CONTINUOUS
 10
12.5693946107
 20
8.4048434102
 11
12.5538654811
 21
8.4043323099
  0
LINE
  5
291
100
AcDbEntity
  8
0
100
AcDbLine
 62
7
  6
CONTINUOUS
 10
11.1769492965
 20
5.068105233
 11
11.1769492965
 21
9.8977346506
  0
LINE
  5
292
100
AcDbEntity
  8
0
100
AcDbLine
 62
4
  6
CONTINUOUS
 10
12.5383363516
 20
8.6935989683
 11
12.6004528698
 21
8.753598921
  0
LINE
  5
293
100
AcDbEntity
  8
0
100
AcDbLine
 62
4
  6
CONTINUOUS
 10
12.5538654811
 20
8.4043323099
 11
12.5435127269
 21
8.4233100925
  0
LINE
  5
294
100
AcDbEntity
  8
0
100
AcDbLine
 62
4
  6
CONTINUOUS
 10
12.5383363516
 20
8.4472878735
 11
12.5383363516
 21
8.4762656493
  0
LINE
  5
295
100
AcDbEntity
  8
0
100
AcDbLine
 62
4
  6
CONTINUOUS
 10
12.6004528698
 20
8.536265602
 11
12.6004528698
 21
8.5072878262
  0
LINE
  5
296
100
AcDbEntity
  8
0
100
AcDbLine
 62
4
  6
CONTINUOUS
 10
12.5383363516
 20
8.4762656493
 11
12.5435127269
 21
8.51024342
  0
LINE
  5
297
100
AcDbEntity
  8
0
100
AcDbLine
 62
4
  6
CONTINUOUS
 10
12.6004528698
 20
8.5072878262
 11
12.5952764931
 21
8.4733100541
  0
LINE
  5
298
100
AcDbEntity
  8
0
100
AcDbLine
 62
4
  6
CONTINUOUS
 10
12.5435127269
 20
8.51024342
 11
12.5486891058
 21
8.5297323064
  0
LINE
  5
299
100
AcDbEntity
  8
0
100
AcDbLine
 62
4
  6
CONTINUOUS
 10
12.5952764931
 20
8.4733100541
 11
12.5849237402
 21
8.4343322863
  0
LINE
  5
29A
100
AcDbEntity
  8
0
100
AcDbLine
 62
4
  6
CONTINUOUS
 10
12.5849237402
 20
8.4343322863
 11
12.5693946107
 21
8.4048434102
  0
LINE
  5
29B
100
AcDbEntity
  8
0
100
AcDbLine
 62
7
  6
CONTINUOUS
 10
11.1769492965
 20
9.8977346506
 11
8.8819094672
 21
10.0568962033
  0
LINE
  5
29C
100
AcDbEntity
  8
0
100
AcDbLine
 62
4
  6
CONTINUOUS
 10
12.5901001164
 20
8.5697322734
 11
12.5952764931
 21
8.5602433817
  0
LINE
  5
29D
100
AcDbEntity
  8
0
100
AcDbLine
 62
4
  6
CONTINUOUS
 10
12.5435127269
 20
8.4233100925
 11
12.5383363516
 21
8.4472878735
  0
LINE
  5
29E
100
AcDbEntity
  8
0
100
AcDbLine
 62
4
  6
CONTINUOUS
 10
12.5952764931
 20
8.5602433817
 11
12.6004528698
 21
8.536265602
  0
LINE
  5
29F
100
AcDbEntity
  8
0
100
AcDbLine
 62
7
  6
CONTINUOUS
 10
13.1180905328
 20
6.9431037967
 11
13.1180905328
 21
11.7727332143
  0
LINE
  5
2A0
100
AcDbEntity
  8
0
100
AcDbLine
 62
7
  6
CONTINUOUS
 10
13.1180905328
 20
6.9431037967
 11
11.1769492965
 21
5.068105233
  0
LINE
  5
2A1
100
AcDbEntity
  8
0
100
AcDbLine
 62
7
  6
CONTINUOUS
 10
13.1180905328
 20
11.7727332143
 11
10.8230507035
 21
11.931894767
  0
ARC
  5
2A2
100
AcDbEntity
  8
0
100
AcDbCircle
 62
7
  6
CONTINUOUS
 10
10.1314014312
 20
6.0411914184
 40
0.8270664819
100
AcDbArc
 50
312.4118902305
 51
313.2505678172
  0
ARC
  5
2A3
100
AcDbEntity
  8
0
100
AcDbCircle
 62
7
  6
CONTINUOUS
 10
9.9604917226
 20
6.218126708
 40
0.8269329985
100
AcDbArc
 50
135.0429068909
 51
135.4811847298
  0
ARC
  5
2A4
100
AcDbEntity
  8
0
100
AcDbCircle
 62
7
  6
CONTINUOUS
 10
12.0583729601
 20
8.3026204147
 40
0.4480590116
100
AcDbArc
 50
338.3511839401
 51
339.8597368703
  0
SPLINE
  5
2A5
100
AcDbEntity
  8
0
100
AcDbSpline
 62
7
  6
CONTINUOUS
 70
0
 71
3
 72
15
 73
11
 74
0
 42
0.0000001
 43
0.0000001
 44
0.0000000001
 40
0.0
 40
0.0
 40
0.0
 40
0.0
 40
0.1324028024
 40
0.2626072896
 40
0.3905908434
 40
0.5162756028
 40
0.6394907438
 40
0.7606559572
 40
0.8805835402
 40
1.0
 40
1.0
 40
1.0
 40
1.0
 10
12.5311379888
 20
7.6907675494
 30
0.0
 10
12.5349441487
 20
7.6917796363
 30
0.0
 10
12.5424185004
 20
7.694081834
 30
0.0
 10
12.5532360645
 20
7.6983487324
 30
0.0
 10
12.5635375256
 20
7.7032962544
 30
0.0
 10
12.5733007446
 20
7.7088220491
 30
0.0
 10
12.5825279061
 20
7.7148372903
 30
0.0
 10
12.5912411937
 20
7.7212905381
 30
0.0
 10
12.5994901283
 20
7.7281504949
 30
0.0
 10
12.6047247598
 20
7.7329808442
 30
0.0
 10
12.6072791561
 20
7.7354491869
 30
0.0
  0
SPLINE
  5
2A6
100
AcDbEntity
  8
0
100
AcDbSpline
 62
7
  6
CONTINUOUS
 70
0
 71
3
 72
99
 73
95
 74
0
 42
0.0000001
 43
0.0000001
 44
0.0000000001
 40
0.0
 40
0.0
 40
0.0
 40
0.0
 40
0.0001750508
 40
0.0003194524
 40
0.0004329565
 40
0.0004780414
 40
0.0005153432
 40
0.0005449026
 40
0.0005667622
 40
0.000574818
 40
0.0005809653
 40
0.0005852107
 40
0.0005875643
 40
0.0005880934
 40
0.0005895725
 40
0.0005929202
 40
0.0005981434
 40
0.0006052397
 40
0.0006142051
 40
0.0006377254
 40
0.0007069951
 40
0.0008056564
 40
0.0009334173
 40
0.0010899932
 40
0.0014884854
 40
0.0019990171
 40
0.0026196055
 40
0.0033484091
 40
0.004183624
 40
0.0051229977
 40
0.0061641228
 40
0.0073046075
 40
0.0085420835
 40
0.0098742117
 40
0.0112986855
 40
0.0128132343
 40
0.0161036451
 40
0.0197298727
 40
0.0236787008
 40
0.0279370396
 40
0.0324918413
 40
0.0373302684
 40
0.0424416753
 40
0.0478172001
 40
0.0534479725
 40
0.0654393491
 40
0.0783508615
 40
0.0921288286
 40
0.1067207255
 40
0.1220792949
 40
0.1381609696
 40
0.1549224976
 40
0.1723236661
 40
0.1903249642
 40
0.2088871704
 40
0.227972293
 40
0.2675585575
 40
0.3087826212
 40
0.3513428548
 40
0.394936377
 40
0.4392581353
 40
0.4840012438
 40
0.5288578613
 40
0.5735199163
 40
0.6176796927
 40
0.6610308736
 40
0.7032689742
 40
0.7440916206
 40
0.7638783493
 40
0.7831980876
 40
0.8020131731
 40
0.8202852726
 40
0.8379758274
 40
0.8550461049
 40
0.8714552273
 40
0.8871618833
 40
0.9021233541
 40
0.9162928016
 40
0.9296229465
 40
0.9420590425
 40
0.953538378
 40
0.9639964682
 40
0.9688192936
 40
0.9733578526
 40
0.9776021905
 40
0.9815416251
 40
0.9851594459
 40
0.9884359567
 40
0.9913511314
 40
0.9938847274
 40
0.9960204976
 40
0.997753986
 40
0.9990819431
 40
1.0
 40
1.0
 40
1.0
 40
1.0
 10
12.5297692413
 20
7.8791436824
 30
0.0
 10
12.5298169466
 20
7.8790968134
 30
0.0
 10
12.5299035125
 20
7.8790107788
 30
0.0
 10
12.530019498
 20
7.8788928459
 30
0.0
 10
12.5300998484
 20
7.8788095205
 30
0.0
 10
12.53015154
 20
7.8787554001
 30
0.0
 10
12.5301810157
 20
7.8787244161
 30
0.0
 10
12.530204401
 20
7.8786998682
 30
0.0
 10
12.5302200254
 20
7.8786833969
 30
0.0
 10
12.5302296866
 20
7.8786735352
 30
0.0
 10
12.5302344687
 20
7.8786684265
 30
0.0
 10
12.5302382777
 20
7.8786651824
 30
0.0
 10
12.5302397434
 20
7.8786630612
 30
0.0
 10
12.5302417723
 20
7.8786624153
 30
0.0
 10
12.5302393858
 20
7.878665244
 30
0.0
 10
12.5302380002
 20
7.8786675023
 30
0.0
 10
12.5302338379
 20
7.8786726389
 30
0.0
 10
12.5302289554
 20
7.8786788099
 30
0.0
 10
12.5302193384
 20
7.8786906512
 30
0.0
 10
12.5301948279
 20
7.878720659
 30
0.0
 10
12.5301484089
 20
7.8787773213
 30
0.0
 10
12.5300773126
 20
7.8788650435
 30
0.0
 10
12.5299859162
 20
7.8789793368
 30
0.0
 10
12.5298245941
 20
7.8791843349
 30
0.0
 10
12.5295771451
 20
7.87950764
 30
0.0
 10
12.5292303369
 20
7.8799780166
 30
0.0
 10
12.528819478
 20
7.8805578151
 30
0.0
 10
12.528350247
 20
7.8812480985
 30
0.0
 10
12.5278284903
 20
7.8820497118
 30
0.0
 10
12.5272576465
 20
7.8829615331
 30
0.0
 10
12.5266412468
 20
7.8839822463
 30
0.0
 10
12.5259828503
 20
7.8851104671
 30
0.0
 10
12.5252860087
 20
7.8863448061
 30
0.0
 10
12.5245542663
 20
7.8876838663
 30
0.0
 10
12.5237911805
 20
7.8891262597
 30
0.0
 10
12.5227062531
 20
7.8912445535
 30
0.0
 10
12.5212968549
 20
7.8941413602
 30
0.0
 10
12.5195748828
 20
7.897918826
 30
0.0
 10
12.5177919192
 20
7.9020736179
 30
0.0
 10
12.5159626843
 20
7.9065934235
 30
0.0
 10
12.5141011316
 20
7.9114657038
 30
0.0
 10
12.5122217601
 20
7.9166789889
 30
0.0
 10
12.5103347938
 20
7.9222218124
 30
0.0
 10
12.5084469807
 20
7.9280832104
 30
0.0
 10
12.5058841644
 20
7.9364875135
 30
0.0
 10
12.5027350995
 20
7.947721379
 30
0.0
 10
12.4991320539
 20
7.9620547044
 30
0.0
 10
12.4956584914
 20
7.9774401112
 30
0.0
 10
12.4923451312
 20
7.9938156442
 30
0.0
 10
12.4892134227
 20
8.0111219205
 30
0.0
 10
12.4862793899
 20
8.0293028277
 30
0.0
 10
12.4835598007
 20
8.0483056094
 30
0.0
 10
12.4810651192
 20
8.0680785498
 30
0.0
 10
12.4788053171
 20
8.08857189
 30
0.0
 10
12.4767897106
 20
8.1097369988
 30
0.0
 10
12.474406451
 20
8.1391478706
 30
0.0
 10
12.4721007179
 20
8.1772471114
 30
0.0
 10
12.4704171021
 20
8.2243540619
 30
0.0
 10
12.4698072454
 20
8.2730180767
 30
0.0
 10
12.4702805796
 20
8.3228667875
 30
0.0
 10
12.4718369369
 20
8.3735276516
 30
0.0
 10
12.4744681775
 20
8.4246271702
 30
0.0
 10
12.478154396
 20
8.4757917533
 30
0.0
 10
12.4828700425
 20
8.5266479867
 30
0.0
 10
12.4885784582
 20
8.5768236553
 30
0.0
 10
12.495234907
 20
8.6259482724
 30
0.0
 10
12.5027862993
 20
8.6736529993
 30
0.0
 10
12.5098415457
 20
8.7123108272
 30
0.0
 10
12.5158990019
 20
8.7422410041
 30
0.0
 10
12.5205739204
 20
8.7638707133
 30
0.0
 10
12.5254171898
 20
8.7848699402
 30
0.0
 10
12.5304153565
 20
8.8051924906
 30
0.0
 10
12.5355538687
 20
8.8247917126
 30
0.0
 10
12.540818313
 20
8.8436195398
 30
0.0
 10
12.5461892865
 20
8.8616277691
 30
0.0
 10
12.5516467566
 20
8.8787664135
 30
0.0
 10
12.557168803
 20
8.8949830556
 30
0.0
 10
12.5627252605
 20
8.9102250954
 30
0.0
 10
12.5682867346
 20
8.9244341107
 30
0.0
 10
12.5738121214
 20
8.9375487417
 30
0.0
 10
12.5792476062
 20
8.9495051918
 30
0.0
 10
12.5837720186
 20
8.9586754727
 30
0.0
 10
12.5873037912
 20
8.9653736318
 30
0.0
 10
12.5898136959
 20
8.9699258308
 30
0.0
 10
12.5922455226
 20
8.9741346135
 30
0.0
 10
12.5945876108
 20
8.9779877334
 30
0.0
 10
12.5968178014
 20
8.9814748796
 30
0.0
 10
12.598910389
 20
8.9845843171
 30
0.0
 10
12.6008395636
 20
8.9873032113
 30
0.0
 10
12.6025802213
 20
8.9896202751
 30
0.0
 10
12.6041110135
 20
8.9915287833
 30
0.0
 10
12.6054023398
 20
8.9930375418
 30
0.0
 10
12.6064283544
 20
8.9941597812
 30
0.0
 10
12.6070284845
 20
8.9947734419
 30
0.0
 10
12.6072801911
 20
8.9950176951
 30
0.0
  0
SPLINE
  5
2A7
100
AcDbEntity
  8
0
100
AcDbSpline
 62
7
  6
CONTINUOUS
 70
0
 71
3
 72
71
 73
67
 74
0
 42
0.0000001
 43
0.0000001
 44
0.0000000001
 40
0.0
 40
0.0
 40
0.0
 40
0.0
 40
0.0113245106
 40
0.0227494085
 40
0.034308143
 40
0.0401442824
 40
0.0460240482
 40
0.0579542252
 40
0.0701781587
 40
0.0827688102
 40
0.0957811373
 40
0.1092325809
 40
0.1231329591
 40
0.1374902182
 40
0.1523058227
 40
0.1675754394
 40
0.1832936552
 40
0.1994518052
 40
0.2160329935
 40
0.2330184005
 40
0.2503883591
 40
0.2681192928
 40
0.2861856701
 40
0.3232180354
 40
0.3612543231
 40
0.4000452174
 40
0.4393272823
 40
0.4788297467
 40
0.518277913
 40
0.5573979635
 40
0.5959215882
 40
0.6335896686
 40
0.6701596249
 40
0.6879620393
 40
0.7054088426
 40
0.7224759245
 40
0.7391413819
 40
0.7553879658
 40
0.771199474
 40
0.7865621891
 40
0.8014696976
 40
0.8159178492
 40
0.8299060317
 40
0.8434447197
 40
0.8565484727
 40
0.8692387138
 40
0.881553137
 40
0.8875832776
 40
0.8935365431
 40
0.9052460336
 40
0.9110227993
 40
0.9167614108
 40
0.9224731806
 40
0.9281700076
 40
0.9338649817
 40
0.9395726256
 40
0.9453089137
 40
0.9510893647
 40
0.9569230335
 40
0.9628194576
 40
0.9687912137
 40
0.9748532525
 40
0.9810092133
 40
0.9872531851
 40
0.9935828736
 40
1.0
 40
1.0
 40
1.0
 40
1.0
 10
12.6072686463
 20
7.7354393771
 30
0.0
 10
12.6114404882
 20
7.7394674466
 30
0.0
 10
12.6195108655
 20
7.7478860475
 30
0.0
 10
12.6307753037
 20
7.7613827945
 30
0.0
 10
12.6395374729
 20
7.7732686632
 30
0.0
 10
12.6462342263
 20
7.7831290552
 30
0.0
 10
12.6527929474
 20
7.7933090471
 30
0.0
 10
12.6606662242
 20
7.8065273253
 30
0.0
 10
12.6696123589
 20
7.8230862964
 30
0.0
 10
12.6781902742
 20
7.8404582082
 30
0.0
 10
12.686473839
 20
7.8586645038
 30
0.0
 10
12.6944828947
 20
7.8777225485
 30
0.0
 10
12.702230559
 20
7.8976288408
 30
0.0
 10
12.7097273941
 20
7.9183749986
 30
0.0
 10
12.71698007
 20
7.9399485723
 30
0.0
 10
12.723990818
 20
7.9623331717
 30
0.0
 10
12.7307612126
 20
7.9855085808
 30
0.0
 10
12.7372911703
 20
8.0094496293
 30
0.0
 10
12.7435757757
 20
8.0341263317
 30
0.0
 10
12.749608844
 20
8.0595039248
 30
0.0
 10
12.7553834368
 20
8.0855448915
 30
0.0
 10
12.7608929391
 20
8.1122086919
 30
0.0
 10
12.7679335481
 20
8.1488340306
 30
0.0
 10
12.7759943667
 20
8.1958467804
 30
0.0
 10
12.784418034
 20
8.2535463069
 30
0.0
 10
12.7916128091
 20
8.3125725613
 30
0.0
 10
12.797529575
 20
8.3724947989
 30
0.0
 10
12.8021264097
 20
8.43287021
 30
0.0
 10
12.8053683787
 20
8.4932504492
 30
0.0
 10
12.8072318123
 20
8.5531875645
 30
0.0
 10
12.807700641
 20
8.6122405717
 30
0.0
 10
12.8067677031
 20
8.6699821733
 30
0.0
 10
12.80480727
 20
8.7170799352
 30
0.0
 10
12.8025157625
 20
8.7537869917
 30
0.0
 10
12.8004637362
 20
8.7804996352
 30
0.0
 10
12.7980645233
 20
8.8065987543
 30
0.0
 10
12.7953190521
 20
8.8320457301
 30
0.0
 10
12.7922281446
 20
8.8568053436
 30
0.0
 10
12.7887923303
 20
8.8808458751
 30
0.0
 10
12.785011157
 20
8.9041402366
 30
0.0
 10
12.7808810543
 20
8.9266660332
 30
0.0
 10
12.7763978252
 20
8.9484062151
 30
0.0
 10
12.7715554419
 20
8.9693507033
 30
0.0
 10
12.7663378348
 20
8.9894948702
 30
0.0
 10
12.7607279143
 20
9.0088426878
 30
0.0
 10
12.7547023278
 20
9.0274075495
 30
0.0
 10
12.7492581176
 20
9.0423428289
 30
0.0
 10
12.7446474379
 20
9.0539004786
 30
0.0
 10
12.7399177887
 20
9.065074056
 30
0.0
 10
12.7348688499
 20
9.0759696671
 30
0.0
 10
12.7294534178
 20
9.0865595978
 30
0.0
 10
12.725223756
 20
9.0943025992
 30
0.0
 10
12.7207955516
 20
9.1018865291
 30
0.0
 10
12.7161463884
 20
9.1093110064
 30
0.0
 10
12.7112509831
 20
9.1165732278
 30
0.0
 10
12.7060849136
 20
9.1236707921
 30
0.0
 10
12.7006240853
 20
9.1306002258
 30
0.0
 10
12.6948482216
 20
9.1373549122
 30
0.0
 10
12.6887278962
 20
9.1439124455
 30
0.0
 10
12.6822368059
 20
9.1502449986
 30
0.0
 10
12.6753497959
 20
9.1563235024
 30
0.0
 10
12.668048229
 20
9.1621143871
 30
0.0
 10
12.6603247976
 20
9.1675754288
 30
0.0
 10
12.6521810002
 20
9.1726526924
 30
0.0
 10
12.6436250453
 20
9.1772880402
 30
0.0
 10
12.6376925922
 20
9.1800241204
 30
0.0
 10
12.6346647919
 20
9.1813012038
 30
0.0
  0
SPLINE
  5
2A8
100
AcDbEntity
  8
0
100
AcDbSpline
 62
7
  6
CONTINUOUS
 70
0
 71
3
 72
71
 73
67
 74
0
 42
0.0000001
 43
0.0000001
 44
0.0000000001
 40
0.0
 40
0.0
 40
0.0
 40
0.0
 40
0.0155527289
 40
0.0311450779
 40
0.0467752192
 40
0.0624431342
 40
0.0781478494
 40
0.0938881897
 40
0.1096629313
 40
0.1254706179
 40
0.1413096306
 40
0.1571782022
 40
0.1730744113
 40
0.1889962018
 40
0.2049413922
 40
0.2209076832
 40
0.236892674
 40
0.2528938729
 40
0.2689087075
 40
0.2849345406
 40
0.3009686822
 40
0.3170084002
 40
0.3330509374
 40
0.3490935228
 40
0.3651333837
 40
0.3811677622
 40
0.3971939268
 40
0.4132091838
 40
0.4292108944
 40
0.4451964855
 40
0.4611634601
 40
0.4771094146
 40
0.493032048
 40
0.5089291719
 40
0.5247987263
 40
0.5406387879
 40
0.556447578
 40
0.5722234779
 40
0.5879650343
 40
0.603670966
 40
0.6193401767
 40
0.6349717592
 40
0.6505649982
 40
0.666119382
 40
0.681634603
 40
0.6971105584
 40
0.7125473576
 40
0.7279453215
 40
0.7433049782
 40
0.7586270674
 40
0.7739125368
 40
0.7891625337
 40
0.8043784056
 40
0.819561693
 40
0.8347141182
 40
0.8498375805
 40
0.8649341466
 40
0.8800060363
 40
0.8950556123
 40
0.9100853694
 40
0.9250979164
 40
0.9400959628
 40
0.9550823053
 40
0.9700598087
 40
0.9850313894
 40
1.0
 40
1.0
 40
1.0
 40
1.0
 10
10.0294293819
 20
7.0312414822
 30
0.0
 10
10.0406207795
 20
7.0304653561
 30
0.0
 10
10.0630058789
 20
7.0285027911
 30
0.0
 10
10.0964945187
 20
7.0243413216
 30
0.0
 10
10.1298940533
 20
7.0189635768
 30
0.0
 10
10.1631588196
 20
7.0123770246
 30
0.0
 10
10.1962449552
 20
7.0045904311
 30
0.0
 10
10.2291081717
 20
6.9956142046
 30
0.0
 10
10.2617045669
 20
6.9854603008
 30
0.0
 10
10.2939906685
 20
6.9741423422
 30
0.0
 10
10.3259233895
 20
6.96167548
 30
0.0
 10
10.3574600723
 20
6.9480762863
 30
0.0
 10
10.388558646
 20
6.933362981
 30
0.0
 10
10.4191776243
 20
6.9175552528
 30
0.0
 10
10.4492760982
 20
6.9006741305
 30
0.0
 10
10.4788139153
 20
6.8827421971
 30
0.0
 10
10.5077516829
 20
6.86378344
 30
0.0
 10
10.5360507309
 20
6.8438230975
 30
0.0
 10
10.5636733037
 20
6.8228878435
 30
0.0
 10
10.5905825746
 20
6.8010056753
 30
0.0
 10
10.6167425769
 20
6.7782057386
 30
0.0
 10
10.6421184007
 20
6.7545184801
 30
0.0
 10
10.6666762269
 20
6.7299755697
 30
0.0
 10
10.6903832246
 20
6.7046097115
 30
0.0
 10
10.7132077446
 20
6.6784547626
 30
0.0
 10
10.7351193814
 20
6.6515456838
 30
0.0
 10
10.7560888344
 20
6.6239183461
 30
0.0
 10
10.7760880923
 20
6.5956096135
 30
0.0
 10
10.7950905268
 20
6.5666573181
 30
0.0
 10
10.8130707209
 20
6.537100067
 30
0.0
 10
10.8300046347
 20
6.5069772931
 30
0.0
 10
10.8458697364
 20
6.4763292448
 30
0.0
 10
10.8606447982
 20
6.4451968023
 30
0.0
 10
10.8743100392
 20
6.4136214986
 30
0.0
 10
10.8868472931
 20
6.3816455152
 30
0.0
 10
10.8982397779
 20
6.3493115146
 30
0.0
 10
10.9084722086
 20
6.3166626361
 30
0.0
 10
10.9175310012
 20
6.2837424887
 30
0.0
 10
10.9254040225
 20
6.2505950047
 30
0.0
 10
10.9320806679
 20
6.2172644169
 30
0.0
 10
10.9375520976
 20
6.1837952392
 30
0.0
 10
10.9418109746
 20
6.1502321461
 30
0.0
 10
10.9448515044
 20
6.116619937
 30
0.0
 10
10.9466696966
 20
6.0830034985
 30
0.0
 10
10.9472631004
 20
6.0494277096
 30
0.0
 10
10.9466308049
 20
6.0159374031
 30
0.0
 10
10.9447737165
 20
5.9825773007
 30
0.0
 10
10.9416943022
 20
5.9493919465
 30
0.0
 10
10.9373965511
 20
5.9164256705
 30
0.0
 10
10.9318862549
 20
5.8837224952
 30
0.0
 10
10.9251707722
 20
5.8513260929
 30
0.0
 10
10.9172589491
 20
5.8192797593
 30
0.0
 10
10.9081613947
 20
5.7876262915
 30
0.0
 10
10.8978902728
 20
5.7564079622
 30
0.0
 10
10.8864591864
 20
5.7256665122
 30
0.0
 10
10.8738834359
 20
5.6954430008
 30
0.0
 10
10.8601798466
 20
5.6657777897
 30
0.0
 10
10.8453666194
 20
5.63671056
 30
0.0
 10
10.829463565
 20
5.6082801416
 30
0.0
 10
10.812491968
 20
5.5805244943
 30
0.0
 10
10.7944744148
 20
5.5534807611
 30
0.0
 10
10.775434981
 20
5.5271850666
 30
0.0
 10
10.7553991881
 20
5.5016725427
 30
0.0
 10
10.734393611
 20
5.4769772117
 30
0.0
 10
10.712446777
 20
5.4531325441
 30
0.0
 10
10.6972059987
 20
5.4378227464
 30
0.0
 10
10.6894402533
 20
5.4303215919
 30
0.0
  0
SPLINE
  5
2A9
100
AcDbEntity
  8
0
100
AcDbSpline
 62
7
  6
CONTINUOUS
 70
0
 71
3
 72
18
 73
14
 74
0
 42
0.0000001
 43
0.0000001
 44
0.0000000001
 40
0.0
 40
0.0
 40
0.0
 40
0.0
 40
0.1504660016
 40
0.2917105222
 40
0.4244368723
 40
0.5495624665
 40
0.668214014
 40
0.7255497707
 40
0.7817912017
 40
0.8371401776
 40
0.891809274
 40
0.9460199962
 40
1.0
 40
1.0
 40
1.0
 40
1.0
 10
12.6004528698
 20
9.1592877992
 30
0.0
 10
12.6025731986
 20
9.1613358797
 30
0.0
 10
12.6068109162
 20
9.1651786334
 30
0.0
 10
12.6133729491
 20
9.1702998056
 30
0.0
 10
12.6199273233
 20
9.1745828584
 30
0.0
 10
12.626467178
 20
9.1780207505
 30
0.0
 10
12.6319638287
 20
9.1802007699
 30
0.0
 10
12.6363279449
 20
9.1814959785
 30
0.0
 10
12.6395545515
 20
9.1822424679
 30
0.0
 10
12.6427704359
 20
9.1827745559
 30
0.0
 10
12.6459747224
 20
9.1830919503
 30
0.0
 10
12.6491661277
 20
9.1831944604
 30
0.0
 10
12.6512864026
 20
9.183119444
 30
0.0
 10
12.6523414528
 20
9.1830462702
 30
0.0
  0
SPLINE
  5
2AA
100
AcDbEntity
  8
0
100
AcDbSpline
 62
7
  6
CONTINUOUS
 70
0
 71
3
 72
17
 73
13
 74
0
 42
0.0000001
 43
0.0000001
 44
0.0000000001
 40
0.0
 40
0.0
 40
0.0
 40
0.0
 40
0.1504681883
 40
0.2917243824
 40
0.4244612681
 40
0.5495925261
 40
0.6682485046
 40
0.7817794377
 40
0.8371315341
 40
0.8918035522
 40
0.9460171661
 40
1.0
 40
1.0
 40
1.0
 40
1.0
 10
12.6004528698
 20
10.1561232759
 30
0.0
 10
12.6014253619
 20
10.1570626312
 30
0.0
 10
12.6033690765
 20
10.1588251488
 30
0.0
 10
12.6063788907
 20
10.1611741224
 30
0.0
 10
12.609385156
 20
10.1631386297
 30
0.0
 10
12.6123850655
 20
10.1647155677
 30
0.0
 10
12.6153756852
 20
10.165901797
 30
0.0
 10
12.6178795438
 20
10.1665678427
 30
0.0
 10
12.6198626269
 20
10.1668958721
 30
0.0
 10
12.62133237
 20
10.1670414415
 30
0.0
 10
12.6227961604
 20
10.1670884582
 30
0.0
 10
12.6237686672
 20
10.1670540522
 30
0.0
 10
12.6242525858
 20
10.1670204871
 30
0.0
  0
SPLINE
  5
2AB
100
AcDbEntity
  8
0
100
AcDbSpline
 62
7
  6
CONTINUOUS
 70
0
 71
3
 72
17
 73
13
 74
0
 42
0.0000001
 43
0.0000001
 44
0.0000000001
 40
0.0
 40
0.0
 40
0.0
 40
0.0
 40
0.1504681883
 40
0.2917243824
 40
0.4244612681
 40
0.5495925261
 40
0.6682485046
 40
0.7817794377
 40
0.8371315341
 40
0.8918035522
 40
0.9460171661
 40
1.0
 40
1.0
 40
1.0
 40
1.0
 10
12.6004528698
 20
7.3781205049
 30
0.0
 10
12.6014253619
 20
7.3790598602
 30
0.0
 10
12.6033690765
 20
7.3808223778
 30
0.0
 10
12.6063788907
 20
7.3831713514
 30
0.0
 10
12.609385156
 20
7.3851358587
 30
0.0
 10
12.6123850655
 20
7.3867127967
 30
0.0
 10
12.6153756852
 20
7.387899026
 30
0.0
 10
12.6178795438
 20
7.3885650717
 30
0.0
 10
12.6198626269
 20
7.3888931011
 30
0.0
 10
12.62133237
 20
7.3890386705
 30
0.0
 10
12.6227961604
 20
7.3890856872
 30
0.0
 10
12.6237686672
 20
7.3890512812
 30
0.0
 10
12.6242525858
 20
7.3890177161
 30
0.0
  0
SPLINE
  5
2AC
100
AcDbEntity
  8
0
100
AcDbSpline
 62
7
  6
CONTINUOUS
 70
0
 71
3
 72
57
 73
53
 74
0
 42
0.0000001
 43
0.0000001
 44
0.0000000001
 40
0.0
 40
0.0
 40
0.0
 40
0.0
 40
0.0311420813
 40
0.0624371963
 40
0.0938794207
 40
0.1254590778
 40
0.1571639599
 40
0.1889793152
 40
0.2208881995
 40
0.2528718309
 40
0.284909968
 40
0.3169813129
 40
0.3490639264
 40
0.3811356516
 40
0.4131745416
 40
0.4451592834
 40
0.4611273303
 40
0.4770743544
 40
0.4929980555
 40
0.5088962466
 40
0.5247668651
 40
0.5406079887
 40
0.5564178397
 40
0.572194797
 40
0.5879374088
 40
0.603644394
 40
0.6193146548
 40
0.6349472851
 40
0.6505415696
 40
0.6660969957
 40
0.6816132568
 40
0.6970902492
 40
0.7125280831
 40
0.727927079
 40
0.7432877647
 40
0.758610881
 40
0.7738973749
 40
0.7891483932
 40
0.8043652853
 40
0.8195495905
 40
0.8347030307
 40
0.8498275073
 40
0.8649250856
 40
0.879997985
 40
0.8950485708
 40
0.910079336
 40
0.9250928891
 40
0.9400919421
 40
0.9550792904
 40
0.9700577982
 40
0.9850303841
 40
1.0
 40
1.0
 40
1.0
 40
1.0
 10
10.0483231687
 20
9.1368573142
 30
0.0
 10
10.0686315922
 20
9.1354489202
 30
0.0
 10
10.1092602587
 20
9.1311387117
 30
0.0
 10
10.1697106759
 20
9.1202811812
 30
0.0
 10
10.2295136178
 20
9.1050730779
 30
0.0
 10
10.2883460958
 20
9.0855961028
 30
0.0
 10
10.3458955543
 20
9.0619546673
 30
0.0
 10
10.401855023
 20
9.0342752964
 30
0.0
 10
10.4559263771
 20
9.0027058459
 30
0.0
 10
10.507821478
 20
8.9674148614
 30
0.0
 10
10.5572638668
 20
8.9285907253
 30
0.0
 10
10.6039900997
 20
8.8864404442
 30
0.0
 10
10.6477510575
 20
8.8411888207
 30
0.0
 10
10.6883137962
 20
8.793076642
 30
0.0
 10
10.7254611321
 20
8.7423620381
 30
0.0
 10
10.753425129
 20
8.698125118
 30
0.0
 10
10.7738975192
 20
8.6617077579
 30
0.0
 10
10.7882764148
 20
8.6339306314
 30
0.0
 10
10.8016672337
 20
8.6057148352
 30
0.0
 10
10.8140522806
 20
8.577097591
 30
0.0
 10
10.8254149241
 20
8.5481171979
 30
0.0
 10
10.8357400997
 20
8.5188123444
 30
0.0
 10
10.8450139064
 20
8.4892221157
 30
0.0
 10
10.853223969
 20
8.4593860167
 30
0.0
 10
10.8603593917
 20
8.4293438932
 30
0.0
 10
10.8664105151
 20
8.3991358189
 30
0.0
 10
10.8713692974
 20
8.3688021345
 30
0.0
 10
10.8752291552
 20
8.33838334
 30
0.0
 10
10.877984791
 20
8.3079200304
 30
0.0
 10
10.879632592
 20
8.2774528891
 30
0.0
 10
10.8801703625
 20
8.2470225919
 30
0.0
 10
10.8795972419
 20
8.2166697705
 30
0.0
 10
10.8779140853
 20
8.186434957
 30
0.0
 10
10.875123109
 20
8.1563585227
 30
0.0
 10
10.8712279148
 20
8.1264806474
 30
0.0
 10
10.866233806
 20
8.0968412214
 30
0.0
 10
10.8601473881
 20
8.0674798355
 30
0.0
 10
10.8529766941
 20
8.0384357293
 30
0.0
 10
10.8447314035
 20
8.0097476717
 30
0.0
 10
10.8354224381
 20
7.9814540045
 30
0.0
 10
10.8250621749
 20
7.9535925466
 30
0.0
 10
10.8136645455
 20
7.9262004817
 30
0.0
 10
10.8012446665
 20
7.8993144459
 30
0.0
 10
10.7878191141
 20
7.8729703718
 30
0.0
 10
10.7734058993
 20
7.8472034153
 30
0.0
 10
10.7580241624
 20
7.8220480661
 30
0.0
 10
10.7416944799
 20
7.7975379295
 30
0.0
 10
10.7244387145
 20
7.773705708
 30
0.0
 10
10.7062798429
 20
7.750583356
 30
0.0
 10
10.6872420665
 20
7.7282016271
 30
0.0
 10
10.6673512905
 20
7.7065907968
 30
0.0
 10
10.6535382159
 20
7.692715372
 30
0.0
 10
10.6464999902
 20
7.6859169501
 30
0.0
  0
SPLINE
  5
2AD
100
AcDbEntity
  8
0
100
AcDbSpline
 62
7
  6
CONTINUOUS
 70
0
 71
3
 72
29
 73
25
 74
0
 42
0.0000001
 43
0.0000001
 44
0.0000000001
 40
0.0
 40
0.0
 40
0.0
 40
0.0
 40
0.0875305687
 40
0.1729309186
 40
0.2557784811
 40
0.3356838868
 40
0.4123021523
 40
0.4853377598
 40
0.5545518586
 40
0.6197680904
 40
0.6808778974
 40
0.7098830995
 40
0.7378532906
 40
0.7647962581
 40
0.7907228499
 40
0.8156502535
 40
0.8395987914
 40
0.8625948484
 40
0.8846684483
 40
0.9058547639
 40
0.9261935915
 40
0.945728489
 40
0.9645086152
 40
1.0
 40
1.0
 40
1.0
 40
1.0
 10
10.181471638
 20
7.6021444957
 30
0.0
 10
10.1756533708
 20
7.6025479939
 30
0.0
 10
10.1641738984
 20
7.6035940873
 30
0.0
 10
10.1472833775
 20
7.6059102
 30
0.0
 10
10.1310198928
 20
7.6089282907
 30
0.0
 10
10.1154936938
 20
7.6126077444
 30
0.0
 10
10.1008042895
 20
7.6168969905
 30
0.0
 10
10.0870390682
 20
7.6217353257
 30
0.0
 10
10.0742713746
 20
7.6270549966
 30
0.0
 10
10.0625601528
 20
7.6327831908
 30
0.0
 10
10.0535657604
 20
7.6379208939
 30
0.0
 10
10.0469468203
 20
7.6421775765
 30
0.0
 10
10.0423542356
 20
7.6453694434
 30
0.0
 10
10.0380477436
 20
7.6486069773
 30
0.0
 10
10.0340275536
 20
7.6518815466
 30
0.0
 10
10.0302930211
 20
7.6551844855
 30
0.0
 10
10.0268427907
 20
7.6585077219
 30
0.0
 10
10.0236747818
 20
7.6618434138
 30
0.0
 10
10.0207862732
 20
7.6651842039
 30
0.0
 10
10.0181740116
 20
7.6685232133
 30
0.0
 10
10.0158342355
 20
7.6718537941
 30
0.0
 10
10.0137626248
 20
7.6751703965
 30
0.0
 10
10.0113970631
 20
7.6794835947
 30
0.0
 10
10.0099370364
 20
7.682805197
 30
0.0
 10
10.0091324175
 20
7.6850289276
 30
0.0
  0
SPLINE
  5
2AE
100
AcDbEntity
  8
0
100
AcDbSpline
 62
7
  6
CONTINUOUS
 70
0
 71
3
 72
26
 73
22
 74
0
 42
0.0000001
 43
0.0000001
 44
0.0000000001
 40
0.0
 40
0.0
 40
0.0
 40
0.0
 40
0.0638610131
 40
0.0957116695
 40
0.1275060289
 40
0.1909252185
 40
0.254128779
 40
0.2856539788
 40
0.3171277422
 40
0.3485511968
 40
0.3799255762
 40
0.4425274879
 40
0.5049513697
 40
0.5672117294
 40
0.629324845
 40
0.691308596
 40
0.7531822793
 40
0.8149664053
 40
0.8766824763
 40
0.9383527513
 40
1.0
 40
1.0
 40
1.0
 40
1.0
 10
10.0483231687
 20
9.1368573142
 30
0.0
 10
10.034440487
 20
9.1378200814
 30
0.0
 10
10.0135928333
 20
9.1387445788
 30
0.0
 10
9.9858063441
 20
9.1389272872
 30
0.0
 10
9.9581197728
 20
9.1384108984
 30
0.0
 10
9.9236385287
 20
9.1364576008
 30
0.0
 10
9.8893595489
 20
9.1327558087
 30
0.0
 10
9.8621490626
 20
9.1287519569
 30
0.0
 10
9.841874113
 20
9.1252331017
 30
0.0
 10
9.8217289883
 20
9.1211982959
 30
0.0
 10
9.7950807296
 20
9.1151388074
 30
0.0
 10
9.7621509996
 20
9.1062890614
 30
0.0
 10
9.7233279944
 20
9.0936453355
 30
0.0
 10
9.6853219201
 20
9.0790166407
 30
0.0
 10
9.6482292331
 20
9.0624398607
 30
0.0
 10
9.6121432186
 20
9.0439566432
 30
0.0
 10
9.5771548415
 20
9.0236134767
 30
0.0
 10
9.5433523456
 20
9.0014616331
 30
0.0
 10
9.5108206274
 20
8.9775566021
 30
0.0
 10
9.4796427889
 20
8.9519596368
 30
0.0
 10
9.459808529
 20
8.9338062825
 30
0.0
 10
9.4501463471
 20
8.9244733069
 30
0.0
  0
SPLINE
  5
2AF
100
AcDbEntity
  8
0
100
AcDbSpline
 62
7
  6
CONTINUOUS
 70
0
 71
3
 72
49
 73
45
 74
0
 42
0.0000001
 43
0.0000001
 44
0.0000000001
 40
0.0
 40
0.0
 40
0.0
 40
0.0
 40
0.0311433186
 40
0.0624396416
 40
0.0938831382
 40
0.1254640298
 40
0.1571701657
 40
0.1889867775
 40
0.2208969223
 40
0.2528818164
 40
0.2849212184
 40
0.3169938298
 40
0.3490777103
 40
0.3811507019
 40
0.4131908566
 40
0.4451768616
 40
0.4770884538
 40
0.5089068216
 40
0.5406149852
 40
0.5721981521
 40
0.6036440372
 40
0.6349431418
 40
0.6660889864
 40
0.6970782884
 40
0.7125167322
 40
0.7279163348
 40
0.7432776286
 40
0.7586013491
 40
0.7738884467
 40
0.7891400676
 40
0.8043575602
 40
0.8195424652
 40
0.8346965034
 40
0.8498215779
 40
0.8649197517
 40
0.8799932465
 40
0.8950444271
 40
0.9100757847
 40
0.9250899318
 40
0.9400895768
 40
0.9550775163
 40
0.9700566165
 40
0.9850297929
 40
1.0
 40
1.0
 40
1.0
 40
1.0
 10
10.0641111057
 20
6.7266673977
 30
0.0
 10
10.0782633206
 20
6.7256859383
 30
0.0
 10
10.106575972
 20
6.7226823184
 30
0.0
 10
10.1487016994
 20
6.7151160744
 30
0.0
 10
10.1903762169
 20
6.7045180878
 30
0.0
 10
10.2313744694
 20
6.6909452874
 30
0.0
 10
10.2714786302
 20
6.6744704521
 30
0.0
 10
10.3104747678
 20
6.655181672
 30
0.0
 10
10.3481551437
 20
6.6331820385
 30
0.0
 10
10.3843189837
 20
6.6085890304
 30
0.0
 10
10.4187736108
 20
6.5815338776
 30
0.0
 10
10.4513354356
 20
6.5521608727
 30
0.0
 10
10.4818309242
 20
6.5206266045
 30
0.0
 10
10.5100975238
 20
6.4870991473
 30
0.0
 10
10.5359845466
 20
6.4517571894
 30
0.0
 10
10.5593539285
 20
6.414789054
 30
0.0
 10
10.5800809631
 20
6.3763917172
 30
0.0
 10
10.5980549599
 20
6.3367697672
 30
0.0
 10
10.6131798289
 20
6.2961343434
 30
0.0
 10
10.6253746419
 20
6.254701995
 30
0.0
 10
10.6345740391
 20
6.2126937002
 30
0.0
 10
10.6407285251
 20
6.1703330373
 30
0.0
 10
10.6438049381
 20
6.1278474911
 30
0.0
 10
10.6437890704
 20
6.092477239
 30
0.0
 10
10.6422232308
 20
6.0643523433
 30
0.0
 10
10.6402782857
 20
6.0433929347
 30
0.0
 10
10.6375639183
 20
6.0225721681
 30
0.0
 10
10.6340836479
 20
6.0019175088
 30
0.0
 10
10.6298422768
 20
5.9814566107
 30
0.0
 10
10.6248452653
 20
5.9612168168
 30
0.0
 10
10.6190994155
 20
5.9412251406
 30
0.0
 10
10.6126123399
 20
5.9215082965
 30
0.0
 10
10.6053926296
 20
5.9020926521
 30
0.0
 10
10.597450061
 20
5.8830040924
 30
0.0
 10
10.5887950492
 20
5.8642681994
 30
0.0
 10
10.5794393043
 20
5.8459099395
 30
0.0
 10
10.5693952352
 20
5.8279538809
 30
0.0
 10
10.5586762331
 20
5.8104240355
 30
0.0
 10
10.5472967213
 20
5.7933437617
 30
0.0
 10
10.5352717318
 20
5.7767359892
 30
0.0
 10
10.5226175053
 20
5.7606228228
 30
0.0
 10
10.5093507661
 20
5.745025794
 30
0.0
 10
10.4954895559
 20
5.7299660224
 30
0.0
 10
10.4858637627
 20
5.720296695
 30
0.0
 10
10.4809590726
 20
5.7155591222
 30
0.0
  0
SPLINE
  5
2B0
100
AcDbEntity
  8
0
100
AcDbSpline
 62
7
  6
CONTINUOUS
 70
0
 71
3
 72
26
 73
22
 74
0
 42
0.0000001
 43
0.0000001
 44
0.0000000001
 40
0.0
 40
0.0
 40
0.0
 40
0.0
 40
0.0638605145
 40
0.1275011093
 40
0.1909199359
 40
0.2541235371
 40
0.2856487292
 40
0.3171224487
 40
0.3799149598
 40
0.4425168307
 40
0.5049406605
 40
0.5672009728
 40
0.6293140425
 40
0.6912977496
 40
0.7222498199
 40
0.7531768961
 40
0.8149609759
 40
0.8766770006
 40
0.9075192084
 40
0.9383527945
 40
1.0
 40
1.0
 40
1.0
 40
1.0
 10
10.0641111057
 20
6.7266673977
 30
0.0
 10
10.0544368315
 20
6.7273383109
 30
0.0
 10
10.0350846712
 20
6.7281965164
 30
0.0
 10
10.0060813274
 20
6.7280236781
 30
0.0
 10
9.9772230012
 20
6.7263888113
 30
0.0
 10
9.953335077
 20
6.7238092407
 30
0.0
 10
9.9343729988
 20
6.7210190185
 30
0.0
 10
9.9155505473
 20
6.7177523652
 30
0.0
 10
9.8922441873
 20
6.7127712135
 30
0.0
 10
9.8646882903
 20
6.7053655262
 30
0.0
 10
9.837633575
 20
6.696554495
 30
0.0
 10
9.8111485343
 20
6.6863602619
 30
0.0
 10
9.7853002145
 20
6.674808663
 30
0.0
 10
9.7643335487
 20
6.664069524
 30
0.0
 10
9.7479471403
 20
6.6548314699
 30
0.0
 10
9.7318389773
 20
6.6451751374
 30
0.0
 10
9.7122150116
 20
6.6323150021
 30
0.0
 10
9.6933186881
 20
6.6184294758
 30
0.0
 10
9.6786767685
 20
6.6067337662
 30
0.0
 10
9.6643625953
 20
6.59465607
 30
0.0
 10
9.6539963713
 20
6.5851684243
 30
0.0
 10
9.6472631388
 20
6.578664613
 30
0.0
  0
SPLINE
  5
2B1
100
AcDbEntity
  8
0
100
AcDbSpline
 62
7
  6
CONTINUOUS
 70
0
 71
3
 72
26
 73
22
 74
0
 42
0.0000001
 43
0.0000001
 44
0.0000000001
 40
0.0
 40
0.0
 40
0.0
 40
0.0
 40
0.0616472518
 40
0.1233175295
 40
0.1850336025
 40
0.2468177294
 40
0.3086914124
 40
0.3706751617
 40
0.4327882745
 40
0.4950486308
 40
0.5574725095
 40
0.6200744195
 40
0.6514487971
 40
0.6828722496
 40
0.7143460209
 40
0.7458712235
 40
0.8090747484
 40
0.8724940369
 40
0.9042883663
 40
0.9361388643
 40
1.0
 40
1.0
 40
1.0
 40
1.0
 10
9.3694185104
 20
6.7969021939
 30
0.0
 10
9.3800794872
 20
6.8071999349
 30
0.0
 10
9.4019639468
 20
6.8272299379
 30
0.0
 10
9.4363646353
 20
6.855472972
 30
0.0
 10
9.4722591474
 20
6.8818491878
 30
0.0
 10
9.509555817
 20
6.906290971
 30
0.0
 10
9.5481609609
 20
6.9287371055
 30
0.0
 10
9.5879772125
 20
6.9491310204
 30
0.0
 10
9.6289042003
 20
6.9674214272
 30
0.0
 10
9.6708389962
 20
6.9835623749
 30
0.0
 10
9.7136751759
 20
6.9975131594
 30
0.0
 10
9.7500088895
 20
7.0072777667
 30
0.0
 10
9.7794118144
 20
7.013963654
 30
0.0
 10
9.8016393662
 20
7.018415581
 30
0.0
 10
9.8240101736
 20
7.0222981725
 30
0.0
 10
9.8540334361
 20
7.0267159645
 30
0.0
 10
9.8918559034
 20
7.0308004312
 30
0.0
 10
9.9299015356
 20
7.0329556497
 30
0.0
 10
9.9604500898
 20
7.0335254185
 30
0.0
 10
9.9911088964
 20
7.0333238492
 30
0.0
 10
10.0141115962
 20
7.0323037743
 30
0.0
 10
10.0294293819
 20
7.0312414822
 30
0.0
  0
SPLINE
  5
2B2
100
AcDbEntity
  8
0
100
AcDbSpline
 62
7
  6
CONTINUOUS
 70
0
 71
3
 72
51
 73
47
 74
0
 42
0.0000001
 43
0.0000001
 44
0.0000000001
 40
0.0
 40
0.0
 40
0.0
 40
0.0
 40
0.0046797787
 40
0.0093373298
 40
0.014021657
 40
0.0187800089
 40
0.0236567249
 40
0.0286924633
 40
0.0339240148
 40
0.0393841259
 40
0.0451017431
 40
0.0511025487
 40
0.0574091379
 40
0.06404144
 40
0.0710174214
 40
0.0783532156
 40
0.0860633484
 40
0.0941612552
 40
0.1026594196
 40
0.1115694216
 40
0.1209021788
 40
0.1306681066
 40
0.1408771388
 40
0.1515386905
 40
0.162661804
 40
0.1742552651
 40
0.1988845645
 40
0.2254887539
 40
0.2541202716
 40
0.2848209287
 40
0.3176188481
 40
0.3525246158
 40
0.3895270468
 40
0.4285888412
 40
0.4696424383
 40
0.5125865463
 40
0.5572838731
 40
0.6035605286
 40
0.6512069274
 40
0.6999808341
 40
0.7496120495
 40
0.7998082166
 40
0.8502616387
 40
0.9006562794
 40
0.9506732136
 40
1.0
 40
1.0
 40
1.0
 40
1.0
 10
10.5218398929
 20
7.7374831725
 30
0.0
 10
10.5220461062
 20
7.7369130474
 30
0.0
 10
10.5224016424
 20
7.7357543223
 30
0.0
 10
10.5227582286
 20
7.7339701766
 30
0.0
 10
10.5229364602
 20
7.7321491751
 30
0.0
 10
10.5229376485
 20
7.7302913105
 30
0.0
 10
10.5227634807
 20
7.7283961278
 30
0.0
 10
10.5224148902
 20
7.726463087
 30
0.0
 10
10.5218924846
 20
7.7244915898
 30
0.0
 10
10.521196967
 20
7.7224808678
 30
0.0
 10
10.5203285446
 20
7.7204301175
 30
0.0
 10
10.5192867796
 20
7.7183387103
 30
0.0
 10
10.5180712924
 20
7.716205935
 30
0.0
 10
10.5166815128
 20
7.7140310589
 30
0.0
 10
10.5151161984
 20
7.7118136886
 30
0.0
 10
10.5133741055
 20
7.7095534015
 30
0.0
 10
10.5114539679
 20
7.7072497116
 30
0.0
 10
10.5093539772
 20
7.7049025055
 30
0.0
 10
10.5070722032
 20
7.7025117496
 30
0.0
 10
10.5046067734
 20
7.7000773147
 30
0.0
 10
10.5019554208
 20
7.697599427
 30
0.0
 10
10.4991156778
 20
7.6950785265
 30
0.0
 10
10.4960851847
 20
7.6925149473
 30
0.0
 10
10.4928612805
 20
7.6899094182
 30
0.0
 10
10.4894411249
 20
7.6872629402
 30
0.0
 10
10.4845157035
 20
7.6836068337
 30
0.0
 10
10.4778401554
 20
7.678946537
 30
0.0
 10
10.4691537825
 20
7.6733217372
 30
0.0
 10
10.4596149729
 20
7.6675770827
 30
0.0
 10
10.4492029913
 20
7.6617381792
 30
0.0
 10
10.437900274
 20
7.6558374383
 30
0.0
 10
10.4256945331
 20
7.6499148323
 30
0.0
 10
10.4125807655
 20
7.6440184651
 30
0.0
 10
10.3985635385
 20
7.6382048319
 30
0.0
 10
10.3836592821
 20
7.6325386761
 30
0.0
 10
10.3678984564
 20
7.6270923365
 30
0.0
 10
10.351327372
 20
7.6219444777
 30
0.0
 10
10.3340094974
 20
7.6171782015
 30
0.0
 10
10.3160260522
 20
7.6128785638
 30
0.0
 10
10.2974757865
 20
7.6091296378
 30
0.0
 10
10.2784739102
 20
7.6060112787
 30
0.0
 10
10.2591501982
 20
7.6035958564
 30
0.0
 10
10.2396465172
 20
7.6019451288
 30
0.0
 10
10.2201136972
 20
7.6011076417
 30
0.0
 10
10.2007088945
 20
7.601116332
 30
0.0
 10
10.1878466885
 20
7.6017023844
 30
0.0
 10
10.181471638
 20
7.6021444957
 30
0.0
  0
SPLINE
  5
2B3
100
AcDbEntity
  8
0
100
AcDbSpline
 62
7
  6
CONTINUOUS
 70
0
 71
3
 72
73
 73
69
 74
0
 42
0.0000001
 43
0.0000001
 44
0.0000000001
 40
0.0
 40
0.0
 40
0.0
 40
0.0
 40
0.0052142104
 40
0.0104480679
 40
0.0157123584
 40
0.0210169442
 40
0.0263708164
 40
0.0317823638
 40
0.037259464
 40
0.0428092559
 40
0.048437624
 40
0.0541499675
 40
0.0599513992
 40
0.0658463094
 40
0.0779294629
 40
0.0904235646
 40
0.1033443434
 40
0.1167020969
 40
0.1305011854
 40
0.1447419472
 40
0.1594206296
 40
0.1745301197
 40
0.1900605794
 40
0.2059993969
 40
0.2223319163
 40
0.2390414605
 40
0.2561095525
 40
0.2735162894
 40
0.2912402968
 40
0.309259025
 40
0.3275488839
 40
0.3460852566
 40
0.38379467
 40
0.422176474
 40
0.461010825
 40
0.5000723639
 40
0.5391330155
 40
0.577964722
 40
0.6163421482
 40
0.654045497
 40
0.6725782506
 40
0.6908640712
 40
0.7088784101
 40
0.7265976772
 40
0.7439992928
 40
0.7610619919
 40
0.7777658169
 40
0.7940923305
 40
0.810024958
 40
0.8255489275
 40
0.8406518224
 40
0.8553237756
 40
0.8695576378
 40
0.8833499533
 40
0.8967007676
 40
0.9096149033
 40
0.9221024512
 40
0.9281911869
 40
0.9341797804
 40
0.9458699443
 40
0.957204565
 40
0.9682265785
 40
0.9736365522
 40
0.9789888283
 40
0.9842917405
 40
0.9895542303
 40
0.994786426
 40
1.0
 40
1.0
 40
1.0
 40
1.0
 10
12.587385164
 20
8.9648141108
 30
0.0
 10
12.5885071515
 20
8.9632836197
 30
0.0
 10
12.5907027333
 20
8.9601779445
 30
0.0
 10
12.593850801
 20
8.9554029259
 30
0.0
 10
12.5968690438
 20
8.9505061866
 30
0.0
 10
12.5997694731
 20
8.945488382
 30
0.0
 10
12.6025607344
 20
8.9403480429
 30
0.0
 10
12.6052501859
 20
8.9350831866
 30
0.0
 10
12.6078454643
 20
8.9296921062
 30
0.0
 10
12.6103538705
 20
8.9241733209
 30
0.0
 10
12.6127799566
 20
8.9185245959
 30
0.0
 10
12.6151281334
 20
8.9127441169
 30
0.0
 10
12.617402824
 20
8.9068302992
 30
0.0
 10
12.6203671518
 20
8.8986989182
 30
0.0
 10
12.6239007658
 20
8.8881844592
 30
0.0
 10
12.6278565207
 20
8.8751211414
 30
0.0
 10
12.6315742194
 20
8.8615067814
 30
0.0
 10
12.6350633616
 20
8.8473426676
 30
0.0
 10
12.6383295043
 20
8.8326331384
 30
0.0
 10
12.6413766084
 20
8.8173862593
 30
0.0
 10
12.6442065997
 20
8.8016129382
 30
0.0
 10
12.6468204087
 20
8.7853268867
 30
0.0
 10
12.6492180845
 20
8.7685442857
 30
0.0
 10
12.6513990875
 20
8.7512834716
 30
0.0
 10
12.6533625589
 20
8.7335648031
 30
0.0
 10
12.6551073829
 20
8.7154103844
 30
0.0
 10
12.656632409
 20
8.6968439207
 30
0.0
 10
12.6579364475
 20
8.6778905632
 30
0.0
 10
12.6590184216
 20
8.6585767286
 30
0.0
 10
12.6598773952
 20
8.6389300021
 30
0.0
 10
12.6605126005
 20
8.6189789584
 30
0.0
 10
12.6610635417
 20
8.5918570041
 30
0.0
 10
12.661181294
 20
8.5574147055
 30
0.0
 10
12.6604283989
 20
8.5155916208
 30
0.0
 10
12.6587876691
 20
8.4733014628
 30
0.0
 10
12.6562699619
 20
8.4308070287
 30
0.0
 10
12.6528911784
 20
8.3883733433
 30
0.0
 10
12.648672205
 20
8.3462650766
 30
0.0
 10
12.6436385822
 20
8.3047439787
 30
0.0
 10
12.6387625997
 20
8.2706535374
 30
0.0
 10
12.6344692041
 20
8.2438729514
 30
0.0
 10
12.6310832745
 20
8.2242055136
 30
0.0
 10
12.6275178199
 20
8.2048708097
 30
0.0
 10
12.6237775205
 20
8.1858970271
 30
0.0
 10
12.6198671011
 20
8.1673113338
 30
0.0
 10
12.6157913107
 20
8.1491397311
 30
0.0
 10
12.6115547546
 20
8.131406944
 30
0.0
 10
12.6071618735
 20
8.114136257
 30
0.0
 10
12.6026168
 20
8.09734941
 30
0.0
 10
12.5979231909
 20
8.0810663883
 30
0.0
 10
12.5930841164
 20
8.0653052638
 30
0.0
 10
12.5881016844
 20
8.0500820561
 30
0.0
 10
12.5829769829
 20
8.0354103524
 30
0.0
 10
12.5777093612
 20
8.0213013497
 30
0.0
 10
12.572296254
 20
8.0077632858
 30
0.0
 10
12.5667324501
 20
7.9948015271
 30
0.0
 10
12.5619232804
 20
7.984396557
 30
0.0
 10
12.5579874428
 20
7.9763688159
 30
0.0
 10
12.5540562359
 20
7.9686632811
 30
0.0
 10
12.549022538
 20
7.9593782581
 30
0.0
 10
12.5427141505
 20
7.9487094983
 30
0.0
 10
12.5372076104
 20
7.9402315192
 30
0.0
 10
12.5326559176
 20
7.933739121
 30
0.0
 10
12.5291795743
 20
7.9290371057
 30
0.0
 10
12.5256112082
 20
7.924472424
 30
0.0
 10
12.5219425634
 20
7.9200444077
 30
0.0
 10
12.5181630051
 20
7.9157538453
 30
0.0
 10
12.5155576497
 20
7.9129840673
 30
0.0
 10
12.5142337737
 20
7.9116247541
 30
0.0
  0
SPLINE
  5
2B4
100
AcDbEntity
  8
0
100
AcDbSpline
 62
7
  6
CONTINUOUS
 70
0
 71
3
 72
94
 73
90
 74
0
 42
0.0000001
 43
0.0000001
 44
0.0000000001
 40
0.0
 40
0.0
 40
0.0
 40
0.0
 40
0.002716411
 40
0.0054532011
 40
0.0082302517
 40
0.0110665327
 40
0.0139797269
 40
0.0169860181
 40
0.0200999739
 40
0.0233344715
 40
0.0267008148
 40
0.0302087551
 40
0.0338666474
 40
0.0376816061
 40
0.0416595573
 40
0.0458054685
 40
0.0501233829
 40
0.0546165457
 40
0.0592875464
 40
0.0641382929
 40
0.0691701949
 40
0.0743841527
 40
0.0797806066
 40
0.0853596564
 40
0.091120982
 40
0.097063984
 40
0.1031877628
 40
0.1094911152
 40
0.1159726478
 40
0.1226306791
 40
0.1364682673
 40
0.1509869912
 40
0.1661667922
 40
0.1819851405
 40
0.1984172778
 40
0.2154364407
 40
0.2330140607
 40
0.2511199271
 40
0.269722328
 40
0.2887881727
 40
0.3082831309
 40
0.3281717535
 40
0.3484175824
 40
0.3689832519
 40
0.389830592
 40
0.4109207417
 40
0.4322142489
 40
0.4536711676
 40
0.4752511532
 40
0.4969135656
 40
0.5186175702
 40
0.5403222325
 40
0.561986614
 40
0.5835698734
 40
0.6050313662
 40
0.6263307396
 40
0.6474280293
 40
0.6682837608
 40
0.6888590562
 40
0.7091157293
 40
0.7290163859
 40
0.7485245265
 40
0.7676046664
 40
0.7862224473
 40
0.804344745
 40
0.8219397924
 40
0.8389773151
 40
0.8554286959
 40
0.8712671248
 40
0.8864677785
 40
0.9010080353
 40
0.9080242659
 40
0.9148680726
 40
0.9215373706
 40
0.9280302616
 40
0.9343451056
 40
0.9404804307
 40
0.9464350605
 40
0.95220807
 40
0.9577988039
 40
0.9632069895
 40
0.9684326468
 40
0.9734762099
 40
0.9783385336
 40
0.9830209473
 40
0.9875254668
 40
0.9918546708
 40
0.9960116289
 40
1.0
 40
1.0
 40
1.0
 40
1.0
 10
12.5485642867
 20
7.6866405028
 30
0.0
 10
12.5471645055
 20
7.6867375857
 30
0.0
 10
12.5443616093
 20
7.6870591825
 30
0.0
 10
12.5401929652
 20
7.6879197877
 30
0.0
 10
12.5360558073
 20
7.6891583389
 30
0.0
 10
12.5319531209
 20
7.6907737718
 30
0.0
 10
12.5278870046
 20
7.6927645662
 30
0.0
 10
12.5238595255
 20
7.6951291608
 30
0.0
 10
12.5198726019
 20
7.6978659542
 30
0.0
 10
12.515927916
 20
7.7009730937
 30
0.0
 10
12.5120272561
 20
7.7044488693
 30
0.0
 10
12.5081722615
 20
7.7082913262
 30
0.0
 10
12.504364595
 20
7.7124984534
 30
0.0
 10
12.5006060223
 20
7.7170681722
 30
0.0
 10
12.4968981471
 20
7.7219981344
 30
0.0
 10
12.4932427601
 20
7.7272859581
 30
0.0
 10
12.489641551
 20
7.7329290181
 30
0.0
 10
12.4860962004
 20
7.738924524
 30
0.0
 10
12.4826085007
 20
7.7452695593
 30
0.0
 10
12.4791800602
 20
7.7519609518
 30
0.0
 10
12.4758126213
 20
7.7589954167
 30
0.0
 10
12.4725078425
 20
7.7663694615
 30
0.0
 10
12.469267316
 20
7.7740794102
 30
0.0
 10
12.4660927365
 20
7.782121449
 30
0.0
 10
12.4629856155
 20
7.7904915475
 30
0.0
 10
12.4599475474
 20
7.799185538
 30
0.0
 10
12.4569800684
 20
7.8081990777
 30
0.0
 10
12.4540846208
 20
7.8175276454
 30
0.0
 10
12.4512627095
 20
7.8271665956
 30
0.0
 10
12.447552356
 20
7.8405988856
 30
0.0
 10
12.4431208723
 20
7.8581366476
 30
0.0
 10
12.4381839192
 20
7.8800786226
 30
0.0
 10
12.4335718759
 20
7.9031353821
 30
0.0
 10
12.4292941107
 20
7.9272606594
 30
0.0
 10
12.4253593327
 20
7.9524061873
 30
0.0
 10
12.4217755412
 20
7.9785215336
 30
0.0
 10
12.4185500317
 20
8.0055543029
 30
0.0
 10
12.4156893733
 20
8.0334502295
 30
0.0
 10
12.4131993988
 20
8.0621532884
 30
0.0
 10
12.41108517
 20
8.0916058071
 30
0.0
 10
12.4093509899
 20
8.1217485907
 30
0.0
 10
12.4080003945
 20
8.1525210509
 30
0.0
 10
12.4070361478
 20
8.1838613269
 30
0.0
 10
12.4064602291
 20
8.215706405
 30
0.0
 10
12.406273818
 20
8.2479922476
 30
0.0
 10
12.4064773133
 20
8.2806539271
 30
0.0
 10
12.407070328
 20
8.3136257602
 30
0.0
 10
12.4080516943
 20
8.346841436
 30
0.0
 10
12.409419449
 20
8.3802341495
 30
0.0
 10
12.4111708431
 20
8.4137367381
 30
0.0
 10
12.4133023592
 20
8.4472818186
 30
0.0
 10
12.4158097148
 20
8.4808019219
 30
0.0
 10
12.4186878734
 20
8.514229628
 30
0.0
 10
12.4219310335
 20
8.5474977047
 30
0.0
 10
12.42553266
 20
8.5805392439
 30
0.0
 10
12.4294854969
 20
8.6132877933
 30
0.0
 10
12.4337815839
 20
8.64567749
 30
0.0
 10
12.4384122644
 20
8.6776431965
 30
0.0
 10
12.4433681927
 20
8.7091206371
 30
0.0
 10
12.4486393718
 20
8.7400465231
 30
0.0
 10
12.4542151682
 20
8.7703586766
 30
0.0
 10
12.4600843387
 20
8.7999961588
 30
0.0
 10
12.4662350343
 20
8.8288994026
 30
0.0
 10
12.4726548301
 20
8.8570103348
 30
0.0
 10
12.4793307611
 20
8.8842724872
 30
0.0
 10
12.4862493438
 20
8.9106311078
 30
0.0
 10
12.4933966083
 20
8.9360332887
 30
0.0
 10
12.5007581028
 20
8.9604280691
 30
0.0
 10
12.5083189461
 20
8.9837666059
 30
0.0
 10
12.5160638609
 20
9.0060020352
 30
0.0
 10
12.5227351371
 20
9.023780408
 30
0.0
 10
12.5281606974
 20
9.0374106296
 30
0.0
 10
12.5322177259
 20
9.0472085452
 30
0.0
 10
12.5363089634
 20
9.0566985577
 30
0.0
 10
12.5404324135
 20
9.0658759067
 30
0.0
 10
12.5445859331
 20
9.0747360126
 30
0.0
 10
12.5487675025
 20
9.0832744205
 30
0.0
 10
12.5529749849
 20
9.0914868702
 30
0.0
 10
12.5572062594
 20
9.0993692634
 30
0.0
 10
12.5614592642
 20
9.1069176445
 30
0.0
 10
12.5657318048
 20
9.1141282869
 30
0.0
 10
12.5700218189
 20
9.1209975724
 30
0.0
 10
12.5743271384
 20
9.1275220862
 30
0.0
 10
12.5786455843
 20
9.1336985999
 30
0.0
 10
12.5829751239
 20
9.1395240401
 30
0.0
 10
12.5873136209
 20
9.1449956204
 30
0.0
 10
12.591659086
 20
9.1501106316
 30
0.0
 10
12.5960091333
 20
9.1548662978
 30
0.0
 10
12.5989710857
 20
9.1578565056
 30
0.0
 10
12.6004528698
 20
9.1592877992
 30
0.0
  0
SPLINE
  5
2B5
100
AcDbEntity
  8
0
100
AcDbSpline
 62
7
  6
CONTINUOUS
 70
0
 71
3
 72
78
 73
74
 74
0
 42
0.0000001
 43
0.0000001
 44
0.0000000001
 40
0.0
 40
0.0
 40
0.0
 40
0.0
 40
0.0027164338
 40
0.0054532518
 40
0.0082303302
 40
0.0110666399
 40
0.0139798745
 40
0.0169861963
 40
0.0201001798
 40
0.0233347338
 40
0.0267011066
 40
0.0302090801
 40
0.0338670386
 40
0.0376820289
 40
0.0416600219
 40
0.0458059978
 40
0.0501239566
 40
0.0546171648
 40
0.059288228
 40
0.0641390363
 40
0.0691709779
 40
0.0743850048
 40
0.085359957
 40
0.0970638947
 40
0.1094906973
 40
0.1226300051
 40
0.1364677522
 40
0.1509866144
 40
0.16616658
 40
0.1819850977
 40
0.1984173784
 40
0.2154367196
 40
0.2330145192
 40
0.251120552
 40
0.2697231423
 40
0.2887891639
 40
0.3082843013
 40
0.3281731255
 40
0.3484191393
 40
0.3689849969
 40
0.4109221184
 40
0.4536722256
 40
0.4969143244
 40
0.5403226995
 40
0.5835700361
 40
0.6263305661
 40
0.6682832084
 40
0.6888586792
 40
0.7091155366
 40
0.7290163639
 40
0.7485246683
 40
0.7676049911
 40
0.7862229287
 40
0.8043453773
 40
0.8219405891
 40
0.8389782496
 40
0.8554297803
 40
0.8712683595
 40
0.8864691229
 40
0.9010095138
 40
0.9148693555
 40
0.9280312659
 40
0.9404811001
 40
0.9522082881
 40
0.9632066705
 40
0.9684323779
 40
0.9734759505
 40
0.9783382384
 40
0.9830207374
 40
0.9875254301
 40
0.9918547875
 40
0.9960117677
 40
1.0
 40
1.0
 40
1.0
 40
1.0
 10
12.5766531537
 20
9.4806690569
 30
0.0
 10
12.5760111218
 20
9.4807135889
 30
0.0
 10
12.5747255296
 20
9.4808611185
 30
0.0
 10
12.5728135161
 20
9.4812558668
 30
0.0
 10
12.5709159403
 20
9.4818239532
 30
0.0
 10
12.5690341705
 20
9.4825648988
 30
0.0
 10
12.5671691925
 20
9.4834780472
 30
0.0
 10
12.5653219212
 20
9.4845626093
 30
0.0
 10
12.5634932396
 20
9.485817879
 30
0.0
 10
12.5616839733
 20
9.4872430657
 30
0.0
 10
12.5598948574
 20
9.4888372792
 30
0.0
 10
12.5581266916
 20
9.4905996886
 30
0.0
 10
12.5563802727
 20
9.4925293931
 30
0.0
 10
12.5546563233
 20
9.4946253647
 30
0.0
 10
12.5529556451
 20
9.4968865821
 30
0.0
 10
12.5512790587
 20
9.4993119515
 30
0.0
 10
12.5496272982
 20
9.5019002394
 30
0.0
 10
12.5480011633
 20
9.5046501838
 30
0.0
 10
12.5464014787
 20
9.507560454
 30
0.0
 10
12.5448289806
 20
9.5106295828
 30
0.0
 10
12.5432844206
 20
9.5138560611
 30
0.0
 10
12.5412281619
 20
9.5184444587
 30
0.0
 10
12.5387414837
 20
9.5245696686
 30
0.0
 10
12.5359297747
 20
9.5323992503
 30
0.0
 10
12.5332470229
 20
9.5408136405
 30
0.0
 10
12.5306986661
 20
9.5497960993
 30
0.0
 10
12.5282898596
 20
9.5593288773
 30
0.0
 10
12.5260254439
 20
9.5693929847
 30
0.0
 10
12.5239100629
 20
9.579968349
 30
0.0
 10
12.5219480087
 20
9.5910338204
 30
0.0
 10
12.5201432468
 20
9.602567237
 30
0.0
 10
12.5184994946
 20
9.6145454804
 30
0.0
 10
12.5170200707
 20
9.6269445154
 30
0.0
 10
12.5157079775
 20
9.6397394495
 30
0.0
 10
12.5145659237
 20
9.6529045861
 30
0.0
 10
12.5135961988
 20
9.6664134731
 30
0.0
 10
12.5128007843
 20
9.6802389626
 30
0.0
 10
12.5121813326
 20
9.6943532592
 30
0.0
 10
12.5117390507
 20
9.7087280112
 30
0.0
 10
12.5113846124
 20
9.7283300399
 30
0.0
 10
12.511396441
 20
9.7532691221
 30
0.0
 10
12.5121212226
 20
9.7835719292
 30
0.0
 10
12.5135512424
 20
9.8141986254
 30
0.0
 10
12.5156750747
 20
9.8449030594
 30
0.0
 10
12.5184756804
 20
9.8754386708
 30
0.0
 10
12.5219304788
 20
9.9055600516
 30
0.0
 10
12.5253529493
 20
9.9302716835
 30
0.0
 10
12.5284033891
 20
9.9496467768
 30
0.0
 10
12.5308211096
 20
9.9638314508
 30
0.0
 10
12.5333785417
 20
9.9777346076
 30
0.0
 10
12.5360705422
 20
9.991328321
 30
0.0
 10
12.538891647
 20
10.0045852665
 30
0.0
 10
12.5418361995
 20
10.0174788013
 30
0.0
 10
12.5448982305
 20
10.0299830281
 30
0.0
 10
12.5480715424
 20
10.0420728384
 30
0.0
 10
12.5513497631
 20
10.0537239588
 30
0.0
 10
12.5547262307
 20
10.0649130266
 30
0.0
 10
12.5581941262
 20
10.075617616
 30
0.0
 10
12.5617464745
 20
10.0858162896
 30
0.0
 10
12.5653760532
 20
10.0954886738
 30
0.0
 10
12.5690755633
 20
10.1046154756
 30
0.0
 10
12.5728375677
 20
10.1131785224
 30
0.0
 10
12.5766544713
 20
10.121160924
 30
0.0
 10
12.5805186683
 20
10.1285467836
 30
0.0
 10
12.583825955
 20
10.1342866811
 30
0.0
 10
12.5864951654
 20
10.1385608311
 30
0.0
 10
12.58846985
 20
10.1415533997
 30
0.0
 10
12.5904505794
 20
10.1443863325
 30
0.0
 10
12.5924363977
 20
10.1470582919
 30
0.0
 10
12.5944263678
 20
10.1495679724
 30
0.0
 10
12.5964195456
 20
10.1519140777
 30
0.0
 10
12.5984147446
 20
10.1540953366
 30
0.0
 10
12.599773255
 20
10.1554668185
 30
0.0
 10
12.6004528698
 20
10.1561232759
 30
0.0
  0
SPLINE
  5
2B6
100
AcDbEntity
  8
0
100
AcDbSpline
 62
7
  6
CONTINUOUS
 70
0
 71
3
 72
78
 73
74
 74
0
 42
0.0000001
 43
0.0000001
 44
0.0000000001
 40
0.0
 40
0.0
 40
0.0
 40
0.0
 40
0.0027164338
 40
0.0054532518
 40
0.0082303302
 40
0.0110666399
 40
0.0139798745
 40
0.0169861963
 40
0.0201001798
 40
0.0233347338
 40
0.0267011066
 40
0.0302090801
 40
0.0338670386
 40
0.0376820289
 40
0.0416600219
 40
0.0458059978
 40
0.0501239566
 40
0.0546171648
 40
0.059288228
 40
0.0641390363
 40
0.0691709779
 40
0.0743850048
 40
0.085359957
 40
0.0970638947
 40
0.1094906973
 40
0.1226300051
 40
0.1364677522
 40
0.1509866144
 40
0.16616658
 40
0.1819850977
 40
0.1984173784
 40
0.2154367196
 40
0.2330145192
 40
0.251120552
 40
0.2697231423
 40
0.2887891639
 40
0.3082843013
 40
0.3281731255
 40
0.3484191393
 40
0.3689849969
 40
0.4109221184
 40
0.4536722256
 40
0.4969143244
 40
0.5403226995
 40
0.5835700361
 40
0.6263305661
 40
0.6682832084
 40
0.6888586792
 40
0.7091155366
 40
0.7290163639
 40
0.7485246683
 40
0.7676049911
 40
0.7862229287
 40
0.8043453773
 40
0.8219405891
 40
0.8389782496
 40
0.8554297803
 40
0.8712683595
 40
0.8864691229
 40
0.9010095138
 40
0.9148693555
 40
0.9280312659
 40
0.9404811001
 40
0.9522082881
 40
0.9632066705
 40
0.9684323779
 40
0.9734759505
 40
0.9783382384
 40
0.9830207374
 40
0.9875254301
 40
0.9918547875
 40
0.9960117677
 40
1.0
 40
1.0
 40
1.0
 40
1.0
 10
12.5766531537
 20
6.7026662859
 30
0.0
 10
12.5760111218
 20
6.7027108179
 30
0.0
 10
12.5747255296
 20
6.7028583475
 30
0.0
 10
12.5728135161
 20
6.7032530958
 30
0.0
 10
12.5709159403
 20
6.7038211822
 30
0.0
 10
12.5690341705
 20
6.7045621278
 30
0.0
 10
12.5671691925
 20
6.7054752762
 30
0.0
 10
12.5653219212
 20
6.7065598383
 30
0.0
 10
12.5634932396
 20
6.707815108
 30
0.0
 10
12.5616839733
 20
6.7092402947
 30
0.0
 10
12.5598948574
 20
6.7108345082
 30
0.0
 10
12.5581266916
 20
6.7125969176
 30
0.0
 10
12.5563802727
 20
6.7145266221
 30
0.0
 10
12.5546563233
 20
6.7166225937
 30
0.0
 10
12.5529556451
 20
6.7188838111
 30
0.0
 10
12.5512790587
 20
6.7213091805
 30
0.0
 10
12.5496272982
 20
6.7238974684
 30
0.0
 10
12.5480011633
 20
6.7266474128
 30
0.0
 10
12.5464014787
 20
6.729557683
 30
0.0
 10
12.5448289806
 20
6.7326268118
 30
0.0
 10
12.5432844206
 20
6.7358532901
 30
0.0
 10
12.5412281619
 20
6.7404416877
 30
0.0
 10
12.5387414837
 20
6.7465668976
 30
0.0
 10
12.5359297747
 20
6.7543964793
 30
0.0
 10
12.5332470229
 20
6.7628108695
 30
0.0
 10
12.5306986661
 20
6.7717933283
 30
0.0
 10
12.5282898596
 20
6.7813261063
 30
0.0
 10
12.5260254439
 20
6.7913902137
 30
0.0
 10
12.5239100629
 20
6.801965578
 30
0.0
 10
12.5219480087
 20
6.8130310494
 30
0.0
 10
12.5201432468
 20
6.824564466
 30
0.0
 10
12.5184994946
 20
6.8365427094
 30
0.0
 10
12.5170200707
 20
6.8489417444
 30
0.0
 10
12.5157079775
 20
6.8617366785
 30
0.0
 10
12.5145659237
 20
6.8749018151
 30
0.0
 10
12.5135961988
 20
6.8884107021
 30
0.0
 10
12.5128007843
 20
6.9022361916
 30
0.0
 10
12.5121813326
 20
6.9163504882
 30
0.0
 10
12.5117390507
 20
6.9307252402
 30
0.0
 10
12.5113846124
 20
6.9503272689
 30
0.0
 10
12.511396441
 20
6.9752663511
 30
0.0
 10
12.5121212226
 20
7.0055691582
 30
0.0
 10
12.5135512424
 20
7.0361958544
 30
0.0
 10
12.5156750747
 20
7.0669002884
 30
0.0
 10
12.5184756804
 20
7.0974358998
 30
0.0
 10
12.5219304788
 20
7.1275572806
 30
0.0
 10
12.5253529493
 20
7.1522689125
 30
0.0
 10
12.5284033891
 20
7.1716440058
 30
0.0
 10
12.5308211096
 20
7.1858286798
 30
0.0
 10
12.5333785417
 20
7.1997318366
 30
0.0
 10
12.5360705422
 20
7.21332555
 30
0.0
 10
12.538891647
 20
7.2265824955
 30
0.0
 10
12.5418361995
 20
7.2394760303
 30
0.0
 10
12.5448982305
 20
7.2519802571
 30
0.0
 10
12.5480715424
 20
7.2640700674
 30
0.0
 10
12.5513497631
 20
7.2757211878
 30
0.0
 10
12.5547262307
 20
7.2869102556
 30
0.0
 10
12.5581941262
 20
7.297614845
 30
0.0
 10
12.5617464745
 20
7.3078135186
 30
0.0
 10
12.5653760532
 20
7.3174859028
 30
0.0
 10
12.5690755633
 20
7.3266127046
 30
0.0
 10
12.5728375677
 20
7.3351757514
 30
0.0
 10
12.5766544713
 20
7.343158153
 30
0.0
 10
12.5805186683
 20
7.3505440126
 30
0.0
 10
12.583825955
 20
7.3562839101
 30
0.0
 10
12.5864951654
 20
7.3605580601
 30
0.0
 10
12.58846985
 20
7.3635506287
 30
0.0
 10
12.5904505794
 20
7.3663835615
 30
0.0
 10
12.5924363977
 20
7.3690555209
 30
0.0
 10
12.5944263678
 20
7.3715652014
 30
0.0
 10
12.5964195456
 20
7.3739113067
 30
0.0
 10
12.5984147446
 20
7.3760925656
 30
0.0
 10
12.599773255
 20
7.3774640475
 30
0.0
 10
12.6004528698
 20
7.3781205049
 30
0.0
  0
LINE
  5
2B7
100
AcDbEntity
  8
0
100
AcDbLine
 62
7
  6
CONTINUOUS
 10
9.3708717574
 20
6.7979253632
 11
9.3696548427
 21
6.7966852313
  0
SPLINE
  5
2B8
100
AcDbEntity
  8
0
100
AcDbSpline
 62
7
  6
CONTINUOUS
 70
0
 71
3
 72
67
 73
63
 74
0
 42
0.0000001
 43
0.0000001
 44
0.0000000001
 40
0.0
 40
0.0
 40
0.0
 40
0.0
 40
0.0149636113
 40
0.0299322014
 40
0.0449086352
 40
0.0598957309
 40
0.0748962441
 40
0.0899128555
 40
0.1049481519
 40
0.1200046118
 40
0.1350845959
 40
0.1501903296
 40
0.1653238918
 40
0.1804872077
 40
0.1956820349
 40
0.2109099544
 40
0.2261723684
 40
0.2414704874
 40
0.256805327
 40
0.2721777081
 40
0.2875882468
 40
0.3030373565
 40
0.3185252497
 40
0.3340519322
 40
0.3496172087
 40
0.3652206872
 40
0.380861776
 40
0.3965396938
 40
0.4122534747
 40
0.4280019693
 40
0.4437838573
 40
0.459597654
 40
0.475441714
 40
0.4913142468
 40
0.5072133231
 40
0.5231368822
 40
0.5390827486
 40
0.5550486385
 40
0.5710321705
 40
0.5870308823
 40
0.619059065
 40
0.6511168394
 40
0.6831827041
 40
0.7152350051
 40
0.7312516485
 40
0.7472569231
 40
0.7632482627
 40
0.7792231664
 40
0.79517921
 40
0.8111140623
 40
0.8270254916
 40
0.8429113788
 40
0.8587697299
 40
0.8745986828
 40
0.8903965229
 40
0.9061616781
 40
0.9218927444
 40
0.9375885369
 40
0.953247885
 40
0.9688698932
 40
0.9844545763
 40
1.0
 40
1.0
 40
1.0
 40
1.0
 10
9.3696548427
 20
6.7966852313
 30
0.0
 10
9.362183782
 20
6.7890556154
 30
0.0
 10
9.3475332038
 20
6.7735026945
 30
0.0
 10
9.3264731775
 20
6.7493360416
 30
0.0
 10
9.3063525902
 20
6.7243596601
 30
0.0
 10
9.2871982695
 20
6.6986065656
 30
0.0
 10
9.2690350238
 20
6.6721103684
 30
0.0
 10
9.2518866147
 20
6.644905718
 30
0.0
 10
9.2357755202
 20
6.6170281062
 30
0.0
 10
9.2207226713
 20
6.5885140324
 30
0.0
 10
9.2067477479
 20
6.5594007378
 30
0.0
 10
9.1938690711
 20
6.5297262334
 30
0.0
 10
9.1821033304
 20
6.4995293469
 30
0.0
 10
9.1714659285
 20
6.4688495094
 30
0.0
 10
9.1619708008
 20
6.43772679
 30
0.0
 10
9.1536302097
 20
6.406201886
 30
0.0
 10
9.1464551008
 20
6.374315958
 30
0.0
 10
9.1404548583
 20
6.3421106559
 30
0.0
 10
9.1356371817
 20
6.3096280667
 30
0.0
 10
9.1320084316
 20
6.2769106006
 30
0.0
 10
9.1295733315
 20
6.2440009926
 30
0.0
 10
9.1283349349
 20
6.2109422266
 30
0.0
 10
9.1282949428
 20
6.177777468
 30
0.0
 10
9.1294533644
 20
6.1445500285
 30
0.0
 10
9.1318085782
 20
6.1113032883
 30
0.0
 10
9.1353576037
 20
6.0780806641
 30
0.0
 10
9.1400957395
 20
6.044925531
 30
0.0
 10
9.146016713
 20
6.0118811611
 30
0.0
 10
9.1531128944
 20
5.9789907154
 30
0.0
 10
9.1613749318
 20
5.9462971191
 30
0.0
 10
9.1707919778
 20
5.9138430349
 30
0.0
 10
9.1813518395
 20
5.8816708619
 30
0.0
 10
9.1930406295
 20
5.8498225698
 30
0.0
 10
9.2058430541
 20
5.8183397177
 30
0.0
 10
9.2197424973
 20
5.7872634429
 30
0.0
 10
9.2347206999
 20
5.756634274
 30
0.0
 10
9.2507581229
 20
5.7264921558
 30
0.0
 10
9.2678338324
 20
5.6968765895
 30
0.0
 10
9.2859257397
 20
5.6678257726
 30
0.0
 10
9.3113777368
 20
5.6298856724
 30
0.0
 10
9.3456124465
 20
5.5840646731
 30
0.0
 10
9.3903293731
 20
5.5319533388
 30
0.0
 10
9.4384672427
 20
5.4829604787
 30
0.0
 10
9.4812396856
 20
5.4449318373
 30
0.0
 10
9.5169118448
 20
5.416315211
 30
0.0
 10
9.5443532838
 20
5.3957867939
 30
0.0
 10
9.5724494239
 20
5.3762166985
 30
0.0
 10
9.6011640246
 20
5.3576302113
 30
0.0
 10
9.6304595016
 20
5.3400516905
 30
0.0
 10
9.6602976
 20
5.323503986
 30
0.0
 10
9.6906394227
 20
5.3080088104
 30
0.0
 10
9.7214453506
 20
5.2935863733
 30
0.0
 10
9.7526751448
 20
5.2802554441
 30
0.0
 10
9.7842880914
 20
5.268033546
 30
0.0
 10
9.8162429
 20
5.2569366021
 30
0.0
 10
9.8484978398
 20
5.2469790543
 30
0.0
 10
9.8810108669
 20
5.2381740225
 30
0.0
 10
9.9137394906
 20
5.2305329959
 30
0.0
 10
9.9466408651
 20
5.2240658866
 30
0.0
 10
9.9796726112
 20
5.2187811754
 30
0.0
 10
10.0127905084
 20
5.214686036
 30
0.0
 10
10.0349267945
 20
5.2127497902
 30
0.0
 10
10.0459937875
 20
5.2119822916
 30
0.0
  0
SPLINE
  5
2B9
100
AcDbEntity
  8
0
100
AcDbSpline
 62
7
  6
CONTINUOUS
 70
0
 71
3
 72
27
 73
23
 74
0
 42
0.0000001
 43
0.0000001
 44
0.0000000001
 40
0.0
 40
0.0
 40
0.0
 40
0.0
 40
0.0229970253
 40
0.0467982461
 40
0.0713846537
 40
0.0967354299
 40
0.122828488
 40
0.1496401705
 40
0.1771457534
 40
0.205319135
 40
0.2635589981
 40
0.324132206
 40
0.3867957297
 40
0.4512942145
 40
0.517361788
 40
0.5847237785
 40
0.6530983723
 40
0.7221982436
 40
0.791732132
 40
0.8614064919
 40
0.9309269117
 40
1.0
 40
1.0
 40
1.0
 40
1.0
 10
12.5171662945
 20
8.7465763102
 30
0.0
 10
12.5178445188
 20
8.7437909395
 30
0.0
 10
12.5191671772
 20
8.7381086586
 30
0.0
 10
12.5210234119
 20
8.7294053175
 30
0.0
 10
12.5227843358
 20
8.7203830618
 30
0.0
 10
12.524448011
 20
8.7110520743
 30
0.0
 10
12.5260124882
 20
8.7014228291
 30
0.0
 10
12.527476052
 20
8.6915061587
 30
0.0
 10
12.5288369991
 20
8.6813132076
 30
0.0
 10
12.5305314519
 20
8.6672134726
 30
0.0
 10
12.532372327
 20
8.6489812396
 30
0.0
 10
12.5341273304
 20
8.626425201
 30
0.0
 10
12.5354437151
 20
8.6030579407
 30
0.0
 10
12.5363154148
 20
8.5789846563
 30
0.0
 10
12.5367383452
 20
8.5543136182
 30
0.0
 10
12.5367104892
 20
8.5291558662
 30
0.0
 10
12.536231883
 20
8.5036246435
 30
0.0
 10
12.5353046176
 20
8.4778348945
 30
0.0
 10
12.5339328285
 20
8.451902742
 30
0.0
 10
12.5321226687
 20
8.4259449316
 30
0.0
 10
12.5298823016
 20
8.4000784382
 30
0.0
 10
12.5281003837
 20
8.3828928434
 30
0.0
 10
12.5271382802
 20
8.374336278
 30
0.0
  0
SPLINE
  5
2BA
100
AcDbEntity
  8
0
100
AcDbSpline
 62
7
  6
CONTINUOUS
 70
0
 71
3
 72
49
 73
45
 74
0
 42
0.0000001
 43
0.0000001
 44
0.0000000001
 40
0.0
 40
0.0
 40
0.0
 40
0.0
 40
0.0149702071
 40
0.0299433835
 40
0.0449224837
 40
0.0599104232
 40
0.0749100682
 40
0.0899242153
 40
0.1049555729
 40
0.1200067535
 40
0.1350802483
 40
0.1501784221
 40
0.1653034966
 40
0.1804575348
 40
0.1956424398
 40
0.2108599324
 40
0.2261115533
 40
0.2413986509
 40
0.2567223714
 40
0.2720836652
 40
0.2874832678
 40
0.3029217116
 40
0.3339110136
 40
0.3650568582
 40
0.3963559628
 40
0.4278018479
 40
0.4593850148
 40
0.4910931784
 40
0.5229115462
 40
0.5548231384
 40
0.5868091434
 40
0.6188492981
 40
0.6509222897
 40
0.6830061702
 40
0.7150787816
 40
0.7471181836
 40
0.7791030777
 40
0.8110132225
 40
0.8428298343
 40
0.8745359702
 40
0.9061168618
 40
0.9375603584
 40
0.9688566814
 40
1.0
 40
1.0
 40
1.0
 40
1.0
 10
9.6472631388
 20
6.578664613
 30
0.0
 10
9.6423584486
 20
6.5739270402
 30
0.0
 10
9.6327326554
 20
6.5642577128
 30
0.0
 10
9.6188714452
 20
6.5491979411
 30
0.0
 10
9.605604706
 20
6.5336009124
 30
0.0
 10
9.5929504795
 20
6.517487746
 30
0.0
 10
9.5809254901
 20
6.5008799734
 30
0.0
 10
9.5695459783
 20
6.4837996997
 30
0.0
 10
9.5588269762
 20
6.4662698543
 30
0.0
 10
9.548782907
 20
6.4483137956
 30
0.0
 10
9.5394271622
 20
6.4299555357
 30
0.0
 10
9.5307721503
 20
6.4112196427
 30
0.0
 10
9.5228295817
 20
6.392131083
 30
0.0
 10
9.5156098714
 20
6.3727154387
 30
0.0
 10
9.5091227958
 20
6.3529985946
 30
0.0
 10
9.5033769461
 20
6.3330069184
 30
0.0
 10
9.4983799346
 20
6.3127671245
 30
0.0
 10
9.4941385635
 20
6.2923062263
 30
0.0
 10
9.4906582931
 20
6.2716515671
 30
0.0
 10
9.4879439256
 20
6.2508308005
 30
0.0
 10
9.4859989805
 20
6.2298713918
 30
0.0
 10
9.484433141
 20
6.2017464962
 30
0.0
 10
9.4844172733
 20
6.1663762441
 30
0.0
 10
9.4874936863
 20
6.1238906979
 30
0.0
 10
9.4936481722
 20
6.081530035
 30
0.0
 10
9.5028475694
 20
6.0395217402
 30
0.0
 10
9.5150423825
 20
5.9980893918
 30
0.0
 10
9.5301672515
 20
5.957453968
 30
0.0
 10
9.5481412483
 20
5.917832018
 30
0.0
 10
9.5688682829
 20
5.8794346811
 30
0.0
 10
9.5922376648
 20
5.8424665458
 30
0.0
 10
9.6181246876
 20
5.8071245879
 30
0.0
 10
9.6463912871
 20
5.7735971307
 30
0.0
 10
9.6768867757
 20
5.7420628624
 30
0.0
 10
9.7094486006
 20
5.7126898575
 30
0.0
 10
9.7439032277
 20
5.6856347048
 30
0.0
 10
9.7800670677
 20
5.6610416967
 30
0.0
 10
9.8177474435
 20
5.6390420632
 30
0.0
 10
9.8567435812
 20
5.619753283
 30
0.0
 10
9.8968477419
 20
5.6032784477
 30
0.0
 10
9.9378459944
 20
5.5897056473
 30
0.0
 10
9.9795205119
 20
5.5791076608
 30
0.0
 10
10.0216462393
 20
5.5715414168
 30
0.0
 10
10.0499588907
 20
5.5685377969
 30
0.0
 10
10.0641111057
 20
5.5675563375
 30
0.0
  0
SPLINE
  5
2BB
100
AcDbEntity
  8
0
100
AcDbSpline
 62
7
  6
CONTINUOUS
 70
0
 71
3
 72
43
 73
39
 74
0
 42
0.0000001
 43
0.0000001
 44
0.0000000001
 40
0.0
 40
0.0
 40
0.0
 40
0.0
 40
0.0150142258
 40
0.0300524393
 40
0.0451160168
 40
0.0602062251
 40
0.0904672316
 40
0.1208472857
 40
0.1360858055
 40
0.1513561885
 40
0.1666588874
 40
0.1819942208
 40
0.2127598032
 40
0.2436567145
 40
0.2746830419
 40
0.3058349412
 40
0.3371067169
 40
0.3684909268
 40
0.3999785082
 40
0.431558923
 40
0.4632203209
 40
0.4949497151
 40
0.5267331717
 40
0.5585560078
 40
0.5904029973
 40
0.6222585815
 40
0.654107084
 40
0.6859329254
 40
0.7177208383
 40
0.749456078
 40
0.7811246294
 40
0.8127134062
 40
0.8442104398
 40
0.8756050586
 40
0.9068880497
 40
0.9380518108
 40
0.969090467
 40
1.0
 40
1.0
 40
1.0
 40
1.0
 10
9.8182929837
 20
6.6889184335
 30
0.0
 10
9.8159541333
 20
6.6835959905
 30
0.0
 10
9.8114453606
 20
6.6728657637
 30
0.0
 10
9.8052011929
 20
6.6565474014
 30
0.0
 10
9.7994766132
 20
6.6400080962
 30
0.0
 10
9.7925379164
 20
6.6176641153
 30
0.0
 10
9.7851914523
 20
6.5892534176
 30
0.0
 10
9.7796532563
 20
6.5603775505
 30
0.0
 10
9.7763097448
 20
6.5370357538
 30
0.0
 10
9.7743461747
 20
6.5194030411
 30
0.0
 10
9.7729316453
 20
6.5016802241
 30
0.0
 10
9.7717778859
 20
6.477928981
 30
0.0
 10
9.771717858
 20
6.4480940281
 30
0.0
 10
9.7738508307
 20
6.4122455648
 30
0.0
 10
9.7781802403
 20
6.3764445049
 30
0.0
 10
9.784689481
 20
6.3408278501
 30
0.0
 10
9.7933536188
 20
6.3055307063
 30
0.0
 10
9.8041395657
 20
6.2706872543
 30
0.0
 10
9.8170061878
 20
6.2364298462
 30
0.0
 10
9.831904469
 20
6.2028886151
 30
0.0
 10
9.8487776967
 20
6.170190956
 30
0.0
 10
9.867561678
 20
6.1384610548
 30
0.0
 10
9.8881849831
 20
6.1078194185
 30
0.0
 10
9.9105692155
 20
6.0783824215
 30
0.0
 10
9.9346293088
 20
6.050261868
 30
0.0
 10
9.9602738474
 20
6.0235645698
 30
0.0
 10
9.9874054122
 20
5.9983919439
 30
0.0
 10
10.0159209477
 20
5.9748396302
 30
0.0
 10
10.0457121509
 20
5.9529971299
 30
0.0
 10
10.0766658791
 20
5.932947468
 30
0.0
 10
10.1086645758
 20
5.9147668795
 30
0.0
 10
10.1415867168
 20
5.8985245205
 30
0.0
 10
10.1753072528
 20
5.8842822069
 30
0.0
 10
10.209698136
 20
5.8720941765
 30
0.0
 10
10.2446285934
 20
5.8620068946
 30
0.0
 10
10.2799663924
 20
5.854058827
 30
0.0
 10
10.3155754633
 20
5.8482804805
 30
0.0
 10
10.3394602064
 20
5.845884153
 30
0.0
 10
10.3514000086
 20
5.8450561249
 30
0.0
  0
SPLINE
  5
2BC
100
AcDbEntity
  8
0
100
AcDbSpline
 62
7
  6
CONTINUOUS
 70
0
 71
3
 72
43
 73
39
 74
0
 42
0.0000001
 43
0.0000001
 44
0.0000000001
 40
0.0
 40
0.0
 40
0.0
 40
0.0
 40
0.0149742279
 40
0.0299677417
 40
0.044982447
 40
0.0600201562
 40
0.0750825708
 40
0.0901712827
 40
0.1052877623
 40
0.1204333531
 40
0.1508122945
 40
0.1813205077
 40
0.2119637603
 40
0.2427454625
 40
0.2736666398
 40
0.3047259473
 40
0.335919724
 40
0.3672420825
 40
0.398685033
 40
0.4302386375
 40
0.4618911889
 40
0.4936294144
 40
0.5254386959
 40
0.557303308
 40
0.5892066676
 40
0.6211315936
 40
0.6530605731
 40
0.6849760312
 40
0.7168606011
 40
0.7486973916
 40
0.7804702501
 40
0.8121640177
 40
0.8437647719
 40
0.8752600623
 40
0.9066390913
 40
0.9378930363
 40
0.9690147524
 40
1.0
 40
1.0
 40
1.0
 40
1.0
 10
9.6846186097
 20
9.0785483889
 30
0.0
 10
9.6802766044
 20
9.0712215195
 30
0.0
 10
9.6718404793
 20
9.056406424
 30
0.0
 10
9.659954549
 20
9.0337451279
 30
0.0
 10
9.648840964
 20
9.0106548208
 30
0.0
 10
9.6385119142
 20
8.9871603748
 30
0.0
 10
9.6289782522
 20
8.9632867327
 30
0.0
 10
9.6202501396
 20
8.9390594472
 30
0.0
 10
9.6123368898
 20
8.9145039121
 30
0.0
 10
9.6028748216
 20
8.8813311184
 30
0.0
 10
9.5931280075
 20
8.8391625102
 30
0.0
 10
9.5848199201
 20
8.7877323625
 30
0.0
 10
9.5799210843
 20
8.7356355065
 30
0.0
 10
9.5784524086
 20
8.6830953194
 30
0.0
 10
9.5804196202
 20
8.6303350558
 30
0.0
 10
9.5858139982
 20
8.5775793514
 30
0.0
 10
9.5946122241
 20
8.5250526151
 30
0.0
 10
9.6067765437
 20
8.4729782623
 30
0.0
 10
9.6222548994
 20
8.4215777198
 30
0.0
 10
9.6409811871
 20
8.37106951
 30
0.0
 10
9.662875539
 20
8.3216683297
 30
0.0
 10
9.6878446653
 20
8.2735841487
 30
0.0
 10
9.7157822512
 20
8.2270213275
 30
0.0
 10
9.7465694075
 20
8.1821777583
 30
0.0
 10
9.7800751722
 20
8.139244032
 30
0.0
 10
9.8161570469
 20
8.0984026211
 30
0.0
 10
9.8546616193
 20
8.0598271226
 30
0.0
 10
9.8954252096
 20
8.0236815277
 30
0.0
 10
9.9382745598
 20
7.9901195301
 30
0.0
 10
9.9830275641
 20
7.9592838782
 30
0.0
 10
10.0294940329
 20
7.9313057725
 30
0.0
 10
10.0774764999
 20
7.9063043117
 30
0.0
 10
10.1267710178
 20
7.8843859608
 30
0.0
 10
10.177168117
 20
7.8656441401
 30
0.0
 10
10.2284533778
 20
7.8501587658
 30
0.0
 10
10.2804094582
 20
7.8379960455
 30
0.0
 10
10.3328125934
 20
7.8292080567
 30
0.0
 10
10.3679830259
 20
7.8256160183
 30
0.0
 10
10.3855641061
 20
7.8243967662
 30
0.0
  0
SPLINE
  5
2BD
100
AcDbEntity
  8
0
100
AcDbSpline
 62
7
  6
CONTINUOUS
 70
0
 71
3
 72
50
 73
46
 74
0
 42
0.0000001
 43
0.0000001
 44
0.0000000001
 40
0.0
 40
0.0
 40
0.0
 40
0.0
 40
0.0094676031
 40
0.0186047385
 40
0.0274605132
 40
0.0360850939
 40
0.0445300579
 40
0.0528460537
 40
0.0610834188
 40
0.069290165
 40
0.0775116173
 40
0.0857903599
 40
0.0941645817
 40
0.1026692658
 40
0.120180971
 40
0.1292475025
 40
0.1385466159
 40
0.157904256
 40
0.1679966126
 40
0.178377799
 40
0.1890577849
 40
0.2000447315
 40
0.2113454948
 40
0.2229668957
 40
0.2349146713
 40
0.2471937028
 40
0.2727644296
 40
0.2997182912
 40
0.3280926686
 40
0.3579260855
 40
0.3892607188
 40
0.4221439763
 40
0.4566281814
 40
0.4927714247
 40
0.5306362792
 40
0.5702867442
 40
0.6117829196
 40
0.6551709822
 40
0.7004662141
 40
0.7476255976
 40
0.7965065628
 40
0.8468127951
 40
0.8980346217
 40
0.9494174889
 40
1.0
 40
1.0
 40
1.0
 40
1.0
 10
10.0091324175
 20
7.6850289276
 30
0.0
 10
10.008696958
 20
7.6862324099
 30
0.0
 10
10.0079266658
 20
7.6886295128
 30
0.0
 10
10.0070659648
 20
7.692244257
 30
0.0
 10
10.0065139462
 20
7.6958038749
 30
0.0
 10
10.0062624502
 20
7.6993034736
 30
0.0
 10
10.0063031969
 20
7.7027389185
 30
0.0
 10
10.0066277584
 20
7.7061066116
 30
0.0
 10
10.0072279441
 20
7.7094034173
 30
0.0
 10
10.008095442
 20
7.7126267696
 30
0.0
 10
10.0092222149
 20
7.715774627
 30
0.0
 10
10.0106004569
 20
7.7188453121
 30
0.0
 10
10.0122226178
 20
7.7218379043
 30
0.0
 10
10.0147247187
 20
7.7257598419
 30
0.0
 10
10.0176781093
 20
7.7294898565
 30
0.0
 10
10.0210115305
 20
7.7330149924
 30
0.0
 10
10.0247159054
 20
7.7365229952
 30
0.0
 10
10.0287958232
 20
7.7398233435
 30
0.0
 10
10.0331960378
 20
7.7429282754
 30
0.0
 10
10.0367354184
 20
7.7452127914
 30
0.0
 10
10.0404637989
 20
7.747421019
 30
0.0
 10
10.0443778733
 20
7.7495539455
 30
0.0
 10
10.0484744055
 20
7.7516124723
 30
0.0
 10
10.0527506622
 20
7.7535973632
 30
0.0
 10
10.0572041455
 20
7.7555095654
 30
0.0
 10
10.063460091
 20
7.7579971429
 30
0.0
 10
10.0717224825
 20
7.7609193544
 30
0.0
 10
10.0821875499
 20
7.7641044909
 30
0.0
 10
10.0933270939
 20
7.7670206934
 30
0.0
 10
10.1051393206
 20
7.7696743902
 30
0.0
 10
10.1176272023
 20
7.7720713136
 30
0.0
 10
10.130797956
 20
7.77421616
 30
0.0
 10
10.1446628955
 20
7.7761128316
 30
0.0
 10
10.1592369669
 20
7.7777639813
 30
0.0
 10
10.1745379672
 20
7.7791708373
 30
0.0
 10
10.1905849706
 20
7.7803330962
 30
0.0
 10
10.2073956345
 20
7.7812486507
 30
0.0
 10
10.2249816423
 20
7.7819134272
 30
0.0
 10
10.2433411808
 20
7.7823213437
 30
0.0
 10
10.2624472089
 20
7.7824645592
 30
0.0
 10
10.2822307134
 20
7.7823342816
 30
0.0
 10
10.3025596291
 20
7.7819224283
 30
0.0
 10
10.323219161
 20
7.7812243985
 30
0.0
 10
10.3439045146
 20
7.7802424431
 30
0.0
 10
10.3576627703
 20
7.7793941225
 30
0.0
 10
10.3644841888
 20
7.7789210555
 30
0.0
  0
SPLINE
  5
2BE
100
AcDbEntity
  8
0
100
AcDbSpline
 62
7
  6
CONTINUOUS
 70
0
 71
3
 72
72
 73
68
 74
0
 42
0.0000001
 43
0.0000001
 44
0.0000000001
 40
0.0
 40
0.0
 40
0.0
 40
0.0
 40
0.0156216808
 40
0.031190722
 40
0.0467066581
 40
0.0621710025
 40
0.0698847748
 40
0.0775861793
 40
0.0929517412
 40
0.1082713203
 40
0.1235478018
 40
0.1387845166
 40
0.1539852026
 40
0.1691539732
 40
0.1842952753
 40
0.199413846
 40
0.2145146637
 40
0.2296028953
 40
0.2446838417
 40
0.2597628812
 40
0.2748454126
 40
0.2899367977
 40
0.3050423041
 40
0.320167049
 40
0.3353159446
 40
0.3504936472
 40
0.3657045104
 40
0.3809525418
 40
0.3962413633
 40
0.4115741768
 40
0.426953734
 40
0.4423823133
 40
0.4578617024
 40
0.4733931851
 40
0.4889775331
 40
0.5046150033
 40
0.5203053401
 40
0.5360477844
 40
0.5518410861
 40
0.5676835199
 40
0.5835729048
 40
0.5995066281
 40
0.6154816737
 40
0.6314946532
 40
0.6475418385
 40
0.6636191964
 40
0.6797224257
 40
0.6958469974
 40
0.7119881958
 40
0.7281411606
 40
0.7443009282
 40
0.7604624751
 40
0.7766207624
 40
0.7927707803
 40
0.8089075912
 40
0.8250263727
 40
0.8411224592
 40
0.8571913843
 40
0.8732289226
 40
0.8892311257
 40
0.9051943642
 40
0.9211153527
 40
0.9369911818
 40
0.9528194255
 40
0.9685978053
 40
0.9843253241
 40
1.0
 40
1.0
 40
1.0
 40
1.0
 10
10.0459937875
 20
6.7767822229
 30
0.0
 10
10.0354236324
 20
6.7775152657
 30
0.0
 10
10.0142795444
 20
6.778464316
 30
0.0
 10
9.9825883052
 20
6.778327117
 30
0.0
 10
9.9510487592
 20
6.7766269728
 30
0.0
 10
9.924933376
 20
6.7739088264
 30
0.0
 10
9.9041961503
 20
6.770957218
 30
0.0
 10
9.8836058717
 20
6.7674957864
 30
0.0
 10
9.8581000527
 20
6.7622083192
 30
0.0
 10
9.8279233252
 20
6.7543343904
 30
0.0
 10
9.7982712114
 20
6.744954967
 30
0.0
 10
9.7692156933
 20
6.7340926807
 30
0.0
 10
9.7408267141
 20
6.7217736285
 30
0.0
 10
9.7131727911
 20
6.708027446
 30
0.0
 10
9.6863206296
 20
6.692887223
 30
0.0
 10
9.6603349987
 20
6.6763894553
 30
0.0
 10
9.6352785828
 20
6.6585739048
 30
0.0
 10
9.611211831
 20
6.6394835154
 30
0.0
 10
9.5881928109
 20
6.619164307
 30
0.0
 10
9.5662770688
 20
6.5976652677
 30
0.0
 10
9.5455174505
 20
6.5750382742
 30
0.0
 10
9.5259640101
 20
6.5513379195
 30
0.0
 10
9.5076638905
 20
6.5266213811
 30
0.0
 10
9.4906612088
 20
6.5009482838
 30
0.0
 10
9.4749969597
 20
6.4743805521
 30
0.0
 10
9.4607088693
 20
6.4469822863
 30
0.0
 10
9.4478313227
 20
6.4188195879
 30
0.0
 10
9.4363953078
 20
6.3899603851
 30
0.0
 10
9.4264283347
 20
6.3604742734
 30
0.0
 10
9.4179543806
 20
6.3304323468
 30
0.0
 10
9.4109938071
 20
6.2999070352
 30
0.0
 10
9.4055632884
 20
6.2689719294
 30
0.0
 10
9.4016758253
 20
6.2377015882
 30
0.0
 10
9.399340707
 20
6.206171364
 30
0.0
 10
9.3985634933
 20
6.1744572226
 30
0.0
 10
9.3993460021
 20
6.1426355652
 30
0.0
 10
9.40168625
 20
6.1107830417
 30
0.0
 10
9.4055785157
 20
6.0789763623
 30
0.0
 10
9.4110133555
 20
6.0472921171
 30
0.0
 10
9.4179776246
 20
6.0158065938
 30
0.0
 10
9.4264545175
 20
5.9845956014
 30
0.0
 10
9.436423559
 20
5.9537342754
 30
0.0
 10
9.447860678
 20
5.9232968986
 30
0.0
 10
9.4607382913
 20
5.8933567314
 30
0.0
 10
9.4750253621
 20
5.863985837
 30
0.0
 10
9.4906874805
 20
5.8352549144
 30
0.0
 10
9.5076869215
 20
5.8072331192
 30
0.0
 10
9.5259827185
 20
5.7799878816
 30
0.0
 10
9.5455308074
 20
5.7535847697
 30
0.0
 10
9.5662841221
 20
5.7280873302
 30
0.0
 10
9.5881927086
 20
5.7035569397
 30
0.0
 10
9.611203842
 20
5.6800526594
 30
0.0
 10
9.6352621147
 20
5.6576310535
 30
0.0
 10
9.6603096118
 20
5.6363460888
 30
0.0
 10
9.6862860484
 20
5.6162490082
 30
0.0
 10
9.7131289105
 20
5.5973882072
 30
0.0
 10
9.7407736076
 20
5.5798091277
 30
0.0
 10
9.7691535997
 20
5.5635541042
 30
0.0
 10
9.7982005737
 20
5.548662281
 30
0.0
 10
9.827844619
 20
5.5351695364
 30
0.0
 10
9.8580143909
 20
5.5231083989
 30
0.0
 10
9.8886372671
 20
5.512507977
 30
0.0
 10
9.9196395803
 20
5.5033938152
 30
0.0
 10
9.9509465215
 20
5.4957880126
 30
0.0
 10
9.9824832292
 20
5.4897086667
 30
0.0
 10
10.0141724821
 20
5.4851709239
 30
0.0
 10
10.0353877741
 20
5.4831770686
 30
0.0
 10
10.0459937875
 20
5.482441539
 30
0.0
  0
SPLINE
  5
2BF
100
AcDbEntity
  8
0
100
AcDbSpline
 62
7
  6
CONTINUOUS
 70
0
 71
3
 72
35
 73
31
 74
0
 42
0.0000001
 43
0.0000001
 44
0.0000000001
 40
0.0
 40
0.0
 40
0.0
 40
0.0
 40
0.0192990148
 40
0.0387107334
 40
0.0583456884
 40
0.0783104142
 40
0.0987057946
 40
0.1196257109
 40
0.1633559271
 40
0.1863353282
 40
0.2101365563
 40
0.2348145115
 40
0.2604170543
 40
0.2869859638
 40
0.3145569655
 40
0.3431605134
 40
0.3728226466
 40
0.4035648325
 40
0.4354048041
 40
0.4683571637
 40
0.5024330601
 40
0.5376410427
 40
0.5739873953
 40
0.6114757368
 40
0.6501078785
 40
0.6898839093
 40
0.7308018161
 40
0.8160459446
 40
0.9057998154
 40
1.0
 40
1.0
 40
1.0
 40
1.0
 10
12.6523414528
 20
9.1830462702
 30
0.0
 10
12.6535753419
 20
9.1829606929
 30
0.0
 10
12.6560446223
 20
9.1826907548
 30
0.0
 10
12.65972179
 20
9.1819921673
 30
0.0
 10
12.6633751839
 20
9.1810000088
 30
0.0
 10
12.6670027677
 20
9.1797149301
 30
0.0
 10
12.6706031869
 20
9.1781376144
 30
0.0
 10
12.6754358996
 20
9.1756096227
 30
0.0
 10
12.6801430851
 20
9.1725153381
 30
0.0
 10
12.6847035919
 20
9.168927719
 30
0.0
 10
12.6881474269
 20
9.1659053201
 30
0.0
 10
12.6915559235
 20
9.1625976447
 30
0.0
 10
12.6949283008
 20
9.1590058397
 30
0.0
 10
12.6982631986
 20
9.1551313344
 30
0.0
 10
12.7015594819
 20
9.1509756534
 30
0.0
 10
12.704815977
 20
9.1465404284
 30
0.0
 10
12.7080314239
 20
9.1418273209
 30
0.0
 10
12.7112046712
 20
9.136838176
 30
0.0
 10
12.714334544
 20
9.1315749168
 30
0.0
 10
12.7174197968
 20
9.1260395353
 30
0.0
 10
12.7204593074
 20
9.1202341935
 30
0.0
 10
12.7234519123
 20
9.1141611287
 30
0.0
 10
12.7263964072
 20
9.1078226647
 30
0.0
 10
12.7292917128
 20
9.1012212785
 30
0.0
 10
12.7321366887
 20
9.0943595243
 30
0.0
 10
12.734930214
 20
9.0872400376
 30
0.0
 10
12.738635519
 20
9.0772710983
 30
0.0
 10
12.7431197073
 20
9.0641771135
 30
0.0
 10
12.748207863
 20
9.0476895186
 30
0.0
 10
12.751371143
 20
9.0363307096
 30
0.0
 10
12.7529189273
 20
9.0304952992
 30
0.0
  0
SPLINE
  5
2C0
100
AcDbEntity
  8
0
100
AcDbSpline
 62
7
  6
CONTINUOUS
 70
0
 71
3
 72
23
 73
19
 74
0
 42
0.0000001
 43
0.0000001
 44
0.0000000001
 40
0.0
 40
0.0
 40
0.0
 40
0.0
 40
0.0785272974
 40
0.1549617886
 40
0.2292829757
 40
0.301472512
 40
0.3715152899
 40
0.4393996183
 40
0.5051167959
 40
0.568662835
 40
0.6300374262
 40
0.6892450865
 40
0.7462956343
 40
0.8012044662
 40
0.8539953552
 40
0.9046991129
 40
0.9533526398
 40
1.0
 40
1.0
 40
1.0
 40
1.0
 10
12.6697631699
 20
7.8251018045
 30
0.0
 10
12.6684019654
 20
7.8218450759
 30
0.0
 10
12.6656697997
 20
7.8154375186
 30
0.0
 10
12.6614827541
 20
7.8060198069
 30
0.0
 10
12.6572640455
 20
7.7969293028
 30
0.0
 10
12.6530158351
 20
7.7881707537
 30
0.0
 10
12.6487403282
 20
7.77974869
 30
0.0
 10
12.6444397913
 20
7.7716674531
 30
0.0
 10
12.6401163767
 20
7.763931245
 30
0.0
 10
12.6357723911
 20
7.7565440226
 30
0.0
 10
12.6314100243
 20
7.7495096098
 30
0.0
 10
12.6270315292
 20
7.7428316378
 30
0.0
 10
12.6226392206
 20
7.7365135179
 30
0.0
 10
12.6182352358
 20
7.7305585083
 30
0.0
 10
12.6138218223
 20
7.7249695629
 30
0.0
 10
12.6094010777
 20
7.7197495319
 30
0.0
 10
12.6049754931
 20
7.7149013462
 30
0.0
 10
12.6019609812
 20
7.7118556977
 30
0.0
 10
12.6004528698
 20
7.7103989739
 30
0.0
  0
SPLINE
  5
2C1
100
AcDbEntity
  8
0
100
AcDbSpline
 62
7
  6
CONTINUOUS
 70
0
 71
3
 72
11
 73
7
 74
0
 42
0.0000001
 43
0.0000001
 44
0.0000000001
 40
0.0
 40
0.0
 40
0.0
 40
0.0
 40
0.2292627883
 40
0.4715183046
 40
0.728091132
 40
1.0
 40
1.0
 40
1.0
 40
1.0
 10
12.4958192321
 20
7.9776009319
 30
0.0
 10
12.4970976885
 20
7.9782399035
 30
0.0
 10
12.4996646527
 20
7.9796817202
 30
0.0
 10
12.5034238235
 20
7.9822335919
 30
0.0
 10
12.5071875174
 20
7.9852268492
 30
0.0
 10
12.5096245117
 20
7.9874477111
 30
0.0
 10
12.5108437217
 20
7.9886253776
 30
0.0
  0
SPLINE
  5
2C2
100
AcDbEntity
  8
0
100
AcDbSpline
 62
7
  6
CONTINUOUS
 70
0
 71
3
 72
19
 73
15
 74
0
 42
0.0000001
 43
0.0000001
 44
0.0000000001
 40
0.0
 40
0.0
 40
0.0
 40
0.0
 40
0.1323527155
 40
0.2627111558
 40
0.3270941203
 40
0.3909198492
 40
0.4541820575
 40
0.516880693
 40
0.640596123
 40
0.7622050935
 40
0.8222908238
 40
0.8819289101
 40
0.9411531542
 40
1.0
 40
1.0
 40
1.0
 40
1.0
 10
10.4076649762
 20
6.263106703
 30
0.0
 10
10.4168688186
 20
6.2624684144
 30
0.0
 10
10.4351840825
 20
6.2617879937
 30
0.0
 10
10.4579934132
 20
6.2624609728
 30
0.0
 10
10.475960764
 20
6.2639288402
 30
0.0
 10
10.4892196522
 20
6.2654840655
 30
0.0
 10
10.5022981746
 20
6.2674971695
 30
0.0
 10
10.5193942499
 20
6.2707751375
 30
0.0
 10
10.5402438289
 20
6.2759966025
 30
0.0
 10
10.56045218
 20
6.2827707766
 30
0.0
 10
10.5760507018
 20
6.289081222
 30
0.0
 10
10.5874153527
 20
6.2942328223
 30
0.0
 10
10.5984771515
 20
6.2998162988
 30
0.0
 10
10.6056632724
 20
6.303834805
 30
0.0
 10
10.6091995348
 20
6.3059136736
 30
0.0
  0
SPLINE
  5
2C3
100
AcDbEntity
  8
0
100
AcDbSpline
 62
7
  6
CONTINUOUS
 70
0
 71
3
 72
18
 73
14
 74
0
 42
0.0000001
 43
0.0000001
 44
0.0000000001
 40
0.0
 40
0.0
 40
0.0
 40
0.0
 40
0.1504660016
 40
0.2917105222
 40
0.4244368723
 40
0.5495624665
 40
0.668214014
 40
0.7255497707
 40
0.7817912017
 40
0.8371401776
 40
0.891809274
 40
0.9460199962
 40
1.0
 40
1.0
 40
1.0
 40
1.0
 10
12.6004528698
 20
7.7103989739
 30
0.0
 10
12.5983325409
 20
7.7083508934
 30
0.0
 10
12.5940948233
 20
7.7045081397
 30
0.0
 10
12.5875327904
 20
7.6993869674
 30
0.0
 10
12.5809784162
 20
7.6951039146
 30
0.0
 10
12.5744385615
 20
7.6916660225
 30
0.0
 10
12.5689419108
 20
7.6894860032
 30
0.0
 10
12.5645777946
 20
7.6881907946
 30
0.0
 10
12.561351188
 20
7.6874443051
 30
0.0
 10
12.5581353036
 20
7.6869122171
 30
0.0
 10
12.5549310171
 20
7.6865948227
 30
0.0
 10
12.5517396118
 20
7.6864923126
 30
0.0
 10
12.5496193369
 20
7.6865673291
 30
0.0
 10
12.5485642867
 20
7.6866405028
 30
0.0
  0
SPLINE
  5
2C4
100
AcDbEntity
  8
0
100
AcDbSpline
 62
7
  6
CONTINUOUS
 70
0
 71
3
 72
78
 73
74
 74
0
 42
0.0000001
 43
0.0000001
 44
0.0000000001
 40
0.0
 40
0.0
 40
0.0
 40
0.0
 40
0.0027164338
 40
0.0054532518
 40
0.0082303302
 40
0.0110666399
 40
0.0139798745
 40
0.0169861963
 40
0.0201001798
 40
0.0233347338
 40
0.0267011066
 40
0.0302090801
 40
0.0338670386
 40
0.0376820289
 40
0.0416600219
 40
0.0458059978
 40
0.0501239566
 40
0.0546171648
 40
0.059288228
 40
0.0641390363
 40
0.0691709779
 40
0.0743850048
 40
0.085359957
 40
0.0970638947
 40
0.1094906973
 40
0.1226300051
 40
0.1364677522
 40
0.1509866144
 40
0.16616658
 40
0.1819850977
 40
0.1984173784
 40
0.2154367196
 40
0.2330145192
 40
0.251120552
 40
0.2697231423
 40
0.2887891639
 40
0.3082843013
 40
0.3281731255
 40
0.3484191393
 40
0.3689849969
 40
0.4109221184
 40
0.4536722256
 40
0.4969143244
 40
0.5403226995
 40
0.5835700361
 40
0.6263305661
 40
0.6682832084
 40
0.6888586792
 40
0.7091155366
 40
0.7290163639
 40
0.7485246683
 40
0.7676049911
 40
0.7862229287
 40
0.8043453773
 40
0.8219405891
 40
0.8389782496
 40
0.8554297803
 40
0.8712683595
 40
0.8864691229
 40
0.9010095138
 40
0.9148693555
 40
0.9280312659
 40
0.9404811001
 40
0.9522082881
 40
0.9632066705
 40
0.9684323779
 40
0.9734759505
 40
0.9783382384
 40
0.9830207374
 40
0.9875254301
 40
0.9918547875
 40
0.9960117677
 40
1.0
 40
1.0
 40
1.0
 40
1.0
 10
12.6242525858
 20
10.1670204871
 30
0.0
 10
12.6248946177
 20
10.1669759551
 30
0.0
 10
12.6261802099
 20
10.1668284256
 30
0.0
 10
12.6280922235
 20
10.1664336772
 30
0.0
 10
12.6299897992
 20
10.1658655908
 30
0.0
 10
12.631871569
 20
10.1651246452
 30
0.0
 10
12.633736547
 20
10.1642114968
 30
0.0
 10
12.6355838183
 20
10.1631269347
 30
0.0
 10
12.6374125
 20
10.1618716651
 30
0.0
 10
12.6392217662
 20
10.1604464783
 30
0.0
 10
12.6410108821
 20
10.1588522649
 30
0.0
 10
12.6427790479
 20
10.1570898554
 30
0.0
 10
12.6445254668
 20
10.1551601509
 30
0.0
 10
12.6462494162
 20
10.1530641793
 30
0.0
 10
12.6479500944
 20
10.1508029619
 30
0.0
 10
12.6496266808
 20
10.1483775925
 30
0.0
 10
12.6512784414
 20
10.1457893046
 30
0.0
 10
12.6529045762
 20
10.1430393603
 30
0.0
 10
12.6545042609
 20
10.14012909
 30
0.0
 10
12.6560767589
 20
10.1370599613
 30
0.0
 10
12.6576213189
 20
10.1338334829
 30
0.0
 10
12.6596775776
 20
10.1292450853
 30
0.0
 10
12.6621642558
 20
10.1231198754
 30
0.0
 10
12.6649759648
 20
10.1152902937
 30
0.0
 10
12.6676587166
 20
10.1068759036
 30
0.0
 10
12.6702070734
 20
10.0978934448
 30
0.0
 10
12.6726158799
 20
10.0883606667
 30
0.0
 10
12.6748802956
 20
10.0782965593
 30
0.0
 10
12.6769956767
 20
10.067721195
 30
0.0
 10
12.6789577308
 20
10.0566557236
 30
0.0
 10
12.6807624927
 20
10.045122307
 30
0.0
 10
12.682406245
 20
10.0331440637
 30
0.0
 10
12.6838856688
 20
10.0207450286
 30
0.0
 10
12.685197762
 20
10.0079500945
 30
0.0
 10
12.6863398158
 20
9.9947849579
 30
0.0
 10
12.6873095407
 20
9.981276071
 30
0.0
 10
12.6881049552
 20
9.9674505814
 30
0.0
 10
12.6887244069
 20
9.9533362849
 30
0.0
 10
12.6891666888
 20
9.9389615328
 30
0.0
 10
12.6895211271
 20
9.9193595041
 30
0.0
 10
12.6895092985
 20
9.8944204219
 30
0.0
 10
12.6887845169
 20
9.8641176148
 30
0.0
 10
12.6873544971
 20
9.8334909186
 30
0.0
 10
12.6852306648
 20
9.8027864847
 30
0.0
 10
12.6824300591
 20
9.7722508732
 30
0.0
 10
12.6789752607
 20
9.7421294925
 30
0.0
 10
12.6755527902
 20
9.7174178605
 30
0.0
 10
12.6725023504
 20
9.6980427673
 30
0.0
 10
12.67008463
 20
9.6838580933
 30
0.0
 10
12.6675271978
 20
9.6699549365
 30
0.0
 10
12.6648351973
 20
9.6563612231
 30
0.0
 10
12.6620140925
 20
9.6431042775
 30
0.0
 10
12.65906954
 20
9.6302107427
 30
0.0
 10
12.656007509
 20
9.6177065159
 30
0.0
 10
12.6528341971
 20
9.6056167056
 30
0.0
 10
12.6495559764
 20
9.5939655852
 30
0.0
 10
12.6461795088
 20
9.5827765175
 30
0.0
 10
12.6427116133
 20
9.572071928
 30
0.0
 10
12.6391592651
 20
9.5618732545
 30
0.0
 10
12.6355296863
 20
9.5522008703
 30
0.0
 10
12.6318301762
 20
9.5430740684
 30
0.0
 10
12.6280681718
 20
9.5345110217
 30
0.0
 10
12.6242512682
 20
9.5265286201
 30
0.0
 10
12.6203870712
 20
9.5191427604
 30
0.0
 10
12.6170797845
 20
9.513402863
 30
0.0
 10
12.6144105741
 20
9.5091287129
 30
0.0
 10
12.6124358895
 20
9.5061361444
 30
0.0
 10
12.6104551601
 20
9.5033032115
 30
0.0
 10
12.6084693418
 20
9.5006312521
 30
0.0
 10
12.6064793717
 20
9.4981215717
 30
0.0
 10
12.6044861939
 20
9.4957754663
 30
0.0
 10
12.6024909949
 20
9.4935942074
 30
0.0
 10
12.6011324845
 20
9.4922227255
 30
0.0
 10
12.6004528698
 20
9.4915662681
 30
0.0
  0
SPLINE
  5
2C5
100
AcDbEntity
  8
0
100
AcDbSpline
 62
7
  6
CONTINUOUS
 70
0
 71
3
 72
76
 73
72
 74
0
 42
0.0000001
 43
0.0000001
 44
0.0000000001
 40
0.0
 40
0.0
 40
0.0
 40
0.0
 40
0.0156747225
 40
0.0235325474
 40
0.0314031326
 40
0.0471815238
 40
0.0630096701
 40
0.0709422968
 40
0.0788865451
 40
0.0948074601
 40
0.1107706215
 40
0.1267727505
 40
0.1428102138
 40
0.1588790639
 40
0.1749750748
 40
0.1910937806
 40
0.2072305163
 40
0.2233804589
 40
0.2395386705
 40
0.2557001411
 40
0.2718598323
 40
0.2880127214
 40
0.3041538447
 40
0.3202783411
 40
0.3363814948
 40
0.3524587772
 40
0.3685058876
 40
0.3845187926
 40
0.4004937633
 40
0.4164274113
 40
0.4323167209
 40
0.4481590804
 40
0.4639523087
 40
0.4796946798
 40
0.495384943
 40
0.5110223396
 40
0.5266066146
 40
0.542138025
 40
0.5576173419
 40
0.5730458487
 40
0.588425333
 40
0.6037580741
 40
0.6190468241
 40
0.6342947845
 40
0.6495055768
 40
0.6646832082
 40
0.6798320326
 40
0.6949567066
 40
0.7100621427
 40
0.7251534575
 40
0.7402359181
 40
0.7553148863
 40
0.7703957614
 40
0.7854839222
 40
0.8005846694
 40
0.8157031697
 40
0.830844401
 40
0.8460131002
 40
0.8612137149
 40
0.8764503584
 40
0.8917267696
 40
0.9070462756
 40
0.9147237278
 40
0.9224129996
 40
0.9301143737
 40
0.9378281062
 40
0.9532923541
 40
0.9688083027
 40
0.976586557
 40
0.9843782719
 40
1.0
 40
1.0
 40
1.0
 40
1.0
 10
10.0294293819
 20
9.1891199511
 30
0.0
 10
10.0442145951
 20
9.1880945931
 30
0.0
 10
10.0663789374
 20
9.1860115299
 30
0.0
 10
10.0958223518
 20
9.1821600854
 30
0.0
 10
10.1252615275
 20
9.1775827605
 30
0.0
 10
10.1619280424
 20
9.1705146748
 30
0.0
 10
10.1982709291
 20
9.1616852751
 30
0.0
 10
10.2271326646
 20
9.1535730797
 30
0.0
 10
10.2558776043
 20
9.1447525905
 30
0.0
 10
10.2914785842
 20
9.1324290326
 30
0.0
 10
10.3335357706
 20
9.1156155744
 30
0.0
 10
10.3748605669
 20
9.0968062706
 30
0.0
 10
10.4153528896
 20
9.0760466268
 30
0.0
 10
10.4549154479
 20
9.0533866215
 30
0.0
 10
10.4934529779
 20
9.0288808547
 30
0.0
 10
10.5308727413
 20
9.0025883477
 30
0.0
 10
10.567084677
 20
8.9745724218
 30
0.0
 10
10.6020016328
 20
8.9449005368
 30
0.0
 10
10.6355395699
 20
8.9136441309
 30
0.0
 10
10.6676177647
 20
8.8808784493
 30
0.0
 10
10.6981590024
 20
8.8466823637
 30
0.0
 10
10.7270897614
 20
8.8111381839
 30
0.0
 10
10.7543403899
 20
8.77433146
 30
0.0
 10
10.7798452722
 20
8.736350778
 30
0.0
 10
10.8035429869
 20
8.6972875481
 30
0.0
 10
10.8253764531
 20
8.657235785
 30
0.0
 10
10.8452930724
 20
8.6162918857
 30
0.0
 10
10.863244854
 20
8.5745543968
 30
0.0
 10
10.879188527
 20
8.5321237773
 30
0.0
 10
10.8930856454
 20
8.489102159
 30
0.0
 10
10.9049026807
 20
8.4455931015
 30
0.0
 10
10.9146111034
 20
8.4017013454
 30
0.0
 10
10.9221874517
 20
8.3575325613
 30
0.0
 10
10.9276133896
 20
8.3131930974
 30
0.0
 10
10.9308757522
 20
8.2687897249
 30
0.0
 10
10.9319665787
 20
8.2244293824
 30
0.0
 10
10.9308831337
 20
8.1802189199
 30
0.0
 10
10.9276279221
 20
8.1362648415
 30
0.0
 10
10.9222086792
 20
8.0926730495
 30
0.0
 10
10.9146383546
 20
8.0495485898
 30
0.0
 10
10.9049350832
 20
8.0069953991
 30
0.0
 10
10.8931221447
 20
7.9651160541
 30
0.0
 10
10.8792279102
 20
7.9240115237
 30
0.0
 10
10.8632857764
 20
7.8837809245
 30
0.0
 10
10.8453340878
 20
7.8445212803
 30
0.0
 10
10.8254160468
 20
7.8063272857
 30
0.0
 10
10.8035796102
 20
7.7692910759
 30
0.0
 10
10.7798773782
 20
7.7335019998
 30
0.0
 10
10.7543664702
 20
7.6990463993
 30
0.0
 10
10.7271083813
 20
7.6660074007
 30
0.0
 10
10.6981688348
 20
7.6344647107
 30
0.0
 10
10.6676176222
 20
7.6044944213
 30
0.0
 10
10.6355284332
 20
7.5761688235
 30
0.0
 10
10.6019786757
 20
7.5495562308
 30
0.0
 10
10.5670492869
 20
7.5247208123
 30
0.0
 10
10.5308245332
 20
7.501722437
 30
0.0
 10
10.4933918102
 20
7.4806165294
 30
0.0
 10
10.4548414063
 20
7.4614539328
 30
0.0
 10
10.4152663661
 20
7.4442807969
 30
0.0
 10
10.3747619557
 20
7.4291384138
 30
0.0
 10
10.3334265723
 20
7.4160633323
 30
0.0
 10
10.2983942287
 20
7.4069226037
 30
0.0
 10
10.2700587442
 20
7.4006710992
 30
0.0
 10
10.248645081
 20
7.3965126286
 30
0.0
 10
10.2270994502
 20
7.3928904773
 30
0.0
 10
10.1981912388
 20
7.3887759579
 30
0.0
 10
10.1617858
 20
7.3849866695
 30
0.0
 10
10.1251762329
 20
7.3830133456
 30
0.0
 10
10.0957853472
 20
7.3825212759
 30
0.0
 10
10.0662918393
 20
7.3827552628
 30
0.0
 10
10.044164608
 20
7.383748419
 30
0.0
 10
10.0294293819
 20
7.3847703104
 30
0.0
  0
SPLINE
  5
2C6
100
AcDbEntity
  8
0
100
AcDbSpline
 62
7
  6
CONTINUOUS
 70
0
 71
3
 72
78
 73
74
 74
0
 42
0.0000001
 43
0.0000001
 44
0.0000000001
 40
0.0
 40
0.0
 40
0.0
 40
0.0
 40
0.0027164338
 40
0.0054532518
 40
0.0082303302
 40
0.0110666399
 40
0.0139798745
 40
0.0169861963
 40
0.0201001798
 40
0.0233347338
 40
0.0267011066
 40
0.0302090801
 40
0.0338670386
 40
0.0376820289
 40
0.0416600219
 40
0.0458059978
 40
0.0501239566
 40
0.0546171648
 40
0.059288228
 40
0.0641390363
 40
0.0691709779
 40
0.0743850048
 40
0.085359957
 40
0.0970638947
 40
0.1094906973
 40
0.1226300051
 40
0.1364677522
 40
0.1509866144
 40
0.16616658
 40
0.1819850977
 40
0.1984173784
 40
0.2154367196
 40
0.2330145192
 40
0.251120552
 40
0.2697231423
 40
0.2887891639
 40
0.3082843013
 40
0.3281731255
 40
0.3484191393
 40
0.3689849969
 40
0.4109221184
 40
0.4536722256
 40
0.4969143244
 40
0.5403226995
 40
0.5835700361
 40
0.6263305661
 40
0.6682832084
 40
0.6888586792
 40
0.7091155366
 40
0.7290163639
 40
0.7485246683
 40
0.7676049911
 40
0.7862229287
 40
0.8043453773
 40
0.8219405891
 40
0.8389782496
 40
0.8554297803
 40
0.8712683595
 40
0.8864691229
 40
0.9010095138
 40
0.9148693555
 40
0.9280312659
 40
0.9404811001
 40
0.9522082881
 40
0.9632066705
 40
0.9684323779
 40
0.9734759505
 40
0.9783382384
 40
0.9830207374
 40
0.9875254301
 40
0.9918547875
 40
0.9960117677
 40
1.0
 40
1.0
 40
1.0
 40
1.0
 10
12.6242525858
 20
7.3890177161
 30
0.0
 10
12.6248946177
 20
7.3889731841
 30
0.0
 10
12.6261802099
 20
7.3888256546
 30
0.0
 10
12.6280922235
 20
7.3884309062
 30
0.0
 10
12.6299897992
 20
7.3878628198
 30
0.0
 10
12.631871569
 20
7.3871218742
 30
0.0
 10
12.633736547
 20
7.3862087258
 30
0.0
 10
12.6355838183
 20
7.3851241637
 30
0.0
 10
12.6374125
 20
7.3838688941
 30
0.0
 10
12.6392217662
 20
7.3824437073
 30
0.0
 10
12.6410108821
 20
7.3808494938
 30
0.0
 10
12.6427790479
 20
7.3790870844
 30
0.0
 10
12.6445254668
 20
7.3771573799
 30
0.0
 10
12.6462494162
 20
7.3750614083
 30
0.0
 10
12.6479500944
 20
7.3728001909
 30
0.0
 10
12.6496266808
 20
7.3703748215
 30
0.0
 10
12.6512784414
 20
7.3677865336
 30
0.0
 10
12.6529045762
 20
7.3650365893
 30
0.0
 10
12.6545042609
 20
7.362126319
 30
0.0
 10
12.6560767589
 20
7.3590571903
 30
0.0
 10
12.6576213189
 20
7.3558307119
 30
0.0
 10
12.6596775776
 20
7.3512423143
 30
0.0
 10
12.6621642558
 20
7.3451171044
 30
0.0
 10
12.6649759648
 20
7.3372875227
 30
0.0
 10
12.6676587166
 20
7.3288731326
 30
0.0
 10
12.6702070734
 20
7.3198906738
 30
0.0
 10
12.6726158799
 20
7.3103578957
 30
0.0
 10
12.6748802956
 20
7.3002937883
 30
0.0
 10
12.6769956767
 20
7.289718424
 30
0.0
 10
12.6789577308
 20
7.2786529526
 30
0.0
 10
12.6807624927
 20
7.267119536
 30
0.0
 10
12.682406245
 20
7.2551412927
 30
0.0
 10
12.6838856688
 20
7.2427422576
 30
0.0
 10
12.685197762
 20
7.2299473235
 30
0.0
 10
12.6863398158
 20
7.2167821869
 30
0.0
 10
12.6873095407
 20
7.2032733
 30
0.0
 10
12.6881049552
 20
7.1894478104
 30
0.0
 10
12.6887244069
 20
7.1753335139
 30
0.0
 10
12.6891666888
 20
7.1609587618
 30
0.0
 10
12.6895211271
 20
7.1413567331
 30
0.0
 10
12.6895092985
 20
7.1164176509
 30
0.0
 10
12.6887845169
 20
7.0861148438
 30
0.0
 10
12.6873544971
 20
7.0554881476
 30
0.0
 10
12.6852306648
 20
7.0247837137
 30
0.0
 10
12.6824300591
 20
6.9942481022
 30
0.0
 10
12.6789752607
 20
6.9641267215
 30
0.0
 10
12.6755527902
 20
6.9394150895
 30
0.0
 10
12.6725023504
 20
6.9200399963
 30
0.0
 10
12.67008463
 20
6.9058553223
 30
0.0
 10
12.6675271978
 20
6.8919521655
 30
0.0
 10
12.6648351973
 20
6.8783584521
 30
0.0
 10
12.6620140925
 20
6.8651015065
 30
0.0
 10
12.65906954
 20
6.8522079717
 30
0.0
 10
12.656007509
 20
6.8397037449
 30
0.0
 10
12.6528341971
 20
6.8276139346
 30
0.0
 10
12.6495559764
 20
6.8159628142
 30
0.0
 10
12.6461795088
 20
6.8047737465
 30
0.0
 10
12.6427116133
 20
6.794069157
 30
0.0
 10
12.6391592651
 20
6.7838704835
 30
0.0
 10
12.6355296863
 20
6.7741980993
 30
0.0
 10
12.6318301762
 20
6.7650712974
 30
0.0
 10
12.6280681718
 20
6.7565082507
 30
0.0
 10
12.6242512682
 20
6.7485258491
 30
0.0
 10
12.6203870712
 20
6.7411399894
 30
0.0
 10
12.6170797845
 20
6.735400092
 30
0.0
 10
12.6144105741
 20
6.7311259419
 30
0.0
 10
12.6124358895
 20
6.7281333734
 30
0.0
 10
12.6104551601
 20
6.7253004405
 30
0.0
 10
12.6084693418
 20
6.7226284811
 30
0.0
 10
12.6064793717
 20
6.7201188007
 30
0.0
 10
12.6044861939
 20
6.7177726953
 30
0.0
 10
12.6024909949
 20
6.7155914364
 30
0.0
 10
12.6011324845
 20
6.7142199545
 30
0.0
 10
12.6004528698
 20
6.7135634971
 30
0.0
  0
SPLINE
  5
2C7
100
AcDbEntity
  8
0
100
AcDbSpline
 62
7
  6
CONTINUOUS
 70
0
 71
3
 72
23
 73
19
 74
0
 42
0.0000001
 43
0.0000001
 44
0.0000000001
 40
0.0
 40
0.0
 40
0.0
 40
0.0
 40
0.0616252336
 40
0.1233349428
 40
0.1851378385
 40
0.2470421678
 40
0.3090556386
 40
0.3711854098
 40
0.4334380512
 40
0.4958195116
 40
0.5583350911
 40
0.6209893606
 40
0.6837863899
 40
0.7467294977
 40
0.8098204643
 40
0.8730618123
 40
0.9364572374
 40
1.0
 40
1.0
 40
1.0
 40
1.0
 10
10.8082005383
 20
7.9146864186
 30
0.0
 10
10.8003025055
 20
7.9103749957
 30
0.0
 10
10.784336047
 20
7.9020349381
 30
0.0
 10
10.759928953
 20
7.890399847
 30
0.0
 10
10.7350768035
 20
7.8796445494
 30
0.0
 10
10.7098094933
 20
7.8697821975
 30
0.0
 10
10.6841569747
 20
7.8608243895
 30
0.0
 10
10.6581497907
 20
7.8527817092
 30
0.0
 10
10.6318188022
 20
7.8456638538
 30
0.0
 10
10.6051953586
 20
7.8394790882
 30
0.0
 10
10.5783110776
 20
7.8342348805
 30
0.0
 10
10.5511979148
 20
7.8299374031
 30
0.0
 10
10.5238880793
 20
7.8265916742
 30
0.0
 10
10.4964140773
 20
7.8242018531
 30
0.0
 10
10.4688086043
 20
7.8227704872
 30
0.0
 10
10.4411039529
 20
7.8222994409
 30
0.0
 10
10.4133340304
 20
7.8227893624
 30
0.0
 10
10.3948200446
 20
7.8237548647
 30
0.0
 10
10.3855641061
 20
7.8243967662
 30
0.0
  0
SPLINE
  5
2C8
100
AcDbEntity
  8
0
100
AcDbSpline
 62
7
  6
CONTINUOUS
 70
0
 71
3
 72
38
 73
34
 74
0
 42
0.0000001
 43
0.0000001
 44
0.0000000001
 40
0.0
 40
0.0
 40
0.0
 40
0.0
 40
0.1175014815
 40
0.1738907415
 40
0.2284019833
 40
0.2808626032
 40
0.3311516173
 40
0.3791950241
 40
0.4249596658
 40
0.4684456868
 40
0.5096817234
 40
0.5487166531
 40
0.5856129861
 40
0.6204444369
 40
0.65328959
 40
0.6842312538
 40
0.7133529556
 40
0.7407384938
 40
0.7664711077
 40
0.7906321582
 40
0.8133034812
 40
0.8345640693
 40
0.8544946973
 40
0.8731755042
 40
0.8906877893
 40
0.907117347
 40
0.9225514052
 40
0.9370837562
 40
0.9508153556
 40
0.9638527162
 40
0.9763120064
 40
0.9883177364
 40
1.0
 40
1.0
 40
1.0
 40
1.0
 10
10.3644841888
 20
7.7789210555
 30
0.0
 10
10.3710235578
 20
7.7784675488
 30
0.0
 10
10.3806965403
 20
7.7777254581
 30
0.0
 10
10.3933881344
 20
7.7765930588
 30
0.0
 10
10.4024583298
 20
7.7757048435
 30
0.0
 10
10.4111816715
 20
7.7747702208
 30
0.0
 10
10.4195371835
 20
7.7737930466
 30
0.0
 10
10.4275116124
 20
7.7727768154
 30
0.0
 10
10.4350984034
 20
7.7717245556
 30
0.0
 10
10.4422966461
 20
7.7706387946
 30
0.0
 10
10.4491099165
 20
7.7695216094
 30
0.0
 10
10.4555451505
 20
7.7683745814
 30
0.0
 10
10.4616116719
 20
7.7671989143
 30
0.0
 10
10.4673203021
 20
7.7659954209
 30
0.0
 10
10.4726828226
 20
7.7647646267
 30
0.0
 10
10.4777113466
 20
7.763506759
 30
0.0
 10
10.4824180521
 20
7.7622218739
 30
0.0
 10
10.4868148293
 20
7.760909739
 30
0.0
 10
10.4909131741
 20
7.7595701489
 30
0.0
 10
10.4947239836
 20
7.7582024645
 30
0.0
 10
10.4982576013
 20
7.7568063526
 30
0.0
 10
10.5015236102
 20
7.7553808979
 30
0.0
 10
10.5045310004
 20
7.7539255125
 30
0.0
 10
10.5072880462
 20
7.7524393396
 30
0.0
 10
10.5098022514
 20
7.750921275
 30
0.0
 10
10.512080698
 20
7.749370628
 30
0.0
 10
10.5141295111
 20
7.747786069
 30
0.0
 10
10.5159542568
 20
7.7461664707
 30
0.0
 10
10.5175601059
 20
7.7445108858
 30
0.0
 10
10.5189510459
 20
7.7428178712
 30
0.0
 10
10.5201307296
 20
7.7410863216
 30
0.0
 10
10.5211023921
 20
7.7393157354
 30
0.0
 10
10.5216182214
 20
7.7380960356
 30
0.0
 10
10.5218398929
 20
7.7374831725
 30
0.0
  0
SPLINE
  5
2C9
100
AcDbEntity
  8
0
100
AcDbSpline
 62
7
  6
CONTINUOUS
 70
0
 71
3
 72
17
 73
13
 74
0
 42
0.0000001
 43
0.0000001
 44
0.0000000001
 40
0.0
 40
0.0
 40
0.0
 40
0.0
 40
0.1504681883
 40
0.2917243824
 40
0.4244612681
 40
0.5495925261
 40
0.6682485046
 40
0.7817794377
 40
0.8371315341
 40
0.8918035522
 40
0.9460171661
 40
1.0
 40
1.0
 40
1.0
 40
1.0
 10
12.6004528698
 20
9.4915662681
 30
0.0
 10
12.5994803777
 20
9.4906269128
 30
0.0
 10
12.597536663
 20
9.4888643952
 30
0.0
 10
12.5945268488
 20
9.4865154217
 30
0.0
 10
12.5915205835
 20
9.4845509143
 30
0.0
 10
12.588520674
 20
9.4829739763
 30
0.0
 10
12.5855300543
 20
9.481787747
 30
0.0
 10
12.5830261957
 20
9.4811217013
 30
0.0
 10
12.5810431127
 20
9.480793672
 30
0.0
 10
12.5795733695
 20
9.4806481026
 30
0.0
 10
12.5781095791
 20
9.4806010859
 30
0.0
 10
12.5771370723
 20
9.4806354919
 30
0.0
 10
12.5766531537
 20
9.4806690569
 30
0.0
  0
SPLINE
  5
2CA
100
AcDbEntity
  8
0
100
AcDbSpline
 62
7
  6
CONTINUOUS
 70
0
 71
3
 72
76
 73
72
 74
0
 42
0.0000001
 43
0.0000001
 44
0.0000000001
 40
0.0
 40
0.0
 40
0.0
 40
0.0
 40
0.0156747225
 40
0.0235325474
 40
0.0314031326
 40
0.0471815238
 40
0.0630096701
 40
0.0709422968
 40
0.0788865451
 40
0.0948074601
 40
0.1107706215
 40
0.1267727505
 40
0.1428102138
 40
0.1588790639
 40
0.1749750748
 40
0.1910937806
 40
0.2072305163
 40
0.2233804589
 40
0.2395386705
 40
0.2557001411
 40
0.2718598323
 40
0.2880127214
 40
0.3041538447
 40
0.3202783411
 40
0.3363814948
 40
0.3524587772
 40
0.3685058876
 40
0.3845187926
 40
0.4004937633
 40
0.4164274113
 40
0.4323167209
 40
0.4481590804
 40
0.4639523087
 40
0.4796946798
 40
0.495384943
 40
0.5110223396
 40
0.5266066146
 40
0.542138025
 40
0.5576173419
 40
0.5730458487
 40
0.588425333
 40
0.6037580741
 40
0.6190468241
 40
0.6342947845
 40
0.6495055768
 40
0.6646832082
 40
0.6798320326
 40
0.6949567066
 40
0.7100621427
 40
0.7251534575
 40
0.7402359181
 40
0.7553148863
 40
0.7703957614
 40
0.7854839222
 40
0.8005846694
 40
0.8157031697
 40
0.830844401
 40
0.8460131002
 40
0.8612137149
 40
0.8764503584
 40
0.8917267696
 40
0.9070462756
 40
0.9147237278
 40
0.9224129996
 40
0.9301143737
 40
0.9378281062
 40
0.9532923541
 40
0.9688083027
 40
0.976586557
 40
0.9843782719
 40
1.0
 40
1.0
 40
1.0
 40
1.0
 10
10.0294293819
 20
7.3847703104
 30
0.0
 10
10.0146441687
 20
7.3857956685
 30
0.0
 10
9.9924798263
 20
7.3878787316
 30
0.0
 10
9.9630364119
 20
7.3917301762
 30
0.0
 10
9.9335972362
 20
7.3963075011
 30
0.0
 10
9.8969307213
 20
7.4033755868
 30
0.0
 10
9.8605878346
 20
7.4122049865
 30
0.0
 10
9.8317260991
 20
7.4203171819
 30
0.0
 10
9.8029811594
 20
7.4291376711
 30
0.0
 10
9.7673801795
 20
7.441461229
 30
0.0
 10
9.7253229931
 20
7.4582746871
 30
0.0
 10
9.6839981969
 20
7.477083991
 30
0.0
 10
9.6435058741
 20
7.4978436348
 30
0.0
 10
9.6039433159
 20
7.5205036401
 30
0.0
 10
9.5654057858
 20
7.5450094068
 30
0.0
 10
9.5279860224
 20
7.5713019139
 30
0.0
 10
9.4917740867
 20
7.5993178398
 30
0.0
 10
9.4568571309
 20
7.6289897248
 30
0.0
 10
9.4233191938
 20
7.6602461307
 30
0.0
 10
9.391240999
 20
7.6930118123
 30
0.0
 10
9.3606997613
 20
7.7272078978
 30
0.0
 10
9.3317690023
 20
7.7627520777
 30
0.0
 10
9.3045183739
 20
7.7995588016
 30
0.0
 10
9.2790134915
 20
7.8375394836
 30
0.0
 10
9.2553157768
 20
7.8766027135
 30
0.0
 10
9.2334823106
 20
7.9166544766
 30
0.0
 10
9.2135656913
 20
7.9575983759
 30
0.0
 10
9.1956139097
 20
7.9993358648
 30
0.0
 10
9.1796702367
 20
8.0417664842
 30
0.0
 10
9.1657731183
 20
8.0847881026
 30
0.0
 10
9.153956083
 20
8.1282971601
 30
0.0
 10
9.1442476603
 20
8.1721889162
 30
0.0
 10
9.136671312
 20
8.2163577003
 30
0.0
 10
9.1312453741
 20
8.2606971642
 30
0.0
 10
9.1279830115
 20
8.3051005367
 30
0.0
 10
9.126892185
 20
8.3494608792
 30
0.0
 10
9.1279756301
 20
8.3936713417
 30
0.0
 10
9.1312308416
 20
8.4376254201
 30
0.0
 10
9.1366500845
 20
8.4812172121
 30
0.0
 10
9.1442204091
 20
8.5243416718
 30
0.0
 10
9.1539236805
 20
8.5668948625
 30
0.0
 10
9.165736619
 20
8.6087742075
 30
0.0
 10
9.1796308535
 20
8.6498787379
 30
0.0
 10
9.1955729873
 20
8.690109337
 30
0.0
 10
9.2135246759
 20
8.7293689813
 30
0.0
 10
9.233442717
 20
8.7675629758
 30
0.0
 10
9.2552791536
 20
8.8045991857
 30
0.0
 10
9.2789813855
 20
8.8403882618
 30
0.0
 10
9.3044922935
 20
8.8748438623
 30
0.0
 10
9.3317503824
 20
8.9078828609
 30
0.0
 10
9.3606899289
 20
8.9394255509
 30
0.0
 10
9.3912411416
 20
8.9693958403
 30
0.0
 10
9.4233303305
 20
8.9977214381
 30
0.0
 10
9.456880088
 20
9.0243340308
 30
0.0
 10
9.4918094768
 20
9.0491694493
 30
0.0
 10
9.5280342305
 20
9.0721678246
 30
0.0
 10
9.5654669536
 20
9.0932737322
 30
0.0
 10
9.6040173574
 20
9.1124363288
 30
0.0
 10
9.6435923976
 20
9.1296094647
 30
0.0
 10
9.684096808
 20
9.1447518478
 30
0.0
 10
9.7254321914
 20
9.1578269293
 30
0.0
 10
9.760464535
 20
9.1669676579
 30
0.0
 10
9.7888000195
 20
9.1732191624
 30
0.0
 10
9.8102136827
 20
9.177377633
 30
0.0
 10
9.8317593135
 20
9.1809997843
 30
0.0
 10
9.8606675249
 20
9.1851143037
 30
0.0
 10
9.8970729637
 20
9.1889035921
 30
0.0
 10
9.9336825309
 20
9.190876916
 30
0.0
 10
9.9630734165
 20
9.1913689857
 30
0.0
 10
9.9925669245
 20
9.1911349988
 30
0.0
 10
10.0146941557
 20
9.1901418425
 30
0.0
 10
10.0294293819
 20
9.1891199511
 30
0.0
  0
SPLINE
  5
2CB
100
AcDbEntity
  8
0
100
AcDbSpline
 62
7
  6
CONTINUOUS
 70
0
 71
3
 72
72
 73
68
 74
0
 42
0.0000001
 43
0.0000001
 44
0.0000000001
 40
0.0
 40
0.0
 40
0.0
 40
0.0
 40
0.0156746759
 40
0.0314021947
 40
0.0471805745
 40
0.0630088182
 40
0.0788846473
 40
0.0948056358
 40
0.1107688743
 40
0.1267710774
 40
0.1428086157
 40
0.1588775408
 40
0.1749736273
 40
0.1910924088
 40
0.2072292197
 40
0.2233792376
 40
0.2395375249
 40
0.2556990718
 40
0.2718588394
 40
0.2880118042
 40
0.3041530026
 40
0.3202775743
 40
0.3363808036
 40
0.3524581615
 40
0.3685053468
 40
0.3845183263
 40
0.4004933719
 40
0.4164270952
 40
0.4323164801
 40
0.4481589139
 40
0.4639522156
 40
0.4796946599
 40
0.4953849967
 40
0.5110224669
 40
0.5266068149
 40
0.5421382976
 40
0.5576176867
 40
0.573046266
 40
0.5884258232
 40
0.6037586367
 40
0.6190474582
 40
0.6342954896
 40
0.6495063528
 40
0.6646840554
 40
0.679832951
 40
0.6949576959
 40
0.7100632023
 40
0.7251545874
 40
0.7402371188
 40
0.7553161583
 40
0.7703971047
 40
0.7854853363
 40
0.800586154
 40
0.8157047247
 40
0.8308460268
 40
0.8460147974
 40
0.8612154834
 40
0.8764521982
 40
0.8917286797
 40
0.9070482588
 40
0.9224138207
 40
0.9301152252
 40
0.9378289975
 40
0.9532933419
 40
0.968809278
 40
0.9843783192
 40
1.0
 40
1.0
 40
1.0
 40
1.0
 10
10.0459937875
 20
6.7767822229
 30
0.0
 10
10.0565998008
 20
6.7760466934
 30
0.0
 10
10.0778150928
 20
6.7740528381
 30
0.0
 10
10.1095043458
 20
6.7695150953
 30
0.0
 10
10.1410410534
 20
6.7634357494
 30
0.0
 10
10.1723479947
 20
6.7558299468
 30
0.0
 10
10.2033503079
 20
6.746715785
 30
0.0
 10
10.233973184
 20
6.7361153631
 30
0.0
 10
10.2641429559
 20
6.7240542255
 30
0.0
 10
10.2937870013
 20
6.710561481
 30
0.0
 10
10.3228339753
 20
6.6956696578
 30
0.0
 10
10.3512139673
 20
6.6794146343
 30
0.0
 10
10.3788586644
 20
6.6618355548
 30
0.0
 10
10.4057015265
 20
6.6429747538
 30
0.0
 10
10.4316779631
 20
6.6228776732
 30
0.0
 10
10.4567254602
 20
6.6015927085
 30
0.0
 10
10.4807837329
 20
6.5791711026
 30
0.0
 10
10.5037948663
 20
6.5556668222
 30
0.0
 10
10.5257034529
 20
6.5311364318
 30
0.0
 10
10.5464567676
 20
6.5056389923
 30
0.0
 10
10.5660048564
 20
6.4792358803
 30
0.0
 10
10.5843006534
 20
6.4519906427
 30
0.0
 10
10.6013000944
 20
6.4239688476
 30
0.0
 10
10.6169622128
 20
6.395237925
 30
0.0
 10
10.6312492836
 20
6.3658670306
 30
0.0
 10
10.644126897
 20
6.3359268634
 30
0.0
 10
10.6555640159
 20
6.3054894865
 30
0.0
 10
10.6655330574
 20
6.2746281606
 30
0.0
 10
10.6740099504
 20
6.2434171682
 30
0.0
 10
10.6809742194
 20
6.2119316449
 30
0.0
 10
10.6864090592
 20
6.1802473997
 30
0.0
 10
10.6903013249
 20
6.1484407203
 30
0.0
 10
10.6926415729
 20
6.1165881967
 30
0.0
 10
10.6934240817
 20
6.0847665394
 30
0.0
 10
10.692646868
 20
6.053052398
 30
0.0
 10
10.6903117496
 20
6.0215221738
 30
0.0
 10
10.6864242865
 20
5.9902518326
 30
0.0
 10
10.6809937678
 20
5.9593167268
 30
0.0
 10
10.6740331943
 20
5.9287914152
 30
0.0
 10
10.6655592402
 20
5.8987494885
 30
0.0
 10
10.6555922671
 20
5.8692633769
 30
0.0
 10
10.6441562522
 20
5.8404041741
 30
0.0
 10
10.6312787057
 20
5.8122414757
 30
0.0
 10
10.6169906152
 20
5.7848432099
 30
0.0
 10
10.6013263661
 20
5.7582754782
 30
0.0
 10
10.5843236845
 20
5.7326023809
 30
0.0
 10
10.5660235649
 20
5.7078858424
 30
0.0
 10
10.5464701244
 20
5.6841854878
 30
0.0
 10
10.5257105062
 20
5.6615584943
 30
0.0
 10
10.503794764
 20
5.640059455
 30
0.0
 10
10.4807757439
 20
5.6197402466
 30
0.0
 10
10.4567089922
 20
5.6006498571
 30
0.0
 10
10.4316525763
 20
5.5828343067
 30
0.0
 10
10.4056669453
 20
5.566336539
 30
0.0
 10
10.3788147839
 20
5.551196316
 30
0.0
 10
10.3511608608
 20
5.5374501335
 30
0.0
 10
10.3227718817
 20
5.5251310812
 30
0.0
 10
10.2937163635
 20
5.514268795
 30
0.0
 10
10.2640642498
 20
5.5048893716
 30
0.0
 10
10.2338875222
 20
5.4970154427
 30
0.0
 10
10.2083817032
 20
5.4917279756
 30
0.0
 10
10.1877914247
 20
5.4882665439
 30
0.0
 10
10.167054199
 20
5.4853149355
 30
0.0
 10
10.1409388157
 20
5.4825967892
 30
0.0
 10
10.1093992697
 20
5.480896645
 30
0.0
 10
10.0777080305
 20
5.480759446
 30
0.0
 10
10.0565639425
 20
5.4817084963
 30
0.0
 10
10.0459937875
 20
5.482441539
 30
0.0
  0
SPLINE
  5
2CC
100
AcDbEntity
  8
0
100
AcDbSpline
 62
7
  6
CONTINUOUS
 70
0
 71
3
 72
71
 73
67
 74
0
 42
0.0000001
 43
0.0000001
 44
0.0000000001
 40
0.0
 40
0.0
 40
0.0
 40
0.0
 40
0.0155527289
 40
0.0311450779
 40
0.0467752192
 40
0.0624431342
 40
0.0781478494
 40
0.0938881897
 40
0.1096629313
 40
0.1254706179
 40
0.1413096306
 40
0.1571782022
 40
0.1730744113
 40
0.1889962018
 40
0.2049413922
 40
0.2209076832
 40
0.236892674
 40
0.2528938729
 40
0.2689087075
 40
0.2849345406
 40
0.3009686822
 40
0.3170084002
 40
0.3330509374
 40
0.3490935228
 40
0.3651333837
 40
0.3811677622
 40
0.3971939268
 40
0.4132091838
 40
0.4292108944
 40
0.4451964855
 40
0.4611634601
 40
0.4771094146
 40
0.493032048
 40
0.5089291719
 40
0.5247987263
 40
0.5406387879
 40
0.556447578
 40
0.5722234779
 40
0.5879650343
 40
0.603670966
 40
0.6193401767
 40
0.6349717592
 40
0.6505649982
 40
0.666119382
 40
0.681634603
 40
0.6971105584
 40
0.7125473576
 40
0.7279453215
 40
0.7433049782
 40
0.7586270674
 40
0.7739125368
 40
0.7891625337
 40
0.8043784056
 40
0.819561693
 40
0.8347141182
 40
0.8498375805
 40
0.8649341466
 40
0.8800060363
 40
0.8950556123
 40
0.9100853694
 40
0.9250979164
 40
0.9400959628
 40
0.9550823053
 40
0.9700598087
 40
0.9850313894
 40
1.0
 40
1.0
 40
1.0
 40
1.0
 10
10.0294293819
 20
5.1959823035
 30
0.0
 10
10.0182379842
 20
5.1967584296
 30
0.0
 10
9.9958528848
 20
5.1987209946
 30
0.0
 10
9.962364245
 20
5.2028824641
 30
0.0
 10
9.9289647104
 20
5.2082602089
 30
0.0
 10
9.8956999441
 20
5.2148467612
 30
0.0
 10
9.8626138085
 20
5.2226333546
 30
0.0
 10
9.829750592
 20
5.2316095812
 30
0.0
 10
9.7971541968
 20
5.2417634849
 30
0.0
 10
9.7648680952
 20
5.2530814436
 30
0.0
 10
9.7329353742
 20
5.2655483057
 30
0.0
 10
9.7013986914
 20
5.2791474994
 30
0.0
 10
9.6703001177
 20
5.2938608047
 30
0.0
 10
9.6396811394
 20
5.309668533
 30
0.0
 10
9.6095826655
 20
5.3265496552
 30
0.0
 10
9.5800448484
 20
5.3444815887
 30
0.0
 10
9.5511070808
 20
5.3634403457
 30
0.0
 10
9.5228080328
 20
5.3834006882
 30
0.0
 10
9.49518546
 20
5.4043359422
 30
0.0
 10
9.4682761891
 20
5.4262181105
 30
0.0
 10
9.4421161868
 20
5.4490180472
 30
0.0
 10
9.4167403631
 20
5.4727053056
 30
0.0
 10
9.3921825368
 20
5.4972482161
 30
0.0
 10
9.3684755392
 20
5.5226140742
 30
0.0
 10
9.3456510191
 20
5.5487690232
 30
0.0
 10
9.3237393823
 20
5.575678102
 30
0.0
 10
9.3027699293
 20
5.6033054397
 30
0.0
 10
9.2827706714
 20
5.6316141722
 30
0.0
 10
9.2637682369
 20
5.6605664676
 30
0.0
 10
9.2457880428
 20
5.6901237187
 30
0.0
 10
9.228854129
 20
5.7202464926
 30
0.0
 10
9.2129890273
 20
5.7508945409
 30
0.0
 10
9.1982139655
 20
5.7820269834
 30
0.0
 10
9.1845487245
 20
5.8136022871
 30
0.0
 10
9.1720114706
 20
5.8455782705
 30
0.0
 10
9.1606189858
 20
5.8779122712
 30
0.0
 10
9.1503865551
 20
5.9105611497
 30
0.0
 10
9.1413277625
 20
5.943481297
 30
0.0
 10
9.1334547412
 20
5.976628781
 30
0.0
 10
9.1267780958
 20
6.0099593688
 30
0.0
 10
9.1213066661
 20
6.0434285465
 30
0.0
 10
9.1170477891
 20
6.0769916397
 30
0.0
 10
9.1140072593
 20
6.1106038487
 30
0.0
 10
9.1121890671
 20
6.1442202873
 30
0.0
 10
9.1115956633
 20
6.1777960762
 30
0.0
 10
9.1122279588
 20
6.2112863826
 30
0.0
 10
9.1140850472
 20
6.2446464851
 30
0.0
 10
9.1171644615
 20
6.2778318392
 30
0.0
 10
9.1214622126
 20
6.3107981152
 30
0.0
 10
9.1269725088
 20
6.3435012905
 30
0.0
 10
9.1336879915
 20
6.3758976928
 30
0.0
 10
9.1415998146
 20
6.4079440264
 30
0.0
 10
9.150697369
 20
6.4395974942
 30
0.0
 10
9.1609684909
 20
6.4708158235
 30
0.0
 10
9.1723995773
 20
6.5015572735
 30
0.0
 10
9.1849753278
 20
6.5317807849
 30
0.0
 10
9.1986789171
 20
6.561445996
 30
0.0
 10
9.2134921443
 20
6.5905132258
 30
0.0
 10
9.2293951987
 20
6.6189436442
 30
0.0
 10
9.2463667957
 20
6.6466992914
 30
0.0
 10
9.2643843489
 20
6.6737430247
 30
0.0
 10
9.2834237827
 20
6.7000387191
 30
0.0
 10
9.3034595756
 20
6.725551243
 30
0.0
 10
9.3244651527
 20
6.7502465741
 30
0.0
 10
9.3464119867
 20
6.7740912416
 30
0.0
 10
9.361652765
 20
6.7894010393
 30
0.0
 10
9.3694185104
 20
6.7969021939
 30
0.0
  0
SPLINE
  5
2CD
100
AcDbEntity
  8
0
100
AcDbSpline
 62
7
  6
CONTINUOUS
 70
0
 71
3
 72
17
 73
13
 74
0
 42
0.0000001
 43
0.0000001
 44
0.0000000001
 40
0.0
 40
0.0
 40
0.0
 40
0.0
 40
0.1504681883
 40
0.2917243824
 40
0.4244612681
 40
0.5495925261
 40
0.6682485046
 40
0.7817794377
 40
0.8371315341
 40
0.8918035522
 40
0.9460171661
 40
1.0
 40
1.0
 40
1.0
 40
1.0
 10
12.6004528698
 20
6.7135634971
 30
0.0
 10
12.5994803777
 20
6.7126241418
 30
0.0
 10
12.597536663
 20
6.7108616242
 30
0.0
 10
12.5945268488
 20
6.7085126507
 30
0.0
 10
12.5915205835
 20
6.7065481433
 30
0.0
 10
12.588520674
 20
6.7049712053
 30
0.0
 10
12.5855300543
 20
6.703784976
 30
0.0
 10
12.5830261957
 20
6.7031189303
 30
0.0
 10
12.5810431127
 20
6.702790901
 30
0.0
 10
12.5795733695
 20
6.7026453316
 30
0.0
 10
12.5781095791
 20
6.7025983149
 30
0.0
 10
12.5771370723
 20
6.7026327209
 30
0.0
 10
12.5766531537
 20
6.7026662859
 30
0.0
  0
SPLINE
  5
2CE
100
AcDbEntity
  8
0
100
AcDbSpline
 62
7
  6
CONTINUOUS
 70
0
 71
3
 72
26
 73
22
 74
0
 42
0.0000001
 43
0.0000001
 44
0.0000000001
 40
0.0
 40
0.0
 40
0.0
 40
0.0
 40
0.0616472487
 40
0.1233175237
 40
0.1850335947
 40
0.2468177207
 40
0.308691404
 40
0.370675155
 40
0.4327882706
 40
0.4950486303
 40
0.5574725121
 40
0.6200744238
 40
0.6514488032
 40
0.6828722578
 40
0.7143460212
 40
0.745871221
 40
0.8090747815
 40
0.8724939711
 40
0.9042883305
 40
0.9361389869
 40
1.0
 40
1.0
 40
1.0
 40
1.0
 10
10.6464999902
 20
7.6859169501
 30
0.0
 10
10.6368378083
 20
7.6765839745
 30
0.0
 10
10.6170035484
 20
7.6584306202
 30
0.0
 10
10.5858257099
 20
7.6328336549
 30
0.0
 10
10.5532939917
 20
7.6089286239
 30
0.0
 10
10.5194914958
 20
7.5867767803
 30
0.0
 10
10.4845031187
 20
7.5664336138
 30
0.0
 10
10.4484171042
 20
7.5479503962
 30
0.0
 10
10.4113244172
 20
7.5313736162
 30
0.0
 10
10.3733183429
 20
7.5167449215
 30
0.0
 10
10.3344953377
 20
7.5041011956
 30
0.0
 10
10.3015656077
 20
7.4952514496
 30
0.0
 10
10.274917349
 20
7.489191961
 30
0.0
 10
10.2547722243
 20
7.4851571553
 30
0.0
 10
10.2344972747
 20
7.4816383001
 30
0.0
 10
10.2072867884
 20
7.4776344483
 30
0.0
 10
10.1730078086
 20
7.4739326562
 30
0.0
 10
10.1385265645
 20
7.4719793586
 30
0.0
 10
10.1108399932
 20
7.4714629698
 30
0.0
 10
10.083053504
 20
7.4716456781
 30
0.0
 10
10.0622058503
 20
7.4725701755
 30
0.0
 10
10.0483231687
 20
7.4735329428
 30
0.0
  0
SPLINE
  5
2CF
100
AcDbEntity
  8
0
100
AcDbSpline
 62
7
  6
CONTINUOUS
 70
0
 71
3
 72
15
 73
11
 74
0
 42
0.0000001
 43
0.0000001
 44
0.0000000001
 40
0.0
 40
0.0
 40
0.0
 40
0.0
 40
0.1234033063
 40
0.2471827165
 40
0.371387928
 40
0.496061387
 40
0.6212375184
 40
0.7469427811
 40
0.8731935321
 40
1.0
 40
1.0
 40
1.0
 40
1.0
 10
10.7886122511
 20
7.8755223072
 30
0.0
 10
10.7732582988
 20
7.8680803972
 30
0.0
 10
10.7419939497
 20
7.854200513
 30
0.0
 10
10.6937452817
 20
7.8365205617
 30
0.0
 10
10.6442633684
 20
7.8220175424
 30
0.0
 10
10.593749021
 20
7.8107505168
 30
0.0
 10
10.5424038613
 20
7.8027638143
 30
0.0
 10
10.4904329142
 20
7.798089269
 30
0.0
 10
10.4380465795
 20
7.7967448543
 30
0.0
 10
10.4030550465
 20
7.7980696924
 30
0.0
 10
10.3855641061
 20
7.7992826932
 30
0.0
  0
SPLINE
  5
2D0
100
AcDbEntity
  8
0
100
AcDbSpline
 62
7
  6
CONTINUOUS
 70
0
 71
3
 72
23
 73
19
 74
0
 42
0.0000001
 43
0.0000001
 44
0.0000000001
 40
0.0
 40
0.0
 40
0.0
 40
0.0
 40
0.0616115173
 40
0.1233049148
 40
0.1850900568
 40
0.2469762734
 40
0.3089723337
 40
0.3710863974
 40
0.4333259457
 40
0.4956977922
 40
0.5582080194
 40
0.6208618802
 40
0.6836639816
 40
0.746618229
 40
0.8097269
 40
0.8729923779
 40
0.9364188438
 40
1.0
 40
1.0
 40
1.0
 40
1.0
 10
10.823652961
 20
7.9511824012
 30
0.0
 10
10.8157304002
 20
7.9465792442
 30
0.0
 10
10.7996962945
 20
7.9376701154
 30
0.0
 10
10.7751355748
 20
7.9252276066
 30
0.0
 10
10.7500807901
 20
7.9137134618
 30
0.0
 10
10.7245649801
 20
7.9031428699
 30
0.0
 10
10.698621211
 20
7.8935293902
 30
0.0
 10
10.6722831769
 20
7.8848856603
 30
0.0
 10
10.6455851306
 20
7.8772227807
 30
0.0
 10
10.6185617576
 20
7.8705506839
 30
0.0
 10
10.5912481473
 20
7.8648781395
 30
0.0
 10
10.5636798154
 20
7.8602123353
 30
0.0
 10
10.5358925303
 20
7.8565593992
 30
0.0
 10
10.5079224369
 20
7.8539241271
 30
0.0
 10
10.4798059452
 20
7.8523097162
 30
0.0
 10
10.4515790516
 20
7.8517184031
 30
0.0
 10
10.4232794297
 20
7.852151024
 30
0.0
 10
10.4044111572
 20
7.8531202876
 30
0.0
 10
10.3949781408
 20
7.8537744695
 30
0.0
  0
SPLINE
  5
2D1
100
AcDbEntity
  8
0
100
AcDbSpline
 62
7
  6
CONTINUOUS
 70
0
 71
3
 72
19
 73
15
 74
0
 42
0.0000001
 43
0.0000001
 44
0.0000000001
 40
0.0
 40
0.0
 40
0.0
 40
0.0
 40
0.0616738124
 40
0.1234352147
 40
0.1852905412
 40
0.247245757
 40
0.3093063958
 40
0.3714775941
 40
0.4337640259
 40
0.4961699127
 40
0.6213388195
 40
0.7470244116
 40
0.8732417913
 40
1.0
 40
1.0
 40
1.0
 40
1.0
 10
10.8382175809
 20
7.9904055887
 30
0.0
 10
10.8311024473
 20
7.98707927
 30
0.0
 10
10.8167525711
 20
7.9806533252
 30
0.0
 10
10.7949108417
 20
7.971712061
 30
0.0
 10
10.7727574084
 20
7.9634696693
 30
0.0
 10
10.7503134998
 20
7.9559343421
 30
0.0
 10
10.7276003835
 20
7.9491129369
 30
0.0
 10
10.7046396348
 20
7.9430121613
 30
0.0
 10
10.6814527775
 20
7.9376375586
 30
0.0
 10
10.6502371864
 20
7.9314410347
 30
0.0
 10
10.6107527313
 20
7.9255389249
 30
0.0
 10
10.5628765117
 20
7.9214355545
 30
0.0
 10
10.5146365631
 20
7.9203180688
 30
0.0
 10
10.482419781
 20
7.92156432
 30
0.0
 10
10.4663155815
 20
7.92268115
 30
0.0
  0
SPLINE
  5
2D2
100
AcDbEntity
  8
0
100
AcDbSpline
 62
7
  6
CONTINUOUS
 70
0
 71
3
 72
23
 73
19
 74
0
 42
0.0000001
 43
0.0000001
 44
0.0000000001
 40
0.0
 40
0.0
 40
0.0
 40
0.0
 40
0.0616167298
 40
0.123316496
 40
0.1851086772
 40
0.2470021602
 40
0.3090052631
 40
0.3711257275
 40
0.433370658
 40
0.4957465012
 40
0.5582590101
 40
0.6209131467
 40
0.6837133209
 40
0.7466631635
 40
0.8097646688
 40
0.8730204752
 40
0.9364345509
 40
1.0
 40
1.0
 40
1.0
 40
1.0
 10
10.8674440674
 20
8.1042776747
 30
0.0
 10
10.8603807306
 20
8.1002762679
 30
0.0
 10
10.8460923265
 20
8.0925334035
 30
0.0
 10
10.824224261
 20
8.0817245902
 30
0.0
 10
10.8019334875
 20
8.0717265635
 30
0.0
 10
10.7792482681
 20
8.0625522382
 30
0.0
 10
10.7561969824
 20
8.0542129369
 30
0.0
 10
10.7328085512
 20
8.046719111
 30
0.0
 10
10.7091122533
 20
8.0400802417
 30
0.0
 10
10.6851378356
 20
8.0343044735
 30
0.0
 10
10.6609153159
 20
8.0293991775
 30
0.0
 10
10.6364750637
 20
8.0253704059
 30
0.0
 10
10.6118476882
 20
8.022223154
 30
0.0
 10
10.5870640975
 20
8.0199615221
 30
0.0
 10
10.5621553983
 20
8.0185880694
 30
0.0
 10
10.5371523218
 20
8.0181046729
 30
0.0
 10
10.5120871211
 20
8.0185120175
 30
0.0
 10
10.4953757688
 20
8.0193758063
 30
0.0
 10
10.4870210881
 20
8.0199552054
 30
0.0
  0
SPLINE
  5
2D3
100
AcDbEntity
  8
0
100
AcDbSpline
 62
7
  6
CONTINUOUS
 70
0
 71
3
 72
22
 73
18
 74
0
 42
0.0000001
 43
0.0000001
 44
0.0000000001
 40
0.0
 40
0.0
 40
0.0
 40
0.0
 40
0.1348256121
 40
0.267185194
 40
0.3969404769
 40
0.460793845
 40
0.5239290533
 40
0.5863180938
 40
0.647929547
 40
0.7087286403
 40
0.7686784422
 40
0.8277440021
 40
0.8859062202
 40
0.9146672034
 40
0.9432319158
 40
0.9716475747
 40
1.0
 40
1.0
 40
1.0
 40
1.0
 10
12.6026646166
 20
8.2004946372
 30
0.0
 10
12.6023438574
 20
8.1989877132
 30
0.0
 10
12.6016561412
 20
8.1960121797
 30
0.0
 10
12.6004711512
 20
8.191632709
 30
0.0
 10
12.599351791
 20
8.1880785449
 30
0.0
 10
12.5983711189
 20
8.1853131429
 30
0.0
 10
12.5975947883
 20
8.1832928266
 30
0.0
 10
12.5967700119
 20
8.1813194754
 30
0.0
 10
12.5958917361
 20
8.1793985455
 30
0.0
 10
12.5949532233
 20
8.177537322
 30
0.0
 10
12.5939452356
 20
8.175745748
 30
0.0
 10
12.5928547579
 20
8.1740384609
 30
0.0
 10
12.5918571783
 20
8.1726985365
 30
0.0
 10
12.5909928495
 20
8.1717004874
 30
0.0
 10
12.5903080827
 20
8.170998689
 30
0.0
 10
12.5895772174
 20
8.1703517453
 30
0.0
 10
12.5890525572
 20
8.1699677016
 30
0.0
 10
12.5887800194
 20
8.1697925088
 30
0.0
  0
SPLINE
  5
2D4
100
AcDbEntity
  8
0
100
AcDbSpline
 62
7
  6
CONTINUOUS
 70
0
 71
3
 72
57
 73
53
 74
0
 42
0.0000001
 43
0.0000001
 44
0.0000000001
 40
0.0
 40
0.0
 40
0.0
 40
0.0
 40
0.0149696159
 40
0.0299422018
 40
0.0449207096
 40
0.0599080579
 40
0.0749071109
 40
0.089920664
 40
0.1049514292
 40
0.120002015
 40
0.1350749144
 40
0.1501724927
 40
0.1652969693
 40
0.1804504095
 40
0.1956347147
 40
0.2108516068
 40
0.2261026251
 40
0.241389119
 40
0.2567122353
 40
0.272072921
 40
0.2874719169
 40
0.3029097508
 40
0.3183867432
 40
0.3339030043
 40
0.3494584304
 40
0.3650527149
 40
0.3806853452
 40
0.396355606
 40
0.4120625912
 40
0.427805203
 40
0.4435821603
 40
0.4593920113
 40
0.4752331349
 40
0.4911037534
 40
0.5070019445
 40
0.5229256456
 40
0.5388726697
 40
0.5548407166
 40
0.5868254584
 40
0.6188643484
 40
0.6509360736
 40
0.6830186871
 40
0.715090032
 40
0.7471281691
 40
0.7791118005
 40
0.8110206848
 40
0.8428360401
 40
0.8745409222
 40
0.9061205793
 40
0.9375628037
 40
0.9688579187
 40
1.0
 40
1.0
 40
1.0
 40
1.0
 10
9.4501463471
 20
8.9244733069
 30
0.0
 10
9.4431081214
 20
8.917674885
 30
0.0
 10
9.4292950468
 20
8.9037994602
 30
0.0
 10
9.4094042708
 20
8.8821886298
 30
0.0
 10
9.3903664944
 20
8.859806901
 30
0.0
 10
9.3722076228
 20
8.836684549
 30
0.0
 10
9.3549518574
 20
8.8128523275
 30
0.0
 10
9.3386221749
 20
8.7883421909
 30
0.0
 10
9.323240438
 20
8.7631868417
 30
0.0
 10
9.3088272232
 20
8.7374198852
 30
0.0
 10
9.2954016708
 20
8.7110758111
 30
0.0
 10
9.2829817918
 20
8.6841897753
 30
0.0
 10
9.2715841624
 20
8.6567977104
 30
0.0
 10
9.2612238992
 20
8.6289362525
 30
0.0
 10
9.2519149338
 20
8.6006425853
 30
0.0
 10
9.2436696432
 20
8.5719545277
 30
0.0
 10
9.2364989492
 20
8.5429104215
 30
0.0
 10
9.2304125313
 20
8.5135490356
 30
0.0
 10
9.2254184225
 20
8.4839096096
 30
0.0
 10
9.2215232283
 20
8.4540317343
 30
0.0
 10
9.218732252
 20
8.4239553
 30
0.0
 10
9.2170490954
 20
8.3937204865
 30
0.0
 10
9.2164759748
 20
8.3633676651
 30
0.0
 10
9.2170137453
 20
8.3329373678
 30
0.0
 10
9.2186615464
 20
8.3024702266
 30
0.0
 10
9.2214171821
 20
8.272006917
 30
0.0
 10
9.2252770399
 20
8.2415881225
 30
0.0
 10
9.2302358222
 20
8.2112544381
 30
0.0
 10
9.2362869456
 20
8.1810463638
 30
0.0
 10
9.2434223683
 20
8.1510042403
 30
0.0
 10
9.2516324309
 20
8.1211681413
 30
0.0
 10
9.2609062376
 20
8.0915779126
 30
0.0
 10
9.2712314132
 20
8.062273059
 30
0.0
 10
9.2825940567
 20
8.0332926659
 30
0.0
 10
9.2949791036
 20
8.0046754217
 30
0.0
 10
9.3083699225
 20
7.9764596256
 30
0.0
 10
9.3227488182
 20
7.9486824991
 30
0.0
 10
9.3432212083
 20
7.912265139
 30
0.0
 10
9.3711852052
 20
7.8680282188
 30
0.0
 10
9.4083325411
 20
7.8173136149
 30
0.0
 10
9.4488952798
 20
7.7692014362
 30
0.0
 10
9.4926562376
 20
7.7239498128
 30
0.0
 10
9.5393824705
 20
7.6817995317
 30
0.0
 10
9.5888248593
 20
7.6429753956
 30
0.0
 10
9.6407199602
 20
7.6076844111
 30
0.0
 10
9.6947913143
 20
7.5761149605
 30
0.0
 10
9.750750783
 20
7.5484355897
 30
0.0
 10
9.8083002415
 20
7.5247941542
 30
0.0
 10
9.8671327195
 20
7.5053171791
 30
0.0
 10
9.9269356614
 20
7.4901090758
 30
0.0
 10
9.9873860786
 20
7.4792515453
 30
0.0
 10
10.0280147451
 20
7.4749413367
 30
0.0
 10
10.0483231687
 20
7.4735329428
 30
0.0
  0
SPLINE
  5
2D5
100
AcDbEntity
  8
0
100
AcDbSpline
 62
7
  6
CONTINUOUS
 70
0
 71
3
 72
45
 73
41
 74
0
 42
0.0000001
 43
0.0000001
 44
0.0000000001
 40
0.0
 40
0.0
 40
0.0
 40
0.0
 40
0.0149872199
 40
0.0299958039
 40
0.045027446
 40
0.0600837431
 40
0.0902719585
 40
0.120575169
 40
0.1357746866
 40
0.1510059716
 40
0.1662697615
 40
0.1815666543
 40
0.1968971093
 40
0.2122614498
 40
0.2276598536
 40
0.2430923659
 40
0.2740553125
 40
0.3051517929
 40
0.3363772588
 40
0.3677251298
 40
0.3991869199
 40
0.4307523895
 40
0.4624097189
 40
0.494145701
 40
0.5259459502
 40
0.5577951234
 40
0.5896771531
 40
0.6215754866
 40
0.6534733315
 40
0.6853539027
 40
0.7172006693
 40
0.7489975995
 40
0.7807293995
 40
0.8123817456
 40
0.8439415049
 40
0.8753969487
 40
0.9067379143
 40
0.9379561054
 40
0.9690447971
 40
1.0
 40
1.0
 40
1.0
 40
1.0
 10
9.6450024651
 20
9.0607609441
 30
0.0
 10
9.6409724399
 20
9.0531545367
 30
0.0
 10
9.6331634046
 20
9.0377932355
 30
0.0
 10
9.6222252665
 20
9.0143532256
 30
0.0
 10
9.6120649761
 20
8.9905219887
 30
0.0
 10
9.5995594018
 20
8.9582335953
 30
0.0
 10
9.58592368
 20
8.9170041947
 30
0.0
 10
9.5750289028
 20
8.8748829963
 30
0.0
 10
9.5679663528
 20
8.8407169776
 30
0.0
 10
9.563496768
 20
8.8148502909
 30
0.0
 10
9.5598651109
 20
8.7887965517
 30
0.0
 10
9.5570750483
 20
8.7625819815
 30
0.0
 10
9.5551292896
 20
8.7362333782
 30
0.0
 10
9.5540299928
 20
8.7097776503
 30
0.0
 10
9.5537780892
 20
8.6832414361
 30
0.0
 10
9.554573287
 20
8.6477535224
 30
0.0
 10
9.5576924121
 20
8.603322207
 30
0.0
 10
9.5648046445
 20
8.5501827788
 30
0.0
 10
9.5752610287
 20
8.497372967
 30
0.0
 10
9.5890186852
 20
8.4451092329
 30
0.0
 10
9.6060213152
 20
8.3936039334
 30
0.0
 10
9.6261994545
 20
8.3430668
 30
0.0
 10
9.6494707539
 20
8.2937034653
 30
0.0
 10
9.675740317
 20
8.2457148057
 30
0.0
 10
9.7049010849
 20
8.199296086
 30
0.0
 10
9.736834273
 20
8.1546361873
 30
0.0
 10
9.77140984
 20
8.1119168342
 30
0.0
 10
9.8084870153
 20
8.0713118589
 30
0.0
 10
9.8479148805
 20
8.0329865094
 30
0.0
 10
9.8895329764
 20
7.9970967801
 30
0.0
 10
9.9331719511
 20
7.9637887832
 30
0.0
 10
9.9786542426
 20
7.9331981581
 30
0.0
 10
10.025794794
 20
7.9054495235
 30
0.0
 10
10.0744018021
 20
7.8806559693
 30
0.0
 10
10.1242774622
 20
7.8589185776
 30
0.0
 10
10.1752188594
 20
7.8403260517
 30
0.0
 10
10.2270184883
 20
7.8249542907
 30
0.0
 10
10.2794661749
 20
7.8128662112
 30
0.0
 10
10.3323456615
 20
7.8041113626
 30
0.0
 10
10.3678272952
 20
7.8005127453
 30
0.0
 10
10.3855641061
 20
7.7992826932
 30
0.0
  0
SPLINE
  5
2D6
100
AcDbEntity
  8
0
100
AcDbSpline
 62
7
  6
CONTINUOUS
 70
0
 71
3
 72
22
 73
18
 74
0
 42
0.0000001
 43
0.0000001
 44
0.0000000001
 40
0.0
 40
0.0
 40
0.0
 40
0.0
 40
0.0332280788
 40
0.0663275505
 40
0.0992757415
 40
0.1320783978
 40
0.164738896
 40
0.1972595267
 40
0.2618956288
 40
0.3260196466
 40
0.3896512647
 40
0.452803949
 40
0.515486106
 40
0.6394468812
 40
0.7615443711
 40
0.8817471825
 40
1.0
 40
1.0
 40
1.0
 40
1.0
 10
12.6037002934
 20
8.2398876136
 30
0.0
 10
12.6038469825
 20
8.2394722866
 30
0.0
 10
12.6041092224
 20
8.2386322786
 30
0.0
 10
12.6044299381
 20
8.2373554658
 30
0.0
 10
12.6046917461
 20
8.2360711504
 30
0.0
 10
12.6049051897
 20
8.2347839489
 30
0.0
 10
12.6050775488
 20
8.233496379
 30
0.0
 10
12.6052600216
 20
8.2317850641
 30
0.0
 10
12.6054118889
 20
8.2296518197
 30
0.0
 10
12.6054972229
 20
8.2271024444
 30
0.0
 10
12.6055018869
 20
8.2245714067
 30
0.0
 10
12.6054376903
 20
8.222060383
 30
0.0
 10
12.6052722173
 20
8.218752975
 30
0.0
 10
12.6049325843
 20
8.2146731495
 30
0.0
 10
12.6043433895
 20
8.2098528195
 30
0.0
 10
12.6035943204
 20
8.2051314553
 30
0.0
 10
12.6029909703
 20
8.2020278446
 30
0.0
 10
12.6026646166
 20
8.2004946372
 30
0.0
  0
SPLINE
  5
2D7
100
AcDbEntity
  8
0
100
AcDbSpline
 62
7
  6
CONTINUOUS
 70
0
 71
3
 72
45
 73
41
 74
0
 42
0.0000001
 43
0.0000001
 44
0.0000000001
 40
0.0
 40
0.0
 40
0.0
 40
0.0
 40
0.0149684713
 40
0.029954973
 40
0.04496153
 40
0.0599900669
 40
0.075042408
 40
0.0901202643
 40
0.1052252254
 40
0.1203587591
 40
0.1355221945
 40
0.1507167294
 40
0.1659434141
 40
0.181203155
 40
0.2118203779
 40
0.2425769802
 40
0.2734747153
 40
0.3045128726
 40
0.3356883224
 40
0.3669956015
 40
0.3984270335
 40
0.4299728832
 40
0.4616215379
 40
0.4933597163
 40
0.5251726964
 40
0.5570445615
 40
0.58895846
 40
0.6208968756
 40
0.6528419056
 40
0.6847755434
 40
0.7166799619
 40
0.7485377948
 40
0.7803324127
 40
0.8120481908
 40
0.8436707658
 40
0.875187282
 40
0.9065865878
 40
0.9378595618
 40
0.9689988241
 40
1.0
 40
1.0
 40
1.0
 40
1.0
 10
9.7214159882
 20
9.0923661342
 30
0.0
 10
9.7169502063
 20
9.0852600041
 30
0.0
 10
9.7082624095
 20
9.0708808583
 30
0.0
 10
9.6959870028
 20
9.0488556631
 30
0.0
 10
9.6844733413
 20
9.0263846761
 30
0.0
 10
9.6737341362
 20
9.0034927754
 30
0.0
 10
9.6637809852
 20
8.9802048433
 30
0.0
 10
9.6546248734
 20
8.9565462456
 30
0.0
 10
9.6462755801
 20
8.9325428378
 30
0.0
 10
9.6387423994
 20
8.9082207281
 30
0.0
 10
9.6320333586
 20
8.8836064593
 30
0.0
 10
9.6261558612
 20
8.8587269336
 30
0.0
 10
9.6211162715
 20
8.8336089066
 30
0.0
 10
9.6155155228
 20
8.7998033403
 30
0.0
 10
9.6106405926
 20
8.757076619
 30
0.0
 10
9.6082166015
 20
8.7053592954
 30
0.0
 10
9.6092209746
 20
8.6533581749
 30
0.0
 10
9.613649212
 20
8.6013013494
 30
0.0
 10
9.6214815656
 20
8.5494151163
 30
0.0
 10
9.6326835958
 20
8.4979254951
 30
0.0
 10
9.6472062095
 20
8.4470565832
 30
0.0
 10
9.6649859037
 20
8.3970297716
 30
0.0
 10
9.6859450199
 20
8.3480627332
 30
0.0
 10
9.7099921183
 20
8.3003685083
 30
0.0
 10
9.7370223704
 20
8.2541545835
 30
0.0
 10
9.7669180158
 20
8.209622001
 30
0.0
 10
9.7995488709
 20
8.166964493
 30
0.0
 10
9.8347728939
 20
8.1263676502
 30
0.0
 10
9.8724367751
 20
8.0880081005
 30
0.0
 10
9.9123766196
 20
8.0520527592
 30
0.0
 10
9.9544186584
 20
8.0186581141
 30
0.0
 10
9.9983799967
 20
7.9879695496
 30
0.0
 10
10.044069399
 20
7.9601207179
 30
0.0
 10
10.0912881208
 20
7.9352329661
 30
0.0
 10
10.1398307306
 20
7.9134147896
 30
0.0
 10
10.1894860825
 20
7.8947613699
 30
0.0
 10
10.2400379252
 20
7.8793541267
 30
0.0
 10
10.2912669674
 20
7.8672604883
 30
0.0
 10
10.3429473673
 20
7.8585334618
 30
0.0
 10
10.3776373285
 20
7.854977059
 30
0.0
 10
10.3949781408
 20
7.8537744695
 30
0.0
  0
SPLINE
  5
2D8
100
AcDbEntity
  8
0
100
AcDbSpline
 62
7
  6
CONTINUOUS
 70
0
 71
3
 72
43
 73
39
 74
0
 42
0.0000001
 43
0.0000001
 44
0.0000000001
 40
0.0
 40
0.0
 40
0.0
 40
0.0
 40
0.0149922449
 40
0.0300064543
 40
0.0450442548
 40
0.0601071763
 40
0.0903098313
 40
0.1206285278
 40
0.1358359811
 40
0.1510752675
 40
0.166347064
 40
0.1816519058
 40
0.2123583023
 40
0.2432000007
 40
0.2741764069
 40
0.3052847856
 40
0.3365203301
 40
0.367876262
 40
0.3993439582
 40
0.4309131015
 40
0.4625718517
 40
0.4943070354
 40
0.5261043508
 40
0.5579485847
 40
0.5898238391
 40
0.6217137646
 40
0.6536017989
 40
0.6854714071
 40
0.7173063216
 40
0.7490907798
 40
0.7808097567
 40
0.8124491894
 40
0.8439961901
 40
0.8754392559
 40
0.9067684177
 40
0.9379755452
 40
0.969054053
 40
1.0
 40
1.0
 40
1.0
 40
1.0
 10
9.761122923
 20
9.105576767
 30
0.0
 10
9.7574460413
 20
9.0983750092
 30
0.0
 10
9.7503279988
 20
9.0838363704
 30
0.0
 10
9.740378568
 20
9.0616677949
 30
0.0
 10
9.7311584611
 20
9.0391443606
 30
0.0
 10
9.7198412493
 20
9.0086468107
 30
0.0
 10
9.7075646771
 20
8.969739641
 30
0.0
 10
9.6978517314
 20
8.9300350061
 30
0.0
 10
9.6916265322
 20
8.8978528466
 30
0.0
 10
9.6877307948
 20
8.8734996703
 30
0.0
 10
9.6846176857
 20
8.8489812099
 30
0.0
 10
9.6815109572
 20
8.8160697426
 30
0.0
 10
9.6796036044
 20
8.7746321351
 30
0.0
 10
9.6804792651
 20
8.7247041733
 30
0.0
 10
9.6845124773
 20
8.6747135256
 30
0.0
 10
9.6916868683
 20
8.6248623351
 30
0.0
 10
9.7019732932
 20
8.5753504062
 30
0.0
 10
9.71533019
 20
8.5263766028
 30
0.0
 10
9.7317036898
 20
8.478137467
 30
0.0
 10
9.7510278541
 20
8.4308265981
 30
0.0
 10
9.7732249349
 20
8.3846338399
 30
0.0
 10
9.7982056816
 20
8.3397445338
 30
0.0
 10
9.82586971
 20
8.2963387832
 30
0.0
 10
9.8561059021
 20
8.2545907378
 30
0.0
 10
9.8887928508
 20
8.2146679014
 30
0.0
 10
9.9237993436
 20
8.1767304655
 30
0.0
 10
9.9609848859
 20
8.1409306724
 30
0.0
 10
10.0002002603
 20
8.1074122084
 30
0.0
 10
10.0412881207
 20
8.0763096321
 30
0.0
 10
10.0840836182
 20
8.0477478368
 30
0.0
 10
10.1284150501
 20
8.0218415432
 30
0.0
 10
10.1741045564
 20
7.9986948522
 30
0.0
 10
10.2209688036
 20
7.9784008194
 30
0.0
 10
10.26881979
 20
7.9610411074
 30
0.0
 10
10.3174653188
 20
7.9466855918
 30
0.0
 10
10.3667107733
 20
7.9353922095
 30
0.0
 10
10.4163559254
 20
7.9272066097
 30
0.0
 10
10.4496648405
 20
7.9238358828
 30
0.0
 10
10.4663155815
 20
7.92268115
 30
0.0
  0
SPLINE
  5
2D9
100
AcDbEntity
  8
0
100
AcDbSpline
 62
7
  6
CONTINUOUS
 70
0
 71
3
 72
39
 73
35
 74
0
 42
0.0000001
 43
0.0000001
 44
0.0000000001
 40
0.0
 40
0.0
 40
0.0
 40
0.0
 40
0.0299564317
 40
0.0599950528
 40
0.0901304404
 40
0.1203753722
 40
0.1507406108
 40
0.1812347307
 40
0.2118639913
 40
0.2426322563
 40
0.2735409573
 40
0.3045891025
 40
0.3357733251
 40
0.3670879722
 40
0.3985252266
 40
0.4300752611
 40
0.4617264192
 40
0.4934654205
 40
0.5252775861
 40
0.5571470804
 40
0.5890571672
 40
0.6209904759
 40
0.6529292735
 40
0.6848557419
 40
0.7167522547
 40
0.7486016532
 40
0.7803875163
 40
0.8120944236
 40
0.8437082047
 40
0.8752161829
 40
0.9066073584
 40
0.9378727458
 40
0.9690050701
 40
1.0
 40
1.0
 40
1.0
 40
1.0
 10
9.8757699244
 20
9.1305541735
 30
0.0
 10
9.8678962884
 20
9.1177023838
 30
0.0
 10
9.8530224962
 20
9.0914029094
 30
0.0
 10
9.8334796582
 20
9.0504447369
 30
0.0
 10
9.8167566797
 20
9.0080984583
 30
0.0
 10
9.8029269951
 20
8.9645495856
 30
0.0
 10
9.7920495856
 20
8.9199856021
 30
0.0
 10
9.7841711643
 20
8.8745991532
 30
0.0
 10
9.7793253386
 20
8.828586129
 30
0.0
 10
9.7775326577
 20
8.7821451088
 30
0.0
 10
9.7788004934
 20
8.7354764279
 30
0.0
 10
9.7831230302
 20
8.6887813393
 30
0.0
 10
9.7904812879
 20
8.6422611437
 30
0.0
 10
9.8008432328
 20
8.5961163313
 30
0.0
 10
9.8141639211
 20
8.5505457266
 30
0.0
 10
9.8303856988
 20
8.5057456416
 30
0.0
 10
9.8494384541
 20
8.4619090399
 30
0.0
 10
9.8712399212
 20
8.4192247151
 30
0.0
 10
9.8956960363
 20
8.3778764881
 30
0.0
 10
9.9227013325
 20
8.3380424177
 30
0.0
 10
9.9521393926
 20
8.2998940389
 30
0.0
 10
9.9838833588
 20
8.2635956372
 30
0.0
 10
10.0177964729
 20
8.2293035466
 30
0.0
 10
10.0537326614
 20
8.1971654828
 30
0.0
 10
10.091537159
 20
8.1673199124
 30
0.0
 10
10.1310471686
 20
8.1398954603
 30
0.0
 10
10.172092556
 20
8.1150103616
 30
0.0
 10
10.2144965728
 20
8.0927719419
 30
0.0
 10
10.2580765951
 20
8.0732761574
 30
0.0
 10
10.3026449821
 20
8.0566072093
 30
0.0
 10
10.3480095989
 20
8.0428371181
 30
0.0
 10
10.3939756477
 20
8.0320255429
 30
0.0
 10
10.4403425308
 20
8.0242193923
 30
0.0
 10
10.4714640406
 20
8.0210340903
 30
0.0
 10
10.4870210881
 20
8.0199552054
 30
0.0
  0
SPLINE
  5
2DA
100
AcDbEntity
  8
0
100
AcDbSpline
 62
7
  6
CONTINUOUS
 70
0
 71
3
 72
37
 73
33
 74
0
 42
0.0000001
 43
0.0000001
 44
0.0000000001
 40
0.0
 40
0.0
 40
0.0
 40
0.0
 40
0.0308194216
 40
0.0617154149
 40
0.0926851292
 40
0.1237252685
 40
0.1548321151
 40
0.1860015642
 40
0.2172291411
 40
0.2485100276
 40
0.2798391026
 40
0.3112109647
 40
0.342619962
 40
0.3740602357
 40
0.4055257466
 40
0.437010308
 40
0.5000005743
 40
0.5629908183
 40
0.5944753545
 40
0.6259408264
 40
0.6573810523
 40
0.6887899937
 40
0.7201617864
 40
0.7514907844
 40
0.7827715875
 40
0.8139990687
 40
0.8451684142
 40
0.8762751549
 40
0.907315182
 40
0.9382847548
 40
0.96918064
 40
1.0
 40
1.0
 40
1.0
 40
1.0
 10
10.2446416939
 20
9.0994411421
 30
0.0
 10
10.2462154258
 20
9.0900867974
 30
0.0
 10
10.249730561
 20
9.0714140135
 30
0.0
 10
10.2560859159
 20
9.043596876
 30
0.0
 10
10.2635210348
 20
9.01597792
 30
0.0
 10
10.2720241754
 20
8.9886010793
 30
0.0
 10
10.2815819061
 20
8.9615091575
 30
0.0
 10
10.2921792129
 20
8.9347447263
 30
0.0
 10
10.3037995187
 20
8.9083498224
 30
0.0
 10
10.3164244815
 20
8.8823658491
 30
0.0
 10
10.3300342688
 20
8.8568335868
 30
0.0
 10
10.3446075763
 20
8.8317931653
 30
0.0
 10
10.3601214719
 20
8.8072838309
 30
0.0
 10
10.376551488
 20
8.7833441323
 30
0.0
 10
10.3938722244
 20
8.7600113568
 30
0.0
 10
10.41811825
 20
8.7297582143
 30
0.0
 10
10.4505104355
 20
8.693644089
 30
0.0
 10
10.4854824214
 20
8.660022025
 30
0.0
 10
10.514878724
 20
8.6347440152
 30
0.0
 10
10.5375983836
 20
8.6166265827
 30
0.0
 10
10.5609553438
 20
8.5993782664
 30
0.0
 10
10.5849133163
 20
8.5830258667
 30
0.0
 10
10.6094346178
 20
8.5675951785
 30
0.0
 10
10.6344807348
 20
8.5531103378
 30
0.0
 10
10.6600123699
 20
8.5395941369
 30
0.0
 10
10.6859894711
 20
8.5270678588
 30
0.0
 10
10.7123712162
 20
8.5155510995
 30
0.0
 10
10.739116217
 20
8.5050619737
 30
0.0
 10
10.7661824686
 20
8.4956170544
 30
0.0
 10
10.7935276027
 20
8.4872310608
 30
0.0
 10
10.8211081594
 20
8.4799172899
 30
0.0
 10
10.8396481557
 20
8.4757584959
 30
0.0
 10
10.8489424454
 20
8.473862127
 30
0.0
  0
SPLINE
  5
2DB
100
AcDbEntity
  8
0
100
AcDbSpline
 62
7
  6
CONTINUOUS
 70
0
 71
3
 72
50
 73
46
 74
0
 42
0.0000001
 43
0.0000001
 44
0.0000000001
 40
0.0
 40
0.0
 40
0.0
 40
0.0
 40
0.0058808955
 40
0.0120706898
 40
0.018599206
 40
0.0254908864
 40
0.0327653715
 40
0.0404381572
 40
0.0485212891
 40
0.0570236824
 40
0.0659518413
 40
0.0753098925
 40
0.0851002347
 40
0.0953234733
 40
0.1059788747
 40
0.1170643853
 40
0.1285768128
 40
0.1405120189
 40
0.1528648382
 40
0.1656294267
 40
0.1787990144
 40
0.1923662995
 40
0.2063231948
 40
0.2206611199
 40
0.250442147
 40
0.2816306362
 40
0.3141397862
 40
0.347876316
 40
0.3827412026
 40
0.4186303453
 40
0.4554351717
 40
0.4930432082
 40
0.5313386248
 40
0.5702027624
 40
0.6095146486
 40
0.6491515062
 40
0.6889892552
 40
0.7289030154
 40
0.7687676019
 40
0.8084580416
 40
0.8478500001
 40
0.8868205151
 40
0.9252478107
 40
0.9630135297
 40
1.0
 40
1.0
 40
1.0
 40
1.0
 10
12.5600421071
 20
8.9020795753
 30
0.0
 10
12.5611366249
 20
8.9013229751
 30
0.0
 10
12.5633144742
 20
8.8996688436
 30
0.0
 10
12.5664565825
 20
8.8968641331
 30
0.0
 10
12.5695505105
 20
8.8936792667
 30
0.0
 10
12.572593797
 20
8.8901172233
 30
0.0
 10
12.5755844676
 20
8.8861809104
 30
0.0
 10
12.5785203753
 20
8.8818735642
 30
0.0
 10
12.58139926
 20
8.8771986179
 30
0.0
 10
12.584219005
 20
8.8721598916
 30
0.0
 10
12.5869772631
 20
8.8667614151
 30
0.0
 10
12.5896719425
 20
8.8610076254
 30
0.0
 10
12.592300739
 20
8.854903189
 30
0.0
 10
12.5948615799
 20
8.8484531416
 30
0.0
 10
12.5973522924
 20
8.8416627809
 30
0.0
 10
12.5997708252
 20
8.8345377226
 30
0.0
 10
12.6021151775
 20
8.8270838671
 30
0.0
 10
12.6043833408
 20
8.819307394
 30
0.0
 10
12.606573488
 20
8.8112147715
 30
0.0
 10
12.6086836938
 20
8.8028127256
 30
0.0
 10
12.6107122808
 20
8.7941082589
 30
0.0
 10
12.6126574536
 20
8.785108625
 30
0.0
 10
12.6145176705
 20
8.7758213208
 30
0.0
 10
12.6169127908
 20
8.7629012523
 30
0.0
 10
12.61967177
 20
8.746085438
 30
0.0
 10
12.6225803257
 20
8.7251346847
 30
0.0
 10
12.6251171181
 20
8.7032346159
 30
0.0
 10
12.627273529
 20
8.6804583822
 30
0.0
 10
12.6290421933
 20
8.6568819456
 30
0.0
 10
12.6304170757
 20
8.6325840363
 30
0.0
 10
12.6313934739
 20
8.6076458141
 30
0.0
 10
12.6319680362
 20
8.5821506069
 30
0.0
 10
12.6321387699
 20
8.5561836219
 30
0.0
 10
12.6319050463
 20
8.5298316571
 30
0.0
 10
12.6312676019
 20
8.5031828081
 30
0.0
 10
12.6302285343
 20
8.4763261709
 30
0.0
 10
12.6287912958
 20
8.4493515412
 30
0.0
 10
12.6269606816
 20
8.4223491124
 30
0.0
 10
12.6247428136
 20
8.395409168
 30
0.0
 10
12.6221451138
 20
8.3686217913
 30
0.0
 10
12.6191762932
 20
8.3420765166
 30
0.0
 10
12.6158462965
 20
8.3158621632
 30
0.0
 10
12.6121663102
 20
8.2900661947
 30
0.0
 10
12.6081486769
 20
8.2647751035
 30
0.0
 10
12.6052206807
 20
8.2481166295
 30
0.0
 10
12.6037002934
 20
8.2398876136
 30
0.0
  0
SPLINE
  5
2DC
100
AcDbEntity
  8
0
100
AcDbSpline
 62
7
  6
CONTINUOUS
 70
0
 71
3
 72
27
 73
23
 74
0
 42
0.0000001
 43
0.0000001
 44
0.0000000001
 40
0.0
 40
0.0
 40
0.0
 40
0.0
 40
0.0308874891
 40
0.0618410245
 40
0.0928577675
 40
0.1239345788
 40
0.186245181
 40
0.2487514017
 40
0.3114187636
 40
0.3742097153
 40
0.4370843638
 40
0.500001237
 40
0.5629180677
 40
0.6257925896
 40
0.6885833333
 40
0.7512504094
 40
0.8137562714
 40
0.8760664485
 40
0.9071430271
 40
0.9381595299
 40
0.9691127914
 40
1.0
 40
1.0
 40
1.0
 40
1.0
 10
10.3065464998
 20
9.0773926643
 30
0.0
 10
10.3083379615
 20
9.0694581473
 30
0.0
 10
10.3122034445
 20
9.0536336068
 30
0.0
 10
10.3188321608
 20
9.0300901938
 30
0.0
 10
10.3262893423
 20
9.006742986
 30
0.0
 10
10.3373322579
 20
8.9758925927
 30
0.0
 10
10.3531611482
 20
8.9379738402
 30
0.0
 10
10.3752689338
 20
8.893784069
 30
0.0
 10
10.4003939049
 20
8.8510894016
 30
0.0
 10
10.4284047999
 20
8.8101131098
 30
0.0
 10
10.4591560659
 20
8.7710676608
 30
0.0
 10
10.4924878153
 20
8.7341560278
 30
0.0
 10
10.5282268321
 20
8.6995699971
 30
0.0
 10
10.5661874154
 20
8.6674892912
 30
0.0
 10
10.6061722419
 20
8.6380807175
 30
0.0
 10
10.6479739986
 20
8.6114970803
 30
0.0
 10
10.6913740824
 20
8.5878772784
 30
0.0
 10
10.7287236339
 20
8.570749098
 30
0.0
 10
10.7591742588
 20
8.5586479942
 30
0.0
 10
10.7822499836
 20
8.5503894853
 30
0.0
 10
10.8055503812
 20
8.5429521876
 30
0.0
 10
10.8212319329
 20
8.538542854
 30
0.0
 10
10.8290998203
 20
8.5364786247
 30
0.0
  0
SPLINE
  5
2DD
100
AcDbEntity
  8
0
100
AcDbSpline
 62
7
  6
CONTINUOUS
 70
0
 71
3
 72
23
 73
19
 74
0
 42
0.0000001
 43
0.0000001
 44
0.0000000001
 40
0.0
 40
0.0
 40
0.0
 40
0.0
 40
0.1231977117
 40
0.2468391583
 40
0.3088382257
 40
0.3709645795
 40
0.4332252874
 40
0.4956275387
 40
0.5581789286
 40
0.6208857382
 40
0.6837530579
 40
0.7152473091
 40
0.7467816184
 40
0.7783539777
 40
0.8099631113
 40
0.8732708448
 40
0.9366531582
 40
1.0
 40
1.0
 40
1.0
 40
1.0
 10
12.5271382802
 20
8.374336278
 30
0.0
 10
12.5304647704
 20
8.368910203
 30
0.0
 10
12.5372004807
 20
8.3580818787
 30
0.0
 10
12.5457234014
 20
8.3445939904
 30
0.0
 10
12.5525657136
 20
8.3337762812
 30
0.0
 10
12.5577008877
 20
8.3256308864
 30
0.0
 10
12.56281927
 20
8.3174503221
 30
0.0
 10
12.5679039087
 20
8.3092228736
 30
0.0
 10
12.5729353902
 20
8.300935752
 30
0.0
 10
12.5778902863
 20
8.2925745819
 30
0.0
 10
12.581930453
 20
8.2855370764
 30
0.0
 10
12.58509304
 20
8.2798536979
 30
0.0
 10
12.587426875
 20
8.2755596275
 30
0.0
 10
12.5897146268
 20
8.2712340666
 30
0.0
 10
12.5926964865
 20
8.2654193135
 30
0.0
 10
12.5962722471
 20
8.2580627972
 30
0.0
 10
12.6002428476
 20
8.2490813987
 30
0.0
 10
12.6026104287
 20
8.2429733955
 30
0.0
 10
12.6037002934
 20
8.2398876136
 30
0.0
  0
SPLINE
  5
2DE
100
AcDbEntity
  8
0
100
AcDbSpline
 62
7
  6
CONTINUOUS
 70
0
 71
3
 72
39
 73
35
 74
0
 42
0.0000001
 43
0.0000001
 44
0.0000000001
 40
0.0
 40
0.0
 40
0.0
 40
0.0
 40
0.0288485525
 40
0.0577762398
 40
0.0868063058
 40
0.1159604722
 40
0.1452586589
 40
0.1747187948
 40
0.2043566811
 40
0.2341858427
 40
0.264217464
 40
0.2944603062
 40
0.3249207123
 40
0.355602653
 40
0.3865077528
 40
0.4176353004
 40
0.4489822755
 40
0.480543398
 40
0.512311166
 40
0.5442758475
 40
0.576425338
 40
0.6087450488
 40
0.641217746
 40
0.6738232686
 40
0.7065381446
 40
0.7393351824
 40
0.7721830929
 40
0.8050460509
 40
0.8378835414
 40
0.8706504403
 40
0.9032977691
 40
0.9357732819
 40
0.9680248347
 40
1.0
 40
1.0
 40
1.0
 40
1.0
 10
10.0333974908
 20
6.7278526465
 30
0.0
 10
10.0313152103
 20
6.7216019788
 30
0.0
 10
10.0275713898
 20
6.7089368293
 30
0.0
 10
10.0232518574
 20
6.6895737114
 30
0.0
 10
10.0202371701
 20
6.6698936207
 30
0.0
 10
10.0185389969
 20
6.6499720444
 30
0.0
 10
10.018163581
 20
6.6298836579
 30
0.0
 10
10.019112356
 20
6.6097038393
 30
0.0
 10
10.0213817745
 20
6.589507823
 30
0.0
 10
10.0249633988
 20
6.5693704885
 30
0.0
 10
10.0298439361
 20
6.5493659924
 30
0.0
 10
10.0360053077
 20
6.529567435
 30
0.0
 10
10.0434247645
 20
6.5100465215
 30
0.0
 10
10.0520750169
 20
6.49087323
 30
0.0
 10
10.0619243744
 20
6.4721154977
 30
0.0
 10
10.0729368988
 20
6.4538389323
 30
0.0
 10
10.0850725693
 20
6.4361065374
 30
0.0
 10
10.0982874615
 20
6.4189784481
 30
0.0
 10
10.1125339176
 20
6.4025116752
 30
0.0
 10
10.1277607247
 20
6.3867599137
 30
0.0
 10
10.14391327
 20
6.371773387
 30
0.0
 10
10.1609336727
 20
6.3575987248
 30
0.0
 10
10.1787608929
 20
6.3442788741
 30
0.0
 10
10.1973307921
 20
6.3318530662
 30
0.0
 10
10.2165761476
 20
6.3203568458
 30
0.0
 10
10.2364266313
 20
6.3098221382
 30
0.0
 10
10.2568087617
 20
6.3002773705
 30
0.0
 10
10.2776458898
 20
6.2917476514
 30
0.0
 10
10.2988582253
 20
6.2842550043
 30
0.0
 10
10.3203630611
 20
6.2778185307
 30
0.0
 10
10.342075003
 20
6.2724547806
 30
0.0
 10
10.3639071484
 20
6.2681776535
 30
0.0
 10
10.385770484
 20
6.2649990921
 30
0.0
 10
10.4003800444
 20
6.2636119148
 30
0.0
 10
10.4076649762
 20
6.263106703
 30
0.0
  0
SPLINE
  5
2DF
100
AcDbEntity
  8
0
100
AcDbSpline
 62
7
  6
CONTINUOUS
 70
0
 71
3
 72
23
 73
19
 74
0
 42
0.0000001
 43
0.0000001
 44
0.0000000001
 40
0.0
 40
0.0
 40
0.0
 40
0.0
 40
0.0635751106
 40
0.1268454242
 40
0.1899950941
 40
0.2215563263
 40
0.2531113594
 40
0.2846631716
 40
0.3162102747
 40
0.3792820307
 40
0.4423038971
 40
0.5052411158
 40
0.5680509199
 40
0.6306882356
 40
0.6931041651
 40
0.7552479244
 40
0.8785032205
 40
1.0
 40
1.0
 40
1.0
 40
1.0
 10
12.5887800194
 20
8.1697925088
 30
0.0
 10
12.5867677401
 20
8.1684989758
 30
0.0
 10
12.5826039728
 20
8.1661452982
 30
0.0
 10
12.5760821931
 20
8.1632005682
 30
0.0
 10
12.5704988946
 20
8.161147198
 30
0.0
 10
12.5659726215
 20
8.1597018032
 30
0.0
 10
12.5625519886
 20
8.1587063764
 30
0.0
 10
12.5591094551
 20
8.1577920608
 30
0.0
 10
12.5544961107
 20
8.1566702443
 30
0.0
 10
12.5486931118
 20
8.155435145
 30
0.0
 10
12.5416921238
 20
8.154173974
 30
0.0
 10
12.5346703816
 20
8.1530987211
 30
0.0
 10
12.5276414849
 20
8.1521783822
 30
0.0
 10
12.5206166549
 20
8.1513881047
 30
0.0
 10
12.513605768
 20
8.1507061304
 30
0.0
 10
12.5043142303
 20
8.149918609
 30
0.0
 10
12.4927937814
 20
8.149116825
 30
0.0
 10
12.483599262
 20
8.1485915086
 30
0.0
 10
12.4790342933
 20
8.1483449446
 30
0.0
  0
SPLINE
  5
2E0
100
AcDbEntity
  8
0
100
AcDbSpline
 62
7
  6
CONTINUOUS
 70
0
 71
3
 72
28
 73
24
 74
0
 42
0.0000001
 43
0.0000001
 44
0.0000000001
 40
0.0
 40
0.0
 40
0.0
 40
0.0
 40
0.084617313
 40
0.1667582569
 40
0.2462806415
 40
0.323064384
 40
0.3969917763
 40
0.4679543251
 40
0.5358541036
 40
0.600603999
 40
0.6621295455
 40
0.7203702877
 40
0.775282237
 40
0.8014829729
 40
0.8268441126
 40
0.8513662774
 40
0.87505176
 40
0.897904551
 40
0.9199314826
 40
0.9411418587
 40
0.9615472051
 40
0.9811611101
 40
1.0
 40
1.0
 40
1.0
 40
1.0
 10
12.5887800194
 20
8.1697925088
 30
0.0
 10
12.5874480854
 20
8.1643338328
 30
0.0
 10
12.5847404998
 20
8.1535961742
 30
0.0
 10
12.5804809365
 20
8.1378061487
 30
0.0
 10
12.5760893082
 20
8.1225929129
 30
0.0
 10
12.5715741673
 20
8.107985715
 30
0.0
 10
12.5669440669
 20
8.0940119938
 30
0.0
 10
12.5622078808
 20
8.0806982809
 30
0.0
 10
12.5573746518
 20
8.0680697747
 30
0.0
 10
12.5524536034
 20
8.0561503082
 30
0.0
 10
12.5474541256
 20
8.0449622548
 30
0.0
 10
12.5423857258
 20
8.0345267673
 30
0.0
 10
12.5380473136
 20
8.0263505307
 30
0.0
 10
12.5345427057
 20
8.0202095745
 30
0.0
 10
12.5319441718
 20
8.0158763774
 30
0.0
 10
12.529335626
 20
8.0117454112
 30
0.0
 10
12.5267183075
 20
8.0078186085
 30
0.0
 10
12.5240933971
 20
8.0040978391
 30
0.0
 10
12.5214621099
 20
8.0005847992
 30
0.0
 10
12.5188256402
 20
7.9972810862
 30
0.0
 10
12.5161851453
 20
7.9941883013
 30
0.0
 10
12.5135420799
 20
7.9913080303
 30
0.0
 10
12.5117434766
 20
7.9894944741
 30
0.0
 10
12.5108437217
 20
7.9886253776
 30
0.0
  0
SPLINE
  5
2E1
100
AcDbEntity
  8
0
100
AcDbSpline
 62
7
  6
CONTINUOUS
 70
0
 71
3
 72
26
 73
22
 74
0
 42
0.0000001
 43
0.0000001
 44
0.0000000001
 40
0.0
 40
0.0
 40
0.0
 40
0.0
 40
0.0616472518
 40
0.1233175295
 40
0.1850336025
 40
0.2468177294
 40
0.3086914124
 40
0.3706751617
 40
0.4327882745
 40
0.4950486308
 40
0.5574725095
 40
0.6200744195
 40
0.6514487971
 40
0.6828722496
 40
0.7143460209
 40
0.7458712235
 40
0.8090747484
 40
0.8724940369
 40
0.9042883663
 40
0.9361388643
 40
1.0
 40
1.0
 40
1.0
 40
1.0
 10
10.6894402533
 20
5.4303215919
 30
0.0
 10
10.6787792765
 20
5.4200238508
 30
0.0
 10
10.6568948169
 20
5.3999938478
 30
0.0
 10
10.6224941284
 20
5.3717508137
 30
0.0
 10
10.5865996163
 20
5.3453745979
 30
0.0
 10
10.5493029467
 20
5.3209328148
 30
0.0
 10
10.5106978028
 20
5.2984866802
 30
0.0
 10
10.4708815512
 20
5.2780927654
 30
0.0
 10
10.4299545635
 20
5.2598023585
 30
0.0
 10
10.3880197675
 20
5.2436614109
 30
0.0
 10
10.3451835878
 20
5.2297106264
 30
0.0
 10
10.3088498742
 20
5.219946019
 30
0.0
 10
10.2794469493
 20
5.2132601317
 30
0.0
 10
10.2572193975
 20
5.2088082047
 30
0.0
 10
10.2348485901
 20
5.2049256133
 30
0.0
 10
10.2048253276
 20
5.2005078212
 30
0.0
 10
10.1670028603
 20
5.1964233545
 30
0.0
 10
10.1289572281
 20
5.1942681361
 30
0.0
 10
10.0984086739
 20
5.1936983672
 30
0.0
 10
10.0677498673
 20
5.1938999365
 30
0.0
 10
10.0447471675
 20
5.1949200115
 30
0.0
 10
10.0294293819
 20
5.1959823035
 30
0.0
  0
SPLINE
  5
2E2
100
AcDbEntity
  8
0
100
AcDbSpline
 62
7
  6
CONTINUOUS
 70
0
 71
3
 72
25
 73
21
 74
0
 42
0.0000001
 43
0.0000001
 44
0.0000000001
 40
0.0
 40
0.0
 40
0.0
 40
0.0
 40
0.0616280803
 40
0.1232891688
 40
0.1850043817
 40
0.2467942709
 40
0.3086786119
 40
0.3706762028
 40
0.4328046748
 40
0.4950803194
 40
0.5575179314
 40
0.6201306675
 40
0.6829299506
 40
0.7144050328
 40
0.7459301615
 40
0.8091293572
 40
0.8725375428
 40
0.9043236653
 40
0.936164281
 40
1.0
 40
1.0
 40
1.0
 40
1.0
 10
10.6892210681
 20
5.4305555055
 30
0.0
 10
10.67863017
 20
5.4208806595
 30
0.0
 10
10.6569347498
 20
5.4020735385
 30
0.0
 10
10.6229599286
 20
5.375585145
 30
0.0
 10
10.5876243951
 20
5.350873419
 30
0.0
 10
10.5510126704
 20
5.3279976419
 30
0.0
 10
10.5132108363
 20
5.307011456
 30
0.0
 10
10.4743081707
 20
5.2879643818
 30
0.0
 10
10.4343964211
 20
5.2709012576
 30
0.0
 10
10.3935697944
 20
5.2558622653
 30
0.0
 10
10.3519244131
 20
5.2428827624
 30
0.0
 10
10.3095591689
 20
5.2319933368
 30
0.0
 10
10.2737632367
 20
5.2246871372
 30
0.0
 10
10.2448718477
 20
5.2199083862
 30
0.0
 10
10.2157782072
 20
5.2158372415
 30
0.0
 10
10.1791455605
 20
5.2120956088
 30
0.0
 10
10.14231268
 20
5.2101606771
 30
0.0
 10
10.1127447811
 20
5.209693792
 30
0.0
 10
10.0830753556
 20
5.2099492958
 30
0.0
 10
10.0608167169
 20
5.210954318
 30
0.0
 10
10.0459937875
 20
5.2119822916
 30
0.0
  0
SPLINE
  5
2E3
100
AcDbEntity
  8
0
100
AcDbSpline
 62
7
  6
CONTINUOUS
 70
0
 71
3
 72
26
 73
22
 74
0
 42
0.0000001
 43
0.0000001
 44
0.0000000001
 40
0.0
 40
0.0
 40
0.0
 40
0.0
 40
0.0616472055
 40
0.0924807916
 40
0.1233229994
 40
0.1850390241
 40
0.2468231039
 40
0.2777501801
 40
0.3087022504
 40
0.3706859575
 40
0.4327990272
 40
0.4950593395
 40
0.5574831693
 40
0.6200850402
 40
0.6828775513
 40
0.7143512708
 40
0.7458764629
 40
0.8090800641
 40
0.8724988907
 40
0.9361394855
 40
1.0
 40
1.0
 40
1.0
 40
1.0
 10
10.4809590726
 20
5.7155591222
 30
0.0
 10
10.4742258401
 20
5.7090553109
 30
0.0
 10
10.463859616
 20
5.6995676652
 30
0.0
 10
10.4495454429
 20
5.687489969
 30
0.0
 10
10.4349035232
 20
5.6757942594
 30
0.0
 10
10.4160071997
 20
5.6619087331
 30
0.0
 10
10.3963832341
 20
5.6490485978
 30
0.0
 10
10.3802750711
 20
5.6393922652
 30
0.0
 10
10.3638886626
 20
5.6301542112
 30
0.0
 10
10.3429219968
 20
5.6194150722
 30
0.0
 10
10.317073677
 20
5.6078634732
 30
0.0
 10
10.2905886363
 20
5.5976692402
 30
0.0
 10
10.263533921
 20
5.5888582089
 30
0.0
 10
10.2359780241
 20
5.5814525216
 30
0.0
 10
10.2126716641
 20
5.57647137
 30
0.0
 10
10.1938492125
 20
5.5732047166
 30
0.0
 10
10.1748871344
 20
5.5704144945
 30
0.0
 10
10.1509992101
 20
5.5678349239
 30
0.0
 10
10.1221408839
 20
5.5662000571
 30
0.0
 10
10.0931375402
 20
5.5660272188
 30
0.0
 10
10.0737853798
 20
5.5668854243
 30
0.0
 10
10.0641111057
 20
5.5675563375
 30
0.0
  0
SPLINE
  5
2E4
100
AcDbEntity
  8
0
100
AcDbSpline
 62
7
  6
CONTINUOUS
 70
0
 71
3
 72
15
 73
11
 74
0
 42
0.0000001
 43
0.0000001
 44
0.0000000001
 40
0.0
 40
0.0
 40
0.0
 40
0.0
 40
0.1235392285
 40
0.247444018
 40
0.3717468777
 40
0.4964750921
 40
0.6216511574
 40
0.7472903799
 40
0.8734062743
 40
1.0
 40
1.0
 40
1.0
 40
1.0
 10
10.5972219179
 20
5.8827246366
 30
0.0
 10
10.5876310271
 20
5.8788976099
 30
0.0
 10
10.5681951708
 20
5.8717847275
 30
0.0
 10
10.5384358781
 20
5.8627891148
 30
0.0
 10
10.5081155283
 20
5.8554775976
 30
0.0
 10
10.4773263022
 20
5.8498724354
 30
0.0
 10
10.4461603538
 20
5.8459902694
 30
0.0
 10
10.4147107517
 20
5.8438425168
 30
0.0
 10
10.3830731601
 20
5.8434356216
 30
0.0
 10
10.3619562141
 20
5.8443240496
 30
0.0
 10
10.3514000086
 20
5.8450561249
 30
0.0
  0
ELLIPSE
  5
2E5
100
AcDbEntity
  8
0
100
AcDbEllipse
 62
7
  6
CONTINUOUS
 10
12.4247963865
 20
8.477900725
 30
0.0
 11
-0.0035404037
 21
0.3773467813
 31
0.0
 40
0.2795526249
 41
-1.8514403682
 42
-0.9405559826
  0
ELLIPSE
  5
2E6
100
AcDbEntity
  8
0
100
AcDbEllipse
 62
7
  6
CONTINUOUS
 10
12.4247963865
 20
8.477900725
 30
0.0
 11
-0.0035404037
 21
0.3773467813
 31
0.0
 40
0.2795526249
 41
-2.6836888284
 42
-2.6354508655
  0
ENDSEC
  0
SECTION
  2
OBJECTS
  0
DICTIONARY
  5
C
100
AcDbDictionary
280
0
281
1
  3
ACAD_GROUP
350
D
  3
ACAD_MLINESTYLE
350
17
  3
ACAD_LAYOUT
350
1A
  3
ACAD_PLOTSETTINGS
350
19
  3
ACAD_PLOTSTYLENAME
350
E
  3
ACAD_IMAGE_DICT
350
       2E8
  3
ACAD_IMAGE_VARS
350
       2E9
  3
ACAD_TABLESTYLE
350
       2EA
  0
IMAGEDEF_REACTOR
  5
2E7
100
AcDbRasterImageDefReactor
 90
2
330
282
  0
DICTIONARY
  5
D
102
{ACAD_REACTORS
330
C
102
}
100
AcDbDictionary
280
0
281
1
  0
ACDBDICTIONARYWDFLT
  5
E
102
{ACAD_REACTORS
330
C
102
}
100
AcDbDictionary
281
1
  3
Normal
350
F
100
AcDbDictionaryWithDefault
340
F
  0
DICTIONARY
  5
2E8
330
C
100
AcDbDictionary
281
1
  3
ZTD_assy_2_img_1
350
       2ED
  0
RASTERVARIABLES
  5
2E9
330
C
100
AcDbRasterVariables
 90
0
 70
0
 71
1
 72
5
  0
DICTIONARY
  5
17
102
{ACAD_REACTORS
330
C
102
}
100
AcDbDictionary
280
0
281
1
  3
Standard
350
18
  0
DICTIONARY
  5
2EA
330
C
100
AcDbDictionary
281
1
  3
Standard
350
       2EE
  3
Standard1
350
       2EF
  0
DICTIONARY
  5
19
102
{ACAD_REACTORS
330
C
102
}
100
AcDbDictionary
281
1
  0
DICTIONARY
  5
1A
102
{ACAD_REACTORS
330
C
102
}
100
AcDbDictionary
281
1
  3
Model
350
2EB
  3
Layout1
350
2EC
  0
ACDBPLACEHOLDER
  5
F
102
{ACAD_REACTORS
330
E
102
}
  0
MLINESTYLE
  5
18
102
{ACAD_REACTORS
330
17
102
}
100
AcDbMlineStyle
  2
STANDARD
 70
0
  3

 62
256
 51
90.0
 52
90.0
 71
2
 49
0.5
 62
256
  6
BYLAYER
 49
-0.5
 62
256
  6
BYLAYER
  0
LAYOUT
  5
2EB
102
{ACAD_REACTORS
330
1A
102
}
100
AcDbPlotSettings
  1

  2
none_device
  4
ANSI_C_(22.00_x_17.00_Inches)
  6

 40
0.0
 41
0.0
 42
0.0
 43
0.0
 44
558.8
 45
431.8
 46
0.0
 47
0.0
 48
0.0
 49
0.0
140
0.0
141
0.0
142
1.0
143
1.0
 70
1024
 72
0
 73
0
 74
0
  7

 75
0
147
1.0
148
0.0
149
0.0
100
AcDbLayout
  1
Model
 70
0
 71
0
 10
0.0
 20
0.0
 11
22.0
 21
17.0
 12
0.0
 22
0.0
 32
0.0
 14
0.0
 24
0.0
 34
0.0
 15
0.0
 25
0.0
 35
0.0
146
0.0
 13
0.0
 23
0.0
 33
0.0
 16
1.0
 26
0.0
 36
0.0
 17
0.0
 27
1.0
 37
0.0
 76
0
330
207
345
0
346
0
  0
LAYOUT
  5
2EC
102
{ACAD_REACTORS
330
1A
102
}
100
AcDbPlotSettings
  1

  2
none_device
  4
ANSI_C_(22.00_x_17.00_Inches)
  6

 40
0.0
 41
0.0
 42
0.0
 43
0.0
 44
558.8
 45
431.8
 46
0.0
 47
0.0
 48
0.0
 49
0.0
140
0.0
141
0.0
142
1.0
143
1.0
 70
0
 72
0
 73
0
 74
0
  7

 75
0
147
1.0
148
0.0
149
0.0
100
AcDbLayout
  1
Layout1
 70
0
 71
1
 10
0.0
 20
0.0
 11
22.0
 21
17.0
 12
0.0
 22
0.0
 32
0.0
 14
0.0
 24
0.0
 34
0.0
 15
0.0
 25
0.0
 35
0.0
146
0.0
 13
0.0
 23
0.0
 33
0.0
 16
1.0
 26
0.0
 36
0.0
 17
0.0
 27
1.0
 37
0.0
 76
0
330
208
345
0
346
0
  0
IMAGEDEF
  5
2ED
102
{ACAD_REACTORS
330
2E8
330
2E7
102
}
100
AcDbRasterImageDef
 90
0
  1
ZTD_assy_2_img_1.png
 10
369.0
 20
92.0
 11
0.0066666667
 21
0.0066666667
280
1
281
0
  0
TABLESTYLE
  5
2EE
102
{ACAD_REACTORS
330
2EA
330
285
330
286
102
}
330
2EA
100
AcDbTableStyle
  3
Standard
 70
0
 71
0
 40
0.06
 41
0.06
280
1
281
1
  7
Standard
140
0.18
170
1
 62
0
 63
7
283
0
  7
Standard
140
0.18
170
1
 62
0
 63
7
283
0
  7
Standard
140
0.18
170
1
 62
0
 63
7
283
0
  0
TABLESTYLE
  5
2EF
102
{ACAD_REACTORS
330
2EA
330
284
102
}
330
2EA
100
AcDbTableStyle
  3
Standard1
 70
1
 71
0
 40
0.06
 41
0.06
280
1
281
1
  7
Standard
140
0.18
170
1
 62
0
 63
7
283
0
  7
Standard
140
0.18
170
1
 62
0
 63
7
283
0
  7
Standard
140
0.18
170
1
 62
0
 63
7
283
0
  0
ENDSEC
  0
EOF
