999
DXF file: ZTC_assy_2.dxf
999
Pro/ENGINEER 2014200 by Parametric Technology Corporation
  0
SECTION
  2
HEADER
  9
$ACADVER
  1
AC1021
  9
$DWGCODEPAGE
  3
ANSI_1252
  9
$EXTMAX
 10
22.0
 20
17.0
 30
0.0
  9
$EXTMIN
 10
0.0
 20
0.0
 30
0.0
  9
$LIMMIN
 10
0.0
 20
0.0
  9
$LIMMAX
 10
22.0
 20
17.0
  9
$VIEWCTR
 10
11.0
 20
8.5
  9
$VIEWSIZE
 40
17.0
  9
$CLAYER
  8
0
  9
$LTSCALE
 40
1.21
  9
$CELTYPE
  6
BYLAYER
  9
$DIMSCALE
 40
1.0
  9
$DIMASZ
 40
0.1875
  9
$DIMEXO
 40
0.0625
  9
$DIMDLI
 40
0.836
  9
$DIMEXE
 40
0.125
  9
$DIMCEN
 40
0.198
  9
$DIMLFAC
 40
1.0
  9
$DIMBLK
  1
_FILLED
  9
$DIMTXT
 40
0.1
  9
$DIMTOL
 70
0
  9
$DIMLIM
 70
0
  9
$DIMTFAC
 40
1.0
  9
$DIMGAP
 40
0.09
  9
$DIMDSEP
 70
46
  9
$AUNITS
 70
0
  9
$PDMODE
 70
3
  9
$PDSIZE
 40
0.3125
  9
$HANDSEED
  5
2FE
  9
$TILEMODE
 70
1
  9
$MEASUREMENT
 70
0
  9
$INSUNITS
 70
1
  0
ENDSEC
  0
SECTION
  2
CLASSES
  0
CLASS
  1
ACDBDICTIONARYWDFLT
  2
AcDbDictionaryWithDefault
  3
AutoCAD 2000
 90
0
 91
1
280
0
281
0
  0
CLASS
  1
ACDBPLACEHOLDER
  2
AcDbPlaceHolder
  3
AutoCAD 2000
 90
0
 91
1
280
0
281
0
  0
CLASS
  1
LAYOUT
  2
AcDbLayout
  3
AutoCAD 2000
 90
0
 91
0
280
0
281
0
  0
CLASS
  1
RASTERVARIABLES
  2
AcDbRasterVariables
  3
ISM
 90
0
 91
1
280
0
281
0
  0
CLASS
  1
IMAGEDEF
  2
AcDbRasterImageDef
  3
ISM
 90
0
 91
1
280
0
281
0
  0
CLASS
  1
IMAGEDEF_REACTOR
  2
AcDbRasterImageDefReactor
  3
ISM
 90
0
 91
1
280
0
281
0
  0
CLASS
  1
IMAGE
  2
AcDbRasterImage
  3
ISM
 90
127
 91
1
280
0
281
1
  0
CLASS
  1
TABLESTYLE
  2
AcDbTableStyle
  3
ObjectDBX Classes
 90
2047
 91
1
280
0
281
0
  0
CLASS
  1
ACAD_TABLE
  2
AcDbTable
  3
ObjectDBX Classes
 90
1025
 91
3
280
0
281
1
  0
ENDSEC
  0
SECTION
  2
TABLES
  0
TABLE
  2
VPORT
  5
8
100
AcDbSymbolTable
 70
2
  0
VPORT
  5
1F4
100
AcDbSymbolTableRecord
100
AcDbViewportTableRecord
  2
*ACTIVE
 70
0
 10
0.0
 20
0.0
 11
1.0
 21
1.0
 12
11.0
 22
8.5
 13
0.0
 23
0.0
 14
1.0
 24
1.0
 15
0.0
 25
0.0
 16
0.0
 26
0.0
 36
1.0
 17
0.0
 27
0.0
 37
0.0
 40
17.0
 41
1.2941176471
 42
50.0
 43
0.0
 44
0.0
 50
0.0
 51
0.0
 71
0
 72
100
 73
1
 74
1
 75
0
 76
0
 77
0
 78
0
  0
ENDTAB
  0
TABLE
  2
LTYPE
  5
5
100
AcDbSymbolTable
 70
6
  0
LTYPE
  5
14
100
AcDbSymbolTableRecord
100
AcDbLinetypeTableRecord
  2
BYBLOCK
 70
0
  3

 72
65
 73
0
 40
0.0
  0
LTYPE
  5
15
100
AcDbSymbolTableRecord
100
AcDbLinetypeTableRecord
  2
BYLAYER
 70
0
  3

 72
65
 73
0
 40
0.0
  0
LTYPE
  5
16
100
AcDbSymbolTableRecord
100
AcDbLinetypeTableRecord
  2
CONTINUOUS
 70
64
  3
Solid line
 72
65
 73
0
 40
0.0
  0
LTYPE
  5
1F5
100
AcDbSymbolTableRecord
100
AcDbLinetypeTableRecord
  2
CENTER
 70
64
  3
____ _ ____ _ ____ _ ____ _ ____ _ ____ _ ____
 72
65
 73
4
 40
0.6
 49
0.375
 74
0
 49
-0.075
 74
0
 49
0.075
 74
0
 49
-0.075
 74
0
  0
LTYPE
  5
1F6
100
AcDbSymbolTableRecord
100
AcDbLinetypeTableRecord
  2
HIDDEN
 70
64
  3
- - - - - - - - - - - - - - - - - - - -
 72
65
 73
2
 40
0.2
 49
0.1
 74
0
 49
-0.1
 74
0
  0
LTYPE
  5
1F7
100
AcDbSymbolTableRecord
100
AcDbLinetypeTableRecord
  2
PHANTOM
 70
64
  3
_____ _ _ _____ _ _ _____ _ _ _____
 72
65
 73
6
 40
0.8
 49
0.45
 74
0
 49
-0.05
 74
0
 49
0.1
 74
0
 49
-0.05
 74
0
 49
0.1
 74
0
 49
-0.05
 74
0
  0
LTYPE
  5
1F8
100
AcDbSymbolTableRecord
100
AcDbLinetypeTableRecord
  2
DOT
 70
64
  3
. . . . . . . . . . . . . . . . . . . .
 72
65
 73
2
 40
0.2
 49
0.1
 74
0
 49
-0.1
 74
0
  0
LTYPE
  5
1F9
100
AcDbSymbolTableRecord
100
AcDbLinetypeTableRecord
  2
DASHED
 70
64
  3
- - - - - - - - - - - - - - - - - - - -
 72
65
 73
2
 40
0.2
 49
0.1
 74
0
 49
-0.1
 74
0
  0
ENDTAB
  0
TABLE
  2
LAYER
  5
2
100
AcDbSymbolTable
 70
36
  0
LAYER
  5
10
100
AcDbSymbolTableRecord
100
AcDbLayerTableRecord
  2
0
 70
0
 62
7
  6
CONTINUOUS
370
-3
390
F
  0
LAYER
  5
1FA
100
AcDbSymbolTableRecord
100
AcDbLayerTableRecord
  2
DEFAULT_1
 70
0
 62
7
  6
CENTER
370
-3
390
F
  0
LAYER
  5
1FB
100
AcDbSymbolTableRecord
100
AcDbLayerTableRecord
  2
DEFAULT_2
 70
0
 62
8
  6
HIDDEN
370
-3
390
F
  0
LAYER
  5
1FC
100
AcDbSymbolTableRecord
100
AcDbLayerTableRecord
  2
DEFAULT_3
 70
0
 62
7
  6
PHANTOM
370
-3
390
F
  0
LAYER
  5
1FD
100
AcDbSymbolTableRecord
100
AcDbLayerTableRecord
  2
DATUM_PLANES
 70
0
 62
7
  6
CONTINUOUS
370
-3
390
F
  0
LAYER
  5
1FE
100
AcDbSymbolTableRecord
100
AcDbLayerTableRecord
  2
DIMENSIONS
 70
0
 62
7
  6
CONTINUOUS
370
-3
390
F
  0
LAYER
  5
1FF
100
AcDbSymbolTableRecord
100
AcDbLayerTableRecord
  2
DTM_500001
 70
0
 62
7
  6
CONTINUOUS
370
-3
390
F
  0
LAYER
  5
200
100
AcDbSymbolTableRecord
100
AcDbLayerTableRecord
  2
PARAMETERDIMENSIONS
 70
0
 62
7
  6
CONTINUOUS
370
-3
390
F
  0
LAYER
  5
201
100
AcDbSymbolTableRecord
100
AcDbLayerTableRecord
  2
PORT_AREAS
 70
0
 62
7
  6
CONTINUOUS
370
-3
390
F
  0
LAYER
  5
202
100
AcDbSymbolTableRecord
100
AcDbLayerTableRecord
  2
SUNNBOMCOSMETIC
 70
0
 62
7
  6
CONTINUOUS
370
-3
390
F
  0
LAYER
  5
203
100
AcDbSymbolTableRecord
100
AcDbLayerTableRecord
  2
SUNNBOMSTAMPING
 70
0
 62
7
  6
CONTINUOUS
370
-3
390
F
  0
LAYER
  5
204
100
AcDbSymbolTableRecord
100
AcDbLayerTableRecord
  2
THREADS
 70
0
 62
7
  6
CONTINUOUS
370
-3
390
F
  0
ENDTAB
  0
TABLE
  2
STYLE
  5
3
100
AcDbSymbolTable
 70
1
  0
STYLE
  5
11
100
AcDbSymbolTableRecord
100
AcDbTextStyleTableRecord
  2
STANDARD
 70
0
 40
0.0
 41
0.8
 50
0.0
 71
0
 42
0.2
  3
txt
  4

  0
STYLE
  5
205
100
AcDbSymbolTableRecord
100
AcDbTextStyleTableRecord
  2
TEXTSTYLE_1
 70
0
 40
0.0
 41
0.8
 50
0.0
 71
0
 42
0.2
  3
gdt
  4

  0
ENDTAB
  0
TABLE
  2
VIEW
  5
6
100
AcDbSymbolTable
 70
0
  0
ENDTAB
  0
TABLE
  2
UCS
  5
7
100
AcDbSymbolTable
 70
0
  0
ENDTAB
  0
TABLE
  2
APPID
  5
9
100
AcDbSymbolTable
 70
1
  0
APPID
  5
206
100
AcDbSymbolTableRecord
100
AcDbRegAppTableRecord
  2
ACAD
 70
0
  0
ENDTAB
  0
TABLE
  2
BLOCK_RECORD
  5
1
100
AcDbSymbolTable
 70
0
  0
BLOCK_RECORD
  5
207
100
AcDbSymbolTableRecord
100
AcDbBlockTableRecord
  2
*Model_Space
  0
BLOCK_RECORD
  5
208
100
AcDbSymbolTableRecord
100
AcDbBlockTableRecord
  2
*Paper_Space
  0
BLOCK_RECORD
  5
209
100
AcDbSymbolTableRecord
100
AcDbBlockTableRecord
  2
SUN_FIRST_THIRD_ANGLE_BL0
  0
BLOCK_RECORD
  5
20A
100
AcDbSymbolTableRecord
100
AcDbBlockTableRecord
  2
*T1
  0
BLOCK_RECORD
  5
20B
100
AcDbSymbolTableRecord
100
AcDbBlockTableRecord
  2
*T2
  0
BLOCK_RECORD
  5
20C
100
AcDbSymbolTableRecord
100
AcDbBlockTableRecord
  2
*T3
  0
ENDTAB
  0
TABLE
  2
DIMSTYLE
  5
A
100
AcDbSymbolTable
 70
1
100
AcDbDimStyleTable
 71
0
  0
DIMSTYLE
105
20D
100
AcDbSymbolTableRecord
100
AcDbDimStyleTableRecord
  2
STANDARD
 70
0
  3

  4

 40
1.0
 41
0.1875
 42
0.0625
 43
0.38
 44
0.125
 45
0.0
 46
0.0
 47
0.001
 48
0.001
140
0.1
141
0.09
142
0.0
143
25.4
144
1.0
145
0.0
146
1.0
147
0.09
 71
0.0
 72
0.0
 73
1
 74
1
 75
0
 76
0
 77
0
 78
4
170
0
171
2
172
0
173
0
174
0
175
0
176
0
177
0
178
0
270
2
271
3
272
3
273
2
274
2
275
0
280
0
281
0
282
0
283
1
284
4
285
0
286
0
287
3
288
0
340
11
278
46
  0
ENDTAB
  0
ENDSEC
  0
SECTION
  2
BLOCKS
  0
BLOCK
  5
20
100
AcDbEntity
  8
0
100
AcDbBlockBegin
  2
*Model_Space
 70
0
 10
0.0
 20
0.0
 30
0.0
  3
*Model_Space
  1

  0
ENDBLK
  5
21
100
AcDbEntity
  8
0
100
AcDbBlockEnd
  0
BLOCK
  5
1C
100
AcDbEntity
  8
0
100
AcDbBlockBegin
  2
*Paper_Space
 70
0
 10
0.0
 20
0.0
 30
0.0
  3
*Paper_Space
  1

  0
ENDBLK
  5
1D
100
AcDbEntity
  8
0
100
AcDbBlockEnd
  0
BLOCK
  5
20E
100
AcDbEntity
  8
0
100
AcDbBlockBegin
 62
2
  6
CONTINUOUS
  2
SUN_FIRST_THIRD_ANGLE_BL0
 70
64
 10
20.4816717061
 20
1.2289683772
  3
SUN_FIRST_THIRD_ANGLE_BL0
  1

  0
TEXT
  5
20F
100
AcDbEntity
  8
0
100
AcDbText
 62
2
  6
CONTINUOUS
 10
19.4750896608
 20
1.4136269581
  7
STANDARD
 40
0.08
  1
FIRST ANGLE
 41
0.8
 72
0
100
AcDbText
  0
TEXT
  5
210
100
AcDbEntity
  8
0
100
AcDbText
 62
2
  6
CONTINUOUS
 10
20.7842537513
 20
1.4047600029
  7
STANDARD
 40
0.08
  1
THIRD ANGLE
 41
0.8
 72
0
100
AcDbText
  0
LINE
  5
211
100
AcDbEntity
  8
0
100
AcDbLine
 62
7
  6
CONTINUOUS
 10
19.4767170086
 20
1.1727031207
 11
19.6334271527
 21
1.1717972817
  0
LINE
  5
212
100
AcDbEntity
  8
0
100
AcDbLine
 62
7
  6
CONTINUOUS
 10
19.6596964832
 20
1.1717972817
 11
19.6950230232
 21
1.171593082
  0
LINE
  5
213
100
AcDbEntity
  8
0
100
AcDbLine
 62
7
  6
CONTINUOUS
 10
19.7194818561
 20
1.1708914427
 11
19.8852396156
 21
1.1699333054
  0
LINE
  5
214
100
AcDbEntity
  8
0
100
AcDbLine
 62
7
  6
CONTINUOUS
 10
19.4758111696
 20
1.2723454088
 11
19.88525039
 21
1.3511534004
  0
LINE
  5
215
100
AcDbEntity
  8
0
100
AcDbLine
 62
7
  6
CONTINUOUS
 10
19.88525039
 20
1.3511534004
 11
19.8831348489
 21
0.9851647912
  0
LINE
  5
216
100
AcDbEntity
  8
0
100
AcDbLine
 62
7
  6
CONTINUOUS
 10
19.8831348489
 20
0.9851647912
 11
19.4767170086
 21
1.0658141206
  0
LINE
  5
217
100
AcDbEntity
  8
0
100
AcDbLine
 62
7
  6
CONTINUOUS
 10
19.4767170086
 20
1.0658141206
 11
19.4779056764
 21
1.2714536432
  0
CIRCLE
  5
218
100
AcDbEntity
  8
0
100
AcDbCircle
 62
7
  6
CONTINUOUS
 10
20.2068232291
 20
1.1717972817
 40
0.175742101
  0
CIRCLE
  5
219
100
AcDbEntity
  8
0
100
AcDbCircle
 62
7
  6
CONTINUOUS
 10
20.2068232291
 20
1.1717972817
 40
0.1005522074
  0
LINE
  5
21A
100
AcDbEntity
  8
0
100
AcDbLine
 62
7
  6
CONTINUOUS
 10
20.2077290681
 20
1.3756110529
 11
20.2071171714
 21
1.2379342989
  0
LINE
  5
21B
100
AcDbEntity
  8
0
100
AcDbLine
 62
7
  6
CONTINUOUS
 10
20.2077290681
 20
1.2016899681
 11
20.2074674401
 21
1.1428236749
  0
LINE
  5
21C
100
AcDbEntity
  8
0
100
AcDbLine
 62
7
  6
CONTINUOUS
 10
20.208634907
 20
1.101141841
 11
20.2080230104
 21
0.963465087
  0
LINE
  5
21D
100
AcDbEntity
  8
0
100
AcDbLine
 62
7
  6
CONTINUOUS
 10
20.0066328138
 20
1.1745147986
 11
20.1443095678
 21
1.1739029019
  0
LINE
  5
21E
100
AcDbEntity
  8
0
100
AcDbLine
 62
7
  6
CONTINUOUS
 10
20.1832714155
 20
1.1727031207
 11
20.238153505
 21
1.172335442
  0
LINE
  5
21F
100
AcDbEntity
  8
0
100
AcDbLine
 62
7
  6
CONTINUOUS
 10
20.2756669918
 20
1.1717972817
 11
20.407916871
 21
1.1712095044
  0
CIRCLE
  5
220
100
AcDbEntity
  8
0
100
AcDbCircle
 62
7
  6
CONTINUOUS
 10
20.7509457401
 20
1.1693297793
 40
0.1722024983
  0
CIRCLE
  5
221
100
AcDbEntity
  8
0
100
AcDbCircle
 62
7
  6
CONTINUOUS
 10
20.7509457401
 20
1.1693297793
 40
0.0985164967
  0
LINE
  5
222
100
AcDbEntity
  8
0
100
AcDbLine
 62
7
  6
CONTINUOUS
 10
20.7169767782
 20
1.170462078
 11
20.7825395137
 21
1.1682766535
  0
LINE
  5
223
100
AcDbEntity
  8
0
100
AcDbLine
 62
7
  6
CONTINUOUS
 10
20.8177513651
 20
1.1693297793
 11
20.947965719
 21
1.1693297793
  0
LINE
  5
224
100
AcDbEntity
  8
0
100
AcDbLine
 62
7
  6
CONTINUOUS
 10
20.6875370113
 20
1.170462078
 11
20.5573226574
 21
1.170462078
  0
LINE
  5
225
100
AcDbEntity
  8
0
100
AcDbLine
 62
7
  6
CONTINUOUS
 10
20.7486811426
 20
1.1987695462
 11
20.7486811426
 21
1.1432869085
  0
LINE
  5
226
100
AcDbEntity
  8
0
100
AcDbLine
 62
7
  6
CONTINUOUS
 10
20.7498134414
 20
1.1059210505
 11
20.7498134414
 21
0.9757066966
  0
LINE
  5
227
100
AcDbEntity
  8
0
100
AcDbLine
 62
7
  6
CONTINUOUS
 10
20.7486811426
 20
1.2338708068
 11
20.7486811426
 21
1.3640851607
  0
LINE
  5
228
100
AcDbEntity
  8
0
100
AcDbLine
 62
7
  6
CONTINUOUS
 10
21.0702539817
 20
1.2701043662
 11
21.4790138229
 21
1.3448360823
  0
LINE
  5
229
100
AcDbEntity
  8
0
100
AcDbLine
 62
7
  6
CONTINUOUS
 10
21.4790138229
 20
1.3448360823
 11
21.4790138229
 21
0.9779712941
  0
LINE
  5
22A
100
AcDbEntity
  8
0
100
AcDbLine
 62
7
  6
CONTINUOUS
 10
21.4790138229
 20
0.9779712941
 11
21.069121683
 21
1.0617614
  0
LINE
  5
22B
100
AcDbEntity
  8
0
100
AcDbLine
 62
7
  6
CONTINUOUS
 10
21.0702539817
 20
1.2701043662
 11
21.069121683
 21
1.0617614
  0
LINE
  5
22C
100
AcDbEntity
  8
0
100
AcDbLine
 62
7
  6
CONTINUOUS
 10
21.4790138229
 20
1.1693297793
 11
21.3159628059
 21
1.1693297793
  0
LINE
  5
22D
100
AcDbEntity
  8
0
100
AcDbLine
 62
7
  6
CONTINUOUS
 10
21.2876553377
 20
1.1693297793
 11
21.2502894796
 21
1.1693297793
  0
LINE
  5
22E
100
AcDbEntity
  8
0
100
AcDbLine
 62
7
  6
CONTINUOUS
 10
21.2208497126
 20
1.1659328831
 11
21.0713862804
 21
1.1659328831
  0
LINE
  5
22F
100
AcDbEntity
  8
0
100
AcDbLine
 62
7
  6
CONTINUOUS
 10
20.4796138713
 20
1.5284908897
 11
20.4766766948
 21
0.9294458646
  0
ENDBLK
  5
230
100
AcDbEntity
  8
0
  6
BYBLOCK
 62
0
100
AcDbBlockEnd
  0
BLOCK
  5
231
100
AcDbEntity
  8
0
100
AcDbBlockBegin
  2
*T1
 70
1
 10
0.0
 20
0.0
  3
*T1
  1

  0
LINE
  5
232
100
AcDbEntity
  8
0
100
AcDbLine
 62
2
  6
CONTINUOUS
 10
9.275
 20
0.0
 11
-0.0
 21
0.0
  0
LINE
  5
233
100
AcDbEntity
  8
0
100
AcDbLine
 62
2
  6
CONTINUOUS
 10
9.275
 20
0.0
 11
9.275
 21
1.25
  0
LINE
  5
234
100
AcDbEntity
  8
0
100
AcDbLine
 62
2
  6
CONTINUOUS
 10
9.275
 20
0.625
 11
-0.0
 21
0.625
  0
LINE
  5
235
100
AcDbEntity
  8
0
100
AcDbLine
 62
2
  6
CONTINUOUS
 10
9.275
 20
1.25
 11
-0.0
 21
1.25
  0
LINE
  5
236
100
AcDbEntity
  8
0
100
AcDbLine
 62
2
  6
CONTINUOUS
 10
6.8
 20
0.0
 11
6.8
 21
1.25
  0
LINE
  5
237
100
AcDbEntity
  8
0
100
AcDbLine
 62
2
  6
CONTINUOUS
 10
6.4
 20
0.0
 11
6.4
 21
0.625
  0
LINE
  5
238
100
AcDbEntity
  8
0
100
AcDbLine
 62
2
  6
CONTINUOUS
 10
5.9
 20
0.0
 11
5.9
 21
0.625
  0
LINE
  5
239
100
AcDbEntity
  8
0
100
AcDbLine
 62
2
  6
CONTINUOUS
 10
5.2
 20
0.0
 11
5.2
 21
0.625
  0
LINE
  5
23A
100
AcDbEntity
  8
0
100
AcDbLine
 62
2
  6
CONTINUOUS
 10
4.1
 20
0.0
 11
4.1
 21
1.25
  0
LINE
  5
23B
100
AcDbEntity
  8
0
100
AcDbLine
 62
2
  6
CONTINUOUS
 10
-0.0
 20
0.0
 11
-0.0
 21
1.25
  0
MTEXT
  5
23C
100
AcDbEntity
  8
0
100
AcDbMText
 62
2
  6
CONTINUOUS
  7
STANDARD
 71
2
 72
1
 10
6.6
 20
0.325
 30
0.0
 11
1.0
 21
0.0
 31
0.0
 44
0.9
  1
2
 40
0.125
 41
0.2
  0
MTEXT
  5
23D
100
AcDbEntity
  8
0
100
AcDbMText
 62
2
  6
CONTINUOUS
  7
STANDARD
 71
2
 72
1
 10
6.15
 20
0.325
 30
0.0
 11
1.0
 21
0.0
 31
0.0
 44
0.9
  1
C
 40
0.125
 41
0.2
  0
MTEXT
  5
23E
100
AcDbEntity
  8
0
100
AcDbMText
 62
2
  6
CONTINUOUS
  7
STANDARD
 71
2
 72
1
 10
5.55
 20
0.325
 30
0.0
 11
1.0
 21
0.0
 31
0.0
 44
0.9
  1
2.000
 40
0.125
 41
1.0
  0
MTEXT
  5
23F
100
AcDbEntity
  8
0
100
AcDbMText
 62
2
  6
CONTINUOUS
  7
STANDARD
 71
2
 72
1
 10
4.65
 20
0.325
 30
0.0
 11
1.0
 21
0.0
 31
0.0
 44
0.9
  1
Aug-05-19
 40
0.125
 41
1.8
  0
MTEXT
  5
240
100
AcDbEntity
  8
0
100
AcDbMText
 62
2
  6
CONTINUOUS
  7
STANDARD
 71
2
 72
1
 10
2.05
 20
0.4625
 30
0.0
 11
1.0
 21
0.0
 31
0.0
 44
0.9
  1
T-11A Gasket mount Sun\PDirect mount, cross pilot
 40
0.125
 41
5.0
  0
MTEXT
  5
241
100
AcDbEntity
  8
0
100
AcDbMText
 62
2
  6
CONTINUOUS
  7
STANDARD
 71
1
 72
1
 10
6.45
 20
0.5625
 30
0.0
 11
1.0
 21
0.0
 31
0.0
 44
0.9
  1
SHEET
 40
0.06
 41
0.48
  0
MTEXT
  5
242
100
AcDbEntity
  8
0
100
AcDbMText
 62
2
  6
CONTINUOUS
  7
STANDARD
 71
1
 72
1
 10
5.95
 20
0.5625
 30
0.0
 11
1.0
 21
0.0
 31
0.0
 44
0.9
  1
DWG SIZE
 40
0.06
 41
0.768
  0
MTEXT
  5
243
100
AcDbEntity
  8
0
100
AcDbMText
 62
2
  6
CONTINUOUS
  7
STANDARD
 71
1
 72
1
 10
5.25
 20
0.5625
 30
0.0
 11
1.0
 21
0.0
 31
0.0
 44
0.9
  1
SCALE
 40
0.06
 41
0.48
  0
MTEXT
  5
244
100
AcDbEntity
  8
0
100
AcDbMText
 62
2
  6
CONTINUOUS
  7
STANDARD
 71
1
 72
1
 10
4.15
 20
0.5625
 30
0.0
 11
1.0
 21
0.0
 31
0.0
 44
0.9
  1
DATE
 40
0.06
 41
0.384
  0
MTEXT
  5
245
100
AcDbEntity
  8
0
100
AcDbMText
 62
2
  6
CONTINUOUS
  7
STANDARD
 71
1
 72
1
 10
0.05
 20
0.5625
 30
0.0
 11
1.0
 21
0.0
 31
0.0
 44
0.9
  1
DESCRIPTION
 40
0.06
 41
1.056
  0
MTEXT
  5
246
100
AcDbEntity
  8
0
100
AcDbMText
 62
2
  6
CONTINUOUS
  7
STANDARD
 71
2
 72
1
 10
5.45
 20
1.0375
 30
0.0
 11
1.0
 21
0.0
 31
0.0
 44
0.9
  1
ALL DIMENSIONS IN INCH\PVIEWS ARE THIRD ANGLE
 40
0.12
 41
4.224
  0
MTEXT
  5
247
100
AcDbEntity
  8
0
100
AcDbMText
 62
2
  6
CONTINUOUS
  7
STANDARD
 71
2
 72
1
 10
2.05
 20
0.95
 30
0.0
 11
1.0
 21
0.0
 31
0.0
 44
0.9
  1
ZTC
 40
0.125
 41
0.6
  0
MTEXT
  5
248
100
AcDbEntity
  8
0
100
AcDbMText
 62
2
  6
CONTINUOUS
  7
STANDARD
 71
1
 72
1
 10
0.05
 20
1.1875
 30
0.0
 11
1.0
 21
0.0
 31
0.0
 44
0.9
  1
MODEL
 40
0.06
 41
0.48
  0
ENDBLK
  5
249
100
AcDbEntity
  8
0
  6
BYBLOCK
 62
0
100
AcDbBlockEnd
  0
BLOCK
  5
24A
100
AcDbEntity
  8
0
100
AcDbBlockBegin
  2
*T2
 70
1
 10
0.0
 20
0.0
  3
*T2
  1

  0
LINE
  5
24B
100
AcDbEntity
  8
0
100
AcDbLine
 62
2
  6
CONTINUOUS
 10
0.0
 20
0.0
 11
9.055
 21
0.0
  0
LINE
  5
24C
100
AcDbEntity
  8
0
100
AcDbLine
 62
2
  6
CONTINUOUS
 10
0.0
 20
0.0
 11
0.0
 21
-3.094
  0
LINE
  5
24D
100
AcDbEntity
  8
0
100
AcDbLine
 62
2
  6
CONTINUOUS
 10
0.0
 20
-0.344
 11
9.055
 21
-0.344
  0
LINE
  5
24E
100
AcDbEntity
  8
0
100
AcDbLine
 62
2
  6
CONTINUOUS
 10
0.0
 20
-0.594
 11
9.055
 21
-0.594
  0
LINE
  5
24F
100
AcDbEntity
  8
0
100
AcDbLine
 62
2
  6
CONTINUOUS
 10
0.0
 20
-0.844
 11
9.055
 21
-0.844
  0
LINE
  5
250
100
AcDbEntity
  8
0
100
AcDbLine
 62
2
  6
CONTINUOUS
 10
0.0
 20
-1.094
 11
9.055
 21
-1.094
  0
LINE
  5
251
100
AcDbEntity
  8
0
100
AcDbLine
 62
2
  6
CONTINUOUS
 10
0.0
 20
-1.344
 11
9.055
 21
-1.344
  0
LINE
  5
252
100
AcDbEntity
  8
0
100
AcDbLine
 62
2
  6
CONTINUOUS
 10
0.0
 20
-1.594
 11
9.055
 21
-1.594
  0
LINE
  5
253
100
AcDbEntity
  8
0
100
AcDbLine
 62
2
  6
CONTINUOUS
 10
0.0
 20
-1.844
 11
9.055
 21
-1.844
  0
LINE
  5
254
100
AcDbEntity
  8
0
100
AcDbLine
 62
2
  6
CONTINUOUS
 10
0.0
 20
-2.094
 11
9.055
 21
-2.094
  0
LINE
  5
255
100
AcDbEntity
  8
0
100
AcDbLine
 62
2
  6
CONTINUOUS
 10
0.0
 20
-2.344
 11
9.055
 21
-2.344
  0
LINE
  5
256
100
AcDbEntity
  8
0
100
AcDbLine
 62
2
  6
CONTINUOUS
 10
0.0
 20
-2.594
 11
9.055
 21
-2.594
  0
LINE
  5
257
100
AcDbEntity
  8
0
100
AcDbLine
 62
2
  6
CONTINUOUS
 10
0.0
 20
-2.844
 11
9.055
 21
-2.844
  0
LINE
  5
258
100
AcDbEntity
  8
0
100
AcDbLine
 62
2
  6
CONTINUOUS
 10
0.0
 20
-3.094
 11
9.055
 21
-3.094
  0
LINE
  5
259
100
AcDbEntity
  8
0
100
AcDbLine
 62
2
  6
CONTINUOUS
 10
3.055
 20
0.0
 11
3.055
 21
-3.094
  0
LINE
  5
25A
100
AcDbEntity
  8
0
100
AcDbLine
 62
2
  6
CONTINUOUS
 10
9.055
 20
0.0
 11
9.055
 21
-3.094
  0
MTEXT
  5
25B
100
AcDbEntity
  8
0
100
AcDbMText
 62
2
  6
CONTINUOUS
  7
STANDARD
 71
2
 72
1
 10
1.5275
 20
-0.0995
 30
0.0
 11
1.0
 21
0.0
 31
0.0
 44
0.9
  1
Technical Data
 40
0.145
 41
3.248
  0
MTEXT
  5
25C
100
AcDbEntity
  8
0
100
AcDbMText
 62
2
  6
CONTINUOUS
  7
STANDARD
 71
2
 72
1
 10
4.555
 20
-0.0995
 30
0.0
 11
1.0
 21
0.0
 31
0.0
 44
0.9
  1
U.S. Units
 40
0.145
 41
2.32
  0
MTEXT
  5
25D
100
AcDbEntity
  8
0
100
AcDbMText
 62
2
  6
CONTINUOUS
  7
STANDARD
 71
2
 72
1
 10
7.555
 20
-0.0995
 30
0.0
 11
1.0
 21
0.0
 31
0.0
 44
0.9
  1
Metric Units
 40
0.145
 41
2.784
  0
MTEXT
  5
25E
100
AcDbEntity
  8
0
100
AcDbMText
 62
2
  6
CONTINUOUS
  7
STANDARD
 71
2
 72
1
 10
1.5275
 20
-0.4065
 30
0.0
 11
1.0
 21
0.0
 31
0.0
 44
0.9
  1
Cavity
 40
0.125
 41
1.2
  0
MTEXT
  5
25F
100
AcDbEntity
  8
0
100
AcDbMText
 62
2
  6
CONTINUOUS
  7
STANDARD
 71
2
 72
1
 10
6.055
 20
-0.4065
 30
0.0
 11
1.0
 21
0.0
 31
0.0
 44
0.9
  1
T-11A
 40
0.125
 41
1.0
  0
MTEXT
  5
260
100
AcDbEntity
  8
0
100
AcDbMText
 62
2
  6
CONTINUOUS
  7
STANDARD
 71
2
 72
1
 10
1.5275
 20
-0.6565
 30
0.0
 11
1.0
 21
0.0
 31
0.0
 44
0.9
  1
Body Features
 40
0.125
 41
2.6
  0
MTEXT
  5
261
100
AcDbEntity
  8
0
100
AcDbMText
 62
2
  6
CONTINUOUS
  7
STANDARD
 71
2
 72
1
 10
6.055
 20
-0.6565
 30
0.0
 11
1.0
 21
0.0
 31
0.0
 44
0.9
  1
Direct mount, cross pilot
 40
0.125
 41
5.0
  0
MTEXT
  5
262
100
AcDbEntity
  8
0
100
AcDbMText
 62
2
  6
CONTINUOUS
  7
STANDARD
 71
2
 72
1
 10
1.5275
 20
-0.9065
 30
0.0
 11
1.0
 21
0.0
 31
0.0
 44
0.9
  1
Body Type
 40
0.125
 41
1.8
  0
MTEXT
  5
263
100
AcDbEntity
  8
0
100
AcDbMText
 62
2
  6
CONTINUOUS
  7
STANDARD
 71
2
 72
1
 10
6.055
 20
-0.9065
 30
0.0
 11
1.0
 21
0.0
 31
0.0
 44
0.9
  1
Gasket mount
 40
0.125
 41
2.4
  0
MTEXT
  5
264
100
AcDbEntity
  8
0
100
AcDbMText
 62
2
  6
CONTINUOUS
  7
STANDARD
 71
2
 72
1
 10
1.5275
 20
-1.1565
 30
0.0
 11
1.0
 21
0.0
 31
0.0
 44
0.9
  1
Interface
 40
0.125
 41
1.8
  0
MTEXT
  5
265
100
AcDbEntity
  8
0
100
AcDbMText
 62
2
  6
CONTINUOUS
  7
STANDARD
 71
2
 72
1
 10
6.055
 20
-1.1565
 30
0.0
 11
1.0
 21
0.0
 31
0.0
 44
0.9
  1
Sun
 40
0.125
 41
0.6
  0
MTEXT
  5
266
100
AcDbEntity
  8
0
100
AcDbMText
 62
2
  6
CONTINUOUS
  7
STANDARD
 71
2
 72
1
 10
1.5275
 20
-1.4065
 30
0.0
 11
1.0
 21
0.0
 31
0.0
 44
0.9
  1
Open Cavity Quantity
 40
0.125
 41
4.0
  0
MTEXT
  5
267
100
AcDbEntity
  8
0
100
AcDbMText
 62
2
  6
CONTINUOUS
  7
STANDARD
 71
2
 72
1
 10
6.055
 20
-1.4065
 30
0.0
 11
1.0
 21
0.0
 31
0.0
 44
0.9
  1
1
 40
0.125
 41
0.2
  0
MTEXT
  5
268
100
AcDbEntity
  8
0
100
AcDbMText
 62
2
  6
CONTINUOUS
  7
STANDARD
 71
2
 72
1
 10
1.5275
 20
-1.6565
 30
0.0
 11
1.0
 21
0.0
 31
0.0
 44
0.9
  1
Weight
 40
0.125
 41
1.2
  0
MTEXT
  5
269
100
AcDbEntity
  8
0
100
AcDbMText
 62
2
  6
CONTINUOUS
  7
STANDARD
 71
2
 72
1
 10
4.555
 20
-1.6565
 30
0.0
 11
1.0
 21
0.0
 31
0.0
 44
0.9
  1
0.855 lb.
 40
0.125
 41
1.8
  0
MTEXT
  5
26A
100
AcDbEntity
  8
0
100
AcDbMText
 62
2
  6
CONTINUOUS
  7
STANDARD
 71
2
 72
1
 10
7.555
 20
-1.6565
 30
0.0
 11
1.0
 21
0.0
 31
0.0
 44
0.9
  1
0,388 kg.
 40
0.125
 41
1.8
  0
MTEXT
  5
26B
100
AcDbEntity
  8
0
100
AcDbMText
 62
2
  6
CONTINUOUS
  7
STANDARD
 71
2
 72
1
 10
1.5275
 20
-1.9065
 30
0.0
 11
1.0
 21
0.0
 31
0.0
 44
0.9
  1
Mounting Hole Diameter
 40
0.125
 41
4.4
  0
MTEXT
  5
26C
100
AcDbEntity
  8
0
100
AcDbMText
 62
2
  6
CONTINUOUS
  7
STANDARD
 71
2
 72
1
 10
4.555
 20
-1.9065
 30
0.0
 11
1.0
 21
0.0
 31
0.0
 44
0.9
  1
.34 in.
 40
0.125
 41
1.4
  0
MTEXT
  5
26D
100
AcDbEntity
  8
0
100
AcDbMText
 62
2
  6
CONTINUOUS
  7
STANDARD
 71
2
 72
1
 10
7.555
 20
-1.9065
 30
0.0
 11
1.0
 21
0.0
 31
0.0
 44
0.9
  1
8.6 mm
 40
0.125
 41
1.2
  0
MTEXT
  5
26E
100
AcDbEntity
  8
0
100
AcDbMText
 62
2
  6
CONTINUOUS
  7
STANDARD
 71
2
 72
1
 10
1.5275
 20
-2.1565
 30
0.0
 11
1.0
 21
0.0
 31
0.0
 44
0.9
  1
Mounting Hole Depth
 40
0.125
 41
3.8
  0
MTEXT
  5
26F
100
AcDbEntity
  8
0
100
AcDbMText
 62
2
  6
CONTINUOUS
  7
STANDARD
 71
2
 72
1
 10
6.055
 20
-2.1565
 30
0.0
 11
1.0
 21
0.0
 31
0.0
 44
0.9
  1
Through
 40
0.125
 41
1.4
  0
MTEXT
  5
270
100
AcDbEntity
  8
0
100
AcDbMText
 62
2
  6
CONTINUOUS
  7
STANDARD
 71
2
 72
1
 10
1.5275
 20
-2.4065
 30
0.0
 11
1.0
 21
0.0
 31
0.0
 44
0.9
  1
Mounting Hole Quantity
 40
0.125
 41
4.4
  0
MTEXT
  5
271
100
AcDbEntity
  8
0
100
AcDbMText
 62
2
  6
CONTINUOUS
  7
STANDARD
 71
2
 72
1
 10
6.055
 20
-2.4065
 30
0.0
 11
1.0
 21
0.0
 31
0.0
 44
0.9
  1
2
 40
0.125
 41
0.2
  0
MTEXT
  5
272
100
AcDbEntity
  8
0
100
AcDbMText
 62
2
  6
CONTINUOUS
  7
STANDARD
 71
2
 72
1
 10
1.5275
 20
-2.6565
 30
0.0
 11
1.0
 21
0.0
 31
0.0
 44
0.9
  1
Mounting Hole C'bore Diameter
 40
0.125
 41
5.8
  0
MTEXT
  5
273
100
AcDbEntity
  8
0
100
AcDbMText
 62
2
  6
CONTINUOUS
  7
STANDARD
 71
2
 72
1
 10
4.555
 20
-2.6565
 30
0.0
 11
1.0
 21
0.0
 31
0.0
 44
0.9
  1
.50 in.
 40
0.125
 41
1.4
  0
MTEXT
  5
274
100
AcDbEntity
  8
0
100
AcDbMText
 62
2
  6
CONTINUOUS
  7
STANDARD
 71
2
 72
1
 10
7.555
 20
-2.6565
 30
0.0
 11
1.0
 21
0.0
 31
0.0
 44
0.9
  1
12,7 mm
 40
0.125
 41
1.4
  0
MTEXT
  5
275
100
AcDbEntity
  8
0
100
AcDbMText
 62
2
  6
CONTINUOUS
  7
STANDARD
 71
2
 72
1
 10
1.5275
 20
-2.9065
 30
0.0
 11
1.0
 21
0.0
 31
0.0
 44
0.9
  1
Mounting Hole C'bore Depth
 40
0.125
 41
5.2
  0
MTEXT
  5
276
100
AcDbEntity
  8
0
100
AcDbMText
 62
2
  6
CONTINUOUS
  7
STANDARD
 71
2
 72
1
 10
4.555
 20
-2.9065
 30
0.0
 11
1.0
 21
0.0
 31
0.0
 44
0.9
  1
.25 in.
 40
0.125
 41
1.4
  0
MTEXT
  5
277
100
AcDbEntity
  8
0
100
AcDbMText
 62
2
  6
CONTINUOUS
  7
STANDARD
 71
2
 72
1
 10
7.555
 20
-2.9065
 30
0.0
 11
1.0
 21
0.0
 31
0.0
 44
0.9
  1
6,4 mm
 40
0.125
 41
1.2
  0
ENDBLK
  5
278
100
AcDbEntity
  8
0
  6
BYBLOCK
 62
0
100
AcDbBlockEnd
  0
BLOCK
  5
279
100
AcDbEntity
  8
0
100
AcDbBlockBegin
  2
*T3
 70
1
 10
0.0
 20
0.0
  3
*T3
  1

  0
LINE
  5
27A
100
AcDbEntity
  8
0
100
AcDbLine
 62
2
  6
CONTINUOUS
 10
0.0
 20
0.0
 11
4.6
 21
0.0
  0
LINE
  5
27B
100
AcDbEntity
  8
0
100
AcDbLine
 62
2
  6
CONTINUOUS
 10
0.0
 20
0.0
 11
0.0
 21
-0.93775
  0
LINE
  5
27C
100
AcDbEntity
  8
0
100
AcDbLine
 62
2
  6
CONTINUOUS
 10
0.0
 20
-0.34375
 11
4.6
 21
-0.34375
  0
LINE
  5
27D
100
AcDbEntity
  8
0
100
AcDbLine
 62
2
  6
CONTINUOUS
 10
0.0
 20
-0.68775
 11
4.6
 21
-0.68775
  0
LINE
  5
27E
100
AcDbEntity
  8
0
100
AcDbLine
 62
2
  6
CONTINUOUS
 10
0.0
 20
-0.93775
 11
4.6
 21
-0.93775
  0
LINE
  5
27F
100
AcDbEntity
  8
0
100
AcDbLine
 62
2
  6
CONTINUOUS
 10
1.3
 20
-0.34375
 11
1.3
 21
-0.93775
  0
LINE
  5
280
100
AcDbEntity
  8
0
100
AcDbLine
 62
2
  6
CONTINUOUS
 10
3.3
 20
-0.34375
 11
3.3
 21
-0.93775
  0
LINE
  5
281
100
AcDbEntity
  8
0
100
AcDbLine
 62
2
  6
CONTINUOUS
 10
4.6
 20
0.0
 11
4.6
 21
-0.93775
  0
MTEXT
  5
282
100
AcDbEntity
  8
0
100
AcDbMText
 62
2
  6
CONTINUOUS
  7
STANDARD
 71
2
 72
1
 10
2.3
 20
-0.099375
 30
0.0
 11
1.0
 21
0.0
 31
0.0
 44
0.9
  1
Port Headings
 40
0.145
 41
3.016
  0
MTEXT
  5
283
100
AcDbEntity
  8
0
100
AcDbMText
 62
2
  6
CONTINUOUS
  7
STANDARD
 71
2
 72
1
 10
0.65
 20
-0.44325
 30
0.0
 11
1.0
 21
0.0
 31
0.0
 44
0.9
  1
Product
 40
0.145
 41
1.624
  0
MTEXT
  5
284
100
AcDbEntity
  8
0
100
AcDbMText
 62
2
  6
CONTINUOUS
  7
STANDARD
 71
2
 72
1
 10
2.3
 20
-0.44325
 30
0.0
 11
1.0
 21
0.0
 31
0.0
 44
0.9
  1
Port
 40
0.145
 41
0.928
  0
MTEXT
  5
285
100
AcDbEntity
  8
0
100
AcDbMText
 62
2
  6
CONTINUOUS
  7
STANDARD
 71
2
 72
1
 10
3.95
 20
-0.44325
 30
0.0
 11
1.0
 21
0.0
 31
0.0
 44
0.9
  1
Size
 40
0.145
 41
0.928
  0
MTEXT
  5
286
100
AcDbEntity
  8
0
100
AcDbMText
 62
2
  6
CONTINUOUS
  7
STANDARD
 71
2
 72
1
 10
0.65
 20
-0.75025
 30
0.0
 11
1.0
 21
0.0
 31
0.0
 44
0.9
  1
ZTC
 40
0.125
 41
0.6
  0
MTEXT
  5
287
100
AcDbEntity
  8
0
100
AcDbMText
 62
2
  6
CONTINUOUS
  7
STANDARD
 71
2
 72
1
 10
2.3
 20
-0.75025
 30
0.0
 11
1.0
 21
0.0
 31
0.0
 44
0.9
  1
Ports C2, V1, V2
 40
0.125
 41
3.2
  0
MTEXT
  5
288
100
AcDbEntity
  8
0
100
AcDbMText
 62
2
  6
CONTINUOUS
  7
STANDARD
 71
2
 72
1
 10
3.95
 20
-0.75025
 30
0.0
 11
1.0
 21
0.0
 31
0.0
 44
0.9
  1
SAE 6
 40
0.125
 41
1.0
  0
ENDBLK
  5
289
100
AcDbEntity
  8
0
  6
BYBLOCK
 62
0
100
AcDbBlockEnd
  0
ENDSEC
  0
SECTION
  2
ENTITIES
  0
IMAGE
  5
28A
100
AcDbEntity
  8
0
100
AcDbRasterImage
 62
7
  6
CONTINUOUS
 10
19.2297077316
 20
0.3094318264
 30
0.0
 11
0.0066666667
 21
0.0
 31
0.0
 12
0.0
 22
0.0066666667
 32
0.0
 13
369.0
 23
92.0
340
       2FB
 70
9
280
0
281
50
282
50
283
0
360
       2F5
 71
1
 91
2
 14
-0.5
 24
-0.5
 14
368.5
 24
91.5
  0
INSERT
  5
28B
100
AcDbEntity
  8
0
100
AcDbBlockReference
 62
2
  6
CONTINUOUS
  2
SUN_FIRST_THIRD_ANGLE_BL0
 10
20.4816717061
 20
1.2289683772
  0
ACAD_TABLE
  5
28C
100
AcDbEntity
  8
0
 62
2
  6
CONTINUOUS
100
AcDbBlockReference
  2
*T1
 10
12.42375
 20
0.30125
 30
0.0
100
AcDbTable
342
       2FD
343
20A
 11
1.0
 21
0.0
 31
0.0
 90
6
 91
4
 92
6
 93
20
 94
0
 95
0
 96
0
 70
1
 41
0.0
141
0.525
141
0.1
141
0.525
141
0.1
142
4.1
142
1.1
142
0.7
142
0.5
142
0.4
142
2.475
171
1
172
0
173
0
174
0
175
1
176
1
 91
33
178
0
145
0.0
301
CELL_VALUE
 90
4
  1
T-11A Gasket mount Sun\PDirect mount, cross pilot
304
ACVALUE_END
170
2
140
0.125
171
1
172
0
173
0
174
0
175
1
176
1
 91
33
178
0
145
0.0
301
CELL_VALUE
 90
4
  1
Aug-05-19
304
ACVALUE_END
170
5
140
0.125
171
1
172
0
173
0
174
0
175
1
176
1
 91
33
178
0
145
0.0
301
CELL_VALUE
 90
4
  1
2.000
304
ACVALUE_END
170
5
140
0.125
171
1
172
0
173
0
174
0
175
1
176
1
 91
33
178
0
145
0.0
301
CELL_VALUE
 90
4
  1
C
304
ACVALUE_END
170
5
140
0.125
171
1
172
0
173
0
174
0
175
1
176
1
 91
33
178
0
145
0.0
301
CELL_VALUE
 90
4
  1
2
304
ACVALUE_END
170
5
140
0.125
171
1
172
0
173
0
174
0
175
1
176
1
 91
33
178
0
145
0.0
301
CELL_VALUE
 90
4
  1
 
304
ACVALUE_END
170
1
140
0.125
171
1
172
0
173
0
174
0
175
1
176
1
 91
33
178
0
145
0.0
301
CELL_VALUE
 90
4
  1
DESCRIPTION
304
ACVALUE_END
170
1
140
0.06
171
1
172
0
173
0
174
0
175
1
176
1
 91
33
178
0
145
0.0
301
CELL_VALUE
 90
4
  1
DATE
304
ACVALUE_END
170
1
140
0.06
171
1
172
0
173
0
174
0
175
1
176
1
 91
33
178
0
145
0.0
301
CELL_VALUE
 90
4
  1
SCALE
304
ACVALUE_END
170
1
140
0.06
171
1
172
0
173
0
174
0
175
1
176
1
 91
33
178
0
145
0.0
301
CELL_VALUE
 90
4
  1
DWG SIZE
304
ACVALUE_END
170
1
140
0.06
171
1
172
0
173
0
174
0
175
1
176
1
 91
33
178
0
145
0.0
301
CELL_VALUE
 90
4
  1
SHEET
304
ACVALUE_END
170
1
140
0.06
171
1
172
0
173
0
174
0
175
1
176
1
 91
33
178
0
145
0.0
301
CELL_VALUE
 90
4
  1
 
304
ACVALUE_END
170
1
140
0.125
171
1
172
0
173
0
174
0
175
1
176
1
 91
33
178
0
145
0.0
301
CELL_VALUE
 90
4
  1
ZTC
304
ACVALUE_END
170
5
140
0.125
171
1
172
0
173
0
174
0
175
4
176
1
 91
33
178
0
145
0.0
301
CELL_VALUE
 90
4
  1
ALL DIMENSIONS IN INCH\PVIEWS ARE THIRD ANGLE
304
ACVALUE_END
170
5
140
0.12
171
1
172
0
173
1
174
0
175
1
176
1
 91
1
178
0
145
0.0
170
1
171
1
172
0
173
1
174
0
175
1
176
1
 91
1
178
0
145
0.0
170
1
171
1
172
0
173
1
174
0
175
1
176
1
 91
1
178
0
145
0.0
170
5
171
1
172
0
173
0
174
0
175
1
176
1
 91
33
178
0
145
0.0
301
CELL_VALUE
 90
4
  1
 
304
ACVALUE_END
170
1
140
0.125
171
1
172
0
173
0
174
0
175
1
176
1
 91
33
178
0
145
0.0
301
CELL_VALUE
 90
4
  1
MODEL
304
ACVALUE_END
170
1
140
0.06
171
1
172
0
173
0
174
0
175
1
176
1
 91
33
178
0
145
0.0
301
CELL_VALUE
 90
4
  1
 
304
ACVALUE_END
170
1
140
0.125
171
1
172
0
173
0
174
0
175
1
176
1
 91
33
178
0
145
0.0
301
CELL_VALUE
 90
4
  1
 
304
ACVALUE_END
170
1
140
0.125
171
1
172
0
173
0
174
0
175
1
176
1
 91
33
178
0
145
0.0
301
CELL_VALUE
 90
4
  1
 
304
ACVALUE_END
170
1
140
0.125
171
1
172
0
173
0
174
0
175
1
176
1
 91
33
178
0
145
0.0
301
CELL_VALUE
 90
4
  1
 
304
ACVALUE_END
170
1
140
0.125
171
1
172
0
173
0
174
0
175
1
176
1
 91
33
178
0
145
0.0
301
CELL_VALUE
 90
4
  1
 
304
ACVALUE_END
170
1
140
0.125
  0
ACAD_TABLE
  5
28D
100
AcDbEntity
  8
0
 62
2
  6
CONTINUOUS
100
AcDbBlockReference
  2
*T2
 10
12.4237499994
 20
16.47875
 30
0.0
100
AcDbTable
342
       2FC
343
20B
 11
1.0
 21
0.0
 31
0.0
 90
22
 91
12
 92
3
 93
16
 94
0
 95
0
 96
0
 41
0.028
141
0.344
141
0.25
141
0.25
141
0.25
141
0.25
141
0.25
141
0.25
141
0.25
141
0.25
141
0.25
141
0.25
141
0.25
142
3.055
142
3.0
142
3.0
171
1
172
0
173
0
174
0
175
1
176
1
 91
33
178
0
145
0.0
301
CELL_VALUE
 90
4
  1
Technical Data
304
ACVALUE_END
170
5
140
0.145
171
1
172
0
173
0
174
0
175
1
176
1
 91
33
178
0
145
0.0
301
CELL_VALUE
 90
4
  1
U.S. Units
304
ACVALUE_END
170
5
140
0.145
171
1
172
0
173
0
174
0
175
1
176
1
 91
33
178
0
145
0.0
301
CELL_VALUE
 90
4
  1
Metric Units
304
ACVALUE_END
170
5
140
0.145
171
1
172
0
173
0
174
0
175
1
176
1
 91
33
178
0
145
0.0
301
CELL_VALUE
 90
4
  1
Cavity
304
ACVALUE_END
170
5
140
0.125
171
1
172
0
173
0
174
0
175
2
176
1
 91
33
178
0
145
0.0
301
CELL_VALUE
 90
4
  1
T-11A
304
ACVALUE_END
170
5
140
0.125
171
1
172
0
173
1
174
0
175
1
176
1
 91
1
178
0
145
0.0
170
1
171
1
172
0
173
0
174
0
175
1
176
1
 91
33
178
0
145
0.0
301
CELL_VALUE
 90
4
  1
Body Features
304
ACVALUE_END
170
5
140
0.125
171
1
172
0
173
0
174
0
175
2
176
1
 91
33
178
0
145
0.0
301
CELL_VALUE
 90
4
  1
Direct mount, cross pilot
304
ACVALUE_END
170
5
140
0.125
171
1
172
0
173
1
174
0
175
1
176
1
 91
1
178
0
145
0.0
170
1
171
1
172
0
173
0
174
0
175
1
176
1
 91
33
178
0
145
0.0
301
CELL_VALUE
 90
4
  1
Body Type
304
ACVALUE_END
170
5
140
0.125
171
1
172
0
173
0
174
0
175
2
176
1
 91
33
178
0
145
0.0
301
CELL_VALUE
 90
4
  1
Gasket mount
304
ACVALUE_END
170
5
140
0.125
171
1
172
0
173
1
174
0
175
1
176
1
 91
1
178
0
145
0.0
170
1
171
1
172
0
173
0
174
0
175
1
176
1
 91
33
178
0
145
0.0
301
CELL_VALUE
 90
4
  1
Interface
304
ACVALUE_END
170
5
140
0.125
171
1
172
0
173
0
174
0
175
2
176
1
 91
33
178
0
145
0.0
301
CELL_VALUE
 90
4
  1
Sun
304
ACVALUE_END
170
5
140
0.125
171
1
172
0
173
1
174
0
175
1
176
1
 91
1
178
0
145
0.0
170
1
171
1
172
0
173
0
174
0
175
1
176
1
 91
33
178
0
145
0.0
301
CELL_VALUE
 90
4
  1
Open Cavity Quantity
304
ACVALUE_END
170
5
140
0.125
171
1
172
0
173
0
174
0
175
2
176
1
 91
33
178
0
145
0.0
301
CELL_VALUE
 90
4
  1
1
304
ACVALUE_END
170
5
140
0.125
171
1
172
0
173
1
174
0
175
1
176
1
 91
1
178
0
145
0.0
170
1
171
1
172
0
173
0
174
0
175
1
176
1
 91
33
178
0
145
0.0
301
CELL_VALUE
 90
4
  1
Weight
304
ACVALUE_END
170
5
140
0.125
171
1
172
0
173
0
174
0
175
1
176
1
 91
33
178
0
145
0.0
301
CELL_VALUE
 90
4
  1
0.855 lb.
304
ACVALUE_END
170
5
140
0.125
171
1
172
0
173
0
174
0
175
1
176
1
 91
33
178
0
145
0.0
301
CELL_VALUE
 90
4
  1
0,388 kg.
304
ACVALUE_END
170
5
140
0.125
171
1
172
0
173
0
174
0
175
1
176
1
 91
33
178
0
145
0.0
301
CELL_VALUE
 90
4
  1
Mounting Hole Diameter
304
ACVALUE_END
170
5
140
0.125
171
1
172
0
173
0
174
0
175
1
176
1
 91
33
178
0
145
0.0
301
CELL_VALUE
 90
4
  1
.34 in.
304
ACVALUE_END
170
5
140
0.125
171
1
172
0
173
0
174
0
175
1
176
1
 91
33
178
0
145
0.0
301
CELL_VALUE
 90
4
  1
8.6 mm
304
ACVALUE_END
170
5
140
0.125
171
1
172
0
173
0
174
0
175
1
176
1
 91
33
178
0
145
0.0
301
CELL_VALUE
 90
4
  1
Mounting Hole Depth
304
ACVALUE_END
170
5
140
0.125
171
1
172
0
173
0
174
0
175
2
176
1
 91
33
178
0
145
0.0
301
CELL_VALUE
 90
4
  1
Through
304
ACVALUE_END
170
5
140
0.125
171
1
172
0
173
1
174
0
175
1
176
1
 91
1
178
0
145
0.0
170
1
171
1
172
0
173
0
174
0
175
1
176
1
 91
33
178
0
145
0.0
301
CELL_VALUE
 90
4
  1
Mounting Hole Quantity
304
ACVALUE_END
170
5
140
0.125
171
1
172
0
173
0
174
0
175
2
176
1
 91
33
178
0
145
0.0
301
CELL_VALUE
 90
4
  1
2
304
ACVALUE_END
170
5
140
0.125
171
1
172
0
173
1
174
0
175
1
176
1
 91
1
178
0
145
0.0
170
1
171
1
172
0
173
0
174
0
175
1
176
1
 91
33
178
0
145
0.0
301
CELL_VALUE
 90
4
  1
Mounting Hole C'bore Diameter
304
ACVALUE_END
170
5
140
0.125
171
1
172
0
173
0
174
0
175
1
176
1
 91
33
178
0
145
0.0
301
CELL_VALUE
 90
4
  1
.50 in.
304
ACVALUE_END
170
5
140
0.125
171
1
172
0
173
0
174
0
175
1
176
1
 91
33
178
0
145
0.0
301
CELL_VALUE
 90
4
  1
12,7 mm
304
ACVALUE_END
170
5
140
0.125
171
1
172
0
173
0
174
0
175
1
176
1
 91
33
178
0
145
0.0
301
CELL_VALUE
 90
4
  1
Mounting Hole C'bore Depth
304
ACVALUE_END
170
5
140
0.125
171
1
172
0
173
0
174
0
175
1
176
1
 91
33
178
0
145
0.0
301
CELL_VALUE
 90
4
  1
.25 in.
304
ACVALUE_END
170
5
140
0.125
171
1
172
0
173
0
174
0
175
1
176
1
 91
33
178
0
145
0.0
301
CELL_VALUE
 90
4
  1
6,4 mm
304
ACVALUE_END
170
5
140
0.125
  0
ACAD_TABLE
  5
28E
100
AcDbEntity
  8
0
 62
2
  6
CONTINUOUS
100
AcDbBlockReference
  2
*T3
 10
0.52125
 20
1.459
 30
0.0
100
AcDbTable
342
       2FC
343
20C
 11
1.0
 21
0.0
 31
0.0
 90
22
 91
3
 92
3
 93
16
 94
0
 95
0
 96
0
 41
0.05
141
0.34375
141
0.344
141
0.25
142
1.3
142
2.0
142
1.3
171
1
172
0
173
0
174
0
175
3
176
1
 91
33
178
0
145
0.0
301
CELL_VALUE
 90
4
  1
Port Headings
304
ACVALUE_END
170
5
140
0.145
171
1
172
0
173
1
174
0
175
1
176
1
 91
1
178
0
145
0.0
170
1
171
1
172
0
173
1
174
0
175
1
176
1
 91
1
178
0
145
0.0
170
1
171
1
172
0
173
0
174
0
175
1
176
1
 91
33
178
0
145
0.0
301
CELL_VALUE
 90
4
  1
Product
304
ACVALUE_END
170
5
140
0.145
171
1
172
0
173
0
174
0
175
1
176
1
 91
33
178
0
145
0.0
301
CELL_VALUE
 90
4
  1
Port
304
ACVALUE_END
170
5
140
0.145
171
1
172
0
173
0
174
0
175
1
176
1
 91
33
178
0
145
0.0
301
CELL_VALUE
 90
4
  1
Size
304
ACVALUE_END
170
5
140
0.145
171
1
172
0
173
0
174
0
175
1
176
1
 91
33
178
0
145
0.0
301
CELL_VALUE
 90
4
  1
ZTC
304
ACVALUE_END
170
5
140
0.125
171
1
172
0
173
0
174
0
175
1
176
1
 91
33
178
0
145
0.0
301
CELL_VALUE
 90
4
  1
Ports C2, V1, V2
304
ACVALUE_END
170
5
140
0.125
171
1
172
0
173
0
174
0
175
1
176
1
 91
33
178
0
145
0.0
301
CELL_VALUE
 90
4
  1
SAE 6
304
ACVALUE_END
170
5
140
0.125
  0
MTEXT
  5
28F
100
AcDbEntity
  8
0
100
AcDbMText
 62
2
  6
CONTINUOUS
  7
STANDARD
 71
1
 72
1
 10
0.52125
 20
5.75995
 30
0.0
 11
1.0
 21
0.0
 31
0.0
 44
0.6
  3
Notes\P \P1. Important: Carefully consider\P   the maximum system pressure. The\P   pressure rating of the manifold is\P   dependent on the manifold material,\P   with the port type/size a secondary\P   consideration. Manifolds\P   constructed of alu
  1
minum are not\P   rated for pressures higher than\P   3000 psi (210 bar), regardless of\P   the port type/size specified.
 40
0.1
 41
3.04
  0
LINE
  5
290
100
AcDbEntity
  8
0
100
AcDbLine
 62
7
  6
CONTINUOUS
 10
0.30125
 20
0.30125
 11
0.30125
 21
16.69875
  0
LINE
  5
291
100
AcDbEntity
  8
0
100
AcDbLine
 62
7
  6
CONTINUOUS
 10
0.30125
 20
0.30125
 11
21.69875
 21
0.30125
  0
LINE
  5
292
100
AcDbEntity
  8
0
100
AcDbLine
 62
7
  6
CONTINUOUS
 10
0.30125
 20
16.69875
 11
21.69875
 21
16.69875
  0
LINE
  5
293
100
AcDbEntity
  8
0
100
AcDbLine
 62
7
  6
CONTINUOUS
 10
21.69875
 20
0.30125
 11
21.69875
 21
16.69875
  0
LINE
  5
294
100
AcDbEntity
  8
0
100
AcDbLine
 62
7
  6
CONTINUOUS
 10
8.8819094672
 20
5.2272667857
 11
11.1769492965
 21
5.068105233
  0
LINE
  5
295
100
AcDbEntity
  8
0
100
AcDbLine
 62
7
  6
CONTINUOUS
 10
10.8230507035
 20
11.931894767
 11
8.8819094672
 21
10.0568962033
  0
LINE
  5
296
100
AcDbEntity
  8
0
100
AcDbLine
 62
7
  6
CONTINUOUS
 10
8.8819094672
 20
10.0568962033
 11
8.8819094672
 21
5.2272667857
  0
LINE
  5
297
100
AcDbEntity
  8
0
100
AcDbLine
 62
7
  6
CONTINUOUS
 10
13.1180905328
 20
11.7727332143
 11
11.1769492965
 21
9.8977346506
  0
LINE
  5
298
100
AcDbEntity
  8
0
100
AcDbLine
 62
4
  6
CONTINUOUS
 10
12.5693946107
 20
8.4048434102
 11
12.5538654811
 21
8.4043323099
  0
LINE
  5
299
100
AcDbEntity
  8
0
100
AcDbLine
 62
7
  6
CONTINUOUS
 10
11.1769492965
 20
5.068105233
 11
11.1769492965
 21
9.8977346506
  0
LINE
  5
29A
100
AcDbEntity
  8
0
100
AcDbLine
 62
4
  6
CONTINUOUS
 10
12.5383363516
 20
8.6935989683
 11
12.6004528698
 21
8.753598921
  0
LINE
  5
29B
100
AcDbEntity
  8
0
100
AcDbLine
 62
4
  6
CONTINUOUS
 10
12.5538654811
 20
8.4043323099
 11
12.5435127269
 21
8.4233100925
  0
LINE
  5
29C
100
AcDbEntity
  8
0
100
AcDbLine
 62
4
  6
CONTINUOUS
 10
12.5383363516
 20
8.4472878735
 11
12.5383363516
 21
8.4762656493
  0
LINE
  5
29D
100
AcDbEntity
  8
0
100
AcDbLine
 62
4
  6
CONTINUOUS
 10
12.6004528698
 20
8.536265602
 11
12.6004528698
 21
8.5072878262
  0
LINE
  5
29E
100
AcDbEntity
  8
0
100
AcDbLine
 62
4
  6
CONTINUOUS
 10
12.5383363516
 20
8.4762656493
 11
12.5435127269
 21
8.51024342
  0
LINE
  5
29F
100
AcDbEntity
  8
0
100
AcDbLine
 62
4
  6
CONTINUOUS
 10
12.6004528698
 20
8.5072878262
 11
12.5952764931
 21
8.4733100541
  0
LINE
  5
2A0
100
AcDbEntity
  8
0
100
AcDbLine
 62
4
  6
CONTINUOUS
 10
12.5435127269
 20
8.51024342
 11
12.5486891058
 21
8.5297323064
  0
LINE
  5
2A1
100
AcDbEntity
  8
0
100
AcDbLine
 62
4
  6
CONTINUOUS
 10
12.5952764931
 20
8.4733100541
 11
12.5849237402
 21
8.4343322863
  0
LINE
  5
2A2
100
AcDbEntity
  8
0
100
AcDbLine
 62
4
  6
CONTINUOUS
 10
12.5849237402
 20
8.4343322863
 11
12.5693946107
 21
8.4048434102
  0
LINE
  5
2A3
100
AcDbEntity
  8
0
100
AcDbLine
 62
7
  6
CONTINUOUS
 10
11.1769492965
 20
9.8977346506
 11
8.8819094672
 21
10.0568962033
  0
LINE
  5
2A4
100
AcDbEntity
  8
0
100
AcDbLine
 62
4
  6
CONTINUOUS
 10
12.5901001164
 20
8.5697322734
 11
12.5952764931
 21
8.5602433817
  0
LINE
  5
2A5
100
AcDbEntity
  8
0
100
AcDbLine
 62
4
  6
CONTINUOUS
 10
12.5435127269
 20
8.4233100925
 11
12.5383363516
 21
8.4472878735
  0
LINE
  5
2A6
100
AcDbEntity
  8
0
100
AcDbLine
 62
4
  6
CONTINUOUS
 10
12.5952764931
 20
8.5602433817
 11
12.6004528698
 21
8.536265602
  0
LINE
  5
2A7
100
AcDbEntity
  8
0
100
AcDbLine
 62
7
  6
CONTINUOUS
 10
13.1180905328
 20
6.9431037967
 11
13.1180905328
 21
11.7727332143
  0
LINE
  5
2A8
100
AcDbEntity
  8
0
100
AcDbLine
 62
7
  6
CONTINUOUS
 10
13.1180905328
 20
6.9431037967
 11
11.1769492965
 21
5.068105233
  0
LINE
  5
2A9
100
AcDbEntity
  8
0
100
AcDbLine
 62
7
  6
CONTINUOUS
 10
13.1180905328
 20
11.7727332143
 11
10.8230507035
 21
11.931894767
  0
ARC
  5
2AA
100
AcDbEntity
  8
0
100
AcDbCircle
 62
7
  6
CONTINUOUS
 10
10.1343927178
 20
6.0380988404
 40
0.8567639729
100
AcDbArc
 50
312.4669325461
 51
313.1970295628
  0
ARC
  5
2AB
100
AcDbEntity
  8
0
100
AcDbCircle
 62
7
  6
CONTINUOUS
 10
9.9575240686
 20
6.2212054612
 40
0.8566568834
100
AcDbArc
 50
134.9732927476
 51
135.5464426781
  0
ARC
  5
2AC
100
AcDbEntity
  8
0
100
AcDbCircle
 62
7
  6
CONTINUOUS
 10
12.0583729601
 20
8.3026204147
 40
0.4480590116
100
AcDbArc
 50
338.3511839401
 51
339.8597368703
  0
ARC
  5
2AD
100
AcDbEntity
  8
0
100
AcDbCircle
 62
7
  6
CONTINUOUS
 10
10.4201073502
 20
6.5441189372
 40
0.3165299277
100
AcDbArc
 50
291.2177142774
 51
303.6007518392
  0
SPLINE
  5
2AE
100
AcDbEntity
  8
0
100
AcDbSpline
 62
7
  6
CONTINUOUS
 70
0
 71
3
 72
15
 73
11
 74
0
 42
0.0000001
 43
0.0000001
 44
0.0000000001
 40
0.0
 40
0.0
 40
0.0
 40
0.0
 40
0.1324028024
 40
0.2626072896
 40
0.3905908434
 40
0.5162756028
 40
0.6394907438
 40
0.7606559572
 40
0.8805835402
 40
1.0
 40
1.0
 40
1.0
 40
1.0
 10
12.5311379888
 20
7.6907675494
 30
0.0
 10
12.5349441487
 20
7.6917796363
 30
0.0
 10
12.5424185004
 20
7.694081834
 30
0.0
 10
12.5532360645
 20
7.6983487324
 30
0.0
 10
12.5635375256
 20
7.7032962544
 30
0.0
 10
12.5733007446
 20
7.7088220491
 30
0.0
 10
12.5825279061
 20
7.7148372903
 30
0.0
 10
12.5912411937
 20
7.7212905381
 30
0.0
 10
12.5994901283
 20
7.7281504949
 30
0.0
 10
12.6047247598
 20
7.7329808442
 30
0.0
 10
12.6072791561
 20
7.7354491869
 30
0.0
  0
SPLINE
  5
2AF
100
AcDbEntity
  8
0
100
AcDbSpline
 62
7
  6
CONTINUOUS
 70
0
 71
3
 72
99
 73
95
 74
0
 42
0.0000001
 43
0.0000001
 44
0.0000000001
 40
0.0
 40
0.0
 40
0.0
 40
0.0
 40
0.0001750508
 40
0.0003194524
 40
0.0004329565
 40
0.0004780414
 40
0.0005153432
 40
0.0005449026
 40
0.0005667622
 40
0.000574818
 40
0.0005809653
 40
0.0005852107
 40
0.0005875643
 40
0.0005880934
 40
0.0005895725
 40
0.0005929202
 40
0.0005981434
 40
0.0006052397
 40
0.0006142051
 40
0.0006377254
 40
0.0007069951
 40
0.0008056564
 40
0.0009334173
 40
0.0010899932
 40
0.0014884854
 40
0.0019990171
 40
0.0026196055
 40
0.0033484091
 40
0.004183624
 40
0.0051229977
 40
0.0061641228
 40
0.0073046075
 40
0.0085420835
 40
0.0098742117
 40
0.0112986855
 40
0.0128132343
 40
0.0161036451
 40
0.0197298727
 40
0.0236787008
 40
0.0279370396
 40
0.0324918413
 40
0.0373302684
 40
0.0424416753
 40
0.0478172001
 40
0.0534479725
 40
0.0654393491
 40
0.0783508615
 40
0.0921288286
 40
0.1067207255
 40
0.1220792949
 40
0.1381609696
 40
0.1549224976
 40
0.1723236661
 40
0.1903249642
 40
0.2088871704
 40
0.227972293
 40
0.2675585575
 40
0.3087826212
 40
0.3513428548
 40
0.394936377
 40
0.4392581353
 40
0.4840012438
 40
0.5288578613
 40
0.5735199163
 40
0.6176796927
 40
0.6610308736
 40
0.7032689742
 40
0.7440916206
 40
0.7638783493
 40
0.7831980876
 40
0.8020131731
 40
0.8202852726
 40
0.8379758274
 40
0.8550461049
 40
0.8714552273
 40
0.8871618833
 40
0.9021233541
 40
0.9162928016
 40
0.9296229465
 40
0.9420590425
 40
0.953538378
 40
0.9639964682
 40
0.9688192936
 40
0.9733578526
 40
0.9776021905
 40
0.9815416251
 40
0.9851594459
 40
0.9884359567
 40
0.9913511314
 40
0.9938847274
 40
0.9960204976
 40
0.997753986
 40
0.9990819431
 40
1.0
 40
1.0
 40
1.0
 40
1.0
 10
12.5297692413
 20
7.8791436824
 30
0.0
 10
12.5298169466
 20
7.8790968134
 30
0.0
 10
12.5299035125
 20
7.8790107788
 30
0.0
 10
12.530019498
 20
7.8788928459
 30
0.0
 10
12.5300998484
 20
7.8788095205
 30
0.0
 10
12.53015154
 20
7.8787554001
 30
0.0
 10
12.5301810157
 20
7.8787244161
 30
0.0
 10
12.530204401
 20
7.8786998682
 30
0.0
 10
12.5302200254
 20
7.8786833969
 30
0.0
 10
12.5302296866
 20
7.8786735352
 30
0.0
 10
12.5302344687
 20
7.8786684265
 30
0.0
 10
12.5302382777
 20
7.8786651824
 30
0.0
 10
12.5302397434
 20
7.8786630612
 30
0.0
 10
12.5302417723
 20
7.8786624153
 30
0.0
 10
12.5302393858
 20
7.878665244
 30
0.0
 10
12.5302380002
 20
7.8786675023
 30
0.0
 10
12.5302338379
 20
7.8786726389
 30
0.0
 10
12.5302289554
 20
7.8786788099
 30
0.0
 10
12.5302193384
 20
7.8786906512
 30
0.0
 10
12.5301948279
 20
7.878720659
 30
0.0
 10
12.5301484089
 20
7.8787773213
 30
0.0
 10
12.5300773126
 20
7.8788650435
 30
0.0
 10
12.5299859162
 20
7.8789793368
 30
0.0
 10
12.5298245941
 20
7.8791843349
 30
0.0
 10
12.5295771451
 20
7.87950764
 30
0.0
 10
12.5292303369
 20
7.8799780166
 30
0.0
 10
12.528819478
 20
7.8805578151
 30
0.0
 10
12.528350247
 20
7.8812480985
 30
0.0
 10
12.5278284903
 20
7.8820497118
 30
0.0
 10
12.5272576465
 20
7.8829615331
 30
0.0
 10
12.5266412468
 20
7.8839822463
 30
0.0
 10
12.5259828503
 20
7.8851104671
 30
0.0
 10
12.5252860087
 20
7.8863448061
 30
0.0
 10
12.5245542663
 20
7.8876838663
 30
0.0
 10
12.5237911805
 20
7.8891262597
 30
0.0
 10
12.5227062531
 20
7.8912445535
 30
0.0
 10
12.5212968549
 20
7.8941413602
 30
0.0
 10
12.5195748828
 20
7.897918826
 30
0.0
 10
12.5177919192
 20
7.9020736179
 30
0.0
 10
12.5159626843
 20
7.9065934235
 30
0.0
 10
12.5141011316
 20
7.9114657038
 30
0.0
 10
12.5122217601
 20
7.9166789889
 30
0.0
 10
12.5103347938
 20
7.9222218124
 30
0.0
 10
12.5084469807
 20
7.9280832104
 30
0.0
 10
12.5058841644
 20
7.9364875135
 30
0.0
 10
12.5027350995
 20
7.947721379
 30
0.0
 10
12.4991320539
 20
7.9620547044
 30
0.0
 10
12.4956584914
 20
7.9774401112
 30
0.0
 10
12.4923451312
 20
7.9938156442
 30
0.0
 10
12.4892134227
 20
8.0111219205
 30
0.0
 10
12.4862793899
 20
8.0293028277
 30
0.0
 10
12.4835598007
 20
8.0483056094
 30
0.0
 10
12.4810651192
 20
8.0680785498
 30
0.0
 10
12.4788053171
 20
8.08857189
 30
0.0
 10
12.4767897106
 20
8.1097369988
 30
0.0
 10
12.474406451
 20
8.1391478706
 30
0.0
 10
12.4721007179
 20
8.1772471114
 30
0.0
 10
12.4704171021
 20
8.2243540619
 30
0.0
 10
12.4698072454
 20
8.2730180767
 30
0.0
 10
12.4702805796
 20
8.3228667875
 30
0.0
 10
12.4718369369
 20
8.3735276516
 30
0.0
 10
12.4744681775
 20
8.4246271702
 30
0.0
 10
12.478154396
 20
8.4757917533
 30
0.0
 10
12.4828700425
 20
8.5266479867
 30
0.0
 10
12.4885784582
 20
8.5768236553
 30
0.0
 10
12.495234907
 20
8.6259482724
 30
0.0
 10
12.5027862993
 20
8.6736529993
 30
0.0
 10
12.5098415457
 20
8.7123108272
 30
0.0
 10
12.5158990019
 20
8.7422410041
 30
0.0
 10
12.5205739204
 20
8.7638707133
 30
0.0
 10
12.5254171898
 20
8.7848699402
 30
0.0
 10
12.5304153565
 20
8.8051924906
 30
0.0
 10
12.5355538687
 20
8.8247917126
 30
0.0
 10
12.540818313
 20
8.8436195398
 30
0.0
 10
12.5461892865
 20
8.8616277691
 30
0.0
 10
12.5516467566
 20
8.8787664135
 30
0.0
 10
12.557168803
 20
8.8949830556
 30
0.0
 10
12.5627252605
 20
8.9102250954
 30
0.0
 10
12.5682867346
 20
8.9244341107
 30
0.0
 10
12.5738121214
 20
8.9375487417
 30
0.0
 10
12.5792476062
 20
8.9495051918
 30
0.0
 10
12.5837720186
 20
8.9586754727
 30
0.0
 10
12.5873037912
 20
8.9653736318
 30
0.0
 10
12.5898136959
 20
8.9699258308
 30
0.0
 10
12.5922455226
 20
8.9741346135
 30
0.0
 10
12.5945876108
 20
8.9779877334
 30
0.0
 10
12.5968178014
 20
8.9814748796
 30
0.0
 10
12.598910389
 20
8.9845843171
 30
0.0
 10
12.6008395636
 20
8.9873032113
 30
0.0
 10
12.6025802213
 20
8.9896202751
 30
0.0
 10
12.6041110135
 20
8.9915287833
 30
0.0
 10
12.6054023398
 20
8.9930375418
 30
0.0
 10
12.6064283544
 20
8.9941597812
 30
0.0
 10
12.6070284845
 20
8.9947734419
 30
0.0
 10
12.6072801911
 20
8.9950176951
 30
0.0
  0
SPLINE
  5
2B0
100
AcDbEntity
  8
0
100
AcDbSpline
 62
7
  6
CONTINUOUS
 70
0
 71
3
 72
71
 73
67
 74
0
 42
0.0000001
 43
0.0000001
 44
0.0000000001
 40
0.0
 40
0.0
 40
0.0
 40
0.0
 40
0.0113245106
 40
0.0227494085
 40
0.034308143
 40
0.0401442824
 40
0.0460240482
 40
0.0579542252
 40
0.0701781587
 40
0.0827688102
 40
0.0957811373
 40
0.1092325809
 40
0.1231329591
 40
0.1374902182
 40
0.1523058227
 40
0.1675754394
 40
0.1832936552
 40
0.1994518052
 40
0.2160329935
 40
0.2330184005
 40
0.2503883591
 40
0.2681192928
 40
0.2861856701
 40
0.3232180354
 40
0.3612543231
 40
0.4000452174
 40
0.4393272823
 40
0.4788297467
 40
0.518277913
 40
0.5573979635
 40
0.5959215882
 40
0.6335896686
 40
0.6701596249
 40
0.6879620393
 40
0.7054088426
 40
0.7224759245
 40
0.7391413819
 40
0.7553879658
 40
0.771199474
 40
0.7865621891
 40
0.8014696976
 40
0.8159178492
 40
0.8299060317
 40
0.8434447197
 40
0.8565484727
 40
0.8692387138
 40
0.881553137
 40
0.8875832776
 40
0.8935365431
 40
0.9052460336
 40
0.9110227993
 40
0.9167614108
 40
0.9224731806
 40
0.9281700076
 40
0.9338649817
 40
0.9395726256
 40
0.9453089137
 40
0.9510893647
 40
0.9569230335
 40
0.9628194576
 40
0.9687912137
 40
0.9748532525
 40
0.9810092133
 40
0.9872531851
 40
0.9935828736
 40
1.0
 40
1.0
 40
1.0
 40
1.0
 10
12.6072686463
 20
7.7354393771
 30
0.0
 10
12.6114404882
 20
7.7394674466
 30
0.0
 10
12.6195108655
 20
7.7478860475
 30
0.0
 10
12.6307753037
 20
7.7613827945
 30
0.0
 10
12.6395374729
 20
7.7732686632
 30
0.0
 10
12.6462342263
 20
7.7831290552
 30
0.0
 10
12.6527929474
 20
7.7933090471
 30
0.0
 10
12.6606662242
 20
7.8065273253
 30
0.0
 10
12.6696123589
 20
7.8230862964
 30
0.0
 10
12.6781902742
 20
7.8404582082
 30
0.0
 10
12.686473839
 20
7.8586645038
 30
0.0
 10
12.6944828947
 20
7.8777225485
 30
0.0
 10
12.702230559
 20
7.8976288408
 30
0.0
 10
12.7097273941
 20
7.9183749986
 30
0.0
 10
12.71698007
 20
7.9399485723
 30
0.0
 10
12.723990818
 20
7.9623331717
 30
0.0
 10
12.7307612126
 20
7.9855085808
 30
0.0
 10
12.7372911703
 20
8.0094496293
 30
0.0
 10
12.7435757757
 20
8.0341263317
 30
0.0
 10
12.749608844
 20
8.0595039248
 30
0.0
 10
12.7553834368
 20
8.0855448915
 30
0.0
 10
12.7608929391
 20
8.1122086919
 30
0.0
 10
12.7679335481
 20
8.1488340306
 30
0.0
 10
12.7759943667
 20
8.1958467804
 30
0.0
 10
12.784418034
 20
8.2535463069
 30
0.0
 10
12.7916128091
 20
8.3125725613
 30
0.0
 10
12.797529575
 20
8.3724947989
 30
0.0
 10
12.8021264097
 20
8.43287021
 30
0.0
 10
12.8053683787
 20
8.4932504492
 30
0.0
 10
12.8072318123
 20
8.5531875645
 30
0.0
 10
12.807700641
 20
8.6122405717
 30
0.0
 10
12.8067677031
 20
8.6699821733
 30
0.0
 10
12.80480727
 20
8.7170799352
 30
0.0
 10
12.8025157625
 20
8.7537869917
 30
0.0
 10
12.8004637362
 20
8.7804996352
 30
0.0
 10
12.7980645233
 20
8.8065987543
 30
0.0
 10
12.7953190521
 20
8.8320457301
 30
0.0
 10
12.7922281446
 20
8.8568053436
 30
0.0
 10
12.7887923303
 20
8.8808458751
 30
0.0
 10
12.785011157
 20
8.9041402366
 30
0.0
 10
12.7808810543
 20
8.9266660332
 30
0.0
 10
12.7763978252
 20
8.9484062151
 30
0.0
 10
12.7715554419
 20
8.9693507033
 30
0.0
 10
12.7663378348
 20
8.9894948702
 30
0.0
 10
12.7607279143
 20
9.0088426878
 30
0.0
 10
12.7547023278
 20
9.0274075495
 30
0.0
 10
12.7492581176
 20
9.0423428289
 30
0.0
 10
12.7446474379
 20
9.0539004786
 30
0.0
 10
12.7399177887
 20
9.065074056
 30
0.0
 10
12.7348688499
 20
9.0759696671
 30
0.0
 10
12.7294534178
 20
9.0865595978
 30
0.0
 10
12.725223756
 20
9.0943025992
 30
0.0
 10
12.7207955516
 20
9.1018865291
 30
0.0
 10
12.7161463884
 20
9.1093110064
 30
0.0
 10
12.7112509831
 20
9.1165732278
 30
0.0
 10
12.7060849136
 20
9.1236707921
 30
0.0
 10
12.7006240853
 20
9.1306002258
 30
0.0
 10
12.6948482216
 20
9.1373549122
 30
0.0
 10
12.6887278962
 20
9.1439124455
 30
0.0
 10
12.6822368059
 20
9.1502449986
 30
0.0
 10
12.6753497959
 20
9.1563235024
 30
0.0
 10
12.668048229
 20
9.1621143871
 30
0.0
 10
12.6603247976
 20
9.1675754288
 30
0.0
 10
12.6521810002
 20
9.1726526924
 30
0.0
 10
12.6436250453
 20
9.1772880402
 30
0.0
 10
12.6376925922
 20
9.1800241204
 30
0.0
 10
12.6346647919
 20
9.1813012038
 30
0.0
  0
SPLINE
  5
2B1
100
AcDbEntity
  8
0
100
AcDbSpline
 62
7
  6
CONTINUOUS
 70
0
 71
3
 72
69
 73
65
 74
0
 42
0.0000001
 43
0.0000001
 44
0.0000000001
 40
0.0
 40
0.0
 40
0.0
 40
0.0
 40
0.0155529016
 40
0.0311453657
 40
0.0467756546
 40
0.0624437271
 40
0.0781485859
 40
0.0938890747
 40
0.1096639662
 40
0.125471802
 40
0.1413109642
 40
0.1571796856
 40
0.1730760453
 40
0.1889979862
 40
0.204943327
 40
0.2209097693
 40
0.236894911
 40
0.2528962607
 40
0.2689112469
 40
0.2849372312
 40
0.3009715238
 40
0.3170113935
 40
0.3330540817
 40
0.3490968179
 40
0.3811666919
 40
0.4132037325
 40
0.4292055931
 40
0.4451913334
 40
0.4611584582
 40
0.4771045617
 40
0.4930273431
 40
0.5089246162
 40
0.5247943185
 40
0.5406345267
 40
0.5564434648
 40
0.5722195113
 40
0.5879612128
 40
0.603667291
 40
0.6193366472
 40
0.6349683731
 40
0.6505617571
 40
0.6661162853
 40
0.6816316484
 40
0.6971077471
 40
0.7125446897
 40
0.7279427945
 40
0.7433025929
 40
0.7586248246
 40
0.773910434
 40
0.7891605714
 40
0.8043765848
 40
0.8195600118
 40
0.8347125767
 40
0.8498361798
 40
0.8649328855
 40
0.8800049143
 40
0.8950546307
 40
0.9100845277
 40
0.9250972139
 40
0.9400954006
 40
0.9550818836
 40
0.9700595268
 40
0.985031248
 40
1.0
 40
1.0
 40
1.0
 40
1.0
 10
10.0294293819
 20
7.0640829623
 30
0.0
 10
10.041021353
 20
7.0632790563
 30
0.0
 10
10.0642076394
 20
7.0612462545
 30
0.0
 10
10.098894874
 20
7.0569358288
 30
0.0
 10
10.1334898019
 20
7.0513656022
 30
0.0
 10
10.1679451612
 20
7.0445433147
 30
0.0
 10
10.2022154904
 20
7.0364780084
 30
0.0
 10
10.2362549156
 20
7.0271804959
 30
0.0
 10
10.2700179786
 20
7.0166631745
 30
0.0
 10
10.3034596325
 20
7.0049401058
 30
0.0
 10
10.3365352551
 20
6.9920270125
 30
0.0
 10
10.3692006778
 20
6.9779410907
 30
0.0
 10
10.4014122949
 20
6.962701146
 30
0.0
 10
10.4331271459
 20
6.9463276025
 30
0.0
 10
10.464302885
 20
6.9288422879
 30
0.0
 10
10.4948978783
 20
6.9102685138
 30
0.0
 10
10.5248713349
 20
6.890631153
 30
0.0
 10
10.5541832428
 20
6.869956407
 30
0.0
 10
10.5827944395
 20
6.8482718198
 30
0.0
 10
10.6106667801
 20
6.8256064132
 30
0.0
 10
10.6377630923
 20
6.8019904173
 30
0.0
 10
10.6640470709
 20
6.777455399
 30
0.0
 10
10.689483992
 20
6.7520337692
 30
0.0
 10
10.7222175646
 20
6.7170098322
 30
0.0
 10
10.7608475945
 20
6.6711907368
 30
0.0
 10
10.796243038
 20
6.6228668126
 30
0.0
 10
10.8224938568
 20
6.5828703625
 30
0.0
 10
10.8411177257
 20
6.5522549508
 30
0.0
 10
10.8586576618
 20
6.5210541052
 30
0.0
 10
10.8750905112
 20
6.4893090595
 30
0.0
 10
10.8903943206
 20
6.4570623256
 30
0.0
 10
10.9045486485
 20
6.4243568999
 30
0.0
 10
10.9175345213
 20
6.3912364184
 30
0.0
 10
10.9293346683
 20
6.3577451177
 30
0.0
 10
10.9399333199
 20
6.3239276962
 30
0.0
 10
10.9493162314
 20
6.2898292701
 30
0.0
 10
10.9574709267
 20
6.2554953763
 30
0.0
 10
10.964386521
 20
6.2209718474
 30
0.0
 10
10.9700536779
 20
6.1863047538
 30
0.0
 10
10.9744648534
 20
6.1515403859
 30
0.0
 10
10.9776141802
 20
6.1167251581
 30
0.0
 10
10.9794973544
 20
6.0819055451
 30
0.0
 10
10.9801118472
 20
6.0471280415
 30
0.0
 10
10.9794568792
 20
6.0124390834
 30
0.0
 10
10.9775332406
 20
5.9778849912
 30
0.0
 10
10.974343448
 20
5.9435119142
 30
0.0
 10
10.969891816
 20
5.9093657499
 30
0.0
 10
10.9641842272
 20
5.8754921048
 30
0.0
 10
10.9572282206
 20
5.8419362368
 30
0.0
 10
10.9490331466
 20
5.8087429523
 30
0.0
 10
10.9396099145
 20
5.7759565914
 30
0.0
 10
10.9289710094
 20
5.7436209806
 30
0.0
 10
10.9171306964
 20
5.7117792987
 30
0.0
 10
10.9041047821
 20
5.6804740812
 30
0.0
 10
10.8899105665
 20
5.6497471934
 30
0.0
 10
10.8745670472
 20
5.6196396738
 30
0.0
 10
10.85809474
 20
5.5901917349
 30
0.0
 10
10.8405155653
 20
5.5614427698
 30
0.0
 10
10.8218530225
 20
5.5334311927
 30
0.0
 10
10.8021320781
 20
5.5061943937
 30
0.0
 10
10.7813790542
 20
5.4797688445
 30
0.0
 10
10.7596215338
 20
5.4541897496
 30
0.0
 10
10.7368891397
 20
5.4294917031
 30
0.0
 10
10.7211027703
 20
5.4136340535
 30
0.0
 10
10.7130590625
 20
5.4058644403
 30
0.0
  0
SPLINE
  5
2B2
100
AcDbEntity
  8
0
100
AcDbSpline
 62
7
  6
CONTINUOUS
 70
0
 71
3
 72
18
 73
14
 74
0
 42
0.0000001
 43
0.0000001
 44
0.0000000001
 40
0.0
 40
0.0
 40
0.0
 40
0.0
 40
0.1504660016
 40
0.2917105222
 40
0.4244368723
 40
0.5495624665
 40
0.668214014
 40
0.7255497707
 40
0.7817912017
 40
0.8371401776
 40
0.891809274
 40
0.9460199962
 40
1.0
 40
1.0
 40
1.0
 40
1.0
 10
12.6004528698
 20
9.1592877992
 30
0.0
 10
12.6025731986
 20
9.1613358797
 30
0.0
 10
12.6068109162
 20
9.1651786334
 30
0.0
 10
12.6133729491
 20
9.1702998056
 30
0.0
 10
12.6199273233
 20
9.1745828584
 30
0.0
 10
12.626467178
 20
9.1780207505
 30
0.0
 10
12.6319638287
 20
9.1802007699
 30
0.0
 10
12.6363279449
 20
9.1814959785
 30
0.0
 10
12.6395545515
 20
9.1822424679
 30
0.0
 10
12.6427704359
 20
9.1827745559
 30
0.0
 10
12.6459747224
 20
9.1830919503
 30
0.0
 10
12.6491661277
 20
9.1831944604
 30
0.0
 10
12.6512864026
 20
9.183119444
 30
0.0
 10
12.6523414528
 20
9.1830462702
 30
0.0
  0
SPLINE
  5
2B3
100
AcDbEntity
  8
0
100
AcDbSpline
 62
7
  6
CONTINUOUS
 70
0
 71
3
 72
17
 73
13
 74
0
 42
0.0000001
 43
0.0000001
 44
0.0000000001
 40
0.0
 40
0.0
 40
0.0
 40
0.0
 40
0.1504681883
 40
0.2917243824
 40
0.4244612681
 40
0.5495925261
 40
0.6682485046
 40
0.7817794377
 40
0.8371315341
 40
0.8918035522
 40
0.9460171661
 40
1.0
 40
1.0
 40
1.0
 40
1.0
 10
12.6004528698
 20
10.1561232759
 30
0.0
 10
12.6014253619
 20
10.1570626312
 30
0.0
 10
12.6033690765
 20
10.1588251488
 30
0.0
 10
12.6063788907
 20
10.1611741224
 30
0.0
 10
12.609385156
 20
10.1631386297
 30
0.0
 10
12.6123850655
 20
10.1647155677
 30
0.0
 10
12.6153756852
 20
10.165901797
 30
0.0
 10
12.6178795438
 20
10.1665678427
 30
0.0
 10
12.6198626269
 20
10.1668958721
 30
0.0
 10
12.62133237
 20
10.1670414415
 30
0.0
 10
12.6227961604
 20
10.1670884582
 30
0.0
 10
12.6237686672
 20
10.1670540522
 30
0.0
 10
12.6242525858
 20
10.1670204871
 30
0.0
  0
SPLINE
  5
2B4
100
AcDbEntity
  8
0
100
AcDbSpline
 62
7
  6
CONTINUOUS
 70
0
 71
3
 72
17
 73
13
 74
0
 42
0.0000001
 43
0.0000001
 44
0.0000000001
 40
0.0
 40
0.0
 40
0.0
 40
0.0
 40
0.1504681883
 40
0.2917243824
 40
0.4244612681
 40
0.5495925261
 40
0.6682485046
 40
0.7817794377
 40
0.8371315341
 40
0.8918035522
 40
0.9460171661
 40
1.0
 40
1.0
 40
1.0
 40
1.0
 10
12.6004528698
 20
7.3781205049
 30
0.0
 10
12.6014253619
 20
7.3790598602
 30
0.0
 10
12.6033690765
 20
7.3808223778
 30
0.0
 10
12.6063788907
 20
7.3831713514
 30
0.0
 10
12.609385156
 20
7.3851358587
 30
0.0
 10
12.6123850655
 20
7.3867127967
 30
0.0
 10
12.6153756852
 20
7.387899026
 30
0.0
 10
12.6178795438
 20
7.3885650717
 30
0.0
 10
12.6198626269
 20
7.3888931011
 30
0.0
 10
12.62133237
 20
7.3890386705
 30
0.0
 10
12.6227961604
 20
7.3890856872
 30
0.0
 10
12.6237686672
 20
7.3890512812
 30
0.0
 10
12.6242525858
 20
7.3890177161
 30
0.0
  0
SPLINE
  5
2B5
100
AcDbEntity
  8
0
100
AcDbSpline
 62
7
  6
CONTINUOUS
 70
0
 71
3
 72
57
 73
53
 74
0
 42
0.0000001
 43
0.0000001
 44
0.0000000001
 40
0.0
 40
0.0
 40
0.0
 40
0.0
 40
0.0311420813
 40
0.0624371963
 40
0.0938794207
 40
0.1254590778
 40
0.1571639599
 40
0.1889793152
 40
0.2208881995
 40
0.2528718309
 40
0.284909968
 40
0.3169813129
 40
0.3490639264
 40
0.3811356516
 40
0.4131745416
 40
0.4451592834
 40
0.4611273303
 40
0.4770743544
 40
0.4929980555
 40
0.5088962466
 40
0.5247668651
 40
0.5406079887
 40
0.5564178397
 40
0.572194797
 40
0.5879374088
 40
0.603644394
 40
0.6193146548
 40
0.6349472851
 40
0.6505415696
 40
0.6660969957
 40
0.6816132568
 40
0.6970902492
 40
0.7125280831
 40
0.727927079
 40
0.7432877647
 40
0.758610881
 40
0.7738973749
 40
0.7891483932
 40
0.8043652853
 40
0.8195495905
 40
0.8347030307
 40
0.8498275073
 40
0.8649250856
 40
0.879997985
 40
0.8950485708
 40
0.910079336
 40
0.9250928891
 40
0.9400919421
 40
0.9550792904
 40
0.9700577982
 40
0.9850303841
 40
1.0
 40
1.0
 40
1.0
 40
1.0
 10
10.0483231687
 20
9.1368573142
 30
0.0
 10
10.0686315922
 20
9.1354489202
 30
0.0
 10
10.1092602587
 20
9.1311387117
 30
0.0
 10
10.1697106759
 20
9.1202811812
 30
0.0
 10
10.2295136178
 20
9.1050730779
 30
0.0
 10
10.2883460958
 20
9.0855961028
 30
0.0
 10
10.3458955543
 20
9.0619546673
 30
0.0
 10
10.401855023
 20
9.0342752964
 30
0.0
 10
10.4559263771
 20
9.0027058459
 30
0.0
 10
10.507821478
 20
8.9674148614
 30
0.0
 10
10.5572638668
 20
8.9285907253
 30
0.0
 10
10.6039900997
 20
8.8864404442
 30
0.0
 10
10.6477510575
 20
8.8411888207
 30
0.0
 10
10.6883137962
 20
8.793076642
 30
0.0
 10
10.7254611321
 20
8.7423620381
 30
0.0
 10
10.753425129
 20
8.698125118
 30
0.0
 10
10.7738975192
 20
8.6617077579
 30
0.0
 10
10.7882764148
 20
8.6339306314
 30
0.0
 10
10.8016672337
 20
8.6057148352
 30
0.0
 10
10.8140522806
 20
8.577097591
 30
0.0
 10
10.8254149241
 20
8.5481171979
 30
0.0
 10
10.8357400997
 20
8.5188123444
 30
0.0
 10
10.8450139064
 20
8.4892221157
 30
0.0
 10
10.853223969
 20
8.4593860167
 30
0.0
 10
10.8603593917
 20
8.4293438932
 30
0.0
 10
10.8664105151
 20
8.3991358189
 30
0.0
 10
10.8713692974
 20
8.3688021345
 30
0.0
 10
10.8752291552
 20
8.33838334
 30
0.0
 10
10.877984791
 20
8.3079200304
 30
0.0
 10
10.879632592
 20
8.2774528891
 30
0.0
 10
10.8801703625
 20
8.2470225919
 30
0.0
 10
10.8795972419
 20
8.2166697705
 30
0.0
 10
10.8779140853
 20
8.186434957
 30
0.0
 10
10.875123109
 20
8.1563585227
 30
0.0
 10
10.8712279148
 20
8.1264806474
 30
0.0
 10
10.866233806
 20
8.0968412214
 30
0.0
 10
10.8601473881
 20
8.0674798355
 30
0.0
 10
10.8529766941
 20
8.0384357293
 30
0.0
 10
10.8447314035
 20
8.0097476717
 30
0.0
 10
10.8354224381
 20
7.9814540045
 30
0.0
 10
10.8250621749
 20
7.9535925466
 30
0.0
 10
10.8136645455
 20
7.9262004817
 30
0.0
 10
10.8012446665
 20
7.8993144459
 30
0.0
 10
10.7878191141
 20
7.8729703718
 30
0.0
 10
10.7734058993
 20
7.8472034153
 30
0.0
 10
10.7580241624
 20
7.8220480661
 30
0.0
 10
10.7416944799
 20
7.7975379295
 30
0.0
 10
10.7244387145
 20
7.773705708
 30
0.0
 10
10.7062798429
 20
7.750583356
 30
0.0
 10
10.6872420665
 20
7.7282016271
 30
0.0
 10
10.6673512905
 20
7.7065907968
 30
0.0
 10
10.6535382159
 20
7.692715372
 30
0.0
 10
10.6464999902
 20
7.6859169501
 30
0.0
  0
SPLINE
  5
2B6
100
AcDbEntity
  8
0
100
AcDbSpline
 62
7
  6
CONTINUOUS
 70
0
 71
3
 72
29
 73
25
 74
0
 42
0.0000001
 43
0.0000001
 44
0.0000000001
 40
0.0
 40
0.0
 40
0.0
 40
0.0
 40
0.0875305687
 40
0.1729309186
 40
0.2557784811
 40
0.3356838868
 40
0.4123021523
 40
0.4853377598
 40
0.5545518586
 40
0.6197680904
 40
0.6808778974
 40
0.7098830995
 40
0.7378532906
 40
0.7647962581
 40
0.7907228499
 40
0.8156502535
 40
0.8395987914
 40
0.8625948484
 40
0.8846684483
 40
0.9058547639
 40
0.9261935915
 40
0.945728489
 40
0.9645086152
 40
1.0
 40
1.0
 40
1.0
 40
1.0
 10
10.181471638
 20
7.6021444957
 30
0.0
 10
10.1756533708
 20
7.6025479939
 30
0.0
 10
10.1641738984
 20
7.6035940873
 30
0.0
 10
10.1472833775
 20
7.6059102
 30
0.0
 10
10.1310198928
 20
7.6089282907
 30
0.0
 10
10.1154936938
 20
7.6126077444
 30
0.0
 10
10.1008042895
 20
7.6168969905
 30
0.0
 10
10.0870390682
 20
7.6217353257
 30
0.0
 10
10.0742713746
 20
7.6270549966
 30
0.0
 10
10.0625601528
 20
7.6327831908
 30
0.0
 10
10.0535657604
 20
7.6379208939
 30
0.0
 10
10.0469468203
 20
7.6421775765
 30
0.0
 10
10.0423542356
 20
7.6453694434
 30
0.0
 10
10.0380477436
 20
7.6486069773
 30
0.0
 10
10.0340275536
 20
7.6518815466
 30
0.0
 10
10.0302930211
 20
7.6551844855
 30
0.0
 10
10.0268427907
 20
7.6585077219
 30
0.0
 10
10.0236747818
 20
7.6618434138
 30
0.0
 10
10.0207862732
 20
7.6651842039
 30
0.0
 10
10.0181740116
 20
7.6685232133
 30
0.0
 10
10.0158342355
 20
7.6718537941
 30
0.0
 10
10.0137626248
 20
7.6751703965
 30
0.0
 10
10.0113970631
 20
7.6794835947
 30
0.0
 10
10.0099370364
 20
7.682805197
 30
0.0
 10
10.0091324175
 20
7.6850289276
 30
0.0
  0
SPLINE
  5
2B7
100
AcDbEntity
  8
0
100
AcDbSpline
 62
7
  6
CONTINUOUS
 70
0
 71
3
 72
26
 73
22
 74
0
 42
0.0000001
 43
0.0000001
 44
0.0000000001
 40
0.0
 40
0.0
 40
0.0
 40
0.0
 40
0.0638610131
 40
0.0957116695
 40
0.1275060289
 40
0.1909252185
 40
0.254128779
 40
0.2856539788
 40
0.3171277422
 40
0.3485511968
 40
0.3799255762
 40
0.4425274879
 40
0.5049513697
 40
0.5672117294
 40
0.629324845
 40
0.691308596
 40
0.7531822793
 40
0.8149664053
 40
0.8766824763
 40
0.9383527513
 40
1.0
 40
1.0
 40
1.0
 40
1.0
 10
10.0483231687
 20
9.1368573142
 30
0.0
 10
10.034440487
 20
9.1378200814
 30
0.0
 10
10.0135928333
 20
9.1387445788
 30
0.0
 10
9.9858063441
 20
9.1389272872
 30
0.0
 10
9.9581197728
 20
9.1384108984
 30
0.0
 10
9.9236385287
 20
9.1364576008
 30
0.0
 10
9.8893595489
 20
9.1327558087
 30
0.0
 10
9.8621490626
 20
9.1287519569
 30
0.0
 10
9.841874113
 20
9.1252331017
 30
0.0
 10
9.8217289883
 20
9.1211982959
 30
0.0
 10
9.7950807296
 20
9.1151388074
 30
0.0
 10
9.7621509996
 20
9.1062890614
 30
0.0
 10
9.7233279944
 20
9.0936453355
 30
0.0
 10
9.6853219201
 20
9.0790166407
 30
0.0
 10
9.6482292331
 20
9.0624398607
 30
0.0
 10
9.6121432186
 20
9.0439566432
 30
0.0
 10
9.5771548415
 20
9.0236134767
 30
0.0
 10
9.5433523456
 20
9.0014616331
 30
0.0
 10
9.5108206274
 20
8.9775566021
 30
0.0
 10
9.4796427889
 20
8.9519596368
 30
0.0
 10
9.459808529
 20
8.9338062825
 30
0.0
 10
9.4501463471
 20
8.9244733069
 30
0.0
  0
SPLINE
  5
2B8
100
AcDbEntity
  8
0
100
AcDbSpline
 62
7
  6
CONTINUOUS
 70
0
 71
3
 72
42
 73
38
 74
0
 42
0.0000001
 43
0.0000001
 44
0.0000000001
 40
0.0
 40
0.0
 40
0.0
 40
0.0
 40
0.0307716097
 40
0.0616583362
 40
0.0926563378
 40
0.1237620351
 40
0.1549696732
 40
0.1862727176
 40
0.217663418
 40
0.2491330801
 40
0.2806721178
 40
0.3122701784
 40
0.3439162591
 40
0.3755988311
 40
0.4073059675
 40
0.4390254745
 40
0.4707450239
 40
0.502452287
 40
0.5341350684
 40
0.565781439
 40
0.5973798664
 40
0.6289193439
 40
0.660389514
 40
0.691780787
 40
0.7230844534
 40
0.7542927881
 40
0.7853991462
 40
0.8163980497
 40
0.8472852615
 40
0.86268743
 40
0.8780606913
 40
0.9087170725
 40
0.9392570553
 40
0.9544851884
 40
0.9696847947
 40
0.984856247
 40
1.0
 40
1.0
 40
1.0
 40
1.0
 10
10.0459937875
 20
6.726554077
 30
0.0
 10
10.0569267646
 20
6.7257958725
 30
0.0
 10
10.0787966537
 20
6.7236770452
 30
0.0
 10
10.1114367464
 20
6.7187186522
 30
0.0
 10
10.1438804546
 20
6.7119886046
 30
0.0
 10
10.1760288256
 20
6.7035075699
 30
0.0
 10
10.2077857296
 20
6.6933009342
 30
0.0
 10
10.2390556006
 20
6.6813995639
 30
0.0
 10
10.2697445315
 20
6.6678392552
 30
0.0
 10
10.2997603155
 20
6.6526608409
 30
0.0
 10
10.329012784
 20
6.6359099791
 30
0.0
 10
10.3574140598
 20
6.6176370482
 30
0.0
 10
10.3848788287
 20
6.5978969947
 30
0.0
 10
10.4113245899
 20
6.5767491625
 30
0.0
 10
10.4366719012
 20
6.5542571141
 30
0.0
 10
10.4608446157
 20
6.5304884401
 30
0.0
 10
10.4837701095
 20
6.5055145581
 30
0.0
 10
10.5053794977
 20
6.479410499
 30
0.0
 10
10.5256078404
 20
6.4522546833
 30
0.0
 10
10.5443943369
 20
6.4241286875
 30
0.0
 10
10.5616825061
 20
6.3951169999
 30
0.0
 10
10.5774203652
 20
6.3653067739
 30
0.0
 10
10.5915605806
 20
6.334787562
 30
0.0
 10
10.6040606061
 20
6.3036510524
 30
0.0
 10
10.6148828128
 20
6.2719907763
 30
0.0
 10
10.623994596
 20
6.2399019021
 30
0.0
 10
10.6313684972
 20
6.2074806837
 30
0.0
 10
10.6369822003
 20
6.174825168
 30
0.0
 10
10.6401824792
 20
6.1474711422
 30
0.0
 10
10.6418455855
 20
6.1255708622
 30
0.0
 10
10.6429089171
 20
6.103715556
 30
0.0
 10
10.6431194318
 20
6.0764318323
 30
0.0
 10
10.6418320276
 20
6.0492290808
 30
0.0
 10
10.6399042522
 20
6.0275989775
 30
0.0
 10
10.6380129825
 20
6.0114671994
 30
0.0
 10
10.6356765945
 20
5.9954244592
 30
0.0
 10
10.6338215323
 20
5.9847866207
 30
0.0
 10
10.6328203296
 20
5.9794869522
 30
0.0
  0
SPLINE
  5
2B9
100
AcDbEntity
  8
0
100
AcDbSpline
 62
7
  6
CONTINUOUS
 70
0
 71
3
 72
48
 73
44
 74
0
 42
0.0000001
 43
0.0000001
 44
0.0000000001
 40
0.0
 40
0.0
 40
0.0
 40
0.0
 40
0.0311434721
 40
0.0624399666
 40
0.0938836352
 40
0.1254646878
 40
0.1571709923
 40
0.1889877701
 40
0.2208980823
 40
0.2528831449
 40
0.2849227157
 40
0.3169954956
 40
0.3490795442
 40
0.3811527041
 40
0.4131930275
 40
0.445179201
 40
0.4770909609
 40
0.5089094952
 40
0.5406178251
 40
0.572201158
 40
0.6036472086
 40
0.6349464778
 40
0.6660924861
 40
0.6970819511
 40
0.7279149056
 40
0.7432762798
 40
0.7586000808
 40
0.7738872593
 40
0.7891389593
 40
0.8043565332
 40
0.8195415168
 40
0.8346956352
 40
0.8498207892
 40
0.8649190416
 40
0.879992617
 40
0.8950438751
 40
0.9100753129
 40
0.9250895383
 40
0.9400892617
 40
0.955077281
 40
0.9700564586
 40
0.9850297149
 40
1.0
 40
1.0
 40
1.0
 40
1.0
 10
10.1174117405
 20
6.6902526051
 30
0.0
 10
10.1294175322
 20
6.6894200006
 30
0.0
 10
10.153436097
 20
6.6868719312
 30
0.0
 10
10.1891727574
 20
6.6804532355
 30
0.0
 10
10.2245266427
 20
6.6714626073
 30
0.0
 10
10.2593068245
 20
6.6599483364
 30
0.0
 10
10.2933285174
 20
6.6459721814
 30
0.0
 10
10.3264102458
 20
6.6296088768
 30
0.0
 10
10.3583757747
 20
6.6109458723
 30
0.0
 10
10.3890547665
 20
6.5900828038
 30
0.0
 10
10.4182837664
 20
6.5671310042
 30
0.0
 10
10.4459070346
 20
6.5422128907
 30
0.0
 10
10.471777369
 20
6.515461316
 30
0.0
 10
10.4957568804
 20
6.4870188681
 30
0.0
 10
10.5177177194
 20
6.4570371175
 30
0.0
 10
10.5375427519
 20
6.4256758197
 30
0.0
 10
10.5551261748
 20
6.3931020721
 30
0.0
 10
10.5703740965
 20
6.3594894448
 30
0.0
 10
10.5832050263
 20
6.3250170557
 30
0.0
 10
10.5935503031
 20
6.2898686364
 30
0.0
 10
10.6013544584
 20
6.254231526
 30
0.0
 10
10.6065755422
 20
6.2182958415
 30
0.0
 10
10.6091852646
 20
6.1822529071
 30
0.0
 10
10.6091694948
 20
6.1462963618
 30
0.0
 10
10.606964696
 20
6.1165224554
 30
0.0
 10
10.6038908694
 20
6.0929452957
 30
0.0
 10
10.6009384479
 20
6.0754230779
 30
0.0
 10
10.5973403546
 20
6.0580654633
 30
0.0
 10
10.5931012014
 20
6.0408953643
 30
0.0
 10
10.5882268495
 20
6.0239357496
 30
0.0
 10
10.5827235884
 20
6.0072093119
 30
0.0
 10
10.576598925
 20
5.9907383531
 30
0.0
 10
10.5698609349
 20
5.9745449093
 30
0.0
 10
10.5625186167
 20
5.9586506201
 30
0.0
 10
10.5545818479
 20
5.9430766843
 30
0.0
 10
10.5460610756
 20
5.927843992
 30
0.0
 10
10.5369678632
 20
5.9129727942
 30
0.0
 10
10.5273141652
 20
5.8984830808
 30
0.0
 10
10.5171130264
 20
5.8843941111
 30
0.0
 10
10.5063779968
 20
5.870724795
 30
0.0
 10
10.4951233698
 20
5.8574933256
 30
0.0
 10
10.4833644867
 20
5.8447175786
 30
0.0
 10
10.4751985657
 20
5.8365148045
 30
0.0
 10
10.4710377504
 20
5.8324957672
 30
0.0
  0
SPLINE
  5
2BA
100
AcDbEntity
  8
0
100
AcDbSpline
 62
7
  6
CONTINUOUS
 70
0
 71
3
 72
11
 73
7
 74
0
 42
0.0000001
 43
0.0000001
 44
0.0000000001
 40
0.0
 40
0.0
 40
0.0
 40
0.0
 40
0.2514150539
 40
0.5018811125
 40
0.751400481
 40
1.0
 40
1.0
 40
1.0
 40
1.0
 10
10.0459937875
 20
6.726554077
 30
0.0
 10
10.0351206479
 20
6.7273081318
 30
0.0
 10
10.0133697474
 20
6.7282232278
 30
0.0
 10
9.980782063
 20
6.7278040198
 30
0.0
 10
9.9483890654
 20
6.7255918094
 30
0.0
 10
9.9269472278
 20
6.7229207606
 30
0.0
 10
9.9162943824
 20
6.7212883205
 30
0.0
  0
SPLINE
  5
2BB
100
AcDbEntity
  8
0
100
AcDbSpline
 62
7
  6
CONTINUOUS
 70
0
 71
3
 72
25
 73
21
 74
0
 42
0.0000001
 43
0.0000001
 44
0.0000000001
 40
0.0
 40
0.0
 40
0.0
 40
0.0
 40
0.0638606062
 40
0.127501931
 40
0.1909209657
 40
0.2541249291
 40
0.2856503153
 40
0.3171242077
 40
0.3799170458
 40
0.442519266
 40
0.5049434402
 40
0.5672040996
 40
0.6293175121
 40
0.6913015565
 40
0.753175533
 40
0.8149599549
 40
0.876676324
 40
0.9075186986
 40
0.9383524581
 40
1.0
 40
1.0
 40
1.0
 40
1.0
 10
10.1174117405
 20
6.6902526051
 30
0.0
 10
10.1092047648
 20
6.6908217608
 30
0.0
 10
10.0927876665
 20
6.6915497915
 30
0.0
 10
10.0681831658
 20
6.6914031903
 30
0.0
 10
10.0437016546
 20
6.6900162609
 30
0.0
 10
10.0234367427
 20
6.6878279527
 30
0.0
 10
10.0073505798
 20
6.6854608845
 30
0.0
 10
9.9913828632
 20
6.6826896948
 30
0.0
 10
9.9716113081
 20
6.6784639869
 30
0.0
 10
9.9482347261
 20
6.6721815114
 30
0.0
 10
9.9252832866
 20
6.6647068236
 30
0.0
 10
9.9028152012
 20
6.6560587657
 30
0.0
 10
9.880886982
 20
6.6462590032
 30
0.0
 10
9.859553928
 20
6.6353322227
 30
0.0
 10
9.8388696929
 20
6.6233058596
 30
0.0
 10
9.8188867296
 20
6.6102104355
 30
0.0
 10
9.8028561259
 20
6.598430787
 30
0.0
 10
9.7904349635
 20
6.5885088919
 30
0.0
 10
9.7782917445
 20
6.5782630029
 30
0.0
 10
9.7694977604
 20
6.5702142884
 30
0.0
 10
9.7637857306
 20
6.5646968935
 30
0.0
  0
SPLINE
  5
2BC
100
AcDbEntity
  8
0
100
AcDbSpline
 62
7
  6
CONTINUOUS
 70
0
 71
3
 72
26
 73
22
 74
0
 42
0.0000001
 43
0.0000001
 44
0.0000000001
 40
0.0
 40
0.0
 40
0.0
 40
0.0
 40
0.0616472489
 40
0.1233175247
 40
0.1850335968
 40
0.2468177237
 40
0.3086914075
 40
0.3706751582
 40
0.432788273
 40
0.4950486315
 40
0.5574725124
 40
0.620074425
 40
0.6514488035
 40
0.6828722546
 40
0.7143460293
 40
0.7458712347
 40
0.8090747432
 40
0.8724940722
 40
0.9042883921
 40
0.9361388178
 40
1.0
 40
1.0
 40
1.0
 40
1.0
 10
9.3457997012
 20
6.8213593454
 30
0.0
 10
9.3568421969
 20
6.8320255607
 30
0.0
 10
9.3795099028
 20
6.8527721894
 30
0.0
 10
9.4151417009
 20
6.8820257538
 30
0.0
 10
9.4523207798
 20
6.9093456851
 30
0.0
 10
9.4909521709
 20
6.9346619748
 30
0.0
 10
9.5309388469
 20
6.9579112101
 30
0.0
 10
9.5721799566
 20
6.9790347976
 30
0.0
 10
9.6145715389
 20
6.9979796128
 30
0.0
 10
9.6580069831
 20
7.0146980623
 30
0.0
 10
9.7023760591
 20
7.0291479793
 30
0.0
 10
9.7400099676
 20
7.039261958
 30
0.0
 10
9.7704650747
 20
7.046187025
 30
0.0
 10
9.7934880277
 20
7.0507982562
 30
0.0
 10
9.8166593712
 20
7.0548197309
 30
0.0
 10
9.8477569966
 20
7.0593956004
 30
0.0
 10
9.8869329296
 20
7.0636261846
 30
0.0
 10
9.9263400064
 20
7.0658584977
 30
0.0
 10
9.9579817119
 20
7.0664486385
 30
0.0
 10
9.9897376164
 20
7.0662398541
 30
0.0
 10
10.013563447
 20
7.0651832686
 30
0.0
 10
10.0294293819
 20
7.0640829623
 30
0.0
  0
SPLINE
  5
2BD
100
AcDbEntity
  8
0
100
AcDbSpline
 62
7
  6
CONTINUOUS
 70
0
 71
3
 72
51
 73
47
 74
0
 42
0.0000001
 43
0.0000001
 44
0.0000000001
 40
0.0
 40
0.0
 40
0.0
 40
0.0
 40
0.0046797787
 40
0.0093373298
 40
0.014021657
 40
0.0187800089
 40
0.0236567249
 40
0.0286924633
 40
0.0339240148
 40
0.0393841259
 40
0.0451017431
 40
0.0511025487
 40
0.0574091379
 40
0.06404144
 40
0.0710174214
 40
0.0783532156
 40
0.0860633484
 40
0.0941612552
 40
0.1026594196
 40
0.1115694216
 40
0.1209021788
 40
0.1306681066
 40
0.1408771388
 40
0.1515386905
 40
0.162661804
 40
0.1742552651
 40
0.1988845645
 40
0.2254887539
 40
0.2541202716
 40
0.2848209287
 40
0.3176188481
 40
0.3525246158
 40
0.3895270468
 40
0.4285888412
 40
0.4696424383
 40
0.5125865463
 40
0.5572838731
 40
0.6035605286
 40
0.6512069274
 40
0.6999808341
 40
0.7496120495
 40
0.7998082166
 40
0.8502616387
 40
0.9006562794
 40
0.9506732136
 40
1.0
 40
1.0
 40
1.0
 40
1.0
 10
10.5218398929
 20
7.7374831725
 30
0.0
 10
10.5220461062
 20
7.7369130474
 30
0.0
 10
10.5224016424
 20
7.7357543223
 30
0.0
 10
10.5227582286
 20
7.7339701766
 30
0.0
 10
10.5229364602
 20
7.7321491751
 30
0.0
 10
10.5229376485
 20
7.7302913105
 30
0.0
 10
10.5227634807
 20
7.7283961278
 30
0.0
 10
10.5224148902
 20
7.726463087
 30
0.0
 10
10.5218924846
 20
7.7244915898
 30
0.0
 10
10.521196967
 20
7.7224808678
 30
0.0
 10
10.5203285446
 20
7.7204301175
 30
0.0
 10
10.5192867796
 20
7.7183387103
 30
0.0
 10
10.5180712924
 20
7.716205935
 30
0.0
 10
10.5166815128
 20
7.7140310589
 30
0.0
 10
10.5151161984
 20
7.7118136886
 30
0.0
 10
10.5133741055
 20
7.7095534015
 30
0.0
 10
10.5114539679
 20
7.7072497116
 30
0.0
 10
10.5093539772
 20
7.7049025055
 30
0.0
 10
10.5070722032
 20
7.7025117496
 30
0.0
 10
10.5046067734
 20
7.7000773147
 30
0.0
 10
10.5019554208
 20
7.697599427
 30
0.0
 10
10.4991156778
 20
7.6950785265
 30
0.0
 10
10.4960851847
 20
7.6925149473
 30
0.0
 10
10.4928612805
 20
7.6899094182
 30
0.0
 10
10.4894411249
 20
7.6872629402
 30
0.0
 10
10.4845157035
 20
7.6836068337
 30
0.0
 10
10.4778401554
 20
7.678946537
 30
0.0
 10
10.4691537825
 20
7.6733217372
 30
0.0
 10
10.4596149729
 20
7.6675770827
 30
0.0
 10
10.4492029913
 20
7.6617381792
 30
0.0
 10
10.437900274
 20
7.6558374383
 30
0.0
 10
10.4256945331
 20
7.6499148323
 30
0.0
 10
10.4125807655
 20
7.6440184651
 30
0.0
 10
10.3985635385
 20
7.6382048319
 30
0.0
 10
10.3836592821
 20
7.6325386761
 30
0.0
 10
10.3678984564
 20
7.6270923365
 30
0.0
 10
10.351327372
 20
7.6219444777
 30
0.0
 10
10.3340094974
 20
7.6171782015
 30
0.0
 10
10.3160260522
 20
7.6128785638
 30
0.0
 10
10.2974757865
 20
7.6091296378
 30
0.0
 10
10.2784739102
 20
7.6060112787
 30
0.0
 10
10.2591501982
 20
7.6035958564
 30
0.0
 10
10.2396465172
 20
7.6019451288
 30
0.0
 10
10.2201136972
 20
7.6011076417
 30
0.0
 10
10.2007088945
 20
7.601116332
 30
0.0
 10
10.1878466885
 20
7.6017023844
 30
0.0
 10
10.181471638
 20
7.6021444957
 30
0.0
  0
SPLINE
  5
2BE
100
AcDbEntity
  8
0
100
AcDbSpline
 62
7
  6
CONTINUOUS
 70
0
 71
3
 72
73
 73
69
 74
0
 42
0.0000001
 43
0.0000001
 44
0.0000000001
 40
0.0
 40
0.0
 40
0.0
 40
0.0
 40
0.0052142104
 40
0.0104480679
 40
0.0157123584
 40
0.0210169442
 40
0.0263708164
 40
0.0317823638
 40
0.037259464
 40
0.0428092559
 40
0.048437624
 40
0.0541499675
 40
0.0599513992
 40
0.0658463094
 40
0.0779294629
 40
0.0904235646
 40
0.1033443434
 40
0.1167020969
 40
0.1305011854
 40
0.1447419472
 40
0.1594206296
 40
0.1745301197
 40
0.1900605794
 40
0.2059993969
 40
0.2223319163
 40
0.2390414605
 40
0.2561095525
 40
0.2735162894
 40
0.2912402968
 40
0.309259025
 40
0.3275488839
 40
0.3460852566
 40
0.38379467
 40
0.422176474
 40
0.461010825
 40
0.5000723639
 40
0.5391330155
 40
0.577964722
 40
0.6163421482
 40
0.654045497
 40
0.6725782506
 40
0.6908640712
 40
0.7088784101
 40
0.7265976772
 40
0.7439992928
 40
0.7610619919
 40
0.7777658169
 40
0.7940923305
 40
0.810024958
 40
0.8255489275
 40
0.8406518224
 40
0.8553237756
 40
0.8695576378
 40
0.8833499533
 40
0.8967007676
 40
0.9096149033
 40
0.9221024512
 40
0.9281911869
 40
0.9341797804
 40
0.9458699443
 40
0.957204565
 40
0.9682265785
 40
0.9736365522
 40
0.9789888283
 40
0.9842917405
 40
0.9895542303
 40
0.994786426
 40
1.0
 40
1.0
 40
1.0
 40
1.0
 10
12.587385164
 20
8.9648141108
 30
0.0
 10
12.5885071515
 20
8.9632836197
 30
0.0
 10
12.5907027333
 20
8.9601779445
 30
0.0
 10
12.593850801
 20
8.9554029259
 30
0.0
 10
12.5968690438
 20
8.9505061866
 30
0.0
 10
12.5997694731
 20
8.945488382
 30
0.0
 10
12.6025607344
 20
8.9403480429
 30
0.0
 10
12.6052501859
 20
8.9350831866
 30
0.0
 10
12.6078454643
 20
8.9296921062
 30
0.0
 10
12.6103538705
 20
8.9241733209
 30
0.0
 10
12.6127799566
 20
8.9185245959
 30
0.0
 10
12.6151281334
 20
8.9127441169
 30
0.0
 10
12.617402824
 20
8.9068302992
 30
0.0
 10
12.6203671518
 20
8.8986989182
 30
0.0
 10
12.6239007658
 20
8.8881844592
 30
0.0
 10
12.6278565207
 20
8.8751211414
 30
0.0
 10
12.6315742194
 20
8.8615067814
 30
0.0
 10
12.6350633616
 20
8.8473426676
 30
0.0
 10
12.6383295043
 20
8.8326331384
 30
0.0
 10
12.6413766084
 20
8.8173862593
 30
0.0
 10
12.6442065997
 20
8.8016129382
 30
0.0
 10
12.6468204087
 20
8.7853268867
 30
0.0
 10
12.6492180845
 20
8.7685442857
 30
0.0
 10
12.6513990875
 20
8.7512834716
 30
0.0
 10
12.6533625589
 20
8.7335648031
 30
0.0
 10
12.6551073829
 20
8.7154103844
 30
0.0
 10
12.656632409
 20
8.6968439207
 30
0.0
 10
12.6579364475
 20
8.6778905632
 30
0.0
 10
12.6590184216
 20
8.6585767286
 30
0.0
 10
12.6598773952
 20
8.6389300021
 30
0.0
 10
12.6605126005
 20
8.6189789584
 30
0.0
 10
12.6610635417
 20
8.5918570041
 30
0.0
 10
12.661181294
 20
8.5574147055
 30
0.0
 10
12.6604283989
 20
8.5155916208
 30
0.0
 10
12.6587876691
 20
8.4733014628
 30
0.0
 10
12.6562699619
 20
8.4308070287
 30
0.0
 10
12.6528911784
 20
8.3883733433
 30
0.0
 10
12.648672205
 20
8.3462650766
 30
0.0
 10
12.6436385822
 20
8.3047439787
 30
0.0
 10
12.6387625997
 20
8.2706535374
 30
0.0
 10
12.6344692041
 20
8.2438729514
 30
0.0
 10
12.6310832745
 20
8.2242055136
 30
0.0
 10
12.6275178199
 20
8.2048708097
 30
0.0
 10
12.6237775205
 20
8.1858970271
 30
0.0
 10
12.6198671011
 20
8.1673113338
 30
0.0
 10
12.6157913107
 20
8.1491397311
 30
0.0
 10
12.6115547546
 20
8.131406944
 30
0.0
 10
12.6071618735
 20
8.114136257
 30
0.0
 10
12.6026168
 20
8.09734941
 30
0.0
 10
12.5979231909
 20
8.0810663883
 30
0.0
 10
12.5930841164
 20
8.0653052638
 30
0.0
 10
12.5881016844
 20
8.0500820561
 30
0.0
 10
12.5829769829
 20
8.0354103524
 30
0.0
 10
12.5777093612
 20
8.0213013497
 30
0.0
 10
12.572296254
 20
8.0077632858
 30
0.0
 10
12.5667324501
 20
7.9948015271
 30
0.0
 10
12.5619232804
 20
7.984396557
 30
0.0
 10
12.5579874428
 20
7.9763688159
 30
0.0
 10
12.5540562359
 20
7.9686632811
 30
0.0
 10
12.549022538
 20
7.9593782581
 30
0.0
 10
12.5427141505
 20
7.9487094983
 30
0.0
 10
12.5372076104
 20
7.9402315192
 30
0.0
 10
12.5326559176
 20
7.933739121
 30
0.0
 10
12.5291795743
 20
7.9290371057
 30
0.0
 10
12.5256112082
 20
7.924472424
 30
0.0
 10
12.5219425634
 20
7.9200444077
 30
0.0
 10
12.5181630051
 20
7.9157538453
 30
0.0
 10
12.5155576497
 20
7.9129840673
 30
0.0
 10
12.5142337737
 20
7.9116247541
 30
0.0
  0
SPLINE
  5
2BF
100
AcDbEntity
  8
0
100
AcDbSpline
 62
7
  6
CONTINUOUS
 70
0
 71
3
 72
94
 73
90
 74
0
 42
0.0000001
 43
0.0000001
 44
0.0000000001
 40
0.0
 40
0.0
 40
0.0
 40
0.0
 40
0.002716411
 40
0.0054532011
 40
0.0082302517
 40
0.0110665327
 40
0.0139797269
 40
0.0169860181
 40
0.0200999739
 40
0.0233344715
 40
0.0267008148
 40
0.0302087551
 40
0.0338666474
 40
0.0376816061
 40
0.0416595573
 40
0.0458054685
 40
0.0501233829
 40
0.0546165457
 40
0.0592875464
 40
0.0641382929
 40
0.0691701949
 40
0.0743841527
 40
0.0797806066
 40
0.0853596564
 40
0.091120982
 40
0.097063984
 40
0.1031877628
 40
0.1094911152
 40
0.1159726478
 40
0.1226306791
 40
0.1364682673
 40
0.1509869912
 40
0.1661667922
 40
0.1819851405
 40
0.1984172778
 40
0.2154364407
 40
0.2330140607
 40
0.2511199271
 40
0.269722328
 40
0.2887881727
 40
0.3082831309
 40
0.3281717535
 40
0.3484175824
 40
0.3689832519
 40
0.389830592
 40
0.4109207417
 40
0.4322142489
 40
0.4536711676
 40
0.4752511532
 40
0.4969135656
 40
0.5186175702
 40
0.5403222325
 40
0.561986614
 40
0.5835698734
 40
0.6050313662
 40
0.6263307396
 40
0.6474280293
 40
0.6682837608
 40
0.6888590562
 40
0.7091157293
 40
0.7290163859
 40
0.7485245265
 40
0.7676046664
 40
0.7862224473
 40
0.804344745
 40
0.8219397924
 40
0.8389773151
 40
0.8554286959
 40
0.8712671248
 40
0.8864677785
 40
0.9010080353
 40
0.9080242659
 40
0.9148680726
 40
0.9215373706
 40
0.9280302616
 40
0.9343451056
 40
0.9404804307
 40
0.9464350605
 40
0.95220807
 40
0.9577988039
 40
0.9632069895
 40
0.9684326468
 40
0.9734762099
 40
0.9783385336
 40
0.9830209473
 40
0.9875254668
 40
0.9918546708
 40
0.9960116289
 40
1.0
 40
1.0
 40
1.0
 40
1.0
 10
12.5485642867
 20
7.6866405028
 30
0.0
 10
12.5471645055
 20
7.6867375857
 30
0.0
 10
12.5443616093
 20
7.6870591825
 30
0.0
 10
12.5401929652
 20
7.6879197877
 30
0.0
 10
12.5360558073
 20
7.6891583389
 30
0.0
 10
12.5319531209
 20
7.6907737718
 30
0.0
 10
12.5278870046
 20
7.6927645662
 30
0.0
 10
12.5238595255
 20
7.6951291608
 30
0.0
 10
12.5198726019
 20
7.6978659542
 30
0.0
 10
12.515927916
 20
7.7009730937
 30
0.0
 10
12.5120272561
 20
7.7044488693
 30
0.0
 10
12.5081722615
 20
7.7082913262
 30
0.0
 10
12.504364595
 20
7.7124984534
 30
0.0
 10
12.5006060223
 20
7.7170681722
 30
0.0
 10
12.4968981471
 20
7.7219981344
 30
0.0
 10
12.4932427601
 20
7.7272859581
 30
0.0
 10
12.489641551
 20
7.7329290181
 30
0.0
 10
12.4860962004
 20
7.738924524
 30
0.0
 10
12.4826085007
 20
7.7452695593
 30
0.0
 10
12.4791800602
 20
7.7519609518
 30
0.0
 10
12.4758126213
 20
7.7589954167
 30
0.0
 10
12.4725078425
 20
7.7663694615
 30
0.0
 10
12.469267316
 20
7.7740794102
 30
0.0
 10
12.4660927365
 20
7.782121449
 30
0.0
 10
12.4629856155
 20
7.7904915475
 30
0.0
 10
12.4599475474
 20
7.799185538
 30
0.0
 10
12.4569800684
 20
7.8081990777
 30
0.0
 10
12.4540846208
 20
7.8175276454
 30
0.0
 10
12.4512627095
 20
7.8271665956
 30
0.0
 10
12.447552356
 20
7.8405988856
 30
0.0
 10
12.4431208723
 20
7.8581366476
 30
0.0
 10
12.4381839192
 20
7.8800786226
 30
0.0
 10
12.4335718759
 20
7.9031353821
 30
0.0
 10
12.4292941107
 20
7.9272606594
 30
0.0
 10
12.4253593327
 20
7.9524061873
 30
0.0
 10
12.4217755412
 20
7.9785215336
 30
0.0
 10
12.4185500317
 20
8.0055543029
 30
0.0
 10
12.4156893733
 20
8.0334502295
 30
0.0
 10
12.4131993988
 20
8.0621532884
 30
0.0
 10
12.41108517
 20
8.0916058071
 30
0.0
 10
12.4093509899
 20
8.1217485907
 30
0.0
 10
12.4080003945
 20
8.1525210509
 30
0.0
 10
12.4070361478
 20
8.1838613269
 30
0.0
 10
12.4064602291
 20
8.215706405
 30
0.0
 10
12.406273818
 20
8.2479922476
 30
0.0
 10
12.4064773133
 20
8.2806539271
 30
0.0
 10
12.407070328
 20
8.3136257602
 30
0.0
 10
12.4080516943
 20
8.346841436
 30
0.0
 10
12.409419449
 20
8.3802341495
 30
0.0
 10
12.4111708431
 20
8.4137367381
 30
0.0
 10
12.4133023592
 20
8.4472818186
 30
0.0
 10
12.4158097148
 20
8.4808019219
 30
0.0
 10
12.4186878734
 20
8.514229628
 30
0.0
 10
12.4219310335
 20
8.5474977047
 30
0.0
 10
12.42553266
 20
8.5805392439
 30
0.0
 10
12.4294854969
 20
8.6132877933
 30
0.0
 10
12.4337815839
 20
8.64567749
 30
0.0
 10
12.4384122644
 20
8.6776431965
 30
0.0
 10
12.4433681927
 20
8.7091206371
 30
0.0
 10
12.4486393718
 20
8.7400465231
 30
0.0
 10
12.4542151682
 20
8.7703586766
 30
0.0
 10
12.4600843387
 20
8.7999961588
 30
0.0
 10
12.4662350343
 20
8.8288994026
 30
0.0
 10
12.4726548301
 20
8.8570103348
 30
0.0
 10
12.4793307611
 20
8.8842724872
 30
0.0
 10
12.4862493438
 20
8.9106311078
 30
0.0
 10
12.4933966083
 20
8.9360332887
 30
0.0
 10
12.5007581028
 20
8.9604280691
 30
0.0
 10
12.5083189461
 20
8.9837666059
 30
0.0
 10
12.5160638609
 20
9.0060020352
 30
0.0
 10
12.5227351371
 20
9.023780408
 30
0.0
 10
12.5281606974
 20
9.0374106296
 30
0.0
 10
12.5322177259
 20
9.0472085452
 30
0.0
 10
12.5363089634
 20
9.0566985577
 30
0.0
 10
12.5404324135
 20
9.0658759067
 30
0.0
 10
12.5445859331
 20
9.0747360126
 30
0.0
 10
12.5487675025
 20
9.0832744205
 30
0.0
 10
12.5529749849
 20
9.0914868702
 30
0.0
 10
12.5572062594
 20
9.0993692634
 30
0.0
 10
12.5614592642
 20
9.1069176445
 30
0.0
 10
12.5657318048
 20
9.1141282869
 30
0.0
 10
12.5700218189
 20
9.1209975724
 30
0.0
 10
12.5743271384
 20
9.1275220862
 30
0.0
 10
12.5786455843
 20
9.1336985999
 30
0.0
 10
12.5829751239
 20
9.1395240401
 30
0.0
 10
12.5873136209
 20
9.1449956204
 30
0.0
 10
12.591659086
 20
9.1501106316
 30
0.0
 10
12.5960091333
 20
9.1548662978
 30
0.0
 10
12.5989710857
 20
9.1578565056
 30
0.0
 10
12.6004528698
 20
9.1592877992
 30
0.0
  0
SPLINE
  5
2C0
100
AcDbEntity
  8
0
100
AcDbSpline
 62
7
  6
CONTINUOUS
 70
0
 71
3
 72
78
 73
74
 74
0
 42
0.0000001
 43
0.0000001
 44
0.0000000001
 40
0.0
 40
0.0
 40
0.0
 40
0.0
 40
0.0027164338
 40
0.0054532518
 40
0.0082303302
 40
0.0110666399
 40
0.0139798745
 40
0.0169861963
 40
0.0201001798
 40
0.0233347338
 40
0.0267011066
 40
0.0302090801
 40
0.0338670386
 40
0.0376820289
 40
0.0416600219
 40
0.0458059978
 40
0.0501239566
 40
0.0546171648
 40
0.059288228
 40
0.0641390363
 40
0.0691709779
 40
0.0743850048
 40
0.085359957
 40
0.0970638947
 40
0.1094906973
 40
0.1226300051
 40
0.1364677522
 40
0.1509866144
 40
0.16616658
 40
0.1819850977
 40
0.1984173784
 40
0.2154367196
 40
0.2330145192
 40
0.251120552
 40
0.2697231423
 40
0.2887891639
 40
0.3082843013
 40
0.3281731255
 40
0.3484191393
 40
0.3689849969
 40
0.4109221184
 40
0.4536722256
 40
0.4969143244
 40
0.5403226995
 40
0.5835700361
 40
0.6263305661
 40
0.6682832084
 40
0.6888586792
 40
0.7091155366
 40
0.7290163639
 40
0.7485246683
 40
0.7676049911
 40
0.7862229287
 40
0.8043453773
 40
0.8219405891
 40
0.8389782496
 40
0.8554297803
 40
0.8712683595
 40
0.8864691229
 40
0.9010095138
 40
0.9148693555
 40
0.9280312659
 40
0.9404811001
 40
0.9522082881
 40
0.9632066705
 40
0.9684323779
 40
0.9734759505
 40
0.9783382384
 40
0.9830207374
 40
0.9875254301
 40
0.9918547875
 40
0.9960117677
 40
1.0
 40
1.0
 40
1.0
 40
1.0
 10
12.5766531537
 20
9.4806690569
 30
0.0
 10
12.5760111218
 20
9.4807135889
 30
0.0
 10
12.5747255296
 20
9.4808611185
 30
0.0
 10
12.5728135161
 20
9.4812558668
 30
0.0
 10
12.5709159403
 20
9.4818239532
 30
0.0
 10
12.5690341705
 20
9.4825648988
 30
0.0
 10
12.5671691925
 20
9.4834780472
 30
0.0
 10
12.5653219212
 20
9.4845626093
 30
0.0
 10
12.5634932396
 20
9.485817879
 30
0.0
 10
12.5616839733
 20
9.4872430657
 30
0.0
 10
12.5598948574
 20
9.4888372792
 30
0.0
 10
12.5581266916
 20
9.4905996886
 30
0.0
 10
12.5563802727
 20
9.4925293931
 30
0.0
 10
12.5546563233
 20
9.4946253647
 30
0.0
 10
12.5529556451
 20
9.4968865821
 30
0.0
 10
12.5512790587
 20
9.4993119515
 30
0.0
 10
12.5496272982
 20
9.5019002394
 30
0.0
 10
12.5480011633
 20
9.5046501838
 30
0.0
 10
12.5464014787
 20
9.507560454
 30
0.0
 10
12.5448289806
 20
9.5106295828
 30
0.0
 10
12.5432844206
 20
9.5138560611
 30
0.0
 10
12.5412281619
 20
9.5184444587
 30
0.0
 10
12.5387414837
 20
9.5245696686
 30
0.0
 10
12.5359297747
 20
9.5323992503
 30
0.0
 10
12.5332470229
 20
9.5408136405
 30
0.0
 10
12.5306986661
 20
9.5497960993
 30
0.0
 10
12.5282898596
 20
9.5593288773
 30
0.0
 10
12.5260254439
 20
9.5693929847
 30
0.0
 10
12.5239100629
 20
9.579968349
 30
0.0
 10
12.5219480087
 20
9.5910338204
 30
0.0
 10
12.5201432468
 20
9.602567237
 30
0.0
 10
12.5184994946
 20
9.6145454804
 30
0.0
 10
12.5170200707
 20
9.6269445154
 30
0.0
 10
12.5157079775
 20
9.6397394495
 30
0.0
 10
12.5145659237
 20
9.6529045861
 30
0.0
 10
12.5135961988
 20
9.6664134731
 30
0.0
 10
12.5128007843
 20
9.6802389626
 30
0.0
 10
12.5121813326
 20
9.6943532592
 30
0.0
 10
12.5117390507
 20
9.7087280112
 30
0.0
 10
12.5113846124
 20
9.7283300399
 30
0.0
 10
12.511396441
 20
9.7532691221
 30
0.0
 10
12.5121212226
 20
9.7835719292
 30
0.0
 10
12.5135512424
 20
9.8141986254
 30
0.0
 10
12.5156750747
 20
9.8449030594
 30
0.0
 10
12.5184756804
 20
9.8754386708
 30
0.0
 10
12.5219304788
 20
9.9055600516
 30
0.0
 10
12.5253529493
 20
9.9302716835
 30
0.0
 10
12.5284033891
 20
9.9496467768
 30
0.0
 10
12.5308211096
 20
9.9638314508
 30
0.0
 10
12.5333785417
 20
9.9777346076
 30
0.0
 10
12.5360705422
 20
9.991328321
 30
0.0
 10
12.538891647
 20
10.0045852665
 30
0.0
 10
12.5418361995
 20
10.0174788013
 30
0.0
 10
12.5448982305
 20
10.0299830281
 30
0.0
 10
12.5480715424
 20
10.0420728384
 30
0.0
 10
12.5513497631
 20
10.0537239588
 30
0.0
 10
12.5547262307
 20
10.0649130266
 30
0.0
 10
12.5581941262
 20
10.075617616
 30
0.0
 10
12.5617464745
 20
10.0858162896
 30
0.0
 10
12.5653760532
 20
10.0954886738
 30
0.0
 10
12.5690755633
 20
10.1046154756
 30
0.0
 10
12.5728375677
 20
10.1131785224
 30
0.0
 10
12.5766544713
 20
10.121160924
 30
0.0
 10
12.5805186683
 20
10.1285467836
 30
0.0
 10
12.583825955
 20
10.1342866811
 30
0.0
 10
12.5864951654
 20
10.1385608311
 30
0.0
 10
12.58846985
 20
10.1415533997
 30
0.0
 10
12.5904505794
 20
10.1443863325
 30
0.0
 10
12.5924363977
 20
10.1470582919
 30
0.0
 10
12.5944263678
 20
10.1495679724
 30
0.0
 10
12.5964195456
 20
10.1519140777
 30
0.0
 10
12.5984147446
 20
10.1540953366
 30
0.0
 10
12.599773255
 20
10.1554668185
 30
0.0
 10
12.6004528698
 20
10.1561232759
 30
0.0
  0
SPLINE
  5
2C1
100
AcDbEntity
  8
0
100
AcDbSpline
 62
7
  6
CONTINUOUS
 70
0
 71
3
 72
78
 73
74
 74
0
 42
0.0000001
 43
0.0000001
 44
0.0000000001
 40
0.0
 40
0.0
 40
0.0
 40
0.0
 40
0.0027164338
 40
0.0054532518
 40
0.0082303302
 40
0.0110666399
 40
0.0139798745
 40
0.0169861963
 40
0.0201001798
 40
0.0233347338
 40
0.0267011066
 40
0.0302090801
 40
0.0338670386
 40
0.0376820289
 40
0.0416600219
 40
0.0458059978
 40
0.0501239566
 40
0.0546171648
 40
0.059288228
 40
0.0641390363
 40
0.0691709779
 40
0.0743850048
 40
0.085359957
 40
0.0970638947
 40
0.1094906973
 40
0.1226300051
 40
0.1364677522
 40
0.1509866144
 40
0.16616658
 40
0.1819850977
 40
0.1984173784
 40
0.2154367196
 40
0.2330145192
 40
0.251120552
 40
0.2697231423
 40
0.2887891639
 40
0.3082843013
 40
0.3281731255
 40
0.3484191393
 40
0.3689849969
 40
0.4109221184
 40
0.4536722256
 40
0.4969143244
 40
0.5403226995
 40
0.5835700361
 40
0.6263305661
 40
0.6682832084
 40
0.6888586792
 40
0.7091155366
 40
0.7290163639
 40
0.7485246683
 40
0.7676049911
 40
0.7862229287
 40
0.8043453773
 40
0.8219405891
 40
0.8389782496
 40
0.8554297803
 40
0.8712683595
 40
0.8864691229
 40
0.9010095138
 40
0.9148693555
 40
0.9280312659
 40
0.9404811001
 40
0.9522082881
 40
0.9632066705
 40
0.9684323779
 40
0.9734759505
 40
0.9783382384
 40
0.9830207374
 40
0.9875254301
 40
0.9918547875
 40
0.9960117677
 40
1.0
 40
1.0
 40
1.0
 40
1.0
 10
12.5766531537
 20
6.7026662859
 30
0.0
 10
12.5760111218
 20
6.7027108179
 30
0.0
 10
12.5747255296
 20
6.7028583475
 30
0.0
 10
12.5728135161
 20
6.7032530958
 30
0.0
 10
12.5709159403
 20
6.7038211822
 30
0.0
 10
12.5690341705
 20
6.7045621278
 30
0.0
 10
12.5671691925
 20
6.7054752762
 30
0.0
 10
12.5653219212
 20
6.7065598383
 30
0.0
 10
12.5634932396
 20
6.707815108
 30
0.0
 10
12.5616839733
 20
6.7092402947
 30
0.0
 10
12.5598948574
 20
6.7108345082
 30
0.0
 10
12.5581266916
 20
6.7125969176
 30
0.0
 10
12.5563802727
 20
6.7145266221
 30
0.0
 10
12.5546563233
 20
6.7166225937
 30
0.0
 10
12.5529556451
 20
6.7188838111
 30
0.0
 10
12.5512790587
 20
6.7213091805
 30
0.0
 10
12.5496272982
 20
6.7238974684
 30
0.0
 10
12.5480011633
 20
6.7266474128
 30
0.0
 10
12.5464014787
 20
6.729557683
 30
0.0
 10
12.5448289806
 20
6.7326268118
 30
0.0
 10
12.5432844206
 20
6.7358532901
 30
0.0
 10
12.5412281619
 20
6.7404416877
 30
0.0
 10
12.5387414837
 20
6.7465668976
 30
0.0
 10
12.5359297747
 20
6.7543964793
 30
0.0
 10
12.5332470229
 20
6.7628108695
 30
0.0
 10
12.5306986661
 20
6.7717933283
 30
0.0
 10
12.5282898596
 20
6.7813261063
 30
0.0
 10
12.5260254439
 20
6.7913902137
 30
0.0
 10
12.5239100629
 20
6.801965578
 30
0.0
 10
12.5219480087
 20
6.8130310494
 30
0.0
 10
12.5201432468
 20
6.824564466
 30
0.0
 10
12.5184994946
 20
6.8365427094
 30
0.0
 10
12.5170200707
 20
6.8489417444
 30
0.0
 10
12.5157079775
 20
6.8617366785
 30
0.0
 10
12.5145659237
 20
6.8749018151
 30
0.0
 10
12.5135961988
 20
6.8884107021
 30
0.0
 10
12.5128007843
 20
6.9022361916
 30
0.0
 10
12.5121813326
 20
6.9163504882
 30
0.0
 10
12.5117390507
 20
6.9307252402
 30
0.0
 10
12.5113846124
 20
6.9503272689
 30
0.0
 10
12.511396441
 20
6.9752663511
 30
0.0
 10
12.5121212226
 20
7.0055691582
 30
0.0
 10
12.5135512424
 20
7.0361958544
 30
0.0
 10
12.5156750747
 20
7.0669002884
 30
0.0
 10
12.5184756804
 20
7.0974358998
 30
0.0
 10
12.5219304788
 20
7.1275572806
 30
0.0
 10
12.5253529493
 20
7.1522689125
 30
0.0
 10
12.5284033891
 20
7.1716440058
 30
0.0
 10
12.5308211096
 20
7.1858286798
 30
0.0
 10
12.5333785417
 20
7.1997318366
 30
0.0
 10
12.5360705422
 20
7.21332555
 30
0.0
 10
12.538891647
 20
7.2265824955
 30
0.0
 10
12.5418361995
 20
7.2394760303
 30
0.0
 10
12.5448982305
 20
7.2519802571
 30
0.0
 10
12.5480715424
 20
7.2640700674
 30
0.0
 10
12.5513497631
 20
7.2757211878
 30
0.0
 10
12.5547262307
 20
7.2869102556
 30
0.0
 10
12.5581941262
 20
7.297614845
 30
0.0
 10
12.5617464745
 20
7.3078135186
 30
0.0
 10
12.5653760532
 20
7.3174859028
 30
0.0
 10
12.5690755633
 20
7.3266127046
 30
0.0
 10
12.5728375677
 20
7.3351757514
 30
0.0
 10
12.5766544713
 20
7.343158153
 30
0.0
 10
12.5805186683
 20
7.3505440126
 30
0.0
 10
12.583825955
 20
7.3562839101
 30
0.0
 10
12.5864951654
 20
7.3605580601
 30
0.0
 10
12.58846985
 20
7.3635506287
 30
0.0
 10
12.5904505794
 20
7.3663835615
 30
0.0
 10
12.5924363977
 20
7.3690555209
 30
0.0
 10
12.5944263678
 20
7.3715652014
 30
0.0
 10
12.5964195456
 20
7.3739113067
 30
0.0
 10
12.5984147446
 20
7.3760925656
 30
0.0
 10
12.599773255
 20
7.3774640475
 30
0.0
 10
12.6004528698
 20
7.3781205049
 30
0.0
  0
SPLINE
  5
2C2
100
AcDbEntity
  8
0
100
AcDbSpline
 62
7
  6
CONTINUOUS
 70
0
 71
3
 72
45
 73
41
 74
0
 42
0.0000001
 43
0.0000001
 44
0.0000000001
 40
0.0
 40
0.0
 40
0.0
 40
0.0
 40
0.0149684713
 40
0.029954973
 40
0.04496153
 40
0.0599900669
 40
0.075042408
 40
0.0901202643
 40
0.1052252254
 40
0.1203587591
 40
0.1355221945
 40
0.1507167294
 40
0.1659434141
 40
0.181203155
 40
0.2118203779
 40
0.2425769802
 40
0.2734747153
 40
0.3045128726
 40
0.3356883224
 40
0.3669956015
 40
0.3984270335
 40
0.4299728832
 40
0.4616215379
 40
0.4933597163
 40
0.5251726964
 40
0.5570445615
 40
0.58895846
 40
0.6208968756
 40
0.6528419056
 40
0.6847755434
 40
0.7166799619
 40
0.7485377948
 40
0.7803324127
 40
0.8120481908
 40
0.8436707658
 40
0.875187282
 40
0.9065865878
 40
0.9378595618
 40
0.9689988241
 40
1.0
 40
1.0
 40
1.0
 40
1.0
 10
9.7214159882
 20
9.0923661342
 30
0.0
 10
9.7169502063
 20
9.0852600041
 30
0.0
 10
9.7082624095
 20
9.0708808583
 30
0.0
 10
9.6959870028
 20
9.0488556631
 30
0.0
 10
9.6844733413
 20
9.0263846761
 30
0.0
 10
9.6737341362
 20
9.0034927754
 30
0.0
 10
9.6637809852
 20
8.9802048433
 30
0.0
 10
9.6546248734
 20
8.9565462456
 30
0.0
 10
9.6462755801
 20
8.9325428378
 30
0.0
 10
9.6387423994
 20
8.9082207281
 30
0.0
 10
9.6320333586
 20
8.8836064593
 30
0.0
 10
9.6261558612
 20
8.8587269336
 30
0.0
 10
9.6211162715
 20
8.8336089066
 30
0.0
 10
9.6155155228
 20
8.7998033403
 30
0.0
 10
9.6106405926
 20
8.757076619
 30
0.0
 10
9.6082166015
 20
8.7053592954
 30
0.0
 10
9.6092209746
 20
8.6533581749
 30
0.0
 10
9.613649212
 20
8.6013013494
 30
0.0
 10
9.6214815656
 20
8.5494151163
 30
0.0
 10
9.6326835958
 20
8.4979254951
 30
0.0
 10
9.6472062095
 20
8.4470565832
 30
0.0
 10
9.6649859037
 20
8.3970297716
 30
0.0
 10
9.6859450199
 20
8.3480627332
 30
0.0
 10
9.7099921183
 20
8.3003685083
 30
0.0
 10
9.7370223704
 20
8.2541545835
 30
0.0
 10
9.7669180158
 20
8.209622001
 30
0.0
 10
9.7995488709
 20
8.166964493
 30
0.0
 10
9.8347728939
 20
8.1263676502
 30
0.0
 10
9.8724367751
 20
8.0880081005
 30
0.0
 10
9.9123766196
 20
8.0520527592
 30
0.0
 10
9.9544186584
 20
8.0186581141
 30
0.0
 10
9.9983799967
 20
7.9879695496
 30
0.0
 10
10.044069399
 20
7.9601207179
 30
0.0
 10
10.0912881208
 20
7.9352329661
 30
0.0
 10
10.1398307306
 20
7.9134147896
 30
0.0
 10
10.1894860825
 20
7.8947613699
 30
0.0
 10
10.2400379252
 20
7.8793541267
 30
0.0
 10
10.2912669674
 20
7.8672604883
 30
0.0
 10
10.3429473673
 20
7.8585334618
 30
0.0
 10
10.3776373285
 20
7.854977059
 30
0.0
 10
10.3949781408
 20
7.8537744695
 30
0.0
  0
SPLINE
  5
2C3
100
AcDbEntity
  8
0
100
AcDbSpline
 62
7
  6
CONTINUOUS
 70
0
 71
3
 72
43
 73
39
 74
0
 42
0.0000001
 43
0.0000001
 44
0.0000000001
 40
0.0
 40
0.0
 40
0.0
 40
0.0
 40
0.0149922449
 40
0.0300064543
 40
0.0450442548
 40
0.0601071763
 40
0.0903098313
 40
0.1206285278
 40
0.1358359811
 40
0.1510752675
 40
0.166347064
 40
0.1816519058
 40
0.2123583023
 40
0.2432000007
 40
0.2741764069
 40
0.3052847856
 40
0.3365203301
 40
0.367876262
 40
0.3993439582
 40
0.4309131015
 40
0.4625718517
 40
0.4943070354
 40
0.5261043508
 40
0.5579485847
 40
0.5898238391
 40
0.6217137646
 40
0.6536017989
 40
0.6854714071
 40
0.7173063216
 40
0.7490907798
 40
0.7808097567
 40
0.8124491894
 40
0.8439961901
 40
0.8754392559
 40
0.9067684177
 40
0.9379755452
 40
0.969054053
 40
1.0
 40
1.0
 40
1.0
 40
1.0
 10
9.761122923
 20
9.105576767
 30
0.0
 10
9.7574460413
 20
9.0983750092
 30
0.0
 10
9.7503279988
 20
9.0838363704
 30
0.0
 10
9.740378568
 20
9.0616677949
 30
0.0
 10
9.7311584611
 20
9.0391443606
 30
0.0
 10
9.7198412493
 20
9.0086468107
 30
0.0
 10
9.7075646771
 20
8.969739641
 30
0.0
 10
9.6978517314
 20
8.9300350061
 30
0.0
 10
9.6916265322
 20
8.8978528466
 30
0.0
 10
9.6877307948
 20
8.8734996703
 30
0.0
 10
9.6846176857
 20
8.8489812099
 30
0.0
 10
9.6815109572
 20
8.8160697426
 30
0.0
 10
9.6796036044
 20
8.7746321351
 30
0.0
 10
9.6804792651
 20
8.7247041733
 30
0.0
 10
9.6845124773
 20
8.6747135256
 30
0.0
 10
9.6916868683
 20
8.6248623351
 30
0.0
 10
9.7019732932
 20
8.5753504062
 30
0.0
 10
9.71533019
 20
8.5263766028
 30
0.0
 10
9.7317036898
 20
8.478137467
 30
0.0
 10
9.7510278541
 20
8.4308265981
 30
0.0
 10
9.7732249349
 20
8.3846338399
 30
0.0
 10
9.7982056816
 20
8.3397445338
 30
0.0
 10
9.82586971
 20
8.2963387832
 30
0.0
 10
9.8561059021
 20
8.2545907378
 30
0.0
 10
9.8887928508
 20
8.2146679014
 30
0.0
 10
9.9237993436
 20
8.1767304655
 30
0.0
 10
9.9609848859
 20
8.1409306724
 30
0.0
 10
10.0002002603
 20
8.1074122084
 30
0.0
 10
10.0412881207
 20
8.0763096321
 30
0.0
 10
10.0840836182
 20
8.0477478368
 30
0.0
 10
10.1284150501
 20
8.0218415432
 30
0.0
 10
10.1741045564
 20
7.9986948522
 30
0.0
 10
10.2209688036
 20
7.9784008194
 30
0.0
 10
10.26881979
 20
7.9610411074
 30
0.0
 10
10.3174653188
 20
7.9466855918
 30
0.0
 10
10.3667107733
 20
7.9353922095
 30
0.0
 10
10.4163559254
 20
7.9272066097
 30
0.0
 10
10.4496648405
 20
7.9238358828
 30
0.0
 10
10.4663155815
 20
7.92268115
 30
0.0
  0
SPLINE
  5
2C4
100
AcDbEntity
  8
0
100
AcDbSpline
 62
7
  6
CONTINUOUS
 70
0
 71
3
 72
39
 73
35
 74
0
 42
0.0000001
 43
0.0000001
 44
0.0000000001
 40
0.0
 40
0.0
 40
0.0
 40
0.0
 40
0.0299564317
 40
0.0599950528
 40
0.0901304404
 40
0.1203753722
 40
0.1507406108
 40
0.1812347307
 40
0.2118639913
 40
0.2426322563
 40
0.2735409573
 40
0.3045891025
 40
0.3357733251
 40
0.3670879722
 40
0.3985252266
 40
0.4300752611
 40
0.4617264192
 40
0.4934654205
 40
0.5252775861
 40
0.5571470804
 40
0.5890571672
 40
0.6209904759
 40
0.6529292735
 40
0.6848557419
 40
0.7167522547
 40
0.7486016532
 40
0.7803875163
 40
0.8120944236
 40
0.8437082047
 40
0.8752161829
 40
0.9066073584
 40
0.9378727458
 40
0.9690050701
 40
1.0
 40
1.0
 40
1.0
 40
1.0
 10
9.8757699244
 20
9.1305541735
 30
0.0
 10
9.8678962884
 20
9.1177023838
 30
0.0
 10
9.8530224962
 20
9.0914029094
 30
0.0
 10
9.8334796582
 20
9.0504447369
 30
0.0
 10
9.8167566797
 20
9.0080984583
 30
0.0
 10
9.8029269951
 20
8.9645495856
 30
0.0
 10
9.7920495856
 20
8.9199856021
 30
0.0
 10
9.7841711643
 20
8.8745991532
 30
0.0
 10
9.7793253386
 20
8.828586129
 30
0.0
 10
9.7775326577
 20
8.7821451088
 30
0.0
 10
9.7788004934
 20
8.7354764279
 30
0.0
 10
9.7831230302
 20
8.6887813393
 30
0.0
 10
9.7904812879
 20
8.6422611437
 30
0.0
 10
9.8008432328
 20
8.5961163313
 30
0.0
 10
9.8141639211
 20
8.5505457266
 30
0.0
 10
9.8303856988
 20
8.5057456416
 30
0.0
 10
9.8494384541
 20
8.4619090399
 30
0.0
 10
9.8712399212
 20
8.4192247151
 30
0.0
 10
9.8956960363
 20
8.3778764881
 30
0.0
 10
9.9227013325
 20
8.3380424177
 30
0.0
 10
9.9521393926
 20
8.2998940389
 30
0.0
 10
9.9838833588
 20
8.2635956372
 30
0.0
 10
10.0177964729
 20
8.2293035466
 30
0.0
 10
10.0537326614
 20
8.1971654828
 30
0.0
 10
10.091537159
 20
8.1673199124
 30
0.0
 10
10.1310471686
 20
8.1398954603
 30
0.0
 10
10.172092556
 20
8.1150103616
 30
0.0
 10
10.2144965728
 20
8.0927719419
 30
0.0
 10
10.2580765951
 20
8.0732761574
 30
0.0
 10
10.3026449821
 20
8.0566072093
 30
0.0
 10
10.3480095989
 20
8.0428371181
 30
0.0
 10
10.3939756477
 20
8.0320255429
 30
0.0
 10
10.4403425308
 20
8.0242193923
 30
0.0
 10
10.4714640406
 20
8.0210340903
 30
0.0
 10
10.4870210881
 20
8.0199552054
 30
0.0
  0
SPLINE
  5
2C5
100
AcDbEntity
  8
0
100
AcDbSpline
 62
7
  6
CONTINUOUS
 70
0
 71
3
 72
37
 73
33
 74
0
 42
0.0000001
 43
0.0000001
 44
0.0000000001
 40
0.0
 40
0.0
 40
0.0
 40
0.0
 40
0.0308194216
 40
0.0617154149
 40
0.0926851292
 40
0.1237252685
 40
0.1548321151
 40
0.1860015642
 40
0.2172291411
 40
0.2485100276
 40
0.2798391026
 40
0.3112109647
 40
0.342619962
 40
0.3740602357
 40
0.4055257466
 40
0.437010308
 40
0.5000005743
 40
0.5629908183
 40
0.5944753545
 40
0.6259408264
 40
0.6573810523
 40
0.6887899937
 40
0.7201617864
 40
0.7514907844
 40
0.7827715875
 40
0.8139990687
 40
0.8451684142
 40
0.8762751549
 40
0.907315182
 40
0.9382847548
 40
0.96918064
 40
1.0
 40
1.0
 40
1.0
 40
1.0
 10
10.2446416939
 20
9.0994411421
 30
0.0
 10
10.2462154258
 20
9.0900867974
 30
0.0
 10
10.249730561
 20
9.0714140135
 30
0.0
 10
10.2560859159
 20
9.043596876
 30
0.0
 10
10.2635210348
 20
9.01597792
 30
0.0
 10
10.2720241754
 20
8.9886010793
 30
0.0
 10
10.2815819061
 20
8.9615091575
 30
0.0
 10
10.2921792129
 20
8.9347447263
 30
0.0
 10
10.3037995187
 20
8.9083498224
 30
0.0
 10
10.3164244815
 20
8.8823658491
 30
0.0
 10
10.3300342688
 20
8.8568335868
 30
0.0
 10
10.3446075763
 20
8.8317931653
 30
0.0
 10
10.3601214719
 20
8.8072838309
 30
0.0
 10
10.376551488
 20
8.7833441323
 30
0.0
 10
10.3938722244
 20
8.7600113568
 30
0.0
 10
10.41811825
 20
8.7297582143
 30
0.0
 10
10.4505104355
 20
8.693644089
 30
0.0
 10
10.4854824214
 20
8.660022025
 30
0.0
 10
10.514878724
 20
8.6347440152
 30
0.0
 10
10.5375983836
 20
8.6166265827
 30
0.0
 10
10.5609553438
 20
8.5993782664
 30
0.0
 10
10.5849133163
 20
8.5830258667
 30
0.0
 10
10.6094346178
 20
8.5675951785
 30
0.0
 10
10.6344807348
 20
8.5531103378
 30
0.0
 10
10.6600123699
 20
8.5395941369
 30
0.0
 10
10.6859894711
 20
8.5270678588
 30
0.0
 10
10.7123712162
 20
8.5155510995
 30
0.0
 10
10.739116217
 20
8.5050619737
 30
0.0
 10
10.7661824686
 20
8.4956170544
 30
0.0
 10
10.7935276027
 20
8.4872310608
 30
0.0
 10
10.8211081594
 20
8.4799172899
 30
0.0
 10
10.8396481557
 20
8.4757584959
 30
0.0
 10
10.8489424454
 20
8.473862127
 30
0.0
  0
SPLINE
  5
2C6
100
AcDbEntity
  8
0
100
AcDbSpline
 62
7
  6
CONTINUOUS
 70
0
 71
3
 72
27
 73
23
 74
0
 42
0.0000001
 43
0.0000001
 44
0.0000000001
 40
0.0
 40
0.0
 40
0.0
 40
0.0
 40
0.0308874891
 40
0.0618410245
 40
0.0928577675
 40
0.1239345788
 40
0.186245181
 40
0.2487514017
 40
0.3114187636
 40
0.3742097153
 40
0.4370843638
 40
0.500001237
 40
0.5629180677
 40
0.6257925896
 40
0.6885833333
 40
0.7512504094
 40
0.8137562714
 40
0.8760664485
 40
0.9071430271
 40
0.9381595299
 40
0.9691127914
 40
1.0
 40
1.0
 40
1.0
 40
1.0
 10
10.3065464998
 20
9.0773926643
 30
0.0
 10
10.3083379615
 20
9.0694581473
 30
0.0
 10
10.3122034445
 20
9.0536336068
 30
0.0
 10
10.3188321608
 20
9.0300901938
 30
0.0
 10
10.3262893423
 20
9.006742986
 30
0.0
 10
10.3373322579
 20
8.9758925927
 30
0.0
 10
10.3531611482
 20
8.9379738402
 30
0.0
 10
10.3752689338
 20
8.893784069
 30
0.0
 10
10.4003939049
 20
8.8510894016
 30
0.0
 10
10.4284047999
 20
8.8101131098
 30
0.0
 10
10.4591560659
 20
8.7710676608
 30
0.0
 10
10.4924878153
 20
8.7341560278
 30
0.0
 10
10.5282268321
 20
8.6995699971
 30
0.0
 10
10.5661874154
 20
8.6674892912
 30
0.0
 10
10.6061722419
 20
8.6380807175
 30
0.0
 10
10.6479739986
 20
8.6114970803
 30
0.0
 10
10.6913740824
 20
8.5878772784
 30
0.0
 10
10.7287236339
 20
8.570749098
 30
0.0
 10
10.7591742588
 20
8.5586479942
 30
0.0
 10
10.7822499836
 20
8.5503894853
 30
0.0
 10
10.8055503812
 20
8.5429521876
 30
0.0
 10
10.8212319329
 20
8.538542854
 30
0.0
 10
10.8290998203
 20
8.5364786247
 30
0.0
  0
SPLINE
  5
2C7
100
AcDbEntity
  8
0
100
AcDbSpline
 62
7
  6
CONTINUOUS
 70
0
 71
3
 72
32
 73
28
 74
0
 42
0.0000001
 43
0.0000001
 44
0.0000000001
 40
0.0
 40
0.0
 40
0.0
 40
0.0
 40
0.0297203683
 40
0.0595283382
 40
0.0894303918
 40
0.1194323417
 40
0.1495392749
 40
0.1797555328
 40
0.2100846997
 40
0.2405295565
 40
0.2710920916
 40
0.3017735036
 40
0.332574184
 40
0.3634937617
 40
0.3945310995
 40
0.4256842854
 40
0.4569506711
 40
0.48832687
 40
0.5198087802
 40
0.5513916422
 40
0.614824876
 40
0.678589185
 40
0.7426246012
 40
0.8068627467
 40
0.8712276841
 40
0.9356358622
 40
1.0
 40
1.0
 40
1.0
 40
1.0
 10
10.0162009989
 20
6.6866233843
 30
0.0
 10
10.0150323174
 20
6.6818000594
 30
0.0
 10
10.0129145212
 20
6.6720836094
 30
0.0
 10
10.0104068953
 20
6.6573569796
 30
0.0
 10
10.0085683221
 20
6.6424842874
 30
0.0
 10
10.0074026942
 20
6.6274938446
 30
0.0
 10
10.0069124346
 20
6.6124136781
 30
0.0
 10
10.0070986462
 20
6.5972721057
 30
0.0
 10
10.0079613454
 20
6.5820975117
 30
0.0
 10
10.0094991568
 20
6.566918345
 30
0.0
 10
10.0117093936
 20
6.5517630321
 30
0.0
 10
10.0145882805
 20
6.5366599651
 30
0.0
 10
10.0181305966
 20
6.5216373868
 30
0.0
 10
10.0223298989
 20
6.5067233542
 30
0.0
 10
10.0271786305
 20
6.4919457263
 30
0.0
 10
10.0326677977
 20
6.4773320166
 30
0.0
 10
10.0387872847
 20
6.4629093858
 30
0.0
 10
10.0455257867
 20
6.448704726
 30
0.0
 10
10.0528708551
 20
6.4347440343
 30
0.0
 10
10.063468406
 20
6.4164657152
 30
0.0
 10
10.078166022
 20
6.3943598374
 30
0.0
 10
10.0979522179
 20
6.3692526518
 30
0.0
 10
10.1197672462
 20
6.3457023473
 30
0.0
 10
10.1434449804
 20
6.3238788286
 30
0.0
 10
10.1688062242
 20
6.3039356291
 30
0.0
 10
10.1956555019
 20
6.2860122919
 30
0.0
 10
10.2144317705
 20
6.2754799783
 30
0.0
 10
10.2240018022
 20
6.2705879147
 30
0.0
  0
SPLINE
  5
2C8
100
AcDbEntity
  8
0
100
AcDbSpline
 62
7
  6
CONTINUOUS
 70
0
 71
3
 72
26
 73
22
 74
0
 42
0.0000001
 43
0.0000001
 44
0.0000000001
 40
0.0
 40
0.0
 40
0.0
 40
0.0
 40
0.0616472489
 40
0.1233175247
 40
0.1850335968
 40
0.2468177237
 40
0.3086914075
 40
0.3706751582
 40
0.432788273
 40
0.4950486315
 40
0.5574725124
 40
0.620074425
 40
0.6514488035
 40
0.6828722546
 40
0.7143460293
 40
0.7458712347
 40
0.8090747432
 40
0.8724940722
 40
0.9042883921
 40
0.9361388178
 40
1.0
 40
1.0
 40
1.0
 40
1.0
 10
10.7130590625
 20
5.4058644403
 30
0.0
 10
10.7020165668
 20
5.395198225
 30
0.0
 10
10.6793488609
 20
5.3744515963
 30
0.0
 10
10.6437170628
 20
5.3451980319
 30
0.0
 10
10.6065379839
 20
5.3178781006
 30
0.0
 10
10.5679065928
 20
5.2925618109
 30
0.0
 10
10.5279199168
 20
5.2693125756
 30
0.0
 10
10.4866788071
 20
5.2481889882
 30
0.0
 10
10.4442872248
 20
5.2292441729
 30
0.0
 10
10.4008517806
 20
5.2125257235
 30
0.0
 10
10.3564827046
 20
5.1980758065
 30
0.0
 10
10.3188487961
 20
5.1879618277
 30
0.0
 10
10.288393689
 20
5.1810367607
 30
0.0
 10
10.265370736
 20
5.1764255295
 30
0.0
 10
10.2421993925
 20
5.1724040548
 30
0.0
 10
10.2111017671
 20
5.1678281853
 30
0.0
 10
10.1719258341
 20
5.1635976011
 30
0.0
 10
10.1325187573
 20
5.161365288
 30
0.0
 10
10.1008770518
 20
5.1607751473
 30
0.0
 10
10.0691211473
 20
5.1609839316
 30
0.0
 10
10.0452953167
 20
5.1620405172
 30
0.0
 10
10.0294293819
 20
5.1631408235
 30
0.0
  0
SPLINE
  5
2C9
100
AcDbEntity
  8
0
100
AcDbSpline
 62
7
  6
CONTINUOUS
 70
0
 71
3
 72
26
 73
22
 74
0
 42
0.0000001
 43
0.0000001
 44
0.0000000001
 40
0.0
 40
0.0
 40
0.0
 40
0.0
 40
0.0616283801
 40
0.1232894376
 40
0.1850043455
 40
0.2467937137
 40
0.3086773764
 40
0.3706741888
 40
0.4328018381
 40
0.4950766683
 40
0.5575135247
 40
0.6201256092
 40
0.6515034883
 40
0.6829293214
 40
0.714404226
 40
0.745929221
 40
0.8091282775
 40
0.8725366227
 40
0.9043228723
 40
0.9361636157
 40
1.0
 40
1.0
 40
1.0
 40
1.0
 10
10.7128494107
 20
5.4060922268
 30
0.0
 10
10.7018765245
 20
5.3960490729
 30
0.0
 10
10.6793970451
 20
5.3765255858
 30
0.0
 10
10.6441899458
 20
5.3490271661
 30
0.0
 10
10.6075688057
 20
5.3233722367
 30
0.0
 10
10.5696214192
 20
5.2996224875
 30
0.0
 10
10.5304372197
 20
5.2778337417
 30
0.0
 10
10.4901089467
 20
5.2580575304
 30
0.0
 10
10.4487319954
 20
5.2403405288
 30
0.0
 10
10.4064040174
 20
5.2247245055
 30
0.0
 10
10.3632258154
 20
5.2112464085
 30
0.0
 10
10.3266446578
 20
5.2018291179
 30
0.0
 10
10.2970629924
 20
5.1953919168
 30
0.0
 10
10.2747107582
 20
5.1911119194
 30
0.0
 10
10.2522235409
 20
5.1873860876
 30
0.0
 10
10.2220554787
 20
5.1831571089
 30
0.0
 10
10.1840691015
 20
5.1792695282
 30
0.0
 10
10.1458746185
 20
5.1772576549
 30
0.0
 10
10.1152134367
 20
5.176770483
 30
0.0
 10
10.0844467904
 20
5.1770332626
 30
0.0
 10
10.0613649292
 20
5.1780748193
 30
0.0
 10
10.0459937875
 20
5.1791408116
 30
0.0
  0
SPLINE
  5
2CA
100
AcDbEntity
  8
0
100
AcDbSpline
 62
7
  6
CONTINUOUS
 70
0
 71
3
 72
39
 73
35
 74
0
 42
0.0000001
 43
0.0000001
 44
0.0000000001
 40
0.0
 40
0.0
 40
0.0
 40
0.0
 40
0.031546025
 40
0.0630059062
 40
0.0943837204
 40
0.1256842023
 40
0.1569127025
 40
0.1880751447
 40
0.2191779919
 40
0.2502281957
 40
0.2812331342
 40
0.3122005571
 40
0.3431385295
 40
0.3740553593
 40
0.4049595264
 40
0.4358596187
 40
0.4667642607
 40
0.4976820362
 40
0.528621417
 40
0.5595906999
 40
0.5905979342
 40
0.6216508505
 40
0.6527568049
 40
0.6839227239
 40
0.7151550421
 40
0.7464596499
 40
0.7778418712
 40
0.8093064038
 40
0.8408572549
 40
0.8724978988
 40
0.9042308911
 40
0.9360578352
 40
0.967981771
 40
1.0
 40
1.0
 40
1.0
 40
1.0
 10
10.6328203296
 20
5.9794869522
 30
0.0
 10
10.6312423007
 20
5.9711339687
 30
0.0
 10
10.6277199217
 20
5.9545183246
 30
0.0
 10
10.6213372768
 20
5.929890183
 30
0.0
 10
10.6138744321
 20
5.9056361794
 30
0.0
 10
10.6053455648
 20
5.8818024879
 30
0.0
 10
10.5957666087
 20
5.8584337033
 30
0.0
 10
10.5851554572
 20
5.8355738032
 30
0.0
 10
10.5735320791
 20
5.8132656924
 30
0.0
 10
10.5609183
 20
5.7915512706
 30
0.0
 10
10.5473377233
 20
5.7704713755
 30
0.0
 10
10.5328158602
 20
5.7500656098
 30
0.0
 10
10.5173800267
 20
5.7303722769
 30
0.0
 10
10.5010591723
 20
5.711428405
 30
0.0
 10
10.4838839155
 20
5.6932696253
 30
0.0
 10
10.4658865832
 20
5.6759299969
 30
0.0
 10
10.4471009795
 20
5.659442094
 30
0.0
 10
10.427562344
 20
5.6438369546
 30
0.0
 10
10.4073074312
 20
5.6291438411
 30
0.0
 10
10.3863743165
 20
5.6153903132
 30
0.0
 10
10.3648022923
 20
5.6026022511
 30
0.0
 10
10.3426318935
 20
5.5908036631
 30
0.0
 10
10.3199048083
 20
5.5800166241
 30
0.0
 10
10.2966637165
 20
5.5702613963
 30
0.0
 10
10.2729522564
 20
5.5615563367
 30
0.0
 10
10.2488149997
 20
5.5539176811
 30
0.0
 10
10.2242972775
 20
5.5473597336
 30
0.0
 10
10.1994451209
 20
5.5418948592
 30
0.0
 10
10.1743051991
 20
5.5375332139
 30
0.0
 10
10.1489247121
 20
5.5342829421
 30
0.0
 10
10.1233514458
 20
5.5321501543
 30
0.0
 10
10.0976328792
 20
5.5311387252
 30
0.0
 10
10.071818382
 20
5.5312507099
 30
0.0
 10
10.054601095
 20
5.5320727662
 30
0.0
 10
10.0459937875
 20
5.532669685
 30
0.0
  0
SPLINE
  5
2CB
100
AcDbEntity
  8
0
100
AcDbSpline
 62
7
  6
CONTINUOUS
 70
0
 71
3
 72
39
 73
35
 74
0
 42
0.0000001
 43
0.0000001
 44
0.0000000001
 40
0.0
 40
0.0
 40
0.0
 40
0.0
 40
0.0314403731
 40
0.0628038527
 40
0.0940949628
 40
0.1253187507
 40
0.1564807697
 40
0.1875870265
 40
0.2186439385
 40
0.2496583015
 40
0.2806372282
 40
0.3115880944
 40
0.3425184959
 40
0.3734361819
 40
0.4043489934
 40
0.4352648148
 40
0.4661915072
 40
0.4971368428
 40
0.528108458
 40
0.5591137909
 40
0.5901600171
 40
0.6212540103
 40
0.6524022878
 40
0.6836109533
 40
0.7148856674
 40
0.7462316076
 40
0.7776534279
 40
0.8091552079
 40
0.8407404722
 40
0.8724122701
 40
0.9041726195
 40
0.936023129
 40
0.9679667283
 40
1.0
 40
1.0
 40
1.0
 40
1.0
 10
10.6376903819
 20
6.0108998581
 30
0.0
 10
10.6358362711
 20
6.0036271823
 30
0.0
 10
10.6318214152
 20
5.9891768697
 30
0.0
 10
10.6248811751
 20
5.9678070671
 30
0.0
 10
10.6170418717
 20
5.9468051298
 30
0.0
 10
10.6083170379
 20
5.926207645
 30
0.0
 10
10.5987216944
 20
5.9060497815
 30
0.0
 10
10.5882722211
 20
5.8863662116
 30
0.0
 10
10.5769865094
 20
5.8671907347
 30
0.0
 10
10.5648840117
 20
5.8485562145
 30
0.0
 10
10.5519854051
 20
5.830494692
 30
0.0
 10
10.5383128163
 20
5.8130371869
 30
0.0
 10
10.523889788
 20
5.7962136039
 30
0.0
 10
10.5087409907
 20
5.7800528935
 30
0.0
 10
10.4928924383
 20
5.7645827961
 30
0.0
 10
10.4763713997
 20
5.7498297976
 30
0.0
 10
10.4592061587
 20
5.7358193054
 30
0.0
 10
10.4414262082
 20
5.722575345
 30
0.0
 10
10.4230621193
 20
5.710120574
 30
0.0
 10
10.4041453514
 20
5.698476461
 30
0.0
 10
10.3847084118
 20
5.687662941
 30
0.0
 10
10.3647846986
 20
5.6776984955
 30
0.0
 10
10.3444083586
 20
5.6686003207
 30
0.0
 10
10.3236144016
 20
5.6603839527
 30
0.0
 10
10.302438535
 20
5.653063416
 30
0.0
 10
10.2809170616
 20
5.6466513671
 30
0.0
 10
10.259086946
 20
5.6411587111
 30
0.0
 10
10.2369856575
 20
5.6365948
 30
0.0
 10
10.2146510726
 20
5.6329675459
 30
0.0
 10
10.1921215528
 20
5.6302831012
 30
0.0
 10
10.1694358481
 20
5.6285459566
 30
0.0
 10
10.1466323645
 20
5.6277591459
 30
0.0
 10
10.1237512156
 20
5.6279241049
 30
0.0
 10
10.1084918921
 20
5.6286671488
 30
0.0
 10
10.1008633797
 20
5.6291961879
 30
0.0
  0
SPLINE
  5
2CC
100
AcDbEntity
  8
0
100
AcDbSpline
 62
7
  6
CONTINUOUS
 70
0
 71
3
 72
25
 73
21
 74
0
 42
0.0000001
 43
0.0000001
 44
0.0000000001
 40
0.0
 40
0.0
 40
0.0
 40
0.0
 40
0.0616475419
 40
0.0924813014
 40
0.123323676
 40
0.1850400451
 40
0.246824467
 40
0.3086984435
 40
0.3706824879
 40
0.4327959004
 40
0.4950565598
 40
0.557480734
 40
0.6200829542
 40
0.6828757923
 40
0.7143496847
 40
0.7458750709
 40
0.8090790343
 40
0.872498069
 40
0.9361393938
 40
1.0
 40
1.0
 40
1.0
 40
1.0
 10
10.4710377504
 20
5.8324957672
 30
0.0
 10
10.4653257206
 20
5.8269783724
 30
0.0
 10
10.4565317365
 20
5.8189296578
 30
0.0
 10
10.4443885175
 20
5.8086837688
 30
0.0
 10
10.4319673551
 20
5.7987618738
 30
0.0
 10
10.4159367514
 20
5.7869822253
 30
0.0
 10
10.3959537881
 20
5.7738868012
 30
0.0
 10
10.3752695531
 20
5.7618604381
 30
0.0
 10
10.353936499
 20
5.7509336576
 30
0.0
 10
10.3320082798
 20
5.7411338951
 30
0.0
 10
10.3095401944
 20
5.7324858372
 30
0.0
 10
10.2865887549
 20
5.7250111494
 30
0.0
 10
10.2632121729
 20
5.7187286739
 30
0.0
 10
10.2434406178
 20
5.714502966
 30
0.0
 10
10.2274729012
 20
5.7117317763
 30
0.0
 10
10.2113867383
 20
5.7093647081
 30
0.0
 10
10.1911218264
 20
5.7071763998
 30
0.0
 10
10.1666403152
 20
5.7057894705
 30
0.0
 10
10.1420358145
 20
5.7056428693
 30
0.0
 10
10.1256187162
 20
5.7063709
 30
0.0
 10
10.1174117405
 20
5.7069400557
 30
0.0
  0
SPLINE
  5
2CD
100
AcDbEntity
  8
0
100
AcDbSpline
 62
7
  6
CONTINUOUS
 70
0
 71
3
 72
17
 73
13
 74
0
 42
0.0000001
 43
0.0000001
 44
0.0000000001
 40
0.0
 40
0.0
 40
0.0
 40
0.0
 40
0.123539466
 40
0.1854502839
 40
0.2474566064
 40
0.3717585312
 40
0.4964847686
 40
0.5590202905
 40
0.6216698446
 40
0.7473042276
 40
0.8734143289
 40
1.0
 40
1.0
 40
1.0
 40
1.0
 10
10.5696475298
 20
5.9746543602
 30
0.0
 10
10.5615326261
 20
5.971430621
 30
0.0
 10
10.549208128
 20
5.9669401154
 30
0.0
 10
10.5325320301
 20
5.9616603834
 30
0.0
 10
10.5156602245
 20
5.9568420657
 30
0.0
 10
10.4942714737
 20
5.9517075788
 30
0.0
 10
10.472590796
 20
5.9477794668
 30
0.0
 10
10.4550912868
 20
5.9453614066
 30
0.0
 10
10.4374674143
 20
5.9434251104
 30
0.0
 10
10.4152844628
 20
5.9419202927
 30
0.0
 10
10.3885336668
 20
5.9415835939
 30
0.0
 10
10.3706784202
 20
5.9423363761
 30
0.0
 10
10.3617527619
 20
5.9429553726
 30
0.0
  0
SPLINE
  5
2CE
100
AcDbEntity
  8
0
100
AcDbSpline
 62
7
  6
CONTINUOUS
 70
0
 71
3
 72
28
 73
24
 74
0
 42
0.0000001
 43
0.0000001
 44
0.0000000001
 40
0.0
 40
0.0
 40
0.0
 40
0.0
 40
0.0301792921
 40
0.0603926603
 40
0.0906422425
 40
0.120937079
 40
0.1512846447
 40
0.1816908113
 40
0.2121615459
 40
0.2427024253
 40
0.2733183194
 40
0.3040135564
 40
0.3656417389
 40
0.4276240657
 40
0.489972219
 40
0.5526872008
 40
0.6157594891
 40
0.6791694834
 40
0.7428882135
 40
0.8068782128
 40
0.8710949902
 40
0.935486838
 40
1.0
 40
1.0
 40
1.0
 40
1.0
 10
10.5346645839
 20
6.2490433776
 30
0.0
 10
10.5319438239
 20
6.2470283651
 30
0.0
 10
10.5264065749
 20
6.2431194874
 30
0.0
 10
10.5178387661
 20
6.2376364763
 30
0.0
 10
10.5090198724
 20
6.2325407943
 30
0.0
 10
10.4999664417
 20
6.2278419042
 30
0.0
 10
10.4906946791
 20
6.2235480398
 30
0.0
 10
10.4812213096
 20
6.2196671624
 30
0.0
 10
10.471563582
 20
6.2162061538
 30
0.0
 10
10.4617390127
 20
6.2131713696
 30
0.0
 10
10.4517651562
 20
6.2105682312
 30
0.0
 10
10.4382761475
 20
6.2076756377
 30
0.0
 10
10.4211241759
 20
6.2051641713
 30
0.0
 10
10.4002730625
 20
6.2039394868
 30
0.0
 10
10.3792713852
 20
6.2045070794
 30
0.0
 10
10.3582721326
 20
6.2068626374
 30
0.0
 10
10.3374268353
 20
6.210988633
 30
0.0
 10
10.3168861902
 20
6.2168548782
 30
0.0
 10
10.2967985014
 20
6.2244186701
 30
0.0
 10
10.2773088459
 20
6.2336249689
 30
0.0
 10
10.2585576222
 20
6.2444073803
 30
0.0
 10
10.2406813266
 20
6.2566866367
 30
0.0
 10
10.2294369119
 20
6.2658087848
 30
0.0
 10
10.2240018022
 20
6.2705879147
 30
0.0
  0
SPLINE
  5
2CF
100
AcDbEntity
  8
0
100
AcDbSpline
 62
7
  6
CONTINUOUS
 70
0
 71
3
 72
71
 73
67
 74
0
 42
0.0000001
 43
0.0000001
 44
0.0000000001
 40
0.0
 40
0.0
 40
0.0
 40
0.0
 40
0.0149634984
 40
0.0299319075
 40
0.0449080938
 40
0.0598948802
 40
0.0748950267
 40
0.0899112161
 40
0.1049460404
 40
0.1200019842
 40
0.1350814098
 40
0.1501865489
 40
0.1653194866
 40
0.18048215
 40
0.1956763029
 40
0.2109035332
 40
0.226165244
 40
0.2414626524
 40
0.2567967804
 40
0.2721684491
 40
0.2875782812
 40
0.3030266955
 40
0.3185139041
 40
0.3340399192
 40
0.3496045496
 40
0.3652074024
 40
0.3808478914
 40
0.3965252383
 40
0.4122384756
 40
0.4279864587
 40
0.4437678689
 40
0.4595812193
 40
0.4754248687
 40
0.4912970264
 40
0.5071957608
 40
0.5231190145
 40
0.5390646102
 40
0.555030262
 40
0.5710135905
 40
0.5870121307
 40
0.6030233441
 40
0.6190446345
 40
0.6350733561
 40
0.651106828
 40
0.6671423485
 40
0.6831772045
 40
0.6992086863
 40
0.7152341015
 40
0.7312507846
 40
0.747256112
 40
0.7632475152
 40
0.7792224896
 40
0.7951786102
 40
0.8111135431
 40
0.8270250533
 40
0.8429110208
 40
0.8587694494
 40
0.8745984738
 40
0.8903963787
 40
0.9061615921
 40
0.9218927033
 40
0.9375885265
 40
0.9532479093
 40
0.9688699233
 40
0.9844545673
 40
1.0
 40
1.0
 40
1.0
 40
1.0
 10
9.3460266604
 20
6.8211487381
 30
0.0
 10
9.3382776472
 20
6.8132504916
 30
0.0
 10
9.3230815174
 20
6.7971493626
 30
0.0
 10
9.3012360113
 20
6.7721288183
 30
0.0
 10
9.2803636428
 20
6.7462681239
 30
0.0
 10
9.2604921943
 20
6.7196015343
 30
0.0
 10
9.2416475862
 20
6.6921637594
 30
0.0
 10
9.2238543937
 20
6.6639907835
 30
0.0
 10
9.2071358847
 20
6.6351194259
 30
0.0
 10
9.1915139837
 20
6.6055874104
 30
0.0
 10
9.177009003
 20
6.5754334131
 30
0.0
 10
9.1636399131
 20
6.544696853
 30
0.0
 10
9.1514242542
 20
6.5134178942
 30
0.0
 10
9.1403778735
 20
6.4816374809
 30
0.0
 10
9.1305152139
 20
6.4493971553
 30
0.0
 10
9.1218492287
 20
6.41673905
 30
0.0
 10
9.1143911166
 20
6.3837058926
 30
0.0
 10
9.108150625
 20
6.3503408582
 30
0.0
 10
9.1031359714
 20
6.3166875506
 30
0.0
 10
9.0993535772
 20
6.2827899778
 30
0.0
 10
9.096808383
 20
6.2486924391
 30
0.0
 10
9.0955037766
 20
6.2144394963
 30
0.0
 10
9.09544133
 20
6.1800759208
 30
0.0
 10
9.0966211216
 20
6.1456466152
 30
0.0
 10
9.0990416727
 20
6.1111965763
 30
0.0
 10
9.10269969
 20
6.0767708137
 30
0.0
 10
9.1075903912
 20
6.0424143063
 30
0.0
 10
9.1137074508
 20
6.0081719583
 30
0.0
 10
9.1210427508
 20
5.9740884903
 30
0.0
 10
9.1295867065
 20
5.9402084304
 30
0.0
 10
9.1393282212
 20
5.9065760638
 30
0.0
 10
9.1502544492
 20
5.8732352992
 30
0.0
 10
9.1623511168
 20
5.8402296916
 30
0.0
 10
9.1756024879
 20
5.8076023891
 30
0.0
 10
9.1899911403
 20
5.7753959745
 30
0.0
 10
9.2054982799
 20
5.7436525195
 30
0.0
 10
9.2221037164
 20
5.71241353
 30
0.0
 10
9.2397856558
 20
5.6817197643
 30
0.0
 10
9.2585210044
 20
5.6516113183
 30
0.0
 10
9.2782853553
 20
5.6221275695
 30
0.0
 10
9.2990527979
 20
5.5933069747
 30
0.0
 10
9.3207962105
 20
5.5651871838
 30
0.0
 10
9.3434872556
 20
5.5378049854
 30
0.0
 10
9.3670962098
 20
5.5111960842
 30
0.0
 10
9.3915922413
 20
5.4853952428
 30
0.0
 10
9.4169434148
 20
5.4604362299
 30
0.0
 10
9.443116542
 20
5.4363515802
 30
0.0
 10
9.4700774426
 20
5.4131727612
 30
0.0
 10
9.4977909576
 20
5.3909301265
 30
0.0
 10
9.5262208223
 20
5.3696526589
 30
0.0
 10
9.5553299092
 20
5.3493681623
 30
0.0
 10
9.5850802471
 20
5.3301032195
 30
0.0
 10
9.6154329199
 20
5.3118829216
 30
0.0
 10
9.6463482873
 20
5.2947310825
 30
0.0
 10
9.6777860111
 20
5.2786702026
 30
0.0
 10
9.7097049792
 20
5.2637211874
 30
0.0
 10
9.7420635029
 20
5.2499035809
 30
0.0
 10
9.7748193501
 20
5.2372355359
 30
0.0
 10
9.8079296932
 20
5.2257335306
 30
0.0
 10
9.8413512782
 20
5.215412607
 30
0.0
 10
9.8750404926
 20
5.206286343
 30
0.0
 10
9.9089532822
 20
5.1983666356
 30
0.0
 10
9.9430452186
 20
5.1916638194
 30
0.0
 10
9.9772723248
 20
5.1861866497
 30
0.0
 10
10.0115887812
 20
5.1819425674
 30
0.0
 10
10.0345262317
 20
5.1799360893
 30
0.0
 10
10.0459937875
 20
5.1791408116
 30
0.0
  0
SPLINE
  5
2D0
100
AcDbEntity
  8
0
100
AcDbSpline
 62
7
  6
CONTINUOUS
 70
0
 71
3
 72
69
 73
65
 74
0
 42
0.0000001
 43
0.0000001
 44
0.0000000001
 40
0.0
 40
0.0
 40
0.0
 40
0.0
 40
0.0155529016
 40
0.0311453657
 40
0.0467756546
 40
0.0624437271
 40
0.0781485859
 40
0.0938890747
 40
0.1096639662
 40
0.125471802
 40
0.1413109642
 40
0.1571796856
 40
0.1730760453
 40
0.1889979862
 40
0.204943327
 40
0.2209097693
 40
0.236894911
 40
0.2528962607
 40
0.2689112469
 40
0.2849372312
 40
0.3009715238
 40
0.3170113935
 40
0.3330540817
 40
0.3490968179
 40
0.3811666919
 40
0.4132037325
 40
0.4292055931
 40
0.4451913334
 40
0.4611584582
 40
0.4771045617
 40
0.4930273431
 40
0.5089246162
 40
0.5247943185
 40
0.5406345267
 40
0.5564434648
 40
0.5722195113
 40
0.5879612128
 40
0.603667291
 40
0.6193366472
 40
0.6349683731
 40
0.6505617571
 40
0.6661162853
 40
0.6816316484
 40
0.6971077471
 40
0.7125446897
 40
0.7279427945
 40
0.7433025929
 40
0.7586248246
 40
0.773910434
 40
0.7891605714
 40
0.8043765848
 40
0.8195600118
 40
0.8347125767
 40
0.8498361798
 40
0.8649328855
 40
0.8800049143
 40
0.8950546307
 40
0.9100845277
 40
0.9250972139
 40
0.9400954006
 40
0.9550818836
 40
0.9700595268
 40
0.985031248
 40
1.0
 40
1.0
 40
1.0
 40
1.0
 10
10.0294293819
 20
5.1631408235
 30
0.0
 10
10.0178374107
 20
5.1639447294
 30
0.0
 10
9.9946511243
 20
5.1659775313
 30
0.0
 10
9.9599638897
 20
5.1702879569
 30
0.0
 10
9.9253689618
 20
5.1758581836
 30
0.0
 10
9.8909136025
 20
5.182680471
 30
0.0
 10
9.8566432733
 20
5.1907457773
 30
0.0
 10
9.8226038481
 20
5.2000432898
 30
0.0
 10
9.7888407852
 20
5.2105606112
 30
0.0
 10
9.7553991313
 20
5.2222836799
 30
0.0
 10
9.7223235086
 20
5.2351967733
 30
0.0
 10
9.6896580859
 20
5.2492826951
 30
0.0
 10
9.6574464688
 20
5.2645226397
 30
0.0
 10
9.6257316178
 20
5.2808961833
 30
0.0
 10
9.5945558787
 20
5.2983814978
 30
0.0
 10
9.5639608854
 20
5.3169552719
 30
0.0
 10
9.5339874288
 20
5.3365926327
 30
0.0
 10
9.504675521
 20
5.3572673787
 30
0.0
 10
9.4760643242
 20
5.3789519659
 30
0.0
 10
9.4481919836
 20
5.4016173726
 30
0.0
 10
9.4210956714
 20
5.4252333685
 30
0.0
 10
9.3948116928
 20
5.4497683868
 30
0.0
 10
9.3693747717
 20
5.4751900165
 30
0.0
 10
9.3366411991
 20
5.5102139536
 30
0.0
 10
9.2980111692
 20
5.5560330489
 30
0.0
 10
9.2626157257
 20
5.6043569731
 30
0.0
 10
9.2363649069
 20
5.6443534232
 30
0.0
 10
9.217741038
 20
5.674968835
 30
0.0
 10
9.2002011019
 20
5.7061696805
 30
0.0
 10
9.1837682525
 20
5.7379147263
 30
0.0
 10
9.1684644431
 20
5.7701614602
 30
0.0
 10
9.1543101152
 20
5.8028668859
 30
0.0
 10
9.1413242424
 20
5.8359873673
 30
0.0
 10
9.1295240954
 20
5.869478668
 30
0.0
 10
9.1189254438
 20
5.9032960896
 30
0.0
 10
9.1095425323
 20
5.9373945156
 30
0.0
 10
9.101387837
 20
5.9717284094
 30
0.0
 10
9.0944722427
 20
6.0062519383
 30
0.0
 10
9.0888050858
 20
6.0409190319
 30
0.0
 10
9.0843939103
 20
6.0756833999
 30
0.0
 10
9.0812445835
 20
6.1104986277
 30
0.0
 10
9.0793614093
 20
6.1453182407
 30
0.0
 10
9.0787469165
 20
6.1800957442
 30
0.0
 10
9.0794018845
 20
6.2147847023
 30
0.0
 10
9.0813255231
 20
6.2493387945
 30
0.0
 10
9.0845153157
 20
6.2837118715
 30
0.0
 10
9.0889669477
 20
6.3178580359
 30
0.0
 10
9.0946745365
 20
6.3517316809
 30
0.0
 10
9.1016305432
 20
6.385287549
 30
0.0
 10
9.1098256171
 20
6.4184808335
 30
0.0
 10
9.1192488492
 20
6.4512671943
 30
0.0
 10
9.1298877543
 20
6.4836028052
 30
0.0
 10
9.1417280673
 20
6.515444487
 30
0.0
 10
9.1547539816
 20
6.5467497045
 30
0.0
 10
9.1689481972
 20
6.5774765924
 30
0.0
 10
9.1842917165
 20
6.6075841119
 30
0.0
 10
9.2007640237
 20
6.6370320508
 30
0.0
 10
9.2183431985
 20
6.6657810159
 30
0.0
 10
9.2370057412
 20
6.693792593
 30
0.0
 10
9.2567266857
 20
6.721029392
 30
0.0
 10
9.2774797095
 20
6.7474549412
 30
0.0
 10
9.29923723
 20
6.7730340361
 30
0.0
 10
9.321969624
 20
6.7977320826
 30
0.0
 10
9.3377559934
 20
6.8135897322
 30
0.0
 10
9.3457997012
 20
6.8213593454
 30
0.0
  0
SPLINE
  5
2D1
100
AcDbEntity
  8
0
100
AcDbSpline
 62
7
  6
CONTINUOUS
 70
0
 71
3
 72
72
 73
68
 74
0
 42
0.0000001
 43
0.0000001
 44
0.0000000001
 40
0.0
 40
0.0
 40
0.0
 40
0.0
 40
0.0153860725
 40
0.0230629506
 40
0.0307290491
 40
0.0460290116
 40
0.0612896414
 40
0.0765139001
 40
0.0917050717
 40
0.1068667376
 40
0.122002748
 40
0.137117188
 40
0.1522143397
 40
0.1672986429
 40
0.1823746566
 40
0.1974470177
 40
0.2125203966
 40
0.2275994527
 40
0.2426887935
 40
0.2577929326
 40
0.2729162471
 40
0.2880629365
 40
0.3032369867
 40
0.3184421363
 40
0.3336818426
 40
0.3489592506
 40
0.3642771689
 40
0.3796380501
 40
0.3950439693
 40
0.4104966071
 40
0.4259972425
 40
0.441546746
 40
0.4571455745
 40
0.4727937684
 40
0.4884909598
 40
0.5042363793
 40
0.5200288638
 40
0.5358668672
 40
0.5517484809
 40
0.5676714516
 40
0.5836331982
 40
0.5996308347
 40
0.6156611988
 40
0.6317208759
 40
0.6478062244
 40
0.6639134064
 40
0.6800384198
 40
0.6961771272
 40
0.7123252859
 40
0.7284785823
 40
0.7446326662
 40
0.76078318
 40
0.7769257917
 40
0.7930562305
 40
0.8091703183
 40
0.8252639994
 40
0.8413333718
 40
0.857374722
 40
0.8733845501
 40
0.8893595975
 40
0.9052968797
 40
0.921193689
 40
0.9370476808
 40
0.9528568233
 40
0.9686192053
 40
0.9843343493
 40
1.0
 40
1.0
 40
1.0
 40
1.0
 10
9.9162943824
 20
6.7212883205
 30
0.0
 10
9.9074388617
 20
6.7199313021
 30
0.0
 10
9.8942096561
 20
6.717586297
 30
0.0
 10
9.8767118529
 20
6.7138422344
 30
0.0
 10
9.8593558086
 20
6.7096976707
 30
0.0
 10
9.8378946077
 20
6.7037600743
 30
0.0
 10
9.812558723
 20
6.6954331079
 30
0.0
 10
9.7877090678
 20
6.685926057
 30
0.0
 10
9.763397849
 20
6.6752587837
 30
0.0
 10
9.7396757418
 20
6.6634534371
 30
0.0
 10
9.7165922639
 20
6.6505346769
 30
0.0
 10
9.6941955812
 20
6.6365294494
 30
0.0
 10
9.6725324606
 20
6.6214669384
 30
0.0
 10
9.6516481544
 20
6.6053785267
 30
0.0
 10
9.6315862234
 20
6.5882978315
 30
0.0
 10
9.6123885337
 20
6.5702605034
 30
0.0
 10
9.5940951784
 20
6.5513041612
 30
0.0
 10
9.5767443622
 20
6.5314683528
 30
0.0
 10
9.5603722458
 20
6.5107945267
 30
0.0
 10
9.5450129784
 20
6.4893258413
 30
0.0
 10
9.5306986324
 20
6.4671070872
 30
0.0
 10
9.5174590725
 20
6.4441846419
 30
0.0
 10
9.5053218497
 20
6.4206063842
 30
0.0
 10
9.494312254
 20
6.3964215254
 30
0.0
 10
9.4844532672
 20
6.3716805199
 30
0.0
 10
9.4757654155
 20
6.3464350051
 30
0.0
 10
9.468266732
 20
6.320737676
 30
0.0
 10
9.461972814
 20
6.2946421424
 30
0.0
 10
9.4568967967
 20
6.2682028297
 30
0.0
 10
9.4530491956
 20
6.2414748945
 30
0.0
 10
9.4504379436
 20
6.2145140853
 30
0.0
 10
9.4490684431
 20
6.1873766183
 30
0.0
 10
9.4489435588
 20
6.1601190745
 30
0.0
 10
9.4500634641
 20
6.1327982839
 30
0.0
 10
9.4524257459
 20
6.1054711954
 30
0.0
 10
9.4560254488
 20
6.078194765
 30
0.0
 10
9.4608550825
 20
6.0510258497
 30
0.0
 10
9.4669044902
 20
6.0240210625
 30
0.0
 10
9.4741610055
 20
5.9972366687
 30
0.0
 10
9.4826094917
 20
5.9707284796
 30
0.0
 10
9.4922323571
 20
5.9445517431
 30
0.0
 10
9.5030094667
 20
5.9187609793
 30
0.0
 10
9.5149183258
 20
5.8934099109
 30
0.0
 10
9.5279341252
 20
5.8685513614
 30
0.0
 10
9.5420297573
 20
5.8442371371
 30
0.0
 10
9.5571757855
 20
5.8205178623
 30
0.0
 10
9.5733406343
 20
5.7974429418
 30
0.0
 10
9.5904906457
 20
5.7750604665
 30
0.0
 10
9.6085900962
 20
5.7534170814
 30
0.0
 10
9.6276012283
 20
5.7325578418
 30
0.0
 10
9.6474844311
 20
5.7125262009
 30
0.0
 10
9.6681983119
 20
5.6933639273
 30
0.0
 10
9.6896997173
 20
5.6751109545
 30
0.0
 10
9.7119438218
 20
5.6578052801
 30
0.0
 10
9.7348842896
 20
5.6414829678
 30
0.0
 10
9.7584733614
 20
5.6261780808
 30
0.0
 10
9.7826618872
 20
5.6119225136
 30
0.0
 10
9.807399457
 20
5.5987459502
 30
0.0
 10
9.8326345423
 20
5.5866758699
 30
0.0
 10
9.8583145962
 20
5.575737498
 30
0.0
 10
9.8843861011
 20
5.565953639
 30
0.0
 10
9.9107947284
 20
5.5573446598
 30
0.0
 10
9.9374854932
 20
5.5499285552
 30
0.0
 10
9.9644026314
 20
5.5437209366
 30
0.0
 10
9.9914905526
 20
5.5387345015
 30
0.0
 10
10.0186916815
 20
5.5349801099
 30
0.0
 10
10.036893961
 20
5.5333007601
 30
0.0
 10
10.0459937875
 20
5.532669685
 30
0.0
  0
SPLINE
  5
2D2
100
AcDbEntity
  8
0
100
AcDbSpline
 62
7
  6
CONTINUOUS
 70
0
 71
3
 72
72
 73
68
 74
0
 42
0.0000001
 43
0.0000001
 44
0.0000000001
 40
0.0
 40
0.0
 40
0.0
 40
0.0
 40
0.0153254906
 40
0.0229734241
 40
0.0306115527
 40
0.0458587046
 40
0.0610709013
 40
0.0762513582
 40
0.0914035644
 40
0.1065312572
 40
0.1216383901
 40
0.1367290956
 40
0.1518076504
 40
0.1668784415
 40
0.1819459247
 40
0.1970145831
 40
0.21208889
 40
0.2271732701
 40
0.2422720583
 40
0.2573894597
 40
0.2725295167
 40
0.2876960744
 40
0.3028927442
 40
0.3181228743
 40
0.3333895271
 40
0.3486954519
 40
0.3640430602
 40
0.3794344134
 40
0.394871209
 40
0.4103547653
 40
0.4258860137
 40
0.4414655011
 40
0.4570933848
 40
0.472769431
 40
0.4884930267
 40
0.5042631875
 40
0.520078564
 40
0.5359374563
 40
0.5518378351
 40
0.5677773558
 40
0.5837533749
 40
0.5997629789
 40
0.6158030055
 40
0.6318700648
 40
0.6479605679
 40
0.6640707572
 40
0.68019673
 40
0.6963344666
 40
0.7124798653
 40
0.7286287685
 40
0.7447769907
 40
0.7609203532
 40
0.7770547137
 40
0.7931759926
 40
0.8092802054
 40
0.8253634945
 40
0.8414221531
 40
0.8574526536
 40
0.8734516777
 40
0.8894161433
 40
0.9053432213
 40
0.9212303469
 40
0.9370753268
 40
0.9528761931
 40
0.9686311615
 40
0.9843399104
 40
1.0
 40
1.0
 40
1.0
 40
1.0
 10
9.949295787
 20
6.7253787831
 30
0.0
 10
9.9413674073
 20
6.7236708888
 30
0.0
 10
9.929539175
 20
6.720835734
 30
0.0
 10
9.9139261015
 20
6.7165120772
 30
0.0
 10
9.8984574104
 20
6.7118378411
 30
0.0
 10
9.8793666257
 20
6.7053311508
 30
0.0
 10
9.856888204
 20
6.6964717546
 30
0.0
 10
9.834897983
 20
6.6865829864
 30
0.0
 10
9.8134403699
 20
6.675684676
 30
0.0
 10
9.7925582681
 20
6.6637986826
 30
0.0
 10
9.7722935511
 20
6.650948823
 30
0.0
 10
9.7526868806
 20
6.6371607711
 30
0.0
 10
9.7337775594
 20
6.6224621696
 30
0.0
 10
9.7156034597
 20
6.6068825171
 30
0.0
 10
9.6982010336
 20
6.5904530106
 30
0.0
 10
9.6816052105
 20
6.573206541
 30
0.0
 10
9.6658491983
 20
6.5551777389
 30
0.0
 10
9.6509645626
 20
6.53640275
 30
0.0
 10
9.6369811881
 20
6.516919169
 30
0.0
 10
9.6239270675
 20
6.4967660787
 30
0.0
 10
9.6118282994
 20
6.4759839104
 30
0.0
 10
9.6007091391
 20
6.454614305
 30
0.0
 10
9.5905918923
 20
6.4327000798
 30
0.0
 10
9.5814967308
 20
6.4102851973
 30
0.0
 10
9.573441839
 20
6.3874145799
 30
0.0
 10
9.5664433921
 20
6.3641340372
 30
0.0
 10
9.5605153384
 20
6.3404902348
 30
0.0
 10
9.5556694656
 20
6.316530555
 30
0.0
 10
9.5519154792
 20
6.2923029855
 30
0.0
 10
9.5492609014
 20
6.2678560535
 30
0.0
 10
9.5477109286
 20
6.2432387334
 30
0.0
 10
9.5472686221
 20
6.2185003187
 30
0.0
 10
9.5479349026
 20
6.193690345
 30
0.0
 10
9.5497083523
 20
6.168858489
 30
0.0
 10
9.5525853394
 20
6.1440544574
 30
0.0
 10
9.5565601128
 20
6.1193279044
 30
0.0
 10
9.5616247165
 20
6.0947283325
 30
0.0
 10
9.5677689055
 20
6.0703049628
 30
0.0
 10
9.5749803554
 20
6.0461066699
 30
0.0
 10
9.5832446763
 20
6.0221819024
 30
0.0
 10
9.592545254
 20
5.9985785234
 30
0.0
 10
9.6028634181
 20
5.9753437472
 30
0.0
 10
9.6141785443
 20
5.9525240832
 30
0.0
 10
9.6264679946
 20
5.9301652075
 30
0.0
 10
9.6397070963
 20
5.9083118234
 30
0.0
 10
9.6538693518
 20
5.8870076563
 30
0.0
 10
9.6689264715
 20
5.8662953759
 30
0.0
 10
9.6848482703
 20
5.8462163956
 30
0.0
 10
9.7016028584
 20
5.8268108695
 30
0.0
 10
9.7191567462
 20
5.8081176613
 30
0.0
 10
9.7374748186
 20
5.7901741947
 30
0.0
 10
9.7565203712
 20
5.7730163283
 30
0.0
 10
9.7762553051
 20
5.7566784055
 30
0.0
 10
9.7966401779
 20
5.7411931843
 30
0.0
 10
9.8176341633
 20
5.726591615
 30
0.0
 10
9.8391952428
 20
5.7129029026
 30
0.0
 10
9.8612803077
 20
5.7001545015
 30
0.0
 10
9.8838451722
 20
5.6883719538
 30
0.0
 10
9.9068446556
 20
5.677578796
 30
0.0
 10
9.9302327492
 20
5.6677966621
 30
0.0
 10
9.953962674
 20
5.6590452291
 30
0.0
 10
9.9779869263
 20
5.651341954
 30
0.0
 10
10.0022574446
 20
5.6447022923
 30
0.0
 10
10.0267255235
 20
5.6391396479
 30
0.0
 10
10.0513426929
 20
5.6346649959
 30
0.0
 10
10.0760586171
 20
5.6312876933
 30
0.0
 10
10.0925959201
 20
5.6297695382
 30
0.0
 10
10.1008633797
 20
5.6291961879
 30
0.0
  0
SPLINE
  5
2D3
100
AcDbEntity
  8
0
100
AcDbSpline
 62
7
  6
CONTINUOUS
 70
0
 71
3
 72
48
 73
44
 74
0
 42
0.0000001
 43
0.0000001
 44
0.0000000001
 40
0.0
 40
0.0
 40
0.0
 40
0.0
 40
0.0149702851
 40
0.0299435414
 40
0.044922719
 40
0.0599107383
 40
0.0749104617
 40
0.0899246871
 40
0.1049561249
 40
0.120007383
 40
0.1350809584
 40
0.1501792108
 40
0.1653043648
 40
0.1804584832
 40
0.1956434668
 40
0.2108610407
 40
0.2261127407
 40
0.2413999192
 40
0.2567237202
 40
0.2720850944
 40
0.3029180489
 40
0.3339075139
 40
0.3650535222
 40
0.3963527914
 40
0.427798842
 40
0.4593821749
 40
0.4910905048
 40
0.5229090391
 40
0.554820799
 40
0.5868069725
 40
0.6188472959
 40
0.6509204558
 40
0.6830045044
 40
0.7150772843
 40
0.7471168551
 40
0.7791019177
 40
0.8110122299
 40
0.8428290077
 40
0.8745353122
 40
0.9061163648
 40
0.9375600334
 40
0.9688565279
 40
1.0
 40
1.0
 40
1.0
 40
1.0
 10
9.7637857306
 20
6.5646968935
 30
0.0
 10
9.7596249153
 20
6.5606778563
 30
0.0
 10
9.7514589943
 20
6.5524750821
 30
0.0
 10
9.7397001112
 20
6.5396993351
 30
0.0
 10
9.7284454842
 20
6.5264678657
 30
0.0
 10
9.7177104546
 20
6.5127985496
 30
0.0
 10
9.7075093158
 20
6.49870958
 30
0.0
 10
9.6978556178
 20
6.4842198665
 30
0.0
 10
9.6887624054
 20
6.4693486688
 30
0.0
 10
9.6802416331
 20
6.4541159764
 30
0.0
 10
9.6723048643
 20
6.4385420406
 30
0.0
 10
9.6649625462
 20
6.4226477514
 30
0.0
 10
9.658224556
 20
6.4064543077
 30
0.0
 10
9.6520998926
 20
6.3899833488
 30
0.0
 10
9.6465966315
 20
6.3732569111
 30
0.0
 10
9.6417222796
 20
6.3562972964
 30
0.0
 10
9.6374831264
 20
6.3391271975
 30
0.0
 10
9.6338850331
 20
6.3217695829
 30
0.0
 10
9.6309326116
 20
6.3042473651
 30
0.0
 10
9.627858785
 20
6.2806702054
 30
0.0
 10
9.6256539863
 20
6.2508962989
 30
0.0
 10
9.6256382164
 20
6.2149397537
 30
0.0
 10
9.6282479388
 20
6.1788968193
 30
0.0
 10
9.6334690226
 20
6.1429611347
 30
0.0
 10
9.6412731779
 20
6.1073240244
 30
0.0
 10
9.6516184547
 20
6.072175605
 30
0.0
 10
9.6644493845
 20
6.037703216
 30
0.0
 10
9.6796973062
 20
6.0040905887
 30
0.0
 10
9.6972807291
 20
5.971516841
 30
0.0
 10
9.7171057616
 20
5.9401555433
 30
0.0
 10
9.7390666006
 20
5.9101737927
 30
0.0
 10
9.7630461121
 20
5.8817313447
 30
0.0
 10
9.7889164464
 20
5.8549797701
 30
0.0
 10
9.8165397146
 20
5.8300616565
 30
0.0
 10
9.8457687145
 20
5.8071098569
 30
0.0
 10
9.8764477063
 20
5.7862467884
 30
0.0
 10
9.9084132352
 20
5.7675837839
 30
0.0
 10
9.9414949636
 20
5.7512204793
 30
0.0
 10
9.9755166566
 20
5.7372443244
 30
0.0
 10
10.0102968383
 20
5.7257300534
 30
0.0
 10
10.0456507236
 20
5.7167394252
 30
0.0
 10
10.081387384
 20
5.7103207296
 30
0.0
 10
10.1054059488
 20
5.7077726601
 30
0.0
 10
10.1174117405
 20
5.7069400557
 30
0.0
  0
SPLINE
  5
2D4
100
AcDbEntity
  8
0
100
AcDbSpline
 62
7
  6
CONTINUOUS
 70
0
 71
3
 72
43
 73
39
 74
0
 42
0.0000001
 43
0.0000001
 44
0.0000000001
 40
0.0
 40
0.0
 40
0.0
 40
0.0
 40
0.0150145784
 40
0.0300531743
 40
0.0451171527
 40
0.0602077847
 40
0.0904696792
 40
0.1208506531
 40
0.1360896322
 40
0.1513604778
 40
0.1666636287
 40
0.1819994114
 40
0.2127658536
 40
0.2436635602
 40
0.2746906003
 40
0.3058431151
 40
0.3371153974
 40
0.3684999966
 40
0.3999878443
 40
0.4315684006
 40
0.4632298153
 40
0.4949591052
 40
0.5267423423
 40
0.5585648516
 40
0.5904114169
 40
0.6222664913
 40
0.6541144112
 40
0.685939611
 40
0.7177268374
 40
0.7494613605
 40
0.7811291797
 40
0.8127172218
 40
0.8442135334
 40
0.8756074483
 40
0.9068897826
 40
0.9380528926
 40
0.9690910244
 40
1.0
 40
1.0
 40
1.0
 40
1.0
 10
9.9093466563
 20
6.6584818168
 30
0.0
 10
9.9073670363
 20
6.6539665961
 30
0.0
 10
9.9035510097
 20
6.6448639374
 30
0.0
 10
9.8982671477
 20
6.6310212112
 30
0.0
 10
9.8934236973
 20
6.6169915835
 30
0.0
 10
9.8875544164
 20
6.5980386257
 30
0.0
 10
9.8813426693
 20
6.573940823
 30
0.0
 10
9.8766640177
 20
6.5494498232
 30
0.0
 10
9.8738424808
 20
6.529653301
 30
0.0
 10
9.8721877175
 20
6.5146990837
 30
0.0
 10
9.8709981903
 20
6.4996688167
 30
0.0
 10
9.8700331345
 20
6.4795264385
 30
0.0
 10
9.8699982602
 20
6.4542255704
 30
0.0
 10
9.8718254963
 20
6.4238262592
 30
0.0
 10
9.8755144142
 20
6.39346825
 30
0.0
 10
9.8810509025
 20
6.3632676198
 30
0.0
 10
9.8884137645
 20
6.3333388373
 30
0.0
 10
9.8975749065
 20
6.3037955837
 30
0.0
 10
9.9084994195
 20
6.2747499878
 30
0.0
 10
9.92114572
 20
6.2463122954
 30
0.0
 10
9.935465707
 20
6.2185904304
 30
0.0
 10
9.9514049455
 20
6.1916895957
 30
0.0
 10
9.9689028725
 20
6.1657118753
 30
0.0
 10
9.987893026
 20
6.1407558512
 30
0.0
 10
10.0083032964
 20
6.1169162319
 30
0.0
 10
10.0300561983
 20
6.0942834957
 30
0.0
 10
10.0530691628
 20
6.0729435501
 30
0.0
 10
10.0772548491
 20
6.0529774078
 30
0.0
 10
10.1025214731
 20
6.0344608812
 30
0.0
 10
10.1287731533
 20
6.0174642962
 30
0.0
 10
10.155910271
 20
6.0020522274
 30
0.0
 10
10.1838298484
 20
5.9882832511
 30
0.0
 10
10.2124259229
 20
5.9762097316
 30
0.0
 10
10.2415899954
 20
5.9658776017
 30
0.0
 10
10.2712112499
 20
5.9573262377
 30
0.0
 10
10.3011776626
 20
5.9505881896
 30
0.0
 10
10.3313739156
 20
5.9456893431
 30
0.0
 10
10.3516279404
 20
5.9436575314
 30
0.0
 10
10.3617527619
 20
5.9429553726
 30
0.0
  0
SPLINE
  5
2D5
100
AcDbEntity
  8
0
100
AcDbSpline
 62
7
  6
CONTINUOUS
 70
0
 71
3
 72
14
 73
10
 74
0
 42
0.0000001
 43
0.0000001
 44
0.0000000001
 40
0.0
 40
0.0
 40
0.0
 40
0.0
 40
0.25835427
 40
0.3855721376
 40
0.511361176
 40
0.6356855067
 40
0.7585416705
 40
0.8799620377
 40
1.0
 40
1.0
 40
1.0
 40
1.0
 10
10.3825984609
 20
6.2290618487
 30
0.0
 10
10.3958695687
 20
6.2281414943
 30
0.0
 10
10.4157600498
 20
6.2277033624
 30
0.0
 10
10.4420616597
 20
6.2290968107
 30
0.0
 10
10.4613953694
 20
6.2311128747
 30
0.0
 10
10.4803747889
 20
6.2341026781
 30
0.0
 10
10.4989469009
 20
6.2380612075
 30
0.0
 10
10.5170588803
 20
6.2429809856
 30
0.0
 10
10.528860846
 20
6.2469173008
 30
0.0
 10
10.5346645839
 20
6.2490433776
 30
0.0
  0
SPLINE
  5
2D6
100
AcDbEntity
  8
0
100
AcDbSpline
 62
7
  6
CONTINUOUS
 70
0
 71
3
 72
43
 73
39
 74
0
 42
0.0000001
 43
0.0000001
 44
0.0000000001
 40
0.0
 40
0.0
 40
0.0
 40
0.0
 40
0.0149742279
 40
0.0299677417
 40
0.044982447
 40
0.0600201562
 40
0.0750825708
 40
0.0901712827
 40
0.1052877623
 40
0.1204333531
 40
0.1508122945
 40
0.1813205077
 40
0.2119637603
 40
0.2427454625
 40
0.2736666398
 40
0.3047259473
 40
0.335919724
 40
0.3672420825
 40
0.398685033
 40
0.4302386375
 40
0.4618911889
 40
0.4936294144
 40
0.5254386959
 40
0.557303308
 40
0.5892066676
 40
0.6211315936
 40
0.6530605731
 40
0.6849760312
 40
0.7168606011
 40
0.7486973916
 40
0.7804702501
 40
0.8121640177
 40
0.8437647719
 40
0.8752600623
 40
0.9066390913
 40
0.9378930363
 40
0.9690147524
 40
1.0
 40
1.0
 40
1.0
 40
1.0
 10
9.6846186097
 20
9.0785483889
 30
0.0
 10
9.6802766044
 20
9.0712215195
 30
0.0
 10
9.6718404793
 20
9.056406424
 30
0.0
 10
9.659954549
 20
9.0337451279
 30
0.0
 10
9.648840964
 20
9.0106548208
 30
0.0
 10
9.6385119142
 20
8.9871603748
 30
0.0
 10
9.6289782522
 20
8.9632867327
 30
0.0
 10
9.6202501396
 20
8.9390594472
 30
0.0
 10
9.6123368898
 20
8.9145039121
 30
0.0
 10
9.6028748216
 20
8.8813311184
 30
0.0
 10
9.5931280075
 20
8.8391625102
 30
0.0
 10
9.5848199201
 20
8.7877323625
 30
0.0
 10
9.5799210843
 20
8.7356355065
 30
0.0
 10
9.5784524086
 20
8.6830953194
 30
0.0
 10
9.5804196202
 20
8.6303350558
 30
0.0
 10
9.5858139982
 20
8.5775793514
 30
0.0
 10
9.5946122241
 20
8.5250526151
 30
0.0
 10
9.6067765437
 20
8.4729782623
 30
0.0
 10
9.6222548994
 20
8.4215777198
 30
0.0
 10
9.6409811871
 20
8.37106951
 30
0.0
 10
9.662875539
 20
8.3216683297
 30
0.0
 10
9.6878446653
 20
8.2735841487
 30
0.0
 10
9.7157822512
 20
8.2270213275
 30
0.0
 10
9.7465694075
 20
8.1821777583
 30
0.0
 10
9.7800751722
 20
8.139244032
 30
0.0
 10
9.8161570469
 20
8.0984026211
 30
0.0
 10
9.8546616193
 20
8.0598271226
 30
0.0
 10
9.8954252096
 20
8.0236815277
 30
0.0
 10
9.9382745598
 20
7.9901195301
 30
0.0
 10
9.9830275641
 20
7.9592838782
 30
0.0
 10
10.0294940329
 20
7.9313057725
 30
0.0
 10
10.0774764999
 20
7.9063043117
 30
0.0
 10
10.1267710178
 20
7.8843859608
 30
0.0
 10
10.177168117
 20
7.8656441401
 30
0.0
 10
10.2284533778
 20
7.8501587658
 30
0.0
 10
10.2804094582
 20
7.8379960455
 30
0.0
 10
10.3328125934
 20
7.8292080567
 30
0.0
 10
10.3679830259
 20
7.8256160183
 30
0.0
 10
10.3855641061
 20
7.8243967662
 30
0.0
  0
SPLINE
  5
2D7
100
AcDbEntity
  8
0
100
AcDbSpline
 62
7
  6
CONTINUOUS
 70
0
 71
3
 72
23
 73
19
 74
0
 42
0.0000001
 43
0.0000001
 44
0.0000000001
 40
0.0
 40
0.0
 40
0.0
 40
0.0
 40
0.0616252336
 40
0.1233349428
 40
0.1851378385
 40
0.2470421678
 40
0.3090556386
 40
0.3711854098
 40
0.4334380512
 40
0.4958195116
 40
0.5583350911
 40
0.6209893606
 40
0.6837863899
 40
0.7467294977
 40
0.8098204643
 40
0.8730618123
 40
0.9364572374
 40
1.0
 40
1.0
 40
1.0
 40
1.0
 10
10.8082005383
 20
7.9146864186
 30
0.0
 10
10.8003025055
 20
7.9103749957
 30
0.0
 10
10.784336047
 20
7.9020349381
 30
0.0
 10
10.759928953
 20
7.890399847
 30
0.0
 10
10.7350768035
 20
7.8796445494
 30
0.0
 10
10.7098094933
 20
7.8697821975
 30
0.0
 10
10.6841569747
 20
7.8608243895
 30
0.0
 10
10.6581497907
 20
7.8527817092
 30
0.0
 10
10.6318188022
 20
7.8456638538
 30
0.0
 10
10.6051953586
 20
7.8394790882
 30
0.0
 10
10.5783110776
 20
7.8342348805
 30
0.0
 10
10.5511979148
 20
7.8299374031
 30
0.0
 10
10.5238880793
 20
7.8265916742
 30
0.0
 10
10.4964140773
 20
7.8242018531
 30
0.0
 10
10.4688086043
 20
7.8227704872
 30
0.0
 10
10.4411039529
 20
7.8222994409
 30
0.0
 10
10.4133340304
 20
7.8227893624
 30
0.0
 10
10.3948200446
 20
7.8237548647
 30
0.0
 10
10.3855641061
 20
7.8243967662
 30
0.0
  0
SPLINE
  5
2D8
100
AcDbEntity
  8
0
100
AcDbSpline
 62
7
  6
CONTINUOUS
 70
0
 71
3
 72
50
 73
46
 74
0
 42
0.0000001
 43
0.0000001
 44
0.0000000001
 40
0.0
 40
0.0
 40
0.0
 40
0.0
 40
0.0094676031
 40
0.0186047385
 40
0.0274605132
 40
0.0360850939
 40
0.0445300579
 40
0.0528460537
 40
0.0610834188
 40
0.069290165
 40
0.0775116173
 40
0.0857903599
 40
0.0941645817
 40
0.1026692658
 40
0.120180971
 40
0.1292475025
 40
0.1385466159
 40
0.157904256
 40
0.1679966126
 40
0.178377799
 40
0.1890577849
 40
0.2000447315
 40
0.2113454948
 40
0.2229668957
 40
0.2349146713
 40
0.2471937028
 40
0.2727644296
 40
0.2997182912
 40
0.3280926686
 40
0.3579260855
 40
0.3892607188
 40
0.4221439763
 40
0.4566281814
 40
0.4927714247
 40
0.5306362792
 40
0.5702867442
 40
0.6117829196
 40
0.6551709822
 40
0.7004662141
 40
0.7476255976
 40
0.7965065628
 40
0.8468127951
 40
0.8980346217
 40
0.9494174889
 40
1.0
 40
1.0
 40
1.0
 40
1.0
 10
10.0091324175
 20
7.6850289276
 30
0.0
 10
10.008696958
 20
7.6862324099
 30
0.0
 10
10.0079266658
 20
7.6886295128
 30
0.0
 10
10.0070659648
 20
7.692244257
 30
0.0
 10
10.0065139462
 20
7.6958038749
 30
0.0
 10
10.0062624502
 20
7.6993034736
 30
0.0
 10
10.0063031969
 20
7.7027389185
 30
0.0
 10
10.0066277584
 20
7.7061066116
 30
0.0
 10
10.0072279441
 20
7.7094034173
 30
0.0
 10
10.008095442
 20
7.7126267696
 30
0.0
 10
10.0092222149
 20
7.715774627
 30
0.0
 10
10.0106004569
 20
7.7188453121
 30
0.0
 10
10.0122226178
 20
7.7218379043
 30
0.0
 10
10.0147247187
 20
7.7257598419
 30
0.0
 10
10.0176781093
 20
7.7294898565
 30
0.0
 10
10.0210115305
 20
7.7330149924
 30
0.0
 10
10.0247159054
 20
7.7365229952
 30
0.0
 10
10.0287958232
 20
7.7398233435
 30
0.0
 10
10.0331960378
 20
7.7429282754
 30
0.0
 10
10.0367354184
 20
7.7452127914
 30
0.0
 10
10.0404637989
 20
7.747421019
 30
0.0
 10
10.0443778733
 20
7.7495539455
 30
0.0
 10
10.0484744055
 20
7.7516124723
 30
0.0
 10
10.0527506622
 20
7.7535973632
 30
0.0
 10
10.0572041455
 20
7.7555095654
 30
0.0
 10
10.063460091
 20
7.7579971429
 30
0.0
 10
10.0717224825
 20
7.7609193544
 30
0.0
 10
10.0821875499
 20
7.7641044909
 30
0.0
 10
10.0933270939
 20
7.7670206934
 30
0.0
 10
10.1051393206
 20
7.7696743902
 30
0.0
 10
10.1176272023
 20
7.7720713136
 30
0.0
 10
10.130797956
 20
7.77421616
 30
0.0
 10
10.1446628955
 20
7.7761128316
 30
0.0
 10
10.1592369669
 20
7.7777639813
 30
0.0
 10
10.1745379672
 20
7.7791708373
 30
0.0
 10
10.1905849706
 20
7.7803330962
 30
0.0
 10
10.2073956345
 20
7.7812486507
 30
0.0
 10
10.2249816423
 20
7.7819134272
 30
0.0
 10
10.2433411808
 20
7.7823213437
 30
0.0
 10
10.2624472089
 20
7.7824645592
 30
0.0
 10
10.2822307134
 20
7.7823342816
 30
0.0
 10
10.3025596291
 20
7.7819224283
 30
0.0
 10
10.323219161
 20
7.7812243985
 30
0.0
 10
10.3439045146
 20
7.7802424431
 30
0.0
 10
10.3576627703
 20
7.7793941225
 30
0.0
 10
10.3644841888
 20
7.7789210555
 30
0.0
  0
SPLINE
  5
2D9
100
AcDbEntity
  8
0
100
AcDbSpline
 62
7
  6
CONTINUOUS
 70
0
 71
3
 72
35
 73
31
 74
0
 42
0.0000001
 43
0.0000001
 44
0.0000000001
 40
0.0
 40
0.0
 40
0.0
 40
0.0
 40
0.0192990148
 40
0.0387107334
 40
0.0583456884
 40
0.0783104142
 40
0.0987057946
 40
0.1196257109
 40
0.1633559271
 40
0.1863353282
 40
0.2101365563
 40
0.2348145115
 40
0.2604170543
 40
0.2869859638
 40
0.3145569655
 40
0.3431605134
 40
0.3728226466
 40
0.4035648325
 40
0.4354048041
 40
0.4683571637
 40
0.5024330601
 40
0.5376410427
 40
0.5739873953
 40
0.6114757368
 40
0.6501078785
 40
0.6898839093
 40
0.7308018161
 40
0.8160459446
 40
0.9057998154
 40
1.0
 40
1.0
 40
1.0
 40
1.0
 10
12.6523414528
 20
9.1830462702
 30
0.0
 10
12.6535753419
 20
9.1829606929
 30
0.0
 10
12.6560446223
 20
9.1826907548
 30
0.0
 10
12.65972179
 20
9.1819921673
 30
0.0
 10
12.6633751839
 20
9.1810000088
 30
0.0
 10
12.6670027677
 20
9.1797149301
 30
0.0
 10
12.6706031869
 20
9.1781376144
 30
0.0
 10
12.6754358996
 20
9.1756096227
 30
0.0
 10
12.6801430851
 20
9.1725153381
 30
0.0
 10
12.6847035919
 20
9.168927719
 30
0.0
 10
12.6881474269
 20
9.1659053201
 30
0.0
 10
12.6915559235
 20
9.1625976447
 30
0.0
 10
12.6949283008
 20
9.1590058397
 30
0.0
 10
12.6982631986
 20
9.1551313344
 30
0.0
 10
12.7015594819
 20
9.1509756534
 30
0.0
 10
12.704815977
 20
9.1465404284
 30
0.0
 10
12.7080314239
 20
9.1418273209
 30
0.0
 10
12.7112046712
 20
9.136838176
 30
0.0
 10
12.714334544
 20
9.1315749168
 30
0.0
 10
12.7174197968
 20
9.1260395353
 30
0.0
 10
12.7204593074
 20
9.1202341935
 30
0.0
 10
12.7234519123
 20
9.1141611287
 30
0.0
 10
12.7263964072
 20
9.1078226647
 30
0.0
 10
12.7292917128
 20
9.1012212785
 30
0.0
 10
12.7321366887
 20
9.0943595243
 30
0.0
 10
12.734930214
 20
9.0872400376
 30
0.0
 10
12.738635519
 20
9.0772710983
 30
0.0
 10
12.7431197073
 20
9.0641771135
 30
0.0
 10
12.748207863
 20
9.0476895186
 30
0.0
 10
12.751371143
 20
9.0363307096
 30
0.0
 10
12.7529189273
 20
9.0304952992
 30
0.0
  0
SPLINE
  5
2DA
100
AcDbEntity
  8
0
100
AcDbSpline
 62
7
  6
CONTINUOUS
 70
0
 71
3
 72
23
 73
19
 74
0
 42
0.0000001
 43
0.0000001
 44
0.0000000001
 40
0.0
 40
0.0
 40
0.0
 40
0.0
 40
0.0785272974
 40
0.1549617886
 40
0.2292829757
 40
0.301472512
 40
0.3715152899
 40
0.4393996183
 40
0.5051167959
 40
0.568662835
 40
0.6300374262
 40
0.6892450865
 40
0.7462956343
 40
0.8012044662
 40
0.8539953552
 40
0.9046991129
 40
0.9533526398
 40
1.0
 40
1.0
 40
1.0
 40
1.0
 10
12.6697631699
 20
7.8251018045
 30
0.0
 10
12.6684019654
 20
7.8218450759
 30
0.0
 10
12.6656697997
 20
7.8154375186
 30
0.0
 10
12.6614827541
 20
7.8060198069
 30
0.0
 10
12.6572640455
 20
7.7969293028
 30
0.0
 10
12.6530158351
 20
7.7881707537
 30
0.0
 10
12.6487403282
 20
7.77974869
 30
0.0
 10
12.6444397913
 20
7.7716674531
 30
0.0
 10
12.6401163767
 20
7.763931245
 30
0.0
 10
12.6357723911
 20
7.7565440226
 30
0.0
 10
12.6314100243
 20
7.7495096098
 30
0.0
 10
12.6270315292
 20
7.7428316378
 30
0.0
 10
12.6226392206
 20
7.7365135179
 30
0.0
 10
12.6182352358
 20
7.7305585083
 30
0.0
 10
12.6138218223
 20
7.7249695629
 30
0.0
 10
12.6094010777
 20
7.7197495319
 30
0.0
 10
12.6049754931
 20
7.7149013462
 30
0.0
 10
12.6019609812
 20
7.7118556977
 30
0.0
 10
12.6004528698
 20
7.7103989739
 30
0.0
  0
SPLINE
  5
2DB
100
AcDbEntity
  8
0
100
AcDbSpline
 62
7
  6
CONTINUOUS
 70
0
 71
3
 72
11
 73
7
 74
0
 42
0.0000001
 43
0.0000001
 44
0.0000000001
 40
0.0
 40
0.0
 40
0.0
 40
0.0
 40
0.2292627883
 40
0.4715183046
 40
0.728091132
 40
1.0
 40
1.0
 40
1.0
 40
1.0
 10
12.4958192321
 20
7.9776009319
 30
0.0
 10
12.4970976885
 20
7.9782399035
 30
0.0
 10
12.4996646527
 20
7.9796817202
 30
0.0
 10
12.5034238235
 20
7.9822335919
 30
0.0
 10
12.5071875174
 20
7.9852268492
 30
0.0
 10
12.5096245117
 20
7.9874477111
 30
0.0
 10
12.5108437217
 20
7.9886253776
 30
0.0
  0
SPLINE
  5
2DC
100
AcDbEntity
  8
0
100
AcDbSpline
 62
7
  6
CONTINUOUS
 70
0
 71
3
 72
18
 73
14
 74
0
 42
0.0000001
 43
0.0000001
 44
0.0000000001
 40
0.0
 40
0.0
 40
0.0
 40
0.0
 40
0.1504660016
 40
0.2917105222
 40
0.4244368723
 40
0.5495624665
 40
0.668214014
 40
0.7255497707
 40
0.7817912017
 40
0.8371401776
 40
0.891809274
 40
0.9460199962
 40
1.0
 40
1.0
 40
1.0
 40
1.0
 10
12.6004528698
 20
7.7103989739
 30
0.0
 10
12.5983325409
 20
7.7083508934
 30
0.0
 10
12.5940948233
 20
7.7045081397
 30
0.0
 10
12.5875327904
 20
7.6993869674
 30
0.0
 10
12.5809784162
 20
7.6951039146
 30
0.0
 10
12.5744385615
 20
7.6916660225
 30
0.0
 10
12.5689419108
 20
7.6894860032
 30
0.0
 10
12.5645777946
 20
7.6881907946
 30
0.0
 10
12.561351188
 20
7.6874443051
 30
0.0
 10
12.5581353036
 20
7.6869122171
 30
0.0
 10
12.5549310171
 20
7.6865948227
 30
0.0
 10
12.5517396118
 20
7.6864923126
 30
0.0
 10
12.5496193369
 20
7.6865673291
 30
0.0
 10
12.5485642867
 20
7.6866405028
 30
0.0
  0
SPLINE
  5
2DD
100
AcDbEntity
  8
0
100
AcDbSpline
 62
7
  6
CONTINUOUS
 70
0
 71
3
 72
76
 73
72
 74
0
 42
0.0000001
 43
0.0000001
 44
0.0000000001
 40
0.0
 40
0.0
 40
0.0
 40
0.0
 40
0.0156747225
 40
0.0235325474
 40
0.0314031326
 40
0.0471815238
 40
0.0630096701
 40
0.0709422968
 40
0.0788865451
 40
0.0948074601
 40
0.1107706215
 40
0.1267727505
 40
0.1428102138
 40
0.1588790639
 40
0.1749750748
 40
0.1910937806
 40
0.2072305163
 40
0.2233804589
 40
0.2395386705
 40
0.2557001411
 40
0.2718598323
 40
0.2880127214
 40
0.3041538447
 40
0.3202783411
 40
0.3363814948
 40
0.3524587772
 40
0.3685058876
 40
0.3845187926
 40
0.4004937633
 40
0.4164274113
 40
0.4323167209
 40
0.4481590804
 40
0.4639523087
 40
0.4796946798
 40
0.495384943
 40
0.5110223396
 40
0.5266066146
 40
0.542138025
 40
0.5576173419
 40
0.5730458487
 40
0.588425333
 40
0.6037580741
 40
0.6190468241
 40
0.6342947845
 40
0.6495055768
 40
0.6646832082
 40
0.6798320326
 40
0.6949567066
 40
0.7100621427
 40
0.7251534575
 40
0.7402359181
 40
0.7553148863
 40
0.7703957614
 40
0.7854839222
 40
0.8005846694
 40
0.8157031697
 40
0.830844401
 40
0.8460131002
 40
0.8612137149
 40
0.8764503584
 40
0.8917267696
 40
0.9070462756
 40
0.9147237278
 40
0.9224129996
 40
0.9301143737
 40
0.9378281062
 40
0.9532923541
 40
0.9688083027
 40
0.976586557
 40
0.9843782719
 40
1.0
 40
1.0
 40
1.0
 40
1.0
 10
10.0294293819
 20
9.1891199511
 30
0.0
 10
10.0442145951
 20
9.1880945931
 30
0.0
 10
10.0663789374
 20
9.1860115299
 30
0.0
 10
10.0958223518
 20
9.1821600854
 30
0.0
 10
10.1252615275
 20
9.1775827605
 30
0.0
 10
10.1619280424
 20
9.1705146748
 30
0.0
 10
10.1982709291
 20
9.1616852751
 30
0.0
 10
10.2271326646
 20
9.1535730797
 30
0.0
 10
10.2558776043
 20
9.1447525905
 30
0.0
 10
10.2914785842
 20
9.1324290326
 30
0.0
 10
10.3335357706
 20
9.1156155744
 30
0.0
 10
10.3748605669
 20
9.0968062706
 30
0.0
 10
10.4153528896
 20
9.0760466268
 30
0.0
 10
10.4549154479
 20
9.0533866215
 30
0.0
 10
10.4934529779
 20
9.0288808547
 30
0.0
 10
10.5308727413
 20
9.0025883477
 30
0.0
 10
10.567084677
 20
8.9745724218
 30
0.0
 10
10.6020016328
 20
8.9449005368
 30
0.0
 10
10.6355395699
 20
8.9136441309
 30
0.0
 10
10.6676177647
 20
8.8808784493
 30
0.0
 10
10.6981590024
 20
8.8466823637
 30
0.0
 10
10.7270897614
 20
8.8111381839
 30
0.0
 10
10.7543403899
 20
8.77433146
 30
0.0
 10
10.7798452722
 20
8.736350778
 30
0.0
 10
10.8035429869
 20
8.6972875481
 30
0.0
 10
10.8253764531
 20
8.657235785
 30
0.0
 10
10.8452930724
 20
8.6162918857
 30
0.0
 10
10.863244854
 20
8.5745543968
 30
0.0
 10
10.879188527
 20
8.5321237773
 30
0.0
 10
10.8930856454
 20
8.489102159
 30
0.0
 10
10.9049026807
 20
8.4455931015
 30
0.0
 10
10.9146111034
 20
8.4017013454
 30
0.0
 10
10.9221874517
 20
8.3575325613
 30
0.0
 10
10.9276133896
 20
8.3131930974
 30
0.0
 10
10.9308757522
 20
8.2687897249
 30
0.0
 10
10.9319665787
 20
8.2244293824
 30
0.0
 10
10.9308831337
 20
8.1802189199
 30
0.0
 10
10.9276279221
 20
8.1362648415
 30
0.0
 10
10.9222086792
 20
8.0926730495
 30
0.0
 10
10.9146383546
 20
8.0495485898
 30
0.0
 10
10.9049350832
 20
8.0069953991
 30
0.0
 10
10.8931221447
 20
7.9651160541
 30
0.0
 10
10.8792279102
 20
7.9240115237
 30
0.0
 10
10.8632857764
 20
7.8837809245
 30
0.0
 10
10.8453340878
 20
7.8445212803
 30
0.0
 10
10.8254160468
 20
7.8063272857
 30
0.0
 10
10.8035796102
 20
7.7692910759
 30
0.0
 10
10.7798773782
 20
7.7335019998
 30
0.0
 10
10.7543664702
 20
7.6990463993
 30
0.0
 10
10.7271083813
 20
7.6660074007
 30
0.0
 10
10.6981688348
 20
7.6344647107
 30
0.0
 10
10.6676176222
 20
7.6044944213
 30
0.0
 10
10.6355284332
 20
7.5761688235
 30
0.0
 10
10.6019786757
 20
7.5495562308
 30
0.0
 10
10.5670492869
 20
7.5247208123
 30
0.0
 10
10.5308245332
 20
7.501722437
 30
0.0
 10
10.4933918102
 20
7.4806165294
 30
0.0
 10
10.4548414063
 20
7.4614539328
 30
0.0
 10
10.4152663661
 20
7.4442807969
 30
0.0
 10
10.3747619557
 20
7.4291384138
 30
0.0
 10
10.3334265723
 20
7.4160633323
 30
0.0
 10
10.2983942287
 20
7.4069226037
 30
0.0
 10
10.2700587442
 20
7.4006710992
 30
0.0
 10
10.248645081
 20
7.3965126286
 30
0.0
 10
10.2270994502
 20
7.3928904773
 30
0.0
 10
10.1981912388
 20
7.3887759579
 30
0.0
 10
10.1617858
 20
7.3849866695
 30
0.0
 10
10.1251762329
 20
7.3830133456
 30
0.0
 10
10.0957853472
 20
7.3825212759
 30
0.0
 10
10.0662918393
 20
7.3827552628
 30
0.0
 10
10.044164608
 20
7.383748419
 30
0.0
 10
10.0294293819
 20
7.3847703104
 30
0.0
  0
SPLINE
  5
2DE
100
AcDbEntity
  8
0
100
AcDbSpline
 62
7
  6
CONTINUOUS
 70
0
 71
3
 72
22
 73
18
 74
0
 42
0.0000001
 43
0.0000001
 44
0.0000000001
 40
0.0
 40
0.0
 40
0.0
 40
0.0
 40
0.1348256121
 40
0.267185194
 40
0.3969404769
 40
0.460793845
 40
0.5239290533
 40
0.5863180938
 40
0.647929547
 40
0.7087286403
 40
0.7686784422
 40
0.8277440021
 40
0.8859062202
 40
0.9146672034
 40
0.9432319158
 40
0.9716475747
 40
1.0
 40
1.0
 40
1.0
 40
1.0
 10
12.6026646166
 20
8.2004946372
 30
0.0
 10
12.6023438574
 20
8.1989877132
 30
0.0
 10
12.6016561412
 20
8.1960121797
 30
0.0
 10
12.6004711512
 20
8.191632709
 30
0.0
 10
12.599351791
 20
8.1880785449
 30
0.0
 10
12.5983711189
 20
8.1853131429
 30
0.0
 10
12.5975947883
 20
8.1832928266
 30
0.0
 10
12.5967700119
 20
8.1813194754
 30
0.0
 10
12.5958917361
 20
8.1793985455
 30
0.0
 10
12.5949532233
 20
8.177537322
 30
0.0
 10
12.5939452356
 20
8.175745748
 30
0.0
 10
12.5928547579
 20
8.1740384609
 30
0.0
 10
12.5918571783
 20
8.1726985365
 30
0.0
 10
12.5909928495
 20
8.1717004874
 30
0.0
 10
12.5903080827
 20
8.170998689
 30
0.0
 10
12.5895772174
 20
8.1703517453
 30
0.0
 10
12.5890525572
 20
8.1699677016
 30
0.0
 10
12.5887800194
 20
8.1697925088
 30
0.0
  0
SPLINE
  5
2DF
100
AcDbEntity
  8
0
100
AcDbSpline
 62
7
  6
CONTINUOUS
 70
0
 71
3
 72
22
 73
18
 74
0
 42
0.0000001
 43
0.0000001
 44
0.0000000001
 40
0.0
 40
0.0
 40
0.0
 40
0.0
 40
0.0332280788
 40
0.0663275505
 40
0.0992757415
 40
0.1320783978
 40
0.164738896
 40
0.1972595267
 40
0.2618956288
 40
0.3260196466
 40
0.3896512647
 40
0.452803949
 40
0.515486106
 40
0.6394468812
 40
0.7615443711
 40
0.8817471825
 40
1.0
 40
1.0
 40
1.0
 40
1.0
 10
12.6037002934
 20
8.2398876136
 30
0.0
 10
12.6038469825
 20
8.2394722866
 30
0.0
 10
12.6041092224
 20
8.2386322786
 30
0.0
 10
12.6044299381
 20
8.2373554658
 30
0.0
 10
12.6046917461
 20
8.2360711504
 30
0.0
 10
12.6049051897
 20
8.2347839489
 30
0.0
 10
12.6050775488
 20
8.233496379
 30
0.0
 10
12.6052600216
 20
8.2317850641
 30
0.0
 10
12.6054118889
 20
8.2296518197
 30
0.0
 10
12.6054972229
 20
8.2271024444
 30
0.0
 10
12.6055018869
 20
8.2245714067
 30
0.0
 10
12.6054376903
 20
8.222060383
 30
0.0
 10
12.6052722173
 20
8.218752975
 30
0.0
 10
12.6049325843
 20
8.2146731495
 30
0.0
 10
12.6043433895
 20
8.2098528195
 30
0.0
 10
12.6035943204
 20
8.2051314553
 30
0.0
 10
12.6029909703
 20
8.2020278446
 30
0.0
 10
12.6026646166
 20
8.2004946372
 30
0.0
  0
SPLINE
  5
2E0
100
AcDbEntity
  8
0
100
AcDbSpline
 62
7
  6
CONTINUOUS
 70
0
 71
3
 72
78
 73
74
 74
0
 42
0.0000001
 43
0.0000001
 44
0.0000000001
 40
0.0
 40
0.0
 40
0.0
 40
0.0
 40
0.0027164338
 40
0.0054532518
 40
0.0082303302
 40
0.0110666399
 40
0.0139798745
 40
0.0169861963
 40
0.0201001798
 40
0.0233347338
 40
0.0267011066
 40
0.0302090801
 40
0.0338670386
 40
0.0376820289
 40
0.0416600219
 40
0.0458059978
 40
0.0501239566
 40
0.0546171648
 40
0.059288228
 40
0.0641390363
 40
0.0691709779
 40
0.0743850048
 40
0.085359957
 40
0.0970638947
 40
0.1094906973
 40
0.1226300051
 40
0.1364677522
 40
0.1509866144
 40
0.16616658
 40
0.1819850977
 40
0.1984173784
 40
0.2154367196
 40
0.2330145192
 40
0.251120552
 40
0.2697231423
 40
0.2887891639
 40
0.3082843013
 40
0.3281731255
 40
0.3484191393
 40
0.3689849969
 40
0.4109221184
 40
0.4536722256
 40
0.4969143244
 40
0.5403226995
 40
0.5835700361
 40
0.6263305661
 40
0.6682832084
 40
0.6888586792
 40
0.7091155366
 40
0.7290163639
 40
0.7485246683
 40
0.7676049911
 40
0.7862229287
 40
0.8043453773
 40
0.8219405891
 40
0.8389782496
 40
0.8554297803
 40
0.8712683595
 40
0.8864691229
 40
0.9010095138
 40
0.9148693555
 40
0.9280312659
 40
0.9404811001
 40
0.9522082881
 40
0.9632066705
 40
0.9684323779
 40
0.9734759505
 40
0.9783382384
 40
0.9830207374
 40
0.9875254301
 40
0.9918547875
 40
0.9960117677
 40
1.0
 40
1.0
 40
1.0
 40
1.0
 10
12.6242525858
 20
10.1670204871
 30
0.0
 10
12.6248946177
 20
10.1669759551
 30
0.0
 10
12.6261802099
 20
10.1668284256
 30
0.0
 10
12.6280922235
 20
10.1664336772
 30
0.0
 10
12.6299897992
 20
10.1658655908
 30
0.0
 10
12.631871569
 20
10.1651246452
 30
0.0
 10
12.633736547
 20
10.1642114968
 30
0.0
 10
12.6355838183
 20
10.1631269347
 30
0.0
 10
12.6374125
 20
10.1618716651
 30
0.0
 10
12.6392217662
 20
10.1604464783
 30
0.0
 10
12.6410108821
 20
10.1588522649
 30
0.0
 10
12.6427790479
 20
10.1570898554
 30
0.0
 10
12.6445254668
 20
10.1551601509
 30
0.0
 10
12.6462494162
 20
10.1530641793
 30
0.0
 10
12.6479500944
 20
10.1508029619
 30
0.0
 10
12.6496266808
 20
10.1483775925
 30
0.0
 10
12.6512784414
 20
10.1457893046
 30
0.0
 10
12.6529045762
 20
10.1430393603
 30
0.0
 10
12.6545042609
 20
10.14012909
 30
0.0
 10
12.6560767589
 20
10.1370599613
 30
0.0
 10
12.6576213189
 20
10.1338334829
 30
0.0
 10
12.6596775776
 20
10.1292450853
 30
0.0
 10
12.6621642558
 20
10.1231198754
 30
0.0
 10
12.6649759648
 20
10.1152902937
 30
0.0
 10
12.6676587166
 20
10.1068759036
 30
0.0
 10
12.6702070734
 20
10.0978934448
 30
0.0
 10
12.6726158799
 20
10.0883606667
 30
0.0
 10
12.6748802956
 20
10.0782965593
 30
0.0
 10
12.6769956767
 20
10.067721195
 30
0.0
 10
12.6789577308
 20
10.0566557236
 30
0.0
 10
12.6807624927
 20
10.045122307
 30
0.0
 10
12.682406245
 20
10.0331440637
 30
0.0
 10
12.6838856688
 20
10.0207450286
 30
0.0
 10
12.685197762
 20
10.0079500945
 30
0.0
 10
12.6863398158
 20
9.9947849579
 30
0.0
 10
12.6873095407
 20
9.981276071
 30
0.0
 10
12.6881049552
 20
9.9674505814
 30
0.0
 10
12.6887244069
 20
9.9533362849
 30
0.0
 10
12.6891666888
 20
9.9389615328
 30
0.0
 10
12.6895211271
 20
9.9193595041
 30
0.0
 10
12.6895092985
 20
9.8944204219
 30
0.0
 10
12.6887845169
 20
9.8641176148
 30
0.0
 10
12.6873544971
 20
9.8334909186
 30
0.0
 10
12.6852306648
 20
9.8027864847
 30
0.0
 10
12.6824300591
 20
9.7722508732
 30
0.0
 10
12.6789752607
 20
9.7421294925
 30
0.0
 10
12.6755527902
 20
9.7174178605
 30
0.0
 10
12.6725023504
 20
9.6980427673
 30
0.0
 10
12.67008463
 20
9.6838580933
 30
0.0
 10
12.6675271978
 20
9.6699549365
 30
0.0
 10
12.6648351973
 20
9.6563612231
 30
0.0
 10
12.6620140925
 20
9.6431042775
 30
0.0
 10
12.65906954
 20
9.6302107427
 30
0.0
 10
12.656007509
 20
9.6177065159
 30
0.0
 10
12.6528341971
 20
9.6056167056
 30
0.0
 10
12.6495559764
 20
9.5939655852
 30
0.0
 10
12.6461795088
 20
9.5827765175
 30
0.0
 10
12.6427116133
 20
9.572071928
 30
0.0
 10
12.6391592651
 20
9.5618732545
 30
0.0
 10
12.6355296863
 20
9.5522008703
 30
0.0
 10
12.6318301762
 20
9.5430740684
 30
0.0
 10
12.6280681718
 20
9.5345110217
 30
0.0
 10
12.6242512682
 20
9.5265286201
 30
0.0
 10
12.6203870712
 20
9.5191427604
 30
0.0
 10
12.6170797845
 20
9.513402863
 30
0.0
 10
12.6144105741
 20
9.5091287129
 30
0.0
 10
12.6124358895
 20
9.5061361444
 30
0.0
 10
12.6104551601
 20
9.5033032115
 30
0.0
 10
12.6084693418
 20
9.5006312521
 30
0.0
 10
12.6064793717
 20
9.4981215717
 30
0.0
 10
12.6044861939
 20
9.4957754663
 30
0.0
 10
12.6024909949
 20
9.4935942074
 30
0.0
 10
12.6011324845
 20
9.4922227255
 30
0.0
 10
12.6004528698
 20
9.4915662681
 30
0.0
  0
SPLINE
  5
2E1
100
AcDbEntity
  8
0
100
AcDbSpline
 62
7
  6
CONTINUOUS
 70
0
 71
3
 72
78
 73
74
 74
0
 42
0.0000001
 43
0.0000001
 44
0.0000000001
 40
0.0
 40
0.0
 40
0.0
 40
0.0
 40
0.0027164338
 40
0.0054532518
 40
0.0082303302
 40
0.0110666399
 40
0.0139798745
 40
0.0169861963
 40
0.0201001798
 40
0.0233347338
 40
0.0267011066
 40
0.0302090801
 40
0.0338670386
 40
0.0376820289
 40
0.0416600219
 40
0.0458059978
 40
0.0501239566
 40
0.0546171648
 40
0.059288228
 40
0.0641390363
 40
0.0691709779
 40
0.0743850048
 40
0.085359957
 40
0.0970638947
 40
0.1094906973
 40
0.1226300051
 40
0.1364677522
 40
0.1509866144
 40
0.16616658
 40
0.1819850977
 40
0.1984173784
 40
0.2154367196
 40
0.2330145192
 40
0.251120552
 40
0.2697231423
 40
0.2887891639
 40
0.3082843013
 40
0.3281731255
 40
0.3484191393
 40
0.3689849969
 40
0.4109221184
 40
0.4536722256
 40
0.4969143244
 40
0.5403226995
 40
0.5835700361
 40
0.6263305661
 40
0.6682832084
 40
0.6888586792
 40
0.7091155366
 40
0.7290163639
 40
0.7485246683
 40
0.7676049911
 40
0.7862229287
 40
0.8043453773
 40
0.8219405891
 40
0.8389782496
 40
0.8554297803
 40
0.8712683595
 40
0.8864691229
 40
0.9010095138
 40
0.9148693555
 40
0.9280312659
 40
0.9404811001
 40
0.9522082881
 40
0.9632066705
 40
0.9684323779
 40
0.9734759505
 40
0.9783382384
 40
0.9830207374
 40
0.9875254301
 40
0.9918547875
 40
0.9960117677
 40
1.0
 40
1.0
 40
1.0
 40
1.0
 10
12.6242525858
 20
7.3890177161
 30
0.0
 10
12.6248946177
 20
7.3889731841
 30
0.0
 10
12.6261802099
 20
7.3888256546
 30
0.0
 10
12.6280922235
 20
7.3884309062
 30
0.0
 10
12.6299897992
 20
7.3878628198
 30
0.0
 10
12.631871569
 20
7.3871218742
 30
0.0
 10
12.633736547
 20
7.3862087258
 30
0.0
 10
12.6355838183
 20
7.3851241637
 30
0.0
 10
12.6374125
 20
7.3838688941
 30
0.0
 10
12.6392217662
 20
7.3824437073
 30
0.0
 10
12.6410108821
 20
7.3808494938
 30
0.0
 10
12.6427790479
 20
7.3790870844
 30
0.0
 10
12.6445254668
 20
7.3771573799
 30
0.0
 10
12.6462494162
 20
7.3750614083
 30
0.0
 10
12.6479500944
 20
7.3728001909
 30
0.0
 10
12.6496266808
 20
7.3703748215
 30
0.0
 10
12.6512784414
 20
7.3677865336
 30
0.0
 10
12.6529045762
 20
7.3650365893
 30
0.0
 10
12.6545042609
 20
7.362126319
 30
0.0
 10
12.6560767589
 20
7.3590571903
 30
0.0
 10
12.6576213189
 20
7.3558307119
 30
0.0
 10
12.6596775776
 20
7.3512423143
 30
0.0
 10
12.6621642558
 20
7.3451171044
 30
0.0
 10
12.6649759648
 20
7.3372875227
 30
0.0
 10
12.6676587166
 20
7.3288731326
 30
0.0
 10
12.6702070734
 20
7.3198906738
 30
0.0
 10
12.6726158799
 20
7.3103578957
 30
0.0
 10
12.6748802956
 20
7.3002937883
 30
0.0
 10
12.6769956767
 20
7.289718424
 30
0.0
 10
12.6789577308
 20
7.2786529526
 30
0.0
 10
12.6807624927
 20
7.267119536
 30
0.0
 10
12.682406245
 20
7.2551412927
 30
0.0
 10
12.6838856688
 20
7.2427422576
 30
0.0
 10
12.685197762
 20
7.2299473235
 30
0.0
 10
12.6863398158
 20
7.2167821869
 30
0.0
 10
12.6873095407
 20
7.2032733
 30
0.0
 10
12.6881049552
 20
7.1894478104
 30
0.0
 10
12.6887244069
 20
7.1753335139
 30
0.0
 10
12.6891666888
 20
7.1609587618
 30
0.0
 10
12.6895211271
 20
7.1413567331
 30
0.0
 10
12.6895092985
 20
7.1164176509
 30
0.0
 10
12.6887845169
 20
7.0861148438
 30
0.0
 10
12.6873544971
 20
7.0554881476
 30
0.0
 10
12.6852306648
 20
7.0247837137
 30
0.0
 10
12.6824300591
 20
6.9942481022
 30
0.0
 10
12.6789752607
 20
6.9641267215
 30
0.0
 10
12.6755527902
 20
6.9394150895
 30
0.0
 10
12.6725023504
 20
6.9200399963
 30
0.0
 10
12.67008463
 20
6.9058553223
 30
0.0
 10
12.6675271978
 20
6.8919521655
 30
0.0
 10
12.6648351973
 20
6.8783584521
 30
0.0
 10
12.6620140925
 20
6.8651015065
 30
0.0
 10
12.65906954
 20
6.8522079717
 30
0.0
 10
12.656007509
 20
6.8397037449
 30
0.0
 10
12.6528341971
 20
6.8276139346
 30
0.0
 10
12.6495559764
 20
6.8159628142
 30
0.0
 10
12.6461795088
 20
6.8047737465
 30
0.0
 10
12.6427116133
 20
6.794069157
 30
0.0
 10
12.6391592651
 20
6.7838704835
 30
0.0
 10
12.6355296863
 20
6.7741980993
 30
0.0
 10
12.6318301762
 20
6.7650712974
 30
0.0
 10
12.6280681718
 20
6.7565082507
 30
0.0
 10
12.6242512682
 20
6.7485258491
 30
0.0
 10
12.6203870712
 20
6.7411399894
 30
0.0
 10
12.6170797845
 20
6.735400092
 30
0.0
 10
12.6144105741
 20
6.7311259419
 30
0.0
 10
12.6124358895
 20
6.7281333734
 30
0.0
 10
12.6104551601
 20
6.7253004405
 30
0.0
 10
12.6084693418
 20
6.7226284811
 30
0.0
 10
12.6064793717
 20
6.7201188007
 30
0.0
 10
12.6044861939
 20
6.7177726953
 30
0.0
 10
12.6024909949
 20
6.7155914364
 30
0.0
 10
12.6011324845
 20
6.7142199545
 30
0.0
 10
12.6004528698
 20
6.7135634971
 30
0.0
  0
SPLINE
  5
2E2
100
AcDbEntity
  8
0
100
AcDbSpline
 62
7
  6
CONTINUOUS
 70
0
 71
3
 72
17
 73
13
 74
0
 42
0.0000001
 43
0.0000001
 44
0.0000000001
 40
0.0
 40
0.0
 40
0.0
 40
0.0
 40
0.1504681883
 40
0.2917243824
 40
0.4244612681
 40
0.5495925261
 40
0.6682485046
 40
0.7817794377
 40
0.8371315341
 40
0.8918035522
 40
0.9460171661
 40
1.0
 40
1.0
 40
1.0
 40
1.0
 10
12.6004528698
 20
9.4915662681
 30
0.0
 10
12.5994803777
 20
9.4906269128
 30
0.0
 10
12.597536663
 20
9.4888643952
 30
0.0
 10
12.5945268488
 20
9.4865154217
 30
0.0
 10
12.5915205835
 20
9.4845509143
 30
0.0
 10
12.588520674
 20
9.4829739763
 30
0.0
 10
12.5855300543
 20
9.481787747
 30
0.0
 10
12.5830261957
 20
9.4811217013
 30
0.0
 10
12.5810431127
 20
9.480793672
 30
0.0
 10
12.5795733695
 20
9.4806481026
 30
0.0
 10
12.5781095791
 20
9.4806010859
 30
0.0
 10
12.5771370723
 20
9.4806354919
 30
0.0
 10
12.5766531537
 20
9.4806690569
 30
0.0
  0
SPLINE
  5
2E3
100
AcDbEntity
  8
0
100
AcDbSpline
 62
7
  6
CONTINUOUS
 70
0
 71
3
 72
50
 73
46
 74
0
 42
0.0000001
 43
0.0000001
 44
0.0000000001
 40
0.0
 40
0.0
 40
0.0
 40
0.0
 40
0.0058808955
 40
0.0120706898
 40
0.018599206
 40
0.0254908864
 40
0.0327653715
 40
0.0404381572
 40
0.0485212891
 40
0.0570236824
 40
0.0659518413
 40
0.0753098925
 40
0.0851002347
 40
0.0953234733
 40
0.1059788747
 40
0.1170643853
 40
0.1285768128
 40
0.1405120189
 40
0.1528648382
 40
0.1656294267
 40
0.1787990144
 40
0.1923662995
 40
0.2063231948
 40
0.2206611199
 40
0.250442147
 40
0.2816306362
 40
0.3141397862
 40
0.347876316
 40
0.3827412026
 40
0.4186303453
 40
0.4554351717
 40
0.4930432082
 40
0.5313386248
 40
0.5702027624
 40
0.6095146486
 40
0.6491515062
 40
0.6889892552
 40
0.7289030154
 40
0.7687676019
 40
0.8084580416
 40
0.8478500001
 40
0.8868205151
 40
0.9252478107
 40
0.9630135297
 40
1.0
 40
1.0
 40
1.0
 40
1.0
 10
12.5600421071
 20
8.9020795753
 30
0.0
 10
12.5611366249
 20
8.9013229751
 30
0.0
 10
12.5633144742
 20
8.8996688436
 30
0.0
 10
12.5664565825
 20
8.8968641331
 30
0.0
 10
12.5695505105
 20
8.8936792667
 30
0.0
 10
12.572593797
 20
8.8901172233
 30
0.0
 10
12.5755844676
 20
8.8861809104
 30
0.0
 10
12.5785203753
 20
8.8818735642
 30
0.0
 10
12.58139926
 20
8.8771986179
 30
0.0
 10
12.584219005
 20
8.8721598916
 30
0.0
 10
12.5869772631
 20
8.8667614151
 30
0.0
 10
12.5896719425
 20
8.8610076254
 30
0.0
 10
12.592300739
 20
8.854903189
 30
0.0
 10
12.5948615799
 20
8.8484531416
 30
0.0
 10
12.5973522924
 20
8.8416627809
 30
0.0
 10
12.5997708252
 20
8.8345377226
 30
0.0
 10
12.6021151775
 20
8.8270838671
 30
0.0
 10
12.6043833408
 20
8.819307394
 30
0.0
 10
12.606573488
 20
8.8112147715
 30
0.0
 10
12.6086836938
 20
8.8028127256
 30
0.0
 10
12.6107122808
 20
8.7941082589
 30
0.0
 10
12.6126574536
 20
8.785108625
 30
0.0
 10
12.6145176705
 20
8.7758213208
 30
0.0
 10
12.6169127908
 20
8.7629012523
 30
0.0
 10
12.61967177
 20
8.746085438
 30
0.0
 10
12.6225803257
 20
8.7251346847
 30
0.0
 10
12.6251171181
 20
8.7032346159
 30
0.0
 10
12.627273529
 20
8.6804583822
 30
0.0
 10
12.6290421933
 20
8.6568819456
 30
0.0
 10
12.6304170757
 20
8.6325840363
 30
0.0
 10
12.6313934739
 20
8.6076458141
 30
0.0
 10
12.6319680362
 20
8.5821506069
 30
0.0
 10
12.6321387699
 20
8.5561836219
 30
0.0
 10
12.6319050463
 20
8.5298316571
 30
0.0
 10
12.6312676019
 20
8.5031828081
 30
0.0
 10
12.6302285343
 20
8.4763261709
 30
0.0
 10
12.6287912958
 20
8.4493515412
 30
0.0
 10
12.6269606816
 20
8.4223491124
 30
0.0
 10
12.6247428136
 20
8.395409168
 30
0.0
 10
12.6221451138
 20
8.3686217913
 30
0.0
 10
12.6191762932
 20
8.3420765166
 30
0.0
 10
12.6158462965
 20
8.3158621632
 30
0.0
 10
12.6121663102
 20
8.2900661947
 30
0.0
 10
12.6081486769
 20
8.2647751035
 30
0.0
 10
12.6052206807
 20
8.2481166295
 30
0.0
 10
12.6037002934
 20
8.2398876136
 30
0.0
  0
SPLINE
  5
2E4
100
AcDbEntity
  8
0
100
AcDbSpline
 62
7
  6
CONTINUOUS
 70
0
 71
3
 72
76
 73
72
 74
0
 42
0.0000001
 43
0.0000001
 44
0.0000000001
 40
0.0
 40
0.0
 40
0.0
 40
0.0
 40
0.0156747225
 40
0.0235325474
 40
0.0314031326
 40
0.0471815238
 40
0.0630096701
 40
0.0709422968
 40
0.0788865451
 40
0.0948074601
 40
0.1107706215
 40
0.1267727505
 40
0.1428102138
 40
0.1588790639
 40
0.1749750748
 40
0.1910937806
 40
0.2072305163
 40
0.2233804589
 40
0.2395386705
 40
0.2557001411
 40
0.2718598323
 40
0.2880127214
 40
0.3041538447
 40
0.3202783411
 40
0.3363814948
 40
0.3524587772
 40
0.3685058876
 40
0.3845187926
 40
0.4004937633
 40
0.4164274113
 40
0.4323167209
 40
0.4481590804
 40
0.4639523087
 40
0.4796946798
 40
0.495384943
 40
0.5110223396
 40
0.5266066146
 40
0.542138025
 40
0.5576173419
 40
0.5730458487
 40
0.588425333
 40
0.6037580741
 40
0.6190468241
 40
0.6342947845
 40
0.6495055768
 40
0.6646832082
 40
0.6798320326
 40
0.6949567066
 40
0.7100621427
 40
0.7251534575
 40
0.7402359181
 40
0.7553148863
 40
0.7703957614
 40
0.7854839222
 40
0.8005846694
 40
0.8157031697
 40
0.830844401
 40
0.8460131002
 40
0.8612137149
 40
0.8764503584
 40
0.8917267696
 40
0.9070462756
 40
0.9147237278
 40
0.9224129996
 40
0.9301143737
 40
0.9378281062
 40
0.9532923541
 40
0.9688083027
 40
0.976586557
 40
0.9843782719
 40
1.0
 40
1.0
 40
1.0
 40
1.0
 10
10.0294293819
 20
7.3847703104
 30
0.0
 10
10.0146441687
 20
7.3857956685
 30
0.0
 10
9.9924798263
 20
7.3878787316
 30
0.0
 10
9.9630364119
 20
7.3917301762
 30
0.0
 10
9.9335972362
 20
7.3963075011
 30
0.0
 10
9.8969307213
 20
7.4033755868
 30
0.0
 10
9.8605878346
 20
7.4122049865
 30
0.0
 10
9.8317260991
 20
7.4203171819
 30
0.0
 10
9.8029811594
 20
7.4291376711
 30
0.0
 10
9.7673801795
 20
7.441461229
 30
0.0
 10
9.7253229931
 20
7.4582746871
 30
0.0
 10
9.6839981969
 20
7.477083991
 30
0.0
 10
9.6435058741
 20
7.4978436348
 30
0.0
 10
9.6039433159
 20
7.5205036401
 30
0.0
 10
9.5654057858
 20
7.5450094068
 30
0.0
 10
9.5279860224
 20
7.5713019139
 30
0.0
 10
9.4917740867
 20
7.5993178398
 30
0.0
 10
9.4568571309
 20
7.6289897248
 30
0.0
 10
9.4233191938
 20
7.6602461307
 30
0.0
 10
9.391240999
 20
7.6930118123
 30
0.0
 10
9.3606997613
 20
7.7272078978
 30
0.0
 10
9.3317690023
 20
7.7627520777
 30
0.0
 10
9.3045183739
 20
7.7995588016
 30
0.0
 10
9.2790134915
 20
7.8375394836
 30
0.0
 10
9.2553157768
 20
7.8766027135
 30
0.0
 10
9.2334823106
 20
7.9166544766
 30
0.0
 10
9.2135656913
 20
7.9575983759
 30
0.0
 10
9.1956139097
 20
7.9993358648
 30
0.0
 10
9.1796702367
 20
8.0417664842
 30
0.0
 10
9.1657731183
 20
8.0847881026
 30
0.0
 10
9.153956083
 20
8.1282971601
 30
0.0
 10
9.1442476603
 20
8.1721889162
 30
0.0
 10
9.136671312
 20
8.2163577003
 30
0.0
 10
9.1312453741
 20
8.2606971642
 30
0.0
 10
9.1279830115
 20
8.3051005367
 30
0.0
 10
9.126892185
 20
8.3494608792
 30
0.0
 10
9.1279756301
 20
8.3936713417
 30
0.0
 10
9.1312308416
 20
8.4376254201
 30
0.0
 10
9.1366500845
 20
8.4812172121
 30
0.0
 10
9.1442204091
 20
8.5243416718
 30
0.0
 10
9.1539236805
 20
8.5668948625
 30
0.0
 10
9.165736619
 20
8.6087742075
 30
0.0
 10
9.1796308535
 20
8.6498787379
 30
0.0
 10
9.1955729873
 20
8.690109337
 30
0.0
 10
9.2135246759
 20
8.7293689813
 30
0.0
 10
9.233442717
 20
8.7675629758
 30
0.0
 10
9.2552791536
 20
8.8045991857
 30
0.0
 10
9.2789813855
 20
8.8403882618
 30
0.0
 10
9.3044922935
 20
8.8748438623
 30
0.0
 10
9.3317503824
 20
8.9078828609
 30
0.0
 10
9.3606899289
 20
8.9394255509
 30
0.0
 10
9.3912411416
 20
8.9693958403
 30
0.0
 10
9.4233303305
 20
8.9977214381
 30
0.0
 10
9.456880088
 20
9.0243340308
 30
0.0
 10
9.4918094768
 20
9.0491694493
 30
0.0
 10
9.5280342305
 20
9.0721678246
 30
0.0
 10
9.5654669536
 20
9.0932737322
 30
0.0
 10
9.6040173574
 20
9.1124363288
 30
0.0
 10
9.6435923976
 20
9.1296094647
 30
0.0
 10
9.684096808
 20
9.1447518478
 30
0.0
 10
9.7254321914
 20
9.1578269293
 30
0.0
 10
9.760464535
 20
9.1669676579
 30
0.0
 10
9.7888000195
 20
9.1732191624
 30
0.0
 10
9.8102136827
 20
9.177377633
 30
0.0
 10
9.8317593135
 20
9.1809997843
 30
0.0
 10
9.8606675249
 20
9.1851143037
 30
0.0
 10
9.8970729637
 20
9.1889035921
 30
0.0
 10
9.9336825309
 20
9.190876916
 30
0.0
 10
9.9630734165
 20
9.1913689857
 30
0.0
 10
9.9925669245
 20
9.1911349988
 30
0.0
 10
10.0146941557
 20
9.1901418425
 30
0.0
 10
10.0294293819
 20
9.1891199511
 30
0.0
  0
SPLINE
  5
2E5
100
AcDbEntity
  8
0
100
AcDbSpline
 62
7
  6
CONTINUOUS
 70
0
 71
3
 72
23
 73
19
 74
0
 42
0.0000001
 43
0.0000001
 44
0.0000000001
 40
0.0
 40
0.0
 40
0.0
 40
0.0
 40
0.1231977117
 40
0.2468391583
 40
0.3088382257
 40
0.3709645795
 40
0.4332252874
 40
0.4956275387
 40
0.5581789286
 40
0.6208857382
 40
0.6837530579
 40
0.7152473091
 40
0.7467816184
 40
0.7783539777
 40
0.8099631113
 40
0.8732708448
 40
0.9366531582
 40
1.0
 40
1.0
 40
1.0
 40
1.0
 10
12.5271382802
 20
8.374336278
 30
0.0
 10
12.5304647704
 20
8.368910203
 30
0.0
 10
12.5372004807
 20
8.3580818787
 30
0.0
 10
12.5457234014
 20
8.3445939904
 30
0.0
 10
12.5525657136
 20
8.3337762812
 30
0.0
 10
12.5577008877
 20
8.3256308864
 30
0.0
 10
12.56281927
 20
8.3174503221
 30
0.0
 10
12.5679039087
 20
8.3092228736
 30
0.0
 10
12.5729353902
 20
8.300935752
 30
0.0
 10
12.5778902863
 20
8.2925745819
 30
0.0
 10
12.581930453
 20
8.2855370764
 30
0.0
 10
12.58509304
 20
8.2798536979
 30
0.0
 10
12.587426875
 20
8.2755596275
 30
0.0
 10
12.5897146268
 20
8.2712340666
 30
0.0
 10
12.5926964865
 20
8.2654193135
 30
0.0
 10
12.5962722471
 20
8.2580627972
 30
0.0
 10
12.6002428476
 20
8.2490813987
 30
0.0
 10
12.6026104287
 20
8.2429733955
 30
0.0
 10
12.6037002934
 20
8.2398876136
 30
0.0
  0
SPLINE
  5
2E6
100
AcDbEntity
  8
0
100
AcDbSpline
 62
7
  6
CONTINUOUS
 70
0
 71
3
 72
17
 73
13
 74
0
 42
0.0000001
 43
0.0000001
 44
0.0000000001
 40
0.0
 40
0.0
 40
0.0
 40
0.0
 40
0.1504681883
 40
0.2917243824
 40
0.4244612681
 40
0.5495925261
 40
0.6682485046
 40
0.7817794377
 40
0.8371315341
 40
0.8918035522
 40
0.9460171661
 40
1.0
 40
1.0
 40
1.0
 40
1.0
 10
12.6004528698
 20
6.7135634971
 30
0.0
 10
12.5994803777
 20
6.7126241418
 30
0.0
 10
12.597536663
 20
6.7108616242
 30
0.0
 10
12.5945268488
 20
6.7085126507
 30
0.0
 10
12.5915205835
 20
6.7065481433
 30
0.0
 10
12.588520674
 20
6.7049712053
 30
0.0
 10
12.5855300543
 20
6.703784976
 30
0.0
 10
12.5830261957
 20
6.7031189303
 30
0.0
 10
12.5810431127
 20
6.702790901
 30
0.0
 10
12.5795733695
 20
6.7026453316
 30
0.0
 10
12.5781095791
 20
6.7025983149
 30
0.0
 10
12.5771370723
 20
6.7026327209
 30
0.0
 10
12.5766531537
 20
6.7026662859
 30
0.0
  0
SPLINE
  5
2E7
100
AcDbEntity
  8
0
100
AcDbSpline
 62
7
  6
CONTINUOUS
 70
0
 71
3
 72
23
 73
19
 74
0
 42
0.0000001
 43
0.0000001
 44
0.0000000001
 40
0.0
 40
0.0
 40
0.0
 40
0.0
 40
0.0635751106
 40
0.1268454242
 40
0.1899950941
 40
0.2215563263
 40
0.2531113594
 40
0.2846631716
 40
0.3162102747
 40
0.3792820307
 40
0.4423038971
 40
0.5052411158
 40
0.5680509199
 40
0.6306882356
 40
0.6931041651
 40
0.7552479244
 40
0.8785032205
 40
1.0
 40
1.0
 40
1.0
 40
1.0
 10
12.5887800194
 20
8.1697925088
 30
0.0
 10
12.5867677401
 20
8.1684989758
 30
0.0
 10
12.5826039728
 20
8.1661452982
 30
0.0
 10
12.5760821931
 20
8.1632005682
 30
0.0
 10
12.5704988946
 20
8.161147198
 30
0.0
 10
12.5659726215
 20
8.1597018032
 30
0.0
 10
12.5625519886
 20
8.1587063764
 30
0.0
 10
12.5591094551
 20
8.1577920608
 30
0.0
 10
12.5544961107
 20
8.1566702443
 30
0.0
 10
12.5486931118
 20
8.155435145
 30
0.0
 10
12.5416921238
 20
8.154173974
 30
0.0
 10
12.5346703816
 20
8.1530987211
 30
0.0
 10
12.5276414849
 20
8.1521783822
 30
0.0
 10
12.5206166549
 20
8.1513881047
 30
0.0
 10
12.513605768
 20
8.1507061304
 30
0.0
 10
12.5043142303
 20
8.149918609
 30
0.0
 10
12.4927937814
 20
8.149116825
 30
0.0
 10
12.483599262
 20
8.1485915086
 30
0.0
 10
12.4790342933
 20
8.1483449446
 30
0.0
  0
SPLINE
  5
2E8
100
AcDbEntity
  8
0
100
AcDbSpline
 62
7
  6
CONTINUOUS
 70
0
 71
3
 72
28
 73
24
 74
0
 42
0.0000001
 43
0.0000001
 44
0.0000000001
 40
0.0
 40
0.0
 40
0.0
 40
0.0
 40
0.084617313
 40
0.1667582569
 40
0.2462806415
 40
0.323064384
 40
0.3969917763
 40
0.4679543251
 40
0.5358541036
 40
0.600603999
 40
0.6621295455
 40
0.7203702877
 40
0.775282237
 40
0.8014829729
 40
0.8268441126
 40
0.8513662774
 40
0.87505176
 40
0.897904551
 40
0.9199314826
 40
0.9411418587
 40
0.9615472051
 40
0.9811611101
 40
1.0
 40
1.0
 40
1.0
 40
1.0
 10
12.5887800194
 20
8.1697925088
 30
0.0
 10
12.5874480854
 20
8.1643338328
 30
0.0
 10
12.5847404998
 20
8.1535961742
 30
0.0
 10
12.5804809365
 20
8.1378061487
 30
0.0
 10
12.5760893082
 20
8.1225929129
 30
0.0
 10
12.5715741673
 20
8.107985715
 30
0.0
 10
12.5669440669
 20
8.0940119938
 30
0.0
 10
12.5622078808
 20
8.0806982809
 30
0.0
 10
12.5573746518
 20
8.0680697747
 30
0.0
 10
12.5524536034
 20
8.0561503082
 30
0.0
 10
12.5474541256
 20
8.0449622548
 30
0.0
 10
12.5423857258
 20
8.0345267673
 30
0.0
 10
12.5380473136
 20
8.0263505307
 30
0.0
 10
12.5345427057
 20
8.0202095745
 30
0.0
 10
12.5319441718
 20
8.0158763774
 30
0.0
 10
12.529335626
 20
8.0117454112
 30
0.0
 10
12.5267183075
 20
8.0078186085
 30
0.0
 10
12.5240933971
 20
8.0040978391
 30
0.0
 10
12.5214621099
 20
8.0005847992
 30
0.0
 10
12.5188256402
 20
7.9972810862
 30
0.0
 10
12.5161851453
 20
7.9941883013
 30
0.0
 10
12.5135420799
 20
7.9913080303
 30
0.0
 10
12.5117434766
 20
7.9894944741
 30
0.0
 10
12.5108437217
 20
7.9886253776
 30
0.0
  0
SPLINE
  5
2E9
100
AcDbEntity
  8
0
100
AcDbSpline
 62
7
  6
CONTINUOUS
 70
0
 71
3
 72
38
 73
34
 74
0
 42
0.0000001
 43
0.0000001
 44
0.0000000001
 40
0.0
 40
0.0
 40
0.0
 40
0.0
 40
0.1175014815
 40
0.1738907415
 40
0.2284019833
 40
0.2808626032
 40
0.3311516173
 40
0.3791950241
 40
0.4249596658
 40
0.4684456868
 40
0.5096817234
 40
0.5487166531
 40
0.5856129861
 40
0.6204444369
 40
0.65328959
 40
0.6842312538
 40
0.7133529556
 40
0.7407384938
 40
0.7664711077
 40
0.7906321582
 40
0.8133034812
 40
0.8345640693
 40
0.8544946973
 40
0.8731755042
 40
0.8906877893
 40
0.907117347
 40
0.9225514052
 40
0.9370837562
 40
0.9508153556
 40
0.9638527162
 40
0.9763120064
 40
0.9883177364
 40
1.0
 40
1.0
 40
1.0
 40
1.0
 10
10.3644841888
 20
7.7789210555
 30
0.0
 10
10.3710235578
 20
7.7784675488
 30
0.0
 10
10.3806965403
 20
7.7777254581
 30
0.0
 10
10.3933881344
 20
7.7765930588
 30
0.0
 10
10.4024583298
 20
7.7757048435
 30
0.0
 10
10.4111816715
 20
7.7747702208
 30
0.0
 10
10.4195371835
 20
7.7737930466
 30
0.0
 10
10.4275116124
 20
7.7727768154
 30
0.0
 10
10.4350984034
 20
7.7717245556
 30
0.0
 10
10.4422966461
 20
7.7706387946
 30
0.0
 10
10.4491099165
 20
7.7695216094
 30
0.0
 10
10.4555451505
 20
7.7683745814
 30
0.0
 10
10.4616116719
 20
7.7671989143
 30
0.0
 10
10.4673203021
 20
7.7659954209
 30
0.0
 10
10.4726828226
 20
7.7647646267
 30
0.0
 10
10.4777113466
 20
7.763506759
 30
0.0
 10
10.4824180521
 20
7.7622218739
 30
0.0
 10
10.4868148293
 20
7.760909739
 30
0.0
 10
10.4909131741
 20
7.7595701489
 30
0.0
 10
10.4947239836
 20
7.7582024645
 30
0.0
 10
10.4982576013
 20
7.7568063526
 30
0.0
 10
10.5015236102
 20
7.7553808979
 30
0.0
 10
10.5045310004
 20
7.7539255125
 30
0.0
 10
10.5072880462
 20
7.7524393396
 30
0.0
 10
10.5098022514
 20
7.750921275
 30
0.0
 10
10.512080698
 20
7.749370628
 30
0.0
 10
10.5141295111
 20
7.747786069
 30
0.0
 10
10.5159542568
 20
7.7461664707
 30
0.0
 10
10.5175601059
 20
7.7445108858
 30
0.0
 10
10.5189510459
 20
7.7428178712
 30
0.0
 10
10.5201307296
 20
7.7410863216
 30
0.0
 10
10.5211023921
 20
7.7393157354
 30
0.0
 10
10.5216182214
 20
7.7380960356
 30
0.0
 10
10.5218398929
 20
7.7374831725
 30
0.0
  0
SPLINE
  5
2EA
100
AcDbEntity
  8
0
100
AcDbSpline
 62
7
  6
CONTINUOUS
 70
0
 71
3
 72
27
 73
23
 74
0
 42
0.0000001
 43
0.0000001
 44
0.0000000001
 40
0.0
 40
0.0
 40
0.0
 40
0.0
 40
0.0229970253
 40
0.0467982461
 40
0.0713846537
 40
0.0967354299
 40
0.122828488
 40
0.1496401705
 40
0.1771457534
 40
0.205319135
 40
0.2635589981
 40
0.324132206
 40
0.3867957297
 40
0.4512942145
 40
0.517361788
 40
0.5847237785
 40
0.6530983723
 40
0.7221982436
 40
0.791732132
 40
0.8614064919
 40
0.9309269117
 40
1.0
 40
1.0
 40
1.0
 40
1.0
 10
12.5171662945
 20
8.7465763102
 30
0.0
 10
12.5178445188
 20
8.7437909395
 30
0.0
 10
12.5191671772
 20
8.7381086586
 30
0.0
 10
12.5210234119
 20
8.7294053175
 30
0.0
 10
12.5227843358
 20
8.7203830618
 30
0.0
 10
12.524448011
 20
8.7110520743
 30
0.0
 10
12.5260124882
 20
8.7014228291
 30
0.0
 10
12.527476052
 20
8.6915061587
 30
0.0
 10
12.5288369991
 20
8.6813132076
 30
0.0
 10
12.5305314519
 20
8.6672134726
 30
0.0
 10
12.532372327
 20
8.6489812396
 30
0.0
 10
12.5341273304
 20
8.626425201
 30
0.0
 10
12.5354437151
 20
8.6030579407
 30
0.0
 10
12.5363154148
 20
8.5789846563
 30
0.0
 10
12.5367383452
 20
8.5543136182
 30
0.0
 10
12.5367104892
 20
8.5291558662
 30
0.0
 10
12.536231883
 20
8.5036246435
 30
0.0
 10
12.5353046176
 20
8.4778348945
 30
0.0
 10
12.5339328285
 20
8.451902742
 30
0.0
 10
12.5321226687
 20
8.4259449316
 30
0.0
 10
12.5298823016
 20
8.4000784382
 30
0.0
 10
12.5281003837
 20
8.3828928434
 30
0.0
 10
12.5271382802
 20
8.374336278
 30
0.0
  0
SPLINE
  5
2EB
100
AcDbEntity
  8
0
100
AcDbSpline
 62
7
  6
CONTINUOUS
 70
0
 71
3
 72
26
 73
22
 74
0
 42
0.0000001
 43
0.0000001
 44
0.0000000001
 40
0.0
 40
0.0
 40
0.0
 40
0.0
 40
0.0616472487
 40
0.1233175237
 40
0.1850335947
 40
0.2468177207
 40
0.308691404
 40
0.370675155
 40
0.4327882706
 40
0.4950486303
 40
0.5574725121
 40
0.6200744238
 40
0.6514488032
 40
0.6828722578
 40
0.7143460212
 40
0.745871221
 40
0.8090747815
 40
0.8724939711
 40
0.9042883305
 40
0.9361389869
 40
1.0
 40
1.0
 40
1.0
 40
1.0
 10
10.6464999902
 20
7.6859169501
 30
0.0
 10
10.6368378083
 20
7.6765839745
 30
0.0
 10
10.6170035484
 20
7.6584306202
 30
0.0
 10
10.5858257099
 20
7.6328336549
 30
0.0
 10
10.5532939917
 20
7.6089286239
 30
0.0
 10
10.5194914958
 20
7.5867767803
 30
0.0
 10
10.4845031187
 20
7.5664336138
 30
0.0
 10
10.4484171042
 20
7.5479503962
 30
0.0
 10
10.4113244172
 20
7.5313736162
 30
0.0
 10
10.3733183429
 20
7.5167449215
 30
0.0
 10
10.3344953377
 20
7.5041011956
 30
0.0
 10
10.3015656077
 20
7.4952514496
 30
0.0
 10
10.274917349
 20
7.489191961
 30
0.0
 10
10.2547722243
 20
7.4851571553
 30
0.0
 10
10.2344972747
 20
7.4816383001
 30
0.0
 10
10.2072867884
 20
7.4776344483
 30
0.0
 10
10.1730078086
 20
7.4739326562
 30
0.0
 10
10.1385265645
 20
7.4719793586
 30
0.0
 10
10.1108399932
 20
7.4714629698
 30
0.0
 10
10.083053504
 20
7.4716456781
 30
0.0
 10
10.0622058503
 20
7.4725701755
 30
0.0
 10
10.0483231687
 20
7.4735329428
 30
0.0
  0
SPLINE
  5
2EC
100
AcDbEntity
  8
0
100
AcDbSpline
 62
7
  6
CONTINUOUS
 70
0
 71
3
 72
15
 73
11
 74
0
 42
0.0000001
 43
0.0000001
 44
0.0000000001
 40
0.0
 40
0.0
 40
0.0
 40
0.0
 40
0.1234033063
 40
0.2471827165
 40
0.371387928
 40
0.496061387
 40
0.6212375184
 40
0.7469427811
 40
0.8731935321
 40
1.0
 40
1.0
 40
1.0
 40
1.0
 10
10.7886122511
 20
7.8755223072
 30
0.0
 10
10.7732582988
 20
7.8680803972
 30
0.0
 10
10.7419939497
 20
7.854200513
 30
0.0
 10
10.6937452817
 20
7.8365205617
 30
0.0
 10
10.6442633684
 20
7.8220175424
 30
0.0
 10
10.593749021
 20
7.8107505168
 30
0.0
 10
10.5424038613
 20
7.8027638143
 30
0.0
 10
10.4904329142
 20
7.798089269
 30
0.0
 10
10.4380465795
 20
7.7967448543
 30
0.0
 10
10.4030550465
 20
7.7980696924
 30
0.0
 10
10.3855641061
 20
7.7992826932
 30
0.0
  0
SPLINE
  5
2ED
100
AcDbEntity
  8
0
100
AcDbSpline
 62
7
  6
CONTINUOUS
 70
0
 71
3
 72
23
 73
19
 74
0
 42
0.0000001
 43
0.0000001
 44
0.0000000001
 40
0.0
 40
0.0
 40
0.0
 40
0.0
 40
0.0616115173
 40
0.1233049148
 40
0.1850900568
 40
0.2469762734
 40
0.3089723337
 40
0.3710863974
 40
0.4333259457
 40
0.4956977922
 40
0.5582080194
 40
0.6208618802
 40
0.6836639816
 40
0.746618229
 40
0.8097269
 40
0.8729923779
 40
0.9364188438
 40
1.0
 40
1.0
 40
1.0
 40
1.0
 10
10.823652961
 20
7.9511824012
 30
0.0
 10
10.8157304002
 20
7.9465792442
 30
0.0
 10
10.7996962945
 20
7.9376701154
 30
0.0
 10
10.7751355748
 20
7.9252276066
 30
0.0
 10
10.7500807901
 20
7.9137134618
 30
0.0
 10
10.7245649801
 20
7.9031428699
 30
0.0
 10
10.698621211
 20
7.8935293902
 30
0.0
 10
10.6722831769
 20
7.8848856603
 30
0.0
 10
10.6455851306
 20
7.8772227807
 30
0.0
 10
10.6185617576
 20
7.8705506839
 30
0.0
 10
10.5912481473
 20
7.8648781395
 30
0.0
 10
10.5636798154
 20
7.8602123353
 30
0.0
 10
10.5358925303
 20
7.8565593992
 30
0.0
 10
10.5079224369
 20
7.8539241271
 30
0.0
 10
10.4798059452
 20
7.8523097162
 30
0.0
 10
10.4515790516
 20
7.8517184031
 30
0.0
 10
10.4232794297
 20
7.852151024
 30
0.0
 10
10.4044111572
 20
7.8531202876
 30
0.0
 10
10.3949781408
 20
7.8537744695
 30
0.0
  0
SPLINE
  5
2EE
100
AcDbEntity
  8
0
100
AcDbSpline
 62
7
  6
CONTINUOUS
 70
0
 71
3
 72
19
 73
15
 74
0
 42
0.0000001
 43
0.0000001
 44
0.0000000001
 40
0.0
 40
0.0
 40
0.0
 40
0.0
 40
0.0616738124
 40
0.1234352147
 40
0.1852905412
 40
0.247245757
 40
0.3093063958
 40
0.3714775941
 40
0.4337640259
 40
0.4961699127
 40
0.6213388195
 40
0.7470244116
 40
0.8732417913
 40
1.0
 40
1.0
 40
1.0
 40
1.0
 10
10.8382175809
 20
7.9904055887
 30
0.0
 10
10.8311024473
 20
7.98707927
 30
0.0
 10
10.8167525711
 20
7.9806533252
 30
0.0
 10
10.7949108417
 20
7.971712061
 30
0.0
 10
10.7727574084
 20
7.9634696693
 30
0.0
 10
10.7503134998
 20
7.9559343421
 30
0.0
 10
10.7276003835
 20
7.9491129369
 30
0.0
 10
10.7046396348
 20
7.9430121613
 30
0.0
 10
10.6814527775
 20
7.9376375586
 30
0.0
 10
10.6502371864
 20
7.9314410347
 30
0.0
 10
10.6107527313
 20
7.9255389249
 30
0.0
 10
10.5628765117
 20
7.9214355545
 30
0.0
 10
10.5146365631
 20
7.9203180688
 30
0.0
 10
10.482419781
 20
7.92156432
 30
0.0
 10
10.4663155815
 20
7.92268115
 30
0.0
  0
SPLINE
  5
2EF
100
AcDbEntity
  8
0
100
AcDbSpline
 62
7
  6
CONTINUOUS
 70
0
 71
3
 72
23
 73
19
 74
0
 42
0.0000001
 43
0.0000001
 44
0.0000000001
 40
0.0
 40
0.0
 40
0.0
 40
0.0
 40
0.0616167298
 40
0.123316496
 40
0.1851086772
 40
0.2470021602
 40
0.3090052631
 40
0.3711257275
 40
0.433370658
 40
0.4957465012
 40
0.5582590101
 40
0.6209131467
 40
0.6837133209
 40
0.7466631635
 40
0.8097646688
 40
0.8730204752
 40
0.9364345509
 40
1.0
 40
1.0
 40
1.0
 40
1.0
 10
10.8674440674
 20
8.1042776747
 30
0.0
 10
10.8603807306
 20
8.1002762679
 30
0.0
 10
10.8460923265
 20
8.0925334035
 30
0.0
 10
10.824224261
 20
8.0817245902
 30
0.0
 10
10.8019334875
 20
8.0717265635
 30
0.0
 10
10.7792482681
 20
8.0625522382
 30
0.0
 10
10.7561969824
 20
8.0542129369
 30
0.0
 10
10.7328085512
 20
8.046719111
 30
0.0
 10
10.7091122533
 20
8.0400802417
 30
0.0
 10
10.6851378356
 20
8.0343044735
 30
0.0
 10
10.6609153159
 20
8.0293991775
 30
0.0
 10
10.6364750637
 20
8.0253704059
 30
0.0
 10
10.6118476882
 20
8.022223154
 30
0.0
 10
10.5870640975
 20
8.0199615221
 30
0.0
 10
10.5621553983
 20
8.0185880694
 30
0.0
 10
10.5371523218
 20
8.0181046729
 30
0.0
 10
10.5120871211
 20
8.0185120175
 30
0.0
 10
10.4953757688
 20
8.0193758063
 30
0.0
 10
10.4870210881
 20
8.0199552054
 30
0.0
  0
SPLINE
  5
2F0
100
AcDbEntity
  8
0
100
AcDbSpline
 62
7
  6
CONTINUOUS
 70
0
 71
3
 72
15
 73
11
 74
0
 42
0.0000001
 43
0.0000001
 44
0.0000000001
 40
0.0
 40
0.0
 40
0.0
 40
0.0
 40
0.126229195
 40
0.2523922238
 40
0.3783514668
 40
0.5039686111
 40
0.6290935768
 40
0.7535729561
 40
0.8772582257
 40
1.0
 40
1.0
 40
1.0
 40
1.0
 10
10.2240018022
 20
6.2705879147
 30
0.0
 10
10.2302797963
 20
6.2676376801
 30
0.0
 10
10.2429712336
 20
6.2620290162
 30
0.0
 10
10.2623617187
 20
6.2545068057
 30
0.0
 10
10.282045131
 20
6.2478919341
 30
0.0
 10
10.3019555663
 20
6.242200168
 30
0.0
 10
10.3220266963
 20
6.2374451357
 30
0.0
 10
10.3421912033
 20
6.2336382699
 30
0.0
 10
10.3623805667
 20
6.2307894114
 30
0.0
 10
10.3758696174
 20
6.2295284956
 30
0.0
 10
10.3825984609
 20
6.2290618487
 30
0.0
  0
SPLINE
  5
2F1
100
AcDbEntity
  8
0
100
AcDbSpline
 62
7
  6
CONTINUOUS
 70
0
 71
3
 72
57
 73
53
 74
0
 42
0.0000001
 43
0.0000001
 44
0.0000000001
 40
0.0
 40
0.0
 40
0.0
 40
0.0
 40
0.0149696159
 40
0.0299422018
 40
0.0449207096
 40
0.0599080579
 40
0.0749071109
 40
0.089920664
 40
0.1049514292
 40
0.120002015
 40
0.1350749144
 40
0.1501724927
 40
0.1652969693
 40
0.1804504095
 40
0.1956347147
 40
0.2108516068
 40
0.2261026251
 40
0.241389119
 40
0.2567122353
 40
0.272072921
 40
0.2874719169
 40
0.3029097508
 40
0.3183867432
 40
0.3339030043
 40
0.3494584304
 40
0.3650527149
 40
0.3806853452
 40
0.396355606
 40
0.4120625912
 40
0.427805203
 40
0.4435821603
 40
0.4593920113
 40
0.4752331349
 40
0.4911037534
 40
0.5070019445
 40
0.5229256456
 40
0.5388726697
 40
0.5548407166
 40
0.5868254584
 40
0.6188643484
 40
0.6509360736
 40
0.6830186871
 40
0.715090032
 40
0.7471281691
 40
0.7791118005
 40
0.8110206848
 40
0.8428360401
 40
0.8745409222
 40
0.9061205793
 40
0.9375628037
 40
0.9688579187
 40
1.0
 40
1.0
 40
1.0
 40
1.0
 10
9.4501463471
 20
8.9244733069
 30
0.0
 10
9.4431081214
 20
8.917674885
 30
0.0
 10
9.4292950468
 20
8.9037994602
 30
0.0
 10
9.4094042708
 20
8.8821886298
 30
0.0
 10
9.3903664944
 20
8.859806901
 30
0.0
 10
9.3722076228
 20
8.836684549
 30
0.0
 10
9.3549518574
 20
8.8128523275
 30
0.0
 10
9.3386221749
 20
8.7883421909
 30
0.0
 10
9.323240438
 20
8.7631868417
 30
0.0
 10
9.3088272232
 20
8.7374198852
 30
0.0
 10
9.2954016708
 20
8.7110758111
 30
0.0
 10
9.2829817918
 20
8.6841897753
 30
0.0
 10
9.2715841624
 20
8.6567977104
 30
0.0
 10
9.2612238992
 20
8.6289362525
 30
0.0
 10
9.2519149338
 20
8.6006425853
 30
0.0
 10
9.2436696432
 20
8.5719545277
 30
0.0
 10
9.2364989492
 20
8.5429104215
 30
0.0
 10
9.2304125313
 20
8.5135490356
 30
0.0
 10
9.2254184225
 20
8.4839096096
 30
0.0
 10
9.2215232283
 20
8.4540317343
 30
0.0
 10
9.218732252
 20
8.4239553
 30
0.0
 10
9.2170490954
 20
8.3937204865
 30
0.0
 10
9.2164759748
 20
8.3633676651
 30
0.0
 10
9.2170137453
 20
8.3329373678
 30
0.0
 10
9.2186615464
 20
8.3024702266
 30
0.0
 10
9.2214171821
 20
8.272006917
 30
0.0
 10
9.2252770399
 20
8.2415881225
 30
0.0
 10
9.2302358222
 20
8.2112544381
 30
0.0
 10
9.2362869456
 20
8.1810463638
 30
0.0
 10
9.2434223683
 20
8.1510042403
 30
0.0
 10
9.2516324309
 20
8.1211681413
 30
0.0
 10
9.2609062376
 20
8.0915779126
 30
0.0
 10
9.2712314132
 20
8.062273059
 30
0.0
 10
9.2825940567
 20
8.0332926659
 30
0.0
 10
9.2949791036
 20
8.0046754217
 30
0.0
 10
9.3083699225
 20
7.9764596256
 30
0.0
 10
9.3227488182
 20
7.9486824991
 30
0.0
 10
9.3432212083
 20
7.912265139
 30
0.0
 10
9.3711852052
 20
7.8680282188
 30
0.0
 10
9.4083325411
 20
7.8173136149
 30
0.0
 10
9.4488952798
 20
7.7692014362
 30
0.0
 10
9.4926562376
 20
7.7239498128
 30
0.0
 10
9.5393824705
 20
7.6817995317
 30
0.0
 10
9.5888248593
 20
7.6429753956
 30
0.0
 10
9.6407199602
 20
7.6076844111
 30
0.0
 10
9.6947913143
 20
7.5761149605
 30
0.0
 10
9.750750783
 20
7.5484355897
 30
0.0
 10
9.8083002415
 20
7.5247941542
 30
0.0
 10
9.8671327195
 20
7.5053171791
 30
0.0
 10
9.9269356614
 20
7.4901090758
 30
0.0
 10
9.9873860786
 20
7.4792515453
 30
0.0
 10
10.0280147451
 20
7.4749413367
 30
0.0
 10
10.0483231687
 20
7.4735329428
 30
0.0
  0
SPLINE
  5
2F2
100
AcDbEntity
  8
0
100
AcDbSpline
 62
7
  6
CONTINUOUS
 70
0
 71
3
 72
45
 73
41
 74
0
 42
0.0000001
 43
0.0000001
 44
0.0000000001
 40
0.0
 40
0.0
 40
0.0
 40
0.0
 40
0.0149872199
 40
0.0299958039
 40
0.045027446
 40
0.0600837431
 40
0.0902719585
 40
0.120575169
 40
0.1357746866
 40
0.1510059716
 40
0.1662697615
 40
0.1815666543
 40
0.1968971093
 40
0.2122614498
 40
0.2276598536
 40
0.2430923659
 40
0.2740553125
 40
0.3051517929
 40
0.3363772588
 40
0.3677251298
 40
0.3991869199
 40
0.4307523895
 40
0.4624097189
 40
0.494145701
 40
0.5259459502
 40
0.5577951234
 40
0.5896771531
 40
0.6215754866
 40
0.6534733315
 40
0.6853539027
 40
0.7172006693
 40
0.7489975995
 40
0.7807293995
 40
0.8123817456
 40
0.8439415049
 40
0.8753969487
 40
0.9067379143
 40
0.9379561054
 40
0.9690447971
 40
1.0
 40
1.0
 40
1.0
 40
1.0
 10
9.6450024651
 20
9.0607609441
 30
0.0
 10
9.6409724399
 20
9.0531545367
 30
0.0
 10
9.6331634046
 20
9.0377932355
 30
0.0
 10
9.6222252665
 20
9.0143532256
 30
0.0
 10
9.6120649761
 20
8.9905219887
 30
0.0
 10
9.5995594018
 20
8.9582335953
 30
0.0
 10
9.58592368
 20
8.9170041947
 30
0.0
 10
9.5750289028
 20
8.8748829963
 30
0.0
 10
9.5679663528
 20
8.8407169776
 30
0.0
 10
9.563496768
 20
8.8148502909
 30
0.0
 10
9.5598651109
 20
8.7887965517
 30
0.0
 10
9.5570750483
 20
8.7625819815
 30
0.0
 10
9.5551292896
 20
8.7362333782
 30
0.0
 10
9.5540299928
 20
8.7097776503
 30
0.0
 10
9.5537780892
 20
8.6832414361
 30
0.0
 10
9.554573287
 20
8.6477535224
 30
0.0
 10
9.5576924121
 20
8.603322207
 30
0.0
 10
9.5648046445
 20
8.5501827788
 30
0.0
 10
9.5752610287
 20
8.497372967
 30
0.0
 10
9.5890186852
 20
8.4451092329
 30
0.0
 10
9.6060213152
 20
8.3936039334
 30
0.0
 10
9.6261994545
 20
8.3430668
 30
0.0
 10
9.6494707539
 20
8.2937034653
 30
0.0
 10
9.675740317
 20
8.2457148057
 30
0.0
 10
9.7049010849
 20
8.199296086
 30
0.0
 10
9.736834273
 20
8.1546361873
 30
0.0
 10
9.77140984
 20
8.1119168342
 30
0.0
 10
9.8084870153
 20
8.0713118589
 30
0.0
 10
9.8479148805
 20
8.0329865094
 30
0.0
 10
9.8895329764
 20
7.9970967801
 30
0.0
 10
9.9331719511
 20
7.9637887832
 30
0.0
 10
9.9786542426
 20
7.9331981581
 30
0.0
 10
10.025794794
 20
7.9054495235
 30
0.0
 10
10.0744018021
 20
7.8806559693
 30
0.0
 10
10.1242774622
 20
7.8589185776
 30
0.0
 10
10.1752188594
 20
7.8403260517
 30
0.0
 10
10.2270184883
 20
7.8249542907
 30
0.0
 10
10.2794661749
 20
7.8128662112
 30
0.0
 10
10.3323456615
 20
7.8041113626
 30
0.0
 10
10.3678272952
 20
7.8005127453
 30
0.0
 10
10.3855641061
 20
7.7992826932
 30
0.0
  0
ELLIPSE
  5
2F3
100
AcDbEntity
  8
0
100
AcDbEllipse
 62
7
  6
CONTINUOUS
 10
12.4247963865
 20
8.477900725
 30
0.0
 11
-0.0035404037
 21
0.3773467813
 31
0.0
 40
0.2795526249
 41
-2.6836888284
 42
-2.6354508655
  0
ELLIPSE
  5
2F4
100
AcDbEntity
  8
0
100
AcDbEllipse
 62
7
  6
CONTINUOUS
 10
12.4247963865
 20
8.477900725
 30
0.0
 11
-0.0035404037
 21
0.3773467813
 31
0.0
 40
0.2795526249
 41
-1.8514403682
 42
-0.9405559826
  0
ENDSEC
  0
SECTION
  2
OBJECTS
  0
DICTIONARY
  5
C
100
AcDbDictionary
280
0
281
1
  3
ACAD_GROUP
350
D
  3
ACAD_MLINESTYLE
350
17
  3
ACAD_LAYOUT
350
1A
  3
ACAD_PLOTSETTINGS
350
19
  3
ACAD_PLOTSTYLENAME
350
E
  3
ACAD_IMAGE_DICT
350
       2F6
  3
ACAD_IMAGE_VARS
350
       2F7
  3
ACAD_TABLESTYLE
350
       2F8
  0
IMAGEDEF_REACTOR
  5
2F5
100
AcDbRasterImageDefReactor
 90
2
330
28A
  0
DICTIONARY
  5
D
102
{ACAD_REACTORS
330
C
102
}
100
AcDbDictionary
280
0
281
1
  0
ACDBDICTIONARYWDFLT
  5
E
102
{ACAD_REACTORS
330
C
102
}
100
AcDbDictionary
281
1
  3
Normal
350
F
100
AcDbDictionaryWithDefault
340
F
  0
DICTIONARY
  5
2F6
330
C
100
AcDbDictionary
281
1
  3
ZTC_assy_2_img_1
350
       2FB
  0
RASTERVARIABLES
  5
2F7
330
C
100
AcDbRasterVariables
 90
0
 70
0
 71
1
 72
5
  0
DICTIONARY
  5
17
102
{ACAD_REACTORS
330
C
102
}
100
AcDbDictionary
280
0
281
1
  3
Standard
350
18
  0
DICTIONARY
  5
2F8
330
C
100
AcDbDictionary
281
1
  3
Standard
350
       2FC
  3
Standard1
350
       2FD
  0
DICTIONARY
  5
19
102
{ACAD_REACTORS
330
C
102
}
100
AcDbDictionary
281
1
  0
DICTIONARY
  5
1A
102
{ACAD_REACTORS
330
C
102
}
100
AcDbDictionary
281
1
  3
Model
350
2F9
  3
Layout1
350
2FA
  0
ACDBPLACEHOLDER
  5
F
102
{ACAD_REACTORS
330
E
102
}
  0
MLINESTYLE
  5
18
102
{ACAD_REACTORS
330
17
102
}
100
AcDbMlineStyle
  2
STANDARD
 70
0
  3

 62
256
 51
90.0
 52
90.0
 71
2
 49
0.5
 62
256
  6
BYLAYER
 49
-0.5
 62
256
  6
BYLAYER
  0
LAYOUT
  5
2F9
102
{ACAD_REACTORS
330
1A
102
}
100
AcDbPlotSettings
  1

  2
none_device
  4
ANSI_C_(22.00_x_17.00_Inches)
  6

 40
0.0
 41
0.0
 42
0.0
 43
0.0
 44
558.8
 45
431.8
 46
0.0
 47
0.0
 48
0.0
 49
0.0
140
0.0
141
0.0
142
1.0
143
1.0
 70
1024
 72
0
 73
0
 74
0
  7

 75
0
147
1.0
148
0.0
149
0.0
100
AcDbLayout
  1
Model
 70
0
 71
0
 10
0.0
 20
0.0
 11
22.0
 21
17.0
 12
0.0
 22
0.0
 32
0.0
 14
0.0
 24
0.0
 34
0.0
 15
0.0
 25
0.0
 35
0.0
146
0.0
 13
0.0
 23
0.0
 33
0.0
 16
1.0
 26
0.0
 36
0.0
 17
0.0
 27
1.0
 37
0.0
 76
0
330
207
345
0
346
0
  0
LAYOUT
  5
2FA
102
{ACAD_REACTORS
330
1A
102
}
100
AcDbPlotSettings
  1

  2
none_device
  4
ANSI_C_(22.00_x_17.00_Inches)
  6

 40
0.0
 41
0.0
 42
0.0
 43
0.0
 44
558.8
 45
431.8
 46
0.0
 47
0.0
 48
0.0
 49
0.0
140
0.0
141
0.0
142
1.0
143
1.0
 70
0
 72
0
 73
0
 74
0
  7

 75
0
147
1.0
148
0.0
149
0.0
100
AcDbLayout
  1
Layout1
 70
0
 71
1
 10
0.0
 20
0.0
 11
22.0
 21
17.0
 12
0.0
 22
0.0
 32
0.0
 14
0.0
 24
0.0
 34
0.0
 15
0.0
 25
0.0
 35
0.0
146
0.0
 13
0.0
 23
0.0
 33
0.0
 16
1.0
 26
0.0
 36
0.0
 17
0.0
 27
1.0
 37
0.0
 76
0
330
208
345
0
346
0
  0
IMAGEDEF
  5
2FB
102
{ACAD_REACTORS
330
2F6
330
2F5
102
}
100
AcDbRasterImageDef
 90
0
  1
ZTC_assy_2_img_1.png
 10
369.0
 20
92.0
 11
0.0066666667
 21
0.0066666667
280
1
281
0
  0
TABLESTYLE
  5
2FC
102
{ACAD_REACTORS
330
2F8
330
28D
330
28E
102
}
330
2F8
100
AcDbTableStyle
  3
Standard
 70
0
 71
0
 40
0.06
 41
0.06
280
1
281
1
  7
Standard
140
0.18
170
1
 62
0
 63
7
283
0
  7
Standard
140
0.18
170
1
 62
0
 63
7
283
0
  7
Standard
140
0.18
170
1
 62
0
 63
7
283
0
  0
TABLESTYLE
  5
2FD
102
{ACAD_REACTORS
330
2F8
330
28C
102
}
330
2F8
100
AcDbTableStyle
  3
Standard1
 70
1
 71
0
 40
0.06
 41
0.06
280
1
281
1
  7
Standard
140
0.18
170
1
 62
0
 63
7
283
0
  7
Standard
140
0.18
170
1
 62
0
 63
7
283
0
  7
Standard
140
0.18
170
1
 62
0
 63
7
283
0
  0
ENDSEC
  0
EOF
