999
DXF file: ZLL_assy_2.dxf
999
Pro/ENGINEER 2014200 by Parametric Technology Corporation
  0
SECTION
  2
HEADER
  9
$ACADVER
  1
AC1021
  9
$DWGCODEPAGE
  3
ANSI_1252
  9
$EXTMAX
 10
22.0
 20
17.0
 30
0.0
  9
$EXTMIN
 10
0.0
 20
0.0
 30
0.0
  9
$LIMMIN
 10
0.0
 20
0.0
  9
$LIMMAX
 10
22.0
 20
17.0
  9
$VIEWCTR
 10
11.0
 20
8.5
  9
$VIEWSIZE
 40
17.0
  9
$CLAYER
  8
0
  9
$LTSCALE
 40
1.21
  9
$CELTYPE
  6
BYLAYER
  9
$DIMSCALE
 40
1.0
  9
$DIMASZ
 40
0.1875
  9
$DIMEXO
 40
0.0625
  9
$DIMDLI
 40
0.836
  9
$DIMEXE
 40
0.125
  9
$DIMCEN
 40
0.198
  9
$DIMLFAC
 40
1.0
  9
$DIMBLK
  1
_FILLED
  9
$DIMTXT
 40
0.1
  9
$DIMTOL
 70
0
  9
$DIMLIM
 70
0
  9
$DIMTFAC
 40
1.0
  9
$DIMGAP
 40
0.09
  9
$DIMDSEP
 70
46
  9
$AUNITS
 70
0
  9
$PDMODE
 70
3
  9
$PDSIZE
 40
0.3125
  9
$HANDSEED
  5
32F
  9
$TILEMODE
 70
1
  9
$MEASUREMENT
 70
0
  9
$INSUNITS
 70
1
  0
ENDSEC
  0
SECTION
  2
CLASSES
  0
CLASS
  1
ACDBDICTIONARYWDFLT
  2
AcDbDictionaryWithDefault
  3
AutoCAD 2000
 90
0
 91
1
280
0
281
0
  0
CLASS
  1
ACDBPLACEHOLDER
  2
AcDbPlaceHolder
  3
AutoCAD 2000
 90
0
 91
1
280
0
281
0
  0
CLASS
  1
LAYOUT
  2
AcDbLayout
  3
AutoCAD 2000
 90
0
 91
0
280
0
281
0
  0
CLASS
  1
RASTERVARIABLES
  2
AcDbRasterVariables
  3
ISM
 90
0
 91
1
280
0
281
0
  0
CLASS
  1
IMAGEDEF
  2
AcDbRasterImageDef
  3
ISM
 90
0
 91
1
280
0
281
0
  0
CLASS
  1
IMAGEDEF_REACTOR
  2
AcDbRasterImageDefReactor
  3
ISM
 90
0
 91
1
280
0
281
0
  0
CLASS
  1
IMAGE
  2
AcDbRasterImage
  3
ISM
 90
127
 91
1
280
0
281
1
  0
CLASS
  1
TABLESTYLE
  2
AcDbTableStyle
  3
ObjectDBX Classes
 90
2047
 91
1
280
0
281
0
  0
CLASS
  1
ACAD_TABLE
  2
AcDbTable
  3
ObjectDBX Classes
 90
1025
 91
3
280
0
281
1
  0
ENDSEC
  0
SECTION
  2
TABLES
  0
TABLE
  2
VPORT
  5
8
100
AcDbSymbolTable
 70
2
  0
VPORT
  5
1F4
100
AcDbSymbolTableRecord
100
AcDbViewportTableRecord
  2
*ACTIVE
 70
0
 10
0.0
 20
0.0
 11
1.0
 21
1.0
 12
11.0
 22
8.5
 13
0.0
 23
0.0
 14
1.0
 24
1.0
 15
0.0
 25
0.0
 16
0.0
 26
0.0
 36
1.0
 17
0.0
 27
0.0
 37
0.0
 40
17.0
 41
1.2941176471
 42
50.0
 43
0.0
 44
0.0
 50
0.0
 51
0.0
 71
0
 72
100
 73
1
 74
1
 75
0
 76
0
 77
0
 78
0
  0
ENDTAB
  0
TABLE
  2
LTYPE
  5
5
100
AcDbSymbolTable
 70
6
  0
LTYPE
  5
14
100
AcDbSymbolTableRecord
100
AcDbLinetypeTableRecord
  2
BYBLOCK
 70
0
  3

 72
65
 73
0
 40
0.0
  0
LTYPE
  5
15
100
AcDbSymbolTableRecord
100
AcDbLinetypeTableRecord
  2
BYLAYER
 70
0
  3

 72
65
 73
0
 40
0.0
  0
LTYPE
  5
16
100
AcDbSymbolTableRecord
100
AcDbLinetypeTableRecord
  2
CONTINUOUS
 70
64
  3
Solid line
 72
65
 73
0
 40
0.0
  0
LTYPE
  5
1F5
100
AcDbSymbolTableRecord
100
AcDbLinetypeTableRecord
  2
CENTER
 70
64
  3
____ _ ____ _ ____ _ ____ _ ____ _ ____ _ ____
 72
65
 73
4
 40
0.6
 49
0.375
 74
0
 49
-0.075
 74
0
 49
0.075
 74
0
 49
-0.075
 74
0
  0
LTYPE
  5
1F6
100
AcDbSymbolTableRecord
100
AcDbLinetypeTableRecord
  2
HIDDEN
 70
64
  3
- - - - - - - - - - - - - - - - - - - -
 72
65
 73
2
 40
0.2
 49
0.1
 74
0
 49
-0.1
 74
0
  0
LTYPE
  5
1F7
100
AcDbSymbolTableRecord
100
AcDbLinetypeTableRecord
  2
PHANTOM
 70
64
  3
_____ _ _ _____ _ _ _____ _ _ _____
 72
65
 73
6
 40
0.8
 49
0.45
 74
0
 49
-0.05
 74
0
 49
0.1
 74
0
 49
-0.05
 74
0
 49
0.1
 74
0
 49
-0.05
 74
0
  0
LTYPE
  5
1F8
100
AcDbSymbolTableRecord
100
AcDbLinetypeTableRecord
  2
DOT
 70
64
  3
. . . . . . . . . . . . . . . . . . . .
 72
65
 73
2
 40
0.2
 49
0.1
 74
0
 49
-0.1
 74
0
  0
LTYPE
  5
1F9
100
AcDbSymbolTableRecord
100
AcDbLinetypeTableRecord
  2
DASHED
 70
64
  3
- - - - - - - - - - - - - - - - - - - -
 72
65
 73
2
 40
0.2
 49
0.1
 74
0
 49
-0.1
 74
0
  0
ENDTAB
  0
TABLE
  2
LAYER
  5
2
100
AcDbSymbolTable
 70
36
  0
LAYER
  5
10
100
AcDbSymbolTableRecord
100
AcDbLayerTableRecord
  2
0
 70
0
 62
7
  6
CONTINUOUS
370
-3
390
F
  0
LAYER
  5
1FA
100
AcDbSymbolTableRecord
100
AcDbLayerTableRecord
  2
DEFAULT_1
 70
0
 62
7
  6
CENTER
370
-3
390
F
  0
LAYER
  5
1FB
100
AcDbSymbolTableRecord
100
AcDbLayerTableRecord
  2
DEFAULT_2
 70
0
 62
8
  6
HIDDEN
370
-3
390
F
  0
LAYER
  5
1FC
100
AcDbSymbolTableRecord
100
AcDbLayerTableRecord
  2
DEFAULT_3
 70
0
 62
7
  6
PHANTOM
370
-3
390
F
  0
LAYER
  5
1FD
100
AcDbSymbolTableRecord
100
AcDbLayerTableRecord
  2
DATUM_PLANES
 70
0
 62
7
  6
CONTINUOUS
370
-3
390
F
  0
LAYER
  5
1FE
100
AcDbSymbolTableRecord
100
AcDbLayerTableRecord
  2
PORT_AREAS
 70
0
 62
7
  6
CONTINUOUS
370
-3
390
F
  0
LAYER
  5
1FF
100
AcDbSymbolTableRecord
100
AcDbLayerTableRecord
  2
SUNNBOMCOSMETIC
 70
0
 62
7
  6
CONTINUOUS
370
-3
390
F
  0
LAYER
  5
200
100
AcDbSymbolTableRecord
100
AcDbLayerTableRecord
  2
SUNNBOMSTAMPING
 70
0
 62
7
  6
CONTINUOUS
370
-3
390
F
  0
LAYER
  5
201
100
AcDbSymbolTableRecord
100
AcDbLayerTableRecord
  2
THREADS
 70
0
 62
7
  6
CONTINUOUS
370
-3
390
F
  0
ENDTAB
  0
TABLE
  2
STYLE
  5
3
100
AcDbSymbolTable
 70
1
  0
STYLE
  5
11
100
AcDbSymbolTableRecord
100
AcDbTextStyleTableRecord
  2
STANDARD
 70
0
 40
0.0
 41
0.8
 50
0.0
 71
0
 42
0.2
  3
txt
  4

  0
STYLE
  5
202
100
AcDbSymbolTableRecord
100
AcDbTextStyleTableRecord
  2
TEXTSTYLE_1
 70
0
 40
0.0
 41
0.8
 50
0.0
 71
0
 42
0.2
  3
gdt
  4

  0
ENDTAB
  0
TABLE
  2
VIEW
  5
6
100
AcDbSymbolTable
 70
0
  0
ENDTAB
  0
TABLE
  2
UCS
  5
7
100
AcDbSymbolTable
 70
0
  0
ENDTAB
  0
TABLE
  2
APPID
  5
9
100
AcDbSymbolTable
 70
1
  0
APPID
  5
203
100
AcDbSymbolTableRecord
100
AcDbRegAppTableRecord
  2
ACAD
 70
0
  0
ENDTAB
  0
TABLE
  2
BLOCK_RECORD
  5
1
100
AcDbSymbolTable
 70
0
  0
BLOCK_RECORD
  5
204
100
AcDbSymbolTableRecord
100
AcDbBlockTableRecord
  2
*Model_Space
  0
BLOCK_RECORD
  5
205
100
AcDbSymbolTableRecord
100
AcDbBlockTableRecord
  2
*Paper_Space
  0
BLOCK_RECORD
  5
206
100
AcDbSymbolTableRecord
100
AcDbBlockTableRecord
  2
SUN_FIRST_THIRD_ANGLE_BL0
  0
BLOCK_RECORD
  5
207
100
AcDbSymbolTableRecord
100
AcDbBlockTableRecord
  2
*T1
  0
BLOCK_RECORD
  5
208
100
AcDbSymbolTableRecord
100
AcDbBlockTableRecord
  2
*T2
  0
BLOCK_RECORD
  5
209
100
AcDbSymbolTableRecord
100
AcDbBlockTableRecord
  2
*T3
  0
ENDTAB
  0
TABLE
  2
DIMSTYLE
  5
A
100
AcDbSymbolTable
 70
1
100
AcDbDimStyleTable
 71
0
  0
DIMSTYLE
105
20A
100
AcDbSymbolTableRecord
100
AcDbDimStyleTableRecord
  2
STANDARD
 70
0
  3

  4

 40
1.0
 41
0.1875
 42
0.0625
 43
0.38
 44
0.125
 45
0.0
 46
0.0
 47
0.001
 48
0.001
140
0.1
141
0.09
142
0.0
143
25.4
144
1.0
145
0.0
146
1.0
147
0.09
 71
0.0
 72
0.0
 73
1
 74
1
 75
0
 76
0
 77
0
 78
4
170
0
171
2
172
0
173
0
174
0
175
0
176
0
177
0
178
0
270
2
271
3
272
3
273
2
274
2
275
0
280
0
281
0
282
0
283
1
284
4
285
0
286
0
287
3
288
0
340
11
278
46
  0
ENDTAB
  0
ENDSEC
  0
SECTION
  2
BLOCKS
  0
BLOCK
  5
20
100
AcDbEntity
  8
0
100
AcDbBlockBegin
  2
*Model_Space
 70
0
 10
0.0
 20
0.0
 30
0.0
  3
*Model_Space
  1

  0
ENDBLK
  5
21
100
AcDbEntity
  8
0
100
AcDbBlockEnd
  0
BLOCK
  5
1C
100
AcDbEntity
  8
0
100
AcDbBlockBegin
  2
*Paper_Space
 70
0
 10
0.0
 20
0.0
 30
0.0
  3
*Paper_Space
  1

  0
ENDBLK
  5
1D
100
AcDbEntity
  8
0
100
AcDbBlockEnd
  0
BLOCK
  5
20B
100
AcDbEntity
  8
0
100
AcDbBlockBegin
 62
2
  6
CONTINUOUS
  2
SUN_FIRST_THIRD_ANGLE_BL0
 70
64
 10
20.4816717061
 20
1.2289683772
  3
SUN_FIRST_THIRD_ANGLE_BL0
  1

  0
TEXT
  5
20C
100
AcDbEntity
  8
0
100
AcDbText
 62
2
  6
CONTINUOUS
 10
19.4750896608
 20
1.4136269581
  7
STANDARD
 40
0.08
  1
FIRST ANGLE
 41
0.8
 72
0
100
AcDbText
  0
TEXT
  5
20D
100
AcDbEntity
  8
0
100
AcDbText
 62
2
  6
CONTINUOUS
 10
20.7842537513
 20
1.4047600029
  7
STANDARD
 40
0.08
  1
THIRD ANGLE
 41
0.8
 72
0
100
AcDbText
  0
LINE
  5
20E
100
AcDbEntity
  8
0
100
AcDbLine
 62
7
  6
CONTINUOUS
 10
19.4767170086
 20
1.1727031207
 11
19.6334271527
 21
1.1717972817
  0
LINE
  5
20F
100
AcDbEntity
  8
0
100
AcDbLine
 62
7
  6
CONTINUOUS
 10
19.6596964832
 20
1.1717972817
 11
19.6950230232
 21
1.171593082
  0
LINE
  5
210
100
AcDbEntity
  8
0
100
AcDbLine
 62
7
  6
CONTINUOUS
 10
19.7194818561
 20
1.1708914427
 11
19.8852396156
 21
1.1699333054
  0
LINE
  5
211
100
AcDbEntity
  8
0
100
AcDbLine
 62
7
  6
CONTINUOUS
 10
19.4758111696
 20
1.2723454088
 11
19.88525039
 21
1.3511534004
  0
LINE
  5
212
100
AcDbEntity
  8
0
100
AcDbLine
 62
7
  6
CONTINUOUS
 10
19.88525039
 20
1.3511534004
 11
19.8831348489
 21
0.9851647912
  0
LINE
  5
213
100
AcDbEntity
  8
0
100
AcDbLine
 62
7
  6
CONTINUOUS
 10
19.8831348489
 20
0.9851647912
 11
19.4767170086
 21
1.0658141206
  0
LINE
  5
214
100
AcDbEntity
  8
0
100
AcDbLine
 62
7
  6
CONTINUOUS
 10
19.4767170086
 20
1.0658141206
 11
19.4779056764
 21
1.2714536432
  0
CIRCLE
  5
215
100
AcDbEntity
  8
0
100
AcDbCircle
 62
7
  6
CONTINUOUS
 10
20.2068232291
 20
1.1717972817
 40
0.175742101
  0
CIRCLE
  5
216
100
AcDbEntity
  8
0
100
AcDbCircle
 62
7
  6
CONTINUOUS
 10
20.2068232291
 20
1.1717972817
 40
0.1005522074
  0
LINE
  5
217
100
AcDbEntity
  8
0
100
AcDbLine
 62
7
  6
CONTINUOUS
 10
20.2077290681
 20
1.3756110529
 11
20.2071171714
 21
1.2379342989
  0
LINE
  5
218
100
AcDbEntity
  8
0
100
AcDbLine
 62
7
  6
CONTINUOUS
 10
20.2077290681
 20
1.2016899681
 11
20.2074674401
 21
1.1428236749
  0
LINE
  5
219
100
AcDbEntity
  8
0
100
AcDbLine
 62
7
  6
CONTINUOUS
 10
20.208634907
 20
1.101141841
 11
20.2080230104
 21
0.963465087
  0
LINE
  5
21A
100
AcDbEntity
  8
0
100
AcDbLine
 62
7
  6
CONTINUOUS
 10
20.0066328138
 20
1.1745147986
 11
20.1443095678
 21
1.1739029019
  0
LINE
  5
21B
100
AcDbEntity
  8
0
100
AcDbLine
 62
7
  6
CONTINUOUS
 10
20.1832714155
 20
1.1727031207
 11
20.238153505
 21
1.172335442
  0
LINE
  5
21C
100
AcDbEntity
  8
0
100
AcDbLine
 62
7
  6
CONTINUOUS
 10
20.2756669918
 20
1.1717972817
 11
20.407916871
 21
1.1712095044
  0
CIRCLE
  5
21D
100
AcDbEntity
  8
0
100
AcDbCircle
 62
7
  6
CONTINUOUS
 10
20.7509457401
 20
1.1693297793
 40
0.1722024983
  0
CIRCLE
  5
21E
100
AcDbEntity
  8
0
100
AcDbCircle
 62
7
  6
CONTINUOUS
 10
20.7509457401
 20
1.1693297793
 40
0.0985164967
  0
LINE
  5
21F
100
AcDbEntity
  8
0
100
AcDbLine
 62
7
  6
CONTINUOUS
 10
20.7169767782
 20
1.170462078
 11
20.7825395137
 21
1.1682766535
  0
LINE
  5
220
100
AcDbEntity
  8
0
100
AcDbLine
 62
7
  6
CONTINUOUS
 10
20.8177513651
 20
1.1693297793
 11
20.947965719
 21
1.1693297793
  0
LINE
  5
221
100
AcDbEntity
  8
0
100
AcDbLine
 62
7
  6
CONTINUOUS
 10
20.6875370113
 20
1.170462078
 11
20.5573226574
 21
1.170462078
  0
LINE
  5
222
100
AcDbEntity
  8
0
100
AcDbLine
 62
7
  6
CONTINUOUS
 10
20.7486811426
 20
1.1987695462
 11
20.7486811426
 21
1.1432869085
  0
LINE
  5
223
100
AcDbEntity
  8
0
100
AcDbLine
 62
7
  6
CONTINUOUS
 10
20.7498134414
 20
1.1059210505
 11
20.7498134414
 21
0.9757066966
  0
LINE
  5
224
100
AcDbEntity
  8
0
100
AcDbLine
 62
7
  6
CONTINUOUS
 10
20.7486811426
 20
1.2338708068
 11
20.7486811426
 21
1.3640851607
  0
LINE
  5
225
100
AcDbEntity
  8
0
100
AcDbLine
 62
7
  6
CONTINUOUS
 10
21.0702539817
 20
1.2701043662
 11
21.4790138229
 21
1.3448360823
  0
LINE
  5
226
100
AcDbEntity
  8
0
100
AcDbLine
 62
7
  6
CONTINUOUS
 10
21.4790138229
 20
1.3448360823
 11
21.4790138229
 21
0.9779712941
  0
LINE
  5
227
100
AcDbEntity
  8
0
100
AcDbLine
 62
7
  6
CONTINUOUS
 10
21.4790138229
 20
0.9779712941
 11
21.069121683
 21
1.0617614
  0
LINE
  5
228
100
AcDbEntity
  8
0
100
AcDbLine
 62
7
  6
CONTINUOUS
 10
21.0702539817
 20
1.2701043662
 11
21.069121683
 21
1.0617614
  0
LINE
  5
229
100
AcDbEntity
  8
0
100
AcDbLine
 62
7
  6
CONTINUOUS
 10
21.4790138229
 20
1.1693297793
 11
21.3159628059
 21
1.1693297793
  0
LINE
  5
22A
100
AcDbEntity
  8
0
100
AcDbLine
 62
7
  6
CONTINUOUS
 10
21.2876553377
 20
1.1693297793
 11
21.2502894796
 21
1.1693297793
  0
LINE
  5
22B
100
AcDbEntity
  8
0
100
AcDbLine
 62
7
  6
CONTINUOUS
 10
21.2208497126
 20
1.1659328831
 11
21.0713862804
 21
1.1659328831
  0
LINE
  5
22C
100
AcDbEntity
  8
0
100
AcDbLine
 62
7
  6
CONTINUOUS
 10
20.4796138713
 20
1.5284908897
 11
20.4766766948
 21
0.9294458646
  0
ENDBLK
  5
22D
100
AcDbEntity
  8
0
  6
BYBLOCK
 62
0
100
AcDbBlockEnd
  0
BLOCK
  5
22E
100
AcDbEntity
  8
0
100
AcDbBlockBegin
  2
*T1
 70
1
 10
0.0
 20
0.0
  3
*T1
  1

  0
LINE
  5
22F
100
AcDbEntity
  8
0
100
AcDbLine
 62
2
  6
CONTINUOUS
 10
9.275
 20
0.0
 11
-0.0
 21
0.0
  0
LINE
  5
230
100
AcDbEntity
  8
0
100
AcDbLine
 62
2
  6
CONTINUOUS
 10
9.275
 20
0.0
 11
9.275
 21
1.25
  0
LINE
  5
231
100
AcDbEntity
  8
0
100
AcDbLine
 62
2
  6
CONTINUOUS
 10
9.275
 20
0.625
 11
-0.0
 21
0.625
  0
LINE
  5
232
100
AcDbEntity
  8
0
100
AcDbLine
 62
2
  6
CONTINUOUS
 10
9.275
 20
1.25
 11
-0.0
 21
1.25
  0
LINE
  5
233
100
AcDbEntity
  8
0
100
AcDbLine
 62
2
  6
CONTINUOUS
 10
6.8
 20
0.0
 11
6.8
 21
1.25
  0
LINE
  5
234
100
AcDbEntity
  8
0
100
AcDbLine
 62
2
  6
CONTINUOUS
 10
6.4
 20
0.0
 11
6.4
 21
0.625
  0
LINE
  5
235
100
AcDbEntity
  8
0
100
AcDbLine
 62
2
  6
CONTINUOUS
 10
5.9
 20
0.0
 11
5.9
 21
0.625
  0
LINE
  5
236
100
AcDbEntity
  8
0
100
AcDbLine
 62
2
  6
CONTINUOUS
 10
5.2
 20
0.0
 11
5.2
 21
0.625
  0
LINE
  5
237
100
AcDbEntity
  8
0
100
AcDbLine
 62
2
  6
CONTINUOUS
 10
4.1
 20
0.0
 11
4.1
 21
1.25
  0
LINE
  5
238
100
AcDbEntity
  8
0
100
AcDbLine
 62
2
  6
CONTINUOUS
 10
-0.0
 20
0.0
 11
-0.0
 21
1.25
  0
MTEXT
  5
239
100
AcDbEntity
  8
0
100
AcDbMText
 62
2
  6
CONTINUOUS
  7
STANDARD
 71
2
 72
1
 10
6.6
 20
0.325
 30
0.0
 11
1.0
 21
0.0
 31
0.0
 44
0.9
  1
2
 40
0.125
 41
0.2
  0
MTEXT
  5
23A
100
AcDbEntity
  8
0
100
AcDbMText
 62
2
  6
CONTINUOUS
  7
STANDARD
 71
2
 72
1
 10
6.15
 20
0.325
 30
0.0
 11
1.0
 21
0.0
 31
0.0
 44
0.9
  1
C
 40
0.125
 41
0.2
  0
MTEXT
  5
23B
100
AcDbEntity
  8
0
100
AcDbMText
 62
2
  6
CONTINUOUS
  7
STANDARD
 71
2
 72
1
 10
5.55
 20
0.325
 30
0.0
 11
1.0
 21
0.0
 31
0.0
 44
0.9
  1
2.000
 40
0.125
 41
1.0
  0
MTEXT
  5
23C
100
AcDbEntity
  8
0
100
AcDbMText
 62
2
  6
CONTINUOUS
  7
STANDARD
 71
2
 72
1
 10
4.65
 20
0.325
 30
0.0
 11
1.0
 21
0.0
 31
0.0
 44
0.9
  1
Nov-27-19
 40
0.125
 41
1.8
  0
MTEXT
  5
23D
100
AcDbEntity
  8
0
100
AcDbMText
 62
2
  6
CONTINUOUS
  7
STANDARD
 71
2
 72
1
 10
2.05
 20
0.4625
 30
0.0
 11
1.0
 21
0.0
 31
0.0
 44
0.9
  1
T-10A Line mount\PNinety degree
 40
0.125
 41
3.2
  0
MTEXT
  5
23E
100
AcDbEntity
  8
0
100
AcDbMText
 62
2
  6
CONTINUOUS
  7
STANDARD
 71
1
 72
1
 10
6.45
 20
0.5625
 30
0.0
 11
1.0
 21
0.0
 31
0.0
 44
0.9
  1
SHEET
 40
0.06
 41
0.48
  0
MTEXT
  5
23F
100
AcDbEntity
  8
0
100
AcDbMText
 62
2
  6
CONTINUOUS
  7
STANDARD
 71
1
 72
1
 10
5.95
 20
0.5625
 30
0.0
 11
1.0
 21
0.0
 31
0.0
 44
0.9
  1
DWG SIZE
 40
0.06
 41
0.768
  0
MTEXT
  5
240
100
AcDbEntity
  8
0
100
AcDbMText
 62
2
  6
CONTINUOUS
  7
STANDARD
 71
1
 72
1
 10
5.25
 20
0.5625
 30
0.0
 11
1.0
 21
0.0
 31
0.0
 44
0.9
  1
SCALE
 40
0.06
 41
0.48
  0
MTEXT
  5
241
100
AcDbEntity
  8
0
100
AcDbMText
 62
2
  6
CONTINUOUS
  7
STANDARD
 71
1
 72
1
 10
4.15
 20
0.5625
 30
0.0
 11
1.0
 21
0.0
 31
0.0
 44
0.9
  1
DATE
 40
0.06
 41
0.384
  0
MTEXT
  5
242
100
AcDbEntity
  8
0
100
AcDbMText
 62
2
  6
CONTINUOUS
  7
STANDARD
 71
1
 72
1
 10
0.05
 20
0.5625
 30
0.0
 11
1.0
 21
0.0
 31
0.0
 44
0.9
  1
DESCRIPTION
 40
0.06
 41
1.056
  0
MTEXT
  5
243
100
AcDbEntity
  8
0
100
AcDbMText
 62
2
  6
CONTINUOUS
  7
STANDARD
 71
2
 72
1
 10
5.45
 20
1.0375
 30
0.0
 11
1.0
 21
0.0
 31
0.0
 44
0.9
  1
ALL DIMENSIONS IN INCH\PVIEWS ARE THIRD ANGLE
 40
0.12
 41
4.224
  0
MTEXT
  5
244
100
AcDbEntity
  8
0
100
AcDbMText
 62
2
  6
CONTINUOUS
  7
STANDARD
 71
2
 72
1
 10
2.05
 20
0.95
 30
0.0
 11
1.0
 21
0.0
 31
0.0
 44
0.9
  1
ZLL
 40
0.125
 41
0.6
  0
MTEXT
  5
245
100
AcDbEntity
  8
0
100
AcDbMText
 62
2
  6
CONTINUOUS
  7
STANDARD
 71
1
 72
1
 10
0.05
 20
1.1875
 30
0.0
 11
1.0
 21
0.0
 31
0.0
 44
0.9
  1
MODEL
 40
0.06
 41
0.48
  0
ENDBLK
  5
246
100
AcDbEntity
  8
0
  6
BYBLOCK
 62
0
100
AcDbBlockEnd
  0
BLOCK
  5
247
100
AcDbEntity
  8
0
100
AcDbBlockBegin
  2
*T2
 70
1
 10
0.0
 20
0.0
  3
*T2
  1

  0
LINE
  5
248
100
AcDbEntity
  8
0
100
AcDbLine
 62
2
  6
CONTINUOUS
 10
0.0
 20
0.0
 11
9.055
 21
0.0
  0
LINE
  5
249
100
AcDbEntity
  8
0
100
AcDbLine
 62
2
  6
CONTINUOUS
 10
0.0
 20
0.0
 11
0.0
 21
-2.344
  0
LINE
  5
24A
100
AcDbEntity
  8
0
100
AcDbLine
 62
2
  6
CONTINUOUS
 10
0.0
 20
-0.344
 11
9.055
 21
-0.344
  0
LINE
  5
24B
100
AcDbEntity
  8
0
100
AcDbLine
 62
2
  6
CONTINUOUS
 10
0.0
 20
-0.594
 11
9.055
 21
-0.594
  0
LINE
  5
24C
100
AcDbEntity
  8
0
100
AcDbLine
 62
2
  6
CONTINUOUS
 10
0.0
 20
-0.844
 11
9.055
 21
-0.844
  0
LINE
  5
24D
100
AcDbEntity
  8
0
100
AcDbLine
 62
2
  6
CONTINUOUS
 10
0.0
 20
-1.094
 11
9.055
 21
-1.094
  0
LINE
  5
24E
100
AcDbEntity
  8
0
100
AcDbLine
 62
2
  6
CONTINUOUS
 10
0.0
 20
-1.344
 11
9.055
 21
-1.344
  0
LINE
  5
24F
100
AcDbEntity
  8
0
100
AcDbLine
 62
2
  6
CONTINUOUS
 10
0.0
 20
-1.594
 11
9.055
 21
-1.594
  0
LINE
  5
250
100
AcDbEntity
  8
0
100
AcDbLine
 62
2
  6
CONTINUOUS
 10
0.0
 20
-1.844
 11
9.055
 21
-1.844
  0
LINE
  5
251
100
AcDbEntity
  8
0
100
AcDbLine
 62
2
  6
CONTINUOUS
 10
0.0
 20
-2.094
 11
9.055
 21
-2.094
  0
LINE
  5
252
100
AcDbEntity
  8
0
100
AcDbLine
 62
2
  6
CONTINUOUS
 10
0.0
 20
-2.344
 11
9.055
 21
-2.344
  0
LINE
  5
253
100
AcDbEntity
  8
0
100
AcDbLine
 62
2
  6
CONTINUOUS
 10
3.055
 20
0.0
 11
3.055
 21
-2.344
  0
LINE
  5
254
100
AcDbEntity
  8
0
100
AcDbLine
 62
2
  6
CONTINUOUS
 10
9.055
 20
0.0
 11
9.055
 21
-2.344
  0
MTEXT
  5
255
100
AcDbEntity
  8
0
100
AcDbMText
 62
2
  6
CONTINUOUS
  7
STANDARD
 71
2
 72
1
 10
1.5275
 20
-0.0995
 30
0.0
 11
1.0
 21
0.0
 31
0.0
 44
0.9
  1
Technical Data
 40
0.145
 41
3.248
  0
MTEXT
  5
256
100
AcDbEntity
  8
0
100
AcDbMText
 62
2
  6
CONTINUOUS
  7
STANDARD
 71
2
 72
1
 10
4.555
 20
-0.0995
 30
0.0
 11
1.0
 21
0.0
 31
0.0
 44
0.9
  1
U.S. Units
 40
0.145
 41
2.32
  0
MTEXT
  5
257
100
AcDbEntity
  8
0
100
AcDbMText
 62
2
  6
CONTINUOUS
  7
STANDARD
 71
2
 72
1
 10
7.555
 20
-0.0995
 30
0.0
 11
1.0
 21
0.0
 31
0.0
 44
0.9
  1
Metric Units
 40
0.145
 41
2.784
  0
MTEXT
  5
258
100
AcDbEntity
  8
0
100
AcDbMText
 62
2
  6
CONTINUOUS
  7
STANDARD
 71
2
 72
1
 10
1.5275
 20
-0.4065
 30
0.0
 11
1.0
 21
0.0
 31
0.0
 44
0.9
  1
Cavity
 40
0.125
 41
1.2
  0
MTEXT
  5
259
100
AcDbEntity
  8
0
100
AcDbMText
 62
2
  6
CONTINUOUS
  7
STANDARD
 71
2
 72
1
 10
6.055
 20
-0.4065
 30
0.0
 11
1.0
 21
0.0
 31
0.0
 44
0.9
  1
T-10A
 40
0.125
 41
1.0
  0
MTEXT
  5
25A
100
AcDbEntity
  8
0
100
AcDbMText
 62
2
  6
CONTINUOUS
  7
STANDARD
 71
2
 72
1
 10
1.5275
 20
-0.6565
 30
0.0
 11
1.0
 21
0.0
 31
0.0
 44
0.9
  1
Body Features
 40
0.125
 41
2.6
  0
MTEXT
  5
25B
100
AcDbEntity
  8
0
100
AcDbMText
 62
2
  6
CONTINUOUS
  7
STANDARD
 71
2
 72
1
 10
6.055
 20
-0.6565
 30
0.0
 11
1.0
 21
0.0
 31
0.0
 44
0.9
  1
Ninety degree
 40
0.125
 41
2.6
  0
MTEXT
  5
25C
100
AcDbEntity
  8
0
100
AcDbMText
 62
2
  6
CONTINUOUS
  7
STANDARD
 71
2
 72
1
 10
1.5275
 20
-0.9065
 30
0.0
 11
1.0
 21
0.0
 31
0.0
 44
0.9
  1
Body Type
 40
0.125
 41
1.8
  0
MTEXT
  5
25D
100
AcDbEntity
  8
0
100
AcDbMText
 62
2
  6
CONTINUOUS
  7
STANDARD
 71
2
 72
1
 10
6.055
 20
-0.9065
 30
0.0
 11
1.0
 21
0.0
 31
0.0
 44
0.9
  1
Line mount
 40
0.125
 41
2.0
  0
MTEXT
  5
25E
100
AcDbEntity
  8
0
100
AcDbMText
 62
2
  6
CONTINUOUS
  7
STANDARD
 71
2
 72
1
 10
1.5275
 20
-1.1565
 30
0.0
 11
1.0
 21
0.0
 31
0.0
 44
0.9
  1
Interface
 40
0.125
 41
1.8
  0
MTEXT
  5
25F
100
AcDbEntity
  8
0
100
AcDbMText
 62
2
  6
CONTINUOUS
  7
STANDARD
 71
2
 72
1
 10
6.055
 20
-1.1565
 30
0.0
 11
1.0
 21
0.0
 31
0.0
 44
0.9
  1
None
 40
0.125
 41
0.8
  0
MTEXT
  5
260
100
AcDbEntity
  8
0
100
AcDbMText
 62
2
  6
CONTINUOUS
  7
STANDARD
 71
2
 72
1
 10
1.5275
 20
-1.4065
 30
0.0
 11
1.0
 21
0.0
 31
0.0
 44
0.9
  1
Open Cavity Quantity
 40
0.125
 41
4.0
  0
MTEXT
  5
261
100
AcDbEntity
  8
0
100
AcDbMText
 62
2
  6
CONTINUOUS
  7
STANDARD
 71
2
 72
1
 10
6.055
 20
-1.4065
 30
0.0
 11
1.0
 21
0.0
 31
0.0
 44
0.9
  1
1
 40
0.125
 41
0.2
  0
MTEXT
  5
262
100
AcDbEntity
  8
0
100
AcDbMText
 62
2
  6
CONTINUOUS
  7
STANDARD
 71
2
 72
1
 10
1.5275
 20
-1.6565
 30
0.0
 11
1.0
 21
0.0
 31
0.0
 44
0.9
  1
Weight
 40
0.125
 41
1.2
  0
MTEXT
  5
263
100
AcDbEntity
  8
0
100
AcDbMText
 62
2
  6
CONTINUOUS
  7
STANDARD
 71
2
 72
1
 10
4.555
 20
-1.6565
 30
0.0
 11
1.0
 21
0.0
 31
0.0
 44
0.9
  1
0.374 lb.
 40
0.125
 41
1.8
  0
MTEXT
  5
264
100
AcDbEntity
  8
0
100
AcDbMText
 62
2
  6
CONTINUOUS
  7
STANDARD
 71
2
 72
1
 10
7.555
 20
-1.6565
 30
0.0
 11
1.0
 21
0.0
 31
0.0
 44
0.9
  1
0,170 kg.
 40
0.125
 41
1.8
  0
MTEXT
  5
265
100
AcDbEntity
  8
0
100
AcDbMText
 62
2
  6
CONTINUOUS
  7
STANDARD
 71
2
 72
1
 10
1.5275
 20
-1.9065
 30
0.0
 11
1.0
 21
0.0
 31
0.0
 44
0.9
  1
Mounting Hole Diameter
 40
0.125
 41
4.4
  0
MTEXT
  5
266
100
AcDbEntity
  8
0
100
AcDbMText
 62
2
  6
CONTINUOUS
  7
STANDARD
 71
2
 72
1
 10
4.555
 20
-1.9065
 30
0.0
 11
1.0
 21
0.0
 31
0.0
 44
0.9
  1
.27 in.
 40
0.125
 41
1.4
  0
MTEXT
  5
267
100
AcDbEntity
  8
0
100
AcDbMText
 62
2
  6
CONTINUOUS
  7
STANDARD
 71
2
 72
1
 10
7.555
 20
-1.9065
 30
0.0
 11
1.0
 21
0.0
 31
0.0
 44
0.9
  1
8,7 mm
 40
0.125
 41
1.2
  0
MTEXT
  5
268
100
AcDbEntity
  8
0
100
AcDbMText
 62
2
  6
CONTINUOUS
  7
STANDARD
 71
2
 72
1
 10
1.5275
 20
-2.1565
 30
0.0
 11
1.0
 21
0.0
 31
0.0
 44
0.9
  1
Mounting Hole Quantity
 40
0.125
 41
4.4
  0
MTEXT
  5
269
100
AcDbEntity
  8
0
100
AcDbMText
 62
2
  6
CONTINUOUS
  7
STANDARD
 71
2
 72
1
 10
6.055
 20
-2.1565
 30
0.0
 11
1.0
 21
0.0
 31
0.0
 44
0.9
  1
2
 40
0.125
 41
0.2
  0
ENDBLK
  5
26A
100
AcDbEntity
  8
0
  6
BYBLOCK
 62
0
100
AcDbBlockEnd
  0
BLOCK
  5
26B
100
AcDbEntity
  8
0
100
AcDbBlockBegin
  2
*T3
 70
1
 10
0.0
 20
0.0
  3
*T3
  1

  0
LINE
  5
26C
100
AcDbEntity
  8
0
100
AcDbLine
 62
2
  6
CONTINUOUS
 10
0.0
 20
0.0
 11
4.6
 21
0.0
  0
LINE
  5
26D
100
AcDbEntity
  8
0
100
AcDbLine
 62
2
  6
CONTINUOUS
 10
0.0
 20
0.0
 11
0.0
 21
-0.93775
  0
LINE
  5
26E
100
AcDbEntity
  8
0
100
AcDbLine
 62
2
  6
CONTINUOUS
 10
0.0
 20
-0.34375
 11
4.6
 21
-0.34375
  0
LINE
  5
26F
100
AcDbEntity
  8
0
100
AcDbLine
 62
2
  6
CONTINUOUS
 10
0.0
 20
-0.68775
 11
4.6
 21
-0.68775
  0
LINE
  5
270
100
AcDbEntity
  8
0
100
AcDbLine
 62
2
  6
CONTINUOUS
 10
0.0
 20
-0.93775
 11
4.6
 21
-0.93775
  0
LINE
  5
271
100
AcDbEntity
  8
0
100
AcDbLine
 62
2
  6
CONTINUOUS
 10
1.3
 20
-0.34375
 11
1.3
 21
-0.93775
  0
LINE
  5
272
100
AcDbEntity
  8
0
100
AcDbLine
 62
2
  6
CONTINUOUS
 10
3.3
 20
-0.34375
 11
3.3
 21
-0.93775
  0
LINE
  5
273
100
AcDbEntity
  8
0
100
AcDbLine
 62
2
  6
CONTINUOUS
 10
4.6
 20
0.0
 11
4.6
 21
-0.93775
  0
MTEXT
  5
274
100
AcDbEntity
  8
0
100
AcDbMText
 62
2
  6
CONTINUOUS
  7
STANDARD
 71
2
 72
1
 10
2.3
 20
-0.099375
 30
0.0
 11
1.0
 21
0.0
 31
0.0
 44
0.9
  1
Port Headings
 40
0.145
 41
3.016
  0
MTEXT
  5
275
100
AcDbEntity
  8
0
100
AcDbMText
 62
2
  6
CONTINUOUS
  7
STANDARD
 71
2
 72
1
 10
0.65
 20
-0.44325
 30
0.0
 11
1.0
 21
0.0
 31
0.0
 44
0.9
  1
Product
 40
0.145
 41
1.624
  0
MTEXT
  5
276
100
AcDbEntity
  8
0
100
AcDbMText
 62
2
  6
CONTINUOUS
  7
STANDARD
 71
2
 72
1
 10
2.3
 20
-0.44325
 30
0.0
 11
1.0
 21
0.0
 31
0.0
 44
0.9
  1
Port
 40
0.145
 41
0.928
  0
MTEXT
  5
277
100
AcDbEntity
  8
0
100
AcDbMText
 62
2
  6
CONTINUOUS
  7
STANDARD
 71
2
 72
1
 10
3.95
 20
-0.44325
 30
0.0
 11
1.0
 21
0.0
 31
0.0
 44
0.9
  1
Size
 40
0.145
 41
0.928
  0
MTEXT
  5
278
100
AcDbEntity
  8
0
100
AcDbMText
 62
2
  6
CONTINUOUS
  7
STANDARD
 71
2
 72
1
 10
0.65
 20
-0.75025
 30
0.0
 11
1.0
 21
0.0
 31
0.0
 44
0.9
  1
ZLL
 40
0.125
 41
0.6
  0
MTEXT
  5
279
100
AcDbEntity
  8
0
100
AcDbMText
 62
2
  6
CONTINUOUS
  7
STANDARD
 71
2
 72
1
 10
2.3
 20
-0.75025
 30
0.0
 11
1.0
 21
0.0
 31
0.0
 44
0.9
  1
Ports 1 &  2
 40
0.125
 41
2.4
  0
MTEXT
  5
27A
100
AcDbEntity
  8
0
100
AcDbMText
 62
2
  6
CONTINUOUS
  7
STANDARD
 71
2
 72
1
 10
3.95
 20
-0.75025
 30
0.0
 11
1.0
 21
0.0
 31
0.0
 44
0.9
  1
3/8" NPTF
 40
0.125
 41
1.8
  0
ENDBLK
  5
27B
100
AcDbEntity
  8
0
  6
BYBLOCK
 62
0
100
AcDbBlockEnd
  0
ENDSEC
  0
SECTION
  2
ENTITIES
  0
IMAGE
  5
27C
100
AcDbEntity
  8
0
100
AcDbRasterImage
 62
7
  6
CONTINUOUS
 10
19.2297077316
 20
0.3094318264
 30
0.0
 11
0.0066666667
 21
0.0
 31
0.0
 12
0.0
 22
0.0066666667
 32
0.0
 13
369.0
 23
92.0
340
       32C
 70
9
280
0
281
50
282
50
283
0
360
       326
 71
1
 91
2
 14
-0.5
 24
-0.5
 14
368.5
 24
91.5
  0
INSERT
  5
27D
100
AcDbEntity
  8
0
100
AcDbBlockReference
 62
2
  6
CONTINUOUS
  2
SUN_FIRST_THIRD_ANGLE_BL0
 10
20.4816717061
 20
1.2289683772
  0
ACAD_TABLE
  5
27E
100
AcDbEntity
  8
0
 62
2
  6
CONTINUOUS
100
AcDbBlockReference
  2
*T1
 10
12.42375
 20
0.30125
 30
0.0
100
AcDbTable
342
       32E
343
207
 11
1.0
 21
0.0
 31
0.0
 90
6
 91
4
 92
6
 93
20
 94
0
 95
0
 96
0
 70
1
 41
0.0
141
0.525
141
0.1
141
0.525
141
0.1
142
4.1
142
1.1
142
0.7
142
0.5
142
0.4
142
2.475
171
1
172
0
173
0
174
0
175
1
176
1
 91
33
178
0
145
0.0
301
CELL_VALUE
 90
4
  1
T-10A Line mount\PNinety degree
304
ACVALUE_END
170
2
140
0.125
171
1
172
0
173
0
174
0
175
1
176
1
 91
33
178
0
145
0.0
301
CELL_VALUE
 90
4
  1
Nov-27-19
304
ACVALUE_END
170
5
140
0.125
171
1
172
0
173
0
174
0
175
1
176
1
 91
33
178
0
145
0.0
301
CELL_VALUE
 90
4
  1
2.000
304
ACVALUE_END
170
5
140
0.125
171
1
172
0
173
0
174
0
175
1
176
1
 91
33
178
0
145
0.0
301
CELL_VALUE
 90
4
  1
C
304
ACVALUE_END
170
5
140
0.125
171
1
172
0
173
0
174
0
175
1
176
1
 91
33
178
0
145
0.0
301
CELL_VALUE
 90
4
  1
2
304
ACVALUE_END
170
5
140
0.125
171
1
172
0
173
0
174
0
175
1
176
1
 91
33
178
0
145
0.0
301
CELL_VALUE
 90
4
  1
 
304
ACVALUE_END
170
1
140
0.125
171
1
172
0
173
0
174
0
175
1
176
1
 91
33
178
0
145
0.0
301
CELL_VALUE
 90
4
  1
DESCRIPTION
304
ACVALUE_END
170
1
140
0.06
171
1
172
0
173
0
174
0
175
1
176
1
 91
33
178
0
145
0.0
301
CELL_VALUE
 90
4
  1
DATE
304
ACVALUE_END
170
1
140
0.06
171
1
172
0
173
0
174
0
175
1
176
1
 91
33
178
0
145
0.0
301
CELL_VALUE
 90
4
  1
SCALE
304
ACVALUE_END
170
1
140
0.06
171
1
172
0
173
0
174
0
175
1
176
1
 91
33
178
0
145
0.0
301
CELL_VALUE
 90
4
  1
DWG SIZE
304
ACVALUE_END
170
1
140
0.06
171
1
172
0
173
0
174
0
175
1
176
1
 91
33
178
0
145
0.0
301
CELL_VALUE
 90
4
  1
SHEET
304
ACVALUE_END
170
1
140
0.06
171
1
172
0
173
0
174
0
175
1
176
1
 91
33
178
0
145
0.0
301
CELL_VALUE
 90
4
  1
 
304
ACVALUE_END
170
1
140
0.125
171
1
172
0
173
0
174
0
175
1
176
1
 91
33
178
0
145
0.0
301
CELL_VALUE
 90
4
  1
ZLL
304
ACVALUE_END
170
5
140
0.125
171
1
172
0
173
0
174
0
175
4
176
1
 91
33
178
0
145
0.0
301
CELL_VALUE
 90
4
  1
ALL DIMENSIONS IN INCH\PVIEWS ARE THIRD ANGLE
304
ACVALUE_END
170
5
140
0.12
171
1
172
0
173
1
174
0
175
1
176
1
 91
1
178
0
145
0.0
170
1
171
1
172
0
173
1
174
0
175
1
176
1
 91
1
178
0
145
0.0
170
1
171
1
172
0
173
1
174
0
175
1
176
1
 91
1
178
0
145
0.0
170
5
171
1
172
0
173
0
174
0
175
1
176
1
 91
33
178
0
145
0.0
301
CELL_VALUE
 90
4
  1
 
304
ACVALUE_END
170
1
140
0.125
171
1
172
0
173
0
174
0
175
1
176
1
 91
33
178
0
145
0.0
301
CELL_VALUE
 90
4
  1
MODEL
304
ACVALUE_END
170
1
140
0.06
171
1
172
0
173
0
174
0
175
1
176
1
 91
33
178
0
145
0.0
301
CELL_VALUE
 90
4
  1
 
304
ACVALUE_END
170
1
140
0.125
171
1
172
0
173
0
174
0
175
1
176
1
 91
33
178
0
145
0.0
301
CELL_VALUE
 90
4
  1
 
304
ACVALUE_END
170
1
140
0.125
171
1
172
0
173
0
174
0
175
1
176
1
 91
33
178
0
145
0.0
301
CELL_VALUE
 90
4
  1
 
304
ACVALUE_END
170
1
140
0.125
171
1
172
0
173
0
174
0
175
1
176
1
 91
33
178
0
145
0.0
301
CELL_VALUE
 90
4
  1
 
304
ACVALUE_END
170
1
140
0.125
171
1
172
0
173
0
174
0
175
1
176
1
 91
33
178
0
145
0.0
301
CELL_VALUE
 90
4
  1
 
304
ACVALUE_END
170
1
140
0.125
  0
ACAD_TABLE
  5
27F
100
AcDbEntity
  8
0
 62
2
  6
CONTINUOUS
100
AcDbBlockReference
  2
*T2
 10
12.4237499994
 20
16.47875
 30
0.0
100
AcDbTable
342
       32D
343
208
 11
1.0
 21
0.0
 31
0.0
 90
22
 91
9
 92
3
 93
16
 94
0
 95
0
 96
0
 41
0.028
141
0.344
141
0.25
141
0.25
141
0.25
141
0.25
141
0.25
141
0.25
141
0.25
141
0.25
142
3.055
142
3.0
142
3.0
171
1
172
0
173
0
174
0
175
1
176
1
 91
33
178
0
145
0.0
301
CELL_VALUE
 90
4
  1
Technical Data
304
ACVALUE_END
170
5
140
0.145
171
1
172
0
173
0
174
0
175
1
176
1
 91
33
178
0
145
0.0
301
CELL_VALUE
 90
4
  1
U.S. Units
304
ACVALUE_END
170
5
140
0.145
171
1
172
0
173
0
174
0
175
1
176
1
 91
33
178
0
145
0.0
301
CELL_VALUE
 90
4
  1
Metric Units
304
ACVALUE_END
170
5
140
0.145
171
1
172
0
173
0
174
0
175
1
176
1
 91
33
178
0
145
0.0
301
CELL_VALUE
 90
4
  1
Cavity
304
ACVALUE_END
170
5
140
0.125
171
1
172
0
173
0
174
0
175
2
176
1
 91
33
178
0
145
0.0
301
CELL_VALUE
 90
4
  1
T-10A
304
ACVALUE_END
170
5
140
0.125
171
1
172
0
173
1
174
0
175
1
176
1
 91
1
178
0
145
0.0
170
1
171
1
172
0
173
0
174
0
175
1
176
1
 91
33
178
0
145
0.0
301
CELL_VALUE
 90
4
  1
Body Features
304
ACVALUE_END
170
5
140
0.125
171
1
172
0
173
0
174
0
175
2
176
1
 91
33
178
0
145
0.0
301
CELL_VALUE
 90
4
  1
Ninety degree
304
ACVALUE_END
170
5
140
0.125
171
1
172
0
173
1
174
0
175
1
176
1
 91
1
178
0
145
0.0
170
1
171
1
172
0
173
0
174
0
175
1
176
1
 91
33
178
0
145
0.0
301
CELL_VALUE
 90
4
  1
Body Type
304
ACVALUE_END
170
5
140
0.125
171
1
172
0
173
0
174
0
175
2
176
1
 91
33
178
0
145
0.0
301
CELL_VALUE
 90
4
  1
Line mount
304
ACVALUE_END
170
5
140
0.125
171
1
172
0
173
1
174
0
175
1
176
1
 91
1
178
0
145
0.0
170
1
171
1
172
0
173
0
174
0
175
1
176
1
 91
33
178
0
145
0.0
301
CELL_VALUE
 90
4
  1
Interface
304
ACVALUE_END
170
5
140
0.125
171
1
172
0
173
0
174
0
175
2
176
1
 91
33
178
0
145
0.0
301
CELL_VALUE
 90
4
  1
None
304
ACVALUE_END
170
5
140
0.125
171
1
172
0
173
1
174
0
175
1
176
1
 91
1
178
0
145
0.0
170
1
171
1
172
0
173
0
174
0
175
1
176
1
 91
33
178
0
145
0.0
301
CELL_VALUE
 90
4
  1
Open Cavity Quantity
304
ACVALUE_END
170
5
140
0.125
171
1
172
0
173
0
174
0
175
2
176
1
 91
33
178
0
145
0.0
301
CELL_VALUE
 90
4
  1
1
304
ACVALUE_END
170
5
140
0.125
171
1
172
0
173
1
174
0
175
1
176
1
 91
1
178
0
145
0.0
170
1
171
1
172
0
173
0
174
0
175
1
176
1
 91
33
178
0
145
0.0
301
CELL_VALUE
 90
4
  1
Weight
304
ACVALUE_END
170
5
140
0.125
171
1
172
0
173
0
174
0
175
1
176
1
 91
33
178
0
145
0.0
301
CELL_VALUE
 90
4
  1
0.374 lb.
304
ACVALUE_END
170
5
140
0.125
171
1
172
0
173
0
174
0
175
1
176
1
 91
33
178
0
145
0.0
301
CELL_VALUE
 90
4
  1
0,170 kg.
304
ACVALUE_END
170
5
140
0.125
171
1
172
0
173
0
174
0
175
1
176
1
 91
33
178
0
145
0.0
301
CELL_VALUE
 90
4
  1
Mounting Hole Diameter
304
ACVALUE_END
170
5
140
0.125
171
1
172
0
173
0
174
0
175
1
176
1
 91
33
178
0
145
0.0
301
CELL_VALUE
 90
4
  1
.27 in.
304
ACVALUE_END
170
5
140
0.125
171
1
172
0
173
0
174
0
175
1
176
1
 91
33
178
0
145
0.0
301
CELL_VALUE
 90
4
  1
8,7 mm
304
ACVALUE_END
170
5
140
0.125
171
1
172
0
173
0
174
0
175
1
176
1
 91
33
178
0
145
0.0
301
CELL_VALUE
 90
4
  1
Mounting Hole Quantity
304
ACVALUE_END
170
5
140
0.125
171
1
172
0
173
0
174
0
175
2
176
1
 91
33
178
0
145
0.0
301
CELL_VALUE
 90
4
  1
2
304
ACVALUE_END
170
5
140
0.125
171
1
172
0
173
1
174
0
175
1
176
1
 91
1
178
0
145
0.0
170
1
  0
ACAD_TABLE
  5
280
100
AcDbEntity
  8
0
 62
2
  6
CONTINUOUS
100
AcDbBlockReference
  2
*T3
 10
0.52125
 20
1.459
 30
0.0
100
AcDbTable
342
       32D
343
209
 11
1.0
 21
0.0
 31
0.0
 90
22
 91
3
 92
3
 93
16
 94
0
 95
0
 96
0
 41
0.05
141
0.34375
141
0.344
141
0.25
142
1.3
142
2.0
142
1.3
171
1
172
0
173
0
174
0
175
3
176
1
 91
33
178
0
145
0.0
301
CELL_VALUE
 90
4
  1
Port Headings
304
ACVALUE_END
170
5
140
0.145
171
1
172
0
173
1
174
0
175
1
176
1
 91
1
178
0
145
0.0
170
1
171
1
172
0
173
1
174
0
175
1
176
1
 91
1
178
0
145
0.0
170
1
171
1
172
0
173
0
174
0
175
1
176
1
 91
33
178
0
145
0.0
301
CELL_VALUE
 90
4
  1
Product
304
ACVALUE_END
170
5
140
0.145
171
1
172
0
173
0
174
0
175
1
176
1
 91
33
178
0
145
0.0
301
CELL_VALUE
 90
4
  1
Port
304
ACVALUE_END
170
5
140
0.145
171
1
172
0
173
0
174
0
175
1
176
1
 91
33
178
0
145
0.0
301
CELL_VALUE
 90
4
  1
Size
304
ACVALUE_END
170
5
140
0.145
171
1
172
0
173
0
174
0
175
1
176
1
 91
33
178
0
145
0.0
301
CELL_VALUE
 90
4
  1
ZLL
304
ACVALUE_END
170
5
140
0.125
171
1
172
0
173
0
174
0
175
1
176
1
 91
33
178
0
145
0.0
301
CELL_VALUE
 90
4
  1
Ports 1 &  2
304
ACVALUE_END
170
5
140
0.125
171
1
172
0
173
0
174
0
175
1
176
1
 91
33
178
0
145
0.0
301
CELL_VALUE
 90
4
  1
3/8" NPTF
304
ACVALUE_END
170
5
140
0.125
  0
MTEXT
  5
281
100
AcDbEntity
  8
0
100
AcDbMText
 62
2
  6
CONTINUOUS
  7
STANDARD
 71
1
 72
1
 10
0.52125
 20
5.75995
 30
0.0
 11
1.0
 21
0.0
 31
0.0
 44
0.6
  3
Notes\P \P1. Important: Carefully consider\P   the maximum system pressure. The\P   pressure rating of the manifold is\P   dependent on the manifold material,\P   with the port type/size a secondary\P   consideration. Manifolds\P   constructed of alu
  1
minum are not\P   rated for pressures higher than\P   3000 psi (210 bar), regardless of\P   the port type/size specified.
 40
0.1
 41
3.04
  0
LINE
  5
282
100
AcDbEntity
  8
0
100
AcDbLine
 62
7
  6
CONTINUOUS
 10
0.30125
 20
0.30125
 11
0.30125
 21
16.69875
  0
LINE
  5
283
100
AcDbEntity
  8
0
100
AcDbLine
 62
7
  6
CONTINUOUS
 10
0.30125
 20
0.30125
 11
21.69875
 21
0.30125
  0
LINE
  5
284
100
AcDbEntity
  8
0
100
AcDbLine
 62
7
  6
CONTINUOUS
 10
0.30125
 20
16.69875
 11
21.69875
 21
16.69875
  0
LINE
  5
285
100
AcDbEntity
  8
0
100
AcDbLine
 62
7
  6
CONTINUOUS
 10
21.69875
 20
0.30125
 11
21.69875
 21
16.69875
  0
LINE
  5
286
100
AcDbEntity
  8
0
100
AcDbLine
 62
7
  6
CONTINUOUS
 10
9.7538939787
 20
11.3361686492
 11
9.1068468999
 21
10.7111691279
  0
LINE
  5
287
100
AcDbEntity
  8
0
100
AcDbLine
 62
7
  6
CONTINUOUS
 10
9.1068468999
 20
5.8815397103
 11
12.2461060213
 21
5.6638313508
  0
LINE
  5
288
100
AcDbEntity
  8
0
100
AcDbLine
 62
7
  6
CONTINUOUS
 10
9.1068468999
 20
5.8815397103
 11
9.1068468999
 21
10.7111691279
  0
LINE
  5
289
100
AcDbEntity
  8
0
100
AcDbLine
 62
4
  6
CONTINUOUS
 10
9.3773061484
 20
9.0052620556
 11
9.3773061484
 21
8.9795040388
  0
LINE
  5
28A
100
AcDbEntity
  8
0
100
AcDbLine
 62
4
  6
CONTINUOUS
 10
9.3096913381
 20
8.9197980813
 11
9.3000320795
 21
8.8818309187
  0
LINE
  5
28B
100
AcDbEntity
  8
0
100
AcDbLine
 62
4
  6
CONTINUOUS
 10
9.3000320795
 20
9.0106210305
 11
9.3096913381
 21
9.0228301763
  0
LINE
  5
28C
100
AcDbEntity
  8
0
100
AcDbLine
 62
4
  6
CONTINUOUS
 10
9.3290098553
 20
8.944216359
 11
9.3096913381
 21
8.9197980813
  0
LINE
  5
28D
100
AcDbEntity
  8
0
100
AcDbLine
 62
4
  6
CONTINUOUS
 10
9.3773061484
 20
8.9795040388
 11
9.3676468898
 21
8.967294893
  0
LINE
  5
28E
100
AcDbEntity
  8
0
100
AcDbLine
 62
4
  6
CONTINUOUS
 10
9.9485822913
 20
9.3556940161
 11
9.9706605977
 21
9.3762411844
  0
LINE
  5
28F
100
AcDbEntity
  8
0
100
AcDbLine
 62
4
  6
CONTINUOUS
 10
10.0037780561
 20
9.219396343
 11
10.0258563602
 21
9.2399435138
  0
LINE
  5
290
100
AcDbEntity
  8
0
100
AcDbLine
 62
4
  6
CONTINUOUS
 10
10.1252087425
 20
9.2109750963
 11
10.1472870374
 21
9.2315222677
  0
LINE
  5
291
100
AcDbEntity
  8
0
100
AcDbLine
 62
4
  6
CONTINUOUS
 10
9.3096913381
 20
9.0228301763
 11
9.3290098553
 21
9.034369441
  0
LINE
  5
292
100
AcDbEntity
  8
0
100
AcDbLine
 62
4
  6
CONTINUOUS
 10
9.3676468898
 20
8.967294893
 11
9.3290098553
 21
8.944216359
  0
LINE
  5
293
100
AcDbEntity
  8
0
100
AcDbLine
 62
4
  6
CONTINUOUS
 10
9.9485822913
 20
9.333615712
 11
9.9485822913
 21
9.3556940161
  0
LINE
  5
294
100
AcDbEntity
  8
0
100
AcDbLine
 62
4
  6
CONTINUOUS
 10
10.0258563602
 20
9.2399435138
 11
10.0258563602
 21
9.2620218202
  0
LINE
  5
295
100
AcDbEntity
  8
0
100
AcDbLine
 62
4
  6
CONTINUOUS
 10
10.0700129684
 20
9.3693510741
 11
10.0700129684
 21
9.2368812426
  0
LINE
  5
296
100
AcDbEntity
  8
0
100
AcDbLine
 62
4
  6
CONTINUOUS
 10
10.1178493925
 20
8.4232899656
 11
10.1178493925
 21
8.5778381035
  0
LINE
  5
297
100
AcDbEntity
  8
0
100
AcDbLine
 62
4
  6
CONTINUOUS
 10
9.3676468898
 20
9.0188109451
 11
9.3773061484
 21
9.0052620556
  0
LINE
  5
298
100
AcDbEntity
  8
0
100
AcDbLine
 62
4
  6
CONTINUOUS
 10
10.1472870374
 20
9.2315222677
 11
10.1472870374
 21
9.3639920992
  0
LINE
  5
299
100
AcDbEntity
  8
0
100
AcDbLine
 62
4
  6
CONTINUOUS
 10
10.1914436456
 20
9.2063816902
 11
10.1914436456
 21
9.3609298281
  0
LINE
  5
29A
100
AcDbEntity
  8
0
100
AcDbLine
 62
4
  6
CONTINUOUS
 10
10.1951234523
 20
8.5504008252
 11
10.1951234523
 21
8.4400092978
  0
LINE
  5
29B
100
AcDbEntity
  8
0
100
AcDbLine
 62
4
  6
CONTINUOUS
 10
10.2687177146
 20
9.2010227153
 11
10.2687177146
 21
9.3555708532
  0
LINE
  5
29C
100
AcDbEntity
  8
0
100
AcDbLine
 62
4
  6
CONTINUOUS
 10
10.2576786518
 20
8.4135927735
 11
10.30183526
 21
8.5650786403
  0
LINE
  5
29D
100
AcDbEntity
  8
0
100
AcDbLine
 62
4
  6
CONTINUOUS
 10
10.6403692084
 20
9.2746009697
 11
10.6624475032
 21
9.2841089914
  0
LINE
  5
29E
100
AcDbEntity
  8
0
100
AcDbLine
 62
4
  6
CONTINUOUS
 10
10.8501131203
 20
9.2048594197
 11
10.8721914152
 21
9.2143674368
  0
LINE
  5
29F
100
AcDbEntity
  8
0
100
AcDbLine
 62
4
  6
CONTINUOUS
 10
10.30183526
 20
8.5650786403
 11
10.3459918867
 21
8.4074682299
  0
LINE
  5
2A0
100
AcDbEntity
  8
0
100
AcDbLine
 62
4
  6
CONTINUOUS
 10
10.4343049999
 20
9.189539198
 11
10.4343049999
 21
9.3440873359
  0
LINE
  5
2A1
100
AcDbEntity
  8
0
100
AcDbLine
 62
4
  6
CONTINUOUS
 10
10.434305103
 20
8.4013436875
 11
10.434305103
 21
8.5558918254
  0
LINE
  5
2A2
100
AcDbEntity
  8
0
100
AcDbLine
 62
4
  6
CONTINUOUS
 10
10.5005399214
 20
9.2842981637
 11
10.5005399214
 21
9.1849457906
  0
LINE
  5
2A3
100
AcDbEntity
  8
0
100
AcDbLine
 62
4
  6
CONTINUOUS
 10
10.5226183194
 20
8.3952191452
 11
10.5226183194
 21
8.5497672831
  0
LINE
  5
2A4
100
AcDbEntity
  8
0
100
AcDbLine
 62
4
  6
CONTINUOUS
 10
10.5667748429
 20
9.1435552074
 11
10.6109314327
 21
9.287681643
  0
LINE
  5
2A5
100
AcDbEntity
  8
0
100
AcDbLine
 62
4
  6
CONTINUOUS
 10
10.6109315011
 20
8.8836486465
 11
10.5336574321
 21
8.7344594835
  0
LINE
  5
2A6
100
AcDbEntity
  8
0
100
AcDbLine
 62
7
  6
CONTINUOUS
 10
12.2461060213
 20
10.4934607684
 11
12.8931531001
 21
11.1184602897
  0
LINE
  5
2A7
100
AcDbEntity
  8
0
100
AcDbLine
 62
4
  6
CONTINUOUS
 10
10.1951234523
 20
8.4400092978
 11
10.1730451482
 21
8.4194621269
  0
LINE
  5
2A8
100
AcDbEntity
  8
0
100
AcDbLine
 62
4
  6
CONTINUOUS
 10
10.0295361669
 20
8.4956494255
 11
10.0884116491
 21
8.4621286558
  0
LINE
  5
2A9
100
AcDbEntity
  8
0
100
AcDbLine
 62
4
  6
CONTINUOUS
 10
9.3483283726
 20
9.0330296973
 11
9.3676468898
 21
9.0188109451
  0
LINE
  5
2AA
100
AcDbEntity
  8
0
100
AcDbLine
 62
4
  6
CONTINUOUS
 10
10.1730451482
 20
8.5740102649
 11
10.1951234523
 21
8.5504008252
  0
LINE
  5
2AB
100
AcDbEntity
  8
0
100
AcDbLine
 62
4
  6
CONTINUOUS
 10
10.6403692084
 20
9.1862877498
 11
10.6403692084
 21
9.2746009697
  0
LINE
  5
2AC
100
AcDbEntity
  8
0
100
AcDbLine
 62
4
  6
CONTINUOUS
 10
10.6550881093
 20
8.8805863754
 11
10.6550881093
 21
8.7260382375
  0
LINE
  5
2AD
100
AcDbEntity
  8
0
100
AcDbLine
 62
4
  6
CONTINUOUS
 10
10.706604093
 20
9.3252033297
 11
10.706604093
 21
9.1706551918
  0
LINE
  5
2AE
100
AcDbEntity
  8
0
100
AcDbLine
 62
4
  6
CONTINUOUS
 10
10.7507607565
 20
9.1675929168
 11
10.7507607565
 21
9.2779844465
  0
LINE
  5
2AF
100
AcDbEntity
  8
0
100
AcDbLine
 62
4
  6
CONTINUOUS
 10
10.7544404915
 20
8.8736962643
 11
10.7544404915
 21
8.7191481263
  0
LINE
  5
2B0
100
AcDbEntity
  8
0
100
AcDbLine
 62
4
  6
CONTINUOUS
 10
10.7544405632
 20
8.4012205244
 11
10.7544405632
 21
8.5116120518
  0
LINE
  5
2B1
100
AcDbEntity
  8
0
100
AcDbLine
 62
4
  6
CONTINUOUS
 10
10.8022767533
 20
9.2633726433
 11
10.8022767533
 21
9.2412943392
  0
LINE
  5
2B2
100
AcDbEntity
  8
0
100
AcDbLine
 62
4
  6
CONTINUOUS
 10
11.2291239843
 20
9.2337706873
 11
11.2401630949
 21
9.244044279
  0
LINE
  5
2B3
100
AcDbEntity
  8
0
100
AcDbLine
 62
4
  6
CONTINUOUS
 10
11.3284764219
 20
9.2268805724
 11
11.3395155325
 21
9.2371541641
  0
LINE
  5
2B4
100
AcDbEntity
  8
0
100
AcDbLine
 62
4
  6
CONTINUOUS
 10
10.0884116491
 20
8.5210041404
 11
10.0295361669
 21
8.4956494255
  0
LINE
  5
2B5
100
AcDbEntity
  8
0
100
AcDbLine
 62
4
  6
CONTINUOUS
 10
9.9485822913
 20
9.2342633355
 11
9.9596214445
 21
9.2224586144
  0
LINE
  5
2B6
100
AcDbEntity
  8
0
100
AcDbLine
 62
4
  6
CONTINUOUS
 10
10.776518858
 20
8.377611083
 11
10.7544405632
 21
8.4012205244
  0
LINE
  5
2B7
100
AcDbEntity
  8
0
100
AcDbLine
 62
4
  6
CONTINUOUS
 10
10.1914436456
 20
9.3609298281
 11
10.2687177146
 21
9.2010227153
  0
LINE
  5
2B8
100
AcDbEntity
  8
0
100
AcDbLine
 62
4
  6
CONTINUOUS
 10
10.544696548
 20
9.2922750479
 11
10.5778140272
 21
9.1795868132
  0
LINE
  5
2B9
100
AcDbEntity
  8
0
100
AcDbLine
 62
4
  6
CONTINUOUS
 10
10.8501131203
 20
9.1717419601
 11
10.8501131203
 21
9.2048594197
  0
LINE
  5
2BA
100
AcDbEntity
  8
0
100
AcDbLine
 62
4
  6
CONTINUOUS
 10
10.883230629
 20
8.392288903
 11
10.883230629
 21
8.5026804304
  0
LINE
  5
2BB
100
AcDbEntity
  8
0
100
AcDbLine
 62
4
  6
CONTINUOUS
 10
10.916348005
 20
9.1561094021
 11
10.916348005
 21
9.2444226277
  0
LINE
  5
2BC
100
AcDbEntity
  8
0
100
AcDbLine
 62
4
  6
CONTINUOUS
 10
10.9605045948
 20
9.2634386619
 11
10.9605045948
 21
9.1640862854
  0
LINE
  5
2BD
100
AcDbEntity
  8
0
100
AcDbLine
 62
4
  6
CONTINUOUS
 10
10.9605046979
 20
8.4973214555
 11
10.9605046979
 21
8.3869299281
  0
LINE
  5
2BE
100
AcDbEntity
  8
0
100
AcDbLine
 62
4
  6
CONTINUOUS
 10
11.0000616253
 20
6.1945707377
 11
11.0000616253
 21
6.0400225998
  0
LINE
  5
2BF
100
AcDbEntity
  8
0
100
AcDbLine
 62
4
  6
CONTINUOUS
 10
11.0046612877
 20
8.3617893518
 11
11.0046612877
 21
8.5163374897
  0
LINE
  5
2C0
100
AcDbEntity
  8
0
100
AcDbLine
 62
4
  6
CONTINUOUS
 10
11.0267395531
 20
9.1484537222
 11
11.0267395531
 21
9.2588452519
  0
LINE
  5
2C1
100
AcDbEntity
  8
0
100
AcDbLine
 62
4
  6
CONTINUOUS
 10
11.1739282103
 20
9.2927942921
 11
11.1702485067
 21
9.2820103237
  0
LINE
  5
2C2
100
AcDbEntity
  8
0
100
AcDbLine
 62
4
  6
CONTINUOUS
 10
11.3836721223
 20
9.1237003645
 11
11.3947112328
 21
9.1339739528
  0
LINE
  5
2C3
100
AcDbEntity
  8
0
100
AcDbLine
 62
4
  6
CONTINUOUS
 10
10.7544405632
 20
8.5116120518
 11
10.776518858
 21
8.5321592209
  0
LINE
  5
2C4
100
AcDbEntity
  8
0
100
AcDbLine
 62
4
  6
CONTINUOUS
 10
10.883230629
 20
8.5026804304
 11
10.9053089238
 21
8.5232275995
  0
LINE
  5
2C5
100
AcDbEntity
  8
0
100
AcDbLine
 62
4
  6
CONTINUOUS
 10
11.0598570617
 20
8.3579615119
 11
11.0046612877
 21
8.3617893518
  0
LINE
  5
2C6
100
AcDbEntity
  8
0
100
AcDbLine
 62
4
  6
CONTINUOUS
 10
10.938426403
 20
8.3663827566
 11
10.9053089238
 21
8.3686794616
  0
LINE
  5
2C7
100
AcDbEntity
  8
0
100
AcDbLine
 62
4
  6
CONTINUOUS
 10
10.8206754478
 20
8.3745488131
 11
10.776518858
 21
8.377611083
  0
LINE
  5
2C8
100
AcDbEntity
  8
0
100
AcDbLine
 62
4
  6
CONTINUOUS
 10
10.1730451482
 20
8.4194621269
 11
10.1178493925
 21
8.4232899656
  0
LINE
  5
2C9
100
AcDbEntity
  8
0
100
AcDbLine
 62
4
  6
CONTINUOUS
 10
10.5226183194
 20
8.3952191452
 11
10.588853241
 21
8.3906257378
  0
LINE
  5
2CA
100
AcDbEntity
  8
0
100
AcDbLine
 62
4
  6
CONTINUOUS
 10
11.1444906115
 20
8.3520921552
 11
11.2107254961
 21
8.3474987504
  0
LINE
  5
2CB
100
AcDbEntity
  8
0
100
AcDbLine
 62
4
  6
CONTINUOUS
 10
10.2723975212
 20
8.4567286293
 11
10.3312729988
 21
8.452645601
  0
LINE
  5
2CC
100
AcDbEntity
  8
0
100
AcDbLine
 62
4
  6
CONTINUOUS
 10
11.1886472012
 20
8.437343111
 11
11.1444906115
 21
8.4404053809
  0
LINE
  5
2CD
100
AcDbEntity
  8
0
100
AcDbLine
 62
4
  6
CONTINUOUS
 10
10.5667749461
 20
8.4804700983
 11
10.5226183194
 21
8.4835323708
  0
LINE
  5
2CE
100
AcDbEntity
  8
0
100
AcDbLine
 62
4
  6
CONTINUOUS
 10
10.1178493925
 20
8.5778381035
 11
10.1730451482
 21
8.5740102649
  0
LINE
  5
2CF
100
AcDbEntity
  8
0
100
AcDbLine
 62
4
  6
CONTINUOUS
 10
10.3901484764
 20
8.5589540979
 11
10.4784616928
 21
8.5528295555
  0
LINE
  5
2D0
100
AcDbEntity
  8
0
100
AcDbLine
 62
4
  6
CONTINUOUS
 10
10.5226183194
 20
8.5497672831
 11
10.588853241
 21
8.5451738757
  0
LINE
  5
2D1
100
AcDbEntity
  8
0
100
AcDbLine
 62
4
  6
CONTINUOUS
 10
10.776518858
 20
8.5321592209
 11
10.8206754478
 21
8.529096951
  0
LINE
  5
2D2
100
AcDbEntity
  8
0
100
AcDbLine
 62
4
  6
CONTINUOUS
 10
10.9053089238
 20
8.5232275995
 11
10.938426403
 21
8.5209308946
  0
LINE
  5
2D3
100
AcDbEntity
  8
0
100
AcDbLine
 62
4
  6
CONTINUOUS
 10
11.0046612877
 20
8.5163374897
 11
11.0598570617
 21
8.5125096498
  0
LINE
  5
2D4
100
AcDbEntity
  8
0
100
AcDbLine
 62
4
  6
CONTINUOUS
 10
11.1444906115
 20
8.5066402932
 11
11.2107254961
 21
8.5020468883
  0
LINE
  5
2D5
100
AcDbEntity
  8
0
100
AcDbLine
 62
4
  6
CONTINUOUS
 10
10.0258563602
 20
9.2620218202
 11
9.9485822913
 21
9.333615712
  0
LINE
  5
2D6
100
AcDbEntity
  8
0
100
AcDbLine
 62
4
  6
CONTINUOUS
 10
10.0700129684
 20
9.2368812426
 11
10.0920912725
 21
9.2132718006
  0
LINE
  5
2D7
100
AcDbEntity
  8
0
100
AcDbLine
 62
4
  6
CONTINUOUS
 10
10.9053089238
 20
8.3686794616
 11
10.883230629
 21
8.392288903
  0
LINE
  5
2D8
100
AcDbEntity
  8
0
100
AcDbLine
 62
4
  6
CONTINUOUS
 10
10.0148172082
 20
9.3731789131
 11
10.0258563602
 21
9.3613741886
  0
LINE
  5
2D9
100
AcDbEntity
  8
0
100
AcDbLine
 62
4
  6
CONTINUOUS
 10
10.938426403
 20
8.5209308946
 11
10.9605046979
 21
8.4973214555
  0
LINE
  5
2DA
100
AcDbEntity
  8
0
100
AcDbLine
 62
4
  6
CONTINUOUS
 10
11.0708961429
 20
9.1564306055
 11
11.0708961429
 21
9.2999395902
  0
LINE
  5
2DB
100
AcDbEntity
  8
0
100
AcDbLine
 62
4
  6
CONTINUOUS
 10
11.0819353566
 20
8.4889002107
 11
11.0819353566
 21
8.3785086833
  0
LINE
  5
2DC
100
AcDbEntity
  8
0
100
AcDbLine
 62
4
  6
CONTINUOUS
 10
11.1444906115
 20
8.3520921552
 11
11.1444906115
 21
8.5066402932
  0
LINE
  5
2DD
100
AcDbEntity
  8
0
100
AcDbLine
 62
4
  6
CONTINUOUS
 10
11.1702485067
 20
9.1385013425
 11
11.1702485067
 21
9.2488928722
  0
LINE
  5
2DE
100
AcDbEntity
  8
0
100
AcDbLine
 62
4
  6
CONTINUOUS
 10
11.1702485067
 20
9.2820103237
 11
11.1702485067
 21
9.2930494804
  0
LINE
  5
2DF
100
AcDbEntity
  8
0
100
AcDbLine
 62
4
  6
CONTINUOUS
 10
11.2291239843
 20
9.1454574674
 11
11.2291239843
 21
9.2337706873
  0
LINE
  5
2E0
100
AcDbEntity
  8
0
100
AcDbLine
 62
4
  6
CONTINUOUS
 10
10.9605046979
 20
8.3869299281
 11
10.938426403
 21
8.3663827566
  0
LINE
  5
2E1
100
AcDbEntity
  8
0
100
AcDbLine
 62
4
  6
CONTINUOUS
 10
11.0819353566
 20
8.3785086833
 11
11.0598570617
 21
8.3579615119
  0
LINE
  5
2E2
100
AcDbEntity
  8
0
100
AcDbLine
 62
4
  6
CONTINUOUS
 10
11.3137575635
 20
8.4065883692
 11
11.2548820859
 21
8.3812336563
  0
LINE
  5
2E3
100
AcDbEntity
  8
0
100
AcDbLine
 62
4
  6
CONTINUOUS
 10
10.5336574321
 20
8.7344594835
 11
10.6109315011
 21
8.7291005086
  0
LINE
  5
2E4
100
AcDbEntity
  8
0
100
AcDbLine
 62
4
  6
CONTINUOUS
 10
10.6550881093
 20
8.7260382375
 11
10.7102838833
 21
8.7222103975
  0
LINE
  5
2E5
100
AcDbEntity
  8
0
100
AcDbLine
 62
4
  6
CONTINUOUS
 10
10.7544404915
 20
8.7191481263
 11
10.8096362472
 21
8.7153202877
  0
LINE
  5
2E6
100
AcDbEntity
  8
0
100
AcDbLine
 62
4
  6
CONTINUOUS
 10
11.2548820859
 20
8.4401091408
 11
11.3137575635
 21
8.4065883692
  0
LINE
  5
2E7
100
AcDbEntity
  8
0
100
AcDbLine
 62
4
  6
CONTINUOUS
 10
11.0598570617
 20
8.5125096498
 11
11.0819353566
 21
8.4889002107
  0
LINE
  5
2E8
100
AcDbEntity
  8
0
100
AcDbLine
 62
4
  6
CONTINUOUS
 10
10.489500774
 20
9.2961028878
 11
10.5005399214
 21
9.2842981637
  0
LINE
  5
2E9
100
AcDbEntity
  8
0
100
AcDbLine
 62
4
  6
CONTINUOUS
 10
10.7949173463
 20
9.2749221766
 11
10.8022767533
 21
9.2633726433
  0
LINE
  5
2EA
100
AcDbEntity
  8
0
100
AcDbLine
 62
4
  6
CONTINUOUS
 10
10.916348005
 20
9.2444226277
 11
10.9053088944
 21
9.2672664967
  0
LINE
  5
2EB
100
AcDbEntity
  8
0
100
AcDbLine
 62
4
  6
CONTINUOUS
 10
11.3284764219
 20
9.1937631162
 11
11.3284764219
 21
9.2268805724
  0
LINE
  5
2EC
100
AcDbEntity
  8
0
100
AcDbLine
 62
4
  6
CONTINUOUS
 10
11.3947112328
 20
9.1339739528
 11
11.3947112328
 21
9.1670914124
  0
LINE
  5
2ED
100
AcDbEntity
  8
0
100
AcDbLine
 62
4
  6
CONTINUOUS
 10
9.3000320795
 20
8.8818309187
 11
9.3773061484
 21
8.8764719438
  0
LINE
  5
2EE
100
AcDbEntity
  8
0
100
AcDbLine
 62
4
  6
CONTINUOUS
 10
10.5336574321
 20
8.8890076214
 11
10.6109315011
 21
8.8836486465
  0
LINE
  5
2EF
100
AcDbEntity
  8
0
100
AcDbLine
 62
4
  6
CONTINUOUS
 10
9.3290098553
 20
9.034369441
 11
9.3483283726
 21
9.0330296973
  0
LINE
  5
2F0
100
AcDbEntity
  8
0
100
AcDbLine
 62
4
  6
CONTINUOUS
 10
10.6624475032
 20
9.1737174617
 11
10.6403692084
 21
9.1862877498
  0
LINE
  5
2F1
100
AcDbEntity
  8
0
100
AcDbLine
 62
4
  6
CONTINUOUS
 10
10.9605045948
 20
9.1640862854
 11
10.9715437791
 21
9.1522815621
  0
LINE
  5
2F2
100
AcDbEntity
  8
0
100
AcDbLine
 62
4
  6
CONTINUOUS
 10
10.544696548
 20
9.1450863424
 11
10.5667748429
 21
9.1435552074
  0
LINE
  5
2F3
100
AcDbEntity
  8
0
100
AcDbLine
 62
4
  6
CONTINUOUS
 10
11.2843198321
 20
9.1305904692
 11
11.2401630949
 21
9.1336527493
  0
LINE
  5
2F4
100
AcDbEntity
  8
0
100
AcDbLine
 62
4
  6
CONTINUOUS
 10
11.1040136221
 20
9.1430947473
 11
11.0819353272
 21
9.1446258823
  0
LINE
  5
2F5
100
AcDbEntity
  8
0
100
AcDbLine
 62
4
  6
CONTINUOUS
 10
10.916348005
 20
9.1561094021
 11
10.8721914152
 21
9.159171672
  0
LINE
  5
2F6
100
AcDbEntity
  8
0
100
AcDbLine
 62
4
  6
CONTINUOUS
 10
10.706604093
 20
9.1706551918
 11
10.6624475032
 21
9.1737174617
  0
LINE
  5
2F7
100
AcDbEntity
  8
0
100
AcDbLine
 62
4
  6
CONTINUOUS
 10
9.9596214445
 20
9.2224586144
 11
10.0037780561
 21
9.219396343
  0
LINE
  5
2F8
100
AcDbEntity
  8
0
100
AcDbLine
 62
4
  6
CONTINUOUS
 10
10.0920912725
 20
9.2132718006
 11
10.1252087425
 21
9.2109750963
  0
LINE
  5
2F9
100
AcDbEntity
  8
0
100
AcDbLine
 62
4
  6
CONTINUOUS
 10
10.9715437791
 20
9.1522815621
 11
11.0267395531
 21
9.1484537222
  0
LINE
  5
2FA
100
AcDbEntity
  8
0
100
AcDbLine
 62
4
  6
CONTINUOUS
 10
11.3395155325
 20
9.1267626344
 11
11.3836721223
 21
9.1237003645
  0
LINE
  5
2FB
100
AcDbEntity
  8
0
100
AcDbLine
 62
4
  6
CONTINUOUS
 10
10.8721914152
 20
9.2143674368
 11
10.916348005
 21
9.2113051669
  0
LINE
  5
2FC
100
AcDbEntity
  8
0
100
AcDbLine
 62
4
  6
CONTINUOUS
 10
10.8721914152
 20
9.159171672
 11
10.8501131203
 21
9.1717419601
  0
LINE
  5
2FD
100
AcDbEntity
  8
0
100
AcDbLine
 62
4
  6
CONTINUOUS
 10
11.0819353272
 20
9.1446258823
 11
11.0708961429
 21
9.1564306055
  0
LINE
  5
2FE
100
AcDbEntity
  8
0
100
AcDbLine
 62
4
  6
CONTINUOUS
 10
11.2401630949
 20
9.1336527493
 11
11.2291239843
 21
9.1454574674
  0
LINE
  5
2FF
100
AcDbEntity
  8
0
100
AcDbLine
 62
4
  6
CONTINUOUS
 10
11.3284764219
 20
9.1385673525
 11
11.3395155325
 21
9.1267626344
  0
LINE
  5
300
100
AcDbEntity
  8
0
100
AcDbLine
 62
4
  6
CONTINUOUS
 10
10.9053088944
 20
9.2672664967
 11
10.8501131203
 21
9.2710943366
  0
LINE
  5
301
100
AcDbEntity
  8
0
100
AcDbLine
 62
4
  6
CONTINUOUS
 10
10.4343049999
 20
9.2999307277
 11
10.489500774
 21
9.2961028878
  0
LINE
  5
302
100
AcDbEntity
  8
0
100
AcDbLine
 62
4
  6
CONTINUOUS
 10
10.6624475032
 20
9.2841089914
 11
10.706604093
 21
9.2810467215
  0
LINE
  5
303
100
AcDbEntity
  8
0
100
AcDbLine
 62
4
  6
CONTINUOUS
 10
10.7507607565
 20
9.2779844465
 11
10.7949173463
 21
9.2749221766
  0
LINE
  5
304
100
AcDbEntity
  8
0
100
AcDbLine
 62
4
  6
CONTINUOUS
 10
11.2401630949
 20
9.244044279
 11
11.2843198321
 21
9.2409819989
  0
LINE
  5
305
100
AcDbEntity
  8
0
100
AcDbLine
 62
4
  6
CONTINUOUS
 10
11.3395155325
 20
9.2371541641
 11
11.3836721223
 21
9.2340918942
  0
LINE
  5
306
100
AcDbEntity
  8
0
100
AcDbLine
 62
4
  6
CONTINUOUS
 10
9.9706605977
 20
9.3762411844
 11
10.0148172082
 21
9.3731789131
  0
LINE
  5
307
100
AcDbEntity
  8
0
100
AcDbLine
 62
4
  6
CONTINUOUS
 10
11.1702485067
 20
9.2930494804
 11
11.1739282103
 21
9.2927942921
  0
LINE
  5
308
100
AcDbEntity
  8
0
100
AcDbLine
 62
4
  6
CONTINUOUS
 10
11.3836721223
 20
9.175216412
 11
11.3395155325
 21
9.1856381166
  0
LINE
  5
309
100
AcDbEntity
  8
0
100
AcDbLine
 62
4
  6
CONTINUOUS
 10
11.3395155325
 20
9.1856381166
 11
11.3284764219
 21
9.1937631162
  0
LINE
  5
30A
100
AcDbEntity
  8
0
100
AcDbLine
 62
4
  6
CONTINUOUS
 10
11.3947112328
 20
9.1670914124
 11
11.3836721223
 21
9.175216412
  0
LINE
  5
30B
100
AcDbEntity
  8
0
100
AcDbLine
 62
4
  6
CONTINUOUS
 10
11.3836721223
 20
9.2340918942
 11
11.3947112328
 21
9.2222871726
  0
LINE
  5
30C
100
AcDbEntity
  8
0
100
AcDbLine
 62
7
  6
CONTINUOUS
 10
12.2461060213
 20
5.6638313508
 11
12.2461060213
 21
10.4934607684
  0
LINE
  5
30D
100
AcDbEntity
  8
0
100
AcDbLine
 62
7
  6
CONTINUOUS
 10
12.8931531001
 20
6.2888308721
 11
12.8931531001
 21
11.1184602897
  0
LINE
  5
30E
100
AcDbEntity
  8
0
100
AcDbLine
 62
7
  6
CONTINUOUS
 10
9.1068468999
 20
10.7111691279
 11
12.2461060213
 21
10.4934607684
  0
LINE
  5
30F
100
AcDbEntity
  8
0
100
AcDbLine
 62
7
  6
CONTINUOUS
 10
12.8931531001
 20
11.1184602897
 11
9.7538939787
 21
11.3361686492
  0
LINE
  5
310
100
AcDbEntity
  8
0
100
AcDbLine
 62
7
  6
CONTINUOUS
 10
12.2461060213
 20
5.6638313508
 11
12.8931531001
 21
6.2888308721
  0
SPLINE
  5
311
100
AcDbEntity
  8
0
100
AcDbSpline
 62
7
  6
CONTINUOUS
 70
0
 71
3
 72
56
 73
52
 74
0
 42
0.0000001
 43
0.0000001
 44
0.0000000001
 40
0.0
 40
0.0
 40
0.0
 40
0.0
 40
0.0481977058
 40
0.0958289885
 40
0.1428186952
 40
0.1890963195
 40
0.2345910165
 40
0.2792342655
 40
0.3229592676
 40
0.3657012817
 40
0.4073978158
 40
0.4479888079
 40
0.4874168585
 40
0.5256274838
 40
0.5625693802
 40
0.5981947088
 40
0.632459435
 40
0.6490692327
 40
0.6653243443
 40
0.6812204804
 40
0.6967537637
 40
0.7119206216
 40
0.7267178378
 40
0.7411426601
 40
0.7551926649
 40
0.7688659803
 40
0.7821611736
 40
0.7950773442
 40
0.8076142342
 40
0.8197721262
 40
0.8315520987
 40
0.8429559316
 40
0.8539862584
 40
0.8646466974
 40
0.8749418154
 40
0.8848774314
 40
0.894460579
 40
0.9036997413
 40
0.9126050283
 40
0.9211882418
 40
0.9294632239
 40
0.9374458933
 40
0.9451545241
 40
0.9526099065
 40
0.9598354085
 40
0.9668571612
 40
0.9737039322
 40
0.9804070692
 40
0.9870002182
 40
0.9935188987
 40
1.0
 40
1.0
 40
1.0
 40
1.0
 10
11.1393791924
 20
10.6744446784
 30
0.0
 10
11.1280999151
 20
10.6752268989
 30
0.0
 10
11.1056824259
 20
10.6769080596
 30
0.0
 10
11.0723037811
 20
10.6797987498
 30
0.0
 10
11.0394098467
 20
10.6830399973
 30
0.0
 10
11.007055943
 20
10.6866262703
 30
0.0
 10
10.9752959323
 20
10.6905516051
 30
0.0
 10
10.9441830055
 20
10.6948093846
 30
0.0
 10
10.9137691406
 20
10.6993924584
 30
0.0
 10
10.8841051663
 20
10.7042931194
 30
0.0
 10
10.8552406443
 20
10.709503128
 30
0.0
 10
10.8272237905
 20
10.7150137258
 30
0.0
 10
10.8001013869
 20
10.7208156507
 30
0.0
 10
10.7739187079
 20
10.7268991444
 30
0.0
 10
10.7487193857
 20
10.7332539694
 30
0.0
 10
10.7245455304
 20
10.7398694458
 30
0.0
 10
10.7050924685
 20
10.7456484713
 30
0.0
 10
10.6900789079
 20
10.7504009939
 30
0.0
 10
10.6792165875
 20
10.7539866274
 30
0.0
 10
10.6686398774
 20
10.7576289617
 30
0.0
 10
10.6583531745
 20
10.7613264562
 30
0.0
 10
10.6483607723
 20
10.7650775651
 30
0.0
 10
10.638666843
 20
10.7688807471
 30
0.0
 10
10.6292754146
 20
10.7727343631
 30
0.0
 10
10.6201904129
 20
10.77663686
 30
0.0
 10
10.6114156077
 20
10.7805865665
 30
0.0
 10
10.6029546509
 20
10.784581849
 30
0.0
 10
10.5948110673
 20
10.7886210671
 30
0.0
 10
10.5869882191
 20
10.7927024912
 30
0.0
 10
10.5794893743
 20
10.7968244916
 30
0.0
 10
10.5723176185
 20
10.8009853116
 30
0.0
 10
10.5654759253
 20
10.8051832571
 30
0.0
 10
10.5589671325
 20
10.8094166224
 30
0.0
 10
10.5527938977
 20
10.8136836258
 30
0.0
 10
10.546958805
 20
10.8179826031
 30
0.0
 10
10.5414642238
 20
10.8223117592
 30
0.0
 10
10.5363124368
 20
10.8266693932
 30
0.0
 10
10.5315055862
 20
10.8310537893
 30
0.0
 10
10.527045629
 20
10.8354631796
 30
0.0
 10
10.5229344995
 20
10.8398959247
 30
0.0
 10
10.5191738901
 20
10.8443502568
 30
0.0
 10
10.5157654791
 20
10.8488245197
 30
0.0
 10
10.512710819
 20
10.8533170168
 30
0.0
 10
10.5100113072
 20
10.8578260017
 30
0.0
 10
10.5076684048
 20
10.8623497903
 30
0.0
 10
10.5056832993
 20
10.8668865256
 30
0.0
 10
10.5040572422
 20
10.8714343706
 30
0.0
 10
10.5027912945
 20
10.8759912954
 30
0.0
 10
10.5018863023
 20
10.880555276
 30
0.0
 10
10.501343076
 20
10.8851237146
 30
0.0
 10
10.501222205
 20
10.8881746039
 30
0.0
 10
10.5012222109
 20
10.8896949609
 30
0.0
  0
SPLINE
  5
312
100
AcDbEntity
  8
0
100
AcDbSpline
 62
7
  6
CONTINUOUS
 70
0
 71
3
 72
39
 73
35
 74
0
 42
0.0000001
 43
0.0000001
 44
0.0000000001
 40
0.0
 40
0.0
 40
0.0
 40
0.0
 40
0.0311450131
 40
0.0624431066
 40
0.0938883521
 40
0.125470989
 40
0.1571788878
 40
0.1889972629
 40
0.2209091776
 40
0.2528958459
 40
0.2849370256
 40
0.3170114169
 40
0.3490970777
 40
0.381171849
 40
0.4132137816
 40
0.4452015608
 40
0.4771149225
 40
0.5089350543
 40
0.5406449763
 40
0.5722298954
 40
0.6036775251
 40
0.634978366
 40
0.666125938
 40
0.697116959
 40
0.7279514619
 40
0.7586328441
 40
0.7891678445
 40
0.8195664435
 40
0.8498416841
 40
0.8800094158
 40
0.9100879619
 40
0.9400977188
 40
0.9700606946
 40
1.0
 40
1.0
 40
1.0
 40
1.0
 10
9.6496972239
 20
10.4619845616
 30
0.0
 10
9.656325172
 20
10.4615249119
 30
0.0
 10
9.6695849329
 20
10.4601182163
 30
0.0
 10
9.6893138211
 20
10.4565746969
 30
0.0
 10
9.7088313965
 20
10.4516113007
 30
0.0
 10
9.7280322451
 20
10.445254694
 30
0.0
 10
9.7468143599
 20
10.4375389714
 30
0.0
 10
9.7650775542
 20
10.4285053904
 30
0.0
 10
9.7827245368
 20
10.4182022339
 30
0.0
 10
9.7996612742
 20
10.4066845099
 30
0.0
 10
9.8157975272
 20
10.3940136769
 30
0.0
 10
9.8310473142
 20
10.3802573125
 30
0.0
 10
9.8453293675
 20
10.3654887575
 30
0.0
 10
9.8585675615
 20
10.3497867293
 30
0.0
 10
9.8706913175
 20
10.3332349076
 30
0.0
 10
9.8816359732
 20
10.3159214902
 30
0.0
 10
9.8913431251
 20
10.2979387285
 30
0.0
 10
9.899760938
 20
10.2793824419
 30
0.0
 10
9.9068444202
 20
10.2603515135
 30
0.0
 10
9.9125556633
 20
10.2409473702
 30
0.0
 10
9.9168640463
 20
10.2212734493
 30
0.0
 10
9.9197464018
 20
10.201434655
 30
0.0
 10
9.9211871444
 20
10.1815368065
 30
0.0
 10
9.9211783606
 20
10.1616860804
 30
0.0
 10
9.9197198633
 20
10.1419884505
 30
0.0
 10
9.9168192026
 20
10.122549125
 30
0.0
 10
9.9124916357
 20
10.103471988
 30
0.0
 10
9.9067600568
 20
10.0848590414
 30
0.0
 10
9.8996548976
 20
10.0668098651
 30
0.0
 10
9.8912139421
 20
10.049421043
 30
0.0
 10
9.881482265
 20
10.0327857615
 30
0.0
 10
9.8705115171
 20
10.0169928328
 30
0.0
 10
9.8583614419
 20
10.0021279299
 30
0.0
 10
9.8495145765
 20
9.9928858837
 30
0.0
 10
9.8449209372
 20
9.9884487707
 30
0.0
  0
SPLINE
  5
313
100
AcDbEntity
  8
0
100
AcDbSpline
 62
7
  6
CONTINUOUS
 70
0
 71
3
 72
39
 73
35
 74
0
 42
0.0000001
 43
0.0000001
 44
0.0000000001
 40
0.0
 40
0.0
 40
0.0
 40
0.0
 40
0.0311450131
 40
0.0624431066
 40
0.0938883521
 40
0.125470989
 40
0.1571788878
 40
0.1889972629
 40
0.2209091776
 40
0.2528958459
 40
0.2849370256
 40
0.3170114169
 40
0.3490970777
 40
0.381171849
 40
0.4132137816
 40
0.4452015608
 40
0.4771149225
 40
0.5089350543
 40
0.5406449763
 40
0.5722298954
 40
0.6036775251
 40
0.634978366
 40
0.666125938
 40
0.697116959
 40
0.7279514619
 40
0.7586328441
 40
0.7891678445
 40
0.8195664435
 40
0.8498416841
 40
0.8800094158
 40
0.9100879619
 40
0.9400977188
 40
0.9700606946
 40
1.0
 40
1.0
 40
1.0
 40
1.0
 10
9.6496972239
 20
6.5982810275
 30
0.0
 10
9.656325172
 20
6.5978213778
 30
0.0
 10
9.6695849329
 20
6.5964146822
 30
0.0
 10
9.6893138211
 20
6.5928711628
 30
0.0
 10
9.7088313965
 20
6.5879077666
 30
0.0
 10
9.7280322451
 20
6.58155116
 30
0.0
 10
9.7468143599
 20
6.5738354373
 30
0.0
 10
9.7650775542
 20
6.5648018563
 30
0.0
 10
9.7827245368
 20
6.5544986998
 30
0.0
 10
9.7996612742
 20
6.5429809758
 30
0.0
 10
9.8157975272
 20
6.5303101428
 30
0.0
 10
9.8310473142
 20
6.5165537784
 30
0.0
 10
9.8453293675
 20
6.5017852234
 30
0.0
 10
9.8585675615
 20
6.4860831952
 30
0.0
 10
9.8706913175
 20
6.4695313735
 30
0.0
 10
9.8816359732
 20
6.4522179561
 30
0.0
 10
9.8913431251
 20
6.4342351944
 30
0.0
 10
9.899760938
 20
6.4156789078
 30
0.0
 10
9.9068444202
 20
6.3966479794
 30
0.0
 10
9.9125556633
 20
6.3772438361
 30
0.0
 10
9.9168640463
 20
6.3575699152
 30
0.0
 10
9.9197464018
 20
6.3377311209
 30
0.0
 10
9.9211871444
 20
6.3178332724
 30
0.0
 10
9.9211783606
 20
6.2979825463
 30
0.0
 10
9.9197198633
 20
6.2782849164
 30
0.0
 10
9.9168192026
 20
6.2588455909
 30
0.0
 10
9.9124916357
 20
6.2397684539
 30
0.0
 10
9.9067600568
 20
6.2211555074
 30
0.0
 10
9.8996548976
 20
6.203106331
 30
0.0
 10
9.8912139421
 20
6.1857175089
 30
0.0
 10
9.881482265
 20
6.1690822274
 30
0.0
 10
9.8705115171
 20
6.1532892987
 30
0.0
 10
9.8583614419
 20
6.1384243958
 30
0.0
 10
9.8495145765
 20
6.1291823496
 30
0.0
 10
9.8449209372
 20
6.1247452366
 30
0.0
  0
SPLINE
  5
314
100
AcDbEntity
  8
0
100
AcDbSpline
 62
7
  6
CONTINUOUS
 70
0
 71
3
 72
62
 73
58
 74
0
 42
0.0000001
 43
0.0000001
 44
0.0000000001
 40
0.0
 40
0.0
 40
0.0
 40
0.0
 40
0.00277584
 40
0.0055595888
 40
0.0083590779
 40
0.0111819963
 40
0.0140358299
 40
0.0169277921
 40
0.0198647836
 40
0.0228533663
 40
0.0290080918
 40
0.0354384402
 40
0.0421828337
 40
0.0492736298
 40
0.0567376178
 40
0.0645966712
 40
0.0728682823
 40
0.0815662586
 40
0.0907011188
 40
0.1002806559
 40
0.1103102397
 40
0.1207931709
 40
0.131730969
 40
0.1431235248
 40
0.1549693962
 40
0.1672658309
 40
0.1800090282
 40
0.1931941398
 40
0.206815431
 40
0.2208663415
 40
0.2353395202
 40
0.2502269628
 40
0.2655199529
 40
0.2812092303
 40
0.2972849176
 40
0.3137366433
 40
0.3305535274
 40
0.3477242144
 40
0.3652369404
 40
0.3830794856
 40
0.4012392913
 40
0.4197033862
 40
0.4384584927
 40
0.4574909872
 40
0.4963317865
 40
0.5361115526
 40
0.5767116663
 40
0.6180101162
 40
0.6598820458
 40
0.7022002896
 40
0.7448359001
 40
0.7876586703
 40
0.8305376615
 40
0.8733416839
 40
0.9159399599
 40
0.9582021509
 40
1.0
 40
1.0
 40
1.0
 40
1.0
 10
12.2232222018
 20
10.889694066
 30
0.0
 10
12.2232221976
 20
10.8886302042
 30
0.0
 10
12.2231631558
 20
10.8864989813
 30
0.0
 10
12.2228976468
 20
10.8833047797
 30
0.0
 10
12.2224552718
 20
10.8801119463
 30
0.0
 10
12.2218361564
 20
10.8769213313
 30
0.0
 10
12.2210404318
 20
10.8737336166
 30
0.0
 10
12.2200683684
 20
10.8705495182
 30
0.0
 10
12.2189202127
 20
10.867369646
 30
0.0
 10
12.2171377165
 20
10.8630950063
 30
0.0
 10
12.2144517969
 20
10.8577547524
 30
0.0
 10
12.2105611808
 20
10.8514409922
 30
0.0
 10
12.2059758797
 20
10.8451629518
 30
0.0
 10
12.2007005779
 20
10.8389253253
 30
0.0
 10
12.194739962
 20
10.8327321524
 30
0.0
 10
12.1880989976
 20
10.8265878298
 30
0.0
 10
12.1807831378
 20
10.8204966642
 30
0.0
 10
12.17279818
 20
10.8144632392
 30
0.0
 10
12.1641505311
 20
10.8084920489
 30
0.0
 10
12.1548470507
 20
10.8025877626
 30
0.0
 10
12.144895184
 20
10.7967549976
 30
0.0
 10
12.1343029108
 20
10.7909983828
 30
0.0
 10
12.1230787387
 20
10.7853225773
 30
0.0
 10
12.111231745
 20
10.7797321069
 30
0.0
 10
12.0987714955
 20
10.7742315813
 30
0.0
 10
12.0857081158
 20
10.7688254141
 30
0.0
 10
12.0720522082
 20
10.7635180776
 30
0.0
 10
12.0578148958
 20
10.7583138817
 30
0.0
 10
12.0430077793
 20
10.7532171012
 30
0.0
 10
12.0276429364
 20
10.7482319339
 30
0.0
 10
12.0117329174
 20
10.7433624351
 30
0.0
 10
11.9952907154
 20
10.7386126566
 30
0.0
 10
11.9783297783
 20
10.7339864437
 30
0.0
 10
11.9608639736
 20
10.729487651
 30
0.0
 10
11.9429075949
 20
10.7251199363
 30
0.0
 10
11.9244753375
 20
10.7208869108
 30
0.0
 10
11.9055822912
 20
10.7167920537
 30
0.0
 10
11.8862439268
 20
10.7128387109
 30
0.0
 10
11.8664760808
 20
10.7090301681
 30
0.0
 10
11.8462949462
 20
10.7053695098
 30
0.0
 10
11.8257170537
 20
10.7018597915
 30
0.0
 10
11.8047592671
 20
10.6985038596
 30
0.0
 10
11.783438741
 20
10.6953044855
 30
0.0
 10
11.7543548862
 20
10.6912234314
 30
0.0
 10
11.7172203709
 20
10.6865413318
 30
0.0
 10
11.671791388
 20
10.6816233391
 30
0.0
 10
11.6253480958
 20
10.6773849965
 30
0.0
 10
11.5780427263
 20
10.6738402874
 30
0.0
 10
11.5300302069
 20
10.671000926
 30
0.0
 10
11.4814678438
 20
10.6688762881
 30
0.0
 10
11.4325147474
 20
10.6674733882
 30
0.0
 10
11.3833313195
 20
10.6667968553
 30
0.0
 10
11.3340787257
 20
10.6668489244
 30
0.0
 10
11.2849183388
 20
10.6676294165
 30
0.0
 10
11.2360112819
 20
10.6691357706
 30
0.0
 10
11.1875178584
 20
10.6713629833
 30
0.0
 10
11.1553601525
 20
10.673336395
 30
0.0
 10
11.1393791924
 20
10.6744446784
 30
0.0
  0
SPLINE
  5
315
100
AcDbEntity
  8
0
100
AcDbSpline
 62
7
  6
CONTINUOUS
 70
0
 71
3
 72
24
 73
20
 74
0
 42
0.0000001
 43
0.0000001
 44
0.0000000001
 40
0.0
 40
0.0
 40
0.0
 40
0.0
 40
0.0616478706
 40
0.1233187642
 40
0.1850354537
 40
0.2468202027
 40
0.2777476115
 40
0.3087000191
 40
0.3706843911
 40
0.4327981273
 40
0.4950591117
 40
0.5574836205
 40
0.6200861788
 40
0.6828793229
 40
0.7458737558
 40
0.8090780333
 40
0.8724972678
 40
0.936139378
 40
1.0
 40
1.0
 40
1.0
 40
1.0
 10
9.4544735106
 20
10.392670006
 30
0.0
 10
9.4576269086
 20
10.3957159533
 30
0.0
 10
9.4641001031
 20
10.4016405555
 30
0.0
 10
9.4742754868
 20
10.4099945047
 30
0.0
 10
9.4848925588
 20
10.4177961852
 30
0.0
 10
9.4940831893
 20
10.4238190845
 30
0.0
 10
9.5016271746
 20
10.428341439
 30
0.0
 10
9.5093014774
 20
10.4326679214
 30
0.0
 10
9.5191208641
 20
10.4376974048
 30
0.0
 10
9.531226479
 20
10.4431074118
 30
0.0
 10
9.5436303052
 20
10.4478817214
 30
0.0
 10
9.5563008947
 20
10.4520081946
 30
0.0
 10
9.5692063711
 20
10.4554765263
 30
0.0
 10
9.5823142132
 20
10.4582780299
 30
0.0
 10
9.5955914411
 20
10.4604056733
 30
0.0
 10
9.6090045286
 20
10.4618540727
 30
0.0
 10
9.6225200141
 20
10.4626197649
 30
0.0
 10
9.6361031994
 20
10.4627006779
 30
0.0
 10
9.6451664826
 20
10.4622987696
 30
0.0
 10
9.6496972239
 20
10.4619845616
 30
0.0
  0
SPLINE
  5
316
100
AcDbEntity
  8
0
100
AcDbSpline
 62
7
  6
CONTINUOUS
 70
0
 71
3
 72
24
 73
20
 74
0
 42
0.0000001
 43
0.0000001
 44
0.0000000001
 40
0.0
 40
0.0
 40
0.0
 40
0.0
 40
0.0616478706
 40
0.1233187642
 40
0.1850354537
 40
0.2468202027
 40
0.2777476115
 40
0.3087000191
 40
0.3706843911
 40
0.4327981273
 40
0.4950591117
 40
0.5574836205
 40
0.6200861788
 40
0.6828793229
 40
0.7458737558
 40
0.8090780333
 40
0.8724972678
 40
0.936139378
 40
1.0
 40
1.0
 40
1.0
 40
1.0
 10
9.4544735106
 20
6.5289664719
 30
0.0
 10
9.4576269086
 20
6.5320124192
 30
0.0
 10
9.4641001031
 20
6.5379370214
 30
0.0
 10
9.4742754868
 20
6.5462909707
 30
0.0
 10
9.4848925588
 20
6.5540926511
 30
0.0
 10
9.4940831893
 20
6.5601155504
 30
0.0
 10
9.5016271746
 20
6.564637905
 30
0.0
 10
9.5093014774
 20
6.5689643873
 30
0.0
 10
9.5191208641
 20
6.5739938708
 30
0.0
 10
9.531226479
 20
6.5794038777
 30
0.0
 10
9.5436303052
 20
6.5841781873
 30
0.0
 10
9.5563008947
 20
6.5883046605
 30
0.0
 10
9.5692063711
 20
6.5917729922
 30
0.0
 10
9.5823142132
 20
6.5945744958
 30
0.0
 10
9.5955914411
 20
6.5967021392
 30
0.0
 10
9.6090045286
 20
6.5981505386
 30
0.0
 10
9.6225200141
 20
6.5989162308
 30
0.0
 10
9.6361031994
 20
6.5989971438
 30
0.0
 10
9.6451664826
 20
6.5985952355
 30
0.0
 10
9.6496972239
 20
6.5982810275
 30
0.0
  0
SPLINE
  5
317
100
AcDbEntity
  8
0
100
AcDbSpline
 62
7
  6
CONTINUOUS
 70
0
 71
3
 72
45
 73
41
 74
0
 42
0.0000001
 43
0.0000001
 44
0.0000000001
 40
0.0
 40
0.0
 40
0.0
 40
0.0
 40
0.0081846927
 40
0.016609588
 40
0.0252793354
 40
0.034198012
 40
0.0433690953
 40
0.052795482
 40
0.0624796378
 40
0.0724235834
 40
0.0826288574
 40
0.093096667
 40
0.1038278944
 40
0.1148230174
 40
0.1376048596
 40
0.1614414318
 40
0.1863272378
 40
0.2122532318
 40
0.2392073925
 40
0.2671748937
 40
0.2961384133
 40
0.3260784627
 40
0.3569734037
 40
0.3887997594
 40
0.4215323399
 40
0.4551442616
 40
0.4896072233
 40
0.5248914941
 40
0.560966014
 40
0.5977985767
 40
0.6353557693
 40
0.6736031513
 40
0.7125053223
 40
0.752025864
 40
0.7921276224
 40
0.832772691
 40
0.8739219558
 40
0.9155362004
 40
0.9575769715
 40
1.0
 40
1.0
 40
1.0
 40
1.0
 10
12.1915128576
 20
10.8298394852
 30
0.0
 10
12.1902444484
 20
10.8310154364
 30
0.0
 10
12.1876325224
 20
10.8333612851
 30
0.0
 10
12.1835542147
 20
10.8368129957
 30
0.0
 10
12.1792605687
 20
10.8402470917
 30
0.0
 10
12.1747527307
 20
10.8436626254
 30
0.0
 10
12.1700318547
 20
10.8470587294
 30
0.0
 10
12.1650991962
 20
10.8504345578
 30
0.0
 10
12.1599560223
 20
10.8537892244
 30
0.0
 10
12.1546036599
 20
10.8571218428
 30
0.0
 10
12.1490435244
 20
10.8604315832
 30
0.0
 10
12.1432770598
 20
10.8637175734
 30
0.0
 10
12.1373057439
 20
10.8669789489
 30
0.0
 10
12.1289742771
 20
10.8713451877
 30
0.0
 10
12.1180511274
 20
10.8767283679
 30
0.0
 10
12.1043021124
 20
10.8830023458
 30
0.0
 10
12.0897753863
 20
10.8891580647
 30
0.0
 10
12.0744861606
 20
10.8951891188
 30
0.0
 10
12.0584502766
 20
10.9010891628
 30
0.0
 10
12.0416844487
 20
10.9068520151
 30
0.0
 10
12.0242061646
 20
10.9124716459
 30
0.0
 10
12.0060336673
 20
10.9179421036
 30
0.0
 10
11.9871859582
 20
10.9232576661
 30
0.0
 10
11.9676827511
 20
10.9284127334
 30
0.0
 10
11.9475444544
 20
10.9334018522
 30
0.0
 10
11.9267921612
 20
10.9382198071
 30
0.0
 10
11.9054476076
 20
10.9428614982
 30
0.0
 10
11.8835331599
 20
10.9473220376
 30
0.0
 10
11.8610717899
 20
10.9515967536
 30
0.0
 10
11.8380870425
 20
10.9556811106
 30
0.0
 10
11.8146030198
 20
10.9595708314
 30
0.0
 10
11.7906443484
 20
10.9632618247
 30
0.0
 10
11.7662361586
 20
10.9667501767
 30
0.0
 10
11.7414040528
 20
10.9700322507
 30
0.0
 10
11.7161740587
 20
10.9731045765
 30
0.0
 10
11.6905726901
 20
10.9759639012
 30
0.0
 10
11.6646268318
 20
10.9786072559
 30
0.0
 10
11.6383634045
 20
10.9810318536
 30
0.0
 10
11.6118103976
 20
10.9832350831
 30
0.0
 10
11.5940089391
 20
10.984549292
 30
0.0
 10
11.5850652202
 20
10.985169541
 30
0.0
  0
SPLINE
  5
318
100
AcDbEntity
  8
0
100
AcDbSpline
 62
7
  6
CONTINUOUS
 70
0
 71
3
 72
46
 73
42
 74
0
 42
0.0000001
 43
0.0000001
 44
0.0000000001
 40
0.0
 40
0.0
 40
0.0
 40
0.0
 40
0.0076643348
 40
0.0155663937
 40
0.0237139584
 40
0.0321139163
 40
0.0407722263
 40
0.0496940309
 40
0.0588838033
 40
0.0683452931
 40
0.078081617
 40
0.0880953982
 40
0.0983886955
 40
0.1089630708
 40
0.1198197219
 40
0.130959401
 40
0.1540881786
 40
0.1783494765
 40
0.2037376409
 40
0.2302428354
 40
0.25785165
 40
0.2865473793
 40
0.3163103825
 40
0.3471184602
 40
0.3789469623
 40
0.4117690355
 40
0.4455558748
 40
0.4802767528
 40
0.5158992166
 40
0.5523892652
 40
0.5897113474
 40
0.6278285319
 40
0.6667026408
 40
0.7062942465
 40
0.7465627921
 40
0.7874667377
 40
0.8289636623
 40
0.8710098898
 40
0.9135611586
 40
0.9565742334
 40
1.0
 40
1.0
 40
1.0
 40
1.0
 10
12.1766862652
 20
10.817554532
 30
0.0
 10
12.1756285834
 20
10.8187659549
 30
0.0
 10
12.1734313662
 20
10.8211839395
 30
0.0
 10
12.169951182
 20
10.8247415874
 30
0.0
 10
12.1662383355
 20
10.8282832516
 30
0.0
 10
12.1622939283
 20
10.8318078439
 30
0.0
 10
12.1581190885
 20
10.8353144271
 30
0.0
 10
12.1537150328
 20
10.8388020426
 30
0.0
 10
12.1490829877
 20
10.8422696811
 30
0.0
 10
12.1442242869
 20
10.8457163805
 30
0.0
 10
12.1391403329
 20
10.8491411926
 30
0.0
 10
12.1338325536
 20
10.8525431132
 30
0.0
 10
12.1283024722
 20
10.8559211869
 30
0.0
 10
12.1225516867
 20
10.8592744711
 30
0.0
 10
12.1165818132
 20
10.8626019973
 30
0.0
 10
12.1082274266
 20
10.8670588826
 30
0.0
 10
12.0972399529
 20
10.8725509098
 30
0.0
 10
12.0833691433
 20
10.8789435061
 30
0.0
 10
12.0686680686
 20
10.885210888
 30
0.0
 10
12.0531536183
 20
10.8913458658
 30
0.0
 10
12.0368434361
 20
10.8973413653
 30
0.0
 10
12.0197561863
 20
10.9031904793
 30
0.0
 10
12.0019114429
 20
10.9088864779
 30
0.0
 10
11.9833296648
 20
10.9144227486
 30
0.0
 10
11.9640321893
 20
10.9197928988
 30
0.0
 10
11.9440411953
 20
10.9249907328
 30
0.0
 10
11.9233796631
 20
10.9300102072
 30
0.0
 10
11.9020713657
 20
10.9348455256
 30
0.0
 10
11.8801408304
 20
10.9394911049
 30
0.0
 10
11.8576133011
 20
10.9439415416
 30
0.0
 10
11.8345147242
 20
10.9481917005
 30
0.0
 10
11.8108717084
 20
10.952236673
 30
0.0
 10
11.7867114873
 20
10.9560717538
 30
0.0
 10
11.7620619042
 20
10.9596925216
 30
0.0
 10
11.7369513693
 20
10.963094795
 30
0.0
 10
11.711408799
 20
10.9662746189
 30
0.0
 10
11.6854636654
 20
10.9692283215
 30
0.0
 10
11.6591459258
 20
10.9719524977
 30
0.0
 10
11.6324856196
 20
10.9744440081
 30
0.0
 10
11.6055138975
 20
10.9766999094
 30
0.0
 10
11.5874259597
 20
10.9780391503
 30
0.0
 10
11.5783359306
 20
10.978669546
 30
0.0
  0
SPLINE
  5
319
100
AcDbEntity
  8
0
100
AcDbSpline
 62
7
  6
CONTINUOUS
 70
0
 71
3
 72
41
 73
37
 74
0
 42
0.0000001
 43
0.0000001
 44
0.0000000001
 40
0.0
 40
0.0
 40
0.0
 40
0.0
 40
0.0083884167
 40
0.0170157877
 40
0.0258859002
 40
0.0350019722
 40
0.0443667842
 40
0.05398266
 40
0.0638514384
 40
0.0739746197
 40
0.0949876622
 40
0.117027917
 40
0.14009608
 40
0.1641888325
 40
0.1892993272
 40
0.2154177386
 40
0.2425313688
 40
0.2706251323
 40
0.2996816951
 40
0.3296816204
 40
0.3606037077
 40
0.3924249277
 40
0.4251207138
 40
0.4586650328
 40
0.4930303996
 40
0.5281881401
 40
0.5641082985
 40
0.6007598243
 40
0.6381106456
 40
0.6761276448
 40
0.7147768538
 40
0.7540233695
 40
0.7938316001
 40
0.8341652345
 40
0.9162579797
 40
1.0
 40
1.0
 40
1.0
 40
1.0
 10
12.1419843922
 20
10.7952449614
 30
0.0
 10
12.1407282974
 20
10.7963301778
 30
0.0
 10
12.1381482783
 20
10.7984946802
 30
0.0
 10
12.1341359386
 20
10.8016800697
 30
0.0
 10
12.1299284672
 20
10.804848482
 30
0.0
 10
12.1255269826
 20
10.8079991199
 30
0.0
 10
12.1209325596
 20
10.8111311969
 30
0.0
 10
12.1161463458
 20
10.8142439104
 30
0.0
 10
12.1111695551
 20
10.8173365351
 30
0.0
 10
12.1041945627
 20
10.8214837571
 30
0.0
 10
12.0949992904
 20
10.826605379
 30
0.0
 10
12.0833583168
 20
10.832584574
 30
0.0
 10
12.0709889942
 20
10.8384651136
 30
0.0
 10
12.0579037834
 20
10.8442410805
 30
0.0
 10
12.0441157166
 20
10.8499067225
 30
0.0
 10
12.0296385934
 20
10.8554562711
 30
0.0
 10
12.0144869464
 20
10.8608841712
 30
0.0
 10
11.9986759957
 20
10.8661849069
 30
0.0
 10
11.9822216471
 20
10.8713530964
 30
0.0
 10
11.9651404794
 20
10.8763835386
 30
0.0
 10
11.9474497032
 20
10.881271082
 30
0.0
 10
11.9291671687
 20
10.886010804
 30
0.0
 10
11.9103113259
 20
10.890597885
 30
0.0
 10
11.8909012105
 20
10.8950276484
 30
0.0
 10
11.8709564302
 20
10.8992956376
 30
0.0
 10
11.8504971321
 20
10.9033974796
 30
0.0
 10
11.8295439926
 20
10.9073290359
 30
0.0
 10
11.8081181902
 20
10.9110863183
 30
0.0
 10
11.7862413807
 20
10.9146654874
 30
0.0
 10
11.7639356832
 20
10.9180629492
 30
0.0
 10
11.7412236548
 20
10.9212752233
 30
0.0
 10
11.7181282605
 20
10.9242990641
 30
0.0
 10
11.6946728216
 20
10.9271314296
 30
0.0
 10
11.6627637682
 20
10.9306693674
 30
0.0
 10
11.6221514514
 20
10.9345842398
 30
0.0
 10
11.5894325043
 20
10.9371393811
 30
0.0
 10
11.5729007352
 20
10.9382858632
 30
0.0
  0
SPLINE
  5
31A
100
AcDbEntity
  8
0
100
AcDbSpline
 62
7
  6
CONTINUOUS
 70
0
 71
3
 72
39
 73
35
 74
0
 42
0.0000001
 43
0.0000001
 44
0.0000000001
 40
0.0
 40
0.0
 40
0.0
 40
0.0
 40
0.0311450131
 40
0.0624431066
 40
0.0938883521
 40
0.125470989
 40
0.1571788878
 40
0.1889972629
 40
0.2209091776
 40
0.2528958459
 40
0.2849370256
 40
0.3170114169
 40
0.3490970777
 40
0.381171849
 40
0.4132137816
 40
0.4452015608
 40
0.4771149225
 40
0.5089350543
 40
0.5406449763
 40
0.5722298954
 40
0.6036775251
 40
0.634978366
 40
0.666125938
 40
0.697116959
 40
0.7279514619
 40
0.7586328441
 40
0.7891678445
 40
0.8195664435
 40
0.8498416841
 40
0.8800094158
 40
0.9100879619
 40
0.9400977188
 40
0.9700606946
 40
1.0
 40
1.0
 40
1.0
 40
1.0
 10
9.6496972239
 20
6.055430681
 30
0.0
 10
9.6430692757
 20
6.0558903308
 30
0.0
 10
9.6298095148
 20
6.0572970263
 30
0.0
 10
9.6100806266
 20
6.0608405457
 30
0.0
 10
9.5905630513
 20
6.0658039419
 30
0.0
 10
9.5713622026
 20
6.0721605486
 30
0.0
 10
9.5525800879
 20
6.0798762712
 30
0.0
 10
9.5343168935
 20
6.0889098522
 30
0.0
 10
9.5166699109
 20
6.0992130088
 30
0.0
 10
9.4997331735
 20
6.1107307328
 30
0.0
 10
9.4835969205
 20
6.1234015657
 30
0.0
 10
9.4683471335
 20
6.1371579301
 30
0.0
 10
9.4540650803
 20
6.1519264851
 30
0.0
 10
9.4408268863
 20
6.1676285133
 30
0.0
 10
9.4287031303
 20
6.184180335
 30
0.0
 10
9.4177584746
 20
6.2014937524
 30
0.0
 10
9.4080513226
 20
6.2194765141
 30
0.0
 10
9.3996335097
 20
6.2380328007
 30
0.0
 10
9.3925500276
 20
6.2570637291
 30
0.0
 10
9.3868387844
 20
6.2764678724
 30
0.0
 10
9.3825304014
 20
6.2961417933
 30
0.0
 10
9.379648046
 20
6.3159805876
 30
0.0
 10
9.3782073033
 20
6.3358784361
 30
0.0
 10
9.3782160871
 20
6.3557291622
 30
0.0
 10
9.3796745844
 20
6.3754267921
 30
0.0
 10
9.3825752451
 20
6.3948661177
 30
0.0
 10
9.386902812
 20
6.4139432546
 30
0.0
 10
9.3926343909
 20
6.4325562012
 30
0.0
 10
9.3997395501
 20
6.4506053775
 30
0.0
 10
9.4081805056
 20
6.4679941996
 30
0.0
 10
9.4179121828
 20
6.4846294811
 30
0.0
 10
9.4288829306
 20
6.5004224098
 30
0.0
 10
9.4410330058
 20
6.5152873127
 30
0.0
 10
9.4498798712
 20
6.5245293589
 30
0.0
 10
9.4544735106
 20
6.5289664719
 30
0.0
  0
SPLINE
  5
31B
100
AcDbEntity
  8
0
100
AcDbSpline
 62
7
  6
CONTINUOUS
 70
0
 71
3
 72
56
 73
52
 74
0
 42
0.0000001
 43
0.0000001
 44
0.0000000001
 40
0.0
 40
0.0
 40
0.0
 40
0.0
 40
0.0481977058
 40
0.0958289885
 40
0.1428186952
 40
0.1890963195
 40
0.2345910165
 40
0.2792342655
 40
0.3229592676
 40
0.3657012817
 40
0.4073978158
 40
0.4479888079
 40
0.4874168585
 40
0.5256274838
 40
0.5625693802
 40
0.5981947088
 40
0.632459435
 40
0.6490692327
 40
0.6653243443
 40
0.6812204804
 40
0.6967537637
 40
0.7119206216
 40
0.7267178378
 40
0.7411426601
 40
0.7551926649
 40
0.7688659803
 40
0.7821611736
 40
0.7950773442
 40
0.8076142342
 40
0.8197721262
 40
0.8315520987
 40
0.8429559316
 40
0.8539862584
 40
0.8646466974
 40
0.8749418154
 40
0.8848774314
 40
0.894460579
 40
0.9036997413
 40
0.9126050283
 40
0.9211882418
 40
0.9294632239
 40
0.9374458933
 40
0.9451545241
 40
0.9526099065
 40
0.9598354085
 40
0.9668571612
 40
0.9737039322
 40
0.9804070692
 40
0.9870002182
 40
0.9935188987
 40
1.0
 40
1.0
 40
1.0
 40
1.0
 10
11.5850652202
 20
11.1049443486
 30
0.0
 10
11.5963444976
 20
11.1041621281
 30
0.0
 10
11.6187619867
 20
11.1024809674
 30
0.0
 10
11.6521406315
 20
11.0995902771
 30
0.0
 10
11.6850345659
 20
11.0963490296
 30
0.0
 10
11.7173884696
 20
11.0927627566
 30
0.0
 10
11.7491484804
 20
11.0888374219
 30
0.0
 10
11.7802614072
 20
11.0845796424
 30
0.0
 10
11.810675272
 20
11.0799965686
 30
0.0
 10
11.8403392464
 20
11.0750959076
 30
0.0
 10
11.8692037684
 20
11.0698858989
 30
0.0
 10
11.8972206222
 20
11.0643753011
 30
0.0
 10
11.9243430257
 20
11.0585733763
 30
0.0
 10
11.9505257047
 20
11.0524898826
 30
0.0
 10
11.975725027
 20
11.0461350575
 30
0.0
 10
11.9998988823
 20
11.0395195812
 30
0.0
 10
12.0193519441
 20
11.0337405557
 30
0.0
 10
12.0343655048
 20
11.028988033
 30
0.0
 10
12.0452278252
 20
11.0254023996
 30
0.0
 10
12.0558045353
 20
11.0217600653
 30
0.0
 10
12.0660912382
 20
11.0180625708
 30
0.0
 10
12.0760836404
 20
11.0143114619
 30
0.0
 10
12.0857775696
 20
11.0105082799
 30
0.0
 10
12.095168998
 20
11.0066546638
 30
0.0
 10
12.1042539998
 20
11.002752167
 30
0.0
 10
12.1130288049
 20
10.9988024605
 30
0.0
 10
12.1214897617
 20
10.994807178
 30
0.0
 10
12.1296333453
 20
10.9907679598
 30
0.0
 10
12.1374561935
 20
10.9866865358
 30
0.0
 10
12.1449550383
 20
10.9825645353
 30
0.0
 10
12.1521267942
 20
10.9784037153
 30
0.0
 10
12.1589684873
 20
10.9742057698
 30
0.0
 10
12.1654772802
 20
10.9699724046
 30
0.0
 10
12.171650515
 20
10.9657054012
 30
0.0
 10
12.1774856076
 20
10.9614064238
 30
0.0
 10
12.1829801888
 20
10.9570772677
 30
0.0
 10
12.1881319758
 20
10.9527196337
 30
0.0
 10
12.1929388264
 20
10.9483352377
 30
0.0
 10
12.1973987836
 20
10.9439258473
 30
0.0
 10
12.2015099132
 20
10.9394931023
 30
0.0
 10
12.2052705226
 20
10.9350387702
 30
0.0
 10
12.2086789336
 20
10.9305645073
 30
0.0
 10
12.2117335936
 20
10.9260720102
 30
0.0
 10
12.2144331054
 20
10.9215630253
 30
0.0
 10
12.2167760078
 20
10.9170392367
 30
0.0
 10
12.2187611133
 20
10.9125025014
 30
0.0
 10
12.2203871705
 20
10.9079546563
 30
0.0
 10
12.2216531182
 20
10.9033977315
 30
0.0
 10
12.2225581103
 20
10.898833751
 30
0.0
 10
12.2231013366
 20
10.8942653124
 30
0.0
 10
12.2232222077
 20
10.891214423
 30
0.0
 10
12.2232222018
 20
10.889694066
 30
0.0
  0
SPLINE
  5
31C
100
AcDbEntity
  8
0
100
AcDbSpline
 62
7
  6
CONTINUOUS
 70
0
 71
3
 72
39
 73
35
 74
0
 42
0.0000001
 43
0.0000001
 44
0.0000000001
 40
0.0
 40
0.0
 40
0.0
 40
0.0
 40
0.0311450131
 40
0.0624431066
 40
0.0938883521
 40
0.125470989
 40
0.1571788878
 40
0.1889972629
 40
0.2209091776
 40
0.2528958459
 40
0.2849370256
 40
0.3170114169
 40
0.3490970777
 40
0.381171849
 40
0.4132137816
 40
0.4452015608
 40
0.4771149225
 40
0.5089350543
 40
0.5406449763
 40
0.5722298954
 40
0.6036775251
 40
0.634978366
 40
0.666125938
 40
0.697116959
 40
0.7279514619
 40
0.7586328441
 40
0.7891678445
 40
0.8195664435
 40
0.8498416841
 40
0.8800094158
 40
0.9100879619
 40
0.9400977188
 40
0.9700606946
 40
1.0
 40
1.0
 40
1.0
 40
1.0
 10
9.6496972239
 20
9.9191342151
 30
0.0
 10
9.6430692757
 20
9.9195938648
 30
0.0
 10
9.6298095148
 20
9.9210005604
 30
0.0
 10
9.6100806266
 20
9.9245440798
 30
0.0
 10
9.5905630513
 20
9.929507476
 30
0.0
 10
9.5713622026
 20
9.9358640827
 30
0.0
 10
9.5525800879
 20
9.9435798053
 30
0.0
 10
9.5343168935
 20
9.9526133863
 30
0.0
 10
9.5166699109
 20
9.9629165428
 30
0.0
 10
9.4997331735
 20
9.9744342668
 30
0.0
 10
9.4835969205
 20
9.9871050998
 30
0.0
 10
9.4683471335
 20
10.0008614642
 30
0.0
 10
9.4540650803
 20
10.0156300192
 30
0.0
 10
9.4408268863
 20
10.0313320474
 30
0.0
 10
9.4287031303
 20
10.0478838691
 30
0.0
 10
9.4177584746
 20
10.0651972865
 30
0.0
 10
9.4080513226
 20
10.0831800482
 30
0.0
 10
9.3996335097
 20
10.1017363348
 30
0.0
 10
9.3925500276
 20
10.1207672632
 30
0.0
 10
9.3868387844
 20
10.1401714065
 30
0.0
 10
9.3825304014
 20
10.1598453274
 30
0.0
 10
9.379648046
 20
10.1796841217
 30
0.0
 10
9.3782073033
 20
10.1995819702
 30
0.0
 10
9.3782160871
 20
10.2194326963
 30
0.0
 10
9.3796745844
 20
10.2391303262
 30
0.0
 10
9.3825752451
 20
10.2585696517
 30
0.0
 10
9.386902812
 20
10.2776467887
 30
0.0
 10
9.3926343909
 20
10.2962597353
 30
0.0
 10
9.3997395501
 20
10.3143089116
 30
0.0
 10
9.4081805056
 20
10.3316977337
 30
0.0
 10
9.4179121828
 20
10.3483330152
 30
0.0
 10
9.4288829306
 20
10.3641259439
 30
0.0
 10
9.4410330058
 20
10.3789908468
 30
0.0
 10
9.4498798712
 20
10.388232893
 30
0.0
 10
9.4544735106
 20
10.392670006
 30
0.0
  0
SPLINE
  5
31D
100
AcDbEntity
  8
0
100
AcDbSpline
 62
7
  6
CONTINUOUS
 70
0
 71
3
 72
62
 73
58
 74
0
 42
0.0000001
 43
0.0000001
 44
0.0000000001
 40
0.0
 40
0.0
 40
0.0
 40
0.0
 40
0.00277584
 40
0.0055595888
 40
0.0083590779
 40
0.0111819963
 40
0.0140358299
 40
0.0169277921
 40
0.0198647836
 40
0.0228533663
 40
0.0290080918
 40
0.0354384402
 40
0.0421828337
 40
0.0492736298
 40
0.0567376178
 40
0.0645966712
 40
0.0728682823
 40
0.0815662586
 40
0.0907011188
 40
0.1002806559
 40
0.1103102397
 40
0.1207931709
 40
0.131730969
 40
0.1431235248
 40
0.1549693962
 40
0.1672658309
 40
0.1800090282
 40
0.1931941398
 40
0.206815431
 40
0.2208663415
 40
0.2353395202
 40
0.2502269628
 40
0.2655199529
 40
0.2812092303
 40
0.2972849176
 40
0.3137366433
 40
0.3305535274
 40
0.3477242144
 40
0.3652369404
 40
0.3830794856
 40
0.4012392913
 40
0.4197033862
 40
0.4384584927
 40
0.4574909872
 40
0.4963317865
 40
0.5361115526
 40
0.5767116663
 40
0.6180101162
 40
0.6598820458
 40
0.7022002896
 40
0.7448359001
 40
0.7876586703
 40
0.8305376615
 40
0.8733416839
 40
0.9159399599
 40
0.9582021509
 40
1.0
 40
1.0
 40
1.0
 40
1.0
 10
10.5012222109
 20
10.8896949609
 30
0.0
 10
10.501222215
 20
10.8907588227
 30
0.0
 10
10.5012812569
 20
10.8928900457
 30
0.0
 10
10.5015467658
 20
10.8960842473
 30
0.0
 10
10.5019891408
 20
10.8992770807
 30
0.0
 10
10.5026082563
 20
10.9024676957
 30
0.0
 10
10.5034039808
 20
10.9056554103
 30
0.0
 10
10.5043760442
 20
10.9088395088
 30
0.0
 10
10.5055242
 20
10.912019381
 30
0.0
 10
10.5073066962
 20
10.9162940207
 30
0.0
 10
10.5099926157
 20
10.9216342745
 30
0.0
 10
10.5138832318
 20
10.9279480348
 30
0.0
 10
10.5184685329
 20
10.9342260752
 30
0.0
 10
10.5237438347
 20
10.9404637016
 30
0.0
 10
10.5297044507
 20
10.9466568745
 30
0.0
 10
10.536345415
 20
10.9528011971
 30
0.0
 10
10.5436612749
 20
10.9588923627
 30
0.0
 10
10.5516462326
 20
10.9649257878
 30
0.0
 10
10.5602938815
 20
10.970896978
 30
0.0
 10
10.569597362
 20
10.9768012644
 30
0.0
 10
10.5795492286
 20
10.9826340294
 30
0.0
 10
10.5901415019
 20
10.9883906441
 30
0.0
 10
10.6013656739
 20
10.9940664496
 30
0.0
 10
10.6132126676
 20
10.9996569201
 30
0.0
 10
10.6256729171
 20
11.0051574456
 30
0.0
 10
10.6387362969
 20
11.0105636129
 30
0.0
 10
10.6523922044
 20
11.0158709494
 30
0.0
 10
10.6666295168
 20
11.0210751452
 30
0.0
 10
10.6814366333
 20
11.0261719257
 30
0.0
 10
10.6968014762
 20
11.031157093
 30
0.0
 10
10.7127114952
 20
11.0360265919
 30
0.0
 10
10.7291536972
 20
11.0407763704
 30
0.0
 10
10.7461146344
 20
11.0454025832
 30
0.0
 10
10.7635804391
 20
11.0499013759
 30
0.0
 10
10.7815368177
 20
11.0542690906
 30
0.0
 10
10.7999690751
 20
11.0585021162
 30
0.0
 10
10.8188621215
 20
11.0625969733
 30
0.0
 10
10.8382004858
 20
11.066550316
 30
0.0
 10
10.8579683318
 20
11.0703588588
 30
0.0
 10
10.8781494664
 20
11.0740195171
 30
0.0
 10
10.8987273589
 20
11.0775292355
 30
0.0
 10
10.9196851455
 20
11.0808851674
 30
0.0
 10
10.9410056717
 20
11.0840845414
 30
0.0
 10
10.9700895265
 20
11.0881655955
 30
0.0
 10
11.0072240418
 20
11.0928476952
 30
0.0
 10
11.0526530247
 20
11.0977656879
 30
0.0
 10
11.0990963168
 20
11.1020040305
 30
0.0
 10
11.1464016864
 20
11.1055487395
 30
0.0
 10
11.1944142058
 20
11.108388101
 30
0.0
 10
11.2429765688
 20
11.1105127389
 30
0.0
 10
11.2919296653
 20
11.1119156387
 30
0.0
 10
11.3411130932
 20
11.1125921717
 30
0.0
 10
11.3903656869
 20
11.1125401025
 30
0.0
 10
11.4395260739
 20
11.1117596104
 30
0.0
 10
11.4884331308
 20
11.1102532564
 30
0.0
 10
11.5369265542
 20
11.1080260437
 30
0.0
 10
11.5690842602
 20
11.1060526319
 30
0.0
 10
11.5850652202
 20
11.1049443486
 30
0.0
  0
SPLINE
  5
31E
100
AcDbEntity
  8
0
100
AcDbSpline
 62
7
  6
CONTINUOUS
 70
0
 71
3
 72
52
 73
48
 74
0
 42
0.0000001
 43
0.0000001
 44
0.0000000001
 40
0.0
 40
0.0
 40
0.0
 40
0.0
 40
0.0072841478
 40
0.0148908843
 40
0.0228285965
 40
0.0311039712
 40
0.0397220989
 40
0.0486867832
 40
0.0580005537
 40
0.0676649584
 40
0.0776805128
 40
0.0880469683
 40
0.0987632294
 40
0.1098275852
 40
0.1212376261
 40
0.1329904259
 40
0.1450824806
 40
0.1575098346
 40
0.1702680553
 40
0.1833522997
 40
0.1967573332
 40
0.2104775384
 40
0.2245069772
 40
0.238839349
 40
0.2534680908
 40
0.268386295
 40
0.2835868378
 40
0.2990622702
 40
0.3308066215
 40
0.3635556611
 40
0.3972419019
 40
0.4317947865
 40
0.4671409976
 40
0.5032047504
 40
0.539908072
 40
0.5771710697
 40
0.6149121937
 40
0.6530484932
 40
0.6914958696
 40
0.7301693273
 40
0.7689832194
 40
0.8078515035
 40
0.8466879626
 40
0.8854065259
 40
0.9239213114
 40
0.9621473674
 40
1.0
 40
1.0
 40
1.0
 40
1.0
 10
10.5329334255
 20
10.8298412118
 30
0.0
 10
10.5348564764
 20
10.8316240306
 30
0.0
 10
10.5388754755
 20
10.8351749003
 30
0.0
 10
10.5452639441
 20
10.8403483689
 30
0.0
 10
10.5521370702
 20
10.8454796747
 30
0.0
 10
10.5594907025
 20
10.8505656982
 30
0.0
 10
10.5673205748
 20
10.8556036644
 30
0.0
 10
10.575622145
 20
10.8605905766
 30
0.0
 10
10.5843905288
 20
10.8655236353
 30
0.0
 10
10.5936206257
 20
10.8703998678
 30
0.0
 10
10.6033069875
 20
10.8752165064
 30
0.0
 10
10.6134439474
 20
10.8799706266
 30
0.0
 10
10.6240255119
 20
10.8846595047
 30
0.0
 10
10.6350454605
 20
10.889280291
 30
0.0
 10
10.6464972709
 20
10.8938303127
 30
0.0
 10
10.6583741864
 20
10.8983068146
 30
0.0
 10
10.6706691728
 20
10.9027071811
 30
0.0
 10
10.6833749575
 20
10.9070287651
 30
0.0
 10
10.696484011
 20
10.9112690153
 30
0.0
 10
10.7099885662
 20
10.915425402
 30
0.0
 10
10.7238806163
 20
10.9194954466
 30
0.0
 10
10.7381519212
 20
10.9234767422
 30
0.0
 10
10.7527940157
 20
10.9273668923
 30
0.0
 10
10.7677982089
 20
10.9311636157
 30
0.0
 10
10.7831555979
 20
10.9348646093
 30
0.0
 10
10.7988570607
 20
10.9384677149
 30
0.0
 10
10.8148932888
 20
10.9419707489
 30
0.0
 10
10.8368948958
 20
10.9465439811
 30
0.0
 10
10.8651668608
 20
10.9519860924
 30
0.0
 10
10.8999928584
 20
10.9580316204
 30
0.0
 10
10.9359168484
 20
10.9636316189
 30
0.0
 10
10.9728534706
 20
10.9687727048
 30
0.0
 10
11.0107150733
 20
10.9734425748
 30
0.0
 10
11.0494117479
 20
10.977630062
 30
0.0
 10
11.0888515964
 20
10.9813251537
 30
0.0
 10
11.1289409395
 20
10.9845190174
 30
0.0
 10
11.1695845453
 20
10.9872040197
 30
0.0
 10
11.2106858571
 20
10.9893737445
 30
0.0
 10
11.2521472245
 20
10.9910230079
 30
0.0
 10
11.2938701369
 20
10.9921478694
 30
0.0
 10
11.3357554608
 20
10.9927456425
 30
0.0
 10
11.3777036689
 20
10.9928148977
 30
0.0
 10
11.4196151018
 20
10.992355473
 30
0.0
 10
11.4613901378
 20
10.9913684592
 30
0.0
 10
11.5029296066
 20
10.9898562238
 30
0.0
 10
11.5441346377
 20
10.9878223694
 30
0.0
 10
11.5714707796
 20
10.9861123187
 30
0.0
 10
11.5850652202
 20
10.985169541
 30
0.0
  0
SPLINE
  5
31F
100
AcDbEntity
  8
0
100
AcDbSpline
 62
7
  6
CONTINUOUS
 70
0
 71
3
 72
52
 73
48
 74
0
 42
0.0000001
 43
0.0000001
 44
0.0000000001
 40
0.0
 40
0.0
 40
0.0
 40
0.0
 40
0.006778497
 40
0.013871291
 40
0.0212921231
 40
0.029052236
 40
0.0371606309
 40
0.0456244026
 40
0.0544489067
 40
0.0636380513
 40
0.0731943793
 40
0.0831193252
 40
0.0934132296
 40
0.1040755726
 40
0.1151049351
 40
0.1264992184
 40
0.1382555673
 40
0.1503705789
 40
0.1628402004
 40
0.1756599293
 40
0.188824695
 40
0.2023290506
 40
0.2161670459
 40
0.2303324101
 40
0.2448184235
 40
0.2596180873
 40
0.2747240011
 40
0.2901285176
 40
0.3218006986
 40
0.3545679806
 40
0.3883592091
 40
0.4230995906
 40
0.4587110656
 40
0.4951126562
 40
0.5322207955
 40
0.5699496423
 40
0.6082113877
 40
0.6469165533
 40
0.6859742848
 40
0.7252926422
 40
0.7647788868
 40
0.8043397698
 40
0.8438818078
 40
0.8833115961
 40
0.9225360147
 40
0.9614627063
 40
1.0
 40
1.0
 40
1.0
 40
1.0
 10
10.5477121161
 20
10.8175017702
 30
0.0
 10
10.5492894141
 20
10.8193104462
 30
0.0
 10
10.5526274338
 20
10.8229166163
 30
0.0
 10
10.5580358036
 20
10.8281719645
 30
0.0
 10
10.5639523353
 20
10.8333896236
 30
0.0
 10
10.570373119
 20
10.8385662865
 30
0.0
 10
10.5772942148
 20
10.8436990201
 30
0.0
 10
10.5847113422
 20
10.8487846894
 30
0.0
 10
10.592619887
 20
10.8538202663
 30
0.0
 10
10.601014963
 20
10.8588026103
 30
0.0
 10
10.6098913244
 20
10.8637287012
 30
0.0
 10
10.619243458
 20
10.8685954138
 30
0.0
 10
10.6290654973
 20
10.8733997711
 30
0.0
 10
10.639351311
 20
10.8781386914
 30
0.0
 10
10.6500944276
 20
10.8828092621
 30
0.0
 10
10.6612881144
 20
10.8874084667
 30
0.0
 10
10.6729253141
 20
10.891933472
 30
0.0
 10
10.6849987124
 20
10.8963813431
 30
0.0
 10
10.697500687
 20
10.9007493374
 30
0.0
 10
10.7104233634
 20
10.9050346144
 30
0.0
 10
10.723758576
 20
10.9092345305
 30
0.0
 10
10.7374979125
 20
10.9133463509
 30
0.0
 10
10.7516326866
 20
10.9173675382
 30
0.0
 10
10.7661539714
 20
10.9212954723
 30
0.0
 10
10.7810525838
 20
10.9251277291
 30
0.0
 10
10.7963191037
 20
10.928861808
 30
0.0
 10
10.8119438874
 20
10.9324954191
 30
0.0
 10
10.8334402224
 20
10.9372469889
 30
0.0
 10
10.8611373719
 20
10.9429080095
 30
0.0
 10
10.8953419231
 20
10.9492039275
 30
0.0
 10
10.930727972
 20
10.9550476402
 30
0.0
 10
10.9672059544
 20
10.9604242526
 30
0.0
 10
11.0046836685
 20
10.9653200497
 30
0.0
 10
11.0430663107
 20
10.9697225511
 30
0.0
 10
11.082256778
 20
10.973620536
 30
0.0
 10
11.1221559026
 20
10.9770040722
 30
0.0
 10
11.162662711
 20
10.9798645403
 30
0.0
 10
11.2036746806
 20
10.9821946548
 30
0.0
 10
11.2450880028
 20
10.9839884817
 30
0.0
 10
11.2867978468
 20
10.9852414536
 30
0.0
 10
11.3286986278
 20
10.9859503804
 30
0.0
 10
11.3706842726
 20
10.9861134567
 30
0.0
 10
11.4126485005
 20
10.9857302687
 30
0.0
 10
11.4544850599
 20
10.9848017895
 30
0.0
 10
11.496088096
 20
10.9833303859
 30
0.0
 10
11.5373521601
 20
10.981319804
 30
0.0
 10
11.5647250513
 20
10.9796134637
 30
0.0
 10
11.5783359306
 20
10.978669546
 30
0.0
  0
SPLINE
  5
320
100
AcDbEntity
  8
0
100
AcDbSpline
 62
7
  6
CONTINUOUS
 70
0
 71
3
 72
51
 73
47
 74
0
 42
0.0000001
 43
0.0000001
 44
0.0000000001
 40
0.0
 40
0.0
 40
0.0
 40
0.0
 40
0.0074793101
 40
0.0152816972
 40
0.0234139886
 40
0.0318815729
 40
0.0406884157
 40
0.0498373619
 40
0.0593301492
 40
0.0691676079
 40
0.0793497139
 40
0.089875675
 40
0.100744044
 40
0.1119526996
 40
0.123499017
 40
0.1353797692
 40
0.147591332
 40
0.1601295476
 40
0.1729899231
 40
0.1861675072
 40
0.1996570409
 40
0.2134528855
 40
0.2275491004
 40
0.2419394414
 40
0.2566173598
 40
0.2715760695
 40
0.302306938
 40
0.3340730785
 40
0.3668115733
 40
0.4004563123
 40
0.4349383048
 40
0.4701859698
 40
0.5061254099
 40
0.5426806739
 40
0.5797740097
 40
0.617326112
 40
0.6552563652
 40
0.6934830824
 40
0.7319237431
 40
0.7704952246
 40
0.8091140479
 40
0.8476965726
 40
0.8861593483
 40
0.9244190155
 40
0.9623933541
 40
1.0
 40
1.0
 40
1.0
 40
1.0
 10
10.5824137703
 20
10.7952049887
 30
0.0
 10
10.5843287777
 20
10.7968606723
 30
0.0
 10
10.5883167318
 20
10.8001573458
 30
0.0
 10
10.5946221655
 20
10.8049608701
 30
0.0
 10
10.6013722218
 20
10.8097235231
 30
0.0
 10
10.6085629574
 20
10.8144424324
 30
0.0
 10
10.6161902815
 20
10.8191150728
 30
0.0
 10
10.6242498625
 20
10.8237387237
 30
0.0
 10
10.6327370767
 20
10.8283108047
 30
0.0
 10
10.6416470735
 20
10.8328286729
 30
0.0
 10
10.6509747377
 20
10.837289739
 30
0.0
 10
10.6607147045
 20
10.8416914497
 30
0.0
 10
10.6708613764
 20
10.8460312285
 30
0.0
 10
10.6814088942
 20
10.850306617
 30
0.0
 10
10.6923511866
 20
10.8545150749
 30
0.0
 10
10.7036819218
 20
10.858654235
 30
0.0
 10
10.7153945656
 20
10.86272162
 30
0.0
 10
10.7274823341
 20
10.8667149425
 30
0.0
 10
10.7399382443
 20
10.8706318163
 30
0.0
 10
10.7527550798
 20
10.8744700223
 30
0.0
 10
10.7659254254
 20
10.8782272871
 30
0.0
 10
10.77944165
 20
10.8819014545
 30
0.0
 10
10.7932959261
 20
10.8854903784
 30
0.0
 10
10.8074802226
 20
10.8889919641
 30
0.0
 10
10.8219863312
 20
10.8924042104
 30
0.0
 10
10.8419246689
 20
10.8968721122
 30
0.0
 10
10.8675937048
 20
10.9022100635
 30
0.0
 10
10.8992734173
 20
10.9081726653
 30
0.0
 10
10.932026691
 20
10.9137344305
 30
0.0
 10
10.9657775568
 20
10.9188823752
 30
0.0
 10
11.0004478432
 20
10.9236044725
 30
0.0
 10
11.0359571856
 20
10.9278896969
 30
0.0
 10
11.0722232666
 20
10.9317280444
 30
0.0
 10
11.1091619968
 20
10.9351105565
 30
0.0
 10
11.146687716
 20
10.9380293405
 30
0.0
 10
11.1847133934
 20
10.9404775876
 30
0.0
 10
11.223150832
 20
10.9424495872
 30
0.0
 10
11.2619108748
 20
10.9439407403
 30
0.0
 10
11.300903612
 20
10.9449475692
 30
0.0
 10
11.3400385943
 20
10.9454677271
 30
0.0
 10
11.3792250323
 20
10.9454999988
 30
0.0
 10
11.4183720424
 20
10.9450443143
 30
0.0
 10
11.4573887616
 20
10.9441017257
 30
0.0
 10
11.4961848035
 20
10.942674447
 30
0.0
 10
11.5346699696
 20
10.9407657872
 30
0.0
 10
11.560202575
 20
10.9391664835
 30
0.0
 10
11.5729007352
 20
10.9382858632
 30
0.0
  0
SPLINE
  5
321
100
AcDbEntity
  8
0
100
AcDbSpline
 62
7
  6
CONTINUOUS
 70
0
 71
3
 72
24
 73
20
 74
0
 42
0.0000001
 43
0.0000001
 44
0.0000000001
 40
0.0
 40
0.0
 40
0.0
 40
0.0
 40
0.0616478706
 40
0.1233187642
 40
0.1850354537
 40
0.2468202027
 40
0.2777476115
 40
0.3087000191
 40
0.3706843911
 40
0.4327981273
 40
0.4950591117
 40
0.5574836205
 40
0.6200861788
 40
0.6828793229
 40
0.7458737558
 40
0.8090780333
 40
0.8724972678
 40
0.936139378
 40
1.0
 40
1.0
 40
1.0
 40
1.0
 10
9.8449209372
 20
9.9884487707
 30
0.0
 10
9.8417675391
 20
9.9854028234
 30
0.0
 10
9.8352943447
 20
9.9794782212
 30
0.0
 10
9.8251189609
 20
9.971124272
 30
0.0
 10
9.8145018889
 20
9.9633225915
 30
0.0
 10
9.8053112584
 20
9.9572996922
 30
0.0
 10
9.7977672732
 20
9.9527773377
 30
0.0
 10
9.7900929704
 20
9.9484508553
 30
0.0
 10
9.7802735836
 20
9.9434213719
 30
0.0
 10
9.7681679687
 20
9.9380113649
 30
0.0
 10
9.7557641425
 20
9.9332370553
 30
0.0
 10
9.7430935531
 20
9.9291105821
 30
0.0
 10
9.7301880766
 20
9.9256422504
 30
0.0
 10
9.7170802346
 20
9.9228407468
 30
0.0
 10
9.7038030066
 20
9.9207131034
 30
0.0
 10
9.6903899191
 20
9.919264704
 30
0.0
 10
9.6768744336
 20
9.9184990118
 30
0.0
 10
9.6632912483
 20
9.9184180988
 30
0.0
 10
9.6542279651
 20
9.9188200071
 30
0.0
 10
9.6496972239
 20
9.9191342151
 30
0.0
  0
SPLINE
  5
322
100
AcDbEntity
  8
0
100
AcDbSpline
 62
7
  6
CONTINUOUS
 70
0
 71
3
 72
15
 73
11
 74
0
 42
0.0000001
 43
0.0000001
 44
0.0000000001
 40
0.0
 40
0.0
 40
0.0
 40
0.0
 40
0.1234609794
 40
0.2482399348
 40
0.3739007061
 40
0.5000031256
 40
0.6261050157
 40
0.7517643501
 40
0.8765401177
 40
1.0
 40
1.0
 40
1.0
 40
1.0
 10
11.1646197009
 20
10.672927466
 30
0.0
 10
11.1808654071
 20
10.6739796453
 30
0.0
 10
11.2135487159
 20
10.6758194978
 30
0.0
 10
11.2628146468
 20
10.6777851861
 30
0.0
 10
11.31245411
 20
10.6789672239
 30
0.0
 10
11.3622804735
 20
10.6793611176
 30
0.0
 10
11.412106633
 20
10.6789653806
 30
0.0
 10
11.4617453724
 20
10.6777814981
 30
0.0
 10
11.511010476
 20
10.6758139954
 30
0.0
 10
11.5436931484
 20
10.6739728862
 30
0.0
 10
11.5599386689
 20
10.6729200795
 30
0.0
  0
SPLINE
  5
323
100
AcDbEntity
  8
0
100
AcDbSpline
 62
7
  6
CONTINUOUS
 70
0
 71
3
 72
24
 73
20
 74
0
 42
0.0000001
 43
0.0000001
 44
0.0000000001
 40
0.0
 40
0.0
 40
0.0
 40
0.0
 40
0.0616478706
 40
0.1233187642
 40
0.1850354537
 40
0.2468202027
 40
0.2777476115
 40
0.3087000191
 40
0.3706843911
 40
0.4327981273
 40
0.4950591117
 40
0.5574836205
 40
0.6200861788
 40
0.6828793229
 40
0.7458737558
 40
0.8090780333
 40
0.8724972678
 40
0.936139378
 40
1.0
 40
1.0
 40
1.0
 40
1.0
 10
9.8449209372
 20
6.1247452366
 30
0.0
 10
9.8417675391
 20
6.1216992893
 30
0.0
 10
9.8352943447
 20
6.1157746871
 30
0.0
 10
9.8251189609
 20
6.1074207379
 30
0.0
 10
9.8145018889
 20
6.0996190575
 30
0.0
 10
9.8053112584
 20
6.0935961581
 30
0.0
 10
9.7977672732
 20
6.0890738036
 30
0.0
 10
9.7900929704
 20
6.0847473213
 30
0.0
 10
9.7802735836
 20
6.0797178378
 30
0.0
 10
9.7681679687
 20
6.0743078308
 30
0.0
 10
9.7557641425
 20
6.0695335212
 30
0.0
 10
9.7430935531
 20
6.065407048
 30
0.0
 10
9.7301880766
 20
6.0619387163
 30
0.0
 10
9.7170802346
 20
6.0591372127
 30
0.0
 10
9.7038030066
 20
6.0570095693
 30
0.0
 10
9.6903899191
 20
6.0555611699
 30
0.0
 10
9.6768744336
 20
6.0547954777
 30
0.0
 10
9.6632912483
 20
6.0547145647
 30
0.0
 10
9.6542279651
 20
6.055116473
 30
0.0
 10
9.6496972239
 20
6.055430681
 30
0.0
  0
SPLINE
  5
324
100
AcDbEntity
  8
0
100
AcDbSpline
 62
4
  6
CONTINUOUS
 70
0
 71
3
 72
403
 73
399
 74
0
 42
0.0000001
 43
0.0000001
 44
0.0000000001
 40
0.0
 40
0.0
 40
0.0
 40
0.0
 40
0.015625
 40
0.0234375
 40
0.03125
 40
0.0390625
 40
0.04296875
 40
0.046875
 40
0.05078125
 40
0.0546875
 40
0.056640625
 40
0.05859375
 40
0.0595703125
 40
0.060546875
 40
0.0615234375
 40
0.0620117188
 40
0.0622558594
 40
0.0625
 40
0.0627441406
 40
0.0629882812
 40
0.0634765625
 40
0.064453125
 40
0.0654296875
 40
0.06640625
 40
0.068359375
 40
0.0703125
 40
0.07421875
 40
0.078125
 40
0.08203125
 40
0.0859375
 40
0.09375
 40
0.1015625
 40
0.10546875
 40
0.109375
 40
0.11328125
 40
0.1171875
 40
0.119140625
 40
0.12109375
 40
0.1220703125
 40
0.123046875
 40
0.1240234375
 40
0.1245117188
 40
0.1247558594
 40
0.125
 40
0.1252441406
 40
0.1254882812
 40
0.1259765625
 40
0.126953125
 40
0.1279296875
 40
0.12890625
 40
0.130859375
 40
0.1328125
 40
0.13671875
 40
0.140625
 40
0.14453125
 40
0.1484375
 40
0.15625
 40
0.1640625
 40
0.16796875
 40
0.171875
 40
0.17578125
 40
0.1796875
 40
0.181640625
 40
0.18359375
 40
0.1845703125
 40
0.185546875
 40
0.1865234375
 40
0.1870117188
 40
0.1872558594
 40
0.1875
 40
0.1877441406
 40
0.1879882812
 40
0.1884765625
 40
0.189453125
 40
0.1904296875
 40
0.19140625
 40
0.193359375
 40
0.1953125
 40
0.19921875
 40
0.203125
 40
0.20703125
 40
0.2109375
 40
0.21875
 40
0.2265625
 40
0.23046875
 40
0.234375
 40
0.23828125
 40
0.2421875
 40
0.244140625
 40
0.24609375
 40
0.2470703125
 40
0.248046875
 40
0.2490234375
 40
0.2495117188
 40
0.2497558594
 40
0.25
 40
0.2502441406
 40
0.2504882812
 40
0.2509765625
 40
0.251953125
 40
0.2529296875
 40
0.25390625
 40
0.255859375
 40
0.2578125
 40
0.26171875
 40
0.265625
 40
0.26953125
 40
0.2734375
 40
0.28125
 40
0.2890625
 40
0.29296875
 40
0.296875
 40
0.30078125
 40
0.3046875
 40
0.306640625
 40
0.30859375
 40
0.3095703125
 40
0.310546875
 40
0.3115234375
 40
0.3120117188
 40
0.3122558594
 40
0.3125
 40
0.3127441406
 40
0.3129882812
 40
0.3134765625
 40
0.314453125
 40
0.3154296875
 40
0.31640625
 40
0.318359375
 40
0.3203125
 40
0.32421875
 40
0.328125
 40
0.33203125
 40
0.3359375
 40
0.34375
 40
0.3515625
 40
0.35546875
 40
0.359375
 40
0.36328125
 40
0.3671875
 40
0.369140625
 40
0.37109375
 40
0.3720703125
 40
0.373046875
 40
0.3740234375
 40
0.3745117188
 40
0.3747558594
 40
0.375
 40
0.3752441406
 40
0.3754882812
 40
0.3759765625
 40
0.376953125
 40
0.3779296875
 40
0.37890625
 40
0.380859375
 40
0.3828125
 40
0.38671875
 40
0.390625
 40
0.39453125
 40
0.3984375
 40
0.40625
 40
0.4140625
 40
0.41796875
 40
0.421875
 40
0.42578125
 40
0.4296875
 40
0.431640625
 40
0.43359375
 40
0.4345703125
 40
0.435546875
 40
0.4365234375
 40
0.4370117188
 40
0.4372558594
 40
0.4375
 40
0.4377441406
 40
0.4379882812
 40
0.4384765625
 40
0.439453125
 40
0.4404296875
 40
0.44140625
 40
0.443359375
 40
0.4453125
 40
0.44921875
 40
0.453125
 40
0.45703125
 40
0.4609375
 40
0.46875
 40
0.4765625
 40
0.48046875
 40
0.484375
 40
0.48828125
 40
0.4921875
 40
0.494140625
 40
0.49609375
 40
0.4970703125
 40
0.498046875
 40
0.4990234375
 40
0.4995117188
 40
0.4997558594
 40
0.5
 40
0.5002441406
 40
0.5004882812
 40
0.5009765625
 40
0.501953125
 40
0.5029296875
 40
0.50390625
 40
0.505859375
 40
0.5078125
 40
0.51171875
 40
0.515625
 40
0.51953125
 40
0.5234375
 40
0.53125
 40
0.5390625
 40
0.54296875
 40
0.546875
 40
0.55078125
 40
0.5546875
 40
0.556640625
 40
0.55859375
 40
0.5595703125
 40
0.560546875
 40
0.5615234375
 40
0.5620117188
 40
0.5622558594
 40
0.5625
 40
0.5627441406
 40
0.5629882812
 40
0.5634765625
 40
0.564453125
 40
0.5654296875
 40
0.56640625
 40
0.568359375
 40
0.5703125
 40
0.57421875
 40
0.578125
 40
0.58203125
 40
0.5859375
 40
0.59375
 40
0.6015625
 40
0.60546875
 40
0.609375
 40
0.61328125
 40
0.6171875
 40
0.619140625
 40
0.62109375
 40
0.6220703125
 40
0.623046875
 40
0.6240234375
 40
0.6245117188
 40
0.6247558594
 40
0.625
 40
0.6252441406
 40
0.6254882812
 40
0.6259765625
 40
0.626953125
 40
0.6279296875
 40
0.62890625
 40
0.630859375
 40
0.6328125
 40
0.63671875
 40
0.640625
 40
0.64453125
 40
0.6484375
 40
0.65625
 40
0.6640625
 40
0.66796875
 40
0.671875
 40
0.67578125
 40
0.6796875
 40
0.681640625
 40
0.68359375
 40
0.6845703125
 40
0.685546875
 40
0.6865234375
 40
0.6870117188
 40
0.6872558594
 40
0.6875
 40
0.6877441406
 40
0.6879882812
 40
0.6884765625
 40
0.689453125
 40
0.6904296875
 40
0.69140625
 40
0.693359375
 40
0.6953125
 40
0.69921875
 40
0.703125
 40
0.70703125
 40
0.7109375
 40
0.71875
 40
0.7265625
 40
0.73046875
 40
0.734375
 40
0.73828125
 40
0.7421875
 40
0.744140625
 40
0.74609375
 40
0.7470703125
 40
0.748046875
 40
0.7490234375
 40
0.7495117188
 40
0.7497558594
 40
0.75
 40
0.7502441406
 40
0.7504882812
 40
0.7509765625
 40
0.751953125
 40
0.7529296875
 40
0.75390625
 40
0.755859375
 40
0.7578125
 40
0.76171875
 40
0.765625
 40
0.76953125
 40
0.7734375
 40
0.78125
 40
0.7890625
 40
0.79296875
 40
0.796875
 40
0.80078125
 40
0.8046875
 40
0.806640625
 40
0.80859375
 40
0.8095703125
 40
0.810546875
 40
0.8115234375
 40
0.8120117188
 40
0.8122558594
 40
0.8125
 40
0.8127441406
 40
0.8129882812
 40
0.8134765625
 40
0.814453125
 40
0.8154296875
 40
0.81640625
 40
0.818359375
 40
0.8203125
 40
0.82421875
 40
0.828125
 40
0.83203125
 40
0.8359375
 40
0.84375
 40
0.8515625
 40
0.85546875
 40
0.859375
 40
0.86328125
 40
0.8671875
 40
0.869140625
 40
0.87109375
 40
0.8720703125
 40
0.873046875
 40
0.8740234375
 40
0.8745117188
 40
0.8747558594
 40
0.875
 40
0.8752441406
 40
0.8754882812
 40
0.8759765625
 40
0.876953125
 40
0.8779296875
 40
0.87890625
 40
0.880859375
 40
0.8828125
 40
0.88671875
 40
0.890625
 40
0.89453125
 40
0.8984375
 40
0.90625
 40
0.9140625
 40
0.91796875
 40
0.921875
 40
0.92578125
 40
0.9296875
 40
0.931640625
 40
0.93359375
 40
0.9345703125
 40
0.935546875
 40
0.9365234375
 40
0.9370117188
 40
0.9372558594
 40
0.9375
 40
0.9377441406
 40
0.9379882812
 40
0.9384765625
 40
0.939453125
 40
0.9404296875
 40
0.94140625
 40
0.943359375
 40
0.9453125
 40
0.94921875
 40
0.953125
 40
0.95703125
 40
0.9609375
 40
0.96875
 40
0.9765625
 40
0.984375
 40
1.0
 40
1.0
 40
1.0
 40
1.0
 10
10.36255056
 20
9.2717894543
 30
0.0
 10
10.3621409444
 20
9.2759954438
 30
0.0
 10
10.3615265211
 20
9.282304428
 30
0.0
 10
10.36070729
 20
9.290716407
 30
0.0
 10
10.3600928666
 20
9.2970253912
 30
0.0
 10
10.3595808474
 20
9.3022828781
 30
0.0
 10
10.3591712314
 20
9.3064888676
 30
0.0
 10
10.3588640211
 20
9.3096433599
 30
0.0
 10
10.3585568045
 20
9.3127978513
 30
0.0
 10
10.3583008101
 20
9.3154265967
 30
0.0
 10
10.3580959711
 20
9.3175295875
 30
0.0
 10
10.3579680456
 20
9.3188439694
 30
0.0
 10
10.3578654789
 20
9.3198954458
 30
0.0
 10
10.3577891732
 20
9.3206841328
 30
0.0
 10
10.357723615
 20
9.3213411185
 30
0.0
 10
10.3576815907
 20
9.321801506
 30
0.0
 10
10.3576515396
 20
9.3220638078
 30
0.0
 10
10.3576460081
 20
9.3222627221
 30
0.0
 10
10.3575754681
 20
9.3224532728
 30
0.0
 10
10.3575040904
 20
9.3227102578
 30
0.0
 10
10.3573686144
 20
9.3231586222
 30
0.0
 10
10.3571806007
 20
9.3237998533
 30
0.0
 10
10.3569526201
 20
9.3245690266
 30
0.0
 10
10.3566494717
 20
9.3255946972
 30
0.0
 10
10.3562702535
 20
9.326876749
 30
0.0
 10
10.3556636624
 20
9.3289280523
 30
0.0
 10
10.3549053693
 20
9.3314921744
 30
0.0
 10
10.3539954408
 20
9.3345691239
 30
0.0
 10
10.3530855061
 20
9.3376460727
 30
0.0
 10
10.351872262
 20
9.3417486712
 30
0.0
 10
10.3503557061
 20
9.3468769194
 30
0.0
 10
10.3488391507
 20
9.3520051676
 30
0.0
 10
10.3476259058
 20
9.356107766
 30
0.0
 10
10.3467159736
 20
9.3591847153
 30
0.0
 10
10.3458060356
 20
9.3622616626
 30
0.0
 10
10.3450477722
 20
9.3648257916
 30
0.0
 10
10.3444411206
 20
9.3668770808
 30
0.0
 10
10.3440620564
 20
9.3681591685
 30
0.0
 10
10.3437585918
 20
9.3691847655
 30
0.0
 10
10.3435315772
 20
9.3699541634
 30
0.0
 10
10.3433405414
 20
9.3705946917
 30
0.0
 10
10.3432104604
 20
9.3710443109
 30
0.0
 10
10.3431304385
 20
9.3712992854
 30
0.0
 10
10.3430864508
 20
9.3714960113
 30
0.0
 10
10.3429811929
 20
9.3716717326
 30
0.0
 10
10.3428622207
 20
9.3719133542
 30
0.0
 10
10.3426440619
 20
9.3723327785
 30
0.0
 10
10.3423376124
 20
9.3729337407
 30
0.0
 10
10.3419676448
 20
9.3736541314
 30
0.0
 10
10.3414751328
 20
9.3746149192
 30
0.0
 10
10.3408592264
 20
9.3758158126
 30
0.0
 10
10.3398739251
 20
9.3777372931
 30
0.0
 10
10.3386422473
 20
9.3801391262
 30
0.0
 10
10.3371642559
 20
9.3830213335
 30
0.0
 10
10.3356862586
 20
9.3859035387
 30
0.0
 10
10.3337155976
 20
9.3897464797
 30
0.0
 10
10.3312522706
 20
9.3945501557
 30
0.0
 10
10.3287889442
 20
9.3993538319
 30
0.0
 10
10.3268182824
 20
9.4031967726
 30
0.0
 10
10.3253402875
 20
9.4060789788
 30
0.0
 10
10.323862287
 20
9.4089611823
 30
0.0
 10
10.3226306376
 20
9.411363027
 30
0.0
 10
10.3216452784
 20
9.4132844839
 30
0.0
 10
10.3210295193
 20
9.4144854373
 30
0.0
 10
10.320536705
 20
9.4154461018
 30
0.0
 10
10.320167661
 20
9.4161668693
 30
0.0
 10
10.3198583215
 20
9.4167666528
 30
0.0
 10
10.3196453218
 20
9.4171881812
 30
0.0
 10
10.3195180835
 20
9.4174264315
 30
0.0
 10
10.3194382166
 20
9.4176125086
 30
0.0
 10
10.3192988645
 20
9.4177703394
 30
0.0
 10
10.3191338108
 20
9.4179906331
 30
0.0
 10
10.3188352994
 20
9.4183715565
 30
0.0
 10
10.3184139088
 20
9.4189181328
 30
0.0
 10
10.3179060768
 20
9.4195729971
 30
0.0
 10
10.3172297229
 20
9.4204465083
 30
0.0
 10
10.3163840219
 20
9.4215382745
 30
0.0
 10
10.315031045
 20
9.423285169
 30
0.0
 10
10.3133397741
 20
9.4254687635
 30
0.0
 10
10.3113102703
 20
9.4280890871
 30
0.0
 10
10.3092807609
 20
9.4307094079
 30
0.0
 10
10.3065747503
 20
9.43420317
 30
0.0
 10
10.3031922363
 20
9.4385703722
 30
0.0
 10
10.2998097227
 20
9.4429375748
 30
0.0
 10
10.2971037114
 20
9.4464313364
 30
0.0
 10
10.2950742041
 20
9.4490516588
 30
0.0
 10
10.2930446925
 20
9.4516719765
 30
0.0
 10
10.2913534459
 20
9.4538555892
 30
0.0
 10
10.2900004195
 20
9.4556024467
 30
0.0
 10
10.2891548441
 20
9.4566943069
 30
0.0
 10
10.2884782325
 20
9.457567625
 30
0.0
 10
10.2879711881
 20
9.4582230794
 30
0.0
 10
10.287547333
 20
9.4587678094
 30
0.0
 10
10.2872532212
 20
9.4591520287
 30
0.0
 10
10.2870811184
 20
9.4593670416
 30
0.0
 10
10.2869634188
 20
9.4595410932
 30
0.0
 10
10.2868022285
 20
9.4596662478
 30
0.0
 10
10.2866024782
 20
9.4598501763
 30
0.0
 10
10.2862458471
 20
9.4601641047
 30
0.0
 10
10.2857400694
 20
9.4606167284
 30
0.0
 10
10.2851315544
 20
9.4611580985
 30
0.0
 10
10.2843207536
 20
9.4618805465
 30
0.0
 10
10.2833070634
 20
9.4627833938
 30
0.0
 10
10.2816852648
 20
9.4642280683
 30
0.0
 10
10.2796579803
 20
9.4660338706
 30
0.0
 10
10.2772252544
 20
9.4682008509
 30
0.0
 10
10.2747925243
 20
9.4703678265
 30
0.0
 10
10.2715488857
 20
9.473257129
 30
0.0
 10
10.267494337
 20
9.4768687565
 30
0.0
 10
10.2634397885
 20
9.4804803844
 30
0.0
 10
10.2601961494
 20
9.4833696862
 30
0.0
 10
10.2577634209
 20
9.4855366638
 30
0.0
 10
10.255330689
 20
9.4877036365
 30
0.0
 10
10.2533034234
 20
9.4895094626
 30
0.0
 10
10.2516815862
 20
9.4909540885
 30
0.0
 10
10.2506679941
 20
9.4918570595
 30
0.0
 10
10.249856992
 20
9.4925792536
 30
0.0
 10
10.2492490917
 20
9.4931213994
 30
0.0
 10
10.2487413909
 20
9.4935715961
 30
0.0
 10
10.2483881929
 20
9.4938898571
 30
0.0
 10
10.2481829418
 20
9.4940668437
 30
0.0
 10
10.248038648
 20
9.4942133216
 30
0.0
 10
10.2478574881
 20
9.4943072863
 30
0.0
 10
10.2476288009
 20
9.4944508897
 30
0.0
 10
10.2472226069
 20
9.4946936614
 30
0.0
 10
10.2466454621
 20
9.4950449399
 30
0.0
 10
10.2459515475
 20
9.4954645643
 30
0.0
 10
10.2450267964
 20
9.4960247305
 30
0.0
 10
10.2438706972
 20
9.49672471
 30
0.0
 10
10.2420210281
 20
9.4978448047
 30
0.0
 10
10.239708911
 20
9.4992448793
 30
0.0
 10
10.2369343836
 20
9.5009249876
 30
0.0
 10
10.2341598527
 20
9.5026050909
 30
0.0
 10
10.2304604794
 20
9.5048452304
 30
0.0
 10
10.2258362623
 20
9.5076454041
 30
0.0
 10
10.2212120454
 20
9.5104455782
 30
0.0
 10
10.2175126717
 20
9.512685717
 30
0.0
 10
10.2147381421
 20
9.5143658225
 30
0.0
 10
10.21196361
 20
9.5160459224
 30
0.0
 10
10.2096515075
 20
9.5174460233
 30
0.0
 10
10.2078018085
 20
9.5185660644
 30
0.0
 10
10.2066457853
 20
9.5192661803
 30
0.0
 10
10.2057208782
 20
9.5198260663
 30
0.0
 10
10.2050274404
 20
9.5202465469
 30
0.0
 10
10.2044488038
 20
9.5205951467
 30
0.0
 10
10.2040452729
 20
9.5208427003
 30
0.0
 10
10.2038123187
 20
9.5209786418
 30
0.0
 10
10.2036442656
 20
9.5210961415
 30
0.0
 10
10.2034507449
 20
9.5211542257
 30
0.0
 10
10.2032016008
 20
9.521252396
 30
0.0
 10
10.2027614595
 20
9.521414538
 30
0.0
 10
10.2021348503
 20
9.5216512178
 30
0.0
 10
10.2013819929
 20
9.5219330727
 30
0.0
 10
10.2003785066
 20
9.5223096339
 30
0.0
 10
10.199124038
 20
9.522780077
 30
0.0
 10
10.1971169501
 20
9.5235329304
 30
0.0
 10
10.1946080689
 20
9.5244739477
 30
0.0
 10
10.1915974207
 20
9.5256031896
 30
0.0
 10
10.18858677
 20
9.5267324258
 30
0.0
 10
10.1845725699
 20
9.5282380761
 30
0.0
 10
10.1795548195
 20
9.5301201383
 30
0.0
 10
10.1745370693
 20
9.5320022009
 30
0.0
 10
10.1705228689
 20
9.5335078504
 30
0.0
 10
10.1675122191
 20
9.5346370891
 30
0.0
 10
10.1645015675
 20
9.5357663217
 30
0.0
 10
10.1619926968
 20
9.5367073679
 30
0.0
 10
10.1599855875
 20
9.5374601623
 30
0.0
 10
10.1587311733
 20
9.5379307555
 30
0.0
 10
10.1577275753
 20
9.5383070087
 30
0.0
 10
10.1569750594
 20
9.5385898047
 30
0.0
 10
10.1563473818
 20
9.5388235399
 30
0.0
 10
10.1559091477
 20
9.5389909385
 30
0.0
 10
10.1556569478
 20
9.5390806864
 30
0.0
 10
10.1554728134
 20
9.5391646417
 30
0.0
 10
10.155269507
 20
9.5391849738
 30
0.0
 10
10.1550051191
 20
9.5392342759
 30
0.0
 10
10.1545393246
 20
9.5393102145
 30
0.0
 10
10.1538755328
 20
9.5394241042
 30
0.0
 10
10.1530782854
 20
9.5395584579
 30
0.0
 10
10.1520155324
 20
9.5397384043
 30
0.0
 10
10.1506870077
 20
9.5399630606
 30
0.0
 10
10.1485614149
 20
9.5403226654
 30
0.0
 10
10.1459044079
 20
9.5407721183
 30
0.0
 10
10.1427160063
 20
9.5413114846
 30
0.0
 10
10.1395276029
 20
9.5418508447
 30
0.0
 10
10.135276399
 20
9.5425699937
 30
0.0
 10
10.1299623939
 20
9.5434689292
 30
0.0
 10
10.1246483888
 20
9.5443678652
 30
0.0
 10
10.1203971848
 20
9.5450870133
 30
0.0
 10
10.1172087817
 20
9.5456263761
 30
0.0
 10
10.1140203791
 20
9.5461657324
 30
0.0
 10
10.1113633752
 20
9.5466152162
 30
0.0
 10
10.109237776
 20
9.5469747579
 30
0.0
 10
10.1079092675
 20
9.5471995747
 30
0.0
 10
10.1068464814
 20
9.5473791919
 30
0.0
 10
10.1060493351
 20
9.5475145514
 30
0.0
 10
10.105385227
 20
9.547625294
 30
0.0
 10
10.1049199971
 20
9.5477068507
 30
0.0
 10
10.1046547045
 20
9.5477471512
 30
0.0
 10
10.1044541771
 20
9.547795133
 30
0.0
 10
10.1042596052
 20
9.547775241
 30
0.0
 10
10.1039980986
 20
9.5477723936
 30
0.0
 10
10.1035414299
 20
9.5477563798
 30
0.0
 10
10.1028885401
 20
9.5477392699
 30
0.0
 10
10.1021052889
 20
9.5477162696
 30
0.0
 10
10.1010608784
 20
9.5476864648
 30
0.0
 10
10.0997553911
 20
9.5476489135
 30
0.0
 10
10.097666597
 20
9.5475889964
 30
0.0
 10
10.0950556093
 20
9.5475140434
 30
0.0
 10
10.0919224219
 20
9.5474241241
 30
0.0
 10
10.0887892351
 20
9.5473341984
 30
0.0
 10
10.0846116525
 20
9.5472142996
 30
0.0
 10
10.0793896744
 20
9.5470644253
 30
0.0
 10
10.0741676961
 20
9.5469145516
 30
0.0
 10
10.0699901136
 20
9.5467946519
 30
0.0
 10
10.0668569265
 20
9.5467047288
 30
0.0
 10
10.0637237405
 20
9.5466147994
 30
0.0
 10
10.0611127484
 20
9.5465398779
 30
0.0
 10
10.0590239633
 20
9.5464798967
 30
0.0
 10
10.057718453
 20
9.5464425086
 30
0.0
 10
10.0566740896
 20
9.5464123688
 30
0.0
 10
10.0558906944
 20
9.5463903918
 30
0.0
 10
10.0552382552
 20
9.5463700803
 30
0.0
 10
10.0547807822
 20
9.5463597819
 30
0.0
 10
10.0545205644
 20
9.546347777
 30
0.0
 10
10.0543220337
 20
9.5463560136
 30
0.0
 10
10.0541363749
 20
9.5462983491
 30
0.0
 10
10.0538843401
 20
9.54624445
 30
0.0
 10
10.053445371
 20
9.5461394166
 30
0.0
 10
10.0528171786
 20
9.5459949683
 30
0.0
 10
10.0520638158
 20
9.5458192336
 30
0.0
 10
10.0510591687
 20
9.5455857577
 30
0.0
 10
10.0498034157
 20
9.5452936263
 30
0.0
 10
10.0477941797
 20
9.5448263762
 30
0.0
 10
10.0452826454
 20
9.5442422585
 30
0.0
 10
10.0422687996
 20
9.543541341
 30
0.0
 10
10.039254955
 20
9.5428404171
 30
0.0
 10
10.0352364952
 20
9.5419058541
 30
0.0
 10
10.0302134206
 20
9.5407376496
 30
0.0
 10
10.0251903458
 20
9.5395694457
 30
0.0
 10
10.0211718863
 20
9.5386348818
 30
0.0
 10
10.018158041
 20
9.5379339606
 30
0.0
 10
10.0151441981
 20
9.5372330333
 30
0.0
 10
10.0126326548
 20
9.5366489459
 30
0.0
 10
10.010623437
 20
9.536181634
 30
0.0
 10
10.0093676376
 20
9.5358896598
 30
0.0
 10
10.0083630859
 20
9.5356558612
 30
0.0
 10
10.0076094315
 20
9.5354811126
 30
0.0
 10
10.0069821515
 20
9.5353335788
 30
0.0
 10
10.0065415536
 20
9.5352340535
 30
0.0
 10
10.0062921286
 20
9.5351713292
 30
0.0
 10
10.0060984532
 20
9.535140773
 30
0.0
 10
10.0059300316
 20
9.5350471951
 30
0.0
 10
10.0056966607
 20
9.5349444073
 30
0.0
 10
10.0052923658
 20
9.5347542865
 30
0.0
 10
10.004712656
 20
9.53448804
 30
0.0
 10
10.0040179226
 20
9.5341662522
 30
0.0
 10
10.0030912906
 20
9.5337380024
 30
0.0
 10
10.0019331104
 20
9.5332024161
 30
0.0
 10
10.0000799608
 20
9.5323456311
 30
0.0
 10
9.9977635448
 20
9.5312745973
 30
0.0
 10
9.9949838367
 20
9.5299893793
 30
0.0
 10
9.9922041309
 20
9.5287041553
 30
0.0
 10
9.9884978557
 20
9.5269905254
 30
0.0
 10
9.983865012
 20
9.5248484872
 30
0.0
 10
9.9792321681
 20
9.5227064495
 30
0.0
 10
9.9755258933
 20
9.5209928188
 30
0.0
 10
9.9727461864
 20
9.5197075973
 30
0.0
 10
9.9699664825
 20
9.5184223698
 30
0.0
 10
9.967650053
 20
9.5173513654
 30
0.0
 10
9.965796931
 20
9.5164945206
 30
0.0
 10
9.9646386806
 20
9.5159590864
 30
0.0
 10
9.9637121929
 20
9.5155305243
 30
0.0
 10
9.9630170187
 20
9.5152096908
 30
0.0
 10
9.962438688
 20
9.5149404587
 30
0.0
 10
9.9620319311
 20
9.5147556677
 30
0.0
 10
9.9618025049
 20
9.5146443401
 30
0.0
 10
9.9616219665
 20
9.5145769936
 30
0.0
 10
9.9614737998
 20
9.5144479169
 30
0.0
 10
9.9612649526
 20
9.5142973468
 30
0.0
 10
9.9609047311
 20
9.5140238169
 30
0.0
 10
9.9603873783
 20
9.5136383048
 30
0.0
 10
9.9597677323
 20
9.5131734453
 30
0.0
 10
9.9589411264
 20
9.5125544168
 30
0.0
 10
9.9579080098
 20
9.5117803627
 30
0.0
 10
9.9562549446
 20
9.5105420262
 30
0.0
 10
9.9541886401
 20
9.508994054
 30
0.0
 10
9.9517090631
 20
9.5071365095
 30
0.0
 10
9.9492294892
 20
9.5052789591
 30
0.0
 10
9.9459233896
 20
9.5028022273
 30
0.0
 10
9.9417907655
 20
9.4997063118
 30
0.0
 10
9.937658141
 20
9.4966103967
 30
0.0
 10
9.934352042
 20
9.4941336641
 30
0.0
 10
9.9318724664
 20
9.4922761159
 30
0.0
 10
9.9293928957
 20
9.4904185632
 30
0.0
 10
9.9273265714
 20
9.4888706166
 30
0.0
 10
9.9256735466
 20
9.4876322279
 30
0.0
 10
9.9246403272
 20
9.4868583065
 30
0.0
 10
9.9238139323
 20
9.4862390056
 30
0.0
 10
9.9231936416
 20
9.4857749785
 30
0.0
 10
9.922678306
 20
9.4853868621
 30
0.0
 10
9.9223144835
 20
9.4851179814
 30
0.0
 10
9.9221114059
 20
9.4849599621
 30
0.0
 10
9.9219455168
 20
9.484853767
 30
0.0
 10
9.9218315408
 20
9.4847004809
 30
0.0
 10
9.921661465
 20
9.4845125254
 30
0.0
 10
9.9213722691
 20
9.4841759501
 30
0.0
 10
9.9209547212
 20
9.4836991294
 30
0.0
 10
9.9204555517
 20
9.483125232
 30
0.0
 10
9.919789333
 20
9.4823606336
 30
0.0
 10
9.9189567854
 20
9.4814046808
 30
0.0
 10
9.917624583
 20
9.4798752707
 30
0.0
 10
9.9159593733
 20
9.4779634689
 30
0.0
 10
9.9139611031
 20
9.4756693235
 30
0.0
 10
9.9119628379
 20
9.4733751736
 30
0.0
 10
9.9092984825
 20
9.4703163087
 30
0.0
 10
9.905968039
 20
9.4664927269
 30
0.0
 10
9.902637595
 20
9.4626691456
 30
0.0
 10
9.8999732403
 20
9.4596102801
 30
0.0
 10
9.8979749729
 20
9.4573161319
 30
0.0
 10
9.8959767108
 20
9.4550219799
 30
0.0
 10
9.894311476
 20
9.4531101987
 30
0.0
 10
9.8929793249
 20
9.4515807466
 30
0.0
 10
9.8921466468
 20
9.4506249008
 30
0.0
 10
9.8914806959
 20
9.4498600827
 30
0.0
 10
9.8909807081
 20
9.4492868566
 30
0.0
 10
9.8905657206
 20
9.4488079353
 30
0.0
 10
9.890271954
 20
9.4484751101
 30
0.0
 10
9.8901092015
 20
9.448281146
 30
0.0
 10
9.8899727304
 20
9.4481463164
 30
0.0
 10
9.8898913292
 20
9.4479708017
 30
0.0
 10
9.8897635853
 20
9.4477509736
 30
0.0
 10
9.8895489833
 20
9.4473596623
 30
0.0
 10
9.8892377299
 20
9.4468041029
 30
0.0
 10
9.8888662287
 20
9.4461359521
 30
0.0
 10
9.8883701941
 20
9.4452456011
 30
0.0
 10
9.8877503904
 20
9.4441324854
 30
0.0
 10
9.8867585707
 20
9.4423515993
 30
0.0
 10
9.885518842
 20
9.4401254576
 30
0.0
 10
9.8840311478
 20
9.4374541022
 30
0.0
 10
9.8825434589
 20
9.4347827428
 30
0.0
 10
9.8805598718
 20
9.4312209317
 30
0.0
 10
9.8780803886
 20
9.4267686674
 30
0.0
 10
9.875600905
 20
9.4223164033
 30
0.0
 10
9.8736173187
 20
9.4187545918
 30
0.0
 10
9.8721296275
 20
9.4160832339
 30
0.0
 10
9.8706419421
 20
9.4134118731
 30
0.0
 10
9.869402186
 20
9.411185748
 30
0.0
 10
9.868410422
 20
9.4094048281
 30
0.0
 10
9.8677904765
 20
9.4082917983
 30
0.0
 10
9.867294733
 20
9.407401271
 30
0.0
 10
9.8669223425
 20
9.4067336587
 30
0.0
 10
9.8666138713
 20
9.4061764146
 30
0.0
 10
9.8663943026
 20
9.4057881108
 30
0.0
 10
9.8662745166
 20
9.4055634638
 30
0.0
 10
9.8661686714
 20
9.4054027511
 30
0.0
 10
9.866124008
 20
9.4052123278
 30
0.0
 10
9.8660431158
 20
9.4049687936
 30
0.0
 10
9.8659114977
 20
9.4045377801
 30
0.0
 10
9.8657182734
 20
9.403924571
 30
0.0
 10
9.8654886294
 20
9.4031876395
 30
0.0
 10
9.8651816602
 20
9.4022054416
 30
0.0
 10
9.8647982148
 20
9.400977565
 30
0.0
 10
9.8641845533
 20
9.3990130346
 30
0.0
 10
9.8634175276
 20
9.3965573469
 30
0.0
 10
9.8624970749
 20
9.3936105323
 30
0.0
 10
9.861576628
 20
9.3906637148
 30
0.0
 10
9.8603493634
 20
9.3867346258
 30
0.0
 10
9.8588152834
 20
9.3818232642
 30
0.0
 10
9.8572812029
 20
9.3769119028
 30
0.0
 10
9.8560539392
 20
9.3729828135
 30
0.0
 10
9.8551334897
 20
9.3700359971
 30
0.0
 10
9.8542130465
 20
9.3670891784
 30
0.0
 10
9.8534459911
 20
9.3646335032
 30
0.0
 10
9.8528323902
 20
9.3626689473
 30
0.0
 10
9.8524487909
 20
9.3614411358
 30
0.0
 10
9.8521421375
 20
9.3604588042
 30
0.0
 10
9.8519115286
 20
9.3597222811
 30
0.0
 10
9.8517213231
 20
9.3591077943
 30
0.0
 10
9.8515843161
 20
9.3586790617
 30
0.0
 10
9.8515120583
 20
9.3584318729
 30
0.0
 10
9.8514408728
 20
9.3582526753
 30
0.0
 10
9.85143464
 20
9.3580498009
 30
0.0
 10
9.8514036733
 20
9.3577875605
 30
0.0
 10
9.8513600376
 20
9.3573247919
 30
0.0
 10
9.8512921821
 20
9.3566657056
 30
0.0
 10
9.8512131177
 20
9.355873941
 30
0.0
 10
9.8511068734
 20
9.3548185556
 30
0.0
 10
9.8509743506
 20
9.3534992208
 30
0.0
 10
9.8507621562
 20
9.3513883428
 30
0.0
 10
9.8504969673
 20
9.3487497255
 30
0.0
 10
9.8501787175
 20
9.3455833932
 30
0.0
 10
9.8498604739
 20
9.3424170587
 30
0.0
 10
9.8494361469
 20
9.3381952801
 30
0.0
 10
9.8489057389
 20
9.3329180565
 30
0.0
 10
9.8482692489
 20
9.3265853884
 30
0.0
 10
9.8474205958
 20
9.3181418309
 30
0.0
 10
9.8467841059
 20
9.3118091627
 30
0.0
 10
9.8463597794
 20
9.307587384
 30
0.0
  0
SPLINE
  5
325
100
AcDbEntity
  8
0
100
AcDbSpline
 62
4
  6
CONTINUOUS
 70
0
 71
3
 72
403
 73
399
 74
0
 42
0.0000001
 43
0.0000001
 44
0.0000000001
 40
0.0
 40
0.0
 40
0.0
 40
0.0
 40
0.015625
 40
0.0234375
 40
0.03125
 40
0.0390625
 40
0.04296875
 40
0.046875
 40
0.05078125
 40
0.0546875
 40
0.056640625
 40
0.05859375
 40
0.0595703125
 40
0.060546875
 40
0.0615234375
 40
0.0620117188
 40
0.0622558594
 40
0.0625
 40
0.0627441406
 40
0.0629882812
 40
0.0634765625
 40
0.064453125
 40
0.0654296875
 40
0.06640625
 40
0.068359375
 40
0.0703125
 40
0.07421875
 40
0.078125
 40
0.08203125
 40
0.0859375
 40
0.09375
 40
0.1015625
 40
0.10546875
 40
0.109375
 40
0.11328125
 40
0.1171875
 40
0.119140625
 40
0.12109375
 40
0.1220703125
 40
0.123046875
 40
0.1240234375
 40
0.1245117188
 40
0.1247558594
 40
0.125
 40
0.1252441406
 40
0.1254882812
 40
0.1259765625
 40
0.126953125
 40
0.1279296875
 40
0.12890625
 40
0.130859375
 40
0.1328125
 40
0.13671875
 40
0.140625
 40
0.14453125
 40
0.1484375
 40
0.15625
 40
0.1640625
 40
0.16796875
 40
0.171875
 40
0.17578125
 40
0.1796875
 40
0.181640625
 40
0.18359375
 40
0.1845703125
 40
0.185546875
 40
0.1865234375
 40
0.1870117188
 40
0.1872558594
 40
0.1875
 40
0.1877441406
 40
0.1879882812
 40
0.1884765625
 40
0.189453125
 40
0.1904296875
 40
0.19140625
 40
0.193359375
 40
0.1953125
 40
0.19921875
 40
0.203125
 40
0.20703125
 40
0.2109375
 40
0.21875
 40
0.2265625
 40
0.23046875
 40
0.234375
 40
0.23828125
 40
0.2421875
 40
0.244140625
 40
0.24609375
 40
0.2470703125
 40
0.248046875
 40
0.2490234375
 40
0.2495117188
 40
0.2497558594
 40
0.25
 40
0.2502441406
 40
0.2504882812
 40
0.2509765625
 40
0.251953125
 40
0.2529296875
 40
0.25390625
 40
0.255859375
 40
0.2578125
 40
0.26171875
 40
0.265625
 40
0.26953125
 40
0.2734375
 40
0.28125
 40
0.2890625
 40
0.29296875
 40
0.296875
 40
0.30078125
 40
0.3046875
 40
0.306640625
 40
0.30859375
 40
0.3095703125
 40
0.310546875
 40
0.3115234375
 40
0.3120117188
 40
0.3122558594
 40
0.3125
 40
0.3127441406
 40
0.3129882812
 40
0.3134765625
 40
0.314453125
 40
0.3154296875
 40
0.31640625
 40
0.318359375
 40
0.3203125
 40
0.32421875
 40
0.328125
 40
0.33203125
 40
0.3359375
 40
0.34375
 40
0.3515625
 40
0.35546875
 40
0.359375
 40
0.36328125
 40
0.3671875
 40
0.369140625
 40
0.37109375
 40
0.3720703125
 40
0.373046875
 40
0.3740234375
 40
0.3745117188
 40
0.3747558594
 40
0.375
 40
0.3752441406
 40
0.3754882812
 40
0.3759765625
 40
0.376953125
 40
0.3779296875
 40
0.37890625
 40
0.380859375
 40
0.3828125
 40
0.38671875
 40
0.390625
 40
0.39453125
 40
0.3984375
 40
0.40625
 40
0.4140625
 40
0.41796875
 40
0.421875
 40
0.42578125
 40
0.4296875
 40
0.431640625
 40
0.43359375
 40
0.4345703125
 40
0.435546875
 40
0.4365234375
 40
0.4370117188
 40
0.4372558594
 40
0.4375
 40
0.4377441406
 40
0.4379882812
 40
0.4384765625
 40
0.439453125
 40
0.4404296875
 40
0.44140625
 40
0.443359375
 40
0.4453125
 40
0.44921875
 40
0.453125
 40
0.45703125
 40
0.4609375
 40
0.46875
 40
0.4765625
 40
0.48046875
 40
0.484375
 40
0.48828125
 40
0.4921875
 40
0.494140625
 40
0.49609375
 40
0.4970703125
 40
0.498046875
 40
0.4990234375
 40
0.4995117188
 40
0.4997558594
 40
0.5
 40
0.5002441406
 40
0.5004882812
 40
0.5009765625
 40
0.501953125
 40
0.5029296875
 40
0.50390625
 40
0.505859375
 40
0.5078125
 40
0.51171875
 40
0.515625
 40
0.51953125
 40
0.5234375
 40
0.53125
 40
0.5390625
 40
0.54296875
 40
0.546875
 40
0.55078125
 40
0.5546875
 40
0.556640625
 40
0.55859375
 40
0.5595703125
 40
0.560546875
 40
0.5615234375
 40
0.5620117188
 40
0.5622558594
 40
0.5625
 40
0.5627441406
 40
0.5629882812
 40
0.5634765625
 40
0.564453125
 40
0.5654296875
 40
0.56640625
 40
0.568359375
 40
0.5703125
 40
0.57421875
 40
0.578125
 40
0.58203125
 40
0.5859375
 40
0.59375
 40
0.6015625
 40
0.60546875
 40
0.609375
 40
0.61328125
 40
0.6171875
 40
0.619140625
 40
0.62109375
 40
0.6220703125
 40
0.623046875
 40
0.6240234375
 40
0.6245117188
 40
0.6247558594
 40
0.625
 40
0.6252441406
 40
0.6254882812
 40
0.6259765625
 40
0.626953125
 40
0.6279296875
 40
0.62890625
 40
0.630859375
 40
0.6328125
 40
0.63671875
 40
0.640625
 40
0.64453125
 40
0.6484375
 40
0.65625
 40
0.6640625
 40
0.66796875
 40
0.671875
 40
0.67578125
 40
0.6796875
 40
0.681640625
 40
0.68359375
 40
0.6845703125
 40
0.685546875
 40
0.6865234375
 40
0.6870117188
 40
0.6872558594
 40
0.6875
 40
0.6877441406
 40
0.6879882812
 40
0.6884765625
 40
0.689453125
 40
0.6904296875
 40
0.69140625
 40
0.693359375
 40
0.6953125
 40
0.69921875
 40
0.703125
 40
0.70703125
 40
0.7109375
 40
0.71875
 40
0.7265625
 40
0.73046875
 40
0.734375
 40
0.73828125
 40
0.7421875
 40
0.744140625
 40
0.74609375
 40
0.7470703125
 40
0.748046875
 40
0.7490234375
 40
0.7495117188
 40
0.7497558594
 40
0.75
 40
0.7502441406
 40
0.7504882812
 40
0.7509765625
 40
0.751953125
 40
0.7529296875
 40
0.75390625
 40
0.755859375
 40
0.7578125
 40
0.76171875
 40
0.765625
 40
0.76953125
 40
0.7734375
 40
0.78125
 40
0.7890625
 40
0.79296875
 40
0.796875
 40
0.80078125
 40
0.8046875
 40
0.806640625
 40
0.80859375
 40
0.8095703125
 40
0.810546875
 40
0.8115234375
 40
0.8120117188
 40
0.8122558594
 40
0.8125
 40
0.8127441406
 40
0.8129882812
 40
0.8134765625
 40
0.814453125
 40
0.8154296875
 40
0.81640625
 40
0.818359375
 40
0.8203125
 40
0.82421875
 40
0.828125
 40
0.83203125
 40
0.8359375
 40
0.84375
 40
0.8515625
 40
0.85546875
 40
0.859375
 40
0.86328125
 40
0.8671875
 40
0.869140625
 40
0.87109375
 40
0.8720703125
 40
0.873046875
 40
0.8740234375
 40
0.8745117188
 40
0.8747558594
 40
0.875
 40
0.8752441406
 40
0.8754882812
 40
0.8759765625
 40
0.876953125
 40
0.8779296875
 40
0.87890625
 40
0.880859375
 40
0.8828125
 40
0.88671875
 40
0.890625
 40
0.89453125
 40
0.8984375
 40
0.90625
 40
0.9140625
 40
0.91796875
 40
0.921875
 40
0.92578125
 40
0.9296875
 40
0.931640625
 40
0.93359375
 40
0.9345703125
 40
0.935546875
 40
0.9365234375
 40
0.9370117188
 40
0.9372558594
 40
0.9375
 40
0.9377441406
 40
0.9379882812
 40
0.9384765625
 40
0.939453125
 40
0.9404296875
 40
0.94140625
 40
0.943359375
 40
0.9453125
 40
0.94921875
 40
0.953125
 40
0.95703125
 40
0.9609375
 40
0.96875
 40
0.9765625
 40
0.984375
 40
1.0
 40
1.0
 40
1.0
 40
1.0
 10
9.8463597794
 20
9.3075874065
 30
0.0
 10
9.8467693949
 20
9.303381417
 30
0.0
 10
9.8473838183
 20
9.2970724328
 30
0.0
 10
9.8482030493
 20
9.2886604538
 30
0.0
 10
9.8488174727
 20
9.2823514696
 30
0.0
 10
9.849329492
 20
9.2770939827
 30
0.0
 10
9.8497391079
 20
9.2728879932
 30
0.0
 10
9.8500463183
 20
9.2697335009
 30
0.0
 10
9.8503535349
 20
9.2665790095
 30
0.0
 10
9.8506095293
 20
9.2639502641
 30
0.0
 10
9.8508143682
 20
9.2618472733
 30
0.0
 10
9.8509422938
 20
9.2605328914
 30
0.0
 10
9.8510448605
 20
9.259481415
 30
0.0
 10
9.8511211661
 20
9.258692728
 30
0.0
 10
9.8511867244
 20
9.2580357423
 30
0.0
 10
9.8512287487
 20
9.2575753548
 30
0.0
 10
9.8512587997
 20
9.257313053
 30
0.0
 10
9.8512643312
 20
9.2571141387
 30
0.0
 10
9.8513348713
 20
9.256923588
 30
0.0
 10
9.851406249
 20
9.256666603
 30
0.0
 10
9.851541725
 20
9.2562182386
 30
0.0
 10
9.8517297386
 20
9.2555770075
 30
0.0
 10
9.8519577193
 20
9.2548078342
 30
0.0
 10
9.8522608676
 20
9.2537821636
 30
0.0
 10
9.8526400858
 20
9.2525001118
 30
0.0
 10
9.8532466769
 20
9.2504488085
 30
0.0
 10
9.85400497
 20
9.2478846864
 30
0.0
 10
9.8549148985
 20
9.2448077369
 30
0.0
 10
9.8558248332
 20
9.2417307882
 30
0.0
 10
9.8570380773
 20
9.2376281896
 30
0.0
 10
9.8585546332
 20
9.2324999415
 30
0.0
 10
9.8600711886
 20
9.2273716932
 30
0.0
 10
9.8612844336
 20
9.2232690948
 30
0.0
 10
9.8621943657
 20
9.2201921455
 30
0.0
 10
9.8631043037
 20
9.2171151982
 30
0.0
 10
9.8638625672
 20
9.2145510692
 30
0.0
 10
9.8644692188
 20
9.21249978
 30
0.0
 10
9.864848283
 20
9.2112176923
 30
0.0
 10
9.8651517475
 20
9.2101920953
 30
0.0
 10
9.8653787622
 20
9.2094226974
 30
0.0
 10
9.865569798
 20
9.2087821691
 30
0.0
 10
9.8656998789
 20
9.20833255
 30
0.0
 10
9.8657799009
 20
9.2080775754
 30
0.0
 10
9.8658238886
 20
9.2078808495
 30
0.0
 10
9.8659291465
 20
9.2077051282
 30
0.0
 10
9.8660481187
 20
9.2074635066
 30
0.0
 10
9.8662662774
 20
9.2070440823
 30
0.0
 10
9.8665727269
 20
9.2064431201
 30
0.0
 10
9.8669426946
 20
9.2057227294
 30
0.0
 10
9.8674352065
 20
9.2047619416
 30
0.0
 10
9.868051113
 20
9.2035610482
 30
0.0
 10
9.8690364143
 20
9.2016395677
 30
0.0
 10
9.8702680921
 20
9.1992377346
 30
0.0
 10
9.8717460835
 20
9.1963555273
 30
0.0
 10
9.8732240807
 20
9.1934733221
 30
0.0
 10
9.8751947417
 20
9.1896303811
 30
0.0
 10
9.8776580687
 20
9.1848267051
 30
0.0
 10
9.8801213952
 20
9.1800230289
 30
0.0
 10
9.882092057
 20
9.1761800883
 30
0.0
 10
9.8835700518
 20
9.173297882
 30
0.0
 10
9.8850480524
 20
9.1704156785
 30
0.0
 10
9.8862797018
 20
9.1680138338
 30
0.0
 10
9.887265061
 20
9.166092377
 30
0.0
 10
9.8878808201
 20
9.1648914235
 30
0.0
 10
9.8883736344
 20
9.163930759
 30
0.0
 10
9.8887426784
 20
9.1632099915
 30
0.0
 10
9.8890520179
 20
9.162610208
 30
0.0
 10
9.8892650175
 20
9.1621886796
 30
0.0
 10
9.8893922558
 20
9.1619504293
 30
0.0
 10
9.8894721228
 20
9.1617643522
 30
0.0
 10
9.8896114749
 20
9.1616065214
 30
0.0
 10
9.8897765286
 20
9.1613862277
 30
0.0
 10
9.8900750399
 20
9.1610053043
 30
0.0
 10
9.8904964305
 20
9.160458728
 30
0.0
 10
9.8910042626
 20
9.1598038637
 30
0.0
 10
9.8916806164
 20
9.1589303525
 30
0.0
 10
9.8925263174
 20
9.1578385863
 30
0.0
 10
9.8938792944
 20
9.1560916919
 30
0.0
 10
9.8955705653
 20
9.1539080973
 30
0.0
 10
9.897600069
 20
9.1512877737
 30
0.0
 10
9.8996295785
 20
9.1486674529
 30
0.0
 10
9.9023355891
 20
9.1451736908
 30
0.0
 10
9.9057181031
 20
9.1408064886
 30
0.0
 10
9.9091006166
 20
9.136439286
 30
0.0
 10
9.9118066279
 20
9.1329455244
 30
0.0
 10
9.9138361353
 20
9.130325202
 30
0.0
 10
9.9158656468
 20
9.1277048843
 30
0.0
 10
9.9175568935
 20
9.1255212716
 30
0.0
 10
9.9189099198
 20
9.1237744141
 30
0.0
 10
9.9197554952
 20
9.1226825539
 30
0.0
 10
9.9204321069
 20
9.1218092358
 30
0.0
 10
9.9209391513
 20
9.1211537814
 30
0.0
 10
9.9213630063
 20
9.1206090514
 30
0.0
 10
9.9216571182
 20
9.1202248321
 30
0.0
 10
9.921829221
 20
9.1200098192
 30
0.0
 10
9.9219469205
 20
9.1198357676
 30
0.0
 10
9.9221081108
 20
9.119710613
 30
0.0
 10
9.9223078612
 20
9.1195266845
 30
0.0
 10
9.9226644922
 20
9.1192127561
 30
0.0
 10
9.92317027
 20
9.1187601324
 30
0.0
 10
9.9237787849
 20
9.1182187623
 30
0.0
 10
9.9245895858
 20
9.1174963143
 30
0.0
 10
9.925603276
 20
9.1165934671
 30
0.0
 10
9.9272250746
 20
9.1151487925
 30
0.0
 10
9.9292523591
 20
9.1133429902
 30
0.0
 10
9.931685085
 20
9.1111760099
 30
0.0
 10
9.934117815
 20
9.1090090343
 30
0.0
 10
9.9373614536
 20
9.1061197318
 30
0.0
 10
9.9414160024
 20
9.1025081043
 30
0.0
 10
9.9454705509
 20
9.0988964764
 30
0.0
 10
9.94871419
 20
9.0960071747
 30
0.0
 10
9.9511469184
 20
9.093840197
 30
0.0
 10
9.9535796504
 20
9.0916732243
 30
0.0
 10
9.955606916
 20
9.0898673982
 30
0.0
 10
9.9572287531
 20
9.0884227723
 30
0.0
 10
9.9582423453
 20
9.0875198013
 30
0.0
 10
9.9590533473
 20
9.0867976072
 30
0.0
 10
9.9596612476
 20
9.0862554614
 30
0.0
 10
9.9601689485
 20
9.0858052647
 30
0.0
 10
9.9605221465
 20
9.0854870037
 30
0.0
 10
9.9607273975
 20
9.0853100171
 30
0.0
 10
9.9608716913
 20
9.0851635392
 30
0.0
 10
9.9610528512
 20
9.0850695745
 30
0.0
 10
9.9612815384
 20
9.0849259711
 30
0.0
 10
9.9616877325
 20
9.0846831994
 30
0.0
 10
9.9622648773
 20
9.0843319209
 30
0.0
 10
9.9629587918
 20
9.0839122965
 30
0.0
 10
9.9638835429
 20
9.0833521303
 30
0.0
 10
9.9650396421
 20
9.0826521508
 30
0.0
 10
9.9668893112
 20
9.0815320561
 30
0.0
 10
9.9692014284
 20
9.0801319815
 30
0.0
 10
9.9719759558
 20
9.0784518732
 30
0.0
 10
9.9747504867
 20
9.0767717699
 30
0.0
 10
9.97844986
 20
9.0745316304
 30
0.0
 10
9.9830740771
 20
9.0717314567
 30
0.0
 10
9.9876982939
 20
9.0689312826
 30
0.0
 10
9.9913976676
 20
9.0666911439
 30
0.0
 10
9.9941721973
 20
9.0650110383
 30
0.0
 10
9.9969467294
 20
9.0633309385
 30
0.0
 10
9.9992588319
 20
9.0619308375
 30
0.0
 10
10.0011085309
 20
9.0608107965
 30
0.0
 10
10.002264554
 20
9.0601106805
 30
0.0
 10
10.0031894612
 20
9.0595507945
 30
0.0
 10
10.0038828989
 20
9.0591303139
 30
0.0
 10
10.0044615356
 20
9.0587817141
 30
0.0
 10
10.0048650665
 20
9.0585341605
 30
0.0
 10
10.0050980207
 20
9.058398219
 30
0.0
 10
10.0052660738
 20
9.0582807193
 30
0.0
 10
10.0054595944
 20
9.0582226351
 30
0.0
 10
10.0057087386
 20
9.0581244648
 30
0.0
 10
10.0061488798
 20
9.0579623228
 30
0.0
 10
10.0067754891
 20
9.057725643
 30
0.0
 10
10.0075283465
 20
9.0574437881
 30
0.0
 10
10.0085318328
 20
9.0570672269
 30
0.0
 10
10.0097863014
 20
9.0565967838
 30
0.0
 10
10.0117933893
 20
9.0558439304
 30
0.0
 10
10.0143022704
 20
9.0549029131
 30
0.0
 10
10.0173129187
 20
9.0537736712
 30
0.0
 10
10.0203235694
 20
9.052644435
 30
0.0
 10
10.0243377695
 20
9.0511387847
 30
0.0
 10
10.0293555199
 20
9.0492567225
 30
0.0
 10
10.0343732701
 20
9.0473746599
 30
0.0
 10
10.0383874704
 20
9.0458690104
 30
0.0
 10
10.0413981202
 20
9.0447397717
 30
0.0
 10
10.0444087719
 20
9.0436105391
 30
0.0
 10
10.0469176425
 20
9.0426694929
 30
0.0
 10
10.0489247518
 20
9.0419166985
 30
0.0
 10
10.050179166
 20
9.0414461053
 30
0.0
 10
10.0511827641
 20
9.0410698521
 30
0.0
 10
10.05193528
 20
9.0407870561
 30
0.0
 10
10.0525629576
 20
9.0405533209
 30
0.0
 10
10.0530011916
 20
9.0403859223
 30
0.0
 10
10.0532533916
 20
9.0402961744
 30
0.0
 10
10.0534375259
 20
9.0402122192
 30
0.0
 10
10.0536408324
 20
9.040191887
 30
0.0
 10
10.0539052202
 20
9.0401425849
 30
0.0
 10
10.0543710148
 20
9.0400666463
 30
0.0
 10
10.0550348066
 20
9.0399527566
 30
0.0
 10
10.055832054
 20
9.0398184029
 30
0.0
 10
10.056894807
 20
9.0396384565
 30
0.0
 10
10.0582233316
 20
9.0394138002
 30
0.0
 10
10.0603489245
 20
9.0390541954
 30
0.0
 10
10.0630059315
 20
9.0386047425
 30
0.0
 10
10.0661943331
 20
9.0380653763
 30
0.0
 10
10.0693827365
 20
9.0375260161
 30
0.0
 10
10.0736339404
 20
9.0368068671
 30
0.0
 10
10.0789479455
 20
9.0359079317
 30
0.0
 10
10.0842619505
 20
9.0350089957
 30
0.0
 10
10.0885131545
 20
9.0342898475
 30
0.0
 10
10.0917015577
 20
9.0337504847
 30
0.0
 10
10.0948899602
 20
9.0332111284
 30
0.0
 10
10.0975469642
 20
9.0327616446
 30
0.0
 10
10.0996725633
 20
9.0324021029
 30
0.0
 10
10.1010010719
 20
9.0321772861
 30
0.0
 10
10.102063858
 20
9.0319976689
 30
0.0
 10
10.1028610043
 20
9.0318623094
 30
0.0
 10
10.1035251124
 20
9.0317515668
 30
0.0
 10
10.1039903422
 20
9.0316700101
 30
0.0
 10
10.1042556348
 20
9.0316297096
 30
0.0
 10
10.1044561623
 20
9.0315817278
 30
0.0
 10
10.1046507342
 20
9.0316016198
 30
0.0
 10
10.1049122408
 20
9.0316044672
 30
0.0
 10
10.1053689094
 20
9.031620481
 30
0.0
 10
10.1060217992
 20
9.0316375909
 30
0.0
 10
10.1068050504
 20
9.0316605912
 30
0.0
 10
10.107849461
 20
9.031690396
 30
0.0
 10
10.1091549482
 20
9.0317279473
 30
0.0
 10
10.1112437424
 20
9.0317878644
 30
0.0
 10
10.1138547301
 20
9.0318628174
 30
0.0
 10
10.1169879174
 20
9.0319527367
 30
0.0
 10
10.1201211042
 20
9.0320426624
 30
0.0
 10
10.1242986868
 20
9.0321625612
 30
0.0
 10
10.129520665
 20
9.0323124355
 30
0.0
 10
10.1347426433
 20
9.0324623093
 30
0.0
 10
10.1389202257
 20
9.0325822089
 30
0.0
 10
10.1420534129
 20
9.032672132
 30
0.0
 10
10.1451865988
 20
9.0327620614
 30
0.0
 10
10.147797591
 20
9.0328369829
 30
0.0
 10
10.1498863761
 20
9.0328969641
 30
0.0
 10
10.1511918863
 20
9.0329343522
 30
0.0
 10
10.1522362497
 20
9.032964492
 30
0.0
 10
10.1530196449
 20
9.032986469
 30
0.0
 10
10.1536720841
 20
9.0330067805
 30
0.0
 10
10.1541295572
 20
9.0330170789
 30
0.0
 10
10.1543897749
 20
9.0330290838
 30
0.0
 10
10.1545883057
 20
9.0330208472
 30
0.0
 10
10.1547739644
 20
9.0330785117
 30
0.0
 10
10.1550259993
 20
9.0331324108
 30
0.0
 10
10.1554649684
 20
9.0332374442
 30
0.0
 10
10.1560931608
 20
9.0333818925
 30
0.0
 10
10.1568465235
 20
9.0335576272
 30
0.0
 10
10.1578511707
 20
9.0337911031
 30
0.0
 10
10.1591069237
 20
9.0340832345
 30
0.0
 10
10.1611161597
 20
9.0345504847
 30
0.0
 10
10.163627694
 20
9.0351346023
 30
0.0
 10
10.1666415398
 20
9.0358355198
 30
0.0
 10
10.1696553843
 20
9.0365364437
 30
0.0
 10
10.1736738441
 20
9.0374710067
 30
0.0
 10
10.1786969188
 20
9.0386392112
 30
0.0
 10
10.1837199935
 20
9.0398074152
 30
0.0
 10
10.1877384531
 20
9.040741979
 30
0.0
 10
10.1907522984
 20
9.0414429002
 30
0.0
 10
10.1937661413
 20
9.0421438276
 30
0.0
 10
10.1962776846
 20
9.0427279149
 30
0.0
 10
10.1982869023
 20
9.0431952268
 30
0.0
 10
10.1995427018
 20
9.043487201
 30
0.0
 10
10.2005472535
 20
9.0437209996
 30
0.0
 10
10.2013009079
 20
9.0438957482
 30
0.0
 10
10.2019281878
 20
9.044043282
 30
0.0
 10
10.2023687858
 20
9.0441428073
 30
0.0
 10
10.2026182108
 20
9.0442055316
 30
0.0
 10
10.2028118862
 20
9.0442360878
 30
0.0
 10
10.2029803077
 20
9.0443296657
 30
0.0
 10
10.2032136786
 20
9.0444324535
 30
0.0
 10
10.2036179735
 20
9.0446225743
 30
0.0
 10
10.2041976834
 20
9.0448888208
 30
0.0
 10
10.2048924168
 20
9.0452106086
 30
0.0
 10
10.2058190488
 20
9.0456388584
 30
0.0
 10
10.2069772289
 20
9.0461744447
 30
0.0
 10
10.2088303786
 20
9.0470312297
 30
0.0
 10
10.2111467945
 20
9.0481022635
 30
0.0
 10
10.2139265027
 20
9.0493874815
 30
0.0
 10
10.2167062085
 20
9.0506727055
 30
0.0
 10
10.2204124837
 20
9.0523863354
 30
0.0
 10
10.2250453273
 20
9.0545283736
 30
0.0
 10
10.2296781713
 20
9.0566704113
 30
0.0
 10
10.2333844461
 20
9.058384042
 30
0.0
 10
10.236164153
 20
9.0596692635
 30
0.0
 10
10.2389438568
 20
9.060954491
 30
0.0
 10
10.2412602863
 20
9.0620254954
 30
0.0
 10
10.2431134083
 20
9.0628823402
 30
0.0
 10
10.2442716588
 20
9.0634177744
 30
0.0
 10
10.2451981465
 20
9.0638463365
 30
0.0
 10
10.2458933207
 20
9.06416717
 30
0.0
 10
10.2464716514
 20
9.0644364021
 30
0.0
 10
10.2468784083
 20
9.0646211931
 30
0.0
 10
10.2471078345
 20
9.0647325207
 30
0.0
 10
10.2472883729
 20
9.0647998672
 30
0.0
 10
10.2474365395
 20
9.0649289439
 30
0.0
 10
10.2476453867
 20
9.065079514
 30
0.0
 10
10.2480056083
 20
9.0653530439
 30
0.0
 10
10.2485229611
 20
9.065738556
 30
0.0
 10
10.2491426071
 20
9.0662034155
 30
0.0
 10
10.249969213
 20
9.066822444
 30
0.0
 10
10.2510023296
 20
9.0675964981
 30
0.0
 10
10.2526553948
 20
9.0688348346
 30
0.0
 10
10.2547216993
 20
9.0703828068
 30
0.0
 10
10.2572012763
 20
9.0722403513
 30
0.0
 10
10.2596808502
 20
9.0740979017
 30
0.0
 10
10.2629869498
 20
9.0765746335
 30
0.0
 10
10.2671195739
 20
9.079670549
 30
0.0
 10
10.2712521983
 20
9.0827664641
 30
0.0
 10
10.2745582974
 20
9.0852431967
 30
0.0
 10
10.277037873
 20
9.0871007449
 30
0.0
 10
10.2795174436
 20
9.0889582976
 30
0.0
 10
10.2815837679
 20
9.0905062442
 30
0.0
 10
10.2832367928
 20
9.0917446329
 30
0.0
 10
10.2842700121
 20
9.0925185543
 30
0.0
 10
10.285096407
 20
9.0931378552
 30
0.0
 10
10.2857166977
 20
9.0936018823
 30
0.0
 10
10.2862320334
 20
9.0939899987
 30
0.0
 10
10.2865958559
 20
9.0942588794
 30
0.0
 10
10.2867989335
 20
9.0944168987
 30
0.0
 10
10.2869648225
 20
9.0945230939
 30
0.0
 10
10.2870787985
 20
9.0946763799
 30
0.0
 10
10.2872488744
 20
9.0948643354
 30
0.0
 10
10.2875380703
 20
9.0952009107
 30
0.0
 10
10.2879556182
 20
9.0956777314
 30
0.0
 10
10.2884547876
 20
9.0962516288
 30
0.0
 10
10.2891210064
 20
9.0970162272
 30
0.0
 10
10.289953554
 20
9.09797218
 30
0.0
 10
10.2912857564
 20
9.0995015901
 30
0.0
 10
10.2929509661
 20
9.1014133919
 30
0.0
 10
10.2949492363
 20
9.1037075373
 30
0.0
 10
10.2969475015
 20
9.1060016872
 30
0.0
 10
10.2996118568
 20
9.1090605521
 30
0.0
 10
10.3029423004
 20
9.1128841339
 30
0.0
 10
10.3062727444
 20
9.1167077152
 30
0.0
 10
10.3089370991
 20
9.1197665807
 30
0.0
 10
10.3109353664
 20
9.1220607289
 30
0.0
 10
10.3129336285
 20
9.1243548809
 30
0.0
 10
10.3145988634
 20
9.1262666621
 30
0.0
 10
10.3159310145
 20
9.1277961142
 30
0.0
 10
10.3167636926
 20
9.12875196
 30
0.0
 10
10.3174296435
 20
9.1295167781
 30
0.0
 10
10.3179296313
 20
9.1300900042
 30
0.0
 10
10.3183446188
 20
9.1305689255
 30
0.0
 10
10.3186383854
 20
9.1309017507
 30
0.0
 10
10.3188011379
 20
9.1310957149
 30
0.0
 10
10.3189376089
 20
9.1312305444
 30
0.0
 10
10.3190190101
 20
9.1314060591
 30
0.0
 10
10.319146754
 20
9.1316258872
 30
0.0
 10
10.319361356
 20
9.1320171986
 30
0.0
 10
10.3196726094
 20
9.1325727579
 30
0.0
 10
10.3200441107
 20
9.1332409087
 30
0.0
 10
10.3205401452
 20
9.1341312597
 30
0.0
 10
10.3211599489
 20
9.1352443754
 30
0.0
 10
10.3221517687
 20
9.1370252615
 30
0.0
 10
10.3233914974
 20
9.1392514032
 30
0.0
 10
10.3248791916
 20
9.1419227586
 30
0.0
 10
10.3263668805
 20
9.144594118
 30
0.0
 10
10.3283504676
 20
9.1481559291
 30
0.0
 10
10.3308299507
 20
9.1526081934
 30
0.0
 10
10.3333094343
 20
9.1570604575
 30
0.0
 10
10.3352930206
 20
9.160622269
 30
0.0
 10
10.3367807119
 20
9.1632936269
 30
0.0
 10
10.3382683973
 20
9.1659649877
 30
0.0
 10
10.3395081534
 20
9.1681911128
 30
0.0
 10
10.3404999174
 20
9.1699720327
 30
0.0
 10
10.3411198628
 20
9.1710850625
 30
0.0
 10
10.3416156063
 20
9.1719755898
 30
0.0
 10
10.3419879968
 20
9.1726432021
 30
0.0
 10
10.342296468
 20
9.1732004462
 30
0.0
 10
10.3425160367
 20
9.17358875
 30
0.0
 10
10.3426358228
 20
9.173813397
 30
0.0
 10
10.342741668
 20
9.1739741097
 30
0.0
 10
10.3427863314
 20
9.174164533
 30
0.0
 10
10.3428672235
 20
9.1744080672
 30
0.0
 10
10.3429988417
 20
9.1748390807
 30
0.0
 10
10.3431920659
 20
9.1754522898
 30
0.0
 10
10.34342171
 20
9.1761892213
 30
0.0
 10
10.3437286792
 20
9.1771714192
 30
0.0
 10
10.3441121246
 20
9.1783992958
 30
0.0
 10
10.344725786
 20
9.1803638262
 30
0.0
 10
10.3454928118
 20
9.1828195139
 30
0.0
 10
10.3464132645
 20
9.1857663286
 30
0.0
 10
10.3473337114
 20
9.188713146
 30
0.0
 10
10.348560976
 20
9.192642235
 30
0.0
 10
10.3500950559
 20
9.1975535966
 30
0.0
 10
10.3516291364
 20
9.202464958
 30
0.0
 10
10.3528564002
 20
9.2063940473
 30
0.0
 10
10.3537768496
 20
9.2093408637
 30
0.0
 10
10.3546972928
 20
9.2122876824
 30
0.0
 10
10.3554643482
 20
9.2147433576
 30
0.0
 10
10.3560779492
 20
9.2167079135
 30
0.0
 10
10.3564615484
 20
9.217935725
 30
0.0
 10
10.3567682019
 20
9.2189180566
 30
0.0
 10
10.3569988107
 20
9.2196545797
 30
0.0
 10
10.3571890163
 20
9.2202690665
 30
0.0
 10
10.3573260233
 20
9.2206977991
 30
0.0
 10
10.3573982811
 20
9.2209449879
 30
0.0
 10
10.3574694665
 20
9.2211241855
 30
0.0
 10
10.3574756994
 20
9.2213270599
 30
0.0
 10
10.357506666
 20
9.2215893003
 30
0.0
 10
10.3575503018
 20
9.2220520689
 30
0.0
 10
10.3576181573
 20
9.2227111552
 30
0.0
 10
10.3576972217
 20
9.2235029198
 30
0.0
 10
10.3578034659
 20
9.2245583052
 30
0.0
 10
10.3579359888
 20
9.22587764
 30
0.0
 10
10.3581481832
 20
9.227988518
 30
0.0
 10
10.358413372
 20
9.2306271353
 30
0.0
 10
10.3587316219
 20
9.2337934676
 30
0.0
 10
10.3590498655
 20
9.2369598021
 30
0.0
 10
10.3594741925
 20
9.2411815807
 30
0.0
 10
10.3600046005
 20
9.2464588043
 30
0.0
 10
10.3606410904
 20
9.2527914724
 30
0.0
 10
10.3614897435
 20
9.2612350299
 30
0.0
 10
10.3621262334
 20
9.2675676981
 30
0.0
 10
10.36255056
 20
9.2717894769
 30
0.0
  0
ENDSEC
  0
SECTION
  2
OBJECTS
  0
DICTIONARY
  5
C
100
AcDbDictionary
280
0
281
1
  3
ACAD_GROUP
350
D
  3
ACAD_MLINESTYLE
350
17
  3
ACAD_LAYOUT
350
1A
  3
ACAD_PLOTSETTINGS
350
19
  3
ACAD_PLOTSTYLENAME
350
E
  3
ACAD_IMAGE_DICT
350
       327
  3
ACAD_IMAGE_VARS
350
       328
  3
ACAD_TABLESTYLE
350
       329
  0
IMAGEDEF_REACTOR
  5
326
100
AcDbRasterImageDefReactor
 90
2
330
27C
  0
DICTIONARY
  5
D
102
{ACAD_REACTORS
330
C
102
}
100
AcDbDictionary
280
0
281
1
  0
ACDBDICTIONARYWDFLT
  5
E
102
{ACAD_REACTORS
330
C
102
}
100
AcDbDictionary
281
1
  3
Normal
350
F
100
AcDbDictionaryWithDefault
340
F
  0
DICTIONARY
  5
327
330
C
100
AcDbDictionary
281
1
  3
ZLL_assy_2_img_1
350
       32C
  0
RASTERVARIABLES
  5
328
330
C
100
AcDbRasterVariables
 90
0
 70
0
 71
1
 72
5
  0
DICTIONARY
  5
17
102
{ACAD_REACTORS
330
C
102
}
100
AcDbDictionary
280
0
281
1
  3
Standard
350
18
  0
DICTIONARY
  5
329
330
C
100
AcDbDictionary
281
1
  3
Standard
350
       32D
  3
Standard1
350
       32E
  0
DICTIONARY
  5
19
102
{ACAD_REACTORS
330
C
102
}
100
AcDbDictionary
281
1
  0
DICTIONARY
  5
1A
102
{ACAD_REACTORS
330
C
102
}
100
AcDbDictionary
281
1
  3
Model
350
32A
  3
Layout1
350
32B
  0
ACDBPLACEHOLDER
  5
F
102
{ACAD_REACTORS
330
E
102
}
  0
MLINESTYLE
  5
18
102
{ACAD_REACTORS
330
17
102
}
100
AcDbMlineStyle
  2
STANDARD
 70
0
  3

 62
256
 51
90.0
 52
90.0
 71
2
 49
0.5
 62
256
  6
BYLAYER
 49
-0.5
 62
256
  6
BYLAYER
  0
LAYOUT
  5
32A
102
{ACAD_REACTORS
330
1A
102
}
100
AcDbPlotSettings
  1

  2
none_device
  4
ANSI_C_(22.00_x_17.00_Inches)
  6

 40
0.0
 41
0.0
 42
0.0
 43
0.0
 44
558.8
 45
431.8
 46
0.0
 47
0.0
 48
0.0
 49
0.0
140
0.0
141
0.0
142
1.0
143
1.0
 70
1024
 72
0
 73
0
 74
0
  7

 75
0
147
1.0
148
0.0
149
0.0
100
AcDbLayout
  1
Model
 70
0
 71
0
 10
0.0
 20
0.0
 11
22.0
 21
17.0
 12
0.0
 22
0.0
 32
0.0
 14
0.0
 24
0.0
 34
0.0
 15
0.0
 25
0.0
 35
0.0
146
0.0
 13
0.0
 23
0.0
 33
0.0
 16
1.0
 26
0.0
 36
0.0
 17
0.0
 27
1.0
 37
0.0
 76
0
330
204
345
0
346
0
  0
LAYOUT
  5
32B
102
{ACAD_REACTORS
330
1A
102
}
100
AcDbPlotSettings
  1

  2
none_device
  4
ANSI_C_(22.00_x_17.00_Inches)
  6

 40
0.0
 41
0.0
 42
0.0
 43
0.0
 44
558.8
 45
431.8
 46
0.0
 47
0.0
 48
0.0
 49
0.0
140
0.0
141
0.0
142
1.0
143
1.0
 70
0
 72
0
 73
0
 74
0
  7

 75
0
147
1.0
148
0.0
149
0.0
100
AcDbLayout
  1
Layout1
 70
0
 71
1
 10
0.0
 20
0.0
 11
22.0
 21
17.0
 12
0.0
 22
0.0
 32
0.0
 14
0.0
 24
0.0
 34
0.0
 15
0.0
 25
0.0
 35
0.0
146
0.0
 13
0.0
 23
0.0
 33
0.0
 16
1.0
 26
0.0
 36
0.0
 17
0.0
 27
1.0
 37
0.0
 76
0
330
205
345
0
346
0
  0
IMAGEDEF
  5
32C
102
{ACAD_REACTORS
330
327
330
326
102
}
100
AcDbRasterImageDef
 90
0
  1
ZLL_assy_2_img_1.png
 10
369.0
 20
92.0
 11
0.0066666667
 21
0.0066666667
280
1
281
0
  0
TABLESTYLE
  5
32D
102
{ACAD_REACTORS
330
329
330
27F
330
280
102
}
330
329
100
AcDbTableStyle
  3
Standard
 70
0
 71
0
 40
0.06
 41
0.06
280
1
281
1
  7
Standard
140
0.18
170
1
 62
0
 63
7
283
0
  7
Standard
140
0.18
170
1
 62
0
 63
7
283
0
  7
Standard
140
0.18
170
1
 62
0
 63
7
283
0
  0
TABLESTYLE
  5
32E
102
{ACAD_REACTORS
330
329
330
27E
102
}
330
329
100
AcDbTableStyle
  3
Standard1
 70
1
 71
0
 40
0.06
 41
0.06
280
1
281
1
  7
Standard
140
0.18
170
1
 62
0
 63
7
283
0
  7
Standard
140
0.18
170
1
 62
0
 63
7
283
0
  7
Standard
140
0.18
170
1
 62
0
 63
7
283
0
  0
ENDSEC
  0
EOF
